  0
SECTION
  2
HEADER
  9
$ACADVER
  1
AC1009
  9
$INSBASE
 10
0.0
 20
0.0
 30
0.0
  9
$EXTMIN
 10
-0.0000000000000089
 20
-1758.9999999999991
 30
0.0
  9
$EXTMAX
 10
12399.70000000001
 20
770.0
 30
0.0
  9
$LIMMIN
 10
0.0
 20
0.0
  9
$LIMMAX
 10
210.0
 20
297.0
  9
$ORTHOMODE
 70
     0
  9
$REGENMODE
 70
     1
  9
$FILLMODE
 70
     1
  9
$QTEXTMODE
 70
     0
  9
$MIRRTEXT
 70
     0
  9
$DRAGMODE
 70
     2
  9
$LTSCALE
 40
1.0
  9
$OSMODE
 70
  2429
  9
$ATTMODE
 70
     1
  9
$TEXTSIZE
 40
4.0
  9
$TRACEWID
 40
0.05
  9
$TEXTSTYLE
  7
STANDARD
  9
$CLAYER
  8
OBJECT
  9
$CELTYPE
  6
BYLAYER
  9
$CECOLOR
 62
   256
  9
$DIMSCALE
 40
10.0
  9
$DIMASZ
 40
2.0
  9
$DIMEXO
 40
1.0
  9
$DIMDLI
 40
10.0
  9
$DIMRND
 40
0.0
  9
$DIMDLE
 40
0.0
  9
$DIMEXE
 40
1.0
  9
$DIMTP
 40
0.0
  9
$DIMTM
 40
0.0
  9
$DIMTXT
 40
3.2000000000000002
  9
$DIMCEN
 40
0.0
  9
$DIMTSZ
 40
0.0
  9
$DIMTOL
 70
     0
  9
$DIMLIM
 70
     0
  9
$DIMTIH
 70
     0
  9
$DIMTOH
 70
     0
  9
$DIMSE1
 70
     0
  9
$DIMSE2
 70
     0
  9
$DIMTAD
 70
     1
  9
$DIMZIN
 70
     8
  9
$DIMBLK
  1
OPEN30
  9
$DIMASO
 70
     1
  9
$DIMSHO
 70
     1
  9
$DIMPOST
  1

  9
$DIMAPOST
  1

  9
$DIMALT
 70
     0
  9
$DIMALTD
 70
     2
  9
$DIMALTF
 40
25.399999999999999
  9
$DIMLFAC
 40
1.0
  9
$DIMTOFL
 70
     1
  9
$DIMTVP
 40
0.0
  9
$DIMTIX
 70
     0
  9
$DIMSOXD
 70
     0
  9
$DIMSAH
 70
     0
  9
$DIMBLK1
  1

  9
$DIMBLK2
  1

  9
$DIMSTYLE
  2
S10
  9
$DIMCLRD
 70
   256
  9
$DIMCLRE
 70
   256
  9
$DIMCLRT
 70
   256
  9
$DIMTFAC
 40
1.0
  9
$DIMGAP
 40
0.9
  9
$LUNITS
 70
     2
  9
$LUPREC
 70
     2
  9
$SKETCHINC
 40
0.1
  9
$FILLETRAD
 40
0.0
  9
$AUNITS
 70
     0
  9
$AUPREC
 70
     2
  9
$MENU
  1
ACAD
  9
$ELEVATION
 40
0.0
  9
$PELEVATION
 40
0.0
  9
$THICKNESS
 40
0.0
  9
$LIMCHECK
 70
     0
  9
$BLIPMODE
 70
     0
  9
$CHAMFERA
 40
2.0
  9
$CHAMFERB
 40
2.0
  9
$SKPOLY
 70
     0
  9
$TDCREATE
 40
2453095.4929404748
  9
$TDUPDATE
 40
2457233.5393989119
  9
$TDINDWG
 40
18.483559803199999
  9
$TDUSRTIMER
 40
18.483558541699999
  9
$USRTIMER
 70
     1
  9
$ANGBASE
 50
0.0
  9
$ANGDIR
 70
     0
  9
$PDMODE
 70
    35
  9
$PDSIZE
 40
2.0
  9
$PLINEWID
 40
0.0
  9
$COORDS
 70
     0
  9
$SPLFRAME
 70
     0
  9
$SPLINETYPE
 70
     6
  9
$SPLINESEGS
 70
     8
  9
$ATTDIA
 70
     0
  9
$ATTREQ
 70
     1
  9
$HANDLING
 70
     1
  9
$HANDSEED
  5
12563A
  9
$SURFTAB1
 70
     6
  9
$SURFTAB2
 70
     6
  9
$SURFTYPE
 70
     6
  9
$SURFU
 70
     6
  9
$SURFV
 70
     6
  9
$UCSNAME
  2

  9
$UCSORG
 10
0.0
 20
0.0
 30
0.0
  9
$UCSXDIR
 10
1.0
 20
0.0
 30
0.0
  9
$UCSYDIR
 10
0.0
 20
1.0
 30
0.0
  9
$PUCSNAME
  2

  9
$PUCSORG
 10
0.0
 20
0.0
 30
0.0
  9
$PUCSXDIR
 10
1.0
 20
0.0
 30
0.0
  9
$PUCSYDIR
 10
0.0
 20
1.0
 30
0.0
  9
$USERI1
 70
     0
  9
$USERI2
 70
     0
  9
$USERI3
 70
     0
  9
$USERI4
 70
     0
  9
$USERI5
 70
     0
  9
$USERR1
 40
0.0
  9
$USERR2
 40
0.0
  9
$USERR3
 40
0.0
  9
$USERR4
 40
0.0
  9
$USERR5
 40
0.0
  9
$WORLDVIEW
 70
     1
  9
$SHADEDGE
 70
     3
  9
$SHADEDIF
 70
    70
  9
$TILEMODE
 70
     1
  9
$MAXACTVP
 70
    64
  9
$PLIMCHECK
 70
     0
  9
$PEXTMIN
 10
29.066066288948051
 20
20.366566777229309
 30
0.0
  9
$PEXTMAX
 10
261.5945966005325
 20
183.29910099506381
 30
0.0
  9
$PLIMMIN
 10
-3.17498779296875
 20
-3.1749999523162842
  9
$PLIMMAX
 10
293.83566284179687
 20
206.8406708240509
  9
$UNITMODE
 70
     0
  9
$VISRETAIN
 70
     1
  9
$PLINEGEN
 70
     0
  9
$PSLTSCALE
 70
     1
  0
ENDSEC
  0
SECTION
  2
TABLES
  0
TABLE
  2
VPORT
 70
     1
  0
VPORT
  2
*ACTIVE
 70
     0
 10
0.0
 20
0.0
 11
1.0
 21
1.0
 12
6101.8566305814329
 22
-2985.7751133083411
 13
0.0
 23
0.0
 14
1.0
 24
1.0
 15
0.0
 25
0.0
 16
0.0
 26
0.0
 36
1.0
 17
0.0
 27
0.0
 37
0.0
 40
10684.790310444931
 41
1.6494178525226391
 42
50.0
 43
0.0
 44
0.0
 50
0.0
 51
0.0
 71
     0
 72
   600
 73
     1
 74
     1
 75
     0
 76
     0
 77
     0
 78
     0
  0
ENDTAB
  0
TABLE
  2
LTYPE
 70
     4
  0
LTYPE
  2
CONTINUOUS
 70
     0
  3
Solid line
 72
    65
 73
     0
 40
0.0
  0
LTYPE
  2
PHANTOM2
 70
     0
  3
___ _ _ ___ _ _ ___ _ _ ___ _ _
 72
    65
 73
     6
 40
1.25
 49
0.625
 49
-0.125
 49
0.125
 49
-0.125
 49
0.125
 49
-0.125
  0
LTYPE
  2
ACAD_ISO08W100
 70
     0
  3
ISO long-dash short-dash ____ __ ____ __ ____ _
 72
    65
 73
     4
 40
36.0
 49
24.0
 49
-3.0
 49
6.0
 49
-3.0
  0
LTYPE
  2
ACAD_ISO02W100
 70
     0
  3
ISO dash __ __ __ __ __ __ __ __ __ __ __ __ __
 72
    65
 73
     2
 40
15.0
 49
12.0
 49
-3.0
  0
ENDTAB
  0
TABLE
  2
LAYER
 70
     7
  0
LAYER
  2
0
 70
     0
 62
     7
  6
CONTINUOUS
  0
LAYER
  2
OBJECT
 70
     0
 62
     4
  6
CONTINUOUS
  0
LAYER
  2
DEFPOINTS
 70
     0
 62
     7
  6
CONTINUOUS
  0
LAYER
  2
HIDDEN
 70
     0
 62
     2
  6
ACAD_ISO02W100
  0
LAYER
  2
CENTER
 70
     0
 62
     2
  6
ACAD_ISO08W100
  0
LAYER
  2
DOTS
 70
     0
 62
     1
  6
CONTINUOUS
  0
LAYER
  2
SLIM
 70
     0
 62
     2
  6
CONTINUOUS
  0
ENDTAB
  0
TABLE
  2
STYLE
 70
     2
  0
STYLE
  2
STANDARD
 70
     0
 40
0.0
 41
0.75
 50
0.0
 71
     0
 42
4.0
  3
simplex.shx
  4
bigfont.shx
  0
ENDTAB
  0
TABLE
  2
VIEW
 70
     0
  0
ENDTAB
  0
TABLE
  2
UCS
 70
     0
  0
ENDTAB
  0
TABLE
  2
APPID
 70
    18
  0
APPID
  2
ACAD
 70
     0
  0
APPID
  2
ACADANNOTATIVE
 70
     0
  0
APPID
  2
ACAD_PSEXT
 70
     0
  0
APPID
  2
ACAD_EXEMPT_FROM_CAD_STANDARDS
 70
     0
  0
APPID
  2
ACAECLAYERSTANDARD
 70
     0
  0
APPID
  2
ACAUTHENVIRON
 70
     0
  0
APPID
  2
ACDBDYNAMICBLOCKTRUENAME
 70
     0
  0
APPID
  2
ACDBDYNAMICBLOCKGUID
 70
     0
  0
APPID
  2
ACDBBLOCKREPETAG
 70
     0
  0
APPID
  2
ACDBBLOCKREPBTAG
 70
     0
  0
APPID
  2
ACAD_NAV_VCDISPLAY
 70
     0
  0
APPID
  2
ACAD_DSTYLE_DIMRADIAL_EXTENSION
 70
     0
  0
APPID
  2
ACAD_DSTYLE_DIMJAG
 70
     0
  0
APPID
  2
ACAD_DSTYLE_DIMTALN
 70
     0
  0
APPID
  2
ACADANNOPO
 70
     0
  0
APPID
  2
GRADIENTCOLOR1ACI
 70
     0
  0
APPID
  2
GRADIENTCOLOR2ACI
 70
     0
  0
APPID
  2
ACAD_MLEADERVER
 70
     0
  0
ENDTAB
  0
TABLE
  2
DIMSTYLE
 70
     3
  0
DIMSTYLE
  2
STANDARD
 70
     0
  3

  4

  5

  6

  7

 40
1.0
 41
0.18
 42
0.0625
 43
0.38
 44
0.18
 45
0.0
 46
0.0
 47
0.0
 48
0.0
140
0.18
141
0.09
142
0.0
143
25.399999999999999
144
1.0
145
0.0
146
1.0
147
0.09
 71
     0
 72
     0
 73
     1
 74
     1
 75
     0
 76
     0
 77
     0
 78
     0
170
     0
171
     2
172
     0
173
     0
174
     0
175
     0
176
     0
177
     0
178
     0
  0
DIMSTYLE
  2
S10
 70
     0
  3

  4

  5

  6

  7

 40
10.0
 41
2.0
 42
1.0
 43
10.0
 44
1.0
 45
0.0
 46
0.0
 47
0.0
 48
0.0
140
3.2000000000000002
141
0.0
142
0.0
143
25.399999999999999
144
1.0
145
0.0
146
1.0
147
0.9
 71
     0
 72
     0
 73
     0
 74
     0
 75
     0
 76
     0
 77
     1
 78
     8
170
     0
171
     2
172
     1
173
     0
174
     0
175
     0
176
   256
177
   256
178
   256
  0
ENDTAB
  0
ENDSEC
  0
SECTION
  2
BLOCKS
  0
BLOCK
  8
0
  2
$MODEL_SPACE
 70
     0
 10
0.0
 20
0.0
 30
0.0
  3
$MODEL_SPACE
  1

  0
ENDBLK
  5
125562
  8
0
  0
BLOCK
 67
     1
  8
0
  2
$PAPER_SPACE
 70
     0
 10
0.0
 20
0.0
 30
0.0
  3
$PAPER_SPACE
  1

  0
ENDBLK
  5
12555E
 67
     1
  8
0
  0
BLOCK
  8
0
  2
_OPEN30
 70
     0
 10
0.0
 20
0.0
 30
0.0
  3
_OPEN30
  1

  0
LINE
  5
202
  8
0
  6
BYBLOCK
 62
     0
 10
-1.0
 20
0.26794919
 30
0.0
 11
0.0
 21
0.0
 31
0.0
  0
LINE
  5
203
  8
0
  6
BYBLOCK
 62
     0
 10
0.0
 20
0.0
 30
0.0
 11
-1.0
 21
-0.26794919
 31
0.0
  0
LINE
  5
204
  8
0
  6
BYBLOCK
 62
     0
 10
0.0
 20
0.0
 30
0.0
 11
-1.0
 21
0.0
 31
0.0
  0
ENDBLK
  5
206
  8
0
  0
ENDSEC
  0
SECTION
  2
ENTITIES
  0
LINE
  5
1250C4
  8
OBJECT
 10
11927.0
 20
-533.99999999999955
 30
0.0
 11
11930.0
 21
-533.99999999999955
 31
0.0
1001
ACDBBLOCKREPETAG
1070
     1
1071
        1
1005
1250C4
  0
ARC
  5
1250C5
  8
OBJECT
 10
11927.0
 20
-536.99999999999955
 30
0.0
 40
3.0
 50
90.0
 51
180.0
1001
ACDBBLOCKREPETAG
1070
     1
1071
        2
1005
1250C5
  0
LINE
  5
1250C6
  8
OBJECT
 10
11930.0
 20
-657.99999999999955
 30
0.0
 11
11927.0
 21
-657.99999999999955
 31
0.0
1001
ACDBBLOCKREPETAG
1070
     1
1071
        3
1005
1250C6
  0
ARC
  5
1250C7
  8
OBJECT
 10
11927.0
 20
-654.99999999999966
 30
0.0
 40
3.0
 50
180.0
 51
270.0
1001
ACDBBLOCKREPETAG
1070
     1
1071
        4
1005
1250C7
  0
LINE
  5
1250C8
  8
OBJECT
 10
11924.0
 20
-654.99999999999966
 30
0.0
 11
11924.0
 21
-536.99999999999955
 31
0.0
1001
ACDBBLOCKREPETAG
1070
     1
1071
        5
1005
1250C8
  0
CIRCLE
  5
1250C9
  8
OBJECT
 10
12000.0
 20
-596.0
 30
0.0
 40
62.0
1001
ACDBBLOCKREPETAG
1070
     1
1071
        0
1005
1250C9
  0
LINE
  5
1250CA
  8
OBJECT
 10
11935.0
 20
-449.99999999999937
 30
0.0
 11
11935.0
 21
-470.99999999999937
 31
0.0
1001
ACDBBLOCKREPETAG
1070
     1
1071
       16
1005
1250CA
  0
LINE
  5
1250CB
  8
OBJECT
 10
11935.0
 20
-470.99999999999937
 30
0.0
 11
12065.0
 21
-470.99999999999937
 31
0.0
1001
ACDBBLOCKREPETAG
1070
     1
1071
       17
1005
1250CB
  0
LINE
  5
1250CC
  8
OBJECT
 10
12065.0
 20
-470.99999999999937
 30
0.0
 11
12065.0
 21
-449.99999999999937
 31
0.0
1001
ACDBBLOCKREPETAG
1070
     1
1071
       18
1005
1250CC
  0
LINE
  5
1250CD
  8
OBJECT
 10
12065.0
 20
-449.99999999999937
 30
0.0
 11
11935.0
 21
-449.99999999999937
 31
0.0
1001
ACDBBLOCKREPETAG
1070
     1
1071
       19
1005
1250CD
  0
LINE
  5
1250CE
  8
HIDDEN
 10
12044.5
 20
-519.99999999999955
 30
0.0
 11
11955.5
 21
-519.99999999999955
 31
0.0
1001
ACDBBLOCKREPETAG
1070
     1
1071
       20
1005
1250CE
  0
LINE
  5
1250CF
  8
CENTER
 10
12000.0
 20
-669.99999999999955
 30
0.0
 11
12000.0
 21
-434.99999999999949
 31
0.0
1001
ACDBBLOCKREPETAG
1070
     1
1071
       21
1005
1250CF
  0
LINE
  5
1250D0
  8
OBJECT
 10
11940.5
 20
-470.99999999999937
 30
0.0
 11
11940.5
 21
-533.99999999999955
 31
0.0
1001
ACDBBLOCKREPETAG
1070
     1
1071
       22
1005
1250D0
  0
LINE
  5
1250D1
  8
OBJECT
 10
11930.0
 20
-533.99999999999955
 30
0.0
 11
12070.0
 21
-533.99999999999955
 31
0.0
1001
ACDBBLOCKREPETAG
1070
     1
1071
       23
1005
1250D1
  0
LINE
  5
1250D2
  8
OBJECT
 10
12059.5
 20
-533.99999999999955
 30
0.0
 11
12059.5
 21
-470.99999999999937
 31
0.0
1001
ACDBBLOCKREPETAG
1070
     1
1071
       24
1005
1250D2
  0
LINE
  5
1250D3
  8
OBJECT
 10
11930.0
 20
-657.99999999999955
 30
0.0
 11
11930.0
 21
-669.99999999999955
 31
0.0
1001
ACDBBLOCKREPETAG
1070
     1
1071
       25
1005
1250D3
  0
LINE
  5
1250D4
  8
OBJECT
 10
11930.0
 20
-669.99999999999955
 30
0.0
 11
12070.0
 21
-669.99999999999955
 31
0.0
1001
ACDBBLOCKREPETAG
1070
     1
1071
       26
1005
1250D4
  0
LINE
  5
1250D5
  8
OBJECT
 10
12070.0
 20
-669.99999999999955
 30
0.0
 11
12070.0
 21
-657.99999999999955
 31
0.0
1001
ACDBBLOCKREPETAG
1070
     1
1071
       27
1005
1250D5
  0
LINE
  5
1250D6
  8
OBJECT
 10
12070.0
 20
-657.99999999999955
 30
0.0
 11
11930.0
 21
-657.99999999999955
 31
0.0
1001
ACDBBLOCKREPETAG
1070
     1
1071
       28
1005
1250D6
  0
ARC
  5
1250D7
  8
OBJECT
 10
12435.038438994679
 20
-898.60813684682694
 30
0.0
 40
519.48776673616965
 50
135.42350667430969
 51
138.50052655621499
1001
ACDBBLOCKREPETAG
1070
     1
1071
       32
1005
1250D7
  0
ARC
  5
1250D8
  8
OBJECT
 10
12435.038438994679
 20
-293.39186315317193
 30
0.0
 40
519.48776673616965
 50
221.49947344378501
 51
224.57649332569039
1001
ACDBBLOCKREPETAG
1070
     1
1071
       33
1005
1250D8
  0
ARC
  5
1250D9
  8
OBJECT
 10
11564.961561005321
 20
-898.60813684682694
 30
0.0
 40
519.48776673616965
 50
41.499473443784993
 51
44.576493325690237
1001
ACDBBLOCKREPETAG
1070
     1
1071
       34
1005
1250D9
  0
ARC
  5
1250DA
  8
OBJECT
 10
11564.961561005321
 20
-293.39186315317193
 30
0.0
 40
519.48776673616965
 50
315.42350667430981
 51
318.50052655621488
1001
ACDBBLOCKREPETAG
1070
     1
1071
       35
1005
1250DA
  0
POINT
  5
1250DB
  8
DOTS
 10
12000.0
 20
-654.99999999999966
 30
0.0
1001
ACDBBLOCKREPETAG
1070
     1
1071
      111
1005
1250DB
  0
LINE
  5
1250DC
  8
CENTER
 10
11909.0
 20
-199.99999999999909
 30
0.0
 11
11930.0
 21
-199.99999999999909
 31
0.0
1001
ACDBBLOCKREPETAG
1070
     1
1071
        0
1005
1250DC
  0
LINE
  5
1250DD
  8
OBJECT
 10
11927.0
 20
-261.99999999999909
 30
0.0
 11
11930.0
 21
-261.99999999999909
 31
0.0
1001
ACDBBLOCKREPETAG
1070
     1
1071
        1
1005
1250DD
  0
ARC
  5
1250DE
  8
OBJECT
 10
11927.0
 20
-258.99999999999909
 30
0.0
 40
3.0
 50
180.0
 51
270.0
1001
ACDBBLOCKREPETAG
1070
     1
1071
        2
1005
1250DE
  0
LINE
  5
1250DF
  8
OBJECT
 10
11930.0
 20
-137.99999999999909
 30
0.0
 11
11927.0
 21
-137.99999999999909
 31
0.0
1001
ACDBBLOCKREPETAG
1070
     1
1071
        3
1005
1250DF
  0
ARC
  5
1250E0
  8
OBJECT
 10
11927.0
 20
-140.99999999999909
 30
0.0
 40
3.0
 50
90.0
 51
180.0
1001
ACDBBLOCKREPETAG
1070
     1
1071
        4
1005
1250E0
  0
LINE
  5
1250E1
  8
OBJECT
 10
11924.0
 20
-140.99999999999909
 30
0.0
 11
11924.0
 21
-258.99999999999909
 31
0.0
1001
ACDBBLOCKREPETAG
1070
     1
1071
        5
1005
1250E1
  0
LINE
  5
1250E2
  8
CENTER
 10
12000.0
 20
-290.99999999999898
 30
0.0
 11
12000.0
 21
-269.99999999999909
 31
0.0
1001
ACDBBLOCKREPETAG
1070
     1
1071
        0
1005
1250E2
  0
LINE
  5
1250E3
  8
OBJECT
 10
12062.0
 20
-273.0
 30
0.0
 11
12062.0
 21
-269.99999999999909
 31
0.0
1001
ACDBBLOCKREPETAG
1070
     1
1071
        1
1005
1250E3
  0
ARC
  5
1250E4
  8
OBJECT
 10
12059.0
 20
-273.0
 30
0.0
 40
3.0
 50
270.0
 51
0.0
1001
ACDBBLOCKREPETAG
1070
     1
1071
        2
1005
1250E4
  0
LINE
  5
1250E5
  8
OBJECT
 10
11938.0
 20
-269.99999999999909
 30
0.0
 11
11938.0
 21
-272.99999999999818
 31
0.0
1001
ACDBBLOCKREPETAG
1070
     1
1071
        3
1005
1250E5
  0
ARC
  5
1250E6
  8
OBJECT
 10
11941.0
 20
-272.99999999999818
 30
0.0
 40
3.0
 50
180.0
 51
270.0
1001
ACDBBLOCKREPETAG
1070
     1
1071
        4
1005
1250E6
  0
LINE
  5
1250E7
  8
OBJECT
 10
11941.0
 20
-275.99999999999818
 30
0.0
 11
12059.0
 21
-276.0
 31
0.0
1001
ACDBBLOCKREPETAG
1070
     1
1071
        5
1005
1250E7
  0
LINE
  5
1250E8
  8
SLIM
 10
11963.217182668241
 20
-137.99999999999909
 30
0.0
 11
11969.921507996291
 21
-131.29567467194681
 31
0.0
1001
GRADIENTCOLOR1ACI
1070
     5
1001
GRADIENTCOLOR2ACI
1070
     2
1001
ACAD
1010
0.0
1020
0.0
1030
0.0
1001
ACDBBLOCKREPETAG
1070
     1
1071
      169
1005
1250E8
  0
LINE
  5
1250E9
  8
SLIM
 10
11972.19743878931
 20
-137.99999999999909
 30
0.0
 11
11983.31883633275
 21
-126.87860245655401
 31
0.0
1001
GRADIENTCOLOR1ACI
1070
     5
1001
GRADIENTCOLOR2ACI
1070
     2
1001
ACAD
1010
0.0
1020
0.0
1030
0.0
1001
ACDBBLOCKREPETAG
1070
     1
1071
      170
1005
1250E9
  0
LINE
  5
1250EA
  8
SLIM
 10
11981.48493728876
 20
-137.6927576216126
 30
0.0
 11
11993.9318052486
 21
-125.245889661777
 31
0.0
1001
GRADIENTCOLOR1ACI
1070
     5
1001
GRADIENTCOLOR2ACI
1070
     2
1001
ACAD
1010
0.0
1020
0.0
1030
0.0
1001
ACDBBLOCKREPETAG
1070
     1
1071
      171
1005
1250EA
  0
LINE
  5
1250EB
  8
SLIM
 10
11992.75265682803
 20
-135.40529420341099
 30
0.0
 11
12000.0
 21
-128.1579510314458
 31
0.0
1001
GRADIENTCOLOR1ACI
1070
     5
1001
GRADIENTCOLOR2ACI
1070
     2
1001
ACAD
1010
0.0
1020
0.0
1030
0.0
1001
ACDBBLOCKREPETAG
1070
     1
1071
      172
1005
1250EB
  0
LINE
  5
1250EC
  8
SLIM
 10
12000.0
 20
-128.1579510314458
 30
0.0
 11
12003.094100787839
 21
-125.0638502435924
 31
0.0
1001
GRADIENTCOLOR1ACI
1070
     5
1001
GRADIENTCOLOR2ACI
1070
     2
1001
ACAD
1010
0.0
1020
0.0
1030
0.0
1001
ACDBBLOCKREPETAG
1070
     1
1071
      173
1005
1250EC
  0
LINE
  5
1250ED
  8
SLIM
 10
12002.10414122347
 20
-135.03406592904389
 30
0.0
 11
12011.28442576865
 21
-125.85378138386341
 31
0.0
1001
GRADIENTCOLOR1ACI
1070
     5
1001
GRADIENTCOLOR2ACI
1070
     2
1001
ACAD
1010
0.0
1020
0.0
1030
0.0
1001
ACDBBLOCKREPETAG
1070
     1
1071
      174
1005
1250ED
  0
LINE
  5
1250EE
  8
SLIM
 10
12010.297585520921
 20
-135.82087775265759
 30
0.0
 11
12018.73958846552
 21
-127.3788748080627
 31
0.0
1001
GRADIENTCOLOR1ACI
1070
     5
1001
GRADIENTCOLOR2ACI
1070
     2
1001
ACAD
1010
0.0
1020
0.0
1030
0.0
1001
ACDBBLOCKREPETAG
1070
     1
1071
      175
1005
1250EE
  0
LINE
  5
1250EF
  8
SLIM
 10
12017.655079364229
 20
-137.4436400304258
 30
0.0
 11
12025.595886626959
 21
-129.50283276769261
 31
0.0
1001
GRADIENTCOLOR1ACI
1070
     5
1001
GRADIENTCOLOR2ACI
1070
     2
1001
ACAD
1010
0.0
1020
0.0
1030
0.0
1001
ACDBBLOCKREPETAG
1070
     1
1071
      176
1005
1250EF
  0
LINE
  5
1250F0
  8
SLIM
 10
12026.07897551572
 20
-137.99999999999909
 30
0.0
 11
12031.9385859461
 21
-132.1403895696169
 31
0.0
1001
GRADIENTCOLOR1ACI
1070
     5
1001
GRADIENTCOLOR2ACI
1070
     2
1001
ACAD
1010
0.0
1020
0.0
1030
0.0
1001
ACDBBLOCKREPETAG
1070
     1
1071
      177
1005
1250F0
  0
LINE
  5
1250F1
  8
SLIM
 10
12035.059231636789
 20
-137.99999999999909
 30
0.0
 11
12037.82336543762
 21
-135.23586619916779
 31
0.0
1001
GRADIENTCOLOR1ACI
1070
     5
1001
GRADIENTCOLOR2ACI
1070
     2
1001
ACAD
1010
0.0
1020
0.0
1030
0.0
1001
ACDBBLOCKREPETAG
1070
     1
1071
      178
1005
1250F1
  0
CIRCLE
  5
1250F2
  8
OBJECT
 10
12000.0
 20
-199.99999999999909
 30
0.0
 40
65.0
1001
ACDBBLOCKREPETAG
1070
     1
1071
       84
1005
1250F2
  0
CIRCLE
  5
1250F3
  8
OBJECT
 10
12000.0
 20
-199.99999999999909
 30
0.0
 40
41.0
1001
ACDBBLOCKREPETAG
1070
     1
1071
       85
1005
1250F3
  0
CIRCLE
  5
1250F4
  8
OBJECT
 10
12000.0
 20
-199.99999999999909
 30
0.0
 40
58.0
1001
ACDBBLOCKREPETAG
1070
     1
1071
       86
1005
1250F4
  0
LINE
  5
1250F5
  8
OBJECT
 10
12070.0
 20
-137.99999999999909
 30
0.0
 11
12019.519221295939
 21
-137.99999999999909
 31
0.0
1001
ACDBBLOCKREPETAG
1070
     1
1071
       87
1005
1250F5
  0
LINE
  5
1250F6
  8
OBJECT
 10
11930.0
 20
-137.99999999999909
 30
0.0
 11
11980.48077870405
 21
-137.99999999999909
 31
0.0
1001
ACDBBLOCKREPETAG
1070
     1
1071
       88
1005
1250F6
  0
LINE
  5
1250F7
  8
OBJECT
 10
11930.0
 20
-261.99999999999909
 30
0.0
 11
11938.0
 21
-261.99999999999909
 31
0.0
1001
ACDBBLOCKREPETAG
1070
     1
1071
       89
1005
1250F7
  0
LINE
  5
1250F8
  8
OBJECT
 10
11938.0
 20
-269.99999999999909
 30
0.0
 11
11938.0
 21
-261.99999999999909
 31
0.0
1001
ACDBBLOCKREPETAG
1070
     1
1071
       90
1005
1250F8
  0
LINE
  5
1250F9
  8
OBJECT
 10
12070.0
 20
-261.99999999999909
 30
0.0
 11
12062.0
 21
-261.99999999999909
 31
0.0
1001
ACDBBLOCKREPETAG
1070
     1
1071
       91
1005
1250F9
  0
LINE
  5
1250FA
  8
OBJECT
 10
12062.0
 20
-269.99999999999909
 30
0.0
 11
12062.0
 21
-261.99999999999909
 31
0.0
1001
ACDBBLOCKREPETAG
1070
     1
1071
       92
1005
1250FA
  0
LINE
  5
1250FB
  8
CENTER
 10
11930.0
 20
-199.99999999999909
 30
0.0
 11
12070.0
 21
-199.99999999999909
 31
0.0
1001
ACDBBLOCKREPETAG
1070
     1
1071
       93
1005
1250FB
  0
LINE
  5
1250FC
  8
CENTER
 10
12000.0
 20
-269.99999999999909
 30
0.0
 11
12000.0
 21
-109.9999999999991
 31
0.0
1001
ACDBBLOCKREPETAG
1070
     1
1071
       94
1005
1250FC
  0
ARC
  5
1250FD
  8
OBJECT
 10
11989.902762139191
 20
-224.44352901899131
 30
0.0
 40
7.0
 50
73.00127222950276
 51
154.0502587892864
1001
ACDBBLOCKREPETAG
1070
     1
1071
       95
1005
1250FD
  0
ARC
  5
1250FE
  8
OBJECT
 10
11986.837661070649
 20
-225.5978773169509
 30
0.0
 40
9.0
 50
73.00127222950276
 51
154.0502639259247
1001
ACDBBLOCKREPETAG
1070
     1
1071
       96
1005
1250FE
  0
ARC
  5
1250FF
  8
OBJECT
 10
11896.314230131549
 20
-147.28130031148149
 30
0.0
 40
150.0
 50
322.8950337398245
 51
325.8931499695608
1001
ACDBBLOCKREPETAG
1070
     1
1071
       97
1005
1250FF
  0
ARC
  5
125100
  8
OBJECT
 10
12000.0
 20
-199.99999999999909
 30
0.0
 40
37.5
 50
303.16276667665232
 51
229.16350249104781
1001
ACDBBLOCKREPETAG
1070
     1
1071
       98
1005
125100
  0
LINE
  5
125101
  8
OBJECT
 10
11983.608514518981
 20
-221.38045100897119
 30
0.0
 11
11977.374011
 21
-234.1915870000002
 31
0.0
1001
ACDBBLOCKREPETAG
1070
     1
1071
       99
1005
125101
  0
LINE
  5
125102
  8
OBJECT
 10
11978.74505663446
 20
-221.65963488670511
 30
0.0
 11
11973.898671999999
 21
-231.6183599999996
 31
0.0
1001
ACDBBLOCKREPETAG
1070
     1
1071
      100
1005
125102
  0
LINE
  5
125103
  8
OBJECT
 10
12018.938018000001
 20
-226.00000000000091
 30
0.0
 11
11989.468815303249
 21
-216.99107608744359
 31
0.0
1001
ACDBBLOCKREPETAG
1070
     1
1071
      101
1005
125103
  0
LINE
  5
125104
  8
OBJECT
 10
12020.513225309
 20
-231.39199878029191
 30
0.0
 11
12018.938018000001
 21
-226.00000000000091
 31
0.0
1001
ACDBBLOCKREPETAG
1070
     1
1071
      102
1005
125104
  0
LINE
  5
125105
  8
OBJECT
 10
11954.03805922287
 20
-245.96194077712289
 30
0.0
 11
11938.0
 21
-261.99999999999909
 31
0.0
1001
ACDBBLOCKREPETAG
1070
     1
1071
      106
1005
125105
  0
LINE
  5
125106
  8
OBJECT
 10
12045.96194077713
 20
-245.96194077712289
 30
0.0
 11
12062.0
 21
-261.99999999999909
 31
0.0
1001
ACDBBLOCKREPETAG
1070
     1
1071
      107
1005
125106
  0
ARC
  5
125107
  8
OBJECT
 10
12000.0
 20
-199.99999999999909
 30
0.0
 40
75.0
 50
55.757831297238091
 51
124.2421687027619
1001
ACDBBLOCKREPETAG
1070
     1
1071
      108
1005
125107
  0
POINT
  5
125108
  8
DOTS
 10
12000.0
 20
-199.99999999999909
 30
0.0
 50
270.0
1001
ACDBBLOCKREPETAG
1070
     1
1071
      157
1005
125108
  0
LINE
  5
125109
  8
OBJECT
 10
12073.0
 20
-533.99999999999955
 30
0.0
 11
12070.0
 21
-533.99999999999955
 31
0.0
1001
ACDBBLOCKREPETAG
1070
     1
1071
        1
1005
125109
  0
ARC
  5
12510A
  8
OBJECT
 10
12073.0
 20
-536.99999999999955
 30
0.0
 40
3.0
 50
0.0
 51
90.0
1001
ACDBBLOCKREPETAG
1070
     1
1071
        2
1005
12510A
  0
LINE
  5
12510B
  8
OBJECT
 10
12070.0
 20
-657.99999999999955
 30
0.0
 11
12073.0
 21
-657.99999999999955
 31
0.0
1001
ACDBBLOCKREPETAG
1070
     1
1071
        3
1005
12510B
  0
ARC
  5
12510C
  8
OBJECT
 10
12073.0
 20
-654.99999999999966
 30
0.0
 40
3.0
 50
270.0
 51
0.0
1001
ACDBBLOCKREPETAG
1070
     1
1071
        4
1005
12510C
  0
LINE
  5
12510D
  8
OBJECT
 10
12076.0
 20
-654.99999999999966
 30
0.0
 11
12076.0
 21
-536.99999999999955
 31
0.0
1001
ACDBBLOCKREPETAG
1070
     1
1071
        5
1005
12510D
  0
LINE
  5
12510E
  8
CENTER
 10
12091.0
 20
-199.99999999999909
 30
0.0
 11
12070.0
 21
-199.99999999999909
 31
0.0
1001
ACDBBLOCKREPETAG
1070
     1
1071
        0
1005
12510E
  0
LINE
  5
12510F
  8
OBJECT
 10
12073.0
 20
-137.99999999999909
 30
0.0
 11
12070.0
 21
-137.99999999999909
 31
0.0
1001
ACDBBLOCKREPETAG
1070
     1
1071
        1
1005
12510F
  0
ARC
  5
125110
  8
OBJECT
 10
12073.0
 20
-140.99999999999909
 30
0.0
 40
3.0
 50
0.0
 51
90.0
1001
ACDBBLOCKREPETAG
1070
     1
1071
        2
1005
125110
  0
LINE
  5
125111
  8
OBJECT
 10
12070.0
 20
-261.99999999999909
 30
0.0
 11
12073.0
 21
-261.99999999999909
 31
0.0
1001
ACDBBLOCKREPETAG
1070
     1
1071
        3
1005
125111
  0
ARC
  5
125112
  8
OBJECT
 10
12073.0
 20
-258.99999999999909
 30
0.0
 40
3.0
 50
270.0
 51
0.0
1001
ACDBBLOCKREPETAG
1070
     1
1071
        4
1005
125112
  0
LINE
  5
125113
  8
OBJECT
 10
12076.0
 20
-258.99999999999909
 30
0.0
 11
12076.0
 21
-140.99999999999909
 31
0.0
1001
ACDBBLOCKREPETAG
1070
     1
1071
        5
1005
125113
  0
LINE
  5
125114
  8
OBJECT
 10
9927.0
 20
-533.99999999999955
 30
0.0
 11
9930.0
 21
-533.99999999999955
 31
0.0
1001
ACDBBLOCKREPETAG
1070
     1
1071
        1
1005
125114
  0
ARC
  5
125115
  8
OBJECT
 10
9927.0
 20
-536.99999999999955
 30
0.0
 40
3.0
 50
90.0
 51
180.0
1001
ACDBBLOCKREPETAG
1070
     1
1071
        2
1005
125115
  0
LINE
  5
125116
  8
OBJECT
 10
9930.0
 20
-657.99999999999955
 30
0.0
 11
9927.0
 21
-657.99999999999955
 31
0.0
1001
ACDBBLOCKREPETAG
1070
     1
1071
        3
1005
125116
  0
ARC
  5
125117
  8
OBJECT
 10
9927.0
 20
-654.99999999999966
 30
0.0
 40
3.0
 50
180.0
 51
270.0
1001
ACDBBLOCKREPETAG
1070
     1
1071
        4
1005
125117
  0
LINE
  5
125118
  8
OBJECT
 10
9924.0
 20
-654.99999999999966
 30
0.0
 11
9924.0
 21
-536.99999999999955
 31
0.0
1001
ACDBBLOCKREPETAG
1070
     1
1071
        5
1005
125118
  0
CIRCLE
  5
125119
  8
OBJECT
 10
10000.0
 20
-596.0
 30
0.0
 40
62.0
1001
ACDBBLOCKREPETAG
1070
     1
1071
        0
1005
125119
  0
LINE
  5
12511A
  8
OBJECT
 10
9935.0
 20
-449.99999999999937
 30
0.0
 11
9935.0
 21
-470.99999999999937
 31
0.0
1001
ACDBBLOCKREPETAG
1070
     1
1071
       16
1005
12511A
  0
LINE
  5
12511B
  8
OBJECT
 10
9935.0
 20
-470.99999999999937
 30
0.0
 11
10065.0
 21
-470.99999999999937
 31
0.0
1001
ACDBBLOCKREPETAG
1070
     1
1071
       17
1005
12511B
  0
LINE
  5
12511C
  8
OBJECT
 10
10065.0
 20
-470.99999999999937
 30
0.0
 11
10065.0
 21
-449.99999999999937
 31
0.0
1001
ACDBBLOCKREPETAG
1070
     1
1071
       18
1005
12511C
  0
LINE
  5
12511D
  8
OBJECT
 10
10065.0
 20
-449.99999999999937
 30
0.0
 11
9935.0
 21
-449.99999999999937
 31
0.0
1001
ACDBBLOCKREPETAG
1070
     1
1071
       19
1005
12511D
  0
LINE
  5
12511E
  8
HIDDEN
 10
10044.5
 20
-519.99999999999955
 30
0.0
 11
9955.5
 21
-519.99999999999955
 31
0.0
1001
ACDBBLOCKREPETAG
1070
     1
1071
       20
1005
12511E
  0
LINE
  5
12511F
  8
CENTER
 10
10000.0
 20
-669.99999999999955
 30
0.0
 11
10000.0
 21
-434.99999999999949
 31
0.0
1001
ACDBBLOCKREPETAG
1070
     1
1071
       21
1005
12511F
  0
LINE
  5
125120
  8
OBJECT
 10
9940.5
 20
-470.99999999999937
 30
0.0
 11
9940.5
 21
-533.99999999999955
 31
0.0
1001
ACDBBLOCKREPETAG
1070
     1
1071
       22
1005
125120
  0
LINE
  5
125121
  8
OBJECT
 10
9930.0
 20
-533.99999999999955
 30
0.0
 11
10070.0
 21
-533.99999999999955
 31
0.0
1001
ACDBBLOCKREPETAG
1070
     1
1071
       23
1005
125121
  0
LINE
  5
125122
  8
OBJECT
 10
10059.5
 20
-533.99999999999955
 30
0.0
 11
10059.5
 21
-470.99999999999937
 31
0.0
1001
ACDBBLOCKREPETAG
1070
     1
1071
       24
1005
125122
  0
LINE
  5
125123
  8
OBJECT
 10
9930.0
 20
-657.99999999999955
 30
0.0
 11
9930.0
 21
-669.99999999999955
 31
0.0
1001
ACDBBLOCKREPETAG
1070
     1
1071
       25
1005
125123
  0
LINE
  5
125124
  8
OBJECT
 10
9930.0
 20
-669.99999999999955
 30
0.0
 11
10070.0
 21
-669.99999999999955
 31
0.0
1001
ACDBBLOCKREPETAG
1070
     1
1071
       26
1005
125124
  0
LINE
  5
125125
  8
OBJECT
 10
10070.0
 20
-669.99999999999955
 30
0.0
 11
10070.0
 21
-657.99999999999955
 31
0.0
1001
ACDBBLOCKREPETAG
1070
     1
1071
       27
1005
125125
  0
LINE
  5
125126
  8
OBJECT
 10
10070.0
 20
-657.99999999999955
 30
0.0
 11
9930.0
 21
-657.99999999999955
 31
0.0
1001
ACDBBLOCKREPETAG
1070
     1
1071
       28
1005
125126
  0
ARC
  5
125127
  8
OBJECT
 10
10435.03843899467
 20
-898.60813684682694
 30
0.0
 40
519.48776673616965
 50
135.42350667430969
 51
138.50052655621499
1001
ACDBBLOCKREPETAG
1070
     1
1071
       32
1005
125127
  0
ARC
  5
125128
  8
OBJECT
 10
10435.03843899467
 20
-293.39186315317193
 30
0.0
 40
519.48776673616965
 50
221.49947344378501
 51
224.57649332569039
1001
ACDBBLOCKREPETAG
1070
     1
1071
       33
1005
125128
  0
ARC
  5
125129
  8
OBJECT
 10
9564.9615610053243
 20
-898.60813684682694
 30
0.0
 40
519.48776673616965
 50
41.499473443784993
 51
44.576493325690237
1001
ACDBBLOCKREPETAG
1070
     1
1071
       34
1005
125129
  0
ARC
  5
12512A
  8
OBJECT
 10
9564.9615610053243
 20
-293.39186315317193
 30
0.0
 40
519.48776673616965
 50
315.42350667430981
 51
318.50052655621488
1001
ACDBBLOCKREPETAG
1070
     1
1071
       35
1005
12512A
  0
POINT
  5
12512B
  8
DOTS
 10
10000.0
 20
-654.99999999999966
 30
0.0
1001
ACDBBLOCKREPETAG
1070
     1
1071
      111
1005
12512B
  0
LINE
  5
12512C
  8
CENTER
 10
9909.0
 20
-199.99999999999909
 30
0.0
 11
9930.0
 21
-199.99999999999909
 31
0.0
1001
ACDBBLOCKREPETAG
1070
     1
1071
        0
1005
12512C
  0
LINE
  5
12512D
  8
OBJECT
 10
9927.0
 20
-261.99999999999909
 30
0.0
 11
9930.0
 21
-261.99999999999909
 31
0.0
1001
ACDBBLOCKREPETAG
1070
     1
1071
        1
1005
12512D
  0
ARC
  5
12512E
  8
OBJECT
 10
9927.0
 20
-258.99999999999909
 30
0.0
 40
3.0
 50
180.0
 51
270.0
1001
ACDBBLOCKREPETAG
1070
     1
1071
        2
1005
12512E
  0
LINE
  5
12512F
  8
OBJECT
 10
9930.0
 20
-137.99999999999909
 30
0.0
 11
9927.0
 21
-137.99999999999909
 31
0.0
1001
ACDBBLOCKREPETAG
1070
     1
1071
        3
1005
12512F
  0
ARC
  5
125130
  8
OBJECT
 10
9927.0
 20
-140.99999999999909
 30
0.0
 40
3.0
 50
90.0
 51
180.0
1001
ACDBBLOCKREPETAG
1070
     1
1071
        4
1005
125130
  0
LINE
  5
125131
  8
OBJECT
 10
9924.0
 20
-140.99999999999909
 30
0.0
 11
9924.0
 21
-258.99999999999909
 31
0.0
1001
ACDBBLOCKREPETAG
1070
     1
1071
        5
1005
125131
  0
LINE
  5
125132
  8
CENTER
 10
10000.0
 20
-290.99999999999898
 30
0.0
 11
10000.0
 21
-269.99999999999909
 31
0.0
1001
ACDBBLOCKREPETAG
1070
     1
1071
        0
1005
125132
  0
LINE
  5
125133
  8
OBJECT
 10
10062.0
 20
-273.0
 30
0.0
 11
10062.0
 21
-269.99999999999909
 31
0.0
1001
ACDBBLOCKREPETAG
1070
     1
1071
        1
1005
125133
  0
ARC
  5
125134
  8
OBJECT
 10
10059.0
 20
-273.0
 30
0.0
 40
3.0
 50
270.0
 51
0.0
1001
ACDBBLOCKREPETAG
1070
     1
1071
        2
1005
125134
  0
LINE
  5
125135
  8
OBJECT
 10
9938.0
 20
-269.99999999999909
 30
0.0
 11
9938.0
 21
-272.99999999999818
 31
0.0
1001
ACDBBLOCKREPETAG
1070
     1
1071
        3
1005
125135
  0
ARC
  5
125136
  8
OBJECT
 10
9941.0
 20
-272.99999999999818
 30
0.0
 40
3.0
 50
180.0
 51
270.0
1001
ACDBBLOCKREPETAG
1070
     1
1071
        4
1005
125136
  0
LINE
  5
125137
  8
OBJECT
 10
9941.0
 20
-275.99999999999818
 30
0.0
 11
10059.0
 21
-276.0
 31
0.0
1001
ACDBBLOCKREPETAG
1070
     1
1071
        5
1005
125137
  0
LINE
  5
125138
  8
SLIM
 10
9963.2171826682406
 20
-137.99999999999909
 30
0.0
 11
9969.9215079962923
 21
-131.29567467194681
 31
0.0
1001
GRADIENTCOLOR1ACI
1070
     5
1001
GRADIENTCOLOR2ACI
1070
     2
1001
ACAD
1010
0.0
1020
0.0
1030
0.0
1001
ACDBBLOCKREPETAG
1070
     1
1071
      169
1005
125138
  0
LINE
  5
125139
  8
SLIM
 10
9972.1974387893097
 20
-137.99999999999909
 30
0.0
 11
9983.3188363327517
 21
-126.87860245655401
 31
0.0
1001
GRADIENTCOLOR1ACI
1070
     5
1001
GRADIENTCOLOR2ACI
1070
     2
1001
ACAD
1010
0.0
1020
0.0
1030
0.0
1001
ACDBBLOCKREPETAG
1070
     1
1071
      170
1005
125139
  0
LINE
  5
12513A
  8
SLIM
 10
9981.4849372887638
 20
-137.6927576216126
 30
0.0
 11
9993.9318052485996
 21
-125.245889661777
 31
0.0
1001
GRADIENTCOLOR1ACI
1070
     5
1001
GRADIENTCOLOR2ACI
1070
     2
1001
ACAD
1010
0.0
1020
0.0
1030
0.0
1001
ACDBBLOCKREPETAG
1070
     1
1071
      171
1005
12513A
  0
LINE
  5
12513B
  8
SLIM
 10
9992.7526568280355
 20
-135.40529420341099
 30
0.0
 11
10000.0
 21
-128.1579510314458
 31
0.0
1001
GRADIENTCOLOR1ACI
1070
     5
1001
GRADIENTCOLOR2ACI
1070
     2
1001
ACAD
1010
0.0
1020
0.0
1030
0.0
1001
ACDBBLOCKREPETAG
1070
     1
1071
      172
1005
12513B
  0
LINE
  5
12513C
  8
SLIM
 10
10000.0
 20
-128.1579510314458
 30
0.0
 11
10003.09410078785
 21
-125.0638502435924
 31
0.0
1001
GRADIENTCOLOR1ACI
1070
     5
1001
GRADIENTCOLOR2ACI
1070
     2
1001
ACAD
1010
0.0
1020
0.0
1030
0.0
1001
ACDBBLOCKREPETAG
1070
     1
1071
      173
1005
12513C
  0
LINE
  5
12513D
  8
SLIM
 10
10002.10414122347
 20
-135.03406592904389
 30
0.0
 11
10011.28442576865
 21
-125.85378138386341
 31
0.0
1001
GRADIENTCOLOR1ACI
1070
     5
1001
GRADIENTCOLOR2ACI
1070
     2
1001
ACAD
1010
0.0
1020
0.0
1030
0.0
1001
ACDBBLOCKREPETAG
1070
     1
1071
      174
1005
12513D
  0
LINE
  5
12513E
  8
SLIM
 10
10010.297585520921
 20
-135.82087775265759
 30
0.0
 11
10018.73958846552
 21
-127.3788748080627
 31
0.0
1001
GRADIENTCOLOR1ACI
1070
     5
1001
GRADIENTCOLOR2ACI
1070
     2
1001
ACAD
1010
0.0
1020
0.0
1030
0.0
1001
ACDBBLOCKREPETAG
1070
     1
1071
      175
1005
12513E
  0
LINE
  5
12513F
  8
SLIM
 10
10017.65507936422
 20
-137.4436400304258
 30
0.0
 11
10025.595886626959
 21
-129.50283276769261
 31
0.0
1001
GRADIENTCOLOR1ACI
1070
     5
1001
GRADIENTCOLOR2ACI
1070
     2
1001
ACAD
1010
0.0
1020
0.0
1030
0.0
1001
ACDBBLOCKREPETAG
1070
     1
1071
      176
1005
12513F
  0
LINE
  5
125140
  8
SLIM
 10
10026.07897551572
 20
-137.99999999999909
 30
0.0
 11
10031.9385859461
 21
-132.1403895696169
 31
0.0
1001
GRADIENTCOLOR1ACI
1070
     5
1001
GRADIENTCOLOR2ACI
1070
     2
1001
ACAD
1010
0.0
1020
0.0
1030
0.0
1001
ACDBBLOCKREPETAG
1070
     1
1071
      177
1005
125140
  0
LINE
  5
125141
  8
SLIM
 10
10035.05923163678
 20
-137.99999999999909
 30
0.0
 11
10037.82336543762
 21
-135.23586619916779
 31
0.0
1001
GRADIENTCOLOR1ACI
1070
     5
1001
GRADIENTCOLOR2ACI
1070
     2
1001
ACAD
1010
0.0
1020
0.0
1030
0.0
1001
ACDBBLOCKREPETAG
1070
     1
1071
      178
1005
125141
  0
CIRCLE
  5
125142
  8
OBJECT
 10
10000.0
 20
-199.99999999999909
 30
0.0
 40
65.0
1001
ACDBBLOCKREPETAG
1070
     1
1071
       84
1005
125142
  0
CIRCLE
  5
125143
  8
OBJECT
 10
10000.0
 20
-199.99999999999909
 30
0.0
 40
41.0
1001
ACDBBLOCKREPETAG
1070
     1
1071
       85
1005
125143
  0
CIRCLE
  5
125144
  8
OBJECT
 10
10000.0
 20
-199.99999999999909
 30
0.0
 40
58.0
1001
ACDBBLOCKREPETAG
1070
     1
1071
       86
1005
125144
  0
LINE
  5
125145
  8
OBJECT
 10
10070.0
 20
-137.99999999999909
 30
0.0
 11
10019.519221295939
 21
-137.99999999999909
 31
0.0
1001
ACDBBLOCKREPETAG
1070
     1
1071
       87
1005
125145
  0
LINE
  5
125146
  8
OBJECT
 10
9930.0
 20
-137.99999999999909
 30
0.0
 11
9980.4807787040572
 21
-137.99999999999909
 31
0.0
1001
ACDBBLOCKREPETAG
1070
     1
1071
       88
1005
125146
  0
LINE
  5
125147
  8
OBJECT
 10
9930.0
 20
-261.99999999999909
 30
0.0
 11
9938.0
 21
-261.99999999999909
 31
0.0
1001
ACDBBLOCKREPETAG
1070
     1
1071
       89
1005
125147
  0
LINE
  5
125148
  8
OBJECT
 10
9938.0
 20
-269.99999999999909
 30
0.0
 11
9938.0
 21
-261.99999999999909
 31
0.0
1001
ACDBBLOCKREPETAG
1070
     1
1071
       90
1005
125148
  0
LINE
  5
125149
  8
OBJECT
 10
10070.0
 20
-261.99999999999909
 30
0.0
 11
10062.0
 21
-261.99999999999909
 31
0.0
1001
ACDBBLOCKREPETAG
1070
     1
1071
       91
1005
125149
  0
LINE
  5
12514A
  8
OBJECT
 10
10062.0
 20
-269.99999999999909
 30
0.0
 11
10062.0
 21
-261.99999999999909
 31
0.0
1001
ACDBBLOCKREPETAG
1070
     1
1071
       92
1005
12514A
  0
LINE
  5
12514B
  8
CENTER
 10
9930.0
 20
-199.99999999999909
 30
0.0
 11
10070.0
 21
-199.99999999999909
 31
0.0
1001
ACDBBLOCKREPETAG
1070
     1
1071
       93
1005
12514B
  0
LINE
  5
12514C
  8
CENTER
 10
10000.0
 20
-269.99999999999909
 30
0.0
 11
10000.0
 21
-109.9999999999991
 31
0.0
1001
ACDBBLOCKREPETAG
1070
     1
1071
       94
1005
12514C
  0
ARC
  5
12514D
  8
OBJECT
 10
9989.9027621391888
 20
-224.44352901899131
 30
0.0
 40
7.0
 50
73.00127222950276
 51
154.0502587892864
1001
ACDBBLOCKREPETAG
1070
     1
1071
       95
1005
12514D
  0
ARC
  5
12514E
  8
OBJECT
 10
9986.8376610706546
 20
-225.5978773169509
 30
0.0
 40
9.0
 50
73.00127222950276
 51
154.0502639259247
1001
ACDBBLOCKREPETAG
1070
     1
1071
       96
1005
12514E
  0
ARC
  5
12514F
  8
OBJECT
 10
9896.3142301315547
 20
-147.28130031148149
 30
0.0
 40
150.0
 50
322.8950337398245
 51
325.8931499695608
1001
ACDBBLOCKREPETAG
1070
     1
1071
       97
1005
12514F
  0
ARC
  5
125150
  8
OBJECT
 10
10000.0
 20
-199.99999999999909
 30
0.0
 40
37.5
 50
303.16276667665232
 51
229.16350249104781
1001
ACDBBLOCKREPETAG
1070
     1
1071
       98
1005
125150
  0
LINE
  5
125151
  8
OBJECT
 10
9983.6085145189809
 20
-221.38045100897119
 30
0.0
 11
9977.3740110000017
 21
-234.1915870000002
 31
0.0
1001
ACDBBLOCKREPETAG
1070
     1
1071
       99
1005
125151
  0
LINE
  5
125152
  8
OBJECT
 10
9978.7450566344633
 20
-221.65963488670511
 30
0.0
 11
9973.8986720000048
 21
-231.6183599999996
 31
0.0
1001
ACDBBLOCKREPETAG
1070
     1
1071
      100
1005
125152
  0
LINE
  5
125153
  8
OBJECT
 10
10018.938018000001
 20
-226.00000000000091
 30
0.0
 11
9989.4688153032548
 21
-216.99107608744359
 31
0.0
1001
ACDBBLOCKREPETAG
1070
     1
1071
      101
1005
125153
  0
LINE
  5
125154
  8
OBJECT
 10
10020.513225309
 20
-231.39199878029191
 30
0.0
 11
10018.938018000001
 21
-226.00000000000091
 31
0.0
1001
ACDBBLOCKREPETAG
1070
     1
1071
      102
1005
125154
  0
LINE
  5
125155
  8
OBJECT
 10
9954.0380592228739
 20
-245.96194077712289
 30
0.0
 11
9938.0
 21
-261.99999999999909
 31
0.0
1001
ACDBBLOCKREPETAG
1070
     1
1071
      106
1005
125155
  0
LINE
  5
125156
  8
OBJECT
 10
10045.96194077713
 20
-245.96194077712289
 30
0.0
 11
10062.0
 21
-261.99999999999909
 31
0.0
1001
ACDBBLOCKREPETAG
1070
     1
1071
      107
1005
125156
  0
ARC
  5
125157
  8
OBJECT
 10
10000.0
 20
-199.99999999999909
 30
0.0
 40
75.0
 50
55.757831297238091
 51
124.2421687027619
1001
ACDBBLOCKREPETAG
1070
     1
1071
      108
1005
125157
  0
POINT
  5
125158
  8
DOTS
 10
10000.0
 20
-199.99999999999909
 30
0.0
 50
270.0
1001
ACDBBLOCKREPETAG
1070
     1
1071
      157
1005
125158
  0
LINE
  5
125159
  8
OBJECT
 10
10073.0
 20
-533.99999999999955
 30
0.0
 11
10070.0
 21
-533.99999999999955
 31
0.0
1001
ACDBBLOCKREPETAG
1070
     1
1071
        1
1005
125159
  0
ARC
  5
12515A
  8
OBJECT
 10
10073.0
 20
-536.99999999999955
 30
0.0
 40
3.0
 50
0.0
 51
90.0
1001
ACDBBLOCKREPETAG
1070
     1
1071
        2
1005
12515A
  0
LINE
  5
12515B
  8
OBJECT
 10
10070.0
 20
-657.99999999999955
 30
0.0
 11
10073.0
 21
-657.99999999999955
 31
0.0
1001
ACDBBLOCKREPETAG
1070
     1
1071
        3
1005
12515B
  0
ARC
  5
12515C
  8
OBJECT
 10
10073.0
 20
-654.99999999999966
 30
0.0
 40
3.0
 50
270.0
 51
0.0
1001
ACDBBLOCKREPETAG
1070
     1
1071
        4
1005
12515C
  0
LINE
  5
12515D
  8
OBJECT
 10
10076.0
 20
-654.99999999999966
 30
0.0
 11
10076.0
 21
-536.99999999999955
 31
0.0
1001
ACDBBLOCKREPETAG
1070
     1
1071
        5
1005
12515D
  0
LINE
  5
12515E
  8
CENTER
 10
10091.0
 20
-199.99999999999909
 30
0.0
 11
10070.0
 21
-199.99999999999909
 31
0.0
1001
ACDBBLOCKREPETAG
1070
     1
1071
        0
1005
12515E
  0
LINE
  5
12515F
  8
OBJECT
 10
10073.0
 20
-137.99999999999909
 30
0.0
 11
10070.0
 21
-137.99999999999909
 31
0.0
1001
ACDBBLOCKREPETAG
1070
     1
1071
        1
1005
12515F
  0
ARC
  5
125160
  8
OBJECT
 10
10073.0
 20
-140.99999999999909
 30
0.0
 40
3.0
 50
0.0
 51
90.0
1001
ACDBBLOCKREPETAG
1070
     1
1071
        2
1005
125160
  0
LINE
  5
125161
  8
OBJECT
 10
10070.0
 20
-261.99999999999909
 30
0.0
 11
10073.0
 21
-261.99999999999909
 31
0.0
1001
ACDBBLOCKREPETAG
1070
     1
1071
        3
1005
125161
  0
ARC
  5
125162
  8
OBJECT
 10
10073.0
 20
-258.99999999999909
 30
0.0
 40
3.0
 50
270.0
 51
0.0
1001
ACDBBLOCKREPETAG
1070
     1
1071
        4
1005
125162
  0
LINE
  5
125163
  8
OBJECT
 10
10076.0
 20
-258.99999999999909
 30
0.0
 11
10076.0
 21
-140.99999999999909
 31
0.0
1001
ACDBBLOCKREPETAG
1070
     1
1071
        5
1005
125163
  0
LINE
  5
125164
  8
OBJECT
 10
7927.0
 20
-533.99999999999955
 30
0.0
 11
7930.0
 21
-533.99999999999955
 31
0.0
1001
ACDBBLOCKREPETAG
1070
     1
1071
        1
1005
125164
  0
ARC
  5
125165
  8
OBJECT
 10
7927.0
 20
-536.99999999999955
 30
0.0
 40
3.0
 50
90.0
 51
180.0
1001
ACDBBLOCKREPETAG
1070
     1
1071
        2
1005
125165
  0
LINE
  5
125166
  8
OBJECT
 10
7930.0
 20
-657.99999999999955
 30
0.0
 11
7927.0
 21
-657.99999999999955
 31
0.0
1001
ACDBBLOCKREPETAG
1070
     1
1071
        3
1005
125166
  0
ARC
  5
125167
  8
OBJECT
 10
7927.0
 20
-654.99999999999966
 30
0.0
 40
3.0
 50
180.0
 51
270.0
1001
ACDBBLOCKREPETAG
1070
     1
1071
        4
1005
125167
  0
LINE
  5
125168
  8
OBJECT
 10
7924.0
 20
-654.99999999999966
 30
0.0
 11
7924.0
 21
-536.99999999999955
 31
0.0
1001
ACDBBLOCKREPETAG
1070
     1
1071
        5
1005
125168
  0
CIRCLE
  5
125169
  8
OBJECT
 10
8000.0
 20
-596.0
 30
0.0
 40
62.0
1001
ACDBBLOCKREPETAG
1070
     1
1071
        0
1005
125169
  0
LINE
  5
12516A
  8
OBJECT
 10
7935.0
 20
-449.99999999999937
 30
0.0
 11
7935.0
 21
-470.99999999999937
 31
0.0
1001
ACDBBLOCKREPETAG
1070
     1
1071
       16
1005
12516A
  0
LINE
  5
12516B
  8
OBJECT
 10
7935.0
 20
-470.99999999999937
 30
0.0
 11
8065.0
 21
-470.99999999999937
 31
0.0
1001
ACDBBLOCKREPETAG
1070
     1
1071
       17
1005
12516B
  0
LINE
  5
12516C
  8
OBJECT
 10
8065.0
 20
-470.99999999999937
 30
0.0
 11
8065.0
 21
-449.99999999999937
 31
0.0
1001
ACDBBLOCKREPETAG
1070
     1
1071
       18
1005
12516C
  0
LINE
  5
12516D
  8
OBJECT
 10
8065.0
 20
-449.99999999999937
 30
0.0
 11
7935.0
 21
-449.99999999999937
 31
0.0
1001
ACDBBLOCKREPETAG
1070
     1
1071
       19
1005
12516D
  0
LINE
  5
12516E
  8
HIDDEN
 10
8044.5000000000036
 20
-519.99999999999955
 30
0.0
 11
7955.5
 21
-519.99999999999955
 31
0.0
1001
ACDBBLOCKREPETAG
1070
     1
1071
       20
1005
12516E
  0
LINE
  5
12516F
  8
CENTER
 10
8000.0
 20
-669.99999999999955
 30
0.0
 11
8000.0
 21
-434.99999999999949
 31
0.0
1001
ACDBBLOCKREPETAG
1070
     1
1071
       21
1005
12516F
  0
LINE
  5
125170
  8
OBJECT
 10
7940.5
 20
-470.99999999999937
 30
0.0
 11
7940.5
 21
-533.99999999999955
 31
0.0
1001
ACDBBLOCKREPETAG
1070
     1
1071
       22
1005
125170
  0
LINE
  5
125171
  8
OBJECT
 10
7930.0
 20
-533.99999999999955
 30
0.0
 11
8070.0
 21
-533.99999999999955
 31
0.0
1001
ACDBBLOCKREPETAG
1070
     1
1071
       23
1005
125171
  0
LINE
  5
125172
  8
OBJECT
 10
8059.4999999999982
 20
-533.99999999999955
 30
0.0
 11
8059.4999999999982
 21
-470.99999999999937
 31
0.0
1001
ACDBBLOCKREPETAG
1070
     1
1071
       24
1005
125172
  0
LINE
  5
125173
  8
OBJECT
 10
7930.0
 20
-657.99999999999955
 30
0.0
 11
7930.0
 21
-669.99999999999955
 31
0.0
1001
ACDBBLOCKREPETAG
1070
     1
1071
       25
1005
125173
  0
LINE
  5
125174
  8
OBJECT
 10
7930.0
 20
-669.99999999999955
 30
0.0
 11
8070.0
 21
-669.99999999999955
 31
0.0
1001
ACDBBLOCKREPETAG
1070
     1
1071
       26
1005
125174
  0
LINE
  5
125175
  8
OBJECT
 10
8070.0
 20
-669.99999999999955
 30
0.0
 11
8070.0
 21
-657.99999999999955
 31
0.0
1001
ACDBBLOCKREPETAG
1070
     1
1071
       27
1005
125175
  0
LINE
  5
125176
  8
OBJECT
 10
8070.0
 20
-657.99999999999955
 30
0.0
 11
7930.0
 21
-657.99999999999955
 31
0.0
1001
ACDBBLOCKREPETAG
1070
     1
1071
       28
1005
125176
  0
ARC
  5
125177
  8
OBJECT
 10
8435.0384389946794
 20
-898.60813684682694
 30
0.0
 40
519.48776673616965
 50
135.42350667430969
 51
138.50052655621499
1001
ACDBBLOCKREPETAG
1070
     1
1071
       32
1005
125177
  0
ARC
  5
125178
  8
OBJECT
 10
8435.0384389946794
 20
-293.39186315317193
 30
0.0
 40
519.48776673616965
 50
221.49947344378501
 51
224.57649332569039
1001
ACDBBLOCKREPETAG
1070
     1
1071
       33
1005
125178
  0
ARC
  5
125179
  8
OBJECT
 10
7564.9615610053233
 20
-898.60813684682694
 30
0.0
 40
519.48776673616965
 50
41.499473443784993
 51
44.576493325690237
1001
ACDBBLOCKREPETAG
1070
     1
1071
       34
1005
125179
  0
ARC
  5
12517A
  8
OBJECT
 10
7564.9615610053233
 20
-293.39186315317193
 30
0.0
 40
519.48776673616965
 50
315.42350667430981
 51
318.50052655621488
1001
ACDBBLOCKREPETAG
1070
     1
1071
       35
1005
12517A
  0
POINT
  5
12517B
  8
DOTS
 10
8000.0
 20
-654.99999999999966
 30
0.0
1001
ACDBBLOCKREPETAG
1070
     1
1071
      111
1005
12517B
  0
LINE
  5
12517C
  8
CENTER
 10
7909.0
 20
-199.99999999999909
 30
0.0
 11
7930.0
 21
-199.99999999999909
 31
0.0
1001
ACDBBLOCKREPETAG
1070
     1
1071
        0
1005
12517C
  0
LINE
  5
12517D
  8
OBJECT
 10
7927.0
 20
-261.99999999999909
 30
0.0
 11
7930.0
 21
-261.99999999999909
 31
0.0
1001
ACDBBLOCKREPETAG
1070
     1
1071
        1
1005
12517D
  0
ARC
  5
12517E
  8
OBJECT
 10
7927.0
 20
-258.99999999999909
 30
0.0
 40
3.0
 50
180.0
 51
270.0
1001
ACDBBLOCKREPETAG
1070
     1
1071
        2
1005
12517E
  0
LINE
  5
12517F
  8
OBJECT
 10
7930.0
 20
-137.99999999999909
 30
0.0
 11
7927.0
 21
-137.99999999999909
 31
0.0
1001
ACDBBLOCKREPETAG
1070
     1
1071
        3
1005
12517F
  0
ARC
  5
125180
  8
OBJECT
 10
7927.0
 20
-140.99999999999909
 30
0.0
 40
3.0
 50
90.0
 51
180.0
1001
ACDBBLOCKREPETAG
1070
     1
1071
        4
1005
125180
  0
LINE
  5
125181
  8
OBJECT
 10
7924.0
 20
-140.99999999999909
 30
0.0
 11
7924.0
 21
-258.99999999999909
 31
0.0
1001
ACDBBLOCKREPETAG
1070
     1
1071
        5
1005
125181
  0
LINE
  5
125182
  8
CENTER
 10
8000.0
 20
-290.99999999999898
 30
0.0
 11
8000.0
 21
-269.99999999999909
 31
0.0
1001
ACDBBLOCKREPETAG
1070
     1
1071
        0
1005
125182
  0
LINE
  5
125183
  8
OBJECT
 10
8062.0
 20
-273.0
 30
0.0
 11
8062.0
 21
-269.99999999999909
 31
0.0
1001
ACDBBLOCKREPETAG
1070
     1
1071
        1
1005
125183
  0
ARC
  5
125184
  8
OBJECT
 10
8059.0
 20
-273.0
 30
0.0
 40
3.0
 50
270.0
 51
0.0
1001
ACDBBLOCKREPETAG
1070
     1
1071
        2
1005
125184
  0
LINE
  5
125185
  8
OBJECT
 10
7938.0
 20
-269.99999999999909
 30
0.0
 11
7938.0
 21
-272.99999999999818
 31
0.0
1001
ACDBBLOCKREPETAG
1070
     1
1071
        3
1005
125185
  0
ARC
  5
125186
  8
OBJECT
 10
7941.0
 20
-272.99999999999818
 30
0.0
 40
3.0
 50
180.0
 51
270.0
1001
ACDBBLOCKREPETAG
1070
     1
1071
        4
1005
125186
  0
LINE
  5
125187
  8
OBJECT
 10
7941.0
 20
-275.99999999999818
 30
0.0
 11
8059.0
 21
-276.0
 31
0.0
1001
ACDBBLOCKREPETAG
1070
     1
1071
        5
1005
125187
  0
LINE
  5
125188
  8
SLIM
 10
7963.2171826682388
 20
-137.99999999999909
 30
0.0
 11
7969.9215079962914
 21
-131.29567467194681
 31
0.0
1001
GRADIENTCOLOR1ACI
1070
     5
1001
GRADIENTCOLOR2ACI
1070
     2
1001
ACAD
1010
0.0
1020
0.0
1030
0.0
1001
ACDBBLOCKREPETAG
1070
     1
1071
      169
1005
125188
  0
LINE
  5
125189
  8
SLIM
 10
7972.1974387893079
 20
-137.99999999999909
 30
0.0
 11
7983.3188363327517
 21
-126.87860245655401
 31
0.0
1001
GRADIENTCOLOR1ACI
1070
     5
1001
GRADIENTCOLOR2ACI
1070
     2
1001
ACAD
1010
0.0
1020
0.0
1030
0.0
1001
ACDBBLOCKREPETAG
1070
     1
1071
      170
1005
125189
  0
LINE
  5
12518A
  8
SLIM
 10
7981.4849372887629
 20
-137.6927576216126
 30
0.0
 11
7993.9318052485969
 21
-125.245889661777
 31
0.0
1001
GRADIENTCOLOR1ACI
1070
     5
1001
GRADIENTCOLOR2ACI
1070
     2
1001
ACAD
1010
0.0
1020
0.0
1030
0.0
1001
ACDBBLOCKREPETAG
1070
     1
1071
      171
1005
12518A
  0
LINE
  5
12518B
  8
SLIM
 10
7992.7526568280337
 20
-135.40529420341099
 30
0.0
 11
8000.0
 21
-128.1579510314458
 31
0.0
1001
GRADIENTCOLOR1ACI
1070
     5
1001
GRADIENTCOLOR2ACI
1070
     2
1001
ACAD
1010
0.0
1020
0.0
1030
0.0
1001
ACDBBLOCKREPETAG
1070
     1
1071
      172
1005
12518B
  0
LINE
  5
12518C
  8
SLIM
 10
8000.0
 20
-128.1579510314458
 30
0.0
 11
8003.0941007878528
 21
-125.0638502435924
 31
0.0
1001
GRADIENTCOLOR1ACI
1070
     5
1001
GRADIENTCOLOR2ACI
1070
     2
1001
ACAD
1010
0.0
1020
0.0
1030
0.0
1001
ACDBBLOCKREPETAG
1070
     1
1071
      173
1005
12518C
  0
LINE
  5
12518D
  8
SLIM
 10
8002.1041412234727
 20
-135.03406592904389
 30
0.0
 11
8011.284425768652
 21
-125.85378138386341
 31
0.0
1001
GRADIENTCOLOR1ACI
1070
     5
1001
GRADIENTCOLOR2ACI
1070
     2
1001
ACAD
1010
0.0
1020
0.0
1030
0.0
1001
ACDBBLOCKREPETAG
1070
     1
1071
      174
1005
12518D
  0
LINE
  5
12518E
  8
SLIM
 10
8010.297585520927
 20
-135.82087775265759
 30
0.0
 11
8018.7395884655189
 21
-127.3788748080627
 31
0.0
1001
GRADIENTCOLOR1ACI
1070
     5
1001
GRADIENTCOLOR2ACI
1070
     2
1001
ACAD
1010
0.0
1020
0.0
1030
0.0
1001
ACDBBLOCKREPETAG
1070
     1
1071
      175
1005
12518E
  0
LINE
  5
12518F
  8
SLIM
 10
8017.6550793642282
 20
-137.4436400304258
 30
0.0
 11
8025.5958866269621
 21
-129.50283276769261
 31
0.0
1001
GRADIENTCOLOR1ACI
1070
     5
1001
GRADIENTCOLOR2ACI
1070
     2
1001
ACAD
1010
0.0
1020
0.0
1030
0.0
1001
ACDBBLOCKREPETAG
1070
     1
1071
      176
1005
12518F
  0
LINE
  5
125190
  8
SLIM
 10
8026.078975515723
 20
-137.99999999999909
 30
0.0
 11
8031.9385859461063
 21
-132.1403895696169
 31
0.0
1001
GRADIENTCOLOR1ACI
1070
     5
1001
GRADIENTCOLOR2ACI
1070
     2
1001
ACAD
1010
0.0
1020
0.0
1030
0.0
1001
ACDBBLOCKREPETAG
1070
     1
1071
      177
1005
125190
  0
LINE
  5
125191
  8
SLIM
 10
8035.0592316367947
 20
-137.99999999999909
 30
0.0
 11
8037.8233654376218
 21
-135.23586619916779
 31
0.0
1001
GRADIENTCOLOR1ACI
1070
     5
1001
GRADIENTCOLOR2ACI
1070
     2
1001
ACAD
1010
0.0
1020
0.0
1030
0.0
1001
ACDBBLOCKREPETAG
1070
     1
1071
      178
1005
125191
  0
CIRCLE
  5
125192
  8
OBJECT
 10
8000.0
 20
-199.99999999999909
 30
0.0
 40
65.0
1001
ACDBBLOCKREPETAG
1070
     1
1071
       84
1005
125192
  0
CIRCLE
  5
125193
  8
OBJECT
 10
8000.0
 20
-199.99999999999909
 30
0.0
 40
41.0
1001
ACDBBLOCKREPETAG
1070
     1
1071
       85
1005
125193
  0
CIRCLE
  5
125194
  8
OBJECT
 10
8000.0
 20
-199.99999999999909
 30
0.0
 40
58.0
1001
ACDBBLOCKREPETAG
1070
     1
1071
       86
1005
125194
  0
LINE
  5
125195
  8
OBJECT
 10
8070.0
 20
-137.99999999999909
 30
0.0
 11
8019.5192212959419
 21
-137.99999999999909
 31
0.0
1001
ACDBBLOCKREPETAG
1070
     1
1071
       87
1005
125195
  0
LINE
  5
125196
  8
OBJECT
 10
7930.0
 20
-137.99999999999909
 30
0.0
 11
7980.4807787040572
 21
-137.99999999999909
 31
0.0
1001
ACDBBLOCKREPETAG
1070
     1
1071
       88
1005
125196
  0
LINE
  5
125197
  8
OBJECT
 10
7930.0
 20
-261.99999999999909
 30
0.0
 11
7938.0
 21
-261.99999999999909
 31
0.0
1001
ACDBBLOCKREPETAG
1070
     1
1071
       89
1005
125197
  0
LINE
  5
125198
  8
OBJECT
 10
7938.0
 20
-269.99999999999909
 30
0.0
 11
7938.0
 21
-261.99999999999909
 31
0.0
1001
ACDBBLOCKREPETAG
1070
     1
1071
       90
1005
125198
  0
LINE
  5
125199
  8
OBJECT
 10
8070.0
 20
-261.99999999999909
 30
0.0
 11
8062.0
 21
-261.99999999999909
 31
0.0
1001
ACDBBLOCKREPETAG
1070
     1
1071
       91
1005
125199
  0
LINE
  5
12519A
  8
OBJECT
 10
8062.0
 20
-269.99999999999909
 30
0.0
 11
8062.0
 21
-261.99999999999909
 31
0.0
1001
ACDBBLOCKREPETAG
1070
     1
1071
       92
1005
12519A
  0
LINE
  5
12519B
  8
CENTER
 10
7930.0
 20
-199.99999999999909
 30
0.0
 11
8070.0
 21
-199.99999999999909
 31
0.0
1001
ACDBBLOCKREPETAG
1070
     1
1071
       93
1005
12519B
  0
LINE
  5
12519C
  8
CENTER
 10
8000.0
 20
-269.99999999999909
 30
0.0
 11
8000.0
 21
-109.9999999999991
 31
0.0
1001
ACDBBLOCKREPETAG
1070
     1
1071
       94
1005
12519C
  0
ARC
  5
12519D
  8
OBJECT
 10
7989.902762139187
 20
-224.44352901899131
 30
0.0
 40
7.0
 50
73.00127222950276
 51
154.05025878930931
1001
ACDBBLOCKREPETAG
1070
     1
1071
       95
1005
12519D
  0
ARC
  5
12519E
  8
OBJECT
 10
7986.8376610706546
 20
-225.5978773169509
 30
0.0
 40
9.0
 50
73.00127222950276
 51
154.0502639259247
1001
ACDBBLOCKREPETAG
1070
     1
1071
       96
1005
12519E
  0
ARC
  5
12519F
  8
OBJECT
 10
7896.3142301315538
 20
-147.28130031148149
 30
0.0
 40
150.0
 50
322.89503373979312
 51
325.8931499695608
1001
ACDBBLOCKREPETAG
1070
     1
1071
       97
1005
12519F
  0
ARC
  5
1251A0
  8
OBJECT
 10
8000.0
 20
-199.99999999999909
 30
0.0
 40
37.5
 50
303.16276667665232
 51
229.16350249100839
1001
ACDBBLOCKREPETAG
1070
     1
1071
       98
1005
1251A0
  0
LINE
  5
1251A1
  8
OBJECT
 10
7983.60851451898
 20
-221.38045100897119
 30
0.0
 11
7977.3740110000008
 21
-234.1915870000002
 31
0.0
1001
ACDBBLOCKREPETAG
1070
     1
1071
       99
1005
1251A1
  0
LINE
  5
1251A2
  8
OBJECT
 10
7978.7450566344623
 20
-221.65963488670511
 30
0.0
 11
7973.898672000003
 21
-231.6183599999996
 31
0.0
1001
ACDBBLOCKREPETAG
1070
     1
1071
      100
1005
1251A2
  0
LINE
  5
1251A3
  8
OBJECT
 10
8018.9380179999998
 20
-226.00000000000091
 30
0.0
 11
7989.4688153032539
 21
-216.99107608744359
 31
0.0
1001
ACDBBLOCKREPETAG
1070
     1
1071
      101
1005
1251A3
  0
LINE
  5
1251A4
  8
OBJECT
 10
8020.513225309006
 20
-231.39199878029191
 30
0.0
 11
8018.9380179999998
 21
-226.00000000000091
 31
0.0
1001
ACDBBLOCKREPETAG
1070
     1
1071
      102
1005
1251A4
  0
LINE
  5
1251A5
  8
OBJECT
 10
7954.0380592228739
 20
-245.96194077712289
 30
0.0
 11
7938.0
 21
-261.99999999999909
 31
0.0
1001
ACDBBLOCKREPETAG
1070
     1
1071
      106
1005
1251A5
  0
LINE
  5
1251A6
  8
OBJECT
 10
8045.9619407771252
 20
-245.96194077712289
 30
0.0
 11
8062.0
 21
-261.99999999999909
 31
0.0
1001
ACDBBLOCKREPETAG
1070
     1
1071
      107
1005
1251A6
  0
ARC
  5
1251A7
  8
OBJECT
 10
8000.0
 20
-199.99999999999909
 30
0.0
 40
75.0
 50
55.757831297238091
 51
124.2421687027619
1001
ACDBBLOCKREPETAG
1070
     1
1071
      108
1005
1251A7
  0
POINT
  5
1251A8
  8
DOTS
 10
8000.0
 20
-199.99999999999909
 30
0.0
 50
270.0
1001
ACDBBLOCKREPETAG
1070
     1
1071
      157
1005
1251A8
  0
LINE
  5
1251A9
  8
OBJECT
 10
8073.0
 20
-533.99999999999955
 30
0.0
 11
8070.0
 21
-533.99999999999955
 31
0.0
1001
ACDBBLOCKREPETAG
1070
     1
1071
        1
1005
1251A9
  0
ARC
  5
1251AA
  8
OBJECT
 10
8073.0
 20
-536.99999999999955
 30
0.0
 40
3.0
 50
0.0
 51
90.0
1001
ACDBBLOCKREPETAG
1070
     1
1071
        2
1005
1251AA
  0
LINE
  5
1251AB
  8
OBJECT
 10
8070.0
 20
-657.99999999999955
 30
0.0
 11
8073.0
 21
-657.99999999999955
 31
0.0
1001
ACDBBLOCKREPETAG
1070
     1
1071
        3
1005
1251AB
  0
ARC
  5
1251AC
  8
OBJECT
 10
8073.0
 20
-654.99999999999966
 30
0.0
 40
3.0
 50
270.0
 51
0.0
1001
ACDBBLOCKREPETAG
1070
     1
1071
        4
1005
1251AC
  0
LINE
  5
1251AD
  8
OBJECT
 10
8076.0
 20
-654.99999999999966
 30
0.0
 11
8076.0
 21
-536.99999999999955
 31
0.0
1001
ACDBBLOCKREPETAG
1070
     1
1071
        5
1005
1251AD
  0
LINE
  5
1251AE
  8
CENTER
 10
8091.0
 20
-199.99999999999909
 30
0.0
 11
8070.0
 21
-199.99999999999909
 31
0.0
1001
ACDBBLOCKREPETAG
1070
     1
1071
        0
1005
1251AE
  0
LINE
  5
1251AF
  8
OBJECT
 10
8073.0
 20
-137.99999999999909
 30
0.0
 11
8070.0
 21
-137.99999999999909
 31
0.0
1001
ACDBBLOCKREPETAG
1070
     1
1071
        1
1005
1251AF
  0
ARC
  5
1251B0
  8
OBJECT
 10
8073.0
 20
-140.99999999999909
 30
0.0
 40
3.0
 50
0.0
 51
90.0
1001
ACDBBLOCKREPETAG
1070
     1
1071
        2
1005
1251B0
  0
LINE
  5
1251B1
  8
OBJECT
 10
8070.0
 20
-261.99999999999909
 30
0.0
 11
8073.0
 21
-261.99999999999909
 31
0.0
1001
ACDBBLOCKREPETAG
1070
     1
1071
        3
1005
1251B1
  0
ARC
  5
1251B2
  8
OBJECT
 10
8073.0
 20
-258.99999999999909
 30
0.0
 40
3.0
 50
270.0
 51
0.0
1001
ACDBBLOCKREPETAG
1070
     1
1071
        4
1005
1251B2
  0
LINE
  5
1251B3
  8
OBJECT
 10
8076.0
 20
-258.99999999999909
 30
0.0
 11
8076.0
 21
-140.99999999999909
 31
0.0
1001
ACDBBLOCKREPETAG
1070
     1
1071
        5
1005
1251B3
  0
LINE
  5
1251B4
  8
OBJECT
 10
5927.0
 20
-533.99999999999955
 30
0.0
 11
5930.0
 21
-533.99999999999955
 31
0.0
1001
ACDBBLOCKREPETAG
1070
     1
1071
        1
1005
1251B4
  0
ARC
  5
1251B5
  8
OBJECT
 10
5927.0
 20
-536.99999999999955
 30
0.0
 40
3.0
 50
90.0
 51
180.0
1001
ACDBBLOCKREPETAG
1070
     1
1071
        2
1005
1251B5
  0
LINE
  5
1251B6
  8
OBJECT
 10
5930.0
 20
-657.99999999999955
 30
0.0
 11
5927.0
 21
-657.99999999999955
 31
0.0
1001
ACDBBLOCKREPETAG
1070
     1
1071
        3
1005
1251B6
  0
ARC
  5
1251B7
  8
OBJECT
 10
5927.0
 20
-654.99999999999966
 30
0.0
 40
3.0
 50
180.0
 51
270.0
1001
ACDBBLOCKREPETAG
1070
     1
1071
        4
1005
1251B7
  0
LINE
  5
1251B8
  8
OBJECT
 10
5924.0
 20
-654.99999999999966
 30
0.0
 11
5924.0
 21
-536.99999999999955
 31
0.0
1001
ACDBBLOCKREPETAG
1070
     1
1071
        5
1005
1251B8
  0
CIRCLE
  5
1251B9
  8
OBJECT
 10
6000.0
 20
-596.0
 30
0.0
 40
62.0
1001
ACDBBLOCKREPETAG
1070
     1
1071
        0
1005
1251B9
  0
LINE
  5
1251BA
  8
OBJECT
 10
5935.0
 20
-449.99999999999937
 30
0.0
 11
5935.0
 21
-470.99999999999937
 31
0.0
1001
ACDBBLOCKREPETAG
1070
     1
1071
       16
1005
1251BA
  0
LINE
  5
1251BB
  8
OBJECT
 10
5935.0
 20
-470.99999999999937
 30
0.0
 11
6065.0
 21
-470.99999999999937
 31
0.0
1001
ACDBBLOCKREPETAG
1070
     1
1071
       17
1005
1251BB
  0
LINE
  5
1251BC
  8
OBJECT
 10
6065.0
 20
-470.99999999999937
 30
0.0
 11
6065.0
 21
-449.99999999999937
 31
0.0
1001
ACDBBLOCKREPETAG
1070
     1
1071
       18
1005
1251BC
  0
LINE
  5
1251BD
  8
OBJECT
 10
6065.0
 20
-449.99999999999937
 30
0.0
 11
5935.0
 21
-449.99999999999937
 31
0.0
1001
ACDBBLOCKREPETAG
1070
     1
1071
       19
1005
1251BD
  0
LINE
  5
1251BE
  8
HIDDEN
 10
6044.5
 20
-519.99999999999955
 30
0.0
 11
5955.5
 21
-519.99999999999955
 31
0.0
1001
ACDBBLOCKREPETAG
1070
     1
1071
       20
1005
1251BE
  0
LINE
  5
1251BF
  8
CENTER
 10
6000.0
 20
-669.99999999999955
 30
0.0
 11
6000.0
 21
-434.99999999999949
 31
0.0
1001
ACDBBLOCKREPETAG
1070
     1
1071
       21
1005
1251BF
  0
LINE
  5
1251C0
  8
OBJECT
 10
5940.5
 20
-470.99999999999937
 30
0.0
 11
5940.5
 21
-533.99999999999955
 31
0.0
1001
ACDBBLOCKREPETAG
1070
     1
1071
       22
1005
1251C0
  0
LINE
  5
1251C1
  8
OBJECT
 10
5930.0
 20
-533.99999999999955
 30
0.0
 11
6070.0
 21
-533.99999999999955
 31
0.0
1001
ACDBBLOCKREPETAG
1070
     1
1071
       23
1005
1251C1
  0
LINE
  5
1251C2
  8
OBJECT
 10
6059.4999999999991
 20
-533.99999999999955
 30
0.0
 11
6059.4999999999991
 21
-470.99999999999937
 31
0.0
1001
ACDBBLOCKREPETAG
1070
     1
1071
       24
1005
1251C2
  0
LINE
  5
1251C3
  8
OBJECT
 10
5930.0
 20
-657.99999999999955
 30
0.0
 11
5930.0
 21
-669.99999999999955
 31
0.0
1001
ACDBBLOCKREPETAG
1070
     1
1071
       25
1005
1251C3
  0
LINE
  5
1251C4
  8
OBJECT
 10
5930.0
 20
-669.99999999999955
 30
0.0
 11
6070.0
 21
-669.99999999999955
 31
0.0
1001
ACDBBLOCKREPETAG
1070
     1
1071
       26
1005
1251C4
  0
LINE
  5
1251C5
  8
OBJECT
 10
6070.0
 20
-669.99999999999955
 30
0.0
 11
6070.0
 21
-657.99999999999955
 31
0.0
1001
ACDBBLOCKREPETAG
1070
     1
1071
       27
1005
1251C5
  0
LINE
  5
1251C6
  8
OBJECT
 10
6070.0
 20
-657.99999999999955
 30
0.0
 11
5930.0
 21
-657.99999999999955
 31
0.0
1001
ACDBBLOCKREPETAG
1070
     1
1071
       28
1005
1251C6
  0
ARC
  5
1251C7
  8
OBJECT
 10
6435.0384389946776
 20
-898.60813684682694
 30
0.0
 40
519.48776673616965
 50
135.42350667430969
 51
138.50052655621499
1001
ACDBBLOCKREPETAG
1070
     1
1071
       32
1005
1251C7
  0
ARC
  5
1251C8
  8
OBJECT
 10
6435.0384389946776
 20
-293.39186315317193
 30
0.0
 40
519.48776673616965
 50
221.49947344378501
 51
224.57649332569039
1001
ACDBBLOCKREPETAG
1070
     1
1071
       33
1005
1251C8
  0
ARC
  5
1251C9
  8
OBJECT
 10
5564.9615610053224
 20
-898.60813684682694
 30
0.0
 40
519.48776673616965
 50
41.499473443784993
 51
44.576493325690237
1001
ACDBBLOCKREPETAG
1070
     1
1071
       34
1005
1251C9
  0
ARC
  5
1251CA
  8
OBJECT
 10
5564.9615610053224
 20
-293.39186315317193
 30
0.0
 40
519.48776673616965
 50
315.42350667430981
 51
318.50052655621488
1001
ACDBBLOCKREPETAG
1070
     1
1071
       35
1005
1251CA
  0
POINT
  5
1251CB
  8
DOTS
 10
6000.0
 20
-654.99999999999966
 30
0.0
1001
ACDBBLOCKREPETAG
1070
     1
1071
      111
1005
1251CB
  0
LINE
  5
1251CC
  8
CENTER
 10
5909.0
 20
-199.99999999999909
 30
0.0
 11
5930.0
 21
-199.99999999999909
 31
0.0
1001
ACDBBLOCKREPETAG
1070
     1
1071
        0
1005
1251CC
  0
LINE
  5
1251CD
  8
OBJECT
 10
5927.0
 20
-261.99999999999909
 30
0.0
 11
5930.0
 21
-261.99999999999909
 31
0.0
1001
ACDBBLOCKREPETAG
1070
     1
1071
        1
1005
1251CD
  0
ARC
  5
1251CE
  8
OBJECT
 10
5927.0
 20
-258.99999999999909
 30
0.0
 40
3.0
 50
180.0
 51
270.0
1001
ACDBBLOCKREPETAG
1070
     1
1071
        2
1005
1251CE
  0
LINE
  5
1251CF
  8
OBJECT
 10
5930.0
 20
-137.99999999999909
 30
0.0
 11
5927.0
 21
-137.99999999999909
 31
0.0
1001
ACDBBLOCKREPETAG
1070
     1
1071
        3
1005
1251CF
  0
ARC
  5
1251D0
  8
OBJECT
 10
5927.0
 20
-140.99999999999909
 30
0.0
 40
3.0
 50
90.0
 51
180.0
1001
ACDBBLOCKREPETAG
1070
     1
1071
        4
1005
1251D0
  0
LINE
  5
1251D1
  8
OBJECT
 10
5924.0
 20
-140.99999999999909
 30
0.0
 11
5924.0
 21
-258.99999999999909
 31
0.0
1001
ACDBBLOCKREPETAG
1070
     1
1071
        5
1005
1251D1
  0
LINE
  5
1251D2
  8
CENTER
 10
6000.0
 20
-290.99999999999898
 30
0.0
 11
6000.0
 21
-269.99999999999909
 31
0.0
1001
ACDBBLOCKREPETAG
1070
     1
1071
        0
1005
1251D2
  0
LINE
  5
1251D3
  8
OBJECT
 10
6062.0
 20
-273.0
 30
0.0
 11
6062.0
 21
-269.99999999999909
 31
0.0
1001
ACDBBLOCKREPETAG
1070
     1
1071
        1
1005
1251D3
  0
ARC
  5
1251D4
  8
OBJECT
 10
6059.0
 20
-273.0
 30
0.0
 40
3.0
 50
270.0
 51
0.0
1001
ACDBBLOCKREPETAG
1070
     1
1071
        2
1005
1251D4
  0
LINE
  5
1251D5
  8
OBJECT
 10
5938.0
 20
-269.99999999999909
 30
0.0
 11
5938.0
 21
-272.99999999999818
 31
0.0
1001
ACDBBLOCKREPETAG
1070
     1
1071
        3
1005
1251D5
  0
ARC
  5
1251D6
  8
OBJECT
 10
5941.0
 20
-272.99999999999818
 30
0.0
 40
3.0
 50
180.0
 51
270.0
1001
ACDBBLOCKREPETAG
1070
     1
1071
        4
1005
1251D6
  0
LINE
  5
1251D7
  8
OBJECT
 10
5941.0
 20
-275.99999999999818
 30
0.0
 11
6059.0
 21
-276.0
 31
0.0
1001
ACDBBLOCKREPETAG
1070
     1
1071
        5
1005
1251D7
  0
POINT
  5
1251D8
  8
DOTS
 10
6000.0
 20
-199.99999999999909
 30
0.0
 50
270.0
1001
ACDBBLOCKREPETAG
1070
     1
1071
      153
1005
1251D8
  0
ARC
  5
1251D9
  8
OBJECT
 10
6000.0
 20
-199.99999999999909
 30
0.0
 40
70.0
 50
62.339550100781771
 51
117.66044989921819
1001
ACDBBLOCKREPETAG
1070
     1
1071
        0
1005
1251D9
  0
CIRCLE
  5
1251DA
  8
OBJECT
 10
6000.0
 20
-199.99999999999909
 30
0.0
 40
65.0
1001
ACDBBLOCKREPETAG
1070
     1
1071
        1
1005
1251DA
  0
CIRCLE
  5
1251DB
  8
OBJECT
 10
6000.0
 20
-199.99999999999909
 30
0.0
 40
41.0
1001
ACDBBLOCKREPETAG
1070
     1
1071
        2
1005
1251DB
  0
CIRCLE
  5
1251DC
  8
OBJECT
 10
6000.0
 20
-199.99999999999909
 30
0.0
 40
58.0
1001
ACDBBLOCKREPETAG
1070
     1
1071
        3
1005
1251DC
  0
LINE
  5
1251DD
  8
OBJECT
 10
6070.0
 20
-137.99999999999909
 30
0.0
 11
6019.5192212959437
 21
-137.99999999999909
 31
0.0
1001
ACDBBLOCKREPETAG
1070
     1
1071
        4
1005
1251DD
  0
LINE
  5
1251DE
  8
OBJECT
 10
5930.0
 20
-137.99999999999909
 30
0.0
 11
5980.4807787040563
 21
-137.99999999999909
 31
0.0
1001
ACDBBLOCKREPETAG
1070
     1
1071
        5
1005
1251DE
  0
LINE
  5
1251DF
  8
OBJECT
 10
5930.0
 20
-261.99999999999909
 30
0.0
 11
5938.0
 21
-261.99999999999909
 31
0.0
1001
ACDBBLOCKREPETAG
1070
     1
1071
        6
1005
1251DF
  0
LINE
  5
1251E0
  8
OBJECT
 10
5938.0
 20
-269.99999999999909
 30
0.0
 11
5938.0
 21
-261.99999999999909
 31
0.0
1001
ACDBBLOCKREPETAG
1070
     1
1071
        7
1005
1251E0
  0
LINE
  5
1251E1
  8
OBJECT
 10
6070.0
 20
-261.99999999999909
 30
0.0
 11
6062.0
 21
-261.99999999999909
 31
0.0
1001
ACDBBLOCKREPETAG
1070
     1
1071
        8
1005
1251E1
  0
LINE
  5
1251E2
  8
OBJECT
 10
6062.0
 20
-269.99999999999909
 30
0.0
 11
6062.0
 21
-261.99999999999909
 31
0.0
1001
ACDBBLOCKREPETAG
1070
     1
1071
        9
1005
1251E2
  0
LINE
  5
1251E3
  8
CENTER
 10
5930.0
 20
-199.99999999999909
 30
0.0
 11
6070.0
 21
-199.99999999999909
 31
0.0
1001
ACDBBLOCKREPETAG
1070
     1
1071
       10
1005
1251E3
  0
LINE
  5
1251E4
  8
CENTER
 10
6000.0
 20
-269.99999999999909
 30
0.0
 11
6000.0
 21
-114.9999999999991
 31
0.0
1001
ACDBBLOCKREPETAG
1070
     1
1071
       11
1005
1251E4
  0
ARC
  5
1251E5
  8
OBJECT
 10
5989.9027621391879
 20
-224.44352901899131
 30
0.0
 40
7.0
 50
73.001272229719234
 51
154.0502587894434
1001
ACDBBLOCKREPETAG
1070
     1
1071
       12
1005
1251E5
  0
ARC
  5
1251E6
  8
OBJECT
 10
5986.8376610706491
 20
-225.5978773169509
 30
0.0
 40
9.0
 50
73.001272229719234
 51
154.0502639259247
1001
ACDBBLOCKREPETAG
1070
     1
1071
       13
1005
1251E6
  0
ARC
  5
1251E7
  8
OBJECT
 10
5896.3142301315529
 20
-147.28130031148149
 30
0.0
 40
150.0
 50
322.89503374001981
 51
325.89314996972843
1001
ACDBBLOCKREPETAG
1070
     1
1071
       14
1005
1251E7
  0
ARC
  5
1251E8
  8
OBJECT
 10
6000.0
 20
-199.99999999999909
 30
0.0
 40
37.5
 50
303.1627666766604
 51
229.1635024908081
1001
ACDBBLOCKREPETAG
1070
     1
1071
       15
1005
1251E8
  0
LINE
  5
1251E9
  8
OBJECT
 10
5983.6085145189763
 20
-221.38045100897119
 30
0.0
 11
5977.3740109999999
 21
-234.1915870000002
 31
0.0
1001
ACDBBLOCKREPETAG
1070
     1
1071
       16
1005
1251E9
  0
LINE
  5
1251EA
  8
OBJECT
 10
5978.7450566344633
 20
-221.65963488670511
 30
0.0
 11
5973.8986720000003
 21
-231.6183599999996
 31
0.0
1001
ACDBBLOCKREPETAG
1070
     1
1071
       17
1005
1251EA
  0
LINE
  5
1251EB
  8
OBJECT
 10
6018.9380179999998
 20
-226.00000000000091
 30
0.0
 11
5989.4688153032585
 21
-216.99107608744359
 31
0.0
1001
ACDBBLOCKREPETAG
1070
     1
1071
       18
1005
1251EB
  0
LINE
  5
1251EC
  8
OBJECT
 10
6020.5132253090051
 20
-231.39199878029191
 30
0.0
 11
6018.9380179999998
 21
-226.00000000000091
 31
0.0
1001
ACDBBLOCKREPETAG
1070
     1
1071
       19
1005
1251EC
  0
LINE
  5
1251ED
  8
OBJECT
 10
5954.0380592228739
 20
-245.96194077712471
 30
0.0
 11
5938.0
 21
-261.99999999999909
 31
0.0
1001
ACDBBLOCKREPETAG
1070
     1
1071
       42
1005
1251ED
  0
LINE
  5
1251EE
  8
OBJECT
 10
6045.9619407771252
 20
-245.96194077712471
 30
0.0
 11
6062.0
 21
-261.99999999999909
 31
0.0
1001
ACDBBLOCKREPETAG
1070
     1
1071
       43
1005
1251EE
  0
LINE
  5
1251EF
  8
OBJECT
 10
6073.0
 20
-533.99999999999955
 30
0.0
 11
6070.0
 21
-533.99999999999955
 31
0.0
1001
ACDBBLOCKREPETAG
1070
     1
1071
        1
1005
1251EF
  0
ARC
  5
1251F0
  8
OBJECT
 10
6073.0
 20
-536.99999999999955
 30
0.0
 40
3.0
 50
0.0
 51
90.0
1001
ACDBBLOCKREPETAG
1070
     1
1071
        2
1005
1251F0
  0
LINE
  5
1251F1
  8
OBJECT
 10
6070.0
 20
-657.99999999999955
 30
0.0
 11
6073.0
 21
-657.99999999999955
 31
0.0
1001
ACDBBLOCKREPETAG
1070
     1
1071
        3
1005
1251F1
  0
ARC
  5
1251F2
  8
OBJECT
 10
6073.0
 20
-654.99999999999966
 30
0.0
 40
3.0
 50
270.0
 51
0.0
1001
ACDBBLOCKREPETAG
1070
     1
1071
        4
1005
1251F2
  0
LINE
  5
1251F3
  8
OBJECT
 10
6076.0
 20
-654.99999999999966
 30
0.0
 11
6076.0
 21
-536.99999999999955
 31
0.0
1001
ACDBBLOCKREPETAG
1070
     1
1071
        5
1005
1251F3
  0
LINE
  5
1251F4
  8
CENTER
 10
6091.0
 20
-199.99999999999909
 30
0.0
 11
6070.0
 21
-199.99999999999909
 31
0.0
1001
ACDBBLOCKREPETAG
1070
     1
1071
        0
1005
1251F4
  0
LINE
  5
1251F5
  8
OBJECT
 10
6073.0
 20
-137.99999999999909
 30
0.0
 11
6070.0
 21
-137.99999999999909
 31
0.0
1001
ACDBBLOCKREPETAG
1070
     1
1071
        1
1005
1251F5
  0
ARC
  5
1251F6
  8
OBJECT
 10
6073.0
 20
-140.99999999999909
 30
0.0
 40
3.0
 50
0.0
 51
90.0
1001
ACDBBLOCKREPETAG
1070
     1
1071
        2
1005
1251F6
  0
LINE
  5
1251F7
  8
OBJECT
 10
6070.0
 20
-261.99999999999909
 30
0.0
 11
6073.0
 21
-261.99999999999909
 31
0.0
1001
ACDBBLOCKREPETAG
1070
     1
1071
        3
1005
1251F7
  0
ARC
  5
1251F8
  8
OBJECT
 10
6073.0
 20
-258.99999999999909
 30
0.0
 40
3.0
 50
270.0
 51
0.0
1001
ACDBBLOCKREPETAG
1070
     1
1071
        4
1005
1251F8
  0
LINE
  5
1251F9
  8
OBJECT
 10
6076.0
 20
-258.99999999999909
 30
0.0
 11
6076.0
 21
-140.99999999999909
 31
0.0
1001
ACDBBLOCKREPETAG
1070
     1
1071
        5
1005
1251F9
  0
LINE
  5
1251FA
  8
OBJECT
 10
3927.0
 20
-533.99999999999955
 30
0.0
 11
3930.0
 21
-533.99999999999955
 31
0.0
1001
ACDBBLOCKREPETAG
1070
     1
1071
        1
1005
1251FA
  0
ARC
  5
1251FB
  8
OBJECT
 10
3927.0
 20
-536.99999999999955
 30
0.0
 40
3.0
 50
90.0
 51
180.0
1001
ACDBBLOCKREPETAG
1070
     1
1071
        2
1005
1251FB
  0
LINE
  5
1251FC
  8
OBJECT
 10
3930.0
 20
-657.99999999999955
 30
0.0
 11
3927.0
 21
-657.99999999999955
 31
0.0
1001
ACDBBLOCKREPETAG
1070
     1
1071
        3
1005
1251FC
  0
ARC
  5
1251FD
  8
OBJECT
 10
3927.0
 20
-654.99999999999966
 30
0.0
 40
3.0
 50
180.0
 51
270.0
1001
ACDBBLOCKREPETAG
1070
     1
1071
        4
1005
1251FD
  0
LINE
  5
1251FE
  8
OBJECT
 10
3924.0
 20
-654.99999999999966
 30
0.0
 11
3924.0
 21
-536.99999999999955
 31
0.0
1001
ACDBBLOCKREPETAG
1070
     1
1071
        5
1005
1251FE
  0
CIRCLE
  5
1251FF
  8
OBJECT
 10
4000.0
 20
-596.0
 30
0.0
 40
62.0
1001
ACDBBLOCKREPETAG
1070
     1
1071
        0
1005
1251FF
  0
LINE
  5
125200
  8
OBJECT
 10
3935.0
 20
-449.99999999999937
 30
0.0
 11
3935.0
 21
-470.99999999999937
 31
0.0
1001
ACDBBLOCKREPETAG
1070
     1
1071
       16
1005
125200
  0
LINE
  5
125201
  8
OBJECT
 10
3935.0
 20
-470.99999999999937
 30
0.0
 11
4065.0
 21
-470.99999999999937
 31
0.0
1001
ACDBBLOCKREPETAG
1070
     1
1071
       17
1005
125201
  0
LINE
  5
125202
  8
OBJECT
 10
4065.0
 20
-470.99999999999937
 30
0.0
 11
4065.0
 21
-449.99999999999937
 31
0.0
1001
ACDBBLOCKREPETAG
1070
     1
1071
       18
1005
125202
  0
LINE
  5
125203
  8
OBJECT
 10
4065.0
 20
-449.99999999999937
 30
0.0
 11
3935.0
 21
-449.99999999999937
 31
0.0
1001
ACDBBLOCKREPETAG
1070
     1
1071
       19
1005
125203
  0
LINE
  5
125204
  8
HIDDEN
 10
4044.5
 20
-519.99999999999955
 30
0.0
 11
3955.5
 21
-519.99999999999955
 31
0.0
1001
ACDBBLOCKREPETAG
1070
     1
1071
       20
1005
125204
  0
LINE
  5
125205
  8
CENTER
 10
4000.0
 20
-669.99999999999955
 30
0.0
 11
4000.0
 21
-434.99999999999949
 31
0.0
1001
ACDBBLOCKREPETAG
1070
     1
1071
       21
1005
125205
  0
LINE
  5
125206
  8
OBJECT
 10
3940.5
 20
-470.99999999999937
 30
0.0
 11
3940.5
 21
-533.99999999999955
 31
0.0
1001
ACDBBLOCKREPETAG
1070
     1
1071
       22
1005
125206
  0
LINE
  5
125207
  8
OBJECT
 10
3930.0
 20
-533.99999999999955
 30
0.0
 11
4070.0
 21
-533.99999999999955
 31
0.0
1001
ACDBBLOCKREPETAG
1070
     1
1071
       23
1005
125207
  0
LINE
  5
125208
  8
OBJECT
 10
4059.4999999999982
 20
-533.99999999999955
 30
0.0
 11
4059.4999999999982
 21
-470.99999999999937
 31
0.0
1001
ACDBBLOCKREPETAG
1070
     1
1071
       24
1005
125208
  0
LINE
  5
125209
  8
OBJECT
 10
3930.0
 20
-657.99999999999955
 30
0.0
 11
3930.0
 21
-669.99999999999955
 31
0.0
1001
ACDBBLOCKREPETAG
1070
     1
1071
       25
1005
125209
  0
LINE
  5
12520A
  8
OBJECT
 10
3930.0
 20
-669.99999999999955
 30
0.0
 11
4070.0
 21
-669.99999999999955
 31
0.0
1001
ACDBBLOCKREPETAG
1070
     1
1071
       26
1005
12520A
  0
LINE
  5
12520B
  8
OBJECT
 10
4070.0
 20
-669.99999999999955
 30
0.0
 11
4070.0
 21
-657.99999999999955
 31
0.0
1001
ACDBBLOCKREPETAG
1070
     1
1071
       27
1005
12520B
  0
LINE
  5
12520C
  8
OBJECT
 10
4070.0
 20
-657.99999999999955
 30
0.0
 11
3930.0
 21
-657.99999999999955
 31
0.0
1001
ACDBBLOCKREPETAG
1070
     1
1071
       28
1005
12520C
  0
ARC
  5
12520D
  8
OBJECT
 10
4435.0384389946767
 20
-898.60813684682694
 30
0.0
 40
519.48776673616965
 50
135.42350667430969
 51
138.50052655621499
1001
ACDBBLOCKREPETAG
1070
     1
1071
       32
1005
12520D
  0
ARC
  5
12520E
  8
OBJECT
 10
4435.0384389946767
 20
-293.39186315317193
 30
0.0
 40
519.48776673616965
 50
221.49947344378501
 51
224.57649332569039
1001
ACDBBLOCKREPETAG
1070
     1
1071
       33
1005
12520E
  0
ARC
  5
12520F
  8
OBJECT
 10
3564.961561005322
 20
-898.60813684682694
 30
0.0
 40
519.48776673616965
 50
41.499473443784993
 51
44.576493325690237
1001
ACDBBLOCKREPETAG
1070
     1
1071
       34
1005
12520F
  0
ARC
  5
125210
  8
OBJECT
 10
3564.961561005322
 20
-293.39186315317193
 30
0.0
 40
519.48776673616965
 50
315.42350667430981
 51
318.50052655621488
1001
ACDBBLOCKREPETAG
1070
     1
1071
       35
1005
125210
  0
POINT
  5
125211
  8
DOTS
 10
4000.0
 20
-654.99999999999966
 30
0.0
1001
ACDBBLOCKREPETAG
1070
     1
1071
      111
1005
125211
  0
LINE
  5
125212
  8
CENTER
 10
3909.0
 20
-199.99999999999909
 30
0.0
 11
3930.0
 21
-199.99999999999909
 31
0.0
1001
ACDBBLOCKREPETAG
1070
     1
1071
        0
1005
125212
  0
LINE
  5
125213
  8
OBJECT
 10
3927.0
 20
-261.99999999999909
 30
0.0
 11
3930.0
 21
-261.99999999999909
 31
0.0
1001
ACDBBLOCKREPETAG
1070
     1
1071
        1
1005
125213
  0
ARC
  5
125214
  8
OBJECT
 10
3927.0
 20
-258.99999999999909
 30
0.0
 40
3.0
 50
180.0
 51
270.0
1001
ACDBBLOCKREPETAG
1070
     1
1071
        2
1005
125214
  0
LINE
  5
125215
  8
OBJECT
 10
3930.0
 20
-137.99999999999909
 30
0.0
 11
3927.0
 21
-137.99999999999909
 31
0.0
1001
ACDBBLOCKREPETAG
1070
     1
1071
        3
1005
125215
  0
ARC
  5
125216
  8
OBJECT
 10
3927.0
 20
-140.99999999999909
 30
0.0
 40
3.0
 50
90.0
 51
180.0
1001
ACDBBLOCKREPETAG
1070
     1
1071
        4
1005
125216
  0
LINE
  5
125217
  8
OBJECT
 10
3924.0
 20
-140.99999999999909
 30
0.0
 11
3924.0
 21
-258.99999999999909
 31
0.0
1001
ACDBBLOCKREPETAG
1070
     1
1071
        5
1005
125217
  0
LINE
  5
125218
  8
CENTER
 10
4000.0
 20
-290.99999999999898
 30
0.0
 11
4000.0
 21
-269.99999999999909
 31
0.0
1001
ACDBBLOCKREPETAG
1070
     1
1071
        0
1005
125218
  0
LINE
  5
125219
  8
OBJECT
 10
4062.0
 20
-273.0
 30
0.0
 11
4062.0
 21
-269.99999999999909
 31
0.0
1001
ACDBBLOCKREPETAG
1070
     1
1071
        1
1005
125219
  0
ARC
  5
12521A
  8
OBJECT
 10
4059.0
 20
-273.0
 30
0.0
 40
3.0
 50
270.0
 51
0.0
1001
ACDBBLOCKREPETAG
1070
     1
1071
        2
1005
12521A
  0
LINE
  5
12521B
  8
OBJECT
 10
3938.0
 20
-269.99999999999909
 30
0.0
 11
3938.0
 21
-272.99999999999818
 31
0.0
1001
ACDBBLOCKREPETAG
1070
     1
1071
        3
1005
12521B
  0
ARC
  5
12521C
  8
OBJECT
 10
3941.0
 20
-272.99999999999818
 30
0.0
 40
3.0
 50
180.0
 51
270.0
1001
ACDBBLOCKREPETAG
1070
     1
1071
        4
1005
12521C
  0
LINE
  5
12521D
  8
OBJECT
 10
3941.0
 20
-275.99999999999818
 30
0.0
 11
4059.0
 21
-276.0
 31
0.0
1001
ACDBBLOCKREPETAG
1070
     1
1071
        5
1005
12521D
  0
POINT
  5
12521E
  8
DOTS
 10
4000.0
 20
-199.99999999999909
 30
0.0
 50
270.0
1001
ACDBBLOCKREPETAG
1070
     1
1071
      153
1005
12521E
  0
ARC
  5
12521F
  8
OBJECT
 10
4000.0
 20
-199.99999999999909
 30
0.0
 40
70.0
 50
62.339550100758693
 51
117.6604498992413
1001
ACDBBLOCKREPETAG
1070
     1
1071
        0
1005
12521F
  0
CIRCLE
  5
125220
  8
OBJECT
 10
4000.0
 20
-199.99999999999909
 30
0.0
 40
65.0
1001
ACDBBLOCKREPETAG
1070
     1
1071
        1
1005
125220
  0
CIRCLE
  5
125221
  8
OBJECT
 10
4000.0
 20
-199.99999999999909
 30
0.0
 40
41.0
1001
ACDBBLOCKREPETAG
1070
     1
1071
        2
1005
125221
  0
CIRCLE
  5
125222
  8
OBJECT
 10
4000.0
 20
-199.99999999999909
 30
0.0
 40
58.0
1001
ACDBBLOCKREPETAG
1070
     1
1071
        3
1005
125222
  0
LINE
  5
125223
  8
OBJECT
 10
4070.0
 20
-137.99999999999909
 30
0.0
 11
4019.5192212959432
 21
-137.99999999999909
 31
0.0
1001
ACDBBLOCKREPETAG
1070
     1
1071
        4
1005
125223
  0
LINE
  5
125224
  8
OBJECT
 10
3930.0
 20
-137.99999999999909
 30
0.0
 11
3980.4807787040581
 21
-137.99999999999909
 31
0.0
1001
ACDBBLOCKREPETAG
1070
     1
1071
        5
1005
125224
  0
LINE
  5
125225
  8
OBJECT
 10
3930.0
 20
-261.99999999999909
 30
0.0
 11
3938.0
 21
-261.99999999999909
 31
0.0
1001
ACDBBLOCKREPETAG
1070
     1
1071
        6
1005
125225
  0
LINE
  5
125226
  8
OBJECT
 10
3938.0
 20
-269.99999999999909
 30
0.0
 11
3938.0
 21
-261.99999999999909
 31
0.0
1001
ACDBBLOCKREPETAG
1070
     1
1071
        7
1005
125226
  0
LINE
  5
125227
  8
OBJECT
 10
4070.0
 20
-261.99999999999909
 30
0.0
 11
4062.0
 21
-261.99999999999909
 31
0.0
1001
ACDBBLOCKREPETAG
1070
     1
1071
        8
1005
125227
  0
LINE
  5
125228
  8
OBJECT
 10
4062.0
 20
-269.99999999999909
 30
0.0
 11
4062.0
 21
-261.99999999999909
 31
0.0
1001
ACDBBLOCKREPETAG
1070
     1
1071
        9
1005
125228
  0
LINE
  5
125229
  8
CENTER
 10
3930.0
 20
-199.99999999999909
 30
0.0
 11
4070.0
 21
-199.99999999999909
 31
0.0
1001
ACDBBLOCKREPETAG
1070
     1
1071
       10
1005
125229
  0
LINE
  5
12522A
  8
CENTER
 10
4000.0
 20
-269.99999999999909
 30
0.0
 11
4000.0
 21
-114.9999999999991
 31
0.0
1001
ACDBBLOCKREPETAG
1070
     1
1071
       11
1005
12522A
  0
ARC
  5
12522B
  8
OBJECT
 10
3989.9027621391888
 20
-224.44352901899131
 30
0.0
 40
7.0
 50
73.001272229719234
 51
154.0502587894434
1001
ACDBBLOCKREPETAG
1070
     1
1071
       12
1005
12522B
  0
ARC
  5
12522C
  8
OBJECT
 10
3986.8376610706509
 20
-225.5978773169509
 30
0.0
 40
9.0
 50
73.001272229719234
 51
154.0502639259247
1001
ACDBBLOCKREPETAG
1070
     1
1071
       13
1005
12522C
  0
ARC
  5
12522D
  8
OBJECT
 10
3896.3142301315529
 20
-147.28130031148149
 30
0.0
 40
150.0
 50
322.89503374001981
 51
325.8931499697137
1001
ACDBBLOCKREPETAG
1070
     1
1071
       14
1005
12522D
  0
ARC
  5
12522E
  8
OBJECT
 10
4000.0
 20
-199.99999999999909
 30
0.0
 40
37.5
 50
303.16276667668222
 51
229.1635024908278
1001
ACDBBLOCKREPETAG
1070
     1
1071
       15
1005
12522E
  0
LINE
  5
12522F
  8
OBJECT
 10
3983.6085145189768
 20
-221.38045100897119
 30
0.0
 11
3977.3740109999999
 21
-234.1915870000002
 31
0.0
1001
ACDBBLOCKREPETAG
1070
     1
1071
       16
1005
12522F
  0
LINE
  5
125230
  8
OBJECT
 10
3978.7450566344628
 20
-221.65963488670511
 30
0.0
 11
3973.8986719999989
 21
-231.6183599999996
 31
0.0
1001
ACDBBLOCKREPETAG
1070
     1
1071
       17
1005
125230
  0
LINE
  5
125231
  8
OBJECT
 10
4018.9380179999998
 20
-226.00000000000091
 30
0.0
 11
3989.468815303258
 21
-216.99107608744359
 31
0.0
1001
ACDBBLOCKREPETAG
1070
     1
1071
       18
1005
125231
  0
LINE
  5
125232
  8
OBJECT
 10
4020.5132253090051
 20
-231.39199878029191
 30
0.0
 11
4018.9380179999998
 21
-226.00000000000091
 31
0.0
1001
ACDBBLOCKREPETAG
1070
     1
1071
       19
1005
125232
  0
LINE
  5
125233
  8
OBJECT
 10
3954.0380592228739
 20
-245.96194077712471
 30
0.0
 11
3938.0
 21
-261.99999999999909
 31
0.0
1001
ACDBBLOCKREPETAG
1070
     1
1071
       42
1005
125233
  0
LINE
  5
125234
  8
OBJECT
 10
4045.9619407771238
 20
-245.96194077712471
 30
0.0
 11
4062.0
 21
-261.99999999999909
 31
0.0
1001
ACDBBLOCKREPETAG
1070
     1
1071
       43
1005
125234
  0
LINE
  5
125235
  8
OBJECT
 10
4073.0
 20
-533.99999999999955
 30
0.0
 11
4070.0
 21
-533.99999999999955
 31
0.0
1001
ACDBBLOCKREPETAG
1070
     1
1071
        1
1005
125235
  0
ARC
  5
125236
  8
OBJECT
 10
4073.0
 20
-536.99999999999955
 30
0.0
 40
3.0
 50
0.0
 51
90.0
1001
ACDBBLOCKREPETAG
1070
     1
1071
        2
1005
125236
  0
LINE
  5
125237
  8
OBJECT
 10
4070.0
 20
-657.99999999999955
 30
0.0
 11
4073.0
 21
-657.99999999999955
 31
0.0
1001
ACDBBLOCKREPETAG
1070
     1
1071
        3
1005
125237
  0
ARC
  5
125238
  8
OBJECT
 10
4073.0
 20
-654.99999999999966
 30
0.0
 40
3.0
 50
270.0
 51
0.0
1001
ACDBBLOCKREPETAG
1070
     1
1071
        4
1005
125238
  0
LINE
  5
125239
  8
OBJECT
 10
4076.0
 20
-654.99999999999966
 30
0.0
 11
4076.0
 21
-536.99999999999955
 31
0.0
1001
ACDBBLOCKREPETAG
1070
     1
1071
        5
1005
125239
  0
LINE
  5
12523A
  8
CENTER
 10
4091.0
 20
-199.99999999999909
 30
0.0
 11
4070.0
 21
-199.99999999999909
 31
0.0
1001
ACDBBLOCKREPETAG
1070
     1
1071
        0
1005
12523A
  0
LINE
  5
12523B
  8
OBJECT
 10
4073.0
 20
-137.99999999999909
 30
0.0
 11
4070.0
 21
-137.99999999999909
 31
0.0
1001
ACDBBLOCKREPETAG
1070
     1
1071
        1
1005
12523B
  0
ARC
  5
12523C
  8
OBJECT
 10
4073.0
 20
-140.99999999999909
 30
0.0
 40
3.0
 50
0.0
 51
90.0
1001
ACDBBLOCKREPETAG
1070
     1
1071
        2
1005
12523C
  0
LINE
  5
12523D
  8
OBJECT
 10
4070.0
 20
-261.99999999999909
 30
0.0
 11
4073.0
 21
-261.99999999999909
 31
0.0
1001
ACDBBLOCKREPETAG
1070
     1
1071
        3
1005
12523D
  0
ARC
  5
12523E
  8
OBJECT
 10
4073.0
 20
-258.99999999999909
 30
0.0
 40
3.0
 50
270.0
 51
0.0
1001
ACDBBLOCKREPETAG
1070
     1
1071
        4
1005
12523E
  0
LINE
  5
12523F
  8
OBJECT
 10
4076.0
 20
-258.99999999999909
 30
0.0
 11
4076.0
 21
-140.99999999999909
 31
0.0
1001
ACDBBLOCKREPETAG
1070
     1
1071
        5
1005
12523F
  0
TEXT
  5
125240
  8
SLIM
 10
7824.6000000000022
 20
-1303.999999999998
 30
0.0
 40
28.0
  1
※ 対応スラブ厚　180～220
 41
0.75
  0
TEXT
  5
125241
  8
SLIM
 10
7598.8999999999969
 20
-1397.333333333331
 30
0.0
 40
28.0
  1
国土交通大臣認定・（一財）日本消防設備安全センター性能評定取得品
 41
0.75
  0
TEXT
  5
125242
  8
SLIM
 10
7631.1000000000004
 20
-1443.999999999998
 30
0.0
 40
28.0
  1
注）ご採用にあたり、認定書及び評定書の内容をご確認ください。
 41
0.75
  0
LINE
  5
125243
  8
SLIM
 10
11925.0
 20
-655.19743878930785
 30
0.0
 11
11925.197438789301
 21
-654.99999999999966
 31
0.0
1001
ACAD
1010
0.0
1020
0.0
1030
0.0
1001
ACDBBLOCKREPETAG
1070
     1
1071
        1
1005
0
  0
LINE
  5
125244
  8
SLIM
 10
11925.0
 20
-673.15795103144626
 30
0.0
 11
11943.15795103144
 21
-654.99999999999966
 31
0.0
1001
ACAD
1010
0.0
1020
0.0
1030
0.0
1001
ACDBBLOCKREPETAG
1070
     1
1071
       10
1005
125244
  0
LINE
  5
125245
  8
SLIM
 10
11925.0
 20
-691.11846327358444
 30
0.0
 11
11961.11846327358
 21
-654.99999999999966
 31
0.0
1001
ACAD
1010
0.0
1020
0.0
1030
0.0
1001
ACDBBLOCKREPETAG
1070
     1
1071
       11
1005
125245
  0
LINE
  5
125246
  8
SLIM
 10
11925.0
 20
-709.07897551572296
 30
0.0
 11
11979.07897551572
 21
-654.99999999999966
 31
0.0
1001
ACAD
1010
0.0
1020
0.0
1030
0.0
1001
ACDBBLOCKREPETAG
1070
     1
1071
       12
1005
125246
  0
LINE
  5
125247
  8
SLIM
 10
11925.0
 20
-727.03948775786114
 30
0.0
 11
11997.03948775786
 21
-654.99999999999966
 31
0.0
1001
ACAD
1010
0.0
1020
0.0
1030
0.0
1001
ACDBBLOCKREPETAG
1070
     1
1071
       13
1005
125247
  0
LINE
  5
125248
  8
SLIM
 10
11925.0
 20
-744.99999999999955
 30
0.0
 11
12015.0
 21
-654.99999999999966
 31
0.0
1001
ACAD
1010
0.0
1020
0.0
1030
0.0
1001
ACDBBLOCKREPETAG
1070
     1
1071
       14
1005
125248
  0
LINE
  5
125249
  8
SLIM
 10
11925.0
 20
-762.96051224213772
 30
0.0
 11
12032.96051224214
 21
-654.99999999999966
 31
0.0
1001
ACAD
1010
0.0
1020
0.0
1030
0.0
1001
ACDBBLOCKREPETAG
1070
     1
1071
       15
1005
125249
  0
LINE
  5
12524A
  8
SLIM
 10
11926.57043503541
 20
-779.35058944886373
 30
0.0
 11
12050.921024484271
 21
-654.99999999999966
 31
0.0
1001
ACAD
1010
0.0
1020
0.0
1030
0.0
1001
ACDBBLOCKREPETAG
1070
     1
1071
       16
1005
12524A
  0
LINE
  5
12524B
  8
SLIM
 10
11929.39181818456
 20
-794.48971854185424
 30
0.0
 11
12068.881536726411
 21
-654.99999999999966
 31
0.0
1001
ACAD
1010
0.0
1020
0.0
1030
0.0
1001
ACDBBLOCKREPETAG
1070
     1
1071
       17
1005
12524B
  0
LINE
  5
12524C
  8
SLIM
 10
11932.21320133371
 20
-809.62884763484476
 30
0.0
 11
12075.0
 21
-666.84204896855283
 31
0.0
1001
ACAD
1010
0.0
1020
0.0
1030
0.0
1001
ACDBBLOCKREPETAG
1070
     1
1071
       18
1005
12524C
  0
LINE
  5
12524D
  8
SLIM
 10
11935.03458448285
 20
-824.76797672783539
 30
0.0
 11
12075.0
 21
-684.80256121069112
 31
0.0
1001
ACAD
1010
0.0
1020
0.0
1030
0.0
1001
ACDBBLOCKREPETAG
1070
     1
1071
       19
1005
12524D
  0
LINE
  5
12524E
  8
SLIM
 10
11937.855967632
 20
-839.90710582082579
 30
0.0
 11
12075.0
 21
-702.76307345282942
 31
0.0
1001
ACAD
1010
0.0
1020
0.0
1030
0.0
1001
ACDBBLOCKREPETAG
1070
     1
1071
       20
1005
12524E
  0
LINE
  5
12524F
  8
SLIM
 10
11940.67735078115
 20
-855.04623491381665
 30
0.0
 11
12075.0
 21
-720.7235856949676
 31
0.0
1001
ACAD
1010
0.0
1020
0.0
1030
0.0
1001
ACDBBLOCKREPETAG
1070
     1
1071
       21
1005
12524F
  0
LINE
  5
125250
  8
SLIM
 10
11943.498733930301
 20
-870.18536400680739
 30
0.0
 11
12075.0
 21
-738.684097937106
 31
0.0
1001
ACAD
1010
0.0
1020
0.0
1030
0.0
1001
ACDBBLOCKREPETAG
1070
     1
1071
       22
1005
125250
  0
LINE
  5
125251
  8
SLIM
 10
11945.5
 20
-886.14461017924543
 30
0.0
 11
12075.0
 21
-756.64461017924407
 31
0.0
1001
ACAD
1010
0.0
1020
0.0
1030
0.0
1001
ACDBBLOCKREPETAG
1070
     1
1071
       23
1005
125251
  0
LINE
  5
125252
  8
SLIM
 10
11945.5
 20
-904.10512242138145
 30
0.0
 11
12074.15680692925
 21
-775.44831549213154
 31
0.0
1001
ACAD
1010
0.0
1020
0.0
1030
0.0
1001
ACDBBLOCKREPETAG
1070
     1
1071
       24
1005
125252
  0
LINE
  5
125253
  8
SLIM
 10
11945.5
 20
-922.06563466351747
 30
0.0
 11
12070.04294658328
 21
-797.52268808023439
 31
0.0
1001
ACAD
1010
0.0
1020
0.0
1030
0.0
1001
ACDBBLOCKREPETAG
1070
     1
1071
       25
1005
125253
  0
LINE
  5
125254
  8
SLIM
 10
11960.52614690566
 20
-924.99999999999955
 30
0.0
 11
12065.92908623732
 21
-819.59706066833724
 31
0.0
1001
ACAD
1010
0.0
1020
0.0
1030
0.0
1001
ACDBBLOCKREPETAG
1070
     1
1071
       26
1005
125254
  0
LINE
  5
125255
  8
SLIM
 10
11978.4866591478
 20
-924.99999999999955
 30
0.0
 11
12061.81522589136
 21
-841.67143325643985
 31
0.0
1001
ACAD
1010
0.0
1020
0.0
1030
0.0
1001
ACDBBLOCKREPETAG
1070
     1
1071
       27
1005
125255
  0
LINE
  5
125256
  8
SLIM
 10
11996.447171389929
 20
-924.99999999999955
 30
0.0
 11
12057.70136554539
 21
-863.74580584454304
 31
0.0
1001
ACAD
1010
0.0
1020
0.0
1030
0.0
1001
ACDBBLOCKREPETAG
1070
     1
1071
       28
1005
125256
  0
LINE
  5
125257
  8
SLIM
 10
12014.407683632069
 20
-924.99999999999955
 30
0.0
 11
12054.5
 21
-884.90768363207417
 31
0.0
1001
ACAD
1010
0.0
1020
0.0
1030
0.0
1001
ACDBBLOCKREPETAG
1070
     1
1071
       29
1005
125257
  0
LINE
  5
125258
  8
SLIM
 10
12032.368195874211
 20
-924.99999999999955
 30
0.0
 11
12054.5
 21
-902.86819587421314
 31
0.0
1001
ACAD
1010
0.0
1020
0.0
1030
0.0
1001
ACDBBLOCKREPETAG
1070
     1
1071
       30
1005
125258
  0
LINE
  5
125259
  8
SLIM
 10
12050.328708116351
 20
-924.99999999999955
 30
0.0
 11
12054.5
 21
-920.82870811635235
 31
0.0
1001
ACAD
1010
0.0
1020
0.0
1030
0.0
1001
ACDBBLOCKREPETAG
1070
     1
1071
       31
1005
125259
  0
LINE
  5
12525A
  8
OBJECT
 10
11925.0
 20
-654.99999999999966
 30
0.0
 11
12075.0
 21
-654.99999999999966
 31
0.0
1001
ACDBBLOCKREPETAG
1070
     1
1071
        2
1005
12525A
  0
LINE
  5
12525B
  8
OBJECT
 10
12075.0
 20
-654.99999999999966
 30
0.0
 11
12075.0
 21
-770.9238648686005
 31
0.0
1001
ACDBBLOCKREPETAG
1070
     1
1071
        3
1005
12525B
  0
LINE
  5
12525C
  8
OBJECT
 10
12075.0
 20
-770.9238648686005
 30
0.0
 11
12054.5
 21
-880.92386486860221
 31
0.0
1001
ACDBBLOCKREPETAG
1070
     1
1071
        4
1005
12525C
  0
LINE
  5
12525D
  8
OBJECT
 10
12054.5
 20
-880.92386486860221
 30
0.0
 11
12054.5
 21
-924.99999999999955
 31
0.0
1001
ACDBBLOCKREPETAG
1070
     1
1071
        5
1005
12525D
  0
LINE
  5
12525E
  8
OBJECT
 10
12054.5
 20
-924.99999999999955
 30
0.0
 11
11945.5
 21
-924.99999999999955
 31
0.0
1001
ACDBBLOCKREPETAG
1070
     1
1071
        6
1005
12525E
  0
LINE
  5
12525F
  8
OBJECT
 10
11945.5
 20
-924.99999999999955
 30
0.0
 11
11945.5
 21
-880.92386486861199
 31
0.0
1001
ACDBBLOCKREPETAG
1070
     1
1071
        7
1005
12525F
  0
LINE
  5
125260
  8
OBJECT
 10
11945.5
 20
-880.92386486861199
 30
0.0
 11
11925.0
 21
-770.9238648686005
 31
0.0
1001
ACDBBLOCKREPETAG
1070
     1
1071
        8
1005
125260
  0
LINE
  5
125261
  8
OBJECT
 10
11925.0
 20
-770.9238648686005
 30
0.0
 11
11925.0
 21
-654.99999999999966
 31
0.0
1001
ACDBBLOCKREPETAG
1070
     1
1071
        9
1005
125261
  0
LINE
  5
125262
  8
SLIM
 10
9925.0
 20
-655.19743878930785
 30
0.0
 11
9925.1974387893097
 21
-654.99999999999966
 31
0.0
1001
ACAD
1010
0.0
1020
0.0
1030
0.0
1001
ACDBBLOCKREPETAG
1070
     1
1071
        1
1005
0
  0
LINE
  5
125263
  8
SLIM
 10
9925.0
 20
-673.15795103144626
 30
0.0
 11
9943.1579510314441
 21
-654.99999999999966
 31
0.0
1001
ACAD
1010
0.0
1020
0.0
1030
0.0
1001
ACDBBLOCKREPETAG
1070
     1
1071
       10
1005
125263
  0
LINE
  5
125264
  8
SLIM
 10
9925.0
 20
-691.11846327358444
 30
0.0
 11
9961.1184632735858
 21
-654.99999999999966
 31
0.0
1001
ACAD
1010
0.0
1020
0.0
1030
0.0
1001
ACDBBLOCKREPETAG
1070
     1
1071
       11
1005
125264
  0
LINE
  5
125265
  8
SLIM
 10
9925.0
 20
-709.07897551572296
 30
0.0
 11
9979.0789755157257
 21
-654.99999999999966
 31
0.0
1001
ACAD
1010
0.0
1020
0.0
1030
0.0
1001
ACDBBLOCKREPETAG
1070
     1
1071
       12
1005
125265
  0
LINE
  5
125266
  8
SLIM
 10
9925.0
 20
-727.03948775786114
 30
0.0
 11
9997.0394877578656
 21
-654.99999999999966
 31
0.0
1001
ACAD
1010
0.0
1020
0.0
1030
0.0
1001
ACDBBLOCKREPETAG
1070
     1
1071
       13
1005
125266
  0
LINE
  5
125267
  8
SLIM
 10
9925.0
 20
-744.99999999999955
 30
0.0
 11
10015.0
 21
-654.99999999999966
 31
0.0
1001
ACAD
1010
0.0
1020
0.0
1030
0.0
1001
ACDBBLOCKREPETAG
1070
     1
1071
       14
1005
125267
  0
LINE
  5
125268
  8
SLIM
 10
9925.0
 20
-762.96051224213772
 30
0.0
 11
10032.96051224214
 21
-654.99999999999966
 31
0.0
1001
ACAD
1010
0.0
1020
0.0
1030
0.0
1001
ACDBBLOCKREPETAG
1070
     1
1071
       15
1005
125268
  0
LINE
  5
125269
  8
SLIM
 10
9926.5704350354117
 20
-779.35058944886373
 30
0.0
 11
10050.921024484271
 21
-654.99999999999966
 31
0.0
1001
ACAD
1010
0.0
1020
0.0
1030
0.0
1001
ACDBBLOCKREPETAG
1070
     1
1071
       16
1005
125269
  0
LINE
  5
12526A
  8
SLIM
 10
9929.3918181845602
 20
-794.48971854185424
 30
0.0
 11
10068.881536726411
 21
-654.99999999999966
 31
0.0
1001
ACAD
1010
0.0
1020
0.0
1030
0.0
1001
ACDBBLOCKREPETAG
1070
     1
1071
       17
1005
12526A
  0
LINE
  5
12526B
  8
SLIM
 10
9932.2132013337086
 20
-809.62884763484476
 30
0.0
 11
10075.0
 21
-666.84204896855283
 31
0.0
1001
ACAD
1010
0.0
1020
0.0
1030
0.0
1001
ACDBBLOCKREPETAG
1070
     1
1071
       18
1005
12526B
  0
LINE
  5
12526C
  8
SLIM
 10
9935.0345844828553
 20
-824.76797672783539
 30
0.0
 11
10075.0
 21
-684.80256121069112
 31
0.0
1001
ACAD
1010
0.0
1020
0.0
1030
0.0
1001
ACDBBLOCKREPETAG
1070
     1
1071
       19
1005
12526C
  0
LINE
  5
12526D
  8
SLIM
 10
9937.8559676320037
 20
-839.90710582082579
 30
0.0
 11
10075.0
 21
-702.76307345282942
 31
0.0
1001
ACAD
1010
0.0
1020
0.0
1030
0.0
1001
ACDBBLOCKREPETAG
1070
     1
1071
       20
1005
12526D
  0
LINE
  5
12526E
  8
SLIM
 10
9940.6773507811504
 20
-855.04623491381665
 30
0.0
 11
10075.0
 21
-720.7235856949676
 31
0.0
1001
ACAD
1010
0.0
1020
0.0
1030
0.0
1001
ACDBBLOCKREPETAG
1070
     1
1071
       21
1005
12526E
  0
LINE
  5
12526F
  8
SLIM
 10
9943.498733930297
 20
-870.18536400680739
 30
0.0
 11
10075.0
 21
-738.684097937106
 31
0.0
1001
ACAD
1010
0.0
1020
0.0
1030
0.0
1001
ACDBBLOCKREPETAG
1070
     1
1071
       22
1005
12526F
  0
LINE
  5
125270
  8
SLIM
 10
9945.4999999999982
 20
-886.14461017924543
 30
0.0
 11
10075.0
 21
-756.64461017924407
 31
0.0
1001
ACAD
1010
0.0
1020
0.0
1030
0.0
1001
ACDBBLOCKREPETAG
1070
     1
1071
       23
1005
125270
  0
LINE
  5
125271
  8
SLIM
 10
9945.5
 20
-904.10512242138145
 30
0.0
 11
10074.15680692925
 21
-775.44831549213154
 31
0.0
1001
ACAD
1010
0.0
1020
0.0
1030
0.0
1001
ACDBBLOCKREPETAG
1070
     1
1071
       24
1005
125271
  0
LINE
  5
125272
  8
SLIM
 10
9945.5000000000036
 20
-922.06563466351747
 30
0.0
 11
10070.04294658328
 21
-797.52268808023439
 31
0.0
1001
ACAD
1010
0.0
1020
0.0
1030
0.0
1001
ACDBBLOCKREPETAG
1070
     1
1071
       25
1005
125272
  0
LINE
  5
125273
  8
SLIM
 10
9960.5261469056604
 20
-924.99999999999955
 30
0.0
 11
10065.92908623732
 21
-819.59706066833724
 31
0.0
1001
ACAD
1010
0.0
1020
0.0
1030
0.0
1001
ACDBBLOCKREPETAG
1070
     1
1071
       26
1005
125273
  0
LINE
  5
125274
  8
SLIM
 10
9978.4866591477985
 20
-924.99999999999955
 30
0.0
 11
10061.815225891351
 21
-841.67143325643985
 31
0.0
1001
ACAD
1010
0.0
1020
0.0
1030
0.0
1001
ACDBBLOCKREPETAG
1070
     1
1071
       27
1005
125274
  0
LINE
  5
125275
  8
SLIM
 10
9996.4471713899384
 20
-924.99999999999955
 30
0.0
 11
10057.70136554539
 21
-863.74580584454304
 31
0.0
1001
ACAD
1010
0.0
1020
0.0
1030
0.0
1001
ACDBBLOCKREPETAG
1070
     1
1071
       28
1005
125275
  0
LINE
  5
125276
  8
SLIM
 10
10014.40768363206
 20
-924.99999999999955
 30
0.0
 11
10054.5
 21
-884.90768363207417
 31
0.0
1001
ACAD
1010
0.0
1020
0.0
1030
0.0
1001
ACDBBLOCKREPETAG
1070
     1
1071
       29
1005
125276
  0
LINE
  5
125277
  8
SLIM
 10
10032.368195874211
 20
-924.99999999999955
 30
0.0
 11
10054.5
 21
-902.86819587421314
 31
0.0
1001
ACAD
1010
0.0
1020
0.0
1030
0.0
1001
ACDBBLOCKREPETAG
1070
     1
1071
       30
1005
125277
  0
LINE
  5
125278
  8
SLIM
 10
10050.328708116351
 20
-924.99999999999955
 30
0.0
 11
10054.5
 21
-920.82870811635235
 31
0.0
1001
ACAD
1010
0.0
1020
0.0
1030
0.0
1001
ACDBBLOCKREPETAG
1070
     1
1071
       31
1005
125278
  0
LINE
  5
125279
  8
OBJECT
 10
9925.0
 20
-654.99999999999966
 30
0.0
 11
10075.0
 21
-654.99999999999966
 31
0.0
1001
ACDBBLOCKREPETAG
1070
     1
1071
        2
1005
125279
  0
LINE
  5
12527A
  8
OBJECT
 10
10075.0
 20
-654.99999999999966
 30
0.0
 11
10075.0
 21
-770.9238648686005
 31
0.0
1001
ACDBBLOCKREPETAG
1070
     1
1071
        3
1005
12527A
  0
LINE
  5
12527B
  8
OBJECT
 10
10075.0
 20
-770.9238648686005
 30
0.0
 11
10054.5
 21
-880.92386486860221
 31
0.0
1001
ACDBBLOCKREPETAG
1070
     1
1071
        4
1005
12527B
  0
LINE
  5
12527C
  8
OBJECT
 10
10054.5
 20
-880.92386486860221
 30
0.0
 11
10054.5
 21
-924.99999999999955
 31
0.0
1001
ACDBBLOCKREPETAG
1070
     1
1071
        5
1005
12527C
  0
LINE
  5
12527D
  8
OBJECT
 10
10054.5
 20
-924.99999999999955
 30
0.0
 11
9945.5000000000036
 21
-924.99999999999955
 31
0.0
1001
ACDBBLOCKREPETAG
1070
     1
1071
        6
1005
12527D
  0
LINE
  5
12527E
  8
OBJECT
 10
9945.5000000000036
 20
-924.99999999999955
 30
0.0
 11
9945.4999999999982
 21
-880.92386486861199
 31
0.0
1001
ACDBBLOCKREPETAG
1070
     1
1071
        7
1005
12527E
  0
LINE
  5
12527F
  8
OBJECT
 10
9945.4999999999982
 20
-880.92386486861199
 30
0.0
 11
9925.0
 21
-770.9238648686005
 31
0.0
1001
ACDBBLOCKREPETAG
1070
     1
1071
        8
1005
12527F
  0
LINE
  5
125280
  8
OBJECT
 10
9925.0
 20
-770.9238648686005
 30
0.0
 11
9925.0
 21
-654.99999999999966
 31
0.0
1001
ACDBBLOCKREPETAG
1070
     1
1071
        9
1005
125280
  0
LINE
  5
125281
  8
SLIM
 10
7925.0
 20
-655.19743878930785
 30
0.0
 11
7925.1974387893079
 21
-654.99999999999966
 31
0.0
1001
ACAD
1010
0.0
1020
0.0
1030
0.0
1001
ACDBBLOCKREPETAG
1070
     1
1071
        1
1005
0
  0
LINE
  5
125282
  8
SLIM
 10
7925.0
 20
-673.15795103144626
 30
0.0
 11
7943.1579510314459
 21
-654.99999999999966
 31
0.0
1001
ACAD
1010
0.0
1020
0.0
1030
0.0
1001
ACDBBLOCKREPETAG
1070
     1
1071
       11
1005
125282
  0
LINE
  5
125283
  8
SLIM
 10
7925.0
 20
-691.11846327358444
 30
0.0
 11
7961.1184632735867
 21
-654.99999999999966
 31
0.0
1001
ACAD
1010
0.0
1020
0.0
1030
0.0
1001
ACDBBLOCKREPETAG
1070
     1
1071
       12
1005
125283
  0
LINE
  5
125284
  8
SLIM
 10
7925.0
 20
-709.07897551572296
 30
0.0
 11
7979.078975515723
 21
-654.99999999999966
 31
0.0
1001
ACAD
1010
0.0
1020
0.0
1030
0.0
1001
ACDBBLOCKREPETAG
1070
     1
1071
       13
1005
125284
  0
LINE
  5
125285
  8
SLIM
 10
7925.0
 20
-727.03948775786114
 30
0.0
 11
7997.0394877578628
 21
-654.99999999999966
 31
0.0
1001
ACAD
1010
0.0
1020
0.0
1030
0.0
1001
ACDBBLOCKREPETAG
1070
     1
1071
       14
1005
125285
  0
LINE
  5
125286
  8
SLIM
 10
7925.0
 20
-744.99999999999955
 30
0.0
 11
8015.0
 21
-654.99999999999966
 31
0.0
1001
ACAD
1010
0.0
1020
0.0
1030
0.0
1001
ACDBBLOCKREPETAG
1070
     1
1071
       15
1005
125286
  0
LINE
  5
125287
  8
SLIM
 10
7925.0
 20
-762.96051224213772
 30
0.0
 11
8032.960512242139
 21
-654.99999999999966
 31
0.0
1001
ACAD
1010
0.0
1020
0.0
1030
0.0
1001
ACDBBLOCKREPETAG
1070
     1
1071
       16
1005
125287
  0
LINE
  5
125288
  8
SLIM
 10
7926.5704350354117
 20
-779.35058944886373
 30
0.0
 11
8050.9210244842798
 21
-654.99999999999966
 31
0.0
1001
ACAD
1010
0.0
1020
0.0
1030
0.0
1001
ACDBBLOCKREPETAG
1070
     1
1071
       17
1005
125288
  0
LINE
  5
125289
  8
SLIM
 10
7929.3918181845593
 20
-794.4897185418539
 30
0.0
 11
8068.8815367264133
 21
-654.99999999999966
 31
0.0
1001
ACAD
1010
0.0
1020
0.0
1030
0.0
1001
ACDBBLOCKREPETAG
1070
     1
1071
       18
1005
125289
  0
LINE
  5
12528A
  8
SLIM
 10
7932.2132013337077
 20
-809.62884763484408
 30
0.0
 11
8075.0
 21
-666.84204896855283
 31
0.0
1001
ACAD
1010
0.0
1020
0.0
1030
0.0
1001
ACDBBLOCKREPETAG
1070
     1
1071
       19
1005
12528A
  0
LINE
  5
12528B
  8
SLIM
 10
7935.0345844828562
 20
-824.76797672783425
 30
0.0
 11
8075.0
 21
-684.80256121069112
 31
0.0
1001
ACAD
1010
0.0
1020
0.0
1030
0.0
1001
ACDBBLOCKREPETAG
1070
     1
1071
       20
1005
12528B
  0
LINE
  5
12528C
  8
SLIM
 10
7937.8559676320019
 20
-839.90710582082465
 30
0.0
 11
8075.0
 21
-702.76307345282942
 31
0.0
1001
ACAD
1010
0.0
1020
0.0
1030
0.0
1001
ACDBBLOCKREPETAG
1070
     1
1071
       21
1005
12528C
  0
LINE
  5
12528D
  8
SLIM
 10
7940.677350781154
 20
-855.04623491381471
 30
0.0
 11
8075.0
 21
-720.7235856949676
 31
0.0
1001
ACAD
1010
0.0
1020
0.0
1030
0.0
1001
ACDBBLOCKREPETAG
1070
     1
1071
       22
1005
12528D
  0
LINE
  5
12528E
  8
SLIM
 10
7943.4987339303016
 20
-870.18536400680489
 30
0.0
 11
8075.0
 21
-738.684097937106
 31
0.0
1001
ACAD
1010
0.0
1020
0.0
1030
0.0
1001
ACDBBLOCKREPETAG
1070
     1
1071
       23
1005
12528E
  0
LINE
  5
12528F
  8
SLIM
 10
7946.6446101792453
 20
-884.99999999999955
 30
0.0
 11
8075.0
 21
-756.64461017924407
 31
0.0
1001
ACAD
1010
0.0
1020
0.0
1030
0.0
1001
ACDBBLOCKREPETAG
1070
     1
1071
       24
1005
12528F
  0
LINE
  5
125290
  8
SLIM
 10
7955.5
 20
-894.1051224213827
 30
0.0
 11
7964.6051224213816
 21
-884.99999999999955
 31
0.0
1001
ACAD
1010
0.0
1020
0.0
1030
0.0
1001
ACDBBLOCKREPETAG
1070
     1
1071
       25
1005
125290
  0
LINE
  5
125291
  8
SLIM
 10
7964.6051224213816
 20
-884.99999999999955
 30
0.0
 11
8074.1568069292498
 21
-775.44831549213154
 31
0.0
1001
ACAD
1010
0.0
1020
0.0
1030
0.0
1001
ACDBBLOCKREPETAG
1070
     1
1071
       26
1005
125291
  0
LINE
  5
125292
  8
SLIM
 10
7962.5656346635215
 20
-904.99999999999966
 30
0.0
 11
7982.5656346635215
 21
-884.99999999999955
 31
0.0
1001
ACAD
1010
0.0
1020
0.0
1030
0.0
1001
ACDBBLOCKREPETAG
1070
     1
1071
       27
1005
125292
  0
LINE
  5
125293
  8
SLIM
 10
7982.5656346635215
 20
-884.99999999999955
 30
0.0
 11
8070.0429465832849
 21
-797.52268808023427
 31
0.0
1001
ACAD
1010
0.0
1020
0.0
1030
0.0
1001
ACDBBLOCKREPETAG
1070
     1
1071
       28
1005
125293
  0
LINE
  5
125294
  8
SLIM
 10
7980.5261469056604
 20
-904.99999999999966
 30
0.0
 11
8000.5261469056577
 21
-884.99999999999955
 31
0.0
1001
ACAD
1010
0.0
1020
0.0
1030
0.0
1001
ACDBBLOCKREPETAG
1070
     1
1071
       29
1005
125294
  0
LINE
  5
125295
  8
SLIM
 10
8000.5261469056577
 20
-884.99999999999955
 30
0.0
 11
8065.9290862373227
 21
-819.59706066833712
 31
0.0
1001
ACAD
1010
0.0
1020
0.0
1030
0.0
1001
ACDBBLOCKREPETAG
1070
     1
1071
       30
1005
125295
  0
LINE
  5
125296
  8
SLIM
 10
7998.4866591477967
 20
-904.99999999999966
 30
0.0
 11
8018.4866591477967
 21
-884.99999999999955
 31
0.0
1001
ACAD
1010
0.0
1020
0.0
1030
0.0
1001
ACDBBLOCKREPETAG
1070
     1
1071
       31
1005
125296
  0
LINE
  5
125297
  8
SLIM
 10
8018.4866591477967
 20
-884.99999999999955
 30
0.0
 11
8061.8152258913578
 21
-841.67143325643985
 31
0.0
1001
ACAD
1010
0.0
1020
0.0
1030
0.0
1001
ACDBBLOCKREPETAG
1070
     1
1071
       32
1005
125297
  0
LINE
  5
125298
  8
SLIM
 10
8016.4471713899384
 20
-904.99999999999966
 30
0.0
 11
8036.4471713899338
 21
-884.99999999999955
 31
0.0
1001
ACAD
1010
0.0
1020
0.0
1030
0.0
1001
ACDBBLOCKREPETAG
1070
     1
1071
       33
1005
125298
  0
LINE
  5
125299
  8
SLIM
 10
8036.4471713899338
 20
-884.99999999999955
 30
0.0
 11
8057.701365545392
 21
-863.74580584454225
 31
0.0
1001
ACAD
1010
0.0
1020
0.0
1030
0.0
1001
ACDBBLOCKREPETAG
1070
     1
1071
       34
1005
125299
  0
LINE
  5
12529A
  8
SLIM
 10
8034.4076836320728
 20
-904.99999999999966
 30
0.0
 11
8044.5000000000036
 21
-894.90768363207417
 31
0.0
1001
ACAD
1010
0.0
1020
0.0
1030
0.0
1001
ACDBBLOCKREPETAG
1070
     1
1071
       35
1005
12529A
  0
LINE
  5
12529B
  8
OBJECT
 10
7925.0
 20
-654.99999999999966
 30
0.0
 11
8075.0
 21
-654.99999999999966
 31
0.0
1001
ACDBBLOCKREPETAG
1070
     1
1071
        2
1005
12529B
  0
LINE
  5
12529C
  8
OBJECT
 10
8075.0
 20
-654.99999999999966
 30
0.0
 11
8075.0
 21
-770.9238648686005
 31
0.0
1001
ACDBBLOCKREPETAG
1070
     1
1071
        3
1005
12529C
  0
LINE
  5
12529D
  8
OBJECT
 10
8075.0
 20
-770.9238648686005
 30
0.0
 11
8053.7403566346029
 21
-884.99999999999955
 31
0.0
1001
ACDBBLOCKREPETAG
1070
     1
1071
        4
1005
12529D
  0
LINE
  5
12529E
  8
OBJECT
 10
8044.5000000000036
 20
-884.99999999999955
 30
0.0
 11
8044.5000000000036
 21
-904.99999999999966
 31
0.0
1001
ACDBBLOCKREPETAG
1070
     1
1071
        5
1005
12529E
  0
LINE
  5
12529F
  8
OBJECT
 10
8044.5000000000036
 20
-904.99999999999966
 30
0.0
 11
7955.5
 21
-904.99999999999966
 31
0.0
1001
ACDBBLOCKREPETAG
1070
     1
1071
        6
1005
12529F
  0
LINE
  5
1252A0
  8
OBJECT
 10
7955.5
 20
-904.99999999999966
 30
0.0
 11
7955.5
 21
-884.99999999999955
 31
0.0
1001
ACDBBLOCKREPETAG
1070
     1
1071
        7
1005
1252A0
  0
LINE
  5
1252A1
  8
OBJECT
 10
8053.7403566346029
 20
-884.99999999999955
 30
0.0
 11
7946.2596433653962
 21
-884.99999999999955
 31
0.0
1001
ACDBBLOCKREPETAG
1070
     1
1071
        8
1005
1252A1
  0
LINE
  5
1252A2
  8
OBJECT
 10
7946.2596433653962
 20
-884.99999999999955
 30
0.0
 11
7925.0
 21
-770.9238648686005
 31
0.0
1001
ACDBBLOCKREPETAG
1070
     1
1071
        9
1005
1252A2
  0
LINE
  5
1252A3
  8
OBJECT
 10
7925.0
 20
-770.9238648686005
 30
0.0
 11
7925.0
 21
-654.99999999999966
 31
0.0
1001
ACDBBLOCKREPETAG
1070
     1
1071
       10
1005
1252A3
  0
LINE
  5
1252A4
  8
OBJECT
 10
12055.999999999991
 20
-1003.999999999999
 30
0.0
 11
12055.999999999991
 21
-1013.999999999999
 31
0.0
1001
ACDBBLOCKREPETAG
1070
     1
1071
      121
1005
1252A4
  0
LINE
  5
1252A5
  8
OBJECT
 10
11961.75
 20
-954.69999999999663
 30
0.0
 11
11974.25
 21
-954.69999999999663
 31
0.0
1001
ACDBBLOCKREPETAG
1070
     1
1071
      122
1005
1252A5
  0
LINE
  5
1252A6
  8
OBJECT
 10
12073.499999999991
 20
-962.70000000000005
 30
0.0
 11
12073.499999999991
 21
-964.99999999999955
 31
0.0
1001
ACDBBLOCKREPETAG
1070
     1
1071
      123
1005
1252A6
  0
LINE
  5
1252A7
  8
OBJECT
 10
12057.749999999991
 20
-954.69999999999663
 30
0.0
 11
12070.249999999991
 21
-954.69999999999663
 31
0.0
1001
ACDBBLOCKREPETAG
1070
     1
1071
      124
1005
1252A7
  0
LINE
  5
1252A8
  8
OBJECT
 10
12054.499999999991
 20
-962.70000000000005
 30
0.0
 11
12054.499999999991
 21
-964.99999999999955
 31
0.0
1001
ACDBBLOCKREPETAG
1070
     1
1071
      125
1005
1252A8
  0
LINE
  5
1252A9
  8
OBJECT
 10
11953.0
 20
-964.99999999999955
 30
0.0
 11
11953.0
 21
-962.70000000000005
 31
0.0
1001
ACDBBLOCKREPETAG
1070
     1
1071
      126
1005
1252A9
  0
LINE
  5
1252AA
  8
OBJECT
 10
11983.0
 20
-964.99999999999955
 30
0.0
 11
11983.0
 21
-962.70000000000005
 31
0.0
1001
ACDBBLOCKREPETAG
1070
     1
1071
      127
1005
1252AA
  0
LINE
  5
1252AB
  8
OBJECT
 10
11961.75
 20
-954.69999999999663
 30
0.0
 11
11961.75
 21
-962.70000000000005
 31
0.0
1001
ACDBBLOCKREPETAG
1070
     1
1071
      128
1005
1252AB
  0
LINE
  5
1252AC
  8
OBJECT
 10
11974.25
 20
-954.69999999999663
 30
0.0
 11
11974.25
 21
-962.70000000000005
 31
0.0
1001
ACDBBLOCKREPETAG
1070
     1
1071
      129
1005
1252AC
  0
LINE
  5
1252AD
  8
OBJECT
 10
11953.0
 20
-962.70000000000005
 30
0.0
 11
11983.0
 21
-962.70000000000005
 31
0.0
1001
ACDBBLOCKREPETAG
1070
     1
1071
      130
1005
1252AD
  0
LINE
  5
1252AE
  8
OBJECT
 10
11960.0
 20
-1003.999999999999
 30
0.0
 11
11960.0
 21
-1013.999999999999
 31
0.0
1001
ACDBBLOCKREPETAG
1070
     1
1071
      131
1005
1252AE
  0
LINE
  5
1252AF
  8
OBJECT
 10
11976.0
 20
-1003.999999999999
 30
0.0
 11
11976.0
 21
-1013.999999999999
 31
0.0
1001
ACDBBLOCKREPETAG
1070
     1
1071
      132
1005
1252AF
  0
LINE
  5
1252B0
  8
OBJECT
 10
11960.0
 20
-1013.999999999999
 30
0.0
 11
11976.0
 21
-1013.999999999999
 31
0.0
1001
ACDBBLOCKREPETAG
1070
     1
1071
      133
1005
1252B0
  0
LINE
  5
1252B1
  8
OBJECT
 10
12071.999999999991
 20
-1003.999999999999
 30
0.0
 11
12071.999999999991
 21
-1013.999999999999
 31
0.0
1001
ACDBBLOCKREPETAG
1070
     1
1071
      134
1005
1252B1
  0
LINE
  5
1252B2
  8
OBJECT
 10
12071.999999999991
 20
-1013.999999999999
 30
0.0
 11
12055.999999999991
 21
-1013.999999999999
 31
0.0
1001
ACDBBLOCKREPETAG
1070
     1
1071
      135
1005
1252B2
  0
LINE
  5
1252B3
  8
OBJECT
 10
11944.999999999991
 20
-1044.9999999999991
 30
0.0
 11
11944.999999999991
 21
-1003.999999999999
 31
0.0
1001
ACDBBLOCKREPETAG
1070
     1
1071
      136
1005
1252B3
  0
LINE
  5
1252B4
  8
OBJECT
 10
12054.999999999991
 20
-1003.999999999999
 30
0.0
 11
12054.999999999991
 21
-1044.9999999999991
 31
0.0
1001
ACDBBLOCKREPETAG
1070
     1
1071
      137
1005
1252B4
  0
LINE
  5
1252B5
  8
OBJECT
 10
12070.249999999991
 20
-954.69999999999663
 30
0.0
 11
12070.249999999991
 21
-962.70000000000005
 31
0.0
1001
ACDBBLOCKREPETAG
1070
     1
1071
      138
1005
1252B5
  0
LINE
  5
1252B6
  8
OBJECT
 10
12057.749999999991
 20
-954.69999999999663
 30
0.0
 11
12057.749999999991
 21
-962.70000000000005
 31
0.0
1001
ACDBBLOCKREPETAG
1070
     1
1071
      139
1005
1252B6
  0
LINE
  5
1252B7
  8
OBJECT
 10
12054.499999999991
 20
-962.70000000000005
 30
0.0
 11
12073.499999999991
 21
-962.70000000000005
 31
0.0
1001
ACDBBLOCKREPETAG
1070
     1
1071
      140
1005
1252B7
  0
LINE
  5
1252B8
  8
OBJECT
 10
12054.999999999991
 20
-1044.9999999999991
 30
0.0
 11
11944.999999999991
 21
-1044.9999999999991
 31
0.0
1001
ACDBBLOCKREPETAG
1070
     1
1071
      141
1005
1252B8
  0
LINE
  5
1252B9
  8
OBJECT
 10
12075.999999999991
 20
-979.99999999999966
 30
0.0
 11
11938.999999999991
 21
-979.99999999999966
 31
0.0
1001
ACDBBLOCKREPETAG
1070
     1
1071
      142
1005
1252B9
  0
LINE
  5
1252BA
  8
OBJECT
 10
12075.999999999991
 20
-979.99999999999966
 30
0.0
 11
12075.999999999991
 21
-964.99999999999955
 31
0.0
1001
ACDBBLOCKREPETAG
1070
     1
1071
      143
1005
1252BA
  0
LINE
  5
1252BB
  8
OBJECT
 10
12075.999999999991
 20
-989.99999999999955
 30
0.0
 11
12075.999999999991
 21
-1003.999999999999
 31
0.0
1001
ACDBBLOCKREPETAG
1070
     1
1071
      144
1005
1252BB
  0
LINE
  5
1252BC
  8
OBJECT
 10
12068.999999999991
 20
-989.99999999999955
 30
0.0
 11
12068.999999999991
 21
-979.99999999999966
 31
0.0
1001
ACDBBLOCKREPETAG
1070
     1
1071
      145
1005
1252BC
  0
LINE
  5
1252BD
  8
OBJECT
 10
12058.999999999991
 20
-989.99999999999955
 30
0.0
 11
12058.999999999991
 21
-979.99999999999966
 31
0.0
1001
ACDBBLOCKREPETAG
1070
     1
1071
      146
1005
1252BD
  0
LINE
  5
1252BE
  8
OBJECT
 10
11938.999999999991
 20
-989.99999999999955
 30
0.0
 11
11938.999999999991
 21
-1003.999999999999
 31
0.0
1001
ACDBBLOCKREPETAG
1070
     1
1071
      147
1005
1252BE
  0
LINE
  5
1252BF
  8
OBJECT
 10
11938.999999999991
 20
-1003.999999999999
 30
0.0
 11
12075.999999999991
 21
-1003.999999999999
 31
0.0
1001
ACDBBLOCKREPETAG
1070
     1
1071
      148
1005
1252BF
  0
LINE
  5
1252C0
  8
OBJECT
 10
11973.0
 20
-989.99999999999955
 30
0.0
 11
11973.0
 21
-979.99999999999966
 31
0.0
1001
ACDBBLOCKREPETAG
1070
     1
1071
      149
1005
1252C0
  0
LINE
  5
1252C1
  8
OBJECT
 10
11963.0
 20
-989.99999999999955
 30
0.0
 11
11963.0
 21
-979.99999999999966
 31
0.0
1001
ACDBBLOCKREPETAG
1070
     1
1071
      150
1005
1252C1
  0
LINE
  5
1252C2
  8
OBJECT
 10
11938.999999999991
 20
-989.99999999999955
 30
0.0
 11
12075.999999999991
 21
-989.99999999999955
 31
0.0
1001
ACDBBLOCKREPETAG
1070
     1
1071
      151
1005
1252C2
  0
LINE
  5
1252C3
  8
OBJECT
 10
11945.999999999991
 20
-979.99999999999966
 30
0.0
 11
11945.999999999991
 21
-989.99999999999955
 31
0.0
1001
ACDBBLOCKREPETAG
1070
     1
1071
      152
1005
1252C3
  0
LINE
  5
1252C4
  8
OBJECT
 10
12053.999999999991
 20
-979.99999999999966
 30
0.0
 11
12053.999999999991
 21
-989.99999999999955
 31
0.0
1001
ACDBBLOCKREPETAG
1070
     1
1071
      153
1005
1252C4
  0
LINE
  5
1252C5
  8
OBJECT
 10
12044.5
 20
-879.99999999999955
 30
0.0
 11
12065.0
 21
-769.99999999999955
 31
0.0
1001
ACDBBLOCKREPETAG
1070
     1
1071
      154
1005
1252C5
  0
LINE
  5
1252C6
  8
OBJECT
 10
11955.5
 20
-879.99999999999955
 30
0.0
 11
12044.5
 21
-879.99999999999955
 31
0.0
1001
ACDBBLOCKREPETAG
1070
     1
1071
      155
1005
1252C6
  0
LINE
  5
1252C7
  8
OBJECT
 10
11938.999999999991
 20
-979.99999999999966
 30
0.0
 11
11938.999999999991
 21
-964.99999999999955
 31
0.0
1001
ACDBBLOCKREPETAG
1070
     1
1071
      156
1005
1252C7
  0
LINE
  5
1252C8
  8
OBJECT
 10
11938.999999999991
 20
-964.99999999999955
 30
0.0
 11
12075.999999999991
 21
-964.99999999999955
 31
0.0
1001
ACDBBLOCKREPETAG
1070
     1
1071
      157
1005
1252C8
  0
LINE
  5
1252C9
  8
OBJECT
 10
11955.5
 20
-879.99999999999955
 30
0.0
 11
11955.5
 21
-929.99999999999966
 31
0.0
1001
ACDBBLOCKREPETAG
1070
     1
1071
      158
1005
1252C9
  0
LINE
  5
1252CA
  8
OBJECT
 10
12044.5
 20
-879.99999999999955
 30
0.0
 11
12044.5
 21
-929.99999999999966
 31
0.0
1001
ACDBBLOCKREPETAG
1070
     1
1071
      159
1005
1252CA
  0
LINE
  5
1252CB
  8
OBJECT
 10
11947.0
 20
-929.99999999999966
 30
0.0
 11
12053.0
 21
-929.99999999999966
 31
0.0
1001
ACDBBLOCKREPETAG
1070
     1
1071
      160
1005
1252CB
  0
LINE
  5
1252CC
  8
HIDDEN
 10
11955.5
 20
-939.99999999999955
 30
0.0
 11
12044.5
 21
-939.99999999999955
 31
0.0
1001
ACDBBLOCKREPETAG
1070
     1
1071
      161
1005
1252CC
  0
LINE
  5
1252CD
  8
CENTER
 10
12000.0
 20
-669.99999999999955
 30
0.0
 11
12000.0
 21
-1059.9999999999991
 31
0.0
1001
ACDBBLOCKREPETAG
1070
     1
1071
      162
1005
1252CD
  0
LINE
  5
1252CE
  8
OBJECT
 10
12065.0
 20
-669.99999999999955
 30
0.0
 11
12065.0
 21
-769.99999999999955
 31
0.0
1001
ACDBBLOCKREPETAG
1070
     1
1071
      163
1005
1252CE
  0
LINE
  5
1252CF
  8
OBJECT
 10
11935.0
 20
-669.99999999999955
 30
0.0
 11
11935.0
 21
-769.99999999999955
 31
0.0
1001
ACDBBLOCKREPETAG
1070
     1
1071
      164
1005
1252CF
  0
LINE
  5
1252D0
  8
OBJECT
 10
11955.5
 20
-879.99999999999955
 30
0.0
 11
11935.0
 21
-769.99999999999955
 31
0.0
1001
ACDBBLOCKREPETAG
1070
     1
1071
      165
1005
1252D0
  0
LINE
  5
1252D1
  8
OBJECT
 10
12065.0
 20
-769.99999999999955
 30
0.0
 11
11935.0
 21
-769.99999999999955
 31
0.0
1001
ACDBBLOCKREPETAG
1070
     1
1071
      166
1005
1252D1
  0
LINE
  5
1252D2
  8
OBJECT
 10
11947.0
 20
-929.99999999999966
 30
0.0
 11
11947.0
 21
-964.99999999999955
 31
0.0
1001
ACDBBLOCKREPETAG
1070
     1
1071
      167
1005
1252D2
  0
LINE
  5
1252D3
  8
OBJECT
 10
12053.0
 20
-929.99999999999966
 30
0.0
 11
12053.0
 21
-964.99999999999955
 31
0.0
1001
ACDBBLOCKREPETAG
1070
     1
1071
      168
1005
1252D3
  0
LINE
  5
1252D4
  8
OBJECT
 10
9975.5
 20
-959.99999999999955
 30
0.0
 11
9958.9999999999964
 21
-959.99999999999955
 31
0.0
1001
ACDBBLOCKREPETAG
1070
     1
1071
       12
1005
1252D4
  0
LINE
  5
1252D5
  8
OBJECT
 10
9983.0
 20
-964.99999999999955
 30
0.0
 11
9983.0
 21
-962.99999999999966
 31
0.0
1001
ACDBBLOCKREPETAG
1070
     1
1071
       13
1005
1252D5
  0
LINE
  5
1252D6
  8
OBJECT
 10
10075.999999999991
 20
-979.99999999999966
 30
0.0
 11
9938.9999999999927
 21
-979.99999999999966
 31
0.0
1001
ACDBBLOCKREPETAG
1070
     1
1071
       14
1005
1252D6
  0
LINE
  5
1252D7
  8
OBJECT
 10
10075.999999999991
 20
-979.99999999999966
 30
0.0
 11
10075.999999999991
 21
-964.99999999999955
 31
0.0
1001
ACDBBLOCKREPETAG
1070
     1
1071
       15
1005
1252D7
  0
LINE
  5
1252D8
  8
OBJECT
 10
10075.999999999991
 20
-989.99999999999955
 30
0.0
 11
10075.999999999991
 21
-1003.999999999999
 31
0.0
1001
ACDBBLOCKREPETAG
1070
     1
1071
       16
1005
1252D8
  0
LINE
  5
1252D9
  8
OBJECT
 10
10068.999999999991
 20
-989.99999999999955
 30
0.0
 11
10068.999999999991
 21
-979.99999999999966
 31
0.0
1001
ACDBBLOCKREPETAG
1070
     1
1071
       17
1005
1252D9
  0
LINE
  5
1252DA
  8
OBJECT
 10
10058.999999999991
 20
-989.99999999999955
 30
0.0
 11
10058.999999999991
 21
-979.99999999999966
 31
0.0
1001
ACDBBLOCKREPETAG
1070
     1
1071
       18
1005
1252DA
  0
LINE
  5
1252DB
  8
OBJECT
 10
9938.9999999999927
 20
-989.99999999999955
 30
0.0
 11
9938.9999999999927
 21
-1003.999999999999
 31
0.0
1001
ACDBBLOCKREPETAG
1070
     1
1071
       19
1005
1252DB
  0
LINE
  5
1252DC
  8
OBJECT
 10
9938.9999999999927
 20
-1003.999999999999
 30
0.0
 11
10075.999999999991
 21
-1003.999999999999
 31
0.0
1001
ACDBBLOCKREPETAG
1070
     1
1071
       20
1005
1252DC
  0
LINE
  5
1252DD
  8
OBJECT
 10
9973.0
 20
-989.99999999999955
 30
0.0
 11
9973.0
 21
-979.99999999999966
 31
0.0
1001
ACDBBLOCKREPETAG
1070
     1
1071
       21
1005
1252DD
  0
LINE
  5
1252DE
  8
OBJECT
 10
9963.0
 20
-989.99999999999955
 30
0.0
 11
9963.0
 21
-979.99999999999966
 31
0.0
1001
ACDBBLOCKREPETAG
1070
     1
1071
       22
1005
1252DE
  0
LINE
  5
1252DF
  8
OBJECT
 10
9938.9999999999927
 20
-989.99999999999955
 30
0.0
 11
10075.999999999991
 21
-989.99999999999955
 31
0.0
1001
ACDBBLOCKREPETAG
1070
     1
1071
       23
1005
1252DF
  0
LINE
  5
1252E0
  8
OBJECT
 10
9958.9999999999964
 20
-959.99999999999955
 30
0.0
 11
9958.9999999999964
 21
-964.99999999999955
 31
0.0
1001
ACDBBLOCKREPETAG
1070
     1
1071
       24
1005
1252E0
  0
LINE
  5
1252E1
  8
OBJECT
 10
9963.0
 20
-1011.999999999999
 30
0.0
 11
9963.0
 21
-1014.999999999999
 31
0.0
1001
ACDBBLOCKREPETAG
1070
     1
1071
       25
1005
1252E1
  0
LINE
  5
1252E2
  8
OBJECT
 10
9963.0
 20
-1014.999999999999
 30
0.0
 11
9973.0
 21
-1014.999999999999
 31
0.0
1001
ACDBBLOCKREPETAG
1070
     1
1071
       26
1005
1252E2
  0
LINE
  5
1252E3
  8
OBJECT
 10
9973.0
 20
-1014.999999999999
 30
0.0
 11
9973.0
 21
-1011.999999999999
 31
0.0
1001
ACDBBLOCKREPETAG
1070
     1
1071
       28
1005
1252E3
  0
LINE
  5
1252E4
  8
OBJECT
 10
9945.9999999999909
 20
-979.99999999999966
 30
0.0
 11
9945.9999999999909
 21
-989.99999999999955
 31
0.0
1001
ACDBBLOCKREPETAG
1070
     1
1071
       29
1005
1252E4
  0
LINE
  5
1252E5
  8
OBJECT
 10
10053.999999999991
 20
-979.99999999999966
 30
0.0
 11
10053.999999999991
 21
-989.99999999999955
 31
0.0
1001
ACDBBLOCKREPETAG
1070
     1
1071
       30
1005
1252E5
  0
LINE
  5
1252E6
  8
OBJECT
 10
10044.5
 20
-879.99999999999955
 30
0.0
 11
10065.0
 21
-769.99999999999955
 31
0.0
1001
ACDBBLOCKREPETAG
1070
     1
1071
       31
1005
1252E6
  0
LINE
  5
1252E7
  8
OBJECT
 10
9955.5
 20
-879.99999999999955
 30
0.0
 11
10044.5
 21
-879.99999999999955
 31
0.0
1001
ACDBBLOCKREPETAG
1070
     1
1071
       32
1005
1252E7
  0
LINE
  5
1252E8
  8
OBJECT
 10
9938.9999999999927
 20
-979.99999999999966
 30
0.0
 11
9938.9999999999927
 21
-964.99999999999955
 31
0.0
1001
ACDBBLOCKREPETAG
1070
     1
1071
       33
1005
1252E8
  0
LINE
  5
1252E9
  8
OBJECT
 10
9938.9999999999927
 20
-964.99999999999955
 30
0.0
 11
10075.999999999991
 21
-964.99999999999955
 31
0.0
1001
ACDBBLOCKREPETAG
1070
     1
1071
       34
1005
1252E9
  0
LINE
  5
1252EA
  8
OBJECT
 10
9955.5
 20
-879.99999999999955
 30
0.0
 11
9955.5
 21
-929.99999999999966
 31
0.0
1001
ACDBBLOCKREPETAG
1070
     1
1071
       35
1005
1252EA
  0
LINE
  5
1252EB
  8
OBJECT
 10
10044.5
 20
-879.99999999999955
 30
0.0
 11
10044.5
 21
-929.99999999999966
 31
0.0
1001
ACDBBLOCKREPETAG
1070
     1
1071
       36
1005
1252EB
  0
LINE
  5
1252EC
  8
OBJECT
 10
9947.0
 20
-929.99999999999966
 30
0.0
 11
10053.0
 21
-929.99999999999966
 31
0.0
1001
ACDBBLOCKREPETAG
1070
     1
1071
       37
1005
1252EC
  0
LINE
  5
1252ED
  8
OBJECT
 10
10054.99999999998
 20
-959.99999999999955
 30
0.0
 11
10054.99999999998
 21
-964.99999999999955
 31
0.0
1001
ACDBBLOCKREPETAG
1070
     1
1071
       38
1005
1252ED
  0
LINE
  5
1252EE
  8
OBJECT
 10
10073.0
 20
-959.99999999999955
 30
0.0
 11
10073.0
 21
-964.99999999999955
 31
0.0
1001
ACDBBLOCKREPETAG
1070
     1
1071
       39
1005
1252EE
  0
LINE
  5
1252EF
  8
OBJECT
 10
10073.0
 20
-959.99999999999955
 30
0.0
 11
10054.99999999998
 21
-959.99999999999955
 31
0.0
1001
ACDBBLOCKREPETAG
1070
     1
1071
       40
1005
1252EF
  0
LINE
  5
1252F0
  8
HIDDEN
 10
9955.5
 20
-939.99999999999955
 30
0.0
 11
10044.5
 21
-939.99999999999955
 31
0.0
1001
ACDBBLOCKREPETAG
1070
     1
1071
       41
1005
1252F0
  0
LINE
  5
1252F1
  8
CENTER
 10
10000.0
 20
-669.99999999999955
 30
0.0
 11
10000.0
 21
-1018.999999999999
 31
0.0
1001
ACDBBLOCKREPETAG
1070
     1
1071
       42
1005
1252F1
  0
LINE
  5
1252F2
  8
OBJECT
 10
10065.0
 20
-669.99999999999955
 30
0.0
 11
10065.0
 21
-769.99999999999955
 31
0.0
1001
ACDBBLOCKREPETAG
1070
     1
1071
       43
1005
1252F2
  0
LINE
  5
1252F3
  8
OBJECT
 10
9935.0
 20
-669.99999999999955
 30
0.0
 11
9935.0
 21
-769.99999999999955
 31
0.0
1001
ACDBBLOCKREPETAG
1070
     1
1071
       44
1005
1252F3
  0
LINE
  5
1252F4
  8
OBJECT
 10
9955.5
 20
-879.99999999999955
 30
0.0
 11
9935.0
 21
-769.99999999999955
 31
0.0
1001
ACDBBLOCKREPETAG
1070
     1
1071
       45
1005
1252F4
  0
LINE
  5
1252F5
  8
OBJECT
 10
10065.0
 20
-769.99999999999955
 30
0.0
 11
9935.0
 21
-769.99999999999955
 31
0.0
1001
ACDBBLOCKREPETAG
1070
     1
1071
       46
1005
1252F5
  0
LINE
  5
1252F6
  8
OBJECT
 10
9947.0
 20
-929.99999999999966
 30
0.0
 11
9947.0
 21
-964.99999999999955
 31
0.0
1001
ACDBBLOCKREPETAG
1070
     1
1071
       47
1005
1252F6
  0
LINE
  5
1252F7
  8
OBJECT
 10
10053.0
 20
-929.99999999999966
 30
0.0
 11
10053.0
 21
-964.99999999999955
 31
0.0
1001
ACDBBLOCKREPETAG
1070
     1
1071
       48
1005
1252F7
  0
LINE
  5
1252F8
  8
OBJECT
 10
9983.0
 20
-962.99999999999966
 30
0.0
 11
9975.5
 21
-959.99999999999955
 31
0.0
1001
ACDBBLOCKREPETAG
1070
     1
1071
       49
1005
1252F8
  0
LINE
  5
1252F9
  8
OBJECT
 10
10059.0
 20
-1011.999999999999
 30
0.0
 11
10059.0
 21
-1014.999999999999
 31
0.0
1001
ACDBBLOCKREPETAG
1070
     1
1071
       54
1005
1252F9
  0
LINE
  5
1252FA
  8
OBJECT
 10
10059.0
 20
-1014.999999999999
 30
0.0
 11
10069.0
 21
-1014.999999999999
 31
0.0
1001
ACDBBLOCKREPETAG
1070
     1
1071
       55
1005
1252FA
  0
LINE
  5
1252FB
  8
OBJECT
 10
10069.0
 20
-1014.999999999999
 30
0.0
 11
10069.0
 21
-1011.999999999999
 31
0.0
1001
ACDBBLOCKREPETAG
1070
     1
1071
       57
1005
1252FB
  0
LINE
  5
1252FC
  8
OBJECT
 10
9958.1850454237738
 20
-1011.999999999999
 30
0.0
 11
9977.814954576219
 21
-1011.999999999999
 31
0.0
1001
ACDBBLOCKREPETAG
1070
     1
1071
      422
1005
1252FC
  0
LINE
  5
1252FD
  8
OBJECT
 10
9958.1850454237756
 20
-1003.999999999999
 30
0.0
 11
9958.1850454237756
 21
-1011.999999999999
 31
0.0
1001
ACDBBLOCKREPETAG
1070
     1
1071
      423
1005
1252FD
  0
LINE
  5
1252FE
  8
OBJECT
 10
9963.0925227118896
 20
-1003.999999999999
 30
0.0
 11
9963.0925227118896
 21
-1011.999999999999
 31
0.0
1001
ACDBBLOCKREPETAG
1070
     1
1071
      424
1005
1252FE
  0
LINE
  5
1252FF
  8
OBJECT
 10
9972.9074772881122
 20
-1003.999999999999
 30
0.0
 11
9972.9074772881122
 21
-1011.999999999999
 31
0.0
1001
ACDBBLOCKREPETAG
1070
     1
1071
      425
1005
1252FF
  0
LINE
  5
125300
  8
OBJECT
 10
9977.8149545762244
 20
-1003.999999999999
 30
0.0
 11
9977.8149545762244
 21
-1011.999999999999
 31
0.0
1001
ACDBBLOCKREPETAG
1070
     1
1071
      426
1005
125300
  0
LINE
  5
125301
  8
OBJECT
 10
10054.18504542377
 20
-1011.999999999999
 30
0.0
 11
10073.814954576221
 21
-1011.999999999999
 31
0.0
1001
ACDBBLOCKREPETAG
1070
     1
1071
      427
1005
125301
  0
LINE
  5
125302
  8
OBJECT
 10
10054.18504542377
 20
-1003.999999999999
 30
0.0
 11
10054.18504542377
 21
-1011.999999999999
 31
0.0
1001
ACDBBLOCKREPETAG
1070
     1
1071
      428
1005
125302
  0
LINE
  5
125303
  8
OBJECT
 10
10059.092522711881
 20
-1003.999999999999
 30
0.0
 11
10059.092522711881
 21
-1011.999999999999
 31
0.0
1001
ACDBBLOCKREPETAG
1070
     1
1071
      429
1005
125303
  0
LINE
  5
125304
  8
OBJECT
 10
10068.90747728811
 20
-1003.999999999999
 30
0.0
 11
10068.90747728811
 21
-1011.999999999999
 31
0.0
1001
ACDBBLOCKREPETAG
1070
     1
1071
      430
1005
125304
  0
LINE
  5
125305
  8
OBJECT
 10
10073.814954576221
 20
-1003.999999999999
 30
0.0
 11
10073.814954576221
 21
-1011.999999999999
 31
0.0
1001
ACDBBLOCKREPETAG
1070
     1
1071
      431
1005
125305
  0
LINE
  5
125306
  8
OBJECT
 10
8044.5000000000036
 20
-979.99999999999204
 30
0.0
 11
7955.5
 21
-979.99999999999204
 31
0.0
1001
ACDBBLOCKREPETAG
1070
     1
1071
        0
1005
125306
  0
LINE
  5
125307
  8
OBJECT
 10
7935.0
 20
-769.99999999999204
 30
0.0
 11
7935.0
 21
-669.99999999999216
 31
0.0
1001
ACDBBLOCKREPETAG
1070
     1
1071
        1
1005
125307
  0
LINE
  5
125308
  8
OBJECT
 10
8065.0
 20
-769.99999999999204
 30
0.0
 11
8065.0
 21
-669.99999999999216
 31
0.0
1001
ACDBBLOCKREPETAG
1070
     1
1071
        2
1005
125308
  0
LINE
  5
125309
  8
OBJECT
 10
7935.0
 20
-769.99999999999204
 30
0.0
 11
8065.0
 21
-769.99999999999204
 31
0.0
1001
ACDBBLOCKREPETAG
1070
     1
1071
        3
1005
125309
  0
LINE
  5
12530A
  8
OBJECT
 10
7955.5
 20
-879.99999999999204
 30
0.0
 11
8044.5000000000036
 21
-879.99999999999204
 31
0.0
1001
ACDBBLOCKREPETAG
1070
     1
1071
        4
1005
12530A
  0
LINE
  5
12530B
  8
OBJECT
 10
7955.5
 20
-879.99999999999204
 30
0.0
 11
7955.5
 21
-979.99999999999204
 31
0.0
1001
ACDBBLOCKREPETAG
1070
     1
1071
        5
1005
12530B
  0
LINE
  5
12530C
  8
OBJECT
 10
8044.5000000000036
 20
-879.99999999999204
 30
0.0
 11
8044.5000000000036
 21
-979.99999999999204
 31
0.0
1001
ACDBBLOCKREPETAG
1070
     1
1071
        6
1005
12530C
  0
LINE
  5
12530D
  8
OBJECT
 10
7935.0
 20
-769.99999999999204
 30
0.0
 11
7955.5
 21
-879.99999999999204
 31
0.0
1001
ACDBBLOCKREPETAG
1070
     1
1071
        7
1005
12530D
  0
LINE
  5
12530E
  8
OBJECT
 10
8044.5000000000036
 20
-879.99999999999204
 30
0.0
 11
8065.0
 21
-769.99999999999204
 31
0.0
1001
ACDBBLOCKREPETAG
1070
     1
1071
        8
1005
12530E
  0
LINE
  5
12530F
  8
HIDDEN
 10
7962.5
 20
-879.99999999999204
 30
0.0
 11
7962.5
 21
-979.99999999999204
 31
0.0
1001
ACDBBLOCKREPETAG
1070
     1
1071
        9
1005
12530F
  0
LINE
  5
125310
  8
HIDDEN
 10
8037.4999999999973
 20
-879.99999999999204
 30
0.0
 11
8037.4999999999973
 21
-979.99999999999204
 31
0.0
1001
ACDBBLOCKREPETAG
1070
     1
1071
       10
1005
125310
  0
LINE
  5
125311
  8
CENTER
 10
8000.0
 20
-669.99999999999955
 30
0.0
 11
8000.0
 21
-994.99999999999216
 31
0.0
1001
ACDBBLOCKREPETAG
1070
     1
1071
       11
1005
125311
  0
LINE
  5
125312
  8
OBJECT
 10
6055.9999999999927
 20
-1003.999999999999
 30
0.0
 11
6055.9999999999927
 21
-1013.999999999999
 31
0.0
1001
ACDBBLOCKREPETAG
1070
     1
1071
      121
1005
125312
  0
LINE
  5
125313
  8
OBJECT
 10
5961.75
 20
-954.69999999999663
 30
0.0
 11
5974.25
 21
-954.69999999999663
 31
0.0
1001
ACDBBLOCKREPETAG
1070
     1
1071
      122
1005
125313
  0
LINE
  5
125314
  8
OBJECT
 10
6073.4999999999927
 20
-962.70000000000005
 30
0.0
 11
6073.4999999999927
 21
-964.99999999999955
 31
0.0
1001
ACDBBLOCKREPETAG
1070
     1
1071
      123
1005
125314
  0
LINE
  5
125315
  8
OBJECT
 10
6057.7499999999927
 20
-954.69999999999663
 30
0.0
 11
6070.2499999999927
 21
-954.69999999999663
 31
0.0
1001
ACDBBLOCKREPETAG
1070
     1
1071
      124
1005
125315
  0
LINE
  5
125316
  8
OBJECT
 10
6054.4999999999927
 20
-962.70000000000005
 30
0.0
 11
6054.4999999999927
 21
-964.99999999999955
 31
0.0
1001
ACDBBLOCKREPETAG
1070
     1
1071
      125
1005
125316
  0
LINE
  5
125317
  8
OBJECT
 10
5953.0
 20
-964.99999999999955
 30
0.0
 11
5953.0
 21
-962.70000000000005
 31
0.0
1001
ACDBBLOCKREPETAG
1070
     1
1071
      126
1005
125317
  0
LINE
  5
125318
  8
OBJECT
 10
5983.0
 20
-964.99999999999955
 30
0.0
 11
5983.0
 21
-962.70000000000005
 31
0.0
1001
ACDBBLOCKREPETAG
1070
     1
1071
      127
1005
125318
  0
LINE
  5
125319
  8
OBJECT
 10
5961.75
 20
-954.69999999999663
 30
0.0
 11
5961.75
 21
-962.70000000000005
 31
0.0
1001
ACDBBLOCKREPETAG
1070
     1
1071
      128
1005
125319
  0
LINE
  5
12531A
  8
OBJECT
 10
5974.25
 20
-954.69999999999663
 30
0.0
 11
5974.25
 21
-962.70000000000005
 31
0.0
1001
ACDBBLOCKREPETAG
1070
     1
1071
      129
1005
12531A
  0
LINE
  5
12531B
  8
OBJECT
 10
5953.0
 20
-962.70000000000005
 30
0.0
 11
5983.0
 21
-962.70000000000005
 31
0.0
1001
ACDBBLOCKREPETAG
1070
     1
1071
      130
1005
12531B
  0
LINE
  5
12531C
  8
OBJECT
 10
5960.0
 20
-1003.999999999999
 30
0.0
 11
5960.0
 21
-1013.999999999999
 31
0.0
1001
ACDBBLOCKREPETAG
1070
     1
1071
      131
1005
12531C
  0
LINE
  5
12531D
  8
OBJECT
 10
5976.0
 20
-1003.999999999999
 30
0.0
 11
5976.0
 21
-1013.999999999999
 31
0.0
1001
ACDBBLOCKREPETAG
1070
     1
1071
      132
1005
12531D
  0
LINE
  5
12531E
  8
OBJECT
 10
5960.0
 20
-1013.999999999999
 30
0.0
 11
5976.0
 21
-1013.999999999999
 31
0.0
1001
ACDBBLOCKREPETAG
1070
     1
1071
      133
1005
12531E
  0
LINE
  5
12531F
  8
OBJECT
 10
6071.9999999999918
 20
-1003.999999999999
 30
0.0
 11
6071.9999999999918
 21
-1013.999999999999
 31
0.0
1001
ACDBBLOCKREPETAG
1070
     1
1071
      134
1005
12531F
  0
LINE
  5
125320
  8
OBJECT
 10
6071.9999999999918
 20
-1013.999999999999
 30
0.0
 11
6055.9999999999927
 21
-1013.999999999999
 31
0.0
1001
ACDBBLOCKREPETAG
1070
     1
1071
      135
1005
125320
  0
LINE
  5
125321
  8
OBJECT
 10
5944.9999999999927
 20
-1044.9999999999991
 30
0.0
 11
5944.9999999999927
 21
-1003.999999999999
 31
0.0
1001
ACDBBLOCKREPETAG
1070
     1
1071
      136
1005
125321
  0
LINE
  5
125322
  8
OBJECT
 10
6054.9999999999918
 20
-1003.999999999999
 30
0.0
 11
6054.9999999999918
 21
-1044.9999999999991
 31
0.0
1001
ACDBBLOCKREPETAG
1070
     1
1071
      137
1005
125322
  0
LINE
  5
125323
  8
OBJECT
 10
6070.2499999999927
 20
-954.69999999999663
 30
0.0
 11
6070.2499999999927
 21
-962.70000000000005
 31
0.0
1001
ACDBBLOCKREPETAG
1070
     1
1071
      138
1005
125323
  0
LINE
  5
125324
  8
OBJECT
 10
6057.7499999999927
 20
-954.69999999999663
 30
0.0
 11
6057.7499999999927
 21
-962.70000000000005
 31
0.0
1001
ACDBBLOCKREPETAG
1070
     1
1071
      139
1005
125324
  0
LINE
  5
125325
  8
OBJECT
 10
6054.4999999999927
 20
-962.70000000000005
 30
0.0
 11
6073.4999999999927
 21
-962.70000000000005
 31
0.0
1001
ACDBBLOCKREPETAG
1070
     1
1071
      140
1005
125325
  0
LINE
  5
125326
  8
OBJECT
 10
6054.9999999999918
 20
-1044.9999999999991
 30
0.0
 11
5944.9999999999927
 21
-1044.9999999999991
 31
0.0
1001
ACDBBLOCKREPETAG
1070
     1
1071
      141
1005
125326
  0
LINE
  5
125327
  8
OBJECT
 10
6075.9999999999927
 20
-979.99999999999966
 30
0.0
 11
5938.9999999999918
 21
-979.99999999999966
 31
0.0
1001
ACDBBLOCKREPETAG
1070
     1
1071
      142
1005
125327
  0
LINE
  5
125328
  8
OBJECT
 10
6075.9999999999927
 20
-979.99999999999966
 30
0.0
 11
6075.9999999999927
 21
-964.99999999999955
 31
0.0
1001
ACDBBLOCKREPETAG
1070
     1
1071
      143
1005
125328
  0
LINE
  5
125329
  8
OBJECT
 10
6075.9999999999927
 20
-989.99999999999955
 30
0.0
 11
6075.9999999999927
 21
-1003.999999999999
 31
0.0
1001
ACDBBLOCKREPETAG
1070
     1
1071
      144
1005
125329
  0
LINE
  5
12532A
  8
OBJECT
 10
6068.9999999999909
 20
-989.99999999999955
 30
0.0
 11
6068.9999999999909
 21
-979.99999999999966
 31
0.0
1001
ACDBBLOCKREPETAG
1070
     1
1071
      145
1005
12532A
  0
LINE
  5
12532B
  8
OBJECT
 10
6058.9999999999927
 20
-989.99999999999955
 30
0.0
 11
6058.9999999999927
 21
-979.99999999999966
 31
0.0
1001
ACDBBLOCKREPETAG
1070
     1
1071
      146
1005
12532B
  0
LINE
  5
12532C
  8
OBJECT
 10
5938.9999999999918
 20
-989.99999999999955
 30
0.0
 11
5938.9999999999918
 21
-1003.999999999999
 31
0.0
1001
ACDBBLOCKREPETAG
1070
     1
1071
      147
1005
12532C
  0
LINE
  5
12532D
  8
OBJECT
 10
5938.9999999999918
 20
-1003.999999999999
 30
0.0
 11
6075.9999999999927
 21
-1003.999999999999
 31
0.0
1001
ACDBBLOCKREPETAG
1070
     1
1071
      148
1005
12532D
  0
LINE
  5
12532E
  8
OBJECT
 10
5973.0
 20
-989.99999999999955
 30
0.0
 11
5973.0
 21
-979.99999999999966
 31
0.0
1001
ACDBBLOCKREPETAG
1070
     1
1071
      149
1005
12532E
  0
LINE
  5
12532F
  8
OBJECT
 10
5963.0
 20
-989.99999999999955
 30
0.0
 11
5963.0
 21
-979.99999999999966
 31
0.0
1001
ACDBBLOCKREPETAG
1070
     1
1071
      150
1005
12532F
  0
LINE
  5
125330
  8
OBJECT
 10
5938.9999999999918
 20
-989.99999999999955
 30
0.0
 11
6075.9999999999927
 21
-989.99999999999955
 31
0.0
1001
ACDBBLOCKREPETAG
1070
     1
1071
      151
1005
125330
  0
LINE
  5
125331
  8
OBJECT
 10
5945.9999999999927
 20
-979.99999999999966
 30
0.0
 11
5945.9999999999927
 21
-989.99999999999955
 31
0.0
1001
ACDBBLOCKREPETAG
1070
     1
1071
      152
1005
125331
  0
LINE
  5
125332
  8
OBJECT
 10
6053.9999999999927
 20
-979.99999999999966
 30
0.0
 11
6053.9999999999927
 21
-989.99999999999955
 31
0.0
1001
ACDBBLOCKREPETAG
1070
     1
1071
      153
1005
125332
  0
LINE
  5
125333
  8
OBJECT
 10
6044.5
 20
-879.99999999999955
 30
0.0
 11
6065.0
 21
-769.99999999999955
 31
0.0
1001
ACDBBLOCKREPETAG
1070
     1
1071
      154
1005
125333
  0
LINE
  5
125334
  8
OBJECT
 10
5955.5
 20
-879.99999999999955
 30
0.0
 11
6044.5
 21
-879.99999999999955
 31
0.0
1001
ACDBBLOCKREPETAG
1070
     1
1071
      155
1005
125334
  0
LINE
  5
125335
  8
OBJECT
 10
5938.9999999999918
 20
-979.99999999999966
 30
0.0
 11
5938.9999999999918
 21
-964.99999999999955
 31
0.0
1001
ACDBBLOCKREPETAG
1070
     1
1071
      156
1005
125335
  0
LINE
  5
125336
  8
OBJECT
 10
5938.9999999999918
 20
-964.99999999999955
 30
0.0
 11
6075.9999999999927
 21
-964.99999999999955
 31
0.0
1001
ACDBBLOCKREPETAG
1070
     1
1071
      157
1005
125336
  0
LINE
  5
125337
  8
OBJECT
 10
5955.5
 20
-879.99999999999955
 30
0.0
 11
5955.5
 21
-929.99999999999966
 31
0.0
1001
ACDBBLOCKREPETAG
1070
     1
1071
      158
1005
125337
  0
LINE
  5
125338
  8
OBJECT
 10
6044.5
 20
-879.99999999999955
 30
0.0
 11
6044.5
 21
-929.99999999999966
 31
0.0
1001
ACDBBLOCKREPETAG
1070
     1
1071
      159
1005
125338
  0
LINE
  5
125339
  8
OBJECT
 10
5947.0
 20
-929.99999999999966
 30
0.0
 11
6053.0
 21
-929.99999999999966
 31
0.0
1001
ACDBBLOCKREPETAG
1070
     1
1071
      160
1005
125339
  0
LINE
  5
12533A
  8
HIDDEN
 10
5955.5
 20
-939.99999999999955
 30
0.0
 11
6044.5
 21
-939.99999999999955
 31
0.0
1001
ACDBBLOCKREPETAG
1070
     1
1071
      161
1005
12533A
  0
LINE
  5
12533B
  8
CENTER
 10
6000.0
 20
-669.99999999999955
 30
0.0
 11
6000.0
 21
-1059.9999999999991
 31
0.0
1001
ACDBBLOCKREPETAG
1070
     1
1071
      162
1005
12533B
  0
LINE
  5
12533C
  8
OBJECT
 10
6065.0
 20
-669.99999999999955
 30
0.0
 11
6065.0
 21
-769.99999999999955
 31
0.0
1001
ACDBBLOCKREPETAG
1070
     1
1071
      163
1005
12533C
  0
LINE
  5
12533D
  8
OBJECT
 10
5935.0
 20
-669.99999999999955
 30
0.0
 11
5935.0
 21
-769.99999999999955
 31
0.0
1001
ACDBBLOCKREPETAG
1070
     1
1071
      164
1005
12533D
  0
LINE
  5
12533E
  8
OBJECT
 10
5955.5
 20
-879.99999999999955
 30
0.0
 11
5935.0
 21
-769.99999999999955
 31
0.0
1001
ACDBBLOCKREPETAG
1070
     1
1071
      165
1005
12533E
  0
LINE
  5
12533F
  8
OBJECT
 10
6065.0
 20
-769.99999999999955
 30
0.0
 11
5935.0
 21
-769.99999999999955
 31
0.0
1001
ACDBBLOCKREPETAG
1070
     1
1071
      166
1005
12533F
  0
LINE
  5
125340
  8
OBJECT
 10
5947.0
 20
-929.99999999999966
 30
0.0
 11
5947.0
 21
-964.99999999999955
 31
0.0
1001
ACDBBLOCKREPETAG
1070
     1
1071
      167
1005
125340
  0
LINE
  5
125341
  8
OBJECT
 10
6053.0
 20
-929.99999999999966
 30
0.0
 11
6053.0
 21
-964.99999999999955
 31
0.0
1001
ACDBBLOCKREPETAG
1070
     1
1071
      168
1005
125341
  0
LINE
  5
125342
  8
OBJECT
 10
3975.5
 20
-959.99999999999955
 30
0.0
 11
3958.9999999999918
 21
-959.99999999999955
 31
0.0
1001
ACDBBLOCKREPETAG
1070
     1
1071
       12
1005
125342
  0
LINE
  5
125343
  8
OBJECT
 10
3983.0
 20
-964.99999999999955
 30
0.0
 11
3983.0
 21
-962.99999999999966
 31
0.0
1001
ACDBBLOCKREPETAG
1070
     1
1071
       13
1005
125343
  0
LINE
  5
125344
  8
OBJECT
 10
4075.9999999999918
 20
-979.99999999999966
 30
0.0
 11
3938.9999999999932
 21
-979.99999999999966
 31
0.0
1001
ACDBBLOCKREPETAG
1070
     1
1071
       14
1005
125344
  0
LINE
  5
125345
  8
OBJECT
 10
4075.9999999999918
 20
-979.99999999999966
 30
0.0
 11
4075.9999999999918
 21
-964.99999999999955
 31
0.0
1001
ACDBBLOCKREPETAG
1070
     1
1071
       15
1005
125345
  0
LINE
  5
125346
  8
OBJECT
 10
4075.9999999999918
 20
-989.99999999999955
 30
0.0
 11
4075.9999999999918
 21
-1003.999999999999
 31
0.0
1001
ACDBBLOCKREPETAG
1070
     1
1071
       16
1005
125346
  0
LINE
  5
125347
  8
OBJECT
 10
4068.9999999999918
 20
-989.99999999999955
 30
0.0
 11
4068.9999999999918
 21
-979.99999999999966
 31
0.0
1001
ACDBBLOCKREPETAG
1070
     1
1071
       17
1005
125347
  0
LINE
  5
125348
  8
OBJECT
 10
4058.9999999999932
 20
-989.99999999999955
 30
0.0
 11
4058.9999999999932
 21
-979.99999999999966
 31
0.0
1001
ACDBBLOCKREPETAG
1070
     1
1071
       18
1005
125348
  0
LINE
  5
125349
  8
OBJECT
 10
3938.9999999999932
 20
-989.99999999999955
 30
0.0
 11
3938.9999999999932
 21
-1003.999999999999
 31
0.0
1001
ACDBBLOCKREPETAG
1070
     1
1071
       19
1005
125349
  0
LINE
  5
12534A
  8
OBJECT
 10
3938.9999999999932
 20
-1003.999999999999
 30
0.0
 11
4075.9999999999918
 21
-1003.999999999999
 31
0.0
1001
ACDBBLOCKREPETAG
1070
     1
1071
       20
1005
12534A
  0
LINE
  5
12534B
  8
OBJECT
 10
3973.0
 20
-989.99999999999955
 30
0.0
 11
3973.0
 21
-979.99999999999966
 31
0.0
1001
ACDBBLOCKREPETAG
1070
     1
1071
       21
1005
12534B
  0
LINE
  5
12534C
  8
OBJECT
 10
3963.0
 20
-989.99999999999955
 30
0.0
 11
3963.0
 21
-979.99999999999966
 31
0.0
1001
ACDBBLOCKREPETAG
1070
     1
1071
       22
1005
12534C
  0
LINE
  5
12534D
  8
OBJECT
 10
3938.9999999999932
 20
-989.99999999999955
 30
0.0
 11
4075.9999999999918
 21
-989.99999999999955
 31
0.0
1001
ACDBBLOCKREPETAG
1070
     1
1071
       23
1005
12534D
  0
LINE
  5
12534E
  8
OBJECT
 10
3958.9999999999918
 20
-959.99999999999955
 30
0.0
 11
3958.9999999999918
 21
-964.99999999999955
 31
0.0
1001
ACDBBLOCKREPETAG
1070
     1
1071
       24
1005
12534E
  0
LINE
  5
12534F
  8
OBJECT
 10
3963.0
 20
-1011.999999999999
 30
0.0
 11
3963.0
 21
-1014.999999999999
 31
0.0
1001
ACDBBLOCKREPETAG
1070
     1
1071
       25
1005
12534F
  0
LINE
  5
125350
  8
OBJECT
 10
3963.0
 20
-1014.999999999999
 30
0.0
 11
3973.0
 21
-1014.999999999999
 31
0.0
1001
ACDBBLOCKREPETAG
1070
     1
1071
       26
1005
125350
  0
LINE
  5
125351
  8
OBJECT
 10
3973.0
 20
-1014.999999999999
 30
0.0
 11
3973.0
 21
-1011.999999999999
 31
0.0
1001
ACDBBLOCKREPETAG
1070
     1
1071
       28
1005
125351
  0
LINE
  5
125352
  8
OBJECT
 10
3945.9999999999932
 20
-979.99999999999966
 30
0.0
 11
3945.9999999999932
 21
-989.99999999999955
 31
0.0
1001
ACDBBLOCKREPETAG
1070
     1
1071
       29
1005
125352
  0
LINE
  5
125353
  8
OBJECT
 10
4053.9999999999941
 20
-979.99999999999966
 30
0.0
 11
4053.9999999999941
 21
-989.99999999999955
 31
0.0
1001
ACDBBLOCKREPETAG
1070
     1
1071
       30
1005
125353
  0
LINE
  5
125354
  8
OBJECT
 10
4044.5
 20
-879.99999999999955
 30
0.0
 11
4065.0
 21
-769.99999999999955
 31
0.0
1001
ACDBBLOCKREPETAG
1070
     1
1071
       31
1005
125354
  0
LINE
  5
125355
  8
OBJECT
 10
3955.5
 20
-879.99999999999955
 30
0.0
 11
4044.5
 21
-879.99999999999955
 31
0.0
1001
ACDBBLOCKREPETAG
1070
     1
1071
       32
1005
125355
  0
LINE
  5
125356
  8
OBJECT
 10
3938.9999999999932
 20
-979.99999999999966
 30
0.0
 11
3938.9999999999932
 21
-964.99999999999955
 31
0.0
1001
ACDBBLOCKREPETAG
1070
     1
1071
       33
1005
125356
  0
LINE
  5
125357
  8
OBJECT
 10
3938.9999999999932
 20
-964.99999999999955
 30
0.0
 11
4075.9999999999918
 21
-964.99999999999955
 31
0.0
1001
ACDBBLOCKREPETAG
1070
     1
1071
       34
1005
125357
  0
LINE
  5
125358
  8
OBJECT
 10
3955.5
 20
-879.99999999999955
 30
0.0
 11
3955.5
 21
-929.99999999999966
 31
0.0
1001
ACDBBLOCKREPETAG
1070
     1
1071
       35
1005
125358
  0
LINE
  5
125359
  8
OBJECT
 10
4044.5
 20
-879.99999999999955
 30
0.0
 11
4044.5
 21
-929.99999999999966
 31
0.0
1001
ACDBBLOCKREPETAG
1070
     1
1071
       36
1005
125359
  0
LINE
  5
12535A
  8
OBJECT
 10
3947.0
 20
-929.99999999999966
 30
0.0
 11
4053.0
 21
-929.99999999999966
 31
0.0
1001
ACDBBLOCKREPETAG
1070
     1
1071
       37
1005
12535A
  0
LINE
  5
12535B
  8
OBJECT
 10
4054.9999999999841
 20
-959.99999999999955
 30
0.0
 11
4054.9999999999841
 21
-964.99999999999955
 31
0.0
1001
ACDBBLOCKREPETAG
1070
     1
1071
       38
1005
12535B
  0
LINE
  5
12535C
  8
OBJECT
 10
4073.0
 20
-959.99999999999955
 30
0.0
 11
4073.0
 21
-964.99999999999955
 31
0.0
1001
ACDBBLOCKREPETAG
1070
     1
1071
       39
1005
12535C
  0
LINE
  5
12535D
  8
OBJECT
 10
4073.0
 20
-959.99999999999955
 30
0.0
 11
4054.9999999999841
 21
-959.99999999999955
 31
0.0
1001
ACDBBLOCKREPETAG
1070
     1
1071
       40
1005
12535D
  0
LINE
  5
12535E
  8
HIDDEN
 10
3955.5
 20
-939.99999999999955
 30
0.0
 11
4044.5
 21
-939.99999999999955
 31
0.0
1001
ACDBBLOCKREPETAG
1070
     1
1071
       41
1005
12535E
  0
LINE
  5
12535F
  8
CENTER
 10
4000.0
 20
-669.99999999999955
 30
0.0
 11
4000.0
 21
-1018.999999999999
 31
0.0
1001
ACDBBLOCKREPETAG
1070
     1
1071
       42
1005
12535F
  0
LINE
  5
125360
  8
OBJECT
 10
4065.0
 20
-669.99999999999955
 30
0.0
 11
4065.0
 21
-769.99999999999955
 31
0.0
1001
ACDBBLOCKREPETAG
1070
     1
1071
       43
1005
125360
  0
LINE
  5
125361
  8
OBJECT
 10
3935.0
 20
-669.99999999999955
 30
0.0
 11
3935.0
 21
-769.99999999999955
 31
0.0
1001
ACDBBLOCKREPETAG
1070
     1
1071
       44
1005
125361
  0
LINE
  5
125362
  8
OBJECT
 10
3955.5
 20
-879.99999999999955
 30
0.0
 11
3935.0
 21
-769.99999999999955
 31
0.0
1001
ACDBBLOCKREPETAG
1070
     1
1071
       45
1005
125362
  0
LINE
  5
125363
  8
OBJECT
 10
4065.0
 20
-769.99999999999955
 30
0.0
 11
3935.0
 21
-769.99999999999955
 31
0.0
1001
ACDBBLOCKREPETAG
1070
     1
1071
       46
1005
125363
  0
LINE
  5
125364
  8
OBJECT
 10
3947.0
 20
-929.99999999999966
 30
0.0
 11
3947.0
 21
-964.99999999999955
 31
0.0
1001
ACDBBLOCKREPETAG
1070
     1
1071
       47
1005
125364
  0
LINE
  5
125365
  8
OBJECT
 10
4053.0
 20
-929.99999999999966
 30
0.0
 11
4053.0
 21
-964.99999999999955
 31
0.0
1001
ACDBBLOCKREPETAG
1070
     1
1071
       48
1005
125365
  0
LINE
  5
125366
  8
OBJECT
 10
3983.0
 20
-962.99999999999966
 30
0.0
 11
3975.5
 21
-959.99999999999955
 31
0.0
1001
ACDBBLOCKREPETAG
1070
     1
1071
       49
1005
125366
  0
LINE
  5
125367
  8
OBJECT
 10
4059.0
 20
-1011.999999999999
 30
0.0
 11
4059.0
 21
-1014.999999999999
 31
0.0
1001
ACDBBLOCKREPETAG
1070
     1
1071
       54
1005
125367
  0
LINE
  5
125368
  8
OBJECT
 10
4059.0
 20
-1014.999999999999
 30
0.0
 11
4069.0
 21
-1014.999999999999
 31
0.0
1001
ACDBBLOCKREPETAG
1070
     1
1071
       55
1005
125368
  0
LINE
  5
125369
  8
OBJECT
 10
4069.0
 20
-1014.999999999999
 30
0.0
 11
4069.0
 21
-1011.999999999999
 31
0.0
1001
ACDBBLOCKREPETAG
1070
     1
1071
       57
1005
125369
  0
LINE
  5
12536A
  8
OBJECT
 10
3958.185045423772
 20
-1011.999999999999
 30
0.0
 11
3977.8149545762212
 21
-1011.999999999999
 31
0.0
1001
ACDBBLOCKREPETAG
1070
     1
1071
      422
1005
12536A
  0
LINE
  5
12536B
  8
OBJECT
 10
3958.185045423777
 20
-1003.999999999999
 30
0.0
 11
3958.185045423777
 21
-1011.999999999999
 31
0.0
1001
ACDBBLOCKREPETAG
1070
     1
1071
      423
1005
12536B
  0
LINE
  5
12536C
  8
OBJECT
 10
3963.0925227118892
 20
-1003.999999999999
 30
0.0
 11
3963.0925227118892
 21
-1011.999999999999
 31
0.0
1001
ACDBBLOCKREPETAG
1070
     1
1071
      424
1005
12536C
  0
LINE
  5
12536D
  8
OBJECT
 10
3972.9074772881122
 20
-1003.999999999999
 30
0.0
 11
3972.9074772881122
 21
-1011.999999999999
 31
0.0
1001
ACDBBLOCKREPETAG
1070
     1
1071
      425
1005
12536D
  0
LINE
  5
12536E
  8
OBJECT
 10
3977.814954576223
 20
-1003.999999999999
 30
0.0
 11
3977.814954576223
 21
-1011.999999999999
 31
0.0
1001
ACDBBLOCKREPETAG
1070
     1
1071
      426
1005
12536E
  0
LINE
  5
12536F
  8
OBJECT
 10
4054.1850454237701
 20
-1011.999999999999
 30
0.0
 11
4073.8149545762199
 21
-1011.999999999999
 31
0.0
1001
ACDBBLOCKREPETAG
1070
     1
1071
      427
1005
12536F
  0
LINE
  5
125370
  8
OBJECT
 10
4054.185045423777
 20
-1003.999999999999
 30
0.0
 11
4054.185045423777
 21
-1011.999999999999
 31
0.0
1001
ACDBBLOCKREPETAG
1070
     1
1071
      428
1005
125370
  0
LINE
  5
125371
  8
OBJECT
 10
4059.0925227118878
 20
-1003.999999999999
 30
0.0
 11
4059.0925227118878
 21
-1011.999999999999
 31
0.0
1001
ACDBBLOCKREPETAG
1070
     1
1071
      429
1005
125371
  0
LINE
  5
125372
  8
OBJECT
 10
4068.9074772881122
 20
-1003.999999999999
 30
0.0
 11
4068.9074772881122
 21
-1011.999999999999
 31
0.0
1001
ACDBBLOCKREPETAG
1070
     1
1071
      430
1005
125372
  0
LINE
  5
125373
  8
OBJECT
 10
4073.814954576223
 20
-1003.999999999999
 30
0.0
 11
4073.814954576223
 21
-1011.999999999999
 31
0.0
1001
ACDBBLOCKREPETAG
1070
     1
1071
      431
1005
125373
  0
LINE
  5
125374
  8
CENTER
 10
11924.0
 20
-1294.9999999999991
 30
0.0
 11
12091.0
 21
-1294.9999999999991
 31
0.0
1001
ACDBBLOCKREPETAG
1070
     1
1071
       22
1005
125374
  0
LINE
  5
125375
  8
CENTER
 10
12000.0
 20
-1218.0518385105161
 30
0.0
 11
12000.0
 21
-1371.948161489478
 31
0.0
1001
ACDBBLOCKREPETAG
1070
     1
1071
       23
1005
125375
  0
CIRCLE
  5
125376
  8
OBJECT
 10
12000.0
 20
-1294.9999999999991
 30
0.0
 40
37.5
1001
ACDBBLOCKREPETAG
1070
     1
1071
       24
1005
125376
  0
CIRCLE
  5
125377
  8
OBJECT
 10
12000.0
 20
-1294.9999999999991
 30
0.0
 40
47.5
1001
ACDBBLOCKREPETAG
1070
     1
1071
       25
1005
125377
  0
ARC
  5
125378
  8
OBJECT
 10
12000.0
 20
-1294.9999999999991
 30
0.0
 40
61.0
 50
40.03737312998139
 51
79.962626870012684
1001
ACDBBLOCKREPETAG
1070
     1
1071
       26
1005
125378
  0
ARC
  5
125379
  8
OBJECT
 10
12000.0
 20
-1294.9999999999991
 30
0.0
 40
61.0
 50
160.03737312997501
 51
199.96262687002491
1001
ACDBBLOCKREPETAG
1070
     1
1071
       27
1005
125379
  0
ARC
  5
12537A
  8
OBJECT
 10
12000.0
 20
-1294.9999999999991
 30
0.0
 40
61.0
 50
280.03737312998732
 51
319.9626268700186
1001
ACDBBLOCKREPETAG
1070
     1
1071
       28
1005
12537A
  0
ARC
  5
12537B
  8
OBJECT
 10
12064.0
 20
-1294.9999999999991
 30
0.0
 40
12.0
 50
319.9626268700186
 51
40.03737312998139
1001
ACDBBLOCKREPETAG
1070
     1
1071
       29
1005
12537B
  0
LINE
  5
12537C
  8
OBJECT
 10
12046.703125
 20
-1255.7594837542299
 30
0.0
 11
12073.1875
 21
-1287.2805541811599
 31
0.0
1001
ACDBBLOCKREPETAG
1070
     1
1071
       30
1005
12537C
  0
LINE
  5
12537D
  8
OBJECT
 10
12046.703125
 20
-1334.240516245768
 30
0.0
 11
12073.1875
 21
-1302.719445818838
 31
0.0
1001
ACDBBLOCKREPETAG
1070
     1
1071
       31
1005
12537D
  0
CIRCLE
  5
12537E
  8
OBJECT
 10
12000.0
 20
-1294.9999999999991
 30
0.0
 40
55.0
1001
ACDBBLOCKREPETAG
1070
     1
1071
       32
1005
12537E
  0
ARC
  5
12537F
  8
OBJECT
 10
12064.0
 20
-1294.9999999999991
 30
0.0
 40
12.0
 50
271.2434956101261
 51
88.756504389873882
1001
ACDBBLOCKREPETAG
1070
     1
1071
       33
1005
12537F
  0
ARC
  5
125380
  8
OBJECT
 10
12064.5859375
 20
-1268.006358577504
 30
0.0
 40
15.0
 50
202.68245018366949
 51
268.7565043898739
1001
ACDBBLOCKREPETAG
1070
     1
1071
       34
1005
125380
  0
CIRCLE
  5
125381
  8
SLIM
 10
12064.0
 20
-1294.9999999999991
 30
0.0
 40
8.0
1001
ACDBBLOCKREPETAG
1070
     1
1071
       35
1005
125381
  0
POLYLINE
  5
125382
  8
SLIM
 66
     1
 10
0.0
 20
0.0
 30
0.0
 70
     1
1001
ACDBBLOCKREPETAG
1070
     1
1071
       36
1005
125382
  0
VERTEX
  5
1255AA
  8
SLIM
 10
12061.69059892324
 20
-1290.9999999999991
 30
0.0
  0
VERTEX
  5
1255AB
  8
SLIM
 10
12059.38119784648
 20
-1294.9999999999991
 30
0.0
  0
VERTEX
  5
1255AC
  8
SLIM
 10
12061.69059892324
 20
-1298.9999999999991
 30
0.0
  0
VERTEX
  5
1255AD
  8
SLIM
 10
12066.30940107676
 20
-1298.9999999999991
 30
0.0
  0
VERTEX
  5
1255AE
  8
SLIM
 10
12068.618802153511
 20
-1294.9999999999991
 30
0.0
  0
VERTEX
  5
1255AF
  8
SLIM
 10
12066.30940107676
 20
-1290.9999999999991
 30
0.0
  0
SEQEND
  5
1255B0
  8
SLIM
  0
ARC
  5
125383
  8
OBJECT
 10
12064.5859375
 20
-1321.993641422489
 30
0.0
 40
15.0
 50
91.243495610126089
 51
157.3175498163304
1001
ACDBBLOCKREPETAG
1070
     1
1071
       37
1005
125383
  0
ARC
  5
125384
  8
OBJECT
 10
11968.0
 20
-1239.5743741577919
 30
0.0
 40
12.0
 50
79.962626870012684
 51
160.03737312997501
1001
ACDBBLOCKREPETAG
1070
     1
1071
       38
1005
125384
  0
LINE
  5
125385
  8
OBJECT
 10
11942.665153573549
 20
-1274.1741654367599
 30
0.0
 11
11956.721013817751
 21
-1235.477488669944
 31
0.0
1001
ACDBBLOCKREPETAG
1070
     1
1071
       39
1005
125385
  0
LINE
  5
125386
  8
OBJECT
 10
12010.631721426451
 20
-1234.9336491909951
 30
0.0
 11
11970.091486182249
 21
-1227.7580428511051
 31
0.0
1001
ACDBBLOCKREPETAG
1070
     1
1071
       40
1005
125386
  0
ARC
  5
125387
  8
OBJECT
 10
11968.0
 20
-1239.5743741577919
 30
0.0
 40
12.0
 50
31.243495610056922
 51
208.7565043898139
1001
ACDBBLOCKREPETAG
1070
     1
1071
       41
1005
125387
  0
ARC
  5
125388
  8
OBJECT
 10
11944.32985203747
 20
-1252.56375810901
 30
0.0
 40
15.0
 50
322.68245018387239
 51
28.756504389813902
1001
ACDBBLOCKREPETAG
1070
     1
1071
       42
1005
125388
  0
CIRCLE
  5
125389
  8
SLIM
 10
11968.0
 20
-1239.5743741577919
 30
0.0
 40
7.9999999999999982
1001
ACDBBLOCKREPETAG
1070
     1
1071
       43
1005
125389
  0
POLYLINE
  5
12538A
  8
SLIM
 66
     1
 10
0.0
 20
0.0
 30
0.0
 70
     1
1001
ACDBBLOCKREPETAG
1070
     1
1071
       44
1005
12538A
  0
VERTEX
  5
1255B1
  8
SLIM
 10
11965.69059892324
 20
-1243.574374157796
 30
0.0
  0
VERTEX
  5
1255B2
  8
SLIM
 10
11970.30940107676
 20
-1243.5743741577919
 30
0.0
  0
VERTEX
  5
1255B3
  8
SLIM
 10
11972.618802153511
 20
-1239.574374157796
 30
0.0
  0
VERTEX
  5
1255B4
  8
SLIM
 10
11970.309401076751
 20
-1235.5743741577919
 30
0.0
  0
VERTEX
  5
1255B5
  8
SLIM
 10
11965.69059892324
 20
-1235.574374157796
 30
0.0
  0
VERTEX
  5
1255B6
  8
SLIM
 10
11963.38119784648
 20
-1239.5743741577919
 30
0.0
  0
SEQEND
  5
1255B7
  8
SLIM
  0
ARC
  5
12538B
  8
OBJECT
 10
11991.084210462521
 20
-1225.570116686516
 30
0.0
 40
15.0
 50
211.2434956100569
 51
277.31754981622862
1001
ACDBBLOCKREPETAG
1070
     1
1071
       45
1005
12538B
  0
ARC
  5
12538C
  8
OBJECT
 10
11968.0
 20
-1350.425625842202
 30
0.0
 40
12.0
 50
199.96262687002491
 51
280.03737312998732
1001
ACDBBLOCKREPETAG
1070
     1
1071
       46
1005
12538C
  0
LINE
  5
12538D
  8
OBJECT
 10
12010.631721426451
 20
-1355.0663508090031
 30
0.0
 11
11970.091486182249
 21
-1362.241957148892
 31
0.0
1001
ACDBBLOCKREPETAG
1070
     1
1071
       47
1005
12538D
  0
LINE
  5
12538E
  8
OBJECT
 10
11942.665153573549
 20
-1315.8258345632339
 30
0.0
 11
11956.721013817751
 21
-1354.5225113300539
 31
0.0
1001
ACDBBLOCKREPETAG
1070
     1
1071
       48
1005
12538E
  0
ARC
  5
12538F
  8
OBJECT
 10
11968.0
 20
-1350.425625842202
 30
0.0
 40
12.0
 50
151.2434956101861
 51
328.75650438994307
1001
ACDBBLOCKREPETAG
1070
     1
1071
       49
1005
12538F
  0
ARC
  5
125390
  8
OBJECT
 10
11991.084210462521
 20
-1364.4298833134769
 30
0.0
 40
15.0
 50
82.682450183771394
 51
148.75650438994299
1001
ACDBBLOCKREPETAG
1070
     1
1071
       50
1005
125390
  0
CIRCLE
  5
125391
  8
SLIM
 10
11968.0
 20
-1350.425625842202
 30
0.0
 40
8.0
1001
ACDBBLOCKREPETAG
1070
     1
1071
       51
1005
125391
  0
POLYLINE
  5
125392
  8
SLIM
 66
     1
 10
0.0
 20
0.0
 30
0.0
 70
     1
1001
ACDBBLOCKREPETAG
1070
     1
1071
       52
1005
125392
  0
VERTEX
  5
1255B8
  8
SLIM
 10
11972.618802153511
 20
-1350.425625842202
 30
0.0
  0
VERTEX
  5
1255B9
  8
SLIM
 10
11970.309401076751
 20
-1346.425625842202
 30
0.0
  0
VERTEX
  5
1255BA
  8
SLIM
 10
11965.69059892324
 20
-1346.425625842202
 30
0.0
  0
VERTEX
  5
1255BB
  8
SLIM
 10
11963.38119784648
 20
-1350.425625842202
 30
0.0
  0
VERTEX
  5
1255BC
  8
SLIM
 10
11965.69059892324
 20
-1354.425625842202
 30
0.0
  0
VERTEX
  5
1255BD
  8
SLIM
 10
11970.309401076751
 20
-1354.425625842202
 30
0.0
  0
SEQEND
  5
1255BE
  8
SLIM
  0
ARC
  5
125393
  8
OBJECT
 10
11944.32985203747
 20
-1337.436241890987
 30
0.0
 40
15.0
 50
331.24349561018607
 51
37.317549816127681
1001
ACDBBLOCKREPETAG
1070
     1
1071
       53
1005
125393
  0
LINE
  5
125394
  8
CENTER
 10
9924.0
 20
-1253.9999999999959
 30
0.0
 11
10091.0
 21
-1253.9999999999959
 31
0.0
1001
ACDBBLOCKREPETAG
1070
     1
1071
        0
1005
125394
  0
LINE
  5
125395
  8
CENTER
 10
10000.0
 20
-1177.0518385105131
 30
0.0
 11
10000.0
 21
-1330.9481614894751
 31
0.0
1001
ACDBBLOCKREPETAG
1070
     1
1071
        1
1005
125395
  0
CIRCLE
  5
125396
  8
OBJECT
 10
10000.0
 20
-1253.9999999999959
 30
0.0
 40
37.5
1001
ACDBBLOCKREPETAG
1070
     1
1071
        2
1005
125396
  0
CIRCLE
  5
125397
  8
OBJECT
 10
10000.0
 20
-1253.9999999999959
 30
0.0
 40
49.5
1001
ACDBBLOCKREPETAG
1070
     1
1071
        3
1005
125397
  0
ARC
  5
125398
  8
OBJECT
 10
10000.0
 20
-1253.9999999999959
 30
0.0
 40
61.0
 50
40.03737312998139
 51
79.962626870012684
1001
ACDBBLOCKREPETAG
1070
     1
1071
        4
1005
125398
  0
ARC
  5
125399
  8
OBJECT
 10
10000.0
 20
-1253.9999999999959
 30
0.0
 40
61.0
 50
160.03737312997501
 51
199.96262687002491
1001
ACDBBLOCKREPETAG
1070
     1
1071
        5
1005
125399
  0
ARC
  5
12539A
  8
OBJECT
 10
10000.0
 20
-1253.9999999999959
 30
0.0
 40
61.0
 50
280.03737312998732
 51
319.9626268700186
1001
ACDBBLOCKREPETAG
1070
     1
1071
        6
1005
12539A
  0
CIRCLE
  5
12539B
  8
SLIM
 10
10064.0
 20
-1253.9999999999959
 30
0.0
 40
5.0
1001
ACDBBLOCKREPETAG
1070
     1
1071
        7
1005
12539B
  0
ARC
  5
12539C
  8
OBJECT
 10
10064.0
 20
-1253.9999999999959
 30
0.0
 40
12.0
 50
319.9626268700186
 51
40.03737312998139
1001
ACDBBLOCKREPETAG
1070
     1
1071
        8
1005
12539C
  0
LINE
  5
12539D
  8
OBJECT
 10
10046.703125
 20
-1214.7594837542269
 30
0.0
 11
10073.1875
 21
-1246.280554181157
 31
0.0
1001
ACDBBLOCKREPETAG
1070
     1
1071
        9
1005
12539D
  0
LINE
  5
12539E
  8
OBJECT
 10
10046.703125
 20
-1293.2405162457651
 30
0.0
 11
10073.1875
 21
-1261.7194458188339
 31
0.0
1001
ACDBBLOCKREPETAG
1070
     1
1071
       10
1005
12539E
  0
POLYLINE
  5
12539F
  8
SLIM
 66
     1
 10
0.0
 20
0.0
 30
0.0
 70
     1
1001
ACDBBLOCKREPETAG
1070
     1
1071
       11
1005
12539F
  0
VERTEX
  5
1255BF
  8
SLIM
 10
10059.092522711881
 20
-1245.4999999999959
 30
0.0
  0
VERTEX
  5
1255C0
  8
SLIM
 10
10054.18504542377
 20
-1253.9999999999959
 30
0.0
  0
VERTEX
  5
1255C1
  8
SLIM
 10
10059.092522711881
 20
-1262.4999999999959
 30
0.0
  0
VERTEX
  5
1255C2
  8
SLIM
 10
10068.907477288099
 20
-1262.4999999999959
 30
0.0
  0
VERTEX
  5
1255C3
  8
SLIM
 10
10073.814954576221
 20
-1253.9999999999959
 30
0.0
  0
VERTEX
  5
1255C4
  8
SLIM
 10
10068.907477288099
 20
-1245.4999999999959
 30
0.0
  0
SEQEND
  5
1255C5
  8
SLIM
  0
CIRCLE
  5
1253A0
  8
SLIM
 10
9968.0
 20
-1198.574374157789
 30
0.0
 40
4.9999999999999991
1001
ACDBBLOCKREPETAG
1070
     1
1071
       12
1005
1253A0
  0
ARC
  5
1253A1
  8
OBJECT
 10
9968.0
 20
-1198.574374157789
 30
0.0
 40
12.0
 50
79.962626870012684
 51
160.03737312997501
1001
ACDBBLOCKREPETAG
1070
     1
1071
       13
1005
1253A1
  0
LINE
  5
1253A2
  8
OBJECT
 10
9942.6651535735436
 20
-1233.174165436757
 30
0.0
 11
9956.7210138177488
 21
-1194.4774886699411
 31
0.0
1001
ACDBBLOCKREPETAG
1070
     1
1071
       14
1005
1253A2
  0
LINE
  5
1253A3
  8
OBJECT
 10
10010.631721426451
 20
-1193.9336491909919
 30
0.0
 11
9970.091486182253
 21
-1186.7580428511019
 31
0.0
1001
ACDBBLOCKREPETAG
1070
     1
1071
       15
1005
1253A3
  0
POLYLINE
  5
1253A4
  8
SLIM
 66
     1
 10
0.0
 20
0.0
 30
0.0
 70
     1
1001
ACDBBLOCKREPETAG
1070
     1
1071
       16
1005
1253A4
  0
VERTEX
  5
1255C6
  8
SLIM
 10
9963.0925227118896
 20
-1207.074374157789
 30
0.0
  0
VERTEX
  5
1255C7
  8
SLIM
 10
9972.9074772881177
 20
-1207.074374157793
 30
0.0
  0
VERTEX
  5
1255C8
  8
SLIM
 10
9977.814954576219
 20
-1198.574374157789
 30
0.0
  0
VERTEX
  5
1255C9
  8
SLIM
 10
9972.9074772881177
 20
-1190.074374157793
 30
0.0
  0
VERTEX
  5
1255CA
  8
SLIM
 10
9963.0925227118896
 20
-1190.074374157789
 30
0.0
  0
VERTEX
  5
1255CB
  8
SLIM
 10
9958.1850454237738
 20
-1198.574374157793
 30
0.0
  0
SEQEND
  5
1255CC
  8
SLIM
  0
CIRCLE
  5
1253A5
  8
SLIM
 10
9968.0
 20
-1309.425625842199
 30
0.0
 40
5.0
1001
ACDBBLOCKREPETAG
1070
     1
1071
       17
1005
1253A5
  0
ARC
  5
1253A6
  8
OBJECT
 10
9968.0
 20
-1309.425625842199
 30
0.0
 40
12.0
 50
199.96262687002491
 51
280.03737312998732
1001
ACDBBLOCKREPETAG
1070
     1
1071
       18
1005
1253A6
  0
LINE
  5
1253A7
  8
OBJECT
 10
10010.631721426451
 20
-1314.0663508089999
 30
0.0
 11
9970.091486182253
 21
-1321.241957148889
 31
0.0
1001
ACDBBLOCKREPETAG
1070
     1
1071
       19
1005
1253A7
  0
LINE
  5
1253A8
  8
OBJECT
 10
9942.6651535735436
 20
-1274.825834563231
 30
0.0
 11
9956.7210138177488
 21
-1313.522511330051
 31
0.0
1001
ACDBBLOCKREPETAG
1070
     1
1071
       20
1005
1253A8
  0
POLYLINE
  5
1253A9
  8
SLIM
 66
     1
 10
0.0
 20
0.0
 30
0.0
 70
     1
1001
ACDBBLOCKREPETAG
1070
     1
1071
       21
1005
1253A9
  0
VERTEX
  5
1255CD
  8
SLIM
 10
9977.814954576219
 20
-1309.425625842199
 30
0.0
  0
VERTEX
  5
1255CE
  8
SLIM
 10
9972.9074772881049
 20
-1300.925625842199
 30
0.0
  0
VERTEX
  5
1255CF
  8
SLIM
 10
9963.0925227118896
 20
-1300.925625842199
 30
0.0
  0
VERTEX
  5
1255D0
  8
SLIM
 10
9958.1850454237738
 20
-1309.425625842199
 30
0.0
  0
VERTEX
  5
1255D1
  8
SLIM
 10
9963.0925227118896
 20
-1317.925625842199
 30
0.0
  0
VERTEX
  5
1255D2
  8
SLIM
 10
9972.9074772881177
 20
-1317.925625842199
 30
0.0
  0
SEQEND
  5
1255D3
  8
SLIM
  0
LINE
  5
1253AA
  8
CENTER
 10
5924.0
 20
-1294.9999999999991
 30
0.0
 11
6091.0
 21
-1294.9999999999991
 31
0.0
1001
ACDBBLOCKREPETAG
1070
     1
1071
       22
1005
1253AA
  0
LINE
  5
1253AB
  8
CENTER
 10
6000.0
 20
-1218.0518385105161
 30
0.0
 11
6000.0
 21
-1371.948161489478
 31
0.0
1001
ACDBBLOCKREPETAG
1070
     1
1071
       23
1005
1253AB
  0
CIRCLE
  5
1253AC
  8
OBJECT
 10
6000.0
 20
-1294.9999999999991
 30
0.0
 40
37.5
1001
ACDBBLOCKREPETAG
1070
     1
1071
       24
1005
1253AC
  0
CIRCLE
  5
1253AD
  8
OBJECT
 10
6000.0
 20
-1294.9999999999991
 30
0.0
 40
47.5
1001
ACDBBLOCKREPETAG
1070
     1
1071
       25
1005
1253AD
  0
ARC
  5
1253AE
  8
OBJECT
 10
6000.0
 20
-1294.9999999999991
 30
0.0
 40
61.0
 50
40.03737312998139
 51
79.962626870012684
1001
ACDBBLOCKREPETAG
1070
     1
1071
       26
1005
1253AE
  0
ARC
  5
1253AF
  8
OBJECT
 10
6000.0
 20
-1294.9999999999991
 30
0.0
 40
61.0
 50
160.03737312997501
 51
199.96262687002491
1001
ACDBBLOCKREPETAG
1070
     1
1071
       27
1005
1253AF
  0
ARC
  5
1253B0
  8
OBJECT
 10
6000.0
 20
-1294.9999999999991
 30
0.0
 40
61.0
 50
280.03737312998732
 51
319.9626268700186
1001
ACDBBLOCKREPETAG
1070
     1
1071
       28
1005
1253B0
  0
ARC
  5
1253B1
  8
OBJECT
 10
6064.0
 20
-1294.9999999999991
 30
0.0
 40
12.0
 50
319.9626268700186
 51
40.03737312998139
1001
ACDBBLOCKREPETAG
1070
     1
1071
       29
1005
1253B1
  0
LINE
  5
1253B2
  8
OBJECT
 10
6046.703125
 20
-1255.7594837542299
 30
0.0
 11
6073.1875
 21
-1287.2805541811599
 31
0.0
1001
ACDBBLOCKREPETAG
1070
     1
1071
       30
1005
1253B2
  0
LINE
  5
1253B3
  8
OBJECT
 10
6046.703125
 20
-1334.240516245768
 30
0.0
 11
6073.1875
 21
-1302.719445818838
 31
0.0
1001
ACDBBLOCKREPETAG
1070
     1
1071
       31
1005
1253B3
  0
CIRCLE
  5
1253B4
  8
OBJECT
 10
6000.0
 20
-1294.9999999999991
 30
0.0
 40
55.0
1001
ACDBBLOCKREPETAG
1070
     1
1071
       32
1005
1253B4
  0
ARC
  5
1253B5
  8
OBJECT
 10
6064.0
 20
-1294.9999999999991
 30
0.0
 40
12.0
 50
271.2434956101261
 51
88.756504389873882
1001
ACDBBLOCKREPETAG
1070
     1
1071
       33
1005
1253B5
  0
ARC
  5
1253B6
  8
OBJECT
 10
6064.5859375
 20
-1268.006358577504
 30
0.0
 40
15.0
 50
202.68245018366949
 51
268.7565043898739
1001
ACDBBLOCKREPETAG
1070
     1
1071
       34
1005
1253B6
  0
CIRCLE
  5
1253B7
  8
SLIM
 10
6064.0
 20
-1294.9999999999991
 30
0.0
 40
8.0
1001
ACDBBLOCKREPETAG
1070
     1
1071
       35
1005
1253B7
  0
POLYLINE
  5
1253B8
  8
SLIM
 66
     1
 10
0.0
 20
0.0
 30
0.0
 70
     1
1001
ACDBBLOCKREPETAG
1070
     1
1071
       36
1005
1253B8
  0
VERTEX
  5
1255D4
  8
SLIM
 10
6061.69059892324
 20
-1290.9999999999991
 30
0.0
  0
VERTEX
  5
1255D5
  8
SLIM
 10
6059.3811978464846
 20
-1294.9999999999991
 30
0.0
  0
VERTEX
  5
1255D6
  8
SLIM
 10
6061.69059892324
 20
-1298.9999999999991
 30
0.0
  0
VERTEX
  5
1255D7
  8
SLIM
 10
6066.30940107676
 20
-1298.9999999999991
 30
0.0
  0
VERTEX
  5
1255D8
  8
SLIM
 10
6068.6188021535154
 20
-1294.9999999999991
 30
0.0
  0
VERTEX
  5
1255D9
  8
SLIM
 10
6066.30940107676
 20
-1290.9999999999991
 30
0.0
  0
SEQEND
  5
1255DA
  8
SLIM
  0
ARC
  5
1253B9
  8
OBJECT
 10
6064.5859375
 20
-1321.993641422489
 30
0.0
 40
15.0
 50
91.243495610126089
 51
157.3175498163304
1001
ACDBBLOCKREPETAG
1070
     1
1071
       37
1005
1253B9
  0
ARC
  5
1253BA
  8
OBJECT
 10
5968.0
 20
-1239.5743741577919
 30
0.0
 40
12.0
 50
79.962626870012684
 51
160.03737312997501
1001
ACDBBLOCKREPETAG
1070
     1
1071
       38
1005
1253BA
  0
LINE
  5
1253BB
  8
OBJECT
 10
5942.6651535735473
 20
-1274.1741654367599
 30
0.0
 11
5956.721013817747
 21
-1235.477488669944
 31
0.0
1001
ACDBBLOCKREPETAG
1070
     1
1071
       39
1005
1253BB
  0
LINE
  5
1253BC
  8
OBJECT
 10
6010.6317214264518
 20
-1234.9336491909951
 30
0.0
 11
5970.091486182253
 21
-1227.7580428511051
 31
0.0
1001
ACDBBLOCKREPETAG
1070
     1
1071
       40
1005
1253BC
  0
ARC
  5
1253BD
  8
OBJECT
 10
5968.0
 20
-1239.5743741577919
 30
0.0
 40
12.0
 50
31.243495610056922
 51
208.7565043898139
1001
ACDBBLOCKREPETAG
1070
     1
1071
       41
1005
1253BD
  0
ARC
  5
1253BE
  8
OBJECT
 10
5944.3298520374738
 20
-1252.56375810901
 30
0.0
 40
15.0
 50
322.68245018387239
 51
28.756504389813902
1001
ACDBBLOCKREPETAG
1070
     1
1071
       42
1005
1253BE
  0
CIRCLE
  5
1253BF
  8
SLIM
 10
5968.0
 20
-1239.5743741577919
 30
0.0
 40
7.9999999999999982
1001
ACDBBLOCKREPETAG
1070
     1
1071
       43
1005
1253BF
  0
POLYLINE
  5
1253C0
  8
SLIM
 66
     1
 10
0.0
 20
0.0
 30
0.0
 70
     1
1001
ACDBBLOCKREPETAG
1070
     1
1071
       44
1005
1253C0
  0
VERTEX
  5
1255DB
  8
SLIM
 10
5965.6905989232419
 20
-1243.574374157796
 30
0.0
  0
VERTEX
  5
1255DC
  8
SLIM
 10
5970.30940107676
 20
-1243.5743741577919
 30
0.0
  0
VERTEX
  5
1255DD
  8
SLIM
 10
5972.6188021535154
 20
-1239.574374157796
 30
0.0
  0
VERTEX
  5
1255DE
  8
SLIM
 10
5970.3094010767572
 20
-1235.5743741577919
 30
0.0
  0
VERTEX
  5
1255DF
  8
SLIM
 10
5965.6905989232419
 20
-1235.574374157796
 30
0.0
  0
VERTEX
  5
1255E0
  8
SLIM
 10
5963.3811978464846
 20
-1239.5743741577919
 30
0.0
  0
SEQEND
  5
1255E1
  8
SLIM
  0
ARC
  5
1253C1
  8
OBJECT
 10
5991.0842104625253
 20
-1225.570116686516
 30
0.0
 40
15.0
 50
211.2434956100569
 51
277.31754981622862
1001
ACDBBLOCKREPETAG
1070
     1
1071
       45
1005
1253C1
  0
ARC
  5
1253C2
  8
OBJECT
 10
5968.0
 20
-1350.425625842202
 30
0.0
 40
12.0
 50
199.96262687002491
 51
280.03737312998732
1001
ACDBBLOCKREPETAG
1070
     1
1071
       46
1005
1253C2
  0
LINE
  5
1253C3
  8
OBJECT
 10
6010.6317214264518
 20
-1355.0663508090031
 30
0.0
 11
5970.091486182253
 21
-1362.241957148892
 31
0.0
1001
ACDBBLOCKREPETAG
1070
     1
1071
       47
1005
1253C3
  0
LINE
  5
1253C4
  8
OBJECT
 10
5942.6651535735473
 20
-1315.8258345632339
 30
0.0
 11
5956.721013817747
 21
-1354.5225113300539
 31
0.0
1001
ACDBBLOCKREPETAG
1070
     1
1071
       48
1005
1253C4
  0
ARC
  5
1253C5
  8
OBJECT
 10
5968.0
 20
-1350.425625842202
 30
0.0
 40
12.0
 50
151.2434956101861
 51
328.75650438994307
1001
ACDBBLOCKREPETAG
1070
     1
1071
       49
1005
1253C5
  0
ARC
  5
1253C6
  8
OBJECT
 10
5991.0842104625253
 20
-1364.4298833134769
 30
0.0
 40
15.0
 50
82.682450183771394
 51
148.75650438994299
1001
ACDBBLOCKREPETAG
1070
     1
1071
       50
1005
1253C6
  0
CIRCLE
  5
1253C7
  8
SLIM
 10
5968.0
 20
-1350.425625842202
 30
0.0
 40
8.0
1001
ACDBBLOCKREPETAG
1070
     1
1071
       51
1005
1253C7
  0
POLYLINE
  5
1253C8
  8
SLIM
 66
     1
 10
0.0
 20
0.0
 30
0.0
 70
     1
1001
ACDBBLOCKREPETAG
1070
     1
1071
       52
1005
1253C8
  0
VERTEX
  5
1255E2
  8
SLIM
 10
5972.6188021535154
 20
-1350.425625842202
 30
0.0
  0
VERTEX
  5
1255E3
  8
SLIM
 10
5970.3094010767572
 20
-1346.425625842202
 30
0.0
  0
VERTEX
  5
1255E4
  8
SLIM
 10
5965.6905989232419
 20
-1346.425625842202
 30
0.0
  0
VERTEX
  5
1255E5
  8
SLIM
 10
5963.3811978464846
 20
-1350.425625842202
 30
0.0
  0
VERTEX
  5
1255E6
  8
SLIM
 10
5965.69059892324
 20
-1354.425625842202
 30
0.0
  0
VERTEX
  5
1255E7
  8
SLIM
 10
5970.3094010767572
 20
-1354.425625842202
 30
0.0
  0
SEQEND
  5
1255E8
  8
SLIM
  0
ARC
  5
1253C9
  8
OBJECT
 10
5944.3298520374738
 20
-1337.436241890987
 30
0.0
 40
15.0
 50
331.24349561018607
 51
37.317549816127681
1001
ACDBBLOCKREPETAG
1070
     1
1071
       53
1005
1253C9
  0
LINE
  5
1253CA
  8
CENTER
 10
3924.0
 20
-1253.9999999999959
 30
0.0
 11
4091.0
 21
-1253.9999999999959
 31
0.0
1001
ACDBBLOCKREPETAG
1070
     1
1071
        0
1005
1253CA
  0
LINE
  5
1253CB
  8
CENTER
 10
4000.0
 20
-1177.0518385105131
 30
0.0
 11
4000.0
 21
-1330.9481614894751
 31
0.0
1001
ACDBBLOCKREPETAG
1070
     1
1071
        1
1005
1253CB
  0
CIRCLE
  5
1253CC
  8
OBJECT
 10
4000.0
 20
-1253.9999999999959
 30
0.0
 40
37.5
1001
ACDBBLOCKREPETAG
1070
     1
1071
        2
1005
1253CC
  0
CIRCLE
  5
1253CD
  8
OBJECT
 10
4000.0
 20
-1253.9999999999959
 30
0.0
 40
49.5
1001
ACDBBLOCKREPETAG
1070
     1
1071
        3
1005
1253CD
  0
ARC
  5
1253CE
  8
OBJECT
 10
4000.0
 20
-1253.9999999999959
 30
0.0
 40
61.0
 50
40.03737312998139
 51
79.962626870012684
1001
ACDBBLOCKREPETAG
1070
     1
1071
        4
1005
1253CE
  0
ARC
  5
1253CF
  8
OBJECT
 10
4000.0
 20
-1253.9999999999959
 30
0.0
 40
61.0
 50
160.03737312997501
 51
199.96262687002491
1001
ACDBBLOCKREPETAG
1070
     1
1071
        5
1005
1253CF
  0
ARC
  5
1253D0
  8
OBJECT
 10
4000.0
 20
-1253.9999999999959
 30
0.0
 40
61.0
 50
280.03737312998732
 51
319.9626268700186
1001
ACDBBLOCKREPETAG
1070
     1
1071
        6
1005
1253D0
  0
CIRCLE
  5
1253D1
  8
SLIM
 10
4064.0
 20
-1253.9999999999959
 30
0.0
 40
5.0
1001
ACDBBLOCKREPETAG
1070
     1
1071
        7
1005
1253D1
  0
ARC
  5
1253D2
  8
OBJECT
 10
4064.0
 20
-1253.9999999999959
 30
0.0
 40
12.0
 50
319.9626268700186
 51
40.03737312998139
1001
ACDBBLOCKREPETAG
1070
     1
1071
        8
1005
1253D2
  0
LINE
  5
1253D3
  8
OBJECT
 10
4046.7031249999982
 20
-1214.7594837542269
 30
0.0
 11
4073.1875
 21
-1246.280554181157
 31
0.0
1001
ACDBBLOCKREPETAG
1070
     1
1071
        9
1005
1253D3
  0
LINE
  5
1253D4
  8
OBJECT
 10
4046.7031249999982
 20
-1293.2405162457651
 30
0.0
 11
4073.1875
 21
-1261.7194458188339
 31
0.0
1001
ACDBBLOCKREPETAG
1070
     1
1071
       10
1005
1253D4
  0
POLYLINE
  5
1253D5
  8
SLIM
 66
     1
 10
0.0
 20
0.0
 30
0.0
 70
     1
1001
ACDBBLOCKREPETAG
1070
     1
1071
       11
1005
1253D5
  0
VERTEX
  5
1255E9
  8
SLIM
 10
4059.0925227118851
 20
-1245.4999999999959
 30
0.0
  0
VERTEX
  5
1255EA
  8
SLIM
 10
4054.1850454237701
 20
-1253.9999999999959
 30
0.0
  0
VERTEX
  5
1255EB
  8
SLIM
 10
4059.0925227118851
 20
-1262.4999999999959
 30
0.0
  0
VERTEX
  5
1255EC
  8
SLIM
 10
4068.9074772881072
 20
-1262.4999999999959
 30
0.0
  0
VERTEX
  5
1255ED
  8
SLIM
 10
4073.8149545762199
 20
-1253.9999999999959
 30
0.0
  0
VERTEX
  5
1255EE
  8
SLIM
 10
4068.9074772881072
 20
-1245.4999999999959
 30
0.0
  0
SEQEND
  5
1255EF
  8
SLIM
  0
CIRCLE
  5
1253D6
  8
SLIM
 10
3968.0
 20
-1198.574374157789
 30
0.0
 40
4.9999999999999991
1001
ACDBBLOCKREPETAG
1070
     1
1071
       12
1005
1253D6
  0
ARC
  5
1253D7
  8
OBJECT
 10
3968.0
 20
-1198.574374157789
 30
0.0
 40
12.0
 50
79.962626870012684
 51
160.03737312997501
1001
ACDBBLOCKREPETAG
1070
     1
1071
       13
1005
1253D7
  0
LINE
  5
1253D8
  8
OBJECT
 10
3942.6651535735441
 20
-1233.174165436757
 30
0.0
 11
3956.721013817747
 21
-1194.4774886699411
 31
0.0
1001
ACDBBLOCKREPETAG
1070
     1
1071
       14
1005
1253D8
  0
LINE
  5
1253D9
  8
OBJECT
 10
4010.6317214264491
 20
-1193.9336491909919
 30
0.0
 11
3970.091486182253
 21
-1186.7580428511019
 31
0.0
1001
ACDBBLOCKREPETAG
1070
     1
1071
       15
1005
1253D9
  0
POLYLINE
  5
1253DA
  8
SLIM
 66
     1
 10
0.0
 20
0.0
 30
0.0
 70
     1
1001
ACDBBLOCKREPETAG
1070
     1
1071
       16
1005
1253DA
  0
VERTEX
  5
1255F0
  8
SLIM
 10
3963.092522711886
 20
-1207.074374157789
 30
0.0
  0
VERTEX
  5
1255F1
  8
SLIM
 10
3972.907477288114
 20
-1207.074374157793
 30
0.0
  0
VERTEX
  5
1255F2
  8
SLIM
 10
3977.8149545762212
 20
-1198.574374157789
 30
0.0
  0
VERTEX
  5
1255F3
  8
SLIM
 10
3972.907477288114
 20
-1190.074374157793
 30
0.0
  0
VERTEX
  5
1255F4
  8
SLIM
 10
3963.092522711886
 20
-1190.074374157789
 30
0.0
  0
VERTEX
  5
1255F5
  8
SLIM
 10
3958.185045423772
 20
-1198.574374157793
 30
0.0
  0
SEQEND
  5
1255F6
  8
SLIM
  0
CIRCLE
  5
1253DB
  8
SLIM
 10
3968.0
 20
-1309.425625842199
 30
0.0
 40
5.0
1001
ACDBBLOCKREPETAG
1070
     1
1071
       17
1005
1253DB
  0
ARC
  5
1253DC
  8
OBJECT
 10
3968.0
 20
-1309.425625842199
 30
0.0
 40
12.0
 50
199.96262687002491
 51
280.03737312998732
1001
ACDBBLOCKREPETAG
1070
     1
1071
       18
1005
1253DC
  0
LINE
  5
1253DD
  8
OBJECT
 10
4010.6317214264491
 20
-1314.0663508089999
 30
0.0
 11
3970.091486182253
 21
-1321.241957148889
 31
0.0
1001
ACDBBLOCKREPETAG
1070
     1
1071
       19
1005
1253DD
  0
LINE
  5
1253DE
  8
OBJECT
 10
3942.6651535735441
 20
-1274.825834563231
 30
0.0
 11
3956.721013817747
 21
-1313.522511330051
 31
0.0
1001
ACDBBLOCKREPETAG
1070
     1
1071
       20
1005
1253DE
  0
POLYLINE
  5
1253DF
  8
SLIM
 66
     1
 10
0.0
 20
0.0
 30
0.0
 70
     1
1001
ACDBBLOCKREPETAG
1070
     1
1071
       21
1005
1253DF
  0
VERTEX
  5
1255F7
  8
SLIM
 10
3977.8149545762212
 20
-1309.425625842199
 30
0.0
  0
VERTEX
  5
1255F8
  8
SLIM
 10
3972.9074772881072
 20
-1300.925625842199
 30
0.0
  0
VERTEX
  5
1255F9
  8
SLIM
 10
3963.092522711886
 20
-1300.925625842199
 30
0.0
  0
VERTEX
  5
1255FA
  8
SLIM
 10
3958.185045423772
 20
-1309.425625842199
 30
0.0
  0
VERTEX
  5
1255FB
  8
SLIM
 10
3963.092522711886
 20
-1317.925625842199
 30
0.0
  0
VERTEX
  5
1255FC
  8
SLIM
 10
3972.907477288114
 20
-1317.925625842199
 30
0.0
  0
SEQEND
  5
1255FD
  8
SLIM
  0
LINE
  5
1253E0
  8
OBJECT
 10
2044.5
 20
-979.99999999999204
 30
0.0
 11
1955.5
 21
-979.99999999999204
 31
0.0
1001
ACDBBLOCKREPETAG
1070
     1
1071
        0
1005
1253E0
  0
LINE
  5
1253E1
  8
OBJECT
 10
1935.0
 20
-769.99999999999204
 30
0.0
 11
1935.0
 21
-669.99999999999216
 31
0.0
1001
ACDBBLOCKREPETAG
1070
     1
1071
        1
1005
1253E1
  0
LINE
  5
1253E2
  8
OBJECT
 10
2065.0
 20
-769.99999999999204
 30
0.0
 11
2065.0
 21
-669.99999999999216
 31
0.0
1001
ACDBBLOCKREPETAG
1070
     1
1071
        2
1005
1253E2
  0
LINE
  5
1253E3
  8
OBJECT
 10
1935.0
 20
-769.99999999999204
 30
0.0
 11
2065.0
 21
-769.99999999999204
 31
0.0
1001
ACDBBLOCKREPETAG
1070
     1
1071
        3
1005
1253E3
  0
LINE
  5
1253E4
  8
OBJECT
 10
1955.5
 20
-879.99999999999204
 30
0.0
 11
2044.5
 21
-879.99999999999204
 31
0.0
1001
ACDBBLOCKREPETAG
1070
     1
1071
        4
1005
1253E4
  0
LINE
  5
1253E5
  8
OBJECT
 10
1955.5
 20
-879.99999999999204
 30
0.0
 11
1955.5
 21
-979.99999999999204
 31
0.0
1001
ACDBBLOCKREPETAG
1070
     1
1071
        5
1005
1253E5
  0
LINE
  5
1253E6
  8
OBJECT
 10
2044.5
 20
-879.99999999999204
 30
0.0
 11
2044.5
 21
-979.99999999999204
 31
0.0
1001
ACDBBLOCKREPETAG
1070
     1
1071
        6
1005
1253E6
  0
LINE
  5
1253E7
  8
OBJECT
 10
1935.0
 20
-769.99999999999204
 30
0.0
 11
1955.5
 21
-879.99999999999204
 31
0.0
1001
ACDBBLOCKREPETAG
1070
     1
1071
        7
1005
1253E7
  0
LINE
  5
1253E8
  8
OBJECT
 10
2044.5
 20
-879.99999999999204
 30
0.0
 11
2065.0
 21
-769.99999999999204
 31
0.0
1001
ACDBBLOCKREPETAG
1070
     1
1071
        8
1005
1253E8
  0
LINE
  5
1253E9
  8
HIDDEN
 10
1962.5
 20
-879.99999999999204
 30
0.0
 11
1962.5
 21
-979.99999999999204
 31
0.0
1001
ACDBBLOCKREPETAG
1070
     1
1071
        9
1005
1253E9
  0
LINE
  5
1253EA
  8
HIDDEN
 10
2037.5
 20
-879.99999999999204
 30
0.0
 11
2037.5
 21
-979.99999999999204
 31
0.0
1001
ACDBBLOCKREPETAG
1070
     1
1071
       10
1005
1253EA
  0
LINE
  5
1253EB
  8
CENTER
 10
2000.0
 20
-669.99999999999955
 30
0.0
 11
2000.0
 21
-994.99999999999216
 31
0.0
1001
ACDBBLOCKREPETAG
1070
     1
1071
       11
1005
1253EB
  0
LINE
  5
1253EC
  8
OBJECT
 10
1927.0
 20
-533.99999999999955
 30
0.0
 11
1930.0
 21
-533.99999999999955
 31
0.0
1001
ACDBBLOCKREPETAG
1070
     1
1071
        1
1005
1253EC
  0
ARC
  5
1253ED
  8
OBJECT
 10
1927.0
 20
-536.99999999999955
 30
0.0
 40
3.0
 50
90.0
 51
180.0
1001
ACDBBLOCKREPETAG
1070
     1
1071
        2
1005
1253ED
  0
LINE
  5
1253EE
  8
OBJECT
 10
1930.0
 20
-657.99999999999955
 30
0.0
 11
1927.0
 21
-657.99999999999955
 31
0.0
1001
ACDBBLOCKREPETAG
1070
     1
1071
        3
1005
1253EE
  0
ARC
  5
1253EF
  8
OBJECT
 10
1927.0
 20
-654.99999999999966
 30
0.0
 40
3.0
 50
180.0
 51
270.0
1001
ACDBBLOCKREPETAG
1070
     1
1071
        4
1005
1253EF
  0
LINE
  5
1253F0
  8
OBJECT
 10
1924.0
 20
-654.99999999999966
 30
0.0
 11
1924.0
 21
-536.99999999999955
 31
0.0
1001
ACDBBLOCKREPETAG
1070
     1
1071
        5
1005
1253F0
  0
CIRCLE
  5
1253F1
  8
OBJECT
 10
2000.0
 20
-596.0
 30
0.0
 40
62.0
1001
ACDBBLOCKREPETAG
1070
     1
1071
        0
1005
1253F1
  0
LINE
  5
1253F2
  8
OBJECT
 10
1935.0
 20
-449.99999999999937
 30
0.0
 11
1935.0
 21
-470.99999999999937
 31
0.0
1001
ACDBBLOCKREPETAG
1070
     1
1071
       16
1005
1253F2
  0
LINE
  5
1253F3
  8
OBJECT
 10
1935.0
 20
-470.99999999999937
 30
0.0
 11
2065.0
 21
-470.99999999999937
 31
0.0
1001
ACDBBLOCKREPETAG
1070
     1
1071
       17
1005
1253F3
  0
LINE
  5
1253F4
  8
OBJECT
 10
2065.0
 20
-470.99999999999937
 30
0.0
 11
2065.0
 21
-449.99999999999937
 31
0.0
1001
ACDBBLOCKREPETAG
1070
     1
1071
       18
1005
1253F4
  0
LINE
  5
1253F5
  8
OBJECT
 10
2065.0
 20
-449.99999999999937
 30
0.0
 11
1935.0
 21
-449.99999999999937
 31
0.0
1001
ACDBBLOCKREPETAG
1070
     1
1071
       19
1005
1253F5
  0
LINE
  5
1253F6
  8
HIDDEN
 10
2044.5
 20
-519.99999999999955
 30
0.0
 11
1955.5
 21
-519.99999999999955
 31
0.0
1001
ACDBBLOCKREPETAG
1070
     1
1071
       20
1005
1253F6
  0
LINE
  5
1253F7
  8
CENTER
 10
2000.0
 20
-669.99999999999955
 30
0.0
 11
2000.0
 21
-434.99999999999949
 31
0.0
1001
ACDBBLOCKREPETAG
1070
     1
1071
       21
1005
1253F7
  0
LINE
  5
1253F8
  8
OBJECT
 10
1940.5
 20
-470.99999999999937
 30
0.0
 11
1940.5
 21
-533.99999999999955
 31
0.0
1001
ACDBBLOCKREPETAG
1070
     1
1071
       22
1005
1253F8
  0
LINE
  5
1253F9
  8
OBJECT
 10
1930.0
 20
-533.99999999999955
 30
0.0
 11
2070.0
 21
-533.99999999999955
 31
0.0
1001
ACDBBLOCKREPETAG
1070
     1
1071
       23
1005
1253F9
  0
LINE
  5
1253FA
  8
OBJECT
 10
2059.5
 20
-533.99999999999955
 30
0.0
 11
2059.5
 21
-470.99999999999937
 31
0.0
1001
ACDBBLOCKREPETAG
1070
     1
1071
       24
1005
1253FA
  0
LINE
  5
1253FB
  8
OBJECT
 10
1930.0
 20
-657.99999999999955
 30
0.0
 11
1930.0
 21
-669.99999999999955
 31
0.0
1001
ACDBBLOCKREPETAG
1070
     1
1071
       25
1005
1253FB
  0
LINE
  5
1253FC
  8
OBJECT
 10
1930.0
 20
-669.99999999999955
 30
0.0
 11
2070.0
 21
-669.99999999999955
 31
0.0
1001
ACDBBLOCKREPETAG
1070
     1
1071
       26
1005
1253FC
  0
LINE
  5
1253FD
  8
OBJECT
 10
2070.0
 20
-669.99999999999955
 30
0.0
 11
2070.0
 21
-657.99999999999955
 31
0.0
1001
ACDBBLOCKREPETAG
1070
     1
1071
       27
1005
1253FD
  0
LINE
  5
1253FE
  8
OBJECT
 10
2070.0
 20
-657.99999999999955
 30
0.0
 11
1930.0
 21
-657.99999999999955
 31
0.0
1001
ACDBBLOCKREPETAG
1070
     1
1071
       28
1005
1253FE
  0
ARC
  5
1253FF
  8
OBJECT
 10
2435.0384389946771
 20
-898.60813684682694
 30
0.0
 40
519.48776673616965
 50
135.4235066743189
 51
138.50052655621499
1001
ACDBBLOCKREPETAG
1070
     1
1071
       32
1005
1253FF
  0
ARC
  5
125400
  8
OBJECT
 10
2435.0384389946771
 20
-293.39186315317193
 30
0.0
 40
519.48776673616965
 50
221.49947344378501
 51
224.57649332568101
1001
ACDBBLOCKREPETAG
1070
     1
1071
       33
1005
125400
  0
ARC
  5
125401
  8
OBJECT
 10
1564.961561005322
 20
-898.60813684682694
 30
0.0
 40
519.48776673616965
 50
41.499473443784993
 51
44.576493325681092
1001
ACDBBLOCKREPETAG
1070
     1
1071
       34
1005
125401
  0
ARC
  5
125402
  8
OBJECT
 10
1564.961561005322
 20
-293.39186315317193
 30
0.0
 40
519.48776673616965
 50
315.4235066743189
 51
318.50052655621488
1001
ACDBBLOCKREPETAG
1070
     1
1071
       35
1005
125402
  0
POINT
  5
125403
  8
DOTS
 10
2000.0
 20
-654.99999999999966
 30
0.0
1001
ACDBBLOCKREPETAG
1070
     1
1071
      111
1005
125403
  0
LINE
  5
125404
  8
CENTER
 10
1909.0
 20
-199.99999999999909
 30
0.0
 11
1930.0
 21
-199.99999999999909
 31
0.0
1001
ACDBBLOCKREPETAG
1070
     1
1071
        0
1005
125404
  0
LINE
  5
125405
  8
OBJECT
 10
1927.0
 20
-261.99999999999909
 30
0.0
 11
1930.0
 21
-261.99999999999909
 31
0.0
1001
ACDBBLOCKREPETAG
1070
     1
1071
        1
1005
125405
  0
ARC
  5
125406
  8
OBJECT
 10
1927.0
 20
-258.99999999999909
 30
0.0
 40
3.0
 50
180.0
 51
270.0
1001
ACDBBLOCKREPETAG
1070
     1
1071
        2
1005
125406
  0
LINE
  5
125407
  8
OBJECT
 10
1930.0
 20
-137.99999999999909
 30
0.0
 11
1927.0
 21
-137.99999999999909
 31
0.0
1001
ACDBBLOCKREPETAG
1070
     1
1071
        3
1005
125407
  0
ARC
  5
125408
  8
OBJECT
 10
1927.0
 20
-140.99999999999909
 30
0.0
 40
3.0
 50
90.0
 51
180.0
1001
ACDBBLOCKREPETAG
1070
     1
1071
        4
1005
125408
  0
LINE
  5
125409
  8
OBJECT
 10
1924.0
 20
-140.99999999999909
 30
0.0
 11
1924.0
 21
-258.99999999999909
 31
0.0
1001
ACDBBLOCKREPETAG
1070
     1
1071
        5
1005
125409
  0
LINE
  5
12540A
  8
CENTER
 10
2000.0
 20
-290.99999999999898
 30
0.0
 11
2000.0
 21
-269.99999999999909
 31
0.0
1001
ACDBBLOCKREPETAG
1070
     1
1071
        0
1005
12540A
  0
LINE
  5
12540B
  8
OBJECT
 10
2062.0
 20
-273.0
 30
0.0
 11
2062.0
 21
-269.99999999999909
 31
0.0
1001
ACDBBLOCKREPETAG
1070
     1
1071
        1
1005
12540B
  0
ARC
  5
12540C
  8
OBJECT
 10
2059.0
 20
-273.0
 30
0.0
 40
3.0
 50
270.0
 51
0.0
1001
ACDBBLOCKREPETAG
1070
     1
1071
        2
1005
12540C
  0
LINE
  5
12540D
  8
OBJECT
 10
1938.0
 20
-269.99999999999909
 30
0.0
 11
1938.0
 21
-272.99999999999818
 31
0.0
1001
ACDBBLOCKREPETAG
1070
     1
1071
        3
1005
12540D
  0
ARC
  5
12540E
  8
OBJECT
 10
1941.0
 20
-272.99999999999818
 30
0.0
 40
3.0
 50
180.0
 51
270.0
1001
ACDBBLOCKREPETAG
1070
     1
1071
        4
1005
12540E
  0
LINE
  5
12540F
  8
OBJECT
 10
1941.0
 20
-275.99999999999818
 30
0.0
 11
2059.0
 21
-276.0
 31
0.0
1001
ACDBBLOCKREPETAG
1070
     1
1071
        5
1005
12540F
  0
POINT
  5
125410
  8
DOTS
 10
2000.0
 20
-199.99999999999909
 30
0.0
 50
270.0
1001
ACDBBLOCKREPETAG
1070
     1
1071
      153
1005
125410
  0
ARC
  5
125411
  8
OBJECT
 10
2000.0
 20
-199.99999999999909
 30
0.0
 40
70.0
 50
62.339550100758693
 51
117.6604498992413
1001
ACDBBLOCKREPETAG
1070
     1
1071
        0
1005
125411
  0
CIRCLE
  5
125412
  8
OBJECT
 10
2000.0
 20
-199.99999999999909
 30
0.0
 40
65.0
1001
ACDBBLOCKREPETAG
1070
     1
1071
        1
1005
125412
  0
CIRCLE
  5
125413
  8
OBJECT
 10
2000.0
 20
-199.99999999999909
 30
0.0
 40
41.0
1001
ACDBBLOCKREPETAG
1070
     1
1071
        2
1005
125413
  0
CIRCLE
  5
125414
  8
OBJECT
 10
2000.0
 20
-199.99999999999909
 30
0.0
 40
58.0
1001
ACDBBLOCKREPETAG
1070
     1
1071
        3
1005
125414
  0
LINE
  5
125415
  8
OBJECT
 10
2070.0
 20
-137.99999999999909
 30
0.0
 11
2019.5192212959439
 21
-137.99999999999909
 31
0.0
1001
ACDBBLOCKREPETAG
1070
     1
1071
        4
1005
125415
  0
LINE
  5
125416
  8
OBJECT
 10
1930.0
 20
-137.99999999999909
 30
0.0
 11
1980.480778704057
 21
-137.99999999999909
 31
0.0
1001
ACDBBLOCKREPETAG
1070
     1
1071
        5
1005
125416
  0
LINE
  5
125417
  8
OBJECT
 10
1930.0
 20
-261.99999999999909
 30
0.0
 11
1938.0
 21
-261.99999999999909
 31
0.0
1001
ACDBBLOCKREPETAG
1070
     1
1071
        6
1005
125417
  0
LINE
  5
125418
  8
OBJECT
 10
1938.0
 20
-269.99999999999909
 30
0.0
 11
1938.0
 21
-261.99999999999909
 31
0.0
1001
ACDBBLOCKREPETAG
1070
     1
1071
        7
1005
125418
  0
LINE
  5
125419
  8
OBJECT
 10
2070.0
 20
-261.99999999999909
 30
0.0
 11
2062.0
 21
-261.99999999999909
 31
0.0
1001
ACDBBLOCKREPETAG
1070
     1
1071
        8
1005
125419
  0
LINE
  5
12541A
  8
OBJECT
 10
2062.0
 20
-269.99999999999909
 30
0.0
 11
2062.0
 21
-261.99999999999909
 31
0.0
1001
ACDBBLOCKREPETAG
1070
     1
1071
        9
1005
12541A
  0
LINE
  5
12541B
  8
CENTER
 10
1930.0
 20
-199.99999999999909
 30
0.0
 11
2070.0
 21
-199.99999999999909
 31
0.0
1001
ACDBBLOCKREPETAG
1070
     1
1071
       10
1005
12541B
  0
LINE
  5
12541C
  8
CENTER
 10
2000.0
 20
-269.99999999999909
 30
0.0
 11
2000.0
 21
-114.9999999999991
 31
0.0
1001
ACDBBLOCKREPETAG
1070
     1
1071
       11
1005
12541C
  0
ARC
  5
12541D
  8
OBJECT
 10
1989.902762139187
 20
-224.44352901899131
 30
0.0
 40
7.0
 50
73.001272229706771
 51
154.05025878943769
1001
ACDBBLOCKREPETAG
1070
     1
1071
       12
1005
12541D
  0
ARC
  5
12541E
  8
OBJECT
 10
1986.8376610706509
 20
-225.5978773169509
 30
0.0
 40
9.0
 50
73.001272229706771
 51
154.05026392593041
1001
ACDBBLOCKREPETAG
1070
     1
1071
       13
1005
12541E
  0
ARC
  5
12541F
  8
OBJECT
 10
1896.3142301315529
 20
-147.28130031148149
 30
0.0
 40
150.0
 50
322.89503374001202
 51
325.8931499697137
1001
ACDBBLOCKREPETAG
1070
     1
1071
       14
1005
12541F
  0
ARC
  5
125420
  8
OBJECT
 10
2000.0
 20
-199.99999999999909
 30
0.0
 40
37.5
 50
303.16276667667131
 51
229.1635024908278
1001
ACDBBLOCKREPETAG
1070
     1
1071
       15
1005
125420
  0
LINE
  5
125421
  8
OBJECT
 10
1983.608514518975
 20
-221.38045100897119
 30
0.0
 11
1977.3740110000001
 21
-234.1915870000002
 31
0.0
1001
ACDBBLOCKREPETAG
1070
     1
1071
       16
1005
125421
  0
LINE
  5
125422
  8
OBJECT
 10
1978.745056634463
 20
-221.65963488670511
 30
0.0
 11
1973.898671999998
 21
-231.6183599999996
 31
0.0
1001
ACDBBLOCKREPETAG
1070
     1
1071
       17
1005
125422
  0
LINE
  5
125423
  8
OBJECT
 10
2018.938018000001
 20
-226.00000000000091
 30
0.0
 11
1989.468815303258
 21
-216.99107608744359
 31
0.0
1001
ACDBBLOCKREPETAG
1070
     1
1071
       18
1005
125423
  0
LINE
  5
125424
  8
OBJECT
 10
2020.5132253090051
 20
-231.39199878029191
 30
0.0
 11
2018.938018000001
 21
-226.00000000000091
 31
0.0
1001
ACDBBLOCKREPETAG
1070
     1
1071
       19
1005
125424
  0
LINE
  5
125425
  8
OBJECT
 10
1954.038059222873
 20
-245.96194077712471
 30
0.0
 11
1938.0
 21
-261.99999999999909
 31
0.0
1001
ACDBBLOCKREPETAG
1070
     1
1071
       42
1005
125425
  0
LINE
  5
125426
  8
OBJECT
 10
2045.9619407771261
 20
-245.96194077712471
 30
0.0
 11
2062.0
 21
-261.99999999999909
 31
0.0
1001
ACDBBLOCKREPETAG
1070
     1
1071
       43
1005
125426
  0
LINE
  5
125427
  8
OBJECT
 10
2073.0
 20
-533.99999999999955
 30
0.0
 11
2070.0
 21
-533.99999999999955
 31
0.0
1001
ACDBBLOCKREPETAG
1070
     1
1071
        1
1005
125427
  0
ARC
  5
125428
  8
OBJECT
 10
2073.0
 20
-536.99999999999955
 30
0.0
 40
3.0
 50
0.0
 51
90.0
1001
ACDBBLOCKREPETAG
1070
     1
1071
        2
1005
125428
  0
LINE
  5
125429
  8
OBJECT
 10
2070.0
 20
-657.99999999999955
 30
0.0
 11
2073.0
 21
-657.99999999999955
 31
0.0
1001
ACDBBLOCKREPETAG
1070
     1
1071
        3
1005
125429
  0
ARC
  5
12542A
  8
OBJECT
 10
2073.0
 20
-654.99999999999966
 30
0.0
 40
3.0
 50
270.0
 51
0.0
1001
ACDBBLOCKREPETAG
1070
     1
1071
        4
1005
12542A
  0
LINE
  5
12542B
  8
OBJECT
 10
2076.0
 20
-654.99999999999966
 30
0.0
 11
2076.0
 21
-536.99999999999955
 31
0.0
1001
ACDBBLOCKREPETAG
1070
     1
1071
        5
1005
12542B
  0
LINE
  5
12542C
  8
CENTER
 10
2091.0
 20
-199.99999999999909
 30
0.0
 11
2070.0
 21
-199.99999999999909
 31
0.0
1001
ACDBBLOCKREPETAG
1070
     1
1071
        0
1005
12542C
  0
LINE
  5
12542D
  8
OBJECT
 10
2073.0
 20
-137.99999999999909
 30
0.0
 11
2070.0
 21
-137.99999999999909
 31
0.0
1001
ACDBBLOCKREPETAG
1070
     1
1071
        1
1005
12542D
  0
ARC
  5
12542E
  8
OBJECT
 10
2073.0
 20
-140.99999999999909
 30
0.0
 40
3.0
 50
0.0
 51
90.0
1001
ACDBBLOCKREPETAG
1070
     1
1071
        2
1005
12542E
  0
LINE
  5
12542F
  8
OBJECT
 10
2070.0
 20
-261.99999999999909
 30
0.0
 11
2073.0
 21
-261.99999999999909
 31
0.0
1001
ACDBBLOCKREPETAG
1070
     1
1071
        3
1005
12542F
  0
ARC
  5
125430
  8
OBJECT
 10
2073.0
 20
-258.99999999999909
 30
0.0
 40
3.0
 50
270.0
 51
0.0
1001
ACDBBLOCKREPETAG
1070
     1
1071
        4
1005
125430
  0
LINE
  5
125431
  8
OBJECT
 10
2076.0
 20
-258.99999999999909
 30
0.0
 11
2076.0
 21
-140.99999999999909
 31
0.0
1001
ACDBBLOCKREPETAG
1070
     1
1071
        5
1005
125431
  0
TEXT
  5
125432
  8
SLIM
 10
0.0
 20
670.0
 30
0.0
 40
100.0
  1
3SL-0-S
 41
0.75
  0
TEXT
  5
125433
  8
SLIM
 10
0.0
 20
520.0
 30
0.0
 40
100.0
  1
3SL-0-W
 41
0.75
  0
TEXT
  5
125434
  8
SLIM
 10
3853.75
 20
-1521.4999999999959
 30
0.0
 40
35.0
  1
両受けスタイル（W）
 41
0.75
  0
TEXT
  5
125435
  8
SLIM
 10
5811.8000000000002
 20
-1618.9999999999991
 30
0.0
 40
28.0
  1
※ 対応スラブ厚　150mm以上
 41
0.75
  0
TEXT
  5
125436
  8
SLIM
 10
5598.8999999999996
 20
-1712.333333333333
 30
0.0
 40
28.0
  1
国土交通大臣認定・（一財）日本消防設備安全センター性能評定取得品
 41
0.75
  0
TEXT
  5
125437
  8
SLIM
 10
5631.1000000000004
 20
-1758.9999999999991
 30
0.0
 40
28.0
  1
注）ご採用にあたり、認定書及び評定書の内容をご確認ください。
 41
0.75
  0
TEXT
  5
125438
  8
SLIM
 10
11824.6
 20
-1577.9999999999959
 30
0.0
 40
28.0
  1
※ 対応スラブ厚　150～260
 41
0.75
  0
TEXT
  5
125439
  8
SLIM
 10
11598.9
 20
-1671.3333333333289
 30
0.0
 40
28.0
  1
国土交通大臣認定・（一財）日本消防設備安全センター性能評定取得品
 41
0.75
  0
TEXT
  5
12543A
  8
SLIM
 10
11631.1
 20
-1717.9999999999959
 30
0.0
 40
28.0
  1
注）ご採用にあたり、認定書及び評定書の内容をご確認ください。
 41
0.75
  0
TEXT
  5
12543B
  8
SLIM
 10
9824.6000000000004
 20
-1577.9999999999959
 30
0.0
 40
28.0
  1
※ 対応スラブ厚　180～260
 41
0.75
  0
TEXT
  5
12543C
  8
SLIM
 10
9598.8999999999996
 20
-1671.3333333333289
 30
0.0
 40
28.0
  1
国土交通大臣認定・（一財）日本消防設備安全センター性能評定取得品
 41
0.75
  0
TEXT
  5
12543D
  8
SLIM
 10
9631.1000000000004
 20
-1717.9999999999959
 30
0.0
 40
28.0
  1
注）ご採用にあたり、認定書及び評定書の内容をご確認ください。
 41
0.75
  0
TEXT
  5
12543E
  8
SLIM
 10
9739.1250000000018
 20
-1521.4999999999959
 30
0.0
 40
35.0
  1
両受けスタイル（W）＋シンドカット
 41
0.75
  0
TEXT
  5
12543F
  8
SLIM
 10
11743.5
 20
-1521.4999999999959
 30
0.0
 40
35.0
  1
カンペイ君（WKP）＋シンドカット
 41
0.75
  0
TEXT
  5
125440
  8
SLIM
 10
7741.625
 20
-1247.499999999998
 30
0.0
 40
35.0
  1
片受けスタイル（S）＋シンドカット
 41
0.75
  0
TEXT
  5
125441
  8
SLIM
 10
5858.1250000000009
 20
-1562.4999999999991
 30
0.0
 40
35.0
  1
カンペイ君（WKP）
 41
0.75
  0
TEXT
  5
125442
  8
SLIM
 10
1856.25
 20
-1247.499999999998
 30
0.0
 40
35.0
  1
片受けスタイル（S）
 41
0.75
  0
TEXT
  5
125443
  8
SLIM
 10
0.0
 20
370.0
 30
0.0
 40
100.0
  1
3SL-0-WKP
 41
0.75
  0
VIEWPORT
  5
F6BA7
 67
     1
  8
0
 10
145.33033752441401
 20
101.8328354358673
 30
0.0
 40
334.0025019414623
 41
222.19657968139651
 68
     1
 69
     1
1001
ACAD
1000
MVIEW
1002
{
1070
    16
1010
0.0
1020
0.0
1030
0.0
1010
0.0
1020
0.0
1030
1.0
1040
0.0
1040
222.19657968139651
1040
145.33033752441401
1040
101.8328354358673
1040
50.0
1040
0.0
1040
0.0
1070
     0
1070
     0
1070
     1
1070
     1
1070
     0
1070
     0
1070
     0
1070
     0
1040
0.0
1040
0.0
1040
0.0
1040
10.0
1040
10.0
1040
10.0
1040
10.0
1070
     0
1002
{
1002
}
1002
}
  0
VIEWPORT
  5
F6BA9
 67
     1
  8
OBJECT
 10
145.3303314447403
 20
101.8328338861465
 30
0.0
 40
232.5285303115844
 41
162.93253421783439
 68
     2
 69
     2
1001
ACAD
1000
MVIEW
1002
{
1070
    16
1010
0.0
1020
0.0
1030
0.0
1010
0.0
1020
0.0
1030
1.0
1040
0.0
1040
25942.55904403147
1040
2377.604457077377
1040
-7591.5176687056619
1040
50.0
1040
0.0
1040
0.0
1070
     0
1070
   600
1070
     1
1070
     1
1070
     0
1070
     0
1070
     0
1070
     0
1040
0.0
1040
0.0
1040
0.0
1040
1.0
1040
1.0
1040
0.0
1040
0.0
1070
     0
1002
{
1002
}
1002
}
  0
ENDSEC
  0
EOF
