  0
SECTION
  2
HEADER
  9
$ACADVER
  1
AC1009
  9
$INSBASE
 10
0.0
 20
0.0
 30
0.0
  9
$EXTMIN
 10
-0.0000000000000089
 20
-1839.0
 30
0.0
  9
$EXTMAX
 10
12399.70000000001
 20
770.0
 30
0.0
  9
$LIMMIN
 10
0.0
 20
0.0
  9
$LIMMAX
 10
210.0
 20
297.0
  9
$ORTHOMODE
 70
     0
  9
$REGENMODE
 70
     1
  9
$FILLMODE
 70
     1
  9
$QTEXTMODE
 70
     0
  9
$MIRRTEXT
 70
     0
  9
$DRAGMODE
 70
     2
  9
$LTSCALE
 40
1.0
  9
$OSMODE
 70
  2429
  9
$ATTMODE
 70
     1
  9
$TEXTSIZE
 40
4.0
  9
$TRACEWID
 40
0.05
  9
$TEXTSTYLE
  7
STANDARD
  9
$CLAYER
  8
OBJECT
  9
$CELTYPE
  6
BYLAYER
  9
$CECOLOR
 62
   256
  9
$DIMSCALE
 40
10.0
  9
$DIMASZ
 40
2.0
  9
$DIMEXO
 40
1.0
  9
$DIMDLI
 40
10.0
  9
$DIMRND
 40
0.0
  9
$DIMDLE
 40
0.0
  9
$DIMEXE
 40
1.0
  9
$DIMTP
 40
0.0
  9
$DIMTM
 40
0.0
  9
$DIMTXT
 40
3.2000000000000002
  9
$DIMCEN
 40
0.0
  9
$DIMTSZ
 40
0.0
  9
$DIMTOL
 70
     0
  9
$DIMLIM
 70
     0
  9
$DIMTIH
 70
     0
  9
$DIMTOH
 70
     0
  9
$DIMSE1
 70
     0
  9
$DIMSE2
 70
     0
  9
$DIMTAD
 70
     1
  9
$DIMZIN
 70
     8
  9
$DIMBLK
  1
OPEN30
  9
$DIMASO
 70
     1
  9
$DIMSHO
 70
     1
  9
$DIMPOST
  1

  9
$DIMAPOST
  1

  9
$DIMALT
 70
     0
  9
$DIMALTD
 70
     2
  9
$DIMALTF
 40
25.399999999999999
  9
$DIMLFAC
 40
1.0
  9
$DIMTOFL
 70
     1
  9
$DIMTVP
 40
0.0
  9
$DIMTIX
 70
     0
  9
$DIMSOXD
 70
     0
  9
$DIMSAH
 70
     0
  9
$DIMBLK1
  1

  9
$DIMBLK2
  1

  9
$DIMSTYLE
  2
S10
  9
$DIMCLRD
 70
   256
  9
$DIMCLRE
 70
   256
  9
$DIMCLRT
 70
   256
  9
$DIMTFAC
 40
1.0
  9
$DIMGAP
 40
0.9
  9
$LUNITS
 70
     2
  9
$LUPREC
 70
     2
  9
$SKETCHINC
 40
0.1
  9
$FILLETRAD
 40
0.0
  9
$AUNITS
 70
     0
  9
$AUPREC
 70
     2
  9
$MENU
  1
ACAD
  9
$ELEVATION
 40
0.0
  9
$PELEVATION
 40
0.0
  9
$THICKNESS
 40
0.0
  9
$LIMCHECK
 70
     0
  9
$BLIPMODE
 70
     0
  9
$CHAMFERA
 40
2.0
  9
$CHAMFERB
 40
2.0
  9
$SKPOLY
 70
     0
  9
$TDCREATE
 40
2453095.4929404748
  9
$TDUPDATE
 40
2457233.62216831
  9
$TDINDWG
 40
18.4259265972
  9
$TDUSRTIMER
 40
18.425925972200002
  9
$USRTIMER
 70
     1
  9
$ANGBASE
 50
0.0
  9
$ANGDIR
 70
     0
  9
$PDMODE
 70
    35
  9
$PDSIZE
 40
2.0
  9
$PLINEWID
 40
0.0
  9
$COORDS
 70
     0
  9
$SPLFRAME
 70
     0
  9
$SPLINETYPE
 70
     6
  9
$SPLINESEGS
 70
     8
  9
$ATTDIA
 70
     0
  9
$ATTREQ
 70
     1
  9
$HANDLING
 70
     1
  9
$HANDSEED
  5
12542F
  9
$SURFTAB1
 70
     6
  9
$SURFTAB2
 70
     6
  9
$SURFTYPE
 70
     6
  9
$SURFU
 70
     6
  9
$SURFV
 70
     6
  9
$UCSNAME
  2

  9
$UCSORG
 10
0.0
 20
0.0
 30
0.0
  9
$UCSXDIR
 10
1.0
 20
0.0
 30
0.0
  9
$UCSYDIR
 10
0.0
 20
1.0
 30
0.0
  9
$PUCSNAME
  2

  9
$PUCSORG
 10
0.0
 20
0.0
 30
0.0
  9
$PUCSXDIR
 10
1.0
 20
0.0
 30
0.0
  9
$PUCSYDIR
 10
0.0
 20
1.0
 30
0.0
  9
$USERI1
 70
     0
  9
$USERI2
 70
     0
  9
$USERI3
 70
     0
  9
$USERI4
 70
     0
  9
$USERI5
 70
     0
  9
$USERR1
 40
0.0
  9
$USERR2
 40
0.0
  9
$USERR3
 40
0.0
  9
$USERR4
 40
0.0
  9
$USERR5
 40
0.0
  9
$WORLDVIEW
 70
     1
  9
$SHADEDGE
 70
     3
  9
$SHADEDIF
 70
    70
  9
$TILEMODE
 70
     1
  9
$MAXACTVP
 70
    64
  9
$PLIMCHECK
 70
     0
  9
$PEXTMIN
 10
29.066066288948051
 20
20.366566777229309
 30
0.0
  9
$PEXTMAX
 10
261.5945966005325
 20
183.29910099506381
 30
0.0
  9
$PLIMMIN
 10
-3.17498779296875
 20
-3.1749999523162842
  9
$PLIMMAX
 10
293.83566284179687
 20
206.8406708240509
  9
$UNITMODE
 70
     0
  9
$VISRETAIN
 70
     1
  9
$PLINEGEN
 70
     0
  9
$PSLTSCALE
 70
     1
  0
ENDSEC
  0
SECTION
  2
TABLES
  0
TABLE
  2
VPORT
 70
     1
  0
VPORT
  2
*ACTIVE
 70
     0
 10
0.0
 20
0.0
 11
1.0
 21
1.0
 12
8351.7410038244234
 22
-2988.4428347357011
 13
0.0
 23
0.0
 14
1.0
 24
1.0
 15
0.0
 25
0.0
 16
0.0
 26
0.0
 36
1.0
 17
0.0
 27
0.0
 37
0.0
 40
9070.4640442111322
 41
1.6494178525226391
 42
50.0
 43
0.0
 44
0.0
 50
0.0
 51
0.0
 71
     0
 72
   600
 73
     1
 74
     1
 75
     0
 76
     0
 77
     0
 78
     0
  0
ENDTAB
  0
TABLE
  2
LTYPE
 70
     4
  0
LTYPE
  2
CONTINUOUS
 70
     0
  3
Solid line
 72
    65
 73
     0
 40
0.0
  0
LTYPE
  2
PHANTOM2
 70
     0
  3
___ _ _ ___ _ _ ___ _ _ ___ _ _
 72
    65
 73
     6
 40
1.25
 49
0.625
 49
-0.125
 49
0.125
 49
-0.125
 49
0.125
 49
-0.125
  0
LTYPE
  2
ACAD_ISO08W100
 70
     0
  3
ISO long-dash short-dash ____ __ ____ __ ____ _
 72
    65
 73
     4
 40
36.0
 49
24.0
 49
-3.0
 49
6.0
 49
-3.0
  0
LTYPE
  2
ACAD_ISO02W100
 70
     0
  3
ISO dash __ __ __ __ __ __ __ __ __ __ __ __ __
 72
    65
 73
     2
 40
15.0
 49
12.0
 49
-3.0
  0
ENDTAB
  0
TABLE
  2
LAYER
 70
     7
  0
LAYER
  2
0
 70
     0
 62
     7
  6
CONTINUOUS
  0
LAYER
  2
OBJECT
 70
     0
 62
     4
  6
CONTINUOUS
  0
LAYER
  2
DEFPOINTS
 70
     0
 62
     7
  6
CONTINUOUS
  0
LAYER
  2
HIDDEN
 70
     0
 62
     2
  6
ACAD_ISO02W100
  0
LAYER
  2
CENTER
 70
     0
 62
     2
  6
ACAD_ISO08W100
  0
LAYER
  2
DOTS
 70
     0
 62
     1
  6
CONTINUOUS
  0
LAYER
  2
SLIM
 70
     0
 62
     2
  6
CONTINUOUS
  0
ENDTAB
  0
TABLE
  2
STYLE
 70
     2
  0
STYLE
  2
STANDARD
 70
     0
 40
0.0
 41
0.75
 50
0.0
 71
     0
 42
4.0
  3
simplex.shx
  4
bigfont.shx
  0
ENDTAB
  0
TABLE
  2
VIEW
 70
     0
  0
ENDTAB
  0
TABLE
  2
UCS
 70
     0
  0
ENDTAB
  0
TABLE
  2
APPID
 70
    18
  0
APPID
  2
ACAD
 70
     0
  0
APPID
  2
ACADANNOTATIVE
 70
     0
  0
APPID
  2
ACAD_PSEXT
 70
     0
  0
APPID
  2
ACAD_EXEMPT_FROM_CAD_STANDARDS
 70
     0
  0
APPID
  2
ACAECLAYERSTANDARD
 70
     0
  0
APPID
  2
ACAUTHENVIRON
 70
     0
  0
APPID
  2
ACDBDYNAMICBLOCKTRUENAME
 70
     0
  0
APPID
  2
ACDBDYNAMICBLOCKGUID
 70
     0
  0
APPID
  2
ACDBBLOCKREPETAG
 70
     0
  0
APPID
  2
ACDBBLOCKREPBTAG
 70
     0
  0
APPID
  2
ACAD_NAV_VCDISPLAY
 70
     0
  0
APPID
  2
ACAD_DSTYLE_DIMRADIAL_EXTENSION
 70
     0
  0
APPID
  2
ACAD_DSTYLE_DIMJAG
 70
     0
  0
APPID
  2
ACAD_DSTYLE_DIMTALN
 70
     0
  0
APPID
  2
ACADANNOPO
 70
     0
  0
APPID
  2
GRADIENTCOLOR1ACI
 70
     0
  0
APPID
  2
GRADIENTCOLOR2ACI
 70
     0
  0
APPID
  2
ACAD_MLEADERVER
 70
     0
  0
ENDTAB
  0
TABLE
  2
DIMSTYLE
 70
     3
  0
DIMSTYLE
  2
STANDARD
 70
     0
  3

  4

  5

  6

  7

 40
1.0
 41
0.18
 42
0.0625
 43
0.38
 44
0.18
 45
0.0
 46
0.0
 47
0.0
 48
0.0
140
0.18
141
0.09
142
0.0
143
25.399999999999999
144
1.0
145
0.0
146
1.0
147
0.09
 71
     0
 72
     0
 73
     1
 74
     1
 75
     0
 76
     0
 77
     0
 78
     0
170
     0
171
     2
172
     0
173
     0
174
     0
175
     0
176
     0
177
     0
178
     0
  0
DIMSTYLE
  2
S10
 70
     0
  3

  4

  5

  6

  7

 40
10.0
 41
2.0
 42
1.0
 43
10.0
 44
1.0
 45
0.0
 46
0.0
 47
0.0
 48
0.0
140
3.2000000000000002
141
0.0
142
0.0
143
25.399999999999999
144
1.0
145
0.0
146
1.0
147
0.9
 71
     0
 72
     0
 73
     0
 74
     0
 75
     0
 76
     0
 77
     1
 78
     8
170
     0
171
     2
172
     1
173
     0
174
     0
175
     0
176
   256
177
   256
178
   256
  0
ENDTAB
  0
ENDSEC
  0
SECTION
  2
BLOCKS
  0
BLOCK
  8
0
  2
$MODEL_SPACE
 70
     0
 10
0.0
 20
0.0
 30
0.0
  3
$MODEL_SPACE
  1

  0
ENDBLK
  5
125357
  8
0
  0
BLOCK
 67
     1
  8
0
  2
$PAPER_SPACE
 70
     0
 10
0.0
 20
0.0
 30
0.0
  3
$PAPER_SPACE
  1

  0
ENDBLK
  5
125353
 67
     1
  8
0
  0
BLOCK
  8
0
  2
_OPEN30
 70
     0
 10
0.0
 20
0.0
 30
0.0
  3
_OPEN30
  1

  0
LINE
  5
202
  8
0
  6
BYBLOCK
 62
     0
 10
-1.0
 20
0.26794919
 30
0.0
 11
0.0
 21
0.0
 31
0.0
  0
LINE
  5
203
  8
0
  6
BYBLOCK
 62
     0
 10
0.0
 20
0.0
 30
0.0
 11
-1.0
 21
-0.26794919
 31
0.0
  0
LINE
  5
204
  8
0
  6
BYBLOCK
 62
     0
 10
0.0
 20
0.0
 30
0.0
 11
-1.0
 21
0.0
 31
0.0
  0
ENDBLK
  5
206
  8
0
  0
ENDSEC
  0
SECTION
  2
ENTITIES
  0
LINE
  5
124E11
  8
OBJECT
 10
11927.0
 20
-533.99999999999955
 30
0.0
 11
11930.0
 21
-533.99999999999955
 31
0.0
1001
ACDBBLOCKREPETAG
1070
     1
1071
        1
1005
124E11
  0
ARC
  5
124E12
  8
OBJECT
 10
11927.0
 20
-536.99999999999955
 30
0.0
 40
3.0
 50
90.0
 51
180.0
1001
ACDBBLOCKREPETAG
1070
     1
1071
        2
1005
124E12
  0
LINE
  5
124E13
  8
OBJECT
 10
11930.0
 20
-657.99999999999955
 30
0.0
 11
11927.0
 21
-657.99999999999955
 31
0.0
1001
ACDBBLOCKREPETAG
1070
     1
1071
        3
1005
124E13
  0
ARC
  5
124E14
  8
OBJECT
 10
11927.0
 20
-654.99999999999966
 30
0.0
 40
3.0
 50
180.0
 51
270.0
1001
ACDBBLOCKREPETAG
1070
     1
1071
        4
1005
124E14
  0
LINE
  5
124E15
  8
OBJECT
 10
11924.0
 20
-654.99999999999966
 30
0.0
 11
11924.0
 21
-536.99999999999955
 31
0.0
1001
ACDBBLOCKREPETAG
1070
     1
1071
        5
1005
124E15
  0
CIRCLE
  5
124E16
  8
OBJECT
 10
12000.0
 20
-596.0
 30
0.0
 40
62.0
1001
ACDBBLOCKREPETAG
1070
     1
1071
        0
1005
124E16
  0
LINE
  5
124E17
  8
OBJECT
 10
11935.0
 20
-449.99999999999937
 30
0.0
 11
11935.0
 21
-470.99999999999937
 31
0.0
1001
ACDBBLOCKREPETAG
1070
     1
1071
       16
1005
124E17
  0
LINE
  5
124E18
  8
OBJECT
 10
11935.0
 20
-470.99999999999937
 30
0.0
 11
12065.0
 21
-470.99999999999937
 31
0.0
1001
ACDBBLOCKREPETAG
1070
     1
1071
       17
1005
124E18
  0
LINE
  5
124E19
  8
OBJECT
 10
12065.0
 20
-470.99999999999937
 30
0.0
 11
12065.0
 21
-449.99999999999937
 31
0.0
1001
ACDBBLOCKREPETAG
1070
     1
1071
       18
1005
124E19
  0
LINE
  5
124E1A
  8
OBJECT
 10
12065.0
 20
-449.99999999999937
 30
0.0
 11
11935.0
 21
-449.99999999999937
 31
0.0
1001
ACDBBLOCKREPETAG
1070
     1
1071
       19
1005
124E1A
  0
LINE
  5
124E1B
  8
HIDDEN
 10
12044.5
 20
-519.99999999999955
 30
0.0
 11
11955.5
 21
-519.99999999999955
 31
0.0
1001
ACDBBLOCKREPETAG
1070
     1
1071
       20
1005
124E1B
  0
LINE
  5
124E1C
  8
CENTER
 10
12000.0
 20
-669.99999999999955
 30
0.0
 11
12000.0
 21
-434.99999999999949
 31
0.0
1001
ACDBBLOCKREPETAG
1070
     1
1071
       21
1005
124E1C
  0
LINE
  5
124E1D
  8
OBJECT
 10
11940.5
 20
-470.99999999999937
 30
0.0
 11
11940.5
 21
-533.99999999999955
 31
0.0
1001
ACDBBLOCKREPETAG
1070
     1
1071
       22
1005
124E1D
  0
LINE
  5
124E1E
  8
OBJECT
 10
11930.0
 20
-533.99999999999955
 30
0.0
 11
12070.0
 21
-533.99999999999955
 31
0.0
1001
ACDBBLOCKREPETAG
1070
     1
1071
       23
1005
124E1E
  0
LINE
  5
124E1F
  8
OBJECT
 10
12059.5
 20
-533.99999999999955
 30
0.0
 11
12059.5
 21
-470.99999999999937
 31
0.0
1001
ACDBBLOCKREPETAG
1070
     1
1071
       24
1005
124E1F
  0
LINE
  5
124E20
  8
OBJECT
 10
11930.0
 20
-657.99999999999955
 30
0.0
 11
11930.0
 21
-669.99999999999955
 31
0.0
1001
ACDBBLOCKREPETAG
1070
     1
1071
       25
1005
124E20
  0
LINE
  5
124E21
  8
OBJECT
 10
11930.0
 20
-669.99999999999955
 30
0.0
 11
12070.0
 21
-669.99999999999955
 31
0.0
1001
ACDBBLOCKREPETAG
1070
     1
1071
       26
1005
124E21
  0
LINE
  5
124E22
  8
OBJECT
 10
12070.0
 20
-669.99999999999955
 30
0.0
 11
12070.0
 21
-657.99999999999955
 31
0.0
1001
ACDBBLOCKREPETAG
1070
     1
1071
       27
1005
124E22
  0
LINE
  5
124E23
  8
OBJECT
 10
12070.0
 20
-657.99999999999955
 30
0.0
 11
11930.0
 21
-657.99999999999955
 31
0.0
1001
ACDBBLOCKREPETAG
1070
     1
1071
       28
1005
124E23
  0
ARC
  5
124E24
  8
OBJECT
 10
12435.038438994679
 20
-898.60813684682694
 30
0.0
 40
519.48776673616965
 50
135.42350667430969
 51
138.50052655621499
1001
ACDBBLOCKREPETAG
1070
     1
1071
       32
1005
124E24
  0
ARC
  5
124E25
  8
OBJECT
 10
12435.038438994679
 20
-293.39186315317193
 30
0.0
 40
519.48776673616965
 50
221.49947344378501
 51
224.57649332569039
1001
ACDBBLOCKREPETAG
1070
     1
1071
       33
1005
124E25
  0
ARC
  5
124E26
  8
OBJECT
 10
11564.961561005321
 20
-898.60813684682694
 30
0.0
 40
519.48776673616965
 50
41.499473443784993
 51
44.576493325690237
1001
ACDBBLOCKREPETAG
1070
     1
1071
       34
1005
124E26
  0
ARC
  5
124E27
  8
OBJECT
 10
11564.961561005321
 20
-293.39186315317193
 30
0.0
 40
519.48776673616965
 50
315.42350667430981
 51
318.50052655621488
1001
ACDBBLOCKREPETAG
1070
     1
1071
       35
1005
124E27
  0
POINT
  5
124E28
  8
DOTS
 10
12000.0
 20
-654.99999999999966
 30
0.0
1001
ACDBBLOCKREPETAG
1070
     1
1071
      111
1005
124E28
  0
LINE
  5
124E29
  8
CENTER
 10
11909.0
 20
-199.99999999999909
 30
0.0
 11
11930.0
 21
-199.99999999999909
 31
0.0
1001
ACDBBLOCKREPETAG
1070
     1
1071
        0
1005
124E29
  0
LINE
  5
124E2A
  8
OBJECT
 10
11927.0
 20
-261.99999999999909
 30
0.0
 11
11930.0
 21
-261.99999999999909
 31
0.0
1001
ACDBBLOCKREPETAG
1070
     1
1071
        1
1005
124E2A
  0
ARC
  5
124E2B
  8
OBJECT
 10
11927.0
 20
-258.99999999999909
 30
0.0
 40
3.0
 50
180.0
 51
270.0
1001
ACDBBLOCKREPETAG
1070
     1
1071
        2
1005
124E2B
  0
LINE
  5
124E2C
  8
OBJECT
 10
11930.0
 20
-137.99999999999909
 30
0.0
 11
11927.0
 21
-137.99999999999909
 31
0.0
1001
ACDBBLOCKREPETAG
1070
     1
1071
        3
1005
124E2C
  0
ARC
  5
124E2D
  8
OBJECT
 10
11927.0
 20
-140.99999999999909
 30
0.0
 40
3.0
 50
90.0
 51
180.0
1001
ACDBBLOCKREPETAG
1070
     1
1071
        4
1005
124E2D
  0
LINE
  5
124E2E
  8
OBJECT
 10
11924.0
 20
-140.99999999999909
 30
0.0
 11
11924.0
 21
-258.99999999999909
 31
0.0
1001
ACDBBLOCKREPETAG
1070
     1
1071
        5
1005
124E2E
  0
LINE
  5
124E2F
  8
CENTER
 10
12000.0
 20
-290.99999999999898
 30
0.0
 11
12000.0
 21
-269.99999999999909
 31
0.0
1001
ACDBBLOCKREPETAG
1070
     1
1071
        0
1005
124E2F
  0
LINE
  5
124E30
  8
OBJECT
 10
12062.0
 20
-273.0
 30
0.0
 11
12062.0
 21
-269.99999999999909
 31
0.0
1001
ACDBBLOCKREPETAG
1070
     1
1071
        1
1005
124E30
  0
ARC
  5
124E31
  8
OBJECT
 10
12059.0
 20
-273.0
 30
0.0
 40
3.0
 50
270.0
 51
0.0
1001
ACDBBLOCKREPETAG
1070
     1
1071
        2
1005
124E31
  0
LINE
  5
124E32
  8
OBJECT
 10
11938.0
 20
-269.99999999999909
 30
0.0
 11
11938.0
 21
-272.99999999999818
 31
0.0
1001
ACDBBLOCKREPETAG
1070
     1
1071
        3
1005
124E32
  0
ARC
  5
124E33
  8
OBJECT
 10
11941.0
 20
-272.99999999999818
 30
0.0
 40
3.0
 50
180.0
 51
270.0
1001
ACDBBLOCKREPETAG
1070
     1
1071
        4
1005
124E33
  0
LINE
  5
124E34
  8
OBJECT
 10
11941.0
 20
-275.99999999999818
 30
0.0
 11
12059.0
 21
-276.0
 31
0.0
1001
ACDBBLOCKREPETAG
1070
     1
1071
        5
1005
124E34
  0
LINE
  5
124E35
  8
SLIM
 10
11963.217182668241
 20
-137.99999999999909
 30
0.0
 11
11969.921507996291
 21
-131.29567467194681
 31
0.0
1001
GRADIENTCOLOR1ACI
1070
     5
1001
GRADIENTCOLOR2ACI
1070
     2
1001
ACAD
1010
0.0
1020
0.0
1030
0.0
1001
ACDBBLOCKREPETAG
1070
     1
1071
      169
1005
124E35
  0
LINE
  5
124E36
  8
SLIM
 10
11972.19743878931
 20
-137.99999999999909
 30
0.0
 11
11983.31883633275
 21
-126.87860245655401
 31
0.0
1001
GRADIENTCOLOR1ACI
1070
     5
1001
GRADIENTCOLOR2ACI
1070
     2
1001
ACAD
1010
0.0
1020
0.0
1030
0.0
1001
ACDBBLOCKREPETAG
1070
     1
1071
      170
1005
124E36
  0
LINE
  5
124E37
  8
SLIM
 10
11981.48493728876
 20
-137.6927576216126
 30
0.0
 11
11993.9318052486
 21
-125.245889661777
 31
0.0
1001
GRADIENTCOLOR1ACI
1070
     5
1001
GRADIENTCOLOR2ACI
1070
     2
1001
ACAD
1010
0.0
1020
0.0
1030
0.0
1001
ACDBBLOCKREPETAG
1070
     1
1071
      171
1005
124E37
  0
LINE
  5
124E38
  8
SLIM
 10
11992.75265682803
 20
-135.40529420341099
 30
0.0
 11
12000.0
 21
-128.1579510314458
 31
0.0
1001
GRADIENTCOLOR1ACI
1070
     5
1001
GRADIENTCOLOR2ACI
1070
     2
1001
ACAD
1010
0.0
1020
0.0
1030
0.0
1001
ACDBBLOCKREPETAG
1070
     1
1071
      172
1005
124E38
  0
LINE
  5
124E39
  8
SLIM
 10
12000.0
 20
-128.1579510314458
 30
0.0
 11
12003.094100787839
 21
-125.0638502435924
 31
0.0
1001
GRADIENTCOLOR1ACI
1070
     5
1001
GRADIENTCOLOR2ACI
1070
     2
1001
ACAD
1010
0.0
1020
0.0
1030
0.0
1001
ACDBBLOCKREPETAG
1070
     1
1071
      173
1005
124E39
  0
LINE
  5
124E3A
  8
SLIM
 10
12002.10414122347
 20
-135.03406592904389
 30
0.0
 11
12011.28442576865
 21
-125.85378138386341
 31
0.0
1001
GRADIENTCOLOR1ACI
1070
     5
1001
GRADIENTCOLOR2ACI
1070
     2
1001
ACAD
1010
0.0
1020
0.0
1030
0.0
1001
ACDBBLOCKREPETAG
1070
     1
1071
      174
1005
124E3A
  0
LINE
  5
124E3B
  8
SLIM
 10
12010.297585520921
 20
-135.82087775265759
 30
0.0
 11
12018.73958846552
 21
-127.3788748080627
 31
0.0
1001
GRADIENTCOLOR1ACI
1070
     5
1001
GRADIENTCOLOR2ACI
1070
     2
1001
ACAD
1010
0.0
1020
0.0
1030
0.0
1001
ACDBBLOCKREPETAG
1070
     1
1071
      175
1005
124E3B
  0
LINE
  5
124E3C
  8
SLIM
 10
12017.655079364229
 20
-137.4436400304258
 30
0.0
 11
12025.595886626959
 21
-129.50283276769261
 31
0.0
1001
GRADIENTCOLOR1ACI
1070
     5
1001
GRADIENTCOLOR2ACI
1070
     2
1001
ACAD
1010
0.0
1020
0.0
1030
0.0
1001
ACDBBLOCKREPETAG
1070
     1
1071
      176
1005
124E3C
  0
LINE
  5
124E3D
  8
SLIM
 10
12026.07897551572
 20
-137.99999999999909
 30
0.0
 11
12031.9385859461
 21
-132.1403895696169
 31
0.0
1001
GRADIENTCOLOR1ACI
1070
     5
1001
GRADIENTCOLOR2ACI
1070
     2
1001
ACAD
1010
0.0
1020
0.0
1030
0.0
1001
ACDBBLOCKREPETAG
1070
     1
1071
      177
1005
124E3D
  0
LINE
  5
124E3E
  8
SLIM
 10
12035.059231636789
 20
-137.99999999999909
 30
0.0
 11
12037.82336543762
 21
-135.23586619916779
 31
0.0
1001
GRADIENTCOLOR1ACI
1070
     5
1001
GRADIENTCOLOR2ACI
1070
     2
1001
ACAD
1010
0.0
1020
0.0
1030
0.0
1001
ACDBBLOCKREPETAG
1070
     1
1071
      178
1005
124E3E
  0
CIRCLE
  5
124E3F
  8
OBJECT
 10
12000.0
 20
-199.99999999999909
 30
0.0
 40
65.0
1001
ACDBBLOCKREPETAG
1070
     1
1071
       84
1005
124E3F
  0
CIRCLE
  5
124E40
  8
OBJECT
 10
12000.0
 20
-199.99999999999909
 30
0.0
 40
41.0
1001
ACDBBLOCKREPETAG
1070
     1
1071
       85
1005
124E40
  0
CIRCLE
  5
124E41
  8
OBJECT
 10
12000.0
 20
-199.99999999999909
 30
0.0
 40
58.0
1001
ACDBBLOCKREPETAG
1070
     1
1071
       86
1005
124E41
  0
LINE
  5
124E42
  8
OBJECT
 10
12070.0
 20
-137.99999999999909
 30
0.0
 11
12019.519221295939
 21
-137.99999999999909
 31
0.0
1001
ACDBBLOCKREPETAG
1070
     1
1071
       87
1005
124E42
  0
LINE
  5
124E43
  8
OBJECT
 10
11930.0
 20
-137.99999999999909
 30
0.0
 11
11980.48077870405
 21
-137.99999999999909
 31
0.0
1001
ACDBBLOCKREPETAG
1070
     1
1071
       88
1005
124E43
  0
LINE
  5
124E44
  8
OBJECT
 10
11930.0
 20
-261.99999999999909
 30
0.0
 11
11938.0
 21
-261.99999999999909
 31
0.0
1001
ACDBBLOCKREPETAG
1070
     1
1071
       89
1005
124E44
  0
LINE
  5
124E45
  8
OBJECT
 10
11938.0
 20
-269.99999999999909
 30
0.0
 11
11938.0
 21
-261.99999999999909
 31
0.0
1001
ACDBBLOCKREPETAG
1070
     1
1071
       90
1005
124E45
  0
LINE
  5
124E46
  8
OBJECT
 10
12070.0
 20
-261.99999999999909
 30
0.0
 11
12062.0
 21
-261.99999999999909
 31
0.0
1001
ACDBBLOCKREPETAG
1070
     1
1071
       91
1005
124E46
  0
LINE
  5
124E47
  8
OBJECT
 10
12062.0
 20
-269.99999999999909
 30
0.0
 11
12062.0
 21
-261.99999999999909
 31
0.0
1001
ACDBBLOCKREPETAG
1070
     1
1071
       92
1005
124E47
  0
LINE
  5
124E48
  8
CENTER
 10
11930.0
 20
-199.99999999999909
 30
0.0
 11
12070.0
 21
-199.99999999999909
 31
0.0
1001
ACDBBLOCKREPETAG
1070
     1
1071
       93
1005
124E48
  0
LINE
  5
124E49
  8
CENTER
 10
12000.0
 20
-269.99999999999909
 30
0.0
 11
12000.0
 21
-109.9999999999991
 31
0.0
1001
ACDBBLOCKREPETAG
1070
     1
1071
       94
1005
124E49
  0
ARC
  5
124E4A
  8
OBJECT
 10
11989.902762139191
 20
-224.44352901899131
 30
0.0
 40
7.0
 50
73.00127222950276
 51
154.0502587892864
1001
ACDBBLOCKREPETAG
1070
     1
1071
       95
1005
124E4A
  0
ARC
  5
124E4B
  8
OBJECT
 10
11986.837661070649
 20
-225.5978773169509
 30
0.0
 40
9.0
 50
73.00127222950276
 51
154.0502639259247
1001
ACDBBLOCKREPETAG
1070
     1
1071
       96
1005
124E4B
  0
ARC
  5
124E4C
  8
OBJECT
 10
11896.314230131549
 20
-147.28130031148149
 30
0.0
 40
150.0
 50
322.8950337398245
 51
325.8931499695608
1001
ACDBBLOCKREPETAG
1070
     1
1071
       97
1005
124E4C
  0
ARC
  5
124E4D
  8
OBJECT
 10
12000.0
 20
-199.99999999999909
 30
0.0
 40
37.5
 50
303.16276667665232
 51
229.16350249104781
1001
ACDBBLOCKREPETAG
1070
     1
1071
       98
1005
124E4D
  0
LINE
  5
124E4E
  8
OBJECT
 10
11983.608514518981
 20
-221.38045100897119
 30
0.0
 11
11977.374011
 21
-234.1915870000002
 31
0.0
1001
ACDBBLOCKREPETAG
1070
     1
1071
       99
1005
124E4E
  0
LINE
  5
124E4F
  8
OBJECT
 10
11978.74505663446
 20
-221.65963488670511
 30
0.0
 11
11973.898671999999
 21
-231.6183599999996
 31
0.0
1001
ACDBBLOCKREPETAG
1070
     1
1071
      100
1005
124E4F
  0
LINE
  5
124E50
  8
OBJECT
 10
12018.938018000001
 20
-226.00000000000091
 30
0.0
 11
11989.468815303249
 21
-216.99107608744359
 31
0.0
1001
ACDBBLOCKREPETAG
1070
     1
1071
      101
1005
124E50
  0
LINE
  5
124E51
  8
OBJECT
 10
12020.513225309
 20
-231.39199878029191
 30
0.0
 11
12018.938018000001
 21
-226.00000000000091
 31
0.0
1001
ACDBBLOCKREPETAG
1070
     1
1071
      102
1005
124E51
  0
LINE
  5
124E52
  8
OBJECT
 10
11954.03805922287
 20
-245.96194077712289
 30
0.0
 11
11938.0
 21
-261.99999999999909
 31
0.0
1001
ACDBBLOCKREPETAG
1070
     1
1071
      106
1005
124E52
  0
LINE
  5
124E53
  8
OBJECT
 10
12045.96194077713
 20
-245.96194077712289
 30
0.0
 11
12062.0
 21
-261.99999999999909
 31
0.0
1001
ACDBBLOCKREPETAG
1070
     1
1071
      107
1005
124E53
  0
ARC
  5
124E54
  8
OBJECT
 10
12000.0
 20
-199.99999999999909
 30
0.0
 40
75.0
 50
55.757831297238091
 51
124.2421687027619
1001
ACDBBLOCKREPETAG
1070
     1
1071
      108
1005
124E54
  0
POINT
  5
124E55
  8
DOTS
 10
12000.0
 20
-199.99999999999909
 30
0.0
 50
270.0
1001
ACDBBLOCKREPETAG
1070
     1
1071
      157
1005
124E55
  0
LINE
  5
124E56
  8
OBJECT
 10
12073.0
 20
-533.99999999999955
 30
0.0
 11
12070.0
 21
-533.99999999999955
 31
0.0
1001
ACDBBLOCKREPETAG
1070
     1
1071
        1
1005
124E56
  0
ARC
  5
124E57
  8
OBJECT
 10
12073.0
 20
-536.99999999999955
 30
0.0
 40
3.0
 50
0.0
 51
90.0
1001
ACDBBLOCKREPETAG
1070
     1
1071
        2
1005
124E57
  0
LINE
  5
124E58
  8
OBJECT
 10
12070.0
 20
-657.99999999999955
 30
0.0
 11
12073.0
 21
-657.99999999999955
 31
0.0
1001
ACDBBLOCKREPETAG
1070
     1
1071
        3
1005
124E58
  0
ARC
  5
124E59
  8
OBJECT
 10
12073.0
 20
-654.99999999999966
 30
0.0
 40
3.0
 50
270.0
 51
0.0
1001
ACDBBLOCKREPETAG
1070
     1
1071
        4
1005
124E59
  0
LINE
  5
124E5A
  8
OBJECT
 10
12076.0
 20
-654.99999999999966
 30
0.0
 11
12076.0
 21
-536.99999999999955
 31
0.0
1001
ACDBBLOCKREPETAG
1070
     1
1071
        5
1005
124E5A
  0
LINE
  5
124E5B
  8
CENTER
 10
12091.0
 20
-199.99999999999909
 30
0.0
 11
12070.0
 21
-199.99999999999909
 31
0.0
1001
ACDBBLOCKREPETAG
1070
     1
1071
        0
1005
124E5B
  0
LINE
  5
124E5C
  8
OBJECT
 10
12073.0
 20
-137.99999999999909
 30
0.0
 11
12070.0
 21
-137.99999999999909
 31
0.0
1001
ACDBBLOCKREPETAG
1070
     1
1071
        1
1005
124E5C
  0
ARC
  5
124E5D
  8
OBJECT
 10
12073.0
 20
-140.99999999999909
 30
0.0
 40
3.0
 50
0.0
 51
90.0
1001
ACDBBLOCKREPETAG
1070
     1
1071
        2
1005
124E5D
  0
LINE
  5
124E5E
  8
OBJECT
 10
12070.0
 20
-261.99999999999909
 30
0.0
 11
12073.0
 21
-261.99999999999909
 31
0.0
1001
ACDBBLOCKREPETAG
1070
     1
1071
        3
1005
124E5E
  0
ARC
  5
124E5F
  8
OBJECT
 10
12073.0
 20
-258.99999999999909
 30
0.0
 40
3.0
 50
270.0
 51
0.0
1001
ACDBBLOCKREPETAG
1070
     1
1071
        4
1005
124E5F
  0
LINE
  5
124E60
  8
OBJECT
 10
12076.0
 20
-258.99999999999909
 30
0.0
 11
12076.0
 21
-140.99999999999909
 31
0.0
1001
ACDBBLOCKREPETAG
1070
     1
1071
        5
1005
124E60
  0
LINE
  5
124E61
  8
OBJECT
 10
9927.0
 20
-533.99999999999955
 30
0.0
 11
9930.0
 21
-533.99999999999955
 31
0.0
1001
ACDBBLOCKREPETAG
1070
     1
1071
        1
1005
124E61
  0
ARC
  5
124E62
  8
OBJECT
 10
9927.0
 20
-536.99999999999955
 30
0.0
 40
3.0
 50
90.0
 51
180.0
1001
ACDBBLOCKREPETAG
1070
     1
1071
        2
1005
124E62
  0
LINE
  5
124E63
  8
OBJECT
 10
9930.0
 20
-657.99999999999955
 30
0.0
 11
9927.0
 21
-657.99999999999955
 31
0.0
1001
ACDBBLOCKREPETAG
1070
     1
1071
        3
1005
124E63
  0
ARC
  5
124E64
  8
OBJECT
 10
9927.0
 20
-654.99999999999966
 30
0.0
 40
3.0
 50
180.0
 51
270.0
1001
ACDBBLOCKREPETAG
1070
     1
1071
        4
1005
124E64
  0
LINE
  5
124E65
  8
OBJECT
 10
9924.0
 20
-654.99999999999966
 30
0.0
 11
9924.0
 21
-536.99999999999955
 31
0.0
1001
ACDBBLOCKREPETAG
1070
     1
1071
        5
1005
124E65
  0
CIRCLE
  5
124E66
  8
OBJECT
 10
10000.0
 20
-596.0
 30
0.0
 40
62.0
1001
ACDBBLOCKREPETAG
1070
     1
1071
        0
1005
124E66
  0
LINE
  5
124E67
  8
OBJECT
 10
9935.0
 20
-449.99999999999937
 30
0.0
 11
9935.0
 21
-470.99999999999937
 31
0.0
1001
ACDBBLOCKREPETAG
1070
     1
1071
       16
1005
124E67
  0
LINE
  5
124E68
  8
OBJECT
 10
9935.0
 20
-470.99999999999937
 30
0.0
 11
10065.0
 21
-470.99999999999937
 31
0.0
1001
ACDBBLOCKREPETAG
1070
     1
1071
       17
1005
124E68
  0
LINE
  5
124E69
  8
OBJECT
 10
10065.0
 20
-470.99999999999937
 30
0.0
 11
10065.0
 21
-449.99999999999937
 31
0.0
1001
ACDBBLOCKREPETAG
1070
     1
1071
       18
1005
124E69
  0
LINE
  5
124E6A
  8
OBJECT
 10
10065.0
 20
-449.99999999999937
 30
0.0
 11
9935.0
 21
-449.99999999999937
 31
0.0
1001
ACDBBLOCKREPETAG
1070
     1
1071
       19
1005
124E6A
  0
LINE
  5
124E6B
  8
HIDDEN
 10
10044.5
 20
-519.99999999999955
 30
0.0
 11
9955.5
 21
-519.99999999999955
 31
0.0
1001
ACDBBLOCKREPETAG
1070
     1
1071
       20
1005
124E6B
  0
LINE
  5
124E6C
  8
CENTER
 10
10000.0
 20
-669.99999999999955
 30
0.0
 11
10000.0
 21
-434.99999999999949
 31
0.0
1001
ACDBBLOCKREPETAG
1070
     1
1071
       21
1005
124E6C
  0
LINE
  5
124E6D
  8
OBJECT
 10
9940.5
 20
-470.99999999999937
 30
0.0
 11
9940.5
 21
-533.99999999999955
 31
0.0
1001
ACDBBLOCKREPETAG
1070
     1
1071
       22
1005
124E6D
  0
LINE
  5
124E6E
  8
OBJECT
 10
9930.0
 20
-533.99999999999955
 30
0.0
 11
10070.0
 21
-533.99999999999955
 31
0.0
1001
ACDBBLOCKREPETAG
1070
     1
1071
       23
1005
124E6E
  0
LINE
  5
124E6F
  8
OBJECT
 10
10059.5
 20
-533.99999999999955
 30
0.0
 11
10059.5
 21
-470.99999999999937
 31
0.0
1001
ACDBBLOCKREPETAG
1070
     1
1071
       24
1005
124E6F
  0
LINE
  5
124E70
  8
OBJECT
 10
9930.0
 20
-657.99999999999955
 30
0.0
 11
9930.0
 21
-669.99999999999955
 31
0.0
1001
ACDBBLOCKREPETAG
1070
     1
1071
       25
1005
124E70
  0
LINE
  5
124E71
  8
OBJECT
 10
9930.0
 20
-669.99999999999955
 30
0.0
 11
10070.0
 21
-669.99999999999955
 31
0.0
1001
ACDBBLOCKREPETAG
1070
     1
1071
       26
1005
124E71
  0
LINE
  5
124E72
  8
OBJECT
 10
10070.0
 20
-669.99999999999955
 30
0.0
 11
10070.0
 21
-657.99999999999955
 31
0.0
1001
ACDBBLOCKREPETAG
1070
     1
1071
       27
1005
124E72
  0
LINE
  5
124E73
  8
OBJECT
 10
10070.0
 20
-657.99999999999955
 30
0.0
 11
9930.0
 21
-657.99999999999955
 31
0.0
1001
ACDBBLOCKREPETAG
1070
     1
1071
       28
1005
124E73
  0
ARC
  5
124E74
  8
OBJECT
 10
10435.03843899467
 20
-898.60813684682694
 30
0.0
 40
519.48776673616965
 50
135.42350667430969
 51
138.50052655621499
1001
ACDBBLOCKREPETAG
1070
     1
1071
       32
1005
124E74
  0
ARC
  5
124E75
  8
OBJECT
 10
10435.03843899467
 20
-293.39186315317193
 30
0.0
 40
519.48776673616965
 50
221.49947344378501
 51
224.57649332569039
1001
ACDBBLOCKREPETAG
1070
     1
1071
       33
1005
124E75
  0
ARC
  5
124E76
  8
OBJECT
 10
9564.9615610053243
 20
-898.60813684682694
 30
0.0
 40
519.48776673616965
 50
41.499473443784993
 51
44.576493325690237
1001
ACDBBLOCKREPETAG
1070
     1
1071
       34
1005
124E76
  0
ARC
  5
124E77
  8
OBJECT
 10
9564.9615610053243
 20
-293.39186315317193
 30
0.0
 40
519.48776673616965
 50
315.42350667430981
 51
318.50052655621488
1001
ACDBBLOCKREPETAG
1070
     1
1071
       35
1005
124E77
  0
POINT
  5
124E78
  8
DOTS
 10
10000.0
 20
-654.99999999999966
 30
0.0
1001
ACDBBLOCKREPETAG
1070
     1
1071
      111
1005
124E78
  0
LINE
  5
124E79
  8
CENTER
 10
9909.0
 20
-199.99999999999909
 30
0.0
 11
9930.0
 21
-199.99999999999909
 31
0.0
1001
ACDBBLOCKREPETAG
1070
     1
1071
        0
1005
124E79
  0
LINE
  5
124E7A
  8
OBJECT
 10
9927.0
 20
-261.99999999999909
 30
0.0
 11
9930.0
 21
-261.99999999999909
 31
0.0
1001
ACDBBLOCKREPETAG
1070
     1
1071
        1
1005
124E7A
  0
ARC
  5
124E7B
  8
OBJECT
 10
9927.0
 20
-258.99999999999909
 30
0.0
 40
3.0
 50
180.0
 51
270.0
1001
ACDBBLOCKREPETAG
1070
     1
1071
        2
1005
124E7B
  0
LINE
  5
124E7C
  8
OBJECT
 10
9930.0
 20
-137.99999999999909
 30
0.0
 11
9927.0
 21
-137.99999999999909
 31
0.0
1001
ACDBBLOCKREPETAG
1070
     1
1071
        3
1005
124E7C
  0
ARC
  5
124E7D
  8
OBJECT
 10
9927.0
 20
-140.99999999999909
 30
0.0
 40
3.0
 50
90.0
 51
180.0
1001
ACDBBLOCKREPETAG
1070
     1
1071
        4
1005
124E7D
  0
LINE
  5
124E7E
  8
OBJECT
 10
9924.0
 20
-140.99999999999909
 30
0.0
 11
9924.0
 21
-258.99999999999909
 31
0.0
1001
ACDBBLOCKREPETAG
1070
     1
1071
        5
1005
124E7E
  0
LINE
  5
124E7F
  8
CENTER
 10
10000.0
 20
-290.99999999999898
 30
0.0
 11
10000.0
 21
-269.99999999999909
 31
0.0
1001
ACDBBLOCKREPETAG
1070
     1
1071
        0
1005
124E7F
  0
LINE
  5
124E80
  8
OBJECT
 10
10062.0
 20
-273.0
 30
0.0
 11
10062.0
 21
-269.99999999999909
 31
0.0
1001
ACDBBLOCKREPETAG
1070
     1
1071
        1
1005
124E80
  0
ARC
  5
124E81
  8
OBJECT
 10
10059.0
 20
-273.0
 30
0.0
 40
3.0
 50
270.0
 51
0.0
1001
ACDBBLOCKREPETAG
1070
     1
1071
        2
1005
124E81
  0
LINE
  5
124E82
  8
OBJECT
 10
9938.0
 20
-269.99999999999909
 30
0.0
 11
9938.0
 21
-272.99999999999818
 31
0.0
1001
ACDBBLOCKREPETAG
1070
     1
1071
        3
1005
124E82
  0
ARC
  5
124E83
  8
OBJECT
 10
9941.0
 20
-272.99999999999818
 30
0.0
 40
3.0
 50
180.0
 51
270.0
1001
ACDBBLOCKREPETAG
1070
     1
1071
        4
1005
124E83
  0
LINE
  5
124E84
  8
OBJECT
 10
9941.0
 20
-275.99999999999818
 30
0.0
 11
10059.0
 21
-276.0
 31
0.0
1001
ACDBBLOCKREPETAG
1070
     1
1071
        5
1005
124E84
  0
LINE
  5
124E85
  8
SLIM
 10
9963.2171826682406
 20
-137.99999999999909
 30
0.0
 11
9969.9215079962923
 21
-131.29567467194681
 31
0.0
1001
GRADIENTCOLOR1ACI
1070
     5
1001
GRADIENTCOLOR2ACI
1070
     2
1001
ACAD
1010
0.0
1020
0.0
1030
0.0
1001
ACDBBLOCKREPETAG
1070
     1
1071
      169
1005
124E85
  0
LINE
  5
124E86
  8
SLIM
 10
9972.1974387893097
 20
-137.99999999999909
 30
0.0
 11
9983.3188363327517
 21
-126.87860245655401
 31
0.0
1001
GRADIENTCOLOR1ACI
1070
     5
1001
GRADIENTCOLOR2ACI
1070
     2
1001
ACAD
1010
0.0
1020
0.0
1030
0.0
1001
ACDBBLOCKREPETAG
1070
     1
1071
      170
1005
124E86
  0
LINE
  5
124E87
  8
SLIM
 10
9981.4849372887638
 20
-137.6927576216126
 30
0.0
 11
9993.9318052485996
 21
-125.245889661777
 31
0.0
1001
GRADIENTCOLOR1ACI
1070
     5
1001
GRADIENTCOLOR2ACI
1070
     2
1001
ACAD
1010
0.0
1020
0.0
1030
0.0
1001
ACDBBLOCKREPETAG
1070
     1
1071
      171
1005
124E87
  0
LINE
  5
124E88
  8
SLIM
 10
9992.7526568280355
 20
-135.40529420341099
 30
0.0
 11
10000.0
 21
-128.1579510314458
 31
0.0
1001
GRADIENTCOLOR1ACI
1070
     5
1001
GRADIENTCOLOR2ACI
1070
     2
1001
ACAD
1010
0.0
1020
0.0
1030
0.0
1001
ACDBBLOCKREPETAG
1070
     1
1071
      172
1005
124E88
  0
LINE
  5
124E89
  8
SLIM
 10
10000.0
 20
-128.1579510314458
 30
0.0
 11
10003.09410078785
 21
-125.0638502435924
 31
0.0
1001
GRADIENTCOLOR1ACI
1070
     5
1001
GRADIENTCOLOR2ACI
1070
     2
1001
ACAD
1010
0.0
1020
0.0
1030
0.0
1001
ACDBBLOCKREPETAG
1070
     1
1071
      173
1005
124E89
  0
LINE
  5
124E8A
  8
SLIM
 10
10002.10414122347
 20
-135.03406592904389
 30
0.0
 11
10011.28442576865
 21
-125.85378138386341
 31
0.0
1001
GRADIENTCOLOR1ACI
1070
     5
1001
GRADIENTCOLOR2ACI
1070
     2
1001
ACAD
1010
0.0
1020
0.0
1030
0.0
1001
ACDBBLOCKREPETAG
1070
     1
1071
      174
1005
124E8A
  0
LINE
  5
124E8B
  8
SLIM
 10
10010.297585520921
 20
-135.82087775265759
 30
0.0
 11
10018.73958846552
 21
-127.3788748080627
 31
0.0
1001
GRADIENTCOLOR1ACI
1070
     5
1001
GRADIENTCOLOR2ACI
1070
     2
1001
ACAD
1010
0.0
1020
0.0
1030
0.0
1001
ACDBBLOCKREPETAG
1070
     1
1071
      175
1005
124E8B
  0
LINE
  5
124E8C
  8
SLIM
 10
10017.65507936422
 20
-137.4436400304258
 30
0.0
 11
10025.595886626959
 21
-129.50283276769261
 31
0.0
1001
GRADIENTCOLOR1ACI
1070
     5
1001
GRADIENTCOLOR2ACI
1070
     2
1001
ACAD
1010
0.0
1020
0.0
1030
0.0
1001
ACDBBLOCKREPETAG
1070
     1
1071
      176
1005
124E8C
  0
LINE
  5
124E8D
  8
SLIM
 10
10026.07897551572
 20
-137.99999999999909
 30
0.0
 11
10031.9385859461
 21
-132.1403895696169
 31
0.0
1001
GRADIENTCOLOR1ACI
1070
     5
1001
GRADIENTCOLOR2ACI
1070
     2
1001
ACAD
1010
0.0
1020
0.0
1030
0.0
1001
ACDBBLOCKREPETAG
1070
     1
1071
      177
1005
124E8D
  0
LINE
  5
124E8E
  8
SLIM
 10
10035.05923163678
 20
-137.99999999999909
 30
0.0
 11
10037.82336543762
 21
-135.23586619916779
 31
0.0
1001
GRADIENTCOLOR1ACI
1070
     5
1001
GRADIENTCOLOR2ACI
1070
     2
1001
ACAD
1010
0.0
1020
0.0
1030
0.0
1001
ACDBBLOCKREPETAG
1070
     1
1071
      178
1005
124E8E
  0
CIRCLE
  5
124E8F
  8
OBJECT
 10
10000.0
 20
-199.99999999999909
 30
0.0
 40
65.0
1001
ACDBBLOCKREPETAG
1070
     1
1071
       84
1005
124E8F
  0
CIRCLE
  5
124E90
  8
OBJECT
 10
10000.0
 20
-199.99999999999909
 30
0.0
 40
41.0
1001
ACDBBLOCKREPETAG
1070
     1
1071
       85
1005
124E90
  0
CIRCLE
  5
124E91
  8
OBJECT
 10
10000.0
 20
-199.99999999999909
 30
0.0
 40
58.0
1001
ACDBBLOCKREPETAG
1070
     1
1071
       86
1005
124E91
  0
LINE
  5
124E92
  8
OBJECT
 10
10070.0
 20
-137.99999999999909
 30
0.0
 11
10019.519221295939
 21
-137.99999999999909
 31
0.0
1001
ACDBBLOCKREPETAG
1070
     1
1071
       87
1005
124E92
  0
LINE
  5
124E93
  8
OBJECT
 10
9930.0
 20
-137.99999999999909
 30
0.0
 11
9980.4807787040572
 21
-137.99999999999909
 31
0.0
1001
ACDBBLOCKREPETAG
1070
     1
1071
       88
1005
124E93
  0
LINE
  5
124E94
  8
OBJECT
 10
9930.0
 20
-261.99999999999909
 30
0.0
 11
9938.0
 21
-261.99999999999909
 31
0.0
1001
ACDBBLOCKREPETAG
1070
     1
1071
       89
1005
124E94
  0
LINE
  5
124E95
  8
OBJECT
 10
9938.0
 20
-269.99999999999909
 30
0.0
 11
9938.0
 21
-261.99999999999909
 31
0.0
1001
ACDBBLOCKREPETAG
1070
     1
1071
       90
1005
124E95
  0
LINE
  5
124E96
  8
OBJECT
 10
10070.0
 20
-261.99999999999909
 30
0.0
 11
10062.0
 21
-261.99999999999909
 31
0.0
1001
ACDBBLOCKREPETAG
1070
     1
1071
       91
1005
124E96
  0
LINE
  5
124E97
  8
OBJECT
 10
10062.0
 20
-269.99999999999909
 30
0.0
 11
10062.0
 21
-261.99999999999909
 31
0.0
1001
ACDBBLOCKREPETAG
1070
     1
1071
       92
1005
124E97
  0
LINE
  5
124E98
  8
CENTER
 10
9930.0
 20
-199.99999999999909
 30
0.0
 11
10070.0
 21
-199.99999999999909
 31
0.0
1001
ACDBBLOCKREPETAG
1070
     1
1071
       93
1005
124E98
  0
LINE
  5
124E99
  8
CENTER
 10
10000.0
 20
-269.99999999999909
 30
0.0
 11
10000.0
 21
-109.9999999999991
 31
0.0
1001
ACDBBLOCKREPETAG
1070
     1
1071
       94
1005
124E99
  0
ARC
  5
124E9A
  8
OBJECT
 10
9989.9027621391888
 20
-224.44352901899131
 30
0.0
 40
7.0
 50
73.00127222950276
 51
154.0502587892864
1001
ACDBBLOCKREPETAG
1070
     1
1071
       95
1005
124E9A
  0
ARC
  5
124E9B
  8
OBJECT
 10
9986.8376610706546
 20
-225.5978773169509
 30
0.0
 40
9.0
 50
73.00127222950276
 51
154.0502639259247
1001
ACDBBLOCKREPETAG
1070
     1
1071
       96
1005
124E9B
  0
ARC
  5
124E9C
  8
OBJECT
 10
9896.3142301315547
 20
-147.28130031148149
 30
0.0
 40
150.0
 50
322.8950337398245
 51
325.8931499695608
1001
ACDBBLOCKREPETAG
1070
     1
1071
       97
1005
124E9C
  0
ARC
  5
124E9D
  8
OBJECT
 10
10000.0
 20
-199.99999999999909
 30
0.0
 40
37.5
 50
303.16276667665232
 51
229.16350249104781
1001
ACDBBLOCKREPETAG
1070
     1
1071
       98
1005
124E9D
  0
LINE
  5
124E9E
  8
OBJECT
 10
9983.6085145189809
 20
-221.38045100897119
 30
0.0
 11
9977.3740110000017
 21
-234.1915870000002
 31
0.0
1001
ACDBBLOCKREPETAG
1070
     1
1071
       99
1005
124E9E
  0
LINE
  5
124E9F
  8
OBJECT
 10
9978.7450566344633
 20
-221.65963488670511
 30
0.0
 11
9973.8986720000048
 21
-231.6183599999996
 31
0.0
1001
ACDBBLOCKREPETAG
1070
     1
1071
      100
1005
124E9F
  0
LINE
  5
124EA0
  8
OBJECT
 10
10018.938018000001
 20
-226.00000000000091
 30
0.0
 11
9989.4688153032548
 21
-216.99107608744359
 31
0.0
1001
ACDBBLOCKREPETAG
1070
     1
1071
      101
1005
124EA0
  0
LINE
  5
124EA1
  8
OBJECT
 10
10020.513225309
 20
-231.39199878029191
 30
0.0
 11
10018.938018000001
 21
-226.00000000000091
 31
0.0
1001
ACDBBLOCKREPETAG
1070
     1
1071
      102
1005
124EA1
  0
LINE
  5
124EA2
  8
OBJECT
 10
9954.0380592228739
 20
-245.96194077712289
 30
0.0
 11
9938.0
 21
-261.99999999999909
 31
0.0
1001
ACDBBLOCKREPETAG
1070
     1
1071
      106
1005
124EA2
  0
LINE
  5
124EA3
  8
OBJECT
 10
10045.96194077713
 20
-245.96194077712289
 30
0.0
 11
10062.0
 21
-261.99999999999909
 31
0.0
1001
ACDBBLOCKREPETAG
1070
     1
1071
      107
1005
124EA3
  0
ARC
  5
124EA4
  8
OBJECT
 10
10000.0
 20
-199.99999999999909
 30
0.0
 40
75.0
 50
55.757831297238091
 51
124.2421687027619
1001
ACDBBLOCKREPETAG
1070
     1
1071
      108
1005
124EA4
  0
POINT
  5
124EA5
  8
DOTS
 10
10000.0
 20
-199.99999999999909
 30
0.0
 50
270.0
1001
ACDBBLOCKREPETAG
1070
     1
1071
      157
1005
124EA5
  0
LINE
  5
124EA6
  8
OBJECT
 10
10073.0
 20
-533.99999999999955
 30
0.0
 11
10070.0
 21
-533.99999999999955
 31
0.0
1001
ACDBBLOCKREPETAG
1070
     1
1071
        1
1005
124EA6
  0
ARC
  5
124EA7
  8
OBJECT
 10
10073.0
 20
-536.99999999999955
 30
0.0
 40
3.0
 50
0.0
 51
90.0
1001
ACDBBLOCKREPETAG
1070
     1
1071
        2
1005
124EA7
  0
LINE
  5
124EA8
  8
OBJECT
 10
10070.0
 20
-657.99999999999955
 30
0.0
 11
10073.0
 21
-657.99999999999955
 31
0.0
1001
ACDBBLOCKREPETAG
1070
     1
1071
        3
1005
124EA8
  0
ARC
  5
124EA9
  8
OBJECT
 10
10073.0
 20
-654.99999999999966
 30
0.0
 40
3.0
 50
270.0
 51
0.0
1001
ACDBBLOCKREPETAG
1070
     1
1071
        4
1005
124EA9
  0
LINE
  5
124EAA
  8
OBJECT
 10
10076.0
 20
-654.99999999999966
 30
0.0
 11
10076.0
 21
-536.99999999999955
 31
0.0
1001
ACDBBLOCKREPETAG
1070
     1
1071
        5
1005
124EAA
  0
LINE
  5
124EAB
  8
CENTER
 10
10091.0
 20
-199.99999999999909
 30
0.0
 11
10070.0
 21
-199.99999999999909
 31
0.0
1001
ACDBBLOCKREPETAG
1070
     1
1071
        0
1005
124EAB
  0
LINE
  5
124EAC
  8
OBJECT
 10
10073.0
 20
-137.99999999999909
 30
0.0
 11
10070.0
 21
-137.99999999999909
 31
0.0
1001
ACDBBLOCKREPETAG
1070
     1
1071
        1
1005
124EAC
  0
ARC
  5
124EAD
  8
OBJECT
 10
10073.0
 20
-140.99999999999909
 30
0.0
 40
3.0
 50
0.0
 51
90.0
1001
ACDBBLOCKREPETAG
1070
     1
1071
        2
1005
124EAD
  0
LINE
  5
124EAE
  8
OBJECT
 10
10070.0
 20
-261.99999999999909
 30
0.0
 11
10073.0
 21
-261.99999999999909
 31
0.0
1001
ACDBBLOCKREPETAG
1070
     1
1071
        3
1005
124EAE
  0
ARC
  5
124EAF
  8
OBJECT
 10
10073.0
 20
-258.99999999999909
 30
0.0
 40
3.0
 50
270.0
 51
0.0
1001
ACDBBLOCKREPETAG
1070
     1
1071
        4
1005
124EAF
  0
LINE
  5
124EB0
  8
OBJECT
 10
10076.0
 20
-258.99999999999909
 30
0.0
 11
10076.0
 21
-140.99999999999909
 31
0.0
1001
ACDBBLOCKREPETAG
1070
     1
1071
        5
1005
124EB0
  0
LINE
  5
124EB1
  8
OBJECT
 10
7927.0
 20
-533.99999999999955
 30
0.0
 11
7930.0
 21
-533.99999999999955
 31
0.0
1001
ACDBBLOCKREPETAG
1070
     1
1071
        1
1005
124EB1
  0
ARC
  5
124EB2
  8
OBJECT
 10
7927.0
 20
-536.99999999999955
 30
0.0
 40
3.0
 50
90.0
 51
180.0
1001
ACDBBLOCKREPETAG
1070
     1
1071
        2
1005
124EB2
  0
LINE
  5
124EB3
  8
OBJECT
 10
7930.0
 20
-657.99999999999955
 30
0.0
 11
7927.0
 21
-657.99999999999955
 31
0.0
1001
ACDBBLOCKREPETAG
1070
     1
1071
        3
1005
124EB3
  0
ARC
  5
124EB4
  8
OBJECT
 10
7927.0
 20
-654.99999999999966
 30
0.0
 40
3.0
 50
180.0
 51
270.0
1001
ACDBBLOCKREPETAG
1070
     1
1071
        4
1005
124EB4
  0
LINE
  5
124EB5
  8
OBJECT
 10
7924.0
 20
-654.99999999999966
 30
0.0
 11
7924.0
 21
-536.99999999999955
 31
0.0
1001
ACDBBLOCKREPETAG
1070
     1
1071
        5
1005
124EB5
  0
CIRCLE
  5
124EB6
  8
OBJECT
 10
8000.0
 20
-596.0
 30
0.0
 40
62.0
1001
ACDBBLOCKREPETAG
1070
     1
1071
        0
1005
124EB6
  0
LINE
  5
124EB7
  8
OBJECT
 10
7935.0
 20
-449.99999999999937
 30
0.0
 11
7935.0
 21
-470.99999999999937
 31
0.0
1001
ACDBBLOCKREPETAG
1070
     1
1071
       16
1005
124EB7
  0
LINE
  5
124EB8
  8
OBJECT
 10
7935.0
 20
-470.99999999999937
 30
0.0
 11
8065.0
 21
-470.99999999999937
 31
0.0
1001
ACDBBLOCKREPETAG
1070
     1
1071
       17
1005
124EB8
  0
LINE
  5
124EB9
  8
OBJECT
 10
8065.0
 20
-470.99999999999937
 30
0.0
 11
8065.0
 21
-449.99999999999937
 31
0.0
1001
ACDBBLOCKREPETAG
1070
     1
1071
       18
1005
124EB9
  0
LINE
  5
124EBA
  8
OBJECT
 10
8065.0
 20
-449.99999999999937
 30
0.0
 11
7935.0
 21
-449.99999999999937
 31
0.0
1001
ACDBBLOCKREPETAG
1070
     1
1071
       19
1005
124EBA
  0
LINE
  5
124EBB
  8
HIDDEN
 10
8044.5000000000036
 20
-519.99999999999955
 30
0.0
 11
7955.5
 21
-519.99999999999955
 31
0.0
1001
ACDBBLOCKREPETAG
1070
     1
1071
       20
1005
124EBB
  0
LINE
  5
124EBC
  8
CENTER
 10
8000.0
 20
-669.99999999999955
 30
0.0
 11
8000.0
 21
-434.99999999999949
 31
0.0
1001
ACDBBLOCKREPETAG
1070
     1
1071
       21
1005
124EBC
  0
LINE
  5
124EBD
  8
OBJECT
 10
7940.5
 20
-470.99999999999937
 30
0.0
 11
7940.5
 21
-533.99999999999955
 31
0.0
1001
ACDBBLOCKREPETAG
1070
     1
1071
       22
1005
124EBD
  0
LINE
  5
124EBE
  8
OBJECT
 10
7930.0
 20
-533.99999999999955
 30
0.0
 11
8070.0
 21
-533.99999999999955
 31
0.0
1001
ACDBBLOCKREPETAG
1070
     1
1071
       23
1005
124EBE
  0
LINE
  5
124EBF
  8
OBJECT
 10
8059.4999999999982
 20
-533.99999999999955
 30
0.0
 11
8059.4999999999982
 21
-470.99999999999937
 31
0.0
1001
ACDBBLOCKREPETAG
1070
     1
1071
       24
1005
124EBF
  0
LINE
  5
124EC0
  8
OBJECT
 10
7930.0
 20
-657.99999999999955
 30
0.0
 11
7930.0
 21
-669.99999999999955
 31
0.0
1001
ACDBBLOCKREPETAG
1070
     1
1071
       25
1005
124EC0
  0
LINE
  5
124EC1
  8
OBJECT
 10
7930.0
 20
-669.99999999999955
 30
0.0
 11
8070.0
 21
-669.99999999999955
 31
0.0
1001
ACDBBLOCKREPETAG
1070
     1
1071
       26
1005
124EC1
  0
LINE
  5
124EC2
  8
OBJECT
 10
8070.0
 20
-669.99999999999955
 30
0.0
 11
8070.0
 21
-657.99999999999955
 31
0.0
1001
ACDBBLOCKREPETAG
1070
     1
1071
       27
1005
124EC2
  0
LINE
  5
124EC3
  8
OBJECT
 10
8070.0
 20
-657.99999999999955
 30
0.0
 11
7930.0
 21
-657.99999999999955
 31
0.0
1001
ACDBBLOCKREPETAG
1070
     1
1071
       28
1005
124EC3
  0
ARC
  5
124EC4
  8
OBJECT
 10
8435.0384389946794
 20
-898.60813684682694
 30
0.0
 40
519.48776673616965
 50
135.42350667430969
 51
138.50052655621499
1001
ACDBBLOCKREPETAG
1070
     1
1071
       32
1005
124EC4
  0
ARC
  5
124EC5
  8
OBJECT
 10
8435.0384389946794
 20
-293.39186315317193
 30
0.0
 40
519.48776673616965
 50
221.49947344378501
 51
224.57649332569039
1001
ACDBBLOCKREPETAG
1070
     1
1071
       33
1005
124EC5
  0
ARC
  5
124EC6
  8
OBJECT
 10
7564.9615610053233
 20
-898.60813684682694
 30
0.0
 40
519.48776673616965
 50
41.499473443784993
 51
44.576493325690237
1001
ACDBBLOCKREPETAG
1070
     1
1071
       34
1005
124EC6
  0
ARC
  5
124EC7
  8
OBJECT
 10
7564.9615610053233
 20
-293.39186315317193
 30
0.0
 40
519.48776673616965
 50
315.42350667430981
 51
318.50052655621488
1001
ACDBBLOCKREPETAG
1070
     1
1071
       35
1005
124EC7
  0
POINT
  5
124EC8
  8
DOTS
 10
8000.0
 20
-654.99999999999966
 30
0.0
1001
ACDBBLOCKREPETAG
1070
     1
1071
      111
1005
124EC8
  0
LINE
  5
124EC9
  8
CENTER
 10
7909.0
 20
-199.99999999999909
 30
0.0
 11
7930.0
 21
-199.99999999999909
 31
0.0
1001
ACDBBLOCKREPETAG
1070
     1
1071
        0
1005
124EC9
  0
LINE
  5
124ECA
  8
OBJECT
 10
7927.0
 20
-261.99999999999909
 30
0.0
 11
7930.0
 21
-261.99999999999909
 31
0.0
1001
ACDBBLOCKREPETAG
1070
     1
1071
        1
1005
124ECA
  0
ARC
  5
124ECB
  8
OBJECT
 10
7927.0
 20
-258.99999999999909
 30
0.0
 40
3.0
 50
180.0
 51
270.0
1001
ACDBBLOCKREPETAG
1070
     1
1071
        2
1005
124ECB
  0
LINE
  5
124ECC
  8
OBJECT
 10
7930.0
 20
-137.99999999999909
 30
0.0
 11
7927.0
 21
-137.99999999999909
 31
0.0
1001
ACDBBLOCKREPETAG
1070
     1
1071
        3
1005
124ECC
  0
ARC
  5
124ECD
  8
OBJECT
 10
7927.0
 20
-140.99999999999909
 30
0.0
 40
3.0
 50
90.0
 51
180.0
1001
ACDBBLOCKREPETAG
1070
     1
1071
        4
1005
124ECD
  0
LINE
  5
124ECE
  8
OBJECT
 10
7924.0
 20
-140.99999999999909
 30
0.0
 11
7924.0
 21
-258.99999999999909
 31
0.0
1001
ACDBBLOCKREPETAG
1070
     1
1071
        5
1005
124ECE
  0
LINE
  5
124ECF
  8
CENTER
 10
8000.0
 20
-290.99999999999898
 30
0.0
 11
8000.0
 21
-269.99999999999909
 31
0.0
1001
ACDBBLOCKREPETAG
1070
     1
1071
        0
1005
124ECF
  0
LINE
  5
124ED0
  8
OBJECT
 10
8062.0
 20
-273.0
 30
0.0
 11
8062.0
 21
-269.99999999999909
 31
0.0
1001
ACDBBLOCKREPETAG
1070
     1
1071
        1
1005
124ED0
  0
ARC
  5
124ED1
  8
OBJECT
 10
8059.0
 20
-273.0
 30
0.0
 40
3.0
 50
270.0
 51
0.0
1001
ACDBBLOCKREPETAG
1070
     1
1071
        2
1005
124ED1
  0
LINE
  5
124ED2
  8
OBJECT
 10
7938.0
 20
-269.99999999999909
 30
0.0
 11
7938.0
 21
-272.99999999999818
 31
0.0
1001
ACDBBLOCKREPETAG
1070
     1
1071
        3
1005
124ED2
  0
ARC
  5
124ED3
  8
OBJECT
 10
7941.0
 20
-272.99999999999818
 30
0.0
 40
3.0
 50
180.0
 51
270.0
1001
ACDBBLOCKREPETAG
1070
     1
1071
        4
1005
124ED3
  0
LINE
  5
124ED4
  8
OBJECT
 10
7941.0
 20
-275.99999999999818
 30
0.0
 11
8059.0
 21
-276.0
 31
0.0
1001
ACDBBLOCKREPETAG
1070
     1
1071
        5
1005
124ED4
  0
LINE
  5
124ED5
  8
SLIM
 10
7963.2171826682388
 20
-137.99999999999909
 30
0.0
 11
7969.9215079962914
 21
-131.29567467194681
 31
0.0
1001
GRADIENTCOLOR1ACI
1070
     5
1001
GRADIENTCOLOR2ACI
1070
     2
1001
ACAD
1010
0.0
1020
0.0
1030
0.0
1001
ACDBBLOCKREPETAG
1070
     1
1071
      169
1005
124ED5
  0
LINE
  5
124ED6
  8
SLIM
 10
7972.1974387893079
 20
-137.99999999999909
 30
0.0
 11
7983.3188363327517
 21
-126.87860245655401
 31
0.0
1001
GRADIENTCOLOR1ACI
1070
     5
1001
GRADIENTCOLOR2ACI
1070
     2
1001
ACAD
1010
0.0
1020
0.0
1030
0.0
1001
ACDBBLOCKREPETAG
1070
     1
1071
      170
1005
124ED6
  0
LINE
  5
124ED7
  8
SLIM
 10
7981.4849372887629
 20
-137.6927576216126
 30
0.0
 11
7993.9318052485969
 21
-125.245889661777
 31
0.0
1001
GRADIENTCOLOR1ACI
1070
     5
1001
GRADIENTCOLOR2ACI
1070
     2
1001
ACAD
1010
0.0
1020
0.0
1030
0.0
1001
ACDBBLOCKREPETAG
1070
     1
1071
      171
1005
124ED7
  0
LINE
  5
124ED8
  8
SLIM
 10
7992.7526568280337
 20
-135.40529420341099
 30
0.0
 11
8000.0
 21
-128.1579510314458
 31
0.0
1001
GRADIENTCOLOR1ACI
1070
     5
1001
GRADIENTCOLOR2ACI
1070
     2
1001
ACAD
1010
0.0
1020
0.0
1030
0.0
1001
ACDBBLOCKREPETAG
1070
     1
1071
      172
1005
124ED8
  0
LINE
  5
124ED9
  8
SLIM
 10
8000.0
 20
-128.1579510314458
 30
0.0
 11
8003.0941007878528
 21
-125.0638502435924
 31
0.0
1001
GRADIENTCOLOR1ACI
1070
     5
1001
GRADIENTCOLOR2ACI
1070
     2
1001
ACAD
1010
0.0
1020
0.0
1030
0.0
1001
ACDBBLOCKREPETAG
1070
     1
1071
      173
1005
124ED9
  0
LINE
  5
124EDA
  8
SLIM
 10
8002.1041412234727
 20
-135.03406592904389
 30
0.0
 11
8011.284425768652
 21
-125.85378138386341
 31
0.0
1001
GRADIENTCOLOR1ACI
1070
     5
1001
GRADIENTCOLOR2ACI
1070
     2
1001
ACAD
1010
0.0
1020
0.0
1030
0.0
1001
ACDBBLOCKREPETAG
1070
     1
1071
      174
1005
124EDA
  0
LINE
  5
124EDB
  8
SLIM
 10
8010.297585520927
 20
-135.82087775265759
 30
0.0
 11
8018.7395884655189
 21
-127.3788748080627
 31
0.0
1001
GRADIENTCOLOR1ACI
1070
     5
1001
GRADIENTCOLOR2ACI
1070
     2
1001
ACAD
1010
0.0
1020
0.0
1030
0.0
1001
ACDBBLOCKREPETAG
1070
     1
1071
      175
1005
124EDB
  0
LINE
  5
124EDC
  8
SLIM
 10
8017.6550793642282
 20
-137.4436400304258
 30
0.0
 11
8025.5958866269621
 21
-129.50283276769261
 31
0.0
1001
GRADIENTCOLOR1ACI
1070
     5
1001
GRADIENTCOLOR2ACI
1070
     2
1001
ACAD
1010
0.0
1020
0.0
1030
0.0
1001
ACDBBLOCKREPETAG
1070
     1
1071
      176
1005
124EDC
  0
LINE
  5
124EDD
  8
SLIM
 10
8026.078975515723
 20
-137.99999999999909
 30
0.0
 11
8031.9385859461063
 21
-132.1403895696169
 31
0.0
1001
GRADIENTCOLOR1ACI
1070
     5
1001
GRADIENTCOLOR2ACI
1070
     2
1001
ACAD
1010
0.0
1020
0.0
1030
0.0
1001
ACDBBLOCKREPETAG
1070
     1
1071
      177
1005
124EDD
  0
LINE
  5
124EDE
  8
SLIM
 10
8035.0592316367947
 20
-137.99999999999909
 30
0.0
 11
8037.8233654376218
 21
-135.23586619916779
 31
0.0
1001
GRADIENTCOLOR1ACI
1070
     5
1001
GRADIENTCOLOR2ACI
1070
     2
1001
ACAD
1010
0.0
1020
0.0
1030
0.0
1001
ACDBBLOCKREPETAG
1070
     1
1071
      178
1005
124EDE
  0
CIRCLE
  5
124EDF
  8
OBJECT
 10
8000.0
 20
-199.99999999999909
 30
0.0
 40
65.0
1001
ACDBBLOCKREPETAG
1070
     1
1071
       84
1005
124EDF
  0
CIRCLE
  5
124EE0
  8
OBJECT
 10
8000.0
 20
-199.99999999999909
 30
0.0
 40
41.0
1001
ACDBBLOCKREPETAG
1070
     1
1071
       85
1005
124EE0
  0
CIRCLE
  5
124EE1
  8
OBJECT
 10
8000.0
 20
-199.99999999999909
 30
0.0
 40
58.0
1001
ACDBBLOCKREPETAG
1070
     1
1071
       86
1005
124EE1
  0
LINE
  5
124EE2
  8
OBJECT
 10
8070.0
 20
-137.99999999999909
 30
0.0
 11
8019.5192212959419
 21
-137.99999999999909
 31
0.0
1001
ACDBBLOCKREPETAG
1070
     1
1071
       87
1005
124EE2
  0
LINE
  5
124EE3
  8
OBJECT
 10
7930.0
 20
-137.99999999999909
 30
0.0
 11
7980.4807787040572
 21
-137.99999999999909
 31
0.0
1001
ACDBBLOCKREPETAG
1070
     1
1071
       88
1005
124EE3
  0
LINE
  5
124EE4
  8
OBJECT
 10
7930.0
 20
-261.99999999999909
 30
0.0
 11
7938.0
 21
-261.99999999999909
 31
0.0
1001
ACDBBLOCKREPETAG
1070
     1
1071
       89
1005
124EE4
  0
LINE
  5
124EE5
  8
OBJECT
 10
7938.0
 20
-269.99999999999909
 30
0.0
 11
7938.0
 21
-261.99999999999909
 31
0.0
1001
ACDBBLOCKREPETAG
1070
     1
1071
       90
1005
124EE5
  0
LINE
  5
124EE6
  8
OBJECT
 10
8070.0
 20
-261.99999999999909
 30
0.0
 11
8062.0
 21
-261.99999999999909
 31
0.0
1001
ACDBBLOCKREPETAG
1070
     1
1071
       91
1005
124EE6
  0
LINE
  5
124EE7
  8
OBJECT
 10
8062.0
 20
-269.99999999999909
 30
0.0
 11
8062.0
 21
-261.99999999999909
 31
0.0
1001
ACDBBLOCKREPETAG
1070
     1
1071
       92
1005
124EE7
  0
LINE
  5
124EE8
  8
CENTER
 10
7930.0
 20
-199.99999999999909
 30
0.0
 11
8070.0
 21
-199.99999999999909
 31
0.0
1001
ACDBBLOCKREPETAG
1070
     1
1071
       93
1005
124EE8
  0
LINE
  5
124EE9
  8
CENTER
 10
8000.0
 20
-269.99999999999909
 30
0.0
 11
8000.0
 21
-109.9999999999991
 31
0.0
1001
ACDBBLOCKREPETAG
1070
     1
1071
       94
1005
124EE9
  0
ARC
  5
124EEA
  8
OBJECT
 10
7989.902762139187
 20
-224.44352901899131
 30
0.0
 40
7.0
 50
73.00127222950276
 51
154.05025878930931
1001
ACDBBLOCKREPETAG
1070
     1
1071
       95
1005
124EEA
  0
ARC
  5
124EEB
  8
OBJECT
 10
7986.8376610706546
 20
-225.5978773169509
 30
0.0
 40
9.0
 50
73.00127222950276
 51
154.0502639259247
1001
ACDBBLOCKREPETAG
1070
     1
1071
       96
1005
124EEB
  0
ARC
  5
124EEC
  8
OBJECT
 10
7896.3142301315538
 20
-147.28130031148149
 30
0.0
 40
150.0
 50
322.89503373979312
 51
325.8931499695608
1001
ACDBBLOCKREPETAG
1070
     1
1071
       97
1005
124EEC
  0
ARC
  5
124EED
  8
OBJECT
 10
8000.0
 20
-199.99999999999909
 30
0.0
 40
37.5
 50
303.16276667665232
 51
229.16350249100839
1001
ACDBBLOCKREPETAG
1070
     1
1071
       98
1005
124EED
  0
LINE
  5
124EEE
  8
OBJECT
 10
7983.60851451898
 20
-221.38045100897119
 30
0.0
 11
7977.3740110000008
 21
-234.1915870000002
 31
0.0
1001
ACDBBLOCKREPETAG
1070
     1
1071
       99
1005
124EEE
  0
LINE
  5
124EEF
  8
OBJECT
 10
7978.7450566344623
 20
-221.65963488670511
 30
0.0
 11
7973.898672000003
 21
-231.6183599999996
 31
0.0
1001
ACDBBLOCKREPETAG
1070
     1
1071
      100
1005
124EEF
  0
LINE
  5
124EF0
  8
OBJECT
 10
8018.9380179999998
 20
-226.00000000000091
 30
0.0
 11
7989.4688153032539
 21
-216.99107608744359
 31
0.0
1001
ACDBBLOCKREPETAG
1070
     1
1071
      101
1005
124EF0
  0
LINE
  5
124EF1
  8
OBJECT
 10
8020.513225309006
 20
-231.39199878029191
 30
0.0
 11
8018.9380179999998
 21
-226.00000000000091
 31
0.0
1001
ACDBBLOCKREPETAG
1070
     1
1071
      102
1005
124EF1
  0
LINE
  5
124EF2
  8
OBJECT
 10
7954.0380592228739
 20
-245.96194077712289
 30
0.0
 11
7938.0
 21
-261.99999999999909
 31
0.0
1001
ACDBBLOCKREPETAG
1070
     1
1071
      106
1005
124EF2
  0
LINE
  5
124EF3
  8
OBJECT
 10
8045.9619407771252
 20
-245.96194077712289
 30
0.0
 11
8062.0
 21
-261.99999999999909
 31
0.0
1001
ACDBBLOCKREPETAG
1070
     1
1071
      107
1005
124EF3
  0
ARC
  5
124EF4
  8
OBJECT
 10
8000.0
 20
-199.99999999999909
 30
0.0
 40
75.0
 50
55.757831297238091
 51
124.2421687027619
1001
ACDBBLOCKREPETAG
1070
     1
1071
      108
1005
124EF4
  0
POINT
  5
124EF5
  8
DOTS
 10
8000.0
 20
-199.99999999999909
 30
0.0
 50
270.0
1001
ACDBBLOCKREPETAG
1070
     1
1071
      157
1005
124EF5
  0
LINE
  5
124EF6
  8
OBJECT
 10
8073.0
 20
-533.99999999999955
 30
0.0
 11
8070.0
 21
-533.99999999999955
 31
0.0
1001
ACDBBLOCKREPETAG
1070
     1
1071
        1
1005
124EF6
  0
ARC
  5
124EF7
  8
OBJECT
 10
8073.0
 20
-536.99999999999955
 30
0.0
 40
3.0
 50
0.0
 51
90.0
1001
ACDBBLOCKREPETAG
1070
     1
1071
        2
1005
124EF7
  0
LINE
  5
124EF8
  8
OBJECT
 10
8070.0
 20
-657.99999999999955
 30
0.0
 11
8073.0
 21
-657.99999999999955
 31
0.0
1001
ACDBBLOCKREPETAG
1070
     1
1071
        3
1005
124EF8
  0
ARC
  5
124EF9
  8
OBJECT
 10
8073.0
 20
-654.99999999999966
 30
0.0
 40
3.0
 50
270.0
 51
0.0
1001
ACDBBLOCKREPETAG
1070
     1
1071
        4
1005
124EF9
  0
LINE
  5
124EFA
  8
OBJECT
 10
8076.0
 20
-654.99999999999966
 30
0.0
 11
8076.0
 21
-536.99999999999955
 31
0.0
1001
ACDBBLOCKREPETAG
1070
     1
1071
        5
1005
124EFA
  0
LINE
  5
124EFB
  8
CENTER
 10
8091.0
 20
-199.99999999999909
 30
0.0
 11
8070.0
 21
-199.99999999999909
 31
0.0
1001
ACDBBLOCKREPETAG
1070
     1
1071
        0
1005
124EFB
  0
LINE
  5
124EFC
  8
OBJECT
 10
8073.0
 20
-137.99999999999909
 30
0.0
 11
8070.0
 21
-137.99999999999909
 31
0.0
1001
ACDBBLOCKREPETAG
1070
     1
1071
        1
1005
124EFC
  0
ARC
  5
124EFD
  8
OBJECT
 10
8073.0
 20
-140.99999999999909
 30
0.0
 40
3.0
 50
0.0
 51
90.0
1001
ACDBBLOCKREPETAG
1070
     1
1071
        2
1005
124EFD
  0
LINE
  5
124EFE
  8
OBJECT
 10
8070.0
 20
-261.99999999999909
 30
0.0
 11
8073.0
 21
-261.99999999999909
 31
0.0
1001
ACDBBLOCKREPETAG
1070
     1
1071
        3
1005
124EFE
  0
ARC
  5
124EFF
  8
OBJECT
 10
8073.0
 20
-258.99999999999909
 30
0.0
 40
3.0
 50
270.0
 51
0.0
1001
ACDBBLOCKREPETAG
1070
     1
1071
        4
1005
124EFF
  0
LINE
  5
124F00
  8
OBJECT
 10
8076.0
 20
-258.99999999999909
 30
0.0
 11
8076.0
 21
-140.99999999999909
 31
0.0
1001
ACDBBLOCKREPETAG
1070
     1
1071
        5
1005
124F00
  0
LINE
  5
124F01
  8
OBJECT
 10
5927.0
 20
-533.99999999999955
 30
0.0
 11
5930.0
 21
-533.99999999999955
 31
0.0
1001
ACDBBLOCKREPETAG
1070
     1
1071
        1
1005
124F01
  0
ARC
  5
124F02
  8
OBJECT
 10
5927.0
 20
-536.99999999999955
 30
0.0
 40
3.0
 50
90.0
 51
180.0
1001
ACDBBLOCKREPETAG
1070
     1
1071
        2
1005
124F02
  0
LINE
  5
124F03
  8
OBJECT
 10
5930.0
 20
-657.99999999999955
 30
0.0
 11
5927.0
 21
-657.99999999999955
 31
0.0
1001
ACDBBLOCKREPETAG
1070
     1
1071
        3
1005
124F03
  0
ARC
  5
124F04
  8
OBJECT
 10
5927.0
 20
-654.99999999999966
 30
0.0
 40
3.0
 50
180.0
 51
270.0
1001
ACDBBLOCKREPETAG
1070
     1
1071
        4
1005
124F04
  0
LINE
  5
124F05
  8
OBJECT
 10
5924.0
 20
-654.99999999999966
 30
0.0
 11
5924.0
 21
-536.99999999999955
 31
0.0
1001
ACDBBLOCKREPETAG
1070
     1
1071
        5
1005
124F05
  0
CIRCLE
  5
124F06
  8
OBJECT
 10
6000.0
 20
-596.0
 30
0.0
 40
62.0
1001
ACDBBLOCKREPETAG
1070
     1
1071
        0
1005
124F06
  0
LINE
  5
124F07
  8
OBJECT
 10
5935.0
 20
-449.99999999999937
 30
0.0
 11
5935.0
 21
-470.99999999999937
 31
0.0
1001
ACDBBLOCKREPETAG
1070
     1
1071
       16
1005
124F07
  0
LINE
  5
124F08
  8
OBJECT
 10
5935.0
 20
-470.99999999999937
 30
0.0
 11
6065.0
 21
-470.99999999999937
 31
0.0
1001
ACDBBLOCKREPETAG
1070
     1
1071
       17
1005
124F08
  0
LINE
  5
124F09
  8
OBJECT
 10
6065.0
 20
-470.99999999999937
 30
0.0
 11
6065.0
 21
-449.99999999999937
 31
0.0
1001
ACDBBLOCKREPETAG
1070
     1
1071
       18
1005
124F09
  0
LINE
  5
124F0A
  8
OBJECT
 10
6065.0
 20
-449.99999999999937
 30
0.0
 11
5935.0
 21
-449.99999999999937
 31
0.0
1001
ACDBBLOCKREPETAG
1070
     1
1071
       19
1005
124F0A
  0
LINE
  5
124F0B
  8
HIDDEN
 10
6044.5
 20
-519.99999999999955
 30
0.0
 11
5955.5
 21
-519.99999999999955
 31
0.0
1001
ACDBBLOCKREPETAG
1070
     1
1071
       20
1005
124F0B
  0
LINE
  5
124F0C
  8
CENTER
 10
6000.0
 20
-669.99999999999955
 30
0.0
 11
6000.0
 21
-434.99999999999949
 31
0.0
1001
ACDBBLOCKREPETAG
1070
     1
1071
       21
1005
124F0C
  0
LINE
  5
124F0D
  8
OBJECT
 10
5940.5
 20
-470.99999999999937
 30
0.0
 11
5940.5
 21
-533.99999999999955
 31
0.0
1001
ACDBBLOCKREPETAG
1070
     1
1071
       22
1005
124F0D
  0
LINE
  5
124F0E
  8
OBJECT
 10
5930.0
 20
-533.99999999999955
 30
0.0
 11
6070.0
 21
-533.99999999999955
 31
0.0
1001
ACDBBLOCKREPETAG
1070
     1
1071
       23
1005
124F0E
  0
LINE
  5
124F0F
  8
OBJECT
 10
6059.4999999999991
 20
-533.99999999999955
 30
0.0
 11
6059.4999999999991
 21
-470.99999999999937
 31
0.0
1001
ACDBBLOCKREPETAG
1070
     1
1071
       24
1005
124F0F
  0
LINE
  5
124F10
  8
OBJECT
 10
5930.0
 20
-657.99999999999955
 30
0.0
 11
5930.0
 21
-669.99999999999955
 31
0.0
1001
ACDBBLOCKREPETAG
1070
     1
1071
       25
1005
124F10
  0
LINE
  5
124F11
  8
OBJECT
 10
5930.0
 20
-669.99999999999955
 30
0.0
 11
6070.0
 21
-669.99999999999955
 31
0.0
1001
ACDBBLOCKREPETAG
1070
     1
1071
       26
1005
124F11
  0
LINE
  5
124F12
  8
OBJECT
 10
6070.0
 20
-669.99999999999955
 30
0.0
 11
6070.0
 21
-657.99999999999955
 31
0.0
1001
ACDBBLOCKREPETAG
1070
     1
1071
       27
1005
124F12
  0
LINE
  5
124F13
  8
OBJECT
 10
6070.0
 20
-657.99999999999955
 30
0.0
 11
5930.0
 21
-657.99999999999955
 31
0.0
1001
ACDBBLOCKREPETAG
1070
     1
1071
       28
1005
124F13
  0
ARC
  5
124F14
  8
OBJECT
 10
6435.0384389946776
 20
-898.60813684682694
 30
0.0
 40
519.48776673616965
 50
135.42350667430969
 51
138.50052655621499
1001
ACDBBLOCKREPETAG
1070
     1
1071
       32
1005
124F14
  0
ARC
  5
124F15
  8
OBJECT
 10
6435.0384389946776
 20
-293.39186315317193
 30
0.0
 40
519.48776673616965
 50
221.49947344378501
 51
224.57649332569039
1001
ACDBBLOCKREPETAG
1070
     1
1071
       33
1005
124F15
  0
ARC
  5
124F16
  8
OBJECT
 10
5564.9615610053224
 20
-898.60813684682694
 30
0.0
 40
519.48776673616965
 50
41.499473443784993
 51
44.576493325690237
1001
ACDBBLOCKREPETAG
1070
     1
1071
       34
1005
124F16
  0
ARC
  5
124F17
  8
OBJECT
 10
5564.9615610053224
 20
-293.39186315317193
 30
0.0
 40
519.48776673616965
 50
315.42350667430981
 51
318.50052655621488
1001
ACDBBLOCKREPETAG
1070
     1
1071
       35
1005
124F17
  0
POINT
  5
124F18
  8
DOTS
 10
6000.0
 20
-654.99999999999966
 30
0.0
1001
ACDBBLOCKREPETAG
1070
     1
1071
      111
1005
124F18
  0
LINE
  5
124F19
  8
CENTER
 10
5909.0
 20
-199.99999999999909
 30
0.0
 11
5930.0
 21
-199.99999999999909
 31
0.0
1001
ACDBBLOCKREPETAG
1070
     1
1071
        0
1005
124F19
  0
LINE
  5
124F1A
  8
OBJECT
 10
5927.0
 20
-261.99999999999909
 30
0.0
 11
5930.0
 21
-261.99999999999909
 31
0.0
1001
ACDBBLOCKREPETAG
1070
     1
1071
        1
1005
124F1A
  0
ARC
  5
124F1B
  8
OBJECT
 10
5927.0
 20
-258.99999999999909
 30
0.0
 40
3.0
 50
180.0
 51
270.0
1001
ACDBBLOCKREPETAG
1070
     1
1071
        2
1005
124F1B
  0
LINE
  5
124F1C
  8
OBJECT
 10
5930.0
 20
-137.99999999999909
 30
0.0
 11
5927.0
 21
-137.99999999999909
 31
0.0
1001
ACDBBLOCKREPETAG
1070
     1
1071
        3
1005
124F1C
  0
ARC
  5
124F1D
  8
OBJECT
 10
5927.0
 20
-140.99999999999909
 30
0.0
 40
3.0
 50
90.0
 51
180.0
1001
ACDBBLOCKREPETAG
1070
     1
1071
        4
1005
124F1D
  0
LINE
  5
124F1E
  8
OBJECT
 10
5924.0
 20
-140.99999999999909
 30
0.0
 11
5924.0
 21
-258.99999999999909
 31
0.0
1001
ACDBBLOCKREPETAG
1070
     1
1071
        5
1005
124F1E
  0
LINE
  5
124F1F
  8
CENTER
 10
6000.0
 20
-290.99999999999898
 30
0.0
 11
6000.0
 21
-269.99999999999909
 31
0.0
1001
ACDBBLOCKREPETAG
1070
     1
1071
        0
1005
124F1F
  0
LINE
  5
124F20
  8
OBJECT
 10
6062.0
 20
-273.0
 30
0.0
 11
6062.0
 21
-269.99999999999909
 31
0.0
1001
ACDBBLOCKREPETAG
1070
     1
1071
        1
1005
124F20
  0
ARC
  5
124F21
  8
OBJECT
 10
6059.0
 20
-273.0
 30
0.0
 40
3.0
 50
270.0
 51
0.0
1001
ACDBBLOCKREPETAG
1070
     1
1071
        2
1005
124F21
  0
LINE
  5
124F22
  8
OBJECT
 10
5938.0
 20
-269.99999999999909
 30
0.0
 11
5938.0
 21
-272.99999999999818
 31
0.0
1001
ACDBBLOCKREPETAG
1070
     1
1071
        3
1005
124F22
  0
ARC
  5
124F23
  8
OBJECT
 10
5941.0
 20
-272.99999999999818
 30
0.0
 40
3.0
 50
180.0
 51
270.0
1001
ACDBBLOCKREPETAG
1070
     1
1071
        4
1005
124F23
  0
LINE
  5
124F24
  8
OBJECT
 10
5941.0
 20
-275.99999999999818
 30
0.0
 11
6059.0
 21
-276.0
 31
0.0
1001
ACDBBLOCKREPETAG
1070
     1
1071
        5
1005
124F24
  0
POINT
  5
124F25
  8
DOTS
 10
6000.0
 20
-199.99999999999909
 30
0.0
 50
270.0
1001
ACDBBLOCKREPETAG
1070
     1
1071
      153
1005
124F25
  0
ARC
  5
124F26
  8
OBJECT
 10
6000.0
 20
-199.99999999999909
 30
0.0
 40
70.0
 50
62.339550100781771
 51
117.66044989921819
1001
ACDBBLOCKREPETAG
1070
     1
1071
        0
1005
124F26
  0
CIRCLE
  5
124F27
  8
OBJECT
 10
6000.0
 20
-199.99999999999909
 30
0.0
 40
65.0
1001
ACDBBLOCKREPETAG
1070
     1
1071
        1
1005
124F27
  0
CIRCLE
  5
124F28
  8
OBJECT
 10
6000.0
 20
-199.99999999999909
 30
0.0
 40
41.0
1001
ACDBBLOCKREPETAG
1070
     1
1071
        2
1005
124F28
  0
CIRCLE
  5
124F29
  8
OBJECT
 10
6000.0
 20
-199.99999999999909
 30
0.0
 40
58.0
1001
ACDBBLOCKREPETAG
1070
     1
1071
        3
1005
124F29
  0
LINE
  5
124F2A
  8
OBJECT
 10
6070.0
 20
-137.99999999999909
 30
0.0
 11
6019.5192212959437
 21
-137.99999999999909
 31
0.0
1001
ACDBBLOCKREPETAG
1070
     1
1071
        4
1005
124F2A
  0
LINE
  5
124F2B
  8
OBJECT
 10
5930.0
 20
-137.99999999999909
 30
0.0
 11
5980.4807787040563
 21
-137.99999999999909
 31
0.0
1001
ACDBBLOCKREPETAG
1070
     1
1071
        5
1005
124F2B
  0
LINE
  5
124F2C
  8
OBJECT
 10
5930.0
 20
-261.99999999999909
 30
0.0
 11
5938.0
 21
-261.99999999999909
 31
0.0
1001
ACDBBLOCKREPETAG
1070
     1
1071
        6
1005
124F2C
  0
LINE
  5
124F2D
  8
OBJECT
 10
5938.0
 20
-269.99999999999909
 30
0.0
 11
5938.0
 21
-261.99999999999909
 31
0.0
1001
ACDBBLOCKREPETAG
1070
     1
1071
        7
1005
124F2D
  0
LINE
  5
124F2E
  8
OBJECT
 10
6070.0
 20
-261.99999999999909
 30
0.0
 11
6062.0
 21
-261.99999999999909
 31
0.0
1001
ACDBBLOCKREPETAG
1070
     1
1071
        8
1005
124F2E
  0
LINE
  5
124F2F
  8
OBJECT
 10
6062.0
 20
-269.99999999999909
 30
0.0
 11
6062.0
 21
-261.99999999999909
 31
0.0
1001
ACDBBLOCKREPETAG
1070
     1
1071
        9
1005
124F2F
  0
LINE
  5
124F30
  8
CENTER
 10
5930.0
 20
-199.99999999999909
 30
0.0
 11
6070.0
 21
-199.99999999999909
 31
0.0
1001
ACDBBLOCKREPETAG
1070
     1
1071
       10
1005
124F30
  0
LINE
  5
124F31
  8
CENTER
 10
6000.0
 20
-269.99999999999909
 30
0.0
 11
6000.0
 21
-114.9999999999991
 31
0.0
1001
ACDBBLOCKREPETAG
1070
     1
1071
       11
1005
124F31
  0
ARC
  5
124F32
  8
OBJECT
 10
5989.9027621391879
 20
-224.44352901899131
 30
0.0
 40
7.0
 50
73.001272229719234
 51
154.0502587894434
1001
ACDBBLOCKREPETAG
1070
     1
1071
       12
1005
124F32
  0
ARC
  5
124F33
  8
OBJECT
 10
5986.8376610706491
 20
-225.5978773169509
 30
0.0
 40
9.0
 50
73.001272229719234
 51
154.0502639259247
1001
ACDBBLOCKREPETAG
1070
     1
1071
       13
1005
124F33
  0
ARC
  5
124F34
  8
OBJECT
 10
5896.3142301315529
 20
-147.28130031148149
 30
0.0
 40
150.0
 50
322.89503374001981
 51
325.89314996972843
1001
ACDBBLOCKREPETAG
1070
     1
1071
       14
1005
124F34
  0
ARC
  5
124F35
  8
OBJECT
 10
6000.0
 20
-199.99999999999909
 30
0.0
 40
37.5
 50
303.1627666766604
 51
229.1635024908081
1001
ACDBBLOCKREPETAG
1070
     1
1071
       15
1005
124F35
  0
LINE
  5
124F36
  8
OBJECT
 10
5983.6085145189763
 20
-221.38045100897119
 30
0.0
 11
5977.3740109999999
 21
-234.1915870000002
 31
0.0
1001
ACDBBLOCKREPETAG
1070
     1
1071
       16
1005
124F36
  0
LINE
  5
124F37
  8
OBJECT
 10
5978.7450566344633
 20
-221.65963488670511
 30
0.0
 11
5973.8986720000003
 21
-231.6183599999996
 31
0.0
1001
ACDBBLOCKREPETAG
1070
     1
1071
       17
1005
124F37
  0
LINE
  5
124F38
  8
OBJECT
 10
6018.9380179999998
 20
-226.00000000000091
 30
0.0
 11
5989.4688153032585
 21
-216.99107608744359
 31
0.0
1001
ACDBBLOCKREPETAG
1070
     1
1071
       18
1005
124F38
  0
LINE
  5
124F39
  8
OBJECT
 10
6020.5132253090051
 20
-231.39199878029191
 30
0.0
 11
6018.9380179999998
 21
-226.00000000000091
 31
0.0
1001
ACDBBLOCKREPETAG
1070
     1
1071
       19
1005
124F39
  0
LINE
  5
124F3A
  8
OBJECT
 10
5954.0380592228739
 20
-245.96194077712471
 30
0.0
 11
5938.0
 21
-261.99999999999909
 31
0.0
1001
ACDBBLOCKREPETAG
1070
     1
1071
       42
1005
124F3A
  0
LINE
  5
124F3B
  8
OBJECT
 10
6045.9619407771252
 20
-245.96194077712471
 30
0.0
 11
6062.0
 21
-261.99999999999909
 31
0.0
1001
ACDBBLOCKREPETAG
1070
     1
1071
       43
1005
124F3B
  0
LINE
  5
124F3C
  8
OBJECT
 10
6073.0
 20
-533.99999999999955
 30
0.0
 11
6070.0
 21
-533.99999999999955
 31
0.0
1001
ACDBBLOCKREPETAG
1070
     1
1071
        1
1005
124F3C
  0
ARC
  5
124F3D
  8
OBJECT
 10
6073.0
 20
-536.99999999999955
 30
0.0
 40
3.0
 50
0.0
 51
90.0
1001
ACDBBLOCKREPETAG
1070
     1
1071
        2
1005
124F3D
  0
LINE
  5
124F3E
  8
OBJECT
 10
6070.0
 20
-657.99999999999955
 30
0.0
 11
6073.0
 21
-657.99999999999955
 31
0.0
1001
ACDBBLOCKREPETAG
1070
     1
1071
        3
1005
124F3E
  0
ARC
  5
124F3F
  8
OBJECT
 10
6073.0
 20
-654.99999999999966
 30
0.0
 40
3.0
 50
270.0
 51
0.0
1001
ACDBBLOCKREPETAG
1070
     1
1071
        4
1005
124F3F
  0
LINE
  5
124F40
  8
OBJECT
 10
6076.0
 20
-654.99999999999966
 30
0.0
 11
6076.0
 21
-536.99999999999955
 31
0.0
1001
ACDBBLOCKREPETAG
1070
     1
1071
        5
1005
124F40
  0
LINE
  5
124F41
  8
CENTER
 10
6091.0
 20
-199.99999999999909
 30
0.0
 11
6070.0
 21
-199.99999999999909
 31
0.0
1001
ACDBBLOCKREPETAG
1070
     1
1071
        0
1005
124F41
  0
LINE
  5
124F42
  8
OBJECT
 10
6073.0
 20
-137.99999999999909
 30
0.0
 11
6070.0
 21
-137.99999999999909
 31
0.0
1001
ACDBBLOCKREPETAG
1070
     1
1071
        1
1005
124F42
  0
ARC
  5
124F43
  8
OBJECT
 10
6073.0
 20
-140.99999999999909
 30
0.0
 40
3.0
 50
0.0
 51
90.0
1001
ACDBBLOCKREPETAG
1070
     1
1071
        2
1005
124F43
  0
LINE
  5
124F44
  8
OBJECT
 10
6070.0
 20
-261.99999999999909
 30
0.0
 11
6073.0
 21
-261.99999999999909
 31
0.0
1001
ACDBBLOCKREPETAG
1070
     1
1071
        3
1005
124F44
  0
ARC
  5
124F45
  8
OBJECT
 10
6073.0
 20
-258.99999999999909
 30
0.0
 40
3.0
 50
270.0
 51
0.0
1001
ACDBBLOCKREPETAG
1070
     1
1071
        4
1005
124F45
  0
LINE
  5
124F46
  8
OBJECT
 10
6076.0
 20
-258.99999999999909
 30
0.0
 11
6076.0
 21
-140.99999999999909
 31
0.0
1001
ACDBBLOCKREPETAG
1070
     1
1071
        5
1005
124F46
  0
LINE
  5
124F47
  8
OBJECT
 10
3927.0
 20
-533.99999999999955
 30
0.0
 11
3930.0
 21
-533.99999999999955
 31
0.0
1001
ACDBBLOCKREPETAG
1070
     1
1071
        1
1005
124F47
  0
ARC
  5
124F48
  8
OBJECT
 10
3927.0
 20
-536.99999999999955
 30
0.0
 40
3.0
 50
90.0
 51
180.0
1001
ACDBBLOCKREPETAG
1070
     1
1071
        2
1005
124F48
  0
LINE
  5
124F49
  8
OBJECT
 10
3930.0
 20
-657.99999999999955
 30
0.0
 11
3927.0
 21
-657.99999999999955
 31
0.0
1001
ACDBBLOCKREPETAG
1070
     1
1071
        3
1005
124F49
  0
ARC
  5
124F4A
  8
OBJECT
 10
3927.0
 20
-654.99999999999966
 30
0.0
 40
3.0
 50
180.0
 51
270.0
1001
ACDBBLOCKREPETAG
1070
     1
1071
        4
1005
124F4A
  0
LINE
  5
124F4B
  8
OBJECT
 10
3924.0
 20
-654.99999999999966
 30
0.0
 11
3924.0
 21
-536.99999999999955
 31
0.0
1001
ACDBBLOCKREPETAG
1070
     1
1071
        5
1005
124F4B
  0
CIRCLE
  5
124F4C
  8
OBJECT
 10
4000.0
 20
-596.0
 30
0.0
 40
62.0
1001
ACDBBLOCKREPETAG
1070
     1
1071
        0
1005
124F4C
  0
LINE
  5
124F4D
  8
OBJECT
 10
3935.0
 20
-449.99999999999937
 30
0.0
 11
3935.0
 21
-470.99999999999937
 31
0.0
1001
ACDBBLOCKREPETAG
1070
     1
1071
       16
1005
124F4D
  0
LINE
  5
124F4E
  8
OBJECT
 10
3935.0
 20
-470.99999999999937
 30
0.0
 11
4065.0
 21
-470.99999999999937
 31
0.0
1001
ACDBBLOCKREPETAG
1070
     1
1071
       17
1005
124F4E
  0
LINE
  5
124F4F
  8
OBJECT
 10
4065.0
 20
-470.99999999999937
 30
0.0
 11
4065.0
 21
-449.99999999999937
 31
0.0
1001
ACDBBLOCKREPETAG
1070
     1
1071
       18
1005
124F4F
  0
LINE
  5
124F50
  8
OBJECT
 10
4065.0
 20
-449.99999999999937
 30
0.0
 11
3935.0
 21
-449.99999999999937
 31
0.0
1001
ACDBBLOCKREPETAG
1070
     1
1071
       19
1005
124F50
  0
LINE
  5
124F51
  8
HIDDEN
 10
4044.5
 20
-519.99999999999955
 30
0.0
 11
3955.5
 21
-519.99999999999955
 31
0.0
1001
ACDBBLOCKREPETAG
1070
     1
1071
       20
1005
124F51
  0
LINE
  5
124F52
  8
CENTER
 10
4000.0
 20
-669.99999999999955
 30
0.0
 11
4000.0
 21
-434.99999999999949
 31
0.0
1001
ACDBBLOCKREPETAG
1070
     1
1071
       21
1005
124F52
  0
LINE
  5
124F53
  8
OBJECT
 10
3940.5
 20
-470.99999999999937
 30
0.0
 11
3940.5
 21
-533.99999999999955
 31
0.0
1001
ACDBBLOCKREPETAG
1070
     1
1071
       22
1005
124F53
  0
LINE
  5
124F54
  8
OBJECT
 10
3930.0
 20
-533.99999999999955
 30
0.0
 11
4070.0
 21
-533.99999999999955
 31
0.0
1001
ACDBBLOCKREPETAG
1070
     1
1071
       23
1005
124F54
  0
LINE
  5
124F55
  8
OBJECT
 10
4059.4999999999982
 20
-533.99999999999955
 30
0.0
 11
4059.4999999999982
 21
-470.99999999999937
 31
0.0
1001
ACDBBLOCKREPETAG
1070
     1
1071
       24
1005
124F55
  0
LINE
  5
124F56
  8
OBJECT
 10
3930.0
 20
-657.99999999999955
 30
0.0
 11
3930.0
 21
-669.99999999999955
 31
0.0
1001
ACDBBLOCKREPETAG
1070
     1
1071
       25
1005
124F56
  0
LINE
  5
124F57
  8
OBJECT
 10
3930.0
 20
-669.99999999999955
 30
0.0
 11
4070.0
 21
-669.99999999999955
 31
0.0
1001
ACDBBLOCKREPETAG
1070
     1
1071
       26
1005
124F57
  0
LINE
  5
124F58
  8
OBJECT
 10
4070.0
 20
-669.99999999999955
 30
0.0
 11
4070.0
 21
-657.99999999999955
 31
0.0
1001
ACDBBLOCKREPETAG
1070
     1
1071
       27
1005
124F58
  0
LINE
  5
124F59
  8
OBJECT
 10
4070.0
 20
-657.99999999999955
 30
0.0
 11
3930.0
 21
-657.99999999999955
 31
0.0
1001
ACDBBLOCKREPETAG
1070
     1
1071
       28
1005
124F59
  0
ARC
  5
124F5A
  8
OBJECT
 10
4435.0384389946767
 20
-898.60813684682694
 30
0.0
 40
519.48776673616965
 50
135.42350667430969
 51
138.50052655621499
1001
ACDBBLOCKREPETAG
1070
     1
1071
       32
1005
124F5A
  0
ARC
  5
124F5B
  8
OBJECT
 10
4435.0384389946767
 20
-293.39186315317193
 30
0.0
 40
519.48776673616965
 50
221.49947344378501
 51
224.57649332569039
1001
ACDBBLOCKREPETAG
1070
     1
1071
       33
1005
124F5B
  0
ARC
  5
124F5C
  8
OBJECT
 10
3564.961561005322
 20
-898.60813684682694
 30
0.0
 40
519.48776673616965
 50
41.499473443784993
 51
44.576493325690237
1001
ACDBBLOCKREPETAG
1070
     1
1071
       34
1005
124F5C
  0
ARC
  5
124F5D
  8
OBJECT
 10
3564.961561005322
 20
-293.39186315317193
 30
0.0
 40
519.48776673616965
 50
315.42350667430981
 51
318.50052655621488
1001
ACDBBLOCKREPETAG
1070
     1
1071
       35
1005
124F5D
  0
POINT
  5
124F5E
  8
DOTS
 10
4000.0
 20
-654.99999999999966
 30
0.0
1001
ACDBBLOCKREPETAG
1070
     1
1071
      111
1005
124F5E
  0
LINE
  5
124F5F
  8
CENTER
 10
3909.0
 20
-199.99999999999909
 30
0.0
 11
3930.0
 21
-199.99999999999909
 31
0.0
1001
ACDBBLOCKREPETAG
1070
     1
1071
        0
1005
124F5F
  0
LINE
  5
124F60
  8
OBJECT
 10
3927.0
 20
-261.99999999999909
 30
0.0
 11
3930.0
 21
-261.99999999999909
 31
0.0
1001
ACDBBLOCKREPETAG
1070
     1
1071
        1
1005
124F60
  0
ARC
  5
124F61
  8
OBJECT
 10
3927.0
 20
-258.99999999999909
 30
0.0
 40
3.0
 50
180.0
 51
270.0
1001
ACDBBLOCKREPETAG
1070
     1
1071
        2
1005
124F61
  0
LINE
  5
124F62
  8
OBJECT
 10
3930.0
 20
-137.99999999999909
 30
0.0
 11
3927.0
 21
-137.99999999999909
 31
0.0
1001
ACDBBLOCKREPETAG
1070
     1
1071
        3
1005
124F62
  0
ARC
  5
124F63
  8
OBJECT
 10
3927.0
 20
-140.99999999999909
 30
0.0
 40
3.0
 50
90.0
 51
180.0
1001
ACDBBLOCKREPETAG
1070
     1
1071
        4
1005
124F63
  0
LINE
  5
124F64
  8
OBJECT
 10
3924.0
 20
-140.99999999999909
 30
0.0
 11
3924.0
 21
-258.99999999999909
 31
0.0
1001
ACDBBLOCKREPETAG
1070
     1
1071
        5
1005
124F64
  0
LINE
  5
124F65
  8
CENTER
 10
4000.0
 20
-290.99999999999898
 30
0.0
 11
4000.0
 21
-269.99999999999909
 31
0.0
1001
ACDBBLOCKREPETAG
1070
     1
1071
        0
1005
124F65
  0
LINE
  5
124F66
  8
OBJECT
 10
4062.0
 20
-273.0
 30
0.0
 11
4062.0
 21
-269.99999999999909
 31
0.0
1001
ACDBBLOCKREPETAG
1070
     1
1071
        1
1005
124F66
  0
ARC
  5
124F67
  8
OBJECT
 10
4059.0
 20
-273.0
 30
0.0
 40
3.0
 50
270.0
 51
0.0
1001
ACDBBLOCKREPETAG
1070
     1
1071
        2
1005
124F67
  0
LINE
  5
124F68
  8
OBJECT
 10
3938.0
 20
-269.99999999999909
 30
0.0
 11
3938.0
 21
-272.99999999999818
 31
0.0
1001
ACDBBLOCKREPETAG
1070
     1
1071
        3
1005
124F68
  0
ARC
  5
124F69
  8
OBJECT
 10
3941.0
 20
-272.99999999999818
 30
0.0
 40
3.0
 50
180.0
 51
270.0
1001
ACDBBLOCKREPETAG
1070
     1
1071
        4
1005
124F69
  0
LINE
  5
124F6A
  8
OBJECT
 10
3941.0
 20
-275.99999999999818
 30
0.0
 11
4059.0
 21
-276.0
 31
0.0
1001
ACDBBLOCKREPETAG
1070
     1
1071
        5
1005
124F6A
  0
POINT
  5
124F6B
  8
DOTS
 10
4000.0
 20
-199.99999999999909
 30
0.0
 50
270.0
1001
ACDBBLOCKREPETAG
1070
     1
1071
      153
1005
124F6B
  0
ARC
  5
124F6C
  8
OBJECT
 10
4000.0
 20
-199.99999999999909
 30
0.0
 40
70.0
 50
62.339550100758693
 51
117.6604498992413
1001
ACDBBLOCKREPETAG
1070
     1
1071
        0
1005
124F6C
  0
CIRCLE
  5
124F6D
  8
OBJECT
 10
4000.0
 20
-199.99999999999909
 30
0.0
 40
65.0
1001
ACDBBLOCKREPETAG
1070
     1
1071
        1
1005
124F6D
  0
CIRCLE
  5
124F6E
  8
OBJECT
 10
4000.0
 20
-199.99999999999909
 30
0.0
 40
41.0
1001
ACDBBLOCKREPETAG
1070
     1
1071
        2
1005
124F6E
  0
CIRCLE
  5
124F6F
  8
OBJECT
 10
4000.0
 20
-199.99999999999909
 30
0.0
 40
58.0
1001
ACDBBLOCKREPETAG
1070
     1
1071
        3
1005
124F6F
  0
LINE
  5
124F70
  8
OBJECT
 10
4070.0
 20
-137.99999999999909
 30
0.0
 11
4019.5192212959432
 21
-137.99999999999909
 31
0.0
1001
ACDBBLOCKREPETAG
1070
     1
1071
        4
1005
124F70
  0
LINE
  5
124F71
  8
OBJECT
 10
3930.0
 20
-137.99999999999909
 30
0.0
 11
3980.4807787040581
 21
-137.99999999999909
 31
0.0
1001
ACDBBLOCKREPETAG
1070
     1
1071
        5
1005
124F71
  0
LINE
  5
124F72
  8
OBJECT
 10
3930.0
 20
-261.99999999999909
 30
0.0
 11
3938.0
 21
-261.99999999999909
 31
0.0
1001
ACDBBLOCKREPETAG
1070
     1
1071
        6
1005
124F72
  0
LINE
  5
124F73
  8
OBJECT
 10
3938.0
 20
-269.99999999999909
 30
0.0
 11
3938.0
 21
-261.99999999999909
 31
0.0
1001
ACDBBLOCKREPETAG
1070
     1
1071
        7
1005
124F73
  0
LINE
  5
124F74
  8
OBJECT
 10
4070.0
 20
-261.99999999999909
 30
0.0
 11
4062.0
 21
-261.99999999999909
 31
0.0
1001
ACDBBLOCKREPETAG
1070
     1
1071
        8
1005
124F74
  0
LINE
  5
124F75
  8
OBJECT
 10
4062.0
 20
-269.99999999999909
 30
0.0
 11
4062.0
 21
-261.99999999999909
 31
0.0
1001
ACDBBLOCKREPETAG
1070
     1
1071
        9
1005
124F75
  0
LINE
  5
124F76
  8
CENTER
 10
3930.0
 20
-199.99999999999909
 30
0.0
 11
4070.0
 21
-199.99999999999909
 31
0.0
1001
ACDBBLOCKREPETAG
1070
     1
1071
       10
1005
124F76
  0
LINE
  5
124F77
  8
CENTER
 10
4000.0
 20
-269.99999999999909
 30
0.0
 11
4000.0
 21
-114.9999999999991
 31
0.0
1001
ACDBBLOCKREPETAG
1070
     1
1071
       11
1005
124F77
  0
ARC
  5
124F78
  8
OBJECT
 10
3989.9027621391888
 20
-224.44352901899131
 30
0.0
 40
7.0
 50
73.001272229719234
 51
154.0502587894434
1001
ACDBBLOCKREPETAG
1070
     1
1071
       12
1005
124F78
  0
ARC
  5
124F79
  8
OBJECT
 10
3986.8376610706509
 20
-225.5978773169509
 30
0.0
 40
9.0
 50
73.001272229719234
 51
154.0502639259247
1001
ACDBBLOCKREPETAG
1070
     1
1071
       13
1005
124F79
  0
ARC
  5
124F7A
  8
OBJECT
 10
3896.3142301315529
 20
-147.28130031148149
 30
0.0
 40
150.0
 50
322.89503374001981
 51
325.8931499697137
1001
ACDBBLOCKREPETAG
1070
     1
1071
       14
1005
124F7A
  0
ARC
  5
124F7B
  8
OBJECT
 10
4000.0
 20
-199.99999999999909
 30
0.0
 40
37.5
 50
303.16276667668222
 51
229.1635024908278
1001
ACDBBLOCKREPETAG
1070
     1
1071
       15
1005
124F7B
  0
LINE
  5
124F7C
  8
OBJECT
 10
3983.6085145189768
 20
-221.38045100897119
 30
0.0
 11
3977.3740109999999
 21
-234.1915870000002
 31
0.0
1001
ACDBBLOCKREPETAG
1070
     1
1071
       16
1005
124F7C
  0
LINE
  5
124F7D
  8
OBJECT
 10
3978.7450566344628
 20
-221.65963488670511
 30
0.0
 11
3973.8986719999989
 21
-231.6183599999996
 31
0.0
1001
ACDBBLOCKREPETAG
1070
     1
1071
       17
1005
124F7D
  0
LINE
  5
124F7E
  8
OBJECT
 10
4018.9380179999998
 20
-226.00000000000091
 30
0.0
 11
3989.468815303258
 21
-216.99107608744359
 31
0.0
1001
ACDBBLOCKREPETAG
1070
     1
1071
       18
1005
124F7E
  0
LINE
  5
124F7F
  8
OBJECT
 10
4020.5132253090051
 20
-231.39199878029191
 30
0.0
 11
4018.9380179999998
 21
-226.00000000000091
 31
0.0
1001
ACDBBLOCKREPETAG
1070
     1
1071
       19
1005
124F7F
  0
LINE
  5
124F80
  8
OBJECT
 10
3954.0380592228739
 20
-245.96194077712471
 30
0.0
 11
3938.0
 21
-261.99999999999909
 31
0.0
1001
ACDBBLOCKREPETAG
1070
     1
1071
       42
1005
124F80
  0
LINE
  5
124F81
  8
OBJECT
 10
4045.9619407771238
 20
-245.96194077712471
 30
0.0
 11
4062.0
 21
-261.99999999999909
 31
0.0
1001
ACDBBLOCKREPETAG
1070
     1
1071
       43
1005
124F81
  0
LINE
  5
124F82
  8
OBJECT
 10
4073.0
 20
-533.99999999999955
 30
0.0
 11
4070.0
 21
-533.99999999999955
 31
0.0
1001
ACDBBLOCKREPETAG
1070
     1
1071
        1
1005
124F82
  0
ARC
  5
124F83
  8
OBJECT
 10
4073.0
 20
-536.99999999999955
 30
0.0
 40
3.0
 50
0.0
 51
90.0
1001
ACDBBLOCKREPETAG
1070
     1
1071
        2
1005
124F83
  0
LINE
  5
124F84
  8
OBJECT
 10
4070.0
 20
-657.99999999999955
 30
0.0
 11
4073.0
 21
-657.99999999999955
 31
0.0
1001
ACDBBLOCKREPETAG
1070
     1
1071
        3
1005
124F84
  0
ARC
  5
124F85
  8
OBJECT
 10
4073.0
 20
-654.99999999999966
 30
0.0
 40
3.0
 50
270.0
 51
0.0
1001
ACDBBLOCKREPETAG
1070
     1
1071
        4
1005
124F85
  0
LINE
  5
124F86
  8
OBJECT
 10
4076.0
 20
-654.99999999999966
 30
0.0
 11
4076.0
 21
-536.99999999999955
 31
0.0
1001
ACDBBLOCKREPETAG
1070
     1
1071
        5
1005
124F86
  0
LINE
  5
124F87
  8
CENTER
 10
4091.0
 20
-199.99999999999909
 30
0.0
 11
4070.0
 21
-199.99999999999909
 31
0.0
1001
ACDBBLOCKREPETAG
1070
     1
1071
        0
1005
124F87
  0
LINE
  5
124F88
  8
OBJECT
 10
4073.0
 20
-137.99999999999909
 30
0.0
 11
4070.0
 21
-137.99999999999909
 31
0.0
1001
ACDBBLOCKREPETAG
1070
     1
1071
        1
1005
124F88
  0
ARC
  5
124F89
  8
OBJECT
 10
4073.0
 20
-140.99999999999909
 30
0.0
 40
3.0
 50
0.0
 51
90.0
1001
ACDBBLOCKREPETAG
1070
     1
1071
        2
1005
124F89
  0
LINE
  5
124F8A
  8
OBJECT
 10
4070.0
 20
-261.99999999999909
 30
0.0
 11
4073.0
 21
-261.99999999999909
 31
0.0
1001
ACDBBLOCKREPETAG
1070
     1
1071
        3
1005
124F8A
  0
ARC
  5
124F8B
  8
OBJECT
 10
4073.0
 20
-258.99999999999909
 30
0.0
 40
3.0
 50
270.0
 51
0.0
1001
ACDBBLOCKREPETAG
1070
     1
1071
        4
1005
124F8B
  0
LINE
  5
124F8C
  8
OBJECT
 10
4076.0
 20
-258.99999999999909
 30
0.0
 11
4076.0
 21
-140.99999999999909
 31
0.0
1001
ACDBBLOCKREPETAG
1070
     1
1071
        5
1005
124F8C
  0
TEXT
  5
124F8D
  8
SLIM
 10
7824.6000000000022
 20
-1383.999999999997
 30
0.0
 40
28.0
  1
※ 対応スラブ厚　180～300
 41
0.75
  0
TEXT
  5
124F8E
  8
SLIM
 10
7598.8999999999969
 20
-1477.333333333331
 30
0.0
 40
28.0
  1
国土交通大臣認定・（一財）日本消防設備安全センター性能評定取得品
 41
0.75
  0
TEXT
  5
124F8F
  8
SLIM
 10
7631.1000000000004
 20
-1523.999999999998
 30
0.0
 40
28.0
  1
注）ご採用にあたり、認定書及び評定書の内容をご確認ください。
 41
0.75
  0
LINE
  5
124F90
  8
SLIM
 10
11925.0
 20
-655.19743878930785
 30
0.0
 11
11925.197438789301
 21
-654.99999999999966
 31
0.0
1001
ACAD
1010
0.0
1020
0.0
1030
0.0
1001
ACDBBLOCKREPETAG
1070
     1
1071
        1
1005
0
  0
LINE
  5
124F91
  8
SLIM
 10
11925.0
 20
-673.15795103144626
 30
0.0
 11
11943.15795103144
 21
-654.99999999999966
 31
0.0
1001
ACAD
1010
0.0
1020
0.0
1030
0.0
1001
ACDBBLOCKREPETAG
1070
     1
1071
       10
1005
124F91
  0
LINE
  5
124F92
  8
SLIM
 10
11925.0
 20
-691.11846327358444
 30
0.0
 11
11961.11846327358
 21
-654.99999999999966
 31
0.0
1001
ACAD
1010
0.0
1020
0.0
1030
0.0
1001
ACDBBLOCKREPETAG
1070
     1
1071
       11
1005
124F92
  0
LINE
  5
124F93
  8
SLIM
 10
11925.0
 20
-709.07897551572296
 30
0.0
 11
11979.07897551572
 21
-654.99999999999966
 31
0.0
1001
ACAD
1010
0.0
1020
0.0
1030
0.0
1001
ACDBBLOCKREPETAG
1070
     1
1071
       12
1005
124F93
  0
LINE
  5
124F94
  8
SLIM
 10
11925.0
 20
-727.03948775786114
 30
0.0
 11
11997.03948775786
 21
-654.99999999999966
 31
0.0
1001
ACAD
1010
0.0
1020
0.0
1030
0.0
1001
ACDBBLOCKREPETAG
1070
     1
1071
       13
1005
124F94
  0
LINE
  5
124F95
  8
SLIM
 10
11925.0
 20
-744.99999999999955
 30
0.0
 11
12015.0
 21
-654.99999999999966
 31
0.0
1001
ACAD
1010
0.0
1020
0.0
1030
0.0
1001
ACDBBLOCKREPETAG
1070
     1
1071
       14
1005
124F95
  0
LINE
  5
124F96
  8
SLIM
 10
11925.0
 20
-762.96051224213772
 30
0.0
 11
12032.96051224214
 21
-654.99999999999966
 31
0.0
1001
ACAD
1010
0.0
1020
0.0
1030
0.0
1001
ACDBBLOCKREPETAG
1070
     1
1071
       15
1005
124F96
  0
LINE
  5
124F97
  8
SLIM
 10
11926.57043503541
 20
-779.35058944886373
 30
0.0
 11
12050.921024484271
 21
-654.99999999999966
 31
0.0
1001
ACAD
1010
0.0
1020
0.0
1030
0.0
1001
ACDBBLOCKREPETAG
1070
     1
1071
       16
1005
124F97
  0
LINE
  5
124F98
  8
SLIM
 10
11929.39181818456
 20
-794.48971854185424
 30
0.0
 11
12068.881536726411
 21
-654.99999999999966
 31
0.0
1001
ACAD
1010
0.0
1020
0.0
1030
0.0
1001
ACDBBLOCKREPETAG
1070
     1
1071
       17
1005
124F98
  0
LINE
  5
124F99
  8
SLIM
 10
11932.21320133371
 20
-809.62884763484476
 30
0.0
 11
12075.0
 21
-666.84204896855283
 31
0.0
1001
ACAD
1010
0.0
1020
0.0
1030
0.0
1001
ACDBBLOCKREPETAG
1070
     1
1071
       18
1005
124F99
  0
LINE
  5
124F9A
  8
SLIM
 10
11935.03458448285
 20
-824.76797672783539
 30
0.0
 11
12075.0
 21
-684.80256121069112
 31
0.0
1001
ACAD
1010
0.0
1020
0.0
1030
0.0
1001
ACDBBLOCKREPETAG
1070
     1
1071
       19
1005
124F9A
  0
LINE
  5
124F9B
  8
SLIM
 10
11937.855967632
 20
-839.90710582082579
 30
0.0
 11
12075.0
 21
-702.76307345282942
 31
0.0
1001
ACAD
1010
0.0
1020
0.0
1030
0.0
1001
ACDBBLOCKREPETAG
1070
     1
1071
       20
1005
124F9B
  0
LINE
  5
124F9C
  8
SLIM
 10
11940.67735078115
 20
-855.04623491381665
 30
0.0
 11
12075.0
 21
-720.7235856949676
 31
0.0
1001
ACAD
1010
0.0
1020
0.0
1030
0.0
1001
ACDBBLOCKREPETAG
1070
     1
1071
       21
1005
124F9C
  0
LINE
  5
124F9D
  8
SLIM
 10
11943.498733930301
 20
-870.18536400680739
 30
0.0
 11
12075.0
 21
-738.684097937106
 31
0.0
1001
ACAD
1010
0.0
1020
0.0
1030
0.0
1001
ACDBBLOCKREPETAG
1070
     1
1071
       22
1005
124F9D
  0
LINE
  5
124F9E
  8
SLIM
 10
11945.5
 20
-886.14461017924543
 30
0.0
 11
12075.0
 21
-756.64461017924407
 31
0.0
1001
ACAD
1010
0.0
1020
0.0
1030
0.0
1001
ACDBBLOCKREPETAG
1070
     1
1071
       23
1005
124F9E
  0
LINE
  5
124F9F
  8
SLIM
 10
11945.5
 20
-904.10512242138145
 30
0.0
 11
12074.15680692925
 21
-775.44831549213154
 31
0.0
1001
ACAD
1010
0.0
1020
0.0
1030
0.0
1001
ACDBBLOCKREPETAG
1070
     1
1071
       24
1005
124F9F
  0
LINE
  5
124FA0
  8
SLIM
 10
11945.5
 20
-922.06563466351747
 30
0.0
 11
12070.04294658328
 21
-797.52268808023439
 31
0.0
1001
ACAD
1010
0.0
1020
0.0
1030
0.0
1001
ACDBBLOCKREPETAG
1070
     1
1071
       25
1005
124FA0
  0
LINE
  5
124FA1
  8
SLIM
 10
11960.52614690566
 20
-924.99999999999955
 30
0.0
 11
12065.92908623732
 21
-819.59706066833724
 31
0.0
1001
ACAD
1010
0.0
1020
0.0
1030
0.0
1001
ACDBBLOCKREPETAG
1070
     1
1071
       26
1005
124FA1
  0
LINE
  5
124FA2
  8
SLIM
 10
11978.4866591478
 20
-924.99999999999955
 30
0.0
 11
12061.81522589136
 21
-841.67143325643985
 31
0.0
1001
ACAD
1010
0.0
1020
0.0
1030
0.0
1001
ACDBBLOCKREPETAG
1070
     1
1071
       27
1005
124FA2
  0
LINE
  5
124FA3
  8
SLIM
 10
11996.447171389929
 20
-924.99999999999955
 30
0.0
 11
12057.70136554539
 21
-863.74580584454304
 31
0.0
1001
ACAD
1010
0.0
1020
0.0
1030
0.0
1001
ACDBBLOCKREPETAG
1070
     1
1071
       28
1005
124FA3
  0
LINE
  5
124FA4
  8
SLIM
 10
12014.407683632069
 20
-924.99999999999955
 30
0.0
 11
12054.5
 21
-884.90768363207417
 31
0.0
1001
ACAD
1010
0.0
1020
0.0
1030
0.0
1001
ACDBBLOCKREPETAG
1070
     1
1071
       29
1005
124FA4
  0
LINE
  5
124FA5
  8
SLIM
 10
12032.368195874211
 20
-924.99999999999955
 30
0.0
 11
12054.5
 21
-902.86819587421314
 31
0.0
1001
ACAD
1010
0.0
1020
0.0
1030
0.0
1001
ACDBBLOCKREPETAG
1070
     1
1071
       30
1005
124FA5
  0
LINE
  5
124FA6
  8
SLIM
 10
12050.328708116351
 20
-924.99999999999955
 30
0.0
 11
12054.5
 21
-920.82870811635235
 31
0.0
1001
ACAD
1010
0.0
1020
0.0
1030
0.0
1001
ACDBBLOCKREPETAG
1070
     1
1071
       31
1005
124FA6
  0
LINE
  5
124FA7
  8
OBJECT
 10
11925.0
 20
-654.99999999999966
 30
0.0
 11
12075.0
 21
-654.99999999999966
 31
0.0
1001
ACDBBLOCKREPETAG
1070
     1
1071
        2
1005
124FA7
  0
LINE
  5
124FA8
  8
OBJECT
 10
12075.0
 20
-654.99999999999966
 30
0.0
 11
12075.0
 21
-770.9238648686005
 31
0.0
1001
ACDBBLOCKREPETAG
1070
     1
1071
        3
1005
124FA8
  0
LINE
  5
124FA9
  8
OBJECT
 10
12075.0
 20
-770.9238648686005
 30
0.0
 11
12054.5
 21
-880.92386486860221
 31
0.0
1001
ACDBBLOCKREPETAG
1070
     1
1071
        4
1005
124FA9
  0
LINE
  5
124FAA
  8
OBJECT
 10
12054.5
 20
-880.92386486860221
 30
0.0
 11
12054.5
 21
-924.99999999999955
 31
0.0
1001
ACDBBLOCKREPETAG
1070
     1
1071
        5
1005
124FAA
  0
LINE
  5
124FAB
  8
OBJECT
 10
12054.5
 20
-924.99999999999955
 30
0.0
 11
11945.5
 21
-924.99999999999955
 31
0.0
1001
ACDBBLOCKREPETAG
1070
     1
1071
        6
1005
124FAB
  0
LINE
  5
124FAC
  8
OBJECT
 10
11945.5
 20
-924.99999999999955
 30
0.0
 11
11945.5
 21
-880.92386486861199
 31
0.0
1001
ACDBBLOCKREPETAG
1070
     1
1071
        7
1005
124FAC
  0
LINE
  5
124FAD
  8
OBJECT
 10
11945.5
 20
-880.92386486861199
 30
0.0
 11
11925.0
 21
-770.9238648686005
 31
0.0
1001
ACDBBLOCKREPETAG
1070
     1
1071
        8
1005
124FAD
  0
LINE
  5
124FAE
  8
OBJECT
 10
11925.0
 20
-770.9238648686005
 30
0.0
 11
11925.0
 21
-654.99999999999966
 31
0.0
1001
ACDBBLOCKREPETAG
1070
     1
1071
        9
1005
124FAE
  0
LINE
  5
124FAF
  8
SLIM
 10
9925.0
 20
-655.19743878930785
 30
0.0
 11
9925.1974387893097
 21
-654.99999999999966
 31
0.0
1001
ACAD
1010
0.0
1020
0.0
1030
0.0
1001
ACDBBLOCKREPETAG
1070
     1
1071
        1
1005
0
  0
LINE
  5
124FB0
  8
SLIM
 10
9925.0
 20
-673.15795103144626
 30
0.0
 11
9943.1579510314441
 21
-654.99999999999966
 31
0.0
1001
ACAD
1010
0.0
1020
0.0
1030
0.0
1001
ACDBBLOCKREPETAG
1070
     1
1071
       10
1005
124FB0
  0
LINE
  5
124FB1
  8
SLIM
 10
9925.0
 20
-691.11846327358444
 30
0.0
 11
9961.1184632735858
 21
-654.99999999999966
 31
0.0
1001
ACAD
1010
0.0
1020
0.0
1030
0.0
1001
ACDBBLOCKREPETAG
1070
     1
1071
       11
1005
124FB1
  0
LINE
  5
124FB2
  8
SLIM
 10
9925.0
 20
-709.07897551572296
 30
0.0
 11
9979.0789755157257
 21
-654.99999999999966
 31
0.0
1001
ACAD
1010
0.0
1020
0.0
1030
0.0
1001
ACDBBLOCKREPETAG
1070
     1
1071
       12
1005
124FB2
  0
LINE
  5
124FB3
  8
SLIM
 10
9925.0
 20
-727.03948775786114
 30
0.0
 11
9997.0394877578656
 21
-654.99999999999966
 31
0.0
1001
ACAD
1010
0.0
1020
0.0
1030
0.0
1001
ACDBBLOCKREPETAG
1070
     1
1071
       13
1005
124FB3
  0
LINE
  5
124FB4
  8
SLIM
 10
9925.0
 20
-744.99999999999955
 30
0.0
 11
10015.0
 21
-654.99999999999966
 31
0.0
1001
ACAD
1010
0.0
1020
0.0
1030
0.0
1001
ACDBBLOCKREPETAG
1070
     1
1071
       14
1005
124FB4
  0
LINE
  5
124FB5
  8
SLIM
 10
9925.0
 20
-762.96051224213772
 30
0.0
 11
10032.96051224214
 21
-654.99999999999966
 31
0.0
1001
ACAD
1010
0.0
1020
0.0
1030
0.0
1001
ACDBBLOCKREPETAG
1070
     1
1071
       15
1005
124FB5
  0
LINE
  5
124FB6
  8
SLIM
 10
9926.5704350354117
 20
-779.35058944886373
 30
0.0
 11
10050.921024484271
 21
-654.99999999999966
 31
0.0
1001
ACAD
1010
0.0
1020
0.0
1030
0.0
1001
ACDBBLOCKREPETAG
1070
     1
1071
       16
1005
124FB6
  0
LINE
  5
124FB7
  8
SLIM
 10
9929.3918181845602
 20
-794.48971854185424
 30
0.0
 11
10068.881536726411
 21
-654.99999999999966
 31
0.0
1001
ACAD
1010
0.0
1020
0.0
1030
0.0
1001
ACDBBLOCKREPETAG
1070
     1
1071
       17
1005
124FB7
  0
LINE
  5
124FB8
  8
SLIM
 10
9932.2132013337086
 20
-809.62884763484476
 30
0.0
 11
10075.0
 21
-666.84204896855283
 31
0.0
1001
ACAD
1010
0.0
1020
0.0
1030
0.0
1001
ACDBBLOCKREPETAG
1070
     1
1071
       18
1005
124FB8
  0
LINE
  5
124FB9
  8
SLIM
 10
9935.0345844828553
 20
-824.76797672783539
 30
0.0
 11
10075.0
 21
-684.80256121069112
 31
0.0
1001
ACAD
1010
0.0
1020
0.0
1030
0.0
1001
ACDBBLOCKREPETAG
1070
     1
1071
       19
1005
124FB9
  0
LINE
  5
124FBA
  8
SLIM
 10
9937.8559676320037
 20
-839.90710582082579
 30
0.0
 11
10075.0
 21
-702.76307345282942
 31
0.0
1001
ACAD
1010
0.0
1020
0.0
1030
0.0
1001
ACDBBLOCKREPETAG
1070
     1
1071
       20
1005
124FBA
  0
LINE
  5
124FBB
  8
SLIM
 10
9940.6773507811504
 20
-855.04623491381665
 30
0.0
 11
10075.0
 21
-720.7235856949676
 31
0.0
1001
ACAD
1010
0.0
1020
0.0
1030
0.0
1001
ACDBBLOCKREPETAG
1070
     1
1071
       21
1005
124FBB
  0
LINE
  5
124FBC
  8
SLIM
 10
9943.498733930297
 20
-870.18536400680739
 30
0.0
 11
10075.0
 21
-738.684097937106
 31
0.0
1001
ACAD
1010
0.0
1020
0.0
1030
0.0
1001
ACDBBLOCKREPETAG
1070
     1
1071
       22
1005
124FBC
  0
LINE
  5
124FBD
  8
SLIM
 10
9945.4999999999982
 20
-886.14461017924543
 30
0.0
 11
10075.0
 21
-756.64461017924407
 31
0.0
1001
ACAD
1010
0.0
1020
0.0
1030
0.0
1001
ACDBBLOCKREPETAG
1070
     1
1071
       23
1005
124FBD
  0
LINE
  5
124FBE
  8
SLIM
 10
9945.5
 20
-904.10512242138145
 30
0.0
 11
10074.15680692925
 21
-775.44831549213154
 31
0.0
1001
ACAD
1010
0.0
1020
0.0
1030
0.0
1001
ACDBBLOCKREPETAG
1070
     1
1071
       24
1005
124FBE
  0
LINE
  5
124FBF
  8
SLIM
 10
9945.5000000000036
 20
-922.06563466351747
 30
0.0
 11
10070.04294658328
 21
-797.52268808023439
 31
0.0
1001
ACAD
1010
0.0
1020
0.0
1030
0.0
1001
ACDBBLOCKREPETAG
1070
     1
1071
       25
1005
124FBF
  0
LINE
  5
124FC0
  8
SLIM
 10
9960.5261469056604
 20
-924.99999999999955
 30
0.0
 11
10065.92908623732
 21
-819.59706066833724
 31
0.0
1001
ACAD
1010
0.0
1020
0.0
1030
0.0
1001
ACDBBLOCKREPETAG
1070
     1
1071
       26
1005
124FC0
  0
LINE
  5
124FC1
  8
SLIM
 10
9978.4866591477985
 20
-924.99999999999955
 30
0.0
 11
10061.815225891351
 21
-841.67143325643985
 31
0.0
1001
ACAD
1010
0.0
1020
0.0
1030
0.0
1001
ACDBBLOCKREPETAG
1070
     1
1071
       27
1005
124FC1
  0
LINE
  5
124FC2
  8
SLIM
 10
9996.4471713899384
 20
-924.99999999999955
 30
0.0
 11
10057.70136554539
 21
-863.74580584454304
 31
0.0
1001
ACAD
1010
0.0
1020
0.0
1030
0.0
1001
ACDBBLOCKREPETAG
1070
     1
1071
       28
1005
124FC2
  0
LINE
  5
124FC3
  8
SLIM
 10
10014.40768363206
 20
-924.99999999999955
 30
0.0
 11
10054.5
 21
-884.90768363207417
 31
0.0
1001
ACAD
1010
0.0
1020
0.0
1030
0.0
1001
ACDBBLOCKREPETAG
1070
     1
1071
       29
1005
124FC3
  0
LINE
  5
124FC4
  8
SLIM
 10
10032.368195874211
 20
-924.99999999999955
 30
0.0
 11
10054.5
 21
-902.86819587421314
 31
0.0
1001
ACAD
1010
0.0
1020
0.0
1030
0.0
1001
ACDBBLOCKREPETAG
1070
     1
1071
       30
1005
124FC4
  0
LINE
  5
124FC5
  8
SLIM
 10
10050.328708116351
 20
-924.99999999999955
 30
0.0
 11
10054.5
 21
-920.82870811635235
 31
0.0
1001
ACAD
1010
0.0
1020
0.0
1030
0.0
1001
ACDBBLOCKREPETAG
1070
     1
1071
       31
1005
124FC5
  0
LINE
  5
124FC6
  8
OBJECT
 10
9925.0
 20
-654.99999999999966
 30
0.0
 11
10075.0
 21
-654.99999999999966
 31
0.0
1001
ACDBBLOCKREPETAG
1070
     1
1071
        2
1005
124FC6
  0
LINE
  5
124FC7
  8
OBJECT
 10
10075.0
 20
-654.99999999999966
 30
0.0
 11
10075.0
 21
-770.9238648686005
 31
0.0
1001
ACDBBLOCKREPETAG
1070
     1
1071
        3
1005
124FC7
  0
LINE
  5
124FC8
  8
OBJECT
 10
10075.0
 20
-770.9238648686005
 30
0.0
 11
10054.5
 21
-880.92386486860221
 31
0.0
1001
ACDBBLOCKREPETAG
1070
     1
1071
        4
1005
124FC8
  0
LINE
  5
124FC9
  8
OBJECT
 10
10054.5
 20
-880.92386486860221
 30
0.0
 11
10054.5
 21
-924.99999999999955
 31
0.0
1001
ACDBBLOCKREPETAG
1070
     1
1071
        5
1005
124FC9
  0
LINE
  5
124FCA
  8
OBJECT
 10
10054.5
 20
-924.99999999999955
 30
0.0
 11
9945.5000000000036
 21
-924.99999999999955
 31
0.0
1001
ACDBBLOCKREPETAG
1070
     1
1071
        6
1005
124FCA
  0
LINE
  5
124FCB
  8
OBJECT
 10
9945.5000000000036
 20
-924.99999999999955
 30
0.0
 11
9945.4999999999982
 21
-880.92386486861199
 31
0.0
1001
ACDBBLOCKREPETAG
1070
     1
1071
        7
1005
124FCB
  0
LINE
  5
124FCC
  8
OBJECT
 10
9945.4999999999982
 20
-880.92386486861199
 30
0.0
 11
9925.0
 21
-770.9238648686005
 31
0.0
1001
ACDBBLOCKREPETAG
1070
     1
1071
        8
1005
124FCC
  0
LINE
  5
124FCD
  8
OBJECT
 10
9925.0
 20
-770.9238648686005
 30
0.0
 11
9925.0
 21
-654.99999999999966
 31
0.0
1001
ACDBBLOCKREPETAG
1070
     1
1071
        9
1005
124FCD
  0
LINE
  5
124FCE
  8
SLIM
 10
7925.0
 20
-655.19743878930785
 30
0.0
 11
7925.1974387893079
 21
-654.99999999999966
 31
0.0
1001
ACAD
1010
0.0
1020
0.0
1030
0.0
1001
ACDBBLOCKREPETAG
1070
     1
1071
        1
1005
0
  0
LINE
  5
124FCF
  8
SLIM
 10
7925.0
 20
-673.15795103144626
 30
0.0
 11
7943.1579510314459
 21
-654.99999999999966
 31
0.0
1001
ACAD
1010
0.0
1020
0.0
1030
0.0
1001
ACDBBLOCKREPETAG
1070
     1
1071
       11
1005
124FCF
  0
LINE
  5
124FD0
  8
SLIM
 10
7925.0
 20
-691.11846327358444
 30
0.0
 11
7961.1184632735867
 21
-654.99999999999966
 31
0.0
1001
ACAD
1010
0.0
1020
0.0
1030
0.0
1001
ACDBBLOCKREPETAG
1070
     1
1071
       12
1005
124FD0
  0
LINE
  5
124FD1
  8
SLIM
 10
7925.0
 20
-709.07897551572296
 30
0.0
 11
7979.078975515723
 21
-654.99999999999966
 31
0.0
1001
ACAD
1010
0.0
1020
0.0
1030
0.0
1001
ACDBBLOCKREPETAG
1070
     1
1071
       13
1005
124FD1
  0
LINE
  5
124FD2
  8
SLIM
 10
7925.0
 20
-727.03948775786114
 30
0.0
 11
7997.0394877578628
 21
-654.99999999999966
 31
0.0
1001
ACAD
1010
0.0
1020
0.0
1030
0.0
1001
ACDBBLOCKREPETAG
1070
     1
1071
       14
1005
124FD2
  0
LINE
  5
124FD3
  8
SLIM
 10
7925.0
 20
-744.99999999999955
 30
0.0
 11
8015.0
 21
-654.99999999999966
 31
0.0
1001
ACAD
1010
0.0
1020
0.0
1030
0.0
1001
ACDBBLOCKREPETAG
1070
     1
1071
       15
1005
124FD3
  0
LINE
  5
124FD4
  8
SLIM
 10
7925.0
 20
-762.96051224213772
 30
0.0
 11
8032.960512242139
 21
-654.99999999999966
 31
0.0
1001
ACAD
1010
0.0
1020
0.0
1030
0.0
1001
ACDBBLOCKREPETAG
1070
     1
1071
       16
1005
124FD4
  0
LINE
  5
124FD5
  8
SLIM
 10
7926.5704350354117
 20
-779.35058944886373
 30
0.0
 11
8050.9210244842798
 21
-654.99999999999966
 31
0.0
1001
ACAD
1010
0.0
1020
0.0
1030
0.0
1001
ACDBBLOCKREPETAG
1070
     1
1071
       17
1005
124FD5
  0
LINE
  5
124FD6
  8
SLIM
 10
7929.3918181845593
 20
-794.4897185418539
 30
0.0
 11
8068.8815367264133
 21
-654.99999999999966
 31
0.0
1001
ACAD
1010
0.0
1020
0.0
1030
0.0
1001
ACDBBLOCKREPETAG
1070
     1
1071
       18
1005
124FD6
  0
LINE
  5
124FD7
  8
SLIM
 10
7932.2132013337077
 20
-809.62884763484408
 30
0.0
 11
8075.0
 21
-666.84204896855283
 31
0.0
1001
ACAD
1010
0.0
1020
0.0
1030
0.0
1001
ACDBBLOCKREPETAG
1070
     1
1071
       19
1005
124FD7
  0
LINE
  5
124FD8
  8
SLIM
 10
7935.0345844828562
 20
-824.76797672783425
 30
0.0
 11
8075.0
 21
-684.80256121069112
 31
0.0
1001
ACAD
1010
0.0
1020
0.0
1030
0.0
1001
ACDBBLOCKREPETAG
1070
     1
1071
       20
1005
124FD8
  0
LINE
  5
124FD9
  8
SLIM
 10
7937.8559676320019
 20
-839.90710582082465
 30
0.0
 11
8075.0
 21
-702.76307345282942
 31
0.0
1001
ACAD
1010
0.0
1020
0.0
1030
0.0
1001
ACDBBLOCKREPETAG
1070
     1
1071
       21
1005
124FD9
  0
LINE
  5
124FDA
  8
SLIM
 10
7940.677350781154
 20
-855.04623491381471
 30
0.0
 11
8075.0
 21
-720.7235856949676
 31
0.0
1001
ACAD
1010
0.0
1020
0.0
1030
0.0
1001
ACDBBLOCKREPETAG
1070
     1
1071
       22
1005
124FDA
  0
LINE
  5
124FDB
  8
SLIM
 10
7943.4987339303016
 20
-870.18536400680489
 30
0.0
 11
8075.0
 21
-738.684097937106
 31
0.0
1001
ACAD
1010
0.0
1020
0.0
1030
0.0
1001
ACDBBLOCKREPETAG
1070
     1
1071
       23
1005
124FDB
  0
LINE
  5
124FDC
  8
SLIM
 10
7946.6446101792453
 20
-884.99999999999955
 30
0.0
 11
8075.0
 21
-756.64461017924407
 31
0.0
1001
ACAD
1010
0.0
1020
0.0
1030
0.0
1001
ACDBBLOCKREPETAG
1070
     1
1071
       24
1005
124FDC
  0
LINE
  5
124FDD
  8
SLIM
 10
7955.5
 20
-894.1051224213827
 30
0.0
 11
7964.6051224213816
 21
-884.99999999999955
 31
0.0
1001
ACAD
1010
0.0
1020
0.0
1030
0.0
1001
ACDBBLOCKREPETAG
1070
     1
1071
       25
1005
124FDD
  0
LINE
  5
124FDE
  8
SLIM
 10
7964.6051224213816
 20
-884.99999999999955
 30
0.0
 11
8074.1568069292498
 21
-775.44831549213154
 31
0.0
1001
ACAD
1010
0.0
1020
0.0
1030
0.0
1001
ACDBBLOCKREPETAG
1070
     1
1071
       26
1005
124FDE
  0
LINE
  5
124FDF
  8
SLIM
 10
7962.5656346635215
 20
-904.99999999999966
 30
0.0
 11
7982.5656346635215
 21
-884.99999999999955
 31
0.0
1001
ACAD
1010
0.0
1020
0.0
1030
0.0
1001
ACDBBLOCKREPETAG
1070
     1
1071
       27
1005
124FDF
  0
LINE
  5
124FE0
  8
SLIM
 10
7982.5656346635215
 20
-884.99999999999955
 30
0.0
 11
8070.0429465832849
 21
-797.52268808023427
 31
0.0
1001
ACAD
1010
0.0
1020
0.0
1030
0.0
1001
ACDBBLOCKREPETAG
1070
     1
1071
       28
1005
124FE0
  0
LINE
  5
124FE1
  8
SLIM
 10
7980.5261469056604
 20
-904.99999999999966
 30
0.0
 11
8000.5261469056577
 21
-884.99999999999955
 31
0.0
1001
ACAD
1010
0.0
1020
0.0
1030
0.0
1001
ACDBBLOCKREPETAG
1070
     1
1071
       29
1005
124FE1
  0
LINE
  5
124FE2
  8
SLIM
 10
8000.5261469056577
 20
-884.99999999999955
 30
0.0
 11
8065.9290862373227
 21
-819.59706066833712
 31
0.0
1001
ACAD
1010
0.0
1020
0.0
1030
0.0
1001
ACDBBLOCKREPETAG
1070
     1
1071
       30
1005
124FE2
  0
LINE
  5
124FE3
  8
SLIM
 10
7998.4866591477967
 20
-904.99999999999966
 30
0.0
 11
8018.4866591477967
 21
-884.99999999999955
 31
0.0
1001
ACAD
1010
0.0
1020
0.0
1030
0.0
1001
ACDBBLOCKREPETAG
1070
     1
1071
       31
1005
124FE3
  0
LINE
  5
124FE4
  8
SLIM
 10
8018.4866591477967
 20
-884.99999999999955
 30
0.0
 11
8061.8152258913578
 21
-841.67143325643985
 31
0.0
1001
ACAD
1010
0.0
1020
0.0
1030
0.0
1001
ACDBBLOCKREPETAG
1070
     1
1071
       32
1005
124FE4
  0
LINE
  5
124FE5
  8
SLIM
 10
8016.4471713899384
 20
-904.99999999999966
 30
0.0
 11
8036.4471713899338
 21
-884.99999999999955
 31
0.0
1001
ACAD
1010
0.0
1020
0.0
1030
0.0
1001
ACDBBLOCKREPETAG
1070
     1
1071
       33
1005
124FE5
  0
LINE
  5
124FE6
  8
SLIM
 10
8036.4471713899338
 20
-884.99999999999955
 30
0.0
 11
8057.701365545392
 21
-863.74580584454225
 31
0.0
1001
ACAD
1010
0.0
1020
0.0
1030
0.0
1001
ACDBBLOCKREPETAG
1070
     1
1071
       34
1005
124FE6
  0
LINE
  5
124FE7
  8
SLIM
 10
8034.4076836320728
 20
-904.99999999999966
 30
0.0
 11
8044.5000000000036
 21
-894.90768363207417
 31
0.0
1001
ACAD
1010
0.0
1020
0.0
1030
0.0
1001
ACDBBLOCKREPETAG
1070
     1
1071
       35
1005
124FE7
  0
LINE
  5
124FE8
  8
OBJECT
 10
7925.0
 20
-654.99999999999966
 30
0.0
 11
8075.0
 21
-654.99999999999966
 31
0.0
1001
ACDBBLOCKREPETAG
1070
     1
1071
        2
1005
124FE8
  0
LINE
  5
124FE9
  8
OBJECT
 10
8075.0
 20
-654.99999999999966
 30
0.0
 11
8075.0
 21
-770.9238648686005
 31
0.0
1001
ACDBBLOCKREPETAG
1070
     1
1071
        3
1005
124FE9
  0
LINE
  5
124FEA
  8
OBJECT
 10
8075.0
 20
-770.9238648686005
 30
0.0
 11
8053.7403566346029
 21
-884.99999999999955
 31
0.0
1001
ACDBBLOCKREPETAG
1070
     1
1071
        4
1005
124FEA
  0
LINE
  5
124FEB
  8
OBJECT
 10
8044.5000000000036
 20
-884.99999999999955
 30
0.0
 11
8044.5000000000036
 21
-904.99999999999966
 31
0.0
1001
ACDBBLOCKREPETAG
1070
     1
1071
        5
1005
124FEB
  0
LINE
  5
124FEC
  8
OBJECT
 10
8044.5000000000036
 20
-904.99999999999966
 30
0.0
 11
7955.5
 21
-904.99999999999966
 31
0.0
1001
ACDBBLOCKREPETAG
1070
     1
1071
        6
1005
124FEC
  0
LINE
  5
124FED
  8
OBJECT
 10
7955.5
 20
-904.99999999999966
 30
0.0
 11
7955.5
 21
-884.99999999999955
 31
0.0
1001
ACDBBLOCKREPETAG
1070
     1
1071
        7
1005
124FED
  0
LINE
  5
124FEE
  8
OBJECT
 10
8053.7403566346029
 20
-884.99999999999955
 30
0.0
 11
7946.2596433653962
 21
-884.99999999999955
 31
0.0
1001
ACDBBLOCKREPETAG
1070
     1
1071
        8
1005
124FEE
  0
LINE
  5
124FEF
  8
OBJECT
 10
7946.2596433653962
 20
-884.99999999999955
 30
0.0
 11
7925.0
 21
-770.9238648686005
 31
0.0
1001
ACDBBLOCKREPETAG
1070
     1
1071
        9
1005
124FEF
  0
LINE
  5
124FF0
  8
OBJECT
 10
7925.0
 20
-770.9238648686005
 30
0.0
 11
7925.0
 21
-654.99999999999966
 31
0.0
1001
ACDBBLOCKREPETAG
1070
     1
1071
       10
1005
124FF0
  0
LINE
  5
124FF1
  8
OBJECT
 10
12055.999999999991
 20
-1003.999999999999
 30
0.0
 11
12055.999999999991
 21
-1013.999999999999
 31
0.0
1001
ACDBBLOCKREPETAG
1070
     1
1071
      121
1005
124FF1
  0
LINE
  5
124FF2
  8
OBJECT
 10
11961.75
 20
-954.69999999999663
 30
0.0
 11
11974.25
 21
-954.69999999999663
 31
0.0
1001
ACDBBLOCKREPETAG
1070
     1
1071
      122
1005
124FF2
  0
LINE
  5
124FF3
  8
OBJECT
 10
12073.499999999991
 20
-962.70000000000005
 30
0.0
 11
12073.499999999991
 21
-964.99999999999955
 31
0.0
1001
ACDBBLOCKREPETAG
1070
     1
1071
      123
1005
124FF3
  0
LINE
  5
124FF4
  8
OBJECT
 10
12057.749999999991
 20
-954.69999999999663
 30
0.0
 11
12070.249999999991
 21
-954.69999999999663
 31
0.0
1001
ACDBBLOCKREPETAG
1070
     1
1071
      124
1005
124FF4
  0
LINE
  5
124FF5
  8
OBJECT
 10
12054.499999999991
 20
-962.70000000000005
 30
0.0
 11
12054.499999999991
 21
-964.99999999999955
 31
0.0
1001
ACDBBLOCKREPETAG
1070
     1
1071
      125
1005
124FF5
  0
LINE
  5
124FF6
  8
OBJECT
 10
11953.0
 20
-964.99999999999955
 30
0.0
 11
11953.0
 21
-962.70000000000005
 31
0.0
1001
ACDBBLOCKREPETAG
1070
     1
1071
      126
1005
124FF6
  0
LINE
  5
124FF7
  8
OBJECT
 10
11983.0
 20
-964.99999999999955
 30
0.0
 11
11983.0
 21
-962.70000000000005
 31
0.0
1001
ACDBBLOCKREPETAG
1070
     1
1071
      127
1005
124FF7
  0
LINE
  5
124FF8
  8
OBJECT
 10
11961.75
 20
-954.69999999999663
 30
0.0
 11
11961.75
 21
-962.70000000000005
 31
0.0
1001
ACDBBLOCKREPETAG
1070
     1
1071
      128
1005
124FF8
  0
LINE
  5
124FF9
  8
OBJECT
 10
11974.25
 20
-954.69999999999663
 30
0.0
 11
11974.25
 21
-962.70000000000005
 31
0.0
1001
ACDBBLOCKREPETAG
1070
     1
1071
      129
1005
124FF9
  0
LINE
  5
124FFA
  8
OBJECT
 10
11953.0
 20
-962.70000000000005
 30
0.0
 11
11983.0
 21
-962.70000000000005
 31
0.0
1001
ACDBBLOCKREPETAG
1070
     1
1071
      130
1005
124FFA
  0
LINE
  5
124FFB
  8
OBJECT
 10
11960.0
 20
-1003.999999999999
 30
0.0
 11
11960.0
 21
-1013.999999999999
 31
0.0
1001
ACDBBLOCKREPETAG
1070
     1
1071
      131
1005
124FFB
  0
LINE
  5
124FFC
  8
OBJECT
 10
11976.0
 20
-1003.999999999999
 30
0.0
 11
11976.0
 21
-1013.999999999999
 31
0.0
1001
ACDBBLOCKREPETAG
1070
     1
1071
      132
1005
124FFC
  0
LINE
  5
124FFD
  8
OBJECT
 10
11960.0
 20
-1013.999999999999
 30
0.0
 11
11976.0
 21
-1013.999999999999
 31
0.0
1001
ACDBBLOCKREPETAG
1070
     1
1071
      133
1005
124FFD
  0
LINE
  5
124FFE
  8
OBJECT
 10
12071.999999999991
 20
-1003.999999999999
 30
0.0
 11
12071.999999999991
 21
-1013.999999999999
 31
0.0
1001
ACDBBLOCKREPETAG
1070
     1
1071
      134
1005
124FFE
  0
LINE
  5
124FFF
  8
OBJECT
 10
12071.999999999991
 20
-1013.999999999999
 30
0.0
 11
12055.999999999991
 21
-1013.999999999999
 31
0.0
1001
ACDBBLOCKREPETAG
1070
     1
1071
      135
1005
124FFF
  0
LINE
  5
125000
  8
OBJECT
 10
11944.999999999991
 20
-1044.9999999999991
 30
0.0
 11
11944.999999999991
 21
-1003.999999999999
 31
0.0
1001
ACDBBLOCKREPETAG
1070
     1
1071
      136
1005
125000
  0
LINE
  5
125001
  8
OBJECT
 10
12054.999999999991
 20
-1003.999999999999
 30
0.0
 11
12054.999999999991
 21
-1044.9999999999991
 31
0.0
1001
ACDBBLOCKREPETAG
1070
     1
1071
      137
1005
125001
  0
LINE
  5
125002
  8
OBJECT
 10
12070.249999999991
 20
-954.69999999999663
 30
0.0
 11
12070.249999999991
 21
-962.70000000000005
 31
0.0
1001
ACDBBLOCKREPETAG
1070
     1
1071
      138
1005
125002
  0
LINE
  5
125003
  8
OBJECT
 10
12057.749999999991
 20
-954.69999999999663
 30
0.0
 11
12057.749999999991
 21
-962.70000000000005
 31
0.0
1001
ACDBBLOCKREPETAG
1070
     1
1071
      139
1005
125003
  0
LINE
  5
125004
  8
OBJECT
 10
12054.499999999991
 20
-962.70000000000005
 30
0.0
 11
12073.499999999991
 21
-962.70000000000005
 31
0.0
1001
ACDBBLOCKREPETAG
1070
     1
1071
      140
1005
125004
  0
LINE
  5
125005
  8
OBJECT
 10
12054.999999999991
 20
-1044.9999999999991
 30
0.0
 11
11944.999999999991
 21
-1044.9999999999991
 31
0.0
1001
ACDBBLOCKREPETAG
1070
     1
1071
      141
1005
125005
  0
LINE
  5
125006
  8
OBJECT
 10
12075.999999999991
 20
-979.99999999999966
 30
0.0
 11
11938.999999999991
 21
-979.99999999999966
 31
0.0
1001
ACDBBLOCKREPETAG
1070
     1
1071
      142
1005
125006
  0
LINE
  5
125007
  8
OBJECT
 10
12075.999999999991
 20
-979.99999999999966
 30
0.0
 11
12075.999999999991
 21
-964.99999999999955
 31
0.0
1001
ACDBBLOCKREPETAG
1070
     1
1071
      143
1005
125007
  0
LINE
  5
125008
  8
OBJECT
 10
12075.999999999991
 20
-989.99999999999955
 30
0.0
 11
12075.999999999991
 21
-1003.999999999999
 31
0.0
1001
ACDBBLOCKREPETAG
1070
     1
1071
      144
1005
125008
  0
LINE
  5
125009
  8
OBJECT
 10
12068.999999999991
 20
-989.99999999999955
 30
0.0
 11
12068.999999999991
 21
-979.99999999999966
 31
0.0
1001
ACDBBLOCKREPETAG
1070
     1
1071
      145
1005
125009
  0
LINE
  5
12500A
  8
OBJECT
 10
12058.999999999991
 20
-989.99999999999955
 30
0.0
 11
12058.999999999991
 21
-979.99999999999966
 31
0.0
1001
ACDBBLOCKREPETAG
1070
     1
1071
      146
1005
12500A
  0
LINE
  5
12500B
  8
OBJECT
 10
11938.999999999991
 20
-989.99999999999955
 30
0.0
 11
11938.999999999991
 21
-1003.999999999999
 31
0.0
1001
ACDBBLOCKREPETAG
1070
     1
1071
      147
1005
12500B
  0
LINE
  5
12500C
  8
OBJECT
 10
11938.999999999991
 20
-1003.999999999999
 30
0.0
 11
12075.999999999991
 21
-1003.999999999999
 31
0.0
1001
ACDBBLOCKREPETAG
1070
     1
1071
      148
1005
12500C
  0
LINE
  5
12500D
  8
OBJECT
 10
11973.0
 20
-989.99999999999955
 30
0.0
 11
11973.0
 21
-979.99999999999966
 31
0.0
1001
ACDBBLOCKREPETAG
1070
     1
1071
      149
1005
12500D
  0
LINE
  5
12500E
  8
OBJECT
 10
11963.0
 20
-989.99999999999955
 30
0.0
 11
11963.0
 21
-979.99999999999966
 31
0.0
1001
ACDBBLOCKREPETAG
1070
     1
1071
      150
1005
12500E
  0
LINE
  5
12500F
  8
OBJECT
 10
11938.999999999991
 20
-989.99999999999955
 30
0.0
 11
12075.999999999991
 21
-989.99999999999955
 31
0.0
1001
ACDBBLOCKREPETAG
1070
     1
1071
      151
1005
12500F
  0
LINE
  5
125010
  8
OBJECT
 10
11945.999999999991
 20
-979.99999999999966
 30
0.0
 11
11945.999999999991
 21
-989.99999999999955
 31
0.0
1001
ACDBBLOCKREPETAG
1070
     1
1071
      152
1005
125010
  0
LINE
  5
125011
  8
OBJECT
 10
12053.999999999991
 20
-979.99999999999966
 30
0.0
 11
12053.999999999991
 21
-989.99999999999955
 31
0.0
1001
ACDBBLOCKREPETAG
1070
     1
1071
      153
1005
125011
  0
LINE
  5
125012
  8
OBJECT
 10
12044.5
 20
-879.99999999999955
 30
0.0
 11
12065.0
 21
-769.99999999999955
 31
0.0
1001
ACDBBLOCKREPETAG
1070
     1
1071
      154
1005
125012
  0
LINE
  5
125013
  8
OBJECT
 10
11955.5
 20
-879.99999999999955
 30
0.0
 11
12044.5
 21
-879.99999999999955
 31
0.0
1001
ACDBBLOCKREPETAG
1070
     1
1071
      155
1005
125013
  0
LINE
  5
125014
  8
OBJECT
 10
11938.999999999991
 20
-979.99999999999966
 30
0.0
 11
11938.999999999991
 21
-964.99999999999955
 31
0.0
1001
ACDBBLOCKREPETAG
1070
     1
1071
      156
1005
125014
  0
LINE
  5
125015
  8
OBJECT
 10
11938.999999999991
 20
-964.99999999999955
 30
0.0
 11
12075.999999999991
 21
-964.99999999999955
 31
0.0
1001
ACDBBLOCKREPETAG
1070
     1
1071
      157
1005
125015
  0
LINE
  5
125016
  8
OBJECT
 10
11955.5
 20
-879.99999999999955
 30
0.0
 11
11955.5
 21
-929.99999999999966
 31
0.0
1001
ACDBBLOCKREPETAG
1070
     1
1071
      158
1005
125016
  0
LINE
  5
125017
  8
OBJECT
 10
12044.5
 20
-879.99999999999955
 30
0.0
 11
12044.5
 21
-929.99999999999966
 31
0.0
1001
ACDBBLOCKREPETAG
1070
     1
1071
      159
1005
125017
  0
LINE
  5
125018
  8
OBJECT
 10
11947.0
 20
-929.99999999999966
 30
0.0
 11
12053.0
 21
-929.99999999999966
 31
0.0
1001
ACDBBLOCKREPETAG
1070
     1
1071
      160
1005
125018
  0
LINE
  5
125019
  8
HIDDEN
 10
11955.5
 20
-939.99999999999955
 30
0.0
 11
12044.5
 21
-939.99999999999955
 31
0.0
1001
ACDBBLOCKREPETAG
1070
     1
1071
      161
1005
125019
  0
LINE
  5
12501A
  8
CENTER
 10
12000.0
 20
-669.99999999999955
 30
0.0
 11
12000.0
 21
-1059.9999999999991
 31
0.0
1001
ACDBBLOCKREPETAG
1070
     1
1071
      162
1005
12501A
  0
LINE
  5
12501B
  8
OBJECT
 10
12065.0
 20
-669.99999999999955
 30
0.0
 11
12065.0
 21
-769.99999999999955
 31
0.0
1001
ACDBBLOCKREPETAG
1070
     1
1071
      163
1005
12501B
  0
LINE
  5
12501C
  8
OBJECT
 10
11935.0
 20
-669.99999999999955
 30
0.0
 11
11935.0
 21
-769.99999999999955
 31
0.0
1001
ACDBBLOCKREPETAG
1070
     1
1071
      164
1005
12501C
  0
LINE
  5
12501D
  8
OBJECT
 10
11955.5
 20
-879.99999999999955
 30
0.0
 11
11935.0
 21
-769.99999999999955
 31
0.0
1001
ACDBBLOCKREPETAG
1070
     1
1071
      165
1005
12501D
  0
LINE
  5
12501E
  8
OBJECT
 10
12065.0
 20
-769.99999999999955
 30
0.0
 11
11935.0
 21
-769.99999999999955
 31
0.0
1001
ACDBBLOCKREPETAG
1070
     1
1071
      166
1005
12501E
  0
LINE
  5
12501F
  8
OBJECT
 10
11947.0
 20
-929.99999999999966
 30
0.0
 11
11947.0
 21
-964.99999999999955
 31
0.0
1001
ACDBBLOCKREPETAG
1070
     1
1071
      167
1005
12501F
  0
LINE
  5
125020
  8
OBJECT
 10
12053.0
 20
-929.99999999999966
 30
0.0
 11
12053.0
 21
-964.99999999999955
 31
0.0
1001
ACDBBLOCKREPETAG
1070
     1
1071
      168
1005
125020
  0
LINE
  5
125021
  8
OBJECT
 10
9975.5
 20
-959.99999999999955
 30
0.0
 11
9958.9999999999964
 21
-959.99999999999955
 31
0.0
1001
ACDBBLOCKREPETAG
1070
     1
1071
       12
1005
125021
  0
LINE
  5
125022
  8
OBJECT
 10
9983.0
 20
-964.99999999999955
 30
0.0
 11
9983.0
 21
-962.99999999999966
 31
0.0
1001
ACDBBLOCKREPETAG
1070
     1
1071
       13
1005
125022
  0
LINE
  5
125023
  8
OBJECT
 10
10075.999999999991
 20
-979.99999999999966
 30
0.0
 11
9938.9999999999927
 21
-979.99999999999966
 31
0.0
1001
ACDBBLOCKREPETAG
1070
     1
1071
       14
1005
125023
  0
LINE
  5
125024
  8
OBJECT
 10
10075.999999999991
 20
-979.99999999999966
 30
0.0
 11
10075.999999999991
 21
-964.99999999999955
 31
0.0
1001
ACDBBLOCKREPETAG
1070
     1
1071
       15
1005
125024
  0
LINE
  5
125025
  8
OBJECT
 10
10075.999999999991
 20
-989.99999999999955
 30
0.0
 11
10075.999999999991
 21
-1003.999999999999
 31
0.0
1001
ACDBBLOCKREPETAG
1070
     1
1071
       16
1005
125025
  0
LINE
  5
125026
  8
OBJECT
 10
10068.999999999991
 20
-989.99999999999955
 30
0.0
 11
10068.999999999991
 21
-979.99999999999966
 31
0.0
1001
ACDBBLOCKREPETAG
1070
     1
1071
       17
1005
125026
  0
LINE
  5
125027
  8
OBJECT
 10
10058.999999999991
 20
-989.99999999999955
 30
0.0
 11
10058.999999999991
 21
-979.99999999999966
 31
0.0
1001
ACDBBLOCKREPETAG
1070
     1
1071
       18
1005
125027
  0
LINE
  5
125028
  8
OBJECT
 10
9938.9999999999927
 20
-989.99999999999955
 30
0.0
 11
9938.9999999999927
 21
-1003.999999999999
 31
0.0
1001
ACDBBLOCKREPETAG
1070
     1
1071
       19
1005
125028
  0
LINE
  5
125029
  8
OBJECT
 10
9938.9999999999927
 20
-1003.999999999999
 30
0.0
 11
10075.999999999991
 21
-1003.999999999999
 31
0.0
1001
ACDBBLOCKREPETAG
1070
     1
1071
       20
1005
125029
  0
LINE
  5
12502A
  8
OBJECT
 10
9973.0
 20
-989.99999999999955
 30
0.0
 11
9973.0
 21
-979.99999999999966
 31
0.0
1001
ACDBBLOCKREPETAG
1070
     1
1071
       21
1005
12502A
  0
LINE
  5
12502B
  8
OBJECT
 10
9963.0
 20
-989.99999999999955
 30
0.0
 11
9963.0
 21
-979.99999999999966
 31
0.0
1001
ACDBBLOCKREPETAG
1070
     1
1071
       22
1005
12502B
  0
LINE
  5
12502C
  8
OBJECT
 10
9938.9999999999927
 20
-989.99999999999955
 30
0.0
 11
10075.999999999991
 21
-989.99999999999955
 31
0.0
1001
ACDBBLOCKREPETAG
1070
     1
1071
       23
1005
12502C
  0
LINE
  5
12502D
  8
OBJECT
 10
9958.9999999999964
 20
-959.99999999999955
 30
0.0
 11
9958.9999999999964
 21
-964.99999999999955
 31
0.0
1001
ACDBBLOCKREPETAG
1070
     1
1071
       24
1005
12502D
  0
LINE
  5
12502E
  8
OBJECT
 10
9963.0
 20
-1011.999999999999
 30
0.0
 11
9963.0
 21
-1014.999999999999
 31
0.0
1001
ACDBBLOCKREPETAG
1070
     1
1071
       25
1005
12502E
  0
LINE
  5
12502F
  8
OBJECT
 10
9963.0
 20
-1014.999999999999
 30
0.0
 11
9973.0
 21
-1014.999999999999
 31
0.0
1001
ACDBBLOCKREPETAG
1070
     1
1071
       26
1005
12502F
  0
LINE
  5
125030
  8
OBJECT
 10
9973.0
 20
-1014.999999999999
 30
0.0
 11
9973.0
 21
-1011.999999999999
 31
0.0
1001
ACDBBLOCKREPETAG
1070
     1
1071
       28
1005
125030
  0
LINE
  5
125031
  8
OBJECT
 10
9945.9999999999909
 20
-979.99999999999966
 30
0.0
 11
9945.9999999999909
 21
-989.99999999999955
 31
0.0
1001
ACDBBLOCKREPETAG
1070
     1
1071
       29
1005
125031
  0
LINE
  5
125032
  8
OBJECT
 10
10053.999999999991
 20
-979.99999999999966
 30
0.0
 11
10053.999999999991
 21
-989.99999999999955
 31
0.0
1001
ACDBBLOCKREPETAG
1070
     1
1071
       30
1005
125032
  0
LINE
  5
125033
  8
OBJECT
 10
10044.5
 20
-879.99999999999955
 30
0.0
 11
10065.0
 21
-769.99999999999955
 31
0.0
1001
ACDBBLOCKREPETAG
1070
     1
1071
       31
1005
125033
  0
LINE
  5
125034
  8
OBJECT
 10
9955.5
 20
-879.99999999999955
 30
0.0
 11
10044.5
 21
-879.99999999999955
 31
0.0
1001
ACDBBLOCKREPETAG
1070
     1
1071
       32
1005
125034
  0
LINE
  5
125035
  8
OBJECT
 10
9938.9999999999927
 20
-979.99999999999966
 30
0.0
 11
9938.9999999999927
 21
-964.99999999999955
 31
0.0
1001
ACDBBLOCKREPETAG
1070
     1
1071
       33
1005
125035
  0
LINE
  5
125036
  8
OBJECT
 10
9938.9999999999927
 20
-964.99999999999955
 30
0.0
 11
10075.999999999991
 21
-964.99999999999955
 31
0.0
1001
ACDBBLOCKREPETAG
1070
     1
1071
       34
1005
125036
  0
LINE
  5
125037
  8
OBJECT
 10
9955.5
 20
-879.99999999999955
 30
0.0
 11
9955.5
 21
-929.99999999999966
 31
0.0
1001
ACDBBLOCKREPETAG
1070
     1
1071
       35
1005
125037
  0
LINE
  5
125038
  8
OBJECT
 10
10044.5
 20
-879.99999999999955
 30
0.0
 11
10044.5
 21
-929.99999999999966
 31
0.0
1001
ACDBBLOCKREPETAG
1070
     1
1071
       36
1005
125038
  0
LINE
  5
125039
  8
OBJECT
 10
9947.0
 20
-929.99999999999966
 30
0.0
 11
10053.0
 21
-929.99999999999966
 31
0.0
1001
ACDBBLOCKREPETAG
1070
     1
1071
       37
1005
125039
  0
LINE
  5
12503A
  8
OBJECT
 10
10054.99999999998
 20
-959.99999999999955
 30
0.0
 11
10054.99999999998
 21
-964.99999999999955
 31
0.0
1001
ACDBBLOCKREPETAG
1070
     1
1071
       38
1005
12503A
  0
LINE
  5
12503B
  8
OBJECT
 10
10073.0
 20
-959.99999999999955
 30
0.0
 11
10073.0
 21
-964.99999999999955
 31
0.0
1001
ACDBBLOCKREPETAG
1070
     1
1071
       39
1005
12503B
  0
LINE
  5
12503C
  8
OBJECT
 10
10073.0
 20
-959.99999999999955
 30
0.0
 11
10054.99999999998
 21
-959.99999999999955
 31
0.0
1001
ACDBBLOCKREPETAG
1070
     1
1071
       40
1005
12503C
  0
LINE
  5
12503D
  8
HIDDEN
 10
9955.5
 20
-939.99999999999955
 30
0.0
 11
10044.5
 21
-939.99999999999955
 31
0.0
1001
ACDBBLOCKREPETAG
1070
     1
1071
       41
1005
12503D
  0
LINE
  5
12503E
  8
CENTER
 10
10000.0
 20
-669.99999999999955
 30
0.0
 11
10000.0
 21
-1018.999999999999
 31
0.0
1001
ACDBBLOCKREPETAG
1070
     1
1071
       42
1005
12503E
  0
LINE
  5
12503F
  8
OBJECT
 10
10065.0
 20
-669.99999999999955
 30
0.0
 11
10065.0
 21
-769.99999999999955
 31
0.0
1001
ACDBBLOCKREPETAG
1070
     1
1071
       43
1005
12503F
  0
LINE
  5
125040
  8
OBJECT
 10
9935.0
 20
-669.99999999999955
 30
0.0
 11
9935.0
 21
-769.99999999999955
 31
0.0
1001
ACDBBLOCKREPETAG
1070
     1
1071
       44
1005
125040
  0
LINE
  5
125041
  8
OBJECT
 10
9955.5
 20
-879.99999999999955
 30
0.0
 11
9935.0
 21
-769.99999999999955
 31
0.0
1001
ACDBBLOCKREPETAG
1070
     1
1071
       45
1005
125041
  0
LINE
  5
125042
  8
OBJECT
 10
10065.0
 20
-769.99999999999955
 30
0.0
 11
9935.0
 21
-769.99999999999955
 31
0.0
1001
ACDBBLOCKREPETAG
1070
     1
1071
       46
1005
125042
  0
LINE
  5
125043
  8
OBJECT
 10
9947.0
 20
-929.99999999999966
 30
0.0
 11
9947.0
 21
-964.99999999999955
 31
0.0
1001
ACDBBLOCKREPETAG
1070
     1
1071
       47
1005
125043
  0
LINE
  5
125044
  8
OBJECT
 10
10053.0
 20
-929.99999999999966
 30
0.0
 11
10053.0
 21
-964.99999999999955
 31
0.0
1001
ACDBBLOCKREPETAG
1070
     1
1071
       48
1005
125044
  0
LINE
  5
125045
  8
OBJECT
 10
9983.0
 20
-962.99999999999966
 30
0.0
 11
9975.5
 21
-959.99999999999955
 31
0.0
1001
ACDBBLOCKREPETAG
1070
     1
1071
       49
1005
125045
  0
LINE
  5
125046
  8
OBJECT
 10
10059.0
 20
-1011.999999999999
 30
0.0
 11
10059.0
 21
-1014.999999999999
 31
0.0
1001
ACDBBLOCKREPETAG
1070
     1
1071
       54
1005
125046
  0
LINE
  5
125047
  8
OBJECT
 10
10059.0
 20
-1014.999999999999
 30
0.0
 11
10069.0
 21
-1014.999999999999
 31
0.0
1001
ACDBBLOCKREPETAG
1070
     1
1071
       55
1005
125047
  0
LINE
  5
125048
  8
OBJECT
 10
10069.0
 20
-1014.999999999999
 30
0.0
 11
10069.0
 21
-1011.999999999999
 31
0.0
1001
ACDBBLOCKREPETAG
1070
     1
1071
       57
1005
125048
  0
LINE
  5
125049
  8
OBJECT
 10
9958.1850454237738
 20
-1011.999999999999
 30
0.0
 11
9977.814954576219
 21
-1011.999999999999
 31
0.0
1001
ACDBBLOCKREPETAG
1070
     1
1071
      422
1005
125049
  0
LINE
  5
12504A
  8
OBJECT
 10
9958.1850454237756
 20
-1003.999999999999
 30
0.0
 11
9958.1850454237756
 21
-1011.999999999999
 31
0.0
1001
ACDBBLOCKREPETAG
1070
     1
1071
      423
1005
12504A
  0
LINE
  5
12504B
  8
OBJECT
 10
9963.0925227118896
 20
-1003.999999999999
 30
0.0
 11
9963.0925227118896
 21
-1011.999999999999
 31
0.0
1001
ACDBBLOCKREPETAG
1070
     1
1071
      424
1005
12504B
  0
LINE
  5
12504C
  8
OBJECT
 10
9972.9074772881122
 20
-1003.999999999999
 30
0.0
 11
9972.9074772881122
 21
-1011.999999999999
 31
0.0
1001
ACDBBLOCKREPETAG
1070
     1
1071
      425
1005
12504C
  0
LINE
  5
12504D
  8
OBJECT
 10
9977.8149545762244
 20
-1003.999999999999
 30
0.0
 11
9977.8149545762244
 21
-1011.999999999999
 31
0.0
1001
ACDBBLOCKREPETAG
1070
     1
1071
      426
1005
12504D
  0
LINE
  5
12504E
  8
OBJECT
 10
10054.18504542377
 20
-1011.999999999999
 30
0.0
 11
10073.814954576221
 21
-1011.999999999999
 31
0.0
1001
ACDBBLOCKREPETAG
1070
     1
1071
      427
1005
12504E
  0
LINE
  5
12504F
  8
OBJECT
 10
10054.18504542377
 20
-1003.999999999999
 30
0.0
 11
10054.18504542377
 21
-1011.999999999999
 31
0.0
1001
ACDBBLOCKREPETAG
1070
     1
1071
      428
1005
12504F
  0
LINE
  5
125050
  8
OBJECT
 10
10059.092522711881
 20
-1003.999999999999
 30
0.0
 11
10059.092522711881
 21
-1011.999999999999
 31
0.0
1001
ACDBBLOCKREPETAG
1070
     1
1071
      429
1005
125050
  0
LINE
  5
125051
  8
OBJECT
 10
10068.90747728811
 20
-1003.999999999999
 30
0.0
 11
10068.90747728811
 21
-1011.999999999999
 31
0.0
1001
ACDBBLOCKREPETAG
1070
     1
1071
      430
1005
125051
  0
LINE
  5
125052
  8
OBJECT
 10
10073.814954576221
 20
-1003.999999999999
 30
0.0
 11
10073.814954576221
 21
-1011.999999999999
 31
0.0
1001
ACDBBLOCKREPETAG
1070
     1
1071
      431
1005
125052
  0
LINE
  5
125053
  8
OBJECT
 10
8044.5000000000036
 20
-979.99999999999204
 30
0.0
 11
7955.5
 21
-979.99999999999204
 31
0.0
1001
ACDBBLOCKREPETAG
1070
     1
1071
        0
1005
125053
  0
LINE
  5
125054
  8
OBJECT
 10
7935.0
 20
-769.99999999999204
 30
0.0
 11
7935.0
 21
-669.99999999999216
 31
0.0
1001
ACDBBLOCKREPETAG
1070
     1
1071
        1
1005
125054
  0
LINE
  5
125055
  8
OBJECT
 10
8065.0
 20
-769.99999999999204
 30
0.0
 11
8065.0
 21
-669.99999999999216
 31
0.0
1001
ACDBBLOCKREPETAG
1070
     1
1071
        2
1005
125055
  0
LINE
  5
125056
  8
OBJECT
 10
7935.0
 20
-769.99999999999204
 30
0.0
 11
8065.0
 21
-769.99999999999204
 31
0.0
1001
ACDBBLOCKREPETAG
1070
     1
1071
        3
1005
125056
  0
LINE
  5
125057
  8
OBJECT
 10
7955.5
 20
-879.99999999999204
 30
0.0
 11
8044.5000000000036
 21
-879.99999999999204
 31
0.0
1001
ACDBBLOCKREPETAG
1070
     1
1071
        4
1005
125057
  0
LINE
  5
125058
  8
OBJECT
 10
7955.5
 20
-879.99999999999204
 30
0.0
 11
7955.5
 21
-979.99999999999204
 31
0.0
1001
ACDBBLOCKREPETAG
1070
     1
1071
        5
1005
125058
  0
LINE
  5
125059
  8
OBJECT
 10
8044.5000000000036
 20
-879.99999999999204
 30
0.0
 11
8044.5000000000036
 21
-979.99999999999204
 31
0.0
1001
ACDBBLOCKREPETAG
1070
     1
1071
        6
1005
125059
  0
LINE
  5
12505A
  8
OBJECT
 10
7935.0
 20
-769.99999999999204
 30
0.0
 11
7955.5
 21
-879.99999999999204
 31
0.0
1001
ACDBBLOCKREPETAG
1070
     1
1071
        7
1005
12505A
  0
LINE
  5
12505B
  8
OBJECT
 10
8044.5000000000036
 20
-879.99999999999204
 30
0.0
 11
8065.0
 21
-769.99999999999204
 31
0.0
1001
ACDBBLOCKREPETAG
1070
     1
1071
        8
1005
12505B
  0
LINE
  5
12505C
  8
HIDDEN
 10
7962.5
 20
-879.99999999999204
 30
0.0
 11
7962.5
 21
-979.99999999999204
 31
0.0
1001
ACDBBLOCKREPETAG
1070
     1
1071
        9
1005
12505C
  0
LINE
  5
12505D
  8
HIDDEN
 10
8037.4999999999973
 20
-879.99999999999204
 30
0.0
 11
8037.4999999999973
 21
-979.99999999999204
 31
0.0
1001
ACDBBLOCKREPETAG
1070
     1
1071
       10
1005
12505D
  0
LINE
  5
12505E
  8
CENTER
 10
8000.0
 20
-669.99999999999955
 30
0.0
 11
8000.0
 21
-994.99999999999216
 31
0.0
1001
ACDBBLOCKREPETAG
1070
     1
1071
       11
1005
12505E
  0
LINE
  5
12505F
  8
OBJECT
 10
6055.9999999999927
 20
-1003.999999999999
 30
0.0
 11
6055.9999999999927
 21
-1013.999999999999
 31
0.0
1001
ACDBBLOCKREPETAG
1070
     1
1071
      121
1005
12505F
  0
LINE
  5
125060
  8
OBJECT
 10
5961.75
 20
-954.69999999999663
 30
0.0
 11
5974.25
 21
-954.69999999999663
 31
0.0
1001
ACDBBLOCKREPETAG
1070
     1
1071
      122
1005
125060
  0
LINE
  5
125061
  8
OBJECT
 10
6073.4999999999927
 20
-962.70000000000005
 30
0.0
 11
6073.4999999999927
 21
-964.99999999999955
 31
0.0
1001
ACDBBLOCKREPETAG
1070
     1
1071
      123
1005
125061
  0
LINE
  5
125062
  8
OBJECT
 10
6057.7499999999927
 20
-954.69999999999663
 30
0.0
 11
6070.2499999999927
 21
-954.69999999999663
 31
0.0
1001
ACDBBLOCKREPETAG
1070
     1
1071
      124
1005
125062
  0
LINE
  5
125063
  8
OBJECT
 10
6054.4999999999927
 20
-962.70000000000005
 30
0.0
 11
6054.4999999999927
 21
-964.99999999999955
 31
0.0
1001
ACDBBLOCKREPETAG
1070
     1
1071
      125
1005
125063
  0
LINE
  5
125064
  8
OBJECT
 10
5953.0
 20
-964.99999999999955
 30
0.0
 11
5953.0
 21
-962.70000000000005
 31
0.0
1001
ACDBBLOCKREPETAG
1070
     1
1071
      126
1005
125064
  0
LINE
  5
125065
  8
OBJECT
 10
5983.0
 20
-964.99999999999955
 30
0.0
 11
5983.0
 21
-962.70000000000005
 31
0.0
1001
ACDBBLOCKREPETAG
1070
     1
1071
      127
1005
125065
  0
LINE
  5
125066
  8
OBJECT
 10
5961.75
 20
-954.69999999999663
 30
0.0
 11
5961.75
 21
-962.70000000000005
 31
0.0
1001
ACDBBLOCKREPETAG
1070
     1
1071
      128
1005
125066
  0
LINE
  5
125067
  8
OBJECT
 10
5974.25
 20
-954.69999999999663
 30
0.0
 11
5974.25
 21
-962.70000000000005
 31
0.0
1001
ACDBBLOCKREPETAG
1070
     1
1071
      129
1005
125067
  0
LINE
  5
125068
  8
OBJECT
 10
5953.0
 20
-962.70000000000005
 30
0.0
 11
5983.0
 21
-962.70000000000005
 31
0.0
1001
ACDBBLOCKREPETAG
1070
     1
1071
      130
1005
125068
  0
LINE
  5
125069
  8
OBJECT
 10
5960.0
 20
-1003.999999999999
 30
0.0
 11
5960.0
 21
-1013.999999999999
 31
0.0
1001
ACDBBLOCKREPETAG
1070
     1
1071
      131
1005
125069
  0
LINE
  5
12506A
  8
OBJECT
 10
5976.0
 20
-1003.999999999999
 30
0.0
 11
5976.0
 21
-1013.999999999999
 31
0.0
1001
ACDBBLOCKREPETAG
1070
     1
1071
      132
1005
12506A
  0
LINE
  5
12506B
  8
OBJECT
 10
5960.0
 20
-1013.999999999999
 30
0.0
 11
5976.0
 21
-1013.999999999999
 31
0.0
1001
ACDBBLOCKREPETAG
1070
     1
1071
      133
1005
12506B
  0
LINE
  5
12506C
  8
OBJECT
 10
6071.9999999999918
 20
-1003.999999999999
 30
0.0
 11
6071.9999999999918
 21
-1013.999999999999
 31
0.0
1001
ACDBBLOCKREPETAG
1070
     1
1071
      134
1005
12506C
  0
LINE
  5
12506D
  8
OBJECT
 10
6071.9999999999918
 20
-1013.999999999999
 30
0.0
 11
6055.9999999999927
 21
-1013.999999999999
 31
0.0
1001
ACDBBLOCKREPETAG
1070
     1
1071
      135
1005
12506D
  0
LINE
  5
12506E
  8
OBJECT
 10
5944.9999999999927
 20
-1044.9999999999991
 30
0.0
 11
5944.9999999999927
 21
-1003.999999999999
 31
0.0
1001
ACDBBLOCKREPETAG
1070
     1
1071
      136
1005
12506E
  0
LINE
  5
12506F
  8
OBJECT
 10
6054.9999999999918
 20
-1003.999999999999
 30
0.0
 11
6054.9999999999918
 21
-1044.9999999999991
 31
0.0
1001
ACDBBLOCKREPETAG
1070
     1
1071
      137
1005
12506F
  0
LINE
  5
125070
  8
OBJECT
 10
6070.2499999999927
 20
-954.69999999999663
 30
0.0
 11
6070.2499999999927
 21
-962.70000000000005
 31
0.0
1001
ACDBBLOCKREPETAG
1070
     1
1071
      138
1005
125070
  0
LINE
  5
125071
  8
OBJECT
 10
6057.7499999999927
 20
-954.69999999999663
 30
0.0
 11
6057.7499999999927
 21
-962.70000000000005
 31
0.0
1001
ACDBBLOCKREPETAG
1070
     1
1071
      139
1005
125071
  0
LINE
  5
125072
  8
OBJECT
 10
6054.4999999999927
 20
-962.70000000000005
 30
0.0
 11
6073.4999999999927
 21
-962.70000000000005
 31
0.0
1001
ACDBBLOCKREPETAG
1070
     1
1071
      140
1005
125072
  0
LINE
  5
125073
  8
OBJECT
 10
6054.9999999999918
 20
-1044.9999999999991
 30
0.0
 11
5944.9999999999927
 21
-1044.9999999999991
 31
0.0
1001
ACDBBLOCKREPETAG
1070
     1
1071
      141
1005
125073
  0
LINE
  5
125074
  8
OBJECT
 10
6075.9999999999927
 20
-979.99999999999966
 30
0.0
 11
5938.9999999999918
 21
-979.99999999999966
 31
0.0
1001
ACDBBLOCKREPETAG
1070
     1
1071
      142
1005
125074
  0
LINE
  5
125075
  8
OBJECT
 10
6075.9999999999927
 20
-979.99999999999966
 30
0.0
 11
6075.9999999999927
 21
-964.99999999999955
 31
0.0
1001
ACDBBLOCKREPETAG
1070
     1
1071
      143
1005
125075
  0
LINE
  5
125076
  8
OBJECT
 10
6075.9999999999927
 20
-989.99999999999955
 30
0.0
 11
6075.9999999999927
 21
-1003.999999999999
 31
0.0
1001
ACDBBLOCKREPETAG
1070
     1
1071
      144
1005
125076
  0
LINE
  5
125077
  8
OBJECT
 10
6068.9999999999909
 20
-989.99999999999955
 30
0.0
 11
6068.9999999999909
 21
-979.99999999999966
 31
0.0
1001
ACDBBLOCKREPETAG
1070
     1
1071
      145
1005
125077
  0
LINE
  5
125078
  8
OBJECT
 10
6058.9999999999927
 20
-989.99999999999955
 30
0.0
 11
6058.9999999999927
 21
-979.99999999999966
 31
0.0
1001
ACDBBLOCKREPETAG
1070
     1
1071
      146
1005
125078
  0
LINE
  5
125079
  8
OBJECT
 10
5938.9999999999918
 20
-989.99999999999955
 30
0.0
 11
5938.9999999999918
 21
-1003.999999999999
 31
0.0
1001
ACDBBLOCKREPETAG
1070
     1
1071
      147
1005
125079
  0
LINE
  5
12507A
  8
OBJECT
 10
5938.9999999999918
 20
-1003.999999999999
 30
0.0
 11
6075.9999999999927
 21
-1003.999999999999
 31
0.0
1001
ACDBBLOCKREPETAG
1070
     1
1071
      148
1005
12507A
  0
LINE
  5
12507B
  8
OBJECT
 10
5973.0
 20
-989.99999999999955
 30
0.0
 11
5973.0
 21
-979.99999999999966
 31
0.0
1001
ACDBBLOCKREPETAG
1070
     1
1071
      149
1005
12507B
  0
LINE
  5
12507C
  8
OBJECT
 10
5963.0
 20
-989.99999999999955
 30
0.0
 11
5963.0
 21
-979.99999999999966
 31
0.0
1001
ACDBBLOCKREPETAG
1070
     1
1071
      150
1005
12507C
  0
LINE
  5
12507D
  8
OBJECT
 10
5938.9999999999918
 20
-989.99999999999955
 30
0.0
 11
6075.9999999999927
 21
-989.99999999999955
 31
0.0
1001
ACDBBLOCKREPETAG
1070
     1
1071
      151
1005
12507D
  0
LINE
  5
12507E
  8
OBJECT
 10
5945.9999999999927
 20
-979.99999999999966
 30
0.0
 11
5945.9999999999927
 21
-989.99999999999955
 31
0.0
1001
ACDBBLOCKREPETAG
1070
     1
1071
      152
1005
12507E
  0
LINE
  5
12507F
  8
OBJECT
 10
6053.9999999999927
 20
-979.99999999999966
 30
0.0
 11
6053.9999999999927
 21
-989.99999999999955
 31
0.0
1001
ACDBBLOCKREPETAG
1070
     1
1071
      153
1005
12507F
  0
LINE
  5
125080
  8
OBJECT
 10
6044.5
 20
-879.99999999999955
 30
0.0
 11
6065.0
 21
-769.99999999999955
 31
0.0
1001
ACDBBLOCKREPETAG
1070
     1
1071
      154
1005
125080
  0
LINE
  5
125081
  8
OBJECT
 10
5955.5
 20
-879.99999999999955
 30
0.0
 11
6044.5
 21
-879.99999999999955
 31
0.0
1001
ACDBBLOCKREPETAG
1070
     1
1071
      155
1005
125081
  0
LINE
  5
125082
  8
OBJECT
 10
5938.9999999999918
 20
-979.99999999999966
 30
0.0
 11
5938.9999999999918
 21
-964.99999999999955
 31
0.0
1001
ACDBBLOCKREPETAG
1070
     1
1071
      156
1005
125082
  0
LINE
  5
125083
  8
OBJECT
 10
5938.9999999999918
 20
-964.99999999999955
 30
0.0
 11
6075.9999999999927
 21
-964.99999999999955
 31
0.0
1001
ACDBBLOCKREPETAG
1070
     1
1071
      157
1005
125083
  0
LINE
  5
125084
  8
OBJECT
 10
5955.5
 20
-879.99999999999955
 30
0.0
 11
5955.5
 21
-929.99999999999966
 31
0.0
1001
ACDBBLOCKREPETAG
1070
     1
1071
      158
1005
125084
  0
LINE
  5
125085
  8
OBJECT
 10
6044.5
 20
-879.99999999999955
 30
0.0
 11
6044.5
 21
-929.99999999999966
 31
0.0
1001
ACDBBLOCKREPETAG
1070
     1
1071
      159
1005
125085
  0
LINE
  5
125086
  8
OBJECT
 10
5947.0
 20
-929.99999999999966
 30
0.0
 11
6053.0
 21
-929.99999999999966
 31
0.0
1001
ACDBBLOCKREPETAG
1070
     1
1071
      160
1005
125086
  0
LINE
  5
125087
  8
HIDDEN
 10
5955.5
 20
-939.99999999999955
 30
0.0
 11
6044.5
 21
-939.99999999999955
 31
0.0
1001
ACDBBLOCKREPETAG
1070
     1
1071
      161
1005
125087
  0
LINE
  5
125088
  8
CENTER
 10
6000.0
 20
-669.99999999999955
 30
0.0
 11
6000.0
 21
-1059.9999999999991
 31
0.0
1001
ACDBBLOCKREPETAG
1070
     1
1071
      162
1005
125088
  0
LINE
  5
125089
  8
OBJECT
 10
6065.0
 20
-669.99999999999955
 30
0.0
 11
6065.0
 21
-769.99999999999955
 31
0.0
1001
ACDBBLOCKREPETAG
1070
     1
1071
      163
1005
125089
  0
LINE
  5
12508A
  8
OBJECT
 10
5935.0
 20
-669.99999999999955
 30
0.0
 11
5935.0
 21
-769.99999999999955
 31
0.0
1001
ACDBBLOCKREPETAG
1070
     1
1071
      164
1005
12508A
  0
LINE
  5
12508B
  8
OBJECT
 10
5955.5
 20
-879.99999999999955
 30
0.0
 11
5935.0
 21
-769.99999999999955
 31
0.0
1001
ACDBBLOCKREPETAG
1070
     1
1071
      165
1005
12508B
  0
LINE
  5
12508C
  8
OBJECT
 10
6065.0
 20
-769.99999999999955
 30
0.0
 11
5935.0
 21
-769.99999999999955
 31
0.0
1001
ACDBBLOCKREPETAG
1070
     1
1071
      166
1005
12508C
  0
LINE
  5
12508D
  8
OBJECT
 10
5947.0
 20
-929.99999999999966
 30
0.0
 11
5947.0
 21
-964.99999999999955
 31
0.0
1001
ACDBBLOCKREPETAG
1070
     1
1071
      167
1005
12508D
  0
LINE
  5
12508E
  8
OBJECT
 10
6053.0
 20
-929.99999999999966
 30
0.0
 11
6053.0
 21
-964.99999999999955
 31
0.0
1001
ACDBBLOCKREPETAG
1070
     1
1071
      168
1005
12508E
  0
LINE
  5
12508F
  8
OBJECT
 10
3975.5
 20
-959.99999999999955
 30
0.0
 11
3958.9999999999918
 21
-959.99999999999955
 31
0.0
1001
ACDBBLOCKREPETAG
1070
     1
1071
       12
1005
12508F
  0
LINE
  5
125090
  8
OBJECT
 10
3983.0
 20
-964.99999999999955
 30
0.0
 11
3983.0
 21
-962.99999999999966
 31
0.0
1001
ACDBBLOCKREPETAG
1070
     1
1071
       13
1005
125090
  0
LINE
  5
125091
  8
OBJECT
 10
4075.9999999999918
 20
-979.99999999999966
 30
0.0
 11
3938.9999999999932
 21
-979.99999999999966
 31
0.0
1001
ACDBBLOCKREPETAG
1070
     1
1071
       14
1005
125091
  0
LINE
  5
125092
  8
OBJECT
 10
4075.9999999999918
 20
-979.99999999999966
 30
0.0
 11
4075.9999999999918
 21
-964.99999999999955
 31
0.0
1001
ACDBBLOCKREPETAG
1070
     1
1071
       15
1005
125092
  0
LINE
  5
125093
  8
OBJECT
 10
4075.9999999999918
 20
-989.99999999999955
 30
0.0
 11
4075.9999999999918
 21
-1003.999999999999
 31
0.0
1001
ACDBBLOCKREPETAG
1070
     1
1071
       16
1005
125093
  0
LINE
  5
125094
  8
OBJECT
 10
4068.9999999999918
 20
-989.99999999999955
 30
0.0
 11
4068.9999999999918
 21
-979.99999999999966
 31
0.0
1001
ACDBBLOCKREPETAG
1070
     1
1071
       17
1005
125094
  0
LINE
  5
125095
  8
OBJECT
 10
4058.9999999999932
 20
-989.99999999999955
 30
0.0
 11
4058.9999999999932
 21
-979.99999999999966
 31
0.0
1001
ACDBBLOCKREPETAG
1070
     1
1071
       18
1005
125095
  0
LINE
  5
125096
  8
OBJECT
 10
3938.9999999999932
 20
-989.99999999999955
 30
0.0
 11
3938.9999999999932
 21
-1003.999999999999
 31
0.0
1001
ACDBBLOCKREPETAG
1070
     1
1071
       19
1005
125096
  0
LINE
  5
125097
  8
OBJECT
 10
3938.9999999999932
 20
-1003.999999999999
 30
0.0
 11
4075.9999999999918
 21
-1003.999999999999
 31
0.0
1001
ACDBBLOCKREPETAG
1070
     1
1071
       20
1005
125097
  0
LINE
  5
125098
  8
OBJECT
 10
3973.0
 20
-989.99999999999955
 30
0.0
 11
3973.0
 21
-979.99999999999966
 31
0.0
1001
ACDBBLOCKREPETAG
1070
     1
1071
       21
1005
125098
  0
LINE
  5
125099
  8
OBJECT
 10
3963.0
 20
-989.99999999999955
 30
0.0
 11
3963.0
 21
-979.99999999999966
 31
0.0
1001
ACDBBLOCKREPETAG
1070
     1
1071
       22
1005
125099
  0
LINE
  5
12509A
  8
OBJECT
 10
3938.9999999999932
 20
-989.99999999999955
 30
0.0
 11
4075.9999999999918
 21
-989.99999999999955
 31
0.0
1001
ACDBBLOCKREPETAG
1070
     1
1071
       23
1005
12509A
  0
LINE
  5
12509B
  8
OBJECT
 10
3958.9999999999918
 20
-959.99999999999955
 30
0.0
 11
3958.9999999999918
 21
-964.99999999999955
 31
0.0
1001
ACDBBLOCKREPETAG
1070
     1
1071
       24
1005
12509B
  0
LINE
  5
12509C
  8
OBJECT
 10
3963.0
 20
-1011.999999999999
 30
0.0
 11
3963.0
 21
-1014.999999999999
 31
0.0
1001
ACDBBLOCKREPETAG
1070
     1
1071
       25
1005
12509C
  0
LINE
  5
12509D
  8
OBJECT
 10
3963.0
 20
-1014.999999999999
 30
0.0
 11
3973.0
 21
-1014.999999999999
 31
0.0
1001
ACDBBLOCKREPETAG
1070
     1
1071
       26
1005
12509D
  0
LINE
  5
12509E
  8
OBJECT
 10
3973.0
 20
-1014.999999999999
 30
0.0
 11
3973.0
 21
-1011.999999999999
 31
0.0
1001
ACDBBLOCKREPETAG
1070
     1
1071
       28
1005
12509E
  0
LINE
  5
12509F
  8
OBJECT
 10
3945.9999999999932
 20
-979.99999999999966
 30
0.0
 11
3945.9999999999932
 21
-989.99999999999955
 31
0.0
1001
ACDBBLOCKREPETAG
1070
     1
1071
       29
1005
12509F
  0
LINE
  5
1250A0
  8
OBJECT
 10
4053.9999999999941
 20
-979.99999999999966
 30
0.0
 11
4053.9999999999941
 21
-989.99999999999955
 31
0.0
1001
ACDBBLOCKREPETAG
1070
     1
1071
       30
1005
1250A0
  0
LINE
  5
1250A1
  8
OBJECT
 10
4044.5
 20
-879.99999999999955
 30
0.0
 11
4065.0
 21
-769.99999999999955
 31
0.0
1001
ACDBBLOCKREPETAG
1070
     1
1071
       31
1005
1250A1
  0
LINE
  5
1250A2
  8
OBJECT
 10
3955.5
 20
-879.99999999999955
 30
0.0
 11
4044.5
 21
-879.99999999999955
 31
0.0
1001
ACDBBLOCKREPETAG
1070
     1
1071
       32
1005
1250A2
  0
LINE
  5
1250A3
  8
OBJECT
 10
3938.9999999999932
 20
-979.99999999999966
 30
0.0
 11
3938.9999999999932
 21
-964.99999999999955
 31
0.0
1001
ACDBBLOCKREPETAG
1070
     1
1071
       33
1005
1250A3
  0
LINE
  5
1250A4
  8
OBJECT
 10
3938.9999999999932
 20
-964.99999999999955
 30
0.0
 11
4075.9999999999918
 21
-964.99999999999955
 31
0.0
1001
ACDBBLOCKREPETAG
1070
     1
1071
       34
1005
1250A4
  0
LINE
  5
1250A5
  8
OBJECT
 10
3955.5
 20
-879.99999999999955
 30
0.0
 11
3955.5
 21
-929.99999999999966
 31
0.0
1001
ACDBBLOCKREPETAG
1070
     1
1071
       35
1005
1250A5
  0
LINE
  5
1250A6
  8
OBJECT
 10
4044.5
 20
-879.99999999999955
 30
0.0
 11
4044.5
 21
-929.99999999999966
 31
0.0
1001
ACDBBLOCKREPETAG
1070
     1
1071
       36
1005
1250A6
  0
LINE
  5
1250A7
  8
OBJECT
 10
3947.0
 20
-929.99999999999966
 30
0.0
 11
4053.0
 21
-929.99999999999966
 31
0.0
1001
ACDBBLOCKREPETAG
1070
     1
1071
       37
1005
1250A7
  0
LINE
  5
1250A8
  8
OBJECT
 10
4054.9999999999841
 20
-959.99999999999955
 30
0.0
 11
4054.9999999999841
 21
-964.99999999999955
 31
0.0
1001
ACDBBLOCKREPETAG
1070
     1
1071
       38
1005
1250A8
  0
LINE
  5
1250A9
  8
OBJECT
 10
4073.0
 20
-959.99999999999955
 30
0.0
 11
4073.0
 21
-964.99999999999955
 31
0.0
1001
ACDBBLOCKREPETAG
1070
     1
1071
       39
1005
1250A9
  0
LINE
  5
1250AA
  8
OBJECT
 10
4073.0
 20
-959.99999999999955
 30
0.0
 11
4054.9999999999841
 21
-959.99999999999955
 31
0.0
1001
ACDBBLOCKREPETAG
1070
     1
1071
       40
1005
1250AA
  0
LINE
  5
1250AB
  8
HIDDEN
 10
3955.5
 20
-939.99999999999955
 30
0.0
 11
4044.5
 21
-939.99999999999955
 31
0.0
1001
ACDBBLOCKREPETAG
1070
     1
1071
       41
1005
1250AB
  0
LINE
  5
1250AC
  8
CENTER
 10
4000.0
 20
-669.99999999999955
 30
0.0
 11
4000.0
 21
-1018.999999999999
 31
0.0
1001
ACDBBLOCKREPETAG
1070
     1
1071
       42
1005
1250AC
  0
LINE
  5
1250AD
  8
OBJECT
 10
4065.0
 20
-669.99999999999955
 30
0.0
 11
4065.0
 21
-769.99999999999955
 31
0.0
1001
ACDBBLOCKREPETAG
1070
     1
1071
       43
1005
1250AD
  0
LINE
  5
1250AE
  8
OBJECT
 10
3935.0
 20
-669.99999999999955
 30
0.0
 11
3935.0
 21
-769.99999999999955
 31
0.0
1001
ACDBBLOCKREPETAG
1070
     1
1071
       44
1005
1250AE
  0
LINE
  5
1250AF
  8
OBJECT
 10
3955.5
 20
-879.99999999999955
 30
0.0
 11
3935.0
 21
-769.99999999999955
 31
0.0
1001
ACDBBLOCKREPETAG
1070
     1
1071
       45
1005
1250AF
  0
LINE
  5
1250B0
  8
OBJECT
 10
4065.0
 20
-769.99999999999955
 30
0.0
 11
3935.0
 21
-769.99999999999955
 31
0.0
1001
ACDBBLOCKREPETAG
1070
     1
1071
       46
1005
1250B0
  0
LINE
  5
1250B1
  8
OBJECT
 10
3947.0
 20
-929.99999999999966
 30
0.0
 11
3947.0
 21
-964.99999999999955
 31
0.0
1001
ACDBBLOCKREPETAG
1070
     1
1071
       47
1005
1250B1
  0
LINE
  5
1250B2
  8
OBJECT
 10
4053.0
 20
-929.99999999999966
 30
0.0
 11
4053.0
 21
-964.99999999999955
 31
0.0
1001
ACDBBLOCKREPETAG
1070
     1
1071
       48
1005
1250B2
  0
LINE
  5
1250B3
  8
OBJECT
 10
3983.0
 20
-962.99999999999966
 30
0.0
 11
3975.5
 21
-959.99999999999955
 31
0.0
1001
ACDBBLOCKREPETAG
1070
     1
1071
       49
1005
1250B3
  0
LINE
  5
1250B4
  8
OBJECT
 10
4059.0
 20
-1011.999999999999
 30
0.0
 11
4059.0
 21
-1014.999999999999
 31
0.0
1001
ACDBBLOCKREPETAG
1070
     1
1071
       54
1005
1250B4
  0
LINE
  5
1250B5
  8
OBJECT
 10
4059.0
 20
-1014.999999999999
 30
0.0
 11
4069.0
 21
-1014.999999999999
 31
0.0
1001
ACDBBLOCKREPETAG
1070
     1
1071
       55
1005
1250B5
  0
LINE
  5
1250B6
  8
OBJECT
 10
4069.0
 20
-1014.999999999999
 30
0.0
 11
4069.0
 21
-1011.999999999999
 31
0.0
1001
ACDBBLOCKREPETAG
1070
     1
1071
       57
1005
1250B6
  0
LINE
  5
1250B7
  8
OBJECT
 10
3958.185045423772
 20
-1011.999999999999
 30
0.0
 11
3977.8149545762212
 21
-1011.999999999999
 31
0.0
1001
ACDBBLOCKREPETAG
1070
     1
1071
      422
1005
1250B7
  0
LINE
  5
1250B8
  8
OBJECT
 10
3958.185045423777
 20
-1003.999999999999
 30
0.0
 11
3958.185045423777
 21
-1011.999999999999
 31
0.0
1001
ACDBBLOCKREPETAG
1070
     1
1071
      423
1005
1250B8
  0
LINE
  5
1250B9
  8
OBJECT
 10
3963.0925227118892
 20
-1003.999999999999
 30
0.0
 11
3963.0925227118892
 21
-1011.999999999999
 31
0.0
1001
ACDBBLOCKREPETAG
1070
     1
1071
      424
1005
1250B9
  0
LINE
  5
1250BA
  8
OBJECT
 10
3972.9074772881122
 20
-1003.999999999999
 30
0.0
 11
3972.9074772881122
 21
-1011.999999999999
 31
0.0
1001
ACDBBLOCKREPETAG
1070
     1
1071
      425
1005
1250BA
  0
LINE
  5
1250BB
  8
OBJECT
 10
3977.814954576223
 20
-1003.999999999999
 30
0.0
 11
3977.814954576223
 21
-1011.999999999999
 31
0.0
1001
ACDBBLOCKREPETAG
1070
     1
1071
      426
1005
1250BB
  0
LINE
  5
1250BC
  8
OBJECT
 10
4054.1850454237701
 20
-1011.999999999999
 30
0.0
 11
4073.8149545762199
 21
-1011.999999999999
 31
0.0
1001
ACDBBLOCKREPETAG
1070
     1
1071
      427
1005
1250BC
  0
LINE
  5
1250BD
  8
OBJECT
 10
4054.185045423777
 20
-1003.999999999999
 30
0.0
 11
4054.185045423777
 21
-1011.999999999999
 31
0.0
1001
ACDBBLOCKREPETAG
1070
     1
1071
      428
1005
1250BD
  0
LINE
  5
1250BE
  8
OBJECT
 10
4059.0925227118878
 20
-1003.999999999999
 30
0.0
 11
4059.0925227118878
 21
-1011.999999999999
 31
0.0
1001
ACDBBLOCKREPETAG
1070
     1
1071
      429
1005
1250BE
  0
LINE
  5
1250BF
  8
OBJECT
 10
4068.9074772881122
 20
-1003.999999999999
 30
0.0
 11
4068.9074772881122
 21
-1011.999999999999
 31
0.0
1001
ACDBBLOCKREPETAG
1070
     1
1071
      430
1005
1250BF
  0
LINE
  5
1250C0
  8
OBJECT
 10
4073.814954576223
 20
-1003.999999999999
 30
0.0
 11
4073.814954576223
 21
-1011.999999999999
 31
0.0
1001
ACDBBLOCKREPETAG
1070
     1
1071
      431
1005
1250C0
  0
LINE
  5
1250C1
  8
CENTER
 10
11924.0
 20
-1374.9999999999991
 30
0.0
 11
12091.0
 21
-1374.9999999999991
 31
0.0
1001
ACDBBLOCKREPETAG
1070
     1
1071
       22
1005
1250C1
  0
LINE
  5
1250C2
  8
CENTER
 10
12000.0
 20
-1298.0518385105161
 30
0.0
 11
12000.0
 21
-1451.948161489478
 31
0.0
1001
ACDBBLOCKREPETAG
1070
     1
1071
       23
1005
1250C2
  0
CIRCLE
  5
1250C3
  8
OBJECT
 10
12000.0
 20
-1374.9999999999991
 30
0.0
 40
37.5
1001
ACDBBLOCKREPETAG
1070
     1
1071
       24
1005
1250C3
  0
CIRCLE
  5
1250C4
  8
OBJECT
 10
12000.0
 20
-1374.9999999999991
 30
0.0
 40
47.5
1001
ACDBBLOCKREPETAG
1070
     1
1071
       25
1005
1250C4
  0
ARC
  5
1250C5
  8
OBJECT
 10
12000.0
 20
-1374.9999999999991
 30
0.0
 40
61.0
 50
40.03737312998139
 51
79.962626870012684
1001
ACDBBLOCKREPETAG
1070
     1
1071
       26
1005
1250C5
  0
ARC
  5
1250C6
  8
OBJECT
 10
12000.0
 20
-1374.9999999999991
 30
0.0
 40
61.0
 50
160.03737312997501
 51
199.96262687002491
1001
ACDBBLOCKREPETAG
1070
     1
1071
       27
1005
1250C6
  0
ARC
  5
1250C7
  8
OBJECT
 10
12000.0
 20
-1374.9999999999991
 30
0.0
 40
61.0
 50
280.03737312998732
 51
319.9626268700186
1001
ACDBBLOCKREPETAG
1070
     1
1071
       28
1005
1250C7
  0
ARC
  5
1250C8
  8
OBJECT
 10
12064.0
 20
-1374.9999999999991
 30
0.0
 40
12.0
 50
319.9626268700186
 51
40.03737312998139
1001
ACDBBLOCKREPETAG
1070
     1
1071
       29
1005
1250C8
  0
LINE
  5
1250C9
  8
OBJECT
 10
12046.703125
 20
-1335.7594837542299
 30
0.0
 11
12073.1875
 21
-1367.2805541811599
 31
0.0
1001
ACDBBLOCKREPETAG
1070
     1
1071
       30
1005
1250C9
  0
LINE
  5
1250CA
  8
OBJECT
 10
12046.703125
 20
-1414.240516245768
 30
0.0
 11
12073.1875
 21
-1382.719445818838
 31
0.0
1001
ACDBBLOCKREPETAG
1070
     1
1071
       31
1005
1250CA
  0
CIRCLE
  5
1250CB
  8
OBJECT
 10
12000.0
 20
-1374.9999999999991
 30
0.0
 40
55.0
1001
ACDBBLOCKREPETAG
1070
     1
1071
       32
1005
1250CB
  0
ARC
  5
1250CC
  8
OBJECT
 10
12064.0
 20
-1374.9999999999991
 30
0.0
 40
12.0
 50
271.2434956101261
 51
88.756504389873882
1001
ACDBBLOCKREPETAG
1070
     1
1071
       33
1005
1250CC
  0
ARC
  5
1250CD
  8
OBJECT
 10
12064.5859375
 20
-1348.0063585775049
 30
0.0
 40
15.0
 50
202.68245018366949
 51
268.7565043898739
1001
ACDBBLOCKREPETAG
1070
     1
1071
       34
1005
1250CD
  0
CIRCLE
  5
1250CE
  8
SLIM
 10
12064.0
 20
-1374.9999999999991
 30
0.0
 40
8.0
1001
ACDBBLOCKREPETAG
1070
     1
1071
       35
1005
1250CE
  0
POLYLINE
  5
1250CF
  8
SLIM
 66
     1
 10
0.0
 20
0.0
 30
0.0
 70
     1
1001
ACDBBLOCKREPETAG
1070
     1
1071
       36
1005
1250CF
  0
VERTEX
  5
12539F
  8
SLIM
 10
12061.69059892324
 20
-1370.9999999999991
 30
0.0
  0
VERTEX
  5
1253A0
  8
SLIM
 10
12059.38119784648
 20
-1374.9999999999991
 30
0.0
  0
VERTEX
  5
1253A1
  8
SLIM
 10
12061.69059892324
 20
-1378.9999999999991
 30
0.0
  0
VERTEX
  5
1253A2
  8
SLIM
 10
12066.30940107676
 20
-1378.9999999999991
 30
0.0
  0
VERTEX
  5
1253A3
  8
SLIM
 10
12068.618802153511
 20
-1374.9999999999991
 30
0.0
  0
VERTEX
  5
1253A4
  8
SLIM
 10
12066.30940107676
 20
-1370.9999999999991
 30
0.0
  0
SEQEND
  5
1253A5
  8
SLIM
  0
ARC
  5
1250D0
  8
OBJECT
 10
12064.5859375
 20
-1401.993641422489
 30
0.0
 40
15.0
 50
91.243495610126089
 51
157.3175498163304
1001
ACDBBLOCKREPETAG
1070
     1
1071
       37
1005
1250D0
  0
ARC
  5
1250D1
  8
OBJECT
 10
11968.0
 20
-1319.5743741577919
 30
0.0
 40
12.0
 50
79.962626870012684
 51
160.03737312997501
1001
ACDBBLOCKREPETAG
1070
     1
1071
       38
1005
1250D1
  0
LINE
  5
1250D2
  8
OBJECT
 10
11942.665153573549
 20
-1354.1741654367599
 30
0.0
 11
11956.721013817751
 21
-1315.477488669944
 31
0.0
1001
ACDBBLOCKREPETAG
1070
     1
1071
       39
1005
1250D2
  0
LINE
  5
1250D3
  8
OBJECT
 10
12010.631721426451
 20
-1314.9336491909951
 30
0.0
 11
11970.091486182249
 21
-1307.7580428511051
 31
0.0
1001
ACDBBLOCKREPETAG
1070
     1
1071
       40
1005
1250D3
  0
ARC
  5
1250D4
  8
OBJECT
 10
11968.0
 20
-1319.5743741577919
 30
0.0
 40
12.0
 50
31.243495610056922
 51
208.7565043898139
1001
ACDBBLOCKREPETAG
1070
     1
1071
       41
1005
1250D4
  0
ARC
  5
1250D5
  8
OBJECT
 10
11944.32985203747
 20
-1332.56375810901
 30
0.0
 40
15.0
 50
322.68245018387239
 51
28.756504389813902
1001
ACDBBLOCKREPETAG
1070
     1
1071
       42
1005
1250D5
  0
CIRCLE
  5
1250D6
  8
SLIM
 10
11968.0
 20
-1319.5743741577919
 30
0.0
 40
7.9999999999999982
1001
ACDBBLOCKREPETAG
1070
     1
1071
       43
1005
1250D6
  0
POLYLINE
  5
1250D7
  8
SLIM
 66
     1
 10
0.0
 20
0.0
 30
0.0
 70
     1
1001
ACDBBLOCKREPETAG
1070
     1
1071
       44
1005
1250D7
  0
VERTEX
  5
1253A6
  8
SLIM
 10
11965.69059892324
 20
-1323.574374157796
 30
0.0
  0
VERTEX
  5
1253A7
  8
SLIM
 10
11970.30940107676
 20
-1323.5743741577919
 30
0.0
  0
VERTEX
  5
1253A8
  8
SLIM
 10
11972.618802153511
 20
-1319.574374157796
 30
0.0
  0
VERTEX
  5
1253A9
  8
SLIM
 10
11970.309401076751
 20
-1315.5743741577919
 30
0.0
  0
VERTEX
  5
1253AA
  8
SLIM
 10
11965.69059892324
 20
-1315.574374157796
 30
0.0
  0
VERTEX
  5
1253AB
  8
SLIM
 10
11963.38119784648
 20
-1319.5743741577919
 30
0.0
  0
SEQEND
  5
1253AC
  8
SLIM
  0
ARC
  5
1250D8
  8
OBJECT
 10
11991.084210462521
 20
-1305.5701166865169
 30
0.0
 40
15.0
 50
211.2434956100569
 51
277.31754981622862
1001
ACDBBLOCKREPETAG
1070
     1
1071
       45
1005
1250D8
  0
ARC
  5
1250D9
  8
OBJECT
 10
11968.0
 20
-1430.425625842202
 30
0.0
 40
12.0
 50
199.96262687002491
 51
280.03737312998732
1001
ACDBBLOCKREPETAG
1070
     1
1071
       46
1005
1250D9
  0
LINE
  5
1250DA
  8
OBJECT
 10
12010.631721426451
 20
-1435.0663508090031
 30
0.0
 11
11970.091486182249
 21
-1442.241957148892
 31
0.0
1001
ACDBBLOCKREPETAG
1070
     1
1071
       47
1005
1250DA
  0
LINE
  5
1250DB
  8
OBJECT
 10
11942.665153573549
 20
-1395.8258345632339
 30
0.0
 11
11956.721013817751
 21
-1434.5225113300539
 31
0.0
1001
ACDBBLOCKREPETAG
1070
     1
1071
       48
1005
1250DB
  0
ARC
  5
1250DC
  8
OBJECT
 10
11968.0
 20
-1430.425625842202
 30
0.0
 40
12.0
 50
151.2434956101861
 51
328.75650438994307
1001
ACDBBLOCKREPETAG
1070
     1
1071
       49
1005
1250DC
  0
ARC
  5
1250DD
  8
OBJECT
 10
11991.084210462521
 20
-1444.4298833134769
 30
0.0
 40
15.0
 50
82.682450183771394
 51
148.75650438994299
1001
ACDBBLOCKREPETAG
1070
     1
1071
       50
1005
1250DD
  0
CIRCLE
  5
1250DE
  8
SLIM
 10
11968.0
 20
-1430.425625842202
 30
0.0
 40
8.0
1001
ACDBBLOCKREPETAG
1070
     1
1071
       51
1005
1250DE
  0
POLYLINE
  5
1250DF
  8
SLIM
 66
     1
 10
0.0
 20
0.0
 30
0.0
 70
     1
1001
ACDBBLOCKREPETAG
1070
     1
1071
       52
1005
1250DF
  0
VERTEX
  5
1253AD
  8
SLIM
 10
11972.618802153511
 20
-1430.425625842202
 30
0.0
  0
VERTEX
  5
1253AE
  8
SLIM
 10
11970.309401076751
 20
-1426.425625842202
 30
0.0
  0
VERTEX
  5
1253AF
  8
SLIM
 10
11965.69059892324
 20
-1426.425625842202
 30
0.0
  0
VERTEX
  5
1253B0
  8
SLIM
 10
11963.38119784648
 20
-1430.425625842202
 30
0.0
  0
VERTEX
  5
1253B1
  8
SLIM
 10
11965.69059892324
 20
-1434.425625842202
 30
0.0
  0
VERTEX
  5
1253B2
  8
SLIM
 10
11970.309401076751
 20
-1434.425625842202
 30
0.0
  0
SEQEND
  5
1253B3
  8
SLIM
  0
ARC
  5
1250E0
  8
OBJECT
 10
11944.32985203747
 20
-1417.436241890987
 30
0.0
 40
15.0
 50
331.24349561018607
 51
37.317549816127681
1001
ACDBBLOCKREPETAG
1070
     1
1071
       53
1005
1250E0
  0
LINE
  5
1250E1
  8
CENTER
 10
9924.0
 20
-1333.9999999999959
 30
0.0
 11
10091.0
 21
-1333.9999999999959
 31
0.0
1001
ACDBBLOCKREPETAG
1070
     1
1071
        0
1005
1250E1
  0
LINE
  5
1250E2
  8
CENTER
 10
10000.0
 20
-1257.0518385105131
 30
0.0
 11
10000.0
 21
-1410.9481614894751
 31
0.0
1001
ACDBBLOCKREPETAG
1070
     1
1071
        1
1005
1250E2
  0
CIRCLE
  5
1250E3
  8
OBJECT
 10
10000.0
 20
-1333.9999999999959
 30
0.0
 40
37.5
1001
ACDBBLOCKREPETAG
1070
     1
1071
        2
1005
1250E3
  0
CIRCLE
  5
1250E4
  8
OBJECT
 10
10000.0
 20
-1333.9999999999959
 30
0.0
 40
49.5
1001
ACDBBLOCKREPETAG
1070
     1
1071
        3
1005
1250E4
  0
ARC
  5
1250E5
  8
OBJECT
 10
10000.0
 20
-1333.9999999999959
 30
0.0
 40
61.0
 50
40.03737312998139
 51
79.962626870012684
1001
ACDBBLOCKREPETAG
1070
     1
1071
        4
1005
1250E5
  0
ARC
  5
1250E6
  8
OBJECT
 10
10000.0
 20
-1333.9999999999959
 30
0.0
 40
61.0
 50
160.03737312997501
 51
199.96262687002491
1001
ACDBBLOCKREPETAG
1070
     1
1071
        5
1005
1250E6
  0
ARC
  5
1250E7
  8
OBJECT
 10
10000.0
 20
-1333.9999999999959
 30
0.0
 40
61.0
 50
280.03737312998732
 51
319.9626268700186
1001
ACDBBLOCKREPETAG
1070
     1
1071
        6
1005
1250E7
  0
CIRCLE
  5
1250E8
  8
SLIM
 10
10064.0
 20
-1333.9999999999959
 30
0.0
 40
5.0
1001
ACDBBLOCKREPETAG
1070
     1
1071
        7
1005
1250E8
  0
ARC
  5
1250E9
  8
OBJECT
 10
10064.0
 20
-1333.9999999999959
 30
0.0
 40
12.0
 50
319.9626268700186
 51
40.03737312998139
1001
ACDBBLOCKREPETAG
1070
     1
1071
        8
1005
1250E9
  0
LINE
  5
1250EA
  8
OBJECT
 10
10046.703125
 20
-1294.7594837542269
 30
0.0
 11
10073.1875
 21
-1326.280554181157
 31
0.0
1001
ACDBBLOCKREPETAG
1070
     1
1071
        9
1005
1250EA
  0
LINE
  5
1250EB
  8
OBJECT
 10
10046.703125
 20
-1373.2405162457651
 30
0.0
 11
10073.1875
 21
-1341.7194458188339
 31
0.0
1001
ACDBBLOCKREPETAG
1070
     1
1071
       10
1005
1250EB
  0
POLYLINE
  5
1250EC
  8
SLIM
 66
     1
 10
0.0
 20
0.0
 30
0.0
 70
     1
1001
ACDBBLOCKREPETAG
1070
     1
1071
       11
1005
1250EC
  0
VERTEX
  5
1253B4
  8
SLIM
 10
10059.092522711881
 20
-1325.4999999999959
 30
0.0
  0
VERTEX
  5
1253B5
  8
SLIM
 10
10054.18504542377
 20
-1333.9999999999959
 30
0.0
  0
VERTEX
  5
1253B6
  8
SLIM
 10
10059.092522711881
 20
-1342.4999999999959
 30
0.0
  0
VERTEX
  5
1253B7
  8
SLIM
 10
10068.907477288099
 20
-1342.4999999999959
 30
0.0
  0
VERTEX
  5
1253B8
  8
SLIM
 10
10073.814954576221
 20
-1333.9999999999959
 30
0.0
  0
VERTEX
  5
1253B9
  8
SLIM
 10
10068.907477288099
 20
-1325.4999999999959
 30
0.0
  0
SEQEND
  5
1253BA
  8
SLIM
  0
CIRCLE
  5
1250ED
  8
SLIM
 10
9968.0
 20
-1278.574374157789
 30
0.0
 40
4.9999999999999991
1001
ACDBBLOCKREPETAG
1070
     1
1071
       12
1005
1250ED
  0
ARC
  5
1250EE
  8
OBJECT
 10
9968.0
 20
-1278.574374157789
 30
0.0
 40
12.0
 50
79.962626870012684
 51
160.03737312997501
1001
ACDBBLOCKREPETAG
1070
     1
1071
       13
1005
1250EE
  0
LINE
  5
1250EF
  8
OBJECT
 10
9942.6651535735436
 20
-1313.174165436757
 30
0.0
 11
9956.7210138177488
 21
-1274.4774886699411
 31
0.0
1001
ACDBBLOCKREPETAG
1070
     1
1071
       14
1005
1250EF
  0
LINE
  5
1250F0
  8
OBJECT
 10
10010.631721426451
 20
-1273.9336491909919
 30
0.0
 11
9970.091486182253
 21
-1266.7580428511019
 31
0.0
1001
ACDBBLOCKREPETAG
1070
     1
1071
       15
1005
1250F0
  0
POLYLINE
  5
1250F1
  8
SLIM
 66
     1
 10
0.0
 20
0.0
 30
0.0
 70
     1
1001
ACDBBLOCKREPETAG
1070
     1
1071
       16
1005
1250F1
  0
VERTEX
  5
1253BB
  8
SLIM
 10
9963.0925227118896
 20
-1287.074374157789
 30
0.0
  0
VERTEX
  5
1253BC
  8
SLIM
 10
9972.9074772881177
 20
-1287.074374157793
 30
0.0
  0
VERTEX
  5
1253BD
  8
SLIM
 10
9977.814954576219
 20
-1278.574374157789
 30
0.0
  0
VERTEX
  5
1253BE
  8
SLIM
 10
9972.9074772881177
 20
-1270.074374157793
 30
0.0
  0
VERTEX
  5
1253BF
  8
SLIM
 10
9963.0925227118896
 20
-1270.074374157789
 30
0.0
  0
VERTEX
  5
1253C0
  8
SLIM
 10
9958.1850454237738
 20
-1278.574374157793
 30
0.0
  0
SEQEND
  5
1253C1
  8
SLIM
  0
CIRCLE
  5
1250F2
  8
SLIM
 10
9968.0
 20
-1389.425625842199
 30
0.0
 40
5.0
1001
ACDBBLOCKREPETAG
1070
     1
1071
       17
1005
1250F2
  0
ARC
  5
1250F3
  8
OBJECT
 10
9968.0
 20
-1389.425625842199
 30
0.0
 40
12.0
 50
199.96262687002491
 51
280.03737312998732
1001
ACDBBLOCKREPETAG
1070
     1
1071
       18
1005
1250F3
  0
LINE
  5
1250F4
  8
OBJECT
 10
10010.631721426451
 20
-1394.0663508089999
 30
0.0
 11
9970.091486182253
 21
-1401.2419571488881
 31
0.0
1001
ACDBBLOCKREPETAG
1070
     1
1071
       19
1005
1250F4
  0
LINE
  5
1250F5
  8
OBJECT
 10
9942.6651535735436
 20
-1354.825834563231
 30
0.0
 11
9956.7210138177488
 21
-1393.522511330051
 31
0.0
1001
ACDBBLOCKREPETAG
1070
     1
1071
       20
1005
1250F5
  0
POLYLINE
  5
1250F6
  8
SLIM
 66
     1
 10
0.0
 20
0.0
 30
0.0
 70
     1
1001
ACDBBLOCKREPETAG
1070
     1
1071
       21
1005
1250F6
  0
VERTEX
  5
1253C2
  8
SLIM
 10
9977.814954576219
 20
-1389.425625842199
 30
0.0
  0
VERTEX
  5
1253C3
  8
SLIM
 10
9972.9074772881049
 20
-1380.925625842199
 30
0.0
  0
VERTEX
  5
1253C4
  8
SLIM
 10
9963.0925227118896
 20
-1380.925625842199
 30
0.0
  0
VERTEX
  5
1253C5
  8
SLIM
 10
9958.1850454237738
 20
-1389.425625842199
 30
0.0
  0
VERTEX
  5
1253C6
  8
SLIM
 10
9963.0925227118896
 20
-1397.925625842199
 30
0.0
  0
VERTEX
  5
1253C7
  8
SLIM
 10
9972.9074772881177
 20
-1397.925625842199
 30
0.0
  0
SEQEND
  5
1253C8
  8
SLIM
  0
LINE
  5
1250F7
  8
CENTER
 10
5924.0
 20
-1374.9999999999991
 30
0.0
 11
6091.0
 21
-1374.9999999999991
 31
0.0
1001
ACDBBLOCKREPETAG
1070
     1
1071
       22
1005
1250F7
  0
LINE
  5
1250F8
  8
CENTER
 10
6000.0
 20
-1298.0518385105161
 30
0.0
 11
6000.0
 21
-1451.948161489478
 31
0.0
1001
ACDBBLOCKREPETAG
1070
     1
1071
       23
1005
1250F8
  0
CIRCLE
  5
1250F9
  8
OBJECT
 10
6000.0
 20
-1374.9999999999991
 30
0.0
 40
37.5
1001
ACDBBLOCKREPETAG
1070
     1
1071
       24
1005
1250F9
  0
CIRCLE
  5
1250FA
  8
OBJECT
 10
6000.0
 20
-1374.9999999999991
 30
0.0
 40
47.5
1001
ACDBBLOCKREPETAG
1070
     1
1071
       25
1005
1250FA
  0
ARC
  5
1250FB
  8
OBJECT
 10
6000.0
 20
-1374.9999999999991
 30
0.0
 40
61.0
 50
40.03737312998139
 51
79.962626870012684
1001
ACDBBLOCKREPETAG
1070
     1
1071
       26
1005
1250FB
  0
ARC
  5
1250FC
  8
OBJECT
 10
6000.0
 20
-1374.9999999999991
 30
0.0
 40
61.0
 50
160.03737312997501
 51
199.96262687002491
1001
ACDBBLOCKREPETAG
1070
     1
1071
       27
1005
1250FC
  0
ARC
  5
1250FD
  8
OBJECT
 10
6000.0
 20
-1374.9999999999991
 30
0.0
 40
61.0
 50
280.03737312998732
 51
319.9626268700186
1001
ACDBBLOCKREPETAG
1070
     1
1071
       28
1005
1250FD
  0
ARC
  5
1250FE
  8
OBJECT
 10
6064.0
 20
-1374.9999999999991
 30
0.0
 40
12.0
 50
319.9626268700186
 51
40.03737312998139
1001
ACDBBLOCKREPETAG
1070
     1
1071
       29
1005
1250FE
  0
LINE
  5
1250FF
  8
OBJECT
 10
6046.703125
 20
-1335.7594837542299
 30
0.0
 11
6073.1875
 21
-1367.2805541811599
 31
0.0
1001
ACDBBLOCKREPETAG
1070
     1
1071
       30
1005
1250FF
  0
LINE
  5
125100
  8
OBJECT
 10
6046.703125
 20
-1414.240516245768
 30
0.0
 11
6073.1875
 21
-1382.719445818838
 31
0.0
1001
ACDBBLOCKREPETAG
1070
     1
1071
       31
1005
125100
  0
CIRCLE
  5
125101
  8
OBJECT
 10
6000.0
 20
-1374.9999999999991
 30
0.0
 40
55.0
1001
ACDBBLOCKREPETAG
1070
     1
1071
       32
1005
125101
  0
ARC
  5
125102
  8
OBJECT
 10
6064.0
 20
-1374.9999999999991
 30
0.0
 40
12.0
 50
271.2434956101261
 51
88.756504389873882
1001
ACDBBLOCKREPETAG
1070
     1
1071
       33
1005
125102
  0
ARC
  5
125103
  8
OBJECT
 10
6064.5859375
 20
-1348.0063585775049
 30
0.0
 40
15.0
 50
202.68245018366949
 51
268.7565043898739
1001
ACDBBLOCKREPETAG
1070
     1
1071
       34
1005
125103
  0
CIRCLE
  5
125104
  8
SLIM
 10
6064.0
 20
-1374.9999999999991
 30
0.0
 40
8.0
1001
ACDBBLOCKREPETAG
1070
     1
1071
       35
1005
125104
  0
POLYLINE
  5
125105
  8
SLIM
 66
     1
 10
0.0
 20
0.0
 30
0.0
 70
     1
1001
ACDBBLOCKREPETAG
1070
     1
1071
       36
1005
125105
  0
VERTEX
  5
1253C9
  8
SLIM
 10
6061.69059892324
 20
-1370.9999999999991
 30
0.0
  0
VERTEX
  5
1253CA
  8
SLIM
 10
6059.3811978464846
 20
-1374.9999999999991
 30
0.0
  0
VERTEX
  5
1253CB
  8
SLIM
 10
6061.69059892324
 20
-1378.9999999999991
 30
0.0
  0
VERTEX
  5
1253CC
  8
SLIM
 10
6066.30940107676
 20
-1378.9999999999991
 30
0.0
  0
VERTEX
  5
1253CD
  8
SLIM
 10
6068.6188021535154
 20
-1374.9999999999991
 30
0.0
  0
VERTEX
  5
1253CE
  8
SLIM
 10
6066.30940107676
 20
-1370.9999999999991
 30
0.0
  0
SEQEND
  5
1253CF
  8
SLIM
  0
ARC
  5
125106
  8
OBJECT
 10
6064.5859375
 20
-1401.993641422489
 30
0.0
 40
15.0
 50
91.243495610126089
 51
157.3175498163304
1001
ACDBBLOCKREPETAG
1070
     1
1071
       37
1005
125106
  0
ARC
  5
125107
  8
OBJECT
 10
5968.0
 20
-1319.5743741577919
 30
0.0
 40
12.0
 50
79.962626870012684
 51
160.03737312997501
1001
ACDBBLOCKREPETAG
1070
     1
1071
       38
1005
125107
  0
LINE
  5
125108
  8
OBJECT
 10
5942.6651535735473
 20
-1354.1741654367599
 30
0.0
 11
5956.721013817747
 21
-1315.477488669944
 31
0.0
1001
ACDBBLOCKREPETAG
1070
     1
1071
       39
1005
125108
  0
LINE
  5
125109
  8
OBJECT
 10
6010.6317214264518
 20
-1314.9336491909951
 30
0.0
 11
5970.091486182253
 21
-1307.7580428511051
 31
0.0
1001
ACDBBLOCKREPETAG
1070
     1
1071
       40
1005
125109
  0
ARC
  5
12510A
  8
OBJECT
 10
5968.0
 20
-1319.5743741577919
 30
0.0
 40
12.0
 50
31.243495610056922
 51
208.7565043898139
1001
ACDBBLOCKREPETAG
1070
     1
1071
       41
1005
12510A
  0
ARC
  5
12510B
  8
OBJECT
 10
5944.3298520374738
 20
-1332.56375810901
 30
0.0
 40
15.0
 50
322.68245018387239
 51
28.756504389813902
1001
ACDBBLOCKREPETAG
1070
     1
1071
       42
1005
12510B
  0
CIRCLE
  5
12510C
  8
SLIM
 10
5968.0
 20
-1319.5743741577919
 30
0.0
 40
7.9999999999999982
1001
ACDBBLOCKREPETAG
1070
     1
1071
       43
1005
12510C
  0
POLYLINE
  5
12510D
  8
SLIM
 66
     1
 10
0.0
 20
0.0
 30
0.0
 70
     1
1001
ACDBBLOCKREPETAG
1070
     1
1071
       44
1005
12510D
  0
VERTEX
  5
1253D0
  8
SLIM
 10
5965.6905989232419
 20
-1323.574374157796
 30
0.0
  0
VERTEX
  5
1253D1
  8
SLIM
 10
5970.30940107676
 20
-1323.5743741577919
 30
0.0
  0
VERTEX
  5
1253D2
  8
SLIM
 10
5972.6188021535154
 20
-1319.574374157796
 30
0.0
  0
VERTEX
  5
1253D3
  8
SLIM
 10
5970.3094010767572
 20
-1315.5743741577919
 30
0.0
  0
VERTEX
  5
1253D4
  8
SLIM
 10
5965.6905989232419
 20
-1315.574374157796
 30
0.0
  0
VERTEX
  5
1253D5
  8
SLIM
 10
5963.3811978464846
 20
-1319.5743741577919
 30
0.0
  0
SEQEND
  5
1253D6
  8
SLIM
  0
ARC
  5
12510E
  8
OBJECT
 10
5991.0842104625253
 20
-1305.5701166865169
 30
0.0
 40
15.0
 50
211.2434956100569
 51
277.31754981622862
1001
ACDBBLOCKREPETAG
1070
     1
1071
       45
1005
12510E
  0
ARC
  5
12510F
  8
OBJECT
 10
5968.0
 20
-1430.425625842202
 30
0.0
 40
12.0
 50
199.96262687002491
 51
280.03737312998732
1001
ACDBBLOCKREPETAG
1070
     1
1071
       46
1005
12510F
  0
LINE
  5
125110
  8
OBJECT
 10
6010.6317214264518
 20
-1435.0663508090031
 30
0.0
 11
5970.091486182253
 21
-1442.241957148892
 31
0.0
1001
ACDBBLOCKREPETAG
1070
     1
1071
       47
1005
125110
  0
LINE
  5
125111
  8
OBJECT
 10
5942.6651535735473
 20
-1395.8258345632339
 30
0.0
 11
5956.721013817747
 21
-1434.5225113300539
 31
0.0
1001
ACDBBLOCKREPETAG
1070
     1
1071
       48
1005
125111
  0
ARC
  5
125112
  8
OBJECT
 10
5968.0
 20
-1430.425625842202
 30
0.0
 40
12.0
 50
151.2434956101861
 51
328.75650438994307
1001
ACDBBLOCKREPETAG
1070
     1
1071
       49
1005
125112
  0
ARC
  5
125113
  8
OBJECT
 10
5991.0842104625253
 20
-1444.4298833134769
 30
0.0
 40
15.0
 50
82.682450183771394
 51
148.75650438994299
1001
ACDBBLOCKREPETAG
1070
     1
1071
       50
1005
125113
  0
CIRCLE
  5
125114
  8
SLIM
 10
5968.0
 20
-1430.425625842202
 30
0.0
 40
8.0
1001
ACDBBLOCKREPETAG
1070
     1
1071
       51
1005
125114
  0
POLYLINE
  5
125115
  8
SLIM
 66
     1
 10
0.0
 20
0.0
 30
0.0
 70
     1
1001
ACDBBLOCKREPETAG
1070
     1
1071
       52
1005
125115
  0
VERTEX
  5
1253D7
  8
SLIM
 10
5972.6188021535154
 20
-1430.425625842202
 30
0.0
  0
VERTEX
  5
1253D8
  8
SLIM
 10
5970.3094010767572
 20
-1426.425625842202
 30
0.0
  0
VERTEX
  5
1253D9
  8
SLIM
 10
5965.6905989232419
 20
-1426.425625842202
 30
0.0
  0
VERTEX
  5
1253DA
  8
SLIM
 10
5963.3811978464846
 20
-1430.425625842202
 30
0.0
  0
VERTEX
  5
1253DB
  8
SLIM
 10
5965.69059892324
 20
-1434.425625842202
 30
0.0
  0
VERTEX
  5
1253DC
  8
SLIM
 10
5970.3094010767572
 20
-1434.425625842202
 30
0.0
  0
SEQEND
  5
1253DD
  8
SLIM
  0
ARC
  5
125116
  8
OBJECT
 10
5944.3298520374738
 20
-1417.436241890987
 30
0.0
 40
15.0
 50
331.24349561018607
 51
37.317549816127681
1001
ACDBBLOCKREPETAG
1070
     1
1071
       53
1005
125116
  0
LINE
  5
125117
  8
CENTER
 10
3924.0
 20
-1333.9999999999959
 30
0.0
 11
4091.0
 21
-1333.9999999999959
 31
0.0
1001
ACDBBLOCKREPETAG
1070
     1
1071
        0
1005
125117
  0
LINE
  5
125118
  8
CENTER
 10
4000.0
 20
-1257.0518385105131
 30
0.0
 11
4000.0
 21
-1410.9481614894751
 31
0.0
1001
ACDBBLOCKREPETAG
1070
     1
1071
        1
1005
125118
  0
CIRCLE
  5
125119
  8
OBJECT
 10
4000.0
 20
-1333.9999999999959
 30
0.0
 40
37.5
1001
ACDBBLOCKREPETAG
1070
     1
1071
        2
1005
125119
  0
CIRCLE
  5
12511A
  8
OBJECT
 10
4000.0
 20
-1333.9999999999959
 30
0.0
 40
49.5
1001
ACDBBLOCKREPETAG
1070
     1
1071
        3
1005
12511A
  0
ARC
  5
12511B
  8
OBJECT
 10
4000.0
 20
-1333.9999999999959
 30
0.0
 40
61.0
 50
40.03737312998139
 51
79.962626870012684
1001
ACDBBLOCKREPETAG
1070
     1
1071
        4
1005
12511B
  0
ARC
  5
12511C
  8
OBJECT
 10
4000.0
 20
-1333.9999999999959
 30
0.0
 40
61.0
 50
160.03737312997501
 51
199.96262687002491
1001
ACDBBLOCKREPETAG
1070
     1
1071
        5
1005
12511C
  0
ARC
  5
12511D
  8
OBJECT
 10
4000.0
 20
-1333.9999999999959
 30
0.0
 40
61.0
 50
280.03737312998732
 51
319.9626268700186
1001
ACDBBLOCKREPETAG
1070
     1
1071
        6
1005
12511D
  0
CIRCLE
  5
12511E
  8
SLIM
 10
4064.0
 20
-1333.9999999999959
 30
0.0
 40
5.0
1001
ACDBBLOCKREPETAG
1070
     1
1071
        7
1005
12511E
  0
ARC
  5
12511F
  8
OBJECT
 10
4064.0
 20
-1333.9999999999959
 30
0.0
 40
12.0
 50
319.9626268700186
 51
40.03737312998139
1001
ACDBBLOCKREPETAG
1070
     1
1071
        8
1005
12511F
  0
LINE
  5
125120
  8
OBJECT
 10
4046.7031249999982
 20
-1294.7594837542269
 30
0.0
 11
4073.1875
 21
-1326.280554181157
 31
0.0
1001
ACDBBLOCKREPETAG
1070
     1
1071
        9
1005
125120
  0
LINE
  5
125121
  8
OBJECT
 10
4046.7031249999982
 20
-1373.2405162457651
 30
0.0
 11
4073.1875
 21
-1341.7194458188339
 31
0.0
1001
ACDBBLOCKREPETAG
1070
     1
1071
       10
1005
125121
  0
POLYLINE
  5
125122
  8
SLIM
 66
     1
 10
0.0
 20
0.0
 30
0.0
 70
     1
1001
ACDBBLOCKREPETAG
1070
     1
1071
       11
1005
125122
  0
VERTEX
  5
1253DE
  8
SLIM
 10
4059.0925227118851
 20
-1325.4999999999959
 30
0.0
  0
VERTEX
  5
1253DF
  8
SLIM
 10
4054.1850454237701
 20
-1333.9999999999959
 30
0.0
  0
VERTEX
  5
1253E0
  8
SLIM
 10
4059.0925227118851
 20
-1342.4999999999959
 30
0.0
  0
VERTEX
  5
1253E1
  8
SLIM
 10
4068.9074772881072
 20
-1342.4999999999959
 30
0.0
  0
VERTEX
  5
1253E2
  8
SLIM
 10
4073.8149545762199
 20
-1333.9999999999959
 30
0.0
  0
VERTEX
  5
1253E3
  8
SLIM
 10
4068.9074772881072
 20
-1325.4999999999959
 30
0.0
  0
SEQEND
  5
1253E4
  8
SLIM
  0
CIRCLE
  5
125123
  8
SLIM
 10
3968.0
 20
-1278.574374157789
 30
0.0
 40
4.9999999999999991
1001
ACDBBLOCKREPETAG
1070
     1
1071
       12
1005
125123
  0
ARC
  5
125124
  8
OBJECT
 10
3968.0
 20
-1278.574374157789
 30
0.0
 40
12.0
 50
79.962626870012684
 51
160.03737312997501
1001
ACDBBLOCKREPETAG
1070
     1
1071
       13
1005
125124
  0
LINE
  5
125125
  8
OBJECT
 10
3942.6651535735441
 20
-1313.174165436757
 30
0.0
 11
3956.721013817747
 21
-1274.4774886699411
 31
0.0
1001
ACDBBLOCKREPETAG
1070
     1
1071
       14
1005
125125
  0
LINE
  5
125126
  8
OBJECT
 10
4010.6317214264491
 20
-1273.9336491909919
 30
0.0
 11
3970.091486182253
 21
-1266.7580428511019
 31
0.0
1001
ACDBBLOCKREPETAG
1070
     1
1071
       15
1005
125126
  0
POLYLINE
  5
125127
  8
SLIM
 66
     1
 10
0.0
 20
0.0
 30
0.0
 70
     1
1001
ACDBBLOCKREPETAG
1070
     1
1071
       16
1005
125127
  0
VERTEX
  5
1253E5
  8
SLIM
 10
3963.092522711886
 20
-1287.074374157789
 30
0.0
  0
VERTEX
  5
1253E6
  8
SLIM
 10
3972.907477288114
 20
-1287.074374157793
 30
0.0
  0
VERTEX
  5
1253E7
  8
SLIM
 10
3977.8149545762212
 20
-1278.574374157789
 30
0.0
  0
VERTEX
  5
1253E8
  8
SLIM
 10
3972.907477288114
 20
-1270.074374157793
 30
0.0
  0
VERTEX
  5
1253E9
  8
SLIM
 10
3963.092522711886
 20
-1270.074374157789
 30
0.0
  0
VERTEX
  5
1253EA
  8
SLIM
 10
3958.185045423772
 20
-1278.574374157793
 30
0.0
  0
SEQEND
  5
1253EB
  8
SLIM
  0
CIRCLE
  5
125128
  8
SLIM
 10
3968.0
 20
-1389.425625842199
 30
0.0
 40
5.0
1001
ACDBBLOCKREPETAG
1070
     1
1071
       17
1005
125128
  0
ARC
  5
125129
  8
OBJECT
 10
3968.0
 20
-1389.425625842199
 30
0.0
 40
12.0
 50
199.96262687002491
 51
280.03737312998732
1001
ACDBBLOCKREPETAG
1070
     1
1071
       18
1005
125129
  0
LINE
  5
12512A
  8
OBJECT
 10
4010.6317214264491
 20
-1394.0663508089999
 30
0.0
 11
3970.091486182253
 21
-1401.2419571488881
 31
0.0
1001
ACDBBLOCKREPETAG
1070
     1
1071
       19
1005
12512A
  0
LINE
  5
12512B
  8
OBJECT
 10
3942.6651535735441
 20
-1354.825834563231
 30
0.0
 11
3956.721013817747
 21
-1393.522511330051
 31
0.0
1001
ACDBBLOCKREPETAG
1070
     1
1071
       20
1005
12512B
  0
POLYLINE
  5
12512C
  8
SLIM
 66
     1
 10
0.0
 20
0.0
 30
0.0
 70
     1
1001
ACDBBLOCKREPETAG
1070
     1
1071
       21
1005
12512C
  0
VERTEX
  5
1253EC
  8
SLIM
 10
3977.8149545762212
 20
-1389.425625842199
 30
0.0
  0
VERTEX
  5
1253ED
  8
SLIM
 10
3972.9074772881072
 20
-1380.925625842199
 30
0.0
  0
VERTEX
  5
1253EE
  8
SLIM
 10
3963.092522711886
 20
-1380.925625842199
 30
0.0
  0
VERTEX
  5
1253EF
  8
SLIM
 10
3958.185045423772
 20
-1389.425625842199
 30
0.0
  0
VERTEX
  5
1253F0
  8
SLIM
 10
3963.092522711886
 20
-1397.925625842199
 30
0.0
  0
VERTEX
  5
1253F1
  8
SLIM
 10
3972.907477288114
 20
-1397.925625842199
 30
0.0
  0
SEQEND
  5
1253F2
  8
SLIM
  0
LINE
  5
12512D
  8
OBJECT
 10
2044.5
 20
-979.99999999999204
 30
0.0
 11
1955.5
 21
-979.99999999999204
 31
0.0
1001
ACDBBLOCKREPETAG
1070
     1
1071
        0
1005
12512D
  0
LINE
  5
12512E
  8
OBJECT
 10
1935.0
 20
-769.99999999999204
 30
0.0
 11
1935.0
 21
-669.99999999999216
 31
0.0
1001
ACDBBLOCKREPETAG
1070
     1
1071
        1
1005
12512E
  0
LINE
  5
12512F
  8
OBJECT
 10
2065.0
 20
-769.99999999999204
 30
0.0
 11
2065.0
 21
-669.99999999999216
 31
0.0
1001
ACDBBLOCKREPETAG
1070
     1
1071
        2
1005
12512F
  0
LINE
  5
125130
  8
OBJECT
 10
1935.0
 20
-769.99999999999204
 30
0.0
 11
2065.0
 21
-769.99999999999204
 31
0.0
1001
ACDBBLOCKREPETAG
1070
     1
1071
        3
1005
125130
  0
LINE
  5
125131
  8
OBJECT
 10
1955.5
 20
-879.99999999999204
 30
0.0
 11
2044.5
 21
-879.99999999999204
 31
0.0
1001
ACDBBLOCKREPETAG
1070
     1
1071
        4
1005
125131
  0
LINE
  5
125132
  8
OBJECT
 10
1955.5
 20
-879.99999999999204
 30
0.0
 11
1955.5
 21
-979.99999999999204
 31
0.0
1001
ACDBBLOCKREPETAG
1070
     1
1071
        5
1005
125132
  0
LINE
  5
125133
  8
OBJECT
 10
2044.5
 20
-879.99999999999204
 30
0.0
 11
2044.5
 21
-979.99999999999204
 31
0.0
1001
ACDBBLOCKREPETAG
1070
     1
1071
        6
1005
125133
  0
LINE
  5
125134
  8
OBJECT
 10
1935.0
 20
-769.99999999999204
 30
0.0
 11
1955.5
 21
-879.99999999999204
 31
0.0
1001
ACDBBLOCKREPETAG
1070
     1
1071
        7
1005
125134
  0
LINE
  5
125135
  8
OBJECT
 10
2044.5
 20
-879.99999999999204
 30
0.0
 11
2065.0
 21
-769.99999999999204
 31
0.0
1001
ACDBBLOCKREPETAG
1070
     1
1071
        8
1005
125135
  0
LINE
  5
125136
  8
HIDDEN
 10
1962.5
 20
-879.99999999999204
 30
0.0
 11
1962.5
 21
-979.99999999999204
 31
0.0
1001
ACDBBLOCKREPETAG
1070
     1
1071
        9
1005
125136
  0
LINE
  5
125137
  8
HIDDEN
 10
2037.5
 20
-879.99999999999204
 30
0.0
 11
2037.5
 21
-979.99999999999204
 31
0.0
1001
ACDBBLOCKREPETAG
1070
     1
1071
       10
1005
125137
  0
LINE
  5
125138
  8
CENTER
 10
2000.0
 20
-669.99999999999955
 30
0.0
 11
2000.0
 21
-994.99999999999216
 31
0.0
1001
ACDBBLOCKREPETAG
1070
     1
1071
       11
1005
125138
  0
LINE
  5
125139
  8
OBJECT
 10
1927.0
 20
-533.99999999999955
 30
0.0
 11
1930.0
 21
-533.99999999999955
 31
0.0
1001
ACDBBLOCKREPETAG
1070
     1
1071
        1
1005
125139
  0
ARC
  5
12513A
  8
OBJECT
 10
1927.0
 20
-536.99999999999955
 30
0.0
 40
3.0
 50
90.0
 51
180.0
1001
ACDBBLOCKREPETAG
1070
     1
1071
        2
1005
12513A
  0
LINE
  5
12513B
  8
OBJECT
 10
1930.0
 20
-657.99999999999955
 30
0.0
 11
1927.0
 21
-657.99999999999955
 31
0.0
1001
ACDBBLOCKREPETAG
1070
     1
1071
        3
1005
12513B
  0
ARC
  5
12513C
  8
OBJECT
 10
1927.0
 20
-654.99999999999966
 30
0.0
 40
3.0
 50
180.0
 51
270.0
1001
ACDBBLOCKREPETAG
1070
     1
1071
        4
1005
12513C
  0
LINE
  5
12513D
  8
OBJECT
 10
1924.0
 20
-654.99999999999966
 30
0.0
 11
1924.0
 21
-536.99999999999955
 31
0.0
1001
ACDBBLOCKREPETAG
1070
     1
1071
        5
1005
12513D
  0
CIRCLE
  5
12513E
  8
OBJECT
 10
2000.0
 20
-596.0
 30
0.0
 40
62.0
1001
ACDBBLOCKREPETAG
1070
     1
1071
        0
1005
12513E
  0
LINE
  5
12513F
  8
OBJECT
 10
1935.0
 20
-449.99999999999937
 30
0.0
 11
1935.0
 21
-470.99999999999937
 31
0.0
1001
ACDBBLOCKREPETAG
1070
     1
1071
       16
1005
12513F
  0
LINE
  5
125140
  8
OBJECT
 10
1935.0
 20
-470.99999999999937
 30
0.0
 11
2065.0
 21
-470.99999999999937
 31
0.0
1001
ACDBBLOCKREPETAG
1070
     1
1071
       17
1005
125140
  0
LINE
  5
125141
  8
OBJECT
 10
2065.0
 20
-470.99999999999937
 30
0.0
 11
2065.0
 21
-449.99999999999937
 31
0.0
1001
ACDBBLOCKREPETAG
1070
     1
1071
       18
1005
125141
  0
LINE
  5
125142
  8
OBJECT
 10
2065.0
 20
-449.99999999999937
 30
0.0
 11
1935.0
 21
-449.99999999999937
 31
0.0
1001
ACDBBLOCKREPETAG
1070
     1
1071
       19
1005
125142
  0
LINE
  5
125143
  8
HIDDEN
 10
2044.5
 20
-519.99999999999955
 30
0.0
 11
1955.5
 21
-519.99999999999955
 31
0.0
1001
ACDBBLOCKREPETAG
1070
     1
1071
       20
1005
125143
  0
LINE
  5
125144
  8
CENTER
 10
2000.0
 20
-669.99999999999955
 30
0.0
 11
2000.0
 21
-434.99999999999949
 31
0.0
1001
ACDBBLOCKREPETAG
1070
     1
1071
       21
1005
125144
  0
LINE
  5
125145
  8
OBJECT
 10
1940.5
 20
-470.99999999999937
 30
0.0
 11
1940.5
 21
-533.99999999999955
 31
0.0
1001
ACDBBLOCKREPETAG
1070
     1
1071
       22
1005
125145
  0
LINE
  5
125146
  8
OBJECT
 10
1930.0
 20
-533.99999999999955
 30
0.0
 11
2070.0
 21
-533.99999999999955
 31
0.0
1001
ACDBBLOCKREPETAG
1070
     1
1071
       23
1005
125146
  0
LINE
  5
125147
  8
OBJECT
 10
2059.5
 20
-533.99999999999955
 30
0.0
 11
2059.5
 21
-470.99999999999937
 31
0.0
1001
ACDBBLOCKREPETAG
1070
     1
1071
       24
1005
125147
  0
LINE
  5
125148
  8
OBJECT
 10
1930.0
 20
-657.99999999999955
 30
0.0
 11
1930.0
 21
-669.99999999999955
 31
0.0
1001
ACDBBLOCKREPETAG
1070
     1
1071
       25
1005
125148
  0
LINE
  5
125149
  8
OBJECT
 10
1930.0
 20
-669.99999999999955
 30
0.0
 11
2070.0
 21
-669.99999999999955
 31
0.0
1001
ACDBBLOCKREPETAG
1070
     1
1071
       26
1005
125149
  0
LINE
  5
12514A
  8
OBJECT
 10
2070.0
 20
-669.99999999999955
 30
0.0
 11
2070.0
 21
-657.99999999999955
 31
0.0
1001
ACDBBLOCKREPETAG
1070
     1
1071
       27
1005
12514A
  0
LINE
  5
12514B
  8
OBJECT
 10
2070.0
 20
-657.99999999999955
 30
0.0
 11
1930.0
 21
-657.99999999999955
 31
0.0
1001
ACDBBLOCKREPETAG
1070
     1
1071
       28
1005
12514B
  0
ARC
  5
12514C
  8
OBJECT
 10
2435.0384389946771
 20
-898.60813684682694
 30
0.0
 40
519.48776673616965
 50
135.4235066743189
 51
138.50052655621499
1001
ACDBBLOCKREPETAG
1070
     1
1071
       32
1005
12514C
  0
ARC
  5
12514D
  8
OBJECT
 10
2435.0384389946771
 20
-293.39186315317193
 30
0.0
 40
519.48776673616965
 50
221.49947344378501
 51
224.57649332568101
1001
ACDBBLOCKREPETAG
1070
     1
1071
       33
1005
12514D
  0
ARC
  5
12514E
  8
OBJECT
 10
1564.961561005322
 20
-898.60813684682694
 30
0.0
 40
519.48776673616965
 50
41.499473443784993
 51
44.576493325681092
1001
ACDBBLOCKREPETAG
1070
     1
1071
       34
1005
12514E
  0
ARC
  5
12514F
  8
OBJECT
 10
1564.961561005322
 20
-293.39186315317193
 30
0.0
 40
519.48776673616965
 50
315.4235066743189
 51
318.50052655621488
1001
ACDBBLOCKREPETAG
1070
     1
1071
       35
1005
12514F
  0
POINT
  5
125150
  8
DOTS
 10
2000.0
 20
-654.99999999999966
 30
0.0
1001
ACDBBLOCKREPETAG
1070
     1
1071
      111
1005
125150
  0
LINE
  5
125151
  8
CENTER
 10
1909.0
 20
-199.99999999999909
 30
0.0
 11
1930.0
 21
-199.99999999999909
 31
0.0
1001
ACDBBLOCKREPETAG
1070
     1
1071
        0
1005
125151
  0
LINE
  5
125152
  8
OBJECT
 10
1927.0
 20
-261.99999999999909
 30
0.0
 11
1930.0
 21
-261.99999999999909
 31
0.0
1001
ACDBBLOCKREPETAG
1070
     1
1071
        1
1005
125152
  0
ARC
  5
125153
  8
OBJECT
 10
1927.0
 20
-258.99999999999909
 30
0.0
 40
3.0
 50
180.0
 51
270.0
1001
ACDBBLOCKREPETAG
1070
     1
1071
        2
1005
125153
  0
LINE
  5
125154
  8
OBJECT
 10
1930.0
 20
-137.99999999999909
 30
0.0
 11
1927.0
 21
-137.99999999999909
 31
0.0
1001
ACDBBLOCKREPETAG
1070
     1
1071
        3
1005
125154
  0
ARC
  5
125155
  8
OBJECT
 10
1927.0
 20
-140.99999999999909
 30
0.0
 40
3.0
 50
90.0
 51
180.0
1001
ACDBBLOCKREPETAG
1070
     1
1071
        4
1005
125155
  0
LINE
  5
125156
  8
OBJECT
 10
1924.0
 20
-140.99999999999909
 30
0.0
 11
1924.0
 21
-258.99999999999909
 31
0.0
1001
ACDBBLOCKREPETAG
1070
     1
1071
        5
1005
125156
  0
LINE
  5
125157
  8
CENTER
 10
2000.0
 20
-290.99999999999898
 30
0.0
 11
2000.0
 21
-269.99999999999909
 31
0.0
1001
ACDBBLOCKREPETAG
1070
     1
1071
        0
1005
125157
  0
LINE
  5
125158
  8
OBJECT
 10
2062.0
 20
-273.0
 30
0.0
 11
2062.0
 21
-269.99999999999909
 31
0.0
1001
ACDBBLOCKREPETAG
1070
     1
1071
        1
1005
125158
  0
ARC
  5
125159
  8
OBJECT
 10
2059.0
 20
-273.0
 30
0.0
 40
3.0
 50
270.0
 51
0.0
1001
ACDBBLOCKREPETAG
1070
     1
1071
        2
1005
125159
  0
LINE
  5
12515A
  8
OBJECT
 10
1938.0
 20
-269.99999999999909
 30
0.0
 11
1938.0
 21
-272.99999999999818
 31
0.0
1001
ACDBBLOCKREPETAG
1070
     1
1071
        3
1005
12515A
  0
ARC
  5
12515B
  8
OBJECT
 10
1941.0
 20
-272.99999999999818
 30
0.0
 40
3.0
 50
180.0
 51
270.0
1001
ACDBBLOCKREPETAG
1070
     1
1071
        4
1005
12515B
  0
LINE
  5
12515C
  8
OBJECT
 10
1941.0
 20
-275.99999999999818
 30
0.0
 11
2059.0
 21
-276.0
 31
0.0
1001
ACDBBLOCKREPETAG
1070
     1
1071
        5
1005
12515C
  0
POINT
  5
12515D
  8
DOTS
 10
2000.0
 20
-199.99999999999909
 30
0.0
 50
270.0
1001
ACDBBLOCKREPETAG
1070
     1
1071
      153
1005
12515D
  0
ARC
  5
12515E
  8
OBJECT
 10
2000.0
 20
-199.99999999999909
 30
0.0
 40
70.0
 50
62.339550100758693
 51
117.6604498992413
1001
ACDBBLOCKREPETAG
1070
     1
1071
        0
1005
12515E
  0
CIRCLE
  5
12515F
  8
OBJECT
 10
2000.0
 20
-199.99999999999909
 30
0.0
 40
65.0
1001
ACDBBLOCKREPETAG
1070
     1
1071
        1
1005
12515F
  0
CIRCLE
  5
125160
  8
OBJECT
 10
2000.0
 20
-199.99999999999909
 30
0.0
 40
41.0
1001
ACDBBLOCKREPETAG
1070
     1
1071
        2
1005
125160
  0
CIRCLE
  5
125161
  8
OBJECT
 10
2000.0
 20
-199.99999999999909
 30
0.0
 40
58.0
1001
ACDBBLOCKREPETAG
1070
     1
1071
        3
1005
125161
  0
LINE
  5
125162
  8
OBJECT
 10
2070.0
 20
-137.99999999999909
 30
0.0
 11
2019.5192212959439
 21
-137.99999999999909
 31
0.0
1001
ACDBBLOCKREPETAG
1070
     1
1071
        4
1005
125162
  0
LINE
  5
125163
  8
OBJECT
 10
1930.0
 20
-137.99999999999909
 30
0.0
 11
1980.480778704057
 21
-137.99999999999909
 31
0.0
1001
ACDBBLOCKREPETAG
1070
     1
1071
        5
1005
125163
  0
LINE
  5
125164
  8
OBJECT
 10
1930.0
 20
-261.99999999999909
 30
0.0
 11
1938.0
 21
-261.99999999999909
 31
0.0
1001
ACDBBLOCKREPETAG
1070
     1
1071
        6
1005
125164
  0
LINE
  5
125165
  8
OBJECT
 10
1938.0
 20
-269.99999999999909
 30
0.0
 11
1938.0
 21
-261.99999999999909
 31
0.0
1001
ACDBBLOCKREPETAG
1070
     1
1071
        7
1005
125165
  0
LINE
  5
125166
  8
OBJECT
 10
2070.0
 20
-261.99999999999909
 30
0.0
 11
2062.0
 21
-261.99999999999909
 31
0.0
1001
ACDBBLOCKREPETAG
1070
     1
1071
        8
1005
125166
  0
LINE
  5
125167
  8
OBJECT
 10
2062.0
 20
-269.99999999999909
 30
0.0
 11
2062.0
 21
-261.99999999999909
 31
0.0
1001
ACDBBLOCKREPETAG
1070
     1
1071
        9
1005
125167
  0
LINE
  5
125168
  8
CENTER
 10
1930.0
 20
-199.99999999999909
 30
0.0
 11
2070.0
 21
-199.99999999999909
 31
0.0
1001
ACDBBLOCKREPETAG
1070
     1
1071
       10
1005
125168
  0
LINE
  5
125169
  8
CENTER
 10
2000.0
 20
-269.99999999999909
 30
0.0
 11
2000.0
 21
-114.9999999999991
 31
0.0
1001
ACDBBLOCKREPETAG
1070
     1
1071
       11
1005
125169
  0
ARC
  5
12516A
  8
OBJECT
 10
1989.902762139187
 20
-224.44352901899131
 30
0.0
 40
7.0
 50
73.001272229706771
 51
154.05025878943769
1001
ACDBBLOCKREPETAG
1070
     1
1071
       12
1005
12516A
  0
ARC
  5
12516B
  8
OBJECT
 10
1986.8376610706509
 20
-225.5978773169509
 30
0.0
 40
9.0
 50
73.001272229706771
 51
154.05026392593041
1001
ACDBBLOCKREPETAG
1070
     1
1071
       13
1005
12516B
  0
ARC
  5
12516C
  8
OBJECT
 10
1896.3142301315529
 20
-147.28130031148149
 30
0.0
 40
150.0
 50
322.89503374001202
 51
325.8931499697137
1001
ACDBBLOCKREPETAG
1070
     1
1071
       14
1005
12516C
  0
ARC
  5
12516D
  8
OBJECT
 10
2000.0
 20
-199.99999999999909
 30
0.0
 40
37.5
 50
303.16276667667131
 51
229.1635024908278
1001
ACDBBLOCKREPETAG
1070
     1
1071
       15
1005
12516D
  0
LINE
  5
12516E
  8
OBJECT
 10
1983.608514518975
 20
-221.38045100897119
 30
0.0
 11
1977.3740110000001
 21
-234.1915870000002
 31
0.0
1001
ACDBBLOCKREPETAG
1070
     1
1071
       16
1005
12516E
  0
LINE
  5
12516F
  8
OBJECT
 10
1978.745056634463
 20
-221.65963488670511
 30
0.0
 11
1973.898671999998
 21
-231.6183599999996
 31
0.0
1001
ACDBBLOCKREPETAG
1070
     1
1071
       17
1005
12516F
  0
LINE
  5
125170
  8
OBJECT
 10
2018.938018000001
 20
-226.00000000000091
 30
0.0
 11
1989.468815303258
 21
-216.99107608744359
 31
0.0
1001
ACDBBLOCKREPETAG
1070
     1
1071
       18
1005
125170
  0
LINE
  5
125171
  8
OBJECT
 10
2020.5132253090051
 20
-231.39199878029191
 30
0.0
 11
2018.938018000001
 21
-226.00000000000091
 31
0.0
1001
ACDBBLOCKREPETAG
1070
     1
1071
       19
1005
125171
  0
LINE
  5
125172
  8
OBJECT
 10
1954.038059222873
 20
-245.96194077712471
 30
0.0
 11
1938.0
 21
-261.99999999999909
 31
0.0
1001
ACDBBLOCKREPETAG
1070
     1
1071
       42
1005
125172
  0
LINE
  5
125173
  8
OBJECT
 10
2045.9619407771261
 20
-245.96194077712471
 30
0.0
 11
2062.0
 21
-261.99999999999909
 31
0.0
1001
ACDBBLOCKREPETAG
1070
     1
1071
       43
1005
125173
  0
LINE
  5
125174
  8
OBJECT
 10
2073.0
 20
-533.99999999999955
 30
0.0
 11
2070.0
 21
-533.99999999999955
 31
0.0
1001
ACDBBLOCKREPETAG
1070
     1
1071
        1
1005
125174
  0
ARC
  5
125175
  8
OBJECT
 10
2073.0
 20
-536.99999999999955
 30
0.0
 40
3.0
 50
0.0
 51
90.0
1001
ACDBBLOCKREPETAG
1070
     1
1071
        2
1005
125175
  0
LINE
  5
125176
  8
OBJECT
 10
2070.0
 20
-657.99999999999955
 30
0.0
 11
2073.0
 21
-657.99999999999955
 31
0.0
1001
ACDBBLOCKREPETAG
1070
     1
1071
        3
1005
125176
  0
ARC
  5
125177
  8
OBJECT
 10
2073.0
 20
-654.99999999999966
 30
0.0
 40
3.0
 50
270.0
 51
0.0
1001
ACDBBLOCKREPETAG
1070
     1
1071
        4
1005
125177
  0
LINE
  5
125178
  8
OBJECT
 10
2076.0
 20
-654.99999999999966
 30
0.0
 11
2076.0
 21
-536.99999999999955
 31
0.0
1001
ACDBBLOCKREPETAG
1070
     1
1071
        5
1005
125178
  0
LINE
  5
125179
  8
CENTER
 10
2091.0
 20
-199.99999999999909
 30
0.0
 11
2070.0
 21
-199.99999999999909
 31
0.0
1001
ACDBBLOCKREPETAG
1070
     1
1071
        0
1005
125179
  0
LINE
  5
12517A
  8
OBJECT
 10
2073.0
 20
-137.99999999999909
 30
0.0
 11
2070.0
 21
-137.99999999999909
 31
0.0
1001
ACDBBLOCKREPETAG
1070
     1
1071
        1
1005
12517A
  0
ARC
  5
12517B
  8
OBJECT
 10
2073.0
 20
-140.99999999999909
 30
0.0
 40
3.0
 50
0.0
 51
90.0
1001
ACDBBLOCKREPETAG
1070
     1
1071
        2
1005
12517B
  0
LINE
  5
12517C
  8
OBJECT
 10
2070.0
 20
-261.99999999999909
 30
0.0
 11
2073.0
 21
-261.99999999999909
 31
0.0
1001
ACDBBLOCKREPETAG
1070
     1
1071
        3
1005
12517C
  0
ARC
  5
12517D
  8
OBJECT
 10
2073.0
 20
-258.99999999999909
 30
0.0
 40
3.0
 50
270.0
 51
0.0
1001
ACDBBLOCKREPETAG
1070
     1
1071
        4
1005
12517D
  0
LINE
  5
12517E
  8
OBJECT
 10
2076.0
 20
-258.99999999999909
 30
0.0
 11
2076.0
 21
-140.99999999999909
 31
0.0
1001
ACDBBLOCKREPETAG
1070
     1
1071
        5
1005
12517E
  0
TEXT
  5
12517F
  8
SLIM
 10
0.0
 20
670.0
 30
0.0
 40
100.0
  1
3SL-0-S+80
 41
0.75
  0
TEXT
  5
125180
  8
SLIM
 10
0.0
 20
520.0
 30
0.0
 40
100.0
  1
3SL-0-W+80
 41
0.75
  0
TEXT
  5
125181
  8
SLIM
 10
3853.75
 20
-1601.4999999999959
 30
0.0
 40
35.0
  1
両受けスタイル（W）
 41
0.75
  0
TEXT
  5
125182
  8
SLIM
 10
5811.8000000000002
 20
-1698.9999999999991
 30
0.0
 40
28.0
  1
※ 対応スラブ厚　150mm以上
 41
0.75
  0
TEXT
  5
125183
  8
SLIM
 10
5598.8999999999996
 20
-1792.333333333331
 30
0.0
 40
28.0
  1
国土交通大臣認定・（一財）日本消防設備安全センター性能評定取得品
 41
0.75
  0
TEXT
  5
125184
  8
SLIM
 10
5631.1000000000004
 20
-1838.9999999999991
 30
0.0
 40
28.0
  1
注）ご採用にあたり、認定書及び評定書の内容をご確認ください。
 41
0.75
  0
TEXT
  5
125185
  8
SLIM
 10
11824.6
 20
-1657.9999999999959
 30
0.0
 40
28.0
  1
※ 対応スラブ厚　150～340
 41
0.75
  0
TEXT
  5
125186
  8
SLIM
 10
11598.9
 20
-1751.3333333333289
 30
0.0
 40
28.0
  1
国土交通大臣認定・（一財）日本消防設備安全センター性能評定取得品
 41
0.75
  0
TEXT
  5
125187
  8
SLIM
 10
11631.1
 20
-1797.9999999999959
 30
0.0
 40
28.0
  1
注）ご採用にあたり、認定書及び評定書の内容をご確認ください。
 41
0.75
  0
TEXT
  5
125188
  8
SLIM
 10
9824.6000000000004
 20
-1657.9999999999959
 30
0.0
 40
28.0
  1
※ 対応スラブ厚　180～340
 41
0.75
  0
TEXT
  5
125189
  8
SLIM
 10
9598.8999999999996
 20
-1751.3333333333289
 30
0.0
 40
28.0
  1
国土交通大臣認定・（一財）日本消防設備安全センター性能評定取得品
 41
0.75
  0
TEXT
  5
12518A
  8
SLIM
 10
9631.1000000000004
 20
-1797.9999999999959
 30
0.0
 40
28.0
  1
注）ご採用にあたり、認定書及び評定書の内容をご確認ください。
 41
0.75
  0
TEXT
  5
12518B
  8
SLIM
 10
9739.1250000000018
 20
-1601.4999999999959
 30
0.0
 40
35.0
  1
両受けスタイル（W）＋シンドカット
 41
0.75
  0
TEXT
  5
12518C
  8
SLIM
 10
11743.5
 20
-1601.4999999999959
 30
0.0
 40
35.0
  1
カンペイ君（WKP）＋シンドカット
 41
0.75
  0
TEXT
  5
12518D
  8
SLIM
 10
7741.625
 20
-1327.499999999998
 30
0.0
 40
35.0
  1
片受けスタイル（S）＋シンドカット
 41
0.75
  0
TEXT
  5
12518E
  8
SLIM
 10
5858.1250000000009
 20
-1642.4999999999991
 30
0.0
 40
35.0
  1
カンペイ君（WKP）
 41
0.75
  0
TEXT
  5
12518F
  8
SLIM
 10
1856.25
 20
-1327.499999999998
 30
0.0
 40
35.0
  1
片受けスタイル（S）
 41
0.75
  0
TEXT
  5
125190
  8
SLIM
 10
0.0
 20
370.0
 30
0.0
 40
100.0
  1
3SL-0-WKP+80
 41
0.75
  0
VIEWPORT
  5
F6BA7
 67
     1
  8
0
 10
183.4461341219413
 20
101.8328354358673
 30
0.0
 40
410.23409513651683
 41
222.19657968139651
 68
     1
 69
     1
1001
ACAD
1000
MVIEW
1002
{
1070
    16
1010
0.0
1020
0.0
1030
0.0
1010
0.0
1020
0.0
1030
1.0
1040
0.0
1040
222.19657968139651
1040
183.4461341219413
1040
101.8328354358673
1040
50.0
1040
0.0
1040
0.0
1070
     0
1070
     0
1070
     1
1070
     1
1070
     0
1070
     0
1070
     0
1070
     0
1040
0.0
1040
0.0
1040
0.0
1040
10.0
1040
10.0
1040
10.0
1040
10.0
1070
     0
1002
{
1002
}
1002
}
  0
VIEWPORT
  5
F6BA9
 67
     1
  8
OBJECT
 10
145.3303314447403
 20
101.8328338861465
 30
0.0
 40
232.5285303115844
 41
162.93253421783439
 68
     2
 69
     2
1001
ACAD
1000
MVIEW
1002
{
1070
    16
1010
0.0
1020
0.0
1030
0.0
1010
0.0
1020
0.0
1030
1.0
1040
0.0
1040
25942.55904403147
1040
2377.604457077377
1040
-7591.5176687056619
1040
50.0
1040
0.0
1040
0.0
1070
     0
1070
   600
1070
     1
1070
     1
1070
     0
1070
     0
1070
     0
1070
     0
1040
0.0
1040
0.0
1040
0.0
1040
1.0
1040
1.0
1040
0.0
1040
0.0
1070
     0
1002
{
1002
}
1002
}
  0
ENDSEC
  0
EOF
