  0
SECTION
  2
HEADER
  9
$ACADVER
  1
AC1009
  9
$INSBASE
 10
0.0
 20
0.0
 30
0.0
  9
$EXTMIN
 10
-0.0000000000000089
 20
-3697.4999999999968
 30
0.0
  9
$EXTMAX
 10
12399.70000000001
 20
767.19448474768467
 30
0.0
  9
$LIMMIN
 10
0.0
 20
0.0
  9
$LIMMAX
 10
210.0
 20
297.0
  9
$ORTHOMODE
 70
     0
  9
$REGENMODE
 70
     1
  9
$FILLMODE
 70
     1
  9
$QTEXTMODE
 70
     0
  9
$MIRRTEXT
 70
     0
  9
$DRAGMODE
 70
     2
  9
$LTSCALE
 40
1.0
  9
$OSMODE
 70
  2429
  9
$ATTMODE
 70
     1
  9
$TEXTSIZE
 40
4.0
  9
$TRACEWID
 40
0.05
  9
$TEXTSTYLE
  7
STANDARD
  9
$CLAYER
  8
OBJECT
  9
$CELTYPE
  6
BYLAYER
  9
$CECOLOR
 62
   256
  9
$DIMSCALE
 40
10.0
  9
$DIMASZ
 40
2.0
  9
$DIMEXO
 40
1.0
  9
$DIMDLI
 40
10.0
  9
$DIMRND
 40
0.0
  9
$DIMDLE
 40
0.0
  9
$DIMEXE
 40
1.0
  9
$DIMTP
 40
0.0
  9
$DIMTM
 40
0.0
  9
$DIMTXT
 40
3.2000000000000002
  9
$DIMCEN
 40
0.0
  9
$DIMTSZ
 40
0.0
  9
$DIMTOL
 70
     0
  9
$DIMLIM
 70
     0
  9
$DIMTIH
 70
     0
  9
$DIMTOH
 70
     0
  9
$DIMSE1
 70
     0
  9
$DIMSE2
 70
     0
  9
$DIMTAD
 70
     1
  9
$DIMZIN
 70
     8
  9
$DIMBLK
  1
OPEN30
  9
$DIMASO
 70
     1
  9
$DIMSHO
 70
     1
  9
$DIMPOST
  1

  9
$DIMAPOST
  1

  9
$DIMALT
 70
     0
  9
$DIMALTD
 70
     2
  9
$DIMALTF
 40
25.399999999999999
  9
$DIMLFAC
 40
1.0
  9
$DIMTOFL
 70
     1
  9
$DIMTVP
 40
0.0
  9
$DIMTIX
 70
     0
  9
$DIMSOXD
 70
     0
  9
$DIMSAH
 70
     0
  9
$DIMBLK1
  1

  9
$DIMBLK2
  1

  9
$DIMSTYLE
  2
S10
  9
$DIMCLRD
 70
   256
  9
$DIMCLRE
 70
   256
  9
$DIMCLRT
 70
   256
  9
$DIMTFAC
 40
1.0
  9
$DIMGAP
 40
0.9
  9
$LUNITS
 70
     2
  9
$LUPREC
 70
     2
  9
$SKETCHINC
 40
0.1
  9
$FILLETRAD
 40
0.0
  9
$AUNITS
 70
     0
  9
$AUPREC
 70
     2
  9
$MENU
  1
ACAD
  9
$ELEVATION
 40
0.0
  9
$PELEVATION
 40
0.0
  9
$THICKNESS
 40
0.0
  9
$LIMCHECK
 70
     0
  9
$BLIPMODE
 70
     0
  9
$CHAMFERA
 40
2.0
  9
$CHAMFERB
 40
2.0
  9
$SKPOLY
 70
     0
  9
$TDCREATE
 40
2453095.4929404748
  9
$TDUPDATE
 40
2457233.6283417018
  9
$TDINDWG
 40
18.6665326852
  9
$TDUSRTIMER
 40
18.666532141200001
  9
$USRTIMER
 70
     1
  9
$ANGBASE
 50
0.0
  9
$ANGDIR
 70
     0
  9
$PDMODE
 70
    35
  9
$PDSIZE
 40
2.0
  9
$PLINEWID
 40
0.0
  9
$COORDS
 70
     0
  9
$SPLFRAME
 70
     0
  9
$SPLINETYPE
 70
     6
  9
$SPLINESEGS
 70
     8
  9
$ATTDIA
 70
     0
  9
$ATTREQ
 70
     1
  9
$HANDLING
 70
     1
  9
$HANDSEED
  5
12AE1A
  9
$SURFTAB1
 70
     6
  9
$SURFTAB2
 70
     6
  9
$SURFTYPE
 70
     6
  9
$SURFU
 70
     6
  9
$SURFV
 70
     6
  9
$UCSNAME
  2

  9
$UCSORG
 10
0.0
 20
0.0
 30
0.0
  9
$UCSXDIR
 10
1.0
 20
0.0
 30
0.0
  9
$UCSYDIR
 10
0.0
 20
1.0
 30
0.0
  9
$PUCSNAME
  2

  9
$PUCSORG
 10
0.0
 20
0.0
 30
0.0
  9
$PUCSXDIR
 10
1.0
 20
0.0
 30
0.0
  9
$PUCSYDIR
 10
0.0
 20
1.0
 30
0.0
  9
$USERI1
 70
     0
  9
$USERI2
 70
     0
  9
$USERI3
 70
     0
  9
$USERI4
 70
     0
  9
$USERI5
 70
     0
  9
$USERR1
 40
0.0
  9
$USERR2
 40
0.0
  9
$USERR3
 40
0.0
  9
$USERR4
 40
0.0
  9
$USERR5
 40
0.0
  9
$WORLDVIEW
 70
     1
  9
$SHADEDGE
 70
     3
  9
$SHADEDIF
 70
    70
  9
$TILEMODE
 70
     1
  9
$MAXACTVP
 70
    64
  9
$PLIMCHECK
 70
     0
  9
$PEXTMIN
 10
29.066066288948051
 20
20.366566777229309
 30
0.0
  9
$PEXTMAX
 10
261.5945966005325
 20
183.29910099506381
 30
0.0
  9
$PLIMMIN
 10
-3.17498779296875
 20
-3.1749999523162842
  9
$PLIMMAX
 10
293.83566284179687
 20
206.8406708240509
  9
$UNITMODE
 70
     0
  9
$VISRETAIN
 70
     1
  9
$PLINEGEN
 70
     0
  9
$PSLTSCALE
 70
     1
  0
ENDSEC
  0
SECTION
  2
TABLES
  0
TABLE
  2
VPORT
 70
     1
  0
VPORT
  2
*ACTIVE
 70
     0
 10
0.0
 20
0.0
 11
1.0
 21
1.0
 12
2608.489689442456
 22
-1134.520011657844
 13
0.0
 23
0.0
 14
1.0
 24
1.0
 15
0.0
 25
0.0
 16
0.0
 26
0.0
 36
1.0
 17
0.0
 27
0.0
 37
0.0
 40
9719.8985537134449
 41
1.6494178525226391
 42
50.0
 43
0.0
 44
0.0
 50
0.0
 51
0.0
 71
     0
 72
   600
 73
     1
 74
     1
 75
     0
 76
     0
 77
     0
 78
     0
  0
ENDTAB
  0
TABLE
  2
LTYPE
 70
     4
  0
LTYPE
  2
CONTINUOUS
 70
     0
  3
Solid line
 72
    65
 73
     0
 40
0.0
  0
LTYPE
  2
PHANTOM2
 70
     0
  3
___ _ _ ___ _ _ ___ _ _ ___ _ _
 72
    65
 73
     6
 40
1.25
 49
0.625
 49
-0.125
 49
0.125
 49
-0.125
 49
0.125
 49
-0.125
  0
LTYPE
  2
ACAD_ISO08W100
 70
     0
  3
ISO long-dash short-dash ____ __ ____ __ ____ _
 72
    65
 73
     4
 40
36.0
 49
24.0
 49
-3.0
 49
6.0
 49
-3.0
  0
LTYPE
  2
ACAD_ISO02W100
 70
     0
  3
ISO dash __ __ __ __ __ __ __ __ __ __ __ __ __
 72
    65
 73
     2
 40
15.0
 49
12.0
 49
-3.0
  0
ENDTAB
  0
TABLE
  2
LAYER
 70
     8
  0
LAYER
  2
0
 70
     0
 62
     7
  6
CONTINUOUS
  0
LAYER
  2
OBJECT
 70
     0
 62
     4
  6
CONTINUOUS
  0
LAYER
  2
DEFPOINTS
 70
     0
 62
     7
  6
CONTINUOUS
  0
LAYER
  2
DIM
 70
     0
 62
     7
  6
CONTINUOUS
  0
LAYER
  2
HIDDEN
 70
     0
 62
     2
  6
ACAD_ISO02W100
  0
LAYER
  2
CENTER
 70
     0
 62
     2
  6
ACAD_ISO08W100
  0
LAYER
  2
DOTS
 70
     0
 62
     1
  6
CONTINUOUS
  0
LAYER
  2
SLIM
 70
     0
 62
     2
  6
CONTINUOUS
  0
ENDTAB
  0
TABLE
  2
STYLE
 70
     2
  0
STYLE
  2
STANDARD
 70
     0
 40
0.0
 41
0.75
 50
0.0
 71
     0
 42
4.0
  3
simplex.shx
  4
bigfont.shx
  0
ENDTAB
  0
TABLE
  2
VIEW
 70
     0
  0
ENDTAB
  0
TABLE
  2
UCS
 70
     0
  0
ENDTAB
  0
TABLE
  2
APPID
 70
    18
  0
APPID
  2
ACAD
 70
     0
  0
APPID
  2
ACADANNOTATIVE
 70
     0
  0
APPID
  2
ACAD_PSEXT
 70
     0
  0
APPID
  2
ACAD_EXEMPT_FROM_CAD_STANDARDS
 70
     0
  0
APPID
  2
ACAECLAYERSTANDARD
 70
     0
  0
APPID
  2
ACAUTHENVIRON
 70
     0
  0
APPID
  2
ACDBDYNAMICBLOCKTRUENAME
 70
     0
  0
APPID
  2
ACDBDYNAMICBLOCKGUID
 70
     0
  0
APPID
  2
ACDBBLOCKREPETAG
 70
     0
  0
APPID
  2
ACDBBLOCKREPBTAG
 70
     0
  0
APPID
  2
ACAD_NAV_VCDISPLAY
 70
     0
  0
APPID
  2
ACAD_DSTYLE_DIMRADIAL_EXTENSION
 70
     0
  0
APPID
  2
ACAD_DSTYLE_DIMJAG
 70
     0
  0
APPID
  2
ACAD_DSTYLE_DIMTALN
 70
     0
  0
APPID
  2
ACADANNOPO
 70
     0
  0
APPID
  2
GRADIENTCOLOR1ACI
 70
     0
  0
APPID
  2
GRADIENTCOLOR2ACI
 70
     0
  0
APPID
  2
ACAD_MLEADERVER
 70
     0
  0
ENDTAB
  0
TABLE
  2
DIMSTYLE
 70
     3
  0
DIMSTYLE
  2
STANDARD
 70
     0
  3

  4

  5

  6

  7

 40
1.0
 41
0.18
 42
0.0625
 43
0.38
 44
0.18
 45
0.0
 46
0.0
 47
0.0
 48
0.0
140
0.18
141
0.09
142
0.0
143
25.399999999999999
144
1.0
145
0.0
146
1.0
147
0.09
 71
     0
 72
     0
 73
     1
 74
     1
 75
     0
 76
     0
 77
     0
 78
     0
170
     0
171
     2
172
     0
173
     0
174
     0
175
     0
176
     0
177
     0
178
     0
  0
DIMSTYLE
  2
S10
 70
     0
  3

  4

  5

  6

  7

 40
10.0
 41
2.0
 42
1.0
 43
10.0
 44
1.0
 45
0.0
 46
0.0
 47
0.0
 48
0.0
140
3.2000000000000002
141
0.0
142
0.0
143
25.399999999999999
144
1.0
145
0.0
146
1.0
147
0.9
 71
     0
 72
     0
 73
     0
 74
     0
 75
     0
 76
     0
 77
     1
 78
     8
170
     0
171
     2
172
     1
173
     0
174
     0
175
     0
176
   256
177
   256
178
   256
  0
ENDTAB
  0
ENDSEC
  0
SECTION
  2
BLOCKS
  0
BLOCK
  8
0
  2
$MODEL_SPACE
 70
     0
 10
0.0
 20
0.0
 30
0.0
  3
$MODEL_SPACE
  1

  0
ENDBLK
  5
12AD1E
  8
0
  0
BLOCK
 67
     1
  8
0
  2
$PAPER_SPACE
 70
     0
 10
0.0
 20
0.0
 30
0.0
  3
$PAPER_SPACE
  1

  0
ENDBLK
  5
12AD1A
 67
     1
  8
0
  0
BLOCK
  8
0
  2
_OPEN30
 70
     0
 10
0.0
 20
0.0
 30
0.0
  3
_OPEN30
  1

  0
LINE
  5
202
  8
0
  6
BYBLOCK
 62
     0
 10
-1.0
 20
0.26794919
 30
0.0
 11
0.0
 21
0.0
 31
0.0
  0
LINE
  5
203
  8
0
  6
BYBLOCK
 62
     0
 10
0.0
 20
0.0
 30
0.0
 11
-1.0
 21
-0.26794919
 31
0.0
  0
LINE
  5
204
  8
0
  6
BYBLOCK
 62
     0
 10
0.0
 20
0.0
 30
0.0
 11
-1.0
 21
0.0
 31
0.0
  0
ENDBLK
  5
206
  8
0
  0
BLOCK
  8
0
  2
*U3
 70
     1
 10
0.0
 20
0.0
 30
0.0
  3
*U3
  1

  0
TEXT
  5
12AC27
  8
DIM
 10
2199.479620594459
 20
-3184.1428571428528
 30
0.0
 40
32.0
  1
A
 50
90.0
 41
0.75
  0
ENDBLK
  5
12AC29
  8
0
  0
BLOCK
  8
0
  2
*U4
 70
     1
 10
0.0
 20
0.0
 30
0.0
  3
*U4
  1

  0
TEXT
  5
12AC2B
  8
DIM
 10
2197.840928403733
 20
-3565.9999999999959
 30
0.0
 40
32.0
  1
B
 50
90.0
 41
0.75
  0
ENDBLK
  5
12AC2D
  8
0
  0
BLOCK
  8
0
  2
*U5
 70
     1
 10
0.0
 20
0.0
 30
0.0
  3
*U5
  1

  0
TEXT
  5
12AC2F
  8
DIM
 10
2056.4285714285711
 20
-3048.2081219844449
 30
0.0
 40
32.0
  1
C
 41
0.75
  0
ENDBLK
  5
12AC31
  8
0
  0
BLOCK
  8
0
  2
*U6
 70
     1
 10
0.0
 20
0.0
 30
0.0
  3
*U6
  1

  0
TEXT
  5
12AC33
  8
SLIM
 10
154.95238095238091
 20
-778.00000000000011
 30
0.0
 40
26.0
  1
65
  0
ENDBLK
  5
12AC35
  8
0
  0
BLOCK
  8
0
  2
*U7
 70
     1
 10
0.0
 20
0.0
 30
0.0
  3
*U7
  1

  0
TEXT
  5
12AC37
  8
SLIM
 10
154.95238095238091
 20
-567.99999999999841
 30
0.0
 40
26.0
  1
65
  0
ENDBLK
  5
12AC39
  8
0
  0
BLOCK
  8
0
  2
*U8
 70
     1
 10
0.0
 20
0.0
 30
0.0
  3
*U8
  1

  0
TEXT
  5
12AC3B
  8
SLIM
 10
514.95238095238085
 20
-314.0
 30
0.0
 40
26.0
  1
65
  0
ENDBLK
  5
12AC3D
  8
0
  0
BLOCK
  8
0
  2
*U9
 70
     1
 10
0.0
 20
0.0
 30
0.0
  3
*U9
  1

  0
TEXT
  5
12AC3F
  8
SLIM
 10
514.95238095238085
 20
-103.9999999999982
 30
0.0
 40
26.0
  1
50
  0
ENDBLK
  5
12AC41
  8
0
  0
BLOCK
  8
0
  2
*U10
 70
     1
 10
0.0
 20
0.0
 30
0.0
  3
*U10
  1

  0
TEXT
  5
12AC43
  8
SLIM
 10
154.95238095238091
 20
-314.0
 30
0.0
 40
26.0
  1
50
  0
ENDBLK
  5
12AC45
  8
0
  0
BLOCK
  8
0
  2
*U11
 70
     1
 10
0.0
 20
0.0
 30
0.0
  3
*U11
  1

  0
TEXT
  5
12AC47
  8
SLIM
 10
154.95238095238091
 20
-103.9999999999982
 30
0.0
 40
26.0
  1
50
  0
ENDBLK
  5
12AC49
  8
0
  0
ENDSEC
  0
SECTION
  2
ENTITIES
  0
LINE
  5
12973A
  8
OBJECT
 10
1825.0
 20
-3579.9999999999959
 30
0.0
 11
3575.0
 21
-3579.9999999999959
 31
0.0
  0
LINE
  5
12973C
  8
SLIM
 10
2616.0
 20
-2637.50001604727
 30
0.0
 11
2616.0
 21
-2967.50001604727
 31
0.0
  0
LINE
  5
12973D
  8
SLIM
 10
2740.0
 20
-2637.50001604727
 30
0.0
 11
2740.0
 21
-2967.50001604727
 31
0.0
  0
LINE
  5
12973E
  8
SLIM
 10
2870.0
 20
-2697.50001604727
 30
0.0
 11
2870.0
 21
-2967.50001604727
 31
0.0
  0
LINE
  5
12973F
  8
SLIM
 10
3000.0
 20
-2637.50001604727
 30
0.0
 11
3000.0
 21
-2967.50001604727
 31
0.0
  0
LINE
  5
129740
  8
SLIM
 10
3000.0
 20
-2637.50001604727
 30
0.0
 11
2616.0
 21
-2637.50001604727
 31
0.0
  0
LINE
  5
129741
  8
SLIM
 10
3000.0
 20
-2697.50001604727
 30
0.0
 11
2740.0
 21
-2697.50001604727
 31
0.0
  0
LINE
  5
129742
  8
SLIM
 10
3000.0
 20
-2757.50001604727
 30
0.0
 11
2616.0
 21
-2757.50001604727
 31
0.0
  0
LINE
  5
129743
  8
SLIM
 10
3000.0
 20
-2827.50001604727
 30
0.0
 11
2616.0
 21
-2827.50001604727
 31
0.0
  0
LINE
  5
129744
  8
SLIM
 10
3000.0
 20
-2897.50001604727
 30
0.0
 11
2616.0
 21
-2897.50001604727
 31
0.0
  0
LINE
  5
129745
  8
SLIM
 10
3000.0
 20
-2967.50001604727
 30
0.0
 11
2616.0
 21
-2967.50001604727
 31
0.0
  0
LINE
  5
129752
  8
SLIM
 10
2740.0
 20
-2757.50001604727
 30
0.0
 11
2615.9999722746579
 21
-2637.5
 31
0.0
  0
LINE
  5
12A53A
  8
CENTER
 10
2909.0
 20
-3174.9999999999959
 30
0.0
 11
2930.0
 21
-3174.9999999999959
 31
0.0
1001
ACDBBLOCKREPETAG
1070
     1
1071
        0
1005
12A53A
  0
LINE
  5
12A53B
  8
OBJECT
 10
2926.9999999999991
 20
-3236.9999999999959
 30
0.0
 11
2930.0
 21
-3236.9999999999959
 31
0.0
1001
ACDBBLOCKREPETAG
1070
     1
1071
        1
1005
12A53B
  0
ARC
  5
12A53C
  8
OBJECT
 10
2926.9999999999991
 20
-3233.9999999999959
 30
0.0
 40
3.0
 50
180.0
 51
270.0
1001
ACDBBLOCKREPETAG
1070
     1
1071
        2
1005
12A53C
  0
LINE
  5
12A53D
  8
OBJECT
 10
2930.0
 20
-3112.9999999999959
 30
0.0
 11
2926.9999999999991
 21
-3112.9999999999959
 31
0.0
1001
ACDBBLOCKREPETAG
1070
     1
1071
        3
1005
12A53D
  0
ARC
  5
12A53E
  8
OBJECT
 10
2926.9999999999991
 20
-3115.9999999999959
 30
0.0
 40
3.0
 50
90.0
 51
180.0
1001
ACDBBLOCKREPETAG
1070
     1
1071
        4
1005
12A53E
  0
LINE
  5
12A53F
  8
OBJECT
 10
2923.9999999999991
 20
-3115.9999999999959
 30
0.0
 11
2923.9999999999991
 21
-3233.9999999999959
 31
0.0
1001
ACDBBLOCKREPETAG
1070
     1
1071
        5
1005
12A53F
  0
LINE
  5
12A540
  8
CENTER
 10
3000.0
 20
-3265.9999999999959
 30
0.0
 11
3000.0
 21
-3244.9999999999959
 31
0.0
1001
ACDBBLOCKREPETAG
1070
     1
1071
        0
1005
12A540
  0
LINE
  5
12A541
  8
OBJECT
 10
3062.0
 20
-3247.9999999999968
 30
0.0
 11
3062.0
 21
-3244.9999999999959
 31
0.0
1001
ACDBBLOCKREPETAG
1070
     1
1071
        1
1005
12A541
  0
ARC
  5
12A542
  8
OBJECT
 10
3059.0
 20
-3247.9999999999968
 30
0.0
 40
3.0
 50
270.0
 51
0.0
1001
ACDBBLOCKREPETAG
1070
     1
1071
        2
1005
12A542
  0
LINE
  5
12A543
  8
OBJECT
 10
2938.0
 20
-3244.9999999999959
 30
0.0
 11
2938.0
 21
-3247.999999999995
 31
0.0
1001
ACDBBLOCKREPETAG
1070
     1
1071
        3
1005
12A543
  0
ARC
  5
12A544
  8
OBJECT
 10
2941.0
 20
-3247.999999999995
 30
0.0
 40
3.0
 50
180.0
 51
270.0
1001
ACDBBLOCKREPETAG
1070
     1
1071
        4
1005
12A544
  0
LINE
  5
12A545
  8
OBJECT
 10
2941.0
 20
-3250.999999999995
 30
0.0
 11
3059.0
 21
-3250.9999999999968
 31
0.0
1001
ACDBBLOCKREPETAG
1070
     1
1071
        5
1005
12A545
  0
POINT
  5
12A546
  8
DOTS
 10
3000.0
 20
-3174.9999999999959
 30
0.0
 50
270.0
1001
ACDBBLOCKREPETAG
1070
     1
1071
      153
1005
12A546
  0
ARC
  5
12A547
  8
OBJECT
 10
3000.0
 20
-3174.9999999999959
 30
0.0
 40
70.0
 50
62.339550100752639
 51
117.6604498992473
1001
ACDBBLOCKREPETAG
1070
     1
1071
        0
1005
12A547
  0
CIRCLE
  5
12A548
  8
OBJECT
 10
3000.0
 20
-3174.9999999999959
 30
0.0
 40
65.0
1001
ACDBBLOCKREPETAG
1070
     1
1071
        1
1005
12A548
  0
CIRCLE
  5
12A549
  8
OBJECT
 10
3000.0
 20
-3174.9999999999959
 30
0.0
 40
41.0
1001
ACDBBLOCKREPETAG
1070
     1
1071
        2
1005
12A549
  0
CIRCLE
  5
12A54A
  8
OBJECT
 10
3000.0
 20
-3174.9999999999959
 30
0.0
 40
58.0
1001
ACDBBLOCKREPETAG
1070
     1
1071
        3
1005
12A54A
  0
LINE
  5
12A54B
  8
OBJECT
 10
3070.0
 20
-3112.9999999999959
 30
0.0
 11
3019.5192212959432
 21
-3112.9999999999959
 31
0.0
1001
ACDBBLOCKREPETAG
1070
     1
1071
        4
1005
12A54B
  0
LINE
  5
12A54C
  8
OBJECT
 10
2930.0
 20
-3112.9999999999959
 30
0.0
 11
2980.4807787040559
 21
-3112.9999999999959
 31
0.0
1001
ACDBBLOCKREPETAG
1070
     1
1071
        5
1005
12A54C
  0
LINE
  5
12A54D
  8
OBJECT
 10
2930.0
 20
-3236.9999999999959
 30
0.0
 11
2938.0
 21
-3236.9999999999959
 31
0.0
1001
ACDBBLOCKREPETAG
1070
     1
1071
        6
1005
12A54D
  0
LINE
  5
12A54E
  8
OBJECT
 10
2938.0
 20
-3244.9999999999959
 30
0.0
 11
2938.0
 21
-3236.9999999999959
 31
0.0
1001
ACDBBLOCKREPETAG
1070
     1
1071
        7
1005
12A54E
  0
LINE
  5
12A54F
  8
OBJECT
 10
3070.0
 20
-3236.9999999999959
 30
0.0
 11
3062.0
 21
-3236.9999999999959
 31
0.0
1001
ACDBBLOCKREPETAG
1070
     1
1071
        8
1005
12A54F
  0
LINE
  5
12A550
  8
OBJECT
 10
3062.0
 20
-3244.9999999999959
 30
0.0
 11
3062.0
 21
-3236.9999999999959
 31
0.0
1001
ACDBBLOCKREPETAG
1070
     1
1071
        9
1005
12A550
  0
LINE
  5
12A551
  8
CENTER
 10
2930.0
 20
-3174.9999999999959
 30
0.0
 11
3070.0
 21
-3174.9999999999959
 31
0.0
1001
ACDBBLOCKREPETAG
1070
     1
1071
       10
1005
12A551
  0
LINE
  5
12A552
  8
CENTER
 10
3000.0
 20
-3244.9999999999959
 30
0.0
 11
3000.0
 21
-3089.9999999999959
 31
0.0
1001
ACDBBLOCKREPETAG
1070
     1
1071
       11
1005
12A552
  0
ARC
  5
12A553
  8
OBJECT
 10
2989.902762139187
 20
-3199.4435290189881
 30
0.0
 40
7.0
 50
73.001272229716378
 51
154.050258789439
1001
ACDBBLOCKREPETAG
1070
     1
1071
       12
1005
12A553
  0
ARC
  5
12A554
  8
OBJECT
 10
2986.8376610706518
 20
-3200.5978773169481
 30
0.0
 40
9.0
 50
73.001272229716378
 51
154.05026392593041
1001
ACDBBLOCKREPETAG
1070
     1
1071
       13
1005
12A554
  0
ARC
  5
12A555
  8
OBJECT
 10
2896.3142301315529
 20
-3122.2813003114779
 30
0.0
 40
150.0
 50
322.89503374001322
 51
325.89314996972462
1001
ACDBBLOCKREPETAG
1070
     1
1071
       14
1005
12A555
  0
ARC
  5
12A556
  8
OBJECT
 10
3000.0
 20
-3174.9999999999959
 30
0.0
 40
37.5
 50
303.16276667668131
 51
229.16350249082569
1001
ACDBBLOCKREPETAG
1070
     1
1071
       15
1005
12A556
  0
LINE
  5
12A557
  8
OBJECT
 10
2983.6085145189759
 20
-3196.3804510089681
 30
0.0
 11
2977.3740109999999
 21
-3209.191586999998
 31
0.0
1001
ACDBBLOCKREPETAG
1070
     1
1071
       16
1005
12A557
  0
LINE
  5
12A558
  8
OBJECT
 10
2978.7450566344628
 20
-3196.6596348867029
 30
0.0
 11
2973.8986719999989
 21
-3206.6183599999972
 31
0.0
1001
ACDBBLOCKREPETAG
1070
     1
1071
       17
1005
12A558
  0
LINE
  5
12A559
  8
OBJECT
 10
3018.9380179999998
 20
-3200.9999999999991
 30
0.0
 11
2989.468815303258
 21
-3191.9910760874409
 31
0.0
1001
ACDBBLOCKREPETAG
1070
     1
1071
       18
1005
12A559
  0
LINE
  5
12A55A
  8
OBJECT
 10
3020.5132253090051
 20
-3206.3919987802892
 30
0.0
 11
3018.9380179999998
 21
-3200.9999999999991
 31
0.0
1001
ACDBBLOCKREPETAG
1070
     1
1071
       19
1005
12A55A
  0
LINE
  5
12A55B
  8
OBJECT
 10
2954.0380592228739
 20
-3220.9619407771211
 30
0.0
 11
2938.0
 21
-3236.9999999999959
 31
0.0
1001
ACDBBLOCKREPETAG
1070
     1
1071
       42
1005
12A55B
  0
LINE
  5
12A55C
  8
OBJECT
 10
3045.9619407771261
 20
-3220.9619407771211
 30
0.0
 11
3062.0
 21
-3236.9999999999959
 31
0.0
1001
ACDBBLOCKREPETAG
1070
     1
1071
       43
1005
12A55C
  0
LINE
  5
12A55D
  8
OBJECT
 10
3123.0
 20
-3119.9999999999959
 30
0.0
 11
3130.0
 21
-3119.9999999999959
 31
0.0
1001
ACDBBLOCKREPETAG
1070
     1
1071
       27
1005
12A55D
  0
LINE
  5
12A55E
  8
OBJECT
 10
3130.0
 20
-3119.9999999999959
 30
0.0
 11
3130.0
 21
-3229.9999999999959
 31
0.0
1001
ACDBBLOCKREPETAG
1070
     1
1071
       28
1005
12A55E
  0
LINE
  5
12A55F
  8
OBJECT
 10
3130.0
 20
-3229.9999999999959
 30
0.0
 11
3123.0
 21
-3229.9999999999959
 31
0.0
1001
ACDBBLOCKREPETAG
1070
     1
1071
       29
1005
12A55F
  0
LINE
  5
12A560
  8
OBJECT
 10
3123.0
 20
-3229.9999999999959
 30
0.0
 11
3123.0
 21
-3119.9999999999959
 31
0.0
1001
ACDBBLOCKREPETAG
1070
     1
1071
       30
1005
12A560
  0
LINE
  5
12A561
  8
CENTER
 10
3145.0
 20
-3174.9999999999959
 30
0.0
 11
3070.0
 21
-3174.9999999999959
 31
0.0
1001
ACDBBLOCKREPETAG
1070
     1
1071
       31
1005
12A561
  0
LINE
  5
12A562
  8
OBJECT
 10
3123.0
 20
-3122.9999999999959
 30
0.0
 11
3087.0
 21
-3122.9999999999959
 31
0.0
1001
ACDBBLOCKREPETAG
1070
     1
1071
       32
1005
12A562
  0
LINE
  5
12A563
  8
OBJECT
 10
3087.0
 20
-3122.9999999999959
 30
0.0
 11
3087.0
 21
-3226.9999999999959
 31
0.0
1001
ACDBBLOCKREPETAG
1070
     1
1071
       33
1005
12A563
  0
LINE
  5
12A564
  8
OBJECT
 10
3087.0
 20
-3226.9999999999959
 30
0.0
 11
3123.0
 21
-3226.9999999999959
 31
0.0
1001
ACDBBLOCKREPETAG
1070
     1
1071
       34
1005
12A564
  0
LINE
  5
12A565
  8
OBJECT
 10
3083.0
 20
-3127.4999999999959
 30
0.0
 11
3076.0
 21
-3127.4999999999959
 31
0.0
1001
ACDBBLOCKREPETAG
1070
     1
1071
       35
1005
12A565
  0
LINE
  5
12A566
  8
OBJECT
 10
3076.0
 20
-3222.4999999999959
 30
0.0
 11
3083.0
 21
-3222.4999999999959
 31
0.0
1001
ACDBBLOCKREPETAG
1070
     1
1071
       36
1005
12A566
  0
LINE
  5
12A567
  8
OBJECT
 10
3083.0
 20
-3222.4999999999959
 30
0.0
 11
3083.0
 21
-3127.4999999999959
 31
0.0
1001
ACDBBLOCKREPETAG
1070
     1
1071
       37
1005
12A567
  0
LINE
  5
12A568
  8
OBJECT
 10
3087.0
 20
-3122.9999999999959
 30
0.0
 11
3083.0
 21
-3127.4999999999959
 31
0.0
1001
ACDBBLOCKREPETAG
1070
     1
1071
       38
1005
12A568
  0
LINE
  5
12A569
  8
OBJECT
 10
3087.0
 20
-3226.9999999999959
 30
0.0
 11
3083.0
 21
-3222.4999999999959
 31
0.0
1001
ACDBBLOCKREPETAG
1070
     1
1071
       39
1005
12A569
  0
LINE
  5
12A56A
  8
OBJECT
 10
3073.0
 20
-3112.9999999999959
 30
0.0
 11
3070.0
 21
-3112.9999999999959
 31
0.0
1001
ACDBBLOCKREPETAG
1070
     1
1071
       40
1005
12A56A
  0
ARC
  5
12A56B
  8
OBJECT
 10
3073.0
 20
-3115.9999999999959
 30
0.0
 40
3.0
 50
0.0
 51
90.0
1001
ACDBBLOCKREPETAG
1070
     1
1071
       41
1005
12A56B
  0
LINE
  5
12A56C
  8
OBJECT
 10
3070.0
 20
-3236.9999999999959
 30
0.0
 11
3073.0
 21
-3236.9999999999959
 31
0.0
1001
ACDBBLOCKREPETAG
1070
     1
1071
       42
1005
12A56C
  0
ARC
  5
12A56D
  8
OBJECT
 10
3073.0
 20
-3233.9999999999959
 30
0.0
 40
3.0
 50
270.0
 51
0.0
1001
ACDBBLOCKREPETAG
1070
     1
1071
       43
1005
12A56D
  0
LINE
  5
12A56E
  8
OBJECT
 10
3076.0
 20
-3233.9999999999959
 30
0.0
 11
3076.0
 21
-3115.9999999999959
 31
0.0
1001
ACDBBLOCKREPETAG
1070
     1
1071
       44
1005
12A56E
  0
LINE
  5
12A56F
  8
HIDDEN
 10
3078.0
 20
-3136.9999999999959
 30
0.0
 11
3078.0
 21
-3212.9999999999959
 31
0.0
1001
ACDBBLOCKREPETAG
1070
     1
1071
       45
1005
12A56F
  0
LINE
  5
12A570
  8
CENTER
 10
1908.9999999999991
 20
-3174.9999999999959
 30
0.0
 11
1929.9999999999991
 21
-3174.9999999999959
 31
0.0
1001
ACDBBLOCKREPETAG
1070
     1
1071
        0
1005
12A570
  0
LINE
  5
12A571
  8
OBJECT
 10
1926.9999999999991
 20
-3236.9999999999959
 30
0.0
 11
1929.9999999999991
 21
-3236.9999999999959
 31
0.0
1001
ACDBBLOCKREPETAG
1070
     1
1071
        1
1005
12A571
  0
ARC
  5
12A572
  8
OBJECT
 10
1926.9999999999991
 20
-3233.9999999999959
 30
0.0
 40
3.0
 50
180.0
 51
270.0
1001
ACDBBLOCKREPETAG
1070
     1
1071
        2
1005
12A572
  0
LINE
  5
12A573
  8
OBJECT
 10
1929.9999999999991
 20
-3112.9999999999959
 30
0.0
 11
1926.9999999999991
 21
-3112.9999999999959
 31
0.0
1001
ACDBBLOCKREPETAG
1070
     1
1071
        3
1005
12A573
  0
ARC
  5
12A574
  8
OBJECT
 10
1926.9999999999991
 20
-3115.9999999999959
 30
0.0
 40
3.0
 50
90.0
 51
180.0
1001
ACDBBLOCKREPETAG
1070
     1
1071
        4
1005
12A574
  0
LINE
  5
12A575
  8
OBJECT
 10
1923.9999999999991
 20
-3115.9999999999959
 30
0.0
 11
1923.9999999999991
 21
-3233.9999999999959
 31
0.0
1001
ACDBBLOCKREPETAG
1070
     1
1071
        5
1005
12A575
  0
LINE
  5
12A576
  8
CENTER
 10
2000.0
 20
-3265.9999999999959
 30
0.0
 11
2000.0
 21
-3244.9999999999959
 31
0.0
1001
ACDBBLOCKREPETAG
1070
     1
1071
        0
1005
12A576
  0
LINE
  5
12A577
  8
OBJECT
 10
2062.0
 20
-3247.9999999999968
 30
0.0
 11
2062.0
 21
-3244.9999999999959
 31
0.0
1001
ACDBBLOCKREPETAG
1070
     1
1071
        1
1005
12A577
  0
ARC
  5
12A578
  8
OBJECT
 10
2059.0
 20
-3247.9999999999968
 30
0.0
 40
3.0
 50
270.0
 51
0.0
1001
ACDBBLOCKREPETAG
1070
     1
1071
        2
1005
12A578
  0
LINE
  5
12A579
  8
OBJECT
 10
1937.9999999999991
 20
-3244.9999999999959
 30
0.0
 11
1937.9999999999991
 21
-3247.999999999995
 31
0.0
1001
ACDBBLOCKREPETAG
1070
     1
1071
        3
1005
12A579
  0
ARC
  5
12A57A
  8
OBJECT
 10
1941.0
 20
-3247.999999999995
 30
0.0
 40
3.0
 50
180.0
 51
270.0
1001
ACDBBLOCKREPETAG
1070
     1
1071
        4
1005
12A57A
  0
LINE
  5
12A57B
  8
OBJECT
 10
1941.0
 20
-3250.999999999995
 30
0.0
 11
2059.0
 21
-3250.9999999999968
 31
0.0
1001
ACDBBLOCKREPETAG
1070
     1
1071
        5
1005
12A57B
  0
POINT
  5
12A57C
  8
DOTS
 10
2000.0
 20
-3174.9999999999959
 30
0.0
 50
270.0
1001
ACDBBLOCKREPETAG
1070
     1
1071
      153
1005
12A57C
  0
ARC
  5
12A57D
  8
OBJECT
 10
2000.0
 20
-3174.9999999999959
 30
0.0
 40
70.0
 50
62.339550100752639
 51
117.6604498992473
1001
ACDBBLOCKREPETAG
1070
     1
1071
        0
1005
12A57D
  0
CIRCLE
  5
12A57E
  8
OBJECT
 10
2000.0
 20
-3174.9999999999959
 30
0.0
 40
65.0
1001
ACDBBLOCKREPETAG
1070
     1
1071
        1
1005
12A57E
  0
CIRCLE
  5
12A57F
  8
OBJECT
 10
2000.0
 20
-3174.9999999999959
 30
0.0
 40
41.0
1001
ACDBBLOCKREPETAG
1070
     1
1071
        2
1005
12A57F
  0
CIRCLE
  5
12A580
  8
OBJECT
 10
2000.0
 20
-3174.9999999999959
 30
0.0
 40
58.0
1001
ACDBBLOCKREPETAG
1070
     1
1071
        3
1005
12A580
  0
LINE
  5
12A581
  8
OBJECT
 10
2070.0
 20
-3112.9999999999959
 30
0.0
 11
2019.519221295943
 21
-3112.9999999999959
 31
0.0
1001
ACDBBLOCKREPETAG
1070
     1
1071
        4
1005
12A581
  0
LINE
  5
12A582
  8
OBJECT
 10
1929.9999999999991
 20
-3112.9999999999959
 30
0.0
 11
1980.4807787040561
 21
-3112.9999999999959
 31
0.0
1001
ACDBBLOCKREPETAG
1070
     1
1071
        5
1005
12A582
  0
LINE
  5
12A583
  8
OBJECT
 10
1929.9999999999991
 20
-3236.9999999999959
 30
0.0
 11
1937.9999999999991
 21
-3236.9999999999959
 31
0.0
1001
ACDBBLOCKREPETAG
1070
     1
1071
        6
1005
12A583
  0
LINE
  5
12A584
  8
OBJECT
 10
1937.9999999999991
 20
-3244.9999999999959
 30
0.0
 11
1937.9999999999991
 21
-3236.9999999999959
 31
0.0
1001
ACDBBLOCKREPETAG
1070
     1
1071
        7
1005
12A584
  0
LINE
  5
12A585
  8
OBJECT
 10
2070.0
 20
-3236.9999999999959
 30
0.0
 11
2062.0
 21
-3236.9999999999959
 31
0.0
1001
ACDBBLOCKREPETAG
1070
     1
1071
        8
1005
12A585
  0
LINE
  5
12A586
  8
OBJECT
 10
2062.0
 20
-3244.9999999999959
 30
0.0
 11
2062.0
 21
-3236.9999999999959
 31
0.0
1001
ACDBBLOCKREPETAG
1070
     1
1071
        9
1005
12A586
  0
LINE
  5
12A587
  8
CENTER
 10
1929.9999999999991
 20
-3174.9999999999959
 30
0.0
 11
2070.0
 21
-3174.9999999999959
 31
0.0
1001
ACDBBLOCKREPETAG
1070
     1
1071
       10
1005
12A587
  0
LINE
  5
12A588
  8
CENTER
 10
2000.0
 20
-3244.9999999999959
 30
0.0
 11
2000.0
 21
-3089.9999999999959
 31
0.0
1001
ACDBBLOCKREPETAG
1070
     1
1071
       11
1005
12A588
  0
ARC
  5
12A589
  8
OBJECT
 10
1989.9027621391861
 20
-3199.4435290189881
 30
0.0
 40
7.0
 50
73.001272229703943
 51
154.05025878943329
1001
ACDBBLOCKREPETAG
1070
     1
1071
       12
1005
12A589
  0
ARC
  5
12A58A
  8
OBJECT
 10
1986.83766107065
 20
-3200.5978773169481
 30
0.0
 40
9.0
 50
73.001272229703943
 51
154.05026392593629
1001
ACDBBLOCKREPETAG
1070
     1
1071
       13
1005
12A58A
  0
ARC
  5
12A58B
  8
OBJECT
 10
1896.314230131552
 20
-3122.2813003114779
 30
0.0
 40
150.0
 50
322.89503374000537
 51
325.89314996972462
1001
ACDBBLOCKREPETAG
1070
     1
1071
       14
1005
12A58B
  0
ARC
  5
12A58C
  8
OBJECT
 10
2000.0
 20
-3174.9999999999959
 30
0.0
 40
37.5
 50
303.16276667667029
 51
229.16350249082569
1001
ACDBBLOCKREPETAG
1070
     1
1071
       15
1005
12A58C
  0
LINE
  5
12A58D
  8
OBJECT
 10
1983.608514518975
 20
-3196.3804510089681
 30
0.0
 11
1977.374010999999
 21
-3209.191586999998
 31
0.0
1001
ACDBBLOCKREPETAG
1070
     1
1071
       16
1005
12A58D
  0
LINE
  5
12A58E
  8
OBJECT
 10
1978.745056634463
 20
-3196.6596348867029
 30
0.0
 11
1973.898671999998
 21
-3206.6183599999972
 31
0.0
1001
ACDBBLOCKREPETAG
1070
     1
1071
       17
1005
12A58E
  0
LINE
  5
12A58F
  8
OBJECT
 10
2018.9380180000001
 20
-3200.9999999999991
 30
0.0
 11
1989.468815303258
 21
-3191.9910760874409
 31
0.0
1001
ACDBBLOCKREPETAG
1070
     1
1071
       18
1005
12A58F
  0
LINE
  5
12A590
  8
OBJECT
 10
2020.5132253090051
 20
-3206.3919987802892
 30
0.0
 11
2018.9380180000001
 21
-3200.9999999999991
 31
0.0
1001
ACDBBLOCKREPETAG
1070
     1
1071
       19
1005
12A590
  0
LINE
  5
12A591
  8
OBJECT
 10
1954.038059222873
 20
-3220.9619407771211
 30
0.0
 11
1937.9999999999991
 21
-3236.9999999999959
 31
0.0
1001
ACDBBLOCKREPETAG
1070
     1
1071
       42
1005
12A591
  0
LINE
  5
12A592
  8
OBJECT
 10
2045.9619407771249
 20
-3220.9619407771211
 30
0.0
 11
2062.0
 21
-3236.9999999999959
 31
0.0
1001
ACDBBLOCKREPETAG
1070
     1
1071
       43
1005
12A592
  0
LINE
  5
12A593
  8
OBJECT
 10
2123.0
 20
-3127.9999999999959
 30
0.0
 11
2130.0
 21
-3127.9999999999959
 31
0.0
1001
ACDBBLOCKREPETAG
1070
     1
1071
        7
1005
12A593
  0
LINE
  5
12A594
  8
OBJECT
 10
2130.0
 20
-3127.9999999999959
 30
0.0
 11
2130.0
 21
-3221.9999999999959
 31
0.0
1001
ACDBBLOCKREPETAG
1070
     1
1071
        8
1005
12A594
  0
LINE
  5
12A595
  8
OBJECT
 10
2130.0
 20
-3221.9999999999959
 30
0.0
 11
2123.0
 21
-3221.9999999999959
 31
0.0
1001
ACDBBLOCKREPETAG
1070
     1
1071
        9
1005
12A595
  0
LINE
  5
12A596
  8
OBJECT
 10
2123.0
 20
-3221.9999999999959
 30
0.0
 11
2123.0
 21
-3127.9999999999959
 31
0.0
1001
ACDBBLOCKREPETAG
1070
     1
1071
       10
1005
12A596
  0
LINE
  5
12A597
  8
CENTER
 10
2145.0
 20
-3174.9999999999959
 30
0.0
 11
2070.0
 21
-3174.9999999999959
 31
0.0
1001
ACDBBLOCKREPETAG
1070
     1
1071
       11
1005
12A597
  0
LINE
  5
12A598
  8
OBJECT
 10
2123.0
 20
-3130.9999999999959
 30
0.0
 11
2087.0
 21
-3130.9999999999959
 31
0.0
1001
ACDBBLOCKREPETAG
1070
     1
1071
       12
1005
12A598
  0
LINE
  5
12A599
  8
OBJECT
 10
2087.0
 20
-3130.9999999999959
 30
0.0
 11
2087.0
 21
-3218.9999999999959
 31
0.0
1001
ACDBBLOCKREPETAG
1070
     1
1071
       13
1005
12A599
  0
LINE
  5
12A59A
  8
OBJECT
 10
2087.0
 20
-3218.9999999999959
 30
0.0
 11
2123.0
 21
-3218.9999999999959
 31
0.0
1001
ACDBBLOCKREPETAG
1070
     1
1071
       14
1005
12A59A
  0
LINE
  5
12A59B
  8
OBJECT
 10
2083.0
 20
-3135.4999999999959
 30
0.0
 11
2076.0
 21
-3135.4999999999959
 31
0.0
1001
ACDBBLOCKREPETAG
1070
     1
1071
       15
1005
12A59B
  0
LINE
  5
12A59C
  8
OBJECT
 10
2076.0
 20
-3214.4999999999959
 30
0.0
 11
2083.0
 21
-3214.4999999999959
 31
0.0
1001
ACDBBLOCKREPETAG
1070
     1
1071
       16
1005
12A59C
  0
LINE
  5
12A59D
  8
OBJECT
 10
2083.0
 20
-3214.4999999999959
 30
0.0
 11
2083.0
 21
-3135.4999999999959
 31
0.0
1001
ACDBBLOCKREPETAG
1070
     1
1071
       17
1005
12A59D
  0
LINE
  5
12A59E
  8
OBJECT
 10
2087.0
 20
-3130.9999999999959
 30
0.0
 11
2083.0
 21
-3135.4999999999959
 31
0.0
1001
ACDBBLOCKREPETAG
1070
     1
1071
       18
1005
12A59E
  0
LINE
  5
12A59F
  8
OBJECT
 10
2087.0
 20
-3218.9999999999959
 30
0.0
 11
2083.0
 21
-3214.4999999999959
 31
0.0
1001
ACDBBLOCKREPETAG
1070
     1
1071
       19
1005
12A59F
  0
LINE
  5
12A5A0
  8
OBJECT
 10
2073.0
 20
-3112.9999999999959
 30
0.0
 11
2070.0
 21
-3112.9999999999959
 31
0.0
1001
ACDBBLOCKREPETAG
1070
     1
1071
       20
1005
12A5A0
  0
ARC
  5
12A5A1
  8
OBJECT
 10
2073.0
 20
-3115.9999999999959
 30
0.0
 40
3.0
 50
0.0
 51
90.0
1001
ACDBBLOCKREPETAG
1070
     1
1071
       21
1005
12A5A1
  0
LINE
  5
12A5A2
  8
OBJECT
 10
2070.0
 20
-3236.9999999999959
 30
0.0
 11
2073.0
 21
-3236.9999999999959
 31
0.0
1001
ACDBBLOCKREPETAG
1070
     1
1071
       22
1005
12A5A2
  0
ARC
  5
12A5A3
  8
OBJECT
 10
2073.0
 20
-3233.9999999999959
 30
0.0
 40
3.0
 50
270.0
 51
0.0
1001
ACDBBLOCKREPETAG
1070
     1
1071
       23
1005
12A5A3
  0
LINE
  5
12A5A4
  8
OBJECT
 10
2076.0
 20
-3233.9999999999959
 30
0.0
 11
2076.0
 21
-3115.9999999999959
 31
0.0
1001
ACDBBLOCKREPETAG
1070
     1
1071
       24
1005
12A5A4
  0
LINE
  5
12A5A5
  8
HIDDEN
 10
2078.0
 20
-3144.9999999999959
 30
0.0
 11
2078.0
 21
-3204.9999999999959
 31
0.0
1001
ACDBBLOCKREPETAG
1070
     1
1071
       25
1005
12A5A5
  0
LINE
  5
12A5A6
  8
OBJECT
 10
3327.0
 20
-3458.9999999999959
 30
0.0
 11
3330.0
 21
-3458.9999999999959
 31
0.0
1001
ACDBBLOCKREPETAG
1070
     1
1071
        1
1005
12A5A6
  0
ARC
  5
12A5A7
  8
OBJECT
 10
3327.0
 20
-3461.9999999999959
 30
0.0
 40
3.0
 50
90.0
 51
180.0
1001
ACDBBLOCKREPETAG
1070
     1
1071
        2
1005
12A5A7
  0
LINE
  5
12A5A8
  8
OBJECT
 10
3330.0
 20
-3582.9999999999968
 30
0.0
 11
3327.0
 21
-3582.9999999999968
 31
0.0
1001
ACDBBLOCKREPETAG
1070
     1
1071
        3
1005
12A5A8
  0
ARC
  5
12A5A9
  8
OBJECT
 10
3327.0
 20
-3579.9999999999959
 30
0.0
 40
3.0
 50
180.0
 51
270.0
1001
ACDBBLOCKREPETAG
1070
     1
1071
        4
1005
12A5A9
  0
LINE
  5
12A5AA
  8
OBJECT
 10
3324.0
 20
-3579.9999999999959
 30
0.0
 11
3324.0
 21
-3461.9999999999959
 31
0.0
1001
ACDBBLOCKREPETAG
1070
     1
1071
        5
1005
12A5AA
  0
LINE
  5
12A5AB
  8
OBJECT
 10
3334.9999999999991
 20
-3374.9999999999959
 30
0.0
 11
3334.9999999999991
 21
-3395.9999999999959
 31
0.0
1001
ACDBBLOCKREPETAG
1070
     1
1071
       36
1005
12A5AB
  0
LINE
  5
12A5AC
  8
OBJECT
 10
3334.9999999999991
 20
-3395.9999999999959
 30
0.0
 11
3465.0
 21
-3395.9999999999959
 31
0.0
1001
ACDBBLOCKREPETAG
1070
     1
1071
       37
1005
12A5AC
  0
LINE
  5
12A5AD
  8
OBJECT
 10
3465.0
 20
-3395.9999999999959
 30
0.0
 11
3465.0
 21
-3374.9999999999959
 31
0.0
1001
ACDBBLOCKREPETAG
1070
     1
1071
       38
1005
12A5AD
  0
LINE
  5
12A5AE
  8
OBJECT
 10
3465.0
 20
-3374.9999999999959
 30
0.0
 11
3334.9999999999991
 21
-3374.9999999999959
 31
0.0
1001
ACDBBLOCKREPETAG
1070
     1
1071
       39
1005
12A5AE
  0
LINE
  5
12A5AF
  8
HIDDEN
 10
3444.5
 20
-3444.9999999999959
 30
0.0
 11
3355.4999999999991
 21
-3444.9999999999959
 31
0.0
1001
ACDBBLOCKREPETAG
1070
     1
1071
       40
1005
12A5AF
  0
LINE
  5
12A5B0
  8
CENTER
 10
3399.9999999999991
 20
-3594.9999999999959
 30
0.0
 11
3399.9999999999991
 21
-3359.9999999999959
 31
0.0
1001
ACDBBLOCKREPETAG
1070
     1
1071
       41
1005
12A5B0
  0
LINE
  5
12A5B1
  8
OBJECT
 10
3340.5
 20
-3395.9999999999959
 30
0.0
 11
3340.5
 21
-3458.9999999999959
 31
0.0
1001
ACDBBLOCKREPETAG
1070
     1
1071
       42
1005
12A5B1
  0
LINE
  5
12A5B2
  8
OBJECT
 10
3330.0
 20
-3458.9999999999959
 30
0.0
 11
3465.0000101378168
 21
-3458.9999999999959
 31
0.0
1001
ACDBBLOCKREPETAG
1070
     1
1071
       43
1005
12A5B2
  0
LINE
  5
12A5B3
  8
OBJECT
 10
3459.5
 20
-3458.9999999999959
 30
0.0
 11
3459.5
 21
-3395.9999999999959
 31
0.0
1001
ACDBBLOCKREPETAG
1070
     1
1071
       44
1005
12A5B3
  0
LINE
  5
12A5B4
  8
OBJECT
 10
3335.0
 20
-3582.9999999999968
 30
0.0
 11
3330.0
 21
-3582.9999999999968
 31
0.0
1001
ACDBBLOCKREPETAG
1070
     1
1071
       48
1005
12A5B4
  0
LINE
  5
12A5B5
  8
OBJECT
 10
3465.0000101378168
 20
-3583.0000021659139
 30
0.0
 11
3465.0000101378168
 21
-3458.9999999999959
 31
0.0
1001
ACDBBLOCKREPETAG
1070
     1
1071
       51
1005
12A5B5
  0
ARC
  5
12A5B6
  8
OBJECT
 10
2964.9615610053229
 20
-3823.608136846824
 30
0.0
 40
519.48776673616965
 50
41.499473443784993
 51
44.576493325685597
1001
ACDBBLOCKREPETAG
1070
     1
1071
       52
1005
12A5B6
  0
ARC
  5
12A5B7
  8
OBJECT
 10
2964.9615610053229
 20
-3218.3918631531678
 30
0.0
 40
519.48776673616965
 50
315.42350667431441
 51
318.50052655621488
1001
ACDBBLOCKREPETAG
1070
     1
1071
       53
1005
12A5B7
  0
POINT
  5
12A5B8
  8
DOTS
 10
3399.9999999999991
 20
-3579.9999999999959
 30
0.0
1001
ACDBBLOCKREPETAG
1070
     1
1071
      112
1005
12A5B8
  0
LINE
  5
12A5B9
  8
OBJECT
 10
2927.0
 20
-3458.9999999999959
 30
0.0
 11
2930.0
 21
-3458.9999999999959
 31
0.0
1001
ACDBBLOCKREPETAG
1070
     1
1071
        1
1005
12A5B9
  0
ARC
  5
12A5BA
  8
OBJECT
 10
2927.0
 20
-3461.9999999999959
 30
0.0
 40
3.0
 50
90.0
 51
180.0
1001
ACDBBLOCKREPETAG
1070
     1
1071
        2
1005
12A5BA
  0
LINE
  5
12A5BB
  8
OBJECT
 10
2930.0
 20
-3582.9999999999968
 30
0.0
 11
2927.0
 21
-3582.9999999999968
 31
0.0
1001
ACDBBLOCKREPETAG
1070
     1
1071
        3
1005
12A5BB
  0
ARC
  5
12A5BC
  8
OBJECT
 10
2927.0
 20
-3579.9999999999959
 30
0.0
 40
3.0
 50
180.0
 51
270.0
1001
ACDBBLOCKREPETAG
1070
     1
1071
        4
1005
12A5BC
  0
LINE
  5
12A5BD
  8
OBJECT
 10
2924.0
 20
-3579.9999999999959
 30
0.0
 11
2924.0
 21
-3461.9999999999959
 31
0.0
1001
ACDBBLOCKREPETAG
1070
     1
1071
        5
1005
12A5BD
  0
CIRCLE
  5
12A5BE
  8
OBJECT
 10
3000.0
 20
-3520.9999999999968
 30
0.0
 40
62.0
1001
ACDBBLOCKREPETAG
1070
     1
1071
        0
1005
12A5BE
  0
LINE
  5
12A5BF
  8
OBJECT
 10
2935.0
 20
-3374.9999999999959
 30
0.0
 11
2935.0
 21
-3395.9999999999959
 31
0.0
1001
ACDBBLOCKREPETAG
1070
     1
1071
       16
1005
12A5BF
  0
LINE
  5
12A5C0
  8
OBJECT
 10
2935.0
 20
-3395.9999999999959
 30
0.0
 11
3064.9999999999991
 21
-3395.9999999999959
 31
0.0
1001
ACDBBLOCKREPETAG
1070
     1
1071
       17
1005
12A5C0
  0
LINE
  5
12A5C1
  8
OBJECT
 10
3064.9999999999991
 20
-3395.9999999999959
 30
0.0
 11
3064.9999999999991
 21
-3374.9999999999959
 31
0.0
1001
ACDBBLOCKREPETAG
1070
     1
1071
       18
1005
12A5C1
  0
LINE
  5
12A5C2
  8
OBJECT
 10
3064.9999999999991
 20
-3374.9999999999959
 30
0.0
 11
2935.0
 21
-3374.9999999999959
 31
0.0
1001
ACDBBLOCKREPETAG
1070
     1
1071
       19
1005
12A5C2
  0
LINE
  5
12A5C3
  8
HIDDEN
 10
3044.5
 20
-3444.9999999999959
 30
0.0
 11
2955.5
 21
-3444.9999999999959
 31
0.0
1001
ACDBBLOCKREPETAG
1070
     1
1071
       20
1005
12A5C3
  0
LINE
  5
12A5C4
  8
CENTER
 10
3000.0
 20
-3594.9999999999959
 30
0.0
 11
3000.0
 21
-3359.9999999999959
 31
0.0
1001
ACDBBLOCKREPETAG
1070
     1
1071
       21
1005
12A5C4
  0
LINE
  5
12A5C5
  8
OBJECT
 10
2940.5
 20
-3395.9999999999959
 30
0.0
 11
2940.5
 21
-3458.9999999999959
 31
0.0
1001
ACDBBLOCKREPETAG
1070
     1
1071
       22
1005
12A5C5
  0
LINE
  5
12A5C6
  8
OBJECT
 10
2930.0
 20
-3458.9999999999959
 30
0.0
 11
3070.0
 21
-3458.9999999999959
 31
0.0
1001
ACDBBLOCKREPETAG
1070
     1
1071
       23
1005
12A5C6
  0
LINE
  5
12A5C7
  8
OBJECT
 10
3059.5
 20
-3458.9999999999959
 30
0.0
 11
3059.5
 21
-3395.9999999999959
 31
0.0
1001
ACDBBLOCKREPETAG
1070
     1
1071
       24
1005
12A5C7
  0
LINE
  5
12A5C8
  8
OBJECT
 10
3070.0
 20
-3582.9999999999968
 30
0.0
 11
3064.9999999999991
 21
-3582.9999999999968
 31
0.0
1001
ACDBBLOCKREPETAG
1070
     1
1071
       28
1005
12A5C8
  0
LINE
  5
12A5C9
  8
OBJECT
 10
2935.0
 20
-3582.9999999999968
 30
0.0
 11
2930.0
 21
-3582.9999999999968
 31
0.0
1001
ACDBBLOCKREPETAG
1070
     1
1071
      116
1005
12A5C9
  0
ARC
  5
12A5CA
  8
OBJECT
 10
3435.0384389946771
 20
-3823.608136846824
 30
0.0
 40
519.48776673616965
 50
135.42350667431441
 51
138.50052655621499
1001
ACDBBLOCKREPETAG
1070
     1
1071
       32
1005
12A5CA
  0
ARC
  5
12A5CB
  8
OBJECT
 10
3435.0384389946771
 20
-3218.3918631531678
 30
0.0
 40
519.48776673616965
 50
221.49947344378501
 51
224.57649332568559
1001
ACDBBLOCKREPETAG
1070
     1
1071
       33
1005
12A5CB
  0
ARC
  5
12A5CC
  8
OBJECT
 10
2564.961561005322
 20
-3823.608136846824
 30
0.0
 40
519.48776673616965
 50
41.499473443784993
 51
44.576493325685597
1001
ACDBBLOCKREPETAG
1070
     1
1071
       34
1005
12A5CC
  0
ARC
  5
12A5CD
  8
OBJECT
 10
2564.961561005322
 20
-3218.3918631531678
 30
0.0
 40
519.48776673616965
 50
315.42350667431441
 51
318.50052655621488
1001
ACDBBLOCKREPETAG
1070
     1
1071
       35
1005
12A5CD
  0
POINT
  5
12A5CE
  8
DOTS
 10
3000.0
 20
-3579.9999999999959
 30
0.0
1001
ACDBBLOCKREPETAG
1070
     1
1071
      111
1005
12A5CE
  0
CIRCLE
  5
12A5CF
  8
OBJECT
 10
3400.0
 20
-3527.9999999999968
 30
0.0
 40
35.5
1001
ACDBBLOCKREPETAG
1070
     1
1071
       10
1005
12A5CF
  0
CIRCLE
  5
12A5D0
  8
OBJECT
 10
3400.0
 20
-3520.9999999999968
 30
0.0
 40
62.0
1001
ACDBBLOCKREPETAG
1070
     1
1071
       11
1005
12A5D0
  0
LINE
  5
12A5D1
  8
CENTER
 10
3330.0
 20
-3527.9999999999968
 30
0.0
 11
3470.0
 21
-3527.9999999999968
 31
0.0
1001
ACDBBLOCKREPETAG
1070
     1
1071
       12
1005
12A5D1
  0
CIRCLE
  5
12A5D2
  8
OBJECT
 10
3400.0
 20
-3527.9999999999968
 30
0.0
 40
47.0
1001
ACDBBLOCKREPETAG
1070
     1
1071
       14
1005
12A5D2
  0
ARC
  5
12A5D3
  8
OBJECT
 10
3400.0
 20
-3527.9999999999968
 30
0.0
 40
55.0
 50
289.01126526011359
 51
250.98873473988641
1001
ACDBBLOCKREPETAG
1070
     1
1071
       15
1005
12A5D3
  0
LINE
  5
12A5D4
  8
OBJECT
 10
3382.0835271328328
 20
-3579.9999999999968
 30
0.0
 11
3417.9164728671681
 21
-3579.9999999999968
 31
0.0
1001
ACDBBLOCKREPETAG
1070
     1
1071
       16
1005
12A5D4
  0
LINE
  5
12A5D5
  8
OBJECT
 10
3123.0
 20
-3472.9999999999968
 30
0.0
 11
3130.0
 21
-3472.9999999999968
 31
0.0
1001
ACDBBLOCKREPETAG
1070
     1
1071
       26
1005
12A5D5
  0
LINE
  5
12A5D6
  8
OBJECT
 10
3130.0
 20
-3472.9999999999968
 30
0.0
 11
3130.0
 21
-3579.9999999999968
 31
0.0
1001
ACDBBLOCKREPETAG
1070
     1
1071
       27
1005
12A5D6
  0
LINE
  5
12A5D7
  8
OBJECT
 10
3123.0
 20
-3579.9999999999968
 30
0.0
 11
3123.0
 21
-3472.9999999999968
 31
0.0
1001
ACDBBLOCKREPETAG
1070
     1
1071
       28
1005
12A5D7
  0
LINE
  5
12A5D8
  8
CENTER
 10
3145.0
 20
-3527.9999999999968
 30
0.0
 11
3061.0
 21
-3527.9999999999968
 31
0.0
1001
ACDBBLOCKREPETAG
1070
     1
1071
       29
1005
12A5D8
  0
LINE
  5
12A5D9
  8
OBJECT
 10
3123.0
 20
-3475.9999999999968
 30
0.0
 11
3087.0
 21
-3475.9999999999968
 31
0.0
1001
ACDBBLOCKREPETAG
1070
     1
1071
       30
1005
12A5D9
  0
LINE
  5
12A5DA
  8
OBJECT
 10
3087.0
 20
-3475.9999999999968
 30
0.0
 11
3087.0
 21
-3579.9999999999968
 31
0.0
1001
ACDBBLOCKREPETAG
1070
     1
1071
       31
1005
12A5DA
  0
LINE
  5
12A5DB
  8
OBJECT
 10
3087.0
 20
-3579.9999999999968
 30
0.0
 11
3130.0
 21
-3579.9999999999968
 31
0.0
1001
ACDBBLOCKREPETAG
1070
     1
1071
       32
1005
12A5DB
  0
LINE
  5
12A5DC
  8
OBJECT
 10
3083.0
 20
-3480.4999999999968
 30
0.0
 11
3076.0
 21
-3480.4999999999968
 31
0.0
1001
ACDBBLOCKREPETAG
1070
     1
1071
       33
1005
12A5DC
  0
LINE
  5
12A5DD
  8
OBJECT
 10
3076.0
 20
-3575.4999999999968
 30
0.0
 11
3083.0
 21
-3575.4999999999968
 31
0.0
1001
ACDBBLOCKREPETAG
1070
     1
1071
       34
1005
12A5DD
  0
LINE
  5
12A5DE
  8
OBJECT
 10
3083.0
 20
-3575.4999999999968
 30
0.0
 11
3083.0
 21
-3480.4999999999968
 31
0.0
1001
ACDBBLOCKREPETAG
1070
     1
1071
       35
1005
12A5DE
  0
LINE
  5
12A5DF
  8
OBJECT
 10
3087.0
 20
-3475.9999999999968
 30
0.0
 11
3083.0
 21
-3480.4999999999968
 31
0.0
1001
ACDBBLOCKREPETAG
1070
     1
1071
       36
1005
12A5DF
  0
LINE
  5
12A5E0
  8
OBJECT
 10
3087.0
 20
-3579.9999999999968
 30
0.0
 11
3083.0
 21
-3575.4999999999968
 31
0.0
1001
ACDBBLOCKREPETAG
1070
     1
1071
       37
1005
12A5E0
  0
LINE
  5
12A5E1
  8
OBJECT
 10
3073.0
 20
-3458.9999999999968
 30
0.0
 11
3070.0
 21
-3458.9999999999968
 31
0.0
1001
ACDBBLOCKREPETAG
1070
     1
1071
       38
1005
12A5E1
  0
ARC
  5
12A5E2
  8
OBJECT
 10
3073.0
 20
-3461.9999999999968
 30
0.0
 40
3.0
 50
0.0
 51
90.0
1001
ACDBBLOCKREPETAG
1070
     1
1071
       39
1005
12A5E2
  0
LINE
  5
12A5E3
  8
OBJECT
 10
3070.0
 20
-3582.9999999999968
 30
0.0
 11
3073.0
 21
-3582.9999999999968
 31
0.0
1001
ACDBBLOCKREPETAG
1070
     1
1071
       40
1005
12A5E3
  0
ARC
  5
12A5E4
  8
OBJECT
 10
3073.0
 20
-3579.9999999999968
 30
0.0
 40
3.0
 50
270.0
 51
0.0
1001
ACDBBLOCKREPETAG
1070
     1
1071
       41
1005
12A5E4
  0
LINE
  5
12A5E5
  8
OBJECT
 10
3076.0
 20
-3579.9999999999968
 30
0.0
 11
3076.0
 21
-3461.9999999999968
 31
0.0
1001
ACDBBLOCKREPETAG
1070
     1
1071
       42
1005
12A5E5
  0
LINE
  5
12A5E6
  8
HIDDEN
 10
3078.0
 20
-3489.9999999999968
 30
0.0
 11
3078.0
 21
-3565.9999999999968
 31
0.0
1001
ACDBBLOCKREPETAG
1070
     1
1071
       43
1005
12A5E6
  0
LINE
  5
12A5E7
  8
OBJECT
 10
2327.0
 20
-3458.9999999999959
 30
0.0
 11
2330.0
 21
-3458.9999999999959
 31
0.0
1001
ACDBBLOCKREPETAG
1070
     1
1071
        1
1005
12A5E7
  0
ARC
  5
12A5E8
  8
OBJECT
 10
2327.0
 20
-3461.9999999999959
 30
0.0
 40
3.0
 50
90.0
 51
180.0
1001
ACDBBLOCKREPETAG
1070
     1
1071
        2
1005
12A5E8
  0
LINE
  5
12A5E9
  8
OBJECT
 10
2330.0
 20
-3582.9999999999968
 30
0.0
 11
2327.0
 21
-3582.9999999999968
 31
0.0
1001
ACDBBLOCKREPETAG
1070
     1
1071
        3
1005
12A5E9
  0
ARC
  5
12A5EA
  8
OBJECT
 10
2327.0
 20
-3579.9999999999959
 30
0.0
 40
3.0
 50
180.0
 51
270.0
1001
ACDBBLOCKREPETAG
1070
     1
1071
        4
1005
12A5EA
  0
LINE
  5
12A5EB
  8
OBJECT
 10
2324.0
 20
-3579.9999999999959
 30
0.0
 11
2324.0
 21
-3461.9999999999959
 31
0.0
1001
ACDBBLOCKREPETAG
1070
     1
1071
        5
1005
12A5EB
  0
LINE
  5
12A5EC
  8
OBJECT
 10
2334.9999999999991
 20
-3374.9999999999959
 30
0.0
 11
2334.9999999999991
 21
-3395.9999999999959
 31
0.0
1001
ACDBBLOCKREPETAG
1070
     1
1071
       36
1005
12A5EC
  0
LINE
  5
12A5ED
  8
OBJECT
 10
2334.9999999999991
 20
-3395.9999999999959
 30
0.0
 11
2465.0
 21
-3395.9999999999959
 31
0.0
1001
ACDBBLOCKREPETAG
1070
     1
1071
       37
1005
12A5ED
  0
LINE
  5
12A5EE
  8
OBJECT
 10
2465.0
 20
-3395.9999999999959
 30
0.0
 11
2465.0
 21
-3374.9999999999959
 31
0.0
1001
ACDBBLOCKREPETAG
1070
     1
1071
       38
1005
12A5EE
  0
LINE
  5
12A5EF
  8
OBJECT
 10
2465.0
 20
-3374.9999999999959
 30
0.0
 11
2334.9999999999991
 21
-3374.9999999999959
 31
0.0
1001
ACDBBLOCKREPETAG
1070
     1
1071
       39
1005
12A5EF
  0
LINE
  5
12A5F0
  8
HIDDEN
 10
2444.5
 20
-3444.9999999999959
 30
0.0
 11
2355.5
 21
-3444.9999999999959
 31
0.0
1001
ACDBBLOCKREPETAG
1070
     1
1071
       40
1005
12A5F0
  0
LINE
  5
12A5F1
  8
CENTER
 10
2400.0
 20
-3594.9999999999959
 30
0.0
 11
2400.0
 21
-3359.9999999999959
 31
0.0
1001
ACDBBLOCKREPETAG
1070
     1
1071
       41
1005
12A5F1
  0
LINE
  5
12A5F2
  8
OBJECT
 10
2340.5
 20
-3395.9999999999959
 30
0.0
 11
2340.5
 21
-3458.9999999999959
 31
0.0
1001
ACDBBLOCKREPETAG
1070
     1
1071
       42
1005
12A5F2
  0
LINE
  5
12A5F3
  8
OBJECT
 10
2330.0
 20
-3458.9999999999959
 30
0.0
 11
2465.0000101378168
 21
-3458.9999999999959
 31
0.0
1001
ACDBBLOCKREPETAG
1070
     1
1071
       43
1005
12A5F3
  0
LINE
  5
12A5F4
  8
OBJECT
 10
2459.5
 20
-3458.9999999999959
 30
0.0
 11
2459.5
 21
-3395.9999999999959
 31
0.0
1001
ACDBBLOCKREPETAG
1070
     1
1071
       44
1005
12A5F4
  0
LINE
  5
12A5F5
  8
OBJECT
 10
2335.0
 20
-3582.9999999999968
 30
0.0
 11
2330.0
 21
-3582.9999999999968
 31
0.0
1001
ACDBBLOCKREPETAG
1070
     1
1071
       48
1005
12A5F5
  0
LINE
  5
12A5F6
  8
OBJECT
 10
2465.0000101378168
 20
-3583.0000021659139
 30
0.0
 11
2465.0000101378168
 21
-3458.9999999999959
 31
0.0
1001
ACDBBLOCKREPETAG
1070
     1
1071
       51
1005
12A5F6
  0
ARC
  5
12A5F7
  8
OBJECT
 10
1964.961561005322
 20
-3823.608136846824
 30
0.0
 40
519.48776673616965
 50
41.499473443784993
 51
44.576493325685597
1001
ACDBBLOCKREPETAG
1070
     1
1071
       52
1005
12A5F7
  0
ARC
  5
12A5F8
  8
OBJECT
 10
1964.961561005322
 20
-3218.3918631531678
 30
0.0
 40
519.48776673616965
 50
315.42350667431441
 51
318.50052655621488
1001
ACDBBLOCKREPETAG
1070
     1
1071
       53
1005
12A5F8
  0
POINT
  5
12A5F9
  8
DOTS
 10
2400.0
 20
-3579.9999999999959
 30
0.0
1001
ACDBBLOCKREPETAG
1070
     1
1071
      112
1005
12A5F9
  0
LINE
  5
12A5FA
  8
OBJECT
 10
1927.0
 20
-3458.9999999999959
 30
0.0
 11
1929.9999999999991
 21
-3458.9999999999959
 31
0.0
1001
ACDBBLOCKREPETAG
1070
     1
1071
        1
1005
12A5FA
  0
ARC
  5
12A5FB
  8
OBJECT
 10
1927.0
 20
-3461.9999999999959
 30
0.0
 40
3.0
 50
90.0
 51
180.0
1001
ACDBBLOCKREPETAG
1070
     1
1071
        2
1005
12A5FB
  0
LINE
  5
12A5FC
  8
OBJECT
 10
1929.9999999999991
 20
-3582.9999999999968
 30
0.0
 11
1927.0
 21
-3582.9999999999968
 31
0.0
1001
ACDBBLOCKREPETAG
1070
     1
1071
        3
1005
12A5FC
  0
ARC
  5
12A5FD
  8
OBJECT
 10
1927.0
 20
-3579.9999999999959
 30
0.0
 40
3.0
 50
180.0
 51
270.0
1001
ACDBBLOCKREPETAG
1070
     1
1071
        4
1005
12A5FD
  0
LINE
  5
12A5FE
  8
OBJECT
 10
1924.0
 20
-3579.9999999999959
 30
0.0
 11
1924.0
 21
-3461.9999999999959
 31
0.0
1001
ACDBBLOCKREPETAG
1070
     1
1071
        5
1005
12A5FE
  0
CIRCLE
  5
12A5FF
  8
OBJECT
 10
2000.0
 20
-3520.9999999999968
 30
0.0
 40
62.0
1001
ACDBBLOCKREPETAG
1070
     1
1071
        0
1005
12A5FF
  0
LINE
  5
12A600
  8
OBJECT
 10
1934.9999999999991
 20
-3374.9999999999959
 30
0.0
 11
1934.9999999999991
 21
-3395.9999999999959
 31
0.0
1001
ACDBBLOCKREPETAG
1070
     1
1071
       16
1005
12A600
  0
LINE
  5
12A601
  8
OBJECT
 10
1934.9999999999991
 20
-3395.9999999999959
 30
0.0
 11
2064.9999999999991
 21
-3395.9999999999959
 31
0.0
1001
ACDBBLOCKREPETAG
1070
     1
1071
       17
1005
12A601
  0
LINE
  5
12A602
  8
OBJECT
 10
2064.9999999999991
 20
-3395.9999999999959
 30
0.0
 11
2064.9999999999991
 21
-3374.9999999999959
 31
0.0
1001
ACDBBLOCKREPETAG
1070
     1
1071
       18
1005
12A602
  0
LINE
  5
12A603
  8
OBJECT
 10
2064.9999999999991
 20
-3374.9999999999959
 30
0.0
 11
1934.9999999999991
 21
-3374.9999999999959
 31
0.0
1001
ACDBBLOCKREPETAG
1070
     1
1071
       19
1005
12A603
  0
LINE
  5
12A604
  8
HIDDEN
 10
2044.5
 20
-3444.9999999999959
 30
0.0
 11
1955.4999999999991
 21
-3444.9999999999959
 31
0.0
1001
ACDBBLOCKREPETAG
1070
     1
1071
       20
1005
12A604
  0
LINE
  5
12A605
  8
CENTER
 10
2000.0
 20
-3594.9999999999959
 30
0.0
 11
2000.0
 21
-3359.9999999999959
 31
0.0
1001
ACDBBLOCKREPETAG
1070
     1
1071
       21
1005
12A605
  0
LINE
  5
12A606
  8
OBJECT
 10
1940.5
 20
-3395.9999999999959
 30
0.0
 11
1940.5
 21
-3458.9999999999959
 31
0.0
1001
ACDBBLOCKREPETAG
1070
     1
1071
       22
1005
12A606
  0
LINE
  5
12A607
  8
OBJECT
 10
1929.9999999999991
 20
-3458.9999999999959
 30
0.0
 11
2070.0
 21
-3458.9999999999959
 31
0.0
1001
ACDBBLOCKREPETAG
1070
     1
1071
       23
1005
12A607
  0
LINE
  5
12A608
  8
OBJECT
 10
2059.4999999999991
 20
-3458.9999999999959
 30
0.0
 11
2059.4999999999991
 21
-3395.9999999999959
 31
0.0
1001
ACDBBLOCKREPETAG
1070
     1
1071
       24
1005
12A608
  0
LINE
  5
12A609
  8
OBJECT
 10
2070.0
 20
-3582.9999999999968
 30
0.0
 11
2064.9999999999991
 21
-3582.9999999999968
 31
0.0
1001
ACDBBLOCKREPETAG
1070
     1
1071
       28
1005
12A609
  0
LINE
  5
12A60A
  8
OBJECT
 10
1935.0
 20
-3582.9999999999968
 30
0.0
 11
1929.9999999999991
 21
-3582.9999999999968
 31
0.0
1001
ACDBBLOCKREPETAG
1070
     1
1071
      116
1005
12A60A
  0
ARC
  5
12A60B
  8
OBJECT
 10
2435.0384389946771
 20
-3823.608136846824
 30
0.0
 40
519.48776673616965
 50
135.42350667432351
 51
138.50052655621499
1001
ACDBBLOCKREPETAG
1070
     1
1071
       32
1005
12A60B
  0
ARC
  5
12A60C
  8
OBJECT
 10
2435.0384389946771
 20
-3218.3918631531678
 30
0.0
 40
519.48776673616965
 50
221.49947344378501
 51
224.57649332567649
1001
ACDBBLOCKREPETAG
1070
     1
1071
       33
1005
12A60C
  0
ARC
  5
12A60D
  8
OBJECT
 10
1564.961561005322
 20
-3823.608136846824
 30
0.0
 40
519.48776673616965
 50
41.499473443784993
 51
44.576493325676452
1001
ACDBBLOCKREPETAG
1070
     1
1071
       34
1005
12A60D
  0
ARC
  5
12A60E
  8
OBJECT
 10
1564.961561005322
 20
-3218.3918631531678
 30
0.0
 40
519.48776673616965
 50
315.42350667432362
 51
318.50052655621488
1001
ACDBBLOCKREPETAG
1070
     1
1071
       35
1005
12A60E
  0
POINT
  5
12A60F
  8
DOTS
 10
2000.0
 20
-3579.9999999999959
 30
0.0
1001
ACDBBLOCKREPETAG
1070
     1
1071
      111
1005
12A60F
  0
LINE
  5
12A610
  8
DIM
 10
2140.0
 20
-3221.9999999999959
 30
0.0
 11
2218.4796205944581
 21
-3221.9999999999959
 31
0.0
  0
LINE
  5
12A611
  8
DIM
 10
2140.0
 20
-3127.9999999999959
 30
0.0
 11
2218.4796205944581
 21
-3127.9999999999959
 31
0.0
  0
LINE
  5
12A612
  8
DIM
 10
2208.4796205944581
 20
-3201.9999999999959
 30
0.0
 11
2208.4796205944581
 21
-3147.9999999999959
 31
0.0
  0
INSERT
  5
12A613
  8
DIM
  2
_OPEN30
 10
2208.4796205944581
 20
-3221.9999999999959
 30
0.0
 41
20.0
 42
20.0
 43
20.0
 50
270.0
  0
INSERT
  5
12A614
  8
DIM
  2
_OPEN30
 10
2208.4796205944581
 20
-3127.9999999999959
 30
0.0
 41
20.0
 42
20.0
 43
20.0
 50
90.0
  0
INSERT
  5
12A615
  8
OBJECT
  2
*U3
 10
0.0
 20
0.0
 30
0.0
  0
LINE
  5
12A616
  8
DIM
 10
2140.0
 20
-3579.9999999999968
 30
0.0
 11
2216.840928403733
 21
-3579.9999999999968
 31
0.0
  0
LINE
  5
12A617
  8
DIM
 10
2155.0
 20
-3535.9999999999968
 30
0.0
 11
2216.840928403733
 21
-3535.9999999999968
 31
0.0
  0
LINE
  5
12A618
  8
DIM
 10
2206.840928403733
 20
-3599.9999999999968
 30
0.0
 11
2206.840928403733
 21
-3619.9999999999968
 31
0.0
  0
LINE
  5
12A619
  8
DIM
 10
2206.840928403733
 20
-3515.9999999999968
 30
0.0
 11
2206.840928403733
 21
-3495.9999999999968
 31
0.0
  0
LINE
  5
12A61A
  8
DIM
 10
2206.840928403733
 20
-3579.9999999999968
 30
0.0
 11
2206.840928403733
 21
-3535.9999999999968
 31
0.0
  0
INSERT
  5
12A61B
  8
DIM
  2
_OPEN30
 10
2206.840928403733
 20
-3579.9999999999968
 30
0.0
 41
20.0
 42
20.0
 43
20.0
 50
90.0
  0
INSERT
  5
12A61C
  8
DIM
  2
_OPEN30
 10
2206.840928403733
 20
-3535.9999999999968
 30
0.0
 41
20.0
 42
20.0
 43
20.0
 50
270.0
  0
INSERT
  5
12A61D
  8
OBJECT
  2
*U4
 10
0.0
 20
0.0
 30
0.0
  0
LINE
  5
12A61E
  8
DIM
 10
2000.0
 20
-3079.9999999999959
 30
0.0
 11
2000.0
 21
-3047.208121984444
 31
0.0
  0
LINE
  5
12A61F
  8
DIM
 10
2130.0
 20
-3117.9999999999959
 30
0.0
 11
2130.0
 21
-3047.208121984444
 31
0.0
  0
LINE
  5
12A620
  8
DIM
 10
2020.0
 20
-3057.208121984444
 30
0.0
 11
2109.9999999999991
 21
-3057.208121984444
 31
0.0
  0
INSERT
  5
12A621
  8
DIM
  2
_OPEN30
 10
2000.0
 20
-3057.208121984444
 30
0.0
 41
20.0
 42
20.0
 43
20.0
 50
180.0
  0
INSERT
  5
12A622
  8
DIM
  2
_OPEN30
 10
2130.0
 20
-3057.208121984444
 30
0.0
 41
20.0
 42
20.0
 43
20.0
  0
INSERT
  5
12A623
  8
OBJECT
  2
*U5
 10
0.0
 20
0.0
 30
0.0
  0
TEXT
  5
12A624
  8
SLIM
 10
2631.0
 20
-2952.50001604727
 30
0.0
 40
40.0
  1
C寸法
 41
0.75
  0
TEXT
  5
12A625
  8
SLIM
 10
2631.0
 20
-2882.50001604727
 30
0.0
 40
40.0
  1
B寸法
 41
0.75
  0
TEXT
  5
12A626
  8
SLIM
 10
2630.2857142857142
 20
-2812.50001604727
 30
0.0
 40
40.0
  1
A寸法
 41
0.75
  0
TEXT
  5
12A627
  8
SLIM
 10
2769.2857142857151
 20
-2952.50001604727
 30
0.0
 40
40.0
  1
130
 41
0.75
  0
TEXT
  5
12A628
  8
SLIM
 10
2899.2857142857151
 20
-2952.50001604727
 30
0.0
 40
40.0
  1
130
 41
0.75
  0
TEXT
  5
12A629
  8
SLIM
 10
2780.0
 20
-2882.50001604727
 30
0.0
 40
40.0
  1
44
 41
0.75
  0
TEXT
  5
12A62A
  8
SLIM
 10
2910.7142857142858
 20
-2882.50001604727
 30
0.0
 40
40.0
  1
52
 41
0.75
  0
TEXT
  5
12A62B
  8
SLIM
 10
2766.0
 20
-2687.50001604727
 30
0.0
 40
40.0
  1
横枝管サイズ
 41
0.75
  0
TEXT
  5
12A62C
  8
SLIM
 10
2884.8571428571431
 20
-2742.50001604727
 30
0.0
 40
30.0
  1
65（2）
 41
0.75
  0
TEXT
  5
12A62D
  8
SLIM
 10
2757.0
 20
-2742.50001604727
 30
0.0
 40
30.0
  1
50（1）
 41
0.75
  0
TEXT
  5
12A62E
  8
SLIM
 10
2780.0
 20
-2812.50001604727
 30
0.0
 40
40.0
  1
94
 41
0.75
  0
TEXT
  5
12A62F
  8
SLIM
 10
2902.1428571428569
 20
-2812.50001604727
 30
0.0
 40
40.0
  1
110
 41
0.75
  0
TEXT
  5
12A630
  8
SLIM
 10
1849.9999999999991
 20
-2712.5
 30
0.0
 40
75.0
  1
枝管サイズ毎の形状
 41
0.75
  0
TEXT
  5
12A631
  8
SLIM
 10
2894.25
 20
-3697.4999999999959
 30
0.0
 40
35.0
  1
通常枝65（2）
 41
0.75
  0
CIRCLE
  5
12A632
  8
OBJECT
 10
2400.0
 20
-3520.9999999999968
 30
0.0
 40
62.0
1001
ACDBBLOCKREPETAG
1070
     1
1071
        3
1005
12A632
  0
LINE
  5
12A633
  8
CENTER
 10
2338.0
 20
-3535.9999999999968
 30
0.0
 11
2462.0
 21
-3535.9999999999968
 31
0.0
1001
ACDBBLOCKREPETAG
1070
     1
1071
        4
1005
12A633
  0
CIRCLE
  5
12A634
  8
OBJECT
 10
2400.0
 20
-3535.9999999999968
 30
0.0
 40
28.0
1001
ACDBBLOCKREPETAG
1070
     1
1071
        6
1005
12A634
  0
CIRCLE
  5
12A635
  8
OBJECT
 10
2400.0
 20
-3535.9999999999968
 30
0.0
 40
39.0
1001
ACDBBLOCKREPETAG
1070
     1
1071
        7
1005
12A635
  0
ARC
  5
12A636
  8
OBJECT
 10
2400.0
 20
-3535.9999999999968
 30
0.0
 40
47.0
 50
290.58196921144412
 51
249.41803078855591
1001
ACDBBLOCKREPETAG
1070
     1
1071
        8
1005
12A636
  0
LINE
  5
12A637
  8
OBJECT
 10
2383.4772883581431
 20
-3579.9999999999968
 30
0.0
 11
2416.5227116418569
 21
-3579.9999999999968
 31
0.0
1001
ACDBBLOCKREPETAG
1070
     1
1071
        9
1005
12A637
  0
LINE
  5
12A638
  8
OBJECT
 10
2123.0
 20
-3488.9999999999968
 30
0.0
 11
2130.0
 21
-3488.9999999999968
 31
0.0
1001
ACDBBLOCKREPETAG
1070
     1
1071
        7
1005
12A638
  0
LINE
  5
12A639
  8
OBJECT
 10
2130.0
 20
-3488.9999999999968
 30
0.0
 11
2130.0
 21
-3579.9999999999968
 31
0.0
1001
ACDBBLOCKREPETAG
1070
     1
1071
        8
1005
12A639
  0
LINE
  5
12A63A
  8
OBJECT
 10
2123.0
 20
-3579.9999999999968
 30
0.0
 11
2123.0
 21
-3488.9999999999968
 31
0.0
1001
ACDBBLOCKREPETAG
1070
     1
1071
        9
1005
12A63A
  0
LINE
  5
12A63B
  8
CENTER
 10
2145.0
 20
-3535.9999999999968
 30
0.0
 11
2060.9999999999991
 21
-3535.9999999999968
 31
0.0
1001
ACDBBLOCKREPETAG
1070
     1
1071
       10
1005
12A63B
  0
LINE
  5
12A63C
  8
OBJECT
 10
2123.0
 20
-3491.9999999999968
 30
0.0
 11
2087.0
 21
-3491.9999999999968
 31
0.0
1001
ACDBBLOCKREPETAG
1070
     1
1071
       11
1005
12A63C
  0
LINE
  5
12A63D
  8
OBJECT
 10
2087.0
 20
-3491.9999999999968
 30
0.0
 11
2087.0
 21
-3579.9999999999968
 31
0.0
1001
ACDBBLOCKREPETAG
1070
     1
1071
       12
1005
12A63D
  0
LINE
  5
12A63E
  8
OBJECT
 10
2087.0
 20
-3579.9999999999968
 30
0.0
 11
2130.0
 21
-3579.9999999999968
 31
0.0
1001
ACDBBLOCKREPETAG
1070
     1
1071
       13
1005
12A63E
  0
LINE
  5
12A63F
  8
OBJECT
 10
2083.0
 20
-3496.4999999999968
 30
0.0
 11
2076.0
 21
-3496.4999999999968
 31
0.0
1001
ACDBBLOCKREPETAG
1070
     1
1071
       14
1005
12A63F
  0
LINE
  5
12A640
  8
OBJECT
 10
2076.0
 20
-3575.4999999999968
 30
0.0
 11
2083.0
 21
-3575.4999999999968
 31
0.0
1001
ACDBBLOCKREPETAG
1070
     1
1071
       15
1005
12A640
  0
LINE
  5
12A641
  8
OBJECT
 10
2083.0
 20
-3575.4999999999968
 30
0.0
 11
2083.0
 21
-3496.4999999999968
 31
0.0
1001
ACDBBLOCKREPETAG
1070
     1
1071
       16
1005
12A641
  0
LINE
  5
12A642
  8
OBJECT
 10
2087.0
 20
-3491.9999999999968
 30
0.0
 11
2083.0
 21
-3496.4999999999968
 31
0.0
1001
ACDBBLOCKREPETAG
1070
     1
1071
       17
1005
12A642
  0
LINE
  5
12A643
  8
OBJECT
 10
2087.0
 20
-3579.9999999999968
 30
0.0
 11
2083.0
 21
-3575.4999999999968
 31
0.0
1001
ACDBBLOCKREPETAG
1070
     1
1071
       18
1005
12A643
  0
LINE
  5
12A644
  8
OBJECT
 10
2073.0
 20
-3458.9999999999968
 30
0.0
 11
2070.0
 21
-3458.9999999999968
 31
0.0
1001
ACDBBLOCKREPETAG
1070
     1
1071
       19
1005
12A644
  0
ARC
  5
12A645
  8
OBJECT
 10
2073.0
 20
-3461.9999999999968
 30
0.0
 40
3.0
 50
0.0
 51
90.0
1001
ACDBBLOCKREPETAG
1070
     1
1071
       20
1005
12A645
  0
LINE
  5
12A646
  8
OBJECT
 10
2070.0
 20
-3582.9999999999968
 30
0.0
 11
2073.0
 21
-3582.9999999999968
 31
0.0
1001
ACDBBLOCKREPETAG
1070
     1
1071
       21
1005
12A646
  0
ARC
  5
12A647
  8
OBJECT
 10
2073.0
 20
-3579.9999999999968
 30
0.0
 40
3.0
 50
270.0
 51
0.0
1001
ACDBBLOCKREPETAG
1070
     1
1071
       22
1005
12A647
  0
LINE
  5
12A648
  8
OBJECT
 10
2076.0
 20
-3579.9999999999968
 30
0.0
 11
2076.0
 21
-3461.9999999999968
 31
0.0
1001
ACDBBLOCKREPETAG
1070
     1
1071
       23
1005
12A648
  0
LINE
  5
12A649
  8
HIDDEN
 10
2078.0
 20
-3505.9999999999968
 30
0.0
 11
2078.0
 21
-3565.9999999999968
 31
0.0
1001
ACDBBLOCKREPETAG
1070
     1
1071
       24
1005
12A649
  0
TEXT
  5
12A64A
  8
SLIM
 10
1896.75
 20
-3697.4999999999959
 30
0.0
 40
35.0
  1
通常枝50（1）
 41
0.75
  0
LINE
  5
12A64B
  8
OBJECT
 10
11877.0
 20
-663.99999999999966
 30
0.0
 11
11870.0
 21
-663.99999999999966
 31
0.0
1001
ACDBBLOCKREPETAG
1070
     1
1071
        7
1005
12A64B
  0
LINE
  5
12A64C
  8
OBJECT
 10
11870.0
 20
-663.99999999999966
 30
0.0
 11
11870.0
 21
-754.99999999999955
 31
0.0
1001
ACDBBLOCKREPETAG
1070
     1
1071
        8
1005
12A64C
  0
LINE
  5
12A64D
  8
OBJECT
 10
11877.0
 20
-754.99999999999955
 30
0.0
 11
11877.0
 21
-663.99999999999966
 31
0.0
1001
ACDBBLOCKREPETAG
1070
     1
1071
        9
1005
12A64D
  0
LINE
  5
12A64E
  8
CENTER
 10
11855.0
 20
-710.99999999999955
 30
0.0
 11
11939.0
 21
-710.99999999999955
 31
0.0
1001
ACDBBLOCKREPETAG
1070
     1
1071
       10
1005
12A64E
  0
LINE
  5
12A64F
  8
OBJECT
 10
11877.0
 20
-666.99999999999955
 30
0.0
 11
11913.0
 21
-666.99999999999955
 31
0.0
1001
ACDBBLOCKREPETAG
1070
     1
1071
       11
1005
12A64F
  0
LINE
  5
12A650
  8
OBJECT
 10
11913.0
 20
-666.99999999999955
 30
0.0
 11
11913.0
 21
-754.99999999999955
 31
0.0
1001
ACDBBLOCKREPETAG
1070
     1
1071
       12
1005
12A650
  0
LINE
  5
12A651
  8
OBJECT
 10
11913.0
 20
-754.99999999999955
 30
0.0
 11
11870.0
 21
-754.99999999999955
 31
0.0
1001
ACDBBLOCKREPETAG
1070
     1
1071
       13
1005
12A651
  0
LINE
  5
12A652
  8
OBJECT
 10
11917.0
 20
-671.49999999999955
 30
0.0
 11
11924.0
 21
-671.49999999999955
 31
0.0
1001
ACDBBLOCKREPETAG
1070
     1
1071
       14
1005
12A652
  0
LINE
  5
12A653
  8
OBJECT
 10
11924.0
 20
-750.49999999999955
 30
0.0
 11
11917.0
 21
-750.49999999999955
 31
0.0
1001
ACDBBLOCKREPETAG
1070
     1
1071
       15
1005
12A653
  0
LINE
  5
12A654
  8
OBJECT
 10
11917.0
 20
-750.49999999999955
 30
0.0
 11
11917.0
 21
-671.49999999999955
 31
0.0
1001
ACDBBLOCKREPETAG
1070
     1
1071
       16
1005
12A654
  0
LINE
  5
12A655
  8
OBJECT
 10
11913.0
 20
-666.99999999999955
 30
0.0
 11
11917.0
 21
-671.49999999999955
 31
0.0
1001
ACDBBLOCKREPETAG
1070
     1
1071
       17
1005
12A655
  0
LINE
  5
12A656
  8
OBJECT
 10
11913.0
 20
-754.99999999999955
 30
0.0
 11
11917.0
 21
-750.49999999999955
 31
0.0
1001
ACDBBLOCKREPETAG
1070
     1
1071
       18
1005
12A656
  0
LINE
  5
12A657
  8
OBJECT
 10
11927.0
 20
-633.99999999999955
 30
0.0
 11
11930.0
 21
-633.99999999999955
 31
0.0
1001
ACDBBLOCKREPETAG
1070
     1
1071
       19
1005
12A657
  0
ARC
  5
12A658
  8
OBJECT
 10
11927.0
 20
-636.99999999999955
 30
0.0
 40
3.0
 50
90.0
 51
180.0
1001
ACDBBLOCKREPETAG
1070
     1
1071
       20
1005
12A658
  0
LINE
  5
12A659
  8
OBJECT
 10
11930.0
 20
-757.99999999999955
 30
0.0
 11
11927.0
 21
-757.99999999999955
 31
0.0
1001
ACDBBLOCKREPETAG
1070
     1
1071
       21
1005
12A659
  0
ARC
  5
12A65A
  8
OBJECT
 10
11927.0
 20
-754.99999999999955
 30
0.0
 40
3.0
 50
180.0
 51
270.0
1001
ACDBBLOCKREPETAG
1070
     1
1071
       22
1005
12A65A
  0
LINE
  5
12A65B
  8
OBJECT
 10
11924.0
 20
-754.99999999999955
 30
0.0
 11
11924.0
 21
-636.99999999999955
 31
0.0
1001
ACDBBLOCKREPETAG
1070
     1
1071
       23
1005
12A65B
  0
LINE
  5
12A65C
  8
HIDDEN
 10
11922.0
 20
-680.99999999999955
 30
0.0
 11
11922.0
 21
-740.99999999999955
 31
0.0
1001
ACDBBLOCKREPETAG
1070
     1
1071
       24
1005
12A65C
  0
CIRCLE
  5
12A65D
  8
OBJECT
 10
12000.0
 20
-696.0
 30
0.0
 40
62.0
1001
ACDBBLOCKREPETAG
1070
     1
1071
        0
1005
12A65D
  0
LINE
  5
12A65E
  8
OBJECT
 10
11935.0
 20
-549.99999999999955
 30
0.0
 11
11935.0
 21
-570.99999999999955
 31
0.0
1001
ACDBBLOCKREPETAG
1070
     1
1071
       16
1005
12A65E
  0
LINE
  5
12A65F
  8
OBJECT
 10
11935.0
 20
-570.99999999999955
 30
0.0
 11
12065.0
 21
-570.99999999999955
 31
0.0
1001
ACDBBLOCKREPETAG
1070
     1
1071
       17
1005
12A65F
  0
LINE
  5
12A660
  8
OBJECT
 10
12065.0
 20
-570.99999999999955
 30
0.0
 11
12065.0
 21
-549.99999999999955
 31
0.0
1001
ACDBBLOCKREPETAG
1070
     1
1071
       18
1005
12A660
  0
LINE
  5
12A661
  8
OBJECT
 10
12065.0
 20
-549.99999999999955
 30
0.0
 11
11935.0
 21
-549.99999999999955
 31
0.0
1001
ACDBBLOCKREPETAG
1070
     1
1071
       19
1005
12A661
  0
LINE
  5
12A662
  8
HIDDEN
 10
12044.5
 20
-619.99999999999955
 30
0.0
 11
11955.5
 21
-619.99999999999955
 31
0.0
1001
ACDBBLOCKREPETAG
1070
     1
1071
       20
1005
12A662
  0
LINE
  5
12A663
  8
CENTER
 10
12000.0
 20
-769.99999999999955
 30
0.0
 11
12000.0
 21
-534.99999999999955
 31
0.0
1001
ACDBBLOCKREPETAG
1070
     1
1071
       21
1005
12A663
  0
LINE
  5
12A664
  8
OBJECT
 10
11940.5
 20
-570.99999999999955
 30
0.0
 11
11940.5
 21
-633.99999999999955
 31
0.0
1001
ACDBBLOCKREPETAG
1070
     1
1071
       22
1005
12A664
  0
LINE
  5
12A665
  8
OBJECT
 10
11930.0
 20
-633.99999999999955
 30
0.0
 11
12070.0
 21
-633.99999999999955
 31
0.0
1001
ACDBBLOCKREPETAG
1070
     1
1071
       23
1005
12A665
  0
LINE
  5
12A666
  8
OBJECT
 10
12059.5
 20
-633.99999999999955
 30
0.0
 11
12059.5
 21
-570.99999999999955
 31
0.0
1001
ACDBBLOCKREPETAG
1070
     1
1071
       24
1005
12A666
  0
LINE
  5
12A667
  8
OBJECT
 10
11930.0
 20
-757.99999999999955
 30
0.0
 11
11930.0
 21
-769.99999999999955
 31
0.0
1001
ACDBBLOCKREPETAG
1070
     1
1071
       25
1005
12A667
  0
LINE
  5
12A668
  8
OBJECT
 10
11930.0
 20
-769.99999999999955
 30
0.0
 11
12070.0
 21
-769.99999999999955
 31
0.0
1001
ACDBBLOCKREPETAG
1070
     1
1071
       26
1005
12A668
  0
LINE
  5
12A669
  8
OBJECT
 10
12070.0
 20
-769.99999999999955
 30
0.0
 11
12070.0
 21
-757.99999999999955
 31
0.0
1001
ACDBBLOCKREPETAG
1070
     1
1071
       27
1005
12A669
  0
LINE
  5
12A66A
  8
OBJECT
 10
12070.0
 20
-757.99999999999955
 30
0.0
 11
11930.0
 21
-757.99999999999955
 31
0.0
1001
ACDBBLOCKREPETAG
1070
     1
1071
       28
1005
12A66A
  0
ARC
  5
12A66B
  8
OBJECT
 10
12435.038438994679
 20
-998.60813684682694
 30
0.0
 40
519.48776673616965
 50
135.42350667430969
 51
138.50052655621499
1001
ACDBBLOCKREPETAG
1070
     1
1071
       32
1005
12A66B
  0
ARC
  5
12A66C
  8
OBJECT
 10
12435.038438994679
 20
-393.39186315317193
 30
0.0
 40
519.48776673616965
 50
221.49947344378501
 51
224.57649332569039
1001
ACDBBLOCKREPETAG
1070
     1
1071
       33
1005
12A66C
  0
ARC
  5
12A66D
  8
OBJECT
 10
11564.961561005321
 20
-998.60813684682694
 30
0.0
 40
519.48776673616965
 50
41.499473443784993
 51
44.576493325690237
1001
ACDBBLOCKREPETAG
1070
     1
1071
       34
1005
12A66D
  0
ARC
  5
12A66E
  8
OBJECT
 10
11564.961561005321
 20
-393.39186315317193
 30
0.0
 40
519.48776673616965
 50
315.42350667430981
 51
318.50052655621488
1001
ACDBBLOCKREPETAG
1070
     1
1071
       35
1005
12A66E
  0
POINT
  5
12A66F
  8
DOTS
 10
12000.0
 20
-754.99999999999955
 30
0.0
1001
ACDBBLOCKREPETAG
1070
     1
1071
      111
1005
12A66F
  0
LINE
  5
12A670
  8
OBJECT
 10
11877.0
 20
-246.99999999999909
 30
0.0
 11
11870.0
 21
-246.99999999999909
 31
0.0
1001
ACDBBLOCKREPETAG
1070
     1
1071
        7
1005
12A670
  0
LINE
  5
12A671
  8
OBJECT
 10
11870.0
 20
-246.99999999999909
 30
0.0
 11
11870.0
 21
-152.99999999999909
 31
0.0
1001
ACDBBLOCKREPETAG
1070
     1
1071
        8
1005
12A671
  0
LINE
  5
12A672
  8
OBJECT
 10
11870.0
 20
-152.99999999999909
 30
0.0
 11
11877.0
 21
-152.99999999999909
 31
0.0
1001
ACDBBLOCKREPETAG
1070
     1
1071
        9
1005
12A672
  0
LINE
  5
12A673
  8
OBJECT
 10
11877.0
 20
-152.99999999999909
 30
0.0
 11
11877.0
 21
-246.99999999999909
 31
0.0
1001
ACDBBLOCKREPETAG
1070
     1
1071
       10
1005
12A673
  0
LINE
  5
12A674
  8
CENTER
 10
11855.0
 20
-199.99999999999909
 30
0.0
 11
11930.0
 21
-199.99999999999909
 31
0.0
1001
ACDBBLOCKREPETAG
1070
     1
1071
       11
1005
12A674
  0
LINE
  5
12A675
  8
OBJECT
 10
11877.0
 20
-243.99999999999909
 30
0.0
 11
11913.0
 21
-243.99999999999909
 31
0.0
1001
ACDBBLOCKREPETAG
1070
     1
1071
       12
1005
12A675
  0
LINE
  5
12A676
  8
OBJECT
 10
11913.0
 20
-243.99999999999909
 30
0.0
 11
11913.0
 21
-155.99999999999909
 31
0.0
1001
ACDBBLOCKREPETAG
1070
     1
1071
       13
1005
12A676
  0
LINE
  5
12A677
  8
OBJECT
 10
11913.0
 20
-155.99999999999909
 30
0.0
 11
11877.0
 21
-155.99999999999909
 31
0.0
1001
ACDBBLOCKREPETAG
1070
     1
1071
       14
1005
12A677
  0
LINE
  5
12A678
  8
OBJECT
 10
11917.0
 20
-239.49999999999909
 30
0.0
 11
11924.0
 21
-239.49999999999909
 31
0.0
1001
ACDBBLOCKREPETAG
1070
     1
1071
       15
1005
12A678
  0
LINE
  5
12A679
  8
OBJECT
 10
11924.0
 20
-160.49999999999909
 30
0.0
 11
11917.0
 21
-160.49999999999909
 31
0.0
1001
ACDBBLOCKREPETAG
1070
     1
1071
       16
1005
12A679
  0
LINE
  5
12A67A
  8
OBJECT
 10
11917.0
 20
-160.49999999999909
 30
0.0
 11
11917.0
 21
-239.49999999999909
 31
0.0
1001
ACDBBLOCKREPETAG
1070
     1
1071
       17
1005
12A67A
  0
LINE
  5
12A67B
  8
OBJECT
 10
11913.0
 20
-243.99999999999909
 30
0.0
 11
11917.0
 21
-239.49999999999909
 31
0.0
1001
ACDBBLOCKREPETAG
1070
     1
1071
       18
1005
12A67B
  0
LINE
  5
12A67C
  8
OBJECT
 10
11913.0
 20
-155.99999999999909
 30
0.0
 11
11917.0
 21
-160.49999999999909
 31
0.0
1001
ACDBBLOCKREPETAG
1070
     1
1071
       19
1005
12A67C
  0
LINE
  5
12A67D
  8
OBJECT
 10
11927.0
 20
-261.99999999999909
 30
0.0
 11
11930.0
 21
-261.99999999999909
 31
0.0
1001
ACDBBLOCKREPETAG
1070
     1
1071
       20
1005
12A67D
  0
ARC
  5
12A67E
  8
OBJECT
 10
11927.0
 20
-258.99999999999909
 30
0.0
 40
3.0
 50
180.0
 51
270.0
1001
ACDBBLOCKREPETAG
1070
     1
1071
       21
1005
12A67E
  0
LINE
  5
12A67F
  8
OBJECT
 10
11930.0
 20
-137.99999999999909
 30
0.0
 11
11927.0
 21
-137.99999999999909
 31
0.0
1001
ACDBBLOCKREPETAG
1070
     1
1071
       22
1005
12A67F
  0
ARC
  5
12A680
  8
OBJECT
 10
11927.0
 20
-140.99999999999909
 30
0.0
 40
3.0
 50
90.0
 51
180.0
1001
ACDBBLOCKREPETAG
1070
     1
1071
       23
1005
12A680
  0
LINE
  5
12A681
  8
OBJECT
 10
11924.0
 20
-140.99999999999909
 30
0.0
 11
11924.0
 21
-258.99999999999909
 31
0.0
1001
ACDBBLOCKREPETAG
1070
     1
1071
       24
1005
12A681
  0
LINE
  5
12A682
  8
HIDDEN
 10
11922.0
 20
-229.99999999999909
 30
0.0
 11
11922.0
 21
-169.99999999999909
 31
0.0
1001
ACDBBLOCKREPETAG
1070
     1
1071
       25
1005
12A682
  0
LINE
  5
12A683
  8
CENTER
 10
12000.0
 20
-290.99999999999898
 30
0.0
 11
12000.0
 21
-269.99999999999909
 31
0.0
1001
ACDBBLOCKREPETAG
1070
     1
1071
        0
1005
12A683
  0
LINE
  5
12A684
  8
OBJECT
 10
12062.0
 20
-273.0
 30
0.0
 11
12062.0
 21
-269.99999999999909
 31
0.0
1001
ACDBBLOCKREPETAG
1070
     1
1071
        1
1005
12A684
  0
ARC
  5
12A685
  8
OBJECT
 10
12059.0
 20
-273.0
 30
0.0
 40
3.0
 50
270.0
 51
0.0
1001
ACDBBLOCKREPETAG
1070
     1
1071
        2
1005
12A685
  0
LINE
  5
12A686
  8
OBJECT
 10
11938.0
 20
-269.99999999999909
 30
0.0
 11
11938.0
 21
-272.99999999999818
 31
0.0
1001
ACDBBLOCKREPETAG
1070
     1
1071
        3
1005
12A686
  0
ARC
  5
12A687
  8
OBJECT
 10
11941.0
 20
-272.99999999999818
 30
0.0
 40
3.0
 50
180.0
 51
270.0
1001
ACDBBLOCKREPETAG
1070
     1
1071
        4
1005
12A687
  0
LINE
  5
12A688
  8
OBJECT
 10
11941.0
 20
-275.99999999999818
 30
0.0
 11
12059.0
 21
-276.0
 31
0.0
1001
ACDBBLOCKREPETAG
1070
     1
1071
        5
1005
12A688
  0
LINE
  5
12A689
  8
SLIM
 10
11963.217182668241
 20
-137.99999999999909
 30
0.0
 11
11969.921507996291
 21
-131.29567467194681
 31
0.0
1001
GRADIENTCOLOR1ACI
1070
     5
1001
GRADIENTCOLOR2ACI
1070
     2
1001
ACAD
1010
0.0
1020
0.0
1030
0.0
1001
ACDBBLOCKREPETAG
1070
     1
1071
      169
1005
12A689
  0
LINE
  5
12A68A
  8
SLIM
 10
11972.19743878931
 20
-137.99999999999909
 30
0.0
 11
11983.31883633275
 21
-126.87860245655401
 31
0.0
1001
GRADIENTCOLOR1ACI
1070
     5
1001
GRADIENTCOLOR2ACI
1070
     2
1001
ACAD
1010
0.0
1020
0.0
1030
0.0
1001
ACDBBLOCKREPETAG
1070
     1
1071
      170
1005
12A68A
  0
LINE
  5
12A68B
  8
SLIM
 10
11981.48493728876
 20
-137.6927576216126
 30
0.0
 11
11993.9318052486
 21
-125.245889661777
 31
0.0
1001
GRADIENTCOLOR1ACI
1070
     5
1001
GRADIENTCOLOR2ACI
1070
     2
1001
ACAD
1010
0.0
1020
0.0
1030
0.0
1001
ACDBBLOCKREPETAG
1070
     1
1071
      171
1005
12A68B
  0
LINE
  5
12A68C
  8
SLIM
 10
11992.75265682803
 20
-135.40529420341099
 30
0.0
 11
12000.0
 21
-128.1579510314458
 31
0.0
1001
GRADIENTCOLOR1ACI
1070
     5
1001
GRADIENTCOLOR2ACI
1070
     2
1001
ACAD
1010
0.0
1020
0.0
1030
0.0
1001
ACDBBLOCKREPETAG
1070
     1
1071
      172
1005
12A68C
  0
LINE
  5
12A68D
  8
SLIM
 10
12000.0
 20
-128.1579510314458
 30
0.0
 11
12003.094100787839
 21
-125.0638502435924
 31
0.0
1001
GRADIENTCOLOR1ACI
1070
     5
1001
GRADIENTCOLOR2ACI
1070
     2
1001
ACAD
1010
0.0
1020
0.0
1030
0.0
1001
ACDBBLOCKREPETAG
1070
     1
1071
      173
1005
12A68D
  0
LINE
  5
12A68E
  8
SLIM
 10
12002.10414122347
 20
-135.03406592904389
 30
0.0
 11
12011.28442576865
 21
-125.85378138386341
 31
0.0
1001
GRADIENTCOLOR1ACI
1070
     5
1001
GRADIENTCOLOR2ACI
1070
     2
1001
ACAD
1010
0.0
1020
0.0
1030
0.0
1001
ACDBBLOCKREPETAG
1070
     1
1071
      174
1005
12A68E
  0
LINE
  5
12A68F
  8
SLIM
 10
12010.297585520921
 20
-135.82087775265759
 30
0.0
 11
12018.73958846552
 21
-127.3788748080627
 31
0.0
1001
GRADIENTCOLOR1ACI
1070
     5
1001
GRADIENTCOLOR2ACI
1070
     2
1001
ACAD
1010
0.0
1020
0.0
1030
0.0
1001
ACDBBLOCKREPETAG
1070
     1
1071
      175
1005
12A68F
  0
LINE
  5
12A690
  8
SLIM
 10
12017.655079364229
 20
-137.4436400304258
 30
0.0
 11
12025.595886626959
 21
-129.50283276769261
 31
0.0
1001
GRADIENTCOLOR1ACI
1070
     5
1001
GRADIENTCOLOR2ACI
1070
     2
1001
ACAD
1010
0.0
1020
0.0
1030
0.0
1001
ACDBBLOCKREPETAG
1070
     1
1071
      176
1005
12A690
  0
LINE
  5
12A691
  8
SLIM
 10
12026.07897551572
 20
-137.99999999999909
 30
0.0
 11
12031.9385859461
 21
-132.1403895696169
 31
0.0
1001
GRADIENTCOLOR1ACI
1070
     5
1001
GRADIENTCOLOR2ACI
1070
     2
1001
ACAD
1010
0.0
1020
0.0
1030
0.0
1001
ACDBBLOCKREPETAG
1070
     1
1071
      177
1005
12A691
  0
LINE
  5
12A692
  8
SLIM
 10
12035.059231636789
 20
-137.99999999999909
 30
0.0
 11
12037.82336543762
 21
-135.23586619916779
 31
0.0
1001
GRADIENTCOLOR1ACI
1070
     5
1001
GRADIENTCOLOR2ACI
1070
     2
1001
ACAD
1010
0.0
1020
0.0
1030
0.0
1001
ACDBBLOCKREPETAG
1070
     1
1071
      178
1005
12A692
  0
CIRCLE
  5
12A693
  8
OBJECT
 10
12000.0
 20
-199.99999999999909
 30
0.0
 40
65.0
1001
ACDBBLOCKREPETAG
1070
     1
1071
       84
1005
12A693
  0
CIRCLE
  5
12A694
  8
OBJECT
 10
12000.0
 20
-199.99999999999909
 30
0.0
 40
41.0
1001
ACDBBLOCKREPETAG
1070
     1
1071
       85
1005
12A694
  0
CIRCLE
  5
12A695
  8
OBJECT
 10
12000.0
 20
-199.99999999999909
 30
0.0
 40
58.0
1001
ACDBBLOCKREPETAG
1070
     1
1071
       86
1005
12A695
  0
LINE
  5
12A696
  8
OBJECT
 10
12070.0
 20
-137.99999999999909
 30
0.0
 11
12019.519221295939
 21
-137.99999999999909
 31
0.0
1001
ACDBBLOCKREPETAG
1070
     1
1071
       87
1005
12A696
  0
LINE
  5
12A697
  8
OBJECT
 10
11930.0
 20
-137.99999999999909
 30
0.0
 11
11980.48077870405
 21
-137.99999999999909
 31
0.0
1001
ACDBBLOCKREPETAG
1070
     1
1071
       88
1005
12A697
  0
LINE
  5
12A698
  8
OBJECT
 10
11930.0
 20
-261.99999999999909
 30
0.0
 11
11938.0
 21
-261.99999999999909
 31
0.0
1001
ACDBBLOCKREPETAG
1070
     1
1071
       89
1005
12A698
  0
LINE
  5
12A699
  8
OBJECT
 10
11938.0
 20
-269.99999999999909
 30
0.0
 11
11938.0
 21
-261.99999999999909
 31
0.0
1001
ACDBBLOCKREPETAG
1070
     1
1071
       90
1005
12A699
  0
LINE
  5
12A69A
  8
OBJECT
 10
12070.0
 20
-261.99999999999909
 30
0.0
 11
12062.0
 21
-261.99999999999909
 31
0.0
1001
ACDBBLOCKREPETAG
1070
     1
1071
       91
1005
12A69A
  0
LINE
  5
12A69B
  8
OBJECT
 10
12062.0
 20
-269.99999999999909
 30
0.0
 11
12062.0
 21
-261.99999999999909
 31
0.0
1001
ACDBBLOCKREPETAG
1070
     1
1071
       92
1005
12A69B
  0
LINE
  5
12A69C
  8
CENTER
 10
11930.0
 20
-199.99999999999909
 30
0.0
 11
12070.0
 21
-199.99999999999909
 31
0.0
1001
ACDBBLOCKREPETAG
1070
     1
1071
       93
1005
12A69C
  0
LINE
  5
12A69D
  8
CENTER
 10
12000.0
 20
-269.99999999999909
 30
0.0
 11
12000.0
 21
-109.9999999999991
 31
0.0
1001
ACDBBLOCKREPETAG
1070
     1
1071
       94
1005
12A69D
  0
ARC
  5
12A69E
  8
OBJECT
 10
11989.902762139191
 20
-224.44352901899131
 30
0.0
 40
7.0
 50
73.00127222950276
 51
154.0502587892864
1001
ACDBBLOCKREPETAG
1070
     1
1071
       95
1005
12A69E
  0
ARC
  5
12A69F
  8
OBJECT
 10
11986.837661070649
 20
-225.5978773169509
 30
0.0
 40
9.0
 50
73.00127222950276
 51
154.0502639259247
1001
ACDBBLOCKREPETAG
1070
     1
1071
       96
1005
12A69F
  0
ARC
  5
12A6A0
  8
OBJECT
 10
11896.314230131549
 20
-147.28130031148149
 30
0.0
 40
150.0
 50
322.8950337398245
 51
325.8931499695608
1001
ACDBBLOCKREPETAG
1070
     1
1071
       97
1005
12A6A0
  0
ARC
  5
12A6A1
  8
OBJECT
 10
12000.0
 20
-199.99999999999909
 30
0.0
 40
37.5
 50
303.16276667665232
 51
229.16350249104781
1001
ACDBBLOCKREPETAG
1070
     1
1071
       98
1005
12A6A1
  0
LINE
  5
12A6A2
  8
OBJECT
 10
11983.608514518981
 20
-221.38045100897119
 30
0.0
 11
11977.374011
 21
-234.1915870000002
 31
0.0
1001
ACDBBLOCKREPETAG
1070
     1
1071
       99
1005
12A6A2
  0
LINE
  5
12A6A3
  8
OBJECT
 10
11978.74505663446
 20
-221.65963488670511
 30
0.0
 11
11973.898671999999
 21
-231.6183599999996
 31
0.0
1001
ACDBBLOCKREPETAG
1070
     1
1071
      100
1005
12A6A3
  0
LINE
  5
12A6A4
  8
OBJECT
 10
12018.938018000001
 20
-226.00000000000091
 30
0.0
 11
11989.468815303249
 21
-216.99107608744359
 31
0.0
1001
ACDBBLOCKREPETAG
1070
     1
1071
      101
1005
12A6A4
  0
LINE
  5
12A6A5
  8
OBJECT
 10
12020.513225309
 20
-231.39199878029191
 30
0.0
 11
12018.938018000001
 21
-226.00000000000091
 31
0.0
1001
ACDBBLOCKREPETAG
1070
     1
1071
      102
1005
12A6A5
  0
LINE
  5
12A6A6
  8
OBJECT
 10
11954.03805922287
 20
-245.96194077712289
 30
0.0
 11
11938.0
 21
-261.99999999999909
 31
0.0
1001
ACDBBLOCKREPETAG
1070
     1
1071
      106
1005
12A6A6
  0
LINE
  5
12A6A7
  8
OBJECT
 10
12045.96194077713
 20
-245.96194077712289
 30
0.0
 11
12062.0
 21
-261.99999999999909
 31
0.0
1001
ACDBBLOCKREPETAG
1070
     1
1071
      107
1005
12A6A7
  0
ARC
  5
12A6A8
  8
OBJECT
 10
12000.0
 20
-199.99999999999909
 30
0.0
 40
75.0
 50
55.757831297238091
 51
124.2421687027619
1001
ACDBBLOCKREPETAG
1070
     1
1071
      108
1005
12A6A8
  0
POINT
  5
12A6A9
  8
DOTS
 10
12000.0
 20
-199.99999999999909
 30
0.0
 50
270.0
1001
ACDBBLOCKREPETAG
1070
     1
1071
      157
1005
12A6A9
  0
LINE
  5
12A6AA
  8
OBJECT
 10
12123.0
 20
-663.99999999999966
 30
0.0
 11
12130.0
 21
-663.99999999999966
 31
0.0
1001
ACDBBLOCKREPETAG
1070
     1
1071
        7
1005
12A6AA
  0
LINE
  5
12A6AB
  8
OBJECT
 10
12130.0
 20
-663.99999999999966
 30
0.0
 11
12130.0
 21
-754.99999999999955
 31
0.0
1001
ACDBBLOCKREPETAG
1070
     1
1071
        8
1005
12A6AB
  0
LINE
  5
12A6AC
  8
OBJECT
 10
12123.0
 20
-754.99999999999955
 30
0.0
 11
12123.0
 21
-663.99999999999966
 31
0.0
1001
ACDBBLOCKREPETAG
1070
     1
1071
        9
1005
12A6AC
  0
LINE
  5
12A6AD
  8
CENTER
 10
12145.0
 20
-710.99999999999955
 30
0.0
 11
12061.0
 21
-710.99999999999955
 31
0.0
1001
ACDBBLOCKREPETAG
1070
     1
1071
       10
1005
12A6AD
  0
LINE
  5
12A6AE
  8
OBJECT
 10
12123.0
 20
-666.99999999999955
 30
0.0
 11
12087.0
 21
-666.99999999999955
 31
0.0
1001
ACDBBLOCKREPETAG
1070
     1
1071
       11
1005
12A6AE
  0
LINE
  5
12A6AF
  8
OBJECT
 10
12087.0
 20
-666.99999999999955
 30
0.0
 11
12087.0
 21
-754.99999999999955
 31
0.0
1001
ACDBBLOCKREPETAG
1070
     1
1071
       12
1005
12A6AF
  0
LINE
  5
12A6B0
  8
OBJECT
 10
12087.0
 20
-754.99999999999955
 30
0.0
 11
12130.0
 21
-754.99999999999955
 31
0.0
1001
ACDBBLOCKREPETAG
1070
     1
1071
       13
1005
12A6B0
  0
LINE
  5
12A6B1
  8
OBJECT
 10
12083.0
 20
-671.49999999999955
 30
0.0
 11
12076.0
 21
-671.49999999999955
 31
0.0
1001
ACDBBLOCKREPETAG
1070
     1
1071
       14
1005
12A6B1
  0
LINE
  5
12A6B2
  8
OBJECT
 10
12076.0
 20
-750.49999999999955
 30
0.0
 11
12083.0
 21
-750.49999999999955
 31
0.0
1001
ACDBBLOCKREPETAG
1070
     1
1071
       15
1005
12A6B2
  0
LINE
  5
12A6B3
  8
OBJECT
 10
12083.0
 20
-750.49999999999955
 30
0.0
 11
12083.0
 21
-671.49999999999955
 31
0.0
1001
ACDBBLOCKREPETAG
1070
     1
1071
       16
1005
12A6B3
  0
LINE
  5
12A6B4
  8
OBJECT
 10
12087.0
 20
-666.99999999999955
 30
0.0
 11
12083.0
 21
-671.49999999999955
 31
0.0
1001
ACDBBLOCKREPETAG
1070
     1
1071
       17
1005
12A6B4
  0
LINE
  5
12A6B5
  8
OBJECT
 10
12087.0
 20
-754.99999999999955
 30
0.0
 11
12083.0
 21
-750.49999999999955
 31
0.0
1001
ACDBBLOCKREPETAG
1070
     1
1071
       18
1005
12A6B5
  0
LINE
  5
12A6B6
  8
OBJECT
 10
12073.0
 20
-633.99999999999955
 30
0.0
 11
12070.0
 21
-633.99999999999955
 31
0.0
1001
ACDBBLOCKREPETAG
1070
     1
1071
       19
1005
12A6B6
  0
ARC
  5
12A6B7
  8
OBJECT
 10
12073.0
 20
-636.99999999999955
 30
0.0
 40
3.0
 50
0.0
 51
90.0
1001
ACDBBLOCKREPETAG
1070
     1
1071
       20
1005
12A6B7
  0
LINE
  5
12A6B8
  8
OBJECT
 10
12070.0
 20
-757.99999999999955
 30
0.0
 11
12073.0
 21
-757.99999999999955
 31
0.0
1001
ACDBBLOCKREPETAG
1070
     1
1071
       21
1005
12A6B8
  0
ARC
  5
12A6B9
  8
OBJECT
 10
12073.0
 20
-754.99999999999955
 30
0.0
 40
3.0
 50
270.0
 51
0.0
1001
ACDBBLOCKREPETAG
1070
     1
1071
       22
1005
12A6B9
  0
LINE
  5
12A6BA
  8
OBJECT
 10
12076.0
 20
-754.99999999999955
 30
0.0
 11
12076.0
 21
-636.99999999999955
 31
0.0
1001
ACDBBLOCKREPETAG
1070
     1
1071
       23
1005
12A6BA
  0
LINE
  5
12A6BB
  8
HIDDEN
 10
12078.0
 20
-680.99999999999955
 30
0.0
 11
12078.0
 21
-740.99999999999955
 31
0.0
1001
ACDBBLOCKREPETAG
1070
     1
1071
       24
1005
12A6BB
  0
LINE
  5
12A6BC
  8
OBJECT
 10
12123.0
 20
-152.99999999999909
 30
0.0
 11
12130.0
 21
-152.99999999999909
 31
0.0
1001
ACDBBLOCKREPETAG
1070
     1
1071
        7
1005
12A6BC
  0
LINE
  5
12A6BD
  8
OBJECT
 10
12130.0
 20
-152.99999999999909
 30
0.0
 11
12130.0
 21
-246.99999999999909
 31
0.0
1001
ACDBBLOCKREPETAG
1070
     1
1071
        8
1005
12A6BD
  0
LINE
  5
12A6BE
  8
OBJECT
 10
12130.0
 20
-246.99999999999909
 30
0.0
 11
12123.0
 21
-246.99999999999909
 31
0.0
1001
ACDBBLOCKREPETAG
1070
     1
1071
        9
1005
12A6BE
  0
LINE
  5
12A6BF
  8
OBJECT
 10
12123.0
 20
-246.99999999999909
 30
0.0
 11
12123.0
 21
-152.99999999999909
 31
0.0
1001
ACDBBLOCKREPETAG
1070
     1
1071
       10
1005
12A6BF
  0
LINE
  5
12A6C0
  8
CENTER
 10
12145.0
 20
-199.99999999999909
 30
0.0
 11
12070.0
 21
-199.99999999999909
 31
0.0
1001
ACDBBLOCKREPETAG
1070
     1
1071
       11
1005
12A6C0
  0
LINE
  5
12A6C1
  8
OBJECT
 10
12123.0
 20
-155.99999999999909
 30
0.0
 11
12087.0
 21
-155.99999999999909
 31
0.0
1001
ACDBBLOCKREPETAG
1070
     1
1071
       12
1005
12A6C1
  0
LINE
  5
12A6C2
  8
OBJECT
 10
12087.0
 20
-155.99999999999909
 30
0.0
 11
12087.0
 21
-243.99999999999909
 31
0.0
1001
ACDBBLOCKREPETAG
1070
     1
1071
       13
1005
12A6C2
  0
LINE
  5
12A6C3
  8
OBJECT
 10
12087.0
 20
-243.99999999999909
 30
0.0
 11
12123.0
 21
-243.99999999999909
 31
0.0
1001
ACDBBLOCKREPETAG
1070
     1
1071
       14
1005
12A6C3
  0
LINE
  5
12A6C4
  8
OBJECT
 10
12083.0
 20
-160.49999999999909
 30
0.0
 11
12076.0
 21
-160.49999999999909
 31
0.0
1001
ACDBBLOCKREPETAG
1070
     1
1071
       15
1005
12A6C4
  0
LINE
  5
12A6C5
  8
OBJECT
 10
12076.0
 20
-239.49999999999909
 30
0.0
 11
12083.0
 21
-239.49999999999909
 31
0.0
1001
ACDBBLOCKREPETAG
1070
     1
1071
       16
1005
12A6C5
  0
LINE
  5
12A6C6
  8
OBJECT
 10
12083.0
 20
-239.49999999999909
 30
0.0
 11
12083.0
 21
-160.49999999999909
 31
0.0
1001
ACDBBLOCKREPETAG
1070
     1
1071
       17
1005
12A6C6
  0
LINE
  5
12A6C7
  8
OBJECT
 10
12087.0
 20
-155.99999999999909
 30
0.0
 11
12083.0
 21
-160.49999999999909
 31
0.0
1001
ACDBBLOCKREPETAG
1070
     1
1071
       18
1005
12A6C7
  0
LINE
  5
12A6C8
  8
OBJECT
 10
12087.0
 20
-243.99999999999909
 30
0.0
 11
12083.0
 21
-239.49999999999909
 31
0.0
1001
ACDBBLOCKREPETAG
1070
     1
1071
       19
1005
12A6C8
  0
LINE
  5
12A6C9
  8
OBJECT
 10
12073.0
 20
-137.99999999999909
 30
0.0
 11
12070.0
 21
-137.99999999999909
 31
0.0
1001
ACDBBLOCKREPETAG
1070
     1
1071
       20
1005
12A6C9
  0
ARC
  5
12A6CA
  8
OBJECT
 10
12073.0
 20
-140.99999999999909
 30
0.0
 40
3.0
 50
0.0
 51
90.0
1001
ACDBBLOCKREPETAG
1070
     1
1071
       21
1005
12A6CA
  0
LINE
  5
12A6CB
  8
OBJECT
 10
12070.0
 20
-261.99999999999909
 30
0.0
 11
12073.0
 21
-261.99999999999909
 31
0.0
1001
ACDBBLOCKREPETAG
1070
     1
1071
       22
1005
12A6CB
  0
ARC
  5
12A6CC
  8
OBJECT
 10
12073.0
 20
-258.99999999999909
 30
0.0
 40
3.0
 50
270.0
 51
0.0
1001
ACDBBLOCKREPETAG
1070
     1
1071
       23
1005
12A6CC
  0
LINE
  5
12A6CD
  8
OBJECT
 10
12076.0
 20
-258.99999999999909
 30
0.0
 11
12076.0
 21
-140.99999999999909
 31
0.0
1001
ACDBBLOCKREPETAG
1070
     1
1071
       24
1005
12A6CD
  0
LINE
  5
12A6CE
  8
HIDDEN
 10
12078.0
 20
-169.99999999999909
 30
0.0
 11
12078.0
 21
-229.99999999999909
 31
0.0
1001
ACDBBLOCKREPETAG
1070
     1
1071
       25
1005
12A6CE
  0
LINE
  5
12A6CF
  8
OBJECT
 10
9877.0
 20
-663.99999999999966
 30
0.0
 11
9870.0
 21
-663.99999999999966
 31
0.0
1001
ACDBBLOCKREPETAG
1070
     1
1071
        7
1005
12A6CF
  0
LINE
  5
12A6D0
  8
OBJECT
 10
9870.0
 20
-663.99999999999966
 30
0.0
 11
9870.0
 21
-754.99999999999955
 31
0.0
1001
ACDBBLOCKREPETAG
1070
     1
1071
        8
1005
12A6D0
  0
LINE
  5
12A6D1
  8
OBJECT
 10
9877.0
 20
-754.99999999999955
 30
0.0
 11
9877.0
 21
-663.99999999999966
 31
0.0
1001
ACDBBLOCKREPETAG
1070
     1
1071
        9
1005
12A6D1
  0
LINE
  5
12A6D2
  8
CENTER
 10
9855.0
 20
-710.99999999999955
 30
0.0
 11
9939.0
 21
-710.99999999999955
 31
0.0
1001
ACDBBLOCKREPETAG
1070
     1
1071
       10
1005
12A6D2
  0
LINE
  5
12A6D3
  8
OBJECT
 10
9877.0
 20
-666.99999999999955
 30
0.0
 11
9913.0
 21
-666.99999999999955
 31
0.0
1001
ACDBBLOCKREPETAG
1070
     1
1071
       11
1005
12A6D3
  0
LINE
  5
12A6D4
  8
OBJECT
 10
9913.0
 20
-666.99999999999955
 30
0.0
 11
9913.0
 21
-754.99999999999955
 31
0.0
1001
ACDBBLOCKREPETAG
1070
     1
1071
       12
1005
12A6D4
  0
LINE
  5
12A6D5
  8
OBJECT
 10
9913.0
 20
-754.99999999999955
 30
0.0
 11
9870.0
 21
-754.99999999999955
 31
0.0
1001
ACDBBLOCKREPETAG
1070
     1
1071
       13
1005
12A6D5
  0
LINE
  5
12A6D6
  8
OBJECT
 10
9917.0
 20
-671.49999999999955
 30
0.0
 11
9924.0
 21
-671.49999999999955
 31
0.0
1001
ACDBBLOCKREPETAG
1070
     1
1071
       14
1005
12A6D6
  0
LINE
  5
12A6D7
  8
OBJECT
 10
9924.0
 20
-750.49999999999955
 30
0.0
 11
9917.0
 21
-750.49999999999955
 31
0.0
1001
ACDBBLOCKREPETAG
1070
     1
1071
       15
1005
12A6D7
  0
LINE
  5
12A6D8
  8
OBJECT
 10
9917.0
 20
-750.49999999999955
 30
0.0
 11
9917.0
 21
-671.49999999999955
 31
0.0
1001
ACDBBLOCKREPETAG
1070
     1
1071
       16
1005
12A6D8
  0
LINE
  5
12A6D9
  8
OBJECT
 10
9913.0
 20
-666.99999999999955
 30
0.0
 11
9917.0
 21
-671.49999999999955
 31
0.0
1001
ACDBBLOCKREPETAG
1070
     1
1071
       17
1005
12A6D9
  0
LINE
  5
12A6DA
  8
OBJECT
 10
9913.0
 20
-754.99999999999955
 30
0.0
 11
9917.0
 21
-750.49999999999955
 31
0.0
1001
ACDBBLOCKREPETAG
1070
     1
1071
       18
1005
12A6DA
  0
LINE
  5
12A6DB
  8
OBJECT
 10
9927.0
 20
-633.99999999999955
 30
0.0
 11
9930.0
 21
-633.99999999999955
 31
0.0
1001
ACDBBLOCKREPETAG
1070
     1
1071
       19
1005
12A6DB
  0
ARC
  5
12A6DC
  8
OBJECT
 10
9927.0
 20
-636.99999999999955
 30
0.0
 40
3.0
 50
90.0
 51
180.0
1001
ACDBBLOCKREPETAG
1070
     1
1071
       20
1005
12A6DC
  0
LINE
  5
12A6DD
  8
OBJECT
 10
9930.0
 20
-757.99999999999955
 30
0.0
 11
9927.0
 21
-757.99999999999955
 31
0.0
1001
ACDBBLOCKREPETAG
1070
     1
1071
       21
1005
12A6DD
  0
ARC
  5
12A6DE
  8
OBJECT
 10
9927.0
 20
-754.99999999999955
 30
0.0
 40
3.0
 50
180.0
 51
270.0
1001
ACDBBLOCKREPETAG
1070
     1
1071
       22
1005
12A6DE
  0
LINE
  5
12A6DF
  8
OBJECT
 10
9924.0
 20
-754.99999999999955
 30
0.0
 11
9924.0
 21
-636.99999999999955
 31
0.0
1001
ACDBBLOCKREPETAG
1070
     1
1071
       23
1005
12A6DF
  0
LINE
  5
12A6E0
  8
HIDDEN
 10
9922.0
 20
-680.99999999999955
 30
0.0
 11
9922.0
 21
-740.99999999999955
 31
0.0
1001
ACDBBLOCKREPETAG
1070
     1
1071
       24
1005
12A6E0
  0
CIRCLE
  5
12A6E1
  8
OBJECT
 10
10000.0
 20
-696.0
 30
0.0
 40
62.0
1001
ACDBBLOCKREPETAG
1070
     1
1071
        0
1005
12A6E1
  0
LINE
  5
12A6E2
  8
OBJECT
 10
9935.0
 20
-549.99999999999955
 30
0.0
 11
9935.0
 21
-570.99999999999955
 31
0.0
1001
ACDBBLOCKREPETAG
1070
     1
1071
       16
1005
12A6E2
  0
LINE
  5
12A6E3
  8
OBJECT
 10
9935.0
 20
-570.99999999999955
 30
0.0
 11
10065.0
 21
-570.99999999999955
 31
0.0
1001
ACDBBLOCKREPETAG
1070
     1
1071
       17
1005
12A6E3
  0
LINE
  5
12A6E4
  8
OBJECT
 10
10065.0
 20
-570.99999999999955
 30
0.0
 11
10065.0
 21
-549.99999999999955
 31
0.0
1001
ACDBBLOCKREPETAG
1070
     1
1071
       18
1005
12A6E4
  0
LINE
  5
12A6E5
  8
OBJECT
 10
10065.0
 20
-549.99999999999955
 30
0.0
 11
9935.0
 21
-549.99999999999955
 31
0.0
1001
ACDBBLOCKREPETAG
1070
     1
1071
       19
1005
12A6E5
  0
LINE
  5
12A6E6
  8
HIDDEN
 10
10044.5
 20
-619.99999999999955
 30
0.0
 11
9955.5
 21
-619.99999999999955
 31
0.0
1001
ACDBBLOCKREPETAG
1070
     1
1071
       20
1005
12A6E6
  0
LINE
  5
12A6E7
  8
CENTER
 10
10000.0
 20
-769.99999999999955
 30
0.0
 11
10000.0
 21
-534.99999999999955
 31
0.0
1001
ACDBBLOCKREPETAG
1070
     1
1071
       21
1005
12A6E7
  0
LINE
  5
12A6E8
  8
OBJECT
 10
9940.5
 20
-570.99999999999955
 30
0.0
 11
9940.5
 21
-633.99999999999955
 31
0.0
1001
ACDBBLOCKREPETAG
1070
     1
1071
       22
1005
12A6E8
  0
LINE
  5
12A6E9
  8
OBJECT
 10
9930.0
 20
-633.99999999999955
 30
0.0
 11
10070.0
 21
-633.99999999999955
 31
0.0
1001
ACDBBLOCKREPETAG
1070
     1
1071
       23
1005
12A6E9
  0
LINE
  5
12A6EA
  8
OBJECT
 10
10059.5
 20
-633.99999999999955
 30
0.0
 11
10059.5
 21
-570.99999999999955
 31
0.0
1001
ACDBBLOCKREPETAG
1070
     1
1071
       24
1005
12A6EA
  0
LINE
  5
12A6EB
  8
OBJECT
 10
9930.0
 20
-757.99999999999955
 30
0.0
 11
9930.0
 21
-769.99999999999955
 31
0.0
1001
ACDBBLOCKREPETAG
1070
     1
1071
       25
1005
12A6EB
  0
LINE
  5
12A6EC
  8
OBJECT
 10
9930.0
 20
-769.99999999999955
 30
0.0
 11
10070.0
 21
-769.99999999999955
 31
0.0
1001
ACDBBLOCKREPETAG
1070
     1
1071
       26
1005
12A6EC
  0
LINE
  5
12A6ED
  8
OBJECT
 10
10070.0
 20
-769.99999999999955
 30
0.0
 11
10070.0
 21
-757.99999999999955
 31
0.0
1001
ACDBBLOCKREPETAG
1070
     1
1071
       27
1005
12A6ED
  0
LINE
  5
12A6EE
  8
OBJECT
 10
10070.0
 20
-757.99999999999955
 30
0.0
 11
9930.0
 21
-757.99999999999955
 31
0.0
1001
ACDBBLOCKREPETAG
1070
     1
1071
       28
1005
12A6EE
  0
ARC
  5
12A6EF
  8
OBJECT
 10
10435.03843899467
 20
-998.60813684682694
 30
0.0
 40
519.48776673616965
 50
135.42350667430969
 51
138.50052655621499
1001
ACDBBLOCKREPETAG
1070
     1
1071
       32
1005
12A6EF
  0
ARC
  5
12A6F0
  8
OBJECT
 10
10435.03843899467
 20
-393.39186315317193
 30
0.0
 40
519.48776673616965
 50
221.49947344378501
 51
224.57649332569039
1001
ACDBBLOCKREPETAG
1070
     1
1071
       33
1005
12A6F0
  0
ARC
  5
12A6F1
  8
OBJECT
 10
9564.9615610053243
 20
-998.60813684682694
 30
0.0
 40
519.48776673616965
 50
41.499473443784993
 51
44.576493325690237
1001
ACDBBLOCKREPETAG
1070
     1
1071
       34
1005
12A6F1
  0
ARC
  5
12A6F2
  8
OBJECT
 10
9564.9615610053243
 20
-393.39186315317193
 30
0.0
 40
519.48776673616965
 50
315.42350667430981
 51
318.50052655621488
1001
ACDBBLOCKREPETAG
1070
     1
1071
       35
1005
12A6F2
  0
POINT
  5
12A6F3
  8
DOTS
 10
10000.0
 20
-754.99999999999955
 30
0.0
1001
ACDBBLOCKREPETAG
1070
     1
1071
      111
1005
12A6F3
  0
LINE
  5
12A6F4
  8
OBJECT
 10
9877.0
 20
-246.99999999999909
 30
0.0
 11
9870.0
 21
-246.99999999999909
 31
0.0
1001
ACDBBLOCKREPETAG
1070
     1
1071
        7
1005
12A6F4
  0
LINE
  5
12A6F5
  8
OBJECT
 10
9870.0
 20
-246.99999999999909
 30
0.0
 11
9870.0
 21
-152.99999999999909
 31
0.0
1001
ACDBBLOCKREPETAG
1070
     1
1071
        8
1005
12A6F5
  0
LINE
  5
12A6F6
  8
OBJECT
 10
9870.0
 20
-152.99999999999909
 30
0.0
 11
9877.0
 21
-152.99999999999909
 31
0.0
1001
ACDBBLOCKREPETAG
1070
     1
1071
        9
1005
12A6F6
  0
LINE
  5
12A6F7
  8
OBJECT
 10
9877.0
 20
-152.99999999999909
 30
0.0
 11
9877.0
 21
-246.99999999999909
 31
0.0
1001
ACDBBLOCKREPETAG
1070
     1
1071
       10
1005
12A6F7
  0
LINE
  5
12A6F8
  8
CENTER
 10
9855.0
 20
-199.99999999999909
 30
0.0
 11
9930.0
 21
-199.99999999999909
 31
0.0
1001
ACDBBLOCKREPETAG
1070
     1
1071
       11
1005
12A6F8
  0
LINE
  5
12A6F9
  8
OBJECT
 10
9877.0
 20
-243.99999999999909
 30
0.0
 11
9913.0
 21
-243.99999999999909
 31
0.0
1001
ACDBBLOCKREPETAG
1070
     1
1071
       12
1005
12A6F9
  0
LINE
  5
12A6FA
  8
OBJECT
 10
9913.0
 20
-243.99999999999909
 30
0.0
 11
9913.0
 21
-155.99999999999909
 31
0.0
1001
ACDBBLOCKREPETAG
1070
     1
1071
       13
1005
12A6FA
  0
LINE
  5
12A6FB
  8
OBJECT
 10
9913.0
 20
-155.99999999999909
 30
0.0
 11
9877.0
 21
-155.99999999999909
 31
0.0
1001
ACDBBLOCKREPETAG
1070
     1
1071
       14
1005
12A6FB
  0
LINE
  5
12A6FC
  8
OBJECT
 10
9917.0
 20
-239.49999999999909
 30
0.0
 11
9924.0
 21
-239.49999999999909
 31
0.0
1001
ACDBBLOCKREPETAG
1070
     1
1071
       15
1005
12A6FC
  0
LINE
  5
12A6FD
  8
OBJECT
 10
9924.0
 20
-160.49999999999909
 30
0.0
 11
9917.0
 21
-160.49999999999909
 31
0.0
1001
ACDBBLOCKREPETAG
1070
     1
1071
       16
1005
12A6FD
  0
LINE
  5
12A6FE
  8
OBJECT
 10
9917.0
 20
-160.49999999999909
 30
0.0
 11
9917.0
 21
-239.49999999999909
 31
0.0
1001
ACDBBLOCKREPETAG
1070
     1
1071
       17
1005
12A6FE
  0
LINE
  5
12A6FF
  8
OBJECT
 10
9913.0
 20
-243.99999999999909
 30
0.0
 11
9917.0
 21
-239.49999999999909
 31
0.0
1001
ACDBBLOCKREPETAG
1070
     1
1071
       18
1005
12A6FF
  0
LINE
  5
12A700
  8
OBJECT
 10
9913.0
 20
-155.99999999999909
 30
0.0
 11
9917.0
 21
-160.49999999999909
 31
0.0
1001
ACDBBLOCKREPETAG
1070
     1
1071
       19
1005
12A700
  0
LINE
  5
12A701
  8
OBJECT
 10
9927.0
 20
-261.99999999999909
 30
0.0
 11
9930.0
 21
-261.99999999999909
 31
0.0
1001
ACDBBLOCKREPETAG
1070
     1
1071
       20
1005
12A701
  0
ARC
  5
12A702
  8
OBJECT
 10
9927.0
 20
-258.99999999999909
 30
0.0
 40
3.0
 50
180.0
 51
270.0
1001
ACDBBLOCKREPETAG
1070
     1
1071
       21
1005
12A702
  0
LINE
  5
12A703
  8
OBJECT
 10
9930.0
 20
-137.99999999999909
 30
0.0
 11
9927.0
 21
-137.99999999999909
 31
0.0
1001
ACDBBLOCKREPETAG
1070
     1
1071
       22
1005
12A703
  0
ARC
  5
12A704
  8
OBJECT
 10
9927.0
 20
-140.99999999999909
 30
0.0
 40
3.0
 50
90.0
 51
180.0
1001
ACDBBLOCKREPETAG
1070
     1
1071
       23
1005
12A704
  0
LINE
  5
12A705
  8
OBJECT
 10
9924.0
 20
-140.99999999999909
 30
0.0
 11
9924.0
 21
-258.99999999999909
 31
0.0
1001
ACDBBLOCKREPETAG
1070
     1
1071
       24
1005
12A705
  0
LINE
  5
12A706
  8
HIDDEN
 10
9922.0
 20
-229.99999999999909
 30
0.0
 11
9922.0
 21
-169.99999999999909
 31
0.0
1001
ACDBBLOCKREPETAG
1070
     1
1071
       25
1005
12A706
  0
LINE
  5
12A707
  8
CENTER
 10
10000.0
 20
-290.99999999999898
 30
0.0
 11
10000.0
 21
-269.99999999999909
 31
0.0
1001
ACDBBLOCKREPETAG
1070
     1
1071
        0
1005
12A707
  0
LINE
  5
12A708
  8
OBJECT
 10
10062.0
 20
-273.0
 30
0.0
 11
10062.0
 21
-269.99999999999909
 31
0.0
1001
ACDBBLOCKREPETAG
1070
     1
1071
        1
1005
12A708
  0
ARC
  5
12A709
  8
OBJECT
 10
10059.0
 20
-273.0
 30
0.0
 40
3.0
 50
270.0
 51
0.0
1001
ACDBBLOCKREPETAG
1070
     1
1071
        2
1005
12A709
  0
LINE
  5
12A70A
  8
OBJECT
 10
9938.0
 20
-269.99999999999909
 30
0.0
 11
9938.0
 21
-272.99999999999818
 31
0.0
1001
ACDBBLOCKREPETAG
1070
     1
1071
        3
1005
12A70A
  0
ARC
  5
12A70B
  8
OBJECT
 10
9941.0
 20
-272.99999999999818
 30
0.0
 40
3.0
 50
180.0
 51
270.0
1001
ACDBBLOCKREPETAG
1070
     1
1071
        4
1005
12A70B
  0
LINE
  5
12A70C
  8
OBJECT
 10
9941.0
 20
-275.99999999999818
 30
0.0
 11
10059.0
 21
-276.0
 31
0.0
1001
ACDBBLOCKREPETAG
1070
     1
1071
        5
1005
12A70C
  0
LINE
  5
12A70D
  8
SLIM
 10
9963.2171826682406
 20
-137.99999999999909
 30
0.0
 11
9969.9215079962923
 21
-131.29567467194681
 31
0.0
1001
GRADIENTCOLOR1ACI
1070
     5
1001
GRADIENTCOLOR2ACI
1070
     2
1001
ACAD
1010
0.0
1020
0.0
1030
0.0
1001
ACDBBLOCKREPETAG
1070
     1
1071
      169
1005
12A70D
  0
LINE
  5
12A70E
  8
SLIM
 10
9972.1974387893097
 20
-137.99999999999909
 30
0.0
 11
9983.3188363327517
 21
-126.87860245655401
 31
0.0
1001
GRADIENTCOLOR1ACI
1070
     5
1001
GRADIENTCOLOR2ACI
1070
     2
1001
ACAD
1010
0.0
1020
0.0
1030
0.0
1001
ACDBBLOCKREPETAG
1070
     1
1071
      170
1005
12A70E
  0
LINE
  5
12A70F
  8
SLIM
 10
9981.4849372887638
 20
-137.6927576216126
 30
0.0
 11
9993.9318052485996
 21
-125.245889661777
 31
0.0
1001
GRADIENTCOLOR1ACI
1070
     5
1001
GRADIENTCOLOR2ACI
1070
     2
1001
ACAD
1010
0.0
1020
0.0
1030
0.0
1001
ACDBBLOCKREPETAG
1070
     1
1071
      171
1005
12A70F
  0
LINE
  5
12A710
  8
SLIM
 10
9992.7526568280355
 20
-135.40529420341099
 30
0.0
 11
10000.0
 21
-128.1579510314458
 31
0.0
1001
GRADIENTCOLOR1ACI
1070
     5
1001
GRADIENTCOLOR2ACI
1070
     2
1001
ACAD
1010
0.0
1020
0.0
1030
0.0
1001
ACDBBLOCKREPETAG
1070
     1
1071
      172
1005
12A710
  0
LINE
  5
12A711
  8
SLIM
 10
10000.0
 20
-128.1579510314458
 30
0.0
 11
10003.09410078785
 21
-125.0638502435924
 31
0.0
1001
GRADIENTCOLOR1ACI
1070
     5
1001
GRADIENTCOLOR2ACI
1070
     2
1001
ACAD
1010
0.0
1020
0.0
1030
0.0
1001
ACDBBLOCKREPETAG
1070
     1
1071
      173
1005
12A711
  0
LINE
  5
12A712
  8
SLIM
 10
10002.10414122347
 20
-135.03406592904389
 30
0.0
 11
10011.28442576865
 21
-125.85378138386341
 31
0.0
1001
GRADIENTCOLOR1ACI
1070
     5
1001
GRADIENTCOLOR2ACI
1070
     2
1001
ACAD
1010
0.0
1020
0.0
1030
0.0
1001
ACDBBLOCKREPETAG
1070
     1
1071
      174
1005
12A712
  0
LINE
  5
12A713
  8
SLIM
 10
10010.297585520921
 20
-135.82087775265759
 30
0.0
 11
10018.73958846552
 21
-127.3788748080627
 31
0.0
1001
GRADIENTCOLOR1ACI
1070
     5
1001
GRADIENTCOLOR2ACI
1070
     2
1001
ACAD
1010
0.0
1020
0.0
1030
0.0
1001
ACDBBLOCKREPETAG
1070
     1
1071
      175
1005
12A713
  0
LINE
  5
12A714
  8
SLIM
 10
10017.65507936422
 20
-137.4436400304258
 30
0.0
 11
10025.595886626959
 21
-129.50283276769261
 31
0.0
1001
GRADIENTCOLOR1ACI
1070
     5
1001
GRADIENTCOLOR2ACI
1070
     2
1001
ACAD
1010
0.0
1020
0.0
1030
0.0
1001
ACDBBLOCKREPETAG
1070
     1
1071
      176
1005
12A714
  0
LINE
  5
12A715
  8
SLIM
 10
10026.07897551572
 20
-137.99999999999909
 30
0.0
 11
10031.9385859461
 21
-132.1403895696169
 31
0.0
1001
GRADIENTCOLOR1ACI
1070
     5
1001
GRADIENTCOLOR2ACI
1070
     2
1001
ACAD
1010
0.0
1020
0.0
1030
0.0
1001
ACDBBLOCKREPETAG
1070
     1
1071
      177
1005
12A715
  0
LINE
  5
12A716
  8
SLIM
 10
10035.05923163678
 20
-137.99999999999909
 30
0.0
 11
10037.82336543762
 21
-135.23586619916779
 31
0.0
1001
GRADIENTCOLOR1ACI
1070
     5
1001
GRADIENTCOLOR2ACI
1070
     2
1001
ACAD
1010
0.0
1020
0.0
1030
0.0
1001
ACDBBLOCKREPETAG
1070
     1
1071
      178
1005
12A716
  0
CIRCLE
  5
12A717
  8
OBJECT
 10
10000.0
 20
-199.99999999999909
 30
0.0
 40
65.0
1001
ACDBBLOCKREPETAG
1070
     1
1071
       84
1005
12A717
  0
CIRCLE
  5
12A718
  8
OBJECT
 10
10000.0
 20
-199.99999999999909
 30
0.0
 40
41.0
1001
ACDBBLOCKREPETAG
1070
     1
1071
       85
1005
12A718
  0
CIRCLE
  5
12A719
  8
OBJECT
 10
10000.0
 20
-199.99999999999909
 30
0.0
 40
58.0
1001
ACDBBLOCKREPETAG
1070
     1
1071
       86
1005
12A719
  0
LINE
  5
12A71A
  8
OBJECT
 10
10070.0
 20
-137.99999999999909
 30
0.0
 11
10019.519221295939
 21
-137.99999999999909
 31
0.0
1001
ACDBBLOCKREPETAG
1070
     1
1071
       87
1005
12A71A
  0
LINE
  5
12A71B
  8
OBJECT
 10
9930.0
 20
-137.99999999999909
 30
0.0
 11
9980.4807787040572
 21
-137.99999999999909
 31
0.0
1001
ACDBBLOCKREPETAG
1070
     1
1071
       88
1005
12A71B
  0
LINE
  5
12A71C
  8
OBJECT
 10
9930.0
 20
-261.99999999999909
 30
0.0
 11
9938.0
 21
-261.99999999999909
 31
0.0
1001
ACDBBLOCKREPETAG
1070
     1
1071
       89
1005
12A71C
  0
LINE
  5
12A71D
  8
OBJECT
 10
9938.0
 20
-269.99999999999909
 30
0.0
 11
9938.0
 21
-261.99999999999909
 31
0.0
1001
ACDBBLOCKREPETAG
1070
     1
1071
       90
1005
12A71D
  0
LINE
  5
12A71E
  8
OBJECT
 10
10070.0
 20
-261.99999999999909
 30
0.0
 11
10062.0
 21
-261.99999999999909
 31
0.0
1001
ACDBBLOCKREPETAG
1070
     1
1071
       91
1005
12A71E
  0
LINE
  5
12A71F
  8
OBJECT
 10
10062.0
 20
-269.99999999999909
 30
0.0
 11
10062.0
 21
-261.99999999999909
 31
0.0
1001
ACDBBLOCKREPETAG
1070
     1
1071
       92
1005
12A71F
  0
LINE
  5
12A720
  8
CENTER
 10
9930.0
 20
-199.99999999999909
 30
0.0
 11
10070.0
 21
-199.99999999999909
 31
0.0
1001
ACDBBLOCKREPETAG
1070
     1
1071
       93
1005
12A720
  0
LINE
  5
12A721
  8
CENTER
 10
10000.0
 20
-269.99999999999909
 30
0.0
 11
10000.0
 21
-109.9999999999991
 31
0.0
1001
ACDBBLOCKREPETAG
1070
     1
1071
       94
1005
12A721
  0
ARC
  5
12A722
  8
OBJECT
 10
9989.9027621391888
 20
-224.44352901899131
 30
0.0
 40
7.0
 50
73.00127222950276
 51
154.0502587892864
1001
ACDBBLOCKREPETAG
1070
     1
1071
       95
1005
12A722
  0
ARC
  5
12A723
  8
OBJECT
 10
9986.8376610706546
 20
-225.5978773169509
 30
0.0
 40
9.0
 50
73.00127222950276
 51
154.0502639259247
1001
ACDBBLOCKREPETAG
1070
     1
1071
       96
1005
12A723
  0
ARC
  5
12A724
  8
OBJECT
 10
9896.3142301315547
 20
-147.28130031148149
 30
0.0
 40
150.0
 50
322.8950337398245
 51
325.8931499695608
1001
ACDBBLOCKREPETAG
1070
     1
1071
       97
1005
12A724
  0
ARC
  5
12A725
  8
OBJECT
 10
10000.0
 20
-199.99999999999909
 30
0.0
 40
37.5
 50
303.16276667665232
 51
229.16350249104781
1001
ACDBBLOCKREPETAG
1070
     1
1071
       98
1005
12A725
  0
LINE
  5
12A726
  8
OBJECT
 10
9983.6085145189809
 20
-221.38045100897119
 30
0.0
 11
9977.3740110000017
 21
-234.1915870000002
 31
0.0
1001
ACDBBLOCKREPETAG
1070
     1
1071
       99
1005
12A726
  0
LINE
  5
12A727
  8
OBJECT
 10
9978.7450566344633
 20
-221.65963488670511
 30
0.0
 11
9973.8986720000048
 21
-231.6183599999996
 31
0.0
1001
ACDBBLOCKREPETAG
1070
     1
1071
      100
1005
12A727
  0
LINE
  5
12A728
  8
OBJECT
 10
10018.938018000001
 20
-226.00000000000091
 30
0.0
 11
9989.4688153032548
 21
-216.99107608744359
 31
0.0
1001
ACDBBLOCKREPETAG
1070
     1
1071
      101
1005
12A728
  0
LINE
  5
12A729
  8
OBJECT
 10
10020.513225309
 20
-231.39199878029191
 30
0.0
 11
10018.938018000001
 21
-226.00000000000091
 31
0.0
1001
ACDBBLOCKREPETAG
1070
     1
1071
      102
1005
12A729
  0
LINE
  5
12A72A
  8
OBJECT
 10
9954.0380592228739
 20
-245.96194077712289
 30
0.0
 11
9938.0
 21
-261.99999999999909
 31
0.0
1001
ACDBBLOCKREPETAG
1070
     1
1071
      106
1005
12A72A
  0
LINE
  5
12A72B
  8
OBJECT
 10
10045.96194077713
 20
-245.96194077712289
 30
0.0
 11
10062.0
 21
-261.99999999999909
 31
0.0
1001
ACDBBLOCKREPETAG
1070
     1
1071
      107
1005
12A72B
  0
ARC
  5
12A72C
  8
OBJECT
 10
10000.0
 20
-199.99999999999909
 30
0.0
 40
75.0
 50
55.757831297238091
 51
124.2421687027619
1001
ACDBBLOCKREPETAG
1070
     1
1071
      108
1005
12A72C
  0
POINT
  5
12A72D
  8
DOTS
 10
10000.0
 20
-199.99999999999909
 30
0.0
 50
270.0
1001
ACDBBLOCKREPETAG
1070
     1
1071
      157
1005
12A72D
  0
LINE
  5
12A72E
  8
OBJECT
 10
10123.0
 20
-663.99999999999966
 30
0.0
 11
10130.0
 21
-663.99999999999966
 31
0.0
1001
ACDBBLOCKREPETAG
1070
     1
1071
        7
1005
12A72E
  0
LINE
  5
12A72F
  8
OBJECT
 10
10130.0
 20
-663.99999999999966
 30
0.0
 11
10130.0
 21
-754.99999999999955
 31
0.0
1001
ACDBBLOCKREPETAG
1070
     1
1071
        8
1005
12A72F
  0
LINE
  5
12A730
  8
OBJECT
 10
10123.0
 20
-754.99999999999955
 30
0.0
 11
10123.0
 21
-663.99999999999966
 31
0.0
1001
ACDBBLOCKREPETAG
1070
     1
1071
        9
1005
12A730
  0
LINE
  5
12A731
  8
CENTER
 10
10145.0
 20
-710.99999999999955
 30
0.0
 11
10061.0
 21
-710.99999999999955
 31
0.0
1001
ACDBBLOCKREPETAG
1070
     1
1071
       10
1005
12A731
  0
LINE
  5
12A732
  8
OBJECT
 10
10123.0
 20
-666.99999999999955
 30
0.0
 11
10087.0
 21
-666.99999999999955
 31
0.0
1001
ACDBBLOCKREPETAG
1070
     1
1071
       11
1005
12A732
  0
LINE
  5
12A733
  8
OBJECT
 10
10087.0
 20
-666.99999999999955
 30
0.0
 11
10087.0
 21
-754.99999999999955
 31
0.0
1001
ACDBBLOCKREPETAG
1070
     1
1071
       12
1005
12A733
  0
LINE
  5
12A734
  8
OBJECT
 10
10087.0
 20
-754.99999999999955
 30
0.0
 11
10130.0
 21
-754.99999999999955
 31
0.0
1001
ACDBBLOCKREPETAG
1070
     1
1071
       13
1005
12A734
  0
LINE
  5
12A735
  8
OBJECT
 10
10083.0
 20
-671.49999999999955
 30
0.0
 11
10076.0
 21
-671.49999999999955
 31
0.0
1001
ACDBBLOCKREPETAG
1070
     1
1071
       14
1005
12A735
  0
LINE
  5
12A736
  8
OBJECT
 10
10076.0
 20
-750.49999999999955
 30
0.0
 11
10083.0
 21
-750.49999999999955
 31
0.0
1001
ACDBBLOCKREPETAG
1070
     1
1071
       15
1005
12A736
  0
LINE
  5
12A737
  8
OBJECT
 10
10083.0
 20
-750.49999999999955
 30
0.0
 11
10083.0
 21
-671.49999999999955
 31
0.0
1001
ACDBBLOCKREPETAG
1070
     1
1071
       16
1005
12A737
  0
LINE
  5
12A738
  8
OBJECT
 10
10087.0
 20
-666.99999999999955
 30
0.0
 11
10083.0
 21
-671.49999999999955
 31
0.0
1001
ACDBBLOCKREPETAG
1070
     1
1071
       17
1005
12A738
  0
LINE
  5
12A739
  8
OBJECT
 10
10087.0
 20
-754.99999999999955
 30
0.0
 11
10083.0
 21
-750.49999999999955
 31
0.0
1001
ACDBBLOCKREPETAG
1070
     1
1071
       18
1005
12A739
  0
LINE
  5
12A73A
  8
OBJECT
 10
10073.0
 20
-633.99999999999955
 30
0.0
 11
10070.0
 21
-633.99999999999955
 31
0.0
1001
ACDBBLOCKREPETAG
1070
     1
1071
       19
1005
12A73A
  0
ARC
  5
12A73B
  8
OBJECT
 10
10073.0
 20
-636.99999999999955
 30
0.0
 40
3.0
 50
0.0
 51
90.0
1001
ACDBBLOCKREPETAG
1070
     1
1071
       20
1005
12A73B
  0
LINE
  5
12A73C
  8
OBJECT
 10
10070.0
 20
-757.99999999999955
 30
0.0
 11
10073.0
 21
-757.99999999999955
 31
0.0
1001
ACDBBLOCKREPETAG
1070
     1
1071
       21
1005
12A73C
  0
ARC
  5
12A73D
  8
OBJECT
 10
10073.0
 20
-754.99999999999955
 30
0.0
 40
3.0
 50
270.0
 51
0.0
1001
ACDBBLOCKREPETAG
1070
     1
1071
       22
1005
12A73D
  0
LINE
  5
12A73E
  8
OBJECT
 10
10076.0
 20
-754.99999999999955
 30
0.0
 11
10076.0
 21
-636.99999999999955
 31
0.0
1001
ACDBBLOCKREPETAG
1070
     1
1071
       23
1005
12A73E
  0
LINE
  5
12A73F
  8
HIDDEN
 10
10078.0
 20
-680.99999999999955
 30
0.0
 11
10078.0
 21
-740.99999999999955
 31
0.0
1001
ACDBBLOCKREPETAG
1070
     1
1071
       24
1005
12A73F
  0
LINE
  5
12A740
  8
OBJECT
 10
10123.0
 20
-152.99999999999909
 30
0.0
 11
10130.0
 21
-152.99999999999909
 31
0.0
1001
ACDBBLOCKREPETAG
1070
     1
1071
        7
1005
12A740
  0
LINE
  5
12A741
  8
OBJECT
 10
10130.0
 20
-152.99999999999909
 30
0.0
 11
10130.0
 21
-246.99999999999909
 31
0.0
1001
ACDBBLOCKREPETAG
1070
     1
1071
        8
1005
12A741
  0
LINE
  5
12A742
  8
OBJECT
 10
10130.0
 20
-246.99999999999909
 30
0.0
 11
10123.0
 21
-246.99999999999909
 31
0.0
1001
ACDBBLOCKREPETAG
1070
     1
1071
        9
1005
12A742
  0
LINE
  5
12A743
  8
OBJECT
 10
10123.0
 20
-246.99999999999909
 30
0.0
 11
10123.0
 21
-152.99999999999909
 31
0.0
1001
ACDBBLOCKREPETAG
1070
     1
1071
       10
1005
12A743
  0
LINE
  5
12A744
  8
CENTER
 10
10145.0
 20
-199.99999999999909
 30
0.0
 11
10070.0
 21
-199.99999999999909
 31
0.0
1001
ACDBBLOCKREPETAG
1070
     1
1071
       11
1005
12A744
  0
LINE
  5
12A745
  8
OBJECT
 10
10123.0
 20
-155.99999999999909
 30
0.0
 11
10087.0
 21
-155.99999999999909
 31
0.0
1001
ACDBBLOCKREPETAG
1070
     1
1071
       12
1005
12A745
  0
LINE
  5
12A746
  8
OBJECT
 10
10087.0
 20
-155.99999999999909
 30
0.0
 11
10087.0
 21
-243.99999999999909
 31
0.0
1001
ACDBBLOCKREPETAG
1070
     1
1071
       13
1005
12A746
  0
LINE
  5
12A747
  8
OBJECT
 10
10087.0
 20
-243.99999999999909
 30
0.0
 11
10123.0
 21
-243.99999999999909
 31
0.0
1001
ACDBBLOCKREPETAG
1070
     1
1071
       14
1005
12A747
  0
LINE
  5
12A748
  8
OBJECT
 10
10083.0
 20
-160.49999999999909
 30
0.0
 11
10076.0
 21
-160.49999999999909
 31
0.0
1001
ACDBBLOCKREPETAG
1070
     1
1071
       15
1005
12A748
  0
LINE
  5
12A749
  8
OBJECT
 10
10076.0
 20
-239.49999999999909
 30
0.0
 11
10083.0
 21
-239.49999999999909
 31
0.0
1001
ACDBBLOCKREPETAG
1070
     1
1071
       16
1005
12A749
  0
LINE
  5
12A74A
  8
OBJECT
 10
10083.0
 20
-239.49999999999909
 30
0.0
 11
10083.0
 21
-160.49999999999909
 31
0.0
1001
ACDBBLOCKREPETAG
1070
     1
1071
       17
1005
12A74A
  0
LINE
  5
12A74B
  8
OBJECT
 10
10087.0
 20
-155.99999999999909
 30
0.0
 11
10083.0
 21
-160.49999999999909
 31
0.0
1001
ACDBBLOCKREPETAG
1070
     1
1071
       18
1005
12A74B
  0
LINE
  5
12A74C
  8
OBJECT
 10
10087.0
 20
-243.99999999999909
 30
0.0
 11
10083.0
 21
-239.49999999999909
 31
0.0
1001
ACDBBLOCKREPETAG
1070
     1
1071
       19
1005
12A74C
  0
LINE
  5
12A74D
  8
OBJECT
 10
10073.0
 20
-137.99999999999909
 30
0.0
 11
10070.0
 21
-137.99999999999909
 31
0.0
1001
ACDBBLOCKREPETAG
1070
     1
1071
       20
1005
12A74D
  0
ARC
  5
12A74E
  8
OBJECT
 10
10073.0
 20
-140.99999999999909
 30
0.0
 40
3.0
 50
0.0
 51
90.0
1001
ACDBBLOCKREPETAG
1070
     1
1071
       21
1005
12A74E
  0
LINE
  5
12A74F
  8
OBJECT
 10
10070.0
 20
-261.99999999999909
 30
0.0
 11
10073.0
 21
-261.99999999999909
 31
0.0
1001
ACDBBLOCKREPETAG
1070
     1
1071
       22
1005
12A74F
  0
ARC
  5
12A750
  8
OBJECT
 10
10073.0
 20
-258.99999999999909
 30
0.0
 40
3.0
 50
270.0
 51
0.0
1001
ACDBBLOCKREPETAG
1070
     1
1071
       23
1005
12A750
  0
LINE
  5
12A751
  8
OBJECT
 10
10076.0
 20
-258.99999999999909
 30
0.0
 11
10076.0
 21
-140.99999999999909
 31
0.0
1001
ACDBBLOCKREPETAG
1070
     1
1071
       24
1005
12A751
  0
LINE
  5
12A752
  8
HIDDEN
 10
10078.0
 20
-169.99999999999909
 30
0.0
 11
10078.0
 21
-229.99999999999909
 31
0.0
1001
ACDBBLOCKREPETAG
1070
     1
1071
       25
1005
12A752
  0
LINE
  5
12A753
  8
OBJECT
 10
7877.0
 20
-663.99999999999966
 30
0.0
 11
7870.0
 21
-663.99999999999966
 31
0.0
1001
ACDBBLOCKREPETAG
1070
     1
1071
        7
1005
12A753
  0
LINE
  5
12A754
  8
OBJECT
 10
7870.0
 20
-663.99999999999966
 30
0.0
 11
7870.0
 21
-754.99999999999955
 31
0.0
1001
ACDBBLOCKREPETAG
1070
     1
1071
        8
1005
12A754
  0
LINE
  5
12A755
  8
OBJECT
 10
7877.0
 20
-754.99999999999955
 30
0.0
 11
7877.0
 21
-663.99999999999966
 31
0.0
1001
ACDBBLOCKREPETAG
1070
     1
1071
        9
1005
12A755
  0
LINE
  5
12A756
  8
CENTER
 10
7855.0
 20
-710.99999999999955
 30
0.0
 11
7939.0
 21
-710.99999999999955
 31
0.0
1001
ACDBBLOCKREPETAG
1070
     1
1071
       10
1005
12A756
  0
LINE
  5
12A757
  8
OBJECT
 10
7877.0
 20
-666.99999999999955
 30
0.0
 11
7913.0
 21
-666.99999999999955
 31
0.0
1001
ACDBBLOCKREPETAG
1070
     1
1071
       11
1005
12A757
  0
LINE
  5
12A758
  8
OBJECT
 10
7913.0
 20
-666.99999999999955
 30
0.0
 11
7913.0
 21
-754.99999999999955
 31
0.0
1001
ACDBBLOCKREPETAG
1070
     1
1071
       12
1005
12A758
  0
LINE
  5
12A759
  8
OBJECT
 10
7913.0
 20
-754.99999999999955
 30
0.0
 11
7870.0
 21
-754.99999999999955
 31
0.0
1001
ACDBBLOCKREPETAG
1070
     1
1071
       13
1005
12A759
  0
LINE
  5
12A75A
  8
OBJECT
 10
7917.0
 20
-671.49999999999955
 30
0.0
 11
7924.0
 21
-671.49999999999955
 31
0.0
1001
ACDBBLOCKREPETAG
1070
     1
1071
       14
1005
12A75A
  0
LINE
  5
12A75B
  8
OBJECT
 10
7924.0
 20
-750.49999999999955
 30
0.0
 11
7917.0
 21
-750.49999999999955
 31
0.0
1001
ACDBBLOCKREPETAG
1070
     1
1071
       15
1005
12A75B
  0
LINE
  5
12A75C
  8
OBJECT
 10
7917.0
 20
-750.49999999999955
 30
0.0
 11
7917.0
 21
-671.49999999999955
 31
0.0
1001
ACDBBLOCKREPETAG
1070
     1
1071
       16
1005
12A75C
  0
LINE
  5
12A75D
  8
OBJECT
 10
7913.0
 20
-666.99999999999955
 30
0.0
 11
7917.0
 21
-671.49999999999955
 31
0.0
1001
ACDBBLOCKREPETAG
1070
     1
1071
       17
1005
12A75D
  0
LINE
  5
12A75E
  8
OBJECT
 10
7913.0
 20
-754.99999999999955
 30
0.0
 11
7917.0
 21
-750.49999999999955
 31
0.0
1001
ACDBBLOCKREPETAG
1070
     1
1071
       18
1005
12A75E
  0
LINE
  5
12A75F
  8
OBJECT
 10
7927.0
 20
-633.99999999999955
 30
0.0
 11
7930.0
 21
-633.99999999999955
 31
0.0
1001
ACDBBLOCKREPETAG
1070
     1
1071
       19
1005
12A75F
  0
ARC
  5
12A760
  8
OBJECT
 10
7927.0
 20
-636.99999999999955
 30
0.0
 40
3.0
 50
90.0
 51
180.0
1001
ACDBBLOCKREPETAG
1070
     1
1071
       20
1005
12A760
  0
LINE
  5
12A761
  8
OBJECT
 10
7930.0
 20
-757.99999999999955
 30
0.0
 11
7927.0
 21
-757.99999999999955
 31
0.0
1001
ACDBBLOCKREPETAG
1070
     1
1071
       21
1005
12A761
  0
ARC
  5
12A762
  8
OBJECT
 10
7927.0
 20
-754.99999999999955
 30
0.0
 40
3.0
 50
180.0
 51
270.0
1001
ACDBBLOCKREPETAG
1070
     1
1071
       22
1005
12A762
  0
LINE
  5
12A763
  8
OBJECT
 10
7924.0
 20
-754.99999999999955
 30
0.0
 11
7924.0
 21
-636.99999999999955
 31
0.0
1001
ACDBBLOCKREPETAG
1070
     1
1071
       23
1005
12A763
  0
LINE
  5
12A764
  8
HIDDEN
 10
7922.0
 20
-680.99999999999955
 30
0.0
 11
7922.0
 21
-740.99999999999955
 31
0.0
1001
ACDBBLOCKREPETAG
1070
     1
1071
       24
1005
12A764
  0
CIRCLE
  5
12A765
  8
OBJECT
 10
8000.0
 20
-696.0
 30
0.0
 40
62.0
1001
ACDBBLOCKREPETAG
1070
     1
1071
        0
1005
12A765
  0
LINE
  5
12A766
  8
OBJECT
 10
7935.0
 20
-549.99999999999955
 30
0.0
 11
7935.0
 21
-570.99999999999955
 31
0.0
1001
ACDBBLOCKREPETAG
1070
     1
1071
       16
1005
12A766
  0
LINE
  5
12A767
  8
OBJECT
 10
7935.0
 20
-570.99999999999955
 30
0.0
 11
8065.0
 21
-570.99999999999955
 31
0.0
1001
ACDBBLOCKREPETAG
1070
     1
1071
       17
1005
12A767
  0
LINE
  5
12A768
  8
OBJECT
 10
8065.0
 20
-570.99999999999955
 30
0.0
 11
8065.0
 21
-549.99999999999955
 31
0.0
1001
ACDBBLOCKREPETAG
1070
     1
1071
       18
1005
12A768
  0
LINE
  5
12A769
  8
OBJECT
 10
8065.0
 20
-549.99999999999955
 30
0.0
 11
7935.0
 21
-549.99999999999955
 31
0.0
1001
ACDBBLOCKREPETAG
1070
     1
1071
       19
1005
12A769
  0
LINE
  5
12A76A
  8
HIDDEN
 10
8044.5000000000036
 20
-619.99999999999955
 30
0.0
 11
7955.5
 21
-619.99999999999955
 31
0.0
1001
ACDBBLOCKREPETAG
1070
     1
1071
       20
1005
12A76A
  0
LINE
  5
12A76B
  8
CENTER
 10
8000.0
 20
-769.99999999999955
 30
0.0
 11
8000.0
 21
-534.99999999999955
 31
0.0
1001
ACDBBLOCKREPETAG
1070
     1
1071
       21
1005
12A76B
  0
LINE
  5
12A76C
  8
OBJECT
 10
7940.5
 20
-570.99999999999955
 30
0.0
 11
7940.5
 21
-633.99999999999955
 31
0.0
1001
ACDBBLOCKREPETAG
1070
     1
1071
       22
1005
12A76C
  0
LINE
  5
12A76D
  8
OBJECT
 10
7930.0
 20
-633.99999999999955
 30
0.0
 11
8070.0
 21
-633.99999999999955
 31
0.0
1001
ACDBBLOCKREPETAG
1070
     1
1071
       23
1005
12A76D
  0
LINE
  5
12A76E
  8
OBJECT
 10
8059.4999999999982
 20
-633.99999999999955
 30
0.0
 11
8059.4999999999982
 21
-570.99999999999955
 31
0.0
1001
ACDBBLOCKREPETAG
1070
     1
1071
       24
1005
12A76E
  0
LINE
  5
12A76F
  8
OBJECT
 10
7930.0
 20
-757.99999999999955
 30
0.0
 11
7930.0
 21
-769.99999999999955
 31
0.0
1001
ACDBBLOCKREPETAG
1070
     1
1071
       25
1005
12A76F
  0
LINE
  5
12A770
  8
OBJECT
 10
7930.0
 20
-769.99999999999955
 30
0.0
 11
8070.0
 21
-769.99999999999955
 31
0.0
1001
ACDBBLOCKREPETAG
1070
     1
1071
       26
1005
12A770
  0
LINE
  5
12A771
  8
OBJECT
 10
8070.0
 20
-769.99999999999955
 30
0.0
 11
8070.0
 21
-757.99999999999955
 31
0.0
1001
ACDBBLOCKREPETAG
1070
     1
1071
       27
1005
12A771
  0
LINE
  5
12A772
  8
OBJECT
 10
8070.0
 20
-757.99999999999955
 30
0.0
 11
7930.0
 21
-757.99999999999955
 31
0.0
1001
ACDBBLOCKREPETAG
1070
     1
1071
       28
1005
12A772
  0
ARC
  5
12A773
  8
OBJECT
 10
8435.0384389946794
 20
-998.60813684682694
 30
0.0
 40
519.48776673616965
 50
135.42350667430969
 51
138.50052655621499
1001
ACDBBLOCKREPETAG
1070
     1
1071
       32
1005
12A773
  0
ARC
  5
12A774
  8
OBJECT
 10
8435.0384389946794
 20
-393.39186315317193
 30
0.0
 40
519.48776673616965
 50
221.49947344378501
 51
224.57649332569039
1001
ACDBBLOCKREPETAG
1070
     1
1071
       33
1005
12A774
  0
ARC
  5
12A775
  8
OBJECT
 10
7564.9615610053233
 20
-998.60813684682694
 30
0.0
 40
519.48776673616965
 50
41.499473443784993
 51
44.576493325690237
1001
ACDBBLOCKREPETAG
1070
     1
1071
       34
1005
12A775
  0
ARC
  5
12A776
  8
OBJECT
 10
7564.9615610053233
 20
-393.39186315317193
 30
0.0
 40
519.48776673616965
 50
315.42350667430981
 51
318.50052655621488
1001
ACDBBLOCKREPETAG
1070
     1
1071
       35
1005
12A776
  0
POINT
  5
12A777
  8
DOTS
 10
8000.0
 20
-754.99999999999955
 30
0.0
1001
ACDBBLOCKREPETAG
1070
     1
1071
      111
1005
12A777
  0
LINE
  5
12A778
  8
OBJECT
 10
7877.0
 20
-246.99999999999909
 30
0.0
 11
7870.0
 21
-246.99999999999909
 31
0.0
1001
ACDBBLOCKREPETAG
1070
     1
1071
        7
1005
12A778
  0
LINE
  5
12A779
  8
OBJECT
 10
7870.0
 20
-246.99999999999909
 30
0.0
 11
7870.0
 21
-152.99999999999909
 31
0.0
1001
ACDBBLOCKREPETAG
1070
     1
1071
        8
1005
12A779
  0
LINE
  5
12A77A
  8
OBJECT
 10
7870.0
 20
-152.99999999999909
 30
0.0
 11
7877.0
 21
-152.99999999999909
 31
0.0
1001
ACDBBLOCKREPETAG
1070
     1
1071
        9
1005
12A77A
  0
LINE
  5
12A77B
  8
OBJECT
 10
7877.0
 20
-152.99999999999909
 30
0.0
 11
7877.0
 21
-246.99999999999909
 31
0.0
1001
ACDBBLOCKREPETAG
1070
     1
1071
       10
1005
12A77B
  0
LINE
  5
12A77C
  8
CENTER
 10
7855.0
 20
-199.99999999999909
 30
0.0
 11
7930.0
 21
-199.99999999999909
 31
0.0
1001
ACDBBLOCKREPETAG
1070
     1
1071
       11
1005
12A77C
  0
LINE
  5
12A77D
  8
OBJECT
 10
7877.0
 20
-243.99999999999909
 30
0.0
 11
7913.0
 21
-243.99999999999909
 31
0.0
1001
ACDBBLOCKREPETAG
1070
     1
1071
       12
1005
12A77D
  0
LINE
  5
12A77E
  8
OBJECT
 10
7913.0
 20
-243.99999999999909
 30
0.0
 11
7913.0
 21
-155.99999999999909
 31
0.0
1001
ACDBBLOCKREPETAG
1070
     1
1071
       13
1005
12A77E
  0
LINE
  5
12A77F
  8
OBJECT
 10
7913.0
 20
-155.99999999999909
 30
0.0
 11
7877.0
 21
-155.99999999999909
 31
0.0
1001
ACDBBLOCKREPETAG
1070
     1
1071
       14
1005
12A77F
  0
LINE
  5
12A780
  8
OBJECT
 10
7917.0
 20
-239.49999999999909
 30
0.0
 11
7924.0
 21
-239.49999999999909
 31
0.0
1001
ACDBBLOCKREPETAG
1070
     1
1071
       15
1005
12A780
  0
LINE
  5
12A781
  8
OBJECT
 10
7924.0
 20
-160.49999999999909
 30
0.0
 11
7917.0
 21
-160.49999999999909
 31
0.0
1001
ACDBBLOCKREPETAG
1070
     1
1071
       16
1005
12A781
  0
LINE
  5
12A782
  8
OBJECT
 10
7917.0
 20
-160.49999999999909
 30
0.0
 11
7917.0
 21
-239.49999999999909
 31
0.0
1001
ACDBBLOCKREPETAG
1070
     1
1071
       17
1005
12A782
  0
LINE
  5
12A783
  8
OBJECT
 10
7913.0
 20
-243.99999999999909
 30
0.0
 11
7917.0
 21
-239.49999999999909
 31
0.0
1001
ACDBBLOCKREPETAG
1070
     1
1071
       18
1005
12A783
  0
LINE
  5
12A784
  8
OBJECT
 10
7913.0
 20
-155.99999999999909
 30
0.0
 11
7917.0
 21
-160.49999999999909
 31
0.0
1001
ACDBBLOCKREPETAG
1070
     1
1071
       19
1005
12A784
  0
LINE
  5
12A785
  8
OBJECT
 10
7927.0
 20
-261.99999999999909
 30
0.0
 11
7930.0
 21
-261.99999999999909
 31
0.0
1001
ACDBBLOCKREPETAG
1070
     1
1071
       20
1005
12A785
  0
ARC
  5
12A786
  8
OBJECT
 10
7927.0
 20
-258.99999999999909
 30
0.0
 40
3.0
 50
180.0
 51
270.0
1001
ACDBBLOCKREPETAG
1070
     1
1071
       21
1005
12A786
  0
LINE
  5
12A787
  8
OBJECT
 10
7930.0
 20
-137.99999999999909
 30
0.0
 11
7927.0
 21
-137.99999999999909
 31
0.0
1001
ACDBBLOCKREPETAG
1070
     1
1071
       22
1005
12A787
  0
ARC
  5
12A788
  8
OBJECT
 10
7927.0
 20
-140.99999999999909
 30
0.0
 40
3.0
 50
90.0
 51
180.0
1001
ACDBBLOCKREPETAG
1070
     1
1071
       23
1005
12A788
  0
LINE
  5
12A789
  8
OBJECT
 10
7924.0
 20
-140.99999999999909
 30
0.0
 11
7924.0
 21
-258.99999999999909
 31
0.0
1001
ACDBBLOCKREPETAG
1070
     1
1071
       24
1005
12A789
  0
LINE
  5
12A78A
  8
HIDDEN
 10
7922.0
 20
-229.99999999999909
 30
0.0
 11
7922.0
 21
-169.99999999999909
 31
0.0
1001
ACDBBLOCKREPETAG
1070
     1
1071
       25
1005
12A78A
  0
LINE
  5
12A78B
  8
CENTER
 10
8000.0
 20
-290.99999999999898
 30
0.0
 11
8000.0
 21
-269.99999999999909
 31
0.0
1001
ACDBBLOCKREPETAG
1070
     1
1071
        0
1005
12A78B
  0
LINE
  5
12A78C
  8
OBJECT
 10
8062.0
 20
-273.0
 30
0.0
 11
8062.0
 21
-269.99999999999909
 31
0.0
1001
ACDBBLOCKREPETAG
1070
     1
1071
        1
1005
12A78C
  0
ARC
  5
12A78D
  8
OBJECT
 10
8059.0
 20
-273.0
 30
0.0
 40
3.0
 50
270.0
 51
0.0
1001
ACDBBLOCKREPETAG
1070
     1
1071
        2
1005
12A78D
  0
LINE
  5
12A78E
  8
OBJECT
 10
7938.0
 20
-269.99999999999909
 30
0.0
 11
7938.0
 21
-272.99999999999818
 31
0.0
1001
ACDBBLOCKREPETAG
1070
     1
1071
        3
1005
12A78E
  0
ARC
  5
12A78F
  8
OBJECT
 10
7941.0
 20
-272.99999999999818
 30
0.0
 40
3.0
 50
180.0
 51
270.0
1001
ACDBBLOCKREPETAG
1070
     1
1071
        4
1005
12A78F
  0
LINE
  5
12A790
  8
OBJECT
 10
7941.0
 20
-275.99999999999818
 30
0.0
 11
8059.0
 21
-276.0
 31
0.0
1001
ACDBBLOCKREPETAG
1070
     1
1071
        5
1005
12A790
  0
LINE
  5
12A791
  8
SLIM
 10
7963.2171826682388
 20
-137.99999999999909
 30
0.0
 11
7969.9215079962914
 21
-131.29567467194681
 31
0.0
1001
GRADIENTCOLOR1ACI
1070
     5
1001
GRADIENTCOLOR2ACI
1070
     2
1001
ACAD
1010
0.0
1020
0.0
1030
0.0
1001
ACDBBLOCKREPETAG
1070
     1
1071
      169
1005
12A791
  0
LINE
  5
12A792
  8
SLIM
 10
7972.1974387893079
 20
-137.99999999999909
 30
0.0
 11
7983.3188363327517
 21
-126.87860245655401
 31
0.0
1001
GRADIENTCOLOR1ACI
1070
     5
1001
GRADIENTCOLOR2ACI
1070
     2
1001
ACAD
1010
0.0
1020
0.0
1030
0.0
1001
ACDBBLOCKREPETAG
1070
     1
1071
      170
1005
12A792
  0
LINE
  5
12A793
  8
SLIM
 10
7981.4849372887629
 20
-137.6927576216126
 30
0.0
 11
7993.9318052485969
 21
-125.245889661777
 31
0.0
1001
GRADIENTCOLOR1ACI
1070
     5
1001
GRADIENTCOLOR2ACI
1070
     2
1001
ACAD
1010
0.0
1020
0.0
1030
0.0
1001
ACDBBLOCKREPETAG
1070
     1
1071
      171
1005
12A793
  0
LINE
  5
12A794
  8
SLIM
 10
7992.7526568280337
 20
-135.40529420341099
 30
0.0
 11
8000.0
 21
-128.1579510314458
 31
0.0
1001
GRADIENTCOLOR1ACI
1070
     5
1001
GRADIENTCOLOR2ACI
1070
     2
1001
ACAD
1010
0.0
1020
0.0
1030
0.0
1001
ACDBBLOCKREPETAG
1070
     1
1071
      172
1005
12A794
  0
LINE
  5
12A795
  8
SLIM
 10
8000.0
 20
-128.1579510314458
 30
0.0
 11
8003.0941007878528
 21
-125.0638502435924
 31
0.0
1001
GRADIENTCOLOR1ACI
1070
     5
1001
GRADIENTCOLOR2ACI
1070
     2
1001
ACAD
1010
0.0
1020
0.0
1030
0.0
1001
ACDBBLOCKREPETAG
1070
     1
1071
      173
1005
12A795
  0
LINE
  5
12A796
  8
SLIM
 10
8002.1041412234727
 20
-135.03406592904389
 30
0.0
 11
8011.284425768652
 21
-125.85378138386341
 31
0.0
1001
GRADIENTCOLOR1ACI
1070
     5
1001
GRADIENTCOLOR2ACI
1070
     2
1001
ACAD
1010
0.0
1020
0.0
1030
0.0
1001
ACDBBLOCKREPETAG
1070
     1
1071
      174
1005
12A796
  0
LINE
  5
12A797
  8
SLIM
 10
8010.297585520927
 20
-135.82087775265759
 30
0.0
 11
8018.7395884655189
 21
-127.3788748080627
 31
0.0
1001
GRADIENTCOLOR1ACI
1070
     5
1001
GRADIENTCOLOR2ACI
1070
     2
1001
ACAD
1010
0.0
1020
0.0
1030
0.0
1001
ACDBBLOCKREPETAG
1070
     1
1071
      175
1005
12A797
  0
LINE
  5
12A798
  8
SLIM
 10
8017.6550793642282
 20
-137.4436400304258
 30
0.0
 11
8025.5958866269621
 21
-129.50283276769261
 31
0.0
1001
GRADIENTCOLOR1ACI
1070
     5
1001
GRADIENTCOLOR2ACI
1070
     2
1001
ACAD
1010
0.0
1020
0.0
1030
0.0
1001
ACDBBLOCKREPETAG
1070
     1
1071
      176
1005
12A798
  0
LINE
  5
12A799
  8
SLIM
 10
8026.078975515723
 20
-137.99999999999909
 30
0.0
 11
8031.9385859461063
 21
-132.1403895696169
 31
0.0
1001
GRADIENTCOLOR1ACI
1070
     5
1001
GRADIENTCOLOR2ACI
1070
     2
1001
ACAD
1010
0.0
1020
0.0
1030
0.0
1001
ACDBBLOCKREPETAG
1070
     1
1071
      177
1005
12A799
  0
LINE
  5
12A79A
  8
SLIM
 10
8035.0592316367947
 20
-137.99999999999909
 30
0.0
 11
8037.8233654376218
 21
-135.23586619916779
 31
0.0
1001
GRADIENTCOLOR1ACI
1070
     5
1001
GRADIENTCOLOR2ACI
1070
     2
1001
ACAD
1010
0.0
1020
0.0
1030
0.0
1001
ACDBBLOCKREPETAG
1070
     1
1071
      178
1005
12A79A
  0
CIRCLE
  5
12A79B
  8
OBJECT
 10
8000.0
 20
-199.99999999999909
 30
0.0
 40
65.0
1001
ACDBBLOCKREPETAG
1070
     1
1071
       84
1005
12A79B
  0
CIRCLE
  5
12A79C
  8
OBJECT
 10
8000.0
 20
-199.99999999999909
 30
0.0
 40
41.0
1001
ACDBBLOCKREPETAG
1070
     1
1071
       85
1005
12A79C
  0
CIRCLE
  5
12A79D
  8
OBJECT
 10
8000.0
 20
-199.99999999999909
 30
0.0
 40
58.0
1001
ACDBBLOCKREPETAG
1070
     1
1071
       86
1005
12A79D
  0
LINE
  5
12A79E
  8
OBJECT
 10
8070.0
 20
-137.99999999999909
 30
0.0
 11
8019.5192212959419
 21
-137.99999999999909
 31
0.0
1001
ACDBBLOCKREPETAG
1070
     1
1071
       87
1005
12A79E
  0
LINE
  5
12A79F
  8
OBJECT
 10
7930.0
 20
-137.99999999999909
 30
0.0
 11
7980.4807787040572
 21
-137.99999999999909
 31
0.0
1001
ACDBBLOCKREPETAG
1070
     1
1071
       88
1005
12A79F
  0
LINE
  5
12A7A0
  8
OBJECT
 10
7930.0
 20
-261.99999999999909
 30
0.0
 11
7938.0
 21
-261.99999999999909
 31
0.0
1001
ACDBBLOCKREPETAG
1070
     1
1071
       89
1005
12A7A0
  0
LINE
  5
12A7A1
  8
OBJECT
 10
7938.0
 20
-269.99999999999909
 30
0.0
 11
7938.0
 21
-261.99999999999909
 31
0.0
1001
ACDBBLOCKREPETAG
1070
     1
1071
       90
1005
12A7A1
  0
LINE
  5
12A7A2
  8
OBJECT
 10
8070.0
 20
-261.99999999999909
 30
0.0
 11
8062.0
 21
-261.99999999999909
 31
0.0
1001
ACDBBLOCKREPETAG
1070
     1
1071
       91
1005
12A7A2
  0
LINE
  5
12A7A3
  8
OBJECT
 10
8062.0
 20
-269.99999999999909
 30
0.0
 11
8062.0
 21
-261.99999999999909
 31
0.0
1001
ACDBBLOCKREPETAG
1070
     1
1071
       92
1005
12A7A3
  0
LINE
  5
12A7A4
  8
CENTER
 10
7930.0
 20
-199.99999999999909
 30
0.0
 11
8070.0
 21
-199.99999999999909
 31
0.0
1001
ACDBBLOCKREPETAG
1070
     1
1071
       93
1005
12A7A4
  0
LINE
  5
12A7A5
  8
CENTER
 10
8000.0
 20
-269.99999999999909
 30
0.0
 11
8000.0
 21
-109.9999999999991
 31
0.0
1001
ACDBBLOCKREPETAG
1070
     1
1071
       94
1005
12A7A5
  0
ARC
  5
12A7A6
  8
OBJECT
 10
7989.902762139187
 20
-224.44352901899131
 30
0.0
 40
7.0
 50
73.00127222950276
 51
154.05025878930931
1001
ACDBBLOCKREPETAG
1070
     1
1071
       95
1005
12A7A6
  0
ARC
  5
12A7A7
  8
OBJECT
 10
7986.8376610706546
 20
-225.5978773169509
 30
0.0
 40
9.0
 50
73.00127222950276
 51
154.0502639259247
1001
ACDBBLOCKREPETAG
1070
     1
1071
       96
1005
12A7A7
  0
ARC
  5
12A7A8
  8
OBJECT
 10
7896.3142301315538
 20
-147.28130031148149
 30
0.0
 40
150.0
 50
322.89503373979312
 51
325.8931499695608
1001
ACDBBLOCKREPETAG
1070
     1
1071
       97
1005
12A7A8
  0
ARC
  5
12A7A9
  8
OBJECT
 10
8000.0
 20
-199.99999999999909
 30
0.0
 40
37.5
 50
303.16276667665232
 51
229.16350249100839
1001
ACDBBLOCKREPETAG
1070
     1
1071
       98
1005
12A7A9
  0
LINE
  5
12A7AA
  8
OBJECT
 10
7983.60851451898
 20
-221.38045100897119
 30
0.0
 11
7977.3740110000008
 21
-234.1915870000002
 31
0.0
1001
ACDBBLOCKREPETAG
1070
     1
1071
       99
1005
12A7AA
  0
LINE
  5
12A7AB
  8
OBJECT
 10
7978.7450566344623
 20
-221.65963488670511
 30
0.0
 11
7973.898672000003
 21
-231.6183599999996
 31
0.0
1001
ACDBBLOCKREPETAG
1070
     1
1071
      100
1005
12A7AB
  0
LINE
  5
12A7AC
  8
OBJECT
 10
8018.9380179999998
 20
-226.00000000000091
 30
0.0
 11
7989.4688153032539
 21
-216.99107608744359
 31
0.0
1001
ACDBBLOCKREPETAG
1070
     1
1071
      101
1005
12A7AC
  0
LINE
  5
12A7AD
  8
OBJECT
 10
8020.513225309006
 20
-231.39199878029191
 30
0.0
 11
8018.9380179999998
 21
-226.00000000000091
 31
0.0
1001
ACDBBLOCKREPETAG
1070
     1
1071
      102
1005
12A7AD
  0
LINE
  5
12A7AE
  8
OBJECT
 10
7954.0380592228739
 20
-245.96194077712289
 30
0.0
 11
7938.0
 21
-261.99999999999909
 31
0.0
1001
ACDBBLOCKREPETAG
1070
     1
1071
      106
1005
12A7AE
  0
LINE
  5
12A7AF
  8
OBJECT
 10
8045.9619407771252
 20
-245.96194077712289
 30
0.0
 11
8062.0
 21
-261.99999999999909
 31
0.0
1001
ACDBBLOCKREPETAG
1070
     1
1071
      107
1005
12A7AF
  0
ARC
  5
12A7B0
  8
OBJECT
 10
8000.0
 20
-199.99999999999909
 30
0.0
 40
75.0
 50
55.757831297238091
 51
124.2421687027619
1001
ACDBBLOCKREPETAG
1070
     1
1071
      108
1005
12A7B0
  0
POINT
  5
12A7B1
  8
DOTS
 10
8000.0
 20
-199.99999999999909
 30
0.0
 50
270.0
1001
ACDBBLOCKREPETAG
1070
     1
1071
      157
1005
12A7B1
  0
LINE
  5
12A7B2
  8
OBJECT
 10
8123.0
 20
-663.99999999999966
 30
0.0
 11
8130.0
 21
-663.99999999999966
 31
0.0
1001
ACDBBLOCKREPETAG
1070
     1
1071
        7
1005
12A7B2
  0
LINE
  5
12A7B3
  8
OBJECT
 10
8130.0
 20
-663.99999999999966
 30
0.0
 11
8130.0
 21
-754.99999999999955
 31
0.0
1001
ACDBBLOCKREPETAG
1070
     1
1071
        8
1005
12A7B3
  0
LINE
  5
12A7B4
  8
OBJECT
 10
8123.0
 20
-754.99999999999955
 30
0.0
 11
8123.0
 21
-663.99999999999966
 31
0.0
1001
ACDBBLOCKREPETAG
1070
     1
1071
        9
1005
12A7B4
  0
LINE
  5
12A7B5
  8
CENTER
 10
8145.0
 20
-710.99999999999955
 30
0.0
 11
8061.0
 21
-710.99999999999955
 31
0.0
1001
ACDBBLOCKREPETAG
1070
     1
1071
       10
1005
12A7B5
  0
LINE
  5
12A7B6
  8
OBJECT
 10
8123.0
 20
-666.99999999999955
 30
0.0
 11
8087.0
 21
-666.99999999999955
 31
0.0
1001
ACDBBLOCKREPETAG
1070
     1
1071
       11
1005
12A7B6
  0
LINE
  5
12A7B7
  8
OBJECT
 10
8087.0
 20
-666.99999999999955
 30
0.0
 11
8087.0
 21
-754.99999999999955
 31
0.0
1001
ACDBBLOCKREPETAG
1070
     1
1071
       12
1005
12A7B7
  0
LINE
  5
12A7B8
  8
OBJECT
 10
8087.0
 20
-754.99999999999955
 30
0.0
 11
8130.0
 21
-754.99999999999955
 31
0.0
1001
ACDBBLOCKREPETAG
1070
     1
1071
       13
1005
12A7B8
  0
LINE
  5
12A7B9
  8
OBJECT
 10
8083.0
 20
-671.49999999999955
 30
0.0
 11
8076.0
 21
-671.49999999999955
 31
0.0
1001
ACDBBLOCKREPETAG
1070
     1
1071
       14
1005
12A7B9
  0
LINE
  5
12A7BA
  8
OBJECT
 10
8076.0
 20
-750.49999999999955
 30
0.0
 11
8083.0
 21
-750.49999999999955
 31
0.0
1001
ACDBBLOCKREPETAG
1070
     1
1071
       15
1005
12A7BA
  0
LINE
  5
12A7BB
  8
OBJECT
 10
8083.0
 20
-750.49999999999955
 30
0.0
 11
8083.0
 21
-671.49999999999955
 31
0.0
1001
ACDBBLOCKREPETAG
1070
     1
1071
       16
1005
12A7BB
  0
LINE
  5
12A7BC
  8
OBJECT
 10
8087.0
 20
-666.99999999999955
 30
0.0
 11
8083.0
 21
-671.49999999999955
 31
0.0
1001
ACDBBLOCKREPETAG
1070
     1
1071
       17
1005
12A7BC
  0
LINE
  5
12A7BD
  8
OBJECT
 10
8087.0
 20
-754.99999999999955
 30
0.0
 11
8083.0
 21
-750.49999999999955
 31
0.0
1001
ACDBBLOCKREPETAG
1070
     1
1071
       18
1005
12A7BD
  0
LINE
  5
12A7BE
  8
OBJECT
 10
8073.0
 20
-633.99999999999955
 30
0.0
 11
8070.0
 21
-633.99999999999955
 31
0.0
1001
ACDBBLOCKREPETAG
1070
     1
1071
       19
1005
12A7BE
  0
ARC
  5
12A7BF
  8
OBJECT
 10
8073.0
 20
-636.99999999999955
 30
0.0
 40
3.0
 50
0.0
 51
90.0
1001
ACDBBLOCKREPETAG
1070
     1
1071
       20
1005
12A7BF
  0
LINE
  5
12A7C0
  8
OBJECT
 10
8070.0
 20
-757.99999999999955
 30
0.0
 11
8073.0
 21
-757.99999999999955
 31
0.0
1001
ACDBBLOCKREPETAG
1070
     1
1071
       21
1005
12A7C0
  0
ARC
  5
12A7C1
  8
OBJECT
 10
8073.0
 20
-754.99999999999955
 30
0.0
 40
3.0
 50
270.0
 51
0.0
1001
ACDBBLOCKREPETAG
1070
     1
1071
       22
1005
12A7C1
  0
LINE
  5
12A7C2
  8
OBJECT
 10
8076.0
 20
-754.99999999999955
 30
0.0
 11
8076.0
 21
-636.99999999999955
 31
0.0
1001
ACDBBLOCKREPETAG
1070
     1
1071
       23
1005
12A7C2
  0
LINE
  5
12A7C3
  8
HIDDEN
 10
8078.0
 20
-680.99999999999955
 30
0.0
 11
8078.0
 21
-740.99999999999955
 31
0.0
1001
ACDBBLOCKREPETAG
1070
     1
1071
       24
1005
12A7C3
  0
LINE
  5
12A7C4
  8
OBJECT
 10
8123.0
 20
-152.99999999999909
 30
0.0
 11
8130.0
 21
-152.99999999999909
 31
0.0
1001
ACDBBLOCKREPETAG
1070
     1
1071
        7
1005
12A7C4
  0
LINE
  5
12A7C5
  8
OBJECT
 10
8130.0
 20
-152.99999999999909
 30
0.0
 11
8130.0
 21
-246.99999999999909
 31
0.0
1001
ACDBBLOCKREPETAG
1070
     1
1071
        8
1005
12A7C5
  0
LINE
  5
12A7C6
  8
OBJECT
 10
8130.0
 20
-246.99999999999909
 30
0.0
 11
8123.0
 21
-246.99999999999909
 31
0.0
1001
ACDBBLOCKREPETAG
1070
     1
1071
        9
1005
12A7C6
  0
LINE
  5
12A7C7
  8
OBJECT
 10
8123.0
 20
-246.99999999999909
 30
0.0
 11
8123.0
 21
-152.99999999999909
 31
0.0
1001
ACDBBLOCKREPETAG
1070
     1
1071
       10
1005
12A7C7
  0
LINE
  5
12A7C8
  8
CENTER
 10
8145.0
 20
-199.99999999999909
 30
0.0
 11
8070.0
 21
-199.99999999999909
 31
0.0
1001
ACDBBLOCKREPETAG
1070
     1
1071
       11
1005
12A7C8
  0
LINE
  5
12A7C9
  8
OBJECT
 10
8123.0
 20
-155.99999999999909
 30
0.0
 11
8087.0
 21
-155.99999999999909
 31
0.0
1001
ACDBBLOCKREPETAG
1070
     1
1071
       12
1005
12A7C9
  0
LINE
  5
12A7CA
  8
OBJECT
 10
8087.0
 20
-155.99999999999909
 30
0.0
 11
8087.0
 21
-243.99999999999909
 31
0.0
1001
ACDBBLOCKREPETAG
1070
     1
1071
       13
1005
12A7CA
  0
LINE
  5
12A7CB
  8
OBJECT
 10
8087.0
 20
-243.99999999999909
 30
0.0
 11
8123.0
 21
-243.99999999999909
 31
0.0
1001
ACDBBLOCKREPETAG
1070
     1
1071
       14
1005
12A7CB
  0
LINE
  5
12A7CC
  8
OBJECT
 10
8083.0
 20
-160.49999999999909
 30
0.0
 11
8076.0
 21
-160.49999999999909
 31
0.0
1001
ACDBBLOCKREPETAG
1070
     1
1071
       15
1005
12A7CC
  0
LINE
  5
12A7CD
  8
OBJECT
 10
8076.0
 20
-239.49999999999909
 30
0.0
 11
8083.0
 21
-239.49999999999909
 31
0.0
1001
ACDBBLOCKREPETAG
1070
     1
1071
       16
1005
12A7CD
  0
LINE
  5
12A7CE
  8
OBJECT
 10
8083.0
 20
-239.49999999999909
 30
0.0
 11
8083.0
 21
-160.49999999999909
 31
0.0
1001
ACDBBLOCKREPETAG
1070
     1
1071
       17
1005
12A7CE
  0
LINE
  5
12A7CF
  8
OBJECT
 10
8087.0
 20
-155.99999999999909
 30
0.0
 11
8083.0
 21
-160.49999999999909
 31
0.0
1001
ACDBBLOCKREPETAG
1070
     1
1071
       18
1005
12A7CF
  0
LINE
  5
12A7D0
  8
OBJECT
 10
8087.0
 20
-243.99999999999909
 30
0.0
 11
8083.0
 21
-239.49999999999909
 31
0.0
1001
ACDBBLOCKREPETAG
1070
     1
1071
       19
1005
12A7D0
  0
LINE
  5
12A7D1
  8
OBJECT
 10
8073.0
 20
-137.99999999999909
 30
0.0
 11
8070.0
 21
-137.99999999999909
 31
0.0
1001
ACDBBLOCKREPETAG
1070
     1
1071
       20
1005
12A7D1
  0
ARC
  5
12A7D2
  8
OBJECT
 10
8073.0
 20
-140.99999999999909
 30
0.0
 40
3.0
 50
0.0
 51
90.0
1001
ACDBBLOCKREPETAG
1070
     1
1071
       21
1005
12A7D2
  0
LINE
  5
12A7D3
  8
OBJECT
 10
8070.0
 20
-261.99999999999909
 30
0.0
 11
8073.0
 21
-261.99999999999909
 31
0.0
1001
ACDBBLOCKREPETAG
1070
     1
1071
       22
1005
12A7D3
  0
ARC
  5
12A7D4
  8
OBJECT
 10
8073.0
 20
-258.99999999999909
 30
0.0
 40
3.0
 50
270.0
 51
0.0
1001
ACDBBLOCKREPETAG
1070
     1
1071
       23
1005
12A7D4
  0
LINE
  5
12A7D5
  8
OBJECT
 10
8076.0
 20
-258.99999999999909
 30
0.0
 11
8076.0
 21
-140.99999999999909
 31
0.0
1001
ACDBBLOCKREPETAG
1070
     1
1071
       24
1005
12A7D5
  0
LINE
  5
12A7D6
  8
HIDDEN
 10
8078.0
 20
-169.99999999999909
 30
0.0
 11
8078.0
 21
-229.99999999999909
 31
0.0
1001
ACDBBLOCKREPETAG
1070
     1
1071
       25
1005
12A7D6
  0
LINE
  5
12A7D7
  8
OBJECT
 10
5877.0
 20
-663.99999999999966
 30
0.0
 11
5870.0
 21
-663.99999999999966
 31
0.0
1001
ACDBBLOCKREPETAG
1070
     1
1071
        7
1005
12A7D7
  0
LINE
  5
12A7D8
  8
OBJECT
 10
5870.0
 20
-663.99999999999966
 30
0.0
 11
5870.0
 21
-754.99999999999955
 31
0.0
1001
ACDBBLOCKREPETAG
1070
     1
1071
        8
1005
12A7D8
  0
LINE
  5
12A7D9
  8
OBJECT
 10
5877.0
 20
-754.99999999999955
 30
0.0
 11
5877.0
 21
-663.99999999999966
 31
0.0
1001
ACDBBLOCKREPETAG
1070
     1
1071
        9
1005
12A7D9
  0
LINE
  5
12A7DA
  8
CENTER
 10
5855.0
 20
-710.99999999999955
 30
0.0
 11
5939.0
 21
-710.99999999999955
 31
0.0
1001
ACDBBLOCKREPETAG
1070
     1
1071
       10
1005
12A7DA
  0
LINE
  5
12A7DB
  8
OBJECT
 10
5877.0
 20
-666.99999999999955
 30
0.0
 11
5913.0
 21
-666.99999999999955
 31
0.0
1001
ACDBBLOCKREPETAG
1070
     1
1071
       11
1005
12A7DB
  0
LINE
  5
12A7DC
  8
OBJECT
 10
5913.0
 20
-666.99999999999955
 30
0.0
 11
5913.0
 21
-754.99999999999955
 31
0.0
1001
ACDBBLOCKREPETAG
1070
     1
1071
       12
1005
12A7DC
  0
LINE
  5
12A7DD
  8
OBJECT
 10
5913.0
 20
-754.99999999999955
 30
0.0
 11
5870.0
 21
-754.99999999999955
 31
0.0
1001
ACDBBLOCKREPETAG
1070
     1
1071
       13
1005
12A7DD
  0
LINE
  5
12A7DE
  8
OBJECT
 10
5917.0
 20
-671.49999999999955
 30
0.0
 11
5924.0
 21
-671.49999999999955
 31
0.0
1001
ACDBBLOCKREPETAG
1070
     1
1071
       14
1005
12A7DE
  0
LINE
  5
12A7DF
  8
OBJECT
 10
5924.0
 20
-750.49999999999955
 30
0.0
 11
5917.0
 21
-750.49999999999955
 31
0.0
1001
ACDBBLOCKREPETAG
1070
     1
1071
       15
1005
12A7DF
  0
LINE
  5
12A7E0
  8
OBJECT
 10
5917.0
 20
-750.49999999999955
 30
0.0
 11
5917.0
 21
-671.49999999999955
 31
0.0
1001
ACDBBLOCKREPETAG
1070
     1
1071
       16
1005
12A7E0
  0
LINE
  5
12A7E1
  8
OBJECT
 10
5913.0
 20
-666.99999999999955
 30
0.0
 11
5917.0
 21
-671.49999999999955
 31
0.0
1001
ACDBBLOCKREPETAG
1070
     1
1071
       17
1005
12A7E1
  0
LINE
  5
12A7E2
  8
OBJECT
 10
5913.0
 20
-754.99999999999955
 30
0.0
 11
5917.0
 21
-750.49999999999955
 31
0.0
1001
ACDBBLOCKREPETAG
1070
     1
1071
       18
1005
12A7E2
  0
LINE
  5
12A7E3
  8
OBJECT
 10
5927.0
 20
-633.99999999999955
 30
0.0
 11
5930.0
 21
-633.99999999999955
 31
0.0
1001
ACDBBLOCKREPETAG
1070
     1
1071
       19
1005
12A7E3
  0
ARC
  5
12A7E4
  8
OBJECT
 10
5927.0
 20
-636.99999999999955
 30
0.0
 40
3.0
 50
90.0
 51
180.0
1001
ACDBBLOCKREPETAG
1070
     1
1071
       20
1005
12A7E4
  0
LINE
  5
12A7E5
  8
OBJECT
 10
5930.0
 20
-757.99999999999955
 30
0.0
 11
5927.0
 21
-757.99999999999955
 31
0.0
1001
ACDBBLOCKREPETAG
1070
     1
1071
       21
1005
12A7E5
  0
ARC
  5
12A7E6
  8
OBJECT
 10
5927.0
 20
-754.99999999999955
 30
0.0
 40
3.0
 50
180.0
 51
270.0
1001
ACDBBLOCKREPETAG
1070
     1
1071
       22
1005
12A7E6
  0
LINE
  5
12A7E7
  8
OBJECT
 10
5924.0
 20
-754.99999999999955
 30
0.0
 11
5924.0
 21
-636.99999999999955
 31
0.0
1001
ACDBBLOCKREPETAG
1070
     1
1071
       23
1005
12A7E7
  0
LINE
  5
12A7E8
  8
HIDDEN
 10
5922.0
 20
-680.99999999999955
 30
0.0
 11
5922.0
 21
-740.99999999999955
 31
0.0
1001
ACDBBLOCKREPETAG
1070
     1
1071
       24
1005
12A7E8
  0
CIRCLE
  5
12A7E9
  8
OBJECT
 10
6000.0
 20
-696.0
 30
0.0
 40
62.0
1001
ACDBBLOCKREPETAG
1070
     1
1071
        0
1005
12A7E9
  0
LINE
  5
12A7EA
  8
OBJECT
 10
5935.0
 20
-549.99999999999955
 30
0.0
 11
5935.0
 21
-570.99999999999955
 31
0.0
1001
ACDBBLOCKREPETAG
1070
     1
1071
       16
1005
12A7EA
  0
LINE
  5
12A7EB
  8
OBJECT
 10
5935.0
 20
-570.99999999999955
 30
0.0
 11
6065.0
 21
-570.99999999999955
 31
0.0
1001
ACDBBLOCKREPETAG
1070
     1
1071
       17
1005
12A7EB
  0
LINE
  5
12A7EC
  8
OBJECT
 10
6065.0
 20
-570.99999999999955
 30
0.0
 11
6065.0
 21
-549.99999999999955
 31
0.0
1001
ACDBBLOCKREPETAG
1070
     1
1071
       18
1005
12A7EC
  0
LINE
  5
12A7ED
  8
OBJECT
 10
6065.0
 20
-549.99999999999955
 30
0.0
 11
5935.0
 21
-549.99999999999955
 31
0.0
1001
ACDBBLOCKREPETAG
1070
     1
1071
       19
1005
12A7ED
  0
LINE
  5
12A7EE
  8
HIDDEN
 10
6044.5
 20
-619.99999999999955
 30
0.0
 11
5955.5
 21
-619.99999999999955
 31
0.0
1001
ACDBBLOCKREPETAG
1070
     1
1071
       20
1005
12A7EE
  0
LINE
  5
12A7EF
  8
CENTER
 10
6000.0
 20
-769.99999999999955
 30
0.0
 11
6000.0
 21
-534.99999999999955
 31
0.0
1001
ACDBBLOCKREPETAG
1070
     1
1071
       21
1005
12A7EF
  0
LINE
  5
12A7F0
  8
OBJECT
 10
5940.5
 20
-570.99999999999955
 30
0.0
 11
5940.5
 21
-633.99999999999955
 31
0.0
1001
ACDBBLOCKREPETAG
1070
     1
1071
       22
1005
12A7F0
  0
LINE
  5
12A7F1
  8
OBJECT
 10
5930.0
 20
-633.99999999999955
 30
0.0
 11
6070.0
 21
-633.99999999999955
 31
0.0
1001
ACDBBLOCKREPETAG
1070
     1
1071
       23
1005
12A7F1
  0
LINE
  5
12A7F2
  8
OBJECT
 10
6059.4999999999991
 20
-633.99999999999955
 30
0.0
 11
6059.4999999999991
 21
-570.99999999999955
 31
0.0
1001
ACDBBLOCKREPETAG
1070
     1
1071
       24
1005
12A7F2
  0
LINE
  5
12A7F3
  8
OBJECT
 10
5930.0
 20
-757.99999999999955
 30
0.0
 11
5930.0
 21
-769.99999999999955
 31
0.0
1001
ACDBBLOCKREPETAG
1070
     1
1071
       25
1005
12A7F3
  0
LINE
  5
12A7F4
  8
OBJECT
 10
5930.0
 20
-769.99999999999955
 30
0.0
 11
6070.0
 21
-769.99999999999955
 31
0.0
1001
ACDBBLOCKREPETAG
1070
     1
1071
       26
1005
12A7F4
  0
LINE
  5
12A7F5
  8
OBJECT
 10
6070.0
 20
-769.99999999999955
 30
0.0
 11
6070.0
 21
-757.99999999999955
 31
0.0
1001
ACDBBLOCKREPETAG
1070
     1
1071
       27
1005
12A7F5
  0
LINE
  5
12A7F6
  8
OBJECT
 10
6070.0
 20
-757.99999999999955
 30
0.0
 11
5930.0
 21
-757.99999999999955
 31
0.0
1001
ACDBBLOCKREPETAG
1070
     1
1071
       28
1005
12A7F6
  0
ARC
  5
12A7F7
  8
OBJECT
 10
6435.0384389946776
 20
-998.60813684682694
 30
0.0
 40
519.48776673616965
 50
135.42350667430969
 51
138.50052655621499
1001
ACDBBLOCKREPETAG
1070
     1
1071
       32
1005
12A7F7
  0
ARC
  5
12A7F8
  8
OBJECT
 10
6435.0384389946776
 20
-393.39186315317193
 30
0.0
 40
519.48776673616965
 50
221.49947344378501
 51
224.57649332569039
1001
ACDBBLOCKREPETAG
1070
     1
1071
       33
1005
12A7F8
  0
ARC
  5
12A7F9
  8
OBJECT
 10
5564.9615610053224
 20
-998.60813684682694
 30
0.0
 40
519.48776673616965
 50
41.499473443784993
 51
44.576493325690237
1001
ACDBBLOCKREPETAG
1070
     1
1071
       34
1005
12A7F9
  0
ARC
  5
12A7FA
  8
OBJECT
 10
5564.9615610053224
 20
-393.39186315317193
 30
0.0
 40
519.48776673616965
 50
315.42350667430981
 51
318.50052655621488
1001
ACDBBLOCKREPETAG
1070
     1
1071
       35
1005
12A7FA
  0
POINT
  5
12A7FB
  8
DOTS
 10
6000.0
 20
-754.99999999999955
 30
0.0
1001
ACDBBLOCKREPETAG
1070
     1
1071
      111
1005
12A7FB
  0
LINE
  5
12A7FC
  8
OBJECT
 10
5877.0
 20
-246.99999999999909
 30
0.0
 11
5870.0
 21
-246.99999999999909
 31
0.0
1001
ACDBBLOCKREPETAG
1070
     1
1071
        7
1005
12A7FC
  0
LINE
  5
12A7FD
  8
OBJECT
 10
5870.0
 20
-246.99999999999909
 30
0.0
 11
5870.0
 21
-152.99999999999909
 31
0.0
1001
ACDBBLOCKREPETAG
1070
     1
1071
        8
1005
12A7FD
  0
LINE
  5
12A7FE
  8
OBJECT
 10
5870.0
 20
-152.99999999999909
 30
0.0
 11
5877.0
 21
-152.99999999999909
 31
0.0
1001
ACDBBLOCKREPETAG
1070
     1
1071
        9
1005
12A7FE
  0
LINE
  5
12A7FF
  8
OBJECT
 10
5877.0
 20
-152.99999999999909
 30
0.0
 11
5877.0
 21
-246.99999999999909
 31
0.0
1001
ACDBBLOCKREPETAG
1070
     1
1071
       10
1005
12A7FF
  0
LINE
  5
12A800
  8
CENTER
 10
5855.0
 20
-199.99999999999909
 30
0.0
 11
5930.0
 21
-199.99999999999909
 31
0.0
1001
ACDBBLOCKREPETAG
1070
     1
1071
       11
1005
12A800
  0
LINE
  5
12A801
  8
OBJECT
 10
5877.0
 20
-243.99999999999909
 30
0.0
 11
5913.0
 21
-243.99999999999909
 31
0.0
1001
ACDBBLOCKREPETAG
1070
     1
1071
       12
1005
12A801
  0
LINE
  5
12A802
  8
OBJECT
 10
5913.0
 20
-243.99999999999909
 30
0.0
 11
5913.0
 21
-155.99999999999909
 31
0.0
1001
ACDBBLOCKREPETAG
1070
     1
1071
       13
1005
12A802
  0
LINE
  5
12A803
  8
OBJECT
 10
5913.0
 20
-155.99999999999909
 30
0.0
 11
5877.0
 21
-155.99999999999909
 31
0.0
1001
ACDBBLOCKREPETAG
1070
     1
1071
       14
1005
12A803
  0
LINE
  5
12A804
  8
OBJECT
 10
5917.0
 20
-239.49999999999909
 30
0.0
 11
5924.0
 21
-239.49999999999909
 31
0.0
1001
ACDBBLOCKREPETAG
1070
     1
1071
       15
1005
12A804
  0
LINE
  5
12A805
  8
OBJECT
 10
5924.0
 20
-160.49999999999909
 30
0.0
 11
5917.0
 21
-160.49999999999909
 31
0.0
1001
ACDBBLOCKREPETAG
1070
     1
1071
       16
1005
12A805
  0
LINE
  5
12A806
  8
OBJECT
 10
5917.0
 20
-160.49999999999909
 30
0.0
 11
5917.0
 21
-239.49999999999909
 31
0.0
1001
ACDBBLOCKREPETAG
1070
     1
1071
       17
1005
12A806
  0
LINE
  5
12A807
  8
OBJECT
 10
5913.0
 20
-243.99999999999909
 30
0.0
 11
5917.0
 21
-239.49999999999909
 31
0.0
1001
ACDBBLOCKREPETAG
1070
     1
1071
       18
1005
12A807
  0
LINE
  5
12A808
  8
OBJECT
 10
5913.0
 20
-155.99999999999909
 30
0.0
 11
5917.0
 21
-160.49999999999909
 31
0.0
1001
ACDBBLOCKREPETAG
1070
     1
1071
       19
1005
12A808
  0
LINE
  5
12A809
  8
OBJECT
 10
5927.0
 20
-261.99999999999909
 30
0.0
 11
5930.0
 21
-261.99999999999909
 31
0.0
1001
ACDBBLOCKREPETAG
1070
     1
1071
       20
1005
12A809
  0
ARC
  5
12A80A
  8
OBJECT
 10
5927.0
 20
-258.99999999999909
 30
0.0
 40
3.0
 50
180.0
 51
270.0
1001
ACDBBLOCKREPETAG
1070
     1
1071
       21
1005
12A80A
  0
LINE
  5
12A80B
  8
OBJECT
 10
5930.0
 20
-137.99999999999909
 30
0.0
 11
5927.0
 21
-137.99999999999909
 31
0.0
1001
ACDBBLOCKREPETAG
1070
     1
1071
       22
1005
12A80B
  0
ARC
  5
12A80C
  8
OBJECT
 10
5927.0
 20
-140.99999999999909
 30
0.0
 40
3.0
 50
90.0
 51
180.0
1001
ACDBBLOCKREPETAG
1070
     1
1071
       23
1005
12A80C
  0
LINE
  5
12A80D
  8
OBJECT
 10
5924.0
 20
-140.99999999999909
 30
0.0
 11
5924.0
 21
-258.99999999999909
 31
0.0
1001
ACDBBLOCKREPETAG
1070
     1
1071
       24
1005
12A80D
  0
LINE
  5
12A80E
  8
HIDDEN
 10
5922.0
 20
-229.99999999999909
 30
0.0
 11
5922.0
 21
-169.99999999999909
 31
0.0
1001
ACDBBLOCKREPETAG
1070
     1
1071
       25
1005
12A80E
  0
LINE
  5
12A80F
  8
CENTER
 10
6000.0
 20
-290.99999999999898
 30
0.0
 11
6000.0
 21
-269.99999999999909
 31
0.0
1001
ACDBBLOCKREPETAG
1070
     1
1071
        0
1005
12A80F
  0
LINE
  5
12A810
  8
OBJECT
 10
6062.0
 20
-273.0
 30
0.0
 11
6062.0
 21
-269.99999999999909
 31
0.0
1001
ACDBBLOCKREPETAG
1070
     1
1071
        1
1005
12A810
  0
ARC
  5
12A811
  8
OBJECT
 10
6059.0
 20
-273.0
 30
0.0
 40
3.0
 50
270.0
 51
0.0
1001
ACDBBLOCKREPETAG
1070
     1
1071
        2
1005
12A811
  0
LINE
  5
12A812
  8
OBJECT
 10
5938.0
 20
-269.99999999999909
 30
0.0
 11
5938.0
 21
-272.99999999999818
 31
0.0
1001
ACDBBLOCKREPETAG
1070
     1
1071
        3
1005
12A812
  0
ARC
  5
12A813
  8
OBJECT
 10
5941.0
 20
-272.99999999999818
 30
0.0
 40
3.0
 50
180.0
 51
270.0
1001
ACDBBLOCKREPETAG
1070
     1
1071
        4
1005
12A813
  0
LINE
  5
12A814
  8
OBJECT
 10
5941.0
 20
-275.99999999999818
 30
0.0
 11
6059.0
 21
-276.0
 31
0.0
1001
ACDBBLOCKREPETAG
1070
     1
1071
        5
1005
12A814
  0
POINT
  5
12A815
  8
DOTS
 10
6000.0
 20
-199.99999999999909
 30
0.0
 50
270.0
1001
ACDBBLOCKREPETAG
1070
     1
1071
      153
1005
12A815
  0
ARC
  5
12A816
  8
OBJECT
 10
6000.0
 20
-199.99999999999909
 30
0.0
 40
70.0
 50
62.339550100781771
 51
117.66044989921819
1001
ACDBBLOCKREPETAG
1070
     1
1071
        0
1005
12A816
  0
CIRCLE
  5
12A817
  8
OBJECT
 10
6000.0
 20
-199.99999999999909
 30
0.0
 40
65.0
1001
ACDBBLOCKREPETAG
1070
     1
1071
        1
1005
12A817
  0
CIRCLE
  5
12A818
  8
OBJECT
 10
6000.0
 20
-199.99999999999909
 30
0.0
 40
41.0
1001
ACDBBLOCKREPETAG
1070
     1
1071
        2
1005
12A818
  0
CIRCLE
  5
12A819
  8
OBJECT
 10
6000.0
 20
-199.99999999999909
 30
0.0
 40
58.0
1001
ACDBBLOCKREPETAG
1070
     1
1071
        3
1005
12A819
  0
LINE
  5
12A81A
  8
OBJECT
 10
6070.0
 20
-137.99999999999909
 30
0.0
 11
6019.5192212959437
 21
-137.99999999999909
 31
0.0
1001
ACDBBLOCKREPETAG
1070
     1
1071
        4
1005
12A81A
  0
LINE
  5
12A81B
  8
OBJECT
 10
5930.0
 20
-137.99999999999909
 30
0.0
 11
5980.4807787040563
 21
-137.99999999999909
 31
0.0
1001
ACDBBLOCKREPETAG
1070
     1
1071
        5
1005
12A81B
  0
LINE
  5
12A81C
  8
OBJECT
 10
5930.0
 20
-261.99999999999909
 30
0.0
 11
5938.0
 21
-261.99999999999909
 31
0.0
1001
ACDBBLOCKREPETAG
1070
     1
1071
        6
1005
12A81C
  0
LINE
  5
12A81D
  8
OBJECT
 10
5938.0
 20
-269.99999999999909
 30
0.0
 11
5938.0
 21
-261.99999999999909
 31
0.0
1001
ACDBBLOCKREPETAG
1070
     1
1071
        7
1005
12A81D
  0
LINE
  5
12A81E
  8
OBJECT
 10
6070.0
 20
-261.99999999999909
 30
0.0
 11
6062.0
 21
-261.99999999999909
 31
0.0
1001
ACDBBLOCKREPETAG
1070
     1
1071
        8
1005
12A81E
  0
LINE
  5
12A81F
  8
OBJECT
 10
6062.0
 20
-269.99999999999909
 30
0.0
 11
6062.0
 21
-261.99999999999909
 31
0.0
1001
ACDBBLOCKREPETAG
1070
     1
1071
        9
1005
12A81F
  0
LINE
  5
12A820
  8
CENTER
 10
5930.0
 20
-199.99999999999909
 30
0.0
 11
6070.0
 21
-199.99999999999909
 31
0.0
1001
ACDBBLOCKREPETAG
1070
     1
1071
       10
1005
12A820
  0
LINE
  5
12A821
  8
CENTER
 10
6000.0
 20
-269.99999999999909
 30
0.0
 11
6000.0
 21
-114.9999999999991
 31
0.0
1001
ACDBBLOCKREPETAG
1070
     1
1071
       11
1005
12A821
  0
ARC
  5
12A822
  8
OBJECT
 10
5989.9027621391879
 20
-224.44352901899131
 30
0.0
 40
7.0
 50
73.001272229719234
 51
154.0502587894434
1001
ACDBBLOCKREPETAG
1070
     1
1071
       12
1005
12A822
  0
ARC
  5
12A823
  8
OBJECT
 10
5986.8376610706491
 20
-225.5978773169509
 30
0.0
 40
9.0
 50
73.001272229719234
 51
154.0502639259247
1001
ACDBBLOCKREPETAG
1070
     1
1071
       13
1005
12A823
  0
ARC
  5
12A824
  8
OBJECT
 10
5896.3142301315529
 20
-147.28130031148149
 30
0.0
 40
150.0
 50
322.89503374001981
 51
325.89314996972843
1001
ACDBBLOCKREPETAG
1070
     1
1071
       14
1005
12A824
  0
ARC
  5
12A825
  8
OBJECT
 10
6000.0
 20
-199.99999999999909
 30
0.0
 40
37.5
 50
303.1627666766604
 51
229.1635024908081
1001
ACDBBLOCKREPETAG
1070
     1
1071
       15
1005
12A825
  0
LINE
  5
12A826
  8
OBJECT
 10
5983.6085145189763
 20
-221.38045100897119
 30
0.0
 11
5977.3740109999999
 21
-234.1915870000002
 31
0.0
1001
ACDBBLOCKREPETAG
1070
     1
1071
       16
1005
12A826
  0
LINE
  5
12A827
  8
OBJECT
 10
5978.7450566344633
 20
-221.65963488670511
 30
0.0
 11
5973.8986720000003
 21
-231.6183599999996
 31
0.0
1001
ACDBBLOCKREPETAG
1070
     1
1071
       17
1005
12A827
  0
LINE
  5
12A828
  8
OBJECT
 10
6018.9380179999998
 20
-226.00000000000091
 30
0.0
 11
5989.4688153032585
 21
-216.99107608744359
 31
0.0
1001
ACDBBLOCKREPETAG
1070
     1
1071
       18
1005
12A828
  0
LINE
  5
12A829
  8
OBJECT
 10
6020.5132253090051
 20
-231.39199878029191
 30
0.0
 11
6018.9380179999998
 21
-226.00000000000091
 31
0.0
1001
ACDBBLOCKREPETAG
1070
     1
1071
       19
1005
12A829
  0
LINE
  5
12A82A
  8
OBJECT
 10
5954.0380592228739
 20
-245.96194077712471
 30
0.0
 11
5938.0
 21
-261.99999999999909
 31
0.0
1001
ACDBBLOCKREPETAG
1070
     1
1071
       42
1005
12A82A
  0
LINE
  5
12A82B
  8
OBJECT
 10
6045.9619407771252
 20
-245.96194077712471
 30
0.0
 11
6062.0
 21
-261.99999999999909
 31
0.0
1001
ACDBBLOCKREPETAG
1070
     1
1071
       43
1005
12A82B
  0
LINE
  5
12A82C
  8
OBJECT
 10
6123.0
 20
-663.99999999999966
 30
0.0
 11
6130.0
 21
-663.99999999999966
 31
0.0
1001
ACDBBLOCKREPETAG
1070
     1
1071
        7
1005
12A82C
  0
LINE
  5
12A82D
  8
OBJECT
 10
6130.0
 20
-663.99999999999966
 30
0.0
 11
6130.0
 21
-754.99999999999955
 31
0.0
1001
ACDBBLOCKREPETAG
1070
     1
1071
        8
1005
12A82D
  0
LINE
  5
12A82E
  8
OBJECT
 10
6123.0
 20
-754.99999999999955
 30
0.0
 11
6123.0
 21
-663.99999999999966
 31
0.0
1001
ACDBBLOCKREPETAG
1070
     1
1071
        9
1005
12A82E
  0
LINE
  5
12A82F
  8
CENTER
 10
6145.0
 20
-710.99999999999955
 30
0.0
 11
6061.0
 21
-710.99999999999955
 31
0.0
1001
ACDBBLOCKREPETAG
1070
     1
1071
       10
1005
12A82F
  0
LINE
  5
12A830
  8
OBJECT
 10
6123.0
 20
-666.99999999999955
 30
0.0
 11
6087.0
 21
-666.99999999999955
 31
0.0
1001
ACDBBLOCKREPETAG
1070
     1
1071
       11
1005
12A830
  0
LINE
  5
12A831
  8
OBJECT
 10
6087.0
 20
-666.99999999999955
 30
0.0
 11
6087.0
 21
-754.99999999999955
 31
0.0
1001
ACDBBLOCKREPETAG
1070
     1
1071
       12
1005
12A831
  0
LINE
  5
12A832
  8
OBJECT
 10
6087.0
 20
-754.99999999999955
 30
0.0
 11
6130.0
 21
-754.99999999999955
 31
0.0
1001
ACDBBLOCKREPETAG
1070
     1
1071
       13
1005
12A832
  0
LINE
  5
12A833
  8
OBJECT
 10
6083.0
 20
-671.49999999999955
 30
0.0
 11
6076.0
 21
-671.49999999999955
 31
0.0
1001
ACDBBLOCKREPETAG
1070
     1
1071
       14
1005
12A833
  0
LINE
  5
12A834
  8
OBJECT
 10
6076.0
 20
-750.49999999999955
 30
0.0
 11
6083.0
 21
-750.49999999999955
 31
0.0
1001
ACDBBLOCKREPETAG
1070
     1
1071
       15
1005
12A834
  0
LINE
  5
12A835
  8
OBJECT
 10
6083.0
 20
-750.49999999999955
 30
0.0
 11
6083.0
 21
-671.49999999999955
 31
0.0
1001
ACDBBLOCKREPETAG
1070
     1
1071
       16
1005
12A835
  0
LINE
  5
12A836
  8
OBJECT
 10
6087.0
 20
-666.99999999999955
 30
0.0
 11
6083.0
 21
-671.49999999999955
 31
0.0
1001
ACDBBLOCKREPETAG
1070
     1
1071
       17
1005
12A836
  0
LINE
  5
12A837
  8
OBJECT
 10
6087.0
 20
-754.99999999999955
 30
0.0
 11
6083.0
 21
-750.49999999999955
 31
0.0
1001
ACDBBLOCKREPETAG
1070
     1
1071
       18
1005
12A837
  0
LINE
  5
12A838
  8
OBJECT
 10
6073.0
 20
-633.99999999999955
 30
0.0
 11
6070.0
 21
-633.99999999999955
 31
0.0
1001
ACDBBLOCKREPETAG
1070
     1
1071
       19
1005
12A838
  0
ARC
  5
12A839
  8
OBJECT
 10
6073.0
 20
-636.99999999999955
 30
0.0
 40
3.0
 50
0.0
 51
90.0
1001
ACDBBLOCKREPETAG
1070
     1
1071
       20
1005
12A839
  0
LINE
  5
12A83A
  8
OBJECT
 10
6070.0
 20
-757.99999999999955
 30
0.0
 11
6073.0
 21
-757.99999999999955
 31
0.0
1001
ACDBBLOCKREPETAG
1070
     1
1071
       21
1005
12A83A
  0
ARC
  5
12A83B
  8
OBJECT
 10
6073.0
 20
-754.99999999999955
 30
0.0
 40
3.0
 50
270.0
 51
0.0
1001
ACDBBLOCKREPETAG
1070
     1
1071
       22
1005
12A83B
  0
LINE
  5
12A83C
  8
OBJECT
 10
6076.0
 20
-754.99999999999955
 30
0.0
 11
6076.0
 21
-636.99999999999955
 31
0.0
1001
ACDBBLOCKREPETAG
1070
     1
1071
       23
1005
12A83C
  0
LINE
  5
12A83D
  8
HIDDEN
 10
6078.0
 20
-680.99999999999955
 30
0.0
 11
6078.0
 21
-740.99999999999955
 31
0.0
1001
ACDBBLOCKREPETAG
1070
     1
1071
       24
1005
12A83D
  0
LINE
  5
12A83E
  8
OBJECT
 10
6123.0
 20
-152.99999999999909
 30
0.0
 11
6130.0
 21
-152.99999999999909
 31
0.0
1001
ACDBBLOCKREPETAG
1070
     1
1071
        7
1005
12A83E
  0
LINE
  5
12A83F
  8
OBJECT
 10
6130.0
 20
-152.99999999999909
 30
0.0
 11
6130.0
 21
-246.99999999999909
 31
0.0
1001
ACDBBLOCKREPETAG
1070
     1
1071
        8
1005
12A83F
  0
LINE
  5
12A840
  8
OBJECT
 10
6130.0
 20
-246.99999999999909
 30
0.0
 11
6123.0
 21
-246.99999999999909
 31
0.0
1001
ACDBBLOCKREPETAG
1070
     1
1071
        9
1005
12A840
  0
LINE
  5
12A841
  8
OBJECT
 10
6123.0
 20
-246.99999999999909
 30
0.0
 11
6123.0
 21
-152.99999999999909
 31
0.0
1001
ACDBBLOCKREPETAG
1070
     1
1071
       10
1005
12A841
  0
LINE
  5
12A842
  8
CENTER
 10
6145.0
 20
-199.99999999999909
 30
0.0
 11
6070.0
 21
-199.99999999999909
 31
0.0
1001
ACDBBLOCKREPETAG
1070
     1
1071
       11
1005
12A842
  0
LINE
  5
12A843
  8
OBJECT
 10
6123.0
 20
-155.99999999999909
 30
0.0
 11
6087.0
 21
-155.99999999999909
 31
0.0
1001
ACDBBLOCKREPETAG
1070
     1
1071
       12
1005
12A843
  0
LINE
  5
12A844
  8
OBJECT
 10
6087.0
 20
-155.99999999999909
 30
0.0
 11
6087.0
 21
-243.99999999999909
 31
0.0
1001
ACDBBLOCKREPETAG
1070
     1
1071
       13
1005
12A844
  0
LINE
  5
12A845
  8
OBJECT
 10
6087.0
 20
-243.99999999999909
 30
0.0
 11
6123.0
 21
-243.99999999999909
 31
0.0
1001
ACDBBLOCKREPETAG
1070
     1
1071
       14
1005
12A845
  0
LINE
  5
12A846
  8
OBJECT
 10
6083.0
 20
-160.49999999999909
 30
0.0
 11
6076.0
 21
-160.49999999999909
 31
0.0
1001
ACDBBLOCKREPETAG
1070
     1
1071
       15
1005
12A846
  0
LINE
  5
12A847
  8
OBJECT
 10
6076.0
 20
-239.49999999999909
 30
0.0
 11
6083.0
 21
-239.49999999999909
 31
0.0
1001
ACDBBLOCKREPETAG
1070
     1
1071
       16
1005
12A847
  0
LINE
  5
12A848
  8
OBJECT
 10
6083.0
 20
-239.49999999999909
 30
0.0
 11
6083.0
 21
-160.49999999999909
 31
0.0
1001
ACDBBLOCKREPETAG
1070
     1
1071
       17
1005
12A848
  0
LINE
  5
12A849
  8
OBJECT
 10
6087.0
 20
-155.99999999999909
 30
0.0
 11
6083.0
 21
-160.49999999999909
 31
0.0
1001
ACDBBLOCKREPETAG
1070
     1
1071
       18
1005
12A849
  0
LINE
  5
12A84A
  8
OBJECT
 10
6087.0
 20
-243.99999999999909
 30
0.0
 11
6083.0
 21
-239.49999999999909
 31
0.0
1001
ACDBBLOCKREPETAG
1070
     1
1071
       19
1005
12A84A
  0
LINE
  5
12A84B
  8
OBJECT
 10
6073.0
 20
-137.99999999999909
 30
0.0
 11
6070.0
 21
-137.99999999999909
 31
0.0
1001
ACDBBLOCKREPETAG
1070
     1
1071
       20
1005
12A84B
  0
ARC
  5
12A84C
  8
OBJECT
 10
6073.0
 20
-140.99999999999909
 30
0.0
 40
3.0
 50
0.0
 51
90.0
1001
ACDBBLOCKREPETAG
1070
     1
1071
       21
1005
12A84C
  0
LINE
  5
12A84D
  8
OBJECT
 10
6070.0
 20
-261.99999999999909
 30
0.0
 11
6073.0
 21
-261.99999999999909
 31
0.0
1001
ACDBBLOCKREPETAG
1070
     1
1071
       22
1005
12A84D
  0
ARC
  5
12A84E
  8
OBJECT
 10
6073.0
 20
-258.99999999999909
 30
0.0
 40
3.0
 50
270.0
 51
0.0
1001
ACDBBLOCKREPETAG
1070
     1
1071
       23
1005
12A84E
  0
LINE
  5
12A84F
  8
OBJECT
 10
6076.0
 20
-258.99999999999909
 30
0.0
 11
6076.0
 21
-140.99999999999909
 31
0.0
1001
ACDBBLOCKREPETAG
1070
     1
1071
       24
1005
12A84F
  0
LINE
  5
12A850
  8
HIDDEN
 10
6078.0
 20
-169.99999999999909
 30
0.0
 11
6078.0
 21
-229.99999999999909
 31
0.0
1001
ACDBBLOCKREPETAG
1070
     1
1071
       25
1005
12A850
  0
LINE
  5
12A851
  8
OBJECT
 10
3877.0
 20
-663.99999999999966
 30
0.0
 11
3870.0
 21
-663.99999999999966
 31
0.0
1001
ACDBBLOCKREPETAG
1070
     1
1071
        7
1005
12A851
  0
LINE
  5
12A852
  8
OBJECT
 10
3870.0
 20
-663.99999999999966
 30
0.0
 11
3870.0
 21
-754.99999999999955
 31
0.0
1001
ACDBBLOCKREPETAG
1070
     1
1071
        8
1005
12A852
  0
LINE
  5
12A853
  8
OBJECT
 10
3877.0
 20
-754.99999999999955
 30
0.0
 11
3877.0
 21
-663.99999999999966
 31
0.0
1001
ACDBBLOCKREPETAG
1070
     1
1071
        9
1005
12A853
  0
LINE
  5
12A854
  8
CENTER
 10
3855.0
 20
-710.99999999999955
 30
0.0
 11
3939.0
 21
-710.99999999999955
 31
0.0
1001
ACDBBLOCKREPETAG
1070
     1
1071
       10
1005
12A854
  0
LINE
  5
12A855
  8
OBJECT
 10
3877.0
 20
-666.99999999999955
 30
0.0
 11
3913.0
 21
-666.99999999999955
 31
0.0
1001
ACDBBLOCKREPETAG
1070
     1
1071
       11
1005
12A855
  0
LINE
  5
12A856
  8
OBJECT
 10
3913.0
 20
-666.99999999999955
 30
0.0
 11
3913.0
 21
-754.99999999999955
 31
0.0
1001
ACDBBLOCKREPETAG
1070
     1
1071
       12
1005
12A856
  0
LINE
  5
12A857
  8
OBJECT
 10
3913.0
 20
-754.99999999999955
 30
0.0
 11
3870.0
 21
-754.99999999999955
 31
0.0
1001
ACDBBLOCKREPETAG
1070
     1
1071
       13
1005
12A857
  0
LINE
  5
12A858
  8
OBJECT
 10
3917.0
 20
-671.49999999999955
 30
0.0
 11
3924.0
 21
-671.49999999999955
 31
0.0
1001
ACDBBLOCKREPETAG
1070
     1
1071
       14
1005
12A858
  0
LINE
  5
12A859
  8
OBJECT
 10
3924.0
 20
-750.49999999999955
 30
0.0
 11
3917.0
 21
-750.49999999999955
 31
0.0
1001
ACDBBLOCKREPETAG
1070
     1
1071
       15
1005
12A859
  0
LINE
  5
12A85A
  8
OBJECT
 10
3917.0
 20
-750.49999999999955
 30
0.0
 11
3917.0
 21
-671.49999999999955
 31
0.0
1001
ACDBBLOCKREPETAG
1070
     1
1071
       16
1005
12A85A
  0
LINE
  5
12A85B
  8
OBJECT
 10
3913.0
 20
-666.99999999999955
 30
0.0
 11
3917.0
 21
-671.49999999999955
 31
0.0
1001
ACDBBLOCKREPETAG
1070
     1
1071
       17
1005
12A85B
  0
LINE
  5
12A85C
  8
OBJECT
 10
3913.0
 20
-754.99999999999955
 30
0.0
 11
3917.0
 21
-750.49999999999955
 31
0.0
1001
ACDBBLOCKREPETAG
1070
     1
1071
       18
1005
12A85C
  0
LINE
  5
12A85D
  8
OBJECT
 10
3927.0
 20
-633.99999999999955
 30
0.0
 11
3930.0
 21
-633.99999999999955
 31
0.0
1001
ACDBBLOCKREPETAG
1070
     1
1071
       19
1005
12A85D
  0
ARC
  5
12A85E
  8
OBJECT
 10
3927.0
 20
-636.99999999999955
 30
0.0
 40
3.0
 50
90.0
 51
180.0
1001
ACDBBLOCKREPETAG
1070
     1
1071
       20
1005
12A85E
  0
LINE
  5
12A85F
  8
OBJECT
 10
3930.0
 20
-757.99999999999955
 30
0.0
 11
3927.0
 21
-757.99999999999955
 31
0.0
1001
ACDBBLOCKREPETAG
1070
     1
1071
       21
1005
12A85F
  0
ARC
  5
12A860
  8
OBJECT
 10
3927.0
 20
-754.99999999999955
 30
0.0
 40
3.0
 50
180.0
 51
270.0
1001
ACDBBLOCKREPETAG
1070
     1
1071
       22
1005
12A860
  0
LINE
  5
12A861
  8
OBJECT
 10
3924.0
 20
-754.99999999999955
 30
0.0
 11
3924.0
 21
-636.99999999999955
 31
0.0
1001
ACDBBLOCKREPETAG
1070
     1
1071
       23
1005
12A861
  0
LINE
  5
12A862
  8
HIDDEN
 10
3922.0
 20
-680.99999999999955
 30
0.0
 11
3922.0
 21
-740.99999999999955
 31
0.0
1001
ACDBBLOCKREPETAG
1070
     1
1071
       24
1005
12A862
  0
CIRCLE
  5
12A863
  8
OBJECT
 10
4000.0
 20
-696.0
 30
0.0
 40
62.0
1001
ACDBBLOCKREPETAG
1070
     1
1071
        0
1005
12A863
  0
LINE
  5
12A864
  8
OBJECT
 10
3935.0
 20
-549.99999999999955
 30
0.0
 11
3935.0
 21
-570.99999999999955
 31
0.0
1001
ACDBBLOCKREPETAG
1070
     1
1071
       16
1005
12A864
  0
LINE
  5
12A865
  8
OBJECT
 10
3935.0
 20
-570.99999999999955
 30
0.0
 11
4065.0
 21
-570.99999999999955
 31
0.0
1001
ACDBBLOCKREPETAG
1070
     1
1071
       17
1005
12A865
  0
LINE
  5
12A866
  8
OBJECT
 10
4065.0
 20
-570.99999999999955
 30
0.0
 11
4065.0
 21
-549.99999999999955
 31
0.0
1001
ACDBBLOCKREPETAG
1070
     1
1071
       18
1005
12A866
  0
LINE
  5
12A867
  8
OBJECT
 10
4065.0
 20
-549.99999999999955
 30
0.0
 11
3935.0
 21
-549.99999999999955
 31
0.0
1001
ACDBBLOCKREPETAG
1070
     1
1071
       19
1005
12A867
  0
LINE
  5
12A868
  8
HIDDEN
 10
4044.5
 20
-619.99999999999955
 30
0.0
 11
3955.5
 21
-619.99999999999955
 31
0.0
1001
ACDBBLOCKREPETAG
1070
     1
1071
       20
1005
12A868
  0
LINE
  5
12A869
  8
CENTER
 10
4000.0
 20
-769.99999999999955
 30
0.0
 11
4000.0
 21
-534.99999999999955
 31
0.0
1001
ACDBBLOCKREPETAG
1070
     1
1071
       21
1005
12A869
  0
LINE
  5
12A86A
  8
OBJECT
 10
3940.5
 20
-570.99999999999955
 30
0.0
 11
3940.5
 21
-633.99999999999955
 31
0.0
1001
ACDBBLOCKREPETAG
1070
     1
1071
       22
1005
12A86A
  0
LINE
  5
12A86B
  8
OBJECT
 10
3930.0
 20
-633.99999999999955
 30
0.0
 11
4070.0
 21
-633.99999999999955
 31
0.0
1001
ACDBBLOCKREPETAG
1070
     1
1071
       23
1005
12A86B
  0
LINE
  5
12A86C
  8
OBJECT
 10
4059.4999999999982
 20
-633.99999999999955
 30
0.0
 11
4059.4999999999982
 21
-570.99999999999955
 31
0.0
1001
ACDBBLOCKREPETAG
1070
     1
1071
       24
1005
12A86C
  0
LINE
  5
12A86D
  8
OBJECT
 10
3930.0
 20
-757.99999999999955
 30
0.0
 11
3930.0
 21
-769.99999999999955
 31
0.0
1001
ACDBBLOCKREPETAG
1070
     1
1071
       25
1005
12A86D
  0
LINE
  5
12A86E
  8
OBJECT
 10
3930.0
 20
-769.99999999999955
 30
0.0
 11
4070.0
 21
-769.99999999999955
 31
0.0
1001
ACDBBLOCKREPETAG
1070
     1
1071
       26
1005
12A86E
  0
LINE
  5
12A86F
  8
OBJECT
 10
4070.0
 20
-769.99999999999955
 30
0.0
 11
4070.0
 21
-757.99999999999955
 31
0.0
1001
ACDBBLOCKREPETAG
1070
     1
1071
       27
1005
12A86F
  0
LINE
  5
12A870
  8
OBJECT
 10
4070.0
 20
-757.99999999999955
 30
0.0
 11
3930.0
 21
-757.99999999999955
 31
0.0
1001
ACDBBLOCKREPETAG
1070
     1
1071
       28
1005
12A870
  0
ARC
  5
12A871
  8
OBJECT
 10
4435.0384389946767
 20
-998.60813684682694
 30
0.0
 40
519.48776673616965
 50
135.42350667430969
 51
138.50052655621499
1001
ACDBBLOCKREPETAG
1070
     1
1071
       32
1005
12A871
  0
ARC
  5
12A872
  8
OBJECT
 10
4435.0384389946767
 20
-393.39186315317193
 30
0.0
 40
519.48776673616965
 50
221.49947344378501
 51
224.57649332569039
1001
ACDBBLOCKREPETAG
1070
     1
1071
       33
1005
12A872
  0
ARC
  5
12A873
  8
OBJECT
 10
3564.961561005322
 20
-998.60813684682694
 30
0.0
 40
519.48776673616965
 50
41.499473443784993
 51
44.576493325690237
1001
ACDBBLOCKREPETAG
1070
     1
1071
       34
1005
12A873
  0
ARC
  5
12A874
  8
OBJECT
 10
3564.961561005322
 20
-393.39186315317193
 30
0.0
 40
519.48776673616965
 50
315.42350667430981
 51
318.50052655621488
1001
ACDBBLOCKREPETAG
1070
     1
1071
       35
1005
12A874
  0
POINT
  5
12A875
  8
DOTS
 10
4000.0
 20
-754.99999999999955
 30
0.0
1001
ACDBBLOCKREPETAG
1070
     1
1071
      111
1005
12A875
  0
LINE
  5
12A876
  8
OBJECT
 10
3877.0
 20
-246.99999999999909
 30
0.0
 11
3870.0
 21
-246.99999999999909
 31
0.0
1001
ACDBBLOCKREPETAG
1070
     1
1071
        7
1005
12A876
  0
LINE
  5
12A877
  8
OBJECT
 10
3870.0
 20
-246.99999999999909
 30
0.0
 11
3870.0
 21
-152.99999999999909
 31
0.0
1001
ACDBBLOCKREPETAG
1070
     1
1071
        8
1005
12A877
  0
LINE
  5
12A878
  8
OBJECT
 10
3870.0
 20
-152.99999999999909
 30
0.0
 11
3877.0
 21
-152.99999999999909
 31
0.0
1001
ACDBBLOCKREPETAG
1070
     1
1071
        9
1005
12A878
  0
LINE
  5
12A879
  8
OBJECT
 10
3877.0
 20
-152.99999999999909
 30
0.0
 11
3877.0
 21
-246.99999999999909
 31
0.0
1001
ACDBBLOCKREPETAG
1070
     1
1071
       10
1005
12A879
  0
LINE
  5
12A87A
  8
CENTER
 10
3855.0
 20
-199.99999999999909
 30
0.0
 11
3930.0
 21
-199.99999999999909
 31
0.0
1001
ACDBBLOCKREPETAG
1070
     1
1071
       11
1005
12A87A
  0
LINE
  5
12A87B
  8
OBJECT
 10
3877.0
 20
-243.99999999999909
 30
0.0
 11
3913.0
 21
-243.99999999999909
 31
0.0
1001
ACDBBLOCKREPETAG
1070
     1
1071
       12
1005
12A87B
  0
LINE
  5
12A87C
  8
OBJECT
 10
3913.0
 20
-243.99999999999909
 30
0.0
 11
3913.0
 21
-155.99999999999909
 31
0.0
1001
ACDBBLOCKREPETAG
1070
     1
1071
       13
1005
12A87C
  0
LINE
  5
12A87D
  8
OBJECT
 10
3913.0
 20
-155.99999999999909
 30
0.0
 11
3877.0
 21
-155.99999999999909
 31
0.0
1001
ACDBBLOCKREPETAG
1070
     1
1071
       14
1005
12A87D
  0
LINE
  5
12A87E
  8
OBJECT
 10
3917.0
 20
-239.49999999999909
 30
0.0
 11
3924.0
 21
-239.49999999999909
 31
0.0
1001
ACDBBLOCKREPETAG
1070
     1
1071
       15
1005
12A87E
  0
LINE
  5
12A87F
  8
OBJECT
 10
3924.0
 20
-160.49999999999909
 30
0.0
 11
3917.0
 21
-160.49999999999909
 31
0.0
1001
ACDBBLOCKREPETAG
1070
     1
1071
       16
1005
12A87F
  0
LINE
  5
12A880
  8
OBJECT
 10
3917.0
 20
-160.49999999999909
 30
0.0
 11
3917.0
 21
-239.49999999999909
 31
0.0
1001
ACDBBLOCKREPETAG
1070
     1
1071
       17
1005
12A880
  0
LINE
  5
12A881
  8
OBJECT
 10
3913.0
 20
-243.99999999999909
 30
0.0
 11
3917.0
 21
-239.49999999999909
 31
0.0
1001
ACDBBLOCKREPETAG
1070
     1
1071
       18
1005
12A881
  0
LINE
  5
12A882
  8
OBJECT
 10
3913.0
 20
-155.99999999999909
 30
0.0
 11
3917.0
 21
-160.49999999999909
 31
0.0
1001
ACDBBLOCKREPETAG
1070
     1
1071
       19
1005
12A882
  0
LINE
  5
12A883
  8
OBJECT
 10
3927.0
 20
-261.99999999999909
 30
0.0
 11
3930.0
 21
-261.99999999999909
 31
0.0
1001
ACDBBLOCKREPETAG
1070
     1
1071
       20
1005
12A883
  0
ARC
  5
12A884
  8
OBJECT
 10
3927.0
 20
-258.99999999999909
 30
0.0
 40
3.0
 50
180.0
 51
270.0
1001
ACDBBLOCKREPETAG
1070
     1
1071
       21
1005
12A884
  0
LINE
  5
12A885
  8
OBJECT
 10
3930.0
 20
-137.99999999999909
 30
0.0
 11
3927.0
 21
-137.99999999999909
 31
0.0
1001
ACDBBLOCKREPETAG
1070
     1
1071
       22
1005
12A885
  0
ARC
  5
12A886
  8
OBJECT
 10
3927.0
 20
-140.99999999999909
 30
0.0
 40
3.0
 50
90.0
 51
180.0
1001
ACDBBLOCKREPETAG
1070
     1
1071
       23
1005
12A886
  0
LINE
  5
12A887
  8
OBJECT
 10
3924.0
 20
-140.99999999999909
 30
0.0
 11
3924.0
 21
-258.99999999999909
 31
0.0
1001
ACDBBLOCKREPETAG
1070
     1
1071
       24
1005
12A887
  0
LINE
  5
12A888
  8
HIDDEN
 10
3922.0
 20
-229.99999999999909
 30
0.0
 11
3922.0
 21
-169.99999999999909
 31
0.0
1001
ACDBBLOCKREPETAG
1070
     1
1071
       25
1005
12A888
  0
LINE
  5
12A889
  8
CENTER
 10
4000.0
 20
-290.99999999999898
 30
0.0
 11
4000.0
 21
-269.99999999999909
 31
0.0
1001
ACDBBLOCKREPETAG
1070
     1
1071
        0
1005
12A889
  0
LINE
  5
12A88A
  8
OBJECT
 10
4062.0
 20
-273.0
 30
0.0
 11
4062.0
 21
-269.99999999999909
 31
0.0
1001
ACDBBLOCKREPETAG
1070
     1
1071
        1
1005
12A88A
  0
ARC
  5
12A88B
  8
OBJECT
 10
4059.0
 20
-273.0
 30
0.0
 40
3.0
 50
270.0
 51
0.0
1001
ACDBBLOCKREPETAG
1070
     1
1071
        2
1005
12A88B
  0
LINE
  5
12A88C
  8
OBJECT
 10
3938.0
 20
-269.99999999999909
 30
0.0
 11
3938.0
 21
-272.99999999999818
 31
0.0
1001
ACDBBLOCKREPETAG
1070
     1
1071
        3
1005
12A88C
  0
ARC
  5
12A88D
  8
OBJECT
 10
3941.0
 20
-272.99999999999818
 30
0.0
 40
3.0
 50
180.0
 51
270.0
1001
ACDBBLOCKREPETAG
1070
     1
1071
        4
1005
12A88D
  0
LINE
  5
12A88E
  8
OBJECT
 10
3941.0
 20
-275.99999999999818
 30
0.0
 11
4059.0
 21
-276.0
 31
0.0
1001
ACDBBLOCKREPETAG
1070
     1
1071
        5
1005
12A88E
  0
POINT
  5
12A88F
  8
DOTS
 10
4000.0
 20
-199.99999999999909
 30
0.0
 50
270.0
1001
ACDBBLOCKREPETAG
1070
     1
1071
      153
1005
12A88F
  0
ARC
  5
12A890
  8
OBJECT
 10
4000.0
 20
-199.99999999999909
 30
0.0
 40
70.0
 50
62.339550100758693
 51
117.6604498992413
1001
ACDBBLOCKREPETAG
1070
     1
1071
        0
1005
12A890
  0
CIRCLE
  5
12A891
  8
OBJECT
 10
4000.0
 20
-199.99999999999909
 30
0.0
 40
65.0
1001
ACDBBLOCKREPETAG
1070
     1
1071
        1
1005
12A891
  0
CIRCLE
  5
12A892
  8
OBJECT
 10
4000.0
 20
-199.99999999999909
 30
0.0
 40
41.0
1001
ACDBBLOCKREPETAG
1070
     1
1071
        2
1005
12A892
  0
CIRCLE
  5
12A893
  8
OBJECT
 10
4000.0
 20
-199.99999999999909
 30
0.0
 40
58.0
1001
ACDBBLOCKREPETAG
1070
     1
1071
        3
1005
12A893
  0
LINE
  5
12A894
  8
OBJECT
 10
4070.0
 20
-137.99999999999909
 30
0.0
 11
4019.5192212959432
 21
-137.99999999999909
 31
0.0
1001
ACDBBLOCKREPETAG
1070
     1
1071
        4
1005
12A894
  0
LINE
  5
12A895
  8
OBJECT
 10
3930.0
 20
-137.99999999999909
 30
0.0
 11
3980.4807787040581
 21
-137.99999999999909
 31
0.0
1001
ACDBBLOCKREPETAG
1070
     1
1071
        5
1005
12A895
  0
LINE
  5
12A896
  8
OBJECT
 10
3930.0
 20
-261.99999999999909
 30
0.0
 11
3938.0
 21
-261.99999999999909
 31
0.0
1001
ACDBBLOCKREPETAG
1070
     1
1071
        6
1005
12A896
  0
LINE
  5
12A897
  8
OBJECT
 10
3938.0
 20
-269.99999999999909
 30
0.0
 11
3938.0
 21
-261.99999999999909
 31
0.0
1001
ACDBBLOCKREPETAG
1070
     1
1071
        7
1005
12A897
  0
LINE
  5
12A898
  8
OBJECT
 10
4070.0
 20
-261.99999999999909
 30
0.0
 11
4062.0
 21
-261.99999999999909
 31
0.0
1001
ACDBBLOCKREPETAG
1070
     1
1071
        8
1005
12A898
  0
LINE
  5
12A899
  8
OBJECT
 10
4062.0
 20
-269.99999999999909
 30
0.0
 11
4062.0
 21
-261.99999999999909
 31
0.0
1001
ACDBBLOCKREPETAG
1070
     1
1071
        9
1005
12A899
  0
LINE
  5
12A89A
  8
CENTER
 10
3930.0
 20
-199.99999999999909
 30
0.0
 11
4070.0
 21
-199.99999999999909
 31
0.0
1001
ACDBBLOCKREPETAG
1070
     1
1071
       10
1005
12A89A
  0
LINE
  5
12A89B
  8
CENTER
 10
4000.0
 20
-269.99999999999909
 30
0.0
 11
4000.0
 21
-114.9999999999991
 31
0.0
1001
ACDBBLOCKREPETAG
1070
     1
1071
       11
1005
12A89B
  0
ARC
  5
12A89C
  8
OBJECT
 10
3989.9027621391888
 20
-224.44352901899131
 30
0.0
 40
7.0
 50
73.001272229719234
 51
154.0502587894434
1001
ACDBBLOCKREPETAG
1070
     1
1071
       12
1005
12A89C
  0
ARC
  5
12A89D
  8
OBJECT
 10
3986.8376610706509
 20
-225.5978773169509
 30
0.0
 40
9.0
 50
73.001272229719234
 51
154.0502639259247
1001
ACDBBLOCKREPETAG
1070
     1
1071
       13
1005
12A89D
  0
ARC
  5
12A89E
  8
OBJECT
 10
3896.3142301315529
 20
-147.28130031148149
 30
0.0
 40
150.0
 50
322.89503374001981
 51
325.8931499697137
1001
ACDBBLOCKREPETAG
1070
     1
1071
       14
1005
12A89E
  0
ARC
  5
12A89F
  8
OBJECT
 10
4000.0
 20
-199.99999999999909
 30
0.0
 40
37.5
 50
303.16276667668222
 51
229.1635024908278
1001
ACDBBLOCKREPETAG
1070
     1
1071
       15
1005
12A89F
  0
LINE
  5
12A8A0
  8
OBJECT
 10
3983.6085145189768
 20
-221.38045100897119
 30
0.0
 11
3977.3740109999999
 21
-234.1915870000002
 31
0.0
1001
ACDBBLOCKREPETAG
1070
     1
1071
       16
1005
12A8A0
  0
LINE
  5
12A8A1
  8
OBJECT
 10
3978.7450566344628
 20
-221.65963488670511
 30
0.0
 11
3973.8986719999989
 21
-231.6183599999996
 31
0.0
1001
ACDBBLOCKREPETAG
1070
     1
1071
       17
1005
12A8A1
  0
LINE
  5
12A8A2
  8
OBJECT
 10
4018.9380179999998
 20
-226.00000000000091
 30
0.0
 11
3989.468815303258
 21
-216.99107608744359
 31
0.0
1001
ACDBBLOCKREPETAG
1070
     1
1071
       18
1005
12A8A2
  0
LINE
  5
12A8A3
  8
OBJECT
 10
4020.5132253090051
 20
-231.39199878029191
 30
0.0
 11
4018.9380179999998
 21
-226.00000000000091
 31
0.0
1001
ACDBBLOCKREPETAG
1070
     1
1071
       19
1005
12A8A3
  0
LINE
  5
12A8A4
  8
OBJECT
 10
3954.0380592228739
 20
-245.96194077712471
 30
0.0
 11
3938.0
 21
-261.99999999999909
 31
0.0
1001
ACDBBLOCKREPETAG
1070
     1
1071
       42
1005
12A8A4
  0
LINE
  5
12A8A5
  8
OBJECT
 10
4045.9619407771238
 20
-245.96194077712471
 30
0.0
 11
4062.0
 21
-261.99999999999909
 31
0.0
1001
ACDBBLOCKREPETAG
1070
     1
1071
       43
1005
12A8A5
  0
LINE
  5
12A8A6
  8
OBJECT
 10
4123.0
 20
-663.99999999999966
 30
0.0
 11
4130.0
 21
-663.99999999999966
 31
0.0
1001
ACDBBLOCKREPETAG
1070
     1
1071
        7
1005
12A8A6
  0
LINE
  5
12A8A7
  8
OBJECT
 10
4130.0
 20
-663.99999999999966
 30
0.0
 11
4130.0
 21
-754.99999999999955
 31
0.0
1001
ACDBBLOCKREPETAG
1070
     1
1071
        8
1005
12A8A7
  0
LINE
  5
12A8A8
  8
OBJECT
 10
4123.0
 20
-754.99999999999955
 30
0.0
 11
4123.0
 21
-663.99999999999966
 31
0.0
1001
ACDBBLOCKREPETAG
1070
     1
1071
        9
1005
12A8A8
  0
LINE
  5
12A8A9
  8
CENTER
 10
4145.0
 20
-710.99999999999955
 30
0.0
 11
4061.0
 21
-710.99999999999955
 31
0.0
1001
ACDBBLOCKREPETAG
1070
     1
1071
       10
1005
12A8A9
  0
LINE
  5
12A8AA
  8
OBJECT
 10
4123.0
 20
-666.99999999999955
 30
0.0
 11
4087.0
 21
-666.99999999999955
 31
0.0
1001
ACDBBLOCKREPETAG
1070
     1
1071
       11
1005
12A8AA
  0
LINE
  5
12A8AB
  8
OBJECT
 10
4087.0
 20
-666.99999999999955
 30
0.0
 11
4087.0
 21
-754.99999999999955
 31
0.0
1001
ACDBBLOCKREPETAG
1070
     1
1071
       12
1005
12A8AB
  0
LINE
  5
12A8AC
  8
OBJECT
 10
4087.0
 20
-754.99999999999955
 30
0.0
 11
4130.0
 21
-754.99999999999955
 31
0.0
1001
ACDBBLOCKREPETAG
1070
     1
1071
       13
1005
12A8AC
  0
LINE
  5
12A8AD
  8
OBJECT
 10
4083.0
 20
-671.49999999999955
 30
0.0
 11
4076.0
 21
-671.49999999999955
 31
0.0
1001
ACDBBLOCKREPETAG
1070
     1
1071
       14
1005
12A8AD
  0
LINE
  5
12A8AE
  8
OBJECT
 10
4076.0
 20
-750.49999999999955
 30
0.0
 11
4083.0
 21
-750.49999999999955
 31
0.0
1001
ACDBBLOCKREPETAG
1070
     1
1071
       15
1005
12A8AE
  0
LINE
  5
12A8AF
  8
OBJECT
 10
4083.0
 20
-750.49999999999955
 30
0.0
 11
4083.0
 21
-671.49999999999955
 31
0.0
1001
ACDBBLOCKREPETAG
1070
     1
1071
       16
1005
12A8AF
  0
LINE
  5
12A8B0
  8
OBJECT
 10
4087.0
 20
-666.99999999999955
 30
0.0
 11
4083.0
 21
-671.49999999999955
 31
0.0
1001
ACDBBLOCKREPETAG
1070
     1
1071
       17
1005
12A8B0
  0
LINE
  5
12A8B1
  8
OBJECT
 10
4087.0
 20
-754.99999999999955
 30
0.0
 11
4083.0
 21
-750.49999999999955
 31
0.0
1001
ACDBBLOCKREPETAG
1070
     1
1071
       18
1005
12A8B1
  0
LINE
  5
12A8B2
  8
OBJECT
 10
4073.0
 20
-633.99999999999955
 30
0.0
 11
4070.0
 21
-633.99999999999955
 31
0.0
1001
ACDBBLOCKREPETAG
1070
     1
1071
       19
1005
12A8B2
  0
ARC
  5
12A8B3
  8
OBJECT
 10
4073.0
 20
-636.99999999999955
 30
0.0
 40
3.0
 50
0.0
 51
90.0
1001
ACDBBLOCKREPETAG
1070
     1
1071
       20
1005
12A8B3
  0
LINE
  5
12A8B4
  8
OBJECT
 10
4070.0
 20
-757.99999999999955
 30
0.0
 11
4073.0
 21
-757.99999999999955
 31
0.0
1001
ACDBBLOCKREPETAG
1070
     1
1071
       21
1005
12A8B4
  0
ARC
  5
12A8B5
  8
OBJECT
 10
4073.0
 20
-754.99999999999955
 30
0.0
 40
3.0
 50
270.0
 51
0.0
1001
ACDBBLOCKREPETAG
1070
     1
1071
       22
1005
12A8B5
  0
LINE
  5
12A8B6
  8
OBJECT
 10
4076.0
 20
-754.99999999999955
 30
0.0
 11
4076.0
 21
-636.99999999999955
 31
0.0
1001
ACDBBLOCKREPETAG
1070
     1
1071
       23
1005
12A8B6
  0
LINE
  5
12A8B7
  8
HIDDEN
 10
4078.0
 20
-680.99999999999955
 30
0.0
 11
4078.0
 21
-740.99999999999955
 31
0.0
1001
ACDBBLOCKREPETAG
1070
     1
1071
       24
1005
12A8B7
  0
LINE
  5
12A8B8
  8
OBJECT
 10
4123.0
 20
-152.99999999999909
 30
0.0
 11
4130.0
 21
-152.99999999999909
 31
0.0
1001
ACDBBLOCKREPETAG
1070
     1
1071
        7
1005
12A8B8
  0
LINE
  5
12A8B9
  8
OBJECT
 10
4130.0
 20
-152.99999999999909
 30
0.0
 11
4130.0
 21
-246.99999999999909
 31
0.0
1001
ACDBBLOCKREPETAG
1070
     1
1071
        8
1005
12A8B9
  0
LINE
  5
12A8BA
  8
OBJECT
 10
4130.0
 20
-246.99999999999909
 30
0.0
 11
4123.0
 21
-246.99999999999909
 31
0.0
1001
ACDBBLOCKREPETAG
1070
     1
1071
        9
1005
12A8BA
  0
LINE
  5
12A8BB
  8
OBJECT
 10
4123.0
 20
-246.99999999999909
 30
0.0
 11
4123.0
 21
-152.99999999999909
 31
0.0
1001
ACDBBLOCKREPETAG
1070
     1
1071
       10
1005
12A8BB
  0
LINE
  5
12A8BC
  8
CENTER
 10
4145.0
 20
-199.99999999999909
 30
0.0
 11
4070.0
 21
-199.99999999999909
 31
0.0
1001
ACDBBLOCKREPETAG
1070
     1
1071
       11
1005
12A8BC
  0
LINE
  5
12A8BD
  8
OBJECT
 10
4123.0
 20
-155.99999999999909
 30
0.0
 11
4087.0
 21
-155.99999999999909
 31
0.0
1001
ACDBBLOCKREPETAG
1070
     1
1071
       12
1005
12A8BD
  0
LINE
  5
12A8BE
  8
OBJECT
 10
4087.0
 20
-155.99999999999909
 30
0.0
 11
4087.0
 21
-243.99999999999909
 31
0.0
1001
ACDBBLOCKREPETAG
1070
     1
1071
       13
1005
12A8BE
  0
LINE
  5
12A8BF
  8
OBJECT
 10
4087.0
 20
-243.99999999999909
 30
0.0
 11
4123.0
 21
-243.99999999999909
 31
0.0
1001
ACDBBLOCKREPETAG
1070
     1
1071
       14
1005
12A8BF
  0
LINE
  5
12A8C0
  8
OBJECT
 10
4083.0
 20
-160.49999999999909
 30
0.0
 11
4076.0
 21
-160.49999999999909
 31
0.0
1001
ACDBBLOCKREPETAG
1070
     1
1071
       15
1005
12A8C0
  0
LINE
  5
12A8C1
  8
OBJECT
 10
4076.0
 20
-239.49999999999909
 30
0.0
 11
4083.0
 21
-239.49999999999909
 31
0.0
1001
ACDBBLOCKREPETAG
1070
     1
1071
       16
1005
12A8C1
  0
LINE
  5
12A8C2
  8
OBJECT
 10
4083.0
 20
-239.49999999999909
 30
0.0
 11
4083.0
 21
-160.49999999999909
 31
0.0
1001
ACDBBLOCKREPETAG
1070
     1
1071
       17
1005
12A8C2
  0
LINE
  5
12A8C3
  8
OBJECT
 10
4087.0
 20
-155.99999999999909
 30
0.0
 11
4083.0
 21
-160.49999999999909
 31
0.0
1001
ACDBBLOCKREPETAG
1070
     1
1071
       18
1005
12A8C3
  0
LINE
  5
12A8C4
  8
OBJECT
 10
4087.0
 20
-243.99999999999909
 30
0.0
 11
4083.0
 21
-239.49999999999909
 31
0.0
1001
ACDBBLOCKREPETAG
1070
     1
1071
       19
1005
12A8C4
  0
LINE
  5
12A8C5
  8
OBJECT
 10
4073.0
 20
-137.99999999999909
 30
0.0
 11
4070.0
 21
-137.99999999999909
 31
0.0
1001
ACDBBLOCKREPETAG
1070
     1
1071
       20
1005
12A8C5
  0
ARC
  5
12A8C6
  8
OBJECT
 10
4073.0
 20
-140.99999999999909
 30
0.0
 40
3.0
 50
0.0
 51
90.0
1001
ACDBBLOCKREPETAG
1070
     1
1071
       21
1005
12A8C6
  0
LINE
  5
12A8C7
  8
OBJECT
 10
4070.0
 20
-261.99999999999909
 30
0.0
 11
4073.0
 21
-261.99999999999909
 31
0.0
1001
ACDBBLOCKREPETAG
1070
     1
1071
       22
1005
12A8C7
  0
ARC
  5
12A8C8
  8
OBJECT
 10
4073.0
 20
-258.99999999999909
 30
0.0
 40
3.0
 50
270.0
 51
0.0
1001
ACDBBLOCKREPETAG
1070
     1
1071
       23
1005
12A8C8
  0
LINE
  5
12A8C9
  8
OBJECT
 10
4076.0
 20
-258.99999999999909
 30
0.0
 11
4076.0
 21
-140.99999999999909
 31
0.0
1001
ACDBBLOCKREPETAG
1070
     1
1071
       24
1005
12A8C9
  0
LINE
  5
12A8CA
  8
HIDDEN
 10
4078.0
 20
-169.99999999999909
 30
0.0
 11
4078.0
 21
-229.99999999999909
 31
0.0
1001
ACDBBLOCKREPETAG
1070
     1
1071
       25
1005
12A8CA
  0
LINE
  5
12A8CB
  8
OBJECT
 10
231.0
 20
-783.0
 30
0.0
 11
231.0
 21
-790.00000000000011
 31
0.0
1001
ACDBBLOCKREPETAG
1070
     1
1071
       19
1005
12A8CB
  0
LINE
  5
12A8CC
  8
OBJECT
 10
231.0
 20
-790.00000000000011
 30
0.0
 11
121.0
 21
-790.00000000000011
 31
0.0
1001
ACDBBLOCKREPETAG
1070
     1
1071
       20
1005
12A8CC
  0
LINE
  5
12A8CD
  8
OBJECT
 10
121.0
 20
-790.00000000000011
 30
0.0
 11
121.0
 21
-783.0
 31
0.0
1001
ACDBBLOCKREPETAG
1070
     1
1071
       21
1005
12A8CD
  0
LINE
  5
12A8CE
  8
OBJECT
 10
121.0
 20
-783.0
 30
0.0
 11
231.0
 21
-783.0
 31
0.0
1001
ACDBBLOCKREPETAG
1070
     1
1071
       22
1005
12A8CE
  0
LINE
  5
12A8CF
  8
OBJECT
 10
228.0
 20
-783.0
 30
0.0
 11
228.0
 21
-747.00000000000011
 31
0.0
1001
ACDBBLOCKREPETAG
1070
     1
1071
       23
1005
12A8CF
  0
LINE
  5
12A8D0
  8
OBJECT
 10
228.0
 20
-747.00000000000011
 30
0.0
 11
124.0
 21
-747.00000000000011
 31
0.0
1001
ACDBBLOCKREPETAG
1070
     1
1071
       24
1005
12A8D0
  0
LINE
  5
12A8D1
  8
OBJECT
 10
124.0
 20
-747.00000000000011
 30
0.0
 11
124.0
 21
-783.0
 31
0.0
1001
ACDBBLOCKREPETAG
1070
     1
1071
       25
1005
12A8D1
  0
LINE
  5
12A8D2
  8
OBJECT
 10
223.5
 20
-743.00000000000011
 30
0.0
 11
223.5
 21
-736.00000000000011
 31
0.0
1001
ACDBBLOCKREPETAG
1070
     1
1071
       26
1005
12A8D2
  0
LINE
  5
12A8D3
  8
OBJECT
 10
128.5
 20
-736.00000000000011
 30
0.0
 11
128.5
 21
-743.00000000000011
 31
0.0
1001
ACDBBLOCKREPETAG
1070
     1
1071
       27
1005
12A8D3
  0
LINE
  5
12A8D4
  8
OBJECT
 10
128.5
 20
-743.00000000000011
 30
0.0
 11
223.5
 21
-743.00000000000011
 31
0.0
1001
ACDBBLOCKREPETAG
1070
     1
1071
       28
1005
12A8D4
  0
LINE
  5
12A8D5
  8
OBJECT
 10
228.0
 20
-747.00000000000011
 30
0.0
 11
223.5
 21
-743.00000000000011
 31
0.0
1001
ACDBBLOCKREPETAG
1070
     1
1071
       29
1005
12A8D5
  0
LINE
  5
12A8D6
  8
OBJECT
 10
124.0
 20
-747.00000000000011
 30
0.0
 11
128.5
 21
-743.00000000000011
 31
0.0
1001
ACDBBLOCKREPETAG
1070
     1
1071
       30
1005
12A8D6
  0
LINE
  5
12A8D7
  8
OBJECT
 10
238.0
 20
-733.00000000000102
 30
0.0
 11
238.0
 21
-730.00000000000011
 31
0.0
1001
ACDBBLOCKREPETAG
1070
     1
1071
       31
1005
12A8D7
  0
ARC
  5
12A8D8
  8
OBJECT
 10
235.0
 20
-733.00000000000102
 30
0.0
 40
3.0
 50
270.0
 51
0.0
1001
ACDBBLOCKREPETAG
1070
     1
1071
       32
1005
12A8D8
  0
LINE
  5
12A8D9
  8
OBJECT
 10
114.0
 20
-730.00000000000011
 30
0.0
 11
114.0
 21
-732.9999999999992
 31
0.0
1001
ACDBBLOCKREPETAG
1070
     1
1071
       33
1005
12A8D9
  0
ARC
  5
12A8DA
  8
OBJECT
 10
117.0
 20
-732.9999999999992
 30
0.0
 40
3.0
 50
180.0
 51
270.0
1001
ACDBBLOCKREPETAG
1070
     1
1071
       34
1005
12A8DA
  0
LINE
  5
12A8DB
  8
OBJECT
 10
117.0
 20
-735.99999999999943
 30
0.0
 11
235.0
 21
-736.00000000000102
 31
0.0
1001
ACDBBLOCKREPETAG
1070
     1
1071
       35
1005
12A8DB
  0
INSERT
  5
12A8DC
  8
OBJECT
  2
*U6
 10
0.0
 20
0.0
 30
0.0
  0
LINE
  5
12A8DD
  8
HIDDEN
 10
214.0
 20
-738.00000000000011
 30
0.0
 11
138.0
 21
-738.00000000000011
 31
0.0
1001
ACDBBLOCKREPETAG
1070
     1
1071
      427
1005
12A8DD
  0
LINE
  5
12A8DE
  8
OBJECT
 10
249.0
 20
-722.00000000000011
 30
0.0
 11
246.0
 21
-722.00000000000011
 31
0.0
1001
ACDBBLOCKREPETAG
1070
     1
1071
      418
1005
12A8DE
  0
ARC
  5
12A8DF
  8
OBJECT
 10
249.0
 20
-719.00000000000011
 30
0.0
 40
3.0
 50
270.0
 51
0.0
1001
ACDBBLOCKREPETAG
1070
     1
1071
      419
1005
12A8DF
  0
LINE
  5
12A8E0
  8
OBJECT
 10
246.0
 20
-598.00000000000011
 30
0.0
 11
249.0
 21
-598.00000000000011
 31
0.0
1001
ACDBBLOCKREPETAG
1070
     1
1071
      420
1005
12A8E0
  0
ARC
  5
12A8E1
  8
OBJECT
 10
249.0
 20
-601.00000000000011
 30
0.0
 40
3.0
 50
0.0
 51
90.0
1001
ACDBBLOCKREPETAG
1070
     1
1071
      421
1005
12A8E1
  0
LINE
  5
12A8E2
  8
OBJECT
 10
252.0
 20
-601.00000000000011
 30
0.0
 11
252.0
 21
-719.00000000000011
 31
0.0
1001
ACDBBLOCKREPETAG
1070
     1
1071
      422
1005
12A8E2
  0
ARC
  5
12A8E3
  8
OBJECT
 10
176.0
 20
-660.00000000000011
 30
0.0
 40
70.0
 50
152.33955010081621
 51
207.6604498991837
1001
ACDBBLOCKREPETAG
1070
     1
1071
        0
1005
12A8E3
  0
CIRCLE
  5
12A8E4
  8
OBJECT
 10
176.0
 20
-660.00000000000011
 30
0.0
 40
65.0
1001
ACDBBLOCKREPETAG
1070
     1
1071
        1
1005
12A8E4
  0
CIRCLE
  5
12A8E5
  8
OBJECT
 10
176.0
 20
-660.00000000000011
 30
0.0
 40
41.0
1001
ACDBBLOCKREPETAG
1070
     1
1071
        2
1005
12A8E5
  0
CIRCLE
  5
12A8E6
  8
OBJECT
 10
176.0
 20
-660.00000000000011
 30
0.0
 40
58.0
1001
ACDBBLOCKREPETAG
1070
     1
1071
        3
1005
12A8E6
  0
LINE
  5
12A8E7
  8
OBJECT
 10
114.0
 20
-589.99999999999841
 30
0.0
 11
114.0
 21
-640.48077870405712
 31
0.0
1001
ACDBBLOCKREPETAG
1070
     1
1071
        4
1005
12A8E7
  0
LINE
  5
12A8E8
  8
OBJECT
 10
114.0
 20
-730.00000000000011
 30
0.0
 11
114.0
 21
-679.51922129594334
 31
0.0
1001
ACDBBLOCKREPETAG
1070
     1
1071
        5
1005
12A8E8
  0
LINE
  5
12A8E9
  8
OBJECT
 10
238.0
 20
-730.00000000000011
 30
0.0
 11
238.0
 21
-722.00000000000011
 31
0.0
1001
ACDBBLOCKREPETAG
1070
     1
1071
        6
1005
12A8E9
  0
LINE
  5
12A8EA
  8
OBJECT
 10
246.0
 20
-722.00000000000011
 30
0.0
 11
238.0
 21
-722.00000000000011
 31
0.0
1001
ACDBBLOCKREPETAG
1070
     1
1071
        7
1005
12A8EA
  0
LINE
  5
12A8EB
  8
OBJECT
 10
238.0
 20
-589.99999999999841
 30
0.0
 11
238.0
 21
-598.00000000000011
 31
0.0
1001
ACDBBLOCKREPETAG
1070
     1
1071
        8
1005
12A8EB
  0
LINE
  5
12A8EC
  8
OBJECT
 10
246.0
 20
-598.00000000000011
 30
0.0
 11
238.0
 21
-598.00000000000011
 31
0.0
1001
ACDBBLOCKREPETAG
1070
     1
1071
        9
1005
12A8EC
  0
ARC
  5
12A8ED
  8
OBJECT
 10
176.0
 20
-660.00000000000011
 30
0.0
 40
37.5
 50
33.162766676671247
 51
319.1635024908208
1001
ACDBBLOCKREPETAG
1070
     1
1071
       13
1005
12A8ED
  0
LINE
  5
12A8EE
  8
OBJECT
 10
221.96194077712559
 20
-705.96194077712585
 30
0.0
 11
238.0
 21
-722.00000000000011
 31
0.0
1001
ACDBBLOCKREPETAG
1070
     1
1071
       21
1005
12A8EE
  0
LINE
  5
12A8EF
  8
OBJECT
 10
221.96194077712559
 20
-614.03805922287438
 30
0.0
 11
238.0
 21
-598.00000000000011
 31
0.0
1001
ACDBBLOCKREPETAG
1070
     1
1071
       22
1005
12A8EF
  0
ARC
  5
12A8F0
  8
OBJECT
 10
200.44352901899219
 20
-670.09723786081315
 30
0.0
 40
7.0
 50
163.00127222951571
 51
244.05025878932261
1001
ACDBBLOCKREPETAG
1070
     1
1071
       70
1005
12A8F0
  0
ARC
  5
12A8F1
  8
OBJECT
 10
201.59787731695181
 20
-673.16233892935293
 30
0.0
 40
9.0
 50
163.00127222951571
 51
244.05026392593629
1001
ACDBBLOCKREPETAG
1070
     1
1071
       71
1005
12A8F1
  0
ARC
  5
12A8F2
  8
OBJECT
 10
123.2813003114825
 20
-763.68576986844721
 30
0.0
 40
150.0
 50
52.895033739927257
 51
55.893149969628887
1001
ACDBBLOCKREPETAG
1070
     1
1071
       72
1005
12A8F2
  0
LINE
  5
12A8F3
  8
OBJECT
 10
197.3804510089721
 20
-676.39148548102855
 30
0.0
 11
210.19158700000119
 21
-682.62598900000035
 31
0.0
1001
ACDBBLOCKREPETAG
1070
     1
1071
       73
1005
12A8F3
  0
LINE
  5
12A8F4
  8
OBJECT
 10
197.65963488670599
 20
-681.25494336553697
 30
0.0
 11
207.61836000000039
 21
-686.10132800000451
 31
0.0
1001
ACDBBLOCKREPETAG
1070
     1
1071
       74
1005
12A8F4
  0
LINE
  5
12A8F5
  8
OBJECT
 10
202.00000000000179
 20
-641.06198199999926
 30
0.0
 11
192.9910760874445
 21
-670.53118469673814
 31
0.0
1001
ACDBBLOCKREPETAG
1070
     1
1071
       75
1005
12A8F5
  0
LINE
  5
12A8F6
  8
OBJECT
 10
207.39199878029279
 20
-639.48677469099528
 30
0.0
 11
202.00000000000179
 21
-641.06198199999926
 31
0.0
1001
ACDBBLOCKREPETAG
1070
     1
1071
       76
1005
12A8F6
  0
POINT
  5
12A8F7
  8
DOTS
 10
176.0
 20
-660.00000000000011
 30
0.0
1001
ACDBBLOCKREPETAG
1070
     1
1071
       39
1005
12A8F7
  0
INSERT
  5
12A8F8
  8
OBJECT
  2
*U7
 10
0.0
 20
0.0
 30
0.0
  0
LINE
  5
12A8F9
  8
OBJECT
 10
121.0
 20
-536.99999999999841
 30
0.0
 11
121.0
 21
-529.99999999999818
 31
0.0
1001
ACDBBLOCKREPETAG
1070
     1
1071
       20
1005
12A8F9
  0
LINE
  5
12A8FA
  8
OBJECT
 10
121.0
 20
-529.99999999999818
 30
0.0
 11
231.0
 21
-529.99999999999818
 31
0.0
1001
ACDBBLOCKREPETAG
1070
     1
1071
       21
1005
12A8FA
  0
LINE
  5
12A8FB
  8
OBJECT
 10
231.0
 20
-529.99999999999818
 30
0.0
 11
231.0
 21
-536.99999999999841
 31
0.0
1001
ACDBBLOCKREPETAG
1070
     1
1071
       22
1005
12A8FB
  0
LINE
  5
12A8FC
  8
OBJECT
 10
231.0
 20
-536.99999999999841
 30
0.0
 11
121.0
 21
-536.99999999999841
 31
0.0
1001
ACDBBLOCKREPETAG
1070
     1
1071
       23
1005
12A8FC
  0
LINE
  5
12A8FD
  8
OBJECT
 10
124.0
 20
-536.99999999999841
 30
0.0
 11
124.0
 21
-572.99999999999841
 31
0.0
1001
ACDBBLOCKREPETAG
1070
     1
1071
       24
1005
12A8FD
  0
LINE
  5
12A8FE
  8
OBJECT
 10
124.0
 20
-572.99999999999841
 30
0.0
 11
228.0
 21
-572.99999999999841
 31
0.0
1001
ACDBBLOCKREPETAG
1070
     1
1071
       25
1005
12A8FE
  0
LINE
  5
12A8FF
  8
OBJECT
 10
228.0
 20
-572.99999999999841
 30
0.0
 11
228.0
 21
-536.99999999999841
 31
0.0
1001
ACDBBLOCKREPETAG
1070
     1
1071
       26
1005
12A8FF
  0
LINE
  5
12A900
  8
OBJECT
 10
128.5
 20
-576.99999999999841
 30
0.0
 11
128.5
 21
-583.99999999999829
 31
0.0
1001
ACDBBLOCKREPETAG
1070
     1
1071
       27
1005
12A900
  0
LINE
  5
12A901
  8
OBJECT
 10
223.5
 20
-583.99999999999829
 30
0.0
 11
223.5
 21
-576.99999999999841
 31
0.0
1001
ACDBBLOCKREPETAG
1070
     1
1071
       28
1005
12A901
  0
LINE
  5
12A902
  8
OBJECT
 10
223.5
 20
-576.99999999999841
 30
0.0
 11
128.5
 21
-576.99999999999841
 31
0.0
1001
ACDBBLOCKREPETAG
1070
     1
1071
       29
1005
12A902
  0
LINE
  5
12A903
  8
OBJECT
 10
124.0
 20
-572.99999999999841
 30
0.0
 11
128.5
 21
-576.99999999999841
 31
0.0
1001
ACDBBLOCKREPETAG
1070
     1
1071
       30
1005
12A903
  0
LINE
  5
12A904
  8
OBJECT
 10
228.0
 20
-572.99999999999841
 30
0.0
 11
223.5
 21
-576.99999999999841
 31
0.0
1001
ACDBBLOCKREPETAG
1070
     1
1071
       31
1005
12A904
  0
LINE
  5
12A905
  8
OBJECT
 10
114.0
 20
-586.9999999999975
 30
0.0
 11
114.0
 21
-589.99999999999841
 31
0.0
1001
ACDBBLOCKREPETAG
1070
     1
1071
       32
1005
12A905
  0
ARC
  5
12A906
  8
OBJECT
 10
117.0
 20
-586.9999999999975
 30
0.0
 40
3.0
 50
90.0
 51
180.0
1001
ACDBBLOCKREPETAG
1070
     1
1071
       33
1005
12A906
  0
LINE
  5
12A907
  8
OBJECT
 10
238.0
 20
-589.99999999999841
 30
0.0
 11
238.0
 21
-586.9999999999992
 31
0.0
1001
ACDBBLOCKREPETAG
1070
     1
1071
       34
1005
12A907
  0
ARC
  5
12A908
  8
OBJECT
 10
235.0
 20
-586.9999999999992
 30
0.0
 40
3.0
 50
0.0
 51
90.0
1001
ACDBBLOCKREPETAG
1070
     1
1071
       35
1005
12A908
  0
LINE
  5
12A909
  8
OBJECT
 10
235.0
 20
-583.99999999999909
 30
0.0
 11
117.0
 21
-583.99999999999739
 31
0.0
1001
ACDBBLOCKREPETAG
1070
     1
1071
       36
1005
12A909
  0
LINE
  5
12A90A
  8
HIDDEN
 10
138.0
 20
-581.99999999999841
 30
0.0
 11
214.0
 21
-581.99999999999841
 31
0.0
1001
ACDBBLOCKREPETAG
1070
     1
1071
      423
1005
12A90A
  0
LINE
  5
12A90B
  8
OBJECT
 10
591.0
 20
-319.0
 30
0.0
 11
591.0
 21
-326.0
 31
0.0
1001
ACDBBLOCKREPETAG
1070
     1
1071
       19
1005
12A90B
  0
LINE
  5
12A90C
  8
OBJECT
 10
591.0
 20
-326.0
 30
0.0
 11
481.0
 21
-326.0
 31
0.0
1001
ACDBBLOCKREPETAG
1070
     1
1071
       20
1005
12A90C
  0
LINE
  5
12A90D
  8
OBJECT
 10
481.0
 20
-326.0
 30
0.0
 11
481.0
 21
-319.0
 31
0.0
1001
ACDBBLOCKREPETAG
1070
     1
1071
       21
1005
12A90D
  0
LINE
  5
12A90E
  8
OBJECT
 10
481.0
 20
-319.0
 30
0.0
 11
591.0
 21
-319.0
 31
0.0
1001
ACDBBLOCKREPETAG
1070
     1
1071
       22
1005
12A90E
  0
LINE
  5
12A90F
  8
OBJECT
 10
588.0
 20
-319.0
 30
0.0
 11
588.0
 21
-283.0
 31
0.0
1001
ACDBBLOCKREPETAG
1070
     1
1071
       23
1005
12A90F
  0
LINE
  5
12A910
  8
OBJECT
 10
588.0
 20
-283.0
 30
0.0
 11
484.0
 21
-283.0
 31
0.0
1001
ACDBBLOCKREPETAG
1070
     1
1071
       24
1005
12A910
  0
LINE
  5
12A911
  8
OBJECT
 10
484.0
 20
-283.0
 30
0.0
 11
484.0
 21
-319.0
 31
0.0
1001
ACDBBLOCKREPETAG
1070
     1
1071
       25
1005
12A911
  0
LINE
  5
12A912
  8
OBJECT
 10
583.49999999999989
 20
-279.0
 30
0.0
 11
583.49999999999989
 21
-272.0
 31
0.0
1001
ACDBBLOCKREPETAG
1070
     1
1071
       26
1005
12A912
  0
LINE
  5
12A913
  8
OBJECT
 10
488.49999999999989
 20
-272.0
 30
0.0
 11
488.49999999999989
 21
-279.0
 31
0.0
1001
ACDBBLOCKREPETAG
1070
     1
1071
       27
1005
12A913
  0
LINE
  5
12A914
  8
OBJECT
 10
488.49999999999989
 20
-279.0
 30
0.0
 11
583.49999999999989
 21
-279.0
 31
0.0
1001
ACDBBLOCKREPETAG
1070
     1
1071
       28
1005
12A914
  0
LINE
  5
12A915
  8
OBJECT
 10
588.0
 20
-283.0
 30
0.0
 11
583.49999999999989
 21
-279.0
 31
0.0
1001
ACDBBLOCKREPETAG
1070
     1
1071
       29
1005
12A915
  0
LINE
  5
12A916
  8
OBJECT
 10
484.0
 20
-283.0
 30
0.0
 11
488.49999999999989
 21
-279.0
 31
0.0
1001
ACDBBLOCKREPETAG
1070
     1
1071
       30
1005
12A916
  0
LINE
  5
12A917
  8
OBJECT
 10
598.0
 20
-269.0000000000008
 30
0.0
 11
598.0
 21
-266.0
 31
0.0
1001
ACDBBLOCKREPETAG
1070
     1
1071
       31
1005
12A917
  0
ARC
  5
12A918
  8
OBJECT
 10
595.0
 20
-269.0000000000008
 30
0.0
 40
3.0
 50
270.0
 51
0.0
1001
ACDBBLOCKREPETAG
1070
     1
1071
       32
1005
12A918
  0
LINE
  5
12A919
  8
OBJECT
 10
474.0
 20
-266.0
 30
0.0
 11
474.0
 21
-268.99999999999909
 31
0.0
1001
ACDBBLOCKREPETAG
1070
     1
1071
       33
1005
12A919
  0
ARC
  5
12A91A
  8
OBJECT
 10
477.0
 20
-268.99999999999909
 30
0.0
 40
3.0
 50
180.0
 51
270.0
1001
ACDBBLOCKREPETAG
1070
     1
1071
       34
1005
12A91A
  0
LINE
  5
12A91B
  8
OBJECT
 10
477.0
 20
-271.99999999999909
 30
0.0
 11
595.0
 21
-272.00000000000091
 31
0.0
1001
ACDBBLOCKREPETAG
1070
     1
1071
       35
1005
12A91B
  0
INSERT
  5
12A91C
  8
OBJECT
  2
*U8
 10
0.0
 20
0.0
 30
0.0
  0
LINE
  5
12A91D
  8
HIDDEN
 10
574.0
 20
-274.0
 30
0.0
 11
498.0
 21
-274.0
 31
0.0
1001
ACDBBLOCKREPETAG
1070
     1
1071
      427
1005
12A91D
  0
LINE
  5
12A91E
  8
OBJECT
 10
609.0
 20
-258.0
 30
0.0
 11
606.0
 21
-258.0
 31
0.0
1001
ACDBBLOCKREPETAG
1070
     1
1071
      418
1005
12A91E
  0
ARC
  5
12A91F
  8
OBJECT
 10
609.0
 20
-255.0
 30
0.0
 40
3.0
 50
270.0
 51
0.0
1001
ACDBBLOCKREPETAG
1070
     1
1071
      419
1005
12A91F
  0
LINE
  5
12A920
  8
OBJECT
 10
606.0
 20
-134.0
 30
0.0
 11
609.0
 21
-134.0
 31
0.0
1001
ACDBBLOCKREPETAG
1070
     1
1071
      420
1005
12A920
  0
ARC
  5
12A921
  8
OBJECT
 10
609.0
 20
-137.0
 30
0.0
 40
3.0
 50
0.0
 51
90.0
1001
ACDBBLOCKREPETAG
1070
     1
1071
      421
1005
12A921
  0
LINE
  5
12A922
  8
OBJECT
 10
612.0
 20
-137.0
 30
0.0
 11
612.0
 21
-255.0
 31
0.0
1001
ACDBBLOCKREPETAG
1070
     1
1071
      422
1005
12A922
  0
ARC
  5
12A923
  8
OBJECT
 10
536.0
 20
-196.0
 30
0.0
 40
70.0
 50
152.33955010081689
 51
207.66044989918311
1001
ACDBBLOCKREPETAG
1070
     1
1071
        0
1005
12A923
  0
CIRCLE
  5
12A924
  8
OBJECT
 10
536.0
 20
-196.0
 30
0.0
 40
65.0
1001
ACDBBLOCKREPETAG
1070
     1
1071
        1
1005
12A924
  0
CIRCLE
  5
12A925
  8
OBJECT
 10
536.0
 20
-196.0
 30
0.0
 40
41.0
1001
ACDBBLOCKREPETAG
1070
     1
1071
        2
1005
12A925
  0
CIRCLE
  5
12A926
  8
OBJECT
 10
536.0
 20
-196.0
 30
0.0
 40
58.0
1001
ACDBBLOCKREPETAG
1070
     1
1071
        3
1005
12A926
  0
LINE
  5
12A927
  8
OBJECT
 10
474.0
 20
-125.9999999999982
 30
0.0
 11
474.0
 21
-176.48077870405689
 31
0.0
1001
ACDBBLOCKREPETAG
1070
     1
1071
        4
1005
12A927
  0
LINE
  5
12A928
  8
OBJECT
 10
474.0
 20
-266.0
 30
0.0
 11
474.0
 21
-215.51922129594311
 31
0.0
1001
ACDBBLOCKREPETAG
1070
     1
1071
        5
1005
12A928
  0
LINE
  5
12A929
  8
OBJECT
 10
598.0
 20
-266.0
 30
0.0
 11
598.0
 21
-258.0
 31
0.0
1001
ACDBBLOCKREPETAG
1070
     1
1071
        6
1005
12A929
  0
LINE
  5
12A92A
  8
OBJECT
 10
606.0
 20
-258.0
 30
0.0
 11
598.0
 21
-258.0
 31
0.0
1001
ACDBBLOCKREPETAG
1070
     1
1071
        7
1005
12A92A
  0
LINE
  5
12A92B
  8
OBJECT
 10
598.0
 20
-125.9999999999982
 30
0.0
 11
598.0
 21
-134.0
 31
0.0
1001
ACDBBLOCKREPETAG
1070
     1
1071
        8
1005
12A92B
  0
LINE
  5
12A92C
  8
OBJECT
 10
606.0
 20
-134.0
 30
0.0
 11
598.0
 21
-134.0
 31
0.0
1001
ACDBBLOCKREPETAG
1070
     1
1071
        9
1005
12A92C
  0
ARC
  5
12A92D
  8
OBJECT
 10
536.0
 20
-196.0
 30
0.0
 40
37.5
 50
33.162766676670358
 51
319.16350249081961
1001
ACDBBLOCKREPETAG
1070
     1
1071
       13
1005
12A92D
  0
LINE
  5
12A92E
  8
OBJECT
 10
581.96194077712562
 20
-241.96194077712559
 30
0.0
 11
598.0
 21
-258.0
 31
0.0
1001
ACDBBLOCKREPETAG
1070
     1
1071
       21
1005
12A92E
  0
LINE
  5
12A92F
  8
OBJECT
 10
581.96194077712562
 20
-150.03805922287441
 30
0.0
 11
598.0
 21
-134.0
 31
0.0
1001
ACDBBLOCKREPETAG
1070
     1
1071
       22
1005
12A92F
  0
ARC
  5
12A930
  8
OBJECT
 10
560.44352901899219
 20
-206.09723786081301
 30
0.0
 40
7.0
 50
163.0012722295161
 51
244.0502587893248
1001
ACDBBLOCKREPETAG
1070
     1
1071
       70
1005
12A930
  0
ARC
  5
12A931
  8
OBJECT
 10
561.59787731695155
 20
-209.16233892935259
 30
0.0
 40
9.0
 50
163.0012722295161
 51
244.050263925937
1001
ACDBBLOCKREPETAG
1070
     1
1071
       71
1005
12A931
  0
ARC
  5
12A932
  8
OBJECT
 10
483.28130031148231
 20
-299.6857698684471
 30
0.0
 40
150.0
 50
52.895033739929247
 51
55.89314996963072
1001
ACDBBLOCKREPETAG
1070
     1
1071
       72
1005
12A932
  0
LINE
  5
12A933
  8
OBJECT
 10
557.38045100897205
 20
-212.39148548102821
 30
0.0
 11
570.19158700000116
 21
-218.62598900000009
 31
0.0
1001
ACDBBLOCKREPETAG
1070
     1
1071
       73
1005
12A933
  0
LINE
  5
12A934
  8
OBJECT
 10
557.65963488670604
 20
-217.2549433655368
 30
0.0
 11
567.61836000000039
 21
-222.10132800000429
 31
0.0
1001
ACDBBLOCKREPETAG
1070
     1
1071
       74
1005
12A934
  0
LINE
  5
12A935
  8
OBJECT
 10
562.00000000000159
 20
-177.06198199999929
 30
0.0
 11
552.99107608744453
 21
-206.53118469673791
 31
0.0
1001
ACDBBLOCKREPETAG
1070
     1
1071
       75
1005
12A935
  0
LINE
  5
12A936
  8
OBJECT
 10
567.39199878029285
 20
-175.48677469099491
 30
0.0
 11
562.00000000000159
 21
-177.06198199999929
 31
0.0
1001
ACDBBLOCKREPETAG
1070
     1
1071
       76
1005
12A936
  0
POINT
  5
12A937
  8
DOTS
 10
536.0
 20
-196.0
 30
0.0
1001
ACDBBLOCKREPETAG
1070
     1
1071
       39
1005
12A937
  0
INSERT
  5
12A938
  8
OBJECT
  2
*U9
 10
0.0
 20
0.0
 30
0.0
  0
LINE
  5
12A939
  8
OBJECT
 10
489.0
 20
-72.999999999998181
 30
0.0
 11
489.0
 21
-65.999999999998181
 31
0.0
1001
ACDBBLOCKREPETAG
1070
     1
1071
        1
1005
12A939
  0
LINE
  5
12A93A
  8
OBJECT
 10
489.0
 20
-65.999999999998181
 30
0.0
 11
583.0
 21
-65.999999999998181
 31
0.0
1001
ACDBBLOCKREPETAG
1070
     1
1071
        2
1005
12A93A
  0
LINE
  5
12A93B
  8
OBJECT
 10
583.0
 20
-65.999999999998181
 30
0.0
 11
583.0
 21
-72.999999999998181
 31
0.0
1001
ACDBBLOCKREPETAG
1070
     1
1071
        3
1005
12A93B
  0
LINE
  5
12A93C
  8
OBJECT
 10
583.0
 20
-72.999999999998181
 30
0.0
 11
489.0
 21
-72.999999999998181
 31
0.0
1001
ACDBBLOCKREPETAG
1070
     1
1071
        4
1005
12A93C
  0
LINE
  5
12A93D
  8
OBJECT
 10
492.0
 20
-72.999999999998181
 30
0.0
 11
492.0
 21
-108.9999999999982
 31
0.0
1001
ACDBBLOCKREPETAG
1070
     1
1071
        5
1005
12A93D
  0
LINE
  5
12A93E
  8
OBJECT
 10
492.0
 20
-108.9999999999982
 30
0.0
 11
580.0
 21
-108.9999999999982
 31
0.0
1001
ACDBBLOCKREPETAG
1070
     1
1071
        6
1005
12A93E
  0
LINE
  5
12A93F
  8
OBJECT
 10
580.0
 20
-108.9999999999982
 30
0.0
 11
580.0
 21
-72.999999999998181
 31
0.0
1001
ACDBBLOCKREPETAG
1070
     1
1071
        7
1005
12A93F
  0
LINE
  5
12A940
  8
OBJECT
 10
496.49999999999989
 20
-112.9999999999982
 30
0.0
 11
496.49999999999989
 21
-119.9999999999981
 31
0.0
1001
ACDBBLOCKREPETAG
1070
     1
1071
        8
1005
12A940
  0
LINE
  5
12A941
  8
OBJECT
 10
575.49999999999989
 20
-119.9999999999981
 30
0.0
 11
575.49999999999989
 21
-112.9999999999982
 31
0.0
1001
ACDBBLOCKREPETAG
1070
     1
1071
        9
1005
12A941
  0
LINE
  5
12A942
  8
OBJECT
 10
575.49999999999989
 20
-112.9999999999982
 30
0.0
 11
496.49999999999989
 21
-112.9999999999982
 31
0.0
1001
ACDBBLOCKREPETAG
1070
     1
1071
       10
1005
12A942
  0
LINE
  5
12A943
  8
OBJECT
 10
492.0
 20
-108.9999999999982
 30
0.0
 11
496.49999999999989
 21
-112.9999999999982
 31
0.0
1001
ACDBBLOCKREPETAG
1070
     1
1071
       11
1005
12A943
  0
LINE
  5
12A944
  8
OBJECT
 10
580.0
 20
-108.9999999999982
 30
0.0
 11
575.49999999999989
 21
-112.9999999999982
 31
0.0
1001
ACDBBLOCKREPETAG
1070
     1
1071
       12
1005
12A944
  0
LINE
  5
12A945
  8
OBJECT
 10
474.0
 20
-122.9999999999972
 30
0.0
 11
474.0
 21
-125.9999999999982
 31
0.0
1001
ACDBBLOCKREPETAG
1070
     1
1071
       13
1005
12A945
  0
ARC
  5
12A946
  8
OBJECT
 10
477.0
 20
-122.9999999999972
 30
0.0
 40
3.0
 50
90.0
 51
180.0
1001
ACDBBLOCKREPETAG
1070
     1
1071
       14
1005
12A946
  0
LINE
  5
12A947
  8
OBJECT
 10
598.0
 20
-125.9999999999982
 30
0.0
 11
598.0
 21
-122.9999999999991
 31
0.0
1001
ACDBBLOCKREPETAG
1070
     1
1071
       15
1005
12A947
  0
ARC
  5
12A948
  8
OBJECT
 10
595.0
 20
-122.9999999999991
 30
0.0
 40
3.0
 50
0.0
 51
90.0
1001
ACDBBLOCKREPETAG
1070
     1
1071
       16
1005
12A948
  0
LINE
  5
12A949
  8
OBJECT
 10
595.0
 20
-119.9999999999991
 30
0.0
 11
477.0
 21
-119.9999999999972
 31
0.0
1001
ACDBBLOCKREPETAG
1070
     1
1071
       17
1005
12A949
  0
LINE
  5
12A94A
  8
HIDDEN
 10
506.0
 20
-117.9999999999981
 30
0.0
 11
566.0
 21
-117.9999999999981
 31
0.0
1001
ACDBBLOCKREPETAG
1070
     1
1071
      420
1005
12A94A
  0
LINE
  5
12A94B
  8
OBJECT
 10
223.0
 20
-319.0
 30
0.0
 11
223.0
 21
-326.0
 31
0.0
1001
ACDBBLOCKREPETAG
1070
     1
1071
        0
1005
12A94B
  0
LINE
  5
12A94C
  8
OBJECT
 10
223.0
 20
-326.0
 30
0.0
 11
129.0
 21
-326.0
 31
0.0
1001
ACDBBLOCKREPETAG
1070
     1
1071
        1
1005
12A94C
  0
LINE
  5
12A94D
  8
OBJECT
 10
129.0
 20
-326.0
 30
0.0
 11
129.0
 21
-319.0
 31
0.0
1001
ACDBBLOCKREPETAG
1070
     1
1071
        2
1005
12A94D
  0
LINE
  5
12A94E
  8
OBJECT
 10
129.0
 20
-319.0
 30
0.0
 11
223.0
 21
-319.0
 31
0.0
1001
ACDBBLOCKREPETAG
1070
     1
1071
        3
1005
12A94E
  0
LINE
  5
12A94F
  8
OBJECT
 10
220.0
 20
-319.0
 30
0.0
 11
220.0
 21
-283.0
 31
0.0
1001
ACDBBLOCKREPETAG
1070
     1
1071
        4
1005
12A94F
  0
LINE
  5
12A950
  8
OBJECT
 10
220.0
 20
-283.0
 30
0.0
 11
132.0
 21
-283.0
 31
0.0
1001
ACDBBLOCKREPETAG
1070
     1
1071
        5
1005
12A950
  0
LINE
  5
12A951
  8
OBJECT
 10
132.0
 20
-283.0
 30
0.0
 11
132.0
 21
-319.0
 31
0.0
1001
ACDBBLOCKREPETAG
1070
     1
1071
        6
1005
12A951
  0
LINE
  5
12A952
  8
OBJECT
 10
215.5
 20
-279.0
 30
0.0
 11
215.5
 21
-272.0
 31
0.0
1001
ACDBBLOCKREPETAG
1070
     1
1071
        7
1005
12A952
  0
LINE
  5
12A953
  8
OBJECT
 10
136.5
 20
-272.0
 30
0.0
 11
136.5
 21
-279.0
 31
0.0
1001
ACDBBLOCKREPETAG
1070
     1
1071
        8
1005
12A953
  0
LINE
  5
12A954
  8
OBJECT
 10
136.5
 20
-279.0
 30
0.0
 11
215.5
 21
-279.0
 31
0.0
1001
ACDBBLOCKREPETAG
1070
     1
1071
        9
1005
12A954
  0
LINE
  5
12A955
  8
OBJECT
 10
220.0
 20
-283.0
 30
0.0
 11
215.5
 21
-279.0
 31
0.0
1001
ACDBBLOCKREPETAG
1070
     1
1071
       10
1005
12A955
  0
LINE
  5
12A956
  8
OBJECT
 10
132.0
 20
-283.0
 30
0.0
 11
136.5
 21
-279.0
 31
0.0
1001
ACDBBLOCKREPETAG
1070
     1
1071
       11
1005
12A956
  0
LINE
  5
12A957
  8
OBJECT
 10
238.0
 20
-269.0000000000008
 30
0.0
 11
238.0
 21
-266.0
 31
0.0
1001
ACDBBLOCKREPETAG
1070
     1
1071
       12
1005
12A957
  0
ARC
  5
12A958
  8
OBJECT
 10
235.0
 20
-269.0000000000008
 30
0.0
 40
3.0
 50
270.0
 51
0.0
1001
ACDBBLOCKREPETAG
1070
     1
1071
       13
1005
12A958
  0
LINE
  5
12A959
  8
OBJECT
 10
114.0
 20
-266.0
 30
0.0
 11
114.0
 21
-268.99999999999909
 31
0.0
1001
ACDBBLOCKREPETAG
1070
     1
1071
       14
1005
12A959
  0
ARC
  5
12A95A
  8
OBJECT
 10
117.0
 20
-268.99999999999909
 30
0.0
 40
3.0
 50
180.0
 51
270.0
1001
ACDBBLOCKREPETAG
1070
     1
1071
       15
1005
12A95A
  0
LINE
  5
12A95B
  8
OBJECT
 10
117.0
 20
-271.99999999999909
 30
0.0
 11
235.0
 21
-272.00000000000091
 31
0.0
1001
ACDBBLOCKREPETAG
1070
     1
1071
       16
1005
12A95B
  0
INSERT
  5
12A95C
  8
OBJECT
  2
*U10
 10
0.0
 20
0.0
 30
0.0
  0
LINE
  5
12A95D
  8
HIDDEN
 10
206.0
 20
-274.0
 30
0.0
 11
146.0
 21
-274.0
 31
0.0
1001
ACDBBLOCKREPETAG
1070
     1
1071
      424
1005
12A95D
  0
LINE
  5
12A95E
  8
OBJECT
 10
249.0
 20
-258.0
 30
0.0
 11
246.0
 21
-258.0
 31
0.0
1001
ACDBBLOCKREPETAG
1070
     1
1071
      418
1005
12A95E
  0
ARC
  5
12A95F
  8
OBJECT
 10
249.0
 20
-255.0
 30
0.0
 40
3.0
 50
270.0
 51
0.0
1001
ACDBBLOCKREPETAG
1070
     1
1071
      419
1005
12A95F
  0
LINE
  5
12A960
  8
OBJECT
 10
246.0
 20
-134.0
 30
0.0
 11
249.0
 21
-134.0
 31
0.0
1001
ACDBBLOCKREPETAG
1070
     1
1071
      420
1005
12A960
  0
ARC
  5
12A961
  8
OBJECT
 10
249.0
 20
-137.0
 30
0.0
 40
3.0
 50
0.0
 51
90.0
1001
ACDBBLOCKREPETAG
1070
     1
1071
      421
1005
12A961
  0
LINE
  5
12A962
  8
OBJECT
 10
252.0
 20
-137.0
 30
0.0
 11
252.0
 21
-255.0
 31
0.0
1001
ACDBBLOCKREPETAG
1070
     1
1071
      422
1005
12A962
  0
ARC
  5
12A963
  8
OBJECT
 10
176.0
 20
-196.0
 30
0.0
 40
70.0
 50
152.33955010081621
 51
207.6604498991837
1001
ACDBBLOCKREPETAG
1070
     1
1071
        0
1005
12A963
  0
CIRCLE
  5
12A964
  8
OBJECT
 10
176.0
 20
-196.0
 30
0.0
 40
65.0
1001
ACDBBLOCKREPETAG
1070
     1
1071
        1
1005
12A964
  0
CIRCLE
  5
12A965
  8
OBJECT
 10
176.0
 20
-196.0
 30
0.0
 40
41.0
1001
ACDBBLOCKREPETAG
1070
     1
1071
        2
1005
12A965
  0
CIRCLE
  5
12A966
  8
OBJECT
 10
176.0
 20
-196.0
 30
0.0
 40
58.0
1001
ACDBBLOCKREPETAG
1070
     1
1071
        3
1005
12A966
  0
LINE
  5
12A967
  8
OBJECT
 10
114.0
 20
-125.9999999999982
 30
0.0
 11
114.0
 21
-176.48077870405689
 31
0.0
1001
ACDBBLOCKREPETAG
1070
     1
1071
        4
1005
12A967
  0
LINE
  5
12A968
  8
OBJECT
 10
114.0
 20
-266.0
 30
0.0
 11
114.0
 21
-215.51922129594311
 31
0.0
1001
ACDBBLOCKREPETAG
1070
     1
1071
        5
1005
12A968
  0
LINE
  5
12A969
  8
OBJECT
 10
238.0
 20
-266.0
 30
0.0
 11
238.0
 21
-258.0
 31
0.0
1001
ACDBBLOCKREPETAG
1070
     1
1071
        6
1005
12A969
  0
LINE
  5
12A96A
  8
OBJECT
 10
246.0
 20
-258.0
 30
0.0
 11
238.0
 21
-258.0
 31
0.0
1001
ACDBBLOCKREPETAG
1070
     1
1071
        7
1005
12A96A
  0
LINE
  5
12A96B
  8
OBJECT
 10
238.0
 20
-125.9999999999982
 30
0.0
 11
238.0
 21
-134.0
 31
0.0
1001
ACDBBLOCKREPETAG
1070
     1
1071
        8
1005
12A96B
  0
LINE
  5
12A96C
  8
OBJECT
 10
246.0
 20
-134.0
 30
0.0
 11
238.0
 21
-134.0
 31
0.0
1001
ACDBBLOCKREPETAG
1070
     1
1071
        9
1005
12A96C
  0
ARC
  5
12A96D
  8
OBJECT
 10
176.0
 20
-196.0
 30
0.0
 40
37.5
 50
33.162766676671247
 51
319.16350249081961
1001
ACDBBLOCKREPETAG
1070
     1
1071
       13
1005
12A96D
  0
LINE
  5
12A96E
  8
OBJECT
 10
221.96194077712559
 20
-241.96194077712559
 30
0.0
 11
238.0
 21
-258.0
 31
0.0
1001
ACDBBLOCKREPETAG
1070
     1
1071
       21
1005
12A96E
  0
LINE
  5
12A96F
  8
OBJECT
 10
221.96194077712559
 20
-150.03805922287441
 30
0.0
 11
238.0
 21
-134.0
 31
0.0
1001
ACDBBLOCKREPETAG
1070
     1
1071
       22
1005
12A96F
  0
ARC
  5
12A970
  8
OBJECT
 10
200.44352901899219
 20
-206.09723786081301
 30
0.0
 40
7.0
 50
163.00127222951571
 51
244.05025878932179
1001
ACDBBLOCKREPETAG
1070
     1
1071
       70
1005
12A970
  0
ARC
  5
12A971
  8
OBJECT
 10
201.59787731695181
 20
-209.16233892935259
 30
0.0
 40
9.0
 50
163.00127222951571
 51
244.050263925937
1001
ACDBBLOCKREPETAG
1070
     1
1071
       71
1005
12A971
  0
ARC
  5
12A972
  8
OBJECT
 10
123.2813003114825
 20
-299.6857698684471
 30
0.0
 40
150.0
 50
52.895033739929247
 51
55.89314996963072
1001
ACDBBLOCKREPETAG
1070
     1
1071
       72
1005
12A972
  0
LINE
  5
12A973
  8
OBJECT
 10
197.3804510089721
 20
-212.39148548102821
 30
0.0
 11
210.19158700000119
 21
-218.62598900000009
 31
0.0
1001
ACDBBLOCKREPETAG
1070
     1
1071
       73
1005
12A973
  0
LINE
  5
12A974
  8
OBJECT
 10
197.65963488670599
 20
-217.2549433655368
 30
0.0
 11
207.61836000000039
 21
-222.10132800000429
 31
0.0
1001
ACDBBLOCKREPETAG
1070
     1
1071
       74
1005
12A974
  0
LINE
  5
12A975
  8
OBJECT
 10
202.00000000000179
 20
-177.06198199999929
 30
0.0
 11
192.9910760874445
 21
-206.53118469673791
 31
0.0
1001
ACDBBLOCKREPETAG
1070
     1
1071
       75
1005
12A975
  0
LINE
  5
12A976
  8
OBJECT
 10
207.39199878029279
 20
-175.48677469099491
 30
0.0
 11
202.00000000000179
 21
-177.06198199999929
 31
0.0
1001
ACDBBLOCKREPETAG
1070
     1
1071
       76
1005
12A976
  0
POINT
  5
12A977
  8
DOTS
 10
176.0
 20
-196.0
 30
0.0
1001
ACDBBLOCKREPETAG
1070
     1
1071
       39
1005
12A977
  0
INSERT
  5
12A978
  8
OBJECT
  2
*U11
 10
0.0
 20
0.0
 30
0.0
  0
LINE
  5
12A979
  8
OBJECT
 10
129.0
 20
-72.999999999998181
 30
0.0
 11
129.0
 21
-65.999999999998181
 31
0.0
1001
ACDBBLOCKREPETAG
1070
     1
1071
        1
1005
12A979
  0
LINE
  5
12A97A
  8
OBJECT
 10
129.0
 20
-65.999999999998181
 30
0.0
 11
223.0
 21
-65.999999999998181
 31
0.0
1001
ACDBBLOCKREPETAG
1070
     1
1071
        2
1005
12A97A
  0
LINE
  5
12A97B
  8
OBJECT
 10
223.0
 20
-65.999999999998181
 30
0.0
 11
223.0
 21
-72.999999999998181
 31
0.0
1001
ACDBBLOCKREPETAG
1070
     1
1071
        3
1005
12A97B
  0
LINE
  5
12A97C
  8
OBJECT
 10
223.0
 20
-72.999999999998181
 30
0.0
 11
129.0
 21
-72.999999999998181
 31
0.0
1001
ACDBBLOCKREPETAG
1070
     1
1071
        4
1005
12A97C
  0
LINE
  5
12A97D
  8
OBJECT
 10
132.0
 20
-72.999999999998181
 30
0.0
 11
132.0
 21
-108.9999999999982
 31
0.0
1001
ACDBBLOCKREPETAG
1070
     1
1071
        5
1005
12A97D
  0
LINE
  5
12A97E
  8
OBJECT
 10
132.0
 20
-108.9999999999982
 30
0.0
 11
220.0
 21
-108.9999999999982
 31
0.0
1001
ACDBBLOCKREPETAG
1070
     1
1071
        6
1005
12A97E
  0
LINE
  5
12A97F
  8
OBJECT
 10
220.0
 20
-108.9999999999982
 30
0.0
 11
220.0
 21
-72.999999999998181
 31
0.0
1001
ACDBBLOCKREPETAG
1070
     1
1071
        7
1005
12A97F
  0
LINE
  5
12A980
  8
OBJECT
 10
136.5
 20
-112.9999999999982
 30
0.0
 11
136.5
 21
-119.9999999999981
 31
0.0
1001
ACDBBLOCKREPETAG
1070
     1
1071
        8
1005
12A980
  0
LINE
  5
12A981
  8
OBJECT
 10
215.5
 20
-119.9999999999981
 30
0.0
 11
215.5
 21
-112.9999999999982
 31
0.0
1001
ACDBBLOCKREPETAG
1070
     1
1071
        9
1005
12A981
  0
LINE
  5
12A982
  8
OBJECT
 10
215.5
 20
-112.9999999999982
 30
0.0
 11
136.5
 21
-112.9999999999982
 31
0.0
1001
ACDBBLOCKREPETAG
1070
     1
1071
       10
1005
12A982
  0
LINE
  5
12A983
  8
OBJECT
 10
132.0
 20
-108.9999999999982
 30
0.0
 11
136.5
 21
-112.9999999999982
 31
0.0
1001
ACDBBLOCKREPETAG
1070
     1
1071
       11
1005
12A983
  0
LINE
  5
12A984
  8
OBJECT
 10
220.0
 20
-108.9999999999982
 30
0.0
 11
215.5
 21
-112.9999999999982
 31
0.0
1001
ACDBBLOCKREPETAG
1070
     1
1071
       12
1005
12A984
  0
LINE
  5
12A985
  8
OBJECT
 10
114.0
 20
-122.9999999999972
 30
0.0
 11
114.0
 21
-125.9999999999982
 31
0.0
1001
ACDBBLOCKREPETAG
1070
     1
1071
       13
1005
12A985
  0
ARC
  5
12A986
  8
OBJECT
 10
117.0
 20
-122.9999999999972
 30
0.0
 40
3.0
 50
90.0
 51
180.0
1001
ACDBBLOCKREPETAG
1070
     1
1071
       14
1005
12A986
  0
LINE
  5
12A987
  8
OBJECT
 10
238.0
 20
-125.9999999999982
 30
0.0
 11
238.0
 21
-122.9999999999991
 31
0.0
1001
ACDBBLOCKREPETAG
1070
     1
1071
       15
1005
12A987
  0
ARC
  5
12A988
  8
OBJECT
 10
235.0
 20
-122.9999999999991
 30
0.0
 40
3.0
 50
0.0
 51
90.0
1001
ACDBBLOCKREPETAG
1070
     1
1071
       16
1005
12A988
  0
LINE
  5
12A989
  8
OBJECT
 10
235.0
 20
-119.9999999999991
 30
0.0
 11
117.0
 21
-119.9999999999972
 31
0.0
1001
ACDBBLOCKREPETAG
1070
     1
1071
       17
1005
12A989
  0
LINE
  5
12A98A
  8
HIDDEN
 10
146.0
 20
-117.9999999999981
 30
0.0
 11
206.0
 21
-117.9999999999981
 31
0.0
1001
ACDBBLOCKREPETAG
1070
     1
1071
      420
1005
12A98A
  0
POLYLINE
  5
12A98B
  8
HIDDEN
 66
     1
 10
0.0
 20
0.0
 30
0.0
 70
     1
1001
ACDBBLOCKREPETAG
1070
     1
1071
      105
1005
0
  0
VERTEX
  5
12AD7B
  8
HIDDEN
 10
359.99999999987818
 20
0.0000000000009095
 30
0.0
  0
VERTEX
  5
12AD7C
  8
HIDDEN
 10
719.99999999975626
 20
0.0000000000009095
 30
0.0
  0
VERTEX
  5
12AD7D
  8
HIDDEN
 10
719.99999999975626
 20
-463.99999999984078
 30
0.0
  0
VERTEX
  5
12AD7E
  8
HIDDEN
 10
359.99999999987818
 20
-463.99999999984078
 30
0.0
  0
SEQEND
  5
12AD7F
  8
HIDDEN
  0
POLYLINE
  5
12A98C
  8
HIDDEN
 66
     1
 10
0.0
 20
0.0
 30
0.0
 70
     1
1001
ACDBBLOCKREPETAG
1070
     1
1071
      110
1005
0
  0
VERTEX
  5
12AD80
  8
HIDDEN
 10
0.0
 20
0.0000000000009095
 30
0.0
  0
VERTEX
  5
12AD81
  8
HIDDEN
 10
359.99999999987818
 20
0.0000000000009095
 30
0.0
  0
VERTEX
  5
12AD82
  8
HIDDEN
 10
359.99999999987818
 20
-463.99999999984078
 30
0.0
  0
VERTEX
  5
12AD83
  8
HIDDEN
 10
0.0
 20
-463.99999999984078
 30
0.0
  0
SEQEND
  5
12AD84
  8
HIDDEN
  0
POLYLINE
  5
12A98D
  8
HIDDEN
 66
     1
 10
0.0
 20
0.0
 30
0.0
 70
     1
1001
ACDBBLOCKREPETAG
1070
     1
1071
      125
1005
0
  0
VERTEX
  5
12AD85
  8
HIDDEN
 10
0.0
 20
-463.99999999984078
 30
0.0
  0
VERTEX
  5
12AD86
  8
HIDDEN
 10
359.99999999987818
 20
-463.99999999984078
 30
0.0
  0
VERTEX
  5
12AD87
  8
HIDDEN
 10
359.99999999987818
 20
-927.99999999968247
 30
0.0
  0
VERTEX
  5
12AD88
  8
HIDDEN
 10
0.0
 20
-927.99999999968247
 30
0.0
  0
SEQEND
  5
12AD89
  8
HIDDEN
  0
TEXT
  5
12A98E
  8
SLIM
 10
115.7142857142275
 20
-907.99999999968998
 30
0.0
 40
48.0
  1
B202
 41
0.75
1001
ACDBBLOCKREPETAG
1070
     1
1071
      119
1005
0
  0
TEXT
  5
12A98F
  8
SLIM
 10
479.1428571426751
 20
-443.99999999984823
 30
0.0
 40
48.0
  1
B102
 41
0.75
1001
ACDBBLOCKREPETAG
1070
     1
1071
      119
1005
0
  0
TEXT
  5
12A990
  8
SLIM
 10
126.8571428570846
 20
-443.99999999984823
 30
0.0
 40
48.0
  1
B101
 41
0.75
1001
ACDBBLOCKREPETAG
1070
     1
1071
      119
1005
0
  0
TEXT
  5
12A991
  8
SLIM
 10
7824.6000000000022
 20
-1403.999999999998
 30
0.0
 40
28.0
  1
※ 対応スラブ厚　180～220
 41
0.75
  0
TEXT
  5
12A992
  8
SLIM
 10
7598.8999999999969
 20
-1497.333333333331
 30
0.0
 40
28.0
  1
国土交通大臣認定・（一財）日本消防設備安全センター性能評定取得品
 41
0.75
  0
TEXT
  5
12A993
  8
SLIM
 10
7631.1000000000004
 20
-1543.999999999998
 30
0.0
 40
28.0
  1
注）ご採用にあたり、認定書及び評定書の内容をご確認ください。
 41
0.75
  0
LINE
  5
12A994
  8
SLIM
 10
11925.0
 20
-755.19743878930785
 30
0.0
 11
11925.197438789301
 21
-754.99999999999955
 31
0.0
1001
ACAD
1010
0.0
1020
0.0
1030
0.0
1001
ACDBBLOCKREPETAG
1070
     1
1071
        1
1005
0
  0
LINE
  5
12A995
  8
SLIM
 10
11925.0
 20
-773.15795103144615
 30
0.0
 11
11943.15795103144
 21
-754.99999999999955
 31
0.0
1001
ACAD
1010
0.0
1020
0.0
1030
0.0
1001
ACDBBLOCKREPETAG
1070
     1
1071
       10
1005
12A995
  0
LINE
  5
12A996
  8
SLIM
 10
11925.0
 20
-791.11846327358455
 30
0.0
 11
11961.11846327358
 21
-754.99999999999955
 31
0.0
1001
ACAD
1010
0.0
1020
0.0
1030
0.0
1001
ACDBBLOCKREPETAG
1070
     1
1071
       11
1005
12A996
  0
LINE
  5
12A997
  8
SLIM
 10
11925.0
 20
-809.07897551572285
 30
0.0
 11
11979.07897551572
 21
-754.99999999999955
 31
0.0
1001
ACAD
1010
0.0
1020
0.0
1030
0.0
1001
ACDBBLOCKREPETAG
1070
     1
1071
       12
1005
12A997
  0
LINE
  5
12A998
  8
SLIM
 10
11925.0
 20
-827.03948775786125
 30
0.0
 11
11997.03948775786
 21
-754.99999999999955
 31
0.0
1001
ACAD
1010
0.0
1020
0.0
1030
0.0
1001
ACDBBLOCKREPETAG
1070
     1
1071
       13
1005
12A998
  0
LINE
  5
12A999
  8
SLIM
 10
11925.0
 20
-844.99999999999955
 30
0.0
 11
12015.0
 21
-754.99999999999955
 31
0.0
1001
ACAD
1010
0.0
1020
0.0
1030
0.0
1001
ACDBBLOCKREPETAG
1070
     1
1071
       14
1005
12A999
  0
LINE
  5
12A99A
  8
SLIM
 10
11925.0
 20
-862.96051224213795
 30
0.0
 11
12032.96051224214
 21
-754.99999999999955
 31
0.0
1001
ACAD
1010
0.0
1020
0.0
1030
0.0
1001
ACDBBLOCKREPETAG
1070
     1
1071
       15
1005
12A99A
  0
LINE
  5
12A99B
  8
SLIM
 10
11926.57043503541
 20
-879.35058944886373
 30
0.0
 11
12050.921024484271
 21
-754.99999999999955
 31
0.0
1001
ACAD
1010
0.0
1020
0.0
1030
0.0
1001
ACDBBLOCKREPETAG
1070
     1
1071
       16
1005
12A99B
  0
LINE
  5
12A99C
  8
SLIM
 10
11929.39181818456
 20
-894.48971854185413
 30
0.0
 11
12068.881536726411
 21
-754.99999999999955
 31
0.0
1001
ACAD
1010
0.0
1020
0.0
1030
0.0
1001
ACDBBLOCKREPETAG
1070
     1
1071
       17
1005
12A99C
  0
LINE
  5
12A99D
  8
SLIM
 10
11932.21320133371
 20
-909.62884763484476
 30
0.0
 11
12075.0
 21
-766.8420489685526
 31
0.0
1001
ACAD
1010
0.0
1020
0.0
1030
0.0
1001
ACDBBLOCKREPETAG
1070
     1
1071
       18
1005
12A99D
  0
LINE
  5
12A99E
  8
SLIM
 10
11935.03458448285
 20
-924.76797672783539
 30
0.0
 11
12075.0
 21
-784.80256121069112
 31
0.0
1001
ACAD
1010
0.0
1020
0.0
1030
0.0
1001
ACDBBLOCKREPETAG
1070
     1
1071
       19
1005
12A99E
  0
LINE
  5
12A99F
  8
SLIM
 10
11937.855967632
 20
-939.90710582082625
 30
0.0
 11
12075.0
 21
-802.76307345282942
 31
0.0
1001
ACAD
1010
0.0
1020
0.0
1030
0.0
1001
ACDBBLOCKREPETAG
1070
     1
1071
       20
1005
12A99F
  0
LINE
  5
12A9A0
  8
SLIM
 10
11940.67735078115
 20
-955.04623491381665
 30
0.0
 11
12075.0
 21
-820.7235856949676
 31
0.0
1001
ACAD
1010
0.0
1020
0.0
1030
0.0
1001
ACDBBLOCKREPETAG
1070
     1
1071
       21
1005
12A9A0
  0
LINE
  5
12A9A1
  8
SLIM
 10
11943.498733930301
 20
-970.18536400680739
 30
0.0
 11
12075.0
 21
-838.684097937106
 31
0.0
1001
ACAD
1010
0.0
1020
0.0
1030
0.0
1001
ACDBBLOCKREPETAG
1070
     1
1071
       22
1005
12A9A1
  0
LINE
  5
12A9A2
  8
SLIM
 10
11945.5
 20
-986.14461017924543
 30
0.0
 11
12075.0
 21
-856.64461017924418
 31
0.0
1001
ACAD
1010
0.0
1020
0.0
1030
0.0
1001
ACDBBLOCKREPETAG
1070
     1
1071
       23
1005
12A9A2
  0
LINE
  5
12A9A3
  8
SLIM
 10
11945.5
 20
-1004.105122421381
 30
0.0
 11
12074.15680692925
 21
-875.44831549213154
 31
0.0
1001
ACAD
1010
0.0
1020
0.0
1030
0.0
1001
ACDBBLOCKREPETAG
1070
     1
1071
       24
1005
12A9A3
  0
LINE
  5
12A9A4
  8
SLIM
 10
11945.5
 20
-1022.065634663517
 30
0.0
 11
12070.04294658328
 21
-897.52268808023439
 31
0.0
1001
ACAD
1010
0.0
1020
0.0
1030
0.0
1001
ACDBBLOCKREPETAG
1070
     1
1071
       25
1005
12A9A4
  0
LINE
  5
12A9A5
  8
SLIM
 10
11960.52614690566
 20
-1024.9999999999991
 30
0.0
 11
12065.92908623732
 21
-919.59706066833724
 31
0.0
1001
ACAD
1010
0.0
1020
0.0
1030
0.0
1001
ACDBBLOCKREPETAG
1070
     1
1071
       26
1005
12A9A5
  0
LINE
  5
12A9A6
  8
SLIM
 10
11978.4866591478
 20
-1024.9999999999991
 30
0.0
 11
12061.81522589136
 21
-941.67143325643985
 31
0.0
1001
ACAD
1010
0.0
1020
0.0
1030
0.0
1001
ACDBBLOCKREPETAG
1070
     1
1071
       27
1005
12A9A6
  0
LINE
  5
12A9A7
  8
SLIM
 10
11996.447171389929
 20
-1024.9999999999991
 30
0.0
 11
12057.70136554539
 21
-963.74580584454304
 31
0.0
1001
ACAD
1010
0.0
1020
0.0
1030
0.0
1001
ACDBBLOCKREPETAG
1070
     1
1071
       28
1005
12A9A7
  0
LINE
  5
12A9A8
  8
SLIM
 10
12014.407683632069
 20
-1024.9999999999991
 30
0.0
 11
12054.5
 21
-984.90768363207394
 31
0.0
1001
ACAD
1010
0.0
1020
0.0
1030
0.0
1001
ACDBBLOCKREPETAG
1070
     1
1071
       29
1005
12A9A8
  0
LINE
  5
12A9A9
  8
SLIM
 10
12032.368195874211
 20
-1024.9999999999991
 30
0.0
 11
12054.5
 21
-1002.868195874213
 31
0.0
1001
ACAD
1010
0.0
1020
0.0
1030
0.0
1001
ACDBBLOCKREPETAG
1070
     1
1071
       30
1005
12A9A9
  0
LINE
  5
12A9AA
  8
SLIM
 10
12050.328708116351
 20
-1024.9999999999991
 30
0.0
 11
12054.5
 21
-1020.828708116352
 31
0.0
1001
ACAD
1010
0.0
1020
0.0
1030
0.0
1001
ACDBBLOCKREPETAG
1070
     1
1071
       31
1005
12A9AA
  0
LINE
  5
12A9AB
  8
OBJECT
 10
11925.0
 20
-754.99999999999955
 30
0.0
 11
12075.0
 21
-754.99999999999955
 31
0.0
1001
ACDBBLOCKREPETAG
1070
     1
1071
        2
1005
12A9AB
  0
LINE
  5
12A9AC
  8
OBJECT
 10
12075.0
 20
-754.99999999999955
 30
0.0
 11
12075.0
 21
-870.9238648686005
 31
0.0
1001
ACDBBLOCKREPETAG
1070
     1
1071
        3
1005
12A9AC
  0
LINE
  5
12A9AD
  8
OBJECT
 10
12075.0
 20
-870.9238648686005
 30
0.0
 11
12054.5
 21
-980.92386486860221
 31
0.0
1001
ACDBBLOCKREPETAG
1070
     1
1071
        4
1005
12A9AD
  0
LINE
  5
12A9AE
  8
OBJECT
 10
12054.5
 20
-980.92386486860221
 30
0.0
 11
12054.5
 21
-1024.9999999999991
 31
0.0
1001
ACDBBLOCKREPETAG
1070
     1
1071
        5
1005
12A9AE
  0
LINE
  5
12A9AF
  8
OBJECT
 10
12054.5
 20
-1024.9999999999991
 30
0.0
 11
11945.5
 21
-1024.9999999999991
 31
0.0
1001
ACDBBLOCKREPETAG
1070
     1
1071
        6
1005
12A9AF
  0
LINE
  5
12A9B0
  8
OBJECT
 10
11945.5
 20
-1024.9999999999991
 30
0.0
 11
11945.5
 21
-980.92386486861199
 31
0.0
1001
ACDBBLOCKREPETAG
1070
     1
1071
        7
1005
12A9B0
  0
LINE
  5
12A9B1
  8
OBJECT
 10
11945.5
 20
-980.92386486861199
 30
0.0
 11
11925.0
 21
-870.9238648686005
 31
0.0
1001
ACDBBLOCKREPETAG
1070
     1
1071
        8
1005
12A9B1
  0
LINE
  5
12A9B2
  8
OBJECT
 10
11925.0
 20
-870.9238648686005
 30
0.0
 11
11925.0
 21
-754.99999999999955
 31
0.0
1001
ACDBBLOCKREPETAG
1070
     1
1071
        9
1005
12A9B2
  0
LINE
  5
12A9B3
  8
SLIM
 10
9925.0
 20
-755.19743878930785
 30
0.0
 11
9925.1974387893097
 21
-754.99999999999955
 31
0.0
1001
ACAD
1010
0.0
1020
0.0
1030
0.0
1001
ACDBBLOCKREPETAG
1070
     1
1071
        1
1005
0
  0
LINE
  5
12A9B4
  8
SLIM
 10
9925.0
 20
-773.15795103144615
 30
0.0
 11
9943.1579510314441
 21
-754.99999999999955
 31
0.0
1001
ACAD
1010
0.0
1020
0.0
1030
0.0
1001
ACDBBLOCKREPETAG
1070
     1
1071
       10
1005
12A9B4
  0
LINE
  5
12A9B5
  8
SLIM
 10
9925.0
 20
-791.11846327358455
 30
0.0
 11
9961.1184632735858
 21
-754.99999999999955
 31
0.0
1001
ACAD
1010
0.0
1020
0.0
1030
0.0
1001
ACDBBLOCKREPETAG
1070
     1
1071
       11
1005
12A9B5
  0
LINE
  5
12A9B6
  8
SLIM
 10
9925.0
 20
-809.07897551572285
 30
0.0
 11
9979.0789755157257
 21
-754.99999999999955
 31
0.0
1001
ACAD
1010
0.0
1020
0.0
1030
0.0
1001
ACDBBLOCKREPETAG
1070
     1
1071
       12
1005
12A9B6
  0
LINE
  5
12A9B7
  8
SLIM
 10
9925.0
 20
-827.03948775786125
 30
0.0
 11
9997.0394877578656
 21
-754.99999999999955
 31
0.0
1001
ACAD
1010
0.0
1020
0.0
1030
0.0
1001
ACDBBLOCKREPETAG
1070
     1
1071
       13
1005
12A9B7
  0
LINE
  5
12A9B8
  8
SLIM
 10
9925.0
 20
-844.99999999999955
 30
0.0
 11
10015.0
 21
-754.99999999999955
 31
0.0
1001
ACAD
1010
0.0
1020
0.0
1030
0.0
1001
ACDBBLOCKREPETAG
1070
     1
1071
       14
1005
12A9B8
  0
LINE
  5
12A9B9
  8
SLIM
 10
9925.0
 20
-862.96051224213795
 30
0.0
 11
10032.96051224214
 21
-754.99999999999955
 31
0.0
1001
ACAD
1010
0.0
1020
0.0
1030
0.0
1001
ACDBBLOCKREPETAG
1070
     1
1071
       15
1005
12A9B9
  0
LINE
  5
12A9BA
  8
SLIM
 10
9926.5704350354117
 20
-879.35058944886373
 30
0.0
 11
10050.921024484271
 21
-754.99999999999955
 31
0.0
1001
ACAD
1010
0.0
1020
0.0
1030
0.0
1001
ACDBBLOCKREPETAG
1070
     1
1071
       16
1005
12A9BA
  0
LINE
  5
12A9BB
  8
SLIM
 10
9929.3918181845602
 20
-894.48971854185413
 30
0.0
 11
10068.881536726411
 21
-754.99999999999955
 31
0.0
1001
ACAD
1010
0.0
1020
0.0
1030
0.0
1001
ACDBBLOCKREPETAG
1070
     1
1071
       17
1005
12A9BB
  0
LINE
  5
12A9BC
  8
SLIM
 10
9932.2132013337086
 20
-909.62884763484476
 30
0.0
 11
10075.0
 21
-766.8420489685526
 31
0.0
1001
ACAD
1010
0.0
1020
0.0
1030
0.0
1001
ACDBBLOCKREPETAG
1070
     1
1071
       18
1005
12A9BC
  0
LINE
  5
12A9BD
  8
SLIM
 10
9935.0345844828553
 20
-924.76797672783539
 30
0.0
 11
10075.0
 21
-784.80256121069112
 31
0.0
1001
ACAD
1010
0.0
1020
0.0
1030
0.0
1001
ACDBBLOCKREPETAG
1070
     1
1071
       19
1005
12A9BD
  0
LINE
  5
12A9BE
  8
SLIM
 10
9937.8559676320037
 20
-939.90710582082625
 30
0.0
 11
10075.0
 21
-802.76307345282942
 31
0.0
1001
ACAD
1010
0.0
1020
0.0
1030
0.0
1001
ACDBBLOCKREPETAG
1070
     1
1071
       20
1005
12A9BE
  0
LINE
  5
12A9BF
  8
SLIM
 10
9940.6773507811504
 20
-955.04623491381665
 30
0.0
 11
10075.0
 21
-820.7235856949676
 31
0.0
1001
ACAD
1010
0.0
1020
0.0
1030
0.0
1001
ACDBBLOCKREPETAG
1070
     1
1071
       21
1005
12A9BF
  0
LINE
  5
12A9C0
  8
SLIM
 10
9943.498733930297
 20
-970.18536400680739
 30
0.0
 11
10075.0
 21
-838.684097937106
 31
0.0
1001
ACAD
1010
0.0
1020
0.0
1030
0.0
1001
ACDBBLOCKREPETAG
1070
     1
1071
       22
1005
12A9C0
  0
LINE
  5
12A9C1
  8
SLIM
 10
9945.4999999999982
 20
-986.14461017924543
 30
0.0
 11
10075.0
 21
-856.64461017924418
 31
0.0
1001
ACAD
1010
0.0
1020
0.0
1030
0.0
1001
ACDBBLOCKREPETAG
1070
     1
1071
       23
1005
12A9C1
  0
LINE
  5
12A9C2
  8
SLIM
 10
9945.5
 20
-1004.105122421381
 30
0.0
 11
10074.15680692925
 21
-875.44831549213154
 31
0.0
1001
ACAD
1010
0.0
1020
0.0
1030
0.0
1001
ACDBBLOCKREPETAG
1070
     1
1071
       24
1005
12A9C2
  0
LINE
  5
12A9C3
  8
SLIM
 10
9945.5000000000036
 20
-1022.065634663517
 30
0.0
 11
10070.04294658328
 21
-897.52268808023439
 31
0.0
1001
ACAD
1010
0.0
1020
0.0
1030
0.0
1001
ACDBBLOCKREPETAG
1070
     1
1071
       25
1005
12A9C3
  0
LINE
  5
12A9C4
  8
SLIM
 10
9960.5261469056604
 20
-1024.9999999999991
 30
0.0
 11
10065.92908623732
 21
-919.59706066833724
 31
0.0
1001
ACAD
1010
0.0
1020
0.0
1030
0.0
1001
ACDBBLOCKREPETAG
1070
     1
1071
       26
1005
12A9C4
  0
LINE
  5
12A9C5
  8
SLIM
 10
9978.4866591477985
 20
-1024.9999999999991
 30
0.0
 11
10061.815225891351
 21
-941.67143325643985
 31
0.0
1001
ACAD
1010
0.0
1020
0.0
1030
0.0
1001
ACDBBLOCKREPETAG
1070
     1
1071
       27
1005
12A9C5
  0
LINE
  5
12A9C6
  8
SLIM
 10
9996.4471713899384
 20
-1024.9999999999991
 30
0.0
 11
10057.70136554539
 21
-963.74580584454304
 31
0.0
1001
ACAD
1010
0.0
1020
0.0
1030
0.0
1001
ACDBBLOCKREPETAG
1070
     1
1071
       28
1005
12A9C6
  0
LINE
  5
12A9C7
  8
SLIM
 10
10014.40768363206
 20
-1024.9999999999991
 30
0.0
 11
10054.5
 21
-984.90768363207394
 31
0.0
1001
ACAD
1010
0.0
1020
0.0
1030
0.0
1001
ACDBBLOCKREPETAG
1070
     1
1071
       29
1005
12A9C7
  0
LINE
  5
12A9C8
  8
SLIM
 10
10032.368195874211
 20
-1024.9999999999991
 30
0.0
 11
10054.5
 21
-1002.868195874213
 31
0.0
1001
ACAD
1010
0.0
1020
0.0
1030
0.0
1001
ACDBBLOCKREPETAG
1070
     1
1071
       30
1005
12A9C8
  0
LINE
  5
12A9C9
  8
SLIM
 10
10050.328708116351
 20
-1024.9999999999991
 30
0.0
 11
10054.5
 21
-1020.828708116352
 31
0.0
1001
ACAD
1010
0.0
1020
0.0
1030
0.0
1001
ACDBBLOCKREPETAG
1070
     1
1071
       31
1005
12A9C9
  0
LINE
  5
12A9CA
  8
OBJECT
 10
9925.0
 20
-754.99999999999955
 30
0.0
 11
10075.0
 21
-754.99999999999955
 31
0.0
1001
ACDBBLOCKREPETAG
1070
     1
1071
        2
1005
12A9CA
  0
LINE
  5
12A9CB
  8
OBJECT
 10
10075.0
 20
-754.99999999999955
 30
0.0
 11
10075.0
 21
-870.9238648686005
 31
0.0
1001
ACDBBLOCKREPETAG
1070
     1
1071
        3
1005
12A9CB
  0
LINE
  5
12A9CC
  8
OBJECT
 10
10075.0
 20
-870.9238648686005
 30
0.0
 11
10054.5
 21
-980.92386486860221
 31
0.0
1001
ACDBBLOCKREPETAG
1070
     1
1071
        4
1005
12A9CC
  0
LINE
  5
12A9CD
  8
OBJECT
 10
10054.5
 20
-980.92386486860221
 30
0.0
 11
10054.5
 21
-1024.9999999999991
 31
0.0
1001
ACDBBLOCKREPETAG
1070
     1
1071
        5
1005
12A9CD
  0
LINE
  5
12A9CE
  8
OBJECT
 10
10054.5
 20
-1024.9999999999991
 30
0.0
 11
9945.5000000000036
 21
-1024.9999999999991
 31
0.0
1001
ACDBBLOCKREPETAG
1070
     1
1071
        6
1005
12A9CE
  0
LINE
  5
12A9CF
  8
OBJECT
 10
9945.5000000000036
 20
-1024.9999999999991
 30
0.0
 11
9945.4999999999982
 21
-980.92386486861199
 31
0.0
1001
ACDBBLOCKREPETAG
1070
     1
1071
        7
1005
12A9CF
  0
LINE
  5
12A9D0
  8
OBJECT
 10
9945.4999999999982
 20
-980.92386486861199
 30
0.0
 11
9925.0
 21
-870.9238648686005
 31
0.0
1001
ACDBBLOCKREPETAG
1070
     1
1071
        8
1005
12A9D0
  0
LINE
  5
12A9D1
  8
OBJECT
 10
9925.0
 20
-870.9238648686005
 30
0.0
 11
9925.0
 21
-754.99999999999955
 31
0.0
1001
ACDBBLOCKREPETAG
1070
     1
1071
        9
1005
12A9D1
  0
LINE
  5
12A9D2
  8
SLIM
 10
7925.0
 20
-755.19743878930785
 30
0.0
 11
7925.1974387893079
 21
-754.99999999999955
 31
0.0
1001
ACAD
1010
0.0
1020
0.0
1030
0.0
1001
ACDBBLOCKREPETAG
1070
     1
1071
        1
1005
0
  0
LINE
  5
12A9D3
  8
SLIM
 10
7925.0
 20
-773.15795103144615
 30
0.0
 11
7943.1579510314459
 21
-754.99999999999955
 31
0.0
1001
ACAD
1010
0.0
1020
0.0
1030
0.0
1001
ACDBBLOCKREPETAG
1070
     1
1071
       11
1005
12A9D3
  0
LINE
  5
12A9D4
  8
SLIM
 10
7925.0
 20
-791.11846327358455
 30
0.0
 11
7961.1184632735867
 21
-754.99999999999955
 31
0.0
1001
ACAD
1010
0.0
1020
0.0
1030
0.0
1001
ACDBBLOCKREPETAG
1070
     1
1071
       12
1005
12A9D4
  0
LINE
  5
12A9D5
  8
SLIM
 10
7925.0
 20
-809.07897551572285
 30
0.0
 11
7979.078975515723
 21
-754.99999999999955
 31
0.0
1001
ACAD
1010
0.0
1020
0.0
1030
0.0
1001
ACDBBLOCKREPETAG
1070
     1
1071
       13
1005
12A9D5
  0
LINE
  5
12A9D6
  8
SLIM
 10
7925.0
 20
-827.03948775786125
 30
0.0
 11
7997.0394877578628
 21
-754.99999999999955
 31
0.0
1001
ACAD
1010
0.0
1020
0.0
1030
0.0
1001
ACDBBLOCKREPETAG
1070
     1
1071
       14
1005
12A9D6
  0
LINE
  5
12A9D7
  8
SLIM
 10
7925.0
 20
-844.99999999999955
 30
0.0
 11
8015.0
 21
-754.99999999999955
 31
0.0
1001
ACAD
1010
0.0
1020
0.0
1030
0.0
1001
ACDBBLOCKREPETAG
1070
     1
1071
       15
1005
12A9D7
  0
LINE
  5
12A9D8
  8
SLIM
 10
7925.0
 20
-862.96051224213795
 30
0.0
 11
8032.960512242139
 21
-754.99999999999955
 31
0.0
1001
ACAD
1010
0.0
1020
0.0
1030
0.0
1001
ACDBBLOCKREPETAG
1070
     1
1071
       16
1005
12A9D8
  0
LINE
  5
12A9D9
  8
SLIM
 10
7926.5704350354117
 20
-879.3505894488635
 30
0.0
 11
8050.9210244842798
 21
-754.99999999999955
 31
0.0
1001
ACAD
1010
0.0
1020
0.0
1030
0.0
1001
ACDBBLOCKREPETAG
1070
     1
1071
       17
1005
12A9D9
  0
LINE
  5
12A9DA
  8
SLIM
 10
7929.3918181845593
 20
-894.48971854185379
 30
0.0
 11
8068.8815367264133
 21
-754.99999999999955
 31
0.0
1001
ACAD
1010
0.0
1020
0.0
1030
0.0
1001
ACDBBLOCKREPETAG
1070
     1
1071
       18
1005
12A9DA
  0
LINE
  5
12A9DB
  8
SLIM
 10
7932.2132013337077
 20
-909.62884763484408
 30
0.0
 11
8075.0
 21
-766.84204896855272
 31
0.0
1001
ACAD
1010
0.0
1020
0.0
1030
0.0
1001
ACDBBLOCKREPETAG
1070
     1
1071
       19
1005
12A9DB
  0
LINE
  5
12A9DC
  8
SLIM
 10
7935.0345844828562
 20
-924.76797672783425
 30
0.0
 11
8075.0
 21
-784.80256121069112
 31
0.0
1001
ACAD
1010
0.0
1020
0.0
1030
0.0
1001
ACDBBLOCKREPETAG
1070
     1
1071
       20
1005
12A9DC
  0
LINE
  5
12A9DD
  8
SLIM
 10
7937.8559676320019
 20
-939.90710582082465
 30
0.0
 11
8075.0
 21
-802.76307345282942
 31
0.0
1001
ACAD
1010
0.0
1020
0.0
1030
0.0
1001
ACDBBLOCKREPETAG
1070
     1
1071
       21
1005
12A9DD
  0
LINE
  5
12A9DE
  8
SLIM
 10
7940.677350781154
 20
-955.04623491381471
 30
0.0
 11
8075.0
 21
-820.7235856949676
 31
0.0
1001
ACAD
1010
0.0
1020
0.0
1030
0.0
1001
ACDBBLOCKREPETAG
1070
     1
1071
       22
1005
12A9DE
  0
LINE
  5
12A9DF
  8
SLIM
 10
7943.4987339303016
 20
-970.18536400680489
 30
0.0
 11
8075.0
 21
-838.684097937106
 31
0.0
1001
ACAD
1010
0.0
1020
0.0
1030
0.0
1001
ACDBBLOCKREPETAG
1070
     1
1071
       23
1005
12A9DF
  0
LINE
  5
12A9E0
  8
SLIM
 10
7946.6446101792453
 20
-984.99999999999955
 30
0.0
 11
8075.0
 21
-856.64461017924418
 31
0.0
1001
ACAD
1010
0.0
1020
0.0
1030
0.0
1001
ACDBBLOCKREPETAG
1070
     1
1071
       24
1005
12A9E0
  0
LINE
  5
12A9E1
  8
SLIM
 10
7955.5
 20
-994.10512242138236
 30
0.0
 11
7964.6051224213816
 21
-984.99999999999955
 31
0.0
1001
ACAD
1010
0.0
1020
0.0
1030
0.0
1001
ACDBBLOCKREPETAG
1070
     1
1071
       25
1005
12A9E1
  0
LINE
  5
12A9E2
  8
SLIM
 10
7964.6051224213816
 20
-984.99999999999955
 30
0.0
 11
8074.1568069292498
 21
-875.44831549213154
 31
0.0
1001
ACAD
1010
0.0
1020
0.0
1030
0.0
1001
ACDBBLOCKREPETAG
1070
     1
1071
       26
1005
12A9E2
  0
LINE
  5
12A9E3
  8
SLIM
 10
7962.5656346635215
 20
-1004.999999999999
 30
0.0
 11
7982.5656346635215
 21
-984.99999999999955
 31
0.0
1001
ACAD
1010
0.0
1020
0.0
1030
0.0
1001
ACDBBLOCKREPETAG
1070
     1
1071
       27
1005
12A9E3
  0
LINE
  5
12A9E4
  8
SLIM
 10
7982.5656346635215
 20
-984.99999999999955
 30
0.0
 11
8070.0429465832849
 21
-897.52268808023405
 31
0.0
1001
ACAD
1010
0.0
1020
0.0
1030
0.0
1001
ACDBBLOCKREPETAG
1070
     1
1071
       28
1005
12A9E4
  0
LINE
  5
12A9E5
  8
SLIM
 10
7980.5261469056604
 20
-1004.999999999999
 30
0.0
 11
8000.5261469056577
 21
-984.99999999999955
 31
0.0
1001
ACAD
1010
0.0
1020
0.0
1030
0.0
1001
ACDBBLOCKREPETAG
1070
     1
1071
       29
1005
12A9E5
  0
LINE
  5
12A9E6
  8
SLIM
 10
8000.5261469056577
 20
-984.99999999999955
 30
0.0
 11
8065.9290862373227
 21
-919.59706066833724
 31
0.0
1001
ACAD
1010
0.0
1020
0.0
1030
0.0
1001
ACDBBLOCKREPETAG
1070
     1
1071
       30
1005
12A9E6
  0
LINE
  5
12A9E7
  8
SLIM
 10
7998.4866591477967
 20
-1004.999999999999
 30
0.0
 11
8018.4866591477967
 21
-984.99999999999955
 31
0.0
1001
ACAD
1010
0.0
1020
0.0
1030
0.0
1001
ACDBBLOCKREPETAG
1070
     1
1071
       31
1005
12A9E7
  0
LINE
  5
12A9E8
  8
SLIM
 10
8018.4866591477967
 20
-984.99999999999955
 30
0.0
 11
8061.8152258913578
 21
-941.67143325643985
 31
0.0
1001
ACAD
1010
0.0
1020
0.0
1030
0.0
1001
ACDBBLOCKREPETAG
1070
     1
1071
       32
1005
12A9E8
  0
LINE
  5
12A9E9
  8
SLIM
 10
8016.4471713899384
 20
-1004.999999999999
 30
0.0
 11
8036.4471713899338
 21
-984.99999999999955
 31
0.0
1001
ACAD
1010
0.0
1020
0.0
1030
0.0
1001
ACDBBLOCKREPETAG
1070
     1
1071
       33
1005
12A9E9
  0
LINE
  5
12A9EA
  8
SLIM
 10
8036.4471713899338
 20
-984.99999999999955
 30
0.0
 11
8057.701365545392
 21
-963.74580584454225
 31
0.0
1001
ACAD
1010
0.0
1020
0.0
1030
0.0
1001
ACDBBLOCKREPETAG
1070
     1
1071
       34
1005
12A9EA
  0
LINE
  5
12A9EB
  8
SLIM
 10
8034.4076836320728
 20
-1004.999999999999
 30
0.0
 11
8044.5000000000036
 21
-994.90768363207383
 31
0.0
1001
ACAD
1010
0.0
1020
0.0
1030
0.0
1001
ACDBBLOCKREPETAG
1070
     1
1071
       35
1005
12A9EB
  0
LINE
  5
12A9EC
  8
OBJECT
 10
7925.0
 20
-754.99999999999955
 30
0.0
 11
8075.0
 21
-754.99999999999955
 31
0.0
1001
ACDBBLOCKREPETAG
1070
     1
1071
        2
1005
12A9EC
  0
LINE
  5
12A9ED
  8
OBJECT
 10
8075.0
 20
-754.99999999999955
 30
0.0
 11
8075.0
 21
-870.9238648686005
 31
0.0
1001
ACDBBLOCKREPETAG
1070
     1
1071
        3
1005
12A9ED
  0
LINE
  5
12A9EE
  8
OBJECT
 10
8075.0
 20
-870.9238648686005
 30
0.0
 11
8053.7403566346029
 21
-984.99999999999955
 31
0.0
1001
ACDBBLOCKREPETAG
1070
     1
1071
        4
1005
12A9EE
  0
LINE
  5
12A9EF
  8
OBJECT
 10
8044.5000000000036
 20
-984.99999999999955
 30
0.0
 11
8044.5000000000036
 21
-1004.999999999999
 31
0.0
1001
ACDBBLOCKREPETAG
1070
     1
1071
        5
1005
12A9EF
  0
LINE
  5
12A9F0
  8
OBJECT
 10
8044.5000000000036
 20
-1004.999999999999
 30
0.0
 11
7955.5
 21
-1004.999999999999
 31
0.0
1001
ACDBBLOCKREPETAG
1070
     1
1071
        6
1005
12A9F0
  0
LINE
  5
12A9F1
  8
OBJECT
 10
7955.5
 20
-1004.999999999999
 30
0.0
 11
7955.5
 21
-984.99999999999955
 31
0.0
1001
ACDBBLOCKREPETAG
1070
     1
1071
        7
1005
12A9F1
  0
LINE
  5
12A9F2
  8
OBJECT
 10
8053.7403566346029
 20
-984.99999999999955
 30
0.0
 11
7946.2596433653962
 21
-984.99999999999955
 31
0.0
1001
ACDBBLOCKREPETAG
1070
     1
1071
        8
1005
12A9F2
  0
LINE
  5
12A9F3
  8
OBJECT
 10
7946.2596433653962
 20
-984.99999999999955
 30
0.0
 11
7925.0
 21
-870.9238648686005
 31
0.0
1001
ACDBBLOCKREPETAG
1070
     1
1071
        9
1005
12A9F3
  0
LINE
  5
12A9F4
  8
OBJECT
 10
7925.0
 20
-870.9238648686005
 30
0.0
 11
7925.0
 21
-754.99999999999955
 31
0.0
1001
ACDBBLOCKREPETAG
1070
     1
1071
       10
1005
12A9F4
  0
LINE
  5
12A9F5
  8
OBJECT
 10
12055.999999999991
 20
-1103.9999999999991
 30
0.0
 11
12055.999999999991
 21
-1113.9999999999991
 31
0.0
1001
ACDBBLOCKREPETAG
1070
     1
1071
      121
1005
12A9F5
  0
LINE
  5
12A9F6
  8
OBJECT
 10
11961.75
 20
-1054.699999999996
 30
0.0
 11
11974.25
 21
-1054.699999999996
 31
0.0
1001
ACDBBLOCKREPETAG
1070
     1
1071
      122
1005
12A9F6
  0
LINE
  5
12A9F7
  8
OBJECT
 10
12073.499999999991
 20
-1062.7
 30
0.0
 11
12073.499999999991
 21
-1064.9999999999991
 31
0.0
1001
ACDBBLOCKREPETAG
1070
     1
1071
      123
1005
12A9F7
  0
LINE
  5
12A9F8
  8
OBJECT
 10
12057.749999999991
 20
-1054.699999999996
 30
0.0
 11
12070.249999999991
 21
-1054.699999999996
 31
0.0
1001
ACDBBLOCKREPETAG
1070
     1
1071
      124
1005
12A9F8
  0
LINE
  5
12A9F9
  8
OBJECT
 10
12054.499999999991
 20
-1062.7
 30
0.0
 11
12054.499999999991
 21
-1064.9999999999991
 31
0.0
1001
ACDBBLOCKREPETAG
1070
     1
1071
      125
1005
12A9F9
  0
LINE
  5
12A9FA
  8
OBJECT
 10
11953.0
 20
-1064.9999999999991
 30
0.0
 11
11953.0
 21
-1062.7
 31
0.0
1001
ACDBBLOCKREPETAG
1070
     1
1071
      126
1005
12A9FA
  0
LINE
  5
12A9FB
  8
OBJECT
 10
11983.0
 20
-1064.9999999999991
 30
0.0
 11
11983.0
 21
-1062.7
 31
0.0
1001
ACDBBLOCKREPETAG
1070
     1
1071
      127
1005
12A9FB
  0
LINE
  5
12A9FC
  8
OBJECT
 10
11961.75
 20
-1054.699999999996
 30
0.0
 11
11961.75
 21
-1062.7
 31
0.0
1001
ACDBBLOCKREPETAG
1070
     1
1071
      128
1005
12A9FC
  0
LINE
  5
12A9FD
  8
OBJECT
 10
11974.25
 20
-1054.699999999996
 30
0.0
 11
11974.25
 21
-1062.7
 31
0.0
1001
ACDBBLOCKREPETAG
1070
     1
1071
      129
1005
12A9FD
  0
LINE
  5
12A9FE
  8
OBJECT
 10
11953.0
 20
-1062.7
 30
0.0
 11
11983.0
 21
-1062.7
 31
0.0
1001
ACDBBLOCKREPETAG
1070
     1
1071
      130
1005
12A9FE
  0
LINE
  5
12A9FF
  8
OBJECT
 10
11960.0
 20
-1103.9999999999991
 30
0.0
 11
11960.0
 21
-1113.9999999999991
 31
0.0
1001
ACDBBLOCKREPETAG
1070
     1
1071
      131
1005
12A9FF
  0
LINE
  5
12AA00
  8
OBJECT
 10
11976.0
 20
-1103.9999999999991
 30
0.0
 11
11976.0
 21
-1113.9999999999991
 31
0.0
1001
ACDBBLOCKREPETAG
1070
     1
1071
      132
1005
12AA00
  0
LINE
  5
12AA01
  8
OBJECT
 10
11960.0
 20
-1113.9999999999991
 30
0.0
 11
11976.0
 21
-1113.9999999999991
 31
0.0
1001
ACDBBLOCKREPETAG
1070
     1
1071
      133
1005
12AA01
  0
LINE
  5
12AA02
  8
OBJECT
 10
12071.999999999991
 20
-1103.9999999999991
 30
0.0
 11
12071.999999999991
 21
-1113.9999999999991
 31
0.0
1001
ACDBBLOCKREPETAG
1070
     1
1071
      134
1005
12AA02
  0
LINE
  5
12AA03
  8
OBJECT
 10
12071.999999999991
 20
-1113.9999999999991
 30
0.0
 11
12055.999999999991
 21
-1113.9999999999991
 31
0.0
1001
ACDBBLOCKREPETAG
1070
     1
1071
      135
1005
12AA03
  0
LINE
  5
12AA04
  8
OBJECT
 10
11944.999999999991
 20
-1144.9999999999991
 30
0.0
 11
11944.999999999991
 21
-1103.9999999999991
 31
0.0
1001
ACDBBLOCKREPETAG
1070
     1
1071
      136
1005
12AA04
  0
LINE
  5
12AA05
  8
OBJECT
 10
12054.999999999991
 20
-1103.9999999999991
 30
0.0
 11
12054.999999999991
 21
-1144.9999999999991
 31
0.0
1001
ACDBBLOCKREPETAG
1070
     1
1071
      137
1005
12AA05
  0
LINE
  5
12AA06
  8
OBJECT
 10
12070.249999999991
 20
-1054.699999999996
 30
0.0
 11
12070.249999999991
 21
-1062.7
 31
0.0
1001
ACDBBLOCKREPETAG
1070
     1
1071
      138
1005
12AA06
  0
LINE
  5
12AA07
  8
OBJECT
 10
12057.749999999991
 20
-1054.699999999996
 30
0.0
 11
12057.749999999991
 21
-1062.7
 31
0.0
1001
ACDBBLOCKREPETAG
1070
     1
1071
      139
1005
12AA07
  0
LINE
  5
12AA08
  8
OBJECT
 10
12054.499999999991
 20
-1062.7
 30
0.0
 11
12073.499999999991
 21
-1062.7
 31
0.0
1001
ACDBBLOCKREPETAG
1070
     1
1071
      140
1005
12AA08
  0
LINE
  5
12AA09
  8
OBJECT
 10
12054.999999999991
 20
-1144.9999999999991
 30
0.0
 11
11944.999999999991
 21
-1144.9999999999991
 31
0.0
1001
ACDBBLOCKREPETAG
1070
     1
1071
      141
1005
12AA09
  0
LINE
  5
12AA0A
  8
OBJECT
 10
12075.999999999991
 20
-1079.9999999999991
 30
0.0
 11
11938.999999999991
 21
-1079.9999999999991
 31
0.0
1001
ACDBBLOCKREPETAG
1070
     1
1071
      142
1005
12AA0A
  0
LINE
  5
12AA0B
  8
OBJECT
 10
12075.999999999991
 20
-1079.9999999999991
 30
0.0
 11
12075.999999999991
 21
-1064.9999999999991
 31
0.0
1001
ACDBBLOCKREPETAG
1070
     1
1071
      143
1005
12AA0B
  0
LINE
  5
12AA0C
  8
OBJECT
 10
12075.999999999991
 20
-1089.9999999999991
 30
0.0
 11
12075.999999999991
 21
-1103.9999999999991
 31
0.0
1001
ACDBBLOCKREPETAG
1070
     1
1071
      144
1005
12AA0C
  0
LINE
  5
12AA0D
  8
OBJECT
 10
12068.999999999991
 20
-1089.9999999999991
 30
0.0
 11
12068.999999999991
 21
-1079.9999999999991
 31
0.0
1001
ACDBBLOCKREPETAG
1070
     1
1071
      145
1005
12AA0D
  0
LINE
  5
12AA0E
  8
OBJECT
 10
12058.999999999991
 20
-1089.9999999999991
 30
0.0
 11
12058.999999999991
 21
-1079.9999999999991
 31
0.0
1001
ACDBBLOCKREPETAG
1070
     1
1071
      146
1005
12AA0E
  0
LINE
  5
12AA0F
  8
OBJECT
 10
11938.999999999991
 20
-1089.9999999999991
 30
0.0
 11
11938.999999999991
 21
-1103.9999999999991
 31
0.0
1001
ACDBBLOCKREPETAG
1070
     1
1071
      147
1005
12AA0F
  0
LINE
  5
12AA10
  8
OBJECT
 10
11938.999999999991
 20
-1103.9999999999991
 30
0.0
 11
12075.999999999991
 21
-1103.9999999999991
 31
0.0
1001
ACDBBLOCKREPETAG
1070
     1
1071
      148
1005
12AA10
  0
LINE
  5
12AA11
  8
OBJECT
 10
11973.0
 20
-1089.9999999999991
 30
0.0
 11
11973.0
 21
-1079.9999999999991
 31
0.0
1001
ACDBBLOCKREPETAG
1070
     1
1071
      149
1005
12AA11
  0
LINE
  5
12AA12
  8
OBJECT
 10
11963.0
 20
-1089.9999999999991
 30
0.0
 11
11963.0
 21
-1079.9999999999991
 31
0.0
1001
ACDBBLOCKREPETAG
1070
     1
1071
      150
1005
12AA12
  0
LINE
  5
12AA13
  8
OBJECT
 10
11938.999999999991
 20
-1089.9999999999991
 30
0.0
 11
12075.999999999991
 21
-1089.9999999999991
 31
0.0
1001
ACDBBLOCKREPETAG
1070
     1
1071
      151
1005
12AA13
  0
LINE
  5
12AA14
  8
OBJECT
 10
11945.999999999991
 20
-1079.9999999999991
 30
0.0
 11
11945.999999999991
 21
-1089.9999999999991
 31
0.0
1001
ACDBBLOCKREPETAG
1070
     1
1071
      152
1005
12AA14
  0
LINE
  5
12AA15
  8
OBJECT
 10
12053.999999999991
 20
-1079.9999999999991
 30
0.0
 11
12053.999999999991
 21
-1089.9999999999991
 31
0.0
1001
ACDBBLOCKREPETAG
1070
     1
1071
      153
1005
12AA15
  0
LINE
  5
12AA16
  8
OBJECT
 10
12044.5
 20
-979.99999999999966
 30
0.0
 11
12065.0
 21
-869.99999999999955
 31
0.0
1001
ACDBBLOCKREPETAG
1070
     1
1071
      154
1005
12AA16
  0
LINE
  5
12AA17
  8
OBJECT
 10
11955.5
 20
-979.99999999999966
 30
0.0
 11
12044.5
 21
-979.99999999999966
 31
0.0
1001
ACDBBLOCKREPETAG
1070
     1
1071
      155
1005
12AA17
  0
LINE
  5
12AA18
  8
OBJECT
 10
11938.999999999991
 20
-1079.9999999999991
 30
0.0
 11
11938.999999999991
 21
-1064.9999999999991
 31
0.0
1001
ACDBBLOCKREPETAG
1070
     1
1071
      156
1005
12AA18
  0
LINE
  5
12AA19
  8
OBJECT
 10
11938.999999999991
 20
-1064.9999999999991
 30
0.0
 11
12075.999999999991
 21
-1064.9999999999991
 31
0.0
1001
ACDBBLOCKREPETAG
1070
     1
1071
      157
1005
12AA19
  0
LINE
  5
12AA1A
  8
OBJECT
 10
11955.5
 20
-979.99999999999966
 30
0.0
 11
11955.5
 21
-1029.9999999999991
 31
0.0
1001
ACDBBLOCKREPETAG
1070
     1
1071
      158
1005
12AA1A
  0
LINE
  5
12AA1B
  8
OBJECT
 10
12044.5
 20
-979.99999999999966
 30
0.0
 11
12044.5
 21
-1029.9999999999991
 31
0.0
1001
ACDBBLOCKREPETAG
1070
     1
1071
      159
1005
12AA1B
  0
LINE
  5
12AA1C
  8
OBJECT
 10
11947.0
 20
-1029.9999999999991
 30
0.0
 11
12053.0
 21
-1029.9999999999991
 31
0.0
1001
ACDBBLOCKREPETAG
1070
     1
1071
      160
1005
12AA1C
  0
LINE
  5
12AA1D
  8
HIDDEN
 10
11955.5
 20
-1039.9999999999991
 30
0.0
 11
12044.5
 21
-1039.9999999999991
 31
0.0
1001
ACDBBLOCKREPETAG
1070
     1
1071
      161
1005
12AA1D
  0
LINE
  5
12AA1E
  8
CENTER
 10
12000.0
 20
-769.99999999999955
 30
0.0
 11
12000.0
 21
-1159.9999999999991
 31
0.0
1001
ACDBBLOCKREPETAG
1070
     1
1071
      162
1005
12AA1E
  0
LINE
  5
12AA1F
  8
OBJECT
 10
12065.0
 20
-769.99999999999955
 30
0.0
 11
12065.0
 21
-869.99999999999955
 31
0.0
1001
ACDBBLOCKREPETAG
1070
     1
1071
      163
1005
12AA1F
  0
LINE
  5
12AA20
  8
OBJECT
 10
11935.0
 20
-769.99999999999955
 30
0.0
 11
11935.0
 21
-869.99999999999955
 31
0.0
1001
ACDBBLOCKREPETAG
1070
     1
1071
      164
1005
12AA20
  0
LINE
  5
12AA21
  8
OBJECT
 10
11955.5
 20
-979.99999999999966
 30
0.0
 11
11935.0
 21
-869.99999999999955
 31
0.0
1001
ACDBBLOCKREPETAG
1070
     1
1071
      165
1005
12AA21
  0
LINE
  5
12AA22
  8
OBJECT
 10
12065.0
 20
-869.99999999999955
 30
0.0
 11
11935.0
 21
-869.99999999999955
 31
0.0
1001
ACDBBLOCKREPETAG
1070
     1
1071
      166
1005
12AA22
  0
LINE
  5
12AA23
  8
OBJECT
 10
11947.0
 20
-1029.9999999999991
 30
0.0
 11
11947.0
 21
-1064.9999999999991
 31
0.0
1001
ACDBBLOCKREPETAG
1070
     1
1071
      167
1005
12AA23
  0
LINE
  5
12AA24
  8
OBJECT
 10
12053.0
 20
-1029.9999999999991
 30
0.0
 11
12053.0
 21
-1064.9999999999991
 31
0.0
1001
ACDBBLOCKREPETAG
1070
     1
1071
      168
1005
12AA24
  0
LINE
  5
12AA25
  8
OBJECT
 10
9975.5
 20
-1059.9999999999991
 30
0.0
 11
9958.9999999999964
 21
-1059.9999999999991
 31
0.0
1001
ACDBBLOCKREPETAG
1070
     1
1071
       12
1005
12AA25
  0
LINE
  5
12AA26
  8
OBJECT
 10
9983.0
 20
-1064.9999999999991
 30
0.0
 11
9983.0
 21
-1062.9999999999991
 31
0.0
1001
ACDBBLOCKREPETAG
1070
     1
1071
       13
1005
12AA26
  0
LINE
  5
12AA27
  8
OBJECT
 10
10075.999999999991
 20
-1079.9999999999991
 30
0.0
 11
9938.9999999999927
 21
-1079.9999999999991
 31
0.0
1001
ACDBBLOCKREPETAG
1070
     1
1071
       14
1005
12AA27
  0
LINE
  5
12AA28
  8
OBJECT
 10
10075.999999999991
 20
-1079.9999999999991
 30
0.0
 11
10075.999999999991
 21
-1064.9999999999991
 31
0.0
1001
ACDBBLOCKREPETAG
1070
     1
1071
       15
1005
12AA28
  0
LINE
  5
12AA29
  8
OBJECT
 10
10075.999999999991
 20
-1089.9999999999991
 30
0.0
 11
10075.999999999991
 21
-1103.9999999999991
 31
0.0
1001
ACDBBLOCKREPETAG
1070
     1
1071
       16
1005
12AA29
  0
LINE
  5
12AA2A
  8
OBJECT
 10
10068.999999999991
 20
-1089.9999999999991
 30
0.0
 11
10068.999999999991
 21
-1079.9999999999991
 31
0.0
1001
ACDBBLOCKREPETAG
1070
     1
1071
       17
1005
12AA2A
  0
LINE
  5
12AA2B
  8
OBJECT
 10
10058.999999999991
 20
-1089.9999999999991
 30
0.0
 11
10058.999999999991
 21
-1079.9999999999991
 31
0.0
1001
ACDBBLOCKREPETAG
1070
     1
1071
       18
1005
12AA2B
  0
LINE
  5
12AA2C
  8
OBJECT
 10
9938.9999999999927
 20
-1089.9999999999991
 30
0.0
 11
9938.9999999999927
 21
-1103.9999999999991
 31
0.0
1001
ACDBBLOCKREPETAG
1070
     1
1071
       19
1005
12AA2C
  0
LINE
  5
12AA2D
  8
OBJECT
 10
9938.9999999999927
 20
-1103.9999999999991
 30
0.0
 11
10075.999999999991
 21
-1103.9999999999991
 31
0.0
1001
ACDBBLOCKREPETAG
1070
     1
1071
       20
1005
12AA2D
  0
LINE
  5
12AA2E
  8
OBJECT
 10
9973.0
 20
-1089.9999999999991
 30
0.0
 11
9973.0
 21
-1079.9999999999991
 31
0.0
1001
ACDBBLOCKREPETAG
1070
     1
1071
       21
1005
12AA2E
  0
LINE
  5
12AA2F
  8
OBJECT
 10
9963.0
 20
-1089.9999999999991
 30
0.0
 11
9963.0
 21
-1079.9999999999991
 31
0.0
1001
ACDBBLOCKREPETAG
1070
     1
1071
       22
1005
12AA2F
  0
LINE
  5
12AA30
  8
OBJECT
 10
9938.9999999999927
 20
-1089.9999999999991
 30
0.0
 11
10075.999999999991
 21
-1089.9999999999991
 31
0.0
1001
ACDBBLOCKREPETAG
1070
     1
1071
       23
1005
12AA30
  0
LINE
  5
12AA31
  8
OBJECT
 10
9958.9999999999964
 20
-1059.9999999999991
 30
0.0
 11
9958.9999999999964
 21
-1064.9999999999991
 31
0.0
1001
ACDBBLOCKREPETAG
1070
     1
1071
       24
1005
12AA31
  0
LINE
  5
12AA32
  8
OBJECT
 10
9963.0
 20
-1111.9999999999991
 30
0.0
 11
9963.0
 21
-1114.9999999999991
 31
0.0
1001
ACDBBLOCKREPETAG
1070
     1
1071
       25
1005
12AA32
  0
LINE
  5
12AA33
  8
OBJECT
 10
9963.0
 20
-1114.9999999999991
 30
0.0
 11
9973.0
 21
-1114.9999999999991
 31
0.0
1001
ACDBBLOCKREPETAG
1070
     1
1071
       26
1005
12AA33
  0
LINE
  5
12AA34
  8
OBJECT
 10
9973.0
 20
-1114.9999999999991
 30
0.0
 11
9973.0
 21
-1111.9999999999991
 31
0.0
1001
ACDBBLOCKREPETAG
1070
     1
1071
       28
1005
12AA34
  0
LINE
  5
12AA35
  8
OBJECT
 10
9945.9999999999909
 20
-1079.9999999999991
 30
0.0
 11
9945.9999999999909
 21
-1089.9999999999991
 31
0.0
1001
ACDBBLOCKREPETAG
1070
     1
1071
       29
1005
12AA35
  0
LINE
  5
12AA36
  8
OBJECT
 10
10053.999999999991
 20
-1079.9999999999991
 30
0.0
 11
10053.999999999991
 21
-1089.9999999999991
 31
0.0
1001
ACDBBLOCKREPETAG
1070
     1
1071
       30
1005
12AA36
  0
LINE
  5
12AA37
  8
OBJECT
 10
10044.5
 20
-979.99999999999966
 30
0.0
 11
10065.0
 21
-869.99999999999955
 31
0.0
1001
ACDBBLOCKREPETAG
1070
     1
1071
       31
1005
12AA37
  0
LINE
  5
12AA38
  8
OBJECT
 10
9955.5
 20
-979.99999999999966
 30
0.0
 11
10044.5
 21
-979.99999999999966
 31
0.0
1001
ACDBBLOCKREPETAG
1070
     1
1071
       32
1005
12AA38
  0
LINE
  5
12AA39
  8
OBJECT
 10
9938.9999999999927
 20
-1079.9999999999991
 30
0.0
 11
9938.9999999999927
 21
-1064.9999999999991
 31
0.0
1001
ACDBBLOCKREPETAG
1070
     1
1071
       33
1005
12AA39
  0
LINE
  5
12AA3A
  8
OBJECT
 10
9938.9999999999927
 20
-1064.9999999999991
 30
0.0
 11
10075.999999999991
 21
-1064.9999999999991
 31
0.0
1001
ACDBBLOCKREPETAG
1070
     1
1071
       34
1005
12AA3A
  0
LINE
  5
12AA3B
  8
OBJECT
 10
9955.5
 20
-979.99999999999966
 30
0.0
 11
9955.5
 21
-1029.9999999999991
 31
0.0
1001
ACDBBLOCKREPETAG
1070
     1
1071
       35
1005
12AA3B
  0
LINE
  5
12AA3C
  8
OBJECT
 10
10044.5
 20
-979.99999999999966
 30
0.0
 11
10044.5
 21
-1029.9999999999991
 31
0.0
1001
ACDBBLOCKREPETAG
1070
     1
1071
       36
1005
12AA3C
  0
LINE
  5
12AA3D
  8
OBJECT
 10
9947.0
 20
-1029.9999999999991
 30
0.0
 11
10053.0
 21
-1029.9999999999991
 31
0.0
1001
ACDBBLOCKREPETAG
1070
     1
1071
       37
1005
12AA3D
  0
LINE
  5
12AA3E
  8
OBJECT
 10
10054.99999999998
 20
-1059.9999999999991
 30
0.0
 11
10054.99999999998
 21
-1064.9999999999991
 31
0.0
1001
ACDBBLOCKREPETAG
1070
     1
1071
       38
1005
12AA3E
  0
LINE
  5
12AA3F
  8
OBJECT
 10
10073.0
 20
-1059.9999999999991
 30
0.0
 11
10073.0
 21
-1064.9999999999991
 31
0.0
1001
ACDBBLOCKREPETAG
1070
     1
1071
       39
1005
12AA3F
  0
LINE
  5
12AA40
  8
OBJECT
 10
10073.0
 20
-1059.9999999999991
 30
0.0
 11
10054.99999999998
 21
-1059.9999999999991
 31
0.0
1001
ACDBBLOCKREPETAG
1070
     1
1071
       40
1005
12AA40
  0
LINE
  5
12AA41
  8
HIDDEN
 10
9955.5
 20
-1039.9999999999991
 30
0.0
 11
10044.5
 21
-1039.9999999999991
 31
0.0
1001
ACDBBLOCKREPETAG
1070
     1
1071
       41
1005
12AA41
  0
LINE
  5
12AA42
  8
CENTER
 10
10000.0
 20
-769.99999999999955
 30
0.0
 11
10000.0
 21
-1118.9999999999991
 31
0.0
1001
ACDBBLOCKREPETAG
1070
     1
1071
       42
1005
12AA42
  0
LINE
  5
12AA43
  8
OBJECT
 10
10065.0
 20
-769.99999999999955
 30
0.0
 11
10065.0
 21
-869.99999999999955
 31
0.0
1001
ACDBBLOCKREPETAG
1070
     1
1071
       43
1005
12AA43
  0
LINE
  5
12AA44
  8
OBJECT
 10
9935.0
 20
-769.99999999999955
 30
0.0
 11
9935.0
 21
-869.99999999999955
 31
0.0
1001
ACDBBLOCKREPETAG
1070
     1
1071
       44
1005
12AA44
  0
LINE
  5
12AA45
  8
OBJECT
 10
9955.5
 20
-979.99999999999966
 30
0.0
 11
9935.0
 21
-869.99999999999955
 31
0.0
1001
ACDBBLOCKREPETAG
1070
     1
1071
       45
1005
12AA45
  0
LINE
  5
12AA46
  8
OBJECT
 10
10065.0
 20
-869.99999999999955
 30
0.0
 11
9935.0
 21
-869.99999999999955
 31
0.0
1001
ACDBBLOCKREPETAG
1070
     1
1071
       46
1005
12AA46
  0
LINE
  5
12AA47
  8
OBJECT
 10
9947.0
 20
-1029.9999999999991
 30
0.0
 11
9947.0
 21
-1064.9999999999991
 31
0.0
1001
ACDBBLOCKREPETAG
1070
     1
1071
       47
1005
12AA47
  0
LINE
  5
12AA48
  8
OBJECT
 10
10053.0
 20
-1029.9999999999991
 30
0.0
 11
10053.0
 21
-1064.9999999999991
 31
0.0
1001
ACDBBLOCKREPETAG
1070
     1
1071
       48
1005
12AA48
  0
LINE
  5
12AA49
  8
OBJECT
 10
9983.0
 20
-1062.9999999999991
 30
0.0
 11
9975.5
 21
-1059.9999999999991
 31
0.0
1001
ACDBBLOCKREPETAG
1070
     1
1071
       49
1005
12AA49
  0
LINE
  5
12AA4A
  8
OBJECT
 10
10059.0
 20
-1111.9999999999991
 30
0.0
 11
10059.0
 21
-1114.9999999999991
 31
0.0
1001
ACDBBLOCKREPETAG
1070
     1
1071
       54
1005
12AA4A
  0
LINE
  5
12AA4B
  8
OBJECT
 10
10059.0
 20
-1114.9999999999991
 30
0.0
 11
10069.0
 21
-1114.9999999999991
 31
0.0
1001
ACDBBLOCKREPETAG
1070
     1
1071
       55
1005
12AA4B
  0
LINE
  5
12AA4C
  8
OBJECT
 10
10069.0
 20
-1114.9999999999991
 30
0.0
 11
10069.0
 21
-1111.9999999999991
 31
0.0
1001
ACDBBLOCKREPETAG
1070
     1
1071
       57
1005
12AA4C
  0
LINE
  5
12AA4D
  8
OBJECT
 10
9958.1850454237738
 20
-1111.9999999999991
 30
0.0
 11
9977.814954576219
 21
-1111.9999999999991
 31
0.0
1001
ACDBBLOCKREPETAG
1070
     1
1071
      422
1005
12AA4D
  0
LINE
  5
12AA4E
  8
OBJECT
 10
9958.1850454237756
 20
-1103.9999999999991
 30
0.0
 11
9958.1850454237756
 21
-1111.9999999999991
 31
0.0
1001
ACDBBLOCKREPETAG
1070
     1
1071
      423
1005
12AA4E
  0
LINE
  5
12AA4F
  8
OBJECT
 10
9963.0925227118896
 20
-1103.9999999999991
 30
0.0
 11
9963.0925227118896
 21
-1111.9999999999991
 31
0.0
1001
ACDBBLOCKREPETAG
1070
     1
1071
      424
1005
12AA4F
  0
LINE
  5
12AA50
  8
OBJECT
 10
9972.9074772881122
 20
-1103.9999999999991
 30
0.0
 11
9972.9074772881122
 21
-1111.9999999999991
 31
0.0
1001
ACDBBLOCKREPETAG
1070
     1
1071
      425
1005
12AA50
  0
LINE
  5
12AA51
  8
OBJECT
 10
9977.8149545762244
 20
-1103.9999999999991
 30
0.0
 11
9977.8149545762244
 21
-1111.9999999999991
 31
0.0
1001
ACDBBLOCKREPETAG
1070
     1
1071
      426
1005
12AA51
  0
LINE
  5
12AA52
  8
OBJECT
 10
10054.18504542377
 20
-1111.9999999999991
 30
0.0
 11
10073.814954576221
 21
-1111.9999999999991
 31
0.0
1001
ACDBBLOCKREPETAG
1070
     1
1071
      427
1005
12AA52
  0
LINE
  5
12AA53
  8
OBJECT
 10
10054.18504542377
 20
-1103.9999999999991
 30
0.0
 11
10054.18504542377
 21
-1111.9999999999991
 31
0.0
1001
ACDBBLOCKREPETAG
1070
     1
1071
      428
1005
12AA53
  0
LINE
  5
12AA54
  8
OBJECT
 10
10059.092522711881
 20
-1103.9999999999991
 30
0.0
 11
10059.092522711881
 21
-1111.9999999999991
 31
0.0
1001
ACDBBLOCKREPETAG
1070
     1
1071
      429
1005
12AA54
  0
LINE
  5
12AA55
  8
OBJECT
 10
10068.90747728811
 20
-1103.9999999999991
 30
0.0
 11
10068.90747728811
 21
-1111.9999999999991
 31
0.0
1001
ACDBBLOCKREPETAG
1070
     1
1071
      430
1005
12AA55
  0
LINE
  5
12AA56
  8
OBJECT
 10
10073.814954576221
 20
-1103.9999999999991
 30
0.0
 11
10073.814954576221
 21
-1111.9999999999991
 31
0.0
1001
ACDBBLOCKREPETAG
1070
     1
1071
      431
1005
12AA56
  0
LINE
  5
12AA57
  8
OBJECT
 10
8044.5000000000036
 20
-1079.999999999992
 30
0.0
 11
7955.5
 21
-1079.999999999992
 31
0.0
1001
ACDBBLOCKREPETAG
1070
     1
1071
        0
1005
12AA57
  0
LINE
  5
12AA58
  8
OBJECT
 10
7935.0
 20
-869.99999999999216
 30
0.0
 11
7935.0
 21
-769.99999999999204
 31
0.0
1001
ACDBBLOCKREPETAG
1070
     1
1071
        1
1005
12AA58
  0
LINE
  5
12AA59
  8
OBJECT
 10
8065.0
 20
-869.99999999999216
 30
0.0
 11
8065.0
 21
-769.99999999999204
 31
0.0
1001
ACDBBLOCKREPETAG
1070
     1
1071
        2
1005
12AA59
  0
LINE
  5
12AA5A
  8
OBJECT
 10
7935.0
 20
-869.99999999999216
 30
0.0
 11
8065.0
 21
-869.99999999999216
 31
0.0
1001
ACDBBLOCKREPETAG
1070
     1
1071
        3
1005
12AA5A
  0
LINE
  5
12AA5B
  8
OBJECT
 10
7955.5
 20
-979.99999999999204
 30
0.0
 11
8044.5000000000036
 21
-979.99999999999204
 31
0.0
1001
ACDBBLOCKREPETAG
1070
     1
1071
        4
1005
12AA5B
  0
LINE
  5
12AA5C
  8
OBJECT
 10
7955.5
 20
-979.99999999999204
 30
0.0
 11
7955.5
 21
-1079.999999999992
 31
0.0
1001
ACDBBLOCKREPETAG
1070
     1
1071
        5
1005
12AA5C
  0
LINE
  5
12AA5D
  8
OBJECT
 10
8044.5000000000036
 20
-979.99999999999204
 30
0.0
 11
8044.5000000000036
 21
-1079.999999999992
 31
0.0
1001
ACDBBLOCKREPETAG
1070
     1
1071
        6
1005
12AA5D
  0
LINE
  5
12AA5E
  8
OBJECT
 10
7935.0
 20
-869.99999999999216
 30
0.0
 11
7955.5
 21
-979.99999999999204
 31
0.0
1001
ACDBBLOCKREPETAG
1070
     1
1071
        7
1005
12AA5E
  0
LINE
  5
12AA5F
  8
OBJECT
 10
8044.5000000000036
 20
-979.99999999999204
 30
0.0
 11
8065.0
 21
-869.99999999999216
 31
0.0
1001
ACDBBLOCKREPETAG
1070
     1
1071
        8
1005
12AA5F
  0
LINE
  5
12AA60
  8
HIDDEN
 10
7962.5
 20
-979.99999999999204
 30
0.0
 11
7962.5
 21
-1079.999999999992
 31
0.0
1001
ACDBBLOCKREPETAG
1070
     1
1071
        9
1005
12AA60
  0
LINE
  5
12AA61
  8
HIDDEN
 10
8037.4999999999973
 20
-979.99999999999204
 30
0.0
 11
8037.4999999999973
 21
-1079.999999999992
 31
0.0
1001
ACDBBLOCKREPETAG
1070
     1
1071
       10
1005
12AA61
  0
LINE
  5
12AA62
  8
CENTER
 10
8000.0
 20
-769.99999999999955
 30
0.0
 11
8000.0
 21
-1094.999999999992
 31
0.0
1001
ACDBBLOCKREPETAG
1070
     1
1071
       11
1005
12AA62
  0
LINE
  5
12AA63
  8
OBJECT
 10
6055.9999999999927
 20
-1103.9999999999991
 30
0.0
 11
6055.9999999999927
 21
-1113.9999999999991
 31
0.0
1001
ACDBBLOCKREPETAG
1070
     1
1071
      121
1005
12AA63
  0
LINE
  5
12AA64
  8
OBJECT
 10
5961.75
 20
-1054.699999999996
 30
0.0
 11
5974.25
 21
-1054.699999999996
 31
0.0
1001
ACDBBLOCKREPETAG
1070
     1
1071
      122
1005
12AA64
  0
LINE
  5
12AA65
  8
OBJECT
 10
6073.4999999999927
 20
-1062.7
 30
0.0
 11
6073.4999999999927
 21
-1064.9999999999991
 31
0.0
1001
ACDBBLOCKREPETAG
1070
     1
1071
      123
1005
12AA65
  0
LINE
  5
12AA66
  8
OBJECT
 10
6057.7499999999927
 20
-1054.699999999996
 30
0.0
 11
6070.2499999999927
 21
-1054.699999999996
 31
0.0
1001
ACDBBLOCKREPETAG
1070
     1
1071
      124
1005
12AA66
  0
LINE
  5
12AA67
  8
OBJECT
 10
6054.4999999999927
 20
-1062.7
 30
0.0
 11
6054.4999999999927
 21
-1064.9999999999991
 31
0.0
1001
ACDBBLOCKREPETAG
1070
     1
1071
      125
1005
12AA67
  0
LINE
  5
12AA68
  8
OBJECT
 10
5953.0
 20
-1064.9999999999991
 30
0.0
 11
5953.0
 21
-1062.7
 31
0.0
1001
ACDBBLOCKREPETAG
1070
     1
1071
      126
1005
12AA68
  0
LINE
  5
12AA69
  8
OBJECT
 10
5983.0
 20
-1064.9999999999991
 30
0.0
 11
5983.0
 21
-1062.7
 31
0.0
1001
ACDBBLOCKREPETAG
1070
     1
1071
      127
1005
12AA69
  0
LINE
  5
12AA6A
  8
OBJECT
 10
5961.75
 20
-1054.699999999996
 30
0.0
 11
5961.75
 21
-1062.7
 31
0.0
1001
ACDBBLOCKREPETAG
1070
     1
1071
      128
1005
12AA6A
  0
LINE
  5
12AA6B
  8
OBJECT
 10
5974.25
 20
-1054.699999999996
 30
0.0
 11
5974.25
 21
-1062.7
 31
0.0
1001
ACDBBLOCKREPETAG
1070
     1
1071
      129
1005
12AA6B
  0
LINE
  5
12AA6C
  8
OBJECT
 10
5953.0
 20
-1062.7
 30
0.0
 11
5983.0
 21
-1062.7
 31
0.0
1001
ACDBBLOCKREPETAG
1070
     1
1071
      130
1005
12AA6C
  0
LINE
  5
12AA6D
  8
OBJECT
 10
5960.0
 20
-1103.9999999999991
 30
0.0
 11
5960.0
 21
-1113.9999999999991
 31
0.0
1001
ACDBBLOCKREPETAG
1070
     1
1071
      131
1005
12AA6D
  0
LINE
  5
12AA6E
  8
OBJECT
 10
5976.0
 20
-1103.9999999999991
 30
0.0
 11
5976.0
 21
-1113.9999999999991
 31
0.0
1001
ACDBBLOCKREPETAG
1070
     1
1071
      132
1005
12AA6E
  0
LINE
  5
12AA6F
  8
OBJECT
 10
5960.0
 20
-1113.9999999999991
 30
0.0
 11
5976.0
 21
-1113.9999999999991
 31
0.0
1001
ACDBBLOCKREPETAG
1070
     1
1071
      133
1005
12AA6F
  0
LINE
  5
12AA70
  8
OBJECT
 10
6071.9999999999918
 20
-1103.9999999999991
 30
0.0
 11
6071.9999999999918
 21
-1113.9999999999991
 31
0.0
1001
ACDBBLOCKREPETAG
1070
     1
1071
      134
1005
12AA70
  0
LINE
  5
12AA71
  8
OBJECT
 10
6071.9999999999918
 20
-1113.9999999999991
 30
0.0
 11
6055.9999999999927
 21
-1113.9999999999991
 31
0.0
1001
ACDBBLOCKREPETAG
1070
     1
1071
      135
1005
12AA71
  0
LINE
  5
12AA72
  8
OBJECT
 10
5944.9999999999927
 20
-1144.9999999999991
 30
0.0
 11
5944.9999999999927
 21
-1103.9999999999991
 31
0.0
1001
ACDBBLOCKREPETAG
1070
     1
1071
      136
1005
12AA72
  0
LINE
  5
12AA73
  8
OBJECT
 10
6054.9999999999918
 20
-1103.9999999999991
 30
0.0
 11
6054.9999999999918
 21
-1144.9999999999991
 31
0.0
1001
ACDBBLOCKREPETAG
1070
     1
1071
      137
1005
12AA73
  0
LINE
  5
12AA74
  8
OBJECT
 10
6070.2499999999927
 20
-1054.699999999996
 30
0.0
 11
6070.2499999999927
 21
-1062.7
 31
0.0
1001
ACDBBLOCKREPETAG
1070
     1
1071
      138
1005
12AA74
  0
LINE
  5
12AA75
  8
OBJECT
 10
6057.7499999999927
 20
-1054.699999999996
 30
0.0
 11
6057.7499999999927
 21
-1062.7
 31
0.0
1001
ACDBBLOCKREPETAG
1070
     1
1071
      139
1005
12AA75
  0
LINE
  5
12AA76
  8
OBJECT
 10
6054.4999999999927
 20
-1062.7
 30
0.0
 11
6073.4999999999927
 21
-1062.7
 31
0.0
1001
ACDBBLOCKREPETAG
1070
     1
1071
      140
1005
12AA76
  0
LINE
  5
12AA77
  8
OBJECT
 10
6054.9999999999918
 20
-1144.9999999999991
 30
0.0
 11
5944.9999999999927
 21
-1144.9999999999991
 31
0.0
1001
ACDBBLOCKREPETAG
1070
     1
1071
      141
1005
12AA77
  0
LINE
  5
12AA78
  8
OBJECT
 10
6075.9999999999927
 20
-1079.9999999999991
 30
0.0
 11
5938.9999999999918
 21
-1079.9999999999991
 31
0.0
1001
ACDBBLOCKREPETAG
1070
     1
1071
      142
1005
12AA78
  0
LINE
  5
12AA79
  8
OBJECT
 10
6075.9999999999927
 20
-1079.9999999999991
 30
0.0
 11
6075.9999999999927
 21
-1064.9999999999991
 31
0.0
1001
ACDBBLOCKREPETAG
1070
     1
1071
      143
1005
12AA79
  0
LINE
  5
12AA7A
  8
OBJECT
 10
6075.9999999999927
 20
-1089.9999999999991
 30
0.0
 11
6075.9999999999927
 21
-1103.9999999999991
 31
0.0
1001
ACDBBLOCKREPETAG
1070
     1
1071
      144
1005
12AA7A
  0
LINE
  5
12AA7B
  8
OBJECT
 10
6068.9999999999909
 20
-1089.9999999999991
 30
0.0
 11
6068.9999999999909
 21
-1079.9999999999991
 31
0.0
1001
ACDBBLOCKREPETAG
1070
     1
1071
      145
1005
12AA7B
  0
LINE
  5
12AA7C
  8
OBJECT
 10
6058.9999999999927
 20
-1089.9999999999991
 30
0.0
 11
6058.9999999999927
 21
-1079.9999999999991
 31
0.0
1001
ACDBBLOCKREPETAG
1070
     1
1071
      146
1005
12AA7C
  0
LINE
  5
12AA7D
  8
OBJECT
 10
5938.9999999999918
 20
-1089.9999999999991
 30
0.0
 11
5938.9999999999918
 21
-1103.9999999999991
 31
0.0
1001
ACDBBLOCKREPETAG
1070
     1
1071
      147
1005
12AA7D
  0
LINE
  5
12AA7E
  8
OBJECT
 10
5938.9999999999918
 20
-1103.9999999999991
 30
0.0
 11
6075.9999999999927
 21
-1103.9999999999991
 31
0.0
1001
ACDBBLOCKREPETAG
1070
     1
1071
      148
1005
12AA7E
  0
LINE
  5
12AA7F
  8
OBJECT
 10
5973.0
 20
-1089.9999999999991
 30
0.0
 11
5973.0
 21
-1079.9999999999991
 31
0.0
1001
ACDBBLOCKREPETAG
1070
     1
1071
      149
1005
12AA7F
  0
LINE
  5
12AA80
  8
OBJECT
 10
5963.0
 20
-1089.9999999999991
 30
0.0
 11
5963.0
 21
-1079.9999999999991
 31
0.0
1001
ACDBBLOCKREPETAG
1070
     1
1071
      150
1005
12AA80
  0
LINE
  5
12AA81
  8
OBJECT
 10
5938.9999999999918
 20
-1089.9999999999991
 30
0.0
 11
6075.9999999999927
 21
-1089.9999999999991
 31
0.0
1001
ACDBBLOCKREPETAG
1070
     1
1071
      151
1005
12AA81
  0
LINE
  5
12AA82
  8
OBJECT
 10
5945.9999999999927
 20
-1079.9999999999991
 30
0.0
 11
5945.9999999999927
 21
-1089.9999999999991
 31
0.0
1001
ACDBBLOCKREPETAG
1070
     1
1071
      152
1005
12AA82
  0
LINE
  5
12AA83
  8
OBJECT
 10
6053.9999999999927
 20
-1079.9999999999991
 30
0.0
 11
6053.9999999999927
 21
-1089.9999999999991
 31
0.0
1001
ACDBBLOCKREPETAG
1070
     1
1071
      153
1005
12AA83
  0
LINE
  5
12AA84
  8
OBJECT
 10
6044.5
 20
-979.99999999999966
 30
0.0
 11
6065.0
 21
-869.99999999999955
 31
0.0
1001
ACDBBLOCKREPETAG
1070
     1
1071
      154
1005
12AA84
  0
LINE
  5
12AA85
  8
OBJECT
 10
5955.5
 20
-979.99999999999966
 30
0.0
 11
6044.5
 21
-979.99999999999966
 31
0.0
1001
ACDBBLOCKREPETAG
1070
     1
1071
      155
1005
12AA85
  0
LINE
  5
12AA86
  8
OBJECT
 10
5938.9999999999918
 20
-1079.9999999999991
 30
0.0
 11
5938.9999999999918
 21
-1064.9999999999991
 31
0.0
1001
ACDBBLOCKREPETAG
1070
     1
1071
      156
1005
12AA86
  0
LINE
  5
12AA87
  8
OBJECT
 10
5938.9999999999918
 20
-1064.9999999999991
 30
0.0
 11
6075.9999999999927
 21
-1064.9999999999991
 31
0.0
1001
ACDBBLOCKREPETAG
1070
     1
1071
      157
1005
12AA87
  0
LINE
  5
12AA88
  8
OBJECT
 10
5955.5
 20
-979.99999999999966
 30
0.0
 11
5955.5
 21
-1029.9999999999991
 31
0.0
1001
ACDBBLOCKREPETAG
1070
     1
1071
      158
1005
12AA88
  0
LINE
  5
12AA89
  8
OBJECT
 10
6044.5
 20
-979.99999999999966
 30
0.0
 11
6044.5
 21
-1029.9999999999991
 31
0.0
1001
ACDBBLOCKREPETAG
1070
     1
1071
      159
1005
12AA89
  0
LINE
  5
12AA8A
  8
OBJECT
 10
5947.0
 20
-1029.9999999999991
 30
0.0
 11
6053.0
 21
-1029.9999999999991
 31
0.0
1001
ACDBBLOCKREPETAG
1070
     1
1071
      160
1005
12AA8A
  0
LINE
  5
12AA8B
  8
HIDDEN
 10
5955.5
 20
-1039.9999999999991
 30
0.0
 11
6044.5
 21
-1039.9999999999991
 31
0.0
1001
ACDBBLOCKREPETAG
1070
     1
1071
      161
1005
12AA8B
  0
LINE
  5
12AA8C
  8
CENTER
 10
6000.0
 20
-769.99999999999955
 30
0.0
 11
6000.0
 21
-1159.9999999999991
 31
0.0
1001
ACDBBLOCKREPETAG
1070
     1
1071
      162
1005
12AA8C
  0
LINE
  5
12AA8D
  8
OBJECT
 10
6065.0
 20
-769.99999999999955
 30
0.0
 11
6065.0
 21
-869.99999999999955
 31
0.0
1001
ACDBBLOCKREPETAG
1070
     1
1071
      163
1005
12AA8D
  0
LINE
  5
12AA8E
  8
OBJECT
 10
5935.0
 20
-769.99999999999955
 30
0.0
 11
5935.0
 21
-869.99999999999955
 31
0.0
1001
ACDBBLOCKREPETAG
1070
     1
1071
      164
1005
12AA8E
  0
LINE
  5
12AA8F
  8
OBJECT
 10
5955.5
 20
-979.99999999999966
 30
0.0
 11
5935.0
 21
-869.99999999999955
 31
0.0
1001
ACDBBLOCKREPETAG
1070
     1
1071
      165
1005
12AA8F
  0
LINE
  5
12AA90
  8
OBJECT
 10
6065.0
 20
-869.99999999999955
 30
0.0
 11
5935.0
 21
-869.99999999999955
 31
0.0
1001
ACDBBLOCKREPETAG
1070
     1
1071
      166
1005
12AA90
  0
LINE
  5
12AA91
  8
OBJECT
 10
5947.0
 20
-1029.9999999999991
 30
0.0
 11
5947.0
 21
-1064.9999999999991
 31
0.0
1001
ACDBBLOCKREPETAG
1070
     1
1071
      167
1005
12AA91
  0
LINE
  5
12AA92
  8
OBJECT
 10
6053.0
 20
-1029.9999999999991
 30
0.0
 11
6053.0
 21
-1064.9999999999991
 31
0.0
1001
ACDBBLOCKREPETAG
1070
     1
1071
      168
1005
12AA92
  0
LINE
  5
12AA93
  8
OBJECT
 10
3975.5
 20
-1059.9999999999991
 30
0.0
 11
3958.9999999999918
 21
-1059.9999999999991
 31
0.0
1001
ACDBBLOCKREPETAG
1070
     1
1071
       12
1005
12AA93
  0
LINE
  5
12AA94
  8
OBJECT
 10
3983.0
 20
-1064.9999999999991
 30
0.0
 11
3983.0
 21
-1062.9999999999991
 31
0.0
1001
ACDBBLOCKREPETAG
1070
     1
1071
       13
1005
12AA94
  0
LINE
  5
12AA95
  8
OBJECT
 10
4075.9999999999918
 20
-1079.9999999999991
 30
0.0
 11
3938.9999999999932
 21
-1079.9999999999991
 31
0.0
1001
ACDBBLOCKREPETAG
1070
     1
1071
       14
1005
12AA95
  0
LINE
  5
12AA96
  8
OBJECT
 10
4075.9999999999918
 20
-1079.9999999999991
 30
0.0
 11
4075.9999999999918
 21
-1064.9999999999991
 31
0.0
1001
ACDBBLOCKREPETAG
1070
     1
1071
       15
1005
12AA96
  0
LINE
  5
12AA97
  8
OBJECT
 10
4075.9999999999918
 20
-1089.9999999999991
 30
0.0
 11
4075.9999999999918
 21
-1103.9999999999991
 31
0.0
1001
ACDBBLOCKREPETAG
1070
     1
1071
       16
1005
12AA97
  0
LINE
  5
12AA98
  8
OBJECT
 10
4068.9999999999918
 20
-1089.9999999999991
 30
0.0
 11
4068.9999999999918
 21
-1079.9999999999991
 31
0.0
1001
ACDBBLOCKREPETAG
1070
     1
1071
       17
1005
12AA98
  0
LINE
  5
12AA99
  8
OBJECT
 10
4058.9999999999932
 20
-1089.9999999999991
 30
0.0
 11
4058.9999999999932
 21
-1079.9999999999991
 31
0.0
1001
ACDBBLOCKREPETAG
1070
     1
1071
       18
1005
12AA99
  0
LINE
  5
12AA9A
  8
OBJECT
 10
3938.9999999999932
 20
-1089.9999999999991
 30
0.0
 11
3938.9999999999932
 21
-1103.9999999999991
 31
0.0
1001
ACDBBLOCKREPETAG
1070
     1
1071
       19
1005
12AA9A
  0
LINE
  5
12AA9B
  8
OBJECT
 10
3938.9999999999932
 20
-1103.9999999999991
 30
0.0
 11
4075.9999999999918
 21
-1103.9999999999991
 31
0.0
1001
ACDBBLOCKREPETAG
1070
     1
1071
       20
1005
12AA9B
  0
LINE
  5
12AA9C
  8
OBJECT
 10
3973.0
 20
-1089.9999999999991
 30
0.0
 11
3973.0
 21
-1079.9999999999991
 31
0.0
1001
ACDBBLOCKREPETAG
1070
     1
1071
       21
1005
12AA9C
  0
LINE
  5
12AA9D
  8
OBJECT
 10
3963.0
 20
-1089.9999999999991
 30
0.0
 11
3963.0
 21
-1079.9999999999991
 31
0.0
1001
ACDBBLOCKREPETAG
1070
     1
1071
       22
1005
12AA9D
  0
LINE
  5
12AA9E
  8
OBJECT
 10
3938.9999999999932
 20
-1089.9999999999991
 30
0.0
 11
4075.9999999999918
 21
-1089.9999999999991
 31
0.0
1001
ACDBBLOCKREPETAG
1070
     1
1071
       23
1005
12AA9E
  0
LINE
  5
12AA9F
  8
OBJECT
 10
3958.9999999999918
 20
-1059.9999999999991
 30
0.0
 11
3958.9999999999918
 21
-1064.9999999999991
 31
0.0
1001
ACDBBLOCKREPETAG
1070
     1
1071
       24
1005
12AA9F
  0
LINE
  5
12AAA0
  8
OBJECT
 10
3963.0
 20
-1111.9999999999991
 30
0.0
 11
3963.0
 21
-1114.9999999999991
 31
0.0
1001
ACDBBLOCKREPETAG
1070
     1
1071
       25
1005
12AAA0
  0
LINE
  5
12AAA1
  8
OBJECT
 10
3963.0
 20
-1114.9999999999991
 30
0.0
 11
3973.0
 21
-1114.9999999999991
 31
0.0
1001
ACDBBLOCKREPETAG
1070
     1
1071
       26
1005
12AAA1
  0
LINE
  5
12AAA2
  8
OBJECT
 10
3973.0
 20
-1114.9999999999991
 30
0.0
 11
3973.0
 21
-1111.9999999999991
 31
0.0
1001
ACDBBLOCKREPETAG
1070
     1
1071
       28
1005
12AAA2
  0
LINE
  5
12AAA3
  8
OBJECT
 10
3945.9999999999932
 20
-1079.9999999999991
 30
0.0
 11
3945.9999999999932
 21
-1089.9999999999991
 31
0.0
1001
ACDBBLOCKREPETAG
1070
     1
1071
       29
1005
12AAA3
  0
LINE
  5
12AAA4
  8
OBJECT
 10
4053.9999999999941
 20
-1079.9999999999991
 30
0.0
 11
4053.9999999999941
 21
-1089.9999999999991
 31
0.0
1001
ACDBBLOCKREPETAG
1070
     1
1071
       30
1005
12AAA4
  0
LINE
  5
12AAA5
  8
OBJECT
 10
4044.5
 20
-979.99999999999966
 30
0.0
 11
4065.0
 21
-869.99999999999955
 31
0.0
1001
ACDBBLOCKREPETAG
1070
     1
1071
       31
1005
12AAA5
  0
LINE
  5
12AAA6
  8
OBJECT
 10
3955.5
 20
-979.99999999999966
 30
0.0
 11
4044.5
 21
-979.99999999999966
 31
0.0
1001
ACDBBLOCKREPETAG
1070
     1
1071
       32
1005
12AAA6
  0
LINE
  5
12AAA7
  8
OBJECT
 10
3938.9999999999932
 20
-1079.9999999999991
 30
0.0
 11
3938.9999999999932
 21
-1064.9999999999991
 31
0.0
1001
ACDBBLOCKREPETAG
1070
     1
1071
       33
1005
12AAA7
  0
LINE
  5
12AAA8
  8
OBJECT
 10
3938.9999999999932
 20
-1064.9999999999991
 30
0.0
 11
4075.9999999999918
 21
-1064.9999999999991
 31
0.0
1001
ACDBBLOCKREPETAG
1070
     1
1071
       34
1005
12AAA8
  0
LINE
  5
12AAA9
  8
OBJECT
 10
3955.5
 20
-979.99999999999966
 30
0.0
 11
3955.5
 21
-1029.9999999999991
 31
0.0
1001
ACDBBLOCKREPETAG
1070
     1
1071
       35
1005
12AAA9
  0
LINE
  5
12AAAA
  8
OBJECT
 10
4044.5
 20
-979.99999999999966
 30
0.0
 11
4044.5
 21
-1029.9999999999991
 31
0.0
1001
ACDBBLOCKREPETAG
1070
     1
1071
       36
1005
12AAAA
  0
LINE
  5
12AAAB
  8
OBJECT
 10
3947.0
 20
-1029.9999999999991
 30
0.0
 11
4053.0
 21
-1029.9999999999991
 31
0.0
1001
ACDBBLOCKREPETAG
1070
     1
1071
       37
1005
12AAAB
  0
LINE
  5
12AAAC
  8
OBJECT
 10
4054.9999999999841
 20
-1059.9999999999991
 30
0.0
 11
4054.9999999999841
 21
-1064.9999999999991
 31
0.0
1001
ACDBBLOCKREPETAG
1070
     1
1071
       38
1005
12AAAC
  0
LINE
  5
12AAAD
  8
OBJECT
 10
4073.0
 20
-1059.9999999999991
 30
0.0
 11
4073.0
 21
-1064.9999999999991
 31
0.0
1001
ACDBBLOCKREPETAG
1070
     1
1071
       39
1005
12AAAD
  0
LINE
  5
12AAAE
  8
OBJECT
 10
4073.0
 20
-1059.9999999999991
 30
0.0
 11
4054.9999999999841
 21
-1059.9999999999991
 31
0.0
1001
ACDBBLOCKREPETAG
1070
     1
1071
       40
1005
12AAAE
  0
LINE
  5
12AAAF
  8
HIDDEN
 10
3955.5
 20
-1039.9999999999991
 30
0.0
 11
4044.5
 21
-1039.9999999999991
 31
0.0
1001
ACDBBLOCKREPETAG
1070
     1
1071
       41
1005
12AAAF
  0
LINE
  5
12AAB0
  8
CENTER
 10
4000.0
 20
-769.99999999999955
 30
0.0
 11
4000.0
 21
-1118.9999999999991
 31
0.0
1001
ACDBBLOCKREPETAG
1070
     1
1071
       42
1005
12AAB0
  0
LINE
  5
12AAB1
  8
OBJECT
 10
4065.0
 20
-769.99999999999955
 30
0.0
 11
4065.0
 21
-869.99999999999955
 31
0.0
1001
ACDBBLOCKREPETAG
1070
     1
1071
       43
1005
12AAB1
  0
LINE
  5
12AAB2
  8
OBJECT
 10
3935.0
 20
-769.99999999999955
 30
0.0
 11
3935.0
 21
-869.99999999999955
 31
0.0
1001
ACDBBLOCKREPETAG
1070
     1
1071
       44
1005
12AAB2
  0
LINE
  5
12AAB3
  8
OBJECT
 10
3955.5
 20
-979.99999999999966
 30
0.0
 11
3935.0
 21
-869.99999999999955
 31
0.0
1001
ACDBBLOCKREPETAG
1070
     1
1071
       45
1005
12AAB3
  0
LINE
  5
12AAB4
  8
OBJECT
 10
4065.0
 20
-869.99999999999955
 30
0.0
 11
3935.0
 21
-869.99999999999955
 31
0.0
1001
ACDBBLOCKREPETAG
1070
     1
1071
       46
1005
12AAB4
  0
LINE
  5
12AAB5
  8
OBJECT
 10
3947.0
 20
-1029.9999999999991
 30
0.0
 11
3947.0
 21
-1064.9999999999991
 31
0.0
1001
ACDBBLOCKREPETAG
1070
     1
1071
       47
1005
12AAB5
  0
LINE
  5
12AAB6
  8
OBJECT
 10
4053.0
 20
-1029.9999999999991
 30
0.0
 11
4053.0
 21
-1064.9999999999991
 31
0.0
1001
ACDBBLOCKREPETAG
1070
     1
1071
       48
1005
12AAB6
  0
LINE
  5
12AAB7
  8
OBJECT
 10
3983.0
 20
-1062.9999999999991
 30
0.0
 11
3975.5
 21
-1059.9999999999991
 31
0.0
1001
ACDBBLOCKREPETAG
1070
     1
1071
       49
1005
12AAB7
  0
LINE
  5
12AAB8
  8
OBJECT
 10
4059.0
 20
-1111.9999999999991
 30
0.0
 11
4059.0
 21
-1114.9999999999991
 31
0.0
1001
ACDBBLOCKREPETAG
1070
     1
1071
       54
1005
12AAB8
  0
LINE
  5
12AAB9
  8
OBJECT
 10
4059.0
 20
-1114.9999999999991
 30
0.0
 11
4069.0
 21
-1114.9999999999991
 31
0.0
1001
ACDBBLOCKREPETAG
1070
     1
1071
       55
1005
12AAB9
  0
LINE
  5
12AABA
  8
OBJECT
 10
4069.0
 20
-1114.9999999999991
 30
0.0
 11
4069.0
 21
-1111.9999999999991
 31
0.0
1001
ACDBBLOCKREPETAG
1070
     1
1071
       57
1005
12AABA
  0
LINE
  5
12AABB
  8
OBJECT
 10
3958.185045423772
 20
-1111.9999999999991
 30
0.0
 11
3977.8149545762212
 21
-1111.9999999999991
 31
0.0
1001
ACDBBLOCKREPETAG
1070
     1
1071
      422
1005
12AABB
  0
LINE
  5
12AABC
  8
OBJECT
 10
3958.185045423777
 20
-1103.9999999999991
 30
0.0
 11
3958.185045423777
 21
-1111.9999999999991
 31
0.0
1001
ACDBBLOCKREPETAG
1070
     1
1071
      423
1005
12AABC
  0
LINE
  5
12AABD
  8
OBJECT
 10
3963.0925227118892
 20
-1103.9999999999991
 30
0.0
 11
3963.0925227118892
 21
-1111.9999999999991
 31
0.0
1001
ACDBBLOCKREPETAG
1070
     1
1071
      424
1005
12AABD
  0
LINE
  5
12AABE
  8
OBJECT
 10
3972.9074772881122
 20
-1103.9999999999991
 30
0.0
 11
3972.9074772881122
 21
-1111.9999999999991
 31
0.0
1001
ACDBBLOCKREPETAG
1070
     1
1071
      425
1005
12AABE
  0
LINE
  5
12AABF
  8
OBJECT
 10
3977.814954576223
 20
-1103.9999999999991
 30
0.0
 11
3977.814954576223
 21
-1111.9999999999991
 31
0.0
1001
ACDBBLOCKREPETAG
1070
     1
1071
      426
1005
12AABF
  0
LINE
  5
12AAC0
  8
OBJECT
 10
4054.1850454237701
 20
-1111.9999999999991
 30
0.0
 11
4073.8149545762199
 21
-1111.9999999999991
 31
0.0
1001
ACDBBLOCKREPETAG
1070
     1
1071
      427
1005
12AAC0
  0
LINE
  5
12AAC1
  8
OBJECT
 10
4054.185045423777
 20
-1103.9999999999991
 30
0.0
 11
4054.185045423777
 21
-1111.9999999999991
 31
0.0
1001
ACDBBLOCKREPETAG
1070
     1
1071
      428
1005
12AAC1
  0
LINE
  5
12AAC2
  8
OBJECT
 10
4059.0925227118878
 20
-1103.9999999999991
 30
0.0
 11
4059.0925227118878
 21
-1111.9999999999991
 31
0.0
1001
ACDBBLOCKREPETAG
1070
     1
1071
      429
1005
12AAC2
  0
LINE
  5
12AAC3
  8
OBJECT
 10
4068.9074772881122
 20
-1103.9999999999991
 30
0.0
 11
4068.9074772881122
 21
-1111.9999999999991
 31
0.0
1001
ACDBBLOCKREPETAG
1070
     1
1071
      430
1005
12AAC3
  0
LINE
  5
12AAC4
  8
OBJECT
 10
4073.814954576223
 20
-1103.9999999999991
 30
0.0
 11
4073.814954576223
 21
-1111.9999999999991
 31
0.0
1001
ACDBBLOCKREPETAG
1070
     1
1071
      431
1005
12AAC4
  0
LINE
  5
12AAC5
  8
CENTER
 10
11924.0
 20
-1394.9999999999991
 30
0.0
 11
12091.0
 21
-1394.9999999999991
 31
0.0
1001
ACDBBLOCKREPETAG
1070
     1
1071
       22
1005
12AAC5
  0
LINE
  5
12AAC6
  8
CENTER
 10
12000.0
 20
-1318.0518385105161
 30
0.0
 11
12000.0
 21
-1471.948161489478
 31
0.0
1001
ACDBBLOCKREPETAG
1070
     1
1071
       23
1005
12AAC6
  0
CIRCLE
  5
12AAC7
  8
OBJECT
 10
12000.0
 20
-1394.9999999999991
 30
0.0
 40
37.5
1001
ACDBBLOCKREPETAG
1070
     1
1071
       24
1005
12AAC7
  0
CIRCLE
  5
12AAC8
  8
OBJECT
 10
12000.0
 20
-1394.9999999999991
 30
0.0
 40
47.5
1001
ACDBBLOCKREPETAG
1070
     1
1071
       25
1005
12AAC8
  0
ARC
  5
12AAC9
  8
OBJECT
 10
12000.0
 20
-1394.9999999999991
 30
0.0
 40
61.0
 50
40.03737312998139
 51
79.962626870012684
1001
ACDBBLOCKREPETAG
1070
     1
1071
       26
1005
12AAC9
  0
ARC
  5
12AACA
  8
OBJECT
 10
12000.0
 20
-1394.9999999999991
 30
0.0
 40
61.0
 50
160.03737312997501
 51
199.96262687002491
1001
ACDBBLOCKREPETAG
1070
     1
1071
       27
1005
12AACA
  0
ARC
  5
12AACB
  8
OBJECT
 10
12000.0
 20
-1394.9999999999991
 30
0.0
 40
61.0
 50
280.03737312998732
 51
319.9626268700186
1001
ACDBBLOCKREPETAG
1070
     1
1071
       28
1005
12AACB
  0
ARC
  5
12AACC
  8
OBJECT
 10
12064.0
 20
-1394.9999999999991
 30
0.0
 40
12.0
 50
319.9626268700186
 51
40.03737312998139
1001
ACDBBLOCKREPETAG
1070
     1
1071
       29
1005
12AACC
  0
LINE
  5
12AACD
  8
OBJECT
 10
12046.703125
 20
-1355.7594837542299
 30
0.0
 11
12073.1875
 21
-1387.2805541811599
 31
0.0
1001
ACDBBLOCKREPETAG
1070
     1
1071
       30
1005
12AACD
  0
LINE
  5
12AACE
  8
OBJECT
 10
12046.703125
 20
-1434.240516245768
 30
0.0
 11
12073.1875
 21
-1402.719445818838
 31
0.0
1001
ACDBBLOCKREPETAG
1070
     1
1071
       31
1005
12AACE
  0
CIRCLE
  5
12AACF
  8
OBJECT
 10
12000.0
 20
-1394.9999999999991
 30
0.0
 40
55.0
1001
ACDBBLOCKREPETAG
1070
     1
1071
       32
1005
12AACF
  0
ARC
  5
12AAD0
  8
OBJECT
 10
12064.0
 20
-1394.9999999999991
 30
0.0
 40
12.0
 50
271.2434956101261
 51
88.756504389873882
1001
ACDBBLOCKREPETAG
1070
     1
1071
       33
1005
12AAD0
  0
ARC
  5
12AAD1
  8
OBJECT
 10
12064.5859375
 20
-1368.0063585775049
 30
0.0
 40
15.0
 50
202.68245018366949
 51
268.7565043898739
1001
ACDBBLOCKREPETAG
1070
     1
1071
       34
1005
12AAD1
  0
CIRCLE
  5
12AAD2
  8
SLIM
 10
12064.0
 20
-1394.9999999999991
 30
0.0
 40
8.0
1001
ACDBBLOCKREPETAG
1070
     1
1071
       35
1005
12AAD2
  0
POLYLINE
  5
12AAD3
  8
SLIM
 66
     1
 10
0.0
 20
0.0
 30
0.0
 70
     1
1001
ACDBBLOCKREPETAG
1070
     1
1071
       36
1005
12AAD3
  0
VERTEX
  5
12AD8A
  8
SLIM
 10
12061.69059892324
 20
-1390.9999999999991
 30
0.0
  0
VERTEX
  5
12AD8B
  8
SLIM
 10
12059.38119784648
 20
-1394.9999999999991
 30
0.0
  0
VERTEX
  5
12AD8C
  8
SLIM
 10
12061.69059892324
 20
-1398.9999999999991
 30
0.0
  0
VERTEX
  5
12AD8D
  8
SLIM
 10
12066.30940107676
 20
-1398.9999999999991
 30
0.0
  0
VERTEX
  5
12AD8E
  8
SLIM
 10
12068.618802153511
 20
-1394.9999999999991
 30
0.0
  0
VERTEX
  5
12AD8F
  8
SLIM
 10
12066.30940107676
 20
-1390.9999999999991
 30
0.0
  0
SEQEND
  5
12AD90
  8
SLIM
  0
ARC
  5
12AAD4
  8
OBJECT
 10
12064.5859375
 20
-1421.993641422489
 30
0.0
 40
15.0
 50
91.243495610126089
 51
157.3175498163304
1001
ACDBBLOCKREPETAG
1070
     1
1071
       37
1005
12AAD4
  0
ARC
  5
12AAD5
  8
OBJECT
 10
11968.0
 20
-1339.5743741577919
 30
0.0
 40
12.0
 50
79.962626870012684
 51
160.03737312997501
1001
ACDBBLOCKREPETAG
1070
     1
1071
       38
1005
12AAD5
  0
LINE
  5
12AAD6
  8
OBJECT
 10
11942.665153573549
 20
-1374.1741654367599
 30
0.0
 11
11956.721013817751
 21
-1335.477488669944
 31
0.0
1001
ACDBBLOCKREPETAG
1070
     1
1071
       39
1005
12AAD6
  0
LINE
  5
12AAD7
  8
OBJECT
 10
12010.631721426451
 20
-1334.9336491909951
 30
0.0
 11
11970.091486182249
 21
-1327.7580428511051
 31
0.0
1001
ACDBBLOCKREPETAG
1070
     1
1071
       40
1005
12AAD7
  0
ARC
  5
12AAD8
  8
OBJECT
 10
11968.0
 20
-1339.5743741577919
 30
0.0
 40
12.0
 50
31.243495610056922
 51
208.7565043898139
1001
ACDBBLOCKREPETAG
1070
     1
1071
       41
1005
12AAD8
  0
ARC
  5
12AAD9
  8
OBJECT
 10
11944.32985203747
 20
-1352.5637581090109
 30
0.0
 40
15.0
 50
322.68245018387239
 51
28.756504389813902
1001
ACDBBLOCKREPETAG
1070
     1
1071
       42
1005
12AAD9
  0
CIRCLE
  5
12AADA
  8
SLIM
 10
11968.0
 20
-1339.5743741577919
 30
0.0
 40
7.9999999999999982
1001
ACDBBLOCKREPETAG
1070
     1
1071
       43
1005
12AADA
  0
POLYLINE
  5
12AADB
  8
SLIM
 66
     1
 10
0.0
 20
0.0
 30
0.0
 70
     1
1001
ACDBBLOCKREPETAG
1070
     1
1071
       44
1005
12AADB
  0
VERTEX
  5
12AD91
  8
SLIM
 10
11965.69059892324
 20
-1343.574374157796
 30
0.0
  0
VERTEX
  5
12AD92
  8
SLIM
 10
11970.30940107676
 20
-1343.574374157793
 30
0.0
  0
VERTEX
  5
12AD93
  8
SLIM
 10
11972.618802153511
 20
-1339.574374157796
 30
0.0
  0
VERTEX
  5
12AD94
  8
SLIM
 10
11970.309401076751
 20
-1335.574374157793
 30
0.0
  0
VERTEX
  5
12AD95
  8
SLIM
 10
11965.69059892324
 20
-1335.574374157796
 30
0.0
  0
VERTEX
  5
12AD96
  8
SLIM
 10
11963.38119784648
 20
-1339.5743741577919
 30
0.0
  0
SEQEND
  5
12AD97
  8
SLIM
  0
ARC
  5
12AADC
  8
OBJECT
 10
11991.084210462521
 20
-1325.5701166865169
 30
0.0
 40
15.0
 50
211.2434956100569
 51
277.31754981622862
1001
ACDBBLOCKREPETAG
1070
     1
1071
       45
1005
12AADC
  0
ARC
  5
12AADD
  8
OBJECT
 10
11968.0
 20
-1450.425625842202
 30
0.0
 40
12.0
 50
199.96262687002491
 51
280.03737312998732
1001
ACDBBLOCKREPETAG
1070
     1
1071
       46
1005
12AADD
  0
LINE
  5
12AADE
  8
OBJECT
 10
12010.631721426451
 20
-1455.0663508090031
 30
0.0
 11
11970.091486182249
 21
-1462.241957148892
 31
0.0
1001
ACDBBLOCKREPETAG
1070
     1
1071
       47
1005
12AADE
  0
LINE
  5
12AADF
  8
OBJECT
 10
11942.665153573549
 20
-1415.8258345632339
 30
0.0
 11
11956.721013817751
 21
-1454.5225113300539
 31
0.0
1001
ACDBBLOCKREPETAG
1070
     1
1071
       48
1005
12AADF
  0
ARC
  5
12AAE0
  8
OBJECT
 10
11968.0
 20
-1450.425625842202
 30
0.0
 40
12.0
 50
151.2434956101861
 51
328.75650438994307
1001
ACDBBLOCKREPETAG
1070
     1
1071
       49
1005
12AAE0
  0
ARC
  5
12AAE1
  8
OBJECT
 10
11991.084210462521
 20
-1464.4298833134769
 30
0.0
 40
15.0
 50
82.682450183771394
 51
148.75650438994299
1001
ACDBBLOCKREPETAG
1070
     1
1071
       50
1005
12AAE1
  0
CIRCLE
  5
12AAE2
  8
SLIM
 10
11968.0
 20
-1450.425625842202
 30
0.0
 40
8.0
1001
ACDBBLOCKREPETAG
1070
     1
1071
       51
1005
12AAE2
  0
POLYLINE
  5
12AAE3
  8
SLIM
 66
     1
 10
0.0
 20
0.0
 30
0.0
 70
     1
1001
ACDBBLOCKREPETAG
1070
     1
1071
       52
1005
12AAE3
  0
VERTEX
  5
12AD98
  8
SLIM
 10
11972.618802153511
 20
-1450.425625842202
 30
0.0
  0
VERTEX
  5
12AD99
  8
SLIM
 10
11970.309401076751
 20
-1446.425625842202
 30
0.0
  0
VERTEX
  5
12AD9A
  8
SLIM
 10
11965.69059892324
 20
-1446.425625842202
 30
0.0
  0
VERTEX
  5
12AD9B
  8
SLIM
 10
11963.38119784648
 20
-1450.425625842202
 30
0.0
  0
VERTEX
  5
12AD9C
  8
SLIM
 10
11965.69059892324
 20
-1454.425625842202
 30
0.0
  0
VERTEX
  5
12AD9D
  8
SLIM
 10
11970.309401076751
 20
-1454.425625842202
 30
0.0
  0
SEQEND
  5
12AD9E
  8
SLIM
  0
ARC
  5
12AAE4
  8
OBJECT
 10
11944.32985203747
 20
-1437.436241890987
 30
0.0
 40
15.0
 50
331.24349561018607
 51
37.317549816127681
1001
ACDBBLOCKREPETAG
1070
     1
1071
       53
1005
12AAE4
  0
LINE
  5
12AAE5
  8
CENTER
 10
9924.0
 20
-1353.9999999999959
 30
0.0
 11
10091.0
 21
-1353.9999999999959
 31
0.0
1001
ACDBBLOCKREPETAG
1070
     1
1071
        0
1005
12AAE5
  0
LINE
  5
12AAE6
  8
CENTER
 10
10000.0
 20
-1277.0518385105131
 30
0.0
 11
10000.0
 21
-1430.9481614894751
 31
0.0
1001
ACDBBLOCKREPETAG
1070
     1
1071
        1
1005
12AAE6
  0
CIRCLE
  5
12AAE7
  8
OBJECT
 10
10000.0
 20
-1353.9999999999959
 30
0.0
 40
37.5
1001
ACDBBLOCKREPETAG
1070
     1
1071
        2
1005
12AAE7
  0
CIRCLE
  5
12AAE8
  8
OBJECT
 10
10000.0
 20
-1353.9999999999959
 30
0.0
 40
49.5
1001
ACDBBLOCKREPETAG
1070
     1
1071
        3
1005
12AAE8
  0
ARC
  5
12AAE9
  8
OBJECT
 10
10000.0
 20
-1353.9999999999959
 30
0.0
 40
61.0
 50
40.03737312998139
 51
79.962626870012684
1001
ACDBBLOCKREPETAG
1070
     1
1071
        4
1005
12AAE9
  0
ARC
  5
12AAEA
  8
OBJECT
 10
10000.0
 20
-1353.9999999999959
 30
0.0
 40
61.0
 50
160.03737312997501
 51
199.96262687002491
1001
ACDBBLOCKREPETAG
1070
     1
1071
        5
1005
12AAEA
  0
ARC
  5
12AAEB
  8
OBJECT
 10
10000.0
 20
-1353.9999999999959
 30
0.0
 40
61.0
 50
280.03737312998732
 51
319.9626268700186
1001
ACDBBLOCKREPETAG
1070
     1
1071
        6
1005
12AAEB
  0
CIRCLE
  5
12AAEC
  8
SLIM
 10
10064.0
 20
-1353.9999999999959
 30
0.0
 40
5.0
1001
ACDBBLOCKREPETAG
1070
     1
1071
        7
1005
12AAEC
  0
ARC
  5
12AAED
  8
OBJECT
 10
10064.0
 20
-1353.9999999999959
 30
0.0
 40
12.0
 50
319.9626268700186
 51
40.03737312998139
1001
ACDBBLOCKREPETAG
1070
     1
1071
        8
1005
12AAED
  0
LINE
  5
12AAEE
  8
OBJECT
 10
10046.703125
 20
-1314.7594837542269
 30
0.0
 11
10073.1875
 21
-1346.280554181157
 31
0.0
1001
ACDBBLOCKREPETAG
1070
     1
1071
        9
1005
12AAEE
  0
LINE
  5
12AAEF
  8
OBJECT
 10
10046.703125
 20
-1393.2405162457651
 30
0.0
 11
10073.1875
 21
-1361.7194458188351
 31
0.0
1001
ACDBBLOCKREPETAG
1070
     1
1071
       10
1005
12AAEF
  0
POLYLINE
  5
12AAF0
  8
SLIM
 66
     1
 10
0.0
 20
0.0
 30
0.0
 70
     1
1001
ACDBBLOCKREPETAG
1070
     1
1071
       11
1005
12AAF0
  0
VERTEX
  5
12AD9F
  8
SLIM
 10
10059.092522711881
 20
-1345.4999999999959
 30
0.0
  0
VERTEX
  5
12ADA0
  8
SLIM
 10
10054.18504542377
 20
-1353.9999999999959
 30
0.0
  0
VERTEX
  5
12ADA1
  8
SLIM
 10
10059.092522711881
 20
-1362.4999999999959
 30
0.0
  0
VERTEX
  5
12ADA2
  8
SLIM
 10
10068.907477288099
 20
-1362.4999999999959
 30
0.0
  0
VERTEX
  5
12ADA3
  8
SLIM
 10
10073.814954576221
 20
-1353.9999999999959
 30
0.0
  0
VERTEX
  5
12ADA4
  8
SLIM
 10
10068.907477288099
 20
-1345.4999999999959
 30
0.0
  0
SEQEND
  5
12ADA5
  8
SLIM
  0
CIRCLE
  5
12AAF1
  8
SLIM
 10
9968.0
 20
-1298.574374157789
 30
0.0
 40
4.9999999999999991
1001
ACDBBLOCKREPETAG
1070
     1
1071
       12
1005
12AAF1
  0
ARC
  5
12AAF2
  8
OBJECT
 10
9968.0
 20
-1298.574374157789
 30
0.0
 40
12.0
 50
79.962626870012684
 51
160.03737312997501
1001
ACDBBLOCKREPETAG
1070
     1
1071
       13
1005
12AAF2
  0
LINE
  5
12AAF3
  8
OBJECT
 10
9942.6651535735436
 20
-1333.174165436757
 30
0.0
 11
9956.7210138177488
 21
-1294.4774886699411
 31
0.0
1001
ACDBBLOCKREPETAG
1070
     1
1071
       14
1005
12AAF3
  0
LINE
  5
12AAF4
  8
OBJECT
 10
10010.631721426451
 20
-1293.9336491909919
 30
0.0
 11
9970.091486182253
 21
-1286.7580428511019
 31
0.0
1001
ACDBBLOCKREPETAG
1070
     1
1071
       15
1005
12AAF4
  0
POLYLINE
  5
12AAF5
  8
SLIM
 66
     1
 10
0.0
 20
0.0
 30
0.0
 70
     1
1001
ACDBBLOCKREPETAG
1070
     1
1071
       16
1005
12AAF5
  0
VERTEX
  5
12ADA6
  8
SLIM
 10
9963.0925227118896
 20
-1307.074374157789
 30
0.0
  0
VERTEX
  5
12ADA7
  8
SLIM
 10
9972.9074772881177
 20
-1307.074374157793
 30
0.0
  0
VERTEX
  5
12ADA8
  8
SLIM
 10
9977.814954576219
 20
-1298.574374157789
 30
0.0
  0
VERTEX
  5
12ADA9
  8
SLIM
 10
9972.9074772881177
 20
-1290.074374157793
 30
0.0
  0
VERTEX
  5
12ADAA
  8
SLIM
 10
9963.0925227118896
 20
-1290.074374157789
 30
0.0
  0
VERTEX
  5
12ADAB
  8
SLIM
 10
9958.1850454237738
 20
-1298.574374157793
 30
0.0
  0
SEQEND
  5
12ADAC
  8
SLIM
  0
CIRCLE
  5
12AAF6
  8
SLIM
 10
9968.0
 20
-1409.425625842199
 30
0.0
 40
5.0
1001
ACDBBLOCKREPETAG
1070
     1
1071
       17
1005
12AAF6
  0
ARC
  5
12AAF7
  8
OBJECT
 10
9968.0
 20
-1409.425625842199
 30
0.0
 40
12.0
 50
199.96262687002491
 51
280.03737312998732
1001
ACDBBLOCKREPETAG
1070
     1
1071
       18
1005
12AAF7
  0
LINE
  5
12AAF8
  8
OBJECT
 10
10010.631721426451
 20
-1414.066350808999
 30
0.0
 11
9970.091486182253
 21
-1421.241957148889
 31
0.0
1001
ACDBBLOCKREPETAG
1070
     1
1071
       19
1005
12AAF8
  0
LINE
  5
12AAF9
  8
OBJECT
 10
9942.6651535735436
 20
-1374.825834563231
 30
0.0
 11
9956.7210138177488
 21
-1413.5225113300501
 31
0.0
1001
ACDBBLOCKREPETAG
1070
     1
1071
       20
1005
12AAF9
  0
POLYLINE
  5
12AAFA
  8
SLIM
 66
     1
 10
0.0
 20
0.0
 30
0.0
 70
     1
1001
ACDBBLOCKREPETAG
1070
     1
1071
       21
1005
12AAFA
  0
VERTEX
  5
12ADAD
  8
SLIM
 10
9977.814954576219
 20
-1409.425625842199
 30
0.0
  0
VERTEX
  5
12ADAE
  8
SLIM
 10
9972.9074772881049
 20
-1400.925625842199
 30
0.0
  0
VERTEX
  5
12ADAF
  8
SLIM
 10
9963.0925227118896
 20
-1400.925625842199
 30
0.0
  0
VERTEX
  5
12ADB0
  8
SLIM
 10
9958.1850454237738
 20
-1409.425625842199
 30
0.0
  0
VERTEX
  5
12ADB1
  8
SLIM
 10
9963.0925227118896
 20
-1417.925625842199
 30
0.0
  0
VERTEX
  5
12ADB2
  8
SLIM
 10
9972.9074772881177
 20
-1417.925625842199
 30
0.0
  0
SEQEND
  5
12ADB3
  8
SLIM
  0
LINE
  5
12AAFB
  8
CENTER
 10
5924.0
 20
-1394.9999999999991
 30
0.0
 11
6091.0
 21
-1394.9999999999991
 31
0.0
1001
ACDBBLOCKREPETAG
1070
     1
1071
       22
1005
12AAFB
  0
LINE
  5
12AAFC
  8
CENTER
 10
6000.0
 20
-1318.0518385105161
 30
0.0
 11
6000.0
 21
-1471.948161489478
 31
0.0
1001
ACDBBLOCKREPETAG
1070
     1
1071
       23
1005
12AAFC
  0
CIRCLE
  5
12AAFD
  8
OBJECT
 10
6000.0
 20
-1394.9999999999991
 30
0.0
 40
37.5
1001
ACDBBLOCKREPETAG
1070
     1
1071
       24
1005
12AAFD
  0
CIRCLE
  5
12AAFE
  8
OBJECT
 10
6000.0
 20
-1394.9999999999991
 30
0.0
 40
47.5
1001
ACDBBLOCKREPETAG
1070
     1
1071
       25
1005
12AAFE
  0
ARC
  5
12AAFF
  8
OBJECT
 10
6000.0
 20
-1394.9999999999991
 30
0.0
 40
61.0
 50
40.03737312998139
 51
79.962626870012684
1001
ACDBBLOCKREPETAG
1070
     1
1071
       26
1005
12AAFF
  0
ARC
  5
12AB00
  8
OBJECT
 10
6000.0
 20
-1394.9999999999991
 30
0.0
 40
61.0
 50
160.03737312997501
 51
199.96262687002491
1001
ACDBBLOCKREPETAG
1070
     1
1071
       27
1005
12AB00
  0
ARC
  5
12AB01
  8
OBJECT
 10
6000.0
 20
-1394.9999999999991
 30
0.0
 40
61.0
 50
280.03737312998732
 51
319.9626268700186
1001
ACDBBLOCKREPETAG
1070
     1
1071
       28
1005
12AB01
  0
ARC
  5
12AB02
  8
OBJECT
 10
6064.0
 20
-1394.9999999999991
 30
0.0
 40
12.0
 50
319.9626268700186
 51
40.03737312998139
1001
ACDBBLOCKREPETAG
1070
     1
1071
       29
1005
12AB02
  0
LINE
  5
12AB03
  8
OBJECT
 10
6046.703125
 20
-1355.7594837542299
 30
0.0
 11
6073.1875
 21
-1387.2805541811599
 31
0.0
1001
ACDBBLOCKREPETAG
1070
     1
1071
       30
1005
12AB03
  0
LINE
  5
12AB04
  8
OBJECT
 10
6046.703125
 20
-1434.240516245768
 30
0.0
 11
6073.1875
 21
-1402.719445818838
 31
0.0
1001
ACDBBLOCKREPETAG
1070
     1
1071
       31
1005
12AB04
  0
CIRCLE
  5
12AB05
  8
OBJECT
 10
6000.0
 20
-1394.9999999999991
 30
0.0
 40
55.0
1001
ACDBBLOCKREPETAG
1070
     1
1071
       32
1005
12AB05
  0
ARC
  5
12AB06
  8
OBJECT
 10
6064.0
 20
-1394.9999999999991
 30
0.0
 40
12.0
 50
271.2434956101261
 51
88.756504389873882
1001
ACDBBLOCKREPETAG
1070
     1
1071
       33
1005
12AB06
  0
ARC
  5
12AB07
  8
OBJECT
 10
6064.5859375
 20
-1368.0063585775049
 30
0.0
 40
15.0
 50
202.68245018366949
 51
268.7565043898739
1001
ACDBBLOCKREPETAG
1070
     1
1071
       34
1005
12AB07
  0
CIRCLE
  5
12AB08
  8
SLIM
 10
6064.0
 20
-1394.9999999999991
 30
0.0
 40
8.0
1001
ACDBBLOCKREPETAG
1070
     1
1071
       35
1005
12AB08
  0
POLYLINE
  5
12AB09
  8
SLIM
 66
     1
 10
0.0
 20
0.0
 30
0.0
 70
     1
1001
ACDBBLOCKREPETAG
1070
     1
1071
       36
1005
12AB09
  0
VERTEX
  5
12ADB4
  8
SLIM
 10
6061.69059892324
 20
-1390.9999999999991
 30
0.0
  0
VERTEX
  5
12ADB5
  8
SLIM
 10
6059.3811978464846
 20
-1394.9999999999991
 30
0.0
  0
VERTEX
  5
12ADB6
  8
SLIM
 10
6061.69059892324
 20
-1398.9999999999991
 30
0.0
  0
VERTEX
  5
12ADB7
  8
SLIM
 10
6066.30940107676
 20
-1398.9999999999991
 30
0.0
  0
VERTEX
  5
12ADB8
  8
SLIM
 10
6068.6188021535154
 20
-1394.9999999999991
 30
0.0
  0
VERTEX
  5
12ADB9
  8
SLIM
 10
6066.30940107676
 20
-1390.9999999999991
 30
0.0
  0
SEQEND
  5
12ADBA
  8
SLIM
  0
ARC
  5
12AB0A
  8
OBJECT
 10
6064.5859375
 20
-1421.993641422489
 30
0.0
 40
15.0
 50
91.243495610126089
 51
157.3175498163304
1001
ACDBBLOCKREPETAG
1070
     1
1071
       37
1005
12AB0A
  0
ARC
  5
12AB0B
  8
OBJECT
 10
5968.0
 20
-1339.5743741577919
 30
0.0
 40
12.0
 50
79.962626870012684
 51
160.03737312997501
1001
ACDBBLOCKREPETAG
1070
     1
1071
       38
1005
12AB0B
  0
LINE
  5
12AB0C
  8
OBJECT
 10
5942.6651535735473
 20
-1374.1741654367599
 30
0.0
 11
5956.721013817747
 21
-1335.477488669944
 31
0.0
1001
ACDBBLOCKREPETAG
1070
     1
1071
       39
1005
12AB0C
  0
LINE
  5
12AB0D
  8
OBJECT
 10
6010.6317214264518
 20
-1334.9336491909951
 30
0.0
 11
5970.091486182253
 21
-1327.7580428511051
 31
0.0
1001
ACDBBLOCKREPETAG
1070
     1
1071
       40
1005
12AB0D
  0
ARC
  5
12AB0E
  8
OBJECT
 10
5968.0
 20
-1339.5743741577919
 30
0.0
 40
12.0
 50
31.243495610056922
 51
208.7565043898139
1001
ACDBBLOCKREPETAG
1070
     1
1071
       41
1005
12AB0E
  0
ARC
  5
12AB0F
  8
OBJECT
 10
5944.3298520374738
 20
-1352.5637581090109
 30
0.0
 40
15.0
 50
322.68245018387239
 51
28.756504389813902
1001
ACDBBLOCKREPETAG
1070
     1
1071
       42
1005
12AB0F
  0
CIRCLE
  5
12AB10
  8
SLIM
 10
5968.0
 20
-1339.5743741577919
 30
0.0
 40
7.9999999999999982
1001
ACDBBLOCKREPETAG
1070
     1
1071
       43
1005
12AB10
  0
POLYLINE
  5
12AB11
  8
SLIM
 66
     1
 10
0.0
 20
0.0
 30
0.0
 70
     1
1001
ACDBBLOCKREPETAG
1070
     1
1071
       44
1005
12AB11
  0
VERTEX
  5
12ADBB
  8
SLIM
 10
5965.6905989232419
 20
-1343.574374157796
 30
0.0
  0
VERTEX
  5
12ADBC
  8
SLIM
 10
5970.30940107676
 20
-1343.574374157793
 30
0.0
  0
VERTEX
  5
12ADBD
  8
SLIM
 10
5972.6188021535154
 20
-1339.574374157796
 30
0.0
  0
VERTEX
  5
12ADBE
  8
SLIM
 10
5970.3094010767572
 20
-1335.574374157793
 30
0.0
  0
VERTEX
  5
12ADBF
  8
SLIM
 10
5965.6905989232419
 20
-1335.574374157796
 30
0.0
  0
VERTEX
  5
12ADC0
  8
SLIM
 10
5963.3811978464846
 20
-1339.5743741577919
 30
0.0
  0
SEQEND
  5
12ADC1
  8
SLIM
  0
ARC
  5
12AB12
  8
OBJECT
 10
5991.0842104625253
 20
-1325.5701166865169
 30
0.0
 40
15.0
 50
211.2434956100569
 51
277.31754981622862
1001
ACDBBLOCKREPETAG
1070
     1
1071
       45
1005
12AB12
  0
ARC
  5
12AB13
  8
OBJECT
 10
5968.0
 20
-1450.425625842202
 30
0.0
 40
12.0
 50
199.96262687002491
 51
280.03737312998732
1001
ACDBBLOCKREPETAG
1070
     1
1071
       46
1005
12AB13
  0
LINE
  5
12AB14
  8
OBJECT
 10
6010.6317214264518
 20
-1455.0663508090031
 30
0.0
 11
5970.091486182253
 21
-1462.241957148892
 31
0.0
1001
ACDBBLOCKREPETAG
1070
     1
1071
       47
1005
12AB14
  0
LINE
  5
12AB15
  8
OBJECT
 10
5942.6651535735473
 20
-1415.8258345632339
 30
0.0
 11
5956.721013817747
 21
-1454.5225113300539
 31
0.0
1001
ACDBBLOCKREPETAG
1070
     1
1071
       48
1005
12AB15
  0
ARC
  5
12AB16
  8
OBJECT
 10
5968.0
 20
-1450.425625842202
 30
0.0
 40
12.0
 50
151.2434956101861
 51
328.75650438994307
1001
ACDBBLOCKREPETAG
1070
     1
1071
       49
1005
12AB16
  0
ARC
  5
12AB17
  8
OBJECT
 10
5991.0842104625253
 20
-1464.4298833134769
 30
0.0
 40
15.0
 50
82.682450183771394
 51
148.75650438994299
1001
ACDBBLOCKREPETAG
1070
     1
1071
       50
1005
12AB17
  0
CIRCLE
  5
12AB18
  8
SLIM
 10
5968.0
 20
-1450.425625842202
 30
0.0
 40
8.0
1001
ACDBBLOCKREPETAG
1070
     1
1071
       51
1005
12AB18
  0
POLYLINE
  5
12AB19
  8
SLIM
 66
     1
 10
0.0
 20
0.0
 30
0.0
 70
     1
1001
ACDBBLOCKREPETAG
1070
     1
1071
       52
1005
12AB19
  0
VERTEX
  5
12ADC2
  8
SLIM
 10
5972.6188021535154
 20
-1450.425625842202
 30
0.0
  0
VERTEX
  5
12ADC3
  8
SLIM
 10
5970.3094010767572
 20
-1446.425625842202
 30
0.0
  0
VERTEX
  5
12ADC4
  8
SLIM
 10
5965.6905989232419
 20
-1446.425625842202
 30
0.0
  0
VERTEX
  5
12ADC5
  8
SLIM
 10
5963.3811978464846
 20
-1450.425625842202
 30
0.0
  0
VERTEX
  5
12ADC6
  8
SLIM
 10
5965.69059892324
 20
-1454.425625842202
 30
0.0
  0
VERTEX
  5
12ADC7
  8
SLIM
 10
5970.3094010767572
 20
-1454.425625842202
 30
0.0
  0
SEQEND
  5
12ADC8
  8
SLIM
  0
ARC
  5
12AB1A
  8
OBJECT
 10
5944.3298520374738
 20
-1437.436241890987
 30
0.0
 40
15.0
 50
331.24349561018607
 51
37.317549816127681
1001
ACDBBLOCKREPETAG
1070
     1
1071
       53
1005
12AB1A
  0
LINE
  5
12AB1B
  8
CENTER
 10
3924.0
 20
-1353.9999999999959
 30
0.0
 11
4091.0
 21
-1353.9999999999959
 31
0.0
1001
ACDBBLOCKREPETAG
1070
     1
1071
        0
1005
12AB1B
  0
LINE
  5
12AB1C
  8
CENTER
 10
4000.0
 20
-1277.0518385105131
 30
0.0
 11
4000.0
 21
-1430.9481614894751
 31
0.0
1001
ACDBBLOCKREPETAG
1070
     1
1071
        1
1005
12AB1C
  0
CIRCLE
  5
12AB1D
  8
OBJECT
 10
4000.0
 20
-1353.9999999999959
 30
0.0
 40
37.5
1001
ACDBBLOCKREPETAG
1070
     1
1071
        2
1005
12AB1D
  0
CIRCLE
  5
12AB1E
  8
OBJECT
 10
4000.0
 20
-1353.9999999999959
 30
0.0
 40
49.5
1001
ACDBBLOCKREPETAG
1070
     1
1071
        3
1005
12AB1E
  0
ARC
  5
12AB1F
  8
OBJECT
 10
4000.0
 20
-1353.9999999999959
 30
0.0
 40
61.0
 50
40.03737312998139
 51
79.962626870012684
1001
ACDBBLOCKREPETAG
1070
     1
1071
        4
1005
12AB1F
  0
ARC
  5
12AB20
  8
OBJECT
 10
4000.0
 20
-1353.9999999999959
 30
0.0
 40
61.0
 50
160.03737312997501
 51
199.96262687002491
1001
ACDBBLOCKREPETAG
1070
     1
1071
        5
1005
12AB20
  0
ARC
  5
12AB21
  8
OBJECT
 10
4000.0
 20
-1353.9999999999959
 30
0.0
 40
61.0
 50
280.03737312998732
 51
319.9626268700186
1001
ACDBBLOCKREPETAG
1070
     1
1071
        6
1005
12AB21
  0
CIRCLE
  5
12AB22
  8
SLIM
 10
4064.0
 20
-1353.9999999999959
 30
0.0
 40
5.0
1001
ACDBBLOCKREPETAG
1070
     1
1071
        7
1005
12AB22
  0
ARC
  5
12AB23
  8
OBJECT
 10
4064.0
 20
-1353.9999999999959
 30
0.0
 40
12.0
 50
319.9626268700186
 51
40.03737312998139
1001
ACDBBLOCKREPETAG
1070
     1
1071
        8
1005
12AB23
  0
LINE
  5
12AB24
  8
OBJECT
 10
4046.7031249999982
 20
-1314.7594837542269
 30
0.0
 11
4073.1875
 21
-1346.280554181157
 31
0.0
1001
ACDBBLOCKREPETAG
1070
     1
1071
        9
1005
12AB24
  0
LINE
  5
12AB25
  8
OBJECT
 10
4046.7031249999982
 20
-1393.2405162457651
 30
0.0
 11
4073.1875
 21
-1361.7194458188351
 31
0.0
1001
ACDBBLOCKREPETAG
1070
     1
1071
       10
1005
12AB25
  0
POLYLINE
  5
12AB26
  8
SLIM
 66
     1
 10
0.0
 20
0.0
 30
0.0
 70
     1
1001
ACDBBLOCKREPETAG
1070
     1
1071
       11
1005
12AB26
  0
VERTEX
  5
12ADC9
  8
SLIM
 10
4059.0925227118851
 20
-1345.4999999999959
 30
0.0
  0
VERTEX
  5
12ADCA
  8
SLIM
 10
4054.1850454237701
 20
-1353.9999999999959
 30
0.0
  0
VERTEX
  5
12ADCB
  8
SLIM
 10
4059.0925227118851
 20
-1362.4999999999959
 30
0.0
  0
VERTEX
  5
12ADCC
  8
SLIM
 10
4068.9074772881072
 20
-1362.4999999999959
 30
0.0
  0
VERTEX
  5
12ADCD
  8
SLIM
 10
4073.8149545762199
 20
-1353.9999999999959
 30
0.0
  0
VERTEX
  5
12ADCE
  8
SLIM
 10
4068.9074772881072
 20
-1345.4999999999959
 30
0.0
  0
SEQEND
  5
12ADCF
  8
SLIM
  0
CIRCLE
  5
12AB27
  8
SLIM
 10
3968.0
 20
-1298.574374157789
 30
0.0
 40
4.9999999999999991
1001
ACDBBLOCKREPETAG
1070
     1
1071
       12
1005
12AB27
  0
ARC
  5
12AB28
  8
OBJECT
 10
3968.0
 20
-1298.574374157789
 30
0.0
 40
12.0
 50
79.962626870012684
 51
160.03737312997501
1001
ACDBBLOCKREPETAG
1070
     1
1071
       13
1005
12AB28
  0
LINE
  5
12AB29
  8
OBJECT
 10
3942.6651535735441
 20
-1333.174165436757
 30
0.0
 11
3956.721013817747
 21
-1294.4774886699411
 31
0.0
1001
ACDBBLOCKREPETAG
1070
     1
1071
       14
1005
12AB29
  0
LINE
  5
12AB2A
  8
OBJECT
 10
4010.6317214264491
 20
-1293.9336491909919
 30
0.0
 11
3970.091486182253
 21
-1286.7580428511019
 31
0.0
1001
ACDBBLOCKREPETAG
1070
     1
1071
       15
1005
12AB2A
  0
POLYLINE
  5
12AB2B
  8
SLIM
 66
     1
 10
0.0
 20
0.0
 30
0.0
 70
     1
1001
ACDBBLOCKREPETAG
1070
     1
1071
       16
1005
12AB2B
  0
VERTEX
  5
12ADD0
  8
SLIM
 10
3963.092522711886
 20
-1307.074374157789
 30
0.0
  0
VERTEX
  5
12ADD1
  8
SLIM
 10
3972.907477288114
 20
-1307.074374157793
 30
0.0
  0
VERTEX
  5
12ADD2
  8
SLIM
 10
3977.8149545762212
 20
-1298.574374157789
 30
0.0
  0
VERTEX
  5
12ADD3
  8
SLIM
 10
3972.907477288114
 20
-1290.074374157793
 30
0.0
  0
VERTEX
  5
12ADD4
  8
SLIM
 10
3963.092522711886
 20
-1290.074374157789
 30
0.0
  0
VERTEX
  5
12ADD5
  8
SLIM
 10
3958.185045423772
 20
-1298.574374157793
 30
0.0
  0
SEQEND
  5
12ADD6
  8
SLIM
  0
CIRCLE
  5
12AB2C
  8
SLIM
 10
3968.0
 20
-1409.425625842199
 30
0.0
 40
5.0
1001
ACDBBLOCKREPETAG
1070
     1
1071
       17
1005
12AB2C
  0
ARC
  5
12AB2D
  8
OBJECT
 10
3968.0
 20
-1409.425625842199
 30
0.0
 40
12.0
 50
199.96262687002491
 51
280.03737312998732
1001
ACDBBLOCKREPETAG
1070
     1
1071
       18
1005
12AB2D
  0
LINE
  5
12AB2E
  8
OBJECT
 10
4010.6317214264491
 20
-1414.066350808999
 30
0.0
 11
3970.091486182253
 21
-1421.241957148889
 31
0.0
1001
ACDBBLOCKREPETAG
1070
     1
1071
       19
1005
12AB2E
  0
LINE
  5
12AB2F
  8
OBJECT
 10
3942.6651535735441
 20
-1374.825834563231
 30
0.0
 11
3956.721013817747
 21
-1413.5225113300501
 31
0.0
1001
ACDBBLOCKREPETAG
1070
     1
1071
       20
1005
12AB2F
  0
POLYLINE
  5
12AB30
  8
SLIM
 66
     1
 10
0.0
 20
0.0
 30
0.0
 70
     1
1001
ACDBBLOCKREPETAG
1070
     1
1071
       21
1005
12AB30
  0
VERTEX
  5
12ADD7
  8
SLIM
 10
3977.8149545762212
 20
-1409.425625842199
 30
0.0
  0
VERTEX
  5
12ADD8
  8
SLIM
 10
3972.9074772881072
 20
-1400.925625842199
 30
0.0
  0
VERTEX
  5
12ADD9
  8
SLIM
 10
3963.092522711886
 20
-1400.925625842199
 30
0.0
  0
VERTEX
  5
12ADDA
  8
SLIM
 10
3958.185045423772
 20
-1409.425625842199
 30
0.0
  0
VERTEX
  5
12ADDB
  8
SLIM
 10
3963.092522711886
 20
-1417.925625842199
 30
0.0
  0
VERTEX
  5
12ADDC
  8
SLIM
 10
3972.907477288114
 20
-1417.925625842199
 30
0.0
  0
SEQEND
  5
12ADDD
  8
SLIM
  0
LINE
  5
12AB31
  8
OBJECT
 10
2044.5
 20
-1079.999999999992
 30
0.0
 11
1955.5
 21
-1079.999999999992
 31
0.0
1001
ACDBBLOCKREPETAG
1070
     1
1071
        0
1005
12AB31
  0
LINE
  5
12AB32
  8
OBJECT
 10
1935.0
 20
-869.99999999999216
 30
0.0
 11
1935.0
 21
-769.99999999999204
 31
0.0
1001
ACDBBLOCKREPETAG
1070
     1
1071
        1
1005
12AB32
  0
LINE
  5
12AB33
  8
OBJECT
 10
2065.0
 20
-869.99999999999216
 30
0.0
 11
2065.0
 21
-769.99999999999204
 31
0.0
1001
ACDBBLOCKREPETAG
1070
     1
1071
        2
1005
12AB33
  0
LINE
  5
12AB34
  8
OBJECT
 10
1935.0
 20
-869.99999999999216
 30
0.0
 11
2065.0
 21
-869.99999999999216
 31
0.0
1001
ACDBBLOCKREPETAG
1070
     1
1071
        3
1005
12AB34
  0
LINE
  5
12AB35
  8
OBJECT
 10
1955.5
 20
-979.99999999999204
 30
0.0
 11
2044.5
 21
-979.99999999999204
 31
0.0
1001
ACDBBLOCKREPETAG
1070
     1
1071
        4
1005
12AB35
  0
LINE
  5
12AB36
  8
OBJECT
 10
1955.5
 20
-979.99999999999204
 30
0.0
 11
1955.5
 21
-1079.999999999992
 31
0.0
1001
ACDBBLOCKREPETAG
1070
     1
1071
        5
1005
12AB36
  0
LINE
  5
12AB37
  8
OBJECT
 10
2044.5
 20
-979.99999999999204
 30
0.0
 11
2044.5
 21
-1079.999999999992
 31
0.0
1001
ACDBBLOCKREPETAG
1070
     1
1071
        6
1005
12AB37
  0
LINE
  5
12AB38
  8
OBJECT
 10
1935.0
 20
-869.99999999999216
 30
0.0
 11
1955.5
 21
-979.99999999999204
 31
0.0
1001
ACDBBLOCKREPETAG
1070
     1
1071
        7
1005
12AB38
  0
LINE
  5
12AB39
  8
OBJECT
 10
2044.5
 20
-979.99999999999204
 30
0.0
 11
2065.0
 21
-869.99999999999216
 31
0.0
1001
ACDBBLOCKREPETAG
1070
     1
1071
        8
1005
12AB39
  0
LINE
  5
12AB3A
  8
HIDDEN
 10
1962.5
 20
-979.99999999999204
 30
0.0
 11
1962.5
 21
-1079.999999999992
 31
0.0
1001
ACDBBLOCKREPETAG
1070
     1
1071
        9
1005
12AB3A
  0
LINE
  5
12AB3B
  8
HIDDEN
 10
2037.5
 20
-979.99999999999204
 30
0.0
 11
2037.5
 21
-1079.999999999992
 31
0.0
1001
ACDBBLOCKREPETAG
1070
     1
1071
       10
1005
12AB3B
  0
LINE
  5
12AB3C
  8
CENTER
 10
2000.0
 20
-769.99999999999955
 30
0.0
 11
2000.0
 21
-1094.999999999992
 31
0.0
1001
ACDBBLOCKREPETAG
1070
     1
1071
       11
1005
12AB3C
  0
LINE
  5
12AB3D
  8
OBJECT
 10
1877.0
 20
-663.99999999999966
 30
0.0
 11
1870.0
 21
-663.99999999999966
 31
0.0
1001
ACDBBLOCKREPETAG
1070
     1
1071
        7
1005
12AB3D
  0
LINE
  5
12AB3E
  8
OBJECT
 10
1870.0
 20
-663.99999999999966
 30
0.0
 11
1870.0
 21
-754.99999999999955
 31
0.0
1001
ACDBBLOCKREPETAG
1070
     1
1071
        8
1005
12AB3E
  0
LINE
  5
12AB3F
  8
OBJECT
 10
1877.0
 20
-754.99999999999955
 30
0.0
 11
1877.0
 21
-663.99999999999966
 31
0.0
1001
ACDBBLOCKREPETAG
1070
     1
1071
        9
1005
12AB3F
  0
LINE
  5
12AB40
  8
CENTER
 10
1855.0
 20
-710.99999999999955
 30
0.0
 11
1939.0
 21
-710.99999999999955
 31
0.0
1001
ACDBBLOCKREPETAG
1070
     1
1071
       10
1005
12AB40
  0
LINE
  5
12AB41
  8
OBJECT
 10
1877.0
 20
-666.99999999999955
 30
0.0
 11
1913.0
 21
-666.99999999999955
 31
0.0
1001
ACDBBLOCKREPETAG
1070
     1
1071
       11
1005
12AB41
  0
LINE
  5
12AB42
  8
OBJECT
 10
1913.0
 20
-666.99999999999955
 30
0.0
 11
1913.0
 21
-754.99999999999955
 31
0.0
1001
ACDBBLOCKREPETAG
1070
     1
1071
       12
1005
12AB42
  0
LINE
  5
12AB43
  8
OBJECT
 10
1913.0
 20
-754.99999999999955
 30
0.0
 11
1870.0
 21
-754.99999999999955
 31
0.0
1001
ACDBBLOCKREPETAG
1070
     1
1071
       13
1005
12AB43
  0
LINE
  5
12AB44
  8
OBJECT
 10
1917.0
 20
-671.49999999999955
 30
0.0
 11
1924.0
 21
-671.49999999999955
 31
0.0
1001
ACDBBLOCKREPETAG
1070
     1
1071
       14
1005
12AB44
  0
LINE
  5
12AB45
  8
OBJECT
 10
1924.0
 20
-750.49999999999955
 30
0.0
 11
1917.0
 21
-750.49999999999955
 31
0.0
1001
ACDBBLOCKREPETAG
1070
     1
1071
       15
1005
12AB45
  0
LINE
  5
12AB46
  8
OBJECT
 10
1917.0
 20
-750.49999999999955
 30
0.0
 11
1917.0
 21
-671.49999999999955
 31
0.0
1001
ACDBBLOCKREPETAG
1070
     1
1071
       16
1005
12AB46
  0
LINE
  5
12AB47
  8
OBJECT
 10
1913.0
 20
-666.99999999999955
 30
0.0
 11
1917.0
 21
-671.49999999999955
 31
0.0
1001
ACDBBLOCKREPETAG
1070
     1
1071
       17
1005
12AB47
  0
LINE
  5
12AB48
  8
OBJECT
 10
1913.0
 20
-754.99999999999955
 30
0.0
 11
1917.0
 21
-750.49999999999955
 31
0.0
1001
ACDBBLOCKREPETAG
1070
     1
1071
       18
1005
12AB48
  0
LINE
  5
12AB49
  8
OBJECT
 10
1927.0
 20
-633.99999999999955
 30
0.0
 11
1930.0
 21
-633.99999999999955
 31
0.0
1001
ACDBBLOCKREPETAG
1070
     1
1071
       19
1005
12AB49
  0
ARC
  5
12AB4A
  8
OBJECT
 10
1927.0
 20
-636.99999999999955
 30
0.0
 40
3.0
 50
90.0
 51
180.0
1001
ACDBBLOCKREPETAG
1070
     1
1071
       20
1005
12AB4A
  0
LINE
  5
12AB4B
  8
OBJECT
 10
1930.0
 20
-757.99999999999955
 30
0.0
 11
1927.0
 21
-757.99999999999955
 31
0.0
1001
ACDBBLOCKREPETAG
1070
     1
1071
       21
1005
12AB4B
  0
ARC
  5
12AB4C
  8
OBJECT
 10
1927.0
 20
-754.99999999999955
 30
0.0
 40
3.0
 50
180.0
 51
270.0
1001
ACDBBLOCKREPETAG
1070
     1
1071
       22
1005
12AB4C
  0
LINE
  5
12AB4D
  8
OBJECT
 10
1924.0
 20
-754.99999999999955
 30
0.0
 11
1924.0
 21
-636.99999999999955
 31
0.0
1001
ACDBBLOCKREPETAG
1070
     1
1071
       23
1005
12AB4D
  0
LINE
  5
12AB4E
  8
HIDDEN
 10
1922.0
 20
-680.99999999999955
 30
0.0
 11
1922.0
 21
-740.99999999999955
 31
0.0
1001
ACDBBLOCKREPETAG
1070
     1
1071
       24
1005
12AB4E
  0
CIRCLE
  5
12AB4F
  8
OBJECT
 10
2000.0
 20
-696.0
 30
0.0
 40
62.0
1001
ACDBBLOCKREPETAG
1070
     1
1071
        0
1005
12AB4F
  0
LINE
  5
12AB50
  8
OBJECT
 10
1935.0
 20
-549.99999999999955
 30
0.0
 11
1935.0
 21
-570.99999999999955
 31
0.0
1001
ACDBBLOCKREPETAG
1070
     1
1071
       16
1005
12AB50
  0
LINE
  5
12AB51
  8
OBJECT
 10
1935.0
 20
-570.99999999999955
 30
0.0
 11
2065.0
 21
-570.99999999999955
 31
0.0
1001
ACDBBLOCKREPETAG
1070
     1
1071
       17
1005
12AB51
  0
LINE
  5
12AB52
  8
OBJECT
 10
2065.0
 20
-570.99999999999955
 30
0.0
 11
2065.0
 21
-549.99999999999955
 31
0.0
1001
ACDBBLOCKREPETAG
1070
     1
1071
       18
1005
12AB52
  0
LINE
  5
12AB53
  8
OBJECT
 10
2065.0
 20
-549.99999999999955
 30
0.0
 11
1935.0
 21
-549.99999999999955
 31
0.0
1001
ACDBBLOCKREPETAG
1070
     1
1071
       19
1005
12AB53
  0
LINE
  5
12AB54
  8
HIDDEN
 10
2044.5
 20
-619.99999999999955
 30
0.0
 11
1955.5
 21
-619.99999999999955
 31
0.0
1001
ACDBBLOCKREPETAG
1070
     1
1071
       20
1005
12AB54
  0
LINE
  5
12AB55
  8
CENTER
 10
2000.0
 20
-769.99999999999955
 30
0.0
 11
2000.0
 21
-534.99999999999955
 31
0.0
1001
ACDBBLOCKREPETAG
1070
     1
1071
       21
1005
12AB55
  0
LINE
  5
12AB56
  8
OBJECT
 10
1940.5
 20
-570.99999999999955
 30
0.0
 11
1940.5
 21
-633.99999999999955
 31
0.0
1001
ACDBBLOCKREPETAG
1070
     1
1071
       22
1005
12AB56
  0
LINE
  5
12AB57
  8
OBJECT
 10
1930.0
 20
-633.99999999999955
 30
0.0
 11
2070.0
 21
-633.99999999999955
 31
0.0
1001
ACDBBLOCKREPETAG
1070
     1
1071
       23
1005
12AB57
  0
LINE
  5
12AB58
  8
OBJECT
 10
2059.5
 20
-633.99999999999955
 30
0.0
 11
2059.5
 21
-570.99999999999955
 31
0.0
1001
ACDBBLOCKREPETAG
1070
     1
1071
       24
1005
12AB58
  0
LINE
  5
12AB59
  8
OBJECT
 10
1930.0
 20
-757.99999999999955
 30
0.0
 11
1930.0
 21
-769.99999999999955
 31
0.0
1001
ACDBBLOCKREPETAG
1070
     1
1071
       25
1005
12AB59
  0
LINE
  5
12AB5A
  8
OBJECT
 10
1930.0
 20
-769.99999999999955
 30
0.0
 11
2070.0
 21
-769.99999999999955
 31
0.0
1001
ACDBBLOCKREPETAG
1070
     1
1071
       26
1005
12AB5A
  0
LINE
  5
12AB5B
  8
OBJECT
 10
2070.0
 20
-769.99999999999955
 30
0.0
 11
2070.0
 21
-757.99999999999955
 31
0.0
1001
ACDBBLOCKREPETAG
1070
     1
1071
       27
1005
12AB5B
  0
LINE
  5
12AB5C
  8
OBJECT
 10
2070.0
 20
-757.99999999999955
 30
0.0
 11
1930.0
 21
-757.99999999999955
 31
0.0
1001
ACDBBLOCKREPETAG
1070
     1
1071
       28
1005
12AB5C
  0
ARC
  5
12AB5D
  8
OBJECT
 10
2435.0384389946771
 20
-998.60813684682694
 30
0.0
 40
519.48776673616965
 50
135.4235066743189
 51
138.50052655621499
1001
ACDBBLOCKREPETAG
1070
     1
1071
       32
1005
12AB5D
  0
ARC
  5
12AB5E
  8
OBJECT
 10
2435.0384389946771
 20
-393.39186315317193
 30
0.0
 40
519.48776673616965
 50
221.49947344378501
 51
224.57649332568101
1001
ACDBBLOCKREPETAG
1070
     1
1071
       33
1005
12AB5E
  0
ARC
  5
12AB5F
  8
OBJECT
 10
1564.961561005322
 20
-998.60813684682694
 30
0.0
 40
519.48776673616965
 50
41.499473443784993
 51
44.576493325681092
1001
ACDBBLOCKREPETAG
1070
     1
1071
       34
1005
12AB5F
  0
ARC
  5
12AB60
  8
OBJECT
 10
1564.961561005322
 20
-393.39186315317193
 30
0.0
 40
519.48776673616965
 50
315.4235066743189
 51
318.50052655621488
1001
ACDBBLOCKREPETAG
1070
     1
1071
       35
1005
12AB60
  0
POINT
  5
12AB61
  8
DOTS
 10
2000.0
 20
-754.99999999999955
 30
0.0
1001
ACDBBLOCKREPETAG
1070
     1
1071
      111
1005
12AB61
  0
LINE
  5
12AB62
  8
OBJECT
 10
1877.0
 20
-246.99999999999909
 30
0.0
 11
1870.0
 21
-246.99999999999909
 31
0.0
1001
ACDBBLOCKREPETAG
1070
     1
1071
        7
1005
12AB62
  0
LINE
  5
12AB63
  8
OBJECT
 10
1870.0
 20
-246.99999999999909
 30
0.0
 11
1870.0
 21
-152.99999999999909
 31
0.0
1001
ACDBBLOCKREPETAG
1070
     1
1071
        8
1005
12AB63
  0
LINE
  5
12AB64
  8
OBJECT
 10
1870.0
 20
-152.99999999999909
 30
0.0
 11
1877.0
 21
-152.99999999999909
 31
0.0
1001
ACDBBLOCKREPETAG
1070
     1
1071
        9
1005
12AB64
  0
LINE
  5
12AB65
  8
OBJECT
 10
1877.0
 20
-152.99999999999909
 30
0.0
 11
1877.0
 21
-246.99999999999909
 31
0.0
1001
ACDBBLOCKREPETAG
1070
     1
1071
       10
1005
12AB65
  0
LINE
  5
12AB66
  8
CENTER
 10
1855.0
 20
-199.99999999999909
 30
0.0
 11
1930.0
 21
-199.99999999999909
 31
0.0
1001
ACDBBLOCKREPETAG
1070
     1
1071
       11
1005
12AB66
  0
LINE
  5
12AB67
  8
OBJECT
 10
1877.0
 20
-243.99999999999909
 30
0.0
 11
1913.0
 21
-243.99999999999909
 31
0.0
1001
ACDBBLOCKREPETAG
1070
     1
1071
       12
1005
12AB67
  0
LINE
  5
12AB68
  8
OBJECT
 10
1913.0
 20
-243.99999999999909
 30
0.0
 11
1913.0
 21
-155.99999999999909
 31
0.0
1001
ACDBBLOCKREPETAG
1070
     1
1071
       13
1005
12AB68
  0
LINE
  5
12AB69
  8
OBJECT
 10
1913.0
 20
-155.99999999999909
 30
0.0
 11
1877.0
 21
-155.99999999999909
 31
0.0
1001
ACDBBLOCKREPETAG
1070
     1
1071
       14
1005
12AB69
  0
LINE
  5
12AB6A
  8
OBJECT
 10
1917.0
 20
-239.49999999999909
 30
0.0
 11
1924.0
 21
-239.49999999999909
 31
0.0
1001
ACDBBLOCKREPETAG
1070
     1
1071
       15
1005
12AB6A
  0
LINE
  5
12AB6B
  8
OBJECT
 10
1924.0
 20
-160.49999999999909
 30
0.0
 11
1917.0
 21
-160.49999999999909
 31
0.0
1001
ACDBBLOCKREPETAG
1070
     1
1071
       16
1005
12AB6B
  0
LINE
  5
12AB6C
  8
OBJECT
 10
1917.0
 20
-160.49999999999909
 30
0.0
 11
1917.0
 21
-239.49999999999909
 31
0.0
1001
ACDBBLOCKREPETAG
1070
     1
1071
       17
1005
12AB6C
  0
LINE
  5
12AB6D
  8
OBJECT
 10
1913.0
 20
-243.99999999999909
 30
0.0
 11
1917.0
 21
-239.49999999999909
 31
0.0
1001
ACDBBLOCKREPETAG
1070
     1
1071
       18
1005
12AB6D
  0
LINE
  5
12AB6E
  8
OBJECT
 10
1913.0
 20
-155.99999999999909
 30
0.0
 11
1917.0
 21
-160.49999999999909
 31
0.0
1001
ACDBBLOCKREPETAG
1070
     1
1071
       19
1005
12AB6E
  0
LINE
  5
12AB6F
  8
OBJECT
 10
1927.0
 20
-261.99999999999909
 30
0.0
 11
1930.0
 21
-261.99999999999909
 31
0.0
1001
ACDBBLOCKREPETAG
1070
     1
1071
       20
1005
12AB6F
  0
ARC
  5
12AB70
  8
OBJECT
 10
1927.0
 20
-258.99999999999909
 30
0.0
 40
3.0
 50
180.0
 51
270.0
1001
ACDBBLOCKREPETAG
1070
     1
1071
       21
1005
12AB70
  0
LINE
  5
12AB71
  8
OBJECT
 10
1930.0
 20
-137.99999999999909
 30
0.0
 11
1927.0
 21
-137.99999999999909
 31
0.0
1001
ACDBBLOCKREPETAG
1070
     1
1071
       22
1005
12AB71
  0
ARC
  5
12AB72
  8
OBJECT
 10
1927.0
 20
-140.99999999999909
 30
0.0
 40
3.0
 50
90.0
 51
180.0
1001
ACDBBLOCKREPETAG
1070
     1
1071
       23
1005
12AB72
  0
LINE
  5
12AB73
  8
OBJECT
 10
1924.0
 20
-140.99999999999909
 30
0.0
 11
1924.0
 21
-258.99999999999909
 31
0.0
1001
ACDBBLOCKREPETAG
1070
     1
1071
       24
1005
12AB73
  0
LINE
  5
12AB74
  8
HIDDEN
 10
1922.0
 20
-229.99999999999909
 30
0.0
 11
1922.0
 21
-169.99999999999909
 31
0.0
1001
ACDBBLOCKREPETAG
1070
     1
1071
       25
1005
12AB74
  0
LINE
  5
12AB75
  8
CENTER
 10
2000.0
 20
-290.99999999999898
 30
0.0
 11
2000.0
 21
-269.99999999999909
 31
0.0
1001
ACDBBLOCKREPETAG
1070
     1
1071
        0
1005
12AB75
  0
LINE
  5
12AB76
  8
OBJECT
 10
2062.0
 20
-273.0
 30
0.0
 11
2062.0
 21
-269.99999999999909
 31
0.0
1001
ACDBBLOCKREPETAG
1070
     1
1071
        1
1005
12AB76
  0
ARC
  5
12AB77
  8
OBJECT
 10
2059.0
 20
-273.0
 30
0.0
 40
3.0
 50
270.0
 51
0.0
1001
ACDBBLOCKREPETAG
1070
     1
1071
        2
1005
12AB77
  0
LINE
  5
12AB78
  8
OBJECT
 10
1938.0
 20
-269.99999999999909
 30
0.0
 11
1938.0
 21
-272.99999999999818
 31
0.0
1001
ACDBBLOCKREPETAG
1070
     1
1071
        3
1005
12AB78
  0
ARC
  5
12AB79
  8
OBJECT
 10
1941.0
 20
-272.99999999999818
 30
0.0
 40
3.0
 50
180.0
 51
270.0
1001
ACDBBLOCKREPETAG
1070
     1
1071
        4
1005
12AB79
  0
LINE
  5
12AB7A
  8
OBJECT
 10
1941.0
 20
-275.99999999999818
 30
0.0
 11
2059.0
 21
-276.0
 31
0.0
1001
ACDBBLOCKREPETAG
1070
     1
1071
        5
1005
12AB7A
  0
POINT
  5
12AB7B
  8
DOTS
 10
2000.0
 20
-199.99999999999909
 30
0.0
 50
270.0
1001
ACDBBLOCKREPETAG
1070
     1
1071
      153
1005
12AB7B
  0
ARC
  5
12AB7C
  8
OBJECT
 10
2000.0
 20
-199.99999999999909
 30
0.0
 40
70.0
 50
62.339550100758693
 51
117.6604498992413
1001
ACDBBLOCKREPETAG
1070
     1
1071
        0
1005
12AB7C
  0
CIRCLE
  5
12AB7D
  8
OBJECT
 10
2000.0
 20
-199.99999999999909
 30
0.0
 40
65.0
1001
ACDBBLOCKREPETAG
1070
     1
1071
        1
1005
12AB7D
  0
CIRCLE
  5
12AB7E
  8
OBJECT
 10
2000.0
 20
-199.99999999999909
 30
0.0
 40
41.0
1001
ACDBBLOCKREPETAG
1070
     1
1071
        2
1005
12AB7E
  0
CIRCLE
  5
12AB7F
  8
OBJECT
 10
2000.0
 20
-199.99999999999909
 30
0.0
 40
58.0
1001
ACDBBLOCKREPETAG
1070
     1
1071
        3
1005
12AB7F
  0
LINE
  5
12AB80
  8
OBJECT
 10
2070.0
 20
-137.99999999999909
 30
0.0
 11
2019.5192212959439
 21
-137.99999999999909
 31
0.0
1001
ACDBBLOCKREPETAG
1070
     1
1071
        4
1005
12AB80
  0
LINE
  5
12AB81
  8
OBJECT
 10
1930.0
 20
-137.99999999999909
 30
0.0
 11
1980.480778704057
 21
-137.99999999999909
 31
0.0
1001
ACDBBLOCKREPETAG
1070
     1
1071
        5
1005
12AB81
  0
LINE
  5
12AB82
  8
OBJECT
 10
1930.0
 20
-261.99999999999909
 30
0.0
 11
1938.0
 21
-261.99999999999909
 31
0.0
1001
ACDBBLOCKREPETAG
1070
     1
1071
        6
1005
12AB82
  0
LINE
  5
12AB83
  8
OBJECT
 10
1938.0
 20
-269.99999999999909
 30
0.0
 11
1938.0
 21
-261.99999999999909
 31
0.0
1001
ACDBBLOCKREPETAG
1070
     1
1071
        7
1005
12AB83
  0
LINE
  5
12AB84
  8
OBJECT
 10
2070.0
 20
-261.99999999999909
 30
0.0
 11
2062.0
 21
-261.99999999999909
 31
0.0
1001
ACDBBLOCKREPETAG
1070
     1
1071
        8
1005
12AB84
  0
LINE
  5
12AB85
  8
OBJECT
 10
2062.0
 20
-269.99999999999909
 30
0.0
 11
2062.0
 21
-261.99999999999909
 31
0.0
1001
ACDBBLOCKREPETAG
1070
     1
1071
        9
1005
12AB85
  0
LINE
  5
12AB86
  8
CENTER
 10
1930.0
 20
-199.99999999999909
 30
0.0
 11
2070.0
 21
-199.99999999999909
 31
0.0
1001
ACDBBLOCKREPETAG
1070
     1
1071
       10
1005
12AB86
  0
LINE
  5
12AB87
  8
CENTER
 10
2000.0
 20
-269.99999999999909
 30
0.0
 11
2000.0
 21
-114.9999999999991
 31
0.0
1001
ACDBBLOCKREPETAG
1070
     1
1071
       11
1005
12AB87
  0
ARC
  5
12AB88
  8
OBJECT
 10
1989.902762139187
 20
-224.44352901899131
 30
0.0
 40
7.0
 50
73.001272229706771
 51
154.05025878943769
1001
ACDBBLOCKREPETAG
1070
     1
1071
       12
1005
12AB88
  0
ARC
  5
12AB89
  8
OBJECT
 10
1986.8376610706509
 20
-225.5978773169509
 30
0.0
 40
9.0
 50
73.001272229706771
 51
154.05026392593041
1001
ACDBBLOCKREPETAG
1070
     1
1071
       13
1005
12AB89
  0
ARC
  5
12AB8A
  8
OBJECT
 10
1896.3142301315529
 20
-147.28130031148149
 30
0.0
 40
150.0
 50
322.89503374001202
 51
325.8931499697137
1001
ACDBBLOCKREPETAG
1070
     1
1071
       14
1005
12AB8A
  0
ARC
  5
12AB8B
  8
OBJECT
 10
2000.0
 20
-199.99999999999909
 30
0.0
 40
37.5
 50
303.16276667667131
 51
229.1635024908278
1001
ACDBBLOCKREPETAG
1070
     1
1071
       15
1005
12AB8B
  0
LINE
  5
12AB8C
  8
OBJECT
 10
1983.608514518975
 20
-221.38045100897119
 30
0.0
 11
1977.3740110000001
 21
-234.1915870000002
 31
0.0
1001
ACDBBLOCKREPETAG
1070
     1
1071
       16
1005
12AB8C
  0
LINE
  5
12AB8D
  8
OBJECT
 10
1978.745056634463
 20
-221.65963488670511
 30
0.0
 11
1973.898671999998
 21
-231.6183599999996
 31
0.0
1001
ACDBBLOCKREPETAG
1070
     1
1071
       17
1005
12AB8D
  0
LINE
  5
12AB8E
  8
OBJECT
 10
2018.938018000001
 20
-226.00000000000091
 30
0.0
 11
1989.468815303258
 21
-216.99107608744359
 31
0.0
1001
ACDBBLOCKREPETAG
1070
     1
1071
       18
1005
12AB8E
  0
LINE
  5
12AB8F
  8
OBJECT
 10
2020.5132253090051
 20
-231.39199878029191
 30
0.0
 11
2018.938018000001
 21
-226.00000000000091
 31
0.0
1001
ACDBBLOCKREPETAG
1070
     1
1071
       19
1005
12AB8F
  0
LINE
  5
12AB90
  8
OBJECT
 10
1954.038059222873
 20
-245.96194077712471
 30
0.0
 11
1938.0
 21
-261.99999999999909
 31
0.0
1001
ACDBBLOCKREPETAG
1070
     1
1071
       42
1005
12AB90
  0
LINE
  5
12AB91
  8
OBJECT
 10
2045.9619407771261
 20
-245.96194077712471
 30
0.0
 11
2062.0
 21
-261.99999999999909
 31
0.0
1001
ACDBBLOCKREPETAG
1070
     1
1071
       43
1005
12AB91
  0
TEXT
  5
12AB92
  8
SLIM
 10
1837.75
 20
282.50000000000011
 30
0.0
 40
35.0
  1
（枝管サイズ毎に寸法が異なります。管底の位置は全サイズで同じです）
 41
0.75
  0
TEXT
  5
12AB93
  8
SLIM
 10
1850.0
 20
532.5
 30
0.0
 40
75.0
  1
側面図の代表機種
 41
0.75
  0
TEXT
  5
12AB94
  8
SLIM
 10
1850.0
 20
369.99999999999989
 30
0.0
 40
100.0
  1
3SL-B101
 41
0.75
  0
LINE
  5
12AB95
  8
OBJECT
 10
2123.0
 20
-663.99999999999966
 30
0.0
 11
2130.0
 21
-663.99999999999966
 31
0.0
1001
ACDBBLOCKREPETAG
1070
     1
1071
        7
1005
12AB95
  0
LINE
  5
12AB96
  8
OBJECT
 10
2130.0
 20
-663.99999999999966
 30
0.0
 11
2130.0
 21
-754.99999999999955
 31
0.0
1001
ACDBBLOCKREPETAG
1070
     1
1071
        8
1005
12AB96
  0
LINE
  5
12AB97
  8
OBJECT
 10
2123.0
 20
-754.99999999999955
 30
0.0
 11
2123.0
 21
-663.99999999999966
 31
0.0
1001
ACDBBLOCKREPETAG
1070
     1
1071
        9
1005
12AB97
  0
LINE
  5
12AB98
  8
CENTER
 10
2145.0
 20
-710.99999999999955
 30
0.0
 11
2061.0
 21
-710.99999999999955
 31
0.0
1001
ACDBBLOCKREPETAG
1070
     1
1071
       10
1005
12AB98
  0
LINE
  5
12AB99
  8
OBJECT
 10
2123.0
 20
-666.99999999999955
 30
0.0
 11
2087.0
 21
-666.99999999999955
 31
0.0
1001
ACDBBLOCKREPETAG
1070
     1
1071
       11
1005
12AB99
  0
LINE
  5
12AB9A
  8
OBJECT
 10
2087.0
 20
-666.99999999999955
 30
0.0
 11
2087.0
 21
-754.99999999999955
 31
0.0
1001
ACDBBLOCKREPETAG
1070
     1
1071
       12
1005
12AB9A
  0
LINE
  5
12AB9B
  8
OBJECT
 10
2087.0
 20
-754.99999999999955
 30
0.0
 11
2130.0
 21
-754.99999999999955
 31
0.0
1001
ACDBBLOCKREPETAG
1070
     1
1071
       13
1005
12AB9B
  0
LINE
  5
12AB9C
  8
OBJECT
 10
2083.0
 20
-671.49999999999955
 30
0.0
 11
2076.0
 21
-671.49999999999955
 31
0.0
1001
ACDBBLOCKREPETAG
1070
     1
1071
       14
1005
12AB9C
  0
LINE
  5
12AB9D
  8
OBJECT
 10
2076.0
 20
-750.49999999999955
 30
0.0
 11
2083.0
 21
-750.49999999999955
 31
0.0
1001
ACDBBLOCKREPETAG
1070
     1
1071
       15
1005
12AB9D
  0
LINE
  5
12AB9E
  8
OBJECT
 10
2083.0
 20
-750.49999999999955
 30
0.0
 11
2083.0
 21
-671.49999999999955
 31
0.0
1001
ACDBBLOCKREPETAG
1070
     1
1071
       16
1005
12AB9E
  0
LINE
  5
12AB9F
  8
OBJECT
 10
2087.0
 20
-666.99999999999955
 30
0.0
 11
2083.0
 21
-671.49999999999955
 31
0.0
1001
ACDBBLOCKREPETAG
1070
     1
1071
       17
1005
12AB9F
  0
LINE
  5
12ABA0
  8
OBJECT
 10
2087.0
 20
-754.99999999999955
 30
0.0
 11
2083.0
 21
-750.49999999999955
 31
0.0
1001
ACDBBLOCKREPETAG
1070
     1
1071
       18
1005
12ABA0
  0
LINE
  5
12ABA1
  8
OBJECT
 10
2073.0
 20
-633.99999999999955
 30
0.0
 11
2070.0
 21
-633.99999999999955
 31
0.0
1001
ACDBBLOCKREPETAG
1070
     1
1071
       19
1005
12ABA1
  0
ARC
  5
12ABA2
  8
OBJECT
 10
2073.0
 20
-636.99999999999955
 30
0.0
 40
3.0
 50
0.0
 51
90.0
1001
ACDBBLOCKREPETAG
1070
     1
1071
       20
1005
12ABA2
  0
LINE
  5
12ABA3
  8
OBJECT
 10
2070.0
 20
-757.99999999999955
 30
0.0
 11
2073.0
 21
-757.99999999999955
 31
0.0
1001
ACDBBLOCKREPETAG
1070
     1
1071
       21
1005
12ABA3
  0
ARC
  5
12ABA4
  8
OBJECT
 10
2073.0
 20
-754.99999999999955
 30
0.0
 40
3.0
 50
270.0
 51
0.0
1001
ACDBBLOCKREPETAG
1070
     1
1071
       22
1005
12ABA4
  0
LINE
  5
12ABA5
  8
OBJECT
 10
2076.0
 20
-754.99999999999955
 30
0.0
 11
2076.0
 21
-636.99999999999955
 31
0.0
1001
ACDBBLOCKREPETAG
1070
     1
1071
       23
1005
12ABA5
  0
LINE
  5
12ABA6
  8
HIDDEN
 10
2078.0
 20
-680.99999999999955
 30
0.0
 11
2078.0
 21
-740.99999999999955
 31
0.0
1001
ACDBBLOCKREPETAG
1070
     1
1071
       24
1005
12ABA6
  0
LINE
  5
12ABA7
  8
OBJECT
 10
2123.0
 20
-152.99999999999909
 30
0.0
 11
2130.0
 21
-152.99999999999909
 31
0.0
1001
ACDBBLOCKREPETAG
1070
     1
1071
        7
1005
12ABA7
  0
LINE
  5
12ABA8
  8
OBJECT
 10
2130.0
 20
-152.99999999999909
 30
0.0
 11
2130.0
 21
-246.99999999999909
 31
0.0
1001
ACDBBLOCKREPETAG
1070
     1
1071
        8
1005
12ABA8
  0
LINE
  5
12ABA9
  8
OBJECT
 10
2130.0
 20
-246.99999999999909
 30
0.0
 11
2123.0
 21
-246.99999999999909
 31
0.0
1001
ACDBBLOCKREPETAG
1070
     1
1071
        9
1005
12ABA9
  0
LINE
  5
12ABAA
  8
OBJECT
 10
2123.0
 20
-246.99999999999909
 30
0.0
 11
2123.0
 21
-152.99999999999909
 31
0.0
1001
ACDBBLOCKREPETAG
1070
     1
1071
       10
1005
12ABAA
  0
LINE
  5
12ABAB
  8
CENTER
 10
2145.0
 20
-199.99999999999909
 30
0.0
 11
2070.0
 21
-199.99999999999909
 31
0.0
1001
ACDBBLOCKREPETAG
1070
     1
1071
       11
1005
12ABAB
  0
LINE
  5
12ABAC
  8
OBJECT
 10
2123.0
 20
-155.99999999999909
 30
0.0
 11
2087.0
 21
-155.99999999999909
 31
0.0
1001
ACDBBLOCKREPETAG
1070
     1
1071
       12
1005
12ABAC
  0
LINE
  5
12ABAD
  8
OBJECT
 10
2087.0
 20
-155.99999999999909
 30
0.0
 11
2087.0
 21
-243.99999999999909
 31
0.0
1001
ACDBBLOCKREPETAG
1070
     1
1071
       13
1005
12ABAD
  0
LINE
  5
12ABAE
  8
OBJECT
 10
2087.0
 20
-243.99999999999909
 30
0.0
 11
2123.0
 21
-243.99999999999909
 31
0.0
1001
ACDBBLOCKREPETAG
1070
     1
1071
       14
1005
12ABAE
  0
LINE
  5
12ABAF
  8
OBJECT
 10
2083.0
 20
-160.49999999999909
 30
0.0
 11
2076.0
 21
-160.49999999999909
 31
0.0
1001
ACDBBLOCKREPETAG
1070
     1
1071
       15
1005
12ABAF
  0
LINE
  5
12ABB0
  8
OBJECT
 10
2076.0
 20
-239.49999999999909
 30
0.0
 11
2083.0
 21
-239.49999999999909
 31
0.0
1001
ACDBBLOCKREPETAG
1070
     1
1071
       16
1005
12ABB0
  0
LINE
  5
12ABB1
  8
OBJECT
 10
2083.0
 20
-239.49999999999909
 30
0.0
 11
2083.0
 21
-160.49999999999909
 31
0.0
1001
ACDBBLOCKREPETAG
1070
     1
1071
       17
1005
12ABB1
  0
LINE
  5
12ABB2
  8
OBJECT
 10
2087.0
 20
-155.99999999999909
 30
0.0
 11
2083.0
 21
-160.49999999999909
 31
0.0
1001
ACDBBLOCKREPETAG
1070
     1
1071
       18
1005
12ABB2
  0
LINE
  5
12ABB3
  8
OBJECT
 10
2087.0
 20
-243.99999999999909
 30
0.0
 11
2083.0
 21
-239.49999999999909
 31
0.0
1001
ACDBBLOCKREPETAG
1070
     1
1071
       19
1005
12ABB3
  0
LINE
  5
12ABB4
  8
OBJECT
 10
2073.0
 20
-137.99999999999909
 30
0.0
 11
2070.0
 21
-137.99999999999909
 31
0.0
1001
ACDBBLOCKREPETAG
1070
     1
1071
       20
1005
12ABB4
  0
ARC
  5
12ABB5
  8
OBJECT
 10
2073.0
 20
-140.99999999999909
 30
0.0
 40
3.0
 50
0.0
 51
90.0
1001
ACDBBLOCKREPETAG
1070
     1
1071
       21
1005
12ABB5
  0
LINE
  5
12ABB6
  8
OBJECT
 10
2070.0
 20
-261.99999999999909
 30
0.0
 11
2073.0
 21
-261.99999999999909
 31
0.0
1001
ACDBBLOCKREPETAG
1070
     1
1071
       22
1005
12ABB6
  0
ARC
  5
12ABB7
  8
OBJECT
 10
2073.0
 20
-258.99999999999909
 30
0.0
 40
3.0
 50
270.0
 51
0.0
1001
ACDBBLOCKREPETAG
1070
     1
1071
       23
1005
12ABB7
  0
LINE
  5
12ABB8
  8
OBJECT
 10
2076.0
 20
-258.99999999999909
 30
0.0
 11
2076.0
 21
-140.99999999999909
 31
0.0
1001
ACDBBLOCKREPETAG
1070
     1
1071
       24
1005
12ABB8
  0
LINE
  5
12ABB9
  8
HIDDEN
 10
2078.0
 20
-169.99999999999909
 30
0.0
 11
2078.0
 21
-229.99999999999909
 31
0.0
1001
ACDBBLOCKREPETAG
1070
     1
1071
       25
1005
12ABB9
  0
TEXT
  5
12ABBA
  8
SLIM
 10
0.0
 20
667.19448474768467
 30
0.0
 40
100.0
  1
3SL-BX0X-S
 41
0.75
  0
TEXT
  5
12ABBB
  8
SLIM
 10
0.0
 20
517.19448474768467
 30
0.0
 40
100.0
  1
3SL-BX0X-W
 41
0.75
  0
TEXT
  5
12ABBC
  8
SLIM
 10
0.0000035665234464
 20
24.000004585317601
 30
0.0
 40
79.999999999972701
  1
枝管バリエーション
 41
0.75
1001
ACDBBLOCKREPETAG
1070
     1
1071
      119
1005
F48AB
  0
TEXT
  5
12ABBD
  8
SLIM
 10
3853.75
 20
-1621.4999999999959
 30
0.0
 40
35.0
  1
両受けスタイル（W）
 41
0.75
  0
TEXT
  5
12ABBE
  8
SLIM
 10
5811.8000000000002
 20
-1718.9999999999991
 30
0.0
 40
28.0
  1
※ 対応スラブ厚　150mm以上
 41
0.75
  0
TEXT
  5
12ABBF
  8
SLIM
 10
5598.8999999999996
 20
-1812.333333333333
 30
0.0
 40
28.0
  1
国土交通大臣認定・（一財）日本消防設備安全センター性能評定取得品
 41
0.75
  0
TEXT
  5
12ABC0
  8
SLIM
 10
5631.1000000000004
 20
-1858.9999999999991
 30
0.0
 40
28.0
  1
注）ご採用にあたり、認定書及び評定書の内容をご確認ください。
 41
0.75
  0
TEXT
  5
12ABC1
  8
SLIM
 10
11824.6
 20
-1677.9999999999959
 30
0.0
 40
28.0
  1
※ 対応スラブ厚　150～260
 41
0.75
  0
TEXT
  5
12ABC2
  8
SLIM
 10
11598.9
 20
-1771.3333333333289
 30
0.0
 40
28.0
  1
国土交通大臣認定・（一財）日本消防設備安全センター性能評定取得品
 41
0.75
  0
TEXT
  5
12ABC3
  8
SLIM
 10
11631.1
 20
-1817.9999999999959
 30
0.0
 40
28.0
  1
注）ご採用にあたり、認定書及び評定書の内容をご確認ください。
 41
0.75
  0
TEXT
  5
12ABC4
  8
SLIM
 10
9824.6000000000004
 20
-1677.9999999999959
 30
0.0
 40
28.0
  1
※ 対応スラブ厚　180～260
 41
0.75
  0
TEXT
  5
12ABC5
  8
SLIM
 10
9598.8999999999996
 20
-1771.3333333333289
 30
0.0
 40
28.0
  1
国土交通大臣認定・（一財）日本消防設備安全センター性能評定取得品
 41
0.75
  0
TEXT
  5
12ABC6
  8
SLIM
 10
9631.1000000000004
 20
-1817.9999999999959
 30
0.0
 40
28.0
  1
注）ご採用にあたり、認定書及び評定書の内容をご確認ください。
 41
0.75
  0
TEXT
  5
12ABC7
  8
SLIM
 10
9739.1250000000018
 20
-1621.4999999999959
 30
0.0
 40
35.0
  1
両受けスタイル（W）＋シンドカット
 41
0.75
  0
TEXT
  5
12ABC8
  8
SLIM
 10
11743.5
 20
-1621.4999999999959
 30
0.0
 40
35.0
  1
カンペイ君（WKP）＋シンドカット
 41
0.75
  0
TEXT
  5
12ABC9
  8
SLIM
 10
7741.625
 20
-1347.499999999998
 30
0.0
 40
35.0
  1
片受けスタイル（S）＋シンドカット
 41
0.75
  0
TEXT
  5
12ABCA
  8
SLIM
 10
5858.1250000000009
 20
-1662.4999999999991
 30
0.0
 40
35.0
  1
カンペイ君（WKP）
 41
0.75
  0
TEXT
  5
12ABCB
  8
SLIM
 10
1856.25
 20
-1347.499999999998
 30
0.0
 40
35.0
  1
片受けスタイル（S）
 41
0.75
  0
TEXT
  5
12ABCC
  8
SLIM
 10
0.0
 20
367.19448474768478
 30
0.0
 40
100.0
  1
3SL-BX0X-WKP
 41
0.75
  0
VIEWPORT
  5
F6BA7
 67
     1
  8
0
 10
145.33033752441401
 20
101.8328354358673
 30
0.0
 40
334.0025019414623
 41
222.19657968139651
 68
     1
 69
     1
1001
ACAD
1000
MVIEW
1002
{
1070
    16
1010
0.0
1020
0.0
1030
0.0
1010
0.0
1020
0.0
1030
1.0
1040
0.0
1040
222.19657968139651
1040
145.33033752441401
1040
101.8328354358673
1040
50.0
1040
0.0
1040
0.0
1070
     0
1070
     0
1070
     1
1070
     1
1070
     0
1070
     0
1070
     0
1070
     0
1040
0.0
1040
0.0
1040
0.0
1040
10.0
1040
10.0
1040
10.0
1040
10.0
1070
     0
1002
{
1002
}
1002
}
  0
VIEWPORT
  5
F6BA9
 67
     1
  8
OBJECT
 10
145.3303314447403
 20
101.8328338861465
 30
0.0
 40
232.5285303115844
 41
162.93253421783439
 68
     2
 69
     2
1001
ACAD
1000
MVIEW
1002
{
1070
    16
1010
0.0
1020
0.0
1030
0.0
1010
0.0
1020
0.0
1030
1.0
1040
0.0
1040
25942.55904403147
1040
2377.604457077377
1040
-7591.5176687056619
1040
50.0
1040
0.0
1040
0.0
1070
     0
1070
   600
1070
     1
1070
     1
1070
     0
1070
     0
1070
     0
1070
     0
1040
0.0
1040
0.0
1040
0.0
1040
1.0
1040
1.0
1040
0.0
1040
0.0
1070
     0
1002
{
1002
}
1002
}
  0
ENDSEC
  0
EOF
