  0
SECTION
  2
HEADER
  9
$ACADVER
  1
AC1009
  9
$INSBASE
 10
0.0
 20
0.0
 30
0.0
  9
$EXTMIN
 10
-0.0000000000000089
 20
-3697.4999999999968
 30
0.0
  9
$EXTMAX
 10
12399.70000000001
 20
767.19448474768467
 30
0.0
  9
$LIMMIN
 10
0.0
 20
0.0
  9
$LIMMAX
 10
210.0
 20
297.0
  9
$ORTHOMODE
 70
     0
  9
$REGENMODE
 70
     1
  9
$FILLMODE
 70
     1
  9
$QTEXTMODE
 70
     0
  9
$MIRRTEXT
 70
     0
  9
$DRAGMODE
 70
     2
  9
$LTSCALE
 40
1.0
  9
$OSMODE
 70
  2429
  9
$ATTMODE
 70
     1
  9
$TEXTSIZE
 40
4.0
  9
$TRACEWID
 40
0.05
  9
$TEXTSTYLE
  7
STANDARD
  9
$CLAYER
  8
OBJECT
  9
$CELTYPE
  6
BYLAYER
  9
$CECOLOR
 62
   256
  9
$DIMSCALE
 40
10.0
  9
$DIMASZ
 40
2.0
  9
$DIMEXO
 40
1.0
  9
$DIMDLI
 40
10.0
  9
$DIMRND
 40
0.0
  9
$DIMDLE
 40
0.0
  9
$DIMEXE
 40
1.0
  9
$DIMTP
 40
0.0
  9
$DIMTM
 40
0.0
  9
$DIMTXT
 40
3.2000000000000002
  9
$DIMCEN
 40
0.0
  9
$DIMTSZ
 40
0.0
  9
$DIMTOL
 70
     0
  9
$DIMLIM
 70
     0
  9
$DIMTIH
 70
     0
  9
$DIMTOH
 70
     0
  9
$DIMSE1
 70
     0
  9
$DIMSE2
 70
     0
  9
$DIMTAD
 70
     1
  9
$DIMZIN
 70
     8
  9
$DIMBLK
  1
OPEN30
  9
$DIMASO
 70
     1
  9
$DIMSHO
 70
     1
  9
$DIMPOST
  1

  9
$DIMAPOST
  1

  9
$DIMALT
 70
     0
  9
$DIMALTD
 70
     2
  9
$DIMALTF
 40
25.399999999999999
  9
$DIMLFAC
 40
1.0
  9
$DIMTOFL
 70
     1
  9
$DIMTVP
 40
0.0
  9
$DIMTIX
 70
     0
  9
$DIMSOXD
 70
     0
  9
$DIMSAH
 70
     0
  9
$DIMBLK1
  1

  9
$DIMBLK2
  1

  9
$DIMSTYLE
  2
S10
  9
$DIMCLRD
 70
   256
  9
$DIMCLRE
 70
   256
  9
$DIMCLRT
 70
   256
  9
$DIMTFAC
 40
1.0
  9
$DIMGAP
 40
0.9
  9
$LUNITS
 70
     2
  9
$LUPREC
 70
     2
  9
$SKETCHINC
 40
0.1
  9
$FILLETRAD
 40
0.0
  9
$AUNITS
 70
     0
  9
$AUPREC
 70
     2
  9
$MENU
  1
ACAD
  9
$ELEVATION
 40
0.0
  9
$PELEVATION
 40
0.0
  9
$THICKNESS
 40
0.0
  9
$LIMCHECK
 70
     0
  9
$BLIPMODE
 70
     0
  9
$CHAMFERA
 40
2.0
  9
$CHAMFERB
 40
2.0
  9
$SKPOLY
 70
     0
  9
$TDCREATE
 40
2453095.4929404748
  9
$TDUPDATE
 40
2457233.6299679861
  9
$TDINDWG
 40
18.677032129600001
  9
$TDUSRTIMER
 40
18.677031493099999
  9
$USRTIMER
 70
     1
  9
$ANGBASE
 50
0.0
  9
$ANGDIR
 70
     0
  9
$PDMODE
 70
    35
  9
$PDSIZE
 40
2.0
  9
$PLINEWID
 40
0.0
  9
$COORDS
 70
     0
  9
$SPLFRAME
 70
     0
  9
$SPLINETYPE
 70
     6
  9
$SPLINESEGS
 70
     8
  9
$ATTDIA
 70
     0
  9
$ATTREQ
 70
     1
  9
$HANDLING
 70
     1
  9
$HANDSEED
  5
12934A
  9
$SURFTAB1
 70
     6
  9
$SURFTAB2
 70
     6
  9
$SURFTYPE
 70
     6
  9
$SURFU
 70
     6
  9
$SURFV
 70
     6
  9
$UCSNAME
  2

  9
$UCSORG
 10
0.0
 20
0.0
 30
0.0
  9
$UCSXDIR
 10
1.0
 20
0.0
 30
0.0
  9
$UCSYDIR
 10
0.0
 20
1.0
 30
0.0
  9
$PUCSNAME
  2

  9
$PUCSORG
 10
0.0
 20
0.0
 30
0.0
  9
$PUCSXDIR
 10
1.0
 20
0.0
 30
0.0
  9
$PUCSYDIR
 10
0.0
 20
1.0
 30
0.0
  9
$USERI1
 70
     0
  9
$USERI2
 70
     0
  9
$USERI3
 70
     0
  9
$USERI4
 70
     0
  9
$USERI5
 70
     0
  9
$USERR1
 40
0.0
  9
$USERR2
 40
0.0
  9
$USERR3
 40
0.0
  9
$USERR4
 40
0.0
  9
$USERR5
 40
0.0
  9
$WORLDVIEW
 70
     1
  9
$SHADEDGE
 70
     3
  9
$SHADEDIF
 70
    70
  9
$TILEMODE
 70
     1
  9
$MAXACTVP
 70
    64
  9
$PLIMCHECK
 70
     0
  9
$PEXTMIN
 10
29.066066288948051
 20
20.366566777229309
 30
0.0
  9
$PEXTMAX
 10
261.5945966005325
 20
183.29910099506381
 30
0.0
  9
$PLIMMIN
 10
-3.17498779296875
 20
-3.1749999523162842
  9
$PLIMMAX
 10
293.83566284179687
 20
206.8406708240509
  9
$UNITMODE
 70
     0
  9
$VISRETAIN
 70
     1
  9
$PLINEGEN
 70
     0
  9
$PSLTSCALE
 70
     1
  0
ENDSEC
  0
SECTION
  2
TABLES
  0
TABLE
  2
VPORT
 70
     1
  0
VPORT
  2
*ACTIVE
 70
     0
 10
0.0
 20
0.0
 11
1.0
 21
1.0
 12
3073.2123098522729
 22
-944.23680829528143
 13
0.0
 23
0.0
 14
1.0
 24
1.0
 15
0.0
 25
0.0
 16
0.0
 26
0.0
 36
1.0
 17
0.0
 27
0.0
 37
0.0
 40
2604.3270741498131
 41
1.6494178525226391
 42
50.0
 43
0.0
 44
0.0
 50
0.0
 51
0.0
 71
     0
 72
   600
 73
     1
 74
     1
 75
     0
 76
     0
 77
     0
 78
     0
  0
ENDTAB
  0
TABLE
  2
LTYPE
 70
     4
  0
LTYPE
  2
CONTINUOUS
 70
     0
  3
Solid line
 72
    65
 73
     0
 40
0.0
  0
LTYPE
  2
PHANTOM2
 70
     0
  3
___ _ _ ___ _ _ ___ _ _ ___ _ _
 72
    65
 73
     6
 40
1.25
 49
0.625
 49
-0.125
 49
0.125
 49
-0.125
 49
0.125
 49
-0.125
  0
LTYPE
  2
ACAD_ISO08W100
 70
     0
  3
ISO long-dash short-dash ____ __ ____ __ ____ _
 72
    65
 73
     4
 40
36.0
 49
24.0
 49
-3.0
 49
6.0
 49
-3.0
  0
LTYPE
  2
ACAD_ISO02W100
 70
     0
  3
ISO dash __ __ __ __ __ __ __ __ __ __ __ __ __
 72
    65
 73
     2
 40
15.0
 49
12.0
 49
-3.0
  0
ENDTAB
  0
TABLE
  2
LAYER
 70
     8
  0
LAYER
  2
0
 70
     0
 62
     7
  6
CONTINUOUS
  0
LAYER
  2
OBJECT
 70
     0
 62
     4
  6
CONTINUOUS
  0
LAYER
  2
DEFPOINTS
 70
     0
 62
     7
  6
CONTINUOUS
  0
LAYER
  2
DIM
 70
     0
 62
     7
  6
CONTINUOUS
  0
LAYER
  2
HIDDEN
 70
     0
 62
     2
  6
ACAD_ISO02W100
  0
LAYER
  2
CENTER
 70
     0
 62
     2
  6
ACAD_ISO08W100
  0
LAYER
  2
DOTS
 70
     0
 62
     1
  6
CONTINUOUS
  0
LAYER
  2
SLIM
 70
     0
 62
     2
  6
CONTINUOUS
  0
ENDTAB
  0
TABLE
  2
STYLE
 70
     2
  0
STYLE
  2
STANDARD
 70
     0
 40
0.0
 41
0.75
 50
0.0
 71
     0
 42
4.0
  3
simplex.shx
  4
bigfont.shx
  0
ENDTAB
  0
TABLE
  2
VIEW
 70
     0
  0
ENDTAB
  0
TABLE
  2
UCS
 70
     0
  0
ENDTAB
  0
TABLE
  2
APPID
 70
    18
  0
APPID
  2
ACAD
 70
     0
  0
APPID
  2
ACADANNOTATIVE
 70
     0
  0
APPID
  2
ACAD_PSEXT
 70
     0
  0
APPID
  2
ACAD_EXEMPT_FROM_CAD_STANDARDS
 70
     0
  0
APPID
  2
ACAECLAYERSTANDARD
 70
     0
  0
APPID
  2
ACAUTHENVIRON
 70
     0
  0
APPID
  2
ACDBDYNAMICBLOCKTRUENAME
 70
     0
  0
APPID
  2
ACDBDYNAMICBLOCKGUID
 70
     0
  0
APPID
  2
ACDBBLOCKREPETAG
 70
     0
  0
APPID
  2
ACDBBLOCKREPBTAG
 70
     0
  0
APPID
  2
ACAD_NAV_VCDISPLAY
 70
     0
  0
APPID
  2
ACAD_DSTYLE_DIMRADIAL_EXTENSION
 70
     0
  0
APPID
  2
ACAD_DSTYLE_DIMJAG
 70
     0
  0
APPID
  2
ACAD_DSTYLE_DIMTALN
 70
     0
  0
APPID
  2
ACADANNOPO
 70
     0
  0
APPID
  2
GRADIENTCOLOR1ACI
 70
     0
  0
APPID
  2
GRADIENTCOLOR2ACI
 70
     0
  0
APPID
  2
ACAD_MLEADERVER
 70
     0
  0
ENDTAB
  0
TABLE
  2
DIMSTYLE
 70
     3
  0
DIMSTYLE
  2
STANDARD
 70
     0
  3

  4

  5

  6

  7

 40
1.0
 41
0.18
 42
0.0625
 43
0.38
 44
0.18
 45
0.0
 46
0.0
 47
0.0
 48
0.0
140
0.18
141
0.09
142
0.0
143
25.399999999999999
144
1.0
145
0.0
146
1.0
147
0.09
 71
     0
 72
     0
 73
     1
 74
     1
 75
     0
 76
     0
 77
     0
 78
     0
170
     0
171
     2
172
     0
173
     0
174
     0
175
     0
176
     0
177
     0
178
     0
  0
DIMSTYLE
  2
S10
 70
     0
  3

  4

  5

  6

  7

 40
10.0
 41
2.0
 42
1.0
 43
10.0
 44
1.0
 45
0.0
 46
0.0
 47
0.0
 48
0.0
140
3.2000000000000002
141
0.0
142
0.0
143
25.399999999999999
144
1.0
145
0.0
146
1.0
147
0.9
 71
     0
 72
     0
 73
     0
 74
     0
 75
     0
 76
     0
 77
     1
 78
     8
170
     0
171
     2
172
     1
173
     0
174
     0
175
     0
176
   256
177
   256
178
   256
  0
ENDTAB
  0
ENDSEC
  0
SECTION
  2
BLOCKS
  0
BLOCK
  8
0
  2
$MODEL_SPACE
 70
     0
 10
0.0
 20
0.0
 30
0.0
  3
$MODEL_SPACE
  1

  0
ENDBLK
  5
129245
  8
0
  0
BLOCK
 67
     1
  8
0
  2
$PAPER_SPACE
 70
     0
 10
0.0
 20
0.0
 30
0.0
  3
$PAPER_SPACE
  1

  0
ENDBLK
  5
129241
 67
     1
  8
0
  0
BLOCK
  8
0
  2
_OPEN30
 70
     0
 10
0.0
 20
0.0
 30
0.0
  3
_OPEN30
  1

  0
LINE
  5
202
  8
0
  6
BYBLOCK
 62
     0
 10
-1.0
 20
0.26794919
 30
0.0
 11
0.0
 21
0.0
 31
0.0
  0
LINE
  5
203
  8
0
  6
BYBLOCK
 62
     0
 10
0.0
 20
0.0
 30
0.0
 11
-1.0
 21
-0.26794919
 31
0.0
  0
LINE
  5
204
  8
0
  6
BYBLOCK
 62
     0
 10
0.0
 20
0.0
 30
0.0
 11
-1.0
 21
0.0
 31
0.0
  0
ENDBLK
  5
206
  8
0
  0
BLOCK
  8
0
  2
*U3
 70
     1
 10
0.0
 20
0.0
 30
0.0
  3
*U3
  1

  0
TEXT
  5
129141
  8
SLIM
 10
608.0
 20
-662.9523809523813
 30
0.0
 40
26.0
  1
65
 50
270.0
  0
ENDBLK
  5
129143
  8
0
  0
BLOCK
  8
0
  2
*U4
 70
     1
 10
0.0
 20
0.0
 30
0.0
  3
*U4
  1

  0
TEXT
  5
129145
  8
SLIM
 10
494.95238095238079
 20
-591.99999999999829
 30
0.0
 40
26.0
  1
65
  0
ENDBLK
  5
129147
  8
0
  0
BLOCK
  8
0
  2
*U5
 70
     1
 10
0.0
 20
0.0
 30
0.0
  3
*U5
  1

  0
TEXT
  5
129149
  8
SLIM
 10
248.0
 20
-662.9523809523813
 30
0.0
 40
26.0
  1
50
 50
270.0
  0
ENDBLK
  5
12914B
  8
0
  0
BLOCK
  8
0
  2
*U6
 70
     1
 10
0.0
 20
0.0
 30
0.0
  3
*U6
  1

  0
TEXT
  5
12914D
  8
SLIM
 10
134.95238095238091
 20
-591.99999999999829
 30
0.0
 40
26.0
  1
65
  0
ENDBLK
  5
12914F
  8
0
  0
BLOCK
  8
0
  2
*U7
 70
     1
 10
0.0
 20
0.0
 30
0.0
  3
*U7
  1

  0
TEXT
  5
129151
  8
SLIM
 10
608.0
 20
-198.95238095238091
 30
0.0
 40
26.0
  1
65
 50
270.0
  0
ENDBLK
  5
129153
  8
0
  0
BLOCK
  8
0
  2
*U8
 70
     1
 10
0.0
 20
0.0
 30
0.0
  3
*U8
  1

  0
TEXT
  5
129155
  8
SLIM
 10
494.95238095238079
 20
-127.9999999999982
 30
0.0
 40
26.0
  1
50
  0
ENDBLK
  5
129157
  8
0
  0
BLOCK
  8
0
  2
*U9
 70
     1
 10
0.0
 20
0.0
 30
0.0
  3
*U9
  1

  0
TEXT
  5
129159
  8
SLIM
 10
248.0
 20
-198.95238095238091
 30
0.0
 40
26.0
  1
50
 50
270.0
  0
ENDBLK
  5
12915B
  8
0
  0
BLOCK
  8
0
  2
*U10
 70
     1
 10
0.0
 20
0.0
 30
0.0
  3
*U10
  1

  0
TEXT
  5
12915D
  8
SLIM
 10
134.95238095238091
 20
-127.9999999999982
 30
0.0
 40
26.0
  1
50
  0
ENDBLK
  5
12915F
  8
0
  0
BLOCK
  8
0
  2
*U11
 70
     1
 10
0.0
 20
0.0
 30
0.0
  3
*U11
  1

  0
TEXT
  5
1291C9
  8
DIM
 10
2199.479620594459
 20
-3184.1428571428528
 30
0.0
 40
32.0
  1
A
 50
90.0
 41
0.75
  0
ENDBLK
  5
1291CB
  8
0
  0
BLOCK
  8
0
  2
*U12
 70
     1
 10
0.0
 20
0.0
 30
0.0
  3
*U12
  1

  0
TEXT
  5
1291CD
  8
DIM
 10
2197.840928403733
 20
-3565.9999999999959
 30
0.0
 40
32.0
  1
B
 50
90.0
 41
0.75
  0
ENDBLK
  5
1291CF
  8
0
  0
BLOCK
  8
0
  2
*U13
 70
     1
 10
0.0
 20
0.0
 30
0.0
  3
*U13
  1

  0
TEXT
  5
1291D1
  8
DIM
 10
2056.4285714285711
 20
-3048.2081219844449
 30
0.0
 40
32.0
  1
C
 41
0.75
  0
ENDBLK
  5
1291D3
  8
0
  0
ENDSEC
  0
SECTION
  2
ENTITIES
  0
LINE
  5
11E11D
  8
OBJECT
 10
1825.0
 20
-3579.9999999999959
 30
0.0
 11
3575.0
 21
-3579.9999999999959
 31
0.0
  0
LINE
  5
11E11F
  8
SLIM
 10
2616.0
 20
-2637.50001604727
 30
0.0
 11
2616.0
 21
-2967.50001604727
 31
0.0
  0
LINE
  5
11E120
  8
SLIM
 10
2740.0
 20
-2637.50001604727
 30
0.0
 11
2740.0
 21
-2967.50001604727
 31
0.0
  0
LINE
  5
11E121
  8
SLIM
 10
2870.0
 20
-2697.50001604727
 30
0.0
 11
2870.0
 21
-2967.50001604727
 31
0.0
  0
LINE
  5
11E122
  8
SLIM
 10
3000.0
 20
-2637.50001604727
 30
0.0
 11
3000.0
 21
-2967.50001604727
 31
0.0
  0
LINE
  5
11E125
  8
SLIM
 10
3000.0
 20
-2637.50001604727
 30
0.0
 11
2616.0
 21
-2637.50001604727
 31
0.0
  0
LINE
  5
11E126
  8
SLIM
 10
3000.0
 20
-2697.50001604727
 30
0.0
 11
2740.0
 21
-2697.50001604727
 31
0.0
  0
LINE
  5
11E127
  8
SLIM
 10
3000.0
 20
-2757.50001604727
 30
0.0
 11
2616.0
 21
-2757.50001604727
 31
0.0
  0
LINE
  5
11E128
  8
SLIM
 10
3000.0
 20
-2827.50001604727
 30
0.0
 11
2616.0
 21
-2827.50001604727
 31
0.0
  0
LINE
  5
11E129
  8
SLIM
 10
3000.0
 20
-2897.50001604727
 30
0.0
 11
2616.0
 21
-2897.50001604727
 31
0.0
  0
LINE
  5
11E12A
  8
SLIM
 10
3000.0
 20
-2967.50001604727
 30
0.0
 11
2616.0
 21
-2967.50001604727
 31
0.0
  0
LINE
  5
11E13F
  8
SLIM
 10
2740.0
 20
-2757.50001604727
 30
0.0
 11
2615.9999722746579
 21
-2637.5
 31
0.0
  0
LINE
  5
128A42
  8
OBJECT
 10
454.0
 20
-757.00000000000011
 30
0.0
 11
454.0
 21
-754.0
 31
0.0
1001
ACDBBLOCKREPETAG
1070
     1
1071
      418
1005
128A42
  0
ARC
  5
128A43
  8
OBJECT
 10
457.0
 20
-757.00000000000011
 30
0.0
 40
3.0
 50
180.0
 51
270.0
1001
ACDBBLOCKREPETAG
1070
     1
1071
      419
1005
128A43
  0
LINE
  5
128A44
  8
OBJECT
 10
578.0
 20
-754.0
 30
0.0
 11
578.0
 21
-757.00000000000011
 31
0.0
1001
ACDBBLOCKREPETAG
1070
     1
1071
      420
1005
128A44
  0
ARC
  5
128A45
  8
OBJECT
 10
575.0
 20
-757.00000000000011
 30
0.0
 40
3.0
 50
270.0
 51
0.0
1001
ACDBBLOCKREPETAG
1070
     1
1071
      421
1005
128A45
  0
LINE
  5
128A46
  8
OBJECT
 10
575.0
 20
-760.00000000000011
 30
0.0
 11
457.0
 21
-760.00000000000011
 31
0.0
1001
ACDBBLOCKREPETAG
1070
     1
1071
      422
1005
128A46
  0
INSERT
  5
128A47
  8
OBJECT
  2
*U3
 10
0.0
 20
0.0
 30
0.0
  0
LINE
  5
128A48
  8
OBJECT
 10
639.0
 20
-629.0
 30
0.0
 11
646.0
 21
-629.0
 31
0.0
1001
ACDBBLOCKREPETAG
1070
     1
1071
       20
1005
128A48
  0
LINE
  5
128A49
  8
OBJECT
 10
646.0
 20
-629.0
 30
0.0
 11
646.0
 21
-739.00000000000011
 31
0.0
1001
ACDBBLOCKREPETAG
1070
     1
1071
       21
1005
128A49
  0
LINE
  5
128A4A
  8
OBJECT
 10
646.0
 20
-739.00000000000011
 30
0.0
 11
639.0
 21
-739.00000000000011
 31
0.0
1001
ACDBBLOCKREPETAG
1070
     1
1071
       22
1005
128A4A
  0
LINE
  5
128A4B
  8
OBJECT
 10
639.0
 20
-739.00000000000011
 30
0.0
 11
639.0
 21
-629.0
 31
0.0
1001
ACDBBLOCKREPETAG
1070
     1
1071
       23
1005
128A4B
  0
LINE
  5
128A4C
  8
OBJECT
 10
639.0
 20
-632.00000000000011
 30
0.0
 11
603.0
 21
-632.00000000000011
 31
0.0
1001
ACDBBLOCKREPETAG
1070
     1
1071
       24
1005
128A4C
  0
LINE
  5
128A4D
  8
OBJECT
 10
603.0
 20
-632.00000000000011
 30
0.0
 11
603.0
 21
-736.00000000000011
 31
0.0
1001
ACDBBLOCKREPETAG
1070
     1
1071
       25
1005
128A4D
  0
LINE
  5
128A4E
  8
OBJECT
 10
603.0
 20
-736.00000000000011
 30
0.0
 11
639.0
 21
-736.00000000000011
 31
0.0
1001
ACDBBLOCKREPETAG
1070
     1
1071
       26
1005
128A4E
  0
LINE
  5
128A4F
  8
OBJECT
 10
599.0
 20
-636.50000000000011
 30
0.0
 11
592.0
 21
-636.50000000000011
 31
0.0
1001
ACDBBLOCKREPETAG
1070
     1
1071
       27
1005
128A4F
  0
LINE
  5
128A50
  8
OBJECT
 10
592.0
 20
-731.50000000000011
 30
0.0
 11
599.0
 21
-731.50000000000011
 31
0.0
1001
ACDBBLOCKREPETAG
1070
     1
1071
       28
1005
128A50
  0
LINE
  5
128A51
  8
OBJECT
 10
599.0
 20
-731.50000000000011
 30
0.0
 11
599.0
 21
-636.50000000000011
 31
0.0
1001
ACDBBLOCKREPETAG
1070
     1
1071
       29
1005
128A51
  0
LINE
  5
128A52
  8
OBJECT
 10
603.0
 20
-632.00000000000011
 30
0.0
 11
599.0
 21
-636.50000000000011
 31
0.0
1001
ACDBBLOCKREPETAG
1070
     1
1071
       30
1005
128A52
  0
LINE
  5
128A53
  8
OBJECT
 10
603.0
 20
-736.00000000000011
 30
0.0
 11
599.0
 21
-731.50000000000011
 31
0.0
1001
ACDBBLOCKREPETAG
1070
     1
1071
       31
1005
128A53
  0
LINE
  5
128A54
  8
OBJECT
 10
589.00000000000171
 20
-622.00000000000011
 30
0.0
 11
586.0
 21
-622.00000000000011
 31
0.0
1001
ACDBBLOCKREPETAG
1070
     1
1071
       32
1005
128A54
  0
ARC
  5
128A55
  8
OBJECT
 10
589.00000000000171
 20
-625.0
 30
0.0
 40
3.0
 50
0.0
 51
90.0
1001
ACDBBLOCKREPETAG
1070
     1
1071
       33
1005
128A55
  0
LINE
  5
128A56
  8
OBJECT
 10
586.0
 20
-746.0
 30
0.0
 11
588.99999999999807
 21
-746.0
 31
0.0
1001
ACDBBLOCKREPETAG
1070
     1
1071
       34
1005
128A56
  0
ARC
  5
128A57
  8
OBJECT
 10
588.99999999999807
 20
-743.00000000000011
 30
0.0
 40
3.0
 50
270.0
 51
0.0
1001
ACDBBLOCKREPETAG
1070
     1
1071
       35
1005
128A57
  0
LINE
  5
128A58
  8
OBJECT
 10
591.99999999999795
 20
-743.00000000000011
 30
0.0
 11
592.00000000000159
 21
-625.0
 31
0.0
1001
ACDBBLOCKREPETAG
1070
     1
1071
       36
1005
128A58
  0
LINE
  5
128A59
  8
HIDDEN
 10
594.0
 20
-646.0
 30
0.0
 11
594.0
 21
-722.00000000000011
 31
0.0
1001
ACDBBLOCKREPETAG
1070
     1
1071
      427
1005
128A59
  0
ARC
  5
128A5A
  8
OBJECT
 10
516.0
 20
-684.00000000000011
 30
0.0
 40
70.0
 50
152.33955010081689
 51
207.66044989918311
1001
ACDBBLOCKREPETAG
1070
     1
1071
        0
1005
128A5A
  0
CIRCLE
  5
128A5B
  8
OBJECT
 10
516.0
 20
-684.00000000000011
 30
0.0
 40
65.0
1001
ACDBBLOCKREPETAG
1070
     1
1071
        1
1005
128A5B
  0
CIRCLE
  5
128A5C
  8
OBJECT
 10
516.0
 20
-684.00000000000011
 30
0.0
 40
41.0
1001
ACDBBLOCKREPETAG
1070
     1
1071
        2
1005
128A5C
  0
CIRCLE
  5
128A5D
  8
OBJECT
 10
516.0
 20
-684.00000000000011
 30
0.0
 40
58.0
1001
ACDBBLOCKREPETAG
1070
     1
1071
        3
1005
128A5D
  0
LINE
  5
128A5E
  8
OBJECT
 10
454.0
 20
-613.99999999999841
 30
0.0
 11
454.0
 21
-664.48077870405712
 31
0.0
1001
ACDBBLOCKREPETAG
1070
     1
1071
        4
1005
128A5E
  0
LINE
  5
128A5F
  8
OBJECT
 10
454.0
 20
-754.0
 30
0.0
 11
454.0
 21
-703.51922129594345
 31
0.0
1001
ACDBBLOCKREPETAG
1070
     1
1071
        5
1005
128A5F
  0
LINE
  5
128A60
  8
OBJECT
 10
578.0
 20
-754.0
 30
0.0
 11
578.0
 21
-746.0
 31
0.0
1001
ACDBBLOCKREPETAG
1070
     1
1071
        6
1005
128A60
  0
LINE
  5
128A61
  8
OBJECT
 10
586.0
 20
-746.0
 30
0.0
 11
578.0
 21
-746.0
 31
0.0
1001
ACDBBLOCKREPETAG
1070
     1
1071
        7
1005
128A61
  0
LINE
  5
128A62
  8
OBJECT
 10
578.0
 20
-613.99999999999841
 30
0.0
 11
578.0
 21
-622.00000000000011
 31
0.0
1001
ACDBBLOCKREPETAG
1070
     1
1071
        8
1005
128A62
  0
LINE
  5
128A63
  8
OBJECT
 10
586.0
 20
-622.00000000000011
 30
0.0
 11
578.0
 21
-622.00000000000011
 31
0.0
1001
ACDBBLOCKREPETAG
1070
     1
1071
        9
1005
128A63
  0
ARC
  5
128A64
  8
OBJECT
 10
516.0
 20
-684.00000000000011
 30
0.0
 40
37.5
 50
33.162766676670358
 51
319.1635024908208
1001
ACDBBLOCKREPETAG
1070
     1
1071
       13
1005
128A64
  0
LINE
  5
128A65
  8
OBJECT
 10
561.96194077712562
 20
-729.96194077712573
 30
0.0
 11
578.0
 21
-746.0
 31
0.0
1001
ACDBBLOCKREPETAG
1070
     1
1071
       21
1005
128A65
  0
LINE
  5
128A66
  8
OBJECT
 10
561.96194077712562
 20
-638.03805922287438
 30
0.0
 11
578.0
 21
-622.00000000000011
 31
0.0
1001
ACDBBLOCKREPETAG
1070
     1
1071
       22
1005
128A66
  0
ARC
  5
128A67
  8
OBJECT
 10
540.44352901899219
 20
-694.09723786081315
 30
0.0
 40
7.0
 50
163.0012722295161
 51
244.05025878932551
1001
ACDBBLOCKREPETAG
1070
     1
1071
       70
1005
128A67
  0
ARC
  5
128A68
  8
OBJECT
 10
541.59787731695155
 20
-697.16233892935293
 30
0.0
 40
9.0
 50
163.0012722295161
 51
244.05026392593629
1001
ACDBBLOCKREPETAG
1070
     1
1071
       71
1005
128A68
  0
ARC
  5
128A69
  8
OBJECT
 10
463.28130031148248
 20
-787.68576986844744
 30
0.0
 40
150.0
 50
52.895033739927257
 51
55.893149969628887
1001
ACDBBLOCKREPETAG
1070
     1
1071
       72
1005
128A69
  0
LINE
  5
128A6A
  8
OBJECT
 10
537.38045100897205
 20
-700.39148548102844
 30
0.0
 11
550.19158700000105
 21
-706.62598900000035
 31
0.0
1001
ACDBBLOCKREPETAG
1070
     1
1071
       73
1005
128A6A
  0
LINE
  5
128A6B
  8
OBJECT
 10
537.65963488670604
 20
-705.25494336553697
 30
0.0
 11
547.61836000000039
 21
-710.1013280000044
 31
0.0
1001
ACDBBLOCKREPETAG
1070
     1
1071
       74
1005
128A6B
  0
LINE
  5
128A6C
  8
OBJECT
 10
542.00000000000159
 20
-665.06198199999926
 30
0.0
 11
532.99107608744453
 21
-694.53118469673814
 31
0.0
1001
ACDBBLOCKREPETAG
1070
     1
1071
       75
1005
128A6C
  0
LINE
  5
128A6D
  8
OBJECT
 10
547.39199878029285
 20
-663.48677469099505
 30
0.0
 11
542.00000000000159
 21
-665.06198199999926
 31
0.0
1001
ACDBBLOCKREPETAG
1070
     1
1071
       76
1005
128A6D
  0
POINT
  5
128A6E
  8
DOTS
 10
516.0
 20
-684.00000000000011
 30
0.0
1001
ACDBBLOCKREPETAG
1070
     1
1071
       39
1005
128A6E
  0
INSERT
  5
128A6F
  8
OBJECT
  2
*U4
 10
0.0
 20
0.0
 30
0.0
  0
LINE
  5
128A70
  8
OBJECT
 10
461.0
 20
-560.99999999999841
 30
0.0
 11
461.0
 21
-553.99999999999841
 31
0.0
1001
ACDBBLOCKREPETAG
1070
     1
1071
       20
1005
128A70
  0
LINE
  5
128A71
  8
OBJECT
 10
461.0
 20
-553.99999999999841
 30
0.0
 11
571.0
 21
-553.99999999999841
 31
0.0
1001
ACDBBLOCKREPETAG
1070
     1
1071
       21
1005
128A71
  0
LINE
  5
128A72
  8
OBJECT
 10
571.0
 20
-553.99999999999841
 30
0.0
 11
571.0
 21
-560.99999999999841
 31
0.0
1001
ACDBBLOCKREPETAG
1070
     1
1071
       22
1005
128A72
  0
LINE
  5
128A73
  8
OBJECT
 10
571.0
 20
-560.99999999999841
 30
0.0
 11
461.0
 21
-560.99999999999841
 31
0.0
1001
ACDBBLOCKREPETAG
1070
     1
1071
       23
1005
128A73
  0
LINE
  5
128A74
  8
OBJECT
 10
464.0
 20
-560.99999999999841
 30
0.0
 11
464.0
 21
-596.99999999999829
 31
0.0
1001
ACDBBLOCKREPETAG
1070
     1
1071
       24
1005
128A74
  0
LINE
  5
128A75
  8
OBJECT
 10
464.0
 20
-596.99999999999829
 30
0.0
 11
568.0
 21
-596.99999999999829
 31
0.0
1001
ACDBBLOCKREPETAG
1070
     1
1071
       25
1005
128A75
  0
LINE
  5
128A76
  8
OBJECT
 10
568.0
 20
-596.99999999999829
 30
0.0
 11
568.0
 21
-560.99999999999841
 31
0.0
1001
ACDBBLOCKREPETAG
1070
     1
1071
       26
1005
128A76
  0
LINE
  5
128A77
  8
OBJECT
 10
468.5
 20
-600.99999999999829
 30
0.0
 11
468.5
 21
-607.99999999999841
 31
0.0
1001
ACDBBLOCKREPETAG
1070
     1
1071
       27
1005
128A77
  0
LINE
  5
128A78
  8
OBJECT
 10
563.49999999999977
 20
-607.99999999999841
 30
0.0
 11
563.49999999999977
 21
-600.99999999999829
 31
0.0
1001
ACDBBLOCKREPETAG
1070
     1
1071
       28
1005
128A78
  0
LINE
  5
128A79
  8
OBJECT
 10
563.49999999999977
 20
-600.99999999999829
 30
0.0
 11
468.5
 21
-600.99999999999829
 31
0.0
1001
ACDBBLOCKREPETAG
1070
     1
1071
       29
1005
128A79
  0
LINE
  5
128A7A
  8
OBJECT
 10
464.0
 20
-596.99999999999829
 30
0.0
 11
468.5
 21
-600.99999999999829
 31
0.0
1001
ACDBBLOCKREPETAG
1070
     1
1071
       30
1005
128A7A
  0
LINE
  5
128A7B
  8
OBJECT
 10
568.0
 20
-596.99999999999829
 30
0.0
 11
563.49999999999977
 21
-600.99999999999829
 31
0.0
1001
ACDBBLOCKREPETAG
1070
     1
1071
       31
1005
128A7B
  0
LINE
  5
128A7C
  8
OBJECT
 10
454.0
 20
-610.9999999999975
 30
0.0
 11
454.0
 21
-613.99999999999841
 31
0.0
1001
ACDBBLOCKREPETAG
1070
     1
1071
       32
1005
128A7C
  0
ARC
  5
128A7D
  8
OBJECT
 10
457.0
 20
-610.9999999999975
 30
0.0
 40
3.0
 50
90.0
 51
180.0
1001
ACDBBLOCKREPETAG
1070
     1
1071
       33
1005
128A7D
  0
LINE
  5
128A7E
  8
OBJECT
 10
578.0
 20
-613.99999999999841
 30
0.0
 11
578.0
 21
-610.9999999999992
 31
0.0
1001
ACDBBLOCKREPETAG
1070
     1
1071
       34
1005
128A7E
  0
ARC
  5
128A7F
  8
OBJECT
 10
575.0
 20
-610.9999999999992
 30
0.0
 40
3.0
 50
0.0
 51
90.0
1001
ACDBBLOCKREPETAG
1070
     1
1071
       35
1005
128A7F
  0
LINE
  5
128A80
  8
OBJECT
 10
575.0
 20
-607.9999999999992
 30
0.0
 11
457.0
 21
-607.9999999999975
 31
0.0
1001
ACDBBLOCKREPETAG
1070
     1
1071
       36
1005
128A80
  0
LINE
  5
128A81
  8
HIDDEN
 10
478.0
 20
-605.99999999999841
 30
0.0
 11
554.0
 21
-605.99999999999841
 31
0.0
1001
ACDBBLOCKREPETAG
1070
     1
1071
      423
1005
128A81
  0
LINE
  5
128A82
  8
OBJECT
 10
94.0
 20
-757.00000000000011
 30
0.0
 11
94.0
 21
-754.0
 31
0.0
1001
ACDBBLOCKREPETAG
1070
     1
1071
      418
1005
128A82
  0
ARC
  5
128A83
  8
OBJECT
 10
97.0
 20
-757.00000000000011
 30
0.0
 40
3.0
 50
180.0
 51
270.0
1001
ACDBBLOCKREPETAG
1070
     1
1071
      419
1005
128A83
  0
LINE
  5
128A84
  8
OBJECT
 10
218.0
 20
-754.0
 30
0.0
 11
218.0
 21
-757.00000000000011
 31
0.0
1001
ACDBBLOCKREPETAG
1070
     1
1071
      420
1005
128A84
  0
ARC
  5
128A85
  8
OBJECT
 10
215.0
 20
-757.00000000000011
 30
0.0
 40
3.0
 50
270.0
 51
0.0
1001
ACDBBLOCKREPETAG
1070
     1
1071
      421
1005
128A85
  0
LINE
  5
128A86
  8
OBJECT
 10
215.0
 20
-760.00000000000011
 30
0.0
 11
97.0
 21
-760.00000000000011
 31
0.0
1001
ACDBBLOCKREPETAG
1070
     1
1071
      422
1005
128A86
  0
INSERT
  5
128A87
  8
OBJECT
  2
*U5
 10
0.0
 20
0.0
 30
0.0
  0
LINE
  5
128A88
  8
OBJECT
 10
279.0
 20
-637.0
 30
0.0
 11
286.0
 21
-637.0
 31
0.0
1001
ACDBBLOCKREPETAG
1070
     1
1071
        1
1005
128A88
  0
LINE
  5
128A89
  8
OBJECT
 10
286.0
 20
-637.0
 30
0.0
 11
286.0
 21
-731.00000000000011
 31
0.0
1001
ACDBBLOCKREPETAG
1070
     1
1071
        2
1005
128A89
  0
LINE
  5
128A8A
  8
OBJECT
 10
286.0
 20
-731.00000000000011
 30
0.0
 11
279.0
 21
-731.00000000000011
 31
0.0
1001
ACDBBLOCKREPETAG
1070
     1
1071
        3
1005
128A8A
  0
LINE
  5
128A8B
  8
OBJECT
 10
279.0
 20
-731.00000000000011
 30
0.0
 11
279.0
 21
-637.0
 31
0.0
1001
ACDBBLOCKREPETAG
1070
     1
1071
        4
1005
128A8B
  0
LINE
  5
128A8C
  8
OBJECT
 10
279.0
 20
-640.00000000000011
 30
0.0
 11
243.0
 21
-640.00000000000011
 31
0.0
1001
ACDBBLOCKREPETAG
1070
     1
1071
        5
1005
128A8C
  0
LINE
  5
128A8D
  8
OBJECT
 10
243.0
 20
-640.00000000000011
 30
0.0
 11
243.0
 21
-728.00000000000011
 31
0.0
1001
ACDBBLOCKREPETAG
1070
     1
1071
        6
1005
128A8D
  0
LINE
  5
128A8E
  8
OBJECT
 10
243.0
 20
-728.00000000000011
 30
0.0
 11
279.0
 21
-728.00000000000011
 31
0.0
1001
ACDBBLOCKREPETAG
1070
     1
1071
        7
1005
128A8E
  0
LINE
  5
128A8F
  8
OBJECT
 10
239.0
 20
-644.50000000000011
 30
0.0
 11
232.0
 21
-644.50000000000011
 31
0.0
1001
ACDBBLOCKREPETAG
1070
     1
1071
        8
1005
128A8F
  0
LINE
  5
128A90
  8
OBJECT
 10
232.0
 20
-723.50000000000011
 30
0.0
 11
239.0
 21
-723.50000000000011
 31
0.0
1001
ACDBBLOCKREPETAG
1070
     1
1071
        9
1005
128A90
  0
LINE
  5
128A91
  8
OBJECT
 10
239.0
 20
-723.50000000000011
 30
0.0
 11
239.0
 21
-644.50000000000011
 31
0.0
1001
ACDBBLOCKREPETAG
1070
     1
1071
       10
1005
128A91
  0
LINE
  5
128A92
  8
OBJECT
 10
243.0
 20
-640.00000000000011
 30
0.0
 11
239.0
 21
-644.50000000000011
 31
0.0
1001
ACDBBLOCKREPETAG
1070
     1
1071
       11
1005
128A92
  0
LINE
  5
128A93
  8
OBJECT
 10
243.0
 20
-728.00000000000011
 30
0.0
 11
239.0
 21
-723.50000000000011
 31
0.0
1001
ACDBBLOCKREPETAG
1070
     1
1071
       12
1005
128A93
  0
LINE
  5
128A94
  8
OBJECT
 10
229.00000000000179
 20
-622.00000000000011
 30
0.0
 11
226.0
 21
-622.00000000000011
 31
0.0
1001
ACDBBLOCKREPETAG
1070
     1
1071
       13
1005
128A94
  0
ARC
  5
128A95
  8
OBJECT
 10
229.00000000000179
 20
-625.0
 30
0.0
 40
3.0
 50
0.0
 51
90.0
1001
ACDBBLOCKREPETAG
1070
     1
1071
       14
1005
128A95
  0
LINE
  5
128A96
  8
OBJECT
 10
226.0
 20
-746.0
 30
0.0
 11
228.99999999999821
 21
-746.0
 31
0.0
1001
ACDBBLOCKREPETAG
1070
     1
1071
       15
1005
128A96
  0
ARC
  5
128A97
  8
OBJECT
 10
228.99999999999821
 20
-743.00000000000011
 30
0.0
 40
3.0
 50
270.0
 51
0.0
1001
ACDBBLOCKREPETAG
1070
     1
1071
       16
1005
128A97
  0
LINE
  5
128A98
  8
OBJECT
 10
231.99999999999821
 20
-743.00000000000011
 30
0.0
 11
232.00000000000179
 21
-625.0
 31
0.0
1001
ACDBBLOCKREPETAG
1070
     1
1071
       17
1005
128A98
  0
LINE
  5
128A99
  8
HIDDEN
 10
234.0
 20
-654.0
 30
0.0
 11
234.0
 21
-714.00000000000011
 31
0.0
1001
ACDBBLOCKREPETAG
1070
     1
1071
      424
1005
128A99
  0
ARC
  5
128A9A
  8
OBJECT
 10
156.0
 20
-684.00000000000011
 30
0.0
 40
70.0
 50
152.33955010081621
 51
207.6604498991837
1001
ACDBBLOCKREPETAG
1070
     1
1071
        0
1005
128A9A
  0
CIRCLE
  5
128A9B
  8
OBJECT
 10
156.0
 20
-684.00000000000011
 30
0.0
 40
65.0
1001
ACDBBLOCKREPETAG
1070
     1
1071
        1
1005
128A9B
  0
CIRCLE
  5
128A9C
  8
OBJECT
 10
156.0
 20
-684.00000000000011
 30
0.0
 40
41.0
1001
ACDBBLOCKREPETAG
1070
     1
1071
        2
1005
128A9C
  0
CIRCLE
  5
128A9D
  8
OBJECT
 10
156.0
 20
-684.00000000000011
 30
0.0
 40
58.0
1001
ACDBBLOCKREPETAG
1070
     1
1071
        3
1005
128A9D
  0
LINE
  5
128A9E
  8
OBJECT
 10
94.0
 20
-613.99999999999841
 30
0.0
 11
94.0
 21
-664.48077870405712
 31
0.0
1001
ACDBBLOCKREPETAG
1070
     1
1071
        4
1005
128A9E
  0
LINE
  5
128A9F
  8
OBJECT
 10
94.0
 20
-754.0
 30
0.0
 11
94.0
 21
-703.51922129594345
 31
0.0
1001
ACDBBLOCKREPETAG
1070
     1
1071
        5
1005
128A9F
  0
LINE
  5
128AA0
  8
OBJECT
 10
218.0
 20
-754.0
 30
0.0
 11
218.0
 21
-746.0
 31
0.0
1001
ACDBBLOCKREPETAG
1070
     1
1071
        6
1005
128AA0
  0
LINE
  5
128AA1
  8
OBJECT
 10
226.0
 20
-746.0
 30
0.0
 11
218.0
 21
-746.0
 31
0.0
1001
ACDBBLOCKREPETAG
1070
     1
1071
        7
1005
128AA1
  0
LINE
  5
128AA2
  8
OBJECT
 10
218.0
 20
-613.99999999999841
 30
0.0
 11
218.0
 21
-622.00000000000011
 31
0.0
1001
ACDBBLOCKREPETAG
1070
     1
1071
        8
1005
128AA2
  0
LINE
  5
128AA3
  8
OBJECT
 10
226.0
 20
-622.00000000000011
 30
0.0
 11
218.0
 21
-622.00000000000011
 31
0.0
1001
ACDBBLOCKREPETAG
1070
     1
1071
        9
1005
128AA3
  0
ARC
  5
128AA4
  8
OBJECT
 10
156.0
 20
-684.00000000000011
 30
0.0
 40
37.5
 50
33.162766676671247
 51
319.1635024908208
1001
ACDBBLOCKREPETAG
1070
     1
1071
       13
1005
128AA4
  0
LINE
  5
128AA5
  8
OBJECT
 10
201.96194077712559
 20
-729.96194077712573
 30
0.0
 11
218.0
 21
-746.0
 31
0.0
1001
ACDBBLOCKREPETAG
1070
     1
1071
       21
1005
128AA5
  0
LINE
  5
128AA6
  8
OBJECT
 10
201.96194077712559
 20
-638.03805922287438
 30
0.0
 11
218.0
 21
-622.00000000000011
 31
0.0
1001
ACDBBLOCKREPETAG
1070
     1
1071
       22
1005
128AA6
  0
ARC
  5
128AA7
  8
OBJECT
 10
180.44352901899211
 20
-694.09723786081315
 30
0.0
 40
7.0
 50
163.00127222951571
 51
244.05025878932261
1001
ACDBBLOCKREPETAG
1070
     1
1071
       70
1005
128AA7
  0
ARC
  5
128AA8
  8
OBJECT
 10
181.59787731695181
 20
-697.16233892935293
 30
0.0
 40
9.0
 50
163.00127222951571
 51
244.05026392593629
1001
ACDBBLOCKREPETAG
1070
     1
1071
       71
1005
128AA8
  0
ARC
  5
128AA9
  8
OBJECT
 10
103.2813003114825
 20
-787.68576986844744
 30
0.0
 40
150.0
 50
52.895033739927257
 51
55.893149969628887
1001
ACDBBLOCKREPETAG
1070
     1
1071
       72
1005
128AA9
  0
LINE
  5
128AAA
  8
OBJECT
 10
177.3804510089721
 20
-700.39148548102844
 30
0.0
 11
190.19158700000111
 21
-706.62598900000035
 31
0.0
1001
ACDBBLOCKREPETAG
1070
     1
1071
       73
1005
128AAA
  0
LINE
  5
128AAB
  8
OBJECT
 10
177.65963488670599
 20
-705.25494336553697
 30
0.0
 11
187.61836000000039
 21
-710.1013280000044
 31
0.0
1001
ACDBBLOCKREPETAG
1070
     1
1071
       74
1005
128AAB
  0
LINE
  5
128AAC
  8
OBJECT
 10
182.00000000000171
 20
-665.06198199999926
 30
0.0
 11
172.9910760874445
 21
-694.53118469673814
 31
0.0
1001
ACDBBLOCKREPETAG
1070
     1
1071
       75
1005
128AAC
  0
LINE
  5
128AAD
  8
OBJECT
 10
187.39199878029279
 20
-663.48677469099505
 30
0.0
 11
182.00000000000171
 21
-665.06198199999926
 31
0.0
1001
ACDBBLOCKREPETAG
1070
     1
1071
       76
1005
128AAD
  0
POINT
  5
128AAE
  8
DOTS
 10
156.0
 20
-684.00000000000011
 30
0.0
1001
ACDBBLOCKREPETAG
1070
     1
1071
       39
1005
128AAE
  0
INSERT
  5
128AAF
  8
OBJECT
  2
*U6
 10
0.0
 20
0.0
 30
0.0
  0
LINE
  5
128AB0
  8
OBJECT
 10
101.0
 20
-560.99999999999841
 30
0.0
 11
101.0
 21
-553.99999999999841
 31
0.0
1001
ACDBBLOCKREPETAG
1070
     1
1071
       20
1005
128AB0
  0
LINE
  5
128AB1
  8
OBJECT
 10
101.0
 20
-553.99999999999841
 30
0.0
 11
211.0
 21
-553.99999999999841
 31
0.0
1001
ACDBBLOCKREPETAG
1070
     1
1071
       21
1005
128AB1
  0
LINE
  5
128AB2
  8
OBJECT
 10
211.0
 20
-553.99999999999841
 30
0.0
 11
211.0
 21
-560.99999999999841
 31
0.0
1001
ACDBBLOCKREPETAG
1070
     1
1071
       22
1005
128AB2
  0
LINE
  5
128AB3
  8
OBJECT
 10
211.0
 20
-560.99999999999841
 30
0.0
 11
101.0
 21
-560.99999999999841
 31
0.0
1001
ACDBBLOCKREPETAG
1070
     1
1071
       23
1005
128AB3
  0
LINE
  5
128AB4
  8
OBJECT
 10
104.0
 20
-560.99999999999841
 30
0.0
 11
104.0
 21
-596.99999999999829
 31
0.0
1001
ACDBBLOCKREPETAG
1070
     1
1071
       24
1005
128AB4
  0
LINE
  5
128AB5
  8
OBJECT
 10
104.0
 20
-596.99999999999829
 30
0.0
 11
208.0
 21
-596.99999999999829
 31
0.0
1001
ACDBBLOCKREPETAG
1070
     1
1071
       25
1005
128AB5
  0
LINE
  5
128AB6
  8
OBJECT
 10
208.0
 20
-596.99999999999829
 30
0.0
 11
208.0
 21
-560.99999999999841
 31
0.0
1001
ACDBBLOCKREPETAG
1070
     1
1071
       26
1005
128AB6
  0
LINE
  5
128AB7
  8
OBJECT
 10
108.5
 20
-600.99999999999829
 30
0.0
 11
108.5
 21
-607.99999999999841
 31
0.0
1001
ACDBBLOCKREPETAG
1070
     1
1071
       27
1005
128AB7
  0
LINE
  5
128AB8
  8
OBJECT
 10
203.5
 20
-607.99999999999841
 30
0.0
 11
203.5
 21
-600.99999999999829
 31
0.0
1001
ACDBBLOCKREPETAG
1070
     1
1071
       28
1005
128AB8
  0
LINE
  5
128AB9
  8
OBJECT
 10
203.5
 20
-600.99999999999829
 30
0.0
 11
108.5
 21
-600.99999999999829
 31
0.0
1001
ACDBBLOCKREPETAG
1070
     1
1071
       29
1005
128AB9
  0
LINE
  5
128ABA
  8
OBJECT
 10
104.0
 20
-596.99999999999829
 30
0.0
 11
108.5
 21
-600.99999999999829
 31
0.0
1001
ACDBBLOCKREPETAG
1070
     1
1071
       30
1005
128ABA
  0
LINE
  5
128ABB
  8
OBJECT
 10
208.0
 20
-596.99999999999829
 30
0.0
 11
203.5
 21
-600.99999999999829
 31
0.0
1001
ACDBBLOCKREPETAG
1070
     1
1071
       31
1005
128ABB
  0
LINE
  5
128ABC
  8
OBJECT
 10
94.0
 20
-610.9999999999975
 30
0.0
 11
94.0
 21
-613.99999999999841
 31
0.0
1001
ACDBBLOCKREPETAG
1070
     1
1071
       32
1005
128ABC
  0
ARC
  5
128ABD
  8
OBJECT
 10
97.0
 20
-610.9999999999975
 30
0.0
 40
3.0
 50
90.0
 51
180.0
1001
ACDBBLOCKREPETAG
1070
     1
1071
       33
1005
128ABD
  0
LINE
  5
128ABE
  8
OBJECT
 10
218.0
 20
-613.99999999999841
 30
0.0
 11
218.0
 21
-610.9999999999992
 31
0.0
1001
ACDBBLOCKREPETAG
1070
     1
1071
       34
1005
128ABE
  0
ARC
  5
128ABF
  8
OBJECT
 10
215.0
 20
-610.9999999999992
 30
0.0
 40
3.0
 50
0.0
 51
90.0
1001
ACDBBLOCKREPETAG
1070
     1
1071
       35
1005
128ABF
  0
LINE
  5
128AC0
  8
OBJECT
 10
215.0
 20
-607.9999999999992
 30
0.0
 11
97.0
 21
-607.9999999999975
 31
0.0
1001
ACDBBLOCKREPETAG
1070
     1
1071
       36
1005
128AC0
  0
LINE
  5
128AC1
  8
HIDDEN
 10
118.0
 20
-605.99999999999841
 30
0.0
 11
194.0
 21
-605.99999999999841
 31
0.0
1001
ACDBBLOCKREPETAG
1070
     1
1071
      423
1005
128AC1
  0
LINE
  5
128AC2
  8
OBJECT
 10
454.0
 20
-293.0
 30
0.0
 11
454.0
 21
-290.0
 31
0.0
1001
ACDBBLOCKREPETAG
1070
     1
1071
      418
1005
128AC2
  0
ARC
  5
128AC3
  8
OBJECT
 10
457.0
 20
-293.0
 30
0.0
 40
3.0
 50
180.0
 51
270.0
1001
ACDBBLOCKREPETAG
1070
     1
1071
      419
1005
128AC3
  0
LINE
  5
128AC4
  8
OBJECT
 10
578.0
 20
-290.0
 30
0.0
 11
578.0
 21
-293.0
 31
0.0
1001
ACDBBLOCKREPETAG
1070
     1
1071
      420
1005
128AC4
  0
ARC
  5
128AC5
  8
OBJECT
 10
575.0
 20
-293.0
 30
0.0
 40
3.0
 50
270.0
 51
0.0
1001
ACDBBLOCKREPETAG
1070
     1
1071
      421
1005
128AC5
  0
LINE
  5
128AC6
  8
OBJECT
 10
575.0
 20
-296.0
 30
0.0
 11
457.0
 21
-296.0
 31
0.0
1001
ACDBBLOCKREPETAG
1070
     1
1071
      422
1005
128AC6
  0
INSERT
  5
128AC7
  8
OBJECT
  2
*U7
 10
0.0
 20
0.0
 30
0.0
  0
LINE
  5
128AC8
  8
OBJECT
 10
639.0
 20
-165.0
 30
0.0
 11
646.0
 21
-165.0
 31
0.0
1001
ACDBBLOCKREPETAG
1070
     1
1071
       20
1005
128AC8
  0
LINE
  5
128AC9
  8
OBJECT
 10
646.0
 20
-165.0
 30
0.0
 11
646.0
 21
-275.0
 31
0.0
1001
ACDBBLOCKREPETAG
1070
     1
1071
       21
1005
128AC9
  0
LINE
  5
128ACA
  8
OBJECT
 10
646.0
 20
-275.0
 30
0.0
 11
639.0
 21
-275.0
 31
0.0
1001
ACDBBLOCKREPETAG
1070
     1
1071
       22
1005
128ACA
  0
LINE
  5
128ACB
  8
OBJECT
 10
639.0
 20
-275.0
 30
0.0
 11
639.0
 21
-165.0
 31
0.0
1001
ACDBBLOCKREPETAG
1070
     1
1071
       23
1005
128ACB
  0
LINE
  5
128ACC
  8
OBJECT
 10
639.0
 20
-168.0
 30
0.0
 11
603.0
 21
-168.0
 31
0.0
1001
ACDBBLOCKREPETAG
1070
     1
1071
       24
1005
128ACC
  0
LINE
  5
128ACD
  8
OBJECT
 10
603.0
 20
-168.0
 30
0.0
 11
603.0
 21
-272.0
 31
0.0
1001
ACDBBLOCKREPETAG
1070
     1
1071
       25
1005
128ACD
  0
LINE
  5
128ACE
  8
OBJECT
 10
603.0
 20
-272.0
 30
0.0
 11
639.0
 21
-272.0
 31
0.0
1001
ACDBBLOCKREPETAG
1070
     1
1071
       26
1005
128ACE
  0
LINE
  5
128ACF
  8
OBJECT
 10
599.0
 20
-172.5
 30
0.0
 11
592.0
 21
-172.5
 31
0.0
1001
ACDBBLOCKREPETAG
1070
     1
1071
       27
1005
128ACF
  0
LINE
  5
128AD0
  8
OBJECT
 10
592.0
 20
-267.5
 30
0.0
 11
599.0
 21
-267.5
 31
0.0
1001
ACDBBLOCKREPETAG
1070
     1
1071
       28
1005
128AD0
  0
LINE
  5
128AD1
  8
OBJECT
 10
599.0
 20
-267.5
 30
0.0
 11
599.0
 21
-172.5
 31
0.0
1001
ACDBBLOCKREPETAG
1070
     1
1071
       29
1005
128AD1
  0
LINE
  5
128AD2
  8
OBJECT
 10
603.0
 20
-168.0
 30
0.0
 11
599.0
 21
-172.5
 31
0.0
1001
ACDBBLOCKREPETAG
1070
     1
1071
       30
1005
128AD2
  0
LINE
  5
128AD3
  8
OBJECT
 10
603.0
 20
-272.0
 30
0.0
 11
599.0
 21
-267.5
 31
0.0
1001
ACDBBLOCKREPETAG
1070
     1
1071
       31
1005
128AD3
  0
LINE
  5
128AD4
  8
OBJECT
 10
589.00000000000171
 20
-158.0
 30
0.0
 11
586.0
 21
-158.0
 31
0.0
1001
ACDBBLOCKREPETAG
1070
     1
1071
       32
1005
128AD4
  0
ARC
  5
128AD5
  8
OBJECT
 10
589.00000000000171
 20
-161.0
 30
0.0
 40
3.0
 50
0.0
 51
90.0
1001
ACDBBLOCKREPETAG
1070
     1
1071
       33
1005
128AD5
  0
LINE
  5
128AD6
  8
OBJECT
 10
586.0
 20
-282.0
 30
0.0
 11
588.99999999999807
 21
-282.0
 31
0.0
1001
ACDBBLOCKREPETAG
1070
     1
1071
       34
1005
128AD6
  0
ARC
  5
128AD7
  8
OBJECT
 10
588.99999999999807
 20
-279.0
 30
0.0
 40
3.0
 50
270.0
 51
0.0
1001
ACDBBLOCKREPETAG
1070
     1
1071
       35
1005
128AD7
  0
LINE
  5
128AD8
  8
OBJECT
 10
591.99999999999795
 20
-279.0
 30
0.0
 11
592.00000000000159
 21
-161.0
 31
0.0
1001
ACDBBLOCKREPETAG
1070
     1
1071
       36
1005
128AD8
  0
LINE
  5
128AD9
  8
HIDDEN
 10
594.0
 20
-182.0
 30
0.0
 11
594.0
 21
-258.0
 31
0.0
1001
ACDBBLOCKREPETAG
1070
     1
1071
      427
1005
128AD9
  0
ARC
  5
128ADA
  8
OBJECT
 10
516.0
 20
-220.0
 30
0.0
 40
70.0
 50
152.33955010081689
 51
207.66044989918311
1001
ACDBBLOCKREPETAG
1070
     1
1071
        0
1005
128ADA
  0
CIRCLE
  5
128ADB
  8
OBJECT
 10
516.0
 20
-220.0
 30
0.0
 40
65.0
1001
ACDBBLOCKREPETAG
1070
     1
1071
        1
1005
128ADB
  0
CIRCLE
  5
128ADC
  8
OBJECT
 10
516.0
 20
-220.0
 30
0.0
 40
41.0
1001
ACDBBLOCKREPETAG
1070
     1
1071
        2
1005
128ADC
  0
CIRCLE
  5
128ADD
  8
OBJECT
 10
516.0
 20
-220.0
 30
0.0
 40
58.0
1001
ACDBBLOCKREPETAG
1070
     1
1071
        3
1005
128ADD
  0
LINE
  5
128ADE
  8
OBJECT
 10
454.0
 20
-149.99999999999821
 30
0.0
 11
454.0
 21
-200.48077870405689
 31
0.0
1001
ACDBBLOCKREPETAG
1070
     1
1071
        4
1005
128ADE
  0
LINE
  5
128ADF
  8
OBJECT
 10
454.0
 20
-290.0
 30
0.0
 11
454.0
 21
-239.51922129594311
 31
0.0
1001
ACDBBLOCKREPETAG
1070
     1
1071
        5
1005
128ADF
  0
LINE
  5
128AE0
  8
OBJECT
 10
578.0
 20
-290.0
 30
0.0
 11
578.0
 21
-282.0
 31
0.0
1001
ACDBBLOCKREPETAG
1070
     1
1071
        6
1005
128AE0
  0
LINE
  5
128AE1
  8
OBJECT
 10
586.0
 20
-282.0
 30
0.0
 11
578.0
 21
-282.0
 31
0.0
1001
ACDBBLOCKREPETAG
1070
     1
1071
        7
1005
128AE1
  0
LINE
  5
128AE2
  8
OBJECT
 10
578.0
 20
-149.99999999999821
 30
0.0
 11
578.0
 21
-158.0
 31
0.0
1001
ACDBBLOCKREPETAG
1070
     1
1071
        8
1005
128AE2
  0
LINE
  5
128AE3
  8
OBJECT
 10
586.0
 20
-158.0
 30
0.0
 11
578.0
 21
-158.0
 31
0.0
1001
ACDBBLOCKREPETAG
1070
     1
1071
        9
1005
128AE3
  0
ARC
  5
128AE4
  8
OBJECT
 10
516.0
 20
-220.0
 30
0.0
 40
37.5
 50
33.162766676670358
 51
319.16350249081961
1001
ACDBBLOCKREPETAG
1070
     1
1071
       13
1005
128AE4
  0
LINE
  5
128AE5
  8
OBJECT
 10
561.96194077712562
 20
-265.96194077712562
 30
0.0
 11
578.0
 21
-282.0
 31
0.0
1001
ACDBBLOCKREPETAG
1070
     1
1071
       21
1005
128AE5
  0
LINE
  5
128AE6
  8
OBJECT
 10
561.96194077712562
 20
-174.03805922287441
 30
0.0
 11
578.0
 21
-158.0
 31
0.0
1001
ACDBBLOCKREPETAG
1070
     1
1071
       22
1005
128AE6
  0
ARC
  5
128AE7
  8
OBJECT
 10
540.44352901899219
 20
-230.09723786081301
 30
0.0
 40
7.0
 50
163.0012722295161
 51
244.0502587893248
1001
ACDBBLOCKREPETAG
1070
     1
1071
       70
1005
128AE7
  0
ARC
  5
128AE8
  8
OBJECT
 10
541.59787731695155
 20
-233.1623389293527
 30
0.0
 40
9.0
 50
163.0012722295161
 51
244.050263925937
1001
ACDBBLOCKREPETAG
1070
     1
1071
       71
1005
128AE8
  0
ARC
  5
128AE9
  8
OBJECT
 10
463.28130031148248
 20
-323.6857698684471
 30
0.0
 40
150.0
 50
52.895033739929247
 51
55.89314996963072
1001
ACDBBLOCKREPETAG
1070
     1
1071
       72
1005
128AE9
  0
LINE
  5
128AEA
  8
OBJECT
 10
537.38045100897205
 20
-236.39148548102821
 30
0.0
 11
550.19158700000105
 21
-242.62598900000009
 31
0.0
1001
ACDBBLOCKREPETAG
1070
     1
1071
       73
1005
128AEA
  0
LINE
  5
128AEB
  8
OBJECT
 10
537.65963488670604
 20
-241.25494336553669
 30
0.0
 11
547.61836000000039
 21
-246.10132800000429
 31
0.0
1001
ACDBBLOCKREPETAG
1070
     1
1071
       74
1005
128AEB
  0
LINE
  5
128AEC
  8
OBJECT
 10
542.00000000000159
 20
-201.0619819999992
 30
0.0
 11
532.99107608744453
 21
-230.53118469673791
 31
0.0
1001
ACDBBLOCKREPETAG
1070
     1
1071
       75
1005
128AEC
  0
LINE
  5
128AED
  8
OBJECT
 10
547.39199878029285
 20
-199.48677469099479
 30
0.0
 11
542.00000000000159
 21
-201.0619819999992
 31
0.0
1001
ACDBBLOCKREPETAG
1070
     1
1071
       76
1005
128AED
  0
POINT
  5
128AEE
  8
DOTS
 10
516.0
 20
-220.0
 30
0.0
1001
ACDBBLOCKREPETAG
1070
     1
1071
       39
1005
128AEE
  0
INSERT
  5
128AEF
  8
OBJECT
  2
*U8
 10
0.0
 20
0.0
 30
0.0
  0
LINE
  5
128AF0
  8
OBJECT
 10
469.0
 20
-96.999999999998181
 30
0.0
 11
469.0
 21
-89.999999999998181
 31
0.0
1001
ACDBBLOCKREPETAG
1070
     1
1071
        1
1005
128AF0
  0
LINE
  5
128AF1
  8
OBJECT
 10
469.0
 20
-89.999999999998181
 30
0.0
 11
563.0
 21
-89.999999999998181
 31
0.0
1001
ACDBBLOCKREPETAG
1070
     1
1071
        2
1005
128AF1
  0
LINE
  5
128AF2
  8
OBJECT
 10
563.0
 20
-89.999999999998181
 30
0.0
 11
563.0
 21
-96.999999999998181
 31
0.0
1001
ACDBBLOCKREPETAG
1070
     1
1071
        3
1005
128AF2
  0
LINE
  5
128AF3
  8
OBJECT
 10
563.0
 20
-96.999999999998181
 30
0.0
 11
469.0
 21
-96.999999999998181
 31
0.0
1001
ACDBBLOCKREPETAG
1070
     1
1071
        4
1005
128AF3
  0
LINE
  5
128AF4
  8
OBJECT
 10
472.0
 20
-96.999999999998181
 30
0.0
 11
472.0
 21
-132.99999999999821
 31
0.0
1001
ACDBBLOCKREPETAG
1070
     1
1071
        5
1005
128AF4
  0
LINE
  5
128AF5
  8
OBJECT
 10
472.0
 20
-132.99999999999821
 30
0.0
 11
560.0
 21
-132.99999999999821
 31
0.0
1001
ACDBBLOCKREPETAG
1070
     1
1071
        6
1005
128AF5
  0
LINE
  5
128AF6
  8
OBJECT
 10
560.0
 20
-132.99999999999821
 30
0.0
 11
560.0
 21
-96.999999999998181
 31
0.0
1001
ACDBBLOCKREPETAG
1070
     1
1071
        7
1005
128AF6
  0
LINE
  5
128AF7
  8
OBJECT
 10
476.49999999999989
 20
-136.99999999999821
 30
0.0
 11
476.49999999999989
 21
-143.9999999999981
 31
0.0
1001
ACDBBLOCKREPETAG
1070
     1
1071
        8
1005
128AF7
  0
LINE
  5
128AF8
  8
OBJECT
 10
555.49999999999977
 20
-143.9999999999981
 30
0.0
 11
555.49999999999977
 21
-136.99999999999821
 31
0.0
1001
ACDBBLOCKREPETAG
1070
     1
1071
        9
1005
128AF8
  0
LINE
  5
128AF9
  8
OBJECT
 10
555.49999999999977
 20
-136.99999999999821
 30
0.0
 11
476.49999999999989
 21
-136.99999999999821
 31
0.0
1001
ACDBBLOCKREPETAG
1070
     1
1071
       10
1005
128AF9
  0
LINE
  5
128AFA
  8
OBJECT
 10
472.0
 20
-132.99999999999821
 30
0.0
 11
476.49999999999989
 21
-136.99999999999821
 31
0.0
1001
ACDBBLOCKREPETAG
1070
     1
1071
       11
1005
128AFA
  0
LINE
  5
128AFB
  8
OBJECT
 10
560.0
 20
-132.99999999999821
 30
0.0
 11
555.49999999999977
 21
-136.99999999999821
 31
0.0
1001
ACDBBLOCKREPETAG
1070
     1
1071
       12
1005
128AFB
  0
LINE
  5
128AFC
  8
OBJECT
 10
454.0
 20
-146.99999999999719
 30
0.0
 11
454.0
 21
-149.99999999999821
 31
0.0
1001
ACDBBLOCKREPETAG
1070
     1
1071
       13
1005
128AFC
  0
ARC
  5
128AFD
  8
OBJECT
 10
457.0
 20
-146.99999999999719
 30
0.0
 40
3.0
 50
90.0
 51
180.0
1001
ACDBBLOCKREPETAG
1070
     1
1071
       14
1005
128AFD
  0
LINE
  5
128AFE
  8
OBJECT
 10
578.0
 20
-149.99999999999821
 30
0.0
 11
578.0
 21
-146.99999999999909
 31
0.0
1001
ACDBBLOCKREPETAG
1070
     1
1071
       15
1005
128AFE
  0
ARC
  5
128AFF
  8
OBJECT
 10
575.0
 20
-146.99999999999909
 30
0.0
 40
3.0
 50
0.0
 51
90.0
1001
ACDBBLOCKREPETAG
1070
     1
1071
       16
1005
128AFF
  0
LINE
  5
128B00
  8
OBJECT
 10
575.0
 20
-143.99999999999909
 30
0.0
 11
457.0
 21
-143.99999999999719
 31
0.0
1001
ACDBBLOCKREPETAG
1070
     1
1071
       17
1005
128B00
  0
LINE
  5
128B01
  8
HIDDEN
 10
486.0
 20
-141.99999999999821
 30
0.0
 11
546.0
 21
-141.99999999999821
 31
0.0
1001
ACDBBLOCKREPETAG
1070
     1
1071
      420
1005
128B01
  0
LINE
  5
128B02
  8
OBJECT
 10
94.0
 20
-293.0
 30
0.0
 11
94.0
 21
-290.0
 31
0.0
1001
ACDBBLOCKREPETAG
1070
     1
1071
      418
1005
128B02
  0
ARC
  5
128B03
  8
OBJECT
 10
97.0
 20
-293.0
 30
0.0
 40
3.0
 50
180.0
 51
270.0
1001
ACDBBLOCKREPETAG
1070
     1
1071
      419
1005
128B03
  0
LINE
  5
128B04
  8
OBJECT
 10
218.0
 20
-290.0
 30
0.0
 11
218.0
 21
-293.0
 31
0.0
1001
ACDBBLOCKREPETAG
1070
     1
1071
      420
1005
128B04
  0
ARC
  5
128B05
  8
OBJECT
 10
215.0
 20
-293.0
 30
0.0
 40
3.0
 50
270.0
 51
0.0
1001
ACDBBLOCKREPETAG
1070
     1
1071
      421
1005
128B05
  0
LINE
  5
128B06
  8
OBJECT
 10
215.0
 20
-296.0
 30
0.0
 11
97.0
 21
-296.0
 31
0.0
1001
ACDBBLOCKREPETAG
1070
     1
1071
      422
1005
128B06
  0
INSERT
  5
128B07
  8
OBJECT
  2
*U9
 10
0.0
 20
0.0
 30
0.0
  0
LINE
  5
128B08
  8
OBJECT
 10
279.0
 20
-173.0
 30
0.0
 11
286.0
 21
-173.0
 31
0.0
1001
ACDBBLOCKREPETAG
1070
     1
1071
        1
1005
128B08
  0
LINE
  5
128B09
  8
OBJECT
 10
286.0
 20
-173.0
 30
0.0
 11
286.0
 21
-267.0
 31
0.0
1001
ACDBBLOCKREPETAG
1070
     1
1071
        2
1005
128B09
  0
LINE
  5
128B0A
  8
OBJECT
 10
286.0
 20
-267.0
 30
0.0
 11
279.0
 21
-267.0
 31
0.0
1001
ACDBBLOCKREPETAG
1070
     1
1071
        3
1005
128B0A
  0
LINE
  5
128B0B
  8
OBJECT
 10
279.0
 20
-267.0
 30
0.0
 11
279.0
 21
-173.0
 31
0.0
1001
ACDBBLOCKREPETAG
1070
     1
1071
        4
1005
128B0B
  0
LINE
  5
128B0C
  8
OBJECT
 10
279.0
 20
-176.0
 30
0.0
 11
243.0
 21
-176.0
 31
0.0
1001
ACDBBLOCKREPETAG
1070
     1
1071
        5
1005
128B0C
  0
LINE
  5
128B0D
  8
OBJECT
 10
243.0
 20
-176.0
 30
0.0
 11
243.0
 21
-264.0
 31
0.0
1001
ACDBBLOCKREPETAG
1070
     1
1071
        6
1005
128B0D
  0
LINE
  5
128B0E
  8
OBJECT
 10
243.0
 20
-264.0
 30
0.0
 11
279.0
 21
-264.0
 31
0.0
1001
ACDBBLOCKREPETAG
1070
     1
1071
        7
1005
128B0E
  0
LINE
  5
128B0F
  8
OBJECT
 10
239.0
 20
-180.5
 30
0.0
 11
232.0
 21
-180.5
 31
0.0
1001
ACDBBLOCKREPETAG
1070
     1
1071
        8
1005
128B0F
  0
LINE
  5
128B10
  8
OBJECT
 10
232.0
 20
-259.5
 30
0.0
 11
239.0
 21
-259.5
 31
0.0
1001
ACDBBLOCKREPETAG
1070
     1
1071
        9
1005
128B10
  0
LINE
  5
128B11
  8
OBJECT
 10
239.0
 20
-259.5
 30
0.0
 11
239.0
 21
-180.5
 31
0.0
1001
ACDBBLOCKREPETAG
1070
     1
1071
       10
1005
128B11
  0
LINE
  5
128B12
  8
OBJECT
 10
243.0
 20
-176.0
 30
0.0
 11
239.0
 21
-180.5
 31
0.0
1001
ACDBBLOCKREPETAG
1070
     1
1071
       11
1005
128B12
  0
LINE
  5
128B13
  8
OBJECT
 10
243.0
 20
-264.0
 30
0.0
 11
239.0
 21
-259.5
 31
0.0
1001
ACDBBLOCKREPETAG
1070
     1
1071
       12
1005
128B13
  0
LINE
  5
128B14
  8
OBJECT
 10
229.00000000000179
 20
-158.0
 30
0.0
 11
226.0
 21
-158.0
 31
0.0
1001
ACDBBLOCKREPETAG
1070
     1
1071
       13
1005
128B14
  0
ARC
  5
128B15
  8
OBJECT
 10
229.00000000000179
 20
-161.0
 30
0.0
 40
3.0
 50
0.0
 51
90.0
1001
ACDBBLOCKREPETAG
1070
     1
1071
       14
1005
128B15
  0
LINE
  5
128B16
  8
OBJECT
 10
226.0
 20
-282.0
 30
0.0
 11
228.99999999999821
 21
-282.0
 31
0.0
1001
ACDBBLOCKREPETAG
1070
     1
1071
       15
1005
128B16
  0
ARC
  5
128B17
  8
OBJECT
 10
228.99999999999821
 20
-279.0
 30
0.0
 40
3.0
 50
270.0
 51
0.0
1001
ACDBBLOCKREPETAG
1070
     1
1071
       16
1005
128B17
  0
LINE
  5
128B18
  8
OBJECT
 10
231.99999999999821
 20
-279.0
 30
0.0
 11
232.00000000000179
 21
-161.0
 31
0.0
1001
ACDBBLOCKREPETAG
1070
     1
1071
       17
1005
128B18
  0
LINE
  5
128B19
  8
HIDDEN
 10
234.0
 20
-190.0
 30
0.0
 11
234.0
 21
-250.0
 31
0.0
1001
ACDBBLOCKREPETAG
1070
     1
1071
      424
1005
128B19
  0
ARC
  5
128B1A
  8
OBJECT
 10
156.0
 20
-220.0
 30
0.0
 40
70.0
 50
152.33955010081621
 51
207.6604498991837
1001
ACDBBLOCKREPETAG
1070
     1
1071
        0
1005
128B1A
  0
CIRCLE
  5
128B1B
  8
OBJECT
 10
156.0
 20
-220.0
 30
0.0
 40
65.0
1001
ACDBBLOCKREPETAG
1070
     1
1071
        1
1005
128B1B
  0
CIRCLE
  5
128B1C
  8
OBJECT
 10
156.0
 20
-220.0
 30
0.0
 40
41.0
1001
ACDBBLOCKREPETAG
1070
     1
1071
        2
1005
128B1C
  0
CIRCLE
  5
128B1D
  8
OBJECT
 10
156.0
 20
-220.0
 30
0.0
 40
58.0
1001
ACDBBLOCKREPETAG
1070
     1
1071
        3
1005
128B1D
  0
LINE
  5
128B1E
  8
OBJECT
 10
94.0
 20
-149.99999999999821
 30
0.0
 11
94.0
 21
-200.48077870405689
 31
0.0
1001
ACDBBLOCKREPETAG
1070
     1
1071
        4
1005
128B1E
  0
LINE
  5
128B1F
  8
OBJECT
 10
94.0
 20
-290.0
 30
0.0
 11
94.0
 21
-239.51922129594311
 31
0.0
1001
ACDBBLOCKREPETAG
1070
     1
1071
        5
1005
128B1F
  0
LINE
  5
128B20
  8
OBJECT
 10
218.0
 20
-290.0
 30
0.0
 11
218.0
 21
-282.0
 31
0.0
1001
ACDBBLOCKREPETAG
1070
     1
1071
        6
1005
128B20
  0
LINE
  5
128B21
  8
OBJECT
 10
226.0
 20
-282.0
 30
0.0
 11
218.0
 21
-282.0
 31
0.0
1001
ACDBBLOCKREPETAG
1070
     1
1071
        7
1005
128B21
  0
LINE
  5
128B22
  8
OBJECT
 10
218.0
 20
-149.99999999999821
 30
0.0
 11
218.0
 21
-158.0
 31
0.0
1001
ACDBBLOCKREPETAG
1070
     1
1071
        8
1005
128B22
  0
LINE
  5
128B23
  8
OBJECT
 10
226.0
 20
-158.0
 30
0.0
 11
218.0
 21
-158.0
 31
0.0
1001
ACDBBLOCKREPETAG
1070
     1
1071
        9
1005
128B23
  0
ARC
  5
128B24
  8
OBJECT
 10
156.0
 20
-220.0
 30
0.0
 40
37.5
 50
33.162766676671247
 51
319.16350249081961
1001
ACDBBLOCKREPETAG
1070
     1
1071
       13
1005
128B24
  0
LINE
  5
128B25
  8
OBJECT
 10
201.96194077712559
 20
-265.96194077712562
 30
0.0
 11
218.0
 21
-282.0
 31
0.0
1001
ACDBBLOCKREPETAG
1070
     1
1071
       21
1005
128B25
  0
LINE
  5
128B26
  8
OBJECT
 10
201.96194077712559
 20
-174.03805922287441
 30
0.0
 11
218.0
 21
-158.0
 31
0.0
1001
ACDBBLOCKREPETAG
1070
     1
1071
       22
1005
128B26
  0
ARC
  5
128B27
  8
OBJECT
 10
180.44352901899211
 20
-230.09723786081301
 30
0.0
 40
7.0
 50
163.00127222951571
 51
244.05025878932179
1001
ACDBBLOCKREPETAG
1070
     1
1071
       70
1005
128B27
  0
ARC
  5
128B28
  8
OBJECT
 10
181.59787731695181
 20
-233.1623389293527
 30
0.0
 40
9.0
 50
163.00127222951571
 51
244.050263925937
1001
ACDBBLOCKREPETAG
1070
     1
1071
       71
1005
128B28
  0
ARC
  5
128B29
  8
OBJECT
 10
103.2813003114825
 20
-323.6857698684471
 30
0.0
 40
150.0
 50
52.895033739929247
 51
55.89314996963072
1001
ACDBBLOCKREPETAG
1070
     1
1071
       72
1005
128B29
  0
LINE
  5
128B2A
  8
OBJECT
 10
177.3804510089721
 20
-236.39148548102821
 30
0.0
 11
190.19158700000111
 21
-242.62598900000009
 31
0.0
1001
ACDBBLOCKREPETAG
1070
     1
1071
       73
1005
128B2A
  0
LINE
  5
128B2B
  8
OBJECT
 10
177.65963488670599
 20
-241.25494336553669
 30
0.0
 11
187.61836000000039
 21
-246.10132800000429
 31
0.0
1001
ACDBBLOCKREPETAG
1070
     1
1071
       74
1005
128B2B
  0
LINE
  5
128B2C
  8
OBJECT
 10
182.00000000000171
 20
-201.0619819999992
 30
0.0
 11
172.9910760874445
 21
-230.53118469673791
 31
0.0
1001
ACDBBLOCKREPETAG
1070
     1
1071
       75
1005
128B2C
  0
LINE
  5
128B2D
  8
OBJECT
 10
187.39199878029279
 20
-199.48677469099479
 30
0.0
 11
182.00000000000171
 21
-201.0619819999992
 31
0.0
1001
ACDBBLOCKREPETAG
1070
     1
1071
       76
1005
128B2D
  0
POINT
  5
128B2E
  8
DOTS
 10
156.0
 20
-220.0
 30
0.0
1001
ACDBBLOCKREPETAG
1070
     1
1071
       39
1005
128B2E
  0
INSERT
  5
128B2F
  8
OBJECT
  2
*U10
 10
0.0
 20
0.0
 30
0.0
  0
LINE
  5
128B30
  8
OBJECT
 10
109.0
 20
-96.999999999998181
 30
0.0
 11
109.0
 21
-89.999999999998181
 31
0.0
1001
ACDBBLOCKREPETAG
1070
     1
1071
        1
1005
128B30
  0
LINE
  5
128B31
  8
OBJECT
 10
109.0
 20
-89.999999999998181
 30
0.0
 11
203.0
 21
-89.999999999998181
 31
0.0
1001
ACDBBLOCKREPETAG
1070
     1
1071
        2
1005
128B31
  0
LINE
  5
128B32
  8
OBJECT
 10
203.0
 20
-89.999999999998181
 30
0.0
 11
203.0
 21
-96.999999999998181
 31
0.0
1001
ACDBBLOCKREPETAG
1070
     1
1071
        3
1005
128B32
  0
LINE
  5
128B33
  8
OBJECT
 10
203.0
 20
-96.999999999998181
 30
0.0
 11
109.0
 21
-96.999999999998181
 31
0.0
1001
ACDBBLOCKREPETAG
1070
     1
1071
        4
1005
128B33
  0
LINE
  5
128B34
  8
OBJECT
 10
112.0
 20
-96.999999999998181
 30
0.0
 11
112.0
 21
-132.99999999999821
 31
0.0
1001
ACDBBLOCKREPETAG
1070
     1
1071
        5
1005
128B34
  0
LINE
  5
128B35
  8
OBJECT
 10
112.0
 20
-132.99999999999821
 30
0.0
 11
200.0
 21
-132.99999999999821
 31
0.0
1001
ACDBBLOCKREPETAG
1070
     1
1071
        6
1005
128B35
  0
LINE
  5
128B36
  8
OBJECT
 10
200.0
 20
-132.99999999999821
 30
0.0
 11
200.0
 21
-96.999999999998181
 31
0.0
1001
ACDBBLOCKREPETAG
1070
     1
1071
        7
1005
128B36
  0
LINE
  5
128B37
  8
OBJECT
 10
116.5
 20
-136.99999999999821
 30
0.0
 11
116.5
 21
-143.9999999999981
 31
0.0
1001
ACDBBLOCKREPETAG
1070
     1
1071
        8
1005
128B37
  0
LINE
  5
128B38
  8
OBJECT
 10
195.5
 20
-143.9999999999981
 30
0.0
 11
195.5
 21
-136.99999999999821
 31
0.0
1001
ACDBBLOCKREPETAG
1070
     1
1071
        9
1005
128B38
  0
LINE
  5
128B39
  8
OBJECT
 10
195.5
 20
-136.99999999999821
 30
0.0
 11
116.5
 21
-136.99999999999821
 31
0.0
1001
ACDBBLOCKREPETAG
1070
     1
1071
       10
1005
128B39
  0
LINE
  5
128B3A
  8
OBJECT
 10
112.0
 20
-132.99999999999821
 30
0.0
 11
116.5
 21
-136.99999999999821
 31
0.0
1001
ACDBBLOCKREPETAG
1070
     1
1071
       11
1005
128B3A
  0
LINE
  5
128B3B
  8
OBJECT
 10
200.0
 20
-132.99999999999821
 30
0.0
 11
195.5
 21
-136.99999999999821
 31
0.0
1001
ACDBBLOCKREPETAG
1070
     1
1071
       12
1005
128B3B
  0
LINE
  5
128B3C
  8
OBJECT
 10
94.0
 20
-146.99999999999719
 30
0.0
 11
94.0
 21
-149.99999999999821
 31
0.0
1001
ACDBBLOCKREPETAG
1070
     1
1071
       13
1005
128B3C
  0
ARC
  5
128B3D
  8
OBJECT
 10
97.0
 20
-146.99999999999719
 30
0.0
 40
3.0
 50
90.0
 51
180.0
1001
ACDBBLOCKREPETAG
1070
     1
1071
       14
1005
128B3D
  0
LINE
  5
128B3E
  8
OBJECT
 10
218.0
 20
-149.99999999999821
 30
0.0
 11
218.0
 21
-146.99999999999909
 31
0.0
1001
ACDBBLOCKREPETAG
1070
     1
1071
       15
1005
128B3E
  0
ARC
  5
128B3F
  8
OBJECT
 10
215.0
 20
-146.99999999999909
 30
0.0
 40
3.0
 50
0.0
 51
90.0
1001
ACDBBLOCKREPETAG
1070
     1
1071
       16
1005
128B3F
  0
LINE
  5
128B40
  8
OBJECT
 10
215.0
 20
-143.99999999999909
 30
0.0
 11
97.0
 21
-143.99999999999719
 31
0.0
1001
ACDBBLOCKREPETAG
1070
     1
1071
       17
1005
128B40
  0
LINE
  5
128B41
  8
HIDDEN
 10
126.0
 20
-141.99999999999821
 30
0.0
 11
186.0
 21
-141.99999999999821
 31
0.0
1001
ACDBBLOCKREPETAG
1070
     1
1071
      420
1005
128B41
  0
POLYLINE
  5
128B42
  8
HIDDEN
 66
     1
 10
0.0
 20
0.0
 30
0.0
 70
     1
1001
ACDBBLOCKREPETAG
1070
     1
1071
      105
1005
0
  0
VERTEX
  5
1292A6
  8
HIDDEN
 10
359.99999999987818
 20
0.0
 30
0.0
  0
VERTEX
  5
1292A7
  8
HIDDEN
 10
719.99999999975626
 20
0.0
 30
0.0
  0
VERTEX
  5
1292A8
  8
HIDDEN
 10
719.99999999975626
 20
-463.99999999984158
 30
0.0
  0
VERTEX
  5
1292A9
  8
HIDDEN
 10
359.99999999987818
 20
-463.99999999984158
 30
0.0
  0
SEQEND
  5
1292AA
  8
HIDDEN
  0
POLYLINE
  5
128B43
  8
HIDDEN
 66
     1
 10
0.0
 20
0.0
 30
0.0
 70
     1
1001
ACDBBLOCKREPETAG
1070
     1
1071
      110
1005
0
  0
VERTEX
  5
1292AB
  8
HIDDEN
 10
0.0
 20
0.0
 30
0.0
  0
VERTEX
  5
1292AC
  8
HIDDEN
 10
359.99999999987818
 20
0.0
 30
0.0
  0
VERTEX
  5
1292AD
  8
HIDDEN
 10
359.99999999987818
 20
-463.99999999984158
 30
0.0
  0
VERTEX
  5
1292AE
  8
HIDDEN
 10
0.0
 20
-463.99999999984158
 30
0.0
  0
SEQEND
  5
1292AF
  8
HIDDEN
  0
POLYLINE
  5
128B44
  8
HIDDEN
 66
     1
 10
0.0
 20
0.0
 30
0.0
 70
     1
1001
ACDBBLOCKREPETAG
1070
     1
1071
      120
1005
0
  0
VERTEX
  5
1292B0
  8
HIDDEN
 10
359.99999999987818
 20
-463.99999999984158
 30
0.0
  0
VERTEX
  5
1292B1
  8
HIDDEN
 10
719.99999999975626
 20
-463.99999999984158
 30
0.0
  0
VERTEX
  5
1292B2
  8
HIDDEN
 10
719.99999999975626
 20
-927.99999999968372
 30
0.0
  0
VERTEX
  5
1292B3
  8
HIDDEN
 10
359.99999999987818
 20
-927.99999999968372
 30
0.0
  0
SEQEND
  5
1292B4
  8
HIDDEN
  0
POLYLINE
  5
128B45
  8
HIDDEN
 66
     1
 10
0.0
 20
0.0
 30
0.0
 70
     1
1001
ACDBBLOCKREPETAG
1070
     1
1071
      125
1005
0
  0
VERTEX
  5
1292B5
  8
HIDDEN
 10
0.0
 20
-463.99999999984158
 30
0.0
  0
VERTEX
  5
1292B6
  8
HIDDEN
 10
359.99999999987818
 20
-463.99999999984158
 30
0.0
  0
VERTEX
  5
1292B7
  8
HIDDEN
 10
359.99999999987818
 20
-927.99999999968372
 30
0.0
  0
VERTEX
  5
1292B8
  8
HIDDEN
 10
0.0
 20
-927.99999999968372
 30
0.0
  0
SEQEND
  5
1292B9
  8
HIDDEN
  0
TEXT
  5
128B46
  8
SLIM
 10
492.85714285696088
 20
-907.999999999691
 30
0.0
 40
48.0
  1
C22
 41
0.75
1001
ACDBBLOCKREPETAG
1070
     1
1071
      119
1005
0
  0
TEXT
  5
128B47
  8
SLIM
 10
140.5714285713685
 20
-907.999999999691
 30
0.0
 40
48.0
  1
C21
 41
0.75
1001
ACDBBLOCKREPETAG
1070
     1
1071
      119
1005
0
  0
TEXT
  5
128B48
  8
SLIM
 10
496.28571428553232
 20
-443.99999999984919
 30
0.0
 40
48.0
  1
C12
 41
0.75
1001
ACDBBLOCKREPETAG
1070
     1
1071
      119
1005
0
  0
TEXT
  5
128B49
  8
SLIM
 10
143.99999999993989
 20
-443.99999999984919
 30
0.0
 40
48.0
  1
C11
 41
0.75
1001
ACDBBLOCKREPETAG
1070
     1
1071
      119
1005
0
  0
LINE
  5
128B4A
  8
OBJECT
 10
11927.0
 20
-633.99999999999955
 30
0.0
 11
11930.0
 21
-633.99999999999955
 31
0.0
1001
ACDBBLOCKREPETAG
1070
     1
1071
        1
1005
128B4A
  0
ARC
  5
128B4B
  8
OBJECT
 10
11927.0
 20
-636.99999999999955
 30
0.0
 40
3.0
 50
90.0
 51
180.0
1001
ACDBBLOCKREPETAG
1070
     1
1071
        2
1005
128B4B
  0
LINE
  5
128B4C
  8
OBJECT
 10
11930.0
 20
-757.99999999999955
 30
0.0
 11
11927.0
 21
-757.99999999999955
 31
0.0
1001
ACDBBLOCKREPETAG
1070
     1
1071
        3
1005
128B4C
  0
ARC
  5
128B4D
  8
OBJECT
 10
11927.0
 20
-754.99999999999955
 30
0.0
 40
3.0
 50
180.0
 51
270.0
1001
ACDBBLOCKREPETAG
1070
     1
1071
        4
1005
128B4D
  0
LINE
  5
128B4E
  8
OBJECT
 10
11924.0
 20
-754.99999999999955
 30
0.0
 11
11924.0
 21
-636.99999999999955
 31
0.0
1001
ACDBBLOCKREPETAG
1070
     1
1071
        5
1005
128B4E
  0
CIRCLE
  5
128B4F
  8
OBJECT
 10
12000.0
 20
-696.0
 30
0.0
 40
62.0
1001
ACDBBLOCKREPETAG
1070
     1
1071
        3
1005
128B4F
  0
LINE
  5
128B50
  8
CENTER
 10
11938.0
 20
-711.0
 30
0.0
 11
12062.0
 21
-711.0
 31
0.0
1001
ACDBBLOCKREPETAG
1070
     1
1071
        4
1005
128B50
  0
CIRCLE
  5
128B51
  8
OBJECT
 10
12000.0
 20
-711.0
 30
0.0
 40
28.0
1001
ACDBBLOCKREPETAG
1070
     1
1071
        6
1005
128B51
  0
CIRCLE
  5
128B52
  8
OBJECT
 10
12000.0
 20
-711.0
 30
0.0
 40
39.0
1001
ACDBBLOCKREPETAG
1070
     1
1071
        7
1005
128B52
  0
ARC
  5
128B53
  8
OBJECT
 10
12000.0
 20
-711.0
 30
0.0
 40
47.0
 50
290.58196921144179
 51
249.41803078855821
1001
ACDBBLOCKREPETAG
1070
     1
1071
        8
1005
128B53
  0
LINE
  5
128B54
  8
OBJECT
 10
11983.477288358141
 20
-755.0
 30
0.0
 11
12016.52271164185
 21
-755.0
 31
0.0
1001
ACDBBLOCKREPETAG
1070
     1
1071
        9
1005
128B54
  0
LINE
  5
128B55
  8
OBJECT
 10
11935.0
 20
-549.99999999999955
 30
0.0
 11
11935.0
 21
-570.99999999999955
 31
0.0
1001
ACDBBLOCKREPETAG
1070
     1
1071
       16
1005
128B55
  0
LINE
  5
128B56
  8
OBJECT
 10
11935.0
 20
-570.99999999999955
 30
0.0
 11
12065.0
 21
-570.99999999999955
 31
0.0
1001
ACDBBLOCKREPETAG
1070
     1
1071
       17
1005
128B56
  0
LINE
  5
128B57
  8
OBJECT
 10
12065.0
 20
-570.99999999999955
 30
0.0
 11
12065.0
 21
-549.99999999999955
 31
0.0
1001
ACDBBLOCKREPETAG
1070
     1
1071
       18
1005
128B57
  0
LINE
  5
128B58
  8
OBJECT
 10
12065.0
 20
-549.99999999999955
 30
0.0
 11
11935.0
 21
-549.99999999999955
 31
0.0
1001
ACDBBLOCKREPETAG
1070
     1
1071
       19
1005
128B58
  0
LINE
  5
128B59
  8
HIDDEN
 10
12044.5
 20
-619.99999999999955
 30
0.0
 11
11955.5
 21
-619.99999999999955
 31
0.0
1001
ACDBBLOCKREPETAG
1070
     1
1071
       20
1005
128B59
  0
LINE
  5
128B5A
  8
CENTER
 10
12000.0
 20
-769.99999999999955
 30
0.0
 11
12000.0
 21
-534.99999999999955
 31
0.0
1001
ACDBBLOCKREPETAG
1070
     1
1071
       21
1005
128B5A
  0
LINE
  5
128B5B
  8
OBJECT
 10
11940.5
 20
-570.99999999999955
 30
0.0
 11
11940.5
 21
-633.99999999999955
 31
0.0
1001
ACDBBLOCKREPETAG
1070
     1
1071
       22
1005
128B5B
  0
LINE
  5
128B5C
  8
OBJECT
 10
11930.0
 20
-633.99999999999955
 30
0.0
 11
12070.0
 21
-633.99999999999955
 31
0.0
1001
ACDBBLOCKREPETAG
1070
     1
1071
       23
1005
128B5C
  0
LINE
  5
128B5D
  8
OBJECT
 10
12059.5
 20
-633.99999999999955
 30
0.0
 11
12059.5
 21
-570.99999999999955
 31
0.0
1001
ACDBBLOCKREPETAG
1070
     1
1071
       24
1005
128B5D
  0
LINE
  5
128B5E
  8
OBJECT
 10
11930.0
 20
-757.99999999999955
 30
0.0
 11
11930.0
 21
-769.99999999999955
 31
0.0
1001
ACDBBLOCKREPETAG
1070
     1
1071
       25
1005
128B5E
  0
LINE
  5
128B5F
  8
OBJECT
 10
11930.0
 20
-769.99999999999955
 30
0.0
 11
12070.0
 21
-769.99999999999955
 31
0.0
1001
ACDBBLOCKREPETAG
1070
     1
1071
       26
1005
128B5F
  0
LINE
  5
128B60
  8
OBJECT
 10
12070.0
 20
-769.99999999999955
 30
0.0
 11
12070.0
 21
-757.99999999999955
 31
0.0
1001
ACDBBLOCKREPETAG
1070
     1
1071
       27
1005
128B60
  0
LINE
  5
128B61
  8
OBJECT
 10
12070.0
 20
-757.99999999999955
 30
0.0
 11
11930.0
 21
-757.99999999999955
 31
0.0
1001
ACDBBLOCKREPETAG
1070
     1
1071
       28
1005
128B61
  0
ARC
  5
128B62
  8
OBJECT
 10
12435.038438994679
 20
-998.60813684682694
 30
0.0
 40
519.48776673616965
 50
135.42350667430969
 51
138.50052655621499
1001
ACDBBLOCKREPETAG
1070
     1
1071
       32
1005
128B62
  0
ARC
  5
128B63
  8
OBJECT
 10
12435.038438994679
 20
-393.39186315317193
 30
0.0
 40
519.48776673616965
 50
221.49947344378501
 51
224.57649332569039
1001
ACDBBLOCKREPETAG
1070
     1
1071
       33
1005
128B63
  0
ARC
  5
128B64
  8
OBJECT
 10
11564.961561005321
 20
-998.60813684682694
 30
0.0
 40
519.48776673616965
 50
41.499473443784993
 51
44.576493325690237
1001
ACDBBLOCKREPETAG
1070
     1
1071
       34
1005
128B64
  0
ARC
  5
128B65
  8
OBJECT
 10
11564.961561005321
 20
-393.39186315317193
 30
0.0
 40
519.48776673616965
 50
315.42350667430981
 51
318.50052655621488
1001
ACDBBLOCKREPETAG
1070
     1
1071
       35
1005
128B65
  0
POINT
  5
128B66
  8
DOTS
 10
12000.0
 20
-754.99999999999955
 30
0.0
1001
ACDBBLOCKREPETAG
1070
     1
1071
      111
1005
128B66
  0
LINE
  5
128B67
  8
CENTER
 10
11909.0
 20
-199.99999999999909
 30
0.0
 11
11930.0
 21
-199.99999999999909
 31
0.0
1001
ACDBBLOCKREPETAG
1070
     1
1071
        0
1005
128B67
  0
LINE
  5
128B68
  8
OBJECT
 10
11927.0
 20
-261.99999999999909
 30
0.0
 11
11930.0
 21
-261.99999999999909
 31
0.0
1001
ACDBBLOCKREPETAG
1070
     1
1071
        1
1005
128B68
  0
ARC
  5
128B69
  8
OBJECT
 10
11927.0
 20
-258.99999999999909
 30
0.0
 40
3.0
 50
180.0
 51
270.0
1001
ACDBBLOCKREPETAG
1070
     1
1071
        2
1005
128B69
  0
LINE
  5
128B6A
  8
OBJECT
 10
11930.0
 20
-137.99999999999909
 30
0.0
 11
11927.0
 21
-137.99999999999909
 31
0.0
1001
ACDBBLOCKREPETAG
1070
     1
1071
        3
1005
128B6A
  0
ARC
  5
128B6B
  8
OBJECT
 10
11927.0
 20
-140.99999999999909
 30
0.0
 40
3.0
 50
90.0
 51
180.0
1001
ACDBBLOCKREPETAG
1070
     1
1071
        4
1005
128B6B
  0
LINE
  5
128B6C
  8
OBJECT
 10
11924.0
 20
-140.99999999999909
 30
0.0
 11
11924.0
 21
-258.99999999999909
 31
0.0
1001
ACDBBLOCKREPETAG
1070
     1
1071
        5
1005
128B6C
  0
LINE
  5
128B6D
  8
OBJECT
 10
12047.0
 20
-322.99999999999898
 30
0.0
 11
12047.0
 21
-329.99999999999898
 31
0.0
1001
ACDBBLOCKREPETAG
1070
     1
1071
        7
1005
128B6D
  0
LINE
  5
128B6E
  8
OBJECT
 10
12047.0
 20
-329.99999999999898
 30
0.0
 11
11953.0
 21
-329.99999999999898
 31
0.0
1001
ACDBBLOCKREPETAG
1070
     1
1071
        8
1005
128B6E
  0
LINE
  5
128B6F
  8
OBJECT
 10
11953.0
 20
-329.99999999999898
 30
0.0
 11
11953.0
 21
-322.99999999999898
 31
0.0
1001
ACDBBLOCKREPETAG
1070
     1
1071
        9
1005
128B6F
  0
LINE
  5
128B70
  8
OBJECT
 10
11953.0
 20
-322.99999999999898
 30
0.0
 11
12047.0
 21
-322.99999999999898
 31
0.0
1001
ACDBBLOCKREPETAG
1070
     1
1071
       10
1005
128B70
  0
LINE
  5
128B71
  8
CENTER
 10
12000.0
 20
-344.99999999999909
 30
0.0
 11
12000.0
 21
-269.99999999999909
 31
0.0
1001
ACDBBLOCKREPETAG
1070
     1
1071
       11
1005
128B71
  0
LINE
  5
128B72
  8
OBJECT
 10
12044.0
 20
-322.99999999999898
 30
0.0
 11
12044.0
 21
-286.99999999999898
 31
0.0
1001
ACDBBLOCKREPETAG
1070
     1
1071
       12
1005
128B72
  0
LINE
  5
128B73
  8
OBJECT
 10
12044.0
 20
-286.99999999999898
 30
0.0
 11
11956.0
 21
-286.99999999999898
 31
0.0
1001
ACDBBLOCKREPETAG
1070
     1
1071
       13
1005
128B73
  0
LINE
  5
128B74
  8
OBJECT
 10
11956.0
 20
-286.99999999999898
 30
0.0
 11
11956.0
 21
-322.99999999999898
 31
0.0
1001
ACDBBLOCKREPETAG
1070
     1
1071
       14
1005
128B74
  0
LINE
  5
128B75
  8
OBJECT
 10
12039.5
 20
-282.99999999999898
 30
0.0
 11
12039.5
 21
-275.99999999999909
 31
0.0
1001
ACDBBLOCKREPETAG
1070
     1
1071
       15
1005
128B75
  0
LINE
  5
128B76
  8
OBJECT
 10
11960.5
 20
-275.99999999999909
 30
0.0
 11
11960.5
 21
-282.99999999999898
 31
0.0
1001
ACDBBLOCKREPETAG
1070
     1
1071
       16
1005
128B76
  0
LINE
  5
128B77
  8
OBJECT
 10
11960.5
 20
-282.99999999999898
 30
0.0
 11
12039.5
 21
-282.99999999999898
 31
0.0
1001
ACDBBLOCKREPETAG
1070
     1
1071
       17
1005
128B77
  0
LINE
  5
128B78
  8
OBJECT
 10
12044.0
 20
-286.99999999999898
 30
0.0
 11
12039.5
 21
-282.99999999999898
 31
0.0
1001
ACDBBLOCKREPETAG
1070
     1
1071
       18
1005
128B78
  0
LINE
  5
128B79
  8
OBJECT
 10
11956.0
 20
-286.99999999999898
 30
0.0
 11
11960.5
 21
-282.99999999999898
 31
0.0
1001
ACDBBLOCKREPETAG
1070
     1
1071
       19
1005
128B79
  0
LINE
  5
128B7A
  8
OBJECT
 10
12062.0
 20
-272.99999999999909
 30
0.0
 11
12062.0
 21
-269.99999999999909
 31
0.0
1001
ACDBBLOCKREPETAG
1070
     1
1071
       20
1005
128B7A
  0
ARC
  5
128B7B
  8
OBJECT
 10
12059.0
 20
-272.99999999999909
 30
0.0
 40
3.0
 50
270.0
 51
0.0
1001
ACDBBLOCKREPETAG
1070
     1
1071
       21
1005
128B7B
  0
LINE
  5
128B7C
  8
OBJECT
 10
11938.0
 20
-269.99999999999909
 30
0.0
 11
11938.0
 21
-272.99999999999909
 31
0.0
1001
ACDBBLOCKREPETAG
1070
     1
1071
       22
1005
128B7C
  0
ARC
  5
128B7D
  8
OBJECT
 10
11941.0
 20
-272.99999999999909
 30
0.0
 40
3.0
 50
180.0
 51
270.0
1001
ACDBBLOCKREPETAG
1070
     1
1071
       23
1005
128B7D
  0
LINE
  5
128B7E
  8
OBJECT
 10
11941.0
 20
-275.99999999999909
 30
0.0
 11
12059.0
 21
-275.99999999999909
 31
0.0
1001
ACDBBLOCKREPETAG
1070
     1
1071
       24
1005
128B7E
  0
LINE
  5
128B7F
  8
HIDDEN
 10
12030.0
 20
-277.99999999999909
 30
0.0
 11
11970.0
 21
-277.99999999999909
 31
0.0
1001
ACDBBLOCKREPETAG
1070
     1
1071
       25
1005
128B7F
  0
LINE
  5
128B80
  8
SLIM
 10
11963.217182668241
 20
-137.99999999999909
 30
0.0
 11
11969.921507996291
 21
-131.29567467194681
 31
0.0
1001
GRADIENTCOLOR1ACI
1070
     5
1001
GRADIENTCOLOR2ACI
1070
     2
1001
ACAD
1010
0.0
1020
0.0
1030
0.0
1001
ACDBBLOCKREPETAG
1070
     1
1071
      169
1005
128B80
  0
LINE
  5
128B81
  8
SLIM
 10
11972.19743878931
 20
-137.99999999999909
 30
0.0
 11
11983.31883633275
 21
-126.87860245655401
 31
0.0
1001
GRADIENTCOLOR1ACI
1070
     5
1001
GRADIENTCOLOR2ACI
1070
     2
1001
ACAD
1010
0.0
1020
0.0
1030
0.0
1001
ACDBBLOCKREPETAG
1070
     1
1071
      170
1005
128B81
  0
LINE
  5
128B82
  8
SLIM
 10
11981.48493728876
 20
-137.6927576216126
 30
0.0
 11
11993.9318052486
 21
-125.245889661777
 31
0.0
1001
GRADIENTCOLOR1ACI
1070
     5
1001
GRADIENTCOLOR2ACI
1070
     2
1001
ACAD
1010
0.0
1020
0.0
1030
0.0
1001
ACDBBLOCKREPETAG
1070
     1
1071
      171
1005
128B82
  0
LINE
  5
128B83
  8
SLIM
 10
11992.75265682803
 20
-135.40529420341099
 30
0.0
 11
12000.0
 21
-128.1579510314458
 31
0.0
1001
GRADIENTCOLOR1ACI
1070
     5
1001
GRADIENTCOLOR2ACI
1070
     2
1001
ACAD
1010
0.0
1020
0.0
1030
0.0
1001
ACDBBLOCKREPETAG
1070
     1
1071
      172
1005
128B83
  0
LINE
  5
128B84
  8
SLIM
 10
12000.0
 20
-128.1579510314458
 30
0.0
 11
12003.094100787839
 21
-125.0638502435924
 31
0.0
1001
GRADIENTCOLOR1ACI
1070
     5
1001
GRADIENTCOLOR2ACI
1070
     2
1001
ACAD
1010
0.0
1020
0.0
1030
0.0
1001
ACDBBLOCKREPETAG
1070
     1
1071
      173
1005
128B84
  0
LINE
  5
128B85
  8
SLIM
 10
12002.10414122347
 20
-135.03406592904389
 30
0.0
 11
12011.28442576865
 21
-125.85378138386341
 31
0.0
1001
GRADIENTCOLOR1ACI
1070
     5
1001
GRADIENTCOLOR2ACI
1070
     2
1001
ACAD
1010
0.0
1020
0.0
1030
0.0
1001
ACDBBLOCKREPETAG
1070
     1
1071
      174
1005
128B85
  0
LINE
  5
128B86
  8
SLIM
 10
12010.297585520921
 20
-135.82087775265759
 30
0.0
 11
12018.73958846552
 21
-127.3788748080627
 31
0.0
1001
GRADIENTCOLOR1ACI
1070
     5
1001
GRADIENTCOLOR2ACI
1070
     2
1001
ACAD
1010
0.0
1020
0.0
1030
0.0
1001
ACDBBLOCKREPETAG
1070
     1
1071
      175
1005
128B86
  0
LINE
  5
128B87
  8
SLIM
 10
12017.655079364229
 20
-137.4436400304258
 30
0.0
 11
12025.595886626959
 21
-129.50283276769261
 31
0.0
1001
GRADIENTCOLOR1ACI
1070
     5
1001
GRADIENTCOLOR2ACI
1070
     2
1001
ACAD
1010
0.0
1020
0.0
1030
0.0
1001
ACDBBLOCKREPETAG
1070
     1
1071
      176
1005
128B87
  0
LINE
  5
128B88
  8
SLIM
 10
12026.07897551572
 20
-137.99999999999909
 30
0.0
 11
12031.9385859461
 21
-132.1403895696169
 31
0.0
1001
GRADIENTCOLOR1ACI
1070
     5
1001
GRADIENTCOLOR2ACI
1070
     2
1001
ACAD
1010
0.0
1020
0.0
1030
0.0
1001
ACDBBLOCKREPETAG
1070
     1
1071
      177
1005
128B88
  0
LINE
  5
128B89
  8
SLIM
 10
12035.059231636789
 20
-137.99999999999909
 30
0.0
 11
12037.82336543762
 21
-135.23586619916779
 31
0.0
1001
GRADIENTCOLOR1ACI
1070
     5
1001
GRADIENTCOLOR2ACI
1070
     2
1001
ACAD
1010
0.0
1020
0.0
1030
0.0
1001
ACDBBLOCKREPETAG
1070
     1
1071
      178
1005
128B89
  0
CIRCLE
  5
128B8A
  8
OBJECT
 10
12000.0
 20
-199.99999999999909
 30
0.0
 40
65.0
1001
ACDBBLOCKREPETAG
1070
     1
1071
       84
1005
128B8A
  0
CIRCLE
  5
128B8B
  8
OBJECT
 10
12000.0
 20
-199.99999999999909
 30
0.0
 40
41.0
1001
ACDBBLOCKREPETAG
1070
     1
1071
       85
1005
128B8B
  0
CIRCLE
  5
128B8C
  8
OBJECT
 10
12000.0
 20
-199.99999999999909
 30
0.0
 40
58.0
1001
ACDBBLOCKREPETAG
1070
     1
1071
       86
1005
128B8C
  0
LINE
  5
128B8D
  8
OBJECT
 10
12070.0
 20
-137.99999999999909
 30
0.0
 11
12019.519221295939
 21
-137.99999999999909
 31
0.0
1001
ACDBBLOCKREPETAG
1070
     1
1071
       87
1005
128B8D
  0
LINE
  5
128B8E
  8
OBJECT
 10
11930.0
 20
-137.99999999999909
 30
0.0
 11
11980.48077870405
 21
-137.99999999999909
 31
0.0
1001
ACDBBLOCKREPETAG
1070
     1
1071
       88
1005
128B8E
  0
LINE
  5
128B8F
  8
OBJECT
 10
11930.0
 20
-261.99999999999909
 30
0.0
 11
11938.0
 21
-261.99999999999909
 31
0.0
1001
ACDBBLOCKREPETAG
1070
     1
1071
       89
1005
128B8F
  0
LINE
  5
128B90
  8
OBJECT
 10
11938.0
 20
-269.99999999999909
 30
0.0
 11
11938.0
 21
-261.99999999999909
 31
0.0
1001
ACDBBLOCKREPETAG
1070
     1
1071
       90
1005
128B90
  0
LINE
  5
128B91
  8
OBJECT
 10
12070.0
 20
-261.99999999999909
 30
0.0
 11
12062.0
 21
-261.99999999999909
 31
0.0
1001
ACDBBLOCKREPETAG
1070
     1
1071
       91
1005
128B91
  0
LINE
  5
128B92
  8
OBJECT
 10
12062.0
 20
-269.99999999999909
 30
0.0
 11
12062.0
 21
-261.99999999999909
 31
0.0
1001
ACDBBLOCKREPETAG
1070
     1
1071
       92
1005
128B92
  0
LINE
  5
128B93
  8
CENTER
 10
11930.0
 20
-199.99999999999909
 30
0.0
 11
12070.0
 21
-199.99999999999909
 31
0.0
1001
ACDBBLOCKREPETAG
1070
     1
1071
       93
1005
128B93
  0
LINE
  5
128B94
  8
CENTER
 10
12000.0
 20
-269.99999999999909
 30
0.0
 11
12000.0
 21
-109.9999999999991
 31
0.0
1001
ACDBBLOCKREPETAG
1070
     1
1071
       94
1005
128B94
  0
ARC
  5
128B95
  8
OBJECT
 10
11989.902762139191
 20
-224.44352901899131
 30
0.0
 40
7.0
 50
73.00127222950276
 51
154.0502587892864
1001
ACDBBLOCKREPETAG
1070
     1
1071
       95
1005
128B95
  0
ARC
  5
128B96
  8
OBJECT
 10
11986.837661070649
 20
-225.5978773169509
 30
0.0
 40
9.0
 50
73.00127222950276
 51
154.0502639259247
1001
ACDBBLOCKREPETAG
1070
     1
1071
       96
1005
128B96
  0
ARC
  5
128B97
  8
OBJECT
 10
11896.314230131549
 20
-147.28130031148149
 30
0.0
 40
150.0
 50
322.8950337398245
 51
325.8931499695608
1001
ACDBBLOCKREPETAG
1070
     1
1071
       97
1005
128B97
  0
ARC
  5
128B98
  8
OBJECT
 10
12000.0
 20
-199.99999999999909
 30
0.0
 40
37.5
 50
303.16276667665232
 51
229.16350249104781
1001
ACDBBLOCKREPETAG
1070
     1
1071
       98
1005
128B98
  0
LINE
  5
128B99
  8
OBJECT
 10
11983.608514518981
 20
-221.38045100897119
 30
0.0
 11
11977.374011
 21
-234.1915870000002
 31
0.0
1001
ACDBBLOCKREPETAG
1070
     1
1071
       99
1005
128B99
  0
LINE
  5
128B9A
  8
OBJECT
 10
11978.74505663446
 20
-221.65963488670511
 30
0.0
 11
11973.898671999999
 21
-231.6183599999996
 31
0.0
1001
ACDBBLOCKREPETAG
1070
     1
1071
      100
1005
128B9A
  0
LINE
  5
128B9B
  8
OBJECT
 10
12018.938018000001
 20
-226.00000000000091
 30
0.0
 11
11989.468815303249
 21
-216.99107608744359
 31
0.0
1001
ACDBBLOCKREPETAG
1070
     1
1071
      101
1005
128B9B
  0
LINE
  5
128B9C
  8
OBJECT
 10
12020.513225309
 20
-231.39199878029191
 30
0.0
 11
12018.938018000001
 21
-226.00000000000091
 31
0.0
1001
ACDBBLOCKREPETAG
1070
     1
1071
      102
1005
128B9C
  0
LINE
  5
128B9D
  8
OBJECT
 10
11954.03805922287
 20
-245.96194077712289
 30
0.0
 11
11938.0
 21
-261.99999999999909
 31
0.0
1001
ACDBBLOCKREPETAG
1070
     1
1071
      106
1005
128B9D
  0
LINE
  5
128B9E
  8
OBJECT
 10
12045.96194077713
 20
-245.96194077712289
 30
0.0
 11
12062.0
 21
-261.99999999999909
 31
0.0
1001
ACDBBLOCKREPETAG
1070
     1
1071
      107
1005
128B9E
  0
ARC
  5
128B9F
  8
OBJECT
 10
12000.0
 20
-199.99999999999909
 30
0.0
 40
75.0
 50
55.757831297238091
 51
124.2421687027619
1001
ACDBBLOCKREPETAG
1070
     1
1071
      108
1005
128B9F
  0
POINT
  5
128BA0
  8
DOTS
 10
12000.0
 20
-199.99999999999909
 30
0.0
 50
270.0
1001
ACDBBLOCKREPETAG
1070
     1
1071
      157
1005
128BA0
  0
LINE
  5
128BA1
  8
OBJECT
 10
12123.0
 20
-663.99999999999966
 30
0.0
 11
12130.0
 21
-663.99999999999966
 31
0.0
1001
ACDBBLOCKREPETAG
1070
     1
1071
        7
1005
128BA1
  0
LINE
  5
128BA2
  8
OBJECT
 10
12130.0
 20
-663.99999999999966
 30
0.0
 11
12130.0
 21
-754.99999999999955
 31
0.0
1001
ACDBBLOCKREPETAG
1070
     1
1071
        8
1005
128BA2
  0
LINE
  5
128BA3
  8
OBJECT
 10
12123.0
 20
-754.99999999999955
 30
0.0
 11
12123.0
 21
-663.99999999999966
 31
0.0
1001
ACDBBLOCKREPETAG
1070
     1
1071
        9
1005
128BA3
  0
LINE
  5
128BA4
  8
CENTER
 10
12145.0
 20
-710.99999999999955
 30
0.0
 11
12061.0
 21
-710.99999999999955
 31
0.0
1001
ACDBBLOCKREPETAG
1070
     1
1071
       10
1005
128BA4
  0
LINE
  5
128BA5
  8
OBJECT
 10
12123.0
 20
-666.99999999999955
 30
0.0
 11
12087.0
 21
-666.99999999999955
 31
0.0
1001
ACDBBLOCKREPETAG
1070
     1
1071
       11
1005
128BA5
  0
LINE
  5
128BA6
  8
OBJECT
 10
12087.0
 20
-666.99999999999955
 30
0.0
 11
12087.0
 21
-754.99999999999955
 31
0.0
1001
ACDBBLOCKREPETAG
1070
     1
1071
       12
1005
128BA6
  0
LINE
  5
128BA7
  8
OBJECT
 10
12087.0
 20
-754.99999999999955
 30
0.0
 11
12130.0
 21
-754.99999999999955
 31
0.0
1001
ACDBBLOCKREPETAG
1070
     1
1071
       13
1005
128BA7
  0
LINE
  5
128BA8
  8
OBJECT
 10
12083.0
 20
-671.49999999999955
 30
0.0
 11
12076.0
 21
-671.49999999999955
 31
0.0
1001
ACDBBLOCKREPETAG
1070
     1
1071
       14
1005
128BA8
  0
LINE
  5
128BA9
  8
OBJECT
 10
12076.0
 20
-750.49999999999955
 30
0.0
 11
12083.0
 21
-750.49999999999955
 31
0.0
1001
ACDBBLOCKREPETAG
1070
     1
1071
       15
1005
128BA9
  0
LINE
  5
128BAA
  8
OBJECT
 10
12083.0
 20
-750.49999999999955
 30
0.0
 11
12083.0
 21
-671.49999999999955
 31
0.0
1001
ACDBBLOCKREPETAG
1070
     1
1071
       16
1005
128BAA
  0
LINE
  5
128BAB
  8
OBJECT
 10
12087.0
 20
-666.99999999999955
 30
0.0
 11
12083.0
 21
-671.49999999999955
 31
0.0
1001
ACDBBLOCKREPETAG
1070
     1
1071
       17
1005
128BAB
  0
LINE
  5
128BAC
  8
OBJECT
 10
12087.0
 20
-754.99999999999955
 30
0.0
 11
12083.0
 21
-750.49999999999955
 31
0.0
1001
ACDBBLOCKREPETAG
1070
     1
1071
       18
1005
128BAC
  0
LINE
  5
128BAD
  8
OBJECT
 10
12073.0
 20
-633.99999999999955
 30
0.0
 11
12070.0
 21
-633.99999999999955
 31
0.0
1001
ACDBBLOCKREPETAG
1070
     1
1071
       19
1005
128BAD
  0
ARC
  5
128BAE
  8
OBJECT
 10
12073.0
 20
-636.99999999999955
 30
0.0
 40
3.0
 50
0.0
 51
90.0
1001
ACDBBLOCKREPETAG
1070
     1
1071
       20
1005
128BAE
  0
LINE
  5
128BAF
  8
OBJECT
 10
12070.0
 20
-757.99999999999955
 30
0.0
 11
12073.0
 21
-757.99999999999955
 31
0.0
1001
ACDBBLOCKREPETAG
1070
     1
1071
       21
1005
128BAF
  0
ARC
  5
128BB0
  8
OBJECT
 10
12073.0
 20
-754.99999999999955
 30
0.0
 40
3.0
 50
270.0
 51
0.0
1001
ACDBBLOCKREPETAG
1070
     1
1071
       22
1005
128BB0
  0
LINE
  5
128BB1
  8
OBJECT
 10
12076.0
 20
-754.99999999999955
 30
0.0
 11
12076.0
 21
-636.99999999999955
 31
0.0
1001
ACDBBLOCKREPETAG
1070
     1
1071
       23
1005
128BB1
  0
LINE
  5
128BB2
  8
HIDDEN
 10
12078.0
 20
-680.99999999999955
 30
0.0
 11
12078.0
 21
-740.99999999999955
 31
0.0
1001
ACDBBLOCKREPETAG
1070
     1
1071
       24
1005
128BB2
  0
LINE
  5
128BB3
  8
OBJECT
 10
12123.0
 20
-152.99999999999909
 30
0.0
 11
12130.0
 21
-152.99999999999909
 31
0.0
1001
ACDBBLOCKREPETAG
1070
     1
1071
        7
1005
128BB3
  0
LINE
  5
128BB4
  8
OBJECT
 10
12130.0
 20
-152.99999999999909
 30
0.0
 11
12130.0
 21
-246.99999999999909
 31
0.0
1001
ACDBBLOCKREPETAG
1070
     1
1071
        8
1005
128BB4
  0
LINE
  5
128BB5
  8
OBJECT
 10
12130.0
 20
-246.99999999999909
 30
0.0
 11
12123.0
 21
-246.99999999999909
 31
0.0
1001
ACDBBLOCKREPETAG
1070
     1
1071
        9
1005
128BB5
  0
LINE
  5
128BB6
  8
OBJECT
 10
12123.0
 20
-246.99999999999909
 30
0.0
 11
12123.0
 21
-152.99999999999909
 31
0.0
1001
ACDBBLOCKREPETAG
1070
     1
1071
       10
1005
128BB6
  0
LINE
  5
128BB7
  8
CENTER
 10
12145.0
 20
-199.99999999999909
 30
0.0
 11
12070.0
 21
-199.99999999999909
 31
0.0
1001
ACDBBLOCKREPETAG
1070
     1
1071
       11
1005
128BB7
  0
LINE
  5
128BB8
  8
OBJECT
 10
12123.0
 20
-155.99999999999909
 30
0.0
 11
12087.0
 21
-155.99999999999909
 31
0.0
1001
ACDBBLOCKREPETAG
1070
     1
1071
       12
1005
128BB8
  0
LINE
  5
128BB9
  8
OBJECT
 10
12087.0
 20
-155.99999999999909
 30
0.0
 11
12087.0
 21
-243.99999999999909
 31
0.0
1001
ACDBBLOCKREPETAG
1070
     1
1071
       13
1005
128BB9
  0
LINE
  5
128BBA
  8
OBJECT
 10
12087.0
 20
-243.99999999999909
 30
0.0
 11
12123.0
 21
-243.99999999999909
 31
0.0
1001
ACDBBLOCKREPETAG
1070
     1
1071
       14
1005
128BBA
  0
LINE
  5
128BBB
  8
OBJECT
 10
12083.0
 20
-160.49999999999909
 30
0.0
 11
12076.0
 21
-160.49999999999909
 31
0.0
1001
ACDBBLOCKREPETAG
1070
     1
1071
       15
1005
128BBB
  0
LINE
  5
128BBC
  8
OBJECT
 10
12076.0
 20
-239.49999999999909
 30
0.0
 11
12083.0
 21
-239.49999999999909
 31
0.0
1001
ACDBBLOCKREPETAG
1070
     1
1071
       16
1005
128BBC
  0
LINE
  5
128BBD
  8
OBJECT
 10
12083.0
 20
-239.49999999999909
 30
0.0
 11
12083.0
 21
-160.49999999999909
 31
0.0
1001
ACDBBLOCKREPETAG
1070
     1
1071
       17
1005
128BBD
  0
LINE
  5
128BBE
  8
OBJECT
 10
12087.0
 20
-155.99999999999909
 30
0.0
 11
12083.0
 21
-160.49999999999909
 31
0.0
1001
ACDBBLOCKREPETAG
1070
     1
1071
       18
1005
128BBE
  0
LINE
  5
128BBF
  8
OBJECT
 10
12087.0
 20
-243.99999999999909
 30
0.0
 11
12083.0
 21
-239.49999999999909
 31
0.0
1001
ACDBBLOCKREPETAG
1070
     1
1071
       19
1005
128BBF
  0
LINE
  5
128BC0
  8
OBJECT
 10
12073.0
 20
-137.99999999999909
 30
0.0
 11
12070.0
 21
-137.99999999999909
 31
0.0
1001
ACDBBLOCKREPETAG
1070
     1
1071
       20
1005
128BC0
  0
ARC
  5
128BC1
  8
OBJECT
 10
12073.0
 20
-140.99999999999909
 30
0.0
 40
3.0
 50
0.0
 51
90.0
1001
ACDBBLOCKREPETAG
1070
     1
1071
       21
1005
128BC1
  0
LINE
  5
128BC2
  8
OBJECT
 10
12070.0
 20
-261.99999999999909
 30
0.0
 11
12073.0
 21
-261.99999999999909
 31
0.0
1001
ACDBBLOCKREPETAG
1070
     1
1071
       22
1005
128BC2
  0
ARC
  5
128BC3
  8
OBJECT
 10
12073.0
 20
-258.99999999999909
 30
0.0
 40
3.0
 50
270.0
 51
0.0
1001
ACDBBLOCKREPETAG
1070
     1
1071
       23
1005
128BC3
  0
LINE
  5
128BC4
  8
OBJECT
 10
12076.0
 20
-258.99999999999909
 30
0.0
 11
12076.0
 21
-140.99999999999909
 31
0.0
1001
ACDBBLOCKREPETAG
1070
     1
1071
       24
1005
128BC4
  0
LINE
  5
128BC5
  8
HIDDEN
 10
12078.0
 20
-169.99999999999909
 30
0.0
 11
12078.0
 21
-229.99999999999909
 31
0.0
1001
ACDBBLOCKREPETAG
1070
     1
1071
       25
1005
128BC5
  0
LINE
  5
128BC6
  8
OBJECT
 10
9927.0
 20
-633.99999999999955
 30
0.0
 11
9930.0
 21
-633.99999999999955
 31
0.0
1001
ACDBBLOCKREPETAG
1070
     1
1071
        1
1005
128BC6
  0
ARC
  5
128BC7
  8
OBJECT
 10
9927.0
 20
-636.99999999999955
 30
0.0
 40
3.0
 50
90.0
 51
180.0
1001
ACDBBLOCKREPETAG
1070
     1
1071
        2
1005
128BC7
  0
LINE
  5
128BC8
  8
OBJECT
 10
9930.0
 20
-757.99999999999955
 30
0.0
 11
9927.0
 21
-757.99999999999955
 31
0.0
1001
ACDBBLOCKREPETAG
1070
     1
1071
        3
1005
128BC8
  0
ARC
  5
128BC9
  8
OBJECT
 10
9927.0
 20
-754.99999999999955
 30
0.0
 40
3.0
 50
180.0
 51
270.0
1001
ACDBBLOCKREPETAG
1070
     1
1071
        4
1005
128BC9
  0
LINE
  5
128BCA
  8
OBJECT
 10
9924.0
 20
-754.99999999999955
 30
0.0
 11
9924.0
 21
-636.99999999999955
 31
0.0
1001
ACDBBLOCKREPETAG
1070
     1
1071
        5
1005
128BCA
  0
CIRCLE
  5
128BCB
  8
OBJECT
 10
10000.0
 20
-696.0
 30
0.0
 40
62.0
1001
ACDBBLOCKREPETAG
1070
     1
1071
        3
1005
128BCB
  0
LINE
  5
128BCC
  8
CENTER
 10
9938.0
 20
-711.0
 30
0.0
 11
10062.0
 21
-711.0
 31
0.0
1001
ACDBBLOCKREPETAG
1070
     1
1071
        4
1005
128BCC
  0
CIRCLE
  5
128BCD
  8
OBJECT
 10
10000.0
 20
-711.0
 30
0.0
 40
28.0
1001
ACDBBLOCKREPETAG
1070
     1
1071
        6
1005
128BCD
  0
CIRCLE
  5
128BCE
  8
OBJECT
 10
10000.0
 20
-711.0
 30
0.0
 40
39.0
1001
ACDBBLOCKREPETAG
1070
     1
1071
        7
1005
128BCE
  0
ARC
  5
128BCF
  8
OBJECT
 10
10000.0
 20
-711.0
 30
0.0
 40
47.0
 50
290.58196921144179
 51
249.41803078855821
1001
ACDBBLOCKREPETAG
1070
     1
1071
        8
1005
128BCF
  0
LINE
  5
128BD0
  8
OBJECT
 10
9983.4772883581427
 20
-755.0
 30
0.0
 11
10016.52271164185
 21
-755.0
 31
0.0
1001
ACDBBLOCKREPETAG
1070
     1
1071
        9
1005
128BD0
  0
LINE
  5
128BD1
  8
OBJECT
 10
9935.0
 20
-549.99999999999955
 30
0.0
 11
9935.0
 21
-570.99999999999955
 31
0.0
1001
ACDBBLOCKREPETAG
1070
     1
1071
       16
1005
128BD1
  0
LINE
  5
128BD2
  8
OBJECT
 10
9935.0
 20
-570.99999999999955
 30
0.0
 11
10065.0
 21
-570.99999999999955
 31
0.0
1001
ACDBBLOCKREPETAG
1070
     1
1071
       17
1005
128BD2
  0
LINE
  5
128BD3
  8
OBJECT
 10
10065.0
 20
-570.99999999999955
 30
0.0
 11
10065.0
 21
-549.99999999999955
 31
0.0
1001
ACDBBLOCKREPETAG
1070
     1
1071
       18
1005
128BD3
  0
LINE
  5
128BD4
  8
OBJECT
 10
10065.0
 20
-549.99999999999955
 30
0.0
 11
9935.0
 21
-549.99999999999955
 31
0.0
1001
ACDBBLOCKREPETAG
1070
     1
1071
       19
1005
128BD4
  0
LINE
  5
128BD5
  8
HIDDEN
 10
10044.5
 20
-619.99999999999955
 30
0.0
 11
9955.5
 21
-619.99999999999955
 31
0.0
1001
ACDBBLOCKREPETAG
1070
     1
1071
       20
1005
128BD5
  0
LINE
  5
128BD6
  8
CENTER
 10
10000.0
 20
-769.99999999999955
 30
0.0
 11
10000.0
 21
-534.99999999999955
 31
0.0
1001
ACDBBLOCKREPETAG
1070
     1
1071
       21
1005
128BD6
  0
LINE
  5
128BD7
  8
OBJECT
 10
9940.5
 20
-570.99999999999955
 30
0.0
 11
9940.5
 21
-633.99999999999955
 31
0.0
1001
ACDBBLOCKREPETAG
1070
     1
1071
       22
1005
128BD7
  0
LINE
  5
128BD8
  8
OBJECT
 10
9930.0
 20
-633.99999999999955
 30
0.0
 11
10070.0
 21
-633.99999999999955
 31
0.0
1001
ACDBBLOCKREPETAG
1070
     1
1071
       23
1005
128BD8
  0
LINE
  5
128BD9
  8
OBJECT
 10
10059.5
 20
-633.99999999999955
 30
0.0
 11
10059.5
 21
-570.99999999999955
 31
0.0
1001
ACDBBLOCKREPETAG
1070
     1
1071
       24
1005
128BD9
  0
LINE
  5
128BDA
  8
OBJECT
 10
9930.0
 20
-757.99999999999955
 30
0.0
 11
9930.0
 21
-769.99999999999955
 31
0.0
1001
ACDBBLOCKREPETAG
1070
     1
1071
       25
1005
128BDA
  0
LINE
  5
128BDB
  8
OBJECT
 10
9930.0
 20
-769.99999999999955
 30
0.0
 11
10070.0
 21
-769.99999999999955
 31
0.0
1001
ACDBBLOCKREPETAG
1070
     1
1071
       26
1005
128BDB
  0
LINE
  5
128BDC
  8
OBJECT
 10
10070.0
 20
-769.99999999999955
 30
0.0
 11
10070.0
 21
-757.99999999999955
 31
0.0
1001
ACDBBLOCKREPETAG
1070
     1
1071
       27
1005
128BDC
  0
LINE
  5
128BDD
  8
OBJECT
 10
10070.0
 20
-757.99999999999955
 30
0.0
 11
9930.0
 21
-757.99999999999955
 31
0.0
1001
ACDBBLOCKREPETAG
1070
     1
1071
       28
1005
128BDD
  0
ARC
  5
128BDE
  8
OBJECT
 10
10435.03843899467
 20
-998.60813684682694
 30
0.0
 40
519.48776673616965
 50
135.42350667430969
 51
138.50052655621499
1001
ACDBBLOCKREPETAG
1070
     1
1071
       32
1005
128BDE
  0
ARC
  5
128BDF
  8
OBJECT
 10
10435.03843899467
 20
-393.39186315317193
 30
0.0
 40
519.48776673616965
 50
221.49947344378501
 51
224.57649332569039
1001
ACDBBLOCKREPETAG
1070
     1
1071
       33
1005
128BDF
  0
ARC
  5
128BE0
  8
OBJECT
 10
9564.9615610053243
 20
-998.60813684682694
 30
0.0
 40
519.48776673616965
 50
41.499473443784993
 51
44.576493325690237
1001
ACDBBLOCKREPETAG
1070
     1
1071
       34
1005
128BE0
  0
ARC
  5
128BE1
  8
OBJECT
 10
9564.9615610053243
 20
-393.39186315317193
 30
0.0
 40
519.48776673616965
 50
315.42350667430981
 51
318.50052655621488
1001
ACDBBLOCKREPETAG
1070
     1
1071
       35
1005
128BE1
  0
POINT
  5
128BE2
  8
DOTS
 10
10000.0
 20
-754.99999999999955
 30
0.0
1001
ACDBBLOCKREPETAG
1070
     1
1071
      111
1005
128BE2
  0
LINE
  5
128BE3
  8
CENTER
 10
9909.0
 20
-199.99999999999909
 30
0.0
 11
9930.0
 21
-199.99999999999909
 31
0.0
1001
ACDBBLOCKREPETAG
1070
     1
1071
        0
1005
128BE3
  0
LINE
  5
128BE4
  8
OBJECT
 10
9927.0
 20
-261.99999999999909
 30
0.0
 11
9930.0
 21
-261.99999999999909
 31
0.0
1001
ACDBBLOCKREPETAG
1070
     1
1071
        1
1005
128BE4
  0
ARC
  5
128BE5
  8
OBJECT
 10
9927.0
 20
-258.99999999999909
 30
0.0
 40
3.0
 50
180.0
 51
270.0
1001
ACDBBLOCKREPETAG
1070
     1
1071
        2
1005
128BE5
  0
LINE
  5
128BE6
  8
OBJECT
 10
9930.0
 20
-137.99999999999909
 30
0.0
 11
9927.0
 21
-137.99999999999909
 31
0.0
1001
ACDBBLOCKREPETAG
1070
     1
1071
        3
1005
128BE6
  0
ARC
  5
128BE7
  8
OBJECT
 10
9927.0
 20
-140.99999999999909
 30
0.0
 40
3.0
 50
90.0
 51
180.0
1001
ACDBBLOCKREPETAG
1070
     1
1071
        4
1005
128BE7
  0
LINE
  5
128BE8
  8
OBJECT
 10
9924.0
 20
-140.99999999999909
 30
0.0
 11
9924.0
 21
-258.99999999999909
 31
0.0
1001
ACDBBLOCKREPETAG
1070
     1
1071
        5
1005
128BE8
  0
LINE
  5
128BE9
  8
OBJECT
 10
10047.0
 20
-322.99999999999898
 30
0.0
 11
10047.0
 21
-329.99999999999898
 31
0.0
1001
ACDBBLOCKREPETAG
1070
     1
1071
        7
1005
128BE9
  0
LINE
  5
128BEA
  8
OBJECT
 10
10047.0
 20
-329.99999999999898
 30
0.0
 11
9953.0
 21
-329.99999999999898
 31
0.0
1001
ACDBBLOCKREPETAG
1070
     1
1071
        8
1005
128BEA
  0
LINE
  5
128BEB
  8
OBJECT
 10
9953.0
 20
-329.99999999999898
 30
0.0
 11
9953.0
 21
-322.99999999999898
 31
0.0
1001
ACDBBLOCKREPETAG
1070
     1
1071
        9
1005
128BEB
  0
LINE
  5
128BEC
  8
OBJECT
 10
9953.0
 20
-322.99999999999898
 30
0.0
 11
10047.0
 21
-322.99999999999898
 31
0.0
1001
ACDBBLOCKREPETAG
1070
     1
1071
       10
1005
128BEC
  0
LINE
  5
128BED
  8
CENTER
 10
10000.0
 20
-344.99999999999909
 30
0.0
 11
10000.0
 21
-269.99999999999909
 31
0.0
1001
ACDBBLOCKREPETAG
1070
     1
1071
       11
1005
128BED
  0
LINE
  5
128BEE
  8
OBJECT
 10
10044.0
 20
-322.99999999999898
 30
0.0
 11
10044.0
 21
-286.99999999999898
 31
0.0
1001
ACDBBLOCKREPETAG
1070
     1
1071
       12
1005
128BEE
  0
LINE
  5
128BEF
  8
OBJECT
 10
10044.0
 20
-286.99999999999898
 30
0.0
 11
9956.0
 21
-286.99999999999898
 31
0.0
1001
ACDBBLOCKREPETAG
1070
     1
1071
       13
1005
128BEF
  0
LINE
  5
128BF0
  8
OBJECT
 10
9956.0
 20
-286.99999999999898
 30
0.0
 11
9956.0
 21
-322.99999999999898
 31
0.0
1001
ACDBBLOCKREPETAG
1070
     1
1071
       14
1005
128BF0
  0
LINE
  5
128BF1
  8
OBJECT
 10
10039.5
 20
-282.99999999999898
 30
0.0
 11
10039.5
 21
-275.99999999999909
 31
0.0
1001
ACDBBLOCKREPETAG
1070
     1
1071
       15
1005
128BF1
  0
LINE
  5
128BF2
  8
OBJECT
 10
9960.5000000000018
 20
-275.99999999999909
 30
0.0
 11
9960.5000000000018
 21
-282.99999999999898
 31
0.0
1001
ACDBBLOCKREPETAG
1070
     1
1071
       16
1005
128BF2
  0
LINE
  5
128BF3
  8
OBJECT
 10
9960.5000000000018
 20
-282.99999999999898
 30
0.0
 11
10039.5
 21
-282.99999999999898
 31
0.0
1001
ACDBBLOCKREPETAG
1070
     1
1071
       17
1005
128BF3
  0
LINE
  5
128BF4
  8
OBJECT
 10
10044.0
 20
-286.99999999999898
 30
0.0
 11
10039.5
 21
-282.99999999999898
 31
0.0
1001
ACDBBLOCKREPETAG
1070
     1
1071
       18
1005
128BF4
  0
LINE
  5
128BF5
  8
OBJECT
 10
9956.0
 20
-286.99999999999898
 30
0.0
 11
9960.5000000000018
 21
-282.99999999999898
 31
0.0
1001
ACDBBLOCKREPETAG
1070
     1
1071
       19
1005
128BF5
  0
LINE
  5
128BF6
  8
OBJECT
 10
10062.0
 20
-272.99999999999909
 30
0.0
 11
10062.0
 21
-269.99999999999909
 31
0.0
1001
ACDBBLOCKREPETAG
1070
     1
1071
       20
1005
128BF6
  0
ARC
  5
128BF7
  8
OBJECT
 10
10059.0
 20
-272.99999999999909
 30
0.0
 40
3.0
 50
270.0
 51
0.0
1001
ACDBBLOCKREPETAG
1070
     1
1071
       21
1005
128BF7
  0
LINE
  5
128BF8
  8
OBJECT
 10
9938.0
 20
-269.99999999999909
 30
0.0
 11
9938.0
 21
-272.99999999999909
 31
0.0
1001
ACDBBLOCKREPETAG
1070
     1
1071
       22
1005
128BF8
  0
ARC
  5
128BF9
  8
OBJECT
 10
9941.0
 20
-272.99999999999909
 30
0.0
 40
3.0
 50
180.0
 51
270.0
1001
ACDBBLOCKREPETAG
1070
     1
1071
       23
1005
128BF9
  0
LINE
  5
128BFA
  8
OBJECT
 10
9941.0
 20
-275.99999999999909
 30
0.0
 11
10059.0
 21
-275.99999999999909
 31
0.0
1001
ACDBBLOCKREPETAG
1070
     1
1071
       24
1005
128BFA
  0
LINE
  5
128BFB
  8
HIDDEN
 10
10030.0
 20
-277.99999999999909
 30
0.0
 11
9970.0
 21
-277.99999999999909
 31
0.0
1001
ACDBBLOCKREPETAG
1070
     1
1071
       25
1005
128BFB
  0
LINE
  5
128BFC
  8
SLIM
 10
9963.2171826682406
 20
-137.99999999999909
 30
0.0
 11
9969.9215079962923
 21
-131.29567467194681
 31
0.0
1001
GRADIENTCOLOR1ACI
1070
     5
1001
GRADIENTCOLOR2ACI
1070
     2
1001
ACAD
1010
0.0
1020
0.0
1030
0.0
1001
ACDBBLOCKREPETAG
1070
     1
1071
      169
1005
128BFC
  0
LINE
  5
128BFD
  8
SLIM
 10
9972.1974387893097
 20
-137.99999999999909
 30
0.0
 11
9983.3188363327517
 21
-126.87860245655401
 31
0.0
1001
GRADIENTCOLOR1ACI
1070
     5
1001
GRADIENTCOLOR2ACI
1070
     2
1001
ACAD
1010
0.0
1020
0.0
1030
0.0
1001
ACDBBLOCKREPETAG
1070
     1
1071
      170
1005
128BFD
  0
LINE
  5
128BFE
  8
SLIM
 10
9981.4849372887638
 20
-137.6927576216126
 30
0.0
 11
9993.9318052485996
 21
-125.245889661777
 31
0.0
1001
GRADIENTCOLOR1ACI
1070
     5
1001
GRADIENTCOLOR2ACI
1070
     2
1001
ACAD
1010
0.0
1020
0.0
1030
0.0
1001
ACDBBLOCKREPETAG
1070
     1
1071
      171
1005
128BFE
  0
LINE
  5
128BFF
  8
SLIM
 10
9992.7526568280355
 20
-135.40529420341099
 30
0.0
 11
10000.0
 21
-128.1579510314458
 31
0.0
1001
GRADIENTCOLOR1ACI
1070
     5
1001
GRADIENTCOLOR2ACI
1070
     2
1001
ACAD
1010
0.0
1020
0.0
1030
0.0
1001
ACDBBLOCKREPETAG
1070
     1
1071
      172
1005
128BFF
  0
LINE
  5
128C00
  8
SLIM
 10
10000.0
 20
-128.1579510314458
 30
0.0
 11
10003.09410078785
 21
-125.0638502435924
 31
0.0
1001
GRADIENTCOLOR1ACI
1070
     5
1001
GRADIENTCOLOR2ACI
1070
     2
1001
ACAD
1010
0.0
1020
0.0
1030
0.0
1001
ACDBBLOCKREPETAG
1070
     1
1071
      173
1005
128C00
  0
LINE
  5
128C01
  8
SLIM
 10
10002.10414122347
 20
-135.03406592904389
 30
0.0
 11
10011.28442576865
 21
-125.85378138386341
 31
0.0
1001
GRADIENTCOLOR1ACI
1070
     5
1001
GRADIENTCOLOR2ACI
1070
     2
1001
ACAD
1010
0.0
1020
0.0
1030
0.0
1001
ACDBBLOCKREPETAG
1070
     1
1071
      174
1005
128C01
  0
LINE
  5
128C02
  8
SLIM
 10
10010.297585520921
 20
-135.82087775265759
 30
0.0
 11
10018.73958846552
 21
-127.3788748080627
 31
0.0
1001
GRADIENTCOLOR1ACI
1070
     5
1001
GRADIENTCOLOR2ACI
1070
     2
1001
ACAD
1010
0.0
1020
0.0
1030
0.0
1001
ACDBBLOCKREPETAG
1070
     1
1071
      175
1005
128C02
  0
LINE
  5
128C03
  8
SLIM
 10
10017.65507936422
 20
-137.4436400304258
 30
0.0
 11
10025.595886626959
 21
-129.50283276769261
 31
0.0
1001
GRADIENTCOLOR1ACI
1070
     5
1001
GRADIENTCOLOR2ACI
1070
     2
1001
ACAD
1010
0.0
1020
0.0
1030
0.0
1001
ACDBBLOCKREPETAG
1070
     1
1071
      176
1005
128C03
  0
LINE
  5
128C04
  8
SLIM
 10
10026.07897551572
 20
-137.99999999999909
 30
0.0
 11
10031.9385859461
 21
-132.1403895696169
 31
0.0
1001
GRADIENTCOLOR1ACI
1070
     5
1001
GRADIENTCOLOR2ACI
1070
     2
1001
ACAD
1010
0.0
1020
0.0
1030
0.0
1001
ACDBBLOCKREPETAG
1070
     1
1071
      177
1005
128C04
  0
LINE
  5
128C05
  8
SLIM
 10
10035.05923163678
 20
-137.99999999999909
 30
0.0
 11
10037.82336543762
 21
-135.23586619916779
 31
0.0
1001
GRADIENTCOLOR1ACI
1070
     5
1001
GRADIENTCOLOR2ACI
1070
     2
1001
ACAD
1010
0.0
1020
0.0
1030
0.0
1001
ACDBBLOCKREPETAG
1070
     1
1071
      178
1005
128C05
  0
CIRCLE
  5
128C06
  8
OBJECT
 10
10000.0
 20
-199.99999999999909
 30
0.0
 40
65.0
1001
ACDBBLOCKREPETAG
1070
     1
1071
       84
1005
128C06
  0
CIRCLE
  5
128C07
  8
OBJECT
 10
10000.0
 20
-199.99999999999909
 30
0.0
 40
41.0
1001
ACDBBLOCKREPETAG
1070
     1
1071
       85
1005
128C07
  0
CIRCLE
  5
128C08
  8
OBJECT
 10
10000.0
 20
-199.99999999999909
 30
0.0
 40
58.0
1001
ACDBBLOCKREPETAG
1070
     1
1071
       86
1005
128C08
  0
LINE
  5
128C09
  8
OBJECT
 10
10070.0
 20
-137.99999999999909
 30
0.0
 11
10019.519221295939
 21
-137.99999999999909
 31
0.0
1001
ACDBBLOCKREPETAG
1070
     1
1071
       87
1005
128C09
  0
LINE
  5
128C0A
  8
OBJECT
 10
9930.0
 20
-137.99999999999909
 30
0.0
 11
9980.4807787040572
 21
-137.99999999999909
 31
0.0
1001
ACDBBLOCKREPETAG
1070
     1
1071
       88
1005
128C0A
  0
LINE
  5
128C0B
  8
OBJECT
 10
9930.0
 20
-261.99999999999909
 30
0.0
 11
9938.0
 21
-261.99999999999909
 31
0.0
1001
ACDBBLOCKREPETAG
1070
     1
1071
       89
1005
128C0B
  0
LINE
  5
128C0C
  8
OBJECT
 10
9938.0
 20
-269.99999999999909
 30
0.0
 11
9938.0
 21
-261.99999999999909
 31
0.0
1001
ACDBBLOCKREPETAG
1070
     1
1071
       90
1005
128C0C
  0
LINE
  5
128C0D
  8
OBJECT
 10
10070.0
 20
-261.99999999999909
 30
0.0
 11
10062.0
 21
-261.99999999999909
 31
0.0
1001
ACDBBLOCKREPETAG
1070
     1
1071
       91
1005
128C0D
  0
LINE
  5
128C0E
  8
OBJECT
 10
10062.0
 20
-269.99999999999909
 30
0.0
 11
10062.0
 21
-261.99999999999909
 31
0.0
1001
ACDBBLOCKREPETAG
1070
     1
1071
       92
1005
128C0E
  0
LINE
  5
128C0F
  8
CENTER
 10
9930.0
 20
-199.99999999999909
 30
0.0
 11
10070.0
 21
-199.99999999999909
 31
0.0
1001
ACDBBLOCKREPETAG
1070
     1
1071
       93
1005
128C0F
  0
LINE
  5
128C10
  8
CENTER
 10
10000.0
 20
-269.99999999999909
 30
0.0
 11
10000.0
 21
-109.9999999999991
 31
0.0
1001
ACDBBLOCKREPETAG
1070
     1
1071
       94
1005
128C10
  0
ARC
  5
128C11
  8
OBJECT
 10
9989.9027621391888
 20
-224.44352901899131
 30
0.0
 40
7.0
 50
73.00127222950276
 51
154.0502587892864
1001
ACDBBLOCKREPETAG
1070
     1
1071
       95
1005
128C11
  0
ARC
  5
128C12
  8
OBJECT
 10
9986.8376610706546
 20
-225.5978773169509
 30
0.0
 40
9.0
 50
73.00127222950276
 51
154.0502639259247
1001
ACDBBLOCKREPETAG
1070
     1
1071
       96
1005
128C12
  0
ARC
  5
128C13
  8
OBJECT
 10
9896.3142301315547
 20
-147.28130031148149
 30
0.0
 40
150.0
 50
322.8950337398245
 51
325.8931499695608
1001
ACDBBLOCKREPETAG
1070
     1
1071
       97
1005
128C13
  0
ARC
  5
128C14
  8
OBJECT
 10
10000.0
 20
-199.99999999999909
 30
0.0
 40
37.5
 50
303.16276667665232
 51
229.16350249104781
1001
ACDBBLOCKREPETAG
1070
     1
1071
       98
1005
128C14
  0
LINE
  5
128C15
  8
OBJECT
 10
9983.6085145189809
 20
-221.38045100897119
 30
0.0
 11
9977.3740110000017
 21
-234.1915870000002
 31
0.0
1001
ACDBBLOCKREPETAG
1070
     1
1071
       99
1005
128C15
  0
LINE
  5
128C16
  8
OBJECT
 10
9978.7450566344633
 20
-221.65963488670511
 30
0.0
 11
9973.8986720000048
 21
-231.6183599999996
 31
0.0
1001
ACDBBLOCKREPETAG
1070
     1
1071
      100
1005
128C16
  0
LINE
  5
128C17
  8
OBJECT
 10
10018.938018000001
 20
-226.00000000000091
 30
0.0
 11
9989.4688153032548
 21
-216.99107608744359
 31
0.0
1001
ACDBBLOCKREPETAG
1070
     1
1071
      101
1005
128C17
  0
LINE
  5
128C18
  8
OBJECT
 10
10020.513225309
 20
-231.39199878029191
 30
0.0
 11
10018.938018000001
 21
-226.00000000000091
 31
0.0
1001
ACDBBLOCKREPETAG
1070
     1
1071
      102
1005
128C18
  0
LINE
  5
128C19
  8
OBJECT
 10
9954.0380592228739
 20
-245.96194077712289
 30
0.0
 11
9938.0
 21
-261.99999999999909
 31
0.0
1001
ACDBBLOCKREPETAG
1070
     1
1071
      106
1005
128C19
  0
LINE
  5
128C1A
  8
OBJECT
 10
10045.96194077713
 20
-245.96194077712289
 30
0.0
 11
10062.0
 21
-261.99999999999909
 31
0.0
1001
ACDBBLOCKREPETAG
1070
     1
1071
      107
1005
128C1A
  0
ARC
  5
128C1B
  8
OBJECT
 10
10000.0
 20
-199.99999999999909
 30
0.0
 40
75.0
 50
55.757831297238091
 51
124.2421687027619
1001
ACDBBLOCKREPETAG
1070
     1
1071
      108
1005
128C1B
  0
POINT
  5
128C1C
  8
DOTS
 10
10000.0
 20
-199.99999999999909
 30
0.0
 50
270.0
1001
ACDBBLOCKREPETAG
1070
     1
1071
      157
1005
128C1C
  0
LINE
  5
128C1D
  8
OBJECT
 10
10123.0
 20
-663.99999999999966
 30
0.0
 11
10130.0
 21
-663.99999999999966
 31
0.0
1001
ACDBBLOCKREPETAG
1070
     1
1071
        7
1005
128C1D
  0
LINE
  5
128C1E
  8
OBJECT
 10
10130.0
 20
-663.99999999999966
 30
0.0
 11
10130.0
 21
-754.99999999999955
 31
0.0
1001
ACDBBLOCKREPETAG
1070
     1
1071
        8
1005
128C1E
  0
LINE
  5
128C1F
  8
OBJECT
 10
10123.0
 20
-754.99999999999955
 30
0.0
 11
10123.0
 21
-663.99999999999966
 31
0.0
1001
ACDBBLOCKREPETAG
1070
     1
1071
        9
1005
128C1F
  0
LINE
  5
128C20
  8
CENTER
 10
10145.0
 20
-710.99999999999955
 30
0.0
 11
10061.0
 21
-710.99999999999955
 31
0.0
1001
ACDBBLOCKREPETAG
1070
     1
1071
       10
1005
128C20
  0
LINE
  5
128C21
  8
OBJECT
 10
10123.0
 20
-666.99999999999955
 30
0.0
 11
10087.0
 21
-666.99999999999955
 31
0.0
1001
ACDBBLOCKREPETAG
1070
     1
1071
       11
1005
128C21
  0
LINE
  5
128C22
  8
OBJECT
 10
10087.0
 20
-666.99999999999955
 30
0.0
 11
10087.0
 21
-754.99999999999955
 31
0.0
1001
ACDBBLOCKREPETAG
1070
     1
1071
       12
1005
128C22
  0
LINE
  5
128C23
  8
OBJECT
 10
10087.0
 20
-754.99999999999955
 30
0.0
 11
10130.0
 21
-754.99999999999955
 31
0.0
1001
ACDBBLOCKREPETAG
1070
     1
1071
       13
1005
128C23
  0
LINE
  5
128C24
  8
OBJECT
 10
10083.0
 20
-671.49999999999955
 30
0.0
 11
10076.0
 21
-671.49999999999955
 31
0.0
1001
ACDBBLOCKREPETAG
1070
     1
1071
       14
1005
128C24
  0
LINE
  5
128C25
  8
OBJECT
 10
10076.0
 20
-750.49999999999955
 30
0.0
 11
10083.0
 21
-750.49999999999955
 31
0.0
1001
ACDBBLOCKREPETAG
1070
     1
1071
       15
1005
128C25
  0
LINE
  5
128C26
  8
OBJECT
 10
10083.0
 20
-750.49999999999955
 30
0.0
 11
10083.0
 21
-671.49999999999955
 31
0.0
1001
ACDBBLOCKREPETAG
1070
     1
1071
       16
1005
128C26
  0
LINE
  5
128C27
  8
OBJECT
 10
10087.0
 20
-666.99999999999955
 30
0.0
 11
10083.0
 21
-671.49999999999955
 31
0.0
1001
ACDBBLOCKREPETAG
1070
     1
1071
       17
1005
128C27
  0
LINE
  5
128C28
  8
OBJECT
 10
10087.0
 20
-754.99999999999955
 30
0.0
 11
10083.0
 21
-750.49999999999955
 31
0.0
1001
ACDBBLOCKREPETAG
1070
     1
1071
       18
1005
128C28
  0
LINE
  5
128C29
  8
OBJECT
 10
10073.0
 20
-633.99999999999955
 30
0.0
 11
10070.0
 21
-633.99999999999955
 31
0.0
1001
ACDBBLOCKREPETAG
1070
     1
1071
       19
1005
128C29
  0
ARC
  5
128C2A
  8
OBJECT
 10
10073.0
 20
-636.99999999999955
 30
0.0
 40
3.0
 50
0.0
 51
90.0
1001
ACDBBLOCKREPETAG
1070
     1
1071
       20
1005
128C2A
  0
LINE
  5
128C2B
  8
OBJECT
 10
10070.0
 20
-757.99999999999955
 30
0.0
 11
10073.0
 21
-757.99999999999955
 31
0.0
1001
ACDBBLOCKREPETAG
1070
     1
1071
       21
1005
128C2B
  0
ARC
  5
128C2C
  8
OBJECT
 10
10073.0
 20
-754.99999999999955
 30
0.0
 40
3.0
 50
270.0
 51
0.0
1001
ACDBBLOCKREPETAG
1070
     1
1071
       22
1005
128C2C
  0
LINE
  5
128C2D
  8
OBJECT
 10
10076.0
 20
-754.99999999999955
 30
0.0
 11
10076.0
 21
-636.99999999999955
 31
0.0
1001
ACDBBLOCKREPETAG
1070
     1
1071
       23
1005
128C2D
  0
LINE
  5
128C2E
  8
HIDDEN
 10
10078.0
 20
-680.99999999999955
 30
0.0
 11
10078.0
 21
-740.99999999999955
 31
0.0
1001
ACDBBLOCKREPETAG
1070
     1
1071
       24
1005
128C2E
  0
LINE
  5
128C2F
  8
OBJECT
 10
10123.0
 20
-152.99999999999909
 30
0.0
 11
10130.0
 21
-152.99999999999909
 31
0.0
1001
ACDBBLOCKREPETAG
1070
     1
1071
        7
1005
128C2F
  0
LINE
  5
128C30
  8
OBJECT
 10
10130.0
 20
-152.99999999999909
 30
0.0
 11
10130.0
 21
-246.99999999999909
 31
0.0
1001
ACDBBLOCKREPETAG
1070
     1
1071
        8
1005
128C30
  0
LINE
  5
128C31
  8
OBJECT
 10
10130.0
 20
-246.99999999999909
 30
0.0
 11
10123.0
 21
-246.99999999999909
 31
0.0
1001
ACDBBLOCKREPETAG
1070
     1
1071
        9
1005
128C31
  0
LINE
  5
128C32
  8
OBJECT
 10
10123.0
 20
-246.99999999999909
 30
0.0
 11
10123.0
 21
-152.99999999999909
 31
0.0
1001
ACDBBLOCKREPETAG
1070
     1
1071
       10
1005
128C32
  0
LINE
  5
128C33
  8
CENTER
 10
10145.0
 20
-199.99999999999909
 30
0.0
 11
10070.0
 21
-199.99999999999909
 31
0.0
1001
ACDBBLOCKREPETAG
1070
     1
1071
       11
1005
128C33
  0
LINE
  5
128C34
  8
OBJECT
 10
10123.0
 20
-155.99999999999909
 30
0.0
 11
10087.0
 21
-155.99999999999909
 31
0.0
1001
ACDBBLOCKREPETAG
1070
     1
1071
       12
1005
128C34
  0
LINE
  5
128C35
  8
OBJECT
 10
10087.0
 20
-155.99999999999909
 30
0.0
 11
10087.0
 21
-243.99999999999909
 31
0.0
1001
ACDBBLOCKREPETAG
1070
     1
1071
       13
1005
128C35
  0
LINE
  5
128C36
  8
OBJECT
 10
10087.0
 20
-243.99999999999909
 30
0.0
 11
10123.0
 21
-243.99999999999909
 31
0.0
1001
ACDBBLOCKREPETAG
1070
     1
1071
       14
1005
128C36
  0
LINE
  5
128C37
  8
OBJECT
 10
10083.0
 20
-160.49999999999909
 30
0.0
 11
10076.0
 21
-160.49999999999909
 31
0.0
1001
ACDBBLOCKREPETAG
1070
     1
1071
       15
1005
128C37
  0
LINE
  5
128C38
  8
OBJECT
 10
10076.0
 20
-239.49999999999909
 30
0.0
 11
10083.0
 21
-239.49999999999909
 31
0.0
1001
ACDBBLOCKREPETAG
1070
     1
1071
       16
1005
128C38
  0
LINE
  5
128C39
  8
OBJECT
 10
10083.0
 20
-239.49999999999909
 30
0.0
 11
10083.0
 21
-160.49999999999909
 31
0.0
1001
ACDBBLOCKREPETAG
1070
     1
1071
       17
1005
128C39
  0
LINE
  5
128C3A
  8
OBJECT
 10
10087.0
 20
-155.99999999999909
 30
0.0
 11
10083.0
 21
-160.49999999999909
 31
0.0
1001
ACDBBLOCKREPETAG
1070
     1
1071
       18
1005
128C3A
  0
LINE
  5
128C3B
  8
OBJECT
 10
10087.0
 20
-243.99999999999909
 30
0.0
 11
10083.0
 21
-239.49999999999909
 31
0.0
1001
ACDBBLOCKREPETAG
1070
     1
1071
       19
1005
128C3B
  0
LINE
  5
128C3C
  8
OBJECT
 10
10073.0
 20
-137.99999999999909
 30
0.0
 11
10070.0
 21
-137.99999999999909
 31
0.0
1001
ACDBBLOCKREPETAG
1070
     1
1071
       20
1005
128C3C
  0
ARC
  5
128C3D
  8
OBJECT
 10
10073.0
 20
-140.99999999999909
 30
0.0
 40
3.0
 50
0.0
 51
90.0
1001
ACDBBLOCKREPETAG
1070
     1
1071
       21
1005
128C3D
  0
LINE
  5
128C3E
  8
OBJECT
 10
10070.0
 20
-261.99999999999909
 30
0.0
 11
10073.0
 21
-261.99999999999909
 31
0.0
1001
ACDBBLOCKREPETAG
1070
     1
1071
       22
1005
128C3E
  0
ARC
  5
128C3F
  8
OBJECT
 10
10073.0
 20
-258.99999999999909
 30
0.0
 40
3.0
 50
270.0
 51
0.0
1001
ACDBBLOCKREPETAG
1070
     1
1071
       23
1005
128C3F
  0
LINE
  5
128C40
  8
OBJECT
 10
10076.0
 20
-258.99999999999909
 30
0.0
 11
10076.0
 21
-140.99999999999909
 31
0.0
1001
ACDBBLOCKREPETAG
1070
     1
1071
       24
1005
128C40
  0
LINE
  5
128C41
  8
HIDDEN
 10
10078.0
 20
-169.99999999999909
 30
0.0
 11
10078.0
 21
-229.99999999999909
 31
0.0
1001
ACDBBLOCKREPETAG
1070
     1
1071
       25
1005
128C41
  0
LINE
  5
128C42
  8
OBJECT
 10
7927.0
 20
-633.99999999999955
 30
0.0
 11
7930.0
 21
-633.99999999999955
 31
0.0
1001
ACDBBLOCKREPETAG
1070
     1
1071
        1
1005
128C42
  0
ARC
  5
128C43
  8
OBJECT
 10
7927.0
 20
-636.99999999999955
 30
0.0
 40
3.0
 50
90.0
 51
180.0
1001
ACDBBLOCKREPETAG
1070
     1
1071
        2
1005
128C43
  0
LINE
  5
128C44
  8
OBJECT
 10
7930.0
 20
-757.99999999999955
 30
0.0
 11
7927.0
 21
-757.99999999999955
 31
0.0
1001
ACDBBLOCKREPETAG
1070
     1
1071
        3
1005
128C44
  0
ARC
  5
128C45
  8
OBJECT
 10
7927.0
 20
-754.99999999999955
 30
0.0
 40
3.0
 50
180.0
 51
270.0
1001
ACDBBLOCKREPETAG
1070
     1
1071
        4
1005
128C45
  0
LINE
  5
128C46
  8
OBJECT
 10
7924.0
 20
-754.99999999999955
 30
0.0
 11
7924.0
 21
-636.99999999999955
 31
0.0
1001
ACDBBLOCKREPETAG
1070
     1
1071
        5
1005
128C46
  0
CIRCLE
  5
128C47
  8
OBJECT
 10
8000.0
 20
-696.0
 30
0.0
 40
62.0
1001
ACDBBLOCKREPETAG
1070
     1
1071
        3
1005
128C47
  0
LINE
  5
128C48
  8
CENTER
 10
7938.0
 20
-711.0
 30
0.0
 11
8062.0
 21
-711.0
 31
0.0
1001
ACDBBLOCKREPETAG
1070
     1
1071
        4
1005
128C48
  0
CIRCLE
  5
128C49
  8
OBJECT
 10
8000.0
 20
-711.0
 30
0.0
 40
28.0
1001
ACDBBLOCKREPETAG
1070
     1
1071
        6
1005
128C49
  0
CIRCLE
  5
128C4A
  8
OBJECT
 10
8000.0
 20
-711.0
 30
0.0
 40
39.0
1001
ACDBBLOCKREPETAG
1070
     1
1071
        7
1005
128C4A
  0
ARC
  5
128C4B
  8
OBJECT
 10
8000.0
 20
-711.0
 30
0.0
 40
47.0
 50
290.58196921144179
 51
249.41803078855821
1001
ACDBBLOCKREPETAG
1070
     1
1071
        8
1005
128C4B
  0
LINE
  5
128C4C
  8
OBJECT
 10
7983.4772883581409
 20
-755.0
 30
0.0
 11
8016.5227116418582
 21
-755.0
 31
0.0
1001
ACDBBLOCKREPETAG
1070
     1
1071
        9
1005
128C4C
  0
LINE
  5
128C4D
  8
OBJECT
 10
7935.0
 20
-549.99999999999955
 30
0.0
 11
7935.0
 21
-570.99999999999955
 31
0.0
1001
ACDBBLOCKREPETAG
1070
     1
1071
       16
1005
128C4D
  0
LINE
  5
128C4E
  8
OBJECT
 10
7935.0
 20
-570.99999999999955
 30
0.0
 11
8065.0
 21
-570.99999999999955
 31
0.0
1001
ACDBBLOCKREPETAG
1070
     1
1071
       17
1005
128C4E
  0
LINE
  5
128C4F
  8
OBJECT
 10
8065.0
 20
-570.99999999999955
 30
0.0
 11
8065.0
 21
-549.99999999999955
 31
0.0
1001
ACDBBLOCKREPETAG
1070
     1
1071
       18
1005
128C4F
  0
LINE
  5
128C50
  8
OBJECT
 10
8065.0
 20
-549.99999999999955
 30
0.0
 11
7935.0
 21
-549.99999999999955
 31
0.0
1001
ACDBBLOCKREPETAG
1070
     1
1071
       19
1005
128C50
  0
LINE
  5
128C51
  8
HIDDEN
 10
8044.5000000000036
 20
-619.99999999999955
 30
0.0
 11
7955.5
 21
-619.99999999999955
 31
0.0
1001
ACDBBLOCKREPETAG
1070
     1
1071
       20
1005
128C51
  0
LINE
  5
128C52
  8
CENTER
 10
8000.0
 20
-769.99999999999955
 30
0.0
 11
8000.0
 21
-534.99999999999955
 31
0.0
1001
ACDBBLOCKREPETAG
1070
     1
1071
       21
1005
128C52
  0
LINE
  5
128C53
  8
OBJECT
 10
7940.5
 20
-570.99999999999955
 30
0.0
 11
7940.5
 21
-633.99999999999955
 31
0.0
1001
ACDBBLOCKREPETAG
1070
     1
1071
       22
1005
128C53
  0
LINE
  5
128C54
  8
OBJECT
 10
7930.0
 20
-633.99999999999955
 30
0.0
 11
8070.0
 21
-633.99999999999955
 31
0.0
1001
ACDBBLOCKREPETAG
1070
     1
1071
       23
1005
128C54
  0
LINE
  5
128C55
  8
OBJECT
 10
8059.4999999999982
 20
-633.99999999999955
 30
0.0
 11
8059.4999999999982
 21
-570.99999999999955
 31
0.0
1001
ACDBBLOCKREPETAG
1070
     1
1071
       24
1005
128C55
  0
LINE
  5
128C56
  8
OBJECT
 10
7930.0
 20
-757.99999999999955
 30
0.0
 11
7930.0
 21
-769.99999999999955
 31
0.0
1001
ACDBBLOCKREPETAG
1070
     1
1071
       25
1005
128C56
  0
LINE
  5
128C57
  8
OBJECT
 10
7930.0
 20
-769.99999999999955
 30
0.0
 11
8070.0
 21
-769.99999999999955
 31
0.0
1001
ACDBBLOCKREPETAG
1070
     1
1071
       26
1005
128C57
  0
LINE
  5
128C58
  8
OBJECT
 10
8070.0
 20
-769.99999999999955
 30
0.0
 11
8070.0
 21
-757.99999999999955
 31
0.0
1001
ACDBBLOCKREPETAG
1070
     1
1071
       27
1005
128C58
  0
LINE
  5
128C59
  8
OBJECT
 10
8070.0
 20
-757.99999999999955
 30
0.0
 11
7930.0
 21
-757.99999999999955
 31
0.0
1001
ACDBBLOCKREPETAG
1070
     1
1071
       28
1005
128C59
  0
ARC
  5
128C5A
  8
OBJECT
 10
8435.0384389946794
 20
-998.60813684682694
 30
0.0
 40
519.48776673616965
 50
135.42350667430969
 51
138.50052655621499
1001
ACDBBLOCKREPETAG
1070
     1
1071
       32
1005
128C5A
  0
ARC
  5
128C5B
  8
OBJECT
 10
8435.0384389946794
 20
-393.39186315317193
 30
0.0
 40
519.48776673616965
 50
221.49947344378501
 51
224.57649332569039
1001
ACDBBLOCKREPETAG
1070
     1
1071
       33
1005
128C5B
  0
ARC
  5
128C5C
  8
OBJECT
 10
7564.9615610053233
 20
-998.60813684682694
 30
0.0
 40
519.48776673616965
 50
41.499473443784993
 51
44.576493325690237
1001
ACDBBLOCKREPETAG
1070
     1
1071
       34
1005
128C5C
  0
ARC
  5
128C5D
  8
OBJECT
 10
7564.9615610053233
 20
-393.39186315317193
 30
0.0
 40
519.48776673616965
 50
315.42350667430981
 51
318.50052655621488
1001
ACDBBLOCKREPETAG
1070
     1
1071
       35
1005
128C5D
  0
POINT
  5
128C5E
  8
DOTS
 10
8000.0
 20
-754.99999999999955
 30
0.0
1001
ACDBBLOCKREPETAG
1070
     1
1071
      111
1005
128C5E
  0
LINE
  5
128C5F
  8
CENTER
 10
7909.0
 20
-199.99999999999909
 30
0.0
 11
7930.0
 21
-199.99999999999909
 31
0.0
1001
ACDBBLOCKREPETAG
1070
     1
1071
        0
1005
128C5F
  0
LINE
  5
128C60
  8
OBJECT
 10
7927.0
 20
-261.99999999999909
 30
0.0
 11
7930.0
 21
-261.99999999999909
 31
0.0
1001
ACDBBLOCKREPETAG
1070
     1
1071
        1
1005
128C60
  0
ARC
  5
128C61
  8
OBJECT
 10
7927.0
 20
-258.99999999999909
 30
0.0
 40
3.0
 50
180.0
 51
270.0
1001
ACDBBLOCKREPETAG
1070
     1
1071
        2
1005
128C61
  0
LINE
  5
128C62
  8
OBJECT
 10
7930.0
 20
-137.99999999999909
 30
0.0
 11
7927.0
 21
-137.99999999999909
 31
0.0
1001
ACDBBLOCKREPETAG
1070
     1
1071
        3
1005
128C62
  0
ARC
  5
128C63
  8
OBJECT
 10
7927.0
 20
-140.99999999999909
 30
0.0
 40
3.0
 50
90.0
 51
180.0
1001
ACDBBLOCKREPETAG
1070
     1
1071
        4
1005
128C63
  0
LINE
  5
128C64
  8
OBJECT
 10
7924.0
 20
-140.99999999999909
 30
0.0
 11
7924.0
 21
-258.99999999999909
 31
0.0
1001
ACDBBLOCKREPETAG
1070
     1
1071
        5
1005
128C64
  0
LINE
  5
128C65
  8
OBJECT
 10
8047.0
 20
-322.99999999999898
 30
0.0
 11
8047.0
 21
-329.99999999999898
 31
0.0
1001
ACDBBLOCKREPETAG
1070
     1
1071
        7
1005
128C65
  0
LINE
  5
128C66
  8
OBJECT
 10
8047.0
 20
-329.99999999999898
 30
0.0
 11
7953.0
 21
-329.99999999999898
 31
0.0
1001
ACDBBLOCKREPETAG
1070
     1
1071
        8
1005
128C66
  0
LINE
  5
128C67
  8
OBJECT
 10
7953.0
 20
-329.99999999999898
 30
0.0
 11
7953.0
 21
-322.99999999999898
 31
0.0
1001
ACDBBLOCKREPETAG
1070
     1
1071
        9
1005
128C67
  0
LINE
  5
128C68
  8
OBJECT
 10
7953.0
 20
-322.99999999999898
 30
0.0
 11
8047.0
 21
-322.99999999999898
 31
0.0
1001
ACDBBLOCKREPETAG
1070
     1
1071
       10
1005
128C68
  0
LINE
  5
128C69
  8
CENTER
 10
8000.0
 20
-344.99999999999909
 30
0.0
 11
8000.0
 21
-269.99999999999909
 31
0.0
1001
ACDBBLOCKREPETAG
1070
     1
1071
       11
1005
128C69
  0
LINE
  5
128C6A
  8
OBJECT
 10
8044.0
 20
-322.99999999999898
 30
0.0
 11
8044.0
 21
-286.99999999999898
 31
0.0
1001
ACDBBLOCKREPETAG
1070
     1
1071
       12
1005
128C6A
  0
LINE
  5
128C6B
  8
OBJECT
 10
8044.0
 20
-286.99999999999898
 30
0.0
 11
7956.0
 21
-286.99999999999898
 31
0.0
1001
ACDBBLOCKREPETAG
1070
     1
1071
       13
1005
128C6B
  0
LINE
  5
128C6C
  8
OBJECT
 10
7956.0
 20
-286.99999999999898
 30
0.0
 11
7956.0
 21
-322.99999999999898
 31
0.0
1001
ACDBBLOCKREPETAG
1070
     1
1071
       14
1005
128C6C
  0
LINE
  5
128C6D
  8
OBJECT
 10
8039.5
 20
-282.99999999999898
 30
0.0
 11
8039.5
 21
-275.99999999999909
 31
0.0
1001
ACDBBLOCKREPETAG
1070
     1
1071
       15
1005
128C6D
  0
LINE
  5
128C6E
  8
OBJECT
 10
7960.5
 20
-275.99999999999909
 30
0.0
 11
7960.5
 21
-282.99999999999898
 31
0.0
1001
ACDBBLOCKREPETAG
1070
     1
1071
       16
1005
128C6E
  0
LINE
  5
128C6F
  8
OBJECT
 10
7960.5
 20
-282.99999999999898
 30
0.0
 11
8039.5
 21
-282.99999999999898
 31
0.0
1001
ACDBBLOCKREPETAG
1070
     1
1071
       17
1005
128C6F
  0
LINE
  5
128C70
  8
OBJECT
 10
8044.0
 20
-286.99999999999898
 30
0.0
 11
8039.5
 21
-282.99999999999898
 31
0.0
1001
ACDBBLOCKREPETAG
1070
     1
1071
       18
1005
128C70
  0
LINE
  5
128C71
  8
OBJECT
 10
7956.0
 20
-286.99999999999898
 30
0.0
 11
7960.5
 21
-282.99999999999898
 31
0.0
1001
ACDBBLOCKREPETAG
1070
     1
1071
       19
1005
128C71
  0
LINE
  5
128C72
  8
OBJECT
 10
8062.0
 20
-272.99999999999909
 30
0.0
 11
8062.0
 21
-269.99999999999909
 31
0.0
1001
ACDBBLOCKREPETAG
1070
     1
1071
       20
1005
128C72
  0
ARC
  5
128C73
  8
OBJECT
 10
8059.0
 20
-272.99999999999909
 30
0.0
 40
3.0
 50
270.0
 51
0.0
1001
ACDBBLOCKREPETAG
1070
     1
1071
       21
1005
128C73
  0
LINE
  5
128C74
  8
OBJECT
 10
7938.0
 20
-269.99999999999909
 30
0.0
 11
7938.0
 21
-272.99999999999909
 31
0.0
1001
ACDBBLOCKREPETAG
1070
     1
1071
       22
1005
128C74
  0
ARC
  5
128C75
  8
OBJECT
 10
7941.0
 20
-272.99999999999909
 30
0.0
 40
3.0
 50
180.0
 51
270.0
1001
ACDBBLOCKREPETAG
1070
     1
1071
       23
1005
128C75
  0
LINE
  5
128C76
  8
OBJECT
 10
7941.0
 20
-275.99999999999909
 30
0.0
 11
8059.0
 21
-275.99999999999909
 31
0.0
1001
ACDBBLOCKREPETAG
1070
     1
1071
       24
1005
128C76
  0
LINE
  5
128C77
  8
HIDDEN
 10
8030.0
 20
-277.99999999999909
 30
0.0
 11
7970.0
 21
-277.99999999999909
 31
0.0
1001
ACDBBLOCKREPETAG
1070
     1
1071
       25
1005
128C77
  0
LINE
  5
128C78
  8
SLIM
 10
7963.2171826682388
 20
-137.99999999999909
 30
0.0
 11
7969.9215079962914
 21
-131.29567467194681
 31
0.0
1001
GRADIENTCOLOR1ACI
1070
     5
1001
GRADIENTCOLOR2ACI
1070
     2
1001
ACAD
1010
0.0
1020
0.0
1030
0.0
1001
ACDBBLOCKREPETAG
1070
     1
1071
      169
1005
128C78
  0
LINE
  5
128C79
  8
SLIM
 10
7972.1974387893079
 20
-137.99999999999909
 30
0.0
 11
7983.3188363327517
 21
-126.87860245655401
 31
0.0
1001
GRADIENTCOLOR1ACI
1070
     5
1001
GRADIENTCOLOR2ACI
1070
     2
1001
ACAD
1010
0.0
1020
0.0
1030
0.0
1001
ACDBBLOCKREPETAG
1070
     1
1071
      170
1005
128C79
  0
LINE
  5
128C7A
  8
SLIM
 10
7981.4849372887629
 20
-137.6927576216126
 30
0.0
 11
7993.9318052485969
 21
-125.245889661777
 31
0.0
1001
GRADIENTCOLOR1ACI
1070
     5
1001
GRADIENTCOLOR2ACI
1070
     2
1001
ACAD
1010
0.0
1020
0.0
1030
0.0
1001
ACDBBLOCKREPETAG
1070
     1
1071
      171
1005
128C7A
  0
LINE
  5
128C7B
  8
SLIM
 10
7992.7526568280337
 20
-135.40529420341099
 30
0.0
 11
8000.0
 21
-128.1579510314458
 31
0.0
1001
GRADIENTCOLOR1ACI
1070
     5
1001
GRADIENTCOLOR2ACI
1070
     2
1001
ACAD
1010
0.0
1020
0.0
1030
0.0
1001
ACDBBLOCKREPETAG
1070
     1
1071
      172
1005
128C7B
  0
LINE
  5
128C7C
  8
SLIM
 10
8000.0
 20
-128.1579510314458
 30
0.0
 11
8003.0941007878528
 21
-125.0638502435924
 31
0.0
1001
GRADIENTCOLOR1ACI
1070
     5
1001
GRADIENTCOLOR2ACI
1070
     2
1001
ACAD
1010
0.0
1020
0.0
1030
0.0
1001
ACDBBLOCKREPETAG
1070
     1
1071
      173
1005
128C7C
  0
LINE
  5
128C7D
  8
SLIM
 10
8002.1041412234727
 20
-135.03406592904389
 30
0.0
 11
8011.284425768652
 21
-125.85378138386341
 31
0.0
1001
GRADIENTCOLOR1ACI
1070
     5
1001
GRADIENTCOLOR2ACI
1070
     2
1001
ACAD
1010
0.0
1020
0.0
1030
0.0
1001
ACDBBLOCKREPETAG
1070
     1
1071
      174
1005
128C7D
  0
LINE
  5
128C7E
  8
SLIM
 10
8010.297585520927
 20
-135.82087775265759
 30
0.0
 11
8018.7395884655189
 21
-127.3788748080627
 31
0.0
1001
GRADIENTCOLOR1ACI
1070
     5
1001
GRADIENTCOLOR2ACI
1070
     2
1001
ACAD
1010
0.0
1020
0.0
1030
0.0
1001
ACDBBLOCKREPETAG
1070
     1
1071
      175
1005
128C7E
  0
LINE
  5
128C7F
  8
SLIM
 10
8017.6550793642282
 20
-137.4436400304258
 30
0.0
 11
8025.5958866269621
 21
-129.50283276769261
 31
0.0
1001
GRADIENTCOLOR1ACI
1070
     5
1001
GRADIENTCOLOR2ACI
1070
     2
1001
ACAD
1010
0.0
1020
0.0
1030
0.0
1001
ACDBBLOCKREPETAG
1070
     1
1071
      176
1005
128C7F
  0
LINE
  5
128C80
  8
SLIM
 10
8026.078975515723
 20
-137.99999999999909
 30
0.0
 11
8031.9385859461063
 21
-132.1403895696169
 31
0.0
1001
GRADIENTCOLOR1ACI
1070
     5
1001
GRADIENTCOLOR2ACI
1070
     2
1001
ACAD
1010
0.0
1020
0.0
1030
0.0
1001
ACDBBLOCKREPETAG
1070
     1
1071
      177
1005
128C80
  0
LINE
  5
128C81
  8
SLIM
 10
8035.0592316367947
 20
-137.99999999999909
 30
0.0
 11
8037.8233654376218
 21
-135.23586619916779
 31
0.0
1001
GRADIENTCOLOR1ACI
1070
     5
1001
GRADIENTCOLOR2ACI
1070
     2
1001
ACAD
1010
0.0
1020
0.0
1030
0.0
1001
ACDBBLOCKREPETAG
1070
     1
1071
      178
1005
128C81
  0
CIRCLE
  5
128C82
  8
OBJECT
 10
8000.0
 20
-199.99999999999909
 30
0.0
 40
65.0
1001
ACDBBLOCKREPETAG
1070
     1
1071
       84
1005
128C82
  0
CIRCLE
  5
128C83
  8
OBJECT
 10
8000.0
 20
-199.99999999999909
 30
0.0
 40
41.0
1001
ACDBBLOCKREPETAG
1070
     1
1071
       85
1005
128C83
  0
CIRCLE
  5
128C84
  8
OBJECT
 10
8000.0
 20
-199.99999999999909
 30
0.0
 40
58.0
1001
ACDBBLOCKREPETAG
1070
     1
1071
       86
1005
128C84
  0
LINE
  5
128C85
  8
OBJECT
 10
8070.0
 20
-137.99999999999909
 30
0.0
 11
8019.5192212959419
 21
-137.99999999999909
 31
0.0
1001
ACDBBLOCKREPETAG
1070
     1
1071
       87
1005
128C85
  0
LINE
  5
128C86
  8
OBJECT
 10
7930.0
 20
-137.99999999999909
 30
0.0
 11
7980.4807787040572
 21
-137.99999999999909
 31
0.0
1001
ACDBBLOCKREPETAG
1070
     1
1071
       88
1005
128C86
  0
LINE
  5
128C87
  8
OBJECT
 10
7930.0
 20
-261.99999999999909
 30
0.0
 11
7938.0
 21
-261.99999999999909
 31
0.0
1001
ACDBBLOCKREPETAG
1070
     1
1071
       89
1005
128C87
  0
LINE
  5
128C88
  8
OBJECT
 10
7938.0
 20
-269.99999999999909
 30
0.0
 11
7938.0
 21
-261.99999999999909
 31
0.0
1001
ACDBBLOCKREPETAG
1070
     1
1071
       90
1005
128C88
  0
LINE
  5
128C89
  8
OBJECT
 10
8070.0
 20
-261.99999999999909
 30
0.0
 11
8062.0
 21
-261.99999999999909
 31
0.0
1001
ACDBBLOCKREPETAG
1070
     1
1071
       91
1005
128C89
  0
LINE
  5
128C8A
  8
OBJECT
 10
8062.0
 20
-269.99999999999909
 30
0.0
 11
8062.0
 21
-261.99999999999909
 31
0.0
1001
ACDBBLOCKREPETAG
1070
     1
1071
       92
1005
128C8A
  0
LINE
  5
128C8B
  8
CENTER
 10
7930.0
 20
-199.99999999999909
 30
0.0
 11
8070.0
 21
-199.99999999999909
 31
0.0
1001
ACDBBLOCKREPETAG
1070
     1
1071
       93
1005
128C8B
  0
LINE
  5
128C8C
  8
CENTER
 10
8000.0
 20
-269.99999999999909
 30
0.0
 11
8000.0
 21
-109.9999999999991
 31
0.0
1001
ACDBBLOCKREPETAG
1070
     1
1071
       94
1005
128C8C
  0
ARC
  5
128C8D
  8
OBJECT
 10
7989.902762139187
 20
-224.44352901899131
 30
0.0
 40
7.0
 50
73.00127222950276
 51
154.05025878930931
1001
ACDBBLOCKREPETAG
1070
     1
1071
       95
1005
128C8D
  0
ARC
  5
128C8E
  8
OBJECT
 10
7986.8376610706546
 20
-225.5978773169509
 30
0.0
 40
9.0
 50
73.00127222950276
 51
154.0502639259247
1001
ACDBBLOCKREPETAG
1070
     1
1071
       96
1005
128C8E
  0
ARC
  5
128C8F
  8
OBJECT
 10
7896.3142301315538
 20
-147.28130031148149
 30
0.0
 40
150.0
 50
322.89503373979312
 51
325.8931499695608
1001
ACDBBLOCKREPETAG
1070
     1
1071
       97
1005
128C8F
  0
ARC
  5
128C90
  8
OBJECT
 10
8000.0
 20
-199.99999999999909
 30
0.0
 40
37.5
 50
303.16276667665232
 51
229.16350249100839
1001
ACDBBLOCKREPETAG
1070
     1
1071
       98
1005
128C90
  0
LINE
  5
128C91
  8
OBJECT
 10
7983.60851451898
 20
-221.38045100897119
 30
0.0
 11
7977.3740110000008
 21
-234.1915870000002
 31
0.0
1001
ACDBBLOCKREPETAG
1070
     1
1071
       99
1005
128C91
  0
LINE
  5
128C92
  8
OBJECT
 10
7978.7450566344623
 20
-221.65963488670511
 30
0.0
 11
7973.898672000003
 21
-231.6183599999996
 31
0.0
1001
ACDBBLOCKREPETAG
1070
     1
1071
      100
1005
128C92
  0
LINE
  5
128C93
  8
OBJECT
 10
8018.9380179999998
 20
-226.00000000000091
 30
0.0
 11
7989.4688153032539
 21
-216.99107608744359
 31
0.0
1001
ACDBBLOCKREPETAG
1070
     1
1071
      101
1005
128C93
  0
LINE
  5
128C94
  8
OBJECT
 10
8020.513225309006
 20
-231.39199878029191
 30
0.0
 11
8018.9380179999998
 21
-226.00000000000091
 31
0.0
1001
ACDBBLOCKREPETAG
1070
     1
1071
      102
1005
128C94
  0
LINE
  5
128C95
  8
OBJECT
 10
7954.0380592228739
 20
-245.96194077712289
 30
0.0
 11
7938.0
 21
-261.99999999999909
 31
0.0
1001
ACDBBLOCKREPETAG
1070
     1
1071
      106
1005
128C95
  0
LINE
  5
128C96
  8
OBJECT
 10
8045.9619407771252
 20
-245.96194077712289
 30
0.0
 11
8062.0
 21
-261.99999999999909
 31
0.0
1001
ACDBBLOCKREPETAG
1070
     1
1071
      107
1005
128C96
  0
ARC
  5
128C97
  8
OBJECT
 10
8000.0
 20
-199.99999999999909
 30
0.0
 40
75.0
 50
55.757831297238091
 51
124.2421687027619
1001
ACDBBLOCKREPETAG
1070
     1
1071
      108
1005
128C97
  0
POINT
  5
128C98
  8
DOTS
 10
8000.0
 20
-199.99999999999909
 30
0.0
 50
270.0
1001
ACDBBLOCKREPETAG
1070
     1
1071
      157
1005
128C98
  0
LINE
  5
128C99
  8
OBJECT
 10
8123.0
 20
-663.99999999999966
 30
0.0
 11
8130.0
 21
-663.99999999999966
 31
0.0
1001
ACDBBLOCKREPETAG
1070
     1
1071
        7
1005
128C99
  0
LINE
  5
128C9A
  8
OBJECT
 10
8130.0
 20
-663.99999999999966
 30
0.0
 11
8130.0
 21
-754.99999999999955
 31
0.0
1001
ACDBBLOCKREPETAG
1070
     1
1071
        8
1005
128C9A
  0
LINE
  5
128C9B
  8
OBJECT
 10
8123.0
 20
-754.99999999999955
 30
0.0
 11
8123.0
 21
-663.99999999999966
 31
0.0
1001
ACDBBLOCKREPETAG
1070
     1
1071
        9
1005
128C9B
  0
LINE
  5
128C9C
  8
CENTER
 10
8145.0
 20
-710.99999999999955
 30
0.0
 11
8061.0
 21
-710.99999999999955
 31
0.0
1001
ACDBBLOCKREPETAG
1070
     1
1071
       10
1005
128C9C
  0
LINE
  5
128C9D
  8
OBJECT
 10
8123.0
 20
-666.99999999999955
 30
0.0
 11
8087.0
 21
-666.99999999999955
 31
0.0
1001
ACDBBLOCKREPETAG
1070
     1
1071
       11
1005
128C9D
  0
LINE
  5
128C9E
  8
OBJECT
 10
8087.0
 20
-666.99999999999955
 30
0.0
 11
8087.0
 21
-754.99999999999955
 31
0.0
1001
ACDBBLOCKREPETAG
1070
     1
1071
       12
1005
128C9E
  0
LINE
  5
128C9F
  8
OBJECT
 10
8087.0
 20
-754.99999999999955
 30
0.0
 11
8130.0
 21
-754.99999999999955
 31
0.0
1001
ACDBBLOCKREPETAG
1070
     1
1071
       13
1005
128C9F
  0
LINE
  5
128CA0
  8
OBJECT
 10
8083.0
 20
-671.49999999999955
 30
0.0
 11
8076.0
 21
-671.49999999999955
 31
0.0
1001
ACDBBLOCKREPETAG
1070
     1
1071
       14
1005
128CA0
  0
LINE
  5
128CA1
  8
OBJECT
 10
8076.0
 20
-750.49999999999955
 30
0.0
 11
8083.0
 21
-750.49999999999955
 31
0.0
1001
ACDBBLOCKREPETAG
1070
     1
1071
       15
1005
128CA1
  0
LINE
  5
128CA2
  8
OBJECT
 10
8083.0
 20
-750.49999999999955
 30
0.0
 11
8083.0
 21
-671.49999999999955
 31
0.0
1001
ACDBBLOCKREPETAG
1070
     1
1071
       16
1005
128CA2
  0
LINE
  5
128CA3
  8
OBJECT
 10
8087.0
 20
-666.99999999999955
 30
0.0
 11
8083.0
 21
-671.49999999999955
 31
0.0
1001
ACDBBLOCKREPETAG
1070
     1
1071
       17
1005
128CA3
  0
LINE
  5
128CA4
  8
OBJECT
 10
8087.0
 20
-754.99999999999955
 30
0.0
 11
8083.0
 21
-750.49999999999955
 31
0.0
1001
ACDBBLOCKREPETAG
1070
     1
1071
       18
1005
128CA4
  0
LINE
  5
128CA5
  8
OBJECT
 10
8073.0
 20
-633.99999999999955
 30
0.0
 11
8070.0
 21
-633.99999999999955
 31
0.0
1001
ACDBBLOCKREPETAG
1070
     1
1071
       19
1005
128CA5
  0
ARC
  5
128CA6
  8
OBJECT
 10
8073.0
 20
-636.99999999999955
 30
0.0
 40
3.0
 50
0.0
 51
90.0
1001
ACDBBLOCKREPETAG
1070
     1
1071
       20
1005
128CA6
  0
LINE
  5
128CA7
  8
OBJECT
 10
8070.0
 20
-757.99999999999955
 30
0.0
 11
8073.0
 21
-757.99999999999955
 31
0.0
1001
ACDBBLOCKREPETAG
1070
     1
1071
       21
1005
128CA7
  0
ARC
  5
128CA8
  8
OBJECT
 10
8073.0
 20
-754.99999999999955
 30
0.0
 40
3.0
 50
270.0
 51
0.0
1001
ACDBBLOCKREPETAG
1070
     1
1071
       22
1005
128CA8
  0
LINE
  5
128CA9
  8
OBJECT
 10
8076.0
 20
-754.99999999999955
 30
0.0
 11
8076.0
 21
-636.99999999999955
 31
0.0
1001
ACDBBLOCKREPETAG
1070
     1
1071
       23
1005
128CA9
  0
LINE
  5
128CAA
  8
HIDDEN
 10
8078.0
 20
-680.99999999999955
 30
0.0
 11
8078.0
 21
-740.99999999999955
 31
0.0
1001
ACDBBLOCKREPETAG
1070
     1
1071
       24
1005
128CAA
  0
LINE
  5
128CAB
  8
OBJECT
 10
8123.0
 20
-152.99999999999909
 30
0.0
 11
8130.0
 21
-152.99999999999909
 31
0.0
1001
ACDBBLOCKREPETAG
1070
     1
1071
        7
1005
128CAB
  0
LINE
  5
128CAC
  8
OBJECT
 10
8130.0
 20
-152.99999999999909
 30
0.0
 11
8130.0
 21
-246.99999999999909
 31
0.0
1001
ACDBBLOCKREPETAG
1070
     1
1071
        8
1005
128CAC
  0
LINE
  5
128CAD
  8
OBJECT
 10
8130.0
 20
-246.99999999999909
 30
0.0
 11
8123.0
 21
-246.99999999999909
 31
0.0
1001
ACDBBLOCKREPETAG
1070
     1
1071
        9
1005
128CAD
  0
LINE
  5
128CAE
  8
OBJECT
 10
8123.0
 20
-246.99999999999909
 30
0.0
 11
8123.0
 21
-152.99999999999909
 31
0.0
1001
ACDBBLOCKREPETAG
1070
     1
1071
       10
1005
128CAE
  0
LINE
  5
128CAF
  8
CENTER
 10
8145.0
 20
-199.99999999999909
 30
0.0
 11
8070.0
 21
-199.99999999999909
 31
0.0
1001
ACDBBLOCKREPETAG
1070
     1
1071
       11
1005
128CAF
  0
LINE
  5
128CB0
  8
OBJECT
 10
8123.0
 20
-155.99999999999909
 30
0.0
 11
8087.0
 21
-155.99999999999909
 31
0.0
1001
ACDBBLOCKREPETAG
1070
     1
1071
       12
1005
128CB0
  0
LINE
  5
128CB1
  8
OBJECT
 10
8087.0
 20
-155.99999999999909
 30
0.0
 11
8087.0
 21
-243.99999999999909
 31
0.0
1001
ACDBBLOCKREPETAG
1070
     1
1071
       13
1005
128CB1
  0
LINE
  5
128CB2
  8
OBJECT
 10
8087.0
 20
-243.99999999999909
 30
0.0
 11
8123.0
 21
-243.99999999999909
 31
0.0
1001
ACDBBLOCKREPETAG
1070
     1
1071
       14
1005
128CB2
  0
LINE
  5
128CB3
  8
OBJECT
 10
8083.0
 20
-160.49999999999909
 30
0.0
 11
8076.0
 21
-160.49999999999909
 31
0.0
1001
ACDBBLOCKREPETAG
1070
     1
1071
       15
1005
128CB3
  0
LINE
  5
128CB4
  8
OBJECT
 10
8076.0
 20
-239.49999999999909
 30
0.0
 11
8083.0
 21
-239.49999999999909
 31
0.0
1001
ACDBBLOCKREPETAG
1070
     1
1071
       16
1005
128CB4
  0
LINE
  5
128CB5
  8
OBJECT
 10
8083.0
 20
-239.49999999999909
 30
0.0
 11
8083.0
 21
-160.49999999999909
 31
0.0
1001
ACDBBLOCKREPETAG
1070
     1
1071
       17
1005
128CB5
  0
LINE
  5
128CB6
  8
OBJECT
 10
8087.0
 20
-155.99999999999909
 30
0.0
 11
8083.0
 21
-160.49999999999909
 31
0.0
1001
ACDBBLOCKREPETAG
1070
     1
1071
       18
1005
128CB6
  0
LINE
  5
128CB7
  8
OBJECT
 10
8087.0
 20
-243.99999999999909
 30
0.0
 11
8083.0
 21
-239.49999999999909
 31
0.0
1001
ACDBBLOCKREPETAG
1070
     1
1071
       19
1005
128CB7
  0
LINE
  5
128CB8
  8
OBJECT
 10
8073.0
 20
-137.99999999999909
 30
0.0
 11
8070.0
 21
-137.99999999999909
 31
0.0
1001
ACDBBLOCKREPETAG
1070
     1
1071
       20
1005
128CB8
  0
ARC
  5
128CB9
  8
OBJECT
 10
8073.0
 20
-140.99999999999909
 30
0.0
 40
3.0
 50
0.0
 51
90.0
1001
ACDBBLOCKREPETAG
1070
     1
1071
       21
1005
128CB9
  0
LINE
  5
128CBA
  8
OBJECT
 10
8070.0
 20
-261.99999999999909
 30
0.0
 11
8073.0
 21
-261.99999999999909
 31
0.0
1001
ACDBBLOCKREPETAG
1070
     1
1071
       22
1005
128CBA
  0
ARC
  5
128CBB
  8
OBJECT
 10
8073.0
 20
-258.99999999999909
 30
0.0
 40
3.0
 50
270.0
 51
0.0
1001
ACDBBLOCKREPETAG
1070
     1
1071
       23
1005
128CBB
  0
LINE
  5
128CBC
  8
OBJECT
 10
8076.0
 20
-258.99999999999909
 30
0.0
 11
8076.0
 21
-140.99999999999909
 31
0.0
1001
ACDBBLOCKREPETAG
1070
     1
1071
       24
1005
128CBC
  0
LINE
  5
128CBD
  8
HIDDEN
 10
8078.0
 20
-169.99999999999909
 30
0.0
 11
8078.0
 21
-229.99999999999909
 31
0.0
1001
ACDBBLOCKREPETAG
1070
     1
1071
       25
1005
128CBD
  0
LINE
  5
128CBE
  8
OBJECT
 10
5927.0
 20
-633.99999999999955
 30
0.0
 11
5930.0
 21
-633.99999999999955
 31
0.0
1001
ACDBBLOCKREPETAG
1070
     1
1071
        1
1005
128CBE
  0
ARC
  5
128CBF
  8
OBJECT
 10
5927.0
 20
-636.99999999999955
 30
0.0
 40
3.0
 50
90.0
 51
180.0
1001
ACDBBLOCKREPETAG
1070
     1
1071
        2
1005
128CBF
  0
LINE
  5
128CC0
  8
OBJECT
 10
5930.0
 20
-757.99999999999955
 30
0.0
 11
5927.0
 21
-757.99999999999955
 31
0.0
1001
ACDBBLOCKREPETAG
1070
     1
1071
        3
1005
128CC0
  0
ARC
  5
128CC1
  8
OBJECT
 10
5927.0
 20
-754.99999999999955
 30
0.0
 40
3.0
 50
180.0
 51
270.0
1001
ACDBBLOCKREPETAG
1070
     1
1071
        4
1005
128CC1
  0
LINE
  5
128CC2
  8
OBJECT
 10
5924.0
 20
-754.99999999999955
 30
0.0
 11
5924.0
 21
-636.99999999999955
 31
0.0
1001
ACDBBLOCKREPETAG
1070
     1
1071
        5
1005
128CC2
  0
CIRCLE
  5
128CC3
  8
OBJECT
 10
6000.0
 20
-696.0
 30
0.0
 40
62.0
1001
ACDBBLOCKREPETAG
1070
     1
1071
        3
1005
128CC3
  0
LINE
  5
128CC4
  8
CENTER
 10
5938.0
 20
-711.0
 30
0.0
 11
6062.0
 21
-711.0
 31
0.0
1001
ACDBBLOCKREPETAG
1070
     1
1071
        4
1005
128CC4
  0
CIRCLE
  5
128CC5
  8
OBJECT
 10
6000.0
 20
-711.0
 30
0.0
 40
28.0
1001
ACDBBLOCKREPETAG
1070
     1
1071
        6
1005
128CC5
  0
CIRCLE
  5
128CC6
  8
OBJECT
 10
6000.0
 20
-711.0
 30
0.0
 40
39.0
1001
ACDBBLOCKREPETAG
1070
     1
1071
        7
1005
128CC6
  0
ARC
  5
128CC7
  8
OBJECT
 10
6000.0
 20
-711.0
 30
0.0
 40
47.0
 50
290.58196921144179
 51
249.41803078855821
1001
ACDBBLOCKREPETAG
1070
     1
1071
        8
1005
128CC7
  0
LINE
  5
128CC8
  8
OBJECT
 10
5983.4772883581436
 20
-755.0
 30
0.0
 11
6016.5227116418582
 21
-755.0
 31
0.0
1001
ACDBBLOCKREPETAG
1070
     1
1071
        9
1005
128CC8
  0
LINE
  5
128CC9
  8
OBJECT
 10
5935.0
 20
-549.99999999999955
 30
0.0
 11
5935.0
 21
-570.99999999999955
 31
0.0
1001
ACDBBLOCKREPETAG
1070
     1
1071
       16
1005
128CC9
  0
LINE
  5
128CCA
  8
OBJECT
 10
5935.0
 20
-570.99999999999955
 30
0.0
 11
6065.0
 21
-570.99999999999955
 31
0.0
1001
ACDBBLOCKREPETAG
1070
     1
1071
       17
1005
128CCA
  0
LINE
  5
128CCB
  8
OBJECT
 10
6065.0
 20
-570.99999999999955
 30
0.0
 11
6065.0
 21
-549.99999999999955
 31
0.0
1001
ACDBBLOCKREPETAG
1070
     1
1071
       18
1005
128CCB
  0
LINE
  5
128CCC
  8
OBJECT
 10
6065.0
 20
-549.99999999999955
 30
0.0
 11
5935.0
 21
-549.99999999999955
 31
0.0
1001
ACDBBLOCKREPETAG
1070
     1
1071
       19
1005
128CCC
  0
LINE
  5
128CCD
  8
HIDDEN
 10
6044.5
 20
-619.99999999999955
 30
0.0
 11
5955.5
 21
-619.99999999999955
 31
0.0
1001
ACDBBLOCKREPETAG
1070
     1
1071
       20
1005
128CCD
  0
LINE
  5
128CCE
  8
CENTER
 10
6000.0
 20
-769.99999999999955
 30
0.0
 11
6000.0
 21
-534.99999999999955
 31
0.0
1001
ACDBBLOCKREPETAG
1070
     1
1071
       21
1005
128CCE
  0
LINE
  5
128CCF
  8
OBJECT
 10
5940.5
 20
-570.99999999999955
 30
0.0
 11
5940.5
 21
-633.99999999999955
 31
0.0
1001
ACDBBLOCKREPETAG
1070
     1
1071
       22
1005
128CCF
  0
LINE
  5
128CD0
  8
OBJECT
 10
5930.0
 20
-633.99999999999955
 30
0.0
 11
6070.0
 21
-633.99999999999955
 31
0.0
1001
ACDBBLOCKREPETAG
1070
     1
1071
       23
1005
128CD0
  0
LINE
  5
128CD1
  8
OBJECT
 10
6059.4999999999991
 20
-633.99999999999955
 30
0.0
 11
6059.4999999999991
 21
-570.99999999999955
 31
0.0
1001
ACDBBLOCKREPETAG
1070
     1
1071
       24
1005
128CD1
  0
LINE
  5
128CD2
  8
OBJECT
 10
5930.0
 20
-757.99999999999955
 30
0.0
 11
5930.0
 21
-769.99999999999955
 31
0.0
1001
ACDBBLOCKREPETAG
1070
     1
1071
       25
1005
128CD2
  0
LINE
  5
128CD3
  8
OBJECT
 10
5930.0
 20
-769.99999999999955
 30
0.0
 11
6070.0
 21
-769.99999999999955
 31
0.0
1001
ACDBBLOCKREPETAG
1070
     1
1071
       26
1005
128CD3
  0
LINE
  5
128CD4
  8
OBJECT
 10
6070.0
 20
-769.99999999999955
 30
0.0
 11
6070.0
 21
-757.99999999999955
 31
0.0
1001
ACDBBLOCKREPETAG
1070
     1
1071
       27
1005
128CD4
  0
LINE
  5
128CD5
  8
OBJECT
 10
6070.0
 20
-757.99999999999955
 30
0.0
 11
5930.0
 21
-757.99999999999955
 31
0.0
1001
ACDBBLOCKREPETAG
1070
     1
1071
       28
1005
128CD5
  0
ARC
  5
128CD6
  8
OBJECT
 10
6435.0384389946776
 20
-998.60813684682694
 30
0.0
 40
519.48776673616965
 50
135.42350667430969
 51
138.50052655621499
1001
ACDBBLOCKREPETAG
1070
     1
1071
       32
1005
128CD6
  0
ARC
  5
128CD7
  8
OBJECT
 10
6435.0384389946776
 20
-393.39186315317193
 30
0.0
 40
519.48776673616965
 50
221.49947344378501
 51
224.57649332569039
1001
ACDBBLOCKREPETAG
1070
     1
1071
       33
1005
128CD7
  0
ARC
  5
128CD8
  8
OBJECT
 10
5564.9615610053224
 20
-998.60813684682694
 30
0.0
 40
519.48776673616965
 50
41.499473443784993
 51
44.576493325690237
1001
ACDBBLOCKREPETAG
1070
     1
1071
       34
1005
128CD8
  0
ARC
  5
128CD9
  8
OBJECT
 10
5564.9615610053224
 20
-393.39186315317193
 30
0.0
 40
519.48776673616965
 50
315.42350667430981
 51
318.50052655621488
1001
ACDBBLOCKREPETAG
1070
     1
1071
       35
1005
128CD9
  0
POINT
  5
128CDA
  8
DOTS
 10
6000.0
 20
-754.99999999999955
 30
0.0
1001
ACDBBLOCKREPETAG
1070
     1
1071
      111
1005
128CDA
  0
LINE
  5
128CDB
  8
CENTER
 10
5909.0
 20
-199.99999999999909
 30
0.0
 11
5930.0
 21
-199.99999999999909
 31
0.0
1001
ACDBBLOCKREPETAG
1070
     1
1071
        0
1005
128CDB
  0
LINE
  5
128CDC
  8
OBJECT
 10
5927.0
 20
-261.99999999999909
 30
0.0
 11
5930.0
 21
-261.99999999999909
 31
0.0
1001
ACDBBLOCKREPETAG
1070
     1
1071
        1
1005
128CDC
  0
ARC
  5
128CDD
  8
OBJECT
 10
5927.0
 20
-258.99999999999909
 30
0.0
 40
3.0
 50
180.0
 51
270.0
1001
ACDBBLOCKREPETAG
1070
     1
1071
        2
1005
128CDD
  0
LINE
  5
128CDE
  8
OBJECT
 10
5930.0
 20
-137.99999999999909
 30
0.0
 11
5927.0
 21
-137.99999999999909
 31
0.0
1001
ACDBBLOCKREPETAG
1070
     1
1071
        3
1005
128CDE
  0
ARC
  5
128CDF
  8
OBJECT
 10
5927.0
 20
-140.99999999999909
 30
0.0
 40
3.0
 50
90.0
 51
180.0
1001
ACDBBLOCKREPETAG
1070
     1
1071
        4
1005
128CDF
  0
LINE
  5
128CE0
  8
OBJECT
 10
5924.0
 20
-140.99999999999909
 30
0.0
 11
5924.0
 21
-258.99999999999909
 31
0.0
1001
ACDBBLOCKREPETAG
1070
     1
1071
        5
1005
128CE0
  0
LINE
  5
128CE1
  8
OBJECT
 10
6047.0
 20
-322.99999999999898
 30
0.0
 11
6047.0
 21
-329.99999999999898
 31
0.0
1001
ACDBBLOCKREPETAG
1070
     1
1071
        7
1005
128CE1
  0
LINE
  5
128CE2
  8
OBJECT
 10
6047.0
 20
-329.99999999999898
 30
0.0
 11
5953.0
 21
-329.99999999999898
 31
0.0
1001
ACDBBLOCKREPETAG
1070
     1
1071
        8
1005
128CE2
  0
LINE
  5
128CE3
  8
OBJECT
 10
5953.0
 20
-329.99999999999898
 30
0.0
 11
5953.0
 21
-322.99999999999898
 31
0.0
1001
ACDBBLOCKREPETAG
1070
     1
1071
        9
1005
128CE3
  0
LINE
  5
128CE4
  8
OBJECT
 10
5953.0
 20
-322.99999999999898
 30
0.0
 11
6047.0
 21
-322.99999999999898
 31
0.0
1001
ACDBBLOCKREPETAG
1070
     1
1071
       10
1005
128CE4
  0
LINE
  5
128CE5
  8
CENTER
 10
6000.0
 20
-344.99999999999909
 30
0.0
 11
6000.0
 21
-269.99999999999909
 31
0.0
1001
ACDBBLOCKREPETAG
1070
     1
1071
       11
1005
128CE5
  0
LINE
  5
128CE6
  8
OBJECT
 10
6044.0
 20
-322.99999999999898
 30
0.0
 11
6044.0
 21
-286.99999999999898
 31
0.0
1001
ACDBBLOCKREPETAG
1070
     1
1071
       12
1005
128CE6
  0
LINE
  5
128CE7
  8
OBJECT
 10
6044.0
 20
-286.99999999999898
 30
0.0
 11
5956.0
 21
-286.99999999999898
 31
0.0
1001
ACDBBLOCKREPETAG
1070
     1
1071
       13
1005
128CE7
  0
LINE
  5
128CE8
  8
OBJECT
 10
5956.0
 20
-286.99999999999898
 30
0.0
 11
5956.0
 21
-322.99999999999898
 31
0.0
1001
ACDBBLOCKREPETAG
1070
     1
1071
       14
1005
128CE8
  0
LINE
  5
128CE9
  8
OBJECT
 10
6039.5
 20
-282.99999999999898
 30
0.0
 11
6039.5
 21
-275.99999999999909
 31
0.0
1001
ACDBBLOCKREPETAG
1070
     1
1071
       15
1005
128CE9
  0
LINE
  5
128CEA
  8
OBJECT
 10
5960.5
 20
-275.99999999999909
 30
0.0
 11
5960.5
 21
-282.99999999999898
 31
0.0
1001
ACDBBLOCKREPETAG
1070
     1
1071
       16
1005
128CEA
  0
LINE
  5
128CEB
  8
OBJECT
 10
5960.5
 20
-282.99999999999898
 30
0.0
 11
6039.5
 21
-282.99999999999898
 31
0.0
1001
ACDBBLOCKREPETAG
1070
     1
1071
       17
1005
128CEB
  0
LINE
  5
128CEC
  8
OBJECT
 10
6044.0
 20
-286.99999999999898
 30
0.0
 11
6039.5
 21
-282.99999999999898
 31
0.0
1001
ACDBBLOCKREPETAG
1070
     1
1071
       18
1005
128CEC
  0
LINE
  5
128CED
  8
OBJECT
 10
5956.0
 20
-286.99999999999898
 30
0.0
 11
5960.5
 21
-282.99999999999898
 31
0.0
1001
ACDBBLOCKREPETAG
1070
     1
1071
       19
1005
128CED
  0
LINE
  5
128CEE
  8
OBJECT
 10
6062.0
 20
-272.99999999999909
 30
0.0
 11
6062.0
 21
-269.99999999999909
 31
0.0
1001
ACDBBLOCKREPETAG
1070
     1
1071
       20
1005
128CEE
  0
ARC
  5
128CEF
  8
OBJECT
 10
6059.0
 20
-272.99999999999909
 30
0.0
 40
3.0
 50
270.0
 51
0.0
1001
ACDBBLOCKREPETAG
1070
     1
1071
       21
1005
128CEF
  0
LINE
  5
128CF0
  8
OBJECT
 10
5938.0
 20
-269.99999999999909
 30
0.0
 11
5938.0
 21
-272.99999999999909
 31
0.0
1001
ACDBBLOCKREPETAG
1070
     1
1071
       22
1005
128CF0
  0
ARC
  5
128CF1
  8
OBJECT
 10
5941.0
 20
-272.99999999999909
 30
0.0
 40
3.0
 50
180.0
 51
270.0
1001
ACDBBLOCKREPETAG
1070
     1
1071
       23
1005
128CF1
  0
LINE
  5
128CF2
  8
OBJECT
 10
5941.0
 20
-275.99999999999909
 30
0.0
 11
6059.0
 21
-275.99999999999909
 31
0.0
1001
ACDBBLOCKREPETAG
1070
     1
1071
       24
1005
128CF2
  0
LINE
  5
128CF3
  8
HIDDEN
 10
6030.0
 20
-277.99999999999909
 30
0.0
 11
5970.0
 21
-277.99999999999909
 31
0.0
1001
ACDBBLOCKREPETAG
1070
     1
1071
       25
1005
128CF3
  0
POINT
  5
128CF4
  8
DOTS
 10
6000.0
 20
-199.99999999999909
 30
0.0
 50
270.0
1001
ACDBBLOCKREPETAG
1070
     1
1071
      153
1005
128CF4
  0
ARC
  5
128CF5
  8
OBJECT
 10
6000.0
 20
-199.99999999999909
 30
0.0
 40
70.0
 50
62.339550100781771
 51
117.66044989921819
1001
ACDBBLOCKREPETAG
1070
     1
1071
        0
1005
128CF5
  0
CIRCLE
  5
128CF6
  8
OBJECT
 10
6000.0
 20
-199.99999999999909
 30
0.0
 40
65.0
1001
ACDBBLOCKREPETAG
1070
     1
1071
        1
1005
128CF6
  0
CIRCLE
  5
128CF7
  8
OBJECT
 10
6000.0
 20
-199.99999999999909
 30
0.0
 40
41.0
1001
ACDBBLOCKREPETAG
1070
     1
1071
        2
1005
128CF7
  0
CIRCLE
  5
128CF8
  8
OBJECT
 10
6000.0
 20
-199.99999999999909
 30
0.0
 40
58.0
1001
ACDBBLOCKREPETAG
1070
     1
1071
        3
1005
128CF8
  0
LINE
  5
128CF9
  8
OBJECT
 10
6070.0
 20
-137.99999999999909
 30
0.0
 11
6019.5192212959437
 21
-137.99999999999909
 31
0.0
1001
ACDBBLOCKREPETAG
1070
     1
1071
        4
1005
128CF9
  0
LINE
  5
128CFA
  8
OBJECT
 10
5930.0
 20
-137.99999999999909
 30
0.0
 11
5980.4807787040563
 21
-137.99999999999909
 31
0.0
1001
ACDBBLOCKREPETAG
1070
     1
1071
        5
1005
128CFA
  0
LINE
  5
128CFB
  8
OBJECT
 10
5930.0
 20
-261.99999999999909
 30
0.0
 11
5938.0
 21
-261.99999999999909
 31
0.0
1001
ACDBBLOCKREPETAG
1070
     1
1071
        6
1005
128CFB
  0
LINE
  5
128CFC
  8
OBJECT
 10
5938.0
 20
-269.99999999999909
 30
0.0
 11
5938.0
 21
-261.99999999999909
 31
0.0
1001
ACDBBLOCKREPETAG
1070
     1
1071
        7
1005
128CFC
  0
LINE
  5
128CFD
  8
OBJECT
 10
6070.0
 20
-261.99999999999909
 30
0.0
 11
6062.0
 21
-261.99999999999909
 31
0.0
1001
ACDBBLOCKREPETAG
1070
     1
1071
        8
1005
128CFD
  0
LINE
  5
128CFE
  8
OBJECT
 10
6062.0
 20
-269.99999999999909
 30
0.0
 11
6062.0
 21
-261.99999999999909
 31
0.0
1001
ACDBBLOCKREPETAG
1070
     1
1071
        9
1005
128CFE
  0
LINE
  5
128CFF
  8
CENTER
 10
5930.0
 20
-199.99999999999909
 30
0.0
 11
6070.0
 21
-199.99999999999909
 31
0.0
1001
ACDBBLOCKREPETAG
1070
     1
1071
       10
1005
128CFF
  0
LINE
  5
128D00
  8
CENTER
 10
6000.0
 20
-269.99999999999909
 30
0.0
 11
6000.0
 21
-114.9999999999991
 31
0.0
1001
ACDBBLOCKREPETAG
1070
     1
1071
       11
1005
128D00
  0
ARC
  5
128D01
  8
OBJECT
 10
5989.9027621391879
 20
-224.44352901899131
 30
0.0
 40
7.0
 50
73.001272229719234
 51
154.0502587894434
1001
ACDBBLOCKREPETAG
1070
     1
1071
       12
1005
128D01
  0
ARC
  5
128D02
  8
OBJECT
 10
5986.8376610706491
 20
-225.5978773169509
 30
0.0
 40
9.0
 50
73.001272229719234
 51
154.0502639259247
1001
ACDBBLOCKREPETAG
1070
     1
1071
       13
1005
128D02
  0
ARC
  5
128D03
  8
OBJECT
 10
5896.3142301315529
 20
-147.28130031148149
 30
0.0
 40
150.0
 50
322.89503374001981
 51
325.89314996972843
1001
ACDBBLOCKREPETAG
1070
     1
1071
       14
1005
128D03
  0
ARC
  5
128D04
  8
OBJECT
 10
6000.0
 20
-199.99999999999909
 30
0.0
 40
37.5
 50
303.1627666766604
 51
229.1635024908081
1001
ACDBBLOCKREPETAG
1070
     1
1071
       15
1005
128D04
  0
LINE
  5
128D05
  8
OBJECT
 10
5983.6085145189763
 20
-221.38045100897119
 30
0.0
 11
5977.3740109999999
 21
-234.1915870000002
 31
0.0
1001
ACDBBLOCKREPETAG
1070
     1
1071
       16
1005
128D05
  0
LINE
  5
128D06
  8
OBJECT
 10
5978.7450566344633
 20
-221.65963488670511
 30
0.0
 11
5973.8986720000003
 21
-231.6183599999996
 31
0.0
1001
ACDBBLOCKREPETAG
1070
     1
1071
       17
1005
128D06
  0
LINE
  5
128D07
  8
OBJECT
 10
6018.9380179999998
 20
-226.00000000000091
 30
0.0
 11
5989.4688153032585
 21
-216.99107608744359
 31
0.0
1001
ACDBBLOCKREPETAG
1070
     1
1071
       18
1005
128D07
  0
LINE
  5
128D08
  8
OBJECT
 10
6020.5132253090051
 20
-231.39199878029191
 30
0.0
 11
6018.9380179999998
 21
-226.00000000000091
 31
0.0
1001
ACDBBLOCKREPETAG
1070
     1
1071
       19
1005
128D08
  0
LINE
  5
128D09
  8
OBJECT
 10
5954.0380592228739
 20
-245.96194077712471
 30
0.0
 11
5938.0
 21
-261.99999999999909
 31
0.0
1001
ACDBBLOCKREPETAG
1070
     1
1071
       42
1005
128D09
  0
LINE
  5
128D0A
  8
OBJECT
 10
6045.9619407771252
 20
-245.96194077712471
 30
0.0
 11
6062.0
 21
-261.99999999999909
 31
0.0
1001
ACDBBLOCKREPETAG
1070
     1
1071
       43
1005
128D0A
  0
LINE
  5
128D0B
  8
OBJECT
 10
6123.0
 20
-663.99999999999966
 30
0.0
 11
6130.0
 21
-663.99999999999966
 31
0.0
1001
ACDBBLOCKREPETAG
1070
     1
1071
        7
1005
128D0B
  0
LINE
  5
128D0C
  8
OBJECT
 10
6130.0
 20
-663.99999999999966
 30
0.0
 11
6130.0
 21
-754.99999999999955
 31
0.0
1001
ACDBBLOCKREPETAG
1070
     1
1071
        8
1005
128D0C
  0
LINE
  5
128D0D
  8
OBJECT
 10
6123.0
 20
-754.99999999999955
 30
0.0
 11
6123.0
 21
-663.99999999999966
 31
0.0
1001
ACDBBLOCKREPETAG
1070
     1
1071
        9
1005
128D0D
  0
LINE
  5
128D0E
  8
CENTER
 10
6145.0
 20
-710.99999999999955
 30
0.0
 11
6061.0
 21
-710.99999999999955
 31
0.0
1001
ACDBBLOCKREPETAG
1070
     1
1071
       10
1005
128D0E
  0
LINE
  5
128D0F
  8
OBJECT
 10
6123.0
 20
-666.99999999999955
 30
0.0
 11
6087.0
 21
-666.99999999999955
 31
0.0
1001
ACDBBLOCKREPETAG
1070
     1
1071
       11
1005
128D0F
  0
LINE
  5
128D10
  8
OBJECT
 10
6087.0
 20
-666.99999999999955
 30
0.0
 11
6087.0
 21
-754.99999999999955
 31
0.0
1001
ACDBBLOCKREPETAG
1070
     1
1071
       12
1005
128D10
  0
LINE
  5
128D11
  8
OBJECT
 10
6087.0
 20
-754.99999999999955
 30
0.0
 11
6130.0
 21
-754.99999999999955
 31
0.0
1001
ACDBBLOCKREPETAG
1070
     1
1071
       13
1005
128D11
  0
LINE
  5
128D12
  8
OBJECT
 10
6083.0
 20
-671.49999999999955
 30
0.0
 11
6076.0
 21
-671.49999999999955
 31
0.0
1001
ACDBBLOCKREPETAG
1070
     1
1071
       14
1005
128D12
  0
LINE
  5
128D13
  8
OBJECT
 10
6076.0
 20
-750.49999999999955
 30
0.0
 11
6083.0
 21
-750.49999999999955
 31
0.0
1001
ACDBBLOCKREPETAG
1070
     1
1071
       15
1005
128D13
  0
LINE
  5
128D14
  8
OBJECT
 10
6083.0
 20
-750.49999999999955
 30
0.0
 11
6083.0
 21
-671.49999999999955
 31
0.0
1001
ACDBBLOCKREPETAG
1070
     1
1071
       16
1005
128D14
  0
LINE
  5
128D15
  8
OBJECT
 10
6087.0
 20
-666.99999999999955
 30
0.0
 11
6083.0
 21
-671.49999999999955
 31
0.0
1001
ACDBBLOCKREPETAG
1070
     1
1071
       17
1005
128D15
  0
LINE
  5
128D16
  8
OBJECT
 10
6087.0
 20
-754.99999999999955
 30
0.0
 11
6083.0
 21
-750.49999999999955
 31
0.0
1001
ACDBBLOCKREPETAG
1070
     1
1071
       18
1005
128D16
  0
LINE
  5
128D17
  8
OBJECT
 10
6073.0
 20
-633.99999999999955
 30
0.0
 11
6070.0
 21
-633.99999999999955
 31
0.0
1001
ACDBBLOCKREPETAG
1070
     1
1071
       19
1005
128D17
  0
ARC
  5
128D18
  8
OBJECT
 10
6073.0
 20
-636.99999999999955
 30
0.0
 40
3.0
 50
0.0
 51
90.0
1001
ACDBBLOCKREPETAG
1070
     1
1071
       20
1005
128D18
  0
LINE
  5
128D19
  8
OBJECT
 10
6070.0
 20
-757.99999999999955
 30
0.0
 11
6073.0
 21
-757.99999999999955
 31
0.0
1001
ACDBBLOCKREPETAG
1070
     1
1071
       21
1005
128D19
  0
ARC
  5
128D1A
  8
OBJECT
 10
6073.0
 20
-754.99999999999955
 30
0.0
 40
3.0
 50
270.0
 51
0.0
1001
ACDBBLOCKREPETAG
1070
     1
1071
       22
1005
128D1A
  0
LINE
  5
128D1B
  8
OBJECT
 10
6076.0
 20
-754.99999999999955
 30
0.0
 11
6076.0
 21
-636.99999999999955
 31
0.0
1001
ACDBBLOCKREPETAG
1070
     1
1071
       23
1005
128D1B
  0
LINE
  5
128D1C
  8
HIDDEN
 10
6078.0
 20
-680.99999999999955
 30
0.0
 11
6078.0
 21
-740.99999999999955
 31
0.0
1001
ACDBBLOCKREPETAG
1070
     1
1071
       24
1005
128D1C
  0
LINE
  5
128D1D
  8
OBJECT
 10
6123.0
 20
-152.99999999999909
 30
0.0
 11
6130.0
 21
-152.99999999999909
 31
0.0
1001
ACDBBLOCKREPETAG
1070
     1
1071
        7
1005
128D1D
  0
LINE
  5
128D1E
  8
OBJECT
 10
6130.0
 20
-152.99999999999909
 30
0.0
 11
6130.0
 21
-246.99999999999909
 31
0.0
1001
ACDBBLOCKREPETAG
1070
     1
1071
        8
1005
128D1E
  0
LINE
  5
128D1F
  8
OBJECT
 10
6130.0
 20
-246.99999999999909
 30
0.0
 11
6123.0
 21
-246.99999999999909
 31
0.0
1001
ACDBBLOCKREPETAG
1070
     1
1071
        9
1005
128D1F
  0
LINE
  5
128D20
  8
OBJECT
 10
6123.0
 20
-246.99999999999909
 30
0.0
 11
6123.0
 21
-152.99999999999909
 31
0.0
1001
ACDBBLOCKREPETAG
1070
     1
1071
       10
1005
128D20
  0
LINE
  5
128D21
  8
CENTER
 10
6145.0
 20
-199.99999999999909
 30
0.0
 11
6070.0
 21
-199.99999999999909
 31
0.0
1001
ACDBBLOCKREPETAG
1070
     1
1071
       11
1005
128D21
  0
LINE
  5
128D22
  8
OBJECT
 10
6123.0
 20
-155.99999999999909
 30
0.0
 11
6087.0
 21
-155.99999999999909
 31
0.0
1001
ACDBBLOCKREPETAG
1070
     1
1071
       12
1005
128D22
  0
LINE
  5
128D23
  8
OBJECT
 10
6087.0
 20
-155.99999999999909
 30
0.0
 11
6087.0
 21
-243.99999999999909
 31
0.0
1001
ACDBBLOCKREPETAG
1070
     1
1071
       13
1005
128D23
  0
LINE
  5
128D24
  8
OBJECT
 10
6087.0
 20
-243.99999999999909
 30
0.0
 11
6123.0
 21
-243.99999999999909
 31
0.0
1001
ACDBBLOCKREPETAG
1070
     1
1071
       14
1005
128D24
  0
LINE
  5
128D25
  8
OBJECT
 10
6083.0
 20
-160.49999999999909
 30
0.0
 11
6076.0
 21
-160.49999999999909
 31
0.0
1001
ACDBBLOCKREPETAG
1070
     1
1071
       15
1005
128D25
  0
LINE
  5
128D26
  8
OBJECT
 10
6076.0
 20
-239.49999999999909
 30
0.0
 11
6083.0
 21
-239.49999999999909
 31
0.0
1001
ACDBBLOCKREPETAG
1070
     1
1071
       16
1005
128D26
  0
LINE
  5
128D27
  8
OBJECT
 10
6083.0
 20
-239.49999999999909
 30
0.0
 11
6083.0
 21
-160.49999999999909
 31
0.0
1001
ACDBBLOCKREPETAG
1070
     1
1071
       17
1005
128D27
  0
LINE
  5
128D28
  8
OBJECT
 10
6087.0
 20
-155.99999999999909
 30
0.0
 11
6083.0
 21
-160.49999999999909
 31
0.0
1001
ACDBBLOCKREPETAG
1070
     1
1071
       18
1005
128D28
  0
LINE
  5
128D29
  8
OBJECT
 10
6087.0
 20
-243.99999999999909
 30
0.0
 11
6083.0
 21
-239.49999999999909
 31
0.0
1001
ACDBBLOCKREPETAG
1070
     1
1071
       19
1005
128D29
  0
LINE
  5
128D2A
  8
OBJECT
 10
6073.0
 20
-137.99999999999909
 30
0.0
 11
6070.0
 21
-137.99999999999909
 31
0.0
1001
ACDBBLOCKREPETAG
1070
     1
1071
       20
1005
128D2A
  0
ARC
  5
128D2B
  8
OBJECT
 10
6073.0
 20
-140.99999999999909
 30
0.0
 40
3.0
 50
0.0
 51
90.0
1001
ACDBBLOCKREPETAG
1070
     1
1071
       21
1005
128D2B
  0
LINE
  5
128D2C
  8
OBJECT
 10
6070.0
 20
-261.99999999999909
 30
0.0
 11
6073.0
 21
-261.99999999999909
 31
0.0
1001
ACDBBLOCKREPETAG
1070
     1
1071
       22
1005
128D2C
  0
ARC
  5
128D2D
  8
OBJECT
 10
6073.0
 20
-258.99999999999909
 30
0.0
 40
3.0
 50
270.0
 51
0.0
1001
ACDBBLOCKREPETAG
1070
     1
1071
       23
1005
128D2D
  0
LINE
  5
128D2E
  8
OBJECT
 10
6076.0
 20
-258.99999999999909
 30
0.0
 11
6076.0
 21
-140.99999999999909
 31
0.0
1001
ACDBBLOCKREPETAG
1070
     1
1071
       24
1005
128D2E
  0
LINE
  5
128D2F
  8
HIDDEN
 10
6078.0
 20
-169.99999999999909
 30
0.0
 11
6078.0
 21
-229.99999999999909
 31
0.0
1001
ACDBBLOCKREPETAG
1070
     1
1071
       25
1005
128D2F
  0
LINE
  5
128D30
  8
OBJECT
 10
3927.0
 20
-633.99999999999955
 30
0.0
 11
3930.0
 21
-633.99999999999955
 31
0.0
1001
ACDBBLOCKREPETAG
1070
     1
1071
        1
1005
128D30
  0
ARC
  5
128D31
  8
OBJECT
 10
3927.0
 20
-636.99999999999955
 30
0.0
 40
3.0
 50
90.0
 51
180.0
1001
ACDBBLOCKREPETAG
1070
     1
1071
        2
1005
128D31
  0
LINE
  5
128D32
  8
OBJECT
 10
3930.0
 20
-757.99999999999955
 30
0.0
 11
3927.0
 21
-757.99999999999955
 31
0.0
1001
ACDBBLOCKREPETAG
1070
     1
1071
        3
1005
128D32
  0
ARC
  5
128D33
  8
OBJECT
 10
3927.0
 20
-754.99999999999955
 30
0.0
 40
3.0
 50
180.0
 51
270.0
1001
ACDBBLOCKREPETAG
1070
     1
1071
        4
1005
128D33
  0
LINE
  5
128D34
  8
OBJECT
 10
3924.0
 20
-754.99999999999955
 30
0.0
 11
3924.0
 21
-636.99999999999955
 31
0.0
1001
ACDBBLOCKREPETAG
1070
     1
1071
        5
1005
128D34
  0
CIRCLE
  5
128D35
  8
OBJECT
 10
4000.0
 20
-696.0
 30
0.0
 40
62.0
1001
ACDBBLOCKREPETAG
1070
     1
1071
        3
1005
128D35
  0
LINE
  5
128D36
  8
CENTER
 10
3938.0
 20
-711.0
 30
0.0
 11
4062.0
 21
-711.0
 31
0.0
1001
ACDBBLOCKREPETAG
1070
     1
1071
        4
1005
128D36
  0
CIRCLE
  5
128D37
  8
OBJECT
 10
4000.0
 20
-711.0
 30
0.0
 40
28.0
1001
ACDBBLOCKREPETAG
1070
     1
1071
        6
1005
128D37
  0
CIRCLE
  5
128D38
  8
OBJECT
 10
4000.0
 20
-711.0
 30
0.0
 40
39.0
1001
ACDBBLOCKREPETAG
1070
     1
1071
        7
1005
128D38
  0
ARC
  5
128D39
  8
OBJECT
 10
4000.0
 20
-711.0
 30
0.0
 40
47.0
 50
290.58196921144179
 51
249.41803078855821
1001
ACDBBLOCKREPETAG
1070
     1
1071
        8
1005
128D39
  0
LINE
  5
128D3A
  8
OBJECT
 10
3983.4772883581431
 20
-755.0
 30
0.0
 11
4016.5227116418569
 21
-755.0
 31
0.0
1001
ACDBBLOCKREPETAG
1070
     1
1071
        9
1005
128D3A
  0
LINE
  5
128D3B
  8
OBJECT
 10
3935.0
 20
-549.99999999999955
 30
0.0
 11
3935.0
 21
-570.99999999999955
 31
0.0
1001
ACDBBLOCKREPETAG
1070
     1
1071
       16
1005
128D3B
  0
LINE
  5
128D3C
  8
OBJECT
 10
3935.0
 20
-570.99999999999955
 30
0.0
 11
4065.0
 21
-570.99999999999955
 31
0.0
1001
ACDBBLOCKREPETAG
1070
     1
1071
       17
1005
128D3C
  0
LINE
  5
128D3D
  8
OBJECT
 10
4065.0
 20
-570.99999999999955
 30
0.0
 11
4065.0
 21
-549.99999999999955
 31
0.0
1001
ACDBBLOCKREPETAG
1070
     1
1071
       18
1005
128D3D
  0
LINE
  5
128D3E
  8
OBJECT
 10
4065.0
 20
-549.99999999999955
 30
0.0
 11
3935.0
 21
-549.99999999999955
 31
0.0
1001
ACDBBLOCKREPETAG
1070
     1
1071
       19
1005
128D3E
  0
LINE
  5
128D3F
  8
HIDDEN
 10
4044.5
 20
-619.99999999999955
 30
0.0
 11
3955.5
 21
-619.99999999999955
 31
0.0
1001
ACDBBLOCKREPETAG
1070
     1
1071
       20
1005
128D3F
  0
LINE
  5
128D40
  8
CENTER
 10
4000.0
 20
-769.99999999999955
 30
0.0
 11
4000.0
 21
-534.99999999999955
 31
0.0
1001
ACDBBLOCKREPETAG
1070
     1
1071
       21
1005
128D40
  0
LINE
  5
128D41
  8
OBJECT
 10
3940.5
 20
-570.99999999999955
 30
0.0
 11
3940.5
 21
-633.99999999999955
 31
0.0
1001
ACDBBLOCKREPETAG
1070
     1
1071
       22
1005
128D41
  0
LINE
  5
128D42
  8
OBJECT
 10
3930.0
 20
-633.99999999999955
 30
0.0
 11
4070.0
 21
-633.99999999999955
 31
0.0
1001
ACDBBLOCKREPETAG
1070
     1
1071
       23
1005
128D42
  0
LINE
  5
128D43
  8
OBJECT
 10
4059.4999999999982
 20
-633.99999999999955
 30
0.0
 11
4059.4999999999982
 21
-570.99999999999955
 31
0.0
1001
ACDBBLOCKREPETAG
1070
     1
1071
       24
1005
128D43
  0
LINE
  5
128D44
  8
OBJECT
 10
3930.0
 20
-757.99999999999955
 30
0.0
 11
3930.0
 21
-769.99999999999955
 31
0.0
1001
ACDBBLOCKREPETAG
1070
     1
1071
       25
1005
128D44
  0
LINE
  5
128D45
  8
OBJECT
 10
3930.0
 20
-769.99999999999955
 30
0.0
 11
4070.0
 21
-769.99999999999955
 31
0.0
1001
ACDBBLOCKREPETAG
1070
     1
1071
       26
1005
128D45
  0
LINE
  5
128D46
  8
OBJECT
 10
4070.0
 20
-769.99999999999955
 30
0.0
 11
4070.0
 21
-757.99999999999955
 31
0.0
1001
ACDBBLOCKREPETAG
1070
     1
1071
       27
1005
128D46
  0
LINE
  5
128D47
  8
OBJECT
 10
4070.0
 20
-757.99999999999955
 30
0.0
 11
3930.0
 21
-757.99999999999955
 31
0.0
1001
ACDBBLOCKREPETAG
1070
     1
1071
       28
1005
128D47
  0
ARC
  5
128D48
  8
OBJECT
 10
4435.0384389946767
 20
-998.60813684682694
 30
0.0
 40
519.48776673616965
 50
135.42350667430969
 51
138.50052655621499
1001
ACDBBLOCKREPETAG
1070
     1
1071
       32
1005
128D48
  0
ARC
  5
128D49
  8
OBJECT
 10
4435.0384389946767
 20
-393.39186315317193
 30
0.0
 40
519.48776673616965
 50
221.49947344378501
 51
224.57649332569039
1001
ACDBBLOCKREPETAG
1070
     1
1071
       33
1005
128D49
  0
ARC
  5
128D4A
  8
OBJECT
 10
3564.961561005322
 20
-998.60813684682694
 30
0.0
 40
519.48776673616965
 50
41.499473443784993
 51
44.576493325690237
1001
ACDBBLOCKREPETAG
1070
     1
1071
       34
1005
128D4A
  0
ARC
  5
128D4B
  8
OBJECT
 10
3564.961561005322
 20
-393.39186315317193
 30
0.0
 40
519.48776673616965
 50
315.42350667430981
 51
318.50052655621488
1001
ACDBBLOCKREPETAG
1070
     1
1071
       35
1005
128D4B
  0
POINT
  5
128D4C
  8
DOTS
 10
4000.0
 20
-754.99999999999955
 30
0.0
1001
ACDBBLOCKREPETAG
1070
     1
1071
      111
1005
128D4C
  0
LINE
  5
128D4D
  8
CENTER
 10
3909.0
 20
-199.99999999999909
 30
0.0
 11
3930.0
 21
-199.99999999999909
 31
0.0
1001
ACDBBLOCKREPETAG
1070
     1
1071
        0
1005
128D4D
  0
LINE
  5
128D4E
  8
OBJECT
 10
3927.0
 20
-261.99999999999909
 30
0.0
 11
3930.0
 21
-261.99999999999909
 31
0.0
1001
ACDBBLOCKREPETAG
1070
     1
1071
        1
1005
128D4E
  0
ARC
  5
128D4F
  8
OBJECT
 10
3927.0
 20
-258.99999999999909
 30
0.0
 40
3.0
 50
180.0
 51
270.0
1001
ACDBBLOCKREPETAG
1070
     1
1071
        2
1005
128D4F
  0
LINE
  5
128D50
  8
OBJECT
 10
3930.0
 20
-137.99999999999909
 30
0.0
 11
3927.0
 21
-137.99999999999909
 31
0.0
1001
ACDBBLOCKREPETAG
1070
     1
1071
        3
1005
128D50
  0
ARC
  5
128D51
  8
OBJECT
 10
3927.0
 20
-140.99999999999909
 30
0.0
 40
3.0
 50
90.0
 51
180.0
1001
ACDBBLOCKREPETAG
1070
     1
1071
        4
1005
128D51
  0
LINE
  5
128D52
  8
OBJECT
 10
3924.0
 20
-140.99999999999909
 30
0.0
 11
3924.0
 21
-258.99999999999909
 31
0.0
1001
ACDBBLOCKREPETAG
1070
     1
1071
        5
1005
128D52
  0
LINE
  5
128D53
  8
OBJECT
 10
4047.0
 20
-322.99999999999898
 30
0.0
 11
4047.0
 21
-329.99999999999898
 31
0.0
1001
ACDBBLOCKREPETAG
1070
     1
1071
        7
1005
128D53
  0
LINE
  5
128D54
  8
OBJECT
 10
4047.0
 20
-329.99999999999898
 30
0.0
 11
3953.0
 21
-329.99999999999898
 31
0.0
1001
ACDBBLOCKREPETAG
1070
     1
1071
        8
1005
128D54
  0
LINE
  5
128D55
  8
OBJECT
 10
3953.0
 20
-329.99999999999898
 30
0.0
 11
3953.0
 21
-322.99999999999898
 31
0.0
1001
ACDBBLOCKREPETAG
1070
     1
1071
        9
1005
128D55
  0
LINE
  5
128D56
  8
OBJECT
 10
3953.0
 20
-322.99999999999898
 30
0.0
 11
4047.0
 21
-322.99999999999898
 31
0.0
1001
ACDBBLOCKREPETAG
1070
     1
1071
       10
1005
128D56
  0
LINE
  5
128D57
  8
CENTER
 10
4000.0
 20
-344.99999999999909
 30
0.0
 11
4000.0
 21
-269.99999999999909
 31
0.0
1001
ACDBBLOCKREPETAG
1070
     1
1071
       11
1005
128D57
  0
LINE
  5
128D58
  8
OBJECT
 10
4044.0
 20
-322.99999999999898
 30
0.0
 11
4044.0
 21
-286.99999999999898
 31
0.0
1001
ACDBBLOCKREPETAG
1070
     1
1071
       12
1005
128D58
  0
LINE
  5
128D59
  8
OBJECT
 10
4044.0
 20
-286.99999999999898
 30
0.0
 11
3956.0
 21
-286.99999999999898
 31
0.0
1001
ACDBBLOCKREPETAG
1070
     1
1071
       13
1005
128D59
  0
LINE
  5
128D5A
  8
OBJECT
 10
3956.0
 20
-286.99999999999898
 30
0.0
 11
3956.0
 21
-322.99999999999898
 31
0.0
1001
ACDBBLOCKREPETAG
1070
     1
1071
       14
1005
128D5A
  0
LINE
  5
128D5B
  8
OBJECT
 10
4039.5
 20
-282.99999999999898
 30
0.0
 11
4039.5
 21
-275.99999999999909
 31
0.0
1001
ACDBBLOCKREPETAG
1070
     1
1071
       15
1005
128D5B
  0
LINE
  5
128D5C
  8
OBJECT
 10
3960.5000000000009
 20
-275.99999999999909
 30
0.0
 11
3960.5000000000009
 21
-282.99999999999898
 31
0.0
1001
ACDBBLOCKREPETAG
1070
     1
1071
       16
1005
128D5C
  0
LINE
  5
128D5D
  8
OBJECT
 10
3960.5000000000009
 20
-282.99999999999898
 30
0.0
 11
4039.5
 21
-282.99999999999898
 31
0.0
1001
ACDBBLOCKREPETAG
1070
     1
1071
       17
1005
128D5D
  0
LINE
  5
128D5E
  8
OBJECT
 10
4044.0
 20
-286.99999999999898
 30
0.0
 11
4039.5
 21
-282.99999999999898
 31
0.0
1001
ACDBBLOCKREPETAG
1070
     1
1071
       18
1005
128D5E
  0
LINE
  5
128D5F
  8
OBJECT
 10
3956.0
 20
-286.99999999999898
 30
0.0
 11
3960.5000000000009
 21
-282.99999999999898
 31
0.0
1001
ACDBBLOCKREPETAG
1070
     1
1071
       19
1005
128D5F
  0
LINE
  5
128D60
  8
OBJECT
 10
4062.0
 20
-272.99999999999909
 30
0.0
 11
4062.0
 21
-269.99999999999909
 31
0.0
1001
ACDBBLOCKREPETAG
1070
     1
1071
       20
1005
128D60
  0
ARC
  5
128D61
  8
OBJECT
 10
4059.0
 20
-272.99999999999909
 30
0.0
 40
3.0
 50
270.0
 51
0.0
1001
ACDBBLOCKREPETAG
1070
     1
1071
       21
1005
128D61
  0
LINE
  5
128D62
  8
OBJECT
 10
3938.0
 20
-269.99999999999909
 30
0.0
 11
3938.0
 21
-272.99999999999909
 31
0.0
1001
ACDBBLOCKREPETAG
1070
     1
1071
       22
1005
128D62
  0
ARC
  5
128D63
  8
OBJECT
 10
3941.0
 20
-272.99999999999909
 30
0.0
 40
3.0
 50
180.0
 51
270.0
1001
ACDBBLOCKREPETAG
1070
     1
1071
       23
1005
128D63
  0
LINE
  5
128D64
  8
OBJECT
 10
3941.0
 20
-275.99999999999909
 30
0.0
 11
4059.0
 21
-275.99999999999909
 31
0.0
1001
ACDBBLOCKREPETAG
1070
     1
1071
       24
1005
128D64
  0
LINE
  5
128D65
  8
HIDDEN
 10
4030.0
 20
-277.99999999999909
 30
0.0
 11
3970.0
 21
-277.99999999999909
 31
0.0
1001
ACDBBLOCKREPETAG
1070
     1
1071
       25
1005
128D65
  0
POINT
  5
128D66
  8
DOTS
 10
4000.0
 20
-199.99999999999909
 30
0.0
 50
270.0
1001
ACDBBLOCKREPETAG
1070
     1
1071
      153
1005
128D66
  0
ARC
  5
128D67
  8
OBJECT
 10
4000.0
 20
-199.99999999999909
 30
0.0
 40
70.0
 50
62.339550100758693
 51
117.6604498992413
1001
ACDBBLOCKREPETAG
1070
     1
1071
        0
1005
128D67
  0
CIRCLE
  5
128D68
  8
OBJECT
 10
4000.0
 20
-199.99999999999909
 30
0.0
 40
65.0
1001
ACDBBLOCKREPETAG
1070
     1
1071
        1
1005
128D68
  0
CIRCLE
  5
128D69
  8
OBJECT
 10
4000.0
 20
-199.99999999999909
 30
0.0
 40
41.0
1001
ACDBBLOCKREPETAG
1070
     1
1071
        2
1005
128D69
  0
CIRCLE
  5
128D6A
  8
OBJECT
 10
4000.0
 20
-199.99999999999909
 30
0.0
 40
58.0
1001
ACDBBLOCKREPETAG
1070
     1
1071
        3
1005
128D6A
  0
LINE
  5
128D6B
  8
OBJECT
 10
4070.0
 20
-137.99999999999909
 30
0.0
 11
4019.5192212959432
 21
-137.99999999999909
 31
0.0
1001
ACDBBLOCKREPETAG
1070
     1
1071
        4
1005
128D6B
  0
LINE
  5
128D6C
  8
OBJECT
 10
3930.0
 20
-137.99999999999909
 30
0.0
 11
3980.4807787040581
 21
-137.99999999999909
 31
0.0
1001
ACDBBLOCKREPETAG
1070
     1
1071
        5
1005
128D6C
  0
LINE
  5
128D6D
  8
OBJECT
 10
3930.0
 20
-261.99999999999909
 30
0.0
 11
3938.0
 21
-261.99999999999909
 31
0.0
1001
ACDBBLOCKREPETAG
1070
     1
1071
        6
1005
128D6D
  0
LINE
  5
128D6E
  8
OBJECT
 10
3938.0
 20
-269.99999999999909
 30
0.0
 11
3938.0
 21
-261.99999999999909
 31
0.0
1001
ACDBBLOCKREPETAG
1070
     1
1071
        7
1005
128D6E
  0
LINE
  5
128D6F
  8
OBJECT
 10
4070.0
 20
-261.99999999999909
 30
0.0
 11
4062.0
 21
-261.99999999999909
 31
0.0
1001
ACDBBLOCKREPETAG
1070
     1
1071
        8
1005
128D6F
  0
LINE
  5
128D70
  8
OBJECT
 10
4062.0
 20
-269.99999999999909
 30
0.0
 11
4062.0
 21
-261.99999999999909
 31
0.0
1001
ACDBBLOCKREPETAG
1070
     1
1071
        9
1005
128D70
  0
LINE
  5
128D71
  8
CENTER
 10
3930.0
 20
-199.99999999999909
 30
0.0
 11
4070.0
 21
-199.99999999999909
 31
0.0
1001
ACDBBLOCKREPETAG
1070
     1
1071
       10
1005
128D71
  0
LINE
  5
128D72
  8
CENTER
 10
4000.0
 20
-269.99999999999909
 30
0.0
 11
4000.0
 21
-114.9999999999991
 31
0.0
1001
ACDBBLOCKREPETAG
1070
     1
1071
       11
1005
128D72
  0
ARC
  5
128D73
  8
OBJECT
 10
3989.9027621391888
 20
-224.44352901899131
 30
0.0
 40
7.0
 50
73.001272229719234
 51
154.0502587894434
1001
ACDBBLOCKREPETAG
1070
     1
1071
       12
1005
128D73
  0
ARC
  5
128D74
  8
OBJECT
 10
3986.8376610706509
 20
-225.5978773169509
 30
0.0
 40
9.0
 50
73.001272229719234
 51
154.0502639259247
1001
ACDBBLOCKREPETAG
1070
     1
1071
       13
1005
128D74
  0
ARC
  5
128D75
  8
OBJECT
 10
3896.3142301315529
 20
-147.28130031148149
 30
0.0
 40
150.0
 50
322.89503374001981
 51
325.8931499697137
1001
ACDBBLOCKREPETAG
1070
     1
1071
       14
1005
128D75
  0
ARC
  5
128D76
  8
OBJECT
 10
4000.0
 20
-199.99999999999909
 30
0.0
 40
37.5
 50
303.16276667668222
 51
229.1635024908278
1001
ACDBBLOCKREPETAG
1070
     1
1071
       15
1005
128D76
  0
LINE
  5
128D77
  8
OBJECT
 10
3983.6085145189768
 20
-221.38045100897119
 30
0.0
 11
3977.3740109999999
 21
-234.1915870000002
 31
0.0
1001
ACDBBLOCKREPETAG
1070
     1
1071
       16
1005
128D77
  0
LINE
  5
128D78
  8
OBJECT
 10
3978.7450566344628
 20
-221.65963488670511
 30
0.0
 11
3973.8986719999989
 21
-231.6183599999996
 31
0.0
1001
ACDBBLOCKREPETAG
1070
     1
1071
       17
1005
128D78
  0
LINE
  5
128D79
  8
OBJECT
 10
4018.9380179999998
 20
-226.00000000000091
 30
0.0
 11
3989.468815303258
 21
-216.99107608744359
 31
0.0
1001
ACDBBLOCKREPETAG
1070
     1
1071
       18
1005
128D79
  0
LINE
  5
128D7A
  8
OBJECT
 10
4020.5132253090051
 20
-231.39199878029191
 30
0.0
 11
4018.9380179999998
 21
-226.00000000000091
 31
0.0
1001
ACDBBLOCKREPETAG
1070
     1
1071
       19
1005
128D7A
  0
LINE
  5
128D7B
  8
OBJECT
 10
3954.0380592228739
 20
-245.96194077712471
 30
0.0
 11
3938.0
 21
-261.99999999999909
 31
0.0
1001
ACDBBLOCKREPETAG
1070
     1
1071
       42
1005
128D7B
  0
LINE
  5
128D7C
  8
OBJECT
 10
4045.9619407771238
 20
-245.96194077712471
 30
0.0
 11
4062.0
 21
-261.99999999999909
 31
0.0
1001
ACDBBLOCKREPETAG
1070
     1
1071
       43
1005
128D7C
  0
LINE
  5
128D7D
  8
OBJECT
 10
4123.0
 20
-663.99999999999966
 30
0.0
 11
4130.0
 21
-663.99999999999966
 31
0.0
1001
ACDBBLOCKREPETAG
1070
     1
1071
        7
1005
128D7D
  0
LINE
  5
128D7E
  8
OBJECT
 10
4130.0
 20
-663.99999999999966
 30
0.0
 11
4130.0
 21
-754.99999999999955
 31
0.0
1001
ACDBBLOCKREPETAG
1070
     1
1071
        8
1005
128D7E
  0
LINE
  5
128D7F
  8
OBJECT
 10
4123.0
 20
-754.99999999999955
 30
0.0
 11
4123.0
 21
-663.99999999999966
 31
0.0
1001
ACDBBLOCKREPETAG
1070
     1
1071
        9
1005
128D7F
  0
LINE
  5
128D80
  8
CENTER
 10
4145.0
 20
-710.99999999999955
 30
0.0
 11
4061.0
 21
-710.99999999999955
 31
0.0
1001
ACDBBLOCKREPETAG
1070
     1
1071
       10
1005
128D80
  0
LINE
  5
128D81
  8
OBJECT
 10
4123.0
 20
-666.99999999999955
 30
0.0
 11
4087.0
 21
-666.99999999999955
 31
0.0
1001
ACDBBLOCKREPETAG
1070
     1
1071
       11
1005
128D81
  0
LINE
  5
128D82
  8
OBJECT
 10
4087.0
 20
-666.99999999999955
 30
0.0
 11
4087.0
 21
-754.99999999999955
 31
0.0
1001
ACDBBLOCKREPETAG
1070
     1
1071
       12
1005
128D82
  0
LINE
  5
128D83
  8
OBJECT
 10
4087.0
 20
-754.99999999999955
 30
0.0
 11
4130.0
 21
-754.99999999999955
 31
0.0
1001
ACDBBLOCKREPETAG
1070
     1
1071
       13
1005
128D83
  0
LINE
  5
128D84
  8
OBJECT
 10
4083.0
 20
-671.49999999999955
 30
0.0
 11
4076.0
 21
-671.49999999999955
 31
0.0
1001
ACDBBLOCKREPETAG
1070
     1
1071
       14
1005
128D84
  0
LINE
  5
128D85
  8
OBJECT
 10
4076.0
 20
-750.49999999999955
 30
0.0
 11
4083.0
 21
-750.49999999999955
 31
0.0
1001
ACDBBLOCKREPETAG
1070
     1
1071
       15
1005
128D85
  0
LINE
  5
128D86
  8
OBJECT
 10
4083.0
 20
-750.49999999999955
 30
0.0
 11
4083.0
 21
-671.49999999999955
 31
0.0
1001
ACDBBLOCKREPETAG
1070
     1
1071
       16
1005
128D86
  0
LINE
  5
128D87
  8
OBJECT
 10
4087.0
 20
-666.99999999999955
 30
0.0
 11
4083.0
 21
-671.49999999999955
 31
0.0
1001
ACDBBLOCKREPETAG
1070
     1
1071
       17
1005
128D87
  0
LINE
  5
128D88
  8
OBJECT
 10
4087.0
 20
-754.99999999999955
 30
0.0
 11
4083.0
 21
-750.49999999999955
 31
0.0
1001
ACDBBLOCKREPETAG
1070
     1
1071
       18
1005
128D88
  0
LINE
  5
128D89
  8
OBJECT
 10
4073.0
 20
-633.99999999999955
 30
0.0
 11
4070.0
 21
-633.99999999999955
 31
0.0
1001
ACDBBLOCKREPETAG
1070
     1
1071
       19
1005
128D89
  0
ARC
  5
128D8A
  8
OBJECT
 10
4073.0
 20
-636.99999999999955
 30
0.0
 40
3.0
 50
0.0
 51
90.0
1001
ACDBBLOCKREPETAG
1070
     1
1071
       20
1005
128D8A
  0
LINE
  5
128D8B
  8
OBJECT
 10
4070.0
 20
-757.99999999999955
 30
0.0
 11
4073.0
 21
-757.99999999999955
 31
0.0
1001
ACDBBLOCKREPETAG
1070
     1
1071
       21
1005
128D8B
  0
ARC
  5
128D8C
  8
OBJECT
 10
4073.0
 20
-754.99999999999955
 30
0.0
 40
3.0
 50
270.0
 51
0.0
1001
ACDBBLOCKREPETAG
1070
     1
1071
       22
1005
128D8C
  0
LINE
  5
128D8D
  8
OBJECT
 10
4076.0
 20
-754.99999999999955
 30
0.0
 11
4076.0
 21
-636.99999999999955
 31
0.0
1001
ACDBBLOCKREPETAG
1070
     1
1071
       23
1005
128D8D
  0
LINE
  5
128D8E
  8
HIDDEN
 10
4078.0
 20
-680.99999999999955
 30
0.0
 11
4078.0
 21
-740.99999999999955
 31
0.0
1001
ACDBBLOCKREPETAG
1070
     1
1071
       24
1005
128D8E
  0
LINE
  5
128D8F
  8
OBJECT
 10
4123.0
 20
-152.99999999999909
 30
0.0
 11
4130.0
 21
-152.99999999999909
 31
0.0
1001
ACDBBLOCKREPETAG
1070
     1
1071
        7
1005
128D8F
  0
LINE
  5
128D90
  8
OBJECT
 10
4130.0
 20
-152.99999999999909
 30
0.0
 11
4130.0
 21
-246.99999999999909
 31
0.0
1001
ACDBBLOCKREPETAG
1070
     1
1071
        8
1005
128D90
  0
LINE
  5
128D91
  8
OBJECT
 10
4130.0
 20
-246.99999999999909
 30
0.0
 11
4123.0
 21
-246.99999999999909
 31
0.0
1001
ACDBBLOCKREPETAG
1070
     1
1071
        9
1005
128D91
  0
LINE
  5
128D92
  8
OBJECT
 10
4123.0
 20
-246.99999999999909
 30
0.0
 11
4123.0
 21
-152.99999999999909
 31
0.0
1001
ACDBBLOCKREPETAG
1070
     1
1071
       10
1005
128D92
  0
LINE
  5
128D93
  8
CENTER
 10
4145.0
 20
-199.99999999999909
 30
0.0
 11
4070.0
 21
-199.99999999999909
 31
0.0
1001
ACDBBLOCKREPETAG
1070
     1
1071
       11
1005
128D93
  0
LINE
  5
128D94
  8
OBJECT
 10
4123.0
 20
-155.99999999999909
 30
0.0
 11
4087.0
 21
-155.99999999999909
 31
0.0
1001
ACDBBLOCKREPETAG
1070
     1
1071
       12
1005
128D94
  0
LINE
  5
128D95
  8
OBJECT
 10
4087.0
 20
-155.99999999999909
 30
0.0
 11
4087.0
 21
-243.99999999999909
 31
0.0
1001
ACDBBLOCKREPETAG
1070
     1
1071
       13
1005
128D95
  0
LINE
  5
128D96
  8
OBJECT
 10
4087.0
 20
-243.99999999999909
 30
0.0
 11
4123.0
 21
-243.99999999999909
 31
0.0
1001
ACDBBLOCKREPETAG
1070
     1
1071
       14
1005
128D96
  0
LINE
  5
128D97
  8
OBJECT
 10
4083.0
 20
-160.49999999999909
 30
0.0
 11
4076.0
 21
-160.49999999999909
 31
0.0
1001
ACDBBLOCKREPETAG
1070
     1
1071
       15
1005
128D97
  0
LINE
  5
128D98
  8
OBJECT
 10
4076.0
 20
-239.49999999999909
 30
0.0
 11
4083.0
 21
-239.49999999999909
 31
0.0
1001
ACDBBLOCKREPETAG
1070
     1
1071
       16
1005
128D98
  0
LINE
  5
128D99
  8
OBJECT
 10
4083.0
 20
-239.49999999999909
 30
0.0
 11
4083.0
 21
-160.49999999999909
 31
0.0
1001
ACDBBLOCKREPETAG
1070
     1
1071
       17
1005
128D99
  0
LINE
  5
128D9A
  8
OBJECT
 10
4087.0
 20
-155.99999999999909
 30
0.0
 11
4083.0
 21
-160.49999999999909
 31
0.0
1001
ACDBBLOCKREPETAG
1070
     1
1071
       18
1005
128D9A
  0
LINE
  5
128D9B
  8
OBJECT
 10
4087.0
 20
-243.99999999999909
 30
0.0
 11
4083.0
 21
-239.49999999999909
 31
0.0
1001
ACDBBLOCKREPETAG
1070
     1
1071
       19
1005
128D9B
  0
LINE
  5
128D9C
  8
OBJECT
 10
4073.0
 20
-137.99999999999909
 30
0.0
 11
4070.0
 21
-137.99999999999909
 31
0.0
1001
ACDBBLOCKREPETAG
1070
     1
1071
       20
1005
128D9C
  0
ARC
  5
128D9D
  8
OBJECT
 10
4073.0
 20
-140.99999999999909
 30
0.0
 40
3.0
 50
0.0
 51
90.0
1001
ACDBBLOCKREPETAG
1070
     1
1071
       21
1005
128D9D
  0
LINE
  5
128D9E
  8
OBJECT
 10
4070.0
 20
-261.99999999999909
 30
0.0
 11
4073.0
 21
-261.99999999999909
 31
0.0
1001
ACDBBLOCKREPETAG
1070
     1
1071
       22
1005
128D9E
  0
ARC
  5
128D9F
  8
OBJECT
 10
4073.0
 20
-258.99999999999909
 30
0.0
 40
3.0
 50
270.0
 51
0.0
1001
ACDBBLOCKREPETAG
1070
     1
1071
       23
1005
128D9F
  0
LINE
  5
128DA0
  8
OBJECT
 10
4076.0
 20
-258.99999999999909
 30
0.0
 11
4076.0
 21
-140.99999999999909
 31
0.0
1001
ACDBBLOCKREPETAG
1070
     1
1071
       24
1005
128DA0
  0
LINE
  5
128DA1
  8
HIDDEN
 10
4078.0
 20
-169.99999999999909
 30
0.0
 11
4078.0
 21
-229.99999999999909
 31
0.0
1001
ACDBBLOCKREPETAG
1070
     1
1071
       25
1005
128DA1
  0
TEXT
  5
128DA2
  8
SLIM
 10
7824.6000000000022
 20
-1403.999999999998
 30
0.0
 40
28.0
  1
※ 対応スラブ厚　180～220
 41
0.75
  0
TEXT
  5
128DA3
  8
SLIM
 10
7598.8999999999969
 20
-1497.333333333331
 30
0.0
 40
28.0
  1
国土交通大臣認定・（一財）日本消防設備安全センター性能評定取得品
 41
0.75
  0
TEXT
  5
128DA4
  8
SLIM
 10
7631.1000000000004
 20
-1543.999999999998
 30
0.0
 40
28.0
  1
注）ご採用にあたり、認定書及び評定書の内容をご確認ください。
 41
0.75
  0
LINE
  5
128DA5
  8
CENTER
 10
2909.0
 20
-3174.9999999999959
 30
0.0
 11
2930.0
 21
-3174.9999999999959
 31
0.0
1001
ACDBBLOCKREPETAG
1070
     1
1071
        0
1005
128DA5
  0
LINE
  5
128DA6
  8
OBJECT
 10
2926.9999999999991
 20
-3236.9999999999959
 30
0.0
 11
2930.0
 21
-3236.9999999999959
 31
0.0
1001
ACDBBLOCKREPETAG
1070
     1
1071
        1
1005
128DA6
  0
ARC
  5
128DA7
  8
OBJECT
 10
2926.9999999999991
 20
-3233.9999999999959
 30
0.0
 40
3.0
 50
180.0
 51
270.0
1001
ACDBBLOCKREPETAG
1070
     1
1071
        2
1005
128DA7
  0
LINE
  5
128DA8
  8
OBJECT
 10
2930.0
 20
-3112.9999999999959
 30
0.0
 11
2926.9999999999991
 21
-3112.9999999999959
 31
0.0
1001
ACDBBLOCKREPETAG
1070
     1
1071
        3
1005
128DA8
  0
ARC
  5
128DA9
  8
OBJECT
 10
2926.9999999999991
 20
-3115.9999999999959
 30
0.0
 40
3.0
 50
90.0
 51
180.0
1001
ACDBBLOCKREPETAG
1070
     1
1071
        4
1005
128DA9
  0
LINE
  5
128DAA
  8
OBJECT
 10
2923.9999999999991
 20
-3115.9999999999959
 30
0.0
 11
2923.9999999999991
 21
-3233.9999999999959
 31
0.0
1001
ACDBBLOCKREPETAG
1070
     1
1071
        5
1005
128DAA
  0
LINE
  5
128DAB
  8
CENTER
 10
3000.0
 20
-3265.9999999999959
 30
0.0
 11
3000.0
 21
-3244.9999999999959
 31
0.0
1001
ACDBBLOCKREPETAG
1070
     1
1071
        0
1005
128DAB
  0
LINE
  5
128DAC
  8
OBJECT
 10
3062.0
 20
-3247.9999999999968
 30
0.0
 11
3062.0
 21
-3244.9999999999959
 31
0.0
1001
ACDBBLOCKREPETAG
1070
     1
1071
        1
1005
128DAC
  0
ARC
  5
128DAD
  8
OBJECT
 10
3059.0
 20
-3247.9999999999968
 30
0.0
 40
3.0
 50
270.0
 51
0.0
1001
ACDBBLOCKREPETAG
1070
     1
1071
        2
1005
128DAD
  0
LINE
  5
128DAE
  8
OBJECT
 10
2938.0
 20
-3244.9999999999959
 30
0.0
 11
2938.0
 21
-3247.999999999995
 31
0.0
1001
ACDBBLOCKREPETAG
1070
     1
1071
        3
1005
128DAE
  0
ARC
  5
128DAF
  8
OBJECT
 10
2941.0
 20
-3247.999999999995
 30
0.0
 40
3.0
 50
180.0
 51
270.0
1001
ACDBBLOCKREPETAG
1070
     1
1071
        4
1005
128DAF
  0
LINE
  5
128DB0
  8
OBJECT
 10
2941.0
 20
-3250.999999999995
 30
0.0
 11
3059.0
 21
-3250.9999999999968
 31
0.0
1001
ACDBBLOCKREPETAG
1070
     1
1071
        5
1005
128DB0
  0
POINT
  5
128DB1
  8
DOTS
 10
3000.0
 20
-3174.9999999999959
 30
0.0
 50
270.0
1001
ACDBBLOCKREPETAG
1070
     1
1071
      153
1005
128DB1
  0
ARC
  5
128DB2
  8
OBJECT
 10
3000.0
 20
-3174.9999999999959
 30
0.0
 40
70.0
 50
62.339550100752639
 51
117.6604498992473
1001
ACDBBLOCKREPETAG
1070
     1
1071
        0
1005
128DB2
  0
CIRCLE
  5
128DB3
  8
OBJECT
 10
3000.0
 20
-3174.9999999999959
 30
0.0
 40
65.0
1001
ACDBBLOCKREPETAG
1070
     1
1071
        1
1005
128DB3
  0
CIRCLE
  5
128DB4
  8
OBJECT
 10
3000.0
 20
-3174.9999999999959
 30
0.0
 40
41.0
1001
ACDBBLOCKREPETAG
1070
     1
1071
        2
1005
128DB4
  0
CIRCLE
  5
128DB5
  8
OBJECT
 10
3000.0
 20
-3174.9999999999959
 30
0.0
 40
58.0
1001
ACDBBLOCKREPETAG
1070
     1
1071
        3
1005
128DB5
  0
LINE
  5
128DB6
  8
OBJECT
 10
3070.0
 20
-3112.9999999999959
 30
0.0
 11
3019.5192212959432
 21
-3112.9999999999959
 31
0.0
1001
ACDBBLOCKREPETAG
1070
     1
1071
        4
1005
128DB6
  0
LINE
  5
128DB7
  8
OBJECT
 10
2930.0
 20
-3112.9999999999959
 30
0.0
 11
2980.4807787040559
 21
-3112.9999999999959
 31
0.0
1001
ACDBBLOCKREPETAG
1070
     1
1071
        5
1005
128DB7
  0
LINE
  5
128DB8
  8
OBJECT
 10
2930.0
 20
-3236.9999999999959
 30
0.0
 11
2938.0
 21
-3236.9999999999959
 31
0.0
1001
ACDBBLOCKREPETAG
1070
     1
1071
        6
1005
128DB8
  0
LINE
  5
128DB9
  8
OBJECT
 10
2938.0
 20
-3244.9999999999959
 30
0.0
 11
2938.0
 21
-3236.9999999999959
 31
0.0
1001
ACDBBLOCKREPETAG
1070
     1
1071
        7
1005
128DB9
  0
LINE
  5
128DBA
  8
OBJECT
 10
3070.0
 20
-3236.9999999999959
 30
0.0
 11
3062.0
 21
-3236.9999999999959
 31
0.0
1001
ACDBBLOCKREPETAG
1070
     1
1071
        8
1005
128DBA
  0
LINE
  5
128DBB
  8
OBJECT
 10
3062.0
 20
-3244.9999999999959
 30
0.0
 11
3062.0
 21
-3236.9999999999959
 31
0.0
1001
ACDBBLOCKREPETAG
1070
     1
1071
        9
1005
128DBB
  0
LINE
  5
128DBC
  8
CENTER
 10
2930.0
 20
-3174.9999999999959
 30
0.0
 11
3070.0
 21
-3174.9999999999959
 31
0.0
1001
ACDBBLOCKREPETAG
1070
     1
1071
       10
1005
128DBC
  0
LINE
  5
128DBD
  8
CENTER
 10
3000.0
 20
-3244.9999999999959
 30
0.0
 11
3000.0
 21
-3089.9999999999959
 31
0.0
1001
ACDBBLOCKREPETAG
1070
     1
1071
       11
1005
128DBD
  0
ARC
  5
128DBE
  8
OBJECT
 10
2989.902762139187
 20
-3199.4435290189881
 30
0.0
 40
7.0
 50
73.001272229716378
 51
154.050258789439
1001
ACDBBLOCKREPETAG
1070
     1
1071
       12
1005
128DBE
  0
ARC
  5
128DBF
  8
OBJECT
 10
2986.8376610706518
 20
-3200.5978773169481
 30
0.0
 40
9.0
 50
73.001272229716378
 51
154.05026392593041
1001
ACDBBLOCKREPETAG
1070
     1
1071
       13
1005
128DBF
  0
ARC
  5
128DC0
  8
OBJECT
 10
2896.3142301315529
 20
-3122.2813003114779
 30
0.0
 40
150.0
 50
322.89503374001322
 51
325.89314996972462
1001
ACDBBLOCKREPETAG
1070
     1
1071
       14
1005
128DC0
  0
ARC
  5
128DC1
  8
OBJECT
 10
3000.0
 20
-3174.9999999999959
 30
0.0
 40
37.5
 50
303.16276667668131
 51
229.16350249082569
1001
ACDBBLOCKREPETAG
1070
     1
1071
       15
1005
128DC1
  0
LINE
  5
128DC2
  8
OBJECT
 10
2983.6085145189759
 20
-3196.3804510089681
 30
0.0
 11
2977.3740109999999
 21
-3209.191586999998
 31
0.0
1001
ACDBBLOCKREPETAG
1070
     1
1071
       16
1005
128DC2
  0
LINE
  5
128DC3
  8
OBJECT
 10
2978.7450566344628
 20
-3196.6596348867029
 30
0.0
 11
2973.8986719999989
 21
-3206.6183599999972
 31
0.0
1001
ACDBBLOCKREPETAG
1070
     1
1071
       17
1005
128DC3
  0
LINE
  5
128DC4
  8
OBJECT
 10
3018.9380179999998
 20
-3200.9999999999991
 30
0.0
 11
2989.468815303258
 21
-3191.9910760874409
 31
0.0
1001
ACDBBLOCKREPETAG
1070
     1
1071
       18
1005
128DC4
  0
LINE
  5
128DC5
  8
OBJECT
 10
3020.5132253090051
 20
-3206.3919987802892
 30
0.0
 11
3018.9380179999998
 21
-3200.9999999999991
 31
0.0
1001
ACDBBLOCKREPETAG
1070
     1
1071
       19
1005
128DC5
  0
LINE
  5
128DC6
  8
OBJECT
 10
2954.0380592228739
 20
-3220.9619407771211
 30
0.0
 11
2938.0
 21
-3236.9999999999959
 31
0.0
1001
ACDBBLOCKREPETAG
1070
     1
1071
       42
1005
128DC6
  0
LINE
  5
128DC7
  8
OBJECT
 10
3045.9619407771261
 20
-3220.9619407771211
 30
0.0
 11
3062.0
 21
-3236.9999999999959
 31
0.0
1001
ACDBBLOCKREPETAG
1070
     1
1071
       43
1005
128DC7
  0
LINE
  5
128DC8
  8
OBJECT
 10
3123.0
 20
-3119.9999999999959
 30
0.0
 11
3130.0
 21
-3119.9999999999959
 31
0.0
1001
ACDBBLOCKREPETAG
1070
     1
1071
       27
1005
128DC8
  0
LINE
  5
128DC9
  8
OBJECT
 10
3130.0
 20
-3119.9999999999959
 30
0.0
 11
3130.0
 21
-3229.9999999999959
 31
0.0
1001
ACDBBLOCKREPETAG
1070
     1
1071
       28
1005
128DC9
  0
LINE
  5
128DCA
  8
OBJECT
 10
3130.0
 20
-3229.9999999999959
 30
0.0
 11
3123.0
 21
-3229.9999999999959
 31
0.0
1001
ACDBBLOCKREPETAG
1070
     1
1071
       29
1005
128DCA
  0
LINE
  5
128DCB
  8
OBJECT
 10
3123.0
 20
-3229.9999999999959
 30
0.0
 11
3123.0
 21
-3119.9999999999959
 31
0.0
1001
ACDBBLOCKREPETAG
1070
     1
1071
       30
1005
128DCB
  0
LINE
  5
128DCC
  8
CENTER
 10
3145.0
 20
-3174.9999999999959
 30
0.0
 11
3070.0
 21
-3174.9999999999959
 31
0.0
1001
ACDBBLOCKREPETAG
1070
     1
1071
       31
1005
128DCC
  0
LINE
  5
128DCD
  8
OBJECT
 10
3123.0
 20
-3122.9999999999959
 30
0.0
 11
3087.0
 21
-3122.9999999999959
 31
0.0
1001
ACDBBLOCKREPETAG
1070
     1
1071
       32
1005
128DCD
  0
LINE
  5
128DCE
  8
OBJECT
 10
3087.0
 20
-3122.9999999999959
 30
0.0
 11
3087.0
 21
-3226.9999999999959
 31
0.0
1001
ACDBBLOCKREPETAG
1070
     1
1071
       33
1005
128DCE
  0
LINE
  5
128DCF
  8
OBJECT
 10
3087.0
 20
-3226.9999999999959
 30
0.0
 11
3123.0
 21
-3226.9999999999959
 31
0.0
1001
ACDBBLOCKREPETAG
1070
     1
1071
       34
1005
128DCF
  0
LINE
  5
128DD0
  8
OBJECT
 10
3083.0
 20
-3127.4999999999959
 30
0.0
 11
3076.0
 21
-3127.4999999999959
 31
0.0
1001
ACDBBLOCKREPETAG
1070
     1
1071
       35
1005
128DD0
  0
LINE
  5
128DD1
  8
OBJECT
 10
3076.0
 20
-3222.4999999999959
 30
0.0
 11
3083.0
 21
-3222.4999999999959
 31
0.0
1001
ACDBBLOCKREPETAG
1070
     1
1071
       36
1005
128DD1
  0
LINE
  5
128DD2
  8
OBJECT
 10
3083.0
 20
-3222.4999999999959
 30
0.0
 11
3083.0
 21
-3127.4999999999959
 31
0.0
1001
ACDBBLOCKREPETAG
1070
     1
1071
       37
1005
128DD2
  0
LINE
  5
128DD3
  8
OBJECT
 10
3087.0
 20
-3122.9999999999959
 30
0.0
 11
3083.0
 21
-3127.4999999999959
 31
0.0
1001
ACDBBLOCKREPETAG
1070
     1
1071
       38
1005
128DD3
  0
LINE
  5
128DD4
  8
OBJECT
 10
3087.0
 20
-3226.9999999999959
 30
0.0
 11
3083.0
 21
-3222.4999999999959
 31
0.0
1001
ACDBBLOCKREPETAG
1070
     1
1071
       39
1005
128DD4
  0
LINE
  5
128DD5
  8
OBJECT
 10
3073.0
 20
-3112.9999999999959
 30
0.0
 11
3070.0
 21
-3112.9999999999959
 31
0.0
1001
ACDBBLOCKREPETAG
1070
     1
1071
       40
1005
128DD5
  0
ARC
  5
128DD6
  8
OBJECT
 10
3073.0
 20
-3115.9999999999959
 30
0.0
 40
3.0
 50
0.0
 51
90.0
1001
ACDBBLOCKREPETAG
1070
     1
1071
       41
1005
128DD6
  0
LINE
  5
128DD7
  8
OBJECT
 10
3070.0
 20
-3236.9999999999959
 30
0.0
 11
3073.0
 21
-3236.9999999999959
 31
0.0
1001
ACDBBLOCKREPETAG
1070
     1
1071
       42
1005
128DD7
  0
ARC
  5
128DD8
  8
OBJECT
 10
3073.0
 20
-3233.9999999999959
 30
0.0
 40
3.0
 50
270.0
 51
0.0
1001
ACDBBLOCKREPETAG
1070
     1
1071
       43
1005
128DD8
  0
LINE
  5
128DD9
  8
OBJECT
 10
3076.0
 20
-3233.9999999999959
 30
0.0
 11
3076.0
 21
-3115.9999999999959
 31
0.0
1001
ACDBBLOCKREPETAG
1070
     1
1071
       44
1005
128DD9
  0
LINE
  5
128DDA
  8
HIDDEN
 10
3078.0
 20
-3136.9999999999959
 30
0.0
 11
3078.0
 21
-3212.9999999999959
 31
0.0
1001
ACDBBLOCKREPETAG
1070
     1
1071
       45
1005
128DDA
  0
LINE
  5
128DDB
  8
CENTER
 10
1908.9999999999991
 20
-3174.9999999999959
 30
0.0
 11
1929.9999999999991
 21
-3174.9999999999959
 31
0.0
1001
ACDBBLOCKREPETAG
1070
     1
1071
        0
1005
128DDB
  0
LINE
  5
128DDC
  8
OBJECT
 10
1926.9999999999991
 20
-3236.9999999999959
 30
0.0
 11
1929.9999999999991
 21
-3236.9999999999959
 31
0.0
1001
ACDBBLOCKREPETAG
1070
     1
1071
        1
1005
128DDC
  0
ARC
  5
128DDD
  8
OBJECT
 10
1926.9999999999991
 20
-3233.9999999999959
 30
0.0
 40
3.0
 50
180.0
 51
270.0
1001
ACDBBLOCKREPETAG
1070
     1
1071
        2
1005
128DDD
  0
LINE
  5
128DDE
  8
OBJECT
 10
1929.9999999999991
 20
-3112.9999999999959
 30
0.0
 11
1926.9999999999991
 21
-3112.9999999999959
 31
0.0
1001
ACDBBLOCKREPETAG
1070
     1
1071
        3
1005
128DDE
  0
ARC
  5
128DDF
  8
OBJECT
 10
1926.9999999999991
 20
-3115.9999999999959
 30
0.0
 40
3.0
 50
90.0
 51
180.0
1001
ACDBBLOCKREPETAG
1070
     1
1071
        4
1005
128DDF
  0
LINE
  5
128DE0
  8
OBJECT
 10
1923.9999999999991
 20
-3115.9999999999959
 30
0.0
 11
1923.9999999999991
 21
-3233.9999999999959
 31
0.0
1001
ACDBBLOCKREPETAG
1070
     1
1071
        5
1005
128DE0
  0
LINE
  5
128DE1
  8
CENTER
 10
2000.0
 20
-3265.9999999999959
 30
0.0
 11
2000.0
 21
-3244.9999999999959
 31
0.0
1001
ACDBBLOCKREPETAG
1070
     1
1071
        0
1005
128DE1
  0
LINE
  5
128DE2
  8
OBJECT
 10
2062.0
 20
-3247.9999999999968
 30
0.0
 11
2062.0
 21
-3244.9999999999959
 31
0.0
1001
ACDBBLOCKREPETAG
1070
     1
1071
        1
1005
128DE2
  0
ARC
  5
128DE3
  8
OBJECT
 10
2059.0
 20
-3247.9999999999968
 30
0.0
 40
3.0
 50
270.0
 51
0.0
1001
ACDBBLOCKREPETAG
1070
     1
1071
        2
1005
128DE3
  0
LINE
  5
128DE4
  8
OBJECT
 10
1937.9999999999991
 20
-3244.9999999999959
 30
0.0
 11
1937.9999999999991
 21
-3247.999999999995
 31
0.0
1001
ACDBBLOCKREPETAG
1070
     1
1071
        3
1005
128DE4
  0
ARC
  5
128DE5
  8
OBJECT
 10
1941.0
 20
-3247.999999999995
 30
0.0
 40
3.0
 50
180.0
 51
270.0
1001
ACDBBLOCKREPETAG
1070
     1
1071
        4
1005
128DE5
  0
LINE
  5
128DE6
  8
OBJECT
 10
1941.0
 20
-3250.999999999995
 30
0.0
 11
2059.0
 21
-3250.9999999999968
 31
0.0
1001
ACDBBLOCKREPETAG
1070
     1
1071
        5
1005
128DE6
  0
POINT
  5
128DE7
  8
DOTS
 10
2000.0
 20
-3174.9999999999959
 30
0.0
 50
270.0
1001
ACDBBLOCKREPETAG
1070
     1
1071
      153
1005
128DE7
  0
ARC
  5
128DE8
  8
OBJECT
 10
2000.0
 20
-3174.9999999999959
 30
0.0
 40
70.0
 50
62.339550100752639
 51
117.6604498992473
1001
ACDBBLOCKREPETAG
1070
     1
1071
        0
1005
128DE8
  0
CIRCLE
  5
128DE9
  8
OBJECT
 10
2000.0
 20
-3174.9999999999959
 30
0.0
 40
65.0
1001
ACDBBLOCKREPETAG
1070
     1
1071
        1
1005
128DE9
  0
CIRCLE
  5
128DEA
  8
OBJECT
 10
2000.0
 20
-3174.9999999999959
 30
0.0
 40
41.0
1001
ACDBBLOCKREPETAG
1070
     1
1071
        2
1005
128DEA
  0
CIRCLE
  5
128DEB
  8
OBJECT
 10
2000.0
 20
-3174.9999999999959
 30
0.0
 40
58.0
1001
ACDBBLOCKREPETAG
1070
     1
1071
        3
1005
128DEB
  0
LINE
  5
128DEC
  8
OBJECT
 10
2070.0
 20
-3112.9999999999959
 30
0.0
 11
2019.519221295943
 21
-3112.9999999999959
 31
0.0
1001
ACDBBLOCKREPETAG
1070
     1
1071
        4
1005
128DEC
  0
LINE
  5
128DED
  8
OBJECT
 10
1929.9999999999991
 20
-3112.9999999999959
 30
0.0
 11
1980.4807787040561
 21
-3112.9999999999959
 31
0.0
1001
ACDBBLOCKREPETAG
1070
     1
1071
        5
1005
128DED
  0
LINE
  5
128DEE
  8
OBJECT
 10
1929.9999999999991
 20
-3236.9999999999959
 30
0.0
 11
1937.9999999999991
 21
-3236.9999999999959
 31
0.0
1001
ACDBBLOCKREPETAG
1070
     1
1071
        6
1005
128DEE
  0
LINE
  5
128DEF
  8
OBJECT
 10
1937.9999999999991
 20
-3244.9999999999959
 30
0.0
 11
1937.9999999999991
 21
-3236.9999999999959
 31
0.0
1001
ACDBBLOCKREPETAG
1070
     1
1071
        7
1005
128DEF
  0
LINE
  5
128DF0
  8
OBJECT
 10
2070.0
 20
-3236.9999999999959
 30
0.0
 11
2062.0
 21
-3236.9999999999959
 31
0.0
1001
ACDBBLOCKREPETAG
1070
     1
1071
        8
1005
128DF0
  0
LINE
  5
128DF1
  8
OBJECT
 10
2062.0
 20
-3244.9999999999959
 30
0.0
 11
2062.0
 21
-3236.9999999999959
 31
0.0
1001
ACDBBLOCKREPETAG
1070
     1
1071
        9
1005
128DF1
  0
LINE
  5
128DF2
  8
CENTER
 10
1929.9999999999991
 20
-3174.9999999999959
 30
0.0
 11
2070.0
 21
-3174.9999999999959
 31
0.0
1001
ACDBBLOCKREPETAG
1070
     1
1071
       10
1005
128DF2
  0
LINE
  5
128DF3
  8
CENTER
 10
2000.0
 20
-3244.9999999999959
 30
0.0
 11
2000.0
 21
-3089.9999999999959
 31
0.0
1001
ACDBBLOCKREPETAG
1070
     1
1071
       11
1005
128DF3
  0
ARC
  5
128DF4
  8
OBJECT
 10
1989.9027621391861
 20
-3199.4435290189881
 30
0.0
 40
7.0
 50
73.001272229703943
 51
154.05025878943329
1001
ACDBBLOCKREPETAG
1070
     1
1071
       12
1005
128DF4
  0
ARC
  5
128DF5
  8
OBJECT
 10
1986.83766107065
 20
-3200.5978773169481
 30
0.0
 40
9.0
 50
73.001272229703943
 51
154.05026392593629
1001
ACDBBLOCKREPETAG
1070
     1
1071
       13
1005
128DF5
  0
ARC
  5
128DF6
  8
OBJECT
 10
1896.314230131552
 20
-3122.2813003114779
 30
0.0
 40
150.0
 50
322.89503374000537
 51
325.89314996972462
1001
ACDBBLOCKREPETAG
1070
     1
1071
       14
1005
128DF6
  0
ARC
  5
128DF7
  8
OBJECT
 10
2000.0
 20
-3174.9999999999959
 30
0.0
 40
37.5
 50
303.16276667667029
 51
229.16350249082569
1001
ACDBBLOCKREPETAG
1070
     1
1071
       15
1005
128DF7
  0
LINE
  5
128DF8
  8
OBJECT
 10
1983.608514518975
 20
-3196.3804510089681
 30
0.0
 11
1977.374010999999
 21
-3209.191586999998
 31
0.0
1001
ACDBBLOCKREPETAG
1070
     1
1071
       16
1005
128DF8
  0
LINE
  5
128DF9
  8
OBJECT
 10
1978.745056634463
 20
-3196.6596348867029
 30
0.0
 11
1973.898671999998
 21
-3206.6183599999972
 31
0.0
1001
ACDBBLOCKREPETAG
1070
     1
1071
       17
1005
128DF9
  0
LINE
  5
128DFA
  8
OBJECT
 10
2018.9380180000001
 20
-3200.9999999999991
 30
0.0
 11
1989.468815303258
 21
-3191.9910760874409
 31
0.0
1001
ACDBBLOCKREPETAG
1070
     1
1071
       18
1005
128DFA
  0
LINE
  5
128DFB
  8
OBJECT
 10
2020.5132253090051
 20
-3206.3919987802892
 30
0.0
 11
2018.9380180000001
 21
-3200.9999999999991
 31
0.0
1001
ACDBBLOCKREPETAG
1070
     1
1071
       19
1005
128DFB
  0
LINE
  5
128DFC
  8
OBJECT
 10
1954.038059222873
 20
-3220.9619407771211
 30
0.0
 11
1937.9999999999991
 21
-3236.9999999999959
 31
0.0
1001
ACDBBLOCKREPETAG
1070
     1
1071
       42
1005
128DFC
  0
LINE
  5
128DFD
  8
OBJECT
 10
2045.9619407771249
 20
-3220.9619407771211
 30
0.0
 11
2062.0
 21
-3236.9999999999959
 31
0.0
1001
ACDBBLOCKREPETAG
1070
     1
1071
       43
1005
128DFD
  0
LINE
  5
128DFE
  8
OBJECT
 10
2123.0
 20
-3127.9999999999959
 30
0.0
 11
2130.0
 21
-3127.9999999999959
 31
0.0
1001
ACDBBLOCKREPETAG
1070
     1
1071
        7
1005
128DFE
  0
LINE
  5
128DFF
  8
OBJECT
 10
2130.0
 20
-3127.9999999999959
 30
0.0
 11
2130.0
 21
-3221.9999999999959
 31
0.0
1001
ACDBBLOCKREPETAG
1070
     1
1071
        8
1005
128DFF
  0
LINE
  5
128E00
  8
OBJECT
 10
2130.0
 20
-3221.9999999999959
 30
0.0
 11
2123.0
 21
-3221.9999999999959
 31
0.0
1001
ACDBBLOCKREPETAG
1070
     1
1071
        9
1005
128E00
  0
LINE
  5
128E01
  8
OBJECT
 10
2123.0
 20
-3221.9999999999959
 30
0.0
 11
2123.0
 21
-3127.9999999999959
 31
0.0
1001
ACDBBLOCKREPETAG
1070
     1
1071
       10
1005
128E01
  0
LINE
  5
128E02
  8
CENTER
 10
2145.0
 20
-3174.9999999999959
 30
0.0
 11
2070.0
 21
-3174.9999999999959
 31
0.0
1001
ACDBBLOCKREPETAG
1070
     1
1071
       11
1005
128E02
  0
LINE
  5
128E03
  8
OBJECT
 10
2123.0
 20
-3130.9999999999959
 30
0.0
 11
2087.0
 21
-3130.9999999999959
 31
0.0
1001
ACDBBLOCKREPETAG
1070
     1
1071
       12
1005
128E03
  0
LINE
  5
128E04
  8
OBJECT
 10
2087.0
 20
-3130.9999999999959
 30
0.0
 11
2087.0
 21
-3218.9999999999959
 31
0.0
1001
ACDBBLOCKREPETAG
1070
     1
1071
       13
1005
128E04
  0
LINE
  5
128E05
  8
OBJECT
 10
2087.0
 20
-3218.9999999999959
 30
0.0
 11
2123.0
 21
-3218.9999999999959
 31
0.0
1001
ACDBBLOCKREPETAG
1070
     1
1071
       14
1005
128E05
  0
LINE
  5
128E06
  8
OBJECT
 10
2083.0
 20
-3135.4999999999959
 30
0.0
 11
2076.0
 21
-3135.4999999999959
 31
0.0
1001
ACDBBLOCKREPETAG
1070
     1
1071
       15
1005
128E06
  0
LINE
  5
128E07
  8
OBJECT
 10
2076.0
 20
-3214.4999999999959
 30
0.0
 11
2083.0
 21
-3214.4999999999959
 31
0.0
1001
ACDBBLOCKREPETAG
1070
     1
1071
       16
1005
128E07
  0
LINE
  5
128E08
  8
OBJECT
 10
2083.0
 20
-3214.4999999999959
 30
0.0
 11
2083.0
 21
-3135.4999999999959
 31
0.0
1001
ACDBBLOCKREPETAG
1070
     1
1071
       17
1005
128E08
  0
LINE
  5
128E09
  8
OBJECT
 10
2087.0
 20
-3130.9999999999959
 30
0.0
 11
2083.0
 21
-3135.4999999999959
 31
0.0
1001
ACDBBLOCKREPETAG
1070
     1
1071
       18
1005
128E09
  0
LINE
  5
128E0A
  8
OBJECT
 10
2087.0
 20
-3218.9999999999959
 30
0.0
 11
2083.0
 21
-3214.4999999999959
 31
0.0
1001
ACDBBLOCKREPETAG
1070
     1
1071
       19
1005
128E0A
  0
LINE
  5
128E0B
  8
OBJECT
 10
2073.0
 20
-3112.9999999999959
 30
0.0
 11
2070.0
 21
-3112.9999999999959
 31
0.0
1001
ACDBBLOCKREPETAG
1070
     1
1071
       20
1005
128E0B
  0
ARC
  5
128E0C
  8
OBJECT
 10
2073.0
 20
-3115.9999999999959
 30
0.0
 40
3.0
 50
0.0
 51
90.0
1001
ACDBBLOCKREPETAG
1070
     1
1071
       21
1005
128E0C
  0
LINE
  5
128E0D
  8
OBJECT
 10
2070.0
 20
-3236.9999999999959
 30
0.0
 11
2073.0
 21
-3236.9999999999959
 31
0.0
1001
ACDBBLOCKREPETAG
1070
     1
1071
       22
1005
128E0D
  0
ARC
  5
128E0E
  8
OBJECT
 10
2073.0
 20
-3233.9999999999959
 30
0.0
 40
3.0
 50
270.0
 51
0.0
1001
ACDBBLOCKREPETAG
1070
     1
1071
       23
1005
128E0E
  0
LINE
  5
128E0F
  8
OBJECT
 10
2076.0
 20
-3233.9999999999959
 30
0.0
 11
2076.0
 21
-3115.9999999999959
 31
0.0
1001
ACDBBLOCKREPETAG
1070
     1
1071
       24
1005
128E0F
  0
LINE
  5
128E10
  8
HIDDEN
 10
2078.0
 20
-3144.9999999999959
 30
0.0
 11
2078.0
 21
-3204.9999999999959
 31
0.0
1001
ACDBBLOCKREPETAG
1070
     1
1071
       25
1005
128E10
  0
LINE
  5
128E11
  8
OBJECT
 10
3327.0
 20
-3458.9999999999959
 30
0.0
 11
3330.0
 21
-3458.9999999999959
 31
0.0
1001
ACDBBLOCKREPETAG
1070
     1
1071
        1
1005
128E11
  0
ARC
  5
128E12
  8
OBJECT
 10
3327.0
 20
-3461.9999999999959
 30
0.0
 40
3.0
 50
90.0
 51
180.0
1001
ACDBBLOCKREPETAG
1070
     1
1071
        2
1005
128E12
  0
LINE
  5
128E13
  8
OBJECT
 10
3330.0
 20
-3582.9999999999968
 30
0.0
 11
3327.0
 21
-3582.9999999999968
 31
0.0
1001
ACDBBLOCKREPETAG
1070
     1
1071
        3
1005
128E13
  0
ARC
  5
128E14
  8
OBJECT
 10
3327.0
 20
-3579.9999999999959
 30
0.0
 40
3.0
 50
180.0
 51
270.0
1001
ACDBBLOCKREPETAG
1070
     1
1071
        4
1005
128E14
  0
LINE
  5
128E15
  8
OBJECT
 10
3324.0
 20
-3579.9999999999959
 30
0.0
 11
3324.0
 21
-3461.9999999999959
 31
0.0
1001
ACDBBLOCKREPETAG
1070
     1
1071
        5
1005
128E15
  0
LINE
  5
128E16
  8
OBJECT
 10
3334.9999999999991
 20
-3374.9999999999959
 30
0.0
 11
3334.9999999999991
 21
-3395.9999999999959
 31
0.0
1001
ACDBBLOCKREPETAG
1070
     1
1071
       36
1005
128E16
  0
LINE
  5
128E17
  8
OBJECT
 10
3334.9999999999991
 20
-3395.9999999999959
 30
0.0
 11
3465.0
 21
-3395.9999999999959
 31
0.0
1001
ACDBBLOCKREPETAG
1070
     1
1071
       37
1005
128E17
  0
LINE
  5
128E18
  8
OBJECT
 10
3465.0
 20
-3395.9999999999959
 30
0.0
 11
3465.0
 21
-3374.9999999999959
 31
0.0
1001
ACDBBLOCKREPETAG
1070
     1
1071
       38
1005
128E18
  0
LINE
  5
128E19
  8
OBJECT
 10
3465.0
 20
-3374.9999999999959
 30
0.0
 11
3334.9999999999991
 21
-3374.9999999999959
 31
0.0
1001
ACDBBLOCKREPETAG
1070
     1
1071
       39
1005
128E19
  0
LINE
  5
128E1A
  8
HIDDEN
 10
3444.5
 20
-3444.9999999999959
 30
0.0
 11
3355.4999999999991
 21
-3444.9999999999959
 31
0.0
1001
ACDBBLOCKREPETAG
1070
     1
1071
       40
1005
128E1A
  0
LINE
  5
128E1B
  8
CENTER
 10
3399.9999999999991
 20
-3594.9999999999959
 30
0.0
 11
3399.9999999999991
 21
-3359.9999999999959
 31
0.0
1001
ACDBBLOCKREPETAG
1070
     1
1071
       41
1005
128E1B
  0
LINE
  5
128E1C
  8
OBJECT
 10
3340.5
 20
-3395.9999999999959
 30
0.0
 11
3340.5
 21
-3458.9999999999959
 31
0.0
1001
ACDBBLOCKREPETAG
1070
     1
1071
       42
1005
128E1C
  0
LINE
  5
128E1D
  8
OBJECT
 10
3330.0
 20
-3458.9999999999959
 30
0.0
 11
3465.0000101378168
 21
-3458.9999999999959
 31
0.0
1001
ACDBBLOCKREPETAG
1070
     1
1071
       43
1005
128E1D
  0
LINE
  5
128E1E
  8
OBJECT
 10
3459.5
 20
-3458.9999999999959
 30
0.0
 11
3459.5
 21
-3395.9999999999959
 31
0.0
1001
ACDBBLOCKREPETAG
1070
     1
1071
       44
1005
128E1E
  0
LINE
  5
128E1F
  8
OBJECT
 10
3335.0
 20
-3582.9999999999968
 30
0.0
 11
3330.0
 21
-3582.9999999999968
 31
0.0
1001
ACDBBLOCKREPETAG
1070
     1
1071
       48
1005
128E1F
  0
LINE
  5
128E20
  8
OBJECT
 10
3465.0000101378168
 20
-3583.0000021659139
 30
0.0
 11
3465.0000101378168
 21
-3458.9999999999959
 31
0.0
1001
ACDBBLOCKREPETAG
1070
     1
1071
       51
1005
128E20
  0
ARC
  5
128E21
  8
OBJECT
 10
2964.9615610053229
 20
-3823.608136846824
 30
0.0
 40
519.48776673616965
 50
41.499473443784993
 51
44.576493325685597
1001
ACDBBLOCKREPETAG
1070
     1
1071
       52
1005
128E21
  0
ARC
  5
128E22
  8
OBJECT
 10
2964.9615610053229
 20
-3218.3918631531678
 30
0.0
 40
519.48776673616965
 50
315.42350667431441
 51
318.50052655621488
1001
ACDBBLOCKREPETAG
1070
     1
1071
       53
1005
128E22
  0
POINT
  5
128E23
  8
DOTS
 10
3399.9999999999991
 20
-3579.9999999999959
 30
0.0
1001
ACDBBLOCKREPETAG
1070
     1
1071
      112
1005
128E23
  0
LINE
  5
128E24
  8
OBJECT
 10
2927.0
 20
-3458.9999999999959
 30
0.0
 11
2930.0
 21
-3458.9999999999959
 31
0.0
1001
ACDBBLOCKREPETAG
1070
     1
1071
        1
1005
128E24
  0
ARC
  5
128E25
  8
OBJECT
 10
2927.0
 20
-3461.9999999999959
 30
0.0
 40
3.0
 50
90.0
 51
180.0
1001
ACDBBLOCKREPETAG
1070
     1
1071
        2
1005
128E25
  0
LINE
  5
128E26
  8
OBJECT
 10
2930.0
 20
-3582.9999999999968
 30
0.0
 11
2927.0
 21
-3582.9999999999968
 31
0.0
1001
ACDBBLOCKREPETAG
1070
     1
1071
        3
1005
128E26
  0
ARC
  5
128E27
  8
OBJECT
 10
2927.0
 20
-3579.9999999999959
 30
0.0
 40
3.0
 50
180.0
 51
270.0
1001
ACDBBLOCKREPETAG
1070
     1
1071
        4
1005
128E27
  0
LINE
  5
128E28
  8
OBJECT
 10
2924.0
 20
-3579.9999999999959
 30
0.0
 11
2924.0
 21
-3461.9999999999959
 31
0.0
1001
ACDBBLOCKREPETAG
1070
     1
1071
        5
1005
128E28
  0
CIRCLE
  5
128E29
  8
OBJECT
 10
3000.0
 20
-3520.9999999999968
 30
0.0
 40
62.0
1001
ACDBBLOCKREPETAG
1070
     1
1071
        0
1005
128E29
  0
LINE
  5
128E2A
  8
OBJECT
 10
2935.0
 20
-3374.9999999999959
 30
0.0
 11
2935.0
 21
-3395.9999999999959
 31
0.0
1001
ACDBBLOCKREPETAG
1070
     1
1071
       16
1005
128E2A
  0
LINE
  5
128E2B
  8
OBJECT
 10
2935.0
 20
-3395.9999999999959
 30
0.0
 11
3064.9999999999991
 21
-3395.9999999999959
 31
0.0
1001
ACDBBLOCKREPETAG
1070
     1
1071
       17
1005
128E2B
  0
LINE
  5
128E2C
  8
OBJECT
 10
3064.9999999999991
 20
-3395.9999999999959
 30
0.0
 11
3064.9999999999991
 21
-3374.9999999999959
 31
0.0
1001
ACDBBLOCKREPETAG
1070
     1
1071
       18
1005
128E2C
  0
LINE
  5
128E2D
  8
OBJECT
 10
3064.9999999999991
 20
-3374.9999999999959
 30
0.0
 11
2935.0
 21
-3374.9999999999959
 31
0.0
1001
ACDBBLOCKREPETAG
1070
     1
1071
       19
1005
128E2D
  0
LINE
  5
128E2E
  8
HIDDEN
 10
3044.5
 20
-3444.9999999999959
 30
0.0
 11
2955.5
 21
-3444.9999999999959
 31
0.0
1001
ACDBBLOCKREPETAG
1070
     1
1071
       20
1005
128E2E
  0
LINE
  5
128E2F
  8
CENTER
 10
3000.0
 20
-3594.9999999999959
 30
0.0
 11
3000.0
 21
-3359.9999999999959
 31
0.0
1001
ACDBBLOCKREPETAG
1070
     1
1071
       21
1005
128E2F
  0
LINE
  5
128E30
  8
OBJECT
 10
2940.5
 20
-3395.9999999999959
 30
0.0
 11
2940.5
 21
-3458.9999999999959
 31
0.0
1001
ACDBBLOCKREPETAG
1070
     1
1071
       22
1005
128E30
  0
LINE
  5
128E31
  8
OBJECT
 10
2930.0
 20
-3458.9999999999959
 30
0.0
 11
3070.0
 21
-3458.9999999999959
 31
0.0
1001
ACDBBLOCKREPETAG
1070
     1
1071
       23
1005
128E31
  0
LINE
  5
128E32
  8
OBJECT
 10
3059.5
 20
-3458.9999999999959
 30
0.0
 11
3059.5
 21
-3395.9999999999959
 31
0.0
1001
ACDBBLOCKREPETAG
1070
     1
1071
       24
1005
128E32
  0
LINE
  5
128E33
  8
OBJECT
 10
3070.0
 20
-3582.9999999999968
 30
0.0
 11
3064.9999999999991
 21
-3582.9999999999968
 31
0.0
1001
ACDBBLOCKREPETAG
1070
     1
1071
       28
1005
128E33
  0
LINE
  5
128E34
  8
OBJECT
 10
2935.0
 20
-3582.9999999999968
 30
0.0
 11
2930.0
 21
-3582.9999999999968
 31
0.0
1001
ACDBBLOCKREPETAG
1070
     1
1071
      116
1005
128E34
  0
ARC
  5
128E35
  8
OBJECT
 10
3435.0384389946771
 20
-3823.608136846824
 30
0.0
 40
519.48776673616965
 50
135.42350667431441
 51
138.50052655621499
1001
ACDBBLOCKREPETAG
1070
     1
1071
       32
1005
128E35
  0
ARC
  5
128E36
  8
OBJECT
 10
3435.0384389946771
 20
-3218.3918631531678
 30
0.0
 40
519.48776673616965
 50
221.49947344378501
 51
224.57649332568559
1001
ACDBBLOCKREPETAG
1070
     1
1071
       33
1005
128E36
  0
ARC
  5
128E37
  8
OBJECT
 10
2564.961561005322
 20
-3823.608136846824
 30
0.0
 40
519.48776673616965
 50
41.499473443784993
 51
44.576493325685597
1001
ACDBBLOCKREPETAG
1070
     1
1071
       34
1005
128E37
  0
ARC
  5
128E38
  8
OBJECT
 10
2564.961561005322
 20
-3218.3918631531678
 30
0.0
 40
519.48776673616965
 50
315.42350667431441
 51
318.50052655621488
1001
ACDBBLOCKREPETAG
1070
     1
1071
       35
1005
128E38
  0
POINT
  5
128E39
  8
DOTS
 10
3000.0
 20
-3579.9999999999959
 30
0.0
1001
ACDBBLOCKREPETAG
1070
     1
1071
      111
1005
128E39
  0
CIRCLE
  5
128E3A
  8
OBJECT
 10
3400.0
 20
-3527.9999999999968
 30
0.0
 40
35.5
1001
ACDBBLOCKREPETAG
1070
     1
1071
       10
1005
128E3A
  0
CIRCLE
  5
128E3B
  8
OBJECT
 10
3400.0
 20
-3520.9999999999968
 30
0.0
 40
62.0
1001
ACDBBLOCKREPETAG
1070
     1
1071
       11
1005
128E3B
  0
LINE
  5
128E3C
  8
CENTER
 10
3330.0
 20
-3527.9999999999968
 30
0.0
 11
3470.0
 21
-3527.9999999999968
 31
0.0
1001
ACDBBLOCKREPETAG
1070
     1
1071
       12
1005
128E3C
  0
CIRCLE
  5
128E3D
  8
OBJECT
 10
3400.0
 20
-3527.9999999999968
 30
0.0
 40
47.0
1001
ACDBBLOCKREPETAG
1070
     1
1071
       14
1005
128E3D
  0
ARC
  5
128E3E
  8
OBJECT
 10
3400.0
 20
-3527.9999999999968
 30
0.0
 40
55.0
 50
289.01126526011359
 51
250.98873473988641
1001
ACDBBLOCKREPETAG
1070
     1
1071
       15
1005
128E3E
  0
LINE
  5
128E3F
  8
OBJECT
 10
3382.0835271328328
 20
-3579.9999999999968
 30
0.0
 11
3417.9164728671681
 21
-3579.9999999999968
 31
0.0
1001
ACDBBLOCKREPETAG
1070
     1
1071
       16
1005
128E3F
  0
LINE
  5
128E40
  8
OBJECT
 10
3123.0
 20
-3472.9999999999968
 30
0.0
 11
3130.0
 21
-3472.9999999999968
 31
0.0
1001
ACDBBLOCKREPETAG
1070
     1
1071
       26
1005
128E40
  0
LINE
  5
128E41
  8
OBJECT
 10
3130.0
 20
-3472.9999999999968
 30
0.0
 11
3130.0
 21
-3579.9999999999968
 31
0.0
1001
ACDBBLOCKREPETAG
1070
     1
1071
       27
1005
128E41
  0
LINE
  5
128E42
  8
OBJECT
 10
3123.0
 20
-3579.9999999999968
 30
0.0
 11
3123.0
 21
-3472.9999999999968
 31
0.0
1001
ACDBBLOCKREPETAG
1070
     1
1071
       28
1005
128E42
  0
LINE
  5
128E43
  8
CENTER
 10
3145.0
 20
-3527.9999999999968
 30
0.0
 11
3061.0
 21
-3527.9999999999968
 31
0.0
1001
ACDBBLOCKREPETAG
1070
     1
1071
       29
1005
128E43
  0
LINE
  5
128E44
  8
OBJECT
 10
3123.0
 20
-3475.9999999999968
 30
0.0
 11
3087.0
 21
-3475.9999999999968
 31
0.0
1001
ACDBBLOCKREPETAG
1070
     1
1071
       30
1005
128E44
  0
LINE
  5
128E45
  8
OBJECT
 10
3087.0
 20
-3475.9999999999968
 30
0.0
 11
3087.0
 21
-3579.9999999999968
 31
0.0
1001
ACDBBLOCKREPETAG
1070
     1
1071
       31
1005
128E45
  0
LINE
  5
128E46
  8
OBJECT
 10
3087.0
 20
-3579.9999999999968
 30
0.0
 11
3130.0
 21
-3579.9999999999968
 31
0.0
1001
ACDBBLOCKREPETAG
1070
     1
1071
       32
1005
128E46
  0
LINE
  5
128E47
  8
OBJECT
 10
3083.0
 20
-3480.4999999999968
 30
0.0
 11
3076.0
 21
-3480.4999999999968
 31
0.0
1001
ACDBBLOCKREPETAG
1070
     1
1071
       33
1005
128E47
  0
LINE
  5
128E48
  8
OBJECT
 10
3076.0
 20
-3575.4999999999968
 30
0.0
 11
3083.0
 21
-3575.4999999999968
 31
0.0
1001
ACDBBLOCKREPETAG
1070
     1
1071
       34
1005
128E48
  0
LINE
  5
128E49
  8
OBJECT
 10
3083.0
 20
-3575.4999999999968
 30
0.0
 11
3083.0
 21
-3480.4999999999968
 31
0.0
1001
ACDBBLOCKREPETAG
1070
     1
1071
       35
1005
128E49
  0
LINE
  5
128E4A
  8
OBJECT
 10
3087.0
 20
-3475.9999999999968
 30
0.0
 11
3083.0
 21
-3480.4999999999968
 31
0.0
1001
ACDBBLOCKREPETAG
1070
     1
1071
       36
1005
128E4A
  0
LINE
  5
128E4B
  8
OBJECT
 10
3087.0
 20
-3579.9999999999968
 30
0.0
 11
3083.0
 21
-3575.4999999999968
 31
0.0
1001
ACDBBLOCKREPETAG
1070
     1
1071
       37
1005
128E4B
  0
LINE
  5
128E4C
  8
OBJECT
 10
3073.0
 20
-3458.9999999999968
 30
0.0
 11
3070.0
 21
-3458.9999999999968
 31
0.0
1001
ACDBBLOCKREPETAG
1070
     1
1071
       38
1005
128E4C
  0
ARC
  5
128E4D
  8
OBJECT
 10
3073.0
 20
-3461.9999999999968
 30
0.0
 40
3.0
 50
0.0
 51
90.0
1001
ACDBBLOCKREPETAG
1070
     1
1071
       39
1005
128E4D
  0
LINE
  5
128E4E
  8
OBJECT
 10
3070.0
 20
-3582.9999999999968
 30
0.0
 11
3073.0
 21
-3582.9999999999968
 31
0.0
1001
ACDBBLOCKREPETAG
1070
     1
1071
       40
1005
128E4E
  0
ARC
  5
128E4F
  8
OBJECT
 10
3073.0
 20
-3579.9999999999968
 30
0.0
 40
3.0
 50
270.0
 51
0.0
1001
ACDBBLOCKREPETAG
1070
     1
1071
       41
1005
128E4F
  0
LINE
  5
128E50
  8
OBJECT
 10
3076.0
 20
-3579.9999999999968
 30
0.0
 11
3076.0
 21
-3461.9999999999968
 31
0.0
1001
ACDBBLOCKREPETAG
1070
     1
1071
       42
1005
128E50
  0
LINE
  5
128E51
  8
HIDDEN
 10
3078.0
 20
-3489.9999999999968
 30
0.0
 11
3078.0
 21
-3565.9999999999968
 31
0.0
1001
ACDBBLOCKREPETAG
1070
     1
1071
       43
1005
128E51
  0
LINE
  5
128E52
  8
OBJECT
 10
2327.0
 20
-3458.9999999999959
 30
0.0
 11
2330.0
 21
-3458.9999999999959
 31
0.0
1001
ACDBBLOCKREPETAG
1070
     1
1071
        1
1005
128E52
  0
ARC
  5
128E53
  8
OBJECT
 10
2327.0
 20
-3461.9999999999959
 30
0.0
 40
3.0
 50
90.0
 51
180.0
1001
ACDBBLOCKREPETAG
1070
     1
1071
        2
1005
128E53
  0
LINE
  5
128E54
  8
OBJECT
 10
2330.0
 20
-3582.9999999999968
 30
0.0
 11
2327.0
 21
-3582.9999999999968
 31
0.0
1001
ACDBBLOCKREPETAG
1070
     1
1071
        3
1005
128E54
  0
ARC
  5
128E55
  8
OBJECT
 10
2327.0
 20
-3579.9999999999959
 30
0.0
 40
3.0
 50
180.0
 51
270.0
1001
ACDBBLOCKREPETAG
1070
     1
1071
        4
1005
128E55
  0
LINE
  5
128E56
  8
OBJECT
 10
2324.0
 20
-3579.9999999999959
 30
0.0
 11
2324.0
 21
-3461.9999999999959
 31
0.0
1001
ACDBBLOCKREPETAG
1070
     1
1071
        5
1005
128E56
  0
LINE
  5
128E57
  8
OBJECT
 10
2334.9999999999991
 20
-3374.9999999999959
 30
0.0
 11
2334.9999999999991
 21
-3395.9999999999959
 31
0.0
1001
ACDBBLOCKREPETAG
1070
     1
1071
       36
1005
128E57
  0
LINE
  5
128E58
  8
OBJECT
 10
2334.9999999999991
 20
-3395.9999999999959
 30
0.0
 11
2465.0
 21
-3395.9999999999959
 31
0.0
1001
ACDBBLOCKREPETAG
1070
     1
1071
       37
1005
128E58
  0
LINE
  5
128E59
  8
OBJECT
 10
2465.0
 20
-3395.9999999999959
 30
0.0
 11
2465.0
 21
-3374.9999999999959
 31
0.0
1001
ACDBBLOCKREPETAG
1070
     1
1071
       38
1005
128E59
  0
LINE
  5
128E5A
  8
OBJECT
 10
2465.0
 20
-3374.9999999999959
 30
0.0
 11
2334.9999999999991
 21
-3374.9999999999959
 31
0.0
1001
ACDBBLOCKREPETAG
1070
     1
1071
       39
1005
128E5A
  0
LINE
  5
128E5B
  8
HIDDEN
 10
2444.5
 20
-3444.9999999999959
 30
0.0
 11
2355.5
 21
-3444.9999999999959
 31
0.0
1001
ACDBBLOCKREPETAG
1070
     1
1071
       40
1005
128E5B
  0
LINE
  5
128E5C
  8
CENTER
 10
2400.0
 20
-3594.9999999999959
 30
0.0
 11
2400.0
 21
-3359.9999999999959
 31
0.0
1001
ACDBBLOCKREPETAG
1070
     1
1071
       41
1005
128E5C
  0
LINE
  5
128E5D
  8
OBJECT
 10
2340.5
 20
-3395.9999999999959
 30
0.0
 11
2340.5
 21
-3458.9999999999959
 31
0.0
1001
ACDBBLOCKREPETAG
1070
     1
1071
       42
1005
128E5D
  0
LINE
  5
128E5E
  8
OBJECT
 10
2330.0
 20
-3458.9999999999959
 30
0.0
 11
2465.0000101378168
 21
-3458.9999999999959
 31
0.0
1001
ACDBBLOCKREPETAG
1070
     1
1071
       43
1005
128E5E
  0
LINE
  5
128E5F
  8
OBJECT
 10
2459.5
 20
-3458.9999999999959
 30
0.0
 11
2459.5
 21
-3395.9999999999959
 31
0.0
1001
ACDBBLOCKREPETAG
1070
     1
1071
       44
1005
128E5F
  0
LINE
  5
128E60
  8
OBJECT
 10
2335.0
 20
-3582.9999999999968
 30
0.0
 11
2330.0
 21
-3582.9999999999968
 31
0.0
1001
ACDBBLOCKREPETAG
1070
     1
1071
       48
1005
128E60
  0
LINE
  5
128E61
  8
OBJECT
 10
2465.0000101378168
 20
-3583.0000021659139
 30
0.0
 11
2465.0000101378168
 21
-3458.9999999999959
 31
0.0
1001
ACDBBLOCKREPETAG
1070
     1
1071
       51
1005
128E61
  0
ARC
  5
128E62
  8
OBJECT
 10
1964.961561005322
 20
-3823.608136846824
 30
0.0
 40
519.48776673616965
 50
41.499473443784993
 51
44.576493325685597
1001
ACDBBLOCKREPETAG
1070
     1
1071
       52
1005
128E62
  0
ARC
  5
128E63
  8
OBJECT
 10
1964.961561005322
 20
-3218.3918631531678
 30
0.0
 40
519.48776673616965
 50
315.42350667431441
 51
318.50052655621488
1001
ACDBBLOCKREPETAG
1070
     1
1071
       53
1005
128E63
  0
POINT
  5
128E64
  8
DOTS
 10
2400.0
 20
-3579.9999999999959
 30
0.0
1001
ACDBBLOCKREPETAG
1070
     1
1071
      112
1005
128E64
  0
LINE
  5
128E65
  8
OBJECT
 10
1927.0
 20
-3458.9999999999959
 30
0.0
 11
1929.9999999999991
 21
-3458.9999999999959
 31
0.0
1001
ACDBBLOCKREPETAG
1070
     1
1071
        1
1005
128E65
  0
ARC
  5
128E66
  8
OBJECT
 10
1927.0
 20
-3461.9999999999959
 30
0.0
 40
3.0
 50
90.0
 51
180.0
1001
ACDBBLOCKREPETAG
1070
     1
1071
        2
1005
128E66
  0
LINE
  5
128E67
  8
OBJECT
 10
1929.9999999999991
 20
-3582.9999999999968
 30
0.0
 11
1927.0
 21
-3582.9999999999968
 31
0.0
1001
ACDBBLOCKREPETAG
1070
     1
1071
        3
1005
128E67
  0
ARC
  5
128E68
  8
OBJECT
 10
1927.0
 20
-3579.9999999999959
 30
0.0
 40
3.0
 50
180.0
 51
270.0
1001
ACDBBLOCKREPETAG
1070
     1
1071
        4
1005
128E68
  0
LINE
  5
128E69
  8
OBJECT
 10
1924.0
 20
-3579.9999999999959
 30
0.0
 11
1924.0
 21
-3461.9999999999959
 31
0.0
1001
ACDBBLOCKREPETAG
1070
     1
1071
        5
1005
128E69
  0
CIRCLE
  5
128E6A
  8
OBJECT
 10
2000.0
 20
-3520.9999999999968
 30
0.0
 40
62.0
1001
ACDBBLOCKREPETAG
1070
     1
1071
        0
1005
128E6A
  0
LINE
  5
128E6B
  8
OBJECT
 10
1934.9999999999991
 20
-3374.9999999999959
 30
0.0
 11
1934.9999999999991
 21
-3395.9999999999959
 31
0.0
1001
ACDBBLOCKREPETAG
1070
     1
1071
       16
1005
128E6B
  0
LINE
  5
128E6C
  8
OBJECT
 10
1934.9999999999991
 20
-3395.9999999999959
 30
0.0
 11
2064.9999999999991
 21
-3395.9999999999959
 31
0.0
1001
ACDBBLOCKREPETAG
1070
     1
1071
       17
1005
128E6C
  0
LINE
  5
128E6D
  8
OBJECT
 10
2064.9999999999991
 20
-3395.9999999999959
 30
0.0
 11
2064.9999999999991
 21
-3374.9999999999959
 31
0.0
1001
ACDBBLOCKREPETAG
1070
     1
1071
       18
1005
128E6D
  0
LINE
  5
128E6E
  8
OBJECT
 10
2064.9999999999991
 20
-3374.9999999999959
 30
0.0
 11
1934.9999999999991
 21
-3374.9999999999959
 31
0.0
1001
ACDBBLOCKREPETAG
1070
     1
1071
       19
1005
128E6E
  0
LINE
  5
128E6F
  8
HIDDEN
 10
2044.5
 20
-3444.9999999999959
 30
0.0
 11
1955.4999999999991
 21
-3444.9999999999959
 31
0.0
1001
ACDBBLOCKREPETAG
1070
     1
1071
       20
1005
128E6F
  0
LINE
  5
128E70
  8
CENTER
 10
2000.0
 20
-3594.9999999999959
 30
0.0
 11
2000.0
 21
-3359.9999999999959
 31
0.0
1001
ACDBBLOCKREPETAG
1070
     1
1071
       21
1005
128E70
  0
LINE
  5
128E71
  8
OBJECT
 10
1940.5
 20
-3395.9999999999959
 30
0.0
 11
1940.5
 21
-3458.9999999999959
 31
0.0
1001
ACDBBLOCKREPETAG
1070
     1
1071
       22
1005
128E71
  0
LINE
  5
128E72
  8
OBJECT
 10
1929.9999999999991
 20
-3458.9999999999959
 30
0.0
 11
2070.0
 21
-3458.9999999999959
 31
0.0
1001
ACDBBLOCKREPETAG
1070
     1
1071
       23
1005
128E72
  0
LINE
  5
128E73
  8
OBJECT
 10
2059.4999999999991
 20
-3458.9999999999959
 30
0.0
 11
2059.4999999999991
 21
-3395.9999999999959
 31
0.0
1001
ACDBBLOCKREPETAG
1070
     1
1071
       24
1005
128E73
  0
LINE
  5
128E74
  8
OBJECT
 10
2070.0
 20
-3582.9999999999968
 30
0.0
 11
2064.9999999999991
 21
-3582.9999999999968
 31
0.0
1001
ACDBBLOCKREPETAG
1070
     1
1071
       28
1005
128E74
  0
LINE
  5
128E75
  8
OBJECT
 10
1935.0
 20
-3582.9999999999968
 30
0.0
 11
1929.9999999999991
 21
-3582.9999999999968
 31
0.0
1001
ACDBBLOCKREPETAG
1070
     1
1071
      116
1005
128E75
  0
ARC
  5
128E76
  8
OBJECT
 10
2435.0384389946771
 20
-3823.608136846824
 30
0.0
 40
519.48776673616965
 50
135.42350667432351
 51
138.50052655621499
1001
ACDBBLOCKREPETAG
1070
     1
1071
       32
1005
128E76
  0
ARC
  5
128E77
  8
OBJECT
 10
2435.0384389946771
 20
-3218.3918631531678
 30
0.0
 40
519.48776673616965
 50
221.49947344378501
 51
224.57649332567649
1001
ACDBBLOCKREPETAG
1070
     1
1071
       33
1005
128E77
  0
ARC
  5
128E78
  8
OBJECT
 10
1564.961561005322
 20
-3823.608136846824
 30
0.0
 40
519.48776673616965
 50
41.499473443784993
 51
44.576493325676452
1001
ACDBBLOCKREPETAG
1070
     1
1071
       34
1005
128E78
  0
ARC
  5
128E79
  8
OBJECT
 10
1564.961561005322
 20
-3218.3918631531678
 30
0.0
 40
519.48776673616965
 50
315.42350667432362
 51
318.50052655621488
1001
ACDBBLOCKREPETAG
1070
     1
1071
       35
1005
128E79
  0
POINT
  5
128E7A
  8
DOTS
 10
2000.0
 20
-3579.9999999999959
 30
0.0
1001
ACDBBLOCKREPETAG
1070
     1
1071
      111
1005
128E7A
  0
LINE
  5
128E7B
  8
SLIM
 10
11925.0
 20
-755.19743878930785
 30
0.0
 11
11925.197438789301
 21
-754.99999999999955
 31
0.0
1001
ACAD
1010
0.0
1020
0.0
1030
0.0
1001
ACDBBLOCKREPETAG
1070
     1
1071
        1
1005
0
  0
LINE
  5
128E7C
  8
SLIM
 10
11925.0
 20
-773.15795103144615
 30
0.0
 11
11943.15795103144
 21
-754.99999999999955
 31
0.0
1001
ACAD
1010
0.0
1020
0.0
1030
0.0
1001
ACDBBLOCKREPETAG
1070
     1
1071
       10
1005
128E7C
  0
LINE
  5
128E7D
  8
SLIM
 10
11925.0
 20
-791.11846327358455
 30
0.0
 11
11961.11846327358
 21
-754.99999999999955
 31
0.0
1001
ACAD
1010
0.0
1020
0.0
1030
0.0
1001
ACDBBLOCKREPETAG
1070
     1
1071
       11
1005
128E7D
  0
LINE
  5
128E7E
  8
SLIM
 10
11925.0
 20
-809.07897551572285
 30
0.0
 11
11979.07897551572
 21
-754.99999999999955
 31
0.0
1001
ACAD
1010
0.0
1020
0.0
1030
0.0
1001
ACDBBLOCKREPETAG
1070
     1
1071
       12
1005
128E7E
  0
LINE
  5
128E7F
  8
SLIM
 10
11925.0
 20
-827.03948775786125
 30
0.0
 11
11997.03948775786
 21
-754.99999999999955
 31
0.0
1001
ACAD
1010
0.0
1020
0.0
1030
0.0
1001
ACDBBLOCKREPETAG
1070
     1
1071
       13
1005
128E7F
  0
LINE
  5
128E80
  8
SLIM
 10
11925.0
 20
-844.99999999999955
 30
0.0
 11
12015.0
 21
-754.99999999999955
 31
0.0
1001
ACAD
1010
0.0
1020
0.0
1030
0.0
1001
ACDBBLOCKREPETAG
1070
     1
1071
       14
1005
128E80
  0
LINE
  5
128E81
  8
SLIM
 10
11925.0
 20
-862.96051224213795
 30
0.0
 11
12032.96051224214
 21
-754.99999999999955
 31
0.0
1001
ACAD
1010
0.0
1020
0.0
1030
0.0
1001
ACDBBLOCKREPETAG
1070
     1
1071
       15
1005
128E81
  0
LINE
  5
128E82
  8
SLIM
 10
11926.57043503541
 20
-879.35058944886373
 30
0.0
 11
12050.921024484271
 21
-754.99999999999955
 31
0.0
1001
ACAD
1010
0.0
1020
0.0
1030
0.0
1001
ACDBBLOCKREPETAG
1070
     1
1071
       16
1005
128E82
  0
LINE
  5
128E83
  8
SLIM
 10
11929.39181818456
 20
-894.48971854185413
 30
0.0
 11
12068.881536726411
 21
-754.99999999999955
 31
0.0
1001
ACAD
1010
0.0
1020
0.0
1030
0.0
1001
ACDBBLOCKREPETAG
1070
     1
1071
       17
1005
128E83
  0
LINE
  5
128E84
  8
SLIM
 10
11932.21320133371
 20
-909.62884763484476
 30
0.0
 11
12075.0
 21
-766.8420489685526
 31
0.0
1001
ACAD
1010
0.0
1020
0.0
1030
0.0
1001
ACDBBLOCKREPETAG
1070
     1
1071
       18
1005
128E84
  0
LINE
  5
128E85
  8
SLIM
 10
11935.03458448285
 20
-924.76797672783539
 30
0.0
 11
12075.0
 21
-784.80256121069112
 31
0.0
1001
ACAD
1010
0.0
1020
0.0
1030
0.0
1001
ACDBBLOCKREPETAG
1070
     1
1071
       19
1005
128E85
  0
LINE
  5
128E86
  8
SLIM
 10
11937.855967632
 20
-939.90710582082625
 30
0.0
 11
12075.0
 21
-802.76307345282942
 31
0.0
1001
ACAD
1010
0.0
1020
0.0
1030
0.0
1001
ACDBBLOCKREPETAG
1070
     1
1071
       20
1005
128E86
  0
LINE
  5
128E87
  8
SLIM
 10
11940.67735078115
 20
-955.04623491381665
 30
0.0
 11
12075.0
 21
-820.7235856949676
 31
0.0
1001
ACAD
1010
0.0
1020
0.0
1030
0.0
1001
ACDBBLOCKREPETAG
1070
     1
1071
       21
1005
128E87
  0
LINE
  5
128E88
  8
SLIM
 10
11943.498733930301
 20
-970.18536400680739
 30
0.0
 11
12075.0
 21
-838.684097937106
 31
0.0
1001
ACAD
1010
0.0
1020
0.0
1030
0.0
1001
ACDBBLOCKREPETAG
1070
     1
1071
       22
1005
128E88
  0
LINE
  5
128E89
  8
SLIM
 10
11945.5
 20
-986.14461017924543
 30
0.0
 11
12075.0
 21
-856.64461017924418
 31
0.0
1001
ACAD
1010
0.0
1020
0.0
1030
0.0
1001
ACDBBLOCKREPETAG
1070
     1
1071
       23
1005
128E89
  0
LINE
  5
128E8A
  8
SLIM
 10
11945.5
 20
-1004.105122421381
 30
0.0
 11
12074.15680692925
 21
-875.44831549213154
 31
0.0
1001
ACAD
1010
0.0
1020
0.0
1030
0.0
1001
ACDBBLOCKREPETAG
1070
     1
1071
       24
1005
128E8A
  0
LINE
  5
128E8B
  8
SLIM
 10
11945.5
 20
-1022.065634663517
 30
0.0
 11
12070.04294658328
 21
-897.52268808023439
 31
0.0
1001
ACAD
1010
0.0
1020
0.0
1030
0.0
1001
ACDBBLOCKREPETAG
1070
     1
1071
       25
1005
128E8B
  0
LINE
  5
128E8C
  8
SLIM
 10
11960.52614690566
 20
-1024.9999999999991
 30
0.0
 11
12065.92908623732
 21
-919.59706066833724
 31
0.0
1001
ACAD
1010
0.0
1020
0.0
1030
0.0
1001
ACDBBLOCKREPETAG
1070
     1
1071
       26
1005
128E8C
  0
LINE
  5
128E8D
  8
SLIM
 10
11978.4866591478
 20
-1024.9999999999991
 30
0.0
 11
12061.81522589136
 21
-941.67143325643985
 31
0.0
1001
ACAD
1010
0.0
1020
0.0
1030
0.0
1001
ACDBBLOCKREPETAG
1070
     1
1071
       27
1005
128E8D
  0
LINE
  5
128E8E
  8
SLIM
 10
11996.447171389929
 20
-1024.9999999999991
 30
0.0
 11
12057.70136554539
 21
-963.74580584454304
 31
0.0
1001
ACAD
1010
0.0
1020
0.0
1030
0.0
1001
ACDBBLOCKREPETAG
1070
     1
1071
       28
1005
128E8E
  0
LINE
  5
128E8F
  8
SLIM
 10
12014.407683632069
 20
-1024.9999999999991
 30
0.0
 11
12054.5
 21
-984.90768363207394
 31
0.0
1001
ACAD
1010
0.0
1020
0.0
1030
0.0
1001
ACDBBLOCKREPETAG
1070
     1
1071
       29
1005
128E8F
  0
LINE
  5
128E90
  8
SLIM
 10
12032.368195874211
 20
-1024.9999999999991
 30
0.0
 11
12054.5
 21
-1002.868195874213
 31
0.0
1001
ACAD
1010
0.0
1020
0.0
1030
0.0
1001
ACDBBLOCKREPETAG
1070
     1
1071
       30
1005
128E90
  0
LINE
  5
128E91
  8
SLIM
 10
12050.328708116351
 20
-1024.9999999999991
 30
0.0
 11
12054.5
 21
-1020.828708116352
 31
0.0
1001
ACAD
1010
0.0
1020
0.0
1030
0.0
1001
ACDBBLOCKREPETAG
1070
     1
1071
       31
1005
128E91
  0
LINE
  5
128E92
  8
OBJECT
 10
11925.0
 20
-754.99999999999955
 30
0.0
 11
12075.0
 21
-754.99999999999955
 31
0.0
1001
ACDBBLOCKREPETAG
1070
     1
1071
        2
1005
128E92
  0
LINE
  5
128E93
  8
OBJECT
 10
12075.0
 20
-754.99999999999955
 30
0.0
 11
12075.0
 21
-870.9238648686005
 31
0.0
1001
ACDBBLOCKREPETAG
1070
     1
1071
        3
1005
128E93
  0
LINE
  5
128E94
  8
OBJECT
 10
12075.0
 20
-870.9238648686005
 30
0.0
 11
12054.5
 21
-980.92386486860221
 31
0.0
1001
ACDBBLOCKREPETAG
1070
     1
1071
        4
1005
128E94
  0
LINE
  5
128E95
  8
OBJECT
 10
12054.5
 20
-980.92386486860221
 30
0.0
 11
12054.5
 21
-1024.9999999999991
 31
0.0
1001
ACDBBLOCKREPETAG
1070
     1
1071
        5
1005
128E95
  0
LINE
  5
128E96
  8
OBJECT
 10
12054.5
 20
-1024.9999999999991
 30
0.0
 11
11945.5
 21
-1024.9999999999991
 31
0.0
1001
ACDBBLOCKREPETAG
1070
     1
1071
        6
1005
128E96
  0
LINE
  5
128E97
  8
OBJECT
 10
11945.5
 20
-1024.9999999999991
 30
0.0
 11
11945.5
 21
-980.92386486861199
 31
0.0
1001
ACDBBLOCKREPETAG
1070
     1
1071
        7
1005
128E97
  0
LINE
  5
128E98
  8
OBJECT
 10
11945.5
 20
-980.92386486861199
 30
0.0
 11
11925.0
 21
-870.9238648686005
 31
0.0
1001
ACDBBLOCKREPETAG
1070
     1
1071
        8
1005
128E98
  0
LINE
  5
128E99
  8
OBJECT
 10
11925.0
 20
-870.9238648686005
 30
0.0
 11
11925.0
 21
-754.99999999999955
 31
0.0
1001
ACDBBLOCKREPETAG
1070
     1
1071
        9
1005
128E99
  0
LINE
  5
128E9A
  8
SLIM
 10
9925.0
 20
-755.19743878930785
 30
0.0
 11
9925.1974387893097
 21
-754.99999999999955
 31
0.0
1001
ACAD
1010
0.0
1020
0.0
1030
0.0
1001
ACDBBLOCKREPETAG
1070
     1
1071
        1
1005
0
  0
LINE
  5
128E9B
  8
SLIM
 10
9925.0
 20
-773.15795103144615
 30
0.0
 11
9943.1579510314441
 21
-754.99999999999955
 31
0.0
1001
ACAD
1010
0.0
1020
0.0
1030
0.0
1001
ACDBBLOCKREPETAG
1070
     1
1071
       10
1005
128E9B
  0
LINE
  5
128E9C
  8
SLIM
 10
9925.0
 20
-791.11846327358455
 30
0.0
 11
9961.1184632735858
 21
-754.99999999999955
 31
0.0
1001
ACAD
1010
0.0
1020
0.0
1030
0.0
1001
ACDBBLOCKREPETAG
1070
     1
1071
       11
1005
128E9C
  0
LINE
  5
128E9D
  8
SLIM
 10
9925.0
 20
-809.07897551572285
 30
0.0
 11
9979.0789755157257
 21
-754.99999999999955
 31
0.0
1001
ACAD
1010
0.0
1020
0.0
1030
0.0
1001
ACDBBLOCKREPETAG
1070
     1
1071
       12
1005
128E9D
  0
LINE
  5
128E9E
  8
SLIM
 10
9925.0
 20
-827.03948775786125
 30
0.0
 11
9997.0394877578656
 21
-754.99999999999955
 31
0.0
1001
ACAD
1010
0.0
1020
0.0
1030
0.0
1001
ACDBBLOCKREPETAG
1070
     1
1071
       13
1005
128E9E
  0
LINE
  5
128E9F
  8
SLIM
 10
9925.0
 20
-844.99999999999955
 30
0.0
 11
10015.0
 21
-754.99999999999955
 31
0.0
1001
ACAD
1010
0.0
1020
0.0
1030
0.0
1001
ACDBBLOCKREPETAG
1070
     1
1071
       14
1005
128E9F
  0
LINE
  5
128EA0
  8
SLIM
 10
9925.0
 20
-862.96051224213795
 30
0.0
 11
10032.96051224214
 21
-754.99999999999955
 31
0.0
1001
ACAD
1010
0.0
1020
0.0
1030
0.0
1001
ACDBBLOCKREPETAG
1070
     1
1071
       15
1005
128EA0
  0
LINE
  5
128EA1
  8
SLIM
 10
9926.5704350354117
 20
-879.35058944886373
 30
0.0
 11
10050.921024484271
 21
-754.99999999999955
 31
0.0
1001
ACAD
1010
0.0
1020
0.0
1030
0.0
1001
ACDBBLOCKREPETAG
1070
     1
1071
       16
1005
128EA1
  0
LINE
  5
128EA2
  8
SLIM
 10
9929.3918181845602
 20
-894.48971854185413
 30
0.0
 11
10068.881536726411
 21
-754.99999999999955
 31
0.0
1001
ACAD
1010
0.0
1020
0.0
1030
0.0
1001
ACDBBLOCKREPETAG
1070
     1
1071
       17
1005
128EA2
  0
LINE
  5
128EA3
  8
SLIM
 10
9932.2132013337086
 20
-909.62884763484476
 30
0.0
 11
10075.0
 21
-766.8420489685526
 31
0.0
1001
ACAD
1010
0.0
1020
0.0
1030
0.0
1001
ACDBBLOCKREPETAG
1070
     1
1071
       18
1005
128EA3
  0
LINE
  5
128EA4
  8
SLIM
 10
9935.0345844828553
 20
-924.76797672783539
 30
0.0
 11
10075.0
 21
-784.80256121069112
 31
0.0
1001
ACAD
1010
0.0
1020
0.0
1030
0.0
1001
ACDBBLOCKREPETAG
1070
     1
1071
       19
1005
128EA4
  0
LINE
  5
128EA5
  8
SLIM
 10
9937.8559676320037
 20
-939.90710582082625
 30
0.0
 11
10075.0
 21
-802.76307345282942
 31
0.0
1001
ACAD
1010
0.0
1020
0.0
1030
0.0
1001
ACDBBLOCKREPETAG
1070
     1
1071
       20
1005
128EA5
  0
LINE
  5
128EA6
  8
SLIM
 10
9940.6773507811504
 20
-955.04623491381665
 30
0.0
 11
10075.0
 21
-820.7235856949676
 31
0.0
1001
ACAD
1010
0.0
1020
0.0
1030
0.0
1001
ACDBBLOCKREPETAG
1070
     1
1071
       21
1005
128EA6
  0
LINE
  5
128EA7
  8
SLIM
 10
9943.498733930297
 20
-970.18536400680739
 30
0.0
 11
10075.0
 21
-838.684097937106
 31
0.0
1001
ACAD
1010
0.0
1020
0.0
1030
0.0
1001
ACDBBLOCKREPETAG
1070
     1
1071
       22
1005
128EA7
  0
LINE
  5
128EA8
  8
SLIM
 10
9945.4999999999982
 20
-986.14461017924543
 30
0.0
 11
10075.0
 21
-856.64461017924418
 31
0.0
1001
ACAD
1010
0.0
1020
0.0
1030
0.0
1001
ACDBBLOCKREPETAG
1070
     1
1071
       23
1005
128EA8
  0
LINE
  5
128EA9
  8
SLIM
 10
9945.5
 20
-1004.105122421381
 30
0.0
 11
10074.15680692925
 21
-875.44831549213154
 31
0.0
1001
ACAD
1010
0.0
1020
0.0
1030
0.0
1001
ACDBBLOCKREPETAG
1070
     1
1071
       24
1005
128EA9
  0
LINE
  5
128EAA
  8
SLIM
 10
9945.5000000000036
 20
-1022.065634663517
 30
0.0
 11
10070.04294658328
 21
-897.52268808023439
 31
0.0
1001
ACAD
1010
0.0
1020
0.0
1030
0.0
1001
ACDBBLOCKREPETAG
1070
     1
1071
       25
1005
128EAA
  0
LINE
  5
128EAB
  8
SLIM
 10
9960.5261469056604
 20
-1024.9999999999991
 30
0.0
 11
10065.92908623732
 21
-919.59706066833724
 31
0.0
1001
ACAD
1010
0.0
1020
0.0
1030
0.0
1001
ACDBBLOCKREPETAG
1070
     1
1071
       26
1005
128EAB
  0
LINE
  5
128EAC
  8
SLIM
 10
9978.4866591477985
 20
-1024.9999999999991
 30
0.0
 11
10061.815225891351
 21
-941.67143325643985
 31
0.0
1001
ACAD
1010
0.0
1020
0.0
1030
0.0
1001
ACDBBLOCKREPETAG
1070
     1
1071
       27
1005
128EAC
  0
LINE
  5
128EAD
  8
SLIM
 10
9996.4471713899384
 20
-1024.9999999999991
 30
0.0
 11
10057.70136554539
 21
-963.74580584454304
 31
0.0
1001
ACAD
1010
0.0
1020
0.0
1030
0.0
1001
ACDBBLOCKREPETAG
1070
     1
1071
       28
1005
128EAD
  0
LINE
  5
128EAE
  8
SLIM
 10
10014.40768363206
 20
-1024.9999999999991
 30
0.0
 11
10054.5
 21
-984.90768363207394
 31
0.0
1001
ACAD
1010
0.0
1020
0.0
1030
0.0
1001
ACDBBLOCKREPETAG
1070
     1
1071
       29
1005
128EAE
  0
LINE
  5
128EAF
  8
SLIM
 10
10032.368195874211
 20
-1024.9999999999991
 30
0.0
 11
10054.5
 21
-1002.868195874213
 31
0.0
1001
ACAD
1010
0.0
1020
0.0
1030
0.0
1001
ACDBBLOCKREPETAG
1070
     1
1071
       30
1005
128EAF
  0
LINE
  5
128EB0
  8
SLIM
 10
10050.328708116351
 20
-1024.9999999999991
 30
0.0
 11
10054.5
 21
-1020.828708116352
 31
0.0
1001
ACAD
1010
0.0
1020
0.0
1030
0.0
1001
ACDBBLOCKREPETAG
1070
     1
1071
       31
1005
128EB0
  0
LINE
  5
128EB1
  8
OBJECT
 10
9925.0
 20
-754.99999999999955
 30
0.0
 11
10075.0
 21
-754.99999999999955
 31
0.0
1001
ACDBBLOCKREPETAG
1070
     1
1071
        2
1005
128EB1
  0
LINE
  5
128EB2
  8
OBJECT
 10
10075.0
 20
-754.99999999999955
 30
0.0
 11
10075.0
 21
-870.9238648686005
 31
0.0
1001
ACDBBLOCKREPETAG
1070
     1
1071
        3
1005
128EB2
  0
LINE
  5
128EB3
  8
OBJECT
 10
10075.0
 20
-870.9238648686005
 30
0.0
 11
10054.5
 21
-980.92386486860221
 31
0.0
1001
ACDBBLOCKREPETAG
1070
     1
1071
        4
1005
128EB3
  0
LINE
  5
128EB4
  8
OBJECT
 10
10054.5
 20
-980.92386486860221
 30
0.0
 11
10054.5
 21
-1024.9999999999991
 31
0.0
1001
ACDBBLOCKREPETAG
1070
     1
1071
        5
1005
128EB4
  0
LINE
  5
128EB5
  8
OBJECT
 10
10054.5
 20
-1024.9999999999991
 30
0.0
 11
9945.5000000000036
 21
-1024.9999999999991
 31
0.0
1001
ACDBBLOCKREPETAG
1070
     1
1071
        6
1005
128EB5
  0
LINE
  5
128EB6
  8
OBJECT
 10
9945.5000000000036
 20
-1024.9999999999991
 30
0.0
 11
9945.4999999999982
 21
-980.92386486861199
 31
0.0
1001
ACDBBLOCKREPETAG
1070
     1
1071
        7
1005
128EB6
  0
LINE
  5
128EB7
  8
OBJECT
 10
9945.4999999999982
 20
-980.92386486861199
 30
0.0
 11
9925.0
 21
-870.9238648686005
 31
0.0
1001
ACDBBLOCKREPETAG
1070
     1
1071
        8
1005
128EB7
  0
LINE
  5
128EB8
  8
OBJECT
 10
9925.0
 20
-870.9238648686005
 30
0.0
 11
9925.0
 21
-754.99999999999955
 31
0.0
1001
ACDBBLOCKREPETAG
1070
     1
1071
        9
1005
128EB8
  0
LINE
  5
128EB9
  8
SLIM
 10
7925.0
 20
-755.19743878930785
 30
0.0
 11
7925.1974387893079
 21
-754.99999999999955
 31
0.0
1001
ACAD
1010
0.0
1020
0.0
1030
0.0
1001
ACDBBLOCKREPETAG
1070
     1
1071
        1
1005
0
  0
LINE
  5
128EBA
  8
SLIM
 10
7925.0
 20
-773.15795103144615
 30
0.0
 11
7943.1579510314459
 21
-754.99999999999955
 31
0.0
1001
ACAD
1010
0.0
1020
0.0
1030
0.0
1001
ACDBBLOCKREPETAG
1070
     1
1071
       11
1005
128EBA
  0
LINE
  5
128EBB
  8
SLIM
 10
7925.0
 20
-791.11846327358455
 30
0.0
 11
7961.1184632735867
 21
-754.99999999999955
 31
0.0
1001
ACAD
1010
0.0
1020
0.0
1030
0.0
1001
ACDBBLOCKREPETAG
1070
     1
1071
       12
1005
128EBB
  0
LINE
  5
128EBC
  8
SLIM
 10
7925.0
 20
-809.07897551572285
 30
0.0
 11
7979.078975515723
 21
-754.99999999999955
 31
0.0
1001
ACAD
1010
0.0
1020
0.0
1030
0.0
1001
ACDBBLOCKREPETAG
1070
     1
1071
       13
1005
128EBC
  0
LINE
  5
128EBD
  8
SLIM
 10
7925.0
 20
-827.03948775786125
 30
0.0
 11
7997.0394877578628
 21
-754.99999999999955
 31
0.0
1001
ACAD
1010
0.0
1020
0.0
1030
0.0
1001
ACDBBLOCKREPETAG
1070
     1
1071
       14
1005
128EBD
  0
LINE
  5
128EBE
  8
SLIM
 10
7925.0
 20
-844.99999999999955
 30
0.0
 11
8015.0
 21
-754.99999999999955
 31
0.0
1001
ACAD
1010
0.0
1020
0.0
1030
0.0
1001
ACDBBLOCKREPETAG
1070
     1
1071
       15
1005
128EBE
  0
LINE
  5
128EBF
  8
SLIM
 10
7925.0
 20
-862.96051224213795
 30
0.0
 11
8032.960512242139
 21
-754.99999999999955
 31
0.0
1001
ACAD
1010
0.0
1020
0.0
1030
0.0
1001
ACDBBLOCKREPETAG
1070
     1
1071
       16
1005
128EBF
  0
LINE
  5
128EC0
  8
SLIM
 10
7926.5704350354117
 20
-879.3505894488635
 30
0.0
 11
8050.9210244842798
 21
-754.99999999999955
 31
0.0
1001
ACAD
1010
0.0
1020
0.0
1030
0.0
1001
ACDBBLOCKREPETAG
1070
     1
1071
       17
1005
128EC0
  0
LINE
  5
128EC1
  8
SLIM
 10
7929.3918181845593
 20
-894.48971854185379
 30
0.0
 11
8068.8815367264133
 21
-754.99999999999955
 31
0.0
1001
ACAD
1010
0.0
1020
0.0
1030
0.0
1001
ACDBBLOCKREPETAG
1070
     1
1071
       18
1005
128EC1
  0
LINE
  5
128EC2
  8
SLIM
 10
7932.2132013337077
 20
-909.62884763484408
 30
0.0
 11
8075.0
 21
-766.84204896855272
 31
0.0
1001
ACAD
1010
0.0
1020
0.0
1030
0.0
1001
ACDBBLOCKREPETAG
1070
     1
1071
       19
1005
128EC2
  0
LINE
  5
128EC3
  8
SLIM
 10
7935.0345844828562
 20
-924.76797672783425
 30
0.0
 11
8075.0
 21
-784.80256121069112
 31
0.0
1001
ACAD
1010
0.0
1020
0.0
1030
0.0
1001
ACDBBLOCKREPETAG
1070
     1
1071
       20
1005
128EC3
  0
LINE
  5
128EC4
  8
SLIM
 10
7937.8559676320019
 20
-939.90710582082465
 30
0.0
 11
8075.0
 21
-802.76307345282942
 31
0.0
1001
ACAD
1010
0.0
1020
0.0
1030
0.0
1001
ACDBBLOCKREPETAG
1070
     1
1071
       21
1005
128EC4
  0
LINE
  5
128EC5
  8
SLIM
 10
7940.677350781154
 20
-955.04623491381471
 30
0.0
 11
8075.0
 21
-820.7235856949676
 31
0.0
1001
ACAD
1010
0.0
1020
0.0
1030
0.0
1001
ACDBBLOCKREPETAG
1070
     1
1071
       22
1005
128EC5
  0
LINE
  5
128EC6
  8
SLIM
 10
7943.4987339303016
 20
-970.18536400680489
 30
0.0
 11
8075.0
 21
-838.684097937106
 31
0.0
1001
ACAD
1010
0.0
1020
0.0
1030
0.0
1001
ACDBBLOCKREPETAG
1070
     1
1071
       23
1005
128EC6
  0
LINE
  5
128EC7
  8
SLIM
 10
7946.6446101792453
 20
-984.99999999999955
 30
0.0
 11
8075.0
 21
-856.64461017924418
 31
0.0
1001
ACAD
1010
0.0
1020
0.0
1030
0.0
1001
ACDBBLOCKREPETAG
1070
     1
1071
       24
1005
128EC7
  0
LINE
  5
128EC8
  8
SLIM
 10
7955.5
 20
-994.10512242138236
 30
0.0
 11
7964.6051224213816
 21
-984.99999999999955
 31
0.0
1001
ACAD
1010
0.0
1020
0.0
1030
0.0
1001
ACDBBLOCKREPETAG
1070
     1
1071
       25
1005
128EC8
  0
LINE
  5
128EC9
  8
SLIM
 10
7964.6051224213816
 20
-984.99999999999955
 30
0.0
 11
8074.1568069292498
 21
-875.44831549213154
 31
0.0
1001
ACAD
1010
0.0
1020
0.0
1030
0.0
1001
ACDBBLOCKREPETAG
1070
     1
1071
       26
1005
128EC9
  0
LINE
  5
128ECA
  8
SLIM
 10
7962.5656346635215
 20
-1004.999999999999
 30
0.0
 11
7982.5656346635215
 21
-984.99999999999955
 31
0.0
1001
ACAD
1010
0.0
1020
0.0
1030
0.0
1001
ACDBBLOCKREPETAG
1070
     1
1071
       27
1005
128ECA
  0
LINE
  5
128ECB
  8
SLIM
 10
7982.5656346635215
 20
-984.99999999999955
 30
0.0
 11
8070.0429465832849
 21
-897.52268808023405
 31
0.0
1001
ACAD
1010
0.0
1020
0.0
1030
0.0
1001
ACDBBLOCKREPETAG
1070
     1
1071
       28
1005
128ECB
  0
LINE
  5
128ECC
  8
SLIM
 10
7980.5261469056604
 20
-1004.999999999999
 30
0.0
 11
8000.5261469056577
 21
-984.99999999999955
 31
0.0
1001
ACAD
1010
0.0
1020
0.0
1030
0.0
1001
ACDBBLOCKREPETAG
1070
     1
1071
       29
1005
128ECC
  0
LINE
  5
128ECD
  8
SLIM
 10
8000.5261469056577
 20
-984.99999999999955
 30
0.0
 11
8065.9290862373227
 21
-919.59706066833724
 31
0.0
1001
ACAD
1010
0.0
1020
0.0
1030
0.0
1001
ACDBBLOCKREPETAG
1070
     1
1071
       30
1005
128ECD
  0
LINE
  5
128ECE
  8
SLIM
 10
7998.4866591477967
 20
-1004.999999999999
 30
0.0
 11
8018.4866591477967
 21
-984.99999999999955
 31
0.0
1001
ACAD
1010
0.0
1020
0.0
1030
0.0
1001
ACDBBLOCKREPETAG
1070
     1
1071
       31
1005
128ECE
  0
LINE
  5
128ECF
  8
SLIM
 10
8018.4866591477967
 20
-984.99999999999955
 30
0.0
 11
8061.8152258913578
 21
-941.67143325643985
 31
0.0
1001
ACAD
1010
0.0
1020
0.0
1030
0.0
1001
ACDBBLOCKREPETAG
1070
     1
1071
       32
1005
128ECF
  0
LINE
  5
128ED0
  8
SLIM
 10
8016.4471713899384
 20
-1004.999999999999
 30
0.0
 11
8036.4471713899338
 21
-984.99999999999955
 31
0.0
1001
ACAD
1010
0.0
1020
0.0
1030
0.0
1001
ACDBBLOCKREPETAG
1070
     1
1071
       33
1005
128ED0
  0
LINE
  5
128ED1
  8
SLIM
 10
8036.4471713899338
 20
-984.99999999999955
 30
0.0
 11
8057.701365545392
 21
-963.74580584454225
 31
0.0
1001
ACAD
1010
0.0
1020
0.0
1030
0.0
1001
ACDBBLOCKREPETAG
1070
     1
1071
       34
1005
128ED1
  0
LINE
  5
128ED2
  8
SLIM
 10
8034.4076836320728
 20
-1004.999999999999
 30
0.0
 11
8044.5000000000036
 21
-994.90768363207383
 31
0.0
1001
ACAD
1010
0.0
1020
0.0
1030
0.0
1001
ACDBBLOCKREPETAG
1070
     1
1071
       35
1005
128ED2
  0
LINE
  5
128ED3
  8
OBJECT
 10
7925.0
 20
-754.99999999999955
 30
0.0
 11
8075.0
 21
-754.99999999999955
 31
0.0
1001
ACDBBLOCKREPETAG
1070
     1
1071
        2
1005
128ED3
  0
LINE
  5
128ED4
  8
OBJECT
 10
8075.0
 20
-754.99999999999955
 30
0.0
 11
8075.0
 21
-870.9238648686005
 31
0.0
1001
ACDBBLOCKREPETAG
1070
     1
1071
        3
1005
128ED4
  0
LINE
  5
128ED5
  8
OBJECT
 10
8075.0
 20
-870.9238648686005
 30
0.0
 11
8053.7403566346029
 21
-984.99999999999955
 31
0.0
1001
ACDBBLOCKREPETAG
1070
     1
1071
        4
1005
128ED5
  0
LINE
  5
128ED6
  8
OBJECT
 10
8044.5000000000036
 20
-984.99999999999955
 30
0.0
 11
8044.5000000000036
 21
-1004.999999999999
 31
0.0
1001
ACDBBLOCKREPETAG
1070
     1
1071
        5
1005
128ED6
  0
LINE
  5
128ED7
  8
OBJECT
 10
8044.5000000000036
 20
-1004.999999999999
 30
0.0
 11
7955.5
 21
-1004.999999999999
 31
0.0
1001
ACDBBLOCKREPETAG
1070
     1
1071
        6
1005
128ED7
  0
LINE
  5
128ED8
  8
OBJECT
 10
7955.5
 20
-1004.999999999999
 30
0.0
 11
7955.5
 21
-984.99999999999955
 31
0.0
1001
ACDBBLOCKREPETAG
1070
     1
1071
        7
1005
128ED8
  0
LINE
  5
128ED9
  8
OBJECT
 10
8053.7403566346029
 20
-984.99999999999955
 30
0.0
 11
7946.2596433653962
 21
-984.99999999999955
 31
0.0
1001
ACDBBLOCKREPETAG
1070
     1
1071
        8
1005
128ED9
  0
LINE
  5
128EDA
  8
OBJECT
 10
7946.2596433653962
 20
-984.99999999999955
 30
0.0
 11
7925.0
 21
-870.9238648686005
 31
0.0
1001
ACDBBLOCKREPETAG
1070
     1
1071
        9
1005
128EDA
  0
LINE
  5
128EDB
  8
OBJECT
 10
7925.0
 20
-870.9238648686005
 30
0.0
 11
7925.0
 21
-754.99999999999955
 31
0.0
1001
ACDBBLOCKREPETAG
1070
     1
1071
       10
1005
128EDB
  0
LINE
  5
128EDC
  8
OBJECT
 10
12055.999999999991
 20
-1103.9999999999991
 30
0.0
 11
12055.999999999991
 21
-1113.9999999999991
 31
0.0
1001
ACDBBLOCKREPETAG
1070
     1
1071
      121
1005
128EDC
  0
LINE
  5
128EDD
  8
OBJECT
 10
11961.75
 20
-1054.699999999996
 30
0.0
 11
11974.25
 21
-1054.699999999996
 31
0.0
1001
ACDBBLOCKREPETAG
1070
     1
1071
      122
1005
128EDD
  0
LINE
  5
128EDE
  8
OBJECT
 10
12073.499999999991
 20
-1062.7
 30
0.0
 11
12073.499999999991
 21
-1064.9999999999991
 31
0.0
1001
ACDBBLOCKREPETAG
1070
     1
1071
      123
1005
128EDE
  0
LINE
  5
128EDF
  8
OBJECT
 10
12057.749999999991
 20
-1054.699999999996
 30
0.0
 11
12070.249999999991
 21
-1054.699999999996
 31
0.0
1001
ACDBBLOCKREPETAG
1070
     1
1071
      124
1005
128EDF
  0
LINE
  5
128EE0
  8
OBJECT
 10
12054.499999999991
 20
-1062.7
 30
0.0
 11
12054.499999999991
 21
-1064.9999999999991
 31
0.0
1001
ACDBBLOCKREPETAG
1070
     1
1071
      125
1005
128EE0
  0
LINE
  5
128EE1
  8
OBJECT
 10
11953.0
 20
-1064.9999999999991
 30
0.0
 11
11953.0
 21
-1062.7
 31
0.0
1001
ACDBBLOCKREPETAG
1070
     1
1071
      126
1005
128EE1
  0
LINE
  5
128EE2
  8
OBJECT
 10
11983.0
 20
-1064.9999999999991
 30
0.0
 11
11983.0
 21
-1062.7
 31
0.0
1001
ACDBBLOCKREPETAG
1070
     1
1071
      127
1005
128EE2
  0
LINE
  5
128EE3
  8
OBJECT
 10
11961.75
 20
-1054.699999999996
 30
0.0
 11
11961.75
 21
-1062.7
 31
0.0
1001
ACDBBLOCKREPETAG
1070
     1
1071
      128
1005
128EE3
  0
LINE
  5
128EE4
  8
OBJECT
 10
11974.25
 20
-1054.699999999996
 30
0.0
 11
11974.25
 21
-1062.7
 31
0.0
1001
ACDBBLOCKREPETAG
1070
     1
1071
      129
1005
128EE4
  0
LINE
  5
128EE5
  8
OBJECT
 10
11953.0
 20
-1062.7
 30
0.0
 11
11983.0
 21
-1062.7
 31
0.0
1001
ACDBBLOCKREPETAG
1070
     1
1071
      130
1005
128EE5
  0
LINE
  5
128EE6
  8
OBJECT
 10
11960.0
 20
-1103.9999999999991
 30
0.0
 11
11960.0
 21
-1113.9999999999991
 31
0.0
1001
ACDBBLOCKREPETAG
1070
     1
1071
      131
1005
128EE6
  0
LINE
  5
128EE7
  8
OBJECT
 10
11976.0
 20
-1103.9999999999991
 30
0.0
 11
11976.0
 21
-1113.9999999999991
 31
0.0
1001
ACDBBLOCKREPETAG
1070
     1
1071
      132
1005
128EE7
  0
LINE
  5
128EE8
  8
OBJECT
 10
11960.0
 20
-1113.9999999999991
 30
0.0
 11
11976.0
 21
-1113.9999999999991
 31
0.0
1001
ACDBBLOCKREPETAG
1070
     1
1071
      133
1005
128EE8
  0
LINE
  5
128EE9
  8
OBJECT
 10
12071.999999999991
 20
-1103.9999999999991
 30
0.0
 11
12071.999999999991
 21
-1113.9999999999991
 31
0.0
1001
ACDBBLOCKREPETAG
1070
     1
1071
      134
1005
128EE9
  0
LINE
  5
128EEA
  8
OBJECT
 10
12071.999999999991
 20
-1113.9999999999991
 30
0.0
 11
12055.999999999991
 21
-1113.9999999999991
 31
0.0
1001
ACDBBLOCKREPETAG
1070
     1
1071
      135
1005
128EEA
  0
LINE
  5
128EEB
  8
OBJECT
 10
11944.999999999991
 20
-1144.9999999999991
 30
0.0
 11
11944.999999999991
 21
-1103.9999999999991
 31
0.0
1001
ACDBBLOCKREPETAG
1070
     1
1071
      136
1005
128EEB
  0
LINE
  5
128EEC
  8
OBJECT
 10
12054.999999999991
 20
-1103.9999999999991
 30
0.0
 11
12054.999999999991
 21
-1144.9999999999991
 31
0.0
1001
ACDBBLOCKREPETAG
1070
     1
1071
      137
1005
128EEC
  0
LINE
  5
128EED
  8
OBJECT
 10
12070.249999999991
 20
-1054.699999999996
 30
0.0
 11
12070.249999999991
 21
-1062.7
 31
0.0
1001
ACDBBLOCKREPETAG
1070
     1
1071
      138
1005
128EED
  0
LINE
  5
128EEE
  8
OBJECT
 10
12057.749999999991
 20
-1054.699999999996
 30
0.0
 11
12057.749999999991
 21
-1062.7
 31
0.0
1001
ACDBBLOCKREPETAG
1070
     1
1071
      139
1005
128EEE
  0
LINE
  5
128EEF
  8
OBJECT
 10
12054.499999999991
 20
-1062.7
 30
0.0
 11
12073.499999999991
 21
-1062.7
 31
0.0
1001
ACDBBLOCKREPETAG
1070
     1
1071
      140
1005
128EEF
  0
LINE
  5
128EF0
  8
OBJECT
 10
12054.999999999991
 20
-1144.9999999999991
 30
0.0
 11
11944.999999999991
 21
-1144.9999999999991
 31
0.0
1001
ACDBBLOCKREPETAG
1070
     1
1071
      141
1005
128EF0
  0
LINE
  5
128EF1
  8
OBJECT
 10
12075.999999999991
 20
-1079.9999999999991
 30
0.0
 11
11938.999999999991
 21
-1079.9999999999991
 31
0.0
1001
ACDBBLOCKREPETAG
1070
     1
1071
      142
1005
128EF1
  0
LINE
  5
128EF2
  8
OBJECT
 10
12075.999999999991
 20
-1079.9999999999991
 30
0.0
 11
12075.999999999991
 21
-1064.9999999999991
 31
0.0
1001
ACDBBLOCKREPETAG
1070
     1
1071
      143
1005
128EF2
  0
LINE
  5
128EF3
  8
OBJECT
 10
12075.999999999991
 20
-1089.9999999999991
 30
0.0
 11
12075.999999999991
 21
-1103.9999999999991
 31
0.0
1001
ACDBBLOCKREPETAG
1070
     1
1071
      144
1005
128EF3
  0
LINE
  5
128EF4
  8
OBJECT
 10
12068.999999999991
 20
-1089.9999999999991
 30
0.0
 11
12068.999999999991
 21
-1079.9999999999991
 31
0.0
1001
ACDBBLOCKREPETAG
1070
     1
1071
      145
1005
128EF4
  0
LINE
  5
128EF5
  8
OBJECT
 10
12058.999999999991
 20
-1089.9999999999991
 30
0.0
 11
12058.999999999991
 21
-1079.9999999999991
 31
0.0
1001
ACDBBLOCKREPETAG
1070
     1
1071
      146
1005
128EF5
  0
LINE
  5
128EF6
  8
OBJECT
 10
11938.999999999991
 20
-1089.9999999999991
 30
0.0
 11
11938.999999999991
 21
-1103.9999999999991
 31
0.0
1001
ACDBBLOCKREPETAG
1070
     1
1071
      147
1005
128EF6
  0
LINE
  5
128EF7
  8
OBJECT
 10
11938.999999999991
 20
-1103.9999999999991
 30
0.0
 11
12075.999999999991
 21
-1103.9999999999991
 31
0.0
1001
ACDBBLOCKREPETAG
1070
     1
1071
      148
1005
128EF7
  0
LINE
  5
128EF8
  8
OBJECT
 10
11973.0
 20
-1089.9999999999991
 30
0.0
 11
11973.0
 21
-1079.9999999999991
 31
0.0
1001
ACDBBLOCKREPETAG
1070
     1
1071
      149
1005
128EF8
  0
LINE
  5
128EF9
  8
OBJECT
 10
11963.0
 20
-1089.9999999999991
 30
0.0
 11
11963.0
 21
-1079.9999999999991
 31
0.0
1001
ACDBBLOCKREPETAG
1070
     1
1071
      150
1005
128EF9
  0
LINE
  5
128EFA
  8
OBJECT
 10
11938.999999999991
 20
-1089.9999999999991
 30
0.0
 11
12075.999999999991
 21
-1089.9999999999991
 31
0.0
1001
ACDBBLOCKREPETAG
1070
     1
1071
      151
1005
128EFA
  0
LINE
  5
128EFB
  8
OBJECT
 10
11945.999999999991
 20
-1079.9999999999991
 30
0.0
 11
11945.999999999991
 21
-1089.9999999999991
 31
0.0
1001
ACDBBLOCKREPETAG
1070
     1
1071
      152
1005
128EFB
  0
LINE
  5
128EFC
  8
OBJECT
 10
12053.999999999991
 20
-1079.9999999999991
 30
0.0
 11
12053.999999999991
 21
-1089.9999999999991
 31
0.0
1001
ACDBBLOCKREPETAG
1070
     1
1071
      153
1005
128EFC
  0
LINE
  5
128EFD
  8
OBJECT
 10
12044.5
 20
-979.99999999999966
 30
0.0
 11
12065.0
 21
-869.99999999999955
 31
0.0
1001
ACDBBLOCKREPETAG
1070
     1
1071
      154
1005
128EFD
  0
LINE
  5
128EFE
  8
OBJECT
 10
11955.5
 20
-979.99999999999966
 30
0.0
 11
12044.5
 21
-979.99999999999966
 31
0.0
1001
ACDBBLOCKREPETAG
1070
     1
1071
      155
1005
128EFE
  0
LINE
  5
128EFF
  8
OBJECT
 10
11938.999999999991
 20
-1079.9999999999991
 30
0.0
 11
11938.999999999991
 21
-1064.9999999999991
 31
0.0
1001
ACDBBLOCKREPETAG
1070
     1
1071
      156
1005
128EFF
  0
LINE
  5
128F00
  8
OBJECT
 10
11938.999999999991
 20
-1064.9999999999991
 30
0.0
 11
12075.999999999991
 21
-1064.9999999999991
 31
0.0
1001
ACDBBLOCKREPETAG
1070
     1
1071
      157
1005
128F00
  0
LINE
  5
128F01
  8
OBJECT
 10
11955.5
 20
-979.99999999999966
 30
0.0
 11
11955.5
 21
-1029.9999999999991
 31
0.0
1001
ACDBBLOCKREPETAG
1070
     1
1071
      158
1005
128F01
  0
LINE
  5
128F02
  8
OBJECT
 10
12044.5
 20
-979.99999999999966
 30
0.0
 11
12044.5
 21
-1029.9999999999991
 31
0.0
1001
ACDBBLOCKREPETAG
1070
     1
1071
      159
1005
128F02
  0
LINE
  5
128F03
  8
OBJECT
 10
11947.0
 20
-1029.9999999999991
 30
0.0
 11
12053.0
 21
-1029.9999999999991
 31
0.0
1001
ACDBBLOCKREPETAG
1070
     1
1071
      160
1005
128F03
  0
LINE
  5
128F04
  8
HIDDEN
 10
11955.5
 20
-1039.9999999999991
 30
0.0
 11
12044.5
 21
-1039.9999999999991
 31
0.0
1001
ACDBBLOCKREPETAG
1070
     1
1071
      161
1005
128F04
  0
LINE
  5
128F05
  8
CENTER
 10
12000.0
 20
-769.99999999999955
 30
0.0
 11
12000.0
 21
-1159.9999999999991
 31
0.0
1001
ACDBBLOCKREPETAG
1070
     1
1071
      162
1005
128F05
  0
LINE
  5
128F06
  8
OBJECT
 10
12065.0
 20
-769.99999999999955
 30
0.0
 11
12065.0
 21
-869.99999999999955
 31
0.0
1001
ACDBBLOCKREPETAG
1070
     1
1071
      163
1005
128F06
  0
LINE
  5
128F07
  8
OBJECT
 10
11935.0
 20
-769.99999999999955
 30
0.0
 11
11935.0
 21
-869.99999999999955
 31
0.0
1001
ACDBBLOCKREPETAG
1070
     1
1071
      164
1005
128F07
  0
LINE
  5
128F08
  8
OBJECT
 10
11955.5
 20
-979.99999999999966
 30
0.0
 11
11935.0
 21
-869.99999999999955
 31
0.0
1001
ACDBBLOCKREPETAG
1070
     1
1071
      165
1005
128F08
  0
LINE
  5
128F09
  8
OBJECT
 10
12065.0
 20
-869.99999999999955
 30
0.0
 11
11935.0
 21
-869.99999999999955
 31
0.0
1001
ACDBBLOCKREPETAG
1070
     1
1071
      166
1005
128F09
  0
LINE
  5
128F0A
  8
OBJECT
 10
11947.0
 20
-1029.9999999999991
 30
0.0
 11
11947.0
 21
-1064.9999999999991
 31
0.0
1001
ACDBBLOCKREPETAG
1070
     1
1071
      167
1005
128F0A
  0
LINE
  5
128F0B
  8
OBJECT
 10
12053.0
 20
-1029.9999999999991
 30
0.0
 11
12053.0
 21
-1064.9999999999991
 31
0.0
1001
ACDBBLOCKREPETAG
1070
     1
1071
      168
1005
128F0B
  0
LINE
  5
128F0C
  8
OBJECT
 10
9975.5
 20
-1059.9999999999991
 30
0.0
 11
9958.9999999999964
 21
-1059.9999999999991
 31
0.0
1001
ACDBBLOCKREPETAG
1070
     1
1071
       12
1005
128F0C
  0
LINE
  5
128F0D
  8
OBJECT
 10
9983.0
 20
-1064.9999999999991
 30
0.0
 11
9983.0
 21
-1062.9999999999991
 31
0.0
1001
ACDBBLOCKREPETAG
1070
     1
1071
       13
1005
128F0D
  0
LINE
  5
128F0E
  8
OBJECT
 10
10075.999999999991
 20
-1079.9999999999991
 30
0.0
 11
9938.9999999999927
 21
-1079.9999999999991
 31
0.0
1001
ACDBBLOCKREPETAG
1070
     1
1071
       14
1005
128F0E
  0
LINE
  5
128F0F
  8
OBJECT
 10
10075.999999999991
 20
-1079.9999999999991
 30
0.0
 11
10075.999999999991
 21
-1064.9999999999991
 31
0.0
1001
ACDBBLOCKREPETAG
1070
     1
1071
       15
1005
128F0F
  0
LINE
  5
128F10
  8
OBJECT
 10
10075.999999999991
 20
-1089.9999999999991
 30
0.0
 11
10075.999999999991
 21
-1103.9999999999991
 31
0.0
1001
ACDBBLOCKREPETAG
1070
     1
1071
       16
1005
128F10
  0
LINE
  5
128F11
  8
OBJECT
 10
10068.999999999991
 20
-1089.9999999999991
 30
0.0
 11
10068.999999999991
 21
-1079.9999999999991
 31
0.0
1001
ACDBBLOCKREPETAG
1070
     1
1071
       17
1005
128F11
  0
LINE
  5
128F12
  8
OBJECT
 10
10058.999999999991
 20
-1089.9999999999991
 30
0.0
 11
10058.999999999991
 21
-1079.9999999999991
 31
0.0
1001
ACDBBLOCKREPETAG
1070
     1
1071
       18
1005
128F12
  0
LINE
  5
128F13
  8
OBJECT
 10
9938.9999999999927
 20
-1089.9999999999991
 30
0.0
 11
9938.9999999999927
 21
-1103.9999999999991
 31
0.0
1001
ACDBBLOCKREPETAG
1070
     1
1071
       19
1005
128F13
  0
LINE
  5
128F14
  8
OBJECT
 10
9938.9999999999927
 20
-1103.9999999999991
 30
0.0
 11
10075.999999999991
 21
-1103.9999999999991
 31
0.0
1001
ACDBBLOCKREPETAG
1070
     1
1071
       20
1005
128F14
  0
LINE
  5
128F15
  8
OBJECT
 10
9973.0
 20
-1089.9999999999991
 30
0.0
 11
9973.0
 21
-1079.9999999999991
 31
0.0
1001
ACDBBLOCKREPETAG
1070
     1
1071
       21
1005
128F15
  0
LINE
  5
128F16
  8
OBJECT
 10
9963.0
 20
-1089.9999999999991
 30
0.0
 11
9963.0
 21
-1079.9999999999991
 31
0.0
1001
ACDBBLOCKREPETAG
1070
     1
1071
       22
1005
128F16
  0
LINE
  5
128F17
  8
OBJECT
 10
9938.9999999999927
 20
-1089.9999999999991
 30
0.0
 11
10075.999999999991
 21
-1089.9999999999991
 31
0.0
1001
ACDBBLOCKREPETAG
1070
     1
1071
       23
1005
128F17
  0
LINE
  5
128F18
  8
OBJECT
 10
9958.9999999999964
 20
-1059.9999999999991
 30
0.0
 11
9958.9999999999964
 21
-1064.9999999999991
 31
0.0
1001
ACDBBLOCKREPETAG
1070
     1
1071
       24
1005
128F18
  0
LINE
  5
128F19
  8
OBJECT
 10
9963.0
 20
-1111.9999999999991
 30
0.0
 11
9963.0
 21
-1114.9999999999991
 31
0.0
1001
ACDBBLOCKREPETAG
1070
     1
1071
       25
1005
128F19
  0
LINE
  5
128F1A
  8
OBJECT
 10
9963.0
 20
-1114.9999999999991
 30
0.0
 11
9973.0
 21
-1114.9999999999991
 31
0.0
1001
ACDBBLOCKREPETAG
1070
     1
1071
       26
1005
128F1A
  0
LINE
  5
128F1B
  8
OBJECT
 10
9973.0
 20
-1114.9999999999991
 30
0.0
 11
9973.0
 21
-1111.9999999999991
 31
0.0
1001
ACDBBLOCKREPETAG
1070
     1
1071
       28
1005
128F1B
  0
LINE
  5
128F1C
  8
OBJECT
 10
9945.9999999999909
 20
-1079.9999999999991
 30
0.0
 11
9945.9999999999909
 21
-1089.9999999999991
 31
0.0
1001
ACDBBLOCKREPETAG
1070
     1
1071
       29
1005
128F1C
  0
LINE
  5
128F1D
  8
OBJECT
 10
10053.999999999991
 20
-1079.9999999999991
 30
0.0
 11
10053.999999999991
 21
-1089.9999999999991
 31
0.0
1001
ACDBBLOCKREPETAG
1070
     1
1071
       30
1005
128F1D
  0
LINE
  5
128F1E
  8
OBJECT
 10
10044.5
 20
-979.99999999999966
 30
0.0
 11
10065.0
 21
-869.99999999999955
 31
0.0
1001
ACDBBLOCKREPETAG
1070
     1
1071
       31
1005
128F1E
  0
LINE
  5
128F1F
  8
OBJECT
 10
9955.5
 20
-979.99999999999966
 30
0.0
 11
10044.5
 21
-979.99999999999966
 31
0.0
1001
ACDBBLOCKREPETAG
1070
     1
1071
       32
1005
128F1F
  0
LINE
  5
128F20
  8
OBJECT
 10
9938.9999999999927
 20
-1079.9999999999991
 30
0.0
 11
9938.9999999999927
 21
-1064.9999999999991
 31
0.0
1001
ACDBBLOCKREPETAG
1070
     1
1071
       33
1005
128F20
  0
LINE
  5
128F21
  8
OBJECT
 10
9938.9999999999927
 20
-1064.9999999999991
 30
0.0
 11
10075.999999999991
 21
-1064.9999999999991
 31
0.0
1001
ACDBBLOCKREPETAG
1070
     1
1071
       34
1005
128F21
  0
LINE
  5
128F22
  8
OBJECT
 10
9955.5
 20
-979.99999999999966
 30
0.0
 11
9955.5
 21
-1029.9999999999991
 31
0.0
1001
ACDBBLOCKREPETAG
1070
     1
1071
       35
1005
128F22
  0
LINE
  5
128F23
  8
OBJECT
 10
10044.5
 20
-979.99999999999966
 30
0.0
 11
10044.5
 21
-1029.9999999999991
 31
0.0
1001
ACDBBLOCKREPETAG
1070
     1
1071
       36
1005
128F23
  0
LINE
  5
128F24
  8
OBJECT
 10
9947.0
 20
-1029.9999999999991
 30
0.0
 11
10053.0
 21
-1029.9999999999991
 31
0.0
1001
ACDBBLOCKREPETAG
1070
     1
1071
       37
1005
128F24
  0
LINE
  5
128F25
  8
OBJECT
 10
10054.99999999998
 20
-1059.9999999999991
 30
0.0
 11
10054.99999999998
 21
-1064.9999999999991
 31
0.0
1001
ACDBBLOCKREPETAG
1070
     1
1071
       38
1005
128F25
  0
LINE
  5
128F26
  8
OBJECT
 10
10073.0
 20
-1059.9999999999991
 30
0.0
 11
10073.0
 21
-1064.9999999999991
 31
0.0
1001
ACDBBLOCKREPETAG
1070
     1
1071
       39
1005
128F26
  0
LINE
  5
128F27
  8
OBJECT
 10
10073.0
 20
-1059.9999999999991
 30
0.0
 11
10054.99999999998
 21
-1059.9999999999991
 31
0.0
1001
ACDBBLOCKREPETAG
1070
     1
1071
       40
1005
128F27
  0
LINE
  5
128F28
  8
HIDDEN
 10
9955.5
 20
-1039.9999999999991
 30
0.0
 11
10044.5
 21
-1039.9999999999991
 31
0.0
1001
ACDBBLOCKREPETAG
1070
     1
1071
       41
1005
128F28
  0
LINE
  5
128F29
  8
CENTER
 10
10000.0
 20
-769.99999999999955
 30
0.0
 11
10000.0
 21
-1118.9999999999991
 31
0.0
1001
ACDBBLOCKREPETAG
1070
     1
1071
       42
1005
128F29
  0
LINE
  5
128F2A
  8
OBJECT
 10
10065.0
 20
-769.99999999999955
 30
0.0
 11
10065.0
 21
-869.99999999999955
 31
0.0
1001
ACDBBLOCKREPETAG
1070
     1
1071
       43
1005
128F2A
  0
LINE
  5
128F2B
  8
OBJECT
 10
9935.0
 20
-769.99999999999955
 30
0.0
 11
9935.0
 21
-869.99999999999955
 31
0.0
1001
ACDBBLOCKREPETAG
1070
     1
1071
       44
1005
128F2B
  0
LINE
  5
128F2C
  8
OBJECT
 10
9955.5
 20
-979.99999999999966
 30
0.0
 11
9935.0
 21
-869.99999999999955
 31
0.0
1001
ACDBBLOCKREPETAG
1070
     1
1071
       45
1005
128F2C
  0
LINE
  5
128F2D
  8
OBJECT
 10
10065.0
 20
-869.99999999999955
 30
0.0
 11
9935.0
 21
-869.99999999999955
 31
0.0
1001
ACDBBLOCKREPETAG
1070
     1
1071
       46
1005
128F2D
  0
LINE
  5
128F2E
  8
OBJECT
 10
9947.0
 20
-1029.9999999999991
 30
0.0
 11
9947.0
 21
-1064.9999999999991
 31
0.0
1001
ACDBBLOCKREPETAG
1070
     1
1071
       47
1005
128F2E
  0
LINE
  5
128F2F
  8
OBJECT
 10
10053.0
 20
-1029.9999999999991
 30
0.0
 11
10053.0
 21
-1064.9999999999991
 31
0.0
1001
ACDBBLOCKREPETAG
1070
     1
1071
       48
1005
128F2F
  0
LINE
  5
128F30
  8
OBJECT
 10
9983.0
 20
-1062.9999999999991
 30
0.0
 11
9975.5
 21
-1059.9999999999991
 31
0.0
1001
ACDBBLOCKREPETAG
1070
     1
1071
       49
1005
128F30
  0
LINE
  5
128F31
  8
OBJECT
 10
10059.0
 20
-1111.9999999999991
 30
0.0
 11
10059.0
 21
-1114.9999999999991
 31
0.0
1001
ACDBBLOCKREPETAG
1070
     1
1071
       54
1005
128F31
  0
LINE
  5
128F32
  8
OBJECT
 10
10059.0
 20
-1114.9999999999991
 30
0.0
 11
10069.0
 21
-1114.9999999999991
 31
0.0
1001
ACDBBLOCKREPETAG
1070
     1
1071
       55
1005
128F32
  0
LINE
  5
128F33
  8
OBJECT
 10
10069.0
 20
-1114.9999999999991
 30
0.0
 11
10069.0
 21
-1111.9999999999991
 31
0.0
1001
ACDBBLOCKREPETAG
1070
     1
1071
       57
1005
128F33
  0
LINE
  5
128F34
  8
OBJECT
 10
9958.1850454237738
 20
-1111.9999999999991
 30
0.0
 11
9977.814954576219
 21
-1111.9999999999991
 31
0.0
1001
ACDBBLOCKREPETAG
1070
     1
1071
      422
1005
128F34
  0
LINE
  5
128F35
  8
OBJECT
 10
9958.1850454237756
 20
-1103.9999999999991
 30
0.0
 11
9958.1850454237756
 21
-1111.9999999999991
 31
0.0
1001
ACDBBLOCKREPETAG
1070
     1
1071
      423
1005
128F35
  0
LINE
  5
128F36
  8
OBJECT
 10
9963.0925227118896
 20
-1103.9999999999991
 30
0.0
 11
9963.0925227118896
 21
-1111.9999999999991
 31
0.0
1001
ACDBBLOCKREPETAG
1070
     1
1071
      424
1005
128F36
  0
LINE
  5
128F37
  8
OBJECT
 10
9972.9074772881122
 20
-1103.9999999999991
 30
0.0
 11
9972.9074772881122
 21
-1111.9999999999991
 31
0.0
1001
ACDBBLOCKREPETAG
1070
     1
1071
      425
1005
128F37
  0
LINE
  5
128F38
  8
OBJECT
 10
9977.8149545762244
 20
-1103.9999999999991
 30
0.0
 11
9977.8149545762244
 21
-1111.9999999999991
 31
0.0
1001
ACDBBLOCKREPETAG
1070
     1
1071
      426
1005
128F38
  0
LINE
  5
128F39
  8
OBJECT
 10
10054.18504542377
 20
-1111.9999999999991
 30
0.0
 11
10073.814954576221
 21
-1111.9999999999991
 31
0.0
1001
ACDBBLOCKREPETAG
1070
     1
1071
      427
1005
128F39
  0
LINE
  5
128F3A
  8
OBJECT
 10
10054.18504542377
 20
-1103.9999999999991
 30
0.0
 11
10054.18504542377
 21
-1111.9999999999991
 31
0.0
1001
ACDBBLOCKREPETAG
1070
     1
1071
      428
1005
128F3A
  0
LINE
  5
128F3B
  8
OBJECT
 10
10059.092522711881
 20
-1103.9999999999991
 30
0.0
 11
10059.092522711881
 21
-1111.9999999999991
 31
0.0
1001
ACDBBLOCKREPETAG
1070
     1
1071
      429
1005
128F3B
  0
LINE
  5
128F3C
  8
OBJECT
 10
10068.90747728811
 20
-1103.9999999999991
 30
0.0
 11
10068.90747728811
 21
-1111.9999999999991
 31
0.0
1001
ACDBBLOCKREPETAG
1070
     1
1071
      430
1005
128F3C
  0
LINE
  5
128F3D
  8
OBJECT
 10
10073.814954576221
 20
-1103.9999999999991
 30
0.0
 11
10073.814954576221
 21
-1111.9999999999991
 31
0.0
1001
ACDBBLOCKREPETAG
1070
     1
1071
      431
1005
128F3D
  0
LINE
  5
128F3E
  8
OBJECT
 10
8044.5000000000036
 20
-1079.999999999992
 30
0.0
 11
7955.5
 21
-1079.999999999992
 31
0.0
1001
ACDBBLOCKREPETAG
1070
     1
1071
        0
1005
128F3E
  0
LINE
  5
128F3F
  8
OBJECT
 10
7935.0
 20
-869.99999999999216
 30
0.0
 11
7935.0
 21
-769.99999999999204
 31
0.0
1001
ACDBBLOCKREPETAG
1070
     1
1071
        1
1005
128F3F
  0
LINE
  5
128F40
  8
OBJECT
 10
8065.0
 20
-869.99999999999216
 30
0.0
 11
8065.0
 21
-769.99999999999204
 31
0.0
1001
ACDBBLOCKREPETAG
1070
     1
1071
        2
1005
128F40
  0
LINE
  5
128F41
  8
OBJECT
 10
7935.0
 20
-869.99999999999216
 30
0.0
 11
8065.0
 21
-869.99999999999216
 31
0.0
1001
ACDBBLOCKREPETAG
1070
     1
1071
        3
1005
128F41
  0
LINE
  5
128F42
  8
OBJECT
 10
7955.5
 20
-979.99999999999204
 30
0.0
 11
8044.5000000000036
 21
-979.99999999999204
 31
0.0
1001
ACDBBLOCKREPETAG
1070
     1
1071
        4
1005
128F42
  0
LINE
  5
128F43
  8
OBJECT
 10
7955.5
 20
-979.99999999999204
 30
0.0
 11
7955.5
 21
-1079.999999999992
 31
0.0
1001
ACDBBLOCKREPETAG
1070
     1
1071
        5
1005
128F43
  0
LINE
  5
128F44
  8
OBJECT
 10
8044.5000000000036
 20
-979.99999999999204
 30
0.0
 11
8044.5000000000036
 21
-1079.999999999992
 31
0.0
1001
ACDBBLOCKREPETAG
1070
     1
1071
        6
1005
128F44
  0
LINE
  5
128F45
  8
OBJECT
 10
7935.0
 20
-869.99999999999216
 30
0.0
 11
7955.5
 21
-979.99999999999204
 31
0.0
1001
ACDBBLOCKREPETAG
1070
     1
1071
        7
1005
128F45
  0
LINE
  5
128F46
  8
OBJECT
 10
8044.5000000000036
 20
-979.99999999999204
 30
0.0
 11
8065.0
 21
-869.99999999999216
 31
0.0
1001
ACDBBLOCKREPETAG
1070
     1
1071
        8
1005
128F46
  0
LINE
  5
128F47
  8
HIDDEN
 10
7962.5
 20
-979.99999999999204
 30
0.0
 11
7962.5
 21
-1079.999999999992
 31
0.0
1001
ACDBBLOCKREPETAG
1070
     1
1071
        9
1005
128F47
  0
LINE
  5
128F48
  8
HIDDEN
 10
8037.4999999999973
 20
-979.99999999999204
 30
0.0
 11
8037.4999999999973
 21
-1079.999999999992
 31
0.0
1001
ACDBBLOCKREPETAG
1070
     1
1071
       10
1005
128F48
  0
LINE
  5
128F49
  8
CENTER
 10
8000.0
 20
-769.99999999999955
 30
0.0
 11
8000.0
 21
-1094.999999999992
 31
0.0
1001
ACDBBLOCKREPETAG
1070
     1
1071
       11
1005
128F49
  0
LINE
  5
128F4A
  8
OBJECT
 10
6055.9999999999927
 20
-1103.9999999999991
 30
0.0
 11
6055.9999999999927
 21
-1113.9999999999991
 31
0.0
1001
ACDBBLOCKREPETAG
1070
     1
1071
      121
1005
128F4A
  0
LINE
  5
128F4B
  8
OBJECT
 10
5961.75
 20
-1054.699999999996
 30
0.0
 11
5974.25
 21
-1054.699999999996
 31
0.0
1001
ACDBBLOCKREPETAG
1070
     1
1071
      122
1005
128F4B
  0
LINE
  5
128F4C
  8
OBJECT
 10
6073.4999999999927
 20
-1062.7
 30
0.0
 11
6073.4999999999927
 21
-1064.9999999999991
 31
0.0
1001
ACDBBLOCKREPETAG
1070
     1
1071
      123
1005
128F4C
  0
LINE
  5
128F4D
  8
OBJECT
 10
6057.7499999999927
 20
-1054.699999999996
 30
0.0
 11
6070.2499999999927
 21
-1054.699999999996
 31
0.0
1001
ACDBBLOCKREPETAG
1070
     1
1071
      124
1005
128F4D
  0
LINE
  5
128F4E
  8
OBJECT
 10
6054.4999999999927
 20
-1062.7
 30
0.0
 11
6054.4999999999927
 21
-1064.9999999999991
 31
0.0
1001
ACDBBLOCKREPETAG
1070
     1
1071
      125
1005
128F4E
  0
LINE
  5
128F4F
  8
OBJECT
 10
5953.0
 20
-1064.9999999999991
 30
0.0
 11
5953.0
 21
-1062.7
 31
0.0
1001
ACDBBLOCKREPETAG
1070
     1
1071
      126
1005
128F4F
  0
LINE
  5
128F50
  8
OBJECT
 10
5983.0
 20
-1064.9999999999991
 30
0.0
 11
5983.0
 21
-1062.7
 31
0.0
1001
ACDBBLOCKREPETAG
1070
     1
1071
      127
1005
128F50
  0
LINE
  5
128F51
  8
OBJECT
 10
5961.75
 20
-1054.699999999996
 30
0.0
 11
5961.75
 21
-1062.7
 31
0.0
1001
ACDBBLOCKREPETAG
1070
     1
1071
      128
1005
128F51
  0
LINE
  5
128F52
  8
OBJECT
 10
5974.25
 20
-1054.699999999996
 30
0.0
 11
5974.25
 21
-1062.7
 31
0.0
1001
ACDBBLOCKREPETAG
1070
     1
1071
      129
1005
128F52
  0
LINE
  5
128F53
  8
OBJECT
 10
5953.0
 20
-1062.7
 30
0.0
 11
5983.0
 21
-1062.7
 31
0.0
1001
ACDBBLOCKREPETAG
1070
     1
1071
      130
1005
128F53
  0
LINE
  5
128F54
  8
OBJECT
 10
5960.0
 20
-1103.9999999999991
 30
0.0
 11
5960.0
 21
-1113.9999999999991
 31
0.0
1001
ACDBBLOCKREPETAG
1070
     1
1071
      131
1005
128F54
  0
LINE
  5
128F55
  8
OBJECT
 10
5976.0
 20
-1103.9999999999991
 30
0.0
 11
5976.0
 21
-1113.9999999999991
 31
0.0
1001
ACDBBLOCKREPETAG
1070
     1
1071
      132
1005
128F55
  0
LINE
  5
128F56
  8
OBJECT
 10
5960.0
 20
-1113.9999999999991
 30
0.0
 11
5976.0
 21
-1113.9999999999991
 31
0.0
1001
ACDBBLOCKREPETAG
1070
     1
1071
      133
1005
128F56
  0
LINE
  5
128F57
  8
OBJECT
 10
6071.9999999999918
 20
-1103.9999999999991
 30
0.0
 11
6071.9999999999918
 21
-1113.9999999999991
 31
0.0
1001
ACDBBLOCKREPETAG
1070
     1
1071
      134
1005
128F57
  0
LINE
  5
128F58
  8
OBJECT
 10
6071.9999999999918
 20
-1113.9999999999991
 30
0.0
 11
6055.9999999999927
 21
-1113.9999999999991
 31
0.0
1001
ACDBBLOCKREPETAG
1070
     1
1071
      135
1005
128F58
  0
LINE
  5
128F59
  8
OBJECT
 10
5944.9999999999927
 20
-1144.9999999999991
 30
0.0
 11
5944.9999999999927
 21
-1103.9999999999991
 31
0.0
1001
ACDBBLOCKREPETAG
1070
     1
1071
      136
1005
128F59
  0
LINE
  5
128F5A
  8
OBJECT
 10
6054.9999999999918
 20
-1103.9999999999991
 30
0.0
 11
6054.9999999999918
 21
-1144.9999999999991
 31
0.0
1001
ACDBBLOCKREPETAG
1070
     1
1071
      137
1005
128F5A
  0
LINE
  5
128F5B
  8
OBJECT
 10
6070.2499999999927
 20
-1054.699999999996
 30
0.0
 11
6070.2499999999927
 21
-1062.7
 31
0.0
1001
ACDBBLOCKREPETAG
1070
     1
1071
      138
1005
128F5B
  0
LINE
  5
128F5C
  8
OBJECT
 10
6057.7499999999927
 20
-1054.699999999996
 30
0.0
 11
6057.7499999999927
 21
-1062.7
 31
0.0
1001
ACDBBLOCKREPETAG
1070
     1
1071
      139
1005
128F5C
  0
LINE
  5
128F5D
  8
OBJECT
 10
6054.4999999999927
 20
-1062.7
 30
0.0
 11
6073.4999999999927
 21
-1062.7
 31
0.0
1001
ACDBBLOCKREPETAG
1070
     1
1071
      140
1005
128F5D
  0
LINE
  5
128F5E
  8
OBJECT
 10
6054.9999999999918
 20
-1144.9999999999991
 30
0.0
 11
5944.9999999999927
 21
-1144.9999999999991
 31
0.0
1001
ACDBBLOCKREPETAG
1070
     1
1071
      141
1005
128F5E
  0
LINE
  5
128F5F
  8
OBJECT
 10
6075.9999999999927
 20
-1079.9999999999991
 30
0.0
 11
5938.9999999999918
 21
-1079.9999999999991
 31
0.0
1001
ACDBBLOCKREPETAG
1070
     1
1071
      142
1005
128F5F
  0
LINE
  5
128F60
  8
OBJECT
 10
6075.9999999999927
 20
-1079.9999999999991
 30
0.0
 11
6075.9999999999927
 21
-1064.9999999999991
 31
0.0
1001
ACDBBLOCKREPETAG
1070
     1
1071
      143
1005
128F60
  0
LINE
  5
128F61
  8
OBJECT
 10
6075.9999999999927
 20
-1089.9999999999991
 30
0.0
 11
6075.9999999999927
 21
-1103.9999999999991
 31
0.0
1001
ACDBBLOCKREPETAG
1070
     1
1071
      144
1005
128F61
  0
LINE
  5
128F62
  8
OBJECT
 10
6068.9999999999909
 20
-1089.9999999999991
 30
0.0
 11
6068.9999999999909
 21
-1079.9999999999991
 31
0.0
1001
ACDBBLOCKREPETAG
1070
     1
1071
      145
1005
128F62
  0
LINE
  5
128F63
  8
OBJECT
 10
6058.9999999999927
 20
-1089.9999999999991
 30
0.0
 11
6058.9999999999927
 21
-1079.9999999999991
 31
0.0
1001
ACDBBLOCKREPETAG
1070
     1
1071
      146
1005
128F63
  0
LINE
  5
128F64
  8
OBJECT
 10
5938.9999999999918
 20
-1089.9999999999991
 30
0.0
 11
5938.9999999999918
 21
-1103.9999999999991
 31
0.0
1001
ACDBBLOCKREPETAG
1070
     1
1071
      147
1005
128F64
  0
LINE
  5
128F65
  8
OBJECT
 10
5938.9999999999918
 20
-1103.9999999999991
 30
0.0
 11
6075.9999999999927
 21
-1103.9999999999991
 31
0.0
1001
ACDBBLOCKREPETAG
1070
     1
1071
      148
1005
128F65
  0
LINE
  5
128F66
  8
OBJECT
 10
5973.0
 20
-1089.9999999999991
 30
0.0
 11
5973.0
 21
-1079.9999999999991
 31
0.0
1001
ACDBBLOCKREPETAG
1070
     1
1071
      149
1005
128F66
  0
LINE
  5
128F67
  8
OBJECT
 10
5963.0
 20
-1089.9999999999991
 30
0.0
 11
5963.0
 21
-1079.9999999999991
 31
0.0
1001
ACDBBLOCKREPETAG
1070
     1
1071
      150
1005
128F67
  0
LINE
  5
128F68
  8
OBJECT
 10
5938.9999999999918
 20
-1089.9999999999991
 30
0.0
 11
6075.9999999999927
 21
-1089.9999999999991
 31
0.0
1001
ACDBBLOCKREPETAG
1070
     1
1071
      151
1005
128F68
  0
LINE
  5
128F69
  8
OBJECT
 10
5945.9999999999927
 20
-1079.9999999999991
 30
0.0
 11
5945.9999999999927
 21
-1089.9999999999991
 31
0.0
1001
ACDBBLOCKREPETAG
1070
     1
1071
      152
1005
128F69
  0
LINE
  5
128F6A
  8
OBJECT
 10
6053.9999999999927
 20
-1079.9999999999991
 30
0.0
 11
6053.9999999999927
 21
-1089.9999999999991
 31
0.0
1001
ACDBBLOCKREPETAG
1070
     1
1071
      153
1005
128F6A
  0
LINE
  5
128F6B
  8
OBJECT
 10
6044.5
 20
-979.99999999999966
 30
0.0
 11
6065.0
 21
-869.99999999999955
 31
0.0
1001
ACDBBLOCKREPETAG
1070
     1
1071
      154
1005
128F6B
  0
LINE
  5
128F6C
  8
OBJECT
 10
5955.5
 20
-979.99999999999966
 30
0.0
 11
6044.5
 21
-979.99999999999966
 31
0.0
1001
ACDBBLOCKREPETAG
1070
     1
1071
      155
1005
128F6C
  0
LINE
  5
128F6D
  8
OBJECT
 10
5938.9999999999918
 20
-1079.9999999999991
 30
0.0
 11
5938.9999999999918
 21
-1064.9999999999991
 31
0.0
1001
ACDBBLOCKREPETAG
1070
     1
1071
      156
1005
128F6D
  0
LINE
  5
128F6E
  8
OBJECT
 10
5938.9999999999918
 20
-1064.9999999999991
 30
0.0
 11
6075.9999999999927
 21
-1064.9999999999991
 31
0.0
1001
ACDBBLOCKREPETAG
1070
     1
1071
      157
1005
128F6E
  0
LINE
  5
128F6F
  8
OBJECT
 10
5955.5
 20
-979.99999999999966
 30
0.0
 11
5955.5
 21
-1029.9999999999991
 31
0.0
1001
ACDBBLOCKREPETAG
1070
     1
1071
      158
1005
128F6F
  0
LINE
  5
128F70
  8
OBJECT
 10
6044.5
 20
-979.99999999999966
 30
0.0
 11
6044.5
 21
-1029.9999999999991
 31
0.0
1001
ACDBBLOCKREPETAG
1070
     1
1071
      159
1005
128F70
  0
LINE
  5
128F71
  8
OBJECT
 10
5947.0
 20
-1029.9999999999991
 30
0.0
 11
6053.0
 21
-1029.9999999999991
 31
0.0
1001
ACDBBLOCKREPETAG
1070
     1
1071
      160
1005
128F71
  0
LINE
  5
128F72
  8
HIDDEN
 10
5955.5
 20
-1039.9999999999991
 30
0.0
 11
6044.5
 21
-1039.9999999999991
 31
0.0
1001
ACDBBLOCKREPETAG
1070
     1
1071
      161
1005
128F72
  0
LINE
  5
128F73
  8
CENTER
 10
6000.0
 20
-769.99999999999955
 30
0.0
 11
6000.0
 21
-1159.9999999999991
 31
0.0
1001
ACDBBLOCKREPETAG
1070
     1
1071
      162
1005
128F73
  0
LINE
  5
128F74
  8
OBJECT
 10
6065.0
 20
-769.99999999999955
 30
0.0
 11
6065.0
 21
-869.99999999999955
 31
0.0
1001
ACDBBLOCKREPETAG
1070
     1
1071
      163
1005
128F74
  0
LINE
  5
128F75
  8
OBJECT
 10
5935.0
 20
-769.99999999999955
 30
0.0
 11
5935.0
 21
-869.99999999999955
 31
0.0
1001
ACDBBLOCKREPETAG
1070
     1
1071
      164
1005
128F75
  0
LINE
  5
128F76
  8
OBJECT
 10
5955.5
 20
-979.99999999999966
 30
0.0
 11
5935.0
 21
-869.99999999999955
 31
0.0
1001
ACDBBLOCKREPETAG
1070
     1
1071
      165
1005
128F76
  0
LINE
  5
128F77
  8
OBJECT
 10
6065.0
 20
-869.99999999999955
 30
0.0
 11
5935.0
 21
-869.99999999999955
 31
0.0
1001
ACDBBLOCKREPETAG
1070
     1
1071
      166
1005
128F77
  0
LINE
  5
128F78
  8
OBJECT
 10
5947.0
 20
-1029.9999999999991
 30
0.0
 11
5947.0
 21
-1064.9999999999991
 31
0.0
1001
ACDBBLOCKREPETAG
1070
     1
1071
      167
1005
128F78
  0
LINE
  5
128F79
  8
OBJECT
 10
6053.0
 20
-1029.9999999999991
 30
0.0
 11
6053.0
 21
-1064.9999999999991
 31
0.0
1001
ACDBBLOCKREPETAG
1070
     1
1071
      168
1005
128F79
  0
LINE
  5
128F7A
  8
OBJECT
 10
3975.5
 20
-1059.9999999999991
 30
0.0
 11
3958.9999999999918
 21
-1059.9999999999991
 31
0.0
1001
ACDBBLOCKREPETAG
1070
     1
1071
       12
1005
128F7A
  0
LINE
  5
128F7B
  8
OBJECT
 10
3983.0
 20
-1064.9999999999991
 30
0.0
 11
3983.0
 21
-1062.9999999999991
 31
0.0
1001
ACDBBLOCKREPETAG
1070
     1
1071
       13
1005
128F7B
  0
LINE
  5
128F7C
  8
OBJECT
 10
4075.9999999999918
 20
-1079.9999999999991
 30
0.0
 11
3938.9999999999932
 21
-1079.9999999999991
 31
0.0
1001
ACDBBLOCKREPETAG
1070
     1
1071
       14
1005
128F7C
  0
LINE
  5
128F7D
  8
OBJECT
 10
4075.9999999999918
 20
-1079.9999999999991
 30
0.0
 11
4075.9999999999918
 21
-1064.9999999999991
 31
0.0
1001
ACDBBLOCKREPETAG
1070
     1
1071
       15
1005
128F7D
  0
LINE
  5
128F7E
  8
OBJECT
 10
4075.9999999999918
 20
-1089.9999999999991
 30
0.0
 11
4075.9999999999918
 21
-1103.9999999999991
 31
0.0
1001
ACDBBLOCKREPETAG
1070
     1
1071
       16
1005
128F7E
  0
LINE
  5
128F7F
  8
OBJECT
 10
4068.9999999999918
 20
-1089.9999999999991
 30
0.0
 11
4068.9999999999918
 21
-1079.9999999999991
 31
0.0
1001
ACDBBLOCKREPETAG
1070
     1
1071
       17
1005
128F7F
  0
LINE
  5
128F80
  8
OBJECT
 10
4058.9999999999932
 20
-1089.9999999999991
 30
0.0
 11
4058.9999999999932
 21
-1079.9999999999991
 31
0.0
1001
ACDBBLOCKREPETAG
1070
     1
1071
       18
1005
128F80
  0
LINE
  5
128F81
  8
OBJECT
 10
3938.9999999999932
 20
-1089.9999999999991
 30
0.0
 11
3938.9999999999932
 21
-1103.9999999999991
 31
0.0
1001
ACDBBLOCKREPETAG
1070
     1
1071
       19
1005
128F81
  0
LINE
  5
128F82
  8
OBJECT
 10
3938.9999999999932
 20
-1103.9999999999991
 30
0.0
 11
4075.9999999999918
 21
-1103.9999999999991
 31
0.0
1001
ACDBBLOCKREPETAG
1070
     1
1071
       20
1005
128F82
  0
LINE
  5
128F83
  8
OBJECT
 10
3973.0
 20
-1089.9999999999991
 30
0.0
 11
3973.0
 21
-1079.9999999999991
 31
0.0
1001
ACDBBLOCKREPETAG
1070
     1
1071
       21
1005
128F83
  0
LINE
  5
128F84
  8
OBJECT
 10
3963.0
 20
-1089.9999999999991
 30
0.0
 11
3963.0
 21
-1079.9999999999991
 31
0.0
1001
ACDBBLOCKREPETAG
1070
     1
1071
       22
1005
128F84
  0
LINE
  5
128F85
  8
OBJECT
 10
3938.9999999999932
 20
-1089.9999999999991
 30
0.0
 11
4075.9999999999918
 21
-1089.9999999999991
 31
0.0
1001
ACDBBLOCKREPETAG
1070
     1
1071
       23
1005
128F85
  0
LINE
  5
128F86
  8
OBJECT
 10
3958.9999999999918
 20
-1059.9999999999991
 30
0.0
 11
3958.9999999999918
 21
-1064.9999999999991
 31
0.0
1001
ACDBBLOCKREPETAG
1070
     1
1071
       24
1005
128F86
  0
LINE
  5
128F87
  8
OBJECT
 10
3963.0
 20
-1111.9999999999991
 30
0.0
 11
3963.0
 21
-1114.9999999999991
 31
0.0
1001
ACDBBLOCKREPETAG
1070
     1
1071
       25
1005
128F87
  0
LINE
  5
128F88
  8
OBJECT
 10
3963.0
 20
-1114.9999999999991
 30
0.0
 11
3973.0
 21
-1114.9999999999991
 31
0.0
1001
ACDBBLOCKREPETAG
1070
     1
1071
       26
1005
128F88
  0
LINE
  5
128F89
  8
OBJECT
 10
3973.0
 20
-1114.9999999999991
 30
0.0
 11
3973.0
 21
-1111.9999999999991
 31
0.0
1001
ACDBBLOCKREPETAG
1070
     1
1071
       28
1005
128F89
  0
LINE
  5
128F8A
  8
OBJECT
 10
3945.9999999999932
 20
-1079.9999999999991
 30
0.0
 11
3945.9999999999932
 21
-1089.9999999999991
 31
0.0
1001
ACDBBLOCKREPETAG
1070
     1
1071
       29
1005
128F8A
  0
LINE
  5
128F8B
  8
OBJECT
 10
4053.9999999999941
 20
-1079.9999999999991
 30
0.0
 11
4053.9999999999941
 21
-1089.9999999999991
 31
0.0
1001
ACDBBLOCKREPETAG
1070
     1
1071
       30
1005
128F8B
  0
LINE
  5
128F8C
  8
OBJECT
 10
4044.5
 20
-979.99999999999966
 30
0.0
 11
4065.0
 21
-869.99999999999955
 31
0.0
1001
ACDBBLOCKREPETAG
1070
     1
1071
       31
1005
128F8C
  0
LINE
  5
128F8D
  8
OBJECT
 10
3955.5
 20
-979.99999999999966
 30
0.0
 11
4044.5
 21
-979.99999999999966
 31
0.0
1001
ACDBBLOCKREPETAG
1070
     1
1071
       32
1005
128F8D
  0
LINE
  5
128F8E
  8
OBJECT
 10
3938.9999999999932
 20
-1079.9999999999991
 30
0.0
 11
3938.9999999999932
 21
-1064.9999999999991
 31
0.0
1001
ACDBBLOCKREPETAG
1070
     1
1071
       33
1005
128F8E
  0
LINE
  5
128F8F
  8
OBJECT
 10
3938.9999999999932
 20
-1064.9999999999991
 30
0.0
 11
4075.9999999999918
 21
-1064.9999999999991
 31
0.0
1001
ACDBBLOCKREPETAG
1070
     1
1071
       34
1005
128F8F
  0
LINE
  5
128F90
  8
OBJECT
 10
3955.5
 20
-979.99999999999966
 30
0.0
 11
3955.5
 21
-1029.9999999999991
 31
0.0
1001
ACDBBLOCKREPETAG
1070
     1
1071
       35
1005
128F90
  0
LINE
  5
128F91
  8
OBJECT
 10
4044.5
 20
-979.99999999999966
 30
0.0
 11
4044.5
 21
-1029.9999999999991
 31
0.0
1001
ACDBBLOCKREPETAG
1070
     1
1071
       36
1005
128F91
  0
LINE
  5
128F92
  8
OBJECT
 10
3947.0
 20
-1029.9999999999991
 30
0.0
 11
4053.0
 21
-1029.9999999999991
 31
0.0
1001
ACDBBLOCKREPETAG
1070
     1
1071
       37
1005
128F92
  0
LINE
  5
128F93
  8
OBJECT
 10
4054.9999999999841
 20
-1059.9999999999991
 30
0.0
 11
4054.9999999999841
 21
-1064.9999999999991
 31
0.0
1001
ACDBBLOCKREPETAG
1070
     1
1071
       38
1005
128F93
  0
LINE
  5
128F94
  8
OBJECT
 10
4073.0
 20
-1059.9999999999991
 30
0.0
 11
4073.0
 21
-1064.9999999999991
 31
0.0
1001
ACDBBLOCKREPETAG
1070
     1
1071
       39
1005
128F94
  0
LINE
  5
128F95
  8
OBJECT
 10
4073.0
 20
-1059.9999999999991
 30
0.0
 11
4054.9999999999841
 21
-1059.9999999999991
 31
0.0
1001
ACDBBLOCKREPETAG
1070
     1
1071
       40
1005
128F95
  0
LINE
  5
128F96
  8
HIDDEN
 10
3955.5
 20
-1039.9999999999991
 30
0.0
 11
4044.5
 21
-1039.9999999999991
 31
0.0
1001
ACDBBLOCKREPETAG
1070
     1
1071
       41
1005
128F96
  0
LINE
  5
128F97
  8
CENTER
 10
4000.0
 20
-769.99999999999955
 30
0.0
 11
4000.0
 21
-1118.9999999999991
 31
0.0
1001
ACDBBLOCKREPETAG
1070
     1
1071
       42
1005
128F97
  0
LINE
  5
128F98
  8
OBJECT
 10
4065.0
 20
-769.99999999999955
 30
0.0
 11
4065.0
 21
-869.99999999999955
 31
0.0
1001
ACDBBLOCKREPETAG
1070
     1
1071
       43
1005
128F98
  0
LINE
  5
128F99
  8
OBJECT
 10
3935.0
 20
-769.99999999999955
 30
0.0
 11
3935.0
 21
-869.99999999999955
 31
0.0
1001
ACDBBLOCKREPETAG
1070
     1
1071
       44
1005
128F99
  0
LINE
  5
128F9A
  8
OBJECT
 10
3955.5
 20
-979.99999999999966
 30
0.0
 11
3935.0
 21
-869.99999999999955
 31
0.0
1001
ACDBBLOCKREPETAG
1070
     1
1071
       45
1005
128F9A
  0
LINE
  5
128F9B
  8
OBJECT
 10
4065.0
 20
-869.99999999999955
 30
0.0
 11
3935.0
 21
-869.99999999999955
 31
0.0
1001
ACDBBLOCKREPETAG
1070
     1
1071
       46
1005
128F9B
  0
LINE
  5
128F9C
  8
OBJECT
 10
3947.0
 20
-1029.9999999999991
 30
0.0
 11
3947.0
 21
-1064.9999999999991
 31
0.0
1001
ACDBBLOCKREPETAG
1070
     1
1071
       47
1005
128F9C
  0
LINE
  5
128F9D
  8
OBJECT
 10
4053.0
 20
-1029.9999999999991
 30
0.0
 11
4053.0
 21
-1064.9999999999991
 31
0.0
1001
ACDBBLOCKREPETAG
1070
     1
1071
       48
1005
128F9D
  0
LINE
  5
128F9E
  8
OBJECT
 10
3983.0
 20
-1062.9999999999991
 30
0.0
 11
3975.5
 21
-1059.9999999999991
 31
0.0
1001
ACDBBLOCKREPETAG
1070
     1
1071
       49
1005
128F9E
  0
LINE
  5
128F9F
  8
OBJECT
 10
4059.0
 20
-1111.9999999999991
 30
0.0
 11
4059.0
 21
-1114.9999999999991
 31
0.0
1001
ACDBBLOCKREPETAG
1070
     1
1071
       54
1005
128F9F
  0
LINE
  5
128FA0
  8
OBJECT
 10
4059.0
 20
-1114.9999999999991
 30
0.0
 11
4069.0
 21
-1114.9999999999991
 31
0.0
1001
ACDBBLOCKREPETAG
1070
     1
1071
       55
1005
128FA0
  0
LINE
  5
128FA1
  8
OBJECT
 10
4069.0
 20
-1114.9999999999991
 30
0.0
 11
4069.0
 21
-1111.9999999999991
 31
0.0
1001
ACDBBLOCKREPETAG
1070
     1
1071
       57
1005
128FA1
  0
LINE
  5
128FA2
  8
OBJECT
 10
3958.185045423772
 20
-1111.9999999999991
 30
0.0
 11
3977.8149545762212
 21
-1111.9999999999991
 31
0.0
1001
ACDBBLOCKREPETAG
1070
     1
1071
      422
1005
128FA2
  0
LINE
  5
128FA3
  8
OBJECT
 10
3958.185045423777
 20
-1103.9999999999991
 30
0.0
 11
3958.185045423777
 21
-1111.9999999999991
 31
0.0
1001
ACDBBLOCKREPETAG
1070
     1
1071
      423
1005
128FA3
  0
LINE
  5
128FA4
  8
OBJECT
 10
3963.0925227118892
 20
-1103.9999999999991
 30
0.0
 11
3963.0925227118892
 21
-1111.9999999999991
 31
0.0
1001
ACDBBLOCKREPETAG
1070
     1
1071
      424
1005
128FA4
  0
LINE
  5
128FA5
  8
OBJECT
 10
3972.9074772881122
 20
-1103.9999999999991
 30
0.0
 11
3972.9074772881122
 21
-1111.9999999999991
 31
0.0
1001
ACDBBLOCKREPETAG
1070
     1
1071
      425
1005
128FA5
  0
LINE
  5
128FA6
  8
OBJECT
 10
3977.814954576223
 20
-1103.9999999999991
 30
0.0
 11
3977.814954576223
 21
-1111.9999999999991
 31
0.0
1001
ACDBBLOCKREPETAG
1070
     1
1071
      426
1005
128FA6
  0
LINE
  5
128FA7
  8
OBJECT
 10
4054.1850454237701
 20
-1111.9999999999991
 30
0.0
 11
4073.8149545762199
 21
-1111.9999999999991
 31
0.0
1001
ACDBBLOCKREPETAG
1070
     1
1071
      427
1005
128FA7
  0
LINE
  5
128FA8
  8
OBJECT
 10
4054.185045423777
 20
-1103.9999999999991
 30
0.0
 11
4054.185045423777
 21
-1111.9999999999991
 31
0.0
1001
ACDBBLOCKREPETAG
1070
     1
1071
      428
1005
128FA8
  0
LINE
  5
128FA9
  8
OBJECT
 10
4059.0925227118878
 20
-1103.9999999999991
 30
0.0
 11
4059.0925227118878
 21
-1111.9999999999991
 31
0.0
1001
ACDBBLOCKREPETAG
1070
     1
1071
      429
1005
128FA9
  0
LINE
  5
128FAA
  8
OBJECT
 10
4068.9074772881122
 20
-1103.9999999999991
 30
0.0
 11
4068.9074772881122
 21
-1111.9999999999991
 31
0.0
1001
ACDBBLOCKREPETAG
1070
     1
1071
      430
1005
128FAA
  0
LINE
  5
128FAB
  8
OBJECT
 10
4073.814954576223
 20
-1103.9999999999991
 30
0.0
 11
4073.814954576223
 21
-1111.9999999999991
 31
0.0
1001
ACDBBLOCKREPETAG
1070
     1
1071
      431
1005
128FAB
  0
LINE
  5
128FAC
  8
CENTER
 10
11924.0
 20
-1394.9999999999991
 30
0.0
 11
12091.0
 21
-1394.9999999999991
 31
0.0
1001
ACDBBLOCKREPETAG
1070
     1
1071
       22
1005
128FAC
  0
LINE
  5
128FAD
  8
CENTER
 10
12000.0
 20
-1318.0518385105161
 30
0.0
 11
12000.0
 21
-1471.948161489478
 31
0.0
1001
ACDBBLOCKREPETAG
1070
     1
1071
       23
1005
128FAD
  0
CIRCLE
  5
128FAE
  8
OBJECT
 10
12000.0
 20
-1394.9999999999991
 30
0.0
 40
37.5
1001
ACDBBLOCKREPETAG
1070
     1
1071
       24
1005
128FAE
  0
CIRCLE
  5
128FAF
  8
OBJECT
 10
12000.0
 20
-1394.9999999999991
 30
0.0
 40
47.5
1001
ACDBBLOCKREPETAG
1070
     1
1071
       25
1005
128FAF
  0
ARC
  5
128FB0
  8
OBJECT
 10
12000.0
 20
-1394.9999999999991
 30
0.0
 40
61.0
 50
40.03737312998139
 51
79.962626870012684
1001
ACDBBLOCKREPETAG
1070
     1
1071
       26
1005
128FB0
  0
ARC
  5
128FB1
  8
OBJECT
 10
12000.0
 20
-1394.9999999999991
 30
0.0
 40
61.0
 50
160.03737312997501
 51
199.96262687002491
1001
ACDBBLOCKREPETAG
1070
     1
1071
       27
1005
128FB1
  0
ARC
  5
128FB2
  8
OBJECT
 10
12000.0
 20
-1394.9999999999991
 30
0.0
 40
61.0
 50
280.03737312998732
 51
319.9626268700186
1001
ACDBBLOCKREPETAG
1070
     1
1071
       28
1005
128FB2
  0
ARC
  5
128FB3
  8
OBJECT
 10
12064.0
 20
-1394.9999999999991
 30
0.0
 40
12.0
 50
319.9626268700186
 51
40.03737312998139
1001
ACDBBLOCKREPETAG
1070
     1
1071
       29
1005
128FB3
  0
LINE
  5
128FB4
  8
OBJECT
 10
12046.703125
 20
-1355.7594837542299
 30
0.0
 11
12073.1875
 21
-1387.2805541811599
 31
0.0
1001
ACDBBLOCKREPETAG
1070
     1
1071
       30
1005
128FB4
  0
LINE
  5
128FB5
  8
OBJECT
 10
12046.703125
 20
-1434.240516245768
 30
0.0
 11
12073.1875
 21
-1402.719445818838
 31
0.0
1001
ACDBBLOCKREPETAG
1070
     1
1071
       31
1005
128FB5
  0
CIRCLE
  5
128FB6
  8
OBJECT
 10
12000.0
 20
-1394.9999999999991
 30
0.0
 40
55.0
1001
ACDBBLOCKREPETAG
1070
     1
1071
       32
1005
128FB6
  0
ARC
  5
128FB7
  8
OBJECT
 10
12064.0
 20
-1394.9999999999991
 30
0.0
 40
12.0
 50
271.2434956101261
 51
88.756504389873882
1001
ACDBBLOCKREPETAG
1070
     1
1071
       33
1005
128FB7
  0
ARC
  5
128FB8
  8
OBJECT
 10
12064.5859375
 20
-1368.0063585775049
 30
0.0
 40
15.0
 50
202.68245018366949
 51
268.7565043898739
1001
ACDBBLOCKREPETAG
1070
     1
1071
       34
1005
128FB8
  0
CIRCLE
  5
128FB9
  8
SLIM
 10
12064.0
 20
-1394.9999999999991
 30
0.0
 40
8.0
1001
ACDBBLOCKREPETAG
1070
     1
1071
       35
1005
128FB9
  0
POLYLINE
  5
128FBA
  8
SLIM
 66
     1
 10
0.0
 20
0.0
 30
0.0
 70
     1
1001
ACDBBLOCKREPETAG
1070
     1
1071
       36
1005
128FBA
  0
VERTEX
  5
1292BA
  8
SLIM
 10
12061.69059892324
 20
-1390.9999999999991
 30
0.0
  0
VERTEX
  5
1292BB
  8
SLIM
 10
12059.38119784648
 20
-1394.9999999999991
 30
0.0
  0
VERTEX
  5
1292BC
  8
SLIM
 10
12061.69059892324
 20
-1398.9999999999991
 30
0.0
  0
VERTEX
  5
1292BD
  8
SLIM
 10
12066.30940107676
 20
-1398.9999999999991
 30
0.0
  0
VERTEX
  5
1292BE
  8
SLIM
 10
12068.618802153511
 20
-1394.9999999999991
 30
0.0
  0
VERTEX
  5
1292BF
  8
SLIM
 10
12066.30940107676
 20
-1390.9999999999991
 30
0.0
  0
SEQEND
  5
1292C0
  8
SLIM
  0
ARC
  5
128FBB
  8
OBJECT
 10
12064.5859375
 20
-1421.993641422489
 30
0.0
 40
15.0
 50
91.243495610126089
 51
157.3175498163304
1001
ACDBBLOCKREPETAG
1070
     1
1071
       37
1005
128FBB
  0
ARC
  5
128FBC
  8
OBJECT
 10
11968.0
 20
-1339.5743741577919
 30
0.0
 40
12.0
 50
79.962626870012684
 51
160.03737312997501
1001
ACDBBLOCKREPETAG
1070
     1
1071
       38
1005
128FBC
  0
LINE
  5
128FBD
  8
OBJECT
 10
11942.665153573549
 20
-1374.1741654367599
 30
0.0
 11
11956.721013817751
 21
-1335.477488669944
 31
0.0
1001
ACDBBLOCKREPETAG
1070
     1
1071
       39
1005
128FBD
  0
LINE
  5
128FBE
  8
OBJECT
 10
12010.631721426451
 20
-1334.9336491909951
 30
0.0
 11
11970.091486182249
 21
-1327.7580428511051
 31
0.0
1001
ACDBBLOCKREPETAG
1070
     1
1071
       40
1005
128FBE
  0
ARC
  5
128FBF
  8
OBJECT
 10
11968.0
 20
-1339.5743741577919
 30
0.0
 40
12.0
 50
31.243495610056922
 51
208.7565043898139
1001
ACDBBLOCKREPETAG
1070
     1
1071
       41
1005
128FBF
  0
ARC
  5
128FC0
  8
OBJECT
 10
11944.32985203747
 20
-1352.5637581090109
 30
0.0
 40
15.0
 50
322.68245018387239
 51
28.756504389813902
1001
ACDBBLOCKREPETAG
1070
     1
1071
       42
1005
128FC0
  0
CIRCLE
  5
128FC1
  8
SLIM
 10
11968.0
 20
-1339.5743741577919
 30
0.0
 40
7.9999999999999982
1001
ACDBBLOCKREPETAG
1070
     1
1071
       43
1005
128FC1
  0
POLYLINE
  5
128FC2
  8
SLIM
 66
     1
 10
0.0
 20
0.0
 30
0.0
 70
     1
1001
ACDBBLOCKREPETAG
1070
     1
1071
       44
1005
128FC2
  0
VERTEX
  5
1292C1
  8
SLIM
 10
11965.69059892324
 20
-1343.574374157796
 30
0.0
  0
VERTEX
  5
1292C2
  8
SLIM
 10
11970.30940107676
 20
-1343.574374157793
 30
0.0
  0
VERTEX
  5
1292C3
  8
SLIM
 10
11972.618802153511
 20
-1339.574374157796
 30
0.0
  0
VERTEX
  5
1292C4
  8
SLIM
 10
11970.309401076751
 20
-1335.574374157793
 30
0.0
  0
VERTEX
  5
1292C5
  8
SLIM
 10
11965.69059892324
 20
-1335.574374157796
 30
0.0
  0
VERTEX
  5
1292C6
  8
SLIM
 10
11963.38119784648
 20
-1339.5743741577919
 30
0.0
  0
SEQEND
  5
1292C7
  8
SLIM
  0
ARC
  5
128FC3
  8
OBJECT
 10
11991.084210462521
 20
-1325.5701166865169
 30
0.0
 40
15.0
 50
211.2434956100569
 51
277.31754981622862
1001
ACDBBLOCKREPETAG
1070
     1
1071
       45
1005
128FC3
  0
ARC
  5
128FC4
  8
OBJECT
 10
11968.0
 20
-1450.425625842202
 30
0.0
 40
12.0
 50
199.96262687002491
 51
280.03737312998732
1001
ACDBBLOCKREPETAG
1070
     1
1071
       46
1005
128FC4
  0
LINE
  5
128FC5
  8
OBJECT
 10
12010.631721426451
 20
-1455.0663508090031
 30
0.0
 11
11970.091486182249
 21
-1462.241957148892
 31
0.0
1001
ACDBBLOCKREPETAG
1070
     1
1071
       47
1005
128FC5
  0
LINE
  5
128FC6
  8
OBJECT
 10
11942.665153573549
 20
-1415.8258345632339
 30
0.0
 11
11956.721013817751
 21
-1454.5225113300539
 31
0.0
1001
ACDBBLOCKREPETAG
1070
     1
1071
       48
1005
128FC6
  0
ARC
  5
128FC7
  8
OBJECT
 10
11968.0
 20
-1450.425625842202
 30
0.0
 40
12.0
 50
151.2434956101861
 51
328.75650438994307
1001
ACDBBLOCKREPETAG
1070
     1
1071
       49
1005
128FC7
  0
ARC
  5
128FC8
  8
OBJECT
 10
11991.084210462521
 20
-1464.4298833134769
 30
0.0
 40
15.0
 50
82.682450183771394
 51
148.75650438994299
1001
ACDBBLOCKREPETAG
1070
     1
1071
       50
1005
128FC8
  0
CIRCLE
  5
128FC9
  8
SLIM
 10
11968.0
 20
-1450.425625842202
 30
0.0
 40
8.0
1001
ACDBBLOCKREPETAG
1070
     1
1071
       51
1005
128FC9
  0
POLYLINE
  5
128FCA
  8
SLIM
 66
     1
 10
0.0
 20
0.0
 30
0.0
 70
     1
1001
ACDBBLOCKREPETAG
1070
     1
1071
       52
1005
128FCA
  0
VERTEX
  5
1292C8
  8
SLIM
 10
11972.618802153511
 20
-1450.425625842202
 30
0.0
  0
VERTEX
  5
1292C9
  8
SLIM
 10
11970.309401076751
 20
-1446.425625842202
 30
0.0
  0
VERTEX
  5
1292CA
  8
SLIM
 10
11965.69059892324
 20
-1446.425625842202
 30
0.0
  0
VERTEX
  5
1292CB
  8
SLIM
 10
11963.38119784648
 20
-1450.425625842202
 30
0.0
  0
VERTEX
  5
1292CC
  8
SLIM
 10
11965.69059892324
 20
-1454.425625842202
 30
0.0
  0
VERTEX
  5
1292CD
  8
SLIM
 10
11970.309401076751
 20
-1454.425625842202
 30
0.0
  0
SEQEND
  5
1292CE
  8
SLIM
  0
ARC
  5
128FCB
  8
OBJECT
 10
11944.32985203747
 20
-1437.436241890987
 30
0.0
 40
15.0
 50
331.24349561018607
 51
37.317549816127681
1001
ACDBBLOCKREPETAG
1070
     1
1071
       53
1005
128FCB
  0
LINE
  5
128FCC
  8
CENTER
 10
9924.0
 20
-1353.9999999999959
 30
0.0
 11
10091.0
 21
-1353.9999999999959
 31
0.0
1001
ACDBBLOCKREPETAG
1070
     1
1071
        0
1005
128FCC
  0
LINE
  5
128FCD
  8
CENTER
 10
10000.0
 20
-1277.0518385105131
 30
0.0
 11
10000.0
 21
-1430.9481614894751
 31
0.0
1001
ACDBBLOCKREPETAG
1070
     1
1071
        1
1005
128FCD
  0
CIRCLE
  5
128FCE
  8
OBJECT
 10
10000.0
 20
-1353.9999999999959
 30
0.0
 40
37.5
1001
ACDBBLOCKREPETAG
1070
     1
1071
        2
1005
128FCE
  0
CIRCLE
  5
128FCF
  8
OBJECT
 10
10000.0
 20
-1353.9999999999959
 30
0.0
 40
49.5
1001
ACDBBLOCKREPETAG
1070
     1
1071
        3
1005
128FCF
  0
ARC
  5
128FD0
  8
OBJECT
 10
10000.0
 20
-1353.9999999999959
 30
0.0
 40
61.0
 50
40.03737312998139
 51
79.962626870012684
1001
ACDBBLOCKREPETAG
1070
     1
1071
        4
1005
128FD0
  0
ARC
  5
128FD1
  8
OBJECT
 10
10000.0
 20
-1353.9999999999959
 30
0.0
 40
61.0
 50
160.03737312997501
 51
199.96262687002491
1001
ACDBBLOCKREPETAG
1070
     1
1071
        5
1005
128FD1
  0
ARC
  5
128FD2
  8
OBJECT
 10
10000.0
 20
-1353.9999999999959
 30
0.0
 40
61.0
 50
280.03737312998732
 51
319.9626268700186
1001
ACDBBLOCKREPETAG
1070
     1
1071
        6
1005
128FD2
  0
CIRCLE
  5
128FD3
  8
SLIM
 10
10064.0
 20
-1353.9999999999959
 30
0.0
 40
5.0
1001
ACDBBLOCKREPETAG
1070
     1
1071
        7
1005
128FD3
  0
ARC
  5
128FD4
  8
OBJECT
 10
10064.0
 20
-1353.9999999999959
 30
0.0
 40
12.0
 50
319.9626268700186
 51
40.03737312998139
1001
ACDBBLOCKREPETAG
1070
     1
1071
        8
1005
128FD4
  0
LINE
  5
128FD5
  8
OBJECT
 10
10046.703125
 20
-1314.7594837542269
 30
0.0
 11
10073.1875
 21
-1346.280554181157
 31
0.0
1001
ACDBBLOCKREPETAG
1070
     1
1071
        9
1005
128FD5
  0
LINE
  5
128FD6
  8
OBJECT
 10
10046.703125
 20
-1393.2405162457651
 30
0.0
 11
10073.1875
 21
-1361.7194458188351
 31
0.0
1001
ACDBBLOCKREPETAG
1070
     1
1071
       10
1005
128FD6
  0
POLYLINE
  5
128FD7
  8
SLIM
 66
     1
 10
0.0
 20
0.0
 30
0.0
 70
     1
1001
ACDBBLOCKREPETAG
1070
     1
1071
       11
1005
128FD7
  0
VERTEX
  5
1292CF
  8
SLIM
 10
10059.092522711881
 20
-1345.4999999999959
 30
0.0
  0
VERTEX
  5
1292D0
  8
SLIM
 10
10054.18504542377
 20
-1353.9999999999959
 30
0.0
  0
VERTEX
  5
1292D1
  8
SLIM
 10
10059.092522711881
 20
-1362.4999999999959
 30
0.0
  0
VERTEX
  5
1292D2
  8
SLIM
 10
10068.907477288099
 20
-1362.4999999999959
 30
0.0
  0
VERTEX
  5
1292D3
  8
SLIM
 10
10073.814954576221
 20
-1353.9999999999959
 30
0.0
  0
VERTEX
  5
1292D4
  8
SLIM
 10
10068.907477288099
 20
-1345.4999999999959
 30
0.0
  0
SEQEND
  5
1292D5
  8
SLIM
  0
CIRCLE
  5
128FD8
  8
SLIM
 10
9968.0
 20
-1298.574374157789
 30
0.0
 40
4.9999999999999991
1001
ACDBBLOCKREPETAG
1070
     1
1071
       12
1005
128FD8
  0
ARC
  5
128FD9
  8
OBJECT
 10
9968.0
 20
-1298.574374157789
 30
0.0
 40
12.0
 50
79.962626870012684
 51
160.03737312997501
1001
ACDBBLOCKREPETAG
1070
     1
1071
       13
1005
128FD9
  0
LINE
  5
128FDA
  8
OBJECT
 10
9942.6651535735436
 20
-1333.174165436757
 30
0.0
 11
9956.7210138177488
 21
-1294.4774886699411
 31
0.0
1001
ACDBBLOCKREPETAG
1070
     1
1071
       14
1005
128FDA
  0
LINE
  5
128FDB
  8
OBJECT
 10
10010.631721426451
 20
-1293.9336491909919
 30
0.0
 11
9970.091486182253
 21
-1286.7580428511019
 31
0.0
1001
ACDBBLOCKREPETAG
1070
     1
1071
       15
1005
128FDB
  0
POLYLINE
  5
128FDC
  8
SLIM
 66
     1
 10
0.0
 20
0.0
 30
0.0
 70
     1
1001
ACDBBLOCKREPETAG
1070
     1
1071
       16
1005
128FDC
  0
VERTEX
  5
1292D6
  8
SLIM
 10
9963.0925227118896
 20
-1307.074374157789
 30
0.0
  0
VERTEX
  5
1292D7
  8
SLIM
 10
9972.9074772881177
 20
-1307.074374157793
 30
0.0
  0
VERTEX
  5
1292D8
  8
SLIM
 10
9977.814954576219
 20
-1298.574374157789
 30
0.0
  0
VERTEX
  5
1292D9
  8
SLIM
 10
9972.9074772881177
 20
-1290.074374157793
 30
0.0
  0
VERTEX
  5
1292DA
  8
SLIM
 10
9963.0925227118896
 20
-1290.074374157789
 30
0.0
  0
VERTEX
  5
1292DB
  8
SLIM
 10
9958.1850454237738
 20
-1298.574374157793
 30
0.0
  0
SEQEND
  5
1292DC
  8
SLIM
  0
CIRCLE
  5
128FDD
  8
SLIM
 10
9968.0
 20
-1409.425625842199
 30
0.0
 40
5.0
1001
ACDBBLOCKREPETAG
1070
     1
1071
       17
1005
128FDD
  0
ARC
  5
128FDE
  8
OBJECT
 10
9968.0
 20
-1409.425625842199
 30
0.0
 40
12.0
 50
199.96262687002491
 51
280.03737312998732
1001
ACDBBLOCKREPETAG
1070
     1
1071
       18
1005
128FDE
  0
LINE
  5
128FDF
  8
OBJECT
 10
10010.631721426451
 20
-1414.066350808999
 30
0.0
 11
9970.091486182253
 21
-1421.241957148889
 31
0.0
1001
ACDBBLOCKREPETAG
1070
     1
1071
       19
1005
128FDF
  0
LINE
  5
128FE0
  8
OBJECT
 10
9942.6651535735436
 20
-1374.825834563231
 30
0.0
 11
9956.7210138177488
 21
-1413.5225113300501
 31
0.0
1001
ACDBBLOCKREPETAG
1070
     1
1071
       20
1005
128FE0
  0
POLYLINE
  5
128FE1
  8
SLIM
 66
     1
 10
0.0
 20
0.0
 30
0.0
 70
     1
1001
ACDBBLOCKREPETAG
1070
     1
1071
       21
1005
128FE1
  0
VERTEX
  5
1292DD
  8
SLIM
 10
9977.814954576219
 20
-1409.425625842199
 30
0.0
  0
VERTEX
  5
1292DE
  8
SLIM
 10
9972.9074772881049
 20
-1400.925625842199
 30
0.0
  0
VERTEX
  5
1292DF
  8
SLIM
 10
9963.0925227118896
 20
-1400.925625842199
 30
0.0
  0
VERTEX
  5
1292E0
  8
SLIM
 10
9958.1850454237738
 20
-1409.425625842199
 30
0.0
  0
VERTEX
  5
1292E1
  8
SLIM
 10
9963.0925227118896
 20
-1417.925625842199
 30
0.0
  0
VERTEX
  5
1292E2
  8
SLIM
 10
9972.9074772881177
 20
-1417.925625842199
 30
0.0
  0
SEQEND
  5
1292E3
  8
SLIM
  0
LINE
  5
128FE2
  8
CENTER
 10
5924.0
 20
-1394.9999999999991
 30
0.0
 11
6091.0
 21
-1394.9999999999991
 31
0.0
1001
ACDBBLOCKREPETAG
1070
     1
1071
       22
1005
128FE2
  0
LINE
  5
128FE3
  8
CENTER
 10
6000.0
 20
-1318.0518385105161
 30
0.0
 11
6000.0
 21
-1471.948161489478
 31
0.0
1001
ACDBBLOCKREPETAG
1070
     1
1071
       23
1005
128FE3
  0
CIRCLE
  5
128FE4
  8
OBJECT
 10
6000.0
 20
-1394.9999999999991
 30
0.0
 40
37.5
1001
ACDBBLOCKREPETAG
1070
     1
1071
       24
1005
128FE4
  0
CIRCLE
  5
128FE5
  8
OBJECT
 10
6000.0
 20
-1394.9999999999991
 30
0.0
 40
47.5
1001
ACDBBLOCKREPETAG
1070
     1
1071
       25
1005
128FE5
  0
ARC
  5
128FE6
  8
OBJECT
 10
6000.0
 20
-1394.9999999999991
 30
0.0
 40
61.0
 50
40.03737312998139
 51
79.962626870012684
1001
ACDBBLOCKREPETAG
1070
     1
1071
       26
1005
128FE6
  0
ARC
  5
128FE7
  8
OBJECT
 10
6000.0
 20
-1394.9999999999991
 30
0.0
 40
61.0
 50
160.03737312997501
 51
199.96262687002491
1001
ACDBBLOCKREPETAG
1070
     1
1071
       27
1005
128FE7
  0
ARC
  5
128FE8
  8
OBJECT
 10
6000.0
 20
-1394.9999999999991
 30
0.0
 40
61.0
 50
280.03737312998732
 51
319.9626268700186
1001
ACDBBLOCKREPETAG
1070
     1
1071
       28
1005
128FE8
  0
ARC
  5
128FE9
  8
OBJECT
 10
6064.0
 20
-1394.9999999999991
 30
0.0
 40
12.0
 50
319.9626268700186
 51
40.03737312998139
1001
ACDBBLOCKREPETAG
1070
     1
1071
       29
1005
128FE9
  0
LINE
  5
128FEA
  8
OBJECT
 10
6046.703125
 20
-1355.7594837542299
 30
0.0
 11
6073.1875
 21
-1387.2805541811599
 31
0.0
1001
ACDBBLOCKREPETAG
1070
     1
1071
       30
1005
128FEA
  0
LINE
  5
128FEB
  8
OBJECT
 10
6046.703125
 20
-1434.240516245768
 30
0.0
 11
6073.1875
 21
-1402.719445818838
 31
0.0
1001
ACDBBLOCKREPETAG
1070
     1
1071
       31
1005
128FEB
  0
CIRCLE
  5
128FEC
  8
OBJECT
 10
6000.0
 20
-1394.9999999999991
 30
0.0
 40
55.0
1001
ACDBBLOCKREPETAG
1070
     1
1071
       32
1005
128FEC
  0
ARC
  5
128FED
  8
OBJECT
 10
6064.0
 20
-1394.9999999999991
 30
0.0
 40
12.0
 50
271.2434956101261
 51
88.756504389873882
1001
ACDBBLOCKREPETAG
1070
     1
1071
       33
1005
128FED
  0
ARC
  5
128FEE
  8
OBJECT
 10
6064.5859375
 20
-1368.0063585775049
 30
0.0
 40
15.0
 50
202.68245018366949
 51
268.7565043898739
1001
ACDBBLOCKREPETAG
1070
     1
1071
       34
1005
128FEE
  0
CIRCLE
  5
128FEF
  8
SLIM
 10
6064.0
 20
-1394.9999999999991
 30
0.0
 40
8.0
1001
ACDBBLOCKREPETAG
1070
     1
1071
       35
1005
128FEF
  0
POLYLINE
  5
128FF0
  8
SLIM
 66
     1
 10
0.0
 20
0.0
 30
0.0
 70
     1
1001
ACDBBLOCKREPETAG
1070
     1
1071
       36
1005
128FF0
  0
VERTEX
  5
1292E4
  8
SLIM
 10
6061.69059892324
 20
-1390.9999999999991
 30
0.0
  0
VERTEX
  5
1292E5
  8
SLIM
 10
6059.3811978464846
 20
-1394.9999999999991
 30
0.0
  0
VERTEX
  5
1292E6
  8
SLIM
 10
6061.69059892324
 20
-1398.9999999999991
 30
0.0
  0
VERTEX
  5
1292E7
  8
SLIM
 10
6066.30940107676
 20
-1398.9999999999991
 30
0.0
  0
VERTEX
  5
1292E8
  8
SLIM
 10
6068.6188021535154
 20
-1394.9999999999991
 30
0.0
  0
VERTEX
  5
1292E9
  8
SLIM
 10
6066.30940107676
 20
-1390.9999999999991
 30
0.0
  0
SEQEND
  5
1292EA
  8
SLIM
  0
ARC
  5
128FF1
  8
OBJECT
 10
6064.5859375
 20
-1421.993641422489
 30
0.0
 40
15.0
 50
91.243495610126089
 51
157.3175498163304
1001
ACDBBLOCKREPETAG
1070
     1
1071
       37
1005
128FF1
  0
ARC
  5
128FF2
  8
OBJECT
 10
5968.0
 20
-1339.5743741577919
 30
0.0
 40
12.0
 50
79.962626870012684
 51
160.03737312997501
1001
ACDBBLOCKREPETAG
1070
     1
1071
       38
1005
128FF2
  0
LINE
  5
128FF3
  8
OBJECT
 10
5942.6651535735473
 20
-1374.1741654367599
 30
0.0
 11
5956.721013817747
 21
-1335.477488669944
 31
0.0
1001
ACDBBLOCKREPETAG
1070
     1
1071
       39
1005
128FF3
  0
LINE
  5
128FF4
  8
OBJECT
 10
6010.6317214264518
 20
-1334.9336491909951
 30
0.0
 11
5970.091486182253
 21
-1327.7580428511051
 31
0.0
1001
ACDBBLOCKREPETAG
1070
     1
1071
       40
1005
128FF4
  0
ARC
  5
128FF5
  8
OBJECT
 10
5968.0
 20
-1339.5743741577919
 30
0.0
 40
12.0
 50
31.243495610056922
 51
208.7565043898139
1001
ACDBBLOCKREPETAG
1070
     1
1071
       41
1005
128FF5
  0
ARC
  5
128FF6
  8
OBJECT
 10
5944.3298520374738
 20
-1352.5637581090109
 30
0.0
 40
15.0
 50
322.68245018387239
 51
28.756504389813902
1001
ACDBBLOCKREPETAG
1070
     1
1071
       42
1005
128FF6
  0
CIRCLE
  5
128FF7
  8
SLIM
 10
5968.0
 20
-1339.5743741577919
 30
0.0
 40
7.9999999999999982
1001
ACDBBLOCKREPETAG
1070
     1
1071
       43
1005
128FF7
  0
POLYLINE
  5
128FF8
  8
SLIM
 66
     1
 10
0.0
 20
0.0
 30
0.0
 70
     1
1001
ACDBBLOCKREPETAG
1070
     1
1071
       44
1005
128FF8
  0
VERTEX
  5
1292EB
  8
SLIM
 10
5965.6905989232419
 20
-1343.574374157796
 30
0.0
  0
VERTEX
  5
1292EC
  8
SLIM
 10
5970.30940107676
 20
-1343.574374157793
 30
0.0
  0
VERTEX
  5
1292ED
  8
SLIM
 10
5972.6188021535154
 20
-1339.574374157796
 30
0.0
  0
VERTEX
  5
1292EE
  8
SLIM
 10
5970.3094010767572
 20
-1335.574374157793
 30
0.0
  0
VERTEX
  5
1292EF
  8
SLIM
 10
5965.6905989232419
 20
-1335.574374157796
 30
0.0
  0
VERTEX
  5
1292F0
  8
SLIM
 10
5963.3811978464846
 20
-1339.5743741577919
 30
0.0
  0
SEQEND
  5
1292F1
  8
SLIM
  0
ARC
  5
128FF9
  8
OBJECT
 10
5991.0842104625253
 20
-1325.5701166865169
 30
0.0
 40
15.0
 50
211.2434956100569
 51
277.31754981622862
1001
ACDBBLOCKREPETAG
1070
     1
1071
       45
1005
128FF9
  0
ARC
  5
128FFA
  8
OBJECT
 10
5968.0
 20
-1450.425625842202
 30
0.0
 40
12.0
 50
199.96262687002491
 51
280.03737312998732
1001
ACDBBLOCKREPETAG
1070
     1
1071
       46
1005
128FFA
  0
LINE
  5
128FFB
  8
OBJECT
 10
6010.6317214264518
 20
-1455.0663508090031
 30
0.0
 11
5970.091486182253
 21
-1462.241957148892
 31
0.0
1001
ACDBBLOCKREPETAG
1070
     1
1071
       47
1005
128FFB
  0
LINE
  5
128FFC
  8
OBJECT
 10
5942.6651535735473
 20
-1415.8258345632339
 30
0.0
 11
5956.721013817747
 21
-1454.5225113300539
 31
0.0
1001
ACDBBLOCKREPETAG
1070
     1
1071
       48
1005
128FFC
  0
ARC
  5
128FFD
  8
OBJECT
 10
5968.0
 20
-1450.425625842202
 30
0.0
 40
12.0
 50
151.2434956101861
 51
328.75650438994307
1001
ACDBBLOCKREPETAG
1070
     1
1071
       49
1005
128FFD
  0
ARC
  5
128FFE
  8
OBJECT
 10
5991.0842104625253
 20
-1464.4298833134769
 30
0.0
 40
15.0
 50
82.682450183771394
 51
148.75650438994299
1001
ACDBBLOCKREPETAG
1070
     1
1071
       50
1005
128FFE
  0
CIRCLE
  5
128FFF
  8
SLIM
 10
5968.0
 20
-1450.425625842202
 30
0.0
 40
8.0
1001
ACDBBLOCKREPETAG
1070
     1
1071
       51
1005
128FFF
  0
POLYLINE
  5
129000
  8
SLIM
 66
     1
 10
0.0
 20
0.0
 30
0.0
 70
     1
1001
ACDBBLOCKREPETAG
1070
     1
1071
       52
1005
129000
  0
VERTEX
  5
1292F2
  8
SLIM
 10
5972.6188021535154
 20
-1450.425625842202
 30
0.0
  0
VERTEX
  5
1292F3
  8
SLIM
 10
5970.3094010767572
 20
-1446.425625842202
 30
0.0
  0
VERTEX
  5
1292F4
  8
SLIM
 10
5965.6905989232419
 20
-1446.425625842202
 30
0.0
  0
VERTEX
  5
1292F5
  8
SLIM
 10
5963.3811978464846
 20
-1450.425625842202
 30
0.0
  0
VERTEX
  5
1292F6
  8
SLIM
 10
5965.69059892324
 20
-1454.425625842202
 30
0.0
  0
VERTEX
  5
1292F7
  8
SLIM
 10
5970.3094010767572
 20
-1454.425625842202
 30
0.0
  0
SEQEND
  5
1292F8
  8
SLIM
  0
ARC
  5
129001
  8
OBJECT
 10
5944.3298520374738
 20
-1437.436241890987
 30
0.0
 40
15.0
 50
331.24349561018607
 51
37.317549816127681
1001
ACDBBLOCKREPETAG
1070
     1
1071
       53
1005
129001
  0
LINE
  5
129002
  8
CENTER
 10
3924.0
 20
-1353.9999999999959
 30
0.0
 11
4091.0
 21
-1353.9999999999959
 31
0.0
1001
ACDBBLOCKREPETAG
1070
     1
1071
        0
1005
129002
  0
LINE
  5
129003
  8
CENTER
 10
4000.0
 20
-1277.0518385105131
 30
0.0
 11
4000.0
 21
-1430.9481614894751
 31
0.0
1001
ACDBBLOCKREPETAG
1070
     1
1071
        1
1005
129003
  0
CIRCLE
  5
129004
  8
OBJECT
 10
4000.0
 20
-1353.9999999999959
 30
0.0
 40
37.5
1001
ACDBBLOCKREPETAG
1070
     1
1071
        2
1005
129004
  0
CIRCLE
  5
129005
  8
OBJECT
 10
4000.0
 20
-1353.9999999999959
 30
0.0
 40
49.5
1001
ACDBBLOCKREPETAG
1070
     1
1071
        3
1005
129005
  0
ARC
  5
129006
  8
OBJECT
 10
4000.0
 20
-1353.9999999999959
 30
0.0
 40
61.0
 50
40.03737312998139
 51
79.962626870012684
1001
ACDBBLOCKREPETAG
1070
     1
1071
        4
1005
129006
  0
ARC
  5
129007
  8
OBJECT
 10
4000.0
 20
-1353.9999999999959
 30
0.0
 40
61.0
 50
160.03737312997501
 51
199.96262687002491
1001
ACDBBLOCKREPETAG
1070
     1
1071
        5
1005
129007
  0
ARC
  5
129008
  8
OBJECT
 10
4000.0
 20
-1353.9999999999959
 30
0.0
 40
61.0
 50
280.03737312998732
 51
319.9626268700186
1001
ACDBBLOCKREPETAG
1070
     1
1071
        6
1005
129008
  0
CIRCLE
  5
129009
  8
SLIM
 10
4064.0
 20
-1353.9999999999959
 30
0.0
 40
5.0
1001
ACDBBLOCKREPETAG
1070
     1
1071
        7
1005
129009
  0
ARC
  5
12900A
  8
OBJECT
 10
4064.0
 20
-1353.9999999999959
 30
0.0
 40
12.0
 50
319.9626268700186
 51
40.03737312998139
1001
ACDBBLOCKREPETAG
1070
     1
1071
        8
1005
12900A
  0
LINE
  5
12900B
  8
OBJECT
 10
4046.7031249999982
 20
-1314.7594837542269
 30
0.0
 11
4073.1875
 21
-1346.280554181157
 31
0.0
1001
ACDBBLOCKREPETAG
1070
     1
1071
        9
1005
12900B
  0
LINE
  5
12900C
  8
OBJECT
 10
4046.7031249999982
 20
-1393.2405162457651
 30
0.0
 11
4073.1875
 21
-1361.7194458188351
 31
0.0
1001
ACDBBLOCKREPETAG
1070
     1
1071
       10
1005
12900C
  0
POLYLINE
  5
12900D
  8
SLIM
 66
     1
 10
0.0
 20
0.0
 30
0.0
 70
     1
1001
ACDBBLOCKREPETAG
1070
     1
1071
       11
1005
12900D
  0
VERTEX
  5
1292F9
  8
SLIM
 10
4059.0925227118851
 20
-1345.4999999999959
 30
0.0
  0
VERTEX
  5
1292FA
  8
SLIM
 10
4054.1850454237701
 20
-1353.9999999999959
 30
0.0
  0
VERTEX
  5
1292FB
  8
SLIM
 10
4059.0925227118851
 20
-1362.4999999999959
 30
0.0
  0
VERTEX
  5
1292FC
  8
SLIM
 10
4068.9074772881072
 20
-1362.4999999999959
 30
0.0
  0
VERTEX
  5
1292FD
  8
SLIM
 10
4073.8149545762199
 20
-1353.9999999999959
 30
0.0
  0
VERTEX
  5
1292FE
  8
SLIM
 10
4068.9074772881072
 20
-1345.4999999999959
 30
0.0
  0
SEQEND
  5
1292FF
  8
SLIM
  0
CIRCLE
  5
12900E
  8
SLIM
 10
3968.0
 20
-1298.574374157789
 30
0.0
 40
4.9999999999999991
1001
ACDBBLOCKREPETAG
1070
     1
1071
       12
1005
12900E
  0
ARC
  5
12900F
  8
OBJECT
 10
3968.0
 20
-1298.574374157789
 30
0.0
 40
12.0
 50
79.962626870012684
 51
160.03737312997501
1001
ACDBBLOCKREPETAG
1070
     1
1071
       13
1005
12900F
  0
LINE
  5
129010
  8
OBJECT
 10
3942.6651535735441
 20
-1333.174165436757
 30
0.0
 11
3956.721013817747
 21
-1294.4774886699411
 31
0.0
1001
ACDBBLOCKREPETAG
1070
     1
1071
       14
1005
129010
  0
LINE
  5
129011
  8
OBJECT
 10
4010.6317214264491
 20
-1293.9336491909919
 30
0.0
 11
3970.091486182253
 21
-1286.7580428511019
 31
0.0
1001
ACDBBLOCKREPETAG
1070
     1
1071
       15
1005
129011
  0
POLYLINE
  5
129012
  8
SLIM
 66
     1
 10
0.0
 20
0.0
 30
0.0
 70
     1
1001
ACDBBLOCKREPETAG
1070
     1
1071
       16
1005
129012
  0
VERTEX
  5
129300
  8
SLIM
 10
3963.092522711886
 20
-1307.074374157789
 30
0.0
  0
VERTEX
  5
129301
  8
SLIM
 10
3972.907477288114
 20
-1307.074374157793
 30
0.0
  0
VERTEX
  5
129302
  8
SLIM
 10
3977.8149545762212
 20
-1298.574374157789
 30
0.0
  0
VERTEX
  5
129303
  8
SLIM
 10
3972.907477288114
 20
-1290.074374157793
 30
0.0
  0
VERTEX
  5
129304
  8
SLIM
 10
3963.092522711886
 20
-1290.074374157789
 30
0.0
  0
VERTEX
  5
129305
  8
SLIM
 10
3958.185045423772
 20
-1298.574374157793
 30
0.0
  0
SEQEND
  5
129306
  8
SLIM
  0
CIRCLE
  5
129013
  8
SLIM
 10
3968.0
 20
-1409.425625842199
 30
0.0
 40
5.0
1001
ACDBBLOCKREPETAG
1070
     1
1071
       17
1005
129013
  0
ARC
  5
129014
  8
OBJECT
 10
3968.0
 20
-1409.425625842199
 30
0.0
 40
12.0
 50
199.96262687002491
 51
280.03737312998732
1001
ACDBBLOCKREPETAG
1070
     1
1071
       18
1005
129014
  0
LINE
  5
129015
  8
OBJECT
 10
4010.6317214264491
 20
-1414.066350808999
 30
0.0
 11
3970.091486182253
 21
-1421.241957148889
 31
0.0
1001
ACDBBLOCKREPETAG
1070
     1
1071
       19
1005
129015
  0
LINE
  5
129016
  8
OBJECT
 10
3942.6651535735441
 20
-1374.825834563231
 30
0.0
 11
3956.721013817747
 21
-1413.5225113300501
 31
0.0
1001
ACDBBLOCKREPETAG
1070
     1
1071
       20
1005
129016
  0
POLYLINE
  5
129017
  8
SLIM
 66
     1
 10
0.0
 20
0.0
 30
0.0
 70
     1
1001
ACDBBLOCKREPETAG
1070
     1
1071
       21
1005
129017
  0
VERTEX
  5
129307
  8
SLIM
 10
3977.8149545762212
 20
-1409.425625842199
 30
0.0
  0
VERTEX
  5
129308
  8
SLIM
 10
3972.9074772881072
 20
-1400.925625842199
 30
0.0
  0
VERTEX
  5
129309
  8
SLIM
 10
3963.092522711886
 20
-1400.925625842199
 30
0.0
  0
VERTEX
  5
12930A
  8
SLIM
 10
3958.185045423772
 20
-1409.425625842199
 30
0.0
  0
VERTEX
  5
12930B
  8
SLIM
 10
3963.092522711886
 20
-1417.925625842199
 30
0.0
  0
VERTEX
  5
12930C
  8
SLIM
 10
3972.907477288114
 20
-1417.925625842199
 30
0.0
  0
SEQEND
  5
12930D
  8
SLIM
  0
LINE
  5
129018
  8
OBJECT
 10
2044.5
 20
-1079.999999999992
 30
0.0
 11
1955.5
 21
-1079.999999999992
 31
0.0
1001
ACDBBLOCKREPETAG
1070
     1
1071
        0
1005
129018
  0
LINE
  5
129019
  8
OBJECT
 10
1935.0
 20
-869.99999999999216
 30
0.0
 11
1935.0
 21
-769.99999999999204
 31
0.0
1001
ACDBBLOCKREPETAG
1070
     1
1071
        1
1005
129019
  0
LINE
  5
12901A
  8
OBJECT
 10
2065.0
 20
-869.99999999999216
 30
0.0
 11
2065.0
 21
-769.99999999999204
 31
0.0
1001
ACDBBLOCKREPETAG
1070
     1
1071
        2
1005
12901A
  0
LINE
  5
12901B
  8
OBJECT
 10
1935.0
 20
-869.99999999999216
 30
0.0
 11
2065.0
 21
-869.99999999999216
 31
0.0
1001
ACDBBLOCKREPETAG
1070
     1
1071
        3
1005
12901B
  0
LINE
  5
12901C
  8
OBJECT
 10
1955.5
 20
-979.99999999999204
 30
0.0
 11
2044.5
 21
-979.99999999999204
 31
0.0
1001
ACDBBLOCKREPETAG
1070
     1
1071
        4
1005
12901C
  0
LINE
  5
12901D
  8
OBJECT
 10
1955.5
 20
-979.99999999999204
 30
0.0
 11
1955.5
 21
-1079.999999999992
 31
0.0
1001
ACDBBLOCKREPETAG
1070
     1
1071
        5
1005
12901D
  0
LINE
  5
12901E
  8
OBJECT
 10
2044.5
 20
-979.99999999999204
 30
0.0
 11
2044.5
 21
-1079.999999999992
 31
0.0
1001
ACDBBLOCKREPETAG
1070
     1
1071
        6
1005
12901E
  0
LINE
  5
12901F
  8
OBJECT
 10
1935.0
 20
-869.99999999999216
 30
0.0
 11
1955.5
 21
-979.99999999999204
 31
0.0
1001
ACDBBLOCKREPETAG
1070
     1
1071
        7
1005
12901F
  0
LINE
  5
129020
  8
OBJECT
 10
2044.5
 20
-979.99999999999204
 30
0.0
 11
2065.0
 21
-869.99999999999216
 31
0.0
1001
ACDBBLOCKREPETAG
1070
     1
1071
        8
1005
129020
  0
LINE
  5
129021
  8
HIDDEN
 10
1962.5
 20
-979.99999999999204
 30
0.0
 11
1962.5
 21
-1079.999999999992
 31
0.0
1001
ACDBBLOCKREPETAG
1070
     1
1071
        9
1005
129021
  0
LINE
  5
129022
  8
HIDDEN
 10
2037.5
 20
-979.99999999999204
 30
0.0
 11
2037.5
 21
-1079.999999999992
 31
0.0
1001
ACDBBLOCKREPETAG
1070
     1
1071
       10
1005
129022
  0
LINE
  5
129023
  8
CENTER
 10
2000.0
 20
-769.99999999999955
 30
0.0
 11
2000.0
 21
-1094.999999999992
 31
0.0
1001
ACDBBLOCKREPETAG
1070
     1
1071
       11
1005
129023
  0
LINE
  5
129024
  8
OBJECT
 10
1927.0
 20
-633.99999999999955
 30
0.0
 11
1930.0
 21
-633.99999999999955
 31
0.0
1001
ACDBBLOCKREPETAG
1070
     1
1071
        1
1005
129024
  0
ARC
  5
129025
  8
OBJECT
 10
1927.0
 20
-636.99999999999955
 30
0.0
 40
3.0
 50
90.0
 51
180.0
1001
ACDBBLOCKREPETAG
1070
     1
1071
        2
1005
129025
  0
LINE
  5
129026
  8
OBJECT
 10
1930.0
 20
-757.99999999999955
 30
0.0
 11
1927.0
 21
-757.99999999999955
 31
0.0
1001
ACDBBLOCKREPETAG
1070
     1
1071
        3
1005
129026
  0
ARC
  5
129027
  8
OBJECT
 10
1927.0
 20
-754.99999999999955
 30
0.0
 40
3.0
 50
180.0
 51
270.0
1001
ACDBBLOCKREPETAG
1070
     1
1071
        4
1005
129027
  0
LINE
  5
129028
  8
OBJECT
 10
1924.0
 20
-754.99999999999955
 30
0.0
 11
1924.0
 21
-636.99999999999955
 31
0.0
1001
ACDBBLOCKREPETAG
1070
     1
1071
        5
1005
129028
  0
CIRCLE
  5
129029
  8
OBJECT
 10
2000.0
 20
-696.0
 30
0.0
 40
62.0
1001
ACDBBLOCKREPETAG
1070
     1
1071
        3
1005
129029
  0
LINE
  5
12902A
  8
CENTER
 10
1938.0
 20
-711.0
 30
0.0
 11
2062.0
 21
-711.0
 31
0.0
1001
ACDBBLOCKREPETAG
1070
     1
1071
        4
1005
12902A
  0
CIRCLE
  5
12902B
  8
OBJECT
 10
2000.0
 20
-711.0
 30
0.0
 40
28.0
1001
ACDBBLOCKREPETAG
1070
     1
1071
        6
1005
12902B
  0
CIRCLE
  5
12902C
  8
OBJECT
 10
2000.0
 20
-711.0
 30
0.0
 40
39.0
1001
ACDBBLOCKREPETAG
1070
     1
1071
        7
1005
12902C
  0
ARC
  5
12902D
  8
OBJECT
 10
2000.0
 20
-711.0
 30
0.0
 40
47.0
 50
290.58196921144179
 51
249.41803078855821
1001
ACDBBLOCKREPETAG
1070
     1
1071
        8
1005
12902D
  0
LINE
  5
12902E
  8
OBJECT
 10
1983.477288358142
 20
-755.0
 30
0.0
 11
2016.522711641858
 21
-755.0
 31
0.0
1001
ACDBBLOCKREPETAG
1070
     1
1071
        9
1005
12902E
  0
LINE
  5
12902F
  8
OBJECT
 10
1935.0
 20
-549.99999999999955
 30
0.0
 11
1935.0
 21
-570.99999999999955
 31
0.0
1001
ACDBBLOCKREPETAG
1070
     1
1071
       16
1005
12902F
  0
LINE
  5
129030
  8
OBJECT
 10
1935.0
 20
-570.99999999999955
 30
0.0
 11
2065.0
 21
-570.99999999999955
 31
0.0
1001
ACDBBLOCKREPETAG
1070
     1
1071
       17
1005
129030
  0
LINE
  5
129031
  8
OBJECT
 10
2065.0
 20
-570.99999999999955
 30
0.0
 11
2065.0
 21
-549.99999999999955
 31
0.0
1001
ACDBBLOCKREPETAG
1070
     1
1071
       18
1005
129031
  0
LINE
  5
129032
  8
OBJECT
 10
2065.0
 20
-549.99999999999955
 30
0.0
 11
1935.0
 21
-549.99999999999955
 31
0.0
1001
ACDBBLOCKREPETAG
1070
     1
1071
       19
1005
129032
  0
LINE
  5
129033
  8
HIDDEN
 10
2044.5
 20
-619.99999999999955
 30
0.0
 11
1955.5
 21
-619.99999999999955
 31
0.0
1001
ACDBBLOCKREPETAG
1070
     1
1071
       20
1005
129033
  0
LINE
  5
129034
  8
CENTER
 10
2000.0
 20
-769.99999999999955
 30
0.0
 11
2000.0
 21
-534.99999999999955
 31
0.0
1001
ACDBBLOCKREPETAG
1070
     1
1071
       21
1005
129034
  0
LINE
  5
129035
  8
OBJECT
 10
1940.5
 20
-570.99999999999955
 30
0.0
 11
1940.5
 21
-633.99999999999955
 31
0.0
1001
ACDBBLOCKREPETAG
1070
     1
1071
       22
1005
129035
  0
LINE
  5
129036
  8
OBJECT
 10
1930.0
 20
-633.99999999999955
 30
0.0
 11
2070.0
 21
-633.99999999999955
 31
0.0
1001
ACDBBLOCKREPETAG
1070
     1
1071
       23
1005
129036
  0
LINE
  5
129037
  8
OBJECT
 10
2059.5
 20
-633.99999999999955
 30
0.0
 11
2059.5
 21
-570.99999999999955
 31
0.0
1001
ACDBBLOCKREPETAG
1070
     1
1071
       24
1005
129037
  0
LINE
  5
129038
  8
OBJECT
 10
1930.0
 20
-757.99999999999955
 30
0.0
 11
1930.0
 21
-769.99999999999955
 31
0.0
1001
ACDBBLOCKREPETAG
1070
     1
1071
       25
1005
129038
  0
LINE
  5
129039
  8
OBJECT
 10
1930.0
 20
-769.99999999999955
 30
0.0
 11
2070.0
 21
-769.99999999999955
 31
0.0
1001
ACDBBLOCKREPETAG
1070
     1
1071
       26
1005
129039
  0
LINE
  5
12903A
  8
OBJECT
 10
2070.0
 20
-769.99999999999955
 30
0.0
 11
2070.0
 21
-757.99999999999955
 31
0.0
1001
ACDBBLOCKREPETAG
1070
     1
1071
       27
1005
12903A
  0
LINE
  5
12903B
  8
OBJECT
 10
2070.0
 20
-757.99999999999955
 30
0.0
 11
1930.0
 21
-757.99999999999955
 31
0.0
1001
ACDBBLOCKREPETAG
1070
     1
1071
       28
1005
12903B
  0
ARC
  5
12903C
  8
OBJECT
 10
2435.0384389946771
 20
-998.60813684682694
 30
0.0
 40
519.48776673616965
 50
135.4235066743189
 51
138.50052655621499
1001
ACDBBLOCKREPETAG
1070
     1
1071
       32
1005
12903C
  0
ARC
  5
12903D
  8
OBJECT
 10
2435.0384389946771
 20
-393.39186315317193
 30
0.0
 40
519.48776673616965
 50
221.49947344378501
 51
224.57649332568101
1001
ACDBBLOCKREPETAG
1070
     1
1071
       33
1005
12903D
  0
ARC
  5
12903E
  8
OBJECT
 10
1564.961561005322
 20
-998.60813684682694
 30
0.0
 40
519.48776673616965
 50
41.499473443784993
 51
44.576493325681092
1001
ACDBBLOCKREPETAG
1070
     1
1071
       34
1005
12903E
  0
ARC
  5
12903F
  8
OBJECT
 10
1564.961561005322
 20
-393.39186315317193
 30
0.0
 40
519.48776673616965
 50
315.4235066743189
 51
318.50052655621488
1001
ACDBBLOCKREPETAG
1070
     1
1071
       35
1005
12903F
  0
POINT
  5
129040
  8
DOTS
 10
2000.0
 20
-754.99999999999955
 30
0.0
1001
ACDBBLOCKREPETAG
1070
     1
1071
      111
1005
129040
  0
LINE
  5
129041
  8
CENTER
 10
1909.0
 20
-199.99999999999909
 30
0.0
 11
1930.0
 21
-199.99999999999909
 31
0.0
1001
ACDBBLOCKREPETAG
1070
     1
1071
        0
1005
129041
  0
LINE
  5
129042
  8
OBJECT
 10
1927.0
 20
-261.99999999999909
 30
0.0
 11
1930.0
 21
-261.99999999999909
 31
0.0
1001
ACDBBLOCKREPETAG
1070
     1
1071
        1
1005
129042
  0
ARC
  5
129043
  8
OBJECT
 10
1927.0
 20
-258.99999999999909
 30
0.0
 40
3.0
 50
180.0
 51
270.0
1001
ACDBBLOCKREPETAG
1070
     1
1071
        2
1005
129043
  0
LINE
  5
129044
  8
OBJECT
 10
1930.0
 20
-137.99999999999909
 30
0.0
 11
1927.0
 21
-137.99999999999909
 31
0.0
1001
ACDBBLOCKREPETAG
1070
     1
1071
        3
1005
129044
  0
ARC
  5
129045
  8
OBJECT
 10
1927.0
 20
-140.99999999999909
 30
0.0
 40
3.0
 50
90.0
 51
180.0
1001
ACDBBLOCKREPETAG
1070
     1
1071
        4
1005
129045
  0
LINE
  5
129046
  8
OBJECT
 10
1924.0
 20
-140.99999999999909
 30
0.0
 11
1924.0
 21
-258.99999999999909
 31
0.0
1001
ACDBBLOCKREPETAG
1070
     1
1071
        5
1005
129046
  0
LINE
  5
129047
  8
OBJECT
 10
2047.0
 20
-322.99999999999898
 30
0.0
 11
2047.0
 21
-329.99999999999898
 31
0.0
1001
ACDBBLOCKREPETAG
1070
     1
1071
        7
1005
129047
  0
LINE
  5
129048
  8
OBJECT
 10
2047.0
 20
-329.99999999999898
 30
0.0
 11
1953.0
 21
-329.99999999999898
 31
0.0
1001
ACDBBLOCKREPETAG
1070
     1
1071
        8
1005
129048
  0
LINE
  5
129049
  8
OBJECT
 10
1953.0
 20
-329.99999999999898
 30
0.0
 11
1953.0
 21
-322.99999999999898
 31
0.0
1001
ACDBBLOCKREPETAG
1070
     1
1071
        9
1005
129049
  0
LINE
  5
12904A
  8
OBJECT
 10
1953.0
 20
-322.99999999999898
 30
0.0
 11
2047.0
 21
-322.99999999999898
 31
0.0
1001
ACDBBLOCKREPETAG
1070
     1
1071
       10
1005
12904A
  0
LINE
  5
12904B
  8
CENTER
 10
2000.0
 20
-344.99999999999909
 30
0.0
 11
2000.0
 21
-269.99999999999909
 31
0.0
1001
ACDBBLOCKREPETAG
1070
     1
1071
       11
1005
12904B
  0
LINE
  5
12904C
  8
OBJECT
 10
2044.0
 20
-322.99999999999898
 30
0.0
 11
2044.0
 21
-286.99999999999898
 31
0.0
1001
ACDBBLOCKREPETAG
1070
     1
1071
       12
1005
12904C
  0
LINE
  5
12904D
  8
OBJECT
 10
2044.0
 20
-286.99999999999898
 30
0.0
 11
1956.0
 21
-286.99999999999898
 31
0.0
1001
ACDBBLOCKREPETAG
1070
     1
1071
       13
1005
12904D
  0
LINE
  5
12904E
  8
OBJECT
 10
1956.0
 20
-286.99999999999898
 30
0.0
 11
1956.0
 21
-322.99999999999898
 31
0.0
1001
ACDBBLOCKREPETAG
1070
     1
1071
       14
1005
12904E
  0
LINE
  5
12904F
  8
OBJECT
 10
2039.5
 20
-282.99999999999898
 30
0.0
 11
2039.5
 21
-275.99999999999909
 31
0.0
1001
ACDBBLOCKREPETAG
1070
     1
1071
       15
1005
12904F
  0
LINE
  5
129050
  8
OBJECT
 10
1960.5
 20
-275.99999999999909
 30
0.0
 11
1960.5
 21
-282.99999999999898
 31
0.0
1001
ACDBBLOCKREPETAG
1070
     1
1071
       16
1005
129050
  0
LINE
  5
129051
  8
OBJECT
 10
1960.5
 20
-282.99999999999898
 30
0.0
 11
2039.5
 21
-282.99999999999898
 31
0.0
1001
ACDBBLOCKREPETAG
1070
     1
1071
       17
1005
129051
  0
LINE
  5
129052
  8
OBJECT
 10
2044.0
 20
-286.99999999999898
 30
0.0
 11
2039.5
 21
-282.99999999999898
 31
0.0
1001
ACDBBLOCKREPETAG
1070
     1
1071
       18
1005
129052
  0
LINE
  5
129053
  8
OBJECT
 10
1956.0
 20
-286.99999999999898
 30
0.0
 11
1960.5
 21
-282.99999999999898
 31
0.0
1001
ACDBBLOCKREPETAG
1070
     1
1071
       19
1005
129053
  0
LINE
  5
129054
  8
OBJECT
 10
2062.0
 20
-272.99999999999909
 30
0.0
 11
2062.0
 21
-269.99999999999909
 31
0.0
1001
ACDBBLOCKREPETAG
1070
     1
1071
       20
1005
129054
  0
ARC
  5
129055
  8
OBJECT
 10
2059.0
 20
-272.99999999999909
 30
0.0
 40
3.0
 50
270.0
 51
0.0
1001
ACDBBLOCKREPETAG
1070
     1
1071
       21
1005
129055
  0
LINE
  5
129056
  8
OBJECT
 10
1938.0
 20
-269.99999999999909
 30
0.0
 11
1938.0
 21
-272.99999999999909
 31
0.0
1001
ACDBBLOCKREPETAG
1070
     1
1071
       22
1005
129056
  0
ARC
  5
129057
  8
OBJECT
 10
1941.0
 20
-272.99999999999909
 30
0.0
 40
3.0
 50
180.0
 51
270.0
1001
ACDBBLOCKREPETAG
1070
     1
1071
       23
1005
129057
  0
LINE
  5
129058
  8
OBJECT
 10
1941.0
 20
-275.99999999999909
 30
0.0
 11
2059.0
 21
-275.99999999999909
 31
0.0
1001
ACDBBLOCKREPETAG
1070
     1
1071
       24
1005
129058
  0
LINE
  5
129059
  8
HIDDEN
 10
2030.0
 20
-277.99999999999909
 30
0.0
 11
1970.0
 21
-277.99999999999909
 31
0.0
1001
ACDBBLOCKREPETAG
1070
     1
1071
       25
1005
129059
  0
POINT
  5
12905A
  8
DOTS
 10
2000.0
 20
-199.99999999999909
 30
0.0
 50
270.0
1001
ACDBBLOCKREPETAG
1070
     1
1071
      153
1005
12905A
  0
ARC
  5
12905B
  8
OBJECT
 10
2000.0
 20
-199.99999999999909
 30
0.0
 40
70.0
 50
62.339550100758693
 51
117.6604498992413
1001
ACDBBLOCKREPETAG
1070
     1
1071
        0
1005
12905B
  0
CIRCLE
  5
12905C
  8
OBJECT
 10
2000.0
 20
-199.99999999999909
 30
0.0
 40
65.0
1001
ACDBBLOCKREPETAG
1070
     1
1071
        1
1005
12905C
  0
CIRCLE
  5
12905D
  8
OBJECT
 10
2000.0
 20
-199.99999999999909
 30
0.0
 40
41.0
1001
ACDBBLOCKREPETAG
1070
     1
1071
        2
1005
12905D
  0
CIRCLE
  5
12905E
  8
OBJECT
 10
2000.0
 20
-199.99999999999909
 30
0.0
 40
58.0
1001
ACDBBLOCKREPETAG
1070
     1
1071
        3
1005
12905E
  0
LINE
  5
12905F
  8
OBJECT
 10
2070.0
 20
-137.99999999999909
 30
0.0
 11
2019.5192212959439
 21
-137.99999999999909
 31
0.0
1001
ACDBBLOCKREPETAG
1070
     1
1071
        4
1005
12905F
  0
LINE
  5
129060
  8
OBJECT
 10
1930.0
 20
-137.99999999999909
 30
0.0
 11
1980.480778704057
 21
-137.99999999999909
 31
0.0
1001
ACDBBLOCKREPETAG
1070
     1
1071
        5
1005
129060
  0
LINE
  5
129061
  8
OBJECT
 10
1930.0
 20
-261.99999999999909
 30
0.0
 11
1938.0
 21
-261.99999999999909
 31
0.0
1001
ACDBBLOCKREPETAG
1070
     1
1071
        6
1005
129061
  0
LINE
  5
129062
  8
OBJECT
 10
1938.0
 20
-269.99999999999909
 30
0.0
 11
1938.0
 21
-261.99999999999909
 31
0.0
1001
ACDBBLOCKREPETAG
1070
     1
1071
        7
1005
129062
  0
LINE
  5
129063
  8
OBJECT
 10
2070.0
 20
-261.99999999999909
 30
0.0
 11
2062.0
 21
-261.99999999999909
 31
0.0
1001
ACDBBLOCKREPETAG
1070
     1
1071
        8
1005
129063
  0
LINE
  5
129064
  8
OBJECT
 10
2062.0
 20
-269.99999999999909
 30
0.0
 11
2062.0
 21
-261.99999999999909
 31
0.0
1001
ACDBBLOCKREPETAG
1070
     1
1071
        9
1005
129064
  0
LINE
  5
129065
  8
CENTER
 10
1930.0
 20
-199.99999999999909
 30
0.0
 11
2070.0
 21
-199.99999999999909
 31
0.0
1001
ACDBBLOCKREPETAG
1070
     1
1071
       10
1005
129065
  0
LINE
  5
129066
  8
CENTER
 10
2000.0
 20
-269.99999999999909
 30
0.0
 11
2000.0
 21
-114.9999999999991
 31
0.0
1001
ACDBBLOCKREPETAG
1070
     1
1071
       11
1005
129066
  0
ARC
  5
129067
  8
OBJECT
 10
1989.902762139187
 20
-224.44352901899131
 30
0.0
 40
7.0
 50
73.001272229706771
 51
154.05025878943769
1001
ACDBBLOCKREPETAG
1070
     1
1071
       12
1005
129067
  0
ARC
  5
129068
  8
OBJECT
 10
1986.8376610706509
 20
-225.5978773169509
 30
0.0
 40
9.0
 50
73.001272229706771
 51
154.05026392593041
1001
ACDBBLOCKREPETAG
1070
     1
1071
       13
1005
129068
  0
ARC
  5
129069
  8
OBJECT
 10
1896.3142301315529
 20
-147.28130031148149
 30
0.0
 40
150.0
 50
322.89503374001202
 51
325.8931499697137
1001
ACDBBLOCKREPETAG
1070
     1
1071
       14
1005
129069
  0
ARC
  5
12906A
  8
OBJECT
 10
2000.0
 20
-199.99999999999909
 30
0.0
 40
37.5
 50
303.16276667667131
 51
229.1635024908278
1001
ACDBBLOCKREPETAG
1070
     1
1071
       15
1005
12906A
  0
LINE
  5
12906B
  8
OBJECT
 10
1983.608514518975
 20
-221.38045100897119
 30
0.0
 11
1977.3740110000001
 21
-234.1915870000002
 31
0.0
1001
ACDBBLOCKREPETAG
1070
     1
1071
       16
1005
12906B
  0
LINE
  5
12906C
  8
OBJECT
 10
1978.745056634463
 20
-221.65963488670511
 30
0.0
 11
1973.898671999998
 21
-231.6183599999996
 31
0.0
1001
ACDBBLOCKREPETAG
1070
     1
1071
       17
1005
12906C
  0
LINE
  5
12906D
  8
OBJECT
 10
2018.938018000001
 20
-226.00000000000091
 30
0.0
 11
1989.468815303258
 21
-216.99107608744359
 31
0.0
1001
ACDBBLOCKREPETAG
1070
     1
1071
       18
1005
12906D
  0
LINE
  5
12906E
  8
OBJECT
 10
2020.5132253090051
 20
-231.39199878029191
 30
0.0
 11
2018.938018000001
 21
-226.00000000000091
 31
0.0
1001
ACDBBLOCKREPETAG
1070
     1
1071
       19
1005
12906E
  0
LINE
  5
12906F
  8
OBJECT
 10
1954.038059222873
 20
-245.96194077712471
 30
0.0
 11
1938.0
 21
-261.99999999999909
 31
0.0
1001
ACDBBLOCKREPETAG
1070
     1
1071
       42
1005
12906F
  0
LINE
  5
129070
  8
OBJECT
 10
2045.9619407771261
 20
-245.96194077712471
 30
0.0
 11
2062.0
 21
-261.99999999999909
 31
0.0
1001
ACDBBLOCKREPETAG
1070
     1
1071
       43
1005
129070
  0
LINE
  5
129071
  8
DIM
 10
2140.0
 20
-3221.9999999999959
 30
0.0
 11
2218.4796205944581
 21
-3221.9999999999959
 31
0.0
  0
LINE
  5
129072
  8
DIM
 10
2140.0
 20
-3127.9999999999959
 30
0.0
 11
2218.4796205944581
 21
-3127.9999999999959
 31
0.0
  0
LINE
  5
129073
  8
DIM
 10
2208.4796205944581
 20
-3201.9999999999959
 30
0.0
 11
2208.4796205944581
 21
-3147.9999999999959
 31
0.0
  0
INSERT
  5
129074
  8
DIM
  2
_OPEN30
 10
2208.4796205944581
 20
-3221.9999999999959
 30
0.0
 41
20.0
 42
20.0
 43
20.0
 50
270.0
  0
INSERT
  5
129075
  8
DIM
  2
_OPEN30
 10
2208.4796205944581
 20
-3127.9999999999959
 30
0.0
 41
20.0
 42
20.0
 43
20.0
 50
90.0
  0
INSERT
  5
129076
  8
OBJECT
  2
*U11
 10
0.0
 20
0.0
 30
0.0
  0
LINE
  5
129077
  8
DIM
 10
2140.0
 20
-3579.9999999999968
 30
0.0
 11
2216.840928403733
 21
-3579.9999999999968
 31
0.0
  0
LINE
  5
129078
  8
DIM
 10
2155.0
 20
-3535.9999999999968
 30
0.0
 11
2216.840928403733
 21
-3535.9999999999968
 31
0.0
  0
LINE
  5
129079
  8
DIM
 10
2206.840928403733
 20
-3599.9999999999968
 30
0.0
 11
2206.840928403733
 21
-3619.9999999999968
 31
0.0
  0
LINE
  5
12907A
  8
DIM
 10
2206.840928403733
 20
-3515.9999999999968
 30
0.0
 11
2206.840928403733
 21
-3495.9999999999968
 31
0.0
  0
LINE
  5
12907B
  8
DIM
 10
2206.840928403733
 20
-3579.9999999999968
 30
0.0
 11
2206.840928403733
 21
-3535.9999999999968
 31
0.0
  0
INSERT
  5
12907C
  8
DIM
  2
_OPEN30
 10
2206.840928403733
 20
-3579.9999999999968
 30
0.0
 41
20.0
 42
20.0
 43
20.0
 50
90.0
  0
INSERT
  5
12907D
  8
DIM
  2
_OPEN30
 10
2206.840928403733
 20
-3535.9999999999968
 30
0.0
 41
20.0
 42
20.0
 43
20.0
 50
270.0
  0
INSERT
  5
12907E
  8
OBJECT
  2
*U12
 10
0.0
 20
0.0
 30
0.0
  0
LINE
  5
12907F
  8
DIM
 10
2000.0
 20
-3079.9999999999959
 30
0.0
 11
2000.0
 21
-3047.208121984444
 31
0.0
  0
LINE
  5
129080
  8
DIM
 10
2130.0
 20
-3117.9999999999959
 30
0.0
 11
2130.0
 21
-3047.208121984444
 31
0.0
  0
LINE
  5
129081
  8
DIM
 10
2020.0
 20
-3057.208121984444
 30
0.0
 11
2109.9999999999991
 21
-3057.208121984444
 31
0.0
  0
INSERT
  5
129082
  8
DIM
  2
_OPEN30
 10
2000.0
 20
-3057.208121984444
 30
0.0
 41
20.0
 42
20.0
 43
20.0
 50
180.0
  0
INSERT
  5
129083
  8
DIM
  2
_OPEN30
 10
2130.0
 20
-3057.208121984444
 30
0.0
 41
20.0
 42
20.0
 43
20.0
  0
INSERT
  5
129084
  8
OBJECT
  2
*U13
 10
0.0
 20
0.0
 30
0.0
  0
TEXT
  5
129085
  8
SLIM
 10
2631.0
 20
-2952.50001604727
 30
0.0
 40
40.0
  1
C寸法
 41
0.75
  0
TEXT
  5
129086
  8
SLIM
 10
2631.0
 20
-2882.50001604727
 30
0.0
 40
40.0
  1
B寸法
 41
0.75
  0
TEXT
  5
129087
  8
SLIM
 10
2630.2857142857142
 20
-2812.50001604727
 30
0.0
 40
40.0
  1
A寸法
 41
0.75
  0
TEXT
  5
129088
  8
SLIM
 10
2769.2857142857151
 20
-2952.50001604727
 30
0.0
 40
40.0
  1
130
 41
0.75
  0
TEXT
  5
129089
  8
SLIM
 10
2899.2857142857151
 20
-2952.50001604727
 30
0.0
 40
40.0
  1
130
 41
0.75
  0
TEXT
  5
12908A
  8
SLIM
 10
2780.0
 20
-2882.50001604727
 30
0.0
 40
40.0
  1
44
 41
0.75
  0
TEXT
  5
12908B
  8
SLIM
 10
2910.7142857142858
 20
-2882.50001604727
 30
0.0
 40
40.0
  1
52
 41
0.75
  0
TEXT
  5
12908C
  8
SLIM
 10
2766.0
 20
-2687.50001604727
 30
0.0
 40
40.0
  1
横枝管サイズ
 41
0.75
  0
TEXT
  5
12908D
  8
SLIM
 10
2884.8571428571431
 20
-2742.50001604727
 30
0.0
 40
30.0
  1
65（2）
 41
0.75
  0
TEXT
  5
12908E
  8
SLIM
 10
2757.0
 20
-2742.50001604727
 30
0.0
 40
30.0
  1
50（1）
 41
0.75
  0
TEXT
  5
12908F
  8
SLIM
 10
2780.0
 20
-2812.50001604727
 30
0.0
 40
40.0
  1
94
 41
0.75
  0
TEXT
  5
129090
  8
SLIM
 10
2902.1428571428569
 20
-2812.50001604727
 30
0.0
 40
40.0
  1
110
 41
0.75
  0
TEXT
  5
129091
  8
SLIM
 10
1849.9999999999991
 20
-2712.5
 30
0.0
 40
75.0
  1
枝管サイズ毎の形状
 41
0.75
  0
TEXT
  5
129092
  8
SLIM
 10
2894.25
 20
-3697.4999999999959
 30
0.0
 40
35.0
  1
通常枝65（2）
 41
0.75
  0
CIRCLE
  5
129093
  8
OBJECT
 10
2400.0
 20
-3520.9999999999968
 30
0.0
 40
62.0
1001
ACDBBLOCKREPETAG
1070
     1
1071
        3
1005
129093
  0
LINE
  5
129094
  8
CENTER
 10
2338.0
 20
-3535.9999999999968
 30
0.0
 11
2462.0
 21
-3535.9999999999968
 31
0.0
1001
ACDBBLOCKREPETAG
1070
     1
1071
        4
1005
129094
  0
CIRCLE
  5
129095
  8
OBJECT
 10
2400.0
 20
-3535.9999999999968
 30
0.0
 40
28.0
1001
ACDBBLOCKREPETAG
1070
     1
1071
        6
1005
129095
  0
CIRCLE
  5
129096
  8
OBJECT
 10
2400.0
 20
-3535.9999999999968
 30
0.0
 40
39.0
1001
ACDBBLOCKREPETAG
1070
     1
1071
        7
1005
129096
  0
ARC
  5
129097
  8
OBJECT
 10
2400.0
 20
-3535.9999999999968
 30
0.0
 40
47.0
 50
290.58196921144412
 51
249.41803078855591
1001
ACDBBLOCKREPETAG
1070
     1
1071
        8
1005
129097
  0
LINE
  5
129098
  8
OBJECT
 10
2383.4772883581431
 20
-3579.9999999999968
 30
0.0
 11
2416.5227116418569
 21
-3579.9999999999968
 31
0.0
1001
ACDBBLOCKREPETAG
1070
     1
1071
        9
1005
129098
  0
LINE
  5
129099
  8
OBJECT
 10
2123.0
 20
-3488.9999999999968
 30
0.0
 11
2130.0
 21
-3488.9999999999968
 31
0.0
1001
ACDBBLOCKREPETAG
1070
     1
1071
        7
1005
129099
  0
LINE
  5
12909A
  8
OBJECT
 10
2130.0
 20
-3488.9999999999968
 30
0.0
 11
2130.0
 21
-3579.9999999999968
 31
0.0
1001
ACDBBLOCKREPETAG
1070
     1
1071
        8
1005
12909A
  0
LINE
  5
12909B
  8
OBJECT
 10
2123.0
 20
-3579.9999999999968
 30
0.0
 11
2123.0
 21
-3488.9999999999968
 31
0.0
1001
ACDBBLOCKREPETAG
1070
     1
1071
        9
1005
12909B
  0
LINE
  5
12909C
  8
CENTER
 10
2145.0
 20
-3535.9999999999968
 30
0.0
 11
2060.9999999999991
 21
-3535.9999999999968
 31
0.0
1001
ACDBBLOCKREPETAG
1070
     1
1071
       10
1005
12909C
  0
LINE
  5
12909D
  8
OBJECT
 10
2123.0
 20
-3491.9999999999968
 30
0.0
 11
2087.0
 21
-3491.9999999999968
 31
0.0
1001
ACDBBLOCKREPETAG
1070
     1
1071
       11
1005
12909D
  0
LINE
  5
12909E
  8
OBJECT
 10
2087.0
 20
-3491.9999999999968
 30
0.0
 11
2087.0
 21
-3579.9999999999968
 31
0.0
1001
ACDBBLOCKREPETAG
1070
     1
1071
       12
1005
12909E
  0
LINE
  5
12909F
  8
OBJECT
 10
2087.0
 20
-3579.9999999999968
 30
0.0
 11
2130.0
 21
-3579.9999999999968
 31
0.0
1001
ACDBBLOCKREPETAG
1070
     1
1071
       13
1005
12909F
  0
LINE
  5
1290A0
  8
OBJECT
 10
2083.0
 20
-3496.4999999999968
 30
0.0
 11
2076.0
 21
-3496.4999999999968
 31
0.0
1001
ACDBBLOCKREPETAG
1070
     1
1071
       14
1005
1290A0
  0
LINE
  5
1290A1
  8
OBJECT
 10
2076.0
 20
-3575.4999999999968
 30
0.0
 11
2083.0
 21
-3575.4999999999968
 31
0.0
1001
ACDBBLOCKREPETAG
1070
     1
1071
       15
1005
1290A1
  0
LINE
  5
1290A2
  8
OBJECT
 10
2083.0
 20
-3575.4999999999968
 30
0.0
 11
2083.0
 21
-3496.4999999999968
 31
0.0
1001
ACDBBLOCKREPETAG
1070
     1
1071
       16
1005
1290A2
  0
LINE
  5
1290A3
  8
OBJECT
 10
2087.0
 20
-3491.9999999999968
 30
0.0
 11
2083.0
 21
-3496.4999999999968
 31
0.0
1001
ACDBBLOCKREPETAG
1070
     1
1071
       17
1005
1290A3
  0
LINE
  5
1290A4
  8
OBJECT
 10
2087.0
 20
-3579.9999999999968
 30
0.0
 11
2083.0
 21
-3575.4999999999968
 31
0.0
1001
ACDBBLOCKREPETAG
1070
     1
1071
       18
1005
1290A4
  0
LINE
  5
1290A5
  8
OBJECT
 10
2073.0
 20
-3458.9999999999968
 30
0.0
 11
2070.0
 21
-3458.9999999999968
 31
0.0
1001
ACDBBLOCKREPETAG
1070
     1
1071
       19
1005
1290A5
  0
ARC
  5
1290A6
  8
OBJECT
 10
2073.0
 20
-3461.9999999999968
 30
0.0
 40
3.0
 50
0.0
 51
90.0
1001
ACDBBLOCKREPETAG
1070
     1
1071
       20
1005
1290A6
  0
LINE
  5
1290A7
  8
OBJECT
 10
2070.0
 20
-3582.9999999999968
 30
0.0
 11
2073.0
 21
-3582.9999999999968
 31
0.0
1001
ACDBBLOCKREPETAG
1070
     1
1071
       21
1005
1290A7
  0
ARC
  5
1290A8
  8
OBJECT
 10
2073.0
 20
-3579.9999999999968
 30
0.0
 40
3.0
 50
270.0
 51
0.0
1001
ACDBBLOCKREPETAG
1070
     1
1071
       22
1005
1290A8
  0
LINE
  5
1290A9
  8
OBJECT
 10
2076.0
 20
-3579.9999999999968
 30
0.0
 11
2076.0
 21
-3461.9999999999968
 31
0.0
1001
ACDBBLOCKREPETAG
1070
     1
1071
       23
1005
1290A9
  0
LINE
  5
1290AA
  8
HIDDEN
 10
2078.0
 20
-3505.9999999999968
 30
0.0
 11
2078.0
 21
-3565.9999999999968
 31
0.0
1001
ACDBBLOCKREPETAG
1070
     1
1071
       24
1005
1290AA
  0
TEXT
  5
1290AB
  8
SLIM
 10
1896.75
 20
-3697.4999999999959
 30
0.0
 40
35.0
  1
通常枝50（1）
 41
0.75
  0
TEXT
  5
1290AC
  8
SLIM
 10
1837.75
 20
282.50000000000011
 30
0.0
 40
35.0
  1
（枝管サイズ毎に寸法が異なります。管底の位置は全サイズで同じです）
 41
0.75
  0
TEXT
  5
1290AD
  8
SLIM
 10
1850.0
 20
532.5
 30
0.0
 40
75.0
  1
側面図の代表機種
 41
0.75
  0
TEXT
  5
1290AE
  8
SLIM
 10
1850.0
 20
369.99999999999989
 30
0.0
 40
100.0
  1
3SL-C11
 41
0.75
  0
LINE
  5
1290AF
  8
OBJECT
 10
2123.0
 20
-663.99999999999966
 30
0.0
 11
2130.0
 21
-663.99999999999966
 31
0.0
1001
ACDBBLOCKREPETAG
1070
     1
1071
        7
1005
1290AF
  0
LINE
  5
1290B0
  8
OBJECT
 10
2130.0
 20
-663.99999999999966
 30
0.0
 11
2130.0
 21
-754.99999999999955
 31
0.0
1001
ACDBBLOCKREPETAG
1070
     1
1071
        8
1005
1290B0
  0
LINE
  5
1290B1
  8
OBJECT
 10
2123.0
 20
-754.99999999999955
 30
0.0
 11
2123.0
 21
-663.99999999999966
 31
0.0
1001
ACDBBLOCKREPETAG
1070
     1
1071
        9
1005
1290B1
  0
LINE
  5
1290B2
  8
CENTER
 10
2145.0
 20
-710.99999999999955
 30
0.0
 11
2061.0
 21
-710.99999999999955
 31
0.0
1001
ACDBBLOCKREPETAG
1070
     1
1071
       10
1005
1290B2
  0
LINE
  5
1290B3
  8
OBJECT
 10
2123.0
 20
-666.99999999999955
 30
0.0
 11
2087.0
 21
-666.99999999999955
 31
0.0
1001
ACDBBLOCKREPETAG
1070
     1
1071
       11
1005
1290B3
  0
LINE
  5
1290B4
  8
OBJECT
 10
2087.0
 20
-666.99999999999955
 30
0.0
 11
2087.0
 21
-754.99999999999955
 31
0.0
1001
ACDBBLOCKREPETAG
1070
     1
1071
       12
1005
1290B4
  0
LINE
  5
1290B5
  8
OBJECT
 10
2087.0
 20
-754.99999999999955
 30
0.0
 11
2130.0
 21
-754.99999999999955
 31
0.0
1001
ACDBBLOCKREPETAG
1070
     1
1071
       13
1005
1290B5
  0
LINE
  5
1290B6
  8
OBJECT
 10
2083.0
 20
-671.49999999999955
 30
0.0
 11
2076.0
 21
-671.49999999999955
 31
0.0
1001
ACDBBLOCKREPETAG
1070
     1
1071
       14
1005
1290B6
  0
LINE
  5
1290B7
  8
OBJECT
 10
2076.0
 20
-750.49999999999955
 30
0.0
 11
2083.0
 21
-750.49999999999955
 31
0.0
1001
ACDBBLOCKREPETAG
1070
     1
1071
       15
1005
1290B7
  0
LINE
  5
1290B8
  8
OBJECT
 10
2083.0
 20
-750.49999999999955
 30
0.0
 11
2083.0
 21
-671.49999999999955
 31
0.0
1001
ACDBBLOCKREPETAG
1070
     1
1071
       16
1005
1290B8
  0
LINE
  5
1290B9
  8
OBJECT
 10
2087.0
 20
-666.99999999999955
 30
0.0
 11
2083.0
 21
-671.49999999999955
 31
0.0
1001
ACDBBLOCKREPETAG
1070
     1
1071
       17
1005
1290B9
  0
LINE
  5
1290BA
  8
OBJECT
 10
2087.0
 20
-754.99999999999955
 30
0.0
 11
2083.0
 21
-750.49999999999955
 31
0.0
1001
ACDBBLOCKREPETAG
1070
     1
1071
       18
1005
1290BA
  0
LINE
  5
1290BB
  8
OBJECT
 10
2073.0
 20
-633.99999999999955
 30
0.0
 11
2070.0
 21
-633.99999999999955
 31
0.0
1001
ACDBBLOCKREPETAG
1070
     1
1071
       19
1005
1290BB
  0
ARC
  5
1290BC
  8
OBJECT
 10
2073.0
 20
-636.99999999999955
 30
0.0
 40
3.0
 50
0.0
 51
90.0
1001
ACDBBLOCKREPETAG
1070
     1
1071
       20
1005
1290BC
  0
LINE
  5
1290BD
  8
OBJECT
 10
2070.0
 20
-757.99999999999955
 30
0.0
 11
2073.0
 21
-757.99999999999955
 31
0.0
1001
ACDBBLOCKREPETAG
1070
     1
1071
       21
1005
1290BD
  0
ARC
  5
1290BE
  8
OBJECT
 10
2073.0
 20
-754.99999999999955
 30
0.0
 40
3.0
 50
270.0
 51
0.0
1001
ACDBBLOCKREPETAG
1070
     1
1071
       22
1005
1290BE
  0
LINE
  5
1290BF
  8
OBJECT
 10
2076.0
 20
-754.99999999999955
 30
0.0
 11
2076.0
 21
-636.99999999999955
 31
0.0
1001
ACDBBLOCKREPETAG
1070
     1
1071
       23
1005
1290BF
  0
LINE
  5
1290C0
  8
HIDDEN
 10
2078.0
 20
-680.99999999999955
 30
0.0
 11
2078.0
 21
-740.99999999999955
 31
0.0
1001
ACDBBLOCKREPETAG
1070
     1
1071
       24
1005
1290C0
  0
LINE
  5
1290C1
  8
OBJECT
 10
2123.0
 20
-152.99999999999909
 30
0.0
 11
2130.0
 21
-152.99999999999909
 31
0.0
1001
ACDBBLOCKREPETAG
1070
     1
1071
        7
1005
1290C1
  0
LINE
  5
1290C2
  8
OBJECT
 10
2130.0
 20
-152.99999999999909
 30
0.0
 11
2130.0
 21
-246.99999999999909
 31
0.0
1001
ACDBBLOCKREPETAG
1070
     1
1071
        8
1005
1290C2
  0
LINE
  5
1290C3
  8
OBJECT
 10
2130.0
 20
-246.99999999999909
 30
0.0
 11
2123.0
 21
-246.99999999999909
 31
0.0
1001
ACDBBLOCKREPETAG
1070
     1
1071
        9
1005
1290C3
  0
LINE
  5
1290C4
  8
OBJECT
 10
2123.0
 20
-246.99999999999909
 30
0.0
 11
2123.0
 21
-152.99999999999909
 31
0.0
1001
ACDBBLOCKREPETAG
1070
     1
1071
       10
1005
1290C4
  0
LINE
  5
1290C5
  8
CENTER
 10
2145.0
 20
-199.99999999999909
 30
0.0
 11
2070.0
 21
-199.99999999999909
 31
0.0
1001
ACDBBLOCKREPETAG
1070
     1
1071
       11
1005
1290C5
  0
LINE
  5
1290C6
  8
OBJECT
 10
2123.0
 20
-155.99999999999909
 30
0.0
 11
2087.0
 21
-155.99999999999909
 31
0.0
1001
ACDBBLOCKREPETAG
1070
     1
1071
       12
1005
1290C6
  0
LINE
  5
1290C7
  8
OBJECT
 10
2087.0
 20
-155.99999999999909
 30
0.0
 11
2087.0
 21
-243.99999999999909
 31
0.0
1001
ACDBBLOCKREPETAG
1070
     1
1071
       13
1005
1290C7
  0
LINE
  5
1290C8
  8
OBJECT
 10
2087.0
 20
-243.99999999999909
 30
0.0
 11
2123.0
 21
-243.99999999999909
 31
0.0
1001
ACDBBLOCKREPETAG
1070
     1
1071
       14
1005
1290C8
  0
LINE
  5
1290C9
  8
OBJECT
 10
2083.0
 20
-160.49999999999909
 30
0.0
 11
2076.0
 21
-160.49999999999909
 31
0.0
1001
ACDBBLOCKREPETAG
1070
     1
1071
       15
1005
1290C9
  0
LINE
  5
1290CA
  8
OBJECT
 10
2076.0
 20
-239.49999999999909
 30
0.0
 11
2083.0
 21
-239.49999999999909
 31
0.0
1001
ACDBBLOCKREPETAG
1070
     1
1071
       16
1005
1290CA
  0
LINE
  5
1290CB
  8
OBJECT
 10
2083.0
 20
-239.49999999999909
 30
0.0
 11
2083.0
 21
-160.49999999999909
 31
0.0
1001
ACDBBLOCKREPETAG
1070
     1
1071
       17
1005
1290CB
  0
LINE
  5
1290CC
  8
OBJECT
 10
2087.0
 20
-155.99999999999909
 30
0.0
 11
2083.0
 21
-160.49999999999909
 31
0.0
1001
ACDBBLOCKREPETAG
1070
     1
1071
       18
1005
1290CC
  0
LINE
  5
1290CD
  8
OBJECT
 10
2087.0
 20
-243.99999999999909
 30
0.0
 11
2083.0
 21
-239.49999999999909
 31
0.0
1001
ACDBBLOCKREPETAG
1070
     1
1071
       19
1005
1290CD
  0
LINE
  5
1290CE
  8
OBJECT
 10
2073.0
 20
-137.99999999999909
 30
0.0
 11
2070.0
 21
-137.99999999999909
 31
0.0
1001
ACDBBLOCKREPETAG
1070
     1
1071
       20
1005
1290CE
  0
ARC
  5
1290CF
  8
OBJECT
 10
2073.0
 20
-140.99999999999909
 30
0.0
 40
3.0
 50
0.0
 51
90.0
1001
ACDBBLOCKREPETAG
1070
     1
1071
       21
1005
1290CF
  0
LINE
  5
1290D0
  8
OBJECT
 10
2070.0
 20
-261.99999999999909
 30
0.0
 11
2073.0
 21
-261.99999999999909
 31
0.0
1001
ACDBBLOCKREPETAG
1070
     1
1071
       22
1005
1290D0
  0
ARC
  5
1290D1
  8
OBJECT
 10
2073.0
 20
-258.99999999999909
 30
0.0
 40
3.0
 50
270.0
 51
0.0
1001
ACDBBLOCKREPETAG
1070
     1
1071
       23
1005
1290D1
  0
LINE
  5
1290D2
  8
OBJECT
 10
2076.0
 20
-258.99999999999909
 30
0.0
 11
2076.0
 21
-140.99999999999909
 31
0.0
1001
ACDBBLOCKREPETAG
1070
     1
1071
       24
1005
1290D2
  0
LINE
  5
1290D3
  8
HIDDEN
 10
2078.0
 20
-169.99999999999909
 30
0.0
 11
2078.0
 21
-229.99999999999909
 31
0.0
1001
ACDBBLOCKREPETAG
1070
     1
1071
       25
1005
1290D3
  0
TEXT
  5
1290D4
  8
SLIM
 10
0.0
 20
667.19448474768467
 30
0.0
 40
100.0
  1
3SL-CXX-S
 41
0.75
  0
TEXT
  5
1290D5
  8
SLIM
 10
0.0
 20
517.19448474768467
 30
0.0
 40
100.0
  1
3SL-CXX-W
 41
0.75
  0
TEXT
  5
1290D6
  8
SLIM
 10
0.0000035665234464
 20
24.000004585317601
 30
0.0
 40
79.999999999972701
  1
枝管バリエーション
 41
0.75
1001
ACDBBLOCKREPETAG
1070
     1
1071
      119
1005
F48AB
  0
TEXT
  5
1290D7
  8
SLIM
 10
3853.75
 20
-1621.4999999999959
 30
0.0
 40
35.0
  1
両受けスタイル（W）
 41
0.75
  0
TEXT
  5
1290D8
  8
SLIM
 10
5811.8000000000002
 20
-1718.9999999999991
 30
0.0
 40
28.0
  1
※ 対応スラブ厚　150mm以上
 41
0.75
  0
TEXT
  5
1290D9
  8
SLIM
 10
5598.8999999999996
 20
-1812.333333333333
 30
0.0
 40
28.0
  1
国土交通大臣認定・（一財）日本消防設備安全センター性能評定取得品
 41
0.75
  0
TEXT
  5
1290DA
  8
SLIM
 10
5631.1000000000004
 20
-1858.9999999999991
 30
0.0
 40
28.0
  1
注）ご採用にあたり、認定書及び評定書の内容をご確認ください。
 41
0.75
  0
TEXT
  5
1290DB
  8
SLIM
 10
11824.6
 20
-1677.9999999999959
 30
0.0
 40
28.0
  1
※ 対応スラブ厚　150～260
 41
0.75
  0
TEXT
  5
1290DC
  8
SLIM
 10
11598.9
 20
-1771.3333333333289
 30
0.0
 40
28.0
  1
国土交通大臣認定・（一財）日本消防設備安全センター性能評定取得品
 41
0.75
  0
TEXT
  5
1290DD
  8
SLIM
 10
11631.1
 20
-1817.9999999999959
 30
0.0
 40
28.0
  1
注）ご採用にあたり、認定書及び評定書の内容をご確認ください。
 41
0.75
  0
TEXT
  5
1290DE
  8
SLIM
 10
9824.6000000000004
 20
-1677.9999999999959
 30
0.0
 40
28.0
  1
※ 対応スラブ厚　180～260
 41
0.75
  0
TEXT
  5
1290DF
  8
SLIM
 10
9598.8999999999996
 20
-1771.3333333333289
 30
0.0
 40
28.0
  1
国土交通大臣認定・（一財）日本消防設備安全センター性能評定取得品
 41
0.75
  0
TEXT
  5
1290E0
  8
SLIM
 10
9631.1000000000004
 20
-1817.9999999999959
 30
0.0
 40
28.0
  1
注）ご採用にあたり、認定書及び評定書の内容をご確認ください。
 41
0.75
  0
TEXT
  5
1290E1
  8
SLIM
 10
9739.1250000000018
 20
-1621.4999999999959
 30
0.0
 40
35.0
  1
両受けスタイル（W）＋シンドカット
 41
0.75
  0
TEXT
  5
1290E2
  8
SLIM
 10
11743.5
 20
-1621.4999999999959
 30
0.0
 40
35.0
  1
カンペイ君（WKP）＋シンドカット
 41
0.75
  0
TEXT
  5
1290E3
  8
SLIM
 10
7741.625
 20
-1347.499999999998
 30
0.0
 40
35.0
  1
片受けスタイル（S）＋シンドカット
 41
0.75
  0
TEXT
  5
1290E4
  8
SLIM
 10
5858.1250000000009
 20
-1662.4999999999991
 30
0.0
 40
35.0
  1
カンペイ君（WKP）
 41
0.75
  0
TEXT
  5
1290E5
  8
SLIM
 10
1856.25
 20
-1347.499999999998
 30
0.0
 40
35.0
  1
片受けスタイル（S）
 41
0.75
  0
TEXT
  5
1290E6
  8
SLIM
 10
0.0
 20
367.19448474768478
 30
0.0
 40
100.0
  1
3SL-CXX-WKP
 41
0.75
  0
VIEWPORT
  5
F6BA7
 67
     1
  8
0
 10
145.33033752441401
 20
101.8328354358673
 30
0.0
 40
334.0025019414623
 41
222.19657968139651
 68
     1
 69
     1
1001
ACAD
1000
MVIEW
1002
{
1070
    16
1010
0.0
1020
0.0
1030
0.0
1010
0.0
1020
0.0
1030
1.0
1040
0.0
1040
222.19657968139651
1040
145.33033752441401
1040
101.8328354358673
1040
50.0
1040
0.0
1040
0.0
1070
     0
1070
     0
1070
     1
1070
     1
1070
     0
1070
     0
1070
     0
1070
     0
1040
0.0
1040
0.0
1040
0.0
1040
10.0
1040
10.0
1040
10.0
1040
10.0
1070
     0
1002
{
1002
}
1002
}
  0
VIEWPORT
  5
F6BA9
 67
     1
  8
OBJECT
 10
145.3303314447403
 20
101.8328338861465
 30
0.0
 40
232.5285303115844
 41
162.93253421783439
 68
     2
 69
     2
1001
ACAD
1000
MVIEW
1002
{
1070
    16
1010
0.0
1020
0.0
1030
0.0
1010
0.0
1020
0.0
1030
1.0
1040
0.0
1040
25942.55904403147
1040
2377.604457077377
1040
-7591.5176687056619
1040
50.0
1040
0.0
1040
0.0
1070
     0
1070
   600
1070
     1
1070
     1
1070
     0
1070
     0
1070
     0
1070
     0
1040
0.0
1040
0.0
1040
0.0
1040
1.0
1040
1.0
1040
0.0
1040
0.0
1070
     0
1002
{
1002
}
1002
}
  0
ENDSEC
  0
EOF
