  0
SECTION
  2
HEADER
  9
$ACADVER
  1
AC1009
  9
$INSBASE
 10
0.0
 20
0.0
 30
0.0
  9
$EXTMIN
 10
-25.796370766537851
 20
-3697.4999999999968
 30
0.0
  9
$EXTMAX
 10
12399.70000000001
 20
767.19448474768467
 30
0.0
  9
$LIMMIN
 10
0.0
 20
0.0
  9
$LIMMAX
 10
210.0
 20
297.0
  9
$ORTHOMODE
 70
     0
  9
$REGENMODE
 70
     1
  9
$FILLMODE
 70
     1
  9
$QTEXTMODE
 70
     0
  9
$MIRRTEXT
 70
     0
  9
$DRAGMODE
 70
     2
  9
$LTSCALE
 40
1.0
  9
$OSMODE
 70
  2429
  9
$ATTMODE
 70
     1
  9
$TEXTSIZE
 40
4.0
  9
$TRACEWID
 40
0.05
  9
$TEXTSTYLE
  7
STANDARD
  9
$CLAYER
  8
OBJECT
  9
$CELTYPE
  6
BYLAYER
  9
$CECOLOR
 62
   256
  9
$DIMSCALE
 40
10.0
  9
$DIMASZ
 40
2.0
  9
$DIMEXO
 40
1.0
  9
$DIMDLI
 40
10.0
  9
$DIMRND
 40
0.0
  9
$DIMDLE
 40
0.0
  9
$DIMEXE
 40
1.0
  9
$DIMTP
 40
0.0
  9
$DIMTM
 40
0.0
  9
$DIMTXT
 40
3.2000000000000002
  9
$DIMCEN
 40
0.0
  9
$DIMTSZ
 40
0.0
  9
$DIMTOL
 70
     0
  9
$DIMLIM
 70
     0
  9
$DIMTIH
 70
     0
  9
$DIMTOH
 70
     0
  9
$DIMSE1
 70
     0
  9
$DIMSE2
 70
     0
  9
$DIMTAD
 70
     1
  9
$DIMZIN
 70
     8
  9
$DIMBLK
  1
OPEN30
  9
$DIMASO
 70
     1
  9
$DIMSHO
 70
     1
  9
$DIMPOST
  1

  9
$DIMAPOST
  1

  9
$DIMALT
 70
     0
  9
$DIMALTD
 70
     2
  9
$DIMALTF
 40
25.399999999999999
  9
$DIMLFAC
 40
1.0
  9
$DIMTOFL
 70
     1
  9
$DIMTVP
 40
0.0
  9
$DIMTIX
 70
     0
  9
$DIMSOXD
 70
     0
  9
$DIMSAH
 70
     0
  9
$DIMBLK1
  1

  9
$DIMBLK2
  1

  9
$DIMSTYLE
  2
S10
  9
$DIMCLRD
 70
   256
  9
$DIMCLRE
 70
   256
  9
$DIMCLRT
 70
   256
  9
$DIMTFAC
 40
1.0
  9
$DIMGAP
 40
0.9
  9
$LUNITS
 70
     2
  9
$LUPREC
 70
     2
  9
$SKETCHINC
 40
0.1
  9
$FILLETRAD
 40
0.0
  9
$AUNITS
 70
     0
  9
$AUPREC
 70
     2
  9
$MENU
  1
ACAD
  9
$ELEVATION
 40
0.0
  9
$PELEVATION
 40
0.0
  9
$THICKNESS
 40
0.0
  9
$LIMCHECK
 70
     0
  9
$BLIPMODE
 70
     0
  9
$CHAMFERA
 40
2.0
  9
$CHAMFERB
 40
2.0
  9
$SKPOLY
 70
     0
  9
$TDCREATE
 40
2453095.4929404748
  9
$TDUPDATE
 40
2457233.6342919562
  9
$TDINDWG
 40
18.424835729200002
  9
$TDUSRTIMER
 40
18.424834988400001
  9
$USRTIMER
 70
     1
  9
$ANGBASE
 50
0.0
  9
$ANGDIR
 70
     0
  9
$PDMODE
 70
    35
  9
$PDSIZE
 40
2.0
  9
$PLINEWID
 40
0.0
  9
$COORDS
 70
     0
  9
$SPLFRAME
 70
     0
  9
$SPLINETYPE
 70
     6
  9
$SPLINESEGS
 70
     8
  9
$ATTDIA
 70
     0
  9
$ATTREQ
 70
     1
  9
$HANDLING
 70
     1
  9
$HANDSEED
  5
12F77D
  9
$SURFTAB1
 70
     6
  9
$SURFTAB2
 70
     6
  9
$SURFTYPE
 70
     6
  9
$SURFU
 70
     6
  9
$SURFV
 70
     6
  9
$UCSNAME
  2

  9
$UCSORG
 10
0.0
 20
0.0
 30
0.0
  9
$UCSXDIR
 10
1.0
 20
0.0
 30
0.0
  9
$UCSYDIR
 10
0.0
 20
1.0
 30
0.0
  9
$PUCSNAME
  2

  9
$PUCSORG
 10
0.0
 20
0.0
 30
0.0
  9
$PUCSXDIR
 10
1.0
 20
0.0
 30
0.0
  9
$PUCSYDIR
 10
0.0
 20
1.0
 30
0.0
  9
$USERI1
 70
     0
  9
$USERI2
 70
     0
  9
$USERI3
 70
     0
  9
$USERI4
 70
     0
  9
$USERI5
 70
     0
  9
$USERR1
 40
0.0
  9
$USERR2
 40
0.0
  9
$USERR3
 40
0.0
  9
$USERR4
 40
0.0
  9
$USERR5
 40
0.0
  9
$WORLDVIEW
 70
     1
  9
$SHADEDGE
 70
     3
  9
$SHADEDIF
 70
    70
  9
$TILEMODE
 70
     1
  9
$MAXACTVP
 70
    64
  9
$PLIMCHECK
 70
     0
  9
$PEXTMIN
 10
29.066066288948051
 20
20.366566777229309
 30
0.0
  9
$PEXTMAX
 10
261.5945966005325
 20
183.29910099506381
 30
0.0
  9
$PLIMMIN
 10
-3.17498779296875
 20
-3.1749999523162842
  9
$PLIMMAX
 10
293.83566284179687
 20
206.8406708240509
  9
$UNITMODE
 70
     0
  9
$VISRETAIN
 70
     1
  9
$PLINEGEN
 70
     0
  9
$PSLTSCALE
 70
     1
  0
ENDSEC
  0
SECTION
  2
TABLES
  0
TABLE
  2
VPORT
 70
     1
  0
VPORT
  2
*ACTIVE
 70
     0
 10
0.0
 20
0.0
 11
1.0
 21
1.0
 12
5685.1648085596707
 22
-3328.934514777025
 13
0.0
 23
0.0
 14
1.0
 24
1.0
 15
0.0
 25
0.0
 16
0.0
 26
0.0
 36
1.0
 17
0.0
 27
0.0
 37
0.0
 40
9470.9768086495296
 41
1.6494178525226391
 42
50.0
 43
0.0
 44
0.0
 50
0.0
 51
0.0
 71
     0
 72
   600
 73
     1
 74
     1
 75
     0
 76
     0
 77
     0
 78
     0
  0
ENDTAB
  0
TABLE
  2
LTYPE
 70
     4
  0
LTYPE
  2
CONTINUOUS
 70
     0
  3
Solid line
 72
    65
 73
     0
 40
0.0
  0
LTYPE
  2
PHANTOM2
 70
     0
  3
___ _ _ ___ _ _ ___ _ _ ___ _ _
 72
    65
 73
     6
 40
1.25
 49
0.625
 49
-0.125
 49
0.125
 49
-0.125
 49
0.125
 49
-0.125
  0
LTYPE
  2
ACAD_ISO08W100
 70
     0
  3
ISO long-dash short-dash ____ __ ____ __ ____ _
 72
    65
 73
     4
 40
36.0
 49
24.0
 49
-3.0
 49
6.0
 49
-3.0
  0
LTYPE
  2
ACAD_ISO02W100
 70
     0
  3
ISO dash __ __ __ __ __ __ __ __ __ __ __ __ __
 72
    65
 73
     2
 40
15.0
 49
12.0
 49
-3.0
  0
ENDTAB
  0
TABLE
  2
LAYER
 70
     8
  0
LAYER
  2
0
 70
     0
 62
     7
  6
CONTINUOUS
  0
LAYER
  2
OBJECT
 70
     0
 62
     4
  6
CONTINUOUS
  0
LAYER
  2
DEFPOINTS
 70
     0
 62
     7
  6
CONTINUOUS
  0
LAYER
  2
DIM
 70
     0
 62
     7
  6
CONTINUOUS
  0
LAYER
  2
HIDDEN
 70
     0
 62
     2
  6
ACAD_ISO02W100
  0
LAYER
  2
CENTER
 70
     0
 62
     2
  6
ACAD_ISO08W100
  0
LAYER
  2
DOTS
 70
     0
 62
     1
  6
CONTINUOUS
  0
LAYER
  2
SLIM
 70
     0
 62
     2
  6
CONTINUOUS
  0
ENDTAB
  0
TABLE
  2
STYLE
 70
     2
  0
STYLE
  2
STANDARD
 70
     0
 40
0.0
 41
0.75
 50
0.0
 71
     0
 42
4.0
  3
simplex.shx
  4
bigfont.shx
  0
ENDTAB
  0
TABLE
  2
VIEW
 70
     0
  0
ENDTAB
  0
TABLE
  2
UCS
 70
     0
  0
ENDTAB
  0
TABLE
  2
APPID
 70
    18
  0
APPID
  2
ACAD
 70
     0
  0
APPID
  2
ACADANNOTATIVE
 70
     0
  0
APPID
  2
ACAD_PSEXT
 70
     0
  0
APPID
  2
ACAD_EXEMPT_FROM_CAD_STANDARDS
 70
     0
  0
APPID
  2
ACAECLAYERSTANDARD
 70
     0
  0
APPID
  2
ACAUTHENVIRON
 70
     0
  0
APPID
  2
ACDBDYNAMICBLOCKTRUENAME
 70
     0
  0
APPID
  2
ACDBDYNAMICBLOCKGUID
 70
     0
  0
APPID
  2
ACDBBLOCKREPETAG
 70
     0
  0
APPID
  2
ACDBBLOCKREPBTAG
 70
     0
  0
APPID
  2
ACAD_NAV_VCDISPLAY
 70
     0
  0
APPID
  2
ACAD_DSTYLE_DIMRADIAL_EXTENSION
 70
     0
  0
APPID
  2
ACAD_DSTYLE_DIMJAG
 70
     0
  0
APPID
  2
ACAD_DSTYLE_DIMTALN
 70
     0
  0
APPID
  2
ACADANNOPO
 70
     0
  0
APPID
  2
GRADIENTCOLOR1ACI
 70
     0
  0
APPID
  2
GRADIENTCOLOR2ACI
 70
     0
  0
APPID
  2
ACAD_MLEADERVER
 70
     0
  0
ENDTAB
  0
TABLE
  2
DIMSTYLE
 70
     3
  0
DIMSTYLE
  2
STANDARD
 70
     0
  3

  4

  5

  6

  7

 40
1.0
 41
0.18
 42
0.0625
 43
0.38
 44
0.18
 45
0.0
 46
0.0
 47
0.0
 48
0.0
140
0.18
141
0.09
142
0.0
143
25.399999999999999
144
1.0
145
0.0
146
1.0
147
0.09
 71
     0
 72
     0
 73
     1
 74
     1
 75
     0
 76
     0
 77
     0
 78
     0
170
     0
171
     2
172
     0
173
     0
174
     0
175
     0
176
     0
177
     0
178
     0
  0
DIMSTYLE
  2
S10
 70
     0
  3

  4

  5

  6

  7

 40
10.0
 41
2.0
 42
1.0
 43
10.0
 44
1.0
 45
0.0
 46
0.0
 47
0.0
 48
0.0
140
3.2000000000000002
141
0.0
142
0.0
143
25.399999999999999
144
1.0
145
0.0
146
1.0
147
0.9
 71
     0
 72
     0
 73
     0
 74
     0
 75
     0
 76
     0
 77
     1
 78
     8
170
     0
171
     2
172
     1
173
     0
174
     0
175
     0
176
   256
177
   256
178
   256
  0
ENDTAB
  0
ENDSEC
  0
SECTION
  2
BLOCKS
  0
BLOCK
  8
0
  2
$MODEL_SPACE
 70
     0
 10
0.0
 20
0.0
 30
0.0
  3
$MODEL_SPACE
  1

  0
ENDBLK
  5
12F67B
  8
0
  0
BLOCK
 67
     1
  8
0
  2
$PAPER_SPACE
 70
     0
 10
0.0
 20
0.0
 30
0.0
  3
$PAPER_SPACE
  1

  0
ENDBLK
  5
12F677
 67
     1
  8
0
  0
BLOCK
  8
0
  2
_OPEN30
 70
     0
 10
0.0
 20
0.0
 30
0.0
  3
_OPEN30
  1

  0
LINE
  5
202
  8
0
  6
BYBLOCK
 62
     0
 10
-1.0
 20
0.26794919
 30
0.0
 11
0.0
 21
0.0
 31
0.0
  0
LINE
  5
203
  8
0
  6
BYBLOCK
 62
     0
 10
0.0
 20
0.0
 30
0.0
 11
-1.0
 21
-0.26794919
 31
0.0
  0
LINE
  5
204
  8
0
  6
BYBLOCK
 62
     0
 10
0.0
 20
0.0
 30
0.0
 11
-1.0
 21
0.0
 31
0.0
  0
ENDBLK
  5
206
  8
0
  0
BLOCK
  8
0
  2
*U3
 70
     1
 10
0.0
 20
0.0
 30
0.0
  3
*U3
  1

  0
TEXT
  5
12F578
  8
SLIM
 10
253.0
 20
-693.95238095237994
 30
0.0
 40
26.0
  1
75
 50
270.0
  0
ENDBLK
  5
12F57A
  8
0
  0
BLOCK
  8
0
  2
*U4
 70
     1
 10
0.0
 20
0.0
 30
0.0
  3
*U4
  1

  0
TEXT
  5
12F57C
  8
SLIM
 10
127.5714285714286
 20
-553.00000000001137
 30
0.0
 40
26.0
  1
75Z
  0
ENDBLK
  5
12F57E
  8
0
  0
BLOCK
  8
0
  2
*U5
 70
     1
 10
0.0
 20
0.0
 30
0.0
  3
*U5
  1

  0
TEXT
  5
12F580
  8
SLIM
 10
233.26666666666651
 20
-553.00000000001137
 30
0.0
 40
26.0
  1
通気
  0
ENDBLK
  5
12F582
  8
0
  0
BLOCK
  8
0
  2
*U6
 70
     1
 10
0.0
 20
0.0
 30
0.0
  3
*U6
  1

  0
TEXT
  5
12F584
  8
SLIM
 10
613.0
 20
-229.9523809523798
 30
0.0
 40
26.0
  1
65
 50
270.0
  0
ENDBLK
  5
12F586
  8
0
  0
BLOCK
  8
0
  2
*U7
 70
     1
 10
0.0
 20
0.0
 30
0.0
  3
*U7
  1

  0
TEXT
  5
12F588
  8
SLIM
 10
487.5714285714285
 20
-89.000000000011582
 30
0.0
 40
26.0
  1
75Z
  0
ENDBLK
  5
12F58A
  8
0
  0
BLOCK
  8
0
  2
*U8
 70
     1
 10
0.0
 20
0.0
 30
0.0
  3
*U8
  1

  0
TEXT
  5
12F58C
  8
SLIM
 10
593.26666666666665
 20
-89.000000000011582
 30
0.0
 40
26.0
  1
通気
  0
ENDBLK
  5
12F58E
  8
0
  0
BLOCK
  8
0
  2
*U9
 70
     1
 10
0.0
 20
0.0
 30
0.0
  3
*U9
  1

  0
TEXT
  5
12F590
  8
SLIM
 10
253.0
 20
-229.9523809523798
 30
0.0
 40
26.0
  1
50
 50
270.0
  0
ENDBLK
  5
12F592
  8
0
  0
BLOCK
  8
0
  2
*U10
 70
     1
 10
0.0
 20
0.0
 30
0.0
  3
*U10
  1

  0
TEXT
  5
12F594
  8
SLIM
 10
127.5714285714286
 20
-89.000000000011582
 30
0.0
 40
26.0
  1
75Z
  0
ENDBLK
  5
12F596
  8
0
  0
BLOCK
  8
0
  2
*U11
 70
     1
 10
0.0
 20
0.0
 30
0.0
  3
*U11
  1

  0
TEXT
  5
12F598
  8
SLIM
 10
233.26666666666651
 20
-89.000000000011582
 30
0.0
 40
26.0
  1
通気
  0
ENDBLK
  5
12F59A
  8
0
  0
BLOCK
  8
0
  2
*U12
 70
     1
 10
0.0
 20
0.0
 30
0.0
  3
*U12
  1

  0
TEXT
  5
12F5FF
  8
DIM
 10
2199.479620594459
 20
-3184.1428571428528
 30
0.0
 40
32.0
  1
A
 50
90.0
 41
0.75
  0
ENDBLK
  5
12F601
  8
0
  0
BLOCK
  8
0
  2
*U13
 70
     1
 10
0.0
 20
0.0
 30
0.0
  3
*U13
  1

  0
TEXT
  5
12F603
  8
DIM
 10
2197.840928403733
 20
-3565.9999999999959
 30
0.0
 40
32.0
  1
B
 50
90.0
 41
0.75
  0
ENDBLK
  5
12F605
  8
0
  0
BLOCK
  8
0
  2
*U14
 70
     1
 10
0.0
 20
0.0
 30
0.0
  3
*U14
  1

  0
TEXT
  5
12F607
  8
DIM
 10
2056.4285714285711
 20
-3048.2081219844449
 30
0.0
 40
32.0
  1
C
 41
0.75
  0
ENDBLK
  5
12F609
  8
0
  0
ENDSEC
  0
SECTION
  2
ENTITIES
  0
LINE
  5
11E11D
  8
OBJECT
 10
1825.0
 20
-3579.9999999999959
 30
0.0
 11
4575.0
 21
-3579.9999999999959
 31
0.0
  0
LINE
  5
11E11F
  8
SLIM
 10
2616.0
 20
-2637.50001604727
 30
0.0
 11
2616.0
 21
-2967.50001604727
 31
0.0
  0
LINE
  5
11E120
  8
SLIM
 10
2740.0
 20
-2637.50001604727
 30
0.0
 11
2740.0
 21
-2967.50001604727
 31
0.0
  0
LINE
  5
11E121
  8
SLIM
 10
2870.0
 20
-2697.50001604727
 30
0.0
 11
2870.0
 21
-2967.50001604727
 31
0.0
  0
LINE
  5
11E122
  8
SLIM
 10
3000.0
 20
-2697.50001604727
 30
0.0
 11
3000.0
 21
-2967.50001604727
 31
0.0
  0
LINE
  5
11E123
  8
SLIM
 10
3130.0
 20
-2967.50001604727
 30
0.0
 11
3130.0
 21
-2637.50001604727
 31
0.0
  0
LINE
  5
11E125
  8
SLIM
 10
3130.0
 20
-2637.50001604727
 30
0.0
 11
2616.0
 21
-2637.50001604727
 31
0.0
  0
LINE
  5
11E126
  8
SLIM
 10
3130.0
 20
-2697.50001604727
 30
0.0
 11
2740.0
 21
-2697.50001604727
 31
0.0
  0
LINE
  5
11E127
  8
SLIM
 10
3130.0
 20
-2757.50001604727
 30
0.0
 11
2616.0
 21
-2757.50001604727
 31
0.0
  0
LINE
  5
11E128
  8
SLIM
 10
3130.0
 20
-2827.50001604727
 30
0.0
 11
2616.0
 21
-2827.50001604727
 31
0.0
  0
LINE
  5
11E129
  8
SLIM
 10
3130.0
 20
-2897.50001604727
 30
0.0
 11
2616.0
 21
-2897.50001604727
 31
0.0
  0
LINE
  5
11E12A
  8
SLIM
 10
3130.0
 20
-2967.50001604727
 30
0.0
 11
2616.0
 21
-2967.50001604727
 31
0.0
  0
LINE
  5
11E13F
  8
SLIM
 10
2740.0
 20
-2757.50001604727
 30
0.0
 11
2615.9999722746579
 21
-2637.5
 31
0.0
  0
ARC
  5
12EE77
  8
OBJECT
 10
161.0
 20
-714.99999999999875
 30
0.0
 40
70.0
 50
152.33955010081621
 51
207.6604498991837
1001
ACDBBLOCKREPETAG
1070
     1
1071
        0
1005
12EE77
  0
CIRCLE
  5
12EE78
  8
OBJECT
 10
161.0
 20
-714.99999999999875
 30
0.0
 40
65.0
1001
ACDBBLOCKREPETAG
1070
     1
1071
        1
1005
12EE78
  0
CIRCLE
  5
12EE79
  8
OBJECT
 10
161.0
 20
-714.99999999999875
 30
0.0
 40
50.5
1001
ACDBBLOCKREPETAG
1070
     1
1071
        3
1005
12EE79
  0
LINE
  5
12EE7A
  8
OBJECT
 10
99.0
 20
-644.99999999999704
 30
0.0
 11
99.0
 21
-695.48077870405575
 31
0.0
1001
ACDBBLOCKREPETAG
1070
     1
1071
        4
1005
12EE7A
  0
LINE
  5
12EE7B
  8
OBJECT
 10
99.0
 20
-784.99999999999875
 30
0.0
 11
99.0
 21
-734.51922129594175
 31
0.0
1001
ACDBBLOCKREPETAG
1070
     1
1071
        5
1005
12EE7B
  0
LINE
  5
12EE7C
  8
OBJECT
 10
223.0
 20
-784.99999999999875
 30
0.0
 11
223.0
 21
-776.99999999999875
 31
0.0
1001
ACDBBLOCKREPETAG
1070
     1
1071
        6
1005
12EE7C
  0
LINE
  5
12EE7D
  8
OBJECT
 10
231.0
 20
-776.99999999999875
 30
0.0
 11
223.0
 21
-776.99999999999875
 31
0.0
1001
ACDBBLOCKREPETAG
1070
     1
1071
        7
1005
12EE7D
  0
LINE
  5
12EE7E
  8
OBJECT
 10
223.0
 20
-644.99999999999704
 30
0.0
 11
223.0
 21
-652.99999999999875
 31
0.0
1001
ACDBBLOCKREPETAG
1070
     1
1071
        8
1005
12EE7E
  0
LINE
  5
12EE7F
  8
OBJECT
 10
231.0
 20
-652.99999999999875
 30
0.0
 11
223.0
 21
-652.99999999999875
 31
0.0
1001
ACDBBLOCKREPETAG
1070
     1
1071
        9
1005
12EE7F
  0
LINE
  5
12EE80
  8
OBJECT
 10
206.96194077712559
 20
-760.96194077712425
 30
0.0
 11
223.0
 21
-776.99999999999875
 31
0.0
1001
ACDBBLOCKREPETAG
1070
     1
1071
       21
1005
12EE80
  0
LINE
  5
12EE81
  8
OBJECT
 10
206.96194077712559
 20
-669.03805922287324
 30
0.0
 11
223.0
 21
-652.99999999999875
 31
0.0
1001
ACDBBLOCKREPETAG
1070
     1
1071
       22
1005
12EE81
  0
POINT
  5
12EE82
  8
DOTS
 10
161.0
 20
-714.99999999999875
 30
0.0
1001
ACDBBLOCKREPETAG
1070
     1
1071
       23
1005
12EE82
  0
POINT
  5
12EE83
  8
DOTS
 10
161.0
 20
-714.99999999999875
 30
0.0
 50
270.0
1001
ACDBBLOCKREPETAG
1070
     1
1071
       46
1005
12EE83
  0
ARC
  5
12EE84
  8
OBJECT
 10
521.0
 20
-250.99999999999889
 30
0.0
 40
70.0
 50
152.33955010081689
 51
207.66044989918311
1001
ACDBBLOCKREPETAG
1070
     1
1071
        0
1005
12EE84
  0
CIRCLE
  5
12EE85
  8
OBJECT
 10
521.0
 20
-250.99999999999889
 30
0.0
 40
65.0
1001
ACDBBLOCKREPETAG
1070
     1
1071
        1
1005
12EE85
  0
CIRCLE
  5
12EE86
  8
OBJECT
 10
521.0
 20
-250.99999999999889
 30
0.0
 40
50.5
1001
ACDBBLOCKREPETAG
1070
     1
1071
        3
1005
12EE86
  0
LINE
  5
12EE87
  8
OBJECT
 10
459.0
 20
-180.99999999999699
 30
0.0
 11
459.0
 21
-231.48077870405589
 31
0.0
1001
ACDBBLOCKREPETAG
1070
     1
1071
        4
1005
12EE87
  0
LINE
  5
12EE88
  8
OBJECT
 10
459.0
 20
-320.99999999999892
 30
0.0
 11
459.0
 21
-270.51922129594197
 31
0.0
1001
ACDBBLOCKREPETAG
1070
     1
1071
        5
1005
12EE88
  0
LINE
  5
12EE89
  8
OBJECT
 10
583.0
 20
-320.99999999999892
 30
0.0
 11
583.0
 21
-312.99999999999892
 31
0.0
1001
ACDBBLOCKREPETAG
1070
     1
1071
        6
1005
12EE89
  0
LINE
  5
12EE8A
  8
OBJECT
 10
591.0
 20
-312.99999999999892
 30
0.0
 11
583.0
 21
-312.99999999999892
 31
0.0
1001
ACDBBLOCKREPETAG
1070
     1
1071
        7
1005
12EE8A
  0
LINE
  5
12EE8B
  8
OBJECT
 10
583.0
 20
-180.99999999999699
 30
0.0
 11
583.0
 21
-188.99999999999881
 31
0.0
1001
ACDBBLOCKREPETAG
1070
     1
1071
        8
1005
12EE8B
  0
LINE
  5
12EE8C
  8
OBJECT
 10
591.0
 20
-188.99999999999881
 30
0.0
 11
583.0
 21
-188.99999999999881
 31
0.0
1001
ACDBBLOCKREPETAG
1070
     1
1071
        9
1005
12EE8C
  0
LINE
  5
12EE8D
  8
OBJECT
 10
566.96194077712562
 20
-296.96194077712448
 30
0.0
 11
583.0
 21
-312.99999999999892
 31
0.0
1001
ACDBBLOCKREPETAG
1070
     1
1071
       21
1005
12EE8D
  0
LINE
  5
12EE8E
  8
OBJECT
 10
566.96194077712562
 20
-205.0380592228733
 30
0.0
 11
583.0
 21
-188.99999999999881
 31
0.0
1001
ACDBBLOCKREPETAG
1070
     1
1071
       22
1005
12EE8E
  0
POINT
  5
12EE8F
  8
DOTS
 10
521.0
 20
-250.99999999999889
 30
0.0
1001
ACDBBLOCKREPETAG
1070
     1
1071
       23
1005
12EE8F
  0
POINT
  5
12EE90
  8
DOTS
 10
521.0
 20
-250.99999999999889
 30
0.0
 50
270.0
1001
ACDBBLOCKREPETAG
1070
     1
1071
       46
1005
12EE90
  0
ARC
  5
12EE91
  8
OBJECT
 10
161.0
 20
-250.99999999999889
 30
0.0
 40
70.0
 50
152.33955010081621
 51
207.6604498991837
1001
ACDBBLOCKREPETAG
1070
     1
1071
        0
1005
12EE91
  0
CIRCLE
  5
12EE92
  8
OBJECT
 10
161.0
 20
-250.99999999999889
 30
0.0
 40
65.0
1001
ACDBBLOCKREPETAG
1070
     1
1071
        1
1005
12EE92
  0
CIRCLE
  5
12EE93
  8
OBJECT
 10
161.0
 20
-250.99999999999889
 30
0.0
 40
50.5
1001
ACDBBLOCKREPETAG
1070
     1
1071
        3
1005
12EE93
  0
LINE
  5
12EE94
  8
OBJECT
 10
99.0
 20
-180.99999999999699
 30
0.0
 11
99.0
 21
-231.48077870405589
 31
0.0
1001
ACDBBLOCKREPETAG
1070
     1
1071
        4
1005
12EE94
  0
LINE
  5
12EE95
  8
OBJECT
 10
99.0
 20
-320.99999999999892
 30
0.0
 11
99.0
 21
-270.51922129594197
 31
0.0
1001
ACDBBLOCKREPETAG
1070
     1
1071
        5
1005
12EE95
  0
LINE
  5
12EE96
  8
OBJECT
 10
223.0
 20
-320.99999999999892
 30
0.0
 11
223.0
 21
-312.99999999999892
 31
0.0
1001
ACDBBLOCKREPETAG
1070
     1
1071
        6
1005
12EE96
  0
LINE
  5
12EE97
  8
OBJECT
 10
231.0
 20
-312.99999999999892
 30
0.0
 11
223.0
 21
-312.99999999999892
 31
0.0
1001
ACDBBLOCKREPETAG
1070
     1
1071
        7
1005
12EE97
  0
LINE
  5
12EE98
  8
OBJECT
 10
223.0
 20
-180.99999999999699
 30
0.0
 11
223.0
 21
-188.99999999999881
 31
0.0
1001
ACDBBLOCKREPETAG
1070
     1
1071
        8
1005
12EE98
  0
LINE
  5
12EE99
  8
OBJECT
 10
231.0
 20
-188.99999999999881
 30
0.0
 11
223.0
 21
-188.99999999999881
 31
0.0
1001
ACDBBLOCKREPETAG
1070
     1
1071
        9
1005
12EE99
  0
LINE
  5
12EE9A
  8
OBJECT
 10
206.96194077712559
 20
-296.96194077712448
 30
0.0
 11
223.0
 21
-312.99999999999892
 31
0.0
1001
ACDBBLOCKREPETAG
1070
     1
1071
       21
1005
12EE9A
  0
LINE
  5
12EE9B
  8
OBJECT
 10
206.96194077712559
 20
-205.0380592228733
 30
0.0
 11
223.0
 21
-188.99999999999881
 31
0.0
1001
ACDBBLOCKREPETAG
1070
     1
1071
       22
1005
12EE9B
  0
POINT
  5
12EE9C
  8
DOTS
 10
161.0
 20
-250.99999999999889
 30
0.0
1001
ACDBBLOCKREPETAG
1070
     1
1071
       23
1005
12EE9C
  0
POINT
  5
12EE9D
  8
DOTS
 10
161.0
 20
-250.99999999999889
 30
0.0
 50
270.0
1001
ACDBBLOCKREPETAG
1070
     1
1071
       46
1005
12EE9D
  0
LINE
  5
12EE9E
  8
OBJECT
 10
99.0
 20
-787.99999999999875
 30
0.0
 11
99.0
 21
-784.99999999999875
 31
0.0
1001
ACDBBLOCKREPETAG
1070
     1
1071
      418
1005
12EE9E
  0
ARC
  5
12EE9F
  8
OBJECT
 10
102.0
 20
-787.99999999999875
 30
0.0
 40
3.0
 50
180.0
 51
270.0
1001
ACDBBLOCKREPETAG
1070
     1
1071
      419
1005
12EE9F
  0
LINE
  5
12EEA0
  8
OBJECT
 10
223.0
 20
-784.99999999999875
 30
0.0
 11
223.0
 21
-787.99999999999875
 31
0.0
1001
ACDBBLOCKREPETAG
1070
     1
1071
      420
1005
12EEA0
  0
ARC
  5
12EEA1
  8
OBJECT
 10
220.0
 20
-787.99999999999875
 30
0.0
 40
3.0
 50
270.0
 51
0.0
1001
ACDBBLOCKREPETAG
1070
     1
1071
      421
1005
12EEA1
  0
LINE
  5
12EEA2
  8
OBJECT
 10
220.0
 20
-790.99999999999875
 30
0.0
 11
102.0
 21
-790.99999999999875
 31
0.0
1001
ACDBBLOCKREPETAG
1070
     1
1071
      422
1005
12EEA2
  0
INSERT
  5
12EEA3
  8
OBJECT
  2
*U3
 10
0.0
 20
0.0
 30
0.0
  0
LINE
  5
12EEA4
  8
OBJECT
 10
284.0
 20
-652.99999999999875
 30
0.0
 11
291.0
 21
-652.99999999999875
 31
0.0
1001
ACDBBLOCKREPETAG
1070
     1
1071
       39
1005
12EEA4
  0
LINE
  5
12EEA5
  8
OBJECT
 10
291.0
 20
-652.99999999999875
 30
0.0
 11
291.0
 21
-776.99999999999875
 31
0.0
1001
ACDBBLOCKREPETAG
1070
     1
1071
       40
1005
12EEA5
  0
LINE
  5
12EEA6
  8
OBJECT
 10
291.0
 20
-776.99999999999875
 30
0.0
 11
284.0
 21
-776.99999999999875
 31
0.0
1001
ACDBBLOCKREPETAG
1070
     1
1071
       41
1005
12EEA6
  0
LINE
  5
12EEA7
  8
OBJECT
 10
284.0
 20
-776.99999999999875
 30
0.0
 11
284.0
 21
-652.99999999999875
 31
0.0
1001
ACDBBLOCKREPETAG
1070
     1
1071
       42
1005
12EEA7
  0
LINE
  5
12EEA8
  8
OBJECT
 10
284.0
 20
-655.99999999999875
 30
0.0
 11
248.0
 21
-655.99999999999875
 31
0.0
1001
ACDBBLOCKREPETAG
1070
     1
1071
       43
1005
12EEA8
  0
LINE
  5
12EEA9
  8
OBJECT
 10
248.0
 20
-655.99999999999875
 30
0.0
 11
248.0
 21
-773.99999999999875
 31
0.0
1001
ACDBBLOCKREPETAG
1070
     1
1071
       44
1005
12EEA9
  0
LINE
  5
12EEAA
  8
OBJECT
 10
248.0
 20
-773.99999999999875
 30
0.0
 11
284.0
 21
-773.99999999999875
 31
0.0
1001
ACDBBLOCKREPETAG
1070
     1
1071
       45
1005
12EEAA
  0
LINE
  5
12EEAB
  8
OBJECT
 10
244.0
 20
-660.49999999999875
 30
0.0
 11
237.0
 21
-660.49999999999875
 31
0.0
1001
ACDBBLOCKREPETAG
1070
     1
1071
       46
1005
12EEAB
  0
LINE
  5
12EEAC
  8
OBJECT
 10
237.0
 20
-769.49999999999875
 30
0.0
 11
244.0
 21
-769.49999999999875
 31
0.0
1001
ACDBBLOCKREPETAG
1070
     1
1071
       47
1005
12EEAC
  0
LINE
  5
12EEAD
  8
OBJECT
 10
244.0
 20
-769.49999999999875
 30
0.0
 11
244.0
 21
-660.49999999999875
 31
0.0
1001
ACDBBLOCKREPETAG
1070
     1
1071
       48
1005
12EEAD
  0
LINE
  5
12EEAE
  8
OBJECT
 10
248.0
 20
-655.99999999999875
 30
0.0
 11
244.0
 21
-660.49999999999875
 31
0.0
1001
ACDBBLOCKREPETAG
1070
     1
1071
       49
1005
12EEAE
  0
LINE
  5
12EEAF
  8
OBJECT
 10
248.0
 20
-773.99999999999875
 30
0.0
 11
244.0
 21
-769.49999999999875
 31
0.0
1001
ACDBBLOCKREPETAG
1070
     1
1071
       50
1005
12EEAF
  0
LINE
  5
12EEB0
  8
OBJECT
 10
234.00000000000179
 20
-652.99999999999875
 30
0.0
 11
231.0
 21
-652.99999999999875
 31
0.0
1001
ACDBBLOCKREPETAG
1070
     1
1071
       51
1005
12EEB0
  0
ARC
  5
12EEB1
  8
OBJECT
 10
234.00000000000179
 20
-655.99999999999875
 30
0.0
 40
3.0
 50
0.0
 51
90.0
1001
ACDBBLOCKREPETAG
1070
     1
1071
       52
1005
12EEB1
  0
LINE
  5
12EEB2
  8
OBJECT
 10
231.0
 20
-776.99999999999875
 30
0.0
 11
233.99999999999821
 21
-776.99999999999875
 31
0.0
1001
ACDBBLOCKREPETAG
1070
     1
1071
       53
1005
12EEB2
  0
ARC
  5
12EEB3
  8
OBJECT
 10
233.99999999999821
 20
-773.99999999999875
 30
0.0
 40
3.0
 50
270.0
 51
0.0
1001
ACDBBLOCKREPETAG
1070
     1
1071
       54
1005
12EEB3
  0
LINE
  5
12EEB4
  8
OBJECT
 10
236.99999999999821
 20
-773.99999999999875
 30
0.0
 11
237.00000000000179
 21
-655.99999999999875
 31
0.0
1001
ACDBBLOCKREPETAG
1070
     1
1071
       55
1005
12EEB4
  0
LINE
  5
12EEB5
  8
HIDDEN
 10
239.0
 20
-670.49999999999875
 30
0.0
 11
239.0
 21
-759.49999999999875
 31
0.0
1001
ACDBBLOCKREPETAG
1070
     1
1071
      430
1005
12EEB5
  0
LINE
  5
12EEB6
  8
OBJECT
 10
99.0
 20
-522.0000000000116
 30
0.0
 11
99.0
 21
-515.00000000001137
 31
0.0
1001
ACDBBLOCKREPETAG
1070
     1
1071
      368
1005
12EEB6
  0
LINE
  5
12EEB7
  8
OBJECT
 10
99.0
 20
-515.00000000001137
 30
0.0
 11
223.0
 21
-515.00000000001137
 31
0.0
1001
ACDBBLOCKREPETAG
1070
     1
1071
      369
1005
12EEB7
  0
LINE
  5
12EEB8
  8
OBJECT
 10
223.0
 20
-515.00000000001137
 30
0.0
 11
223.0
 21
-522.0000000000116
 31
0.0
1001
ACDBBLOCKREPETAG
1070
     1
1071
      370
1005
12EEB8
  0
LINE
  5
12EEB9
  8
OBJECT
 10
223.0
 20
-522.0000000000116
 30
0.0
 11
99.0
 21
-522.0000000000116
 31
0.0
1001
ACDBBLOCKREPETAG
1070
     1
1071
      371
1005
12EEB9
  0
LINE
  5
12EEBA
  8
OBJECT
 10
206.00000000000361
 20
-575.00002503581038
 30
0.0
 11
206.0
 21
-638.99999999999807
 31
0.0
1001
ACDBBLOCKREPETAG
1070
     1
1071
      372
1005
12EEBA
  0
LINE
  5
12EEBB
  8
OBJECT
 10
116.0
 20
-575.00002503581038
 30
0.0
 11
116.0
 21
-638.99999999999613
 31
0.0
1001
ACDBBLOCKREPETAG
1070
     1
1071
      373
1005
12EEBB
  0
LINE
  5
12EEBC
  8
OBJECT
 10
102.0
 20
-522.0000000000116
 30
0.0
 11
102.0
 21
-558.0000000000116
 31
0.0
1001
ACDBBLOCKREPETAG
1070
     1
1071
      374
1005
12EEBC
  0
LINE
  5
12EEBD
  8
OBJECT
 10
102.0
 20
-558.0000000000116
 30
0.0
 11
220.0
 21
-558.0000000000116
 31
0.0
1001
ACDBBLOCKREPETAG
1070
     1
1071
      375
1005
12EEBD
  0
LINE
  5
12EEBE
  8
OBJECT
 10
220.0
 20
-558.0000000000116
 30
0.0
 11
220.0
 21
-522.0000000000116
 31
0.0
1001
ACDBBLOCKREPETAG
1070
     1
1071
      376
1005
12EEBE
  0
LINE
  5
12EEBF
  8
OBJECT
 10
106.5
 20
-562.0000000000116
 30
0.0
 11
106.5
 21
-575.0000000000116
 31
0.0
1001
ACDBBLOCKREPETAG
1070
     1
1071
      377
1005
12EEBF
  0
LINE
  5
12EEC0
  8
OBJECT
 10
215.5
 20
-575.0000000000116
 30
0.0
 11
215.5
 21
-562.0000000000116
 31
0.0
1001
ACDBBLOCKREPETAG
1070
     1
1071
      378
1005
12EEC0
  0
LINE
  5
12EEC1
  8
OBJECT
 10
215.5
 20
-562.0000000000116
 30
0.0
 11
106.5
 21
-562.0000000000116
 31
0.0
1001
ACDBBLOCKREPETAG
1070
     1
1071
      379
1005
12EEC1
  0
LINE
  5
12EEC2
  8
OBJECT
 10
102.0
 20
-558.0000000000116
 30
0.0
 11
106.5
 21
-562.0000000000116
 31
0.0
1001
ACDBBLOCKREPETAG
1070
     1
1071
      380
1005
12EEC2
  0
LINE
  5
12EEC3
  8
OBJECT
 10
220.0
 20
-558.0000000000116
 30
0.0
 11
215.5
 21
-562.0000000000116
 31
0.0
1001
ACDBBLOCKREPETAG
1070
     1
1071
      381
1005
12EEC3
  0
LINE
  5
12EEC4
  8
OBJECT
 10
99.0
 20
-641.99999999999613
 30
0.0
 11
99.0
 21
-644.99999999999704
 31
0.0
1001
ACDBBLOCKREPETAG
1070
     1
1071
      382
1005
12EEC4
  0
ARC
  5
12EEC5
  8
OBJECT
 10
102.0
 20
-641.99999999999613
 30
0.0
 40
3.0
 50
90.0
 51
180.0
1001
ACDBBLOCKREPETAG
1070
     1
1071
      383
1005
12EEC5
  0
LINE
  5
12EEC6
  8
OBJECT
 10
223.0
 20
-644.99999999999704
 30
0.0
 11
223.0
 21
-641.99999999999795
 31
0.0
1001
ACDBBLOCKREPETAG
1070
     1
1071
      384
1005
12EEC6
  0
ARC
  5
12EEC7
  8
OBJECT
 10
220.0
 20
-641.99999999999795
 30
0.0
 40
3.0
 50
0.0
 51
90.0
1001
ACDBBLOCKREPETAG
1070
     1
1071
      385
1005
12EEC7
  0
LINE
  5
12EEC8
  8
OBJECT
 10
220.0
 20
-638.99999999999807
 30
0.0
 11
171.32279032035879
 21
-638.99999999999613
 31
0.0
1001
ACDBBLOCKREPETAG
1070
     1
1071
      386
1005
12EEC8
  0
LINE
  5
12EEC9
  8
OBJECT
 10
150.67720967964109
 20
-638.99999999999704
 30
0.0
 11
102.0
 21
-638.99999999999613
 31
0.0
1001
ACDBBLOCKREPETAG
1070
     1
1071
      387
1005
12EEC9
  0
LINE
  5
12EECA
  8
OBJECT
 10
215.49995092381141
 20
-575.00002503581038
 30
0.0
 11
106.4999509238114
 21
-575.00002503581038
 31
0.0
1001
ACDBBLOCKREPETAG
1070
     1
1071
      389
1005
12EECA
  0
ARC
  5
12EECB
  8
OBJECT
 10
161.0
 20
-595.19999999997412
 30
0.0
 40
45.000000000000547
 50
180.0
 51
0.0
1001
ACDBBLOCKREPETAG
1070
     1
1071
      390
1005
12EECB
  0
INSERT
  5
12EECC
  8
OBJECT
  2
*U4
 10
0.0
 20
0.0
 30
0.0
  0
INSERT
  5
12EECD
  8
OBJECT
  2
*U5
 10
0.0
 20
0.0
 30
0.0
  0
LINE
  5
12EECE
  8
HIDDEN
 10
116.5
 20
-567.0000000000116
 30
0.0
 11
205.5
 21
-567.0000000000116
 31
0.0
1001
ACDBBLOCKREPETAG
1070
     1
1071
      435
1005
12EECE
  0
LINE
  5
12EECF
  8
OBJECT
 10
459.0
 20
-323.99999999999892
 30
0.0
 11
459.0
 21
-320.99999999999892
 31
0.0
1001
ACDBBLOCKREPETAG
1070
     1
1071
      418
1005
12EECF
  0
ARC
  5
12EED0
  8
OBJECT
 10
462.0
 20
-323.99999999999892
 30
0.0
 40
3.0
 50
180.0
 51
270.0
1001
ACDBBLOCKREPETAG
1070
     1
1071
      419
1005
12EED0
  0
LINE
  5
12EED1
  8
OBJECT
 10
583.0
 20
-320.99999999999892
 30
0.0
 11
583.0
 21
-323.99999999999892
 31
0.0
1001
ACDBBLOCKREPETAG
1070
     1
1071
      420
1005
12EED1
  0
ARC
  5
12EED2
  8
OBJECT
 10
580.0
 20
-323.99999999999892
 30
0.0
 40
3.0
 50
270.0
 51
0.0
1001
ACDBBLOCKREPETAG
1070
     1
1071
      421
1005
12EED2
  0
LINE
  5
12EED3
  8
OBJECT
 10
580.0
 20
-326.99999999999892
 30
0.0
 11
462.0
 21
-326.99999999999892
 31
0.0
1001
ACDBBLOCKREPETAG
1070
     1
1071
      422
1005
12EED3
  0
INSERT
  5
12EED4
  8
OBJECT
  2
*U6
 10
0.0
 20
0.0
 30
0.0
  0
LINE
  5
12EED5
  8
OBJECT
 10
644.0
 20
-195.99999999999881
 30
0.0
 11
651.0
 21
-195.99999999999881
 31
0.0
1001
ACDBBLOCKREPETAG
1070
     1
1071
       20
1005
12EED5
  0
LINE
  5
12EED6
  8
OBJECT
 10
651.0
 20
-195.99999999999881
 30
0.0
 11
651.0
 21
-305.99999999999881
 31
0.0
1001
ACDBBLOCKREPETAG
1070
     1
1071
       21
1005
12EED6
  0
LINE
  5
12EED7
  8
OBJECT
 10
651.0
 20
-305.99999999999881
 30
0.0
 11
644.0
 21
-305.99999999999881
 31
0.0
1001
ACDBBLOCKREPETAG
1070
     1
1071
       22
1005
12EED7
  0
LINE
  5
12EED8
  8
OBJECT
 10
644.0
 20
-305.99999999999881
 30
0.0
 11
644.0
 21
-195.99999999999881
 31
0.0
1001
ACDBBLOCKREPETAG
1070
     1
1071
       23
1005
12EED8
  0
LINE
  5
12EED9
  8
OBJECT
 10
644.0
 20
-198.99999999999881
 30
0.0
 11
608.0
 21
-198.99999999999881
 31
0.0
1001
ACDBBLOCKREPETAG
1070
     1
1071
       24
1005
12EED9
  0
LINE
  5
12EEDA
  8
OBJECT
 10
608.0
 20
-198.99999999999881
 30
0.0
 11
608.0
 21
-302.99999999999892
 31
0.0
1001
ACDBBLOCKREPETAG
1070
     1
1071
       25
1005
12EEDA
  0
LINE
  5
12EEDB
  8
OBJECT
 10
608.0
 20
-302.99999999999892
 30
0.0
 11
644.0
 21
-302.99999999999892
 31
0.0
1001
ACDBBLOCKREPETAG
1070
     1
1071
       26
1005
12EEDB
  0
LINE
  5
12EEDC
  8
OBJECT
 10
604.0
 20
-203.49999999999889
 30
0.0
 11
597.0
 21
-203.49999999999889
 31
0.0
1001
ACDBBLOCKREPETAG
1070
     1
1071
       27
1005
12EEDC
  0
LINE
  5
12EEDD
  8
OBJECT
 10
597.0
 20
-298.49999999999892
 30
0.0
 11
604.0
 21
-298.49999999999892
 31
0.0
1001
ACDBBLOCKREPETAG
1070
     1
1071
       28
1005
12EEDD
  0
LINE
  5
12EEDE
  8
OBJECT
 10
604.0
 20
-298.49999999999892
 30
0.0
 11
604.0
 21
-203.49999999999889
 31
0.0
1001
ACDBBLOCKREPETAG
1070
     1
1071
       29
1005
12EEDE
  0
LINE
  5
12EEDF
  8
OBJECT
 10
608.0
 20
-198.99999999999881
 30
0.0
 11
604.0
 21
-203.49999999999889
 31
0.0
1001
ACDBBLOCKREPETAG
1070
     1
1071
       30
1005
12EEDF
  0
LINE
  5
12EEE0
  8
OBJECT
 10
608.0
 20
-302.99999999999892
 30
0.0
 11
604.0
 21
-298.49999999999892
 31
0.0
1001
ACDBBLOCKREPETAG
1070
     1
1071
       31
1005
12EEE0
  0
LINE
  5
12EEE1
  8
OBJECT
 10
594.00000000000171
 20
-188.99999999999881
 30
0.0
 11
591.0
 21
-188.99999999999881
 31
0.0
1001
ACDBBLOCKREPETAG
1070
     1
1071
       32
1005
12EEE1
  0
ARC
  5
12EEE2
  8
OBJECT
 10
594.00000000000171
 20
-191.99999999999881
 30
0.0
 40
3.0
 50
0.0
 51
90.0
1001
ACDBBLOCKREPETAG
1070
     1
1071
       33
1005
12EEE2
  0
LINE
  5
12EEE3
  8
OBJECT
 10
591.0
 20
-312.99999999999892
 30
0.0
 11
593.99999999999795
 21
-312.99999999999892
 31
0.0
1001
ACDBBLOCKREPETAG
1070
     1
1071
       34
1005
12EEE3
  0
ARC
  5
12EEE4
  8
OBJECT
 10
593.99999999999795
 20
-309.99999999999881
 30
0.0
 40
3.0
 50
270.0
 51
0.0
1001
ACDBBLOCKREPETAG
1070
     1
1071
       35
1005
12EEE4
  0
LINE
  5
12EEE5
  8
OBJECT
 10
596.99999999999807
 20
-309.99999999999881
 30
0.0
 11
597.00000000000171
 21
-191.99999999999881
 31
0.0
1001
ACDBBLOCKREPETAG
1070
     1
1071
       36
1005
12EEE5
  0
LINE
  5
12EEE6
  8
HIDDEN
 10
599.0
 20
-212.99999999999889
 30
0.0
 11
599.0
 21
-288.99999999999892
 31
0.0
1001
ACDBBLOCKREPETAG
1070
     1
1071
      427
1005
12EEE6
  0
LINE
  5
12EEE7
  8
OBJECT
 10
459.0
 20
-58.000000000011589
 30
0.0
 11
459.0
 21
-51.000000000011589
 31
0.0
1001
ACDBBLOCKREPETAG
1070
     1
1071
      368
1005
12EEE7
  0
LINE
  5
12EEE8
  8
OBJECT
 10
459.0
 20
-51.000000000011589
 30
0.0
 11
583.0
 21
-51.000000000011589
 31
0.0
1001
ACDBBLOCKREPETAG
1070
     1
1071
      369
1005
12EEE8
  0
LINE
  5
12EEE9
  8
OBJECT
 10
583.0
 20
-51.000000000011589
 30
0.0
 11
583.0
 21
-58.000000000011589
 31
0.0
1001
ACDBBLOCKREPETAG
1070
     1
1071
      370
1005
12EEE9
  0
LINE
  5
12EEEA
  8
OBJECT
 10
583.0
 20
-58.000000000011589
 30
0.0
 11
459.0
 21
-58.000000000011589
 31
0.0
1001
ACDBBLOCKREPETAG
1070
     1
1071
      371
1005
12EEEA
  0
LINE
  5
12EEEB
  8
OBJECT
 10
566.00000000000364
 20
-111.00002503581049
 30
0.0
 11
566.0
 21
-174.9999999999979
 31
0.0
1001
ACDBBLOCKREPETAG
1070
     1
1071
      372
1005
12EEEB
  0
LINE
  5
12EEEC
  8
OBJECT
 10
476.0
 20
-111.00002503581049
 30
0.0
 11
476.0
 21
-174.99999999999611
 31
0.0
1001
ACDBBLOCKREPETAG
1070
     1
1071
      373
1005
12EEEC
  0
LINE
  5
12EEED
  8
OBJECT
 10
462.0
 20
-58.000000000011589
 30
0.0
 11
462.0
 21
-94.000000000011596
 31
0.0
1001
ACDBBLOCKREPETAG
1070
     1
1071
      374
1005
12EEED
  0
LINE
  5
12EEEE
  8
OBJECT
 10
462.0
 20
-94.000000000011596
 30
0.0
 11
580.0
 21
-94.000000000011596
 31
0.0
1001
ACDBBLOCKREPETAG
1070
     1
1071
      375
1005
12EEEE
  0
LINE
  5
12EEEF
  8
OBJECT
 10
580.0
 20
-94.000000000011596
 30
0.0
 11
580.0
 21
-58.000000000011589
 31
0.0
1001
ACDBBLOCKREPETAG
1070
     1
1071
      376
1005
12EEEF
  0
LINE
  5
12EEF0
  8
OBJECT
 10
466.5
 20
-98.000000000011596
 30
0.0
 11
466.5
 21
-111.0000000000116
 31
0.0
1001
ACDBBLOCKREPETAG
1070
     1
1071
      377
1005
12EEF0
  0
LINE
  5
12EEF1
  8
OBJECT
 10
575.49999999999989
 20
-111.0000000000116
 30
0.0
 11
575.49999999999989
 21
-98.000000000011596
 31
0.0
1001
ACDBBLOCKREPETAG
1070
     1
1071
      378
1005
12EEF1
  0
LINE
  5
12EEF2
  8
OBJECT
 10
575.49999999999989
 20
-98.000000000011596
 30
0.0
 11
466.5
 21
-98.000000000011596
 31
0.0
1001
ACDBBLOCKREPETAG
1070
     1
1071
      379
1005
12EEF2
  0
LINE
  5
12EEF3
  8
OBJECT
 10
462.0
 20
-94.000000000011596
 30
0.0
 11
466.5
 21
-98.000000000011596
 31
0.0
1001
ACDBBLOCKREPETAG
1070
     1
1071
      380
1005
12EEF3
  0
LINE
  5
12EEF4
  8
OBJECT
 10
580.0
 20
-94.000000000011596
 30
0.0
 11
575.49999999999989
 21
-98.000000000011596
 31
0.0
1001
ACDBBLOCKREPETAG
1070
     1
1071
      381
1005
12EEF4
  0
LINE
  5
12EEF5
  8
OBJECT
 10
459.0
 20
-177.99999999999611
 30
0.0
 11
459.0
 21
-180.99999999999699
 31
0.0
1001
ACDBBLOCKREPETAG
1070
     1
1071
      382
1005
12EEF5
  0
ARC
  5
12EEF6
  8
OBJECT
 10
462.0
 20
-177.99999999999611
 30
0.0
 40
3.0
 50
90.0
 51
180.0
1001
ACDBBLOCKREPETAG
1070
     1
1071
      383
1005
12EEF6
  0
LINE
  5
12EEF7
  8
OBJECT
 10
583.0
 20
-180.99999999999699
 30
0.0
 11
583.0
 21
-177.9999999999979
 31
0.0
1001
ACDBBLOCKREPETAG
1070
     1
1071
      384
1005
12EEF7
  0
ARC
  5
12EEF8
  8
OBJECT
 10
580.0
 20
-177.9999999999979
 30
0.0
 40
3.0
 50
0.0
 51
90.0
1001
ACDBBLOCKREPETAG
1070
     1
1071
      385
1005
12EEF8
  0
LINE
  5
12EEF9
  8
OBJECT
 10
580.0
 20
-174.9999999999979
 30
0.0
 11
531.32279032035865
 21
-174.99999999999611
 31
0.0
1001
ACDBBLOCKREPETAG
1070
     1
1071
      386
1005
12EEF9
  0
LINE
  5
12EEFA
  8
OBJECT
 10
510.67720967964118
 20
-174.9999999999969
 30
0.0
 11
462.0
 21
-174.99999999999611
 31
0.0
1001
ACDBBLOCKREPETAG
1070
     1
1071
      387
1005
12EEFA
  0
LINE
  5
12EEFB
  8
OBJECT
 10
575.49995092381118
 20
-111.00002503581049
 30
0.0
 11
466.4999509238113
 21
-111.00002503581049
 31
0.0
1001
ACDBBLOCKREPETAG
1070
     1
1071
      389
1005
12EEFB
  0
ARC
  5
12EEFC
  8
OBJECT
 10
521.0
 20
-131.1999999999741
 30
0.0
 40
45.000000000000547
 50
180.0
 51
0.0
1001
ACDBBLOCKREPETAG
1070
     1
1071
      390
1005
12EEFC
  0
INSERT
  5
12EEFD
  8
OBJECT
  2
*U7
 10
0.0
 20
0.0
 30
0.0
  0
INSERT
  5
12EEFE
  8
OBJECT
  2
*U8
 10
0.0
 20
0.0
 30
0.0
  0
LINE
  5
12EEFF
  8
HIDDEN
 10
476.49999999999989
 20
-103.0000000000116
 30
0.0
 11
565.5
 21
-103.0000000000116
 31
0.0
1001
ACDBBLOCKREPETAG
1070
     1
1071
      435
1005
12EEFF
  0
TEXT
  5
12EF00
  8
SLIM
 10
78.171428571428521
 20
-907.9999999999992
 30
0.0
 40
48.0
  1
Z63（特）
 41
0.75
1001
ACDBBLOCKREPETAG
1070
     1
1071
       46
1005
12E13F
  0
TEXT
  5
12EF01
  8
SLIM
 10
493.71428571428561
 20
-443.99999999999892
 30
0.0
 40
48.0
  1
Z62
 41
0.75
1001
ACDBBLOCKREPETAG
1070
     1
1071
       46
1005
12E13F
  0
TEXT
  5
12EF02
  8
SLIM
 10
141.42857142857139
 20
-443.99999999999892
 30
0.0
 40
48.0
  1
Z61
 41
0.75
1001
ACDBBLOCKREPETAG
1070
     1
1071
       46
1005
12E13F
  0
LINE
  5
12EF03
  8
OBJECT
 10
99.0
 20
-323.99999999999892
 30
0.0
 11
99.0
 21
-320.99999999999892
 31
0.0
1001
ACDBBLOCKREPETAG
1070
     1
1071
      418
1005
12EF03
  0
ARC
  5
12EF04
  8
OBJECT
 10
102.0
 20
-323.99999999999892
 30
0.0
 40
3.0
 50
180.0
 51
270.0
1001
ACDBBLOCKREPETAG
1070
     1
1071
      419
1005
12EF04
  0
LINE
  5
12EF05
  8
OBJECT
 10
223.0
 20
-320.99999999999892
 30
0.0
 11
223.0
 21
-323.99999999999892
 31
0.0
1001
ACDBBLOCKREPETAG
1070
     1
1071
      420
1005
12EF05
  0
ARC
  5
12EF06
  8
OBJECT
 10
220.0
 20
-323.99999999999892
 30
0.0
 40
3.0
 50
270.0
 51
0.0
1001
ACDBBLOCKREPETAG
1070
     1
1071
      421
1005
12EF06
  0
LINE
  5
12EF07
  8
OBJECT
 10
220.0
 20
-326.99999999999892
 30
0.0
 11
102.0
 21
-326.99999999999892
 31
0.0
1001
ACDBBLOCKREPETAG
1070
     1
1071
      422
1005
12EF07
  0
INSERT
  5
12EF08
  8
OBJECT
  2
*U9
 10
0.0
 20
0.0
 30
0.0
  0
LINE
  5
12EF09
  8
OBJECT
 10
284.0
 20
-203.99999999999881
 30
0.0
 11
291.0
 21
-203.99999999999881
 31
0.0
1001
ACDBBLOCKREPETAG
1070
     1
1071
        1
1005
12EF09
  0
LINE
  5
12EF0A
  8
OBJECT
 10
291.0
 20
-203.99999999999881
 30
0.0
 11
291.0
 21
-297.99999999999892
 31
0.0
1001
ACDBBLOCKREPETAG
1070
     1
1071
        2
1005
12EF0A
  0
LINE
  5
12EF0B
  8
OBJECT
 10
291.0
 20
-297.99999999999892
 30
0.0
 11
284.0
 21
-297.99999999999892
 31
0.0
1001
ACDBBLOCKREPETAG
1070
     1
1071
        3
1005
12EF0B
  0
LINE
  5
12EF0C
  8
OBJECT
 10
284.0
 20
-297.99999999999892
 30
0.0
 11
284.0
 21
-203.99999999999881
 31
0.0
1001
ACDBBLOCKREPETAG
1070
     1
1071
        4
1005
12EF0C
  0
LINE
  5
12EF0D
  8
OBJECT
 10
284.0
 20
-206.99999999999889
 30
0.0
 11
248.0
 21
-206.99999999999889
 31
0.0
1001
ACDBBLOCKREPETAG
1070
     1
1071
        5
1005
12EF0D
  0
LINE
  5
12EF0E
  8
OBJECT
 10
248.0
 20
-206.99999999999889
 30
0.0
 11
248.0
 21
-294.99999999999881
 31
0.0
1001
ACDBBLOCKREPETAG
1070
     1
1071
        6
1005
12EF0E
  0
LINE
  5
12EF0F
  8
OBJECT
 10
248.0
 20
-294.99999999999881
 30
0.0
 11
284.0
 21
-294.99999999999881
 31
0.0
1001
ACDBBLOCKREPETAG
1070
     1
1071
        7
1005
12EF0F
  0
LINE
  5
12EF10
  8
OBJECT
 10
244.0
 20
-211.49999999999889
 30
0.0
 11
237.0
 21
-211.49999999999889
 31
0.0
1001
ACDBBLOCKREPETAG
1070
     1
1071
        8
1005
12EF10
  0
LINE
  5
12EF11
  8
OBJECT
 10
237.0
 20
-290.49999999999892
 30
0.0
 11
244.0
 21
-290.49999999999892
 31
0.0
1001
ACDBBLOCKREPETAG
1070
     1
1071
        9
1005
12EF11
  0
LINE
  5
12EF12
  8
OBJECT
 10
244.0
 20
-290.49999999999892
 30
0.0
 11
244.0
 21
-211.49999999999889
 31
0.0
1001
ACDBBLOCKREPETAG
1070
     1
1071
       10
1005
12EF12
  0
LINE
  5
12EF13
  8
OBJECT
 10
248.0
 20
-206.99999999999889
 30
0.0
 11
244.0
 21
-211.49999999999889
 31
0.0
1001
ACDBBLOCKREPETAG
1070
     1
1071
       11
1005
12EF13
  0
LINE
  5
12EF14
  8
OBJECT
 10
248.0
 20
-294.99999999999881
 30
0.0
 11
244.0
 21
-290.49999999999892
 31
0.0
1001
ACDBBLOCKREPETAG
1070
     1
1071
       12
1005
12EF14
  0
LINE
  5
12EF15
  8
OBJECT
 10
234.00000000000179
 20
-188.99999999999881
 30
0.0
 11
231.0
 21
-188.99999999999881
 31
0.0
1001
ACDBBLOCKREPETAG
1070
     1
1071
       13
1005
12EF15
  0
ARC
  5
12EF16
  8
OBJECT
 10
234.00000000000179
 20
-191.99999999999881
 30
0.0
 40
3.0
 50
0.0
 51
90.0
1001
ACDBBLOCKREPETAG
1070
     1
1071
       14
1005
12EF16
  0
LINE
  5
12EF17
  8
OBJECT
 10
231.0
 20
-312.99999999999892
 30
0.0
 11
233.99999999999821
 21
-312.99999999999892
 31
0.0
1001
ACDBBLOCKREPETAG
1070
     1
1071
       15
1005
12EF17
  0
ARC
  5
12EF18
  8
OBJECT
 10
233.99999999999821
 20
-309.99999999999881
 30
0.0
 40
3.0
 50
270.0
 51
0.0
1001
ACDBBLOCKREPETAG
1070
     1
1071
       16
1005
12EF18
  0
LINE
  5
12EF19
  8
OBJECT
 10
236.99999999999821
 20
-309.99999999999881
 30
0.0
 11
237.00000000000179
 21
-191.99999999999881
 31
0.0
1001
ACDBBLOCKREPETAG
1070
     1
1071
       17
1005
12EF19
  0
LINE
  5
12EF1A
  8
HIDDEN
 10
239.0
 20
-220.99999999999889
 30
0.0
 11
239.0
 21
-280.99999999999881
 31
0.0
1001
ACDBBLOCKREPETAG
1070
     1
1071
      424
1005
12EF1A
  0
LINE
  5
12EF1B
  8
OBJECT
 10
99.0
 20
-58.000000000011589
 30
0.0
 11
99.0
 21
-51.000000000011589
 31
0.0
1001
ACDBBLOCKREPETAG
1070
     1
1071
      368
1005
12EF1B
  0
LINE
  5
12EF1C
  8
OBJECT
 10
99.0
 20
-51.000000000011589
 30
0.0
 11
223.0
 21
-51.000000000011589
 31
0.0
1001
ACDBBLOCKREPETAG
1070
     1
1071
      369
1005
12EF1C
  0
LINE
  5
12EF1D
  8
OBJECT
 10
223.0
 20
-51.000000000011589
 30
0.0
 11
223.0
 21
-58.000000000011589
 31
0.0
1001
ACDBBLOCKREPETAG
1070
     1
1071
      370
1005
12EF1D
  0
LINE
  5
12EF1E
  8
OBJECT
 10
223.0
 20
-58.000000000011589
 30
0.0
 11
99.0
 21
-58.000000000011589
 31
0.0
1001
ACDBBLOCKREPETAG
1070
     1
1071
      371
1005
12EF1E
  0
LINE
  5
12EF1F
  8
OBJECT
 10
206.00000000000361
 20
-111.00002503581049
 30
0.0
 11
206.0
 21
-174.9999999999979
 31
0.0
1001
ACDBBLOCKREPETAG
1070
     1
1071
      372
1005
12EF1F
  0
LINE
  5
12EF20
  8
OBJECT
 10
116.0
 20
-111.00002503581049
 30
0.0
 11
116.0
 21
-174.99999999999611
 31
0.0
1001
ACDBBLOCKREPETAG
1070
     1
1071
      373
1005
12EF20
  0
LINE
  5
12EF21
  8
OBJECT
 10
102.0
 20
-58.000000000011589
 30
0.0
 11
102.0
 21
-94.000000000011596
 31
0.0
1001
ACDBBLOCKREPETAG
1070
     1
1071
      374
1005
12EF21
  0
LINE
  5
12EF22
  8
OBJECT
 10
102.0
 20
-94.000000000011596
 30
0.0
 11
220.0
 21
-94.000000000011596
 31
0.0
1001
ACDBBLOCKREPETAG
1070
     1
1071
      375
1005
12EF22
  0
LINE
  5
12EF23
  8
OBJECT
 10
220.0
 20
-94.000000000011596
 30
0.0
 11
220.0
 21
-58.000000000011589
 31
0.0
1001
ACDBBLOCKREPETAG
1070
     1
1071
      376
1005
12EF23
  0
LINE
  5
12EF24
  8
OBJECT
 10
106.5
 20
-98.000000000011596
 30
0.0
 11
106.5
 21
-111.0000000000116
 31
0.0
1001
ACDBBLOCKREPETAG
1070
     1
1071
      377
1005
12EF24
  0
LINE
  5
12EF25
  8
OBJECT
 10
215.5
 20
-111.0000000000116
 30
0.0
 11
215.5
 21
-98.000000000011596
 31
0.0
1001
ACDBBLOCKREPETAG
1070
     1
1071
      378
1005
12EF25
  0
LINE
  5
12EF26
  8
OBJECT
 10
215.5
 20
-98.000000000011596
 30
0.0
 11
106.5
 21
-98.000000000011596
 31
0.0
1001
ACDBBLOCKREPETAG
1070
     1
1071
      379
1005
12EF26
  0
LINE
  5
12EF27
  8
OBJECT
 10
102.0
 20
-94.000000000011596
 30
0.0
 11
106.5
 21
-98.000000000011596
 31
0.0
1001
ACDBBLOCKREPETAG
1070
     1
1071
      380
1005
12EF27
  0
LINE
  5
12EF28
  8
OBJECT
 10
220.0
 20
-94.000000000011596
 30
0.0
 11
215.5
 21
-98.000000000011596
 31
0.0
1001
ACDBBLOCKREPETAG
1070
     1
1071
      381
1005
12EF28
  0
LINE
  5
12EF29
  8
OBJECT
 10
99.0
 20
-177.99999999999611
 30
0.0
 11
99.0
 21
-180.99999999999699
 31
0.0
1001
ACDBBLOCKREPETAG
1070
     1
1071
      382
1005
12EF29
  0
ARC
  5
12EF2A
  8
OBJECT
 10
102.0
 20
-177.99999999999611
 30
0.0
 40
3.0
 50
90.0
 51
180.0
1001
ACDBBLOCKREPETAG
1070
     1
1071
      383
1005
12EF2A
  0
LINE
  5
12EF2B
  8
OBJECT
 10
223.0
 20
-180.99999999999699
 30
0.0
 11
223.0
 21
-177.9999999999979
 31
0.0
1001
ACDBBLOCKREPETAG
1070
     1
1071
      384
1005
12EF2B
  0
ARC
  5
12EF2C
  8
OBJECT
 10
220.0
 20
-177.9999999999979
 30
0.0
 40
3.0
 50
0.0
 51
90.0
1001
ACDBBLOCKREPETAG
1070
     1
1071
      385
1005
12EF2C
  0
LINE
  5
12EF2D
  8
OBJECT
 10
220.0
 20
-174.9999999999979
 30
0.0
 11
171.32279032035879
 21
-174.99999999999611
 31
0.0
1001
ACDBBLOCKREPETAG
1070
     1
1071
      386
1005
12EF2D
  0
LINE
  5
12EF2E
  8
OBJECT
 10
150.67720967964109
 20
-174.9999999999969
 30
0.0
 11
102.0
 21
-174.99999999999611
 31
0.0
1001
ACDBBLOCKREPETAG
1070
     1
1071
      387
1005
12EF2E
  0
LINE
  5
12EF2F
  8
OBJECT
 10
215.49995092381141
 20
-111.00002503581049
 30
0.0
 11
106.4999509238114
 21
-111.00002503581049
 31
0.0
1001
ACDBBLOCKREPETAG
1070
     1
1071
      389
1005
12EF2F
  0
ARC
  5
12EF30
  8
OBJECT
 10
161.0
 20
-131.1999999999741
 30
0.0
 40
45.000000000000547
 50
180.0
 51
0.0
1001
ACDBBLOCKREPETAG
1070
     1
1071
      390
1005
12EF30
  0
INSERT
  5
12EF31
  8
OBJECT
  2
*U10
 10
0.0
 20
0.0
 30
0.0
  0
INSERT
  5
12EF32
  8
OBJECT
  2
*U11
 10
0.0
 20
0.0
 30
0.0
  0
LINE
  5
12EF33
  8
HIDDEN
 10
116.5
 20
-103.0000000000116
 30
0.0
 11
205.5
 21
-103.0000000000116
 31
0.0
1001
ACDBBLOCKREPETAG
1070
     1
1071
      435
1005
12EF33
  0
CIRCLE
  5
12EF34
  8
OBJECT
 10
12000.0
 20
-695.99999999999955
 30
0.0
 40
62.0
1001
ACDBBLOCKREPETAG
1070
     1
1071
        3
1005
12EF34
  0
LINE
  5
12EF35
  8
CENTER
 10
11938.0
 20
-710.99999999999955
 30
0.0
 11
12062.0
 21
-710.99999999999955
 31
0.0
1001
ACDBBLOCKREPETAG
1070
     1
1071
        4
1005
12EF35
  0
CIRCLE
  5
12EF36
  8
OBJECT
 10
12000.0
 20
-710.99999999999955
 30
0.0
 40
28.0
1001
ACDBBLOCKREPETAG
1070
     1
1071
        6
1005
12EF36
  0
CIRCLE
  5
12EF37
  8
OBJECT
 10
12000.0
 20
-710.99999999999955
 30
0.0
 40
39.0
1001
ACDBBLOCKREPETAG
1070
     1
1071
        7
1005
12EF37
  0
ARC
  5
12EF38
  8
OBJECT
 10
12000.0
 20
-710.99999999999955
 30
0.0
 40
47.0
 50
290.58196921144179
 51
249.41803078855821
1001
ACDBBLOCKREPETAG
1070
     1
1071
        8
1005
12EF38
  0
LINE
  5
12EF39
  8
OBJECT
 10
11983.477288358141
 20
-754.99999999999955
 30
0.0
 11
12016.52271164185
 21
-754.99999999999955
 31
0.0
1001
ACDBBLOCKREPETAG
1070
     1
1071
        9
1005
12EF39
  0
LINE
  5
12EF3A
  8
CENTER
 10
12000.0
 20
-769.99999999999955
 30
0.0
 11
12000.0
 21
-613.99999999999966
 31
0.0
1001
ACDBBLOCKREPETAG
1070
     1
1071
        0
1005
12EF3A
  0
LINE
  5
12EF3B
  8
OBJECT
 10
11930.0
 20
-633.99999999999955
 30
0.0
 11
12070.0
 21
-633.99999999999955
 31
0.0
1001
ACDBBLOCKREPETAG
1070
     1
1071
        1
1005
12EF3B
  0
LINE
  5
12EF3C
  8
OBJECT
 10
11930.0
 20
-757.99999999999955
 30
0.0
 11
11930.0
 21
-769.99999999999955
 31
0.0
1001
ACDBBLOCKREPETAG
1070
     1
1071
        2
1005
12EF3C
  0
LINE
  5
12EF3D
  8
OBJECT
 10
11930.0
 20
-769.99999999999955
 30
0.0
 11
12070.0
 21
-769.99999999999955
 31
0.0
1001
ACDBBLOCKREPETAG
1070
     1
1071
        3
1005
12EF3D
  0
LINE
  5
12EF3E
  8
OBJECT
 10
12070.0
 20
-769.99999999999955
 30
0.0
 11
12070.0
 21
-757.99999999999955
 31
0.0
1001
ACDBBLOCKREPETAG
1070
     1
1071
        4
1005
12EF3E
  0
LINE
  5
12EF3F
  8
OBJECT
 10
12070.0
 20
-757.99999999999955
 30
0.0
 11
11930.0
 21
-757.99999999999955
 31
0.0
1001
ACDBBLOCKREPETAG
1070
     1
1071
        5
1005
12EF3F
  0
ARC
  5
12EF40
  8
OBJECT
 10
12435.038438994679
 20
-998.60813684682694
 30
0.0
 40
519.48776673616965
 50
135.42350667430969
 51
138.50052655621499
1001
ACDBBLOCKREPETAG
1070
     1
1071
        9
1005
12EF40
  0
ARC
  5
12EF41
  8
OBJECT
 10
12435.038438994679
 20
-393.39186315317193
 30
0.0
 40
519.48776673616965
 50
221.49947344378501
 51
224.57649332569039
1001
ACDBBLOCKREPETAG
1070
     1
1071
       10
1005
12EF41
  0
ARC
  5
12EF42
  8
OBJECT
 10
11564.961561005321
 20
-998.60813684682694
 30
0.0
 40
519.48776673616965
 50
41.499473443784993
 51
44.576493325690237
1001
ACDBBLOCKREPETAG
1070
     1
1071
       11
1005
12EF42
  0
ARC
  5
12EF43
  8
OBJECT
 10
11564.961561005321
 20
-393.39186315317193
 30
0.0
 40
519.48776673616965
 50
315.42350667430981
 51
318.50052655621488
1001
ACDBBLOCKREPETAG
1070
     1
1071
       12
1005
12EF43
  0
LINE
  5
12EF44
  8
OBJECT
 10
12047.5
 20
-628.99999999999955
 30
0.0
 11
11952.5
 21
-628.99999999999955
 31
0.0
1001
ACDBBLOCKREPETAG
1070
     1
1071
       24
1005
12EF44
  0
ARC
  5
12EF45
  8
OBJECT
 10
11952.5
 20
-631.99999999999955
 30
0.0
 40
3.0
 50
90.0
 51
180.0
1001
ACDBBLOCKREPETAG
1070
     1
1071
       25
1005
12EF45
  0
LINE
  5
12EF46
  8
OBJECT
 10
11949.5
 20
-631.99999999999955
 30
0.0
 11
11949.5
 21
-633.99999999999955
 31
0.0
1001
ACDBBLOCKREPETAG
1070
     1
1071
       26
1005
12EF46
  0
LINE
  5
12EF47
  8
OBJECT
 10
12050.5
 20
-631.99999999999955
 30
0.0
 11
12050.5
 21
-633.99999999999955
 31
0.0
1001
ACDBBLOCKREPETAG
1070
     1
1071
       27
1005
12EF47
  0
ARC
  5
12EF48
  8
OBJECT
 10
12047.5
 20
-631.99999999999955
 30
0.0
 40
3.0
 50
0.0
 51
90.0
1001
ACDBBLOCKREPETAG
1070
     1
1071
       28
1005
12EF48
  0
POINT
  5
12EF49
  8
DOTS
 10
12000.0
 20
-754.99999999999955
 30
0.0
1001
ACDBBLOCKREPETAG
1070
     1
1071
       87
1005
12EF49
  0
LINE
  5
12EF4A
  8
SLIM
 10
11963.217182668241
 20
-137.99999999999909
 30
0.0
 11
11969.921507996291
 21
-131.29567467194681
 31
0.0
1001
ACDBBLOCKREPETAG
1070
     1
1071
      157
1005
0
1001
GRADIENTCOLOR1ACI
1070
     5
1001
GRADIENTCOLOR2ACI
1070
     2
1001
ACAD
1010
0.0
1020
0.0
1030
0.0
  0
LINE
  5
12EF4B
  8
SLIM
 10
11972.19743878931
 20
-137.99999999999909
 30
0.0
 11
11983.31883633275
 21
-126.87860245655401
 31
0.0
1001
GRADIENTCOLOR1ACI
1070
     5
1001
GRADIENTCOLOR2ACI
1070
     2
1001
ACAD
1010
0.0
1020
0.0
1030
0.0
1001
ACDBBLOCKREPETAG
1070
     1
1071
      160
1005
12EF4B
  0
LINE
  5
12EF4C
  8
SLIM
 10
11981.48493728876
 20
-137.6927576216126
 30
0.0
 11
11993.9318052486
 21
-125.245889661777
 31
0.0
1001
GRADIENTCOLOR1ACI
1070
     5
1001
GRADIENTCOLOR2ACI
1070
     2
1001
ACAD
1010
0.0
1020
0.0
1030
0.0
1001
ACDBBLOCKREPETAG
1070
     1
1071
      161
1005
12EF4C
  0
LINE
  5
12EF4D
  8
SLIM
 10
11992.75265682803
 20
-135.40529420341099
 30
0.0
 11
12000.0
 21
-128.1579510314458
 31
0.0
1001
GRADIENTCOLOR1ACI
1070
     5
1001
GRADIENTCOLOR2ACI
1070
     2
1001
ACAD
1010
0.0
1020
0.0
1030
0.0
1001
ACDBBLOCKREPETAG
1070
     1
1071
      162
1005
12EF4D
  0
LINE
  5
12EF4E
  8
SLIM
 10
12000.0
 20
-128.1579510314458
 30
0.0
 11
12003.094100787839
 21
-125.0638502435924
 31
0.0
1001
GRADIENTCOLOR1ACI
1070
     5
1001
GRADIENTCOLOR2ACI
1070
     2
1001
ACAD
1010
0.0
1020
0.0
1030
0.0
1001
ACDBBLOCKREPETAG
1070
     1
1071
      163
1005
12EF4E
  0
LINE
  5
12EF4F
  8
SLIM
 10
12002.10414122347
 20
-135.03406592904389
 30
0.0
 11
12011.28442576865
 21
-125.85378138386341
 31
0.0
1001
GRADIENTCOLOR1ACI
1070
     5
1001
GRADIENTCOLOR2ACI
1070
     2
1001
ACAD
1010
0.0
1020
0.0
1030
0.0
1001
ACDBBLOCKREPETAG
1070
     1
1071
      164
1005
12EF4F
  0
LINE
  5
12EF50
  8
SLIM
 10
12010.297585520921
 20
-135.82087775265759
 30
0.0
 11
12018.73958846552
 21
-127.3788748080627
 31
0.0
1001
GRADIENTCOLOR1ACI
1070
     5
1001
GRADIENTCOLOR2ACI
1070
     2
1001
ACAD
1010
0.0
1020
0.0
1030
0.0
1001
ACDBBLOCKREPETAG
1070
     1
1071
      165
1005
12EF50
  0
LINE
  5
12EF51
  8
SLIM
 10
12017.655079364229
 20
-137.4436400304258
 30
0.0
 11
12025.595886626959
 21
-129.50283276769261
 31
0.0
1001
GRADIENTCOLOR1ACI
1070
     5
1001
GRADIENTCOLOR2ACI
1070
     2
1001
ACAD
1010
0.0
1020
0.0
1030
0.0
1001
ACDBBLOCKREPETAG
1070
     1
1071
      166
1005
12EF51
  0
LINE
  5
12EF52
  8
SLIM
 10
12026.07897551572
 20
-137.99999999999909
 30
0.0
 11
12031.9385859461
 21
-132.1403895696169
 31
0.0
1001
GRADIENTCOLOR1ACI
1070
     5
1001
GRADIENTCOLOR2ACI
1070
     2
1001
ACAD
1010
0.0
1020
0.0
1030
0.0
1001
ACDBBLOCKREPETAG
1070
     1
1071
      167
1005
12EF52
  0
LINE
  5
12EF53
  8
SLIM
 10
12035.059231636789
 20
-137.99999999999909
 30
0.0
 11
12037.82336543762
 21
-135.23586619916779
 31
0.0
1001
GRADIENTCOLOR1ACI
1070
     5
1001
GRADIENTCOLOR2ACI
1070
     2
1001
ACAD
1010
0.0
1020
0.0
1030
0.0
1001
ACDBBLOCKREPETAG
1070
     1
1071
      168
1005
12EF53
  0
CIRCLE
  5
12EF54
  8
OBJECT
 10
12000.0
 20
-199.99999999999909
 30
0.0
 40
65.0
1001
ACDBBLOCKREPETAG
1070
     1
1071
       84
1005
12EF54
  0
CIRCLE
  5
12EF55
  8
OBJECT
 10
12000.0
 20
-199.99999999999909
 30
0.0
 40
50.5
1001
ACDBBLOCKREPETAG
1070
     1
1071
       86
1005
12EF55
  0
LINE
  5
12EF56
  8
OBJECT
 10
12070.0
 20
-137.99999999999909
 30
0.0
 11
12019.519221295939
 21
-137.99999999999909
 31
0.0
1001
ACDBBLOCKREPETAG
1070
     1
1071
       87
1005
12EF56
  0
LINE
  5
12EF57
  8
OBJECT
 10
11930.0
 20
-137.99999999999909
 30
0.0
 11
11980.48077870405
 21
-137.99999999999909
 31
0.0
1001
ACDBBLOCKREPETAG
1070
     1
1071
       88
1005
12EF57
  0
LINE
  5
12EF58
  8
OBJECT
 10
11930.0
 20
-261.99999999999909
 30
0.0
 11
11938.0
 21
-261.99999999999909
 31
0.0
1001
ACDBBLOCKREPETAG
1070
     1
1071
       89
1005
12EF58
  0
LINE
  5
12EF59
  8
OBJECT
 10
11938.0
 20
-269.99999999999909
 30
0.0
 11
11938.0
 21
-261.99999999999909
 31
0.0
1001
ACDBBLOCKREPETAG
1070
     1
1071
       90
1005
12EF59
  0
LINE
  5
12EF5A
  8
OBJECT
 10
12070.0
 20
-261.99999999999909
 30
0.0
 11
12062.0
 21
-261.99999999999909
 31
0.0
1001
ACDBBLOCKREPETAG
1070
     1
1071
       91
1005
12EF5A
  0
LINE
  5
12EF5B
  8
OBJECT
 10
12062.0
 20
-269.99999999999909
 30
0.0
 11
12062.0
 21
-261.99999999999909
 31
0.0
1001
ACDBBLOCKREPETAG
1070
     1
1071
       92
1005
12EF5B
  0
LINE
  5
12EF5C
  8
CENTER
 10
11930.0
 20
-199.99999999999909
 30
0.0
 11
12070.0
 21
-199.99999999999909
 31
0.0
1001
ACDBBLOCKREPETAG
1070
     1
1071
       93
1005
12EF5C
  0
LINE
  5
12EF5D
  8
CENTER
 10
12000.0
 20
-269.99999999999909
 30
0.0
 11
12000.0
 21
-109.9999999999991
 31
0.0
1001
ACDBBLOCKREPETAG
1070
     1
1071
       94
1005
12EF5D
  0
LINE
  5
12EF5E
  8
OBJECT
 10
11954.03805922287
 20
-245.96194077712289
 30
0.0
 11
11938.0
 21
-261.99999999999909
 31
0.0
1001
ACDBBLOCKREPETAG
1070
     1
1071
      106
1005
12EF5E
  0
LINE
  5
12EF5F
  8
OBJECT
 10
12045.96194077713
 20
-245.96194077712289
 30
0.0
 11
12062.0
 21
-261.99999999999909
 31
0.0
1001
ACDBBLOCKREPETAG
1070
     1
1071
      107
1005
12EF5F
  0
ARC
  5
12EF60
  8
OBJECT
 10
12000.0
 20
-199.99999999999909
 30
0.0
 40
75.0
 50
55.757831297238091
 51
124.2421687027619
1001
ACDBBLOCKREPETAG
1070
     1
1071
      108
1005
12EF60
  0
POINT
  5
12EF61
  8
DOTS
 10
12000.0
 20
-199.99999999999909
 30
0.0
1001
ACDBBLOCKREPETAG
1070
     1
1071
      159
1005
12EF61
  0
LINE
  5
12EF62
  8
OBJECT
 10
11927.0
 20
-633.99999999999955
 30
0.0
 11
11930.0
 21
-633.99999999999955
 31
0.0
1001
ACDBBLOCKREPETAG
1070
     1
1071
        1
1005
12EF62
  0
ARC
  5
12EF63
  8
OBJECT
 10
11927.0
 20
-636.99999999999955
 30
0.0
 40
3.0
 50
90.0
 51
180.0
1001
ACDBBLOCKREPETAG
1070
     1
1071
        2
1005
12EF63
  0
LINE
  5
12EF64
  8
OBJECT
 10
11930.0
 20
-757.99999999999955
 30
0.0
 11
11927.0
 21
-757.99999999999955
 31
0.0
1001
ACDBBLOCKREPETAG
1070
     1
1071
        3
1005
12EF64
  0
ARC
  5
12EF65
  8
OBJECT
 10
11927.0
 20
-754.99999999999955
 30
0.0
 40
3.0
 50
180.0
 51
270.0
1001
ACDBBLOCKREPETAG
1070
     1
1071
        4
1005
12EF65
  0
LINE
  5
12EF66
  8
OBJECT
 10
11924.0
 20
-754.99999999999955
 30
0.0
 11
11924.0
 21
-636.99999999999955
 31
0.0
1001
ACDBBLOCKREPETAG
1070
     1
1071
        5
1005
12EF66
  0
LINE
  5
12EF67
  8
CENTER
 10
11909.0
 20
-199.99999999999909
 30
0.0
 11
11930.0
 21
-199.99999999999909
 31
0.0
1001
ACDBBLOCKREPETAG
1070
     1
1071
        0
1005
12EF67
  0
LINE
  5
12EF68
  8
OBJECT
 10
11927.0
 20
-261.99999999999909
 30
0.0
 11
11930.0
 21
-261.99999999999909
 31
0.0
1001
ACDBBLOCKREPETAG
1070
     1
1071
        1
1005
12EF68
  0
ARC
  5
12EF69
  8
OBJECT
 10
11927.0
 20
-258.99999999999909
 30
0.0
 40
3.0
 50
180.0
 51
270.0
1001
ACDBBLOCKREPETAG
1070
     1
1071
        2
1005
12EF69
  0
LINE
  5
12EF6A
  8
OBJECT
 10
11930.0
 20
-137.99999999999909
 30
0.0
 11
11927.0
 21
-137.99999999999909
 31
0.0
1001
ACDBBLOCKREPETAG
1070
     1
1071
        3
1005
12EF6A
  0
ARC
  5
12EF6B
  8
OBJECT
 10
11927.0
 20
-140.99999999999909
 30
0.0
 40
3.0
 50
90.0
 51
180.0
1001
ACDBBLOCKREPETAG
1070
     1
1071
        4
1005
12EF6B
  0
LINE
  5
12EF6C
  8
OBJECT
 10
11924.0
 20
-140.99999999999909
 30
0.0
 11
11924.0
 21
-258.99999999999909
 31
0.0
1001
ACDBBLOCKREPETAG
1070
     1
1071
        5
1005
12EF6C
  0
LINE
  5
12EF6D
  8
OBJECT
 10
12047.0
 20
-322.99999999999898
 30
0.0
 11
12047.0
 21
-329.99999999999898
 31
0.0
1001
ACDBBLOCKREPETAG
1070
     1
1071
        7
1005
12EF6D
  0
LINE
  5
12EF6E
  8
OBJECT
 10
12047.0
 20
-329.99999999999898
 30
0.0
 11
11953.0
 21
-329.99999999999898
 31
0.0
1001
ACDBBLOCKREPETAG
1070
     1
1071
        8
1005
12EF6E
  0
LINE
  5
12EF6F
  8
OBJECT
 10
11953.0
 20
-329.99999999999898
 30
0.0
 11
11953.0
 21
-322.99999999999898
 31
0.0
1001
ACDBBLOCKREPETAG
1070
     1
1071
        9
1005
12EF6F
  0
LINE
  5
12EF70
  8
OBJECT
 10
11953.0
 20
-322.99999999999898
 30
0.0
 11
12047.0
 21
-322.99999999999898
 31
0.0
1001
ACDBBLOCKREPETAG
1070
     1
1071
       10
1005
12EF70
  0
LINE
  5
12EF71
  8
CENTER
 10
12000.0
 20
-344.99999999999909
 30
0.0
 11
12000.0
 21
-269.99999999999909
 31
0.0
1001
ACDBBLOCKREPETAG
1070
     1
1071
       11
1005
12EF71
  0
LINE
  5
12EF72
  8
OBJECT
 10
12044.0
 20
-322.99999999999898
 30
0.0
 11
12044.0
 21
-286.99999999999898
 31
0.0
1001
ACDBBLOCKREPETAG
1070
     1
1071
       12
1005
12EF72
  0
LINE
  5
12EF73
  8
OBJECT
 10
12044.0
 20
-286.99999999999898
 30
0.0
 11
11956.0
 21
-286.99999999999898
 31
0.0
1001
ACDBBLOCKREPETAG
1070
     1
1071
       13
1005
12EF73
  0
LINE
  5
12EF74
  8
OBJECT
 10
11956.0
 20
-286.99999999999898
 30
0.0
 11
11956.0
 21
-322.99999999999898
 31
0.0
1001
ACDBBLOCKREPETAG
1070
     1
1071
       14
1005
12EF74
  0
LINE
  5
12EF75
  8
OBJECT
 10
12039.5
 20
-282.99999999999898
 30
0.0
 11
12039.5
 21
-275.99999999999909
 31
0.0
1001
ACDBBLOCKREPETAG
1070
     1
1071
       15
1005
12EF75
  0
LINE
  5
12EF76
  8
OBJECT
 10
11960.5
 20
-275.99999999999909
 30
0.0
 11
11960.5
 21
-282.99999999999898
 31
0.0
1001
ACDBBLOCKREPETAG
1070
     1
1071
       16
1005
12EF76
  0
LINE
  5
12EF77
  8
OBJECT
 10
11960.5
 20
-282.99999999999898
 30
0.0
 11
12039.5
 21
-282.99999999999898
 31
0.0
1001
ACDBBLOCKREPETAG
1070
     1
1071
       17
1005
12EF77
  0
LINE
  5
12EF78
  8
OBJECT
 10
12044.0
 20
-286.99999999999898
 30
0.0
 11
12039.5
 21
-282.99999999999898
 31
0.0
1001
ACDBBLOCKREPETAG
1070
     1
1071
       18
1005
12EF78
  0
LINE
  5
12EF79
  8
OBJECT
 10
11956.0
 20
-286.99999999999898
 30
0.0
 11
11960.5
 21
-282.99999999999898
 31
0.0
1001
ACDBBLOCKREPETAG
1070
     1
1071
       19
1005
12EF79
  0
LINE
  5
12EF7A
  8
OBJECT
 10
12062.0
 20
-272.99999999999909
 30
0.0
 11
12062.0
 21
-269.99999999999909
 31
0.0
1001
ACDBBLOCKREPETAG
1070
     1
1071
       20
1005
12EF7A
  0
ARC
  5
12EF7B
  8
OBJECT
 10
12059.0
 20
-272.99999999999909
 30
0.0
 40
3.0
 50
270.0
 51
0.0
1001
ACDBBLOCKREPETAG
1070
     1
1071
       21
1005
12EF7B
  0
LINE
  5
12EF7C
  8
OBJECT
 10
11938.0
 20
-269.99999999999909
 30
0.0
 11
11938.0
 21
-272.99999999999909
 31
0.0
1001
ACDBBLOCKREPETAG
1070
     1
1071
       22
1005
12EF7C
  0
ARC
  5
12EF7D
  8
OBJECT
 10
11941.0
 20
-272.99999999999909
 30
0.0
 40
3.0
 50
180.0
 51
270.0
1001
ACDBBLOCKREPETAG
1070
     1
1071
       23
1005
12EF7D
  0
LINE
  5
12EF7E
  8
OBJECT
 10
11941.0
 20
-275.99999999999909
 30
0.0
 11
12059.0
 21
-275.99999999999909
 31
0.0
1001
ACDBBLOCKREPETAG
1070
     1
1071
       24
1005
12EF7E
  0
LINE
  5
12EF7F
  8
HIDDEN
 10
12030.0
 20
-277.99999999999909
 30
0.0
 11
11970.0
 21
-277.99999999999909
 31
0.0
1001
ACDBBLOCKREPETAG
1070
     1
1071
       25
1005
12EF7F
  0
LINE
  5
12EF80
  8
OBJECT
 10
12192.99999999998
 20
-583.00000000000045
 30
0.0
 11
12199.99999999998
 21
-583.00000000000045
 31
0.0
1001
ACDBBLOCKREPETAG
1070
     1
1071
      324
1005
12EF80
  0
LINE
  5
12EF81
  8
OBJECT
 10
12199.99999999998
 20
-583.00000000000045
 30
0.0
 11
12199.99999999998
 21
-707.00000000000045
 31
0.0
1001
ACDBBLOCKREPETAG
1070
     1
1071
      325
1005
12EF81
  0
LINE
  5
12EF82
  8
OBJECT
 10
12075.99999999998
 20
-653.35026377572683
 30
0.0
 11
12075.99999999998
 21
-755.00000000000034
 31
0.0
1001
ACDBBLOCKREPETAG
1070
     1
1071
      326
1005
12EF82
  0
LINE
  5
12EF83
  8
OBJECT
 10
12199.99999999998
 20
-707.00000000000045
 30
0.0
 11
12192.99999999998
 21
-707.00000000000045
 31
0.0
1001
ACDBBLOCKREPETAG
1070
     1
1071
      327
1005
12EF83
  0
LINE
  5
12EF84
  8
OBJECT
 10
12192.99999999998
 20
-707.00000000000045
 30
0.0
 11
12192.99999999998
 21
-583.00000000000045
 31
0.0
1001
ACDBBLOCKREPETAG
1070
     1
1071
      328
1005
12EF84
  0
LINE
  5
12EF85
  8
CENTER
 10
12124.99999999998
 20
-645.00000000000045
 30
0.0
 11
12214.99999999998
 21
-645.00000000000045
 31
0.0
1001
ACDBBLOCKREPETAG
1070
     1
1071
      329
1005
12EF85
  0
LINE
  5
12EF86
  8
OBJECT
 10
12069.99999999998
 20
-757.99999999999955
 30
0.0
 11
12072.99999999998
 21
-758.00000000000034
 31
0.0
1001
ACDBBLOCKREPETAG
1070
     1
1071
      330
1005
12EF86
  0
ARC
  5
12EF87
  8
OBJECT
 10
12072.99999999998
 20
-755.00000000000034
 30
0.0
 40
3.0
 50
270.0
 51
0.0
1001
ACDBBLOCKREPETAG
1070
     1
1071
      331
1005
12EF87
  0
LINE
  5
12EF88
  8
OBJECT
 10
12192.99999999998
 20
-586.00000000000045
 30
0.0
 11
12156.99999999998
 21
-586.00000000000045
 31
0.0
1001
ACDBBLOCKREPETAG
1070
     1
1071
      332
1005
12EF88
  0
LINE
  5
12EF89
  8
OBJECT
 10
12156.99999999998
 20
-586.00000000000045
 30
0.0
 11
12156.99999999998
 21
-704.00000000000045
 31
0.0
1001
ACDBBLOCKREPETAG
1070
     1
1071
      333
1005
12EF89
  0
LINE
  5
12EF8A
  8
OBJECT
 10
12152.99999999998
 20
-590.50000000000045
 30
0.0
 11
12152.99999999998
 21
-699.50000000000045
 31
0.0
1001
ACDBBLOCKREPETAG
1070
     1
1071
      334
1005
12EF8A
  0
LINE
  5
12EF8B
  8
OBJECT
 10
12152.99999999998
 20
-590.50000000000045
 30
0.0
 11
12139.99999999998
 21
-590.50000000000045
 31
0.0
1001
ACDBBLOCKREPETAG
1070
     1
1071
      335
1005
12EF8B
  0
LINE
  5
12EF8C
  8
OBJECT
 10
12156.99999999998
 20
-704.00000000000045
 30
0.0
 11
12192.99999999998
 21
-704.00000000000045
 31
0.0
1001
ACDBBLOCKREPETAG
1070
     1
1071
      336
1005
12EF8C
  0
LINE
  5
12EF8D
  8
OBJECT
 10
12156.99999999998
 20
-586.00000000000045
 30
0.0
 11
12152.99999999998
 21
-590.50000000000045
 31
0.0
1001
ACDBBLOCKREPETAG
1070
     1
1071
      337
1005
12EF8D
  0
LINE
  5
12EF8E
  8
OBJECT
 10
12139.99999999998
 20
-590.50000000000045
 30
0.0
 11
12139.99999999998
 21
-675.7449182792875
 31
0.0
1001
ACDBBLOCKREPETAG
1070
     1
1071
      338
1005
12EF8E
  0
ARC
  5
12EF8F
  8
OBJECT
 10
12142.799999999979
 20
-685.00000000000045
 30
0.0
 40
85.0
 50
91.887731891831123
 51
143.130102354109
1001
ACDBBLOCKREPETAG
1070
     1
1071
      339
1005
12EF8F
  0
LINE
  5
12EF90
  8
HIDDEN
 10
12147.99999999998
 20
-600.50000000000057
 30
0.0
 11
12147.99999999998
 21
-689.50000000000045
 31
0.0
1001
ACDBBLOCKREPETAG
1070
     1
1071
      341
1005
12EF90
  0
LINE
  5
12EF91
  8
OBJECT
 10
12075.99999999998
 20
-751.07945073181725
 30
0.0
 11
12146.631319921031
 21
-699.50000000000045
 31
0.0
1001
ACDBBLOCKREPETAG
1070
     1
1071
      342
1005
12EF91
  0
LINE
  5
12EF92
  8
OBJECT
 10
12069.99999999998
 20
-633.99999999999955
 30
0.0
 11
12074.799999999979
 21
-633.99999999999955
 31
0.0
1001
ACDBBLOCKREPETAG
1070
     1
1071
      343
1005
12EF92
  0
LINE
  5
12EF93
  8
OBJECT
 10
12075.99999999998
 20
-653.35026377572945
 30
0.0
 11
12074.799999999979
 21
-633.99999999999955
 31
0.0
1001
ACDBBLOCKREPETAG
1070
     1
1071
      344
1005
12EF93
  0
LINE
  5
12EF94
  8
OBJECT
 10
12152.99999999998
 20
-699.50000000000045
 30
0.0
 11
12146.631319921031
 21
-699.50000000000045
 31
0.0
1001
ACDBBLOCKREPETAG
1070
     1
1071
      345
1005
12EF94
  0
LINE
  5
12EF95
  8
OBJECT
 10
12156.99999999998
 20
-704.00000000000045
 30
0.0
 11
12152.99999999998
 21
-699.50000000000045
 31
0.0
1001
ACDBBLOCKREPETAG
1070
     1
1071
      346
1005
12EF95
  0
LINE
  5
12EF96
  8
OBJECT
 10
12192.99999999998
 20
-137.99999999999909
 30
0.0
 11
12199.99999999998
 21
-137.99999999999909
 31
0.0
1001
ACDBBLOCKREPETAG
1070
     1
1071
      376
1005
12EF96
  0
LINE
  5
12EF97
  8
OBJECT
 10
12199.99999999998
 20
-137.99999999999909
 30
0.0
 11
12199.99999999998
 21
-261.99999999999909
 31
0.0
1001
ACDBBLOCKREPETAG
1070
     1
1071
      377
1005
12EF97
  0
LINE
  5
12EF98
  8
OBJECT
 10
12199.99999999998
 20
-261.99999999999909
 30
0.0
 11
12192.99999999998
 21
-261.99999999999909
 31
0.0
1001
ACDBBLOCKREPETAG
1070
     1
1071
      378
1005
12EF98
  0
LINE
  5
12EF99
  8
OBJECT
 10
12192.99999999998
 20
-261.99999999999909
 30
0.0
 11
12192.99999999998
 21
-137.99999999999909
 31
0.0
1001
ACDBBLOCKREPETAG
1070
     1
1071
      379
1005
12EF99
  0
LINE
  5
12EF9A
  8
CENTER
 10
12214.99999999998
 20
-199.99999999999909
 30
0.0
 11
12070.0
 21
-199.99999999999909
 31
0.0
1001
ACDBBLOCKREPETAG
1070
     1
1071
      380
1005
12EF9A
  0
LINE
  5
12EF9B
  8
OBJECT
 10
12139.999974964179
 20
-245.0000000000027
 30
0.0
 11
12076.0
 21
-244.99999999999909
 31
0.0
1001
ACDBBLOCKREPETAG
1070
     1
1071
      381
1005
12EF9B
  0
LINE
  5
12EF9C
  8
OBJECT
 10
12139.999974964179
 20
-154.99999999999909
 30
0.0
 11
12076.0
 21
-154.99999999999909
 31
0.0
1001
ACDBBLOCKREPETAG
1070
     1
1071
      382
1005
12EF9C
  0
LINE
  5
12EF9D
  8
OBJECT
 10
12192.99999999998
 20
-140.99999999999909
 30
0.0
 11
12156.99999999998
 21
-140.99999999999909
 31
0.0
1001
ACDBBLOCKREPETAG
1070
     1
1071
      383
1005
12EF9D
  0
LINE
  5
12EF9E
  8
OBJECT
 10
12156.99999999998
 20
-140.99999999999909
 30
0.0
 11
12156.99999999998
 21
-258.99999999999909
 31
0.0
1001
ACDBBLOCKREPETAG
1070
     1
1071
      384
1005
12EF9E
  0
LINE
  5
12EF9F
  8
OBJECT
 10
12156.99999999998
 20
-258.99999999999909
 30
0.0
 11
12192.99999999998
 21
-258.99999999999909
 31
0.0
1001
ACDBBLOCKREPETAG
1070
     1
1071
      385
1005
12EF9F
  0
LINE
  5
12EFA0
  8
OBJECT
 10
12152.99999999998
 20
-145.49999999999909
 30
0.0
 11
12139.99999999998
 21
-145.49999999999909
 31
0.0
1001
ACDBBLOCKREPETAG
1070
     1
1071
      386
1005
12EFA0
  0
LINE
  5
12EFA1
  8
OBJECT
 10
12139.99999999998
 20
-254.49999999999909
 30
0.0
 11
12152.99999999998
 21
-254.49999999999909
 31
0.0
1001
ACDBBLOCKREPETAG
1070
     1
1071
      387
1005
12EFA1
  0
LINE
  5
12EFA2
  8
OBJECT
 10
12152.99999999998
 20
-254.49999999999909
 30
0.0
 11
12152.99999999998
 21
-145.49999999999909
 31
0.0
1001
ACDBBLOCKREPETAG
1070
     1
1071
      388
1005
12EFA2
  0
LINE
  5
12EFA3
  8
OBJECT
 10
12156.99999999998
 20
-140.99999999999909
 30
0.0
 11
12152.99999999998
 21
-145.49999999999909
 31
0.0
1001
ACDBBLOCKREPETAG
1070
     1
1071
      389
1005
12EFA3
  0
LINE
  5
12EFA4
  8
OBJECT
 10
12156.99999999998
 20
-258.99999999999909
 30
0.0
 11
12152.99999999998
 21
-254.49999999999909
 31
0.0
1001
ACDBBLOCKREPETAG
1070
     1
1071
      390
1005
12EFA4
  0
LINE
  5
12EFA5
  8
OBJECT
 10
12073.0
 20
-137.99999999999909
 30
0.0
 11
12070.0
 21
-137.99999999999909
 31
0.0
1001
ACDBBLOCKREPETAG
1070
     1
1071
      391
1005
12EFA5
  0
ARC
  5
12EFA6
  8
OBJECT
 10
12073.0
 20
-140.99999999999909
 30
0.0
 40
3.0
 50
0.0
 51
90.0
1001
ACDBBLOCKREPETAG
1070
     1
1071
      392
1005
12EFA6
  0
LINE
  5
12EFA7
  8
OBJECT
 10
12070.0
 20
-261.99999999999909
 30
0.0
 11
12073.0
 21
-261.99999999999909
 31
0.0
1001
ACDBBLOCKREPETAG
1070
     1
1071
      393
1005
12EFA7
  0
ARC
  5
12EFA8
  8
OBJECT
 10
12073.0
 20
-258.99999999999909
 30
0.0
 40
3.0
 50
270.0
 51
0.0
1001
ACDBBLOCKREPETAG
1070
     1
1071
      394
1005
12EFA8
  0
LINE
  5
12EFA9
  8
OBJECT
 10
12076.0
 20
-258.99999999999909
 30
0.0
 11
12076.0
 21
-210.3227903203578
 31
0.0
1001
ACDBBLOCKREPETAG
1070
     1
1071
      395
1005
12EFA9
  0
LINE
  5
12EFAA
  8
OBJECT
 10
12076.0
 20
-189.6772096796403
 30
0.0
 11
12076.0
 21
-140.99999999999909
 31
0.0
1001
ACDBBLOCKREPETAG
1070
     1
1071
      396
1005
12EFAA
  0
LINE
  5
12EFAB
  8
HIDDEN
 10
12147.99999999998
 20
-155.49999999999909
 30
0.0
 11
12147.99999999998
 21
-244.49999999999909
 31
0.0
1001
ACDBBLOCKREPETAG
1070
     1
1071
      397
1005
12EFAB
  0
LINE
  5
12EFAC
  8
OBJECT
 10
12139.999974964179
 20
-254.4999509238105
 30
0.0
 11
12139.999974964179
 21
-145.4999509238105
 31
0.0
1001
ACDBBLOCKREPETAG
1070
     1
1071
      399
1005
12EFAC
  0
ARC
  5
12EFAD
  8
OBJECT
 10
12119.800000000019
 20
-199.99999999999909
 30
0.0
 40
45.000000000000547
 50
90.0
 51
270.0
1001
ACDBBLOCKREPETAG
1070
     1
1071
      400
1005
12EFAD
  0
CIRCLE
  5
12EFAE
  8
OBJECT
 10
10000.0
 20
-695.99999999999955
 30
0.0
 40
62.0
1001
ACDBBLOCKREPETAG
1070
     1
1071
        3
1005
12EFAE
  0
LINE
  5
12EFAF
  8
CENTER
 10
9938.0
 20
-710.99999999999955
 30
0.0
 11
10062.0
 21
-710.99999999999955
 31
0.0
1001
ACDBBLOCKREPETAG
1070
     1
1071
        4
1005
12EFAF
  0
CIRCLE
  5
12EFB0
  8
OBJECT
 10
10000.0
 20
-710.99999999999955
 30
0.0
 40
28.0
1001
ACDBBLOCKREPETAG
1070
     1
1071
        6
1005
12EFB0
  0
CIRCLE
  5
12EFB1
  8
OBJECT
 10
10000.0
 20
-710.99999999999955
 30
0.0
 40
39.0
1001
ACDBBLOCKREPETAG
1070
     1
1071
        7
1005
12EFB1
  0
ARC
  5
12EFB2
  8
OBJECT
 10
10000.0
 20
-710.99999999999955
 30
0.0
 40
47.0
 50
290.58196921144179
 51
249.41803078855821
1001
ACDBBLOCKREPETAG
1070
     1
1071
        8
1005
12EFB2
  0
LINE
  5
12EFB3
  8
OBJECT
 10
9983.4772883581427
 20
-754.99999999999955
 30
0.0
 11
10016.52271164185
 21
-754.99999999999955
 31
0.0
1001
ACDBBLOCKREPETAG
1070
     1
1071
        9
1005
12EFB3
  0
LINE
  5
12EFB4
  8
CENTER
 10
10000.0
 20
-769.99999999999955
 30
0.0
 11
10000.0
 21
-613.99999999999966
 31
0.0
1001
ACDBBLOCKREPETAG
1070
     1
1071
        0
1005
12EFB4
  0
LINE
  5
12EFB5
  8
OBJECT
 10
9930.0
 20
-633.99999999999955
 30
0.0
 11
10070.0
 21
-633.99999999999955
 31
0.0
1001
ACDBBLOCKREPETAG
1070
     1
1071
        1
1005
12EFB5
  0
LINE
  5
12EFB6
  8
OBJECT
 10
9930.0
 20
-757.99999999999955
 30
0.0
 11
9930.0
 21
-769.99999999999955
 31
0.0
1001
ACDBBLOCKREPETAG
1070
     1
1071
        2
1005
12EFB6
  0
LINE
  5
12EFB7
  8
OBJECT
 10
9930.0
 20
-769.99999999999955
 30
0.0
 11
10070.0
 21
-769.99999999999955
 31
0.0
1001
ACDBBLOCKREPETAG
1070
     1
1071
        3
1005
12EFB7
  0
LINE
  5
12EFB8
  8
OBJECT
 10
10070.0
 20
-769.99999999999955
 30
0.0
 11
10070.0
 21
-757.99999999999955
 31
0.0
1001
ACDBBLOCKREPETAG
1070
     1
1071
        4
1005
12EFB8
  0
LINE
  5
12EFB9
  8
OBJECT
 10
10070.0
 20
-757.99999999999955
 30
0.0
 11
9930.0
 21
-757.99999999999955
 31
0.0
1001
ACDBBLOCKREPETAG
1070
     1
1071
        5
1005
12EFB9
  0
ARC
  5
12EFBA
  8
OBJECT
 10
10435.03843899467
 20
-998.60813684682694
 30
0.0
 40
519.48776673616965
 50
135.42350667430969
 51
138.50052655621499
1001
ACDBBLOCKREPETAG
1070
     1
1071
        9
1005
12EFBA
  0
ARC
  5
12EFBB
  8
OBJECT
 10
10435.03843899467
 20
-393.39186315317193
 30
0.0
 40
519.48776673616965
 50
221.49947344378501
 51
224.57649332569039
1001
ACDBBLOCKREPETAG
1070
     1
1071
       10
1005
12EFBB
  0
ARC
  5
12EFBC
  8
OBJECT
 10
9564.9615610053243
 20
-998.60813684682694
 30
0.0
 40
519.48776673616965
 50
41.499473443784993
 51
44.576493325690237
1001
ACDBBLOCKREPETAG
1070
     1
1071
       11
1005
12EFBC
  0
ARC
  5
12EFBD
  8
OBJECT
 10
9564.9615610053243
 20
-393.39186315317193
 30
0.0
 40
519.48776673616965
 50
315.42350667430981
 51
318.50052655621488
1001
ACDBBLOCKREPETAG
1070
     1
1071
       12
1005
12EFBD
  0
LINE
  5
12EFBE
  8
OBJECT
 10
10047.5
 20
-628.99999999999955
 30
0.0
 11
9952.5
 21
-628.99999999999955
 31
0.0
1001
ACDBBLOCKREPETAG
1070
     1
1071
       24
1005
12EFBE
  0
ARC
  5
12EFBF
  8
OBJECT
 10
9952.5
 20
-631.99999999999955
 30
0.0
 40
3.0
 50
90.0
 51
180.0
1001
ACDBBLOCKREPETAG
1070
     1
1071
       25
1005
12EFBF
  0
LINE
  5
12EFC0
  8
OBJECT
 10
9949.5
 20
-631.99999999999955
 30
0.0
 11
9949.5
 21
-633.99999999999955
 31
0.0
1001
ACDBBLOCKREPETAG
1070
     1
1071
       26
1005
12EFC0
  0
LINE
  5
12EFC1
  8
OBJECT
 10
10050.5
 20
-631.99999999999955
 30
0.0
 11
10050.5
 21
-633.99999999999955
 31
0.0
1001
ACDBBLOCKREPETAG
1070
     1
1071
       27
1005
12EFC1
  0
ARC
  5
12EFC2
  8
OBJECT
 10
10047.5
 20
-631.99999999999955
 30
0.0
 40
3.0
 50
0.0
 51
90.0
1001
ACDBBLOCKREPETAG
1070
     1
1071
       28
1005
12EFC2
  0
POINT
  5
12EFC3
  8
DOTS
 10
10000.0
 20
-754.99999999999955
 30
0.0
1001
ACDBBLOCKREPETAG
1070
     1
1071
       87
1005
12EFC3
  0
LINE
  5
12EFC4
  8
SLIM
 10
9963.2171826682406
 20
-137.99999999999909
 30
0.0
 11
9969.9215079962923
 21
-131.29567467194681
 31
0.0
1001
ACDBBLOCKREPETAG
1070
     1
1071
      157
1005
0
1001
GRADIENTCOLOR1ACI
1070
     5
1001
GRADIENTCOLOR2ACI
1070
     2
1001
ACAD
1010
0.0
1020
0.0
1030
0.0
  0
LINE
  5
12EFC5
  8
SLIM
 10
9972.1974387893097
 20
-137.99999999999909
 30
0.0
 11
9983.3188363327517
 21
-126.87860245655401
 31
0.0
1001
GRADIENTCOLOR1ACI
1070
     5
1001
GRADIENTCOLOR2ACI
1070
     2
1001
ACAD
1010
0.0
1020
0.0
1030
0.0
1001
ACDBBLOCKREPETAG
1070
     1
1071
      160
1005
12EFC5
  0
LINE
  5
12EFC6
  8
SLIM
 10
9981.4849372887638
 20
-137.6927576216126
 30
0.0
 11
9993.9318052485996
 21
-125.245889661777
 31
0.0
1001
GRADIENTCOLOR1ACI
1070
     5
1001
GRADIENTCOLOR2ACI
1070
     2
1001
ACAD
1010
0.0
1020
0.0
1030
0.0
1001
ACDBBLOCKREPETAG
1070
     1
1071
      161
1005
12EFC6
  0
LINE
  5
12EFC7
  8
SLIM
 10
9992.7526568280355
 20
-135.40529420341099
 30
0.0
 11
10000.0
 21
-128.1579510314458
 31
0.0
1001
GRADIENTCOLOR1ACI
1070
     5
1001
GRADIENTCOLOR2ACI
1070
     2
1001
ACAD
1010
0.0
1020
0.0
1030
0.0
1001
ACDBBLOCKREPETAG
1070
     1
1071
      162
1005
12EFC7
  0
LINE
  5
12EFC8
  8
SLIM
 10
10000.0
 20
-128.1579510314458
 30
0.0
 11
10003.09410078785
 21
-125.0638502435924
 31
0.0
1001
GRADIENTCOLOR1ACI
1070
     5
1001
GRADIENTCOLOR2ACI
1070
     2
1001
ACAD
1010
0.0
1020
0.0
1030
0.0
1001
ACDBBLOCKREPETAG
1070
     1
1071
      163
1005
12EFC8
  0
LINE
  5
12EFC9
  8
SLIM
 10
10002.10414122347
 20
-135.03406592904389
 30
0.0
 11
10011.28442576865
 21
-125.85378138386341
 31
0.0
1001
GRADIENTCOLOR1ACI
1070
     5
1001
GRADIENTCOLOR2ACI
1070
     2
1001
ACAD
1010
0.0
1020
0.0
1030
0.0
1001
ACDBBLOCKREPETAG
1070
     1
1071
      164
1005
12EFC9
  0
LINE
  5
12EFCA
  8
SLIM
 10
10010.297585520921
 20
-135.82087775265759
 30
0.0
 11
10018.73958846552
 21
-127.3788748080627
 31
0.0
1001
GRADIENTCOLOR1ACI
1070
     5
1001
GRADIENTCOLOR2ACI
1070
     2
1001
ACAD
1010
0.0
1020
0.0
1030
0.0
1001
ACDBBLOCKREPETAG
1070
     1
1071
      165
1005
12EFCA
  0
LINE
  5
12EFCB
  8
SLIM
 10
10017.65507936422
 20
-137.4436400304258
 30
0.0
 11
10025.595886626959
 21
-129.50283276769261
 31
0.0
1001
GRADIENTCOLOR1ACI
1070
     5
1001
GRADIENTCOLOR2ACI
1070
     2
1001
ACAD
1010
0.0
1020
0.0
1030
0.0
1001
ACDBBLOCKREPETAG
1070
     1
1071
      166
1005
12EFCB
  0
LINE
  5
12EFCC
  8
SLIM
 10
10026.07897551572
 20
-137.99999999999909
 30
0.0
 11
10031.9385859461
 21
-132.1403895696169
 31
0.0
1001
GRADIENTCOLOR1ACI
1070
     5
1001
GRADIENTCOLOR2ACI
1070
     2
1001
ACAD
1010
0.0
1020
0.0
1030
0.0
1001
ACDBBLOCKREPETAG
1070
     1
1071
      167
1005
12EFCC
  0
LINE
  5
12EFCD
  8
SLIM
 10
10035.05923163678
 20
-137.99999999999909
 30
0.0
 11
10037.82336543762
 21
-135.23586619916779
 31
0.0
1001
GRADIENTCOLOR1ACI
1070
     5
1001
GRADIENTCOLOR2ACI
1070
     2
1001
ACAD
1010
0.0
1020
0.0
1030
0.0
1001
ACDBBLOCKREPETAG
1070
     1
1071
      168
1005
12EFCD
  0
CIRCLE
  5
12EFCE
  8
OBJECT
 10
10000.0
 20
-199.99999999999909
 30
0.0
 40
65.0
1001
ACDBBLOCKREPETAG
1070
     1
1071
       84
1005
12EFCE
  0
CIRCLE
  5
12EFCF
  8
OBJECT
 10
10000.0
 20
-199.99999999999909
 30
0.0
 40
50.5
1001
ACDBBLOCKREPETAG
1070
     1
1071
       86
1005
12EFCF
  0
LINE
  5
12EFD0
  8
OBJECT
 10
10070.0
 20
-137.99999999999909
 30
0.0
 11
10019.519221295939
 21
-137.99999999999909
 31
0.0
1001
ACDBBLOCKREPETAG
1070
     1
1071
       87
1005
12EFD0
  0
LINE
  5
12EFD1
  8
OBJECT
 10
9930.0
 20
-137.99999999999909
 30
0.0
 11
9980.4807787040572
 21
-137.99999999999909
 31
0.0
1001
ACDBBLOCKREPETAG
1070
     1
1071
       88
1005
12EFD1
  0
LINE
  5
12EFD2
  8
OBJECT
 10
9930.0
 20
-261.99999999999909
 30
0.0
 11
9938.0
 21
-261.99999999999909
 31
0.0
1001
ACDBBLOCKREPETAG
1070
     1
1071
       89
1005
12EFD2
  0
LINE
  5
12EFD3
  8
OBJECT
 10
9938.0
 20
-269.99999999999909
 30
0.0
 11
9938.0
 21
-261.99999999999909
 31
0.0
1001
ACDBBLOCKREPETAG
1070
     1
1071
       90
1005
12EFD3
  0
LINE
  5
12EFD4
  8
OBJECT
 10
10070.0
 20
-261.99999999999909
 30
0.0
 11
10062.0
 21
-261.99999999999909
 31
0.0
1001
ACDBBLOCKREPETAG
1070
     1
1071
       91
1005
12EFD4
  0
LINE
  5
12EFD5
  8
OBJECT
 10
10062.0
 20
-269.99999999999909
 30
0.0
 11
10062.0
 21
-261.99999999999909
 31
0.0
1001
ACDBBLOCKREPETAG
1070
     1
1071
       92
1005
12EFD5
  0
LINE
  5
12EFD6
  8
CENTER
 10
9930.0
 20
-199.99999999999909
 30
0.0
 11
10070.0
 21
-199.99999999999909
 31
0.0
1001
ACDBBLOCKREPETAG
1070
     1
1071
       93
1005
12EFD6
  0
LINE
  5
12EFD7
  8
CENTER
 10
10000.0
 20
-269.99999999999909
 30
0.0
 11
10000.0
 21
-109.9999999999991
 31
0.0
1001
ACDBBLOCKREPETAG
1070
     1
1071
       94
1005
12EFD7
  0
LINE
  5
12EFD8
  8
OBJECT
 10
9954.0380592228739
 20
-245.96194077712289
 30
0.0
 11
9938.0
 21
-261.99999999999909
 31
0.0
1001
ACDBBLOCKREPETAG
1070
     1
1071
      106
1005
12EFD8
  0
LINE
  5
12EFD9
  8
OBJECT
 10
10045.96194077713
 20
-245.96194077712289
 30
0.0
 11
10062.0
 21
-261.99999999999909
 31
0.0
1001
ACDBBLOCKREPETAG
1070
     1
1071
      107
1005
12EFD9
  0
ARC
  5
12EFDA
  8
OBJECT
 10
10000.0
 20
-199.99999999999909
 30
0.0
 40
75.0
 50
55.757831297238091
 51
124.2421687027619
1001
ACDBBLOCKREPETAG
1070
     1
1071
      108
1005
12EFDA
  0
POINT
  5
12EFDB
  8
DOTS
 10
10000.0
 20
-199.99999999999909
 30
0.0
1001
ACDBBLOCKREPETAG
1070
     1
1071
      159
1005
12EFDB
  0
LINE
  5
12EFDC
  8
OBJECT
 10
9927.0
 20
-633.99999999999955
 30
0.0
 11
9930.0
 21
-633.99999999999955
 31
0.0
1001
ACDBBLOCKREPETAG
1070
     1
1071
        1
1005
12EFDC
  0
ARC
  5
12EFDD
  8
OBJECT
 10
9927.0
 20
-636.99999999999955
 30
0.0
 40
3.0
 50
90.0
 51
180.0
1001
ACDBBLOCKREPETAG
1070
     1
1071
        2
1005
12EFDD
  0
LINE
  5
12EFDE
  8
OBJECT
 10
9930.0
 20
-757.99999999999955
 30
0.0
 11
9927.0
 21
-757.99999999999955
 31
0.0
1001
ACDBBLOCKREPETAG
1070
     1
1071
        3
1005
12EFDE
  0
ARC
  5
12EFDF
  8
OBJECT
 10
9927.0
 20
-754.99999999999955
 30
0.0
 40
3.0
 50
180.0
 51
270.0
1001
ACDBBLOCKREPETAG
1070
     1
1071
        4
1005
12EFDF
  0
LINE
  5
12EFE0
  8
OBJECT
 10
9924.0
 20
-754.99999999999955
 30
0.0
 11
9924.0
 21
-636.99999999999955
 31
0.0
1001
ACDBBLOCKREPETAG
1070
     1
1071
        5
1005
12EFE0
  0
LINE
  5
12EFE1
  8
CENTER
 10
9909.0
 20
-199.99999999999909
 30
0.0
 11
9930.0
 21
-199.99999999999909
 31
0.0
1001
ACDBBLOCKREPETAG
1070
     1
1071
        0
1005
12EFE1
  0
LINE
  5
12EFE2
  8
OBJECT
 10
9927.0
 20
-261.99999999999909
 30
0.0
 11
9930.0
 21
-261.99999999999909
 31
0.0
1001
ACDBBLOCKREPETAG
1070
     1
1071
        1
1005
12EFE2
  0
ARC
  5
12EFE3
  8
OBJECT
 10
9927.0
 20
-258.99999999999909
 30
0.0
 40
3.0
 50
180.0
 51
270.0
1001
ACDBBLOCKREPETAG
1070
     1
1071
        2
1005
12EFE3
  0
LINE
  5
12EFE4
  8
OBJECT
 10
9930.0
 20
-137.99999999999909
 30
0.0
 11
9927.0
 21
-137.99999999999909
 31
0.0
1001
ACDBBLOCKREPETAG
1070
     1
1071
        3
1005
12EFE4
  0
ARC
  5
12EFE5
  8
OBJECT
 10
9927.0
 20
-140.99999999999909
 30
0.0
 40
3.0
 50
90.0
 51
180.0
1001
ACDBBLOCKREPETAG
1070
     1
1071
        4
1005
12EFE5
  0
LINE
  5
12EFE6
  8
OBJECT
 10
9924.0
 20
-140.99999999999909
 30
0.0
 11
9924.0
 21
-258.99999999999909
 31
0.0
1001
ACDBBLOCKREPETAG
1070
     1
1071
        5
1005
12EFE6
  0
LINE
  5
12EFE7
  8
OBJECT
 10
10047.0
 20
-322.99999999999898
 30
0.0
 11
10047.0
 21
-329.99999999999898
 31
0.0
1001
ACDBBLOCKREPETAG
1070
     1
1071
        7
1005
12EFE7
  0
LINE
  5
12EFE8
  8
OBJECT
 10
10047.0
 20
-329.99999999999898
 30
0.0
 11
9953.0
 21
-329.99999999999898
 31
0.0
1001
ACDBBLOCKREPETAG
1070
     1
1071
        8
1005
12EFE8
  0
LINE
  5
12EFE9
  8
OBJECT
 10
9953.0
 20
-329.99999999999898
 30
0.0
 11
9953.0
 21
-322.99999999999898
 31
0.0
1001
ACDBBLOCKREPETAG
1070
     1
1071
        9
1005
12EFE9
  0
LINE
  5
12EFEA
  8
OBJECT
 10
9953.0
 20
-322.99999999999898
 30
0.0
 11
10047.0
 21
-322.99999999999898
 31
0.0
1001
ACDBBLOCKREPETAG
1070
     1
1071
       10
1005
12EFEA
  0
LINE
  5
12EFEB
  8
CENTER
 10
10000.0
 20
-344.99999999999909
 30
0.0
 11
10000.0
 21
-269.99999999999909
 31
0.0
1001
ACDBBLOCKREPETAG
1070
     1
1071
       11
1005
12EFEB
  0
LINE
  5
12EFEC
  8
OBJECT
 10
10044.0
 20
-322.99999999999898
 30
0.0
 11
10044.0
 21
-286.99999999999898
 31
0.0
1001
ACDBBLOCKREPETAG
1070
     1
1071
       12
1005
12EFEC
  0
LINE
  5
12EFED
  8
OBJECT
 10
10044.0
 20
-286.99999999999898
 30
0.0
 11
9956.0
 21
-286.99999999999898
 31
0.0
1001
ACDBBLOCKREPETAG
1070
     1
1071
       13
1005
12EFED
  0
LINE
  5
12EFEE
  8
OBJECT
 10
9956.0
 20
-286.99999999999898
 30
0.0
 11
9956.0
 21
-322.99999999999898
 31
0.0
1001
ACDBBLOCKREPETAG
1070
     1
1071
       14
1005
12EFEE
  0
LINE
  5
12EFEF
  8
OBJECT
 10
10039.5
 20
-282.99999999999898
 30
0.0
 11
10039.5
 21
-275.99999999999909
 31
0.0
1001
ACDBBLOCKREPETAG
1070
     1
1071
       15
1005
12EFEF
  0
LINE
  5
12EFF0
  8
OBJECT
 10
9960.5000000000018
 20
-275.99999999999909
 30
0.0
 11
9960.5000000000018
 21
-282.99999999999898
 31
0.0
1001
ACDBBLOCKREPETAG
1070
     1
1071
       16
1005
12EFF0
  0
LINE
  5
12EFF1
  8
OBJECT
 10
9960.5000000000018
 20
-282.99999999999898
 30
0.0
 11
10039.5
 21
-282.99999999999898
 31
0.0
1001
ACDBBLOCKREPETAG
1070
     1
1071
       17
1005
12EFF1
  0
LINE
  5
12EFF2
  8
OBJECT
 10
10044.0
 20
-286.99999999999898
 30
0.0
 11
10039.5
 21
-282.99999999999898
 31
0.0
1001
ACDBBLOCKREPETAG
1070
     1
1071
       18
1005
12EFF2
  0
LINE
  5
12EFF3
  8
OBJECT
 10
9956.0
 20
-286.99999999999898
 30
0.0
 11
9960.5000000000018
 21
-282.99999999999898
 31
0.0
1001
ACDBBLOCKREPETAG
1070
     1
1071
       19
1005
12EFF3
  0
LINE
  5
12EFF4
  8
OBJECT
 10
10062.0
 20
-272.99999999999909
 30
0.0
 11
10062.0
 21
-269.99999999999909
 31
0.0
1001
ACDBBLOCKREPETAG
1070
     1
1071
       20
1005
12EFF4
  0
ARC
  5
12EFF5
  8
OBJECT
 10
10059.0
 20
-272.99999999999909
 30
0.0
 40
3.0
 50
270.0
 51
0.0
1001
ACDBBLOCKREPETAG
1070
     1
1071
       21
1005
12EFF5
  0
LINE
  5
12EFF6
  8
OBJECT
 10
9938.0
 20
-269.99999999999909
 30
0.0
 11
9938.0
 21
-272.99999999999909
 31
0.0
1001
ACDBBLOCKREPETAG
1070
     1
1071
       22
1005
12EFF6
  0
ARC
  5
12EFF7
  8
OBJECT
 10
9941.0
 20
-272.99999999999909
 30
0.0
 40
3.0
 50
180.0
 51
270.0
1001
ACDBBLOCKREPETAG
1070
     1
1071
       23
1005
12EFF7
  0
LINE
  5
12EFF8
  8
OBJECT
 10
9941.0
 20
-275.99999999999909
 30
0.0
 11
10059.0
 21
-275.99999999999909
 31
0.0
1001
ACDBBLOCKREPETAG
1070
     1
1071
       24
1005
12EFF8
  0
LINE
  5
12EFF9
  8
HIDDEN
 10
10030.0
 20
-277.99999999999909
 30
0.0
 11
9970.0
 21
-277.99999999999909
 31
0.0
1001
ACDBBLOCKREPETAG
1070
     1
1071
       25
1005
12EFF9
  0
LINE
  5
12EFFA
  8
OBJECT
 10
10192.99999999998
 20
-583.00000000000045
 30
0.0
 11
10199.99999999998
 21
-583.00000000000045
 31
0.0
1001
ACDBBLOCKREPETAG
1070
     1
1071
      324
1005
12EFFA
  0
LINE
  5
12EFFB
  8
OBJECT
 10
10199.99999999998
 20
-583.00000000000045
 30
0.0
 11
10199.99999999998
 21
-707.00000000000045
 31
0.0
1001
ACDBBLOCKREPETAG
1070
     1
1071
      325
1005
12EFFB
  0
LINE
  5
12EFFC
  8
OBJECT
 10
10075.99999999998
 20
-653.35026377572683
 30
0.0
 11
10075.99999999998
 21
-755.00000000000034
 31
0.0
1001
ACDBBLOCKREPETAG
1070
     1
1071
      326
1005
12EFFC
  0
LINE
  5
12EFFD
  8
OBJECT
 10
10199.99999999998
 20
-707.00000000000045
 30
0.0
 11
10192.99999999998
 21
-707.00000000000045
 31
0.0
1001
ACDBBLOCKREPETAG
1070
     1
1071
      327
1005
12EFFD
  0
LINE
  5
12EFFE
  8
OBJECT
 10
10192.99999999998
 20
-707.00000000000045
 30
0.0
 11
10192.99999999998
 21
-583.00000000000045
 31
0.0
1001
ACDBBLOCKREPETAG
1070
     1
1071
      328
1005
12EFFE
  0
LINE
  5
12EFFF
  8
CENTER
 10
10124.99999999998
 20
-645.00000000000045
 30
0.0
 11
10214.99999999998
 21
-645.00000000000045
 31
0.0
1001
ACDBBLOCKREPETAG
1070
     1
1071
      329
1005
12EFFF
  0
LINE
  5
12F000
  8
OBJECT
 10
10069.99999999998
 20
-757.99999999999955
 30
0.0
 11
10072.99999999998
 21
-758.00000000000034
 31
0.0
1001
ACDBBLOCKREPETAG
1070
     1
1071
      330
1005
12F000
  0
ARC
  5
12F001
  8
OBJECT
 10
10072.99999999998
 20
-755.00000000000034
 30
0.0
 40
3.0
 50
270.0
 51
0.0
1001
ACDBBLOCKREPETAG
1070
     1
1071
      331
1005
12F001
  0
LINE
  5
12F002
  8
OBJECT
 10
10192.99999999998
 20
-586.00000000000045
 30
0.0
 11
10156.99999999998
 21
-586.00000000000045
 31
0.0
1001
ACDBBLOCKREPETAG
1070
     1
1071
      332
1005
12F002
  0
LINE
  5
12F003
  8
OBJECT
 10
10156.99999999998
 20
-586.00000000000045
 30
0.0
 11
10156.99999999998
 21
-704.00000000000045
 31
0.0
1001
ACDBBLOCKREPETAG
1070
     1
1071
      333
1005
12F003
  0
LINE
  5
12F004
  8
OBJECT
 10
10152.99999999998
 20
-590.50000000000045
 30
0.0
 11
10152.99999999998
 21
-699.50000000000045
 31
0.0
1001
ACDBBLOCKREPETAG
1070
     1
1071
      334
1005
12F004
  0
LINE
  5
12F005
  8
OBJECT
 10
10152.99999999998
 20
-590.50000000000045
 30
0.0
 11
10139.99999999998
 21
-590.50000000000045
 31
0.0
1001
ACDBBLOCKREPETAG
1070
     1
1071
      335
1005
12F005
  0
LINE
  5
12F006
  8
OBJECT
 10
10156.99999999998
 20
-704.00000000000045
 30
0.0
 11
10192.99999999998
 21
-704.00000000000045
 31
0.0
1001
ACDBBLOCKREPETAG
1070
     1
1071
      336
1005
12F006
  0
LINE
  5
12F007
  8
OBJECT
 10
10156.99999999998
 20
-586.00000000000045
 30
0.0
 11
10152.99999999998
 21
-590.50000000000045
 31
0.0
1001
ACDBBLOCKREPETAG
1070
     1
1071
      337
1005
12F007
  0
LINE
  5
12F008
  8
OBJECT
 10
10139.99999999998
 20
-590.50000000000045
 30
0.0
 11
10139.99999999998
 21
-675.7449182792875
 31
0.0
1001
ACDBBLOCKREPETAG
1070
     1
1071
      338
1005
12F008
  0
ARC
  5
12F009
  8
OBJECT
 10
10142.799999999979
 20
-685.00000000000045
 30
0.0
 40
85.0
 50
91.887731891831123
 51
143.130102354109
1001
ACDBBLOCKREPETAG
1070
     1
1071
      339
1005
12F009
  0
LINE
  5
12F00A
  8
HIDDEN
 10
10147.99999999998
 20
-600.50000000000057
 30
0.0
 11
10147.99999999998
 21
-689.50000000000045
 31
0.0
1001
ACDBBLOCKREPETAG
1070
     1
1071
      341
1005
12F00A
  0
LINE
  5
12F00B
  8
OBJECT
 10
10075.99999999998
 20
-751.07945073181725
 30
0.0
 11
10146.631319921031
 21
-699.50000000000045
 31
0.0
1001
ACDBBLOCKREPETAG
1070
     1
1071
      342
1005
12F00B
  0
LINE
  5
12F00C
  8
OBJECT
 10
10069.99999999998
 20
-633.99999999999955
 30
0.0
 11
10074.799999999979
 21
-633.99999999999955
 31
0.0
1001
ACDBBLOCKREPETAG
1070
     1
1071
      343
1005
12F00C
  0
LINE
  5
12F00D
  8
OBJECT
 10
10075.99999999998
 20
-653.35026377572945
 30
0.0
 11
10074.799999999979
 21
-633.99999999999955
 31
0.0
1001
ACDBBLOCKREPETAG
1070
     1
1071
      344
1005
12F00D
  0
LINE
  5
12F00E
  8
OBJECT
 10
10152.99999999998
 20
-699.50000000000045
 30
0.0
 11
10146.631319921031
 21
-699.50000000000045
 31
0.0
1001
ACDBBLOCKREPETAG
1070
     1
1071
      345
1005
12F00E
  0
LINE
  5
12F00F
  8
OBJECT
 10
10156.99999999998
 20
-704.00000000000045
 30
0.0
 11
10152.99999999998
 21
-699.50000000000045
 31
0.0
1001
ACDBBLOCKREPETAG
1070
     1
1071
      346
1005
12F00F
  0
LINE
  5
12F010
  8
OBJECT
 10
10192.99999999998
 20
-137.99999999999909
 30
0.0
 11
10199.99999999998
 21
-137.99999999999909
 31
0.0
1001
ACDBBLOCKREPETAG
1070
     1
1071
      376
1005
12F010
  0
LINE
  5
12F011
  8
OBJECT
 10
10199.99999999998
 20
-137.99999999999909
 30
0.0
 11
10199.99999999998
 21
-261.99999999999909
 31
0.0
1001
ACDBBLOCKREPETAG
1070
     1
1071
      377
1005
12F011
  0
LINE
  5
12F012
  8
OBJECT
 10
10199.99999999998
 20
-261.99999999999909
 30
0.0
 11
10192.99999999998
 21
-261.99999999999909
 31
0.0
1001
ACDBBLOCKREPETAG
1070
     1
1071
      378
1005
12F012
  0
LINE
  5
12F013
  8
OBJECT
 10
10192.99999999998
 20
-261.99999999999909
 30
0.0
 11
10192.99999999998
 21
-137.99999999999909
 31
0.0
1001
ACDBBLOCKREPETAG
1070
     1
1071
      379
1005
12F013
  0
LINE
  5
12F014
  8
CENTER
 10
10214.99999999998
 20
-199.99999999999909
 30
0.0
 11
10070.0
 21
-199.99999999999909
 31
0.0
1001
ACDBBLOCKREPETAG
1070
     1
1071
      380
1005
12F014
  0
LINE
  5
12F015
  8
OBJECT
 10
10139.999974964179
 20
-245.0000000000027
 30
0.0
 11
10076.0
 21
-244.99999999999909
 31
0.0
1001
ACDBBLOCKREPETAG
1070
     1
1071
      381
1005
12F015
  0
LINE
  5
12F016
  8
OBJECT
 10
10139.999974964179
 20
-154.99999999999909
 30
0.0
 11
10076.0
 21
-154.99999999999909
 31
0.0
1001
ACDBBLOCKREPETAG
1070
     1
1071
      382
1005
12F016
  0
LINE
  5
12F017
  8
OBJECT
 10
10192.99999999998
 20
-140.99999999999909
 30
0.0
 11
10156.99999999998
 21
-140.99999999999909
 31
0.0
1001
ACDBBLOCKREPETAG
1070
     1
1071
      383
1005
12F017
  0
LINE
  5
12F018
  8
OBJECT
 10
10156.99999999998
 20
-140.99999999999909
 30
0.0
 11
10156.99999999998
 21
-258.99999999999909
 31
0.0
1001
ACDBBLOCKREPETAG
1070
     1
1071
      384
1005
12F018
  0
LINE
  5
12F019
  8
OBJECT
 10
10156.99999999998
 20
-258.99999999999909
 30
0.0
 11
10192.99999999998
 21
-258.99999999999909
 31
0.0
1001
ACDBBLOCKREPETAG
1070
     1
1071
      385
1005
12F019
  0
LINE
  5
12F01A
  8
OBJECT
 10
10152.99999999998
 20
-145.49999999999909
 30
0.0
 11
10139.99999999998
 21
-145.49999999999909
 31
0.0
1001
ACDBBLOCKREPETAG
1070
     1
1071
      386
1005
12F01A
  0
LINE
  5
12F01B
  8
OBJECT
 10
10139.99999999998
 20
-254.49999999999909
 30
0.0
 11
10152.99999999998
 21
-254.49999999999909
 31
0.0
1001
ACDBBLOCKREPETAG
1070
     1
1071
      387
1005
12F01B
  0
LINE
  5
12F01C
  8
OBJECT
 10
10152.99999999998
 20
-254.49999999999909
 30
0.0
 11
10152.99999999998
 21
-145.49999999999909
 31
0.0
1001
ACDBBLOCKREPETAG
1070
     1
1071
      388
1005
12F01C
  0
LINE
  5
12F01D
  8
OBJECT
 10
10156.99999999998
 20
-140.99999999999909
 30
0.0
 11
10152.99999999998
 21
-145.49999999999909
 31
0.0
1001
ACDBBLOCKREPETAG
1070
     1
1071
      389
1005
12F01D
  0
LINE
  5
12F01E
  8
OBJECT
 10
10156.99999999998
 20
-258.99999999999909
 30
0.0
 11
10152.99999999998
 21
-254.49999999999909
 31
0.0
1001
ACDBBLOCKREPETAG
1070
     1
1071
      390
1005
12F01E
  0
LINE
  5
12F01F
  8
OBJECT
 10
10073.0
 20
-137.99999999999909
 30
0.0
 11
10070.0
 21
-137.99999999999909
 31
0.0
1001
ACDBBLOCKREPETAG
1070
     1
1071
      391
1005
12F01F
  0
ARC
  5
12F020
  8
OBJECT
 10
10073.0
 20
-140.99999999999909
 30
0.0
 40
3.0
 50
0.0
 51
90.0
1001
ACDBBLOCKREPETAG
1070
     1
1071
      392
1005
12F020
  0
LINE
  5
12F021
  8
OBJECT
 10
10070.0
 20
-261.99999999999909
 30
0.0
 11
10073.0
 21
-261.99999999999909
 31
0.0
1001
ACDBBLOCKREPETAG
1070
     1
1071
      393
1005
12F021
  0
ARC
  5
12F022
  8
OBJECT
 10
10073.0
 20
-258.99999999999909
 30
0.0
 40
3.0
 50
270.0
 51
0.0
1001
ACDBBLOCKREPETAG
1070
     1
1071
      394
1005
12F022
  0
LINE
  5
12F023
  8
OBJECT
 10
10076.0
 20
-258.99999999999909
 30
0.0
 11
10076.0
 21
-210.3227903203578
 31
0.0
1001
ACDBBLOCKREPETAG
1070
     1
1071
      395
1005
12F023
  0
LINE
  5
12F024
  8
OBJECT
 10
10076.0
 20
-189.6772096796403
 30
0.0
 11
10076.0
 21
-140.99999999999909
 31
0.0
1001
ACDBBLOCKREPETAG
1070
     1
1071
      396
1005
12F024
  0
LINE
  5
12F025
  8
HIDDEN
 10
10147.99999999998
 20
-155.49999999999909
 30
0.0
 11
10147.99999999998
 21
-244.49999999999909
 31
0.0
1001
ACDBBLOCKREPETAG
1070
     1
1071
      397
1005
12F025
  0
LINE
  5
12F026
  8
OBJECT
 10
10139.999974964179
 20
-254.4999509238105
 30
0.0
 11
10139.999974964179
 21
-145.4999509238105
 31
0.0
1001
ACDBBLOCKREPETAG
1070
     1
1071
      399
1005
12F026
  0
ARC
  5
12F027
  8
OBJECT
 10
10119.800000000019
 20
-199.99999999999909
 30
0.0
 40
45.000000000000547
 50
90.0
 51
270.0
1001
ACDBBLOCKREPETAG
1070
     1
1071
      400
1005
12F027
  0
CIRCLE
  5
12F028
  8
OBJECT
 10
8000.0
 20
-695.99999999999955
 30
0.0
 40
62.0
1001
ACDBBLOCKREPETAG
1070
     1
1071
        3
1005
12F028
  0
LINE
  5
12F029
  8
CENTER
 10
7938.0
 20
-710.99999999999955
 30
0.0
 11
8062.0
 21
-710.99999999999955
 31
0.0
1001
ACDBBLOCKREPETAG
1070
     1
1071
        4
1005
12F029
  0
CIRCLE
  5
12F02A
  8
OBJECT
 10
8000.0
 20
-710.99999999999955
 30
0.0
 40
28.0
1001
ACDBBLOCKREPETAG
1070
     1
1071
        6
1005
12F02A
  0
CIRCLE
  5
12F02B
  8
OBJECT
 10
8000.0
 20
-710.99999999999955
 30
0.0
 40
39.0
1001
ACDBBLOCKREPETAG
1070
     1
1071
        7
1005
12F02B
  0
ARC
  5
12F02C
  8
OBJECT
 10
8000.0
 20
-710.99999999999955
 30
0.0
 40
47.0
 50
290.58196921144179
 51
249.41803078855821
1001
ACDBBLOCKREPETAG
1070
     1
1071
        8
1005
12F02C
  0
LINE
  5
12F02D
  8
OBJECT
 10
7983.4772883581409
 20
-754.99999999999955
 30
0.0
 11
8016.5227116418582
 21
-754.99999999999955
 31
0.0
1001
ACDBBLOCKREPETAG
1070
     1
1071
        9
1005
12F02D
  0
LINE
  5
12F02E
  8
CENTER
 10
8000.0
 20
-769.99999999999955
 30
0.0
 11
8000.0
 21
-613.99999999999966
 31
0.0
1001
ACDBBLOCKREPETAG
1070
     1
1071
        0
1005
12F02E
  0
LINE
  5
12F02F
  8
OBJECT
 10
7930.0
 20
-633.99999999999955
 30
0.0
 11
8070.0
 21
-633.99999999999955
 31
0.0
1001
ACDBBLOCKREPETAG
1070
     1
1071
        1
1005
12F02F
  0
LINE
  5
12F030
  8
OBJECT
 10
7930.0
 20
-757.99999999999955
 30
0.0
 11
7930.0
 21
-769.99999999999955
 31
0.0
1001
ACDBBLOCKREPETAG
1070
     1
1071
        2
1005
12F030
  0
LINE
  5
12F031
  8
OBJECT
 10
7930.0
 20
-769.99999999999955
 30
0.0
 11
8070.0
 21
-769.99999999999955
 31
0.0
1001
ACDBBLOCKREPETAG
1070
     1
1071
        3
1005
12F031
  0
LINE
  5
12F032
  8
OBJECT
 10
8070.0
 20
-769.99999999999955
 30
0.0
 11
8070.0
 21
-757.99999999999955
 31
0.0
1001
ACDBBLOCKREPETAG
1070
     1
1071
        4
1005
12F032
  0
LINE
  5
12F033
  8
OBJECT
 10
8070.0
 20
-757.99999999999955
 30
0.0
 11
7930.0
 21
-757.99999999999955
 31
0.0
1001
ACDBBLOCKREPETAG
1070
     1
1071
        5
1005
12F033
  0
ARC
  5
12F034
  8
OBJECT
 10
8435.0384389946794
 20
-998.60813684682694
 30
0.0
 40
519.48776673616965
 50
135.42350667430969
 51
138.50052655621499
1001
ACDBBLOCKREPETAG
1070
     1
1071
        9
1005
12F034
  0
ARC
  5
12F035
  8
OBJECT
 10
8435.0384389946794
 20
-393.39186315317193
 30
0.0
 40
519.48776673616965
 50
221.49947344378501
 51
224.57649332569039
1001
ACDBBLOCKREPETAG
1070
     1
1071
       10
1005
12F035
  0
ARC
  5
12F036
  8
OBJECT
 10
7564.9615610053233
 20
-998.60813684682694
 30
0.0
 40
519.48776673616965
 50
41.499473443784993
 51
44.576493325690237
1001
ACDBBLOCKREPETAG
1070
     1
1071
       11
1005
12F036
  0
ARC
  5
12F037
  8
OBJECT
 10
7564.9615610053233
 20
-393.39186315317193
 30
0.0
 40
519.48776673616965
 50
315.42350667430981
 51
318.50052655621488
1001
ACDBBLOCKREPETAG
1070
     1
1071
       12
1005
12F037
  0
LINE
  5
12F038
  8
OBJECT
 10
8047.5000000000018
 20
-628.99999999999955
 30
0.0
 11
7952.5
 21
-628.99999999999955
 31
0.0
1001
ACDBBLOCKREPETAG
1070
     1
1071
       24
1005
12F038
  0
ARC
  5
12F039
  8
OBJECT
 10
7952.5
 20
-631.99999999999955
 30
0.0
 40
3.0
 50
90.0
 51
180.0
1001
ACDBBLOCKREPETAG
1070
     1
1071
       25
1005
12F039
  0
LINE
  5
12F03A
  8
OBJECT
 10
7949.5
 20
-631.99999999999955
 30
0.0
 11
7949.5
 21
-633.99999999999955
 31
0.0
1001
ACDBBLOCKREPETAG
1070
     1
1071
       26
1005
12F03A
  0
LINE
  5
12F03B
  8
OBJECT
 10
8050.4999999999973
 20
-631.99999999999955
 30
0.0
 11
8050.4999999999973
 21
-633.99999999999955
 31
0.0
1001
ACDBBLOCKREPETAG
1070
     1
1071
       27
1005
12F03B
  0
ARC
  5
12F03C
  8
OBJECT
 10
8047.5000000000018
 20
-631.99999999999955
 30
0.0
 40
3.0
 50
0.0
 51
90.0
1001
ACDBBLOCKREPETAG
1070
     1
1071
       28
1005
12F03C
  0
POINT
  5
12F03D
  8
DOTS
 10
8000.0
 20
-754.99999999999955
 30
0.0
1001
ACDBBLOCKREPETAG
1070
     1
1071
       87
1005
12F03D
  0
LINE
  5
12F03E
  8
SLIM
 10
7963.2171826682388
 20
-137.99999999999909
 30
0.0
 11
7969.9215079962914
 21
-131.29567467194681
 31
0.0
1001
ACDBBLOCKREPETAG
1070
     1
1071
      157
1005
0
1001
GRADIENTCOLOR1ACI
1070
     5
1001
GRADIENTCOLOR2ACI
1070
     2
1001
ACAD
1010
0.0
1020
0.0
1030
0.0
  0
LINE
  5
12F03F
  8
SLIM
 10
7972.1974387893079
 20
-137.99999999999909
 30
0.0
 11
7983.3188363327517
 21
-126.87860245655401
 31
0.0
1001
GRADIENTCOLOR1ACI
1070
     5
1001
GRADIENTCOLOR2ACI
1070
     2
1001
ACAD
1010
0.0
1020
0.0
1030
0.0
1001
ACDBBLOCKREPETAG
1070
     1
1071
      160
1005
12F03F
  0
LINE
  5
12F040
  8
SLIM
 10
7981.4849372887629
 20
-137.6927576216126
 30
0.0
 11
7993.9318052485969
 21
-125.245889661777
 31
0.0
1001
GRADIENTCOLOR1ACI
1070
     5
1001
GRADIENTCOLOR2ACI
1070
     2
1001
ACAD
1010
0.0
1020
0.0
1030
0.0
1001
ACDBBLOCKREPETAG
1070
     1
1071
      161
1005
12F040
  0
LINE
  5
12F041
  8
SLIM
 10
7992.7526568280337
 20
-135.40529420341099
 30
0.0
 11
8000.0
 21
-128.1579510314458
 31
0.0
1001
GRADIENTCOLOR1ACI
1070
     5
1001
GRADIENTCOLOR2ACI
1070
     2
1001
ACAD
1010
0.0
1020
0.0
1030
0.0
1001
ACDBBLOCKREPETAG
1070
     1
1071
      162
1005
12F041
  0
LINE
  5
12F042
  8
SLIM
 10
8000.0
 20
-128.1579510314458
 30
0.0
 11
8003.0941007878528
 21
-125.0638502435924
 31
0.0
1001
GRADIENTCOLOR1ACI
1070
     5
1001
GRADIENTCOLOR2ACI
1070
     2
1001
ACAD
1010
0.0
1020
0.0
1030
0.0
1001
ACDBBLOCKREPETAG
1070
     1
1071
      163
1005
12F042
  0
LINE
  5
12F043
  8
SLIM
 10
8002.1041412234727
 20
-135.03406592904389
 30
0.0
 11
8011.284425768652
 21
-125.85378138386341
 31
0.0
1001
GRADIENTCOLOR1ACI
1070
     5
1001
GRADIENTCOLOR2ACI
1070
     2
1001
ACAD
1010
0.0
1020
0.0
1030
0.0
1001
ACDBBLOCKREPETAG
1070
     1
1071
      164
1005
12F043
  0
LINE
  5
12F044
  8
SLIM
 10
8010.297585520927
 20
-135.82087775265759
 30
0.0
 11
8018.7395884655189
 21
-127.3788748080627
 31
0.0
1001
GRADIENTCOLOR1ACI
1070
     5
1001
GRADIENTCOLOR2ACI
1070
     2
1001
ACAD
1010
0.0
1020
0.0
1030
0.0
1001
ACDBBLOCKREPETAG
1070
     1
1071
      165
1005
12F044
  0
LINE
  5
12F045
  8
SLIM
 10
8017.6550793642282
 20
-137.4436400304258
 30
0.0
 11
8025.5958866269621
 21
-129.50283276769261
 31
0.0
1001
GRADIENTCOLOR1ACI
1070
     5
1001
GRADIENTCOLOR2ACI
1070
     2
1001
ACAD
1010
0.0
1020
0.0
1030
0.0
1001
ACDBBLOCKREPETAG
1070
     1
1071
      166
1005
12F045
  0
LINE
  5
12F046
  8
SLIM
 10
8026.078975515723
 20
-137.99999999999909
 30
0.0
 11
8031.9385859461063
 21
-132.1403895696169
 31
0.0
1001
GRADIENTCOLOR1ACI
1070
     5
1001
GRADIENTCOLOR2ACI
1070
     2
1001
ACAD
1010
0.0
1020
0.0
1030
0.0
1001
ACDBBLOCKREPETAG
1070
     1
1071
      167
1005
12F046
  0
LINE
  5
12F047
  8
SLIM
 10
8035.0592316367947
 20
-137.99999999999909
 30
0.0
 11
8037.8233654376218
 21
-135.23586619916779
 31
0.0
1001
GRADIENTCOLOR1ACI
1070
     5
1001
GRADIENTCOLOR2ACI
1070
     2
1001
ACAD
1010
0.0
1020
0.0
1030
0.0
1001
ACDBBLOCKREPETAG
1070
     1
1071
      168
1005
12F047
  0
CIRCLE
  5
12F048
  8
OBJECT
 10
8000.0
 20
-199.99999999999909
 30
0.0
 40
65.0
1001
ACDBBLOCKREPETAG
1070
     1
1071
       84
1005
12F048
  0
CIRCLE
  5
12F049
  8
OBJECT
 10
8000.0
 20
-199.99999999999909
 30
0.0
 40
50.5
1001
ACDBBLOCKREPETAG
1070
     1
1071
       86
1005
12F049
  0
LINE
  5
12F04A
  8
OBJECT
 10
8070.0
 20
-137.99999999999909
 30
0.0
 11
8019.5192212959419
 21
-137.99999999999909
 31
0.0
1001
ACDBBLOCKREPETAG
1070
     1
1071
       87
1005
12F04A
  0
LINE
  5
12F04B
  8
OBJECT
 10
7930.0
 20
-137.99999999999909
 30
0.0
 11
7980.4807787040572
 21
-137.99999999999909
 31
0.0
1001
ACDBBLOCKREPETAG
1070
     1
1071
       88
1005
12F04B
  0
LINE
  5
12F04C
  8
OBJECT
 10
7930.0
 20
-261.99999999999909
 30
0.0
 11
7938.0
 21
-261.99999999999909
 31
0.0
1001
ACDBBLOCKREPETAG
1070
     1
1071
       89
1005
12F04C
  0
LINE
  5
12F04D
  8
OBJECT
 10
7938.0
 20
-269.99999999999909
 30
0.0
 11
7938.0
 21
-261.99999999999909
 31
0.0
1001
ACDBBLOCKREPETAG
1070
     1
1071
       90
1005
12F04D
  0
LINE
  5
12F04E
  8
OBJECT
 10
8070.0
 20
-261.99999999999909
 30
0.0
 11
8062.0
 21
-261.99999999999909
 31
0.0
1001
ACDBBLOCKREPETAG
1070
     1
1071
       91
1005
12F04E
  0
LINE
  5
12F04F
  8
OBJECT
 10
8062.0
 20
-269.99999999999909
 30
0.0
 11
8062.0
 21
-261.99999999999909
 31
0.0
1001
ACDBBLOCKREPETAG
1070
     1
1071
       92
1005
12F04F
  0
LINE
  5
12F050
  8
CENTER
 10
7930.0
 20
-199.99999999999909
 30
0.0
 11
8070.0
 21
-199.99999999999909
 31
0.0
1001
ACDBBLOCKREPETAG
1070
     1
1071
       93
1005
12F050
  0
LINE
  5
12F051
  8
CENTER
 10
8000.0
 20
-269.99999999999909
 30
0.0
 11
8000.0
 21
-109.9999999999991
 31
0.0
1001
ACDBBLOCKREPETAG
1070
     1
1071
       94
1005
12F051
  0
LINE
  5
12F052
  8
OBJECT
 10
7954.0380592228739
 20
-245.96194077712289
 30
0.0
 11
7938.0
 21
-261.99999999999909
 31
0.0
1001
ACDBBLOCKREPETAG
1070
     1
1071
      106
1005
12F052
  0
LINE
  5
12F053
  8
OBJECT
 10
8045.9619407771252
 20
-245.96194077712289
 30
0.0
 11
8062.0
 21
-261.99999999999909
 31
0.0
1001
ACDBBLOCKREPETAG
1070
     1
1071
      107
1005
12F053
  0
ARC
  5
12F054
  8
OBJECT
 10
8000.0
 20
-199.99999999999909
 30
0.0
 40
75.0
 50
55.757831297238091
 51
124.2421687027619
1001
ACDBBLOCKREPETAG
1070
     1
1071
      108
1005
12F054
  0
POINT
  5
12F055
  8
DOTS
 10
8000.0
 20
-199.99999999999909
 30
0.0
1001
ACDBBLOCKREPETAG
1070
     1
1071
      159
1005
12F055
  0
LINE
  5
12F056
  8
OBJECT
 10
7927.0
 20
-633.99999999999955
 30
0.0
 11
7930.0
 21
-633.99999999999955
 31
0.0
1001
ACDBBLOCKREPETAG
1070
     1
1071
        1
1005
12F056
  0
ARC
  5
12F057
  8
OBJECT
 10
7927.0
 20
-636.99999999999955
 30
0.0
 40
3.0
 50
90.0
 51
180.0
1001
ACDBBLOCKREPETAG
1070
     1
1071
        2
1005
12F057
  0
LINE
  5
12F058
  8
OBJECT
 10
7930.0
 20
-757.99999999999955
 30
0.0
 11
7927.0
 21
-757.99999999999955
 31
0.0
1001
ACDBBLOCKREPETAG
1070
     1
1071
        3
1005
12F058
  0
ARC
  5
12F059
  8
OBJECT
 10
7927.0
 20
-754.99999999999955
 30
0.0
 40
3.0
 50
180.0
 51
270.0
1001
ACDBBLOCKREPETAG
1070
     1
1071
        4
1005
12F059
  0
LINE
  5
12F05A
  8
OBJECT
 10
7924.0
 20
-754.99999999999955
 30
0.0
 11
7924.0
 21
-636.99999999999955
 31
0.0
1001
ACDBBLOCKREPETAG
1070
     1
1071
        5
1005
12F05A
  0
LINE
  5
12F05B
  8
CENTER
 10
7909.0
 20
-199.99999999999909
 30
0.0
 11
7930.0
 21
-199.99999999999909
 31
0.0
1001
ACDBBLOCKREPETAG
1070
     1
1071
        0
1005
12F05B
  0
LINE
  5
12F05C
  8
OBJECT
 10
7927.0
 20
-261.99999999999909
 30
0.0
 11
7930.0
 21
-261.99999999999909
 31
0.0
1001
ACDBBLOCKREPETAG
1070
     1
1071
        1
1005
12F05C
  0
ARC
  5
12F05D
  8
OBJECT
 10
7927.0
 20
-258.99999999999909
 30
0.0
 40
3.0
 50
180.0
 51
270.0
1001
ACDBBLOCKREPETAG
1070
     1
1071
        2
1005
12F05D
  0
LINE
  5
12F05E
  8
OBJECT
 10
7930.0
 20
-137.99999999999909
 30
0.0
 11
7927.0
 21
-137.99999999999909
 31
0.0
1001
ACDBBLOCKREPETAG
1070
     1
1071
        3
1005
12F05E
  0
ARC
  5
12F05F
  8
OBJECT
 10
7927.0
 20
-140.99999999999909
 30
0.0
 40
3.0
 50
90.0
 51
180.0
1001
ACDBBLOCKREPETAG
1070
     1
1071
        4
1005
12F05F
  0
LINE
  5
12F060
  8
OBJECT
 10
7924.0
 20
-140.99999999999909
 30
0.0
 11
7924.0
 21
-258.99999999999909
 31
0.0
1001
ACDBBLOCKREPETAG
1070
     1
1071
        5
1005
12F060
  0
LINE
  5
12F061
  8
OBJECT
 10
8047.0
 20
-322.99999999999898
 30
0.0
 11
8047.0
 21
-329.99999999999898
 31
0.0
1001
ACDBBLOCKREPETAG
1070
     1
1071
        7
1005
12F061
  0
LINE
  5
12F062
  8
OBJECT
 10
8047.0
 20
-329.99999999999898
 30
0.0
 11
7953.0
 21
-329.99999999999898
 31
0.0
1001
ACDBBLOCKREPETAG
1070
     1
1071
        8
1005
12F062
  0
LINE
  5
12F063
  8
OBJECT
 10
7953.0
 20
-329.99999999999898
 30
0.0
 11
7953.0
 21
-322.99999999999898
 31
0.0
1001
ACDBBLOCKREPETAG
1070
     1
1071
        9
1005
12F063
  0
LINE
  5
12F064
  8
OBJECT
 10
7953.0
 20
-322.99999999999898
 30
0.0
 11
8047.0
 21
-322.99999999999898
 31
0.0
1001
ACDBBLOCKREPETAG
1070
     1
1071
       10
1005
12F064
  0
LINE
  5
12F065
  8
CENTER
 10
8000.0
 20
-344.99999999999909
 30
0.0
 11
8000.0
 21
-269.99999999999909
 31
0.0
1001
ACDBBLOCKREPETAG
1070
     1
1071
       11
1005
12F065
  0
LINE
  5
12F066
  8
OBJECT
 10
8044.0
 20
-322.99999999999898
 30
0.0
 11
8044.0
 21
-286.99999999999898
 31
0.0
1001
ACDBBLOCKREPETAG
1070
     1
1071
       12
1005
12F066
  0
LINE
  5
12F067
  8
OBJECT
 10
8044.0
 20
-286.99999999999898
 30
0.0
 11
7956.0
 21
-286.99999999999898
 31
0.0
1001
ACDBBLOCKREPETAG
1070
     1
1071
       13
1005
12F067
  0
LINE
  5
12F068
  8
OBJECT
 10
7956.0
 20
-286.99999999999898
 30
0.0
 11
7956.0
 21
-322.99999999999898
 31
0.0
1001
ACDBBLOCKREPETAG
1070
     1
1071
       14
1005
12F068
  0
LINE
  5
12F069
  8
OBJECT
 10
8039.5
 20
-282.99999999999898
 30
0.0
 11
8039.5
 21
-275.99999999999909
 31
0.0
1001
ACDBBLOCKREPETAG
1070
     1
1071
       15
1005
12F069
  0
LINE
  5
12F06A
  8
OBJECT
 10
7960.5
 20
-275.99999999999909
 30
0.0
 11
7960.5
 21
-282.99999999999898
 31
0.0
1001
ACDBBLOCKREPETAG
1070
     1
1071
       16
1005
12F06A
  0
LINE
  5
12F06B
  8
OBJECT
 10
7960.5
 20
-282.99999999999898
 30
0.0
 11
8039.5
 21
-282.99999999999898
 31
0.0
1001
ACDBBLOCKREPETAG
1070
     1
1071
       17
1005
12F06B
  0
LINE
  5
12F06C
  8
OBJECT
 10
8044.0
 20
-286.99999999999898
 30
0.0
 11
8039.5
 21
-282.99999999999898
 31
0.0
1001
ACDBBLOCKREPETAG
1070
     1
1071
       18
1005
12F06C
  0
LINE
  5
12F06D
  8
OBJECT
 10
7956.0
 20
-286.99999999999898
 30
0.0
 11
7960.5
 21
-282.99999999999898
 31
0.0
1001
ACDBBLOCKREPETAG
1070
     1
1071
       19
1005
12F06D
  0
LINE
  5
12F06E
  8
OBJECT
 10
8062.0
 20
-272.99999999999909
 30
0.0
 11
8062.0
 21
-269.99999999999909
 31
0.0
1001
ACDBBLOCKREPETAG
1070
     1
1071
       20
1005
12F06E
  0
ARC
  5
12F06F
  8
OBJECT
 10
8059.0
 20
-272.99999999999909
 30
0.0
 40
3.0
 50
270.0
 51
0.0
1001
ACDBBLOCKREPETAG
1070
     1
1071
       21
1005
12F06F
  0
LINE
  5
12F070
  8
OBJECT
 10
7938.0
 20
-269.99999999999909
 30
0.0
 11
7938.0
 21
-272.99999999999909
 31
0.0
1001
ACDBBLOCKREPETAG
1070
     1
1071
       22
1005
12F070
  0
ARC
  5
12F071
  8
OBJECT
 10
7941.0
 20
-272.99999999999909
 30
0.0
 40
3.0
 50
180.0
 51
270.0
1001
ACDBBLOCKREPETAG
1070
     1
1071
       23
1005
12F071
  0
LINE
  5
12F072
  8
OBJECT
 10
7941.0
 20
-275.99999999999909
 30
0.0
 11
8059.0
 21
-275.99999999999909
 31
0.0
1001
ACDBBLOCKREPETAG
1070
     1
1071
       24
1005
12F072
  0
LINE
  5
12F073
  8
HIDDEN
 10
8030.0
 20
-277.99999999999909
 30
0.0
 11
7970.0
 21
-277.99999999999909
 31
0.0
1001
ACDBBLOCKREPETAG
1070
     1
1071
       25
1005
12F073
  0
LINE
  5
12F074
  8
OBJECT
 10
8192.9999999999873
 20
-583.00000000000045
 30
0.0
 11
8199.9999999999854
 21
-583.00000000000045
 31
0.0
1001
ACDBBLOCKREPETAG
1070
     1
1071
      324
1005
12F074
  0
LINE
  5
12F075
  8
OBJECT
 10
8199.9999999999854
 20
-583.00000000000045
 30
0.0
 11
8199.9999999999854
 21
-707.00000000000045
 31
0.0
1001
ACDBBLOCKREPETAG
1070
     1
1071
      325
1005
12F075
  0
LINE
  5
12F076
  8
OBJECT
 10
8075.9999999999864
 20
-653.35026377572683
 30
0.0
 11
8075.9999999999864
 21
-755.00000000000034
 31
0.0
1001
ACDBBLOCKREPETAG
1070
     1
1071
      326
1005
12F076
  0
LINE
  5
12F077
  8
OBJECT
 10
8199.9999999999854
 20
-707.00000000000045
 30
0.0
 11
8192.9999999999873
 21
-707.00000000000045
 31
0.0
1001
ACDBBLOCKREPETAG
1070
     1
1071
      327
1005
12F077
  0
LINE
  5
12F078
  8
OBJECT
 10
8192.9999999999873
 20
-707.00000000000045
 30
0.0
 11
8192.9999999999873
 21
-583.00000000000045
 31
0.0
1001
ACDBBLOCKREPETAG
1070
     1
1071
      328
1005
12F078
  0
LINE
  5
12F079
  8
CENTER
 10
8124.9999999999873
 20
-645.00000000000045
 30
0.0
 11
8214.9999999999873
 21
-645.00000000000045
 31
0.0
1001
ACDBBLOCKREPETAG
1070
     1
1071
      329
1005
12F079
  0
LINE
  5
12F07A
  8
OBJECT
 10
8069.99999999998
 20
-757.99999999999955
 30
0.0
 11
8072.9999999999864
 21
-758.00000000000034
 31
0.0
1001
ACDBBLOCKREPETAG
1070
     1
1071
      330
1005
12F07A
  0
ARC
  5
12F07B
  8
OBJECT
 10
8072.9999999999864
 20
-755.00000000000034
 30
0.0
 40
3.0
 50
270.0
 51
0.0
1001
ACDBBLOCKREPETAG
1070
     1
1071
      331
1005
12F07B
  0
LINE
  5
12F07C
  8
OBJECT
 10
8192.9999999999873
 20
-586.00000000000045
 30
0.0
 11
8156.9999999999873
 21
-586.00000000000045
 31
0.0
1001
ACDBBLOCKREPETAG
1070
     1
1071
      332
1005
12F07C
  0
LINE
  5
12F07D
  8
OBJECT
 10
8156.9999999999873
 20
-586.00000000000045
 30
0.0
 11
8156.9999999999873
 21
-704.00000000000045
 31
0.0
1001
ACDBBLOCKREPETAG
1070
     1
1071
      333
1005
12F07D
  0
LINE
  5
12F07E
  8
OBJECT
 10
8152.9999999999864
 20
-590.50000000000045
 30
0.0
 11
8152.9999999999864
 21
-699.50000000000045
 31
0.0
1001
ACDBBLOCKREPETAG
1070
     1
1071
      334
1005
12F07E
  0
LINE
  5
12F07F
  8
OBJECT
 10
8152.9999999999864
 20
-590.50000000000045
 30
0.0
 11
8139.9999999999818
 21
-590.50000000000045
 31
0.0
1001
ACDBBLOCKREPETAG
1070
     1
1071
      335
1005
12F07F
  0
LINE
  5
12F080
  8
OBJECT
 10
8156.9999999999873
 20
-704.00000000000045
 30
0.0
 11
8192.9999999999873
 21
-704.00000000000045
 31
0.0
1001
ACDBBLOCKREPETAG
1070
     1
1071
      336
1005
12F080
  0
LINE
  5
12F081
  8
OBJECT
 10
8156.9999999999873
 20
-586.00000000000045
 30
0.0
 11
8152.9999999999864
 21
-590.50000000000045
 31
0.0
1001
ACDBBLOCKREPETAG
1070
     1
1071
      337
1005
12F081
  0
LINE
  5
12F082
  8
OBJECT
 10
8139.9999999999818
 20
-590.50000000000045
 30
0.0
 11
8139.9999999999818
 21
-675.7449182792875
 31
0.0
1001
ACDBBLOCKREPETAG
1070
     1
1071
      338
1005
12F082
  0
ARC
  5
12F083
  8
OBJECT
 10
8142.7999999999847
 20
-685.00000000000045
 30
0.0
 40
85.0
 50
91.887731891831123
 51
143.130102354109
1001
ACDBBLOCKREPETAG
1070
     1
1071
      339
1005
12F083
  0
LINE
  5
12F084
  8
HIDDEN
 10
8147.9999999999873
 20
-600.50000000000057
 30
0.0
 11
8147.9999999999873
 21
-689.50000000000045
 31
0.0
1001
ACDBBLOCKREPETAG
1070
     1
1071
      341
1005
12F084
  0
LINE
  5
12F085
  8
OBJECT
 10
8075.9999999999864
 20
-751.07945073181725
 30
0.0
 11
8146.6313199210308
 21
-699.50000000000045
 31
0.0
1001
ACDBBLOCKREPETAG
1070
     1
1071
      342
1005
12F085
  0
LINE
  5
12F086
  8
OBJECT
 10
8069.99999999998
 20
-633.99999999999955
 30
0.0
 11
8074.7999999999829
 21
-633.99999999999955
 31
0.0
1001
ACDBBLOCKREPETAG
1070
     1
1071
      343
1005
12F086
  0
LINE
  5
12F087
  8
OBJECT
 10
8075.9999999999864
 20
-653.35026377572945
 30
0.0
 11
8074.7999999999829
 21
-633.99999999999955
 31
0.0
1001
ACDBBLOCKREPETAG
1070
     1
1071
      344
1005
12F087
  0
LINE
  5
12F088
  8
OBJECT
 10
8152.9999999999864
 20
-699.50000000000045
 30
0.0
 11
8146.6313199210308
 21
-699.50000000000045
 31
0.0
1001
ACDBBLOCKREPETAG
1070
     1
1071
      345
1005
12F088
  0
LINE
  5
12F089
  8
OBJECT
 10
8156.9999999999873
 20
-704.00000000000045
 30
0.0
 11
8152.9999999999864
 21
-699.50000000000045
 31
0.0
1001
ACDBBLOCKREPETAG
1070
     1
1071
      346
1005
12F089
  0
LINE
  5
12F08A
  8
OBJECT
 10
8192.9999999999873
 20
-137.99999999999909
 30
0.0
 11
8199.9999999999854
 21
-137.99999999999909
 31
0.0
1001
ACDBBLOCKREPETAG
1070
     1
1071
      376
1005
12F08A
  0
LINE
  5
12F08B
  8
OBJECT
 10
8199.9999999999854
 20
-137.99999999999909
 30
0.0
 11
8199.9999999999854
 21
-261.99999999999909
 31
0.0
1001
ACDBBLOCKREPETAG
1070
     1
1071
      377
1005
12F08B
  0
LINE
  5
12F08C
  8
OBJECT
 10
8199.9999999999854
 20
-261.99999999999909
 30
0.0
 11
8192.9999999999873
 21
-261.99999999999909
 31
0.0
1001
ACDBBLOCKREPETAG
1070
     1
1071
      378
1005
12F08C
  0
LINE
  5
12F08D
  8
OBJECT
 10
8192.9999999999873
 20
-261.99999999999909
 30
0.0
 11
8192.9999999999873
 21
-137.99999999999909
 31
0.0
1001
ACDBBLOCKREPETAG
1070
     1
1071
      379
1005
12F08D
  0
LINE
  5
12F08E
  8
CENTER
 10
8214.9999999999873
 20
-199.99999999999909
 30
0.0
 11
8070.0
 21
-199.99999999999909
 31
0.0
1001
ACDBBLOCKREPETAG
1070
     1
1071
      380
1005
12F08E
  0
LINE
  5
12F08F
  8
OBJECT
 10
8139.9999749641865
 20
-245.0000000000027
 30
0.0
 11
8076.0
 21
-244.99999999999909
 31
0.0
1001
ACDBBLOCKREPETAG
1070
     1
1071
      381
1005
12F08F
  0
LINE
  5
12F090
  8
OBJECT
 10
8139.9999749641865
 20
-154.99999999999909
 30
0.0
 11
8076.0
 21
-154.99999999999909
 31
0.0
1001
ACDBBLOCKREPETAG
1070
     1
1071
      382
1005
12F090
  0
LINE
  5
12F091
  8
OBJECT
 10
8192.9999999999873
 20
-140.99999999999909
 30
0.0
 11
8156.9999999999873
 21
-140.99999999999909
 31
0.0
1001
ACDBBLOCKREPETAG
1070
     1
1071
      383
1005
12F091
  0
LINE
  5
12F092
  8
OBJECT
 10
8156.9999999999873
 20
-140.99999999999909
 30
0.0
 11
8156.9999999999873
 21
-258.99999999999909
 31
0.0
1001
ACDBBLOCKREPETAG
1070
     1
1071
      384
1005
12F092
  0
LINE
  5
12F093
  8
OBJECT
 10
8156.9999999999873
 20
-258.99999999999909
 30
0.0
 11
8192.9999999999873
 21
-258.99999999999909
 31
0.0
1001
ACDBBLOCKREPETAG
1070
     1
1071
      385
1005
12F093
  0
LINE
  5
12F094
  8
OBJECT
 10
8152.9999999999864
 20
-145.49999999999909
 30
0.0
 11
8139.9999999999818
 21
-145.49999999999909
 31
0.0
1001
ACDBBLOCKREPETAG
1070
     1
1071
      386
1005
12F094
  0
LINE
  5
12F095
  8
OBJECT
 10
8139.9999999999818
 20
-254.49999999999909
 30
0.0
 11
8152.9999999999864
 21
-254.49999999999909
 31
0.0
1001
ACDBBLOCKREPETAG
1070
     1
1071
      387
1005
12F095
  0
LINE
  5
12F096
  8
OBJECT
 10
8152.9999999999864
 20
-254.49999999999909
 30
0.0
 11
8152.9999999999864
 21
-145.49999999999909
 31
0.0
1001
ACDBBLOCKREPETAG
1070
     1
1071
      388
1005
12F096
  0
LINE
  5
12F097
  8
OBJECT
 10
8156.9999999999873
 20
-140.99999999999909
 30
0.0
 11
8152.9999999999864
 21
-145.49999999999909
 31
0.0
1001
ACDBBLOCKREPETAG
1070
     1
1071
      389
1005
12F097
  0
LINE
  5
12F098
  8
OBJECT
 10
8156.9999999999873
 20
-258.99999999999909
 30
0.0
 11
8152.9999999999864
 21
-254.49999999999909
 31
0.0
1001
ACDBBLOCKREPETAG
1070
     1
1071
      390
1005
12F098
  0
LINE
  5
12F099
  8
OBJECT
 10
8073.0
 20
-137.99999999999909
 30
0.0
 11
8070.0
 21
-137.99999999999909
 31
0.0
1001
ACDBBLOCKREPETAG
1070
     1
1071
      391
1005
12F099
  0
ARC
  5
12F09A
  8
OBJECT
 10
8073.0
 20
-140.99999999999909
 30
0.0
 40
3.0
 50
0.0
 51
90.0
1001
ACDBBLOCKREPETAG
1070
     1
1071
      392
1005
12F09A
  0
LINE
  5
12F09B
  8
OBJECT
 10
8070.0
 20
-261.99999999999909
 30
0.0
 11
8073.0
 21
-261.99999999999909
 31
0.0
1001
ACDBBLOCKREPETAG
1070
     1
1071
      393
1005
12F09B
  0
ARC
  5
12F09C
  8
OBJECT
 10
8073.0
 20
-258.99999999999909
 30
0.0
 40
3.0
 50
270.0
 51
0.0
1001
ACDBBLOCKREPETAG
1070
     1
1071
      394
1005
12F09C
  0
LINE
  5
12F09D
  8
OBJECT
 10
8076.0
 20
-258.99999999999909
 30
0.0
 11
8076.0
 21
-210.3227903203578
 31
0.0
1001
ACDBBLOCKREPETAG
1070
     1
1071
      395
1005
12F09D
  0
LINE
  5
12F09E
  8
OBJECT
 10
8076.0
 20
-189.6772096796403
 30
0.0
 11
8076.0
 21
-140.99999999999909
 31
0.0
1001
ACDBBLOCKREPETAG
1070
     1
1071
      396
1005
12F09E
  0
LINE
  5
12F09F
  8
HIDDEN
 10
8147.9999999999873
 20
-155.49999999999909
 30
0.0
 11
8147.9999999999873
 21
-244.49999999999909
 31
0.0
1001
ACDBBLOCKREPETAG
1070
     1
1071
      397
1005
12F09F
  0
LINE
  5
12F0A0
  8
OBJECT
 10
8139.9999749641865
 20
-254.4999509238105
 30
0.0
 11
8139.9999749641865
 21
-145.4999509238105
 31
0.0
1001
ACDBBLOCKREPETAG
1070
     1
1071
      399
1005
12F0A0
  0
ARC
  5
12F0A1
  8
OBJECT
 10
8119.800000000022
 20
-199.99999999999909
 30
0.0
 40
45.000000000000547
 50
90.0
 51
270.0
1001
ACDBBLOCKREPETAG
1070
     1
1071
      400
1005
12F0A1
  0
CIRCLE
  5
12F0A2
  8
OBJECT
 10
6000.0
 20
-695.99999999999955
 30
0.0
 40
62.0
1001
ACDBBLOCKREPETAG
1070
     1
1071
        3
1005
12F0A2
  0
LINE
  5
12F0A3
  8
CENTER
 10
5938.0
 20
-710.99999999999955
 30
0.0
 11
6062.0
 21
-710.99999999999955
 31
0.0
1001
ACDBBLOCKREPETAG
1070
     1
1071
        4
1005
12F0A3
  0
CIRCLE
  5
12F0A4
  8
OBJECT
 10
6000.0
 20
-710.99999999999955
 30
0.0
 40
28.0
1001
ACDBBLOCKREPETAG
1070
     1
1071
        6
1005
12F0A4
  0
CIRCLE
  5
12F0A5
  8
OBJECT
 10
6000.0
 20
-710.99999999999955
 30
0.0
 40
39.0
1001
ACDBBLOCKREPETAG
1070
     1
1071
        7
1005
12F0A5
  0
ARC
  5
12F0A6
  8
OBJECT
 10
6000.0
 20
-710.99999999999955
 30
0.0
 40
47.0
 50
290.58196921144179
 51
249.41803078855821
1001
ACDBBLOCKREPETAG
1070
     1
1071
        8
1005
12F0A6
  0
LINE
  5
12F0A7
  8
OBJECT
 10
5983.4772883581436
 20
-754.99999999999955
 30
0.0
 11
6016.5227116418582
 21
-754.99999999999955
 31
0.0
1001
ACDBBLOCKREPETAG
1070
     1
1071
        9
1005
12F0A7
  0
LINE
  5
12F0A8
  8
CENTER
 10
6000.0
 20
-769.99999999999955
 30
0.0
 11
6000.0
 21
-613.99999999999966
 31
0.0
1001
ACDBBLOCKREPETAG
1070
     1
1071
        0
1005
12F0A8
  0
LINE
  5
12F0A9
  8
OBJECT
 10
5930.0
 20
-633.99999999999955
 30
0.0
 11
6070.0
 21
-633.99999999999955
 31
0.0
1001
ACDBBLOCKREPETAG
1070
     1
1071
        1
1005
12F0A9
  0
LINE
  5
12F0AA
  8
OBJECT
 10
5930.0
 20
-757.99999999999955
 30
0.0
 11
5930.0
 21
-769.99999999999955
 31
0.0
1001
ACDBBLOCKREPETAG
1070
     1
1071
        2
1005
12F0AA
  0
LINE
  5
12F0AB
  8
OBJECT
 10
5930.0
 20
-769.99999999999955
 30
0.0
 11
6070.0
 21
-769.99999999999955
 31
0.0
1001
ACDBBLOCKREPETAG
1070
     1
1071
        3
1005
12F0AB
  0
LINE
  5
12F0AC
  8
OBJECT
 10
6070.0
 20
-769.99999999999955
 30
0.0
 11
6070.0
 21
-757.99999999999955
 31
0.0
1001
ACDBBLOCKREPETAG
1070
     1
1071
        4
1005
12F0AC
  0
LINE
  5
12F0AD
  8
OBJECT
 10
6070.0
 20
-757.99999999999955
 30
0.0
 11
5930.0
 21
-757.99999999999955
 31
0.0
1001
ACDBBLOCKREPETAG
1070
     1
1071
        5
1005
12F0AD
  0
ARC
  5
12F0AE
  8
OBJECT
 10
6435.0384389946776
 20
-998.60813684682694
 30
0.0
 40
519.48776673616965
 50
135.42350667430969
 51
138.50052655621499
1001
ACDBBLOCKREPETAG
1070
     1
1071
        9
1005
12F0AE
  0
ARC
  5
12F0AF
  8
OBJECT
 10
6435.0384389946776
 20
-393.39186315317193
 30
0.0
 40
519.48776673616965
 50
221.49947344378501
 51
224.57649332569039
1001
ACDBBLOCKREPETAG
1070
     1
1071
       10
1005
12F0AF
  0
ARC
  5
12F0B0
  8
OBJECT
 10
5564.9615610053224
 20
-998.60813684682694
 30
0.0
 40
519.48776673616965
 50
41.499473443784993
 51
44.576493325690237
1001
ACDBBLOCKREPETAG
1070
     1
1071
       11
1005
12F0B0
  0
ARC
  5
12F0B1
  8
OBJECT
 10
5564.9615610053224
 20
-393.39186315317193
 30
0.0
 40
519.48776673616965
 50
315.42350667430981
 51
318.50052655621488
1001
ACDBBLOCKREPETAG
1070
     1
1071
       12
1005
12F0B1
  0
LINE
  5
12F0B2
  8
OBJECT
 10
6047.5
 20
-628.99999999999955
 30
0.0
 11
5952.5
 21
-628.99999999999955
 31
0.0
1001
ACDBBLOCKREPETAG
1070
     1
1071
       24
1005
12F0B2
  0
ARC
  5
12F0B3
  8
OBJECT
 10
5952.5
 20
-631.99999999999955
 30
0.0
 40
3.0
 50
90.0
 51
180.0
1001
ACDBBLOCKREPETAG
1070
     1
1071
       25
1005
12F0B3
  0
LINE
  5
12F0B4
  8
OBJECT
 10
5949.5
 20
-631.99999999999955
 30
0.0
 11
5949.5
 21
-633.99999999999955
 31
0.0
1001
ACDBBLOCKREPETAG
1070
     1
1071
       26
1005
12F0B4
  0
LINE
  5
12F0B5
  8
OBJECT
 10
6050.5
 20
-631.99999999999955
 30
0.0
 11
6050.5
 21
-633.99999999999955
 31
0.0
1001
ACDBBLOCKREPETAG
1070
     1
1071
       27
1005
12F0B5
  0
ARC
  5
12F0B6
  8
OBJECT
 10
6047.5
 20
-631.99999999999955
 30
0.0
 40
3.0
 50
0.0
 51
90.0
1001
ACDBBLOCKREPETAG
1070
     1
1071
       28
1005
12F0B6
  0
POINT
  5
12F0B7
  8
DOTS
 10
6000.0
 20
-754.99999999999955
 30
0.0
1001
ACDBBLOCKREPETAG
1070
     1
1071
       87
1005
12F0B7
  0
ARC
  5
12F0B8
  8
OBJECT
 10
6000.0
 20
-199.99999999999909
 30
0.0
 40
70.0
 50
62.339550100781771
 51
117.66044989921819
1001
ACDBBLOCKREPETAG
1070
     1
1071
        0
1005
12F0B8
  0
CIRCLE
  5
12F0B9
  8
OBJECT
 10
6000.0
 20
-199.99999999999909
 30
0.0
 40
65.0
1001
ACDBBLOCKREPETAG
1070
     1
1071
        1
1005
12F0B9
  0
CIRCLE
  5
12F0BA
  8
OBJECT
 10
6000.0
 20
-199.99999999999909
 30
0.0
 40
50.5
1001
ACDBBLOCKREPETAG
1070
     1
1071
        3
1005
12F0BA
  0
LINE
  5
12F0BB
  8
OBJECT
 10
6070.0
 20
-137.99999999999909
 30
0.0
 11
6019.5192212959437
 21
-137.99999999999909
 31
0.0
1001
ACDBBLOCKREPETAG
1070
     1
1071
        4
1005
12F0BB
  0
LINE
  5
12F0BC
  8
OBJECT
 10
5930.0
 20
-137.99999999999909
 30
0.0
 11
5980.4807787040563
 21
-137.99999999999909
 31
0.0
1001
ACDBBLOCKREPETAG
1070
     1
1071
        5
1005
12F0BC
  0
LINE
  5
12F0BD
  8
OBJECT
 10
5930.0
 20
-261.99999999999909
 30
0.0
 11
5938.0
 21
-261.99999999999909
 31
0.0
1001
ACDBBLOCKREPETAG
1070
     1
1071
        6
1005
12F0BD
  0
LINE
  5
12F0BE
  8
OBJECT
 10
5938.0
 20
-269.99999999999909
 30
0.0
 11
5938.0
 21
-261.99999999999909
 31
0.0
1001
ACDBBLOCKREPETAG
1070
     1
1071
        7
1005
12F0BE
  0
LINE
  5
12F0BF
  8
OBJECT
 10
6070.0
 20
-261.99999999999909
 30
0.0
 11
6062.0
 21
-261.99999999999909
 31
0.0
1001
ACDBBLOCKREPETAG
1070
     1
1071
        8
1005
12F0BF
  0
LINE
  5
12F0C0
  8
OBJECT
 10
6062.0
 20
-269.99999999999909
 30
0.0
 11
6062.0
 21
-261.99999999999909
 31
0.0
1001
ACDBBLOCKREPETAG
1070
     1
1071
        9
1005
12F0C0
  0
LINE
  5
12F0C1
  8
CENTER
 10
5930.0
 20
-199.99999999999909
 30
0.0
 11
6070.0
 21
-199.99999999999909
 31
0.0
1001
ACDBBLOCKREPETAG
1070
     1
1071
       10
1005
12F0C1
  0
LINE
  5
12F0C2
  8
CENTER
 10
6000.0
 20
-269.99999999999909
 30
0.0
 11
6000.0
 21
-114.9999999999991
 31
0.0
1001
ACDBBLOCKREPETAG
1070
     1
1071
       11
1005
12F0C2
  0
LINE
  5
12F0C3
  8
OBJECT
 10
5954.0380592228739
 20
-245.96194077712471
 30
0.0
 11
5938.0
 21
-261.99999999999909
 31
0.0
1001
ACDBBLOCKREPETAG
1070
     1
1071
       42
1005
12F0C3
  0
LINE
  5
12F0C4
  8
OBJECT
 10
6045.9619407771252
 20
-245.96194077712471
 30
0.0
 11
6062.0
 21
-261.99999999999909
 31
0.0
1001
ACDBBLOCKREPETAG
1070
     1
1071
       43
1005
12F0C4
  0
POINT
  5
12F0C5
  8
DOTS
 10
6000.0
 20
-199.99999999999909
 30
0.0
1001
ACDBBLOCKREPETAG
1070
     1
1071
      158
1005
12F0C5
  0
LINE
  5
12F0C6
  8
OBJECT
 10
5927.0
 20
-633.99999999999955
 30
0.0
 11
5930.0
 21
-633.99999999999955
 31
0.0
1001
ACDBBLOCKREPETAG
1070
     1
1071
        1
1005
12F0C6
  0
ARC
  5
12F0C7
  8
OBJECT
 10
5927.0
 20
-636.99999999999955
 30
0.0
 40
3.0
 50
90.0
 51
180.0
1001
ACDBBLOCKREPETAG
1070
     1
1071
        2
1005
12F0C7
  0
LINE
  5
12F0C8
  8
OBJECT
 10
5930.0
 20
-757.99999999999955
 30
0.0
 11
5927.0
 21
-757.99999999999955
 31
0.0
1001
ACDBBLOCKREPETAG
1070
     1
1071
        3
1005
12F0C8
  0
ARC
  5
12F0C9
  8
OBJECT
 10
5927.0
 20
-754.99999999999955
 30
0.0
 40
3.0
 50
180.0
 51
270.0
1001
ACDBBLOCKREPETAG
1070
     1
1071
        4
1005
12F0C9
  0
LINE
  5
12F0CA
  8
OBJECT
 10
5924.0
 20
-754.99999999999955
 30
0.0
 11
5924.0
 21
-636.99999999999955
 31
0.0
1001
ACDBBLOCKREPETAG
1070
     1
1071
        5
1005
12F0CA
  0
LINE
  5
12F0CB
  8
CENTER
 10
5909.0
 20
-199.99999999999909
 30
0.0
 11
5930.0
 21
-199.99999999999909
 31
0.0
1001
ACDBBLOCKREPETAG
1070
     1
1071
        0
1005
12F0CB
  0
LINE
  5
12F0CC
  8
OBJECT
 10
5927.0
 20
-261.99999999999909
 30
0.0
 11
5930.0
 21
-261.99999999999909
 31
0.0
1001
ACDBBLOCKREPETAG
1070
     1
1071
        1
1005
12F0CC
  0
ARC
  5
12F0CD
  8
OBJECT
 10
5927.0
 20
-258.99999999999909
 30
0.0
 40
3.0
 50
180.0
 51
270.0
1001
ACDBBLOCKREPETAG
1070
     1
1071
        2
1005
12F0CD
  0
LINE
  5
12F0CE
  8
OBJECT
 10
5930.0
 20
-137.99999999999909
 30
0.0
 11
5927.0
 21
-137.99999999999909
 31
0.0
1001
ACDBBLOCKREPETAG
1070
     1
1071
        3
1005
12F0CE
  0
ARC
  5
12F0CF
  8
OBJECT
 10
5927.0
 20
-140.99999999999909
 30
0.0
 40
3.0
 50
90.0
 51
180.0
1001
ACDBBLOCKREPETAG
1070
     1
1071
        4
1005
12F0CF
  0
LINE
  5
12F0D0
  8
OBJECT
 10
5924.0
 20
-140.99999999999909
 30
0.0
 11
5924.0
 21
-258.99999999999909
 31
0.0
1001
ACDBBLOCKREPETAG
1070
     1
1071
        5
1005
12F0D0
  0
LINE
  5
12F0D1
  8
OBJECT
 10
6047.0
 20
-322.99999999999898
 30
0.0
 11
6047.0
 21
-329.99999999999898
 31
0.0
1001
ACDBBLOCKREPETAG
1070
     1
1071
        7
1005
12F0D1
  0
LINE
  5
12F0D2
  8
OBJECT
 10
6047.0
 20
-329.99999999999898
 30
0.0
 11
5953.0
 21
-329.99999999999898
 31
0.0
1001
ACDBBLOCKREPETAG
1070
     1
1071
        8
1005
12F0D2
  0
LINE
  5
12F0D3
  8
OBJECT
 10
5953.0
 20
-329.99999999999898
 30
0.0
 11
5953.0
 21
-322.99999999999898
 31
0.0
1001
ACDBBLOCKREPETAG
1070
     1
1071
        9
1005
12F0D3
  0
LINE
  5
12F0D4
  8
OBJECT
 10
5953.0
 20
-322.99999999999898
 30
0.0
 11
6047.0
 21
-322.99999999999898
 31
0.0
1001
ACDBBLOCKREPETAG
1070
     1
1071
       10
1005
12F0D4
  0
LINE
  5
12F0D5
  8
CENTER
 10
6000.0
 20
-344.99999999999909
 30
0.0
 11
6000.0
 21
-269.99999999999909
 31
0.0
1001
ACDBBLOCKREPETAG
1070
     1
1071
       11
1005
12F0D5
  0
LINE
  5
12F0D6
  8
OBJECT
 10
6044.0
 20
-322.99999999999898
 30
0.0
 11
6044.0
 21
-286.99999999999898
 31
0.0
1001
ACDBBLOCKREPETAG
1070
     1
1071
       12
1005
12F0D6
  0
LINE
  5
12F0D7
  8
OBJECT
 10
6044.0
 20
-286.99999999999898
 30
0.0
 11
5956.0
 21
-286.99999999999898
 31
0.0
1001
ACDBBLOCKREPETAG
1070
     1
1071
       13
1005
12F0D7
  0
LINE
  5
12F0D8
  8
OBJECT
 10
5956.0
 20
-286.99999999999898
 30
0.0
 11
5956.0
 21
-322.99999999999898
 31
0.0
1001
ACDBBLOCKREPETAG
1070
     1
1071
       14
1005
12F0D8
  0
LINE
  5
12F0D9
  8
OBJECT
 10
6039.5
 20
-282.99999999999898
 30
0.0
 11
6039.5
 21
-275.99999999999909
 31
0.0
1001
ACDBBLOCKREPETAG
1070
     1
1071
       15
1005
12F0D9
  0
LINE
  5
12F0DA
  8
OBJECT
 10
5960.5
 20
-275.99999999999909
 30
0.0
 11
5960.5
 21
-282.99999999999898
 31
0.0
1001
ACDBBLOCKREPETAG
1070
     1
1071
       16
1005
12F0DA
  0
LINE
  5
12F0DB
  8
OBJECT
 10
5960.5
 20
-282.99999999999898
 30
0.0
 11
6039.5
 21
-282.99999999999898
 31
0.0
1001
ACDBBLOCKREPETAG
1070
     1
1071
       17
1005
12F0DB
  0
LINE
  5
12F0DC
  8
OBJECT
 10
6044.0
 20
-286.99999999999898
 30
0.0
 11
6039.5
 21
-282.99999999999898
 31
0.0
1001
ACDBBLOCKREPETAG
1070
     1
1071
       18
1005
12F0DC
  0
LINE
  5
12F0DD
  8
OBJECT
 10
5956.0
 20
-286.99999999999898
 30
0.0
 11
5960.5
 21
-282.99999999999898
 31
0.0
1001
ACDBBLOCKREPETAG
1070
     1
1071
       19
1005
12F0DD
  0
LINE
  5
12F0DE
  8
OBJECT
 10
6062.0
 20
-272.99999999999909
 30
0.0
 11
6062.0
 21
-269.99999999999909
 31
0.0
1001
ACDBBLOCKREPETAG
1070
     1
1071
       20
1005
12F0DE
  0
ARC
  5
12F0DF
  8
OBJECT
 10
6059.0
 20
-272.99999999999909
 30
0.0
 40
3.0
 50
270.0
 51
0.0
1001
ACDBBLOCKREPETAG
1070
     1
1071
       21
1005
12F0DF
  0
LINE
  5
12F0E0
  8
OBJECT
 10
5938.0
 20
-269.99999999999909
 30
0.0
 11
5938.0
 21
-272.99999999999909
 31
0.0
1001
ACDBBLOCKREPETAG
1070
     1
1071
       22
1005
12F0E0
  0
ARC
  5
12F0E1
  8
OBJECT
 10
5941.0
 20
-272.99999999999909
 30
0.0
 40
3.0
 50
180.0
 51
270.0
1001
ACDBBLOCKREPETAG
1070
     1
1071
       23
1005
12F0E1
  0
LINE
  5
12F0E2
  8
OBJECT
 10
5941.0
 20
-275.99999999999909
 30
0.0
 11
6059.0
 21
-275.99999999999909
 31
0.0
1001
ACDBBLOCKREPETAG
1070
     1
1071
       24
1005
12F0E2
  0
LINE
  5
12F0E3
  8
HIDDEN
 10
6030.0
 20
-277.99999999999909
 30
0.0
 11
5970.0
 21
-277.99999999999909
 31
0.0
1001
ACDBBLOCKREPETAG
1070
     1
1071
       25
1005
12F0E3
  0
LINE
  5
12F0E4
  8
OBJECT
 10
6192.9999999999873
 20
-583.00000000000045
 30
0.0
 11
6199.9999999999864
 21
-583.00000000000045
 31
0.0
1001
ACDBBLOCKREPETAG
1070
     1
1071
      324
1005
12F0E4
  0
LINE
  5
12F0E5
  8
OBJECT
 10
6199.9999999999864
 20
-583.00000000000045
 30
0.0
 11
6199.9999999999864
 21
-707.00000000000045
 31
0.0
1001
ACDBBLOCKREPETAG
1070
     1
1071
      325
1005
12F0E5
  0
LINE
  5
12F0E6
  8
OBJECT
 10
6075.9999999999864
 20
-653.35026377572683
 30
0.0
 11
6075.9999999999864
 21
-755.00000000000034
 31
0.0
1001
ACDBBLOCKREPETAG
1070
     1
1071
      326
1005
12F0E6
  0
LINE
  5
12F0E7
  8
OBJECT
 10
6199.9999999999864
 20
-707.00000000000045
 30
0.0
 11
6192.9999999999873
 21
-707.00000000000045
 31
0.0
1001
ACDBBLOCKREPETAG
1070
     1
1071
      327
1005
12F0E7
  0
LINE
  5
12F0E8
  8
OBJECT
 10
6192.9999999999873
 20
-707.00000000000045
 30
0.0
 11
6192.9999999999873
 21
-583.00000000000045
 31
0.0
1001
ACDBBLOCKREPETAG
1070
     1
1071
      328
1005
12F0E8
  0
LINE
  5
12F0E9
  8
CENTER
 10
6124.9999999999864
 20
-645.00000000000045
 30
0.0
 11
6214.9999999999864
 21
-645.00000000000045
 31
0.0
1001
ACDBBLOCKREPETAG
1070
     1
1071
      329
1005
12F0E9
  0
LINE
  5
12F0EA
  8
OBJECT
 10
6069.9999999999818
 20
-757.99999999999955
 30
0.0
 11
6072.9999999999864
 21
-758.00000000000034
 31
0.0
1001
ACDBBLOCKREPETAG
1070
     1
1071
      330
1005
12F0EA
  0
ARC
  5
12F0EB
  8
OBJECT
 10
6072.9999999999864
 20
-755.00000000000034
 30
0.0
 40
3.0
 50
270.0
 51
0.0
1001
ACDBBLOCKREPETAG
1070
     1
1071
      331
1005
12F0EB
  0
LINE
  5
12F0EC
  8
OBJECT
 10
6192.9999999999873
 20
-586.00000000000045
 30
0.0
 11
6156.9999999999864
 21
-586.00000000000045
 31
0.0
1001
ACDBBLOCKREPETAG
1070
     1
1071
      332
1005
12F0EC
  0
LINE
  5
12F0ED
  8
OBJECT
 10
6156.9999999999864
 20
-586.00000000000045
 30
0.0
 11
6156.9999999999864
 21
-704.00000000000045
 31
0.0
1001
ACDBBLOCKREPETAG
1070
     1
1071
      333
1005
12F0ED
  0
LINE
  5
12F0EE
  8
OBJECT
 10
6152.9999999999873
 20
-590.50000000000045
 30
0.0
 11
6152.9999999999873
 21
-699.50000000000045
 31
0.0
1001
ACDBBLOCKREPETAG
1070
     1
1071
      334
1005
12F0EE
  0
LINE
  5
12F0EF
  8
OBJECT
 10
6152.9999999999873
 20
-590.50000000000045
 30
0.0
 11
6139.9999999999864
 21
-590.50000000000045
 31
0.0
1001
ACDBBLOCKREPETAG
1070
     1
1071
      335
1005
12F0EF
  0
LINE
  5
12F0F0
  8
OBJECT
 10
6156.9999999999864
 20
-704.00000000000045
 30
0.0
 11
6192.9999999999873
 21
-704.00000000000045
 31
0.0
1001
ACDBBLOCKREPETAG
1070
     1
1071
      336
1005
12F0F0
  0
LINE
  5
12F0F1
  8
OBJECT
 10
6156.9999999999864
 20
-586.00000000000045
 30
0.0
 11
6152.9999999999873
 21
-590.50000000000045
 31
0.0
1001
ACDBBLOCKREPETAG
1070
     1
1071
      337
1005
12F0F1
  0
LINE
  5
12F0F2
  8
OBJECT
 10
6139.9999999999864
 20
-590.50000000000045
 30
0.0
 11
6139.9999999999864
 21
-675.7449182792875
 31
0.0
1001
ACDBBLOCKREPETAG
1070
     1
1071
      338
1005
12F0F2
  0
ARC
  5
12F0F3
  8
OBJECT
 10
6142.7999999999856
 20
-685.00000000000045
 30
0.0
 40
85.0
 50
91.887731891831123
 51
143.130102354109
1001
ACDBBLOCKREPETAG
1070
     1
1071
      339
1005
12F0F3
  0
LINE
  5
12F0F4
  8
HIDDEN
 10
6147.9999999999864
 20
-600.50000000000057
 30
0.0
 11
6147.9999999999864
 21
-689.50000000000045
 31
0.0
1001
ACDBBLOCKREPETAG
1070
     1
1071
      341
1005
12F0F4
  0
LINE
  5
12F0F5
  8
OBJECT
 10
6075.9999999999864
 20
-751.07945073181725
 30
0.0
 11
6146.6313199210317
 21
-699.50000000000045
 31
0.0
1001
ACDBBLOCKREPETAG
1070
     1
1071
      342
1005
12F0F5
  0
LINE
  5
12F0F6
  8
OBJECT
 10
6069.9999999999818
 20
-633.99999999999955
 30
0.0
 11
6074.7999999999847
 21
-633.99999999999955
 31
0.0
1001
ACDBBLOCKREPETAG
1070
     1
1071
      343
1005
12F0F6
  0
LINE
  5
12F0F7
  8
OBJECT
 10
6075.9999999999864
 20
-653.35026377572945
 30
0.0
 11
6074.7999999999847
 21
-633.99999999999955
 31
0.0
1001
ACDBBLOCKREPETAG
1070
     1
1071
      344
1005
12F0F7
  0
LINE
  5
12F0F8
  8
OBJECT
 10
6152.9999999999873
 20
-699.50000000000045
 30
0.0
 11
6146.6313199210317
 21
-699.50000000000045
 31
0.0
1001
ACDBBLOCKREPETAG
1070
     1
1071
      345
1005
12F0F8
  0
LINE
  5
12F0F9
  8
OBJECT
 10
6156.9999999999864
 20
-704.00000000000045
 30
0.0
 11
6152.9999999999873
 21
-699.50000000000045
 31
0.0
1001
ACDBBLOCKREPETAG
1070
     1
1071
      346
1005
12F0F9
  0
LINE
  5
12F0FA
  8
OBJECT
 10
6192.9999999999873
 20
-137.99999999999909
 30
0.0
 11
6199.9999999999864
 21
-137.99999999999909
 31
0.0
1001
ACDBBLOCKREPETAG
1070
     1
1071
      376
1005
12F0FA
  0
LINE
  5
12F0FB
  8
OBJECT
 10
6199.9999999999864
 20
-137.99999999999909
 30
0.0
 11
6199.9999999999864
 21
-261.99999999999909
 31
0.0
1001
ACDBBLOCKREPETAG
1070
     1
1071
      377
1005
12F0FB
  0
LINE
  5
12F0FC
  8
OBJECT
 10
6199.9999999999864
 20
-261.99999999999909
 30
0.0
 11
6192.9999999999873
 21
-261.99999999999909
 31
0.0
1001
ACDBBLOCKREPETAG
1070
     1
1071
      378
1005
12F0FC
  0
LINE
  5
12F0FD
  8
OBJECT
 10
6192.9999999999873
 20
-261.99999999999909
 30
0.0
 11
6192.9999999999873
 21
-137.99999999999909
 31
0.0
1001
ACDBBLOCKREPETAG
1070
     1
1071
      379
1005
12F0FD
  0
LINE
  5
12F0FE
  8
CENTER
 10
6214.9999999999864
 20
-199.99999999999909
 30
0.0
 11
6070.0
 21
-199.99999999999909
 31
0.0
1001
ACDBBLOCKREPETAG
1070
     1
1071
      380
1005
12F0FE
  0
LINE
  5
12F0FF
  8
OBJECT
 10
6139.9999749641856
 20
-245.0000000000027
 30
0.0
 11
6076.0
 21
-244.99999999999909
 31
0.0
1001
ACDBBLOCKREPETAG
1070
     1
1071
      381
1005
12F0FF
  0
LINE
  5
12F100
  8
OBJECT
 10
6139.9999749641856
 20
-154.99999999999909
 30
0.0
 11
6076.0
 21
-154.99999999999909
 31
0.0
1001
ACDBBLOCKREPETAG
1070
     1
1071
      382
1005
12F100
  0
LINE
  5
12F101
  8
OBJECT
 10
6192.9999999999873
 20
-140.99999999999909
 30
0.0
 11
6156.9999999999864
 21
-140.99999999999909
 31
0.0
1001
ACDBBLOCKREPETAG
1070
     1
1071
      383
1005
12F101
  0
LINE
  5
12F102
  8
OBJECT
 10
6156.9999999999864
 20
-140.99999999999909
 30
0.0
 11
6156.9999999999864
 21
-258.99999999999909
 31
0.0
1001
ACDBBLOCKREPETAG
1070
     1
1071
      384
1005
12F102
  0
LINE
  5
12F103
  8
OBJECT
 10
6156.9999999999864
 20
-258.99999999999909
 30
0.0
 11
6192.9999999999873
 21
-258.99999999999909
 31
0.0
1001
ACDBBLOCKREPETAG
1070
     1
1071
      385
1005
12F103
  0
LINE
  5
12F104
  8
OBJECT
 10
6152.9999999999873
 20
-145.49999999999909
 30
0.0
 11
6139.9999999999864
 21
-145.49999999999909
 31
0.0
1001
ACDBBLOCKREPETAG
1070
     1
1071
      386
1005
12F104
  0
LINE
  5
12F105
  8
OBJECT
 10
6139.9999999999864
 20
-254.49999999999909
 30
0.0
 11
6152.9999999999873
 21
-254.49999999999909
 31
0.0
1001
ACDBBLOCKREPETAG
1070
     1
1071
      387
1005
12F105
  0
LINE
  5
12F106
  8
OBJECT
 10
6152.9999999999873
 20
-254.49999999999909
 30
0.0
 11
6152.9999999999873
 21
-145.49999999999909
 31
0.0
1001
ACDBBLOCKREPETAG
1070
     1
1071
      388
1005
12F106
  0
LINE
  5
12F107
  8
OBJECT
 10
6156.9999999999864
 20
-140.99999999999909
 30
0.0
 11
6152.9999999999873
 21
-145.49999999999909
 31
0.0
1001
ACDBBLOCKREPETAG
1070
     1
1071
      389
1005
12F107
  0
LINE
  5
12F108
  8
OBJECT
 10
6156.9999999999864
 20
-258.99999999999909
 30
0.0
 11
6152.9999999999873
 21
-254.49999999999909
 31
0.0
1001
ACDBBLOCKREPETAG
1070
     1
1071
      390
1005
12F108
  0
LINE
  5
12F109
  8
OBJECT
 10
6073.0
 20
-137.99999999999909
 30
0.0
 11
6070.0
 21
-137.99999999999909
 31
0.0
1001
ACDBBLOCKREPETAG
1070
     1
1071
      391
1005
12F109
  0
ARC
  5
12F10A
  8
OBJECT
 10
6073.0
 20
-140.99999999999909
 30
0.0
 40
3.0
 50
0.0
 51
90.0
1001
ACDBBLOCKREPETAG
1070
     1
1071
      392
1005
12F10A
  0
LINE
  5
12F10B
  8
OBJECT
 10
6070.0
 20
-261.99999999999909
 30
0.0
 11
6073.0
 21
-261.99999999999909
 31
0.0
1001
ACDBBLOCKREPETAG
1070
     1
1071
      393
1005
12F10B
  0
ARC
  5
12F10C
  8
OBJECT
 10
6073.0
 20
-258.99999999999909
 30
0.0
 40
3.0
 50
270.0
 51
0.0
1001
ACDBBLOCKREPETAG
1070
     1
1071
      394
1005
12F10C
  0
LINE
  5
12F10D
  8
OBJECT
 10
6076.0
 20
-258.99999999999909
 30
0.0
 11
6076.0
 21
-210.3227903203578
 31
0.0
1001
ACDBBLOCKREPETAG
1070
     1
1071
      395
1005
12F10D
  0
LINE
  5
12F10E
  8
OBJECT
 10
6076.0
 20
-189.6772096796403
 30
0.0
 11
6076.0
 21
-140.99999999999909
 31
0.0
1001
ACDBBLOCKREPETAG
1070
     1
1071
      396
1005
12F10E
  0
LINE
  5
12F10F
  8
HIDDEN
 10
6147.9999999999864
 20
-155.49999999999909
 30
0.0
 11
6147.9999999999864
 21
-244.49999999999909
 31
0.0
1001
ACDBBLOCKREPETAG
1070
     1
1071
      397
1005
12F10F
  0
LINE
  5
12F110
  8
OBJECT
 10
6139.9999749641856
 20
-254.4999509238105
 30
0.0
 11
6139.9999749641856
 21
-145.4999509238105
 31
0.0
1001
ACDBBLOCKREPETAG
1070
     1
1071
      399
1005
12F110
  0
ARC
  5
12F111
  8
OBJECT
 10
6119.8000000000247
 20
-199.99999999999909
 30
0.0
 40
45.000000000000547
 50
90.0
 51
270.0
1001
ACDBBLOCKREPETAG
1070
     1
1071
      400
1005
12F111
  0
CIRCLE
  5
12F112
  8
OBJECT
 10
4000.0
 20
-695.99999999999955
 30
0.0
 40
62.0
1001
ACDBBLOCKREPETAG
1070
     1
1071
        3
1005
12F112
  0
LINE
  5
12F113
  8
CENTER
 10
3938.0
 20
-710.99999999999955
 30
0.0
 11
4062.0
 21
-710.99999999999955
 31
0.0
1001
ACDBBLOCKREPETAG
1070
     1
1071
        4
1005
12F113
  0
CIRCLE
  5
12F114
  8
OBJECT
 10
4000.0
 20
-710.99999999999955
 30
0.0
 40
28.0
1001
ACDBBLOCKREPETAG
1070
     1
1071
        6
1005
12F114
  0
CIRCLE
  5
12F115
  8
OBJECT
 10
4000.0
 20
-710.99999999999955
 30
0.0
 40
39.0
1001
ACDBBLOCKREPETAG
1070
     1
1071
        7
1005
12F115
  0
ARC
  5
12F116
  8
OBJECT
 10
4000.0
 20
-710.99999999999955
 30
0.0
 40
47.0
 50
290.58196921144179
 51
249.41803078855821
1001
ACDBBLOCKREPETAG
1070
     1
1071
        8
1005
12F116
  0
LINE
  5
12F117
  8
OBJECT
 10
3983.4772883581431
 20
-754.99999999999955
 30
0.0
 11
4016.5227116418569
 21
-754.99999999999955
 31
0.0
1001
ACDBBLOCKREPETAG
1070
     1
1071
        9
1005
12F117
  0
LINE
  5
12F118
  8
CENTER
 10
4000.0
 20
-769.99999999999955
 30
0.0
 11
4000.0
 21
-613.99999999999966
 31
0.0
1001
ACDBBLOCKREPETAG
1070
     1
1071
        0
1005
12F118
  0
LINE
  5
12F119
  8
OBJECT
 10
3930.0
 20
-633.99999999999955
 30
0.0
 11
4070.0
 21
-633.99999999999955
 31
0.0
1001
ACDBBLOCKREPETAG
1070
     1
1071
        1
1005
12F119
  0
LINE
  5
12F11A
  8
OBJECT
 10
3930.0
 20
-757.99999999999955
 30
0.0
 11
3930.0
 21
-769.99999999999955
 31
0.0
1001
ACDBBLOCKREPETAG
1070
     1
1071
        2
1005
12F11A
  0
LINE
  5
12F11B
  8
OBJECT
 10
3930.0
 20
-769.99999999999955
 30
0.0
 11
4070.0
 21
-769.99999999999955
 31
0.0
1001
ACDBBLOCKREPETAG
1070
     1
1071
        3
1005
12F11B
  0
LINE
  5
12F11C
  8
OBJECT
 10
4070.0
 20
-769.99999999999955
 30
0.0
 11
4070.0
 21
-757.99999999999955
 31
0.0
1001
ACDBBLOCKREPETAG
1070
     1
1071
        4
1005
12F11C
  0
LINE
  5
12F11D
  8
OBJECT
 10
4070.0
 20
-757.99999999999955
 30
0.0
 11
3930.0
 21
-757.99999999999955
 31
0.0
1001
ACDBBLOCKREPETAG
1070
     1
1071
        5
1005
12F11D
  0
ARC
  5
12F11E
  8
OBJECT
 10
4435.0384389946767
 20
-998.60813684682694
 30
0.0
 40
519.48776673616965
 50
135.42350667430969
 51
138.50052655621499
1001
ACDBBLOCKREPETAG
1070
     1
1071
        9
1005
12F11E
  0
ARC
  5
12F11F
  8
OBJECT
 10
4435.0384389946767
 20
-393.39186315317193
 30
0.0
 40
519.48776673616965
 50
221.49947344378501
 51
224.57649332569039
1001
ACDBBLOCKREPETAG
1070
     1
1071
       10
1005
12F11F
  0
ARC
  5
12F120
  8
OBJECT
 10
3564.961561005322
 20
-998.60813684682694
 30
0.0
 40
519.48776673616965
 50
41.499473443784993
 51
44.576493325690237
1001
ACDBBLOCKREPETAG
1070
     1
1071
       11
1005
12F120
  0
ARC
  5
12F121
  8
OBJECT
 10
3564.961561005322
 20
-393.39186315317193
 30
0.0
 40
519.48776673616965
 50
315.42350667430981
 51
318.50052655621488
1001
ACDBBLOCKREPETAG
1070
     1
1071
       12
1005
12F121
  0
LINE
  5
12F122
  8
OBJECT
 10
4047.5
 20
-628.99999999999955
 30
0.0
 11
3952.5
 21
-628.99999999999955
 31
0.0
1001
ACDBBLOCKREPETAG
1070
     1
1071
       24
1005
12F122
  0
ARC
  5
12F123
  8
OBJECT
 10
3952.5
 20
-631.99999999999955
 30
0.0
 40
3.0
 50
90.0
 51
180.0
1001
ACDBBLOCKREPETAG
1070
     1
1071
       25
1005
12F123
  0
LINE
  5
12F124
  8
OBJECT
 10
3949.5
 20
-631.99999999999955
 30
0.0
 11
3949.5
 21
-633.99999999999955
 31
0.0
1001
ACDBBLOCKREPETAG
1070
     1
1071
       26
1005
12F124
  0
LINE
  5
12F125
  8
OBJECT
 10
4050.5
 20
-631.99999999999955
 30
0.0
 11
4050.5
 21
-633.99999999999955
 31
0.0
1001
ACDBBLOCKREPETAG
1070
     1
1071
       27
1005
12F125
  0
ARC
  5
12F126
  8
OBJECT
 10
4047.5
 20
-631.99999999999955
 30
0.0
 40
3.0
 50
0.0
 51
90.0
1001
ACDBBLOCKREPETAG
1070
     1
1071
       28
1005
12F126
  0
POINT
  5
12F127
  8
DOTS
 10
4000.0
 20
-754.99999999999955
 30
0.0
1001
ACDBBLOCKREPETAG
1070
     1
1071
       87
1005
12F127
  0
ARC
  5
12F128
  8
OBJECT
 10
4000.0
 20
-199.99999999999909
 30
0.0
 40
70.0
 50
62.339550100758693
 51
117.6604498992413
1001
ACDBBLOCKREPETAG
1070
     1
1071
        0
1005
12F128
  0
CIRCLE
  5
12F129
  8
OBJECT
 10
4000.0
 20
-199.99999999999909
 30
0.0
 40
65.0
1001
ACDBBLOCKREPETAG
1070
     1
1071
        1
1005
12F129
  0
CIRCLE
  5
12F12A
  8
OBJECT
 10
4000.0
 20
-199.99999999999909
 30
0.0
 40
50.5
1001
ACDBBLOCKREPETAG
1070
     1
1071
        3
1005
12F12A
  0
LINE
  5
12F12B
  8
OBJECT
 10
4070.0
 20
-137.99999999999909
 30
0.0
 11
4019.5192212959432
 21
-137.99999999999909
 31
0.0
1001
ACDBBLOCKREPETAG
1070
     1
1071
        4
1005
12F12B
  0
LINE
  5
12F12C
  8
OBJECT
 10
3930.0
 20
-137.99999999999909
 30
0.0
 11
3980.4807787040581
 21
-137.99999999999909
 31
0.0
1001
ACDBBLOCKREPETAG
1070
     1
1071
        5
1005
12F12C
  0
LINE
  5
12F12D
  8
OBJECT
 10
3930.0
 20
-261.99999999999909
 30
0.0
 11
3938.0
 21
-261.99999999999909
 31
0.0
1001
ACDBBLOCKREPETAG
1070
     1
1071
        6
1005
12F12D
  0
LINE
  5
12F12E
  8
OBJECT
 10
3938.0
 20
-269.99999999999909
 30
0.0
 11
3938.0
 21
-261.99999999999909
 31
0.0
1001
ACDBBLOCKREPETAG
1070
     1
1071
        7
1005
12F12E
  0
LINE
  5
12F12F
  8
OBJECT
 10
4070.0
 20
-261.99999999999909
 30
0.0
 11
4062.0
 21
-261.99999999999909
 31
0.0
1001
ACDBBLOCKREPETAG
1070
     1
1071
        8
1005
12F12F
  0
LINE
  5
12F130
  8
OBJECT
 10
4062.0
 20
-269.99999999999909
 30
0.0
 11
4062.0
 21
-261.99999999999909
 31
0.0
1001
ACDBBLOCKREPETAG
1070
     1
1071
        9
1005
12F130
  0
LINE
  5
12F131
  8
CENTER
 10
3930.0
 20
-199.99999999999909
 30
0.0
 11
4070.0
 21
-199.99999999999909
 31
0.0
1001
ACDBBLOCKREPETAG
1070
     1
1071
       10
1005
12F131
  0
LINE
  5
12F132
  8
CENTER
 10
4000.0
 20
-269.99999999999909
 30
0.0
 11
4000.0
 21
-114.9999999999991
 31
0.0
1001
ACDBBLOCKREPETAG
1070
     1
1071
       11
1005
12F132
  0
LINE
  5
12F133
  8
OBJECT
 10
3954.0380592228739
 20
-245.96194077712471
 30
0.0
 11
3938.0
 21
-261.99999999999909
 31
0.0
1001
ACDBBLOCKREPETAG
1070
     1
1071
       42
1005
12F133
  0
LINE
  5
12F134
  8
OBJECT
 10
4045.9619407771238
 20
-245.96194077712471
 30
0.0
 11
4062.0
 21
-261.99999999999909
 31
0.0
1001
ACDBBLOCKREPETAG
1070
     1
1071
       43
1005
12F134
  0
POINT
  5
12F135
  8
DOTS
 10
4000.0
 20
-199.99999999999909
 30
0.0
1001
ACDBBLOCKREPETAG
1070
     1
1071
      158
1005
12F135
  0
LINE
  5
12F136
  8
OBJECT
 10
3927.0
 20
-633.99999999999955
 30
0.0
 11
3930.0
 21
-633.99999999999955
 31
0.0
1001
ACDBBLOCKREPETAG
1070
     1
1071
        1
1005
12F136
  0
ARC
  5
12F137
  8
OBJECT
 10
3927.0
 20
-636.99999999999955
 30
0.0
 40
3.0
 50
90.0
 51
180.0
1001
ACDBBLOCKREPETAG
1070
     1
1071
        2
1005
12F137
  0
LINE
  5
12F138
  8
OBJECT
 10
3930.0
 20
-757.99999999999955
 30
0.0
 11
3927.0
 21
-757.99999999999955
 31
0.0
1001
ACDBBLOCKREPETAG
1070
     1
1071
        3
1005
12F138
  0
ARC
  5
12F139
  8
OBJECT
 10
3927.0
 20
-754.99999999999955
 30
0.0
 40
3.0
 50
180.0
 51
270.0
1001
ACDBBLOCKREPETAG
1070
     1
1071
        4
1005
12F139
  0
LINE
  5
12F13A
  8
OBJECT
 10
3924.0
 20
-754.99999999999955
 30
0.0
 11
3924.0
 21
-636.99999999999955
 31
0.0
1001
ACDBBLOCKREPETAG
1070
     1
1071
        5
1005
12F13A
  0
LINE
  5
12F13B
  8
CENTER
 10
3909.0
 20
-199.99999999999909
 30
0.0
 11
3930.0
 21
-199.99999999999909
 31
0.0
1001
ACDBBLOCKREPETAG
1070
     1
1071
        0
1005
12F13B
  0
LINE
  5
12F13C
  8
OBJECT
 10
3927.0
 20
-261.99999999999909
 30
0.0
 11
3930.0
 21
-261.99999999999909
 31
0.0
1001
ACDBBLOCKREPETAG
1070
     1
1071
        1
1005
12F13C
  0
ARC
  5
12F13D
  8
OBJECT
 10
3927.0
 20
-258.99999999999909
 30
0.0
 40
3.0
 50
180.0
 51
270.0
1001
ACDBBLOCKREPETAG
1070
     1
1071
        2
1005
12F13D
  0
LINE
  5
12F13E
  8
OBJECT
 10
3930.0
 20
-137.99999999999909
 30
0.0
 11
3927.0
 21
-137.99999999999909
 31
0.0
1001
ACDBBLOCKREPETAG
1070
     1
1071
        3
1005
12F13E
  0
ARC
  5
12F13F
  8
OBJECT
 10
3927.0
 20
-140.99999999999909
 30
0.0
 40
3.0
 50
90.0
 51
180.0
1001
ACDBBLOCKREPETAG
1070
     1
1071
        4
1005
12F13F
  0
LINE
  5
12F140
  8
OBJECT
 10
3924.0
 20
-140.99999999999909
 30
0.0
 11
3924.0
 21
-258.99999999999909
 31
0.0
1001
ACDBBLOCKREPETAG
1070
     1
1071
        5
1005
12F140
  0
LINE
  5
12F141
  8
OBJECT
 10
4047.0
 20
-322.99999999999898
 30
0.0
 11
4047.0
 21
-329.99999999999898
 31
0.0
1001
ACDBBLOCKREPETAG
1070
     1
1071
        7
1005
12F141
  0
LINE
  5
12F142
  8
OBJECT
 10
4047.0
 20
-329.99999999999898
 30
0.0
 11
3953.0
 21
-329.99999999999898
 31
0.0
1001
ACDBBLOCKREPETAG
1070
     1
1071
        8
1005
12F142
  0
LINE
  5
12F143
  8
OBJECT
 10
3953.0
 20
-329.99999999999898
 30
0.0
 11
3953.0
 21
-322.99999999999898
 31
0.0
1001
ACDBBLOCKREPETAG
1070
     1
1071
        9
1005
12F143
  0
LINE
  5
12F144
  8
OBJECT
 10
3953.0
 20
-322.99999999999898
 30
0.0
 11
4047.0
 21
-322.99999999999898
 31
0.0
1001
ACDBBLOCKREPETAG
1070
     1
1071
       10
1005
12F144
  0
LINE
  5
12F145
  8
CENTER
 10
4000.0
 20
-344.99999999999909
 30
0.0
 11
4000.0
 21
-269.99999999999909
 31
0.0
1001
ACDBBLOCKREPETAG
1070
     1
1071
       11
1005
12F145
  0
LINE
  5
12F146
  8
OBJECT
 10
4044.0
 20
-322.99999999999898
 30
0.0
 11
4044.0
 21
-286.99999999999898
 31
0.0
1001
ACDBBLOCKREPETAG
1070
     1
1071
       12
1005
12F146
  0
LINE
  5
12F147
  8
OBJECT
 10
4044.0
 20
-286.99999999999898
 30
0.0
 11
3956.0
 21
-286.99999999999898
 31
0.0
1001
ACDBBLOCKREPETAG
1070
     1
1071
       13
1005
12F147
  0
LINE
  5
12F148
  8
OBJECT
 10
3956.0
 20
-286.99999999999898
 30
0.0
 11
3956.0
 21
-322.99999999999898
 31
0.0
1001
ACDBBLOCKREPETAG
1070
     1
1071
       14
1005
12F148
  0
LINE
  5
12F149
  8
OBJECT
 10
4039.5
 20
-282.99999999999898
 30
0.0
 11
4039.5
 21
-275.99999999999909
 31
0.0
1001
ACDBBLOCKREPETAG
1070
     1
1071
       15
1005
12F149
  0
LINE
  5
12F14A
  8
OBJECT
 10
3960.5000000000009
 20
-275.99999999999909
 30
0.0
 11
3960.5000000000009
 21
-282.99999999999898
 31
0.0
1001
ACDBBLOCKREPETAG
1070
     1
1071
       16
1005
12F14A
  0
LINE
  5
12F14B
  8
OBJECT
 10
3960.5000000000009
 20
-282.99999999999898
 30
0.0
 11
4039.5
 21
-282.99999999999898
 31
0.0
1001
ACDBBLOCKREPETAG
1070
     1
1071
       17
1005
12F14B
  0
LINE
  5
12F14C
  8
OBJECT
 10
4044.0
 20
-286.99999999999898
 30
0.0
 11
4039.5
 21
-282.99999999999898
 31
0.0
1001
ACDBBLOCKREPETAG
1070
     1
1071
       18
1005
12F14C
  0
LINE
  5
12F14D
  8
OBJECT
 10
3956.0
 20
-286.99999999999898
 30
0.0
 11
3960.5000000000009
 21
-282.99999999999898
 31
0.0
1001
ACDBBLOCKREPETAG
1070
     1
1071
       19
1005
12F14D
  0
LINE
  5
12F14E
  8
OBJECT
 10
4062.0
 20
-272.99999999999909
 30
0.0
 11
4062.0
 21
-269.99999999999909
 31
0.0
1001
ACDBBLOCKREPETAG
1070
     1
1071
       20
1005
12F14E
  0
ARC
  5
12F14F
  8
OBJECT
 10
4059.0
 20
-272.99999999999909
 30
0.0
 40
3.0
 50
270.0
 51
0.0
1001
ACDBBLOCKREPETAG
1070
     1
1071
       21
1005
12F14F
  0
LINE
  5
12F150
  8
OBJECT
 10
3938.0
 20
-269.99999999999909
 30
0.0
 11
3938.0
 21
-272.99999999999909
 31
0.0
1001
ACDBBLOCKREPETAG
1070
     1
1071
       22
1005
12F150
  0
ARC
  5
12F151
  8
OBJECT
 10
3941.0
 20
-272.99999999999909
 30
0.0
 40
3.0
 50
180.0
 51
270.0
1001
ACDBBLOCKREPETAG
1070
     1
1071
       23
1005
12F151
  0
LINE
  5
12F152
  8
OBJECT
 10
3941.0
 20
-275.99999999999909
 30
0.0
 11
4059.0
 21
-275.99999999999909
 31
0.0
1001
ACDBBLOCKREPETAG
1070
     1
1071
       24
1005
12F152
  0
LINE
  5
12F153
  8
HIDDEN
 10
4030.0
 20
-277.99999999999909
 30
0.0
 11
3970.0
 21
-277.99999999999909
 31
0.0
1001
ACDBBLOCKREPETAG
1070
     1
1071
       25
1005
12F153
  0
LINE
  5
12F154
  8
OBJECT
 10
4192.9999999999864
 20
-583.00000000000045
 30
0.0
 11
4199.9999999999854
 21
-583.00000000000045
 31
0.0
1001
ACDBBLOCKREPETAG
1070
     1
1071
      324
1005
12F154
  0
LINE
  5
12F155
  8
OBJECT
 10
4199.9999999999854
 20
-583.00000000000045
 30
0.0
 11
4199.9999999999854
 21
-707.00000000000045
 31
0.0
1001
ACDBBLOCKREPETAG
1070
     1
1071
      325
1005
12F155
  0
LINE
  5
12F156
  8
OBJECT
 10
4075.999999999985
 20
-653.35026377572683
 30
0.0
 11
4075.999999999985
 21
-755.00000000000034
 31
0.0
1001
ACDBBLOCKREPETAG
1070
     1
1071
      326
1005
12F156
  0
LINE
  5
12F157
  8
OBJECT
 10
4199.9999999999854
 20
-707.00000000000045
 30
0.0
 11
4192.9999999999864
 21
-707.00000000000045
 31
0.0
1001
ACDBBLOCKREPETAG
1070
     1
1071
      327
1005
12F157
  0
LINE
  5
12F158
  8
OBJECT
 10
4192.9999999999864
 20
-707.00000000000045
 30
0.0
 11
4192.9999999999864
 21
-583.00000000000045
 31
0.0
1001
ACDBBLOCKREPETAG
1070
     1
1071
      328
1005
12F158
  0
LINE
  5
12F159
  8
CENTER
 10
4124.9999999999854
 20
-645.00000000000045
 30
0.0
 11
4214.9999999999854
 21
-645.00000000000045
 31
0.0
1001
ACDBBLOCKREPETAG
1070
     1
1071
      329
1005
12F159
  0
LINE
  5
12F15A
  8
OBJECT
 10
4069.9999999999809
 20
-757.99999999999955
 30
0.0
 11
4072.999999999985
 21
-758.00000000000034
 31
0.0
1001
ACDBBLOCKREPETAG
1070
     1
1071
      330
1005
12F15A
  0
ARC
  5
12F15B
  8
OBJECT
 10
4072.999999999985
 20
-755.00000000000034
 30
0.0
 40
3.0
 50
270.0
 51
0.0
1001
ACDBBLOCKREPETAG
1070
     1
1071
      331
1005
12F15B
  0
LINE
  5
12F15C
  8
OBJECT
 10
4192.9999999999864
 20
-586.00000000000045
 30
0.0
 11
4156.9999999999854
 21
-586.00000000000045
 31
0.0
1001
ACDBBLOCKREPETAG
1070
     1
1071
      332
1005
12F15C
  0
LINE
  5
12F15D
  8
OBJECT
 10
4156.9999999999854
 20
-586.00000000000045
 30
0.0
 11
4156.9999999999854
 21
-704.00000000000045
 31
0.0
1001
ACDBBLOCKREPETAG
1070
     1
1071
      333
1005
12F15D
  0
LINE
  5
12F15E
  8
OBJECT
 10
4152.9999999999854
 20
-590.50000000000045
 30
0.0
 11
4152.9999999999854
 21
-699.50000000000045
 31
0.0
1001
ACDBBLOCKREPETAG
1070
     1
1071
      334
1005
12F15E
  0
LINE
  5
12F15F
  8
OBJECT
 10
4152.9999999999854
 20
-590.50000000000045
 30
0.0
 11
4139.9999999999854
 21
-590.50000000000045
 31
0.0
1001
ACDBBLOCKREPETAG
1070
     1
1071
      335
1005
12F15F
  0
LINE
  5
12F160
  8
OBJECT
 10
4156.9999999999854
 20
-704.00000000000045
 30
0.0
 11
4192.9999999999864
 21
-704.00000000000045
 31
0.0
1001
ACDBBLOCKREPETAG
1070
     1
1071
      336
1005
12F160
  0
LINE
  5
12F161
  8
OBJECT
 10
4156.9999999999854
 20
-586.00000000000045
 30
0.0
 11
4152.9999999999854
 21
-590.50000000000045
 31
0.0
1001
ACDBBLOCKREPETAG
1070
     1
1071
      337
1005
12F161
  0
LINE
  5
12F162
  8
OBJECT
 10
4139.9999999999854
 20
-590.50000000000045
 30
0.0
 11
4139.9999999999854
 21
-675.7449182792875
 31
0.0
1001
ACDBBLOCKREPETAG
1070
     1
1071
      338
1005
12F162
  0
ARC
  5
12F163
  8
OBJECT
 10
4142.7999999999847
 20
-685.00000000000045
 30
0.0
 40
85.0
 50
91.887731891831123
 51
143.13010235412469
1001
ACDBBLOCKREPETAG
1070
     1
1071
      339
1005
12F163
  0
LINE
  5
12F164
  8
HIDDEN
 10
4147.9999999999854
 20
-600.50000000000057
 30
0.0
 11
4147.9999999999854
 21
-689.50000000000045
 31
0.0
1001
ACDBBLOCKREPETAG
1070
     1
1071
      341
1005
12F164
  0
LINE
  5
12F165
  8
OBJECT
 10
4075.999999999985
 20
-751.07945073181725
 30
0.0
 11
4146.6313199210308
 21
-699.50000000000045
 31
0.0
1001
ACDBBLOCKREPETAG
1070
     1
1071
      342
1005
12F165
  0
LINE
  5
12F166
  8
OBJECT
 10
4069.9999999999809
 20
-633.99999999999955
 30
0.0
 11
4074.7999999999838
 21
-633.99999999999955
 31
0.0
1001
ACDBBLOCKREPETAG
1070
     1
1071
      343
1005
12F166
  0
LINE
  5
12F167
  8
OBJECT
 10
4075.999999999985
 20
-653.35026377572945
 30
0.0
 11
4074.7999999999838
 21
-633.99999999999955
 31
0.0
1001
ACDBBLOCKREPETAG
1070
     1
1071
      344
1005
12F167
  0
LINE
  5
12F168
  8
OBJECT
 10
4152.9999999999854
 20
-699.50000000000045
 30
0.0
 11
4146.6313199210308
 21
-699.50000000000045
 31
0.0
1001
ACDBBLOCKREPETAG
1070
     1
1071
      345
1005
12F168
  0
LINE
  5
12F169
  8
OBJECT
 10
4156.9999999999854
 20
-704.00000000000045
 30
0.0
 11
4152.9999999999854
 21
-699.50000000000045
 31
0.0
1001
ACDBBLOCKREPETAG
1070
     1
1071
      346
1005
12F169
  0
LINE
  5
12F16A
  8
OBJECT
 10
4192.9999999999864
 20
-137.99999999999909
 30
0.0
 11
4199.9999999999854
 21
-137.99999999999909
 31
0.0
1001
ACDBBLOCKREPETAG
1070
     1
1071
      376
1005
12F16A
  0
LINE
  5
12F16B
  8
OBJECT
 10
4199.9999999999854
 20
-137.99999999999909
 30
0.0
 11
4199.9999999999854
 21
-261.99999999999909
 31
0.0
1001
ACDBBLOCKREPETAG
1070
     1
1071
      377
1005
12F16B
  0
LINE
  5
12F16C
  8
OBJECT
 10
4199.9999999999854
 20
-261.99999999999909
 30
0.0
 11
4192.9999999999864
 21
-261.99999999999909
 31
0.0
1001
ACDBBLOCKREPETAG
1070
     1
1071
      378
1005
12F16C
  0
LINE
  5
12F16D
  8
OBJECT
 10
4192.9999999999864
 20
-261.99999999999909
 30
0.0
 11
4192.9999999999864
 21
-137.99999999999909
 31
0.0
1001
ACDBBLOCKREPETAG
1070
     1
1071
      379
1005
12F16D
  0
LINE
  5
12F16E
  8
CENTER
 10
4214.9999999999854
 20
-199.99999999999909
 30
0.0
 11
4070.0
 21
-199.99999999999909
 31
0.0
1001
ACDBBLOCKREPETAG
1070
     1
1071
      380
1005
12F16E
  0
LINE
  5
12F16F
  8
OBJECT
 10
4139.9999749641856
 20
-245.0000000000027
 30
0.0
 11
4076.0
 21
-244.99999999999909
 31
0.0
1001
ACDBBLOCKREPETAG
1070
     1
1071
      381
1005
12F16F
  0
LINE
  5
12F170
  8
OBJECT
 10
4139.9999749641856
 20
-154.99999999999909
 30
0.0
 11
4076.0
 21
-154.99999999999909
 31
0.0
1001
ACDBBLOCKREPETAG
1070
     1
1071
      382
1005
12F170
  0
LINE
  5
12F171
  8
OBJECT
 10
4192.9999999999864
 20
-140.99999999999909
 30
0.0
 11
4156.9999999999854
 21
-140.99999999999909
 31
0.0
1001
ACDBBLOCKREPETAG
1070
     1
1071
      383
1005
12F171
  0
LINE
  5
12F172
  8
OBJECT
 10
4156.9999999999854
 20
-140.99999999999909
 30
0.0
 11
4156.9999999999854
 21
-258.99999999999909
 31
0.0
1001
ACDBBLOCKREPETAG
1070
     1
1071
      384
1005
12F172
  0
LINE
  5
12F173
  8
OBJECT
 10
4156.9999999999854
 20
-258.99999999999909
 30
0.0
 11
4192.9999999999864
 21
-258.99999999999909
 31
0.0
1001
ACDBBLOCKREPETAG
1070
     1
1071
      385
1005
12F173
  0
LINE
  5
12F174
  8
OBJECT
 10
4152.9999999999854
 20
-145.49999999999909
 30
0.0
 11
4139.9999999999854
 21
-145.49999999999909
 31
0.0
1001
ACDBBLOCKREPETAG
1070
     1
1071
      386
1005
12F174
  0
LINE
  5
12F175
  8
OBJECT
 10
4139.9999999999854
 20
-254.49999999999909
 30
0.0
 11
4152.9999999999854
 21
-254.49999999999909
 31
0.0
1001
ACDBBLOCKREPETAG
1070
     1
1071
      387
1005
12F175
  0
LINE
  5
12F176
  8
OBJECT
 10
4152.9999999999854
 20
-254.49999999999909
 30
0.0
 11
4152.9999999999854
 21
-145.49999999999909
 31
0.0
1001
ACDBBLOCKREPETAG
1070
     1
1071
      388
1005
12F176
  0
LINE
  5
12F177
  8
OBJECT
 10
4156.9999999999854
 20
-140.99999999999909
 30
0.0
 11
4152.9999999999854
 21
-145.49999999999909
 31
0.0
1001
ACDBBLOCKREPETAG
1070
     1
1071
      389
1005
12F177
  0
LINE
  5
12F178
  8
OBJECT
 10
4156.9999999999854
 20
-258.99999999999909
 30
0.0
 11
4152.9999999999854
 21
-254.49999999999909
 31
0.0
1001
ACDBBLOCKREPETAG
1070
     1
1071
      390
1005
12F178
  0
LINE
  5
12F179
  8
OBJECT
 10
4073.0
 20
-137.99999999999909
 30
0.0
 11
4070.0
 21
-137.99999999999909
 31
0.0
1001
ACDBBLOCKREPETAG
1070
     1
1071
      391
1005
12F179
  0
ARC
  5
12F17A
  8
OBJECT
 10
4073.0
 20
-140.99999999999909
 30
0.0
 40
3.0
 50
0.0
 51
90.0
1001
ACDBBLOCKREPETAG
1070
     1
1071
      392
1005
12F17A
  0
LINE
  5
12F17B
  8
OBJECT
 10
4070.0
 20
-261.99999999999909
 30
0.0
 11
4073.0
 21
-261.99999999999909
 31
0.0
1001
ACDBBLOCKREPETAG
1070
     1
1071
      393
1005
12F17B
  0
ARC
  5
12F17C
  8
OBJECT
 10
4073.0
 20
-258.99999999999909
 30
0.0
 40
3.0
 50
270.0
 51
0.0
1001
ACDBBLOCKREPETAG
1070
     1
1071
      394
1005
12F17C
  0
LINE
  5
12F17D
  8
OBJECT
 10
4076.0
 20
-258.99999999999909
 30
0.0
 11
4076.0
 21
-210.3227903203578
 31
0.0
1001
ACDBBLOCKREPETAG
1070
     1
1071
      395
1005
12F17D
  0
LINE
  5
12F17E
  8
OBJECT
 10
4076.0
 20
-189.6772096796403
 30
0.0
 11
4076.0
 21
-140.99999999999909
 31
0.0
1001
ACDBBLOCKREPETAG
1070
     1
1071
      396
1005
12F17E
  0
LINE
  5
12F17F
  8
HIDDEN
 10
4147.9999999999854
 20
-155.49999999999909
 30
0.0
 11
4147.9999999999854
 21
-244.49999999999909
 31
0.0
1001
ACDBBLOCKREPETAG
1070
     1
1071
      397
1005
12F17F
  0
LINE
  5
12F180
  8
OBJECT
 10
4139.9999749641856
 20
-254.4999509238105
 30
0.0
 11
4139.9999749641856
 21
-145.4999509238105
 31
0.0
1001
ACDBBLOCKREPETAG
1070
     1
1071
      399
1005
12F180
  0
ARC
  5
12F181
  8
OBJECT
 10
4119.8000000000247
 20
-199.99999999999909
 30
0.0
 40
45.000000000000547
 50
90.0
 51
270.0
1001
ACDBBLOCKREPETAG
1070
     1
1071
      400
1005
12F181
  0
TEXT
  5
12F182
  8
SLIM
 10
-18.199999999999999
 20
-1004.000000000006
 30
0.0
 40
52.0
  1
（特）：特注品。大便器の接続が
 41
0.75
1001
ACDBBLOCKREPETAG
1070
     1
1071
       46
1005
12BDEA
  0
TEXT
  5
12F183
  8
SLIM
 10
0.0
 20
-1073.3333333333401
 30
0.0
 40
52.0
  1
無いことを確認した場合のみ製作。
 41
0.75
1001
ACDBBLOCKREPETAG
1070
     1
1071
       46
1005
12BDEA
  0
CIRCLE
  5
12F184
  8
OBJECT
 10
2000.0
 20
-695.99999999999955
 30
0.0
 40
62.0
1001
ACDBBLOCKREPETAG
1070
     1
1071
        3
1005
12F184
  0
LINE
  5
12F185
  8
CENTER
 10
1938.0
 20
-710.99999999999955
 30
0.0
 11
2062.0
 21
-710.99999999999955
 31
0.0
1001
ACDBBLOCKREPETAG
1070
     1
1071
        4
1005
12F185
  0
CIRCLE
  5
12F186
  8
OBJECT
 10
2000.0
 20
-710.99999999999955
 30
0.0
 40
28.0
1001
ACDBBLOCKREPETAG
1070
     1
1071
        6
1005
12F186
  0
CIRCLE
  5
12F187
  8
OBJECT
 10
2000.0
 20
-710.99999999999955
 30
0.0
 40
39.0
1001
ACDBBLOCKREPETAG
1070
     1
1071
        7
1005
12F187
  0
ARC
  5
12F188
  8
OBJECT
 10
2000.0
 20
-710.99999999999955
 30
0.0
 40
47.0
 50
290.58196921144179
 51
249.41803078855821
1001
ACDBBLOCKREPETAG
1070
     1
1071
        8
1005
12F188
  0
LINE
  5
12F189
  8
OBJECT
 10
1983.477288358142
 20
-754.99999999999955
 30
0.0
 11
2016.5227116418571
 21
-754.99999999999955
 31
0.0
1001
ACDBBLOCKREPETAG
1070
     1
1071
        9
1005
12F189
  0
LINE
  5
12F18A
  8
CENTER
 10
2000.0
 20
-769.99999999999955
 30
0.0
 11
2000.0
 21
-613.99999999999966
 31
0.0
1001
ACDBBLOCKREPETAG
1070
     1
1071
        0
1005
12F18A
  0
LINE
  5
12F18B
  8
OBJECT
 10
1930.0
 20
-633.99999999999955
 30
0.0
 11
2070.0
 21
-633.99999999999955
 31
0.0
1001
ACDBBLOCKREPETAG
1070
     1
1071
        1
1005
12F18B
  0
LINE
  5
12F18C
  8
OBJECT
 10
1930.0
 20
-757.99999999999955
 30
0.0
 11
1930.0
 21
-769.99999999999955
 31
0.0
1001
ACDBBLOCKREPETAG
1070
     1
1071
        2
1005
12F18C
  0
LINE
  5
12F18D
  8
OBJECT
 10
1930.0
 20
-769.99999999999955
 30
0.0
 11
2070.0
 21
-769.99999999999955
 31
0.0
1001
ACDBBLOCKREPETAG
1070
     1
1071
        3
1005
12F18D
  0
LINE
  5
12F18E
  8
OBJECT
 10
2070.0
 20
-769.99999999999955
 30
0.0
 11
2070.0
 21
-757.99999999999955
 31
0.0
1001
ACDBBLOCKREPETAG
1070
     1
1071
        4
1005
12F18E
  0
LINE
  5
12F18F
  8
OBJECT
 10
2070.0
 20
-757.99999999999955
 30
0.0
 11
1930.0
 21
-757.99999999999955
 31
0.0
1001
ACDBBLOCKREPETAG
1070
     1
1071
        5
1005
12F18F
  0
ARC
  5
12F190
  8
OBJECT
 10
2435.0384389946771
 20
-998.60813684682694
 30
0.0
 40
519.48776673616965
 50
135.4235066743189
 51
138.50052655621499
1001
ACDBBLOCKREPETAG
1070
     1
1071
        9
1005
12F190
  0
ARC
  5
12F191
  8
OBJECT
 10
2435.0384389946771
 20
-393.39186315317193
 30
0.0
 40
519.48776673616965
 50
221.49947344378501
 51
224.57649332568101
1001
ACDBBLOCKREPETAG
1070
     1
1071
       10
1005
12F191
  0
ARC
  5
12F192
  8
OBJECT
 10
1564.961561005322
 20
-998.60813684682694
 30
0.0
 40
519.48776673616965
 50
41.499473443784993
 51
44.576493325681092
1001
ACDBBLOCKREPETAG
1070
     1
1071
       11
1005
12F192
  0
ARC
  5
12F193
  8
OBJECT
 10
1564.961561005322
 20
-393.39186315317193
 30
0.0
 40
519.48776673616965
 50
315.4235066743189
 51
318.50052655621488
1001
ACDBBLOCKREPETAG
1070
     1
1071
       12
1005
12F193
  0
LINE
  5
12F194
  8
OBJECT
 10
2047.5
 20
-628.99999999999955
 30
0.0
 11
1952.5
 21
-628.99999999999955
 31
0.0
1001
ACDBBLOCKREPETAG
1070
     1
1071
       24
1005
12F194
  0
ARC
  5
12F195
  8
OBJECT
 10
1952.5
 20
-631.99999999999955
 30
0.0
 40
3.0
 50
90.0
 51
180.0
1001
ACDBBLOCKREPETAG
1070
     1
1071
       25
1005
12F195
  0
LINE
  5
12F196
  8
OBJECT
 10
1949.5
 20
-631.99999999999955
 30
0.0
 11
1949.5
 21
-633.99999999999955
 31
0.0
1001
ACDBBLOCKREPETAG
1070
     1
1071
       26
1005
12F196
  0
LINE
  5
12F197
  8
OBJECT
 10
2050.5
 20
-631.99999999999955
 30
0.0
 11
2050.5
 21
-633.99999999999955
 31
0.0
1001
ACDBBLOCKREPETAG
1070
     1
1071
       27
1005
12F197
  0
ARC
  5
12F198
  8
OBJECT
 10
2047.5
 20
-631.99999999999955
 30
0.0
 40
3.0
 50
0.0
 51
90.0
1001
ACDBBLOCKREPETAG
1070
     1
1071
       28
1005
12F198
  0
POINT
  5
12F199
  8
DOTS
 10
2000.0
 20
-754.99999999999955
 30
0.0
1001
ACDBBLOCKREPETAG
1070
     1
1071
       87
1005
12F199
  0
LINE
  5
12F19A
  8
CENTER
 10
4400.0
 20
-3594.9999999999968
 30
0.0
 11
4400.0
 21
-3438.9999999999968
 31
0.0
1001
ACDBBLOCKREPETAG
1070
     1
1071
       13
1005
12F19A
  0
LINE
  5
12F19B
  8
OBJECT
 10
4330.0
 20
-3458.9999999999968
 30
0.0
 11
4465.0000101378164
 21
-3458.9999999999968
 31
0.0
1001
ACDBBLOCKREPETAG
1070
     1
1071
       14
1005
12F19B
  0
LINE
  5
12F19C
  8
OBJECT
 10
4335.0
 20
-3582.9999999999968
 30
0.0
 11
4330.0
 21
-3582.9999999999968
 31
0.0
1001
ACDBBLOCKREPETAG
1070
     1
1071
       18
1005
12F19C
  0
LINE
  5
12F19D
  8
OBJECT
 10
4465.0000101378164
 20
-3583.0000021659148
 30
0.0
 11
4465.0000101378164
 21
-3458.9999999999968
 31
0.0
1001
ACDBBLOCKREPETAG
1070
     1
1071
       21
1005
12F19D
  0
ARC
  5
12F19E
  8
OBJECT
 10
3964.9615610053229
 20
-3823.6081368468249
 30
0.0
 40
519.48776673616965
 50
41.499473443784993
 51
44.576493325685597
1001
ACDBBLOCKREPETAG
1070
     1
1071
       22
1005
12F19E
  0
ARC
  5
12F19F
  8
OBJECT
 10
3964.9615610053229
 20
-3218.3918631531692
 30
0.0
 40
519.48776673616965
 50
315.42350667431441
 51
318.50052655621488
1001
ACDBBLOCKREPETAG
1070
     1
1071
       23
1005
12F19F
  0
LINE
  5
12F1A0
  8
OBJECT
 10
4447.5
 20
-3453.9999999999968
 30
0.0
 11
4352.5
 21
-3453.9999999999968
 31
0.0
1001
ACDBBLOCKREPETAG
1070
     1
1071
       29
1005
12F1A0
  0
ARC
  5
12F1A1
  8
OBJECT
 10
4352.5
 20
-3456.9999999999968
 30
0.0
 40
3.0
 50
90.0
 51
180.0
1001
ACDBBLOCKREPETAG
1070
     1
1071
       30
1005
12F1A1
  0
LINE
  5
12F1A2
  8
OBJECT
 10
4349.4999999999991
 20
-3456.9999999999968
 30
0.0
 11
4349.4999999999991
 21
-3458.9999999999968
 31
0.0
1001
ACDBBLOCKREPETAG
1070
     1
1071
       31
1005
12F1A2
  0
LINE
  5
12F1A3
  8
OBJECT
 10
4450.5
 20
-3456.9999999999968
 30
0.0
 11
4450.5
 21
-3458.9999999999968
 31
0.0
1001
ACDBBLOCKREPETAG
1070
     1
1071
       32
1005
12F1A3
  0
ARC
  5
12F1A4
  8
OBJECT
 10
4447.5
 20
-3456.9999999999968
 30
0.0
 40
3.0
 50
0.0
 51
90.0
1001
ACDBBLOCKREPETAG
1070
     1
1071
       33
1005
12F1A4
  0
POINT
  5
12F1A5
  8
DOTS
 10
4400.0
 20
-3579.9999999999968
 30
0.0
1001
ACDBBLOCKREPETAG
1070
     1
1071
       88
1005
12F1A5
  0
LINE
  5
12F1A6
  8
CENTER
 10
4000.0
 20
-3594.9999999999968
 30
0.0
 11
4000.0
 21
-3438.9999999999968
 31
0.0
1001
ACDBBLOCKREPETAG
1070
     1
1071
        0
1005
12F1A6
  0
LINE
  5
12F1A7
  8
OBJECT
 10
3930.0
 20
-3458.9999999999968
 30
0.0
 11
4069.9999999999991
 21
-3458.9999999999968
 31
0.0
1001
ACDBBLOCKREPETAG
1070
     1
1071
        1
1005
12F1A7
  0
LINE
  5
12F1A8
  8
OBJECT
 10
4069.9999999999991
 20
-3582.9999999999968
 30
0.0
 11
4064.9999999999982
 21
-3582.9999999999968
 31
0.0
1001
ACDBBLOCKREPETAG
1070
     1
1071
        5
1005
12F1A8
  0
LINE
  5
12F1A9
  8
OBJECT
 10
3935.0
 20
-3582.9999999999968
 30
0.0
 11
3930.0
 21
-3582.9999999999968
 31
0.0
1001
ACDBBLOCKREPETAG
1070
     1
1071
       91
1005
12F1A9
  0
ARC
  5
12F1AA
  8
OBJECT
 10
4435.0384389946767
 20
-3823.6081368468249
 30
0.0
 40
519.48776673616965
 50
135.42350667431441
 51
138.50052655621499
1001
ACDBBLOCKREPETAG
1070
     1
1071
        9
1005
12F1AA
  0
ARC
  5
12F1AB
  8
OBJECT
 10
4435.0384389946767
 20
-3218.3918631531692
 30
0.0
 40
519.48776673616965
 50
221.49947344378501
 51
224.57649332568559
1001
ACDBBLOCKREPETAG
1070
     1
1071
       10
1005
12F1AB
  0
ARC
  5
12F1AC
  8
OBJECT
 10
3564.961561005322
 20
-3823.6081368468249
 30
0.0
 40
519.48776673616965
 50
41.499473443784993
 51
44.576493325685597
1001
ACDBBLOCKREPETAG
1070
     1
1071
       11
1005
12F1AC
  0
ARC
  5
12F1AD
  8
OBJECT
 10
3564.961561005322
 20
-3218.3918631531692
 30
0.0
 40
519.48776673616965
 50
315.42350667431441
 51
318.50052655621488
1001
ACDBBLOCKREPETAG
1070
     1
1071
       12
1005
12F1AD
  0
LINE
  5
12F1AE
  8
OBJECT
 10
4047.4999999999982
 20
-3453.9999999999968
 30
0.0
 11
3952.5
 21
-3453.9999999999968
 31
0.0
1001
ACDBBLOCKREPETAG
1070
     1
1071
       24
1005
12F1AE
  0
ARC
  5
12F1AF
  8
OBJECT
 10
3952.5
 20
-3456.9999999999968
 30
0.0
 40
3.0
 50
90.0
 51
180.0
1001
ACDBBLOCKREPETAG
1070
     1
1071
       25
1005
12F1AF
  0
LINE
  5
12F1B0
  8
OBJECT
 10
3949.5
 20
-3456.9999999999968
 30
0.0
 11
3949.5
 21
-3458.9999999999968
 31
0.0
1001
ACDBBLOCKREPETAG
1070
     1
1071
       26
1005
12F1B0
  0
LINE
  5
12F1B1
  8
OBJECT
 10
4050.4999999999982
 20
-3456.9999999999968
 30
0.0
 11
4050.4999999999982
 21
-3458.9999999999968
 31
0.0
1001
ACDBBLOCKREPETAG
1070
     1
1071
       27
1005
12F1B1
  0
ARC
  5
12F1B2
  8
OBJECT
 10
4047.4999999999982
 20
-3456.9999999999968
 30
0.0
 40
3.0
 50
0.0
 51
90.0
1001
ACDBBLOCKREPETAG
1070
     1
1071
       28
1005
12F1B2
  0
POINT
  5
12F1B3
  8
DOTS
 10
4000.0
 20
-3579.9999999999968
 30
0.0
1001
ACDBBLOCKREPETAG
1070
     1
1071
       87
1005
12F1B3
  0
ARC
  5
12F1B4
  8
OBJECT
 10
4000.0
 20
-3174.9999999999959
 30
0.0
 40
70.0
 50
62.339550100752639
 51
117.6604498992473
1001
ACDBBLOCKREPETAG
1070
     1
1071
        0
1005
12F1B4
  0
CIRCLE
  5
12F1B5
  8
OBJECT
 10
4000.0
 20
-3174.9999999999959
 30
0.0
 40
65.0
1001
ACDBBLOCKREPETAG
1070
     1
1071
        1
1005
12F1B5
  0
CIRCLE
  5
12F1B6
  8
OBJECT
 10
4000.0
 20
-3174.9999999999959
 30
0.0
 40
50.5
1001
ACDBBLOCKREPETAG
1070
     1
1071
        3
1005
12F1B6
  0
LINE
  5
12F1B7
  8
OBJECT
 10
4070.0
 20
-3112.9999999999959
 30
0.0
 11
4019.5192212959432
 21
-3112.9999999999959
 31
0.0
1001
ACDBBLOCKREPETAG
1070
     1
1071
        4
1005
12F1B7
  0
LINE
  5
12F1B8
  8
OBJECT
 10
3930.0
 20
-3112.9999999999959
 30
0.0
 11
3980.4807787040581
 21
-3112.9999999999959
 31
0.0
1001
ACDBBLOCKREPETAG
1070
     1
1071
        5
1005
12F1B8
  0
LINE
  5
12F1B9
  8
OBJECT
 10
3930.0
 20
-3236.9999999999959
 30
0.0
 11
3938.0
 21
-3236.9999999999959
 31
0.0
1001
ACDBBLOCKREPETAG
1070
     1
1071
        6
1005
12F1B9
  0
LINE
  5
12F1BA
  8
OBJECT
 10
3938.0
 20
-3244.9999999999959
 30
0.0
 11
3938.0
 21
-3236.9999999999959
 31
0.0
1001
ACDBBLOCKREPETAG
1070
     1
1071
        7
1005
12F1BA
  0
LINE
  5
12F1BB
  8
OBJECT
 10
4070.0
 20
-3236.9999999999959
 30
0.0
 11
4062.0
 21
-3236.9999999999959
 31
0.0
1001
ACDBBLOCKREPETAG
1070
     1
1071
        8
1005
12F1BB
  0
LINE
  5
12F1BC
  8
OBJECT
 10
4062.0
 20
-3244.9999999999959
 30
0.0
 11
4062.0
 21
-3236.9999999999959
 31
0.0
1001
ACDBBLOCKREPETAG
1070
     1
1071
        9
1005
12F1BC
  0
LINE
  5
12F1BD
  8
CENTER
 10
3930.0
 20
-3174.9999999999959
 30
0.0
 11
4070.0
 21
-3174.9999999999959
 31
0.0
1001
ACDBBLOCKREPETAG
1070
     1
1071
       10
1005
12F1BD
  0
LINE
  5
12F1BE
  8
CENTER
 10
4000.0
 20
-3244.9999999999959
 30
0.0
 11
4000.0
 21
-3089.9999999999959
 31
0.0
1001
ACDBBLOCKREPETAG
1070
     1
1071
       11
1005
12F1BE
  0
LINE
  5
12F1BF
  8
OBJECT
 10
3954.0380592228739
 20
-3220.9619407771211
 30
0.0
 11
3938.0
 21
-3236.9999999999959
 31
0.0
1001
ACDBBLOCKREPETAG
1070
     1
1071
       42
1005
12F1BF
  0
LINE
  5
12F1C0
  8
OBJECT
 10
4045.9619407771238
 20
-3220.9619407771211
 30
0.0
 11
4062.0
 21
-3236.9999999999959
 31
0.0
1001
ACDBBLOCKREPETAG
1070
     1
1071
       43
1005
12F1C0
  0
POINT
  5
12F1C1
  8
DOTS
 10
4000.0
 20
-3174.9999999999959
 30
0.0
1001
ACDBBLOCKREPETAG
1070
     1
1071
      158
1005
12F1C1
  0
LINE
  5
12F1C2
  8
CENTER
 10
3399.9999999999991
 20
-3594.9999999999968
 30
0.0
 11
3399.9999999999991
 21
-3438.9999999999968
 31
0.0
1001
ACDBBLOCKREPETAG
1070
     1
1071
       13
1005
12F1C2
  0
LINE
  5
12F1C3
  8
OBJECT
 10
3330.0
 20
-3458.9999999999968
 30
0.0
 11
3465.0000101378168
 21
-3458.9999999999968
 31
0.0
1001
ACDBBLOCKREPETAG
1070
     1
1071
       14
1005
12F1C3
  0
LINE
  5
12F1C4
  8
OBJECT
 10
3335.0
 20
-3582.9999999999968
 30
0.0
 11
3330.0
 21
-3582.9999999999968
 31
0.0
1001
ACDBBLOCKREPETAG
1070
     1
1071
       18
1005
12F1C4
  0
LINE
  5
12F1C5
  8
OBJECT
 10
3465.0000101378168
 20
-3583.0000021659148
 30
0.0
 11
3465.0000101378168
 21
-3458.9999999999968
 31
0.0
1001
ACDBBLOCKREPETAG
1070
     1
1071
       21
1005
12F1C5
  0
ARC
  5
12F1C6
  8
OBJECT
 10
2964.9615610053229
 20
-3823.6081368468249
 30
0.0
 40
519.48776673616965
 50
41.499473443784993
 51
44.576493325685597
1001
ACDBBLOCKREPETAG
1070
     1
1071
       22
1005
12F1C6
  0
ARC
  5
12F1C7
  8
OBJECT
 10
2964.9615610053229
 20
-3218.3918631531692
 30
0.0
 40
519.48776673616965
 50
315.42350667431441
 51
318.50052655621488
1001
ACDBBLOCKREPETAG
1070
     1
1071
       23
1005
12F1C7
  0
LINE
  5
12F1C8
  8
OBJECT
 10
3447.5
 20
-3453.9999999999968
 30
0.0
 11
3352.5
 21
-3453.9999999999968
 31
0.0
1001
ACDBBLOCKREPETAG
1070
     1
1071
       29
1005
12F1C8
  0
ARC
  5
12F1C9
  8
OBJECT
 10
3352.5
 20
-3456.9999999999968
 30
0.0
 40
3.0
 50
90.0
 51
180.0
1001
ACDBBLOCKREPETAG
1070
     1
1071
       30
1005
12F1C9
  0
LINE
  5
12F1CA
  8
OBJECT
 10
3349.5
 20
-3456.9999999999968
 30
0.0
 11
3349.5
 21
-3458.9999999999968
 31
0.0
1001
ACDBBLOCKREPETAG
1070
     1
1071
       31
1005
12F1CA
  0
LINE
  5
12F1CB
  8
OBJECT
 10
3450.5
 20
-3456.9999999999968
 30
0.0
 11
3450.5
 21
-3458.9999999999968
 31
0.0
1001
ACDBBLOCKREPETAG
1070
     1
1071
       32
1005
12F1CB
  0
ARC
  5
12F1CC
  8
OBJECT
 10
3447.5
 20
-3456.9999999999968
 30
0.0
 40
3.0
 50
0.0
 51
90.0
1001
ACDBBLOCKREPETAG
1070
     1
1071
       33
1005
12F1CC
  0
POINT
  5
12F1CD
  8
DOTS
 10
3399.9999999999991
 20
-3579.9999999999968
 30
0.0
1001
ACDBBLOCKREPETAG
1070
     1
1071
       88
1005
12F1CD
  0
LINE
  5
12F1CE
  8
CENTER
 10
3000.0
 20
-3594.9999999999968
 30
0.0
 11
3000.0
 21
-3438.9999999999968
 31
0.0
1001
ACDBBLOCKREPETAG
1070
     1
1071
        0
1005
12F1CE
  0
LINE
  5
12F1CF
  8
OBJECT
 10
2930.0
 20
-3458.9999999999968
 30
0.0
 11
3070.0
 21
-3458.9999999999968
 31
0.0
1001
ACDBBLOCKREPETAG
1070
     1
1071
        1
1005
12F1CF
  0
LINE
  5
12F1D0
  8
OBJECT
 10
3070.0
 20
-3582.9999999999968
 30
0.0
 11
3064.9999999999991
 21
-3582.9999999999968
 31
0.0
1001
ACDBBLOCKREPETAG
1070
     1
1071
        5
1005
12F1D0
  0
LINE
  5
12F1D1
  8
OBJECT
 10
2935.0
 20
-3582.9999999999968
 30
0.0
 11
2930.0
 21
-3582.9999999999968
 31
0.0
1001
ACDBBLOCKREPETAG
1070
     1
1071
       91
1005
12F1D1
  0
ARC
  5
12F1D2
  8
OBJECT
 10
3435.0384389946771
 20
-3823.6081368468249
 30
0.0
 40
519.48776673616965
 50
135.42350667431441
 51
138.50052655621499
1001
ACDBBLOCKREPETAG
1070
     1
1071
        9
1005
12F1D2
  0
ARC
  5
12F1D3
  8
OBJECT
 10
3435.0384389946771
 20
-3218.3918631531692
 30
0.0
 40
519.48776673616965
 50
221.49947344378501
 51
224.57649332568559
1001
ACDBBLOCKREPETAG
1070
     1
1071
       10
1005
12F1D3
  0
ARC
  5
12F1D4
  8
OBJECT
 10
2564.961561005322
 20
-3823.6081368468249
 30
0.0
 40
519.48776673616965
 50
41.499473443784993
 51
44.576493325685597
1001
ACDBBLOCKREPETAG
1070
     1
1071
       11
1005
12F1D4
  0
ARC
  5
12F1D5
  8
OBJECT
 10
2564.961561005322
 20
-3218.3918631531692
 30
0.0
 40
519.48776673616965
 50
315.42350667431441
 51
318.50052655621488
1001
ACDBBLOCKREPETAG
1070
     1
1071
       12
1005
12F1D5
  0
LINE
  5
12F1D6
  8
OBJECT
 10
3047.4999999999991
 20
-3453.9999999999968
 30
0.0
 11
2952.5
 21
-3453.9999999999968
 31
0.0
1001
ACDBBLOCKREPETAG
1070
     1
1071
       24
1005
12F1D6
  0
ARC
  5
12F1D7
  8
OBJECT
 10
2952.5
 20
-3456.9999999999968
 30
0.0
 40
3.0
 50
90.0
 51
180.0
1001
ACDBBLOCKREPETAG
1070
     1
1071
       25
1005
12F1D7
  0
LINE
  5
12F1D8
  8
OBJECT
 10
2949.5
 20
-3456.9999999999968
 30
0.0
 11
2949.5
 21
-3458.9999999999968
 31
0.0
1001
ACDBBLOCKREPETAG
1070
     1
1071
       26
1005
12F1D8
  0
LINE
  5
12F1D9
  8
OBJECT
 10
3050.4999999999991
 20
-3456.9999999999968
 30
0.0
 11
3050.4999999999991
 21
-3458.9999999999968
 31
0.0
1001
ACDBBLOCKREPETAG
1070
     1
1071
       27
1005
12F1D9
  0
ARC
  5
12F1DA
  8
OBJECT
 10
3047.4999999999991
 20
-3456.9999999999968
 30
0.0
 40
3.0
 50
0.0
 51
90.0
1001
ACDBBLOCKREPETAG
1070
     1
1071
       28
1005
12F1DA
  0
POINT
  5
12F1DB
  8
DOTS
 10
3000.0
 20
-3579.9999999999968
 30
0.0
1001
ACDBBLOCKREPETAG
1070
     1
1071
       87
1005
12F1DB
  0
ARC
  5
12F1DC
  8
OBJECT
 10
3000.0
 20
-3174.9999999999959
 30
0.0
 40
70.0
 50
62.339550100752639
 51
117.6604498992473
1001
ACDBBLOCKREPETAG
1070
     1
1071
        0
1005
12F1DC
  0
CIRCLE
  5
12F1DD
  8
OBJECT
 10
3000.0
 20
-3174.9999999999959
 30
0.0
 40
65.0
1001
ACDBBLOCKREPETAG
1070
     1
1071
        1
1005
12F1DD
  0
CIRCLE
  5
12F1DE
  8
OBJECT
 10
3000.0
 20
-3174.9999999999959
 30
0.0
 40
50.5
1001
ACDBBLOCKREPETAG
1070
     1
1071
        3
1005
12F1DE
  0
LINE
  5
12F1DF
  8
OBJECT
 10
3070.0
 20
-3112.9999999999959
 30
0.0
 11
3019.5192212959441
 21
-3112.9999999999959
 31
0.0
1001
ACDBBLOCKREPETAG
1070
     1
1071
        4
1005
12F1DF
  0
LINE
  5
12F1E0
  8
OBJECT
 10
2930.0
 20
-3112.9999999999959
 30
0.0
 11
2980.4807787040581
 21
-3112.9999999999959
 31
0.0
1001
ACDBBLOCKREPETAG
1070
     1
1071
        5
1005
12F1E0
  0
LINE
  5
12F1E1
  8
OBJECT
 10
2930.0
 20
-3236.9999999999959
 30
0.0
 11
2938.0
 21
-3236.9999999999959
 31
0.0
1001
ACDBBLOCKREPETAG
1070
     1
1071
        6
1005
12F1E1
  0
LINE
  5
12F1E2
  8
OBJECT
 10
2938.0
 20
-3244.9999999999959
 30
0.0
 11
2938.0
 21
-3236.9999999999959
 31
0.0
1001
ACDBBLOCKREPETAG
1070
     1
1071
        7
1005
12F1E2
  0
LINE
  5
12F1E3
  8
OBJECT
 10
3070.0
 20
-3236.9999999999959
 30
0.0
 11
3062.0
 21
-3236.9999999999959
 31
0.0
1001
ACDBBLOCKREPETAG
1070
     1
1071
        8
1005
12F1E3
  0
LINE
  5
12F1E4
  8
OBJECT
 10
3062.0
 20
-3244.9999999999959
 30
0.0
 11
3062.0
 21
-3236.9999999999959
 31
0.0
1001
ACDBBLOCKREPETAG
1070
     1
1071
        9
1005
12F1E4
  0
LINE
  5
12F1E5
  8
CENTER
 10
2930.0
 20
-3174.9999999999959
 30
0.0
 11
3070.0
 21
-3174.9999999999959
 31
0.0
1001
ACDBBLOCKREPETAG
1070
     1
1071
       10
1005
12F1E5
  0
LINE
  5
12F1E6
  8
CENTER
 10
3000.0
 20
-3244.9999999999959
 30
0.0
 11
3000.0
 21
-3089.9999999999959
 31
0.0
1001
ACDBBLOCKREPETAG
1070
     1
1071
       11
1005
12F1E6
  0
LINE
  5
12F1E7
  8
OBJECT
 10
2954.0380592228739
 20
-3220.9619407771211
 30
0.0
 11
2938.0
 21
-3236.9999999999959
 31
0.0
1001
ACDBBLOCKREPETAG
1070
     1
1071
       42
1005
12F1E7
  0
LINE
  5
12F1E8
  8
OBJECT
 10
3045.9619407771261
 20
-3220.9619407771211
 30
0.0
 11
3062.0
 21
-3236.9999999999959
 31
0.0
1001
ACDBBLOCKREPETAG
1070
     1
1071
       43
1005
12F1E8
  0
POINT
  5
12F1E9
  8
DOTS
 10
3000.0
 20
-3174.9999999999959
 30
0.0
1001
ACDBBLOCKREPETAG
1070
     1
1071
      158
1005
12F1E9
  0
LINE
  5
12F1EA
  8
CENTER
 10
2400.0
 20
-3594.9999999999968
 30
0.0
 11
2400.0
 21
-3438.9999999999968
 31
0.0
1001
ACDBBLOCKREPETAG
1070
     1
1071
       13
1005
12F1EA
  0
LINE
  5
12F1EB
  8
OBJECT
 10
2330.0
 20
-3458.9999999999968
 30
0.0
 11
2465.0000101378168
 21
-3458.9999999999968
 31
0.0
1001
ACDBBLOCKREPETAG
1070
     1
1071
       14
1005
12F1EB
  0
LINE
  5
12F1EC
  8
OBJECT
 10
2335.0
 20
-3582.9999999999968
 30
0.0
 11
2330.0
 21
-3582.9999999999968
 31
0.0
1001
ACDBBLOCKREPETAG
1070
     1
1071
       18
1005
12F1EC
  0
LINE
  5
12F1ED
  8
OBJECT
 10
2465.0000101378168
 20
-3583.0000021659148
 30
0.0
 11
2465.0000101378168
 21
-3458.9999999999968
 31
0.0
1001
ACDBBLOCKREPETAG
1070
     1
1071
       21
1005
12F1ED
  0
ARC
  5
12F1EE
  8
OBJECT
 10
1964.961561005322
 20
-3823.6081368468249
 30
0.0
 40
519.48776673616965
 50
41.499473443784993
 51
44.576493325685597
1001
ACDBBLOCKREPETAG
1070
     1
1071
       22
1005
12F1EE
  0
ARC
  5
12F1EF
  8
OBJECT
 10
1964.961561005322
 20
-3218.3918631531692
 30
0.0
 40
519.48776673616965
 50
315.42350667431441
 51
318.50052655621488
1001
ACDBBLOCKREPETAG
1070
     1
1071
       23
1005
12F1EF
  0
LINE
  5
12F1F0
  8
OBJECT
 10
2447.5
 20
-3453.9999999999968
 30
0.0
 11
2352.5
 21
-3453.9999999999968
 31
0.0
1001
ACDBBLOCKREPETAG
1070
     1
1071
       29
1005
12F1F0
  0
ARC
  5
12F1F1
  8
OBJECT
 10
2352.5
 20
-3456.9999999999968
 30
0.0
 40
3.0
 50
90.0
 51
180.0
1001
ACDBBLOCKREPETAG
1070
     1
1071
       30
1005
12F1F1
  0
LINE
  5
12F1F2
  8
OBJECT
 10
2349.5
 20
-3456.9999999999968
 30
0.0
 11
2349.5
 21
-3458.9999999999968
 31
0.0
1001
ACDBBLOCKREPETAG
1070
     1
1071
       31
1005
12F1F2
  0
LINE
  5
12F1F3
  8
OBJECT
 10
2450.5
 20
-3456.9999999999968
 30
0.0
 11
2450.5
 21
-3458.9999999999968
 31
0.0
1001
ACDBBLOCKREPETAG
1070
     1
1071
       32
1005
12F1F3
  0
ARC
  5
12F1F4
  8
OBJECT
 10
2447.5
 20
-3456.9999999999968
 30
0.0
 40
3.0
 50
0.0
 51
90.0
1001
ACDBBLOCKREPETAG
1070
     1
1071
       33
1005
12F1F4
  0
POINT
  5
12F1F5
  8
DOTS
 10
2400.0
 20
-3579.9999999999968
 30
0.0
1001
ACDBBLOCKREPETAG
1070
     1
1071
       88
1005
12F1F5
  0
LINE
  5
12F1F6
  8
CENTER
 10
2000.0
 20
-3594.9999999999968
 30
0.0
 11
2000.0
 21
-3438.9999999999968
 31
0.0
1001
ACDBBLOCKREPETAG
1070
     1
1071
        0
1005
12F1F6
  0
LINE
  5
12F1F7
  8
OBJECT
 10
1929.9999999999991
 20
-3458.9999999999968
 30
0.0
 11
2070.0
 21
-3458.9999999999968
 31
0.0
1001
ACDBBLOCKREPETAG
1070
     1
1071
        1
1005
12F1F7
  0
LINE
  5
12F1F8
  8
OBJECT
 10
2070.0
 20
-3582.9999999999968
 30
0.0
 11
2064.9999999999991
 21
-3582.9999999999968
 31
0.0
1001
ACDBBLOCKREPETAG
1070
     1
1071
        5
1005
12F1F8
  0
LINE
  5
12F1F9
  8
OBJECT
 10
1935.0
 20
-3582.9999999999968
 30
0.0
 11
1929.9999999999991
 21
-3582.9999999999968
 31
0.0
1001
ACDBBLOCKREPETAG
1070
     1
1071
       91
1005
12F1F9
  0
ARC
  5
12F1FA
  8
OBJECT
 10
2435.0384389946771
 20
-3823.6081368468249
 30
0.0
 40
519.48776673616965
 50
135.42350667432351
 51
138.50052655621499
1001
ACDBBLOCKREPETAG
1070
     1
1071
        9
1005
12F1FA
  0
ARC
  5
12F1FB
  8
OBJECT
 10
2435.0384389946771
 20
-3218.3918631531692
 30
0.0
 40
519.48776673616965
 50
221.49947344378501
 51
224.57649332567649
1001
ACDBBLOCKREPETAG
1070
     1
1071
       10
1005
12F1FB
  0
ARC
  5
12F1FC
  8
OBJECT
 10
1564.961561005322
 20
-3823.6081368468249
 30
0.0
 40
519.48776673616965
 50
41.499473443784993
 51
44.576493325676452
1001
ACDBBLOCKREPETAG
1070
     1
1071
       11
1005
12F1FC
  0
ARC
  5
12F1FD
  8
OBJECT
 10
1564.961561005322
 20
-3218.3918631531692
 30
0.0
 40
519.48776673616965
 50
315.42350667432362
 51
318.50052655621488
1001
ACDBBLOCKREPETAG
1070
     1
1071
       12
1005
12F1FD
  0
LINE
  5
12F1FE
  8
OBJECT
 10
2047.4999999999991
 20
-3453.9999999999968
 30
0.0
 11
1952.4999999999991
 21
-3453.9999999999968
 31
0.0
1001
ACDBBLOCKREPETAG
1070
     1
1071
       24
1005
12F1FE
  0
ARC
  5
12F1FF
  8
OBJECT
 10
1952.4999999999991
 20
-3456.9999999999968
 30
0.0
 40
3.0
 50
90.0
 51
180.0
1001
ACDBBLOCKREPETAG
1070
     1
1071
       25
1005
12F1FF
  0
LINE
  5
12F200
  8
OBJECT
 10
1949.5
 20
-3456.9999999999968
 30
0.0
 11
1949.5
 21
-3458.9999999999968
 31
0.0
1001
ACDBBLOCKREPETAG
1070
     1
1071
       26
1005
12F200
  0
LINE
  5
12F201
  8
OBJECT
 10
2050.4999999999991
 20
-3456.9999999999968
 30
0.0
 11
2050.4999999999991
 21
-3458.9999999999968
 31
0.0
1001
ACDBBLOCKREPETAG
1070
     1
1071
       27
1005
12F201
  0
ARC
  5
12F202
  8
OBJECT
 10
2047.4999999999991
 20
-3456.9999999999968
 30
0.0
 40
3.0
 50
0.0
 51
90.0
1001
ACDBBLOCKREPETAG
1070
     1
1071
       28
1005
12F202
  0
POINT
  5
12F203
  8
DOTS
 10
2000.0
 20
-3579.9999999999968
 30
0.0
1001
ACDBBLOCKREPETAG
1070
     1
1071
       87
1005
12F203
  0
ARC
  5
12F204
  8
OBJECT
 10
2000.0
 20
-3174.9999999999959
 30
0.0
 40
70.0
 50
62.339550100752639
 51
117.6604498992473
1001
ACDBBLOCKREPETAG
1070
     1
1071
        0
1005
12F204
  0
CIRCLE
  5
12F205
  8
OBJECT
 10
2000.0
 20
-3174.9999999999959
 30
0.0
 40
65.0
1001
ACDBBLOCKREPETAG
1070
     1
1071
        1
1005
12F205
  0
CIRCLE
  5
12F206
  8
OBJECT
 10
2000.0
 20
-3174.9999999999959
 30
0.0
 40
50.5
1001
ACDBBLOCKREPETAG
1070
     1
1071
        3
1005
12F206
  0
LINE
  5
12F207
  8
OBJECT
 10
2070.0
 20
-3112.9999999999959
 30
0.0
 11
2019.519221295943
 21
-3112.9999999999959
 31
0.0
1001
ACDBBLOCKREPETAG
1070
     1
1071
        4
1005
12F207
  0
LINE
  5
12F208
  8
OBJECT
 10
1929.9999999999991
 20
-3112.9999999999959
 30
0.0
 11
1980.4807787040561
 21
-3112.9999999999959
 31
0.0
1001
ACDBBLOCKREPETAG
1070
     1
1071
        5
1005
12F208
  0
LINE
  5
12F209
  8
OBJECT
 10
1929.9999999999991
 20
-3236.9999999999959
 30
0.0
 11
1938.0
 21
-3236.9999999999959
 31
0.0
1001
ACDBBLOCKREPETAG
1070
     1
1071
        6
1005
12F209
  0
LINE
  5
12F20A
  8
OBJECT
 10
1938.0
 20
-3244.9999999999959
 30
0.0
 11
1938.0
 21
-3236.9999999999959
 31
0.0
1001
ACDBBLOCKREPETAG
1070
     1
1071
        7
1005
12F20A
  0
LINE
  5
12F20B
  8
OBJECT
 10
2070.0
 20
-3236.9999999999959
 30
0.0
 11
2062.0
 21
-3236.9999999999959
 31
0.0
1001
ACDBBLOCKREPETAG
1070
     1
1071
        8
1005
12F20B
  0
LINE
  5
12F20C
  8
OBJECT
 10
2062.0
 20
-3244.9999999999959
 30
0.0
 11
2062.0
 21
-3236.9999999999959
 31
0.0
1001
ACDBBLOCKREPETAG
1070
     1
1071
        9
1005
12F20C
  0
LINE
  5
12F20D
  8
CENTER
 10
1929.9999999999991
 20
-3174.9999999999959
 30
0.0
 11
2070.0
 21
-3174.9999999999959
 31
0.0
1001
ACDBBLOCKREPETAG
1070
     1
1071
       10
1005
12F20D
  0
LINE
  5
12F20E
  8
CENTER
 10
2000.0
 20
-3244.9999999999959
 30
0.0
 11
2000.0
 21
-3089.9999999999959
 31
0.0
1001
ACDBBLOCKREPETAG
1070
     1
1071
       11
1005
12F20E
  0
LINE
  5
12F20F
  8
OBJECT
 10
1954.038059222873
 20
-3220.9619407771211
 30
0.0
 11
1938.0
 21
-3236.9999999999959
 31
0.0
1001
ACDBBLOCKREPETAG
1070
     1
1071
       42
1005
12F20F
  0
LINE
  5
12F210
  8
OBJECT
 10
2045.9619407771249
 20
-3220.9619407771211
 30
0.0
 11
2062.0
 21
-3236.9999999999959
 31
0.0
1001
ACDBBLOCKREPETAG
1070
     1
1071
       43
1005
12F210
  0
POINT
  5
12F211
  8
DOTS
 10
2000.0
 20
-3174.9999999999959
 30
0.0
1001
ACDBBLOCKREPETAG
1070
     1
1071
      158
1005
12F211
  0
ARC
  5
12F212
  8
OBJECT
 10
2000.0
 20
-199.99999999999909
 30
0.0
 40
70.0
 50
62.339550100758693
 51
117.6604498992413
1001
ACDBBLOCKREPETAG
1070
     1
1071
        0
1005
12F212
  0
CIRCLE
  5
12F213
  8
OBJECT
 10
2000.0
 20
-199.99999999999909
 30
0.0
 40
65.0
1001
ACDBBLOCKREPETAG
1070
     1
1071
        1
1005
12F213
  0
CIRCLE
  5
12F214
  8
OBJECT
 10
2000.0
 20
-199.99999999999909
 30
0.0
 40
50.5
1001
ACDBBLOCKREPETAG
1070
     1
1071
        3
1005
12F214
  0
LINE
  5
12F215
  8
OBJECT
 10
2070.0
 20
-137.99999999999909
 30
0.0
 11
2019.5192212959439
 21
-137.99999999999909
 31
0.0
1001
ACDBBLOCKREPETAG
1070
     1
1071
        4
1005
12F215
  0
LINE
  5
12F216
  8
OBJECT
 10
1930.0
 20
-137.99999999999909
 30
0.0
 11
1980.480778704057
 21
-137.99999999999909
 31
0.0
1001
ACDBBLOCKREPETAG
1070
     1
1071
        5
1005
12F216
  0
LINE
  5
12F217
  8
OBJECT
 10
1930.0
 20
-261.99999999999909
 30
0.0
 11
1938.0
 21
-261.99999999999909
 31
0.0
1001
ACDBBLOCKREPETAG
1070
     1
1071
        6
1005
12F217
  0
LINE
  5
12F218
  8
OBJECT
 10
1938.0
 20
-269.99999999999909
 30
0.0
 11
1938.0
 21
-261.99999999999909
 31
0.0
1001
ACDBBLOCKREPETAG
1070
     1
1071
        7
1005
12F218
  0
LINE
  5
12F219
  8
OBJECT
 10
2070.0
 20
-261.99999999999909
 30
0.0
 11
2062.0
 21
-261.99999999999909
 31
0.0
1001
ACDBBLOCKREPETAG
1070
     1
1071
        8
1005
12F219
  0
LINE
  5
12F21A
  8
OBJECT
 10
2062.0
 20
-269.99999999999909
 30
0.0
 11
2062.0
 21
-261.99999999999909
 31
0.0
1001
ACDBBLOCKREPETAG
1070
     1
1071
        9
1005
12F21A
  0
LINE
  5
12F21B
  8
CENTER
 10
1930.0
 20
-199.99999999999909
 30
0.0
 11
2070.0
 21
-199.99999999999909
 31
0.0
1001
ACDBBLOCKREPETAG
1070
     1
1071
       10
1005
12F21B
  0
LINE
  5
12F21C
  8
CENTER
 10
2000.0
 20
-269.99999999999909
 30
0.0
 11
2000.0
 21
-114.9999999999991
 31
0.0
1001
ACDBBLOCKREPETAG
1070
     1
1071
       11
1005
12F21C
  0
LINE
  5
12F21D
  8
OBJECT
 10
1954.038059222873
 20
-245.96194077712471
 30
0.0
 11
1938.0
 21
-261.99999999999909
 31
0.0
1001
ACDBBLOCKREPETAG
1070
     1
1071
       42
1005
12F21D
  0
LINE
  5
12F21E
  8
OBJECT
 10
2045.9619407771261
 20
-245.96194077712471
 30
0.0
 11
2062.0
 21
-261.99999999999909
 31
0.0
1001
ACDBBLOCKREPETAG
1070
     1
1071
       43
1005
12F21E
  0
POINT
  5
12F21F
  8
DOTS
 10
2000.0
 20
-199.99999999999909
 30
0.0
1001
ACDBBLOCKREPETAG
1070
     1
1071
      158
1005
12F21F
  0
POLYLINE
  5
12F220
  8
HIDDEN
 66
     1
 10
0.0
 20
0.0
 30
0.0
 70
     1
1001
ACDBBLOCKREPETAG
1070
     1
1071
      105
1005
0
  0
VERTEX
  5
12F6DE
  8
HIDDEN
 10
359.99999999987818
 20
0.0000000000009095
 30
0.0
  0
VERTEX
  5
12F6DF
  8
HIDDEN
 10
719.99999999975626
 20
0.0000000000009095
 30
0.0
  0
VERTEX
  5
12F6E0
  8
HIDDEN
 10
719.99999999975626
 20
-463.99999999984078
 30
0.0
  0
VERTEX
  5
12F6E1
  8
HIDDEN
 10
359.99999999987818
 20
-463.99999999984078
 30
0.0
  0
SEQEND
  5
12F6E2
  8
HIDDEN
  0
POLYLINE
  5
12F221
  8
HIDDEN
 66
     1
 10
0.0
 20
0.0
 30
0.0
 70
     1
1001
ACDBBLOCKREPETAG
1070
     1
1071
      110
1005
0
  0
VERTEX
  5
12F6E3
  8
HIDDEN
 10
0.0
 20
0.0000000000009095
 30
0.0
  0
VERTEX
  5
12F6E4
  8
HIDDEN
 10
359.99999999987818
 20
0.0000000000009095
 30
0.0
  0
VERTEX
  5
12F6E5
  8
HIDDEN
 10
359.99999999987818
 20
-463.99999999984078
 30
0.0
  0
VERTEX
  5
12F6E6
  8
HIDDEN
 10
0.0
 20
-463.99999999984078
 30
0.0
  0
SEQEND
  5
12F6E7
  8
HIDDEN
  0
POLYLINE
  5
12F222
  8
HIDDEN
 66
     1
 10
0.0
 20
0.0
 30
0.0
 70
     1
1001
ACDBBLOCKREPETAG
1070
     1
1071
      125
1005
0
  0
VERTEX
  5
12F6E8
  8
HIDDEN
 10
0.0
 20
-463.99999999984078
 30
0.0
  0
VERTEX
  5
12F6E9
  8
HIDDEN
 10
359.99999999987818
 20
-463.99999999984078
 30
0.0
  0
VERTEX
  5
12F6EA
  8
HIDDEN
 10
359.99999999987818
 20
-927.99999999968247
 30
0.0
  0
VERTEX
  5
12F6EB
  8
HIDDEN
 10
0.0
 20
-927.99999999968247
 30
0.0
  0
SEQEND
  5
12F6EC
  8
HIDDEN
  0
TEXT
  5
12F223
  8
SLIM
 10
7824.6000000000022
 20
-1403.999999999998
 30
0.0
 40
28.0
  1
※ 対応スラブ厚　180～220
 41
0.75
  0
TEXT
  5
12F224
  8
SLIM
 10
7598.8999999999969
 20
-1497.333333333331
 30
0.0
 40
28.0
  1
国土交通大臣認定・（一財）日本消防設備安全センター性能評定取得品
 41
0.75
  0
TEXT
  5
12F225
  8
SLIM
 10
7631.1000000000004
 20
-1543.999999999998
 30
0.0
 40
28.0
  1
注）ご採用にあたり、認定書及び評定書の内容をご確認ください。
 41
0.75
  0
LINE
  5
12F226
  8
CENTER
 10
3909.0
 20
-3174.9999999999959
 30
0.0
 11
3930.0
 21
-3174.9999999999959
 31
0.0
1001
ACDBBLOCKREPETAG
1070
     1
1071
        0
1005
12F226
  0
LINE
  5
12F227
  8
OBJECT
 10
3926.9999999999991
 20
-3236.9999999999959
 30
0.0
 11
3930.0
 21
-3236.9999999999959
 31
0.0
1001
ACDBBLOCKREPETAG
1070
     1
1071
        1
1005
12F227
  0
ARC
  5
12F228
  8
OBJECT
 10
3926.9999999999991
 20
-3233.9999999999959
 30
0.0
 40
3.0
 50
180.0
 51
270.0
1001
ACDBBLOCKREPETAG
1070
     1
1071
        2
1005
12F228
  0
LINE
  5
12F229
  8
OBJECT
 10
3930.0
 20
-3112.9999999999959
 30
0.0
 11
3926.9999999999991
 21
-3112.9999999999959
 31
0.0
1001
ACDBBLOCKREPETAG
1070
     1
1071
        3
1005
12F229
  0
ARC
  5
12F22A
  8
OBJECT
 10
3926.9999999999991
 20
-3115.9999999999959
 30
0.0
 40
3.0
 50
90.0
 51
180.0
1001
ACDBBLOCKREPETAG
1070
     1
1071
        4
1005
12F22A
  0
LINE
  5
12F22B
  8
OBJECT
 10
3923.9999999999991
 20
-3115.9999999999959
 30
0.0
 11
3923.9999999999991
 21
-3233.9999999999959
 31
0.0
1001
ACDBBLOCKREPETAG
1070
     1
1071
        5
1005
12F22B
  0
LINE
  5
12F22C
  8
CENTER
 10
4000.0
 20
-3265.9999999999959
 30
0.0
 11
4000.0
 21
-3244.9999999999959
 31
0.0
1001
ACDBBLOCKREPETAG
1070
     1
1071
        0
1005
12F22C
  0
LINE
  5
12F22D
  8
OBJECT
 10
4062.0
 20
-3247.9999999999968
 30
0.0
 11
4062.0
 21
-3244.9999999999959
 31
0.0
1001
ACDBBLOCKREPETAG
1070
     1
1071
        1
1005
12F22D
  0
ARC
  5
12F22E
  8
OBJECT
 10
4059.0
 20
-3247.9999999999968
 30
0.0
 40
3.0
 50
270.0
 51
0.0
1001
ACDBBLOCKREPETAG
1070
     1
1071
        2
1005
12F22E
  0
LINE
  5
12F22F
  8
OBJECT
 10
3938.0
 20
-3244.9999999999959
 30
0.0
 11
3938.0
 21
-3247.999999999995
 31
0.0
1001
ACDBBLOCKREPETAG
1070
     1
1071
        3
1005
12F22F
  0
ARC
  5
12F230
  8
OBJECT
 10
3941.0
 20
-3247.999999999995
 30
0.0
 40
3.0
 50
180.0
 51
270.0
1001
ACDBBLOCKREPETAG
1070
     1
1071
        4
1005
12F230
  0
LINE
  5
12F231
  8
OBJECT
 10
3941.0
 20
-3250.999999999995
 30
0.0
 11
4059.0
 21
-3250.9999999999968
 31
0.0
1001
ACDBBLOCKREPETAG
1070
     1
1071
        5
1005
12F231
  0
LINE
  5
12F232
  8
OBJECT
 10
4123.0
 20
-3112.9999999999959
 30
0.0
 11
4130.0
 21
-3112.9999999999959
 31
0.0
1001
ACDBBLOCKREPETAG
1070
     1
1071
       47
1005
12F232
  0
LINE
  5
12F233
  8
OBJECT
 10
4130.0
 20
-3112.9999999999959
 30
0.0
 11
4130.0
 21
-3236.9999999999959
 31
0.0
1001
ACDBBLOCKREPETAG
1070
     1
1071
       48
1005
12F233
  0
LINE
  5
12F234
  8
OBJECT
 10
4130.0
 20
-3236.9999999999959
 30
0.0
 11
4123.0
 21
-3236.9999999999959
 31
0.0
1001
ACDBBLOCKREPETAG
1070
     1
1071
       49
1005
12F234
  0
LINE
  5
12F235
  8
OBJECT
 10
4123.0
 20
-3236.9999999999959
 30
0.0
 11
4123.0
 21
-3112.9999999999959
 31
0.0
1001
ACDBBLOCKREPETAG
1070
     1
1071
       50
1005
12F235
  0
LINE
  5
12F236
  8
CENTER
 10
4145.0
 20
-3174.9999999999959
 30
0.0
 11
4069.9999999999991
 21
-3174.9999999999959
 31
0.0
1001
ACDBBLOCKREPETAG
1070
     1
1071
       51
1005
12F236
  0
LINE
  5
12F237
  8
OBJECT
 10
4123.0
 20
-3115.9999999999959
 30
0.0
 11
4086.9999999999982
 21
-3115.9999999999959
 31
0.0
1001
ACDBBLOCKREPETAG
1070
     1
1071
       52
1005
12F237
  0
LINE
  5
12F238
  8
OBJECT
 10
4086.9999999999982
 20
-3115.9999999999959
 30
0.0
 11
4086.9999999999982
 21
-3233.9999999999959
 31
0.0
1001
ACDBBLOCKREPETAG
1070
     1
1071
       53
1005
12F238
  0
LINE
  5
12F239
  8
OBJECT
 10
4086.9999999999982
 20
-3233.9999999999959
 30
0.0
 11
4123.0
 21
-3233.9999999999959
 31
0.0
1001
ACDBBLOCKREPETAG
1070
     1
1071
       54
1005
12F239
  0
LINE
  5
12F23A
  8
OBJECT
 10
4083.0
 20
-3120.4999999999959
 30
0.0
 11
4075.9999999999982
 21
-3120.4999999999959
 31
0.0
1001
ACDBBLOCKREPETAG
1070
     1
1071
       55
1005
12F23A
  0
LINE
  5
12F23B
  8
OBJECT
 10
4075.9999999999982
 20
-3229.4999999999959
 30
0.0
 11
4083.0
 21
-3229.4999999999959
 31
0.0
1001
ACDBBLOCKREPETAG
1070
     1
1071
       56
1005
12F23B
  0
LINE
  5
12F23C
  8
OBJECT
 10
4083.0
 20
-3229.4999999999959
 30
0.0
 11
4083.0
 21
-3120.4999999999959
 31
0.0
1001
ACDBBLOCKREPETAG
1070
     1
1071
       57
1005
12F23C
  0
LINE
  5
12F23D
  8
OBJECT
 10
4086.9999999999982
 20
-3115.9999999999959
 30
0.0
 11
4083.0
 21
-3120.4999999999959
 31
0.0
1001
ACDBBLOCKREPETAG
1070
     1
1071
       58
1005
12F23D
  0
LINE
  5
12F23E
  8
OBJECT
 10
4086.9999999999982
 20
-3233.9999999999959
 30
0.0
 11
4083.0
 21
-3229.4999999999959
 31
0.0
1001
ACDBBLOCKREPETAG
1070
     1
1071
       59
1005
12F23E
  0
LINE
  5
12F23F
  8
OBJECT
 10
4072.9999999999991
 20
-3112.9999999999959
 30
0.0
 11
4069.9999999999991
 21
-3112.9999999999959
 31
0.0
1001
ACDBBLOCKREPETAG
1070
     1
1071
       60
1005
12F23F
  0
ARC
  5
12F240
  8
OBJECT
 10
4072.9999999999991
 20
-3115.9999999999959
 30
0.0
 40
3.0
 50
0.0
 51
90.0
1001
ACDBBLOCKREPETAG
1070
     1
1071
       61
1005
12F240
  0
LINE
  5
12F241
  8
OBJECT
 10
4069.9999999999991
 20
-3236.9999999999959
 30
0.0
 11
4072.9999999999991
 21
-3236.9999999999959
 31
0.0
1001
ACDBBLOCKREPETAG
1070
     1
1071
       62
1005
12F241
  0
ARC
  5
12F242
  8
OBJECT
 10
4072.9999999999991
 20
-3233.9999999999959
 30
0.0
 40
3.0
 50
270.0
 51
0.0
1001
ACDBBLOCKREPETAG
1070
     1
1071
       63
1005
12F242
  0
LINE
  5
12F243
  8
OBJECT
 10
4075.9999999999982
 20
-3233.9999999999959
 30
0.0
 11
4075.9999999999982
 21
-3115.9999999999959
 31
0.0
1001
ACDBBLOCKREPETAG
1070
     1
1071
       64
1005
12F243
  0
LINE
  5
12F244
  8
HIDDEN
 10
4077.9999999999982
 20
-3130.4999999999959
 30
0.0
 11
4077.9999999999982
 21
-3219.4999999999959
 31
0.0
1001
ACDBBLOCKREPETAG
1070
     1
1071
       65
1005
12F244
  0
LINE
  5
12F245
  8
CENTER
 10
2909.0
 20
-3174.9999999999959
 30
0.0
 11
2930.0
 21
-3174.9999999999959
 31
0.0
1001
ACDBBLOCKREPETAG
1070
     1
1071
        0
1005
12F245
  0
LINE
  5
12F246
  8
OBJECT
 10
2926.9999999999991
 20
-3236.9999999999959
 30
0.0
 11
2930.0
 21
-3236.9999999999959
 31
0.0
1001
ACDBBLOCKREPETAG
1070
     1
1071
        1
1005
12F246
  0
ARC
  5
12F247
  8
OBJECT
 10
2926.9999999999991
 20
-3233.9999999999959
 30
0.0
 40
3.0
 50
180.0
 51
270.0
1001
ACDBBLOCKREPETAG
1070
     1
1071
        2
1005
12F247
  0
LINE
  5
12F248
  8
OBJECT
 10
2930.0
 20
-3112.9999999999959
 30
0.0
 11
2926.9999999999991
 21
-3112.9999999999959
 31
0.0
1001
ACDBBLOCKREPETAG
1070
     1
1071
        3
1005
12F248
  0
ARC
  5
12F249
  8
OBJECT
 10
2926.9999999999991
 20
-3115.9999999999959
 30
0.0
 40
3.0
 50
90.0
 51
180.0
1001
ACDBBLOCKREPETAG
1070
     1
1071
        4
1005
12F249
  0
LINE
  5
12F24A
  8
OBJECT
 10
2923.9999999999991
 20
-3115.9999999999959
 30
0.0
 11
2923.9999999999991
 21
-3233.9999999999959
 31
0.0
1001
ACDBBLOCKREPETAG
1070
     1
1071
        5
1005
12F24A
  0
LINE
  5
12F24B
  8
CENTER
 10
3000.0
 20
-3265.9999999999959
 30
0.0
 11
3000.0
 21
-3244.9999999999959
 31
0.0
1001
ACDBBLOCKREPETAG
1070
     1
1071
        0
1005
12F24B
  0
LINE
  5
12F24C
  8
OBJECT
 10
3062.0
 20
-3247.9999999999968
 30
0.0
 11
3062.0
 21
-3244.9999999999959
 31
0.0
1001
ACDBBLOCKREPETAG
1070
     1
1071
        1
1005
12F24C
  0
ARC
  5
12F24D
  8
OBJECT
 10
3059.0
 20
-3247.9999999999968
 30
0.0
 40
3.0
 50
270.0
 51
0.0
1001
ACDBBLOCKREPETAG
1070
     1
1071
        2
1005
12F24D
  0
LINE
  5
12F24E
  8
OBJECT
 10
2938.0
 20
-3244.9999999999959
 30
0.0
 11
2938.0
 21
-3247.999999999995
 31
0.0
1001
ACDBBLOCKREPETAG
1070
     1
1071
        3
1005
12F24E
  0
ARC
  5
12F24F
  8
OBJECT
 10
2941.0
 20
-3247.999999999995
 30
0.0
 40
3.0
 50
180.0
 51
270.0
1001
ACDBBLOCKREPETAG
1070
     1
1071
        4
1005
12F24F
  0
LINE
  5
12F250
  8
OBJECT
 10
2941.0
 20
-3250.999999999995
 30
0.0
 11
3059.0
 21
-3250.9999999999968
 31
0.0
1001
ACDBBLOCKREPETAG
1070
     1
1071
        5
1005
12F250
  0
LINE
  5
12F251
  8
OBJECT
 10
3123.0
 20
-3119.9999999999959
 30
0.0
 11
3130.0
 21
-3119.9999999999959
 31
0.0
1001
ACDBBLOCKREPETAG
1070
     1
1071
       27
1005
12F251
  0
LINE
  5
12F252
  8
OBJECT
 10
3130.0
 20
-3119.9999999999959
 30
0.0
 11
3130.0
 21
-3229.9999999999959
 31
0.0
1001
ACDBBLOCKREPETAG
1070
     1
1071
       28
1005
12F252
  0
LINE
  5
12F253
  8
OBJECT
 10
3130.0
 20
-3229.9999999999959
 30
0.0
 11
3123.0
 21
-3229.9999999999959
 31
0.0
1001
ACDBBLOCKREPETAG
1070
     1
1071
       29
1005
12F253
  0
LINE
  5
12F254
  8
OBJECT
 10
3123.0
 20
-3229.9999999999959
 30
0.0
 11
3123.0
 21
-3119.9999999999959
 31
0.0
1001
ACDBBLOCKREPETAG
1070
     1
1071
       30
1005
12F254
  0
LINE
  5
12F255
  8
CENTER
 10
3145.0
 20
-3174.9999999999959
 30
0.0
 11
3070.0
 21
-3174.9999999999959
 31
0.0
1001
ACDBBLOCKREPETAG
1070
     1
1071
       31
1005
12F255
  0
LINE
  5
12F256
  8
OBJECT
 10
3123.0
 20
-3122.9999999999959
 30
0.0
 11
3087.0
 21
-3122.9999999999959
 31
0.0
1001
ACDBBLOCKREPETAG
1070
     1
1071
       32
1005
12F256
  0
LINE
  5
12F257
  8
OBJECT
 10
3087.0
 20
-3122.9999999999959
 30
0.0
 11
3087.0
 21
-3226.9999999999959
 31
0.0
1001
ACDBBLOCKREPETAG
1070
     1
1071
       33
1005
12F257
  0
LINE
  5
12F258
  8
OBJECT
 10
3087.0
 20
-3226.9999999999959
 30
0.0
 11
3123.0
 21
-3226.9999999999959
 31
0.0
1001
ACDBBLOCKREPETAG
1070
     1
1071
       34
1005
12F258
  0
LINE
  5
12F259
  8
OBJECT
 10
3083.0
 20
-3127.4999999999959
 30
0.0
 11
3076.0
 21
-3127.4999999999959
 31
0.0
1001
ACDBBLOCKREPETAG
1070
     1
1071
       35
1005
12F259
  0
LINE
  5
12F25A
  8
OBJECT
 10
3076.0
 20
-3222.4999999999959
 30
0.0
 11
3083.0
 21
-3222.4999999999959
 31
0.0
1001
ACDBBLOCKREPETAG
1070
     1
1071
       36
1005
12F25A
  0
LINE
  5
12F25B
  8
OBJECT
 10
3083.0
 20
-3222.4999999999959
 30
0.0
 11
3083.0
 21
-3127.4999999999959
 31
0.0
1001
ACDBBLOCKREPETAG
1070
     1
1071
       37
1005
12F25B
  0
LINE
  5
12F25C
  8
OBJECT
 10
3087.0
 20
-3122.9999999999959
 30
0.0
 11
3083.0
 21
-3127.4999999999959
 31
0.0
1001
ACDBBLOCKREPETAG
1070
     1
1071
       38
1005
12F25C
  0
LINE
  5
12F25D
  8
OBJECT
 10
3087.0
 20
-3226.9999999999959
 30
0.0
 11
3083.0
 21
-3222.4999999999959
 31
0.0
1001
ACDBBLOCKREPETAG
1070
     1
1071
       39
1005
12F25D
  0
LINE
  5
12F25E
  8
OBJECT
 10
3073.0
 20
-3112.9999999999959
 30
0.0
 11
3070.0
 21
-3112.9999999999959
 31
0.0
1001
ACDBBLOCKREPETAG
1070
     1
1071
       40
1005
12F25E
  0
ARC
  5
12F25F
  8
OBJECT
 10
3073.0
 20
-3115.9999999999959
 30
0.0
 40
3.0
 50
0.0
 51
90.0
1001
ACDBBLOCKREPETAG
1070
     1
1071
       41
1005
12F25F
  0
LINE
  5
12F260
  8
OBJECT
 10
3070.0
 20
-3236.9999999999959
 30
0.0
 11
3073.0
 21
-3236.9999999999959
 31
0.0
1001
ACDBBLOCKREPETAG
1070
     1
1071
       42
1005
12F260
  0
ARC
  5
12F261
  8
OBJECT
 10
3073.0
 20
-3233.9999999999959
 30
0.0
 40
3.0
 50
270.0
 51
0.0
1001
ACDBBLOCKREPETAG
1070
     1
1071
       43
1005
12F261
  0
LINE
  5
12F262
  8
OBJECT
 10
3076.0
 20
-3233.9999999999959
 30
0.0
 11
3076.0
 21
-3115.9999999999959
 31
0.0
1001
ACDBBLOCKREPETAG
1070
     1
1071
       44
1005
12F262
  0
LINE
  5
12F263
  8
HIDDEN
 10
3078.0
 20
-3136.9999999999959
 30
0.0
 11
3078.0
 21
-3212.9999999999959
 31
0.0
1001
ACDBBLOCKREPETAG
1070
     1
1071
       45
1005
12F263
  0
LINE
  5
12F264
  8
CENTER
 10
1908.9999999999991
 20
-3174.9999999999959
 30
0.0
 11
1929.9999999999991
 21
-3174.9999999999959
 31
0.0
1001
ACDBBLOCKREPETAG
1070
     1
1071
        0
1005
12F264
  0
LINE
  5
12F265
  8
OBJECT
 10
1926.9999999999991
 20
-3236.9999999999959
 30
0.0
 11
1929.9999999999991
 21
-3236.9999999999959
 31
0.0
1001
ACDBBLOCKREPETAG
1070
     1
1071
        1
1005
12F265
  0
ARC
  5
12F266
  8
OBJECT
 10
1926.9999999999991
 20
-3233.9999999999959
 30
0.0
 40
3.0
 50
180.0
 51
270.0
1001
ACDBBLOCKREPETAG
1070
     1
1071
        2
1005
12F266
  0
LINE
  5
12F267
  8
OBJECT
 10
1929.9999999999991
 20
-3112.9999999999959
 30
0.0
 11
1926.9999999999991
 21
-3112.9999999999959
 31
0.0
1001
ACDBBLOCKREPETAG
1070
     1
1071
        3
1005
12F267
  0
ARC
  5
12F268
  8
OBJECT
 10
1926.9999999999991
 20
-3115.9999999999959
 30
0.0
 40
3.0
 50
90.0
 51
180.0
1001
ACDBBLOCKREPETAG
1070
     1
1071
        4
1005
12F268
  0
LINE
  5
12F269
  8
OBJECT
 10
1923.9999999999991
 20
-3115.9999999999959
 30
0.0
 11
1923.9999999999991
 21
-3233.9999999999959
 31
0.0
1001
ACDBBLOCKREPETAG
1070
     1
1071
        5
1005
12F269
  0
LINE
  5
12F26A
  8
CENTER
 10
2000.0
 20
-3265.9999999999959
 30
0.0
 11
2000.0
 21
-3244.9999999999959
 31
0.0
1001
ACDBBLOCKREPETAG
1070
     1
1071
        0
1005
12F26A
  0
LINE
  5
12F26B
  8
OBJECT
 10
2062.0
 20
-3247.9999999999968
 30
0.0
 11
2062.0
 21
-3244.9999999999959
 31
0.0
1001
ACDBBLOCKREPETAG
1070
     1
1071
        1
1005
12F26B
  0
ARC
  5
12F26C
  8
OBJECT
 10
2059.0
 20
-3247.9999999999968
 30
0.0
 40
3.0
 50
270.0
 51
0.0
1001
ACDBBLOCKREPETAG
1070
     1
1071
        2
1005
12F26C
  0
LINE
  5
12F26D
  8
OBJECT
 10
1937.9999999999991
 20
-3244.9999999999959
 30
0.0
 11
1937.9999999999991
 21
-3247.999999999995
 31
0.0
1001
ACDBBLOCKREPETAG
1070
     1
1071
        3
1005
12F26D
  0
ARC
  5
12F26E
  8
OBJECT
 10
1941.0
 20
-3247.999999999995
 30
0.0
 40
3.0
 50
180.0
 51
270.0
1001
ACDBBLOCKREPETAG
1070
     1
1071
        4
1005
12F26E
  0
LINE
  5
12F26F
  8
OBJECT
 10
1941.0
 20
-3250.999999999995
 30
0.0
 11
2059.0
 21
-3250.9999999999968
 31
0.0
1001
ACDBBLOCKREPETAG
1070
     1
1071
        5
1005
12F26F
  0
LINE
  5
12F270
  8
OBJECT
 10
2123.0
 20
-3127.9999999999959
 30
0.0
 11
2130.0
 21
-3127.9999999999959
 31
0.0
1001
ACDBBLOCKREPETAG
1070
     1
1071
        7
1005
12F270
  0
LINE
  5
12F271
  8
OBJECT
 10
2130.0
 20
-3127.9999999999959
 30
0.0
 11
2130.0
 21
-3221.9999999999959
 31
0.0
1001
ACDBBLOCKREPETAG
1070
     1
1071
        8
1005
12F271
  0
LINE
  5
12F272
  8
OBJECT
 10
2130.0
 20
-3221.9999999999959
 30
0.0
 11
2123.0
 21
-3221.9999999999959
 31
0.0
1001
ACDBBLOCKREPETAG
1070
     1
1071
        9
1005
12F272
  0
LINE
  5
12F273
  8
OBJECT
 10
2123.0
 20
-3221.9999999999959
 30
0.0
 11
2123.0
 21
-3127.9999999999959
 31
0.0
1001
ACDBBLOCKREPETAG
1070
     1
1071
       10
1005
12F273
  0
LINE
  5
12F274
  8
CENTER
 10
2145.0
 20
-3174.9999999999959
 30
0.0
 11
2070.0
 21
-3174.9999999999959
 31
0.0
1001
ACDBBLOCKREPETAG
1070
     1
1071
       11
1005
12F274
  0
LINE
  5
12F275
  8
OBJECT
 10
2123.0
 20
-3130.9999999999959
 30
0.0
 11
2087.0
 21
-3130.9999999999959
 31
0.0
1001
ACDBBLOCKREPETAG
1070
     1
1071
       12
1005
12F275
  0
LINE
  5
12F276
  8
OBJECT
 10
2087.0
 20
-3130.9999999999959
 30
0.0
 11
2087.0
 21
-3218.9999999999959
 31
0.0
1001
ACDBBLOCKREPETAG
1070
     1
1071
       13
1005
12F276
  0
LINE
  5
12F277
  8
OBJECT
 10
2087.0
 20
-3218.9999999999959
 30
0.0
 11
2123.0
 21
-3218.9999999999959
 31
0.0
1001
ACDBBLOCKREPETAG
1070
     1
1071
       14
1005
12F277
  0
LINE
  5
12F278
  8
OBJECT
 10
2083.0
 20
-3135.4999999999959
 30
0.0
 11
2076.0
 21
-3135.4999999999959
 31
0.0
1001
ACDBBLOCKREPETAG
1070
     1
1071
       15
1005
12F278
  0
LINE
  5
12F279
  8
OBJECT
 10
2076.0
 20
-3214.4999999999959
 30
0.0
 11
2083.0
 21
-3214.4999999999959
 31
0.0
1001
ACDBBLOCKREPETAG
1070
     1
1071
       16
1005
12F279
  0
LINE
  5
12F27A
  8
OBJECT
 10
2083.0
 20
-3214.4999999999959
 30
0.0
 11
2083.0
 21
-3135.4999999999959
 31
0.0
1001
ACDBBLOCKREPETAG
1070
     1
1071
       17
1005
12F27A
  0
LINE
  5
12F27B
  8
OBJECT
 10
2087.0
 20
-3130.9999999999959
 30
0.0
 11
2083.0
 21
-3135.4999999999959
 31
0.0
1001
ACDBBLOCKREPETAG
1070
     1
1071
       18
1005
12F27B
  0
LINE
  5
12F27C
  8
OBJECT
 10
2087.0
 20
-3218.9999999999959
 30
0.0
 11
2083.0
 21
-3214.4999999999959
 31
0.0
1001
ACDBBLOCKREPETAG
1070
     1
1071
       19
1005
12F27C
  0
LINE
  5
12F27D
  8
OBJECT
 10
2073.0
 20
-3112.9999999999959
 30
0.0
 11
2070.0
 21
-3112.9999999999959
 31
0.0
1001
ACDBBLOCKREPETAG
1070
     1
1071
       20
1005
12F27D
  0
ARC
  5
12F27E
  8
OBJECT
 10
2073.0
 20
-3115.9999999999959
 30
0.0
 40
3.0
 50
0.0
 51
90.0
1001
ACDBBLOCKREPETAG
1070
     1
1071
       21
1005
12F27E
  0
LINE
  5
12F27F
  8
OBJECT
 10
2070.0
 20
-3236.9999999999959
 30
0.0
 11
2073.0
 21
-3236.9999999999959
 31
0.0
1001
ACDBBLOCKREPETAG
1070
     1
1071
       22
1005
12F27F
  0
ARC
  5
12F280
  8
OBJECT
 10
2073.0
 20
-3233.9999999999959
 30
0.0
 40
3.0
 50
270.0
 51
0.0
1001
ACDBBLOCKREPETAG
1070
     1
1071
       23
1005
12F280
  0
LINE
  5
12F281
  8
OBJECT
 10
2076.0
 20
-3233.9999999999959
 30
0.0
 11
2076.0
 21
-3115.9999999999959
 31
0.0
1001
ACDBBLOCKREPETAG
1070
     1
1071
       24
1005
12F281
  0
LINE
  5
12F282
  8
HIDDEN
 10
2078.0
 20
-3144.9999999999959
 30
0.0
 11
2078.0
 21
-3204.9999999999959
 31
0.0
1001
ACDBBLOCKREPETAG
1070
     1
1071
       25
1005
12F282
  0
LINE
  5
12F283
  8
OBJECT
 10
4327.0
 20
-3458.9999999999959
 30
0.0
 11
4330.0
 21
-3458.9999999999959
 31
0.0
1001
ACDBBLOCKREPETAG
1070
     1
1071
        1
1005
12F283
  0
ARC
  5
12F284
  8
OBJECT
 10
4327.0
 20
-3461.9999999999959
 30
0.0
 40
3.0
 50
90.0
 51
180.0
1001
ACDBBLOCKREPETAG
1070
     1
1071
        2
1005
12F284
  0
LINE
  5
12F285
  8
OBJECT
 10
4330.0
 20
-3582.9999999999968
 30
0.0
 11
4327.0
 21
-3582.9999999999968
 31
0.0
1001
ACDBBLOCKREPETAG
1070
     1
1071
        3
1005
12F285
  0
ARC
  5
12F286
  8
OBJECT
 10
4327.0
 20
-3579.9999999999959
 30
0.0
 40
3.0
 50
180.0
 51
270.0
1001
ACDBBLOCKREPETAG
1070
     1
1071
        4
1005
12F286
  0
LINE
  5
12F287
  8
OBJECT
 10
4324.0
 20
-3579.9999999999959
 30
0.0
 11
4324.0
 21
-3461.9999999999959
 31
0.0
1001
ACDBBLOCKREPETAG
1070
     1
1071
        5
1005
12F287
  0
LINE
  5
12F288
  8
OBJECT
 10
3927.0
 20
-3458.9999999999959
 30
0.0
 11
3930.0
 21
-3458.9999999999959
 31
0.0
1001
ACDBBLOCKREPETAG
1070
     1
1071
        1
1005
12F288
  0
ARC
  5
12F289
  8
OBJECT
 10
3927.0
 20
-3461.9999999999959
 30
0.0
 40
3.0
 50
90.0
 51
180.0
1001
ACDBBLOCKREPETAG
1070
     1
1071
        2
1005
12F289
  0
LINE
  5
12F28A
  8
OBJECT
 10
3930.0
 20
-3582.9999999999968
 30
0.0
 11
3927.0
 21
-3582.9999999999968
 31
0.0
1001
ACDBBLOCKREPETAG
1070
     1
1071
        3
1005
12F28A
  0
ARC
  5
12F28B
  8
OBJECT
 10
3927.0
 20
-3579.9999999999959
 30
0.0
 40
3.0
 50
180.0
 51
270.0
1001
ACDBBLOCKREPETAG
1070
     1
1071
        4
1005
12F28B
  0
LINE
  5
12F28C
  8
OBJECT
 10
3924.0
 20
-3579.9999999999959
 30
0.0
 11
3924.0
 21
-3461.9999999999959
 31
0.0
1001
ACDBBLOCKREPETAG
1070
     1
1071
        5
1005
12F28C
  0
CIRCLE
  5
12F28D
  8
OBJECT
 10
4000.0
 20
-3520.9999999999968
 30
0.0
 40
62.0
1001
ACDBBLOCKREPETAG
1070
     1
1071
        0
1005
12F28D
  0
LINE
  5
12F28E
  8
CENTER
 10
4477.0
 20
-3520.9999999999968
 30
0.0
 11
4323.0
 21
-3520.9999999999968
 31
0.0
1001
ACDBBLOCKREPETAG
1070
     1
1071
       17
1005
12F28E
  0
CIRCLE
  5
12F28F
  8
OBJECT
 10
4400.0
 20
-3520.9999999999968
 30
0.0
 40
41.5
1001
ACDBBLOCKREPETAG
1070
     1
1071
       19
1005
12F28F
  0
CIRCLE
  5
12F290
  8
OBJECT
 10
4400.0
 20
-3520.9999999999968
 30
0.0
 40
54.0
1001
ACDBBLOCKREPETAG
1070
     1
1071
       20
1005
12F290
  0
ARC
  5
12F291
  8
OBJECT
 10
4400.0
 20
-3520.9999999999968
 30
0.0
 40
62.0
 50
287.89655112921122
 51
252.1034488707887
1001
ACDBBLOCKREPETAG
1070
     1
1071
       21
1005
12F291
  0
LINE
  5
12F292
  8
OBJECT
 10
4380.947441116743
 20
-3579.9999999999968
 30
0.0
 11
4419.052558883257
 21
-3579.9999999999968
 31
0.0
1001
ACDBBLOCKREPETAG
1070
     1
1071
       22
1005
12F292
  0
LINE
  5
12F293
  8
OBJECT
 10
4123.0
 20
-3458.9999999999968
 30
0.0
 11
4130.0
 21
-3458.9999999999968
 31
0.0
1001
ACDBBLOCKREPETAG
1070
     1
1071
       45
1005
12F293
  0
LINE
  5
12F294
  8
OBJECT
 10
4130.0
 20
-3458.9999999999968
 30
0.0
 11
4130.0
 21
-3579.9999999999968
 31
0.0
1001
ACDBBLOCKREPETAG
1070
     1
1071
       46
1005
12F294
  0
LINE
  5
12F295
  8
OBJECT
 10
4123.0
 20
-3579.9999999999968
 30
0.0
 11
4123.0
 21
-3458.9999999999968
 31
0.0
1001
ACDBBLOCKREPETAG
1070
     1
1071
       47
1005
12F295
  0
LINE
  5
12F296
  8
CENTER
 10
4145.0
 20
-3520.9999999999968
 30
0.0
 11
4060.9999999999991
 21
-3520.9999999999968
 31
0.0
1001
ACDBBLOCKREPETAG
1070
     1
1071
       48
1005
12F296
  0
LINE
  5
12F297
  8
OBJECT
 10
4123.0
 20
-3461.9999999999968
 30
0.0
 11
4086.9999999999982
 21
-3461.9999999999968
 31
0.0
1001
ACDBBLOCKREPETAG
1070
     1
1071
       49
1005
12F297
  0
LINE
  5
12F298
  8
OBJECT
 10
4086.9999999999982
 20
-3461.9999999999968
 30
0.0
 11
4086.9999999999982
 21
-3579.9999999999968
 31
0.0
1001
ACDBBLOCKREPETAG
1070
     1
1071
       50
1005
12F298
  0
LINE
  5
12F299
  8
OBJECT
 10
4086.9999999999982
 20
-3579.9999999999968
 30
0.0
 11
4130.0
 21
-3579.9999999999968
 31
0.0
1001
ACDBBLOCKREPETAG
1070
     1
1071
       51
1005
12F299
  0
LINE
  5
12F29A
  8
OBJECT
 10
4083.0
 20
-3466.4999999999968
 30
0.0
 11
4075.9999999999982
 21
-3466.4999999999968
 31
0.0
1001
ACDBBLOCKREPETAG
1070
     1
1071
       52
1005
12F29A
  0
LINE
  5
12F29B
  8
OBJECT
 10
4075.9999999999982
 20
-3575.4999999999968
 30
0.0
 11
4083.0
 21
-3575.4999999999968
 31
0.0
1001
ACDBBLOCKREPETAG
1070
     1
1071
       53
1005
12F29B
  0
LINE
  5
12F29C
  8
OBJECT
 10
4083.0
 20
-3575.4999999999968
 30
0.0
 11
4083.0
 21
-3466.4999999999968
 31
0.0
1001
ACDBBLOCKREPETAG
1070
     1
1071
       54
1005
12F29C
  0
LINE
  5
12F29D
  8
OBJECT
 10
4086.9999999999982
 20
-3461.9999999999968
 30
0.0
 11
4083.0
 21
-3466.4999999999968
 31
0.0
1001
ACDBBLOCKREPETAG
1070
     1
1071
       55
1005
12F29D
  0
LINE
  5
12F29E
  8
OBJECT
 10
4086.9999999999982
 20
-3579.9999999999968
 30
0.0
 11
4083.0
 21
-3575.4999999999968
 31
0.0
1001
ACDBBLOCKREPETAG
1070
     1
1071
       56
1005
12F29E
  0
LINE
  5
12F29F
  8
OBJECT
 10
4072.9999999999991
 20
-3458.9999999999968
 30
0.0
 11
4069.9999999999991
 21
-3458.9999999999968
 31
0.0
1001
ACDBBLOCKREPETAG
1070
     1
1071
       57
1005
12F29F
  0
ARC
  5
12F2A0
  8
OBJECT
 10
4072.9999999999991
 20
-3461.9999999999968
 30
0.0
 40
3.0
 50
0.0
 51
90.0
1001
ACDBBLOCKREPETAG
1070
     1
1071
       58
1005
12F2A0
  0
LINE
  5
12F2A1
  8
OBJECT
 10
4069.9999999999991
 20
-3582.9999999999968
 30
0.0
 11
4072.9999999999991
 21
-3582.9999999999968
 31
0.0
1001
ACDBBLOCKREPETAG
1070
     1
1071
       59
1005
12F2A1
  0
ARC
  5
12F2A2
  8
OBJECT
 10
4072.9999999999991
 20
-3579.9999999999968
 30
0.0
 40
3.0
 50
270.0
 51
0.0
1001
ACDBBLOCKREPETAG
1070
     1
1071
       60
1005
12F2A2
  0
LINE
  5
12F2A3
  8
OBJECT
 10
4075.9999999999982
 20
-3579.9999999999968
 30
0.0
 11
4075.9999999999982
 21
-3461.9999999999968
 31
0.0
1001
ACDBBLOCKREPETAG
1070
     1
1071
       61
1005
12F2A3
  0
LINE
  5
12F2A4
  8
HIDDEN
 10
4077.9999999999982
 20
-3476.4999999999968
 30
0.0
 11
4077.9999999999982
 21
-3565.4999999999968
 31
0.0
1001
ACDBBLOCKREPETAG
1070
     1
1071
       63
1005
12F2A4
  0
LINE
  5
12F2A5
  8
OBJECT
 10
3327.0
 20
-3458.9999999999959
 30
0.0
 11
3330.0
 21
-3458.9999999999959
 31
0.0
1001
ACDBBLOCKREPETAG
1070
     1
1071
        1
1005
12F2A5
  0
ARC
  5
12F2A6
  8
OBJECT
 10
3327.0
 20
-3461.9999999999959
 30
0.0
 40
3.0
 50
90.0
 51
180.0
1001
ACDBBLOCKREPETAG
1070
     1
1071
        2
1005
12F2A6
  0
LINE
  5
12F2A7
  8
OBJECT
 10
3330.0
 20
-3582.9999999999968
 30
0.0
 11
3327.0
 21
-3582.9999999999968
 31
0.0
1001
ACDBBLOCKREPETAG
1070
     1
1071
        3
1005
12F2A7
  0
ARC
  5
12F2A8
  8
OBJECT
 10
3327.0
 20
-3579.9999999999959
 30
0.0
 40
3.0
 50
180.0
 51
270.0
1001
ACDBBLOCKREPETAG
1070
     1
1071
        4
1005
12F2A8
  0
LINE
  5
12F2A9
  8
OBJECT
 10
3324.0
 20
-3579.9999999999959
 30
0.0
 11
3324.0
 21
-3461.9999999999959
 31
0.0
1001
ACDBBLOCKREPETAG
1070
     1
1071
        5
1005
12F2A9
  0
LINE
  5
12F2AA
  8
OBJECT
 10
2927.0
 20
-3458.9999999999959
 30
0.0
 11
2930.0
 21
-3458.9999999999959
 31
0.0
1001
ACDBBLOCKREPETAG
1070
     1
1071
        1
1005
12F2AA
  0
ARC
  5
12F2AB
  8
OBJECT
 10
2927.0
 20
-3461.9999999999959
 30
0.0
 40
3.0
 50
90.0
 51
180.0
1001
ACDBBLOCKREPETAG
1070
     1
1071
        2
1005
12F2AB
  0
LINE
  5
12F2AC
  8
OBJECT
 10
2930.0
 20
-3582.9999999999968
 30
0.0
 11
2927.0
 21
-3582.9999999999968
 31
0.0
1001
ACDBBLOCKREPETAG
1070
     1
1071
        3
1005
12F2AC
  0
ARC
  5
12F2AD
  8
OBJECT
 10
2927.0
 20
-3579.9999999999959
 30
0.0
 40
3.0
 50
180.0
 51
270.0
1001
ACDBBLOCKREPETAG
1070
     1
1071
        4
1005
12F2AD
  0
LINE
  5
12F2AE
  8
OBJECT
 10
2924.0
 20
-3579.9999999999959
 30
0.0
 11
2924.0
 21
-3461.9999999999959
 31
0.0
1001
ACDBBLOCKREPETAG
1070
     1
1071
        5
1005
12F2AE
  0
CIRCLE
  5
12F2AF
  8
OBJECT
 10
3000.0
 20
-3520.9999999999968
 30
0.0
 40
62.0
1001
ACDBBLOCKREPETAG
1070
     1
1071
        0
1005
12F2AF
  0
CIRCLE
  5
12F2B0
  8
OBJECT
 10
3400.0
 20
-3527.9999999999968
 30
0.0
 40
35.5
1001
ACDBBLOCKREPETAG
1070
     1
1071
       10
1005
12F2B0
  0
CIRCLE
  5
12F2B1
  8
OBJECT
 10
3400.0
 20
-3520.9999999999968
 30
0.0
 40
62.0
1001
ACDBBLOCKREPETAG
1070
     1
1071
       11
1005
12F2B1
  0
LINE
  5
12F2B2
  8
CENTER
 10
3330.0
 20
-3527.9999999999968
 30
0.0
 11
3470.0
 21
-3527.9999999999968
 31
0.0
1001
ACDBBLOCKREPETAG
1070
     1
1071
       12
1005
12F2B2
  0
CIRCLE
  5
12F2B3
  8
OBJECT
 10
3400.0
 20
-3527.9999999999968
 30
0.0
 40
47.0
1001
ACDBBLOCKREPETAG
1070
     1
1071
       14
1005
12F2B3
  0
ARC
  5
12F2B4
  8
OBJECT
 10
3400.0
 20
-3527.9999999999968
 30
0.0
 40
55.0
 50
289.01126526011359
 51
250.98873473988641
1001
ACDBBLOCKREPETAG
1070
     1
1071
       15
1005
12F2B4
  0
LINE
  5
12F2B5
  8
OBJECT
 10
3382.0835271328328
 20
-3579.9999999999968
 30
0.0
 11
3417.9164728671681
 21
-3579.9999999999968
 31
0.0
1001
ACDBBLOCKREPETAG
1070
     1
1071
       16
1005
12F2B5
  0
LINE
  5
12F2B6
  8
OBJECT
 10
3123.0
 20
-3472.9999999999968
 30
0.0
 11
3130.0
 21
-3472.9999999999968
 31
0.0
1001
ACDBBLOCKREPETAG
1070
     1
1071
       26
1005
12F2B6
  0
LINE
  5
12F2B7
  8
OBJECT
 10
3130.0
 20
-3472.9999999999968
 30
0.0
 11
3130.0
 21
-3579.9999999999968
 31
0.0
1001
ACDBBLOCKREPETAG
1070
     1
1071
       27
1005
12F2B7
  0
LINE
  5
12F2B8
  8
OBJECT
 10
3123.0
 20
-3579.9999999999968
 30
0.0
 11
3123.0
 21
-3472.9999999999968
 31
0.0
1001
ACDBBLOCKREPETAG
1070
     1
1071
       28
1005
12F2B8
  0
LINE
  5
12F2B9
  8
CENTER
 10
3145.0
 20
-3527.9999999999968
 30
0.0
 11
3061.0
 21
-3527.9999999999968
 31
0.0
1001
ACDBBLOCKREPETAG
1070
     1
1071
       29
1005
12F2B9
  0
LINE
  5
12F2BA
  8
OBJECT
 10
3123.0
 20
-3475.9999999999968
 30
0.0
 11
3087.0
 21
-3475.9999999999968
 31
0.0
1001
ACDBBLOCKREPETAG
1070
     1
1071
       30
1005
12F2BA
  0
LINE
  5
12F2BB
  8
OBJECT
 10
3087.0
 20
-3475.9999999999968
 30
0.0
 11
3087.0
 21
-3579.9999999999968
 31
0.0
1001
ACDBBLOCKREPETAG
1070
     1
1071
       31
1005
12F2BB
  0
LINE
  5
12F2BC
  8
OBJECT
 10
3087.0
 20
-3579.9999999999968
 30
0.0
 11
3130.0
 21
-3579.9999999999968
 31
0.0
1001
ACDBBLOCKREPETAG
1070
     1
1071
       32
1005
12F2BC
  0
LINE
  5
12F2BD
  8
OBJECT
 10
3083.0
 20
-3480.4999999999968
 30
0.0
 11
3076.0
 21
-3480.4999999999968
 31
0.0
1001
ACDBBLOCKREPETAG
1070
     1
1071
       33
1005
12F2BD
  0
LINE
  5
12F2BE
  8
OBJECT
 10
3076.0
 20
-3575.4999999999968
 30
0.0
 11
3083.0
 21
-3575.4999999999968
 31
0.0
1001
ACDBBLOCKREPETAG
1070
     1
1071
       34
1005
12F2BE
  0
LINE
  5
12F2BF
  8
OBJECT
 10
3083.0
 20
-3575.4999999999968
 30
0.0
 11
3083.0
 21
-3480.4999999999968
 31
0.0
1001
ACDBBLOCKREPETAG
1070
     1
1071
       35
1005
12F2BF
  0
LINE
  5
12F2C0
  8
OBJECT
 10
3087.0
 20
-3475.9999999999968
 30
0.0
 11
3083.0
 21
-3480.4999999999968
 31
0.0
1001
ACDBBLOCKREPETAG
1070
     1
1071
       36
1005
12F2C0
  0
LINE
  5
12F2C1
  8
OBJECT
 10
3087.0
 20
-3579.9999999999968
 30
0.0
 11
3083.0
 21
-3575.4999999999968
 31
0.0
1001
ACDBBLOCKREPETAG
1070
     1
1071
       37
1005
12F2C1
  0
LINE
  5
12F2C2
  8
OBJECT
 10
3073.0
 20
-3458.9999999999968
 30
0.0
 11
3070.0
 21
-3458.9999999999968
 31
0.0
1001
ACDBBLOCKREPETAG
1070
     1
1071
       38
1005
12F2C2
  0
ARC
  5
12F2C3
  8
OBJECT
 10
3073.0
 20
-3461.9999999999968
 30
0.0
 40
3.0
 50
0.0
 51
90.0
1001
ACDBBLOCKREPETAG
1070
     1
1071
       39
1005
12F2C3
  0
LINE
  5
12F2C4
  8
OBJECT
 10
3070.0
 20
-3582.9999999999968
 30
0.0
 11
3073.0
 21
-3582.9999999999968
 31
0.0
1001
ACDBBLOCKREPETAG
1070
     1
1071
       40
1005
12F2C4
  0
ARC
  5
12F2C5
  8
OBJECT
 10
3073.0
 20
-3579.9999999999968
 30
0.0
 40
3.0
 50
270.0
 51
0.0
1001
ACDBBLOCKREPETAG
1070
     1
1071
       41
1005
12F2C5
  0
LINE
  5
12F2C6
  8
OBJECT
 10
3076.0
 20
-3579.9999999999968
 30
0.0
 11
3076.0
 21
-3461.9999999999968
 31
0.0
1001
ACDBBLOCKREPETAG
1070
     1
1071
       42
1005
12F2C6
  0
LINE
  5
12F2C7
  8
HIDDEN
 10
3078.0
 20
-3489.9999999999968
 30
0.0
 11
3078.0
 21
-3565.9999999999968
 31
0.0
1001
ACDBBLOCKREPETAG
1070
     1
1071
       43
1005
12F2C7
  0
LINE
  5
12F2C8
  8
OBJECT
 10
2327.0
 20
-3458.9999999999959
 30
0.0
 11
2330.0
 21
-3458.9999999999959
 31
0.0
1001
ACDBBLOCKREPETAG
1070
     1
1071
        1
1005
12F2C8
  0
ARC
  5
12F2C9
  8
OBJECT
 10
2327.0
 20
-3461.9999999999959
 30
0.0
 40
3.0
 50
90.0
 51
180.0
1001
ACDBBLOCKREPETAG
1070
     1
1071
        2
1005
12F2C9
  0
LINE
  5
12F2CA
  8
OBJECT
 10
2330.0
 20
-3582.9999999999968
 30
0.0
 11
2327.0
 21
-3582.9999999999968
 31
0.0
1001
ACDBBLOCKREPETAG
1070
     1
1071
        3
1005
12F2CA
  0
ARC
  5
12F2CB
  8
OBJECT
 10
2327.0
 20
-3579.9999999999959
 30
0.0
 40
3.0
 50
180.0
 51
270.0
1001
ACDBBLOCKREPETAG
1070
     1
1071
        4
1005
12F2CB
  0
LINE
  5
12F2CC
  8
OBJECT
 10
2324.0
 20
-3579.9999999999959
 30
0.0
 11
2324.0
 21
-3461.9999999999959
 31
0.0
1001
ACDBBLOCKREPETAG
1070
     1
1071
        5
1005
12F2CC
  0
LINE
  5
12F2CD
  8
OBJECT
 10
1927.0
 20
-3458.9999999999959
 30
0.0
 11
1929.9999999999991
 21
-3458.9999999999959
 31
0.0
1001
ACDBBLOCKREPETAG
1070
     1
1071
        1
1005
12F2CD
  0
ARC
  5
12F2CE
  8
OBJECT
 10
1927.0
 20
-3461.9999999999959
 30
0.0
 40
3.0
 50
90.0
 51
180.0
1001
ACDBBLOCKREPETAG
1070
     1
1071
        2
1005
12F2CE
  0
LINE
  5
12F2CF
  8
OBJECT
 10
1929.9999999999991
 20
-3582.9999999999968
 30
0.0
 11
1927.0
 21
-3582.9999999999968
 31
0.0
1001
ACDBBLOCKREPETAG
1070
     1
1071
        3
1005
12F2CF
  0
ARC
  5
12F2D0
  8
OBJECT
 10
1927.0
 20
-3579.9999999999959
 30
0.0
 40
3.0
 50
180.0
 51
270.0
1001
ACDBBLOCKREPETAG
1070
     1
1071
        4
1005
12F2D0
  0
LINE
  5
12F2D1
  8
OBJECT
 10
1924.0
 20
-3579.9999999999959
 30
0.0
 11
1924.0
 21
-3461.9999999999959
 31
0.0
1001
ACDBBLOCKREPETAG
1070
     1
1071
        5
1005
12F2D1
  0
CIRCLE
  5
12F2D2
  8
OBJECT
 10
2000.0
 20
-3520.9999999999968
 30
0.0
 40
62.0
1001
ACDBBLOCKREPETAG
1070
     1
1071
        0
1005
12F2D2
  0
LINE
  5
12F2D3
  8
SLIM
 10
11925.0
 20
-755.19743878930785
 30
0.0
 11
11925.197438789301
 21
-754.99999999999955
 31
0.0
1001
ACAD
1010
0.0
1020
0.0
1030
0.0
1001
ACDBBLOCKREPETAG
1070
     1
1071
        1
1005
0
  0
LINE
  5
12F2D4
  8
SLIM
 10
11925.0
 20
-773.15795103144615
 30
0.0
 11
11943.15795103144
 21
-754.99999999999955
 31
0.0
1001
ACAD
1010
0.0
1020
0.0
1030
0.0
1001
ACDBBLOCKREPETAG
1070
     1
1071
       10
1005
12F2D4
  0
LINE
  5
12F2D5
  8
SLIM
 10
11925.0
 20
-791.11846327358455
 30
0.0
 11
11961.11846327358
 21
-754.99999999999955
 31
0.0
1001
ACAD
1010
0.0
1020
0.0
1030
0.0
1001
ACDBBLOCKREPETAG
1070
     1
1071
       11
1005
12F2D5
  0
LINE
  5
12F2D6
  8
SLIM
 10
11925.0
 20
-809.07897551572285
 30
0.0
 11
11979.07897551572
 21
-754.99999999999955
 31
0.0
1001
ACAD
1010
0.0
1020
0.0
1030
0.0
1001
ACDBBLOCKREPETAG
1070
     1
1071
       12
1005
12F2D6
  0
LINE
  5
12F2D7
  8
SLIM
 10
11925.0
 20
-827.03948775786125
 30
0.0
 11
11997.03948775786
 21
-754.99999999999955
 31
0.0
1001
ACAD
1010
0.0
1020
0.0
1030
0.0
1001
ACDBBLOCKREPETAG
1070
     1
1071
       13
1005
12F2D7
  0
LINE
  5
12F2D8
  8
SLIM
 10
11925.0
 20
-844.99999999999955
 30
0.0
 11
12015.0
 21
-754.99999999999955
 31
0.0
1001
ACAD
1010
0.0
1020
0.0
1030
0.0
1001
ACDBBLOCKREPETAG
1070
     1
1071
       14
1005
12F2D8
  0
LINE
  5
12F2D9
  8
SLIM
 10
11925.0
 20
-862.96051224213795
 30
0.0
 11
12032.96051224214
 21
-754.99999999999955
 31
0.0
1001
ACAD
1010
0.0
1020
0.0
1030
0.0
1001
ACDBBLOCKREPETAG
1070
     1
1071
       15
1005
12F2D9
  0
LINE
  5
12F2DA
  8
SLIM
 10
11926.57043503541
 20
-879.35058944886373
 30
0.0
 11
12050.921024484271
 21
-754.99999999999955
 31
0.0
1001
ACAD
1010
0.0
1020
0.0
1030
0.0
1001
ACDBBLOCKREPETAG
1070
     1
1071
       16
1005
12F2DA
  0
LINE
  5
12F2DB
  8
SLIM
 10
11929.39181818456
 20
-894.48971854185413
 30
0.0
 11
12068.881536726411
 21
-754.99999999999955
 31
0.0
1001
ACAD
1010
0.0
1020
0.0
1030
0.0
1001
ACDBBLOCKREPETAG
1070
     1
1071
       17
1005
12F2DB
  0
LINE
  5
12F2DC
  8
SLIM
 10
11932.21320133371
 20
-909.62884763484476
 30
0.0
 11
12075.0
 21
-766.8420489685526
 31
0.0
1001
ACAD
1010
0.0
1020
0.0
1030
0.0
1001
ACDBBLOCKREPETAG
1070
     1
1071
       18
1005
12F2DC
  0
LINE
  5
12F2DD
  8
SLIM
 10
11935.03458448285
 20
-924.76797672783539
 30
0.0
 11
12075.0
 21
-784.80256121069112
 31
0.0
1001
ACAD
1010
0.0
1020
0.0
1030
0.0
1001
ACDBBLOCKREPETAG
1070
     1
1071
       19
1005
12F2DD
  0
LINE
  5
12F2DE
  8
SLIM
 10
11937.855967632
 20
-939.90710582082625
 30
0.0
 11
12075.0
 21
-802.76307345282942
 31
0.0
1001
ACAD
1010
0.0
1020
0.0
1030
0.0
1001
ACDBBLOCKREPETAG
1070
     1
1071
       20
1005
12F2DE
  0
LINE
  5
12F2DF
  8
SLIM
 10
11940.67735078115
 20
-955.04623491381665
 30
0.0
 11
12075.0
 21
-820.7235856949676
 31
0.0
1001
ACAD
1010
0.0
1020
0.0
1030
0.0
1001
ACDBBLOCKREPETAG
1070
     1
1071
       21
1005
12F2DF
  0
LINE
  5
12F2E0
  8
SLIM
 10
11943.498733930301
 20
-970.18536400680739
 30
0.0
 11
12075.0
 21
-838.684097937106
 31
0.0
1001
ACAD
1010
0.0
1020
0.0
1030
0.0
1001
ACDBBLOCKREPETAG
1070
     1
1071
       22
1005
12F2E0
  0
LINE
  5
12F2E1
  8
SLIM
 10
11945.5
 20
-986.14461017924543
 30
0.0
 11
12075.0
 21
-856.64461017924418
 31
0.0
1001
ACAD
1010
0.0
1020
0.0
1030
0.0
1001
ACDBBLOCKREPETAG
1070
     1
1071
       23
1005
12F2E1
  0
LINE
  5
12F2E2
  8
SLIM
 10
11945.5
 20
-1004.105122421381
 30
0.0
 11
12074.15680692925
 21
-875.44831549213154
 31
0.0
1001
ACAD
1010
0.0
1020
0.0
1030
0.0
1001
ACDBBLOCKREPETAG
1070
     1
1071
       24
1005
12F2E2
  0
LINE
  5
12F2E3
  8
SLIM
 10
11945.5
 20
-1022.065634663517
 30
0.0
 11
12070.04294658328
 21
-897.52268808023439
 31
0.0
1001
ACAD
1010
0.0
1020
0.0
1030
0.0
1001
ACDBBLOCKREPETAG
1070
     1
1071
       25
1005
12F2E3
  0
LINE
  5
12F2E4
  8
SLIM
 10
11960.52614690566
 20
-1024.9999999999991
 30
0.0
 11
12065.92908623732
 21
-919.59706066833724
 31
0.0
1001
ACAD
1010
0.0
1020
0.0
1030
0.0
1001
ACDBBLOCKREPETAG
1070
     1
1071
       26
1005
12F2E4
  0
LINE
  5
12F2E5
  8
SLIM
 10
11978.4866591478
 20
-1024.9999999999991
 30
0.0
 11
12061.81522589136
 21
-941.67143325643985
 31
0.0
1001
ACAD
1010
0.0
1020
0.0
1030
0.0
1001
ACDBBLOCKREPETAG
1070
     1
1071
       27
1005
12F2E5
  0
LINE
  5
12F2E6
  8
SLIM
 10
11996.447171389929
 20
-1024.9999999999991
 30
0.0
 11
12057.70136554539
 21
-963.74580584454304
 31
0.0
1001
ACAD
1010
0.0
1020
0.0
1030
0.0
1001
ACDBBLOCKREPETAG
1070
     1
1071
       28
1005
12F2E6
  0
LINE
  5
12F2E7
  8
SLIM
 10
12014.407683632069
 20
-1024.9999999999991
 30
0.0
 11
12054.5
 21
-984.90768363207394
 31
0.0
1001
ACAD
1010
0.0
1020
0.0
1030
0.0
1001
ACDBBLOCKREPETAG
1070
     1
1071
       29
1005
12F2E7
  0
LINE
  5
12F2E8
  8
SLIM
 10
12032.368195874211
 20
-1024.9999999999991
 30
0.0
 11
12054.5
 21
-1002.868195874213
 31
0.0
1001
ACAD
1010
0.0
1020
0.0
1030
0.0
1001
ACDBBLOCKREPETAG
1070
     1
1071
       30
1005
12F2E8
  0
LINE
  5
12F2E9
  8
SLIM
 10
12050.328708116351
 20
-1024.9999999999991
 30
0.0
 11
12054.5
 21
-1020.828708116352
 31
0.0
1001
ACAD
1010
0.0
1020
0.0
1030
0.0
1001
ACDBBLOCKREPETAG
1070
     1
1071
       31
1005
12F2E9
  0
LINE
  5
12F2EA
  8
OBJECT
 10
11925.0
 20
-754.99999999999955
 30
0.0
 11
12075.0
 21
-754.99999999999955
 31
0.0
1001
ACDBBLOCKREPETAG
1070
     1
1071
        2
1005
12F2EA
  0
LINE
  5
12F2EB
  8
OBJECT
 10
12075.0
 20
-754.99999999999955
 30
0.0
 11
12075.0
 21
-870.9238648686005
 31
0.0
1001
ACDBBLOCKREPETAG
1070
     1
1071
        3
1005
12F2EB
  0
LINE
  5
12F2EC
  8
OBJECT
 10
12075.0
 20
-870.9238648686005
 30
0.0
 11
12054.5
 21
-980.92386486860221
 31
0.0
1001
ACDBBLOCKREPETAG
1070
     1
1071
        4
1005
12F2EC
  0
LINE
  5
12F2ED
  8
OBJECT
 10
12054.5
 20
-980.92386486860221
 30
0.0
 11
12054.5
 21
-1024.9999999999991
 31
0.0
1001
ACDBBLOCKREPETAG
1070
     1
1071
        5
1005
12F2ED
  0
LINE
  5
12F2EE
  8
OBJECT
 10
12054.5
 20
-1024.9999999999991
 30
0.0
 11
11945.5
 21
-1024.9999999999991
 31
0.0
1001
ACDBBLOCKREPETAG
1070
     1
1071
        6
1005
12F2EE
  0
LINE
  5
12F2EF
  8
OBJECT
 10
11945.5
 20
-1024.9999999999991
 30
0.0
 11
11945.5
 21
-980.92386486861199
 31
0.0
1001
ACDBBLOCKREPETAG
1070
     1
1071
        7
1005
12F2EF
  0
LINE
  5
12F2F0
  8
OBJECT
 10
11945.5
 20
-980.92386486861199
 30
0.0
 11
11925.0
 21
-870.9238648686005
 31
0.0
1001
ACDBBLOCKREPETAG
1070
     1
1071
        8
1005
12F2F0
  0
LINE
  5
12F2F1
  8
OBJECT
 10
11925.0
 20
-870.9238648686005
 30
0.0
 11
11925.0
 21
-754.99999999999955
 31
0.0
1001
ACDBBLOCKREPETAG
1070
     1
1071
        9
1005
12F2F1
  0
LINE
  5
12F2F2
  8
SLIM
 10
9925.0
 20
-755.19743878930785
 30
0.0
 11
9925.1974387893097
 21
-754.99999999999955
 31
0.0
1001
ACAD
1010
0.0
1020
0.0
1030
0.0
1001
ACDBBLOCKREPETAG
1070
     1
1071
        1
1005
0
  0
LINE
  5
12F2F3
  8
SLIM
 10
9925.0
 20
-773.15795103144615
 30
0.0
 11
9943.1579510314441
 21
-754.99999999999955
 31
0.0
1001
ACAD
1010
0.0
1020
0.0
1030
0.0
1001
ACDBBLOCKREPETAG
1070
     1
1071
       10
1005
12F2F3
  0
LINE
  5
12F2F4
  8
SLIM
 10
9925.0
 20
-791.11846327358455
 30
0.0
 11
9961.1184632735858
 21
-754.99999999999955
 31
0.0
1001
ACAD
1010
0.0
1020
0.0
1030
0.0
1001
ACDBBLOCKREPETAG
1070
     1
1071
       11
1005
12F2F4
  0
LINE
  5
12F2F5
  8
SLIM
 10
9925.0
 20
-809.07897551572285
 30
0.0
 11
9979.0789755157257
 21
-754.99999999999955
 31
0.0
1001
ACAD
1010
0.0
1020
0.0
1030
0.0
1001
ACDBBLOCKREPETAG
1070
     1
1071
       12
1005
12F2F5
  0
LINE
  5
12F2F6
  8
SLIM
 10
9925.0
 20
-827.03948775786125
 30
0.0
 11
9997.0394877578656
 21
-754.99999999999955
 31
0.0
1001
ACAD
1010
0.0
1020
0.0
1030
0.0
1001
ACDBBLOCKREPETAG
1070
     1
1071
       13
1005
12F2F6
  0
LINE
  5
12F2F7
  8
SLIM
 10
9925.0
 20
-844.99999999999955
 30
0.0
 11
10015.0
 21
-754.99999999999955
 31
0.0
1001
ACAD
1010
0.0
1020
0.0
1030
0.0
1001
ACDBBLOCKREPETAG
1070
     1
1071
       14
1005
12F2F7
  0
LINE
  5
12F2F8
  8
SLIM
 10
9925.0
 20
-862.96051224213795
 30
0.0
 11
10032.96051224214
 21
-754.99999999999955
 31
0.0
1001
ACAD
1010
0.0
1020
0.0
1030
0.0
1001
ACDBBLOCKREPETAG
1070
     1
1071
       15
1005
12F2F8
  0
LINE
  5
12F2F9
  8
SLIM
 10
9926.5704350354117
 20
-879.35058944886373
 30
0.0
 11
10050.921024484271
 21
-754.99999999999955
 31
0.0
1001
ACAD
1010
0.0
1020
0.0
1030
0.0
1001
ACDBBLOCKREPETAG
1070
     1
1071
       16
1005
12F2F9
  0
LINE
  5
12F2FA
  8
SLIM
 10
9929.3918181845602
 20
-894.48971854185413
 30
0.0
 11
10068.881536726411
 21
-754.99999999999955
 31
0.0
1001
ACAD
1010
0.0
1020
0.0
1030
0.0
1001
ACDBBLOCKREPETAG
1070
     1
1071
       17
1005
12F2FA
  0
LINE
  5
12F2FB
  8
SLIM
 10
9932.2132013337086
 20
-909.62884763484476
 30
0.0
 11
10075.0
 21
-766.8420489685526
 31
0.0
1001
ACAD
1010
0.0
1020
0.0
1030
0.0
1001
ACDBBLOCKREPETAG
1070
     1
1071
       18
1005
12F2FB
  0
LINE
  5
12F2FC
  8
SLIM
 10
9935.0345844828553
 20
-924.76797672783539
 30
0.0
 11
10075.0
 21
-784.80256121069112
 31
0.0
1001
ACAD
1010
0.0
1020
0.0
1030
0.0
1001
ACDBBLOCKREPETAG
1070
     1
1071
       19
1005
12F2FC
  0
LINE
  5
12F2FD
  8
SLIM
 10
9937.8559676320037
 20
-939.90710582082625
 30
0.0
 11
10075.0
 21
-802.76307345282942
 31
0.0
1001
ACAD
1010
0.0
1020
0.0
1030
0.0
1001
ACDBBLOCKREPETAG
1070
     1
1071
       20
1005
12F2FD
  0
LINE
  5
12F2FE
  8
SLIM
 10
9940.6773507811504
 20
-955.04623491381665
 30
0.0
 11
10075.0
 21
-820.7235856949676
 31
0.0
1001
ACAD
1010
0.0
1020
0.0
1030
0.0
1001
ACDBBLOCKREPETAG
1070
     1
1071
       21
1005
12F2FE
  0
LINE
  5
12F2FF
  8
SLIM
 10
9943.498733930297
 20
-970.18536400680739
 30
0.0
 11
10075.0
 21
-838.684097937106
 31
0.0
1001
ACAD
1010
0.0
1020
0.0
1030
0.0
1001
ACDBBLOCKREPETAG
1070
     1
1071
       22
1005
12F2FF
  0
LINE
  5
12F300
  8
SLIM
 10
9945.4999999999982
 20
-986.14461017924543
 30
0.0
 11
10075.0
 21
-856.64461017924418
 31
0.0
1001
ACAD
1010
0.0
1020
0.0
1030
0.0
1001
ACDBBLOCKREPETAG
1070
     1
1071
       23
1005
12F300
  0
LINE
  5
12F301
  8
SLIM
 10
9945.5
 20
-1004.105122421381
 30
0.0
 11
10074.15680692925
 21
-875.44831549213154
 31
0.0
1001
ACAD
1010
0.0
1020
0.0
1030
0.0
1001
ACDBBLOCKREPETAG
1070
     1
1071
       24
1005
12F301
  0
LINE
  5
12F302
  8
SLIM
 10
9945.5000000000036
 20
-1022.065634663517
 30
0.0
 11
10070.04294658328
 21
-897.52268808023439
 31
0.0
1001
ACAD
1010
0.0
1020
0.0
1030
0.0
1001
ACDBBLOCKREPETAG
1070
     1
1071
       25
1005
12F302
  0
LINE
  5
12F303
  8
SLIM
 10
9960.5261469056604
 20
-1024.9999999999991
 30
0.0
 11
10065.92908623732
 21
-919.59706066833724
 31
0.0
1001
ACAD
1010
0.0
1020
0.0
1030
0.0
1001
ACDBBLOCKREPETAG
1070
     1
1071
       26
1005
12F303
  0
LINE
  5
12F304
  8
SLIM
 10
9978.4866591477985
 20
-1024.9999999999991
 30
0.0
 11
10061.815225891351
 21
-941.67143325643985
 31
0.0
1001
ACAD
1010
0.0
1020
0.0
1030
0.0
1001
ACDBBLOCKREPETAG
1070
     1
1071
       27
1005
12F304
  0
LINE
  5
12F305
  8
SLIM
 10
9996.4471713899384
 20
-1024.9999999999991
 30
0.0
 11
10057.70136554539
 21
-963.74580584454304
 31
0.0
1001
ACAD
1010
0.0
1020
0.0
1030
0.0
1001
ACDBBLOCKREPETAG
1070
     1
1071
       28
1005
12F305
  0
LINE
  5
12F306
  8
SLIM
 10
10014.40768363206
 20
-1024.9999999999991
 30
0.0
 11
10054.5
 21
-984.90768363207394
 31
0.0
1001
ACAD
1010
0.0
1020
0.0
1030
0.0
1001
ACDBBLOCKREPETAG
1070
     1
1071
       29
1005
12F306
  0
LINE
  5
12F307
  8
SLIM
 10
10032.368195874211
 20
-1024.9999999999991
 30
0.0
 11
10054.5
 21
-1002.868195874213
 31
0.0
1001
ACAD
1010
0.0
1020
0.0
1030
0.0
1001
ACDBBLOCKREPETAG
1070
     1
1071
       30
1005
12F307
  0
LINE
  5
12F308
  8
SLIM
 10
10050.328708116351
 20
-1024.9999999999991
 30
0.0
 11
10054.5
 21
-1020.828708116352
 31
0.0
1001
ACAD
1010
0.0
1020
0.0
1030
0.0
1001
ACDBBLOCKREPETAG
1070
     1
1071
       31
1005
12F308
  0
LINE
  5
12F309
  8
OBJECT
 10
9925.0
 20
-754.99999999999955
 30
0.0
 11
10075.0
 21
-754.99999999999955
 31
0.0
1001
ACDBBLOCKREPETAG
1070
     1
1071
        2
1005
12F309
  0
LINE
  5
12F30A
  8
OBJECT
 10
10075.0
 20
-754.99999999999955
 30
0.0
 11
10075.0
 21
-870.9238648686005
 31
0.0
1001
ACDBBLOCKREPETAG
1070
     1
1071
        3
1005
12F30A
  0
LINE
  5
12F30B
  8
OBJECT
 10
10075.0
 20
-870.9238648686005
 30
0.0
 11
10054.5
 21
-980.92386486860221
 31
0.0
1001
ACDBBLOCKREPETAG
1070
     1
1071
        4
1005
12F30B
  0
LINE
  5
12F30C
  8
OBJECT
 10
10054.5
 20
-980.92386486860221
 30
0.0
 11
10054.5
 21
-1024.9999999999991
 31
0.0
1001
ACDBBLOCKREPETAG
1070
     1
1071
        5
1005
12F30C
  0
LINE
  5
12F30D
  8
OBJECT
 10
10054.5
 20
-1024.9999999999991
 30
0.0
 11
9945.5000000000036
 21
-1024.9999999999991
 31
0.0
1001
ACDBBLOCKREPETAG
1070
     1
1071
        6
1005
12F30D
  0
LINE
  5
12F30E
  8
OBJECT
 10
9945.5000000000036
 20
-1024.9999999999991
 30
0.0
 11
9945.4999999999982
 21
-980.92386486861199
 31
0.0
1001
ACDBBLOCKREPETAG
1070
     1
1071
        7
1005
12F30E
  0
LINE
  5
12F30F
  8
OBJECT
 10
9945.4999999999982
 20
-980.92386486861199
 30
0.0
 11
9925.0
 21
-870.9238648686005
 31
0.0
1001
ACDBBLOCKREPETAG
1070
     1
1071
        8
1005
12F30F
  0
LINE
  5
12F310
  8
OBJECT
 10
9925.0
 20
-870.9238648686005
 30
0.0
 11
9925.0
 21
-754.99999999999955
 31
0.0
1001
ACDBBLOCKREPETAG
1070
     1
1071
        9
1005
12F310
  0
LINE
  5
12F311
  8
SLIM
 10
7925.0
 20
-755.19743878930785
 30
0.0
 11
7925.1974387893079
 21
-754.99999999999955
 31
0.0
1001
ACAD
1010
0.0
1020
0.0
1030
0.0
1001
ACDBBLOCKREPETAG
1070
     1
1071
        1
1005
0
  0
LINE
  5
12F312
  8
SLIM
 10
7925.0
 20
-773.15795103144615
 30
0.0
 11
7943.1579510314459
 21
-754.99999999999955
 31
0.0
1001
ACAD
1010
0.0
1020
0.0
1030
0.0
1001
ACDBBLOCKREPETAG
1070
     1
1071
       11
1005
12F312
  0
LINE
  5
12F313
  8
SLIM
 10
7925.0
 20
-791.11846327358455
 30
0.0
 11
7961.1184632735867
 21
-754.99999999999955
 31
0.0
1001
ACAD
1010
0.0
1020
0.0
1030
0.0
1001
ACDBBLOCKREPETAG
1070
     1
1071
       12
1005
12F313
  0
LINE
  5
12F314
  8
SLIM
 10
7925.0
 20
-809.07897551572285
 30
0.0
 11
7979.078975515723
 21
-754.99999999999955
 31
0.0
1001
ACAD
1010
0.0
1020
0.0
1030
0.0
1001
ACDBBLOCKREPETAG
1070
     1
1071
       13
1005
12F314
  0
LINE
  5
12F315
  8
SLIM
 10
7925.0
 20
-827.03948775786125
 30
0.0
 11
7997.0394877578628
 21
-754.99999999999955
 31
0.0
1001
ACAD
1010
0.0
1020
0.0
1030
0.0
1001
ACDBBLOCKREPETAG
1070
     1
1071
       14
1005
12F315
  0
LINE
  5
12F316
  8
SLIM
 10
7925.0
 20
-844.99999999999955
 30
0.0
 11
8015.0
 21
-754.99999999999955
 31
0.0
1001
ACAD
1010
0.0
1020
0.0
1030
0.0
1001
ACDBBLOCKREPETAG
1070
     1
1071
       15
1005
12F316
  0
LINE
  5
12F317
  8
SLIM
 10
7925.0
 20
-862.96051224213795
 30
0.0
 11
8032.960512242139
 21
-754.99999999999955
 31
0.0
1001
ACAD
1010
0.0
1020
0.0
1030
0.0
1001
ACDBBLOCKREPETAG
1070
     1
1071
       16
1005
12F317
  0
LINE
  5
12F318
  8
SLIM
 10
7926.5704350354117
 20
-879.3505894488635
 30
0.0
 11
8050.9210244842798
 21
-754.99999999999955
 31
0.0
1001
ACAD
1010
0.0
1020
0.0
1030
0.0
1001
ACDBBLOCKREPETAG
1070
     1
1071
       17
1005
12F318
  0
LINE
  5
12F319
  8
SLIM
 10
7929.3918181845593
 20
-894.48971854185379
 30
0.0
 11
8068.8815367264133
 21
-754.99999999999955
 31
0.0
1001
ACAD
1010
0.0
1020
0.0
1030
0.0
1001
ACDBBLOCKREPETAG
1070
     1
1071
       18
1005
12F319
  0
LINE
  5
12F31A
  8
SLIM
 10
7932.2132013337077
 20
-909.62884763484408
 30
0.0
 11
8075.0
 21
-766.84204896855272
 31
0.0
1001
ACAD
1010
0.0
1020
0.0
1030
0.0
1001
ACDBBLOCKREPETAG
1070
     1
1071
       19
1005
12F31A
  0
LINE
  5
12F31B
  8
SLIM
 10
7935.0345844828562
 20
-924.76797672783425
 30
0.0
 11
8075.0
 21
-784.80256121069112
 31
0.0
1001
ACAD
1010
0.0
1020
0.0
1030
0.0
1001
ACDBBLOCKREPETAG
1070
     1
1071
       20
1005
12F31B
  0
LINE
  5
12F31C
  8
SLIM
 10
7937.8559676320019
 20
-939.90710582082465
 30
0.0
 11
8075.0
 21
-802.76307345282942
 31
0.0
1001
ACAD
1010
0.0
1020
0.0
1030
0.0
1001
ACDBBLOCKREPETAG
1070
     1
1071
       21
1005
12F31C
  0
LINE
  5
12F31D
  8
SLIM
 10
7940.677350781154
 20
-955.04623491381471
 30
0.0
 11
8075.0
 21
-820.7235856949676
 31
0.0
1001
ACAD
1010
0.0
1020
0.0
1030
0.0
1001
ACDBBLOCKREPETAG
1070
     1
1071
       22
1005
12F31D
  0
LINE
  5
12F31E
  8
SLIM
 10
7943.4987339303016
 20
-970.18536400680489
 30
0.0
 11
8075.0
 21
-838.684097937106
 31
0.0
1001
ACAD
1010
0.0
1020
0.0
1030
0.0
1001
ACDBBLOCKREPETAG
1070
     1
1071
       23
1005
12F31E
  0
LINE
  5
12F31F
  8
SLIM
 10
7946.6446101792453
 20
-984.99999999999955
 30
0.0
 11
8075.0
 21
-856.64461017924418
 31
0.0
1001
ACAD
1010
0.0
1020
0.0
1030
0.0
1001
ACDBBLOCKREPETAG
1070
     1
1071
       24
1005
12F31F
  0
LINE
  5
12F320
  8
SLIM
 10
7955.5
 20
-994.10512242138236
 30
0.0
 11
7964.6051224213816
 21
-984.99999999999955
 31
0.0
1001
ACAD
1010
0.0
1020
0.0
1030
0.0
1001
ACDBBLOCKREPETAG
1070
     1
1071
       25
1005
12F320
  0
LINE
  5
12F321
  8
SLIM
 10
7964.6051224213816
 20
-984.99999999999955
 30
0.0
 11
8074.1568069292498
 21
-875.44831549213154
 31
0.0
1001
ACAD
1010
0.0
1020
0.0
1030
0.0
1001
ACDBBLOCKREPETAG
1070
     1
1071
       26
1005
12F321
  0
LINE
  5
12F322
  8
SLIM
 10
7962.5656346635215
 20
-1004.999999999999
 30
0.0
 11
7982.5656346635215
 21
-984.99999999999955
 31
0.0
1001
ACAD
1010
0.0
1020
0.0
1030
0.0
1001
ACDBBLOCKREPETAG
1070
     1
1071
       27
1005
12F322
  0
LINE
  5
12F323
  8
SLIM
 10
7982.5656346635215
 20
-984.99999999999955
 30
0.0
 11
8070.0429465832849
 21
-897.52268808023405
 31
0.0
1001
ACAD
1010
0.0
1020
0.0
1030
0.0
1001
ACDBBLOCKREPETAG
1070
     1
1071
       28
1005
12F323
  0
LINE
  5
12F324
  8
SLIM
 10
7980.5261469056604
 20
-1004.999999999999
 30
0.0
 11
8000.5261469056577
 21
-984.99999999999955
 31
0.0
1001
ACAD
1010
0.0
1020
0.0
1030
0.0
1001
ACDBBLOCKREPETAG
1070
     1
1071
       29
1005
12F324
  0
LINE
  5
12F325
  8
SLIM
 10
8000.5261469056577
 20
-984.99999999999955
 30
0.0
 11
8065.9290862373227
 21
-919.59706066833724
 31
0.0
1001
ACAD
1010
0.0
1020
0.0
1030
0.0
1001
ACDBBLOCKREPETAG
1070
     1
1071
       30
1005
12F325
  0
LINE
  5
12F326
  8
SLIM
 10
7998.4866591477967
 20
-1004.999999999999
 30
0.0
 11
8018.4866591477967
 21
-984.99999999999955
 31
0.0
1001
ACAD
1010
0.0
1020
0.0
1030
0.0
1001
ACDBBLOCKREPETAG
1070
     1
1071
       31
1005
12F326
  0
LINE
  5
12F327
  8
SLIM
 10
8018.4866591477967
 20
-984.99999999999955
 30
0.0
 11
8061.8152258913578
 21
-941.67143325643985
 31
0.0
1001
ACAD
1010
0.0
1020
0.0
1030
0.0
1001
ACDBBLOCKREPETAG
1070
     1
1071
       32
1005
12F327
  0
LINE
  5
12F328
  8
SLIM
 10
8016.4471713899384
 20
-1004.999999999999
 30
0.0
 11
8036.4471713899338
 21
-984.99999999999955
 31
0.0
1001
ACAD
1010
0.0
1020
0.0
1030
0.0
1001
ACDBBLOCKREPETAG
1070
     1
1071
       33
1005
12F328
  0
LINE
  5
12F329
  8
SLIM
 10
8036.4471713899338
 20
-984.99999999999955
 30
0.0
 11
8057.701365545392
 21
-963.74580584454225
 31
0.0
1001
ACAD
1010
0.0
1020
0.0
1030
0.0
1001
ACDBBLOCKREPETAG
1070
     1
1071
       34
1005
12F329
  0
LINE
  5
12F32A
  8
SLIM
 10
8034.4076836320728
 20
-1004.999999999999
 30
0.0
 11
8044.5000000000036
 21
-994.90768363207383
 31
0.0
1001
ACAD
1010
0.0
1020
0.0
1030
0.0
1001
ACDBBLOCKREPETAG
1070
     1
1071
       35
1005
12F32A
  0
LINE
  5
12F32B
  8
OBJECT
 10
7925.0
 20
-754.99999999999955
 30
0.0
 11
8075.0
 21
-754.99999999999955
 31
0.0
1001
ACDBBLOCKREPETAG
1070
     1
1071
        2
1005
12F32B
  0
LINE
  5
12F32C
  8
OBJECT
 10
8075.0
 20
-754.99999999999955
 30
0.0
 11
8075.0
 21
-870.9238648686005
 31
0.0
1001
ACDBBLOCKREPETAG
1070
     1
1071
        3
1005
12F32C
  0
LINE
  5
12F32D
  8
OBJECT
 10
8075.0
 20
-870.9238648686005
 30
0.0
 11
8053.7403566346029
 21
-984.99999999999955
 31
0.0
1001
ACDBBLOCKREPETAG
1070
     1
1071
        4
1005
12F32D
  0
LINE
  5
12F32E
  8
OBJECT
 10
8044.5000000000036
 20
-984.99999999999955
 30
0.0
 11
8044.5000000000036
 21
-1004.999999999999
 31
0.0
1001
ACDBBLOCKREPETAG
1070
     1
1071
        5
1005
12F32E
  0
LINE
  5
12F32F
  8
OBJECT
 10
8044.5000000000036
 20
-1004.999999999999
 30
0.0
 11
7955.5
 21
-1004.999999999999
 31
0.0
1001
ACDBBLOCKREPETAG
1070
     1
1071
        6
1005
12F32F
  0
LINE
  5
12F330
  8
OBJECT
 10
7955.5
 20
-1004.999999999999
 30
0.0
 11
7955.5
 21
-984.99999999999955
 31
0.0
1001
ACDBBLOCKREPETAG
1070
     1
1071
        7
1005
12F330
  0
LINE
  5
12F331
  8
OBJECT
 10
8053.7403566346029
 20
-984.99999999999955
 30
0.0
 11
7946.2596433653962
 21
-984.99999999999955
 31
0.0
1001
ACDBBLOCKREPETAG
1070
     1
1071
        8
1005
12F331
  0
LINE
  5
12F332
  8
OBJECT
 10
7946.2596433653962
 20
-984.99999999999955
 30
0.0
 11
7925.0
 21
-870.9238648686005
 31
0.0
1001
ACDBBLOCKREPETAG
1070
     1
1071
        9
1005
12F332
  0
LINE
  5
12F333
  8
OBJECT
 10
7925.0
 20
-870.9238648686005
 30
0.0
 11
7925.0
 21
-754.99999999999955
 31
0.0
1001
ACDBBLOCKREPETAG
1070
     1
1071
       10
1005
12F333
  0
LINE
  5
12F334
  8
OBJECT
 10
12055.999999999991
 20
-1103.9999999999991
 30
0.0
 11
12055.999999999991
 21
-1113.9999999999991
 31
0.0
1001
ACDBBLOCKREPETAG
1070
     1
1071
      121
1005
12F334
  0
LINE
  5
12F335
  8
OBJECT
 10
11961.75
 20
-1054.699999999996
 30
0.0
 11
11974.25
 21
-1054.699999999996
 31
0.0
1001
ACDBBLOCKREPETAG
1070
     1
1071
      122
1005
12F335
  0
LINE
  5
12F336
  8
OBJECT
 10
12073.499999999991
 20
-1062.7
 30
0.0
 11
12073.499999999991
 21
-1064.9999999999991
 31
0.0
1001
ACDBBLOCKREPETAG
1070
     1
1071
      123
1005
12F336
  0
LINE
  5
12F337
  8
OBJECT
 10
12057.749999999991
 20
-1054.699999999996
 30
0.0
 11
12070.249999999991
 21
-1054.699999999996
 31
0.0
1001
ACDBBLOCKREPETAG
1070
     1
1071
      124
1005
12F337
  0
LINE
  5
12F338
  8
OBJECT
 10
12054.499999999991
 20
-1062.7
 30
0.0
 11
12054.499999999991
 21
-1064.9999999999991
 31
0.0
1001
ACDBBLOCKREPETAG
1070
     1
1071
      125
1005
12F338
  0
LINE
  5
12F339
  8
OBJECT
 10
11953.0
 20
-1064.9999999999991
 30
0.0
 11
11953.0
 21
-1062.7
 31
0.0
1001
ACDBBLOCKREPETAG
1070
     1
1071
      126
1005
12F339
  0
LINE
  5
12F33A
  8
OBJECT
 10
11983.0
 20
-1064.9999999999991
 30
0.0
 11
11983.0
 21
-1062.7
 31
0.0
1001
ACDBBLOCKREPETAG
1070
     1
1071
      127
1005
12F33A
  0
LINE
  5
12F33B
  8
OBJECT
 10
11961.75
 20
-1054.699999999996
 30
0.0
 11
11961.75
 21
-1062.7
 31
0.0
1001
ACDBBLOCKREPETAG
1070
     1
1071
      128
1005
12F33B
  0
LINE
  5
12F33C
  8
OBJECT
 10
11974.25
 20
-1054.699999999996
 30
0.0
 11
11974.25
 21
-1062.7
 31
0.0
1001
ACDBBLOCKREPETAG
1070
     1
1071
      129
1005
12F33C
  0
LINE
  5
12F33D
  8
OBJECT
 10
11953.0
 20
-1062.7
 30
0.0
 11
11983.0
 21
-1062.7
 31
0.0
1001
ACDBBLOCKREPETAG
1070
     1
1071
      130
1005
12F33D
  0
LINE
  5
12F33E
  8
OBJECT
 10
11960.0
 20
-1103.9999999999991
 30
0.0
 11
11960.0
 21
-1113.9999999999991
 31
0.0
1001
ACDBBLOCKREPETAG
1070
     1
1071
      131
1005
12F33E
  0
LINE
  5
12F33F
  8
OBJECT
 10
11976.0
 20
-1103.9999999999991
 30
0.0
 11
11976.0
 21
-1113.9999999999991
 31
0.0
1001
ACDBBLOCKREPETAG
1070
     1
1071
      132
1005
12F33F
  0
LINE
  5
12F340
  8
OBJECT
 10
11960.0
 20
-1113.9999999999991
 30
0.0
 11
11976.0
 21
-1113.9999999999991
 31
0.0
1001
ACDBBLOCKREPETAG
1070
     1
1071
      133
1005
12F340
  0
LINE
  5
12F341
  8
OBJECT
 10
12071.999999999991
 20
-1103.9999999999991
 30
0.0
 11
12071.999999999991
 21
-1113.9999999999991
 31
0.0
1001
ACDBBLOCKREPETAG
1070
     1
1071
      134
1005
12F341
  0
LINE
  5
12F342
  8
OBJECT
 10
12071.999999999991
 20
-1113.9999999999991
 30
0.0
 11
12055.999999999991
 21
-1113.9999999999991
 31
0.0
1001
ACDBBLOCKREPETAG
1070
     1
1071
      135
1005
12F342
  0
LINE
  5
12F343
  8
OBJECT
 10
11944.999999999991
 20
-1144.9999999999991
 30
0.0
 11
11944.999999999991
 21
-1103.9999999999991
 31
0.0
1001
ACDBBLOCKREPETAG
1070
     1
1071
      136
1005
12F343
  0
LINE
  5
12F344
  8
OBJECT
 10
12054.999999999991
 20
-1103.9999999999991
 30
0.0
 11
12054.999999999991
 21
-1144.9999999999991
 31
0.0
1001
ACDBBLOCKREPETAG
1070
     1
1071
      137
1005
12F344
  0
LINE
  5
12F345
  8
OBJECT
 10
12070.249999999991
 20
-1054.699999999996
 30
0.0
 11
12070.249999999991
 21
-1062.7
 31
0.0
1001
ACDBBLOCKREPETAG
1070
     1
1071
      138
1005
12F345
  0
LINE
  5
12F346
  8
OBJECT
 10
12057.749999999991
 20
-1054.699999999996
 30
0.0
 11
12057.749999999991
 21
-1062.7
 31
0.0
1001
ACDBBLOCKREPETAG
1070
     1
1071
      139
1005
12F346
  0
LINE
  5
12F347
  8
OBJECT
 10
12054.499999999991
 20
-1062.7
 30
0.0
 11
12073.499999999991
 21
-1062.7
 31
0.0
1001
ACDBBLOCKREPETAG
1070
     1
1071
      140
1005
12F347
  0
LINE
  5
12F348
  8
OBJECT
 10
12054.999999999991
 20
-1144.9999999999991
 30
0.0
 11
11944.999999999991
 21
-1144.9999999999991
 31
0.0
1001
ACDBBLOCKREPETAG
1070
     1
1071
      141
1005
12F348
  0
LINE
  5
12F349
  8
OBJECT
 10
12075.999999999991
 20
-1079.9999999999991
 30
0.0
 11
11938.999999999991
 21
-1079.9999999999991
 31
0.0
1001
ACDBBLOCKREPETAG
1070
     1
1071
      142
1005
12F349
  0
LINE
  5
12F34A
  8
OBJECT
 10
12075.999999999991
 20
-1079.9999999999991
 30
0.0
 11
12075.999999999991
 21
-1064.9999999999991
 31
0.0
1001
ACDBBLOCKREPETAG
1070
     1
1071
      143
1005
12F34A
  0
LINE
  5
12F34B
  8
OBJECT
 10
12075.999999999991
 20
-1089.9999999999991
 30
0.0
 11
12075.999999999991
 21
-1103.9999999999991
 31
0.0
1001
ACDBBLOCKREPETAG
1070
     1
1071
      144
1005
12F34B
  0
LINE
  5
12F34C
  8
OBJECT
 10
12068.999999999991
 20
-1089.9999999999991
 30
0.0
 11
12068.999999999991
 21
-1079.9999999999991
 31
0.0
1001
ACDBBLOCKREPETAG
1070
     1
1071
      145
1005
12F34C
  0
LINE
  5
12F34D
  8
OBJECT
 10
12058.999999999991
 20
-1089.9999999999991
 30
0.0
 11
12058.999999999991
 21
-1079.9999999999991
 31
0.0
1001
ACDBBLOCKREPETAG
1070
     1
1071
      146
1005
12F34D
  0
LINE
  5
12F34E
  8
OBJECT
 10
11938.999999999991
 20
-1089.9999999999991
 30
0.0
 11
11938.999999999991
 21
-1103.9999999999991
 31
0.0
1001
ACDBBLOCKREPETAG
1070
     1
1071
      147
1005
12F34E
  0
LINE
  5
12F34F
  8
OBJECT
 10
11938.999999999991
 20
-1103.9999999999991
 30
0.0
 11
12075.999999999991
 21
-1103.9999999999991
 31
0.0
1001
ACDBBLOCKREPETAG
1070
     1
1071
      148
1005
12F34F
  0
LINE
  5
12F350
  8
OBJECT
 10
11973.0
 20
-1089.9999999999991
 30
0.0
 11
11973.0
 21
-1079.9999999999991
 31
0.0
1001
ACDBBLOCKREPETAG
1070
     1
1071
      149
1005
12F350
  0
LINE
  5
12F351
  8
OBJECT
 10
11963.0
 20
-1089.9999999999991
 30
0.0
 11
11963.0
 21
-1079.9999999999991
 31
0.0
1001
ACDBBLOCKREPETAG
1070
     1
1071
      150
1005
12F351
  0
LINE
  5
12F352
  8
OBJECT
 10
11938.999999999991
 20
-1089.9999999999991
 30
0.0
 11
12075.999999999991
 21
-1089.9999999999991
 31
0.0
1001
ACDBBLOCKREPETAG
1070
     1
1071
      151
1005
12F352
  0
LINE
  5
12F353
  8
OBJECT
 10
11945.999999999991
 20
-1079.9999999999991
 30
0.0
 11
11945.999999999991
 21
-1089.9999999999991
 31
0.0
1001
ACDBBLOCKREPETAG
1070
     1
1071
      152
1005
12F353
  0
LINE
  5
12F354
  8
OBJECT
 10
12053.999999999991
 20
-1079.9999999999991
 30
0.0
 11
12053.999999999991
 21
-1089.9999999999991
 31
0.0
1001
ACDBBLOCKREPETAG
1070
     1
1071
      153
1005
12F354
  0
LINE
  5
12F355
  8
OBJECT
 10
12044.5
 20
-979.99999999999966
 30
0.0
 11
12065.0
 21
-869.99999999999955
 31
0.0
1001
ACDBBLOCKREPETAG
1070
     1
1071
      154
1005
12F355
  0
LINE
  5
12F356
  8
OBJECT
 10
11955.5
 20
-979.99999999999966
 30
0.0
 11
12044.5
 21
-979.99999999999966
 31
0.0
1001
ACDBBLOCKREPETAG
1070
     1
1071
      155
1005
12F356
  0
LINE
  5
12F357
  8
OBJECT
 10
11938.999999999991
 20
-1079.9999999999991
 30
0.0
 11
11938.999999999991
 21
-1064.9999999999991
 31
0.0
1001
ACDBBLOCKREPETAG
1070
     1
1071
      156
1005
12F357
  0
LINE
  5
12F358
  8
OBJECT
 10
11938.999999999991
 20
-1064.9999999999991
 30
0.0
 11
12075.999999999991
 21
-1064.9999999999991
 31
0.0
1001
ACDBBLOCKREPETAG
1070
     1
1071
      157
1005
12F358
  0
LINE
  5
12F359
  8
OBJECT
 10
11955.5
 20
-979.99999999999966
 30
0.0
 11
11955.5
 21
-1029.9999999999991
 31
0.0
1001
ACDBBLOCKREPETAG
1070
     1
1071
      158
1005
12F359
  0
LINE
  5
12F35A
  8
OBJECT
 10
12044.5
 20
-979.99999999999966
 30
0.0
 11
12044.5
 21
-1029.9999999999991
 31
0.0
1001
ACDBBLOCKREPETAG
1070
     1
1071
      159
1005
12F35A
  0
LINE
  5
12F35B
  8
OBJECT
 10
11947.0
 20
-1029.9999999999991
 30
0.0
 11
12053.0
 21
-1029.9999999999991
 31
0.0
1001
ACDBBLOCKREPETAG
1070
     1
1071
      160
1005
12F35B
  0
LINE
  5
12F35C
  8
HIDDEN
 10
11955.5
 20
-1039.9999999999991
 30
0.0
 11
12044.5
 21
-1039.9999999999991
 31
0.0
1001
ACDBBLOCKREPETAG
1070
     1
1071
      161
1005
12F35C
  0
LINE
  5
12F35D
  8
CENTER
 10
12000.0
 20
-769.99999999999955
 30
0.0
 11
12000.0
 21
-1159.9999999999991
 31
0.0
1001
ACDBBLOCKREPETAG
1070
     1
1071
      162
1005
12F35D
  0
LINE
  5
12F35E
  8
OBJECT
 10
12065.0
 20
-769.99999999999955
 30
0.0
 11
12065.0
 21
-869.99999999999955
 31
0.0
1001
ACDBBLOCKREPETAG
1070
     1
1071
      163
1005
12F35E
  0
LINE
  5
12F35F
  8
OBJECT
 10
11935.0
 20
-769.99999999999955
 30
0.0
 11
11935.0
 21
-869.99999999999955
 31
0.0
1001
ACDBBLOCKREPETAG
1070
     1
1071
      164
1005
12F35F
  0
LINE
  5
12F360
  8
OBJECT
 10
11955.5
 20
-979.99999999999966
 30
0.0
 11
11935.0
 21
-869.99999999999955
 31
0.0
1001
ACDBBLOCKREPETAG
1070
     1
1071
      165
1005
12F360
  0
LINE
  5
12F361
  8
OBJECT
 10
12065.0
 20
-869.99999999999955
 30
0.0
 11
11935.0
 21
-869.99999999999955
 31
0.0
1001
ACDBBLOCKREPETAG
1070
     1
1071
      166
1005
12F361
  0
LINE
  5
12F362
  8
OBJECT
 10
11947.0
 20
-1029.9999999999991
 30
0.0
 11
11947.0
 21
-1064.9999999999991
 31
0.0
1001
ACDBBLOCKREPETAG
1070
     1
1071
      167
1005
12F362
  0
LINE
  5
12F363
  8
OBJECT
 10
12053.0
 20
-1029.9999999999991
 30
0.0
 11
12053.0
 21
-1064.9999999999991
 31
0.0
1001
ACDBBLOCKREPETAG
1070
     1
1071
      168
1005
12F363
  0
LINE
  5
12F364
  8
OBJECT
 10
9975.5
 20
-1059.9999999999991
 30
0.0
 11
9958.9999999999964
 21
-1059.9999999999991
 31
0.0
1001
ACDBBLOCKREPETAG
1070
     1
1071
       12
1005
12F364
  0
LINE
  5
12F365
  8
OBJECT
 10
9983.0
 20
-1064.9999999999991
 30
0.0
 11
9983.0
 21
-1062.9999999999991
 31
0.0
1001
ACDBBLOCKREPETAG
1070
     1
1071
       13
1005
12F365
  0
LINE
  5
12F366
  8
OBJECT
 10
10075.999999999991
 20
-1079.9999999999991
 30
0.0
 11
9938.9999999999927
 21
-1079.9999999999991
 31
0.0
1001
ACDBBLOCKREPETAG
1070
     1
1071
       14
1005
12F366
  0
LINE
  5
12F367
  8
OBJECT
 10
10075.999999999991
 20
-1079.9999999999991
 30
0.0
 11
10075.999999999991
 21
-1064.9999999999991
 31
0.0
1001
ACDBBLOCKREPETAG
1070
     1
1071
       15
1005
12F367
  0
LINE
  5
12F368
  8
OBJECT
 10
10075.999999999991
 20
-1089.9999999999991
 30
0.0
 11
10075.999999999991
 21
-1103.9999999999991
 31
0.0
1001
ACDBBLOCKREPETAG
1070
     1
1071
       16
1005
12F368
  0
LINE
  5
12F369
  8
OBJECT
 10
10068.999999999991
 20
-1089.9999999999991
 30
0.0
 11
10068.999999999991
 21
-1079.9999999999991
 31
0.0
1001
ACDBBLOCKREPETAG
1070
     1
1071
       17
1005
12F369
  0
LINE
  5
12F36A
  8
OBJECT
 10
10058.999999999991
 20
-1089.9999999999991
 30
0.0
 11
10058.999999999991
 21
-1079.9999999999991
 31
0.0
1001
ACDBBLOCKREPETAG
1070
     1
1071
       18
1005
12F36A
  0
LINE
  5
12F36B
  8
OBJECT
 10
9938.9999999999927
 20
-1089.9999999999991
 30
0.0
 11
9938.9999999999927
 21
-1103.9999999999991
 31
0.0
1001
ACDBBLOCKREPETAG
1070
     1
1071
       19
1005
12F36B
  0
LINE
  5
12F36C
  8
OBJECT
 10
9938.9999999999927
 20
-1103.9999999999991
 30
0.0
 11
10075.999999999991
 21
-1103.9999999999991
 31
0.0
1001
ACDBBLOCKREPETAG
1070
     1
1071
       20
1005
12F36C
  0
LINE
  5
12F36D
  8
OBJECT
 10
9973.0
 20
-1089.9999999999991
 30
0.0
 11
9973.0
 21
-1079.9999999999991
 31
0.0
1001
ACDBBLOCKREPETAG
1070
     1
1071
       21
1005
12F36D
  0
LINE
  5
12F36E
  8
OBJECT
 10
9963.0
 20
-1089.9999999999991
 30
0.0
 11
9963.0
 21
-1079.9999999999991
 31
0.0
1001
ACDBBLOCKREPETAG
1070
     1
1071
       22
1005
12F36E
  0
LINE
  5
12F36F
  8
OBJECT
 10
9938.9999999999927
 20
-1089.9999999999991
 30
0.0
 11
10075.999999999991
 21
-1089.9999999999991
 31
0.0
1001
ACDBBLOCKREPETAG
1070
     1
1071
       23
1005
12F36F
  0
LINE
  5
12F370
  8
OBJECT
 10
9958.9999999999964
 20
-1059.9999999999991
 30
0.0
 11
9958.9999999999964
 21
-1064.9999999999991
 31
0.0
1001
ACDBBLOCKREPETAG
1070
     1
1071
       24
1005
12F370
  0
LINE
  5
12F371
  8
OBJECT
 10
9963.0
 20
-1111.9999999999991
 30
0.0
 11
9963.0
 21
-1114.9999999999991
 31
0.0
1001
ACDBBLOCKREPETAG
1070
     1
1071
       25
1005
12F371
  0
LINE
  5
12F372
  8
OBJECT
 10
9963.0
 20
-1114.9999999999991
 30
0.0
 11
9973.0
 21
-1114.9999999999991
 31
0.0
1001
ACDBBLOCKREPETAG
1070
     1
1071
       26
1005
12F372
  0
LINE
  5
12F373
  8
OBJECT
 10
9973.0
 20
-1114.9999999999991
 30
0.0
 11
9973.0
 21
-1111.9999999999991
 31
0.0
1001
ACDBBLOCKREPETAG
1070
     1
1071
       28
1005
12F373
  0
LINE
  5
12F374
  8
OBJECT
 10
9945.9999999999909
 20
-1079.9999999999991
 30
0.0
 11
9945.9999999999909
 21
-1089.9999999999991
 31
0.0
1001
ACDBBLOCKREPETAG
1070
     1
1071
       29
1005
12F374
  0
LINE
  5
12F375
  8
OBJECT
 10
10053.999999999991
 20
-1079.9999999999991
 30
0.0
 11
10053.999999999991
 21
-1089.9999999999991
 31
0.0
1001
ACDBBLOCKREPETAG
1070
     1
1071
       30
1005
12F375
  0
LINE
  5
12F376
  8
OBJECT
 10
10044.5
 20
-979.99999999999966
 30
0.0
 11
10065.0
 21
-869.99999999999955
 31
0.0
1001
ACDBBLOCKREPETAG
1070
     1
1071
       31
1005
12F376
  0
LINE
  5
12F377
  8
OBJECT
 10
9955.5
 20
-979.99999999999966
 30
0.0
 11
10044.5
 21
-979.99999999999966
 31
0.0
1001
ACDBBLOCKREPETAG
1070
     1
1071
       32
1005
12F377
  0
LINE
  5
12F378
  8
OBJECT
 10
9938.9999999999927
 20
-1079.9999999999991
 30
0.0
 11
9938.9999999999927
 21
-1064.9999999999991
 31
0.0
1001
ACDBBLOCKREPETAG
1070
     1
1071
       33
1005
12F378
  0
LINE
  5
12F379
  8
OBJECT
 10
9938.9999999999927
 20
-1064.9999999999991
 30
0.0
 11
10075.999999999991
 21
-1064.9999999999991
 31
0.0
1001
ACDBBLOCKREPETAG
1070
     1
1071
       34
1005
12F379
  0
LINE
  5
12F37A
  8
OBJECT
 10
9955.5
 20
-979.99999999999966
 30
0.0
 11
9955.5
 21
-1029.9999999999991
 31
0.0
1001
ACDBBLOCKREPETAG
1070
     1
1071
       35
1005
12F37A
  0
LINE
  5
12F37B
  8
OBJECT
 10
10044.5
 20
-979.99999999999966
 30
0.0
 11
10044.5
 21
-1029.9999999999991
 31
0.0
1001
ACDBBLOCKREPETAG
1070
     1
1071
       36
1005
12F37B
  0
LINE
  5
12F37C
  8
OBJECT
 10
9947.0
 20
-1029.9999999999991
 30
0.0
 11
10053.0
 21
-1029.9999999999991
 31
0.0
1001
ACDBBLOCKREPETAG
1070
     1
1071
       37
1005
12F37C
  0
LINE
  5
12F37D
  8
OBJECT
 10
10054.99999999998
 20
-1059.9999999999991
 30
0.0
 11
10054.99999999998
 21
-1064.9999999999991
 31
0.0
1001
ACDBBLOCKREPETAG
1070
     1
1071
       38
1005
12F37D
  0
LINE
  5
12F37E
  8
OBJECT
 10
10073.0
 20
-1059.9999999999991
 30
0.0
 11
10073.0
 21
-1064.9999999999991
 31
0.0
1001
ACDBBLOCKREPETAG
1070
     1
1071
       39
1005
12F37E
  0
LINE
  5
12F37F
  8
OBJECT
 10
10073.0
 20
-1059.9999999999991
 30
0.0
 11
10054.99999999998
 21
-1059.9999999999991
 31
0.0
1001
ACDBBLOCKREPETAG
1070
     1
1071
       40
1005
12F37F
  0
LINE
  5
12F380
  8
HIDDEN
 10
9955.5
 20
-1039.9999999999991
 30
0.0
 11
10044.5
 21
-1039.9999999999991
 31
0.0
1001
ACDBBLOCKREPETAG
1070
     1
1071
       41
1005
12F380
  0
LINE
  5
12F381
  8
CENTER
 10
10000.0
 20
-769.99999999999955
 30
0.0
 11
10000.0
 21
-1118.9999999999991
 31
0.0
1001
ACDBBLOCKREPETAG
1070
     1
1071
       42
1005
12F381
  0
LINE
  5
12F382
  8
OBJECT
 10
10065.0
 20
-769.99999999999955
 30
0.0
 11
10065.0
 21
-869.99999999999955
 31
0.0
1001
ACDBBLOCKREPETAG
1070
     1
1071
       43
1005
12F382
  0
LINE
  5
12F383
  8
OBJECT
 10
9935.0
 20
-769.99999999999955
 30
0.0
 11
9935.0
 21
-869.99999999999955
 31
0.0
1001
ACDBBLOCKREPETAG
1070
     1
1071
       44
1005
12F383
  0
LINE
  5
12F384
  8
OBJECT
 10
9955.5
 20
-979.99999999999966
 30
0.0
 11
9935.0
 21
-869.99999999999955
 31
0.0
1001
ACDBBLOCKREPETAG
1070
     1
1071
       45
1005
12F384
  0
LINE
  5
12F385
  8
OBJECT
 10
10065.0
 20
-869.99999999999955
 30
0.0
 11
9935.0
 21
-869.99999999999955
 31
0.0
1001
ACDBBLOCKREPETAG
1070
     1
1071
       46
1005
12F385
  0
LINE
  5
12F386
  8
OBJECT
 10
9947.0
 20
-1029.9999999999991
 30
0.0
 11
9947.0
 21
-1064.9999999999991
 31
0.0
1001
ACDBBLOCKREPETAG
1070
     1
1071
       47
1005
12F386
  0
LINE
  5
12F387
  8
OBJECT
 10
10053.0
 20
-1029.9999999999991
 30
0.0
 11
10053.0
 21
-1064.9999999999991
 31
0.0
1001
ACDBBLOCKREPETAG
1070
     1
1071
       48
1005
12F387
  0
LINE
  5
12F388
  8
OBJECT
 10
9983.0
 20
-1062.9999999999991
 30
0.0
 11
9975.5
 21
-1059.9999999999991
 31
0.0
1001
ACDBBLOCKREPETAG
1070
     1
1071
       49
1005
12F388
  0
LINE
  5
12F389
  8
OBJECT
 10
10059.0
 20
-1111.9999999999991
 30
0.0
 11
10059.0
 21
-1114.9999999999991
 31
0.0
1001
ACDBBLOCKREPETAG
1070
     1
1071
       54
1005
12F389
  0
LINE
  5
12F38A
  8
OBJECT
 10
10059.0
 20
-1114.9999999999991
 30
0.0
 11
10069.0
 21
-1114.9999999999991
 31
0.0
1001
ACDBBLOCKREPETAG
1070
     1
1071
       55
1005
12F38A
  0
LINE
  5
12F38B
  8
OBJECT
 10
10069.0
 20
-1114.9999999999991
 30
0.0
 11
10069.0
 21
-1111.9999999999991
 31
0.0
1001
ACDBBLOCKREPETAG
1070
     1
1071
       57
1005
12F38B
  0
LINE
  5
12F38C
  8
OBJECT
 10
9958.1850454237738
 20
-1111.9999999999991
 30
0.0
 11
9977.814954576219
 21
-1111.9999999999991
 31
0.0
1001
ACDBBLOCKREPETAG
1070
     1
1071
      422
1005
12F38C
  0
LINE
  5
12F38D
  8
OBJECT
 10
9958.1850454237756
 20
-1103.9999999999991
 30
0.0
 11
9958.1850454237756
 21
-1111.9999999999991
 31
0.0
1001
ACDBBLOCKREPETAG
1070
     1
1071
      423
1005
12F38D
  0
LINE
  5
12F38E
  8
OBJECT
 10
9963.0925227118896
 20
-1103.9999999999991
 30
0.0
 11
9963.0925227118896
 21
-1111.9999999999991
 31
0.0
1001
ACDBBLOCKREPETAG
1070
     1
1071
      424
1005
12F38E
  0
LINE
  5
12F38F
  8
OBJECT
 10
9972.9074772881122
 20
-1103.9999999999991
 30
0.0
 11
9972.9074772881122
 21
-1111.9999999999991
 31
0.0
1001
ACDBBLOCKREPETAG
1070
     1
1071
      425
1005
12F38F
  0
LINE
  5
12F390
  8
OBJECT
 10
9977.8149545762244
 20
-1103.9999999999991
 30
0.0
 11
9977.8149545762244
 21
-1111.9999999999991
 31
0.0
1001
ACDBBLOCKREPETAG
1070
     1
1071
      426
1005
12F390
  0
LINE
  5
12F391
  8
OBJECT
 10
10054.18504542377
 20
-1111.9999999999991
 30
0.0
 11
10073.814954576221
 21
-1111.9999999999991
 31
0.0
1001
ACDBBLOCKREPETAG
1070
     1
1071
      427
1005
12F391
  0
LINE
  5
12F392
  8
OBJECT
 10
10054.18504542377
 20
-1103.9999999999991
 30
0.0
 11
10054.18504542377
 21
-1111.9999999999991
 31
0.0
1001
ACDBBLOCKREPETAG
1070
     1
1071
      428
1005
12F392
  0
LINE
  5
12F393
  8
OBJECT
 10
10059.092522711881
 20
-1103.9999999999991
 30
0.0
 11
10059.092522711881
 21
-1111.9999999999991
 31
0.0
1001
ACDBBLOCKREPETAG
1070
     1
1071
      429
1005
12F393
  0
LINE
  5
12F394
  8
OBJECT
 10
10068.90747728811
 20
-1103.9999999999991
 30
0.0
 11
10068.90747728811
 21
-1111.9999999999991
 31
0.0
1001
ACDBBLOCKREPETAG
1070
     1
1071
      430
1005
12F394
  0
LINE
  5
12F395
  8
OBJECT
 10
10073.814954576221
 20
-1103.9999999999991
 30
0.0
 11
10073.814954576221
 21
-1111.9999999999991
 31
0.0
1001
ACDBBLOCKREPETAG
1070
     1
1071
      431
1005
12F395
  0
LINE
  5
12F396
  8
OBJECT
 10
8044.5000000000036
 20
-1079.999999999992
 30
0.0
 11
7955.5
 21
-1079.999999999992
 31
0.0
1001
ACDBBLOCKREPETAG
1070
     1
1071
        0
1005
12F396
  0
LINE
  5
12F397
  8
OBJECT
 10
7935.0
 20
-869.99999999999216
 30
0.0
 11
7935.0
 21
-769.99999999999204
 31
0.0
1001
ACDBBLOCKREPETAG
1070
     1
1071
        1
1005
12F397
  0
LINE
  5
12F398
  8
OBJECT
 10
8065.0
 20
-869.99999999999216
 30
0.0
 11
8065.0
 21
-769.99999999999204
 31
0.0
1001
ACDBBLOCKREPETAG
1070
     1
1071
        2
1005
12F398
  0
LINE
  5
12F399
  8
OBJECT
 10
7935.0
 20
-869.99999999999216
 30
0.0
 11
8065.0
 21
-869.99999999999216
 31
0.0
1001
ACDBBLOCKREPETAG
1070
     1
1071
        3
1005
12F399
  0
LINE
  5
12F39A
  8
OBJECT
 10
7955.5
 20
-979.99999999999204
 30
0.0
 11
8044.5000000000036
 21
-979.99999999999204
 31
0.0
1001
ACDBBLOCKREPETAG
1070
     1
1071
        4
1005
12F39A
  0
LINE
  5
12F39B
  8
OBJECT
 10
7955.5
 20
-979.99999999999204
 30
0.0
 11
7955.5
 21
-1079.999999999992
 31
0.0
1001
ACDBBLOCKREPETAG
1070
     1
1071
        5
1005
12F39B
  0
LINE
  5
12F39C
  8
OBJECT
 10
8044.5000000000036
 20
-979.99999999999204
 30
0.0
 11
8044.5000000000036
 21
-1079.999999999992
 31
0.0
1001
ACDBBLOCKREPETAG
1070
     1
1071
        6
1005
12F39C
  0
LINE
  5
12F39D
  8
OBJECT
 10
7935.0
 20
-869.99999999999216
 30
0.0
 11
7955.5
 21
-979.99999999999204
 31
0.0
1001
ACDBBLOCKREPETAG
1070
     1
1071
        7
1005
12F39D
  0
LINE
  5
12F39E
  8
OBJECT
 10
8044.5000000000036
 20
-979.99999999999204
 30
0.0
 11
8065.0
 21
-869.99999999999216
 31
0.0
1001
ACDBBLOCKREPETAG
1070
     1
1071
        8
1005
12F39E
  0
LINE
  5
12F39F
  8
HIDDEN
 10
7962.5
 20
-979.99999999999204
 30
0.0
 11
7962.5
 21
-1079.999999999992
 31
0.0
1001
ACDBBLOCKREPETAG
1070
     1
1071
        9
1005
12F39F
  0
LINE
  5
12F3A0
  8
HIDDEN
 10
8037.4999999999973
 20
-979.99999999999204
 30
0.0
 11
8037.4999999999973
 21
-1079.999999999992
 31
0.0
1001
ACDBBLOCKREPETAG
1070
     1
1071
       10
1005
12F3A0
  0
LINE
  5
12F3A1
  8
CENTER
 10
8000.0
 20
-769.99999999999955
 30
0.0
 11
8000.0
 21
-1094.999999999992
 31
0.0
1001
ACDBBLOCKREPETAG
1070
     1
1071
       11
1005
12F3A1
  0
LINE
  5
12F3A2
  8
OBJECT
 10
6055.9999999999927
 20
-1103.9999999999991
 30
0.0
 11
6055.9999999999927
 21
-1113.9999999999991
 31
0.0
1001
ACDBBLOCKREPETAG
1070
     1
1071
      121
1005
12F3A2
  0
LINE
  5
12F3A3
  8
OBJECT
 10
5961.75
 20
-1054.699999999996
 30
0.0
 11
5974.25
 21
-1054.699999999996
 31
0.0
1001
ACDBBLOCKREPETAG
1070
     1
1071
      122
1005
12F3A3
  0
LINE
  5
12F3A4
  8
OBJECT
 10
6073.4999999999927
 20
-1062.7
 30
0.0
 11
6073.4999999999927
 21
-1064.9999999999991
 31
0.0
1001
ACDBBLOCKREPETAG
1070
     1
1071
      123
1005
12F3A4
  0
LINE
  5
12F3A5
  8
OBJECT
 10
6057.7499999999927
 20
-1054.699999999996
 30
0.0
 11
6070.2499999999927
 21
-1054.699999999996
 31
0.0
1001
ACDBBLOCKREPETAG
1070
     1
1071
      124
1005
12F3A5
  0
LINE
  5
12F3A6
  8
OBJECT
 10
6054.4999999999927
 20
-1062.7
 30
0.0
 11
6054.4999999999927
 21
-1064.9999999999991
 31
0.0
1001
ACDBBLOCKREPETAG
1070
     1
1071
      125
1005
12F3A6
  0
LINE
  5
12F3A7
  8
OBJECT
 10
5953.0
 20
-1064.9999999999991
 30
0.0
 11
5953.0
 21
-1062.7
 31
0.0
1001
ACDBBLOCKREPETAG
1070
     1
1071
      126
1005
12F3A7
  0
LINE
  5
12F3A8
  8
OBJECT
 10
5983.0
 20
-1064.9999999999991
 30
0.0
 11
5983.0
 21
-1062.7
 31
0.0
1001
ACDBBLOCKREPETAG
1070
     1
1071
      127
1005
12F3A8
  0
LINE
  5
12F3A9
  8
OBJECT
 10
5961.75
 20
-1054.699999999996
 30
0.0
 11
5961.75
 21
-1062.7
 31
0.0
1001
ACDBBLOCKREPETAG
1070
     1
1071
      128
1005
12F3A9
  0
LINE
  5
12F3AA
  8
OBJECT
 10
5974.25
 20
-1054.699999999996
 30
0.0
 11
5974.25
 21
-1062.7
 31
0.0
1001
ACDBBLOCKREPETAG
1070
     1
1071
      129
1005
12F3AA
  0
LINE
  5
12F3AB
  8
OBJECT
 10
5953.0
 20
-1062.7
 30
0.0
 11
5983.0
 21
-1062.7
 31
0.0
1001
ACDBBLOCKREPETAG
1070
     1
1071
      130
1005
12F3AB
  0
LINE
  5
12F3AC
  8
OBJECT
 10
5960.0
 20
-1103.9999999999991
 30
0.0
 11
5960.0
 21
-1113.9999999999991
 31
0.0
1001
ACDBBLOCKREPETAG
1070
     1
1071
      131
1005
12F3AC
  0
LINE
  5
12F3AD
  8
OBJECT
 10
5976.0
 20
-1103.9999999999991
 30
0.0
 11
5976.0
 21
-1113.9999999999991
 31
0.0
1001
ACDBBLOCKREPETAG
1070
     1
1071
      132
1005
12F3AD
  0
LINE
  5
12F3AE
  8
OBJECT
 10
5960.0
 20
-1113.9999999999991
 30
0.0
 11
5976.0
 21
-1113.9999999999991
 31
0.0
1001
ACDBBLOCKREPETAG
1070
     1
1071
      133
1005
12F3AE
  0
LINE
  5
12F3AF
  8
OBJECT
 10
6071.9999999999918
 20
-1103.9999999999991
 30
0.0
 11
6071.9999999999918
 21
-1113.9999999999991
 31
0.0
1001
ACDBBLOCKREPETAG
1070
     1
1071
      134
1005
12F3AF
  0
LINE
  5
12F3B0
  8
OBJECT
 10
6071.9999999999918
 20
-1113.9999999999991
 30
0.0
 11
6055.9999999999927
 21
-1113.9999999999991
 31
0.0
1001
ACDBBLOCKREPETAG
1070
     1
1071
      135
1005
12F3B0
  0
LINE
  5
12F3B1
  8
OBJECT
 10
5944.9999999999927
 20
-1144.9999999999991
 30
0.0
 11
5944.9999999999927
 21
-1103.9999999999991
 31
0.0
1001
ACDBBLOCKREPETAG
1070
     1
1071
      136
1005
12F3B1
  0
LINE
  5
12F3B2
  8
OBJECT
 10
6054.9999999999918
 20
-1103.9999999999991
 30
0.0
 11
6054.9999999999918
 21
-1144.9999999999991
 31
0.0
1001
ACDBBLOCKREPETAG
1070
     1
1071
      137
1005
12F3B2
  0
LINE
  5
12F3B3
  8
OBJECT
 10
6070.2499999999927
 20
-1054.699999999996
 30
0.0
 11
6070.2499999999927
 21
-1062.7
 31
0.0
1001
ACDBBLOCKREPETAG
1070
     1
1071
      138
1005
12F3B3
  0
LINE
  5
12F3B4
  8
OBJECT
 10
6057.7499999999927
 20
-1054.699999999996
 30
0.0
 11
6057.7499999999927
 21
-1062.7
 31
0.0
1001
ACDBBLOCKREPETAG
1070
     1
1071
      139
1005
12F3B4
  0
LINE
  5
12F3B5
  8
OBJECT
 10
6054.4999999999927
 20
-1062.7
 30
0.0
 11
6073.4999999999927
 21
-1062.7
 31
0.0
1001
ACDBBLOCKREPETAG
1070
     1
1071
      140
1005
12F3B5
  0
LINE
  5
12F3B6
  8
OBJECT
 10
6054.9999999999918
 20
-1144.9999999999991
 30
0.0
 11
5944.9999999999927
 21
-1144.9999999999991
 31
0.0
1001
ACDBBLOCKREPETAG
1070
     1
1071
      141
1005
12F3B6
  0
LINE
  5
12F3B7
  8
OBJECT
 10
6075.9999999999927
 20
-1079.9999999999991
 30
0.0
 11
5938.9999999999918
 21
-1079.9999999999991
 31
0.0
1001
ACDBBLOCKREPETAG
1070
     1
1071
      142
1005
12F3B7
  0
LINE
  5
12F3B8
  8
OBJECT
 10
6075.9999999999927
 20
-1079.9999999999991
 30
0.0
 11
6075.9999999999927
 21
-1064.9999999999991
 31
0.0
1001
ACDBBLOCKREPETAG
1070
     1
1071
      143
1005
12F3B8
  0
LINE
  5
12F3B9
  8
OBJECT
 10
6075.9999999999927
 20
-1089.9999999999991
 30
0.0
 11
6075.9999999999927
 21
-1103.9999999999991
 31
0.0
1001
ACDBBLOCKREPETAG
1070
     1
1071
      144
1005
12F3B9
  0
LINE
  5
12F3BA
  8
OBJECT
 10
6068.9999999999909
 20
-1089.9999999999991
 30
0.0
 11
6068.9999999999909
 21
-1079.9999999999991
 31
0.0
1001
ACDBBLOCKREPETAG
1070
     1
1071
      145
1005
12F3BA
  0
LINE
  5
12F3BB
  8
OBJECT
 10
6058.9999999999927
 20
-1089.9999999999991
 30
0.0
 11
6058.9999999999927
 21
-1079.9999999999991
 31
0.0
1001
ACDBBLOCKREPETAG
1070
     1
1071
      146
1005
12F3BB
  0
LINE
  5
12F3BC
  8
OBJECT
 10
5938.9999999999918
 20
-1089.9999999999991
 30
0.0
 11
5938.9999999999918
 21
-1103.9999999999991
 31
0.0
1001
ACDBBLOCKREPETAG
1070
     1
1071
      147
1005
12F3BC
  0
LINE
  5
12F3BD
  8
OBJECT
 10
5938.9999999999918
 20
-1103.9999999999991
 30
0.0
 11
6075.9999999999927
 21
-1103.9999999999991
 31
0.0
1001
ACDBBLOCKREPETAG
1070
     1
1071
      148
1005
12F3BD
  0
LINE
  5
12F3BE
  8
OBJECT
 10
5973.0
 20
-1089.9999999999991
 30
0.0
 11
5973.0
 21
-1079.9999999999991
 31
0.0
1001
ACDBBLOCKREPETAG
1070
     1
1071
      149
1005
12F3BE
  0
LINE
  5
12F3BF
  8
OBJECT
 10
5963.0
 20
-1089.9999999999991
 30
0.0
 11
5963.0
 21
-1079.9999999999991
 31
0.0
1001
ACDBBLOCKREPETAG
1070
     1
1071
      150
1005
12F3BF
  0
LINE
  5
12F3C0
  8
OBJECT
 10
5938.9999999999918
 20
-1089.9999999999991
 30
0.0
 11
6075.9999999999927
 21
-1089.9999999999991
 31
0.0
1001
ACDBBLOCKREPETAG
1070
     1
1071
      151
1005
12F3C0
  0
LINE
  5
12F3C1
  8
OBJECT
 10
5945.9999999999927
 20
-1079.9999999999991
 30
0.0
 11
5945.9999999999927
 21
-1089.9999999999991
 31
0.0
1001
ACDBBLOCKREPETAG
1070
     1
1071
      152
1005
12F3C1
  0
LINE
  5
12F3C2
  8
OBJECT
 10
6053.9999999999927
 20
-1079.9999999999991
 30
0.0
 11
6053.9999999999927
 21
-1089.9999999999991
 31
0.0
1001
ACDBBLOCKREPETAG
1070
     1
1071
      153
1005
12F3C2
  0
LINE
  5
12F3C3
  8
OBJECT
 10
6044.5
 20
-979.99999999999966
 30
0.0
 11
6065.0
 21
-869.99999999999955
 31
0.0
1001
ACDBBLOCKREPETAG
1070
     1
1071
      154
1005
12F3C3
  0
LINE
  5
12F3C4
  8
OBJECT
 10
5955.5
 20
-979.99999999999966
 30
0.0
 11
6044.5
 21
-979.99999999999966
 31
0.0
1001
ACDBBLOCKREPETAG
1070
     1
1071
      155
1005
12F3C4
  0
LINE
  5
12F3C5
  8
OBJECT
 10
5938.9999999999918
 20
-1079.9999999999991
 30
0.0
 11
5938.9999999999918
 21
-1064.9999999999991
 31
0.0
1001
ACDBBLOCKREPETAG
1070
     1
1071
      156
1005
12F3C5
  0
LINE
  5
12F3C6
  8
OBJECT
 10
5938.9999999999918
 20
-1064.9999999999991
 30
0.0
 11
6075.9999999999927
 21
-1064.9999999999991
 31
0.0
1001
ACDBBLOCKREPETAG
1070
     1
1071
      157
1005
12F3C6
  0
LINE
  5
12F3C7
  8
OBJECT
 10
5955.5
 20
-979.99999999999966
 30
0.0
 11
5955.5
 21
-1029.9999999999991
 31
0.0
1001
ACDBBLOCKREPETAG
1070
     1
1071
      158
1005
12F3C7
  0
LINE
  5
12F3C8
  8
OBJECT
 10
6044.5
 20
-979.99999999999966
 30
0.0
 11
6044.5
 21
-1029.9999999999991
 31
0.0
1001
ACDBBLOCKREPETAG
1070
     1
1071
      159
1005
12F3C8
  0
LINE
  5
12F3C9
  8
OBJECT
 10
5947.0
 20
-1029.9999999999991
 30
0.0
 11
6053.0
 21
-1029.9999999999991
 31
0.0
1001
ACDBBLOCKREPETAG
1070
     1
1071
      160
1005
12F3C9
  0
LINE
  5
12F3CA
  8
HIDDEN
 10
5955.5
 20
-1039.9999999999991
 30
0.0
 11
6044.5
 21
-1039.9999999999991
 31
0.0
1001
ACDBBLOCKREPETAG
1070
     1
1071
      161
1005
12F3CA
  0
LINE
  5
12F3CB
  8
CENTER
 10
6000.0
 20
-769.99999999999955
 30
0.0
 11
6000.0
 21
-1159.9999999999991
 31
0.0
1001
ACDBBLOCKREPETAG
1070
     1
1071
      162
1005
12F3CB
  0
LINE
  5
12F3CC
  8
OBJECT
 10
6065.0
 20
-769.99999999999955
 30
0.0
 11
6065.0
 21
-869.99999999999955
 31
0.0
1001
ACDBBLOCKREPETAG
1070
     1
1071
      163
1005
12F3CC
  0
LINE
  5
12F3CD
  8
OBJECT
 10
5935.0
 20
-769.99999999999955
 30
0.0
 11
5935.0
 21
-869.99999999999955
 31
0.0
1001
ACDBBLOCKREPETAG
1070
     1
1071
      164
1005
12F3CD
  0
LINE
  5
12F3CE
  8
OBJECT
 10
5955.5
 20
-979.99999999999966
 30
0.0
 11
5935.0
 21
-869.99999999999955
 31
0.0
1001
ACDBBLOCKREPETAG
1070
     1
1071
      165
1005
12F3CE
  0
LINE
  5
12F3CF
  8
OBJECT
 10
6065.0
 20
-869.99999999999955
 30
0.0
 11
5935.0
 21
-869.99999999999955
 31
0.0
1001
ACDBBLOCKREPETAG
1070
     1
1071
      166
1005
12F3CF
  0
LINE
  5
12F3D0
  8
OBJECT
 10
5947.0
 20
-1029.9999999999991
 30
0.0
 11
5947.0
 21
-1064.9999999999991
 31
0.0
1001
ACDBBLOCKREPETAG
1070
     1
1071
      167
1005
12F3D0
  0
LINE
  5
12F3D1
  8
OBJECT
 10
6053.0
 20
-1029.9999999999991
 30
0.0
 11
6053.0
 21
-1064.9999999999991
 31
0.0
1001
ACDBBLOCKREPETAG
1070
     1
1071
      168
1005
12F3D1
  0
LINE
  5
12F3D2
  8
OBJECT
 10
3975.5
 20
-1059.9999999999991
 30
0.0
 11
3958.9999999999918
 21
-1059.9999999999991
 31
0.0
1001
ACDBBLOCKREPETAG
1070
     1
1071
       12
1005
12F3D2
  0
LINE
  5
12F3D3
  8
OBJECT
 10
3983.0
 20
-1064.9999999999991
 30
0.0
 11
3983.0
 21
-1062.9999999999991
 31
0.0
1001
ACDBBLOCKREPETAG
1070
     1
1071
       13
1005
12F3D3
  0
LINE
  5
12F3D4
  8
OBJECT
 10
4075.9999999999918
 20
-1079.9999999999991
 30
0.0
 11
3938.9999999999932
 21
-1079.9999999999991
 31
0.0
1001
ACDBBLOCKREPETAG
1070
     1
1071
       14
1005
12F3D4
  0
LINE
  5
12F3D5
  8
OBJECT
 10
4075.9999999999918
 20
-1079.9999999999991
 30
0.0
 11
4075.9999999999918
 21
-1064.9999999999991
 31
0.0
1001
ACDBBLOCKREPETAG
1070
     1
1071
       15
1005
12F3D5
  0
LINE
  5
12F3D6
  8
OBJECT
 10
4075.9999999999918
 20
-1089.9999999999991
 30
0.0
 11
4075.9999999999918
 21
-1103.9999999999991
 31
0.0
1001
ACDBBLOCKREPETAG
1070
     1
1071
       16
1005
12F3D6
  0
LINE
  5
12F3D7
  8
OBJECT
 10
4068.9999999999918
 20
-1089.9999999999991
 30
0.0
 11
4068.9999999999918
 21
-1079.9999999999991
 31
0.0
1001
ACDBBLOCKREPETAG
1070
     1
1071
       17
1005
12F3D7
  0
LINE
  5
12F3D8
  8
OBJECT
 10
4058.9999999999932
 20
-1089.9999999999991
 30
0.0
 11
4058.9999999999932
 21
-1079.9999999999991
 31
0.0
1001
ACDBBLOCKREPETAG
1070
     1
1071
       18
1005
12F3D8
  0
LINE
  5
12F3D9
  8
OBJECT
 10
3938.9999999999932
 20
-1089.9999999999991
 30
0.0
 11
3938.9999999999932
 21
-1103.9999999999991
 31
0.0
1001
ACDBBLOCKREPETAG
1070
     1
1071
       19
1005
12F3D9
  0
LINE
  5
12F3DA
  8
OBJECT
 10
3938.9999999999932
 20
-1103.9999999999991
 30
0.0
 11
4075.9999999999918
 21
-1103.9999999999991
 31
0.0
1001
ACDBBLOCKREPETAG
1070
     1
1071
       20
1005
12F3DA
  0
LINE
  5
12F3DB
  8
OBJECT
 10
3973.0
 20
-1089.9999999999991
 30
0.0
 11
3973.0
 21
-1079.9999999999991
 31
0.0
1001
ACDBBLOCKREPETAG
1070
     1
1071
       21
1005
12F3DB
  0
LINE
  5
12F3DC
  8
OBJECT
 10
3963.0
 20
-1089.9999999999991
 30
0.0
 11
3963.0
 21
-1079.9999999999991
 31
0.0
1001
ACDBBLOCKREPETAG
1070
     1
1071
       22
1005
12F3DC
  0
LINE
  5
12F3DD
  8
OBJECT
 10
3938.9999999999932
 20
-1089.9999999999991
 30
0.0
 11
4075.9999999999918
 21
-1089.9999999999991
 31
0.0
1001
ACDBBLOCKREPETAG
1070
     1
1071
       23
1005
12F3DD
  0
LINE
  5
12F3DE
  8
OBJECT
 10
3958.9999999999918
 20
-1059.9999999999991
 30
0.0
 11
3958.9999999999918
 21
-1064.9999999999991
 31
0.0
1001
ACDBBLOCKREPETAG
1070
     1
1071
       24
1005
12F3DE
  0
LINE
  5
12F3DF
  8
OBJECT
 10
3963.0
 20
-1111.9999999999991
 30
0.0
 11
3963.0
 21
-1114.9999999999991
 31
0.0
1001
ACDBBLOCKREPETAG
1070
     1
1071
       25
1005
12F3DF
  0
LINE
  5
12F3E0
  8
OBJECT
 10
3963.0
 20
-1114.9999999999991
 30
0.0
 11
3973.0
 21
-1114.9999999999991
 31
0.0
1001
ACDBBLOCKREPETAG
1070
     1
1071
       26
1005
12F3E0
  0
LINE
  5
12F3E1
  8
OBJECT
 10
3973.0
 20
-1114.9999999999991
 30
0.0
 11
3973.0
 21
-1111.9999999999991
 31
0.0
1001
ACDBBLOCKREPETAG
1070
     1
1071
       28
1005
12F3E1
  0
LINE
  5
12F3E2
  8
OBJECT
 10
3945.9999999999932
 20
-1079.9999999999991
 30
0.0
 11
3945.9999999999932
 21
-1089.9999999999991
 31
0.0
1001
ACDBBLOCKREPETAG
1070
     1
1071
       29
1005
12F3E2
  0
LINE
  5
12F3E3
  8
OBJECT
 10
4053.9999999999941
 20
-1079.9999999999991
 30
0.0
 11
4053.9999999999941
 21
-1089.9999999999991
 31
0.0
1001
ACDBBLOCKREPETAG
1070
     1
1071
       30
1005
12F3E3
  0
LINE
  5
12F3E4
  8
OBJECT
 10
4044.5
 20
-979.99999999999966
 30
0.0
 11
4065.0
 21
-869.99999999999955
 31
0.0
1001
ACDBBLOCKREPETAG
1070
     1
1071
       31
1005
12F3E4
  0
LINE
  5
12F3E5
  8
OBJECT
 10
3955.5
 20
-979.99999999999966
 30
0.0
 11
4044.5
 21
-979.99999999999966
 31
0.0
1001
ACDBBLOCKREPETAG
1070
     1
1071
       32
1005
12F3E5
  0
LINE
  5
12F3E6
  8
OBJECT
 10
3938.9999999999932
 20
-1079.9999999999991
 30
0.0
 11
3938.9999999999932
 21
-1064.9999999999991
 31
0.0
1001
ACDBBLOCKREPETAG
1070
     1
1071
       33
1005
12F3E6
  0
LINE
  5
12F3E7
  8
OBJECT
 10
3938.9999999999932
 20
-1064.9999999999991
 30
0.0
 11
4075.9999999999918
 21
-1064.9999999999991
 31
0.0
1001
ACDBBLOCKREPETAG
1070
     1
1071
       34
1005
12F3E7
  0
LINE
  5
12F3E8
  8
OBJECT
 10
3955.5
 20
-979.99999999999966
 30
0.0
 11
3955.5
 21
-1029.9999999999991
 31
0.0
1001
ACDBBLOCKREPETAG
1070
     1
1071
       35
1005
12F3E8
  0
LINE
  5
12F3E9
  8
OBJECT
 10
4044.5
 20
-979.99999999999966
 30
0.0
 11
4044.5
 21
-1029.9999999999991
 31
0.0
1001
ACDBBLOCKREPETAG
1070
     1
1071
       36
1005
12F3E9
  0
LINE
  5
12F3EA
  8
OBJECT
 10
3947.0
 20
-1029.9999999999991
 30
0.0
 11
4053.0
 21
-1029.9999999999991
 31
0.0
1001
ACDBBLOCKREPETAG
1070
     1
1071
       37
1005
12F3EA
  0
LINE
  5
12F3EB
  8
OBJECT
 10
4054.9999999999841
 20
-1059.9999999999991
 30
0.0
 11
4054.9999999999841
 21
-1064.9999999999991
 31
0.0
1001
ACDBBLOCKREPETAG
1070
     1
1071
       38
1005
12F3EB
  0
LINE
  5
12F3EC
  8
OBJECT
 10
4073.0
 20
-1059.9999999999991
 30
0.0
 11
4073.0
 21
-1064.9999999999991
 31
0.0
1001
ACDBBLOCKREPETAG
1070
     1
1071
       39
1005
12F3EC
  0
LINE
  5
12F3ED
  8
OBJECT
 10
4073.0
 20
-1059.9999999999991
 30
0.0
 11
4054.9999999999841
 21
-1059.9999999999991
 31
0.0
1001
ACDBBLOCKREPETAG
1070
     1
1071
       40
1005
12F3ED
  0
LINE
  5
12F3EE
  8
HIDDEN
 10
3955.5
 20
-1039.9999999999991
 30
0.0
 11
4044.5
 21
-1039.9999999999991
 31
0.0
1001
ACDBBLOCKREPETAG
1070
     1
1071
       41
1005
12F3EE
  0
LINE
  5
12F3EF
  8
CENTER
 10
4000.0
 20
-769.99999999999955
 30
0.0
 11
4000.0
 21
-1118.9999999999991
 31
0.0
1001
ACDBBLOCKREPETAG
1070
     1
1071
       42
1005
12F3EF
  0
LINE
  5
12F3F0
  8
OBJECT
 10
4065.0
 20
-769.99999999999955
 30
0.0
 11
4065.0
 21
-869.99999999999955
 31
0.0
1001
ACDBBLOCKREPETAG
1070
     1
1071
       43
1005
12F3F0
  0
LINE
  5
12F3F1
  8
OBJECT
 10
3935.0
 20
-769.99999999999955
 30
0.0
 11
3935.0
 21
-869.99999999999955
 31
0.0
1001
ACDBBLOCKREPETAG
1070
     1
1071
       44
1005
12F3F1
  0
LINE
  5
12F3F2
  8
OBJECT
 10
3955.5
 20
-979.99999999999966
 30
0.0
 11
3935.0
 21
-869.99999999999955
 31
0.0
1001
ACDBBLOCKREPETAG
1070
     1
1071
       45
1005
12F3F2
  0
LINE
  5
12F3F3
  8
OBJECT
 10
4065.0
 20
-869.99999999999955
 30
0.0
 11
3935.0
 21
-869.99999999999955
 31
0.0
1001
ACDBBLOCKREPETAG
1070
     1
1071
       46
1005
12F3F3
  0
LINE
  5
12F3F4
  8
OBJECT
 10
3947.0
 20
-1029.9999999999991
 30
0.0
 11
3947.0
 21
-1064.9999999999991
 31
0.0
1001
ACDBBLOCKREPETAG
1070
     1
1071
       47
1005
12F3F4
  0
LINE
  5
12F3F5
  8
OBJECT
 10
4053.0
 20
-1029.9999999999991
 30
0.0
 11
4053.0
 21
-1064.9999999999991
 31
0.0
1001
ACDBBLOCKREPETAG
1070
     1
1071
       48
1005
12F3F5
  0
LINE
  5
12F3F6
  8
OBJECT
 10
3983.0
 20
-1062.9999999999991
 30
0.0
 11
3975.5
 21
-1059.9999999999991
 31
0.0
1001
ACDBBLOCKREPETAG
1070
     1
1071
       49
1005
12F3F6
  0
LINE
  5
12F3F7
  8
OBJECT
 10
4059.0
 20
-1111.9999999999991
 30
0.0
 11
4059.0
 21
-1114.9999999999991
 31
0.0
1001
ACDBBLOCKREPETAG
1070
     1
1071
       54
1005
12F3F7
  0
LINE
  5
12F3F8
  8
OBJECT
 10
4059.0
 20
-1114.9999999999991
 30
0.0
 11
4069.0
 21
-1114.9999999999991
 31
0.0
1001
ACDBBLOCKREPETAG
1070
     1
1071
       55
1005
12F3F8
  0
LINE
  5
12F3F9
  8
OBJECT
 10
4069.0
 20
-1114.9999999999991
 30
0.0
 11
4069.0
 21
-1111.9999999999991
 31
0.0
1001
ACDBBLOCKREPETAG
1070
     1
1071
       57
1005
12F3F9
  0
LINE
  5
12F3FA
  8
OBJECT
 10
3958.185045423772
 20
-1111.9999999999991
 30
0.0
 11
3977.8149545762212
 21
-1111.9999999999991
 31
0.0
1001
ACDBBLOCKREPETAG
1070
     1
1071
      422
1005
12F3FA
  0
LINE
  5
12F3FB
  8
OBJECT
 10
3958.185045423777
 20
-1103.9999999999991
 30
0.0
 11
3958.185045423777
 21
-1111.9999999999991
 31
0.0
1001
ACDBBLOCKREPETAG
1070
     1
1071
      423
1005
12F3FB
  0
LINE
  5
12F3FC
  8
OBJECT
 10
3963.0925227118892
 20
-1103.9999999999991
 30
0.0
 11
3963.0925227118892
 21
-1111.9999999999991
 31
0.0
1001
ACDBBLOCKREPETAG
1070
     1
1071
      424
1005
12F3FC
  0
LINE
  5
12F3FD
  8
OBJECT
 10
3972.9074772881122
 20
-1103.9999999999991
 30
0.0
 11
3972.9074772881122
 21
-1111.9999999999991
 31
0.0
1001
ACDBBLOCKREPETAG
1070
     1
1071
      425
1005
12F3FD
  0
LINE
  5
12F3FE
  8
OBJECT
 10
3977.814954576223
 20
-1103.9999999999991
 30
0.0
 11
3977.814954576223
 21
-1111.9999999999991
 31
0.0
1001
ACDBBLOCKREPETAG
1070
     1
1071
      426
1005
12F3FE
  0
LINE
  5
12F3FF
  8
OBJECT
 10
4054.1850454237701
 20
-1111.9999999999991
 30
0.0
 11
4073.8149545762199
 21
-1111.9999999999991
 31
0.0
1001
ACDBBLOCKREPETAG
1070
     1
1071
      427
1005
12F3FF
  0
LINE
  5
12F400
  8
OBJECT
 10
4054.185045423777
 20
-1103.9999999999991
 30
0.0
 11
4054.185045423777
 21
-1111.9999999999991
 31
0.0
1001
ACDBBLOCKREPETAG
1070
     1
1071
      428
1005
12F400
  0
LINE
  5
12F401
  8
OBJECT
 10
4059.0925227118878
 20
-1103.9999999999991
 30
0.0
 11
4059.0925227118878
 21
-1111.9999999999991
 31
0.0
1001
ACDBBLOCKREPETAG
1070
     1
1071
      429
1005
12F401
  0
LINE
  5
12F402
  8
OBJECT
 10
4068.9074772881122
 20
-1103.9999999999991
 30
0.0
 11
4068.9074772881122
 21
-1111.9999999999991
 31
0.0
1001
ACDBBLOCKREPETAG
1070
     1
1071
      430
1005
12F402
  0
LINE
  5
12F403
  8
OBJECT
 10
4073.814954576223
 20
-1103.9999999999991
 30
0.0
 11
4073.814954576223
 21
-1111.9999999999991
 31
0.0
1001
ACDBBLOCKREPETAG
1070
     1
1071
      431
1005
12F403
  0
LINE
  5
12F404
  8
CENTER
 10
11924.0
 20
-1394.9999999999991
 30
0.0
 11
12091.0
 21
-1394.9999999999991
 31
0.0
1001
ACDBBLOCKREPETAG
1070
     1
1071
       22
1005
12F404
  0
LINE
  5
12F405
  8
CENTER
 10
12000.0
 20
-1318.0518385105161
 30
0.0
 11
12000.0
 21
-1471.948161489478
 31
0.0
1001
ACDBBLOCKREPETAG
1070
     1
1071
       23
1005
12F405
  0
CIRCLE
  5
12F406
  8
OBJECT
 10
12000.0
 20
-1394.9999999999991
 30
0.0
 40
37.5
1001
ACDBBLOCKREPETAG
1070
     1
1071
       24
1005
12F406
  0
CIRCLE
  5
12F407
  8
OBJECT
 10
12000.0
 20
-1394.9999999999991
 30
0.0
 40
47.5
1001
ACDBBLOCKREPETAG
1070
     1
1071
       25
1005
12F407
  0
ARC
  5
12F408
  8
OBJECT
 10
12000.0
 20
-1394.9999999999991
 30
0.0
 40
61.0
 50
40.03737312998139
 51
79.962626870012684
1001
ACDBBLOCKREPETAG
1070
     1
1071
       26
1005
12F408
  0
ARC
  5
12F409
  8
OBJECT
 10
12000.0
 20
-1394.9999999999991
 30
0.0
 40
61.0
 50
160.03737312997501
 51
199.96262687002491
1001
ACDBBLOCKREPETAG
1070
     1
1071
       27
1005
12F409
  0
ARC
  5
12F40A
  8
OBJECT
 10
12000.0
 20
-1394.9999999999991
 30
0.0
 40
61.0
 50
280.03737312998732
 51
319.9626268700186
1001
ACDBBLOCKREPETAG
1070
     1
1071
       28
1005
12F40A
  0
ARC
  5
12F40B
  8
OBJECT
 10
12064.0
 20
-1394.9999999999991
 30
0.0
 40
12.0
 50
319.9626268700186
 51
40.03737312998139
1001
ACDBBLOCKREPETAG
1070
     1
1071
       29
1005
12F40B
  0
LINE
  5
12F40C
  8
OBJECT
 10
12046.703125
 20
-1355.7594837542299
 30
0.0
 11
12073.1875
 21
-1387.2805541811599
 31
0.0
1001
ACDBBLOCKREPETAG
1070
     1
1071
       30
1005
12F40C
  0
LINE
  5
12F40D
  8
OBJECT
 10
12046.703125
 20
-1434.240516245768
 30
0.0
 11
12073.1875
 21
-1402.719445818838
 31
0.0
1001
ACDBBLOCKREPETAG
1070
     1
1071
       31
1005
12F40D
  0
CIRCLE
  5
12F40E
  8
OBJECT
 10
12000.0
 20
-1394.9999999999991
 30
0.0
 40
55.0
1001
ACDBBLOCKREPETAG
1070
     1
1071
       32
1005
12F40E
  0
ARC
  5
12F40F
  8
OBJECT
 10
12064.0
 20
-1394.9999999999991
 30
0.0
 40
12.0
 50
271.2434956101261
 51
88.756504389873882
1001
ACDBBLOCKREPETAG
1070
     1
1071
       33
1005
12F40F
  0
ARC
  5
12F410
  8
OBJECT
 10
12064.5859375
 20
-1368.0063585775049
 30
0.0
 40
15.0
 50
202.68245018366949
 51
268.7565043898739
1001
ACDBBLOCKREPETAG
1070
     1
1071
       34
1005
12F410
  0
CIRCLE
  5
12F411
  8
SLIM
 10
12064.0
 20
-1394.9999999999991
 30
0.0
 40
8.0
1001
ACDBBLOCKREPETAG
1070
     1
1071
       35
1005
12F411
  0
POLYLINE
  5
12F412
  8
SLIM
 66
     1
 10
0.0
 20
0.0
 30
0.0
 70
     1
1001
ACDBBLOCKREPETAG
1070
     1
1071
       36
1005
12F412
  0
VERTEX
  5
12F6ED
  8
SLIM
 10
12061.69059892324
 20
-1390.9999999999991
 30
0.0
  0
VERTEX
  5
12F6EE
  8
SLIM
 10
12059.38119784648
 20
-1394.9999999999991
 30
0.0
  0
VERTEX
  5
12F6EF
  8
SLIM
 10
12061.69059892324
 20
-1398.9999999999991
 30
0.0
  0
VERTEX
  5
12F6F0
  8
SLIM
 10
12066.30940107676
 20
-1398.9999999999991
 30
0.0
  0
VERTEX
  5
12F6F1
  8
SLIM
 10
12068.618802153511
 20
-1394.9999999999991
 30
0.0
  0
VERTEX
  5
12F6F2
  8
SLIM
 10
12066.30940107676
 20
-1390.9999999999991
 30
0.0
  0
SEQEND
  5
12F6F3
  8
SLIM
  0
ARC
  5
12F413
  8
OBJECT
 10
12064.5859375
 20
-1421.993641422489
 30
0.0
 40
15.0
 50
91.243495610126089
 51
157.3175498163304
1001
ACDBBLOCKREPETAG
1070
     1
1071
       37
1005
12F413
  0
ARC
  5
12F414
  8
OBJECT
 10
11968.0
 20
-1339.5743741577919
 30
0.0
 40
12.0
 50
79.962626870012684
 51
160.03737312997501
1001
ACDBBLOCKREPETAG
1070
     1
1071
       38
1005
12F414
  0
LINE
  5
12F415
  8
OBJECT
 10
11942.665153573549
 20
-1374.1741654367599
 30
0.0
 11
11956.721013817751
 21
-1335.477488669944
 31
0.0
1001
ACDBBLOCKREPETAG
1070
     1
1071
       39
1005
12F415
  0
LINE
  5
12F416
  8
OBJECT
 10
12010.631721426451
 20
-1334.9336491909951
 30
0.0
 11
11970.091486182249
 21
-1327.7580428511051
 31
0.0
1001
ACDBBLOCKREPETAG
1070
     1
1071
       40
1005
12F416
  0
ARC
  5
12F417
  8
OBJECT
 10
11968.0
 20
-1339.5743741577919
 30
0.0
 40
12.0
 50
31.243495610056922
 51
208.7565043898139
1001
ACDBBLOCKREPETAG
1070
     1
1071
       41
1005
12F417
  0
ARC
  5
12F418
  8
OBJECT
 10
11944.32985203747
 20
-1352.5637581090109
 30
0.0
 40
15.0
 50
322.68245018387239
 51
28.756504389813902
1001
ACDBBLOCKREPETAG
1070
     1
1071
       42
1005
12F418
  0
CIRCLE
  5
12F419
  8
SLIM
 10
11968.0
 20
-1339.5743741577919
 30
0.0
 40
7.9999999999999982
1001
ACDBBLOCKREPETAG
1070
     1
1071
       43
1005
12F419
  0
POLYLINE
  5
12F41A
  8
SLIM
 66
     1
 10
0.0
 20
0.0
 30
0.0
 70
     1
1001
ACDBBLOCKREPETAG
1070
     1
1071
       44
1005
12F41A
  0
VERTEX
  5
12F6F4
  8
SLIM
 10
11965.69059892324
 20
-1343.574374157796
 30
0.0
  0
VERTEX
  5
12F6F5
  8
SLIM
 10
11970.30940107676
 20
-1343.574374157793
 30
0.0
  0
VERTEX
  5
12F6F6
  8
SLIM
 10
11972.618802153511
 20
-1339.574374157796
 30
0.0
  0
VERTEX
  5
12F6F7
  8
SLIM
 10
11970.309401076751
 20
-1335.574374157793
 30
0.0
  0
VERTEX
  5
12F6F8
  8
SLIM
 10
11965.69059892324
 20
-1335.574374157796
 30
0.0
  0
VERTEX
  5
12F6F9
  8
SLIM
 10
11963.38119784648
 20
-1339.5743741577919
 30
0.0
  0
SEQEND
  5
12F6FA
  8
SLIM
  0
ARC
  5
12F41B
  8
OBJECT
 10
11991.084210462521
 20
-1325.5701166865169
 30
0.0
 40
15.0
 50
211.2434956100569
 51
277.31754981622862
1001
ACDBBLOCKREPETAG
1070
     1
1071
       45
1005
12F41B
  0
ARC
  5
12F41C
  8
OBJECT
 10
11968.0
 20
-1450.425625842202
 30
0.0
 40
12.0
 50
199.96262687002491
 51
280.03737312998732
1001
ACDBBLOCKREPETAG
1070
     1
1071
       46
1005
12F41C
  0
LINE
  5
12F41D
  8
OBJECT
 10
12010.631721426451
 20
-1455.0663508090031
 30
0.0
 11
11970.091486182249
 21
-1462.241957148892
 31
0.0
1001
ACDBBLOCKREPETAG
1070
     1
1071
       47
1005
12F41D
  0
LINE
  5
12F41E
  8
OBJECT
 10
11942.665153573549
 20
-1415.8258345632339
 30
0.0
 11
11956.721013817751
 21
-1454.5225113300539
 31
0.0
1001
ACDBBLOCKREPETAG
1070
     1
1071
       48
1005
12F41E
  0
ARC
  5
12F41F
  8
OBJECT
 10
11968.0
 20
-1450.425625842202
 30
0.0
 40
12.0
 50
151.2434956101861
 51
328.75650438994307
1001
ACDBBLOCKREPETAG
1070
     1
1071
       49
1005
12F41F
  0
ARC
  5
12F420
  8
OBJECT
 10
11991.084210462521
 20
-1464.4298833134769
 30
0.0
 40
15.0
 50
82.682450183771394
 51
148.75650438994299
1001
ACDBBLOCKREPETAG
1070
     1
1071
       50
1005
12F420
  0
CIRCLE
  5
12F421
  8
SLIM
 10
11968.0
 20
-1450.425625842202
 30
0.0
 40
8.0
1001
ACDBBLOCKREPETAG
1070
     1
1071
       51
1005
12F421
  0
POLYLINE
  5
12F422
  8
SLIM
 66
     1
 10
0.0
 20
0.0
 30
0.0
 70
     1
1001
ACDBBLOCKREPETAG
1070
     1
1071
       52
1005
12F422
  0
VERTEX
  5
12F6FB
  8
SLIM
 10
11972.618802153511
 20
-1450.425625842202
 30
0.0
  0
VERTEX
  5
12F6FC
  8
SLIM
 10
11970.309401076751
 20
-1446.425625842202
 30
0.0
  0
VERTEX
  5
12F6FD
  8
SLIM
 10
11965.69059892324
 20
-1446.425625842202
 30
0.0
  0
VERTEX
  5
12F6FE
  8
SLIM
 10
11963.38119784648
 20
-1450.425625842202
 30
0.0
  0
VERTEX
  5
12F6FF
  8
SLIM
 10
11965.69059892324
 20
-1454.425625842202
 30
0.0
  0
VERTEX
  5
12F700
  8
SLIM
 10
11970.309401076751
 20
-1454.425625842202
 30
0.0
  0
SEQEND
  5
12F701
  8
SLIM
  0
ARC
  5
12F423
  8
OBJECT
 10
11944.32985203747
 20
-1437.436241890987
 30
0.0
 40
15.0
 50
331.24349561018607
 51
37.317549816127681
1001
ACDBBLOCKREPETAG
1070
     1
1071
       53
1005
12F423
  0
LINE
  5
12F424
  8
CENTER
 10
9924.0
 20
-1353.9999999999959
 30
0.0
 11
10091.0
 21
-1353.9999999999959
 31
0.0
1001
ACDBBLOCKREPETAG
1070
     1
1071
        0
1005
12F424
  0
LINE
  5
12F425
  8
CENTER
 10
10000.0
 20
-1277.0518385105131
 30
0.0
 11
10000.0
 21
-1430.9481614894751
 31
0.0
1001
ACDBBLOCKREPETAG
1070
     1
1071
        1
1005
12F425
  0
CIRCLE
  5
12F426
  8
OBJECT
 10
10000.0
 20
-1353.9999999999959
 30
0.0
 40
37.5
1001
ACDBBLOCKREPETAG
1070
     1
1071
        2
1005
12F426
  0
CIRCLE
  5
12F427
  8
OBJECT
 10
10000.0
 20
-1353.9999999999959
 30
0.0
 40
49.5
1001
ACDBBLOCKREPETAG
1070
     1
1071
        3
1005
12F427
  0
ARC
  5
12F428
  8
OBJECT
 10
10000.0
 20
-1353.9999999999959
 30
0.0
 40
61.0
 50
40.03737312998139
 51
79.962626870012684
1001
ACDBBLOCKREPETAG
1070
     1
1071
        4
1005
12F428
  0
ARC
  5
12F429
  8
OBJECT
 10
10000.0
 20
-1353.9999999999959
 30
0.0
 40
61.0
 50
160.03737312997501
 51
199.96262687002491
1001
ACDBBLOCKREPETAG
1070
     1
1071
        5
1005
12F429
  0
ARC
  5
12F42A
  8
OBJECT
 10
10000.0
 20
-1353.9999999999959
 30
0.0
 40
61.0
 50
280.03737312998732
 51
319.9626268700186
1001
ACDBBLOCKREPETAG
1070
     1
1071
        6
1005
12F42A
  0
CIRCLE
  5
12F42B
  8
SLIM
 10
10064.0
 20
-1353.9999999999959
 30
0.0
 40
5.0
1001
ACDBBLOCKREPETAG
1070
     1
1071
        7
1005
12F42B
  0
ARC
  5
12F42C
  8
OBJECT
 10
10064.0
 20
-1353.9999999999959
 30
0.0
 40
12.0
 50
319.9626268700186
 51
40.03737312998139
1001
ACDBBLOCKREPETAG
1070
     1
1071
        8
1005
12F42C
  0
LINE
  5
12F42D
  8
OBJECT
 10
10046.703125
 20
-1314.7594837542269
 30
0.0
 11
10073.1875
 21
-1346.280554181157
 31
0.0
1001
ACDBBLOCKREPETAG
1070
     1
1071
        9
1005
12F42D
  0
LINE
  5
12F42E
  8
OBJECT
 10
10046.703125
 20
-1393.2405162457651
 30
0.0
 11
10073.1875
 21
-1361.7194458188351
 31
0.0
1001
ACDBBLOCKREPETAG
1070
     1
1071
       10
1005
12F42E
  0
POLYLINE
  5
12F42F
  8
SLIM
 66
     1
 10
0.0
 20
0.0
 30
0.0
 70
     1
1001
ACDBBLOCKREPETAG
1070
     1
1071
       11
1005
12F42F
  0
VERTEX
  5
12F702
  8
SLIM
 10
10059.092522711881
 20
-1345.4999999999959
 30
0.0
  0
VERTEX
  5
12F703
  8
SLIM
 10
10054.18504542377
 20
-1353.9999999999959
 30
0.0
  0
VERTEX
  5
12F704
  8
SLIM
 10
10059.092522711881
 20
-1362.4999999999959
 30
0.0
  0
VERTEX
  5
12F705
  8
SLIM
 10
10068.907477288099
 20
-1362.4999999999959
 30
0.0
  0
VERTEX
  5
12F706
  8
SLIM
 10
10073.814954576221
 20
-1353.9999999999959
 30
0.0
  0
VERTEX
  5
12F707
  8
SLIM
 10
10068.907477288099
 20
-1345.4999999999959
 30
0.0
  0
SEQEND
  5
12F708
  8
SLIM
  0
CIRCLE
  5
12F430
  8
SLIM
 10
9968.0
 20
-1298.574374157789
 30
0.0
 40
4.9999999999999991
1001
ACDBBLOCKREPETAG
1070
     1
1071
       12
1005
12F430
  0
ARC
  5
12F431
  8
OBJECT
 10
9968.0
 20
-1298.574374157789
 30
0.0
 40
12.0
 50
79.962626870012684
 51
160.03737312997501
1001
ACDBBLOCKREPETAG
1070
     1
1071
       13
1005
12F431
  0
LINE
  5
12F432
  8
OBJECT
 10
9942.6651535735436
 20
-1333.174165436757
 30
0.0
 11
9956.7210138177488
 21
-1294.4774886699411
 31
0.0
1001
ACDBBLOCKREPETAG
1070
     1
1071
       14
1005
12F432
  0
LINE
  5
12F433
  8
OBJECT
 10
10010.631721426451
 20
-1293.9336491909919
 30
0.0
 11
9970.091486182253
 21
-1286.7580428511019
 31
0.0
1001
ACDBBLOCKREPETAG
1070
     1
1071
       15
1005
12F433
  0
POLYLINE
  5
12F434
  8
SLIM
 66
     1
 10
0.0
 20
0.0
 30
0.0
 70
     1
1001
ACDBBLOCKREPETAG
1070
     1
1071
       16
1005
12F434
  0
VERTEX
  5
12F709
  8
SLIM
 10
9963.0925227118896
 20
-1307.074374157789
 30
0.0
  0
VERTEX
  5
12F70A
  8
SLIM
 10
9972.9074772881177
 20
-1307.074374157793
 30
0.0
  0
VERTEX
  5
12F70B
  8
SLIM
 10
9977.814954576219
 20
-1298.574374157789
 30
0.0
  0
VERTEX
  5
12F70C
  8
SLIM
 10
9972.9074772881177
 20
-1290.074374157793
 30
0.0
  0
VERTEX
  5
12F70D
  8
SLIM
 10
9963.0925227118896
 20
-1290.074374157789
 30
0.0
  0
VERTEX
  5
12F70E
  8
SLIM
 10
9958.1850454237738
 20
-1298.574374157793
 30
0.0
  0
SEQEND
  5
12F70F
  8
SLIM
  0
CIRCLE
  5
12F435
  8
SLIM
 10
9968.0
 20
-1409.425625842199
 30
0.0
 40
5.0
1001
ACDBBLOCKREPETAG
1070
     1
1071
       17
1005
12F435
  0
ARC
  5
12F436
  8
OBJECT
 10
9968.0
 20
-1409.425625842199
 30
0.0
 40
12.0
 50
199.96262687002491
 51
280.03737312998732
1001
ACDBBLOCKREPETAG
1070
     1
1071
       18
1005
12F436
  0
LINE
  5
12F437
  8
OBJECT
 10
10010.631721426451
 20
-1414.066350808999
 30
0.0
 11
9970.091486182253
 21
-1421.241957148889
 31
0.0
1001
ACDBBLOCKREPETAG
1070
     1
1071
       19
1005
12F437
  0
LINE
  5
12F438
  8
OBJECT
 10
9942.6651535735436
 20
-1374.825834563231
 30
0.0
 11
9956.7210138177488
 21
-1413.5225113300501
 31
0.0
1001
ACDBBLOCKREPETAG
1070
     1
1071
       20
1005
12F438
  0
POLYLINE
  5
12F439
  8
SLIM
 66
     1
 10
0.0
 20
0.0
 30
0.0
 70
     1
1001
ACDBBLOCKREPETAG
1070
     1
1071
       21
1005
12F439
  0
VERTEX
  5
12F710
  8
SLIM
 10
9977.814954576219
 20
-1409.425625842199
 30
0.0
  0
VERTEX
  5
12F711
  8
SLIM
 10
9972.9074772881049
 20
-1400.925625842199
 30
0.0
  0
VERTEX
  5
12F712
  8
SLIM
 10
9963.0925227118896
 20
-1400.925625842199
 30
0.0
  0
VERTEX
  5
12F713
  8
SLIM
 10
9958.1850454237738
 20
-1409.425625842199
 30
0.0
  0
VERTEX
  5
12F714
  8
SLIM
 10
9963.0925227118896
 20
-1417.925625842199
 30
0.0
  0
VERTEX
  5
12F715
  8
SLIM
 10
9972.9074772881177
 20
-1417.925625842199
 30
0.0
  0
SEQEND
  5
12F716
  8
SLIM
  0
LINE
  5
12F43A
  8
CENTER
 10
5924.0
 20
-1394.9999999999991
 30
0.0
 11
6091.0
 21
-1394.9999999999991
 31
0.0
1001
ACDBBLOCKREPETAG
1070
     1
1071
       22
1005
12F43A
  0
LINE
  5
12F43B
  8
CENTER
 10
6000.0
 20
-1318.0518385105161
 30
0.0
 11
6000.0
 21
-1471.948161489478
 31
0.0
1001
ACDBBLOCKREPETAG
1070
     1
1071
       23
1005
12F43B
  0
CIRCLE
  5
12F43C
  8
OBJECT
 10
6000.0
 20
-1394.9999999999991
 30
0.0
 40
37.5
1001
ACDBBLOCKREPETAG
1070
     1
1071
       24
1005
12F43C
  0
CIRCLE
  5
12F43D
  8
OBJECT
 10
6000.0
 20
-1394.9999999999991
 30
0.0
 40
47.5
1001
ACDBBLOCKREPETAG
1070
     1
1071
       25
1005
12F43D
  0
ARC
  5
12F43E
  8
OBJECT
 10
6000.0
 20
-1394.9999999999991
 30
0.0
 40
61.0
 50
40.03737312998139
 51
79.962626870012684
1001
ACDBBLOCKREPETAG
1070
     1
1071
       26
1005
12F43E
  0
ARC
  5
12F43F
  8
OBJECT
 10
6000.0
 20
-1394.9999999999991
 30
0.0
 40
61.0
 50
160.03737312997501
 51
199.96262687002491
1001
ACDBBLOCKREPETAG
1070
     1
1071
       27
1005
12F43F
  0
ARC
  5
12F440
  8
OBJECT
 10
6000.0
 20
-1394.9999999999991
 30
0.0
 40
61.0
 50
280.03737312998732
 51
319.9626268700186
1001
ACDBBLOCKREPETAG
1070
     1
1071
       28
1005
12F440
  0
ARC
  5
12F441
  8
OBJECT
 10
6064.0
 20
-1394.9999999999991
 30
0.0
 40
12.0
 50
319.9626268700186
 51
40.03737312998139
1001
ACDBBLOCKREPETAG
1070
     1
1071
       29
1005
12F441
  0
LINE
  5
12F442
  8
OBJECT
 10
6046.703125
 20
-1355.7594837542299
 30
0.0
 11
6073.1875
 21
-1387.2805541811599
 31
0.0
1001
ACDBBLOCKREPETAG
1070
     1
1071
       30
1005
12F442
  0
LINE
  5
12F443
  8
OBJECT
 10
6046.703125
 20
-1434.240516245768
 30
0.0
 11
6073.1875
 21
-1402.719445818838
 31
0.0
1001
ACDBBLOCKREPETAG
1070
     1
1071
       31
1005
12F443
  0
CIRCLE
  5
12F444
  8
OBJECT
 10
6000.0
 20
-1394.9999999999991
 30
0.0
 40
55.0
1001
ACDBBLOCKREPETAG
1070
     1
1071
       32
1005
12F444
  0
ARC
  5
12F445
  8
OBJECT
 10
6064.0
 20
-1394.9999999999991
 30
0.0
 40
12.0
 50
271.2434956101261
 51
88.756504389873882
1001
ACDBBLOCKREPETAG
1070
     1
1071
       33
1005
12F445
  0
ARC
  5
12F446
  8
OBJECT
 10
6064.5859375
 20
-1368.0063585775049
 30
0.0
 40
15.0
 50
202.68245018366949
 51
268.7565043898739
1001
ACDBBLOCKREPETAG
1070
     1
1071
       34
1005
12F446
  0
CIRCLE
  5
12F447
  8
SLIM
 10
6064.0
 20
-1394.9999999999991
 30
0.0
 40
8.0
1001
ACDBBLOCKREPETAG
1070
     1
1071
       35
1005
12F447
  0
POLYLINE
  5
12F448
  8
SLIM
 66
     1
 10
0.0
 20
0.0
 30
0.0
 70
     1
1001
ACDBBLOCKREPETAG
1070
     1
1071
       36
1005
12F448
  0
VERTEX
  5
12F717
  8
SLIM
 10
6061.69059892324
 20
-1390.9999999999991
 30
0.0
  0
VERTEX
  5
12F718
  8
SLIM
 10
6059.3811978464846
 20
-1394.9999999999991
 30
0.0
  0
VERTEX
  5
12F719
  8
SLIM
 10
6061.69059892324
 20
-1398.9999999999991
 30
0.0
  0
VERTEX
  5
12F71A
  8
SLIM
 10
6066.30940107676
 20
-1398.9999999999991
 30
0.0
  0
VERTEX
  5
12F71B
  8
SLIM
 10
6068.6188021535154
 20
-1394.9999999999991
 30
0.0
  0
VERTEX
  5
12F71C
  8
SLIM
 10
6066.30940107676
 20
-1390.9999999999991
 30
0.0
  0
SEQEND
  5
12F71D
  8
SLIM
  0
ARC
  5
12F449
  8
OBJECT
 10
6064.5859375
 20
-1421.993641422489
 30
0.0
 40
15.0
 50
91.243495610126089
 51
157.3175498163304
1001
ACDBBLOCKREPETAG
1070
     1
1071
       37
1005
12F449
  0
ARC
  5
12F44A
  8
OBJECT
 10
5968.0
 20
-1339.5743741577919
 30
0.0
 40
12.0
 50
79.962626870012684
 51
160.03737312997501
1001
ACDBBLOCKREPETAG
1070
     1
1071
       38
1005
12F44A
  0
LINE
  5
12F44B
  8
OBJECT
 10
5942.6651535735473
 20
-1374.1741654367599
 30
0.0
 11
5956.721013817747
 21
-1335.477488669944
 31
0.0
1001
ACDBBLOCKREPETAG
1070
     1
1071
       39
1005
12F44B
  0
LINE
  5
12F44C
  8
OBJECT
 10
6010.6317214264518
 20
-1334.9336491909951
 30
0.0
 11
5970.091486182253
 21
-1327.7580428511051
 31
0.0
1001
ACDBBLOCKREPETAG
1070
     1
1071
       40
1005
12F44C
  0
ARC
  5
12F44D
  8
OBJECT
 10
5968.0
 20
-1339.5743741577919
 30
0.0
 40
12.0
 50
31.243495610056922
 51
208.7565043898139
1001
ACDBBLOCKREPETAG
1070
     1
1071
       41
1005
12F44D
  0
ARC
  5
12F44E
  8
OBJECT
 10
5944.3298520374738
 20
-1352.5637581090109
 30
0.0
 40
15.0
 50
322.68245018387239
 51
28.756504389813902
1001
ACDBBLOCKREPETAG
1070
     1
1071
       42
1005
12F44E
  0
CIRCLE
  5
12F44F
  8
SLIM
 10
5968.0
 20
-1339.5743741577919
 30
0.0
 40
7.9999999999999982
1001
ACDBBLOCKREPETAG
1070
     1
1071
       43
1005
12F44F
  0
POLYLINE
  5
12F450
  8
SLIM
 66
     1
 10
0.0
 20
0.0
 30
0.0
 70
     1
1001
ACDBBLOCKREPETAG
1070
     1
1071
       44
1005
12F450
  0
VERTEX
  5
12F71E
  8
SLIM
 10
5965.6905989232419
 20
-1343.574374157796
 30
0.0
  0
VERTEX
  5
12F71F
  8
SLIM
 10
5970.30940107676
 20
-1343.574374157793
 30
0.0
  0
VERTEX
  5
12F720
  8
SLIM
 10
5972.6188021535154
 20
-1339.574374157796
 30
0.0
  0
VERTEX
  5
12F721
  8
SLIM
 10
5970.3094010767572
 20
-1335.574374157793
 30
0.0
  0
VERTEX
  5
12F722
  8
SLIM
 10
5965.6905989232419
 20
-1335.574374157796
 30
0.0
  0
VERTEX
  5
12F723
  8
SLIM
 10
5963.3811978464846
 20
-1339.5743741577919
 30
0.0
  0
SEQEND
  5
12F724
  8
SLIM
  0
ARC
  5
12F451
  8
OBJECT
 10
5991.0842104625253
 20
-1325.5701166865169
 30
0.0
 40
15.0
 50
211.2434956100569
 51
277.31754981622862
1001
ACDBBLOCKREPETAG
1070
     1
1071
       45
1005
12F451
  0
ARC
  5
12F452
  8
OBJECT
 10
5968.0
 20
-1450.425625842202
 30
0.0
 40
12.0
 50
199.96262687002491
 51
280.03737312998732
1001
ACDBBLOCKREPETAG
1070
     1
1071
       46
1005
12F452
  0
LINE
  5
12F453
  8
OBJECT
 10
6010.6317214264518
 20
-1455.0663508090031
 30
0.0
 11
5970.091486182253
 21
-1462.241957148892
 31
0.0
1001
ACDBBLOCKREPETAG
1070
     1
1071
       47
1005
12F453
  0
LINE
  5
12F454
  8
OBJECT
 10
5942.6651535735473
 20
-1415.8258345632339
 30
0.0
 11
5956.721013817747
 21
-1454.5225113300539
 31
0.0
1001
ACDBBLOCKREPETAG
1070
     1
1071
       48
1005
12F454
  0
ARC
  5
12F455
  8
OBJECT
 10
5968.0
 20
-1450.425625842202
 30
0.0
 40
12.0
 50
151.2434956101861
 51
328.75650438994307
1001
ACDBBLOCKREPETAG
1070
     1
1071
       49
1005
12F455
  0
ARC
  5
12F456
  8
OBJECT
 10
5991.0842104625253
 20
-1464.4298833134769
 30
0.0
 40
15.0
 50
82.682450183771394
 51
148.75650438994299
1001
ACDBBLOCKREPETAG
1070
     1
1071
       50
1005
12F456
  0
CIRCLE
  5
12F457
  8
SLIM
 10
5968.0
 20
-1450.425625842202
 30
0.0
 40
8.0
1001
ACDBBLOCKREPETAG
1070
     1
1071
       51
1005
12F457
  0
POLYLINE
  5
12F458
  8
SLIM
 66
     1
 10
0.0
 20
0.0
 30
0.0
 70
     1
1001
ACDBBLOCKREPETAG
1070
     1
1071
       52
1005
12F458
  0
VERTEX
  5
12F725
  8
SLIM
 10
5972.6188021535154
 20
-1450.425625842202
 30
0.0
  0
VERTEX
  5
12F726
  8
SLIM
 10
5970.3094010767572
 20
-1446.425625842202
 30
0.0
  0
VERTEX
  5
12F727
  8
SLIM
 10
5965.6905989232419
 20
-1446.425625842202
 30
0.0
  0
VERTEX
  5
12F728
  8
SLIM
 10
5963.3811978464846
 20
-1450.425625842202
 30
0.0
  0
VERTEX
  5
12F729
  8
SLIM
 10
5965.69059892324
 20
-1454.425625842202
 30
0.0
  0
VERTEX
  5
12F72A
  8
SLIM
 10
5970.3094010767572
 20
-1454.425625842202
 30
0.0
  0
SEQEND
  5
12F72B
  8
SLIM
  0
ARC
  5
12F459
  8
OBJECT
 10
5944.3298520374738
 20
-1437.436241890987
 30
0.0
 40
15.0
 50
331.24349561018607
 51
37.317549816127681
1001
ACDBBLOCKREPETAG
1070
     1
1071
       53
1005
12F459
  0
LINE
  5
12F45A
  8
CENTER
 10
3924.0
 20
-1353.9999999999959
 30
0.0
 11
4091.0
 21
-1353.9999999999959
 31
0.0
1001
ACDBBLOCKREPETAG
1070
     1
1071
        0
1005
12F45A
  0
LINE
  5
12F45B
  8
CENTER
 10
4000.0
 20
-1277.0518385105131
 30
0.0
 11
4000.0
 21
-1430.9481614894751
 31
0.0
1001
ACDBBLOCKREPETAG
1070
     1
1071
        1
1005
12F45B
  0
CIRCLE
  5
12F45C
  8
OBJECT
 10
4000.0
 20
-1353.9999999999959
 30
0.0
 40
37.5
1001
ACDBBLOCKREPETAG
1070
     1
1071
        2
1005
12F45C
  0
CIRCLE
  5
12F45D
  8
OBJECT
 10
4000.0
 20
-1353.9999999999959
 30
0.0
 40
49.5
1001
ACDBBLOCKREPETAG
1070
     1
1071
        3
1005
12F45D
  0
ARC
  5
12F45E
  8
OBJECT
 10
4000.0
 20
-1353.9999999999959
 30
0.0
 40
61.0
 50
40.03737312998139
 51
79.962626870012684
1001
ACDBBLOCKREPETAG
1070
     1
1071
        4
1005
12F45E
  0
ARC
  5
12F45F
  8
OBJECT
 10
4000.0
 20
-1353.9999999999959
 30
0.0
 40
61.0
 50
160.03737312997501
 51
199.96262687002491
1001
ACDBBLOCKREPETAG
1070
     1
1071
        5
1005
12F45F
  0
ARC
  5
12F460
  8
OBJECT
 10
4000.0
 20
-1353.9999999999959
 30
0.0
 40
61.0
 50
280.03737312998732
 51
319.9626268700186
1001
ACDBBLOCKREPETAG
1070
     1
1071
        6
1005
12F460
  0
CIRCLE
  5
12F461
  8
SLIM
 10
4064.0
 20
-1353.9999999999959
 30
0.0
 40
5.0
1001
ACDBBLOCKREPETAG
1070
     1
1071
        7
1005
12F461
  0
ARC
  5
12F462
  8
OBJECT
 10
4064.0
 20
-1353.9999999999959
 30
0.0
 40
12.0
 50
319.9626268700186
 51
40.03737312998139
1001
ACDBBLOCKREPETAG
1070
     1
1071
        8
1005
12F462
  0
LINE
  5
12F463
  8
OBJECT
 10
4046.7031249999982
 20
-1314.7594837542269
 30
0.0
 11
4073.1875
 21
-1346.280554181157
 31
0.0
1001
ACDBBLOCKREPETAG
1070
     1
1071
        9
1005
12F463
  0
LINE
  5
12F464
  8
OBJECT
 10
4046.7031249999982
 20
-1393.2405162457651
 30
0.0
 11
4073.1875
 21
-1361.7194458188351
 31
0.0
1001
ACDBBLOCKREPETAG
1070
     1
1071
       10
1005
12F464
  0
POLYLINE
  5
12F465
  8
SLIM
 66
     1
 10
0.0
 20
0.0
 30
0.0
 70
     1
1001
ACDBBLOCKREPETAG
1070
     1
1071
       11
1005
12F465
  0
VERTEX
  5
12F72C
  8
SLIM
 10
4059.0925227118851
 20
-1345.4999999999959
 30
0.0
  0
VERTEX
  5
12F72D
  8
SLIM
 10
4054.1850454237701
 20
-1353.9999999999959
 30
0.0
  0
VERTEX
  5
12F72E
  8
SLIM
 10
4059.0925227118851
 20
-1362.4999999999959
 30
0.0
  0
VERTEX
  5
12F72F
  8
SLIM
 10
4068.9074772881072
 20
-1362.4999999999959
 30
0.0
  0
VERTEX
  5
12F730
  8
SLIM
 10
4073.8149545762199
 20
-1353.9999999999959
 30
0.0
  0
VERTEX
  5
12F731
  8
SLIM
 10
4068.9074772881072
 20
-1345.4999999999959
 30
0.0
  0
SEQEND
  5
12F732
  8
SLIM
  0
CIRCLE
  5
12F466
  8
SLIM
 10
3968.0
 20
-1298.574374157789
 30
0.0
 40
4.9999999999999991
1001
ACDBBLOCKREPETAG
1070
     1
1071
       12
1005
12F466
  0
ARC
  5
12F467
  8
OBJECT
 10
3968.0
 20
-1298.574374157789
 30
0.0
 40
12.0
 50
79.962626870012684
 51
160.03737312997501
1001
ACDBBLOCKREPETAG
1070
     1
1071
       13
1005
12F467
  0
LINE
  5
12F468
  8
OBJECT
 10
3942.6651535735441
 20
-1333.174165436757
 30
0.0
 11
3956.721013817747
 21
-1294.4774886699411
 31
0.0
1001
ACDBBLOCKREPETAG
1070
     1
1071
       14
1005
12F468
  0
LINE
  5
12F469
  8
OBJECT
 10
4010.6317214264491
 20
-1293.9336491909919
 30
0.0
 11
3970.091486182253
 21
-1286.7580428511019
 31
0.0
1001
ACDBBLOCKREPETAG
1070
     1
1071
       15
1005
12F469
  0
POLYLINE
  5
12F46A
  8
SLIM
 66
     1
 10
0.0
 20
0.0
 30
0.0
 70
     1
1001
ACDBBLOCKREPETAG
1070
     1
1071
       16
1005
12F46A
  0
VERTEX
  5
12F733
  8
SLIM
 10
3963.092522711886
 20
-1307.074374157789
 30
0.0
  0
VERTEX
  5
12F734
  8
SLIM
 10
3972.907477288114
 20
-1307.074374157793
 30
0.0
  0
VERTEX
  5
12F735
  8
SLIM
 10
3977.8149545762212
 20
-1298.574374157789
 30
0.0
  0
VERTEX
  5
12F736
  8
SLIM
 10
3972.907477288114
 20
-1290.074374157793
 30
0.0
  0
VERTEX
  5
12F737
  8
SLIM
 10
3963.092522711886
 20
-1290.074374157789
 30
0.0
  0
VERTEX
  5
12F738
  8
SLIM
 10
3958.185045423772
 20
-1298.574374157793
 30
0.0
  0
SEQEND
  5
12F739
  8
SLIM
  0
CIRCLE
  5
12F46B
  8
SLIM
 10
3968.0
 20
-1409.425625842199
 30
0.0
 40
5.0
1001
ACDBBLOCKREPETAG
1070
     1
1071
       17
1005
12F46B
  0
ARC
  5
12F46C
  8
OBJECT
 10
3968.0
 20
-1409.425625842199
 30
0.0
 40
12.0
 50
199.96262687002491
 51
280.03737312998732
1001
ACDBBLOCKREPETAG
1070
     1
1071
       18
1005
12F46C
  0
LINE
  5
12F46D
  8
OBJECT
 10
4010.6317214264491
 20
-1414.066350808999
 30
0.0
 11
3970.091486182253
 21
-1421.241957148889
 31
0.0
1001
ACDBBLOCKREPETAG
1070
     1
1071
       19
1005
12F46D
  0
LINE
  5
12F46E
  8
OBJECT
 10
3942.6651535735441
 20
-1374.825834563231
 30
0.0
 11
3956.721013817747
 21
-1413.5225113300501
 31
0.0
1001
ACDBBLOCKREPETAG
1070
     1
1071
       20
1005
12F46E
  0
POLYLINE
  5
12F46F
  8
SLIM
 66
     1
 10
0.0
 20
0.0
 30
0.0
 70
     1
1001
ACDBBLOCKREPETAG
1070
     1
1071
       21
1005
12F46F
  0
VERTEX
  5
12F73A
  8
SLIM
 10
3977.8149545762212
 20
-1409.425625842199
 30
0.0
  0
VERTEX
  5
12F73B
  8
SLIM
 10
3972.9074772881072
 20
-1400.925625842199
 30
0.0
  0
VERTEX
  5
12F73C
  8
SLIM
 10
3963.092522711886
 20
-1400.925625842199
 30
0.0
  0
VERTEX
  5
12F73D
  8
SLIM
 10
3958.185045423772
 20
-1409.425625842199
 30
0.0
  0
VERTEX
  5
12F73E
  8
SLIM
 10
3963.092522711886
 20
-1417.925625842199
 30
0.0
  0
VERTEX
  5
12F73F
  8
SLIM
 10
3972.907477288114
 20
-1417.925625842199
 30
0.0
  0
SEQEND
  5
12F740
  8
SLIM
  0
LINE
  5
12F470
  8
OBJECT
 10
2044.5
 20
-1079.999999999992
 30
0.0
 11
1955.5
 21
-1079.999999999992
 31
0.0
1001
ACDBBLOCKREPETAG
1070
     1
1071
        0
1005
12F470
  0
LINE
  5
12F471
  8
OBJECT
 10
1935.0
 20
-869.99999999999216
 30
0.0
 11
1935.0
 21
-769.99999999999204
 31
0.0
1001
ACDBBLOCKREPETAG
1070
     1
1071
        1
1005
12F471
  0
LINE
  5
12F472
  8
OBJECT
 10
2065.0
 20
-869.99999999999216
 30
0.0
 11
2065.0
 21
-769.99999999999204
 31
0.0
1001
ACDBBLOCKREPETAG
1070
     1
1071
        2
1005
12F472
  0
LINE
  5
12F473
  8
OBJECT
 10
1935.0
 20
-869.99999999999216
 30
0.0
 11
2065.0
 21
-869.99999999999216
 31
0.0
1001
ACDBBLOCKREPETAG
1070
     1
1071
        3
1005
12F473
  0
LINE
  5
12F474
  8
OBJECT
 10
1955.5
 20
-979.99999999999204
 30
0.0
 11
2044.5
 21
-979.99999999999204
 31
0.0
1001
ACDBBLOCKREPETAG
1070
     1
1071
        4
1005
12F474
  0
LINE
  5
12F475
  8
OBJECT
 10
1955.5
 20
-979.99999999999204
 30
0.0
 11
1955.5
 21
-1079.999999999992
 31
0.0
1001
ACDBBLOCKREPETAG
1070
     1
1071
        5
1005
12F475
  0
LINE
  5
12F476
  8
OBJECT
 10
2044.5
 20
-979.99999999999204
 30
0.0
 11
2044.5
 21
-1079.999999999992
 31
0.0
1001
ACDBBLOCKREPETAG
1070
     1
1071
        6
1005
12F476
  0
LINE
  5
12F477
  8
OBJECT
 10
1935.0
 20
-869.99999999999216
 30
0.0
 11
1955.5
 21
-979.99999999999204
 31
0.0
1001
ACDBBLOCKREPETAG
1070
     1
1071
        7
1005
12F477
  0
LINE
  5
12F478
  8
OBJECT
 10
2044.5
 20
-979.99999999999204
 30
0.0
 11
2065.0
 21
-869.99999999999216
 31
0.0
1001
ACDBBLOCKREPETAG
1070
     1
1071
        8
1005
12F478
  0
LINE
  5
12F479
  8
HIDDEN
 10
1962.5
 20
-979.99999999999204
 30
0.0
 11
1962.5
 21
-1079.999999999992
 31
0.0
1001
ACDBBLOCKREPETAG
1070
     1
1071
        9
1005
12F479
  0
LINE
  5
12F47A
  8
HIDDEN
 10
2037.5
 20
-979.99999999999204
 30
0.0
 11
2037.5
 21
-1079.999999999992
 31
0.0
1001
ACDBBLOCKREPETAG
1070
     1
1071
       10
1005
12F47A
  0
LINE
  5
12F47B
  8
CENTER
 10
2000.0
 20
-769.99999999999955
 30
0.0
 11
2000.0
 21
-1094.999999999992
 31
0.0
1001
ACDBBLOCKREPETAG
1070
     1
1071
       11
1005
12F47B
  0
LINE
  5
12F47C
  8
OBJECT
 10
1927.0
 20
-633.99999999999955
 30
0.0
 11
1930.0
 21
-633.99999999999955
 31
0.0
1001
ACDBBLOCKREPETAG
1070
     1
1071
        1
1005
12F47C
  0
ARC
  5
12F47D
  8
OBJECT
 10
1927.0
 20
-636.99999999999955
 30
0.0
 40
3.0
 50
90.0
 51
180.0
1001
ACDBBLOCKREPETAG
1070
     1
1071
        2
1005
12F47D
  0
LINE
  5
12F47E
  8
OBJECT
 10
1930.0
 20
-757.99999999999955
 30
0.0
 11
1927.0
 21
-757.99999999999955
 31
0.0
1001
ACDBBLOCKREPETAG
1070
     1
1071
        3
1005
12F47E
  0
ARC
  5
12F47F
  8
OBJECT
 10
1927.0
 20
-754.99999999999955
 30
0.0
 40
3.0
 50
180.0
 51
270.0
1001
ACDBBLOCKREPETAG
1070
     1
1071
        4
1005
12F47F
  0
LINE
  5
12F480
  8
OBJECT
 10
1924.0
 20
-754.99999999999955
 30
0.0
 11
1924.0
 21
-636.99999999999955
 31
0.0
1001
ACDBBLOCKREPETAG
1070
     1
1071
        5
1005
12F480
  0
LINE
  5
12F481
  8
CENTER
 10
1909.0
 20
-199.99999999999909
 30
0.0
 11
1930.0
 21
-199.99999999999909
 31
0.0
1001
ACDBBLOCKREPETAG
1070
     1
1071
        0
1005
12F481
  0
LINE
  5
12F482
  8
OBJECT
 10
1927.0
 20
-261.99999999999909
 30
0.0
 11
1930.0
 21
-261.99999999999909
 31
0.0
1001
ACDBBLOCKREPETAG
1070
     1
1071
        1
1005
12F482
  0
ARC
  5
12F483
  8
OBJECT
 10
1927.0
 20
-258.99999999999909
 30
0.0
 40
3.0
 50
180.0
 51
270.0
1001
ACDBBLOCKREPETAG
1070
     1
1071
        2
1005
12F483
  0
LINE
  5
12F484
  8
OBJECT
 10
1930.0
 20
-137.99999999999909
 30
0.0
 11
1927.0
 21
-137.99999999999909
 31
0.0
1001
ACDBBLOCKREPETAG
1070
     1
1071
        3
1005
12F484
  0
ARC
  5
12F485
  8
OBJECT
 10
1927.0
 20
-140.99999999999909
 30
0.0
 40
3.0
 50
90.0
 51
180.0
1001
ACDBBLOCKREPETAG
1070
     1
1071
        4
1005
12F485
  0
LINE
  5
12F486
  8
OBJECT
 10
1924.0
 20
-140.99999999999909
 30
0.0
 11
1924.0
 21
-258.99999999999909
 31
0.0
1001
ACDBBLOCKREPETAG
1070
     1
1071
        5
1005
12F486
  0
LINE
  5
12F487
  8
OBJECT
 10
2047.0
 20
-322.99999999999898
 30
0.0
 11
2047.0
 21
-329.99999999999898
 31
0.0
1001
ACDBBLOCKREPETAG
1070
     1
1071
        7
1005
12F487
  0
LINE
  5
12F488
  8
OBJECT
 10
2047.0
 20
-329.99999999999898
 30
0.0
 11
1953.0
 21
-329.99999999999898
 31
0.0
1001
ACDBBLOCKREPETAG
1070
     1
1071
        8
1005
12F488
  0
LINE
  5
12F489
  8
OBJECT
 10
1953.0
 20
-329.99999999999898
 30
0.0
 11
1953.0
 21
-322.99999999999898
 31
0.0
1001
ACDBBLOCKREPETAG
1070
     1
1071
        9
1005
12F489
  0
LINE
  5
12F48A
  8
OBJECT
 10
1953.0
 20
-322.99999999999898
 30
0.0
 11
2047.0
 21
-322.99999999999898
 31
0.0
1001
ACDBBLOCKREPETAG
1070
     1
1071
       10
1005
12F48A
  0
LINE
  5
12F48B
  8
CENTER
 10
2000.0
 20
-344.99999999999909
 30
0.0
 11
2000.0
 21
-269.99999999999909
 31
0.0
1001
ACDBBLOCKREPETAG
1070
     1
1071
       11
1005
12F48B
  0
LINE
  5
12F48C
  8
OBJECT
 10
2044.0
 20
-322.99999999999898
 30
0.0
 11
2044.0
 21
-286.99999999999898
 31
0.0
1001
ACDBBLOCKREPETAG
1070
     1
1071
       12
1005
12F48C
  0
LINE
  5
12F48D
  8
OBJECT
 10
2044.0
 20
-286.99999999999898
 30
0.0
 11
1956.0
 21
-286.99999999999898
 31
0.0
1001
ACDBBLOCKREPETAG
1070
     1
1071
       13
1005
12F48D
  0
LINE
  5
12F48E
  8
OBJECT
 10
1956.0
 20
-286.99999999999898
 30
0.0
 11
1956.0
 21
-322.99999999999898
 31
0.0
1001
ACDBBLOCKREPETAG
1070
     1
1071
       14
1005
12F48E
  0
LINE
  5
12F48F
  8
OBJECT
 10
2039.5
 20
-282.99999999999898
 30
0.0
 11
2039.5
 21
-275.99999999999909
 31
0.0
1001
ACDBBLOCKREPETAG
1070
     1
1071
       15
1005
12F48F
  0
LINE
  5
12F490
  8
OBJECT
 10
1960.5
 20
-275.99999999999909
 30
0.0
 11
1960.5
 21
-282.99999999999898
 31
0.0
1001
ACDBBLOCKREPETAG
1070
     1
1071
       16
1005
12F490
  0
LINE
  5
12F491
  8
OBJECT
 10
1960.5
 20
-282.99999999999898
 30
0.0
 11
2039.5
 21
-282.99999999999898
 31
0.0
1001
ACDBBLOCKREPETAG
1070
     1
1071
       17
1005
12F491
  0
LINE
  5
12F492
  8
OBJECT
 10
2044.0
 20
-286.99999999999898
 30
0.0
 11
2039.5
 21
-282.99999999999898
 31
0.0
1001
ACDBBLOCKREPETAG
1070
     1
1071
       18
1005
12F492
  0
LINE
  5
12F493
  8
OBJECT
 10
1956.0
 20
-286.99999999999898
 30
0.0
 11
1960.5
 21
-282.99999999999898
 31
0.0
1001
ACDBBLOCKREPETAG
1070
     1
1071
       19
1005
12F493
  0
LINE
  5
12F494
  8
OBJECT
 10
2062.0
 20
-272.99999999999909
 30
0.0
 11
2062.0
 21
-269.99999999999909
 31
0.0
1001
ACDBBLOCKREPETAG
1070
     1
1071
       20
1005
12F494
  0
ARC
  5
12F495
  8
OBJECT
 10
2059.0
 20
-272.99999999999909
 30
0.0
 40
3.0
 50
270.0
 51
0.0
1001
ACDBBLOCKREPETAG
1070
     1
1071
       21
1005
12F495
  0
LINE
  5
12F496
  8
OBJECT
 10
1938.0
 20
-269.99999999999909
 30
0.0
 11
1938.0
 21
-272.99999999999909
 31
0.0
1001
ACDBBLOCKREPETAG
1070
     1
1071
       22
1005
12F496
  0
ARC
  5
12F497
  8
OBJECT
 10
1941.0
 20
-272.99999999999909
 30
0.0
 40
3.0
 50
180.0
 51
270.0
1001
ACDBBLOCKREPETAG
1070
     1
1071
       23
1005
12F497
  0
LINE
  5
12F498
  8
OBJECT
 10
1941.0
 20
-275.99999999999909
 30
0.0
 11
2059.0
 21
-275.99999999999909
 31
0.0
1001
ACDBBLOCKREPETAG
1070
     1
1071
       24
1005
12F498
  0
LINE
  5
12F499
  8
HIDDEN
 10
2030.0
 20
-277.99999999999909
 30
0.0
 11
1970.0
 21
-277.99999999999909
 31
0.0
1001
ACDBBLOCKREPETAG
1070
     1
1071
       25
1005
12F499
  0
LINE
  5
12F49A
  8
DIM
 10
2140.0
 20
-3221.9999999999959
 30
0.0
 11
2218.4796205944581
 21
-3221.9999999999959
 31
0.0
  0
LINE
  5
12F49B
  8
DIM
 10
2140.0
 20
-3127.9999999999959
 30
0.0
 11
2218.4796205944581
 21
-3127.9999999999959
 31
0.0
  0
LINE
  5
12F49C
  8
DIM
 10
2208.4796205944581
 20
-3201.9999999999959
 30
0.0
 11
2208.4796205944581
 21
-3147.9999999999959
 31
0.0
  0
INSERT
  5
12F49D
  8
DIM
  2
_OPEN30
 10
2208.4796205944581
 20
-3221.9999999999959
 30
0.0
 41
20.0
 42
20.0
 43
20.0
 50
270.0
  0
INSERT
  5
12F49E
  8
DIM
  2
_OPEN30
 10
2208.4796205944581
 20
-3127.9999999999959
 30
0.0
 41
20.0
 42
20.0
 43
20.0
 50
90.0
  0
INSERT
  5
12F49F
  8
OBJECT
  2
*U12
 10
0.0
 20
0.0
 30
0.0
  0
LINE
  5
12F4A0
  8
DIM
 10
2140.0
 20
-3579.9999999999968
 30
0.0
 11
2216.840928403733
 21
-3579.9999999999968
 31
0.0
  0
LINE
  5
12F4A1
  8
DIM
 10
2155.0
 20
-3535.9999999999968
 30
0.0
 11
2216.840928403733
 21
-3535.9999999999968
 31
0.0
  0
LINE
  5
12F4A2
  8
DIM
 10
2206.840928403733
 20
-3599.9999999999968
 30
0.0
 11
2206.840928403733
 21
-3619.9999999999968
 31
0.0
  0
LINE
  5
12F4A3
  8
DIM
 10
2206.840928403733
 20
-3515.9999999999968
 30
0.0
 11
2206.840928403733
 21
-3495.9999999999968
 31
0.0
  0
LINE
  5
12F4A4
  8
DIM
 10
2206.840928403733
 20
-3579.9999999999968
 30
0.0
 11
2206.840928403733
 21
-3535.9999999999968
 31
0.0
  0
INSERT
  5
12F4A5
  8
DIM
  2
_OPEN30
 10
2206.840928403733
 20
-3579.9999999999968
 30
0.0
 41
20.0
 42
20.0
 43
20.0
 50
90.0
  0
INSERT
  5
12F4A6
  8
DIM
  2
_OPEN30
 10
2206.840928403733
 20
-3535.9999999999968
 30
0.0
 41
20.0
 42
20.0
 43
20.0
 50
270.0
  0
INSERT
  5
12F4A7
  8
OBJECT
  2
*U13
 10
0.0
 20
0.0
 30
0.0
  0
LINE
  5
12F4A8
  8
DIM
 10
2000.0
 20
-3079.9999999999959
 30
0.0
 11
2000.0
 21
-3047.208121984444
 31
0.0
  0
LINE
  5
12F4A9
  8
DIM
 10
2130.0
 20
-3117.9999999999959
 30
0.0
 11
2130.0
 21
-3047.208121984444
 31
0.0
  0
LINE
  5
12F4AA
  8
DIM
 10
2020.0
 20
-3057.208121984444
 30
0.0
 11
2109.9999999999991
 21
-3057.208121984444
 31
0.0
  0
INSERT
  5
12F4AB
  8
DIM
  2
_OPEN30
 10
2000.0
 20
-3057.208121984444
 30
0.0
 41
20.0
 42
20.0
 43
20.0
 50
180.0
  0
INSERT
  5
12F4AC
  8
DIM
  2
_OPEN30
 10
2130.0
 20
-3057.208121984444
 30
0.0
 41
20.0
 42
20.0
 43
20.0
  0
INSERT
  5
12F4AD
  8
OBJECT
  2
*U14
 10
0.0
 20
0.0
 30
0.0
  0
TEXT
  5
12F4AE
  8
SLIM
 10
2631.0
 20
-2952.50001604727
 30
0.0
 40
40.0
  1
C寸法
 41
0.75
  0
TEXT
  5
12F4AF
  8
SLIM
 10
2631.0
 20
-2882.50001604727
 30
0.0
 40
40.0
  1
B寸法
 41
0.75
  0
TEXT
  5
12F4B0
  8
SLIM
 10
2630.2857142857142
 20
-2812.50001604727
 30
0.0
 40
40.0
  1
A寸法
 41
0.75
  0
TEXT
  5
12F4B1
  8
SLIM
 10
3029.2857142857151
 20
-2952.50001604727
 30
0.0
 40
40.0
  1
130
 41
0.75
  0
TEXT
  5
12F4B2
  8
SLIM
 10
2769.2857142857151
 20
-2952.50001604727
 30
0.0
 40
40.0
  1
130
 41
0.75
  0
TEXT
  5
12F4B3
  8
SLIM
 10
2899.2857142857151
 20
-2952.50001604727
 30
0.0
 40
40.0
  1
130
 41
0.75
  0
TEXT
  5
12F4B4
  8
SLIM
 10
3041.4285714285711
 20
-2882.50001604727
 30
0.0
 40
40.0
  1
59
 41
0.75
  0
TEXT
  5
12F4B5
  8
SLIM
 10
2780.0
 20
-2882.50001604727
 30
0.0
 40
40.0
  1
44
 41
0.75
  0
TEXT
  5
12F4B6
  8
SLIM
 10
2910.7142857142858
 20
-2882.50001604727
 30
0.0
 40
40.0
  1
52
 41
0.75
  0
TEXT
  5
12F4B7
  8
SLIM
 10
2831.0
 20
-2687.50001604727
 30
0.0
 40
40.0
  1
横枝管サイズ
 41
0.75
  0
TEXT
  5
12F4B8
  8
SLIM
 10
3014.857142857144
 20
-2742.50001604727
 30
0.0
 40
30.0
  1
75（3）
 41
0.75
  0
TEXT
  5
12F4B9
  8
SLIM
 10
2884.8571428571431
 20
-2742.50001604727
 30
0.0
 40
30.0
  1
65（2）
 41
0.75
  0
TEXT
  5
12F4BA
  8
SLIM
 10
2757.0
 20
-2742.50001604727
 30
0.0
 40
30.0
  1
50（1）
 41
0.75
  0
TEXT
  5
12F4BB
  8
SLIM
 10
3028.571428571428
 20
-2812.50001604727
 30
0.0
 40
40.0
  1
124
 41
0.75
  0
TEXT
  5
12F4BC
  8
SLIM
 10
2780.0
 20
-2812.50001604727
 30
0.0
 40
40.0
  1
94
 41
0.75
  0
TEXT
  5
12F4BD
  8
SLIM
 10
2902.1428571428569
 20
-2812.50001604727
 30
0.0
 40
40.0
  1
110
 41
0.75
  0
TEXT
  5
12F4BE
  8
SLIM
 10
1849.9999999999991
 20
-2712.5
 30
0.0
 40
75.0
  1
枝管サイズ毎の形状
 41
0.75
  0
TEXT
  5
12F4BF
  8
SLIM
 10
3894.25
 20
-3697.4999999999959
 30
0.0
 40
35.0
  1
通常枝75（3）
 41
0.75
  0
TEXT
  5
12F4C0
  8
SLIM
 10
2894.25
 20
-3697.4999999999959
 30
0.0
 40
35.0
  1
通常枝65（2）
 41
0.75
  0
CIRCLE
  5
12F4C1
  8
OBJECT
 10
2400.0
 20
-3520.9999999999968
 30
0.0
 40
62.0
1001
ACDBBLOCKREPETAG
1070
     1
1071
        3
1005
12F4C1
  0
LINE
  5
12F4C2
  8
CENTER
 10
2338.0
 20
-3535.9999999999968
 30
0.0
 11
2462.0
 21
-3535.9999999999968
 31
0.0
1001
ACDBBLOCKREPETAG
1070
     1
1071
        4
1005
12F4C2
  0
CIRCLE
  5
12F4C3
  8
OBJECT
 10
2400.0
 20
-3535.9999999999968
 30
0.0
 40
28.0
1001
ACDBBLOCKREPETAG
1070
     1
1071
        6
1005
12F4C3
  0
CIRCLE
  5
12F4C4
  8
OBJECT
 10
2400.0
 20
-3535.9999999999968
 30
0.0
 40
39.0
1001
ACDBBLOCKREPETAG
1070
     1
1071
        7
1005
12F4C4
  0
ARC
  5
12F4C5
  8
OBJECT
 10
2400.0
 20
-3535.9999999999968
 30
0.0
 40
47.0
 50
290.58196921144412
 51
249.41803078855591
1001
ACDBBLOCKREPETAG
1070
     1
1071
        8
1005
12F4C5
  0
LINE
  5
12F4C6
  8
OBJECT
 10
2383.4772883581431
 20
-3579.9999999999968
 30
0.0
 11
2416.5227116418569
 21
-3579.9999999999968
 31
0.0
1001
ACDBBLOCKREPETAG
1070
     1
1071
        9
1005
12F4C6
  0
LINE
  5
12F4C7
  8
OBJECT
 10
2123.0
 20
-3488.9999999999968
 30
0.0
 11
2130.0
 21
-3488.9999999999968
 31
0.0
1001
ACDBBLOCKREPETAG
1070
     1
1071
        7
1005
12F4C7
  0
LINE
  5
12F4C8
  8
OBJECT
 10
2130.0
 20
-3488.9999999999968
 30
0.0
 11
2130.0
 21
-3579.9999999999968
 31
0.0
1001
ACDBBLOCKREPETAG
1070
     1
1071
        8
1005
12F4C8
  0
LINE
  5
12F4C9
  8
OBJECT
 10
2123.0
 20
-3579.9999999999968
 30
0.0
 11
2123.0
 21
-3488.9999999999968
 31
0.0
1001
ACDBBLOCKREPETAG
1070
     1
1071
        9
1005
12F4C9
  0
LINE
  5
12F4CA
  8
CENTER
 10
2145.0
 20
-3535.9999999999968
 30
0.0
 11
2060.9999999999991
 21
-3535.9999999999968
 31
0.0
1001
ACDBBLOCKREPETAG
1070
     1
1071
       10
1005
12F4CA
  0
LINE
  5
12F4CB
  8
OBJECT
 10
2123.0
 20
-3491.9999999999968
 30
0.0
 11
2087.0
 21
-3491.9999999999968
 31
0.0
1001
ACDBBLOCKREPETAG
1070
     1
1071
       11
1005
12F4CB
  0
LINE
  5
12F4CC
  8
OBJECT
 10
2087.0
 20
-3491.9999999999968
 30
0.0
 11
2087.0
 21
-3579.9999999999968
 31
0.0
1001
ACDBBLOCKREPETAG
1070
     1
1071
       12
1005
12F4CC
  0
LINE
  5
12F4CD
  8
OBJECT
 10
2087.0
 20
-3579.9999999999968
 30
0.0
 11
2130.0
 21
-3579.9999999999968
 31
0.0
1001
ACDBBLOCKREPETAG
1070
     1
1071
       13
1005
12F4CD
  0
LINE
  5
12F4CE
  8
OBJECT
 10
2083.0
 20
-3496.4999999999968
 30
0.0
 11
2076.0
 21
-3496.4999999999968
 31
0.0
1001
ACDBBLOCKREPETAG
1070
     1
1071
       14
1005
12F4CE
  0
LINE
  5
12F4CF
  8
OBJECT
 10
2076.0
 20
-3575.4999999999968
 30
0.0
 11
2083.0
 21
-3575.4999999999968
 31
0.0
1001
ACDBBLOCKREPETAG
1070
     1
1071
       15
1005
12F4CF
  0
LINE
  5
12F4D0
  8
OBJECT
 10
2083.0
 20
-3575.4999999999968
 30
0.0
 11
2083.0
 21
-3496.4999999999968
 31
0.0
1001
ACDBBLOCKREPETAG
1070
     1
1071
       16
1005
12F4D0
  0
LINE
  5
12F4D1
  8
OBJECT
 10
2087.0
 20
-3491.9999999999968
 30
0.0
 11
2083.0
 21
-3496.4999999999968
 31
0.0
1001
ACDBBLOCKREPETAG
1070
     1
1071
       17
1005
12F4D1
  0
LINE
  5
12F4D2
  8
OBJECT
 10
2087.0
 20
-3579.9999999999968
 30
0.0
 11
2083.0
 21
-3575.4999999999968
 31
0.0
1001
ACDBBLOCKREPETAG
1070
     1
1071
       18
1005
12F4D2
  0
LINE
  5
12F4D3
  8
OBJECT
 10
2073.0
 20
-3458.9999999999968
 30
0.0
 11
2070.0
 21
-3458.9999999999968
 31
0.0
1001
ACDBBLOCKREPETAG
1070
     1
1071
       19
1005
12F4D3
  0
ARC
  5
12F4D4
  8
OBJECT
 10
2073.0
 20
-3461.9999999999968
 30
0.0
 40
3.0
 50
0.0
 51
90.0
1001
ACDBBLOCKREPETAG
1070
     1
1071
       20
1005
12F4D4
  0
LINE
  5
12F4D5
  8
OBJECT
 10
2070.0
 20
-3582.9999999999968
 30
0.0
 11
2073.0
 21
-3582.9999999999968
 31
0.0
1001
ACDBBLOCKREPETAG
1070
     1
1071
       21
1005
12F4D5
  0
ARC
  5
12F4D6
  8
OBJECT
 10
2073.0
 20
-3579.9999999999968
 30
0.0
 40
3.0
 50
270.0
 51
0.0
1001
ACDBBLOCKREPETAG
1070
     1
1071
       22
1005
12F4D6
  0
LINE
  5
12F4D7
  8
OBJECT
 10
2076.0
 20
-3579.9999999999968
 30
0.0
 11
2076.0
 21
-3461.9999999999968
 31
0.0
1001
ACDBBLOCKREPETAG
1070
     1
1071
       23
1005
12F4D7
  0
LINE
  5
12F4D8
  8
HIDDEN
 10
2078.0
 20
-3505.9999999999968
 30
0.0
 11
2078.0
 21
-3565.9999999999968
 31
0.0
1001
ACDBBLOCKREPETAG
1070
     1
1071
       24
1005
12F4D8
  0
TEXT
  5
12F4D9
  8
SLIM
 10
1896.75
 20
-3697.4999999999959
 30
0.0
 40
35.0
  1
通常枝50（1）
 41
0.75
  0
TEXT
  5
12F4DA
  8
SLIM
 10
1837.75
 20
282.50000000000011
 30
0.0
 40
35.0
  1
（枝管サイズ毎に寸法が異なります。管底の位置は全サイズで同じです）
 41
0.75
  0
TEXT
  5
12F4DB
  8
SLIM
 10
1850.0
 20
532.5
 30
0.0
 40
75.0
  1
側面図の代表機種
 41
0.75
  0
TEXT
  5
12F4DC
  8
SLIM
 10
1850.0
 20
369.99999999999989
 30
0.0
 40
100.0
  1
3SV-Z61
 41
0.75
  0
LINE
  5
12F4DD
  8
OBJECT
 10
2192.999999999985
 20
-583.00000000000045
 30
0.0
 11
2199.999999999985
 21
-583.00000000000045
 31
0.0
1001
ACDBBLOCKREPETAG
1070
     1
1071
      324
1005
12F4DD
  0
LINE
  5
12F4DE
  8
OBJECT
 10
2199.999999999985
 20
-583.00000000000045
 30
0.0
 11
2199.999999999985
 21
-707.00000000000045
 31
0.0
1001
ACDBBLOCKREPETAG
1070
     1
1071
      325
1005
12F4DE
  0
LINE
  5
12F4DF
  8
OBJECT
 10
2075.9999999999859
 20
-653.35026377572683
 30
0.0
 11
2075.9999999999859
 21
-755.00000000000034
 31
0.0
1001
ACDBBLOCKREPETAG
1070
     1
1071
      326
1005
12F4DF
  0
LINE
  5
12F4E0
  8
OBJECT
 10
2199.999999999985
 20
-707.00000000000045
 30
0.0
 11
2192.999999999985
 21
-707.00000000000045
 31
0.0
1001
ACDBBLOCKREPETAG
1070
     1
1071
      327
1005
12F4E0
  0
LINE
  5
12F4E1
  8
OBJECT
 10
2192.999999999985
 20
-707.00000000000045
 30
0.0
 11
2192.999999999985
 21
-583.00000000000045
 31
0.0
1001
ACDBBLOCKREPETAG
1070
     1
1071
      328
1005
12F4E1
  0
LINE
  5
12F4E2
  8
CENTER
 10
2124.999999999985
 20
-645.00000000000045
 30
0.0
 11
2214.9999999999859
 21
-645.00000000000045
 31
0.0
1001
ACDBBLOCKREPETAG
1070
     1
1071
      329
1005
12F4E2
  0
LINE
  5
12F4E3
  8
OBJECT
 10
2069.9999999999818
 20
-757.99999999999955
 30
0.0
 11
2072.9999999999859
 21
-758.00000000000034
 31
0.0
1001
ACDBBLOCKREPETAG
1070
     1
1071
      330
1005
12F4E3
  0
ARC
  5
12F4E4
  8
OBJECT
 10
2072.9999999999859
 20
-755.00000000000034
 30
0.0
 40
3.0
 50
270.0
 51
0.0
1001
ACDBBLOCKREPETAG
1070
     1
1071
      331
1005
12F4E4
  0
LINE
  5
12F4E5
  8
OBJECT
 10
2192.999999999985
 20
-586.00000000000045
 30
0.0
 11
2156.999999999985
 21
-586.00000000000045
 31
0.0
1001
ACDBBLOCKREPETAG
1070
     1
1071
      332
1005
12F4E5
  0
LINE
  5
12F4E6
  8
OBJECT
 10
2156.999999999985
 20
-586.00000000000045
 30
0.0
 11
2156.999999999985
 21
-704.00000000000045
 31
0.0
1001
ACDBBLOCKREPETAG
1070
     1
1071
      333
1005
12F4E6
  0
LINE
  5
12F4E7
  8
OBJECT
 10
2152.9999999999859
 20
-590.50000000000045
 30
0.0
 11
2152.9999999999859
 21
-699.50000000000045
 31
0.0
1001
ACDBBLOCKREPETAG
1070
     1
1071
      334
1005
12F4E7
  0
LINE
  5
12F4E8
  8
OBJECT
 10
2152.9999999999859
 20
-590.50000000000045
 30
0.0
 11
2139.9999999999859
 21
-590.50000000000045
 31
0.0
1001
ACDBBLOCKREPETAG
1070
     1
1071
      335
1005
12F4E8
  0
LINE
  5
12F4E9
  8
OBJECT
 10
2156.999999999985
 20
-704.00000000000045
 30
0.0
 11
2192.999999999985
 21
-704.00000000000045
 31
0.0
1001
ACDBBLOCKREPETAG
1070
     1
1071
      336
1005
12F4E9
  0
LINE
  5
12F4EA
  8
OBJECT
 10
2156.999999999985
 20
-586.00000000000045
 30
0.0
 11
2152.9999999999859
 21
-590.50000000000045
 31
0.0
1001
ACDBBLOCKREPETAG
1070
     1
1071
      337
1005
12F4EA
  0
LINE
  5
12F4EB
  8
OBJECT
 10
2139.9999999999859
 20
-590.50000000000045
 30
0.0
 11
2139.9999999999859
 21
-675.7449182792875
 31
0.0
1001
ACDBBLOCKREPETAG
1070
     1
1071
      338
1005
12F4EB
  0
ARC
  5
12F4EC
  8
OBJECT
 10
2142.7999999999852
 20
-685.00000000000045
 30
0.0
 40
85.0
 50
91.887731891831123
 51
143.13010235412469
1001
ACDBBLOCKREPETAG
1070
     1
1071
      339
1005
12F4EC
  0
LINE
  5
12F4ED
  8
HIDDEN
 10
2147.999999999985
 20
-600.50000000000057
 30
0.0
 11
2147.999999999985
 21
-689.50000000000045
 31
0.0
1001
ACDBBLOCKREPETAG
1070
     1
1071
      341
1005
12F4ED
  0
LINE
  5
12F4EE
  8
OBJECT
 10
2075.9999999999859
 20
-751.07945073181725
 30
0.0
 11
2146.6313199210308
 21
-699.50000000000045
 31
0.0
1001
ACDBBLOCKREPETAG
1070
     1
1071
      342
1005
12F4EE
  0
LINE
  5
12F4EF
  8
OBJECT
 10
2069.9999999999818
 20
-633.99999999999955
 30
0.0
 11
2074.7999999999852
 21
-633.99999999999955
 31
0.0
1001
ACDBBLOCKREPETAG
1070
     1
1071
      343
1005
12F4EF
  0
LINE
  5
12F4F0
  8
OBJECT
 10
2075.9999999999859
 20
-653.35026377572945
 30
0.0
 11
2074.7999999999852
 21
-633.99999999999955
 31
0.0
1001
ACDBBLOCKREPETAG
1070
     1
1071
      344
1005
12F4F0
  0
LINE
  5
12F4F1
  8
OBJECT
 10
2152.9999999999859
 20
-699.50000000000045
 30
0.0
 11
2146.6313199210308
 21
-699.50000000000045
 31
0.0
1001
ACDBBLOCKREPETAG
1070
     1
1071
      345
1005
12F4F1
  0
LINE
  5
12F4F2
  8
OBJECT
 10
2156.999999999985
 20
-704.00000000000045
 30
0.0
 11
2152.9999999999859
 21
-699.50000000000045
 31
0.0
1001
ACDBBLOCKREPETAG
1070
     1
1071
      346
1005
12F4F2
  0
LINE
  5
12F4F3
  8
OBJECT
 10
2192.999999999985
 20
-137.99999999999909
 30
0.0
 11
2199.999999999985
 21
-137.99999999999909
 31
0.0
1001
ACDBBLOCKREPETAG
1070
     1
1071
      376
1005
12F4F3
  0
LINE
  5
12F4F4
  8
OBJECT
 10
2199.999999999985
 20
-137.99999999999909
 30
0.0
 11
2199.999999999985
 21
-261.99999999999909
 31
0.0
1001
ACDBBLOCKREPETAG
1070
     1
1071
      377
1005
12F4F4
  0
LINE
  5
12F4F5
  8
OBJECT
 10
2199.999999999985
 20
-261.99999999999909
 30
0.0
 11
2192.999999999985
 21
-261.99999999999909
 31
0.0
1001
ACDBBLOCKREPETAG
1070
     1
1071
      378
1005
12F4F5
  0
LINE
  5
12F4F6
  8
OBJECT
 10
2192.999999999985
 20
-261.99999999999909
 30
0.0
 11
2192.999999999985
 21
-137.99999999999909
 31
0.0
1001
ACDBBLOCKREPETAG
1070
     1
1071
      379
1005
12F4F6
  0
LINE
  5
12F4F7
  8
CENTER
 10
2214.9999999999859
 20
-199.99999999999909
 30
0.0
 11
2070.0
 21
-199.99999999999909
 31
0.0
1001
ACDBBLOCKREPETAG
1070
     1
1071
      380
1005
12F4F7
  0
LINE
  5
12F4F8
  8
OBJECT
 10
2139.999974964187
 20
-245.0000000000027
 30
0.0
 11
2076.0
 21
-244.99999999999909
 31
0.0
1001
ACDBBLOCKREPETAG
1070
     1
1071
      381
1005
12F4F8
  0
LINE
  5
12F4F9
  8
OBJECT
 10
2139.999974964187
 20
-154.99999999999909
 30
0.0
 11
2076.0
 21
-154.99999999999909
 31
0.0
1001
ACDBBLOCKREPETAG
1070
     1
1071
      382
1005
12F4F9
  0
LINE
  5
12F4FA
  8
OBJECT
 10
2192.999999999985
 20
-140.99999999999909
 30
0.0
 11
2156.999999999985
 21
-140.99999999999909
 31
0.0
1001
ACDBBLOCKREPETAG
1070
     1
1071
      383
1005
12F4FA
  0
LINE
  5
12F4FB
  8
OBJECT
 10
2156.999999999985
 20
-140.99999999999909
 30
0.0
 11
2156.999999999985
 21
-258.99999999999909
 31
0.0
1001
ACDBBLOCKREPETAG
1070
     1
1071
      384
1005
12F4FB
  0
LINE
  5
12F4FC
  8
OBJECT
 10
2156.999999999985
 20
-258.99999999999909
 30
0.0
 11
2192.999999999985
 21
-258.99999999999909
 31
0.0
1001
ACDBBLOCKREPETAG
1070
     1
1071
      385
1005
12F4FC
  0
LINE
  5
12F4FD
  8
OBJECT
 10
2152.9999999999859
 20
-145.49999999999909
 30
0.0
 11
2139.9999999999859
 21
-145.49999999999909
 31
0.0
1001
ACDBBLOCKREPETAG
1070
     1
1071
      386
1005
12F4FD
  0
LINE
  5
12F4FE
  8
OBJECT
 10
2139.9999999999859
 20
-254.49999999999909
 30
0.0
 11
2152.9999999999859
 21
-254.49999999999909
 31
0.0
1001
ACDBBLOCKREPETAG
1070
     1
1071
      387
1005
12F4FE
  0
LINE
  5
12F4FF
  8
OBJECT
 10
2152.9999999999859
 20
-254.49999999999909
 30
0.0
 11
2152.9999999999859
 21
-145.49999999999909
 31
0.0
1001
ACDBBLOCKREPETAG
1070
     1
1071
      388
1005
12F4FF
  0
LINE
  5
12F500
  8
OBJECT
 10
2156.999999999985
 20
-140.99999999999909
 30
0.0
 11
2152.9999999999859
 21
-145.49999999999909
 31
0.0
1001
ACDBBLOCKREPETAG
1070
     1
1071
      389
1005
12F500
  0
LINE
  5
12F501
  8
OBJECT
 10
2156.999999999985
 20
-258.99999999999909
 30
0.0
 11
2152.9999999999859
 21
-254.49999999999909
 31
0.0
1001
ACDBBLOCKREPETAG
1070
     1
1071
      390
1005
12F501
  0
LINE
  5
12F502
  8
OBJECT
 10
2073.0
 20
-137.99999999999909
 30
0.0
 11
2070.0
 21
-137.99999999999909
 31
0.0
1001
ACDBBLOCKREPETAG
1070
     1
1071
      391
1005
12F502
  0
ARC
  5
12F503
  8
OBJECT
 10
2073.0
 20
-140.99999999999909
 30
0.0
 40
3.0
 50
0.0
 51
90.0
1001
ACDBBLOCKREPETAG
1070
     1
1071
      392
1005
12F503
  0
LINE
  5
12F504
  8
OBJECT
 10
2070.0
 20
-261.99999999999909
 30
0.0
 11
2073.0
 21
-261.99999999999909
 31
0.0
1001
ACDBBLOCKREPETAG
1070
     1
1071
      393
1005
12F504
  0
ARC
  5
12F505
  8
OBJECT
 10
2073.0
 20
-258.99999999999909
 30
0.0
 40
3.0
 50
270.0
 51
0.0
1001
ACDBBLOCKREPETAG
1070
     1
1071
      394
1005
12F505
  0
LINE
  5
12F506
  8
OBJECT
 10
2076.0
 20
-258.99999999999909
 30
0.0
 11
2076.0
 21
-210.3227903203578
 31
0.0
1001
ACDBBLOCKREPETAG
1070
     1
1071
      395
1005
12F506
  0
LINE
  5
12F507
  8
OBJECT
 10
2076.0
 20
-189.6772096796403
 30
0.0
 11
2076.0
 21
-140.99999999999909
 31
0.0
1001
ACDBBLOCKREPETAG
1070
     1
1071
      396
1005
12F507
  0
LINE
  5
12F508
  8
HIDDEN
 10
2147.999999999985
 20
-155.49999999999909
 30
0.0
 11
2147.999999999985
 21
-244.49999999999909
 31
0.0
1001
ACDBBLOCKREPETAG
1070
     1
1071
      397
1005
12F508
  0
LINE
  5
12F509
  8
OBJECT
 10
2139.999974964187
 20
-254.4999509238105
 30
0.0
 11
2139.999974964187
 21
-145.4999509238105
 31
0.0
1001
ACDBBLOCKREPETAG
1070
     1
1071
      399
1005
12F509
  0
ARC
  5
12F50A
  8
OBJECT
 10
2119.8000000000252
 20
-199.99999999999909
 30
0.0
 40
45.000000000000547
 50
90.0
 51
270.0
1001
ACDBBLOCKREPETAG
1070
     1
1071
      400
1005
12F50A
  0
TEXT
  5
12F50B
  8
SLIM
 10
-25.796370766537851
 20
667.19448474768467
 30
0.0
 40
100.0
  1
3SV-Z6X-S
 41
0.75
  0
TEXT
  5
12F50C
  8
SLIM
 10
-25.796370766537851
 20
517.19448474768467
 30
0.0
 40
100.0
  1
3SV-Z6X-W
 41
0.75
  0
TEXT
  5
12F50D
  8
SLIM
 10
0.0000035665234464
 20
24.000004585317601
 30
0.0
 40
79.999999999972701
  1
枝管バリエーション
 41
0.75
1001
ACDBBLOCKREPETAG
1070
     1
1071
      119
1005
F48AB
  0
TEXT
  5
12F50E
  8
SLIM
 10
3853.75
 20
-1621.4999999999959
 30
0.0
 40
35.0
  1
両受けスタイル（W）
 41
0.75
  0
TEXT
  5
12F50F
  8
SLIM
 10
5811.8000000000002
 20
-1718.9999999999991
 30
0.0
 40
28.0
  1
※ 対応スラブ厚　150mm以上
 41
0.75
  0
TEXT
  5
12F510
  8
SLIM
 10
5598.8999999999996
 20
-1812.333333333333
 30
0.0
 40
28.0
  1
国土交通大臣認定・（一財）日本消防設備安全センター性能評定取得品
 41
0.75
  0
TEXT
  5
12F511
  8
SLIM
 10
5631.1000000000004
 20
-1858.9999999999991
 30
0.0
 40
28.0
  1
注）ご採用にあたり、認定書及び評定書の内容をご確認ください。
 41
0.75
  0
TEXT
  5
12F512
  8
SLIM
 10
11824.6
 20
-1677.9999999999959
 30
0.0
 40
28.0
  1
※ 対応スラブ厚　150～260
 41
0.75
  0
TEXT
  5
12F513
  8
SLIM
 10
11598.9
 20
-1771.3333333333289
 30
0.0
 40
28.0
  1
国土交通大臣認定・（一財）日本消防設備安全センター性能評定取得品
 41
0.75
  0
TEXT
  5
12F514
  8
SLIM
 10
11631.1
 20
-1817.9999999999959
 30
0.0
 40
28.0
  1
注）ご採用にあたり、認定書及び評定書の内容をご確認ください。
 41
0.75
  0
TEXT
  5
12F515
  8
SLIM
 10
9824.6000000000004
 20
-1677.9999999999959
 30
0.0
 40
28.0
  1
※ 対応スラブ厚　180～260
 41
0.75
  0
TEXT
  5
12F516
  8
SLIM
 10
9598.8999999999996
 20
-1771.3333333333289
 30
0.0
 40
28.0
  1
国土交通大臣認定・（一財）日本消防設備安全センター性能評定取得品
 41
0.75
  0
TEXT
  5
12F517
  8
SLIM
 10
9631.1000000000004
 20
-1817.9999999999959
 30
0.0
 40
28.0
  1
注）ご採用にあたり、認定書及び評定書の内容をご確認ください。
 41
0.75
  0
TEXT
  5
12F518
  8
SLIM
 10
9739.1250000000018
 20
-1621.4999999999959
 30
0.0
 40
35.0
  1
両受けスタイル（W）＋シンドカット
 41
0.75
  0
TEXT
  5
12F519
  8
SLIM
 10
11743.5
 20
-1621.4999999999959
 30
0.0
 40
35.0
  1
カンペイ君（WKP）＋シンドカット
 41
0.75
  0
TEXT
  5
12F51A
  8
SLIM
 10
7741.625
 20
-1347.499999999998
 30
0.0
 40
35.0
  1
片受けスタイル（S）＋シンドカット
 41
0.75
  0
TEXT
  5
12F51B
  8
SLIM
 10
5858.1250000000009
 20
-1662.4999999999991
 30
0.0
 40
35.0
  1
カンペイ君（WKP）
 41
0.75
  0
TEXT
  5
12F51C
  8
SLIM
 10
1856.25
 20
-1347.499999999998
 30
0.0
 40
35.0
  1
片受けスタイル（S）
 41
0.75
  0
TEXT
  5
12F51D
  8
SLIM
 10
-25.796370766537851
 20
367.19448474768478
 30
0.0
 40
100.0
  1
3SV-Z6X-WKP
 41
0.75
  0
VIEWPORT
  5
F6BA7
 67
     1
  8
0
 10
145.33033752441401
 20
101.8328354358673
 30
0.0
 40
334.0025019414623
 41
222.19657968139651
 68
     1
 69
     1
1001
ACAD
1000
MVIEW
1002
{
1070
    16
1010
0.0
1020
0.0
1030
0.0
1010
0.0
1020
0.0
1030
1.0
1040
0.0
1040
222.19657968139651
1040
145.33033752441401
1040
101.8328354358673
1040
50.0
1040
0.0
1040
0.0
1070
     0
1070
     0
1070
     1
1070
     1
1070
     0
1070
     0
1070
     0
1070
     0
1040
0.0
1040
0.0
1040
0.0
1040
10.0
1040
10.0
1040
10.0
1040
10.0
1070
     0
1002
{
1002
}
1002
}
  0
VIEWPORT
  5
F6BA9
 67
     1
  8
OBJECT
 10
145.3303314447403
 20
101.8328338861465
 30
0.0
 40
232.5285303115844
 41
162.93253421783439
 68
     2
 69
     2
1001
ACAD
1000
MVIEW
1002
{
1070
    16
1010
0.0
1020
0.0
1030
0.0
1010
0.0
1020
0.0
1030
1.0
1040
0.0
1040
25942.55904403147
1040
2377.604457077377
1040
-7591.5176687056619
1040
50.0
1040
0.0
1040
0.0
1070
     0
1070
   600
1070
     1
1070
     1
1070
     0
1070
     0
1070
     0
1070
     0
1040
0.0
1040
0.0
1040
0.0
1040
1.0
1040
1.0
1040
0.0
1040
0.0
1070
     0
1002
{
1002
}
1002
}
  0
ENDSEC
  0
EOF
