  0
SECTION
  2
HEADER
  9
$ACADVER
  1
AC1009
  9
$INSBASE
 10
0.0
 20
0.0
 30
0.0
  9
$EXTMIN
 10
-25.796370766537851
 20
-3697.4999999999968
 30
0.0
  9
$EXTMAX
 10
12399.70000000001
 20
767.19448474768467
 30
0.0
  9
$LIMMIN
 10
0.0
 20
0.0
  9
$LIMMAX
 10
210.0
 20
297.0
  9
$ORTHOMODE
 70
     0
  9
$REGENMODE
 70
     1
  9
$FILLMODE
 70
     1
  9
$QTEXTMODE
 70
     0
  9
$MIRRTEXT
 70
     0
  9
$DRAGMODE
 70
     2
  9
$LTSCALE
 40
1.0
  9
$OSMODE
 70
  2429
  9
$ATTMODE
 70
     1
  9
$TEXTSIZE
 40
4.0
  9
$TRACEWID
 40
0.05
  9
$TEXTSTYLE
  7
STANDARD
  9
$CLAYER
  8
OBJECT
  9
$CELTYPE
  6
BYLAYER
  9
$CECOLOR
 62
   256
  9
$DIMSCALE
 40
10.0
  9
$DIMASZ
 40
2.0
  9
$DIMEXO
 40
1.0
  9
$DIMDLI
 40
10.0
  9
$DIMRND
 40
0.0
  9
$DIMDLE
 40
0.0
  9
$DIMEXE
 40
1.0
  9
$DIMTP
 40
0.0
  9
$DIMTM
 40
0.0
  9
$DIMTXT
 40
3.2000000000000002
  9
$DIMCEN
 40
0.0
  9
$DIMTSZ
 40
0.0
  9
$DIMTOL
 70
     0
  9
$DIMLIM
 70
     0
  9
$DIMTIH
 70
     0
  9
$DIMTOH
 70
     0
  9
$DIMSE1
 70
     0
  9
$DIMSE2
 70
     0
  9
$DIMTAD
 70
     1
  9
$DIMZIN
 70
     8
  9
$DIMBLK
  1
OPEN30
  9
$DIMASO
 70
     1
  9
$DIMSHO
 70
     1
  9
$DIMPOST
  1

  9
$DIMAPOST
  1

  9
$DIMALT
 70
     0
  9
$DIMALTD
 70
     2
  9
$DIMALTF
 40
25.399999999999999
  9
$DIMLFAC
 40
1.0
  9
$DIMTOFL
 70
     1
  9
$DIMTVP
 40
0.0
  9
$DIMTIX
 70
     0
  9
$DIMSOXD
 70
     0
  9
$DIMSAH
 70
     0
  9
$DIMBLK1
  1

  9
$DIMBLK2
  1

  9
$DIMSTYLE
  2
S10
  9
$DIMCLRD
 70
   256
  9
$DIMCLRE
 70
   256
  9
$DIMCLRT
 70
   256
  9
$DIMTFAC
 40
1.0
  9
$DIMGAP
 40
0.9
  9
$LUNITS
 70
     2
  9
$LUPREC
 70
     2
  9
$SKETCHINC
 40
0.1
  9
$FILLETRAD
 40
0.0
  9
$AUNITS
 70
     0
  9
$AUPREC
 70
     2
  9
$MENU
  1
ACAD
  9
$ELEVATION
 40
0.0
  9
$PELEVATION
 40
0.0
  9
$THICKNESS
 40
0.0
  9
$LIMCHECK
 70
     0
  9
$BLIPMODE
 70
     0
  9
$CHAMFERA
 40
2.0
  9
$CHAMFERB
 40
2.0
  9
$SKPOLY
 70
     0
  9
$TDCREATE
 40
2453095.4929404748
  9
$TDUPDATE
 40
2457233.6400220022
  9
$TDINDWG
 40
18.422361273100002
  9
$TDUSRTIMER
 40
18.422360636600001
  9
$USRTIMER
 70
     1
  9
$ANGBASE
 50
0.0
  9
$ANGDIR
 70
     0
  9
$PDMODE
 70
    35
  9
$PDSIZE
 40
2.0
  9
$PLINEWID
 40
0.0
  9
$COORDS
 70
     0
  9
$SPLFRAME
 70
     0
  9
$SPLINETYPE
 70
     6
  9
$SPLINESEGS
 70
     8
  9
$ATTDIA
 70
     0
  9
$ATTREQ
 70
     1
  9
$HANDLING
 70
     1
  9
$HANDSEED
  5
12D94D
  9
$SURFTAB1
 70
     6
  9
$SURFTAB2
 70
     6
  9
$SURFTYPE
 70
     6
  9
$SURFU
 70
     6
  9
$SURFV
 70
     6
  9
$UCSNAME
  2

  9
$UCSORG
 10
0.0
 20
0.0
 30
0.0
  9
$UCSXDIR
 10
1.0
 20
0.0
 30
0.0
  9
$UCSYDIR
 10
0.0
 20
1.0
 30
0.0
  9
$PUCSNAME
  2

  9
$PUCSORG
 10
0.0
 20
0.0
 30
0.0
  9
$PUCSXDIR
 10
1.0
 20
0.0
 30
0.0
  9
$PUCSYDIR
 10
0.0
 20
1.0
 30
0.0
  9
$USERI1
 70
     0
  9
$USERI2
 70
     0
  9
$USERI3
 70
     0
  9
$USERI4
 70
     0
  9
$USERI5
 70
     0
  9
$USERR1
 40
0.0
  9
$USERR2
 40
0.0
  9
$USERR3
 40
0.0
  9
$USERR4
 40
0.0
  9
$USERR5
 40
0.0
  9
$WORLDVIEW
 70
     1
  9
$SHADEDGE
 70
     3
  9
$SHADEDIF
 70
    70
  9
$TILEMODE
 70
     1
  9
$MAXACTVP
 70
    64
  9
$PLIMCHECK
 70
     0
  9
$PEXTMIN
 10
29.066066288948051
 20
20.366566777229309
 30
0.0
  9
$PEXTMAX
 10
261.5945966005325
 20
183.29910099506381
 30
0.0
  9
$PLIMMIN
 10
-3.17498779296875
 20
-3.1749999523162842
  9
$PLIMMAX
 10
293.83566284179687
 20
206.8406708240509
  9
$UNITMODE
 70
     0
  9
$VISRETAIN
 70
     1
  9
$PLINEGEN
 70
     0
  9
$PSLTSCALE
 70
     1
  0
ENDSEC
  0
SECTION
  2
TABLES
  0
TABLE
  2
VPORT
 70
     1
  0
VPORT
  2
*ACTIVE
 70
     0
 10
0.0
 20
0.0
 11
1.0
 21
1.0
 12
4686.0738322718717
 22
-1182.7919510435249
 13
0.0
 23
0.0
 14
1.0
 24
1.0
 15
0.0
 25
0.0
 16
0.0
 26
0.0
 36
1.0
 17
0.0
 27
0.0
 37
0.0
 40
9367.1104592916563
 41
1.6494178525226391
 42
50.0
 43
0.0
 44
0.0
 50
0.0
 51
0.0
 71
     0
 72
   600
 73
     1
 74
     1
 75
     0
 76
     0
 77
     0
 78
     0
  0
ENDTAB
  0
TABLE
  2
LTYPE
 70
     4
  0
LTYPE
  2
CONTINUOUS
 70
     0
  3
Solid line
 72
    65
 73
     0
 40
0.0
  0
LTYPE
  2
PHANTOM2
 70
     0
  3
___ _ _ ___ _ _ ___ _ _ ___ _ _
 72
    65
 73
     6
 40
1.25
 49
0.625
 49
-0.125
 49
0.125
 49
-0.125
 49
0.125
 49
-0.125
  0
LTYPE
  2
ACAD_ISO08W100
 70
     0
  3
ISO long-dash short-dash ____ __ ____ __ ____ _
 72
    65
 73
     4
 40
36.0
 49
24.0
 49
-3.0
 49
6.0
 49
-3.0
  0
LTYPE
  2
ACAD_ISO02W100
 70
     0
  3
ISO dash __ __ __ __ __ __ __ __ __ __ __ __ __
 72
    65
 73
     2
 40
15.0
 49
12.0
 49
-3.0
  0
ENDTAB
  0
TABLE
  2
LAYER
 70
     8
  0
LAYER
  2
0
 70
     0
 62
     7
  6
CONTINUOUS
  0
LAYER
  2
OBJECT
 70
     0
 62
     4
  6
CONTINUOUS
  0
LAYER
  2
DEFPOINTS
 70
     0
 62
     7
  6
CONTINUOUS
  0
LAYER
  2
DIM
 70
     0
 62
     7
  6
CONTINUOUS
  0
LAYER
  2
HIDDEN
 70
     0
 62
     2
  6
ACAD_ISO02W100
  0
LAYER
  2
CENTER
 70
     0
 62
     2
  6
ACAD_ISO08W100
  0
LAYER
  2
DOTS
 70
     0
 62
     1
  6
CONTINUOUS
  0
LAYER
  2
SLIM
 70
     0
 62
     2
  6
CONTINUOUS
  0
ENDTAB
  0
TABLE
  2
STYLE
 70
     2
  0
STYLE
  2
STANDARD
 70
     0
 40
0.0
 41
0.75
 50
0.0
 71
     0
 42
4.0
  3
simplex.shx
  4
bigfont.shx
  0
ENDTAB
  0
TABLE
  2
VIEW
 70
     0
  0
ENDTAB
  0
TABLE
  2
UCS
 70
     0
  0
ENDTAB
  0
TABLE
  2
APPID
 70
    18
  0
APPID
  2
ACAD
 70
     0
  0
APPID
  2
ACADANNOTATIVE
 70
     0
  0
APPID
  2
ACAD_PSEXT
 70
     0
  0
APPID
  2
ACAD_EXEMPT_FROM_CAD_STANDARDS
 70
     0
  0
APPID
  2
ACAECLAYERSTANDARD
 70
     0
  0
APPID
  2
ACAUTHENVIRON
 70
     0
  0
APPID
  2
ACDBDYNAMICBLOCKTRUENAME
 70
     0
  0
APPID
  2
ACDBDYNAMICBLOCKGUID
 70
     0
  0
APPID
  2
ACDBBLOCKREPETAG
 70
     0
  0
APPID
  2
ACDBBLOCKREPBTAG
 70
     0
  0
APPID
  2
ACAD_NAV_VCDISPLAY
 70
     0
  0
APPID
  2
ACAD_DSTYLE_DIMRADIAL_EXTENSION
 70
     0
  0
APPID
  2
ACAD_DSTYLE_DIMJAG
 70
     0
  0
APPID
  2
ACAD_DSTYLE_DIMTALN
 70
     0
  0
APPID
  2
ACADANNOPO
 70
     0
  0
APPID
  2
GRADIENTCOLOR1ACI
 70
     0
  0
APPID
  2
GRADIENTCOLOR2ACI
 70
     0
  0
APPID
  2
ACAD_MLEADERVER
 70
     0
  0
ENDTAB
  0
TABLE
  2
DIMSTYLE
 70
     3
  0
DIMSTYLE
  2
STANDARD
 70
     0
  3

  4

  5

  6

  7

 40
1.0
 41
0.18
 42
0.0625
 43
0.38
 44
0.18
 45
0.0
 46
0.0
 47
0.0
 48
0.0
140
0.18
141
0.09
142
0.0
143
25.399999999999999
144
1.0
145
0.0
146
1.0
147
0.09
 71
     0
 72
     0
 73
     1
 74
     1
 75
     0
 76
     0
 77
     0
 78
     0
170
     0
171
     2
172
     0
173
     0
174
     0
175
     0
176
     0
177
     0
178
     0
  0
DIMSTYLE
  2
S10
 70
     0
  3

  4

  5

  6

  7

 40
10.0
 41
2.0
 42
1.0
 43
10.0
 44
1.0
 45
0.0
 46
0.0
 47
0.0
 48
0.0
140
3.2000000000000002
141
0.0
142
0.0
143
25.399999999999999
144
1.0
145
0.0
146
1.0
147
0.9
 71
     0
 72
     0
 73
     0
 74
     0
 75
     0
 76
     0
 77
     1
 78
     8
170
     0
171
     2
172
     1
173
     0
174
     0
175
     0
176
   256
177
   256
178
   256
  0
ENDTAB
  0
ENDSEC
  0
SECTION
  2
BLOCKS
  0
BLOCK
  8
0
  2
$MODEL_SPACE
 70
     0
 10
0.0
 20
0.0
 30
0.0
  3
$MODEL_SPACE
  1

  0
ENDBLK
  5
12D84B
  8
0
  0
BLOCK
 67
     1
  8
0
  2
$PAPER_SPACE
 70
     0
 10
0.0
 20
0.0
 30
0.0
  3
$PAPER_SPACE
  1

  0
ENDBLK
  5
12D847
 67
     1
  8
0
  0
BLOCK
  8
0
  2
_OPEN30
 70
     0
 10
0.0
 20
0.0
 30
0.0
  3
_OPEN30
  1

  0
LINE
  5
202
  8
0
  6
BYBLOCK
 62
     0
 10
-1.0
 20
0.26794919
 30
0.0
 11
0.0
 21
0.0
 31
0.0
  0
LINE
  5
203
  8
0
  6
BYBLOCK
 62
     0
 10
0.0
 20
0.0
 30
0.0
 11
-1.0
 21
-0.26794919
 31
0.0
  0
LINE
  5
204
  8
0
  6
BYBLOCK
 62
     0
 10
0.0
 20
0.0
 30
0.0
 11
-1.0
 21
0.0
 31
0.0
  0
ENDBLK
  5
206
  8
0
  0
BLOCK
  8
0
  2
*U3
 70
     1
 10
0.0
 20
0.0
 30
0.0
  3
*U3
  1

  0
TEXT
  5
12D748
  8
SLIM
 10
146.5714285714285
 20
-812.99999999998511
 30
0.0
 40
26.0
  1
75Z
  0
ENDBLK
  5
12D74A
  8
0
  0
BLOCK
  8
0
  2
*U4
 70
     1
 10
0.0
 20
0.0
 30
0.0
  3
*U4
  1

  0
TEXT
  5
12D74C
  8
SLIM
 10
254.19036330949919
 20
-812.99999999998511
 30
0.0
 40
26.0
  1
通気
  0
ENDBLK
  5
12D74E
  8
0
  0
BLOCK
  8
0
  2
*U5
 70
     1
 10
0.0
 20
0.0
 30
0.0
  3
*U5
  1

  0
TEXT
  5
12D750
  8
SLIM
 10
158.95238095238091
 20
-532.99999999999795
 30
0.0
 40
26.0
  1
75
  0
ENDBLK
  5
12D752
  8
0
  0
BLOCK
  8
0
  2
*U6
 70
     1
 10
0.0
 20
0.0
 30
0.0
  3
*U6
  1

  0
TEXT
  5
12D754
  8
SLIM
 10
506.5714285714285
 20
-348.99999999998522
 30
0.0
 40
26.0
  1
75Z
  0
ENDBLK
  5
12D756
  8
0
  0
BLOCK
  8
0
  2
*U7
 70
     1
 10
0.0
 20
0.0
 30
0.0
  3
*U7
  1

  0
TEXT
  5
12D758
  8
SLIM
 10
614.19036330949905
 20
-348.99999999998522
 30
0.0
 40
26.0
  1
通気
  0
ENDBLK
  5
12D75A
  8
0
  0
BLOCK
  8
0
  2
*U8
 70
     1
 10
0.0
 20
0.0
 30
0.0
  3
*U8
  1

  0
TEXT
  5
12D75C
  8
SLIM
 10
518.95238095238085
 20
-68.999999999997954
 30
0.0
 40
26.0
  1
65
  0
ENDBLK
  5
12D75E
  8
0
  0
BLOCK
  8
0
  2
*U9
 70
     1
 10
0.0
 20
0.0
 30
0.0
  3
*U9
  1

  0
TEXT
  5
12D760
  8
SLIM
 10
146.5714285714285
 20
-348.99999999998522
 30
0.0
 40
26.0
  1
75Z
  0
ENDBLK
  5
12D762
  8
0
  0
BLOCK
  8
0
  2
*U10
 70
     1
 10
0.0
 20
0.0
 30
0.0
  3
*U10
  1

  0
TEXT
  5
12D764
  8
SLIM
 10
254.19036330949919
 20
-348.99999999998522
 30
0.0
 40
26.0
  1
通気
  0
ENDBLK
  5
12D766
  8
0
  0
BLOCK
  8
0
  2
*U11
 70
     1
 10
0.0
 20
0.0
 30
0.0
  3
*U11
  1

  0
TEXT
  5
12D768
  8
SLIM
 10
158.95238095238091
 20
-68.999999999997954
 30
0.0
 40
26.0
  1
50
  0
ENDBLK
  5
12D76A
  8
0
  0
BLOCK
  8
0
  2
*U12
 70
     1
 10
0.0
 20
0.0
 30
0.0
  3
*U12
  1

  0
TEXT
  5
12D7CF
  8
DIM
 10
2199.479620594459
 20
-3184.1428571428528
 30
0.0
 40
32.0
  1
A
 50
90.0
 41
0.75
  0
ENDBLK
  5
12D7D1
  8
0
  0
BLOCK
  8
0
  2
*U13
 70
     1
 10
0.0
 20
0.0
 30
0.0
  3
*U13
  1

  0
TEXT
  5
12D7D3
  8
DIM
 10
2197.840928403733
 20
-3565.9999999999959
 30
0.0
 40
32.0
  1
B
 50
90.0
 41
0.75
  0
ENDBLK
  5
12D7D5
  8
0
  0
BLOCK
  8
0
  2
*U14
 70
     1
 10
0.0
 20
0.0
 30
0.0
  3
*U14
  1

  0
TEXT
  5
12D7D7
  8
DIM
 10
2056.4285714285711
 20
-3048.2081219844449
 30
0.0
 40
32.0
  1
C
 41
0.75
  0
ENDBLK
  5
12D7D9
  8
0
  0
ENDSEC
  0
SECTION
  2
ENTITIES
  0
LINE
  5
11E11D
  8
OBJECT
 10
1825.0
 20
-3579.9999999999959
 30
0.0
 11
4575.0
 21
-3579.9999999999959
 31
0.0
  0
LINE
  5
11E11F
  8
SLIM
 10
2616.0
 20
-2637.50001604727
 30
0.0
 11
2616.0
 21
-2967.50001604727
 31
0.0
  0
LINE
  5
11E120
  8
SLIM
 10
2740.0
 20
-2637.50001604727
 30
0.0
 11
2740.0
 21
-2967.50001604727
 31
0.0
  0
LINE
  5
11E121
  8
SLIM
 10
2870.0
 20
-2697.50001604727
 30
0.0
 11
2870.0
 21
-2967.50001604727
 31
0.0
  0
LINE
  5
11E122
  8
SLIM
 10
3000.0
 20
-2697.50001604727
 30
0.0
 11
3000.0
 21
-2967.50001604727
 31
0.0
  0
LINE
  5
11E123
  8
SLIM
 10
3130.0
 20
-2967.50001604727
 30
0.0
 11
3130.0
 21
-2637.50001604727
 31
0.0
  0
LINE
  5
11E125
  8
SLIM
 10
3130.0
 20
-2637.50001604727
 30
0.0
 11
2616.0
 21
-2637.50001604727
 31
0.0
  0
LINE
  5
11E126
  8
SLIM
 10
3130.0
 20
-2697.50001604727
 30
0.0
 11
2740.0
 21
-2697.50001604727
 31
0.0
  0
LINE
  5
11E127
  8
SLIM
 10
3130.0
 20
-2757.50001604727
 30
0.0
 11
2616.0
 21
-2757.50001604727
 31
0.0
  0
LINE
  5
11E128
  8
SLIM
 10
3130.0
 20
-2827.50001604727
 30
0.0
 11
2616.0
 21
-2827.50001604727
 31
0.0
  0
LINE
  5
11E129
  8
SLIM
 10
3130.0
 20
-2897.50001604727
 30
0.0
 11
2616.0
 21
-2897.50001604727
 31
0.0
  0
LINE
  5
11E12A
  8
SLIM
 10
3130.0
 20
-2967.50001604727
 30
0.0
 11
2616.0
 21
-2967.50001604727
 31
0.0
  0
LINE
  5
11E13F
  8
SLIM
 10
2740.0
 20
-2757.50001604727
 30
0.0
 11
2615.9999722746579
 21
-2637.5
 31
0.0
  0
CIRCLE
  5
12D017
  8
OBJECT
 10
12000.0
 20
-695.99999999999955
 30
0.0
 40
62.0
1001
ACDBBLOCKREPETAG
1070
     1
1071
        0
1005
12D017
  0
LINE
  5
12D018
  8
CENTER
 10
12000.0
 20
-769.99999999999955
 30
0.0
 11
12000.0
 21
-613.99999999999966
 31
0.0
1001
ACDBBLOCKREPETAG
1070
     1
1071
        0
1005
12D018
  0
LINE
  5
12D019
  8
OBJECT
 10
11930.0
 20
-633.99999999999955
 30
0.0
 11
12070.0
 21
-633.99999999999955
 31
0.0
1001
ACDBBLOCKREPETAG
1070
     1
1071
        1
1005
12D019
  0
LINE
  5
12D01A
  8
OBJECT
 10
11930.0
 20
-757.99999999999955
 30
0.0
 11
11930.0
 21
-769.99999999999955
 31
0.0
1001
ACDBBLOCKREPETAG
1070
     1
1071
        2
1005
12D01A
  0
LINE
  5
12D01B
  8
OBJECT
 10
11930.0
 20
-769.99999999999955
 30
0.0
 11
12070.0
 21
-769.99999999999955
 31
0.0
1001
ACDBBLOCKREPETAG
1070
     1
1071
        3
1005
12D01B
  0
LINE
  5
12D01C
  8
OBJECT
 10
12070.0
 20
-769.99999999999955
 30
0.0
 11
12070.0
 21
-757.99999999999955
 31
0.0
1001
ACDBBLOCKREPETAG
1070
     1
1071
        4
1005
12D01C
  0
LINE
  5
12D01D
  8
OBJECT
 10
12070.0
 20
-757.99999999999955
 30
0.0
 11
11930.0
 21
-757.99999999999955
 31
0.0
1001
ACDBBLOCKREPETAG
1070
     1
1071
        5
1005
12D01D
  0
ARC
  5
12D01E
  8
OBJECT
 10
12435.038438994679
 20
-998.60813684682694
 30
0.0
 40
519.48776673616965
 50
135.42350667430969
 51
138.50052655621499
1001
ACDBBLOCKREPETAG
1070
     1
1071
        9
1005
12D01E
  0
ARC
  5
12D01F
  8
OBJECT
 10
12435.038438994679
 20
-393.39186315317193
 30
0.0
 40
519.48776673616965
 50
221.49947344378501
 51
224.57649332569039
1001
ACDBBLOCKREPETAG
1070
     1
1071
       10
1005
12D01F
  0
ARC
  5
12D020
  8
OBJECT
 10
11564.961561005321
 20
-998.60813684682694
 30
0.0
 40
519.48776673616965
 50
41.499473443784993
 51
44.576493325690237
1001
ACDBBLOCKREPETAG
1070
     1
1071
       11
1005
12D020
  0
ARC
  5
12D021
  8
OBJECT
 10
11564.961561005321
 20
-393.39186315317193
 30
0.0
 40
519.48776673616965
 50
315.42350667430981
 51
318.50052655621488
1001
ACDBBLOCKREPETAG
1070
     1
1071
       12
1005
12D021
  0
LINE
  5
12D022
  8
OBJECT
 10
12047.5
 20
-628.99999999999955
 30
0.0
 11
11952.5
 21
-628.99999999999955
 31
0.0
1001
ACDBBLOCKREPETAG
1070
     1
1071
       24
1005
12D022
  0
ARC
  5
12D023
  8
OBJECT
 10
11952.5
 20
-631.99999999999955
 30
0.0
 40
3.0
 50
90.0
 51
180.0
1001
ACDBBLOCKREPETAG
1070
     1
1071
       25
1005
12D023
  0
LINE
  5
12D024
  8
OBJECT
 10
11949.5
 20
-631.99999999999955
 30
0.0
 11
11949.5
 21
-633.99999999999955
 31
0.0
1001
ACDBBLOCKREPETAG
1070
     1
1071
       26
1005
12D024
  0
LINE
  5
12D025
  8
OBJECT
 10
12050.5
 20
-631.99999999999955
 30
0.0
 11
12050.5
 21
-633.99999999999955
 31
0.0
1001
ACDBBLOCKREPETAG
1070
     1
1071
       27
1005
12D025
  0
ARC
  5
12D026
  8
OBJECT
 10
12047.5
 20
-631.99999999999955
 30
0.0
 40
3.0
 50
0.0
 51
90.0
1001
ACDBBLOCKREPETAG
1070
     1
1071
       28
1005
12D026
  0
POINT
  5
12D027
  8
DOTS
 10
12000.0
 20
-754.99999999999955
 30
0.0
1001
ACDBBLOCKREPETAG
1070
     1
1071
       87
1005
12D027
  0
LINE
  5
12D028
  8
SLIM
 10
11963.217182668241
 20
-137.99999999999909
 30
0.0
 11
11969.921507996291
 21
-131.29567467194681
 31
0.0
1001
ACDBBLOCKREPETAG
1070
     1
1071
      157
1005
0
1001
GRADIENTCOLOR1ACI
1070
     5
1001
GRADIENTCOLOR2ACI
1070
     2
1001
ACAD
1010
0.0
1020
0.0
1030
0.0
  0
LINE
  5
12D029
  8
SLIM
 10
11972.19743878931
 20
-137.99999999999909
 30
0.0
 11
11983.31883633275
 21
-126.87860245655401
 31
0.0
1001
GRADIENTCOLOR1ACI
1070
     5
1001
GRADIENTCOLOR2ACI
1070
     2
1001
ACAD
1010
0.0
1020
0.0
1030
0.0
1001
ACDBBLOCKREPETAG
1070
     1
1071
      160
1005
12D029
  0
LINE
  5
12D02A
  8
SLIM
 10
11981.48493728876
 20
-137.6927576216126
 30
0.0
 11
11993.9318052486
 21
-125.245889661777
 31
0.0
1001
GRADIENTCOLOR1ACI
1070
     5
1001
GRADIENTCOLOR2ACI
1070
     2
1001
ACAD
1010
0.0
1020
0.0
1030
0.0
1001
ACDBBLOCKREPETAG
1070
     1
1071
      161
1005
12D02A
  0
LINE
  5
12D02B
  8
SLIM
 10
11992.75265682803
 20
-135.40529420341099
 30
0.0
 11
12000.0
 21
-128.1579510314458
 31
0.0
1001
GRADIENTCOLOR1ACI
1070
     5
1001
GRADIENTCOLOR2ACI
1070
     2
1001
ACAD
1010
0.0
1020
0.0
1030
0.0
1001
ACDBBLOCKREPETAG
1070
     1
1071
      162
1005
12D02B
  0
LINE
  5
12D02C
  8
SLIM
 10
12000.0
 20
-128.1579510314458
 30
0.0
 11
12003.094100787839
 21
-125.0638502435924
 31
0.0
1001
GRADIENTCOLOR1ACI
1070
     5
1001
GRADIENTCOLOR2ACI
1070
     2
1001
ACAD
1010
0.0
1020
0.0
1030
0.0
1001
ACDBBLOCKREPETAG
1070
     1
1071
      163
1005
12D02C
  0
LINE
  5
12D02D
  8
SLIM
 10
12002.10414122347
 20
-135.03406592904389
 30
0.0
 11
12011.28442576865
 21
-125.85378138386341
 31
0.0
1001
GRADIENTCOLOR1ACI
1070
     5
1001
GRADIENTCOLOR2ACI
1070
     2
1001
ACAD
1010
0.0
1020
0.0
1030
0.0
1001
ACDBBLOCKREPETAG
1070
     1
1071
      164
1005
12D02D
  0
LINE
  5
12D02E
  8
SLIM
 10
12010.297585520921
 20
-135.82087775265759
 30
0.0
 11
12018.73958846552
 21
-127.3788748080627
 31
0.0
1001
GRADIENTCOLOR1ACI
1070
     5
1001
GRADIENTCOLOR2ACI
1070
     2
1001
ACAD
1010
0.0
1020
0.0
1030
0.0
1001
ACDBBLOCKREPETAG
1070
     1
1071
      165
1005
12D02E
  0
LINE
  5
12D02F
  8
SLIM
 10
12017.655079364229
 20
-137.4436400304258
 30
0.0
 11
12025.595886626959
 21
-129.50283276769261
 31
0.0
1001
GRADIENTCOLOR1ACI
1070
     5
1001
GRADIENTCOLOR2ACI
1070
     2
1001
ACAD
1010
0.0
1020
0.0
1030
0.0
1001
ACDBBLOCKREPETAG
1070
     1
1071
      166
1005
12D02F
  0
LINE
  5
12D030
  8
SLIM
 10
12026.07897551572
 20
-137.99999999999909
 30
0.0
 11
12031.9385859461
 21
-132.1403895696169
 31
0.0
1001
GRADIENTCOLOR1ACI
1070
     5
1001
GRADIENTCOLOR2ACI
1070
     2
1001
ACAD
1010
0.0
1020
0.0
1030
0.0
1001
ACDBBLOCKREPETAG
1070
     1
1071
      167
1005
12D030
  0
LINE
  5
12D031
  8
SLIM
 10
12035.059231636789
 20
-137.99999999999909
 30
0.0
 11
12037.82336543762
 21
-135.23586619916779
 31
0.0
1001
GRADIENTCOLOR1ACI
1070
     5
1001
GRADIENTCOLOR2ACI
1070
     2
1001
ACAD
1010
0.0
1020
0.0
1030
0.0
1001
ACDBBLOCKREPETAG
1070
     1
1071
      168
1005
12D031
  0
CIRCLE
  5
12D032
  8
OBJECT
 10
12000.0
 20
-199.99999999999909
 30
0.0
 40
65.0
1001
ACDBBLOCKREPETAG
1070
     1
1071
       84
1005
12D032
  0
CIRCLE
  5
12D033
  8
OBJECT
 10
12000.0
 20
-199.99999999999909
 30
0.0
 40
50.5
1001
ACDBBLOCKREPETAG
1070
     1
1071
       86
1005
12D033
  0
LINE
  5
12D034
  8
OBJECT
 10
12070.0
 20
-137.99999999999909
 30
0.0
 11
12019.519221295939
 21
-137.99999999999909
 31
0.0
1001
ACDBBLOCKREPETAG
1070
     1
1071
       87
1005
12D034
  0
LINE
  5
12D035
  8
OBJECT
 10
11930.0
 20
-137.99999999999909
 30
0.0
 11
11980.48077870405
 21
-137.99999999999909
 31
0.0
1001
ACDBBLOCKREPETAG
1070
     1
1071
       88
1005
12D035
  0
LINE
  5
12D036
  8
OBJECT
 10
11930.0
 20
-261.99999999999909
 30
0.0
 11
11938.0
 21
-261.99999999999909
 31
0.0
1001
ACDBBLOCKREPETAG
1070
     1
1071
       89
1005
12D036
  0
LINE
  5
12D037
  8
OBJECT
 10
11938.0
 20
-269.99999999999909
 30
0.0
 11
11938.0
 21
-261.99999999999909
 31
0.0
1001
ACDBBLOCKREPETAG
1070
     1
1071
       90
1005
12D037
  0
LINE
  5
12D038
  8
OBJECT
 10
12070.0
 20
-261.99999999999909
 30
0.0
 11
12062.0
 21
-261.99999999999909
 31
0.0
1001
ACDBBLOCKREPETAG
1070
     1
1071
       91
1005
12D038
  0
LINE
  5
12D039
  8
OBJECT
 10
12062.0
 20
-269.99999999999909
 30
0.0
 11
12062.0
 21
-261.99999999999909
 31
0.0
1001
ACDBBLOCKREPETAG
1070
     1
1071
       92
1005
12D039
  0
LINE
  5
12D03A
  8
CENTER
 10
11930.0
 20
-199.99999999999909
 30
0.0
 11
12070.0
 21
-199.99999999999909
 31
0.0
1001
ACDBBLOCKREPETAG
1070
     1
1071
       93
1005
12D03A
  0
LINE
  5
12D03B
  8
CENTER
 10
12000.0
 20
-269.99999999999909
 30
0.0
 11
12000.0
 21
-109.9999999999991
 31
0.0
1001
ACDBBLOCKREPETAG
1070
     1
1071
       94
1005
12D03B
  0
LINE
  5
12D03C
  8
OBJECT
 10
11954.03805922287
 20
-245.96194077712289
 30
0.0
 11
11938.0
 21
-261.99999999999909
 31
0.0
1001
ACDBBLOCKREPETAG
1070
     1
1071
      106
1005
12D03C
  0
LINE
  5
12D03D
  8
OBJECT
 10
12045.96194077713
 20
-245.96194077712289
 30
0.0
 11
12062.0
 21
-261.99999999999909
 31
0.0
1001
ACDBBLOCKREPETAG
1070
     1
1071
      107
1005
12D03D
  0
ARC
  5
12D03E
  8
OBJECT
 10
12000.0
 20
-199.99999999999909
 30
0.0
 40
75.0
 50
55.757831297238091
 51
124.2421687027619
1001
ACDBBLOCKREPETAG
1070
     1
1071
      108
1005
12D03E
  0
POINT
  5
12D03F
  8
DOTS
 10
12000.0
 20
-199.99999999999909
 30
0.0
1001
ACDBBLOCKREPETAG
1070
     1
1071
      159
1005
12D03F
  0
LINE
  5
12D040
  8
OBJECT
 10
11807.0
 20
-582.99999999999955
 30
0.0
 11
11800.000000000009
 21
-582.99999999999955
 31
0.0
1001
ACDBBLOCKREPETAG
1070
     1
1071
      324
1005
12D040
  0
LINE
  5
12D041
  8
OBJECT
 10
11800.000000000009
 20
-582.99999999999955
 30
0.0
 11
11800.000000000009
 21
-706.99999999999955
 31
0.0
1001
ACDBBLOCKREPETAG
1070
     1
1071
      325
1005
12D041
  0
LINE
  5
12D042
  8
OBJECT
 10
11924.000000000009
 20
-653.35026377572683
 30
0.0
 11
11924.000000000009
 21
-755.00000000000034
 31
0.0
1001
ACDBBLOCKREPETAG
1070
     1
1071
      326
1005
12D042
  0
LINE
  5
12D043
  8
OBJECT
 10
11800.000000000009
 20
-706.99999999999955
 30
0.0
 11
11807.0
 21
-706.99999999999955
 31
0.0
1001
ACDBBLOCKREPETAG
1070
     1
1071
      327
1005
12D043
  0
LINE
  5
12D044
  8
OBJECT
 10
11807.0
 20
-706.99999999999955
 30
0.0
 11
11807.0
 21
-582.99999999999955
 31
0.0
1001
ACDBBLOCKREPETAG
1070
     1
1071
      328
1005
12D044
  0
LINE
  5
12D045
  8
CENTER
 10
11875.000000000009
 20
-645.00000000000045
 30
0.0
 11
11785.0
 21
-644.99999999999955
 31
0.0
1001
ACDBBLOCKREPETAG
1070
     1
1071
      329
1005
12D045
  0
LINE
  5
12D046
  8
OBJECT
 10
11930.00000000002
 20
-757.99999999999955
 30
0.0
 11
11927.0
 21
-758.00000000000034
 31
0.0
1001
ACDBBLOCKREPETAG
1070
     1
1071
      330
1005
12D046
  0
ARC
  5
12D047
  8
OBJECT
 10
11927.0
 20
-755.00000000000034
 30
0.0
 40
3.0
 50
180.0
 51
270.0
1001
ACDBBLOCKREPETAG
1070
     1
1071
      331
1005
12D047
  0
LINE
  5
12D048
  8
OBJECT
 10
11807.0
 20
-585.99999999999955
 30
0.0
 11
11843.000000000009
 21
-586.00000000000045
 31
0.0
1001
ACDBBLOCKREPETAG
1070
     1
1071
      332
1005
12D048
  0
LINE
  5
12D049
  8
OBJECT
 10
11843.000000000009
 20
-586.00000000000045
 30
0.0
 11
11843.000000000009
 21
-704.00000000000045
 31
0.0
1001
ACDBBLOCKREPETAG
1070
     1
1071
      333
1005
12D049
  0
LINE
  5
12D04A
  8
OBJECT
 10
11847.0
 20
-590.50000000000045
 30
0.0
 11
11847.0
 21
-699.50000000000045
 31
0.0
1001
ACDBBLOCKREPETAG
1070
     1
1071
      334
1005
12D04A
  0
LINE
  5
12D04B
  8
OBJECT
 10
11847.0
 20
-590.50000000000045
 30
0.0
 11
11860.000000000009
 21
-590.50000000000045
 31
0.0
1001
ACDBBLOCKREPETAG
1070
     1
1071
      335
1005
12D04B
  0
LINE
  5
12D04C
  8
OBJECT
 10
11843.000000000009
 20
-704.00000000000045
 30
0.0
 11
11807.0
 21
-703.99999999999955
 31
0.0
1001
ACDBBLOCKREPETAG
1070
     1
1071
      336
1005
12D04C
  0
LINE
  5
12D04D
  8
OBJECT
 10
11843.000000000009
 20
-586.00000000000045
 30
0.0
 11
11847.0
 21
-590.50000000000045
 31
0.0
1001
ACDBBLOCKREPETAG
1070
     1
1071
      337
1005
12D04D
  0
LINE
  5
12D04E
  8
OBJECT
 10
11860.000000000009
 20
-590.50000000000045
 30
0.0
 11
11860.000000000009
 21
-675.7449182792875
 31
0.0
1001
ACDBBLOCKREPETAG
1070
     1
1071
      338
1005
12D04E
  0
ARC
  5
12D04F
  8
OBJECT
 10
11857.20000000001
 20
-685.00000000000045
 30
0.0
 40
85.0
 50
36.869897645890923
 51
88.112268108168848
1001
ACDBBLOCKREPETAG
1070
     1
1071
      339
1005
12D04F
  0
LINE
  5
12D050
  8
HIDDEN
 10
11852.0
 20
-600.50000000000057
 30
0.0
 11
11852.0
 21
-689.50000000000045
 31
0.0
1001
ACDBBLOCKREPETAG
1070
     1
1071
      341
1005
12D050
  0
LINE
  5
12D051
  8
OBJECT
 10
11924.000000000009
 20
-751.07945073181725
 30
0.0
 11
11853.368680078969
 21
-699.50000000000045
 31
0.0
1001
ACDBBLOCKREPETAG
1070
     1
1071
      342
1005
12D051
  0
LINE
  5
12D052
  8
OBJECT
 10
11930.00000000002
 20
-633.99999999999955
 30
0.0
 11
11925.20000000001
 21
-633.99999999999955
 31
0.0
1001
ACDBBLOCKREPETAG
1070
     1
1071
      343
1005
12D052
  0
LINE
  5
12D053
  8
OBJECT
 10
11924.000000000009
 20
-653.35026377572945
 30
0.0
 11
11925.20000000001
 21
-633.99999999999955
 31
0.0
1001
ACDBBLOCKREPETAG
1070
     1
1071
      344
1005
12D053
  0
LINE
  5
12D054
  8
OBJECT
 10
11847.0
 20
-699.50000000000045
 30
0.0
 11
11853.368680078969
 21
-699.50000000000045
 31
0.0
1001
ACDBBLOCKREPETAG
1070
     1
1071
      345
1005
12D054
  0
LINE
  5
12D055
  8
OBJECT
 10
11843.000000000009
 20
-704.00000000000045
 30
0.0
 11
11847.0
 21
-699.50000000000045
 31
0.0
1001
ACDBBLOCKREPETAG
1070
     1
1071
      346
1005
12D055
  0
LINE
  5
12D056
  8
OBJECT
 10
11807.0
 20
-261.99999999999909
 30
0.0
 11
11800.000000000009
 21
-261.99999999999909
 31
0.0
1001
ACDBBLOCKREPETAG
1070
     1
1071
      376
1005
12D056
  0
LINE
  5
12D057
  8
OBJECT
 10
11800.000000000009
 20
-261.99999999999909
 30
0.0
 11
11800.000000000009
 21
-137.99999999999909
 31
0.0
1001
ACDBBLOCKREPETAG
1070
     1
1071
      377
1005
12D057
  0
LINE
  5
12D058
  8
OBJECT
 10
11800.000000000009
 20
-137.99999999999909
 30
0.0
 11
11807.0
 21
-137.99999999999909
 31
0.0
1001
ACDBBLOCKREPETAG
1070
     1
1071
      378
1005
12D058
  0
LINE
  5
12D059
  8
OBJECT
 10
11807.0
 20
-137.99999999999909
 30
0.0
 11
11807.0
 21
-261.99999999999909
 31
0.0
1001
ACDBBLOCKREPETAG
1070
     1
1071
      379
1005
12D059
  0
LINE
  5
12D05A
  8
CENTER
 10
11785.0
 20
-199.99999999999909
 30
0.0
 11
11930.0
 21
-199.99999999999909
 31
0.0
1001
ACDBBLOCKREPETAG
1070
     1
1071
      380
1005
12D05A
  0
LINE
  5
12D05B
  8
OBJECT
 10
11860.00002503581
 20
-154.9999999999954
 30
0.0
 11
11924.0
 21
-154.99999999999909
 31
0.0
1001
ACDBBLOCKREPETAG
1070
     1
1071
      381
1005
12D05B
  0
LINE
  5
12D05C
  8
OBJECT
 10
11860.00002503581
 20
-244.99999999999909
 30
0.0
 11
11924.0
 21
-244.99999999999909
 31
0.0
1001
ACDBBLOCKREPETAG
1070
     1
1071
      382
1005
12D05C
  0
LINE
  5
12D05D
  8
OBJECT
 10
11807.0
 20
-258.99999999999909
 30
0.0
 11
11843.000000000009
 21
-258.99999999999909
 31
0.0
1001
ACDBBLOCKREPETAG
1070
     1
1071
      383
1005
12D05D
  0
LINE
  5
12D05E
  8
OBJECT
 10
11843.000000000009
 20
-258.99999999999909
 30
0.0
 11
11843.000000000009
 21
-140.99999999999909
 31
0.0
1001
ACDBBLOCKREPETAG
1070
     1
1071
      384
1005
12D05E
  0
LINE
  5
12D05F
  8
OBJECT
 10
11843.000000000009
 20
-140.99999999999909
 30
0.0
 11
11807.0
 21
-140.99999999999909
 31
0.0
1001
ACDBBLOCKREPETAG
1070
     1
1071
      385
1005
12D05F
  0
LINE
  5
12D060
  8
OBJECT
 10
11847.0
 20
-254.49999999999909
 30
0.0
 11
11860.000000000009
 21
-254.49999999999909
 31
0.0
1001
ACDBBLOCKREPETAG
1070
     1
1071
      386
1005
12D060
  0
LINE
  5
12D061
  8
OBJECT
 10
11860.000000000009
 20
-145.49999999999909
 30
0.0
 11
11847.0
 21
-145.49999999999909
 31
0.0
1001
ACDBBLOCKREPETAG
1070
     1
1071
      387
1005
12D061
  0
LINE
  5
12D062
  8
OBJECT
 10
11847.0
 20
-145.49999999999909
 30
0.0
 11
11847.0
 21
-254.49999999999909
 31
0.0
1001
ACDBBLOCKREPETAG
1070
     1
1071
      388
1005
12D062
  0
LINE
  5
12D063
  8
OBJECT
 10
11843.000000000009
 20
-258.99999999999909
 30
0.0
 11
11847.0
 21
-254.49999999999909
 31
0.0
1001
ACDBBLOCKREPETAG
1070
     1
1071
      389
1005
12D063
  0
LINE
  5
12D064
  8
OBJECT
 10
11843.000000000009
 20
-140.99999999999909
 30
0.0
 11
11847.0
 21
-145.49999999999909
 31
0.0
1001
ACDBBLOCKREPETAG
1070
     1
1071
      390
1005
12D064
  0
LINE
  5
12D065
  8
OBJECT
 10
11927.0
 20
-261.99999999999909
 30
0.0
 11
11930.0
 21
-261.99999999999909
 31
0.0
1001
ACDBBLOCKREPETAG
1070
     1
1071
      391
1005
12D065
  0
ARC
  5
12D066
  8
OBJECT
 10
11927.0
 20
-258.99999999999909
 30
0.0
 40
3.0
 50
180.0
 51
270.0
1001
ACDBBLOCKREPETAG
1070
     1
1071
      392
1005
12D066
  0
LINE
  5
12D067
  8
OBJECT
 10
11930.0
 20
-137.99999999999909
 30
0.0
 11
11927.0
 21
-137.99999999999909
 31
0.0
1001
ACDBBLOCKREPETAG
1070
     1
1071
      393
1005
12D067
  0
ARC
  5
12D068
  8
OBJECT
 10
11927.0
 20
-140.99999999999909
 30
0.0
 40
3.0
 50
90.0
 51
180.0
1001
ACDBBLOCKREPETAG
1070
     1
1071
      394
1005
12D068
  0
LINE
  5
12D069
  8
OBJECT
 10
11924.0
 20
-140.99999999999909
 30
0.0
 11
11924.0
 21
-189.6772096796403
 31
0.0
1001
ACDBBLOCKREPETAG
1070
     1
1071
      395
1005
12D069
  0
LINE
  5
12D06A
  8
OBJECT
 10
11924.0
 20
-210.3227903203578
 30
0.0
 11
11924.0
 21
-258.99999999999909
 31
0.0
1001
ACDBBLOCKREPETAG
1070
     1
1071
      396
1005
12D06A
  0
LINE
  5
12D06B
  8
HIDDEN
 10
11852.0
 20
-244.49999999999909
 30
0.0
 11
11852.0
 21
-155.49999999999909
 31
0.0
1001
ACDBBLOCKREPETAG
1070
     1
1071
      397
1005
12D06B
  0
LINE
  5
12D06C
  8
OBJECT
 10
11860.00002503581
 20
-145.50004907618759
 30
0.0
 11
11860.00002503581
 21
-254.50004907618771
 31
0.0
1001
ACDBBLOCKREPETAG
1070
     1
1071
      399
1005
12D06C
  0
ARC
  5
12D06D
  8
OBJECT
 10
11880.19999999997
 20
-199.99999999999909
 30
0.0
 40
45.000000000000547
 50
270.0
 51
90.0
1001
ACDBBLOCKREPETAG
1070
     1
1071
      400
1005
12D06D
  0
LINE
  5
12D06E
  8
CENTER
 10
12000.0
 20
-290.99999999999898
 30
0.0
 11
12000.0
 21
-269.99999999999909
 31
0.0
1001
ACDBBLOCKREPETAG
1070
     1
1071
        0
1005
12D06E
  0
LINE
  5
12D06F
  8
OBJECT
 10
12062.0
 20
-273.0
 30
0.0
 11
12062.0
 21
-269.99999999999909
 31
0.0
1001
ACDBBLOCKREPETAG
1070
     1
1071
        1
1005
12D06F
  0
ARC
  5
12D070
  8
OBJECT
 10
12059.0
 20
-273.0
 30
0.0
 40
3.0
 50
270.0
 51
0.0
1001
ACDBBLOCKREPETAG
1070
     1
1071
        2
1005
12D070
  0
LINE
  5
12D071
  8
OBJECT
 10
11938.0
 20
-269.99999999999909
 30
0.0
 11
11938.0
 21
-272.99999999999818
 31
0.0
1001
ACDBBLOCKREPETAG
1070
     1
1071
        3
1005
12D071
  0
ARC
  5
12D072
  8
OBJECT
 10
11941.0
 20
-272.99999999999818
 30
0.0
 40
3.0
 50
180.0
 51
270.0
1001
ACDBBLOCKREPETAG
1070
     1
1071
        4
1005
12D072
  0
LINE
  5
12D073
  8
OBJECT
 10
11941.0
 20
-275.99999999999818
 30
0.0
 11
12059.0
 21
-276.0
 31
0.0
1001
ACDBBLOCKREPETAG
1070
     1
1071
        5
1005
12D073
  0
LINE
  5
12D074
  8
OBJECT
 10
12123.0
 20
-663.99999999999966
 30
0.0
 11
12130.0
 21
-663.99999999999966
 31
0.0
1001
ACDBBLOCKREPETAG
1070
     1
1071
        7
1005
12D074
  0
LINE
  5
12D075
  8
OBJECT
 10
12130.0
 20
-663.99999999999966
 30
0.0
 11
12130.0
 21
-754.99999999999955
 31
0.0
1001
ACDBBLOCKREPETAG
1070
     1
1071
        8
1005
12D075
  0
LINE
  5
12D076
  8
OBJECT
 10
12123.0
 20
-754.99999999999955
 30
0.0
 11
12123.0
 21
-663.99999999999966
 31
0.0
1001
ACDBBLOCKREPETAG
1070
     1
1071
        9
1005
12D076
  0
LINE
  5
12D077
  8
CENTER
 10
12145.0
 20
-710.99999999999955
 30
0.0
 11
12061.0
 21
-710.99999999999955
 31
0.0
1001
ACDBBLOCKREPETAG
1070
     1
1071
       10
1005
12D077
  0
LINE
  5
12D078
  8
OBJECT
 10
12123.0
 20
-666.99999999999955
 30
0.0
 11
12087.0
 21
-666.99999999999955
 31
0.0
1001
ACDBBLOCKREPETAG
1070
     1
1071
       11
1005
12D078
  0
LINE
  5
12D079
  8
OBJECT
 10
12087.0
 20
-666.99999999999955
 30
0.0
 11
12087.0
 21
-754.99999999999955
 31
0.0
1001
ACDBBLOCKREPETAG
1070
     1
1071
       12
1005
12D079
  0
LINE
  5
12D07A
  8
OBJECT
 10
12087.0
 20
-754.99999999999955
 30
0.0
 11
12130.0
 21
-754.99999999999955
 31
0.0
1001
ACDBBLOCKREPETAG
1070
     1
1071
       13
1005
12D07A
  0
LINE
  5
12D07B
  8
OBJECT
 10
12083.0
 20
-671.49999999999955
 30
0.0
 11
12076.0
 21
-671.49999999999955
 31
0.0
1001
ACDBBLOCKREPETAG
1070
     1
1071
       14
1005
12D07B
  0
LINE
  5
12D07C
  8
OBJECT
 10
12076.0
 20
-750.49999999999955
 30
0.0
 11
12083.0
 21
-750.49999999999955
 31
0.0
1001
ACDBBLOCKREPETAG
1070
     1
1071
       15
1005
12D07C
  0
LINE
  5
12D07D
  8
OBJECT
 10
12083.0
 20
-750.49999999999955
 30
0.0
 11
12083.0
 21
-671.49999999999955
 31
0.0
1001
ACDBBLOCKREPETAG
1070
     1
1071
       16
1005
12D07D
  0
LINE
  5
12D07E
  8
OBJECT
 10
12087.0
 20
-666.99999999999955
 30
0.0
 11
12083.0
 21
-671.49999999999955
 31
0.0
1001
ACDBBLOCKREPETAG
1070
     1
1071
       17
1005
12D07E
  0
LINE
  5
12D07F
  8
OBJECT
 10
12087.0
 20
-754.99999999999955
 30
0.0
 11
12083.0
 21
-750.49999999999955
 31
0.0
1001
ACDBBLOCKREPETAG
1070
     1
1071
       18
1005
12D07F
  0
LINE
  5
12D080
  8
OBJECT
 10
12073.0
 20
-633.99999999999955
 30
0.0
 11
12070.0
 21
-633.99999999999955
 31
0.0
1001
ACDBBLOCKREPETAG
1070
     1
1071
       19
1005
12D080
  0
ARC
  5
12D081
  8
OBJECT
 10
12073.0
 20
-636.99999999999955
 30
0.0
 40
3.0
 50
0.0
 51
90.0
1001
ACDBBLOCKREPETAG
1070
     1
1071
       20
1005
12D081
  0
LINE
  5
12D082
  8
OBJECT
 10
12070.0
 20
-757.99999999999955
 30
0.0
 11
12073.0
 21
-757.99999999999955
 31
0.0
1001
ACDBBLOCKREPETAG
1070
     1
1071
       21
1005
12D082
  0
ARC
  5
12D083
  8
OBJECT
 10
12073.0
 20
-754.99999999999955
 30
0.0
 40
3.0
 50
270.0
 51
0.0
1001
ACDBBLOCKREPETAG
1070
     1
1071
       22
1005
12D083
  0
LINE
  5
12D084
  8
OBJECT
 10
12076.0
 20
-754.99999999999955
 30
0.0
 11
12076.0
 21
-636.99999999999955
 31
0.0
1001
ACDBBLOCKREPETAG
1070
     1
1071
       23
1005
12D084
  0
LINE
  5
12D085
  8
HIDDEN
 10
12078.0
 20
-680.99999999999955
 30
0.0
 11
12078.0
 21
-740.99999999999955
 31
0.0
1001
ACDBBLOCKREPETAG
1070
     1
1071
       24
1005
12D085
  0
LINE
  5
12D086
  8
OBJECT
 10
12123.0
 20
-152.99999999999909
 30
0.0
 11
12130.0
 21
-152.99999999999909
 31
0.0
1001
ACDBBLOCKREPETAG
1070
     1
1071
        7
1005
12D086
  0
LINE
  5
12D087
  8
OBJECT
 10
12130.0
 20
-152.99999999999909
 30
0.0
 11
12130.0
 21
-246.99999999999909
 31
0.0
1001
ACDBBLOCKREPETAG
1070
     1
1071
        8
1005
12D087
  0
LINE
  5
12D088
  8
OBJECT
 10
12130.0
 20
-246.99999999999909
 30
0.0
 11
12123.0
 21
-246.99999999999909
 31
0.0
1001
ACDBBLOCKREPETAG
1070
     1
1071
        9
1005
12D088
  0
LINE
  5
12D089
  8
OBJECT
 10
12123.0
 20
-246.99999999999909
 30
0.0
 11
12123.0
 21
-152.99999999999909
 31
0.0
1001
ACDBBLOCKREPETAG
1070
     1
1071
       10
1005
12D089
  0
LINE
  5
12D08A
  8
CENTER
 10
12145.0
 20
-199.99999999999909
 30
0.0
 11
12070.0
 21
-199.99999999999909
 31
0.0
1001
ACDBBLOCKREPETAG
1070
     1
1071
       11
1005
12D08A
  0
LINE
  5
12D08B
  8
OBJECT
 10
12123.0
 20
-155.99999999999909
 30
0.0
 11
12087.0
 21
-155.99999999999909
 31
0.0
1001
ACDBBLOCKREPETAG
1070
     1
1071
       12
1005
12D08B
  0
LINE
  5
12D08C
  8
OBJECT
 10
12087.0
 20
-155.99999999999909
 30
0.0
 11
12087.0
 21
-243.99999999999909
 31
0.0
1001
ACDBBLOCKREPETAG
1070
     1
1071
       13
1005
12D08C
  0
LINE
  5
12D08D
  8
OBJECT
 10
12087.0
 20
-243.99999999999909
 30
0.0
 11
12123.0
 21
-243.99999999999909
 31
0.0
1001
ACDBBLOCKREPETAG
1070
     1
1071
       14
1005
12D08D
  0
LINE
  5
12D08E
  8
OBJECT
 10
12083.0
 20
-160.49999999999909
 30
0.0
 11
12076.0
 21
-160.49999999999909
 31
0.0
1001
ACDBBLOCKREPETAG
1070
     1
1071
       15
1005
12D08E
  0
LINE
  5
12D08F
  8
OBJECT
 10
12076.0
 20
-239.49999999999909
 30
0.0
 11
12083.0
 21
-239.49999999999909
 31
0.0
1001
ACDBBLOCKREPETAG
1070
     1
1071
       16
1005
12D08F
  0
LINE
  5
12D090
  8
OBJECT
 10
12083.0
 20
-239.49999999999909
 30
0.0
 11
12083.0
 21
-160.49999999999909
 31
0.0
1001
ACDBBLOCKREPETAG
1070
     1
1071
       17
1005
12D090
  0
LINE
  5
12D091
  8
OBJECT
 10
12087.0
 20
-155.99999999999909
 30
0.0
 11
12083.0
 21
-160.49999999999909
 31
0.0
1001
ACDBBLOCKREPETAG
1070
     1
1071
       18
1005
12D091
  0
LINE
  5
12D092
  8
OBJECT
 10
12087.0
 20
-243.99999999999909
 30
0.0
 11
12083.0
 21
-239.49999999999909
 31
0.0
1001
ACDBBLOCKREPETAG
1070
     1
1071
       19
1005
12D092
  0
LINE
  5
12D093
  8
OBJECT
 10
12073.0
 20
-137.99999999999909
 30
0.0
 11
12070.0
 21
-137.99999999999909
 31
0.0
1001
ACDBBLOCKREPETAG
1070
     1
1071
       20
1005
12D093
  0
ARC
  5
12D094
  8
OBJECT
 10
12073.0
 20
-140.99999999999909
 30
0.0
 40
3.0
 50
0.0
 51
90.0
1001
ACDBBLOCKREPETAG
1070
     1
1071
       21
1005
12D094
  0
LINE
  5
12D095
  8
OBJECT
 10
12070.0
 20
-261.99999999999909
 30
0.0
 11
12073.0
 21
-261.99999999999909
 31
0.0
1001
ACDBBLOCKREPETAG
1070
     1
1071
       22
1005
12D095
  0
ARC
  5
12D096
  8
OBJECT
 10
12073.0
 20
-258.99999999999909
 30
0.0
 40
3.0
 50
270.0
 51
0.0
1001
ACDBBLOCKREPETAG
1070
     1
1071
       23
1005
12D096
  0
LINE
  5
12D097
  8
OBJECT
 10
12076.0
 20
-258.99999999999909
 30
0.0
 11
12076.0
 21
-140.99999999999909
 31
0.0
1001
ACDBBLOCKREPETAG
1070
     1
1071
       24
1005
12D097
  0
LINE
  5
12D098
  8
HIDDEN
 10
12078.0
 20
-169.99999999999909
 30
0.0
 11
12078.0
 21
-229.99999999999909
 31
0.0
1001
ACDBBLOCKREPETAG
1070
     1
1071
       25
1005
12D098
  0
CIRCLE
  5
12D099
  8
OBJECT
 10
10000.0
 20
-695.99999999999955
 30
0.0
 40
62.0
1001
ACDBBLOCKREPETAG
1070
     1
1071
        0
1005
12D099
  0
LINE
  5
12D09A
  8
CENTER
 10
10000.0
 20
-769.99999999999955
 30
0.0
 11
10000.0
 21
-613.99999999999966
 31
0.0
1001
ACDBBLOCKREPETAG
1070
     1
1071
        0
1005
12D09A
  0
LINE
  5
12D09B
  8
OBJECT
 10
9930.0
 20
-633.99999999999955
 30
0.0
 11
10070.0
 21
-633.99999999999955
 31
0.0
1001
ACDBBLOCKREPETAG
1070
     1
1071
        1
1005
12D09B
  0
LINE
  5
12D09C
  8
OBJECT
 10
9930.0
 20
-757.99999999999955
 30
0.0
 11
9930.0
 21
-769.99999999999955
 31
0.0
1001
ACDBBLOCKREPETAG
1070
     1
1071
        2
1005
12D09C
  0
LINE
  5
12D09D
  8
OBJECT
 10
9930.0
 20
-769.99999999999955
 30
0.0
 11
10070.0
 21
-769.99999999999955
 31
0.0
1001
ACDBBLOCKREPETAG
1070
     1
1071
        3
1005
12D09D
  0
LINE
  5
12D09E
  8
OBJECT
 10
10070.0
 20
-769.99999999999955
 30
0.0
 11
10070.0
 21
-757.99999999999955
 31
0.0
1001
ACDBBLOCKREPETAG
1070
     1
1071
        4
1005
12D09E
  0
LINE
  5
12D09F
  8
OBJECT
 10
10070.0
 20
-757.99999999999955
 30
0.0
 11
9930.0
 21
-757.99999999999955
 31
0.0
1001
ACDBBLOCKREPETAG
1070
     1
1071
        5
1005
12D09F
  0
ARC
  5
12D0A0
  8
OBJECT
 10
10435.03843899467
 20
-998.60813684682694
 30
0.0
 40
519.48776673616965
 50
135.42350667430969
 51
138.50052655621499
1001
ACDBBLOCKREPETAG
1070
     1
1071
        9
1005
12D0A0
  0
ARC
  5
12D0A1
  8
OBJECT
 10
10435.03843899467
 20
-393.39186315317193
 30
0.0
 40
519.48776673616965
 50
221.49947344378501
 51
224.57649332569039
1001
ACDBBLOCKREPETAG
1070
     1
1071
       10
1005
12D0A1
  0
ARC
  5
12D0A2
  8
OBJECT
 10
9564.9615610053243
 20
-998.60813684682694
 30
0.0
 40
519.48776673616965
 50
41.499473443784993
 51
44.576493325690237
1001
ACDBBLOCKREPETAG
1070
     1
1071
       11
1005
12D0A2
  0
ARC
  5
12D0A3
  8
OBJECT
 10
9564.9615610053243
 20
-393.39186315317193
 30
0.0
 40
519.48776673616965
 50
315.42350667430981
 51
318.50052655621488
1001
ACDBBLOCKREPETAG
1070
     1
1071
       12
1005
12D0A3
  0
LINE
  5
12D0A4
  8
OBJECT
 10
10047.5
 20
-628.99999999999955
 30
0.0
 11
9952.5
 21
-628.99999999999955
 31
0.0
1001
ACDBBLOCKREPETAG
1070
     1
1071
       24
1005
12D0A4
  0
ARC
  5
12D0A5
  8
OBJECT
 10
9952.5
 20
-631.99999999999955
 30
0.0
 40
3.0
 50
90.0
 51
180.0
1001
ACDBBLOCKREPETAG
1070
     1
1071
       25
1005
12D0A5
  0
LINE
  5
12D0A6
  8
OBJECT
 10
9949.5
 20
-631.99999999999955
 30
0.0
 11
9949.5
 21
-633.99999999999955
 31
0.0
1001
ACDBBLOCKREPETAG
1070
     1
1071
       26
1005
12D0A6
  0
LINE
  5
12D0A7
  8
OBJECT
 10
10050.5
 20
-631.99999999999955
 30
0.0
 11
10050.5
 21
-633.99999999999955
 31
0.0
1001
ACDBBLOCKREPETAG
1070
     1
1071
       27
1005
12D0A7
  0
ARC
  5
12D0A8
  8
OBJECT
 10
10047.5
 20
-631.99999999999955
 30
0.0
 40
3.0
 50
0.0
 51
90.0
1001
ACDBBLOCKREPETAG
1070
     1
1071
       28
1005
12D0A8
  0
POINT
  5
12D0A9
  8
DOTS
 10
10000.0
 20
-754.99999999999955
 30
0.0
1001
ACDBBLOCKREPETAG
1070
     1
1071
       87
1005
12D0A9
  0
LINE
  5
12D0AA
  8
SLIM
 10
9963.2171826682406
 20
-137.99999999999909
 30
0.0
 11
9969.9215079962923
 21
-131.29567467194681
 31
0.0
1001
ACDBBLOCKREPETAG
1070
     1
1071
      157
1005
0
1001
GRADIENTCOLOR1ACI
1070
     5
1001
GRADIENTCOLOR2ACI
1070
     2
1001
ACAD
1010
0.0
1020
0.0
1030
0.0
  0
LINE
  5
12D0AB
  8
SLIM
 10
9972.1974387893097
 20
-137.99999999999909
 30
0.0
 11
9983.3188363327517
 21
-126.87860245655401
 31
0.0
1001
GRADIENTCOLOR1ACI
1070
     5
1001
GRADIENTCOLOR2ACI
1070
     2
1001
ACAD
1010
0.0
1020
0.0
1030
0.0
1001
ACDBBLOCKREPETAG
1070
     1
1071
      160
1005
12D0AB
  0
LINE
  5
12D0AC
  8
SLIM
 10
9981.4849372887638
 20
-137.6927576216126
 30
0.0
 11
9993.9318052485996
 21
-125.245889661777
 31
0.0
1001
GRADIENTCOLOR1ACI
1070
     5
1001
GRADIENTCOLOR2ACI
1070
     2
1001
ACAD
1010
0.0
1020
0.0
1030
0.0
1001
ACDBBLOCKREPETAG
1070
     1
1071
      161
1005
12D0AC
  0
LINE
  5
12D0AD
  8
SLIM
 10
9992.7526568280355
 20
-135.40529420341099
 30
0.0
 11
10000.0
 21
-128.1579510314458
 31
0.0
1001
GRADIENTCOLOR1ACI
1070
     5
1001
GRADIENTCOLOR2ACI
1070
     2
1001
ACAD
1010
0.0
1020
0.0
1030
0.0
1001
ACDBBLOCKREPETAG
1070
     1
1071
      162
1005
12D0AD
  0
LINE
  5
12D0AE
  8
SLIM
 10
10000.0
 20
-128.1579510314458
 30
0.0
 11
10003.09410078785
 21
-125.0638502435924
 31
0.0
1001
GRADIENTCOLOR1ACI
1070
     5
1001
GRADIENTCOLOR2ACI
1070
     2
1001
ACAD
1010
0.0
1020
0.0
1030
0.0
1001
ACDBBLOCKREPETAG
1070
     1
1071
      163
1005
12D0AE
  0
LINE
  5
12D0AF
  8
SLIM
 10
10002.10414122347
 20
-135.03406592904389
 30
0.0
 11
10011.28442576865
 21
-125.85378138386341
 31
0.0
1001
GRADIENTCOLOR1ACI
1070
     5
1001
GRADIENTCOLOR2ACI
1070
     2
1001
ACAD
1010
0.0
1020
0.0
1030
0.0
1001
ACDBBLOCKREPETAG
1070
     1
1071
      164
1005
12D0AF
  0
LINE
  5
12D0B0
  8
SLIM
 10
10010.297585520921
 20
-135.82087775265759
 30
0.0
 11
10018.73958846552
 21
-127.3788748080627
 31
0.0
1001
GRADIENTCOLOR1ACI
1070
     5
1001
GRADIENTCOLOR2ACI
1070
     2
1001
ACAD
1010
0.0
1020
0.0
1030
0.0
1001
ACDBBLOCKREPETAG
1070
     1
1071
      165
1005
12D0B0
  0
LINE
  5
12D0B1
  8
SLIM
 10
10017.65507936422
 20
-137.4436400304258
 30
0.0
 11
10025.595886626959
 21
-129.50283276769261
 31
0.0
1001
GRADIENTCOLOR1ACI
1070
     5
1001
GRADIENTCOLOR2ACI
1070
     2
1001
ACAD
1010
0.0
1020
0.0
1030
0.0
1001
ACDBBLOCKREPETAG
1070
     1
1071
      166
1005
12D0B1
  0
LINE
  5
12D0B2
  8
SLIM
 10
10026.07897551572
 20
-137.99999999999909
 30
0.0
 11
10031.9385859461
 21
-132.1403895696169
 31
0.0
1001
GRADIENTCOLOR1ACI
1070
     5
1001
GRADIENTCOLOR2ACI
1070
     2
1001
ACAD
1010
0.0
1020
0.0
1030
0.0
1001
ACDBBLOCKREPETAG
1070
     1
1071
      167
1005
12D0B2
  0
LINE
  5
12D0B3
  8
SLIM
 10
10035.05923163678
 20
-137.99999999999909
 30
0.0
 11
10037.82336543762
 21
-135.23586619916779
 31
0.0
1001
GRADIENTCOLOR1ACI
1070
     5
1001
GRADIENTCOLOR2ACI
1070
     2
1001
ACAD
1010
0.0
1020
0.0
1030
0.0
1001
ACDBBLOCKREPETAG
1070
     1
1071
      168
1005
12D0B3
  0
CIRCLE
  5
12D0B4
  8
OBJECT
 10
10000.0
 20
-199.99999999999909
 30
0.0
 40
65.0
1001
ACDBBLOCKREPETAG
1070
     1
1071
       84
1005
12D0B4
  0
CIRCLE
  5
12D0B5
  8
OBJECT
 10
10000.0
 20
-199.99999999999909
 30
0.0
 40
50.5
1001
ACDBBLOCKREPETAG
1070
     1
1071
       86
1005
12D0B5
  0
LINE
  5
12D0B6
  8
OBJECT
 10
10070.0
 20
-137.99999999999909
 30
0.0
 11
10019.519221295939
 21
-137.99999999999909
 31
0.0
1001
ACDBBLOCKREPETAG
1070
     1
1071
       87
1005
12D0B6
  0
LINE
  5
12D0B7
  8
OBJECT
 10
9930.0
 20
-137.99999999999909
 30
0.0
 11
9980.4807787040572
 21
-137.99999999999909
 31
0.0
1001
ACDBBLOCKREPETAG
1070
     1
1071
       88
1005
12D0B7
  0
LINE
  5
12D0B8
  8
OBJECT
 10
9930.0
 20
-261.99999999999909
 30
0.0
 11
9938.0
 21
-261.99999999999909
 31
0.0
1001
ACDBBLOCKREPETAG
1070
     1
1071
       89
1005
12D0B8
  0
LINE
  5
12D0B9
  8
OBJECT
 10
9938.0
 20
-269.99999999999909
 30
0.0
 11
9938.0
 21
-261.99999999999909
 31
0.0
1001
ACDBBLOCKREPETAG
1070
     1
1071
       90
1005
12D0B9
  0
LINE
  5
12D0BA
  8
OBJECT
 10
10070.0
 20
-261.99999999999909
 30
0.0
 11
10062.0
 21
-261.99999999999909
 31
0.0
1001
ACDBBLOCKREPETAG
1070
     1
1071
       91
1005
12D0BA
  0
LINE
  5
12D0BB
  8
OBJECT
 10
10062.0
 20
-269.99999999999909
 30
0.0
 11
10062.0
 21
-261.99999999999909
 31
0.0
1001
ACDBBLOCKREPETAG
1070
     1
1071
       92
1005
12D0BB
  0
LINE
  5
12D0BC
  8
CENTER
 10
9930.0
 20
-199.99999999999909
 30
0.0
 11
10070.0
 21
-199.99999999999909
 31
0.0
1001
ACDBBLOCKREPETAG
1070
     1
1071
       93
1005
12D0BC
  0
LINE
  5
12D0BD
  8
CENTER
 10
10000.0
 20
-269.99999999999909
 30
0.0
 11
10000.0
 21
-109.9999999999991
 31
0.0
1001
ACDBBLOCKREPETAG
1070
     1
1071
       94
1005
12D0BD
  0
LINE
  5
12D0BE
  8
OBJECT
 10
9954.0380592228739
 20
-245.96194077712289
 30
0.0
 11
9938.0
 21
-261.99999999999909
 31
0.0
1001
ACDBBLOCKREPETAG
1070
     1
1071
      106
1005
12D0BE
  0
LINE
  5
12D0BF
  8
OBJECT
 10
10045.96194077713
 20
-245.96194077712289
 30
0.0
 11
10062.0
 21
-261.99999999999909
 31
0.0
1001
ACDBBLOCKREPETAG
1070
     1
1071
      107
1005
12D0BF
  0
ARC
  5
12D0C0
  8
OBJECT
 10
10000.0
 20
-199.99999999999909
 30
0.0
 40
75.0
 50
55.757831297238091
 51
124.2421687027619
1001
ACDBBLOCKREPETAG
1070
     1
1071
      108
1005
12D0C0
  0
POINT
  5
12D0C1
  8
DOTS
 10
10000.0
 20
-199.99999999999909
 30
0.0
1001
ACDBBLOCKREPETAG
1070
     1
1071
      159
1005
12D0C1
  0
LINE
  5
12D0C2
  8
OBJECT
 10
9807.0000000000164
 20
-582.99999999999955
 30
0.0
 11
9800.0000000000127
 21
-582.99999999999955
 31
0.0
1001
ACDBBLOCKREPETAG
1070
     1
1071
      324
1005
12D0C2
  0
LINE
  5
12D0C3
  8
OBJECT
 10
9800.0000000000127
 20
-582.99999999999955
 30
0.0
 11
9800.0000000000127
 21
-706.99999999999955
 31
0.0
1001
ACDBBLOCKREPETAG
1070
     1
1071
      325
1005
12D0C3
  0
LINE
  5
12D0C4
  8
OBJECT
 10
9924.0000000000127
 20
-653.35026377572683
 30
0.0
 11
9924.0000000000127
 21
-755.00000000000034
 31
0.0
1001
ACDBBLOCKREPETAG
1070
     1
1071
      326
1005
12D0C4
  0
LINE
  5
12D0C5
  8
OBJECT
 10
9800.0000000000127
 20
-706.99999999999955
 30
0.0
 11
9807.0000000000164
 21
-706.99999999999955
 31
0.0
1001
ACDBBLOCKREPETAG
1070
     1
1071
      327
1005
12D0C5
  0
LINE
  5
12D0C6
  8
OBJECT
 10
9807.0000000000164
 20
-706.99999999999955
 30
0.0
 11
9807.0000000000164
 21
-582.99999999999955
 31
0.0
1001
ACDBBLOCKREPETAG
1070
     1
1071
      328
1005
12D0C6
  0
LINE
  5
12D0C7
  8
CENTER
 10
9875.0000000000146
 20
-645.00000000000045
 30
0.0
 11
9785.0000000000164
 21
-644.99999999999955
 31
0.0
1001
ACDBBLOCKREPETAG
1070
     1
1071
      329
1005
12D0C7
  0
LINE
  5
12D0C8
  8
OBJECT
 10
9930.0000000000182
 20
-757.99999999999955
 30
0.0
 11
9927.0000000000127
 21
-758.00000000000034
 31
0.0
1001
ACDBBLOCKREPETAG
1070
     1
1071
      330
1005
12D0C8
  0
ARC
  5
12D0C9
  8
OBJECT
 10
9927.0000000000127
 20
-755.00000000000034
 30
0.0
 40
3.0
 50
180.0
 51
270.0
1001
ACDBBLOCKREPETAG
1070
     1
1071
      331
1005
12D0C9
  0
LINE
  5
12D0CA
  8
OBJECT
 10
9807.0000000000164
 20
-585.99999999999955
 30
0.0
 11
9843.0000000000146
 21
-586.00000000000045
 31
0.0
1001
ACDBBLOCKREPETAG
1070
     1
1071
      332
1005
12D0CA
  0
LINE
  5
12D0CB
  8
OBJECT
 10
9843.0000000000146
 20
-586.00000000000045
 30
0.0
 11
9843.0000000000146
 21
-704.00000000000045
 31
0.0
1001
ACDBBLOCKREPETAG
1070
     1
1071
      333
1005
12D0CB
  0
LINE
  5
12D0CC
  8
OBJECT
 10
9847.0000000000127
 20
-590.50000000000045
 30
0.0
 11
9847.0000000000127
 21
-699.50000000000045
 31
0.0
1001
ACDBBLOCKREPETAG
1070
     1
1071
      334
1005
12D0CC
  0
LINE
  5
12D0CD
  8
OBJECT
 10
9847.0000000000127
 20
-590.50000000000045
 30
0.0
 11
9860.0000000000127
 21
-590.50000000000045
 31
0.0
1001
ACDBBLOCKREPETAG
1070
     1
1071
      335
1005
12D0CD
  0
LINE
  5
12D0CE
  8
OBJECT
 10
9843.0000000000146
 20
-704.00000000000045
 30
0.0
 11
9807.0000000000164
 21
-703.99999999999955
 31
0.0
1001
ACDBBLOCKREPETAG
1070
     1
1071
      336
1005
12D0CE
  0
LINE
  5
12D0CF
  8
OBJECT
 10
9843.0000000000146
 20
-586.00000000000045
 30
0.0
 11
9847.0000000000127
 21
-590.50000000000045
 31
0.0
1001
ACDBBLOCKREPETAG
1070
     1
1071
      337
1005
12D0CF
  0
LINE
  5
12D0D0
  8
OBJECT
 10
9860.0000000000127
 20
-590.50000000000045
 30
0.0
 11
9860.0000000000127
 21
-675.7449182792875
 31
0.0
1001
ACDBBLOCKREPETAG
1070
     1
1071
      338
1005
12D0D0
  0
ARC
  5
12D0D1
  8
OBJECT
 10
9857.2000000000153
 20
-685.00000000000045
 30
0.0
 40
85.0
 50
36.869897645890923
 51
88.112268108168848
1001
ACDBBLOCKREPETAG
1070
     1
1071
      339
1005
12D0D1
  0
LINE
  5
12D0D2
  8
HIDDEN
 10
9852.0000000000182
 20
-600.50000000000057
 30
0.0
 11
9852.0000000000182
 21
-689.50000000000045
 31
0.0
1001
ACDBBLOCKREPETAG
1070
     1
1071
      341
1005
12D0D2
  0
LINE
  5
12D0D3
  8
OBJECT
 10
9924.0000000000127
 20
-751.07945073181725
 30
0.0
 11
9853.3686800789692
 21
-699.50000000000045
 31
0.0
1001
ACDBBLOCKREPETAG
1070
     1
1071
      342
1005
12D0D3
  0
LINE
  5
12D0D4
  8
OBJECT
 10
9930.0000000000182
 20
-633.99999999999955
 30
0.0
 11
9925.2000000000153
 21
-633.99999999999955
 31
0.0
1001
ACDBBLOCKREPETAG
1070
     1
1071
      343
1005
12D0D4
  0
LINE
  5
12D0D5
  8
OBJECT
 10
9924.0000000000127
 20
-653.35026377572945
 30
0.0
 11
9925.2000000000153
 21
-633.99999999999955
 31
0.0
1001
ACDBBLOCKREPETAG
1070
     1
1071
      344
1005
12D0D5
  0
LINE
  5
12D0D6
  8
OBJECT
 10
9847.0000000000127
 20
-699.50000000000045
 30
0.0
 11
9853.3686800789692
 21
-699.50000000000045
 31
0.0
1001
ACDBBLOCKREPETAG
1070
     1
1071
      345
1005
12D0D6
  0
LINE
  5
12D0D7
  8
OBJECT
 10
9843.0000000000146
 20
-704.00000000000045
 30
0.0
 11
9847.0000000000127
 21
-699.50000000000045
 31
0.0
1001
ACDBBLOCKREPETAG
1070
     1
1071
      346
1005
12D0D7
  0
LINE
  5
12D0D8
  8
OBJECT
 10
9807.0000000000164
 20
-261.99999999999909
 30
0.0
 11
9800.0000000000127
 21
-261.99999999999909
 31
0.0
1001
ACDBBLOCKREPETAG
1070
     1
1071
      376
1005
12D0D8
  0
LINE
  5
12D0D9
  8
OBJECT
 10
9800.0000000000127
 20
-261.99999999999909
 30
0.0
 11
9800.0000000000127
 21
-137.99999999999909
 31
0.0
1001
ACDBBLOCKREPETAG
1070
     1
1071
      377
1005
12D0D9
  0
LINE
  5
12D0DA
  8
OBJECT
 10
9800.0000000000127
 20
-137.99999999999909
 30
0.0
 11
9807.0000000000164
 21
-137.99999999999909
 31
0.0
1001
ACDBBLOCKREPETAG
1070
     1
1071
      378
1005
12D0DA
  0
LINE
  5
12D0DB
  8
OBJECT
 10
9807.0000000000164
 20
-137.99999999999909
 30
0.0
 11
9807.0000000000164
 21
-261.99999999999909
 31
0.0
1001
ACDBBLOCKREPETAG
1070
     1
1071
      379
1005
12D0DB
  0
LINE
  5
12D0DC
  8
CENTER
 10
9785.0000000000164
 20
-199.99999999999909
 30
0.0
 11
9930.0
 21
-199.99999999999909
 31
0.0
1001
ACDBBLOCKREPETAG
1070
     1
1071
      380
1005
12D0DC
  0
LINE
  5
12D0DD
  8
OBJECT
 10
9860.0000250358116
 20
-154.9999999999954
 30
0.0
 11
9924.0
 21
-154.99999999999909
 31
0.0
1001
ACDBBLOCKREPETAG
1070
     1
1071
      381
1005
12D0DD
  0
LINE
  5
12D0DE
  8
OBJECT
 10
9860.0000250358116
 20
-244.99999999999909
 30
0.0
 11
9924.0
 21
-244.99999999999909
 31
0.0
1001
ACDBBLOCKREPETAG
1070
     1
1071
      382
1005
12D0DE
  0
LINE
  5
12D0DF
  8
OBJECT
 10
9807.0000000000164
 20
-258.99999999999909
 30
0.0
 11
9843.0000000000146
 21
-258.99999999999909
 31
0.0
1001
ACDBBLOCKREPETAG
1070
     1
1071
      383
1005
12D0DF
  0
LINE
  5
12D0E0
  8
OBJECT
 10
9843.0000000000146
 20
-258.99999999999909
 30
0.0
 11
9843.0000000000146
 21
-140.99999999999909
 31
0.0
1001
ACDBBLOCKREPETAG
1070
     1
1071
      384
1005
12D0E0
  0
LINE
  5
12D0E1
  8
OBJECT
 10
9843.0000000000146
 20
-140.99999999999909
 30
0.0
 11
9807.0000000000164
 21
-140.99999999999909
 31
0.0
1001
ACDBBLOCKREPETAG
1070
     1
1071
      385
1005
12D0E1
  0
LINE
  5
12D0E2
  8
OBJECT
 10
9847.0000000000127
 20
-254.49999999999909
 30
0.0
 11
9860.0000000000127
 21
-254.49999999999909
 31
0.0
1001
ACDBBLOCKREPETAG
1070
     1
1071
      386
1005
12D0E2
  0
LINE
  5
12D0E3
  8
OBJECT
 10
9860.0000000000127
 20
-145.49999999999909
 30
0.0
 11
9847.0000000000127
 21
-145.49999999999909
 31
0.0
1001
ACDBBLOCKREPETAG
1070
     1
1071
      387
1005
12D0E3
  0
LINE
  5
12D0E4
  8
OBJECT
 10
9847.0000000000127
 20
-145.49999999999909
 30
0.0
 11
9847.0000000000127
 21
-254.49999999999909
 31
0.0
1001
ACDBBLOCKREPETAG
1070
     1
1071
      388
1005
12D0E4
  0
LINE
  5
12D0E5
  8
OBJECT
 10
9843.0000000000146
 20
-258.99999999999909
 30
0.0
 11
9847.0000000000127
 21
-254.49999999999909
 31
0.0
1001
ACDBBLOCKREPETAG
1070
     1
1071
      389
1005
12D0E5
  0
LINE
  5
12D0E6
  8
OBJECT
 10
9843.0000000000146
 20
-140.99999999999909
 30
0.0
 11
9847.0000000000127
 21
-145.49999999999909
 31
0.0
1001
ACDBBLOCKREPETAG
1070
     1
1071
      390
1005
12D0E6
  0
LINE
  5
12D0E7
  8
OBJECT
 10
9927.0
 20
-261.99999999999909
 30
0.0
 11
9930.0
 21
-261.99999999999909
 31
0.0
1001
ACDBBLOCKREPETAG
1070
     1
1071
      391
1005
12D0E7
  0
ARC
  5
12D0E8
  8
OBJECT
 10
9927.0
 20
-258.99999999999909
 30
0.0
 40
3.0
 50
180.0
 51
270.0
1001
ACDBBLOCKREPETAG
1070
     1
1071
      392
1005
12D0E8
  0
LINE
  5
12D0E9
  8
OBJECT
 10
9930.0
 20
-137.99999999999909
 30
0.0
 11
9927.0
 21
-137.99999999999909
 31
0.0
1001
ACDBBLOCKREPETAG
1070
     1
1071
      393
1005
12D0E9
  0
ARC
  5
12D0EA
  8
OBJECT
 10
9927.0
 20
-140.99999999999909
 30
0.0
 40
3.0
 50
90.0
 51
180.0
1001
ACDBBLOCKREPETAG
1070
     1
1071
      394
1005
12D0EA
  0
LINE
  5
12D0EB
  8
OBJECT
 10
9924.0
 20
-140.99999999999909
 30
0.0
 11
9924.0
 21
-189.6772096796403
 31
0.0
1001
ACDBBLOCKREPETAG
1070
     1
1071
      395
1005
12D0EB
  0
LINE
  5
12D0EC
  8
OBJECT
 10
9924.0
 20
-210.3227903203578
 30
0.0
 11
9924.0
 21
-258.99999999999909
 31
0.0
1001
ACDBBLOCKREPETAG
1070
     1
1071
      396
1005
12D0EC
  0
LINE
  5
12D0ED
  8
HIDDEN
 10
9852.0000000000182
 20
-244.49999999999909
 30
0.0
 11
9852.0000000000182
 21
-155.49999999999909
 31
0.0
1001
ACDBBLOCKREPETAG
1070
     1
1071
      397
1005
12D0ED
  0
LINE
  5
12D0EE
  8
OBJECT
 10
9860.0000250358116
 20
-145.50004907618759
 30
0.0
 11
9860.0000250358116
 21
-254.50004907618771
 31
0.0
1001
ACDBBLOCKREPETAG
1070
     1
1071
      399
1005
12D0EE
  0
ARC
  5
12D0EF
  8
OBJECT
 10
9880.1999999999753
 20
-199.99999999999909
 30
0.0
 40
45.000000000000547
 50
270.0
 51
90.0
1001
ACDBBLOCKREPETAG
1070
     1
1071
      400
1005
12D0EF
  0
LINE
  5
12D0F0
  8
CENTER
 10
10000.0
 20
-290.99999999999898
 30
0.0
 11
10000.0
 21
-269.99999999999909
 31
0.0
1001
ACDBBLOCKREPETAG
1070
     1
1071
        0
1005
12D0F0
  0
LINE
  5
12D0F1
  8
OBJECT
 10
10062.0
 20
-273.0
 30
0.0
 11
10062.0
 21
-269.99999999999909
 31
0.0
1001
ACDBBLOCKREPETAG
1070
     1
1071
        1
1005
12D0F1
  0
ARC
  5
12D0F2
  8
OBJECT
 10
10059.0
 20
-273.0
 30
0.0
 40
3.0
 50
270.0
 51
0.0
1001
ACDBBLOCKREPETAG
1070
     1
1071
        2
1005
12D0F2
  0
LINE
  5
12D0F3
  8
OBJECT
 10
9938.0
 20
-269.99999999999909
 30
0.0
 11
9938.0
 21
-272.99999999999818
 31
0.0
1001
ACDBBLOCKREPETAG
1070
     1
1071
        3
1005
12D0F3
  0
ARC
  5
12D0F4
  8
OBJECT
 10
9941.0
 20
-272.99999999999818
 30
0.0
 40
3.0
 50
180.0
 51
270.0
1001
ACDBBLOCKREPETAG
1070
     1
1071
        4
1005
12D0F4
  0
LINE
  5
12D0F5
  8
OBJECT
 10
9941.0
 20
-275.99999999999818
 30
0.0
 11
10059.0
 21
-276.0
 31
0.0
1001
ACDBBLOCKREPETAG
1070
     1
1071
        5
1005
12D0F5
  0
LINE
  5
12D0F6
  8
OBJECT
 10
10123.0
 20
-663.99999999999966
 30
0.0
 11
10130.0
 21
-663.99999999999966
 31
0.0
1001
ACDBBLOCKREPETAG
1070
     1
1071
        7
1005
12D0F6
  0
LINE
  5
12D0F7
  8
OBJECT
 10
10130.0
 20
-663.99999999999966
 30
0.0
 11
10130.0
 21
-754.99999999999955
 31
0.0
1001
ACDBBLOCKREPETAG
1070
     1
1071
        8
1005
12D0F7
  0
LINE
  5
12D0F8
  8
OBJECT
 10
10123.0
 20
-754.99999999999955
 30
0.0
 11
10123.0
 21
-663.99999999999966
 31
0.0
1001
ACDBBLOCKREPETAG
1070
     1
1071
        9
1005
12D0F8
  0
LINE
  5
12D0F9
  8
CENTER
 10
10145.0
 20
-710.99999999999955
 30
0.0
 11
10061.0
 21
-710.99999999999955
 31
0.0
1001
ACDBBLOCKREPETAG
1070
     1
1071
       10
1005
12D0F9
  0
LINE
  5
12D0FA
  8
OBJECT
 10
10123.0
 20
-666.99999999999955
 30
0.0
 11
10087.0
 21
-666.99999999999955
 31
0.0
1001
ACDBBLOCKREPETAG
1070
     1
1071
       11
1005
12D0FA
  0
LINE
  5
12D0FB
  8
OBJECT
 10
10087.0
 20
-666.99999999999955
 30
0.0
 11
10087.0
 21
-754.99999999999955
 31
0.0
1001
ACDBBLOCKREPETAG
1070
     1
1071
       12
1005
12D0FB
  0
LINE
  5
12D0FC
  8
OBJECT
 10
10087.0
 20
-754.99999999999955
 30
0.0
 11
10130.0
 21
-754.99999999999955
 31
0.0
1001
ACDBBLOCKREPETAG
1070
     1
1071
       13
1005
12D0FC
  0
LINE
  5
12D0FD
  8
OBJECT
 10
10083.0
 20
-671.49999999999955
 30
0.0
 11
10076.0
 21
-671.49999999999955
 31
0.0
1001
ACDBBLOCKREPETAG
1070
     1
1071
       14
1005
12D0FD
  0
LINE
  5
12D0FE
  8
OBJECT
 10
10076.0
 20
-750.49999999999955
 30
0.0
 11
10083.0
 21
-750.49999999999955
 31
0.0
1001
ACDBBLOCKREPETAG
1070
     1
1071
       15
1005
12D0FE
  0
LINE
  5
12D0FF
  8
OBJECT
 10
10083.0
 20
-750.49999999999955
 30
0.0
 11
10083.0
 21
-671.49999999999955
 31
0.0
1001
ACDBBLOCKREPETAG
1070
     1
1071
       16
1005
12D0FF
  0
LINE
  5
12D100
  8
OBJECT
 10
10087.0
 20
-666.99999999999955
 30
0.0
 11
10083.0
 21
-671.49999999999955
 31
0.0
1001
ACDBBLOCKREPETAG
1070
     1
1071
       17
1005
12D100
  0
LINE
  5
12D101
  8
OBJECT
 10
10087.0
 20
-754.99999999999955
 30
0.0
 11
10083.0
 21
-750.49999999999955
 31
0.0
1001
ACDBBLOCKREPETAG
1070
     1
1071
       18
1005
12D101
  0
LINE
  5
12D102
  8
OBJECT
 10
10073.0
 20
-633.99999999999955
 30
0.0
 11
10070.0
 21
-633.99999999999955
 31
0.0
1001
ACDBBLOCKREPETAG
1070
     1
1071
       19
1005
12D102
  0
ARC
  5
12D103
  8
OBJECT
 10
10073.0
 20
-636.99999999999955
 30
0.0
 40
3.0
 50
0.0
 51
90.0
1001
ACDBBLOCKREPETAG
1070
     1
1071
       20
1005
12D103
  0
LINE
  5
12D104
  8
OBJECT
 10
10070.0
 20
-757.99999999999955
 30
0.0
 11
10073.0
 21
-757.99999999999955
 31
0.0
1001
ACDBBLOCKREPETAG
1070
     1
1071
       21
1005
12D104
  0
ARC
  5
12D105
  8
OBJECT
 10
10073.0
 20
-754.99999999999955
 30
0.0
 40
3.0
 50
270.0
 51
0.0
1001
ACDBBLOCKREPETAG
1070
     1
1071
       22
1005
12D105
  0
LINE
  5
12D106
  8
OBJECT
 10
10076.0
 20
-754.99999999999955
 30
0.0
 11
10076.0
 21
-636.99999999999955
 31
0.0
1001
ACDBBLOCKREPETAG
1070
     1
1071
       23
1005
12D106
  0
LINE
  5
12D107
  8
HIDDEN
 10
10078.0
 20
-680.99999999999955
 30
0.0
 11
10078.0
 21
-740.99999999999955
 31
0.0
1001
ACDBBLOCKREPETAG
1070
     1
1071
       24
1005
12D107
  0
LINE
  5
12D108
  8
OBJECT
 10
10123.0
 20
-152.99999999999909
 30
0.0
 11
10130.0
 21
-152.99999999999909
 31
0.0
1001
ACDBBLOCKREPETAG
1070
     1
1071
        7
1005
12D108
  0
LINE
  5
12D109
  8
OBJECT
 10
10130.0
 20
-152.99999999999909
 30
0.0
 11
10130.0
 21
-246.99999999999909
 31
0.0
1001
ACDBBLOCKREPETAG
1070
     1
1071
        8
1005
12D109
  0
LINE
  5
12D10A
  8
OBJECT
 10
10130.0
 20
-246.99999999999909
 30
0.0
 11
10123.0
 21
-246.99999999999909
 31
0.0
1001
ACDBBLOCKREPETAG
1070
     1
1071
        9
1005
12D10A
  0
LINE
  5
12D10B
  8
OBJECT
 10
10123.0
 20
-246.99999999999909
 30
0.0
 11
10123.0
 21
-152.99999999999909
 31
0.0
1001
ACDBBLOCKREPETAG
1070
     1
1071
       10
1005
12D10B
  0
LINE
  5
12D10C
  8
CENTER
 10
10145.0
 20
-199.99999999999909
 30
0.0
 11
10070.0
 21
-199.99999999999909
 31
0.0
1001
ACDBBLOCKREPETAG
1070
     1
1071
       11
1005
12D10C
  0
LINE
  5
12D10D
  8
OBJECT
 10
10123.0
 20
-155.99999999999909
 30
0.0
 11
10087.0
 21
-155.99999999999909
 31
0.0
1001
ACDBBLOCKREPETAG
1070
     1
1071
       12
1005
12D10D
  0
LINE
  5
12D10E
  8
OBJECT
 10
10087.0
 20
-155.99999999999909
 30
0.0
 11
10087.0
 21
-243.99999999999909
 31
0.0
1001
ACDBBLOCKREPETAG
1070
     1
1071
       13
1005
12D10E
  0
LINE
  5
12D10F
  8
OBJECT
 10
10087.0
 20
-243.99999999999909
 30
0.0
 11
10123.0
 21
-243.99999999999909
 31
0.0
1001
ACDBBLOCKREPETAG
1070
     1
1071
       14
1005
12D10F
  0
LINE
  5
12D110
  8
OBJECT
 10
10083.0
 20
-160.49999999999909
 30
0.0
 11
10076.0
 21
-160.49999999999909
 31
0.0
1001
ACDBBLOCKREPETAG
1070
     1
1071
       15
1005
12D110
  0
LINE
  5
12D111
  8
OBJECT
 10
10076.0
 20
-239.49999999999909
 30
0.0
 11
10083.0
 21
-239.49999999999909
 31
0.0
1001
ACDBBLOCKREPETAG
1070
     1
1071
       16
1005
12D111
  0
LINE
  5
12D112
  8
OBJECT
 10
10083.0
 20
-239.49999999999909
 30
0.0
 11
10083.0
 21
-160.49999999999909
 31
0.0
1001
ACDBBLOCKREPETAG
1070
     1
1071
       17
1005
12D112
  0
LINE
  5
12D113
  8
OBJECT
 10
10087.0
 20
-155.99999999999909
 30
0.0
 11
10083.0
 21
-160.49999999999909
 31
0.0
1001
ACDBBLOCKREPETAG
1070
     1
1071
       18
1005
12D113
  0
LINE
  5
12D114
  8
OBJECT
 10
10087.0
 20
-243.99999999999909
 30
0.0
 11
10083.0
 21
-239.49999999999909
 31
0.0
1001
ACDBBLOCKREPETAG
1070
     1
1071
       19
1005
12D114
  0
LINE
  5
12D115
  8
OBJECT
 10
10073.0
 20
-137.99999999999909
 30
0.0
 11
10070.0
 21
-137.99999999999909
 31
0.0
1001
ACDBBLOCKREPETAG
1070
     1
1071
       20
1005
12D115
  0
ARC
  5
12D116
  8
OBJECT
 10
10073.0
 20
-140.99999999999909
 30
0.0
 40
3.0
 50
0.0
 51
90.0
1001
ACDBBLOCKREPETAG
1070
     1
1071
       21
1005
12D116
  0
LINE
  5
12D117
  8
OBJECT
 10
10070.0
 20
-261.99999999999909
 30
0.0
 11
10073.0
 21
-261.99999999999909
 31
0.0
1001
ACDBBLOCKREPETAG
1070
     1
1071
       22
1005
12D117
  0
ARC
  5
12D118
  8
OBJECT
 10
10073.0
 20
-258.99999999999909
 30
0.0
 40
3.0
 50
270.0
 51
0.0
1001
ACDBBLOCKREPETAG
1070
     1
1071
       23
1005
12D118
  0
LINE
  5
12D119
  8
OBJECT
 10
10076.0
 20
-258.99999999999909
 30
0.0
 11
10076.0
 21
-140.99999999999909
 31
0.0
1001
ACDBBLOCKREPETAG
1070
     1
1071
       24
1005
12D119
  0
LINE
  5
12D11A
  8
HIDDEN
 10
10078.0
 20
-169.99999999999909
 30
0.0
 11
10078.0
 21
-229.99999999999909
 31
0.0
1001
ACDBBLOCKREPETAG
1070
     1
1071
       25
1005
12D11A
  0
CIRCLE
  5
12D11B
  8
OBJECT
 10
8000.0
 20
-695.99999999999955
 30
0.0
 40
62.0
1001
ACDBBLOCKREPETAG
1070
     1
1071
        0
1005
12D11B
  0
LINE
  5
12D11C
  8
CENTER
 10
8000.0
 20
-769.99999999999955
 30
0.0
 11
8000.0
 21
-613.99999999999966
 31
0.0
1001
ACDBBLOCKREPETAG
1070
     1
1071
        0
1005
12D11C
  0
LINE
  5
12D11D
  8
OBJECT
 10
7930.0
 20
-633.99999999999955
 30
0.0
 11
8070.0
 21
-633.99999999999955
 31
0.0
1001
ACDBBLOCKREPETAG
1070
     1
1071
        1
1005
12D11D
  0
LINE
  5
12D11E
  8
OBJECT
 10
7930.0
 20
-757.99999999999955
 30
0.0
 11
7930.0
 21
-769.99999999999955
 31
0.0
1001
ACDBBLOCKREPETAG
1070
     1
1071
        2
1005
12D11E
  0
LINE
  5
12D11F
  8
OBJECT
 10
7930.0
 20
-769.99999999999955
 30
0.0
 11
8070.0
 21
-769.99999999999955
 31
0.0
1001
ACDBBLOCKREPETAG
1070
     1
1071
        3
1005
12D11F
  0
LINE
  5
12D120
  8
OBJECT
 10
8070.0
 20
-769.99999999999955
 30
0.0
 11
8070.0
 21
-757.99999999999955
 31
0.0
1001
ACDBBLOCKREPETAG
1070
     1
1071
        4
1005
12D120
  0
LINE
  5
12D121
  8
OBJECT
 10
8070.0
 20
-757.99999999999955
 30
0.0
 11
7930.0
 21
-757.99999999999955
 31
0.0
1001
ACDBBLOCKREPETAG
1070
     1
1071
        5
1005
12D121
  0
ARC
  5
12D122
  8
OBJECT
 10
8435.0384389946794
 20
-998.60813684682694
 30
0.0
 40
519.48776673616965
 50
135.42350667430969
 51
138.50052655621499
1001
ACDBBLOCKREPETAG
1070
     1
1071
        9
1005
12D122
  0
ARC
  5
12D123
  8
OBJECT
 10
8435.0384389946794
 20
-393.39186315317193
 30
0.0
 40
519.48776673616965
 50
221.49947344378501
 51
224.57649332569039
1001
ACDBBLOCKREPETAG
1070
     1
1071
       10
1005
12D123
  0
ARC
  5
12D124
  8
OBJECT
 10
7564.9615610053233
 20
-998.60813684682694
 30
0.0
 40
519.48776673616965
 50
41.499473443784993
 51
44.576493325690237
1001
ACDBBLOCKREPETAG
1070
     1
1071
       11
1005
12D124
  0
ARC
  5
12D125
  8
OBJECT
 10
7564.9615610053233
 20
-393.39186315317193
 30
0.0
 40
519.48776673616965
 50
315.42350667430981
 51
318.50052655621488
1001
ACDBBLOCKREPETAG
1070
     1
1071
       12
1005
12D125
  0
LINE
  5
12D126
  8
OBJECT
 10
8047.5000000000018
 20
-628.99999999999955
 30
0.0
 11
7952.5
 21
-628.99999999999955
 31
0.0
1001
ACDBBLOCKREPETAG
1070
     1
1071
       24
1005
12D126
  0
ARC
  5
12D127
  8
OBJECT
 10
7952.5
 20
-631.99999999999955
 30
0.0
 40
3.0
 50
90.0
 51
180.0
1001
ACDBBLOCKREPETAG
1070
     1
1071
       25
1005
12D127
  0
LINE
  5
12D128
  8
OBJECT
 10
7949.5
 20
-631.99999999999955
 30
0.0
 11
7949.5
 21
-633.99999999999955
 31
0.0
1001
ACDBBLOCKREPETAG
1070
     1
1071
       26
1005
12D128
  0
LINE
  5
12D129
  8
OBJECT
 10
8050.4999999999973
 20
-631.99999999999955
 30
0.0
 11
8050.4999999999973
 21
-633.99999999999955
 31
0.0
1001
ACDBBLOCKREPETAG
1070
     1
1071
       27
1005
12D129
  0
ARC
  5
12D12A
  8
OBJECT
 10
8047.5000000000018
 20
-631.99999999999955
 30
0.0
 40
3.0
 50
0.0
 51
90.0
1001
ACDBBLOCKREPETAG
1070
     1
1071
       28
1005
12D12A
  0
POINT
  5
12D12B
  8
DOTS
 10
8000.0
 20
-754.99999999999955
 30
0.0
1001
ACDBBLOCKREPETAG
1070
     1
1071
       87
1005
12D12B
  0
LINE
  5
12D12C
  8
SLIM
 10
7963.2171826682388
 20
-137.99999999999909
 30
0.0
 11
7969.9215079962914
 21
-131.29567467194681
 31
0.0
1001
ACDBBLOCKREPETAG
1070
     1
1071
      157
1005
0
1001
GRADIENTCOLOR1ACI
1070
     5
1001
GRADIENTCOLOR2ACI
1070
     2
1001
ACAD
1010
0.0
1020
0.0
1030
0.0
  0
LINE
  5
12D12D
  8
SLIM
 10
7972.1974387893079
 20
-137.99999999999909
 30
0.0
 11
7983.3188363327517
 21
-126.87860245655401
 31
0.0
1001
GRADIENTCOLOR1ACI
1070
     5
1001
GRADIENTCOLOR2ACI
1070
     2
1001
ACAD
1010
0.0
1020
0.0
1030
0.0
1001
ACDBBLOCKREPETAG
1070
     1
1071
      160
1005
12D12D
  0
LINE
  5
12D12E
  8
SLIM
 10
7981.4849372887629
 20
-137.6927576216126
 30
0.0
 11
7993.9318052485969
 21
-125.245889661777
 31
0.0
1001
GRADIENTCOLOR1ACI
1070
     5
1001
GRADIENTCOLOR2ACI
1070
     2
1001
ACAD
1010
0.0
1020
0.0
1030
0.0
1001
ACDBBLOCKREPETAG
1070
     1
1071
      161
1005
12D12E
  0
LINE
  5
12D12F
  8
SLIM
 10
7992.7526568280337
 20
-135.40529420341099
 30
0.0
 11
8000.0
 21
-128.1579510314458
 31
0.0
1001
GRADIENTCOLOR1ACI
1070
     5
1001
GRADIENTCOLOR2ACI
1070
     2
1001
ACAD
1010
0.0
1020
0.0
1030
0.0
1001
ACDBBLOCKREPETAG
1070
     1
1071
      162
1005
12D12F
  0
LINE
  5
12D130
  8
SLIM
 10
8000.0
 20
-128.1579510314458
 30
0.0
 11
8003.0941007878528
 21
-125.0638502435924
 31
0.0
1001
GRADIENTCOLOR1ACI
1070
     5
1001
GRADIENTCOLOR2ACI
1070
     2
1001
ACAD
1010
0.0
1020
0.0
1030
0.0
1001
ACDBBLOCKREPETAG
1070
     1
1071
      163
1005
12D130
  0
LINE
  5
12D131
  8
SLIM
 10
8002.1041412234727
 20
-135.03406592904389
 30
0.0
 11
8011.284425768652
 21
-125.85378138386341
 31
0.0
1001
GRADIENTCOLOR1ACI
1070
     5
1001
GRADIENTCOLOR2ACI
1070
     2
1001
ACAD
1010
0.0
1020
0.0
1030
0.0
1001
ACDBBLOCKREPETAG
1070
     1
1071
      164
1005
12D131
  0
LINE
  5
12D132
  8
SLIM
 10
8010.297585520927
 20
-135.82087775265759
 30
0.0
 11
8018.7395884655189
 21
-127.3788748080627
 31
0.0
1001
GRADIENTCOLOR1ACI
1070
     5
1001
GRADIENTCOLOR2ACI
1070
     2
1001
ACAD
1010
0.0
1020
0.0
1030
0.0
1001
ACDBBLOCKREPETAG
1070
     1
1071
      165
1005
12D132
  0
LINE
  5
12D133
  8
SLIM
 10
8017.6550793642282
 20
-137.4436400304258
 30
0.0
 11
8025.5958866269621
 21
-129.50283276769261
 31
0.0
1001
GRADIENTCOLOR1ACI
1070
     5
1001
GRADIENTCOLOR2ACI
1070
     2
1001
ACAD
1010
0.0
1020
0.0
1030
0.0
1001
ACDBBLOCKREPETAG
1070
     1
1071
      166
1005
12D133
  0
LINE
  5
12D134
  8
SLIM
 10
8026.078975515723
 20
-137.99999999999909
 30
0.0
 11
8031.9385859461063
 21
-132.1403895696169
 31
0.0
1001
GRADIENTCOLOR1ACI
1070
     5
1001
GRADIENTCOLOR2ACI
1070
     2
1001
ACAD
1010
0.0
1020
0.0
1030
0.0
1001
ACDBBLOCKREPETAG
1070
     1
1071
      167
1005
12D134
  0
LINE
  5
12D135
  8
SLIM
 10
8035.0592316367947
 20
-137.99999999999909
 30
0.0
 11
8037.8233654376218
 21
-135.23586619916779
 31
0.0
1001
GRADIENTCOLOR1ACI
1070
     5
1001
GRADIENTCOLOR2ACI
1070
     2
1001
ACAD
1010
0.0
1020
0.0
1030
0.0
1001
ACDBBLOCKREPETAG
1070
     1
1071
      168
1005
12D135
  0
CIRCLE
  5
12D136
  8
OBJECT
 10
8000.0
 20
-199.99999999999909
 30
0.0
 40
65.0
1001
ACDBBLOCKREPETAG
1070
     1
1071
       84
1005
12D136
  0
CIRCLE
  5
12D137
  8
OBJECT
 10
8000.0
 20
-199.99999999999909
 30
0.0
 40
50.5
1001
ACDBBLOCKREPETAG
1070
     1
1071
       86
1005
12D137
  0
LINE
  5
12D138
  8
OBJECT
 10
8070.0
 20
-137.99999999999909
 30
0.0
 11
8019.5192212959419
 21
-137.99999999999909
 31
0.0
1001
ACDBBLOCKREPETAG
1070
     1
1071
       87
1005
12D138
  0
LINE
  5
12D139
  8
OBJECT
 10
7930.0
 20
-137.99999999999909
 30
0.0
 11
7980.4807787040572
 21
-137.99999999999909
 31
0.0
1001
ACDBBLOCKREPETAG
1070
     1
1071
       88
1005
12D139
  0
LINE
  5
12D13A
  8
OBJECT
 10
7930.0
 20
-261.99999999999909
 30
0.0
 11
7938.0
 21
-261.99999999999909
 31
0.0
1001
ACDBBLOCKREPETAG
1070
     1
1071
       89
1005
12D13A
  0
LINE
  5
12D13B
  8
OBJECT
 10
7938.0
 20
-269.99999999999909
 30
0.0
 11
7938.0
 21
-261.99999999999909
 31
0.0
1001
ACDBBLOCKREPETAG
1070
     1
1071
       90
1005
12D13B
  0
LINE
  5
12D13C
  8
OBJECT
 10
8070.0
 20
-261.99999999999909
 30
0.0
 11
8062.0
 21
-261.99999999999909
 31
0.0
1001
ACDBBLOCKREPETAG
1070
     1
1071
       91
1005
12D13C
  0
LINE
  5
12D13D
  8
OBJECT
 10
8062.0
 20
-269.99999999999909
 30
0.0
 11
8062.0
 21
-261.99999999999909
 31
0.0
1001
ACDBBLOCKREPETAG
1070
     1
1071
       92
1005
12D13D
  0
LINE
  5
12D13E
  8
CENTER
 10
7930.0
 20
-199.99999999999909
 30
0.0
 11
8070.0
 21
-199.99999999999909
 31
0.0
1001
ACDBBLOCKREPETAG
1070
     1
1071
       93
1005
12D13E
  0
LINE
  5
12D13F
  8
CENTER
 10
8000.0
 20
-269.99999999999909
 30
0.0
 11
8000.0
 21
-109.9999999999991
 31
0.0
1001
ACDBBLOCKREPETAG
1070
     1
1071
       94
1005
12D13F
  0
LINE
  5
12D140
  8
OBJECT
 10
7954.0380592228739
 20
-245.96194077712289
 30
0.0
 11
7938.0
 21
-261.99999999999909
 31
0.0
1001
ACDBBLOCKREPETAG
1070
     1
1071
      106
1005
12D140
  0
LINE
  5
12D141
  8
OBJECT
 10
8045.9619407771252
 20
-245.96194077712289
 30
0.0
 11
8062.0
 21
-261.99999999999909
 31
0.0
1001
ACDBBLOCKREPETAG
1070
     1
1071
      107
1005
12D141
  0
ARC
  5
12D142
  8
OBJECT
 10
8000.0
 20
-199.99999999999909
 30
0.0
 40
75.0
 50
55.757831297238091
 51
124.2421687027619
1001
ACDBBLOCKREPETAG
1070
     1
1071
      108
1005
12D142
  0
POINT
  5
12D143
  8
DOTS
 10
8000.0
 20
-199.99999999999909
 30
0.0
1001
ACDBBLOCKREPETAG
1070
     1
1071
      159
1005
12D143
  0
LINE
  5
12D144
  8
OBJECT
 10
7807.0000000000127
 20
-582.99999999999955
 30
0.0
 11
7800.0000000000136
 21
-582.99999999999955
 31
0.0
1001
ACDBBLOCKREPETAG
1070
     1
1071
      324
1005
12D144
  0
LINE
  5
12D145
  8
OBJECT
 10
7800.0000000000136
 20
-582.99999999999955
 30
0.0
 11
7800.0000000000136
 21
-706.99999999999955
 31
0.0
1001
ACDBBLOCKREPETAG
1070
     1
1071
      325
1005
12D145
  0
LINE
  5
12D146
  8
OBJECT
 10
7924.0000000000127
 20
-653.35026377572683
 30
0.0
 11
7924.0000000000127
 21
-755.00000000000034
 31
0.0
1001
ACDBBLOCKREPETAG
1070
     1
1071
      326
1005
12D146
  0
LINE
  5
12D147
  8
OBJECT
 10
7800.0000000000136
 20
-706.99999999999955
 30
0.0
 11
7807.0000000000127
 21
-706.99999999999955
 31
0.0
1001
ACDBBLOCKREPETAG
1070
     1
1071
      327
1005
12D147
  0
LINE
  5
12D148
  8
OBJECT
 10
7807.0000000000127
 20
-706.99999999999955
 30
0.0
 11
7807.0000000000127
 21
-582.99999999999955
 31
0.0
1001
ACDBBLOCKREPETAG
1070
     1
1071
      328
1005
12D148
  0
LINE
  5
12D149
  8
CENTER
 10
7875.0000000000136
 20
-645.00000000000045
 30
0.0
 11
7785.0000000000136
 21
-644.99999999999955
 31
0.0
1001
ACDBBLOCKREPETAG
1070
     1
1071
      329
1005
12D149
  0
LINE
  5
12D14A
  8
OBJECT
 10
7930.0000000000182
 20
-757.99999999999955
 30
0.0
 11
7927.0000000000127
 21
-758.00000000000034
 31
0.0
1001
ACDBBLOCKREPETAG
1070
     1
1071
      330
1005
12D14A
  0
ARC
  5
12D14B
  8
OBJECT
 10
7927.0000000000127
 20
-755.00000000000034
 30
0.0
 40
3.0
 50
180.0
 51
270.0
1001
ACDBBLOCKREPETAG
1070
     1
1071
      331
1005
12D14B
  0
LINE
  5
12D14C
  8
OBJECT
 10
7807.0000000000127
 20
-585.99999999999955
 30
0.0
 11
7843.0000000000136
 21
-586.00000000000045
 31
0.0
1001
ACDBBLOCKREPETAG
1070
     1
1071
      332
1005
12D14C
  0
LINE
  5
12D14D
  8
OBJECT
 10
7843.0000000000136
 20
-586.00000000000045
 30
0.0
 11
7843.0000000000136
 21
-704.00000000000045
 31
0.0
1001
ACDBBLOCKREPETAG
1070
     1
1071
      333
1005
12D14D
  0
LINE
  5
12D14E
  8
OBJECT
 10
7847.0000000000136
 20
-590.50000000000045
 30
0.0
 11
7847.0000000000136
 21
-699.50000000000045
 31
0.0
1001
ACDBBLOCKREPETAG
1070
     1
1071
      334
1005
12D14E
  0
LINE
  5
12D14F
  8
OBJECT
 10
7847.0000000000136
 20
-590.50000000000045
 30
0.0
 11
7860.0000000000127
 21
-590.50000000000045
 31
0.0
1001
ACDBBLOCKREPETAG
1070
     1
1071
      335
1005
12D14F
  0
LINE
  5
12D150
  8
OBJECT
 10
7843.0000000000136
 20
-704.00000000000045
 30
0.0
 11
7807.0000000000127
 21
-703.99999999999955
 31
0.0
1001
ACDBBLOCKREPETAG
1070
     1
1071
      336
1005
12D150
  0
LINE
  5
12D151
  8
OBJECT
 10
7843.0000000000136
 20
-586.00000000000045
 30
0.0
 11
7847.0000000000136
 21
-590.50000000000045
 31
0.0
1001
ACDBBLOCKREPETAG
1070
     1
1071
      337
1005
12D151
  0
LINE
  5
12D152
  8
OBJECT
 10
7860.0000000000127
 20
-590.50000000000045
 30
0.0
 11
7860.0000000000127
 21
-675.7449182792875
 31
0.0
1001
ACDBBLOCKREPETAG
1070
     1
1071
      338
1005
12D152
  0
ARC
  5
12D153
  8
OBJECT
 10
7857.2000000000162
 20
-685.00000000000045
 30
0.0
 40
85.0
 50
36.869897645890923
 51
88.112268108168848
1001
ACDBBLOCKREPETAG
1070
     1
1071
      339
1005
12D153
  0
LINE
  5
12D154
  8
HIDDEN
 10
7852.0000000000136
 20
-600.50000000000057
 30
0.0
 11
7852.0000000000136
 21
-689.50000000000045
 31
0.0
1001
ACDBBLOCKREPETAG
1070
     1
1071
      341
1005
12D154
  0
LINE
  5
12D155
  8
OBJECT
 10
7924.0000000000127
 20
-751.07945073181725
 30
0.0
 11
7853.368680078971
 21
-699.50000000000045
 31
0.0
1001
ACDBBLOCKREPETAG
1070
     1
1071
      342
1005
12D155
  0
LINE
  5
12D156
  8
OBJECT
 10
7930.0000000000182
 20
-633.99999999999955
 30
0.0
 11
7925.2000000000144
 21
-633.99999999999955
 31
0.0
1001
ACDBBLOCKREPETAG
1070
     1
1071
      343
1005
12D156
  0
LINE
  5
12D157
  8
OBJECT
 10
7924.0000000000127
 20
-653.35026377572945
 30
0.0
 11
7925.2000000000144
 21
-633.99999999999955
 31
0.0
1001
ACDBBLOCKREPETAG
1070
     1
1071
      344
1005
12D157
  0
LINE
  5
12D158
  8
OBJECT
 10
7847.0000000000136
 20
-699.50000000000045
 30
0.0
 11
7853.368680078971
 21
-699.50000000000045
 31
0.0
1001
ACDBBLOCKREPETAG
1070
     1
1071
      345
1005
12D158
  0
LINE
  5
12D159
  8
OBJECT
 10
7843.0000000000136
 20
-704.00000000000045
 30
0.0
 11
7847.0000000000136
 21
-699.50000000000045
 31
0.0
1001
ACDBBLOCKREPETAG
1070
     1
1071
      346
1005
12D159
  0
LINE
  5
12D15A
  8
OBJECT
 10
7807.0000000000127
 20
-261.99999999999909
 30
0.0
 11
7800.0000000000136
 21
-261.99999999999909
 31
0.0
1001
ACDBBLOCKREPETAG
1070
     1
1071
      376
1005
12D15A
  0
LINE
  5
12D15B
  8
OBJECT
 10
7800.0000000000136
 20
-261.99999999999909
 30
0.0
 11
7800.0000000000136
 21
-137.99999999999909
 31
0.0
1001
ACDBBLOCKREPETAG
1070
     1
1071
      377
1005
12D15B
  0
LINE
  5
12D15C
  8
OBJECT
 10
7800.0000000000136
 20
-137.99999999999909
 30
0.0
 11
7807.0000000000127
 21
-137.99999999999909
 31
0.0
1001
ACDBBLOCKREPETAG
1070
     1
1071
      378
1005
12D15C
  0
LINE
  5
12D15D
  8
OBJECT
 10
7807.0000000000127
 20
-137.99999999999909
 30
0.0
 11
7807.0000000000127
 21
-261.99999999999909
 31
0.0
1001
ACDBBLOCKREPETAG
1070
     1
1071
      379
1005
12D15D
  0
LINE
  5
12D15E
  8
CENTER
 10
7785.0000000000136
 20
-199.99999999999909
 30
0.0
 11
7930.0
 21
-199.99999999999909
 31
0.0
1001
ACDBBLOCKREPETAG
1070
     1
1071
      380
1005
12D15E
  0
LINE
  5
12D15F
  8
OBJECT
 10
7860.0000250358116
 20
-154.9999999999954
 30
0.0
 11
7924.0
 21
-154.99999999999909
 31
0.0
1001
ACDBBLOCKREPETAG
1070
     1
1071
      381
1005
12D15F
  0
LINE
  5
12D160
  8
OBJECT
 10
7860.0000250358116
 20
-244.99999999999909
 30
0.0
 11
7924.0
 21
-244.99999999999909
 31
0.0
1001
ACDBBLOCKREPETAG
1070
     1
1071
      382
1005
12D160
  0
LINE
  5
12D161
  8
OBJECT
 10
7807.0000000000127
 20
-258.99999999999909
 30
0.0
 11
7843.0000000000136
 21
-258.99999999999909
 31
0.0
1001
ACDBBLOCKREPETAG
1070
     1
1071
      383
1005
12D161
  0
LINE
  5
12D162
  8
OBJECT
 10
7843.0000000000136
 20
-258.99999999999909
 30
0.0
 11
7843.0000000000136
 21
-140.99999999999909
 31
0.0
1001
ACDBBLOCKREPETAG
1070
     1
1071
      384
1005
12D162
  0
LINE
  5
12D163
  8
OBJECT
 10
7843.0000000000136
 20
-140.99999999999909
 30
0.0
 11
7807.0000000000127
 21
-140.99999999999909
 31
0.0
1001
ACDBBLOCKREPETAG
1070
     1
1071
      385
1005
12D163
  0
LINE
  5
12D164
  8
OBJECT
 10
7847.0000000000136
 20
-254.49999999999909
 30
0.0
 11
7860.0000000000127
 21
-254.49999999999909
 31
0.0
1001
ACDBBLOCKREPETAG
1070
     1
1071
      386
1005
12D164
  0
LINE
  5
12D165
  8
OBJECT
 10
7860.0000000000127
 20
-145.49999999999909
 30
0.0
 11
7847.0000000000136
 21
-145.49999999999909
 31
0.0
1001
ACDBBLOCKREPETAG
1070
     1
1071
      387
1005
12D165
  0
LINE
  5
12D166
  8
OBJECT
 10
7847.0000000000136
 20
-145.49999999999909
 30
0.0
 11
7847.0000000000136
 21
-254.49999999999909
 31
0.0
1001
ACDBBLOCKREPETAG
1070
     1
1071
      388
1005
12D166
  0
LINE
  5
12D167
  8
OBJECT
 10
7843.0000000000136
 20
-258.99999999999909
 30
0.0
 11
7847.0000000000136
 21
-254.49999999999909
 31
0.0
1001
ACDBBLOCKREPETAG
1070
     1
1071
      389
1005
12D167
  0
LINE
  5
12D168
  8
OBJECT
 10
7843.0000000000136
 20
-140.99999999999909
 30
0.0
 11
7847.0000000000136
 21
-145.49999999999909
 31
0.0
1001
ACDBBLOCKREPETAG
1070
     1
1071
      390
1005
12D168
  0
LINE
  5
12D169
  8
OBJECT
 10
7927.0
 20
-261.99999999999909
 30
0.0
 11
7930.0
 21
-261.99999999999909
 31
0.0
1001
ACDBBLOCKREPETAG
1070
     1
1071
      391
1005
12D169
  0
ARC
  5
12D16A
  8
OBJECT
 10
7927.0
 20
-258.99999999999909
 30
0.0
 40
3.0
 50
180.0
 51
270.0
1001
ACDBBLOCKREPETAG
1070
     1
1071
      392
1005
12D16A
  0
LINE
  5
12D16B
  8
OBJECT
 10
7930.0
 20
-137.99999999999909
 30
0.0
 11
7927.0
 21
-137.99999999999909
 31
0.0
1001
ACDBBLOCKREPETAG
1070
     1
1071
      393
1005
12D16B
  0
ARC
  5
12D16C
  8
OBJECT
 10
7927.0
 20
-140.99999999999909
 30
0.0
 40
3.0
 50
90.0
 51
180.0
1001
ACDBBLOCKREPETAG
1070
     1
1071
      394
1005
12D16C
  0
LINE
  5
12D16D
  8
OBJECT
 10
7924.0
 20
-140.99999999999909
 30
0.0
 11
7924.0
 21
-189.6772096796403
 31
0.0
1001
ACDBBLOCKREPETAG
1070
     1
1071
      395
1005
12D16D
  0
LINE
  5
12D16E
  8
OBJECT
 10
7924.0
 20
-210.3227903203578
 30
0.0
 11
7924.0
 21
-258.99999999999909
 31
0.0
1001
ACDBBLOCKREPETAG
1070
     1
1071
      396
1005
12D16E
  0
LINE
  5
12D16F
  8
HIDDEN
 10
7852.0000000000136
 20
-244.49999999999909
 30
0.0
 11
7852.0000000000136
 21
-155.49999999999909
 31
0.0
1001
ACDBBLOCKREPETAG
1070
     1
1071
      397
1005
12D16F
  0
LINE
  5
12D170
  8
OBJECT
 10
7860.0000250358116
 20
-145.50004907618759
 30
0.0
 11
7860.0000250358116
 21
-254.50004907618771
 31
0.0
1001
ACDBBLOCKREPETAG
1070
     1
1071
      399
1005
12D170
  0
ARC
  5
12D171
  8
OBJECT
 10
7880.1999999999753
 20
-199.99999999999909
 30
0.0
 40
45.000000000000547
 50
270.0
 51
90.0
1001
ACDBBLOCKREPETAG
1070
     1
1071
      400
1005
12D171
  0
LINE
  5
12D172
  8
CENTER
 10
8000.0
 20
-290.99999999999898
 30
0.0
 11
8000.0
 21
-269.99999999999909
 31
0.0
1001
ACDBBLOCKREPETAG
1070
     1
1071
        0
1005
12D172
  0
LINE
  5
12D173
  8
OBJECT
 10
8062.0
 20
-273.0
 30
0.0
 11
8062.0
 21
-269.99999999999909
 31
0.0
1001
ACDBBLOCKREPETAG
1070
     1
1071
        1
1005
12D173
  0
ARC
  5
12D174
  8
OBJECT
 10
8059.0
 20
-273.0
 30
0.0
 40
3.0
 50
270.0
 51
0.0
1001
ACDBBLOCKREPETAG
1070
     1
1071
        2
1005
12D174
  0
LINE
  5
12D175
  8
OBJECT
 10
7938.0
 20
-269.99999999999909
 30
0.0
 11
7938.0
 21
-272.99999999999818
 31
0.0
1001
ACDBBLOCKREPETAG
1070
     1
1071
        3
1005
12D175
  0
ARC
  5
12D176
  8
OBJECT
 10
7941.0
 20
-272.99999999999818
 30
0.0
 40
3.0
 50
180.0
 51
270.0
1001
ACDBBLOCKREPETAG
1070
     1
1071
        4
1005
12D176
  0
LINE
  5
12D177
  8
OBJECT
 10
7941.0
 20
-275.99999999999818
 30
0.0
 11
8059.0
 21
-276.0
 31
0.0
1001
ACDBBLOCKREPETAG
1070
     1
1071
        5
1005
12D177
  0
LINE
  5
12D178
  8
OBJECT
 10
8123.0
 20
-663.99999999999966
 30
0.0
 11
8130.0
 21
-663.99999999999966
 31
0.0
1001
ACDBBLOCKREPETAG
1070
     1
1071
        7
1005
12D178
  0
LINE
  5
12D179
  8
OBJECT
 10
8130.0
 20
-663.99999999999966
 30
0.0
 11
8130.0
 21
-754.99999999999955
 31
0.0
1001
ACDBBLOCKREPETAG
1070
     1
1071
        8
1005
12D179
  0
LINE
  5
12D17A
  8
OBJECT
 10
8123.0
 20
-754.99999999999955
 30
0.0
 11
8123.0
 21
-663.99999999999966
 31
0.0
1001
ACDBBLOCKREPETAG
1070
     1
1071
        9
1005
12D17A
  0
LINE
  5
12D17B
  8
CENTER
 10
8145.0
 20
-710.99999999999955
 30
0.0
 11
8061.0
 21
-710.99999999999955
 31
0.0
1001
ACDBBLOCKREPETAG
1070
     1
1071
       10
1005
12D17B
  0
LINE
  5
12D17C
  8
OBJECT
 10
8123.0
 20
-666.99999999999955
 30
0.0
 11
8087.0
 21
-666.99999999999955
 31
0.0
1001
ACDBBLOCKREPETAG
1070
     1
1071
       11
1005
12D17C
  0
LINE
  5
12D17D
  8
OBJECT
 10
8087.0
 20
-666.99999999999955
 30
0.0
 11
8087.0
 21
-754.99999999999955
 31
0.0
1001
ACDBBLOCKREPETAG
1070
     1
1071
       12
1005
12D17D
  0
LINE
  5
12D17E
  8
OBJECT
 10
8087.0
 20
-754.99999999999955
 30
0.0
 11
8130.0
 21
-754.99999999999955
 31
0.0
1001
ACDBBLOCKREPETAG
1070
     1
1071
       13
1005
12D17E
  0
LINE
  5
12D17F
  8
OBJECT
 10
8083.0
 20
-671.49999999999955
 30
0.0
 11
8076.0
 21
-671.49999999999955
 31
0.0
1001
ACDBBLOCKREPETAG
1070
     1
1071
       14
1005
12D17F
  0
LINE
  5
12D180
  8
OBJECT
 10
8076.0
 20
-750.49999999999955
 30
0.0
 11
8083.0
 21
-750.49999999999955
 31
0.0
1001
ACDBBLOCKREPETAG
1070
     1
1071
       15
1005
12D180
  0
LINE
  5
12D181
  8
OBJECT
 10
8083.0
 20
-750.49999999999955
 30
0.0
 11
8083.0
 21
-671.49999999999955
 31
0.0
1001
ACDBBLOCKREPETAG
1070
     1
1071
       16
1005
12D181
  0
LINE
  5
12D182
  8
OBJECT
 10
8087.0
 20
-666.99999999999955
 30
0.0
 11
8083.0
 21
-671.49999999999955
 31
0.0
1001
ACDBBLOCKREPETAG
1070
     1
1071
       17
1005
12D182
  0
LINE
  5
12D183
  8
OBJECT
 10
8087.0
 20
-754.99999999999955
 30
0.0
 11
8083.0
 21
-750.49999999999955
 31
0.0
1001
ACDBBLOCKREPETAG
1070
     1
1071
       18
1005
12D183
  0
LINE
  5
12D184
  8
OBJECT
 10
8073.0
 20
-633.99999999999955
 30
0.0
 11
8070.0
 21
-633.99999999999955
 31
0.0
1001
ACDBBLOCKREPETAG
1070
     1
1071
       19
1005
12D184
  0
ARC
  5
12D185
  8
OBJECT
 10
8073.0
 20
-636.99999999999955
 30
0.0
 40
3.0
 50
0.0
 51
90.0
1001
ACDBBLOCKREPETAG
1070
     1
1071
       20
1005
12D185
  0
LINE
  5
12D186
  8
OBJECT
 10
8070.0
 20
-757.99999999999955
 30
0.0
 11
8073.0
 21
-757.99999999999955
 31
0.0
1001
ACDBBLOCKREPETAG
1070
     1
1071
       21
1005
12D186
  0
ARC
  5
12D187
  8
OBJECT
 10
8073.0
 20
-754.99999999999955
 30
0.0
 40
3.0
 50
270.0
 51
0.0
1001
ACDBBLOCKREPETAG
1070
     1
1071
       22
1005
12D187
  0
LINE
  5
12D188
  8
OBJECT
 10
8076.0
 20
-754.99999999999955
 30
0.0
 11
8076.0
 21
-636.99999999999955
 31
0.0
1001
ACDBBLOCKREPETAG
1070
     1
1071
       23
1005
12D188
  0
LINE
  5
12D189
  8
HIDDEN
 10
8078.0
 20
-680.99999999999955
 30
0.0
 11
8078.0
 21
-740.99999999999955
 31
0.0
1001
ACDBBLOCKREPETAG
1070
     1
1071
       24
1005
12D189
  0
LINE
  5
12D18A
  8
OBJECT
 10
8123.0
 20
-152.99999999999909
 30
0.0
 11
8130.0
 21
-152.99999999999909
 31
0.0
1001
ACDBBLOCKREPETAG
1070
     1
1071
        7
1005
12D18A
  0
LINE
  5
12D18B
  8
OBJECT
 10
8130.0
 20
-152.99999999999909
 30
0.0
 11
8130.0
 21
-246.99999999999909
 31
0.0
1001
ACDBBLOCKREPETAG
1070
     1
1071
        8
1005
12D18B
  0
LINE
  5
12D18C
  8
OBJECT
 10
8130.0
 20
-246.99999999999909
 30
0.0
 11
8123.0
 21
-246.99999999999909
 31
0.0
1001
ACDBBLOCKREPETAG
1070
     1
1071
        9
1005
12D18C
  0
LINE
  5
12D18D
  8
OBJECT
 10
8123.0
 20
-246.99999999999909
 30
0.0
 11
8123.0
 21
-152.99999999999909
 31
0.0
1001
ACDBBLOCKREPETAG
1070
     1
1071
       10
1005
12D18D
  0
LINE
  5
12D18E
  8
CENTER
 10
8145.0
 20
-199.99999999999909
 30
0.0
 11
8070.0
 21
-199.99999999999909
 31
0.0
1001
ACDBBLOCKREPETAG
1070
     1
1071
       11
1005
12D18E
  0
LINE
  5
12D18F
  8
OBJECT
 10
8123.0
 20
-155.99999999999909
 30
0.0
 11
8087.0
 21
-155.99999999999909
 31
0.0
1001
ACDBBLOCKREPETAG
1070
     1
1071
       12
1005
12D18F
  0
LINE
  5
12D190
  8
OBJECT
 10
8087.0
 20
-155.99999999999909
 30
0.0
 11
8087.0
 21
-243.99999999999909
 31
0.0
1001
ACDBBLOCKREPETAG
1070
     1
1071
       13
1005
12D190
  0
LINE
  5
12D191
  8
OBJECT
 10
8087.0
 20
-243.99999999999909
 30
0.0
 11
8123.0
 21
-243.99999999999909
 31
0.0
1001
ACDBBLOCKREPETAG
1070
     1
1071
       14
1005
12D191
  0
LINE
  5
12D192
  8
OBJECT
 10
8083.0
 20
-160.49999999999909
 30
0.0
 11
8076.0
 21
-160.49999999999909
 31
0.0
1001
ACDBBLOCKREPETAG
1070
     1
1071
       15
1005
12D192
  0
LINE
  5
12D193
  8
OBJECT
 10
8076.0
 20
-239.49999999999909
 30
0.0
 11
8083.0
 21
-239.49999999999909
 31
0.0
1001
ACDBBLOCKREPETAG
1070
     1
1071
       16
1005
12D193
  0
LINE
  5
12D194
  8
OBJECT
 10
8083.0
 20
-239.49999999999909
 30
0.0
 11
8083.0
 21
-160.49999999999909
 31
0.0
1001
ACDBBLOCKREPETAG
1070
     1
1071
       17
1005
12D194
  0
LINE
  5
12D195
  8
OBJECT
 10
8087.0
 20
-155.99999999999909
 30
0.0
 11
8083.0
 21
-160.49999999999909
 31
0.0
1001
ACDBBLOCKREPETAG
1070
     1
1071
       18
1005
12D195
  0
LINE
  5
12D196
  8
OBJECT
 10
8087.0
 20
-243.99999999999909
 30
0.0
 11
8083.0
 21
-239.49999999999909
 31
0.0
1001
ACDBBLOCKREPETAG
1070
     1
1071
       19
1005
12D196
  0
LINE
  5
12D197
  8
OBJECT
 10
8073.0
 20
-137.99999999999909
 30
0.0
 11
8070.0
 21
-137.99999999999909
 31
0.0
1001
ACDBBLOCKREPETAG
1070
     1
1071
       20
1005
12D197
  0
ARC
  5
12D198
  8
OBJECT
 10
8073.0
 20
-140.99999999999909
 30
0.0
 40
3.0
 50
0.0
 51
90.0
1001
ACDBBLOCKREPETAG
1070
     1
1071
       21
1005
12D198
  0
LINE
  5
12D199
  8
OBJECT
 10
8070.0
 20
-261.99999999999909
 30
0.0
 11
8073.0
 21
-261.99999999999909
 31
0.0
1001
ACDBBLOCKREPETAG
1070
     1
1071
       22
1005
12D199
  0
ARC
  5
12D19A
  8
OBJECT
 10
8073.0
 20
-258.99999999999909
 30
0.0
 40
3.0
 50
270.0
 51
0.0
1001
ACDBBLOCKREPETAG
1070
     1
1071
       23
1005
12D19A
  0
LINE
  5
12D19B
  8
OBJECT
 10
8076.0
 20
-258.99999999999909
 30
0.0
 11
8076.0
 21
-140.99999999999909
 31
0.0
1001
ACDBBLOCKREPETAG
1070
     1
1071
       24
1005
12D19B
  0
LINE
  5
12D19C
  8
HIDDEN
 10
8078.0
 20
-169.99999999999909
 30
0.0
 11
8078.0
 21
-229.99999999999909
 31
0.0
1001
ACDBBLOCKREPETAG
1070
     1
1071
       25
1005
12D19C
  0
CIRCLE
  5
12D19D
  8
OBJECT
 10
6000.0
 20
-695.99999999999955
 30
0.0
 40
62.0
1001
ACDBBLOCKREPETAG
1070
     1
1071
        0
1005
12D19D
  0
LINE
  5
12D19E
  8
CENTER
 10
6000.0
 20
-769.99999999999955
 30
0.0
 11
6000.0
 21
-613.99999999999966
 31
0.0
1001
ACDBBLOCKREPETAG
1070
     1
1071
        0
1005
12D19E
  0
LINE
  5
12D19F
  8
OBJECT
 10
5930.0
 20
-633.99999999999955
 30
0.0
 11
6070.0
 21
-633.99999999999955
 31
0.0
1001
ACDBBLOCKREPETAG
1070
     1
1071
        1
1005
12D19F
  0
LINE
  5
12D1A0
  8
OBJECT
 10
5930.0
 20
-757.99999999999955
 30
0.0
 11
5930.0
 21
-769.99999999999955
 31
0.0
1001
ACDBBLOCKREPETAG
1070
     1
1071
        2
1005
12D1A0
  0
LINE
  5
12D1A1
  8
OBJECT
 10
5930.0
 20
-769.99999999999955
 30
0.0
 11
6070.0
 21
-769.99999999999955
 31
0.0
1001
ACDBBLOCKREPETAG
1070
     1
1071
        3
1005
12D1A1
  0
LINE
  5
12D1A2
  8
OBJECT
 10
6070.0
 20
-769.99999999999955
 30
0.0
 11
6070.0
 21
-757.99999999999955
 31
0.0
1001
ACDBBLOCKREPETAG
1070
     1
1071
        4
1005
12D1A2
  0
LINE
  5
12D1A3
  8
OBJECT
 10
6070.0
 20
-757.99999999999955
 30
0.0
 11
5930.0
 21
-757.99999999999955
 31
0.0
1001
ACDBBLOCKREPETAG
1070
     1
1071
        5
1005
12D1A3
  0
ARC
  5
12D1A4
  8
OBJECT
 10
6435.0384389946776
 20
-998.60813684682694
 30
0.0
 40
519.48776673616965
 50
135.42350667430969
 51
138.50052655621499
1001
ACDBBLOCKREPETAG
1070
     1
1071
        9
1005
12D1A4
  0
ARC
  5
12D1A5
  8
OBJECT
 10
6435.0384389946776
 20
-393.39186315317193
 30
0.0
 40
519.48776673616965
 50
221.49947344378501
 51
224.57649332569039
1001
ACDBBLOCKREPETAG
1070
     1
1071
       10
1005
12D1A5
  0
ARC
  5
12D1A6
  8
OBJECT
 10
5564.9615610053224
 20
-998.60813684682694
 30
0.0
 40
519.48776673616965
 50
41.499473443784993
 51
44.576493325690237
1001
ACDBBLOCKREPETAG
1070
     1
1071
       11
1005
12D1A6
  0
ARC
  5
12D1A7
  8
OBJECT
 10
5564.9615610053224
 20
-393.39186315317193
 30
0.0
 40
519.48776673616965
 50
315.42350667430981
 51
318.50052655621488
1001
ACDBBLOCKREPETAG
1070
     1
1071
       12
1005
12D1A7
  0
LINE
  5
12D1A8
  8
OBJECT
 10
6047.5
 20
-628.99999999999955
 30
0.0
 11
5952.5
 21
-628.99999999999955
 31
0.0
1001
ACDBBLOCKREPETAG
1070
     1
1071
       24
1005
12D1A8
  0
ARC
  5
12D1A9
  8
OBJECT
 10
5952.5
 20
-631.99999999999955
 30
0.0
 40
3.0
 50
90.0
 51
180.0
1001
ACDBBLOCKREPETAG
1070
     1
1071
       25
1005
12D1A9
  0
LINE
  5
12D1AA
  8
OBJECT
 10
5949.5
 20
-631.99999999999955
 30
0.0
 11
5949.5
 21
-633.99999999999955
 31
0.0
1001
ACDBBLOCKREPETAG
1070
     1
1071
       26
1005
12D1AA
  0
LINE
  5
12D1AB
  8
OBJECT
 10
6050.5
 20
-631.99999999999955
 30
0.0
 11
6050.5
 21
-633.99999999999955
 31
0.0
1001
ACDBBLOCKREPETAG
1070
     1
1071
       27
1005
12D1AB
  0
ARC
  5
12D1AC
  8
OBJECT
 10
6047.5
 20
-631.99999999999955
 30
0.0
 40
3.0
 50
0.0
 51
90.0
1001
ACDBBLOCKREPETAG
1070
     1
1071
       28
1005
12D1AC
  0
POINT
  5
12D1AD
  8
DOTS
 10
6000.0
 20
-754.99999999999955
 30
0.0
1001
ACDBBLOCKREPETAG
1070
     1
1071
       87
1005
12D1AD
  0
ARC
  5
12D1AE
  8
OBJECT
 10
6000.0
 20
-199.99999999999909
 30
0.0
 40
70.0
 50
62.339550100781771
 51
117.66044989921819
1001
ACDBBLOCKREPETAG
1070
     1
1071
        0
1005
12D1AE
  0
CIRCLE
  5
12D1AF
  8
OBJECT
 10
6000.0
 20
-199.99999999999909
 30
0.0
 40
65.0
1001
ACDBBLOCKREPETAG
1070
     1
1071
        1
1005
12D1AF
  0
CIRCLE
  5
12D1B0
  8
OBJECT
 10
6000.0
 20
-199.99999999999909
 30
0.0
 40
50.5
1001
ACDBBLOCKREPETAG
1070
     1
1071
        3
1005
12D1B0
  0
LINE
  5
12D1B1
  8
OBJECT
 10
6070.0
 20
-137.99999999999909
 30
0.0
 11
6019.5192212959437
 21
-137.99999999999909
 31
0.0
1001
ACDBBLOCKREPETAG
1070
     1
1071
        4
1005
12D1B1
  0
LINE
  5
12D1B2
  8
OBJECT
 10
5930.0
 20
-137.99999999999909
 30
0.0
 11
5980.4807787040563
 21
-137.99999999999909
 31
0.0
1001
ACDBBLOCKREPETAG
1070
     1
1071
        5
1005
12D1B2
  0
LINE
  5
12D1B3
  8
OBJECT
 10
5930.0
 20
-261.99999999999909
 30
0.0
 11
5938.0
 21
-261.99999999999909
 31
0.0
1001
ACDBBLOCKREPETAG
1070
     1
1071
        6
1005
12D1B3
  0
LINE
  5
12D1B4
  8
OBJECT
 10
5938.0
 20
-269.99999999999909
 30
0.0
 11
5938.0
 21
-261.99999999999909
 31
0.0
1001
ACDBBLOCKREPETAG
1070
     1
1071
        7
1005
12D1B4
  0
LINE
  5
12D1B5
  8
OBJECT
 10
6070.0
 20
-261.99999999999909
 30
0.0
 11
6062.0
 21
-261.99999999999909
 31
0.0
1001
ACDBBLOCKREPETAG
1070
     1
1071
        8
1005
12D1B5
  0
LINE
  5
12D1B6
  8
OBJECT
 10
6062.0
 20
-269.99999999999909
 30
0.0
 11
6062.0
 21
-261.99999999999909
 31
0.0
1001
ACDBBLOCKREPETAG
1070
     1
1071
        9
1005
12D1B6
  0
LINE
  5
12D1B7
  8
CENTER
 10
5930.0
 20
-199.99999999999909
 30
0.0
 11
6070.0
 21
-199.99999999999909
 31
0.0
1001
ACDBBLOCKREPETAG
1070
     1
1071
       10
1005
12D1B7
  0
LINE
  5
12D1B8
  8
CENTER
 10
6000.0
 20
-269.99999999999909
 30
0.0
 11
6000.0
 21
-114.9999999999991
 31
0.0
1001
ACDBBLOCKREPETAG
1070
     1
1071
       11
1005
12D1B8
  0
LINE
  5
12D1B9
  8
OBJECT
 10
5954.0380592228739
 20
-245.96194077712471
 30
0.0
 11
5938.0
 21
-261.99999999999909
 31
0.0
1001
ACDBBLOCKREPETAG
1070
     1
1071
       42
1005
12D1B9
  0
LINE
  5
12D1BA
  8
OBJECT
 10
6045.9619407771252
 20
-245.96194077712471
 30
0.0
 11
6062.0
 21
-261.99999999999909
 31
0.0
1001
ACDBBLOCKREPETAG
1070
     1
1071
       43
1005
12D1BA
  0
POINT
  5
12D1BB
  8
DOTS
 10
6000.0
 20
-199.99999999999909
 30
0.0
1001
ACDBBLOCKREPETAG
1070
     1
1071
      158
1005
12D1BB
  0
LINE
  5
12D1BC
  8
OBJECT
 10
5807.0000000000146
 20
-582.99999999999955
 30
0.0
 11
5800.0000000000136
 21
-582.99999999999955
 31
0.0
1001
ACDBBLOCKREPETAG
1070
     1
1071
      324
1005
12D1BC
  0
LINE
  5
12D1BD
  8
OBJECT
 10
5800.0000000000136
 20
-582.99999999999955
 30
0.0
 11
5800.0000000000136
 21
-706.99999999999955
 31
0.0
1001
ACDBBLOCKREPETAG
1070
     1
1071
      325
1005
12D1BD
  0
LINE
  5
12D1BE
  8
OBJECT
 10
5924.0000000000127
 20
-653.35026377572683
 30
0.0
 11
5924.0000000000127
 21
-755.00000000000034
 31
0.0
1001
ACDBBLOCKREPETAG
1070
     1
1071
      326
1005
12D1BE
  0
LINE
  5
12D1BF
  8
OBJECT
 10
5800.0000000000136
 20
-706.99999999999955
 30
0.0
 11
5807.0000000000146
 21
-706.99999999999955
 31
0.0
1001
ACDBBLOCKREPETAG
1070
     1
1071
      327
1005
12D1BF
  0
LINE
  5
12D1C0
  8
OBJECT
 10
5807.0000000000146
 20
-706.99999999999955
 30
0.0
 11
5807.0000000000146
 21
-582.99999999999955
 31
0.0
1001
ACDBBLOCKREPETAG
1070
     1
1071
      328
1005
12D1C0
  0
LINE
  5
12D1C1
  8
CENTER
 10
5875.0000000000146
 20
-645.00000000000045
 30
0.0
 11
5785.0000000000136
 21
-644.99999999999955
 31
0.0
1001
ACDBBLOCKREPETAG
1070
     1
1071
      329
1005
12D1C1
  0
LINE
  5
12D1C2
  8
OBJECT
 10
5930.0000000000182
 20
-757.99999999999955
 30
0.0
 11
5927.0000000000127
 21
-758.00000000000034
 31
0.0
1001
ACDBBLOCKREPETAG
1070
     1
1071
      330
1005
12D1C2
  0
ARC
  5
12D1C3
  8
OBJECT
 10
5927.0000000000127
 20
-755.00000000000034
 30
0.0
 40
3.0
 50
180.0
 51
270.0
1001
ACDBBLOCKREPETAG
1070
     1
1071
      331
1005
12D1C3
  0
LINE
  5
12D1C4
  8
OBJECT
 10
5807.0000000000146
 20
-585.99999999999955
 30
0.0
 11
5843.0000000000146
 21
-586.00000000000045
 31
0.0
1001
ACDBBLOCKREPETAG
1070
     1
1071
      332
1005
12D1C4
  0
LINE
  5
12D1C5
  8
OBJECT
 10
5843.0000000000146
 20
-586.00000000000045
 30
0.0
 11
5843.0000000000146
 21
-704.00000000000045
 31
0.0
1001
ACDBBLOCKREPETAG
1070
     1
1071
      333
1005
12D1C5
  0
LINE
  5
12D1C6
  8
OBJECT
 10
5847.0000000000146
 20
-590.50000000000045
 30
0.0
 11
5847.0000000000146
 21
-699.50000000000045
 31
0.0
1001
ACDBBLOCKREPETAG
1070
     1
1071
      334
1005
12D1C6
  0
LINE
  5
12D1C7
  8
OBJECT
 10
5847.0000000000146
 20
-590.50000000000045
 30
0.0
 11
5860.0000000000127
 21
-590.50000000000045
 31
0.0
1001
ACDBBLOCKREPETAG
1070
     1
1071
      335
1005
12D1C7
  0
LINE
  5
12D1C8
  8
OBJECT
 10
5843.0000000000146
 20
-704.00000000000045
 30
0.0
 11
5807.0000000000146
 21
-703.99999999999955
 31
0.0
1001
ACDBBLOCKREPETAG
1070
     1
1071
      336
1005
12D1C8
  0
LINE
  5
12D1C9
  8
OBJECT
 10
5843.0000000000146
 20
-586.00000000000045
 30
0.0
 11
5847.0000000000146
 21
-590.50000000000045
 31
0.0
1001
ACDBBLOCKREPETAG
1070
     1
1071
      337
1005
12D1C9
  0
LINE
  5
12D1CA
  8
OBJECT
 10
5860.0000000000127
 20
-590.50000000000045
 30
0.0
 11
5860.0000000000127
 21
-675.7449182792875
 31
0.0
1001
ACDBBLOCKREPETAG
1070
     1
1071
      338
1005
12D1CA
  0
ARC
  5
12D1CB
  8
OBJECT
 10
5857.2000000000144
 20
-685.00000000000045
 30
0.0
 40
85.0
 50
36.869897645890923
 51
88.112268108168848
1001
ACDBBLOCKREPETAG
1070
     1
1071
      339
1005
12D1CB
  0
LINE
  5
12D1CC
  8
HIDDEN
 10
5852.0000000000136
 20
-600.50000000000057
 30
0.0
 11
5852.0000000000136
 21
-689.50000000000045
 31
0.0
1001
ACDBBLOCKREPETAG
1070
     1
1071
      341
1005
12D1CC
  0
LINE
  5
12D1CD
  8
OBJECT
 10
5924.0000000000127
 20
-751.07945073181725
 30
0.0
 11
5853.3686800789683
 21
-699.50000000000045
 31
0.0
1001
ACDBBLOCKREPETAG
1070
     1
1071
      342
1005
12D1CD
  0
LINE
  5
12D1CE
  8
OBJECT
 10
5930.0000000000182
 20
-633.99999999999955
 30
0.0
 11
5925.2000000000144
 21
-633.99999999999955
 31
0.0
1001
ACDBBLOCKREPETAG
1070
     1
1071
      343
1005
12D1CE
  0
LINE
  5
12D1CF
  8
OBJECT
 10
5924.0000000000127
 20
-653.35026377572945
 30
0.0
 11
5925.2000000000144
 21
-633.99999999999955
 31
0.0
1001
ACDBBLOCKREPETAG
1070
     1
1071
      344
1005
12D1CF
  0
LINE
  5
12D1D0
  8
OBJECT
 10
5847.0000000000146
 20
-699.50000000000045
 30
0.0
 11
5853.3686800789683
 21
-699.50000000000045
 31
0.0
1001
ACDBBLOCKREPETAG
1070
     1
1071
      345
1005
12D1D0
  0
LINE
  5
12D1D1
  8
OBJECT
 10
5843.0000000000146
 20
-704.00000000000045
 30
0.0
 11
5847.0000000000146
 21
-699.50000000000045
 31
0.0
1001
ACDBBLOCKREPETAG
1070
     1
1071
      346
1005
12D1D1
  0
LINE
  5
12D1D2
  8
OBJECT
 10
5807.0000000000146
 20
-261.99999999999909
 30
0.0
 11
5800.0000000000136
 21
-261.99999999999909
 31
0.0
1001
ACDBBLOCKREPETAG
1070
     1
1071
      376
1005
12D1D2
  0
LINE
  5
12D1D3
  8
OBJECT
 10
5800.0000000000136
 20
-261.99999999999909
 30
0.0
 11
5800.0000000000136
 21
-137.99999999999909
 31
0.0
1001
ACDBBLOCKREPETAG
1070
     1
1071
      377
1005
12D1D3
  0
LINE
  5
12D1D4
  8
OBJECT
 10
5800.0000000000136
 20
-137.99999999999909
 30
0.0
 11
5807.0000000000146
 21
-137.99999999999909
 31
0.0
1001
ACDBBLOCKREPETAG
1070
     1
1071
      378
1005
12D1D4
  0
LINE
  5
12D1D5
  8
OBJECT
 10
5807.0000000000146
 20
-137.99999999999909
 30
0.0
 11
5807.0000000000146
 21
-261.99999999999909
 31
0.0
1001
ACDBBLOCKREPETAG
1070
     1
1071
      379
1005
12D1D5
  0
LINE
  5
12D1D6
  8
CENTER
 10
5785.0000000000136
 20
-199.99999999999909
 30
0.0
 11
5930.0
 21
-199.99999999999909
 31
0.0
1001
ACDBBLOCKREPETAG
1070
     1
1071
      380
1005
12D1D6
  0
LINE
  5
12D1D7
  8
OBJECT
 10
5860.0000250358144
 20
-154.9999999999954
 30
0.0
 11
5924.0
 21
-154.99999999999909
 31
0.0
1001
ACDBBLOCKREPETAG
1070
     1
1071
      381
1005
12D1D7
  0
LINE
  5
12D1D8
  8
OBJECT
 10
5860.0000250358144
 20
-244.99999999999909
 30
0.0
 11
5924.0
 21
-244.99999999999909
 31
0.0
1001
ACDBBLOCKREPETAG
1070
     1
1071
      382
1005
12D1D8
  0
LINE
  5
12D1D9
  8
OBJECT
 10
5807.0000000000146
 20
-258.99999999999909
 30
0.0
 11
5843.0000000000146
 21
-258.99999999999909
 31
0.0
1001
ACDBBLOCKREPETAG
1070
     1
1071
      383
1005
12D1D9
  0
LINE
  5
12D1DA
  8
OBJECT
 10
5843.0000000000146
 20
-258.99999999999909
 30
0.0
 11
5843.0000000000146
 21
-140.99999999999909
 31
0.0
1001
ACDBBLOCKREPETAG
1070
     1
1071
      384
1005
12D1DA
  0
LINE
  5
12D1DB
  8
OBJECT
 10
5843.0000000000146
 20
-140.99999999999909
 30
0.0
 11
5807.0000000000146
 21
-140.99999999999909
 31
0.0
1001
ACDBBLOCKREPETAG
1070
     1
1071
      385
1005
12D1DB
  0
LINE
  5
12D1DC
  8
OBJECT
 10
5847.0000000000146
 20
-254.49999999999909
 30
0.0
 11
5860.0000000000127
 21
-254.49999999999909
 31
0.0
1001
ACDBBLOCKREPETAG
1070
     1
1071
      386
1005
12D1DC
  0
LINE
  5
12D1DD
  8
OBJECT
 10
5860.0000000000127
 20
-145.49999999999909
 30
0.0
 11
5847.0000000000146
 21
-145.49999999999909
 31
0.0
1001
ACDBBLOCKREPETAG
1070
     1
1071
      387
1005
12D1DD
  0
LINE
  5
12D1DE
  8
OBJECT
 10
5847.0000000000146
 20
-145.49999999999909
 30
0.0
 11
5847.0000000000146
 21
-254.49999999999909
 31
0.0
1001
ACDBBLOCKREPETAG
1070
     1
1071
      388
1005
12D1DE
  0
LINE
  5
12D1DF
  8
OBJECT
 10
5843.0000000000146
 20
-258.99999999999909
 30
0.0
 11
5847.0000000000146
 21
-254.49999999999909
 31
0.0
1001
ACDBBLOCKREPETAG
1070
     1
1071
      389
1005
12D1DF
  0
LINE
  5
12D1E0
  8
OBJECT
 10
5843.0000000000146
 20
-140.99999999999909
 30
0.0
 11
5847.0000000000146
 21
-145.49999999999909
 31
0.0
1001
ACDBBLOCKREPETAG
1070
     1
1071
      390
1005
12D1E0
  0
LINE
  5
12D1E1
  8
OBJECT
 10
5927.0
 20
-261.99999999999909
 30
0.0
 11
5930.0
 21
-261.99999999999909
 31
0.0
1001
ACDBBLOCKREPETAG
1070
     1
1071
      391
1005
12D1E1
  0
ARC
  5
12D1E2
  8
OBJECT
 10
5927.0
 20
-258.99999999999909
 30
0.0
 40
3.0
 50
180.0
 51
270.0
1001
ACDBBLOCKREPETAG
1070
     1
1071
      392
1005
12D1E2
  0
LINE
  5
12D1E3
  8
OBJECT
 10
5930.0
 20
-137.99999999999909
 30
0.0
 11
5927.0
 21
-137.99999999999909
 31
0.0
1001
ACDBBLOCKREPETAG
1070
     1
1071
      393
1005
12D1E3
  0
ARC
  5
12D1E4
  8
OBJECT
 10
5927.0
 20
-140.99999999999909
 30
0.0
 40
3.0
 50
90.0
 51
180.0
1001
ACDBBLOCKREPETAG
1070
     1
1071
      394
1005
12D1E4
  0
LINE
  5
12D1E5
  8
OBJECT
 10
5924.0
 20
-140.99999999999909
 30
0.0
 11
5924.0
 21
-189.6772096796403
 31
0.0
1001
ACDBBLOCKREPETAG
1070
     1
1071
      395
1005
12D1E5
  0
LINE
  5
12D1E6
  8
OBJECT
 10
5924.0
 20
-210.3227903203578
 30
0.0
 11
5924.0
 21
-258.99999999999909
 31
0.0
1001
ACDBBLOCKREPETAG
1070
     1
1071
      396
1005
12D1E6
  0
LINE
  5
12D1E7
  8
HIDDEN
 10
5852.0000000000136
 20
-244.49999999999909
 30
0.0
 11
5852.0000000000136
 21
-155.49999999999909
 31
0.0
1001
ACDBBLOCKREPETAG
1070
     1
1071
      397
1005
12D1E7
  0
LINE
  5
12D1E8
  8
OBJECT
 10
5860.0000250358144
 20
-145.50004907618759
 30
0.0
 11
5860.0000250358144
 21
-254.50004907618771
 31
0.0
1001
ACDBBLOCKREPETAG
1070
     1
1071
      399
1005
12D1E8
  0
ARC
  5
12D1E9
  8
OBJECT
 10
5880.1999999999753
 20
-199.99999999999909
 30
0.0
 40
45.000000000000547
 50
270.0
 51
90.0
1001
ACDBBLOCKREPETAG
1070
     1
1071
      400
1005
12D1E9
  0
LINE
  5
12D1EA
  8
CENTER
 10
6000.0
 20
-290.99999999999898
 30
0.0
 11
6000.0
 21
-269.99999999999909
 31
0.0
1001
ACDBBLOCKREPETAG
1070
     1
1071
        0
1005
12D1EA
  0
LINE
  5
12D1EB
  8
OBJECT
 10
6062.0
 20
-273.0
 30
0.0
 11
6062.0
 21
-269.99999999999909
 31
0.0
1001
ACDBBLOCKREPETAG
1070
     1
1071
        1
1005
12D1EB
  0
ARC
  5
12D1EC
  8
OBJECT
 10
6059.0
 20
-273.0
 30
0.0
 40
3.0
 50
270.0
 51
0.0
1001
ACDBBLOCKREPETAG
1070
     1
1071
        2
1005
12D1EC
  0
LINE
  5
12D1ED
  8
OBJECT
 10
5938.0
 20
-269.99999999999909
 30
0.0
 11
5938.0
 21
-272.99999999999818
 31
0.0
1001
ACDBBLOCKREPETAG
1070
     1
1071
        3
1005
12D1ED
  0
ARC
  5
12D1EE
  8
OBJECT
 10
5941.0
 20
-272.99999999999818
 30
0.0
 40
3.0
 50
180.0
 51
270.0
1001
ACDBBLOCKREPETAG
1070
     1
1071
        4
1005
12D1EE
  0
LINE
  5
12D1EF
  8
OBJECT
 10
5941.0
 20
-275.99999999999818
 30
0.0
 11
6059.0
 21
-276.0
 31
0.0
1001
ACDBBLOCKREPETAG
1070
     1
1071
        5
1005
12D1EF
  0
LINE
  5
12D1F0
  8
OBJECT
 10
6123.0
 20
-663.99999999999966
 30
0.0
 11
6130.0
 21
-663.99999999999966
 31
0.0
1001
ACDBBLOCKREPETAG
1070
     1
1071
        7
1005
12D1F0
  0
LINE
  5
12D1F1
  8
OBJECT
 10
6130.0
 20
-663.99999999999966
 30
0.0
 11
6130.0
 21
-754.99999999999955
 31
0.0
1001
ACDBBLOCKREPETAG
1070
     1
1071
        8
1005
12D1F1
  0
LINE
  5
12D1F2
  8
OBJECT
 10
6123.0
 20
-754.99999999999955
 30
0.0
 11
6123.0
 21
-663.99999999999966
 31
0.0
1001
ACDBBLOCKREPETAG
1070
     1
1071
        9
1005
12D1F2
  0
LINE
  5
12D1F3
  8
CENTER
 10
6145.0
 20
-710.99999999999955
 30
0.0
 11
6061.0
 21
-710.99999999999955
 31
0.0
1001
ACDBBLOCKREPETAG
1070
     1
1071
       10
1005
12D1F3
  0
LINE
  5
12D1F4
  8
OBJECT
 10
6123.0
 20
-666.99999999999955
 30
0.0
 11
6087.0
 21
-666.99999999999955
 31
0.0
1001
ACDBBLOCKREPETAG
1070
     1
1071
       11
1005
12D1F4
  0
LINE
  5
12D1F5
  8
OBJECT
 10
6087.0
 20
-666.99999999999955
 30
0.0
 11
6087.0
 21
-754.99999999999955
 31
0.0
1001
ACDBBLOCKREPETAG
1070
     1
1071
       12
1005
12D1F5
  0
LINE
  5
12D1F6
  8
OBJECT
 10
6087.0
 20
-754.99999999999955
 30
0.0
 11
6130.0
 21
-754.99999999999955
 31
0.0
1001
ACDBBLOCKREPETAG
1070
     1
1071
       13
1005
12D1F6
  0
LINE
  5
12D1F7
  8
OBJECT
 10
6083.0
 20
-671.49999999999955
 30
0.0
 11
6076.0
 21
-671.49999999999955
 31
0.0
1001
ACDBBLOCKREPETAG
1070
     1
1071
       14
1005
12D1F7
  0
LINE
  5
12D1F8
  8
OBJECT
 10
6076.0
 20
-750.49999999999955
 30
0.0
 11
6083.0
 21
-750.49999999999955
 31
0.0
1001
ACDBBLOCKREPETAG
1070
     1
1071
       15
1005
12D1F8
  0
LINE
  5
12D1F9
  8
OBJECT
 10
6083.0
 20
-750.49999999999955
 30
0.0
 11
6083.0
 21
-671.49999999999955
 31
0.0
1001
ACDBBLOCKREPETAG
1070
     1
1071
       16
1005
12D1F9
  0
LINE
  5
12D1FA
  8
OBJECT
 10
6087.0
 20
-666.99999999999955
 30
0.0
 11
6083.0
 21
-671.49999999999955
 31
0.0
1001
ACDBBLOCKREPETAG
1070
     1
1071
       17
1005
12D1FA
  0
LINE
  5
12D1FB
  8
OBJECT
 10
6087.0
 20
-754.99999999999955
 30
0.0
 11
6083.0
 21
-750.49999999999955
 31
0.0
1001
ACDBBLOCKREPETAG
1070
     1
1071
       18
1005
12D1FB
  0
LINE
  5
12D1FC
  8
OBJECT
 10
6073.0
 20
-633.99999999999955
 30
0.0
 11
6070.0
 21
-633.99999999999955
 31
0.0
1001
ACDBBLOCKREPETAG
1070
     1
1071
       19
1005
12D1FC
  0
ARC
  5
12D1FD
  8
OBJECT
 10
6073.0
 20
-636.99999999999955
 30
0.0
 40
3.0
 50
0.0
 51
90.0
1001
ACDBBLOCKREPETAG
1070
     1
1071
       20
1005
12D1FD
  0
LINE
  5
12D1FE
  8
OBJECT
 10
6070.0
 20
-757.99999999999955
 30
0.0
 11
6073.0
 21
-757.99999999999955
 31
0.0
1001
ACDBBLOCKREPETAG
1070
     1
1071
       21
1005
12D1FE
  0
ARC
  5
12D1FF
  8
OBJECT
 10
6073.0
 20
-754.99999999999955
 30
0.0
 40
3.0
 50
270.0
 51
0.0
1001
ACDBBLOCKREPETAG
1070
     1
1071
       22
1005
12D1FF
  0
LINE
  5
12D200
  8
OBJECT
 10
6076.0
 20
-754.99999999999955
 30
0.0
 11
6076.0
 21
-636.99999999999955
 31
0.0
1001
ACDBBLOCKREPETAG
1070
     1
1071
       23
1005
12D200
  0
LINE
  5
12D201
  8
HIDDEN
 10
6078.0
 20
-680.99999999999955
 30
0.0
 11
6078.0
 21
-740.99999999999955
 31
0.0
1001
ACDBBLOCKREPETAG
1070
     1
1071
       24
1005
12D201
  0
LINE
  5
12D202
  8
OBJECT
 10
6123.0
 20
-152.99999999999909
 30
0.0
 11
6130.0
 21
-152.99999999999909
 31
0.0
1001
ACDBBLOCKREPETAG
1070
     1
1071
        7
1005
12D202
  0
LINE
  5
12D203
  8
OBJECT
 10
6130.0
 20
-152.99999999999909
 30
0.0
 11
6130.0
 21
-246.99999999999909
 31
0.0
1001
ACDBBLOCKREPETAG
1070
     1
1071
        8
1005
12D203
  0
LINE
  5
12D204
  8
OBJECT
 10
6130.0
 20
-246.99999999999909
 30
0.0
 11
6123.0
 21
-246.99999999999909
 31
0.0
1001
ACDBBLOCKREPETAG
1070
     1
1071
        9
1005
12D204
  0
LINE
  5
12D205
  8
OBJECT
 10
6123.0
 20
-246.99999999999909
 30
0.0
 11
6123.0
 21
-152.99999999999909
 31
0.0
1001
ACDBBLOCKREPETAG
1070
     1
1071
       10
1005
12D205
  0
LINE
  5
12D206
  8
CENTER
 10
6145.0
 20
-199.99999999999909
 30
0.0
 11
6070.0
 21
-199.99999999999909
 31
0.0
1001
ACDBBLOCKREPETAG
1070
     1
1071
       11
1005
12D206
  0
LINE
  5
12D207
  8
OBJECT
 10
6123.0
 20
-155.99999999999909
 30
0.0
 11
6087.0
 21
-155.99999999999909
 31
0.0
1001
ACDBBLOCKREPETAG
1070
     1
1071
       12
1005
12D207
  0
LINE
  5
12D208
  8
OBJECT
 10
6087.0
 20
-155.99999999999909
 30
0.0
 11
6087.0
 21
-243.99999999999909
 31
0.0
1001
ACDBBLOCKREPETAG
1070
     1
1071
       13
1005
12D208
  0
LINE
  5
12D209
  8
OBJECT
 10
6087.0
 20
-243.99999999999909
 30
0.0
 11
6123.0
 21
-243.99999999999909
 31
0.0
1001
ACDBBLOCKREPETAG
1070
     1
1071
       14
1005
12D209
  0
LINE
  5
12D20A
  8
OBJECT
 10
6083.0
 20
-160.49999999999909
 30
0.0
 11
6076.0
 21
-160.49999999999909
 31
0.0
1001
ACDBBLOCKREPETAG
1070
     1
1071
       15
1005
12D20A
  0
LINE
  5
12D20B
  8
OBJECT
 10
6076.0
 20
-239.49999999999909
 30
0.0
 11
6083.0
 21
-239.49999999999909
 31
0.0
1001
ACDBBLOCKREPETAG
1070
     1
1071
       16
1005
12D20B
  0
LINE
  5
12D20C
  8
OBJECT
 10
6083.0
 20
-239.49999999999909
 30
0.0
 11
6083.0
 21
-160.49999999999909
 31
0.0
1001
ACDBBLOCKREPETAG
1070
     1
1071
       17
1005
12D20C
  0
LINE
  5
12D20D
  8
OBJECT
 10
6087.0
 20
-155.99999999999909
 30
0.0
 11
6083.0
 21
-160.49999999999909
 31
0.0
1001
ACDBBLOCKREPETAG
1070
     1
1071
       18
1005
12D20D
  0
LINE
  5
12D20E
  8
OBJECT
 10
6087.0
 20
-243.99999999999909
 30
0.0
 11
6083.0
 21
-239.49999999999909
 31
0.0
1001
ACDBBLOCKREPETAG
1070
     1
1071
       19
1005
12D20E
  0
LINE
  5
12D20F
  8
OBJECT
 10
6073.0
 20
-137.99999999999909
 30
0.0
 11
6070.0
 21
-137.99999999999909
 31
0.0
1001
ACDBBLOCKREPETAG
1070
     1
1071
       20
1005
12D20F
  0
ARC
  5
12D210
  8
OBJECT
 10
6073.0
 20
-140.99999999999909
 30
0.0
 40
3.0
 50
0.0
 51
90.0
1001
ACDBBLOCKREPETAG
1070
     1
1071
       21
1005
12D210
  0
LINE
  5
12D211
  8
OBJECT
 10
6070.0
 20
-261.99999999999909
 30
0.0
 11
6073.0
 21
-261.99999999999909
 31
0.0
1001
ACDBBLOCKREPETAG
1070
     1
1071
       22
1005
12D211
  0
ARC
  5
12D212
  8
OBJECT
 10
6073.0
 20
-258.99999999999909
 30
0.0
 40
3.0
 50
270.0
 51
0.0
1001
ACDBBLOCKREPETAG
1070
     1
1071
       23
1005
12D212
  0
LINE
  5
12D213
  8
OBJECT
 10
6076.0
 20
-258.99999999999909
 30
0.0
 11
6076.0
 21
-140.99999999999909
 31
0.0
1001
ACDBBLOCKREPETAG
1070
     1
1071
       24
1005
12D213
  0
LINE
  5
12D214
  8
HIDDEN
 10
6078.0
 20
-169.99999999999909
 30
0.0
 11
6078.0
 21
-229.99999999999909
 31
0.0
1001
ACDBBLOCKREPETAG
1070
     1
1071
       25
1005
12D214
  0
CIRCLE
  5
12D215
  8
OBJECT
 10
4000.0
 20
-695.99999999999955
 30
0.0
 40
62.0
1001
ACDBBLOCKREPETAG
1070
     1
1071
        0
1005
12D215
  0
LINE
  5
12D216
  8
CENTER
 10
4000.0
 20
-769.99999999999955
 30
0.0
 11
4000.0
 21
-613.99999999999966
 31
0.0
1001
ACDBBLOCKREPETAG
1070
     1
1071
        0
1005
12D216
  0
LINE
  5
12D217
  8
OBJECT
 10
3930.0
 20
-633.99999999999955
 30
0.0
 11
4070.0
 21
-633.99999999999955
 31
0.0
1001
ACDBBLOCKREPETAG
1070
     1
1071
        1
1005
12D217
  0
LINE
  5
12D218
  8
OBJECT
 10
3930.0
 20
-757.99999999999955
 30
0.0
 11
3930.0
 21
-769.99999999999955
 31
0.0
1001
ACDBBLOCKREPETAG
1070
     1
1071
        2
1005
12D218
  0
LINE
  5
12D219
  8
OBJECT
 10
3930.0
 20
-769.99999999999955
 30
0.0
 11
4070.0
 21
-769.99999999999955
 31
0.0
1001
ACDBBLOCKREPETAG
1070
     1
1071
        3
1005
12D219
  0
LINE
  5
12D21A
  8
OBJECT
 10
4070.0
 20
-769.99999999999955
 30
0.0
 11
4070.0
 21
-757.99999999999955
 31
0.0
1001
ACDBBLOCKREPETAG
1070
     1
1071
        4
1005
12D21A
  0
LINE
  5
12D21B
  8
OBJECT
 10
4070.0
 20
-757.99999999999955
 30
0.0
 11
3930.0
 21
-757.99999999999955
 31
0.0
1001
ACDBBLOCKREPETAG
1070
     1
1071
        5
1005
12D21B
  0
ARC
  5
12D21C
  8
OBJECT
 10
4435.0384389946767
 20
-998.60813684682694
 30
0.0
 40
519.48776673616965
 50
135.42350667430969
 51
138.50052655621499
1001
ACDBBLOCKREPETAG
1070
     1
1071
        9
1005
12D21C
  0
ARC
  5
12D21D
  8
OBJECT
 10
4435.0384389946767
 20
-393.39186315317193
 30
0.0
 40
519.48776673616965
 50
221.49947344378501
 51
224.57649332569039
1001
ACDBBLOCKREPETAG
1070
     1
1071
       10
1005
12D21D
  0
ARC
  5
12D21E
  8
OBJECT
 10
3564.961561005322
 20
-998.60813684682694
 30
0.0
 40
519.48776673616965
 50
41.499473443784993
 51
44.576493325690237
1001
ACDBBLOCKREPETAG
1070
     1
1071
       11
1005
12D21E
  0
ARC
  5
12D21F
  8
OBJECT
 10
3564.961561005322
 20
-393.39186315317193
 30
0.0
 40
519.48776673616965
 50
315.42350667430981
 51
318.50052655621488
1001
ACDBBLOCKREPETAG
1070
     1
1071
       12
1005
12D21F
  0
LINE
  5
12D220
  8
OBJECT
 10
4047.5
 20
-628.99999999999955
 30
0.0
 11
3952.5
 21
-628.99999999999955
 31
0.0
1001
ACDBBLOCKREPETAG
1070
     1
1071
       24
1005
12D220
  0
ARC
  5
12D221
  8
OBJECT
 10
3952.5
 20
-631.99999999999955
 30
0.0
 40
3.0
 50
90.0
 51
180.0
1001
ACDBBLOCKREPETAG
1070
     1
1071
       25
1005
12D221
  0
LINE
  5
12D222
  8
OBJECT
 10
3949.5
 20
-631.99999999999955
 30
0.0
 11
3949.5
 21
-633.99999999999955
 31
0.0
1001
ACDBBLOCKREPETAG
1070
     1
1071
       26
1005
12D222
  0
LINE
  5
12D223
  8
OBJECT
 10
4050.5
 20
-631.99999999999955
 30
0.0
 11
4050.5
 21
-633.99999999999955
 31
0.0
1001
ACDBBLOCKREPETAG
1070
     1
1071
       27
1005
12D223
  0
ARC
  5
12D224
  8
OBJECT
 10
4047.5
 20
-631.99999999999955
 30
0.0
 40
3.0
 50
0.0
 51
90.0
1001
ACDBBLOCKREPETAG
1070
     1
1071
       28
1005
12D224
  0
POINT
  5
12D225
  8
DOTS
 10
4000.0
 20
-754.99999999999955
 30
0.0
1001
ACDBBLOCKREPETAG
1070
     1
1071
       87
1005
12D225
  0
ARC
  5
12D226
  8
OBJECT
 10
4000.0
 20
-199.99999999999909
 30
0.0
 40
70.0
 50
62.339550100758693
 51
117.6604498992413
1001
ACDBBLOCKREPETAG
1070
     1
1071
        0
1005
12D226
  0
CIRCLE
  5
12D227
  8
OBJECT
 10
4000.0
 20
-199.99999999999909
 30
0.0
 40
65.0
1001
ACDBBLOCKREPETAG
1070
     1
1071
        1
1005
12D227
  0
CIRCLE
  5
12D228
  8
OBJECT
 10
4000.0
 20
-199.99999999999909
 30
0.0
 40
50.5
1001
ACDBBLOCKREPETAG
1070
     1
1071
        3
1005
12D228
  0
LINE
  5
12D229
  8
OBJECT
 10
4070.0
 20
-137.99999999999909
 30
0.0
 11
4019.5192212959432
 21
-137.99999999999909
 31
0.0
1001
ACDBBLOCKREPETAG
1070
     1
1071
        4
1005
12D229
  0
LINE
  5
12D22A
  8
OBJECT
 10
3930.0
 20
-137.99999999999909
 30
0.0
 11
3980.4807787040581
 21
-137.99999999999909
 31
0.0
1001
ACDBBLOCKREPETAG
1070
     1
1071
        5
1005
12D22A
  0
LINE
  5
12D22B
  8
OBJECT
 10
3930.0
 20
-261.99999999999909
 30
0.0
 11
3938.0
 21
-261.99999999999909
 31
0.0
1001
ACDBBLOCKREPETAG
1070
     1
1071
        6
1005
12D22B
  0
LINE
  5
12D22C
  8
OBJECT
 10
3938.0
 20
-269.99999999999909
 30
0.0
 11
3938.0
 21
-261.99999999999909
 31
0.0
1001
ACDBBLOCKREPETAG
1070
     1
1071
        7
1005
12D22C
  0
LINE
  5
12D22D
  8
OBJECT
 10
4070.0
 20
-261.99999999999909
 30
0.0
 11
4062.0
 21
-261.99999999999909
 31
0.0
1001
ACDBBLOCKREPETAG
1070
     1
1071
        8
1005
12D22D
  0
LINE
  5
12D22E
  8
OBJECT
 10
4062.0
 20
-269.99999999999909
 30
0.0
 11
4062.0
 21
-261.99999999999909
 31
0.0
1001
ACDBBLOCKREPETAG
1070
     1
1071
        9
1005
12D22E
  0
LINE
  5
12D22F
  8
CENTER
 10
3930.0
 20
-199.99999999999909
 30
0.0
 11
4070.0
 21
-199.99999999999909
 31
0.0
1001
ACDBBLOCKREPETAG
1070
     1
1071
       10
1005
12D22F
  0
LINE
  5
12D230
  8
CENTER
 10
4000.0
 20
-269.99999999999909
 30
0.0
 11
4000.0
 21
-114.9999999999991
 31
0.0
1001
ACDBBLOCKREPETAG
1070
     1
1071
       11
1005
12D230
  0
LINE
  5
12D231
  8
OBJECT
 10
3954.0380592228739
 20
-245.96194077712471
 30
0.0
 11
3938.0
 21
-261.99999999999909
 31
0.0
1001
ACDBBLOCKREPETAG
1070
     1
1071
       42
1005
12D231
  0
LINE
  5
12D232
  8
OBJECT
 10
4045.9619407771238
 20
-245.96194077712471
 30
0.0
 11
4062.0
 21
-261.99999999999909
 31
0.0
1001
ACDBBLOCKREPETAG
1070
     1
1071
       43
1005
12D232
  0
POINT
  5
12D233
  8
DOTS
 10
4000.0
 20
-199.99999999999909
 30
0.0
1001
ACDBBLOCKREPETAG
1070
     1
1071
      158
1005
12D233
  0
LINE
  5
12D234
  8
OBJECT
 10
3807.0000000000159
 20
-582.99999999999955
 30
0.0
 11
3800.0000000000159
 21
-582.99999999999955
 31
0.0
1001
ACDBBLOCKREPETAG
1070
     1
1071
      324
1005
12D234
  0
LINE
  5
12D235
  8
OBJECT
 10
3800.0000000000159
 20
-582.99999999999955
 30
0.0
 11
3800.0000000000159
 21
-706.99999999999955
 31
0.0
1001
ACDBBLOCKREPETAG
1070
     1
1071
      325
1005
12D235
  0
LINE
  5
12D236
  8
OBJECT
 10
3924.0000000000159
 20
-653.35026377572683
 30
0.0
 11
3924.0000000000159
 21
-755.00000000000034
 31
0.0
1001
ACDBBLOCKREPETAG
1070
     1
1071
      326
1005
12D236
  0
LINE
  5
12D237
  8
OBJECT
 10
3800.0000000000159
 20
-706.99999999999955
 30
0.0
 11
3807.0000000000159
 21
-706.99999999999955
 31
0.0
1001
ACDBBLOCKREPETAG
1070
     1
1071
      327
1005
12D237
  0
LINE
  5
12D238
  8
OBJECT
 10
3807.0000000000159
 20
-706.99999999999955
 30
0.0
 11
3807.0000000000159
 21
-582.99999999999955
 31
0.0
1001
ACDBBLOCKREPETAG
1070
     1
1071
      328
1005
12D238
  0
LINE
  5
12D239
  8
CENTER
 10
3875.0000000000159
 20
-645.00000000000045
 30
0.0
 11
3785.0000000000141
 21
-644.99999999999955
 31
0.0
1001
ACDBBLOCKREPETAG
1070
     1
1071
      329
1005
12D239
  0
LINE
  5
12D23A
  8
OBJECT
 10
3930.0000000000168
 20
-757.99999999999955
 30
0.0
 11
3927.000000000015
 21
-758.00000000000034
 31
0.0
1001
ACDBBLOCKREPETAG
1070
     1
1071
      330
1005
12D23A
  0
ARC
  5
12D23B
  8
OBJECT
 10
3927.000000000015
 20
-755.00000000000034
 30
0.0
 40
3.0
 50
180.0
 51
270.0
1001
ACDBBLOCKREPETAG
1070
     1
1071
      331
1005
12D23B
  0
LINE
  5
12D23C
  8
OBJECT
 10
3807.0000000000159
 20
-585.99999999999955
 30
0.0
 11
3843.0000000000159
 21
-586.00000000000045
 31
0.0
1001
ACDBBLOCKREPETAG
1070
     1
1071
      332
1005
12D23C
  0
LINE
  5
12D23D
  8
OBJECT
 10
3843.0000000000159
 20
-586.00000000000045
 30
0.0
 11
3843.0000000000159
 21
-704.00000000000045
 31
0.0
1001
ACDBBLOCKREPETAG
1070
     1
1071
      333
1005
12D23D
  0
LINE
  5
12D23E
  8
OBJECT
 10
3847.000000000015
 20
-590.50000000000045
 30
0.0
 11
3847.000000000015
 21
-699.50000000000045
 31
0.0
1001
ACDBBLOCKREPETAG
1070
     1
1071
      334
1005
12D23E
  0
LINE
  5
12D23F
  8
OBJECT
 10
3847.000000000015
 20
-590.50000000000045
 30
0.0
 11
3860.0000000000159
 21
-590.50000000000045
 31
0.0
1001
ACDBBLOCKREPETAG
1070
     1
1071
      335
1005
12D23F
  0
LINE
  5
12D240
  8
OBJECT
 10
3843.0000000000159
 20
-704.00000000000045
 30
0.0
 11
3807.0000000000159
 21
-703.99999999999955
 31
0.0
1001
ACDBBLOCKREPETAG
1070
     1
1071
      336
1005
12D240
  0
LINE
  5
12D241
  8
OBJECT
 10
3843.0000000000159
 20
-586.00000000000045
 30
0.0
 11
3847.000000000015
 21
-590.50000000000045
 31
0.0
1001
ACDBBLOCKREPETAG
1070
     1
1071
      337
1005
12D241
  0
LINE
  5
12D242
  8
OBJECT
 10
3860.0000000000159
 20
-590.50000000000045
 30
0.0
 11
3860.0000000000159
 21
-675.7449182792875
 31
0.0
1001
ACDBBLOCKREPETAG
1070
     1
1071
      338
1005
12D242
  0
ARC
  5
12D243
  8
OBJECT
 10
3857.2000000000148
 20
-685.00000000000045
 30
0.0
 40
85.0
 50
36.869897645875277
 51
88.112268108168848
1001
ACDBBLOCKREPETAG
1070
     1
1071
      339
1005
12D243
  0
LINE
  5
12D244
  8
HIDDEN
 10
3852.0000000000141
 20
-600.50000000000057
 30
0.0
 11
3852.0000000000141
 21
-689.50000000000045
 31
0.0
1001
ACDBBLOCKREPETAG
1070
     1
1071
      341
1005
12D244
  0
LINE
  5
12D245
  8
OBJECT
 10
3924.0000000000159
 20
-751.07945073181725
 30
0.0
 11
3853.3686800789701
 21
-699.50000000000045
 31
0.0
1001
ACDBBLOCKREPETAG
1070
     1
1071
      342
1005
12D245
  0
LINE
  5
12D246
  8
OBJECT
 10
3930.0000000000168
 20
-633.99999999999955
 30
0.0
 11
3925.2000000000148
 21
-633.99999999999955
 31
0.0
1001
ACDBBLOCKREPETAG
1070
     1
1071
      343
1005
12D246
  0
LINE
  5
12D247
  8
OBJECT
 10
3924.0000000000159
 20
-653.35026377572945
 30
0.0
 11
3925.2000000000148
 21
-633.99999999999955
 31
0.0
1001
ACDBBLOCKREPETAG
1070
     1
1071
      344
1005
12D247
  0
LINE
  5
12D248
  8
OBJECT
 10
3847.000000000015
 20
-699.50000000000045
 30
0.0
 11
3853.3686800789701
 21
-699.50000000000045
 31
0.0
1001
ACDBBLOCKREPETAG
1070
     1
1071
      345
1005
12D248
  0
LINE
  5
12D249
  8
OBJECT
 10
3843.0000000000159
 20
-704.00000000000045
 30
0.0
 11
3847.000000000015
 21
-699.50000000000045
 31
0.0
1001
ACDBBLOCKREPETAG
1070
     1
1071
      346
1005
12D249
  0
LINE
  5
12D24A
  8
OBJECT
 10
3807.0000000000159
 20
-261.99999999999909
 30
0.0
 11
3800.0000000000159
 21
-261.99999999999909
 31
0.0
1001
ACDBBLOCKREPETAG
1070
     1
1071
      376
1005
12D24A
  0
LINE
  5
12D24B
  8
OBJECT
 10
3800.0000000000159
 20
-261.99999999999909
 30
0.0
 11
3800.0000000000159
 21
-137.99999999999909
 31
0.0
1001
ACDBBLOCKREPETAG
1070
     1
1071
      377
1005
12D24B
  0
LINE
  5
12D24C
  8
OBJECT
 10
3800.0000000000159
 20
-137.99999999999909
 30
0.0
 11
3807.0000000000159
 21
-137.99999999999909
 31
0.0
1001
ACDBBLOCKREPETAG
1070
     1
1071
      378
1005
12D24C
  0
LINE
  5
12D24D
  8
OBJECT
 10
3807.0000000000159
 20
-137.99999999999909
 30
0.0
 11
3807.0000000000159
 21
-261.99999999999909
 31
0.0
1001
ACDBBLOCKREPETAG
1070
     1
1071
      379
1005
12D24D
  0
LINE
  5
12D24E
  8
CENTER
 10
3785.0000000000141
 20
-199.99999999999909
 30
0.0
 11
3930.0
 21
-199.99999999999909
 31
0.0
1001
ACDBBLOCKREPETAG
1070
     1
1071
      380
1005
12D24E
  0
LINE
  5
12D24F
  8
OBJECT
 10
3860.0000250358139
 20
-154.9999999999954
 30
0.0
 11
3924.0
 21
-154.99999999999909
 31
0.0
1001
ACDBBLOCKREPETAG
1070
     1
1071
      381
1005
12D24F
  0
LINE
  5
12D250
  8
OBJECT
 10
3860.0000250358139
 20
-244.99999999999909
 30
0.0
 11
3924.0
 21
-244.99999999999909
 31
0.0
1001
ACDBBLOCKREPETAG
1070
     1
1071
      382
1005
12D250
  0
LINE
  5
12D251
  8
OBJECT
 10
3807.0000000000159
 20
-258.99999999999909
 30
0.0
 11
3843.0000000000159
 21
-258.99999999999909
 31
0.0
1001
ACDBBLOCKREPETAG
1070
     1
1071
      383
1005
12D251
  0
LINE
  5
12D252
  8
OBJECT
 10
3843.0000000000159
 20
-258.99999999999909
 30
0.0
 11
3843.0000000000159
 21
-140.99999999999909
 31
0.0
1001
ACDBBLOCKREPETAG
1070
     1
1071
      384
1005
12D252
  0
LINE
  5
12D253
  8
OBJECT
 10
3843.0000000000159
 20
-140.99999999999909
 30
0.0
 11
3807.0000000000159
 21
-140.99999999999909
 31
0.0
1001
ACDBBLOCKREPETAG
1070
     1
1071
      385
1005
12D253
  0
LINE
  5
12D254
  8
OBJECT
 10
3847.000000000015
 20
-254.49999999999909
 30
0.0
 11
3860.0000000000159
 21
-254.49999999999909
 31
0.0
1001
ACDBBLOCKREPETAG
1070
     1
1071
      386
1005
12D254
  0
LINE
  5
12D255
  8
OBJECT
 10
3860.0000000000159
 20
-145.49999999999909
 30
0.0
 11
3847.000000000015
 21
-145.49999999999909
 31
0.0
1001
ACDBBLOCKREPETAG
1070
     1
1071
      387
1005
12D255
  0
LINE
  5
12D256
  8
OBJECT
 10
3847.000000000015
 20
-145.49999999999909
 30
0.0
 11
3847.000000000015
 21
-254.49999999999909
 31
0.0
1001
ACDBBLOCKREPETAG
1070
     1
1071
      388
1005
12D256
  0
LINE
  5
12D257
  8
OBJECT
 10
3843.0000000000159
 20
-258.99999999999909
 30
0.0
 11
3847.000000000015
 21
-254.49999999999909
 31
0.0
1001
ACDBBLOCKREPETAG
1070
     1
1071
      389
1005
12D257
  0
LINE
  5
12D258
  8
OBJECT
 10
3843.0000000000159
 20
-140.99999999999909
 30
0.0
 11
3847.000000000015
 21
-145.49999999999909
 31
0.0
1001
ACDBBLOCKREPETAG
1070
     1
1071
      390
1005
12D258
  0
LINE
  5
12D259
  8
OBJECT
 10
3927.0
 20
-261.99999999999909
 30
0.0
 11
3930.0
 21
-261.99999999999909
 31
0.0
1001
ACDBBLOCKREPETAG
1070
     1
1071
      391
1005
12D259
  0
ARC
  5
12D25A
  8
OBJECT
 10
3927.0
 20
-258.99999999999909
 30
0.0
 40
3.0
 50
180.0
 51
270.0
1001
ACDBBLOCKREPETAG
1070
     1
1071
      392
1005
12D25A
  0
LINE
  5
12D25B
  8
OBJECT
 10
3930.0
 20
-137.99999999999909
 30
0.0
 11
3927.0
 21
-137.99999999999909
 31
0.0
1001
ACDBBLOCKREPETAG
1070
     1
1071
      393
1005
12D25B
  0
ARC
  5
12D25C
  8
OBJECT
 10
3927.0
 20
-140.99999999999909
 30
0.0
 40
3.0
 50
90.0
 51
180.0
1001
ACDBBLOCKREPETAG
1070
     1
1071
      394
1005
12D25C
  0
LINE
  5
12D25D
  8
OBJECT
 10
3924.0
 20
-140.99999999999909
 30
0.0
 11
3924.0
 21
-189.6772096796403
 31
0.0
1001
ACDBBLOCKREPETAG
1070
     1
1071
      395
1005
12D25D
  0
LINE
  5
12D25E
  8
OBJECT
 10
3924.0
 20
-210.3227903203578
 30
0.0
 11
3924.0
 21
-258.99999999999909
 31
0.0
1001
ACDBBLOCKREPETAG
1070
     1
1071
      396
1005
12D25E
  0
LINE
  5
12D25F
  8
HIDDEN
 10
3852.0000000000141
 20
-244.49999999999909
 30
0.0
 11
3852.0000000000141
 21
-155.49999999999909
 31
0.0
1001
ACDBBLOCKREPETAG
1070
     1
1071
      397
1005
12D25F
  0
LINE
  5
12D260
  8
OBJECT
 10
3860.0000250358139
 20
-145.50004907618759
 30
0.0
 11
3860.0000250358139
 21
-254.50004907618771
 31
0.0
1001
ACDBBLOCKREPETAG
1070
     1
1071
      399
1005
12D260
  0
ARC
  5
12D261
  8
OBJECT
 10
3880.1999999999748
 20
-199.99999999999909
 30
0.0
 40
45.000000000000547
 50
270.0
 51
90.0
1001
ACDBBLOCKREPETAG
1070
     1
1071
      400
1005
12D261
  0
LINE
  5
12D262
  8
CENTER
 10
4000.0
 20
-290.99999999999898
 30
0.0
 11
4000.0
 21
-269.99999999999909
 31
0.0
1001
ACDBBLOCKREPETAG
1070
     1
1071
        0
1005
12D262
  0
LINE
  5
12D263
  8
OBJECT
 10
4062.0
 20
-273.0
 30
0.0
 11
4062.0
 21
-269.99999999999909
 31
0.0
1001
ACDBBLOCKREPETAG
1070
     1
1071
        1
1005
12D263
  0
ARC
  5
12D264
  8
OBJECT
 10
4059.0
 20
-273.0
 30
0.0
 40
3.0
 50
270.0
 51
0.0
1001
ACDBBLOCKREPETAG
1070
     1
1071
        2
1005
12D264
  0
LINE
  5
12D265
  8
OBJECT
 10
3938.0
 20
-269.99999999999909
 30
0.0
 11
3938.0
 21
-272.99999999999818
 31
0.0
1001
ACDBBLOCKREPETAG
1070
     1
1071
        3
1005
12D265
  0
ARC
  5
12D266
  8
OBJECT
 10
3941.0
 20
-272.99999999999818
 30
0.0
 40
3.0
 50
180.0
 51
270.0
1001
ACDBBLOCKREPETAG
1070
     1
1071
        4
1005
12D266
  0
LINE
  5
12D267
  8
OBJECT
 10
3941.0
 20
-275.99999999999818
 30
0.0
 11
4059.0
 21
-276.0
 31
0.0
1001
ACDBBLOCKREPETAG
1070
     1
1071
        5
1005
12D267
  0
LINE
  5
12D268
  8
OBJECT
 10
4123.0
 20
-663.99999999999966
 30
0.0
 11
4130.0
 21
-663.99999999999966
 31
0.0
1001
ACDBBLOCKREPETAG
1070
     1
1071
        7
1005
12D268
  0
LINE
  5
12D269
  8
OBJECT
 10
4130.0
 20
-663.99999999999966
 30
0.0
 11
4130.0
 21
-754.99999999999955
 31
0.0
1001
ACDBBLOCKREPETAG
1070
     1
1071
        8
1005
12D269
  0
LINE
  5
12D26A
  8
OBJECT
 10
4123.0
 20
-754.99999999999955
 30
0.0
 11
4123.0
 21
-663.99999999999966
 31
0.0
1001
ACDBBLOCKREPETAG
1070
     1
1071
        9
1005
12D26A
  0
LINE
  5
12D26B
  8
CENTER
 10
4145.0
 20
-710.99999999999955
 30
0.0
 11
4061.0
 21
-710.99999999999955
 31
0.0
1001
ACDBBLOCKREPETAG
1070
     1
1071
       10
1005
12D26B
  0
LINE
  5
12D26C
  8
OBJECT
 10
4123.0
 20
-666.99999999999955
 30
0.0
 11
4087.0
 21
-666.99999999999955
 31
0.0
1001
ACDBBLOCKREPETAG
1070
     1
1071
       11
1005
12D26C
  0
LINE
  5
12D26D
  8
OBJECT
 10
4087.0
 20
-666.99999999999955
 30
0.0
 11
4087.0
 21
-754.99999999999955
 31
0.0
1001
ACDBBLOCKREPETAG
1070
     1
1071
       12
1005
12D26D
  0
LINE
  5
12D26E
  8
OBJECT
 10
4087.0
 20
-754.99999999999955
 30
0.0
 11
4130.0
 21
-754.99999999999955
 31
0.0
1001
ACDBBLOCKREPETAG
1070
     1
1071
       13
1005
12D26E
  0
LINE
  5
12D26F
  8
OBJECT
 10
4083.0
 20
-671.49999999999955
 30
0.0
 11
4076.0
 21
-671.49999999999955
 31
0.0
1001
ACDBBLOCKREPETAG
1070
     1
1071
       14
1005
12D26F
  0
LINE
  5
12D270
  8
OBJECT
 10
4076.0
 20
-750.49999999999955
 30
0.0
 11
4083.0
 21
-750.49999999999955
 31
0.0
1001
ACDBBLOCKREPETAG
1070
     1
1071
       15
1005
12D270
  0
LINE
  5
12D271
  8
OBJECT
 10
4083.0
 20
-750.49999999999955
 30
0.0
 11
4083.0
 21
-671.49999999999955
 31
0.0
1001
ACDBBLOCKREPETAG
1070
     1
1071
       16
1005
12D271
  0
LINE
  5
12D272
  8
OBJECT
 10
4087.0
 20
-666.99999999999955
 30
0.0
 11
4083.0
 21
-671.49999999999955
 31
0.0
1001
ACDBBLOCKREPETAG
1070
     1
1071
       17
1005
12D272
  0
LINE
  5
12D273
  8
OBJECT
 10
4087.0
 20
-754.99999999999955
 30
0.0
 11
4083.0
 21
-750.49999999999955
 31
0.0
1001
ACDBBLOCKREPETAG
1070
     1
1071
       18
1005
12D273
  0
LINE
  5
12D274
  8
OBJECT
 10
4073.0
 20
-633.99999999999955
 30
0.0
 11
4070.0
 21
-633.99999999999955
 31
0.0
1001
ACDBBLOCKREPETAG
1070
     1
1071
       19
1005
12D274
  0
ARC
  5
12D275
  8
OBJECT
 10
4073.0
 20
-636.99999999999955
 30
0.0
 40
3.0
 50
0.0
 51
90.0
1001
ACDBBLOCKREPETAG
1070
     1
1071
       20
1005
12D275
  0
LINE
  5
12D276
  8
OBJECT
 10
4070.0
 20
-757.99999999999955
 30
0.0
 11
4073.0
 21
-757.99999999999955
 31
0.0
1001
ACDBBLOCKREPETAG
1070
     1
1071
       21
1005
12D276
  0
ARC
  5
12D277
  8
OBJECT
 10
4073.0
 20
-754.99999999999955
 30
0.0
 40
3.0
 50
270.0
 51
0.0
1001
ACDBBLOCKREPETAG
1070
     1
1071
       22
1005
12D277
  0
LINE
  5
12D278
  8
OBJECT
 10
4076.0
 20
-754.99999999999955
 30
0.0
 11
4076.0
 21
-636.99999999999955
 31
0.0
1001
ACDBBLOCKREPETAG
1070
     1
1071
       23
1005
12D278
  0
LINE
  5
12D279
  8
HIDDEN
 10
4078.0
 20
-680.99999999999955
 30
0.0
 11
4078.0
 21
-740.99999999999955
 31
0.0
1001
ACDBBLOCKREPETAG
1070
     1
1071
       24
1005
12D279
  0
LINE
  5
12D27A
  8
OBJECT
 10
4123.0
 20
-152.99999999999909
 30
0.0
 11
4130.0
 21
-152.99999999999909
 31
0.0
1001
ACDBBLOCKREPETAG
1070
     1
1071
        7
1005
12D27A
  0
LINE
  5
12D27B
  8
OBJECT
 10
4130.0
 20
-152.99999999999909
 30
0.0
 11
4130.0
 21
-246.99999999999909
 31
0.0
1001
ACDBBLOCKREPETAG
1070
     1
1071
        8
1005
12D27B
  0
LINE
  5
12D27C
  8
OBJECT
 10
4130.0
 20
-246.99999999999909
 30
0.0
 11
4123.0
 21
-246.99999999999909
 31
0.0
1001
ACDBBLOCKREPETAG
1070
     1
1071
        9
1005
12D27C
  0
LINE
  5
12D27D
  8
OBJECT
 10
4123.0
 20
-246.99999999999909
 30
0.0
 11
4123.0
 21
-152.99999999999909
 31
0.0
1001
ACDBBLOCKREPETAG
1070
     1
1071
       10
1005
12D27D
  0
LINE
  5
12D27E
  8
CENTER
 10
4145.0
 20
-199.99999999999909
 30
0.0
 11
4070.0
 21
-199.99999999999909
 31
0.0
1001
ACDBBLOCKREPETAG
1070
     1
1071
       11
1005
12D27E
  0
LINE
  5
12D27F
  8
OBJECT
 10
4123.0
 20
-155.99999999999909
 30
0.0
 11
4087.0
 21
-155.99999999999909
 31
0.0
1001
ACDBBLOCKREPETAG
1070
     1
1071
       12
1005
12D27F
  0
LINE
  5
12D280
  8
OBJECT
 10
4087.0
 20
-155.99999999999909
 30
0.0
 11
4087.0
 21
-243.99999999999909
 31
0.0
1001
ACDBBLOCKREPETAG
1070
     1
1071
       13
1005
12D280
  0
LINE
  5
12D281
  8
OBJECT
 10
4087.0
 20
-243.99999999999909
 30
0.0
 11
4123.0
 21
-243.99999999999909
 31
0.0
1001
ACDBBLOCKREPETAG
1070
     1
1071
       14
1005
12D281
  0
LINE
  5
12D282
  8
OBJECT
 10
4083.0
 20
-160.49999999999909
 30
0.0
 11
4076.0
 21
-160.49999999999909
 31
0.0
1001
ACDBBLOCKREPETAG
1070
     1
1071
       15
1005
12D282
  0
LINE
  5
12D283
  8
OBJECT
 10
4076.0
 20
-239.49999999999909
 30
0.0
 11
4083.0
 21
-239.49999999999909
 31
0.0
1001
ACDBBLOCKREPETAG
1070
     1
1071
       16
1005
12D283
  0
LINE
  5
12D284
  8
OBJECT
 10
4083.0
 20
-239.49999999999909
 30
0.0
 11
4083.0
 21
-160.49999999999909
 31
0.0
1001
ACDBBLOCKREPETAG
1070
     1
1071
       17
1005
12D284
  0
LINE
  5
12D285
  8
OBJECT
 10
4087.0
 20
-155.99999999999909
 30
0.0
 11
4083.0
 21
-160.49999999999909
 31
0.0
1001
ACDBBLOCKREPETAG
1070
     1
1071
       18
1005
12D285
  0
LINE
  5
12D286
  8
OBJECT
 10
4087.0
 20
-243.99999999999909
 30
0.0
 11
4083.0
 21
-239.49999999999909
 31
0.0
1001
ACDBBLOCKREPETAG
1070
     1
1071
       19
1005
12D286
  0
LINE
  5
12D287
  8
OBJECT
 10
4073.0
 20
-137.99999999999909
 30
0.0
 11
4070.0
 21
-137.99999999999909
 31
0.0
1001
ACDBBLOCKREPETAG
1070
     1
1071
       20
1005
12D287
  0
ARC
  5
12D288
  8
OBJECT
 10
4073.0
 20
-140.99999999999909
 30
0.0
 40
3.0
 50
0.0
 51
90.0
1001
ACDBBLOCKREPETAG
1070
     1
1071
       21
1005
12D288
  0
LINE
  5
12D289
  8
OBJECT
 10
4070.0
 20
-261.99999999999909
 30
0.0
 11
4073.0
 21
-261.99999999999909
 31
0.0
1001
ACDBBLOCKREPETAG
1070
     1
1071
       22
1005
12D289
  0
ARC
  5
12D28A
  8
OBJECT
 10
4073.0
 20
-258.99999999999909
 30
0.0
 40
3.0
 50
270.0
 51
0.0
1001
ACDBBLOCKREPETAG
1070
     1
1071
       23
1005
12D28A
  0
LINE
  5
12D28B
  8
OBJECT
 10
4076.0
 20
-258.99999999999909
 30
0.0
 11
4076.0
 21
-140.99999999999909
 31
0.0
1001
ACDBBLOCKREPETAG
1070
     1
1071
       24
1005
12D28B
  0
LINE
  5
12D28C
  8
HIDDEN
 10
4078.0
 20
-169.99999999999909
 30
0.0
 11
4078.0
 21
-229.99999999999909
 31
0.0
1001
ACDBBLOCKREPETAG
1070
     1
1071
       25
1005
12D28C
  0
TEXT
  5
12D28D
  8
SLIM
 10
-18.199999999999999
 20
-1004.000000000006
 30
0.0
 40
52.0
  1
（特）：特注品。大便器の接続が
 41
0.75
1001
ACDBBLOCKREPETAG
1070
     1
1071
       46
1005
12BDEA
  0
TEXT
  5
12D28E
  8
SLIM
 10
0.0
 20
-1073.3333333333401
 30
0.0
 40
52.0
  1
無いことを確認した場合のみ製作。
 41
0.75
1001
ACDBBLOCKREPETAG
1070
     1
1071
       46
1005
12BDEA
  0
ARC
  5
12D28F
  8
OBJECT
 10
180.0
 20
-624.99999999999977
 30
0.0
 40
70.0
 50
152.33955010081621
 51
207.6604498991837
1001
ACDBBLOCKREPETAG
1070
     1
1071
        0
1005
12D28F
  0
CIRCLE
  5
12D290
  8
OBJECT
 10
180.0
 20
-624.99999999999977
 30
0.0
 40
65.0
1001
ACDBBLOCKREPETAG
1070
     1
1071
        1
1005
12D290
  0
CIRCLE
  5
12D291
  8
OBJECT
 10
180.0
 20
-624.99999999999977
 30
0.0
 40
50.5
1001
ACDBBLOCKREPETAG
1070
     1
1071
        3
1005
12D291
  0
LINE
  5
12D292
  8
OBJECT
 10
118.0
 20
-554.99999999999807
 30
0.0
 11
118.0
 21
-605.48077870405643
 31
0.0
1001
ACDBBLOCKREPETAG
1070
     1
1071
        4
1005
12D292
  0
LINE
  5
12D293
  8
OBJECT
 10
118.0
 20
-694.99999999999955
 30
0.0
 11
118.0
 21
-644.51922129594288
 31
0.0
1001
ACDBBLOCKREPETAG
1070
     1
1071
        5
1005
12D293
  0
LINE
  5
12D294
  8
OBJECT
 10
242.0
 20
-694.99999999999955
 30
0.0
 11
242.0
 21
-686.99999999999955
 31
0.0
1001
ACDBBLOCKREPETAG
1070
     1
1071
        6
1005
12D294
  0
LINE
  5
12D295
  8
OBJECT
 10
250.0
 20
-686.99999999999955
 30
0.0
 11
242.0
 21
-686.99999999999955
 31
0.0
1001
ACDBBLOCKREPETAG
1070
     1
1071
        7
1005
12D295
  0
LINE
  5
12D296
  8
OBJECT
 10
242.0
 20
-554.99999999999807
 30
0.0
 11
242.0
 21
-562.99999999999977
 31
0.0
1001
ACDBBLOCKREPETAG
1070
     1
1071
        8
1005
12D296
  0
LINE
  5
12D297
  8
OBJECT
 10
250.0
 20
-562.99999999999977
 30
0.0
 11
242.0
 21
-562.99999999999977
 31
0.0
1001
ACDBBLOCKREPETAG
1070
     1
1071
        9
1005
12D297
  0
LINE
  5
12D298
  8
OBJECT
 10
225.96194077712559
 20
-670.96194077712539
 30
0.0
 11
242.0
 21
-686.99999999999955
 31
0.0
1001
ACDBBLOCKREPETAG
1070
     1
1071
       21
1005
12D298
  0
LINE
  5
12D299
  8
OBJECT
 10
225.96194077712559
 20
-579.03805922287415
 30
0.0
 11
242.0
 21
-562.99999999999977
 31
0.0
1001
ACDBBLOCKREPETAG
1070
     1
1071
       22
1005
12D299
  0
POINT
  5
12D29A
  8
DOTS
 10
180.0
 20
-624.99999999999977
 30
0.0
1001
ACDBBLOCKREPETAG
1070
     1
1071
       23
1005
12D29A
  0
POINT
  5
12D29B
  8
DOTS
 10
180.0
 20
-624.99999999999977
 30
0.0
 50
270.0
1001
ACDBBLOCKREPETAG
1070
     1
1071
       46
1005
12D29B
  0
LINE
  5
12D29C
  8
OBJECT
 10
242.0
 20
-817.99999999998522
 30
0.0
 11
242.0
 21
-824.99999999998522
 31
0.0
1001
ACDBBLOCKREPETAG
1070
     1
1071
      347
1005
12D29C
  0
LINE
  5
12D29D
  8
OBJECT
 10
242.0
 20
-824.99999999998522
 30
0.0
 11
118.0
 21
-824.99999999998522
 31
0.0
1001
ACDBBLOCKREPETAG
1070
     1
1071
      348
1005
12D29D
  0
LINE
  5
12D29E
  8
OBJECT
 10
118.0
 20
-824.99999999998522
 30
0.0
 11
118.0
 21
-817.99999999998522
 31
0.0
1001
ACDBBLOCKREPETAG
1070
     1
1071
      349
1005
12D29E
  0
LINE
  5
12D29F
  8
OBJECT
 10
118.0
 20
-817.99999999998522
 30
0.0
 11
242.0
 21
-817.99999999998522
 31
0.0
1001
ACDBBLOCKREPETAG
1070
     1
1071
      350
1005
12D29F
  0
LINE
  5
12D2A0
  8
OBJECT
 10
134.99999999999631
 20
-764.99997496418621
 30
0.0
 11
135.0
 21
-700.99999999999898
 31
0.0
1001
ACDBBLOCKREPETAG
1070
     1
1071
      351
1005
12D2A0
  0
LINE
  5
12D2A1
  8
OBJECT
 10
225.0
 20
-764.99997496418621
 30
0.0
 11
225.0
 21
-701.00000000000045
 31
0.0
1001
ACDBBLOCKREPETAG
1070
     1
1071
      352
1005
12D2A1
  0
LINE
  5
12D2A2
  8
OBJECT
 10
239.0
 20
-817.99999999998522
 30
0.0
 11
239.0
 21
-781.99999999998511
 31
0.0
1001
ACDBBLOCKREPETAG
1070
     1
1071
      353
1005
12D2A2
  0
LINE
  5
12D2A3
  8
OBJECT
 10
239.0
 20
-781.99999999998511
 30
0.0
 11
121.0
 21
-781.99999999998511
 31
0.0
1001
ACDBBLOCKREPETAG
1070
     1
1071
      354
1005
12D2A3
  0
LINE
  5
12D2A4
  8
OBJECT
 10
121.0
 20
-781.99999999998511
 30
0.0
 11
121.0
 21
-817.99999999998522
 31
0.0
1001
ACDBBLOCKREPETAG
1070
     1
1071
      355
1005
12D2A4
  0
LINE
  5
12D2A5
  8
OBJECT
 10
234.5
 20
-777.99999999998522
 30
0.0
 11
234.5
 21
-764.99999999998522
 31
0.0
1001
ACDBBLOCKREPETAG
1070
     1
1071
      356
1005
12D2A5
  0
LINE
  5
12D2A6
  8
OBJECT
 10
125.5
 20
-764.99999999998522
 30
0.0
 11
125.5
 21
-777.99999999998522
 31
0.0
1001
ACDBBLOCKREPETAG
1070
     1
1071
      357
1005
12D2A6
  0
LINE
  5
12D2A7
  8
OBJECT
 10
125.5
 20
-777.99999999998522
 30
0.0
 11
234.5
 21
-777.99999999998522
 31
0.0
1001
ACDBBLOCKREPETAG
1070
     1
1071
      358
1005
12D2A7
  0
LINE
  5
12D2A8
  8
OBJECT
 10
239.0
 20
-781.99999999998511
 30
0.0
 11
234.5
 21
-777.99999999998522
 31
0.0
1001
ACDBBLOCKREPETAG
1070
     1
1071
      359
1005
12D2A8
  0
LINE
  5
12D2A9
  8
OBJECT
 10
121.0
 20
-781.99999999998511
 30
0.0
 11
125.5
 21
-777.99999999998522
 31
0.0
1001
ACDBBLOCKREPETAG
1070
     1
1071
      360
1005
12D2A9
  0
LINE
  5
12D2AA
  8
OBJECT
 10
242.0
 20
-698.00000000000045
 30
0.0
 11
242.0
 21
-694.99999999999955
 31
0.0
1001
ACDBBLOCKREPETAG
1070
     1
1071
      361
1005
12D2AA
  0
ARC
  5
12D2AB
  8
OBJECT
 10
239.0
 20
-698.00000000000045
 30
0.0
 40
3.0
 50
270.0
 51
0.0
1001
ACDBBLOCKREPETAG
1070
     1
1071
      362
1005
12D2AB
  0
LINE
  5
12D2AC
  8
OBJECT
 10
118.0
 20
-694.99999999999955
 30
0.0
 11
118.0
 21
-697.99999999999875
 31
0.0
1001
ACDBBLOCKREPETAG
1070
     1
1071
      363
1005
12D2AC
  0
ARC
  5
12D2AD
  8
OBJECT
 10
121.0
 20
-697.99999999999875
 30
0.0
 40
3.0
 50
180.0
 51
270.0
1001
ACDBBLOCKREPETAG
1070
     1
1071
      364
1005
12D2AD
  0
LINE
  5
12D2AE
  8
OBJECT
 10
121.0
 20
-700.99999999999898
 30
0.0
 11
169.67720967964121
 21
-701.00000000000045
 31
0.0
1001
ACDBBLOCKREPETAG
1070
     1
1071
      365
1005
12D2AE
  0
LINE
  5
12D2AF
  8
OBJECT
 10
190.32279032035871
 20
-700.99999999999966
 30
0.0
 11
239.0
 21
-701.00000000000045
 31
0.0
1001
ACDBBLOCKREPETAG
1070
     1
1071
      366
1005
12D2AF
  0
LINE
  5
12D2B0
  8
OBJECT
 10
125.5000490761886
 20
-764.99997496418621
 30
0.0
 11
234.5000490761885
 21
-764.99997496418621
 31
0.0
1001
ACDBBLOCKREPETAG
1070
     1
1071
      368
1005
12D2B0
  0
ARC
  5
12D2B1
  8
OBJECT
 10
180.0
 20
-744.80000000002258
 30
0.0
 40
45.000000000000547
 50
0.0
 51
180.0
1001
ACDBBLOCKREPETAG
1070
     1
1071
      369
1005
12D2B1
  0
INSERT
  5
12D2B2
  8
OBJECT
  2
*U3
 10
0.0
 20
0.0
 30
0.0
  0
INSERT
  5
12D2B3
  8
OBJECT
  2
*U4
 10
0.0
 20
0.0
 30
0.0
  0
LINE
  5
12D2B4
  8
HIDDEN
 10
224.5
 20
-772.99999999998522
 30
0.0
 11
135.5
 21
-772.99999999998522
 31
0.0
1001
ACDBBLOCKREPETAG
1070
     1
1071
      436
1005
12D2B4
  0
LINE
  5
12D2B5
  8
OBJECT
 10
253.0
 20
-686.99999999999955
 30
0.0
 11
250.0
 21
-686.99999999999955
 31
0.0
1001
ACDBBLOCKREPETAG
1070
     1
1071
      418
1005
12D2B5
  0
ARC
  5
12D2B6
  8
OBJECT
 10
253.0
 20
-683.99999999999977
 30
0.0
 40
3.0
 50
270.0
 51
0.0
1001
ACDBBLOCKREPETAG
1070
     1
1071
      419
1005
12D2B6
  0
LINE
  5
12D2B7
  8
OBJECT
 10
250.0
 20
-562.99999999999977
 30
0.0
 11
253.0
 21
-562.99999999999977
 31
0.0
1001
ACDBBLOCKREPETAG
1070
     1
1071
      420
1005
12D2B7
  0
ARC
  5
12D2B8
  8
OBJECT
 10
253.0
 20
-565.99999999999955
 30
0.0
 40
3.0
 50
0.0
 51
90.0
1001
ACDBBLOCKREPETAG
1070
     1
1071
      421
1005
12D2B8
  0
LINE
  5
12D2B9
  8
OBJECT
 10
256.0
 20
-565.99999999999955
 30
0.0
 11
256.0
 21
-683.99999999999977
 31
0.0
1001
ACDBBLOCKREPETAG
1070
     1
1071
      422
1005
12D2B9
  0
INSERT
  5
12D2BA
  8
OBJECT
  2
*U5
 10
0.0
 20
0.0
 30
0.0
  0
LINE
  5
12D2BB
  8
OBJECT
 10
118.0
 20
-501.99999999999801
 30
0.0
 11
118.0
 21
-494.99999999999778
 31
0.0
1001
ACDBBLOCKREPETAG
1070
     1
1071
       39
1005
12D2BB
  0
LINE
  5
12D2BC
  8
OBJECT
 10
118.0
 20
-494.99999999999778
 30
0.0
 11
242.0
 21
-494.99999999999778
 31
0.0
1001
ACDBBLOCKREPETAG
1070
     1
1071
       40
1005
12D2BC
  0
LINE
  5
12D2BD
  8
OBJECT
 10
242.0
 20
-494.99999999999778
 30
0.0
 11
242.0
 21
-501.99999999999801
 31
0.0
1001
ACDBBLOCKREPETAG
1070
     1
1071
       41
1005
12D2BD
  0
LINE
  5
12D2BE
  8
OBJECT
 10
242.0
 20
-501.99999999999801
 30
0.0
 11
118.0
 21
-501.99999999999801
 31
0.0
1001
ACDBBLOCKREPETAG
1070
     1
1071
       42
1005
12D2BE
  0
LINE
  5
12D2BF
  8
OBJECT
 10
121.0
 20
-501.99999999999801
 30
0.0
 11
121.0
 21
-537.99999999999795
 31
0.0
1001
ACDBBLOCKREPETAG
1070
     1
1071
       43
1005
12D2BF
  0
LINE
  5
12D2C0
  8
OBJECT
 10
121.0
 20
-537.99999999999795
 30
0.0
 11
239.0
 21
-537.99999999999795
 31
0.0
1001
ACDBBLOCKREPETAG
1070
     1
1071
       44
1005
12D2C0
  0
LINE
  5
12D2C1
  8
OBJECT
 10
239.0
 20
-537.99999999999795
 30
0.0
 11
239.0
 21
-501.99999999999801
 31
0.0
1001
ACDBBLOCKREPETAG
1070
     1
1071
       45
1005
12D2C1
  0
LINE
  5
12D2C2
  8
OBJECT
 10
125.5
 20
-541.99999999999795
 30
0.0
 11
125.5
 21
-548.99999999999795
 31
0.0
1001
ACDBBLOCKREPETAG
1070
     1
1071
       46
1005
12D2C2
  0
LINE
  5
12D2C3
  8
OBJECT
 10
234.5
 20
-548.99999999999795
 30
0.0
 11
234.5
 21
-541.99999999999795
 31
0.0
1001
ACDBBLOCKREPETAG
1070
     1
1071
       47
1005
12D2C3
  0
LINE
  5
12D2C4
  8
OBJECT
 10
234.5
 20
-541.99999999999795
 30
0.0
 11
125.5
 21
-541.99999999999795
 31
0.0
1001
ACDBBLOCKREPETAG
1070
     1
1071
       48
1005
12D2C4
  0
LINE
  5
12D2C5
  8
OBJECT
 10
121.0
 20
-537.99999999999795
 30
0.0
 11
125.5
 21
-541.99999999999795
 31
0.0
1001
ACDBBLOCKREPETAG
1070
     1
1071
       49
1005
12D2C5
  0
LINE
  5
12D2C6
  8
OBJECT
 10
239.0
 20
-537.99999999999795
 30
0.0
 11
234.5
 21
-541.99999999999795
 31
0.0
1001
ACDBBLOCKREPETAG
1070
     1
1071
       50
1005
12D2C6
  0
LINE
  5
12D2C7
  8
OBJECT
 10
118.0
 20
-551.99999999999693
 30
0.0
 11
118.0
 21
-554.99999999999807
 31
0.0
1001
ACDBBLOCKREPETAG
1070
     1
1071
       51
1005
12D2C7
  0
ARC
  5
12D2C8
  8
OBJECT
 10
121.0
 20
-551.99999999999693
 30
0.0
 40
3.0
 50
90.0
 51
180.0
1001
ACDBBLOCKREPETAG
1070
     1
1071
       52
1005
12D2C8
  0
LINE
  5
12D2C9
  8
OBJECT
 10
242.0
 20
-554.99999999999807
 30
0.0
 11
242.0
 21
-551.99999999999875
 31
0.0
1001
ACDBBLOCKREPETAG
1070
     1
1071
       53
1005
12D2C9
  0
ARC
  5
12D2CA
  8
OBJECT
 10
239.0
 20
-551.99999999999875
 30
0.0
 40
3.0
 50
0.0
 51
90.0
1001
ACDBBLOCKREPETAG
1070
     1
1071
       54
1005
12D2CA
  0
LINE
  5
12D2CB
  8
OBJECT
 10
239.0
 20
-548.99999999999875
 30
0.0
 11
121.0
 21
-548.99999999999693
 31
0.0
1001
ACDBBLOCKREPETAG
1070
     1
1071
       55
1005
12D2CB
  0
LINE
  5
12D2CC
  8
HIDDEN
 10
135.5
 20
-546.99999999999807
 30
0.0
 11
224.5
 21
-546.99999999999807
 31
0.0
1001
ACDBBLOCKREPETAG
1070
     1
1071
      426
1005
12D2CC
  0
ARC
  5
12D2CD
  8
OBJECT
 10
540.0
 20
-160.99999999999969
 30
0.0
 40
70.0
 50
152.33955010081689
 51
207.66044989918311
1001
ACDBBLOCKREPETAG
1070
     1
1071
        0
1005
12D2CD
  0
CIRCLE
  5
12D2CE
  8
OBJECT
 10
540.0
 20
-160.99999999999969
 30
0.0
 40
65.0
1001
ACDBBLOCKREPETAG
1070
     1
1071
        1
1005
12D2CE
  0
CIRCLE
  5
12D2CF
  8
OBJECT
 10
540.0
 20
-160.99999999999969
 30
0.0
 40
50.5
1001
ACDBBLOCKREPETAG
1070
     1
1071
        3
1005
12D2CF
  0
LINE
  5
12D2D0
  8
OBJECT
 10
478.0
 20
-90.999999999997954
 30
0.0
 11
478.0
 21
-141.48077870405649
 31
0.0
1001
ACDBBLOCKREPETAG
1070
     1
1071
        4
1005
12D2D0
  0
LINE
  5
12D2D1
  8
OBJECT
 10
478.0
 20
-230.9999999999998
 30
0.0
 11
478.0
 21
-180.51922129594291
 31
0.0
1001
ACDBBLOCKREPETAG
1070
     1
1071
        5
1005
12D2D1
  0
LINE
  5
12D2D2
  8
OBJECT
 10
602.0
 20
-230.9999999999998
 30
0.0
 11
602.0
 21
-222.9999999999998
 31
0.0
1001
ACDBBLOCKREPETAG
1070
     1
1071
        6
1005
12D2D2
  0
LINE
  5
12D2D3
  8
OBJECT
 10
610.0
 20
-222.9999999999998
 30
0.0
 11
602.0
 21
-222.9999999999998
 31
0.0
1001
ACDBBLOCKREPETAG
1070
     1
1071
        7
1005
12D2D3
  0
LINE
  5
12D2D4
  8
OBJECT
 10
602.0
 20
-90.999999999997954
 30
0.0
 11
602.0
 21
-98.999999999999773
 31
0.0
1001
ACDBBLOCKREPETAG
1070
     1
1071
        8
1005
12D2D4
  0
LINE
  5
12D2D5
  8
OBJECT
 10
610.0
 20
-98.999999999999773
 30
0.0
 11
602.0
 21
-98.999999999999773
 31
0.0
1001
ACDBBLOCKREPETAG
1070
     1
1071
        9
1005
12D2D5
  0
LINE
  5
12D2D6
  8
OBJECT
 10
585.96194077712562
 20
-206.96194077712531
 30
0.0
 11
602.0
 21
-222.9999999999998
 31
0.0
1001
ACDBBLOCKREPETAG
1070
     1
1071
       21
1005
12D2D6
  0
LINE
  5
12D2D7
  8
OBJECT
 10
585.96194077712562
 20
-115.0380592228742
 30
0.0
 11
602.0
 21
-98.999999999999773
 31
0.0
1001
ACDBBLOCKREPETAG
1070
     1
1071
       22
1005
12D2D7
  0
POINT
  5
12D2D8
  8
DOTS
 10
540.0
 20
-160.99999999999969
 30
0.0
1001
ACDBBLOCKREPETAG
1070
     1
1071
       23
1005
12D2D8
  0
POINT
  5
12D2D9
  8
DOTS
 10
540.0
 20
-160.99999999999969
 30
0.0
 50
270.0
1001
ACDBBLOCKREPETAG
1070
     1
1071
       46
1005
12D2D9
  0
LINE
  5
12D2DA
  8
OBJECT
 10
602.0
 20
-353.99999999998522
 30
0.0
 11
602.0
 21
-360.99999999998522
 31
0.0
1001
ACDBBLOCKREPETAG
1070
     1
1071
      347
1005
12D2DA
  0
LINE
  5
12D2DB
  8
OBJECT
 10
602.0
 20
-360.99999999998522
 30
0.0
 11
478.0
 21
-360.99999999998522
 31
0.0
1001
ACDBBLOCKREPETAG
1070
     1
1071
      348
1005
12D2DB
  0
LINE
  5
12D2DC
  8
OBJECT
 10
478.0
 20
-360.99999999998522
 30
0.0
 11
478.0
 21
-353.99999999998522
 31
0.0
1001
ACDBBLOCKREPETAG
1070
     1
1071
      349
1005
12D2DC
  0
LINE
  5
12D2DD
  8
OBJECT
 10
478.0
 20
-353.99999999998522
 30
0.0
 11
602.0
 21
-353.99999999998522
 31
0.0
1001
ACDBBLOCKREPETAG
1070
     1
1071
      350
1005
12D2DD
  0
LINE
  5
12D2DE
  8
OBJECT
 10
494.99999999999631
 20
-300.99997496418632
 30
0.0
 11
495.0
 21
-236.99999999999889
 31
0.0
1001
ACDBBLOCKREPETAG
1070
     1
1071
      351
1005
12D2DE
  0
LINE
  5
12D2DF
  8
OBJECT
 10
585.0
 20
-300.99997496418632
 30
0.0
 11
585.0
 21
-237.0000000000008
 31
0.0
1001
ACDBBLOCKREPETAG
1070
     1
1071
      352
1005
12D2DF
  0
LINE
  5
12D2E0
  8
OBJECT
 10
599.0
 20
-353.99999999998522
 30
0.0
 11
599.0
 21
-317.99999999998522
 31
0.0
1001
ACDBBLOCKREPETAG
1070
     1
1071
      353
1005
12D2E0
  0
LINE
  5
12D2E1
  8
OBJECT
 10
599.0
 20
-317.99999999998522
 30
0.0
 11
481.0
 21
-317.99999999998522
 31
0.0
1001
ACDBBLOCKREPETAG
1070
     1
1071
      354
1005
12D2E1
  0
LINE
  5
12D2E2
  8
OBJECT
 10
481.0
 20
-317.99999999998522
 30
0.0
 11
481.0
 21
-353.99999999998522
 31
0.0
1001
ACDBBLOCKREPETAG
1070
     1
1071
      355
1005
12D2E2
  0
LINE
  5
12D2E3
  8
OBJECT
 10
594.5
 20
-313.99999999998522
 30
0.0
 11
594.5
 21
-300.99999999998522
 31
0.0
1001
ACDBBLOCKREPETAG
1070
     1
1071
      356
1005
12D2E3
  0
LINE
  5
12D2E4
  8
OBJECT
 10
485.5
 20
-300.99999999998522
 30
0.0
 11
485.5
 21
-313.99999999998522
 31
0.0
1001
ACDBBLOCKREPETAG
1070
     1
1071
      357
1005
12D2E4
  0
LINE
  5
12D2E5
  8
OBJECT
 10
485.5
 20
-313.99999999998522
 30
0.0
 11
594.5
 21
-313.99999999998522
 31
0.0
1001
ACDBBLOCKREPETAG
1070
     1
1071
      358
1005
12D2E5
  0
LINE
  5
12D2E6
  8
OBJECT
 10
599.0
 20
-317.99999999998522
 30
0.0
 11
594.5
 21
-313.99999999998522
 31
0.0
1001
ACDBBLOCKREPETAG
1070
     1
1071
      359
1005
12D2E6
  0
LINE
  5
12D2E7
  8
OBJECT
 10
481.0
 20
-317.99999999998522
 30
0.0
 11
485.5
 21
-313.99999999998522
 31
0.0
1001
ACDBBLOCKREPETAG
1070
     1
1071
      360
1005
12D2E7
  0
LINE
  5
12D2E8
  8
OBJECT
 10
602.0
 20
-234.00000000000071
 30
0.0
 11
602.0
 21
-230.9999999999998
 31
0.0
1001
ACDBBLOCKREPETAG
1070
     1
1071
      361
1005
12D2E8
  0
ARC
  5
12D2E9
  8
OBJECT
 10
599.0
 20
-234.00000000000071
 30
0.0
 40
3.0
 50
270.0
 51
0.0
1001
ACDBBLOCKREPETAG
1070
     1
1071
      362
1005
12D2E9
  0
LINE
  5
12D2EA
  8
OBJECT
 10
478.0
 20
-230.9999999999998
 30
0.0
 11
478.0
 21
-233.99999999999889
 31
0.0
1001
ACDBBLOCKREPETAG
1070
     1
1071
      363
1005
12D2EA
  0
ARC
  5
12D2EB
  8
OBJECT
 10
481.0
 20
-233.99999999999889
 30
0.0
 40
3.0
 50
180.0
 51
270.0
1001
ACDBBLOCKREPETAG
1070
     1
1071
      364
1005
12D2EB
  0
LINE
  5
12D2EC
  8
OBJECT
 10
481.0
 20
-236.99999999999889
 30
0.0
 11
529.67720967964124
 21
-237.0000000000008
 31
0.0
1001
ACDBBLOCKREPETAG
1070
     1
1071
      365
1005
12D2EC
  0
LINE
  5
12D2ED
  8
OBJECT
 10
550.32279032035865
 20
-236.9999999999998
 30
0.0
 11
599.0
 21
-237.0000000000008
 31
0.0
1001
ACDBBLOCKREPETAG
1070
     1
1071
      366
1005
12D2ED
  0
LINE
  5
12D2EE
  8
OBJECT
 10
485.50004907618847
 20
-300.99997496418632
 30
0.0
 11
594.50004907618836
 21
-300.99997496418632
 31
0.0
1001
ACDBBLOCKREPETAG
1070
     1
1071
      368
1005
12D2EE
  0
ARC
  5
12D2EF
  8
OBJECT
 10
540.0
 20
-280.80000000002269
 30
0.0
 40
45.000000000000547
 50
0.0
 51
180.0
1001
ACDBBLOCKREPETAG
1070
     1
1071
      369
1005
12D2EF
  0
INSERT
  5
12D2F0
  8
OBJECT
  2
*U6
 10
0.0
 20
0.0
 30
0.0
  0
INSERT
  5
12D2F1
  8
OBJECT
  2
*U7
 10
0.0
 20
0.0
 30
0.0
  0
LINE
  5
12D2F2
  8
HIDDEN
 10
584.49999999999977
 20
-308.99999999998522
 30
0.0
 11
495.5
 21
-308.99999999998522
 31
0.0
1001
ACDBBLOCKREPETAG
1070
     1
1071
      436
1005
12D2F2
  0
LINE
  5
12D2F3
  8
OBJECT
 10
613.0
 20
-222.9999999999998
 30
0.0
 11
610.0
 21
-222.9999999999998
 31
0.0
1001
ACDBBLOCKREPETAG
1070
     1
1071
      418
1005
12D2F3
  0
ARC
  5
12D2F4
  8
OBJECT
 10
613.0
 20
-219.9999999999998
 30
0.0
 40
3.0
 50
270.0
 51
0.0
1001
ACDBBLOCKREPETAG
1070
     1
1071
      419
1005
12D2F4
  0
LINE
  5
12D2F5
  8
OBJECT
 10
610.0
 20
-98.999999999999773
 30
0.0
 11
613.0
 21
-98.999999999999773
 31
0.0
1001
ACDBBLOCKREPETAG
1070
     1
1071
      420
1005
12D2F5
  0
ARC
  5
12D2F6
  8
OBJECT
 10
613.0
 20
-101.9999999999998
 30
0.0
 40
3.0
 50
0.0
 51
90.0
1001
ACDBBLOCKREPETAG
1070
     1
1071
      421
1005
12D2F6
  0
LINE
  5
12D2F7
  8
OBJECT
 10
616.0
 20
-101.9999999999998
 30
0.0
 11
616.0
 21
-219.9999999999998
 31
0.0
1001
ACDBBLOCKREPETAG
1070
     1
1071
      422
1005
12D2F7
  0
INSERT
  5
12D2F8
  8
OBJECT
  2
*U8
 10
0.0
 20
0.0
 30
0.0
  0
LINE
  5
12D2F9
  8
OBJECT
 10
485.0
 20
-37.999999999997947
 30
0.0
 11
485.0
 21
-30.99999999999795
 31
0.0
1001
ACDBBLOCKREPETAG
1070
     1
1071
       20
1005
12D2F9
  0
LINE
  5
12D2FA
  8
OBJECT
 10
485.0
 20
-30.99999999999795
 30
0.0
 11
595.0
 21
-30.99999999999795
 31
0.0
1001
ACDBBLOCKREPETAG
1070
     1
1071
       21
1005
12D2FA
  0
LINE
  5
12D2FB
  8
OBJECT
 10
595.0
 20
-30.99999999999795
 30
0.0
 11
595.0
 21
-37.999999999997947
 31
0.0
1001
ACDBBLOCKREPETAG
1070
     1
1071
       22
1005
12D2FB
  0
LINE
  5
12D2FC
  8
OBJECT
 10
595.0
 20
-37.999999999997947
 30
0.0
 11
485.0
 21
-37.999999999997947
 31
0.0
1001
ACDBBLOCKREPETAG
1070
     1
1071
       23
1005
12D2FC
  0
LINE
  5
12D2FD
  8
OBJECT
 10
488.0
 20
-37.999999999997947
 30
0.0
 11
488.0
 21
-73.999999999997954
 31
0.0
1001
ACDBBLOCKREPETAG
1070
     1
1071
       24
1005
12D2FD
  0
LINE
  5
12D2FE
  8
OBJECT
 10
488.0
 20
-73.999999999997954
 30
0.0
 11
592.0
 21
-73.999999999997954
 31
0.0
1001
ACDBBLOCKREPETAG
1070
     1
1071
       25
1005
12D2FE
  0
LINE
  5
12D2FF
  8
OBJECT
 10
592.0
 20
-73.999999999997954
 30
0.0
 11
592.0
 21
-37.999999999997947
 31
0.0
1001
ACDBBLOCKREPETAG
1070
     1
1071
       26
1005
12D2FF
  0
LINE
  5
12D300
  8
OBJECT
 10
492.49999999999989
 20
-77.999999999997954
 30
0.0
 11
492.49999999999989
 21
-84.999999999997954
 31
0.0
1001
ACDBBLOCKREPETAG
1070
     1
1071
       27
1005
12D300
  0
LINE
  5
12D301
  8
OBJECT
 10
587.5
 20
-84.999999999997954
 30
0.0
 11
587.5
 21
-77.999999999997954
 31
0.0
1001
ACDBBLOCKREPETAG
1070
     1
1071
       28
1005
12D301
  0
LINE
  5
12D302
  8
OBJECT
 10
587.5
 20
-77.999999999997954
 30
0.0
 11
492.49999999999989
 21
-77.999999999997954
 31
0.0
1001
ACDBBLOCKREPETAG
1070
     1
1071
       29
1005
12D302
  0
LINE
  5
12D303
  8
OBJECT
 10
488.0
 20
-73.999999999997954
 30
0.0
 11
492.49999999999989
 21
-77.999999999997954
 31
0.0
1001
ACDBBLOCKREPETAG
1070
     1
1071
       30
1005
12D303
  0
LINE
  5
12D304
  8
OBJECT
 10
592.0
 20
-73.999999999997954
 30
0.0
 11
587.5
 21
-77.999999999997954
 31
0.0
1001
ACDBBLOCKREPETAG
1070
     1
1071
       31
1005
12D304
  0
LINE
  5
12D305
  8
OBJECT
 10
478.0
 20
-87.999999999997044
 30
0.0
 11
478.0
 21
-90.999999999997954
 31
0.0
1001
ACDBBLOCKREPETAG
1070
     1
1071
       32
1005
12D305
  0
ARC
  5
12D306
  8
OBJECT
 10
481.0
 20
-87.999999999997044
 30
0.0
 40
3.0
 50
90.0
 51
180.0
1001
ACDBBLOCKREPETAG
1070
     1
1071
       33
1005
12D306
  0
LINE
  5
12D307
  8
OBJECT
 10
602.0
 20
-90.999999999997954
 30
0.0
 11
602.0
 21
-87.999999999998849
 31
0.0
1001
ACDBBLOCKREPETAG
1070
     1
1071
       34
1005
12D307
  0
ARC
  5
12D308
  8
OBJECT
 10
599.0
 20
-87.999999999998849
 30
0.0
 40
3.0
 50
0.0
 51
90.0
1001
ACDBBLOCKREPETAG
1070
     1
1071
       35
1005
12D308
  0
LINE
  5
12D309
  8
OBJECT
 10
599.0
 20
-84.999999999998835
 30
0.0
 11
481.0
 21
-84.999999999997044
 31
0.0
1001
ACDBBLOCKREPETAG
1070
     1
1071
       36
1005
12D309
  0
LINE
  5
12D30A
  8
HIDDEN
 10
502.0
 20
-82.999999999997954
 30
0.0
 11
578.0
 21
-82.999999999997954
 31
0.0
1001
ACDBBLOCKREPETAG
1070
     1
1071
      423
1005
12D30A
  0
TEXT
  5
12D30B
  8
SLIM
 10
61.028571428571396
 20
-908.0
 30
0.0
 40
48.0
  1
Z306（特）
 41
0.75
1001
ACDBBLOCKREPETAG
1070
     1
1071
       46
1005
0
  0
TEXT
  5
12D30C
  8
SLIM
 10
477.42857142857139
 20
-444.0
 30
0.0
 40
48.0
  1
Z206
 41
0.75
1001
ACDBBLOCKREPETAG
1070
     1
1071
       46
1005
0
  0
ARC
  5
12D30D
  8
OBJECT
 10
180.0
 20
-160.99999999999969
 30
0.0
 40
70.0
 50
152.33955010081621
 51
207.6604498991837
1001
ACDBBLOCKREPETAG
1070
     1
1071
        0
1005
12D30D
  0
CIRCLE
  5
12D30E
  8
OBJECT
 10
180.0
 20
-160.99999999999969
 30
0.0
 40
65.0
1001
ACDBBLOCKREPETAG
1070
     1
1071
        1
1005
12D30E
  0
CIRCLE
  5
12D30F
  8
OBJECT
 10
180.0
 20
-160.99999999999969
 30
0.0
 40
50.5
1001
ACDBBLOCKREPETAG
1070
     1
1071
        3
1005
12D30F
  0
LINE
  5
12D310
  8
OBJECT
 10
118.0
 20
-90.999999999997954
 30
0.0
 11
118.0
 21
-141.48077870405649
 31
0.0
1001
ACDBBLOCKREPETAG
1070
     1
1071
        4
1005
12D310
  0
LINE
  5
12D311
  8
OBJECT
 10
118.0
 20
-230.9999999999998
 30
0.0
 11
118.0
 21
-180.51922129594291
 31
0.0
1001
ACDBBLOCKREPETAG
1070
     1
1071
        5
1005
12D311
  0
LINE
  5
12D312
  8
OBJECT
 10
242.0
 20
-230.9999999999998
 30
0.0
 11
242.0
 21
-222.9999999999998
 31
0.0
1001
ACDBBLOCKREPETAG
1070
     1
1071
        6
1005
12D312
  0
LINE
  5
12D313
  8
OBJECT
 10
250.0
 20
-222.9999999999998
 30
0.0
 11
242.0
 21
-222.9999999999998
 31
0.0
1001
ACDBBLOCKREPETAG
1070
     1
1071
        7
1005
12D313
  0
LINE
  5
12D314
  8
OBJECT
 10
242.0
 20
-90.999999999997954
 30
0.0
 11
242.0
 21
-98.999999999999773
 31
0.0
1001
ACDBBLOCKREPETAG
1070
     1
1071
        8
1005
12D314
  0
LINE
  5
12D315
  8
OBJECT
 10
250.0
 20
-98.999999999999773
 30
0.0
 11
242.0
 21
-98.999999999999773
 31
0.0
1001
ACDBBLOCKREPETAG
1070
     1
1071
        9
1005
12D315
  0
LINE
  5
12D316
  8
OBJECT
 10
225.96194077712559
 20
-206.96194077712531
 30
0.0
 11
242.0
 21
-222.9999999999998
 31
0.0
1001
ACDBBLOCKREPETAG
1070
     1
1071
       21
1005
12D316
  0
LINE
  5
12D317
  8
OBJECT
 10
225.96194077712559
 20
-115.0380592228742
 30
0.0
 11
242.0
 21
-98.999999999999773
 31
0.0
1001
ACDBBLOCKREPETAG
1070
     1
1071
       22
1005
12D317
  0
POINT
  5
12D318
  8
DOTS
 10
180.0
 20
-160.99999999999969
 30
0.0
1001
ACDBBLOCKREPETAG
1070
     1
1071
       23
1005
12D318
  0
POINT
  5
12D319
  8
DOTS
 10
180.0
 20
-160.99999999999969
 30
0.0
 50
270.0
1001
ACDBBLOCKREPETAG
1070
     1
1071
       46
1005
12D319
  0
TEXT
  5
12D31A
  8
SLIM
 10
120.8571428571428
 20
-444.0
 30
0.0
 40
48.0
  1
Z106
 41
0.75
1001
ACDBBLOCKREPETAG
1070
     1
1071
       46
1005
0
  0
LINE
  5
12D31B
  8
OBJECT
 10
242.0
 20
-353.99999999998522
 30
0.0
 11
242.0
 21
-360.99999999998522
 31
0.0
1001
ACDBBLOCKREPETAG
1070
     1
1071
      347
1005
12D31B
  0
LINE
  5
12D31C
  8
OBJECT
 10
242.0
 20
-360.99999999998522
 30
0.0
 11
118.0
 21
-360.99999999998522
 31
0.0
1001
ACDBBLOCKREPETAG
1070
     1
1071
      348
1005
12D31C
  0
LINE
  5
12D31D
  8
OBJECT
 10
118.0
 20
-360.99999999998522
 30
0.0
 11
118.0
 21
-353.99999999998522
 31
0.0
1001
ACDBBLOCKREPETAG
1070
     1
1071
      349
1005
12D31D
  0
LINE
  5
12D31E
  8
OBJECT
 10
118.0
 20
-353.99999999998522
 30
0.0
 11
242.0
 21
-353.99999999998522
 31
0.0
1001
ACDBBLOCKREPETAG
1070
     1
1071
      350
1005
12D31E
  0
LINE
  5
12D31F
  8
OBJECT
 10
134.99999999999631
 20
-300.99997496418632
 30
0.0
 11
135.0
 21
-236.99999999999889
 31
0.0
1001
ACDBBLOCKREPETAG
1070
     1
1071
      351
1005
12D31F
  0
LINE
  5
12D320
  8
OBJECT
 10
225.0
 20
-300.99997496418632
 30
0.0
 11
225.0
 21
-237.0000000000008
 31
0.0
1001
ACDBBLOCKREPETAG
1070
     1
1071
      352
1005
12D320
  0
LINE
  5
12D321
  8
OBJECT
 10
239.0
 20
-353.99999999998522
 30
0.0
 11
239.0
 21
-317.99999999998522
 31
0.0
1001
ACDBBLOCKREPETAG
1070
     1
1071
      353
1005
12D321
  0
LINE
  5
12D322
  8
OBJECT
 10
239.0
 20
-317.99999999998522
 30
0.0
 11
121.0
 21
-317.99999999998522
 31
0.0
1001
ACDBBLOCKREPETAG
1070
     1
1071
      354
1005
12D322
  0
LINE
  5
12D323
  8
OBJECT
 10
121.0
 20
-317.99999999998522
 30
0.0
 11
121.0
 21
-353.99999999998522
 31
0.0
1001
ACDBBLOCKREPETAG
1070
     1
1071
      355
1005
12D323
  0
LINE
  5
12D324
  8
OBJECT
 10
234.5
 20
-313.99999999998522
 30
0.0
 11
234.5
 21
-300.99999999998522
 31
0.0
1001
ACDBBLOCKREPETAG
1070
     1
1071
      356
1005
12D324
  0
LINE
  5
12D325
  8
OBJECT
 10
125.5
 20
-300.99999999998522
 30
0.0
 11
125.5
 21
-313.99999999998522
 31
0.0
1001
ACDBBLOCKREPETAG
1070
     1
1071
      357
1005
12D325
  0
LINE
  5
12D326
  8
OBJECT
 10
125.5
 20
-313.99999999998522
 30
0.0
 11
234.5
 21
-313.99999999998522
 31
0.0
1001
ACDBBLOCKREPETAG
1070
     1
1071
      358
1005
12D326
  0
LINE
  5
12D327
  8
OBJECT
 10
239.0
 20
-317.99999999998522
 30
0.0
 11
234.5
 21
-313.99999999998522
 31
0.0
1001
ACDBBLOCKREPETAG
1070
     1
1071
      359
1005
12D327
  0
LINE
  5
12D328
  8
OBJECT
 10
121.0
 20
-317.99999999998522
 30
0.0
 11
125.5
 21
-313.99999999998522
 31
0.0
1001
ACDBBLOCKREPETAG
1070
     1
1071
      360
1005
12D328
  0
LINE
  5
12D329
  8
OBJECT
 10
242.0
 20
-234.00000000000071
 30
0.0
 11
242.0
 21
-230.9999999999998
 31
0.0
1001
ACDBBLOCKREPETAG
1070
     1
1071
      361
1005
12D329
  0
ARC
  5
12D32A
  8
OBJECT
 10
239.0
 20
-234.00000000000071
 30
0.0
 40
3.0
 50
270.0
 51
0.0
1001
ACDBBLOCKREPETAG
1070
     1
1071
      362
1005
12D32A
  0
LINE
  5
12D32B
  8
OBJECT
 10
118.0
 20
-230.9999999999998
 30
0.0
 11
118.0
 21
-233.99999999999889
 31
0.0
1001
ACDBBLOCKREPETAG
1070
     1
1071
      363
1005
12D32B
  0
ARC
  5
12D32C
  8
OBJECT
 10
121.0
 20
-233.99999999999889
 30
0.0
 40
3.0
 50
180.0
 51
270.0
1001
ACDBBLOCKREPETAG
1070
     1
1071
      364
1005
12D32C
  0
LINE
  5
12D32D
  8
OBJECT
 10
121.0
 20
-236.99999999999889
 30
0.0
 11
169.67720967964121
 21
-237.0000000000008
 31
0.0
1001
ACDBBLOCKREPETAG
1070
     1
1071
      365
1005
12D32D
  0
LINE
  5
12D32E
  8
OBJECT
 10
190.32279032035871
 20
-236.9999999999998
 30
0.0
 11
239.0
 21
-237.0000000000008
 31
0.0
1001
ACDBBLOCKREPETAG
1070
     1
1071
      366
1005
12D32E
  0
LINE
  5
12D32F
  8
OBJECT
 10
125.5000490761886
 20
-300.99997496418632
 30
0.0
 11
234.5000490761885
 21
-300.99997496418632
 31
0.0
1001
ACDBBLOCKREPETAG
1070
     1
1071
      368
1005
12D32F
  0
ARC
  5
12D330
  8
OBJECT
 10
180.0
 20
-280.80000000002269
 30
0.0
 40
45.000000000000547
 50
0.0
 51
180.0
1001
ACDBBLOCKREPETAG
1070
     1
1071
      369
1005
12D330
  0
INSERT
  5
12D331
  8
OBJECT
  2
*U9
 10
0.0
 20
0.0
 30
0.0
  0
INSERT
  5
12D332
  8
OBJECT
  2
*U10
 10
0.0
 20
0.0
 30
0.0
  0
LINE
  5
12D333
  8
HIDDEN
 10
224.5
 20
-308.99999999998522
 30
0.0
 11
135.5
 21
-308.99999999998522
 31
0.0
1001
ACDBBLOCKREPETAG
1070
     1
1071
      436
1005
12D333
  0
LINE
  5
12D334
  8
OBJECT
 10
253.0
 20
-222.9999999999998
 30
0.0
 11
250.0
 21
-222.9999999999998
 31
0.0
1001
ACDBBLOCKREPETAG
1070
     1
1071
      418
1005
12D334
  0
ARC
  5
12D335
  8
OBJECT
 10
253.0
 20
-219.9999999999998
 30
0.0
 40
3.0
 50
270.0
 51
0.0
1001
ACDBBLOCKREPETAG
1070
     1
1071
      419
1005
12D335
  0
LINE
  5
12D336
  8
OBJECT
 10
250.0
 20
-98.999999999999773
 30
0.0
 11
253.0
 21
-98.999999999999773
 31
0.0
1001
ACDBBLOCKREPETAG
1070
     1
1071
      420
1005
12D336
  0
ARC
  5
12D337
  8
OBJECT
 10
253.0
 20
-101.9999999999998
 30
0.0
 40
3.0
 50
0.0
 51
90.0
1001
ACDBBLOCKREPETAG
1070
     1
1071
      421
1005
12D337
  0
LINE
  5
12D338
  8
OBJECT
 10
256.0
 20
-101.9999999999998
 30
0.0
 11
256.0
 21
-219.9999999999998
 31
0.0
1001
ACDBBLOCKREPETAG
1070
     1
1071
      422
1005
12D338
  0
INSERT
  5
12D339
  8
OBJECT
  2
*U11
 10
0.0
 20
0.0
 30
0.0
  0
LINE
  5
12D33A
  8
OBJECT
 10
133.0
 20
-37.999999999997947
 30
0.0
 11
133.0
 21
-30.99999999999795
 31
0.0
1001
ACDBBLOCKREPETAG
1070
     1
1071
        1
1005
12D33A
  0
LINE
  5
12D33B
  8
OBJECT
 10
133.0
 20
-30.99999999999795
 30
0.0
 11
227.0
 21
-30.99999999999795
 31
0.0
1001
ACDBBLOCKREPETAG
1070
     1
1071
        2
1005
12D33B
  0
LINE
  5
12D33C
  8
OBJECT
 10
227.0
 20
-30.99999999999795
 30
0.0
 11
227.0
 21
-37.999999999997947
 31
0.0
1001
ACDBBLOCKREPETAG
1070
     1
1071
        3
1005
12D33C
  0
LINE
  5
12D33D
  8
OBJECT
 10
227.0
 20
-37.999999999997947
 30
0.0
 11
133.0
 21
-37.999999999997947
 31
0.0
1001
ACDBBLOCKREPETAG
1070
     1
1071
        4
1005
12D33D
  0
LINE
  5
12D33E
  8
OBJECT
 10
136.0
 20
-37.999999999997947
 30
0.0
 11
136.0
 21
-73.999999999997954
 31
0.0
1001
ACDBBLOCKREPETAG
1070
     1
1071
        5
1005
12D33E
  0
LINE
  5
12D33F
  8
OBJECT
 10
136.0
 20
-73.999999999997954
 30
0.0
 11
224.0
 21
-73.999999999997954
 31
0.0
1001
ACDBBLOCKREPETAG
1070
     1
1071
        6
1005
12D33F
  0
LINE
  5
12D340
  8
OBJECT
 10
224.0
 20
-73.999999999997954
 30
0.0
 11
224.0
 21
-37.999999999997947
 31
0.0
1001
ACDBBLOCKREPETAG
1070
     1
1071
        7
1005
12D340
  0
LINE
  5
12D341
  8
OBJECT
 10
140.5
 20
-77.999999999997954
 30
0.0
 11
140.5
 21
-84.999999999997954
 31
0.0
1001
ACDBBLOCKREPETAG
1070
     1
1071
        8
1005
12D341
  0
LINE
  5
12D342
  8
OBJECT
 10
219.5
 20
-84.999999999997954
 30
0.0
 11
219.5
 21
-77.999999999997954
 31
0.0
1001
ACDBBLOCKREPETAG
1070
     1
1071
        9
1005
12D342
  0
LINE
  5
12D343
  8
OBJECT
 10
219.5
 20
-77.999999999997954
 30
0.0
 11
140.5
 21
-77.999999999997954
 31
0.0
1001
ACDBBLOCKREPETAG
1070
     1
1071
       10
1005
12D343
  0
LINE
  5
12D344
  8
OBJECT
 10
136.0
 20
-73.999999999997954
 30
0.0
 11
140.5
 21
-77.999999999997954
 31
0.0
1001
ACDBBLOCKREPETAG
1070
     1
1071
       11
1005
12D344
  0
LINE
  5
12D345
  8
OBJECT
 10
224.0
 20
-73.999999999997954
 30
0.0
 11
219.5
 21
-77.999999999997954
 31
0.0
1001
ACDBBLOCKREPETAG
1070
     1
1071
       12
1005
12D345
  0
LINE
  5
12D346
  8
OBJECT
 10
118.0
 20
-87.999999999997044
 30
0.0
 11
118.0
 21
-90.999999999997954
 31
0.0
1001
ACDBBLOCKREPETAG
1070
     1
1071
       13
1005
12D346
  0
ARC
  5
12D347
  8
OBJECT
 10
121.0
 20
-87.999999999997044
 30
0.0
 40
3.0
 50
90.0
 51
180.0
1001
ACDBBLOCKREPETAG
1070
     1
1071
       14
1005
12D347
  0
LINE
  5
12D348
  8
OBJECT
 10
242.0
 20
-90.999999999997954
 30
0.0
 11
242.0
 21
-87.999999999998849
 31
0.0
1001
ACDBBLOCKREPETAG
1070
     1
1071
       15
1005
12D348
  0
ARC
  5
12D349
  8
OBJECT
 10
239.0
 20
-87.999999999998849
 30
0.0
 40
3.0
 50
0.0
 51
90.0
1001
ACDBBLOCKREPETAG
1070
     1
1071
       16
1005
12D349
  0
LINE
  5
12D34A
  8
OBJECT
 10
239.0
 20
-84.999999999998835
 30
0.0
 11
121.0
 21
-84.999999999997044
 31
0.0
1001
ACDBBLOCKREPETAG
1070
     1
1071
       17
1005
12D34A
  0
LINE
  5
12D34B
  8
HIDDEN
 10
150.0
 20
-82.999999999997954
 30
0.0
 11
210.0
 21
-82.999999999997954
 31
0.0
1001
ACDBBLOCKREPETAG
1070
     1
1071
      420
1005
12D34B
  0
CIRCLE
  5
12D34C
  8
OBJECT
 10
2000.0
 20
-695.99999999999955
 30
0.0
 40
62.0
1001
ACDBBLOCKREPETAG
1070
     1
1071
        0
1005
12D34C
  0
LINE
  5
12D34D
  8
CENTER
 10
2000.0
 20
-769.99999999999955
 30
0.0
 11
2000.0
 21
-613.99999999999966
 31
0.0
1001
ACDBBLOCKREPETAG
1070
     1
1071
        0
1005
12D34D
  0
LINE
  5
12D34E
  8
OBJECT
 10
1930.0
 20
-633.99999999999955
 30
0.0
 11
2070.0
 21
-633.99999999999955
 31
0.0
1001
ACDBBLOCKREPETAG
1070
     1
1071
        1
1005
12D34E
  0
LINE
  5
12D34F
  8
OBJECT
 10
1930.0
 20
-757.99999999999955
 30
0.0
 11
1930.0
 21
-769.99999999999955
 31
0.0
1001
ACDBBLOCKREPETAG
1070
     1
1071
        2
1005
12D34F
  0
LINE
  5
12D350
  8
OBJECT
 10
1930.0
 20
-769.99999999999955
 30
0.0
 11
2070.0
 21
-769.99999999999955
 31
0.0
1001
ACDBBLOCKREPETAG
1070
     1
1071
        3
1005
12D350
  0
LINE
  5
12D351
  8
OBJECT
 10
2070.0
 20
-769.99999999999955
 30
0.0
 11
2070.0
 21
-757.99999999999955
 31
0.0
1001
ACDBBLOCKREPETAG
1070
     1
1071
        4
1005
12D351
  0
LINE
  5
12D352
  8
OBJECT
 10
2070.0
 20
-757.99999999999955
 30
0.0
 11
1930.0
 21
-757.99999999999955
 31
0.0
1001
ACDBBLOCKREPETAG
1070
     1
1071
        5
1005
12D352
  0
ARC
  5
12D353
  8
OBJECT
 10
2435.0384389946771
 20
-998.60813684682694
 30
0.0
 40
519.48776673616965
 50
135.4235066743189
 51
138.50052655621499
1001
ACDBBLOCKREPETAG
1070
     1
1071
        9
1005
12D353
  0
ARC
  5
12D354
  8
OBJECT
 10
2435.0384389946771
 20
-393.39186315317193
 30
0.0
 40
519.48776673616965
 50
221.49947344378501
 51
224.57649332568101
1001
ACDBBLOCKREPETAG
1070
     1
1071
       10
1005
12D354
  0
ARC
  5
12D355
  8
OBJECT
 10
1564.961561005322
 20
-998.60813684682694
 30
0.0
 40
519.48776673616965
 50
41.499473443784993
 51
44.576493325681092
1001
ACDBBLOCKREPETAG
1070
     1
1071
       11
1005
12D355
  0
ARC
  5
12D356
  8
OBJECT
 10
1564.961561005322
 20
-393.39186315317193
 30
0.0
 40
519.48776673616965
 50
315.4235066743189
 51
318.50052655621488
1001
ACDBBLOCKREPETAG
1070
     1
1071
       12
1005
12D356
  0
LINE
  5
12D357
  8
OBJECT
 10
2047.5
 20
-628.99999999999955
 30
0.0
 11
1952.5
 21
-628.99999999999955
 31
0.0
1001
ACDBBLOCKREPETAG
1070
     1
1071
       24
1005
12D357
  0
ARC
  5
12D358
  8
OBJECT
 10
1952.5
 20
-631.99999999999955
 30
0.0
 40
3.0
 50
90.0
 51
180.0
1001
ACDBBLOCKREPETAG
1070
     1
1071
       25
1005
12D358
  0
LINE
  5
12D359
  8
OBJECT
 10
1949.5
 20
-631.99999999999955
 30
0.0
 11
1949.5
 21
-633.99999999999955
 31
0.0
1001
ACDBBLOCKREPETAG
1070
     1
1071
       26
1005
12D359
  0
LINE
  5
12D35A
  8
OBJECT
 10
2050.5
 20
-631.99999999999955
 30
0.0
 11
2050.5
 21
-633.99999999999955
 31
0.0
1001
ACDBBLOCKREPETAG
1070
     1
1071
       27
1005
12D35A
  0
ARC
  5
12D35B
  8
OBJECT
 10
2047.5
 20
-631.99999999999955
 30
0.0
 40
3.0
 50
0.0
 51
90.0
1001
ACDBBLOCKREPETAG
1070
     1
1071
       28
1005
12D35B
  0
POINT
  5
12D35C
  8
DOTS
 10
2000.0
 20
-754.99999999999955
 30
0.0
1001
ACDBBLOCKREPETAG
1070
     1
1071
       87
1005
12D35C
  0
LINE
  5
12D35D
  8
CENTER
 10
4400.0
 20
-3594.9999999999968
 30
0.0
 11
4400.0
 21
-3438.9999999999968
 31
0.0
1001
ACDBBLOCKREPETAG
1070
     1
1071
       13
1005
12D35D
  0
LINE
  5
12D35E
  8
OBJECT
 10
4330.0
 20
-3458.9999999999968
 30
0.0
 11
4465.0000101378164
 21
-3458.9999999999968
 31
0.0
1001
ACDBBLOCKREPETAG
1070
     1
1071
       14
1005
12D35E
  0
LINE
  5
12D35F
  8
OBJECT
 10
4335.0
 20
-3582.9999999999968
 30
0.0
 11
4330.0
 21
-3582.9999999999968
 31
0.0
1001
ACDBBLOCKREPETAG
1070
     1
1071
       18
1005
12D35F
  0
LINE
  5
12D360
  8
OBJECT
 10
4465.0000101378164
 20
-3583.0000021659148
 30
0.0
 11
4465.0000101378164
 21
-3458.9999999999968
 31
0.0
1001
ACDBBLOCKREPETAG
1070
     1
1071
       21
1005
12D360
  0
ARC
  5
12D361
  8
OBJECT
 10
3964.9615610053229
 20
-3823.6081368468249
 30
0.0
 40
519.48776673616965
 50
41.499473443784993
 51
44.576493325685597
1001
ACDBBLOCKREPETAG
1070
     1
1071
       22
1005
12D361
  0
ARC
  5
12D362
  8
OBJECT
 10
3964.9615610053229
 20
-3218.3918631531692
 30
0.0
 40
519.48776673616965
 50
315.42350667431441
 51
318.50052655621488
1001
ACDBBLOCKREPETAG
1070
     1
1071
       23
1005
12D362
  0
LINE
  5
12D363
  8
OBJECT
 10
4447.5
 20
-3453.9999999999968
 30
0.0
 11
4352.5
 21
-3453.9999999999968
 31
0.0
1001
ACDBBLOCKREPETAG
1070
     1
1071
       29
1005
12D363
  0
ARC
  5
12D364
  8
OBJECT
 10
4352.5
 20
-3456.9999999999968
 30
0.0
 40
3.0
 50
90.0
 51
180.0
1001
ACDBBLOCKREPETAG
1070
     1
1071
       30
1005
12D364
  0
LINE
  5
12D365
  8
OBJECT
 10
4349.4999999999991
 20
-3456.9999999999968
 30
0.0
 11
4349.4999999999991
 21
-3458.9999999999968
 31
0.0
1001
ACDBBLOCKREPETAG
1070
     1
1071
       31
1005
12D365
  0
LINE
  5
12D366
  8
OBJECT
 10
4450.5
 20
-3456.9999999999968
 30
0.0
 11
4450.5
 21
-3458.9999999999968
 31
0.0
1001
ACDBBLOCKREPETAG
1070
     1
1071
       32
1005
12D366
  0
ARC
  5
12D367
  8
OBJECT
 10
4447.5
 20
-3456.9999999999968
 30
0.0
 40
3.0
 50
0.0
 51
90.0
1001
ACDBBLOCKREPETAG
1070
     1
1071
       33
1005
12D367
  0
POINT
  5
12D368
  8
DOTS
 10
4400.0
 20
-3579.9999999999968
 30
0.0
1001
ACDBBLOCKREPETAG
1070
     1
1071
       88
1005
12D368
  0
LINE
  5
12D369
  8
CENTER
 10
4000.0
 20
-3594.9999999999968
 30
0.0
 11
4000.0
 21
-3438.9999999999968
 31
0.0
1001
ACDBBLOCKREPETAG
1070
     1
1071
        0
1005
12D369
  0
LINE
  5
12D36A
  8
OBJECT
 10
3930.0
 20
-3458.9999999999968
 30
0.0
 11
4069.9999999999991
 21
-3458.9999999999968
 31
0.0
1001
ACDBBLOCKREPETAG
1070
     1
1071
        1
1005
12D36A
  0
LINE
  5
12D36B
  8
OBJECT
 10
4069.9999999999991
 20
-3582.9999999999968
 30
0.0
 11
4064.9999999999982
 21
-3582.9999999999968
 31
0.0
1001
ACDBBLOCKREPETAG
1070
     1
1071
        5
1005
12D36B
  0
LINE
  5
12D36C
  8
OBJECT
 10
3935.0
 20
-3582.9999999999968
 30
0.0
 11
3930.0
 21
-3582.9999999999968
 31
0.0
1001
ACDBBLOCKREPETAG
1070
     1
1071
       91
1005
12D36C
  0
ARC
  5
12D36D
  8
OBJECT
 10
4435.0384389946767
 20
-3823.6081368468249
 30
0.0
 40
519.48776673616965
 50
135.42350667431441
 51
138.50052655621499
1001
ACDBBLOCKREPETAG
1070
     1
1071
        9
1005
12D36D
  0
ARC
  5
12D36E
  8
OBJECT
 10
4435.0384389946767
 20
-3218.3918631531692
 30
0.0
 40
519.48776673616965
 50
221.49947344378501
 51
224.57649332568559
1001
ACDBBLOCKREPETAG
1070
     1
1071
       10
1005
12D36E
  0
ARC
  5
12D36F
  8
OBJECT
 10
3564.961561005322
 20
-3823.6081368468249
 30
0.0
 40
519.48776673616965
 50
41.499473443784993
 51
44.576493325685597
1001
ACDBBLOCKREPETAG
1070
     1
1071
       11
1005
12D36F
  0
ARC
  5
12D370
  8
OBJECT
 10
3564.961561005322
 20
-3218.3918631531692
 30
0.0
 40
519.48776673616965
 50
315.42350667431441
 51
318.50052655621488
1001
ACDBBLOCKREPETAG
1070
     1
1071
       12
1005
12D370
  0
LINE
  5
12D371
  8
OBJECT
 10
4047.4999999999982
 20
-3453.9999999999968
 30
0.0
 11
3952.5
 21
-3453.9999999999968
 31
0.0
1001
ACDBBLOCKREPETAG
1070
     1
1071
       24
1005
12D371
  0
ARC
  5
12D372
  8
OBJECT
 10
3952.5
 20
-3456.9999999999968
 30
0.0
 40
3.0
 50
90.0
 51
180.0
1001
ACDBBLOCKREPETAG
1070
     1
1071
       25
1005
12D372
  0
LINE
  5
12D373
  8
OBJECT
 10
3949.5
 20
-3456.9999999999968
 30
0.0
 11
3949.5
 21
-3458.9999999999968
 31
0.0
1001
ACDBBLOCKREPETAG
1070
     1
1071
       26
1005
12D373
  0
LINE
  5
12D374
  8
OBJECT
 10
4050.4999999999982
 20
-3456.9999999999968
 30
0.0
 11
4050.4999999999982
 21
-3458.9999999999968
 31
0.0
1001
ACDBBLOCKREPETAG
1070
     1
1071
       27
1005
12D374
  0
ARC
  5
12D375
  8
OBJECT
 10
4047.4999999999982
 20
-3456.9999999999968
 30
0.0
 40
3.0
 50
0.0
 51
90.0
1001
ACDBBLOCKREPETAG
1070
     1
1071
       28
1005
12D375
  0
POINT
  5
12D376
  8
DOTS
 10
4000.0
 20
-3579.9999999999968
 30
0.0
1001
ACDBBLOCKREPETAG
1070
     1
1071
       87
1005
12D376
  0
ARC
  5
12D377
  8
OBJECT
 10
4000.0
 20
-3174.9999999999959
 30
0.0
 40
70.0
 50
62.339550100752639
 51
117.6604498992473
1001
ACDBBLOCKREPETAG
1070
     1
1071
        0
1005
12D377
  0
CIRCLE
  5
12D378
  8
OBJECT
 10
4000.0
 20
-3174.9999999999959
 30
0.0
 40
65.0
1001
ACDBBLOCKREPETAG
1070
     1
1071
        1
1005
12D378
  0
CIRCLE
  5
12D379
  8
OBJECT
 10
4000.0
 20
-3174.9999999999959
 30
0.0
 40
50.5
1001
ACDBBLOCKREPETAG
1070
     1
1071
        3
1005
12D379
  0
LINE
  5
12D37A
  8
OBJECT
 10
4070.0
 20
-3112.9999999999959
 30
0.0
 11
4019.5192212959432
 21
-3112.9999999999959
 31
0.0
1001
ACDBBLOCKREPETAG
1070
     1
1071
        4
1005
12D37A
  0
LINE
  5
12D37B
  8
OBJECT
 10
3930.0
 20
-3112.9999999999959
 30
0.0
 11
3980.4807787040581
 21
-3112.9999999999959
 31
0.0
1001
ACDBBLOCKREPETAG
1070
     1
1071
        5
1005
12D37B
  0
LINE
  5
12D37C
  8
OBJECT
 10
3930.0
 20
-3236.9999999999959
 30
0.0
 11
3938.0
 21
-3236.9999999999959
 31
0.0
1001
ACDBBLOCKREPETAG
1070
     1
1071
        6
1005
12D37C
  0
LINE
  5
12D37D
  8
OBJECT
 10
3938.0
 20
-3244.9999999999959
 30
0.0
 11
3938.0
 21
-3236.9999999999959
 31
0.0
1001
ACDBBLOCKREPETAG
1070
     1
1071
        7
1005
12D37D
  0
LINE
  5
12D37E
  8
OBJECT
 10
4070.0
 20
-3236.9999999999959
 30
0.0
 11
4062.0
 21
-3236.9999999999959
 31
0.0
1001
ACDBBLOCKREPETAG
1070
     1
1071
        8
1005
12D37E
  0
LINE
  5
12D37F
  8
OBJECT
 10
4062.0
 20
-3244.9999999999959
 30
0.0
 11
4062.0
 21
-3236.9999999999959
 31
0.0
1001
ACDBBLOCKREPETAG
1070
     1
1071
        9
1005
12D37F
  0
LINE
  5
12D380
  8
CENTER
 10
3930.0
 20
-3174.9999999999959
 30
0.0
 11
4070.0
 21
-3174.9999999999959
 31
0.0
1001
ACDBBLOCKREPETAG
1070
     1
1071
       10
1005
12D380
  0
LINE
  5
12D381
  8
CENTER
 10
4000.0
 20
-3244.9999999999959
 30
0.0
 11
4000.0
 21
-3089.9999999999959
 31
0.0
1001
ACDBBLOCKREPETAG
1070
     1
1071
       11
1005
12D381
  0
LINE
  5
12D382
  8
OBJECT
 10
3954.0380592228739
 20
-3220.9619407771211
 30
0.0
 11
3938.0
 21
-3236.9999999999959
 31
0.0
1001
ACDBBLOCKREPETAG
1070
     1
1071
       42
1005
12D382
  0
LINE
  5
12D383
  8
OBJECT
 10
4045.9619407771238
 20
-3220.9619407771211
 30
0.0
 11
4062.0
 21
-3236.9999999999959
 31
0.0
1001
ACDBBLOCKREPETAG
1070
     1
1071
       43
1005
12D383
  0
POINT
  5
12D384
  8
DOTS
 10
4000.0
 20
-3174.9999999999959
 30
0.0
1001
ACDBBLOCKREPETAG
1070
     1
1071
      158
1005
12D384
  0
LINE
  5
12D385
  8
CENTER
 10
3399.9999999999991
 20
-3594.9999999999968
 30
0.0
 11
3399.9999999999991
 21
-3438.9999999999968
 31
0.0
1001
ACDBBLOCKREPETAG
1070
     1
1071
       13
1005
12D385
  0
LINE
  5
12D386
  8
OBJECT
 10
3330.0
 20
-3458.9999999999968
 30
0.0
 11
3465.0000101378168
 21
-3458.9999999999968
 31
0.0
1001
ACDBBLOCKREPETAG
1070
     1
1071
       14
1005
12D386
  0
LINE
  5
12D387
  8
OBJECT
 10
3335.0
 20
-3582.9999999999968
 30
0.0
 11
3330.0
 21
-3582.9999999999968
 31
0.0
1001
ACDBBLOCKREPETAG
1070
     1
1071
       18
1005
12D387
  0
LINE
  5
12D388
  8
OBJECT
 10
3465.0000101378168
 20
-3583.0000021659148
 30
0.0
 11
3465.0000101378168
 21
-3458.9999999999968
 31
0.0
1001
ACDBBLOCKREPETAG
1070
     1
1071
       21
1005
12D388
  0
ARC
  5
12D389
  8
OBJECT
 10
2964.9615610053229
 20
-3823.6081368468249
 30
0.0
 40
519.48776673616965
 50
41.499473443784993
 51
44.576493325685597
1001
ACDBBLOCKREPETAG
1070
     1
1071
       22
1005
12D389
  0
ARC
  5
12D38A
  8
OBJECT
 10
2964.9615610053229
 20
-3218.3918631531692
 30
0.0
 40
519.48776673616965
 50
315.42350667431441
 51
318.50052655621488
1001
ACDBBLOCKREPETAG
1070
     1
1071
       23
1005
12D38A
  0
LINE
  5
12D38B
  8
OBJECT
 10
3447.5
 20
-3453.9999999999968
 30
0.0
 11
3352.5
 21
-3453.9999999999968
 31
0.0
1001
ACDBBLOCKREPETAG
1070
     1
1071
       29
1005
12D38B
  0
ARC
  5
12D38C
  8
OBJECT
 10
3352.5
 20
-3456.9999999999968
 30
0.0
 40
3.0
 50
90.0
 51
180.0
1001
ACDBBLOCKREPETAG
1070
     1
1071
       30
1005
12D38C
  0
LINE
  5
12D38D
  8
OBJECT
 10
3349.5
 20
-3456.9999999999968
 30
0.0
 11
3349.5
 21
-3458.9999999999968
 31
0.0
1001
ACDBBLOCKREPETAG
1070
     1
1071
       31
1005
12D38D
  0
LINE
  5
12D38E
  8
OBJECT
 10
3450.5
 20
-3456.9999999999968
 30
0.0
 11
3450.5
 21
-3458.9999999999968
 31
0.0
1001
ACDBBLOCKREPETAG
1070
     1
1071
       32
1005
12D38E
  0
ARC
  5
12D38F
  8
OBJECT
 10
3447.5
 20
-3456.9999999999968
 30
0.0
 40
3.0
 50
0.0
 51
90.0
1001
ACDBBLOCKREPETAG
1070
     1
1071
       33
1005
12D38F
  0
POINT
  5
12D390
  8
DOTS
 10
3399.9999999999991
 20
-3579.9999999999968
 30
0.0
1001
ACDBBLOCKREPETAG
1070
     1
1071
       88
1005
12D390
  0
LINE
  5
12D391
  8
CENTER
 10
3000.0
 20
-3594.9999999999968
 30
0.0
 11
3000.0
 21
-3438.9999999999968
 31
0.0
1001
ACDBBLOCKREPETAG
1070
     1
1071
        0
1005
12D391
  0
LINE
  5
12D392
  8
OBJECT
 10
2930.0
 20
-3458.9999999999968
 30
0.0
 11
3070.0
 21
-3458.9999999999968
 31
0.0
1001
ACDBBLOCKREPETAG
1070
     1
1071
        1
1005
12D392
  0
LINE
  5
12D393
  8
OBJECT
 10
3070.0
 20
-3582.9999999999968
 30
0.0
 11
3064.9999999999991
 21
-3582.9999999999968
 31
0.0
1001
ACDBBLOCKREPETAG
1070
     1
1071
        5
1005
12D393
  0
LINE
  5
12D394
  8
OBJECT
 10
2935.0
 20
-3582.9999999999968
 30
0.0
 11
2930.0
 21
-3582.9999999999968
 31
0.0
1001
ACDBBLOCKREPETAG
1070
     1
1071
       91
1005
12D394
  0
ARC
  5
12D395
  8
OBJECT
 10
3435.0384389946771
 20
-3823.6081368468249
 30
0.0
 40
519.48776673616965
 50
135.42350667431441
 51
138.50052655621499
1001
ACDBBLOCKREPETAG
1070
     1
1071
        9
1005
12D395
  0
ARC
  5
12D396
  8
OBJECT
 10
3435.0384389946771
 20
-3218.3918631531692
 30
0.0
 40
519.48776673616965
 50
221.49947344378501
 51
224.57649332568559
1001
ACDBBLOCKREPETAG
1070
     1
1071
       10
1005
12D396
  0
ARC
  5
12D397
  8
OBJECT
 10
2564.961561005322
 20
-3823.6081368468249
 30
0.0
 40
519.48776673616965
 50
41.499473443784993
 51
44.576493325685597
1001
ACDBBLOCKREPETAG
1070
     1
1071
       11
1005
12D397
  0
ARC
  5
12D398
  8
OBJECT
 10
2564.961561005322
 20
-3218.3918631531692
 30
0.0
 40
519.48776673616965
 50
315.42350667431441
 51
318.50052655621488
1001
ACDBBLOCKREPETAG
1070
     1
1071
       12
1005
12D398
  0
LINE
  5
12D399
  8
OBJECT
 10
3047.4999999999991
 20
-3453.9999999999968
 30
0.0
 11
2952.5
 21
-3453.9999999999968
 31
0.0
1001
ACDBBLOCKREPETAG
1070
     1
1071
       24
1005
12D399
  0
ARC
  5
12D39A
  8
OBJECT
 10
2952.5
 20
-3456.9999999999968
 30
0.0
 40
3.0
 50
90.0
 51
180.0
1001
ACDBBLOCKREPETAG
1070
     1
1071
       25
1005
12D39A
  0
LINE
  5
12D39B
  8
OBJECT
 10
2949.5
 20
-3456.9999999999968
 30
0.0
 11
2949.5
 21
-3458.9999999999968
 31
0.0
1001
ACDBBLOCKREPETAG
1070
     1
1071
       26
1005
12D39B
  0
LINE
  5
12D39C
  8
OBJECT
 10
3050.4999999999991
 20
-3456.9999999999968
 30
0.0
 11
3050.4999999999991
 21
-3458.9999999999968
 31
0.0
1001
ACDBBLOCKREPETAG
1070
     1
1071
       27
1005
12D39C
  0
ARC
  5
12D39D
  8
OBJECT
 10
3047.4999999999991
 20
-3456.9999999999968
 30
0.0
 40
3.0
 50
0.0
 51
90.0
1001
ACDBBLOCKREPETAG
1070
     1
1071
       28
1005
12D39D
  0
POINT
  5
12D39E
  8
DOTS
 10
3000.0
 20
-3579.9999999999968
 30
0.0
1001
ACDBBLOCKREPETAG
1070
     1
1071
       87
1005
12D39E
  0
ARC
  5
12D39F
  8
OBJECT
 10
3000.0
 20
-3174.9999999999959
 30
0.0
 40
70.0
 50
62.339550100752639
 51
117.6604498992473
1001
ACDBBLOCKREPETAG
1070
     1
1071
        0
1005
12D39F
  0
CIRCLE
  5
12D3A0
  8
OBJECT
 10
3000.0
 20
-3174.9999999999959
 30
0.0
 40
65.0
1001
ACDBBLOCKREPETAG
1070
     1
1071
        1
1005
12D3A0
  0
CIRCLE
  5
12D3A1
  8
OBJECT
 10
3000.0
 20
-3174.9999999999959
 30
0.0
 40
50.5
1001
ACDBBLOCKREPETAG
1070
     1
1071
        3
1005
12D3A1
  0
LINE
  5
12D3A2
  8
OBJECT
 10
3070.0
 20
-3112.9999999999959
 30
0.0
 11
3019.5192212959441
 21
-3112.9999999999959
 31
0.0
1001
ACDBBLOCKREPETAG
1070
     1
1071
        4
1005
12D3A2
  0
LINE
  5
12D3A3
  8
OBJECT
 10
2930.0
 20
-3112.9999999999959
 30
0.0
 11
2980.4807787040581
 21
-3112.9999999999959
 31
0.0
1001
ACDBBLOCKREPETAG
1070
     1
1071
        5
1005
12D3A3
  0
LINE
  5
12D3A4
  8
OBJECT
 10
2930.0
 20
-3236.9999999999959
 30
0.0
 11
2938.0
 21
-3236.9999999999959
 31
0.0
1001
ACDBBLOCKREPETAG
1070
     1
1071
        6
1005
12D3A4
  0
LINE
  5
12D3A5
  8
OBJECT
 10
2938.0
 20
-3244.9999999999959
 30
0.0
 11
2938.0
 21
-3236.9999999999959
 31
0.0
1001
ACDBBLOCKREPETAG
1070
     1
1071
        7
1005
12D3A5
  0
LINE
  5
12D3A6
  8
OBJECT
 10
3070.0
 20
-3236.9999999999959
 30
0.0
 11
3062.0
 21
-3236.9999999999959
 31
0.0
1001
ACDBBLOCKREPETAG
1070
     1
1071
        8
1005
12D3A6
  0
LINE
  5
12D3A7
  8
OBJECT
 10
3062.0
 20
-3244.9999999999959
 30
0.0
 11
3062.0
 21
-3236.9999999999959
 31
0.0
1001
ACDBBLOCKREPETAG
1070
     1
1071
        9
1005
12D3A7
  0
LINE
  5
12D3A8
  8
CENTER
 10
2930.0
 20
-3174.9999999999959
 30
0.0
 11
3070.0
 21
-3174.9999999999959
 31
0.0
1001
ACDBBLOCKREPETAG
1070
     1
1071
       10
1005
12D3A8
  0
LINE
  5
12D3A9
  8
CENTER
 10
3000.0
 20
-3244.9999999999959
 30
0.0
 11
3000.0
 21
-3089.9999999999959
 31
0.0
1001
ACDBBLOCKREPETAG
1070
     1
1071
       11
1005
12D3A9
  0
LINE
  5
12D3AA
  8
OBJECT
 10
2954.0380592228739
 20
-3220.9619407771211
 30
0.0
 11
2938.0
 21
-3236.9999999999959
 31
0.0
1001
ACDBBLOCKREPETAG
1070
     1
1071
       42
1005
12D3AA
  0
LINE
  5
12D3AB
  8
OBJECT
 10
3045.9619407771261
 20
-3220.9619407771211
 30
0.0
 11
3062.0
 21
-3236.9999999999959
 31
0.0
1001
ACDBBLOCKREPETAG
1070
     1
1071
       43
1005
12D3AB
  0
POINT
  5
12D3AC
  8
DOTS
 10
3000.0
 20
-3174.9999999999959
 30
0.0
1001
ACDBBLOCKREPETAG
1070
     1
1071
      158
1005
12D3AC
  0
LINE
  5
12D3AD
  8
CENTER
 10
2400.0
 20
-3594.9999999999968
 30
0.0
 11
2400.0
 21
-3438.9999999999968
 31
0.0
1001
ACDBBLOCKREPETAG
1070
     1
1071
       13
1005
12D3AD
  0
LINE
  5
12D3AE
  8
OBJECT
 10
2330.0
 20
-3458.9999999999968
 30
0.0
 11
2465.0000101378168
 21
-3458.9999999999968
 31
0.0
1001
ACDBBLOCKREPETAG
1070
     1
1071
       14
1005
12D3AE
  0
LINE
  5
12D3AF
  8
OBJECT
 10
2335.0
 20
-3582.9999999999968
 30
0.0
 11
2330.0
 21
-3582.9999999999968
 31
0.0
1001
ACDBBLOCKREPETAG
1070
     1
1071
       18
1005
12D3AF
  0
LINE
  5
12D3B0
  8
OBJECT
 10
2465.0000101378168
 20
-3583.0000021659148
 30
0.0
 11
2465.0000101378168
 21
-3458.9999999999968
 31
0.0
1001
ACDBBLOCKREPETAG
1070
     1
1071
       21
1005
12D3B0
  0
ARC
  5
12D3B1
  8
OBJECT
 10
1964.961561005322
 20
-3823.6081368468249
 30
0.0
 40
519.48776673616965
 50
41.499473443784993
 51
44.576493325685597
1001
ACDBBLOCKREPETAG
1070
     1
1071
       22
1005
12D3B1
  0
ARC
  5
12D3B2
  8
OBJECT
 10
1964.961561005322
 20
-3218.3918631531692
 30
0.0
 40
519.48776673616965
 50
315.42350667431441
 51
318.50052655621488
1001
ACDBBLOCKREPETAG
1070
     1
1071
       23
1005
12D3B2
  0
LINE
  5
12D3B3
  8
OBJECT
 10
2447.5
 20
-3453.9999999999968
 30
0.0
 11
2352.5
 21
-3453.9999999999968
 31
0.0
1001
ACDBBLOCKREPETAG
1070
     1
1071
       29
1005
12D3B3
  0
ARC
  5
12D3B4
  8
OBJECT
 10
2352.5
 20
-3456.9999999999968
 30
0.0
 40
3.0
 50
90.0
 51
180.0
1001
ACDBBLOCKREPETAG
1070
     1
1071
       30
1005
12D3B4
  0
LINE
  5
12D3B5
  8
OBJECT
 10
2349.5
 20
-3456.9999999999968
 30
0.0
 11
2349.5
 21
-3458.9999999999968
 31
0.0
1001
ACDBBLOCKREPETAG
1070
     1
1071
       31
1005
12D3B5
  0
LINE
  5
12D3B6
  8
OBJECT
 10
2450.5
 20
-3456.9999999999968
 30
0.0
 11
2450.5
 21
-3458.9999999999968
 31
0.0
1001
ACDBBLOCKREPETAG
1070
     1
1071
       32
1005
12D3B6
  0
ARC
  5
12D3B7
  8
OBJECT
 10
2447.5
 20
-3456.9999999999968
 30
0.0
 40
3.0
 50
0.0
 51
90.0
1001
ACDBBLOCKREPETAG
1070
     1
1071
       33
1005
12D3B7
  0
POINT
  5
12D3B8
  8
DOTS
 10
2400.0
 20
-3579.9999999999968
 30
0.0
1001
ACDBBLOCKREPETAG
1070
     1
1071
       88
1005
12D3B8
  0
LINE
  5
12D3B9
  8
CENTER
 10
2000.0
 20
-3594.9999999999968
 30
0.0
 11
2000.0
 21
-3438.9999999999968
 31
0.0
1001
ACDBBLOCKREPETAG
1070
     1
1071
        0
1005
12D3B9
  0
LINE
  5
12D3BA
  8
OBJECT
 10
1929.9999999999991
 20
-3458.9999999999968
 30
0.0
 11
2070.0
 21
-3458.9999999999968
 31
0.0
1001
ACDBBLOCKREPETAG
1070
     1
1071
        1
1005
12D3BA
  0
LINE
  5
12D3BB
  8
OBJECT
 10
2070.0
 20
-3582.9999999999968
 30
0.0
 11
2064.9999999999991
 21
-3582.9999999999968
 31
0.0
1001
ACDBBLOCKREPETAG
1070
     1
1071
        5
1005
12D3BB
  0
LINE
  5
12D3BC
  8
OBJECT
 10
1935.0
 20
-3582.9999999999968
 30
0.0
 11
1929.9999999999991
 21
-3582.9999999999968
 31
0.0
1001
ACDBBLOCKREPETAG
1070
     1
1071
       91
1005
12D3BC
  0
ARC
  5
12D3BD
  8
OBJECT
 10
2435.0384389946771
 20
-3823.6081368468249
 30
0.0
 40
519.48776673616965
 50
135.42350667432351
 51
138.50052655621499
1001
ACDBBLOCKREPETAG
1070
     1
1071
        9
1005
12D3BD
  0
ARC
  5
12D3BE
  8
OBJECT
 10
2435.0384389946771
 20
-3218.3918631531692
 30
0.0
 40
519.48776673616965
 50
221.49947344378501
 51
224.57649332567649
1001
ACDBBLOCKREPETAG
1070
     1
1071
       10
1005
12D3BE
  0
ARC
  5
12D3BF
  8
OBJECT
 10
1564.961561005322
 20
-3823.6081368468249
 30
0.0
 40
519.48776673616965
 50
41.499473443784993
 51
44.576493325676452
1001
ACDBBLOCKREPETAG
1070
     1
1071
       11
1005
12D3BF
  0
ARC
  5
12D3C0
  8
OBJECT
 10
1564.961561005322
 20
-3218.3918631531692
 30
0.0
 40
519.48776673616965
 50
315.42350667432362
 51
318.50052655621488
1001
ACDBBLOCKREPETAG
1070
     1
1071
       12
1005
12D3C0
  0
LINE
  5
12D3C1
  8
OBJECT
 10
2047.4999999999991
 20
-3453.9999999999968
 30
0.0
 11
1952.4999999999991
 21
-3453.9999999999968
 31
0.0
1001
ACDBBLOCKREPETAG
1070
     1
1071
       24
1005
12D3C1
  0
ARC
  5
12D3C2
  8
OBJECT
 10
1952.4999999999991
 20
-3456.9999999999968
 30
0.0
 40
3.0
 50
90.0
 51
180.0
1001
ACDBBLOCKREPETAG
1070
     1
1071
       25
1005
12D3C2
  0
LINE
  5
12D3C3
  8
OBJECT
 10
1949.5
 20
-3456.9999999999968
 30
0.0
 11
1949.5
 21
-3458.9999999999968
 31
0.0
1001
ACDBBLOCKREPETAG
1070
     1
1071
       26
1005
12D3C3
  0
LINE
  5
12D3C4
  8
OBJECT
 10
2050.4999999999991
 20
-3456.9999999999968
 30
0.0
 11
2050.4999999999991
 21
-3458.9999999999968
 31
0.0
1001
ACDBBLOCKREPETAG
1070
     1
1071
       27
1005
12D3C4
  0
ARC
  5
12D3C5
  8
OBJECT
 10
2047.4999999999991
 20
-3456.9999999999968
 30
0.0
 40
3.0
 50
0.0
 51
90.0
1001
ACDBBLOCKREPETAG
1070
     1
1071
       28
1005
12D3C5
  0
POINT
  5
12D3C6
  8
DOTS
 10
2000.0
 20
-3579.9999999999968
 30
0.0
1001
ACDBBLOCKREPETAG
1070
     1
1071
       87
1005
12D3C6
  0
ARC
  5
12D3C7
  8
OBJECT
 10
2000.0
 20
-3174.9999999999959
 30
0.0
 40
70.0
 50
62.339550100752639
 51
117.6604498992473
1001
ACDBBLOCKREPETAG
1070
     1
1071
        0
1005
12D3C7
  0
CIRCLE
  5
12D3C8
  8
OBJECT
 10
2000.0
 20
-3174.9999999999959
 30
0.0
 40
65.0
1001
ACDBBLOCKREPETAG
1070
     1
1071
        1
1005
12D3C8
  0
CIRCLE
  5
12D3C9
  8
OBJECT
 10
2000.0
 20
-3174.9999999999959
 30
0.0
 40
50.5
1001
ACDBBLOCKREPETAG
1070
     1
1071
        3
1005
12D3C9
  0
LINE
  5
12D3CA
  8
OBJECT
 10
2070.0
 20
-3112.9999999999959
 30
0.0
 11
2019.519221295943
 21
-3112.9999999999959
 31
0.0
1001
ACDBBLOCKREPETAG
1070
     1
1071
        4
1005
12D3CA
  0
LINE
  5
12D3CB
  8
OBJECT
 10
1929.9999999999991
 20
-3112.9999999999959
 30
0.0
 11
1980.4807787040561
 21
-3112.9999999999959
 31
0.0
1001
ACDBBLOCKREPETAG
1070
     1
1071
        5
1005
12D3CB
  0
LINE
  5
12D3CC
  8
OBJECT
 10
1929.9999999999991
 20
-3236.9999999999959
 30
0.0
 11
1938.0
 21
-3236.9999999999959
 31
0.0
1001
ACDBBLOCKREPETAG
1070
     1
1071
        6
1005
12D3CC
  0
LINE
  5
12D3CD
  8
OBJECT
 10
1938.0
 20
-3244.9999999999959
 30
0.0
 11
1938.0
 21
-3236.9999999999959
 31
0.0
1001
ACDBBLOCKREPETAG
1070
     1
1071
        7
1005
12D3CD
  0
LINE
  5
12D3CE
  8
OBJECT
 10
2070.0
 20
-3236.9999999999959
 30
0.0
 11
2062.0
 21
-3236.9999999999959
 31
0.0
1001
ACDBBLOCKREPETAG
1070
     1
1071
        8
1005
12D3CE
  0
LINE
  5
12D3CF
  8
OBJECT
 10
2062.0
 20
-3244.9999999999959
 30
0.0
 11
2062.0
 21
-3236.9999999999959
 31
0.0
1001
ACDBBLOCKREPETAG
1070
     1
1071
        9
1005
12D3CF
  0
LINE
  5
12D3D0
  8
CENTER
 10
1929.9999999999991
 20
-3174.9999999999959
 30
0.0
 11
2070.0
 21
-3174.9999999999959
 31
0.0
1001
ACDBBLOCKREPETAG
1070
     1
1071
       10
1005
12D3D0
  0
LINE
  5
12D3D1
  8
CENTER
 10
2000.0
 20
-3244.9999999999959
 30
0.0
 11
2000.0
 21
-3089.9999999999959
 31
0.0
1001
ACDBBLOCKREPETAG
1070
     1
1071
       11
1005
12D3D1
  0
LINE
  5
12D3D2
  8
OBJECT
 10
1954.038059222873
 20
-3220.9619407771211
 30
0.0
 11
1938.0
 21
-3236.9999999999959
 31
0.0
1001
ACDBBLOCKREPETAG
1070
     1
1071
       42
1005
12D3D2
  0
LINE
  5
12D3D3
  8
OBJECT
 10
2045.9619407771249
 20
-3220.9619407771211
 30
0.0
 11
2062.0
 21
-3236.9999999999959
 31
0.0
1001
ACDBBLOCKREPETAG
1070
     1
1071
       43
1005
12D3D3
  0
POINT
  5
12D3D4
  8
DOTS
 10
2000.0
 20
-3174.9999999999959
 30
0.0
1001
ACDBBLOCKREPETAG
1070
     1
1071
      158
1005
12D3D4
  0
ARC
  5
12D3D5
  8
OBJECT
 10
2000.0
 20
-199.99999999999909
 30
0.0
 40
70.0
 50
62.339550100758693
 51
117.6604498992413
1001
ACDBBLOCKREPETAG
1070
     1
1071
        0
1005
12D3D5
  0
CIRCLE
  5
12D3D6
  8
OBJECT
 10
2000.0
 20
-199.99999999999909
 30
0.0
 40
65.0
1001
ACDBBLOCKREPETAG
1070
     1
1071
        1
1005
12D3D6
  0
CIRCLE
  5
12D3D7
  8
OBJECT
 10
2000.0
 20
-199.99999999999909
 30
0.0
 40
50.5
1001
ACDBBLOCKREPETAG
1070
     1
1071
        3
1005
12D3D7
  0
LINE
  5
12D3D8
  8
OBJECT
 10
2070.0
 20
-137.99999999999909
 30
0.0
 11
2019.5192212959439
 21
-137.99999999999909
 31
0.0
1001
ACDBBLOCKREPETAG
1070
     1
1071
        4
1005
12D3D8
  0
LINE
  5
12D3D9
  8
OBJECT
 10
1930.0
 20
-137.99999999999909
 30
0.0
 11
1980.480778704057
 21
-137.99999999999909
 31
0.0
1001
ACDBBLOCKREPETAG
1070
     1
1071
        5
1005
12D3D9
  0
LINE
  5
12D3DA
  8
OBJECT
 10
1930.0
 20
-261.99999999999909
 30
0.0
 11
1938.0
 21
-261.99999999999909
 31
0.0
1001
ACDBBLOCKREPETAG
1070
     1
1071
        6
1005
12D3DA
  0
LINE
  5
12D3DB
  8
OBJECT
 10
1938.0
 20
-269.99999999999909
 30
0.0
 11
1938.0
 21
-261.99999999999909
 31
0.0
1001
ACDBBLOCKREPETAG
1070
     1
1071
        7
1005
12D3DB
  0
LINE
  5
12D3DC
  8
OBJECT
 10
2070.0
 20
-261.99999999999909
 30
0.0
 11
2062.0
 21
-261.99999999999909
 31
0.0
1001
ACDBBLOCKREPETAG
1070
     1
1071
        8
1005
12D3DC
  0
LINE
  5
12D3DD
  8
OBJECT
 10
2062.0
 20
-269.99999999999909
 30
0.0
 11
2062.0
 21
-261.99999999999909
 31
0.0
1001
ACDBBLOCKREPETAG
1070
     1
1071
        9
1005
12D3DD
  0
LINE
  5
12D3DE
  8
CENTER
 10
1930.0
 20
-199.99999999999909
 30
0.0
 11
2070.0
 21
-199.99999999999909
 31
0.0
1001
ACDBBLOCKREPETAG
1070
     1
1071
       10
1005
12D3DE
  0
LINE
  5
12D3DF
  8
CENTER
 10
2000.0
 20
-269.99999999999909
 30
0.0
 11
2000.0
 21
-114.9999999999991
 31
0.0
1001
ACDBBLOCKREPETAG
1070
     1
1071
       11
1005
12D3DF
  0
LINE
  5
12D3E0
  8
OBJECT
 10
1954.038059222873
 20
-245.96194077712471
 30
0.0
 11
1938.0
 21
-261.99999999999909
 31
0.0
1001
ACDBBLOCKREPETAG
1070
     1
1071
       42
1005
12D3E0
  0
LINE
  5
12D3E1
  8
OBJECT
 10
2045.9619407771261
 20
-245.96194077712471
 30
0.0
 11
2062.0
 21
-261.99999999999909
 31
0.0
1001
ACDBBLOCKREPETAG
1070
     1
1071
       43
1005
12D3E1
  0
POINT
  5
12D3E2
  8
DOTS
 10
2000.0
 20
-199.99999999999909
 30
0.0
1001
ACDBBLOCKREPETAG
1070
     1
1071
      158
1005
12D3E2
  0
POLYLINE
  5
12D3E3
  8
HIDDEN
 66
     1
 10
0.0
 20
0.0
 30
0.0
 70
     1
1001
ACDBBLOCKREPETAG
1070
     1
1071
      105
1005
0
  0
VERTEX
  5
12D8AE
  8
HIDDEN
 10
359.99999999987818
 20
0.0000000000009095
 30
0.0
  0
VERTEX
  5
12D8AF
  8
HIDDEN
 10
719.99999999975626
 20
0.0000000000009095
 30
0.0
  0
VERTEX
  5
12D8B0
  8
HIDDEN
 10
719.99999999975626
 20
-463.99999999984078
 30
0.0
  0
VERTEX
  5
12D8B1
  8
HIDDEN
 10
359.99999999987818
 20
-463.99999999984078
 30
0.0
  0
SEQEND
  5
12D8B2
  8
HIDDEN
  0
POLYLINE
  5
12D3E4
  8
HIDDEN
 66
     1
 10
0.0
 20
0.0
 30
0.0
 70
     1
1001
ACDBBLOCKREPETAG
1070
     1
1071
      110
1005
0
  0
VERTEX
  5
12D8B3
  8
HIDDEN
 10
0.0
 20
0.0000000000009095
 30
0.0
  0
VERTEX
  5
12D8B4
  8
HIDDEN
 10
359.99999999987818
 20
0.0000000000009095
 30
0.0
  0
VERTEX
  5
12D8B5
  8
HIDDEN
 10
359.99999999987818
 20
-463.99999999984078
 30
0.0
  0
VERTEX
  5
12D8B6
  8
HIDDEN
 10
0.0
 20
-463.99999999984078
 30
0.0
  0
SEQEND
  5
12D8B7
  8
HIDDEN
  0
POLYLINE
  5
12D3E5
  8
HIDDEN
 66
     1
 10
0.0
 20
0.0
 30
0.0
 70
     1
1001
ACDBBLOCKREPETAG
1070
     1
1071
      125
1005
0
  0
VERTEX
  5
12D8B8
  8
HIDDEN
 10
0.0
 20
-463.99999999984078
 30
0.0
  0
VERTEX
  5
12D8B9
  8
HIDDEN
 10
359.99999999987818
 20
-463.99999999984078
 30
0.0
  0
VERTEX
  5
12D8BA
  8
HIDDEN
 10
359.99999999987818
 20
-927.99999999968247
 30
0.0
  0
VERTEX
  5
12D8BB
  8
HIDDEN
 10
0.0
 20
-927.99999999968247
 30
0.0
  0
SEQEND
  5
12D8BC
  8
HIDDEN
  0
TEXT
  5
12D3E6
  8
SLIM
 10
7824.6000000000022
 20
-1403.999999999998
 30
0.0
 40
28.0
  1
※ 対応スラブ厚　180～220
 41
0.75
  0
TEXT
  5
12D3E7
  8
SLIM
 10
7598.8999999999969
 20
-1497.333333333331
 30
0.0
 40
28.0
  1
国土交通大臣認定・（一財）日本消防設備安全センター性能評定取得品
 41
0.75
  0
TEXT
  5
12D3E8
  8
SLIM
 10
7631.1000000000004
 20
-1543.999999999998
 30
0.0
 40
28.0
  1
注）ご採用にあたり、認定書及び評定書の内容をご確認ください。
 41
0.75
  0
LINE
  5
12D3E9
  8
CENTER
 10
3909.0
 20
-3174.9999999999959
 30
0.0
 11
3930.0
 21
-3174.9999999999959
 31
0.0
1001
ACDBBLOCKREPETAG
1070
     1
1071
        0
1005
12D3E9
  0
LINE
  5
12D3EA
  8
OBJECT
 10
3926.9999999999991
 20
-3236.9999999999959
 30
0.0
 11
3930.0
 21
-3236.9999999999959
 31
0.0
1001
ACDBBLOCKREPETAG
1070
     1
1071
        1
1005
12D3EA
  0
ARC
  5
12D3EB
  8
OBJECT
 10
3926.9999999999991
 20
-3233.9999999999959
 30
0.0
 40
3.0
 50
180.0
 51
270.0
1001
ACDBBLOCKREPETAG
1070
     1
1071
        2
1005
12D3EB
  0
LINE
  5
12D3EC
  8
OBJECT
 10
3930.0
 20
-3112.9999999999959
 30
0.0
 11
3926.9999999999991
 21
-3112.9999999999959
 31
0.0
1001
ACDBBLOCKREPETAG
1070
     1
1071
        3
1005
12D3EC
  0
ARC
  5
12D3ED
  8
OBJECT
 10
3926.9999999999991
 20
-3115.9999999999959
 30
0.0
 40
3.0
 50
90.0
 51
180.0
1001
ACDBBLOCKREPETAG
1070
     1
1071
        4
1005
12D3ED
  0
LINE
  5
12D3EE
  8
OBJECT
 10
3923.9999999999991
 20
-3115.9999999999959
 30
0.0
 11
3923.9999999999991
 21
-3233.9999999999959
 31
0.0
1001
ACDBBLOCKREPETAG
1070
     1
1071
        5
1005
12D3EE
  0
LINE
  5
12D3EF
  8
CENTER
 10
4000.0
 20
-3265.9999999999959
 30
0.0
 11
4000.0
 21
-3244.9999999999959
 31
0.0
1001
ACDBBLOCKREPETAG
1070
     1
1071
        0
1005
12D3EF
  0
LINE
  5
12D3F0
  8
OBJECT
 10
4062.0
 20
-3247.9999999999968
 30
0.0
 11
4062.0
 21
-3244.9999999999959
 31
0.0
1001
ACDBBLOCKREPETAG
1070
     1
1071
        1
1005
12D3F0
  0
ARC
  5
12D3F1
  8
OBJECT
 10
4059.0
 20
-3247.9999999999968
 30
0.0
 40
3.0
 50
270.0
 51
0.0
1001
ACDBBLOCKREPETAG
1070
     1
1071
        2
1005
12D3F1
  0
LINE
  5
12D3F2
  8
OBJECT
 10
3938.0
 20
-3244.9999999999959
 30
0.0
 11
3938.0
 21
-3247.999999999995
 31
0.0
1001
ACDBBLOCKREPETAG
1070
     1
1071
        3
1005
12D3F2
  0
ARC
  5
12D3F3
  8
OBJECT
 10
3941.0
 20
-3247.999999999995
 30
0.0
 40
3.0
 50
180.0
 51
270.0
1001
ACDBBLOCKREPETAG
1070
     1
1071
        4
1005
12D3F3
  0
LINE
  5
12D3F4
  8
OBJECT
 10
3941.0
 20
-3250.999999999995
 30
0.0
 11
4059.0
 21
-3250.9999999999968
 31
0.0
1001
ACDBBLOCKREPETAG
1070
     1
1071
        5
1005
12D3F4
  0
LINE
  5
12D3F5
  8
OBJECT
 10
4123.0
 20
-3112.9999999999959
 30
0.0
 11
4130.0
 21
-3112.9999999999959
 31
0.0
1001
ACDBBLOCKREPETAG
1070
     1
1071
       47
1005
12D3F5
  0
LINE
  5
12D3F6
  8
OBJECT
 10
4130.0
 20
-3112.9999999999959
 30
0.0
 11
4130.0
 21
-3236.9999999999959
 31
0.0
1001
ACDBBLOCKREPETAG
1070
     1
1071
       48
1005
12D3F6
  0
LINE
  5
12D3F7
  8
OBJECT
 10
4130.0
 20
-3236.9999999999959
 30
0.0
 11
4123.0
 21
-3236.9999999999959
 31
0.0
1001
ACDBBLOCKREPETAG
1070
     1
1071
       49
1005
12D3F7
  0
LINE
  5
12D3F8
  8
OBJECT
 10
4123.0
 20
-3236.9999999999959
 30
0.0
 11
4123.0
 21
-3112.9999999999959
 31
0.0
1001
ACDBBLOCKREPETAG
1070
     1
1071
       50
1005
12D3F8
  0
LINE
  5
12D3F9
  8
CENTER
 10
4145.0
 20
-3174.9999999999959
 30
0.0
 11
4069.9999999999991
 21
-3174.9999999999959
 31
0.0
1001
ACDBBLOCKREPETAG
1070
     1
1071
       51
1005
12D3F9
  0
LINE
  5
12D3FA
  8
OBJECT
 10
4123.0
 20
-3115.9999999999959
 30
0.0
 11
4086.9999999999982
 21
-3115.9999999999959
 31
0.0
1001
ACDBBLOCKREPETAG
1070
     1
1071
       52
1005
12D3FA
  0
LINE
  5
12D3FB
  8
OBJECT
 10
4086.9999999999982
 20
-3115.9999999999959
 30
0.0
 11
4086.9999999999982
 21
-3233.9999999999959
 31
0.0
1001
ACDBBLOCKREPETAG
1070
     1
1071
       53
1005
12D3FB
  0
LINE
  5
12D3FC
  8
OBJECT
 10
4086.9999999999982
 20
-3233.9999999999959
 30
0.0
 11
4123.0
 21
-3233.9999999999959
 31
0.0
1001
ACDBBLOCKREPETAG
1070
     1
1071
       54
1005
12D3FC
  0
LINE
  5
12D3FD
  8
OBJECT
 10
4083.0
 20
-3120.4999999999959
 30
0.0
 11
4075.9999999999982
 21
-3120.4999999999959
 31
0.0
1001
ACDBBLOCKREPETAG
1070
     1
1071
       55
1005
12D3FD
  0
LINE
  5
12D3FE
  8
OBJECT
 10
4075.9999999999982
 20
-3229.4999999999959
 30
0.0
 11
4083.0
 21
-3229.4999999999959
 31
0.0
1001
ACDBBLOCKREPETAG
1070
     1
1071
       56
1005
12D3FE
  0
LINE
  5
12D3FF
  8
OBJECT
 10
4083.0
 20
-3229.4999999999959
 30
0.0
 11
4083.0
 21
-3120.4999999999959
 31
0.0
1001
ACDBBLOCKREPETAG
1070
     1
1071
       57
1005
12D3FF
  0
LINE
  5
12D400
  8
OBJECT
 10
4086.9999999999982
 20
-3115.9999999999959
 30
0.0
 11
4083.0
 21
-3120.4999999999959
 31
0.0
1001
ACDBBLOCKREPETAG
1070
     1
1071
       58
1005
12D400
  0
LINE
  5
12D401
  8
OBJECT
 10
4086.9999999999982
 20
-3233.9999999999959
 30
0.0
 11
4083.0
 21
-3229.4999999999959
 31
0.0
1001
ACDBBLOCKREPETAG
1070
     1
1071
       59
1005
12D401
  0
LINE
  5
12D402
  8
OBJECT
 10
4072.9999999999991
 20
-3112.9999999999959
 30
0.0
 11
4069.9999999999991
 21
-3112.9999999999959
 31
0.0
1001
ACDBBLOCKREPETAG
1070
     1
1071
       60
1005
12D402
  0
ARC
  5
12D403
  8
OBJECT
 10
4072.9999999999991
 20
-3115.9999999999959
 30
0.0
 40
3.0
 50
0.0
 51
90.0
1001
ACDBBLOCKREPETAG
1070
     1
1071
       61
1005
12D403
  0
LINE
  5
12D404
  8
OBJECT
 10
4069.9999999999991
 20
-3236.9999999999959
 30
0.0
 11
4072.9999999999991
 21
-3236.9999999999959
 31
0.0
1001
ACDBBLOCKREPETAG
1070
     1
1071
       62
1005
12D404
  0
ARC
  5
12D405
  8
OBJECT
 10
4072.9999999999991
 20
-3233.9999999999959
 30
0.0
 40
3.0
 50
270.0
 51
0.0
1001
ACDBBLOCKREPETAG
1070
     1
1071
       63
1005
12D405
  0
LINE
  5
12D406
  8
OBJECT
 10
4075.9999999999982
 20
-3233.9999999999959
 30
0.0
 11
4075.9999999999982
 21
-3115.9999999999959
 31
0.0
1001
ACDBBLOCKREPETAG
1070
     1
1071
       64
1005
12D406
  0
LINE
  5
12D407
  8
HIDDEN
 10
4077.9999999999982
 20
-3130.4999999999959
 30
0.0
 11
4077.9999999999982
 21
-3219.4999999999959
 31
0.0
1001
ACDBBLOCKREPETAG
1070
     1
1071
       65
1005
12D407
  0
LINE
  5
12D408
  8
CENTER
 10
2909.0
 20
-3174.9999999999959
 30
0.0
 11
2930.0
 21
-3174.9999999999959
 31
0.0
1001
ACDBBLOCKREPETAG
1070
     1
1071
        0
1005
12D408
  0
LINE
  5
12D409
  8
OBJECT
 10
2926.9999999999991
 20
-3236.9999999999959
 30
0.0
 11
2930.0
 21
-3236.9999999999959
 31
0.0
1001
ACDBBLOCKREPETAG
1070
     1
1071
        1
1005
12D409
  0
ARC
  5
12D40A
  8
OBJECT
 10
2926.9999999999991
 20
-3233.9999999999959
 30
0.0
 40
3.0
 50
180.0
 51
270.0
1001
ACDBBLOCKREPETAG
1070
     1
1071
        2
1005
12D40A
  0
LINE
  5
12D40B
  8
OBJECT
 10
2930.0
 20
-3112.9999999999959
 30
0.0
 11
2926.9999999999991
 21
-3112.9999999999959
 31
0.0
1001
ACDBBLOCKREPETAG
1070
     1
1071
        3
1005
12D40B
  0
ARC
  5
12D40C
  8
OBJECT
 10
2926.9999999999991
 20
-3115.9999999999959
 30
0.0
 40
3.0
 50
90.0
 51
180.0
1001
ACDBBLOCKREPETAG
1070
     1
1071
        4
1005
12D40C
  0
LINE
  5
12D40D
  8
OBJECT
 10
2923.9999999999991
 20
-3115.9999999999959
 30
0.0
 11
2923.9999999999991
 21
-3233.9999999999959
 31
0.0
1001
ACDBBLOCKREPETAG
1070
     1
1071
        5
1005
12D40D
  0
LINE
  5
12D40E
  8
CENTER
 10
3000.0
 20
-3265.9999999999959
 30
0.0
 11
3000.0
 21
-3244.9999999999959
 31
0.0
1001
ACDBBLOCKREPETAG
1070
     1
1071
        0
1005
12D40E
  0
LINE
  5
12D40F
  8
OBJECT
 10
3062.0
 20
-3247.9999999999968
 30
0.0
 11
3062.0
 21
-3244.9999999999959
 31
0.0
1001
ACDBBLOCKREPETAG
1070
     1
1071
        1
1005
12D40F
  0
ARC
  5
12D410
  8
OBJECT
 10
3059.0
 20
-3247.9999999999968
 30
0.0
 40
3.0
 50
270.0
 51
0.0
1001
ACDBBLOCKREPETAG
1070
     1
1071
        2
1005
12D410
  0
LINE
  5
12D411
  8
OBJECT
 10
2938.0
 20
-3244.9999999999959
 30
0.0
 11
2938.0
 21
-3247.999999999995
 31
0.0
1001
ACDBBLOCKREPETAG
1070
     1
1071
        3
1005
12D411
  0
ARC
  5
12D412
  8
OBJECT
 10
2941.0
 20
-3247.999999999995
 30
0.0
 40
3.0
 50
180.0
 51
270.0
1001
ACDBBLOCKREPETAG
1070
     1
1071
        4
1005
12D412
  0
LINE
  5
12D413
  8
OBJECT
 10
2941.0
 20
-3250.999999999995
 30
0.0
 11
3059.0
 21
-3250.9999999999968
 31
0.0
1001
ACDBBLOCKREPETAG
1070
     1
1071
        5
1005
12D413
  0
LINE
  5
12D414
  8
OBJECT
 10
3123.0
 20
-3119.9999999999959
 30
0.0
 11
3130.0
 21
-3119.9999999999959
 31
0.0
1001
ACDBBLOCKREPETAG
1070
     1
1071
       27
1005
12D414
  0
LINE
  5
12D415
  8
OBJECT
 10
3130.0
 20
-3119.9999999999959
 30
0.0
 11
3130.0
 21
-3229.9999999999959
 31
0.0
1001
ACDBBLOCKREPETAG
1070
     1
1071
       28
1005
12D415
  0
LINE
  5
12D416
  8
OBJECT
 10
3130.0
 20
-3229.9999999999959
 30
0.0
 11
3123.0
 21
-3229.9999999999959
 31
0.0
1001
ACDBBLOCKREPETAG
1070
     1
1071
       29
1005
12D416
  0
LINE
  5
12D417
  8
OBJECT
 10
3123.0
 20
-3229.9999999999959
 30
0.0
 11
3123.0
 21
-3119.9999999999959
 31
0.0
1001
ACDBBLOCKREPETAG
1070
     1
1071
       30
1005
12D417
  0
LINE
  5
12D418
  8
CENTER
 10
3145.0
 20
-3174.9999999999959
 30
0.0
 11
3070.0
 21
-3174.9999999999959
 31
0.0
1001
ACDBBLOCKREPETAG
1070
     1
1071
       31
1005
12D418
  0
LINE
  5
12D419
  8
OBJECT
 10
3123.0
 20
-3122.9999999999959
 30
0.0
 11
3087.0
 21
-3122.9999999999959
 31
0.0
1001
ACDBBLOCKREPETAG
1070
     1
1071
       32
1005
12D419
  0
LINE
  5
12D41A
  8
OBJECT
 10
3087.0
 20
-3122.9999999999959
 30
0.0
 11
3087.0
 21
-3226.9999999999959
 31
0.0
1001
ACDBBLOCKREPETAG
1070
     1
1071
       33
1005
12D41A
  0
LINE
  5
12D41B
  8
OBJECT
 10
3087.0
 20
-3226.9999999999959
 30
0.0
 11
3123.0
 21
-3226.9999999999959
 31
0.0
1001
ACDBBLOCKREPETAG
1070
     1
1071
       34
1005
12D41B
  0
LINE
  5
12D41C
  8
OBJECT
 10
3083.0
 20
-3127.4999999999959
 30
0.0
 11
3076.0
 21
-3127.4999999999959
 31
0.0
1001
ACDBBLOCKREPETAG
1070
     1
1071
       35
1005
12D41C
  0
LINE
  5
12D41D
  8
OBJECT
 10
3076.0
 20
-3222.4999999999959
 30
0.0
 11
3083.0
 21
-3222.4999999999959
 31
0.0
1001
ACDBBLOCKREPETAG
1070
     1
1071
       36
1005
12D41D
  0
LINE
  5
12D41E
  8
OBJECT
 10
3083.0
 20
-3222.4999999999959
 30
0.0
 11
3083.0
 21
-3127.4999999999959
 31
0.0
1001
ACDBBLOCKREPETAG
1070
     1
1071
       37
1005
12D41E
  0
LINE
  5
12D41F
  8
OBJECT
 10
3087.0
 20
-3122.9999999999959
 30
0.0
 11
3083.0
 21
-3127.4999999999959
 31
0.0
1001
ACDBBLOCKREPETAG
1070
     1
1071
       38
1005
12D41F
  0
LINE
  5
12D420
  8
OBJECT
 10
3087.0
 20
-3226.9999999999959
 30
0.0
 11
3083.0
 21
-3222.4999999999959
 31
0.0
1001
ACDBBLOCKREPETAG
1070
     1
1071
       39
1005
12D420
  0
LINE
  5
12D421
  8
OBJECT
 10
3073.0
 20
-3112.9999999999959
 30
0.0
 11
3070.0
 21
-3112.9999999999959
 31
0.0
1001
ACDBBLOCKREPETAG
1070
     1
1071
       40
1005
12D421
  0
ARC
  5
12D422
  8
OBJECT
 10
3073.0
 20
-3115.9999999999959
 30
0.0
 40
3.0
 50
0.0
 51
90.0
1001
ACDBBLOCKREPETAG
1070
     1
1071
       41
1005
12D422
  0
LINE
  5
12D423
  8
OBJECT
 10
3070.0
 20
-3236.9999999999959
 30
0.0
 11
3073.0
 21
-3236.9999999999959
 31
0.0
1001
ACDBBLOCKREPETAG
1070
     1
1071
       42
1005
12D423
  0
ARC
  5
12D424
  8
OBJECT
 10
3073.0
 20
-3233.9999999999959
 30
0.0
 40
3.0
 50
270.0
 51
0.0
1001
ACDBBLOCKREPETAG
1070
     1
1071
       43
1005
12D424
  0
LINE
  5
12D425
  8
OBJECT
 10
3076.0
 20
-3233.9999999999959
 30
0.0
 11
3076.0
 21
-3115.9999999999959
 31
0.0
1001
ACDBBLOCKREPETAG
1070
     1
1071
       44
1005
12D425
  0
LINE
  5
12D426
  8
HIDDEN
 10
3078.0
 20
-3136.9999999999959
 30
0.0
 11
3078.0
 21
-3212.9999999999959
 31
0.0
1001
ACDBBLOCKREPETAG
1070
     1
1071
       45
1005
12D426
  0
LINE
  5
12D427
  8
CENTER
 10
1908.9999999999991
 20
-3174.9999999999959
 30
0.0
 11
1929.9999999999991
 21
-3174.9999999999959
 31
0.0
1001
ACDBBLOCKREPETAG
1070
     1
1071
        0
1005
12D427
  0
LINE
  5
12D428
  8
OBJECT
 10
1926.9999999999991
 20
-3236.9999999999959
 30
0.0
 11
1929.9999999999991
 21
-3236.9999999999959
 31
0.0
1001
ACDBBLOCKREPETAG
1070
     1
1071
        1
1005
12D428
  0
ARC
  5
12D429
  8
OBJECT
 10
1926.9999999999991
 20
-3233.9999999999959
 30
0.0
 40
3.0
 50
180.0
 51
270.0
1001
ACDBBLOCKREPETAG
1070
     1
1071
        2
1005
12D429
  0
LINE
  5
12D42A
  8
OBJECT
 10
1929.9999999999991
 20
-3112.9999999999959
 30
0.0
 11
1926.9999999999991
 21
-3112.9999999999959
 31
0.0
1001
ACDBBLOCKREPETAG
1070
     1
1071
        3
1005
12D42A
  0
ARC
  5
12D42B
  8
OBJECT
 10
1926.9999999999991
 20
-3115.9999999999959
 30
0.0
 40
3.0
 50
90.0
 51
180.0
1001
ACDBBLOCKREPETAG
1070
     1
1071
        4
1005
12D42B
  0
LINE
  5
12D42C
  8
OBJECT
 10
1923.9999999999991
 20
-3115.9999999999959
 30
0.0
 11
1923.9999999999991
 21
-3233.9999999999959
 31
0.0
1001
ACDBBLOCKREPETAG
1070
     1
1071
        5
1005
12D42C
  0
LINE
  5
12D42D
  8
CENTER
 10
2000.0
 20
-3265.9999999999959
 30
0.0
 11
2000.0
 21
-3244.9999999999959
 31
0.0
1001
ACDBBLOCKREPETAG
1070
     1
1071
        0
1005
12D42D
  0
LINE
  5
12D42E
  8
OBJECT
 10
2062.0
 20
-3247.9999999999968
 30
0.0
 11
2062.0
 21
-3244.9999999999959
 31
0.0
1001
ACDBBLOCKREPETAG
1070
     1
1071
        1
1005
12D42E
  0
ARC
  5
12D42F
  8
OBJECT
 10
2059.0
 20
-3247.9999999999968
 30
0.0
 40
3.0
 50
270.0
 51
0.0
1001
ACDBBLOCKREPETAG
1070
     1
1071
        2
1005
12D42F
  0
LINE
  5
12D430
  8
OBJECT
 10
1937.9999999999991
 20
-3244.9999999999959
 30
0.0
 11
1937.9999999999991
 21
-3247.999999999995
 31
0.0
1001
ACDBBLOCKREPETAG
1070
     1
1071
        3
1005
12D430
  0
ARC
  5
12D431
  8
OBJECT
 10
1941.0
 20
-3247.999999999995
 30
0.0
 40
3.0
 50
180.0
 51
270.0
1001
ACDBBLOCKREPETAG
1070
     1
1071
        4
1005
12D431
  0
LINE
  5
12D432
  8
OBJECT
 10
1941.0
 20
-3250.999999999995
 30
0.0
 11
2059.0
 21
-3250.9999999999968
 31
0.0
1001
ACDBBLOCKREPETAG
1070
     1
1071
        5
1005
12D432
  0
LINE
  5
12D433
  8
OBJECT
 10
2123.0
 20
-3127.9999999999959
 30
0.0
 11
2130.0
 21
-3127.9999999999959
 31
0.0
1001
ACDBBLOCKREPETAG
1070
     1
1071
        7
1005
12D433
  0
LINE
  5
12D434
  8
OBJECT
 10
2130.0
 20
-3127.9999999999959
 30
0.0
 11
2130.0
 21
-3221.9999999999959
 31
0.0
1001
ACDBBLOCKREPETAG
1070
     1
1071
        8
1005
12D434
  0
LINE
  5
12D435
  8
OBJECT
 10
2130.0
 20
-3221.9999999999959
 30
0.0
 11
2123.0
 21
-3221.9999999999959
 31
0.0
1001
ACDBBLOCKREPETAG
1070
     1
1071
        9
1005
12D435
  0
LINE
  5
12D436
  8
OBJECT
 10
2123.0
 20
-3221.9999999999959
 30
0.0
 11
2123.0
 21
-3127.9999999999959
 31
0.0
1001
ACDBBLOCKREPETAG
1070
     1
1071
       10
1005
12D436
  0
LINE
  5
12D437
  8
CENTER
 10
2145.0
 20
-3174.9999999999959
 30
0.0
 11
2070.0
 21
-3174.9999999999959
 31
0.0
1001
ACDBBLOCKREPETAG
1070
     1
1071
       11
1005
12D437
  0
LINE
  5
12D438
  8
OBJECT
 10
2123.0
 20
-3130.9999999999959
 30
0.0
 11
2087.0
 21
-3130.9999999999959
 31
0.0
1001
ACDBBLOCKREPETAG
1070
     1
1071
       12
1005
12D438
  0
LINE
  5
12D439
  8
OBJECT
 10
2087.0
 20
-3130.9999999999959
 30
0.0
 11
2087.0
 21
-3218.9999999999959
 31
0.0
1001
ACDBBLOCKREPETAG
1070
     1
1071
       13
1005
12D439
  0
LINE
  5
12D43A
  8
OBJECT
 10
2087.0
 20
-3218.9999999999959
 30
0.0
 11
2123.0
 21
-3218.9999999999959
 31
0.0
1001
ACDBBLOCKREPETAG
1070
     1
1071
       14
1005
12D43A
  0
LINE
  5
12D43B
  8
OBJECT
 10
2083.0
 20
-3135.4999999999959
 30
0.0
 11
2076.0
 21
-3135.4999999999959
 31
0.0
1001
ACDBBLOCKREPETAG
1070
     1
1071
       15
1005
12D43B
  0
LINE
  5
12D43C
  8
OBJECT
 10
2076.0
 20
-3214.4999999999959
 30
0.0
 11
2083.0
 21
-3214.4999999999959
 31
0.0
1001
ACDBBLOCKREPETAG
1070
     1
1071
       16
1005
12D43C
  0
LINE
  5
12D43D
  8
OBJECT
 10
2083.0
 20
-3214.4999999999959
 30
0.0
 11
2083.0
 21
-3135.4999999999959
 31
0.0
1001
ACDBBLOCKREPETAG
1070
     1
1071
       17
1005
12D43D
  0
LINE
  5
12D43E
  8
OBJECT
 10
2087.0
 20
-3130.9999999999959
 30
0.0
 11
2083.0
 21
-3135.4999999999959
 31
0.0
1001
ACDBBLOCKREPETAG
1070
     1
1071
       18
1005
12D43E
  0
LINE
  5
12D43F
  8
OBJECT
 10
2087.0
 20
-3218.9999999999959
 30
0.0
 11
2083.0
 21
-3214.4999999999959
 31
0.0
1001
ACDBBLOCKREPETAG
1070
     1
1071
       19
1005
12D43F
  0
LINE
  5
12D440
  8
OBJECT
 10
2073.0
 20
-3112.9999999999959
 30
0.0
 11
2070.0
 21
-3112.9999999999959
 31
0.0
1001
ACDBBLOCKREPETAG
1070
     1
1071
       20
1005
12D440
  0
ARC
  5
12D441
  8
OBJECT
 10
2073.0
 20
-3115.9999999999959
 30
0.0
 40
3.0
 50
0.0
 51
90.0
1001
ACDBBLOCKREPETAG
1070
     1
1071
       21
1005
12D441
  0
LINE
  5
12D442
  8
OBJECT
 10
2070.0
 20
-3236.9999999999959
 30
0.0
 11
2073.0
 21
-3236.9999999999959
 31
0.0
1001
ACDBBLOCKREPETAG
1070
     1
1071
       22
1005
12D442
  0
ARC
  5
12D443
  8
OBJECT
 10
2073.0
 20
-3233.9999999999959
 30
0.0
 40
3.0
 50
270.0
 51
0.0
1001
ACDBBLOCKREPETAG
1070
     1
1071
       23
1005
12D443
  0
LINE
  5
12D444
  8
OBJECT
 10
2076.0
 20
-3233.9999999999959
 30
0.0
 11
2076.0
 21
-3115.9999999999959
 31
0.0
1001
ACDBBLOCKREPETAG
1070
     1
1071
       24
1005
12D444
  0
LINE
  5
12D445
  8
HIDDEN
 10
2078.0
 20
-3144.9999999999959
 30
0.0
 11
2078.0
 21
-3204.9999999999959
 31
0.0
1001
ACDBBLOCKREPETAG
1070
     1
1071
       25
1005
12D445
  0
LINE
  5
12D446
  8
OBJECT
 10
4327.0
 20
-3458.9999999999959
 30
0.0
 11
4330.0
 21
-3458.9999999999959
 31
0.0
1001
ACDBBLOCKREPETAG
1070
     1
1071
        1
1005
12D446
  0
ARC
  5
12D447
  8
OBJECT
 10
4327.0
 20
-3461.9999999999959
 30
0.0
 40
3.0
 50
90.0
 51
180.0
1001
ACDBBLOCKREPETAG
1070
     1
1071
        2
1005
12D447
  0
LINE
  5
12D448
  8
OBJECT
 10
4330.0
 20
-3582.9999999999968
 30
0.0
 11
4327.0
 21
-3582.9999999999968
 31
0.0
1001
ACDBBLOCKREPETAG
1070
     1
1071
        3
1005
12D448
  0
ARC
  5
12D449
  8
OBJECT
 10
4327.0
 20
-3579.9999999999959
 30
0.0
 40
3.0
 50
180.0
 51
270.0
1001
ACDBBLOCKREPETAG
1070
     1
1071
        4
1005
12D449
  0
LINE
  5
12D44A
  8
OBJECT
 10
4324.0
 20
-3579.9999999999959
 30
0.0
 11
4324.0
 21
-3461.9999999999959
 31
0.0
1001
ACDBBLOCKREPETAG
1070
     1
1071
        5
1005
12D44A
  0
LINE
  5
12D44B
  8
OBJECT
 10
3927.0
 20
-3458.9999999999959
 30
0.0
 11
3930.0
 21
-3458.9999999999959
 31
0.0
1001
ACDBBLOCKREPETAG
1070
     1
1071
        1
1005
12D44B
  0
ARC
  5
12D44C
  8
OBJECT
 10
3927.0
 20
-3461.9999999999959
 30
0.0
 40
3.0
 50
90.0
 51
180.0
1001
ACDBBLOCKREPETAG
1070
     1
1071
        2
1005
12D44C
  0
LINE
  5
12D44D
  8
OBJECT
 10
3930.0
 20
-3582.9999999999968
 30
0.0
 11
3927.0
 21
-3582.9999999999968
 31
0.0
1001
ACDBBLOCKREPETAG
1070
     1
1071
        3
1005
12D44D
  0
ARC
  5
12D44E
  8
OBJECT
 10
3927.0
 20
-3579.9999999999959
 30
0.0
 40
3.0
 50
180.0
 51
270.0
1001
ACDBBLOCKREPETAG
1070
     1
1071
        4
1005
12D44E
  0
LINE
  5
12D44F
  8
OBJECT
 10
3924.0
 20
-3579.9999999999959
 30
0.0
 11
3924.0
 21
-3461.9999999999959
 31
0.0
1001
ACDBBLOCKREPETAG
1070
     1
1071
        5
1005
12D44F
  0
CIRCLE
  5
12D450
  8
OBJECT
 10
4000.0
 20
-3520.9999999999968
 30
0.0
 40
62.0
1001
ACDBBLOCKREPETAG
1070
     1
1071
        0
1005
12D450
  0
LINE
  5
12D451
  8
CENTER
 10
4477.0
 20
-3520.9999999999968
 30
0.0
 11
4323.0
 21
-3520.9999999999968
 31
0.0
1001
ACDBBLOCKREPETAG
1070
     1
1071
       17
1005
12D451
  0
CIRCLE
  5
12D452
  8
OBJECT
 10
4400.0
 20
-3520.9999999999968
 30
0.0
 40
41.5
1001
ACDBBLOCKREPETAG
1070
     1
1071
       19
1005
12D452
  0
CIRCLE
  5
12D453
  8
OBJECT
 10
4400.0
 20
-3520.9999999999968
 30
0.0
 40
54.0
1001
ACDBBLOCKREPETAG
1070
     1
1071
       20
1005
12D453
  0
ARC
  5
12D454
  8
OBJECT
 10
4400.0
 20
-3520.9999999999968
 30
0.0
 40
62.0
 50
287.89655112921122
 51
252.1034488707887
1001
ACDBBLOCKREPETAG
1070
     1
1071
       21
1005
12D454
  0
LINE
  5
12D455
  8
OBJECT
 10
4380.947441116743
 20
-3579.9999999999968
 30
0.0
 11
4419.052558883257
 21
-3579.9999999999968
 31
0.0
1001
ACDBBLOCKREPETAG
1070
     1
1071
       22
1005
12D455
  0
LINE
  5
12D456
  8
OBJECT
 10
4123.0
 20
-3458.9999999999968
 30
0.0
 11
4130.0
 21
-3458.9999999999968
 31
0.0
1001
ACDBBLOCKREPETAG
1070
     1
1071
       45
1005
12D456
  0
LINE
  5
12D457
  8
OBJECT
 10
4130.0
 20
-3458.9999999999968
 30
0.0
 11
4130.0
 21
-3579.9999999999968
 31
0.0
1001
ACDBBLOCKREPETAG
1070
     1
1071
       46
1005
12D457
  0
LINE
  5
12D458
  8
OBJECT
 10
4123.0
 20
-3579.9999999999968
 30
0.0
 11
4123.0
 21
-3458.9999999999968
 31
0.0
1001
ACDBBLOCKREPETAG
1070
     1
1071
       47
1005
12D458
  0
LINE
  5
12D459
  8
CENTER
 10
4145.0
 20
-3520.9999999999968
 30
0.0
 11
4060.9999999999991
 21
-3520.9999999999968
 31
0.0
1001
ACDBBLOCKREPETAG
1070
     1
1071
       48
1005
12D459
  0
LINE
  5
12D45A
  8
OBJECT
 10
4123.0
 20
-3461.9999999999968
 30
0.0
 11
4086.9999999999982
 21
-3461.9999999999968
 31
0.0
1001
ACDBBLOCKREPETAG
1070
     1
1071
       49
1005
12D45A
  0
LINE
  5
12D45B
  8
OBJECT
 10
4086.9999999999982
 20
-3461.9999999999968
 30
0.0
 11
4086.9999999999982
 21
-3579.9999999999968
 31
0.0
1001
ACDBBLOCKREPETAG
1070
     1
1071
       50
1005
12D45B
  0
LINE
  5
12D45C
  8
OBJECT
 10
4086.9999999999982
 20
-3579.9999999999968
 30
0.0
 11
4130.0
 21
-3579.9999999999968
 31
0.0
1001
ACDBBLOCKREPETAG
1070
     1
1071
       51
1005
12D45C
  0
LINE
  5
12D45D
  8
OBJECT
 10
4083.0
 20
-3466.4999999999968
 30
0.0
 11
4075.9999999999982
 21
-3466.4999999999968
 31
0.0
1001
ACDBBLOCKREPETAG
1070
     1
1071
       52
1005
12D45D
  0
LINE
  5
12D45E
  8
OBJECT
 10
4075.9999999999982
 20
-3575.4999999999968
 30
0.0
 11
4083.0
 21
-3575.4999999999968
 31
0.0
1001
ACDBBLOCKREPETAG
1070
     1
1071
       53
1005
12D45E
  0
LINE
  5
12D45F
  8
OBJECT
 10
4083.0
 20
-3575.4999999999968
 30
0.0
 11
4083.0
 21
-3466.4999999999968
 31
0.0
1001
ACDBBLOCKREPETAG
1070
     1
1071
       54
1005
12D45F
  0
LINE
  5
12D460
  8
OBJECT
 10
4086.9999999999982
 20
-3461.9999999999968
 30
0.0
 11
4083.0
 21
-3466.4999999999968
 31
0.0
1001
ACDBBLOCKREPETAG
1070
     1
1071
       55
1005
12D460
  0
LINE
  5
12D461
  8
OBJECT
 10
4086.9999999999982
 20
-3579.9999999999968
 30
0.0
 11
4083.0
 21
-3575.4999999999968
 31
0.0
1001
ACDBBLOCKREPETAG
1070
     1
1071
       56
1005
12D461
  0
LINE
  5
12D462
  8
OBJECT
 10
4072.9999999999991
 20
-3458.9999999999968
 30
0.0
 11
4069.9999999999991
 21
-3458.9999999999968
 31
0.0
1001
ACDBBLOCKREPETAG
1070
     1
1071
       57
1005
12D462
  0
ARC
  5
12D463
  8
OBJECT
 10
4072.9999999999991
 20
-3461.9999999999968
 30
0.0
 40
3.0
 50
0.0
 51
90.0
1001
ACDBBLOCKREPETAG
1070
     1
1071
       58
1005
12D463
  0
LINE
  5
12D464
  8
OBJECT
 10
4069.9999999999991
 20
-3582.9999999999968
 30
0.0
 11
4072.9999999999991
 21
-3582.9999999999968
 31
0.0
1001
ACDBBLOCKREPETAG
1070
     1
1071
       59
1005
12D464
  0
ARC
  5
12D465
  8
OBJECT
 10
4072.9999999999991
 20
-3579.9999999999968
 30
0.0
 40
3.0
 50
270.0
 51
0.0
1001
ACDBBLOCKREPETAG
1070
     1
1071
       60
1005
12D465
  0
LINE
  5
12D466
  8
OBJECT
 10
4075.9999999999982
 20
-3579.9999999999968
 30
0.0
 11
4075.9999999999982
 21
-3461.9999999999968
 31
0.0
1001
ACDBBLOCKREPETAG
1070
     1
1071
       61
1005
12D466
  0
LINE
  5
12D467
  8
HIDDEN
 10
4077.9999999999982
 20
-3476.4999999999968
 30
0.0
 11
4077.9999999999982
 21
-3565.4999999999968
 31
0.0
1001
ACDBBLOCKREPETAG
1070
     1
1071
       63
1005
12D467
  0
LINE
  5
12D468
  8
OBJECT
 10
3327.0
 20
-3458.9999999999959
 30
0.0
 11
3330.0
 21
-3458.9999999999959
 31
0.0
1001
ACDBBLOCKREPETAG
1070
     1
1071
        1
1005
12D468
  0
ARC
  5
12D469
  8
OBJECT
 10
3327.0
 20
-3461.9999999999959
 30
0.0
 40
3.0
 50
90.0
 51
180.0
1001
ACDBBLOCKREPETAG
1070
     1
1071
        2
1005
12D469
  0
LINE
  5
12D46A
  8
OBJECT
 10
3330.0
 20
-3582.9999999999968
 30
0.0
 11
3327.0
 21
-3582.9999999999968
 31
0.0
1001
ACDBBLOCKREPETAG
1070
     1
1071
        3
1005
12D46A
  0
ARC
  5
12D46B
  8
OBJECT
 10
3327.0
 20
-3579.9999999999959
 30
0.0
 40
3.0
 50
180.0
 51
270.0
1001
ACDBBLOCKREPETAG
1070
     1
1071
        4
1005
12D46B
  0
LINE
  5
12D46C
  8
OBJECT
 10
3324.0
 20
-3579.9999999999959
 30
0.0
 11
3324.0
 21
-3461.9999999999959
 31
0.0
1001
ACDBBLOCKREPETAG
1070
     1
1071
        5
1005
12D46C
  0
LINE
  5
12D46D
  8
OBJECT
 10
2927.0
 20
-3458.9999999999959
 30
0.0
 11
2930.0
 21
-3458.9999999999959
 31
0.0
1001
ACDBBLOCKREPETAG
1070
     1
1071
        1
1005
12D46D
  0
ARC
  5
12D46E
  8
OBJECT
 10
2927.0
 20
-3461.9999999999959
 30
0.0
 40
3.0
 50
90.0
 51
180.0
1001
ACDBBLOCKREPETAG
1070
     1
1071
        2
1005
12D46E
  0
LINE
  5
12D46F
  8
OBJECT
 10
2930.0
 20
-3582.9999999999968
 30
0.0
 11
2927.0
 21
-3582.9999999999968
 31
0.0
1001
ACDBBLOCKREPETAG
1070
     1
1071
        3
1005
12D46F
  0
ARC
  5
12D470
  8
OBJECT
 10
2927.0
 20
-3579.9999999999959
 30
0.0
 40
3.0
 50
180.0
 51
270.0
1001
ACDBBLOCKREPETAG
1070
     1
1071
        4
1005
12D470
  0
LINE
  5
12D471
  8
OBJECT
 10
2924.0
 20
-3579.9999999999959
 30
0.0
 11
2924.0
 21
-3461.9999999999959
 31
0.0
1001
ACDBBLOCKREPETAG
1070
     1
1071
        5
1005
12D471
  0
CIRCLE
  5
12D472
  8
OBJECT
 10
3000.0
 20
-3520.9999999999968
 30
0.0
 40
62.0
1001
ACDBBLOCKREPETAG
1070
     1
1071
        0
1005
12D472
  0
CIRCLE
  5
12D473
  8
OBJECT
 10
3400.0
 20
-3527.9999999999968
 30
0.0
 40
35.5
1001
ACDBBLOCKREPETAG
1070
     1
1071
       10
1005
12D473
  0
CIRCLE
  5
12D474
  8
OBJECT
 10
3400.0
 20
-3520.9999999999968
 30
0.0
 40
62.0
1001
ACDBBLOCKREPETAG
1070
     1
1071
       11
1005
12D474
  0
LINE
  5
12D475
  8
CENTER
 10
3330.0
 20
-3527.9999999999968
 30
0.0
 11
3470.0
 21
-3527.9999999999968
 31
0.0
1001
ACDBBLOCKREPETAG
1070
     1
1071
       12
1005
12D475
  0
CIRCLE
  5
12D476
  8
OBJECT
 10
3400.0
 20
-3527.9999999999968
 30
0.0
 40
47.0
1001
ACDBBLOCKREPETAG
1070
     1
1071
       14
1005
12D476
  0
ARC
  5
12D477
  8
OBJECT
 10
3400.0
 20
-3527.9999999999968
 30
0.0
 40
55.0
 50
289.01126526011359
 51
250.98873473988641
1001
ACDBBLOCKREPETAG
1070
     1
1071
       15
1005
12D477
  0
LINE
  5
12D478
  8
OBJECT
 10
3382.0835271328328
 20
-3579.9999999999968
 30
0.0
 11
3417.9164728671681
 21
-3579.9999999999968
 31
0.0
1001
ACDBBLOCKREPETAG
1070
     1
1071
       16
1005
12D478
  0
LINE
  5
12D479
  8
OBJECT
 10
3123.0
 20
-3472.9999999999968
 30
0.0
 11
3130.0
 21
-3472.9999999999968
 31
0.0
1001
ACDBBLOCKREPETAG
1070
     1
1071
       26
1005
12D479
  0
LINE
  5
12D47A
  8
OBJECT
 10
3130.0
 20
-3472.9999999999968
 30
0.0
 11
3130.0
 21
-3579.9999999999968
 31
0.0
1001
ACDBBLOCKREPETAG
1070
     1
1071
       27
1005
12D47A
  0
LINE
  5
12D47B
  8
OBJECT
 10
3123.0
 20
-3579.9999999999968
 30
0.0
 11
3123.0
 21
-3472.9999999999968
 31
0.0
1001
ACDBBLOCKREPETAG
1070
     1
1071
       28
1005
12D47B
  0
LINE
  5
12D47C
  8
CENTER
 10
3145.0
 20
-3527.9999999999968
 30
0.0
 11
3061.0
 21
-3527.9999999999968
 31
0.0
1001
ACDBBLOCKREPETAG
1070
     1
1071
       29
1005
12D47C
  0
LINE
  5
12D47D
  8
OBJECT
 10
3123.0
 20
-3475.9999999999968
 30
0.0
 11
3087.0
 21
-3475.9999999999968
 31
0.0
1001
ACDBBLOCKREPETAG
1070
     1
1071
       30
1005
12D47D
  0
LINE
  5
12D47E
  8
OBJECT
 10
3087.0
 20
-3475.9999999999968
 30
0.0
 11
3087.0
 21
-3579.9999999999968
 31
0.0
1001
ACDBBLOCKREPETAG
1070
     1
1071
       31
1005
12D47E
  0
LINE
  5
12D47F
  8
OBJECT
 10
3087.0
 20
-3579.9999999999968
 30
0.0
 11
3130.0
 21
-3579.9999999999968
 31
0.0
1001
ACDBBLOCKREPETAG
1070
     1
1071
       32
1005
12D47F
  0
LINE
  5
12D480
  8
OBJECT
 10
3083.0
 20
-3480.4999999999968
 30
0.0
 11
3076.0
 21
-3480.4999999999968
 31
0.0
1001
ACDBBLOCKREPETAG
1070
     1
1071
       33
1005
12D480
  0
LINE
  5
12D481
  8
OBJECT
 10
3076.0
 20
-3575.4999999999968
 30
0.0
 11
3083.0
 21
-3575.4999999999968
 31
0.0
1001
ACDBBLOCKREPETAG
1070
     1
1071
       34
1005
12D481
  0
LINE
  5
12D482
  8
OBJECT
 10
3083.0
 20
-3575.4999999999968
 30
0.0
 11
3083.0
 21
-3480.4999999999968
 31
0.0
1001
ACDBBLOCKREPETAG
1070
     1
1071
       35
1005
12D482
  0
LINE
  5
12D483
  8
OBJECT
 10
3087.0
 20
-3475.9999999999968
 30
0.0
 11
3083.0
 21
-3480.4999999999968
 31
0.0
1001
ACDBBLOCKREPETAG
1070
     1
1071
       36
1005
12D483
  0
LINE
  5
12D484
  8
OBJECT
 10
3087.0
 20
-3579.9999999999968
 30
0.0
 11
3083.0
 21
-3575.4999999999968
 31
0.0
1001
ACDBBLOCKREPETAG
1070
     1
1071
       37
1005
12D484
  0
LINE
  5
12D485
  8
OBJECT
 10
3073.0
 20
-3458.9999999999968
 30
0.0
 11
3070.0
 21
-3458.9999999999968
 31
0.0
1001
ACDBBLOCKREPETAG
1070
     1
1071
       38
1005
12D485
  0
ARC
  5
12D486
  8
OBJECT
 10
3073.0
 20
-3461.9999999999968
 30
0.0
 40
3.0
 50
0.0
 51
90.0
1001
ACDBBLOCKREPETAG
1070
     1
1071
       39
1005
12D486
  0
LINE
  5
12D487
  8
OBJECT
 10
3070.0
 20
-3582.9999999999968
 30
0.0
 11
3073.0
 21
-3582.9999999999968
 31
0.0
1001
ACDBBLOCKREPETAG
1070
     1
1071
       40
1005
12D487
  0
ARC
  5
12D488
  8
OBJECT
 10
3073.0
 20
-3579.9999999999968
 30
0.0
 40
3.0
 50
270.0
 51
0.0
1001
ACDBBLOCKREPETAG
1070
     1
1071
       41
1005
12D488
  0
LINE
  5
12D489
  8
OBJECT
 10
3076.0
 20
-3579.9999999999968
 30
0.0
 11
3076.0
 21
-3461.9999999999968
 31
0.0
1001
ACDBBLOCKREPETAG
1070
     1
1071
       42
1005
12D489
  0
LINE
  5
12D48A
  8
HIDDEN
 10
3078.0
 20
-3489.9999999999968
 30
0.0
 11
3078.0
 21
-3565.9999999999968
 31
0.0
1001
ACDBBLOCKREPETAG
1070
     1
1071
       43
1005
12D48A
  0
LINE
  5
12D48B
  8
OBJECT
 10
2327.0
 20
-3458.9999999999959
 30
0.0
 11
2330.0
 21
-3458.9999999999959
 31
0.0
1001
ACDBBLOCKREPETAG
1070
     1
1071
        1
1005
12D48B
  0
ARC
  5
12D48C
  8
OBJECT
 10
2327.0
 20
-3461.9999999999959
 30
0.0
 40
3.0
 50
90.0
 51
180.0
1001
ACDBBLOCKREPETAG
1070
     1
1071
        2
1005
12D48C
  0
LINE
  5
12D48D
  8
OBJECT
 10
2330.0
 20
-3582.9999999999968
 30
0.0
 11
2327.0
 21
-3582.9999999999968
 31
0.0
1001
ACDBBLOCKREPETAG
1070
     1
1071
        3
1005
12D48D
  0
ARC
  5
12D48E
  8
OBJECT
 10
2327.0
 20
-3579.9999999999959
 30
0.0
 40
3.0
 50
180.0
 51
270.0
1001
ACDBBLOCKREPETAG
1070
     1
1071
        4
1005
12D48E
  0
LINE
  5
12D48F
  8
OBJECT
 10
2324.0
 20
-3579.9999999999959
 30
0.0
 11
2324.0
 21
-3461.9999999999959
 31
0.0
1001
ACDBBLOCKREPETAG
1070
     1
1071
        5
1005
12D48F
  0
LINE
  5
12D490
  8
OBJECT
 10
1927.0
 20
-3458.9999999999959
 30
0.0
 11
1929.9999999999991
 21
-3458.9999999999959
 31
0.0
1001
ACDBBLOCKREPETAG
1070
     1
1071
        1
1005
12D490
  0
ARC
  5
12D491
  8
OBJECT
 10
1927.0
 20
-3461.9999999999959
 30
0.0
 40
3.0
 50
90.0
 51
180.0
1001
ACDBBLOCKREPETAG
1070
     1
1071
        2
1005
12D491
  0
LINE
  5
12D492
  8
OBJECT
 10
1929.9999999999991
 20
-3582.9999999999968
 30
0.0
 11
1927.0
 21
-3582.9999999999968
 31
0.0
1001
ACDBBLOCKREPETAG
1070
     1
1071
        3
1005
12D492
  0
ARC
  5
12D493
  8
OBJECT
 10
1927.0
 20
-3579.9999999999959
 30
0.0
 40
3.0
 50
180.0
 51
270.0
1001
ACDBBLOCKREPETAG
1070
     1
1071
        4
1005
12D493
  0
LINE
  5
12D494
  8
OBJECT
 10
1924.0
 20
-3579.9999999999959
 30
0.0
 11
1924.0
 21
-3461.9999999999959
 31
0.0
1001
ACDBBLOCKREPETAG
1070
     1
1071
        5
1005
12D494
  0
CIRCLE
  5
12D495
  8
OBJECT
 10
2000.0
 20
-3520.9999999999968
 30
0.0
 40
62.0
1001
ACDBBLOCKREPETAG
1070
     1
1071
        0
1005
12D495
  0
LINE
  5
12D496
  8
SLIM
 10
11925.0
 20
-755.19743878930785
 30
0.0
 11
11925.197438789301
 21
-754.99999999999955
 31
0.0
1001
ACAD
1010
0.0
1020
0.0
1030
0.0
1001
ACDBBLOCKREPETAG
1070
     1
1071
        1
1005
0
  0
LINE
  5
12D497
  8
SLIM
 10
11925.0
 20
-773.15795103144615
 30
0.0
 11
11943.15795103144
 21
-754.99999999999955
 31
0.0
1001
ACAD
1010
0.0
1020
0.0
1030
0.0
1001
ACDBBLOCKREPETAG
1070
     1
1071
       10
1005
12D497
  0
LINE
  5
12D498
  8
SLIM
 10
11925.0
 20
-791.11846327358455
 30
0.0
 11
11961.11846327358
 21
-754.99999999999955
 31
0.0
1001
ACAD
1010
0.0
1020
0.0
1030
0.0
1001
ACDBBLOCKREPETAG
1070
     1
1071
       11
1005
12D498
  0
LINE
  5
12D499
  8
SLIM
 10
11925.0
 20
-809.07897551572285
 30
0.0
 11
11979.07897551572
 21
-754.99999999999955
 31
0.0
1001
ACAD
1010
0.0
1020
0.0
1030
0.0
1001
ACDBBLOCKREPETAG
1070
     1
1071
       12
1005
12D499
  0
LINE
  5
12D49A
  8
SLIM
 10
11925.0
 20
-827.03948775786125
 30
0.0
 11
11997.03948775786
 21
-754.99999999999955
 31
0.0
1001
ACAD
1010
0.0
1020
0.0
1030
0.0
1001
ACDBBLOCKREPETAG
1070
     1
1071
       13
1005
12D49A
  0
LINE
  5
12D49B
  8
SLIM
 10
11925.0
 20
-844.99999999999955
 30
0.0
 11
12015.0
 21
-754.99999999999955
 31
0.0
1001
ACAD
1010
0.0
1020
0.0
1030
0.0
1001
ACDBBLOCKREPETAG
1070
     1
1071
       14
1005
12D49B
  0
LINE
  5
12D49C
  8
SLIM
 10
11925.0
 20
-862.96051224213795
 30
0.0
 11
12032.96051224214
 21
-754.99999999999955
 31
0.0
1001
ACAD
1010
0.0
1020
0.0
1030
0.0
1001
ACDBBLOCKREPETAG
1070
     1
1071
       15
1005
12D49C
  0
LINE
  5
12D49D
  8
SLIM
 10
11926.57043503541
 20
-879.35058944886373
 30
0.0
 11
12050.921024484271
 21
-754.99999999999955
 31
0.0
1001
ACAD
1010
0.0
1020
0.0
1030
0.0
1001
ACDBBLOCKREPETAG
1070
     1
1071
       16
1005
12D49D
  0
LINE
  5
12D49E
  8
SLIM
 10
11929.39181818456
 20
-894.48971854185413
 30
0.0
 11
12068.881536726411
 21
-754.99999999999955
 31
0.0
1001
ACAD
1010
0.0
1020
0.0
1030
0.0
1001
ACDBBLOCKREPETAG
1070
     1
1071
       17
1005
12D49E
  0
LINE
  5
12D49F
  8
SLIM
 10
11932.21320133371
 20
-909.62884763484476
 30
0.0
 11
12075.0
 21
-766.8420489685526
 31
0.0
1001
ACAD
1010
0.0
1020
0.0
1030
0.0
1001
ACDBBLOCKREPETAG
1070
     1
1071
       18
1005
12D49F
  0
LINE
  5
12D4A0
  8
SLIM
 10
11935.03458448285
 20
-924.76797672783539
 30
0.0
 11
12075.0
 21
-784.80256121069112
 31
0.0
1001
ACAD
1010
0.0
1020
0.0
1030
0.0
1001
ACDBBLOCKREPETAG
1070
     1
1071
       19
1005
12D4A0
  0
LINE
  5
12D4A1
  8
SLIM
 10
11937.855967632
 20
-939.90710582082625
 30
0.0
 11
12075.0
 21
-802.76307345282942
 31
0.0
1001
ACAD
1010
0.0
1020
0.0
1030
0.0
1001
ACDBBLOCKREPETAG
1070
     1
1071
       20
1005
12D4A1
  0
LINE
  5
12D4A2
  8
SLIM
 10
11940.67735078115
 20
-955.04623491381665
 30
0.0
 11
12075.0
 21
-820.7235856949676
 31
0.0
1001
ACAD
1010
0.0
1020
0.0
1030
0.0
1001
ACDBBLOCKREPETAG
1070
     1
1071
       21
1005
12D4A2
  0
LINE
  5
12D4A3
  8
SLIM
 10
11943.498733930301
 20
-970.18536400680739
 30
0.0
 11
12075.0
 21
-838.684097937106
 31
0.0
1001
ACAD
1010
0.0
1020
0.0
1030
0.0
1001
ACDBBLOCKREPETAG
1070
     1
1071
       22
1005
12D4A3
  0
LINE
  5
12D4A4
  8
SLIM
 10
11945.5
 20
-986.14461017924543
 30
0.0
 11
12075.0
 21
-856.64461017924418
 31
0.0
1001
ACAD
1010
0.0
1020
0.0
1030
0.0
1001
ACDBBLOCKREPETAG
1070
     1
1071
       23
1005
12D4A4
  0
LINE
  5
12D4A5
  8
SLIM
 10
11945.5
 20
-1004.105122421381
 30
0.0
 11
12074.15680692925
 21
-875.44831549213154
 31
0.0
1001
ACAD
1010
0.0
1020
0.0
1030
0.0
1001
ACDBBLOCKREPETAG
1070
     1
1071
       24
1005
12D4A5
  0
LINE
  5
12D4A6
  8
SLIM
 10
11945.5
 20
-1022.065634663517
 30
0.0
 11
12070.04294658328
 21
-897.52268808023439
 31
0.0
1001
ACAD
1010
0.0
1020
0.0
1030
0.0
1001
ACDBBLOCKREPETAG
1070
     1
1071
       25
1005
12D4A6
  0
LINE
  5
12D4A7
  8
SLIM
 10
11960.52614690566
 20
-1024.9999999999991
 30
0.0
 11
12065.92908623732
 21
-919.59706066833724
 31
0.0
1001
ACAD
1010
0.0
1020
0.0
1030
0.0
1001
ACDBBLOCKREPETAG
1070
     1
1071
       26
1005
12D4A7
  0
LINE
  5
12D4A8
  8
SLIM
 10
11978.4866591478
 20
-1024.9999999999991
 30
0.0
 11
12061.81522589136
 21
-941.67143325643985
 31
0.0
1001
ACAD
1010
0.0
1020
0.0
1030
0.0
1001
ACDBBLOCKREPETAG
1070
     1
1071
       27
1005
12D4A8
  0
LINE
  5
12D4A9
  8
SLIM
 10
11996.447171389929
 20
-1024.9999999999991
 30
0.0
 11
12057.70136554539
 21
-963.74580584454304
 31
0.0
1001
ACAD
1010
0.0
1020
0.0
1030
0.0
1001
ACDBBLOCKREPETAG
1070
     1
1071
       28
1005
12D4A9
  0
LINE
  5
12D4AA
  8
SLIM
 10
12014.407683632069
 20
-1024.9999999999991
 30
0.0
 11
12054.5
 21
-984.90768363207394
 31
0.0
1001
ACAD
1010
0.0
1020
0.0
1030
0.0
1001
ACDBBLOCKREPETAG
1070
     1
1071
       29
1005
12D4AA
  0
LINE
  5
12D4AB
  8
SLIM
 10
12032.368195874211
 20
-1024.9999999999991
 30
0.0
 11
12054.5
 21
-1002.868195874213
 31
0.0
1001
ACAD
1010
0.0
1020
0.0
1030
0.0
1001
ACDBBLOCKREPETAG
1070
     1
1071
       30
1005
12D4AB
  0
LINE
  5
12D4AC
  8
SLIM
 10
12050.328708116351
 20
-1024.9999999999991
 30
0.0
 11
12054.5
 21
-1020.828708116352
 31
0.0
1001
ACAD
1010
0.0
1020
0.0
1030
0.0
1001
ACDBBLOCKREPETAG
1070
     1
1071
       31
1005
12D4AC
  0
LINE
  5
12D4AD
  8
OBJECT
 10
11925.0
 20
-754.99999999999955
 30
0.0
 11
12075.0
 21
-754.99999999999955
 31
0.0
1001
ACDBBLOCKREPETAG
1070
     1
1071
        2
1005
12D4AD
  0
LINE
  5
12D4AE
  8
OBJECT
 10
12075.0
 20
-754.99999999999955
 30
0.0
 11
12075.0
 21
-870.9238648686005
 31
0.0
1001
ACDBBLOCKREPETAG
1070
     1
1071
        3
1005
12D4AE
  0
LINE
  5
12D4AF
  8
OBJECT
 10
12075.0
 20
-870.9238648686005
 30
0.0
 11
12054.5
 21
-980.92386486860221
 31
0.0
1001
ACDBBLOCKREPETAG
1070
     1
1071
        4
1005
12D4AF
  0
LINE
  5
12D4B0
  8
OBJECT
 10
12054.5
 20
-980.92386486860221
 30
0.0
 11
12054.5
 21
-1024.9999999999991
 31
0.0
1001
ACDBBLOCKREPETAG
1070
     1
1071
        5
1005
12D4B0
  0
LINE
  5
12D4B1
  8
OBJECT
 10
12054.5
 20
-1024.9999999999991
 30
0.0
 11
11945.5
 21
-1024.9999999999991
 31
0.0
1001
ACDBBLOCKREPETAG
1070
     1
1071
        6
1005
12D4B1
  0
LINE
  5
12D4B2
  8
OBJECT
 10
11945.5
 20
-1024.9999999999991
 30
0.0
 11
11945.5
 21
-980.92386486861199
 31
0.0
1001
ACDBBLOCKREPETAG
1070
     1
1071
        7
1005
12D4B2
  0
LINE
  5
12D4B3
  8
OBJECT
 10
11945.5
 20
-980.92386486861199
 30
0.0
 11
11925.0
 21
-870.9238648686005
 31
0.0
1001
ACDBBLOCKREPETAG
1070
     1
1071
        8
1005
12D4B3
  0
LINE
  5
12D4B4
  8
OBJECT
 10
11925.0
 20
-870.9238648686005
 30
0.0
 11
11925.0
 21
-754.99999999999955
 31
0.0
1001
ACDBBLOCKREPETAG
1070
     1
1071
        9
1005
12D4B4
  0
LINE
  5
12D4B5
  8
SLIM
 10
9925.0
 20
-755.19743878930785
 30
0.0
 11
9925.1974387893097
 21
-754.99999999999955
 31
0.0
1001
ACAD
1010
0.0
1020
0.0
1030
0.0
1001
ACDBBLOCKREPETAG
1070
     1
1071
        1
1005
0
  0
LINE
  5
12D4B6
  8
SLIM
 10
9925.0
 20
-773.15795103144615
 30
0.0
 11
9943.1579510314441
 21
-754.99999999999955
 31
0.0
1001
ACAD
1010
0.0
1020
0.0
1030
0.0
1001
ACDBBLOCKREPETAG
1070
     1
1071
       10
1005
12D4B6
  0
LINE
  5
12D4B7
  8
SLIM
 10
9925.0
 20
-791.11846327358455
 30
0.0
 11
9961.1184632735858
 21
-754.99999999999955
 31
0.0
1001
ACAD
1010
0.0
1020
0.0
1030
0.0
1001
ACDBBLOCKREPETAG
1070
     1
1071
       11
1005
12D4B7
  0
LINE
  5
12D4B8
  8
SLIM
 10
9925.0
 20
-809.07897551572285
 30
0.0
 11
9979.0789755157257
 21
-754.99999999999955
 31
0.0
1001
ACAD
1010
0.0
1020
0.0
1030
0.0
1001
ACDBBLOCKREPETAG
1070
     1
1071
       12
1005
12D4B8
  0
LINE
  5
12D4B9
  8
SLIM
 10
9925.0
 20
-827.03948775786125
 30
0.0
 11
9997.0394877578656
 21
-754.99999999999955
 31
0.0
1001
ACAD
1010
0.0
1020
0.0
1030
0.0
1001
ACDBBLOCKREPETAG
1070
     1
1071
       13
1005
12D4B9
  0
LINE
  5
12D4BA
  8
SLIM
 10
9925.0
 20
-844.99999999999955
 30
0.0
 11
10015.0
 21
-754.99999999999955
 31
0.0
1001
ACAD
1010
0.0
1020
0.0
1030
0.0
1001
ACDBBLOCKREPETAG
1070
     1
1071
       14
1005
12D4BA
  0
LINE
  5
12D4BB
  8
SLIM
 10
9925.0
 20
-862.96051224213795
 30
0.0
 11
10032.96051224214
 21
-754.99999999999955
 31
0.0
1001
ACAD
1010
0.0
1020
0.0
1030
0.0
1001
ACDBBLOCKREPETAG
1070
     1
1071
       15
1005
12D4BB
  0
LINE
  5
12D4BC
  8
SLIM
 10
9926.5704350354117
 20
-879.35058944886373
 30
0.0
 11
10050.921024484271
 21
-754.99999999999955
 31
0.0
1001
ACAD
1010
0.0
1020
0.0
1030
0.0
1001
ACDBBLOCKREPETAG
1070
     1
1071
       16
1005
12D4BC
  0
LINE
  5
12D4BD
  8
SLIM
 10
9929.3918181845602
 20
-894.48971854185413
 30
0.0
 11
10068.881536726411
 21
-754.99999999999955
 31
0.0
1001
ACAD
1010
0.0
1020
0.0
1030
0.0
1001
ACDBBLOCKREPETAG
1070
     1
1071
       17
1005
12D4BD
  0
LINE
  5
12D4BE
  8
SLIM
 10
9932.2132013337086
 20
-909.62884763484476
 30
0.0
 11
10075.0
 21
-766.8420489685526
 31
0.0
1001
ACAD
1010
0.0
1020
0.0
1030
0.0
1001
ACDBBLOCKREPETAG
1070
     1
1071
       18
1005
12D4BE
  0
LINE
  5
12D4BF
  8
SLIM
 10
9935.0345844828553
 20
-924.76797672783539
 30
0.0
 11
10075.0
 21
-784.80256121069112
 31
0.0
1001
ACAD
1010
0.0
1020
0.0
1030
0.0
1001
ACDBBLOCKREPETAG
1070
     1
1071
       19
1005
12D4BF
  0
LINE
  5
12D4C0
  8
SLIM
 10
9937.8559676320037
 20
-939.90710582082625
 30
0.0
 11
10075.0
 21
-802.76307345282942
 31
0.0
1001
ACAD
1010
0.0
1020
0.0
1030
0.0
1001
ACDBBLOCKREPETAG
1070
     1
1071
       20
1005
12D4C0
  0
LINE
  5
12D4C1
  8
SLIM
 10
9940.6773507811504
 20
-955.04623491381665
 30
0.0
 11
10075.0
 21
-820.7235856949676
 31
0.0
1001
ACAD
1010
0.0
1020
0.0
1030
0.0
1001
ACDBBLOCKREPETAG
1070
     1
1071
       21
1005
12D4C1
  0
LINE
  5
12D4C2
  8
SLIM
 10
9943.498733930297
 20
-970.18536400680739
 30
0.0
 11
10075.0
 21
-838.684097937106
 31
0.0
1001
ACAD
1010
0.0
1020
0.0
1030
0.0
1001
ACDBBLOCKREPETAG
1070
     1
1071
       22
1005
12D4C2
  0
LINE
  5
12D4C3
  8
SLIM
 10
9945.4999999999982
 20
-986.14461017924543
 30
0.0
 11
10075.0
 21
-856.64461017924418
 31
0.0
1001
ACAD
1010
0.0
1020
0.0
1030
0.0
1001
ACDBBLOCKREPETAG
1070
     1
1071
       23
1005
12D4C3
  0
LINE
  5
12D4C4
  8
SLIM
 10
9945.5
 20
-1004.105122421381
 30
0.0
 11
10074.15680692925
 21
-875.44831549213154
 31
0.0
1001
ACAD
1010
0.0
1020
0.0
1030
0.0
1001
ACDBBLOCKREPETAG
1070
     1
1071
       24
1005
12D4C4
  0
LINE
  5
12D4C5
  8
SLIM
 10
9945.5000000000036
 20
-1022.065634663517
 30
0.0
 11
10070.04294658328
 21
-897.52268808023439
 31
0.0
1001
ACAD
1010
0.0
1020
0.0
1030
0.0
1001
ACDBBLOCKREPETAG
1070
     1
1071
       25
1005
12D4C5
  0
LINE
  5
12D4C6
  8
SLIM
 10
9960.5261469056604
 20
-1024.9999999999991
 30
0.0
 11
10065.92908623732
 21
-919.59706066833724
 31
0.0
1001
ACAD
1010
0.0
1020
0.0
1030
0.0
1001
ACDBBLOCKREPETAG
1070
     1
1071
       26
1005
12D4C6
  0
LINE
  5
12D4C7
  8
SLIM
 10
9978.4866591477985
 20
-1024.9999999999991
 30
0.0
 11
10061.815225891351
 21
-941.67143325643985
 31
0.0
1001
ACAD
1010
0.0
1020
0.0
1030
0.0
1001
ACDBBLOCKREPETAG
1070
     1
1071
       27
1005
12D4C7
  0
LINE
  5
12D4C8
  8
SLIM
 10
9996.4471713899384
 20
-1024.9999999999991
 30
0.0
 11
10057.70136554539
 21
-963.74580584454304
 31
0.0
1001
ACAD
1010
0.0
1020
0.0
1030
0.0
1001
ACDBBLOCKREPETAG
1070
     1
1071
       28
1005
12D4C8
  0
LINE
  5
12D4C9
  8
SLIM
 10
10014.40768363206
 20
-1024.9999999999991
 30
0.0
 11
10054.5
 21
-984.90768363207394
 31
0.0
1001
ACAD
1010
0.0
1020
0.0
1030
0.0
1001
ACDBBLOCKREPETAG
1070
     1
1071
       29
1005
12D4C9
  0
LINE
  5
12D4CA
  8
SLIM
 10
10032.368195874211
 20
-1024.9999999999991
 30
0.0
 11
10054.5
 21
-1002.868195874213
 31
0.0
1001
ACAD
1010
0.0
1020
0.0
1030
0.0
1001
ACDBBLOCKREPETAG
1070
     1
1071
       30
1005
12D4CA
  0
LINE
  5
12D4CB
  8
SLIM
 10
10050.328708116351
 20
-1024.9999999999991
 30
0.0
 11
10054.5
 21
-1020.828708116352
 31
0.0
1001
ACAD
1010
0.0
1020
0.0
1030
0.0
1001
ACDBBLOCKREPETAG
1070
     1
1071
       31
1005
12D4CB
  0
LINE
  5
12D4CC
  8
OBJECT
 10
9925.0
 20
-754.99999999999955
 30
0.0
 11
10075.0
 21
-754.99999999999955
 31
0.0
1001
ACDBBLOCKREPETAG
1070
     1
1071
        2
1005
12D4CC
  0
LINE
  5
12D4CD
  8
OBJECT
 10
10075.0
 20
-754.99999999999955
 30
0.0
 11
10075.0
 21
-870.9238648686005
 31
0.0
1001
ACDBBLOCKREPETAG
1070
     1
1071
        3
1005
12D4CD
  0
LINE
  5
12D4CE
  8
OBJECT
 10
10075.0
 20
-870.9238648686005
 30
0.0
 11
10054.5
 21
-980.92386486860221
 31
0.0
1001
ACDBBLOCKREPETAG
1070
     1
1071
        4
1005
12D4CE
  0
LINE
  5
12D4CF
  8
OBJECT
 10
10054.5
 20
-980.92386486860221
 30
0.0
 11
10054.5
 21
-1024.9999999999991
 31
0.0
1001
ACDBBLOCKREPETAG
1070
     1
1071
        5
1005
12D4CF
  0
LINE
  5
12D4D0
  8
OBJECT
 10
10054.5
 20
-1024.9999999999991
 30
0.0
 11
9945.5000000000036
 21
-1024.9999999999991
 31
0.0
1001
ACDBBLOCKREPETAG
1070
     1
1071
        6
1005
12D4D0
  0
LINE
  5
12D4D1
  8
OBJECT
 10
9945.5000000000036
 20
-1024.9999999999991
 30
0.0
 11
9945.4999999999982
 21
-980.92386486861199
 31
0.0
1001
ACDBBLOCKREPETAG
1070
     1
1071
        7
1005
12D4D1
  0
LINE
  5
12D4D2
  8
OBJECT
 10
9945.4999999999982
 20
-980.92386486861199
 30
0.0
 11
9925.0
 21
-870.9238648686005
 31
0.0
1001
ACDBBLOCKREPETAG
1070
     1
1071
        8
1005
12D4D2
  0
LINE
  5
12D4D3
  8
OBJECT
 10
9925.0
 20
-870.9238648686005
 30
0.0
 11
9925.0
 21
-754.99999999999955
 31
0.0
1001
ACDBBLOCKREPETAG
1070
     1
1071
        9
1005
12D4D3
  0
LINE
  5
12D4D4
  8
SLIM
 10
7925.0
 20
-755.19743878930785
 30
0.0
 11
7925.1974387893079
 21
-754.99999999999955
 31
0.0
1001
ACAD
1010
0.0
1020
0.0
1030
0.0
1001
ACDBBLOCKREPETAG
1070
     1
1071
        1
1005
0
  0
LINE
  5
12D4D5
  8
SLIM
 10
7925.0
 20
-773.15795103144615
 30
0.0
 11
7943.1579510314459
 21
-754.99999999999955
 31
0.0
1001
ACAD
1010
0.0
1020
0.0
1030
0.0
1001
ACDBBLOCKREPETAG
1070
     1
1071
       11
1005
12D4D5
  0
LINE
  5
12D4D6
  8
SLIM
 10
7925.0
 20
-791.11846327358455
 30
0.0
 11
7961.1184632735867
 21
-754.99999999999955
 31
0.0
1001
ACAD
1010
0.0
1020
0.0
1030
0.0
1001
ACDBBLOCKREPETAG
1070
     1
1071
       12
1005
12D4D6
  0
LINE
  5
12D4D7
  8
SLIM
 10
7925.0
 20
-809.07897551572285
 30
0.0
 11
7979.078975515723
 21
-754.99999999999955
 31
0.0
1001
ACAD
1010
0.0
1020
0.0
1030
0.0
1001
ACDBBLOCKREPETAG
1070
     1
1071
       13
1005
12D4D7
  0
LINE
  5
12D4D8
  8
SLIM
 10
7925.0
 20
-827.03948775786125
 30
0.0
 11
7997.0394877578628
 21
-754.99999999999955
 31
0.0
1001
ACAD
1010
0.0
1020
0.0
1030
0.0
1001
ACDBBLOCKREPETAG
1070
     1
1071
       14
1005
12D4D8
  0
LINE
  5
12D4D9
  8
SLIM
 10
7925.0
 20
-844.99999999999955
 30
0.0
 11
8015.0
 21
-754.99999999999955
 31
0.0
1001
ACAD
1010
0.0
1020
0.0
1030
0.0
1001
ACDBBLOCKREPETAG
1070
     1
1071
       15
1005
12D4D9
  0
LINE
  5
12D4DA
  8
SLIM
 10
7925.0
 20
-862.96051224213795
 30
0.0
 11
8032.960512242139
 21
-754.99999999999955
 31
0.0
1001
ACAD
1010
0.0
1020
0.0
1030
0.0
1001
ACDBBLOCKREPETAG
1070
     1
1071
       16
1005
12D4DA
  0
LINE
  5
12D4DB
  8
SLIM
 10
7926.5704350354117
 20
-879.3505894488635
 30
0.0
 11
8050.9210244842798
 21
-754.99999999999955
 31
0.0
1001
ACAD
1010
0.0
1020
0.0
1030
0.0
1001
ACDBBLOCKREPETAG
1070
     1
1071
       17
1005
12D4DB
  0
LINE
  5
12D4DC
  8
SLIM
 10
7929.3918181845593
 20
-894.48971854185379
 30
0.0
 11
8068.8815367264133
 21
-754.99999999999955
 31
0.0
1001
ACAD
1010
0.0
1020
0.0
1030
0.0
1001
ACDBBLOCKREPETAG
1070
     1
1071
       18
1005
12D4DC
  0
LINE
  5
12D4DD
  8
SLIM
 10
7932.2132013337077
 20
-909.62884763484408
 30
0.0
 11
8075.0
 21
-766.84204896855272
 31
0.0
1001
ACAD
1010
0.0
1020
0.0
1030
0.0
1001
ACDBBLOCKREPETAG
1070
     1
1071
       19
1005
12D4DD
  0
LINE
  5
12D4DE
  8
SLIM
 10
7935.0345844828562
 20
-924.76797672783425
 30
0.0
 11
8075.0
 21
-784.80256121069112
 31
0.0
1001
ACAD
1010
0.0
1020
0.0
1030
0.0
1001
ACDBBLOCKREPETAG
1070
     1
1071
       20
1005
12D4DE
  0
LINE
  5
12D4DF
  8
SLIM
 10
7937.8559676320019
 20
-939.90710582082465
 30
0.0
 11
8075.0
 21
-802.76307345282942
 31
0.0
1001
ACAD
1010
0.0
1020
0.0
1030
0.0
1001
ACDBBLOCKREPETAG
1070
     1
1071
       21
1005
12D4DF
  0
LINE
  5
12D4E0
  8
SLIM
 10
7940.677350781154
 20
-955.04623491381471
 30
0.0
 11
8075.0
 21
-820.7235856949676
 31
0.0
1001
ACAD
1010
0.0
1020
0.0
1030
0.0
1001
ACDBBLOCKREPETAG
1070
     1
1071
       22
1005
12D4E0
  0
LINE
  5
12D4E1
  8
SLIM
 10
7943.4987339303016
 20
-970.18536400680489
 30
0.0
 11
8075.0
 21
-838.684097937106
 31
0.0
1001
ACAD
1010
0.0
1020
0.0
1030
0.0
1001
ACDBBLOCKREPETAG
1070
     1
1071
       23
1005
12D4E1
  0
LINE
  5
12D4E2
  8
SLIM
 10
7946.6446101792453
 20
-984.99999999999955
 30
0.0
 11
8075.0
 21
-856.64461017924418
 31
0.0
1001
ACAD
1010
0.0
1020
0.0
1030
0.0
1001
ACDBBLOCKREPETAG
1070
     1
1071
       24
1005
12D4E2
  0
LINE
  5
12D4E3
  8
SLIM
 10
7955.5
 20
-994.10512242138236
 30
0.0
 11
7964.6051224213816
 21
-984.99999999999955
 31
0.0
1001
ACAD
1010
0.0
1020
0.0
1030
0.0
1001
ACDBBLOCKREPETAG
1070
     1
1071
       25
1005
12D4E3
  0
LINE
  5
12D4E4
  8
SLIM
 10
7964.6051224213816
 20
-984.99999999999955
 30
0.0
 11
8074.1568069292498
 21
-875.44831549213154
 31
0.0
1001
ACAD
1010
0.0
1020
0.0
1030
0.0
1001
ACDBBLOCKREPETAG
1070
     1
1071
       26
1005
12D4E4
  0
LINE
  5
12D4E5
  8
SLIM
 10
7962.5656346635215
 20
-1004.999999999999
 30
0.0
 11
7982.5656346635215
 21
-984.99999999999955
 31
0.0
1001
ACAD
1010
0.0
1020
0.0
1030
0.0
1001
ACDBBLOCKREPETAG
1070
     1
1071
       27
1005
12D4E5
  0
LINE
  5
12D4E6
  8
SLIM
 10
7982.5656346635215
 20
-984.99999999999955
 30
0.0
 11
8070.0429465832849
 21
-897.52268808023405
 31
0.0
1001
ACAD
1010
0.0
1020
0.0
1030
0.0
1001
ACDBBLOCKREPETAG
1070
     1
1071
       28
1005
12D4E6
  0
LINE
  5
12D4E7
  8
SLIM
 10
7980.5261469056604
 20
-1004.999999999999
 30
0.0
 11
8000.5261469056577
 21
-984.99999999999955
 31
0.0
1001
ACAD
1010
0.0
1020
0.0
1030
0.0
1001
ACDBBLOCKREPETAG
1070
     1
1071
       29
1005
12D4E7
  0
LINE
  5
12D4E8
  8
SLIM
 10
8000.5261469056577
 20
-984.99999999999955
 30
0.0
 11
8065.9290862373227
 21
-919.59706066833724
 31
0.0
1001
ACAD
1010
0.0
1020
0.0
1030
0.0
1001
ACDBBLOCKREPETAG
1070
     1
1071
       30
1005
12D4E8
  0
LINE
  5
12D4E9
  8
SLIM
 10
7998.4866591477967
 20
-1004.999999999999
 30
0.0
 11
8018.4866591477967
 21
-984.99999999999955
 31
0.0
1001
ACAD
1010
0.0
1020
0.0
1030
0.0
1001
ACDBBLOCKREPETAG
1070
     1
1071
       31
1005
12D4E9
  0
LINE
  5
12D4EA
  8
SLIM
 10
8018.4866591477967
 20
-984.99999999999955
 30
0.0
 11
8061.8152258913578
 21
-941.67143325643985
 31
0.0
1001
ACAD
1010
0.0
1020
0.0
1030
0.0
1001
ACDBBLOCKREPETAG
1070
     1
1071
       32
1005
12D4EA
  0
LINE
  5
12D4EB
  8
SLIM
 10
8016.4471713899384
 20
-1004.999999999999
 30
0.0
 11
8036.4471713899338
 21
-984.99999999999955
 31
0.0
1001
ACAD
1010
0.0
1020
0.0
1030
0.0
1001
ACDBBLOCKREPETAG
1070
     1
1071
       33
1005
12D4EB
  0
LINE
  5
12D4EC
  8
SLIM
 10
8036.4471713899338
 20
-984.99999999999955
 30
0.0
 11
8057.701365545392
 21
-963.74580584454225
 31
0.0
1001
ACAD
1010
0.0
1020
0.0
1030
0.0
1001
ACDBBLOCKREPETAG
1070
     1
1071
       34
1005
12D4EC
  0
LINE
  5
12D4ED
  8
SLIM
 10
8034.4076836320728
 20
-1004.999999999999
 30
0.0
 11
8044.5000000000036
 21
-994.90768363207383
 31
0.0
1001
ACAD
1010
0.0
1020
0.0
1030
0.0
1001
ACDBBLOCKREPETAG
1070
     1
1071
       35
1005
12D4ED
  0
LINE
  5
12D4EE
  8
OBJECT
 10
7925.0
 20
-754.99999999999955
 30
0.0
 11
8075.0
 21
-754.99999999999955
 31
0.0
1001
ACDBBLOCKREPETAG
1070
     1
1071
        2
1005
12D4EE
  0
LINE
  5
12D4EF
  8
OBJECT
 10
8075.0
 20
-754.99999999999955
 30
0.0
 11
8075.0
 21
-870.9238648686005
 31
0.0
1001
ACDBBLOCKREPETAG
1070
     1
1071
        3
1005
12D4EF
  0
LINE
  5
12D4F0
  8
OBJECT
 10
8075.0
 20
-870.9238648686005
 30
0.0
 11
8053.7403566346029
 21
-984.99999999999955
 31
0.0
1001
ACDBBLOCKREPETAG
1070
     1
1071
        4
1005
12D4F0
  0
LINE
  5
12D4F1
  8
OBJECT
 10
8044.5000000000036
 20
-984.99999999999955
 30
0.0
 11
8044.5000000000036
 21
-1004.999999999999
 31
0.0
1001
ACDBBLOCKREPETAG
1070
     1
1071
        5
1005
12D4F1
  0
LINE
  5
12D4F2
  8
OBJECT
 10
8044.5000000000036
 20
-1004.999999999999
 30
0.0
 11
7955.5
 21
-1004.999999999999
 31
0.0
1001
ACDBBLOCKREPETAG
1070
     1
1071
        6
1005
12D4F2
  0
LINE
  5
12D4F3
  8
OBJECT
 10
7955.5
 20
-1004.999999999999
 30
0.0
 11
7955.5
 21
-984.99999999999955
 31
0.0
1001
ACDBBLOCKREPETAG
1070
     1
1071
        7
1005
12D4F3
  0
LINE
  5
12D4F4
  8
OBJECT
 10
8053.7403566346029
 20
-984.99999999999955
 30
0.0
 11
7946.2596433653962
 21
-984.99999999999955
 31
0.0
1001
ACDBBLOCKREPETAG
1070
     1
1071
        8
1005
12D4F4
  0
LINE
  5
12D4F5
  8
OBJECT
 10
7946.2596433653962
 20
-984.99999999999955
 30
0.0
 11
7925.0
 21
-870.9238648686005
 31
0.0
1001
ACDBBLOCKREPETAG
1070
     1
1071
        9
1005
12D4F5
  0
LINE
  5
12D4F6
  8
OBJECT
 10
7925.0
 20
-870.9238648686005
 30
0.0
 11
7925.0
 21
-754.99999999999955
 31
0.0
1001
ACDBBLOCKREPETAG
1070
     1
1071
       10
1005
12D4F6
  0
LINE
  5
12D4F7
  8
OBJECT
 10
12055.999999999991
 20
-1103.9999999999991
 30
0.0
 11
12055.999999999991
 21
-1113.9999999999991
 31
0.0
1001
ACDBBLOCKREPETAG
1070
     1
1071
      121
1005
12D4F7
  0
LINE
  5
12D4F8
  8
OBJECT
 10
11961.75
 20
-1054.699999999996
 30
0.0
 11
11974.25
 21
-1054.699999999996
 31
0.0
1001
ACDBBLOCKREPETAG
1070
     1
1071
      122
1005
12D4F8
  0
LINE
  5
12D4F9
  8
OBJECT
 10
12073.499999999991
 20
-1062.7
 30
0.0
 11
12073.499999999991
 21
-1064.9999999999991
 31
0.0
1001
ACDBBLOCKREPETAG
1070
     1
1071
      123
1005
12D4F9
  0
LINE
  5
12D4FA
  8
OBJECT
 10
12057.749999999991
 20
-1054.699999999996
 30
0.0
 11
12070.249999999991
 21
-1054.699999999996
 31
0.0
1001
ACDBBLOCKREPETAG
1070
     1
1071
      124
1005
12D4FA
  0
LINE
  5
12D4FB
  8
OBJECT
 10
12054.499999999991
 20
-1062.7
 30
0.0
 11
12054.499999999991
 21
-1064.9999999999991
 31
0.0
1001
ACDBBLOCKREPETAG
1070
     1
1071
      125
1005
12D4FB
  0
LINE
  5
12D4FC
  8
OBJECT
 10
11953.0
 20
-1064.9999999999991
 30
0.0
 11
11953.0
 21
-1062.7
 31
0.0
1001
ACDBBLOCKREPETAG
1070
     1
1071
      126
1005
12D4FC
  0
LINE
  5
12D4FD
  8
OBJECT
 10
11983.0
 20
-1064.9999999999991
 30
0.0
 11
11983.0
 21
-1062.7
 31
0.0
1001
ACDBBLOCKREPETAG
1070
     1
1071
      127
1005
12D4FD
  0
LINE
  5
12D4FE
  8
OBJECT
 10
11961.75
 20
-1054.699999999996
 30
0.0
 11
11961.75
 21
-1062.7
 31
0.0
1001
ACDBBLOCKREPETAG
1070
     1
1071
      128
1005
12D4FE
  0
LINE
  5
12D4FF
  8
OBJECT
 10
11974.25
 20
-1054.699999999996
 30
0.0
 11
11974.25
 21
-1062.7
 31
0.0
1001
ACDBBLOCKREPETAG
1070
     1
1071
      129
1005
12D4FF
  0
LINE
  5
12D500
  8
OBJECT
 10
11953.0
 20
-1062.7
 30
0.0
 11
11983.0
 21
-1062.7
 31
0.0
1001
ACDBBLOCKREPETAG
1070
     1
1071
      130
1005
12D500
  0
LINE
  5
12D501
  8
OBJECT
 10
11960.0
 20
-1103.9999999999991
 30
0.0
 11
11960.0
 21
-1113.9999999999991
 31
0.0
1001
ACDBBLOCKREPETAG
1070
     1
1071
      131
1005
12D501
  0
LINE
  5
12D502
  8
OBJECT
 10
11976.0
 20
-1103.9999999999991
 30
0.0
 11
11976.0
 21
-1113.9999999999991
 31
0.0
1001
ACDBBLOCKREPETAG
1070
     1
1071
      132
1005
12D502
  0
LINE
  5
12D503
  8
OBJECT
 10
11960.0
 20
-1113.9999999999991
 30
0.0
 11
11976.0
 21
-1113.9999999999991
 31
0.0
1001
ACDBBLOCKREPETAG
1070
     1
1071
      133
1005
12D503
  0
LINE
  5
12D504
  8
OBJECT
 10
12071.999999999991
 20
-1103.9999999999991
 30
0.0
 11
12071.999999999991
 21
-1113.9999999999991
 31
0.0
1001
ACDBBLOCKREPETAG
1070
     1
1071
      134
1005
12D504
  0
LINE
  5
12D505
  8
OBJECT
 10
12071.999999999991
 20
-1113.9999999999991
 30
0.0
 11
12055.999999999991
 21
-1113.9999999999991
 31
0.0
1001
ACDBBLOCKREPETAG
1070
     1
1071
      135
1005
12D505
  0
LINE
  5
12D506
  8
OBJECT
 10
11944.999999999991
 20
-1144.9999999999991
 30
0.0
 11
11944.999999999991
 21
-1103.9999999999991
 31
0.0
1001
ACDBBLOCKREPETAG
1070
     1
1071
      136
1005
12D506
  0
LINE
  5
12D507
  8
OBJECT
 10
12054.999999999991
 20
-1103.9999999999991
 30
0.0
 11
12054.999999999991
 21
-1144.9999999999991
 31
0.0
1001
ACDBBLOCKREPETAG
1070
     1
1071
      137
1005
12D507
  0
LINE
  5
12D508
  8
OBJECT
 10
12070.249999999991
 20
-1054.699999999996
 30
0.0
 11
12070.249999999991
 21
-1062.7
 31
0.0
1001
ACDBBLOCKREPETAG
1070
     1
1071
      138
1005
12D508
  0
LINE
  5
12D509
  8
OBJECT
 10
12057.749999999991
 20
-1054.699999999996
 30
0.0
 11
12057.749999999991
 21
-1062.7
 31
0.0
1001
ACDBBLOCKREPETAG
1070
     1
1071
      139
1005
12D509
  0
LINE
  5
12D50A
  8
OBJECT
 10
12054.499999999991
 20
-1062.7
 30
0.0
 11
12073.499999999991
 21
-1062.7
 31
0.0
1001
ACDBBLOCKREPETAG
1070
     1
1071
      140
1005
12D50A
  0
LINE
  5
12D50B
  8
OBJECT
 10
12054.999999999991
 20
-1144.9999999999991
 30
0.0
 11
11944.999999999991
 21
-1144.9999999999991
 31
0.0
1001
ACDBBLOCKREPETAG
1070
     1
1071
      141
1005
12D50B
  0
LINE
  5
12D50C
  8
OBJECT
 10
12075.999999999991
 20
-1079.9999999999991
 30
0.0
 11
11938.999999999991
 21
-1079.9999999999991
 31
0.0
1001
ACDBBLOCKREPETAG
1070
     1
1071
      142
1005
12D50C
  0
LINE
  5
12D50D
  8
OBJECT
 10
12075.999999999991
 20
-1079.9999999999991
 30
0.0
 11
12075.999999999991
 21
-1064.9999999999991
 31
0.0
1001
ACDBBLOCKREPETAG
1070
     1
1071
      143
1005
12D50D
  0
LINE
  5
12D50E
  8
OBJECT
 10
12075.999999999991
 20
-1089.9999999999991
 30
0.0
 11
12075.999999999991
 21
-1103.9999999999991
 31
0.0
1001
ACDBBLOCKREPETAG
1070
     1
1071
      144
1005
12D50E
  0
LINE
  5
12D50F
  8
OBJECT
 10
12068.999999999991
 20
-1089.9999999999991
 30
0.0
 11
12068.999999999991
 21
-1079.9999999999991
 31
0.0
1001
ACDBBLOCKREPETAG
1070
     1
1071
      145
1005
12D50F
  0
LINE
  5
12D510
  8
OBJECT
 10
12058.999999999991
 20
-1089.9999999999991
 30
0.0
 11
12058.999999999991
 21
-1079.9999999999991
 31
0.0
1001
ACDBBLOCKREPETAG
1070
     1
1071
      146
1005
12D510
  0
LINE
  5
12D511
  8
OBJECT
 10
11938.999999999991
 20
-1089.9999999999991
 30
0.0
 11
11938.999999999991
 21
-1103.9999999999991
 31
0.0
1001
ACDBBLOCKREPETAG
1070
     1
1071
      147
1005
12D511
  0
LINE
  5
12D512
  8
OBJECT
 10
11938.999999999991
 20
-1103.9999999999991
 30
0.0
 11
12075.999999999991
 21
-1103.9999999999991
 31
0.0
1001
ACDBBLOCKREPETAG
1070
     1
1071
      148
1005
12D512
  0
LINE
  5
12D513
  8
OBJECT
 10
11973.0
 20
-1089.9999999999991
 30
0.0
 11
11973.0
 21
-1079.9999999999991
 31
0.0
1001
ACDBBLOCKREPETAG
1070
     1
1071
      149
1005
12D513
  0
LINE
  5
12D514
  8
OBJECT
 10
11963.0
 20
-1089.9999999999991
 30
0.0
 11
11963.0
 21
-1079.9999999999991
 31
0.0
1001
ACDBBLOCKREPETAG
1070
     1
1071
      150
1005
12D514
  0
LINE
  5
12D515
  8
OBJECT
 10
11938.999999999991
 20
-1089.9999999999991
 30
0.0
 11
12075.999999999991
 21
-1089.9999999999991
 31
0.0
1001
ACDBBLOCKREPETAG
1070
     1
1071
      151
1005
12D515
  0
LINE
  5
12D516
  8
OBJECT
 10
11945.999999999991
 20
-1079.9999999999991
 30
0.0
 11
11945.999999999991
 21
-1089.9999999999991
 31
0.0
1001
ACDBBLOCKREPETAG
1070
     1
1071
      152
1005
12D516
  0
LINE
  5
12D517
  8
OBJECT
 10
12053.999999999991
 20
-1079.9999999999991
 30
0.0
 11
12053.999999999991
 21
-1089.9999999999991
 31
0.0
1001
ACDBBLOCKREPETAG
1070
     1
1071
      153
1005
12D517
  0
LINE
  5
12D518
  8
OBJECT
 10
12044.5
 20
-979.99999999999966
 30
0.0
 11
12065.0
 21
-869.99999999999955
 31
0.0
1001
ACDBBLOCKREPETAG
1070
     1
1071
      154
1005
12D518
  0
LINE
  5
12D519
  8
OBJECT
 10
11955.5
 20
-979.99999999999966
 30
0.0
 11
12044.5
 21
-979.99999999999966
 31
0.0
1001
ACDBBLOCKREPETAG
1070
     1
1071
      155
1005
12D519
  0
LINE
  5
12D51A
  8
OBJECT
 10
11938.999999999991
 20
-1079.9999999999991
 30
0.0
 11
11938.999999999991
 21
-1064.9999999999991
 31
0.0
1001
ACDBBLOCKREPETAG
1070
     1
1071
      156
1005
12D51A
  0
LINE
  5
12D51B
  8
OBJECT
 10
11938.999999999991
 20
-1064.9999999999991
 30
0.0
 11
12075.999999999991
 21
-1064.9999999999991
 31
0.0
1001
ACDBBLOCKREPETAG
1070
     1
1071
      157
1005
12D51B
  0
LINE
  5
12D51C
  8
OBJECT
 10
11955.5
 20
-979.99999999999966
 30
0.0
 11
11955.5
 21
-1029.9999999999991
 31
0.0
1001
ACDBBLOCKREPETAG
1070
     1
1071
      158
1005
12D51C
  0
LINE
  5
12D51D
  8
OBJECT
 10
12044.5
 20
-979.99999999999966
 30
0.0
 11
12044.5
 21
-1029.9999999999991
 31
0.0
1001
ACDBBLOCKREPETAG
1070
     1
1071
      159
1005
12D51D
  0
LINE
  5
12D51E
  8
OBJECT
 10
11947.0
 20
-1029.9999999999991
 30
0.0
 11
12053.0
 21
-1029.9999999999991
 31
0.0
1001
ACDBBLOCKREPETAG
1070
     1
1071
      160
1005
12D51E
  0
LINE
  5
12D51F
  8
HIDDEN
 10
11955.5
 20
-1039.9999999999991
 30
0.0
 11
12044.5
 21
-1039.9999999999991
 31
0.0
1001
ACDBBLOCKREPETAG
1070
     1
1071
      161
1005
12D51F
  0
LINE
  5
12D520
  8
CENTER
 10
12000.0
 20
-769.99999999999955
 30
0.0
 11
12000.0
 21
-1159.9999999999991
 31
0.0
1001
ACDBBLOCKREPETAG
1070
     1
1071
      162
1005
12D520
  0
LINE
  5
12D521
  8
OBJECT
 10
12065.0
 20
-769.99999999999955
 30
0.0
 11
12065.0
 21
-869.99999999999955
 31
0.0
1001
ACDBBLOCKREPETAG
1070
     1
1071
      163
1005
12D521
  0
LINE
  5
12D522
  8
OBJECT
 10
11935.0
 20
-769.99999999999955
 30
0.0
 11
11935.0
 21
-869.99999999999955
 31
0.0
1001
ACDBBLOCKREPETAG
1070
     1
1071
      164
1005
12D522
  0
LINE
  5
12D523
  8
OBJECT
 10
11955.5
 20
-979.99999999999966
 30
0.0
 11
11935.0
 21
-869.99999999999955
 31
0.0
1001
ACDBBLOCKREPETAG
1070
     1
1071
      165
1005
12D523
  0
LINE
  5
12D524
  8
OBJECT
 10
12065.0
 20
-869.99999999999955
 30
0.0
 11
11935.0
 21
-869.99999999999955
 31
0.0
1001
ACDBBLOCKREPETAG
1070
     1
1071
      166
1005
12D524
  0
LINE
  5
12D525
  8
OBJECT
 10
11947.0
 20
-1029.9999999999991
 30
0.0
 11
11947.0
 21
-1064.9999999999991
 31
0.0
1001
ACDBBLOCKREPETAG
1070
     1
1071
      167
1005
12D525
  0
LINE
  5
12D526
  8
OBJECT
 10
12053.0
 20
-1029.9999999999991
 30
0.0
 11
12053.0
 21
-1064.9999999999991
 31
0.0
1001
ACDBBLOCKREPETAG
1070
     1
1071
      168
1005
12D526
  0
LINE
  5
12D527
  8
OBJECT
 10
9975.5
 20
-1059.9999999999991
 30
0.0
 11
9958.9999999999964
 21
-1059.9999999999991
 31
0.0
1001
ACDBBLOCKREPETAG
1070
     1
1071
       12
1005
12D527
  0
LINE
  5
12D528
  8
OBJECT
 10
9983.0
 20
-1064.9999999999991
 30
0.0
 11
9983.0
 21
-1062.9999999999991
 31
0.0
1001
ACDBBLOCKREPETAG
1070
     1
1071
       13
1005
12D528
  0
LINE
  5
12D529
  8
OBJECT
 10
10075.999999999991
 20
-1079.9999999999991
 30
0.0
 11
9938.9999999999927
 21
-1079.9999999999991
 31
0.0
1001
ACDBBLOCKREPETAG
1070
     1
1071
       14
1005
12D529
  0
LINE
  5
12D52A
  8
OBJECT
 10
10075.999999999991
 20
-1079.9999999999991
 30
0.0
 11
10075.999999999991
 21
-1064.9999999999991
 31
0.0
1001
ACDBBLOCKREPETAG
1070
     1
1071
       15
1005
12D52A
  0
LINE
  5
12D52B
  8
OBJECT
 10
10075.999999999991
 20
-1089.9999999999991
 30
0.0
 11
10075.999999999991
 21
-1103.9999999999991
 31
0.0
1001
ACDBBLOCKREPETAG
1070
     1
1071
       16
1005
12D52B
  0
LINE
  5
12D52C
  8
OBJECT
 10
10068.999999999991
 20
-1089.9999999999991
 30
0.0
 11
10068.999999999991
 21
-1079.9999999999991
 31
0.0
1001
ACDBBLOCKREPETAG
1070
     1
1071
       17
1005
12D52C
  0
LINE
  5
12D52D
  8
OBJECT
 10
10058.999999999991
 20
-1089.9999999999991
 30
0.0
 11
10058.999999999991
 21
-1079.9999999999991
 31
0.0
1001
ACDBBLOCKREPETAG
1070
     1
1071
       18
1005
12D52D
  0
LINE
  5
12D52E
  8
OBJECT
 10
9938.9999999999927
 20
-1089.9999999999991
 30
0.0
 11
9938.9999999999927
 21
-1103.9999999999991
 31
0.0
1001
ACDBBLOCKREPETAG
1070
     1
1071
       19
1005
12D52E
  0
LINE
  5
12D52F
  8
OBJECT
 10
9938.9999999999927
 20
-1103.9999999999991
 30
0.0
 11
10075.999999999991
 21
-1103.9999999999991
 31
0.0
1001
ACDBBLOCKREPETAG
1070
     1
1071
       20
1005
12D52F
  0
LINE
  5
12D530
  8
OBJECT
 10
9973.0
 20
-1089.9999999999991
 30
0.0
 11
9973.0
 21
-1079.9999999999991
 31
0.0
1001
ACDBBLOCKREPETAG
1070
     1
1071
       21
1005
12D530
  0
LINE
  5
12D531
  8
OBJECT
 10
9963.0
 20
-1089.9999999999991
 30
0.0
 11
9963.0
 21
-1079.9999999999991
 31
0.0
1001
ACDBBLOCKREPETAG
1070
     1
1071
       22
1005
12D531
  0
LINE
  5
12D532
  8
OBJECT
 10
9938.9999999999927
 20
-1089.9999999999991
 30
0.0
 11
10075.999999999991
 21
-1089.9999999999991
 31
0.0
1001
ACDBBLOCKREPETAG
1070
     1
1071
       23
1005
12D532
  0
LINE
  5
12D533
  8
OBJECT
 10
9958.9999999999964
 20
-1059.9999999999991
 30
0.0
 11
9958.9999999999964
 21
-1064.9999999999991
 31
0.0
1001
ACDBBLOCKREPETAG
1070
     1
1071
       24
1005
12D533
  0
LINE
  5
12D534
  8
OBJECT
 10
9963.0
 20
-1111.9999999999991
 30
0.0
 11
9963.0
 21
-1114.9999999999991
 31
0.0
1001
ACDBBLOCKREPETAG
1070
     1
1071
       25
1005
12D534
  0
LINE
  5
12D535
  8
OBJECT
 10
9963.0
 20
-1114.9999999999991
 30
0.0
 11
9973.0
 21
-1114.9999999999991
 31
0.0
1001
ACDBBLOCKREPETAG
1070
     1
1071
       26
1005
12D535
  0
LINE
  5
12D536
  8
OBJECT
 10
9973.0
 20
-1114.9999999999991
 30
0.0
 11
9973.0
 21
-1111.9999999999991
 31
0.0
1001
ACDBBLOCKREPETAG
1070
     1
1071
       28
1005
12D536
  0
LINE
  5
12D537
  8
OBJECT
 10
9945.9999999999909
 20
-1079.9999999999991
 30
0.0
 11
9945.9999999999909
 21
-1089.9999999999991
 31
0.0
1001
ACDBBLOCKREPETAG
1070
     1
1071
       29
1005
12D537
  0
LINE
  5
12D538
  8
OBJECT
 10
10053.999999999991
 20
-1079.9999999999991
 30
0.0
 11
10053.999999999991
 21
-1089.9999999999991
 31
0.0
1001
ACDBBLOCKREPETAG
1070
     1
1071
       30
1005
12D538
  0
LINE
  5
12D539
  8
OBJECT
 10
10044.5
 20
-979.99999999999966
 30
0.0
 11
10065.0
 21
-869.99999999999955
 31
0.0
1001
ACDBBLOCKREPETAG
1070
     1
1071
       31
1005
12D539
  0
LINE
  5
12D53A
  8
OBJECT
 10
9955.5
 20
-979.99999999999966
 30
0.0
 11
10044.5
 21
-979.99999999999966
 31
0.0
1001
ACDBBLOCKREPETAG
1070
     1
1071
       32
1005
12D53A
  0
LINE
  5
12D53B
  8
OBJECT
 10
9938.9999999999927
 20
-1079.9999999999991
 30
0.0
 11
9938.9999999999927
 21
-1064.9999999999991
 31
0.0
1001
ACDBBLOCKREPETAG
1070
     1
1071
       33
1005
12D53B
  0
LINE
  5
12D53C
  8
OBJECT
 10
9938.9999999999927
 20
-1064.9999999999991
 30
0.0
 11
10075.999999999991
 21
-1064.9999999999991
 31
0.0
1001
ACDBBLOCKREPETAG
1070
     1
1071
       34
1005
12D53C
  0
LINE
  5
12D53D
  8
OBJECT
 10
9955.5
 20
-979.99999999999966
 30
0.0
 11
9955.5
 21
-1029.9999999999991
 31
0.0
1001
ACDBBLOCKREPETAG
1070
     1
1071
       35
1005
12D53D
  0
LINE
  5
12D53E
  8
OBJECT
 10
10044.5
 20
-979.99999999999966
 30
0.0
 11
10044.5
 21
-1029.9999999999991
 31
0.0
1001
ACDBBLOCKREPETAG
1070
     1
1071
       36
1005
12D53E
  0
LINE
  5
12D53F
  8
OBJECT
 10
9947.0
 20
-1029.9999999999991
 30
0.0
 11
10053.0
 21
-1029.9999999999991
 31
0.0
1001
ACDBBLOCKREPETAG
1070
     1
1071
       37
1005
12D53F
  0
LINE
  5
12D540
  8
OBJECT
 10
10054.99999999998
 20
-1059.9999999999991
 30
0.0
 11
10054.99999999998
 21
-1064.9999999999991
 31
0.0
1001
ACDBBLOCKREPETAG
1070
     1
1071
       38
1005
12D540
  0
LINE
  5
12D541
  8
OBJECT
 10
10073.0
 20
-1059.9999999999991
 30
0.0
 11
10073.0
 21
-1064.9999999999991
 31
0.0
1001
ACDBBLOCKREPETAG
1070
     1
1071
       39
1005
12D541
  0
LINE
  5
12D542
  8
OBJECT
 10
10073.0
 20
-1059.9999999999991
 30
0.0
 11
10054.99999999998
 21
-1059.9999999999991
 31
0.0
1001
ACDBBLOCKREPETAG
1070
     1
1071
       40
1005
12D542
  0
LINE
  5
12D543
  8
HIDDEN
 10
9955.5
 20
-1039.9999999999991
 30
0.0
 11
10044.5
 21
-1039.9999999999991
 31
0.0
1001
ACDBBLOCKREPETAG
1070
     1
1071
       41
1005
12D543
  0
LINE
  5
12D544
  8
CENTER
 10
10000.0
 20
-769.99999999999955
 30
0.0
 11
10000.0
 21
-1118.9999999999991
 31
0.0
1001
ACDBBLOCKREPETAG
1070
     1
1071
       42
1005
12D544
  0
LINE
  5
12D545
  8
OBJECT
 10
10065.0
 20
-769.99999999999955
 30
0.0
 11
10065.0
 21
-869.99999999999955
 31
0.0
1001
ACDBBLOCKREPETAG
1070
     1
1071
       43
1005
12D545
  0
LINE
  5
12D546
  8
OBJECT
 10
9935.0
 20
-769.99999999999955
 30
0.0
 11
9935.0
 21
-869.99999999999955
 31
0.0
1001
ACDBBLOCKREPETAG
1070
     1
1071
       44
1005
12D546
  0
LINE
  5
12D547
  8
OBJECT
 10
9955.5
 20
-979.99999999999966
 30
0.0
 11
9935.0
 21
-869.99999999999955
 31
0.0
1001
ACDBBLOCKREPETAG
1070
     1
1071
       45
1005
12D547
  0
LINE
  5
12D548
  8
OBJECT
 10
10065.0
 20
-869.99999999999955
 30
0.0
 11
9935.0
 21
-869.99999999999955
 31
0.0
1001
ACDBBLOCKREPETAG
1070
     1
1071
       46
1005
12D548
  0
LINE
  5
12D549
  8
OBJECT
 10
9947.0
 20
-1029.9999999999991
 30
0.0
 11
9947.0
 21
-1064.9999999999991
 31
0.0
1001
ACDBBLOCKREPETAG
1070
     1
1071
       47
1005
12D549
  0
LINE
  5
12D54A
  8
OBJECT
 10
10053.0
 20
-1029.9999999999991
 30
0.0
 11
10053.0
 21
-1064.9999999999991
 31
0.0
1001
ACDBBLOCKREPETAG
1070
     1
1071
       48
1005
12D54A
  0
LINE
  5
12D54B
  8
OBJECT
 10
9983.0
 20
-1062.9999999999991
 30
0.0
 11
9975.5
 21
-1059.9999999999991
 31
0.0
1001
ACDBBLOCKREPETAG
1070
     1
1071
       49
1005
12D54B
  0
LINE
  5
12D54C
  8
OBJECT
 10
10059.0
 20
-1111.9999999999991
 30
0.0
 11
10059.0
 21
-1114.9999999999991
 31
0.0
1001
ACDBBLOCKREPETAG
1070
     1
1071
       54
1005
12D54C
  0
LINE
  5
12D54D
  8
OBJECT
 10
10059.0
 20
-1114.9999999999991
 30
0.0
 11
10069.0
 21
-1114.9999999999991
 31
0.0
1001
ACDBBLOCKREPETAG
1070
     1
1071
       55
1005
12D54D
  0
LINE
  5
12D54E
  8
OBJECT
 10
10069.0
 20
-1114.9999999999991
 30
0.0
 11
10069.0
 21
-1111.9999999999991
 31
0.0
1001
ACDBBLOCKREPETAG
1070
     1
1071
       57
1005
12D54E
  0
LINE
  5
12D54F
  8
OBJECT
 10
9958.1850454237738
 20
-1111.9999999999991
 30
0.0
 11
9977.814954576219
 21
-1111.9999999999991
 31
0.0
1001
ACDBBLOCKREPETAG
1070
     1
1071
      422
1005
12D54F
  0
LINE
  5
12D550
  8
OBJECT
 10
9958.1850454237756
 20
-1103.9999999999991
 30
0.0
 11
9958.1850454237756
 21
-1111.9999999999991
 31
0.0
1001
ACDBBLOCKREPETAG
1070
     1
1071
      423
1005
12D550
  0
LINE
  5
12D551
  8
OBJECT
 10
9963.0925227118896
 20
-1103.9999999999991
 30
0.0
 11
9963.0925227118896
 21
-1111.9999999999991
 31
0.0
1001
ACDBBLOCKREPETAG
1070
     1
1071
      424
1005
12D551
  0
LINE
  5
12D552
  8
OBJECT
 10
9972.9074772881122
 20
-1103.9999999999991
 30
0.0
 11
9972.9074772881122
 21
-1111.9999999999991
 31
0.0
1001
ACDBBLOCKREPETAG
1070
     1
1071
      425
1005
12D552
  0
LINE
  5
12D553
  8
OBJECT
 10
9977.8149545762244
 20
-1103.9999999999991
 30
0.0
 11
9977.8149545762244
 21
-1111.9999999999991
 31
0.0
1001
ACDBBLOCKREPETAG
1070
     1
1071
      426
1005
12D553
  0
LINE
  5
12D554
  8
OBJECT
 10
10054.18504542377
 20
-1111.9999999999991
 30
0.0
 11
10073.814954576221
 21
-1111.9999999999991
 31
0.0
1001
ACDBBLOCKREPETAG
1070
     1
1071
      427
1005
12D554
  0
LINE
  5
12D555
  8
OBJECT
 10
10054.18504542377
 20
-1103.9999999999991
 30
0.0
 11
10054.18504542377
 21
-1111.9999999999991
 31
0.0
1001
ACDBBLOCKREPETAG
1070
     1
1071
      428
1005
12D555
  0
LINE
  5
12D556
  8
OBJECT
 10
10059.092522711881
 20
-1103.9999999999991
 30
0.0
 11
10059.092522711881
 21
-1111.9999999999991
 31
0.0
1001
ACDBBLOCKREPETAG
1070
     1
1071
      429
1005
12D556
  0
LINE
  5
12D557
  8
OBJECT
 10
10068.90747728811
 20
-1103.9999999999991
 30
0.0
 11
10068.90747728811
 21
-1111.9999999999991
 31
0.0
1001
ACDBBLOCKREPETAG
1070
     1
1071
      430
1005
12D557
  0
LINE
  5
12D558
  8
OBJECT
 10
10073.814954576221
 20
-1103.9999999999991
 30
0.0
 11
10073.814954576221
 21
-1111.9999999999991
 31
0.0
1001
ACDBBLOCKREPETAG
1070
     1
1071
      431
1005
12D558
  0
LINE
  5
12D559
  8
OBJECT
 10
8044.5000000000036
 20
-1079.999999999992
 30
0.0
 11
7955.5
 21
-1079.999999999992
 31
0.0
1001
ACDBBLOCKREPETAG
1070
     1
1071
        0
1005
12D559
  0
LINE
  5
12D55A
  8
OBJECT
 10
7935.0
 20
-869.99999999999216
 30
0.0
 11
7935.0
 21
-769.99999999999204
 31
0.0
1001
ACDBBLOCKREPETAG
1070
     1
1071
        1
1005
12D55A
  0
LINE
  5
12D55B
  8
OBJECT
 10
8065.0
 20
-869.99999999999216
 30
0.0
 11
8065.0
 21
-769.99999999999204
 31
0.0
1001
ACDBBLOCKREPETAG
1070
     1
1071
        2
1005
12D55B
  0
LINE
  5
12D55C
  8
OBJECT
 10
7935.0
 20
-869.99999999999216
 30
0.0
 11
8065.0
 21
-869.99999999999216
 31
0.0
1001
ACDBBLOCKREPETAG
1070
     1
1071
        3
1005
12D55C
  0
LINE
  5
12D55D
  8
OBJECT
 10
7955.5
 20
-979.99999999999204
 30
0.0
 11
8044.5000000000036
 21
-979.99999999999204
 31
0.0
1001
ACDBBLOCKREPETAG
1070
     1
1071
        4
1005
12D55D
  0
LINE
  5
12D55E
  8
OBJECT
 10
7955.5
 20
-979.99999999999204
 30
0.0
 11
7955.5
 21
-1079.999999999992
 31
0.0
1001
ACDBBLOCKREPETAG
1070
     1
1071
        5
1005
12D55E
  0
LINE
  5
12D55F
  8
OBJECT
 10
8044.5000000000036
 20
-979.99999999999204
 30
0.0
 11
8044.5000000000036
 21
-1079.999999999992
 31
0.0
1001
ACDBBLOCKREPETAG
1070
     1
1071
        6
1005
12D55F
  0
LINE
  5
12D560
  8
OBJECT
 10
7935.0
 20
-869.99999999999216
 30
0.0
 11
7955.5
 21
-979.99999999999204
 31
0.0
1001
ACDBBLOCKREPETAG
1070
     1
1071
        7
1005
12D560
  0
LINE
  5
12D561
  8
OBJECT
 10
8044.5000000000036
 20
-979.99999999999204
 30
0.0
 11
8065.0
 21
-869.99999999999216
 31
0.0
1001
ACDBBLOCKREPETAG
1070
     1
1071
        8
1005
12D561
  0
LINE
  5
12D562
  8
HIDDEN
 10
7962.5
 20
-979.99999999999204
 30
0.0
 11
7962.5
 21
-1079.999999999992
 31
0.0
1001
ACDBBLOCKREPETAG
1070
     1
1071
        9
1005
12D562
  0
LINE
  5
12D563
  8
HIDDEN
 10
8037.4999999999973
 20
-979.99999999999204
 30
0.0
 11
8037.4999999999973
 21
-1079.999999999992
 31
0.0
1001
ACDBBLOCKREPETAG
1070
     1
1071
       10
1005
12D563
  0
LINE
  5
12D564
  8
CENTER
 10
8000.0
 20
-769.99999999999955
 30
0.0
 11
8000.0
 21
-1094.999999999992
 31
0.0
1001
ACDBBLOCKREPETAG
1070
     1
1071
       11
1005
12D564
  0
LINE
  5
12D565
  8
OBJECT
 10
6055.9999999999927
 20
-1103.9999999999991
 30
0.0
 11
6055.9999999999927
 21
-1113.9999999999991
 31
0.0
1001
ACDBBLOCKREPETAG
1070
     1
1071
      121
1005
12D565
  0
LINE
  5
12D566
  8
OBJECT
 10
5961.75
 20
-1054.699999999996
 30
0.0
 11
5974.25
 21
-1054.699999999996
 31
0.0
1001
ACDBBLOCKREPETAG
1070
     1
1071
      122
1005
12D566
  0
LINE
  5
12D567
  8
OBJECT
 10
6073.4999999999927
 20
-1062.7
 30
0.0
 11
6073.4999999999927
 21
-1064.9999999999991
 31
0.0
1001
ACDBBLOCKREPETAG
1070
     1
1071
      123
1005
12D567
  0
LINE
  5
12D568
  8
OBJECT
 10
6057.7499999999927
 20
-1054.699999999996
 30
0.0
 11
6070.2499999999927
 21
-1054.699999999996
 31
0.0
1001
ACDBBLOCKREPETAG
1070
     1
1071
      124
1005
12D568
  0
LINE
  5
12D569
  8
OBJECT
 10
6054.4999999999927
 20
-1062.7
 30
0.0
 11
6054.4999999999927
 21
-1064.9999999999991
 31
0.0
1001
ACDBBLOCKREPETAG
1070
     1
1071
      125
1005
12D569
  0
LINE
  5
12D56A
  8
OBJECT
 10
5953.0
 20
-1064.9999999999991
 30
0.0
 11
5953.0
 21
-1062.7
 31
0.0
1001
ACDBBLOCKREPETAG
1070
     1
1071
      126
1005
12D56A
  0
LINE
  5
12D56B
  8
OBJECT
 10
5983.0
 20
-1064.9999999999991
 30
0.0
 11
5983.0
 21
-1062.7
 31
0.0
1001
ACDBBLOCKREPETAG
1070
     1
1071
      127
1005
12D56B
  0
LINE
  5
12D56C
  8
OBJECT
 10
5961.75
 20
-1054.699999999996
 30
0.0
 11
5961.75
 21
-1062.7
 31
0.0
1001
ACDBBLOCKREPETAG
1070
     1
1071
      128
1005
12D56C
  0
LINE
  5
12D56D
  8
OBJECT
 10
5974.25
 20
-1054.699999999996
 30
0.0
 11
5974.25
 21
-1062.7
 31
0.0
1001
ACDBBLOCKREPETAG
1070
     1
1071
      129
1005
12D56D
  0
LINE
  5
12D56E
  8
OBJECT
 10
5953.0
 20
-1062.7
 30
0.0
 11
5983.0
 21
-1062.7
 31
0.0
1001
ACDBBLOCKREPETAG
1070
     1
1071
      130
1005
12D56E
  0
LINE
  5
12D56F
  8
OBJECT
 10
5960.0
 20
-1103.9999999999991
 30
0.0
 11
5960.0
 21
-1113.9999999999991
 31
0.0
1001
ACDBBLOCKREPETAG
1070
     1
1071
      131
1005
12D56F
  0
LINE
  5
12D570
  8
OBJECT
 10
5976.0
 20
-1103.9999999999991
 30
0.0
 11
5976.0
 21
-1113.9999999999991
 31
0.0
1001
ACDBBLOCKREPETAG
1070
     1
1071
      132
1005
12D570
  0
LINE
  5
12D571
  8
OBJECT
 10
5960.0
 20
-1113.9999999999991
 30
0.0
 11
5976.0
 21
-1113.9999999999991
 31
0.0
1001
ACDBBLOCKREPETAG
1070
     1
1071
      133
1005
12D571
  0
LINE
  5
12D572
  8
OBJECT
 10
6071.9999999999918
 20
-1103.9999999999991
 30
0.0
 11
6071.9999999999918
 21
-1113.9999999999991
 31
0.0
1001
ACDBBLOCKREPETAG
1070
     1
1071
      134
1005
12D572
  0
LINE
  5
12D573
  8
OBJECT
 10
6071.9999999999918
 20
-1113.9999999999991
 30
0.0
 11
6055.9999999999927
 21
-1113.9999999999991
 31
0.0
1001
ACDBBLOCKREPETAG
1070
     1
1071
      135
1005
12D573
  0
LINE
  5
12D574
  8
OBJECT
 10
5944.9999999999927
 20
-1144.9999999999991
 30
0.0
 11
5944.9999999999927
 21
-1103.9999999999991
 31
0.0
1001
ACDBBLOCKREPETAG
1070
     1
1071
      136
1005
12D574
  0
LINE
  5
12D575
  8
OBJECT
 10
6054.9999999999918
 20
-1103.9999999999991
 30
0.0
 11
6054.9999999999918
 21
-1144.9999999999991
 31
0.0
1001
ACDBBLOCKREPETAG
1070
     1
1071
      137
1005
12D575
  0
LINE
  5
12D576
  8
OBJECT
 10
6070.2499999999927
 20
-1054.699999999996
 30
0.0
 11
6070.2499999999927
 21
-1062.7
 31
0.0
1001
ACDBBLOCKREPETAG
1070
     1
1071
      138
1005
12D576
  0
LINE
  5
12D577
  8
OBJECT
 10
6057.7499999999927
 20
-1054.699999999996
 30
0.0
 11
6057.7499999999927
 21
-1062.7
 31
0.0
1001
ACDBBLOCKREPETAG
1070
     1
1071
      139
1005
12D577
  0
LINE
  5
12D578
  8
OBJECT
 10
6054.4999999999927
 20
-1062.7
 30
0.0
 11
6073.4999999999927
 21
-1062.7
 31
0.0
1001
ACDBBLOCKREPETAG
1070
     1
1071
      140
1005
12D578
  0
LINE
  5
12D579
  8
OBJECT
 10
6054.9999999999918
 20
-1144.9999999999991
 30
0.0
 11
5944.9999999999927
 21
-1144.9999999999991
 31
0.0
1001
ACDBBLOCKREPETAG
1070
     1
1071
      141
1005
12D579
  0
LINE
  5
12D57A
  8
OBJECT
 10
6075.9999999999927
 20
-1079.9999999999991
 30
0.0
 11
5938.9999999999918
 21
-1079.9999999999991
 31
0.0
1001
ACDBBLOCKREPETAG
1070
     1
1071
      142
1005
12D57A
  0
LINE
  5
12D57B
  8
OBJECT
 10
6075.9999999999927
 20
-1079.9999999999991
 30
0.0
 11
6075.9999999999927
 21
-1064.9999999999991
 31
0.0
1001
ACDBBLOCKREPETAG
1070
     1
1071
      143
1005
12D57B
  0
LINE
  5
12D57C
  8
OBJECT
 10
6075.9999999999927
 20
-1089.9999999999991
 30
0.0
 11
6075.9999999999927
 21
-1103.9999999999991
 31
0.0
1001
ACDBBLOCKREPETAG
1070
     1
1071
      144
1005
12D57C
  0
LINE
  5
12D57D
  8
OBJECT
 10
6068.9999999999909
 20
-1089.9999999999991
 30
0.0
 11
6068.9999999999909
 21
-1079.9999999999991
 31
0.0
1001
ACDBBLOCKREPETAG
1070
     1
1071
      145
1005
12D57D
  0
LINE
  5
12D57E
  8
OBJECT
 10
6058.9999999999927
 20
-1089.9999999999991
 30
0.0
 11
6058.9999999999927
 21
-1079.9999999999991
 31
0.0
1001
ACDBBLOCKREPETAG
1070
     1
1071
      146
1005
12D57E
  0
LINE
  5
12D57F
  8
OBJECT
 10
5938.9999999999918
 20
-1089.9999999999991
 30
0.0
 11
5938.9999999999918
 21
-1103.9999999999991
 31
0.0
1001
ACDBBLOCKREPETAG
1070
     1
1071
      147
1005
12D57F
  0
LINE
  5
12D580
  8
OBJECT
 10
5938.9999999999918
 20
-1103.9999999999991
 30
0.0
 11
6075.9999999999927
 21
-1103.9999999999991
 31
0.0
1001
ACDBBLOCKREPETAG
1070
     1
1071
      148
1005
12D580
  0
LINE
  5
12D581
  8
OBJECT
 10
5973.0
 20
-1089.9999999999991
 30
0.0
 11
5973.0
 21
-1079.9999999999991
 31
0.0
1001
ACDBBLOCKREPETAG
1070
     1
1071
      149
1005
12D581
  0
LINE
  5
12D582
  8
OBJECT
 10
5963.0
 20
-1089.9999999999991
 30
0.0
 11
5963.0
 21
-1079.9999999999991
 31
0.0
1001
ACDBBLOCKREPETAG
1070
     1
1071
      150
1005
12D582
  0
LINE
  5
12D583
  8
OBJECT
 10
5938.9999999999918
 20
-1089.9999999999991
 30
0.0
 11
6075.9999999999927
 21
-1089.9999999999991
 31
0.0
1001
ACDBBLOCKREPETAG
1070
     1
1071
      151
1005
12D583
  0
LINE
  5
12D584
  8
OBJECT
 10
5945.9999999999927
 20
-1079.9999999999991
 30
0.0
 11
5945.9999999999927
 21
-1089.9999999999991
 31
0.0
1001
ACDBBLOCKREPETAG
1070
     1
1071
      152
1005
12D584
  0
LINE
  5
12D585
  8
OBJECT
 10
6053.9999999999927
 20
-1079.9999999999991
 30
0.0
 11
6053.9999999999927
 21
-1089.9999999999991
 31
0.0
1001
ACDBBLOCKREPETAG
1070
     1
1071
      153
1005
12D585
  0
LINE
  5
12D586
  8
OBJECT
 10
6044.5
 20
-979.99999999999966
 30
0.0
 11
6065.0
 21
-869.99999999999955
 31
0.0
1001
ACDBBLOCKREPETAG
1070
     1
1071
      154
1005
12D586
  0
LINE
  5
12D587
  8
OBJECT
 10
5955.5
 20
-979.99999999999966
 30
0.0
 11
6044.5
 21
-979.99999999999966
 31
0.0
1001
ACDBBLOCKREPETAG
1070
     1
1071
      155
1005
12D587
  0
LINE
  5
12D588
  8
OBJECT
 10
5938.9999999999918
 20
-1079.9999999999991
 30
0.0
 11
5938.9999999999918
 21
-1064.9999999999991
 31
0.0
1001
ACDBBLOCKREPETAG
1070
     1
1071
      156
1005
12D588
  0
LINE
  5
12D589
  8
OBJECT
 10
5938.9999999999918
 20
-1064.9999999999991
 30
0.0
 11
6075.9999999999927
 21
-1064.9999999999991
 31
0.0
1001
ACDBBLOCKREPETAG
1070
     1
1071
      157
1005
12D589
  0
LINE
  5
12D58A
  8
OBJECT
 10
5955.5
 20
-979.99999999999966
 30
0.0
 11
5955.5
 21
-1029.9999999999991
 31
0.0
1001
ACDBBLOCKREPETAG
1070
     1
1071
      158
1005
12D58A
  0
LINE
  5
12D58B
  8
OBJECT
 10
6044.5
 20
-979.99999999999966
 30
0.0
 11
6044.5
 21
-1029.9999999999991
 31
0.0
1001
ACDBBLOCKREPETAG
1070
     1
1071
      159
1005
12D58B
  0
LINE
  5
12D58C
  8
OBJECT
 10
5947.0
 20
-1029.9999999999991
 30
0.0
 11
6053.0
 21
-1029.9999999999991
 31
0.0
1001
ACDBBLOCKREPETAG
1070
     1
1071
      160
1005
12D58C
  0
LINE
  5
12D58D
  8
HIDDEN
 10
5955.5
 20
-1039.9999999999991
 30
0.0
 11
6044.5
 21
-1039.9999999999991
 31
0.0
1001
ACDBBLOCKREPETAG
1070
     1
1071
      161
1005
12D58D
  0
LINE
  5
12D58E
  8
CENTER
 10
6000.0
 20
-769.99999999999955
 30
0.0
 11
6000.0
 21
-1159.9999999999991
 31
0.0
1001
ACDBBLOCKREPETAG
1070
     1
1071
      162
1005
12D58E
  0
LINE
  5
12D58F
  8
OBJECT
 10
6065.0
 20
-769.99999999999955
 30
0.0
 11
6065.0
 21
-869.99999999999955
 31
0.0
1001
ACDBBLOCKREPETAG
1070
     1
1071
      163
1005
12D58F
  0
LINE
  5
12D590
  8
OBJECT
 10
5935.0
 20
-769.99999999999955
 30
0.0
 11
5935.0
 21
-869.99999999999955
 31
0.0
1001
ACDBBLOCKREPETAG
1070
     1
1071
      164
1005
12D590
  0
LINE
  5
12D591
  8
OBJECT
 10
5955.5
 20
-979.99999999999966
 30
0.0
 11
5935.0
 21
-869.99999999999955
 31
0.0
1001
ACDBBLOCKREPETAG
1070
     1
1071
      165
1005
12D591
  0
LINE
  5
12D592
  8
OBJECT
 10
6065.0
 20
-869.99999999999955
 30
0.0
 11
5935.0
 21
-869.99999999999955
 31
0.0
1001
ACDBBLOCKREPETAG
1070
     1
1071
      166
1005
12D592
  0
LINE
  5
12D593
  8
OBJECT
 10
5947.0
 20
-1029.9999999999991
 30
0.0
 11
5947.0
 21
-1064.9999999999991
 31
0.0
1001
ACDBBLOCKREPETAG
1070
     1
1071
      167
1005
12D593
  0
LINE
  5
12D594
  8
OBJECT
 10
6053.0
 20
-1029.9999999999991
 30
0.0
 11
6053.0
 21
-1064.9999999999991
 31
0.0
1001
ACDBBLOCKREPETAG
1070
     1
1071
      168
1005
12D594
  0
LINE
  5
12D595
  8
OBJECT
 10
3975.5
 20
-1059.9999999999991
 30
0.0
 11
3958.9999999999918
 21
-1059.9999999999991
 31
0.0
1001
ACDBBLOCKREPETAG
1070
     1
1071
       12
1005
12D595
  0
LINE
  5
12D596
  8
OBJECT
 10
3983.0
 20
-1064.9999999999991
 30
0.0
 11
3983.0
 21
-1062.9999999999991
 31
0.0
1001
ACDBBLOCKREPETAG
1070
     1
1071
       13
1005
12D596
  0
LINE
  5
12D597
  8
OBJECT
 10
4075.9999999999918
 20
-1079.9999999999991
 30
0.0
 11
3938.9999999999932
 21
-1079.9999999999991
 31
0.0
1001
ACDBBLOCKREPETAG
1070
     1
1071
       14
1005
12D597
  0
LINE
  5
12D598
  8
OBJECT
 10
4075.9999999999918
 20
-1079.9999999999991
 30
0.0
 11
4075.9999999999918
 21
-1064.9999999999991
 31
0.0
1001
ACDBBLOCKREPETAG
1070
     1
1071
       15
1005
12D598
  0
LINE
  5
12D599
  8
OBJECT
 10
4075.9999999999918
 20
-1089.9999999999991
 30
0.0
 11
4075.9999999999918
 21
-1103.9999999999991
 31
0.0
1001
ACDBBLOCKREPETAG
1070
     1
1071
       16
1005
12D599
  0
LINE
  5
12D59A
  8
OBJECT
 10
4068.9999999999918
 20
-1089.9999999999991
 30
0.0
 11
4068.9999999999918
 21
-1079.9999999999991
 31
0.0
1001
ACDBBLOCKREPETAG
1070
     1
1071
       17
1005
12D59A
  0
LINE
  5
12D59B
  8
OBJECT
 10
4058.9999999999932
 20
-1089.9999999999991
 30
0.0
 11
4058.9999999999932
 21
-1079.9999999999991
 31
0.0
1001
ACDBBLOCKREPETAG
1070
     1
1071
       18
1005
12D59B
  0
LINE
  5
12D59C
  8
OBJECT
 10
3938.9999999999932
 20
-1089.9999999999991
 30
0.0
 11
3938.9999999999932
 21
-1103.9999999999991
 31
0.0
1001
ACDBBLOCKREPETAG
1070
     1
1071
       19
1005
12D59C
  0
LINE
  5
12D59D
  8
OBJECT
 10
3938.9999999999932
 20
-1103.9999999999991
 30
0.0
 11
4075.9999999999918
 21
-1103.9999999999991
 31
0.0
1001
ACDBBLOCKREPETAG
1070
     1
1071
       20
1005
12D59D
  0
LINE
  5
12D59E
  8
OBJECT
 10
3973.0
 20
-1089.9999999999991
 30
0.0
 11
3973.0
 21
-1079.9999999999991
 31
0.0
1001
ACDBBLOCKREPETAG
1070
     1
1071
       21
1005
12D59E
  0
LINE
  5
12D59F
  8
OBJECT
 10
3963.0
 20
-1089.9999999999991
 30
0.0
 11
3963.0
 21
-1079.9999999999991
 31
0.0
1001
ACDBBLOCKREPETAG
1070
     1
1071
       22
1005
12D59F
  0
LINE
  5
12D5A0
  8
OBJECT
 10
3938.9999999999932
 20
-1089.9999999999991
 30
0.0
 11
4075.9999999999918
 21
-1089.9999999999991
 31
0.0
1001
ACDBBLOCKREPETAG
1070
     1
1071
       23
1005
12D5A0
  0
LINE
  5
12D5A1
  8
OBJECT
 10
3958.9999999999918
 20
-1059.9999999999991
 30
0.0
 11
3958.9999999999918
 21
-1064.9999999999991
 31
0.0
1001
ACDBBLOCKREPETAG
1070
     1
1071
       24
1005
12D5A1
  0
LINE
  5
12D5A2
  8
OBJECT
 10
3963.0
 20
-1111.9999999999991
 30
0.0
 11
3963.0
 21
-1114.9999999999991
 31
0.0
1001
ACDBBLOCKREPETAG
1070
     1
1071
       25
1005
12D5A2
  0
LINE
  5
12D5A3
  8
OBJECT
 10
3963.0
 20
-1114.9999999999991
 30
0.0
 11
3973.0
 21
-1114.9999999999991
 31
0.0
1001
ACDBBLOCKREPETAG
1070
     1
1071
       26
1005
12D5A3
  0
LINE
  5
12D5A4
  8
OBJECT
 10
3973.0
 20
-1114.9999999999991
 30
0.0
 11
3973.0
 21
-1111.9999999999991
 31
0.0
1001
ACDBBLOCKREPETAG
1070
     1
1071
       28
1005
12D5A4
  0
LINE
  5
12D5A5
  8
OBJECT
 10
3945.9999999999932
 20
-1079.9999999999991
 30
0.0
 11
3945.9999999999932
 21
-1089.9999999999991
 31
0.0
1001
ACDBBLOCKREPETAG
1070
     1
1071
       29
1005
12D5A5
  0
LINE
  5
12D5A6
  8
OBJECT
 10
4053.9999999999941
 20
-1079.9999999999991
 30
0.0
 11
4053.9999999999941
 21
-1089.9999999999991
 31
0.0
1001
ACDBBLOCKREPETAG
1070
     1
1071
       30
1005
12D5A6
  0
LINE
  5
12D5A7
  8
OBJECT
 10
4044.5
 20
-979.99999999999966
 30
0.0
 11
4065.0
 21
-869.99999999999955
 31
0.0
1001
ACDBBLOCKREPETAG
1070
     1
1071
       31
1005
12D5A7
  0
LINE
  5
12D5A8
  8
OBJECT
 10
3955.5
 20
-979.99999999999966
 30
0.0
 11
4044.5
 21
-979.99999999999966
 31
0.0
1001
ACDBBLOCKREPETAG
1070
     1
1071
       32
1005
12D5A8
  0
LINE
  5
12D5A9
  8
OBJECT
 10
3938.9999999999932
 20
-1079.9999999999991
 30
0.0
 11
3938.9999999999932
 21
-1064.9999999999991
 31
0.0
1001
ACDBBLOCKREPETAG
1070
     1
1071
       33
1005
12D5A9
  0
LINE
  5
12D5AA
  8
OBJECT
 10
3938.9999999999932
 20
-1064.9999999999991
 30
0.0
 11
4075.9999999999918
 21
-1064.9999999999991
 31
0.0
1001
ACDBBLOCKREPETAG
1070
     1
1071
       34
1005
12D5AA
  0
LINE
  5
12D5AB
  8
OBJECT
 10
3955.5
 20
-979.99999999999966
 30
0.0
 11
3955.5
 21
-1029.9999999999991
 31
0.0
1001
ACDBBLOCKREPETAG
1070
     1
1071
       35
1005
12D5AB
  0
LINE
  5
12D5AC
  8
OBJECT
 10
4044.5
 20
-979.99999999999966
 30
0.0
 11
4044.5
 21
-1029.9999999999991
 31
0.0
1001
ACDBBLOCKREPETAG
1070
     1
1071
       36
1005
12D5AC
  0
LINE
  5
12D5AD
  8
OBJECT
 10
3947.0
 20
-1029.9999999999991
 30
0.0
 11
4053.0
 21
-1029.9999999999991
 31
0.0
1001
ACDBBLOCKREPETAG
1070
     1
1071
       37
1005
12D5AD
  0
LINE
  5
12D5AE
  8
OBJECT
 10
4054.9999999999841
 20
-1059.9999999999991
 30
0.0
 11
4054.9999999999841
 21
-1064.9999999999991
 31
0.0
1001
ACDBBLOCKREPETAG
1070
     1
1071
       38
1005
12D5AE
  0
LINE
  5
12D5AF
  8
OBJECT
 10
4073.0
 20
-1059.9999999999991
 30
0.0
 11
4073.0
 21
-1064.9999999999991
 31
0.0
1001
ACDBBLOCKREPETAG
1070
     1
1071
       39
1005
12D5AF
  0
LINE
  5
12D5B0
  8
OBJECT
 10
4073.0
 20
-1059.9999999999991
 30
0.0
 11
4054.9999999999841
 21
-1059.9999999999991
 31
0.0
1001
ACDBBLOCKREPETAG
1070
     1
1071
       40
1005
12D5B0
  0
LINE
  5
12D5B1
  8
HIDDEN
 10
3955.5
 20
-1039.9999999999991
 30
0.0
 11
4044.5
 21
-1039.9999999999991
 31
0.0
1001
ACDBBLOCKREPETAG
1070
     1
1071
       41
1005
12D5B1
  0
LINE
  5
12D5B2
  8
CENTER
 10
4000.0
 20
-769.99999999999955
 30
0.0
 11
4000.0
 21
-1118.9999999999991
 31
0.0
1001
ACDBBLOCKREPETAG
1070
     1
1071
       42
1005
12D5B2
  0
LINE
  5
12D5B3
  8
OBJECT
 10
4065.0
 20
-769.99999999999955
 30
0.0
 11
4065.0
 21
-869.99999999999955
 31
0.0
1001
ACDBBLOCKREPETAG
1070
     1
1071
       43
1005
12D5B3
  0
LINE
  5
12D5B4
  8
OBJECT
 10
3935.0
 20
-769.99999999999955
 30
0.0
 11
3935.0
 21
-869.99999999999955
 31
0.0
1001
ACDBBLOCKREPETAG
1070
     1
1071
       44
1005
12D5B4
  0
LINE
  5
12D5B5
  8
OBJECT
 10
3955.5
 20
-979.99999999999966
 30
0.0
 11
3935.0
 21
-869.99999999999955
 31
0.0
1001
ACDBBLOCKREPETAG
1070
     1
1071
       45
1005
12D5B5
  0
LINE
  5
12D5B6
  8
OBJECT
 10
4065.0
 20
-869.99999999999955
 30
0.0
 11
3935.0
 21
-869.99999999999955
 31
0.0
1001
ACDBBLOCKREPETAG
1070
     1
1071
       46
1005
12D5B6
  0
LINE
  5
12D5B7
  8
OBJECT
 10
3947.0
 20
-1029.9999999999991
 30
0.0
 11
3947.0
 21
-1064.9999999999991
 31
0.0
1001
ACDBBLOCKREPETAG
1070
     1
1071
       47
1005
12D5B7
  0
LINE
  5
12D5B8
  8
OBJECT
 10
4053.0
 20
-1029.9999999999991
 30
0.0
 11
4053.0
 21
-1064.9999999999991
 31
0.0
1001
ACDBBLOCKREPETAG
1070
     1
1071
       48
1005
12D5B8
  0
LINE
  5
12D5B9
  8
OBJECT
 10
3983.0
 20
-1062.9999999999991
 30
0.0
 11
3975.5
 21
-1059.9999999999991
 31
0.0
1001
ACDBBLOCKREPETAG
1070
     1
1071
       49
1005
12D5B9
  0
LINE
  5
12D5BA
  8
OBJECT
 10
4059.0
 20
-1111.9999999999991
 30
0.0
 11
4059.0
 21
-1114.9999999999991
 31
0.0
1001
ACDBBLOCKREPETAG
1070
     1
1071
       54
1005
12D5BA
  0
LINE
  5
12D5BB
  8
OBJECT
 10
4059.0
 20
-1114.9999999999991
 30
0.0
 11
4069.0
 21
-1114.9999999999991
 31
0.0
1001
ACDBBLOCKREPETAG
1070
     1
1071
       55
1005
12D5BB
  0
LINE
  5
12D5BC
  8
OBJECT
 10
4069.0
 20
-1114.9999999999991
 30
0.0
 11
4069.0
 21
-1111.9999999999991
 31
0.0
1001
ACDBBLOCKREPETAG
1070
     1
1071
       57
1005
12D5BC
  0
LINE
  5
12D5BD
  8
OBJECT
 10
3958.185045423772
 20
-1111.9999999999991
 30
0.0
 11
3977.8149545762212
 21
-1111.9999999999991
 31
0.0
1001
ACDBBLOCKREPETAG
1070
     1
1071
      422
1005
12D5BD
  0
LINE
  5
12D5BE
  8
OBJECT
 10
3958.185045423777
 20
-1103.9999999999991
 30
0.0
 11
3958.185045423777
 21
-1111.9999999999991
 31
0.0
1001
ACDBBLOCKREPETAG
1070
     1
1071
      423
1005
12D5BE
  0
LINE
  5
12D5BF
  8
OBJECT
 10
3963.0925227118892
 20
-1103.9999999999991
 30
0.0
 11
3963.0925227118892
 21
-1111.9999999999991
 31
0.0
1001
ACDBBLOCKREPETAG
1070
     1
1071
      424
1005
12D5BF
  0
LINE
  5
12D5C0
  8
OBJECT
 10
3972.9074772881122
 20
-1103.9999999999991
 30
0.0
 11
3972.9074772881122
 21
-1111.9999999999991
 31
0.0
1001
ACDBBLOCKREPETAG
1070
     1
1071
      425
1005
12D5C0
  0
LINE
  5
12D5C1
  8
OBJECT
 10
3977.814954576223
 20
-1103.9999999999991
 30
0.0
 11
3977.814954576223
 21
-1111.9999999999991
 31
0.0
1001
ACDBBLOCKREPETAG
1070
     1
1071
      426
1005
12D5C1
  0
LINE
  5
12D5C2
  8
OBJECT
 10
4054.1850454237701
 20
-1111.9999999999991
 30
0.0
 11
4073.8149545762199
 21
-1111.9999999999991
 31
0.0
1001
ACDBBLOCKREPETAG
1070
     1
1071
      427
1005
12D5C2
  0
LINE
  5
12D5C3
  8
OBJECT
 10
4054.185045423777
 20
-1103.9999999999991
 30
0.0
 11
4054.185045423777
 21
-1111.9999999999991
 31
0.0
1001
ACDBBLOCKREPETAG
1070
     1
1071
      428
1005
12D5C3
  0
LINE
  5
12D5C4
  8
OBJECT
 10
4059.0925227118878
 20
-1103.9999999999991
 30
0.0
 11
4059.0925227118878
 21
-1111.9999999999991
 31
0.0
1001
ACDBBLOCKREPETAG
1070
     1
1071
      429
1005
12D5C4
  0
LINE
  5
12D5C5
  8
OBJECT
 10
4068.9074772881122
 20
-1103.9999999999991
 30
0.0
 11
4068.9074772881122
 21
-1111.9999999999991
 31
0.0
1001
ACDBBLOCKREPETAG
1070
     1
1071
      430
1005
12D5C5
  0
LINE
  5
12D5C6
  8
OBJECT
 10
4073.814954576223
 20
-1103.9999999999991
 30
0.0
 11
4073.814954576223
 21
-1111.9999999999991
 31
0.0
1001
ACDBBLOCKREPETAG
1070
     1
1071
      431
1005
12D5C6
  0
LINE
  5
12D5C7
  8
CENTER
 10
11924.0
 20
-1394.9999999999991
 30
0.0
 11
12091.0
 21
-1394.9999999999991
 31
0.0
1001
ACDBBLOCKREPETAG
1070
     1
1071
       22
1005
12D5C7
  0
LINE
  5
12D5C8
  8
CENTER
 10
12000.0
 20
-1318.0518385105161
 30
0.0
 11
12000.0
 21
-1471.948161489478
 31
0.0
1001
ACDBBLOCKREPETAG
1070
     1
1071
       23
1005
12D5C8
  0
CIRCLE
  5
12D5C9
  8
OBJECT
 10
12000.0
 20
-1394.9999999999991
 30
0.0
 40
37.5
1001
ACDBBLOCKREPETAG
1070
     1
1071
       24
1005
12D5C9
  0
CIRCLE
  5
12D5CA
  8
OBJECT
 10
12000.0
 20
-1394.9999999999991
 30
0.0
 40
47.5
1001
ACDBBLOCKREPETAG
1070
     1
1071
       25
1005
12D5CA
  0
ARC
  5
12D5CB
  8
OBJECT
 10
12000.0
 20
-1394.9999999999991
 30
0.0
 40
61.0
 50
40.03737312998139
 51
79.962626870012684
1001
ACDBBLOCKREPETAG
1070
     1
1071
       26
1005
12D5CB
  0
ARC
  5
12D5CC
  8
OBJECT
 10
12000.0
 20
-1394.9999999999991
 30
0.0
 40
61.0
 50
160.03737312997501
 51
199.96262687002491
1001
ACDBBLOCKREPETAG
1070
     1
1071
       27
1005
12D5CC
  0
ARC
  5
12D5CD
  8
OBJECT
 10
12000.0
 20
-1394.9999999999991
 30
0.0
 40
61.0
 50
280.03737312998732
 51
319.9626268700186
1001
ACDBBLOCKREPETAG
1070
     1
1071
       28
1005
12D5CD
  0
ARC
  5
12D5CE
  8
OBJECT
 10
12064.0
 20
-1394.9999999999991
 30
0.0
 40
12.0
 50
319.9626268700186
 51
40.03737312998139
1001
ACDBBLOCKREPETAG
1070
     1
1071
       29
1005
12D5CE
  0
LINE
  5
12D5CF
  8
OBJECT
 10
12046.703125
 20
-1355.7594837542299
 30
0.0
 11
12073.1875
 21
-1387.2805541811599
 31
0.0
1001
ACDBBLOCKREPETAG
1070
     1
1071
       30
1005
12D5CF
  0
LINE
  5
12D5D0
  8
OBJECT
 10
12046.703125
 20
-1434.240516245768
 30
0.0
 11
12073.1875
 21
-1402.719445818838
 31
0.0
1001
ACDBBLOCKREPETAG
1070
     1
1071
       31
1005
12D5D0
  0
CIRCLE
  5
12D5D1
  8
OBJECT
 10
12000.0
 20
-1394.9999999999991
 30
0.0
 40
55.0
1001
ACDBBLOCKREPETAG
1070
     1
1071
       32
1005
12D5D1
  0
ARC
  5
12D5D2
  8
OBJECT
 10
12064.0
 20
-1394.9999999999991
 30
0.0
 40
12.0
 50
271.2434956101261
 51
88.756504389873882
1001
ACDBBLOCKREPETAG
1070
     1
1071
       33
1005
12D5D2
  0
ARC
  5
12D5D3
  8
OBJECT
 10
12064.5859375
 20
-1368.0063585775049
 30
0.0
 40
15.0
 50
202.68245018366949
 51
268.7565043898739
1001
ACDBBLOCKREPETAG
1070
     1
1071
       34
1005
12D5D3
  0
CIRCLE
  5
12D5D4
  8
SLIM
 10
12064.0
 20
-1394.9999999999991
 30
0.0
 40
8.0
1001
ACDBBLOCKREPETAG
1070
     1
1071
       35
1005
12D5D4
  0
POLYLINE
  5
12D5D5
  8
SLIM
 66
     1
 10
0.0
 20
0.0
 30
0.0
 70
     1
1001
ACDBBLOCKREPETAG
1070
     1
1071
       36
1005
12D5D5
  0
VERTEX
  5
12D8BD
  8
SLIM
 10
12061.69059892324
 20
-1390.9999999999991
 30
0.0
  0
VERTEX
  5
12D8BE
  8
SLIM
 10
12059.38119784648
 20
-1394.9999999999991
 30
0.0
  0
VERTEX
  5
12D8BF
  8
SLIM
 10
12061.69059892324
 20
-1398.9999999999991
 30
0.0
  0
VERTEX
  5
12D8C0
  8
SLIM
 10
12066.30940107676
 20
-1398.9999999999991
 30
0.0
  0
VERTEX
  5
12D8C1
  8
SLIM
 10
12068.618802153511
 20
-1394.9999999999991
 30
0.0
  0
VERTEX
  5
12D8C2
  8
SLIM
 10
12066.30940107676
 20
-1390.9999999999991
 30
0.0
  0
SEQEND
  5
12D8C3
  8
SLIM
  0
ARC
  5
12D5D6
  8
OBJECT
 10
12064.5859375
 20
-1421.993641422489
 30
0.0
 40
15.0
 50
91.243495610126089
 51
157.3175498163304
1001
ACDBBLOCKREPETAG
1070
     1
1071
       37
1005
12D5D6
  0
ARC
  5
12D5D7
  8
OBJECT
 10
11968.0
 20
-1339.5743741577919
 30
0.0
 40
12.0
 50
79.962626870012684
 51
160.03737312997501
1001
ACDBBLOCKREPETAG
1070
     1
1071
       38
1005
12D5D7
  0
LINE
  5
12D5D8
  8
OBJECT
 10
11942.665153573549
 20
-1374.1741654367599
 30
0.0
 11
11956.721013817751
 21
-1335.477488669944
 31
0.0
1001
ACDBBLOCKREPETAG
1070
     1
1071
       39
1005
12D5D8
  0
LINE
  5
12D5D9
  8
OBJECT
 10
12010.631721426451
 20
-1334.9336491909951
 30
0.0
 11
11970.091486182249
 21
-1327.7580428511051
 31
0.0
1001
ACDBBLOCKREPETAG
1070
     1
1071
       40
1005
12D5D9
  0
ARC
  5
12D5DA
  8
OBJECT
 10
11968.0
 20
-1339.5743741577919
 30
0.0
 40
12.0
 50
31.243495610056922
 51
208.7565043898139
1001
ACDBBLOCKREPETAG
1070
     1
1071
       41
1005
12D5DA
  0
ARC
  5
12D5DB
  8
OBJECT
 10
11944.32985203747
 20
-1352.5637581090109
 30
0.0
 40
15.0
 50
322.68245018387239
 51
28.756504389813902
1001
ACDBBLOCKREPETAG
1070
     1
1071
       42
1005
12D5DB
  0
CIRCLE
  5
12D5DC
  8
SLIM
 10
11968.0
 20
-1339.5743741577919
 30
0.0
 40
7.9999999999999982
1001
ACDBBLOCKREPETAG
1070
     1
1071
       43
1005
12D5DC
  0
POLYLINE
  5
12D5DD
  8
SLIM
 66
     1
 10
0.0
 20
0.0
 30
0.0
 70
     1
1001
ACDBBLOCKREPETAG
1070
     1
1071
       44
1005
12D5DD
  0
VERTEX
  5
12D8C4
  8
SLIM
 10
11965.69059892324
 20
-1343.574374157796
 30
0.0
  0
VERTEX
  5
12D8C5
  8
SLIM
 10
11970.30940107676
 20
-1343.574374157793
 30
0.0
  0
VERTEX
  5
12D8C6
  8
SLIM
 10
11972.618802153511
 20
-1339.574374157796
 30
0.0
  0
VERTEX
  5
12D8C7
  8
SLIM
 10
11970.309401076751
 20
-1335.574374157793
 30
0.0
  0
VERTEX
  5
12D8C8
  8
SLIM
 10
11965.69059892324
 20
-1335.574374157796
 30
0.0
  0
VERTEX
  5
12D8C9
  8
SLIM
 10
11963.38119784648
 20
-1339.5743741577919
 30
0.0
  0
SEQEND
  5
12D8CA
  8
SLIM
  0
ARC
  5
12D5DE
  8
OBJECT
 10
11991.084210462521
 20
-1325.5701166865169
 30
0.0
 40
15.0
 50
211.2434956100569
 51
277.31754981622862
1001
ACDBBLOCKREPETAG
1070
     1
1071
       45
1005
12D5DE
  0
ARC
  5
12D5DF
  8
OBJECT
 10
11968.0
 20
-1450.425625842202
 30
0.0
 40
12.0
 50
199.96262687002491
 51
280.03737312998732
1001
ACDBBLOCKREPETAG
1070
     1
1071
       46
1005
12D5DF
  0
LINE
  5
12D5E0
  8
OBJECT
 10
12010.631721426451
 20
-1455.0663508090031
 30
0.0
 11
11970.091486182249
 21
-1462.241957148892
 31
0.0
1001
ACDBBLOCKREPETAG
1070
     1
1071
       47
1005
12D5E0
  0
LINE
  5
12D5E1
  8
OBJECT
 10
11942.665153573549
 20
-1415.8258345632339
 30
0.0
 11
11956.721013817751
 21
-1454.5225113300539
 31
0.0
1001
ACDBBLOCKREPETAG
1070
     1
1071
       48
1005
12D5E1
  0
ARC
  5
12D5E2
  8
OBJECT
 10
11968.0
 20
-1450.425625842202
 30
0.0
 40
12.0
 50
151.2434956101861
 51
328.75650438994307
1001
ACDBBLOCKREPETAG
1070
     1
1071
       49
1005
12D5E2
  0
ARC
  5
12D5E3
  8
OBJECT
 10
11991.084210462521
 20
-1464.4298833134769
 30
0.0
 40
15.0
 50
82.682450183771394
 51
148.75650438994299
1001
ACDBBLOCKREPETAG
1070
     1
1071
       50
1005
12D5E3
  0
CIRCLE
  5
12D5E4
  8
SLIM
 10
11968.0
 20
-1450.425625842202
 30
0.0
 40
8.0
1001
ACDBBLOCKREPETAG
1070
     1
1071
       51
1005
12D5E4
  0
POLYLINE
  5
12D5E5
  8
SLIM
 66
     1
 10
0.0
 20
0.0
 30
0.0
 70
     1
1001
ACDBBLOCKREPETAG
1070
     1
1071
       52
1005
12D5E5
  0
VERTEX
  5
12D8CB
  8
SLIM
 10
11972.618802153511
 20
-1450.425625842202
 30
0.0
  0
VERTEX
  5
12D8CC
  8
SLIM
 10
11970.309401076751
 20
-1446.425625842202
 30
0.0
  0
VERTEX
  5
12D8CD
  8
SLIM
 10
11965.69059892324
 20
-1446.425625842202
 30
0.0
  0
VERTEX
  5
12D8CE
  8
SLIM
 10
11963.38119784648
 20
-1450.425625842202
 30
0.0
  0
VERTEX
  5
12D8CF
  8
SLIM
 10
11965.69059892324
 20
-1454.425625842202
 30
0.0
  0
VERTEX
  5
12D8D0
  8
SLIM
 10
11970.309401076751
 20
-1454.425625842202
 30
0.0
  0
SEQEND
  5
12D8D1
  8
SLIM
  0
ARC
  5
12D5E6
  8
OBJECT
 10
11944.32985203747
 20
-1437.436241890987
 30
0.0
 40
15.0
 50
331.24349561018607
 51
37.317549816127681
1001
ACDBBLOCKREPETAG
1070
     1
1071
       53
1005
12D5E6
  0
LINE
  5
12D5E7
  8
CENTER
 10
9924.0
 20
-1353.9999999999959
 30
0.0
 11
10091.0
 21
-1353.9999999999959
 31
0.0
1001
ACDBBLOCKREPETAG
1070
     1
1071
        0
1005
12D5E7
  0
LINE
  5
12D5E8
  8
CENTER
 10
10000.0
 20
-1277.0518385105131
 30
0.0
 11
10000.0
 21
-1430.9481614894751
 31
0.0
1001
ACDBBLOCKREPETAG
1070
     1
1071
        1
1005
12D5E8
  0
CIRCLE
  5
12D5E9
  8
OBJECT
 10
10000.0
 20
-1353.9999999999959
 30
0.0
 40
37.5
1001
ACDBBLOCKREPETAG
1070
     1
1071
        2
1005
12D5E9
  0
CIRCLE
  5
12D5EA
  8
OBJECT
 10
10000.0
 20
-1353.9999999999959
 30
0.0
 40
49.5
1001
ACDBBLOCKREPETAG
1070
     1
1071
        3
1005
12D5EA
  0
ARC
  5
12D5EB
  8
OBJECT
 10
10000.0
 20
-1353.9999999999959
 30
0.0
 40
61.0
 50
40.03737312998139
 51
79.962626870012684
1001
ACDBBLOCKREPETAG
1070
     1
1071
        4
1005
12D5EB
  0
ARC
  5
12D5EC
  8
OBJECT
 10
10000.0
 20
-1353.9999999999959
 30
0.0
 40
61.0
 50
160.03737312997501
 51
199.96262687002491
1001
ACDBBLOCKREPETAG
1070
     1
1071
        5
1005
12D5EC
  0
ARC
  5
12D5ED
  8
OBJECT
 10
10000.0
 20
-1353.9999999999959
 30
0.0
 40
61.0
 50
280.03737312998732
 51
319.9626268700186
1001
ACDBBLOCKREPETAG
1070
     1
1071
        6
1005
12D5ED
  0
CIRCLE
  5
12D5EE
  8
SLIM
 10
10064.0
 20
-1353.9999999999959
 30
0.0
 40
5.0
1001
ACDBBLOCKREPETAG
1070
     1
1071
        7
1005
12D5EE
  0
ARC
  5
12D5EF
  8
OBJECT
 10
10064.0
 20
-1353.9999999999959
 30
0.0
 40
12.0
 50
319.9626268700186
 51
40.03737312998139
1001
ACDBBLOCKREPETAG
1070
     1
1071
        8
1005
12D5EF
  0
LINE
  5
12D5F0
  8
OBJECT
 10
10046.703125
 20
-1314.7594837542269
 30
0.0
 11
10073.1875
 21
-1346.280554181157
 31
0.0
1001
ACDBBLOCKREPETAG
1070
     1
1071
        9
1005
12D5F0
  0
LINE
  5
12D5F1
  8
OBJECT
 10
10046.703125
 20
-1393.2405162457651
 30
0.0
 11
10073.1875
 21
-1361.7194458188351
 31
0.0
1001
ACDBBLOCKREPETAG
1070
     1
1071
       10
1005
12D5F1
  0
POLYLINE
  5
12D5F2
  8
SLIM
 66
     1
 10
0.0
 20
0.0
 30
0.0
 70
     1
1001
ACDBBLOCKREPETAG
1070
     1
1071
       11
1005
12D5F2
  0
VERTEX
  5
12D8D2
  8
SLIM
 10
10059.092522711881
 20
-1345.4999999999959
 30
0.0
  0
VERTEX
  5
12D8D3
  8
SLIM
 10
10054.18504542377
 20
-1353.9999999999959
 30
0.0
  0
VERTEX
  5
12D8D4
  8
SLIM
 10
10059.092522711881
 20
-1362.4999999999959
 30
0.0
  0
VERTEX
  5
12D8D5
  8
SLIM
 10
10068.907477288099
 20
-1362.4999999999959
 30
0.0
  0
VERTEX
  5
12D8D6
  8
SLIM
 10
10073.814954576221
 20
-1353.9999999999959
 30
0.0
  0
VERTEX
  5
12D8D7
  8
SLIM
 10
10068.907477288099
 20
-1345.4999999999959
 30
0.0
  0
SEQEND
  5
12D8D8
  8
SLIM
  0
CIRCLE
  5
12D5F3
  8
SLIM
 10
9968.0
 20
-1298.574374157789
 30
0.0
 40
4.9999999999999991
1001
ACDBBLOCKREPETAG
1070
     1
1071
       12
1005
12D5F3
  0
ARC
  5
12D5F4
  8
OBJECT
 10
9968.0
 20
-1298.574374157789
 30
0.0
 40
12.0
 50
79.962626870012684
 51
160.03737312997501
1001
ACDBBLOCKREPETAG
1070
     1
1071
       13
1005
12D5F4
  0
LINE
  5
12D5F5
  8
OBJECT
 10
9942.6651535735436
 20
-1333.174165436757
 30
0.0
 11
9956.7210138177488
 21
-1294.4774886699411
 31
0.0
1001
ACDBBLOCKREPETAG
1070
     1
1071
       14
1005
12D5F5
  0
LINE
  5
12D5F6
  8
OBJECT
 10
10010.631721426451
 20
-1293.9336491909919
 30
0.0
 11
9970.091486182253
 21
-1286.7580428511019
 31
0.0
1001
ACDBBLOCKREPETAG
1070
     1
1071
       15
1005
12D5F6
  0
POLYLINE
  5
12D5F7
  8
SLIM
 66
     1
 10
0.0
 20
0.0
 30
0.0
 70
     1
1001
ACDBBLOCKREPETAG
1070
     1
1071
       16
1005
12D5F7
  0
VERTEX
  5
12D8D9
  8
SLIM
 10
9963.0925227118896
 20
-1307.074374157789
 30
0.0
  0
VERTEX
  5
12D8DA
  8
SLIM
 10
9972.9074772881177
 20
-1307.074374157793
 30
0.0
  0
VERTEX
  5
12D8DB
  8
SLIM
 10
9977.814954576219
 20
-1298.574374157789
 30
0.0
  0
VERTEX
  5
12D8DC
  8
SLIM
 10
9972.9074772881177
 20
-1290.074374157793
 30
0.0
  0
VERTEX
  5
12D8DD
  8
SLIM
 10
9963.0925227118896
 20
-1290.074374157789
 30
0.0
  0
VERTEX
  5
12D8DE
  8
SLIM
 10
9958.1850454237738
 20
-1298.574374157793
 30
0.0
  0
SEQEND
  5
12D8DF
  8
SLIM
  0
CIRCLE
  5
12D5F8
  8
SLIM
 10
9968.0
 20
-1409.425625842199
 30
0.0
 40
5.0
1001
ACDBBLOCKREPETAG
1070
     1
1071
       17
1005
12D5F8
  0
ARC
  5
12D5F9
  8
OBJECT
 10
9968.0
 20
-1409.425625842199
 30
0.0
 40
12.0
 50
199.96262687002491
 51
280.03737312998732
1001
ACDBBLOCKREPETAG
1070
     1
1071
       18
1005
12D5F9
  0
LINE
  5
12D5FA
  8
OBJECT
 10
10010.631721426451
 20
-1414.066350808999
 30
0.0
 11
9970.091486182253
 21
-1421.241957148889
 31
0.0
1001
ACDBBLOCKREPETAG
1070
     1
1071
       19
1005
12D5FA
  0
LINE
  5
12D5FB
  8
OBJECT
 10
9942.6651535735436
 20
-1374.825834563231
 30
0.0
 11
9956.7210138177488
 21
-1413.5225113300501
 31
0.0
1001
ACDBBLOCKREPETAG
1070
     1
1071
       20
1005
12D5FB
  0
POLYLINE
  5
12D5FC
  8
SLIM
 66
     1
 10
0.0
 20
0.0
 30
0.0
 70
     1
1001
ACDBBLOCKREPETAG
1070
     1
1071
       21
1005
12D5FC
  0
VERTEX
  5
12D8E0
  8
SLIM
 10
9977.814954576219
 20
-1409.425625842199
 30
0.0
  0
VERTEX
  5
12D8E1
  8
SLIM
 10
9972.9074772881049
 20
-1400.925625842199
 30
0.0
  0
VERTEX
  5
12D8E2
  8
SLIM
 10
9963.0925227118896
 20
-1400.925625842199
 30
0.0
  0
VERTEX
  5
12D8E3
  8
SLIM
 10
9958.1850454237738
 20
-1409.425625842199
 30
0.0
  0
VERTEX
  5
12D8E4
  8
SLIM
 10
9963.0925227118896
 20
-1417.925625842199
 30
0.0
  0
VERTEX
  5
12D8E5
  8
SLIM
 10
9972.9074772881177
 20
-1417.925625842199
 30
0.0
  0
SEQEND
  5
12D8E6
  8
SLIM
  0
LINE
  5
12D5FD
  8
CENTER
 10
5924.0
 20
-1394.9999999999991
 30
0.0
 11
6091.0
 21
-1394.9999999999991
 31
0.0
1001
ACDBBLOCKREPETAG
1070
     1
1071
       22
1005
12D5FD
  0
LINE
  5
12D5FE
  8
CENTER
 10
6000.0
 20
-1318.0518385105161
 30
0.0
 11
6000.0
 21
-1471.948161489478
 31
0.0
1001
ACDBBLOCKREPETAG
1070
     1
1071
       23
1005
12D5FE
  0
CIRCLE
  5
12D5FF
  8
OBJECT
 10
6000.0
 20
-1394.9999999999991
 30
0.0
 40
37.5
1001
ACDBBLOCKREPETAG
1070
     1
1071
       24
1005
12D5FF
  0
CIRCLE
  5
12D600
  8
OBJECT
 10
6000.0
 20
-1394.9999999999991
 30
0.0
 40
47.5
1001
ACDBBLOCKREPETAG
1070
     1
1071
       25
1005
12D600
  0
ARC
  5
12D601
  8
OBJECT
 10
6000.0
 20
-1394.9999999999991
 30
0.0
 40
61.0
 50
40.03737312998139
 51
79.962626870012684
1001
ACDBBLOCKREPETAG
1070
     1
1071
       26
1005
12D601
  0
ARC
  5
12D602
  8
OBJECT
 10
6000.0
 20
-1394.9999999999991
 30
0.0
 40
61.0
 50
160.03737312997501
 51
199.96262687002491
1001
ACDBBLOCKREPETAG
1070
     1
1071
       27
1005
12D602
  0
ARC
  5
12D603
  8
OBJECT
 10
6000.0
 20
-1394.9999999999991
 30
0.0
 40
61.0
 50
280.03737312998732
 51
319.9626268700186
1001
ACDBBLOCKREPETAG
1070
     1
1071
       28
1005
12D603
  0
ARC
  5
12D604
  8
OBJECT
 10
6064.0
 20
-1394.9999999999991
 30
0.0
 40
12.0
 50
319.9626268700186
 51
40.03737312998139
1001
ACDBBLOCKREPETAG
1070
     1
1071
       29
1005
12D604
  0
LINE
  5
12D605
  8
OBJECT
 10
6046.703125
 20
-1355.7594837542299
 30
0.0
 11
6073.1875
 21
-1387.2805541811599
 31
0.0
1001
ACDBBLOCKREPETAG
1070
     1
1071
       30
1005
12D605
  0
LINE
  5
12D606
  8
OBJECT
 10
6046.703125
 20
-1434.240516245768
 30
0.0
 11
6073.1875
 21
-1402.719445818838
 31
0.0
1001
ACDBBLOCKREPETAG
1070
     1
1071
       31
1005
12D606
  0
CIRCLE
  5
12D607
  8
OBJECT
 10
6000.0
 20
-1394.9999999999991
 30
0.0
 40
55.0
1001
ACDBBLOCKREPETAG
1070
     1
1071
       32
1005
12D607
  0
ARC
  5
12D608
  8
OBJECT
 10
6064.0
 20
-1394.9999999999991
 30
0.0
 40
12.0
 50
271.2434956101261
 51
88.756504389873882
1001
ACDBBLOCKREPETAG
1070
     1
1071
       33
1005
12D608
  0
ARC
  5
12D609
  8
OBJECT
 10
6064.5859375
 20
-1368.0063585775049
 30
0.0
 40
15.0
 50
202.68245018366949
 51
268.7565043898739
1001
ACDBBLOCKREPETAG
1070
     1
1071
       34
1005
12D609
  0
CIRCLE
  5
12D60A
  8
SLIM
 10
6064.0
 20
-1394.9999999999991
 30
0.0
 40
8.0
1001
ACDBBLOCKREPETAG
1070
     1
1071
       35
1005
12D60A
  0
POLYLINE
  5
12D60B
  8
SLIM
 66
     1
 10
0.0
 20
0.0
 30
0.0
 70
     1
1001
ACDBBLOCKREPETAG
1070
     1
1071
       36
1005
12D60B
  0
VERTEX
  5
12D8E7
  8
SLIM
 10
6061.69059892324
 20
-1390.9999999999991
 30
0.0
  0
VERTEX
  5
12D8E8
  8
SLIM
 10
6059.3811978464846
 20
-1394.9999999999991
 30
0.0
  0
VERTEX
  5
12D8E9
  8
SLIM
 10
6061.69059892324
 20
-1398.9999999999991
 30
0.0
  0
VERTEX
  5
12D8EA
  8
SLIM
 10
6066.30940107676
 20
-1398.9999999999991
 30
0.0
  0
VERTEX
  5
12D8EB
  8
SLIM
 10
6068.6188021535154
 20
-1394.9999999999991
 30
0.0
  0
VERTEX
  5
12D8EC
  8
SLIM
 10
6066.30940107676
 20
-1390.9999999999991
 30
0.0
  0
SEQEND
  5
12D8ED
  8
SLIM
  0
ARC
  5
12D60C
  8
OBJECT
 10
6064.5859375
 20
-1421.993641422489
 30
0.0
 40
15.0
 50
91.243495610126089
 51
157.3175498163304
1001
ACDBBLOCKREPETAG
1070
     1
1071
       37
1005
12D60C
  0
ARC
  5
12D60D
  8
OBJECT
 10
5968.0
 20
-1339.5743741577919
 30
0.0
 40
12.0
 50
79.962626870012684
 51
160.03737312997501
1001
ACDBBLOCKREPETAG
1070
     1
1071
       38
1005
12D60D
  0
LINE
  5
12D60E
  8
OBJECT
 10
5942.6651535735473
 20
-1374.1741654367599
 30
0.0
 11
5956.721013817747
 21
-1335.477488669944
 31
0.0
1001
ACDBBLOCKREPETAG
1070
     1
1071
       39
1005
12D60E
  0
LINE
  5
12D60F
  8
OBJECT
 10
6010.6317214264518
 20
-1334.9336491909951
 30
0.0
 11
5970.091486182253
 21
-1327.7580428511051
 31
0.0
1001
ACDBBLOCKREPETAG
1070
     1
1071
       40
1005
12D60F
  0
ARC
  5
12D610
  8
OBJECT
 10
5968.0
 20
-1339.5743741577919
 30
0.0
 40
12.0
 50
31.243495610056922
 51
208.7565043898139
1001
ACDBBLOCKREPETAG
1070
     1
1071
       41
1005
12D610
  0
ARC
  5
12D611
  8
OBJECT
 10
5944.3298520374738
 20
-1352.5637581090109
 30
0.0
 40
15.0
 50
322.68245018387239
 51
28.756504389813902
1001
ACDBBLOCKREPETAG
1070
     1
1071
       42
1005
12D611
  0
CIRCLE
  5
12D612
  8
SLIM
 10
5968.0
 20
-1339.5743741577919
 30
0.0
 40
7.9999999999999982
1001
ACDBBLOCKREPETAG
1070
     1
1071
       43
1005
12D612
  0
POLYLINE
  5
12D613
  8
SLIM
 66
     1
 10
0.0
 20
0.0
 30
0.0
 70
     1
1001
ACDBBLOCKREPETAG
1070
     1
1071
       44
1005
12D613
  0
VERTEX
  5
12D8EE
  8
SLIM
 10
5965.6905989232419
 20
-1343.574374157796
 30
0.0
  0
VERTEX
  5
12D8EF
  8
SLIM
 10
5970.30940107676
 20
-1343.574374157793
 30
0.0
  0
VERTEX
  5
12D8F0
  8
SLIM
 10
5972.6188021535154
 20
-1339.574374157796
 30
0.0
  0
VERTEX
  5
12D8F1
  8
SLIM
 10
5970.3094010767572
 20
-1335.574374157793
 30
0.0
  0
VERTEX
  5
12D8F2
  8
SLIM
 10
5965.6905989232419
 20
-1335.574374157796
 30
0.0
  0
VERTEX
  5
12D8F3
  8
SLIM
 10
5963.3811978464846
 20
-1339.5743741577919
 30
0.0
  0
SEQEND
  5
12D8F4
  8
SLIM
  0
ARC
  5
12D614
  8
OBJECT
 10
5991.0842104625253
 20
-1325.5701166865169
 30
0.0
 40
15.0
 50
211.2434956100569
 51
277.31754981622862
1001
ACDBBLOCKREPETAG
1070
     1
1071
       45
1005
12D614
  0
ARC
  5
12D615
  8
OBJECT
 10
5968.0
 20
-1450.425625842202
 30
0.0
 40
12.0
 50
199.96262687002491
 51
280.03737312998732
1001
ACDBBLOCKREPETAG
1070
     1
1071
       46
1005
12D615
  0
LINE
  5
12D616
  8
OBJECT
 10
6010.6317214264518
 20
-1455.0663508090031
 30
0.0
 11
5970.091486182253
 21
-1462.241957148892
 31
0.0
1001
ACDBBLOCKREPETAG
1070
     1
1071
       47
1005
12D616
  0
LINE
  5
12D617
  8
OBJECT
 10
5942.6651535735473
 20
-1415.8258345632339
 30
0.0
 11
5956.721013817747
 21
-1454.5225113300539
 31
0.0
1001
ACDBBLOCKREPETAG
1070
     1
1071
       48
1005
12D617
  0
ARC
  5
12D618
  8
OBJECT
 10
5968.0
 20
-1450.425625842202
 30
0.0
 40
12.0
 50
151.2434956101861
 51
328.75650438994307
1001
ACDBBLOCKREPETAG
1070
     1
1071
       49
1005
12D618
  0
ARC
  5
12D619
  8
OBJECT
 10
5991.0842104625253
 20
-1464.4298833134769
 30
0.0
 40
15.0
 50
82.682450183771394
 51
148.75650438994299
1001
ACDBBLOCKREPETAG
1070
     1
1071
       50
1005
12D619
  0
CIRCLE
  5
12D61A
  8
SLIM
 10
5968.0
 20
-1450.425625842202
 30
0.0
 40
8.0
1001
ACDBBLOCKREPETAG
1070
     1
1071
       51
1005
12D61A
  0
POLYLINE
  5
12D61B
  8
SLIM
 66
     1
 10
0.0
 20
0.0
 30
0.0
 70
     1
1001
ACDBBLOCKREPETAG
1070
     1
1071
       52
1005
12D61B
  0
VERTEX
  5
12D8F5
  8
SLIM
 10
5972.6188021535154
 20
-1450.425625842202
 30
0.0
  0
VERTEX
  5
12D8F6
  8
SLIM
 10
5970.3094010767572
 20
-1446.425625842202
 30
0.0
  0
VERTEX
  5
12D8F7
  8
SLIM
 10
5965.6905989232419
 20
-1446.425625842202
 30
0.0
  0
VERTEX
  5
12D8F8
  8
SLIM
 10
5963.3811978464846
 20
-1450.425625842202
 30
0.0
  0
VERTEX
  5
12D8F9
  8
SLIM
 10
5965.69059892324
 20
-1454.425625842202
 30
0.0
  0
VERTEX
  5
12D8FA
  8
SLIM
 10
5970.3094010767572
 20
-1454.425625842202
 30
0.0
  0
SEQEND
  5
12D8FB
  8
SLIM
  0
ARC
  5
12D61C
  8
OBJECT
 10
5944.3298520374738
 20
-1437.436241890987
 30
0.0
 40
15.0
 50
331.24349561018607
 51
37.317549816127681
1001
ACDBBLOCKREPETAG
1070
     1
1071
       53
1005
12D61C
  0
LINE
  5
12D61D
  8
CENTER
 10
3924.0
 20
-1353.9999999999959
 30
0.0
 11
4091.0
 21
-1353.9999999999959
 31
0.0
1001
ACDBBLOCKREPETAG
1070
     1
1071
        0
1005
12D61D
  0
LINE
  5
12D61E
  8
CENTER
 10
4000.0
 20
-1277.0518385105131
 30
0.0
 11
4000.0
 21
-1430.9481614894751
 31
0.0
1001
ACDBBLOCKREPETAG
1070
     1
1071
        1
1005
12D61E
  0
CIRCLE
  5
12D61F
  8
OBJECT
 10
4000.0
 20
-1353.9999999999959
 30
0.0
 40
37.5
1001
ACDBBLOCKREPETAG
1070
     1
1071
        2
1005
12D61F
  0
CIRCLE
  5
12D620
  8
OBJECT
 10
4000.0
 20
-1353.9999999999959
 30
0.0
 40
49.5
1001
ACDBBLOCKREPETAG
1070
     1
1071
        3
1005
12D620
  0
ARC
  5
12D621
  8
OBJECT
 10
4000.0
 20
-1353.9999999999959
 30
0.0
 40
61.0
 50
40.03737312998139
 51
79.962626870012684
1001
ACDBBLOCKREPETAG
1070
     1
1071
        4
1005
12D621
  0
ARC
  5
12D622
  8
OBJECT
 10
4000.0
 20
-1353.9999999999959
 30
0.0
 40
61.0
 50
160.03737312997501
 51
199.96262687002491
1001
ACDBBLOCKREPETAG
1070
     1
1071
        5
1005
12D622
  0
ARC
  5
12D623
  8
OBJECT
 10
4000.0
 20
-1353.9999999999959
 30
0.0
 40
61.0
 50
280.03737312998732
 51
319.9626268700186
1001
ACDBBLOCKREPETAG
1070
     1
1071
        6
1005
12D623
  0
CIRCLE
  5
12D624
  8
SLIM
 10
4064.0
 20
-1353.9999999999959
 30
0.0
 40
5.0
1001
ACDBBLOCKREPETAG
1070
     1
1071
        7
1005
12D624
  0
ARC
  5
12D625
  8
OBJECT
 10
4064.0
 20
-1353.9999999999959
 30
0.0
 40
12.0
 50
319.9626268700186
 51
40.03737312998139
1001
ACDBBLOCKREPETAG
1070
     1
1071
        8
1005
12D625
  0
LINE
  5
12D626
  8
OBJECT
 10
4046.7031249999982
 20
-1314.7594837542269
 30
0.0
 11
4073.1875
 21
-1346.280554181157
 31
0.0
1001
ACDBBLOCKREPETAG
1070
     1
1071
        9
1005
12D626
  0
LINE
  5
12D627
  8
OBJECT
 10
4046.7031249999982
 20
-1393.2405162457651
 30
0.0
 11
4073.1875
 21
-1361.7194458188351
 31
0.0
1001
ACDBBLOCKREPETAG
1070
     1
1071
       10
1005
12D627
  0
POLYLINE
  5
12D628
  8
SLIM
 66
     1
 10
0.0
 20
0.0
 30
0.0
 70
     1
1001
ACDBBLOCKREPETAG
1070
     1
1071
       11
1005
12D628
  0
VERTEX
  5
12D8FC
  8
SLIM
 10
4059.0925227118851
 20
-1345.4999999999959
 30
0.0
  0
VERTEX
  5
12D8FD
  8
SLIM
 10
4054.1850454237701
 20
-1353.9999999999959
 30
0.0
  0
VERTEX
  5
12D8FE
  8
SLIM
 10
4059.0925227118851
 20
-1362.4999999999959
 30
0.0
  0
VERTEX
  5
12D8FF
  8
SLIM
 10
4068.9074772881072
 20
-1362.4999999999959
 30
0.0
  0
VERTEX
  5
12D900
  8
SLIM
 10
4073.8149545762199
 20
-1353.9999999999959
 30
0.0
  0
VERTEX
  5
12D901
  8
SLIM
 10
4068.9074772881072
 20
-1345.4999999999959
 30
0.0
  0
SEQEND
  5
12D902
  8
SLIM
  0
CIRCLE
  5
12D629
  8
SLIM
 10
3968.0
 20
-1298.574374157789
 30
0.0
 40
4.9999999999999991
1001
ACDBBLOCKREPETAG
1070
     1
1071
       12
1005
12D629
  0
ARC
  5
12D62A
  8
OBJECT
 10
3968.0
 20
-1298.574374157789
 30
0.0
 40
12.0
 50
79.962626870012684
 51
160.03737312997501
1001
ACDBBLOCKREPETAG
1070
     1
1071
       13
1005
12D62A
  0
LINE
  5
12D62B
  8
OBJECT
 10
3942.6651535735441
 20
-1333.174165436757
 30
0.0
 11
3956.721013817747
 21
-1294.4774886699411
 31
0.0
1001
ACDBBLOCKREPETAG
1070
     1
1071
       14
1005
12D62B
  0
LINE
  5
12D62C
  8
OBJECT
 10
4010.6317214264491
 20
-1293.9336491909919
 30
0.0
 11
3970.091486182253
 21
-1286.7580428511019
 31
0.0
1001
ACDBBLOCKREPETAG
1070
     1
1071
       15
1005
12D62C
  0
POLYLINE
  5
12D62D
  8
SLIM
 66
     1
 10
0.0
 20
0.0
 30
0.0
 70
     1
1001
ACDBBLOCKREPETAG
1070
     1
1071
       16
1005
12D62D
  0
VERTEX
  5
12D903
  8
SLIM
 10
3963.092522711886
 20
-1307.074374157789
 30
0.0
  0
VERTEX
  5
12D904
  8
SLIM
 10
3972.907477288114
 20
-1307.074374157793
 30
0.0
  0
VERTEX
  5
12D905
  8
SLIM
 10
3977.8149545762212
 20
-1298.574374157789
 30
0.0
  0
VERTEX
  5
12D906
  8
SLIM
 10
3972.907477288114
 20
-1290.074374157793
 30
0.0
  0
VERTEX
  5
12D907
  8
SLIM
 10
3963.092522711886
 20
-1290.074374157789
 30
0.0
  0
VERTEX
  5
12D908
  8
SLIM
 10
3958.185045423772
 20
-1298.574374157793
 30
0.0
  0
SEQEND
  5
12D909
  8
SLIM
  0
CIRCLE
  5
12D62E
  8
SLIM
 10
3968.0
 20
-1409.425625842199
 30
0.0
 40
5.0
1001
ACDBBLOCKREPETAG
1070
     1
1071
       17
1005
12D62E
  0
ARC
  5
12D62F
  8
OBJECT
 10
3968.0
 20
-1409.425625842199
 30
0.0
 40
12.0
 50
199.96262687002491
 51
280.03737312998732
1001
ACDBBLOCKREPETAG
1070
     1
1071
       18
1005
12D62F
  0
LINE
  5
12D630
  8
OBJECT
 10
4010.6317214264491
 20
-1414.066350808999
 30
0.0
 11
3970.091486182253
 21
-1421.241957148889
 31
0.0
1001
ACDBBLOCKREPETAG
1070
     1
1071
       19
1005
12D630
  0
LINE
  5
12D631
  8
OBJECT
 10
3942.6651535735441
 20
-1374.825834563231
 30
0.0
 11
3956.721013817747
 21
-1413.5225113300501
 31
0.0
1001
ACDBBLOCKREPETAG
1070
     1
1071
       20
1005
12D631
  0
POLYLINE
  5
12D632
  8
SLIM
 66
     1
 10
0.0
 20
0.0
 30
0.0
 70
     1
1001
ACDBBLOCKREPETAG
1070
     1
1071
       21
1005
12D632
  0
VERTEX
  5
12D90A
  8
SLIM
 10
3977.8149545762212
 20
-1409.425625842199
 30
0.0
  0
VERTEX
  5
12D90B
  8
SLIM
 10
3972.9074772881072
 20
-1400.925625842199
 30
0.0
  0
VERTEX
  5
12D90C
  8
SLIM
 10
3963.092522711886
 20
-1400.925625842199
 30
0.0
  0
VERTEX
  5
12D90D
  8
SLIM
 10
3958.185045423772
 20
-1409.425625842199
 30
0.0
  0
VERTEX
  5
12D90E
  8
SLIM
 10
3963.092522711886
 20
-1417.925625842199
 30
0.0
  0
VERTEX
  5
12D90F
  8
SLIM
 10
3972.907477288114
 20
-1417.925625842199
 30
0.0
  0
SEQEND
  5
12D910
  8
SLIM
  0
LINE
  5
12D633
  8
OBJECT
 10
2044.5
 20
-1079.999999999992
 30
0.0
 11
1955.5
 21
-1079.999999999992
 31
0.0
1001
ACDBBLOCKREPETAG
1070
     1
1071
        0
1005
12D633
  0
LINE
  5
12D634
  8
OBJECT
 10
1935.0
 20
-869.99999999999216
 30
0.0
 11
1935.0
 21
-769.99999999999204
 31
0.0
1001
ACDBBLOCKREPETAG
1070
     1
1071
        1
1005
12D634
  0
LINE
  5
12D635
  8
OBJECT
 10
2065.0
 20
-869.99999999999216
 30
0.0
 11
2065.0
 21
-769.99999999999204
 31
0.0
1001
ACDBBLOCKREPETAG
1070
     1
1071
        2
1005
12D635
  0
LINE
  5
12D636
  8
OBJECT
 10
1935.0
 20
-869.99999999999216
 30
0.0
 11
2065.0
 21
-869.99999999999216
 31
0.0
1001
ACDBBLOCKREPETAG
1070
     1
1071
        3
1005
12D636
  0
LINE
  5
12D637
  8
OBJECT
 10
1955.5
 20
-979.99999999999204
 30
0.0
 11
2044.5
 21
-979.99999999999204
 31
0.0
1001
ACDBBLOCKREPETAG
1070
     1
1071
        4
1005
12D637
  0
LINE
  5
12D638
  8
OBJECT
 10
1955.5
 20
-979.99999999999204
 30
0.0
 11
1955.5
 21
-1079.999999999992
 31
0.0
1001
ACDBBLOCKREPETAG
1070
     1
1071
        5
1005
12D638
  0
LINE
  5
12D639
  8
OBJECT
 10
2044.5
 20
-979.99999999999204
 30
0.0
 11
2044.5
 21
-1079.999999999992
 31
0.0
1001
ACDBBLOCKREPETAG
1070
     1
1071
        6
1005
12D639
  0
LINE
  5
12D63A
  8
OBJECT
 10
1935.0
 20
-869.99999999999216
 30
0.0
 11
1955.5
 21
-979.99999999999204
 31
0.0
1001
ACDBBLOCKREPETAG
1070
     1
1071
        7
1005
12D63A
  0
LINE
  5
12D63B
  8
OBJECT
 10
2044.5
 20
-979.99999999999204
 30
0.0
 11
2065.0
 21
-869.99999999999216
 31
0.0
1001
ACDBBLOCKREPETAG
1070
     1
1071
        8
1005
12D63B
  0
LINE
  5
12D63C
  8
HIDDEN
 10
1962.5
 20
-979.99999999999204
 30
0.0
 11
1962.5
 21
-1079.999999999992
 31
0.0
1001
ACDBBLOCKREPETAG
1070
     1
1071
        9
1005
12D63C
  0
LINE
  5
12D63D
  8
HIDDEN
 10
2037.5
 20
-979.99999999999204
 30
0.0
 11
2037.5
 21
-1079.999999999992
 31
0.0
1001
ACDBBLOCKREPETAG
1070
     1
1071
       10
1005
12D63D
  0
LINE
  5
12D63E
  8
CENTER
 10
2000.0
 20
-769.99999999999955
 30
0.0
 11
2000.0
 21
-1094.999999999992
 31
0.0
1001
ACDBBLOCKREPETAG
1070
     1
1071
       11
1005
12D63E
  0
LINE
  5
12D63F
  8
OBJECT
 10
1807.0000000000141
 20
-582.99999999999955
 30
0.0
 11
1800.0000000000141
 21
-582.99999999999955
 31
0.0
1001
ACDBBLOCKREPETAG
1070
     1
1071
      324
1005
12D63F
  0
LINE
  5
12D640
  8
OBJECT
 10
1800.0000000000141
 20
-582.99999999999955
 30
0.0
 11
1800.0000000000141
 21
-706.99999999999955
 31
0.0
1001
ACDBBLOCKREPETAG
1070
     1
1071
      325
1005
12D640
  0
LINE
  5
12D641
  8
OBJECT
 10
1924.000000000015
 20
-653.35026377572683
 30
0.0
 11
1924.000000000015
 21
-755.00000000000034
 31
0.0
1001
ACDBBLOCKREPETAG
1070
     1
1071
      326
1005
12D641
  0
LINE
  5
12D642
  8
OBJECT
 10
1800.0000000000141
 20
-706.99999999999955
 30
0.0
 11
1807.0000000000141
 21
-706.99999999999955
 31
0.0
1001
ACDBBLOCKREPETAG
1070
     1
1071
      327
1005
12D642
  0
LINE
  5
12D643
  8
OBJECT
 10
1807.0000000000141
 20
-706.99999999999955
 30
0.0
 11
1807.0000000000141
 21
-582.99999999999955
 31
0.0
1001
ACDBBLOCKREPETAG
1070
     1
1071
      328
1005
12D643
  0
LINE
  5
12D644
  8
CENTER
 10
1875.0000000000141
 20
-645.00000000000045
 30
0.0
 11
1785.000000000015
 21
-644.99999999999955
 31
0.0
1001
ACDBBLOCKREPETAG
1070
     1
1071
      329
1005
12D644
  0
LINE
  5
12D645
  8
OBJECT
 10
1930.000000000018
 20
-757.99999999999955
 30
0.0
 11
1927.0000000000141
 21
-758.00000000000034
 31
0.0
1001
ACDBBLOCKREPETAG
1070
     1
1071
      330
1005
12D645
  0
ARC
  5
12D646
  8
OBJECT
 10
1927.0000000000141
 20
-755.00000000000034
 30
0.0
 40
3.0
 50
180.0
 51
270.0
1001
ACDBBLOCKREPETAG
1070
     1
1071
      331
1005
12D646
  0
LINE
  5
12D647
  8
OBJECT
 10
1807.0000000000141
 20
-585.99999999999955
 30
0.0
 11
1843.0000000000141
 21
-586.00000000000045
 31
0.0
1001
ACDBBLOCKREPETAG
1070
     1
1071
      332
1005
12D647
  0
LINE
  5
12D648
  8
OBJECT
 10
1843.0000000000141
 20
-586.00000000000045
 30
0.0
 11
1843.0000000000141
 21
-704.00000000000045
 31
0.0
1001
ACDBBLOCKREPETAG
1070
     1
1071
      333
1005
12D648
  0
LINE
  5
12D649
  8
OBJECT
 10
1847.0000000000141
 20
-590.50000000000045
 30
0.0
 11
1847.0000000000141
 21
-699.50000000000045
 31
0.0
1001
ACDBBLOCKREPETAG
1070
     1
1071
      334
1005
12D649
  0
LINE
  5
12D64A
  8
OBJECT
 10
1847.0000000000141
 20
-590.50000000000045
 30
0.0
 11
1860.000000000015
 21
-590.50000000000045
 31
0.0
1001
ACDBBLOCKREPETAG
1070
     1
1071
      335
1005
12D64A
  0
LINE
  5
12D64B
  8
OBJECT
 10
1843.0000000000141
 20
-704.00000000000045
 30
0.0
 11
1807.0000000000141
 21
-703.99999999999955
 31
0.0
1001
ACDBBLOCKREPETAG
1070
     1
1071
      336
1005
12D64B
  0
LINE
  5
12D64C
  8
OBJECT
 10
1843.0000000000141
 20
-586.00000000000045
 30
0.0
 11
1847.0000000000141
 21
-590.50000000000045
 31
0.0
1001
ACDBBLOCKREPETAG
1070
     1
1071
      337
1005
12D64C
  0
LINE
  5
12D64D
  8
OBJECT
 10
1860.000000000015
 20
-590.50000000000045
 30
0.0
 11
1860.000000000015
 21
-675.7449182792875
 31
0.0
1001
ACDBBLOCKREPETAG
1070
     1
1071
      338
1005
12D64D
  0
ARC
  5
12D64E
  8
OBJECT
 10
1857.2000000000151
 20
-685.00000000000045
 30
0.0
 40
85.0
 50
36.869897645875277
 51
88.112268108168848
1001
ACDBBLOCKREPETAG
1070
     1
1071
      339
1005
12D64E
  0
LINE
  5
12D64F
  8
HIDDEN
 10
1852.0000000000141
 20
-600.50000000000057
 30
0.0
 11
1852.0000000000141
 21
-689.50000000000045
 31
0.0
1001
ACDBBLOCKREPETAG
1070
     1
1071
      341
1005
12D64F
  0
LINE
  5
12D650
  8
OBJECT
 10
1924.000000000015
 20
-751.07945073181725
 30
0.0
 11
1853.368680078969
 21
-699.50000000000045
 31
0.0
1001
ACDBBLOCKREPETAG
1070
     1
1071
      342
1005
12D650
  0
LINE
  5
12D651
  8
OBJECT
 10
1930.000000000018
 20
-633.99999999999955
 30
0.0
 11
1925.2000000000151
 21
-633.99999999999955
 31
0.0
1001
ACDBBLOCKREPETAG
1070
     1
1071
      343
1005
12D651
  0
LINE
  5
12D652
  8
OBJECT
 10
1924.000000000015
 20
-653.35026377572945
 30
0.0
 11
1925.2000000000151
 21
-633.99999999999955
 31
0.0
1001
ACDBBLOCKREPETAG
1070
     1
1071
      344
1005
12D652
  0
LINE
  5
12D653
  8
OBJECT
 10
1847.0000000000141
 20
-699.50000000000045
 30
0.0
 11
1853.368680078969
 21
-699.50000000000045
 31
0.0
1001
ACDBBLOCKREPETAG
1070
     1
1071
      345
1005
12D653
  0
LINE
  5
12D654
  8
OBJECT
 10
1843.0000000000141
 20
-704.00000000000045
 30
0.0
 11
1847.0000000000141
 21
-699.50000000000045
 31
0.0
1001
ACDBBLOCKREPETAG
1070
     1
1071
      346
1005
12D654
  0
LINE
  5
12D655
  8
OBJECT
 10
1807.0000000000141
 20
-261.99999999999909
 30
0.0
 11
1800.0000000000141
 21
-261.99999999999909
 31
0.0
1001
ACDBBLOCKREPETAG
1070
     1
1071
      376
1005
12D655
  0
LINE
  5
12D656
  8
OBJECT
 10
1800.0000000000141
 20
-261.99999999999909
 30
0.0
 11
1800.0000000000141
 21
-137.99999999999909
 31
0.0
1001
ACDBBLOCKREPETAG
1070
     1
1071
      377
1005
12D656
  0
LINE
  5
12D657
  8
OBJECT
 10
1800.0000000000141
 20
-137.99999999999909
 30
0.0
 11
1807.0000000000141
 21
-137.99999999999909
 31
0.0
1001
ACDBBLOCKREPETAG
1070
     1
1071
      378
1005
12D657
  0
LINE
  5
12D658
  8
OBJECT
 10
1807.0000000000141
 20
-137.99999999999909
 30
0.0
 11
1807.0000000000141
 21
-261.99999999999909
 31
0.0
1001
ACDBBLOCKREPETAG
1070
     1
1071
      379
1005
12D658
  0
LINE
  5
12D659
  8
CENTER
 10
1785.000000000015
 20
-199.99999999999909
 30
0.0
 11
1930.0
 21
-199.99999999999909
 31
0.0
1001
ACDBBLOCKREPETAG
1070
     1
1071
      380
1005
12D659
  0
LINE
  5
12D65A
  8
OBJECT
 10
1860.000025035813
 20
-154.9999999999954
 30
0.0
 11
1924.0
 21
-154.99999999999909
 31
0.0
1001
ACDBBLOCKREPETAG
1070
     1
1071
      381
1005
12D65A
  0
LINE
  5
12D65B
  8
OBJECT
 10
1860.000025035813
 20
-244.99999999999909
 30
0.0
 11
1924.0
 21
-244.99999999999909
 31
0.0
1001
ACDBBLOCKREPETAG
1070
     1
1071
      382
1005
12D65B
  0
LINE
  5
12D65C
  8
OBJECT
 10
1807.0000000000141
 20
-258.99999999999909
 30
0.0
 11
1843.0000000000141
 21
-258.99999999999909
 31
0.0
1001
ACDBBLOCKREPETAG
1070
     1
1071
      383
1005
12D65C
  0
LINE
  5
12D65D
  8
OBJECT
 10
1843.0000000000141
 20
-258.99999999999909
 30
0.0
 11
1843.0000000000141
 21
-140.99999999999909
 31
0.0
1001
ACDBBLOCKREPETAG
1070
     1
1071
      384
1005
12D65D
  0
LINE
  5
12D65E
  8
OBJECT
 10
1843.0000000000141
 20
-140.99999999999909
 30
0.0
 11
1807.0000000000141
 21
-140.99999999999909
 31
0.0
1001
ACDBBLOCKREPETAG
1070
     1
1071
      385
1005
12D65E
  0
LINE
  5
12D65F
  8
OBJECT
 10
1847.0000000000141
 20
-254.49999999999909
 30
0.0
 11
1860.000000000015
 21
-254.49999999999909
 31
0.0
1001
ACDBBLOCKREPETAG
1070
     1
1071
      386
1005
12D65F
  0
LINE
  5
12D660
  8
OBJECT
 10
1860.000000000015
 20
-145.49999999999909
 30
0.0
 11
1847.0000000000141
 21
-145.49999999999909
 31
0.0
1001
ACDBBLOCKREPETAG
1070
     1
1071
      387
1005
12D660
  0
LINE
  5
12D661
  8
OBJECT
 10
1847.0000000000141
 20
-145.49999999999909
 30
0.0
 11
1847.0000000000141
 21
-254.49999999999909
 31
0.0
1001
ACDBBLOCKREPETAG
1070
     1
1071
      388
1005
12D661
  0
LINE
  5
12D662
  8
OBJECT
 10
1843.0000000000141
 20
-258.99999999999909
 30
0.0
 11
1847.0000000000141
 21
-254.49999999999909
 31
0.0
1001
ACDBBLOCKREPETAG
1070
     1
1071
      389
1005
12D662
  0
LINE
  5
12D663
  8
OBJECT
 10
1843.0000000000141
 20
-140.99999999999909
 30
0.0
 11
1847.0000000000141
 21
-145.49999999999909
 31
0.0
1001
ACDBBLOCKREPETAG
1070
     1
1071
      390
1005
12D663
  0
LINE
  5
12D664
  8
OBJECT
 10
1927.0
 20
-261.99999999999909
 30
0.0
 11
1930.0
 21
-261.99999999999909
 31
0.0
1001
ACDBBLOCKREPETAG
1070
     1
1071
      391
1005
12D664
  0
ARC
  5
12D665
  8
OBJECT
 10
1927.0
 20
-258.99999999999909
 30
0.0
 40
3.0
 50
180.0
 51
270.0
1001
ACDBBLOCKREPETAG
1070
     1
1071
      392
1005
12D665
  0
LINE
  5
12D666
  8
OBJECT
 10
1930.0
 20
-137.99999999999909
 30
0.0
 11
1927.0
 21
-137.99999999999909
 31
0.0
1001
ACDBBLOCKREPETAG
1070
     1
1071
      393
1005
12D666
  0
ARC
  5
12D667
  8
OBJECT
 10
1927.0
 20
-140.99999999999909
 30
0.0
 40
3.0
 50
90.0
 51
180.0
1001
ACDBBLOCKREPETAG
1070
     1
1071
      394
1005
12D667
  0
LINE
  5
12D668
  8
OBJECT
 10
1924.0
 20
-140.99999999999909
 30
0.0
 11
1924.0
 21
-189.6772096796403
 31
0.0
1001
ACDBBLOCKREPETAG
1070
     1
1071
      395
1005
12D668
  0
LINE
  5
12D669
  8
OBJECT
 10
1924.0
 20
-210.3227903203578
 30
0.0
 11
1924.0
 21
-258.99999999999909
 31
0.0
1001
ACDBBLOCKREPETAG
1070
     1
1071
      396
1005
12D669
  0
LINE
  5
12D66A
  8
HIDDEN
 10
1852.0000000000141
 20
-244.49999999999909
 30
0.0
 11
1852.0000000000141
 21
-155.49999999999909
 31
0.0
1001
ACDBBLOCKREPETAG
1070
     1
1071
      397
1005
12D66A
  0
LINE
  5
12D66B
  8
OBJECT
 10
1860.000025035813
 20
-145.50004907618759
 30
0.0
 11
1860.000025035813
 21
-254.50004907618771
 31
0.0
1001
ACDBBLOCKREPETAG
1070
     1
1071
      399
1005
12D66B
  0
ARC
  5
12D66C
  8
OBJECT
 10
1880.199999999975
 20
-199.99999999999909
 30
0.0
 40
45.000000000000547
 50
270.0
 51
90.0
1001
ACDBBLOCKREPETAG
1070
     1
1071
      400
1005
12D66C
  0
LINE
  5
12D66D
  8
CENTER
 10
2000.0
 20
-290.99999999999898
 30
0.0
 11
2000.0
 21
-269.99999999999909
 31
0.0
1001
ACDBBLOCKREPETAG
1070
     1
1071
        0
1005
12D66D
  0
LINE
  5
12D66E
  8
OBJECT
 10
2062.0
 20
-273.0
 30
0.0
 11
2062.0
 21
-269.99999999999909
 31
0.0
1001
ACDBBLOCKREPETAG
1070
     1
1071
        1
1005
12D66E
  0
ARC
  5
12D66F
  8
OBJECT
 10
2059.0
 20
-273.0
 30
0.0
 40
3.0
 50
270.0
 51
0.0
1001
ACDBBLOCKREPETAG
1070
     1
1071
        2
1005
12D66F
  0
LINE
  5
12D670
  8
OBJECT
 10
1938.0
 20
-269.99999999999909
 30
0.0
 11
1938.0
 21
-272.99999999999818
 31
0.0
1001
ACDBBLOCKREPETAG
1070
     1
1071
        3
1005
12D670
  0
ARC
  5
12D671
  8
OBJECT
 10
1941.0
 20
-272.99999999999818
 30
0.0
 40
3.0
 50
180.0
 51
270.0
1001
ACDBBLOCKREPETAG
1070
     1
1071
        4
1005
12D671
  0
LINE
  5
12D672
  8
OBJECT
 10
1941.0
 20
-275.99999999999818
 30
0.0
 11
2059.0
 21
-276.0
 31
0.0
1001
ACDBBLOCKREPETAG
1070
     1
1071
        5
1005
12D672
  0
LINE
  5
12D673
  8
DIM
 10
2140.0
 20
-3221.9999999999959
 30
0.0
 11
2218.4796205944581
 21
-3221.9999999999959
 31
0.0
  0
LINE
  5
12D674
  8
DIM
 10
2140.0
 20
-3127.9999999999959
 30
0.0
 11
2218.4796205944581
 21
-3127.9999999999959
 31
0.0
  0
LINE
  5
12D675
  8
DIM
 10
2208.4796205944581
 20
-3201.9999999999959
 30
0.0
 11
2208.4796205944581
 21
-3147.9999999999959
 31
0.0
  0
INSERT
  5
12D676
  8
DIM
  2
_OPEN30
 10
2208.4796205944581
 20
-3221.9999999999959
 30
0.0
 41
20.0
 42
20.0
 43
20.0
 50
270.0
  0
INSERT
  5
12D677
  8
DIM
  2
_OPEN30
 10
2208.4796205944581
 20
-3127.9999999999959
 30
0.0
 41
20.0
 42
20.0
 43
20.0
 50
90.0
  0
INSERT
  5
12D678
  8
OBJECT
  2
*U12
 10
0.0
 20
0.0
 30
0.0
  0
LINE
  5
12D679
  8
DIM
 10
2140.0
 20
-3579.9999999999968
 30
0.0
 11
2216.840928403733
 21
-3579.9999999999968
 31
0.0
  0
LINE
  5
12D67A
  8
DIM
 10
2155.0
 20
-3535.9999999999968
 30
0.0
 11
2216.840928403733
 21
-3535.9999999999968
 31
0.0
  0
LINE
  5
12D67B
  8
DIM
 10
2206.840928403733
 20
-3599.9999999999968
 30
0.0
 11
2206.840928403733
 21
-3619.9999999999968
 31
0.0
  0
LINE
  5
12D67C
  8
DIM
 10
2206.840928403733
 20
-3515.9999999999968
 30
0.0
 11
2206.840928403733
 21
-3495.9999999999968
 31
0.0
  0
LINE
  5
12D67D
  8
DIM
 10
2206.840928403733
 20
-3579.9999999999968
 30
0.0
 11
2206.840928403733
 21
-3535.9999999999968
 31
0.0
  0
INSERT
  5
12D67E
  8
DIM
  2
_OPEN30
 10
2206.840928403733
 20
-3579.9999999999968
 30
0.0
 41
20.0
 42
20.0
 43
20.0
 50
90.0
  0
INSERT
  5
12D67F
  8
DIM
  2
_OPEN30
 10
2206.840928403733
 20
-3535.9999999999968
 30
0.0
 41
20.0
 42
20.0
 43
20.0
 50
270.0
  0
INSERT
  5
12D680
  8
OBJECT
  2
*U13
 10
0.0
 20
0.0
 30
0.0
  0
LINE
  5
12D681
  8
DIM
 10
2000.0
 20
-3079.9999999999959
 30
0.0
 11
2000.0
 21
-3047.208121984444
 31
0.0
  0
LINE
  5
12D682
  8
DIM
 10
2130.0
 20
-3117.9999999999959
 30
0.0
 11
2130.0
 21
-3047.208121984444
 31
0.0
  0
LINE
  5
12D683
  8
DIM
 10
2020.0
 20
-3057.208121984444
 30
0.0
 11
2109.9999999999991
 21
-3057.208121984444
 31
0.0
  0
INSERT
  5
12D684
  8
DIM
  2
_OPEN30
 10
2000.0
 20
-3057.208121984444
 30
0.0
 41
20.0
 42
20.0
 43
20.0
 50
180.0
  0
INSERT
  5
12D685
  8
DIM
  2
_OPEN30
 10
2130.0
 20
-3057.208121984444
 30
0.0
 41
20.0
 42
20.0
 43
20.0
  0
INSERT
  5
12D686
  8
OBJECT
  2
*U14
 10
0.0
 20
0.0
 30
0.0
  0
TEXT
  5
12D687
  8
SLIM
 10
2631.0
 20
-2952.50001604727
 30
0.0
 40
40.0
  1
C寸法
 41
0.75
  0
TEXT
  5
12D688
  8
SLIM
 10
2631.0
 20
-2882.50001604727
 30
0.0
 40
40.0
  1
B寸法
 41
0.75
  0
TEXT
  5
12D689
  8
SLIM
 10
2630.2857142857142
 20
-2812.50001604727
 30
0.0
 40
40.0
  1
A寸法
 41
0.75
  0
TEXT
  5
12D68A
  8
SLIM
 10
3029.2857142857151
 20
-2952.50001604727
 30
0.0
 40
40.0
  1
130
 41
0.75
  0
TEXT
  5
12D68B
  8
SLIM
 10
2769.2857142857151
 20
-2952.50001604727
 30
0.0
 40
40.0
  1
130
 41
0.75
  0
TEXT
  5
12D68C
  8
SLIM
 10
2899.2857142857151
 20
-2952.50001604727
 30
0.0
 40
40.0
  1
130
 41
0.75
  0
TEXT
  5
12D68D
  8
SLIM
 10
3041.4285714285711
 20
-2882.50001604727
 30
0.0
 40
40.0
  1
59
 41
0.75
  0
TEXT
  5
12D68E
  8
SLIM
 10
2780.0
 20
-2882.50001604727
 30
0.0
 40
40.0
  1
44
 41
0.75
  0
TEXT
  5
12D68F
  8
SLIM
 10
2910.7142857142858
 20
-2882.50001604727
 30
0.0
 40
40.0
  1
52
 41
0.75
  0
TEXT
  5
12D690
  8
SLIM
 10
2831.0
 20
-2687.50001604727
 30
0.0
 40
40.0
  1
横枝管サイズ
 41
0.75
  0
TEXT
  5
12D691
  8
SLIM
 10
3014.857142857144
 20
-2742.50001604727
 30
0.0
 40
30.0
  1
75（3）
 41
0.75
  0
TEXT
  5
12D692
  8
SLIM
 10
2884.8571428571431
 20
-2742.50001604727
 30
0.0
 40
30.0
  1
65（2）
 41
0.75
  0
TEXT
  5
12D693
  8
SLIM
 10
2757.0
 20
-2742.50001604727
 30
0.0
 40
30.0
  1
50（1）
 41
0.75
  0
TEXT
  5
12D694
  8
SLIM
 10
3028.571428571428
 20
-2812.50001604727
 30
0.0
 40
40.0
  1
124
 41
0.75
  0
TEXT
  5
12D695
  8
SLIM
 10
2780.0
 20
-2812.50001604727
 30
0.0
 40
40.0
  1
94
 41
0.75
  0
TEXT
  5
12D696
  8
SLIM
 10
2902.1428571428569
 20
-2812.50001604727
 30
0.0
 40
40.0
  1
110
 41
0.75
  0
TEXT
  5
12D697
  8
SLIM
 10
1849.9999999999991
 20
-2712.5
 30
0.0
 40
75.0
  1
枝管サイズ毎の形状
 41
0.75
  0
TEXT
  5
12D698
  8
SLIM
 10
3894.25
 20
-3697.4999999999959
 30
0.0
 40
35.0
  1
通常枝75（3）
 41
0.75
  0
TEXT
  5
12D699
  8
SLIM
 10
2894.25
 20
-3697.4999999999959
 30
0.0
 40
35.0
  1
通常枝65（2）
 41
0.75
  0
CIRCLE
  5
12D69A
  8
OBJECT
 10
2400.0
 20
-3520.9999999999968
 30
0.0
 40
62.0
1001
ACDBBLOCKREPETAG
1070
     1
1071
        3
1005
12D69A
  0
LINE
  5
12D69B
  8
CENTER
 10
2338.0
 20
-3535.9999999999968
 30
0.0
 11
2462.0
 21
-3535.9999999999968
 31
0.0
1001
ACDBBLOCKREPETAG
1070
     1
1071
        4
1005
12D69B
  0
CIRCLE
  5
12D69C
  8
OBJECT
 10
2400.0
 20
-3535.9999999999968
 30
0.0
 40
28.0
1001
ACDBBLOCKREPETAG
1070
     1
1071
        6
1005
12D69C
  0
CIRCLE
  5
12D69D
  8
OBJECT
 10
2400.0
 20
-3535.9999999999968
 30
0.0
 40
39.0
1001
ACDBBLOCKREPETAG
1070
     1
1071
        7
1005
12D69D
  0
ARC
  5
12D69E
  8
OBJECT
 10
2400.0
 20
-3535.9999999999968
 30
0.0
 40
47.0
 50
290.58196921144412
 51
249.41803078855591
1001
ACDBBLOCKREPETAG
1070
     1
1071
        8
1005
12D69E
  0
LINE
  5
12D69F
  8
OBJECT
 10
2383.4772883581431
 20
-3579.9999999999968
 30
0.0
 11
2416.5227116418569
 21
-3579.9999999999968
 31
0.0
1001
ACDBBLOCKREPETAG
1070
     1
1071
        9
1005
12D69F
  0
LINE
  5
12D6A0
  8
OBJECT
 10
2123.0
 20
-3488.9999999999968
 30
0.0
 11
2130.0
 21
-3488.9999999999968
 31
0.0
1001
ACDBBLOCKREPETAG
1070
     1
1071
        7
1005
12D6A0
  0
LINE
  5
12D6A1
  8
OBJECT
 10
2130.0
 20
-3488.9999999999968
 30
0.0
 11
2130.0
 21
-3579.9999999999968
 31
0.0
1001
ACDBBLOCKREPETAG
1070
     1
1071
        8
1005
12D6A1
  0
LINE
  5
12D6A2
  8
OBJECT
 10
2123.0
 20
-3579.9999999999968
 30
0.0
 11
2123.0
 21
-3488.9999999999968
 31
0.0
1001
ACDBBLOCKREPETAG
1070
     1
1071
        9
1005
12D6A2
  0
LINE
  5
12D6A3
  8
CENTER
 10
2145.0
 20
-3535.9999999999968
 30
0.0
 11
2060.9999999999991
 21
-3535.9999999999968
 31
0.0
1001
ACDBBLOCKREPETAG
1070
     1
1071
       10
1005
12D6A3
  0
LINE
  5
12D6A4
  8
OBJECT
 10
2123.0
 20
-3491.9999999999968
 30
0.0
 11
2087.0
 21
-3491.9999999999968
 31
0.0
1001
ACDBBLOCKREPETAG
1070
     1
1071
       11
1005
12D6A4
  0
LINE
  5
12D6A5
  8
OBJECT
 10
2087.0
 20
-3491.9999999999968
 30
0.0
 11
2087.0
 21
-3579.9999999999968
 31
0.0
1001
ACDBBLOCKREPETAG
1070
     1
1071
       12
1005
12D6A5
  0
LINE
  5
12D6A6
  8
OBJECT
 10
2087.0
 20
-3579.9999999999968
 30
0.0
 11
2130.0
 21
-3579.9999999999968
 31
0.0
1001
ACDBBLOCKREPETAG
1070
     1
1071
       13
1005
12D6A6
  0
LINE
  5
12D6A7
  8
OBJECT
 10
2083.0
 20
-3496.4999999999968
 30
0.0
 11
2076.0
 21
-3496.4999999999968
 31
0.0
1001
ACDBBLOCKREPETAG
1070
     1
1071
       14
1005
12D6A7
  0
LINE
  5
12D6A8
  8
OBJECT
 10
2076.0
 20
-3575.4999999999968
 30
0.0
 11
2083.0
 21
-3575.4999999999968
 31
0.0
1001
ACDBBLOCKREPETAG
1070
     1
1071
       15
1005
12D6A8
  0
LINE
  5
12D6A9
  8
OBJECT
 10
2083.0
 20
-3575.4999999999968
 30
0.0
 11
2083.0
 21
-3496.4999999999968
 31
0.0
1001
ACDBBLOCKREPETAG
1070
     1
1071
       16
1005
12D6A9
  0
LINE
  5
12D6AA
  8
OBJECT
 10
2087.0
 20
-3491.9999999999968
 30
0.0
 11
2083.0
 21
-3496.4999999999968
 31
0.0
1001
ACDBBLOCKREPETAG
1070
     1
1071
       17
1005
12D6AA
  0
LINE
  5
12D6AB
  8
OBJECT
 10
2087.0
 20
-3579.9999999999968
 30
0.0
 11
2083.0
 21
-3575.4999999999968
 31
0.0
1001
ACDBBLOCKREPETAG
1070
     1
1071
       18
1005
12D6AB
  0
LINE
  5
12D6AC
  8
OBJECT
 10
2073.0
 20
-3458.9999999999968
 30
0.0
 11
2070.0
 21
-3458.9999999999968
 31
0.0
1001
ACDBBLOCKREPETAG
1070
     1
1071
       19
1005
12D6AC
  0
ARC
  5
12D6AD
  8
OBJECT
 10
2073.0
 20
-3461.9999999999968
 30
0.0
 40
3.0
 50
0.0
 51
90.0
1001
ACDBBLOCKREPETAG
1070
     1
1071
       20
1005
12D6AD
  0
LINE
  5
12D6AE
  8
OBJECT
 10
2070.0
 20
-3582.9999999999968
 30
0.0
 11
2073.0
 21
-3582.9999999999968
 31
0.0
1001
ACDBBLOCKREPETAG
1070
     1
1071
       21
1005
12D6AE
  0
ARC
  5
12D6AF
  8
OBJECT
 10
2073.0
 20
-3579.9999999999968
 30
0.0
 40
3.0
 50
270.0
 51
0.0
1001
ACDBBLOCKREPETAG
1070
     1
1071
       22
1005
12D6AF
  0
LINE
  5
12D6B0
  8
OBJECT
 10
2076.0
 20
-3579.9999999999968
 30
0.0
 11
2076.0
 21
-3461.9999999999968
 31
0.0
1001
ACDBBLOCKREPETAG
1070
     1
1071
       23
1005
12D6B0
  0
LINE
  5
12D6B1
  8
HIDDEN
 10
2078.0
 20
-3505.9999999999968
 30
0.0
 11
2078.0
 21
-3565.9999999999968
 31
0.0
1001
ACDBBLOCKREPETAG
1070
     1
1071
       24
1005
12D6B1
  0
TEXT
  5
12D6B2
  8
SLIM
 10
1896.75
 20
-3697.4999999999959
 30
0.0
 40
35.0
  1
通常枝50（1）
 41
0.75
  0
TEXT
  5
12D6B3
  8
SLIM
 10
1837.75
 20
282.50000000000011
 30
0.0
 40
35.0
  1
（枝管サイズ毎に寸法が異なります。管底の位置は全サイズで同じです）
 41
0.75
  0
TEXT
  5
12D6B4
  8
SLIM
 10
1850.0
 20
532.5
 30
0.0
 40
75.0
  1
側面図の代表機種
 41
0.75
  0
TEXT
  5
12D6B5
  8
SLIM
 10
1850.0
 20
369.99999999999989
 30
0.0
 40
100.0
  1
3SV-Z106
 41
0.75
  0
LINE
  5
12D6B6
  8
OBJECT
 10
2123.0
 20
-663.99999999999966
 30
0.0
 11
2130.0
 21
-663.99999999999966
 31
0.0
1001
ACDBBLOCKREPETAG
1070
     1
1071
        7
1005
12D6B6
  0
LINE
  5
12D6B7
  8
OBJECT
 10
2130.0
 20
-663.99999999999966
 30
0.0
 11
2130.0
 21
-754.99999999999955
 31
0.0
1001
ACDBBLOCKREPETAG
1070
     1
1071
        8
1005
12D6B7
  0
LINE
  5
12D6B8
  8
OBJECT
 10
2123.0
 20
-754.99999999999955
 30
0.0
 11
2123.0
 21
-663.99999999999966
 31
0.0
1001
ACDBBLOCKREPETAG
1070
     1
1071
        9
1005
12D6B8
  0
LINE
  5
12D6B9
  8
CENTER
 10
2145.0
 20
-710.99999999999955
 30
0.0
 11
2061.0
 21
-710.99999999999955
 31
0.0
1001
ACDBBLOCKREPETAG
1070
     1
1071
       10
1005
12D6B9
  0
LINE
  5
12D6BA
  8
OBJECT
 10
2123.0
 20
-666.99999999999955
 30
0.0
 11
2087.0
 21
-666.99999999999955
 31
0.0
1001
ACDBBLOCKREPETAG
1070
     1
1071
       11
1005
12D6BA
  0
LINE
  5
12D6BB
  8
OBJECT
 10
2087.0
 20
-666.99999999999955
 30
0.0
 11
2087.0
 21
-754.99999999999955
 31
0.0
1001
ACDBBLOCKREPETAG
1070
     1
1071
       12
1005
12D6BB
  0
LINE
  5
12D6BC
  8
OBJECT
 10
2087.0
 20
-754.99999999999955
 30
0.0
 11
2130.0
 21
-754.99999999999955
 31
0.0
1001
ACDBBLOCKREPETAG
1070
     1
1071
       13
1005
12D6BC
  0
LINE
  5
12D6BD
  8
OBJECT
 10
2083.0
 20
-671.49999999999955
 30
0.0
 11
2076.0
 21
-671.49999999999955
 31
0.0
1001
ACDBBLOCKREPETAG
1070
     1
1071
       14
1005
12D6BD
  0
LINE
  5
12D6BE
  8
OBJECT
 10
2076.0
 20
-750.49999999999955
 30
0.0
 11
2083.0
 21
-750.49999999999955
 31
0.0
1001
ACDBBLOCKREPETAG
1070
     1
1071
       15
1005
12D6BE
  0
LINE
  5
12D6BF
  8
OBJECT
 10
2083.0
 20
-750.49999999999955
 30
0.0
 11
2083.0
 21
-671.49999999999955
 31
0.0
1001
ACDBBLOCKREPETAG
1070
     1
1071
       16
1005
12D6BF
  0
LINE
  5
12D6C0
  8
OBJECT
 10
2087.0
 20
-666.99999999999955
 30
0.0
 11
2083.0
 21
-671.49999999999955
 31
0.0
1001
ACDBBLOCKREPETAG
1070
     1
1071
       17
1005
12D6C0
  0
LINE
  5
12D6C1
  8
OBJECT
 10
2087.0
 20
-754.99999999999955
 30
0.0
 11
2083.0
 21
-750.49999999999955
 31
0.0
1001
ACDBBLOCKREPETAG
1070
     1
1071
       18
1005
12D6C1
  0
LINE
  5
12D6C2
  8
OBJECT
 10
2073.0
 20
-633.99999999999955
 30
0.0
 11
2070.0
 21
-633.99999999999955
 31
0.0
1001
ACDBBLOCKREPETAG
1070
     1
1071
       19
1005
12D6C2
  0
ARC
  5
12D6C3
  8
OBJECT
 10
2073.0
 20
-636.99999999999955
 30
0.0
 40
3.0
 50
0.0
 51
90.0
1001
ACDBBLOCKREPETAG
1070
     1
1071
       20
1005
12D6C3
  0
LINE
  5
12D6C4
  8
OBJECT
 10
2070.0
 20
-757.99999999999955
 30
0.0
 11
2073.0
 21
-757.99999999999955
 31
0.0
1001
ACDBBLOCKREPETAG
1070
     1
1071
       21
1005
12D6C4
  0
ARC
  5
12D6C5
  8
OBJECT
 10
2073.0
 20
-754.99999999999955
 30
0.0
 40
3.0
 50
270.0
 51
0.0
1001
ACDBBLOCKREPETAG
1070
     1
1071
       22
1005
12D6C5
  0
LINE
  5
12D6C6
  8
OBJECT
 10
2076.0
 20
-754.99999999999955
 30
0.0
 11
2076.0
 21
-636.99999999999955
 31
0.0
1001
ACDBBLOCKREPETAG
1070
     1
1071
       23
1005
12D6C6
  0
LINE
  5
12D6C7
  8
HIDDEN
 10
2078.0
 20
-680.99999999999955
 30
0.0
 11
2078.0
 21
-740.99999999999955
 31
0.0
1001
ACDBBLOCKREPETAG
1070
     1
1071
       24
1005
12D6C7
  0
LINE
  5
12D6C8
  8
OBJECT
 10
2123.0
 20
-152.99999999999909
 30
0.0
 11
2130.0
 21
-152.99999999999909
 31
0.0
1001
ACDBBLOCKREPETAG
1070
     1
1071
        7
1005
12D6C8
  0
LINE
  5
12D6C9
  8
OBJECT
 10
2130.0
 20
-152.99999999999909
 30
0.0
 11
2130.0
 21
-246.99999999999909
 31
0.0
1001
ACDBBLOCKREPETAG
1070
     1
1071
        8
1005
12D6C9
  0
LINE
  5
12D6CA
  8
OBJECT
 10
2130.0
 20
-246.99999999999909
 30
0.0
 11
2123.0
 21
-246.99999999999909
 31
0.0
1001
ACDBBLOCKREPETAG
1070
     1
1071
        9
1005
12D6CA
  0
LINE
  5
12D6CB
  8
OBJECT
 10
2123.0
 20
-246.99999999999909
 30
0.0
 11
2123.0
 21
-152.99999999999909
 31
0.0
1001
ACDBBLOCKREPETAG
1070
     1
1071
       10
1005
12D6CB
  0
LINE
  5
12D6CC
  8
CENTER
 10
2145.0
 20
-199.99999999999909
 30
0.0
 11
2070.0
 21
-199.99999999999909
 31
0.0
1001
ACDBBLOCKREPETAG
1070
     1
1071
       11
1005
12D6CC
  0
LINE
  5
12D6CD
  8
OBJECT
 10
2123.0
 20
-155.99999999999909
 30
0.0
 11
2087.0
 21
-155.99999999999909
 31
0.0
1001
ACDBBLOCKREPETAG
1070
     1
1071
       12
1005
12D6CD
  0
LINE
  5
12D6CE
  8
OBJECT
 10
2087.0
 20
-155.99999999999909
 30
0.0
 11
2087.0
 21
-243.99999999999909
 31
0.0
1001
ACDBBLOCKREPETAG
1070
     1
1071
       13
1005
12D6CE
  0
LINE
  5
12D6CF
  8
OBJECT
 10
2087.0
 20
-243.99999999999909
 30
0.0
 11
2123.0
 21
-243.99999999999909
 31
0.0
1001
ACDBBLOCKREPETAG
1070
     1
1071
       14
1005
12D6CF
  0
LINE
  5
12D6D0
  8
OBJECT
 10
2083.0
 20
-160.49999999999909
 30
0.0
 11
2076.0
 21
-160.49999999999909
 31
0.0
1001
ACDBBLOCKREPETAG
1070
     1
1071
       15
1005
12D6D0
  0
LINE
  5
12D6D1
  8
OBJECT
 10
2076.0
 20
-239.49999999999909
 30
0.0
 11
2083.0
 21
-239.49999999999909
 31
0.0
1001
ACDBBLOCKREPETAG
1070
     1
1071
       16
1005
12D6D1
  0
LINE
  5
12D6D2
  8
OBJECT
 10
2083.0
 20
-239.49999999999909
 30
0.0
 11
2083.0
 21
-160.49999999999909
 31
0.0
1001
ACDBBLOCKREPETAG
1070
     1
1071
       17
1005
12D6D2
  0
LINE
  5
12D6D3
  8
OBJECT
 10
2087.0
 20
-155.99999999999909
 30
0.0
 11
2083.0
 21
-160.49999999999909
 31
0.0
1001
ACDBBLOCKREPETAG
1070
     1
1071
       18
1005
12D6D3
  0
LINE
  5
12D6D4
  8
OBJECT
 10
2087.0
 20
-243.99999999999909
 30
0.0
 11
2083.0
 21
-239.49999999999909
 31
0.0
1001
ACDBBLOCKREPETAG
1070
     1
1071
       19
1005
12D6D4
  0
LINE
  5
12D6D5
  8
OBJECT
 10
2073.0
 20
-137.99999999999909
 30
0.0
 11
2070.0
 21
-137.99999999999909
 31
0.0
1001
ACDBBLOCKREPETAG
1070
     1
1071
       20
1005
12D6D5
  0
ARC
  5
12D6D6
  8
OBJECT
 10
2073.0
 20
-140.99999999999909
 30
0.0
 40
3.0
 50
0.0
 51
90.0
1001
ACDBBLOCKREPETAG
1070
     1
1071
       21
1005
12D6D6
  0
LINE
  5
12D6D7
  8
OBJECT
 10
2070.0
 20
-261.99999999999909
 30
0.0
 11
2073.0
 21
-261.99999999999909
 31
0.0
1001
ACDBBLOCKREPETAG
1070
     1
1071
       22
1005
12D6D7
  0
ARC
  5
12D6D8
  8
OBJECT
 10
2073.0
 20
-258.99999999999909
 30
0.0
 40
3.0
 50
270.0
 51
0.0
1001
ACDBBLOCKREPETAG
1070
     1
1071
       23
1005
12D6D8
  0
LINE
  5
12D6D9
  8
OBJECT
 10
2076.0
 20
-258.99999999999909
 30
0.0
 11
2076.0
 21
-140.99999999999909
 31
0.0
1001
ACDBBLOCKREPETAG
1070
     1
1071
       24
1005
12D6D9
  0
LINE
  5
12D6DA
  8
HIDDEN
 10
2078.0
 20
-169.99999999999909
 30
0.0
 11
2078.0
 21
-229.99999999999909
 31
0.0
1001
ACDBBLOCKREPETAG
1070
     1
1071
       25
1005
12D6DA
  0
TEXT
  5
12D6DB
  8
SLIM
 10
-25.796370766537851
 20
667.19448474768467
 30
0.0
 40
100.0
  1
3SV-ZX06-S
 41
0.75
  0
TEXT
  5
12D6DC
  8
SLIM
 10
-25.796370766537851
 20
517.19448474768467
 30
0.0
 40
100.0
  1
3SV-ZX06-W
 41
0.75
  0
TEXT
  5
12D6DD
  8
SLIM
 10
0.0000035665234464
 20
24.000004585317601
 30
0.0
 40
79.999999999972701
  1
枝管バリエーション
 41
0.75
1001
ACDBBLOCKREPETAG
1070
     1
1071
      119
1005
F48AB
  0
TEXT
  5
12D6DE
  8
SLIM
 10
3853.75
 20
-1621.4999999999959
 30
0.0
 40
35.0
  1
両受けスタイル（W）
 41
0.75
  0
TEXT
  5
12D6DF
  8
SLIM
 10
5811.8000000000002
 20
-1718.9999999999991
 30
0.0
 40
28.0
  1
※ 対応スラブ厚　150mm以上
 41
0.75
  0
TEXT
  5
12D6E0
  8
SLIM
 10
5598.8999999999996
 20
-1812.333333333333
 30
0.0
 40
28.0
  1
国土交通大臣認定・（一財）日本消防設備安全センター性能評定取得品
 41
0.75
  0
TEXT
  5
12D6E1
  8
SLIM
 10
5631.1000000000004
 20
-1858.9999999999991
 30
0.0
 40
28.0
  1
注）ご採用にあたり、認定書及び評定書の内容をご確認ください。
 41
0.75
  0
TEXT
  5
12D6E2
  8
SLIM
 10
11824.6
 20
-1677.9999999999959
 30
0.0
 40
28.0
  1
※ 対応スラブ厚　150～260
 41
0.75
  0
TEXT
  5
12D6E3
  8
SLIM
 10
11598.9
 20
-1771.3333333333289
 30
0.0
 40
28.0
  1
国土交通大臣認定・（一財）日本消防設備安全センター性能評定取得品
 41
0.75
  0
TEXT
  5
12D6E4
  8
SLIM
 10
11631.1
 20
-1817.9999999999959
 30
0.0
 40
28.0
  1
注）ご採用にあたり、認定書及び評定書の内容をご確認ください。
 41
0.75
  0
TEXT
  5
12D6E5
  8
SLIM
 10
9824.6000000000004
 20
-1677.9999999999959
 30
0.0
 40
28.0
  1
※ 対応スラブ厚　180～260
 41
0.75
  0
TEXT
  5
12D6E6
  8
SLIM
 10
9598.8999999999996
 20
-1771.3333333333289
 30
0.0
 40
28.0
  1
国土交通大臣認定・（一財）日本消防設備安全センター性能評定取得品
 41
0.75
  0
TEXT
  5
12D6E7
  8
SLIM
 10
9631.1000000000004
 20
-1817.9999999999959
 30
0.0
 40
28.0
  1
注）ご採用にあたり、認定書及び評定書の内容をご確認ください。
 41
0.75
  0
TEXT
  5
12D6E8
  8
SLIM
 10
9739.1250000000018
 20
-1621.4999999999959
 30
0.0
 40
35.0
  1
両受けスタイル（W）＋シンドカット
 41
0.75
  0
TEXT
  5
12D6E9
  8
SLIM
 10
11743.5
 20
-1621.4999999999959
 30
0.0
 40
35.0
  1
カンペイ君（WKP）＋シンドカット
 41
0.75
  0
TEXT
  5
12D6EA
  8
SLIM
 10
7741.625
 20
-1347.499999999998
 30
0.0
 40
35.0
  1
片受けスタイル（S）＋シンドカット
 41
0.75
  0
TEXT
  5
12D6EB
  8
SLIM
 10
5858.1250000000009
 20
-1662.4999999999991
 30
0.0
 40
35.0
  1
カンペイ君（WKP）
 41
0.75
  0
TEXT
  5
12D6EC
  8
SLIM
 10
1856.25
 20
-1347.499999999998
 30
0.0
 40
35.0
  1
片受けスタイル（S）
 41
0.75
  0
TEXT
  5
12D6ED
  8
SLIM
 10
-25.796370766537851
 20
367.19448474768478
 30
0.0
 40
100.0
  1
3SV-ZX06-WKP
 41
0.75
  0
VIEWPORT
  5
F6BA7
 67
     1
  8
0
 10
145.33033752441401
 20
101.8328354358673
 30
0.0
 40
334.0025019414623
 41
222.19657968139651
 68
     1
 69
     1
1001
ACAD
1000
MVIEW
1002
{
1070
    16
1010
0.0
1020
0.0
1030
0.0
1010
0.0
1020
0.0
1030
1.0
1040
0.0
1040
222.19657968139651
1040
145.33033752441401
1040
101.8328354358673
1040
50.0
1040
0.0
1040
0.0
1070
     0
1070
     0
1070
     1
1070
     1
1070
     0
1070
     0
1070
     0
1070
     0
1040
0.0
1040
0.0
1040
0.0
1040
10.0
1040
10.0
1040
10.0
1040
10.0
1070
     0
1002
{
1002
}
1002
}
  0
VIEWPORT
  5
F6BA9
 67
     1
  8
OBJECT
 10
145.3303314447403
 20
101.8328338861465
 30
0.0
 40
232.5285303115844
 41
162.93253421783439
 68
     2
 69
     2
1001
ACAD
1000
MVIEW
1002
{
1070
    16
1010
0.0
1020
0.0
1030
0.0
1010
0.0
1020
0.0
1030
1.0
1040
0.0
1040
25942.55904403147
1040
2377.604457077377
1040
-7591.5176687056619
1040
50.0
1040
0.0
1040
0.0
1070
     0
1070
   600
1070
     1
1070
     1
1070
     0
1070
     0
1070
     0
1070
     0
1040
0.0
1040
0.0
1040
0.0
1040
1.0
1040
1.0
1040
0.0
1040
0.0
1070
     0
1002
{
1002
}
1002
}
  0
ENDSEC
  0
EOF
