  0
SECTION
  2
HEADER
  9
$ACADVER
  1
AC1009
  9
$INSBASE
 10
0.0
 20
0.0
 30
0.0
  9
$EXTMIN
 10
0.0
 20
-1668.9999999999991
 30
0.0
  9
$EXTMAX
 10
6399.7000000000007
 20
770.0
 30
0.0
  9
$LIMMIN
 10
0.0
 20
0.0
  9
$LIMMAX
 10
210.0
 20
297.0
  9
$ORTHOMODE
 70
     0
  9
$REGENMODE
 70
     1
  9
$FILLMODE
 70
     1
  9
$QTEXTMODE
 70
     0
  9
$MIRRTEXT
 70
     0
  9
$DRAGMODE
 70
     2
  9
$LTSCALE
 40
1.0
  9
$OSMODE
 70
  2429
  9
$ATTMODE
 70
     1
  9
$TEXTSIZE
 40
4.0
  9
$TRACEWID
 40
0.05
  9
$TEXTSTYLE
  7
STANDARD
  9
$CLAYER
  8
OBJECT
  9
$CELTYPE
  6
BYLAYER
  9
$CECOLOR
 62
   256
  9
$DIMSCALE
 40
10.0
  9
$DIMASZ
 40
2.0
  9
$DIMEXO
 40
1.0
  9
$DIMDLI
 40
10.0
  9
$DIMRND
 40
0.0
  9
$DIMDLE
 40
0.0
  9
$DIMEXE
 40
1.0
  9
$DIMTP
 40
0.0
  9
$DIMTM
 40
0.0
  9
$DIMTXT
 40
3.2000000000000002
  9
$DIMCEN
 40
0.0
  9
$DIMTSZ
 40
0.0
  9
$DIMTOL
 70
     0
  9
$DIMLIM
 70
     0
  9
$DIMTIH
 70
     0
  9
$DIMTOH
 70
     0
  9
$DIMSE1
 70
     0
  9
$DIMSE2
 70
     0
  9
$DIMTAD
 70
     1
  9
$DIMZIN
 70
     8
  9
$DIMBLK
  1
OPEN30
  9
$DIMASO
 70
     1
  9
$DIMSHO
 70
     1
  9
$DIMPOST
  1

  9
$DIMAPOST
  1

  9
$DIMALT
 70
     0
  9
$DIMALTD
 70
     2
  9
$DIMALTF
 40
25.399999999999999
  9
$DIMLFAC
 40
1.0
  9
$DIMTOFL
 70
     1
  9
$DIMTVP
 40
0.0
  9
$DIMTIX
 70
     0
  9
$DIMSOXD
 70
     0
  9
$DIMSAH
 70
     0
  9
$DIMBLK1
  1

  9
$DIMBLK2
  1

  9
$DIMSTYLE
  2
S10
  9
$DIMCLRD
 70
   256
  9
$DIMCLRE
 70
   256
  9
$DIMCLRT
 70
   256
  9
$DIMTFAC
 40
1.0
  9
$DIMGAP
 40
0.9
  9
$LUNITS
 70
     2
  9
$LUPREC
 70
     2
  9
$SKETCHINC
 40
0.1
  9
$FILLETRAD
 40
0.0
  9
$AUNITS
 70
     0
  9
$AUPREC
 70
     2
  9
$MENU
  1
ACAD
  9
$ELEVATION
 40
0.0
  9
$PELEVATION
 40
0.0
  9
$THICKNESS
 40
0.0
  9
$LIMCHECK
 70
     0
  9
$BLIPMODE
 70
     0
  9
$CHAMFERA
 40
2.0
  9
$CHAMFERB
 40
2.0
  9
$SKPOLY
 70
     0
  9
$TDCREATE
 40
2453095.4929404748
  9
$TDUPDATE
 40
2457233.647835278
  9
$TDINDWG
 40
18.374683101900001
  9
$TDUSRTIMER
 40
18.374682465300001
  9
$USRTIMER
 70
     1
  9
$ANGBASE
 50
0.0
  9
$ANGDIR
 70
     0
  9
$PDMODE
 70
    35
  9
$PDSIZE
 40
2.0
  9
$PLINEWID
 40
0.0
  9
$COORDS
 70
     0
  9
$SPLFRAME
 70
     0
  9
$SPLINETYPE
 70
     6
  9
$SPLINESEGS
 70
     8
  9
$ATTDIA
 70
     0
  9
$ATTREQ
 70
     1
  9
$HANDLING
 70
     1
  9
$HANDSEED
  5
123B06
  9
$SURFTAB1
 70
     6
  9
$SURFTAB2
 70
     6
  9
$SURFTYPE
 70
     6
  9
$SURFU
 70
     6
  9
$SURFV
 70
     6
  9
$UCSNAME
  2

  9
$UCSORG
 10
0.0
 20
0.0
 30
0.0
  9
$UCSXDIR
 10
1.0
 20
0.0
 30
0.0
  9
$UCSYDIR
 10
0.0
 20
1.0
 30
0.0
  9
$PUCSNAME
  2

  9
$PUCSORG
 10
0.0
 20
0.0
 30
0.0
  9
$PUCSXDIR
 10
1.0
 20
0.0
 30
0.0
  9
$PUCSYDIR
 10
0.0
 20
1.0
 30
0.0
  9
$USERI1
 70
     0
  9
$USERI2
 70
     0
  9
$USERI3
 70
     0
  9
$USERI4
 70
     0
  9
$USERI5
 70
     0
  9
$USERR1
 40
0.0
  9
$USERR2
 40
0.0
  9
$USERR3
 40
0.0
  9
$USERR4
 40
0.0
  9
$USERR5
 40
0.0
  9
$WORLDVIEW
 70
     1
  9
$SHADEDGE
 70
     3
  9
$SHADEDIF
 70
    70
  9
$TILEMODE
 70
     1
  9
$MAXACTVP
 70
    64
  9
$PLIMCHECK
 70
     0
  9
$PEXTMIN
 10
29.066066288948051
 20
20.366566777229309
 30
0.0
  9
$PEXTMAX
 10
261.5945966005325
 20
183.29910099506381
 30
0.0
  9
$PLIMMIN
 10
-3.17498779296875
 20
-3.1749999523162842
  9
$PLIMMAX
 10
293.83566284179687
 20
206.8406708240509
  9
$UNITMODE
 70
     0
  9
$VISRETAIN
 70
     1
  9
$PLINEGEN
 70
     0
  9
$PSLTSCALE
 70
     1
  0
ENDSEC
  0
SECTION
  2
TABLES
  0
TABLE
  2
VPORT
 70
     1
  0
VPORT
  2
*ACTIVE
 70
     0
 10
0.0
 20
0.0
 11
1.0
 21
1.0
 12
2656.8751482189959
 22
-652.72594721356927
 13
0.0
 23
0.0
 14
1.0
 24
1.0
 15
0.0
 25
0.0
 16
0.0
 26
0.0
 36
1.0
 17
0.0
 27
0.0
 37
0.0
 40
6556.4520739321551
 41
1.6494178525226391
 42
50.0
 43
0.0
 44
0.0
 50
0.0
 51
0.0
 71
     0
 72
   600
 73
     1
 74
     1
 75
     0
 76
     0
 77
     0
 78
     0
  0
ENDTAB
  0
TABLE
  2
LTYPE
 70
     4
  0
LTYPE
  2
CONTINUOUS
 70
     0
  3
Solid line
 72
    65
 73
     0
 40
0.0
  0
LTYPE
  2
PHANTOM2
 70
     0
  3
___ _ _ ___ _ _ ___ _ _ ___ _ _
 72
    65
 73
     6
 40
1.25
 49
0.625
 49
-0.125
 49
0.125
 49
-0.125
 49
0.125
 49
-0.125
  0
LTYPE
  2
ACAD_ISO08W100
 70
     0
  3
ISO long-dash short-dash ____ __ ____ __ ____ _
 72
    65
 73
     4
 40
36.0
 49
24.0
 49
-3.0
 49
6.0
 49
-3.0
  0
LTYPE
  2
ACAD_ISO02W100
 70
     0
  3
ISO dash __ __ __ __ __ __ __ __ __ __ __ __ __
 72
    65
 73
     2
 40
15.0
 49
12.0
 49
-3.0
  0
ENDTAB
  0
TABLE
  2
LAYER
 70
     7
  0
LAYER
  2
0
 70
     0
 62
     7
  6
CONTINUOUS
  0
LAYER
  2
OBJECT
 70
     0
 62
     4
  6
CONTINUOUS
  0
LAYER
  2
DEFPOINTS
 70
     0
 62
     7
  6
CONTINUOUS
  0
LAYER
  2
HIDDEN
 70
     0
 62
     2
  6
ACAD_ISO02W100
  0
LAYER
  2
CENTER
 70
     0
 62
     2
  6
ACAD_ISO08W100
  0
LAYER
  2
DOTS
 70
     0
 62
     1
  6
CONTINUOUS
  0
LAYER
  2
SLIM
 70
     0
 62
     2
  6
CONTINUOUS
  0
ENDTAB
  0
TABLE
  2
STYLE
 70
     2
  0
STYLE
  2
STANDARD
 70
     0
 40
0.0
 41
0.75
 50
0.0
 71
     0
 42
4.0
  3
simplex.shx
  4
bigfont.shx
  0
ENDTAB
  0
TABLE
  2
VIEW
 70
     0
  0
ENDTAB
  0
TABLE
  2
UCS
 70
     0
  0
ENDTAB
  0
TABLE
  2
APPID
 70
    18
  0
APPID
  2
ACAD
 70
     0
  0
APPID
  2
ACADANNOTATIVE
 70
     0
  0
APPID
  2
ACAD_PSEXT
 70
     0
  0
APPID
  2
ACAD_EXEMPT_FROM_CAD_STANDARDS
 70
     0
  0
APPID
  2
ACAECLAYERSTANDARD
 70
     0
  0
APPID
  2
ACAUTHENVIRON
 70
     0
  0
APPID
  2
ACDBDYNAMICBLOCKTRUENAME
 70
     0
  0
APPID
  2
ACDBDYNAMICBLOCKGUID
 70
     0
  0
APPID
  2
ACDBBLOCKREPETAG
 70
     0
  0
APPID
  2
ACDBBLOCKREPBTAG
 70
     0
  0
APPID
  2
ACAD_NAV_VCDISPLAY
 70
     0
  0
APPID
  2
ACAD_DSTYLE_DIMRADIAL_EXTENSION
 70
     0
  0
APPID
  2
ACAD_DSTYLE_DIMJAG
 70
     0
  0
APPID
  2
ACAD_DSTYLE_DIMTALN
 70
     0
  0
APPID
  2
ACADANNOPO
 70
     0
  0
APPID
  2
GRADIENTCOLOR1ACI
 70
     0
  0
APPID
  2
GRADIENTCOLOR2ACI
 70
     0
  0
APPID
  2
ACAD_MLEADERVER
 70
     0
  0
ENDTAB
  0
TABLE
  2
DIMSTYLE
 70
     3
  0
DIMSTYLE
  2
STANDARD
 70
     0
  3

  4

  5

  6

  7

 40
1.0
 41
0.18
 42
0.0625
 43
0.38
 44
0.18
 45
0.0
 46
0.0
 47
0.0
 48
0.0
140
0.18
141
0.09
142
0.0
143
25.399999999999999
144
1.0
145
0.0
146
1.0
147
0.09
 71
     0
 72
     0
 73
     1
 74
     1
 75
     0
 76
     0
 77
     0
 78
     0
170
     0
171
     2
172
     0
173
     0
174
     0
175
     0
176
     0
177
     0
178
     0
  0
DIMSTYLE
  2
S10
 70
     0
  3

  4

  5

  6

  7

 40
10.0
 41
2.0
 42
1.0
 43
10.0
 44
1.0
 45
0.0
 46
0.0
 47
0.0
 48
0.0
140
3.2000000000000002
141
0.0
142
0.0
143
25.399999999999999
144
1.0
145
0.0
146
1.0
147
0.9
 71
     0
 72
     0
 73
     0
 74
     0
 75
     0
 76
     0
 77
     1
 78
     8
170
     0
171
     2
172
     1
173
     0
174
     0
175
     0
176
   256
177
   256
178
   256
  0
ENDTAB
  0
ENDSEC
  0
SECTION
  2
BLOCKS
  0
BLOCK
  8
0
  2
$MODEL_SPACE
 70
     0
 10
0.0
 20
0.0
 30
0.0
  3
$MODEL_SPACE
  1

  0
ENDBLK
  5
123A3C
  8
0
  0
BLOCK
 67
     1
  8
0
  2
$PAPER_SPACE
 70
     0
 10
0.0
 20
0.0
 30
0.0
  3
$PAPER_SPACE
  1

  0
ENDBLK
  5
123A38
 67
     1
  8
0
  0
BLOCK
  8
0
  2
_OPEN30
 70
     0
 10
0.0
 20
0.0
 30
0.0
  3
_OPEN30
  1

  0
LINE
  5
202
  8
0
  6
BYBLOCK
 62
     0
 10
-1.0
 20
0.26794919
 30
0.0
 11
0.0
 21
0.0
 31
0.0
  0
LINE
  5
203
  8
0
  6
BYBLOCK
 62
     0
 10
0.0
 20
0.0
 30
0.0
 11
-1.0
 21
-0.26794919
 31
0.0
  0
LINE
  5
204
  8
0
  6
BYBLOCK
 62
     0
 10
0.0
 20
0.0
 30
0.0
 11
-1.0
 21
0.0
 31
0.0
  0
ENDBLK
  5
206
  8
0
  0
ENDSEC
  0
SECTION
  2
ENTITIES
  0
ARC
  5
122FBB
  8
OBJECT
 10
6000.0
 20
-199.99999999999909
 30
0.0
 40
50.0
 50
298.81994300000417
 51
228.52376955965491
1001
ACDBBLOCKREPETAG
1070
     1
1071
        1
1005
122FBB
  0
LINE
  5
122FBC
  8
CENTER
 10
6080.0
 20
-199.99999999999909
 30
0.0
 11
5905.0
 21
-199.99999999999909
 31
0.0
1001
ACDBBLOCKREPETAG
1070
     1
1071
        2
1005
122FBC
  0
LINE
  5
122FBD
  8
CENTER
 10
6000.0
 20
-294.99999999999898
 30
0.0
 11
6000.0
 21
-104.9999999999991
 31
0.0
1001
ACDBBLOCKREPETAG
1070
     1
1071
        3
1005
122FBD
  0
CIRCLE
  5
122FBE
  8
OBJECT
 10
6000.0
 20
-199.99999999999909
 30
0.0
 40
70.0
1001
ACDBBLOCKREPETAG
1070
     1
1071
        4
1005
122FBE
  0
CIRCLE
  5
122FBF
  8
OBJECT
 10
6000.0
 20
-199.99999999999909
 30
0.0
 40
77.0
1001
ACDBBLOCKREPETAG
1070
     1
1071
        5
1005
122FBF
  0
ARC
  5
122FC0
  8
OBJECT
 10
6000.0
 20
-199.99999999999909
 30
0.0
 40
80.0
 50
50.80503257388439
 51
309.19496742611562
1001
ACDBBLOCKREPETAG
1070
     1
1071
        6
1005
122FC0
  0
LINE
  5
122FC1
  8
OBJECT
 10
6045.6618002273253
 20
-137.99999999999909
 30
0.0
 11
6080.0
 21
-137.99999999999909
 31
0.0
1001
ACDBBLOCKREPETAG
1070
     1
1071
        7
1005
122FC1
  0
LINE
  5
122FC2
  8
OBJECT
 10
6045.6618002273253
 20
-261.99999999999909
 30
0.0
 11
6080.0
 21
-261.99999999999909
 31
0.0
1001
ACDBBLOCKREPETAG
1070
     1
1071
        8
1005
122FC2
  0
LINE
  5
122FC3
  8
OBJECT
 10
6024.1029330932433
 20
-243.80694712379321
 30
0.0
 11
6024.1029330932433
 21
-234.00999999999931
 31
0.0
1001
ACDBBLOCKREPETAG
1070
     1
1071
      138
1005
122FC3
  0
LINE
  5
122FC4
  8
OBJECT
 10
6024.1029330932433
 20
-234.00999999999931
 30
0.0
 11
5986.589017458864
 21
-218.4712273665109
 31
0.0
1001
ACDBBLOCKREPETAG
1070
     1
1071
      139
1005
122FC4
  0
ARC
  5
122FC5
  8
OBJECT
 10
5982.7621831352144
 20
-227.7100226916217
 30
0.0
 40
10.0
 50
67.500000000096563
 51
154.0147343702935
1001
ACDBBLOCKREPETAG
1070
     1
1071
      140
1005
122FC5
  0
ARC
  5
122FC6
  8
OBJECT
 10
5986.022399255904
 20
-225.81327182420949
 30
0.0
 40
7.0
 50
67.500000000096563
 51
154.01473377488369
1001
ACDBBLOCKREPETAG
1070
     1
1071
      141
1005
122FC6
  0
ARC
  5
122FC7
  8
OBJECT
 10
5976.5796953073141
 20
-207.1289369828437
 30
0.0
 40
60.031113246032611
 50
314.07020130418567
 51
322.33936106089681
1001
ACDBBLOCKREPETAG
1070
     1
1071
      150
1005
122FC7
  0
LINE
  5
122FC8
  8
OBJECT
 10
5969.4199755553018
 20
-243.89888500818171
 30
0.0
 11
5979.7300520410208
 21
-222.74629179048591
 31
0.0
1001
ACDBBLOCKREPETAG
1070
     1
1071
      151
1005
122FC8
  0
LINE
  5
122FC9
  8
OBJECT
 10
5965.2972169006089
 20
-240.71813901882729
 30
0.0
 11
5973.773115639814
 21
-223.32862273686899
 31
0.0
1001
ACDBBLOCKREPETAG
1070
     1
1071
      152
1005
122FC9
  0
CIRCLE
  5
122FCA
  8
OBJECT
 10
6000.0
 20
-199.99999999999909
 30
0.0
 40
53.5
1001
ACDBBLOCKREPETAG
1070
     1
1071
      153
1005
122FCA
  0
POINT
  5
122FCB
  8
DOTS
 10
6000.0
 20
-199.99999999999909
 30
0.0
 50
270.0
1001
ACDBBLOCKREPETAG
1070
     1
1071
      159
1005
122FCB
  0
LINE
  5
122FCC
  8
CENTER
 10
6101.0
 20
-199.99999999999909
 30
0.0
 11
6080.0
 21
-199.99999999999909
 31
0.0
1001
ACDBBLOCKREPETAG
1070
     1
1071
        0
1005
122FCC
  0
LINE
  5
122FCD
  8
OBJECT
 10
6083.0
 20
-137.99999999999909
 30
0.0
 11
6080.0
 21
-137.99999999999909
 31
0.0
1001
ACDBBLOCKREPETAG
1070
     1
1071
        1
1005
122FCD
  0
ARC
  5
122FCE
  8
OBJECT
 10
6083.0
 20
-140.99999999999909
 30
0.0
 40
3.0
 50
0.0
 51
90.0
1001
ACDBBLOCKREPETAG
1070
     1
1071
        2
1005
122FCE
  0
LINE
  5
122FCF
  8
OBJECT
 10
6080.0
 20
-261.99999999999909
 30
0.0
 11
6083.0
 21
-261.99999999999909
 31
0.0
1001
ACDBBLOCKREPETAG
1070
     1
1071
        3
1005
122FCF
  0
ARC
  5
122FD0
  8
OBJECT
 10
6083.0
 20
-258.99999999999909
 30
0.0
 40
3.0
 50
270.0
 51
0.0
1001
ACDBBLOCKREPETAG
1070
     1
1071
        4
1005
122FD0
  0
LINE
  5
122FD1
  8
OBJECT
 10
6086.0
 20
-258.99999999999909
 30
0.0
 11
6086.0
 21
-140.99999999999909
 31
0.0
1001
ACDBBLOCKREPETAG
1070
     1
1071
        5
1005
122FD1
  0
ARC
  5
122FD2
  8
OBJECT
 10
4000.0
 20
-199.99999999999909
 30
0.0
 40
50.0
 50
298.81994300000417
 51
228.52376955967449
1001
ACDBBLOCKREPETAG
1070
     1
1071
        1
1005
122FD2
  0
LINE
  5
122FD3
  8
CENTER
 10
4080.0
 20
-199.99999999999909
 30
0.0
 11
3905.0
 21
-199.99999999999909
 31
0.0
1001
ACDBBLOCKREPETAG
1070
     1
1071
        2
1005
122FD3
  0
LINE
  5
122FD4
  8
CENTER
 10
4000.0
 20
-294.99999999999898
 30
0.0
 11
4000.0
 21
-104.9999999999991
 31
0.0
1001
ACDBBLOCKREPETAG
1070
     1
1071
        3
1005
122FD4
  0
CIRCLE
  5
122FD5
  8
OBJECT
 10
4000.0
 20
-199.99999999999909
 30
0.0
 40
70.0
1001
ACDBBLOCKREPETAG
1070
     1
1071
        4
1005
122FD5
  0
CIRCLE
  5
122FD6
  8
OBJECT
 10
4000.0
 20
-199.99999999999909
 30
0.0
 40
77.0
1001
ACDBBLOCKREPETAG
1070
     1
1071
        5
1005
122FD6
  0
ARC
  5
122FD7
  8
OBJECT
 10
4000.0
 20
-199.99999999999909
 30
0.0
 40
80.0
 50
50.805032573864182
 51
309.1949674261358
1001
ACDBBLOCKREPETAG
1070
     1
1071
        6
1005
122FD7
  0
LINE
  5
122FD8
  8
OBJECT
 10
4045.661800227324
 20
-137.99999999999909
 30
0.0
 11
4080.0
 21
-137.99999999999909
 31
0.0
1001
ACDBBLOCKREPETAG
1070
     1
1071
        7
1005
122FD8
  0
LINE
  5
122FD9
  8
OBJECT
 10
4045.661800227324
 20
-261.99999999999909
 30
0.0
 11
4080.0
 21
-261.99999999999909
 31
0.0
1001
ACDBBLOCKREPETAG
1070
     1
1071
        8
1005
122FD9
  0
LINE
  5
122FDA
  8
OBJECT
 10
4024.102933093242
 20
-243.80694712379321
 30
0.0
 11
4024.102933093242
 21
-234.00999999999931
 31
0.0
1001
ACDBBLOCKREPETAG
1070
     1
1071
      138
1005
122FDA
  0
LINE
  5
122FDB
  8
OBJECT
 10
4024.102933093242
 20
-234.00999999999931
 30
0.0
 11
3986.589017458864
 21
-218.4712273665109
 31
0.0
1001
ACDBBLOCKREPETAG
1070
     1
1071
      139
1005
122FDB
  0
ARC
  5
122FDC
  8
OBJECT
 10
3982.7621831352162
 20
-227.7100226916217
 30
0.0
 40
10.0
 50
67.500000000120636
 51
154.0147343702935
1001
ACDBBLOCKREPETAG
1070
     1
1071
      140
1005
122FDC
  0
ARC
  5
122FDD
  8
OBJECT
 10
3986.022399255904
 20
-225.81327182420949
 30
0.0
 40
7.0
 50
67.500000000120636
 51
154.01473377488369
1001
ACDBBLOCKREPETAG
1070
     1
1071
      141
1005
122FDD
  0
ARC
  5
122FDE
  8
OBJECT
 10
3976.579695307315
 20
-207.1289369828437
 30
0.0
 40
60.031113246032611
 50
314.07020130418567
 51
322.33936106091278
1001
ACDBBLOCKREPETAG
1070
     1
1071
      150
1005
122FDE
  0
LINE
  5
122FDF
  8
OBJECT
 10
3969.4199755553018
 20
-243.89888500818171
 30
0.0
 11
3979.7300520410208
 21
-222.74629179048591
 31
0.0
1001
ACDBBLOCKREPETAG
1070
     1
1071
      151
1005
122FDF
  0
LINE
  5
122FE0
  8
OBJECT
 10
3965.2972169006089
 20
-240.71813901882729
 30
0.0
 11
3973.7731156398149
 21
-223.32862273686899
 31
0.0
1001
ACDBBLOCKREPETAG
1070
     1
1071
      152
1005
122FE0
  0
CIRCLE
  5
122FE1
  8
OBJECT
 10
4000.0
 20
-199.99999999999909
 30
0.0
 40
53.5
1001
ACDBBLOCKREPETAG
1070
     1
1071
      153
1005
122FE1
  0
POINT
  5
122FE2
  8
DOTS
 10
4000.0
 20
-199.99999999999909
 30
0.0
 50
270.0
1001
ACDBBLOCKREPETAG
1070
     1
1071
      159
1005
122FE2
  0
LINE
  5
122FE3
  8
CENTER
 10
4101.0
 20
-199.99999999999909
 30
0.0
 11
4080.0
 21
-199.99999999999909
 31
0.0
1001
ACDBBLOCKREPETAG
1070
     1
1071
        0
1005
122FE3
  0
LINE
  5
122FE4
  8
OBJECT
 10
4083.0
 20
-137.99999999999909
 30
0.0
 11
4080.0
 21
-137.99999999999909
 31
0.0
1001
ACDBBLOCKREPETAG
1070
     1
1071
        1
1005
122FE4
  0
ARC
  5
122FE5
  8
OBJECT
 10
4083.0
 20
-140.99999999999909
 30
0.0
 40
3.0
 50
0.0
 51
90.0
1001
ACDBBLOCKREPETAG
1070
     1
1071
        2
1005
122FE5
  0
LINE
  5
122FE6
  8
OBJECT
 10
4080.0
 20
-261.99999999999909
 30
0.0
 11
4083.0
 21
-261.99999999999909
 31
0.0
1001
ACDBBLOCKREPETAG
1070
     1
1071
        3
1005
122FE6
  0
ARC
  5
122FE7
  8
OBJECT
 10
4083.0
 20
-258.99999999999909
 30
0.0
 40
3.0
 50
270.0
 51
0.0
1001
ACDBBLOCKREPETAG
1070
     1
1071
        4
1005
122FE7
  0
LINE
  5
122FE8
  8
OBJECT
 10
4086.0
 20
-258.99999999999909
 30
0.0
 11
4086.0
 21
-140.99999999999909
 31
0.0
1001
ACDBBLOCKREPETAG
1070
     1
1071
        5
1005
122FE8
  0
ARC
  5
122FE9
  8
OBJECT
 10
2000.0
 20
-199.99999999999909
 30
0.0
 40
50.0
 50
298.81994300000417
 51
228.52376955967449
1001
ACDBBLOCKREPETAG
1070
     1
1071
        1
1005
122FE9
  0
LINE
  5
122FEA
  8
CENTER
 10
2080.0
 20
-199.99999999999909
 30
0.0
 11
1905.0
 21
-199.99999999999909
 31
0.0
1001
ACDBBLOCKREPETAG
1070
     1
1071
        2
1005
122FEA
  0
LINE
  5
122FEB
  8
CENTER
 10
2000.0
 20
-294.99999999999898
 30
0.0
 11
2000.0
 21
-104.9999999999991
 31
0.0
1001
ACDBBLOCKREPETAG
1070
     1
1071
        3
1005
122FEB
  0
CIRCLE
  5
122FEC
  8
OBJECT
 10
2000.0
 20
-199.99999999999909
 30
0.0
 40
70.0
1001
ACDBBLOCKREPETAG
1070
     1
1071
        4
1005
122FEC
  0
CIRCLE
  5
122FED
  8
OBJECT
 10
2000.0
 20
-199.99999999999909
 30
0.0
 40
77.0
1001
ACDBBLOCKREPETAG
1070
     1
1071
        5
1005
122FED
  0
ARC
  5
122FEE
  8
OBJECT
 10
2000.0
 20
-199.99999999999909
 30
0.0
 40
80.0
 50
50.805032573864182
 51
309.1949674261358
1001
ACDBBLOCKREPETAG
1070
     1
1071
        6
1005
122FEE
  0
LINE
  5
122FEF
  8
OBJECT
 10
2045.6618002273251
 20
-137.99999999999909
 30
0.0
 11
2080.0
 21
-137.99999999999909
 31
0.0
1001
ACDBBLOCKREPETAG
1070
     1
1071
        7
1005
122FEF
  0
LINE
  5
122FF0
  8
OBJECT
 10
2045.6618002273251
 20
-261.99999999999909
 30
0.0
 11
2080.0
 21
-261.99999999999909
 31
0.0
1001
ACDBBLOCKREPETAG
1070
     1
1071
        8
1005
122FF0
  0
LINE
  5
122FF1
  8
OBJECT
 10
2024.102933093244
 20
-243.80694712379321
 30
0.0
 11
2024.102933093244
 21
-234.00999999999931
 31
0.0
1001
ACDBBLOCKREPETAG
1070
     1
1071
      138
1005
122FF1
  0
LINE
  5
122FF2
  8
OBJECT
 10
2024.102933093244
 20
-234.00999999999931
 30
0.0
 11
1986.589017458864
 21
-218.4712273665109
 31
0.0
1001
ACDBBLOCKREPETAG
1070
     1
1071
      139
1005
122FF2
  0
ARC
  5
122FF3
  8
OBJECT
 10
1982.7621831352151
 20
-227.7100226916217
 30
0.0
 40
10.0
 50
67.500000000120636
 51
154.0147343702935
1001
ACDBBLOCKREPETAG
1070
     1
1071
      140
1005
122FF3
  0
ARC
  5
122FF4
  8
OBJECT
 10
1986.022399255904
 20
-225.81327182420949
 30
0.0
 40
7.0
 50
67.500000000120636
 51
154.01473377487801
1001
ACDBBLOCKREPETAG
1070
     1
1071
      141
1005
122FF4
  0
ARC
  5
122FF5
  8
OBJECT
 10
1976.579695307315
 20
-207.1289369828437
 30
0.0
 40
60.031113246032611
 50
314.07020130418567
 51
322.33936106091278
1001
ACDBBLOCKREPETAG
1070
     1
1071
      150
1005
122FF5
  0
LINE
  5
122FF6
  8
OBJECT
 10
1969.4199755553
 20
-243.89888500818171
 30
0.0
 11
1979.7300520410211
 21
-222.74629179048591
 31
0.0
1001
ACDBBLOCKREPETAG
1070
     1
1071
      151
1005
122FF6
  0
LINE
  5
122FF7
  8
OBJECT
 10
1965.2972169006091
 20
-240.71813901882729
 30
0.0
 11
1973.7731156398149
 21
-223.32862273686899
 31
0.0
1001
ACDBBLOCKREPETAG
1070
     1
1071
      152
1005
122FF7
  0
CIRCLE
  5
122FF8
  8
OBJECT
 10
2000.0
 20
-199.99999999999909
 30
0.0
 40
53.5
1001
ACDBBLOCKREPETAG
1070
     1
1071
      153
1005
122FF8
  0
POINT
  5
122FF9
  8
DOTS
 10
2000.0
 20
-199.99999999999909
 30
0.0
 50
270.0
1001
ACDBBLOCKREPETAG
1070
     1
1071
      159
1005
122FF9
  0
LINE
  5
122FFA
  8
OBJECT
 10
6066.0
 20
-840.49999999999579
 30
0.0
 11
5934.0
 21
-840.49999999999579
 31
0.0
1001
ACDBBLOCKREPETAG
1070
     1
1071
      117
1005
122FFA
  0
LINE
  5
122FFB
  8
HIDDEN
 10
5943.0
 20
-849.99999999999955
 30
0.0
 11
6057.0
 21
-849.99999999999955
 31
0.0
1001
ACDBBLOCKREPETAG
1070
     1
1071
      118
1005
122FFB
  0
LINE
  5
122FFC
  8
CENTER
 10
6000.0
 20
-669.99999999999955
 30
0.0
 11
6000.0
 21
-969.99999999999966
 31
0.0
1001
ACDBBLOCKREPETAG
1070
     1
1071
      119
1005
122FFC
  0
LINE
  5
122FFD
  8
OBJECT
 10
5925.0
 20
-669.99999999999955
 30
0.0
 11
5925.0
 21
-722.99999999999591
 31
0.0
1001
ACDBBLOCKREPETAG
1070
     1
1071
      120
1005
122FFD
  0
LINE
  5
122FFE
  8
OBJECT
 10
6075.0
 20
-669.99999999999955
 30
0.0
 11
6075.0
 21
-722.99999999999204
 31
0.0
1001
ACDBBLOCKREPETAG
1070
     1
1071
      121
1005
122FFE
  0
LINE
  5
122FFF
  8
OBJECT
 10
5925.0
 20
-722.99999999999591
 30
0.0
 11
6075.0
 21
-722.99999999999204
 31
0.0
1001
ACDBBLOCKREPETAG
1070
     1
1071
      122
1005
122FFF
  0
LINE
  5
123000
  8
OBJECT
 10
6057.0
 20
-840.49999999999216
 30
0.0
 11
5943.0
 21
-840.49999999999216
 31
0.0
1001
ACDBBLOCKREPETAG
1070
     1
1071
      123
1005
123000
  0
LINE
  5
123001
  8
OBJECT
 10
5925.0
 20
-722.99999999999591
 30
0.0
 11
5943.0
 21
-840.49999999999216
 31
0.0
1001
ACDBBLOCKREPETAG
1070
     1
1071
      124
1005
123001
  0
LINE
  5
123002
  8
OBJECT
 10
6057.0
 20
-840.49999999999216
 30
0.0
 11
6075.0
 21
-722.99999999999204
 31
0.0
1001
ACDBBLOCKREPETAG
1070
     1
1071
      125
1005
123002
  0
LINE
  5
123003
  8
OBJECT
 10
5934.0
 20
-840.49999999999579
 30
0.0
 11
5934.0
 21
-874.99999999999591
 31
0.0
1001
ACDBBLOCKREPETAG
1070
     1
1071
      126
1005
123003
  0
LINE
  5
123004
  8
OBJECT
 10
6066.0
 20
-840.49999999999579
 30
0.0
 11
6066.0
 21
-874.99999999999591
 31
0.0
1001
ACDBBLOCKREPETAG
1070
     1
1071
      127
1005
123004
  0
LINE
  5
123005
  8
OBJECT
 10
6085.9999999999927
 20
-913.99999999999966
 30
0.0
 11
6085.9999999999927
 21
-923.99999999999943
 31
0.0
1001
ACDBBLOCKREPETAG
1070
     1
1071
      128
1005
123005
  0
LINE
  5
123006
  8
OBJECT
 10
6069.9999999999927
 20
-913.99999999999966
 30
0.0
 11
6069.9999999999927
 21
-923.99999999999943
 31
0.0
1001
ACDBBLOCKREPETAG
1070
     1
1071
      129
1005
123006
  0
LINE
  5
123007
  8
OBJECT
 10
6085.9999999999927
 20
-923.99999999999943
 30
0.0
 11
6069.9999999999927
 21
-923.99999999999943
 31
0.0
1001
ACDBBLOCKREPETAG
1070
     1
1071
      130
1005
123007
  0
LINE
  5
123008
  8
OBJECT
 10
6090.0
 20
-874.99999999999591
 30
0.0
 11
5924.0
 21
-874.99999999999591
 31
0.0
1001
ACDBBLOCKREPETAG
1070
     1
1071
      131
1005
123008
  0
LINE
  5
123009
  8
OBJECT
 10
6090.0
 20
-889.99999999999955
 30
0.0
 11
6090.0
 21
-874.99999999999591
 31
0.0
1001
ACDBBLOCKREPETAG
1070
     1
1071
      132
1005
123009
  0
LINE
  5
12300A
  8
OBJECT
 10
5924.0
 20
-889.99999999999955
 30
0.0
 11
6090.0
 21
-889.99999999999955
 31
0.0
1001
ACDBBLOCKREPETAG
1070
     1
1071
      133
1005
12300A
  0
LINE
  5
12300B
  8
OBJECT
 10
6067.4999999999864
 20
-889.99999999999955
 30
0.0
 11
6067.4999999999864
 21
-899.99999999999955
 31
0.0
1001
ACDBBLOCKREPETAG
1070
     1
1071
      134
1005
12300B
  0
LINE
  5
12300C
  8
OBJECT
 10
6072.9999999999927
 20
-899.99999999999955
 30
0.0
 11
6072.9999999999927
 21
-889.99999999999955
 31
0.0
1001
ACDBBLOCKREPETAG
1070
     1
1071
      135
1005
12300C
  0
LINE
  5
12300D
  8
OBJECT
 10
6082.9999999999927
 20
-899.99999999999955
 30
0.0
 11
6082.9999999999927
 21
-889.99999999999955
 31
0.0
1001
ACDBBLOCKREPETAG
1070
     1
1071
      136
1005
12300D
  0
LINE
  5
12300E
  8
OBJECT
 10
5924.0
 20
-899.99999999999955
 30
0.0
 11
5924.0
 21
-913.99999999999591
 31
0.0
1001
ACDBBLOCKREPETAG
1070
     1
1071
      137
1005
12300E
  0
LINE
  5
12300F
  8
OBJECT
 10
6090.0
 20
-899.99999999999955
 30
0.0
 11
6090.0
 21
-913.99999999999591
 31
0.0
1001
ACDBBLOCKREPETAG
1070
     1
1071
      138
1005
12300F
  0
LINE
  5
123010
  8
OBJECT
 10
5924.0
 20
-913.99999999999591
 30
0.0
 11
6090.0
 21
-913.99999999999591
 31
0.0
1001
ACDBBLOCKREPETAG
1070
     1
1071
      139
1005
123010
  0
LINE
  5
123011
  8
OBJECT
 10
5924.0
 20
-899.99999999999955
 30
0.0
 11
6090.0
 21
-899.99999999999955
 31
0.0
1001
ACDBBLOCKREPETAG
1070
     1
1071
      140
1005
123011
  0
LINE
  5
123012
  8
OBJECT
 10
5932.4999999999864
 20
-889.99999999999955
 30
0.0
 11
5932.4999999999864
 21
-899.99999999999955
 31
0.0
1001
ACDBBLOCKREPETAG
1070
     1
1071
      141
1005
123012
  0
LINE
  5
123013
  8
OBJECT
 10
5924.0
 20
-889.99999999999955
 30
0.0
 11
5924.0
 21
-874.99999999999591
 31
0.0
1001
ACDBBLOCKREPETAG
1070
     1
1071
      142
1005
123013
  0
LINE
  5
123014
  8
OBJECT
 10
6086.9999999999918
 20
-873.20000000000005
 30
0.0
 11
6086.9999999999918
 21
-874.99999999999955
 31
0.0
1001
ACDBBLOCKREPETAG
1070
     1
1071
      143
1005
123014
  0
LINE
  5
123015
  8
OBJECT
 10
6068.9999999999909
 20
-873.20000000000005
 30
0.0
 11
6068.9999999999909
 21
-874.99999999999955
 31
0.0
1001
ACDBBLOCKREPETAG
1070
     1
1071
      144
1005
123015
  0
LINE
  5
123016
  8
OBJECT
 10
6072.2499999999927
 20
-863.49999999999955
 30
0.0
 11
6083.7499999999927
 21
-863.49999999999955
 31
0.0
1001
ACDBBLOCKREPETAG
1070
     1
1071
      145
1005
123016
  0
LINE
  5
123017
  8
OBJECT
 10
6072.2499999999927
 20
-863.49999999999955
 30
0.0
 11
6072.2499999999927
 21
-873.20000000000005
 31
0.0
1001
ACDBBLOCKREPETAG
1070
     1
1071
      146
1005
123017
  0
LINE
  5
123018
  8
OBJECT
 10
6083.7499999999927
 20
-863.49999999999955
 30
0.0
 11
6083.7499999999927
 21
-873.20000000000005
 31
0.0
1001
ACDBBLOCKREPETAG
1070
     1
1071
      147
1005
123018
  0
LINE
  5
123019
  8
OBJECT
 10
5931.9999999999873
 20
-954.99999999999966
 30
0.0
 11
6067.9999999999873
 21
-954.99999999999966
 31
0.0
1001
ACDBBLOCKREPETAG
1070
     1
1071
      148
1005
123019
  0
LINE
  5
12301A
  8
OBJECT
 10
5931.9999999999873
 20
-954.99999999999966
 30
0.0
 11
5931.9999999999873
 21
-913.99999999999966
 31
0.0
1001
ACDBBLOCKREPETAG
1070
     1
1071
      149
1005
12301A
  0
LINE
  5
12301B
  8
OBJECT
 10
6067.9999999999873
 20
-954.99999999999966
 30
0.0
 11
6067.9999999999873
 21
-913.99999999999966
 31
0.0
1001
ACDBBLOCKREPETAG
1070
     1
1071
      150
1005
12301B
  0
LINE
  5
12301C
  8
OBJECT
 10
6086.9999999999918
 20
-873.20000000000005
 30
0.0
 11
6068.9999999999909
 21
-873.20000000000005
 31
0.0
1001
ACDBBLOCKREPETAG
1070
     1
1071
      151
1005
12301C
  0
LINE
  5
12301D
  8
OBJECT
 10
5954.75
 20
-864.699999999993
 30
0.0
 11
5967.2499999999991
 21
-864.699999999993
 31
0.0
1001
ACDBBLOCKREPETAG
1070
     1
1071
      152
1005
12301D
  0
LINE
  5
12301E
  8
OBJECT
 10
5946.0
 20
-874.99999999999591
 30
0.0
 11
5946.0
 21
-872.69999999999663
 31
0.0
1001
ACDBBLOCKREPETAG
1070
     1
1071
      153
1005
12301E
  0
LINE
  5
12301F
  8
OBJECT
 10
5976.0
 20
-874.99999999999591
 30
0.0
 11
5976.0
 21
-872.69999999999663
 31
0.0
1001
ACDBBLOCKREPETAG
1070
     1
1071
      154
1005
12301F
  0
LINE
  5
123020
  8
OBJECT
 10
5954.75
 20
-864.699999999993
 30
0.0
 11
5954.75
 21
-872.69999999999663
 31
0.0
1001
ACDBBLOCKREPETAG
1070
     1
1071
      155
1005
123020
  0
LINE
  5
123021
  8
OBJECT
 10
5967.2499999999991
 20
-864.699999999993
 30
0.0
 11
5967.2499999999991
 21
-872.69999999999663
 31
0.0
1001
ACDBBLOCKREPETAG
1070
     1
1071
      156
1005
123021
  0
LINE
  5
123022
  8
OBJECT
 10
5946.0
 20
-872.69999999999663
 30
0.0
 11
5976.0
 21
-872.69999999999663
 31
0.0
1001
ACDBBLOCKREPETAG
1070
     1
1071
      157
1005
123022
  0
LINE
  5
123023
  8
OBJECT
 10
5953.0
 20
-913.99999999999591
 30
0.0
 11
5953.0
 21
-923.99999999999613
 31
0.0
1001
ACDBBLOCKREPETAG
1070
     1
1071
      158
1005
123023
  0
LINE
  5
123024
  8
OBJECT
 10
5969.0
 20
-913.99999999999591
 30
0.0
 11
5969.0
 21
-923.99999999999613
 31
0.0
1001
ACDBBLOCKREPETAG
1070
     1
1071
      159
1005
123024
  0
LINE
  5
123025
  8
OBJECT
 10
5953.0
 20
-923.99999999999613
 30
0.0
 11
5969.0
 21
-923.99999999999613
 31
0.0
1001
ACDBBLOCKREPETAG
1070
     1
1071
      160
1005
123025
  0
LINE
  5
123026
  8
OBJECT
 10
5966.0
 20
-899.99999999999591
 30
0.0
 11
5966.0
 21
-889.99999999999591
 31
0.0
1001
ACDBBLOCKREPETAG
1070
     1
1071
      161
1005
123026
  0
LINE
  5
123027
  8
OBJECT
 10
5956.0
 20
-899.99999999999591
 30
0.0
 11
5956.0
 21
-889.99999999999591
 31
0.0
1001
ACDBBLOCKREPETAG
1070
     1
1071
      162
1005
123027
  0
LINE
  5
123028
  8
OBJECT
 10
4090.0
 20
-874.99999999999591
 30
0.0
 11
3924.0
 21
-874.99999999999591
 31
0.0
1001
ACDBBLOCKREPETAG
1070
     1
1071
       12
1005
123028
  0
LINE
  5
123029
  8
OBJECT
 10
4066.0
 20
-840.49999999999579
 30
0.0
 11
3934.0
 21
-840.49999999999579
 31
0.0
1001
ACDBBLOCKREPETAG
1070
     1
1071
       13
1005
123029
  0
LINE
  5
12302A
  8
OBJECT
 10
4090.0
 20
-889.99999999999955
 30
0.0
 11
4090.0
 21
-874.99999999999591
 31
0.0
1001
ACDBBLOCKREPETAG
1070
     1
1071
       14
1005
12302A
  0
LINE
  5
12302B
  8
OBJECT
 10
3924.0
 20
-889.99999999999955
 30
0.0
 11
4090.0
 21
-889.99999999999955
 31
0.0
1001
ACDBBLOCKREPETAG
1070
     1
1071
       15
1005
12302B
  0
LINE
  5
12302C
  8
OBJECT
 10
4067.4999999999841
 20
-889.99999999999955
 30
0.0
 11
4067.4999999999841
 21
-899.99999999999955
 31
0.0
1001
ACDBBLOCKREPETAG
1070
     1
1071
       16
1005
12302C
  0
LINE
  5
12302D
  8
OBJECT
 10
3924.0
 20
-899.99999999999955
 30
0.0
 11
3924.0
 21
-913.99999999999591
 31
0.0
1001
ACDBBLOCKREPETAG
1070
     1
1071
       17
1005
12302D
  0
LINE
  5
12302E
  8
OBJECT
 10
4090.0
 20
-899.99999999999955
 30
0.0
 11
4090.0
 21
-913.99999999999591
 31
0.0
1001
ACDBBLOCKREPETAG
1070
     1
1071
       18
1005
12302E
  0
LINE
  5
12302F
  8
OBJECT
 10
3924.0
 20
-913.99999999999591
 30
0.0
 11
4090.0
 21
-913.99999999999591
 31
0.0
1001
ACDBBLOCKREPETAG
1070
     1
1071
       19
1005
12302F
  0
LINE
  5
123030
  8
OBJECT
 10
3924.0
 20
-899.99999999999955
 30
0.0
 11
4090.0
 21
-899.99999999999955
 31
0.0
1001
ACDBBLOCKREPETAG
1070
     1
1071
       20
1005
123030
  0
LINE
  5
123031
  8
OBJECT
 10
3932.499999999985
 20
-889.99999999999955
 30
0.0
 11
3932.499999999985
 21
-899.99999999999955
 31
0.0
1001
ACDBBLOCKREPETAG
1070
     1
1071
       21
1005
123031
  0
LINE
  5
123032
  8
OBJECT
 10
3924.0
 20
-889.99999999999955
 30
0.0
 11
3924.0
 21
-874.99999999999591
 31
0.0
1001
ACDBBLOCKREPETAG
1070
     1
1071
       22
1005
123032
  0
LINE
  5
123033
  8
HIDDEN
 10
3943.0
 20
-849.99999999999955
 30
0.0
 11
4057.0
 21
-849.99999999999955
 31
0.0
1001
ACDBBLOCKREPETAG
1070
     1
1071
       23
1005
123033
  0
LINE
  5
123034
  8
CENTER
 10
4000.0
 20
-669.99999999999955
 30
0.0
 11
4000.0
 21
-928.99999999999602
 31
0.0
1001
ACDBBLOCKREPETAG
1070
     1
1071
       24
1005
123034
  0
LINE
  5
123035
  8
OBJECT
 10
3925.0
 20
-669.99999999999955
 30
0.0
 11
3925.0
 21
-722.99999999999591
 31
0.0
1001
ACDBBLOCKREPETAG
1070
     1
1071
       25
1005
123035
  0
LINE
  5
123036
  8
OBJECT
 10
4075.0
 20
-669.99999999999955
 30
0.0
 11
4075.0
 21
-722.99999999999204
 31
0.0
1001
ACDBBLOCKREPETAG
1070
     1
1071
       26
1005
123036
  0
LINE
  5
123037
  8
OBJECT
 10
3925.0
 20
-722.99999999999591
 30
0.0
 11
4075.0
 21
-722.99999999999204
 31
0.0
1001
ACDBBLOCKREPETAG
1070
     1
1071
       27
1005
123037
  0
LINE
  5
123038
  8
OBJECT
 10
4057.0
 20
-840.49999999999216
 30
0.0
 11
3943.0
 21
-840.49999999999216
 31
0.0
1001
ACDBBLOCKREPETAG
1070
     1
1071
       28
1005
123038
  0
LINE
  5
123039
  8
OBJECT
 10
3925.0
 20
-722.99999999999591
 30
0.0
 11
3943.0
 21
-840.49999999999216
 31
0.0
1001
ACDBBLOCKREPETAG
1070
     1
1071
       29
1005
123039
  0
LINE
  5
12303A
  8
OBJECT
 10
4057.0
 20
-840.49999999999216
 30
0.0
 11
4075.0
 21
-722.99999999999204
 31
0.0
1001
ACDBBLOCKREPETAG
1070
     1
1071
       30
1005
12303A
  0
LINE
  5
12303B
  8
OBJECT
 10
3934.0
 20
-840.49999999999579
 30
0.0
 11
3934.0
 21
-874.99999999999591
 31
0.0
1001
ACDBBLOCKREPETAG
1070
     1
1071
       31
1005
12303B
  0
LINE
  5
12303C
  8
OBJECT
 10
4066.0
 20
-840.49999999999579
 30
0.0
 11
4066.0
 21
-874.99999999999591
 31
0.0
1001
ACDBBLOCKREPETAG
1070
     1
1071
       32
1005
12303C
  0
LINE
  5
12303D
  8
OBJECT
 10
4082.9999999999932
 20
-899.99999999999591
 30
0.0
 11
4082.9999999999932
 21
-889.99999999999591
 31
0.0
1001
ACDBBLOCKREPETAG
1070
     1
1071
       33
1005
12303D
  0
LINE
  5
12303E
  8
OBJECT
 10
4072.9999999999918
 20
-899.99999999999591
 30
0.0
 11
4072.9999999999918
 21
-889.99999999999591
 31
0.0
1001
ACDBBLOCKREPETAG
1070
     1
1071
       34
1005
12303E
  0
LINE
  5
12303F
  8
OBJECT
 10
4068.9999999999841
 20
-869.99999999999579
 30
0.0
 11
4068.9999999999841
 21
-874.99999999999591
 31
0.0
1001
ACDBBLOCKREPETAG
1070
     1
1071
       35
1005
12303F
  0
LINE
  5
123040
  8
OBJECT
 10
4087.0
 20
-869.99999999999579
 30
0.0
 11
4087.0
 21
-874.99999999999591
 31
0.0
1001
ACDBBLOCKREPETAG
1070
     1
1071
       36
1005
123040
  0
LINE
  5
123041
  8
OBJECT
 10
4087.0
 20
-869.99999999999579
 30
0.0
 11
4068.9999999999841
 21
-869.99999999999579
 31
0.0
1001
ACDBBLOCKREPETAG
1070
     1
1071
       37
1005
123041
  0
LINE
  5
123042
  8
OBJECT
 10
4073.0
 20
-921.99999999999591
 30
0.0
 11
4073.0
 21
-924.99999999999602
 31
0.0
1001
ACDBBLOCKREPETAG
1070
     1
1071
       38
1005
123042
  0
LINE
  5
123043
  8
OBJECT
 10
4073.0
 20
-924.99999999999602
 30
0.0
 11
4083.0
 21
-924.99999999999602
 31
0.0
1001
ACDBBLOCKREPETAG
1070
     1
1071
       39
1005
123043
  0
LINE
  5
123044
  8
OBJECT
 10
4083.0
 20
-924.99999999999602
 30
0.0
 11
4083.0
 21
-921.99999999999591
 31
0.0
1001
ACDBBLOCKREPETAG
1070
     1
1071
       41
1005
123044
  0
LINE
  5
123045
  8
OBJECT
 10
3968.5
 20
-869.99999999999579
 30
0.0
 11
3951.9999999999932
 21
-869.99999999999579
 31
0.0
1001
ACDBBLOCKREPETAG
1070
     1
1071
       46
1005
123045
  0
LINE
  5
123046
  8
OBJECT
 10
3976.0
 20
-874.99999999999591
 30
0.0
 11
3976.0
 21
-872.99999999999591
 31
0.0
1001
ACDBBLOCKREPETAG
1070
     1
1071
       47
1005
123046
  0
LINE
  5
123047
  8
OBJECT
 10
3966.0
 20
-899.99999999999591
 30
0.0
 11
3966.0
 21
-889.99999999999591
 31
0.0
1001
ACDBBLOCKREPETAG
1070
     1
1071
       48
1005
123047
  0
LINE
  5
123048
  8
OBJECT
 10
3956.0
 20
-899.99999999999591
 30
0.0
 11
3956.0
 21
-889.99999999999591
 31
0.0
1001
ACDBBLOCKREPETAG
1070
     1
1071
       49
1005
123048
  0
LINE
  5
123049
  8
OBJECT
 10
3951.9999999999932
 20
-869.99999999999579
 30
0.0
 11
3951.9999999999932
 21
-874.99999999999591
 31
0.0
1001
ACDBBLOCKREPETAG
1070
     1
1071
       50
1005
123049
  0
LINE
  5
12304A
  8
OBJECT
 10
3956.0
 20
-921.99999999999591
 30
0.0
 11
3956.0
 21
-924.99999999999602
 31
0.0
1001
ACDBBLOCKREPETAG
1070
     1
1071
       51
1005
12304A
  0
LINE
  5
12304B
  8
OBJECT
 10
3956.0
 20
-924.99999999999602
 30
0.0
 11
3966.0
 21
-924.99999999999602
 31
0.0
1001
ACDBBLOCKREPETAG
1070
     1
1071
       52
1005
12304B
  0
LINE
  5
12304C
  8
OBJECT
 10
3966.0
 20
-924.99999999999602
 30
0.0
 11
3966.0
 21
-921.99999999999591
 31
0.0
1001
ACDBBLOCKREPETAG
1070
     1
1071
       54
1005
12304C
  0
LINE
  5
12304D
  8
OBJECT
 10
3976.0
 20
-872.99999999999591
 30
0.0
 11
3968.5
 21
-869.99999999999579
 31
0.0
1001
ACDBBLOCKREPETAG
1070
     1
1071
       55
1005
12304D
  0
LINE
  5
12304E
  8
OBJECT
 10
3951.185045423772
 20
-921.99999999999591
 30
0.0
 11
3970.8149545762212
 21
-921.99999999999591
 31
0.0
1001
ACDBBLOCKREPETAG
1070
     1
1071
      449
1005
12304E
  0
LINE
  5
12304F
  8
OBJECT
 10
3951.185045423777
 20
-913.99999999999591
 30
0.0
 11
3951.185045423777
 21
-921.99999999999591
 31
0.0
1001
ACDBBLOCKREPETAG
1070
     1
1071
      450
1005
12304F
  0
LINE
  5
123050
  8
OBJECT
 10
3956.0925227118901
 20
-913.99999999999591
 30
0.0
 11
3956.0925227118901
 21
-921.99999999999591
 31
0.0
1001
ACDBBLOCKREPETAG
1070
     1
1071
      451
1005
123050
  0
LINE
  5
123051
  8
OBJECT
 10
3965.9074772881122
 20
-913.99999999999591
 30
0.0
 11
3965.9074772881122
 21
-921.99999999999591
 31
0.0
1001
ACDBBLOCKREPETAG
1070
     1
1071
      452
1005
123051
  0
LINE
  5
123052
  8
OBJECT
 10
3970.814954576223
 20
-913.99999999999591
 30
0.0
 11
3970.814954576223
 21
-921.99999999999591
 31
0.0
1001
ACDBBLOCKREPETAG
1070
     1
1071
      453
1005
123052
  0
LINE
  5
123053
  8
OBJECT
 10
4068.185045423772
 20
-921.99999999999591
 30
0.0
 11
4087.8149545762199
 21
-921.99999999999591
 31
0.0
1001
ACDBBLOCKREPETAG
1070
     1
1071
      454
1005
123053
  0
LINE
  5
123054
  8
OBJECT
 10
4068.185045423777
 20
-913.99999999999591
 30
0.0
 11
4068.185045423777
 21
-921.99999999999591
 31
0.0
1001
ACDBBLOCKREPETAG
1070
     1
1071
      455
1005
123054
  0
LINE
  5
123055
  8
OBJECT
 10
4073.0925227118869
 20
-913.99999999999591
 30
0.0
 11
4073.0925227118869
 21
-921.99999999999591
 31
0.0
1001
ACDBBLOCKREPETAG
1070
     1
1071
      456
1005
123055
  0
LINE
  5
123056
  8
OBJECT
 10
4082.9074772881122
 20
-913.99999999999591
 30
0.0
 11
4082.9074772881122
 21
-921.99999999999591
 31
0.0
1001
ACDBBLOCKREPETAG
1070
     1
1071
      457
1005
123056
  0
LINE
  5
123057
  8
OBJECT
 10
4087.814954576223
 20
-913.99999999999591
 30
0.0
 11
4087.814954576223
 21
-921.99999999999591
 31
0.0
1001
ACDBBLOCKREPETAG
1070
     1
1071
      458
1005
123057
  0
LINE
  5
123058
  8
OBJECT
 10
1943.0
 20
-919.99999999999557
 30
0.0
 11
2057.0
 21
-919.99999999999557
 31
0.0
1001
ACDBBLOCKREPETAG
1070
     1
1071
        0
1005
123058
  0
LINE
  5
123059
  8
OBJECT
 10
1943.0
 20
-919.99999999999557
 30
0.0
 11
1943.0
 21
-839.99999999999591
 31
0.0
1001
ACDBBLOCKREPETAG
1070
     1
1071
        1
1005
123059
  0
LINE
  5
12305A
  8
OBJECT
 10
2057.0
 20
-919.99999999999557
 30
0.0
 11
2057.0
 21
-839.99999999999591
 31
0.0
1001
ACDBBLOCKREPETAG
1070
     1
1071
        2
1005
12305A
  0
LINE
  5
12305B
  8
OBJECT
 10
1943.0
 20
-839.99999999999591
 30
0.0
 11
2057.0
 21
-839.99999999999591
 31
0.0
1001
ACDBBLOCKREPETAG
1070
     1
1071
        3
1005
12305B
  0
LINE
  5
12305C
  8
HIDDEN
 10
1950.0
 20
-839.99999999999591
 30
0.0
 11
1950.0
 21
-919.99999999999557
 31
0.0
1001
ACDBBLOCKREPETAG
1070
     1
1071
        4
1005
12305C
  0
LINE
  5
12305D
  8
HIDDEN
 10
2050.0
 20
-839.99999999999591
 30
0.0
 11
2050.0
 21
-919.99999999999557
 31
0.0
1001
ACDBBLOCKREPETAG
1070
     1
1071
        5
1005
12305D
  0
LINE
  5
12305E
  8
CENTER
 10
2000.0
 20
-669.99999999999955
 30
0.0
 11
2000.0
 21
-934.99999999999545
 31
0.0
1001
ACDBBLOCKREPETAG
1070
     1
1071
        6
1005
12305E
  0
LINE
  5
12305F
  8
OBJECT
 10
1925.0
 20
-669.99999999999955
 30
0.0
 11
1925.0
 21
-722.99999999999591
 31
0.0
1001
ACDBBLOCKREPETAG
1070
     1
1071
        7
1005
12305F
  0
LINE
  5
123060
  8
OBJECT
 10
2075.0
 20
-669.99999999999955
 30
0.0
 11
2075.0
 21
-722.99999999999591
 31
0.0
1001
ACDBBLOCKREPETAG
1070
     1
1071
        8
1005
123060
  0
LINE
  5
123061
  8
OBJECT
 10
1925.0
 20
-722.99999999999591
 30
0.0
 11
2075.0
 21
-722.99999999999591
 31
0.0
1001
ACDBBLOCKREPETAG
1070
     1
1071
        9
1005
123061
  0
LINE
  5
123062
  8
OBJECT
 10
1925.0
 20
-722.99999999999591
 30
0.0
 11
1943.0
 21
-839.99999999999591
 31
0.0
1001
ACDBBLOCKREPETAG
1070
     1
1071
       10
1005
123062
  0
LINE
  5
123063
  8
OBJECT
 10
2057.0
 20
-839.99999999999591
 30
0.0
 11
2075.0
 21
-722.99999999999591
 31
0.0
1001
ACDBBLOCKREPETAG
1070
     1
1071
       11
1005
123063
  0
TEXT
  5
123064
  8
SLIM
 10
5797.6000000000004
 20
-1528.9999999999991
 30
0.0
 40
28.0
  1
※ 対応スラブ厚　150～180mm
 41
0.75
  0
TEXT
  5
123065
  8
SLIM
 10
5598.8999999999996
 20
-1622.3333333333319
 30
0.0
 40
28.0
  1
国土交通大臣認定・（一財）日本消防設備安全センター性能評定取得品
 41
0.75
  0
TEXT
  5
123066
  8
SLIM
 10
5631.1000000000004
 20
-1668.9999999999991
 30
0.0
 40
28.0
  1
注）ご採用にあたり、認定書及び評定書の内容をご確認ください。
 41
0.75
  0
TEXT
  5
123067
  8
SLIM
 10
3811.8000000000002
 20
-1507.9999999999959
 30
0.0
 40
28.0
  1
※ 対応スラブ厚　180mm以下
 41
0.75
  0
TEXT
  5
123068
  8
SLIM
 10
1811.8
 20
-1263.999999999998
 30
0.0
 40
28.0
  1
※ 対応スラブ厚　180mm以下
 41
0.75
  0
LINE
  5
123069
  8
OBJECT
 10
5923.0
 20
-470.99999999999937
 30
0.0
 11
5923.0
 21
-449.99999999999937
 31
0.0
1001
ACDBBLOCKREPETAG
1070
     1
1071
        0
1005
123069
  0
LINE
  5
12306A
  8
OBJECT
 10
5923.0
 20
-449.99999999999937
 30
0.0
 11
6077.0
 21
-449.99999999999937
 31
0.0
1001
ACDBBLOCKREPETAG
1070
     1
1071
        1
1005
12306A
  0
LINE
  5
12306B
  8
HIDDEN
 10
5943.0
 20
-519.99999999999955
 30
0.0
 11
6057.0
 21
-519.99999999999955
 31
0.0
1001
ACDBBLOCKREPETAG
1070
     1
1071
        2
1005
12306B
  0
LINE
  5
12306C
  8
OBJECT
 10
6077.0
 20
-449.99999999999937
 30
0.0
 11
6077.0
 21
-470.99999999999937
 31
0.0
1001
ACDBBLOCKREPETAG
1070
     1
1071
        3
1005
12306C
  0
LINE
  5
12306D
  8
OBJECT
 10
6077.0
 20
-470.99999999999937
 30
0.0
 11
5923.0
 21
-470.99999999999937
 31
0.0
1001
ACDBBLOCKREPETAG
1070
     1
1071
        4
1005
12306D
  0
LINE
  5
12306E
  8
CENTER
 10
6000.0
 20
-434.99999999999949
 30
0.0
 11
6000.0
 21
-669.99999999999955
 31
0.0
1001
ACDBBLOCKREPETAG
1070
     1
1071
        5
1005
12306E
  0
LINE
  5
12306F
  8
OBJECT
 10
5925.0
 20
-533.99999999999955
 30
0.0
 11
5925.0
 21
-657.99999999999955
 31
0.0
1001
ACDBBLOCKREPETAG
1070
     1
1071
        6
1005
12306F
  0
LINE
  5
123070
  8
OBJECT
 10
5928.0
 20
-470.99999999999937
 30
0.0
 11
5928.0
 21
-533.99999999999955
 31
0.0
1001
ACDBBLOCKREPETAG
1070
     1
1071
        7
1005
123070
  0
LINE
  5
123071
  8
OBJECT
 10
6072.0
 20
-533.99999999999955
 30
0.0
 11
6072.0
 21
-470.99999999999937
 31
0.0
1001
ACDBBLOCKREPETAG
1070
     1
1071
        8
1005
123071
  0
LINE
  5
123072
  8
OBJECT
 10
5920.0
 20
-657.99999999999955
 30
0.0
 11
6080.0
 21
-657.99999999999955
 31
0.0
1001
ACDBBLOCKREPETAG
1070
     1
1071
        9
1005
123072
  0
LINE
  5
123073
  8
OBJECT
 10
6080.0
 20
-533.99999999999955
 30
0.0
 11
5925.0
 21
-533.99999999999955
 31
0.0
1001
ACDBBLOCKREPETAG
1070
     1
1071
       10
1005
123073
  0
LINE
  5
123074
  8
OBJECT
 10
5920.0
 20
-657.99999999999955
 30
0.0
 11
5920.0
 21
-669.99999999999955
 31
0.0
1001
ACDBBLOCKREPETAG
1070
     1
1071
       11
1005
123074
  0
LINE
  5
123075
  8
OBJECT
 10
5920.0
 20
-669.99999999999955
 30
0.0
 11
6080.0
 21
-669.99999999999955
 31
0.0
1001
ACDBBLOCKREPETAG
1070
     1
1071
       12
1005
123075
  0
LINE
  5
123076
  8
OBJECT
 10
6080.0
 20
-669.99999999999955
 30
0.0
 11
6080.0
 21
-657.99999999999955
 31
0.0
1001
ACDBBLOCKREPETAG
1070
     1
1071
       13
1005
123076
  0
ARC
  5
123077
  8
OBJECT
 10
6200.6872746716735
 20
-649.40809941010718
 30
0.0
 40
170.6350503965856
 50
137.44134459184301
 51
149.91949581337221
1001
ACDBBLOCKREPETAG
1070
     1
1071
       15
1005
123077
  0
ARC
  5
123078
  8
OBJECT
 10
6118.8455987040506
 20
-605.88272669536445
 30
0.0
 40
78.072222021763665
 50
147.4551531037684
 51
164.66365997718671
1001
ACDBBLOCKREPETAG
1070
     1
1071
       16
1005
123078
  0
ARC
  5
123079
  8
OBJECT
 10
6085.7554349608727
 20
-595.99999999999955
 30
0.0
 40
43.55353926885617
 50
165.6884523008477
 51
194.3115476991523
1001
ACDBBLOCKREPETAG
1070
     1
1071
       17
1005
123079
  0
ARC
  5
12307A
  8
OBJECT
 10
6200.6872746716735
 20
-542.59190058989179
 30
0.0
 40
170.6350503965856
 50
210.08050418662771
 51
222.55865540815699
1001
ACDBBLOCKREPETAG
1070
     1
1071
       18
1005
12307A
  0
ARC
  5
12307B
  8
OBJECT
 10
6118.8455987040506
 20
-586.11727330463452
 30
0.0
 40
78.072222021763665
 50
195.3363400228132
 51
212.5448468962316
1001
ACDBBLOCKREPETAG
1070
     1
1071
       19
1005
12307B
  0
POINT
  5
12307C
  8
DOTS
 10
6000.0
 20
-654.99999999999966
 30
0.0
1001
ACDBBLOCKREPETAG
1070
     1
1071
      186
1005
12307C
  0
LINE
  5
12307D
  8
OBJECT
 10
1923.0
 20
-470.99999999999937
 30
0.0
 11
1923.0
 21
-449.99999999999937
 31
0.0
1001
ACDBBLOCKREPETAG
1070
     1
1071
        0
1005
12307D
  0
LINE
  5
12307E
  8
OBJECT
 10
1923.0
 20
-449.99999999999937
 30
0.0
 11
2077.0
 21
-449.99999999999937
 31
0.0
1001
ACDBBLOCKREPETAG
1070
     1
1071
        1
1005
12307E
  0
LINE
  5
12307F
  8
HIDDEN
 10
1943.0
 20
-519.99999999999955
 30
0.0
 11
2057.0
 21
-519.99999999999955
 31
0.0
1001
ACDBBLOCKREPETAG
1070
     1
1071
        2
1005
12307F
  0
LINE
  5
123080
  8
OBJECT
 10
2077.0
 20
-449.99999999999937
 30
0.0
 11
2077.0
 21
-470.99999999999937
 31
0.0
1001
ACDBBLOCKREPETAG
1070
     1
1071
        3
1005
123080
  0
LINE
  5
123081
  8
OBJECT
 10
2077.0
 20
-470.99999999999937
 30
0.0
 11
1923.0
 21
-470.99999999999937
 31
0.0
1001
ACDBBLOCKREPETAG
1070
     1
1071
        4
1005
123081
  0
LINE
  5
123082
  8
CENTER
 10
2000.0
 20
-434.99999999999949
 30
0.0
 11
2000.0
 21
-669.99999999999955
 31
0.0
1001
ACDBBLOCKREPETAG
1070
     1
1071
        5
1005
123082
  0
LINE
  5
123083
  8
OBJECT
 10
1925.0
 20
-533.99999999999955
 30
0.0
 11
1925.0
 21
-657.99999999999955
 31
0.0
1001
ACDBBLOCKREPETAG
1070
     1
1071
        6
1005
123083
  0
LINE
  5
123084
  8
OBJECT
 10
1928.0
 20
-470.99999999999937
 30
0.0
 11
1928.0
 21
-533.99999999999955
 31
0.0
1001
ACDBBLOCKREPETAG
1070
     1
1071
        7
1005
123084
  0
LINE
  5
123085
  8
OBJECT
 10
2072.0
 20
-533.99999999999955
 30
0.0
 11
2072.0
 21
-470.99999999999937
 31
0.0
1001
ACDBBLOCKREPETAG
1070
     1
1071
        8
1005
123085
  0
LINE
  5
123086
  8
OBJECT
 10
1920.0
 20
-657.99999999999955
 30
0.0
 11
2080.0
 21
-657.99999999999955
 31
0.0
1001
ACDBBLOCKREPETAG
1070
     1
1071
        9
1005
123086
  0
LINE
  5
123087
  8
OBJECT
 10
2080.0
 20
-533.99999999999955
 30
0.0
 11
1925.0
 21
-533.99999999999955
 31
0.0
1001
ACDBBLOCKREPETAG
1070
     1
1071
       10
1005
123087
  0
LINE
  5
123088
  8
OBJECT
 10
1920.0
 20
-657.99999999999955
 30
0.0
 11
1920.0
 21
-669.99999999999955
 31
0.0
1001
ACDBBLOCKREPETAG
1070
     1
1071
       11
1005
123088
  0
LINE
  5
123089
  8
OBJECT
 10
1920.0
 20
-669.99999999999955
 30
0.0
 11
2080.0
 21
-669.99999999999955
 31
0.0
1001
ACDBBLOCKREPETAG
1070
     1
1071
       12
1005
123089
  0
LINE
  5
12308A
  8
OBJECT
 10
2080.0
 20
-669.99999999999955
 30
0.0
 11
2080.0
 21
-657.99999999999955
 31
0.0
1001
ACDBBLOCKREPETAG
1070
     1
1071
       13
1005
12308A
  0
ARC
  5
12308B
  8
OBJECT
 10
2200.6872746716731
 20
-649.40809941010718
 30
0.0
 40
170.6350503965856
 50
137.44134459184301
 51
149.91949581336559
1001
ACDBBLOCKREPETAG
1070
     1
1071
       15
1005
12308B
  0
ARC
  5
12308C
  8
OBJECT
 10
2118.8455987040511
 20
-605.88272669536445
 30
0.0
 40
78.072222021763665
 50
147.45515310377539
 51
164.6636599771798
1001
ACDBBLOCKREPETAG
1070
     1
1071
       16
1005
12308C
  0
ARC
  5
12308D
  8
OBJECT
 10
2085.7554349608731
 20
-595.99999999999955
 30
0.0
 40
43.55353926885617
 50
165.6884523008477
 51
194.3115476991523
1001
ACDBBLOCKREPETAG
1070
     1
1071
       17
1005
12308D
  0
ARC
  5
12308E
  8
OBJECT
 10
2200.6872746716731
 20
-542.59190058989179
 30
0.0
 40
170.6350503965856
 50
210.0805041866343
 51
222.55865540815699
1001
ACDBBLOCKREPETAG
1070
     1
1071
       18
1005
12308E
  0
ARC
  5
12308F
  8
OBJECT
 10
2118.8455987040511
 20
-586.11727330463452
 30
0.0
 40
78.072222021763665
 50
195.3363400228202
 51
212.54484689622461
1001
ACDBBLOCKREPETAG
1070
     1
1071
       19
1005
12308F
  0
POINT
  5
123090
  8
DOTS
 10
2000.0
 20
-654.99999999999966
 30
0.0
1001
ACDBBLOCKREPETAG
1070
     1
1071
      186
1005
123090
  0
LINE
  5
123091
  8
OBJECT
 10
3923.0
 20
-470.99999999999937
 30
0.0
 11
3923.0
 21
-449.99999999999937
 31
0.0
1001
ACDBBLOCKREPETAG
1070
     1
1071
        0
1005
123091
  0
LINE
  5
123092
  8
OBJECT
 10
3923.0
 20
-449.99999999999937
 30
0.0
 11
4077.0
 21
-449.99999999999937
 31
0.0
1001
ACDBBLOCKREPETAG
1070
     1
1071
        1
1005
123092
  0
LINE
  5
123093
  8
HIDDEN
 10
3943.0
 20
-519.99999999999955
 30
0.0
 11
4057.0
 21
-519.99999999999955
 31
0.0
1001
ACDBBLOCKREPETAG
1070
     1
1071
        2
1005
123093
  0
LINE
  5
123094
  8
OBJECT
 10
4077.0
 20
-449.99999999999937
 30
0.0
 11
4077.0
 21
-470.99999999999937
 31
0.0
1001
ACDBBLOCKREPETAG
1070
     1
1071
        3
1005
123094
  0
LINE
  5
123095
  8
OBJECT
 10
4077.0
 20
-470.99999999999937
 30
0.0
 11
3923.0
 21
-470.99999999999937
 31
0.0
1001
ACDBBLOCKREPETAG
1070
     1
1071
        4
1005
123095
  0
LINE
  5
123096
  8
CENTER
 10
4000.0
 20
-434.99999999999949
 30
0.0
 11
4000.0
 21
-669.99999999999955
 31
0.0
1001
ACDBBLOCKREPETAG
1070
     1
1071
        5
1005
123096
  0
LINE
  5
123097
  8
OBJECT
 10
3925.0
 20
-533.99999999999955
 30
0.0
 11
3925.0
 21
-657.99999999999955
 31
0.0
1001
ACDBBLOCKREPETAG
1070
     1
1071
        6
1005
123097
  0
LINE
  5
123098
  8
OBJECT
 10
3928.0
 20
-470.99999999999937
 30
0.0
 11
3928.0
 21
-533.99999999999955
 31
0.0
1001
ACDBBLOCKREPETAG
1070
     1
1071
        7
1005
123098
  0
LINE
  5
123099
  8
OBJECT
 10
4072.0
 20
-533.99999999999955
 30
0.0
 11
4072.0
 21
-470.99999999999937
 31
0.0
1001
ACDBBLOCKREPETAG
1070
     1
1071
        8
1005
123099
  0
LINE
  5
12309A
  8
OBJECT
 10
3920.0
 20
-657.99999999999955
 30
0.0
 11
4080.0
 21
-657.99999999999955
 31
0.0
1001
ACDBBLOCKREPETAG
1070
     1
1071
        9
1005
12309A
  0
LINE
  5
12309B
  8
OBJECT
 10
4080.0
 20
-533.99999999999955
 30
0.0
 11
3925.0
 21
-533.99999999999955
 31
0.0
1001
ACDBBLOCKREPETAG
1070
     1
1071
       10
1005
12309B
  0
LINE
  5
12309C
  8
OBJECT
 10
3920.0
 20
-657.99999999999955
 30
0.0
 11
3920.0
 21
-669.99999999999955
 31
0.0
1001
ACDBBLOCKREPETAG
1070
     1
1071
       11
1005
12309C
  0
LINE
  5
12309D
  8
OBJECT
 10
3920.0
 20
-669.99999999999955
 30
0.0
 11
4080.0
 21
-669.99999999999955
 31
0.0
1001
ACDBBLOCKREPETAG
1070
     1
1071
       12
1005
12309D
  0
LINE
  5
12309E
  8
OBJECT
 10
4080.0
 20
-669.99999999999955
 30
0.0
 11
4080.0
 21
-657.99999999999955
 31
0.0
1001
ACDBBLOCKREPETAG
1070
     1
1071
       13
1005
12309E
  0
ARC
  5
12309F
  8
OBJECT
 10
4200.6872746716726
 20
-649.40809941010718
 30
0.0
 40
170.6350503965856
 50
137.44134459184301
 51
149.91949581337221
1001
ACDBBLOCKREPETAG
1070
     1
1071
       15
1005
12309F
  0
ARC
  5
1230A0
  8
OBJECT
 10
4118.8455987040506
 20
-605.88272669536445
 30
0.0
 40
78.072222021763665
 50
147.4551531037684
 51
164.6636599771798
1001
ACDBBLOCKREPETAG
1070
     1
1071
       16
1005
1230A0
  0
ARC
  5
1230A1
  8
OBJECT
 10
4085.7554349608722
 20
-595.99999999999955
 30
0.0
 40
43.55353926885617
 50
165.6884523008477
 51
194.3115476991523
1001
ACDBBLOCKREPETAG
1070
     1
1071
       17
1005
1230A1
  0
ARC
  5
1230A2
  8
OBJECT
 10
4200.6872746716726
 20
-542.59190058989179
 30
0.0
 40
170.6350503965856
 50
210.08050418662771
 51
222.55865540815699
1001
ACDBBLOCKREPETAG
1070
     1
1071
       18
1005
1230A2
  0
ARC
  5
1230A3
  8
OBJECT
 10
4118.8455987040506
 20
-586.11727330463452
 30
0.0
 40
78.072222021763665
 50
195.3363400228202
 51
212.5448468962316
1001
ACDBBLOCKREPETAG
1070
     1
1071
       19
1005
1230A3
  0
POINT
  5
1230A4
  8
DOTS
 10
4000.0
 20
-654.99999999999966
 30
0.0
1001
ACDBBLOCKREPETAG
1070
     1
1071
      186
1005
1230A4
  0
LINE
  5
1230A5
  8
OBJECT
 10
6083.0
 20
-534.0
 30
0.0
 11
6080.0
 21
-534.0
 31
0.0
1001
ACDBBLOCKREPETAG
1070
     1
1071
        1
1005
1230A5
  0
ARC
  5
1230A6
  8
OBJECT
 10
6083.0
 20
-537.0
 30
0.0
 40
3.0
 50
0.0
 51
90.0
1001
ACDBBLOCKREPETAG
1070
     1
1071
        2
1005
1230A6
  0
LINE
  5
1230A7
  8
OBJECT
 10
6080.0
 20
-658.0
 30
0.0
 11
6083.0
 21
-658.0
 31
0.0
1001
ACDBBLOCKREPETAG
1070
     1
1071
        3
1005
1230A7
  0
ARC
  5
1230A8
  8
OBJECT
 10
6083.0
 20
-655.0
 30
0.0
 40
3.0
 50
270.0
 51
0.0
1001
ACDBBLOCKREPETAG
1070
     1
1071
        4
1005
1230A8
  0
LINE
  5
1230A9
  8
OBJECT
 10
6086.0
 20
-655.0
 30
0.0
 11
6086.0
 21
-537.0
 31
0.0
1001
ACDBBLOCKREPETAG
1070
     1
1071
        5
1005
1230A9
  0
LINE
  5
1230AA
  8
OBJECT
 10
4083.0
 20
-534.0
 30
0.0
 11
4080.0
 21
-534.0
 31
0.0
1001
ACDBBLOCKREPETAG
1070
     1
1071
        1
1005
1230AA
  0
ARC
  5
1230AB
  8
OBJECT
 10
4083.0
 20
-537.0
 30
0.0
 40
3.0
 50
0.0
 51
90.0
1001
ACDBBLOCKREPETAG
1070
     1
1071
        2
1005
1230AB
  0
LINE
  5
1230AC
  8
OBJECT
 10
4080.0
 20
-658.0
 30
0.0
 11
4083.0
 21
-658.0
 31
0.0
1001
ACDBBLOCKREPETAG
1070
     1
1071
        3
1005
1230AC
  0
ARC
  5
1230AD
  8
OBJECT
 10
4083.0
 20
-655.0
 30
0.0
 40
3.0
 50
270.0
 51
0.0
1001
ACDBBLOCKREPETAG
1070
     1
1071
        4
1005
1230AD
  0
LINE
  5
1230AE
  8
OBJECT
 10
4086.0
 20
-655.0
 30
0.0
 11
4086.0
 21
-537.0
 31
0.0
1001
ACDBBLOCKREPETAG
1070
     1
1071
        5
1005
1230AE
  0
LINE
  5
1230AF
  8
OBJECT
 10
2083.0
 20
-534.0
 30
0.0
 11
2080.0
 21
-534.0
 31
0.0
1001
ACDBBLOCKREPETAG
1070
     1
1071
        1
1005
1230AF
  0
ARC
  5
1230B0
  8
OBJECT
 10
2083.0
 20
-537.0
 30
0.0
 40
3.0
 50
0.0
 51
90.0
1001
ACDBBLOCKREPETAG
1070
     1
1071
        2
1005
1230B0
  0
LINE
  5
1230B1
  8
OBJECT
 10
2080.0
 20
-658.0
 30
0.0
 11
2083.0
 21
-658.0
 31
0.0
1001
ACDBBLOCKREPETAG
1070
     1
1071
        3
1005
1230B1
  0
ARC
  5
1230B2
  8
OBJECT
 10
2083.0
 20
-655.0
 30
0.0
 40
3.0
 50
270.0
 51
0.0
1001
ACDBBLOCKREPETAG
1070
     1
1071
        4
1005
1230B2
  0
LINE
  5
1230B3
  8
OBJECT
 10
2086.0
 20
-655.0
 30
0.0
 11
2086.0
 21
-537.0
 31
0.0
1001
ACDBBLOCKREPETAG
1070
     1
1071
        5
1005
1230B3
  0
LINE
  5
1230B4
  8
CENTER
 10
2101.0
 20
-199.99999999999909
 30
0.0
 11
2080.0
 21
-199.99999999999909
 31
0.0
1001
ACDBBLOCKREPETAG
1070
     1
1071
        0
1005
1230B4
  0
LINE
  5
1230B5
  8
OBJECT
 10
2083.0
 20
-137.99999999999909
 30
0.0
 11
2080.0
 21
-137.99999999999909
 31
0.0
1001
ACDBBLOCKREPETAG
1070
     1
1071
        1
1005
1230B5
  0
ARC
  5
1230B6
  8
OBJECT
 10
2083.0
 20
-140.99999999999909
 30
0.0
 40
3.0
 50
0.0
 51
90.0
1001
ACDBBLOCKREPETAG
1070
     1
1071
        2
1005
1230B6
  0
LINE
  5
1230B7
  8
OBJECT
 10
2080.0
 20
-261.99999999999909
 30
0.0
 11
2083.0
 21
-261.99999999999909
 31
0.0
1001
ACDBBLOCKREPETAG
1070
     1
1071
        3
1005
1230B7
  0
ARC
  5
1230B8
  8
OBJECT
 10
2083.0
 20
-258.99999999999909
 30
0.0
 40
3.0
 50
270.0
 51
0.0
1001
ACDBBLOCKREPETAG
1070
     1
1071
        4
1005
1230B8
  0
LINE
  5
1230B9
  8
OBJECT
 10
2086.0
 20
-258.99999999999909
 30
0.0
 11
2086.0
 21
-140.99999999999909
 31
0.0
1001
ACDBBLOCKREPETAG
1070
     1
1071
        5
1005
1230B9
  0
TEXT
  5
1230BA
  8
SLIM
 10
0.0
 20
670.0
 30
0.0
 40
100.0
  1
4CL-0-S
 41
0.75
  0
TEXT
  5
1230BB
  8
SLIM
 10
0.0
 20
520.0
 30
0.0
 40
100.0
  1
4CL-0-W
 41
0.75
  0
LINE
  5
1230BC
  8
CENTER
 10
5909.0
 20
-1204.9999999999991
 30
0.0
 11
6105.0
 21
-1204.9999999999991
 31
0.0
1001
ACDBBLOCKREPETAG
1070
     1
1071
       10
1005
1230BC
  0
LINE
  5
1230BD
  8
CENTER
 10
6000.0
 20
-1113.7253355707819
 30
0.0
 11
6000.0
 21
-1296.274664429216
 31
0.0
1001
ACDBBLOCKREPETAG
1070
     1
1071
       11
1005
1230BD
  0
CIRCLE
  5
1230BE
  8
OBJECT
 10
6000.0
 20
-1204.9999999999991
 30
0.0
 40
50.0
1001
ACDBBLOCKREPETAG
1070
     1
1071
       12
1005
1230BE
  0
CIRCLE
  5
1230BF
  8
OBJECT
 10
6000.0
 20
-1204.9999999999991
 30
0.0
 40
60.0
1001
ACDBBLOCKREPETAG
1070
     1
1071
       13
1005
1230BF
  0
CIRCLE
  5
1230C0
  8
OBJECT
 10
6000.0
 20
-1204.9999999999991
 30
0.0
 40
68.0
1001
ACDBBLOCKREPETAG
1070
     1
1071
       14
1005
1230C0
  0
ARC
  5
1230C1
  8
OBJECT
 10
6077.5
 20
-1204.9999999999991
 30
0.0
 40
12.0
 50
272.10542627221611
 51
87.894573727783893
1001
ACDBBLOCKREPETAG
1070
     1
1071
       15
1005
1230C1
  0
ARC
  5
1230C2
  8
OBJECT
 10
6078.4919354838639
 20
-1178.0182271895269
 30
0.0
 40
15.0
 50
198.9705187796356
 51
267.89457372778372
1001
ACDBBLOCKREPETAG
1070
     1
1071
       16
1005
1230C2
  0
ARC
  5
1230C3
  8
OBJECT
 10
6078.4919354838639
 20
-1231.981772810467
 30
0.0
 40
15.0
 50
92.105426272216135
 51
161.02948122036429
1001
ACDBBLOCKREPETAG
1070
     1
1071
       17
1005
1230C3
  0
CIRCLE
  5
1230C4
  8
SLIM
 10
6078.0
 20
-1204.9999999999991
 30
0.0
 40
8.0
1001
ACDBBLOCKREPETAG
1070
     1
1071
       18
1005
1230C4
  0
POLYLINE
  5
1230C5
  8
SLIM
 66
     1
 10
0.0
 20
0.0
 30
0.0
 70
     1
1001
ACDBBLOCKREPETAG
1070
     1
1071
       19
1005
1230C5
  0
VERTEX
  5
123AA0
  8
SLIM
 10
6075.6905989232328
 20
-1200.9999999999991
 30
0.0
  0
VERTEX
  5
123AA1
  8
SLIM
 10
6073.3811978464801
 20
-1204.9999999999991
 30
0.0
  0
VERTEX
  5
123AA2
  8
SLIM
 10
6075.6905989232328
 20
-1208.9999999999991
 30
0.0
  0
VERTEX
  5
123AA3
  8
SLIM
 10
6080.3094010767527
 20
-1208.9999999999991
 30
0.0
  0
VERTEX
  5
123AA4
  8
SLIM
 10
6082.6188021535136
 20
-1204.9999999999991
 30
0.0
  0
VERTEX
  5
123AA5
  8
SLIM
 10
6080.3094010767527
 20
-1200.9999999999991
 30
0.0
  0
SEQEND
  5
123AA6
  8
SLIM
  0
ARC
  5
1230C6
  8
OBJECT
 10
5961.25
 20
-1137.883031206703
 30
0.0
 40
12.0
 50
32.105426272157878
 51
207.89457372770741
1001
ACDBBLOCKREPETAG
1070
     1
1071
       20
1005
1230C6
  0
ARC
  5
1230C7
  8
OBJECT
 10
5937.387131565054
 20
-1150.514876283992
 30
0.0
 40
15.0
 50
318.97051877944762
 51
27.894573727707481
1001
ACDBBLOCKREPETAG
1070
     1
1071
       21
1005
1230C7
  0
ARC
  5
1230C8
  8
OBJECT
 10
5984.1209329510702
 20
-1123.53310347352
 30
0.0
 40
15.0
 50
212.1054262721579
 51
281.02948122044069
1001
ACDBBLOCKREPETAG
1070
     1
1071
       22
1005
1230C8
  0
CIRCLE
  5
1230C9
  8
SLIM
 10
5961.0
 20
-1137.4500185048121
 30
0.0
 40
7.9999999999999982
1001
ACDBBLOCKREPETAG
1070
     1
1071
       23
1005
1230C9
  0
POLYLINE
  5
1230CA
  8
SLIM
 66
     1
 10
0.0
 20
0.0
 30
0.0
 70
     1
1001
ACDBBLOCKREPETAG
1070
     1
1071
       24
1005
1230CA
  0
VERTEX
  5
123AA7
  8
SLIM
 10
5958.69059892324
 20
-1141.4500185048121
 30
0.0
  0
VERTEX
  5
123AA8
  8
SLIM
 10
5963.3094010767518
 20
-1141.4500185048121
 30
0.0
  0
VERTEX
  5
123AA9
  8
SLIM
 10
5965.6188021535136
 20
-1137.4500185048121
 30
0.0
  0
VERTEX
  5
123AAA
  8
SLIM
 10
5963.3094010767518
 20
-1133.4500185048121
 30
0.0
  0
VERTEX
  5
123AAB
  8
SLIM
 10
5958.69059892324
 20
-1133.4500185048121
 30
0.0
  0
VERTEX
  5
123AAC
  8
SLIM
 10
5956.3811978464792
 20
-1137.4500185048121
 30
0.0
  0
SEQEND
  5
123AAD
  8
SLIM
  0
ARC
  5
1230CB
  8
OBJECT
 10
5961.25
 20
-1272.1169687932911
 30
0.0
 40
12.0
 50
152.1054262722925
 51
327.89457372784221
1001
ACDBBLOCKREPETAG
1070
     1
1071
       25
1005
1230CB
  0
ARC
  5
1230CC
  8
OBJECT
 10
5984.1209329510702
 20
-1286.4668965264741
 30
0.0
 40
15.0
 50
78.970518779559228
 51
147.8945737278421
1001
ACDBBLOCKREPETAG
1070
     1
1071
       26
1005
1230CC
  0
ARC
  5
1230CD
  8
OBJECT
 10
5937.387131565054
 20
-1259.485123716006
 30
0.0
 40
15.0
 50
332.1054262722925
 51
41.029481220552412
1001
ACDBBLOCKREPETAG
1070
     1
1071
       27
1005
1230CD
  0
CIRCLE
  5
1230CE
  8
SLIM
 10
5961.0
 20
-1272.5499814951861
 30
0.0
 40
8.0
1001
ACDBBLOCKREPETAG
1070
     1
1071
       28
1005
1230CE
  0
POLYLINE
  5
1230CF
  8
SLIM
 66
     1
 10
0.0
 20
0.0
 30
0.0
 70
     1
1001
ACDBBLOCKREPETAG
1070
     1
1071
       29
1005
1230CF
  0
VERTEX
  5
123AAE
  8
SLIM
 10
5965.6188021535136
 20
-1272.5499814951829
 30
0.0
  0
VERTEX
  5
123AAF
  8
SLIM
 10
5963.3094010767518
 20
-1268.5499814951861
 30
0.0
  0
VERTEX
  5
123AB0
  8
SLIM
 10
5958.69059892324
 20
-1268.5499814951829
 30
0.0
  0
VERTEX
  5
123AB1
  8
SLIM
 10
5956.3811978464792
 20
-1272.5499814951861
 30
0.0
  0
VERTEX
  5
123AB2
  8
SLIM
 10
5958.6905989232328
 20
-1276.5499814951829
 30
0.0
  0
VERTEX
  5
123AB3
  8
SLIM
 10
5963.3094010767518
 20
-1276.5499814951861
 30
0.0
  0
SEQEND
  5
123AB4
  8
SLIM
  0
ARC
  5
1230D0
  8
OBJECT
 10
6000.0
 20
-1204.9999999999991
 30
0.0
 40
76.0
 50
34.863837954142063
 51
85.136162045732945
1001
ACDBBLOCKREPETAG
1070
     1
1071
       42
1005
1230D0
  0
ARC
  5
1230D1
  8
OBJECT
 10
6000.0
 20
-1204.9999999999991
 30
0.0
 40
76.0
 50
154.86383795430939
 51
205.1361620456905
1001
ACDBBLOCKREPETAG
1070
     1
1071
       43
1005
1230D1
  0
ARC
  5
1230D2
  8
OBJECT
 10
6000.0
 20
-1204.9999999999991
 30
0.0
 40
76.0
 50
274.86383795426718
 51
325.13616204585799
1001
ACDBBLOCKREPETAG
1070
     1
1071
       44
1005
1230D2
  0
ARC
  5
1230D3
  8
OBJECT
 10
6078.0
 20
-1204.9999999999991
 30
0.0
 40
12.0
 50
325.13616204585799
 51
34.863837954142063
1001
ACDBBLOCKREPETAG
1070
     1
1071
       45
1005
1230D3
  0
LINE
  5
1230D4
  8
OBJECT
 10
6087.846153846167
 20
-1198.1404625201369
 30
0.0
 11
6062.3589743590501
 21
-1161.5562626275371
 31
0.0
1001
ACDBBLOCKREPETAG
1070
     1
1071
       46
1005
1230D4
  0
LINE
  5
1230D5
  8
OBJECT
 10
6087.8461538461697
 20
-1211.859537479859
 30
0.0
 11
6062.3589743590501
 21
-1248.443737372462
 31
0.0
1001
ACDBBLOCKREPETAG
1070
     1
1071
       47
1005
1230D5
  0
ARC
  5
1230D6
  8
OBJECT
 10
5961.0
 20
-1137.450018504813
 30
0.0
 40
12.0
 50
85.136162045942811
 51
154.86383795410001
1001
ACDBBLOCKREPETAG
1070
     1
1071
       48
1005
1230D6
  0
LINE
  5
1230D7
  8
OBJECT
 10
5950.1363893611451
 20
-1132.3527678843941
 30
0.0
 11
5931.1971326205849
 21
-1172.7174127373501
 31
0.0
1001
ACDBBLOCKREPETAG
1070
     1
1071
       49
1005
1230D7
  0
LINE
  5
1230D8
  8
OBJECT
 10
5962.0174567926842
 20
-1125.493230404529
 30
0.0
 11
6006.4438930203669
 21
-1129.273675364888
 31
0.0
1001
ACDBBLOCKREPETAG
1070
     1
1071
       50
1005
1230D8
  0
ARC
  5
1230D9
  8
OBJECT
 10
5961.0
 20
-1272.5499814951841
 30
0.0
 40
12.0
 50
205.13616204589991
 51
274.8638379540572
1001
ACDBBLOCKREPETAG
1070
     1
1071
       51
1005
1230D9
  0
LINE
  5
1230DA
  8
OBJECT
 10
5962.0174567926879
 20
-1284.5067695954669
 30
0.0
 11
6006.4438930203651
 21
-1280.726324635109
 31
0.0
1001
ACDBBLOCKREPETAG
1070
     1
1071
       52
1005
1230DA
  0
LINE
  5
1230DB
  8
OBJECT
 10
5950.1363893611451
 20
-1277.6472321156079
 30
0.0
 11
5931.1971326205821
 21
-1237.2825872626461
 31
0.0
1001
ACDBBLOCKREPETAG
1070
     1
1071
       53
1005
1230DB
  0
LINE
  5
1230DC
  8
CENTER
 10
3909.0
 20
-1163.9999999999959
 30
0.0
 11
4105.0
 21
-1163.9999999999959
 31
0.0
1001
ACDBBLOCKREPETAG
1070
     1
1071
        0
1005
1230DC
  0
LINE
  5
1230DD
  8
CENTER
 10
4000.0
 20
-1072.725335570779
 30
0.0
 11
4000.0
 21
-1255.274664429212
 31
0.0
1001
ACDBBLOCKREPETAG
1070
     1
1071
        1
1005
1230DD
  0
CIRCLE
  5
1230DE
  8
OBJECT
 10
4000.0
 20
-1163.9999999999959
 30
0.0
 40
50.0
1001
ACDBBLOCKREPETAG
1070
     1
1071
        2
1005
1230DE
  0
CIRCLE
  5
1230DF
  8
OBJECT
 10
4000.0
 20
-1163.9999999999959
 30
0.0
 40
62.0
1001
ACDBBLOCKREPETAG
1070
     1
1071
        3
1005
1230DF
  0
CIRCLE
  5
1230E0
  8
SLIM
 10
4078.0
 20
-1163.9999999999959
 30
0.0
 40
5.0
1001
ACDBBLOCKREPETAG
1070
     1
1071
        4
1005
1230E0
  0
POLYLINE
  5
1230E1
  8
SLIM
 66
     1
 10
0.0
 20
0.0
 30
0.0
 70
     1
1001
ACDBBLOCKREPETAG
1070
     1
1071
        5
1005
1230E1
  0
VERTEX
  5
123AB5
  8
SLIM
 10
4073.092522711886
 20
-1155.4999999999959
 30
0.0
  0
VERTEX
  5
123AB6
  8
SLIM
 10
4068.185045423772
 20
-1163.9999999999959
 30
0.0
  0
VERTEX
  5
123AB7
  8
SLIM
 10
4073.092522711886
 20
-1172.4999999999959
 30
0.0
  0
VERTEX
  5
123AB8
  8
SLIM
 10
4082.9074772881072
 20
-1172.4999999999959
 30
0.0
  0
VERTEX
  5
123AB9
  8
SLIM
 10
4087.8149545762199
 20
-1163.9999999999959
 30
0.0
  0
VERTEX
  5
123ABA
  8
SLIM
 10
4082.9074772881072
 20
-1155.4999999999959
 30
0.0
  0
SEQEND
  5
123ABB
  8
SLIM
  0
CIRCLE
  5
1230E2
  8
SLIM
 10
3961.0
 20
-1096.450018504808
 30
0.0
 40
4.9999999999999991
1001
ACDBBLOCKREPETAG
1070
     1
1071
        6
1005
1230E2
  0
POLYLINE
  5
1230E3
  8
SLIM
 66
     1
 10
0.0
 20
0.0
 30
0.0
 70
     1
1001
ACDBBLOCKREPETAG
1070
     1
1071
        7
1005
1230E3
  0
VERTEX
  5
123ABC
  8
SLIM
 10
3956.092522711886
 20
-1104.950018504808
 30
0.0
  0
VERTEX
  5
123ABD
  8
SLIM
 10
3965.907477288114
 20
-1104.950018504808
 30
0.0
  0
VERTEX
  5
123ABE
  8
SLIM
 10
3970.8149545762212
 20
-1096.450018504808
 30
0.0
  0
VERTEX
  5
123ABF
  8
SLIM
 10
3965.907477288114
 20
-1087.950018504808
 30
0.0
  0
VERTEX
  5
123AC0
  8
SLIM
 10
3956.092522711886
 20
-1087.950018504808
 30
0.0
  0
VERTEX
  5
123AC1
  8
SLIM
 10
3951.185045423772
 20
-1096.450018504808
 30
0.0
  0
SEQEND
  5
123AC2
  8
SLIM
  0
CIRCLE
  5
1230E4
  8
SLIM
 10
3961.0
 20
-1231.5499814951829
 30
0.0
 40
5.0
1001
ACDBBLOCKREPETAG
1070
     1
1071
        8
1005
1230E4
  0
POLYLINE
  5
1230E5
  8
SLIM
 66
     1
 10
0.0
 20
0.0
 30
0.0
 70
     1
1001
ACDBBLOCKREPETAG
1070
     1
1071
        9
1005
1230E5
  0
VERTEX
  5
123AC3
  8
SLIM
 10
3970.8149545762212
 20
-1231.5499814951829
 30
0.0
  0
VERTEX
  5
123AC4
  8
SLIM
 10
3965.9074772881072
 20
-1223.0499814951791
 30
0.0
  0
VERTEX
  5
123AC5
  8
SLIM
 10
3956.092522711886
 20
-1223.049981495182
 30
0.0
  0
VERTEX
  5
123AC6
  8
SLIM
 10
3951.185045423772
 20
-1231.5499814951791
 30
0.0
  0
VERTEX
  5
123AC7
  8
SLIM
 10
3956.092522711886
 20
-1240.0499814951829
 30
0.0
  0
VERTEX
  5
123AC8
  8
SLIM
 10
3965.907477288114
 20
-1240.0499814951791
 30
0.0
  0
SEQEND
  5
123AC9
  8
SLIM
  0
ARC
  5
1230E6
  8
OBJECT
 10
4000.0
 20
-1163.9999999999959
 30
0.0
 40
76.0
 50
34.863837954142063
 51
85.136162045732945
1001
ACDBBLOCKREPETAG
1070
     1
1071
       30
1005
1230E6
  0
ARC
  5
1230E7
  8
OBJECT
 10
4000.0
 20
-1163.9999999999959
 30
0.0
 40
76.0
 50
154.86383795430939
 51
205.1361620456905
1001
ACDBBLOCKREPETAG
1070
     1
1071
       31
1005
1230E7
  0
ARC
  5
1230E8
  8
OBJECT
 10
4000.0
 20
-1163.9999999999959
 30
0.0
 40
76.0
 50
274.86383795426718
 51
325.13616204585799
1001
ACDBBLOCKREPETAG
1070
     1
1071
       32
1005
1230E8
  0
ARC
  5
1230E9
  8
OBJECT
 10
4078.0
 20
-1163.9999999999959
 30
0.0
 40
12.0
 50
325.13616204585799
 51
34.863837954142063
1001
ACDBBLOCKREPETAG
1070
     1
1071
       33
1005
1230E9
  0
LINE
  5
1230EA
  8
OBJECT
 10
4087.846153846167
 20
-1157.140462520133
 30
0.0
 11
4062.3589743590492
 21
-1120.5562626275339
 31
0.0
1001
ACDBBLOCKREPETAG
1070
     1
1071
       34
1005
1230EA
  0
LINE
  5
1230EB
  8
OBJECT
 10
4087.8461538461711
 20
-1170.859537479856
 30
0.0
 11
4062.3589743590492
 21
-1207.4437373724591
 31
0.0
1001
ACDBBLOCKREPETAG
1070
     1
1071
       35
1005
1230EB
  0
ARC
  5
1230EC
  8
OBJECT
 10
3961.0
 20
-1096.45001850481
 30
0.0
 40
12.0
 50
85.136162045942811
 51
154.86383795411109
1001
ACDBBLOCKREPETAG
1070
     1
1071
       36
1005
1230EC
  0
LINE
  5
1230ED
  8
OBJECT
 10
3950.136389361146
 20
-1091.3527678843909
 30
0.0
 11
3931.1971326205862
 21
-1131.7174127373471
 31
0.0
1001
ACDBBLOCKREPETAG
1070
     1
1071
       37
1005
1230ED
  0
LINE
  5
1230EE
  8
OBJECT
 10
3962.0174567926852
 20
-1084.493230404526
 30
0.0
 11
4006.4438930203678
 21
-1088.2736753648851
 31
0.0
1001
ACDBBLOCKREPETAG
1070
     1
1071
       38
1005
1230EE
  0
ARC
  5
1230EF
  8
OBJECT
 10
3961.0
 20
-1231.5499814951811
 30
0.0
 40
12.0
 50
205.13616204588891
 51
274.8638379540572
1001
ACDBBLOCKREPETAG
1070
     1
1071
       39
1005
1230EF
  0
LINE
  5
1230F0
  8
OBJECT
 10
3962.0174567926879
 20
-1243.506769595464
 30
0.0
 11
4006.4438930203651
 21
-1239.726324635106
 31
0.0
1001
ACDBBLOCKREPETAG
1070
     1
1071
       40
1005
1230F0
  0
LINE
  5
1230F1
  8
OBJECT
 10
3950.136389361146
 20
-1236.647232115605
 30
0.0
 11
3931.1971326205821
 21
-1196.2825872626429
 31
0.0
1001
ACDBBLOCKREPETAG
1070
     1
1071
       41
1005
1230F1
  0
TEXT
  5
1230F2
  8
SLIM
 10
3853.75
 20
-1431.4999999999959
 30
0.0
 40
35.0
  1
両受けスタイル（W）
 41
0.75
  0
TEXT
  5
1230F3
  8
SLIM
 10
5858.1250000000009
 20
-1472.4999999999991
 30
0.0
 40
35.0
  1
カンペイ君（WKP）
 41
0.75
  0
TEXT
  5
1230F4
  8
SLIM
 10
1856.25
 20
-1187.499999999998
 30
0.0
 40
35.0
  1
片受けスタイル（S）
 41
0.75
  0
TEXT
  5
1230F5
  8
SLIM
 10
0.0
 20
370.0
 30
0.0
 40
100.0
  1
4CL-0-WKP
 41
0.75
  0
VIEWPORT
  5
F6BA7
 67
     1
  8
0
 10
145.33033752441401
 20
101.8328354358673
 30
0.0
 40
334.0025019414623
 41
222.19657968139651
 68
     1
 69
     1
1001
ACAD
1000
MVIEW
1002
{
1070
    16
1010
0.0
1020
0.0
1030
0.0
1010
0.0
1020
0.0
1030
1.0
1040
0.0
1040
222.19657968139651
1040
145.33033752441401
1040
101.8328354358673
1040
50.0
1040
0.0
1040
0.0
1070
     0
1070
     0
1070
     1
1070
     1
1070
     0
1070
     0
1070
     0
1070
     0
1040
0.0
1040
0.0
1040
0.0
1040
10.0
1040
10.0
1040
10.0
1040
10.0
1070
     0
1002
{
1002
}
1002
}
  0
VIEWPORT
  5
F6BA9
 67
     1
  8
OBJECT
 10
145.3303314447403
 20
101.8328338861465
 30
0.0
 40
232.5285303115844
 41
162.93253421783439
 68
     2
 69
     2
1001
ACAD
1000
MVIEW
1002
{
1070
    16
1010
0.0
1020
0.0
1030
0.0
1010
0.0
1020
0.0
1030
1.0
1040
0.0
1040
25942.55904403147
1040
2377.604457077377
1040
-7591.5176687056619
1040
50.0
1040
0.0
1040
0.0
1070
     0
1070
   600
1070
     1
1070
     1
1070
     0
1070
     0
1070
     0
1070
     0
1040
0.0
1040
0.0
1040
0.0
1040
1.0
1040
1.0
1040
0.0
1040
0.0
1070
     0
1002
{
1002
}
1002
}
  0
ENDSEC
  0
EOF
