  0
SECTION
  2
HEADER
  9
$ACADVER
  1
AC1009
  9
$INSBASE
 10
0.0
 20
0.0
 30
0.0
  9
$EXTMIN
 10
0.0
 20
-3637.4999999999968
 30
0.0
  9
$EXTMAX
 10
6399.7000000000007
 20
770.0
 30
0.0
  9
$LIMMIN
 10
0.0
 20
0.0
  9
$LIMMAX
 10
210.0
 20
297.0
  9
$ORTHOMODE
 70
     0
  9
$REGENMODE
 70
     1
  9
$FILLMODE
 70
     1
  9
$QTEXTMODE
 70
     0
  9
$MIRRTEXT
 70
     0
  9
$DRAGMODE
 70
     2
  9
$LTSCALE
 40
1.0
  9
$OSMODE
 70
  2429
  9
$ATTMODE
 70
     1
  9
$TEXTSIZE
 40
4.0
  9
$TRACEWID
 40
0.05
  9
$TEXTSTYLE
  7
STANDARD
  9
$CLAYER
  8
OBJECT
  9
$CELTYPE
  6
BYLAYER
  9
$CECOLOR
 62
   256
  9
$DIMSCALE
 40
10.0
  9
$DIMASZ
 40
2.0
  9
$DIMEXO
 40
1.0
  9
$DIMDLI
 40
10.0
  9
$DIMRND
 40
0.0
  9
$DIMDLE
 40
0.0
  9
$DIMEXE
 40
1.0
  9
$DIMTP
 40
0.0
  9
$DIMTM
 40
0.0
  9
$DIMTXT
 40
3.2000000000000002
  9
$DIMCEN
 40
0.0
  9
$DIMTSZ
 40
0.0
  9
$DIMTOL
 70
     0
  9
$DIMLIM
 70
     0
  9
$DIMTIH
 70
     0
  9
$DIMTOH
 70
     0
  9
$DIMSE1
 70
     0
  9
$DIMSE2
 70
     0
  9
$DIMTAD
 70
     1
  9
$DIMZIN
 70
     8
  9
$DIMBLK
  1
OPEN30
  9
$DIMASO
 70
     1
  9
$DIMSHO
 70
     1
  9
$DIMPOST
  1

  9
$DIMAPOST
  1

  9
$DIMALT
 70
     0
  9
$DIMALTD
 70
     2
  9
$DIMALTF
 40
25.399999999999999
  9
$DIMLFAC
 40
1.0
  9
$DIMTOFL
 70
     1
  9
$DIMTVP
 40
0.0
  9
$DIMTIX
 70
     0
  9
$DIMSOXD
 70
     0
  9
$DIMSAH
 70
     0
  9
$DIMBLK1
  1

  9
$DIMBLK2
  1

  9
$DIMSTYLE
  2
S10
  9
$DIMCLRD
 70
   256
  9
$DIMCLRE
 70
   256
  9
$DIMCLRT
 70
   256
  9
$DIMTFAC
 40
1.0
  9
$DIMGAP
 40
0.9
  9
$LUNITS
 70
     2
  9
$LUPREC
 70
     2
  9
$SKETCHINC
 40
0.1
  9
$FILLETRAD
 40
0.0
  9
$AUNITS
 70
     0
  9
$AUPREC
 70
     2
  9
$MENU
  1
ACAD
  9
$ELEVATION
 40
0.0
  9
$PELEVATION
 40
0.0
  9
$THICKNESS
 40
0.0
  9
$LIMCHECK
 70
     0
  9
$BLIPMODE
 70
     0
  9
$CHAMFERA
 40
2.0
  9
$CHAMFERB
 40
2.0
  9
$SKPOLY
 70
     0
  9
$TDCREATE
 40
2453095.4929404748
  9
$TDUPDATE
 40
2457233.651625949
  9
$TDINDWG
 40
18.339792662000001
  9
$TDUSRTIMER
 40
18.3397920255
  9
$USRTIMER
 70
     1
  9
$ANGBASE
 50
0.0
  9
$ANGDIR
 70
     0
  9
$PDMODE
 70
    35
  9
$PDSIZE
 40
2.0
  9
$PLINEWID
 40
0.0
  9
$COORDS
 70
     0
  9
$SPLFRAME
 70
     0
  9
$SPLINETYPE
 70
     6
  9
$SPLINESEGS
 70
     8
  9
$ATTDIA
 70
     0
  9
$ATTREQ
 70
     1
  9
$HANDLING
 70
     1
  9
$HANDSEED
  5
130A44
  9
$SURFTAB1
 70
     6
  9
$SURFTAB2
 70
     6
  9
$SURFTYPE
 70
     6
  9
$SURFU
 70
     6
  9
$SURFV
 70
     6
  9
$UCSNAME
  2

  9
$UCSORG
 10
0.0
 20
0.0
 30
0.0
  9
$UCSXDIR
 10
1.0
 20
0.0
 30
0.0
  9
$UCSYDIR
 10
0.0
 20
1.0
 30
0.0
  9
$PUCSNAME
  2

  9
$PUCSORG
 10
0.0
 20
0.0
 30
0.0
  9
$PUCSXDIR
 10
1.0
 20
0.0
 30
0.0
  9
$PUCSYDIR
 10
0.0
 20
1.0
 30
0.0
  9
$USERI1
 70
     0
  9
$USERI2
 70
     0
  9
$USERI3
 70
     0
  9
$USERI4
 70
     0
  9
$USERI5
 70
     0
  9
$USERR1
 40
0.0
  9
$USERR2
 40
0.0
  9
$USERR3
 40
0.0
  9
$USERR4
 40
0.0
  9
$USERR5
 40
0.0
  9
$WORLDVIEW
 70
     1
  9
$SHADEDGE
 70
     3
  9
$SHADEDIF
 70
    70
  9
$TILEMODE
 70
     1
  9
$MAXACTVP
 70
    64
  9
$PLIMCHECK
 70
     0
  9
$PEXTMIN
 10
29.066066288948051
 20
20.366566777229309
 30
0.0
  9
$PEXTMAX
 10
261.5945966005325
 20
183.29910099506381
 30
0.0
  9
$PLIMMIN
 10
-3.17498779296875
 20
-3.1749999523162842
  9
$PLIMMAX
 10
293.83566284179687
 20
206.8406708240509
  9
$UNITMODE
 70
     0
  9
$VISRETAIN
 70
     1
  9
$PLINEGEN
 70
     0
  9
$PSLTSCALE
 70
     1
  0
ENDSEC
  0
SECTION
  2
TABLES
  0
TABLE
  2
VPORT
 70
     1
  0
VPORT
  2
*ACTIVE
 70
     0
 10
0.0
 20
0.0
 11
1.0
 21
1.0
 12
4050.9682097243508
 22
-708.93058755188486
 13
0.0
 23
0.0
 14
1.0
 24
1.0
 15
0.0
 25
0.0
 16
0.0
 26
0.0
 36
1.0
 17
0.0
 27
0.0
 37
0.0
 40
10060.2448879107
 41
1.6494178525226391
 42
50.0
 43
0.0
 44
0.0
 50
0.0
 51
0.0
 71
     0
 72
   600
 73
     1
 74
     1
 75
     0
 76
     0
 77
     0
 78
     0
  0
ENDTAB
  0
TABLE
  2
LTYPE
 70
     4
  0
LTYPE
  2
CONTINUOUS
 70
     0
  3
Solid line
 72
    65
 73
     0
 40
0.0
  0
LTYPE
  2
PHANTOM2
 70
     0
  3
___ _ _ ___ _ _ ___ _ _ ___ _ _
 72
    65
 73
     6
 40
1.25
 49
0.625
 49
-0.125
 49
0.125
 49
-0.125
 49
0.125
 49
-0.125
  0
LTYPE
  2
ACAD_ISO08W100
 70
     0
  3
ISO long-dash short-dash ____ __ ____ __ ____ _
 72
    65
 73
     4
 40
36.0
 49
24.0
 49
-3.0
 49
6.0
 49
-3.0
  0
LTYPE
  2
ACAD_ISO02W100
 70
     0
  3
ISO dash __ __ __ __ __ __ __ __ __ __ __ __ __
 72
    65
 73
     2
 40
15.0
 49
12.0
 49
-3.0
  0
ENDTAB
  0
TABLE
  2
LAYER
 70
     8
  0
LAYER
  2
0
 70
     0
 62
     7
  6
CONTINUOUS
  0
LAYER
  2
OBJECT
 70
     0
 62
     4
  6
CONTINUOUS
  0
LAYER
  2
DEFPOINTS
 70
     0
 62
     7
  6
CONTINUOUS
  0
LAYER
  2
DIM
 70
     0
 62
     7
  6
CONTINUOUS
  0
LAYER
  2
HIDDEN
 70
     0
 62
     2
  6
ACAD_ISO02W100
  0
LAYER
  2
CENTER
 70
     0
 62
     2
  6
ACAD_ISO08W100
  0
LAYER
  2
DOTS
 70
     0
 62
     1
  6
CONTINUOUS
  0
LAYER
  2
SLIM
 70
     0
 62
     2
  6
CONTINUOUS
  0
ENDTAB
  0
TABLE
  2
STYLE
 70
     2
  0
STYLE
  2
STANDARD
 70
     0
 40
0.0
 41
0.75
 50
0.0
 71
     0
 42
4.0
  3
simplex.shx
  4
bigfont.shx
  0
ENDTAB
  0
TABLE
  2
VIEW
 70
     0
  0
ENDTAB
  0
TABLE
  2
UCS
 70
     0
  0
ENDTAB
  0
TABLE
  2
APPID
 70
    18
  0
APPID
  2
ACAD
 70
     0
  0
APPID
  2
ACADANNOTATIVE
 70
     0
  0
APPID
  2
ACAD_PSEXT
 70
     0
  0
APPID
  2
ACAD_EXEMPT_FROM_CAD_STANDARDS
 70
     0
  0
APPID
  2
ACAECLAYERSTANDARD
 70
     0
  0
APPID
  2
ACAUTHENVIRON
 70
     0
  0
APPID
  2
ACDBDYNAMICBLOCKTRUENAME
 70
     0
  0
APPID
  2
ACDBDYNAMICBLOCKGUID
 70
     0
  0
APPID
  2
ACDBBLOCKREPETAG
 70
     0
  0
APPID
  2
ACDBBLOCKREPBTAG
 70
     0
  0
APPID
  2
ACAD_NAV_VCDISPLAY
 70
     0
  0
APPID
  2
ACAD_DSTYLE_DIMRADIAL_EXTENSION
 70
     0
  0
APPID
  2
ACAD_DSTYLE_DIMJAG
 70
     0
  0
APPID
  2
ACAD_DSTYLE_DIMTALN
 70
     0
  0
APPID
  2
ACADANNOPO
 70
     0
  0
APPID
  2
GRADIENTCOLOR1ACI
 70
     0
  0
APPID
  2
GRADIENTCOLOR2ACI
 70
     0
  0
APPID
  2
ACAD_MLEADERVER
 70
     0
  0
ENDTAB
  0
TABLE
  2
DIMSTYLE
 70
     3
  0
DIMSTYLE
  2
STANDARD
 70
     0
  3

  4

  5

  6

  7

 40
1.0
 41
0.18
 42
0.0625
 43
0.38
 44
0.18
 45
0.0
 46
0.0
 47
0.0
 48
0.0
140
0.18
141
0.09
142
0.0
143
25.399999999999999
144
1.0
145
0.0
146
1.0
147
0.09
 71
     0
 72
     0
 73
     1
 74
     1
 75
     0
 76
     0
 77
     0
 78
     0
170
     0
171
     2
172
     0
173
     0
174
     0
175
     0
176
     0
177
     0
178
     0
  0
DIMSTYLE
  2
S10
 70
     0
  3

  4

  5

  6

  7

 40
10.0
 41
2.0
 42
1.0
 43
10.0
 44
1.0
 45
0.0
 46
0.0
 47
0.0
 48
0.0
140
3.2000000000000002
141
0.0
142
0.0
143
25.399999999999999
144
1.0
145
0.0
146
1.0
147
0.9
 71
     0
 72
     0
 73
     0
 74
     0
 75
     0
 76
     0
 77
     1
 78
     8
170
     0
171
     2
172
     1
173
     0
174
     0
175
     0
176
   256
177
   256
178
   256
  0
ENDTAB
  0
ENDSEC
  0
SECTION
  2
BLOCKS
  0
BLOCK
  8
0
  2
$MODEL_SPACE
 70
     0
 10
0.0
 20
0.0
 30
0.0
  3
$MODEL_SPACE
  1

  0
ENDBLK
  5
130911
  8
0
  0
BLOCK
 67
     1
  8
0
  2
$PAPER_SPACE
 70
     0
 10
0.0
 20
0.0
 30
0.0
  3
$PAPER_SPACE
  1

  0
ENDBLK
  5
13090D
 67
     1
  8
0
  0
BLOCK
  8
0
  2
_OPEN30
 70
     0
 10
0.0
 20
0.0
 30
0.0
  3
_OPEN30
  1

  0
LINE
  5
202
  8
0
  6
BYBLOCK
 62
     0
 10
-1.0
 20
0.26794919
 30
0.0
 11
0.0
 21
0.0
 31
0.0
  0
LINE
  5
203
  8
0
  6
BYBLOCK
 62
     0
 10
0.0
 20
0.0
 30
0.0
 11
-1.0
 21
-0.26794919
 31
0.0
  0
LINE
  5
204
  8
0
  6
BYBLOCK
 62
     0
 10
0.0
 20
0.0
 30
0.0
 11
-1.0
 21
0.0
 31
0.0
  0
ENDBLK
  5
206
  8
0
  0
BLOCK
  8
0
  2
*U20
 70
     1
 10
0.0
 20
0.0
 30
0.0
  3
*U20
  1

  0
TEXT
  5
13081B
  8
SLIM
 10
505.04761904610911
 20
-2187.2499999970728
 30
0.0
 40
26.0
  1
100
  0
ENDBLK
  5
13081D
  8
0
  0
BLOCK
  8
0
  2
*U21
 70
     1
 10
0.0
 20
0.0
 30
0.0
  3
*U21
  1

  0
TEXT
  5
13081F
  8
SLIM
 10
505.04761904610911
 20
-1942.749999997073
 30
0.0
 40
26.0
  1
100
  0
ENDBLK
  5
130821
  8
0
  0
BLOCK
  8
0
  2
*U22
 70
     1
 10
0.0
 20
0.0
 30
0.0
  3
*U22
  1

  0
TEXT
  5
130823
  8
SLIM
 10
145.04761904623109
 20
-2187.2499999970728
 30
0.0
 40
26.0
  1
100
  0
ENDBLK
  5
130825
  8
0
  0
BLOCK
  8
0
  2
*U23
 70
     1
 10
0.0
 20
0.0
 30
0.0
  3
*U23
  1

  0
TEXT
  5
130827
  8
SLIM
 10
154.9523809509931
 20
-1949.999999997073
 30
0.0
 40
26.0
  1
75
  0
ENDBLK
  5
130829
  8
0
  0
BLOCK
  8
0
  2
*U24
 70
     1
 10
0.0
 20
0.0
 30
0.0
  3
*U24
  1

  0
TEXT
  5
13082B
  8
SLIM
 10
514.95238095087109
 20
-1715.999999997231
 30
0.0
 40
26.0
  1
75
  0
ENDBLK
  5
13082D
  8
0
  0
BLOCK
  8
0
  2
*U25
 70
     1
 10
0.0
 20
0.0
 30
0.0
  3
*U25
  1

  0
TEXT
  5
13082F
  8
SLIM
 10
514.95238095087109
 20
-1485.999999997231
 30
0.0
 40
26.0
  1
75
  0
ENDBLK
  5
130831
  8
0
  0
BLOCK
  8
0
  2
*U26
 70
     1
 10
0.0
 20
0.0
 30
0.0
  3
*U26
  1

  0
TEXT
  5
130833
  8
SLIM
 10
145.04761904623109
 20
-1723.249999997231
 30
0.0
 40
26.0
  1
100
  0
ENDBLK
  5
130835
  8
0
  0
BLOCK
  8
0
  2
*U27
 70
     1
 10
0.0
 20
0.0
 30
0.0
  3
*U27
  1

  0
TEXT
  5
130837
  8
SLIM
 10
154.9523809509931
 20
-1485.999999997231
 30
0.0
 40
26.0
  1
65
  0
ENDBLK
  5
130839
  8
0
  0
BLOCK
  8
0
  2
*U28
 70
     1
 10
0.0
 20
0.0
 30
0.0
  3
*U28
  1

  0
TEXT
  5
13083B
  8
SLIM
 10
514.95238095087109
 20
-1251.99999999739
 30
0.0
 40
26.0
  1
75
  0
ENDBLK
  5
13083D
  8
0
  0
BLOCK
  8
0
  2
*U29
 70
     1
 10
0.0
 20
0.0
 30
0.0
  3
*U29
  1

  0
TEXT
  5
13083F
  8
SLIM
 10
514.95238095087109
 20
-1021.999999997389
 30
0.0
 40
26.0
  1
65
  0
ENDBLK
  5
130841
  8
0
  0
BLOCK
  8
0
  2
*U30
 70
     1
 10
0.0
 20
0.0
 30
0.0
  3
*U30
  1

  0
TEXT
  5
130843
  8
SLIM
 10
154.9523809509929
 20
-1251.99999999739
 30
0.0
 40
26.0
  1
65
  0
ENDBLK
  5
130845
  8
0
  0
BLOCK
  8
0
  2
*U31
 70
     1
 10
0.0
 20
0.0
 30
0.0
  3
*U31
  1

  0
TEXT
  5
130847
  8
SLIM
 10
154.9523809509929
 20
-1021.999999997389
 30
0.0
 40
26.0
  1
65
  0
ENDBLK
  5
130849
  8
0
  0
BLOCK
  8
0
  2
*U32
 70
     1
 10
0.0
 20
0.0
 30
0.0
  3
*U32
  1

  0
TEXT
  5
13084B
  8
SLIM
 10
505.04761904610911
 20
-795.24999999754812
 30
0.0
 40
26.0
  1
100
  0
ENDBLK
  5
13084D
  8
0
  0
BLOCK
  8
0
  2
*U33
 70
     1
 10
0.0
 20
0.0
 30
0.0
  3
*U33
  1

  0
TEXT
  5
13084F
  8
SLIM
 10
514.95238095087109
 20
-557.999999997548
 30
0.0
 40
26.0
  1
50
  0
ENDBLK
  5
130851
  8
0
  0
BLOCK
  8
0
  2
*U34
 70
     1
 10
0.0
 20
0.0
 30
0.0
  3
*U34
  1

  0
TEXT
  5
130853
  8
SLIM
 10
154.95238095099299
 20
-787.99999999754812
 30
0.0
 40
26.0
  1
75
  0
ENDBLK
  5
130855
  8
0
  0
BLOCK
  8
0
  2
*U35
 70
     1
 10
0.0
 20
0.0
 30
0.0
  3
*U35
  1

  0
TEXT
  5
130857
  8
SLIM
 10
154.95238095099299
 20
-557.999999997548
 30
0.0
 40
26.0
  1
50
  0
ENDBLK
  5
130859
  8
0
  0
BLOCK
  8
0
  2
*U36
 70
     1
 10
0.0
 20
0.0
 30
0.0
  3
*U36
  1

  0
TEXT
  5
13085B
  8
SLIM
 10
514.95238095087109
 20
-323.99999999770631
 30
0.0
 40
26.0
  1
65
  0
ENDBLK
  5
13085D
  8
0
  0
BLOCK
  8
0
  2
*U37
 70
     1
 10
0.0
 20
0.0
 30
0.0
  3
*U37
  1

  0
TEXT
  5
13085F
  8
SLIM
 10
514.95238095087109
 20
-93.99999999770624
 30
0.0
 40
26.0
  1
50
  0
ENDBLK
  5
130861
  8
0
  0
BLOCK
  8
0
  2
*U38
 70
     1
 10
0.0
 20
0.0
 30
0.0
  3
*U38
  1

  0
TEXT
  5
130863
  8
SLIM
 10
154.9523809509931
 20
-323.99999999770631
 30
0.0
 40
26.0
  1
50
  0
ENDBLK
  5
130865
  8
0
  0
BLOCK
  8
0
  2
*U39
 70
     1
 10
0.0
 20
0.0
 30
0.0
  3
*U39
  1

  0
TEXT
  5
130867
  8
SLIM
 10
154.9523809509931
 20
-93.99999999770624
 30
0.0
 40
26.0
  1
50
  0
ENDBLK
  5
130869
  8
0
  0
BLOCK
  8
0
  2
*U40
 70
     1
 10
0.0
 20
0.0
 30
0.0
  3
*U40
  1

  0
TEXT
  5
13086B
  8
DIM
 10
2209.479620594459
 20
-3124.1428571428528
 30
0.0
 40
32.0
  1
A
 50
90.0
 41
0.75
  0
ENDBLK
  5
13086D
  8
0
  0
BLOCK
  8
0
  2
*U41
 70
     1
 10
0.0
 20
0.0
 30
0.0
  3
*U41
  1

  0
TEXT
  5
13086F
  8
DIM
 10
2207.8409284037348
 20
-3505.9999999999968
 30
0.0
 40
32.0
  1
B
 50
90.0
 41
0.75
  0
ENDBLK
  5
130871
  8
0
  0
BLOCK
  8
0
  2
*U42
 70
     1
 10
0.0
 20
0.0
 30
0.0
  3
*U42
  1

  0
TEXT
  5
130873
  8
DIM
 10
2061.428571428572
 20
-2978.208121984444
 30
0.0
 40
32.0
  1
C
 41
0.75
  0
ENDBLK
  5
130875
  8
0
  0
ENDSEC
  0
SECTION
  2
ENTITIES
  0
LINE
  5
127012
  8
OBJECT
 10
1825.0
 20
-3519.9999999999959
 30
0.0
 11
5575.0
 21
-3519.9999999999959
 31
0.0
  0
LINE
  5
127014
  8
SLIM
 10
2616.0
 20
-2577.50001604727
 30
0.0
 11
2616.0
 21
-2907.50001604727
 31
0.0
  0
LINE
  5
127015
  8
SLIM
 10
2740.0
 20
-2577.50001604727
 30
0.0
 11
2740.0
 21
-2907.50001604727
 31
0.0
  0
LINE
  5
127016
  8
SLIM
 10
2870.0
 20
-2637.50001604727
 30
0.0
 11
2870.0
 21
-2907.50001604727
 31
0.0
  0
LINE
  5
127017
  8
SLIM
 10
3000.0
 20
-2637.50001604727
 30
0.0
 11
3000.0
 21
-2907.50001604727
 31
0.0
  0
LINE
  5
127018
  8
SLIM
 10
3130.0
 20
-2907.50001604727
 30
0.0
 11
3130.0
 21
-2637.50001604727
 31
0.0
  0
LINE
  5
127019
  8
SLIM
 10
3260.0
 20
-2907.50001604727
 30
0.0
 11
3260.0
 21
-2577.50001604727
 31
0.0
  0
LINE
  5
12701A
  8
SLIM
 10
3260.0
 20
-2577.50001604727
 30
0.0
 11
2616.0
 21
-2577.50001604727
 31
0.0
  0
LINE
  5
12701B
  8
SLIM
 10
3260.0
 20
-2637.50001604727
 30
0.0
 11
2740.0
 21
-2637.50001604727
 31
0.0
  0
LINE
  5
12701C
  8
SLIM
 10
3260.0
 20
-2697.50001604727
 30
0.0
 11
2616.0
 21
-2697.50001604727
 31
0.0
  0
LINE
  5
12701D
  8
SLIM
 10
3260.0
 20
-2767.50001604727
 30
0.0
 11
2616.0
 21
-2767.50001604727
 31
0.0
  0
LINE
  5
12701E
  8
SLIM
 10
3260.0
 20
-2837.50001604727
 30
0.0
 11
2616.0
 21
-2837.50001604727
 31
0.0
  0
LINE
  5
12701F
  8
SLIM
 10
3260.0
 20
-2907.50001604727
 30
0.0
 11
2616.0
 21
-2907.50001604727
 31
0.0
  0
LINE
  5
127034
  8
SLIM
 10
2740.0
 20
-2697.50001604727
 30
0.0
 11
2615.9999722746579
 21
-2577.5000000000009
 31
0.0
  0
LINE
  5
127069
  8
OBJECT
 10
5323.0
 20
-3335.9999999999968
 30
0.0
 11
5323.0
 21
-3314.9999999999968
 31
0.0
1001
ACDBBLOCKREPETAG
1070
     1
1071
       20
1005
127069
  0
LINE
  5
12706A
  8
OBJECT
 10
5323.0
 20
-3314.9999999999968
 30
0.0
 11
5477.0
 21
-3314.9999999999968
 31
0.0
1001
ACDBBLOCKREPETAG
1070
     1
1071
       21
1005
12706A
  0
LINE
  5
12706B
  8
HIDDEN
 10
5343.0
 20
-3384.9999999999968
 30
0.0
 11
5457.0
 21
-3384.9999999999968
 31
0.0
1001
ACDBBLOCKREPETAG
1070
     1
1071
       22
1005
12706B
  0
LINE
  5
12706C
  8
OBJECT
 10
5477.0
 20
-3314.9999999999968
 30
0.0
 11
5477.0
 21
-3335.9999999999968
 31
0.0
1001
ACDBBLOCKREPETAG
1070
     1
1071
       23
1005
12706C
  0
LINE
  5
12706D
  8
OBJECT
 10
5477.0
 20
-3335.9999999999968
 30
0.0
 11
5323.0
 21
-3335.9999999999968
 31
0.0
1001
ACDBBLOCKREPETAG
1070
     1
1071
       24
1005
12706D
  0
LINE
  5
12706E
  8
CENTER
 10
5400.0
 20
-3299.9999999999968
 30
0.0
 11
5400.0
 21
-3534.9999999999968
 31
0.0
1001
ACDBBLOCKREPETAG
1070
     1
1071
       25
1005
12706E
  0
LINE
  5
12706F
  8
OBJECT
 10
5325.0
 20
-3398.9999999999968
 30
0.0
 11
5325.0
 21
-3522.9999999999968
 31
0.0
1001
ACDBBLOCKREPETAG
1070
     1
1071
       26
1005
12706F
  0
LINE
  5
127070
  8
OBJECT
 10
5328.0
 20
-3335.9999999999968
 30
0.0
 11
5328.0
 21
-3398.9999999999968
 31
0.0
1001
ACDBBLOCKREPETAG
1070
     1
1071
       27
1005
127070
  0
LINE
  5
127071
  8
OBJECT
 10
5472.0
 20
-3398.9999999999968
 30
0.0
 11
5472.0
 21
-3335.9999999999968
 31
0.0
1001
ACDBBLOCKREPETAG
1070
     1
1071
       28
1005
127071
  0
LINE
  5
127072
  8
OBJECT
 10
5475.0
 20
-3398.9999999999968
 30
0.0
 11
5456.7802782663139
 21
-3398.9999999999968
 31
0.0
1001
ACDBBLOCKREPETAG
1070
     1
1071
       30
1005
127072
  0
LINE
  5
127073
  8
OBJECT
 10
5475.0
 20
-3398.9999999999968
 30
0.0
 11
5475.0
 21
-3522.9999999999968
 31
0.0
1001
ACDBBLOCKREPETAG
1070
     1
1071
       34
1005
127073
  0
POINT
  5
127074
  8
DOTS
 10
5400.0
 20
-3519.9999999999968
 30
0.0
1001
ACDBBLOCKREPETAG
1070
     1
1071
      187
1005
127074
  0
LINE
  5
127075
  8
CENTER
 10
5310.0
 20
-3447.9999999999968
 30
0.0
 11
5490.0
 21
-3447.9999999999968
 31
0.0
1001
ACDBBLOCKREPETAG
1070
     1
1071
       23
1005
127075
  0
CIRCLE
  5
127076
  8
OBJECT
 10
5400.0
 20
-3447.9999999999968
 30
0.0
 40
53.5
1001
ACDBBLOCKREPETAG
1070
     1
1071
       24
1005
127076
  0
CIRCLE
  5
127077
  8
OBJECT
 10
5400.0
 20
-3447.9999999999968
 30
0.0
 40
67.0
1001
ACDBBLOCKREPETAG
1070
     1
1071
       25
1005
127077
  0
ARC
  5
127078
  8
OBJECT
 10
5400.0
 20
-3447.9999999999968
 30
0.0
 40
75.0
 50
286.26020470824182
 51
253.7397952917583
1001
ACDBBLOCKREPETAG
1070
     1
1071
       27
1005
127078
  0
LINE
  5
127079
  8
OBJECT
 10
5379.0
 20
-3519.9999999999968
 30
0.0
 11
5421.0
 21
-3519.9999999999968
 31
0.0
1001
ACDBBLOCKREPETAG
1070
     1
1071
       28
1005
127079
  0
LINE
  5
12707A
  8
OBJECT
 10
5343.2197217336861
 20
-3398.9999999999968
 30
0.0
 11
5325.0
 21
-3398.9999999999968
 31
0.0
1001
ACDBBLOCKREPETAG
1070
     1
1071
       30
1005
127072
  0
TEXT
  5
12DC7A
  8
SLIM
 10
-0.0000000000000011
 20
282.5
 30
0.0
 40
35.0
  1
※ 100枝（4）がある場合、品名の最後に【管底】が付きます。
 41
0.9
 11
0.0
 21
300.0
 31
0.0
 73
     2
  0
ARC
  5
12F8D3
  8
OBJECT
 10
6000.0
 20
-199.99999999999909
 30
0.0
 40
50.0
 50
298.81994300000417
 51
228.50208251168971
1001
ACDBBLOCKREPETAG
1070
     1
1071
       18
1005
12F8D3
  0
LINE
  5
12F8D4
  8
CENTER
 10
6080.0
 20
-199.99999999999909
 30
0.0
 11
5920.0
 21
-199.99999999999909
 31
0.0
1001
ACDBBLOCKREPETAG
1070
     1
1071
       19
1005
12F8D4
  0
LINE
  5
12F8D5
  8
CENTER
 10
6000.0
 20
-279.99999999999909
 30
0.0
 11
6000.0
 21
-104.9999999999991
 31
0.0
1001
ACDBBLOCKREPETAG
1070
     1
1071
       20
1005
12F8D5
  0
CIRCLE
  5
12F8D6
  8
OBJECT
 10
6000.0
 20
-199.99999999999909
 30
0.0
 40
70.0
1001
ACDBBLOCKREPETAG
1070
     1
1071
       21
1005
12F8D6
  0
CIRCLE
  5
12F8D7
  8
OBJECT
 10
6000.0
 20
-199.99999999999909
 30
0.0
 40
77.0
1001
ACDBBLOCKREPETAG
1070
     1
1071
       22
1005
12F8D7
  0
ARC
  5
12F8D8
  8
OBJECT
 10
6000.0
 20
-199.99999999999909
 30
0.0
 40
80.0
 50
50.80503257388439
 51
129.1949674261156
1001
ACDBBLOCKREPETAG
1070
     1
1071
       23
1005
12F8D8
  0
LINE
  5
12F8D9
  8
OBJECT
 10
6045.6618002273253
 20
-137.99999999999909
 30
0.0
 11
6080.0
 21
-137.99999999999909
 31
0.0
1001
ACDBBLOCKREPETAG
1070
     1
1071
       24
1005
12F8D9
  0
LINE
  5
12F8DA
  8
OBJECT
 10
6062.0
 20
-261.99999999999909
 30
0.0
 11
6080.0
 21
-261.99999999999909
 31
0.0
1001
ACDBBLOCKREPETAG
1070
     1
1071
       25
1005
12F8DA
  0
LINE
  5
12F8DB
  8
OBJECT
 10
6062.0
 20
-261.99999999999909
 30
0.0
 11
6062.0
 21
-279.99999999999909
 31
0.0
1001
ACDBBLOCKREPETAG
1070
     1
1071
       27
1005
12F8DB
  0
LINE
  5
12F8DC
  8
OBJECT
 10
5938.0
 20
-261.99999999999909
 30
0.0
 11
5938.0
 21
-279.99999999999909
 31
0.0
1001
ACDBBLOCKREPETAG
1070
     1
1071
       28
1005
12F8DC
  0
LINE
  5
12F8DD
  8
OBJECT
 10
5938.0
 20
-261.99999999999909
 30
0.0
 11
5920.0
 21
-261.99999999999909
 31
0.0
1001
ACDBBLOCKREPETAG
1070
     1
1071
       30
1005
12F8DD
  0
LINE
  5
12F8DE
  8
OBJECT
 10
5954.3381997726738
 20
-137.99999999999909
 30
0.0
 11
5920.0
 21
-137.99999999999909
 31
0.0
1001
ACDBBLOCKREPETAG
1070
     1
1071
       31
1005
12F8DE
  0
LINE
  5
12F8DF
  8
OBJECT
 10
5945.5527778486367
 20
-254.44722215136329
 30
0.0
 11
5938.0
 21
-261.99999999999909
 31
0.0
1001
ACDBBLOCKREPETAG
1070
     1
1071
       40
1005
12F8DF
  0
LINE
  5
12F8E0
  8
OBJECT
 10
6054.4472221513633
 20
-254.44722215136329
 30
0.0
 11
6062.0
 21
-261.99999999999909
 31
0.0
1001
ACDBBLOCKREPETAG
1070
     1
1071
       41
1005
12F8E0
  0
ARC
  5
12F8E1
  8
OBJECT
 10
5976.5796953073141
 20
-207.1289369828437
 30
0.0
 40
60.031113246032611
 50
314.07020130418567
 51
322.33936106089681
1001
ACDBBLOCKREPETAG
1070
     1
1071
       33
1005
12F8E1
  0
LINE
  5
12F8E2
  8
OBJECT
 10
5969.4199755553018
 20
-243.89888500818171
 30
0.0
 11
5979.7300520410208
 21
-222.74629179048591
 31
0.0
1001
ACDBBLOCKREPETAG
1070
     1
1071
       34
1005
12F8E2
  0
LINE
  5
12F8E3
  8
OBJECT
 10
5965.2972169006089
 20
-240.71813901882729
 30
0.0
 11
5973.773115639814
 21
-223.32862273686899
 31
0.0
1001
ACDBBLOCKREPETAG
1070
     1
1071
       35
1005
12F8E3
  0
LINE
  5
12F8E4
  8
OBJECT
 10
6024.1029330932433
 20
-243.80694712379321
 30
0.0
 11
6024.1029330932433
 21
-234.00999999999931
 31
0.0
1001
ACDBBLOCKREPETAG
1070
     1
1071
       36
1005
12F8E4
  0
LINE
  5
12F8E5
  8
OBJECT
 10
6024.1029330932433
 20
-234.00999999999931
 30
0.0
 11
5986.589017458864
 21
-218.4712273665109
 31
0.0
1001
ACDBBLOCKREPETAG
1070
     1
1071
       37
1005
12F8E5
  0
ARC
  5
12F8E6
  8
OBJECT
 10
5982.7621831352144
 20
-227.7100226916217
 30
0.0
 40
10.0
 50
67.500000000096563
 51
154.0147343702935
1001
ACDBBLOCKREPETAG
1070
     1
1071
      133
1005
12F8E6
  0
ARC
  5
12F8E7
  8
OBJECT
 10
5986.022399255904
 20
-225.81327182420949
 30
0.0
 40
7.0
 50
67.500000000096563
 51
154.01473377488369
1001
ACDBBLOCKREPETAG
1070
     1
1071
      134
1005
12F8E7
  0
CIRCLE
  5
12F8E8
  8
OBJECT
 10
6000.0
 20
-199.99999999999909
 30
0.0
 40
53.5
1001
ACDBBLOCKREPETAG
1070
     1
1071
      149
1005
12F8E8
  0
POINT
  5
12F8E9
  8
DOTS
 10
6000.0
 20
-199.99999999999909
 30
0.0
 50
270.0
1001
ACDBBLOCKREPETAG
1070
     1
1071
      158
1005
12F8E9
  0
ARC
  5
12F8EA
  8
OBJECT
 10
4000.0
 20
-199.99999999999909
 30
0.0
 40
50.0
 50
298.81994300000417
 51
228.50208251168971
1001
ACDBBLOCKREPETAG
1070
     1
1071
       18
1005
12F8EA
  0
LINE
  5
12F8EB
  8
CENTER
 10
4080.0
 20
-199.99999999999909
 30
0.0
 11
3920.0
 21
-199.99999999999909
 31
0.0
1001
ACDBBLOCKREPETAG
1070
     1
1071
       19
1005
12F8EB
  0
LINE
  5
12F8EC
  8
CENTER
 10
4000.0
 20
-279.99999999999909
 30
0.0
 11
4000.0
 21
-104.9999999999991
 31
0.0
1001
ACDBBLOCKREPETAG
1070
     1
1071
       20
1005
12F8EC
  0
CIRCLE
  5
12F8ED
  8
OBJECT
 10
4000.0
 20
-199.99999999999909
 30
0.0
 40
70.0
1001
ACDBBLOCKREPETAG
1070
     1
1071
       21
1005
12F8ED
  0
CIRCLE
  5
12F8EE
  8
OBJECT
 10
4000.0
 20
-199.99999999999909
 30
0.0
 40
77.0
1001
ACDBBLOCKREPETAG
1070
     1
1071
       22
1005
12F8EE
  0
ARC
  5
12F8EF
  8
OBJECT
 10
4000.0
 20
-199.99999999999909
 30
0.0
 40
80.0
 50
50.805032573864182
 51
129.1949674261358
1001
ACDBBLOCKREPETAG
1070
     1
1071
       23
1005
12F8EF
  0
LINE
  5
12F8F0
  8
OBJECT
 10
4045.661800227324
 20
-137.99999999999909
 30
0.0
 11
4080.0
 21
-137.99999999999909
 31
0.0
1001
ACDBBLOCKREPETAG
1070
     1
1071
       24
1005
12F8F0
  0
LINE
  5
12F8F1
  8
OBJECT
 10
4062.0
 20
-261.99999999999909
 30
0.0
 11
4080.0
 21
-261.99999999999909
 31
0.0
1001
ACDBBLOCKREPETAG
1070
     1
1071
       25
1005
12F8F1
  0
LINE
  5
12F8F2
  8
OBJECT
 10
4062.0
 20
-261.99999999999909
 30
0.0
 11
4062.0
 21
-279.99999999999909
 31
0.0
1001
ACDBBLOCKREPETAG
1070
     1
1071
       27
1005
12F8F2
  0
LINE
  5
12F8F3
  8
OBJECT
 10
3938.0
 20
-261.99999999999909
 30
0.0
 11
3938.0
 21
-279.99999999999909
 31
0.0
1001
ACDBBLOCKREPETAG
1070
     1
1071
       28
1005
12F8F3
  0
LINE
  5
12F8F4
  8
OBJECT
 10
3938.0
 20
-261.99999999999909
 30
0.0
 11
3920.0
 21
-261.99999999999909
 31
0.0
1001
ACDBBLOCKREPETAG
1070
     1
1071
       30
1005
12F8F4
  0
LINE
  5
12F8F5
  8
OBJECT
 10
3954.338199772676
 20
-137.99999999999909
 30
0.0
 11
3920.0
 21
-137.99999999999909
 31
0.0
1001
ACDBBLOCKREPETAG
1070
     1
1071
       31
1005
12F8F5
  0
LINE
  5
12F8F6
  8
OBJECT
 10
3945.5527778486362
 20
-254.44722215136329
 30
0.0
 11
3938.0
 21
-261.99999999999909
 31
0.0
1001
ACDBBLOCKREPETAG
1070
     1
1071
       40
1005
12F8F6
  0
LINE
  5
12F8F7
  8
OBJECT
 10
4054.4472221513638
 20
-254.44722215136329
 30
0.0
 11
4062.0
 21
-261.99999999999909
 31
0.0
1001
ACDBBLOCKREPETAG
1070
     1
1071
       41
1005
12F8F7
  0
ARC
  5
12F8F8
  8
OBJECT
 10
3976.579695307315
 20
-207.1289369828437
 30
0.0
 40
60.031113246032611
 50
314.07020130418567
 51
322.33936106091278
1001
ACDBBLOCKREPETAG
1070
     1
1071
       33
1005
12F8F8
  0
LINE
  5
12F8F9
  8
OBJECT
 10
3969.4199755553018
 20
-243.89888500818171
 30
0.0
 11
3979.7300520410208
 21
-222.74629179048591
 31
0.0
1001
ACDBBLOCKREPETAG
1070
     1
1071
       34
1005
12F8F9
  0
LINE
  5
12F8FA
  8
OBJECT
 10
3965.2972169006089
 20
-240.71813901882729
 30
0.0
 11
3973.7731156398149
 21
-223.32862273686899
 31
0.0
1001
ACDBBLOCKREPETAG
1070
     1
1071
       35
1005
12F8FA
  0
LINE
  5
12F8FB
  8
OBJECT
 10
4024.102933093242
 20
-243.80694712379321
 30
0.0
 11
4024.102933093242
 21
-234.00999999999931
 31
0.0
1001
ACDBBLOCKREPETAG
1070
     1
1071
       36
1005
12F8FB
  0
LINE
  5
12F8FC
  8
OBJECT
 10
4024.102933093242
 20
-234.00999999999931
 30
0.0
 11
3986.589017458864
 21
-218.4712273665109
 31
0.0
1001
ACDBBLOCKREPETAG
1070
     1
1071
       37
1005
12F8FC
  0
ARC
  5
12F8FD
  8
OBJECT
 10
3982.7621831352162
 20
-227.7100226916217
 30
0.0
 40
10.0
 50
67.500000000120636
 51
154.0147343702935
1001
ACDBBLOCKREPETAG
1070
     1
1071
      133
1005
12F8FD
  0
ARC
  5
12F8FE
  8
OBJECT
 10
3986.022399255904
 20
-225.81327182420949
 30
0.0
 40
7.0
 50
67.500000000120636
 51
154.01473377488369
1001
ACDBBLOCKREPETAG
1070
     1
1071
      134
1005
12F8FE
  0
CIRCLE
  5
12F8FF
  8
OBJECT
 10
4000.0
 20
-199.99999999999909
 30
0.0
 40
53.5
1001
ACDBBLOCKREPETAG
1070
     1
1071
      149
1005
12F8FF
  0
POINT
  5
12F900
  8
DOTS
 10
4000.0
 20
-199.99999999999909
 30
0.0
 50
270.0
1001
ACDBBLOCKREPETAG
1070
     1
1071
      158
1005
12F900
  0
ARC
  5
12F901
  8
OBJECT
 10
2000.0
 20
-199.99999999999909
 30
0.0
 40
50.0
 50
298.81994300000417
 51
228.50208251168971
1001
ACDBBLOCKREPETAG
1070
     1
1071
       18
1005
12F901
  0
LINE
  5
12F902
  8
CENTER
 10
2080.0
 20
-199.99999999999909
 30
0.0
 11
1920.0
 21
-199.99999999999909
 31
0.0
1001
ACDBBLOCKREPETAG
1070
     1
1071
       19
1005
12F902
  0
LINE
  5
12F903
  8
CENTER
 10
2000.0
 20
-279.99999999999909
 30
0.0
 11
2000.0
 21
-104.9999999999991
 31
0.0
1001
ACDBBLOCKREPETAG
1070
     1
1071
       20
1005
12F903
  0
CIRCLE
  5
12F904
  8
OBJECT
 10
2000.0
 20
-199.99999999999909
 30
0.0
 40
70.0
1001
ACDBBLOCKREPETAG
1070
     1
1071
       21
1005
12F904
  0
CIRCLE
  5
12F905
  8
OBJECT
 10
2000.0
 20
-199.99999999999909
 30
0.0
 40
77.0
1001
ACDBBLOCKREPETAG
1070
     1
1071
       22
1005
12F905
  0
ARC
  5
12F906
  8
OBJECT
 10
2000.0
 20
-199.99999999999909
 30
0.0
 40
80.0
 50
50.805032573864182
 51
129.1949674261358
1001
ACDBBLOCKREPETAG
1070
     1
1071
       23
1005
12F906
  0
LINE
  5
12F907
  8
OBJECT
 10
2045.6618002273251
 20
-137.99999999999909
 30
0.0
 11
2080.0
 21
-137.99999999999909
 31
0.0
1001
ACDBBLOCKREPETAG
1070
     1
1071
       24
1005
12F907
  0
LINE
  5
12F908
  8
OBJECT
 10
2062.0
 20
-261.99999999999909
 30
0.0
 11
2080.0
 21
-261.99999999999909
 31
0.0
1001
ACDBBLOCKREPETAG
1070
     1
1071
       25
1005
12F908
  0
LINE
  5
12F909
  8
OBJECT
 10
2062.0
 20
-261.99999999999909
 30
0.0
 11
2062.0
 21
-279.99999999999909
 31
0.0
1001
ACDBBLOCKREPETAG
1070
     1
1071
       27
1005
12F909
  0
LINE
  5
12F90A
  8
OBJECT
 10
1938.0
 20
-261.99999999999909
 30
0.0
 11
1938.0
 21
-279.99999999999909
 31
0.0
1001
ACDBBLOCKREPETAG
1070
     1
1071
       28
1005
12F90A
  0
LINE
  5
12F90B
  8
OBJECT
 10
1938.0
 20
-261.99999999999909
 30
0.0
 11
1920.0
 21
-261.99999999999909
 31
0.0
1001
ACDBBLOCKREPETAG
1070
     1
1071
       30
1005
12F90B
  0
LINE
  5
12F90C
  8
OBJECT
 10
1954.3381997726749
 20
-137.99999999999909
 30
0.0
 11
1920.0
 21
-137.99999999999909
 31
0.0
1001
ACDBBLOCKREPETAG
1070
     1
1071
       31
1005
12F90C
  0
LINE
  5
12F90D
  8
OBJECT
 10
1945.5527778486351
 20
-254.44722215136329
 30
0.0
 11
1938.0
 21
-261.99999999999909
 31
0.0
1001
ACDBBLOCKREPETAG
1070
     1
1071
       40
1005
12F90D
  0
LINE
  5
12F90E
  8
OBJECT
 10
2054.4472221513638
 20
-254.44722215136329
 30
0.0
 11
2062.0
 21
-261.99999999999909
 31
0.0
1001
ACDBBLOCKREPETAG
1070
     1
1071
       41
1005
12F90E
  0
ARC
  5
12F90F
  8
OBJECT
 10
1976.579695307315
 20
-207.1289369828437
 30
0.0
 40
60.031113246032611
 50
314.07020130418567
 51
322.33936106091278
1001
ACDBBLOCKREPETAG
1070
     1
1071
       33
1005
12F90F
  0
LINE
  5
12F910
  8
OBJECT
 10
1969.4199755553
 20
-243.89888500818171
 30
0.0
 11
1979.7300520410211
 21
-222.74629179048591
 31
0.0
1001
ACDBBLOCKREPETAG
1070
     1
1071
       34
1005
12F910
  0
LINE
  5
12F911
  8
OBJECT
 10
1965.2972169006091
 20
-240.71813901882729
 30
0.0
 11
1973.7731156398149
 21
-223.32862273686899
 31
0.0
1001
ACDBBLOCKREPETAG
1070
     1
1071
       35
1005
12F911
  0
LINE
  5
12F912
  8
OBJECT
 10
2024.102933093244
 20
-243.80694712379321
 30
0.0
 11
2024.102933093244
 21
-234.00999999999931
 31
0.0
1001
ACDBBLOCKREPETAG
1070
     1
1071
       36
1005
12F912
  0
LINE
  5
12F913
  8
OBJECT
 10
2024.102933093244
 20
-234.00999999999931
 30
0.0
 11
1986.589017458864
 21
-218.4712273665109
 31
0.0
1001
ACDBBLOCKREPETAG
1070
     1
1071
       37
1005
12F913
  0
ARC
  5
12F914
  8
OBJECT
 10
1982.7621831352151
 20
-227.7100226916217
 30
0.0
 40
10.0
 50
67.500000000120636
 51
154.0147343702935
1001
ACDBBLOCKREPETAG
1070
     1
1071
      133
1005
12F914
  0
ARC
  5
12F915
  8
OBJECT
 10
1986.022399255904
 20
-225.81327182420949
 30
0.0
 40
7.0
 50
67.500000000120636
 51
154.01473377487801
1001
ACDBBLOCKREPETAG
1070
     1
1071
      134
1005
12F915
  0
CIRCLE
  5
12F916
  8
OBJECT
 10
2000.0
 20
-199.99999999999909
 30
0.0
 40
53.5
1001
ACDBBLOCKREPETAG
1070
     1
1071
      149
1005
12F916
  0
POINT
  5
12F917
  8
DOTS
 10
2000.0
 20
-199.99999999999909
 30
0.0
 50
270.0
1001
ACDBBLOCKREPETAG
1070
     1
1071
      158
1005
12F917
  0
ARC
  5
12F918
  8
OBJECT
 10
5000.0
 20
-3114.9999999999959
 30
0.0
 40
50.0
 50
298.81994299999963
 51
228.52376955965599
1001
ACDBBLOCKREPETAG
1070
     1
1071
        1
1005
12F918
  0
LINE
  5
12F919
  8
CENTER
 10
5080.0
 20
-3114.9999999999959
 30
0.0
 11
4905.0
 21
-3114.9999999999959
 31
0.0
1001
ACDBBLOCKREPETAG
1070
     1
1071
        2
1005
12F919
  0
LINE
  5
12F91A
  8
CENTER
 10
5000.0
 20
-3209.9999999999959
 30
0.0
 11
5000.0
 21
-3019.9999999999959
 31
0.0
1001
ACDBBLOCKREPETAG
1070
     1
1071
        3
1005
12F91A
  0
CIRCLE
  5
12F91B
  8
OBJECT
 10
5000.0
 20
-3114.9999999999959
 30
0.0
 40
70.0
1001
ACDBBLOCKREPETAG
1070
     1
1071
        4
1005
12F91B
  0
CIRCLE
  5
12F91C
  8
OBJECT
 10
5000.0
 20
-3114.9999999999959
 30
0.0
 40
77.0
1001
ACDBBLOCKREPETAG
1070
     1
1071
        5
1005
12F91C
  0
ARC
  5
12F91D
  8
OBJECT
 10
5000.0
 20
-3114.9999999999959
 30
0.0
 40
80.0
 50
50.805032573882329
 51
309.19496742611773
1001
ACDBBLOCKREPETAG
1070
     1
1071
        6
1005
12F91D
  0
LINE
  5
12F91E
  8
OBJECT
 10
5045.6618002273253
 20
-3052.9999999999959
 30
0.0
 11
5080.0
 21
-3052.9999999999959
 31
0.0
1001
ACDBBLOCKREPETAG
1070
     1
1071
        7
1005
12F91E
  0
LINE
  5
12F91F
  8
OBJECT
 10
5045.6618002273253
 20
-3176.9999999999959
 30
0.0
 11
5080.0
 21
-3176.9999999999959
 31
0.0
1001
ACDBBLOCKREPETAG
1070
     1
1071
        8
1005
12F91F
  0
LINE
  5
12F920
  8
OBJECT
 10
5024.1029330932424
 20
-3158.80694712379
 30
0.0
 11
5024.1029330932424
 21
-3149.0099999999961
 31
0.0
1001
ACDBBLOCKREPETAG
1070
     1
1071
      138
1005
12F920
  0
LINE
  5
12F921
  8
OBJECT
 10
5024.1029330932424
 20
-3149.0099999999961
 30
0.0
 11
4986.589017458864
 21
-3133.4712273665082
 31
0.0
1001
ACDBBLOCKREPETAG
1070
     1
1071
      139
1005
12F921
  0
ARC
  5
12F922
  8
OBJECT
 10
4982.7621831352144
 20
-3142.7100226916191
 30
0.0
 40
10.0
 50
67.500000000100925
 51
154.01473437029199
1001
ACDBBLOCKREPETAG
1070
     1
1071
      140
1005
12F922
  0
ARC
  5
12F923
  8
OBJECT
 10
4986.022399255904
 20
-3140.8132718242068
 30
0.0
 40
7.0
 50
67.500000000100925
 51
154.01473377488071
1001
ACDBBLOCKREPETAG
1070
     1
1071
      141
1005
12F923
  0
ARC
  5
12F924
  8
OBJECT
 10
4976.5796953073141
 20
-3122.128936982841
 30
0.0
 40
60.031113246032611
 50
314.070201304188
 51
322.33936106089038
1001
ACDBBLOCKREPETAG
1070
     1
1071
      150
1005
12F924
  0
LINE
  5
12F925
  8
OBJECT
 10
4969.4199755553018
 20
-3158.8988850081791
 30
0.0
 11
4979.7300520410208
 21
-3137.7462917904832
 31
0.0
1001
ACDBBLOCKREPETAG
1070
     1
1071
      151
1005
12F925
  0
LINE
  5
12F926
  8
OBJECT
 10
4965.2972169006089
 20
-3155.7181390188248
 30
0.0
 11
4973.7731156398149
 21
-3138.3286227368658
 31
0.0
1001
ACDBBLOCKREPETAG
1070
     1
1071
      152
1005
12F926
  0
CIRCLE
  5
12F927
  8
OBJECT
 10
5000.0
 20
-3114.9999999999959
 30
0.0
 40
53.5
1001
ACDBBLOCKREPETAG
1070
     1
1071
      153
1005
12F927
  0
POINT
  5
12F928
  8
DOTS
 10
5000.0
 20
-3114.9999999999959
 30
0.0
 50
270.0
1001
ACDBBLOCKREPETAG
1070
     1
1071
      159
1005
12F928
  0
ARC
  5
12F929
  8
OBJECT
 10
4000.0
 20
-3114.9999999999959
 30
0.0
 40
50.0
 50
298.81994299999963
 51
228.52376955967549
1001
ACDBBLOCKREPETAG
1070
     1
1071
        1
1005
12F929
  0
LINE
  5
12F92A
  8
CENTER
 10
4080.0
 20
-3114.9999999999959
 30
0.0
 11
3905.0
 21
-3114.9999999999959
 31
0.0
1001
ACDBBLOCKREPETAG
1070
     1
1071
        2
1005
12F92A
  0
LINE
  5
12F92B
  8
CENTER
 10
4000.0
 20
-3209.9999999999959
 30
0.0
 11
4000.0
 21
-3019.9999999999959
 31
0.0
1001
ACDBBLOCKREPETAG
1070
     1
1071
        3
1005
12F92B
  0
CIRCLE
  5
12F92C
  8
OBJECT
 10
4000.0
 20
-3114.9999999999959
 30
0.0
 40
70.0
1001
ACDBBLOCKREPETAG
1070
     1
1071
        4
1005
12F92C
  0
CIRCLE
  5
12F92D
  8
OBJECT
 10
4000.0
 20
-3114.9999999999959
 30
0.0
 40
77.0
1001
ACDBBLOCKREPETAG
1070
     1
1071
        5
1005
12F92D
  0
ARC
  5
12F92E
  8
OBJECT
 10
4000.0
 20
-3114.9999999999959
 30
0.0
 40
80.0
 50
50.805032573862128
 51
309.19496742613791
1001
ACDBBLOCKREPETAG
1070
     1
1071
        6
1005
12F92E
  0
LINE
  5
12F92F
  8
OBJECT
 10
4045.661800227324
 20
-3052.9999999999959
 30
0.0
 11
4080.0
 21
-3052.9999999999959
 31
0.0
1001
ACDBBLOCKREPETAG
1070
     1
1071
        7
1005
12F92F
  0
LINE
  5
12F930
  8
OBJECT
 10
4045.661800227324
 20
-3176.9999999999959
 30
0.0
 11
4080.0
 21
-3176.9999999999959
 31
0.0
1001
ACDBBLOCKREPETAG
1070
     1
1071
        8
1005
12F930
  0
LINE
  5
12F931
  8
OBJECT
 10
4024.102933093242
 20
-3158.80694712379
 30
0.0
 11
4024.102933093242
 21
-3149.0099999999961
 31
0.0
1001
ACDBBLOCKREPETAG
1070
     1
1071
      138
1005
12F931
  0
LINE
  5
12F932
  8
OBJECT
 10
4024.102933093242
 20
-3149.0099999999961
 30
0.0
 11
3986.589017458864
 21
-3133.4712273665082
 31
0.0
1001
ACDBBLOCKREPETAG
1070
     1
1071
      139
1005
12F932
  0
ARC
  5
12F933
  8
OBJECT
 10
3982.7621831352162
 20
-3142.7100226916191
 30
0.0
 40
10.0
 50
67.500000000124999
 51
154.01473437029199
1001
ACDBBLOCKREPETAG
1070
     1
1071
      140
1005
12F933
  0
ARC
  5
12F934
  8
OBJECT
 10
3986.022399255904
 20
-3140.8132718242068
 30
0.0
 40
7.0
 50
67.500000000124999
 51
154.01473377488071
1001
ACDBBLOCKREPETAG
1070
     1
1071
      141
1005
12F934
  0
ARC
  5
12F935
  8
OBJECT
 10
3976.579695307315
 20
-3122.128936982841
 30
0.0
 40
60.031113246032611
 50
314.070201304188
 51
322.3393610609063
1001
ACDBBLOCKREPETAG
1070
     1
1071
      150
1005
12F935
  0
LINE
  5
12F936
  8
OBJECT
 10
3969.4199755553018
 20
-3158.8988850081791
 30
0.0
 11
3979.7300520410208
 21
-3137.7462917904832
 31
0.0
1001
ACDBBLOCKREPETAG
1070
     1
1071
      151
1005
12F936
  0
LINE
  5
12F937
  8
OBJECT
 10
3965.2972169006089
 20
-3155.7181390188248
 30
0.0
 11
3973.7731156398149
 21
-3138.3286227368658
 31
0.0
1001
ACDBBLOCKREPETAG
1070
     1
1071
      152
1005
12F937
  0
CIRCLE
  5
12F938
  8
OBJECT
 10
4000.0
 20
-3114.9999999999959
 30
0.0
 40
53.5
1001
ACDBBLOCKREPETAG
1070
     1
1071
      153
1005
12F938
  0
POINT
  5
12F939
  8
DOTS
 10
4000.0
 20
-3114.9999999999959
 30
0.0
 50
270.0
1001
ACDBBLOCKREPETAG
1070
     1
1071
      159
1005
12F939
  0
ARC
  5
12F93A
  8
OBJECT
 10
3000.0
 20
-3114.9999999999959
 30
0.0
 40
50.0
 50
298.81994299999963
 51
228.52376955967549
1001
ACDBBLOCKREPETAG
1070
     1
1071
        1
1005
12F93A
  0
LINE
  5
12F93B
  8
CENTER
 10
3080.0
 20
-3114.9999999999959
 30
0.0
 11
2905.0
 21
-3114.9999999999959
 31
0.0
1001
ACDBBLOCKREPETAG
1070
     1
1071
        2
1005
12F93B
  0
LINE
  5
12F93C
  8
CENTER
 10
3000.0
 20
-3209.9999999999959
 30
0.0
 11
3000.0
 21
-3019.9999999999959
 31
0.0
1001
ACDBBLOCKREPETAG
1070
     1
1071
        3
1005
12F93C
  0
CIRCLE
  5
12F93D
  8
OBJECT
 10
3000.0
 20
-3114.9999999999959
 30
0.0
 40
70.0
1001
ACDBBLOCKREPETAG
1070
     1
1071
        4
1005
12F93D
  0
CIRCLE
  5
12F93E
  8
OBJECT
 10
3000.0
 20
-3114.9999999999959
 30
0.0
 40
77.0
1001
ACDBBLOCKREPETAG
1070
     1
1071
        5
1005
12F93E
  0
ARC
  5
12F93F
  8
OBJECT
 10
3000.0
 20
-3114.9999999999959
 30
0.0
 40
80.0
 50
50.805032573862128
 51
309.19496742613791
1001
ACDBBLOCKREPETAG
1070
     1
1071
        6
1005
12F93F
  0
LINE
  5
12F940
  8
OBJECT
 10
3045.6618002273249
 20
-3052.9999999999959
 30
0.0
 11
3080.0
 21
-3052.9999999999959
 31
0.0
1001
ACDBBLOCKREPETAG
1070
     1
1071
        7
1005
12F940
  0
LINE
  5
12F941
  8
OBJECT
 10
3045.6618002273249
 20
-3176.9999999999959
 30
0.0
 11
3080.0
 21
-3176.9999999999959
 31
0.0
1001
ACDBBLOCKREPETAG
1070
     1
1071
        8
1005
12F941
  0
LINE
  5
12F942
  8
OBJECT
 10
3024.1029330932438
 20
-3158.80694712379
 30
0.0
 11
3024.1029330932438
 21
-3149.0099999999961
 31
0.0
1001
ACDBBLOCKREPETAG
1070
     1
1071
      138
1005
12F942
  0
LINE
  5
12F943
  8
OBJECT
 10
3024.1029330932438
 20
-3149.0099999999961
 30
0.0
 11
2986.589017458864
 21
-3133.4712273665082
 31
0.0
1001
ACDBBLOCKREPETAG
1070
     1
1071
      139
1005
12F943
  0
ARC
  5
12F944
  8
OBJECT
 10
2982.7621831352162
 20
-3142.7100226916191
 30
0.0
 40
10.0
 50
67.500000000124999
 51
154.01473437029199
1001
ACDBBLOCKREPETAG
1070
     1
1071
      140
1005
12F944
  0
ARC
  5
12F945
  8
OBJECT
 10
2986.022399255904
 20
-3140.8132718242068
 30
0.0
 40
7.0
 50
67.500000000124999
 51
154.01473377488071
1001
ACDBBLOCKREPETAG
1070
     1
1071
      141
1005
12F945
  0
ARC
  5
12F946
  8
OBJECT
 10
2976.579695307315
 20
-3122.128936982841
 30
0.0
 40
60.031113246032611
 50
314.070201304188
 51
322.3393610609063
1001
ACDBBLOCKREPETAG
1070
     1
1071
      150
1005
12F946
  0
LINE
  5
12F947
  8
OBJECT
 10
2969.4199755553018
 20
-3158.8988850081791
 30
0.0
 11
2979.7300520410222
 21
-3137.7462917904832
 31
0.0
1001
ACDBBLOCKREPETAG
1070
     1
1071
      151
1005
12F947
  0
LINE
  5
12F948
  8
OBJECT
 10
2965.2972169006089
 20
-3155.7181390188248
 30
0.0
 11
2973.7731156398149
 21
-3138.3286227368658
 31
0.0
1001
ACDBBLOCKREPETAG
1070
     1
1071
      152
1005
12F948
  0
CIRCLE
  5
12F949
  8
OBJECT
 10
3000.0
 20
-3114.9999999999959
 30
0.0
 40
53.5
1001
ACDBBLOCKREPETAG
1070
     1
1071
      153
1005
12F949
  0
POINT
  5
12F94A
  8
DOTS
 10
3000.0
 20
-3114.9999999999959
 30
0.0
 50
270.0
1001
ACDBBLOCKREPETAG
1070
     1
1071
      159
1005
12F94A
  0
ARC
  5
12F94B
  8
OBJECT
 10
2000.0
 20
-3114.9999999999959
 30
0.0
 40
50.0
 50
298.81994299999963
 51
228.52376955967549
1001
ACDBBLOCKREPETAG
1070
     1
1071
        1
1005
12F94B
  0
LINE
  5
12F94C
  8
CENTER
 10
2080.0
 20
-3114.9999999999959
 30
0.0
 11
1905.0
 21
-3114.9999999999959
 31
0.0
1001
ACDBBLOCKREPETAG
1070
     1
1071
        2
1005
12F94C
  0
LINE
  5
12F94D
  8
CENTER
 10
2000.0
 20
-3209.9999999999959
 30
0.0
 11
2000.0
 21
-3019.9999999999959
 31
0.0
1001
ACDBBLOCKREPETAG
1070
     1
1071
        3
1005
12F94D
  0
CIRCLE
  5
12F94E
  8
OBJECT
 10
2000.0
 20
-3114.9999999999959
 30
0.0
 40
70.0
1001
ACDBBLOCKREPETAG
1070
     1
1071
        4
1005
12F94E
  0
CIRCLE
  5
12F94F
  8
OBJECT
 10
2000.0
 20
-3114.9999999999959
 30
0.0
 40
77.0
1001
ACDBBLOCKREPETAG
1070
     1
1071
        5
1005
12F94F
  0
ARC
  5
12F950
  8
OBJECT
 10
2000.0
 20
-3114.9999999999959
 30
0.0
 40
80.0
 50
50.805032573862128
 51
309.19496742613791
1001
ACDBBLOCKREPETAG
1070
     1
1071
        6
1005
12F950
  0
LINE
  5
12F951
  8
OBJECT
 10
2045.6618002273251
 20
-3052.9999999999959
 30
0.0
 11
2080.0
 21
-3052.9999999999959
 31
0.0
1001
ACDBBLOCKREPETAG
1070
     1
1071
        7
1005
12F951
  0
LINE
  5
12F952
  8
OBJECT
 10
2045.6618002273251
 20
-3176.9999999999959
 30
0.0
 11
2080.0
 21
-3176.9999999999959
 31
0.0
1001
ACDBBLOCKREPETAG
1070
     1
1071
        8
1005
12F952
  0
LINE
  5
12F953
  8
OBJECT
 10
2024.102933093244
 20
-3158.80694712379
 30
0.0
 11
2024.102933093244
 21
-3149.0099999999961
 31
0.0
1001
ACDBBLOCKREPETAG
1070
     1
1071
      138
1005
12F953
  0
LINE
  5
12F954
  8
OBJECT
 10
2024.102933093244
 20
-3149.0099999999961
 30
0.0
 11
1986.589017458864
 21
-3133.4712273665082
 31
0.0
1001
ACDBBLOCKREPETAG
1070
     1
1071
      139
1005
12F954
  0
ARC
  5
12F955
  8
OBJECT
 10
1982.7621831352151
 20
-3142.7100226916191
 30
0.0
 40
10.0
 50
67.500000000124999
 51
154.01473437029199
1001
ACDBBLOCKREPETAG
1070
     1
1071
      140
1005
12F955
  0
ARC
  5
12F956
  8
OBJECT
 10
1986.022399255904
 20
-3140.8132718242068
 30
0.0
 40
7.0
 50
67.500000000124999
 51
154.01473377487511
1001
ACDBBLOCKREPETAG
1070
     1
1071
      141
1005
12F956
  0
ARC
  5
12F957
  8
OBJECT
 10
1976.579695307315
 20
-3122.128936982841
 30
0.0
 40
60.031113246032611
 50
314.070201304188
 51
322.3393610609063
1001
ACDBBLOCKREPETAG
1070
     1
1071
      150
1005
12F957
  0
LINE
  5
12F958
  8
OBJECT
 10
1969.4199755553
 20
-3158.8988850081791
 30
0.0
 11
1979.7300520410211
 21
-3137.7462917904832
 31
0.0
1001
ACDBBLOCKREPETAG
1070
     1
1071
      151
1005
12F958
  0
LINE
  5
12F959
  8
OBJECT
 10
1965.2972169006091
 20
-3155.7181390188248
 30
0.0
 11
1973.7731156398149
 21
-3138.3286227368658
 31
0.0
1001
ACDBBLOCKREPETAG
1070
     1
1071
      152
1005
12F959
  0
CIRCLE
  5
12F95A
  8
OBJECT
 10
2000.0
 20
-3114.9999999999959
 30
0.0
 40
53.5
1001
ACDBBLOCKREPETAG
1070
     1
1071
      153
1005
12F95A
  0
POINT
  5
12F95B
  8
DOTS
 10
2000.0
 20
-3114.9999999999959
 30
0.0
 50
270.0
1001
ACDBBLOCKREPETAG
1070
     1
1071
      159
1005
12F95B
  0
ARC
  5
12F95C
  8
OBJECT
 10
535.99999999987813
 20
-2051.999999999367
 30
0.0
 40
50.0
 50
28.819943000151429
 51
318.5020825118325
1001
ACDBBLOCKREPETAG
1070
     1
1071
       17
1005
12F95C
  0
CIRCLE
  5
12F95D
  8
OBJECT
 10
535.99999999987813
 20
-2051.999999999367
 30
0.0
 40
70.0
1001
ACDBBLOCKREPETAG
1070
     1
1071
       18
1005
12F95D
  0
CIRCLE
  5
12F95E
  8
OBJECT
 10
535.99999999987813
 20
-2051.999999999367
 30
0.0
 40
77.0
1001
ACDBBLOCKREPETAG
1070
     1
1071
       19
1005
12F95E
  0
ARC
  5
12F95F
  8
OBJECT
 10
535.99999999987813
 20
-2051.999999999367
 30
0.0
 40
80.0
 50
140.80503257378879
 51
219.19496742621121
1001
ACDBBLOCKREPETAG
1070
     1
1071
       20
1005
12F95F
  0
LINE
  5
12F960
  8
OBJECT
 10
473.99999999987801
 20
-2006.338199772043
 30
0.0
 11
473.99999999987801
 21
-1971.999999999367
 31
0.0
1001
ACDBBLOCKREPETAG
1070
     1
1071
       21
1005
12F960
  0
LINE
  5
12F961
  8
OBJECT
 10
597.99999999987813
 20
-1989.999999999367
 30
0.0
 11
597.99999999987813
 21
-1971.999999999367
 31
0.0
1001
ACDBBLOCKREPETAG
1070
     1
1071
       22
1005
12F961
  0
LINE
  5
12F962
  8
OBJECT
 10
597.99999999987813
 20
-1989.999999999367
 30
0.0
 11
615.99999999987813
 21
-1989.999999999367
 31
0.0
1001
ACDBBLOCKREPETAG
1070
     1
1071
       24
1005
12F962
  0
LINE
  5
12F963
  8
OBJECT
 10
597.99999999987813
 20
-2113.999999999367
 30
0.0
 11
615.99999999987813
 21
-2113.999999999367
 31
0.0
1001
ACDBBLOCKREPETAG
1070
     1
1071
       25
1005
12F963
  0
LINE
  5
12F964
  8
OBJECT
 10
597.99999999987813
 20
-2113.999999999367
 30
0.0
 11
597.99999999987813
 21
-2131.999999999367
 31
0.0
1001
ACDBBLOCKREPETAG
1070
     1
1071
       27
1005
12F964
  0
LINE
  5
12F965
  8
OBJECT
 10
473.99999999987801
 20
-2097.6618002266919
 30
0.0
 11
473.99999999987801
 21
-2131.999999999367
 31
0.0
1001
ACDBBLOCKREPETAG
1070
     1
1071
       28
1005
12F965
  0
LINE
  5
12F966
  8
OBJECT
 10
590.44722215124227
 20
-2106.4472221507308
 30
0.0
 11
597.99999999987813
 21
-2113.999999999367
 31
0.0
1001
ACDBBLOCKREPETAG
1070
     1
1071
       37
1005
12F966
  0
LINE
  5
12F967
  8
OBJECT
 10
590.44722215124227
 20
-1997.552777848003
 30
0.0
 11
597.99999999987813
 21
-1989.999999999367
 31
0.0
1001
ACDBBLOCKREPETAG
1070
     1
1071
       38
1005
12F967
  0
ARC
  5
12F968
  8
OBJECT
 10
543.12893698272273
 20
-2075.420304692052
 30
0.0
 40
60.031113246032611
 50
44.070201304183492
 51
52.339361060984537
1001
ACDBBLOCKREPETAG
1070
     1
1071
      131
1005
12F968
  0
LINE
  5
12F969
  8
OBJECT
 10
579.8988850080608
 20
-2082.5800244440661
 30
0.0
 11
558.74629179036481
 21
-2072.2699479583462
 31
0.0
1001
ACDBBLOCKREPETAG
1070
     1
1071
      132
1005
12F969
  0
LINE
  5
12F96A
  8
OBJECT
 10
576.71813901870621
 20
-2086.7027830987581
 30
0.0
 11
559.328622736748
 21
-2078.2268843595521
 31
0.0
1001
ACDBBLOCKREPETAG
1070
     1
1071
      133
1005
12F96A
  0
LINE
  5
12F96B
  8
OBJECT
 10
579.8069471236721
 20
-2027.8970669061241
 30
0.0
 11
570.00999999987835
 21
-2027.8970669061241
 31
0.0
1001
ACDBBLOCKREPETAG
1070
     1
1071
      134
1005
12F96B
  0
LINE
  5
12F96C
  8
OBJECT
 10
570.00999999987835
 20
-2027.8970669061241
 30
0.0
 11
554.47122736638994
 21
-2065.410982540503
 31
0.0
1001
ACDBBLOCKREPETAG
1070
     1
1071
      135
1005
12F96C
  0
ARC
  5
12F96D
  8
OBJECT
 10
563.71002269150085
 20
-2069.2378168641521
 30
0.0
 40
10.0
 50
157.50000000017559
 51
244.01473437021031
1001
ACDBBLOCKREPETAG
1070
     1
1071
      136
1005
12F96D
  0
ARC
  5
12F96E
  8
OBJECT
 10
561.81327182408836
 20
-2065.977600743463
 30
0.0
 40
7.0
 50
157.50000000017559
 51
244.01473377496251
1001
ACDBBLOCKREPETAG
1070
     1
1071
      137
1005
12F96E
  0
CIRCLE
  5
12F96F
  8
OBJECT
 10
535.99999999987813
 20
-2051.999999999367
 30
0.0
 40
53.5
1001
ACDBBLOCKREPETAG
1070
     1
1071
      152
1005
12F96F
  0
POINT
  5
12F970
  8
DOTS
 10
535.99999999987813
 20
-2051.999999999367
 30
0.0
1001
ACDBBLOCKREPETAG
1070
     1
1071
       39
1005
12F970
  0
ARC
  5
12F971
  8
OBJECT
 10
176.0
 20
-2051.999999999367
 30
0.0
 40
50.0
 50
28.819943000151429
 51
318.5020825118325
1001
ACDBBLOCKREPETAG
1070
     1
1071
       17
1005
12F971
  0
CIRCLE
  5
12F972
  8
OBJECT
 10
176.0
 20
-2051.999999999367
 30
0.0
 40
70.0
1001
ACDBBLOCKREPETAG
1070
     1
1071
       18
1005
12F972
  0
CIRCLE
  5
12F973
  8
OBJECT
 10
176.0
 20
-2051.999999999367
 30
0.0
 40
77.0
1001
ACDBBLOCKREPETAG
1070
     1
1071
       19
1005
12F973
  0
ARC
  5
12F974
  8
OBJECT
 10
176.0
 20
-2051.999999999367
 30
0.0
 40
80.0
 50
140.80503257378979
 51
219.1949674262101
1001
ACDBBLOCKREPETAG
1070
     1
1071
       20
1005
12F974
  0
LINE
  5
12F975
  8
OBJECT
 10
114.0
 20
-2006.338199772043
 30
0.0
 11
114.0
 21
-1971.999999999367
 31
0.0
1001
ACDBBLOCKREPETAG
1070
     1
1071
       21
1005
12F975
  0
LINE
  5
12F976
  8
OBJECT
 10
238.0
 20
-1989.999999999367
 30
0.0
 11
238.0
 21
-1971.999999999367
 31
0.0
1001
ACDBBLOCKREPETAG
1070
     1
1071
       22
1005
12F976
  0
LINE
  5
12F977
  8
OBJECT
 10
238.0
 20
-1989.999999999367
 30
0.0
 11
256.0
 21
-1989.999999999367
 31
0.0
1001
ACDBBLOCKREPETAG
1070
     1
1071
       24
1005
12F977
  0
LINE
  5
12F978
  8
OBJECT
 10
238.0
 20
-2113.999999999367
 30
0.0
 11
256.0
 21
-2113.999999999367
 31
0.0
1001
ACDBBLOCKREPETAG
1070
     1
1071
       25
1005
12F978
  0
LINE
  5
12F979
  8
OBJECT
 10
238.0
 20
-2113.999999999367
 30
0.0
 11
238.0
 21
-2131.999999999367
 31
0.0
1001
ACDBBLOCKREPETAG
1070
     1
1071
       27
1005
12F979
  0
LINE
  5
12F97A
  8
OBJECT
 10
114.0
 20
-2097.6618002266919
 30
0.0
 11
114.0
 21
-2131.999999999367
 31
0.0
1001
ACDBBLOCKREPETAG
1070
     1
1071
       28
1005
12F97A
  0
LINE
  5
12F97B
  8
OBJECT
 10
230.44722215136429
 20
-2106.4472221507308
 30
0.0
 11
238.0
 21
-2113.999999999367
 31
0.0
1001
ACDBBLOCKREPETAG
1070
     1
1071
       37
1005
12F97B
  0
LINE
  5
12F97C
  8
OBJECT
 10
230.44722215136429
 20
-1997.552777848003
 30
0.0
 11
238.0
 21
-1989.999999999367
 31
0.0
1001
ACDBBLOCKREPETAG
1070
     1
1071
       38
1005
12F97C
  0
ARC
  5
12F97D
  8
OBJECT
 10
183.12893698284461
 20
-2075.420304692052
 30
0.0
 40
60.031113246032611
 50
44.070201304185751
 51
52.339361060985823
1001
ACDBBLOCKREPETAG
1070
     1
1071
      131
1005
12F97D
  0
LINE
  5
12F97E
  8
OBJECT
 10
219.8988850081827
 20
-2082.5800244440661
 30
0.0
 11
198.74629179048679
 21
-2072.2699479583462
 31
0.0
1001
ACDBBLOCKREPETAG
1070
     1
1071
      132
1005
12F97E
  0
LINE
  5
12F97F
  8
OBJECT
 10
216.7181390188282
 20
-2086.7027830987581
 30
0.0
 11
199.3286227368699
 21
-2078.2268843595521
 31
0.0
1001
ACDBBLOCKREPETAG
1070
     1
1071
      133
1005
12F97F
  0
LINE
  5
12F980
  8
OBJECT
 10
219.80694712379409
 20
-2027.8970669061241
 30
0.0
 11
210.01000000000019
 21
-2027.8970669061241
 31
0.0
1001
ACDBBLOCKREPETAG
1070
     1
1071
      134
1005
12F980
  0
LINE
  5
12F981
  8
OBJECT
 10
210.01000000000019
 20
-2027.8970669061241
 30
0.0
 11
194.47122736651181
 21
-2065.410982540503
 31
0.0
1001
ACDBBLOCKREPETAG
1070
     1
1071
      135
1005
12F981
  0
ARC
  5
12F982
  8
OBJECT
 10
203.7100226916227
 20
-2069.2378168641521
 30
0.0
 40
10.0
 50
157.50000000017559
 51
244.01473437021031
1001
ACDBBLOCKREPETAG
1070
     1
1071
      136
1005
12F982
  0
ARC
  5
12F983
  8
OBJECT
 10
201.8132718242104
 20
-2065.977600743463
 30
0.0
 40
7.0
 50
157.50000000017559
 51
244.01473377496541
1001
ACDBBLOCKREPETAG
1070
     1
1071
      137
1005
12F983
  0
CIRCLE
  5
12F984
  8
OBJECT
 10
176.0
 20
-2051.999999999367
 30
0.0
 40
53.5
1001
ACDBBLOCKREPETAG
1070
     1
1071
      152
1005
12F984
  0
POINT
  5
12F985
  8
DOTS
 10
176.0
 20
-2051.999999999367
 30
0.0
1001
ACDBBLOCKREPETAG
1070
     1
1071
       39
1005
12F985
  0
ARC
  5
12F986
  8
OBJECT
 10
535.99999999987813
 20
-1587.999999999525
 30
0.0
 40
50.0
 50
28.819943000140022
 51
318.50208251184222
1001
ACDBBLOCKREPETAG
1070
     1
1071
       17
1005
12F986
  0
CIRCLE
  5
12F987
  8
OBJECT
 10
535.99999999987813
 20
-1587.999999999525
 30
0.0
 40
70.0
1001
ACDBBLOCKREPETAG
1070
     1
1071
       18
1005
12F987
  0
CIRCLE
  5
12F988
  8
OBJECT
 10
535.99999999987813
 20
-1587.999999999525
 30
0.0
 40
77.0
1001
ACDBBLOCKREPETAG
1070
     1
1071
       19
1005
12F988
  0
ARC
  5
12F989
  8
OBJECT
 10
535.99999999987813
 20
-1587.999999999525
 30
0.0
 40
80.0
 50
140.8050325737787
 51
219.1949674262213
1001
ACDBBLOCKREPETAG
1070
     1
1071
       20
1005
12F989
  0
LINE
  5
12F98A
  8
OBJECT
 10
473.99999999987801
 20
-1542.3381997722011
 30
0.0
 11
473.99999999987801
 21
-1507.999999999525
 31
0.0
1001
ACDBBLOCKREPETAG
1070
     1
1071
       21
1005
12F98A
  0
LINE
  5
12F98B
  8
OBJECT
 10
597.99999999987813
 20
-1525.999999999525
 30
0.0
 11
597.99999999987813
 21
-1507.999999999525
 31
0.0
1001
ACDBBLOCKREPETAG
1070
     1
1071
       22
1005
12F98B
  0
LINE
  5
12F98C
  8
OBJECT
 10
597.99999999987813
 20
-1525.999999999525
 30
0.0
 11
615.99999999987813
 21
-1525.999999999525
 31
0.0
1001
ACDBBLOCKREPETAG
1070
     1
1071
       24
1005
12F98C
  0
LINE
  5
12F98D
  8
OBJECT
 10
597.99999999987813
 20
-1649.999999999525
 30
0.0
 11
615.99999999987813
 21
-1649.999999999525
 31
0.0
1001
ACDBBLOCKREPETAG
1070
     1
1071
       25
1005
12F98D
  0
LINE
  5
12F98E
  8
OBJECT
 10
597.99999999987813
 20
-1649.999999999525
 30
0.0
 11
597.99999999987813
 21
-1667.999999999525
 31
0.0
1001
ACDBBLOCKREPETAG
1070
     1
1071
       27
1005
12F98E
  0
LINE
  5
12F98F
  8
OBJECT
 10
473.99999999987801
 20
-1633.6618002268499
 30
0.0
 11
473.99999999987801
 21
-1667.999999999525
 31
0.0
1001
ACDBBLOCKREPETAG
1070
     1
1071
       28
1005
12F98F
  0
LINE
  5
12F990
  8
OBJECT
 10
590.44722215124227
 20
-1642.447222150889
 30
0.0
 11
597.99999999987813
 21
-1649.999999999525
 31
0.0
1001
ACDBBLOCKREPETAG
1070
     1
1071
       37
1005
12F990
  0
LINE
  5
12F991
  8
OBJECT
 10
590.44722215124227
 20
-1533.552777848161
 30
0.0
 11
597.99999999987813
 21
-1525.999999999525
 31
0.0
1001
ACDBBLOCKREPETAG
1070
     1
1071
       38
1005
12F991
  0
ARC
  5
12F992
  8
OBJECT
 10
543.12893698272273
 20
-1611.4203046922109
 30
0.0
 40
60.031113246032611
 50
44.070201304183492
 51
52.339361060976579
1001
ACDBBLOCKREPETAG
1070
     1
1071
      131
1005
12F992
  0
LINE
  5
12F993
  8
OBJECT
 10
579.8988850080608
 20
-1618.5800244442239
 30
0.0
 11
558.74629179036481
 21
-1608.269947958504
 31
0.0
1001
ACDBBLOCKREPETAG
1070
     1
1071
      132
1005
12F993
  0
LINE
  5
12F994
  8
OBJECT
 10
576.71813901870621
 20
-1622.702783098915
 30
0.0
 11
559.328622736748
 21
-1614.2268843597101
 31
0.0
1001
ACDBBLOCKREPETAG
1070
     1
1071
      133
1005
12F994
  0
LINE
  5
12F995
  8
OBJECT
 10
579.8069471236721
 20
-1563.8970669062819
 30
0.0
 11
570.00999999987835
 21
-1563.8970669062819
 31
0.0
1001
ACDBBLOCKREPETAG
1070
     1
1071
      134
1005
12F995
  0
LINE
  5
12F996
  8
OBJECT
 10
570.00999999987835
 20
-1563.8970669062819
 30
0.0
 11
554.47122736638994
 21
-1601.4109825406611
 31
0.0
1001
ACDBBLOCKREPETAG
1070
     1
1071
      135
1005
12F996
  0
ARC
  5
12F997
  8
OBJECT
 10
563.71002269150085
 20
-1605.2378168643099
 30
0.0
 40
10.0
 50
157.5000000001636
 51
244.01473437020459
1001
ACDBBLOCKREPETAG
1070
     1
1071
      136
1005
12F997
  0
ARC
  5
12F998
  8
OBJECT
 10
561.81327182408836
 20
-1601.977600743621
 30
0.0
 40
7.0
 50
157.5000000001636
 51
244.01473377496251
1001
ACDBBLOCKREPETAG
1070
     1
1071
      137
1005
12F998
  0
CIRCLE
  5
12F999
  8
OBJECT
 10
535.99999999987813
 20
-1587.999999999525
 30
0.0
 40
53.5
1001
ACDBBLOCKREPETAG
1070
     1
1071
      152
1005
12F999
  0
POINT
  5
12F99A
  8
DOTS
 10
535.99999999987813
 20
-1587.999999999525
 30
0.0
1001
ACDBBLOCKREPETAG
1070
     1
1071
       39
1005
12F99A
  0
ARC
  5
12F99B
  8
OBJECT
 10
176.0
 20
-1587.999999999525
 30
0.0
 40
50.0
 50
28.819943000140022
 51
318.50208251184222
1001
ACDBBLOCKREPETAG
1070
     1
1071
       17
1005
12F99B
  0
CIRCLE
  5
12F99C
  8
OBJECT
 10
176.0
 20
-1587.999999999525
 30
0.0
 40
70.0
1001
ACDBBLOCKREPETAG
1070
     1
1071
       18
1005
12F99C
  0
CIRCLE
  5
12F99D
  8
OBJECT
 10
176.0
 20
-1587.999999999525
 30
0.0
 40
77.0
1001
ACDBBLOCKREPETAG
1070
     1
1071
       19
1005
12F99D
  0
ARC
  5
12F99E
  8
OBJECT
 10
176.0
 20
-1587.999999999525
 30
0.0
 40
80.0
 50
140.80503257377961
 51
219.1949674262203
1001
ACDBBLOCKREPETAG
1070
     1
1071
       20
1005
12F99E
  0
LINE
  5
12F99F
  8
OBJECT
 10
114.0
 20
-1542.3381997722011
 30
0.0
 11
114.0
 21
-1507.999999999525
 31
0.0
1001
ACDBBLOCKREPETAG
1070
     1
1071
       21
1005
12F99F
  0
LINE
  5
12F9A0
  8
OBJECT
 10
238.0
 20
-1525.999999999525
 30
0.0
 11
238.0
 21
-1507.999999999525
 31
0.0
1001
ACDBBLOCKREPETAG
1070
     1
1071
       22
1005
12F9A0
  0
LINE
  5
12F9A1
  8
OBJECT
 10
238.0
 20
-1525.999999999525
 30
0.0
 11
256.0
 21
-1525.999999999525
 31
0.0
1001
ACDBBLOCKREPETAG
1070
     1
1071
       24
1005
12F9A1
  0
LINE
  5
12F9A2
  8
OBJECT
 10
238.0
 20
-1649.999999999525
 30
0.0
 11
256.0
 21
-1649.999999999525
 31
0.0
1001
ACDBBLOCKREPETAG
1070
     1
1071
       25
1005
12F9A2
  0
LINE
  5
12F9A3
  8
OBJECT
 10
238.0
 20
-1649.999999999525
 30
0.0
 11
238.0
 21
-1667.999999999525
 31
0.0
1001
ACDBBLOCKREPETAG
1070
     1
1071
       27
1005
12F9A3
  0
LINE
  5
12F9A4
  8
OBJECT
 10
114.0
 20
-1633.6618002268499
 30
0.0
 11
114.0
 21
-1667.999999999525
 31
0.0
1001
ACDBBLOCKREPETAG
1070
     1
1071
       28
1005
12F9A4
  0
LINE
  5
12F9A5
  8
OBJECT
 10
230.44722215136429
 20
-1642.447222150889
 30
0.0
 11
238.0
 21
-1649.999999999525
 31
0.0
1001
ACDBBLOCKREPETAG
1070
     1
1071
       37
1005
12F9A5
  0
LINE
  5
12F9A6
  8
OBJECT
 10
230.44722215136429
 20
-1533.552777848161
 30
0.0
 11
238.0
 21
-1525.999999999525
 31
0.0
1001
ACDBBLOCKREPETAG
1070
     1
1071
       38
1005
12F9A6
  0
ARC
  5
12F9A7
  8
OBJECT
 10
183.12893698284461
 20
-1611.4203046922109
 30
0.0
 40
60.031113246032611
 50
44.070201304185751
 51
52.339361060977858
1001
ACDBBLOCKREPETAG
1070
     1
1071
      131
1005
12F9A7
  0
LINE
  5
12F9A8
  8
OBJECT
 10
219.8988850081827
 20
-1618.5800244442239
 30
0.0
 11
198.74629179048679
 21
-1608.269947958504
 31
0.0
1001
ACDBBLOCKREPETAG
1070
     1
1071
      132
1005
12F9A8
  0
LINE
  5
12F9A9
  8
OBJECT
 10
216.7181390188282
 20
-1622.702783098915
 30
0.0
 11
199.3286227368699
 21
-1614.2268843597101
 31
0.0
1001
ACDBBLOCKREPETAG
1070
     1
1071
      133
1005
12F9A9
  0
LINE
  5
12F9AA
  8
OBJECT
 10
219.80694712379409
 20
-1563.8970669062819
 30
0.0
 11
210.01000000000019
 21
-1563.8970669062819
 31
0.0
1001
ACDBBLOCKREPETAG
1070
     1
1071
      134
1005
12F9AA
  0
LINE
  5
12F9AB
  8
OBJECT
 10
210.01000000000019
 20
-1563.8970669062819
 30
0.0
 11
194.47122736651181
 21
-1601.4109825406611
 31
0.0
1001
ACDBBLOCKREPETAG
1070
     1
1071
      135
1005
12F9AB
  0
ARC
  5
12F9AC
  8
OBJECT
 10
203.7100226916227
 20
-1605.2378168643099
 30
0.0
 40
10.0
 50
157.5000000001636
 51
244.01473437020459
1001
ACDBBLOCKREPETAG
1070
     1
1071
      136
1005
12F9AC
  0
ARC
  5
12F9AD
  8
OBJECT
 10
201.8132718242104
 20
-1601.977600743621
 30
0.0
 40
7.0
 50
157.5000000001636
 51
244.01473377496541
1001
ACDBBLOCKREPETAG
1070
     1
1071
      137
1005
12F9AD
  0
CIRCLE
  5
12F9AE
  8
OBJECT
 10
176.0
 20
-1587.999999999525
 30
0.0
 40
53.5
1001
ACDBBLOCKREPETAG
1070
     1
1071
      152
1005
12F9AE
  0
POINT
  5
12F9AF
  8
DOTS
 10
176.0
 20
-1587.999999999525
 30
0.0
1001
ACDBBLOCKREPETAG
1070
     1
1071
       39
1005
12F9AF
  0
ARC
  5
12F9B0
  8
OBJECT
 10
535.99999999987813
 20
-1123.999999999684
 30
0.0
 40
50.0
 50
28.819943000140022
 51
318.50208251184222
1001
ACDBBLOCKREPETAG
1070
     1
1071
       17
1005
12F9B0
  0
CIRCLE
  5
12F9B1
  8
OBJECT
 10
535.99999999987813
 20
-1123.999999999684
 30
0.0
 40
70.0
1001
ACDBBLOCKREPETAG
1070
     1
1071
       18
1005
12F9B1
  0
CIRCLE
  5
12F9B2
  8
OBJECT
 10
535.99999999987813
 20
-1123.999999999684
 30
0.0
 40
77.0
1001
ACDBBLOCKREPETAG
1070
     1
1071
       19
1005
12F9B2
  0
ARC
  5
12F9B3
  8
OBJECT
 10
535.99999999987813
 20
-1123.999999999684
 30
0.0
 40
80.0
 50
140.8050325737787
 51
219.1949674262213
1001
ACDBBLOCKREPETAG
1070
     1
1071
       20
1005
12F9B3
  0
LINE
  5
12F9B4
  8
OBJECT
 10
473.99999999987801
 20
-1078.3381997723591
 30
0.0
 11
473.99999999987801
 21
-1043.999999999684
 31
0.0
1001
ACDBBLOCKREPETAG
1070
     1
1071
       21
1005
12F9B4
  0
LINE
  5
12F9B5
  8
OBJECT
 10
597.99999999987813
 20
-1061.999999999684
 30
0.0
 11
597.99999999987813
 21
-1043.999999999684
 31
0.0
1001
ACDBBLOCKREPETAG
1070
     1
1071
       22
1005
12F9B5
  0
LINE
  5
12F9B6
  8
OBJECT
 10
597.99999999987813
 20
-1061.999999999684
 30
0.0
 11
615.99999999987813
 21
-1061.999999999684
 31
0.0
1001
ACDBBLOCKREPETAG
1070
     1
1071
       24
1005
12F9B6
  0
LINE
  5
12F9B7
  8
OBJECT
 10
597.99999999987813
 20
-1185.999999999683
 30
0.0
 11
615.99999999987813
 21
-1185.999999999683
 31
0.0
1001
ACDBBLOCKREPETAG
1070
     1
1071
       25
1005
12F9B7
  0
LINE
  5
12F9B8
  8
OBJECT
 10
597.99999999987813
 20
-1185.999999999683
 30
0.0
 11
597.99999999987813
 21
-1203.999999999683
 31
0.0
1001
ACDBBLOCKREPETAG
1070
     1
1071
       27
1005
12F9B8
  0
LINE
  5
12F9B9
  8
OBJECT
 10
473.99999999987801
 20
-1169.6618002270079
 30
0.0
 11
473.99999999987801
 21
-1203.999999999683
 31
0.0
1001
ACDBBLOCKREPETAG
1070
     1
1071
       28
1005
12F9B9
  0
LINE
  5
12F9BA
  8
OBJECT
 10
590.44722215124227
 20
-1178.447222151048
 30
0.0
 11
597.99999999987813
 21
-1185.999999999683
 31
0.0
1001
ACDBBLOCKREPETAG
1070
     1
1071
       37
1005
12F9BA
  0
LINE
  5
12F9BB
  8
OBJECT
 10
590.44722215124227
 20
-1069.552777848319
 30
0.0
 11
597.99999999987813
 21
-1061.999999999684
 31
0.0
1001
ACDBBLOCKREPETAG
1070
     1
1071
       38
1005
12F9BB
  0
ARC
  5
12F9BC
  8
OBJECT
 10
543.12893698272273
 20
-1147.4203046923681
 30
0.0
 40
60.031113246032611
 50
44.070201304183492
 51
52.339361060976579
1001
ACDBBLOCKREPETAG
1070
     1
1071
      131
1005
12F9BC
  0
LINE
  5
12F9BD
  8
OBJECT
 10
579.8988850080608
 20
-1154.5800244443819
 30
0.0
 11
558.74629179036481
 21
-1144.2699479586629
 31
0.0
1001
ACDBBLOCKREPETAG
1070
     1
1071
      132
1005
12F9BD
  0
LINE
  5
12F9BE
  8
OBJECT
 10
576.71813901870621
 20
-1158.7027830990751
 30
0.0
 11
559.328622736748
 21
-1150.226884359869
 31
0.0
1001
ACDBBLOCKREPETAG
1070
     1
1071
      133
1005
12F9BE
  0
LINE
  5
12F9BF
  8
OBJECT
 10
579.8069471236721
 20
-1099.8970669064399
 30
0.0
 11
570.00999999987835
 21
-1099.8970669064399
 31
0.0
1001
ACDBBLOCKREPETAG
1070
     1
1071
      134
1005
12F9BF
  0
LINE
  5
12F9C0
  8
OBJECT
 10
570.00999999987835
 20
-1099.8970669064399
 30
0.0
 11
554.47122736638994
 21
-1137.41098254082
 31
0.0
1001
ACDBBLOCKREPETAG
1070
     1
1071
      135
1005
12F9C0
  0
ARC
  5
12F9C1
  8
OBJECT
 10
563.71002269150085
 20
-1141.237816864468
 30
0.0
 40
10.0
 50
157.5000000001636
 51
244.01473437020459
1001
ACDBBLOCKREPETAG
1070
     1
1071
      136
1005
12F9C1
  0
ARC
  5
12F9C2
  8
OBJECT
 10
561.81327182408836
 20
-1137.9776007437799
 30
0.0
 40
7.0
 50
157.5000000001636
 51
244.01473377496251
1001
ACDBBLOCKREPETAG
1070
     1
1071
      137
1005
12F9C2
  0
CIRCLE
  5
12F9C3
  8
OBJECT
 10
535.99999999987813
 20
-1123.999999999684
 30
0.0
 40
53.5
1001
ACDBBLOCKREPETAG
1070
     1
1071
      152
1005
12F9C3
  0
POINT
  5
12F9C4
  8
DOTS
 10
535.99999999987813
 20
-1123.999999999684
 30
0.0
1001
ACDBBLOCKREPETAG
1070
     1
1071
       39
1005
12F9C4
  0
ARC
  5
12F9C5
  8
OBJECT
 10
175.9999999999998
 20
-1123.999999999684
 30
0.0
 40
50.0
 50
28.819943000140022
 51
318.50208251184222
1001
ACDBBLOCKREPETAG
1070
     1
1071
       17
1005
12F9C5
  0
CIRCLE
  5
12F9C6
  8
OBJECT
 10
175.9999999999998
 20
-1123.999999999684
 30
0.0
 40
70.0
1001
ACDBBLOCKREPETAG
1070
     1
1071
       18
1005
12F9C6
  0
CIRCLE
  5
12F9C7
  8
OBJECT
 10
175.9999999999998
 20
-1123.999999999684
 30
0.0
 40
77.0
1001
ACDBBLOCKREPETAG
1070
     1
1071
       19
1005
12F9C7
  0
ARC
  5
12F9C8
  8
OBJECT
 10
175.9999999999998
 20
-1123.999999999684
 30
0.0
 40
80.0
 50
140.80503257377961
 51
219.1949674262203
1001
ACDBBLOCKREPETAG
1070
     1
1071
       20
1005
12F9C8
  0
LINE
  5
12F9C9
  8
OBJECT
 10
113.9999999999998
 20
-1078.3381997723591
 30
0.0
 11
113.9999999999998
 21
-1043.999999999684
 31
0.0
1001
ACDBBLOCKREPETAG
1070
     1
1071
       21
1005
12F9C9
  0
LINE
  5
12F9CA
  8
OBJECT
 10
237.99999999999989
 20
-1061.999999999684
 30
0.0
 11
237.99999999999989
 21
-1043.999999999684
 31
0.0
1001
ACDBBLOCKREPETAG
1070
     1
1071
       22
1005
12F9CA
  0
LINE
  5
12F9CB
  8
OBJECT
 10
237.99999999999989
 20
-1061.999999999684
 30
0.0
 11
255.9999999999998
 21
-1061.999999999684
 31
0.0
1001
ACDBBLOCKREPETAG
1070
     1
1071
       24
1005
12F9CB
  0
LINE
  5
12F9CC
  8
OBJECT
 10
237.99999999999989
 20
-1185.999999999683
 30
0.0
 11
255.9999999999998
 21
-1185.999999999683
 31
0.0
1001
ACDBBLOCKREPETAG
1070
     1
1071
       25
1005
12F9CC
  0
LINE
  5
12F9CD
  8
OBJECT
 10
237.99999999999989
 20
-1185.999999999683
 30
0.0
 11
237.99999999999989
 21
-1203.999999999683
 31
0.0
1001
ACDBBLOCKREPETAG
1070
     1
1071
       27
1005
12F9CD
  0
LINE
  5
12F9CE
  8
OBJECT
 10
113.9999999999998
 20
-1169.6618002270079
 30
0.0
 11
113.9999999999998
 21
-1203.999999999683
 31
0.0
1001
ACDBBLOCKREPETAG
1070
     1
1071
       28
1005
12F9CE
  0
LINE
  5
12F9CF
  8
OBJECT
 10
230.44722215136409
 20
-1178.447222151048
 30
0.0
 11
237.99999999999989
 21
-1185.999999999683
 31
0.0
1001
ACDBBLOCKREPETAG
1070
     1
1071
       37
1005
12F9CF
  0
LINE
  5
12F9D0
  8
OBJECT
 10
230.44722215136409
 20
-1069.552777848319
 30
0.0
 11
237.99999999999989
 21
-1061.999999999684
 31
0.0
1001
ACDBBLOCKREPETAG
1070
     1
1071
       38
1005
12F9D0
  0
ARC
  5
12F9D1
  8
OBJECT
 10
183.12893698284441
 20
-1147.4203046923681
 30
0.0
 40
60.031113246032611
 50
44.070201304185751
 51
52.339361060977858
1001
ACDBBLOCKREPETAG
1070
     1
1071
      131
1005
12F9D1
  0
LINE
  5
12F9D2
  8
OBJECT
 10
219.8988850081825
 20
-1154.5800244443819
 30
0.0
 11
198.74629179048651
 21
-1144.2699479586629
 31
0.0
1001
ACDBBLOCKREPETAG
1070
     1
1071
      132
1005
12F9D2
  0
LINE
  5
12F9D3
  8
OBJECT
 10
216.71813901882811
 20
-1158.7027830990751
 30
0.0
 11
199.3286227368697
 21
-1150.226884359869
 31
0.0
1001
ACDBBLOCKREPETAG
1070
     1
1071
      133
1005
12F9D3
  0
LINE
  5
12F9D4
  8
OBJECT
 10
219.80694712379389
 20
-1099.8970669064399
 30
0.0
 11
210.00999999999999
 21
-1099.8970669064399
 31
0.0
1001
ACDBBLOCKREPETAG
1070
     1
1071
      134
1005
12F9D4
  0
LINE
  5
12F9D5
  8
OBJECT
 10
210.00999999999999
 20
-1099.8970669064399
 30
0.0
 11
194.47122736651161
 21
-1137.41098254082
 31
0.0
1001
ACDBBLOCKREPETAG
1070
     1
1071
      135
1005
12F9D5
  0
ARC
  5
12F9D6
  8
OBJECT
 10
203.7100226916225
 20
-1141.237816864468
 30
0.0
 40
10.0
 50
157.5000000001636
 51
244.01473437020459
1001
ACDBBLOCKREPETAG
1070
     1
1071
      136
1005
12F9D6
  0
ARC
  5
12F9D7
  8
OBJECT
 10
201.81327182421029
 20
-1137.9776007437799
 30
0.0
 40
7.0
 50
157.5000000001636
 51
244.01473377496541
1001
ACDBBLOCKREPETAG
1070
     1
1071
      137
1005
12F9D7
  0
CIRCLE
  5
12F9D8
  8
OBJECT
 10
175.9999999999998
 20
-1123.999999999684
 30
0.0
 40
53.5
1001
ACDBBLOCKREPETAG
1070
     1
1071
      152
1005
12F9D8
  0
POINT
  5
12F9D9
  8
DOTS
 10
175.9999999999998
 20
-1123.999999999684
 30
0.0
1001
ACDBBLOCKREPETAG
1070
     1
1071
       39
1005
12F9D9
  0
ARC
  5
12F9DA
  8
OBJECT
 10
535.99999999987813
 20
-659.99999999984175
 30
0.0
 40
50.0
 50
28.819943000140022
 51
318.50208251184222
1001
ACDBBLOCKREPETAG
1070
     1
1071
       17
1005
12F9DA
  0
CIRCLE
  5
12F9DB
  8
OBJECT
 10
535.99999999987813
 20
-659.99999999984175
 30
0.0
 40
70.0
1001
ACDBBLOCKREPETAG
1070
     1
1071
       18
1005
12F9DB
  0
CIRCLE
  5
12F9DC
  8
OBJECT
 10
535.99999999987813
 20
-659.99999999984175
 30
0.0
 40
77.0
1001
ACDBBLOCKREPETAG
1070
     1
1071
       19
1005
12F9DC
  0
ARC
  5
12F9DD
  8
OBJECT
 10
535.99999999987813
 20
-659.99999999984175
 30
0.0
 40
80.0
 50
140.8050325737787
 51
219.1949674262213
1001
ACDBBLOCKREPETAG
1070
     1
1071
       20
1005
12F9DD
  0
LINE
  5
12F9DE
  8
OBJECT
 10
473.99999999987801
 20
-614.33819977251721
 30
0.0
 11
473.99999999987801
 21
-579.99999999984175
 31
0.0
1001
ACDBBLOCKREPETAG
1070
     1
1071
       21
1005
12F9DE
  0
LINE
  5
12F9DF
  8
OBJECT
 10
597.99999999987813
 20
-597.99999999984175
 30
0.0
 11
597.99999999987813
 21
-579.99999999984175
 31
0.0
1001
ACDBBLOCKREPETAG
1070
     1
1071
       22
1005
12F9DF
  0
LINE
  5
12F9E0
  8
OBJECT
 10
597.99999999987813
 20
-597.99999999984175
 30
0.0
 11
615.99999999987813
 21
-597.99999999984175
 31
0.0
1001
ACDBBLOCKREPETAG
1070
     1
1071
       24
1005
12F9E0
  0
LINE
  5
12F9E1
  8
OBJECT
 10
597.99999999987813
 20
-721.99999999984175
 30
0.0
 11
615.99999999987813
 21
-721.99999999984175
 31
0.0
1001
ACDBBLOCKREPETAG
1070
     1
1071
       25
1005
12F9E1
  0
LINE
  5
12F9E2
  8
OBJECT
 10
597.99999999987813
 20
-721.99999999984175
 30
0.0
 11
597.99999999987813
 21
-739.99999999984175
 31
0.0
1001
ACDBBLOCKREPETAG
1070
     1
1071
       27
1005
12F9E2
  0
LINE
  5
12F9E3
  8
OBJECT
 10
473.99999999987801
 20
-705.66180022716617
 30
0.0
 11
473.99999999987801
 21
-739.99999999984175
 31
0.0
1001
ACDBBLOCKREPETAG
1070
     1
1071
       28
1005
12F9E3
  0
LINE
  5
12F9E4
  8
OBJECT
 10
590.44722215124227
 20
-714.44722215120601
 30
0.0
 11
597.99999999987813
 21
-721.99999999984175
 31
0.0
1001
ACDBBLOCKREPETAG
1070
     1
1071
       37
1005
12F9E4
  0
LINE
  5
12F9E5
  8
OBJECT
 10
590.44722215124227
 20
-605.55277784847738
 30
0.0
 11
597.99999999987813
 21
-597.99999999984175
 31
0.0
1001
ACDBBLOCKREPETAG
1070
     1
1071
       38
1005
12F9E5
  0
ARC
  5
12F9E6
  8
OBJECT
 10
543.12893698272273
 20
-683.42030469252666
 30
0.0
 40
60.031113246032611
 50
44.070201304183492
 51
52.339361060976579
1001
ACDBBLOCKREPETAG
1070
     1
1071
      131
1005
12F9E6
  0
LINE
  5
12F9E7
  8
OBJECT
 10
579.8988850080608
 20
-690.58002444453996
 30
0.0
 11
558.74629179036481
 21
-680.26994795882092
 31
0.0
1001
ACDBBLOCKREPETAG
1070
     1
1071
      132
1005
12F9E7
  0
LINE
  5
12F9E8
  8
OBJECT
 10
576.71813901870621
 20
-694.70278309923265
 30
0.0
 11
559.328622736748
 21
-686.22688436002682
 31
0.0
1001
ACDBBLOCKREPETAG
1070
     1
1071
      133
1005
12F9E8
  0
LINE
  5
12F9E9
  8
OBJECT
 10
579.8069471236721
 20
-635.89706690659841
 30
0.0
 11
570.00999999987835
 21
-635.89706690659841
 31
0.0
1001
ACDBBLOCKREPETAG
1070
     1
1071
      134
1005
12F9E9
  0
LINE
  5
12F9EA
  8
OBJECT
 10
570.00999999987835
 20
-635.89706690659841
 30
0.0
 11
554.47122736638994
 21
-673.41098254097767
 31
0.0
1001
ACDBBLOCKREPETAG
1070
     1
1071
      135
1005
12F9EA
  0
ARC
  5
12F9EB
  8
OBJECT
 10
563.71002269150085
 20
-677.23781686462644
 30
0.0
 40
10.0
 50
157.5000000001636
 51
244.01473437020459
1001
ACDBBLOCKREPETAG
1070
     1
1071
      136
1005
12F9EB
  0
ARC
  5
12F9EC
  8
OBJECT
 10
561.81327182408836
 20
-673.97760074393761
 30
0.0
 40
7.0
 50
157.5000000001636
 51
244.01473377496251
1001
ACDBBLOCKREPETAG
1070
     1
1071
      137
1005
12F9EC
  0
CIRCLE
  5
12F9ED
  8
OBJECT
 10
535.99999999987813
 20
-659.99999999984175
 30
0.0
 40
53.5
1001
ACDBBLOCKREPETAG
1070
     1
1071
      152
1005
12F9ED
  0
POINT
  5
12F9EE
  8
DOTS
 10
535.99999999987813
 20
-659.99999999984175
 30
0.0
1001
ACDBBLOCKREPETAG
1070
     1
1071
       39
1005
12F9EE
  0
ARC
  5
12F9EF
  8
OBJECT
 10
175.99999999999989
 20
-659.99999999984175
 30
0.0
 40
50.0
 50
28.819943000140022
 51
318.50208251184222
1001
ACDBBLOCKREPETAG
1070
     1
1071
       17
1005
12F9EF
  0
CIRCLE
  5
12F9F0
  8
OBJECT
 10
175.99999999999989
 20
-659.99999999984175
 30
0.0
 40
70.0
1001
ACDBBLOCKREPETAG
1070
     1
1071
       18
1005
12F9F0
  0
CIRCLE
  5
12F9F1
  8
OBJECT
 10
175.99999999999989
 20
-659.99999999984175
 30
0.0
 40
77.0
1001
ACDBBLOCKREPETAG
1070
     1
1071
       19
1005
12F9F1
  0
ARC
  5
12F9F2
  8
OBJECT
 10
175.99999999999989
 20
-659.99999999984175
 30
0.0
 40
80.0
 50
140.80503257377961
 51
219.1949674262203
1001
ACDBBLOCKREPETAG
1070
     1
1071
       20
1005
12F9F2
  0
LINE
  5
12F9F3
  8
OBJECT
 10
113.9999999999999
 20
-614.33819977251721
 30
0.0
 11
113.9999999999999
 21
-579.99999999984175
 31
0.0
1001
ACDBBLOCKREPETAG
1070
     1
1071
       21
1005
12F9F3
  0
LINE
  5
12F9F4
  8
OBJECT
 10
237.99999999999989
 20
-597.99999999984175
 30
0.0
 11
237.99999999999989
 21
-579.99999999984175
 31
0.0
1001
ACDBBLOCKREPETAG
1070
     1
1071
       22
1005
12F9F4
  0
LINE
  5
12F9F5
  8
OBJECT
 10
237.99999999999989
 20
-597.99999999984175
 30
0.0
 11
256.0
 21
-597.99999999984175
 31
0.0
1001
ACDBBLOCKREPETAG
1070
     1
1071
       24
1005
12F9F5
  0
LINE
  5
12F9F6
  8
OBJECT
 10
237.99999999999989
 20
-721.99999999984175
 30
0.0
 11
256.0
 21
-721.99999999984175
 31
0.0
1001
ACDBBLOCKREPETAG
1070
     1
1071
       25
1005
12F9F6
  0
LINE
  5
12F9F7
  8
OBJECT
 10
237.99999999999989
 20
-721.99999999984175
 30
0.0
 11
237.99999999999989
 21
-739.99999999984175
 31
0.0
1001
ACDBBLOCKREPETAG
1070
     1
1071
       27
1005
12F9F7
  0
LINE
  5
12F9F8
  8
OBJECT
 10
113.9999999999999
 20
-705.66180022716617
 30
0.0
 11
113.9999999999999
 21
-739.99999999984175
 31
0.0
1001
ACDBBLOCKREPETAG
1070
     1
1071
       28
1005
12F9F8
  0
LINE
  5
12F9F9
  8
OBJECT
 10
230.4472221513642
 20
-714.44722215120601
 30
0.0
 11
237.99999999999989
 21
-721.99999999984175
 31
0.0
1001
ACDBBLOCKREPETAG
1070
     1
1071
       37
1005
12F9F9
  0
LINE
  5
12F9FA
  8
OBJECT
 10
230.4472221513642
 20
-605.55277784847738
 30
0.0
 11
237.99999999999989
 21
-597.99999999984175
 31
0.0
1001
ACDBBLOCKREPETAG
1070
     1
1071
       38
1005
12F9FA
  0
ARC
  5
12F9FB
  8
OBJECT
 10
183.12893698284441
 20
-683.42030469252666
 30
0.0
 40
60.031113246032611
 50
44.070201304185751
 51
52.339361060977858
1001
ACDBBLOCKREPETAG
1070
     1
1071
      131
1005
12F9FB
  0
LINE
  5
12F9FC
  8
OBJECT
 10
219.89888500818259
 20
-690.58002444453996
 30
0.0
 11
198.74629179048671
 21
-680.26994795882092
 31
0.0
1001
ACDBBLOCKREPETAG
1070
     1
1071
      132
1005
12F9FC
  0
LINE
  5
12F9FD
  8
OBJECT
 10
216.7181390188282
 20
-694.70278309923265
 30
0.0
 11
199.3286227368697
 21
-686.22688436002682
 31
0.0
1001
ACDBBLOCKREPETAG
1070
     1
1071
      133
1005
12F9FD
  0
LINE
  5
12F9FE
  8
OBJECT
 10
219.806947123794
 20
-635.89706690659841
 30
0.0
 11
210.01000000000019
 21
-635.89706690659841
 31
0.0
1001
ACDBBLOCKREPETAG
1070
     1
1071
      134
1005
12F9FE
  0
LINE
  5
12F9FF
  8
OBJECT
 10
210.01000000000019
 20
-635.89706690659841
 30
0.0
 11
194.4712273665117
 21
-673.41098254097767
 31
0.0
1001
ACDBBLOCKREPETAG
1070
     1
1071
      135
1005
12F9FF
  0
ARC
  5
12FA00
  8
OBJECT
 10
203.7100226916227
 20
-677.23781686462644
 30
0.0
 40
10.0
 50
157.5000000001636
 51
244.01473437020459
1001
ACDBBLOCKREPETAG
1070
     1
1071
      136
1005
12FA00
  0
ARC
  5
12FA01
  8
OBJECT
 10
201.8132718242104
 20
-673.97760074393761
 30
0.0
 40
7.0
 50
157.5000000001636
 51
244.01473377496541
1001
ACDBBLOCKREPETAG
1070
     1
1071
      137
1005
12FA01
  0
CIRCLE
  5
12FA02
  8
OBJECT
 10
175.99999999999989
 20
-659.99999999984175
 30
0.0
 40
53.5
1001
ACDBBLOCKREPETAG
1070
     1
1071
      152
1005
12FA02
  0
POINT
  5
12FA03
  8
DOTS
 10
175.99999999999989
 20
-659.99999999984175
 30
0.0
1001
ACDBBLOCKREPETAG
1070
     1
1071
       39
1005
12FA03
  0
ARC
  5
12FA04
  8
OBJECT
 10
535.99999999987813
 20
-196.0
 30
0.0
 40
50.0
 50
28.819943000140022
 51
318.50208251184102
1001
ACDBBLOCKREPETAG
1070
     1
1071
       17
1005
12FA04
  0
CIRCLE
  5
12FA05
  8
OBJECT
 10
535.99999999987813
 20
-196.0
 30
0.0
 40
70.0
1001
ACDBBLOCKREPETAG
1070
     1
1071
       18
1005
12FA05
  0
CIRCLE
  5
12FA06
  8
OBJECT
 10
535.99999999987813
 20
-196.0
 30
0.0
 40
77.0
1001
ACDBBLOCKREPETAG
1070
     1
1071
       19
1005
12FA06
  0
ARC
  5
12FA07
  8
OBJECT
 10
535.99999999987813
 20
-196.0
 30
0.0
 40
80.0
 50
140.80503257378001
 51
219.19496742621999
1001
ACDBBLOCKREPETAG
1070
     1
1071
       20
1005
12FA07
  0
LINE
  5
12FA08
  8
OBJECT
 10
473.99999999987801
 20
-150.33819977267541
 30
0.0
 11
473.99999999987801
 21
-116.0
 31
0.0
1001
ACDBBLOCKREPETAG
1070
     1
1071
       21
1005
12FA08
  0
LINE
  5
12FA09
  8
OBJECT
 10
597.99999999987813
 20
-134.0
 30
0.0
 11
597.99999999987813
 21
-116.0
 31
0.0
1001
ACDBBLOCKREPETAG
1070
     1
1071
       22
1005
12FA09
  0
LINE
  5
12FA0A
  8
OBJECT
 10
597.99999999987813
 20
-134.0
 30
0.0
 11
615.99999999987813
 21
-134.0
 31
0.0
1001
ACDBBLOCKREPETAG
1070
     1
1071
       24
1005
12FA0A
  0
LINE
  5
12FA0B
  8
OBJECT
 10
597.99999999987813
 20
-258.0
 30
0.0
 11
615.99999999987813
 21
-258.0
 31
0.0
1001
ACDBBLOCKREPETAG
1070
     1
1071
       25
1005
12FA0B
  0
LINE
  5
12FA0C
  8
OBJECT
 10
597.99999999987813
 20
-258.0
 30
0.0
 11
597.99999999987813
 21
-276.0
 31
0.0
1001
ACDBBLOCKREPETAG
1070
     1
1071
       27
1005
12FA0C
  0
LINE
  5
12FA0D
  8
OBJECT
 10
473.99999999987801
 20
-241.66180022732439
 30
0.0
 11
473.99999999987801
 21
-276.0
 31
0.0
1001
ACDBBLOCKREPETAG
1070
     1
1071
       28
1005
12FA0D
  0
LINE
  5
12FA0E
  8
OBJECT
 10
590.44722215124227
 20
-250.44722215136429
 30
0.0
 11
597.99999999987813
 21
-258.0
 31
0.0
1001
ACDBBLOCKREPETAG
1070
     1
1071
       37
1005
12FA0E
  0
LINE
  5
12FA0F
  8
OBJECT
 10
590.44722215124227
 20
-141.55277784863571
 30
0.0
 11
597.99999999987813
 21
-134.0
 31
0.0
1001
ACDBBLOCKREPETAG
1070
     1
1071
       38
1005
12FA0F
  0
ARC
  5
12FA10
  8
OBJECT
 10
543.12893698272273
 20
-219.42030469268499
 30
0.0
 40
60.031113246032611
 50
44.07020130418465
 51
52.339361060977581
1001
ACDBBLOCKREPETAG
1070
     1
1071
      131
1005
12FA10
  0
LINE
  5
12FA11
  8
OBJECT
 10
579.8988850080608
 20
-226.58002444469849
 30
0.0
 11
558.74629179036481
 21
-216.2699479589792
 31
0.0
1001
ACDBBLOCKREPETAG
1070
     1
1071
      132
1005
12FA11
  0
LINE
  5
12FA12
  8
OBJECT
 10
576.71813901870621
 20
-230.70278309939101
 30
0.0
 11
559.328622736748
 21
-222.2268843601851
 31
0.0
1001
ACDBBLOCKREPETAG
1070
     1
1071
      133
1005
12FA12
  0
LINE
  5
12FA13
  8
OBJECT
 10
579.8069471236721
 20
-171.89706690675661
 30
0.0
 11
570.00999999987835
 21
-171.89706690675661
 31
0.0
1001
ACDBBLOCKREPETAG
1070
     1
1071
      134
1005
12FA13
  0
LINE
  5
12FA14
  8
OBJECT
 10
570.00999999987835
 20
-171.89706690675661
 30
0.0
 11
554.47122736638994
 21
-209.41098254113609
 31
0.0
1001
ACDBBLOCKREPETAG
1070
     1
1071
      135
1005
12FA14
  0
ARC
  5
12FA15
  8
OBJECT
 10
563.71002269150085
 20
-213.23781686478469
 30
0.0
 40
10.0
 50
157.5000000001651
 51
244.01473437020459
1001
ACDBBLOCKREPETAG
1070
     1
1071
      136
1005
12FA15
  0
ARC
  5
12FA16
  8
OBJECT
 10
561.81327182408836
 20
-209.97760074409601
 30
0.0
 40
7.0
 50
157.5000000001651
 51
244.01473377496251
1001
ACDBBLOCKREPETAG
1070
     1
1071
      137
1005
12FA16
  0
CIRCLE
  5
12FA17
  8
OBJECT
 10
535.99999999987813
 20
-196.0
 30
0.0
 40
53.5
1001
ACDBBLOCKREPETAG
1070
     1
1071
      152
1005
12FA17
  0
POINT
  5
12FA18
  8
DOTS
 10
535.99999999987813
 20
-196.0
 30
0.0
1001
ACDBBLOCKREPETAG
1070
     1
1071
       39
1005
12FA18
  0
ARC
  5
12FA19
  8
OBJECT
 10
176.0
 20
-196.0
 30
0.0
 40
50.0
 50
28.819943000140022
 51
318.50208251184102
1001
ACDBBLOCKREPETAG
1070
     1
1071
       17
1005
12FA19
  0
CIRCLE
  5
12FA1A
  8
OBJECT
 10
176.0
 20
-196.0
 30
0.0
 40
70.0
1001
ACDBBLOCKREPETAG
1070
     1
1071
       18
1005
12FA1A
  0
CIRCLE
  5
12FA1B
  8
OBJECT
 10
176.0
 20
-196.0
 30
0.0
 40
77.0
1001
ACDBBLOCKREPETAG
1070
     1
1071
       19
1005
12FA1B
  0
ARC
  5
12FA1C
  8
OBJECT
 10
176.0
 20
-196.0
 30
0.0
 40
80.0
 50
140.80503257378101
 51
219.19496742621899
1001
ACDBBLOCKREPETAG
1070
     1
1071
       20
1005
12FA1C
  0
LINE
  5
12FA1D
  8
OBJECT
 10
114.0
 20
-150.33819977267541
 30
0.0
 11
114.0
 21
-116.0
 31
0.0
1001
ACDBBLOCKREPETAG
1070
     1
1071
       21
1005
12FA1D
  0
LINE
  5
12FA1E
  8
OBJECT
 10
238.0
 20
-134.0
 30
0.0
 11
238.0
 21
-116.0
 31
0.0
1001
ACDBBLOCKREPETAG
1070
     1
1071
       22
1005
12FA1E
  0
LINE
  5
12FA1F
  8
OBJECT
 10
238.0
 20
-134.0
 30
0.0
 11
256.0
 21
-134.0
 31
0.0
1001
ACDBBLOCKREPETAG
1070
     1
1071
       24
1005
12FA1F
  0
LINE
  5
12FA20
  8
OBJECT
 10
238.0
 20
-258.0
 30
0.0
 11
256.0
 21
-258.0
 31
0.0
1001
ACDBBLOCKREPETAG
1070
     1
1071
       25
1005
12FA20
  0
LINE
  5
12FA21
  8
OBJECT
 10
238.0
 20
-258.0
 30
0.0
 11
238.0
 21
-276.0
 31
0.0
1001
ACDBBLOCKREPETAG
1070
     1
1071
       27
1005
12FA21
  0
LINE
  5
12FA22
  8
OBJECT
 10
114.0
 20
-241.66180022732439
 30
0.0
 11
114.0
 21
-276.0
 31
0.0
1001
ACDBBLOCKREPETAG
1070
     1
1071
       28
1005
12FA22
  0
LINE
  5
12FA23
  8
OBJECT
 10
230.44722215136429
 20
-250.44722215136429
 30
0.0
 11
238.0
 21
-258.0
 31
0.0
1001
ACDBBLOCKREPETAG
1070
     1
1071
       37
1005
12FA23
  0
LINE
  5
12FA24
  8
OBJECT
 10
230.44722215136429
 20
-141.55277784863571
 30
0.0
 11
238.0
 21
-134.0
 31
0.0
1001
ACDBBLOCKREPETAG
1070
     1
1071
       38
1005
12FA24
  0
ARC
  5
12FA25
  8
OBJECT
 10
183.12893698284461
 20
-219.42030469268499
 30
0.0
 40
60.031113246032611
 50
44.070201304186917
 51
52.339361060978852
1001
ACDBBLOCKREPETAG
1070
     1
1071
      131
1005
12FA25
  0
LINE
  5
12FA26
  8
OBJECT
 10
219.8988850081827
 20
-226.58002444469849
 30
0.0
 11
198.74629179048679
 21
-216.2699479589792
 31
0.0
1001
ACDBBLOCKREPETAG
1070
     1
1071
      132
1005
12FA26
  0
LINE
  5
12FA27
  8
OBJECT
 10
216.7181390188282
 20
-230.70278309939101
 30
0.0
 11
199.3286227368699
 21
-222.2268843601851
 31
0.0
1001
ACDBBLOCKREPETAG
1070
     1
1071
      133
1005
12FA27
  0
LINE
  5
12FA28
  8
OBJECT
 10
219.80694712379409
 20
-171.89706690675661
 30
0.0
 11
210.01000000000019
 21
-171.89706690675661
 31
0.0
1001
ACDBBLOCKREPETAG
1070
     1
1071
      134
1005
12FA28
  0
LINE
  5
12FA29
  8
OBJECT
 10
210.01000000000019
 20
-171.89706690675661
 30
0.0
 11
194.47122736651181
 21
-209.41098254113609
 31
0.0
1001
ACDBBLOCKREPETAG
1070
     1
1071
      135
1005
12FA29
  0
ARC
  5
12FA2A
  8
OBJECT
 10
203.7100226916227
 20
-213.23781686478469
 30
0.0
 40
10.0
 50
157.5000000001651
 51
244.01473437020459
1001
ACDBBLOCKREPETAG
1070
     1
1071
      136
1005
12FA2A
  0
ARC
  5
12FA2B
  8
OBJECT
 10
201.8132718242104
 20
-209.97760074409601
 30
0.0
 40
7.0
 50
157.5000000001651
 51
244.01473377496541
1001
ACDBBLOCKREPETAG
1070
     1
1071
      137
1005
12FA2B
  0
CIRCLE
  5
12FA2C
  8
OBJECT
 10
176.0
 20
-196.0
 30
0.0
 40
53.5
1001
ACDBBLOCKREPETAG
1070
     1
1071
      152
1005
12FA2C
  0
POINT
  5
12FA2D
  8
DOTS
 10
176.0
 20
-196.0
 30
0.0
1001
ACDBBLOCKREPETAG
1070
     1
1071
       39
1005
12FA2D
  0
LINE
  5
12FA2E
  8
OBJECT
 10
5923.0
 20
-570.99999999999432
 30
0.0
 11
5923.0
 21
-549.99999999999432
 31
0.0
1001
ACDBBLOCKREPETAG
1070
     1
1071
       36
1005
12FA2E
  0
LINE
  5
12FA2F
  8
OBJECT
 10
5923.0
 20
-549.99999999999432
 30
0.0
 11
6077.0
 21
-549.99999999999432
 31
0.0
1001
ACDBBLOCKREPETAG
1070
     1
1071
       37
1005
12FA2F
  0
LINE
  5
12FA30
  8
HIDDEN
 10
5943.0
 20
-619.99999999999432
 30
0.0
 11
6057.0
 21
-619.99999999999432
 31
0.0
1001
ACDBBLOCKREPETAG
1070
     1
1071
       38
1005
12FA30
  0
LINE
  5
12FA31
  8
OBJECT
 10
6077.0
 20
-549.99999999999432
 30
0.0
 11
6077.0
 21
-570.99999999999432
 31
0.0
1001
ACDBBLOCKREPETAG
1070
     1
1071
       39
1005
12FA31
  0
LINE
  5
12FA32
  8
OBJECT
 10
6077.0
 20
-570.99999999999432
 30
0.0
 11
5923.0
 21
-570.99999999999432
 31
0.0
1001
ACDBBLOCKREPETAG
1070
     1
1071
       40
1005
12FA32
  0
LINE
  5
12FA33
  8
CENTER
 10
6000.0
 20
-534.99999999999432
 30
0.0
 11
6000.0
 21
-769.9999999999942
 31
0.0
1001
ACDBBLOCKREPETAG
1070
     1
1071
       41
1005
12FA33
  0
LINE
  5
12FA34
  8
OBJECT
 10
5928.0
 20
-570.99999999999432
 30
0.0
 11
5928.0
 21
-633.99999999999432
 31
0.0
1001
ACDBBLOCKREPETAG
1070
     1
1071
       42
1005
12FA34
  0
LINE
  5
12FA35
  8
OBJECT
 10
6072.0
 20
-633.99999999999432
 30
0.0
 11
6072.0
 21
-570.99999999999432
 31
0.0
1001
ACDBBLOCKREPETAG
1070
     1
1071
       43
1005
12FA35
  0
LINE
  5
12FA36
  8
OBJECT
 10
5920.0
 20
-757.9999999999942
 30
0.0
 11
6080.0
 21
-757.9999999999942
 31
0.0
1001
ACDBBLOCKREPETAG
1070
     1
1071
       44
1005
12FA36
  0
LINE
  5
12FA37
  8
OBJECT
 10
6080.0
 20
-633.99999999999432
 30
0.0
 11
5920.0
 21
-633.99999999999432
 31
0.0
1001
ACDBBLOCKREPETAG
1070
     1
1071
       45
1005
12FA37
  0
LINE
  5
12FA38
  8
OBJECT
 10
5920.0
 20
-757.9999999999942
 30
0.0
 11
5920.0
 21
-769.9999999999942
 31
0.0
1001
ACDBBLOCKREPETAG
1070
     1
1071
       46
1005
12FA38
  0
LINE
  5
12FA39
  8
OBJECT
 10
5920.0
 20
-769.9999999999942
 30
0.0
 11
6080.0
 21
-769.9999999999942
 31
0.0
1001
ACDBBLOCKREPETAG
1070
     1
1071
       47
1005
12FA39
  0
LINE
  5
12FA3A
  8
OBJECT
 10
6080.0
 20
-769.9999999999942
 30
0.0
 11
6080.0
 21
-757.9999999999942
 31
0.0
1001
ACDBBLOCKREPETAG
1070
     1
1071
       48
1005
12FA3A
  0
ARC
  5
12FA3B
  8
OBJECT
 10
6200.6872746716735
 20
-749.40809941010195
 30
0.0
 40
170.6350503965856
 50
137.44134459184301
 51
149.91949581337221
1001
ACDBBLOCKREPETAG
1070
     1
1071
       52
1005
12FA3B
  0
ARC
  5
12FA3C
  8
OBJECT
 10
6200.6872746716735
 20
-642.59190058988645
 30
0.0
 40
170.6350503965856
 50
210.08050418662771
 51
222.55865540815699
1001
ACDBBLOCKREPETAG
1070
     1
1071
       53
1005
12FA3C
  0
ARC
  5
12FA3D
  8
OBJECT
 10
5799.3127253283274
 20
-749.40809941010195
 30
0.0
 40
170.6350503965856
 50
30.080504186787142
 51
42.558655408456282
1001
ACDBBLOCKREPETAG
1070
     1
1071
       54
1005
12FA3D
  0
ARC
  5
12FA3E
  8
OBJECT
 10
5799.3127253283274
 20
-642.59190058988645
 30
0.0
 40
170.6350503965856
 50
317.44134459154373
 51
329.9194958132129
1001
ACDBBLOCKREPETAG
1070
     1
1071
       55
1005
12FA3E
  0
POINT
  5
12FA3F
  8
DOTS
 10
6000.0
 20
-754.9999999999942
 30
0.0
1001
ACDBBLOCKREPETAG
1070
     1
1071
      184
1005
12FA3F
  0
LINE
  5
12FA40
  8
OBJECT
 10
5867.0
 20
-261.99999999999909
 30
0.0
 11
5860.0
 21
-261.99999999999909
 31
0.0
1001
ACDBBLOCKREPETAG
1070
     1
1071
       47
1005
12FA40
  0
LINE
  5
12FA41
  8
OBJECT
 10
5860.0
 20
-261.99999999999909
 30
0.0
 11
5860.0
 21
-137.99999999999909
 31
0.0
1001
ACDBBLOCKREPETAG
1070
     1
1071
       48
1005
12FA41
  0
LINE
  5
12FA42
  8
OBJECT
 10
5860.0
 20
-137.99999999999909
 30
0.0
 11
5867.0
 21
-137.99999999999909
 31
0.0
1001
ACDBBLOCKREPETAG
1070
     1
1071
       49
1005
12FA42
  0
LINE
  5
12FA43
  8
OBJECT
 10
5867.0
 20
-137.99999999999909
 30
0.0
 11
5867.0
 21
-261.99999999999909
 31
0.0
1001
ACDBBLOCKREPETAG
1070
     1
1071
       50
1005
12FA43
  0
LINE
  5
12FA44
  8
CENTER
 10
5845.0
 20
-199.99999999999909
 30
0.0
 11
5920.0
 21
-199.99999999999909
 31
0.0
1001
ACDBBLOCKREPETAG
1070
     1
1071
       51
1005
12FA44
  0
LINE
  5
12FA45
  8
OBJECT
 10
5867.0
 20
-258.99999999999909
 30
0.0
 11
5903.0
 21
-258.99999999999909
 31
0.0
1001
ACDBBLOCKREPETAG
1070
     1
1071
       52
1005
12FA45
  0
LINE
  5
12FA46
  8
OBJECT
 10
5903.0
 20
-258.99999999999909
 30
0.0
 11
5903.0
 21
-140.99999999999909
 31
0.0
1001
ACDBBLOCKREPETAG
1070
     1
1071
       53
1005
12FA46
  0
LINE
  5
12FA47
  8
OBJECT
 10
5903.0
 20
-140.99999999999909
 30
0.0
 11
5867.0
 21
-140.99999999999909
 31
0.0
1001
ACDBBLOCKREPETAG
1070
     1
1071
       54
1005
12FA47
  0
LINE
  5
12FA48
  8
OBJECT
 10
5907.0
 20
-254.49999999999909
 30
0.0
 11
5914.0
 21
-254.49999999999909
 31
0.0
1001
ACDBBLOCKREPETAG
1070
     1
1071
       55
1005
12FA48
  0
LINE
  5
12FA49
  8
OBJECT
 10
5914.0
 20
-145.49999999999909
 30
0.0
 11
5907.0
 21
-145.49999999999909
 31
0.0
1001
ACDBBLOCKREPETAG
1070
     1
1071
       56
1005
12FA49
  0
LINE
  5
12FA4A
  8
OBJECT
 10
5907.0
 20
-145.49999999999909
 30
0.0
 11
5907.0
 21
-254.49999999999909
 31
0.0
1001
ACDBBLOCKREPETAG
1070
     1
1071
       57
1005
12FA4A
  0
LINE
  5
12FA4B
  8
OBJECT
 10
5903.0
 20
-258.99999999999909
 30
0.0
 11
5907.0
 21
-254.49999999999909
 31
0.0
1001
ACDBBLOCKREPETAG
1070
     1
1071
       58
1005
12FA4B
  0
LINE
  5
12FA4C
  8
OBJECT
 10
5903.0
 20
-140.99999999999909
 30
0.0
 11
5907.0
 21
-145.49999999999909
 31
0.0
1001
ACDBBLOCKREPETAG
1070
     1
1071
       59
1005
12FA4C
  0
LINE
  5
12FA4D
  8
OBJECT
 10
5917.0
 20
-261.99999999999909
 30
0.0
 11
5920.0
 21
-261.99999999999909
 31
0.0
1001
ACDBBLOCKREPETAG
1070
     1
1071
       60
1005
12FA4D
  0
ARC
  5
12FA4E
  8
OBJECT
 10
5917.0
 20
-258.99999999999909
 30
0.0
 40
3.0
 50
180.0
 51
270.0
1001
ACDBBLOCKREPETAG
1070
     1
1071
       61
1005
12FA4E
  0
LINE
  5
12FA4F
  8
OBJECT
 10
5920.0
 20
-137.99999999999909
 30
0.0
 11
5917.0
 21
-137.99999999999909
 31
0.0
1001
ACDBBLOCKREPETAG
1070
     1
1071
       62
1005
12FA4F
  0
ARC
  5
12FA50
  8
OBJECT
 10
5917.0
 20
-140.99999999999909
 30
0.0
 40
3.0
 50
90.0
 51
180.0
1001
ACDBBLOCKREPETAG
1070
     1
1071
       63
1005
12FA50
  0
LINE
  5
12FA51
  8
OBJECT
 10
5914.0
 20
-140.99999999999909
 30
0.0
 11
5914.0
 21
-258.99999999999909
 31
0.0
1001
ACDBBLOCKREPETAG
1070
     1
1071
       64
1005
12FA51
  0
LINE
  5
12FA52
  8
HIDDEN
 10
5912.0
 20
-244.49999999999909
 30
0.0
 11
5912.0
 21
-155.49999999999909
 31
0.0
1001
ACDBBLOCKREPETAG
1070
     1
1071
       65
1005
12FA52
  0
LINE
  5
12FA53
  8
CENTER
 10
6000.0
 20
-300.99999999999898
 30
0.0
 11
6000.0
 21
-279.99999999999909
 31
0.0
1001
ACDBBLOCKREPETAG
1070
     1
1071
        0
1005
12FA53
  0
LINE
  5
12FA54
  8
OBJECT
 10
6062.0
 20
-283.0
 30
0.0
 11
6062.0
 21
-279.99999999999909
 31
0.0
1001
ACDBBLOCKREPETAG
1070
     1
1071
        1
1005
12FA54
  0
ARC
  5
12FA55
  8
OBJECT
 10
6059.0
 20
-283.0
 30
0.0
 40
3.0
 50
270.0
 51
0.0
1001
ACDBBLOCKREPETAG
1070
     1
1071
        2
1005
12FA55
  0
LINE
  5
12FA56
  8
OBJECT
 10
5938.0
 20
-279.99999999999909
 30
0.0
 11
5938.0
 21
-282.99999999999818
 31
0.0
1001
ACDBBLOCKREPETAG
1070
     1
1071
        3
1005
12FA56
  0
ARC
  5
12FA57
  8
OBJECT
 10
5941.0
 20
-282.99999999999818
 30
0.0
 40
3.0
 50
180.0
 51
270.0
1001
ACDBBLOCKREPETAG
1070
     1
1071
        4
1005
12FA57
  0
LINE
  5
12FA58
  8
OBJECT
 10
5941.0
 20
-285.99999999999818
 30
0.0
 11
6059.0
 21
-286.0
 31
0.0
1001
ACDBBLOCKREPETAG
1070
     1
1071
        5
1005
12FA58
  0
LINE
  5
12FA59
  8
OBJECT
 10
6133.0
 20
-137.99999999999909
 30
0.0
 11
6140.0
 21
-137.99999999999909
 31
0.0
1001
ACDBBLOCKREPETAG
1070
     1
1071
       47
1005
12FA59
  0
LINE
  5
12FA5A
  8
OBJECT
 10
6140.0
 20
-137.99999999999909
 30
0.0
 11
6140.0
 21
-261.99999999999909
 31
0.0
1001
ACDBBLOCKREPETAG
1070
     1
1071
       48
1005
12FA5A
  0
LINE
  5
12FA5B
  8
OBJECT
 10
6140.0
 20
-261.99999999999909
 30
0.0
 11
6133.0
 21
-261.99999999999909
 31
0.0
1001
ACDBBLOCKREPETAG
1070
     1
1071
       49
1005
12FA5B
  0
LINE
  5
12FA5C
  8
OBJECT
 10
6133.0
 20
-261.99999999999909
 30
0.0
 11
6133.0
 21
-137.99999999999909
 31
0.0
1001
ACDBBLOCKREPETAG
1070
     1
1071
       50
1005
12FA5C
  0
LINE
  5
12FA5D
  8
CENTER
 10
6155.0
 20
-199.99999999999909
 30
0.0
 11
6080.0
 21
-199.99999999999909
 31
0.0
1001
ACDBBLOCKREPETAG
1070
     1
1071
       51
1005
12FA5D
  0
LINE
  5
12FA5E
  8
OBJECT
 10
6133.0
 20
-140.99999999999909
 30
0.0
 11
6097.0
 21
-140.99999999999909
 31
0.0
1001
ACDBBLOCKREPETAG
1070
     1
1071
       52
1005
12FA5E
  0
LINE
  5
12FA5F
  8
OBJECT
 10
6097.0
 20
-140.99999999999909
 30
0.0
 11
6097.0
 21
-258.99999999999909
 31
0.0
1001
ACDBBLOCKREPETAG
1070
     1
1071
       53
1005
12FA5F
  0
LINE
  5
12FA60
  8
OBJECT
 10
6097.0
 20
-258.99999999999909
 30
0.0
 11
6133.0
 21
-258.99999999999909
 31
0.0
1001
ACDBBLOCKREPETAG
1070
     1
1071
       54
1005
12FA60
  0
LINE
  5
12FA61
  8
OBJECT
 10
6093.0
 20
-145.49999999999909
 30
0.0
 11
6086.0
 21
-145.49999999999909
 31
0.0
1001
ACDBBLOCKREPETAG
1070
     1
1071
       55
1005
12FA61
  0
LINE
  5
12FA62
  8
OBJECT
 10
6086.0
 20
-254.49999999999909
 30
0.0
 11
6093.0
 21
-254.49999999999909
 31
0.0
1001
ACDBBLOCKREPETAG
1070
     1
1071
       56
1005
12FA62
  0
LINE
  5
12FA63
  8
OBJECT
 10
6093.0
 20
-254.49999999999909
 30
0.0
 11
6093.0
 21
-145.49999999999909
 31
0.0
1001
ACDBBLOCKREPETAG
1070
     1
1071
       57
1005
12FA63
  0
LINE
  5
12FA64
  8
OBJECT
 10
6097.0
 20
-140.99999999999909
 30
0.0
 11
6093.0
 21
-145.49999999999909
 31
0.0
1001
ACDBBLOCKREPETAG
1070
     1
1071
       58
1005
12FA64
  0
LINE
  5
12FA65
  8
OBJECT
 10
6097.0
 20
-258.99999999999909
 30
0.0
 11
6093.0
 21
-254.49999999999909
 31
0.0
1001
ACDBBLOCKREPETAG
1070
     1
1071
       59
1005
12FA65
  0
LINE
  5
12FA66
  8
OBJECT
 10
6083.0
 20
-137.99999999999909
 30
0.0
 11
6080.0
 21
-137.99999999999909
 31
0.0
1001
ACDBBLOCKREPETAG
1070
     1
1071
       60
1005
12FA66
  0
ARC
  5
12FA67
  8
OBJECT
 10
6083.0
 20
-140.99999999999909
 30
0.0
 40
3.0
 50
0.0
 51
90.0
1001
ACDBBLOCKREPETAG
1070
     1
1071
       61
1005
12FA67
  0
LINE
  5
12FA68
  8
OBJECT
 10
6080.0
 20
-261.99999999999909
 30
0.0
 11
6083.0
 21
-261.99999999999909
 31
0.0
1001
ACDBBLOCKREPETAG
1070
     1
1071
       62
1005
12FA68
  0
ARC
  5
12FA69
  8
OBJECT
 10
6083.0
 20
-258.99999999999909
 30
0.0
 40
3.0
 50
270.0
 51
0.0
1001
ACDBBLOCKREPETAG
1070
     1
1071
       63
1005
12FA69
  0
LINE
  5
12FA6A
  8
OBJECT
 10
6086.0
 20
-258.99999999999909
 30
0.0
 11
6086.0
 21
-140.99999999999909
 31
0.0
1001
ACDBBLOCKREPETAG
1070
     1
1071
       64
1005
12FA6A
  0
LINE
  5
12FA6B
  8
HIDDEN
 10
6088.0
 20
-155.49999999999909
 30
0.0
 11
6088.0
 21
-244.49999999999909
 31
0.0
1001
ACDBBLOCKREPETAG
1070
     1
1071
       65
1005
12FA6B
  0
LINE
  5
12FA6C
  8
OBJECT
 10
5867.0
 20
-634.0
 30
0.0
 11
5860.0
 21
-634.0
 31
0.0
1001
ACDBBLOCKREPETAG
1070
     1
1071
       45
1005
12FA6C
  0
LINE
  5
12FA6D
  8
OBJECT
 10
5860.0
 20
-634.0
 30
0.0
 11
5860.0
 21
-755.0
 31
0.0
1001
ACDBBLOCKREPETAG
1070
     1
1071
       46
1005
12FA6D
  0
LINE
  5
12FA6E
  8
OBJECT
 10
5867.0
 20
-755.0
 30
0.0
 11
5867.0
 21
-634.0
 31
0.0
1001
ACDBBLOCKREPETAG
1070
     1
1071
       47
1005
12FA6E
  0
LINE
  5
12FA6F
  8
CENTER
 10
5845.0
 20
-696.0
 30
0.0
 11
5929.0
 21
-696.0
 31
0.0
1001
ACDBBLOCKREPETAG
1070
     1
1071
       48
1005
12FA6F
  0
LINE
  5
12FA70
  8
OBJECT
 10
5867.0
 20
-637.0
 30
0.0
 11
5903.0
 21
-637.0
 31
0.0
1001
ACDBBLOCKREPETAG
1070
     1
1071
       49
1005
12FA70
  0
LINE
  5
12FA71
  8
OBJECT
 10
5903.0
 20
-637.0
 30
0.0
 11
5903.0
 21
-755.0
 31
0.0
1001
ACDBBLOCKREPETAG
1070
     1
1071
       50
1005
12FA71
  0
LINE
  5
12FA72
  8
OBJECT
 10
5903.0
 20
-755.0
 30
0.0
 11
5860.0
 21
-755.0
 31
0.0
1001
ACDBBLOCKREPETAG
1070
     1
1071
       51
1005
12FA72
  0
LINE
  5
12FA73
  8
OBJECT
 10
5907.0
 20
-641.5
 30
0.0
 11
5914.0
 21
-641.5
 31
0.0
1001
ACDBBLOCKREPETAG
1070
     1
1071
       52
1005
12FA73
  0
LINE
  5
12FA74
  8
OBJECT
 10
5914.0
 20
-750.49999999999989
 30
0.0
 11
5907.0
 21
-750.49999999999989
 31
0.0
1001
ACDBBLOCKREPETAG
1070
     1
1071
       53
1005
12FA74
  0
LINE
  5
12FA75
  8
OBJECT
 10
5907.0
 20
-750.49999999999989
 30
0.0
 11
5907.0
 21
-641.5
 31
0.0
1001
ACDBBLOCKREPETAG
1070
     1
1071
       54
1005
12FA75
  0
LINE
  5
12FA76
  8
OBJECT
 10
5903.0
 20
-637.0
 30
0.0
 11
5907.0
 21
-641.5
 31
0.0
1001
ACDBBLOCKREPETAG
1070
     1
1071
       55
1005
12FA76
  0
LINE
  5
12FA77
  8
OBJECT
 10
5903.0
 20
-755.0
 30
0.0
 11
5907.0
 21
-750.49999999999989
 31
0.0
1001
ACDBBLOCKREPETAG
1070
     1
1071
       56
1005
12FA77
  0
LINE
  5
12FA78
  8
OBJECT
 10
5917.0
 20
-634.0
 30
0.0
 11
5920.0
 21
-634.0
 31
0.0
1001
ACDBBLOCKREPETAG
1070
     1
1071
       57
1005
12FA78
  0
ARC
  5
12FA79
  8
OBJECT
 10
5917.0
 20
-637.0
 30
0.0
 40
3.0
 50
90.0
 51
180.0
1001
ACDBBLOCKREPETAG
1070
     1
1071
       58
1005
12FA79
  0
LINE
  5
12FA7A
  8
OBJECT
 10
5920.0
 20
-758.0
 30
0.0
 11
5917.0
 21
-758.0
 31
0.0
1001
ACDBBLOCKREPETAG
1070
     1
1071
       59
1005
12FA7A
  0
ARC
  5
12FA7B
  8
OBJECT
 10
5917.0
 20
-755.0
 30
0.0
 40
3.0
 50
180.0
 51
270.0
1001
ACDBBLOCKREPETAG
1070
     1
1071
       60
1005
12FA7B
  0
LINE
  5
12FA7C
  8
OBJECT
 10
5914.0
 20
-755.0
 30
0.0
 11
5914.0
 21
-637.0
 31
0.0
1001
ACDBBLOCKREPETAG
1070
     1
1071
       61
1005
12FA7C
  0
LINE
  5
12FA7D
  8
HIDDEN
 10
5912.0
 20
-651.5
 30
0.0
 11
5912.0
 21
-740.5
 31
0.0
1001
ACDBBLOCKREPETAG
1070
     1
1071
       63
1005
12FA7D
  0
CIRCLE
  5
12FA7E
  8
OBJECT
 10
6000.0
 20
-696.0
 30
0.0
 40
62.0
1001
ACDBBLOCKREPETAG
1070
     1
1071
        0
1005
12FA7E
  0
LINE
  5
12FA7F
  8
OBJECT
 10
6133.0
 20
-634.0
 30
0.0
 11
6140.0
 21
-634.0
 31
0.0
1001
ACDBBLOCKREPETAG
1070
     1
1071
       45
1005
12FA7F
  0
LINE
  5
12FA80
  8
OBJECT
 10
6140.0
 20
-634.0
 30
0.0
 11
6140.0
 21
-755.0
 31
0.0
1001
ACDBBLOCKREPETAG
1070
     1
1071
       46
1005
12FA80
  0
LINE
  5
12FA81
  8
OBJECT
 10
6133.0
 20
-755.0
 30
0.0
 11
6133.0
 21
-634.0
 31
0.0
1001
ACDBBLOCKREPETAG
1070
     1
1071
       47
1005
12FA81
  0
LINE
  5
12FA82
  8
CENTER
 10
6155.0
 20
-696.0
 30
0.0
 11
6071.0
 21
-696.0
 31
0.0
1001
ACDBBLOCKREPETAG
1070
     1
1071
       48
1005
12FA82
  0
LINE
  5
12FA83
  8
OBJECT
 10
6133.0
 20
-637.0
 30
0.0
 11
6097.0
 21
-637.0
 31
0.0
1001
ACDBBLOCKREPETAG
1070
     1
1071
       49
1005
12FA83
  0
LINE
  5
12FA84
  8
OBJECT
 10
6097.0
 20
-637.0
 30
0.0
 11
6097.0
 21
-755.0
 31
0.0
1001
ACDBBLOCKREPETAG
1070
     1
1071
       50
1005
12FA84
  0
LINE
  5
12FA85
  8
OBJECT
 10
6097.0
 20
-755.0
 30
0.0
 11
6140.0
 21
-755.0
 31
0.0
1001
ACDBBLOCKREPETAG
1070
     1
1071
       51
1005
12FA85
  0
LINE
  5
12FA86
  8
OBJECT
 10
6093.0
 20
-641.5
 30
0.0
 11
6086.0
 21
-641.5
 31
0.0
1001
ACDBBLOCKREPETAG
1070
     1
1071
       52
1005
12FA86
  0
LINE
  5
12FA87
  8
OBJECT
 10
6086.0
 20
-750.49999999999989
 30
0.0
 11
6093.0
 21
-750.49999999999989
 31
0.0
1001
ACDBBLOCKREPETAG
1070
     1
1071
       53
1005
12FA87
  0
LINE
  5
12FA88
  8
OBJECT
 10
6093.0
 20
-750.49999999999989
 30
0.0
 11
6093.0
 21
-641.5
 31
0.0
1001
ACDBBLOCKREPETAG
1070
     1
1071
       54
1005
12FA88
  0
LINE
  5
12FA89
  8
OBJECT
 10
6097.0
 20
-637.0
 30
0.0
 11
6093.0
 21
-641.5
 31
0.0
1001
ACDBBLOCKREPETAG
1070
     1
1071
       55
1005
12FA89
  0
LINE
  5
12FA8A
  8
OBJECT
 10
6097.0
 20
-755.0
 30
0.0
 11
6093.0
 21
-750.49999999999989
 31
0.0
1001
ACDBBLOCKREPETAG
1070
     1
1071
       56
1005
12FA8A
  0
LINE
  5
12FA8B
  8
OBJECT
 10
6083.0
 20
-634.0
 30
0.0
 11
6080.0
 21
-634.0
 31
0.0
1001
ACDBBLOCKREPETAG
1070
     1
1071
       57
1005
12FA8B
  0
ARC
  5
12FA8C
  8
OBJECT
 10
6083.0
 20
-637.0
 30
0.0
 40
3.0
 50
0.0
 51
90.0
1001
ACDBBLOCKREPETAG
1070
     1
1071
       58
1005
12FA8C
  0
LINE
  5
12FA8D
  8
OBJECT
 10
6080.0
 20
-758.0
 30
0.0
 11
6083.0
 21
-758.0
 31
0.0
1001
ACDBBLOCKREPETAG
1070
     1
1071
       59
1005
12FA8D
  0
ARC
  5
12FA8E
  8
OBJECT
 10
6083.0
 20
-755.0
 30
0.0
 40
3.0
 50
270.0
 51
0.0
1001
ACDBBLOCKREPETAG
1070
     1
1071
       60
1005
12FA8E
  0
LINE
  5
12FA8F
  8
OBJECT
 10
6086.0
 20
-755.0
 30
0.0
 11
6086.0
 21
-637.0
 31
0.0
1001
ACDBBLOCKREPETAG
1070
     1
1071
       61
1005
12FA8F
  0
LINE
  5
12FA90
  8
HIDDEN
 10
6088.0
 20
-651.5
 30
0.0
 11
6088.0
 21
-740.5
 31
0.0
1001
ACDBBLOCKREPETAG
1070
     1
1071
       63
1005
12FA90
  0
LINE
  5
12FA91
  8
OBJECT
 10
3923.0
 20
-570.99999999999432
 30
0.0
 11
3923.0
 21
-549.99999999999432
 31
0.0
1001
ACDBBLOCKREPETAG
1070
     1
1071
       36
1005
12FA91
  0
LINE
  5
12FA92
  8
OBJECT
 10
3923.0
 20
-549.99999999999432
 30
0.0
 11
4077.0
 21
-549.99999999999432
 31
0.0
1001
ACDBBLOCKREPETAG
1070
     1
1071
       37
1005
12FA92
  0
LINE
  5
12FA93
  8
HIDDEN
 10
3943.0
 20
-619.99999999999432
 30
0.0
 11
4057.0
 21
-619.99999999999432
 31
0.0
1001
ACDBBLOCKREPETAG
1070
     1
1071
       38
1005
12FA93
  0
LINE
  5
12FA94
  8
OBJECT
 10
4077.0
 20
-549.99999999999432
 30
0.0
 11
4077.0
 21
-570.99999999999432
 31
0.0
1001
ACDBBLOCKREPETAG
1070
     1
1071
       39
1005
12FA94
  0
LINE
  5
12FA95
  8
OBJECT
 10
4077.0
 20
-570.99999999999432
 30
0.0
 11
3923.0
 21
-570.99999999999432
 31
0.0
1001
ACDBBLOCKREPETAG
1070
     1
1071
       40
1005
12FA95
  0
LINE
  5
12FA96
  8
CENTER
 10
4000.0
 20
-534.99999999999432
 30
0.0
 11
4000.0
 21
-769.9999999999942
 31
0.0
1001
ACDBBLOCKREPETAG
1070
     1
1071
       41
1005
12FA96
  0
LINE
  5
12FA97
  8
OBJECT
 10
3928.0
 20
-570.99999999999432
 30
0.0
 11
3928.0
 21
-633.99999999999432
 31
0.0
1001
ACDBBLOCKREPETAG
1070
     1
1071
       42
1005
12FA97
  0
LINE
  5
12FA98
  8
OBJECT
 10
4072.0
 20
-633.99999999999432
 30
0.0
 11
4072.0
 21
-570.99999999999432
 31
0.0
1001
ACDBBLOCKREPETAG
1070
     1
1071
       43
1005
12FA98
  0
LINE
  5
12FA99
  8
OBJECT
 10
3920.0
 20
-757.9999999999942
 30
0.0
 11
4080.0
 21
-757.9999999999942
 31
0.0
1001
ACDBBLOCKREPETAG
1070
     1
1071
       44
1005
12FA99
  0
LINE
  5
12FA9A
  8
OBJECT
 10
4080.0
 20
-633.99999999999432
 30
0.0
 11
3920.0
 21
-633.99999999999432
 31
0.0
1001
ACDBBLOCKREPETAG
1070
     1
1071
       45
1005
12FA9A
  0
LINE
  5
12FA9B
  8
OBJECT
 10
3920.0
 20
-757.9999999999942
 30
0.0
 11
3920.0
 21
-769.9999999999942
 31
0.0
1001
ACDBBLOCKREPETAG
1070
     1
1071
       46
1005
12FA9B
  0
LINE
  5
12FA9C
  8
OBJECT
 10
3920.0
 20
-769.9999999999942
 30
0.0
 11
4080.0
 21
-769.9999999999942
 31
0.0
1001
ACDBBLOCKREPETAG
1070
     1
1071
       47
1005
12FA9C
  0
LINE
  5
12FA9D
  8
OBJECT
 10
4080.0
 20
-769.9999999999942
 30
0.0
 11
4080.0
 21
-757.9999999999942
 31
0.0
1001
ACDBBLOCKREPETAG
1070
     1
1071
       48
1005
12FA9D
  0
ARC
  5
12FA9E
  8
OBJECT
 10
4200.6872746716726
 20
-749.40809941010195
 30
0.0
 40
170.6350503965856
 50
137.44134459184301
 51
149.91949581337221
1001
ACDBBLOCKREPETAG
1070
     1
1071
       52
1005
12FA9E
  0
ARC
  5
12FA9F
  8
OBJECT
 10
4200.6872746716726
 20
-642.59190058988645
 30
0.0
 40
170.6350503965856
 50
210.08050418662771
 51
222.55865540815699
1001
ACDBBLOCKREPETAG
1070
     1
1071
       53
1005
12FA9F
  0
ARC
  5
12FAA0
  8
OBJECT
 10
3799.3127253283278
 20
-749.40809941010195
 30
0.0
 40
170.6350503965856
 50
30.080504186774089
 51
42.558655408456282
1001
ACDBBLOCKREPETAG
1070
     1
1071
       54
1005
12FAA0
  0
ARC
  5
12FAA1
  8
OBJECT
 10
3799.3127253283278
 20
-642.59190058988645
 30
0.0
 40
170.6350503965856
 50
317.44134459154373
 51
329.91949581322592
1001
ACDBBLOCKREPETAG
1070
     1
1071
       55
1005
12FAA1
  0
POINT
  5
12FAA2
  8
DOTS
 10
4000.0
 20
-754.9999999999942
 30
0.0
1001
ACDBBLOCKREPETAG
1070
     1
1071
      184
1005
12FAA2
  0
LINE
  5
12FAA3
  8
OBJECT
 10
3867.0
 20
-261.99999999999909
 30
0.0
 11
3860.0
 21
-261.99999999999909
 31
0.0
1001
ACDBBLOCKREPETAG
1070
     1
1071
       47
1005
12FAA3
  0
LINE
  5
12FAA4
  8
OBJECT
 10
3860.0
 20
-261.99999999999909
 30
0.0
 11
3860.0
 21
-137.99999999999909
 31
0.0
1001
ACDBBLOCKREPETAG
1070
     1
1071
       48
1005
12FAA4
  0
LINE
  5
12FAA5
  8
OBJECT
 10
3860.0
 20
-137.99999999999909
 30
0.0
 11
3867.0
 21
-137.99999999999909
 31
0.0
1001
ACDBBLOCKREPETAG
1070
     1
1071
       49
1005
12FAA5
  0
LINE
  5
12FAA6
  8
OBJECT
 10
3867.0
 20
-137.99999999999909
 30
0.0
 11
3867.0
 21
-261.99999999999909
 31
0.0
1001
ACDBBLOCKREPETAG
1070
     1
1071
       50
1005
12FAA6
  0
LINE
  5
12FAA7
  8
CENTER
 10
3845.0
 20
-199.99999999999909
 30
0.0
 11
3920.0
 21
-199.99999999999909
 31
0.0
1001
ACDBBLOCKREPETAG
1070
     1
1071
       51
1005
12FAA7
  0
LINE
  5
12FAA8
  8
OBJECT
 10
3867.0
 20
-258.99999999999909
 30
0.0
 11
3903.0
 21
-258.99999999999909
 31
0.0
1001
ACDBBLOCKREPETAG
1070
     1
1071
       52
1005
12FAA8
  0
LINE
  5
12FAA9
  8
OBJECT
 10
3903.0
 20
-258.99999999999909
 30
0.0
 11
3903.0
 21
-140.99999999999909
 31
0.0
1001
ACDBBLOCKREPETAG
1070
     1
1071
       53
1005
12FAA9
  0
LINE
  5
12FAAA
  8
OBJECT
 10
3903.0
 20
-140.99999999999909
 30
0.0
 11
3867.0
 21
-140.99999999999909
 31
0.0
1001
ACDBBLOCKREPETAG
1070
     1
1071
       54
1005
12FAAA
  0
LINE
  5
12FAAB
  8
OBJECT
 10
3907.0
 20
-254.49999999999909
 30
0.0
 11
3914.0
 21
-254.49999999999909
 31
0.0
1001
ACDBBLOCKREPETAG
1070
     1
1071
       55
1005
12FAAB
  0
LINE
  5
12FAAC
  8
OBJECT
 10
3914.0
 20
-145.49999999999909
 30
0.0
 11
3907.0
 21
-145.49999999999909
 31
0.0
1001
ACDBBLOCKREPETAG
1070
     1
1071
       56
1005
12FAAC
  0
LINE
  5
12FAAD
  8
OBJECT
 10
3907.0
 20
-145.49999999999909
 30
0.0
 11
3907.0
 21
-254.49999999999909
 31
0.0
1001
ACDBBLOCKREPETAG
1070
     1
1071
       57
1005
12FAAD
  0
LINE
  5
12FAAE
  8
OBJECT
 10
3903.0
 20
-258.99999999999909
 30
0.0
 11
3907.0
 21
-254.49999999999909
 31
0.0
1001
ACDBBLOCKREPETAG
1070
     1
1071
       58
1005
12FAAE
  0
LINE
  5
12FAAF
  8
OBJECT
 10
3903.0
 20
-140.99999999999909
 30
0.0
 11
3907.0
 21
-145.49999999999909
 31
0.0
1001
ACDBBLOCKREPETAG
1070
     1
1071
       59
1005
12FAAF
  0
LINE
  5
12FAB0
  8
OBJECT
 10
3917.0
 20
-261.99999999999909
 30
0.0
 11
3920.0
 21
-261.99999999999909
 31
0.0
1001
ACDBBLOCKREPETAG
1070
     1
1071
       60
1005
12FAB0
  0
ARC
  5
12FAB1
  8
OBJECT
 10
3917.0
 20
-258.99999999999909
 30
0.0
 40
3.0
 50
180.0
 51
270.0
1001
ACDBBLOCKREPETAG
1070
     1
1071
       61
1005
12FAB1
  0
LINE
  5
12FAB2
  8
OBJECT
 10
3920.0
 20
-137.99999999999909
 30
0.0
 11
3917.0
 21
-137.99999999999909
 31
0.0
1001
ACDBBLOCKREPETAG
1070
     1
1071
       62
1005
12FAB2
  0
ARC
  5
12FAB3
  8
OBJECT
 10
3917.0
 20
-140.99999999999909
 30
0.0
 40
3.0
 50
90.0
 51
180.0
1001
ACDBBLOCKREPETAG
1070
     1
1071
       63
1005
12FAB3
  0
LINE
  5
12FAB4
  8
OBJECT
 10
3914.0
 20
-140.99999999999909
 30
0.0
 11
3914.0
 21
-258.99999999999909
 31
0.0
1001
ACDBBLOCKREPETAG
1070
     1
1071
       64
1005
12FAB4
  0
LINE
  5
12FAB5
  8
HIDDEN
 10
3912.0
 20
-244.49999999999909
 30
0.0
 11
3912.0
 21
-155.49999999999909
 31
0.0
1001
ACDBBLOCKREPETAG
1070
     1
1071
       65
1005
12FAB5
  0
LINE
  5
12FAB6
  8
CENTER
 10
4000.0
 20
-300.99999999999898
 30
0.0
 11
4000.0
 21
-279.99999999999909
 31
0.0
1001
ACDBBLOCKREPETAG
1070
     1
1071
        0
1005
12FAB6
  0
LINE
  5
12FAB7
  8
OBJECT
 10
4062.0
 20
-283.0
 30
0.0
 11
4062.0
 21
-279.99999999999909
 31
0.0
1001
ACDBBLOCKREPETAG
1070
     1
1071
        1
1005
12FAB7
  0
ARC
  5
12FAB8
  8
OBJECT
 10
4059.0
 20
-283.0
 30
0.0
 40
3.0
 50
270.0
 51
0.0
1001
ACDBBLOCKREPETAG
1070
     1
1071
        2
1005
12FAB8
  0
LINE
  5
12FAB9
  8
OBJECT
 10
3938.0
 20
-279.99999999999909
 30
0.0
 11
3938.0
 21
-282.99999999999818
 31
0.0
1001
ACDBBLOCKREPETAG
1070
     1
1071
        3
1005
12FAB9
  0
ARC
  5
12FABA
  8
OBJECT
 10
3941.0
 20
-282.99999999999818
 30
0.0
 40
3.0
 50
180.0
 51
270.0
1001
ACDBBLOCKREPETAG
1070
     1
1071
        4
1005
12FABA
  0
LINE
  5
12FABB
  8
OBJECT
 10
3941.0
 20
-285.99999999999818
 30
0.0
 11
4059.0
 21
-286.0
 31
0.0
1001
ACDBBLOCKREPETAG
1070
     1
1071
        5
1005
12FABB
  0
LINE
  5
12FABC
  8
OBJECT
 10
4133.0
 20
-137.99999999999909
 30
0.0
 11
4140.0
 21
-137.99999999999909
 31
0.0
1001
ACDBBLOCKREPETAG
1070
     1
1071
       47
1005
12FABC
  0
LINE
  5
12FABD
  8
OBJECT
 10
4140.0
 20
-137.99999999999909
 30
0.0
 11
4140.0
 21
-261.99999999999909
 31
0.0
1001
ACDBBLOCKREPETAG
1070
     1
1071
       48
1005
12FABD
  0
LINE
  5
12FABE
  8
OBJECT
 10
4140.0
 20
-261.99999999999909
 30
0.0
 11
4133.0
 21
-261.99999999999909
 31
0.0
1001
ACDBBLOCKREPETAG
1070
     1
1071
       49
1005
12FABE
  0
LINE
  5
12FABF
  8
OBJECT
 10
4133.0
 20
-261.99999999999909
 30
0.0
 11
4133.0
 21
-137.99999999999909
 31
0.0
1001
ACDBBLOCKREPETAG
1070
     1
1071
       50
1005
12FABF
  0
LINE
  5
12FAC0
  8
CENTER
 10
4155.0
 20
-199.99999999999909
 30
0.0
 11
4080.0
 21
-199.99999999999909
 31
0.0
1001
ACDBBLOCKREPETAG
1070
     1
1071
       51
1005
12FAC0
  0
LINE
  5
12FAC1
  8
OBJECT
 10
4133.0
 20
-140.99999999999909
 30
0.0
 11
4097.0
 21
-140.99999999999909
 31
0.0
1001
ACDBBLOCKREPETAG
1070
     1
1071
       52
1005
12FAC1
  0
LINE
  5
12FAC2
  8
OBJECT
 10
4097.0
 20
-140.99999999999909
 30
0.0
 11
4097.0
 21
-258.99999999999909
 31
0.0
1001
ACDBBLOCKREPETAG
1070
     1
1071
       53
1005
12FAC2
  0
LINE
  5
12FAC3
  8
OBJECT
 10
4097.0
 20
-258.99999999999909
 30
0.0
 11
4133.0
 21
-258.99999999999909
 31
0.0
1001
ACDBBLOCKREPETAG
1070
     1
1071
       54
1005
12FAC3
  0
LINE
  5
12FAC4
  8
OBJECT
 10
4093.0
 20
-145.49999999999909
 30
0.0
 11
4086.0
 21
-145.49999999999909
 31
0.0
1001
ACDBBLOCKREPETAG
1070
     1
1071
       55
1005
12FAC4
  0
LINE
  5
12FAC5
  8
OBJECT
 10
4086.0
 20
-254.49999999999909
 30
0.0
 11
4093.0
 21
-254.49999999999909
 31
0.0
1001
ACDBBLOCKREPETAG
1070
     1
1071
       56
1005
12FAC5
  0
LINE
  5
12FAC6
  8
OBJECT
 10
4093.0
 20
-254.49999999999909
 30
0.0
 11
4093.0
 21
-145.49999999999909
 31
0.0
1001
ACDBBLOCKREPETAG
1070
     1
1071
       57
1005
12FAC6
  0
LINE
  5
12FAC7
  8
OBJECT
 10
4097.0
 20
-140.99999999999909
 30
0.0
 11
4093.0
 21
-145.49999999999909
 31
0.0
1001
ACDBBLOCKREPETAG
1070
     1
1071
       58
1005
12FAC7
  0
LINE
  5
12FAC8
  8
OBJECT
 10
4097.0
 20
-258.99999999999909
 30
0.0
 11
4093.0
 21
-254.49999999999909
 31
0.0
1001
ACDBBLOCKREPETAG
1070
     1
1071
       59
1005
12FAC8
  0
LINE
  5
12FAC9
  8
OBJECT
 10
4083.0
 20
-137.99999999999909
 30
0.0
 11
4080.0
 21
-137.99999999999909
 31
0.0
1001
ACDBBLOCKREPETAG
1070
     1
1071
       60
1005
12FAC9
  0
ARC
  5
12FACA
  8
OBJECT
 10
4083.0
 20
-140.99999999999909
 30
0.0
 40
3.0
 50
0.0
 51
90.0
1001
ACDBBLOCKREPETAG
1070
     1
1071
       61
1005
12FACA
  0
LINE
  5
12FACB
  8
OBJECT
 10
4080.0
 20
-261.99999999999909
 30
0.0
 11
4083.0
 21
-261.99999999999909
 31
0.0
1001
ACDBBLOCKREPETAG
1070
     1
1071
       62
1005
12FACB
  0
ARC
  5
12FACC
  8
OBJECT
 10
4083.0
 20
-258.99999999999909
 30
0.0
 40
3.0
 50
270.0
 51
0.0
1001
ACDBBLOCKREPETAG
1070
     1
1071
       63
1005
12FACC
  0
LINE
  5
12FACD
  8
OBJECT
 10
4086.0
 20
-258.99999999999909
 30
0.0
 11
4086.0
 21
-140.99999999999909
 31
0.0
1001
ACDBBLOCKREPETAG
1070
     1
1071
       64
1005
12FACD
  0
LINE
  5
12FACE
  8
HIDDEN
 10
4088.0
 20
-155.49999999999909
 30
0.0
 11
4088.0
 21
-244.49999999999909
 31
0.0
1001
ACDBBLOCKREPETAG
1070
     1
1071
       65
1005
12FACE
  0
LINE
  5
12FACF
  8
OBJECT
 10
3867.0
 20
-634.0
 30
0.0
 11
3860.0
 21
-634.0
 31
0.0
1001
ACDBBLOCKREPETAG
1070
     1
1071
       45
1005
12FACF
  0
LINE
  5
12FAD0
  8
OBJECT
 10
3860.0
 20
-634.0
 30
0.0
 11
3860.0
 21
-755.0
 31
0.0
1001
ACDBBLOCKREPETAG
1070
     1
1071
       46
1005
12FAD0
  0
LINE
  5
12FAD1
  8
OBJECT
 10
3867.0
 20
-755.0
 30
0.0
 11
3867.0
 21
-634.0
 31
0.0
1001
ACDBBLOCKREPETAG
1070
     1
1071
       47
1005
12FAD1
  0
LINE
  5
12FAD2
  8
CENTER
 10
3845.0
 20
-696.0
 30
0.0
 11
3929.0
 21
-696.0
 31
0.0
1001
ACDBBLOCKREPETAG
1070
     1
1071
       48
1005
12FAD2
  0
LINE
  5
12FAD3
  8
OBJECT
 10
3867.0
 20
-637.0
 30
0.0
 11
3903.0
 21
-637.0
 31
0.0
1001
ACDBBLOCKREPETAG
1070
     1
1071
       49
1005
12FAD3
  0
LINE
  5
12FAD4
  8
OBJECT
 10
3903.0
 20
-637.0
 30
0.0
 11
3903.0
 21
-755.0
 31
0.0
1001
ACDBBLOCKREPETAG
1070
     1
1071
       50
1005
12FAD4
  0
LINE
  5
12FAD5
  8
OBJECT
 10
3903.0
 20
-755.0
 30
0.0
 11
3860.0
 21
-755.0
 31
0.0
1001
ACDBBLOCKREPETAG
1070
     1
1071
       51
1005
12FAD5
  0
LINE
  5
12FAD6
  8
OBJECT
 10
3907.0
 20
-641.5
 30
0.0
 11
3914.0
 21
-641.5
 31
0.0
1001
ACDBBLOCKREPETAG
1070
     1
1071
       52
1005
12FAD6
  0
LINE
  5
12FAD7
  8
OBJECT
 10
3914.0
 20
-750.49999999999989
 30
0.0
 11
3907.0
 21
-750.49999999999989
 31
0.0
1001
ACDBBLOCKREPETAG
1070
     1
1071
       53
1005
12FAD7
  0
LINE
  5
12FAD8
  8
OBJECT
 10
3907.0
 20
-750.49999999999989
 30
0.0
 11
3907.0
 21
-641.5
 31
0.0
1001
ACDBBLOCKREPETAG
1070
     1
1071
       54
1005
12FAD8
  0
LINE
  5
12FAD9
  8
OBJECT
 10
3903.0
 20
-637.0
 30
0.0
 11
3907.0
 21
-641.5
 31
0.0
1001
ACDBBLOCKREPETAG
1070
     1
1071
       55
1005
12FAD9
  0
LINE
  5
12FADA
  8
OBJECT
 10
3903.0
 20
-755.0
 30
0.0
 11
3907.0
 21
-750.49999999999989
 31
0.0
1001
ACDBBLOCKREPETAG
1070
     1
1071
       56
1005
12FADA
  0
LINE
  5
12FADB
  8
OBJECT
 10
3917.0
 20
-634.0
 30
0.0
 11
3920.0
 21
-634.0
 31
0.0
1001
ACDBBLOCKREPETAG
1070
     1
1071
       57
1005
12FADB
  0
ARC
  5
12FADC
  8
OBJECT
 10
3917.0
 20
-637.0
 30
0.0
 40
3.0
 50
90.0
 51
180.0
1001
ACDBBLOCKREPETAG
1070
     1
1071
       58
1005
12FADC
  0
LINE
  5
12FADD
  8
OBJECT
 10
3920.0
 20
-758.0
 30
0.0
 11
3917.0
 21
-758.0
 31
0.0
1001
ACDBBLOCKREPETAG
1070
     1
1071
       59
1005
12FADD
  0
ARC
  5
12FADE
  8
OBJECT
 10
3917.0
 20
-755.0
 30
0.0
 40
3.0
 50
180.0
 51
270.0
1001
ACDBBLOCKREPETAG
1070
     1
1071
       60
1005
12FADE
  0
LINE
  5
12FADF
  8
OBJECT
 10
3914.0
 20
-755.0
 30
0.0
 11
3914.0
 21
-637.0
 31
0.0
1001
ACDBBLOCKREPETAG
1070
     1
1071
       61
1005
12FADF
  0
LINE
  5
12FAE0
  8
HIDDEN
 10
3912.0
 20
-651.5
 30
0.0
 11
3912.0
 21
-740.5
 31
0.0
1001
ACDBBLOCKREPETAG
1070
     1
1071
       63
1005
12FAE0
  0
CIRCLE
  5
12FAE1
  8
OBJECT
 10
4000.0
 20
-696.0
 30
0.0
 40
62.0
1001
ACDBBLOCKREPETAG
1070
     1
1071
        0
1005
12FAE1
  0
LINE
  5
12FAE2
  8
OBJECT
 10
4133.0
 20
-634.0
 30
0.0
 11
4140.0
 21
-634.0
 31
0.0
1001
ACDBBLOCKREPETAG
1070
     1
1071
       45
1005
12FAE2
  0
LINE
  5
12FAE3
  8
OBJECT
 10
4140.0
 20
-634.0
 30
0.0
 11
4140.0
 21
-755.0
 31
0.0
1001
ACDBBLOCKREPETAG
1070
     1
1071
       46
1005
12FAE3
  0
LINE
  5
12FAE4
  8
OBJECT
 10
4133.0
 20
-755.0
 30
0.0
 11
4133.0
 21
-634.0
 31
0.0
1001
ACDBBLOCKREPETAG
1070
     1
1071
       47
1005
12FAE4
  0
LINE
  5
12FAE5
  8
CENTER
 10
4155.0
 20
-696.0
 30
0.0
 11
4071.0
 21
-696.0
 31
0.0
1001
ACDBBLOCKREPETAG
1070
     1
1071
       48
1005
12FAE5
  0
LINE
  5
12FAE6
  8
OBJECT
 10
4133.0
 20
-637.0
 30
0.0
 11
4097.0
 21
-637.0
 31
0.0
1001
ACDBBLOCKREPETAG
1070
     1
1071
       49
1005
12FAE6
  0
LINE
  5
12FAE7
  8
OBJECT
 10
4097.0
 20
-637.0
 30
0.0
 11
4097.0
 21
-755.0
 31
0.0
1001
ACDBBLOCKREPETAG
1070
     1
1071
       50
1005
12FAE7
  0
LINE
  5
12FAE8
  8
OBJECT
 10
4097.0
 20
-755.0
 30
0.0
 11
4140.0
 21
-755.0
 31
0.0
1001
ACDBBLOCKREPETAG
1070
     1
1071
       51
1005
12FAE8
  0
LINE
  5
12FAE9
  8
OBJECT
 10
4093.0
 20
-641.5
 30
0.0
 11
4086.0
 21
-641.5
 31
0.0
1001
ACDBBLOCKREPETAG
1070
     1
1071
       52
1005
12FAE9
  0
LINE
  5
12FAEA
  8
OBJECT
 10
4086.0
 20
-750.49999999999989
 30
0.0
 11
4093.0
 21
-750.49999999999989
 31
0.0
1001
ACDBBLOCKREPETAG
1070
     1
1071
       53
1005
12FAEA
  0
LINE
  5
12FAEB
  8
OBJECT
 10
4093.0
 20
-750.49999999999989
 30
0.0
 11
4093.0
 21
-641.5
 31
0.0
1001
ACDBBLOCKREPETAG
1070
     1
1071
       54
1005
12FAEB
  0
LINE
  5
12FAEC
  8
OBJECT
 10
4097.0
 20
-637.0
 30
0.0
 11
4093.0
 21
-641.5
 31
0.0
1001
ACDBBLOCKREPETAG
1070
     1
1071
       55
1005
12FAEC
  0
LINE
  5
12FAED
  8
OBJECT
 10
4097.0
 20
-755.0
 30
0.0
 11
4093.0
 21
-750.49999999999989
 31
0.0
1001
ACDBBLOCKREPETAG
1070
     1
1071
       56
1005
12FAED
  0
LINE
  5
12FAEE
  8
OBJECT
 10
4083.0
 20
-634.0
 30
0.0
 11
4080.0
 21
-634.0
 31
0.0
1001
ACDBBLOCKREPETAG
1070
     1
1071
       57
1005
12FAEE
  0
ARC
  5
12FAEF
  8
OBJECT
 10
4083.0
 20
-637.0
 30
0.0
 40
3.0
 50
0.0
 51
90.0
1001
ACDBBLOCKREPETAG
1070
     1
1071
       58
1005
12FAEF
  0
LINE
  5
12FAF0
  8
OBJECT
 10
4080.0
 20
-758.0
 30
0.0
 11
4083.0
 21
-758.0
 31
0.0
1001
ACDBBLOCKREPETAG
1070
     1
1071
       59
1005
12FAF0
  0
ARC
  5
12FAF1
  8
OBJECT
 10
4083.0
 20
-755.0
 30
0.0
 40
3.0
 50
270.0
 51
0.0
1001
ACDBBLOCKREPETAG
1070
     1
1071
       60
1005
12FAF1
  0
LINE
  5
12FAF2
  8
OBJECT
 10
4086.0
 20
-755.0
 30
0.0
 11
4086.0
 21
-637.0
 31
0.0
1001
ACDBBLOCKREPETAG
1070
     1
1071
       61
1005
12FAF2
  0
LINE
  5
12FAF3
  8
HIDDEN
 10
4088.0
 20
-651.5
 30
0.0
 11
4088.0
 21
-740.5
 31
0.0
1001
ACDBBLOCKREPETAG
1070
     1
1071
       63
1005
12FAF3
  0
POLYLINE
  5
12FAF4
  8
HIDDEN
 66
     1
 10
0.0
 20
0.0
 30
0.0
 70
     1
1001
ACDBBLOCKREPETAG
1070
     1
1071
      105
1005
0
  0
VERTEX
  5
1309AC
  8
HIDDEN
 10
359.99999999987818
 20
0.0
 30
0.0
  0
VERTEX
  5
1309AD
  8
HIDDEN
 10
719.99999999975626
 20
0.0
 30
0.0
  0
VERTEX
  5
1309AE
  8
HIDDEN
 10
719.99999999975626
 20
-463.99999999984158
 30
0.0
  0
VERTEX
  5
1309AF
  8
HIDDEN
 10
359.99999999987818
 20
-463.99999999984158
 30
0.0
  0
SEQEND
  5
1309B0
  8
HIDDEN
  0
POLYLINE
  5
12FAF5
  8
HIDDEN
 66
     1
 10
0.0
 20
0.0
 30
0.0
 70
     1
1001
ACDBBLOCKREPETAG
1070
     1
1071
      110
1005
0
  0
VERTEX
  5
1309B1
  8
HIDDEN
 10
0.0
 20
0.0
 30
0.0
  0
VERTEX
  5
1309B2
  8
HIDDEN
 10
359.99999999987818
 20
0.0
 30
0.0
  0
VERTEX
  5
1309B3
  8
HIDDEN
 10
359.99999999987818
 20
-463.99999999984158
 30
0.0
  0
VERTEX
  5
1309B4
  8
HIDDEN
 10
0.0
 20
-463.99999999984158
 30
0.0
  0
SEQEND
  5
1309B5
  8
HIDDEN
  0
POLYLINE
  5
12FAF6
  8
HIDDEN
 66
     1
 10
0.0
 20
0.0
 30
0.0
 70
     1
1001
ACDBBLOCKREPETAG
1070
     1
1071
      120
1005
0
  0
VERTEX
  5
1309B6
  8
HIDDEN
 10
359.99999999987818
 20
-463.99999999984158
 30
0.0
  0
VERTEX
  5
1309B7
  8
HIDDEN
 10
719.99999999975626
 20
-463.99999999984158
 30
0.0
  0
VERTEX
  5
1309B8
  8
HIDDEN
 10
719.99999999975626
 20
-927.9999999996835
 30
0.0
  0
VERTEX
  5
1309B9
  8
HIDDEN
 10
359.99999999987818
 20
-927.9999999996835
 30
0.0
  0
SEQEND
  5
1309BA
  8
HIDDEN
  0
POLYLINE
  5
12FAF7
  8
HIDDEN
 66
     1
 10
0.0
 20
0.0
 30
0.0
 70
     1
1001
ACDBBLOCKREPETAG
1070
     1
1071
      125
1005
0
  0
VERTEX
  5
1309BB
  8
HIDDEN
 10
0.0
 20
-463.99999999984158
 30
0.0
  0
VERTEX
  5
1309BC
  8
HIDDEN
 10
359.99999999987818
 20
-463.99999999984158
 30
0.0
  0
VERTEX
  5
1309BD
  8
HIDDEN
 10
359.99999999987818
 20
-927.9999999996835
 30
0.0
  0
VERTEX
  5
1309BE
  8
HIDDEN
 10
0.0
 20
-927.9999999996835
 30
0.0
  0
SEQEND
  5
1309BF
  8
HIDDEN
  0
POLYLINE
  5
12FAF8
  8
HIDDEN
 66
     1
 10
0.0
 20
0.0
 30
0.0
 70
     1
1001
ACDBBLOCKREPETAG
1070
     1
1071
      130
1005
0
  0
VERTEX
  5
1309C0
  8
HIDDEN
 10
359.99999999987818
 20
-927.9999999996835
 30
0.0
  0
VERTEX
  5
1309C1
  8
HIDDEN
 10
719.99999999975626
 20
-927.9999999996835
 30
0.0
  0
VERTEX
  5
1309C2
  8
HIDDEN
 10
719.99999999975626
 20
-1391.999999999525
 30
0.0
  0
VERTEX
  5
1309C3
  8
HIDDEN
 10
359.99999999987818
 20
-1391.999999999525
 30
0.0
  0
SEQEND
  5
1309C4
  8
HIDDEN
  0
POLYLINE
  5
12FAF9
  8
HIDDEN
 66
     1
 10
0.0
 20
0.0
 30
0.0
 70
     1
1001
ACDBBLOCKREPETAG
1070
     1
1071
      135
1005
0
  0
VERTEX
  5
1309C5
  8
HIDDEN
 10
0.0
 20
-927.9999999996835
 30
0.0
  0
VERTEX
  5
1309C6
  8
HIDDEN
 10
359.99999999987818
 20
-927.9999999996835
 30
0.0
  0
VERTEX
  5
1309C7
  8
HIDDEN
 10
359.99999999987818
 20
-1391.999999999525
 30
0.0
  0
VERTEX
  5
1309C8
  8
HIDDEN
 10
0.0
 20
-1391.999999999525
 30
0.0
  0
SEQEND
  5
1309C9
  8
HIDDEN
  0
POLYLINE
  5
12FAFA
  8
HIDDEN
 66
     1
 10
0.0
 20
0.0
 30
0.0
 70
     1
1001
ACDBBLOCKREPETAG
1070
     1
1071
      160
1005
0
  0
VERTEX
  5
1309CA
  8
HIDDEN
 10
359.99999999987818
 20
-1391.999999999525
 30
0.0
  0
VERTEX
  5
1309CB
  8
HIDDEN
 10
719.99999999975626
 20
-1391.999999999525
 30
0.0
  0
VERTEX
  5
1309CC
  8
HIDDEN
 10
719.99999999975626
 20
-1855.999999999367
 30
0.0
  0
VERTEX
  5
1309CD
  8
HIDDEN
 10
359.99999999987818
 20
-1855.999999999367
 30
0.0
  0
SEQEND
  5
1309CE
  8
HIDDEN
  0
POLYLINE
  5
12FAFB
  8
HIDDEN
 66
     1
 10
0.0
 20
0.0
 30
0.0
 70
     1
1001
ACDBBLOCKREPETAG
1070
     1
1071
      165
1005
0
  0
VERTEX
  5
1309CF
  8
HIDDEN
 10
0.0
 20
-1391.999999999525
 30
0.0
  0
VERTEX
  5
1309D0
  8
HIDDEN
 10
359.99999999987818
 20
-1391.999999999525
 30
0.0
  0
VERTEX
  5
1309D1
  8
HIDDEN
 10
359.99999999987818
 20
-1855.999999999367
 30
0.0
  0
VERTEX
  5
1309D2
  8
HIDDEN
 10
0.0
 20
-1855.999999999367
 30
0.0
  0
SEQEND
  5
1309D3
  8
HIDDEN
  0
POLYLINE
  5
12FAFC
  8
HIDDEN
 66
     1
 10
0.0
 20
0.0
 30
0.0
 70
     1
1001
ACDBBLOCKREPETAG
1070
     1
1071
      170
1005
0
  0
VERTEX
  5
1309D4
  8
HIDDEN
 10
359.99999999987818
 20
-1855.999999999367
 30
0.0
  0
VERTEX
  5
1309D5
  8
HIDDEN
 10
719.99999999975626
 20
-1855.999999999367
 30
0.0
  0
VERTEX
  5
1309D6
  8
HIDDEN
 10
719.99999999975626
 20
-2319.9999999992092
 30
0.0
  0
VERTEX
  5
1309D7
  8
HIDDEN
 10
359.99999999987818
 20
-2319.9999999992092
 30
0.0
  0
SEQEND
  5
1309D8
  8
HIDDEN
  0
POLYLINE
  5
12FAFD
  8
HIDDEN
 66
     1
 10
0.0
 20
0.0
 30
0.0
 70
     1
1001
ACDBBLOCKREPETAG
1070
     1
1071
      175
1005
0
  0
VERTEX
  5
1309D9
  8
HIDDEN
 10
0.0
 20
-1855.999999999367
 30
0.0
  0
VERTEX
  5
1309DA
  8
HIDDEN
 10
359.99999999987818
 20
-1855.999999999367
 30
0.0
  0
VERTEX
  5
1309DB
  8
HIDDEN
 10
359.99999999987818
 20
-2319.9999999992092
 30
0.0
  0
VERTEX
  5
1309DC
  8
HIDDEN
 10
0.0
 20
-2319.9999999992092
 30
0.0
  0
SEQEND
  5
1309DD
  8
HIDDEN
  0
TEXT
  5
12FAFE
  8
SLIM
 10
420.17142857124622
 20
-2299.999999999216
 30
0.0
 40
48.0
  1
B404（特）
 41
0.75
1001
ACDBBLOCKREPETAG
1070
     1
1071
      119
1005
12DC99
  0
LINE
  5
12FAFF
  8
OBJECT
 10
610.99999999849024
 20
-2201.9999999970728
 30
0.0
 11
610.99999999849024
 21
-2194.9999999970728
 31
0.0
1001
ACDBBLOCKREPETAG
1070
     1
1071
       57
1005
12FAFF
  0
LINE
  5
12FB00
  8
OBJECT
 10
610.99999999849024
 20
-2194.9999999970728
 30
0.0
 11
460.99999999849018
 21
-2194.9999999970728
 31
0.0
1001
ACDBBLOCKREPETAG
1070
     1
1071
       58
1005
12FB00
  0
LINE
  5
12FB01
  8
OBJECT
 10
607.99999999849024
 20
-2153.4999999970728
 30
0.0
 11
463.99999999849018
 21
-2153.4999999970728
 31
0.0
1001
ACDBBLOCKREPETAG
1070
     1
1071
       59
1005
12FB01
  0
LINE
  5
12FB02
  8
OBJECT
 10
601.49999999849024
 20
-2141.9999999970728
 30
0.0
 11
470.49999999849018
 21
-2141.9999999970728
 31
0.0
1001
ACDBBLOCKREPETAG
1070
     1
1071
       60
1005
12FB02
  0
LINE
  5
12FB03
  8
OBJECT
 10
460.99999999849018
 20
-2194.9999999970728
 30
0.0
 11
460.99999999849018
 21
-2201.9999999970728
 31
0.0
1001
ACDBBLOCKREPETAG
1070
     1
1071
       61
1005
12FB03
  0
LINE
  5
12FB04
  8
OBJECT
 10
460.99999999849018
 20
-2201.9999999970728
 30
0.0
 11
610.99999999849024
 21
-2201.9999999970728
 31
0.0
1001
ACDBBLOCKREPETAG
1070
     1
1071
       62
1005
12FB04
  0
LINE
  5
12FB05
  8
OBJECT
 10
473.99999999849018
 20
-2137.9999999970728
 30
0.0
 11
473.99999999849018
 21
-2131.9999999970751
 31
0.0
1001
ACDBBLOCKREPETAG
1070
     1
1071
       63
1005
12FB05
  0
LINE
  5
12FB06
  8
OBJECT
 10
463.99999999849018
 20
-2194.9999999970728
 30
0.0
 11
463.99999999849018
 21
-2153.4999999970728
 31
0.0
1001
ACDBBLOCKREPETAG
1070
     1
1071
       64
1005
12FB06
  0
LINE
  5
12FB07
  8
OBJECT
 10
463.99999999849018
 20
-2153.4999999970728
 30
0.0
 11
470.49999999849018
 21
-2141.9999999970728
 31
0.0
1001
ACDBBLOCKREPETAG
1070
     1
1071
       65
1005
12FB07
  0
LINE
  5
12FB08
  8
OBJECT
 10
470.49999999849018
 20
-2141.9999999970728
 30
0.0
 11
473.99999999849018
 21
-2137.9999999970728
 31
0.0
1001
ACDBBLOCKREPETAG
1070
     1
1071
       66
1005
12FB08
  0
LINE
  5
12FB09
  8
OBJECT
 10
607.99999999849024
 20
-2153.4999999970728
 30
0.0
 11
601.49999999849024
 21
-2141.9999999970728
 31
0.0
1001
ACDBBLOCKREPETAG
1070
     1
1071
       67
1005
12FB09
  0
LINE
  5
12FB0A
  8
OBJECT
 10
601.49999999849024
 20
-2141.9999999970728
 30
0.0
 11
597.99999999849024
 21
-2137.9999999970728
 31
0.0
1001
ACDBBLOCKREPETAG
1070
     1
1071
       68
1005
12FB0A
  0
ARC
  5
12FB0B
  8
OBJECT
 10
535.99999999849024
 20
-2519.8999999970752
 30
0.0
 40
386.89999999999998
 50
80.778701362368551
 51
99.221298637631435
1001
ACDBBLOCKREPETAG
1070
     1
1071
       69
1005
12FB0B
  0
LINE
  5
12FB0C
  8
OBJECT
 10
597.99999999849024
 20
-2137.9999999970728
 30
0.0
 11
597.99999999849024
 21
-2131.9999999970751
 31
0.0
1001
ACDBBLOCKREPETAG
1070
     1
1071
       70
1005
12FB0C
  0
LINE
  5
12FB0D
  8
OBJECT
 10
607.99999999849024
 20
-2194.9999999970728
 30
0.0
 11
607.99999999849024
 21
-2153.4999999970728
 31
0.0
1001
ACDBBLOCKREPETAG
1070
     1
1071
       71
1005
12FB0D
  0
INSERT
  5
12FB0E
  8
OBJECT
  2
*U20
 10
0.0
 20
0.0
 30
0.0
  0
LINE
  5
12FB0F
  8
HIDDEN
 10
478.99999999849018
 20
-2149.9999999970728
 30
0.0
 11
592.99999999849024
 21
-2149.9999999970728
 31
0.0
1001
ACDBBLOCKREPETAG
1070
     1
1071
      437
1005
12FB0F
  0
LINE
  5
12FB10
  8
OBJECT
 10
618.99999999849024
 20
-2113.9999999970728
 30
0.0
 11
615.99999999849024
 21
-2113.9999999970728
 31
0.0
1001
ACDBBLOCKREPETAG
1070
     1
1071
      418
1005
12FB10
  0
ARC
  5
12FB11
  8
OBJECT
 10
618.99999999849024
 20
-2110.9999999970728
 30
0.0
 40
3.0
 50
270.0
 51
0.0
1001
ACDBBLOCKREPETAG
1070
     1
1071
      419
1005
12FB11
  0
LINE
  5
12FB12
  8
OBJECT
 10
615.99999999849024
 20
-1989.999999997073
 30
0.0
 11
618.99999999849024
 21
-1989.999999997073
 31
0.0
1001
ACDBBLOCKREPETAG
1070
     1
1071
      420
1005
12FB12
  0
ARC
  5
12FB13
  8
OBJECT
 10
618.99999999849024
 20
-1992.999999997073
 30
0.0
 40
3.0
 50
0.0
 51
90.0
1001
ACDBBLOCKREPETAG
1070
     1
1071
      421
1005
12FB13
  0
LINE
  5
12FB14
  8
OBJECT
 10
621.99999999849024
 20
-1992.999999997073
 30
0.0
 11
621.99999999849024
 21
-2110.9999999970728
 31
0.0
1001
ACDBBLOCKREPETAG
1070
     1
1071
      422
1005
12FB14
  0
LINE
  5
12FB15
  8
OBJECT
 10
460.99999999849018
 20
-1901.999999997073
 30
0.0
 11
460.99999999849018
 21
-1908.999999997073
 31
0.0
1001
ACDBBLOCKREPETAG
1070
     1
1071
       57
1005
12FB15
  0
LINE
  5
12FB16
  8
OBJECT
 10
460.99999999849018
 20
-1908.999999997073
 30
0.0
 11
610.99999999849024
 21
-1908.999999997073
 31
0.0
1001
ACDBBLOCKREPETAG
1070
     1
1071
       58
1005
12FB16
  0
LINE
  5
12FB17
  8
OBJECT
 10
463.99999999849018
 20
-1950.499999997073
 30
0.0
 11
607.99999999849024
 21
-1950.499999997073
 31
0.0
1001
ACDBBLOCKREPETAG
1070
     1
1071
       59
1005
12FB17
  0
LINE
  5
12FB18
  8
OBJECT
 10
470.49999999849018
 20
-1961.999999997073
 30
0.0
 11
601.49999999849024
 21
-1961.999999997073
 31
0.0
1001
ACDBBLOCKREPETAG
1070
     1
1071
       60
1005
12FB18
  0
LINE
  5
12FB19
  8
OBJECT
 10
610.99999999849024
 20
-1908.999999997073
 30
0.0
 11
610.99999999849024
 21
-1901.999999997073
 31
0.0
1001
ACDBBLOCKREPETAG
1070
     1
1071
       61
1005
12FB19
  0
LINE
  5
12FB1A
  8
OBJECT
 10
610.99999999849024
 20
-1901.999999997073
 30
0.0
 11
460.99999999849018
 21
-1901.999999997073
 31
0.0
1001
ACDBBLOCKREPETAG
1070
     1
1071
       62
1005
12FB1A
  0
LINE
  5
12FB1B
  8
OBJECT
 10
597.99999999849024
 20
-1965.999999997073
 30
0.0
 11
597.99999999849024
 21
-1971.999999997073
 31
0.0
1001
ACDBBLOCKREPETAG
1070
     1
1071
       63
1005
12FB1B
  0
LINE
  5
12FB1C
  8
OBJECT
 10
607.99999999849024
 20
-1908.999999997073
 30
0.0
 11
607.99999999849024
 21
-1950.499999997073
 31
0.0
1001
ACDBBLOCKREPETAG
1070
     1
1071
       64
1005
12FB1C
  0
LINE
  5
12FB1D
  8
OBJECT
 10
607.99999999849024
 20
-1950.499999997073
 30
0.0
 11
601.49999999849024
 21
-1961.999999997073
 31
0.0
1001
ACDBBLOCKREPETAG
1070
     1
1071
       65
1005
12FB1D
  0
LINE
  5
12FB1E
  8
OBJECT
 10
601.49999999849024
 20
-1961.999999997073
 30
0.0
 11
597.99999999849024
 21
-1965.999999997073
 31
0.0
1001
ACDBBLOCKREPETAG
1070
     1
1071
       66
1005
12FB1E
  0
LINE
  5
12FB1F
  8
OBJECT
 10
463.99999999849018
 20
-1950.499999997073
 30
0.0
 11
470.49999999849018
 21
-1961.999999997073
 31
0.0
1001
ACDBBLOCKREPETAG
1070
     1
1071
       67
1005
12FB1F
  0
LINE
  5
12FB20
  8
OBJECT
 10
470.49999999849018
 20
-1961.999999997073
 30
0.0
 11
473.99999999849018
 21
-1965.999999997073
 31
0.0
1001
ACDBBLOCKREPETAG
1070
     1
1071
       68
1005
12FB20
  0
ARC
  5
12FB21
  8
OBJECT
 10
535.99999999849024
 20
-1584.099999997072
 30
0.0
 40
386.89999999999998
 50
260.77870136257849
 51
279.22129863742163
1001
ACDBBLOCKREPETAG
1070
     1
1071
       69
1005
12FB21
  0
LINE
  5
12FB22
  8
OBJECT
 10
473.99999999849018
 20
-1965.999999997073
 30
0.0
 11
473.99999999849018
 21
-1971.999999997073
 31
0.0
1001
ACDBBLOCKREPETAG
1070
     1
1071
       70
1005
12FB22
  0
LINE
  5
12FB23
  8
OBJECT
 10
463.99999999849018
 20
-1908.999999997073
 30
0.0
 11
463.99999999849018
 21
-1950.499999997073
 31
0.0
1001
ACDBBLOCKREPETAG
1070
     1
1071
       71
1005
12FB23
  0
INSERT
  5
12FB24
  8
OBJECT
  2
*U21
 10
0.0
 20
0.0
 30
0.0
  0
LINE
  5
12FB25
  8
HIDDEN
 10
592.99999999849024
 20
-1953.999999997073
 30
0.0
 11
478.99999999849018
 21
-1953.999999997073
 31
0.0
1001
ACDBBLOCKREPETAG
1070
     1
1071
      431
1005
12FB25
  0
TEXT
  5
12FB26
  8
SLIM
 10
60.171428571368068
 20
-2299.999999999216
 30
0.0
 40
48.0
  1
B304（特）
 41
0.75
1001
ACDBBLOCKREPETAG
1070
     1
1071
      119
1005
12DC99
  0
LINE
  5
12FB27
  8
OBJECT
 10
250.99999999861211
 20
-2201.9999999970728
 30
0.0
 11
250.99999999861211
 21
-2194.9999999970728
 31
0.0
1001
ACDBBLOCKREPETAG
1070
     1
1071
       57
1005
12FB27
  0
LINE
  5
12FB28
  8
OBJECT
 10
250.99999999861211
 20
-2194.9999999970728
 30
0.0
 11
100.9999999986121
 21
-2194.9999999970728
 31
0.0
1001
ACDBBLOCKREPETAG
1070
     1
1071
       58
1005
12FB28
  0
LINE
  5
12FB29
  8
OBJECT
 10
247.99999999861211
 20
-2153.4999999970728
 30
0.0
 11
103.9999999986121
 21
-2153.4999999970728
 31
0.0
1001
ACDBBLOCKREPETAG
1070
     1
1071
       59
1005
12FB29
  0
LINE
  5
12FB2A
  8
OBJECT
 10
241.49999999861211
 20
-2141.9999999970728
 30
0.0
 11
110.4999999986121
 21
-2141.9999999970728
 31
0.0
1001
ACDBBLOCKREPETAG
1070
     1
1071
       60
1005
12FB2A
  0
LINE
  5
12FB2B
  8
OBJECT
 10
100.9999999986121
 20
-2194.9999999970728
 30
0.0
 11
100.9999999986121
 21
-2201.9999999970728
 31
0.0
1001
ACDBBLOCKREPETAG
1070
     1
1071
       61
1005
12FB2B
  0
LINE
  5
12FB2C
  8
OBJECT
 10
100.9999999986121
 20
-2201.9999999970728
 30
0.0
 11
250.99999999861211
 21
-2201.9999999970728
 31
0.0
1001
ACDBBLOCKREPETAG
1070
     1
1071
       62
1005
12FB2C
  0
LINE
  5
12FB2D
  8
OBJECT
 10
113.9999999986121
 20
-2137.9999999970728
 30
0.0
 11
113.9999999986121
 21
-2131.9999999970751
 31
0.0
1001
ACDBBLOCKREPETAG
1070
     1
1071
       63
1005
12FB2D
  0
LINE
  5
12FB2E
  8
OBJECT
 10
103.9999999986121
 20
-2194.9999999970728
 30
0.0
 11
103.9999999986121
 21
-2153.4999999970728
 31
0.0
1001
ACDBBLOCKREPETAG
1070
     1
1071
       64
1005
12FB2E
  0
LINE
  5
12FB2F
  8
OBJECT
 10
103.9999999986121
 20
-2153.4999999970728
 30
0.0
 11
110.4999999986121
 21
-2141.9999999970728
 31
0.0
1001
ACDBBLOCKREPETAG
1070
     1
1071
       65
1005
12FB2F
  0
LINE
  5
12FB30
  8
OBJECT
 10
110.4999999986121
 20
-2141.9999999970728
 30
0.0
 11
113.9999999986121
 21
-2137.9999999970728
 31
0.0
1001
ACDBBLOCKREPETAG
1070
     1
1071
       66
1005
12FB30
  0
LINE
  5
12FB31
  8
OBJECT
 10
247.99999999861211
 20
-2153.4999999970728
 30
0.0
 11
241.49999999861211
 21
-2141.9999999970728
 31
0.0
1001
ACDBBLOCKREPETAG
1070
     1
1071
       67
1005
12FB31
  0
LINE
  5
12FB32
  8
OBJECT
 10
241.49999999861211
 20
-2141.9999999970728
 30
0.0
 11
237.99999999861211
 21
-2137.9999999970728
 31
0.0
1001
ACDBBLOCKREPETAG
1070
     1
1071
       68
1005
12FB32
  0
ARC
  5
12FB33
  8
OBJECT
 10
175.99999999861211
 20
-2519.8999999970752
 30
0.0
 40
386.89999999999998
 50
80.778701362368551
 51
99.221298637631435
1001
ACDBBLOCKREPETAG
1070
     1
1071
       69
1005
12FB33
  0
LINE
  5
12FB34
  8
OBJECT
 10
237.99999999861211
 20
-2137.9999999970728
 30
0.0
 11
237.99999999861211
 21
-2131.9999999970751
 31
0.0
1001
ACDBBLOCKREPETAG
1070
     1
1071
       70
1005
12FB34
  0
LINE
  5
12FB35
  8
OBJECT
 10
247.99999999861211
 20
-2194.9999999970728
 30
0.0
 11
247.99999999861211
 21
-2153.4999999970728
 31
0.0
1001
ACDBBLOCKREPETAG
1070
     1
1071
       71
1005
12FB35
  0
INSERT
  5
12FB36
  8
OBJECT
  2
*U22
 10
0.0
 20
0.0
 30
0.0
  0
LINE
  5
12FB37
  8
HIDDEN
 10
118.9999999986121
 20
-2149.9999999970728
 30
0.0
 11
232.99999999861211
 21
-2149.9999999970728
 31
0.0
1001
ACDBBLOCKREPETAG
1070
     1
1071
      437
1005
12FB37
  0
LINE
  5
12FB38
  8
OBJECT
 10
258.99999999861211
 20
-2113.9999999970728
 30
0.0
 11
255.99999999861211
 21
-2113.9999999970728
 31
0.0
1001
ACDBBLOCKREPETAG
1070
     1
1071
      418
1005
12FB38
  0
ARC
  5
12FB39
  8
OBJECT
 10
258.99999999861211
 20
-2110.9999999970728
 30
0.0
 40
3.0
 50
270.0
 51
0.0
1001
ACDBBLOCKREPETAG
1070
     1
1071
      419
1005
12FB39
  0
LINE
  5
12FB3A
  8
OBJECT
 10
255.99999999861211
 20
-1989.999999997073
 30
0.0
 11
258.99999999861211
 21
-1989.999999997073
 31
0.0
1001
ACDBBLOCKREPETAG
1070
     1
1071
      420
1005
12FB3A
  0
ARC
  5
12FB3B
  8
OBJECT
 10
258.99999999861211
 20
-1992.999999997073
 30
0.0
 40
3.0
 50
0.0
 51
90.0
1001
ACDBBLOCKREPETAG
1070
     1
1071
      421
1005
12FB3B
  0
LINE
  5
12FB3C
  8
OBJECT
 10
261.99999999861211
 20
-1992.999999997073
 30
0.0
 11
261.99999999861211
 21
-2110.9999999970728
 31
0.0
1001
ACDBBLOCKREPETAG
1070
     1
1071
      422
1005
12FB3C
  0
INSERT
  5
12FB3D
  8
OBJECT
  2
*U23
 10
0.0
 20
0.0
 30
0.0
  0
LINE
  5
12FB3E
  8
OBJECT
 10
113.9999999986121
 20
-1918.999999997073
 30
0.0
 11
113.9999999986121
 21
-1911.999999997073
 31
0.0
1001
ACDBBLOCKREPETAG
1070
     1
1071
       39
1005
12FB3E
  0
LINE
  5
12FB3F
  8
OBJECT
 10
113.9999999986121
 20
-1911.999999997073
 30
0.0
 11
237.99999999861211
 21
-1911.999999997073
 31
0.0
1001
ACDBBLOCKREPETAG
1070
     1
1071
       40
1005
12FB3F
  0
LINE
  5
12FB40
  8
OBJECT
 10
237.99999999861211
 20
-1911.999999997073
 30
0.0
 11
237.99999999861211
 21
-1918.999999997073
 31
0.0
1001
ACDBBLOCKREPETAG
1070
     1
1071
       41
1005
12FB40
  0
LINE
  5
12FB41
  8
OBJECT
 10
237.99999999861211
 20
-1918.999999997073
 30
0.0
 11
113.9999999986121
 21
-1918.999999997073
 31
0.0
1001
ACDBBLOCKREPETAG
1070
     1
1071
       42
1005
12FB41
  0
LINE
  5
12FB42
  8
OBJECT
 10
116.9999999986121
 20
-1918.999999997073
 30
0.0
 11
116.9999999986121
 21
-1954.999999997073
 31
0.0
1001
ACDBBLOCKREPETAG
1070
     1
1071
       43
1005
12FB42
  0
LINE
  5
12FB43
  8
OBJECT
 10
116.9999999986121
 20
-1954.999999997073
 30
0.0
 11
234.99999999861211
 21
-1954.999999997073
 31
0.0
1001
ACDBBLOCKREPETAG
1070
     1
1071
       44
1005
12FB43
  0
LINE
  5
12FB44
  8
OBJECT
 10
234.99999999861211
 20
-1954.999999997073
 30
0.0
 11
234.99999999861211
 21
-1918.999999997073
 31
0.0
1001
ACDBBLOCKREPETAG
1070
     1
1071
       45
1005
12FB44
  0
LINE
  5
12FB45
  8
OBJECT
 10
121.4999999986121
 20
-1958.999999997073
 30
0.0
 11
121.4999999986121
 21
-1965.999999997073
 31
0.0
1001
ACDBBLOCKREPETAG
1070
     1
1071
       46
1005
12FB45
  0
LINE
  5
12FB46
  8
OBJECT
 10
230.49999999861211
 20
-1965.999999997073
 30
0.0
 11
230.49999999861211
 21
-1958.999999997073
 31
0.0
1001
ACDBBLOCKREPETAG
1070
     1
1071
       47
1005
12FB46
  0
LINE
  5
12FB47
  8
OBJECT
 10
230.49999999861211
 20
-1958.999999997073
 30
0.0
 11
121.4999999986121
 21
-1958.999999997073
 31
0.0
1001
ACDBBLOCKREPETAG
1070
     1
1071
       48
1005
12FB47
  0
LINE
  5
12FB48
  8
OBJECT
 10
116.9999999986121
 20
-1954.999999997073
 30
0.0
 11
121.4999999986121
 21
-1958.999999997073
 31
0.0
1001
ACDBBLOCKREPETAG
1070
     1
1071
       49
1005
12FB48
  0
LINE
  5
12FB49
  8
OBJECT
 10
234.99999999861211
 20
-1954.999999997073
 30
0.0
 11
230.49999999861211
 21
-1958.999999997073
 31
0.0
1001
ACDBBLOCKREPETAG
1070
     1
1071
       50
1005
12FB49
  0
LINE
  5
12FB4A
  8
OBJECT
 10
113.9999999986121
 20
-1968.9999999970721
 30
0.0
 11
113.9999999986121
 21
-1971.999999997073
 31
0.0
1001
ACDBBLOCKREPETAG
1070
     1
1071
       51
1005
12FB4A
  0
ARC
  5
12FB4B
  8
OBJECT
 10
116.9999999986121
 20
-1968.9999999970721
 30
0.0
 40
3.0
 50
90.0
 51
180.0
1001
ACDBBLOCKREPETAG
1070
     1
1071
       52
1005
12FB4B
  0
LINE
  5
12FB4C
  8
OBJECT
 10
237.99999999861211
 20
-1971.999999997073
 30
0.0
 11
237.99999999861211
 21
-1968.999999997073
 31
0.0
1001
ACDBBLOCKREPETAG
1070
     1
1071
       53
1005
12FB4C
  0
ARC
  5
12FB4D
  8
OBJECT
 10
234.99999999861211
 20
-1968.999999997073
 30
0.0
 40
3.0
 50
0.0
 51
90.0
1001
ACDBBLOCKREPETAG
1070
     1
1071
       54
1005
12FB4D
  0
LINE
  5
12FB4E
  8
OBJECT
 10
234.99999999861211
 20
-1965.999999997073
 30
0.0
 11
116.9999999986121
 21
-1965.9999999970721
 31
0.0
1001
ACDBBLOCKREPETAG
1070
     1
1071
       55
1005
12FB4E
  0
LINE
  5
12FB4F
  8
HIDDEN
 10
131.49999999861211
 20
-1963.999999997073
 30
0.0
 11
220.49999999861211
 21
-1963.999999997073
 31
0.0
1001
ACDBBLOCKREPETAG
1070
     1
1071
      426
1005
12FB4F
  0
TEXT
  5
12FB50
  8
SLIM
 10
420.17142857124622
 20
-1835.9999999993749
 30
0.0
 40
48.0
  1
B303（特）
 41
0.75
1001
ACDBBLOCKREPETAG
1070
     1
1071
      119
1005
12DC99
  0
LINE
  5
12FB51
  8
OBJECT
 10
597.99999999849024
 20
-1720.999999997231
 30
0.0
 11
597.99999999849024
 21
-1727.999999997231
 31
0.0
1001
ACDBBLOCKREPETAG
1070
     1
1071
       38
1005
12FB51
  0
LINE
  5
12FB52
  8
OBJECT
 10
597.99999999849024
 20
-1727.999999997231
 30
0.0
 11
473.99999999849018
 21
-1727.999999997231
 31
0.0
1001
ACDBBLOCKREPETAG
1070
     1
1071
       39
1005
12FB52
  0
LINE
  5
12FB53
  8
OBJECT
 10
473.99999999849018
 20
-1727.999999997231
 30
0.0
 11
473.99999999849018
 21
-1720.999999997231
 31
0.0
1001
ACDBBLOCKREPETAG
1070
     1
1071
       40
1005
12FB53
  0
LINE
  5
12FB54
  8
OBJECT
 10
473.99999999849018
 20
-1720.999999997231
 30
0.0
 11
597.99999999849024
 21
-1720.999999997231
 31
0.0
1001
ACDBBLOCKREPETAG
1070
     1
1071
       41
1005
12FB54
  0
LINE
  5
12FB55
  8
OBJECT
 10
594.99999999849024
 20
-1720.999999997231
 30
0.0
 11
594.99999999849024
 21
-1684.999999997231
 31
0.0
1001
ACDBBLOCKREPETAG
1070
     1
1071
       42
1005
12FB55
  0
LINE
  5
12FB56
  8
OBJECT
 10
594.99999999849024
 20
-1684.999999997231
 30
0.0
 11
476.99999999849018
 21
-1684.999999997231
 31
0.0
1001
ACDBBLOCKREPETAG
1070
     1
1071
       43
1005
12FB56
  0
LINE
  5
12FB57
  8
OBJECT
 10
476.99999999849018
 20
-1684.999999997231
 30
0.0
 11
476.99999999849018
 21
-1720.999999997231
 31
0.0
1001
ACDBBLOCKREPETAG
1070
     1
1071
       44
1005
12FB57
  0
LINE
  5
12FB58
  8
OBJECT
 10
590.49999999849024
 20
-1680.999999997231
 30
0.0
 11
590.49999999849024
 21
-1673.999999997231
 31
0.0
1001
ACDBBLOCKREPETAG
1070
     1
1071
       45
1005
12FB58
  0
LINE
  5
12FB59
  8
OBJECT
 10
481.49999999849018
 20
-1673.999999997231
 30
0.0
 11
481.49999999849018
 21
-1680.999999997231
 31
0.0
1001
ACDBBLOCKREPETAG
1070
     1
1071
       46
1005
12FB59
  0
LINE
  5
12FB5A
  8
OBJECT
 10
481.49999999849018
 20
-1680.999999997231
 30
0.0
 11
590.49999999849024
 21
-1680.999999997231
 31
0.0
1001
ACDBBLOCKREPETAG
1070
     1
1071
       47
1005
12FB5A
  0
LINE
  5
12FB5B
  8
OBJECT
 10
594.99999999849024
 20
-1684.999999997231
 30
0.0
 11
590.49999999849024
 21
-1680.999999997231
 31
0.0
1001
ACDBBLOCKREPETAG
1070
     1
1071
       48
1005
12FB5B
  0
LINE
  5
12FB5C
  8
OBJECT
 10
476.99999999849018
 20
-1684.999999997231
 30
0.0
 11
481.49999999849018
 21
-1680.999999997231
 31
0.0
1001
ACDBBLOCKREPETAG
1070
     1
1071
       49
1005
12FB5C
  0
LINE
  5
12FB5D
  8
OBJECT
 10
597.99999999849024
 20
-1670.999999997231
 30
0.0
 11
597.99999999849024
 21
-1667.999999997231
 31
0.0
1001
ACDBBLOCKREPETAG
1070
     1
1071
       50
1005
12FB5D
  0
ARC
  5
12FB5E
  8
OBJECT
 10
594.99999999849024
 20
-1670.999999997231
 30
0.0
 40
3.0
 50
270.0
 51
0.0
1001
ACDBBLOCKREPETAG
1070
     1
1071
       51
1005
12FB5E
  0
LINE
  5
12FB5F
  8
OBJECT
 10
473.99999999849018
 20
-1667.999999997231
 30
0.0
 11
473.99999999849018
 21
-1670.999999997231
 31
0.0
1001
ACDBBLOCKREPETAG
1070
     1
1071
       52
1005
12FB5F
  0
ARC
  5
12FB60
  8
OBJECT
 10
476.99999999849018
 20
-1670.999999997231
 30
0.0
 40
3.0
 50
180.0
 51
270.0
1001
ACDBBLOCKREPETAG
1070
     1
1071
       53
1005
12FB60
  0
LINE
  5
12FB61
  8
OBJECT
 10
476.99999999849018
 20
-1673.9999999972299
 30
0.0
 11
594.99999999849024
 21
-1673.999999997232
 31
0.0
1001
ACDBBLOCKREPETAG
1070
     1
1071
       54
1005
12FB61
  0
INSERT
  5
12FB62
  8
OBJECT
  2
*U24
 10
0.0
 20
0.0
 30
0.0
  0
LINE
  5
12FB63
  8
HIDDEN
 10
580.49999999849024
 20
-1675.999999997231
 30
0.0
 11
491.49999999849018
 21
-1675.999999997231
 31
0.0
1001
ACDBBLOCKREPETAG
1070
     1
1071
      430
1005
12FB63
  0
LINE
  5
12FB64
  8
OBJECT
 10
618.99999999849024
 20
-1649.999999997231
 30
0.0
 11
615.99999999849024
 21
-1649.999999997231
 31
0.0
1001
ACDBBLOCKREPETAG
1070
     1
1071
      418
1005
12FB64
  0
ARC
  5
12FB65
  8
OBJECT
 10
618.99999999849024
 20
-1646.999999997231
 30
0.0
 40
3.0
 50
270.0
 51
0.0
1001
ACDBBLOCKREPETAG
1070
     1
1071
      419
1005
12FB65
  0
LINE
  5
12FB66
  8
OBJECT
 10
615.99999999849024
 20
-1525.999999997231
 30
0.0
 11
618.99999999849024
 21
-1525.999999997231
 31
0.0
1001
ACDBBLOCKREPETAG
1070
     1
1071
      420
1005
12FB66
  0
ARC
  5
12FB67
  8
OBJECT
 10
618.99999999849024
 20
-1528.999999997231
 30
0.0
 40
3.0
 50
0.0
 51
90.0
1001
ACDBBLOCKREPETAG
1070
     1
1071
      421
1005
12FB67
  0
LINE
  5
12FB68
  8
OBJECT
 10
621.99999999849024
 20
-1528.999999997231
 30
0.0
 11
621.99999999849024
 21
-1646.999999997231
 31
0.0
1001
ACDBBLOCKREPETAG
1070
     1
1071
      422
1005
12FB68
  0
INSERT
  5
12FB69
  8
OBJECT
  2
*U25
 10
0.0
 20
0.0
 30
0.0
  0
LINE
  5
12FB6A
  8
OBJECT
 10
473.99999999849018
 20
-1454.999999997231
 30
0.0
 11
473.99999999849018
 21
-1447.999999997231
 31
0.0
1001
ACDBBLOCKREPETAG
1070
     1
1071
       39
1005
12FB6A
  0
LINE
  5
12FB6B
  8
OBJECT
 10
473.99999999849018
 20
-1447.999999997231
 30
0.0
 11
597.99999999849024
 21
-1447.999999997231
 31
0.0
1001
ACDBBLOCKREPETAG
1070
     1
1071
       40
1005
12FB6B
  0
LINE
  5
12FB6C
  8
OBJECT
 10
597.99999999849024
 20
-1447.999999997231
 30
0.0
 11
597.99999999849024
 21
-1454.999999997231
 31
0.0
1001
ACDBBLOCKREPETAG
1070
     1
1071
       41
1005
12FB6C
  0
LINE
  5
12FB6D
  8
OBJECT
 10
597.99999999849024
 20
-1454.999999997231
 30
0.0
 11
473.99999999849018
 21
-1454.999999997231
 31
0.0
1001
ACDBBLOCKREPETAG
1070
     1
1071
       42
1005
12FB6D
  0
LINE
  5
12FB6E
  8
OBJECT
 10
476.99999999849018
 20
-1454.999999997231
 30
0.0
 11
476.99999999849018
 21
-1490.999999997231
 31
0.0
1001
ACDBBLOCKREPETAG
1070
     1
1071
       43
1005
12FB6E
  0
LINE
  5
12FB6F
  8
OBJECT
 10
476.99999999849018
 20
-1490.999999997231
 30
0.0
 11
594.99999999849024
 21
-1490.999999997231
 31
0.0
1001
ACDBBLOCKREPETAG
1070
     1
1071
       44
1005
12FB6F
  0
LINE
  5
12FB70
  8
OBJECT
 10
594.99999999849024
 20
-1490.999999997231
 30
0.0
 11
594.99999999849024
 21
-1454.999999997231
 31
0.0
1001
ACDBBLOCKREPETAG
1070
     1
1071
       45
1005
12FB70
  0
LINE
  5
12FB71
  8
OBJECT
 10
481.49999999849018
 20
-1494.999999997231
 30
0.0
 11
481.49999999849018
 21
-1501.999999997231
 31
0.0
1001
ACDBBLOCKREPETAG
1070
     1
1071
       46
1005
12FB71
  0
LINE
  5
12FB72
  8
OBJECT
 10
590.49999999849024
 20
-1501.999999997231
 30
0.0
 11
590.49999999849024
 21
-1494.999999997231
 31
0.0
1001
ACDBBLOCKREPETAG
1070
     1
1071
       47
1005
12FB72
  0
LINE
  5
12FB73
  8
OBJECT
 10
590.49999999849024
 20
-1494.999999997231
 30
0.0
 11
481.49999999849018
 21
-1494.999999997231
 31
0.0
1001
ACDBBLOCKREPETAG
1070
     1
1071
       48
1005
12FB73
  0
LINE
  5
12FB74
  8
OBJECT
 10
476.99999999849018
 20
-1490.999999997231
 30
0.0
 11
481.49999999849018
 21
-1494.999999997231
 31
0.0
1001
ACDBBLOCKREPETAG
1070
     1
1071
       49
1005
12FB74
  0
LINE
  5
12FB75
  8
OBJECT
 10
594.99999999849024
 20
-1490.999999997231
 30
0.0
 11
590.49999999849024
 21
-1494.999999997231
 31
0.0
1001
ACDBBLOCKREPETAG
1070
     1
1071
       50
1005
12FB75
  0
LINE
  5
12FB76
  8
OBJECT
 10
473.99999999849018
 20
-1504.9999999972299
 30
0.0
 11
473.99999999849018
 21
-1507.999999997231
 31
0.0
1001
ACDBBLOCKREPETAG
1070
     1
1071
       51
1005
12FB76
  0
ARC
  5
12FB77
  8
OBJECT
 10
476.99999999849018
 20
-1504.9999999972299
 30
0.0
 40
3.0
 50
90.0
 51
180.0
1001
ACDBBLOCKREPETAG
1070
     1
1071
       52
1005
12FB77
  0
LINE
  5
12FB78
  8
OBJECT
 10
597.99999999849024
 20
-1507.999999997231
 30
0.0
 11
597.99999999849024
 21
-1504.999999997232
 31
0.0
1001
ACDBBLOCKREPETAG
1070
     1
1071
       53
1005
12FB78
  0
ARC
  5
12FB79
  8
OBJECT
 10
594.99999999849024
 20
-1504.999999997232
 30
0.0
 40
3.0
 50
0.0
 51
90.0
1001
ACDBBLOCKREPETAG
1070
     1
1071
       54
1005
12FB79
  0
LINE
  5
12FB7A
  8
OBJECT
 10
594.99999999849024
 20
-1501.999999997232
 30
0.0
 11
476.99999999849018
 21
-1501.9999999972299
 31
0.0
1001
ACDBBLOCKREPETAG
1070
     1
1071
       55
1005
12FB7A
  0
LINE
  5
12FB7B
  8
HIDDEN
 10
491.49999999849018
 20
-1499.999999997231
 30
0.0
 11
580.49999999849024
 21
-1499.999999997231
 31
0.0
1001
ACDBBLOCKREPETAG
1070
     1
1071
      426
1005
12FB7B
  0
TEXT
  5
12FB7C
  8
SLIM
 10
60.171428571368068
 20
-1835.9999999993749
 30
0.0
 40
48.0
  1
B204（特）
 41
0.75
1001
ACDBBLOCKREPETAG
1070
     1
1071
      119
1005
12DC99
  0
LINE
  5
12FB7D
  8
OBJECT
 10
250.99999999861211
 20
-1737.999999997231
 30
0.0
 11
250.99999999861211
 21
-1730.999999997231
 31
0.0
1001
ACDBBLOCKREPETAG
1070
     1
1071
       57
1005
12FB7D
  0
LINE
  5
12FB7E
  8
OBJECT
 10
250.99999999861211
 20
-1730.999999997231
 30
0.0
 11
100.9999999986121
 21
-1730.999999997231
 31
0.0
1001
ACDBBLOCKREPETAG
1070
     1
1071
       58
1005
12FB7E
  0
LINE
  5
12FB7F
  8
OBJECT
 10
247.99999999861211
 20
-1689.499999997232
 30
0.0
 11
103.9999999986121
 21
-1689.499999997232
 31
0.0
1001
ACDBBLOCKREPETAG
1070
     1
1071
       59
1005
12FB7F
  0
LINE
  5
12FB80
  8
OBJECT
 10
241.49999999861211
 20
-1677.999999997231
 30
0.0
 11
110.4999999986121
 21
-1677.999999997231
 31
0.0
1001
ACDBBLOCKREPETAG
1070
     1
1071
       60
1005
12FB80
  0
LINE
  5
12FB81
  8
OBJECT
 10
100.9999999986121
 20
-1730.999999997231
 30
0.0
 11
100.9999999986121
 21
-1737.999999997231
 31
0.0
1001
ACDBBLOCKREPETAG
1070
     1
1071
       61
1005
12FB81
  0
LINE
  5
12FB82
  8
OBJECT
 10
100.9999999986121
 20
-1737.999999997231
 30
0.0
 11
250.99999999861211
 21
-1737.999999997231
 31
0.0
1001
ACDBBLOCKREPETAG
1070
     1
1071
       62
1005
12FB82
  0
LINE
  5
12FB83
  8
OBJECT
 10
113.9999999986121
 20
-1673.999999997231
 30
0.0
 11
113.9999999986121
 21
-1667.999999997231
 31
0.0
1001
ACDBBLOCKREPETAG
1070
     1
1071
       63
1005
12FB83
  0
LINE
  5
12FB84
  8
OBJECT
 10
103.9999999986121
 20
-1730.999999997231
 30
0.0
 11
103.9999999986121
 21
-1689.499999997232
 31
0.0
1001
ACDBBLOCKREPETAG
1070
     1
1071
       64
1005
12FB84
  0
LINE
  5
12FB85
  8
OBJECT
 10
103.9999999986121
 20
-1689.499999997232
 30
0.0
 11
110.4999999986121
 21
-1677.999999997231
 31
0.0
1001
ACDBBLOCKREPETAG
1070
     1
1071
       65
1005
12FB85
  0
LINE
  5
12FB86
  8
OBJECT
 10
110.4999999986121
 20
-1677.999999997231
 30
0.0
 11
113.9999999986121
 21
-1673.999999997231
 31
0.0
1001
ACDBBLOCKREPETAG
1070
     1
1071
       66
1005
12FB86
  0
LINE
  5
12FB87
  8
OBJECT
 10
247.99999999861211
 20
-1689.499999997232
 30
0.0
 11
241.49999999861211
 21
-1677.999999997231
 31
0.0
1001
ACDBBLOCKREPETAG
1070
     1
1071
       67
1005
12FB87
  0
LINE
  5
12FB88
  8
OBJECT
 10
241.49999999861211
 20
-1677.999999997231
 30
0.0
 11
237.99999999861211
 21
-1673.999999997231
 31
0.0
1001
ACDBBLOCKREPETAG
1070
     1
1071
       68
1005
12FB88
  0
ARC
  5
12FB89
  8
OBJECT
 10
175.99999999861211
 20
-2055.899999997233
 30
0.0
 40
386.89999999999998
 50
80.778701362368551
 51
99.221298637631435
1001
ACDBBLOCKREPETAG
1070
     1
1071
       69
1005
12FB89
  0
LINE
  5
12FB8A
  8
OBJECT
 10
237.99999999861211
 20
-1673.999999997231
 30
0.0
 11
237.99999999861211
 21
-1667.999999997231
 31
0.0
1001
ACDBBLOCKREPETAG
1070
     1
1071
       70
1005
12FB8A
  0
LINE
  5
12FB8B
  8
OBJECT
 10
247.99999999861211
 20
-1730.999999997231
 30
0.0
 11
247.99999999861211
 21
-1689.499999997232
 31
0.0
1001
ACDBBLOCKREPETAG
1070
     1
1071
       71
1005
12FB8B
  0
INSERT
  5
12FB8C
  8
OBJECT
  2
*U26
 10
0.0
 20
0.0
 30
0.0
  0
LINE
  5
12FB8D
  8
HIDDEN
 10
118.9999999986121
 20
-1685.999999997231
 30
0.0
 11
232.99999999861211
 21
-1685.999999997231
 31
0.0
1001
ACDBBLOCKREPETAG
1070
     1
1071
      437
1005
12FB8D
  0
LINE
  5
12FB8E
  8
OBJECT
 10
258.99999999861211
 20
-1649.999999997231
 30
0.0
 11
255.99999999861211
 21
-1649.999999997231
 31
0.0
1001
ACDBBLOCKREPETAG
1070
     1
1071
      418
1005
12FB8E
  0
ARC
  5
12FB8F
  8
OBJECT
 10
258.99999999861211
 20
-1646.999999997231
 30
0.0
 40
3.0
 50
270.0
 51
0.0
1001
ACDBBLOCKREPETAG
1070
     1
1071
      419
1005
12FB8F
  0
LINE
  5
12FB90
  8
OBJECT
 10
255.99999999861211
 20
-1525.999999997231
 30
0.0
 11
258.99999999861211
 21
-1525.999999997231
 31
0.0
1001
ACDBBLOCKREPETAG
1070
     1
1071
      420
1005
12FB90
  0
ARC
  5
12FB91
  8
OBJECT
 10
258.99999999861211
 20
-1528.999999997231
 30
0.0
 40
3.0
 50
0.0
 51
90.0
1001
ACDBBLOCKREPETAG
1070
     1
1071
      421
1005
12FB91
  0
LINE
  5
12FB92
  8
OBJECT
 10
261.99999999861211
 20
-1528.999999997231
 30
0.0
 11
261.99999999861211
 21
-1646.999999997231
 31
0.0
1001
ACDBBLOCKREPETAG
1070
     1
1071
      422
1005
12FB92
  0
INSERT
  5
12FB93
  8
OBJECT
  2
*U27
 10
0.0
 20
0.0
 30
0.0
  0
LINE
  5
12FB94
  8
OBJECT
 10
120.9999999986121
 20
-1454.999999997231
 30
0.0
 11
120.9999999986121
 21
-1447.999999997231
 31
0.0
1001
ACDBBLOCKREPETAG
1070
     1
1071
       20
1005
12FB94
  0
LINE
  5
12FB95
  8
OBJECT
 10
120.9999999986121
 20
-1447.999999997231
 30
0.0
 11
230.99999999861211
 21
-1447.999999997231
 31
0.0
1001
ACDBBLOCKREPETAG
1070
     1
1071
       21
1005
12FB95
  0
LINE
  5
12FB96
  8
OBJECT
 10
230.99999999861211
 20
-1447.999999997231
 30
0.0
 11
230.99999999861211
 21
-1454.999999997231
 31
0.0
1001
ACDBBLOCKREPETAG
1070
     1
1071
       22
1005
12FB96
  0
LINE
  5
12FB97
  8
OBJECT
 10
230.99999999861211
 20
-1454.999999997231
 30
0.0
 11
120.9999999986121
 21
-1454.999999997231
 31
0.0
1001
ACDBBLOCKREPETAG
1070
     1
1071
       23
1005
12FB97
  0
LINE
  5
12FB98
  8
OBJECT
 10
123.9999999986121
 20
-1454.999999997231
 30
0.0
 11
123.9999999986121
 21
-1490.999999997231
 31
0.0
1001
ACDBBLOCKREPETAG
1070
     1
1071
       24
1005
12FB98
  0
LINE
  5
12FB99
  8
OBJECT
 10
123.9999999986121
 20
-1490.999999997231
 30
0.0
 11
227.99999999861211
 21
-1490.999999997231
 31
0.0
1001
ACDBBLOCKREPETAG
1070
     1
1071
       25
1005
12FB99
  0
LINE
  5
12FB9A
  8
OBJECT
 10
227.99999999861211
 20
-1490.999999997231
 30
0.0
 11
227.99999999861211
 21
-1454.999999997231
 31
0.0
1001
ACDBBLOCKREPETAG
1070
     1
1071
       26
1005
12FB9A
  0
LINE
  5
12FB9B
  8
OBJECT
 10
128.49999999861211
 20
-1494.999999997231
 30
0.0
 11
128.49999999861211
 21
-1501.999999997231
 31
0.0
1001
ACDBBLOCKREPETAG
1070
     1
1071
       27
1005
12FB9B
  0
LINE
  5
12FB9C
  8
OBJECT
 10
223.49999999861211
 20
-1501.999999997231
 30
0.0
 11
223.49999999861211
 21
-1494.999999997231
 31
0.0
1001
ACDBBLOCKREPETAG
1070
     1
1071
       28
1005
12FB9C
  0
LINE
  5
12FB9D
  8
OBJECT
 10
223.49999999861211
 20
-1494.999999997231
 30
0.0
 11
128.49999999861211
 21
-1494.999999997231
 31
0.0
1001
ACDBBLOCKREPETAG
1070
     1
1071
       29
1005
12FB9D
  0
LINE
  5
12FB9E
  8
OBJECT
 10
123.9999999986121
 20
-1490.999999997231
 30
0.0
 11
128.49999999861211
 21
-1494.999999997231
 31
0.0
1001
ACDBBLOCKREPETAG
1070
     1
1071
       30
1005
12FB9E
  0
LINE
  5
12FB9F
  8
OBJECT
 10
227.99999999861211
 20
-1490.999999997231
 30
0.0
 11
223.49999999861211
 21
-1494.999999997231
 31
0.0
1001
ACDBBLOCKREPETAG
1070
     1
1071
       31
1005
12FB9F
  0
LINE
  5
12FBA0
  8
OBJECT
 10
113.9999999986121
 20
-1504.9999999972299
 30
0.0
 11
113.9999999986121
 21
-1507.999999997231
 31
0.0
1001
ACDBBLOCKREPETAG
1070
     1
1071
       32
1005
12FBA0
  0
ARC
  5
12FBA1
  8
OBJECT
 10
116.9999999986121
 20
-1504.9999999972299
 30
0.0
 40
3.0
 50
90.0
 51
180.0
1001
ACDBBLOCKREPETAG
1070
     1
1071
       33
1005
12FBA1
  0
LINE
  5
12FBA2
  8
OBJECT
 10
237.99999999861211
 20
-1507.999999997231
 30
0.0
 11
237.99999999861211
 21
-1504.999999997232
 31
0.0
1001
ACDBBLOCKREPETAG
1070
     1
1071
       34
1005
12FBA2
  0
ARC
  5
12FBA3
  8
OBJECT
 10
234.99999999861211
 20
-1504.999999997232
 30
0.0
 40
3.0
 50
0.0
 51
90.0
1001
ACDBBLOCKREPETAG
1070
     1
1071
       35
1005
12FBA3
  0
LINE
  5
12FBA4
  8
OBJECT
 10
234.99999999861211
 20
-1501.999999997232
 30
0.0
 11
116.9999999986121
 21
-1501.9999999972299
 31
0.0
1001
ACDBBLOCKREPETAG
1070
     1
1071
       36
1005
12FBA4
  0
LINE
  5
12FBA5
  8
HIDDEN
 10
137.99999999861211
 20
-1499.999999997231
 30
0.0
 11
213.99999999861211
 21
-1499.999999997231
 31
0.0
1001
ACDBBLOCKREPETAG
1070
     1
1071
      423
1005
12FBA5
  0
TEXT
  5
12FBA6
  8
SLIM
 10
420.17142857124622
 20
-1371.9999999995321
 30
0.0
 40
48.0
  1
B203（特）
 41
0.75
1001
ACDBBLOCKREPETAG
1070
     1
1071
      119
1005
12DC99
  0
LINE
  5
12FBA7
  8
OBJECT
 10
597.99999999849024
 20
-1256.99999999739
 30
0.0
 11
597.99999999849024
 21
-1263.99999999739
 31
0.0
1001
ACDBBLOCKREPETAG
1070
     1
1071
       38
1005
12FBA7
  0
LINE
  5
12FBA8
  8
OBJECT
 10
597.99999999849024
 20
-1263.99999999739
 30
0.0
 11
473.99999999849018
 21
-1263.99999999739
 31
0.0
1001
ACDBBLOCKREPETAG
1070
     1
1071
       39
1005
12FBA8
  0
LINE
  5
12FBA9
  8
OBJECT
 10
473.99999999849018
 20
-1263.99999999739
 30
0.0
 11
473.99999999849018
 21
-1256.99999999739
 31
0.0
1001
ACDBBLOCKREPETAG
1070
     1
1071
       40
1005
12FBA9
  0
LINE
  5
12FBAA
  8
OBJECT
 10
473.99999999849018
 20
-1256.99999999739
 30
0.0
 11
597.99999999849024
 21
-1256.99999999739
 31
0.0
1001
ACDBBLOCKREPETAG
1070
     1
1071
       41
1005
12FBAA
  0
LINE
  5
12FBAB
  8
OBJECT
 10
594.99999999849024
 20
-1256.99999999739
 30
0.0
 11
594.99999999849024
 21
-1220.9999999973891
 31
0.0
1001
ACDBBLOCKREPETAG
1070
     1
1071
       42
1005
12FBAB
  0
LINE
  5
12FBAC
  8
OBJECT
 10
594.99999999849024
 20
-1220.9999999973891
 30
0.0
 11
476.99999999849018
 21
-1220.9999999973891
 31
0.0
1001
ACDBBLOCKREPETAG
1070
     1
1071
       43
1005
12FBAC
  0
LINE
  5
12FBAD
  8
OBJECT
 10
476.99999999849018
 20
-1220.9999999973891
 30
0.0
 11
476.99999999849018
 21
-1256.99999999739
 31
0.0
1001
ACDBBLOCKREPETAG
1070
     1
1071
       44
1005
12FBAD
  0
LINE
  5
12FBAE
  8
OBJECT
 10
590.49999999849024
 20
-1216.99999999739
 30
0.0
 11
590.49999999849024
 21
-1209.99999999739
 31
0.0
1001
ACDBBLOCKREPETAG
1070
     1
1071
       45
1005
12FBAE
  0
LINE
  5
12FBAF
  8
OBJECT
 10
481.49999999849018
 20
-1209.99999999739
 30
0.0
 11
481.49999999849018
 21
-1216.99999999739
 31
0.0
1001
ACDBBLOCKREPETAG
1070
     1
1071
       46
1005
12FBAF
  0
LINE
  5
12FBB0
  8
OBJECT
 10
481.49999999849018
 20
-1216.99999999739
 30
0.0
 11
590.49999999849024
 21
-1216.99999999739
 31
0.0
1001
ACDBBLOCKREPETAG
1070
     1
1071
       47
1005
12FBB0
  0
LINE
  5
12FBB1
  8
OBJECT
 10
594.99999999849024
 20
-1220.9999999973891
 30
0.0
 11
590.49999999849024
 21
-1216.99999999739
 31
0.0
1001
ACDBBLOCKREPETAG
1070
     1
1071
       48
1005
12FBB1
  0
LINE
  5
12FBB2
  8
OBJECT
 10
476.99999999849018
 20
-1220.9999999973891
 30
0.0
 11
481.49999999849018
 21
-1216.99999999739
 31
0.0
1001
ACDBBLOCKREPETAG
1070
     1
1071
       49
1005
12FBB2
  0
LINE
  5
12FBB3
  8
OBJECT
 10
597.99999999849024
 20
-1206.9999999973909
 30
0.0
 11
597.99999999849024
 21
-1203.99999999739
 31
0.0
1001
ACDBBLOCKREPETAG
1070
     1
1071
       50
1005
12FBB3
  0
ARC
  5
12FBB4
  8
OBJECT
 10
594.99999999849024
 20
-1206.9999999973909
 30
0.0
 40
3.0
 50
270.0
 51
0.0
1001
ACDBBLOCKREPETAG
1070
     1
1071
       51
1005
12FBB4
  0
LINE
  5
12FBB5
  8
OBJECT
 10
473.99999999849018
 20
-1203.99999999739
 30
0.0
 11
473.99999999849018
 21
-1206.9999999973891
 31
0.0
1001
ACDBBLOCKREPETAG
1070
     1
1071
       52
1005
12FBB5
  0
ARC
  5
12FBB6
  8
OBJECT
 10
476.99999999849018
 20
-1206.9999999973891
 30
0.0
 40
3.0
 50
180.0
 51
270.0
1001
ACDBBLOCKREPETAG
1070
     1
1071
       53
1005
12FBB6
  0
LINE
  5
12FBB7
  8
OBJECT
 10
476.99999999849018
 20
-1209.9999999973891
 30
0.0
 11
594.99999999849024
 21
-1209.99999999739
 31
0.0
1001
ACDBBLOCKREPETAG
1070
     1
1071
       54
1005
12FBB7
  0
INSERT
  5
12FBB8
  8
OBJECT
  2
*U28
 10
0.0
 20
0.0
 30
0.0
  0
LINE
  5
12FBB9
  8
HIDDEN
 10
580.49999999849024
 20
-1211.99999999739
 30
0.0
 11
491.49999999849018
 21
-1211.99999999739
 31
0.0
1001
ACDBBLOCKREPETAG
1070
     1
1071
      430
1005
12FBB9
  0
LINE
  5
12FBBA
  8
OBJECT
 10
618.99999999849024
 20
-1185.99999999739
 30
0.0
 11
615.99999999849024
 21
-1185.99999999739
 31
0.0
1001
ACDBBLOCKREPETAG
1070
     1
1071
      418
1005
12FBBA
  0
ARC
  5
12FBBB
  8
OBJECT
 10
618.99999999849024
 20
-1182.99999999739
 30
0.0
 40
3.0
 50
270.0
 51
0.0
1001
ACDBBLOCKREPETAG
1070
     1
1071
      419
1005
12FBBB
  0
LINE
  5
12FBBC
  8
OBJECT
 10
615.99999999849024
 20
-1061.9999999973891
 30
0.0
 11
618.99999999849024
 21
-1061.9999999973891
 31
0.0
1001
ACDBBLOCKREPETAG
1070
     1
1071
      420
1005
12FBBC
  0
ARC
  5
12FBBD
  8
OBJECT
 10
618.99999999849024
 20
-1064.99999999739
 30
0.0
 40
3.0
 50
0.0
 51
90.0
1001
ACDBBLOCKREPETAG
1070
     1
1071
      421
1005
12FBBD
  0
LINE
  5
12FBBE
  8
OBJECT
 10
621.99999999849024
 20
-1064.99999999739
 30
0.0
 11
621.99999999849024
 21
-1182.99999999739
 31
0.0
1001
ACDBBLOCKREPETAG
1070
     1
1071
      422
1005
12FBBE
  0
INSERT
  5
12FBBF
  8
OBJECT
  2
*U29
 10
0.0
 20
0.0
 30
0.0
  0
LINE
  5
12FBC0
  8
OBJECT
 10
480.99999999849018
 20
-990.99999999738964
 30
0.0
 11
480.99999999849018
 21
-983.99999999738964
 31
0.0
1001
ACDBBLOCKREPETAG
1070
     1
1071
       20
1005
12FBC0
  0
LINE
  5
12FBC1
  8
OBJECT
 10
480.99999999849018
 20
-983.99999999738964
 30
0.0
 11
590.99999999849024
 21
-983.99999999738964
 31
0.0
1001
ACDBBLOCKREPETAG
1070
     1
1071
       21
1005
12FBC1
  0
LINE
  5
12FBC2
  8
OBJECT
 10
590.99999999849024
 20
-983.99999999738964
 30
0.0
 11
590.99999999849024
 21
-990.99999999738964
 31
0.0
1001
ACDBBLOCKREPETAG
1070
     1
1071
       22
1005
12FBC2
  0
LINE
  5
12FBC3
  8
OBJECT
 10
590.99999999849024
 20
-990.99999999738964
 30
0.0
 11
480.99999999849018
 21
-990.99999999738964
 31
0.0
1001
ACDBBLOCKREPETAG
1070
     1
1071
       23
1005
12FBC3
  0
LINE
  5
12FBC4
  8
OBJECT
 10
483.99999999849018
 20
-990.99999999738964
 30
0.0
 11
483.99999999849018
 21
-1026.99999999739
 31
0.0
1001
ACDBBLOCKREPETAG
1070
     1
1071
       24
1005
12FBC4
  0
LINE
  5
12FBC5
  8
OBJECT
 10
483.99999999849018
 20
-1026.99999999739
 30
0.0
 11
587.99999999849024
 21
-1026.99999999739
 31
0.0
1001
ACDBBLOCKREPETAG
1070
     1
1071
       25
1005
12FBC5
  0
LINE
  5
12FBC6
  8
OBJECT
 10
587.99999999849024
 20
-1026.99999999739
 30
0.0
 11
587.99999999849024
 21
-990.99999999738964
 31
0.0
1001
ACDBBLOCKREPETAG
1070
     1
1071
       26
1005
12FBC6
  0
LINE
  5
12FBC7
  8
OBJECT
 10
488.49999999849018
 20
-1030.99999999739
 30
0.0
 11
488.49999999849018
 21
-1037.9999999973891
 31
0.0
1001
ACDBBLOCKREPETAG
1070
     1
1071
       27
1005
12FBC7
  0
LINE
  5
12FBC8
  8
OBJECT
 10
583.49999999849024
 20
-1037.9999999973891
 30
0.0
 11
583.49999999849024
 21
-1030.99999999739
 31
0.0
1001
ACDBBLOCKREPETAG
1070
     1
1071
       28
1005
12FBC8
  0
LINE
  5
12FBC9
  8
OBJECT
 10
583.49999999849024
 20
-1030.99999999739
 30
0.0
 11
488.49999999849018
 21
-1030.99999999739
 31
0.0
1001
ACDBBLOCKREPETAG
1070
     1
1071
       29
1005
12FBC9
  0
LINE
  5
12FBCA
  8
OBJECT
 10
483.99999999849018
 20
-1026.99999999739
 30
0.0
 11
488.49999999849018
 21
-1030.99999999739
 31
0.0
1001
ACDBBLOCKREPETAG
1070
     1
1071
       30
1005
12FBCA
  0
LINE
  5
12FBCB
  8
OBJECT
 10
587.99999999849024
 20
-1026.99999999739
 30
0.0
 11
583.49999999849024
 21
-1030.99999999739
 31
0.0
1001
ACDBBLOCKREPETAG
1070
     1
1071
       31
1005
12FBCB
  0
LINE
  5
12FBCC
  8
OBJECT
 10
473.99999999849018
 20
-1040.9999999973891
 30
0.0
 11
473.99999999849018
 21
-1043.99999999739
 31
0.0
1001
ACDBBLOCKREPETAG
1070
     1
1071
       32
1005
12FBCC
  0
ARC
  5
12FBCD
  8
OBJECT
 10
476.99999999849018
 20
-1040.9999999973891
 30
0.0
 40
3.0
 50
90.0
 51
180.0
1001
ACDBBLOCKREPETAG
1070
     1
1071
       33
1005
12FBCD
  0
LINE
  5
12FBCE
  8
OBJECT
 10
597.99999999849024
 20
-1043.99999999739
 30
0.0
 11
597.99999999849024
 21
-1040.99999999739
 31
0.0
1001
ACDBBLOCKREPETAG
1070
     1
1071
       34
1005
12FBCE
  0
ARC
  5
12FBCF
  8
OBJECT
 10
594.99999999849024
 20
-1040.99999999739
 30
0.0
 40
3.0
 50
0.0
 51
90.0
1001
ACDBBLOCKREPETAG
1070
     1
1071
       35
1005
12FBCF
  0
LINE
  5
12FBD0
  8
OBJECT
 10
594.99999999849024
 20
-1037.99999999739
 30
0.0
 11
476.99999999849018
 21
-1037.9999999973891
 31
0.0
1001
ACDBBLOCKREPETAG
1070
     1
1071
       36
1005
12FBD0
  0
LINE
  5
12FBD1
  8
HIDDEN
 10
497.99999999849018
 20
-1035.99999999739
 30
0.0
 11
573.99999999849024
 21
-1035.99999999739
 31
0.0
1001
ACDBBLOCKREPETAG
1070
     1
1071
      423
1005
12FBD1
  0
TEXT
  5
12FBD2
  8
SLIM
 10
115.714285714225
 20
-1371.9999999995321
 30
0.0
 40
48.0
  1
B202
 41
0.75
1001
ACDBBLOCKREPETAG
1070
     1
1071
      119
1005
12DC99
  0
LINE
  5
12FBD3
  8
OBJECT
 10
230.999999998612
 20
-1256.99999999739
 30
0.0
 11
230.999999998612
 21
-1263.99999999739
 31
0.0
1001
ACDBBLOCKREPETAG
1070
     1
1071
       19
1005
12FBD3
  0
LINE
  5
12FBD4
  8
OBJECT
 10
230.999999998612
 20
-1263.99999999739
 30
0.0
 11
120.9999999986119
 21
-1263.99999999739
 31
0.0
1001
ACDBBLOCKREPETAG
1070
     1
1071
       20
1005
12FBD4
  0
LINE
  5
12FBD5
  8
OBJECT
 10
120.9999999986119
 20
-1263.99999999739
 30
0.0
 11
120.9999999986119
 21
-1256.99999999739
 31
0.0
1001
ACDBBLOCKREPETAG
1070
     1
1071
       21
1005
12FBD5
  0
LINE
  5
12FBD6
  8
OBJECT
 10
120.9999999986119
 20
-1256.99999999739
 30
0.0
 11
230.999999998612
 21
-1256.99999999739
 31
0.0
1001
ACDBBLOCKREPETAG
1070
     1
1071
       22
1005
12FBD6
  0
LINE
  5
12FBD7
  8
OBJECT
 10
227.99999999861191
 20
-1256.99999999739
 30
0.0
 11
227.99999999861191
 21
-1220.9999999973891
 31
0.0
1001
ACDBBLOCKREPETAG
1070
     1
1071
       23
1005
12FBD7
  0
LINE
  5
12FBD8
  8
OBJECT
 10
227.99999999861191
 20
-1220.9999999973891
 30
0.0
 11
123.9999999986119
 21
-1220.9999999973891
 31
0.0
1001
ACDBBLOCKREPETAG
1070
     1
1071
       24
1005
12FBD8
  0
LINE
  5
12FBD9
  8
OBJECT
 10
123.9999999986119
 20
-1220.9999999973891
 30
0.0
 11
123.9999999986119
 21
-1256.99999999739
 31
0.0
1001
ACDBBLOCKREPETAG
1070
     1
1071
       25
1005
12FBD9
  0
LINE
  5
12FBDA
  8
OBJECT
 10
223.49999999861191
 20
-1216.99999999739
 30
0.0
 11
223.49999999861191
 21
-1209.99999999739
 31
0.0
1001
ACDBBLOCKREPETAG
1070
     1
1071
       26
1005
12FBDA
  0
LINE
  5
12FBDB
  8
OBJECT
 10
128.49999999861191
 20
-1209.99999999739
 30
0.0
 11
128.49999999861191
 21
-1216.99999999739
 31
0.0
1001
ACDBBLOCKREPETAG
1070
     1
1071
       27
1005
12FBDB
  0
LINE
  5
12FBDC
  8
OBJECT
 10
128.49999999861191
 20
-1216.99999999739
 30
0.0
 11
223.49999999861191
 21
-1216.99999999739
 31
0.0
1001
ACDBBLOCKREPETAG
1070
     1
1071
       28
1005
12FBDC
  0
LINE
  5
12FBDD
  8
OBJECT
 10
227.99999999861191
 20
-1220.9999999973891
 30
0.0
 11
223.49999999861191
 21
-1216.99999999739
 31
0.0
1001
ACDBBLOCKREPETAG
1070
     1
1071
       29
1005
12FBDD
  0
LINE
  5
12FBDE
  8
OBJECT
 10
123.9999999986119
 20
-1220.9999999973891
 30
0.0
 11
128.49999999861191
 21
-1216.99999999739
 31
0.0
1001
ACDBBLOCKREPETAG
1070
     1
1071
       30
1005
12FBDE
  0
LINE
  5
12FBDF
  8
OBJECT
 10
237.99999999861191
 20
-1206.9999999973909
 30
0.0
 11
237.99999999861191
 21
-1203.99999999739
 31
0.0
1001
ACDBBLOCKREPETAG
1070
     1
1071
       31
1005
12FBDF
  0
ARC
  5
12FBE0
  8
OBJECT
 10
234.999999998612
 20
-1206.9999999973909
 30
0.0
 40
3.0
 50
270.0
 51
0.0
1001
ACDBBLOCKREPETAG
1070
     1
1071
       32
1005
12FBE0
  0
LINE
  5
12FBE1
  8
OBJECT
 10
113.9999999986119
 20
-1203.99999999739
 30
0.0
 11
113.9999999986119
 21
-1206.9999999973891
 31
0.0
1001
ACDBBLOCKREPETAG
1070
     1
1071
       33
1005
12FBE1
  0
ARC
  5
12FBE2
  8
OBJECT
 10
116.9999999986119
 20
-1206.9999999973891
 30
0.0
 40
3.0
 50
180.0
 51
270.0
1001
ACDBBLOCKREPETAG
1070
     1
1071
       34
1005
12FBE2
  0
LINE
  5
12FBE3
  8
OBJECT
 10
116.9999999986119
 20
-1209.9999999973891
 30
0.0
 11
234.999999998612
 21
-1209.99999999739
 31
0.0
1001
ACDBBLOCKREPETAG
1070
     1
1071
       35
1005
12FBE3
  0
INSERT
  5
12FBE4
  8
OBJECT
  2
*U30
 10
0.0
 20
0.0
 30
0.0
  0
LINE
  5
12FBE5
  8
HIDDEN
 10
213.999999998612
 20
-1211.99999999739
 30
0.0
 11
137.99999999861191
 21
-1211.99999999739
 31
0.0
1001
ACDBBLOCKREPETAG
1070
     1
1071
      427
1005
12FBE5
  0
LINE
  5
12FBE6
  8
OBJECT
 10
258.99999999861188
 20
-1185.99999999739
 30
0.0
 11
255.999999998612
 21
-1185.99999999739
 31
0.0
1001
ACDBBLOCKREPETAG
1070
     1
1071
      418
1005
12FBE6
  0
ARC
  5
12FBE7
  8
OBJECT
 10
258.99999999861188
 20
-1182.99999999739
 30
0.0
 40
3.0
 50
270.0
 51
0.0
1001
ACDBBLOCKREPETAG
1070
     1
1071
      419
1005
12FBE7
  0
LINE
  5
12FBE8
  8
OBJECT
 10
255.999999998612
 20
-1061.9999999973891
 30
0.0
 11
258.99999999861188
 21
-1061.9999999973891
 31
0.0
1001
ACDBBLOCKREPETAG
1070
     1
1071
      420
1005
12FBE8
  0
ARC
  5
12FBE9
  8
OBJECT
 10
258.99999999861188
 20
-1064.99999999739
 30
0.0
 40
3.0
 50
0.0
 51
90.0
1001
ACDBBLOCKREPETAG
1070
     1
1071
      421
1005
12FBE9
  0
LINE
  5
12FBEA
  8
OBJECT
 10
261.999999998612
 20
-1064.99999999739
 30
0.0
 11
261.999999998612
 21
-1182.99999999739
 31
0.0
1001
ACDBBLOCKREPETAG
1070
     1
1071
      422
1005
12FBEA
  0
INSERT
  5
12FBEB
  8
OBJECT
  2
*U31
 10
0.0
 20
0.0
 30
0.0
  0
LINE
  5
12FBEC
  8
OBJECT
 10
120.9999999986119
 20
-990.99999999738964
 30
0.0
 11
120.9999999986119
 21
-983.99999999738964
 31
0.0
1001
ACDBBLOCKREPETAG
1070
     1
1071
       20
1005
12FBEC
  0
LINE
  5
12FBED
  8
OBJECT
 10
120.9999999986119
 20
-983.99999999738964
 30
0.0
 11
230.999999998612
 21
-983.99999999738964
 31
0.0
1001
ACDBBLOCKREPETAG
1070
     1
1071
       21
1005
12FBED
  0
LINE
  5
12FBEE
  8
OBJECT
 10
230.999999998612
 20
-983.99999999738964
 30
0.0
 11
230.999999998612
 21
-990.99999999738964
 31
0.0
1001
ACDBBLOCKREPETAG
1070
     1
1071
       22
1005
12FBEE
  0
LINE
  5
12FBEF
  8
OBJECT
 10
230.999999998612
 20
-990.99999999738964
 30
0.0
 11
120.9999999986119
 21
-990.99999999738964
 31
0.0
1001
ACDBBLOCKREPETAG
1070
     1
1071
       23
1005
12FBEF
  0
LINE
  5
12FBF0
  8
OBJECT
 10
123.9999999986119
 20
-990.99999999738964
 30
0.0
 11
123.9999999986119
 21
-1026.99999999739
 31
0.0
1001
ACDBBLOCKREPETAG
1070
     1
1071
       24
1005
12FBF0
  0
LINE
  5
12FBF1
  8
OBJECT
 10
123.9999999986119
 20
-1026.99999999739
 30
0.0
 11
227.99999999861191
 21
-1026.99999999739
 31
0.0
1001
ACDBBLOCKREPETAG
1070
     1
1071
       25
1005
12FBF1
  0
LINE
  5
12FBF2
  8
OBJECT
 10
227.99999999861191
 20
-1026.99999999739
 30
0.0
 11
227.99999999861191
 21
-990.99999999738964
 31
0.0
1001
ACDBBLOCKREPETAG
1070
     1
1071
       26
1005
12FBF2
  0
LINE
  5
12FBF3
  8
OBJECT
 10
128.49999999861191
 20
-1030.99999999739
 30
0.0
 11
128.49999999861191
 21
-1037.9999999973891
 31
0.0
1001
ACDBBLOCKREPETAG
1070
     1
1071
       27
1005
12FBF3
  0
LINE
  5
12FBF4
  8
OBJECT
 10
223.49999999861191
 20
-1037.9999999973891
 30
0.0
 11
223.49999999861191
 21
-1030.99999999739
 31
0.0
1001
ACDBBLOCKREPETAG
1070
     1
1071
       28
1005
12FBF4
  0
LINE
  5
12FBF5
  8
OBJECT
 10
223.49999999861191
 20
-1030.99999999739
 30
0.0
 11
128.49999999861191
 21
-1030.99999999739
 31
0.0
1001
ACDBBLOCKREPETAG
1070
     1
1071
       29
1005
12FBF5
  0
LINE
  5
12FBF6
  8
OBJECT
 10
123.9999999986119
 20
-1026.99999999739
 30
0.0
 11
128.49999999861191
 21
-1030.99999999739
 31
0.0
1001
ACDBBLOCKREPETAG
1070
     1
1071
       30
1005
12FBF6
  0
LINE
  5
12FBF7
  8
OBJECT
 10
227.99999999861191
 20
-1026.99999999739
 30
0.0
 11
223.49999999861191
 21
-1030.99999999739
 31
0.0
1001
ACDBBLOCKREPETAG
1070
     1
1071
       31
1005
12FBF7
  0
LINE
  5
12FBF8
  8
OBJECT
 10
113.9999999986119
 20
-1040.9999999973891
 30
0.0
 11
113.9999999986119
 21
-1043.99999999739
 31
0.0
1001
ACDBBLOCKREPETAG
1070
     1
1071
       32
1005
12FBF8
  0
ARC
  5
12FBF9
  8
OBJECT
 10
116.9999999986119
 20
-1040.9999999973891
 30
0.0
 40
3.0
 50
90.0
 51
180.0
1001
ACDBBLOCKREPETAG
1070
     1
1071
       33
1005
12FBF9
  0
LINE
  5
12FBFA
  8
OBJECT
 10
237.99999999861191
 20
-1043.99999999739
 30
0.0
 11
237.99999999861191
 21
-1040.99999999739
 31
0.0
1001
ACDBBLOCKREPETAG
1070
     1
1071
       34
1005
12FBFA
  0
ARC
  5
12FBFB
  8
OBJECT
 10
234.999999998612
 20
-1040.99999999739
 30
0.0
 40
3.0
 50
0.0
 51
90.0
1001
ACDBBLOCKREPETAG
1070
     1
1071
       35
1005
12FBFB
  0
LINE
  5
12FBFC
  8
OBJECT
 10
234.999999998612
 20
-1037.99999999739
 30
0.0
 11
116.9999999986119
 21
-1037.9999999973891
 31
0.0
1001
ACDBBLOCKREPETAG
1070
     1
1071
       36
1005
12FBFC
  0
LINE
  5
12FBFD
  8
HIDDEN
 10
137.99999999861191
 20
-1035.99999999739
 30
0.0
 11
213.999999998612
 21
-1035.99999999739
 31
0.0
1001
ACDBBLOCKREPETAG
1070
     1
1071
      423
1005
12FBFD
  0
TEXT
  5
12FBFE
  8
SLIM
 10
423.59999999981761
 20
-907.999999999691
 30
0.0
 40
48.0
  1
B104（特）
 41
0.75
1001
ACDBBLOCKREPETAG
1070
     1
1071
      119
1005
12DC99
  0
LINE
  5
12FBFF
  8
OBJECT
 10
610.99999999849024
 20
-809.999999997548
 30
0.0
 11
610.99999999849024
 21
-802.99999999754823
 31
0.0
1001
ACDBBLOCKREPETAG
1070
     1
1071
       57
1005
12FBFF
  0
LINE
  5
12FC00
  8
OBJECT
 10
610.99999999849024
 20
-802.99999999754823
 30
0.0
 11
460.99999999849018
 21
-802.99999999754823
 31
0.0
1001
ACDBBLOCKREPETAG
1070
     1
1071
       58
1005
12FC00
  0
LINE
  5
12FC01
  8
OBJECT
 10
607.99999999849024
 20
-761.49999999754812
 30
0.0
 11
463.99999999849018
 21
-761.49999999754812
 31
0.0
1001
ACDBBLOCKREPETAG
1070
     1
1071
       59
1005
12FC01
  0
LINE
  5
12FC02
  8
OBJECT
 10
601.49999999849024
 20
-749.999999997548
 30
0.0
 11
470.49999999849018
 21
-749.999999997548
 31
0.0
1001
ACDBBLOCKREPETAG
1070
     1
1071
       60
1005
12FC02
  0
LINE
  5
12FC03
  8
OBJECT
 10
460.99999999849018
 20
-802.99999999754823
 30
0.0
 11
460.99999999849018
 21
-809.999999997548
 31
0.0
1001
ACDBBLOCKREPETAG
1070
     1
1071
       61
1005
12FC03
  0
LINE
  5
12FC04
  8
OBJECT
 10
460.99999999849018
 20
-809.999999997548
 30
0.0
 11
610.99999999849024
 21
-809.999999997548
 31
0.0
1001
ACDBBLOCKREPETAG
1070
     1
1071
       62
1005
12FC04
  0
LINE
  5
12FC05
  8
OBJECT
 10
473.99999999849018
 20
-745.999999997548
 30
0.0
 11
473.99999999849018
 21
-739.99999999754812
 31
0.0
1001
ACDBBLOCKREPETAG
1070
     1
1071
       63
1005
12FC05
  0
LINE
  5
12FC06
  8
OBJECT
 10
463.99999999849018
 20
-802.99999999754823
 30
0.0
 11
463.99999999849018
 21
-761.49999999754812
 31
0.0
1001
ACDBBLOCKREPETAG
1070
     1
1071
       64
1005
12FC06
  0
LINE
  5
12FC07
  8
OBJECT
 10
463.99999999849018
 20
-761.49999999754812
 30
0.0
 11
470.49999999849018
 21
-749.999999997548
 31
0.0
1001
ACDBBLOCKREPETAG
1070
     1
1071
       65
1005
12FC07
  0
LINE
  5
12FC08
  8
OBJECT
 10
470.49999999849018
 20
-749.999999997548
 30
0.0
 11
473.99999999849018
 21
-745.999999997548
 31
0.0
1001
ACDBBLOCKREPETAG
1070
     1
1071
       66
1005
12FC08
  0
LINE
  5
12FC09
  8
OBJECT
 10
607.99999999849024
 20
-761.49999999754812
 30
0.0
 11
601.49999999849024
 21
-749.999999997548
 31
0.0
1001
ACDBBLOCKREPETAG
1070
     1
1071
       67
1005
12FC09
  0
LINE
  5
12FC0A
  8
OBJECT
 10
601.49999999849024
 20
-749.999999997548
 30
0.0
 11
597.99999999849024
 21
-745.999999997548
 31
0.0
1001
ACDBBLOCKREPETAG
1070
     1
1071
       68
1005
12FC0A
  0
ARC
  5
12FC0B
  8
OBJECT
 10
535.99999999849024
 20
-1127.899999997549
 30
0.0
 40
386.89999999999998
 50
80.778701362367499
 51
99.221298637632543
1001
ACDBBLOCKREPETAG
1070
     1
1071
       69
1005
12FC0B
  0
LINE
  5
12FC0C
  8
OBJECT
 10
597.99999999849024
 20
-745.999999997548
 30
0.0
 11
597.99999999849024
 21
-739.99999999754812
 31
0.0
1001
ACDBBLOCKREPETAG
1070
     1
1071
       70
1005
12FC0C
  0
LINE
  5
12FC0D
  8
OBJECT
 10
607.99999999849024
 20
-802.99999999754823
 30
0.0
 11
607.99999999849024
 21
-761.49999999754812
 31
0.0
1001
ACDBBLOCKREPETAG
1070
     1
1071
       71
1005
12FC0D
  0
INSERT
  5
12FC0E
  8
OBJECT
  2
*U32
 10
0.0
 20
0.0
 30
0.0
  0
LINE
  5
12FC0F
  8
HIDDEN
 10
478.99999999849018
 20
-757.99999999754812
 30
0.0
 11
592.99999999849024
 21
-757.99999999754812
 31
0.0
1001
ACDBBLOCKREPETAG
1070
     1
1071
      437
1005
12FC0F
  0
LINE
  5
12FC10
  8
OBJECT
 10
618.99999999849024
 20
-721.99999999754812
 30
0.0
 11
615.99999999849024
 21
-721.99999999754812
 31
0.0
1001
ACDBBLOCKREPETAG
1070
     1
1071
      418
1005
12FC10
  0
ARC
  5
12FC11
  8
OBJECT
 10
618.99999999849024
 20
-718.99999999754812
 30
0.0
 40
3.0
 50
270.0
 51
0.0
1001
ACDBBLOCKREPETAG
1070
     1
1071
      419
1005
12FC11
  0
LINE
  5
12FC12
  8
OBJECT
 10
615.99999999849024
 20
-597.999999997548
 30
0.0
 11
618.99999999849024
 21
-597.999999997548
 31
0.0
1001
ACDBBLOCKREPETAG
1070
     1
1071
      420
1005
12FC12
  0
ARC
  5
12FC13
  8
OBJECT
 10
618.99999999849024
 20
-600.99999999754777
 30
0.0
 40
3.0
 50
0.0
 51
90.0
1001
ACDBBLOCKREPETAG
1070
     1
1071
      421
1005
12FC13
  0
LINE
  5
12FC14
  8
OBJECT
 10
621.99999999849024
 20
-600.99999999754777
 30
0.0
 11
621.99999999849024
 21
-718.99999999754812
 31
0.0
1001
ACDBBLOCKREPETAG
1070
     1
1071
      422
1005
12FC14
  0
INSERT
  5
12FC15
  8
OBJECT
  2
*U33
 10
0.0
 20
0.0
 30
0.0
  0
LINE
  5
12FC16
  8
OBJECT
 10
488.99999999849018
 20
-526.999999997548
 30
0.0
 11
488.99999999849018
 21
-519.999999997548
 31
0.0
1001
ACDBBLOCKREPETAG
1070
     1
1071
        1
1005
12FC16
  0
LINE
  5
12FC17
  8
OBJECT
 10
488.99999999849018
 20
-519.999999997548
 30
0.0
 11
582.99999999849024
 21
-519.999999997548
 31
0.0
1001
ACDBBLOCKREPETAG
1070
     1
1071
        2
1005
12FC17
  0
LINE
  5
12FC18
  8
OBJECT
 10
582.99999999849024
 20
-519.999999997548
 30
0.0
 11
582.99999999849024
 21
-526.999999997548
 31
0.0
1001
ACDBBLOCKREPETAG
1070
     1
1071
        3
1005
12FC18
  0
LINE
  5
12FC19
  8
OBJECT
 10
582.99999999849024
 20
-526.999999997548
 30
0.0
 11
488.99999999849018
 21
-526.999999997548
 31
0.0
1001
ACDBBLOCKREPETAG
1070
     1
1071
        4
1005
12FC19
  0
LINE
  5
12FC1A
  8
OBJECT
 10
491.99999999849018
 20
-526.999999997548
 30
0.0
 11
491.99999999849018
 21
-562.99999999754789
 31
0.0
1001
ACDBBLOCKREPETAG
1070
     1
1071
        5
1005
12FC1A
  0
LINE
  5
12FC1B
  8
OBJECT
 10
491.99999999849018
 20
-562.99999999754789
 30
0.0
 11
579.99999999849024
 21
-562.99999999754789
 31
0.0
1001
ACDBBLOCKREPETAG
1070
     1
1071
        6
1005
12FC1B
  0
LINE
  5
12FC1C
  8
OBJECT
 10
579.99999999849024
 20
-562.99999999754789
 30
0.0
 11
579.99999999849024
 21
-526.999999997548
 31
0.0
1001
ACDBBLOCKREPETAG
1070
     1
1071
        7
1005
12FC1C
  0
LINE
  5
12FC1D
  8
OBJECT
 10
496.49999999849018
 20
-566.99999999754789
 30
0.0
 11
496.49999999849018
 21
-573.999999997548
 31
0.0
1001
ACDBBLOCKREPETAG
1070
     1
1071
        8
1005
12FC1D
  0
LINE
  5
12FC1E
  8
OBJECT
 10
575.49999999849024
 20
-573.999999997548
 30
0.0
 11
575.49999999849024
 21
-566.99999999754789
 31
0.0
1001
ACDBBLOCKREPETAG
1070
     1
1071
        9
1005
12FC1E
  0
LINE
  5
12FC1F
  8
OBJECT
 10
575.49999999849024
 20
-566.99999999754789
 30
0.0
 11
496.49999999849018
 21
-566.99999999754789
 31
0.0
1001
ACDBBLOCKREPETAG
1070
     1
1071
       10
1005
12FC1F
  0
LINE
  5
12FC20
  8
OBJECT
 10
491.99999999849018
 20
-562.99999999754789
 30
0.0
 11
496.49999999849018
 21
-566.99999999754789
 31
0.0
1001
ACDBBLOCKREPETAG
1070
     1
1071
       11
1005
12FC20
  0
LINE
  5
12FC21
  8
OBJECT
 10
579.99999999849024
 20
-562.99999999754789
 30
0.0
 11
575.49999999849024
 21
-566.99999999754789
 31
0.0
1001
ACDBBLOCKREPETAG
1070
     1
1071
       12
1005
12FC21
  0
LINE
  5
12FC22
  8
OBJECT
 10
473.99999999849018
 20
-576.99999999754687
 30
0.0
 11
473.99999999849018
 21
-579.99999999754777
 31
0.0
1001
ACDBBLOCKREPETAG
1070
     1
1071
       13
1005
12FC22
  0
ARC
  5
12FC23
  8
OBJECT
 10
476.99999999849018
 20
-576.99999999754687
 30
0.0
 40
3.0
 50
90.0
 51
180.0
1001
ACDBBLOCKREPETAG
1070
     1
1071
       14
1005
12FC23
  0
LINE
  5
12FC24
  8
OBJECT
 10
597.99999999849024
 20
-579.99999999754777
 30
0.0
 11
597.99999999849024
 21
-576.99999999754891
 31
0.0
1001
ACDBBLOCKREPETAG
1070
     1
1071
       15
1005
12FC24
  0
ARC
  5
12FC25
  8
OBJECT
 10
594.99999999849024
 20
-576.99999999754891
 30
0.0
 40
3.0
 50
0.0
 51
90.0
1001
ACDBBLOCKREPETAG
1070
     1
1071
       16
1005
12FC25
  0
LINE
  5
12FC26
  8
OBJECT
 10
594.99999999849024
 20
-573.99999999754891
 30
0.0
 11
476.99999999849018
 21
-573.99999999754721
 31
0.0
1001
ACDBBLOCKREPETAG
1070
     1
1071
       17
1005
12FC26
  0
LINE
  5
12FC27
  8
HIDDEN
 10
505.99999999849018
 20
-571.99999999754777
 30
0.0
 11
565.99999999849024
 21
-571.99999999754777
 31
0.0
1001
ACDBBLOCKREPETAG
1070
     1
1071
      420
1005
12FC27
  0
TEXT
  5
12FC28
  8
SLIM
 10
63.599999999939421
 20
-907.999999999691
 30
0.0
 40
48.0
  1
B103（特）
 41
0.75
1001
ACDBBLOCKREPETAG
1070
     1
1071
      119
1005
12DC99
  0
LINE
  5
12FC29
  8
OBJECT
 10
237.99999999861211
 20
-792.99999999754812
 30
0.0
 11
237.99999999861211
 21
-799.999999997548
 31
0.0
1001
ACDBBLOCKREPETAG
1070
     1
1071
       38
1005
12FC29
  0
LINE
  5
12FC2A
  8
OBJECT
 10
237.99999999861211
 20
-799.999999997548
 30
0.0
 11
113.999999998612
 21
-799.999999997548
 31
0.0
1001
ACDBBLOCKREPETAG
1070
     1
1071
       39
1005
12FC2A
  0
LINE
  5
12FC2B
  8
OBJECT
 10
113.999999998612
 20
-799.999999997548
 30
0.0
 11
113.999999998612
 21
-792.99999999754812
 31
0.0
1001
ACDBBLOCKREPETAG
1070
     1
1071
       40
1005
12FC2B
  0
LINE
  5
12FC2C
  8
OBJECT
 10
113.999999998612
 20
-792.99999999754812
 30
0.0
 11
237.99999999861211
 21
-792.99999999754812
 31
0.0
1001
ACDBBLOCKREPETAG
1070
     1
1071
       41
1005
12FC2C
  0
LINE
  5
12FC2D
  8
OBJECT
 10
234.999999998612
 20
-792.99999999754812
 30
0.0
 11
234.999999998612
 21
-756.99999999754812
 31
0.0
1001
ACDBBLOCKREPETAG
1070
     1
1071
       42
1005
12FC2D
  0
LINE
  5
12FC2E
  8
OBJECT
 10
234.999999998612
 20
-756.99999999754812
 30
0.0
 11
116.999999998612
 21
-756.99999999754812
 31
0.0
1001
ACDBBLOCKREPETAG
1070
     1
1071
       43
1005
12FC2E
  0
LINE
  5
12FC2F
  8
OBJECT
 10
116.999999998612
 20
-756.99999999754812
 30
0.0
 11
116.999999998612
 21
-792.99999999754812
 31
0.0
1001
ACDBBLOCKREPETAG
1070
     1
1071
       44
1005
12FC2F
  0
LINE
  5
12FC30
  8
OBJECT
 10
230.49999999861211
 20
-752.99999999754812
 30
0.0
 11
230.49999999861211
 21
-745.999999997548
 31
0.0
1001
ACDBBLOCKREPETAG
1070
     1
1071
       45
1005
12FC30
  0
LINE
  5
12FC31
  8
OBJECT
 10
121.499999998612
 20
-745.999999997548
 30
0.0
 11
121.499999998612
 21
-752.99999999754812
 31
0.0
1001
ACDBBLOCKREPETAG
1070
     1
1071
       46
1005
12FC31
  0
LINE
  5
12FC32
  8
OBJECT
 10
121.499999998612
 20
-752.99999999754812
 30
0.0
 11
230.49999999861211
 21
-752.99999999754812
 31
0.0
1001
ACDBBLOCKREPETAG
1070
     1
1071
       47
1005
12FC32
  0
LINE
  5
12FC33
  8
OBJECT
 10
234.999999998612
 20
-756.99999999754812
 30
0.0
 11
230.49999999861211
 21
-752.99999999754812
 31
0.0
1001
ACDBBLOCKREPETAG
1070
     1
1071
       48
1005
12FC33
  0
LINE
  5
12FC34
  8
OBJECT
 10
116.999999998612
 20
-756.99999999754812
 30
0.0
 11
121.499999998612
 21
-752.99999999754812
 31
0.0
1001
ACDBBLOCKREPETAG
1070
     1
1071
       49
1005
12FC34
  0
LINE
  5
12FC35
  8
OBJECT
 10
237.99999999861211
 20
-742.99999999754903
 30
0.0
 11
237.99999999861211
 21
-739.99999999754812
 31
0.0
1001
ACDBBLOCKREPETAG
1070
     1
1071
       50
1005
12FC35
  0
ARC
  5
12FC36
  8
OBJECT
 10
234.999999998612
 20
-742.99999999754903
 30
0.0
 40
3.0
 50
270.0
 51
0.0
1001
ACDBBLOCKREPETAG
1070
     1
1071
       51
1005
12FC36
  0
LINE
  5
12FC37
  8
OBJECT
 10
113.999999998612
 20
-739.99999999754812
 30
0.0
 11
113.999999998612
 21
-742.99999999754687
 31
0.0
1001
ACDBBLOCKREPETAG
1070
     1
1071
       52
1005
12FC37
  0
ARC
  5
12FC38
  8
OBJECT
 10
116.999999998612
 20
-742.99999999754687
 30
0.0
 40
3.0
 50
180.0
 51
270.0
1001
ACDBBLOCKREPETAG
1070
     1
1071
       53
1005
12FC38
  0
LINE
  5
12FC39
  8
OBJECT
 10
116.999999998612
 20
-745.99999999754721
 30
0.0
 11
234.999999998612
 21
-745.99999999754868
 31
0.0
1001
ACDBBLOCKREPETAG
1070
     1
1071
       54
1005
12FC39
  0
INSERT
  5
12FC3A
  8
OBJECT
  2
*U34
 10
0.0
 20
0.0
 30
0.0
  0
LINE
  5
12FC3B
  8
HIDDEN
 10
220.499999998612
 20
-747.99999999754812
 30
0.0
 11
131.499999998612
 21
-747.99999999754812
 31
0.0
1001
ACDBBLOCKREPETAG
1070
     1
1071
      430
1005
12FC3B
  0
LINE
  5
12FC3C
  8
OBJECT
 10
258.99999999861211
 20
-721.99999999754812
 30
0.0
 11
255.999999998612
 21
-721.99999999754812
 31
0.0
1001
ACDBBLOCKREPETAG
1070
     1
1071
      418
1005
12FC3C
  0
ARC
  5
12FC3D
  8
OBJECT
 10
258.99999999861211
 20
-718.99999999754812
 30
0.0
 40
3.0
 50
270.0
 51
0.0
1001
ACDBBLOCKREPETAG
1070
     1
1071
      419
1005
12FC3D
  0
LINE
  5
12FC3E
  8
OBJECT
 10
255.999999998612
 20
-597.999999997548
 30
0.0
 11
258.99999999861211
 21
-597.999999997548
 31
0.0
1001
ACDBBLOCKREPETAG
1070
     1
1071
      420
1005
12FC3E
  0
ARC
  5
12FC3F
  8
OBJECT
 10
258.99999999861211
 20
-600.99999999754777
 30
0.0
 40
3.0
 50
0.0
 51
90.0
1001
ACDBBLOCKREPETAG
1070
     1
1071
      421
1005
12FC3F
  0
LINE
  5
12FC40
  8
OBJECT
 10
261.999999998612
 20
-600.99999999754777
 30
0.0
 11
261.999999998612
 21
-718.99999999754812
 31
0.0
1001
ACDBBLOCKREPETAG
1070
     1
1071
      422
1005
12FC40
  0
INSERT
  5
12FC41
  8
OBJECT
  2
*U35
 10
0.0
 20
0.0
 30
0.0
  0
LINE
  5
12FC42
  8
OBJECT
 10
128.999999998612
 20
-526.999999997548
 30
0.0
 11
128.999999998612
 21
-519.999999997548
 31
0.0
1001
ACDBBLOCKREPETAG
1070
     1
1071
        1
1005
12FC42
  0
LINE
  5
12FC43
  8
OBJECT
 10
128.999999998612
 20
-519.999999997548
 30
0.0
 11
222.999999998612
 21
-519.999999997548
 31
0.0
1001
ACDBBLOCKREPETAG
1070
     1
1071
        2
1005
12FC43
  0
LINE
  5
12FC44
  8
OBJECT
 10
222.999999998612
 20
-519.999999997548
 30
0.0
 11
222.999999998612
 21
-526.999999997548
 31
0.0
1001
ACDBBLOCKREPETAG
1070
     1
1071
        3
1005
12FC44
  0
LINE
  5
12FC45
  8
OBJECT
 10
222.999999998612
 20
-526.999999997548
 30
0.0
 11
128.999999998612
 21
-526.999999997548
 31
0.0
1001
ACDBBLOCKREPETAG
1070
     1
1071
        4
1005
12FC45
  0
LINE
  5
12FC46
  8
OBJECT
 10
131.999999998612
 20
-526.999999997548
 30
0.0
 11
131.999999998612
 21
-562.99999999754789
 31
0.0
1001
ACDBBLOCKREPETAG
1070
     1
1071
        5
1005
12FC46
  0
LINE
  5
12FC47
  8
OBJECT
 10
131.999999998612
 20
-562.99999999754789
 30
0.0
 11
219.99999999861211
 21
-562.99999999754789
 31
0.0
1001
ACDBBLOCKREPETAG
1070
     1
1071
        6
1005
12FC47
  0
LINE
  5
12FC48
  8
OBJECT
 10
219.99999999861211
 20
-562.99999999754789
 30
0.0
 11
219.99999999861211
 21
-526.999999997548
 31
0.0
1001
ACDBBLOCKREPETAG
1070
     1
1071
        7
1005
12FC48
  0
LINE
  5
12FC49
  8
OBJECT
 10
136.499999998612
 20
-566.99999999754789
 30
0.0
 11
136.499999998612
 21
-573.999999997548
 31
0.0
1001
ACDBBLOCKREPETAG
1070
     1
1071
        8
1005
12FC49
  0
LINE
  5
12FC4A
  8
OBJECT
 10
215.49999999861211
 20
-573.999999997548
 30
0.0
 11
215.49999999861211
 21
-566.99999999754789
 31
0.0
1001
ACDBBLOCKREPETAG
1070
     1
1071
        9
1005
12FC4A
  0
LINE
  5
12FC4B
  8
OBJECT
 10
215.49999999861211
 20
-566.99999999754789
 30
0.0
 11
136.499999998612
 21
-566.99999999754789
 31
0.0
1001
ACDBBLOCKREPETAG
1070
     1
1071
       10
1005
12FC4B
  0
LINE
  5
12FC4C
  8
OBJECT
 10
131.999999998612
 20
-562.99999999754789
 30
0.0
 11
136.499999998612
 21
-566.99999999754789
 31
0.0
1001
ACDBBLOCKREPETAG
1070
     1
1071
       11
1005
12FC4C
  0
LINE
  5
12FC4D
  8
OBJECT
 10
219.99999999861211
 20
-562.99999999754789
 30
0.0
 11
215.49999999861211
 21
-566.99999999754789
 31
0.0
1001
ACDBBLOCKREPETAG
1070
     1
1071
       12
1005
12FC4D
  0
LINE
  5
12FC4E
  8
OBJECT
 10
113.999999998612
 20
-576.99999999754687
 30
0.0
 11
113.999999998612
 21
-579.99999999754777
 31
0.0
1001
ACDBBLOCKREPETAG
1070
     1
1071
       13
1005
12FC4E
  0
ARC
  5
12FC4F
  8
OBJECT
 10
116.999999998612
 20
-576.99999999754687
 30
0.0
 40
3.0
 50
90.0
 51
180.0
1001
ACDBBLOCKREPETAG
1070
     1
1071
       14
1005
12FC4F
  0
LINE
  5
12FC50
  8
OBJECT
 10
237.99999999861211
 20
-579.99999999754777
 30
0.0
 11
237.99999999861211
 21
-576.99999999754891
 31
0.0
1001
ACDBBLOCKREPETAG
1070
     1
1071
       15
1005
12FC50
  0
ARC
  5
12FC51
  8
OBJECT
 10
234.999999998612
 20
-576.99999999754891
 30
0.0
 40
3.0
 50
0.0
 51
90.0
1001
ACDBBLOCKREPETAG
1070
     1
1071
       16
1005
12FC51
  0
LINE
  5
12FC52
  8
OBJECT
 10
234.999999998612
 20
-573.99999999754891
 30
0.0
 11
116.999999998612
 21
-573.99999999754721
 31
0.0
1001
ACDBBLOCKREPETAG
1070
     1
1071
       17
1005
12FC52
  0
LINE
  5
12FC53
  8
HIDDEN
 10
145.999999998612
 20
-571.99999999754777
 30
0.0
 11
205.999999998612
 21
-571.99999999754777
 31
0.0
1001
ACDBBLOCKREPETAG
1070
     1
1071
      420
1005
12FC53
  0
TEXT
  5
12FC54
  8
SLIM
 10
479.14285714267481
 20
-443.99999999984919
 30
0.0
 40
48.0
  1
B102
 41
0.75
1001
ACDBBLOCKREPETAG
1070
     1
1071
      119
1005
12DC99
  0
LINE
  5
12FC55
  8
OBJECT
 10
590.99999999849024
 20
-328.99999999770631
 30
0.0
 11
590.99999999849024
 21
-335.99999999770631
 31
0.0
1001
ACDBBLOCKREPETAG
1070
     1
1071
       19
1005
12FC55
  0
LINE
  5
12FC56
  8
OBJECT
 10
590.99999999849024
 20
-335.99999999770631
 30
0.0
 11
480.99999999849018
 21
-335.99999999770631
 31
0.0
1001
ACDBBLOCKREPETAG
1070
     1
1071
       20
1005
12FC56
  0
LINE
  5
12FC57
  8
OBJECT
 10
480.99999999849018
 20
-335.99999999770631
 30
0.0
 11
480.99999999849018
 21
-328.99999999770631
 31
0.0
1001
ACDBBLOCKREPETAG
1070
     1
1071
       21
1005
12FC57
  0
LINE
  5
12FC58
  8
OBJECT
 10
480.99999999849018
 20
-328.99999999770631
 30
0.0
 11
590.99999999849024
 21
-328.99999999770631
 31
0.0
1001
ACDBBLOCKREPETAG
1070
     1
1071
       22
1005
12FC58
  0
LINE
  5
12FC59
  8
OBJECT
 10
587.99999999849024
 20
-328.99999999770631
 30
0.0
 11
587.99999999849024
 21
-292.99999999770631
 31
0.0
1001
ACDBBLOCKREPETAG
1070
     1
1071
       23
1005
12FC59
  0
LINE
  5
12FC5A
  8
OBJECT
 10
587.99999999849024
 20
-292.99999999770631
 30
0.0
 11
483.99999999849018
 21
-292.99999999770631
 31
0.0
1001
ACDBBLOCKREPETAG
1070
     1
1071
       24
1005
12FC5A
  0
LINE
  5
12FC5B
  8
OBJECT
 10
483.99999999849018
 20
-292.99999999770631
 30
0.0
 11
483.99999999849018
 21
-328.99999999770631
 31
0.0
1001
ACDBBLOCKREPETAG
1070
     1
1071
       25
1005
12FC5B
  0
LINE
  5
12FC5C
  8
OBJECT
 10
583.49999999849024
 20
-288.9999999977062
 30
0.0
 11
583.49999999849024
 21
-281.99999999770631
 31
0.0
1001
ACDBBLOCKREPETAG
1070
     1
1071
       26
1005
12FC5C
  0
LINE
  5
12FC5D
  8
OBJECT
 10
488.49999999849018
 20
-281.99999999770631
 30
0.0
 11
488.49999999849018
 21
-288.9999999977062
 31
0.0
1001
ACDBBLOCKREPETAG
1070
     1
1071
       27
1005
12FC5D
  0
LINE
  5
12FC5E
  8
OBJECT
 10
488.49999999849018
 20
-288.9999999977062
 30
0.0
 11
583.49999999849024
 21
-288.9999999977062
 31
0.0
1001
ACDBBLOCKREPETAG
1070
     1
1071
       28
1005
12FC5E
  0
LINE
  5
12FC5F
  8
OBJECT
 10
587.99999999849024
 20
-292.99999999770631
 30
0.0
 11
583.49999999849024
 21
-288.9999999977062
 31
0.0
1001
ACDBBLOCKREPETAG
1070
     1
1071
       29
1005
12FC5F
  0
LINE
  5
12FC60
  8
OBJECT
 10
483.99999999849018
 20
-292.99999999770631
 30
0.0
 11
488.49999999849018
 21
-288.9999999977062
 31
0.0
1001
ACDBBLOCKREPETAG
1070
     1
1071
       30
1005
12FC60
  0
LINE
  5
12FC61
  8
OBJECT
 10
597.99999999849024
 20
-278.99999999770722
 30
0.0
 11
597.99999999849024
 21
-275.99999999770631
 31
0.0
1001
ACDBBLOCKREPETAG
1070
     1
1071
       31
1005
12FC61
  0
ARC
  5
12FC62
  8
OBJECT
 10
594.99999999849024
 20
-278.99999999770722
 30
0.0
 40
3.0
 50
270.0
 51
0.0
1001
ACDBBLOCKREPETAG
1070
     1
1071
       32
1005
12FC62
  0
LINE
  5
12FC63
  8
OBJECT
 10
473.99999999849018
 20
-275.99999999770631
 30
0.0
 11
473.99999999849018
 21
-278.99999999770529
 31
0.0
1001
ACDBBLOCKREPETAG
1070
     1
1071
       33
1005
12FC63
  0
ARC
  5
12FC64
  8
OBJECT
 10
476.99999999849018
 20
-278.99999999770529
 30
0.0
 40
3.0
 50
180.0
 51
270.0
1001
ACDBBLOCKREPETAG
1070
     1
1071
       34
1005
12FC64
  0
LINE
  5
12FC65
  8
OBJECT
 10
476.99999999849018
 20
-281.99999999770529
 30
0.0
 11
594.99999999849024
 21
-281.99999999770711
 31
0.0
1001
ACDBBLOCKREPETAG
1070
     1
1071
       35
1005
12FC65
  0
INSERT
  5
12FC66
  8
OBJECT
  2
*U36
 10
0.0
 20
0.0
 30
0.0
  0
LINE
  5
12FC67
  8
HIDDEN
 10
573.99999999849024
 20
-283.99999999770631
 30
0.0
 11
497.99999999849018
 21
-283.99999999770631
 31
0.0
1001
ACDBBLOCKREPETAG
1070
     1
1071
      427
1005
12FC67
  0
LINE
  5
12FC68
  8
OBJECT
 10
618.99999999849024
 20
-257.9999999977062
 30
0.0
 11
615.99999999849024
 21
-257.9999999977062
 31
0.0
1001
ACDBBLOCKREPETAG
1070
     1
1071
      418
1005
12FC68
  0
ARC
  5
12FC69
  8
OBJECT
 10
618.99999999849024
 20
-254.99999999770631
 30
0.0
 40
3.0
 50
270.0
 51
0.0
1001
ACDBBLOCKREPETAG
1070
     1
1071
      419
1005
12FC69
  0
LINE
  5
12FC6A
  8
OBJECT
 10
615.99999999849024
 20
-133.9999999977062
 30
0.0
 11
618.99999999849024
 21
-133.9999999977062
 31
0.0
1001
ACDBBLOCKREPETAG
1070
     1
1071
      420
1005
12FC6A
  0
ARC
  5
12FC6B
  8
OBJECT
 10
618.99999999849024
 20
-136.9999999977062
 30
0.0
 40
3.0
 50
0.0
 51
90.0
1001
ACDBBLOCKREPETAG
1070
     1
1071
      421
1005
12FC6B
  0
LINE
  5
12FC6C
  8
OBJECT
 10
621.99999999849024
 20
-136.9999999977062
 30
0.0
 11
621.99999999849024
 21
-254.99999999770631
 31
0.0
1001
ACDBBLOCKREPETAG
1070
     1
1071
      422
1005
12FC6C
  0
INSERT
  5
12FC6D
  8
OBJECT
  2
*U37
 10
0.0
 20
0.0
 30
0.0
  0
LINE
  5
12FC6E
  8
OBJECT
 10
488.99999999849018
 20
-62.999999997706247
 30
0.0
 11
488.99999999849018
 21
-55.999999997706247
 31
0.0
1001
ACDBBLOCKREPETAG
1070
     1
1071
        1
1005
12FC6E
  0
LINE
  5
12FC6F
  8
OBJECT
 10
488.99999999849018
 20
-55.999999997706247
 30
0.0
 11
582.99999999849024
 21
-55.999999997706247
 31
0.0
1001
ACDBBLOCKREPETAG
1070
     1
1071
        2
1005
12FC6F
  0
LINE
  5
12FC70
  8
OBJECT
 10
582.99999999849024
 20
-55.999999997706247
 30
0.0
 11
582.99999999849024
 21
-62.999999997706247
 31
0.0
1001
ACDBBLOCKREPETAG
1070
     1
1071
        3
1005
12FC70
  0
LINE
  5
12FC71
  8
OBJECT
 10
582.99999999849024
 20
-62.999999997706247
 30
0.0
 11
488.99999999849018
 21
-62.999999997706247
 31
0.0
1001
ACDBBLOCKREPETAG
1070
     1
1071
        4
1005
12FC71
  0
LINE
  5
12FC72
  8
OBJECT
 10
491.99999999849018
 20
-62.999999997706247
 30
0.0
 11
491.99999999849018
 21
-98.99999999770624
 31
0.0
1001
ACDBBLOCKREPETAG
1070
     1
1071
        5
1005
12FC72
  0
LINE
  5
12FC73
  8
OBJECT
 10
491.99999999849018
 20
-98.99999999770624
 30
0.0
 11
579.99999999849024
 21
-98.99999999770624
 31
0.0
1001
ACDBBLOCKREPETAG
1070
     1
1071
        6
1005
12FC73
  0
LINE
  5
12FC74
  8
OBJECT
 10
579.99999999849024
 20
-98.99999999770624
 30
0.0
 11
579.99999999849024
 21
-62.999999997706247
 31
0.0
1001
ACDBBLOCKREPETAG
1070
     1
1071
        7
1005
12FC74
  0
LINE
  5
12FC75
  8
OBJECT
 10
496.49999999849018
 20
-102.9999999977062
 30
0.0
 11
496.49999999849018
 21
-109.9999999977062
 31
0.0
1001
ACDBBLOCKREPETAG
1070
     1
1071
        8
1005
12FC75
  0
LINE
  5
12FC76
  8
OBJECT
 10
575.49999999849024
 20
-109.9999999977062
 30
0.0
 11
575.49999999849024
 21
-102.9999999977062
 31
0.0
1001
ACDBBLOCKREPETAG
1070
     1
1071
        9
1005
12FC76
  0
LINE
  5
12FC77
  8
OBJECT
 10
575.49999999849024
 20
-102.9999999977062
 30
0.0
 11
496.49999999849018
 21
-102.9999999977062
 31
0.0
1001
ACDBBLOCKREPETAG
1070
     1
1071
       10
1005
12FC77
  0
LINE
  5
12FC78
  8
OBJECT
 10
491.99999999849018
 20
-98.99999999770624
 30
0.0
 11
496.49999999849018
 21
-102.9999999977062
 31
0.0
1001
ACDBBLOCKREPETAG
1070
     1
1071
       11
1005
12FC78
  0
LINE
  5
12FC79
  8
OBJECT
 10
579.99999999849024
 20
-98.99999999770624
 30
0.0
 11
575.49999999849024
 21
-102.9999999977062
 31
0.0
1001
ACDBBLOCKREPETAG
1070
     1
1071
       12
1005
12FC79
  0
LINE
  5
12FC7A
  8
OBJECT
 10
473.99999999849018
 20
-112.9999999977053
 30
0.0
 11
473.99999999849018
 21
-115.9999999977062
 31
0.0
1001
ACDBBLOCKREPETAG
1070
     1
1071
       13
1005
12FC7A
  0
ARC
  5
12FC7B
  8
OBJECT
 10
476.99999999849018
 20
-112.9999999977053
 30
0.0
 40
3.0
 50
90.0
 51
180.0
1001
ACDBBLOCKREPETAG
1070
     1
1071
       14
1005
12FC7B
  0
LINE
  5
12FC7C
  8
OBJECT
 10
597.99999999849024
 20
-115.9999999977062
 30
0.0
 11
597.99999999849024
 21
-112.99999999770711
 31
0.0
1001
ACDBBLOCKREPETAG
1070
     1
1071
       15
1005
12FC7C
  0
ARC
  5
12FC7D
  8
OBJECT
 10
594.99999999849024
 20
-112.99999999770711
 30
0.0
 40
3.0
 50
0.0
 51
90.0
1001
ACDBBLOCKREPETAG
1070
     1
1071
       16
1005
12FC7D
  0
LINE
  5
12FC7E
  8
OBJECT
 10
594.99999999849024
 20
-109.99999999770711
 30
0.0
 11
476.99999999849018
 21
-109.9999999977053
 31
0.0
1001
ACDBBLOCKREPETAG
1070
     1
1071
       17
1005
12FC7E
  0
LINE
  5
12FC7F
  8
HIDDEN
 10
505.99999999849018
 20
-107.9999999977062
 30
0.0
 11
565.99999999849024
 21
-107.9999999977062
 31
0.0
1001
ACDBBLOCKREPETAG
1070
     1
1071
      420
1005
12FC7F
  0
LINE
  5
12FC80
  8
OBJECT
 10
1923.0
 20
-570.99999999999432
 30
0.0
 11
1923.0
 21
-549.99999999999432
 31
0.0
1001
ACDBBLOCKREPETAG
1070
     1
1071
       36
1005
12FC80
  0
LINE
  5
12FC81
  8
OBJECT
 10
1923.0
 20
-549.99999999999432
 30
0.0
 11
2077.0
 21
-549.99999999999432
 31
0.0
1001
ACDBBLOCKREPETAG
1070
     1
1071
       37
1005
12FC81
  0
LINE
  5
12FC82
  8
HIDDEN
 10
1943.0
 20
-619.99999999999432
 30
0.0
 11
2057.0
 21
-619.99999999999432
 31
0.0
1001
ACDBBLOCKREPETAG
1070
     1
1071
       38
1005
12FC82
  0
LINE
  5
12FC83
  8
OBJECT
 10
2077.0
 20
-549.99999999999432
 30
0.0
 11
2077.0
 21
-570.99999999999432
 31
0.0
1001
ACDBBLOCKREPETAG
1070
     1
1071
       39
1005
12FC83
  0
LINE
  5
12FC84
  8
OBJECT
 10
2077.0
 20
-570.99999999999432
 30
0.0
 11
1923.0
 21
-570.99999999999432
 31
0.0
1001
ACDBBLOCKREPETAG
1070
     1
1071
       40
1005
12FC84
  0
LINE
  5
12FC85
  8
CENTER
 10
2000.0
 20
-534.99999999999432
 30
0.0
 11
2000.0
 21
-769.9999999999942
 31
0.0
1001
ACDBBLOCKREPETAG
1070
     1
1071
       41
1005
12FC85
  0
LINE
  5
12FC86
  8
OBJECT
 10
1928.0
 20
-570.99999999999432
 30
0.0
 11
1928.0
 21
-633.99999999999432
 31
0.0
1001
ACDBBLOCKREPETAG
1070
     1
1071
       42
1005
12FC86
  0
LINE
  5
12FC87
  8
OBJECT
 10
2072.0
 20
-633.99999999999432
 30
0.0
 11
2072.0
 21
-570.99999999999432
 31
0.0
1001
ACDBBLOCKREPETAG
1070
     1
1071
       43
1005
12FC87
  0
LINE
  5
12FC88
  8
OBJECT
 10
1920.0
 20
-757.9999999999942
 30
0.0
 11
2080.0
 21
-757.9999999999942
 31
0.0
1001
ACDBBLOCKREPETAG
1070
     1
1071
       44
1005
12FC88
  0
LINE
  5
12FC89
  8
OBJECT
 10
2080.0
 20
-633.99999999999432
 30
0.0
 11
1920.0
 21
-633.99999999999432
 31
0.0
1001
ACDBBLOCKREPETAG
1070
     1
1071
       45
1005
12FC89
  0
LINE
  5
12FC8A
  8
OBJECT
 10
1920.0
 20
-757.9999999999942
 30
0.0
 11
1920.0
 21
-769.9999999999942
 31
0.0
1001
ACDBBLOCKREPETAG
1070
     1
1071
       46
1005
12FC8A
  0
LINE
  5
12FC8B
  8
OBJECT
 10
1920.0
 20
-769.9999999999942
 30
0.0
 11
2080.0
 21
-769.9999999999942
 31
0.0
1001
ACDBBLOCKREPETAG
1070
     1
1071
       47
1005
12FC8B
  0
LINE
  5
12FC8C
  8
OBJECT
 10
2080.0
 20
-769.9999999999942
 30
0.0
 11
2080.0
 21
-757.9999999999942
 31
0.0
1001
ACDBBLOCKREPETAG
1070
     1
1071
       48
1005
12FC8C
  0
ARC
  5
12FC8D
  8
OBJECT
 10
2200.6872746716731
 20
-749.40809941010195
 30
0.0
 40
170.6350503965856
 50
137.44134459184301
 51
149.91949581336559
1001
ACDBBLOCKREPETAG
1070
     1
1071
       52
1005
12FC8D
  0
ARC
  5
12FC8E
  8
OBJECT
 10
2200.6872746716731
 20
-642.59190058988645
 30
0.0
 40
170.6350503965856
 50
210.0805041866343
 51
222.55865540815699
1001
ACDBBLOCKREPETAG
1070
     1
1071
       53
1005
12FC8E
  0
ARC
  5
12FC8F
  8
OBJECT
 10
1799.312725328326
 20
-749.40809941010195
 30
0.0
 40
170.6350503965856
 50
30.080504186774089
 51
42.558655408447443
1001
ACDBBLOCKREPETAG
1070
     1
1071
       54
1005
12FC8F
  0
ARC
  5
12FC90
  8
OBJECT
 10
1799.312725328326
 20
-642.59190058988645
 30
0.0
 40
170.6350503965856
 50
317.44134459155248
 51
329.91949581322592
1001
ACDBBLOCKREPETAG
1070
     1
1071
       55
1005
12FC90
  0
POINT
  5
12FC91
  8
DOTS
 10
2000.0
 20
-754.9999999999942
 30
0.0
1001
ACDBBLOCKREPETAG
1070
     1
1071
      184
1005
12FC91
  0
LINE
  5
12FC92
  8
OBJECT
 10
1867.0
 20
-261.99999999999909
 30
0.0
 11
1860.0
 21
-261.99999999999909
 31
0.0
1001
ACDBBLOCKREPETAG
1070
     1
1071
       47
1005
12FC92
  0
LINE
  5
12FC93
  8
OBJECT
 10
1860.0
 20
-261.99999999999909
 30
0.0
 11
1860.0
 21
-137.99999999999909
 31
0.0
1001
ACDBBLOCKREPETAG
1070
     1
1071
       48
1005
12FC93
  0
LINE
  5
12FC94
  8
OBJECT
 10
1860.0
 20
-137.99999999999909
 30
0.0
 11
1867.0
 21
-137.99999999999909
 31
0.0
1001
ACDBBLOCKREPETAG
1070
     1
1071
       49
1005
12FC94
  0
LINE
  5
12FC95
  8
OBJECT
 10
1867.0
 20
-137.99999999999909
 30
0.0
 11
1867.0
 21
-261.99999999999909
 31
0.0
1001
ACDBBLOCKREPETAG
1070
     1
1071
       50
1005
12FC95
  0
LINE
  5
12FC96
  8
CENTER
 10
1845.0
 20
-199.99999999999909
 30
0.0
 11
1920.0
 21
-199.99999999999909
 31
0.0
1001
ACDBBLOCKREPETAG
1070
     1
1071
       51
1005
12FC96
  0
LINE
  5
12FC97
  8
OBJECT
 10
1867.0
 20
-258.99999999999909
 30
0.0
 11
1903.0
 21
-258.99999999999909
 31
0.0
1001
ACDBBLOCKREPETAG
1070
     1
1071
       52
1005
12FC97
  0
LINE
  5
12FC98
  8
OBJECT
 10
1903.0
 20
-258.99999999999909
 30
0.0
 11
1903.0
 21
-140.99999999999909
 31
0.0
1001
ACDBBLOCKREPETAG
1070
     1
1071
       53
1005
12FC98
  0
LINE
  5
12FC99
  8
OBJECT
 10
1903.0
 20
-140.99999999999909
 30
0.0
 11
1867.0
 21
-140.99999999999909
 31
0.0
1001
ACDBBLOCKREPETAG
1070
     1
1071
       54
1005
12FC99
  0
LINE
  5
12FC9A
  8
OBJECT
 10
1907.0
 20
-254.49999999999909
 30
0.0
 11
1914.0
 21
-254.49999999999909
 31
0.0
1001
ACDBBLOCKREPETAG
1070
     1
1071
       55
1005
12FC9A
  0
LINE
  5
12FC9B
  8
OBJECT
 10
1914.0
 20
-145.49999999999909
 30
0.0
 11
1907.0
 21
-145.49999999999909
 31
0.0
1001
ACDBBLOCKREPETAG
1070
     1
1071
       56
1005
12FC9B
  0
LINE
  5
12FC9C
  8
OBJECT
 10
1907.0
 20
-145.49999999999909
 30
0.0
 11
1907.0
 21
-254.49999999999909
 31
0.0
1001
ACDBBLOCKREPETAG
1070
     1
1071
       57
1005
12FC9C
  0
LINE
  5
12FC9D
  8
OBJECT
 10
1903.0
 20
-258.99999999999909
 30
0.0
 11
1907.0
 21
-254.49999999999909
 31
0.0
1001
ACDBBLOCKREPETAG
1070
     1
1071
       58
1005
12FC9D
  0
LINE
  5
12FC9E
  8
OBJECT
 10
1903.0
 20
-140.99999999999909
 30
0.0
 11
1907.0
 21
-145.49999999999909
 31
0.0
1001
ACDBBLOCKREPETAG
1070
     1
1071
       59
1005
12FC9E
  0
LINE
  5
12FC9F
  8
OBJECT
 10
1917.0
 20
-261.99999999999909
 30
0.0
 11
1920.0
 21
-261.99999999999909
 31
0.0
1001
ACDBBLOCKREPETAG
1070
     1
1071
       60
1005
12FC9F
  0
ARC
  5
12FCA0
  8
OBJECT
 10
1917.0
 20
-258.99999999999909
 30
0.0
 40
3.0
 50
180.0
 51
270.0
1001
ACDBBLOCKREPETAG
1070
     1
1071
       61
1005
12FCA0
  0
LINE
  5
12FCA1
  8
OBJECT
 10
1920.0
 20
-137.99999999999909
 30
0.0
 11
1917.0
 21
-137.99999999999909
 31
0.0
1001
ACDBBLOCKREPETAG
1070
     1
1071
       62
1005
12FCA1
  0
ARC
  5
12FCA2
  8
OBJECT
 10
1917.0
 20
-140.99999999999909
 30
0.0
 40
3.0
 50
90.0
 51
180.0
1001
ACDBBLOCKREPETAG
1070
     1
1071
       63
1005
12FCA2
  0
LINE
  5
12FCA3
  8
OBJECT
 10
1914.0
 20
-140.99999999999909
 30
0.0
 11
1914.0
 21
-258.99999999999909
 31
0.0
1001
ACDBBLOCKREPETAG
1070
     1
1071
       64
1005
12FCA3
  0
LINE
  5
12FCA4
  8
HIDDEN
 10
1912.0
 20
-244.49999999999909
 30
0.0
 11
1912.0
 21
-155.49999999999909
 31
0.0
1001
ACDBBLOCKREPETAG
1070
     1
1071
       65
1005
12FCA4
  0
LINE
  5
12FCA5
  8
CENTER
 10
2000.0
 20
-300.99999999999898
 30
0.0
 11
2000.0
 21
-279.99999999999909
 31
0.0
1001
ACDBBLOCKREPETAG
1070
     1
1071
        0
1005
12FCA5
  0
LINE
  5
12FCA6
  8
OBJECT
 10
2062.0
 20
-283.0
 30
0.0
 11
2062.0
 21
-279.99999999999909
 31
0.0
1001
ACDBBLOCKREPETAG
1070
     1
1071
        1
1005
12FCA6
  0
ARC
  5
12FCA7
  8
OBJECT
 10
2059.0
 20
-283.0
 30
0.0
 40
3.0
 50
270.0
 51
0.0
1001
ACDBBLOCKREPETAG
1070
     1
1071
        2
1005
12FCA7
  0
LINE
  5
12FCA8
  8
OBJECT
 10
1938.0
 20
-279.99999999999909
 30
0.0
 11
1938.0
 21
-282.99999999999818
 31
0.0
1001
ACDBBLOCKREPETAG
1070
     1
1071
        3
1005
12FCA8
  0
ARC
  5
12FCA9
  8
OBJECT
 10
1941.0
 20
-282.99999999999818
 30
0.0
 40
3.0
 50
180.0
 51
270.0
1001
ACDBBLOCKREPETAG
1070
     1
1071
        4
1005
12FCA9
  0
LINE
  5
12FCAA
  8
OBJECT
 10
1941.0
 20
-285.99999999999818
 30
0.0
 11
2059.0
 21
-286.0
 31
0.0
1001
ACDBBLOCKREPETAG
1070
     1
1071
        5
1005
12FCAA
  0
LINE
  5
12FCAB
  8
OBJECT
 10
2133.0
 20
-137.99999999999909
 30
0.0
 11
2140.0
 21
-137.99999999999909
 31
0.0
1001
ACDBBLOCKREPETAG
1070
     1
1071
       47
1005
12FCAB
  0
LINE
  5
12FCAC
  8
OBJECT
 10
2140.0
 20
-137.99999999999909
 30
0.0
 11
2140.0
 21
-261.99999999999909
 31
0.0
1001
ACDBBLOCKREPETAG
1070
     1
1071
       48
1005
12FCAC
  0
LINE
  5
12FCAD
  8
OBJECT
 10
2140.0
 20
-261.99999999999909
 30
0.0
 11
2133.0
 21
-261.99999999999909
 31
0.0
1001
ACDBBLOCKREPETAG
1070
     1
1071
       49
1005
12FCAD
  0
LINE
  5
12FCAE
  8
OBJECT
 10
2133.0
 20
-261.99999999999909
 30
0.0
 11
2133.0
 21
-137.99999999999909
 31
0.0
1001
ACDBBLOCKREPETAG
1070
     1
1071
       50
1005
12FCAE
  0
LINE
  5
12FCAF
  8
CENTER
 10
2155.0
 20
-199.99999999999909
 30
0.0
 11
2080.0
 21
-199.99999999999909
 31
0.0
1001
ACDBBLOCKREPETAG
1070
     1
1071
       51
1005
12FCAF
  0
LINE
  5
12FCB0
  8
OBJECT
 10
2133.0
 20
-140.99999999999909
 30
0.0
 11
2097.0
 21
-140.99999999999909
 31
0.0
1001
ACDBBLOCKREPETAG
1070
     1
1071
       52
1005
12FCB0
  0
LINE
  5
12FCB1
  8
OBJECT
 10
2097.0
 20
-140.99999999999909
 30
0.0
 11
2097.0
 21
-258.99999999999909
 31
0.0
1001
ACDBBLOCKREPETAG
1070
     1
1071
       53
1005
12FCB1
  0
LINE
  5
12FCB2
  8
OBJECT
 10
2097.0
 20
-258.99999999999909
 30
0.0
 11
2133.0
 21
-258.99999999999909
 31
0.0
1001
ACDBBLOCKREPETAG
1070
     1
1071
       54
1005
12FCB2
  0
LINE
  5
12FCB3
  8
OBJECT
 10
2093.0
 20
-145.49999999999909
 30
0.0
 11
2086.0
 21
-145.49999999999909
 31
0.0
1001
ACDBBLOCKREPETAG
1070
     1
1071
       55
1005
12FCB3
  0
LINE
  5
12FCB4
  8
OBJECT
 10
2086.0
 20
-254.49999999999909
 30
0.0
 11
2093.0
 21
-254.49999999999909
 31
0.0
1001
ACDBBLOCKREPETAG
1070
     1
1071
       56
1005
12FCB4
  0
LINE
  5
12FCB5
  8
OBJECT
 10
2093.0
 20
-254.49999999999909
 30
0.0
 11
2093.0
 21
-145.49999999999909
 31
0.0
1001
ACDBBLOCKREPETAG
1070
     1
1071
       57
1005
12FCB5
  0
LINE
  5
12FCB6
  8
OBJECT
 10
2097.0
 20
-140.99999999999909
 30
0.0
 11
2093.0
 21
-145.49999999999909
 31
0.0
1001
ACDBBLOCKREPETAG
1070
     1
1071
       58
1005
12FCB6
  0
LINE
  5
12FCB7
  8
OBJECT
 10
2097.0
 20
-258.99999999999909
 30
0.0
 11
2093.0
 21
-254.49999999999909
 31
0.0
1001
ACDBBLOCKREPETAG
1070
     1
1071
       59
1005
12FCB7
  0
LINE
  5
12FCB8
  8
OBJECT
 10
2083.0
 20
-137.99999999999909
 30
0.0
 11
2080.0
 21
-137.99999999999909
 31
0.0
1001
ACDBBLOCKREPETAG
1070
     1
1071
       60
1005
12FCB8
  0
ARC
  5
12FCB9
  8
OBJECT
 10
2083.0
 20
-140.99999999999909
 30
0.0
 40
3.0
 50
0.0
 51
90.0
1001
ACDBBLOCKREPETAG
1070
     1
1071
       61
1005
12FCB9
  0
LINE
  5
12FCBA
  8
OBJECT
 10
2080.0
 20
-261.99999999999909
 30
0.0
 11
2083.0
 21
-261.99999999999909
 31
0.0
1001
ACDBBLOCKREPETAG
1070
     1
1071
       62
1005
12FCBA
  0
ARC
  5
12FCBB
  8
OBJECT
 10
2083.0
 20
-258.99999999999909
 30
0.0
 40
3.0
 50
270.0
 51
0.0
1001
ACDBBLOCKREPETAG
1070
     1
1071
       63
1005
12FCBB
  0
LINE
  5
12FCBC
  8
OBJECT
 10
2086.0
 20
-258.99999999999909
 30
0.0
 11
2086.0
 21
-140.99999999999909
 31
0.0
1001
ACDBBLOCKREPETAG
1070
     1
1071
       64
1005
12FCBC
  0
LINE
  5
12FCBD
  8
HIDDEN
 10
2088.0
 20
-155.49999999999909
 30
0.0
 11
2088.0
 21
-244.49999999999909
 31
0.0
1001
ACDBBLOCKREPETAG
1070
     1
1071
       65
1005
12FCBD
  0
LINE
  5
12FCBE
  8
OBJECT
 10
1867.0
 20
-634.0
 30
0.0
 11
1860.0
 21
-634.0
 31
0.0
1001
ACDBBLOCKREPETAG
1070
     1
1071
       45
1005
12FCBE
  0
LINE
  5
12FCBF
  8
OBJECT
 10
1860.0
 20
-634.0
 30
0.0
 11
1860.0
 21
-755.0
 31
0.0
1001
ACDBBLOCKREPETAG
1070
     1
1071
       46
1005
12FCBF
  0
LINE
  5
12FCC0
  8
OBJECT
 10
1867.0
 20
-755.0
 30
0.0
 11
1867.0
 21
-634.0
 31
0.0
1001
ACDBBLOCKREPETAG
1070
     1
1071
       47
1005
12FCC0
  0
LINE
  5
12FCC1
  8
CENTER
 10
1845.0
 20
-696.0
 30
0.0
 11
1929.0
 21
-696.0
 31
0.0
1001
ACDBBLOCKREPETAG
1070
     1
1071
       48
1005
12FCC1
  0
LINE
  5
12FCC2
  8
OBJECT
 10
1867.0
 20
-637.0
 30
0.0
 11
1903.0
 21
-637.0
 31
0.0
1001
ACDBBLOCKREPETAG
1070
     1
1071
       49
1005
12FCC2
  0
LINE
  5
12FCC3
  8
OBJECT
 10
1903.0
 20
-637.0
 30
0.0
 11
1903.0
 21
-755.0
 31
0.0
1001
ACDBBLOCKREPETAG
1070
     1
1071
       50
1005
12FCC3
  0
LINE
  5
12FCC4
  8
OBJECT
 10
1903.0
 20
-755.0
 30
0.0
 11
1860.0
 21
-755.0
 31
0.0
1001
ACDBBLOCKREPETAG
1070
     1
1071
       51
1005
12FCC4
  0
LINE
  5
12FCC5
  8
OBJECT
 10
1907.0
 20
-641.5
 30
0.0
 11
1914.0
 21
-641.5
 31
0.0
1001
ACDBBLOCKREPETAG
1070
     1
1071
       52
1005
12FCC5
  0
LINE
  5
12FCC6
  8
OBJECT
 10
1914.0
 20
-750.49999999999989
 30
0.0
 11
1907.0
 21
-750.49999999999989
 31
0.0
1001
ACDBBLOCKREPETAG
1070
     1
1071
       53
1005
12FCC6
  0
LINE
  5
12FCC7
  8
OBJECT
 10
1907.0
 20
-750.49999999999989
 30
0.0
 11
1907.0
 21
-641.5
 31
0.0
1001
ACDBBLOCKREPETAG
1070
     1
1071
       54
1005
12FCC7
  0
LINE
  5
12FCC8
  8
OBJECT
 10
1903.0
 20
-637.0
 30
0.0
 11
1907.0
 21
-641.5
 31
0.0
1001
ACDBBLOCKREPETAG
1070
     1
1071
       55
1005
12FCC8
  0
LINE
  5
12FCC9
  8
OBJECT
 10
1903.0
 20
-755.0
 30
0.0
 11
1907.0
 21
-750.49999999999989
 31
0.0
1001
ACDBBLOCKREPETAG
1070
     1
1071
       56
1005
12FCC9
  0
LINE
  5
12FCCA
  8
OBJECT
 10
1917.0
 20
-634.0
 30
0.0
 11
1920.0
 21
-634.0
 31
0.0
1001
ACDBBLOCKREPETAG
1070
     1
1071
       57
1005
12FCCA
  0
ARC
  5
12FCCB
  8
OBJECT
 10
1917.0
 20
-637.0
 30
0.0
 40
3.0
 50
90.0
 51
180.0
1001
ACDBBLOCKREPETAG
1070
     1
1071
       58
1005
12FCCB
  0
LINE
  5
12FCCC
  8
OBJECT
 10
1920.0
 20
-758.0
 30
0.0
 11
1917.0
 21
-758.0
 31
0.0
1001
ACDBBLOCKREPETAG
1070
     1
1071
       59
1005
12FCCC
  0
ARC
  5
12FCCD
  8
OBJECT
 10
1917.0
 20
-755.0
 30
0.0
 40
3.0
 50
180.0
 51
270.0
1001
ACDBBLOCKREPETAG
1070
     1
1071
       60
1005
12FCCD
  0
LINE
  5
12FCCE
  8
OBJECT
 10
1914.0
 20
-755.0
 30
0.0
 11
1914.0
 21
-637.0
 31
0.0
1001
ACDBBLOCKREPETAG
1070
     1
1071
       61
1005
12FCCE
  0
LINE
  5
12FCCF
  8
HIDDEN
 10
1912.0
 20
-651.5
 30
0.0
 11
1912.0
 21
-740.5
 31
0.0
1001
ACDBBLOCKREPETAG
1070
     1
1071
       63
1005
12FCCF
  0
CIRCLE
  5
12FCD0
  8
OBJECT
 10
2000.0
 20
-696.0
 30
0.0
 40
62.0
1001
ACDBBLOCKREPETAG
1070
     1
1071
        0
1005
12FCD0
  0
LINE
  5
12FCD1
  8
OBJECT
 10
2133.0
 20
-634.0
 30
0.0
 11
2140.0
 21
-634.0
 31
0.0
1001
ACDBBLOCKREPETAG
1070
     1
1071
       45
1005
12FCD1
  0
LINE
  5
12FCD2
  8
OBJECT
 10
2140.0
 20
-634.0
 30
0.0
 11
2140.0
 21
-755.0
 31
0.0
1001
ACDBBLOCKREPETAG
1070
     1
1071
       46
1005
12FCD2
  0
LINE
  5
12FCD3
  8
OBJECT
 10
2133.0
 20
-755.0
 30
0.0
 11
2133.0
 21
-634.0
 31
0.0
1001
ACDBBLOCKREPETAG
1070
     1
1071
       47
1005
12FCD3
  0
LINE
  5
12FCD4
  8
CENTER
 10
2155.0
 20
-696.0
 30
0.0
 11
2071.0
 21
-696.0
 31
0.0
1001
ACDBBLOCKREPETAG
1070
     1
1071
       48
1005
12FCD4
  0
LINE
  5
12FCD5
  8
OBJECT
 10
2133.0
 20
-637.0
 30
0.0
 11
2097.0
 21
-637.0
 31
0.0
1001
ACDBBLOCKREPETAG
1070
     1
1071
       49
1005
12FCD5
  0
LINE
  5
12FCD6
  8
OBJECT
 10
2097.0
 20
-637.0
 30
0.0
 11
2097.0
 21
-755.0
 31
0.0
1001
ACDBBLOCKREPETAG
1070
     1
1071
       50
1005
12FCD6
  0
LINE
  5
12FCD7
  8
OBJECT
 10
2097.0
 20
-755.0
 30
0.0
 11
2140.0
 21
-755.0
 31
0.0
1001
ACDBBLOCKREPETAG
1070
     1
1071
       51
1005
12FCD7
  0
LINE
  5
12FCD8
  8
OBJECT
 10
2093.0
 20
-641.5
 30
0.0
 11
2086.0
 21
-641.5
 31
0.0
1001
ACDBBLOCKREPETAG
1070
     1
1071
       52
1005
12FCD8
  0
LINE
  5
12FCD9
  8
OBJECT
 10
2086.0
 20
-750.49999999999989
 30
0.0
 11
2093.0
 21
-750.49999999999989
 31
0.0
1001
ACDBBLOCKREPETAG
1070
     1
1071
       53
1005
12FCD9
  0
LINE
  5
12FCDA
  8
OBJECT
 10
2093.0
 20
-750.49999999999989
 30
0.0
 11
2093.0
 21
-641.5
 31
0.0
1001
ACDBBLOCKREPETAG
1070
     1
1071
       54
1005
12FCDA
  0
LINE
  5
12FCDB
  8
OBJECT
 10
2097.0
 20
-637.0
 30
0.0
 11
2093.0
 21
-641.5
 31
0.0
1001
ACDBBLOCKREPETAG
1070
     1
1071
       55
1005
12FCDB
  0
LINE
  5
12FCDC
  8
OBJECT
 10
2097.0
 20
-755.0
 30
0.0
 11
2093.0
 21
-750.49999999999989
 31
0.0
1001
ACDBBLOCKREPETAG
1070
     1
1071
       56
1005
12FCDC
  0
LINE
  5
12FCDD
  8
OBJECT
 10
2083.0
 20
-634.0
 30
0.0
 11
2080.0
 21
-634.0
 31
0.0
1001
ACDBBLOCKREPETAG
1070
     1
1071
       57
1005
12FCDD
  0
ARC
  5
12FCDE
  8
OBJECT
 10
2083.0
 20
-637.0
 30
0.0
 40
3.0
 50
0.0
 51
90.0
1001
ACDBBLOCKREPETAG
1070
     1
1071
       58
1005
12FCDE
  0
LINE
  5
12FCDF
  8
OBJECT
 10
2080.0
 20
-758.0
 30
0.0
 11
2083.0
 21
-758.0
 31
0.0
1001
ACDBBLOCKREPETAG
1070
     1
1071
       59
1005
12FCDF
  0
ARC
  5
12FCE0
  8
OBJECT
 10
2083.0
 20
-755.0
 30
0.0
 40
3.0
 50
270.0
 51
0.0
1001
ACDBBLOCKREPETAG
1070
     1
1071
       60
1005
12FCE0
  0
LINE
  5
12FCE1
  8
OBJECT
 10
2086.0
 20
-755.0
 30
0.0
 11
2086.0
 21
-637.0
 31
0.0
1001
ACDBBLOCKREPETAG
1070
     1
1071
       61
1005
12FCE1
  0
LINE
  5
12FCE2
  8
HIDDEN
 10
2088.0
 20
-651.5
 30
0.0
 11
2088.0
 21
-740.5
 31
0.0
1001
ACDBBLOCKREPETAG
1070
     1
1071
       63
1005
12FCE2
  0
TEXT
  5
12FCE3
  8
SLIM
 10
126.85714285708239
 20
-443.99999999984919
 30
0.0
 40
48.0
  1
B101
 41
0.75
1001
ACDBBLOCKREPETAG
1070
     1
1071
      119
1005
12DC99
  0
TEXT
  5
12FCE4
  8
SLIM
 10
0.0000035665234464
 20
24.000004585317601
 30
0.0
 40
79.999999999972701
  1
枝管バリエーション
 41
0.75
1001
ACDBBLOCKREPETAG
1070
     1
1071
      119
1005
12DC98
  0
TEXT
  5
12FCE5
  8
SLIM
 10
-18.199999999993789
 20
-2395.9999999991828
 30
0.0
 40
51.999999999982258
  1
（特）：特注品。対向枝への排水の流入
 41
0.75
1001
ACDBBLOCKREPETAG
1070
     1
1071
      118
1005
12DC97
  0
TEXT
  5
12FCE6
  8
SLIM
 10
0.0
 20
-2465.3333333324931
 30
0.0
 40
51.999999999982258
  1
が無いことを確認した場合のみ製作。
 41
0.75
1001
ACDBBLOCKREPETAG
1070
     1
1071
      118
1005
12DC97
  0
LINE
  5
12FCE7
  8
OBJECT
 10
222.99999999861211
 20
-328.99999999770631
 30
0.0
 11
222.99999999861211
 21
-335.99999999770631
 31
0.0
1001
ACDBBLOCKREPETAG
1070
     1
1071
        0
1005
12FCE7
  0
LINE
  5
12FCE8
  8
OBJECT
 10
222.99999999861211
 20
-335.99999999770631
 30
0.0
 11
128.99999999861211
 21
-335.99999999770631
 31
0.0
1001
ACDBBLOCKREPETAG
1070
     1
1071
        1
1005
12FCE8
  0
LINE
  5
12FCE9
  8
OBJECT
 10
128.99999999861211
 20
-335.99999999770631
 30
0.0
 11
128.99999999861211
 21
-328.99999999770631
 31
0.0
1001
ACDBBLOCKREPETAG
1070
     1
1071
        2
1005
12FCE9
  0
LINE
  5
12FCEA
  8
OBJECT
 10
128.99999999861211
 20
-328.99999999770631
 30
0.0
 11
222.99999999861211
 21
-328.99999999770631
 31
0.0
1001
ACDBBLOCKREPETAG
1070
     1
1071
        3
1005
12FCEA
  0
LINE
  5
12FCEB
  8
OBJECT
 10
219.99999999861211
 20
-328.99999999770631
 30
0.0
 11
219.99999999861211
 21
-292.99999999770631
 31
0.0
1001
ACDBBLOCKREPETAG
1070
     1
1071
        4
1005
12FCEB
  0
LINE
  5
12FCEC
  8
OBJECT
 10
219.99999999861211
 20
-292.99999999770631
 30
0.0
 11
131.99999999861211
 21
-292.99999999770631
 31
0.0
1001
ACDBBLOCKREPETAG
1070
     1
1071
        5
1005
12FCEC
  0
LINE
  5
12FCED
  8
OBJECT
 10
131.99999999861211
 20
-292.99999999770631
 30
0.0
 11
131.99999999861211
 21
-328.99999999770631
 31
0.0
1001
ACDBBLOCKREPETAG
1070
     1
1071
        6
1005
12FCED
  0
LINE
  5
12FCEE
  8
OBJECT
 10
215.49999999861211
 20
-288.9999999977062
 30
0.0
 11
215.49999999861211
 21
-281.99999999770631
 31
0.0
1001
ACDBBLOCKREPETAG
1070
     1
1071
        7
1005
12FCEE
  0
LINE
  5
12FCEF
  8
OBJECT
 10
136.49999999861211
 20
-281.99999999770631
 30
0.0
 11
136.49999999861211
 21
-288.9999999977062
 31
0.0
1001
ACDBBLOCKREPETAG
1070
     1
1071
        8
1005
12FCEF
  0
LINE
  5
12FCF0
  8
OBJECT
 10
136.49999999861211
 20
-288.9999999977062
 30
0.0
 11
215.49999999861211
 21
-288.9999999977062
 31
0.0
1001
ACDBBLOCKREPETAG
1070
     1
1071
        9
1005
12FCF0
  0
LINE
  5
12FCF1
  8
OBJECT
 10
219.99999999861211
 20
-292.99999999770631
 30
0.0
 11
215.49999999861211
 21
-288.9999999977062
 31
0.0
1001
ACDBBLOCKREPETAG
1070
     1
1071
       10
1005
12FCF1
  0
LINE
  5
12FCF2
  8
OBJECT
 10
131.99999999861211
 20
-292.99999999770631
 30
0.0
 11
136.49999999861211
 21
-288.9999999977062
 31
0.0
1001
ACDBBLOCKREPETAG
1070
     1
1071
       11
1005
12FCF2
  0
LINE
  5
12FCF3
  8
OBJECT
 10
237.99999999861211
 20
-278.99999999770722
 30
0.0
 11
237.99999999861211
 21
-275.99999999770631
 31
0.0
1001
ACDBBLOCKREPETAG
1070
     1
1071
       12
1005
12FCF3
  0
ARC
  5
12FCF4
  8
OBJECT
 10
234.99999999861211
 20
-278.99999999770722
 30
0.0
 40
3.0
 50
270.0
 51
0.0
1001
ACDBBLOCKREPETAG
1070
     1
1071
       13
1005
12FCF4
  0
LINE
  5
12FCF5
  8
OBJECT
 10
113.9999999986121
 20
-275.99999999770631
 30
0.0
 11
113.9999999986121
 21
-278.99999999770529
 31
0.0
1001
ACDBBLOCKREPETAG
1070
     1
1071
       14
1005
12FCF5
  0
ARC
  5
12FCF6
  8
OBJECT
 10
116.9999999986121
 20
-278.99999999770529
 30
0.0
 40
3.0
 50
180.0
 51
270.0
1001
ACDBBLOCKREPETAG
1070
     1
1071
       15
1005
12FCF6
  0
LINE
  5
12FCF7
  8
OBJECT
 10
116.9999999986121
 20
-281.99999999770529
 30
0.0
 11
234.99999999861211
 21
-281.99999999770711
 31
0.0
1001
ACDBBLOCKREPETAG
1070
     1
1071
       16
1005
12FCF7
  0
INSERT
  5
12FCF8
  8
OBJECT
  2
*U38
 10
0.0
 20
0.0
 30
0.0
  0
LINE
  5
12FCF9
  8
HIDDEN
 10
205.99999999861211
 20
-283.99999999770631
 30
0.0
 11
145.99999999861211
 21
-283.99999999770631
 31
0.0
1001
ACDBBLOCKREPETAG
1070
     1
1071
      424
1005
12FCF9
  0
LINE
  5
12FCFA
  8
OBJECT
 10
258.99999999861211
 20
-257.9999999977062
 30
0.0
 11
255.99999999861211
 21
-257.9999999977062
 31
0.0
1001
ACDBBLOCKREPETAG
1070
     1
1071
      418
1005
12FCFA
  0
ARC
  5
12FCFB
  8
OBJECT
 10
258.99999999861211
 20
-254.99999999770631
 30
0.0
 40
3.0
 50
270.0
 51
0.0
1001
ACDBBLOCKREPETAG
1070
     1
1071
      419
1005
12FCFB
  0
LINE
  5
12FCFC
  8
OBJECT
 10
255.99999999861211
 20
-133.9999999977062
 30
0.0
 11
258.99999999861211
 21
-133.9999999977062
 31
0.0
1001
ACDBBLOCKREPETAG
1070
     1
1071
      420
1005
12FCFC
  0
ARC
  5
12FCFD
  8
OBJECT
 10
258.99999999861211
 20
-136.9999999977062
 30
0.0
 40
3.0
 50
0.0
 51
90.0
1001
ACDBBLOCKREPETAG
1070
     1
1071
      421
1005
12FCFD
  0
LINE
  5
12FCFE
  8
OBJECT
 10
261.99999999861211
 20
-136.9999999977062
 30
0.0
 11
261.99999999861211
 21
-254.99999999770631
 31
0.0
1001
ACDBBLOCKREPETAG
1070
     1
1071
      422
1005
12FCFE
  0
INSERT
  5
12FCFF
  8
OBJECT
  2
*U39
 10
0.0
 20
0.0
 30
0.0
  0
LINE
  5
12FD00
  8
OBJECT
 10
128.99999999861211
 20
-62.999999997706247
 30
0.0
 11
128.99999999861211
 21
-55.999999997706247
 31
0.0
1001
ACDBBLOCKREPETAG
1070
     1
1071
        1
1005
12FD00
  0
LINE
  5
12FD01
  8
OBJECT
 10
128.99999999861211
 20
-55.999999997706247
 30
0.0
 11
222.99999999861211
 21
-55.999999997706247
 31
0.0
1001
ACDBBLOCKREPETAG
1070
     1
1071
        2
1005
12FD01
  0
LINE
  5
12FD02
  8
OBJECT
 10
222.99999999861211
 20
-55.999999997706247
 30
0.0
 11
222.99999999861211
 21
-62.999999997706247
 31
0.0
1001
ACDBBLOCKREPETAG
1070
     1
1071
        3
1005
12FD02
  0
LINE
  5
12FD03
  8
OBJECT
 10
222.99999999861211
 20
-62.999999997706247
 30
0.0
 11
128.99999999861211
 21
-62.999999997706247
 31
0.0
1001
ACDBBLOCKREPETAG
1070
     1
1071
        4
1005
12FD03
  0
LINE
  5
12FD04
  8
OBJECT
 10
131.99999999861211
 20
-62.999999997706247
 30
0.0
 11
131.99999999861211
 21
-98.99999999770624
 31
0.0
1001
ACDBBLOCKREPETAG
1070
     1
1071
        5
1005
12FD04
  0
LINE
  5
12FD05
  8
OBJECT
 10
131.99999999861211
 20
-98.99999999770624
 30
0.0
 11
219.99999999861211
 21
-98.99999999770624
 31
0.0
1001
ACDBBLOCKREPETAG
1070
     1
1071
        6
1005
12FD05
  0
LINE
  5
12FD06
  8
OBJECT
 10
219.99999999861211
 20
-98.99999999770624
 30
0.0
 11
219.99999999861211
 21
-62.999999997706247
 31
0.0
1001
ACDBBLOCKREPETAG
1070
     1
1071
        7
1005
12FD06
  0
LINE
  5
12FD07
  8
OBJECT
 10
136.49999999861211
 20
-102.9999999977062
 30
0.0
 11
136.49999999861211
 21
-109.9999999977062
 31
0.0
1001
ACDBBLOCKREPETAG
1070
     1
1071
        8
1005
12FD07
  0
LINE
  5
12FD08
  8
OBJECT
 10
215.49999999861211
 20
-109.9999999977062
 30
0.0
 11
215.49999999861211
 21
-102.9999999977062
 31
0.0
1001
ACDBBLOCKREPETAG
1070
     1
1071
        9
1005
12FD08
  0
LINE
  5
12FD09
  8
OBJECT
 10
215.49999999861211
 20
-102.9999999977062
 30
0.0
 11
136.49999999861211
 21
-102.9999999977062
 31
0.0
1001
ACDBBLOCKREPETAG
1070
     1
1071
       10
1005
12FD09
  0
LINE
  5
12FD0A
  8
OBJECT
 10
131.99999999861211
 20
-98.99999999770624
 30
0.0
 11
136.49999999861211
 21
-102.9999999977062
 31
0.0
1001
ACDBBLOCKREPETAG
1070
     1
1071
       11
1005
12FD0A
  0
LINE
  5
12FD0B
  8
OBJECT
 10
219.99999999861211
 20
-98.99999999770624
 30
0.0
 11
215.49999999861211
 21
-102.9999999977062
 31
0.0
1001
ACDBBLOCKREPETAG
1070
     1
1071
       12
1005
12FD0B
  0
LINE
  5
12FD0C
  8
OBJECT
 10
113.9999999986121
 20
-112.9999999977053
 30
0.0
 11
113.9999999986121
 21
-115.9999999977062
 31
0.0
1001
ACDBBLOCKREPETAG
1070
     1
1071
       13
1005
12FD0C
  0
ARC
  5
12FD0D
  8
OBJECT
 10
116.9999999986121
 20
-112.9999999977053
 30
0.0
 40
3.0
 50
90.0
 51
180.0
1001
ACDBBLOCKREPETAG
1070
     1
1071
       14
1005
12FD0D
  0
LINE
  5
12FD0E
  8
OBJECT
 10
237.99999999861211
 20
-115.9999999977062
 30
0.0
 11
237.99999999861211
 21
-112.99999999770711
 31
0.0
1001
ACDBBLOCKREPETAG
1070
     1
1071
       15
1005
12FD0E
  0
ARC
  5
12FD0F
  8
OBJECT
 10
234.99999999861211
 20
-112.99999999770711
 30
0.0
 40
3.0
 50
0.0
 51
90.0
1001
ACDBBLOCKREPETAG
1070
     1
1071
       16
1005
12FD0F
  0
LINE
  5
12FD10
  8
OBJECT
 10
234.99999999861211
 20
-109.99999999770711
 30
0.0
 11
116.9999999986121
 21
-109.9999999977053
 31
0.0
1001
ACDBBLOCKREPETAG
1070
     1
1071
       17
1005
12FD10
  0
LINE
  5
12FD11
  8
HIDDEN
 10
145.99999999861211
 20
-107.9999999977062
 30
0.0
 11
205.99999999861211
 21
-107.9999999977062
 31
0.0
1001
ACDBBLOCKREPETAG
1070
     1
1071
      420
1005
12FD11
  0
TEXT
  5
12FD12
  8
SLIM
 10
1837.75
 20
282.50000000000011
 30
0.0
 40
35.0
  1
（枝管サイズ毎に寸法が異なります。管底の位置は全サイズで同じです）
 41
0.75
  0
TEXT
  5
12FD13
  8
SLIM
 10
1850.0
 20
532.5
 30
0.0
 40
75.0
  1
側面図の代表機種
 41
0.75
  0
TEXT
  5
12FD14
  8
SLIM
 10
1850.0
 20
369.99999999999989
 30
0.0
 40
100.0
  1
4CL-B303（特注品）
 41
0.75
  0
TEXT
  5
12FD15
  8
SLIM
 10
0.0
 20
670.0
 30
0.0
 40
100.0
  1
4CL-BX0X-S
 41
0.75
  0
TEXT
  5
12FD16
  8
SLIM
 10
0.0
 20
520.0
 30
0.0
 40
100.0
  1
4CL-BX0X-W
 41
0.75
  0
TEXT
  5
12FD17
  8
SLIM
 10
0.0
 20
369.99999999999989
 30
0.0
 40
100.0
  1
4CL-BX0X-WKP
 41
0.75
  0
LINE
  5
12FD18
  8
OBJECT
 10
4923.0
 20
-3335.9999999999968
 30
0.0
 11
4923.0
 21
-3314.9999999999968
 31
0.0
1001
ACDBBLOCKREPETAG
1070
     1
1071
        0
1005
12FD18
  0
LINE
  5
12FD19
  8
OBJECT
 10
4923.0
 20
-3314.9999999999968
 30
0.0
 11
5077.0
 21
-3314.9999999999968
 31
0.0
1001
ACDBBLOCKREPETAG
1070
     1
1071
        1
1005
12FD19
  0
LINE
  5
12FD1A
  8
HIDDEN
 10
4943.0
 20
-3384.9999999999968
 30
0.0
 11
5057.0
 21
-3384.9999999999968
 31
0.0
1001
ACDBBLOCKREPETAG
1070
     1
1071
        2
1005
12FD1A
  0
LINE
  5
12FD1B
  8
OBJECT
 10
5077.0
 20
-3314.9999999999968
 30
0.0
 11
5077.0
 21
-3335.9999999999968
 31
0.0
1001
ACDBBLOCKREPETAG
1070
     1
1071
        3
1005
12FD1B
  0
LINE
  5
12FD1C
  8
OBJECT
 10
5077.0
 20
-3335.9999999999968
 30
0.0
 11
4923.0
 21
-3335.9999999999968
 31
0.0
1001
ACDBBLOCKREPETAG
1070
     1
1071
        4
1005
12FD1C
  0
LINE
  5
12FD1D
  8
CENTER
 10
5000.0
 20
-3299.9999999999968
 30
0.0
 11
5000.0
 21
-3534.9999999999968
 31
0.0
1001
ACDBBLOCKREPETAG
1070
     1
1071
        5
1005
12FD1D
  0
LINE
  5
12FD1E
  8
OBJECT
 10
4925.0
 20
-3398.9999999999968
 30
0.0
 11
4925.0
 21
-3522.9999999999968
 31
0.0
1001
ACDBBLOCKREPETAG
1070
     1
1071
        6
1005
12FD1E
  0
LINE
  5
12FD1F
  8
OBJECT
 10
4928.0
 20
-3335.9999999999968
 30
0.0
 11
4928.0
 21
-3398.9999999999968
 31
0.0
1001
ACDBBLOCKREPETAG
1070
     1
1071
        7
1005
12FD1F
  0
LINE
  5
12FD20
  8
OBJECT
 10
5072.0
 20
-3398.9999999999968
 30
0.0
 11
5072.0
 21
-3335.9999999999968
 31
0.0
1001
ACDBBLOCKREPETAG
1070
     1
1071
        8
1005
12FD20
  0
LINE
  5
12FD21
  8
OBJECT
 10
5074.9999999997999
 20
-3522.9999999997781
 30
0.0
 11
5080.0
 21
-3522.9999999999968
 31
0.0
1001
ACDBBLOCKREPETAG
1070
     1
1071
        9
1005
12FD21
  0
LINE
  5
12FD22
  8
OBJECT
 10
5080.0
 20
-3398.9999999999968
 30
0.0
 11
4925.0
 21
-3398.9999999999968
 31
0.0
1001
ACDBBLOCKREPETAG
1070
     1
1071
       10
1005
12FD22
  0
ARC
  5
12FD23
  8
OBJECT
 10
5200.6872746716726
 20
-3514.408099410105
 30
0.0
 40
170.6350503965856
 50
137.44134459184301
 51
149.9194958133665
1001
ACDBBLOCKREPETAG
1070
     1
1071
       15
1005
12FD23
  0
ARC
  5
12FD24
  8
OBJECT
 10
5118.8455987040506
 20
-3470.8827266953631
 30
0.0
 40
78.072222021763665
 50
147.4551531037684
 51
164.66365997719291
1001
ACDBBLOCKREPETAG
1070
     1
1071
       16
1005
12FD24
  0
ARC
  5
12FD25
  8
OBJECT
 10
5085.7554349608727
 20
-3460.9999999999968
 30
0.0
 40
43.55353926885617
 50
165.6884523008477
 51
194.3115476991523
1001
ACDBBLOCKREPETAG
1070
     1
1071
       17
1005
12FD25
  0
ARC
  5
12FD26
  8
OBJECT
 10
5200.6872746716726
 20
-3407.5919005898891
 30
0.0
 40
170.6350503965856
 50
210.0805041866335
 51
222.55865540815699
1001
ACDBBLOCKREPETAG
1070
     1
1071
       18
1005
12FD26
  0
ARC
  5
12FD27
  8
OBJECT
 10
5118.8455987040506
 20
-3451.1172733046319
 30
0.0
 40
78.072222021763665
 50
195.33634002280701
 51
212.5448468962316
1001
ACDBBLOCKREPETAG
1070
     1
1071
       19
1005
12FD27
  0
POINT
  5
12FD28
  8
DOTS
 10
5000.0
 20
-3519.9999999999968
 30
0.0
1001
ACDBBLOCKREPETAG
1070
     1
1071
      186
1005
12FD28
  0
LINE
  5
12FD29
  8
OBJECT
 10
4323.0
 20
-3335.9999999999968
 30
0.0
 11
4323.0
 21
-3314.9999999999968
 31
0.0
1001
ACDBBLOCKREPETAG
1070
     1
1071
       20
1005
12FD29
  0
LINE
  5
12FD2A
  8
OBJECT
 10
4323.0
 20
-3314.9999999999968
 30
0.0
 11
4477.0
 21
-3314.9999999999968
 31
0.0
1001
ACDBBLOCKREPETAG
1070
     1
1071
       21
1005
12FD2A
  0
LINE
  5
12FD2B
  8
HIDDEN
 10
4343.0
 20
-3384.9999999999968
 30
0.0
 11
4457.0
 21
-3384.9999999999968
 31
0.0
1001
ACDBBLOCKREPETAG
1070
     1
1071
       22
1005
12FD2B
  0
LINE
  5
12FD2C
  8
OBJECT
 10
4477.0
 20
-3314.9999999999968
 30
0.0
 11
4477.0
 21
-3335.9999999999968
 31
0.0
1001
ACDBBLOCKREPETAG
1070
     1
1071
       23
1005
12FD2C
  0
LINE
  5
12FD2D
  8
OBJECT
 10
4477.0
 20
-3335.9999999999968
 30
0.0
 11
4323.0
 21
-3335.9999999999968
 31
0.0
1001
ACDBBLOCKREPETAG
1070
     1
1071
       24
1005
12FD2D
  0
LINE
  5
12FD2E
  8
CENTER
 10
4400.0
 20
-3299.9999999999968
 30
0.0
 11
4400.0
 21
-3534.9999999999968
 31
0.0
1001
ACDBBLOCKREPETAG
1070
     1
1071
       25
1005
12FD2E
  0
LINE
  5
12FD2F
  8
OBJECT
 10
4325.0
 20
-3398.9999999999968
 30
0.0
 11
4325.0
 21
-3522.9999999999968
 31
0.0
1001
ACDBBLOCKREPETAG
1070
     1
1071
       26
1005
12FD2F
  0
LINE
  5
12FD30
  8
OBJECT
 10
4328.0
 20
-3335.9999999999968
 30
0.0
 11
4328.0
 21
-3398.9999999999968
 31
0.0
1001
ACDBBLOCKREPETAG
1070
     1
1071
       27
1005
12FD30
  0
LINE
  5
12FD31
  8
OBJECT
 10
4472.0
 20
-3398.9999999999968
 30
0.0
 11
4472.0
 21
-3335.9999999999968
 31
0.0
1001
ACDBBLOCKREPETAG
1070
     1
1071
       28
1005
12FD31
  0
LINE
  5
12FD32
  8
OBJECT
 10
4475.0
 20
-3398.9999999999968
 30
0.0
 11
4325.0
 21
-3398.9999999999968
 31
0.0
1001
ACDBBLOCKREPETAG
1070
     1
1071
       30
1005
12FD32
  0
LINE
  5
12FD33
  8
OBJECT
 10
4475.0
 20
-3398.9999999999968
 30
0.0
 11
4475.0
 21
-3522.9999999999968
 31
0.0
1001
ACDBBLOCKREPETAG
1070
     1
1071
       34
1005
12FD33
  0
POINT
  5
12FD34
  8
DOTS
 10
4400.0
 20
-3519.9999999999968
 30
0.0
1001
ACDBBLOCKREPETAG
1070
     1
1071
      187
1005
12FD34
  0
LINE
  5
12FD35
  8
OBJECT
 10
3923.0
 20
-3335.9999999999968
 30
0.0
 11
3923.0
 21
-3314.9999999999968
 31
0.0
1001
ACDBBLOCKREPETAG
1070
     1
1071
        0
1005
12FD35
  0
LINE
  5
12FD36
  8
OBJECT
 10
3923.0
 20
-3314.9999999999968
 30
0.0
 11
4077.0
 21
-3314.9999999999968
 31
0.0
1001
ACDBBLOCKREPETAG
1070
     1
1071
        1
1005
12FD36
  0
LINE
  5
12FD37
  8
HIDDEN
 10
3943.0
 20
-3384.9999999999968
 30
0.0
 11
4057.0
 21
-3384.9999999999968
 31
0.0
1001
ACDBBLOCKREPETAG
1070
     1
1071
        2
1005
12FD37
  0
LINE
  5
12FD38
  8
OBJECT
 10
4077.0
 20
-3314.9999999999968
 30
0.0
 11
4077.0
 21
-3335.9999999999968
 31
0.0
1001
ACDBBLOCKREPETAG
1070
     1
1071
        3
1005
12FD38
  0
LINE
  5
12FD39
  8
OBJECT
 10
4077.0
 20
-3335.9999999999968
 30
0.0
 11
3923.0
 21
-3335.9999999999968
 31
0.0
1001
ACDBBLOCKREPETAG
1070
     1
1071
        4
1005
12FD39
  0
LINE
  5
12FD3A
  8
CENTER
 10
4000.0
 20
-3299.9999999999968
 30
0.0
 11
4000.0
 21
-3534.9999999999968
 31
0.0
1001
ACDBBLOCKREPETAG
1070
     1
1071
        5
1005
12FD3A
  0
LINE
  5
12FD3B
  8
OBJECT
 10
3925.0
 20
-3398.9999999999968
 30
0.0
 11
3925.0
 21
-3522.9999999999968
 31
0.0
1001
ACDBBLOCKREPETAG
1070
     1
1071
        6
1005
12FD3B
  0
LINE
  5
12FD3C
  8
OBJECT
 10
3928.0
 20
-3335.9999999999968
 30
0.0
 11
3928.0
 21
-3398.9999999999968
 31
0.0
1001
ACDBBLOCKREPETAG
1070
     1
1071
        7
1005
12FD3C
  0
LINE
  5
12FD3D
  8
OBJECT
 10
4072.0
 20
-3398.9999999999968
 30
0.0
 11
4072.0
 21
-3335.9999999999968
 31
0.0
1001
ACDBBLOCKREPETAG
1070
     1
1071
        8
1005
12FD3D
  0
LINE
  5
12FD3E
  8
OBJECT
 10
4074.999999999799
 20
-3522.9999999997781
 30
0.0
 11
4080.0
 21
-3522.9999999999968
 31
0.0
1001
ACDBBLOCKREPETAG
1070
     1
1071
        9
1005
12FD3E
  0
LINE
  5
12FD3F
  8
OBJECT
 10
4080.0
 20
-3398.9999999999968
 30
0.0
 11
3925.0
 21
-3398.9999999999968
 31
0.0
1001
ACDBBLOCKREPETAG
1070
     1
1071
       10
1005
12FD3F
  0
ARC
  5
12FD40
  8
OBJECT
 10
4200.6872746716726
 20
-3514.408099410105
 30
0.0
 40
170.6350503965856
 50
137.44134459184301
 51
149.9194958133665
1001
ACDBBLOCKREPETAG
1070
     1
1071
       15
1005
12FD40
  0
ARC
  5
12FD41
  8
OBJECT
 10
4118.8455987040506
 20
-3470.8827266953631
 30
0.0
 40
78.072222021763665
 50
147.4551531037684
 51
164.663659977186
1001
ACDBBLOCKREPETAG
1070
     1
1071
       16
1005
12FD41
  0
ARC
  5
12FD42
  8
OBJECT
 10
4085.7554349608722
 20
-3460.9999999999968
 30
0.0
 40
43.55353926885617
 50
165.6884523008477
 51
194.3115476991523
1001
ACDBBLOCKREPETAG
1070
     1
1071
       17
1005
12FD42
  0
ARC
  5
12FD43
  8
OBJECT
 10
4200.6872746716726
 20
-3407.5919005898891
 30
0.0
 40
170.6350503965856
 50
210.0805041866335
 51
222.55865540815699
1001
ACDBBLOCKREPETAG
1070
     1
1071
       18
1005
12FD43
  0
ARC
  5
12FD44
  8
OBJECT
 10
4118.8455987040506
 20
-3451.1172733046319
 30
0.0
 40
78.072222021763665
 50
195.33634002281391
 51
212.5448468962316
1001
ACDBBLOCKREPETAG
1070
     1
1071
       19
1005
12FD44
  0
POINT
  5
12FD45
  8
DOTS
 10
4000.0
 20
-3519.9999999999968
 30
0.0
1001
ACDBBLOCKREPETAG
1070
     1
1071
      186
1005
12FD45
  0
LINE
  5
12FD46
  8
OBJECT
 10
3323.0
 20
-3335.9999999999968
 30
0.0
 11
3323.0
 21
-3314.9999999999968
 31
0.0
1001
ACDBBLOCKREPETAG
1070
     1
1071
       20
1005
12FD46
  0
LINE
  5
12FD47
  8
OBJECT
 10
3323.0
 20
-3314.9999999999968
 30
0.0
 11
3477.0
 21
-3314.9999999999968
 31
0.0
1001
ACDBBLOCKREPETAG
1070
     1
1071
       21
1005
12FD47
  0
LINE
  5
12FD48
  8
HIDDEN
 10
3343.0
 20
-3384.9999999999968
 30
0.0
 11
3457.0
 21
-3384.9999999999968
 31
0.0
1001
ACDBBLOCKREPETAG
1070
     1
1071
       22
1005
12FD48
  0
LINE
  5
12FD49
  8
OBJECT
 10
3477.0
 20
-3314.9999999999968
 30
0.0
 11
3477.0
 21
-3335.9999999999968
 31
0.0
1001
ACDBBLOCKREPETAG
1070
     1
1071
       23
1005
12FD49
  0
LINE
  5
12FD4A
  8
OBJECT
 10
3477.0
 20
-3335.9999999999968
 30
0.0
 11
3323.0
 21
-3335.9999999999968
 31
0.0
1001
ACDBBLOCKREPETAG
1070
     1
1071
       24
1005
12FD4A
  0
LINE
  5
12FD4B
  8
CENTER
 10
3400.0
 20
-3299.9999999999968
 30
0.0
 11
3400.0
 21
-3534.9999999999968
 31
0.0
1001
ACDBBLOCKREPETAG
1070
     1
1071
       25
1005
12FD4B
  0
LINE
  5
12FD4C
  8
OBJECT
 10
3325.0
 20
-3398.9999999999968
 30
0.0
 11
3325.0
 21
-3522.9999999999968
 31
0.0
1001
ACDBBLOCKREPETAG
1070
     1
1071
       26
1005
12FD4C
  0
LINE
  5
12FD4D
  8
OBJECT
 10
3328.0
 20
-3335.9999999999968
 30
0.0
 11
3328.0
 21
-3398.9999999999968
 31
0.0
1001
ACDBBLOCKREPETAG
1070
     1
1071
       27
1005
12FD4D
  0
LINE
  5
12FD4E
  8
OBJECT
 10
3472.0
 20
-3398.9999999999968
 30
0.0
 11
3472.0
 21
-3335.9999999999968
 31
0.0
1001
ACDBBLOCKREPETAG
1070
     1
1071
       28
1005
12FD4E
  0
LINE
  5
12FD4F
  8
OBJECT
 10
3475.0
 20
-3398.9999999999968
 30
0.0
 11
3325.0
 21
-3398.9999999999968
 31
0.0
1001
ACDBBLOCKREPETAG
1070
     1
1071
       30
1005
12FD4F
  0
LINE
  5
12FD50
  8
OBJECT
 10
3475.0
 20
-3398.9999999999968
 30
0.0
 11
3475.0
 21
-3522.9999999999968
 31
0.0
1001
ACDBBLOCKREPETAG
1070
     1
1071
       34
1005
12FD50
  0
POINT
  5
12FD51
  8
DOTS
 10
3400.0
 20
-3519.9999999999968
 30
0.0
1001
ACDBBLOCKREPETAG
1070
     1
1071
      187
1005
12FD51
  0
LINE
  5
12FD52
  8
OBJECT
 10
2923.0
 20
-3335.9999999999968
 30
0.0
 11
2923.0
 21
-3314.9999999999968
 31
0.0
1001
ACDBBLOCKREPETAG
1070
     1
1071
        0
1005
12FD52
  0
LINE
  5
12FD53
  8
OBJECT
 10
2923.0
 20
-3314.9999999999968
 30
0.0
 11
3077.0
 21
-3314.9999999999968
 31
0.0
1001
ACDBBLOCKREPETAG
1070
     1
1071
        1
1005
12FD53
  0
LINE
  5
12FD54
  8
HIDDEN
 10
2943.0
 20
-3384.9999999999968
 30
0.0
 11
3057.0
 21
-3384.9999999999968
 31
0.0
1001
ACDBBLOCKREPETAG
1070
     1
1071
        2
1005
12FD54
  0
LINE
  5
12FD55
  8
OBJECT
 10
3077.0
 20
-3314.9999999999968
 30
0.0
 11
3077.0
 21
-3335.9999999999968
 31
0.0
1001
ACDBBLOCKREPETAG
1070
     1
1071
        3
1005
12FD55
  0
LINE
  5
12FD56
  8
OBJECT
 10
3077.0
 20
-3335.9999999999968
 30
0.0
 11
2923.0
 21
-3335.9999999999968
 31
0.0
1001
ACDBBLOCKREPETAG
1070
     1
1071
        4
1005
12FD56
  0
LINE
  5
12FD57
  8
CENTER
 10
3000.0
 20
-3299.9999999999968
 30
0.0
 11
3000.0
 21
-3534.9999999999968
 31
0.0
1001
ACDBBLOCKREPETAG
1070
     1
1071
        5
1005
12FD57
  0
LINE
  5
12FD58
  8
OBJECT
 10
2925.0
 20
-3398.9999999999968
 30
0.0
 11
2925.0
 21
-3522.9999999999968
 31
0.0
1001
ACDBBLOCKREPETAG
1070
     1
1071
        6
1005
12FD58
  0
LINE
  5
12FD59
  8
OBJECT
 10
2928.0
 20
-3335.9999999999968
 30
0.0
 11
2928.0
 21
-3398.9999999999968
 31
0.0
1001
ACDBBLOCKREPETAG
1070
     1
1071
        7
1005
12FD59
  0
LINE
  5
12FD5A
  8
OBJECT
 10
3072.0
 20
-3398.9999999999968
 30
0.0
 11
3072.0
 21
-3335.9999999999968
 31
0.0
1001
ACDBBLOCKREPETAG
1070
     1
1071
        8
1005
12FD5A
  0
LINE
  5
12FD5B
  8
OBJECT
 10
3074.9999999997999
 20
-3522.9999999997781
 30
0.0
 11
3080.0
 21
-3522.9999999999968
 31
0.0
1001
ACDBBLOCKREPETAG
1070
     1
1071
        9
1005
12FD5B
  0
LINE
  5
12FD5C
  8
OBJECT
 10
3080.0
 20
-3398.9999999999968
 30
0.0
 11
2925.0
 21
-3398.9999999999968
 31
0.0
1001
ACDBBLOCKREPETAG
1070
     1
1071
       10
1005
12FD5C
  0
ARC
  5
12FD5D
  8
OBJECT
 10
3200.6872746716722
 20
-3514.408099410105
 30
0.0
 40
170.6350503965856
 50
137.44134459184301
 51
149.9194958133665
1001
ACDBBLOCKREPETAG
1070
     1
1071
       15
1005
12FD5D
  0
ARC
  5
12FD5E
  8
OBJECT
 10
3118.8455987040511
 20
-3470.8827266953631
 30
0.0
 40
78.072222021763665
 50
147.4551531037684
 51
164.663659977186
1001
ACDBBLOCKREPETAG
1070
     1
1071
       16
1005
12FD5E
  0
ARC
  5
12FD5F
  8
OBJECT
 10
3085.7554349608731
 20
-3460.9999999999968
 30
0.0
 40
43.55353926885617
 50
165.6884523008477
 51
194.3115476991523
1001
ACDBBLOCKREPETAG
1070
     1
1071
       17
1005
12FD5F
  0
ARC
  5
12FD60
  8
OBJECT
 10
3200.6872746716722
 20
-3407.5919005898891
 30
0.0
 40
170.6350503965856
 50
210.0805041866335
 51
222.55865540815699
1001
ACDBBLOCKREPETAG
1070
     1
1071
       18
1005
12FD60
  0
ARC
  5
12FD61
  8
OBJECT
 10
3118.8455987040511
 20
-3451.1172733046319
 30
0.0
 40
78.072222021763665
 50
195.33634002281391
 51
212.5448468962316
1001
ACDBBLOCKREPETAG
1070
     1
1071
       19
1005
12FD61
  0
POINT
  5
12FD62
  8
DOTS
 10
3000.0
 20
-3519.9999999999968
 30
0.0
1001
ACDBBLOCKREPETAG
1070
     1
1071
      186
1005
12FD62
  0
LINE
  5
12FD63
  8
OBJECT
 10
2323.0
 20
-3335.9999999999968
 30
0.0
 11
2323.0
 21
-3314.9999999999968
 31
0.0
1001
ACDBBLOCKREPETAG
1070
     1
1071
       20
1005
12FD63
  0
LINE
  5
12FD64
  8
OBJECT
 10
2323.0
 20
-3314.9999999999968
 30
0.0
 11
2477.0
 21
-3314.9999999999968
 31
0.0
1001
ACDBBLOCKREPETAG
1070
     1
1071
       21
1005
12FD64
  0
LINE
  5
12FD65
  8
HIDDEN
 10
2343.0
 20
-3384.9999999999968
 30
0.0
 11
2457.0
 21
-3384.9999999999968
 31
0.0
1001
ACDBBLOCKREPETAG
1070
     1
1071
       22
1005
12FD65
  0
LINE
  5
12FD66
  8
OBJECT
 10
2477.0
 20
-3314.9999999999968
 30
0.0
 11
2477.0
 21
-3335.9999999999968
 31
0.0
1001
ACDBBLOCKREPETAG
1070
     1
1071
       23
1005
12FD66
  0
LINE
  5
12FD67
  8
OBJECT
 10
2477.0
 20
-3335.9999999999968
 30
0.0
 11
2323.0
 21
-3335.9999999999968
 31
0.0
1001
ACDBBLOCKREPETAG
1070
     1
1071
       24
1005
12FD67
  0
LINE
  5
12FD68
  8
CENTER
 10
2400.0
 20
-3299.9999999999968
 30
0.0
 11
2400.0
 21
-3534.9999999999968
 31
0.0
1001
ACDBBLOCKREPETAG
1070
     1
1071
       25
1005
12FD68
  0
LINE
  5
12FD69
  8
OBJECT
 10
2325.0
 20
-3398.9999999999968
 30
0.0
 11
2325.0
 21
-3522.9999999999968
 31
0.0
1001
ACDBBLOCKREPETAG
1070
     1
1071
       26
1005
12FD69
  0
LINE
  5
12FD6A
  8
OBJECT
 10
2328.0
 20
-3335.9999999999968
 30
0.0
 11
2328.0
 21
-3398.9999999999968
 31
0.0
1001
ACDBBLOCKREPETAG
1070
     1
1071
       27
1005
12FD6A
  0
LINE
  5
12FD6B
  8
OBJECT
 10
2472.0
 20
-3398.9999999999968
 30
0.0
 11
2472.0
 21
-3335.9999999999968
 31
0.0
1001
ACDBBLOCKREPETAG
1070
     1
1071
       28
1005
12FD6B
  0
LINE
  5
12FD6C
  8
OBJECT
 10
2475.0
 20
-3398.9999999999968
 30
0.0
 11
2325.0
 21
-3398.9999999999968
 31
0.0
1001
ACDBBLOCKREPETAG
1070
     1
1071
       30
1005
12FD6C
  0
LINE
  5
12FD6D
  8
OBJECT
 10
2475.0
 20
-3398.9999999999968
 30
0.0
 11
2475.0
 21
-3522.9999999999968
 31
0.0
1001
ACDBBLOCKREPETAG
1070
     1
1071
       34
1005
12FD6D
  0
POINT
  5
12FD6E
  8
DOTS
 10
2400.0
 20
-3519.9999999999968
 30
0.0
1001
ACDBBLOCKREPETAG
1070
     1
1071
      187
1005
12FD6E
  0
LINE
  5
12FD6F
  8
OBJECT
 10
1923.0
 20
-3335.9999999999968
 30
0.0
 11
1923.0
 21
-3314.9999999999968
 31
0.0
1001
ACDBBLOCKREPETAG
1070
     1
1071
        0
1005
12FD6F
  0
LINE
  5
12FD70
  8
OBJECT
 10
1923.0
 20
-3314.9999999999968
 30
0.0
 11
2077.0
 21
-3314.9999999999968
 31
0.0
1001
ACDBBLOCKREPETAG
1070
     1
1071
        1
1005
12FD70
  0
LINE
  5
12FD71
  8
HIDDEN
 10
1943.0
 20
-3384.9999999999968
 30
0.0
 11
2057.0
 21
-3384.9999999999968
 31
0.0
1001
ACDBBLOCKREPETAG
1070
     1
1071
        2
1005
12FD71
  0
LINE
  5
12FD72
  8
OBJECT
 10
2077.0
 20
-3314.9999999999968
 30
0.0
 11
2077.0
 21
-3335.9999999999968
 31
0.0
1001
ACDBBLOCKREPETAG
1070
     1
1071
        3
1005
12FD72
  0
LINE
  5
12FD73
  8
OBJECT
 10
2077.0
 20
-3335.9999999999968
 30
0.0
 11
1923.0
 21
-3335.9999999999968
 31
0.0
1001
ACDBBLOCKREPETAG
1070
     1
1071
        4
1005
12FD73
  0
LINE
  5
12FD74
  8
CENTER
 10
2000.0
 20
-3299.9999999999968
 30
0.0
 11
2000.0
 21
-3534.9999999999968
 31
0.0
1001
ACDBBLOCKREPETAG
1070
     1
1071
        5
1005
12FD74
  0
LINE
  5
12FD75
  8
OBJECT
 10
1925.0
 20
-3398.9999999999968
 30
0.0
 11
1925.0
 21
-3522.9999999999968
 31
0.0
1001
ACDBBLOCKREPETAG
1070
     1
1071
        6
1005
12FD75
  0
LINE
  5
12FD76
  8
OBJECT
 10
1928.0
 20
-3335.9999999999968
 30
0.0
 11
1928.0
 21
-3398.9999999999968
 31
0.0
1001
ACDBBLOCKREPETAG
1070
     1
1071
        7
1005
12FD76
  0
LINE
  5
12FD77
  8
OBJECT
 10
2072.0
 20
-3398.9999999999968
 30
0.0
 11
2072.0
 21
-3335.9999999999968
 31
0.0
1001
ACDBBLOCKREPETAG
1070
     1
1071
        8
1005
12FD77
  0
LINE
  5
12FD78
  8
OBJECT
 10
2074.999999999799
 20
-3522.9999999997781
 30
0.0
 11
2080.0
 21
-3522.9999999999968
 31
0.0
1001
ACDBBLOCKREPETAG
1070
     1
1071
        9
1005
12FD78
  0
LINE
  5
12FD79
  8
OBJECT
 10
2080.0
 20
-3398.9999999999968
 30
0.0
 11
1925.0
 21
-3398.9999999999968
 31
0.0
1001
ACDBBLOCKREPETAG
1070
     1
1071
       10
1005
12FD79
  0
ARC
  5
12FD7A
  8
OBJECT
 10
2200.6872746716731
 20
-3514.408099410105
 30
0.0
 40
170.6350503965856
 50
137.44134459184301
 51
149.91949581335999
1001
ACDBBLOCKREPETAG
1070
     1
1071
       15
1005
12FD7A
  0
ARC
  5
12FD7B
  8
OBJECT
 10
2118.8455987040511
 20
-3470.8827266953631
 30
0.0
 40
78.072222021763665
 50
147.45515310377539
 51
164.663659977186
1001
ACDBBLOCKREPETAG
1070
     1
1071
       16
1005
12FD7B
  0
ARC
  5
12FD7C
  8
OBJECT
 10
2085.7554349608731
 20
-3460.9999999999968
 30
0.0
 40
43.55353926885617
 50
165.6884523008477
 51
194.3115476991523
1001
ACDBBLOCKREPETAG
1070
     1
1071
       17
1005
12FD7C
  0
ARC
  5
12FD7D
  8
OBJECT
 10
2200.6872746716731
 20
-3407.5919005898891
 30
0.0
 40
170.6350503965856
 50
210.08050418664001
 51
222.55865540815699
1001
ACDBBLOCKREPETAG
1070
     1
1071
       18
1005
12FD7D
  0
ARC
  5
12FD7E
  8
OBJECT
 10
2118.8455987040511
 20
-3451.1172733046319
 30
0.0
 40
78.072222021763665
 50
195.33634002281391
 51
212.54484689622461
1001
ACDBBLOCKREPETAG
1070
     1
1071
       19
1005
12FD7E
  0
POINT
  5
12FD7F
  8
DOTS
 10
2000.0
 20
-3519.9999999999968
 30
0.0
1001
ACDBBLOCKREPETAG
1070
     1
1071
      186
1005
12FD7F
  0
LINE
  5
12FD80
  8
DIM
 10
2150.0
 20
-3161.9999999999959
 30
0.0
 11
2228.4796205944581
 21
-3161.9999999999959
 31
0.0
  0
LINE
  5
12FD81
  8
DIM
 10
2150.0
 20
-3067.9999999999959
 30
0.0
 11
2228.479620594459
 21
-3067.9999999999959
 31
0.0
  0
LINE
  5
12FD82
  8
DIM
 10
2218.4796205944581
 20
-3141.9999999999959
 30
0.0
 11
2218.4796205944581
 21
-3087.9999999999959
 31
0.0
  0
INSERT
  5
12FD83
  8
DIM
  2
_OPEN30
 10
2218.4796205944581
 20
-3161.9999999999959
 30
0.0
 41
20.0
 42
20.0
 43
20.0
 50
270.0
  0
INSERT
  5
12FD84
  8
DIM
  2
_OPEN30
 10
2218.479620594459
 20
-3067.9999999999959
 30
0.0
 41
20.0
 42
20.0
 43
20.0
 50
90.0
  0
INSERT
  5
12FD85
  8
OBJECT
  2
*U40
 10
0.0
 20
0.0
 30
0.0
  0
LINE
  5
12FD86
  8
DIM
 10
2150.0
 20
-3519.9999999999968
 30
0.0
 11
2226.8409284037339
 21
-3519.9999999999968
 31
0.0
  0
LINE
  5
12FD87
  8
DIM
 10
2165.0
 20
-3475.9999999999968
 30
0.0
 11
2226.8409284037339
 21
-3475.9999999999968
 31
0.0
  0
LINE
  5
12FD88
  8
DIM
 10
2216.840928403733
 20
-3539.9999999999968
 30
0.0
 11
2216.840928403733
 21
-3559.9999999999968
 31
0.0
  0
LINE
  5
12FD89
  8
DIM
 10
2216.840928403733
 20
-3455.9999999999968
 30
0.0
 11
2216.840928403733
 21
-3435.9999999999968
 31
0.0
  0
LINE
  5
12FD8A
  8
DIM
 10
2216.840928403733
 20
-3519.9999999999968
 30
0.0
 11
2216.840928403733
 21
-3475.9999999999968
 31
0.0
  0
INSERT
  5
12FD8B
  8
DIM
  2
_OPEN30
 10
2216.840928403733
 20
-3519.9999999999968
 30
0.0
 41
20.0
 42
20.0
 43
20.0
 50
90.0
  0
INSERT
  5
12FD8C
  8
DIM
  2
_OPEN30
 10
2216.840928403733
 20
-3475.9999999999968
 30
0.0
 41
20.0
 42
20.0
 43
20.0
 50
270.0
  0
INSERT
  5
12FD8D
  8
OBJECT
  2
*U41
 10
0.0
 20
0.0
 30
0.0
  0
LINE
  5
12FD8E
  8
DIM
 10
2000.0
 20
-3009.9999999999959
 30
0.0
 11
2000.0
 21
-2977.208121984444
 31
0.0
  0
LINE
  5
12FD8F
  8
DIM
 10
2140.0
 20
-3057.9999999999959
 30
0.0
 11
2140.0
 21
-2977.208121984444
 31
0.0
  0
LINE
  5
12FD90
  8
DIM
 10
2020.0
 20
-2987.208121984444
 30
0.0
 11
2120.0
 21
-2987.208121984444
 31
0.0
  0
INSERT
  5
12FD91
  8
DIM
  2
_OPEN30
 10
2000.0
 20
-2987.208121984444
 30
0.0
 41
20.0
 42
20.0
 43
20.0
 50
180.0
  0
INSERT
  5
12FD92
  8
DIM
  2
_OPEN30
 10
2140.0
 20
-2987.208121984444
 30
0.0
 41
20.0
 42
20.0
 43
20.0
  0
INSERT
  5
12FD93
  8
OBJECT
  2
*U42
 10
0.0
 20
0.0
 30
0.0
  0
TEXT
  5
12FD94
  8
SLIM
 10
2631.0
 20
-2892.50001604727
 30
0.0
 40
40.0
  1
C寸法
 41
0.75
  0
TEXT
  5
12FD95
  8
SLIM
 10
2631.0
 20
-2822.50001604727
 30
0.0
 40
40.0
  1
B寸法
 41
0.75
  0
TEXT
  5
12FD96
  8
SLIM
 10
2630.2857142857142
 20
-2752.50001604727
 30
0.0
 40
40.0
  1
A寸法
 41
0.75
  0
TEXT
  5
12FD97
  8
SLIM
 10
3159.2857142857151
 20
-2892.50001604727
 30
0.0
 40
40.0
  1
150
 41
0.75
  0
TEXT
  5
12FD98
  8
SLIM
 10
3029.2857142857151
 20
-2892.50001604727
 30
0.0
 40
40.0
  1
140
 41
0.75
  0
TEXT
  5
12FD99
  8
SLIM
 10
2769.2857142857151
 20
-2892.50001604727
 30
0.0
 40
40.0
  1
140
 41
0.75
  0
TEXT
  5
12FD9A
  8
SLIM
 10
2899.2857142857151
 20
-2892.50001604727
 30
0.0
 40
40.0
  1
140
 41
0.75
  0
TEXT
  5
12FD9B
  8
SLIM
 10
3170.7142857142858
 20
-2822.50001604727
 30
0.0
 40
40.0
  1
72
 41
0.75
  0
TEXT
  5
12FD9C
  8
SLIM
 10
3041.4285714285711
 20
-2822.50001604727
 30
0.0
 40
40.0
  1
59
 41
0.75
  0
TEXT
  5
12FD9D
  8
SLIM
 10
2780.0
 20
-2822.50001604727
 30
0.0
 40
40.0
  1
44
 41
0.75
  0
TEXT
  5
12FD9E
  8
SLIM
 10
2910.7142857142858
 20
-2822.50001604727
 30
0.0
 40
40.0
  1
52
 41
0.75
  0
TEXT
  5
12FD9F
  8
SLIM
 10
2891.0
 20
-2627.50001604727
 30
0.0
 40
40.0
  1
横枝管サイズ
 41
0.75
  0
TEXT
  5
12FDA0
  8
SLIM
 10
3136.2857142857151
 20
-2682.50001604727
 30
0.0
 40
30.0
  1
100（4）
 41
0.75
  0
TEXT
  5
12FDA1
  8
SLIM
 10
3014.857142857144
 20
-2682.50001604727
 30
0.0
 40
30.0
  1
75（3）
 41
0.75
  0
TEXT
  5
12FDA2
  8
SLIM
 10
2884.8571428571431
 20
-2682.50001604727
 30
0.0
 40
30.0
  1
65（2）
 41
0.75
  0
TEXT
  5
12FDA3
  8
SLIM
 10
2757.0
 20
-2682.50001604727
 30
0.0
 40
30.0
  1
50（1）
 41
0.75
  0
TEXT
  5
12FDA4
  8
SLIM
 10
3159.2857142857151
 20
-2752.50001604727
 30
0.0
 40
40.0
  1
150
 41
0.75
  0
TEXT
  5
12FDA5
  8
SLIM
 10
3028.571428571428
 20
-2752.50001604727
 30
0.0
 40
40.0
  1
124
 41
0.75
  0
TEXT
  5
12FDA6
  8
SLIM
 10
2780.0
 20
-2752.50001604727
 30
0.0
 40
40.0
  1
94
 41
0.75
  0
TEXT
  5
12FDA7
  8
SLIM
 10
2902.1428571428569
 20
-2752.50001604727
 30
0.0
 40
40.0
  1
110
 41
0.75
  0
TEXT
  5
12FDA8
  8
SLIM
 10
1849.9999999999991
 20
-2652.5
 30
0.0
 40
75.0
  1
枝管サイズ毎の形状
 41
0.75
  0
LINE
  5
12FDA9
  8
OBJECT
 10
5150.0
 20
-3372.9999999999968
 30
0.0
 11
5143.0
 21
-3372.9999999999968
 31
0.0
1001
ACDBBLOCKREPETAG
1070
     1
1071
       64
1005
12FDA9
  0
LINE
  5
12FDAA
  8
OBJECT
 10
5143.0
 20
-3372.9999999999968
 30
0.0
 11
5143.0
 21
-3519.9999999999968
 31
0.0
1001
ACDBBLOCKREPETAG
1070
     1
1071
       65
1005
12FDAA
  0
LINE
  5
12FDAB
  8
OBJECT
 10
5101.5
 20
-3375.9999999999968
 30
0.0
 11
5101.5
 21
-3519.9999999999968
 31
0.0
1001
ACDBBLOCKREPETAG
1070
     1
1071
       66
1005
12FDAB
  0
LINE
  5
12FDAC
  8
OBJECT
 10
5090.0
 20
-3382.4999999999968
 30
0.0
 11
5090.0
 21
-3513.4999999999968
 31
0.0
1001
ACDBBLOCKREPETAG
1070
     1
1071
       67
1005
12FDAC
  0
LINE
  5
12FDAD
  8
OBJECT
 10
5086.0
 20
-3454.500000000005
 30
0.0
 11
5086.0
 21
-3519.9999999999968
 31
0.0
1001
ACDBBLOCKREPETAG
1070
     1
1071
       68
1005
12FDAD
  0
LINE
  5
12FDAE
  8
OBJECT
 10
5150.0
 20
-3519.9999999999968
 30
0.0
 11
5150.0
 21
-3372.9999999999968
 31
0.0
1001
ACDBBLOCKREPETAG
1070
     1
1071
       69
1005
12FDAE
  0
LINE
  5
12FDAF
  8
CENTER
 10
5165.0
 20
-3447.9999999999968
 30
0.0
 11
5070.4144144144157
 21
-3447.9999999999968
 31
0.0
1001
ACDBBLOCKREPETAG
1070
     1
1071
       70
1005
12FDAF
  0
LINE
  5
12FDB0
  8
OBJECT
 10
5083.0000000000045
 20
-3522.9999999999968
 30
0.0
 11
5080.0
 21
-3522.9999999999968
 31
0.0
1001
ACDBBLOCKREPETAG
1070
     1
1071
       71
1005
12FDB0
  0
ARC
  5
12FDB1
  8
OBJECT
 10
5091.8815171830656
 20
-3521.4555591801418
 30
0.0
 40
6.0
 50
60.52411099686767
 51
170.6927439126847
1001
ACDBBLOCKREPETAG
1070
     1
1071
       72
1005
12FDB1
  0
ARC
  5
12FDB2
  8
OBJECT
 10
5083.0
 20
-3519.9999999999968
 30
0.0
 40
3.0
 50
270.0
 51
350.69274391268482
1001
ACDBBLOCKREPETAG
1070
     1
1071
       73
1005
12FDB2
  0
LINE
  5
12FDB3
  8
OBJECT
 10
5081.0
 20
-3398.9999999999968
 30
0.0
 11
5080.0
 21
-3398.9999999999968
 31
0.0
1001
ACDBBLOCKREPETAG
1070
     1
1071
       74
1005
12FDB3
  0
LINE
  5
12FDB4
  8
OBJECT
 10
5150.0
 20
-3519.9999999999968
 30
0.0
 11
5101.5
 21
-3519.9999999999968
 31
0.0
1001
ACDBBLOCKREPETAG
1070
     1
1071
       75
1005
12FDB4
  0
LINE
  5
12FDB5
  8
OBJECT
 10
5101.5
 20
-3375.9999999999968
 30
0.0
 11
5090.0
 21
-3382.4999999999968
 31
0.0
1001
ACDBBLOCKREPETAG
1070
     1
1071
       76
1005
12FDB5
  0
LINE
  5
12FDB6
  8
OBJECT
 10
5143.0
 20
-3375.9999999999968
 30
0.0
 11
5101.5
 21
-3375.9999999999968
 31
0.0
1001
ACDBBLOCKREPETAG
1070
     1
1071
       77
1005
12FDB6
  0
LINE
  5
12FDB7
  8
OBJECT
 10
5086.0
 20
-3454.500000000005
 30
0.0
 11
5081.0
 21
-3398.9999999999968
 31
0.0
1001
ACDBBLOCKREPETAG
1070
     1
1071
       78
1005
12FDB7
  0
LINE
  5
12FDB8
  8
OBJECT
 10
5090.0
 20
-3382.4999999999968
 30
0.0
 11
5081.0
 21
-3398.9999999999968
 31
0.0
1001
ACDBBLOCKREPETAG
1070
     1
1071
       79
1005
12FDB8
  0
LINE
  5
12FDB9
  8
OBJECT
 10
5101.5
 20
-3519.9999999999968
 30
0.0
 11
5094.8338607230708
 21
-3516.232182147819
 31
0.0
1001
ACDBBLOCKREPETAG
1070
     1
1071
       80
1005
12FDB9
  0
LINE
  5
12FDBA
  8
HIDDEN
 10
5098.0
 20
-3504.9999999999968
 30
0.0
 11
5098.0
 21
-3390.9999999999968
 31
0.0
1001
ACDBBLOCKREPETAG
1070
     1
1071
       81
1005
12FDBA
  0
LINE
  5
12FDBB
  8
OBJECT
 10
5150.0
 20
-3039.9999999999959
 30
0.0
 11
5143.0
 21
-3039.9999999999959
 31
0.0
1001
ACDBBLOCKREPETAG
1070
     1
1071
       67
1005
12FDBB
  0
LINE
  5
12FDBC
  8
OBJECT
 10
5143.0
 20
-3039.9999999999959
 30
0.0
 11
5143.0
 21
-3189.9999999999959
 31
0.0
1001
ACDBBLOCKREPETAG
1070
     1
1071
       68
1005
12FDBC
  0
LINE
  5
12FDBD
  8
OBJECT
 10
5101.5
 20
-3042.9999999999959
 30
0.0
 11
5101.5
 21
-3186.9999999999959
 31
0.0
1001
ACDBBLOCKREPETAG
1070
     1
1071
       69
1005
12FDBD
  0
LINE
  5
12FDBE
  8
OBJECT
 10
5090.0
 20
-3049.4999999999959
 30
0.0
 11
5090.0
 21
-3180.4999999999959
 31
0.0
1001
ACDBBLOCKREPETAG
1070
     1
1071
       70
1005
12FDBE
  0
LINE
  5
12FDBF
  8
OBJECT
 10
5143.0
 20
-3189.9999999999959
 30
0.0
 11
5150.0
 21
-3189.9999999999959
 31
0.0
1001
ACDBBLOCKREPETAG
1070
     1
1071
       71
1005
12FDBF
  0
LINE
  5
12FDC0
  8
OBJECT
 10
5150.0
 20
-3189.9999999999959
 30
0.0
 11
5150.0
 21
-3039.9999999999959
 31
0.0
1001
ACDBBLOCKREPETAG
1070
     1
1071
       72
1005
12FDC0
  0
LINE
  5
12FDC1
  8
HIDDEN
 10
5098.0
 20
-3171.9999999999959
 30
0.0
 11
5098.0
 21
-3057.9999999999959
 31
0.0
1001
ACDBBLOCKREPETAG
1070
     1
1071
       73
1005
12FDC1
  0
LINE
  5
12FDC2
  8
CENTER
 10
5165.0
 20
-3114.9999999999959
 30
0.0
 11
5080.0
 21
-3114.9999999999959
 31
0.0
1001
ACDBBLOCKREPETAG
1070
     1
1071
       74
1005
12FDC2
  0
LINE
  5
12FDC3
  8
OBJECT
 10
5086.0
 20
-3176.9999999999959
 30
0.0
 11
5080.0
 21
-3176.9999999999959
 31
0.0
1001
ACDBBLOCKREPETAG
1070
     1
1071
       75
1005
12FDC3
  0
LINE
  5
12FDC4
  8
OBJECT
 10
5143.0
 20
-3186.9999999999959
 30
0.0
 11
5101.5
 21
-3186.9999999999959
 31
0.0
1001
ACDBBLOCKREPETAG
1070
     1
1071
       76
1005
12FDC4
  0
LINE
  5
12FDC5
  8
OBJECT
 10
5101.5
 20
-3186.9999999999959
 30
0.0
 11
5090.0
 21
-3180.4999999999959
 31
0.0
1001
ACDBBLOCKREPETAG
1070
     1
1071
       77
1005
12FDC5
  0
LINE
  5
12FDC6
  8
OBJECT
 10
5090.0
 20
-3180.4999999999959
 30
0.0
 11
5086.0
 21
-3176.9999999999959
 31
0.0
1001
ACDBBLOCKREPETAG
1070
     1
1071
       78
1005
12FDC6
  0
LINE
  5
12FDC7
  8
OBJECT
 10
5101.5
 20
-3042.9999999999959
 30
0.0
 11
5090.0
 21
-3049.4999999999959
 31
0.0
1001
ACDBBLOCKREPETAG
1070
     1
1071
       79
1005
12FDC7
  0
LINE
  5
12FDC8
  8
OBJECT
 10
5090.0
 20
-3049.4999999999959
 30
0.0
 11
5086.0
 21
-3052.9999999999959
 31
0.0
1001
ACDBBLOCKREPETAG
1070
     1
1071
       80
1005
12FDC8
  0
ARC
  5
12FDC9
  8
OBJECT
 10
5467.9000000000005
 20
-3114.9999999999959
 30
0.0
 40
386.89999999999998
 50
170.77870136260421
 51
189.22129863739571
1001
ACDBBLOCKREPETAG
1070
     1
1071
       81
1005
12FDC9
  0
LINE
  5
12FDCA
  8
OBJECT
 10
5086.0
 20
-3052.9999999999959
 30
0.0
 11
5080.0
 21
-3052.9999999999959
 31
0.0
1001
ACDBBLOCKREPETAG
1070
     1
1071
       82
1005
12FDCA
  0
LINE
  5
12FDCB
  8
OBJECT
 10
5143.0
 20
-3042.9999999999959
 30
0.0
 11
5101.5
 21
-3042.9999999999959
 31
0.0
1001
ACDBBLOCKREPETAG
1070
     1
1071
       83
1005
12FDCB
  0
TEXT
  5
12FDCC
  8
SLIM
 10
4884.25
 20
-3637.4999999999959
 30
0.0
 40
35.0
  1
通常枝100（4）
 41
0.75
  0
LINE
  5
12FDCD
  8
CENTER
 10
4477.0
 20
-3460.9999999999968
 30
0.0
 11
4323.0
 21
-3460.9999999999968
 31
0.0
1001
ACDBBLOCKREPETAG
1070
     1
1071
       17
1005
12FDCD
  0
CIRCLE
  5
12FDCE
  8
OBJECT
 10
4400.0
 20
-3460.9999999999968
 30
0.0
 40
41.5
1001
ACDBBLOCKREPETAG
1070
     1
1071
       19
1005
12FDCE
  0
CIRCLE
  5
12FDCF
  8
OBJECT
 10
4400.0
 20
-3460.9999999999968
 30
0.0
 40
54.0
1001
ACDBBLOCKREPETAG
1070
     1
1071
       20
1005
12FDCF
  0
ARC
  5
12FDD0
  8
OBJECT
 10
4400.0
 20
-3460.9999999999968
 30
0.0
 40
62.0
 50
287.89655112921122
 51
252.1034488707887
1001
ACDBBLOCKREPETAG
1070
     1
1071
       21
1005
12FDD0
  0
LINE
  5
12FDD1
  8
OBJECT
 10
4380.947441116743
 20
-3519.9999999999968
 30
0.0
 11
4419.052558883257
 21
-3519.9999999999968
 31
0.0
1001
ACDBBLOCKREPETAG
1070
     1
1071
       22
1005
12FDD1
  0
LINE
  5
12FDD2
  8
OBJECT
 10
4133.0
 20
-3398.9999999999968
 30
0.0
 11
4140.0
 21
-3398.9999999999968
 31
0.0
1001
ACDBBLOCKREPETAG
1070
     1
1071
       45
1005
12FDD2
  0
LINE
  5
12FDD3
  8
OBJECT
 10
4140.0
 20
-3398.9999999999968
 30
0.0
 11
4140.0
 21
-3519.9999999999968
 31
0.0
1001
ACDBBLOCKREPETAG
1070
     1
1071
       46
1005
12FDD3
  0
LINE
  5
12FDD4
  8
OBJECT
 10
4133.0
 20
-3519.9999999999968
 30
0.0
 11
4133.0
 21
-3398.9999999999968
 31
0.0
1001
ACDBBLOCKREPETAG
1070
     1
1071
       47
1005
12FDD4
  0
LINE
  5
12FDD5
  8
CENTER
 10
4155.0
 20
-3460.9999999999968
 30
0.0
 11
4071.0
 21
-3460.9999999999968
 31
0.0
1001
ACDBBLOCKREPETAG
1070
     1
1071
       48
1005
12FDD5
  0
LINE
  5
12FDD6
  8
OBJECT
 10
4133.0
 20
-3401.9999999999968
 30
0.0
 11
4097.0
 21
-3401.9999999999968
 31
0.0
1001
ACDBBLOCKREPETAG
1070
     1
1071
       49
1005
12FDD6
  0
LINE
  5
12FDD7
  8
OBJECT
 10
4097.0
 20
-3401.9999999999968
 30
0.0
 11
4097.0
 21
-3519.9999999999968
 31
0.0
1001
ACDBBLOCKREPETAG
1070
     1
1071
       50
1005
12FDD7
  0
LINE
  5
12FDD8
  8
OBJECT
 10
4097.0
 20
-3519.9999999999968
 30
0.0
 11
4140.0
 21
-3519.9999999999968
 31
0.0
1001
ACDBBLOCKREPETAG
1070
     1
1071
       51
1005
12FDD8
  0
LINE
  5
12FDD9
  8
OBJECT
 10
4093.0
 20
-3406.4999999999968
 30
0.0
 11
4086.0
 21
-3406.4999999999968
 31
0.0
1001
ACDBBLOCKREPETAG
1070
     1
1071
       52
1005
12FDD9
  0
LINE
  5
12FDDA
  8
OBJECT
 10
4086.0
 20
-3515.4999999999968
 30
0.0
 11
4093.0
 21
-3515.4999999999968
 31
0.0
1001
ACDBBLOCKREPETAG
1070
     1
1071
       53
1005
12FDDA
  0
LINE
  5
12FDDB
  8
OBJECT
 10
4093.0
 20
-3515.4999999999968
 30
0.0
 11
4093.0
 21
-3406.4999999999968
 31
0.0
1001
ACDBBLOCKREPETAG
1070
     1
1071
       54
1005
12FDDB
  0
LINE
  5
12FDDC
  8
OBJECT
 10
4097.0
 20
-3401.9999999999968
 30
0.0
 11
4093.0
 21
-3406.4999999999968
 31
0.0
1001
ACDBBLOCKREPETAG
1070
     1
1071
       55
1005
12FDDC
  0
LINE
  5
12FDDD
  8
OBJECT
 10
4097.0
 20
-3519.9999999999968
 30
0.0
 11
4093.0
 21
-3515.4999999999968
 31
0.0
1001
ACDBBLOCKREPETAG
1070
     1
1071
       56
1005
12FDDD
  0
LINE
  5
12FDDE
  8
OBJECT
 10
4083.0
 20
-3398.9999999999968
 30
0.0
 11
4080.0
 21
-3398.9999999999968
 31
0.0
1001
ACDBBLOCKREPETAG
1070
     1
1071
       57
1005
12FDDE
  0
ARC
  5
12FDDF
  8
OBJECT
 10
4083.0
 20
-3401.9999999999968
 30
0.0
 40
3.0
 50
0.0
 51
90.0
1001
ACDBBLOCKREPETAG
1070
     1
1071
       58
1005
12FDDF
  0
LINE
  5
12FDE0
  8
OBJECT
 10
4080.0
 20
-3522.9999999999968
 30
0.0
 11
4083.0
 21
-3522.9999999999968
 31
0.0
1001
ACDBBLOCKREPETAG
1070
     1
1071
       59
1005
12FDE0
  0
ARC
  5
12FDE1
  8
OBJECT
 10
4083.0
 20
-3519.9999999999968
 30
0.0
 40
3.0
 50
270.0
 51
0.0
1001
ACDBBLOCKREPETAG
1070
     1
1071
       60
1005
12FDE1
  0
LINE
  5
12FDE2
  8
OBJECT
 10
4086.0
 20
-3519.9999999999968
 30
0.0
 11
4086.0
 21
-3401.9999999999968
 31
0.0
1001
ACDBBLOCKREPETAG
1070
     1
1071
       61
1005
12FDE2
  0
LINE
  5
12FDE3
  8
HIDDEN
 10
4088.0
 20
-3416.4999999999968
 30
0.0
 11
4088.0
 21
-3505.4999999999968
 31
0.0
1001
ACDBBLOCKREPETAG
1070
     1
1071
       63
1005
12FDE3
  0
LINE
  5
12FDE4
  8
OBJECT
 10
4133.0
 20
-3052.9999999999959
 30
0.0
 11
4140.0
 21
-3052.9999999999959
 31
0.0
1001
ACDBBLOCKREPETAG
1070
     1
1071
       47
1005
12FDE4
  0
LINE
  5
12FDE5
  8
OBJECT
 10
4140.0
 20
-3052.9999999999959
 30
0.0
 11
4140.0
 21
-3176.9999999999959
 31
0.0
1001
ACDBBLOCKREPETAG
1070
     1
1071
       48
1005
12FDE5
  0
LINE
  5
12FDE6
  8
OBJECT
 10
4140.0
 20
-3176.9999999999959
 30
0.0
 11
4133.0
 21
-3176.9999999999959
 31
0.0
1001
ACDBBLOCKREPETAG
1070
     1
1071
       49
1005
12FDE6
  0
LINE
  5
12FDE7
  8
OBJECT
 10
4133.0
 20
-3176.9999999999959
 30
0.0
 11
4133.0
 21
-3052.9999999999959
 31
0.0
1001
ACDBBLOCKREPETAG
1070
     1
1071
       50
1005
12FDE7
  0
LINE
  5
12FDE8
  8
CENTER
 10
4155.0
 20
-3114.9999999999959
 30
0.0
 11
4080.0
 21
-3114.9999999999959
 31
0.0
1001
ACDBBLOCKREPETAG
1070
     1
1071
       51
1005
12FDE8
  0
LINE
  5
12FDE9
  8
OBJECT
 10
4133.0
 20
-3055.9999999999959
 30
0.0
 11
4097.0
 21
-3055.9999999999959
 31
0.0
1001
ACDBBLOCKREPETAG
1070
     1
1071
       52
1005
12FDE9
  0
LINE
  5
12FDEA
  8
OBJECT
 10
4097.0
 20
-3055.9999999999959
 30
0.0
 11
4097.0
 21
-3173.9999999999959
 31
0.0
1001
ACDBBLOCKREPETAG
1070
     1
1071
       53
1005
12FDEA
  0
LINE
  5
12FDEB
  8
OBJECT
 10
4097.0
 20
-3173.9999999999959
 30
0.0
 11
4133.0
 21
-3173.9999999999959
 31
0.0
1001
ACDBBLOCKREPETAG
1070
     1
1071
       54
1005
12FDEB
  0
LINE
  5
12FDEC
  8
OBJECT
 10
4093.0
 20
-3060.4999999999959
 30
0.0
 11
4086.0
 21
-3060.4999999999959
 31
0.0
1001
ACDBBLOCKREPETAG
1070
     1
1071
       55
1005
12FDEC
  0
LINE
  5
12FDED
  8
OBJECT
 10
4086.0
 20
-3169.4999999999959
 30
0.0
 11
4093.0
 21
-3169.4999999999959
 31
0.0
1001
ACDBBLOCKREPETAG
1070
     1
1071
       56
1005
12FDED
  0
LINE
  5
12FDEE
  8
OBJECT
 10
4093.0
 20
-3169.4999999999959
 30
0.0
 11
4093.0
 21
-3060.4999999999959
 31
0.0
1001
ACDBBLOCKREPETAG
1070
     1
1071
       57
1005
12FDEE
  0
LINE
  5
12FDEF
  8
OBJECT
 10
4097.0
 20
-3055.9999999999959
 30
0.0
 11
4093.0
 21
-3060.4999999999959
 31
0.0
1001
ACDBBLOCKREPETAG
1070
     1
1071
       58
1005
12FDEF
  0
LINE
  5
12FDF0
  8
OBJECT
 10
4097.0
 20
-3173.9999999999959
 30
0.0
 11
4093.0
 21
-3169.4999999999959
 31
0.0
1001
ACDBBLOCKREPETAG
1070
     1
1071
       59
1005
12FDF0
  0
LINE
  5
12FDF1
  8
OBJECT
 10
4083.0
 20
-3052.9999999999959
 30
0.0
 11
4080.0
 21
-3052.9999999999959
 31
0.0
1001
ACDBBLOCKREPETAG
1070
     1
1071
       60
1005
12FDF1
  0
ARC
  5
12FDF2
  8
OBJECT
 10
4083.0
 20
-3055.9999999999959
 30
0.0
 40
3.0
 50
0.0
 51
90.0
1001
ACDBBLOCKREPETAG
1070
     1
1071
       61
1005
12FDF2
  0
LINE
  5
12FDF3
  8
OBJECT
 10
4080.0
 20
-3176.9999999999959
 30
0.0
 11
4083.0
 21
-3176.9999999999959
 31
0.0
1001
ACDBBLOCKREPETAG
1070
     1
1071
       62
1005
12FDF3
  0
ARC
  5
12FDF4
  8
OBJECT
 10
4083.0
 20
-3173.9999999999959
 30
0.0
 40
3.0
 50
270.0
 51
0.0
1001
ACDBBLOCKREPETAG
1070
     1
1071
       63
1005
12FDF4
  0
LINE
  5
12FDF5
  8
OBJECT
 10
4086.0
 20
-3173.9999999999959
 30
0.0
 11
4086.0
 21
-3055.9999999999959
 31
0.0
1001
ACDBBLOCKREPETAG
1070
     1
1071
       64
1005
12FDF5
  0
LINE
  5
12FDF6
  8
HIDDEN
 10
4088.0
 20
-3070.4999999999959
 30
0.0
 11
4088.0
 21
-3159.4999999999959
 31
0.0
1001
ACDBBLOCKREPETAG
1070
     1
1071
       65
1005
12FDF6
  0
TEXT
  5
12FDF7
  8
SLIM
 10
3894.25
 20
-3637.4999999999959
 30
0.0
 40
35.0
  1
通常枝75（3）
 41
0.75
  0
CIRCLE
  5
12FDF8
  8
OBJECT
 10
3400.0
 20
-3467.9999999999968
 30
0.0
 40
35.5
1001
ACDBBLOCKREPETAG
1070
     1
1071
       10
1005
12FDF8
  0
CIRCLE
  5
12FDF9
  8
OBJECT
 10
3400.0
 20
-3460.9999999999968
 30
0.0
 40
62.0
1001
ACDBBLOCKREPETAG
1070
     1
1071
       11
1005
12FDF9
  0
LINE
  5
12FDFA
  8
CENTER
 10
3330.0
 20
-3467.9999999999968
 30
0.0
 11
3470.0
 21
-3467.9999999999968
 31
0.0
1001
ACDBBLOCKREPETAG
1070
     1
1071
       12
1005
12FDFA
  0
CIRCLE
  5
12FDFB
  8
OBJECT
 10
3400.0
 20
-3467.9999999999968
 30
0.0
 40
47.0
1001
ACDBBLOCKREPETAG
1070
     1
1071
       14
1005
12FDFB
  0
ARC
  5
12FDFC
  8
OBJECT
 10
3400.0
 20
-3467.9999999999968
 30
0.0
 40
55.0
 50
289.01126526011359
 51
250.98873473988641
1001
ACDBBLOCKREPETAG
1070
     1
1071
       15
1005
12FDFC
  0
LINE
  5
12FDFD
  8
OBJECT
 10
3382.0835271328328
 20
-3519.9999999999968
 30
0.0
 11
3417.9164728671681
 21
-3519.9999999999968
 31
0.0
1001
ACDBBLOCKREPETAG
1070
     1
1071
       16
1005
12FDFD
  0
LINE
  5
12FDFE
  8
OBJECT
 10
3133.0
 20
-3412.9999999999968
 30
0.0
 11
3140.0
 21
-3412.9999999999968
 31
0.0
1001
ACDBBLOCKREPETAG
1070
     1
1071
       26
1005
12FDFE
  0
LINE
  5
12FDFF
  8
OBJECT
 10
3140.0
 20
-3412.9999999999968
 30
0.0
 11
3140.0
 21
-3519.9999999999968
 31
0.0
1001
ACDBBLOCKREPETAG
1070
     1
1071
       27
1005
12FDFF
  0
LINE
  5
12FE00
  8
OBJECT
 10
3133.0
 20
-3519.9999999999968
 30
0.0
 11
3133.0
 21
-3412.9999999999968
 31
0.0
1001
ACDBBLOCKREPETAG
1070
     1
1071
       28
1005
12FE00
  0
LINE
  5
12FE01
  8
CENTER
 10
3155.0
 20
-3467.9999999999968
 30
0.0
 11
3071.0
 21
-3467.9999999999968
 31
0.0
1001
ACDBBLOCKREPETAG
1070
     1
1071
       29
1005
12FE01
  0
LINE
  5
12FE02
  8
OBJECT
 10
3133.0
 20
-3415.9999999999968
 30
0.0
 11
3097.0
 21
-3415.9999999999968
 31
0.0
1001
ACDBBLOCKREPETAG
1070
     1
1071
       30
1005
12FE02
  0
LINE
  5
12FE03
  8
OBJECT
 10
3097.0
 20
-3415.9999999999968
 30
0.0
 11
3097.0
 21
-3519.9999999999968
 31
0.0
1001
ACDBBLOCKREPETAG
1070
     1
1071
       31
1005
12FE03
  0
LINE
  5
12FE04
  8
OBJECT
 10
3097.0
 20
-3519.9999999999968
 30
0.0
 11
3140.0
 21
-3519.9999999999968
 31
0.0
1001
ACDBBLOCKREPETAG
1070
     1
1071
       32
1005
12FE04
  0
LINE
  5
12FE05
  8
OBJECT
 10
3093.0
 20
-3420.4999999999968
 30
0.0
 11
3086.0
 21
-3420.4999999999968
 31
0.0
1001
ACDBBLOCKREPETAG
1070
     1
1071
       33
1005
12FE05
  0
LINE
  5
12FE06
  8
OBJECT
 10
3086.0
 20
-3515.4999999999968
 30
0.0
 11
3093.0
 21
-3515.4999999999968
 31
0.0
1001
ACDBBLOCKREPETAG
1070
     1
1071
       34
1005
12FE06
  0
LINE
  5
12FE07
  8
OBJECT
 10
3093.0
 20
-3515.4999999999968
 30
0.0
 11
3093.0
 21
-3420.4999999999968
 31
0.0
1001
ACDBBLOCKREPETAG
1070
     1
1071
       35
1005
12FE07
  0
LINE
  5
12FE08
  8
OBJECT
 10
3097.0
 20
-3415.9999999999968
 30
0.0
 11
3093.0
 21
-3420.4999999999968
 31
0.0
1001
ACDBBLOCKREPETAG
1070
     1
1071
       36
1005
12FE08
  0
LINE
  5
12FE09
  8
OBJECT
 10
3097.0
 20
-3519.9999999999968
 30
0.0
 11
3093.0
 21
-3515.4999999999968
 31
0.0
1001
ACDBBLOCKREPETAG
1070
     1
1071
       37
1005
12FE09
  0
LINE
  5
12FE0A
  8
OBJECT
 10
3083.0
 20
-3398.9999999999968
 30
0.0
 11
3080.0
 21
-3398.9999999999968
 31
0.0
1001
ACDBBLOCKREPETAG
1070
     1
1071
       38
1005
12FE0A
  0
ARC
  5
12FE0B
  8
OBJECT
 10
3083.0
 20
-3401.9999999999968
 30
0.0
 40
3.0
 50
0.0
 51
90.0
1001
ACDBBLOCKREPETAG
1070
     1
1071
       39
1005
12FE0B
  0
LINE
  5
12FE0C
  8
OBJECT
 10
3080.0
 20
-3522.9999999999968
 30
0.0
 11
3083.0
 21
-3522.9999999999968
 31
0.0
1001
ACDBBLOCKREPETAG
1070
     1
1071
       40
1005
12FE0C
  0
ARC
  5
12FE0D
  8
OBJECT
 10
3083.0
 20
-3519.9999999999968
 30
0.0
 40
3.0
 50
270.0
 51
0.0
1001
ACDBBLOCKREPETAG
1070
     1
1071
       41
1005
12FE0D
  0
LINE
  5
12FE0E
  8
OBJECT
 10
3086.0
 20
-3519.9999999999968
 30
0.0
 11
3086.0
 21
-3401.9999999999968
 31
0.0
1001
ACDBBLOCKREPETAG
1070
     1
1071
       42
1005
12FE0E
  0
LINE
  5
12FE0F
  8
HIDDEN
 10
3088.0
 20
-3429.9999999999968
 30
0.0
 11
3088.0
 21
-3505.9999999999968
 31
0.0
1001
ACDBBLOCKREPETAG
1070
     1
1071
       43
1005
12FE0F
  0
LINE
  5
12FE10
  8
OBJECT
 10
3133.0
 20
-3059.9999999999959
 30
0.0
 11
3140.0
 21
-3059.9999999999959
 31
0.0
1001
ACDBBLOCKREPETAG
1070
     1
1071
       27
1005
12FE10
  0
LINE
  5
12FE11
  8
OBJECT
 10
3140.0
 20
-3059.9999999999959
 30
0.0
 11
3140.0
 21
-3169.9999999999959
 31
0.0
1001
ACDBBLOCKREPETAG
1070
     1
1071
       28
1005
12FE11
  0
LINE
  5
12FE12
  8
OBJECT
 10
3140.0
 20
-3169.9999999999959
 30
0.0
 11
3133.0
 21
-3169.9999999999959
 31
0.0
1001
ACDBBLOCKREPETAG
1070
     1
1071
       29
1005
12FE12
  0
LINE
  5
12FE13
  8
OBJECT
 10
3133.0
 20
-3169.9999999999959
 30
0.0
 11
3133.0
 21
-3059.9999999999959
 31
0.0
1001
ACDBBLOCKREPETAG
1070
     1
1071
       30
1005
12FE13
  0
LINE
  5
12FE14
  8
CENTER
 10
3155.0
 20
-3114.9999999999959
 30
0.0
 11
3080.0
 21
-3114.9999999999959
 31
0.0
1001
ACDBBLOCKREPETAG
1070
     1
1071
       31
1005
12FE14
  0
LINE
  5
12FE15
  8
OBJECT
 10
3133.0
 20
-3062.9999999999959
 30
0.0
 11
3097.0
 21
-3062.9999999999959
 31
0.0
1001
ACDBBLOCKREPETAG
1070
     1
1071
       32
1005
12FE15
  0
LINE
  5
12FE16
  8
OBJECT
 10
3097.0
 20
-3062.9999999999959
 30
0.0
 11
3097.0
 21
-3166.9999999999959
 31
0.0
1001
ACDBBLOCKREPETAG
1070
     1
1071
       33
1005
12FE16
  0
LINE
  5
12FE17
  8
OBJECT
 10
3097.0
 20
-3166.9999999999959
 30
0.0
 11
3133.0
 21
-3166.9999999999959
 31
0.0
1001
ACDBBLOCKREPETAG
1070
     1
1071
       34
1005
12FE17
  0
LINE
  5
12FE18
  8
OBJECT
 10
3093.0
 20
-3067.4999999999959
 30
0.0
 11
3086.0
 21
-3067.4999999999959
 31
0.0
1001
ACDBBLOCKREPETAG
1070
     1
1071
       35
1005
12FE18
  0
LINE
  5
12FE19
  8
OBJECT
 10
3086.0
 20
-3162.4999999999959
 30
0.0
 11
3093.0
 21
-3162.4999999999959
 31
0.0
1001
ACDBBLOCKREPETAG
1070
     1
1071
       36
1005
12FE19
  0
LINE
  5
12FE1A
  8
OBJECT
 10
3093.0
 20
-3162.4999999999959
 30
0.0
 11
3093.0
 21
-3067.4999999999959
 31
0.0
1001
ACDBBLOCKREPETAG
1070
     1
1071
       37
1005
12FE1A
  0
LINE
  5
12FE1B
  8
OBJECT
 10
3097.0
 20
-3062.9999999999959
 30
0.0
 11
3093.0
 21
-3067.4999999999959
 31
0.0
1001
ACDBBLOCKREPETAG
1070
     1
1071
       38
1005
12FE1B
  0
LINE
  5
12FE1C
  8
OBJECT
 10
3097.0
 20
-3166.9999999999959
 30
0.0
 11
3093.0
 21
-3162.4999999999959
 31
0.0
1001
ACDBBLOCKREPETAG
1070
     1
1071
       39
1005
12FE1C
  0
LINE
  5
12FE1D
  8
OBJECT
 10
3083.0
 20
-3052.9999999999959
 30
0.0
 11
3080.0
 21
-3052.9999999999959
 31
0.0
1001
ACDBBLOCKREPETAG
1070
     1
1071
       40
1005
12FE1D
  0
ARC
  5
12FE1E
  8
OBJECT
 10
3083.0
 20
-3055.9999999999959
 30
0.0
 40
3.0
 50
0.0
 51
90.0
1001
ACDBBLOCKREPETAG
1070
     1
1071
       41
1005
12FE1E
  0
LINE
  5
12FE1F
  8
OBJECT
 10
3080.0
 20
-3176.9999999999959
 30
0.0
 11
3083.0
 21
-3176.9999999999959
 31
0.0
1001
ACDBBLOCKREPETAG
1070
     1
1071
       42
1005
12FE1F
  0
ARC
  5
12FE20
  8
OBJECT
 10
3083.0
 20
-3173.9999999999959
 30
0.0
 40
3.0
 50
270.0
 51
0.0
1001
ACDBBLOCKREPETAG
1070
     1
1071
       43
1005
12FE20
  0
LINE
  5
12FE21
  8
OBJECT
 10
3086.0
 20
-3173.9999999999959
 30
0.0
 11
3086.0
 21
-3055.9999999999959
 31
0.0
1001
ACDBBLOCKREPETAG
1070
     1
1071
       44
1005
12FE21
  0
LINE
  5
12FE22
  8
HIDDEN
 10
3088.0
 20
-3076.9999999999959
 30
0.0
 11
3088.0
 21
-3152.9999999999959
 31
0.0
1001
ACDBBLOCKREPETAG
1070
     1
1071
       45
1005
12FE22
  0
TEXT
  5
12FE23
  8
SLIM
 10
2894.25
 20
-3637.4999999999959
 30
0.0
 40
35.0
  1
通常枝65（2）
 41
0.75
  0
CIRCLE
  5
12FE24
  8
OBJECT
 10
2400.0
 20
-3460.9999999999968
 30
0.0
 40
62.0
1001
ACDBBLOCKREPETAG
1070
     1
1071
        3
1005
12FE24
  0
LINE
  5
12FE25
  8
CENTER
 10
2338.0
 20
-3475.9999999999968
 30
0.0
 11
2462.0
 21
-3475.9999999999968
 31
0.0
1001
ACDBBLOCKREPETAG
1070
     1
1071
        4
1005
12FE25
  0
CIRCLE
  5
12FE26
  8
OBJECT
 10
2400.0
 20
-3475.9999999999968
 30
0.0
 40
28.0
1001
ACDBBLOCKREPETAG
1070
     1
1071
        6
1005
12FE26
  0
CIRCLE
  5
12FE27
  8
OBJECT
 10
2400.0
 20
-3475.9999999999968
 30
0.0
 40
39.0
1001
ACDBBLOCKREPETAG
1070
     1
1071
        7
1005
12FE27
  0
ARC
  5
12FE28
  8
OBJECT
 10
2400.0
 20
-3475.9999999999968
 30
0.0
 40
47.0
 50
290.58196921144412
 51
249.41803078855591
1001
ACDBBLOCKREPETAG
1070
     1
1071
        8
1005
12FE28
  0
LINE
  5
12FE29
  8
OBJECT
 10
2383.4772883581431
 20
-3519.9999999999968
 30
0.0
 11
2416.5227116418569
 21
-3519.9999999999968
 31
0.0
1001
ACDBBLOCKREPETAG
1070
     1
1071
        9
1005
12FE29
  0
LINE
  5
12FE2A
  8
OBJECT
 10
2133.0
 20
-3428.9999999999968
 30
0.0
 11
2140.0
 21
-3428.9999999999968
 31
0.0
1001
ACDBBLOCKREPETAG
1070
     1
1071
        7
1005
12FE2A
  0
LINE
  5
12FE2B
  8
OBJECT
 10
2140.0
 20
-3428.9999999999968
 30
0.0
 11
2140.0
 21
-3519.9999999999968
 31
0.0
1001
ACDBBLOCKREPETAG
1070
     1
1071
        8
1005
12FE2B
  0
LINE
  5
12FE2C
  8
OBJECT
 10
2133.0
 20
-3519.9999999999968
 30
0.0
 11
2133.0
 21
-3428.9999999999968
 31
0.0
1001
ACDBBLOCKREPETAG
1070
     1
1071
        9
1005
12FE2C
  0
LINE
  5
12FE2D
  8
CENTER
 10
2155.0
 20
-3475.9999999999968
 30
0.0
 11
2071.0
 21
-3475.9999999999968
 31
0.0
1001
ACDBBLOCKREPETAG
1070
     1
1071
       10
1005
12FE2D
  0
LINE
  5
12FE2E
  8
OBJECT
 10
2133.0
 20
-3431.9999999999968
 30
0.0
 11
2097.0
 21
-3431.9999999999968
 31
0.0
1001
ACDBBLOCKREPETAG
1070
     1
1071
       11
1005
12FE2E
  0
LINE
  5
12FE2F
  8
OBJECT
 10
2097.0
 20
-3431.9999999999968
 30
0.0
 11
2097.0
 21
-3519.9999999999968
 31
0.0
1001
ACDBBLOCKREPETAG
1070
     1
1071
       12
1005
12FE2F
  0
LINE
  5
12FE30
  8
OBJECT
 10
2097.0
 20
-3519.9999999999968
 30
0.0
 11
2140.0
 21
-3519.9999999999968
 31
0.0
1001
ACDBBLOCKREPETAG
1070
     1
1071
       13
1005
12FE30
  0
LINE
  5
12FE31
  8
OBJECT
 10
2093.0
 20
-3436.4999999999968
 30
0.0
 11
2086.0
 21
-3436.4999999999968
 31
0.0
1001
ACDBBLOCKREPETAG
1070
     1
1071
       14
1005
12FE31
  0
LINE
  5
12FE32
  8
OBJECT
 10
2086.0
 20
-3515.4999999999968
 30
0.0
 11
2093.0
 21
-3515.4999999999968
 31
0.0
1001
ACDBBLOCKREPETAG
1070
     1
1071
       15
1005
12FE32
  0
LINE
  5
12FE33
  8
OBJECT
 10
2093.0
 20
-3515.4999999999968
 30
0.0
 11
2093.0
 21
-3436.4999999999968
 31
0.0
1001
ACDBBLOCKREPETAG
1070
     1
1071
       16
1005
12FE33
  0
LINE
  5
12FE34
  8
OBJECT
 10
2097.0
 20
-3431.9999999999968
 30
0.0
 11
2093.0
 21
-3436.4999999999968
 31
0.0
1001
ACDBBLOCKREPETAG
1070
     1
1071
       17
1005
12FE34
  0
LINE
  5
12FE35
  8
OBJECT
 10
2097.0
 20
-3519.9999999999968
 30
0.0
 11
2093.0
 21
-3515.4999999999968
 31
0.0
1001
ACDBBLOCKREPETAG
1070
     1
1071
       18
1005
12FE35
  0
LINE
  5
12FE36
  8
OBJECT
 10
2083.0
 20
-3398.9999999999968
 30
0.0
 11
2080.0
 21
-3398.9999999999968
 31
0.0
1001
ACDBBLOCKREPETAG
1070
     1
1071
       19
1005
12FE36
  0
ARC
  5
12FE37
  8
OBJECT
 10
2083.0
 20
-3401.9999999999968
 30
0.0
 40
3.0
 50
0.0
 51
90.0
1001
ACDBBLOCKREPETAG
1070
     1
1071
       20
1005
12FE37
  0
LINE
  5
12FE38
  8
OBJECT
 10
2080.0
 20
-3522.9999999999968
 30
0.0
 11
2083.0
 21
-3522.9999999999968
 31
0.0
1001
ACDBBLOCKREPETAG
1070
     1
1071
       21
1005
12FE38
  0
ARC
  5
12FE39
  8
OBJECT
 10
2083.0
 20
-3519.9999999999968
 30
0.0
 40
3.0
 50
270.0
 51
0.0
1001
ACDBBLOCKREPETAG
1070
     1
1071
       22
1005
12FE39
  0
LINE
  5
12FE3A
  8
OBJECT
 10
2086.0
 20
-3519.9999999999968
 30
0.0
 11
2086.0
 21
-3401.9999999999968
 31
0.0
1001
ACDBBLOCKREPETAG
1070
     1
1071
       23
1005
12FE3A
  0
LINE
  5
12FE3B
  8
HIDDEN
 10
2088.0
 20
-3445.9999999999968
 30
0.0
 11
2088.0
 21
-3505.9999999999968
 31
0.0
1001
ACDBBLOCKREPETAG
1070
     1
1071
       24
1005
12FE3B
  0
LINE
  5
12FE3C
  8
OBJECT
 10
2133.0
 20
-3067.9999999999959
 30
0.0
 11
2140.0
 21
-3067.9999999999959
 31
0.0
1001
ACDBBLOCKREPETAG
1070
     1
1071
        7
1005
12FE3C
  0
LINE
  5
12FE3D
  8
OBJECT
 10
2140.0
 20
-3067.9999999999959
 30
0.0
 11
2140.0
 21
-3161.9999999999959
 31
0.0
1001
ACDBBLOCKREPETAG
1070
     1
1071
        8
1005
12FE3D
  0
LINE
  5
12FE3E
  8
OBJECT
 10
2140.0
 20
-3161.9999999999959
 30
0.0
 11
2133.0
 21
-3161.9999999999959
 31
0.0
1001
ACDBBLOCKREPETAG
1070
     1
1071
        9
1005
12FE3E
  0
LINE
  5
12FE3F
  8
OBJECT
 10
2133.0
 20
-3161.9999999999959
 30
0.0
 11
2133.0
 21
-3067.9999999999959
 31
0.0
1001
ACDBBLOCKREPETAG
1070
     1
1071
       10
1005
12FE3F
  0
LINE
  5
12FE40
  8
CENTER
 10
2155.0
 20
-3114.9999999999959
 30
0.0
 11
2080.0
 21
-3114.9999999999959
 31
0.0
1001
ACDBBLOCKREPETAG
1070
     1
1071
       11
1005
12FE40
  0
LINE
  5
12FE41
  8
OBJECT
 10
2133.0
 20
-3070.9999999999959
 30
0.0
 11
2097.0
 21
-3070.9999999999959
 31
0.0
1001
ACDBBLOCKREPETAG
1070
     1
1071
       12
1005
12FE41
  0
LINE
  5
12FE42
  8
OBJECT
 10
2097.0
 20
-3070.9999999999959
 30
0.0
 11
2097.0
 21
-3158.9999999999959
 31
0.0
1001
ACDBBLOCKREPETAG
1070
     1
1071
       13
1005
12FE42
  0
LINE
  5
12FE43
  8
OBJECT
 10
2097.0
 20
-3158.9999999999959
 30
0.0
 11
2133.0
 21
-3158.9999999999959
 31
0.0
1001
ACDBBLOCKREPETAG
1070
     1
1071
       14
1005
12FE43
  0
LINE
  5
12FE44
  8
OBJECT
 10
2093.0
 20
-3075.4999999999959
 30
0.0
 11
2086.0
 21
-3075.4999999999959
 31
0.0
1001
ACDBBLOCKREPETAG
1070
     1
1071
       15
1005
12FE44
  0
LINE
  5
12FE45
  8
OBJECT
 10
2086.0
 20
-3154.4999999999959
 30
0.0
 11
2093.0
 21
-3154.4999999999959
 31
0.0
1001
ACDBBLOCKREPETAG
1070
     1
1071
       16
1005
12FE45
  0
LINE
  5
12FE46
  8
OBJECT
 10
2093.0
 20
-3154.4999999999959
 30
0.0
 11
2093.0
 21
-3075.4999999999959
 31
0.0
1001
ACDBBLOCKREPETAG
1070
     1
1071
       17
1005
12FE46
  0
LINE
  5
12FE47
  8
OBJECT
 10
2097.0
 20
-3070.9999999999959
 30
0.0
 11
2093.0
 21
-3075.4999999999959
 31
0.0
1001
ACDBBLOCKREPETAG
1070
     1
1071
       18
1005
12FE47
  0
LINE
  5
12FE48
  8
OBJECT
 10
2097.0
 20
-3158.9999999999959
 30
0.0
 11
2093.0
 21
-3154.4999999999959
 31
0.0
1001
ACDBBLOCKREPETAG
1070
     1
1071
       19
1005
12FE48
  0
LINE
  5
12FE49
  8
OBJECT
 10
2083.0
 20
-3052.9999999999959
 30
0.0
 11
2080.0
 21
-3052.9999999999959
 31
0.0
1001
ACDBBLOCKREPETAG
1070
     1
1071
       20
1005
12FE49
  0
ARC
  5
12FE4A
  8
OBJECT
 10
2083.0
 20
-3055.9999999999959
 30
0.0
 40
3.0
 50
0.0
 51
90.0
1001
ACDBBLOCKREPETAG
1070
     1
1071
       21
1005
12FE4A
  0
LINE
  5
12FE4B
  8
OBJECT
 10
2080.0
 20
-3176.9999999999959
 30
0.0
 11
2083.0
 21
-3176.9999999999959
 31
0.0
1001
ACDBBLOCKREPETAG
1070
     1
1071
       22
1005
12FE4B
  0
ARC
  5
12FE4C
  8
OBJECT
 10
2083.0
 20
-3173.9999999999959
 30
0.0
 40
3.0
 50
270.0
 51
0.0
1001
ACDBBLOCKREPETAG
1070
     1
1071
       23
1005
12FE4C
  0
LINE
  5
12FE4D
  8
OBJECT
 10
2086.0
 20
-3173.9999999999959
 30
0.0
 11
2086.0
 21
-3055.9999999999959
 31
0.0
1001
ACDBBLOCKREPETAG
1070
     1
1071
       24
1005
12FE4D
  0
LINE
  5
12FE4E
  8
HIDDEN
 10
2088.0
 20
-3084.9999999999959
 30
0.0
 11
2088.0
 21
-3144.9999999999959
 31
0.0
1001
ACDBBLOCKREPETAG
1070
     1
1071
       25
1005
12FE4E
  0
TEXT
  5
12FE4F
  8
SLIM
 10
1896.75
 20
-3637.4999999999959
 30
0.0
 40
35.0
  1
通常枝50（1）
 41
0.75
  0
LINE
  5
12FE50
  8
OBJECT
 10
6066.0
 20
-940.49999999999557
 30
0.0
 11
5934.0
 21
-940.49999999999557
 31
0.0
1001
ACDBBLOCKREPETAG
1070
     1
1071
      117
1005
12FE50
  0
LINE
  5
12FE51
  8
HIDDEN
 10
5943.0
 20
-949.99999999999955
 30
0.0
 11
6057.0
 21
-949.99999999999955
 31
0.0
1001
ACDBBLOCKREPETAG
1070
     1
1071
      118
1005
12FE51
  0
LINE
  5
12FE52
  8
CENTER
 10
6000.0
 20
-769.99999999999955
 30
0.0
 11
6000.0
 21
-1069.9999999999991
 31
0.0
1001
ACDBBLOCKREPETAG
1070
     1
1071
      119
1005
12FE52
  0
LINE
  5
12FE53
  8
OBJECT
 10
5925.0
 20
-769.99999999999955
 30
0.0
 11
5925.0
 21
-822.99999999999591
 31
0.0
1001
ACDBBLOCKREPETAG
1070
     1
1071
      120
1005
12FE53
  0
LINE
  5
12FE54
  8
OBJECT
 10
6075.0
 20
-769.99999999999955
 30
0.0
 11
6075.0
 21
-822.99999999999204
 31
0.0
1001
ACDBBLOCKREPETAG
1070
     1
1071
      121
1005
12FE54
  0
LINE
  5
12FE55
  8
OBJECT
 10
5925.0
 20
-822.99999999999591
 30
0.0
 11
6075.0
 21
-822.99999999999204
 31
0.0
1001
ACDBBLOCKREPETAG
1070
     1
1071
      122
1005
12FE55
  0
LINE
  5
12FE56
  8
OBJECT
 10
6057.0
 20
-940.49999999999216
 30
0.0
 11
5943.0
 21
-940.49999999999216
 31
0.0
1001
ACDBBLOCKREPETAG
1070
     1
1071
      123
1005
12FE56
  0
LINE
  5
12FE57
  8
OBJECT
 10
5925.0
 20
-822.99999999999591
 30
0.0
 11
5943.0
 21
-940.49999999999216
 31
0.0
1001
ACDBBLOCKREPETAG
1070
     1
1071
      124
1005
12FE57
  0
LINE
  5
12FE58
  8
OBJECT
 10
6057.0
 20
-940.49999999999216
 30
0.0
 11
6075.0
 21
-822.99999999999204
 31
0.0
1001
ACDBBLOCKREPETAG
1070
     1
1071
      125
1005
12FE58
  0
LINE
  5
12FE59
  8
OBJECT
 10
5934.0
 20
-940.49999999999557
 30
0.0
 11
5934.0
 21
-974.99999999999602
 31
0.0
1001
ACDBBLOCKREPETAG
1070
     1
1071
      126
1005
12FE59
  0
LINE
  5
12FE5A
  8
OBJECT
 10
6066.0
 20
-940.49999999999557
 30
0.0
 11
6066.0
 21
-974.99999999999602
 31
0.0
1001
ACDBBLOCKREPETAG
1070
     1
1071
      127
1005
12FE5A
  0
LINE
  5
12FE5B
  8
OBJECT
 10
6085.9999999999927
 20
-1013.999999999999
 30
0.0
 11
6085.9999999999927
 21
-1023.999999999999
 31
0.0
1001
ACDBBLOCKREPETAG
1070
     1
1071
      128
1005
12FE5B
  0
LINE
  5
12FE5C
  8
OBJECT
 10
6069.9999999999927
 20
-1013.999999999999
 30
0.0
 11
6069.9999999999927
 21
-1023.999999999999
 31
0.0
1001
ACDBBLOCKREPETAG
1070
     1
1071
      129
1005
12FE5C
  0
LINE
  5
12FE5D
  8
OBJECT
 10
6085.9999999999927
 20
-1023.999999999999
 30
0.0
 11
6069.9999999999927
 21
-1023.999999999999
 31
0.0
1001
ACDBBLOCKREPETAG
1070
     1
1071
      130
1005
12FE5D
  0
LINE
  5
12FE5E
  8
OBJECT
 10
6090.0
 20
-974.99999999999602
 30
0.0
 11
5924.0
 21
-974.99999999999602
 31
0.0
1001
ACDBBLOCKREPETAG
1070
     1
1071
      131
1005
12FE5E
  0
LINE
  5
12FE5F
  8
OBJECT
 10
6090.0
 20
-989.99999999999955
 30
0.0
 11
6090.0
 21
-974.99999999999602
 31
0.0
1001
ACDBBLOCKREPETAG
1070
     1
1071
      132
1005
12FE5F
  0
LINE
  5
12FE60
  8
OBJECT
 10
5924.0
 20
-989.99999999999955
 30
0.0
 11
6090.0
 21
-989.99999999999955
 31
0.0
1001
ACDBBLOCKREPETAG
1070
     1
1071
      133
1005
12FE60
  0
LINE
  5
12FE61
  8
OBJECT
 10
6067.4999999999864
 20
-989.99999999999955
 30
0.0
 11
6067.4999999999864
 21
-999.99999999999955
 31
0.0
1001
ACDBBLOCKREPETAG
1070
     1
1071
      134
1005
12FE61
  0
LINE
  5
12FE62
  8
OBJECT
 10
6072.9999999999927
 20
-999.99999999999955
 30
0.0
 11
6072.9999999999927
 21
-989.99999999999955
 31
0.0
1001
ACDBBLOCKREPETAG
1070
     1
1071
      135
1005
12FE62
  0
LINE
  5
12FE63
  8
OBJECT
 10
6082.9999999999927
 20
-999.99999999999955
 30
0.0
 11
6082.9999999999927
 21
-989.99999999999955
 31
0.0
1001
ACDBBLOCKREPETAG
1070
     1
1071
      136
1005
12FE63
  0
LINE
  5
12FE64
  8
OBJECT
 10
5924.0
 20
-999.99999999999955
 30
0.0
 11
5924.0
 21
-1013.999999999996
 31
0.0
1001
ACDBBLOCKREPETAG
1070
     1
1071
      137
1005
12FE64
  0
LINE
  5
12FE65
  8
OBJECT
 10
6090.0
 20
-999.99999999999955
 30
0.0
 11
6090.0
 21
-1013.999999999996
 31
0.0
1001
ACDBBLOCKREPETAG
1070
     1
1071
      138
1005
12FE65
  0
LINE
  5
12FE66
  8
OBJECT
 10
5924.0
 20
-1013.999999999996
 30
0.0
 11
6090.0
 21
-1013.999999999996
 31
0.0
1001
ACDBBLOCKREPETAG
1070
     1
1071
      139
1005
12FE66
  0
LINE
  5
12FE67
  8
OBJECT
 10
5924.0
 20
-999.99999999999955
 30
0.0
 11
6090.0
 21
-999.99999999999955
 31
0.0
1001
ACDBBLOCKREPETAG
1070
     1
1071
      140
1005
12FE67
  0
LINE
  5
12FE68
  8
OBJECT
 10
5932.4999999999864
 20
-989.99999999999955
 30
0.0
 11
5932.4999999999864
 21
-999.99999999999955
 31
0.0
1001
ACDBBLOCKREPETAG
1070
     1
1071
      141
1005
12FE68
  0
LINE
  5
12FE69
  8
OBJECT
 10
5924.0
 20
-989.99999999999955
 30
0.0
 11
5924.0
 21
-974.99999999999602
 31
0.0
1001
ACDBBLOCKREPETAG
1070
     1
1071
      142
1005
12FE69
  0
LINE
  5
12FE6A
  8
OBJECT
 10
6086.9999999999918
 20
-973.20000000000005
 30
0.0
 11
6086.9999999999918
 21
-974.99999999999955
 31
0.0
1001
ACDBBLOCKREPETAG
1070
     1
1071
      143
1005
12FE6A
  0
LINE
  5
12FE6B
  8
OBJECT
 10
6068.9999999999909
 20
-973.20000000000005
 30
0.0
 11
6068.9999999999909
 21
-974.99999999999955
 31
0.0
1001
ACDBBLOCKREPETAG
1070
     1
1071
      144
1005
12FE6B
  0
LINE
  5
12FE6C
  8
OBJECT
 10
6072.2499999999927
 20
-963.49999999999955
 30
0.0
 11
6083.7499999999927
 21
-963.49999999999955
 31
0.0
1001
ACDBBLOCKREPETAG
1070
     1
1071
      145
1005
12FE6C
  0
LINE
  5
12FE6D
  8
OBJECT
 10
6072.2499999999927
 20
-963.49999999999955
 30
0.0
 11
6072.2499999999927
 21
-973.20000000000005
 31
0.0
1001
ACDBBLOCKREPETAG
1070
     1
1071
      146
1005
12FE6D
  0
LINE
  5
12FE6E
  8
OBJECT
 10
6083.7499999999927
 20
-963.49999999999955
 30
0.0
 11
6083.7499999999927
 21
-973.20000000000005
 31
0.0
1001
ACDBBLOCKREPETAG
1070
     1
1071
      147
1005
12FE6E
  0
LINE
  5
12FE6F
  8
OBJECT
 10
5931.9999999999873
 20
-1054.9999999999991
 30
0.0
 11
6067.9999999999873
 21
-1054.9999999999991
 31
0.0
1001
ACDBBLOCKREPETAG
1070
     1
1071
      148
1005
12FE6F
  0
LINE
  5
12FE70
  8
OBJECT
 10
5931.9999999999873
 20
-1054.9999999999991
 30
0.0
 11
5931.9999999999873
 21
-1013.999999999999
 31
0.0
1001
ACDBBLOCKREPETAG
1070
     1
1071
      149
1005
12FE70
  0
LINE
  5
12FE71
  8
OBJECT
 10
6067.9999999999873
 20
-1054.9999999999991
 30
0.0
 11
6067.9999999999873
 21
-1013.999999999999
 31
0.0
1001
ACDBBLOCKREPETAG
1070
     1
1071
      150
1005
12FE71
  0
LINE
  5
12FE72
  8
OBJECT
 10
6086.9999999999918
 20
-973.20000000000005
 30
0.0
 11
6068.9999999999909
 21
-973.20000000000005
 31
0.0
1001
ACDBBLOCKREPETAG
1070
     1
1071
      151
1005
12FE72
  0
LINE
  5
12FE73
  8
OBJECT
 10
5954.75
 20
-964.699999999993
 30
0.0
 11
5967.2499999999991
 21
-964.699999999993
 31
0.0
1001
ACDBBLOCKREPETAG
1070
     1
1071
      152
1005
12FE73
  0
LINE
  5
12FE74
  8
OBJECT
 10
5946.0
 20
-974.99999999999602
 30
0.0
 11
5946.0
 21
-972.69999999999663
 31
0.0
1001
ACDBBLOCKREPETAG
1070
     1
1071
      153
1005
12FE74
  0
LINE
  5
12FE75
  8
OBJECT
 10
5976.0
 20
-974.99999999999602
 30
0.0
 11
5976.0
 21
-972.69999999999663
 31
0.0
1001
ACDBBLOCKREPETAG
1070
     1
1071
      154
1005
12FE75
  0
LINE
  5
12FE76
  8
OBJECT
 10
5954.75
 20
-964.699999999993
 30
0.0
 11
5954.75
 21
-972.69999999999663
 31
0.0
1001
ACDBBLOCKREPETAG
1070
     1
1071
      155
1005
12FE76
  0
LINE
  5
12FE77
  8
OBJECT
 10
5967.2499999999991
 20
-964.699999999993
 30
0.0
 11
5967.2499999999991
 21
-972.69999999999663
 31
0.0
1001
ACDBBLOCKREPETAG
1070
     1
1071
      156
1005
12FE77
  0
LINE
  5
12FE78
  8
OBJECT
 10
5946.0
 20
-972.69999999999663
 30
0.0
 11
5976.0
 21
-972.69999999999663
 31
0.0
1001
ACDBBLOCKREPETAG
1070
     1
1071
      157
1005
12FE78
  0
LINE
  5
12FE79
  8
OBJECT
 10
5953.0
 20
-1013.999999999996
 30
0.0
 11
5953.0
 21
-1023.999999999996
 31
0.0
1001
ACDBBLOCKREPETAG
1070
     1
1071
      158
1005
12FE79
  0
LINE
  5
12FE7A
  8
OBJECT
 10
5969.0
 20
-1013.999999999996
 30
0.0
 11
5969.0
 21
-1023.999999999996
 31
0.0
1001
ACDBBLOCKREPETAG
1070
     1
1071
      159
1005
12FE7A
  0
LINE
  5
12FE7B
  8
OBJECT
 10
5953.0
 20
-1023.999999999996
 30
0.0
 11
5969.0
 21
-1023.999999999996
 31
0.0
1001
ACDBBLOCKREPETAG
1070
     1
1071
      160
1005
12FE7B
  0
LINE
  5
12FE7C
  8
OBJECT
 10
5966.0
 20
-999.99999999999602
 30
0.0
 11
5966.0
 21
-989.99999999999613
 31
0.0
1001
ACDBBLOCKREPETAG
1070
     1
1071
      161
1005
12FE7C
  0
LINE
  5
12FE7D
  8
OBJECT
 10
5956.0
 20
-999.99999999999602
 30
0.0
 11
5956.0
 21
-989.99999999999613
 31
0.0
1001
ACDBBLOCKREPETAG
1070
     1
1071
      162
1005
12FE7D
  0
LINE
  5
12FE7E
  8
OBJECT
 10
4090.0
 20
-974.99999999999602
 30
0.0
 11
3924.0
 21
-974.99999999999602
 31
0.0
1001
ACDBBLOCKREPETAG
1070
     1
1071
       12
1005
12FE7E
  0
LINE
  5
12FE7F
  8
OBJECT
 10
4066.0
 20
-940.49999999999557
 30
0.0
 11
3934.0
 21
-940.49999999999557
 31
0.0
1001
ACDBBLOCKREPETAG
1070
     1
1071
       13
1005
12FE7F
  0
LINE
  5
12FE80
  8
OBJECT
 10
4090.0
 20
-989.99999999999955
 30
0.0
 11
4090.0
 21
-974.99999999999602
 31
0.0
1001
ACDBBLOCKREPETAG
1070
     1
1071
       14
1005
12FE80
  0
LINE
  5
12FE81
  8
OBJECT
 10
3924.0
 20
-989.99999999999955
 30
0.0
 11
4090.0
 21
-989.99999999999955
 31
0.0
1001
ACDBBLOCKREPETAG
1070
     1
1071
       15
1005
12FE81
  0
LINE
  5
12FE82
  8
OBJECT
 10
4067.4999999999841
 20
-989.99999999999955
 30
0.0
 11
4067.4999999999841
 21
-999.99999999999955
 31
0.0
1001
ACDBBLOCKREPETAG
1070
     1
1071
       16
1005
12FE82
  0
LINE
  5
12FE83
  8
OBJECT
 10
3924.0
 20
-999.99999999999955
 30
0.0
 11
3924.0
 21
-1013.999999999996
 31
0.0
1001
ACDBBLOCKREPETAG
1070
     1
1071
       17
1005
12FE83
  0
LINE
  5
12FE84
  8
OBJECT
 10
4090.0
 20
-999.99999999999955
 30
0.0
 11
4090.0
 21
-1013.999999999996
 31
0.0
1001
ACDBBLOCKREPETAG
1070
     1
1071
       18
1005
12FE84
  0
LINE
  5
12FE85
  8
OBJECT
 10
3924.0
 20
-1013.999999999996
 30
0.0
 11
4090.0
 21
-1013.999999999996
 31
0.0
1001
ACDBBLOCKREPETAG
1070
     1
1071
       19
1005
12FE85
  0
LINE
  5
12FE86
  8
OBJECT
 10
3924.0
 20
-999.99999999999955
 30
0.0
 11
4090.0
 21
-999.99999999999955
 31
0.0
1001
ACDBBLOCKREPETAG
1070
     1
1071
       20
1005
12FE86
  0
LINE
  5
12FE87
  8
OBJECT
 10
3932.499999999985
 20
-989.99999999999955
 30
0.0
 11
3932.499999999985
 21
-999.99999999999955
 31
0.0
1001
ACDBBLOCKREPETAG
1070
     1
1071
       21
1005
12FE87
  0
LINE
  5
12FE88
  8
OBJECT
 10
3924.0
 20
-989.99999999999955
 30
0.0
 11
3924.0
 21
-974.99999999999602
 31
0.0
1001
ACDBBLOCKREPETAG
1070
     1
1071
       22
1005
12FE88
  0
LINE
  5
12FE89
  8
HIDDEN
 10
3943.0
 20
-949.99999999999955
 30
0.0
 11
4057.0
 21
-949.99999999999955
 31
0.0
1001
ACDBBLOCKREPETAG
1070
     1
1071
       23
1005
12FE89
  0
LINE
  5
12FE8A
  8
CENTER
 10
4000.0
 20
-769.99999999999955
 30
0.0
 11
4000.0
 21
-1028.9999999999959
 31
0.0
1001
ACDBBLOCKREPETAG
1070
     1
1071
       24
1005
12FE8A
  0
LINE
  5
12FE8B
  8
OBJECT
 10
3925.0
 20
-769.99999999999955
 30
0.0
 11
3925.0
 21
-822.99999999999591
 31
0.0
1001
ACDBBLOCKREPETAG
1070
     1
1071
       25
1005
12FE8B
  0
LINE
  5
12FE8C
  8
OBJECT
 10
4075.0
 20
-769.99999999999955
 30
0.0
 11
4075.0
 21
-822.99999999999204
 31
0.0
1001
ACDBBLOCKREPETAG
1070
     1
1071
       26
1005
12FE8C
  0
LINE
  5
12FE8D
  8
OBJECT
 10
3925.0
 20
-822.99999999999591
 30
0.0
 11
4075.0
 21
-822.99999999999204
 31
0.0
1001
ACDBBLOCKREPETAG
1070
     1
1071
       27
1005
12FE8D
  0
LINE
  5
12FE8E
  8
OBJECT
 10
4057.0
 20
-940.49999999999216
 30
0.0
 11
3943.0
 21
-940.49999999999216
 31
0.0
1001
ACDBBLOCKREPETAG
1070
     1
1071
       28
1005
12FE8E
  0
LINE
  5
12FE8F
  8
OBJECT
 10
3925.0
 20
-822.99999999999591
 30
0.0
 11
3943.0
 21
-940.49999999999216
 31
0.0
1001
ACDBBLOCKREPETAG
1070
     1
1071
       29
1005
12FE8F
  0
LINE
  5
12FE90
  8
OBJECT
 10
4057.0
 20
-940.49999999999216
 30
0.0
 11
4075.0
 21
-822.99999999999204
 31
0.0
1001
ACDBBLOCKREPETAG
1070
     1
1071
       30
1005
12FE90
  0
LINE
  5
12FE91
  8
OBJECT
 10
3934.0
 20
-940.49999999999557
 30
0.0
 11
3934.0
 21
-974.99999999999602
 31
0.0
1001
ACDBBLOCKREPETAG
1070
     1
1071
       31
1005
12FE91
  0
LINE
  5
12FE92
  8
OBJECT
 10
4066.0
 20
-940.49999999999557
 30
0.0
 11
4066.0
 21
-974.99999999999602
 31
0.0
1001
ACDBBLOCKREPETAG
1070
     1
1071
       32
1005
12FE92
  0
LINE
  5
12FE93
  8
OBJECT
 10
4082.9999999999932
 20
-999.99999999999602
 30
0.0
 11
4082.9999999999932
 21
-989.99999999999613
 31
0.0
1001
ACDBBLOCKREPETAG
1070
     1
1071
       33
1005
12FE93
  0
LINE
  5
12FE94
  8
OBJECT
 10
4072.9999999999918
 20
-999.99999999999602
 30
0.0
 11
4072.9999999999918
 21
-989.99999999999613
 31
0.0
1001
ACDBBLOCKREPETAG
1070
     1
1071
       34
1005
12FE94
  0
LINE
  5
12FE95
  8
OBJECT
 10
4068.9999999999841
 20
-969.99999999999557
 30
0.0
 11
4068.9999999999841
 21
-974.99999999999602
 31
0.0
1001
ACDBBLOCKREPETAG
1070
     1
1071
       35
1005
12FE95
  0
LINE
  5
12FE96
  8
OBJECT
 10
4087.0
 20
-969.99999999999557
 30
0.0
 11
4087.0
 21
-974.99999999999602
 31
0.0
1001
ACDBBLOCKREPETAG
1070
     1
1071
       36
1005
12FE96
  0
LINE
  5
12FE97
  8
OBJECT
 10
4087.0
 20
-969.99999999999557
 30
0.0
 11
4068.9999999999841
 21
-969.99999999999557
 31
0.0
1001
ACDBBLOCKREPETAG
1070
     1
1071
       37
1005
12FE97
  0
LINE
  5
12FE98
  8
OBJECT
 10
4073.0
 20
-1021.999999999996
 30
0.0
 11
4073.0
 21
-1024.9999999999959
 31
0.0
1001
ACDBBLOCKREPETAG
1070
     1
1071
       38
1005
12FE98
  0
LINE
  5
12FE99
  8
OBJECT
 10
4073.0
 20
-1024.9999999999959
 30
0.0
 11
4083.0
 21
-1024.9999999999959
 31
0.0
1001
ACDBBLOCKREPETAG
1070
     1
1071
       39
1005
12FE99
  0
LINE
  5
12FE9A
  8
OBJECT
 10
4083.0
 20
-1024.9999999999959
 30
0.0
 11
4083.0
 21
-1021.999999999996
 31
0.0
1001
ACDBBLOCKREPETAG
1070
     1
1071
       41
1005
12FE9A
  0
LINE
  5
12FE9B
  8
OBJECT
 10
3968.5
 20
-969.99999999999557
 30
0.0
 11
3951.9999999999932
 21
-969.99999999999557
 31
0.0
1001
ACDBBLOCKREPETAG
1070
     1
1071
       46
1005
12FE9B
  0
LINE
  5
12FE9C
  8
OBJECT
 10
3976.0
 20
-974.99999999999602
 30
0.0
 11
3976.0
 21
-972.99999999999591
 31
0.0
1001
ACDBBLOCKREPETAG
1070
     1
1071
       47
1005
12FE9C
  0
LINE
  5
12FE9D
  8
OBJECT
 10
3966.0
 20
-999.99999999999602
 30
0.0
 11
3966.0
 21
-989.99999999999613
 31
0.0
1001
ACDBBLOCKREPETAG
1070
     1
1071
       48
1005
12FE9D
  0
LINE
  5
12FE9E
  8
OBJECT
 10
3956.0
 20
-999.99999999999602
 30
0.0
 11
3956.0
 21
-989.99999999999613
 31
0.0
1001
ACDBBLOCKREPETAG
1070
     1
1071
       49
1005
12FE9E
  0
LINE
  5
12FE9F
  8
OBJECT
 10
3951.9999999999932
 20
-969.99999999999557
 30
0.0
 11
3951.9999999999932
 21
-974.99999999999602
 31
0.0
1001
ACDBBLOCKREPETAG
1070
     1
1071
       50
1005
12FE9F
  0
LINE
  5
12FEA0
  8
OBJECT
 10
3956.0
 20
-1021.999999999996
 30
0.0
 11
3956.0
 21
-1024.9999999999959
 31
0.0
1001
ACDBBLOCKREPETAG
1070
     1
1071
       51
1005
12FEA0
  0
LINE
  5
12FEA1
  8
OBJECT
 10
3956.0
 20
-1024.9999999999959
 30
0.0
 11
3966.0
 21
-1024.9999999999959
 31
0.0
1001
ACDBBLOCKREPETAG
1070
     1
1071
       52
1005
12FEA1
  0
LINE
  5
12FEA2
  8
OBJECT
 10
3966.0
 20
-1024.9999999999959
 30
0.0
 11
3966.0
 21
-1021.999999999996
 31
0.0
1001
ACDBBLOCKREPETAG
1070
     1
1071
       54
1005
12FEA2
  0
LINE
  5
12FEA3
  8
OBJECT
 10
3976.0
 20
-972.99999999999591
 30
0.0
 11
3968.5
 21
-969.99999999999557
 31
0.0
1001
ACDBBLOCKREPETAG
1070
     1
1071
       55
1005
12FEA3
  0
LINE
  5
12FEA4
  8
OBJECT
 10
3951.185045423772
 20
-1021.999999999996
 30
0.0
 11
3970.8149545762212
 21
-1021.999999999996
 31
0.0
1001
ACDBBLOCKREPETAG
1070
     1
1071
      449
1005
12FEA4
  0
LINE
  5
12FEA5
  8
OBJECT
 10
3951.185045423777
 20
-1013.999999999996
 30
0.0
 11
3951.185045423777
 21
-1021.999999999996
 31
0.0
1001
ACDBBLOCKREPETAG
1070
     1
1071
      450
1005
12FEA5
  0
LINE
  5
12FEA6
  8
OBJECT
 10
3956.0925227118901
 20
-1013.999999999996
 30
0.0
 11
3956.0925227118901
 21
-1021.999999999996
 31
0.0
1001
ACDBBLOCKREPETAG
1070
     1
1071
      451
1005
12FEA6
  0
LINE
  5
12FEA7
  8
OBJECT
 10
3965.9074772881122
 20
-1013.999999999996
 30
0.0
 11
3965.9074772881122
 21
-1021.999999999996
 31
0.0
1001
ACDBBLOCKREPETAG
1070
     1
1071
      452
1005
12FEA7
  0
LINE
  5
12FEA8
  8
OBJECT
 10
3970.814954576223
 20
-1013.999999999996
 30
0.0
 11
3970.814954576223
 21
-1021.999999999996
 31
0.0
1001
ACDBBLOCKREPETAG
1070
     1
1071
      453
1005
12FEA8
  0
LINE
  5
12FEA9
  8
OBJECT
 10
4068.185045423772
 20
-1021.999999999996
 30
0.0
 11
4087.8149545762199
 21
-1021.999999999996
 31
0.0
1001
ACDBBLOCKREPETAG
1070
     1
1071
      454
1005
12FEA9
  0
LINE
  5
12FEAA
  8
OBJECT
 10
4068.185045423777
 20
-1013.999999999996
 30
0.0
 11
4068.185045423777
 21
-1021.999999999996
 31
0.0
1001
ACDBBLOCKREPETAG
1070
     1
1071
      455
1005
12FEAA
  0
LINE
  5
12FEAB
  8
OBJECT
 10
4073.0925227118869
 20
-1013.999999999996
 30
0.0
 11
4073.0925227118869
 21
-1021.999999999996
 31
0.0
1001
ACDBBLOCKREPETAG
1070
     1
1071
      456
1005
12FEAB
  0
LINE
  5
12FEAC
  8
OBJECT
 10
4082.9074772881122
 20
-1013.999999999996
 30
0.0
 11
4082.9074772881122
 21
-1021.999999999996
 31
0.0
1001
ACDBBLOCKREPETAG
1070
     1
1071
      457
1005
12FEAC
  0
LINE
  5
12FEAD
  8
OBJECT
 10
4087.814954576223
 20
-1013.999999999996
 30
0.0
 11
4087.814954576223
 21
-1021.999999999996
 31
0.0
1001
ACDBBLOCKREPETAG
1070
     1
1071
      458
1005
12FEAD
  0
LINE
  5
12FEAE
  8
OBJECT
 10
1943.0
 20
-1019.999999999996
 30
0.0
 11
2057.0
 21
-1019.999999999996
 31
0.0
1001
ACDBBLOCKREPETAG
1070
     1
1071
        0
1005
12FEAE
  0
LINE
  5
12FEAF
  8
OBJECT
 10
1943.0
 20
-1019.999999999996
 30
0.0
 11
1943.0
 21
-939.99999999999613
 31
0.0
1001
ACDBBLOCKREPETAG
1070
     1
1071
        1
1005
12FEAF
  0
LINE
  5
12FEB0
  8
OBJECT
 10
2057.0
 20
-1019.999999999996
 30
0.0
 11
2057.0
 21
-939.99999999999613
 31
0.0
1001
ACDBBLOCKREPETAG
1070
     1
1071
        2
1005
12FEB0
  0
LINE
  5
12FEB1
  8
OBJECT
 10
1943.0
 20
-939.99999999999613
 30
0.0
 11
2057.0
 21
-939.99999999999613
 31
0.0
1001
ACDBBLOCKREPETAG
1070
     1
1071
        3
1005
12FEB1
  0
LINE
  5
12FEB2
  8
HIDDEN
 10
1950.0
 20
-939.99999999999613
 30
0.0
 11
1950.0
 21
-1019.999999999996
 31
0.0
1001
ACDBBLOCKREPETAG
1070
     1
1071
        4
1005
12FEB2
  0
LINE
  5
12FEB3
  8
HIDDEN
 10
2050.0
 20
-939.99999999999613
 30
0.0
 11
2050.0
 21
-1019.999999999996
 31
0.0
1001
ACDBBLOCKREPETAG
1070
     1
1071
        5
1005
12FEB3
  0
LINE
  5
12FEB4
  8
CENTER
 10
2000.0
 20
-769.99999999999955
 30
0.0
 11
2000.0
 21
-1034.9999999999959
 31
0.0
1001
ACDBBLOCKREPETAG
1070
     1
1071
        6
1005
12FEB4
  0
LINE
  5
12FEB5
  8
OBJECT
 10
1925.0
 20
-769.99999999999955
 30
0.0
 11
1925.0
 21
-822.99999999999591
 31
0.0
1001
ACDBBLOCKREPETAG
1070
     1
1071
        7
1005
12FEB5
  0
LINE
  5
12FEB6
  8
OBJECT
 10
2075.0
 20
-769.99999999999955
 30
0.0
 11
2075.0
 21
-822.99999999999591
 31
0.0
1001
ACDBBLOCKREPETAG
1070
     1
1071
        8
1005
12FEB6
  0
LINE
  5
12FEB7
  8
OBJECT
 10
1925.0
 20
-822.99999999999591
 30
0.0
 11
2075.0
 21
-822.99999999999591
 31
0.0
1001
ACDBBLOCKREPETAG
1070
     1
1071
        9
1005
12FEB7
  0
LINE
  5
12FEB8
  8
OBJECT
 10
1925.0
 20
-822.99999999999591
 30
0.0
 11
1943.0
 21
-939.99999999999613
 31
0.0
1001
ACDBBLOCKREPETAG
1070
     1
1071
       10
1005
12FEB8
  0
LINE
  5
12FEB9
  8
OBJECT
 10
2057.0
 20
-939.99999999999613
 30
0.0
 11
2075.0
 21
-822.99999999999591
 31
0.0
1001
ACDBBLOCKREPETAG
1070
     1
1071
       11
1005
12FEB9
  0
TEXT
  5
12FEBA
  8
SLIM
 10
5797.6000000000004
 20
-1628.9999999999991
 30
0.0
 40
28.0
  1
※ 対応スラブ厚　150～180mm
 41
0.75
  0
TEXT
  5
12FEBB
  8
SLIM
 10
5598.8999999999996
 20
-1722.3333333333319
 30
0.0
 40
28.0
  1
国土交通大臣認定・（一財）日本消防設備安全センター性能評定取得品
 41
0.75
  0
TEXT
  5
12FEBC
  8
SLIM
 10
5631.1000000000004
 20
-1768.9999999999991
 30
0.0
 40
28.0
  1
注）ご採用にあたり、認定書及び評定書の内容をご確認ください。
 41
0.75
  0
TEXT
  5
12FEBD
  8
SLIM
 10
3811.8000000000002
 20
-1607.9999999999959
 30
0.0
 40
28.0
  1
※ 対応スラブ厚　180mm以下
 41
0.75
  0
TEXT
  5
12FEBE
  8
SLIM
 10
1811.8
 20
-1363.999999999998
 30
0.0
 40
28.0
  1
※ 対応スラブ厚　180mm以下
 41
0.75
  0
LINE
  5
12FEBF
  8
CENTER
 10
5909.0
 20
-1304.9999999999991
 30
0.0
 11
6105.0
 21
-1304.9999999999991
 31
0.0
1001
ACDBBLOCKREPETAG
1070
     1
1071
       10
1005
12FEBF
  0
LINE
  5
12FEC0
  8
CENTER
 10
6000.0
 20
-1213.725335570783
 30
0.0
 11
6000.0
 21
-1396.274664429214
 31
0.0
1001
ACDBBLOCKREPETAG
1070
     1
1071
       11
1005
12FEC0
  0
CIRCLE
  5
12FEC1
  8
OBJECT
 10
6000.0
 20
-1304.9999999999991
 30
0.0
 40
50.0
1001
ACDBBLOCKREPETAG
1070
     1
1071
       12
1005
12FEC1
  0
CIRCLE
  5
12FEC2
  8
OBJECT
 10
6000.0
 20
-1304.9999999999991
 30
0.0
 40
60.0
1001
ACDBBLOCKREPETAG
1070
     1
1071
       13
1005
12FEC2
  0
CIRCLE
  5
12FEC3
  8
OBJECT
 10
6000.0
 20
-1304.9999999999991
 30
0.0
 40
68.0
1001
ACDBBLOCKREPETAG
1070
     1
1071
       14
1005
12FEC3
  0
ARC
  5
12FEC4
  8
OBJECT
 10
6077.5
 20
-1304.9999999999991
 30
0.0
 40
12.0
 50
272.10542627221611
 51
87.894573727783893
1001
ACDBBLOCKREPETAG
1070
     1
1071
       15
1005
12FEC4
  0
ARC
  5
12FEC5
  8
OBJECT
 10
6078.4919354838639
 20
-1278.0182271895269
 30
0.0
 40
15.0
 50
198.9705187796356
 51
267.89457372778372
1001
ACDBBLOCKREPETAG
1070
     1
1071
       16
1005
12FEC5
  0
ARC
  5
12FEC6
  8
OBJECT
 10
6078.4919354838639
 20
-1331.981772810467
 30
0.0
 40
15.0
 50
92.105426272216135
 51
161.02948122036429
1001
ACDBBLOCKREPETAG
1070
     1
1071
       17
1005
12FEC6
  0
CIRCLE
  5
12FEC7
  8
SLIM
 10
6078.0
 20
-1304.9999999999991
 30
0.0
 40
8.0
1001
ACDBBLOCKREPETAG
1070
     1
1071
       18
1005
12FEC7
  0
POLYLINE
  5
12FEC8
  8
SLIM
 66
     1
 10
0.0
 20
0.0
 30
0.0
 70
     1
1001
ACDBBLOCKREPETAG
1070
     1
1071
       19
1005
12FEC8
  0
VERTEX
  5
1309DE
  8
SLIM
 10
6075.6905989232328
 20
-1300.9999999999991
 30
0.0
  0
VERTEX
  5
1309DF
  8
SLIM
 10
6073.3811978464801
 20
-1304.9999999999991
 30
0.0
  0
VERTEX
  5
1309E0
  8
SLIM
 10
6075.6905989232328
 20
-1308.9999999999991
 30
0.0
  0
VERTEX
  5
1309E1
  8
SLIM
 10
6080.3094010767527
 20
-1308.9999999999991
 30
0.0
  0
VERTEX
  5
1309E2
  8
SLIM
 10
6082.6188021535136
 20
-1304.9999999999991
 30
0.0
  0
VERTEX
  5
1309E3
  8
SLIM
 10
6080.3094010767527
 20
-1300.9999999999991
 30
0.0
  0
SEQEND
  5
1309E4
  8
SLIM
  0
ARC
  5
12FEC9
  8
OBJECT
 10
5961.25
 20
-1237.883031206703
 30
0.0
 40
12.0
 50
32.105426272157878
 51
207.89457372770741
1001
ACDBBLOCKREPETAG
1070
     1
1071
       20
1005
12FEC9
  0
ARC
  5
12FECA
  8
OBJECT
 10
5937.387131565054
 20
-1250.514876283992
 30
0.0
 40
15.0
 50
318.97051877944762
 51
27.894573727707481
1001
ACDBBLOCKREPETAG
1070
     1
1071
       21
1005
12FECA
  0
ARC
  5
12FECB
  8
OBJECT
 10
5984.1209329510702
 20
-1223.53310347352
 30
0.0
 40
15.0
 50
212.1054262721579
 51
281.02948122044069
1001
ACDBBLOCKREPETAG
1070
     1
1071
       22
1005
12FECB
  0
CIRCLE
  5
12FECC
  8
SLIM
 10
5961.0
 20
-1237.4500185048121
 30
0.0
 40
7.9999999999999982
1001
ACDBBLOCKREPETAG
1070
     1
1071
       23
1005
12FECC
  0
POLYLINE
  5
12FECD
  8
SLIM
 66
     1
 10
0.0
 20
0.0
 30
0.0
 70
     1
1001
ACDBBLOCKREPETAG
1070
     1
1071
       24
1005
12FECD
  0
VERTEX
  5
1309E5
  8
SLIM
 10
5958.69059892324
 20
-1241.4500185048121
 30
0.0
  0
VERTEX
  5
1309E6
  8
SLIM
 10
5963.3094010767518
 20
-1241.4500185048121
 30
0.0
  0
VERTEX
  5
1309E7
  8
SLIM
 10
5965.6188021535136
 20
-1237.4500185048121
 30
0.0
  0
VERTEX
  5
1309E8
  8
SLIM
 10
5963.3094010767518
 20
-1233.4500185048121
 30
0.0
  0
VERTEX
  5
1309E9
  8
SLIM
 10
5958.69059892324
 20
-1233.4500185048121
 30
0.0
  0
VERTEX
  5
1309EA
  8
SLIM
 10
5956.3811978464792
 20
-1237.4500185048121
 30
0.0
  0
SEQEND
  5
1309EB
  8
SLIM
  0
ARC
  5
12FECE
  8
OBJECT
 10
5961.25
 20
-1372.1169687932911
 30
0.0
 40
12.0
 50
152.1054262722925
 51
327.89457372784221
1001
ACDBBLOCKREPETAG
1070
     1
1071
       25
1005
12FECE
  0
ARC
  5
12FECF
  8
OBJECT
 10
5984.1209329510702
 20
-1386.466896526475
 30
0.0
 40
15.0
 50
78.970518779559228
 51
147.8945737278421
1001
ACDBBLOCKREPETAG
1070
     1
1071
       26
1005
12FECF
  0
ARC
  5
12FED0
  8
OBJECT
 10
5937.387131565054
 20
-1359.485123716006
 30
0.0
 40
15.0
 50
332.1054262722925
 51
41.029481220552412
1001
ACDBBLOCKREPETAG
1070
     1
1071
       27
1005
12FED0
  0
CIRCLE
  5
12FED1
  8
SLIM
 10
5961.0
 20
-1372.5499814951861
 30
0.0
 40
8.0
1001
ACDBBLOCKREPETAG
1070
     1
1071
       28
1005
12FED1
  0
POLYLINE
  5
12FED2
  8
SLIM
 66
     1
 10
0.0
 20
0.0
 30
0.0
 70
     1
1001
ACDBBLOCKREPETAG
1070
     1
1071
       29
1005
12FED2
  0
VERTEX
  5
1309EC
  8
SLIM
 10
5965.6188021535136
 20
-1372.5499814951829
 30
0.0
  0
VERTEX
  5
1309ED
  8
SLIM
 10
5963.3094010767518
 20
-1368.5499814951861
 30
0.0
  0
VERTEX
  5
1309EE
  8
SLIM
 10
5958.69059892324
 20
-1368.549981495182
 30
0.0
  0
VERTEX
  5
1309EF
  8
SLIM
 10
5956.3811978464792
 20
-1372.5499814951861
 30
0.0
  0
VERTEX
  5
1309F0
  8
SLIM
 10
5958.6905989232328
 20
-1376.549981495182
 30
0.0
  0
VERTEX
  5
1309F1
  8
SLIM
 10
5963.3094010767518
 20
-1376.5499814951861
 30
0.0
  0
SEQEND
  5
1309F2
  8
SLIM
  0
ARC
  5
12FED3
  8
OBJECT
 10
6000.0
 20
-1304.9999999999991
 30
0.0
 40
76.0
 50
34.863837954142063
 51
85.136162045732945
1001
ACDBBLOCKREPETAG
1070
     1
1071
       42
1005
12FED3
  0
ARC
  5
12FED4
  8
OBJECT
 10
6000.0
 20
-1304.9999999999991
 30
0.0
 40
76.0
 50
154.86383795430939
 51
205.1361620456905
1001
ACDBBLOCKREPETAG
1070
     1
1071
       43
1005
12FED4
  0
ARC
  5
12FED5
  8
OBJECT
 10
6000.0
 20
-1304.9999999999991
 30
0.0
 40
76.0
 50
274.86383795426718
 51
325.13616204585799
1001
ACDBBLOCKREPETAG
1070
     1
1071
       44
1005
12FED5
  0
ARC
  5
12FED6
  8
OBJECT
 10
6078.0
 20
-1304.9999999999991
 30
0.0
 40
12.0
 50
325.13616204585799
 51
34.863837954142063
1001
ACDBBLOCKREPETAG
1070
     1
1071
       45
1005
12FED6
  0
LINE
  5
12FED7
  8
OBJECT
 10
6087.846153846167
 20
-1298.1404625201369
 30
0.0
 11
6062.3589743590501
 21
-1261.556262627538
 31
0.0
1001
ACDBBLOCKREPETAG
1070
     1
1071
       46
1005
12FED7
  0
LINE
  5
12FED8
  8
OBJECT
 10
6087.8461538461697
 20
-1311.8595374798599
 30
0.0
 11
6062.3589743590501
 21
-1348.443737372462
 31
0.0
1001
ACDBBLOCKREPETAG
1070
     1
1071
       47
1005
12FED8
  0
ARC
  5
12FED9
  8
OBJECT
 10
5961.0
 20
-1237.450018504813
 30
0.0
 40
12.0
 50
85.136162045942811
 51
154.86383795410001
1001
ACDBBLOCKREPETAG
1070
     1
1071
       48
1005
12FED9
  0
LINE
  5
12FEDA
  8
OBJECT
 10
5950.1363893611451
 20
-1232.3527678843941
 30
0.0
 11
5931.1971326205849
 21
-1272.7174127373501
 31
0.0
1001
ACDBBLOCKREPETAG
1070
     1
1071
       49
1005
12FEDA
  0
LINE
  5
12FEDB
  8
OBJECT
 10
5962.0174567926842
 20
-1225.4932304045301
 30
0.0
 11
6006.4438930203669
 21
-1229.273675364888
 31
0.0
1001
ACDBBLOCKREPETAG
1070
     1
1071
       50
1005
12FEDB
  0
ARC
  5
12FEDC
  8
OBJECT
 10
5961.0
 20
-1372.5499814951841
 30
0.0
 40
12.0
 50
205.13616204589991
 51
274.8638379540572
1001
ACDBBLOCKREPETAG
1070
     1
1071
       51
1005
12FEDC
  0
LINE
  5
12FEDD
  8
OBJECT
 10
5962.0174567926879
 20
-1384.5067695954669
 30
0.0
 11
6006.4438930203651
 21
-1380.726324635109
 31
0.0
1001
ACDBBLOCKREPETAG
1070
     1
1071
       52
1005
12FEDD
  0
LINE
  5
12FEDE
  8
OBJECT
 10
5950.1363893611451
 20
-1377.6472321156079
 30
0.0
 11
5931.1971326205821
 21
-1337.2825872626461
 31
0.0
1001
ACDBBLOCKREPETAG
1070
     1
1071
       53
1005
12FEDE
  0
LINE
  5
12FEDF
  8
CENTER
 10
3909.0
 20
-1263.9999999999959
 30
0.0
 11
4105.0
 21
-1263.9999999999959
 31
0.0
1001
ACDBBLOCKREPETAG
1070
     1
1071
        0
1005
12FEDF
  0
LINE
  5
12FEE0
  8
CENTER
 10
4000.0
 20
-1172.725335570779
 30
0.0
 11
4000.0
 21
-1355.274664429212
 31
0.0
1001
ACDBBLOCKREPETAG
1070
     1
1071
        1
1005
12FEE0
  0
CIRCLE
  5
12FEE1
  8
OBJECT
 10
4000.0
 20
-1263.9999999999959
 30
0.0
 40
50.0
1001
ACDBBLOCKREPETAG
1070
     1
1071
        2
1005
12FEE1
  0
CIRCLE
  5
12FEE2
  8
OBJECT
 10
4000.0
 20
-1263.9999999999959
 30
0.0
 40
62.0
1001
ACDBBLOCKREPETAG
1070
     1
1071
        3
1005
12FEE2
  0
CIRCLE
  5
12FEE3
  8
SLIM
 10
4078.0
 20
-1263.9999999999959
 30
0.0
 40
5.0
1001
ACDBBLOCKREPETAG
1070
     1
1071
        4
1005
12FEE3
  0
POLYLINE
  5
12FEE4
  8
SLIM
 66
     1
 10
0.0
 20
0.0
 30
0.0
 70
     1
1001
ACDBBLOCKREPETAG
1070
     1
1071
        5
1005
12FEE4
  0
VERTEX
  5
1309F3
  8
SLIM
 10
4073.092522711886
 20
-1255.4999999999959
 30
0.0
  0
VERTEX
  5
1309F4
  8
SLIM
 10
4068.185045423772
 20
-1263.9999999999959
 30
0.0
  0
VERTEX
  5
1309F5
  8
SLIM
 10
4073.092522711886
 20
-1272.4999999999959
 30
0.0
  0
VERTEX
  5
1309F6
  8
SLIM
 10
4082.9074772881072
 20
-1272.4999999999959
 30
0.0
  0
VERTEX
  5
1309F7
  8
SLIM
 10
4087.8149545762199
 20
-1263.9999999999959
 30
0.0
  0
VERTEX
  5
1309F8
  8
SLIM
 10
4082.9074772881072
 20
-1255.4999999999959
 30
0.0
  0
SEQEND
  5
1309F9
  8
SLIM
  0
CIRCLE
  5
12FEE5
  8
SLIM
 10
3961.0
 20
-1196.450018504808
 30
0.0
 40
4.9999999999999991
1001
ACDBBLOCKREPETAG
1070
     1
1071
        6
1005
12FEE5
  0
POLYLINE
  5
12FEE6
  8
SLIM
 66
     1
 10
0.0
 20
0.0
 30
0.0
 70
     1
1001
ACDBBLOCKREPETAG
1070
     1
1071
        7
1005
12FEE6
  0
VERTEX
  5
1309FA
  8
SLIM
 10
3956.092522711886
 20
-1204.950018504808
 30
0.0
  0
VERTEX
  5
1309FB
  8
SLIM
 10
3965.907477288114
 20
-1204.950018504808
 30
0.0
  0
VERTEX
  5
1309FC
  8
SLIM
 10
3970.8149545762212
 20
-1196.450018504808
 30
0.0
  0
VERTEX
  5
1309FD
  8
SLIM
 10
3965.907477288114
 20
-1187.9500185048089
 30
0.0
  0
VERTEX
  5
1309FE
  8
SLIM
 10
3956.092522711886
 20
-1187.9500185048089
 30
0.0
  0
VERTEX
  5
1309FF
  8
SLIM
 10
3951.185045423772
 20
-1196.450018504808
 30
0.0
  0
SEQEND
  5
130A00
  8
SLIM
  0
CIRCLE
  5
12FEE7
  8
SLIM
 10
3961.0
 20
-1331.549981495182
 30
0.0
 40
5.0
1001
ACDBBLOCKREPETAG
1070
     1
1071
        8
1005
12FEE7
  0
POLYLINE
  5
12FEE8
  8
SLIM
 66
     1
 10
0.0
 20
0.0
 30
0.0
 70
     1
1001
ACDBBLOCKREPETAG
1070
     1
1071
        9
1005
12FEE8
  0
VERTEX
  5
130A01
  8
SLIM
 10
3970.8149545762212
 20
-1331.549981495182
 30
0.0
  0
VERTEX
  5
130A02
  8
SLIM
 10
3965.9074772881072
 20
-1323.0499814951791
 30
0.0
  0
VERTEX
  5
130A03
  8
SLIM
 10
3956.092522711886
 20
-1323.0499814951829
 30
0.0
  0
VERTEX
  5
130A04
  8
SLIM
 10
3951.185045423772
 20
-1331.5499814951791
 30
0.0
  0
VERTEX
  5
130A05
  8
SLIM
 10
3956.092522711886
 20
-1340.049981495182
 30
0.0
  0
VERTEX
  5
130A06
  8
SLIM
 10
3965.907477288114
 20
-1340.0499814951791
 30
0.0
  0
SEQEND
  5
130A07
  8
SLIM
  0
ARC
  5
12FEE9
  8
OBJECT
 10
4000.0
 20
-1263.9999999999959
 30
0.0
 40
76.0
 50
34.863837954142063
 51
85.136162045732945
1001
ACDBBLOCKREPETAG
1070
     1
1071
       30
1005
12FEE9
  0
ARC
  5
12FEEA
  8
OBJECT
 10
4000.0
 20
-1263.9999999999959
 30
0.0
 40
76.0
 50
154.86383795430939
 51
205.1361620456905
1001
ACDBBLOCKREPETAG
1070
     1
1071
       31
1005
12FEEA
  0
ARC
  5
12FEEB
  8
OBJECT
 10
4000.0
 20
-1263.9999999999959
 30
0.0
 40
76.0
 50
274.86383795426718
 51
325.13616204585799
1001
ACDBBLOCKREPETAG
1070
     1
1071
       32
1005
12FEEB
  0
ARC
  5
12FEEC
  8
OBJECT
 10
4078.0
 20
-1263.9999999999959
 30
0.0
 40
12.0
 50
325.13616204585799
 51
34.863837954142063
1001
ACDBBLOCKREPETAG
1070
     1
1071
       33
1005
12FEEC
  0
LINE
  5
12FEED
  8
OBJECT
 10
4087.846153846167
 20
-1257.140462520133
 30
0.0
 11
4062.3589743590492
 21
-1220.556262627535
 31
0.0
1001
ACDBBLOCKREPETAG
1070
     1
1071
       34
1005
12FEED
  0
LINE
  5
12FEEE
  8
OBJECT
 10
4087.8461538461711
 20
-1270.859537479856
 30
0.0
 11
4062.3589743590492
 21
-1307.4437373724591
 31
0.0
1001
ACDBBLOCKREPETAG
1070
     1
1071
       35
1005
12FEEE
  0
ARC
  5
12FEEF
  8
OBJECT
 10
3961.0
 20
-1196.45001850481
 30
0.0
 40
12.0
 50
85.136162045942811
 51
154.86383795411109
1001
ACDBBLOCKREPETAG
1070
     1
1071
       36
1005
12FEEF
  0
LINE
  5
12FEF0
  8
OBJECT
 10
3950.136389361146
 20
-1191.35276788439
 30
0.0
 11
3931.1971326205862
 21
-1231.7174127373471
 31
0.0
1001
ACDBBLOCKREPETAG
1070
     1
1071
       37
1005
12FEF0
  0
LINE
  5
12FEF1
  8
OBJECT
 10
3962.0174567926852
 20
-1184.493230404526
 30
0.0
 11
4006.4438930203678
 21
-1188.2736753648851
 31
0.0
1001
ACDBBLOCKREPETAG
1070
     1
1071
       38
1005
12FEF1
  0
ARC
  5
12FEF2
  8
OBJECT
 10
3961.0
 20
-1331.5499814951811
 30
0.0
 40
12.0
 50
205.13616204588891
 51
274.8638379540572
1001
ACDBBLOCKREPETAG
1070
     1
1071
       39
1005
12FEF2
  0
LINE
  5
12FEF3
  8
OBJECT
 10
3962.0174567926879
 20
-1343.5067695954631
 30
0.0
 11
4006.4438930203651
 21
-1339.726324635106
 31
0.0
1001
ACDBBLOCKREPETAG
1070
     1
1071
       40
1005
12FEF3
  0
LINE
  5
12FEF4
  8
OBJECT
 10
3950.136389361146
 20
-1336.647232115605
 30
0.0
 11
3931.1971326205821
 21
-1296.2825872626429
 31
0.0
1001
ACDBBLOCKREPETAG
1070
     1
1071
       41
1005
12FEF4
  0
TEXT
  5
12FEF5
  8
SLIM
 10
3853.75
 20
-1531.4999999999959
 30
0.0
 40
35.0
  1
両受けスタイル（W）
 41
0.75
  0
TEXT
  5
12FEF6
  8
SLIM
 10
5858.1250000000009
 20
-1572.4999999999991
 30
0.0
 40
35.0
  1
カンペイ君（WKP）
 41
0.75
  0
TEXT
  5
12FEF7
  8
SLIM
 10
1856.25
 20
-1287.499999999998
 30
0.0
 40
35.0
  1
片受けスタイル（S）
 41
0.75
  0
VIEWPORT
  5
F6BA7
 67
     1
  8
0
 10
145.33033752441401
 20
101.8328354358673
 30
0.0
 40
334.0025019414623
 41
222.19657968139651
 68
     1
 69
     1
1001
ACAD
1000
MVIEW
1002
{
1070
    16
1010
0.0
1020
0.0
1030
0.0
1010
0.0
1020
0.0
1030
1.0
1040
0.0
1040
222.19657968139651
1040
145.33033752441401
1040
101.8328354358673
1040
50.0
1040
0.0
1040
0.0
1070
     0
1070
     0
1070
     1
1070
     1
1070
     0
1070
     0
1070
     0
1070
     0
1040
0.0
1040
0.0
1040
0.0
1040
10.0
1040
10.0
1040
10.0
1040
10.0
1070
     0
1002
{
1002
}
1002
}
  0
VIEWPORT
  5
F6BA9
 67
     1
  8
OBJECT
 10
145.3303314447403
 20
101.8328338861465
 30
0.0
 40
232.5285303115844
 41
162.93253421783439
 68
     2
 69
     2
1001
ACAD
1000
MVIEW
1002
{
1070
    16
1010
0.0
1020
0.0
1030
0.0
1010
0.0
1020
0.0
1030
1.0
1040
0.0
1040
25942.55904403147
1040
2377.604457077377
1040
-7591.5176687056619
1040
50.0
1040
0.0
1040
0.0
1070
     0
1070
   600
1070
     1
1070
     1
1070
     0
1070
     0
1070
     0
1070
     0
1040
0.0
1040
0.0
1040
0.0
1040
1.0
1040
1.0
1040
0.0
1040
0.0
1070
     0
1002
{
1002
}
1002
}
  0
ENDSEC
  0
EOF
