  0
SECTION
  2
HEADER
  9
$ACADVER
  1
AC1009
  9
$INSBASE
 10
0.0
 20
0.0
 30
0.0
  9
$EXTMIN
 10
0.0
 20
-1989.0
 30
0.0
  9
$EXTMAX
 10
12399.7000000000098225
 20
770.0
 30
0.0
  9
$LIMMIN
 10
0.0
 20
0.0
  9
$LIMMAX
 10
210.0
 20
297.0
  9
$ORTHOMODE
 70
     0
  9
$REGENMODE
 70
     1
  9
$FILLMODE
 70
     1
  9
$QTEXTMODE
 70
     0
  9
$MIRRTEXT
 70
     0
  9
$DRAGMODE
 70
     2
  9
$LTSCALE
 40
1.0
  9
$OSMODE
 70
   121
  9
$ATTMODE
 70
     1
  9
$TEXTSIZE
 40
4.0
  9
$TRACEWID
 40
0.05
  9
$TEXTSTYLE
  7
STANDARD
  9
$CLAYER
  8
OBJECT
  9
$CELTYPE
  6
BYLAYER
  9
$CECOLOR
 62
   256
  9
$DIMSCALE
 40
10.0
  9
$DIMASZ
 40
2.0
  9
$DIMEXO
 40
1.0
  9
$DIMDLI
 40
10.0
  9
$DIMRND
 40
0.0
  9
$DIMDLE
 40
0.0
  9
$DIMEXE
 40
1.0
  9
$DIMTP
 40
0.0
  9
$DIMTM
 40
0.0
  9
$DIMTXT
 40
3.2000000000000002
  9
$DIMCEN
 40
0.0
  9
$DIMTSZ
 40
0.0
  9
$DIMTOL
 70
     0
  9
$DIMLIM
 70
     0
  9
$DIMTIH
 70
     0
  9
$DIMTOH
 70
     0
  9
$DIMSE1
 70
     0
  9
$DIMSE2
 70
     0
  9
$DIMTAD
 70
     1
  9
$DIMZIN
 70
     8
  9
$DIMBLK
  1
OPEN30
  9
$DIMASO
 70
     1
  9
$DIMSHO
 70
     1
  9
$DIMPOST
  1

  9
$DIMAPOST
  1

  9
$DIMALT
 70
     0
  9
$DIMALTD
 70
     2
  9
$DIMALTF
 40
25.3999999999999986
  9
$DIMLFAC
 40
1.0
  9
$DIMTOFL
 70
     1
  9
$DIMTVP
 40
0.0
  9
$DIMTIX
 70
     0
  9
$DIMSOXD
 70
     0
  9
$DIMSAH
 70
     0
  9
$DIMBLK1
  1

  9
$DIMBLK2
  1

  9
$DIMSTYLE
  2
S10
  9
$DIMCLRD
 70
   256
  9
$DIMCLRE
 70
   256
  9
$DIMCLRT
 70
   256
  9
$DIMTFAC
 40
1.0
  9
$DIMGAP
 40
0.9
  9
$LUNITS
 70
     2
  9
$LUPREC
 70
     2
  9
$SKETCHINC
 40
0.1
  9
$FILLETRAD
 40
0.0
  9
$AUNITS
 70
     0
  9
$AUPREC
 70
     2
  9
$MENU
  1
ACAD
  9
$ELEVATION
 40
0.0
  9
$PELEVATION
 40
0.0
  9
$THICKNESS
 40
0.0
  9
$LIMCHECK
 70
     0
  9
$BLIPMODE
 70
     0
  9
$CHAMFERA
 40
2.0
  9
$CHAMFERB
 40
2.0
  9
$SKPOLY
 70
     0
  9
$TDCREATE
 40
2453095.4929398149251938
  9
$TDUPDATE
 40
2458305.5772685180418193
  9
$TDINDWG
 40
18.4835258911999993
  9
$TDUSRTIMER
 40
18.4835253472000005
  9
$USRTIMER
 70
     1
  9
$ANGBASE
 50
0.0
  9
$ANGDIR
 70
     0
  9
$PDMODE
 70
    35
  9
$PDSIZE
 40
2.0
  9
$PLINEWID
 40
0.0
  9
$COORDS
 70
     1
  9
$SPLFRAME
 70
     0
  9
$SPLINETYPE
 70
     6
  9
$SPLINESEGS
 70
     8
  9
$ATTDIA
 70
     1
  9
$ATTREQ
 70
     1
  9
$HANDLING
 70
     1
  9
$HANDSEED
  5
127A0B
  9
$SURFTAB1
 70
     6
  9
$SURFTAB2
 70
     6
  9
$SURFTYPE
 70
     6
  9
$SURFU
 70
     6
  9
$SURFV
 70
     6
  9
$UCSNAME
  2

  9
$UCSORG
 10
0.0
 20
0.0
 30
0.0
  9
$UCSXDIR
 10
1.0
 20
0.0
 30
0.0
  9
$UCSYDIR
 10
0.0
 20
1.0
 30
0.0
  9
$PUCSNAME
  2

  9
$PUCSORG
 10
0.0
 20
0.0
 30
0.0
  9
$PUCSXDIR
 10
1.0
 20
0.0
 30
0.0
  9
$PUCSYDIR
 10
0.0
 20
1.0
 30
0.0
  9
$USERI1
 70
     0
  9
$USERI2
 70
     0
  9
$USERI3
 70
     0
  9
$USERI4
 70
     0
  9
$USERI5
 70
     0
  9
$USERR1
 40
0.0
  9
$USERR2
 40
0.0
  9
$USERR3
 40
0.0
  9
$USERR4
 40
0.0
  9
$USERR5
 40
0.0
  9
$WORLDVIEW
 70
     1
  9
$SHADEDGE
 70
     3
  9
$SHADEDIF
 70
    70
  9
$TILEMODE
 70
     1
  9
$MAXACTVP
 70
    64
  9
$PLIMCHECK
 70
     0
  9
$PEXTMIN
 10
29.0660662889480506
 20
20.3665667772293091
 30
0.0
  9
$PEXTMAX
 10
261.5945966005324976
 20
183.2991009950638102
 30
0.0
  9
$PLIMMIN
 10
-3.17498779296875
 20
-3.1749999523162842
  9
$PLIMMAX
 10
293.835662841796875
 20
206.8406708240509033
  9
$UNITMODE
 70
     0
  9
$VISRETAIN
 70
     1
  9
$PLINEGEN
 70
     0
  9
$PSLTSCALE
 70
     1
  0
ENDSEC
  0
SECTION
  2
TABLES
  0
TABLE
  2
VPORT
 70
     1
  0
VPORT
  2
*ACTIVE
 70
     0
 10
0.0
 20
0.0
 11
1.0
 21
1.0
 12
13833.9006946706904273
 22
-4539.2461564809336778
 13
0.0
 23
0.0
 14
1.0
 24
1.0
 15
0.0
 25
0.0
 16
0.0
 26
0.0
 36
1.0
 17
0.0
 27
0.0
 37
0.0
 40
25430.9875857503902807
 41
2.3517156862745092
 42
50.0
 43
0.0
 44
0.0
 50
0.0
 51
0.0
 71
     0
 72
   600
 73
     1
 74
     1
 75
     0
 76
     0
 77
     0
 78
     0
  0
ENDTAB
  0
TABLE
  2
LTYPE
 70
     3
  0
LTYPE
  2
CONTINUOUS
 70
     0
  3
Solid line
 72
    65
 73
     0
 40
0.0
  0
LTYPE
  2
ACAD_ISO08W100
 70
     0
  3
ISO long-dash short-dash ____ __ ____ __ ____ _
 72
    65
 73
     4
 40
36.0
 49
24.0
 49
-3.0
 49
6.0
 49
-3.0
  0
LTYPE
  2
ACAD_ISO02W100
 70
     0
  3
ISO dash __ __ __ __ __ __ __ __ __ __ __ __ __
 72
    65
 73
     2
 40
15.0
 49
12.0
 49
-3.0
  0
ENDTAB
  0
TABLE
  2
LAYER
 70
     7
  0
LAYER
  2
0
 70
     0
 62
     7
  6
CONTINUOUS
  0
LAYER
  2
OBJECT
 70
     0
 62
     4
  6
CONTINUOUS
  0
LAYER
  2
DEFPOINTS
 70
     0
 62
     7
  6
CONTINUOUS
  0
LAYER
  2
HIDDEN
 70
     0
 62
     2
  6
ACAD_ISO02W100
  0
LAYER
  2
CENTER
 70
     0
 62
     2
  6
ACAD_ISO08W100
  0
LAYER
  2
DOTS
 70
     0
 62
     1
  6
CONTINUOUS
  0
LAYER
  2
SLIM
 70
     0
 62
     2
  6
CONTINUOUS
  0
ENDTAB
  0
TABLE
  2
STYLE
 70
     2
  0
STYLE
  2
STANDARD
 70
     0
 40
0.0
 41
0.75
 50
0.0
 71
     0
 42
4.0
  3
simplex.shx
  4
bigfont.shx
  0
ENDTAB
  0
TABLE
  2
VIEW
 70
     0
  0
ENDTAB
  0
TABLE
  2
UCS
 70
     0
  0
ENDTAB
  0
TABLE
  2
APPID
 70
    19
  0
APPID
  2
ACAD
 70
     0
  0
APPID
  2
ACADANNOTATIVE
 70
     0
  0
APPID
  2
ACAD_PSEXT
 70
     0
  0
APPID
  2
ACAD_EXEMPT_FROM_CAD_STANDARDS
 70
     0
  0
APPID
  2
ACAECLAYERSTANDARD
 70
     0
  0
APPID
  2
ACAUTHENVIRON
 70
     0
  0
APPID
  2
ACDBDYNAMICBLOCKTRUENAME
 70
     0
  0
APPID
  2
ACDBDYNAMICBLOCKGUID
 70
     0
  0
APPID
  2
ACDBBLOCKREPETAG
 70
     0
  0
APPID
  2
ACDBBLOCKREPBTAG
 70
     0
  0
APPID
  2
ACAD_NAV_VCDISPLAY
 70
     0
  0
APPID
  2
ACAD_DSTYLE_DIMRADIAL_EXTENSION
 70
     0
  0
APPID
  2
ACAD_DSTYLE_DIMJAG
 70
     0
  0
APPID
  2
ACAD_DSTYLE_DIMTALN
 70
     0
  0
APPID
  2
ACADANNOPO
 70
     0
  0
APPID
  2
GRADIENTCOLOR1ACI
 70
     0
  0
APPID
  2
GRADIENTCOLOR2ACI
 70
     0
  0
APPID
  2
CONTENTBLOCKICON
 70
     0
  0
APPID
  2
ACAD_MLEADERVER
 70
     0
  0
ENDTAB
  0
TABLE
  2
DIMSTYLE
 70
     3
  0
DIMSTYLE
  2
STANDARD
 70
     0
  3

  4

  5

  6

  7

 40
1.0
 41
0.18
 42
0.0625
 43
0.38
 44
0.18
 45
0.0
 46
0.0
 47
0.0
 48
0.0
140
0.18
141
0.09
142
0.0
143
25.3999999999999986
144
1.0
145
0.0
146
1.0
147
0.09
 71
     0
 72
     0
 73
     1
 74
     1
 75
     0
 76
     0
 77
     0
 78
     0
170
     0
171
     2
172
     0
173
     0
174
     0
175
     0
176
     0
177
     0
178
     0
  0
DIMSTYLE
  2
S10
 70
     0
  3

  4

  5

  6

  7

 40
10.0
 41
2.0
 42
1.0
 43
10.0
 44
1.0
 45
0.0
 46
0.0
 47
0.0
 48
0.0
140
3.2000000000000002
141
0.0
142
0.0
143
25.3999999999999986
144
1.0
145
0.0
146
1.0
147
0.9
 71
     0
 72
     0
 73
     0
 74
     0
 75
     0
 76
     0
 77
     1
 78
     8
170
     0
171
     2
172
     1
173
     0
174
     0
175
     0
176
   256
177
   256
178
   256
  0
ENDTAB
  0
ENDSEC
  0
SECTION
  2
BLOCKS
  0
BLOCK
  8
0
  2
$MODEL_SPACE
 70
     0
 10
0.0
 20
0.0
 30
0.0
  3
$MODEL_SPACE
  1

  0
ENDBLK
  5
12792F
  8
0
  0
BLOCK
 67
     1
  8
0
  2
$PAPER_SPACE
 70
     0
 10
0.0
 20
0.0
 30
0.0
  3
$PAPER_SPACE
  1

  0
ENDBLK
  5
12792B
 67
     1
  8
0
  0
BLOCK
  8
0
  2
_OPEN30
 70
     0
 10
0.0
 20
0.0
 30
0.0
  3
_OPEN30
  1

  0
LINE
  5
202
  8
0
  6
BYBLOCK
 62
     0
 10
-1.0
 20
0.26794919
 30
0.0
 11
0.0
 21
0.0
 31
0.0
  0
LINE
  5
203
  8
0
  6
BYBLOCK
 62
     0
 10
0.0
 20
0.0
 30
0.0
 11
-1.0
 21
-0.26794919
 31
0.0
  0
LINE
  5
204
  8
0
  6
BYBLOCK
 62
     0
 10
0.0
 20
0.0
 30
0.0
 11
-1.0
 21
0.0
 31
0.0
  0
ENDBLK
  5
206
  8
0
  0
ENDSEC
  0
SECTION
  2
ENTITIES
  0
LINE
  5
1273DC
  8
SLIM
 10
11927.3018300565199752
 20
-155.9548403695766865
 30
0.0
 11
11955.9548403695807792
 21
-127.3018300565224052
 31
0.0
1001
GRADIENTCOLOR1ACI
1070
     5
1001
GRADIENTCOLOR2ACI
1070
     2
1001
ACAD
1010
0.0
1020
0.0
1030
0.0
1001
ACDBBLOCKREPETAG
1070
     1
1071
      416
1005
1273DC
  0
LINE
  5
1273DD
  8
SLIM
 10
11919.4861520708400349
 20
-172.7507744763317987
 30
0.0
 11
11938.2903089572700992
 21
-153.9466175898965048
 31
0.0
1001
GRADIENTCOLOR1ACI
1070
     5
1001
GRADIENTCOLOR2ACI
1070
     2
1001
ACAD
1010
0.0
1020
0.0
1030
0.0
1001
ACDBBLOCKREPETAG
1070
     1
1071
      417
1005
1273DD
  0
LINE
  5
1273DE
  8
SLIM
 10
11953.946617589899688
 20
-138.2903089572716908
 30
0.0
 11
11972.7507744763297524
 21
-119.4861520708364964
 31
0.0
1001
GRADIENTCOLOR1ACI
1070
     5
1001
GRADIENTCOLOR2ACI
1070
     2
1001
ACAD
1010
0.0
1020
0.0
1030
0.0
1001
ACDBBLOCKREPETAG
1070
     1
1071
      418
1005
1273DE
  0
LINE
  5
1273DF
  8
SLIM
 10
11916.3596679933798441
 20
-184.8575146748603117
 30
0.0
 11
11920.236091437009236
 21
-180.9810912312296978
 31
0.0
1001
GRADIENTCOLOR1ACI
1070
     5
1001
GRADIENTCOLOR2ACI
1070
     2
1001
ACAD
1010
0.0
1020
0.0
1030
0.0
1001
ACDBBLOCKREPETAG
1070
     1
1071
      419
1005
1273DF
  0
LINE
  5
1273E0
  8
SLIM
 10
11980.9810912312295841
 20
-120.2360914370078007
 30
0.0
 11
11984.8575146748607949
 21
-116.3596679933770019
 31
0.0
1001
GRADIENTCOLOR1ACI
1070
     5
1001
GRADIENTCOLOR2ACI
1070
     2
1001
ACAD
1010
0.0
1020
0.0
1030
0.0
1001
ACDBBLOCKREPETAG
1070
     1
1071
      420
1005
1273E0
  0
LINE
  5
1273E1
  8
SLIM
 10
11915.144057589050135
 20
-195.0533812002549041
 30
0.0
 11
11918.4125503387294884
 21
-191.7848884505795866
 31
0.0
1001
GRADIENTCOLOR1ACI
1070
     5
1001
GRADIENTCOLOR2ACI
1070
     2
1001
ACAD
1010
0.0
1020
0.0
1030
0.0
1001
ACDBBLOCKREPETAG
1070
     1
1071
      421
1005
1273E1
  0
LINE
  5
1273E2
  8
SLIM
 10
11991.7848884505801834
 20
-118.412550338727101
 30
0.0
 11
11995.0533812002504419
 21
-115.1440575890515987
 31
0.0
1001
GRADIENTCOLOR1ACI
1070
     5
1001
GRADIENTCOLOR2ACI
1070
     2
1001
ACAD
1010
0.0
1020
0.0
1030
0.0
1001
ACDBBLOCKREPETAG
1070
     1
1071
      422
1005
1273E2
  0
LINE
  5
1273E3
  8
SLIM
 10
11915.0979635574694839
 20
-204.0797313529033943
 30
0.0
 11
11918.008338199049831
 21
-201.1693567113285894
 31
0.0
1001
GRADIENTCOLOR1ACI
1070
     5
1001
GRADIENTCOLOR2ACI
1070
     2
1001
ACAD
1010
0.0
1020
0.0
1030
0.0
1001
ACDBBLOCKREPETAG
1070
     1
1071
      423
1005
1273E3
  0
LINE
  5
1273E4
  8
SLIM
 10
12001.1693567113306926
 20
-118.008338199047202
 30
0.0
 11
12004.0797313529001258
 21
-115.0979635574723972
 31
0.0
1001
GRADIENTCOLOR1ACI
1070
     5
1001
GRADIENTCOLOR2ACI
1070
     2
1001
ACAD
1010
0.0
1020
0.0
1030
0.0
1001
ACDBBLOCKREPETAG
1070
     1
1071
      424
1005
1273E4
  0
LINE
  5
1273E5
  8
SLIM
 10
11915.88997262086923
 20
-212.2679784105739031
 30
0.0
 11
11918.5632639426803507
 21
-209.5946870887607076
 31
0.0
1001
GRADIENTCOLOR1ACI
1070
     5
1001
GRADIENTCOLOR2ACI
1070
     2
1001
ACAD
1010
0.0
1020
0.0
1030
0.0
1001
ACDBBLOCKREPETAG
1070
     1
1071
      425
1005
1273E5
  0
LINE
  5
1273E6
  8
SLIM
 10
12009.5946870887601108
 20
-118.5632639426843014
 30
0.0
 11
12012.2679784105694125
 21
-115.8899726208710064
 31
0.0
1001
GRADIENTCOLOR1ACI
1070
     5
1001
GRADIENTCOLOR2ACI
1070
     2
1001
ACAD
1010
0.0
1020
0.0
1030
0.0
1001
ACDBBLOCKREPETAG
1070
     1
1071
      426
1005
1273E6
  0
LINE
  5
1273E7
  8
SLIM
 10
11917.338265695150767
 20
-219.799941457361399
 30
0.0
 11
11919.844379359490631
 21
-217.2938277930240929
 31
0.0
1001
GRADIENTCOLOR1ACI
1070
     5
1001
GRADIENTCOLOR2ACI
1070
     2
1001
ACAD
1010
0.0
1020
0.0
1030
0.0
1001
ACDBBLOCKREPETAG
1070
     1
1071
      427
1005
1273E7
  0
LINE
  5
1273E8
  8
SLIM
 10
12017.2938277930206823
 20
-119.8443793594900058
 30
0.0
 11
12019.7999414573605463
 21
-117.3382656951526997
 31
0.0
1001
GRADIENTCOLOR1ACI
1070
     5
1001
GRADIENTCOLOR2ACI
1070
     2
1001
ACAD
1010
0.0
1020
0.0
1030
0.0
1001
ACDBBLOCKREPETAG
1070
     1
1071
      428
1005
1273E8
  0
LINE
  5
1273E9
  8
SLIM
 10
11919.3312594063008873
 20
-226.7872038672788051
 30
0.0
 11
11922.8446926367905689
 21
-223.2737706367921078
 31
0.0
1001
GRADIENTCOLOR1ACI
1070
     5
1001
GRADIENTCOLOR2ACI
1070
     2
1001
ACAD
1010
0.0
1020
0.0
1030
0.0
1001
ACDBBLOCKREPETAG
1070
     1
1071
      429
1005
1273E9
  0
LINE
  5
1273EA
  8
SLIM
 10
12023.2737716367901157
 20
-122.8446916367926036
 30
0.0
 11
12026.7872038672794588
 21
-119.3312594063044969
 31
0.0
1001
GRADIENTCOLOR1ACI
1070
     5
1001
GRADIENTCOLOR2ACI
1070
     2
1001
ACAD
1010
0.0
1020
0.0
1030
0.0
1001
ACDBBLOCKREPETAG
1070
     1
1071
      430
1005
1273EA
  0
LINE
  5
1273EB
  8
SLIM
 10
11921.7957163186201797
 20
-233.3030030760328088
 30
0.0
 11
11927.3348206973205379
 21
-227.7638986973267947
 31
0.0
1001
GRADIENTCOLOR1ACI
1070
     5
1001
GRADIENTCOLOR2ACI
1070
     2
1001
ACAD
1010
0.0
1020
0.0
1030
0.0
1001
ACDBBLOCKREPETAG
1070
     1
1071
      431
1005
1273EB
  0
LINE
  5
1273EC
  8
SLIM
 10
12027.7638996973200847
 20
-127.3348196973292943
 30
0.0
 11
12033.3030030760291993
 21
-121.7957163186194975
 31
0.0
1001
GRADIENTCOLOR1ACI
1070
     5
1001
GRADIENTCOLOR2ACI
1070
     2
1001
ACAD
1010
0.0
1020
0.0
1030
0.0
1001
ACDBBLOCKREPETAG
1070
     1
1071
      432
1005
1273EC
  0
LINE
  5
1273ED
  8
SLIM
 10
11924.681663531340746
 20
-239.397311984377609
 30
0.0
 11
11930.6398768643903168
 21
-233.4390986513296014
 31
0.0
1001
GRADIENTCOLOR1ACI
1070
     5
1001
GRADIENTCOLOR2ACI
1070
     2
1001
ACAD
1010
0.0
1020
0.0
1030
0.0
1001
ACDBBLOCKREPETAG
1070
     1
1071
      433
1005
1273ED
  0
LINE
  5
1273EE
  8
SLIM
 10
12033.439098651329914
 20
-130.6398768643919084
 30
0.0
 11
12039.3973119843794848
 21
-124.6816635313440003
 31
0.0
1001
GRADIENTCOLOR1ACI
1070
     5
1001
GRADIENTCOLOR2ACI
1070
     2
1001
ACAD
1010
0.0
1020
0.0
1030
0.0
1001
ACDBBLOCKREPETAG
1070
     1
1071
      434
1005
1273EE
  0
LINE
  5
1273EF
  8
SLIM
 10
11927.9544611024193728
 20
-245.1047705343667928
 30
0.0
 11
11933.7750070149904786
 21
-239.2842246217975912
 31
0.0
1001
GRADIENTCOLOR1ACI
1070
     5
1001
GRADIENTCOLOR2ACI
1070
     2
1001
ACAD
1010
0.0
1020
0.0
1030
0.0
1001
ACDBBLOCKREPETAG
1070
     1
1071
      435
1005
1273EF
  0
LINE
  5
1273F0
  8
SLIM
 10
12039.2842246218006039
 20
-133.7750070149930934
 30
0.0
 11
12045.1047705343698908
 21
-127.9544611024238066
 31
0.0
1001
GRADIENTCOLOR1ACI
1070
     5
1001
GRADIENTCOLOR2ACI
1070
     2
1001
ACAD
1010
0.0
1020
0.0
1030
0.0
1001
ACDBBLOCKREPETAG
1070
     1
1071
      436
1005
1273F0
  0
LINE
  5
1273F1
  8
SLIM
 10
11931.5903319686603936
 20
-250.449155789195288
 30
0.0
 11
11937.3182075880595221
 21
-244.7212801698034923
 31
0.0
1001
GRADIENTCOLOR1ACI
1070
     5
1001
GRADIENTCOLOR2ACI
1070
     2
1001
ACAD
1010
0.0
1020
0.0
1030
0.0
1001
ACDBBLOCKREPETAG
1070
     1
1071
      437
1005
1273F1
  0
LINE
  5
1273F2
  8
SLIM
 10
12044.7212801698005933
 20
-137.3182075880565094
 30
0.0
 11
12050.4491557891906268
 21
-131.5903319686644863
 31
0.0
1001
GRADIENTCOLOR1ACI
1070
     5
1001
GRADIENTCOLOR2ACI
1070
     2
1001
ACAD
1010
0.0
1020
0.0
1030
0.0
1001
ACDBBLOCKREPETAG
1070
     1
1071
      438
1005
1273F2
  0
LINE
  5
1273F3
  8
SLIM
 10
11935.5737496925194137
 20
-255.4459941864033112
 30
0.0
 11
11941.2481105415899947
 21
-249.7716333373402904
 31
0.0
1001
GRADIENTCOLOR1ACI
1070
     5
1001
GRADIENTCOLOR2ACI
1070
     2
1001
ACAD
1010
0.0
1020
0.0
1030
0.0
1001
ACDBBLOCKREPETAG
1070
     1
1071
      439
1005
1273F3
  0
LINE
  5
1273F4
  8
SLIM
 10
12053.0197438789200532
 20
-137.9999999999990052
 30
0.0
 11
12055.4459941864006396
 21
-135.5737496925256096
 31
0.0
1001
GRADIENTCOLOR1ACI
1070
     5
1001
GRADIENTCOLOR2ACI
1070
     2
1001
ACAD
1010
0.0
1020
0.0
1030
0.0
1001
ACDBBLOCKREPETAG
1070
     1
1071
      440
1005
1273F4
  0
LINE
  5
1273F5
  8
SLIM
 10
11939.8959235991405876
 20
-260.1040764008554902
 30
0.0
 11
11945.552777848630285
 21
-254.4472221513632917
 31
0.0
1001
GRADIENTCOLOR1ACI
1070
     5
1001
GRADIENTCOLOR2ACI
1070
     2
1001
ACAD
1010
0.0
1020
0.0
1030
0.0
1001
ACDBBLOCKREPETAG
1070
     1
1071
      441
1005
1273F5
  0
LINE
  5
1273F6
  8
SLIM
 10
11944.5540058135902655
 20
-264.4262503074725146
 30
0.0
 11
11950.2283666626608465
 21
-258.7518894584094937
 31
0.0
1001
GRADIENTCOLOR1ACI
1070
     5
1001
GRADIENTCOLOR2ACI
1070
     2
1001
ACAD
1010
0.0
1020
0.0
1030
0.0
1001
ACDBBLOCKREPETAG
1070
     1
1071
      442
1005
1273F6
  0
LINE
  5
1273F7
  8
SLIM
 10
11949.5508442108002782
 20
-268.4096680313336947
 30
0.0
 11
11955.2787198301903118
 21
-262.6817924119416716
 31
0.0
1001
GRADIENTCOLOR1ACI
1070
     5
1001
GRADIENTCOLOR2ACI
1070
     2
1001
ACAD
1010
0.0
1020
0.0
1030
0.0
1001
ACDBBLOCKREPETAG
1070
     1
1071
      443
1005
1273F7
  0
LINE
  5
1273F8
  8
SLIM
 10
11954.8952294656301092
 20
-272.0455388975743745
 30
0.0
 11
11960.7157753781993961
 21
-266.2249929850049739
 31
0.0
1001
GRADIENTCOLOR1ACI
1070
     5
1001
GRADIENTCOLOR2ACI
1070
     2
1001
ACAD
1010
0.0
1020
0.0
1030
0.0
1001
ACDBBLOCKREPETAG
1070
     1
1071
      444
1005
1273F8
  0
LINE
  5
1273F9
  8
SLIM
 10
11960.6026880156205152
 20
-275.318336468654195
 30
0.0
 11
11966.560901348670086
 21
-269.3601231356062158
 31
0.0
1001
GRADIENTCOLOR1ACI
1070
     5
1001
GRADIENTCOLOR2ACI
1070
     2
1001
ACAD
1010
0.0
1020
0.0
1030
0.0
1001
ACDBBLOCKREPETAG
1070
     1
1071
      445
1005
1273F9
  0
LINE
  5
1273FA
  8
SLIM
 10
11966.6969969239598868
 20
-278.2042836813786266
 30
0.0
 11
11972.2361008026691707
 21
-272.6651798026716165
 31
0.0
1001
GRADIENTCOLOR1ACI
1070
     5
1001
GRADIENTCOLOR2ACI
1070
     2
1001
ACAD
1010
0.0
1020
0.0
1030
0.0
1001
ACDBBLOCKREPETAG
1070
     1
1071
      446
1005
1273FA
  0
LINE
  5
1273FB
  8
SLIM
 10
11973.2127961327205412
 20
-280.6687405936937125
 30
0.0
 11
11976.7262288632100535
 21
-277.1553078632056213
 31
0.0
1001
GRADIENTCOLOR1ACI
1070
     5
1001
GRADIENTCOLOR2ACI
1070
     2
1001
ACAD
1010
0.0
1020
0.0
1030
0.0
1001
ACDBBLOCKREPETAG
1070
     1
1071
      447
1005
1273FB
  0
LINE
  5
1273FC
  8
SLIM
 10
11980.2000585426394537
 20
-282.6617343048454813
 30
0.0
 11
11982.7061722069702228
 21
-280.1556206405081184
 31
0.0
1001
GRADIENTCOLOR1ACI
1070
     5
1001
GRADIENTCOLOR2ACI
1070
     2
1001
ACAD
1010
0.0
1020
0.0
1030
0.0
1001
ACDBBLOCKREPETAG
1070
     1
1071
      448
1005
1273FC
  0
LINE
  5
1273FD
  8
SLIM
 10
11987.7320215894196735
 20
-284.1100273791270752
 30
0.0
 11
11990.4053129112398892
 21
-281.4367360573139081
 31
0.0
1001
GRADIENTCOLOR1ACI
1070
     5
1001
GRADIENTCOLOR2ACI
1070
     2
1001
ACAD
1010
0.0
1020
0.0
1030
0.0
1001
ACDBBLOCKREPETAG
1070
     1
1071
      449
1005
1273FD
  0
LINE
  5
1273FE
  8
SLIM
 10
11995.9202686470998742
 20
-284.9020364425256844
 30
0.0
 11
11998.8306432886693074
 21
-281.9916618009510216
 31
0.0
1001
GRADIENTCOLOR1ACI
1070
     5
1001
GRADIENTCOLOR2ACI
1070
     2
1001
ACAD
1010
0.0
1020
0.0
1030
0.0
1001
ACDBBLOCKREPETAG
1070
     1
1071
      450
1005
1273FE
  0
LINE
  5
1273FF
  8
SLIM
 10
12004.9466187997404631
 20
-284.8559424109463976
 30
0.0
 11
12008.2151115494198166
 21
-281.58744966127108
 31
0.0
1001
GRADIENTCOLOR1ACI
1070
     5
1001
GRADIENTCOLOR2ACI
1070
     2
1001
ACAD
1010
0.0
1020
0.0
1030
0.0
1001
ACDBBLOCKREPETAG
1070
     1
1071
      451
1005
1273FF
  0
LINE
  5
127400
  8
SLIM
 10
12015.1424853251392051
 20
-283.6403320066211222
 30
0.0
 11
12019.0189087687704159
 21
-279.7639085629903093
 31
0.0
1001
GRADIENTCOLOR1ACI
1070
     5
1001
GRADIENTCOLOR2ACI
1070
     2
1001
ACAD
1010
0.0
1020
0.0
1030
0.0
1001
ACDBBLOCKREPETAG
1070
     1
1071
      452
1005
127400
  0
LINE
  5
127401
  8
SLIM
 10
12027.2492255236593337
 20
-280.5138479291617273
 30
0.0
 11
12045.7630734528302128
 21
-261.9999999999990905
 31
0.0
1001
GRADIENTCOLOR1ACI
1070
     5
1001
GRADIENTCOLOR2ACI
1070
     2
1001
ACAD
1010
0.0
1020
0.0
1030
0.0
1001
ACDBBLOCKREPETAG
1070
     1
1071
      453
1005
127401
  0
LINE
  5
127402
  8
SLIM
 10
12044.0451596304192208
 20
-272.6981699434757047
 30
0.0
 11
12054.7433295738992456
 21
-261.9999999999990905
 31
0.0
1001
GRADIENTCOLOR1ACI
1070
     5
1001
GRADIENTCOLOR2ACI
1070
     2
1001
ACAD
1010
0.0
1020
0.0
1030
0.0
1001
ACDBBLOCKREPETAG
1070
     1
1071
      454
1005
127402
  0
ARC
  5
127403
  8
OBJECT
 10
12000.0
 20
-199.9999999999990905
 30
0.0
 40
77.0
 50
202.2588689998227096
 51
247.7411309999042999
1001
ACDBBLOCKREPETAG
1070
     1
1071
      212
1005
127403
  0
ARC
  5
127404
  8
OBJECT
 10
12000.0
 20
-199.9999999999990905
 30
0.0
 40
77.0
 50
292.2588690000956149
 51
337.7411310001771767
1001
ACDBBLOCKREPETAG
1070
     1
1071
      215
1005
127404
  0
ARC
  5
127405
  8
OBJECT
 10
12000.0
 20
-199.9999999999990905
 30
0.0
 40
77.0
 50
112.2588690000957001
 51
157.7411310001772051
1001
ACDBBLOCKREPETAG
1070
     1
1071
      216
1005
127405
  0
ARC
  5
127406
  8
OBJECT
 10
12000.0
 20
-199.9999999999990905
 30
0.0
 40
77.0
 50
22.2588689998227203
 51
67.7411309999043283
1001
ACDBBLOCKREPETAG
1070
     1
1071
      220
1005
127406
  0
CIRCLE
  5
127407
  8
OBJECT
 10
12000.0
 20
-199.9999999999990905
 30
0.0
 40
70.0
1001
ACDBBLOCKREPETAG
1070
     1
1071
      221
1005
127407
  0
LINE
  5
127408
  8
OBJECT
 10
12029.1669749999800842
 20
-271.2621049999988827
 30
0.0
 11
12021.2231624440992164
 21
-279.2059175558924835
 31
0.0
1001
ACDBBLOCKREPETAG
1070
     1
1071
      222
1005
127408
  0
LINE
  5
127409
  8
OBJECT
 10
11970.8330260000002454
 20
-271.2621049999988827
 30
0.0
 11
11978.7768389219199889
 21
-279.2059179219168072
 31
0.0
1001
ACDBBLOCKREPETAG
1070
     1
1071
      223
1005
127409
  0
ARC
  5
12740A
  8
OBJECT
 10
12000.0
 20
-199.9999999999990905
 30
0.0
 40
82.0000000000000142
 50
255.0000004486402929
 51
285.0000005396947813
1001
ACDBBLOCKREPETAG
1070
     1
1071
      224
1005
12740A
  0
LINE
  5
12740B
  8
OBJECT
 10
11928.7378960000005463
 20
-229.1669739999989019
 30
0.0
 11
11920.7940817120397696
 21
-221.2231597120544961
 31
0.0
1001
ACDBBLOCKREPETAG
1070
     1
1071
      225
1005
12740B
  0
ARC
  5
12740C
  8
OBJECT
 10
12000.0
 20
-199.9999999999990905
 30
0.0
 40
82.0000000000000142
 50
165.0000004487505976
 51
194.9999985629999912
1001
ACDBBLOCKREPETAG
1070
     1
1071
      226
1005
12740C
  0
LINE
  5
12740D
  8
OBJECT
 10
11970.8330260000002454
 20
-128.7378949999992983
 30
0.0
 11
11978.7768389219199889
 21
-120.7940820780794979
 31
0.0
1001
ACDBBLOCKREPETAG
1070
     1
1071
      227
1005
12740D
  0
ARC
  5
12740E
  8
OBJECT
 10
12000.0
 20
-199.9999999999990905
 30
0.0
 40
82.0000000000000142
 50
74.9999994603052045
 51
104.9999995513597071
1001
ACDBBLOCKREPETAG
1070
     1
1071
      228
1005
12740E
  0
LINE
  5
12740F
  8
OBJECT
 10
12029.1669749999800842
 20
-128.7378949999992983
 30
0.0
 11
12021.2231624440992164
 21
-120.7940824441039069
 31
0.0
1001
ACDBBLOCKREPETAG
1070
     1
1071
      229
1005
12740F
  0
LINE
  5
127410
  8
OBJECT
 10
11962.4020590000000084
 20
-161.9389330000003895
 30
0.0
 11
12037.0841102714202862
 21
-174.5180316957439004
 31
0.0
1001
ACDBBLOCKREPETAG
1070
     1
1071
      230
1005
127410
  0
LINE
  5
127411
  8
OBJECT
 10
12044.093656999999439
 20
-169.7014939999999115
 30
0.0
 11
12037.0841102714202862
 21
-174.5180316957439004
 31
0.0
1001
ACDBBLOCKREPETAG
1070
     1
1071
      231
1005
127411
  0
LINE
  5
127412
  8
OBJECT
 10
11928.7378960000005463
 20
-170.8330249999989974
 30
0.0
 11
11920.7940820780804643
 21
-178.7768389219191079
 31
0.0
1001
ACDBBLOCKREPETAG
1070
     1
1071
      232
1005
127412
  0
CIRCLE
  5
127413
  8
OBJECT
 10
12000.0
 20
-199.9999999999990905
 30
0.0
 40
53.5000000000000071
1001
ACDBBLOCKREPETAG
1070
     1
1071
      233
1005
127413
  0
ARC
  5
127414
  8
OBJECT
 10
12000.0
 20
-199.9999999999990905
 30
0.0
 40
50.0
 50
131.7018096435265022
 51
168.5237695595575076
1001
ACDBBLOCKREPETAG
1070
     1
1071
      234
1005
127414
  0
ARC
  5
127415
  8
OBJECT
 10
12000.0
 20
-199.9999999999990905
 30
0.0
 40
50.0
 50
238.819942999904697
 51
34.4945062501157125
1001
ACDBBLOCKREPETAG
1070
     1
1071
      235
1005
127415
  0
LINE
  5
127416
  8
OBJECT
 10
12071.2621049999906973
 20
-170.8330249999989974
 30
0.0
 11
12079.205917555889755
 21
-178.7768375558943035
 31
0.0
1001
ACDBBLOCKREPETAG
1070
     1
1071
      236
1005
127416
  0
ARC
  5
127417
  8
OBJECT
 10
12000.0
 20
-199.9999999999990905
 30
0.0
 40
82.0000000000000142
 50
345.0000004487505976
 51
15.0000005393456508
1001
ACDBBLOCKREPETAG
1070
     1
1071
      237
1005
127417
  0
LINE
  5
127418
  8
OBJECT
 10
12071.2621049999906973
 20
-229.1669739999989019
 30
0.0
 11
12079.2059179219195357
 21
-221.2231610780791016
 31
0.0
1001
ACDBBLOCKREPETAG
1070
     1
1071
      238
1005
127418
  0
LINE
  5
127419
  8
OBJECT
 10
12045.6618002273207821
 20
-137.9999999999990905
 30
0.0
 11
12080.0
 21
-137.9999999999990905
 31
0.0
1001
ACDBBLOCKREPETAG
1070
     1
1071
      239
1005
127419
  0
LINE
  5
12741A
  8
OBJECT
 10
12045.6618002273207821
 20
-261.9999999999990905
 30
0.0
 11
12080.0
 21
-261.9999999999990905
 31
0.0
1001
ACDBBLOCKREPETAG
1070
     1
1071
      240
1005
12741A
  0
LINE
  5
12741B
  8
CENTER
 10
12080.0
 20
-199.9999999999990905
 30
0.0
 11
11900.0018972160596604
 21
-199.9999999999990905
 31
0.0
1001
ACDBBLOCKREPETAG
1070
     1
1071
      249
1005
12741B
  0
LINE
  5
12741C
  8
CENTER
 10
12000.0
 20
-299.9999999999990905
 30
0.0
 11
12000.0
 21
-99.9999999999990763
 31
0.0
1001
ACDBBLOCKREPETAG
1070
     1
1071
      250
1005
12741C
  0
ARC
  5
12741D
  8
OBJECT
 10
12000.0
 20
-199.9999999999990905
 30
0.0
 40
85.0
 50
46.8371028598520383
 51
313.1628971401478907
1001
ACDBBLOCKREPETAG
1070
     1
1071
      251
1005
12741D
  0
LINE
  5
12741E
  8
OBJECT
 10
11946.6921941437503847
 20
-195.4663816131605074
 30
0.0
 11
11970.4540343856297113
 21
-193.7986514643698115
 31
0.0
1001
ACDBBLOCKREPETAG
1070
     1
1071
      340
1005
12741E
  0
LINE
  5
12741F
  8
OBJECT
 10
11947.3854347270607832
 20
-190.305593971766001
 30
0.0
 11
11966.9884352628905617
 21
-188.9297527266016061
 31
0.0
1001
ACDBBLOCKREPETAG
1070
     1
1071
      341
1005
12741F
  0
LINE
  5
127420
  8
OBJECT
 10
11974.1135374752702774
 20
-242.7772259263720116
 30
0.0
 11
11982.1366988373993081
 21
-234.1690987954708021
 31
0.0
1001
ACDBBLOCKREPETAG
1070
     1
1071
      342
1005
127420
  0
ARC
  5
127421
  8
OBJECT
 10
11982.1160071245394647
 20
-183.2818896631823975
 30
0.0
 40
60.0311132460326178
 50
254.0702013041274938
 51
262.3393610608658832
1001
ACDBBLOCKREPETAG
1070
     1
1071
      343
1005
127421
  0
LINE
  5
127422
  8
OBJECT
 10
11977.6125997325107164
 20
-197.6749527714991927
 30
0.0
 11
11982.1366988373993081
 21
-234.1690987954708021
 31
0.0
1001
ACDBBLOCKREPETAG
1070
     1
1071
      344
1005
127422
  0
ARC
  5
127423
  8
OBJECT
 10
11967.6885653456392902
 20
-198.9052135113188058
 30
0.0
 40
10.0
 50
7.0667782929989968
 51
94.0147343705324232
1001
ACDBBLOCKREPETAG
1070
     1
1071
      345
1005
127423
  0
ARC
  5
127424
  8
OBJECT
 10
11970.9441253709701414
 20
-200.7814740187558868
 30
0.0
 40
7.0
 50
7.0667782929989968
 51
94.0147337750146477
1001
ACDBBLOCKREPETAG
1070
     1
1071
      346
1005
127424
  0
POINT
  5
127425
  8
DOTS
 10
12000.0
 20
-199.9999999999990905
 30
0.0
 50
270.0
1001
ACDBBLOCKREPETAG
1070
     1
1071
      349
1005
127425
  0
LINE
  5
127426
  8
OBJECT
 10
12083.0
 20
-534.0
 30
0.0
 11
12080.0
 21
-534.0
 31
0.0
1001
ACDBBLOCKREPETAG
1070
     1
1071
        1
1005
127426
  0
ARC
  5
127427
  8
OBJECT
 10
12083.0
 20
-537.0
 30
0.0
 40
3.0
 50
0.0
 51
90.0
1001
ACDBBLOCKREPETAG
1070
     1
1071
        2
1005
127427
  0
LINE
  5
127428
  8
OBJECT
 10
12080.0
 20
-658.0
 30
0.0
 11
12083.0
 21
-658.0
 31
0.0
1001
ACDBBLOCKREPETAG
1070
     1
1071
        3
1005
127428
  0
ARC
  5
127429
  8
OBJECT
 10
12083.0
 20
-655.0
 30
0.0
 40
3.0
 50
270.0
 51
0.0
1001
ACDBBLOCKREPETAG
1070
     1
1071
        4
1005
127429
  0
LINE
  5
12742A
  8
OBJECT
 10
12086.0
 20
-655.0
 30
0.0
 11
12086.0
 21
-537.0
 31
0.0
1001
ACDBBLOCKREPETAG
1070
     1
1071
        5
1005
12742A
  0
LINE
  5
12742B
  8
CENTER
 10
12101.0
 20
-199.9999999999990905
 30
0.0
 11
12080.0
 21
-199.9999999999990905
 31
0.0
1001
ACDBBLOCKREPETAG
1070
     1
1071
        0
1005
12742B
  0
LINE
  5
12742C
  8
OBJECT
 10
12083.0
 20
-137.9999999999990905
 30
0.0
 11
12080.0
 21
-137.9999999999990905
 31
0.0
1001
ACDBBLOCKREPETAG
1070
     1
1071
        1
1005
12742C
  0
ARC
  5
12742D
  8
OBJECT
 10
12083.0
 20
-140.9999999999990905
 30
0.0
 40
3.0
 50
0.0
 51
90.0
1001
ACDBBLOCKREPETAG
1070
     1
1071
        2
1005
12742D
  0
LINE
  5
12742E
  8
OBJECT
 10
12080.0
 20
-261.9999999999990905
 30
0.0
 11
12083.0
 21
-261.9999999999990905
 31
0.0
1001
ACDBBLOCKREPETAG
1070
     1
1071
        3
1005
12742E
  0
ARC
  5
12742F
  8
OBJECT
 10
12083.0
 20
-258.9999999999990905
 30
0.0
 40
3.0
 50
270.0
 51
0.0
1001
ACDBBLOCKREPETAG
1070
     1
1071
        4
1005
12742F
  0
LINE
  5
127430
  8
OBJECT
 10
12086.0
 20
-258.9999999999990905
 30
0.0
 11
12086.0
 21
-140.9999999999990905
 31
0.0
1001
ACDBBLOCKREPETAG
1070
     1
1071
        5
1005
127430
  0
LINE
  5
127431
  8
SLIM
 10
9927.3018300565254322
 20
-155.9548403695766865
 30
0.0
 11
9955.9548403695771412
 21
-127.3018300565224052
 31
0.0
1001
GRADIENTCOLOR1ACI
1070
     5
1001
GRADIENTCOLOR2ACI
1070
     2
1001
ACAD
1010
0.0
1020
0.0
1030
0.0
1001
ACDBBLOCKREPETAG
1070
     1
1071
      416
1005
127431
  0
LINE
  5
127432
  8
SLIM
 10
9919.4861520708382159
 20
-172.7507744763317987
 30
0.0
 11
9938.2903089572737372
 21
-153.9466175898965048
 31
0.0
1001
GRADIENTCOLOR1ACI
1070
     5
1001
GRADIENTCOLOR2ACI
1070
     2
1001
ACAD
1010
0.0
1020
0.0
1030
0.0
1001
ACDBBLOCKREPETAG
1070
     1
1071
      417
1005
127432
  0
LINE
  5
127433
  8
SLIM
 10
9953.946617589899688
 20
-138.2903089572716908
 30
0.0
 11
9972.7507744763333903
 21
-119.4861520708364964
 31
0.0
1001
GRADIENTCOLOR1ACI
1070
     5
1001
GRADIENTCOLOR2ACI
1070
     2
1001
ACAD
1010
0.0
1020
0.0
1030
0.0
1001
ACDBBLOCKREPETAG
1070
     1
1071
      418
1005
127433
  0
LINE
  5
127434
  8
SLIM
 10
9916.3596679933798441
 20
-184.8575146748603117
 30
0.0
 11
9920.236091437007417
 21
-180.9810912312296978
 31
0.0
1001
GRADIENTCOLOR1ACI
1070
     5
1001
GRADIENTCOLOR2ACI
1070
     2
1001
ACAD
1010
0.0
1020
0.0
1030
0.0
1001
ACDBBLOCKREPETAG
1070
     1
1071
      419
1005
127434
  0
LINE
  5
127435
  8
SLIM
 10
9980.9810912312332221
 20
-120.2360914370078007
 30
0.0
 11
9984.8575146748644329
 21
-116.3596679933770019
 31
0.0
1001
GRADIENTCOLOR1ACI
1070
     5
1001
GRADIENTCOLOR2ACI
1070
     2
1001
ACAD
1010
0.0
1020
0.0
1030
0.0
1001
ACDBBLOCKREPETAG
1070
     1
1071
      420
1005
127435
  0
LINE
  5
127436
  8
SLIM
 10
9915.144057589055592
 20
-195.0533812002549041
 30
0.0
 11
9918.4125503387294884
 21
-191.7848884505795866
 31
0.0
1001
GRADIENTCOLOR1ACI
1070
     5
1001
GRADIENTCOLOR2ACI
1070
     2
1001
ACAD
1010
0.0
1020
0.0
1030
0.0
1001
ACDBBLOCKREPETAG
1070
     1
1071
      421
1005
127436
  0
LINE
  5
127437
  8
SLIM
 10
9991.7848884505783644
 20
-118.412550338727101
 30
0.0
 11
9995.0533812002577179
 21
-115.1440575890515987
 31
0.0
1001
GRADIENTCOLOR1ACI
1070
     5
1001
GRADIENTCOLOR2ACI
1070
     2
1001
ACAD
1010
0.0
1020
0.0
1030
0.0
1001
ACDBBLOCKREPETAG
1070
     1
1071
      422
1005
127437
  0
LINE
  5
127438
  8
SLIM
 10
9915.0979635574713029
 20
-204.0797313529033943
 30
0.0
 11
9918.00833819905165
 21
-201.1693567113285894
 31
0.0
1001
GRADIENTCOLOR1ACI
1070
     5
1001
GRADIENTCOLOR2ACI
1070
     2
1001
ACAD
1010
0.0
1020
0.0
1030
0.0
1001
ACDBBLOCKREPETAG
1070
     1
1071
      423
1005
127438
  0
LINE
  5
127439
  8
SLIM
 10
10001.1693567113306926
 20
-118.008338199047202
 30
0.0
 11
10004.0797313529001258
 21
-115.0979635574723972
 31
0.0
1001
GRADIENTCOLOR1ACI
1070
     5
1001
GRADIENTCOLOR2ACI
1070
     2
1001
ACAD
1010
0.0
1020
0.0
1030
0.0
1001
ACDBBLOCKREPETAG
1070
     1
1071
      424
1005
127439
  0
LINE
  5
12743A
  8
SLIM
 10
9915.889972620874687
 20
-212.2679784105739031
 30
0.0
 11
9918.5632639426894457
 21
-209.5946870887607076
 31
0.0
1001
GRADIENTCOLOR1ACI
1070
     5
1001
GRADIENTCOLOR2ACI
1070
     2
1001
ACAD
1010
0.0
1020
0.0
1030
0.0
1001
ACDBBLOCKREPETAG
1070
     1
1071
      425
1005
12743A
  0
LINE
  5
12743B
  8
SLIM
 10
10009.5946870887601108
 20
-118.5632639426843014
 30
0.0
 11
10012.2679784105603176
 21
-115.8899726208710064
 31
0.0
1001
GRADIENTCOLOR1ACI
1070
     5
1001
GRADIENTCOLOR2ACI
1070
     2
1001
ACAD
1010
0.0
1020
0.0
1030
0.0
1001
ACDBBLOCKREPETAG
1070
     1
1071
      426
1005
12743B
  0
LINE
  5
12743C
  8
SLIM
 10
9917.338265695154405
 20
-219.799941457361399
 30
0.0
 11
9919.844379359490631
 21
-217.2938277930240929
 31
0.0
1001
GRADIENTCOLOR1ACI
1070
     5
1001
GRADIENTCOLOR2ACI
1070
     2
1001
ACAD
1010
0.0
1020
0.0
1030
0.0
1001
ACDBBLOCKREPETAG
1070
     1
1071
      427
1005
12743C
  0
LINE
  5
12743D
  8
SLIM
 10
10017.2938277930206823
 20
-119.8443793594900058
 30
0.0
 11
10019.7999414573605463
 21
-117.3382656951526997
 31
0.0
1001
GRADIENTCOLOR1ACI
1070
     5
1001
GRADIENTCOLOR2ACI
1070
     2
1001
ACAD
1010
0.0
1020
0.0
1030
0.0
1001
ACDBBLOCKREPETAG
1070
     1
1071
      428
1005
12743D
  0
LINE
  5
12743E
  8
SLIM
 10
9919.3312594063045253
 20
-226.7872038672788051
 30
0.0
 11
9922.8446926367923879
 21
-223.2737706367921078
 31
0.0
1001
GRADIENTCOLOR1ACI
1070
     5
1001
GRADIENTCOLOR2ACI
1070
     2
1001
ACAD
1010
0.0
1020
0.0
1030
0.0
1001
ACDBBLOCKREPETAG
1070
     1
1071
      429
1005
12743E
  0
LINE
  5
12743F
  8
SLIM
 10
10023.2737716367901157
 20
-122.8446916367926036
 30
0.0
 11
10026.7872038672794588
 21
-119.3312594063044969
 31
0.0
1001
GRADIENTCOLOR1ACI
1070
     5
1001
GRADIENTCOLOR2ACI
1070
     2
1001
ACAD
1010
0.0
1020
0.0
1030
0.0
1001
ACDBBLOCKREPETAG
1070
     1
1071
      430
1005
12743F
  0
LINE
  5
127440
  8
SLIM
 10
9921.7957163186183607
 20
-233.3030030760328088
 30
0.0
 11
9927.3348206973296328
 21
-227.7638986973267947
 31
0.0
1001
GRADIENTCOLOR1ACI
1070
     5
1001
GRADIENTCOLOR2ACI
1070
     2
1001
ACAD
1010
0.0
1020
0.0
1030
0.0
1001
ACDBBLOCKREPETAG
1070
     1
1071
      431
1005
127440
  0
LINE
  5
127441
  8
SLIM
 10
10027.7638996973200847
 20
-127.3348196973292943
 30
0.0
 11
10033.3030030760291993
 21
-121.7957163186194975
 31
0.0
1001
GRADIENTCOLOR1ACI
1070
     5
1001
GRADIENTCOLOR2ACI
1070
     2
1001
ACAD
1010
0.0
1020
0.0
1030
0.0
1001
ACDBBLOCKREPETAG
1070
     1
1071
      432
1005
127441
  0
LINE
  5
127442
  8
SLIM
 10
9924.681663531344384
 20
-239.397311984377609
 30
0.0
 11
9930.6398768643921358
 21
-233.4390986513296014
 31
0.0
1001
GRADIENTCOLOR1ACI
1070
     5
1001
GRADIENTCOLOR2ACI
1070
     2
1001
ACAD
1010
0.0
1020
0.0
1030
0.0
1001
ACDBBLOCKREPETAG
1070
     1
1071
      433
1005
127442
  0
LINE
  5
127443
  8
SLIM
 10
10033.439098651329914
 20
-130.6398768643919084
 30
0.0
 11
10039.3973119843703898
 21
-124.6816635313440003
 31
0.0
1001
GRADIENTCOLOR1ACI
1070
     5
1001
GRADIENTCOLOR2ACI
1070
     2
1001
ACAD
1010
0.0
1020
0.0
1030
0.0
1001
ACDBBLOCKREPETAG
1070
     1
1071
      434
1005
127443
  0
LINE
  5
127444
  8
SLIM
 10
9927.9544611024248297
 20
-245.1047705343667928
 30
0.0
 11
9933.7750070149922976
 21
-239.2842246217975912
 31
0.0
1001
GRADIENTCOLOR1ACI
1070
     5
1001
GRADIENTCOLOR2ACI
1070
     2
1001
ACAD
1010
0.0
1020
0.0
1030
0.0
1001
ACDBBLOCKREPETAG
1070
     1
1071
      435
1005
127444
  0
LINE
  5
127445
  8
SLIM
 10
10039.2842246218006039
 20
-133.7750070149930934
 30
0.0
 11
10045.1047705343607959
 21
-127.9544611024238066
 31
0.0
1001
GRADIENTCOLOR1ACI
1070
     5
1001
GRADIENTCOLOR2ACI
1070
     2
1001
ACAD
1010
0.0
1020
0.0
1030
0.0
1001
ACDBBLOCKREPETAG
1070
     1
1071
      436
1005
127445
  0
LINE
  5
127446
  8
SLIM
 10
9931.5903319686658506
 20
-250.449155789195288
 30
0.0
 11
9937.3182075880577031
 21
-244.7212801698034923
 31
0.0
1001
GRADIENTCOLOR1ACI
1070
     5
1001
GRADIENTCOLOR2ACI
1070
     2
1001
ACAD
1010
0.0
1020
0.0
1030
0.0
1001
ACDBBLOCKREPETAG
1070
     1
1071
      437
1005
127446
  0
LINE
  5
127447
  8
SLIM
 10
10044.7212801698005933
 20
-137.3182075880565094
 30
0.0
 11
10050.4491557891906268
 21
-131.5903319686644863
 31
0.0
1001
GRADIENTCOLOR1ACI
1070
     5
1001
GRADIENTCOLOR2ACI
1070
     2
1001
ACAD
1010
0.0
1020
0.0
1030
0.0
1001
ACDBBLOCKREPETAG
1070
     1
1071
      438
1005
127447
  0
LINE
  5
127448
  8
SLIM
 10
9935.5737496925303276
 20
-255.4459941864033112
 30
0.0
 11
9941.2481105415972706
 21
-249.7716333373402904
 31
0.0
1001
GRADIENTCOLOR1ACI
1070
     5
1001
GRADIENTCOLOR2ACI
1070
     2
1001
ACAD
1010
0.0
1020
0.0
1030
0.0
1001
ACDBBLOCKREPETAG
1070
     1
1071
      439
1005
127448
  0
LINE
  5
127449
  8
SLIM
 10
10053.0197438789200532
 20
-137.9999999999990052
 30
0.0
 11
10055.4459941864006396
 21
-135.5737496925256096
 31
0.0
1001
GRADIENTCOLOR1ACI
1070
     5
1001
GRADIENTCOLOR2ACI
1070
     2
1001
ACAD
1010
0.0
1020
0.0
1030
0.0
1001
ACDBBLOCKREPETAG
1070
     1
1071
      440
1005
127449
  0
LINE
  5
12744A
  8
SLIM
 10
9939.8959235991442256
 20
-260.1040764008554902
 30
0.0
 11
9945.55277784863938
 21
-254.4472221513632917
 31
0.0
1001
GRADIENTCOLOR1ACI
1070
     5
1001
GRADIENTCOLOR2ACI
1070
     2
1001
ACAD
1010
0.0
1020
0.0
1030
0.0
1001
ACDBBLOCKREPETAG
1070
     1
1071
      441
1005
12744A
  0
LINE
  5
12744B
  8
SLIM
 10
9944.5540058135957224
 20
-264.4262503074725146
 30
0.0
 11
9950.2283666626553895
 21
-258.7518894584094937
 31
0.0
1001
GRADIENTCOLOR1ACI
1070
     5
1001
GRADIENTCOLOR2ACI
1070
     2
1001
ACAD
1010
0.0
1020
0.0
1030
0.0
1001
ACDBBLOCKREPETAG
1070
     1
1071
      442
1005
12744B
  0
LINE
  5
12744C
  8
SLIM
 10
9949.5508442108057352
 20
-268.4096680313336947
 30
0.0
 11
9955.2787198301975877
 21
-262.6817924119416716
 31
0.0
1001
GRADIENTCOLOR1ACI
1070
     5
1001
GRADIENTCOLOR2ACI
1070
     2
1001
ACAD
1010
0.0
1020
0.0
1030
0.0
1001
ACDBBLOCKREPETAG
1070
     1
1071
      443
1005
12744C
  0
LINE
  5
12744D
  8
SLIM
 10
9954.8952294656319282
 20
-272.0455388975743745
 30
0.0
 11
9960.7157753782012151
 21
-266.2249929850049739
 31
0.0
1001
GRADIENTCOLOR1ACI
1070
     5
1001
GRADIENTCOLOR2ACI
1070
     2
1001
ACAD
1010
0.0
1020
0.0
1030
0.0
1001
ACDBBLOCKREPETAG
1070
     1
1071
      444
1005
12744D
  0
LINE
  5
12744E
  8
SLIM
 10
9960.6026880156223342
 20
-275.318336468654195
 30
0.0
 11
9966.560901348675543
 21
-269.3601231356062158
 31
0.0
1001
GRADIENTCOLOR1ACI
1070
     5
1001
GRADIENTCOLOR2ACI
1070
     2
1001
ACAD
1010
0.0
1020
0.0
1030
0.0
1001
ACDBBLOCKREPETAG
1070
     1
1071
      445
1005
12744E
  0
LINE
  5
12744F
  8
SLIM
 10
9966.6969969239653437
 20
-278.2042836813786266
 30
0.0
 11
9972.2361008026728086
 21
-272.6651798026716165
 31
0.0
1001
GRADIENTCOLOR1ACI
1070
     5
1001
GRADIENTCOLOR2ACI
1070
     2
1001
ACAD
1010
0.0
1020
0.0
1030
0.0
1001
ACDBBLOCKREPETAG
1070
     1
1071
      446
1005
12744F
  0
LINE
  5
127450
  8
SLIM
 10
9973.2127961327205412
 20
-280.6687405936937125
 30
0.0
 11
9976.7262288632064156
 21
-277.1553078632056213
 31
0.0
1001
GRADIENTCOLOR1ACI
1070
     5
1001
GRADIENTCOLOR2ACI
1070
     2
1001
ACAD
1010
0.0
1020
0.0
1030
0.0
1001
ACDBBLOCKREPETAG
1070
     1
1071
      447
1005
127450
  0
LINE
  5
127451
  8
SLIM
 10
9980.2000585426394537
 20
-282.6617343048454813
 30
0.0
 11
9982.7061722069756797
 21
-280.1556206405081184
 31
0.0
1001
GRADIENTCOLOR1ACI
1070
     5
1001
GRADIENTCOLOR2ACI
1070
     2
1001
ACAD
1010
0.0
1020
0.0
1030
0.0
1001
ACDBBLOCKREPETAG
1070
     1
1071
      448
1005
127451
  0
LINE
  5
127452
  8
SLIM
 10
9987.7320215894251305
 20
-284.1100273791270752
 30
0.0
 11
9990.4053129112417082
 21
-281.4367360573139081
 31
0.0
1001
GRADIENTCOLOR1ACI
1070
     5
1001
GRADIENTCOLOR2ACI
1070
     2
1001
ACAD
1010
0.0
1020
0.0
1030
0.0
1001
ACDBBLOCKREPETAG
1070
     1
1071
      449
1005
127452
  0
LINE
  5
127453
  8
SLIM
 10
9995.9202686470962362
 20
-284.9020364425256844
 30
0.0
 11
9998.8306432886711264
 21
-281.9916618009510216
 31
0.0
1001
GRADIENTCOLOR1ACI
1070
     5
1001
GRADIENTCOLOR2ACI
1070
     2
1001
ACAD
1010
0.0
1020
0.0
1030
0.0
1001
ACDBBLOCKREPETAG
1070
     1
1071
      450
1005
127453
  0
LINE
  5
127454
  8
SLIM
 10
10004.9466187997404631
 20
-284.8559424109463976
 30
0.0
 11
10008.2151115494198166
 21
-281.58744966127108
 31
0.0
1001
GRADIENTCOLOR1ACI
1070
     5
1001
GRADIENTCOLOR2ACI
1070
     2
1001
ACAD
1010
0.0
1020
0.0
1030
0.0
1001
ACDBBLOCKREPETAG
1070
     1
1071
      451
1005
127454
  0
LINE
  5
127455
  8
SLIM
 10
10015.1424853251392051
 20
-283.6403320066211222
 30
0.0
 11
10019.0189087687704159
 21
-279.7639085629903093
 31
0.0
1001
GRADIENTCOLOR1ACI
1070
     5
1001
GRADIENTCOLOR2ACI
1070
     2
1001
ACAD
1010
0.0
1020
0.0
1030
0.0
1001
ACDBBLOCKREPETAG
1070
     1
1071
      452
1005
127455
  0
LINE
  5
127456
  8
SLIM
 10
10027.2492255236593337
 20
-280.5138479291617273
 30
0.0
 11
10045.7630734528302128
 21
-261.9999999999990905
 31
0.0
1001
GRADIENTCOLOR1ACI
1070
     5
1001
GRADIENTCOLOR2ACI
1070
     2
1001
ACAD
1010
0.0
1020
0.0
1030
0.0
1001
ACDBBLOCKREPETAG
1070
     1
1071
      453
1005
127456
  0
LINE
  5
127457
  8
SLIM
 10
10044.0451596304192208
 20
-272.6981699434757047
 30
0.0
 11
10054.7433295738992456
 21
-261.9999999999990905
 31
0.0
1001
GRADIENTCOLOR1ACI
1070
     5
1001
GRADIENTCOLOR2ACI
1070
     2
1001
ACAD
1010
0.0
1020
0.0
1030
0.0
1001
ACDBBLOCKREPETAG
1070
     1
1071
      454
1005
127457
  0
ARC
  5
127458
  8
OBJECT
 10
10000.0
 20
-199.9999999999990905
 30
0.0
 40
77.0
 50
202.2588689998227096
 51
247.7411309999042999
1001
ACDBBLOCKREPETAG
1070
     1
1071
      212
1005
127458
  0
ARC
  5
127459
  8
OBJECT
 10
10000.0
 20
-199.9999999999990905
 30
0.0
 40
77.0
 50
292.2588690000956149
 51
337.7411310001771767
1001
ACDBBLOCKREPETAG
1070
     1
1071
      215
1005
127459
  0
ARC
  5
12745A
  8
OBJECT
 10
10000.0
 20
-199.9999999999990905
 30
0.0
 40
77.0
 50
112.2588690000957001
 51
157.7411310001772051
1001
ACDBBLOCKREPETAG
1070
     1
1071
      216
1005
12745A
  0
ARC
  5
12745B
  8
OBJECT
 10
10000.0
 20
-199.9999999999990905
 30
0.0
 40
77.0
 50
22.2588689998227203
 51
67.7411309999043283
1001
ACDBBLOCKREPETAG
1070
     1
1071
      220
1005
12745B
  0
CIRCLE
  5
12745C
  8
OBJECT
 10
10000.0
 20
-199.9999999999990905
 30
0.0
 40
70.0
1001
ACDBBLOCKREPETAG
1070
     1
1071
      221
1005
12745C
  0
LINE
  5
12745D
  8
OBJECT
 10
10029.1669749999800842
 20
-271.2621049999988827
 30
0.0
 11
10021.2231624440992164
 21
-279.2059175558924835
 31
0.0
1001
ACDBBLOCKREPETAG
1070
     1
1071
      222
1005
12745D
  0
LINE
  5
12745E
  8
OBJECT
 10
9970.8330259999984264
 20
-271.2621049999988827
 30
0.0
 11
9978.7768389219199889
 21
-279.2059179219168072
 31
0.0
1001
ACDBBLOCKREPETAG
1070
     1
1071
      223
1005
12745E
  0
ARC
  5
12745F
  8
OBJECT
 10
10000.0
 20
-199.9999999999990905
 30
0.0
 40
82.0000000000000142
 50
255.0000004486402929
 51
285.0000005396947813
1001
ACDBBLOCKREPETAG
1070
     1
1071
      224
1005
12745F
  0
LINE
  5
127460
  8
OBJECT
 10
9928.7378959999969084
 20
-229.1669739999989019
 30
0.0
 11
9920.7940817120543215
 21
-221.2231597120544961
 31
0.0
1001
ACDBBLOCKREPETAG
1070
     1
1071
      225
1005
127460
  0
ARC
  5
127461
  8
OBJECT
 10
10000.0
 20
-199.9999999999990905
 30
0.0
 40
82.0000000000000142
 50
165.0000004487505976
 51
194.9999985629999912
1001
ACDBBLOCKREPETAG
1070
     1
1071
      226
1005
127461
  0
LINE
  5
127462
  8
OBJECT
 10
9970.8330259999984264
 20
-128.7378949999992983
 30
0.0
 11
9978.7768389219199889
 21
-120.7940820780794979
 31
0.0
1001
ACDBBLOCKREPETAG
1070
     1
1071
      227
1005
127462
  0
ARC
  5
127463
  8
OBJECT
 10
10000.0
 20
-199.9999999999990905
 30
0.0
 40
82.0000000000000142
 50
74.9999994603052045
 51
104.9999995513597071
1001
ACDBBLOCKREPETAG
1070
     1
1071
      228
1005
127463
  0
LINE
  5
127464
  8
OBJECT
 10
10029.1669749999800842
 20
-128.7378949999992983
 30
0.0
 11
10021.2231624440992164
 21
-120.7940824441039069
 31
0.0
1001
ACDBBLOCKREPETAG
1070
     1
1071
      229
1005
127464
  0
LINE
  5
127465
  8
OBJECT
 10
9962.4020590000018274
 20
-161.9389330000003895
 30
0.0
 11
10037.0841102714202862
 21
-174.5180316957439004
 31
0.0
1001
ACDBBLOCKREPETAG
1070
     1
1071
      230
1005
127465
  0
LINE
  5
127466
  8
OBJECT
 10
10044.093656999990344
 20
-169.7014939999999115
 30
0.0
 11
10037.0841102714202862
 21
-174.5180316957439004
 31
0.0
1001
ACDBBLOCKREPETAG
1070
     1
1071
      231
1005
127466
  0
LINE
  5
127467
  8
OBJECT
 10
9928.7378959999969084
 20
-170.8330249999989974
 30
0.0
 11
9920.7940820780804643
 21
-178.7768389219191079
 31
0.0
1001
ACDBBLOCKREPETAG
1070
     1
1071
      232
1005
127467
  0
CIRCLE
  5
127468
  8
OBJECT
 10
10000.0
 20
-199.9999999999990905
 30
0.0
 40
53.5000000000000071
1001
ACDBBLOCKREPETAG
1070
     1
1071
      233
1005
127468
  0
ARC
  5
127469
  8
OBJECT
 10
10000.0
 20
-199.9999999999990905
 30
0.0
 40
50.0
 50
131.7018096435265022
 51
168.5237695595575076
1001
ACDBBLOCKREPETAG
1070
     1
1071
      234
1005
127469
  0
ARC
  5
12746A
  8
OBJECT
 10
10000.0
 20
-199.9999999999990905
 30
0.0
 40
50.0
 50
238.819942999904697
 51
34.4945062501157125
1001
ACDBBLOCKREPETAG
1070
     1
1071
      235
1005
12746A
  0
LINE
  5
12746B
  8
OBJECT
 10
10071.2621049999906973
 20
-170.8330249999989974
 30
0.0
 11
10079.205917555889755
 21
-178.7768375558943035
 31
0.0
1001
ACDBBLOCKREPETAG
1070
     1
1071
      236
1005
12746B
  0
ARC
  5
12746C
  8
OBJECT
 10
10000.0
 20
-199.9999999999990905
 30
0.0
 40
82.0000000000000142
 50
345.0000004487505976
 51
15.0000005393456508
1001
ACDBBLOCKREPETAG
1070
     1
1071
      237
1005
12746C
  0
LINE
  5
12746D
  8
OBJECT
 10
10071.2621049999906973
 20
-229.1669739999989019
 30
0.0
 11
10079.2059179219195357
 21
-221.2231610780791016
 31
0.0
1001
ACDBBLOCKREPETAG
1070
     1
1071
      238
1005
12746D
  0
LINE
  5
12746E
  8
OBJECT
 10
10045.6618002273207821
 20
-137.9999999999990905
 30
0.0
 11
10080.0
 21
-137.9999999999990905
 31
0.0
1001
ACDBBLOCKREPETAG
1070
     1
1071
      239
1005
12746E
  0
LINE
  5
12746F
  8
OBJECT
 10
10045.6618002273207821
 20
-261.9999999999990905
 30
0.0
 11
10080.0
 21
-261.9999999999990905
 31
0.0
1001
ACDBBLOCKREPETAG
1070
     1
1071
      240
1005
12746F
  0
LINE
  5
127470
  8
CENTER
 10
10080.0
 20
-199.9999999999990905
 30
0.0
 11
9900.0018972160614794
 21
-199.9999999999990905
 31
0.0
1001
ACDBBLOCKREPETAG
1070
     1
1071
      249
1005
127470
  0
LINE
  5
127471
  8
CENTER
 10
10000.0
 20
-299.9999999999990905
 30
0.0
 11
10000.0
 21
-99.9999999999990763
 31
0.0
1001
ACDBBLOCKREPETAG
1070
     1
1071
      250
1005
127471
  0
ARC
  5
127472
  8
OBJECT
 10
10000.0
 20
-199.9999999999990905
 30
0.0
 40
85.0
 50
46.8371028598520383
 51
313.1628971401478907
1001
ACDBBLOCKREPETAG
1070
     1
1071
      251
1005
127472
  0
LINE
  5
127473
  8
OBJECT
 10
9946.6921941437576606
 20
-195.4663816131605074
 30
0.0
 11
9970.4540343856351683
 21
-193.7986514643698115
 31
0.0
1001
ACDBBLOCKREPETAG
1070
     1
1071
      340
1005
127473
  0
LINE
  5
127474
  8
OBJECT
 10
9947.3854347270644212
 20
-190.305593971766001
 30
0.0
 11
9966.9884352628978377
 21
-188.9297527266016061
 31
0.0
1001
ACDBBLOCKREPETAG
1070
     1
1071
      341
1005
127474
  0
LINE
  5
127475
  8
OBJECT
 10
9974.1135374752775533
 20
-242.7772259263720116
 30
0.0
 11
9982.1366988374084031
 21
-234.1690987954708021
 31
0.0
1001
ACDBBLOCKREPETAG
1070
     1
1071
      342
1005
127475
  0
ARC
  5
127476
  8
OBJECT
 10
9982.1160071245412837
 20
-183.2818896631823975
 30
0.0
 40
60.0311132460326178
 50
254.0702013041274938
 51
262.3393610608658832
1001
ACDBBLOCKREPETAG
1070
     1
1071
      343
1005
127476
  0
LINE
  5
127477
  8
OBJECT
 10
9977.6125997325161734
 20
-197.6749527714991927
 30
0.0
 11
9982.1366988374084031
 21
-234.1690987954708021
 31
0.0
1001
ACDBBLOCKREPETAG
1070
     1
1071
      344
1005
127477
  0
ARC
  5
127478
  8
OBJECT
 10
9967.6885653456411092
 20
-198.9052135113188058
 30
0.0
 40
10.0
 50
7.0667782929989968
 51
94.0147343705324232
1001
ACDBBLOCKREPETAG
1070
     1
1071
      345
1005
127478
  0
ARC
  5
127479
  8
OBJECT
 10
9970.9441253709755983
 20
-200.7814740187558868
 30
0.0
 40
7.0
 50
7.0667782929989968
 51
94.0147337750146477
1001
ACDBBLOCKREPETAG
1070
     1
1071
      346
1005
127479
  0
POINT
  5
12747A
  8
DOTS
 10
10000.0
 20
-199.9999999999990905
 30
0.0
 50
270.0
1001
ACDBBLOCKREPETAG
1070
     1
1071
      349
1005
12747A
  0
LINE
  5
12747B
  8
OBJECT
 10
10083.0
 20
-534.0
 30
0.0
 11
10080.0
 21
-534.0
 31
0.0
1001
ACDBBLOCKREPETAG
1070
     1
1071
        1
1005
12747B
  0
ARC
  5
12747C
  8
OBJECT
 10
10083.0
 20
-537.0
 30
0.0
 40
3.0
 50
0.0
 51
90.0
1001
ACDBBLOCKREPETAG
1070
     1
1071
        2
1005
12747C
  0
LINE
  5
12747D
  8
OBJECT
 10
10080.0
 20
-658.0
 30
0.0
 11
10083.0
 21
-658.0
 31
0.0
1001
ACDBBLOCKREPETAG
1070
     1
1071
        3
1005
12747D
  0
ARC
  5
12747E
  8
OBJECT
 10
10083.0
 20
-655.0
 30
0.0
 40
3.0
 50
270.0
 51
0.0
1001
ACDBBLOCKREPETAG
1070
     1
1071
        4
1005
12747E
  0
LINE
  5
12747F
  8
OBJECT
 10
10086.0
 20
-655.0
 30
0.0
 11
10086.0
 21
-537.0
 31
0.0
1001
ACDBBLOCKREPETAG
1070
     1
1071
        5
1005
12747F
  0
LINE
  5
127480
  8
CENTER
 10
10101.0
 20
-199.9999999999990905
 30
0.0
 11
10080.0
 21
-199.9999999999990905
 31
0.0
1001
ACDBBLOCKREPETAG
1070
     1
1071
        0
1005
127480
  0
LINE
  5
127481
  8
OBJECT
 10
10083.0
 20
-137.9999999999990905
 30
0.0
 11
10080.0
 21
-137.9999999999990905
 31
0.0
1001
ACDBBLOCKREPETAG
1070
     1
1071
        1
1005
127481
  0
ARC
  5
127482
  8
OBJECT
 10
10083.0
 20
-140.9999999999990905
 30
0.0
 40
3.0
 50
0.0
 51
90.0
1001
ACDBBLOCKREPETAG
1070
     1
1071
        2
1005
127482
  0
LINE
  5
127483
  8
OBJECT
 10
10080.0
 20
-261.9999999999990905
 30
0.0
 11
10083.0
 21
-261.9999999999990905
 31
0.0
1001
ACDBBLOCKREPETAG
1070
     1
1071
        3
1005
127483
  0
ARC
  5
127484
  8
OBJECT
 10
10083.0
 20
-258.9999999999990905
 30
0.0
 40
3.0
 50
270.0
 51
0.0
1001
ACDBBLOCKREPETAG
1070
     1
1071
        4
1005
127484
  0
LINE
  5
127485
  8
OBJECT
 10
10086.0
 20
-258.9999999999990905
 30
0.0
 11
10086.0
 21
-140.9999999999990905
 31
0.0
1001
ACDBBLOCKREPETAG
1070
     1
1071
        5
1005
127485
  0
LINE
  5
127486
  8
SLIM
 10
7927.3018300565236132
 20
-155.9548403695766865
 30
0.0
 11
7955.9548403695753223
 21
-127.3018300565224052
 31
0.0
1001
GRADIENTCOLOR1ACI
1070
     5
1001
GRADIENTCOLOR2ACI
1070
     2
1001
ACAD
1010
0.0
1020
0.0
1030
0.0
1001
ACDBBLOCKREPETAG
1070
     1
1071
      416
1005
127486
  0
LINE
  5
127487
  8
SLIM
 10
7919.4861520708373064
 20
-172.7507744763317987
 30
0.0
 11
7938.2903089572737372
 21
-153.9466175898965048
 31
0.0
1001
GRADIENTCOLOR1ACI
1070
     5
1001
GRADIENTCOLOR2ACI
1070
     2
1001
ACAD
1010
0.0
1020
0.0
1030
0.0
1001
ACDBBLOCKREPETAG
1070
     1
1071
      417
1005
127487
  0
LINE
  5
127488
  8
SLIM
 10
7953.946617589897869
 20
-138.2903089572716908
 30
0.0
 11
7972.7507744763333903
 21
-119.4861520708364964
 31
0.0
1001
GRADIENTCOLOR1ACI
1070
     5
1001
GRADIENTCOLOR2ACI
1070
     2
1001
ACAD
1010
0.0
1020
0.0
1030
0.0
1001
ACDBBLOCKREPETAG
1070
     1
1071
      418
1005
127488
  0
LINE
  5
127489
  8
SLIM
 10
7916.3596679933771156
 20
-184.8575146748603117
 30
0.0
 11
7920.2360914370101455
 21
-180.9810912312296978
 31
0.0
1001
GRADIENTCOLOR1ACI
1070
     5
1001
GRADIENTCOLOR2ACI
1070
     2
1001
ACAD
1010
0.0
1020
0.0
1030
0.0
1001
ACDBBLOCKREPETAG
1070
     1
1071
      419
1005
127489
  0
LINE
  5
12748A
  8
SLIM
 10
7980.9810912312295841
 20
-120.2360914370078007
 30
0.0
 11
7984.8575146748607949
 21
-116.3596679933770019
 31
0.0
1001
GRADIENTCOLOR1ACI
1070
     5
1001
GRADIENTCOLOR2ACI
1070
     2
1001
ACAD
1010
0.0
1020
0.0
1030
0.0
1001
ACDBBLOCKREPETAG
1070
     1
1071
      420
1005
12748A
  0
LINE
  5
12748B
  8
SLIM
 10
7915.1440575890528635
 20
-195.0533812002549041
 30
0.0
 11
7918.4125503387258505
 21
-191.7848884505795866
 31
0.0
1001
GRADIENTCOLOR1ACI
1070
     5
1001
GRADIENTCOLOR2ACI
1070
     2
1001
ACAD
1010
0.0
1020
0.0
1030
0.0
1001
ACDBBLOCKREPETAG
1070
     1
1071
      421
1005
12748B
  0
LINE
  5
12748C
  8
SLIM
 10
7991.7848884505801834
 20
-118.412550338727101
 30
0.0
 11
7995.0533812002540799
 21
-115.1440575890515987
 31
0.0
1001
GRADIENTCOLOR1ACI
1070
     5
1001
GRADIENTCOLOR2ACI
1070
     2
1001
ACAD
1010
0.0
1020
0.0
1030
0.0
1001
ACDBBLOCKREPETAG
1070
     1
1071
      422
1005
12748C
  0
LINE
  5
12748D
  8
SLIM
 10
7915.0979635574731219
 20
-204.0797313529033943
 30
0.0
 11
7918.008338199048012
 21
-201.1693567113285894
 31
0.0
1001
GRADIENTCOLOR1ACI
1070
     5
1001
GRADIENTCOLOR2ACI
1070
     2
1001
ACAD
1010
0.0
1020
0.0
1030
0.0
1001
ACDBBLOCKREPETAG
1070
     1
1071
      423
1005
12748D
  0
LINE
  5
12748E
  8
SLIM
 10
8001.1693567113279641
 20
-118.008338199047202
 30
0.0
 11
8004.0797313529055828
 21
-115.0979635574723972
 31
0.0
1001
GRADIENTCOLOR1ACI
1070
     5
1001
GRADIENTCOLOR2ACI
1070
     2
1001
ACAD
1010
0.0
1020
0.0
1030
0.0
1001
ACDBBLOCKREPETAG
1070
     1
1071
      424
1005
12748E
  0
LINE
  5
12748F
  8
SLIM
 10
7915.8899726208701395
 20
-212.2679784105739031
 30
0.0
 11
7918.5632639426858077
 21
-209.5946870887607076
 31
0.0
1001
GRADIENTCOLOR1ACI
1070
     5
1001
GRADIENTCOLOR2ACI
1070
     2
1001
ACAD
1010
0.0
1020
0.0
1030
0.0
1001
ACDBBLOCKREPETAG
1070
     1
1071
      425
1005
12748F
  0
LINE
  5
127490
  8
SLIM
 10
8009.5946870887619298
 20
-118.5632639426843014
 30
0.0
 11
8012.2679784105748695
 21
-115.8899726208710064
 31
0.0
1001
GRADIENTCOLOR1ACI
1070
     5
1001
GRADIENTCOLOR2ACI
1070
     2
1001
ACAD
1010
0.0
1020
0.0
1030
0.0
1001
ACDBBLOCKREPETAG
1070
     1
1071
      426
1005
127490
  0
LINE
  5
127491
  8
SLIM
 10
7917.338265695152586
 20
-219.799941457361399
 30
0.0
 11
7919.844379359488812
 21
-217.2938277930240929
 31
0.0
1001
GRADIENTCOLOR1ACI
1070
     5
1001
GRADIENTCOLOR2ACI
1070
     2
1001
ACAD
1010
0.0
1020
0.0
1030
0.0
1001
ACDBBLOCKREPETAG
1070
     1
1071
      427
1005
127491
  0
LINE
  5
127492
  8
SLIM
 10
8017.2938277930252298
 20
-119.8443793594900058
 30
0.0
 11
8019.7999414573623653
 21
-117.3382656951526997
 31
0.0
1001
GRADIENTCOLOR1ACI
1070
     5
1001
GRADIENTCOLOR2ACI
1070
     2
1001
ACAD
1010
0.0
1020
0.0
1030
0.0
1001
ACDBBLOCKREPETAG
1070
     1
1071
      428
1005
127492
  0
LINE
  5
127493
  8
SLIM
 10
7919.3312594063054348
 20
-226.7872038672788051
 30
0.0
 11
7922.8446926367932974
 21
-223.2737706367921078
 31
0.0
1001
GRADIENTCOLOR1ACI
1070
     5
1001
GRADIENTCOLOR2ACI
1070
     2
1001
ACAD
1010
0.0
1020
0.0
1030
0.0
1001
ACDBBLOCKREPETAG
1070
     1
1071
      429
1005
127493
  0
LINE
  5
127494
  8
SLIM
 10
8023.2737716367928442
 20
-122.8446916367926036
 30
0.0
 11
8026.7872038672767303
 21
-119.3312594063044969
 31
0.0
1001
GRADIENTCOLOR1ACI
1070
     5
1001
GRADIENTCOLOR2ACI
1070
     2
1001
ACAD
1010
0.0
1020
0.0
1030
0.0
1001
ACDBBLOCKREPETAG
1070
     1
1071
      430
1005
127494
  0
LINE
  5
127495
  8
SLIM
 10
7921.7957163186192702
 20
-233.3030030760328088
 30
0.0
 11
7927.3348206973287233
 21
-227.7638986973267947
 31
0.0
1001
GRADIENTCOLOR1ACI
1070
     5
1001
GRADIENTCOLOR2ACI
1070
     2
1001
ACAD
1010
0.0
1020
0.0
1030
0.0
1001
ACDBBLOCKREPETAG
1070
     1
1071
      431
1005
127495
  0
LINE
  5
127496
  8
SLIM
 10
8027.7638996973237226
 20
-127.3348196973292943
 30
0.0
 11
8033.3030030760328373
 21
-121.7957163186194975
 31
0.0
1001
GRADIENTCOLOR1ACI
1070
     5
1001
GRADIENTCOLOR2ACI
1070
     2
1001
ACAD
1010
0.0
1020
0.0
1030
0.0
1001
ACDBBLOCKREPETAG
1070
     1
1071
      432
1005
127496
  0
LINE
  5
127497
  8
SLIM
 10
7924.6816635313452934
 20
-239.397311984377609
 30
0.0
 11
7930.6398768643939547
 21
-233.4390986513296014
 31
0.0
1001
GRADIENTCOLOR1ACI
1070
     5
1001
GRADIENTCOLOR2ACI
1070
     2
1001
ACAD
1010
0.0
1020
0.0
1030
0.0
1001
ACDBBLOCKREPETAG
1070
     1
1071
      433
1005
127497
  0
LINE
  5
127498
  8
SLIM
 10
8033.439098651329914
 20
-130.6398768643919084
 30
0.0
 11
8039.3973119843776658
 21
-124.6816635313440003
 31
0.0
1001
GRADIENTCOLOR1ACI
1070
     5
1001
GRADIENTCOLOR2ACI
1070
     2
1001
ACAD
1010
0.0
1020
0.0
1030
0.0
1001
ACDBBLOCKREPETAG
1070
     1
1071
      434
1005
127498
  0
LINE
  5
127499
  8
SLIM
 10
7927.9544611024266487
 20
-245.1047705343667928
 30
0.0
 11
7933.7750070149932071
 21
-239.2842246217975912
 31
0.0
1001
GRADIENTCOLOR1ACI
1070
     5
1001
GRADIENTCOLOR2ACI
1070
     2
1001
ACAD
1010
0.0
1020
0.0
1030
0.0
1001
ACDBBLOCKREPETAG
1070
     1
1071
      435
1005
127499
  0
LINE
  5
12749A
  8
SLIM
 10
8039.2842246217996944
 20
-133.7750070149930934
 30
0.0
 11
8045.1047705343698908
 21
-127.9544611024238066
 31
0.0
1001
GRADIENTCOLOR1ACI
1070
     5
1001
GRADIENTCOLOR2ACI
1070
     2
1001
ACAD
1010
0.0
1020
0.0
1030
0.0
1001
ACDBBLOCKREPETAG
1070
     1
1071
      436
1005
12749A
  0
LINE
  5
12749B
  8
SLIM
 10
7931.5903319686649411
 20
-250.449155789195288
 30
0.0
 11
7937.3182075880558841
 21
-244.7212801698034923
 31
0.0
1001
GRADIENTCOLOR1ACI
1070
     5
1001
GRADIENTCOLOR2ACI
1070
     2
1001
ACAD
1010
0.0
1020
0.0
1030
0.0
1001
ACDBBLOCKREPETAG
1070
     1
1071
      437
1005
12749B
  0
LINE
  5
12749C
  8
SLIM
 10
8044.7212801698060503
 20
-137.3182075880565094
 30
0.0
 11
8050.4491557891979028
 21
-131.5903319686644863
 31
0.0
1001
GRADIENTCOLOR1ACI
1070
     5
1001
GRADIENTCOLOR2ACI
1070
     2
1001
ACAD
1010
0.0
1020
0.0
1030
0.0
1001
ACDBBLOCKREPETAG
1070
     1
1071
      438
1005
12749C
  0
LINE
  5
12749D
  8
SLIM
 10
7935.5737496925266896
 20
-255.4459941864033112
 30
0.0
 11
7941.2481105415899947
 21
-249.7716333373402904
 31
0.0
1001
GRADIENTCOLOR1ACI
1070
     5
1001
GRADIENTCOLOR2ACI
1070
     2
1001
ACAD
1010
0.0
1020
0.0
1030
0.0
1001
ACDBBLOCKREPETAG
1070
     1
1071
      439
1005
12749D
  0
LINE
  5
12749E
  8
SLIM
 10
8053.0197438789318767
 20
-137.9999999999990052
 30
0.0
 11
8055.4459941864042776
 21
-135.5737496925256096
 31
0.0
1001
GRADIENTCOLOR1ACI
1070
     5
1001
GRADIENTCOLOR2ACI
1070
     2
1001
ACAD
1010
0.0
1020
0.0
1030
0.0
1001
ACDBBLOCKREPETAG
1070
     1
1071
      440
1005
12749E
  0
LINE
  5
12749F
  8
SLIM
 10
7939.8959235991442256
 20
-260.1040764008554902
 30
0.0
 11
7945.552777848635742
 21
-254.4472221513632917
 31
0.0
1001
GRADIENTCOLOR1ACI
1070
     5
1001
GRADIENTCOLOR2ACI
1070
     2
1001
ACAD
1010
0.0
1020
0.0
1030
0.0
1001
ACDBBLOCKREPETAG
1070
     1
1071
      441
1005
12749F
  0
LINE
  5
1274A0
  8
SLIM
 10
7944.5540058135957224
 20
-264.4262503074725146
 30
0.0
 11
7950.2283666626608465
 21
-258.7518894584094937
 31
0.0
1001
GRADIENTCOLOR1ACI
1070
     5
1001
GRADIENTCOLOR2ACI
1070
     2
1001
ACAD
1010
0.0
1020
0.0
1030
0.0
1001
ACDBBLOCKREPETAG
1070
     1
1071
      442
1005
1274A0
  0
LINE
  5
1274A1
  8
SLIM
 10
7949.5508442108039162
 20
-268.4096680313336947
 30
0.0
 11
7955.2787198301957687
 21
-262.6817924119416716
 31
0.0
1001
GRADIENTCOLOR1ACI
1070
     5
1001
GRADIENTCOLOR2ACI
1070
     2
1001
ACAD
1010
0.0
1020
0.0
1030
0.0
1001
ACDBBLOCKREPETAG
1070
     1
1071
      443
1005
1274A1
  0
LINE
  5
1274A2
  8
SLIM
 10
7954.8952294656310187
 20
-272.0455388975743745
 30
0.0
 11
7960.7157753782021246
 21
-266.2249929850049739
 31
0.0
1001
GRADIENTCOLOR1ACI
1070
     5
1001
GRADIENTCOLOR2ACI
1070
     2
1001
ACAD
1010
0.0
1020
0.0
1030
0.0
1001
ACDBBLOCKREPETAG
1070
     1
1071
      444
1005
1274A2
  0
LINE
  5
1274A3
  8
SLIM
 10
7960.6026880156223342
 20
-275.318336468654195
 30
0.0
 11
7966.560901348668267
 21
-269.3601231356062158
 31
0.0
1001
GRADIENTCOLOR1ACI
1070
     5
1001
GRADIENTCOLOR2ACI
1070
     2
1001
ACAD
1010
0.0
1020
0.0
1030
0.0
1001
ACDBBLOCKREPETAG
1070
     1
1071
      445
1005
1274A3
  0
LINE
  5
1274A4
  8
SLIM
 10
7966.6969969239680722
 20
-278.2042836813786266
 30
0.0
 11
7972.2361008026718991
 21
-272.6651798026716165
 31
0.0
1001
GRADIENTCOLOR1ACI
1070
     5
1001
GRADIENTCOLOR2ACI
1070
     2
1001
ACAD
1010
0.0
1020
0.0
1030
0.0
1001
ACDBBLOCKREPETAG
1070
     1
1071
      446
1005
1274A4
  0
LINE
  5
1274A5
  8
SLIM
 10
7973.2127961327187222
 20
-280.6687405936937125
 30
0.0
 11
7976.7262288632064156
 21
-277.1553078632056213
 31
0.0
1001
GRADIENTCOLOR1ACI
1070
     5
1001
GRADIENTCOLOR2ACI
1070
     2
1001
ACAD
1010
0.0
1020
0.0
1030
0.0
1001
ACDBBLOCKREPETAG
1070
     1
1071
      447
1005
1274A5
  0
LINE
  5
1274A6
  8
SLIM
 10
7980.2000585426394537
 20
-282.6617343048454813
 30
0.0
 11
7982.7061722069729512
 21
-280.1556206405081184
 31
0.0
1001
GRADIENTCOLOR1ACI
1070
     5
1001
GRADIENTCOLOR2ACI
1070
     2
1001
ACAD
1010
0.0
1020
0.0
1030
0.0
1001
ACDBBLOCKREPETAG
1070
     1
1071
      448
1005
1274A6
  0
LINE
  5
1274A7
  8
SLIM
 10
7987.73202158942604
 20
-284.1100273791270752
 30
0.0
 11
7990.4053129112398892
 21
-281.4367360573139081
 31
0.0
1001
GRADIENTCOLOR1ACI
1070
     5
1001
GRADIENTCOLOR2ACI
1070
     2
1001
ACAD
1010
0.0
1020
0.0
1030
0.0
1001
ACDBBLOCKREPETAG
1070
     1
1071
      449
1005
1274A7
  0
LINE
  5
1274A8
  8
SLIM
 10
7995.9202686470962362
 20
-284.9020364425256844
 30
0.0
 11
7998.8306432886702169
 21
-281.9916618009510216
 31
0.0
1001
GRADIENTCOLOR1ACI
1070
     5
1001
GRADIENTCOLOR2ACI
1070
     2
1001
ACAD
1010
0.0
1020
0.0
1030
0.0
1001
ACDBBLOCKREPETAG
1070
     1
1071
      450
1005
1274A8
  0
LINE
  5
1274A9
  8
SLIM
 10
8004.9466187997459201
 20
-284.8559424109463976
 30
0.0
 11
8008.2151115494216356
 21
-281.58744966127108
 31
0.0
1001
GRADIENTCOLOR1ACI
1070
     5
1001
GRADIENTCOLOR2ACI
1070
     2
1001
ACAD
1010
0.0
1020
0.0
1030
0.0
1001
ACDBBLOCKREPETAG
1070
     1
1071
      451
1005
1274A9
  0
LINE
  5
1274AA
  8
SLIM
 10
8015.1424853251401146
 20
-283.6403320066211222
 30
0.0
 11
8019.0189087687667779
 21
-279.7639085629903093
 31
0.0
1001
GRADIENTCOLOR1ACI
1070
     5
1001
GRADIENTCOLOR2ACI
1070
     2
1001
ACAD
1010
0.0
1020
0.0
1030
0.0
1001
ACDBBLOCKREPETAG
1070
     1
1071
      452
1005
1274AA
  0
LINE
  5
1274AB
  8
SLIM
 10
8027.2492255236657002
 20
-280.5138479291617273
 30
0.0
 11
8045.7630734528302128
 21
-261.9999999999990905
 31
0.0
1001
GRADIENTCOLOR1ACI
1070
     5
1001
GRADIENTCOLOR2ACI
1070
     2
1001
ACAD
1010
0.0
1020
0.0
1030
0.0
1001
ACDBBLOCKREPETAG
1070
     1
1071
      453
1005
1274AB
  0
LINE
  5
1274AC
  8
SLIM
 10
8044.0451596304192208
 20
-272.6981699434757047
 30
0.0
 11
8054.7433295739001551
 21
-261.9999999999990905
 31
0.0
1001
GRADIENTCOLOR1ACI
1070
     5
1001
GRADIENTCOLOR2ACI
1070
     2
1001
ACAD
1010
0.0
1020
0.0
1030
0.0
1001
ACDBBLOCKREPETAG
1070
     1
1071
      454
1005
1274AC
  0
ARC
  5
1274AD
  8
OBJECT
 10
8000.0
 20
-199.9999999999990905
 30
0.0
 40
77.0
 50
202.2588689998227096
 51
247.7411309999042999
1001
ACDBBLOCKREPETAG
1070
     1
1071
      212
1005
1274AD
  0
ARC
  5
1274AE
  8
OBJECT
 10
8000.0
 20
-199.9999999999990905
 30
0.0
 40
77.0
 50
292.2588690000956149
 51
337.7411310001771767
1001
ACDBBLOCKREPETAG
1070
     1
1071
      215
1005
1274AE
  0
ARC
  5
1274AF
  8
OBJECT
 10
8000.0
 20
-199.9999999999990905
 30
0.0
 40
77.0
 50
112.2588690000957001
 51
157.7411310001772051
1001
ACDBBLOCKREPETAG
1070
     1
1071
      216
1005
1274AF
  0
ARC
  5
1274B0
  8
OBJECT
 10
8000.0
 20
-199.9999999999990905
 30
0.0
 40
77.0
 50
22.2588689998227203
 51
67.7411309999043283
1001
ACDBBLOCKREPETAG
1070
     1
1071
      220
1005
1274B0
  0
CIRCLE
  5
1274B1
  8
OBJECT
 10
8000.0
 20
-199.9999999999990905
 30
0.0
 40
70.0
1001
ACDBBLOCKREPETAG
1070
     1
1071
      221
1005
1274B1
  0
LINE
  5
1274B2
  8
OBJECT
 10
8029.1669749999928172
 20
-271.2621049999988827
 30
0.0
 11
8021.2231624441046733
 21
-279.2059175558924835
 31
0.0
1001
ACDBBLOCKREPETAG
1070
     1
1071
      222
1005
1274B2
  0
LINE
  5
1274B3
  8
OBJECT
 10
7970.8330260000011549
 20
-271.2621049999988827
 30
0.0
 11
7978.7768389219208984
 21
-279.2059179219168072
 31
0.0
1001
ACDBBLOCKREPETAG
1070
     1
1071
      223
1005
1274B3
  0
ARC
  5
1274B4
  8
OBJECT
 10
8000.0
 20
-199.9999999999990905
 30
0.0
 40
82.0000000000000142
 50
255.0000004486402929
 51
285.0000005396947813
1001
ACDBBLOCKREPETAG
1070
     1
1071
      224
1005
1274B4
  0
LINE
  5
1274B5
  8
OBJECT
 10
7928.7378959999978179
 20
-229.1669739999989019
 30
0.0
 11
7920.7940817120543215
 21
-221.2231597120544961
 31
0.0
1001
ACDBBLOCKREPETAG
1070
     1
1071
      225
1005
1274B5
  0
ARC
  5
1274B6
  8
OBJECT
 10
8000.0
 20
-199.9999999999990905
 30
0.0
 40
82.0000000000000142
 50
165.0000004487640979
 51
194.9999985630136052
1001
ACDBBLOCKREPETAG
1070
     1
1071
      226
1005
1274B6
  0
LINE
  5
1274B7
  8
OBJECT
 10
7970.8330260000011549
 20
-128.7378949999992983
 30
0.0
 11
7978.7768389219208984
 21
-120.7940820780794979
 31
0.0
1001
ACDBBLOCKREPETAG
1070
     1
1071
      227
1005
1274B7
  0
ARC
  5
1274B8
  8
OBJECT
 10
8000.0
 20
-199.9999999999990905
 30
0.0
 40
82.0000000000000142
 50
74.9999994603052045
 51
104.9999995513597071
1001
ACDBBLOCKREPETAG
1070
     1
1071
      228
1005
1274B8
  0
LINE
  5
1274B9
  8
OBJECT
 10
8029.1669749999928172
 20
-128.7378949999992983
 30
0.0
 11
8021.2231624441046733
 21
-120.7940824441039069
 31
0.0
1001
ACDBBLOCKREPETAG
1070
     1
1071
      229
1005
1274B9
  0
LINE
  5
1274BA
  8
OBJECT
 10
7962.4020590000018274
 20
-161.9389330000003895
 30
0.0
 11
8037.0841102714266526
 21
-174.5180316957439004
 31
0.0
1001
ACDBBLOCKREPETAG
1070
     1
1071
      230
1005
1274BA
  0
LINE
  5
1274BB
  8
OBJECT
 10
8044.093656999999439
 20
-169.7014939999999115
 30
0.0
 11
8037.0841102714266526
 21
-174.5180316957439004
 31
0.0
1001
ACDBBLOCKREPETAG
1070
     1
1071
      231
1005
1274BB
  0
LINE
  5
1274BC
  8
OBJECT
 10
7928.7378959999978179
 20
-170.8330249999989974
 30
0.0
 11
7920.7940820780786453
 21
-178.7768389219191079
 31
0.0
1001
ACDBBLOCKREPETAG
1070
     1
1071
      232
1005
1274BC
  0
CIRCLE
  5
1274BD
  8
OBJECT
 10
8000.0
 20
-199.9999999999990905
 30
0.0
 40
53.5000000000000071
1001
ACDBBLOCKREPETAG
1070
     1
1071
      233
1005
1274BD
  0
ARC
  5
1274BE
  8
OBJECT
 10
8000.0
 20
-199.9999999999990905
 30
0.0
 40
50.0
 50
131.7018096435265022
 51
168.5237695595471052
1001
ACDBBLOCKREPETAG
1070
     1
1071
      234
1005
1274BE
  0
ARC
  5
1274BF
  8
OBJECT
 10
8000.0
 20
-199.9999999999990905
 30
0.0
 40
50.0
 50
238.819942999904697
 51
34.4945062501157125
1001
ACDBBLOCKREPETAG
1070
     1
1071
      235
1005
1274BF
  0
LINE
  5
1274C0
  8
OBJECT
 10
8071.2621049999934257
 20
-170.8330249999989974
 30
0.0
 11
8079.205917555889755
 21
-178.7768375558943035
 31
0.0
1001
ACDBBLOCKREPETAG
1070
     1
1071
      236
1005
1274C0
  0
ARC
  5
1274C1
  8
OBJECT
 10
8000.0
 20
-199.9999999999990905
 30
0.0
 40
82.0000000000000142
 50
345.0000004487641263
 51
15.0000005393591298
1001
ACDBBLOCKREPETAG
1070
     1
1071
      237
1005
1274C1
  0
LINE
  5
1274C2
  8
OBJECT
 10
8071.2621049999934257
 20
-229.1669739999989019
 30
0.0
 11
8079.2059179219213547
 21
-221.2231610780791016
 31
0.0
1001
ACDBBLOCKREPETAG
1070
     1
1071
      238
1005
1274C2
  0
LINE
  5
1274C3
  8
OBJECT
 10
8045.6618002273271486
 20
-137.9999999999990905
 30
0.0
 11
8080.0
 21
-137.9999999999990905
 31
0.0
1001
ACDBBLOCKREPETAG
1070
     1
1071
      239
1005
1274C3
  0
LINE
  5
1274C4
  8
OBJECT
 10
8045.6618002273271486
 20
-261.9999999999990905
 30
0.0
 11
8080.0
 21
-261.9999999999990905
 31
0.0
1001
ACDBBLOCKREPETAG
1070
     1
1071
      240
1005
1274C4
  0
LINE
  5
1274C5
  8
CENTER
 10
8080.0
 20
-199.9999999999990905
 30
0.0
 11
7900.0018972160632984
 21
-199.9999999999990905
 31
0.0
1001
ACDBBLOCKREPETAG
1070
     1
1071
      249
1005
1274C5
  0
LINE
  5
1274C6
  8
CENTER
 10
8000.0
 20
-299.9999999999990905
 30
0.0
 11
8000.0
 21
-99.9999999999990763
 31
0.0
1001
ACDBBLOCKREPETAG
1070
     1
1071
      250
1005
1274C6
  0
ARC
  5
1274C7
  8
OBJECT
 10
8000.0
 20
-199.9999999999990905
 30
0.0
 40
85.0
 50
46.8371028598140313
 51
313.1628971401859758
1001
ACDBBLOCKREPETAG
1070
     1
1071
      251
1005
1274C7
  0
LINE
  5
1274C8
  8
OBJECT
 10
7946.6921941437540227
 20
-195.4663816131605074
 30
0.0
 11
7970.4540343856351683
 21
-193.7986514643698115
 31
0.0
1001
ACDBBLOCKREPETAG
1070
     1
1071
      340
1005
1274C8
  0
LINE
  5
1274C9
  8
OBJECT
 10
7947.3854347270589642
 20
-190.305593971766001
 30
0.0
 11
7966.9884352628996567
 21
-188.9297527266016061
 31
0.0
1001
ACDBBLOCKREPETAG
1070
     1
1071
      341
1005
1274C9
  0
LINE
  5
1274CA
  8
OBJECT
 10
7974.1135374752766438
 20
-242.7772259263720116
 30
0.0
 11
7982.1366988374065841
 21
-234.1690987954708021
 31
0.0
1001
ACDBBLOCKREPETAG
1070
     1
1071
      342
1005
1274CA
  0
ARC
  5
1274CB
  8
OBJECT
 10
7982.1160071245421932
 20
-183.2818896631823975
 30
0.0
 40
60.0311132460326178
 50
254.0702013041274938
 51
262.3393610608658832
1001
ACDBBLOCKREPETAG
1070
     1
1071
      343
1005
1274CB
  0
LINE
  5
1274CC
  8
OBJECT
 10
7977.6125997325134449
 20
-197.6749527714991927
 30
0.0
 11
7982.1366988374065841
 21
-234.1690987954708021
 31
0.0
1001
ACDBBLOCKREPETAG
1070
     1
1071
      344
1005
1274CC
  0
ARC
  5
1274CD
  8
OBJECT
 10
7967.6885653456411092
 20
-198.9052135113188058
 30
0.0
 40
10.0
 50
7.0667782929925851
 51
94.0147343705324232
1001
ACDBBLOCKREPETAG
1070
     1
1071
      345
1005
1274CD
  0
ARC
  5
1274CE
  8
OBJECT
 10
7970.9441253709728699
 20
-200.7814740187558868
 30
0.0
 40
7.0
 50
7.0667782929925851
 51
94.0147337750146477
1001
ACDBBLOCKREPETAG
1070
     1
1071
      346
1005
1274CE
  0
POINT
  5
1274CF
  8
DOTS
 10
8000.0
 20
-199.9999999999990905
 30
0.0
 50
270.0
1001
ACDBBLOCKREPETAG
1070
     1
1071
      349
1005
1274CF
  0
LINE
  5
1274D0
  8
OBJECT
 10
8083.0
 20
-534.0
 30
0.0
 11
8080.0
 21
-534.0
 31
0.0
1001
ACDBBLOCKREPETAG
1070
     1
1071
        1
1005
1274D0
  0
ARC
  5
1274D1
  8
OBJECT
 10
8083.0
 20
-537.0
 30
0.0
 40
3.0
 50
0.0
 51
90.0
1001
ACDBBLOCKREPETAG
1070
     1
1071
        2
1005
1274D1
  0
LINE
  5
1274D2
  8
OBJECT
 10
8080.0
 20
-658.0
 30
0.0
 11
8083.0
 21
-658.0
 31
0.0
1001
ACDBBLOCKREPETAG
1070
     1
1071
        3
1005
1274D2
  0
ARC
  5
1274D3
  8
OBJECT
 10
8083.0
 20
-655.0
 30
0.0
 40
3.0
 50
270.0
 51
0.0
1001
ACDBBLOCKREPETAG
1070
     1
1071
        4
1005
1274D3
  0
LINE
  5
1274D4
  8
OBJECT
 10
8086.0
 20
-655.0
 30
0.0
 11
8086.0
 21
-537.0
 31
0.0
1001
ACDBBLOCKREPETAG
1070
     1
1071
        5
1005
1274D4
  0
LINE
  5
1274D5
  8
CENTER
 10
8101.0
 20
-199.9999999999990905
 30
0.0
 11
8080.0
 21
-199.9999999999990905
 31
0.0
1001
ACDBBLOCKREPETAG
1070
     1
1071
        0
1005
1274D5
  0
LINE
  5
1274D6
  8
OBJECT
 10
8083.0
 20
-137.9999999999990905
 30
0.0
 11
8080.0
 21
-137.9999999999990905
 31
0.0
1001
ACDBBLOCKREPETAG
1070
     1
1071
        1
1005
1274D6
  0
ARC
  5
1274D7
  8
OBJECT
 10
8083.0
 20
-140.9999999999990905
 30
0.0
 40
3.0
 50
0.0
 51
90.0
1001
ACDBBLOCKREPETAG
1070
     1
1071
        2
1005
1274D7
  0
LINE
  5
1274D8
  8
OBJECT
 10
8080.0
 20
-261.9999999999990905
 30
0.0
 11
8083.0
 21
-261.9999999999990905
 31
0.0
1001
ACDBBLOCKREPETAG
1070
     1
1071
        3
1005
1274D8
  0
ARC
  5
1274D9
  8
OBJECT
 10
8083.0
 20
-258.9999999999990905
 30
0.0
 40
3.0
 50
270.0
 51
0.0
1001
ACDBBLOCKREPETAG
1070
     1
1071
        4
1005
1274D9
  0
LINE
  5
1274DA
  8
OBJECT
 10
8086.0
 20
-258.9999999999990905
 30
0.0
 11
8086.0
 21
-140.9999999999990905
 31
0.0
1001
ACDBBLOCKREPETAG
1070
     1
1071
        5
1005
1274DA
  0
LINE
  5
1274DB
  8
OBJECT
 10
5946.6921941437540227
 20
-195.4663816131605074
 30
0.0
 11
5970.4540343856351683
 21
-193.7986514643698115
 31
0.0
1001
ACDBBLOCKREPETAG
1070
     1
1071
      326
1005
1274DB
  0
LINE
  5
1274DC
  8
OBJECT
 10
5947.3854347270598737
 20
-190.305593971766001
 30
0.0
 11
5966.9884352628996567
 21
-188.9297527266016061
 31
0.0
1001
ACDBBLOCKREPETAG
1070
     1
1071
      327
1005
1274DC
  0
LINE
  5
1274DD
  8
OBJECT
 10
5974.1135374752775533
 20
-242.7772259263720116
 30
0.0
 11
5982.1366988374065841
 21
-234.1690987954708021
 31
0.0
1001
ACDBBLOCKREPETAG
1070
     1
1071
      328
1005
1274DD
  0
ARC
  5
1274DE
  8
OBJECT
 10
5982.1160071245385552
 20
-183.2818896631823975
 30
0.0
 40
60.0311132460326178
 50
254.0702013041274938
 51
262.3393610608658832
1001
ACDBBLOCKREPETAG
1070
     1
1071
      329
1005
1274DE
  0
LINE
  5
1274DF
  8
OBJECT
 10
5977.6125997325134449
 20
-197.6749527714991927
 30
0.0
 11
5982.1366988374065841
 21
-234.1690987954708021
 31
0.0
1001
ACDBBLOCKREPETAG
1070
     1
1071
      330
1005
1274DF
  0
ARC
  5
1274E0
  8
OBJECT
 10
5967.6885653456401997
 20
-198.9052135113188058
 30
0.0
 40
10.0
 50
7.0667782929925851
 51
94.0147343705324232
1001
ACDBBLOCKREPETAG
1070
     1
1071
      331
1005
1274E0
  0
ARC
  5
1274E1
  8
OBJECT
 10
5970.9441253709737794
 20
-200.7814740187558868
 30
0.0
 40
7.0
 50
7.0667782929925851
 51
94.0147337750146477
1001
ACDBBLOCKREPETAG
1070
     1
1071
      332
1005
1274E1
  0
POINT
  5
1274E2
  8
DOTS
 10
6000.0
 20
-199.9999999999990905
 30
0.0
 50
270.0
1001
ACDBBLOCKREPETAG
1070
     1
1071
      347
1005
1274E2
  0
ARC
  5
1274E3
  8
OBJECT
 10
6000.0
 20
-199.9999999999990905
 30
0.0
 40
77.0
 50
202.258868999880093
 51
247.7411309999056073
1001
ACDBBLOCKREPETAG
1070
     1
1071
        0
1005
1274E3
  0
ARC
  5
1274E4
  8
OBJECT
 10
6000.0
 20
-199.9999999999990905
 30
0.0
 40
80.0
 50
50.8049656614017309
 51
72.4173439999210729
1001
ACDBBLOCKREPETAG
1070
     1
1071
        1
1005
1274E4
  0
ARC
  5
1274E5
  8
OBJECT
 10
6000.0
 20
-199.9999999999990905
 30
0.0
 40
77.0
 50
292.2588690000944212
 51
337.7411310001198785
1001
ACDBBLOCKREPETAG
1070
     1
1071
        2
1005
1274E5
  0
ARC
  5
1274E6
  8
OBJECT
 10
6000.0
 20
-199.9999999999990905
 30
0.0
 40
77.0
 50
112.2588690000944069
 51
157.741131000119907
1001
ACDBBLOCKREPETAG
1070
     1
1071
        3
1005
1274E6
  0
ARC
  5
1274E7
  8
OBJECT
 10
6000.0
 20
-199.9999999999990905
 30
0.0
 40
80.0
 50
107.5826560000788987
 51
162.4173443189507111
1001
ACDBBLOCKREPETAG
1070
     1
1071
        4
1005
1274E7
  0
ARC
  5
1274E8
  8
OBJECT
 10
6000.0
 20
-199.9999999999990905
 30
0.0
 40
80.0
 50
197.5826545812321058
 51
252.4173443189411046
1001
ACDBBLOCKREPETAG
1070
     1
1071
        5
1005
1274E8
  0
ARC
  5
1274E9
  8
OBJECT
 10
6000.0
 20
-199.9999999999990905
 30
0.0
 40
80.0
 50
287.5826567808985033
 51
309.1949674261156247
1001
ACDBBLOCKREPETAG
1070
     1
1071
        6
1005
1274E9
  0
ARC
  5
1274EA
  8
OBJECT
 10
6000.0
 20
-199.9999999999990905
 30
0.0
 40
77.0
 50
22.2588689998801286
 51
67.7411309999055646
1001
ACDBBLOCKREPETAG
1070
     1
1071
        7
1005
1274EA
  0
CIRCLE
  5
1274EB
  8
OBJECT
 10
6000.0
 20
-199.9999999999990905
 30
0.0
 40
70.0
1001
ACDBBLOCKREPETAG
1070
     1
1071
        8
1005
1274EB
  0
LINE
  5
1274EC
  8
OBJECT
 10
6029.1669749999982741
 20
-271.2621049999988827
 30
0.0
 11
6021.2231624441046733
 21
-279.2059175558924835
 31
0.0
1001
ACDBBLOCKREPETAG
1070
     1
1071
        9
1005
1274EC
  0
LINE
  5
1274ED
  8
OBJECT
 10
5970.8330260000011549
 20
-271.2621049999988827
 30
0.0
 11
5978.776838921916351
 21
-279.2059179219168072
 31
0.0
1001
ACDBBLOCKREPETAG
1070
     1
1071
       10
1005
1274ED
  0
ARC
  5
1274EE
  8
OBJECT
 10
6000.0
 20
-199.9999999999990905
 30
0.0
 40
82.0000000000000142
 50
255.0000004486406908
 51
285.0000005394795721
1001
ACDBBLOCKREPETAG
1070
     1
1071
       11
1005
1274EE
  0
LINE
  5
1274EF
  8
OBJECT
 10
5928.7378959999987273
 20
-229.1669739999989019
 30
0.0
 11
5920.7940817120543215
 21
-221.2231597120544961
 31
0.0
1001
ACDBBLOCKREPETAG
1070
     1
1071
       12
1005
1274EF
  0
ARC
  5
1274F0
  8
OBJECT
 10
6000.0
 20
-199.9999999999990905
 30
0.0
 40
82.0000000000000142
 50
165.0000004488472882
 51
194.9999985630261108
1001
ACDBBLOCKREPETAG
1070
     1
1071
       13
1005
1274F0
  0
LINE
  5
1274F1
  8
OBJECT
 10
5970.8330260000011549
 20
-128.7378949999992983
 30
0.0
 11
5978.776838921916351
 21
-120.7940820780794979
 31
0.0
1001
ACDBBLOCKREPETAG
1070
     1
1071
       14
1005
1274F1
  0
ARC
  5
1274F2
  8
OBJECT
 10
6000.0
 20
-199.9999999999990905
 30
0.0
 40
82.0000000000000142
 50
74.9999994605204421
 51
104.999999551359295
1001
ACDBBLOCKREPETAG
1070
     1
1071
       15
1005
1274F2
  0
LINE
  5
1274F3
  8
OBJECT
 10
6029.1669749999982741
 20
-128.7378949999992983
 30
0.0
 11
6021.2231624441046733
 21
-120.7940824441039069
 31
0.0
1001
ACDBBLOCKREPETAG
1070
     1
1071
       16
1005
1274F3
  0
LINE
  5
1274F4
  8
OBJECT
 10
5962.4020590000009179
 20
-161.9389330000003895
 30
0.0
 11
6037.0841102714221051
 21
-174.5180316957439004
 31
0.0
1001
ACDBBLOCKREPETAG
1070
     1
1071
       17
1005
1274F4
  0
LINE
  5
1274F5
  8
OBJECT
 10
6044.0936569999967105
 20
-169.7014939999999115
 30
0.0
 11
6037.0841102714221051
 21
-174.5180316957439004
 31
0.0
1001
ACDBBLOCKREPETAG
1070
     1
1071
       18
1005
1274F5
  0
LINE
  5
1274F6
  8
OBJECT
 10
5928.7378959999987273
 20
-170.8330249999989974
 30
0.0
 11
5920.7940820780768263
 21
-178.7768389219191079
 31
0.0
1001
ACDBBLOCKREPETAG
1070
     1
1071
       19
1005
1274F6
  0
CIRCLE
  5
1274F7
  8
OBJECT
 10
6000.0
 20
-199.9999999999990905
 30
0.0
 40
53.5000000000000071
1001
ACDBBLOCKREPETAG
1070
     1
1071
       20
1005
1274F7
  0
ARC
  5
1274F8
  8
OBJECT
 10
6000.0
 20
-199.9999999999990905
 30
0.0
 40
50.0
 50
131.7018096435330108
 51
168.5237695595822061
1001
ACDBBLOCKREPETAG
1070
     1
1071
       21
1005
1274F8
  0
ARC
  5
1274F9
  8
OBJECT
 10
6000.0
 20
-199.9999999999990905
 30
0.0
 40
50.0
 50
238.819942999904697
 51
34.4945062501170625
1001
ACDBBLOCKREPETAG
1070
     1
1071
       22
1005
1274F9
  0
LINE
  5
1274FA
  8
OBJECT
 10
6071.2621049999970637
 20
-170.8330249999989974
 30
0.0
 11
6079.205917555891574
 21
-178.7768375558943035
 31
0.0
1001
ACDBBLOCKREPETAG
1070
     1
1071
       23
1005
1274FA
  0
ARC
  5
1274FB
  8
OBJECT
 10
6000.0
 20
-199.9999999999990905
 30
0.0
 40
82.0000000000000142
 50
345.0000004488474019
 51
15.0000005393717206
1001
ACDBBLOCKREPETAG
1070
     1
1071
       24
1005
1274FB
  0
LINE
  5
1274FC
  8
OBJECT
 10
6071.2621049999970637
 20
-229.1669739999989019
 30
0.0
 11
6079.2059179219213547
 21
-221.2231610780791016
 31
0.0
1001
ACDBBLOCKREPETAG
1070
     1
1071
       25
1005
1274FC
  0
LINE
  5
1274FD
  8
OBJECT
 10
6045.6618002273253296
 20
-137.9999999999990905
 30
0.0
 11
6080.0
 21
-137.9999999999990905
 31
0.0
1001
ACDBBLOCKREPETAG
1070
     1
1071
       26
1005
1274FD
  0
LINE
  5
1274FE
  8
OBJECT
 10
6045.6618002273253296
 20
-261.9999999999990905
 30
0.0
 11
6080.0
 21
-261.9999999999990905
 31
0.0
1001
ACDBBLOCKREPETAG
1070
     1
1071
       27
1005
1274FE
  0
LINE
  5
1274FF
  8
CENTER
 10
6080.0
 20
-199.9999999999990905
 30
0.0
 11
5903.0
 21
-199.9999999999990905
 31
0.0
1001
ACDBBLOCKREPETAG
1070
     1
1071
       36
1005
1274FF
  0
LINE
  5
127500
  8
CENTER
 10
6000.0
 20
-296.9999999999990905
 30
0.0
 11
6000.0
 21
-104.9999999999991047
 31
0.0
1001
ACDBBLOCKREPETAG
1070
     1
1071
       37
1005
127500
  0
LINE
  5
127501
  8
OBJECT
 10
6083.0
 20
-534.0
 30
0.0
 11
6080.0
 21
-534.0
 31
0.0
1001
ACDBBLOCKREPETAG
1070
     1
1071
        1
1005
127501
  0
ARC
  5
127502
  8
OBJECT
 10
6083.0
 20
-537.0
 30
0.0
 40
3.0
 50
0.0
 51
90.0
1001
ACDBBLOCKREPETAG
1070
     1
1071
        2
1005
127502
  0
LINE
  5
127503
  8
OBJECT
 10
6080.0
 20
-658.0
 30
0.0
 11
6083.0
 21
-658.0
 31
0.0
1001
ACDBBLOCKREPETAG
1070
     1
1071
        3
1005
127503
  0
ARC
  5
127504
  8
OBJECT
 10
6083.0
 20
-655.0
 30
0.0
 40
3.0
 50
270.0
 51
0.0
1001
ACDBBLOCKREPETAG
1070
     1
1071
        4
1005
127504
  0
LINE
  5
127505
  8
OBJECT
 10
6086.0
 20
-655.0
 30
0.0
 11
6086.0
 21
-537.0
 31
0.0
1001
ACDBBLOCKREPETAG
1070
     1
1071
        5
1005
127505
  0
LINE
  5
127506
  8
CENTER
 10
6101.0
 20
-199.9999999999990905
 30
0.0
 11
6080.0
 21
-199.9999999999990905
 31
0.0
1001
ACDBBLOCKREPETAG
1070
     1
1071
        0
1005
127506
  0
LINE
  5
127507
  8
OBJECT
 10
6083.0
 20
-137.9999999999990905
 30
0.0
 11
6080.0
 21
-137.9999999999990905
 31
0.0
1001
ACDBBLOCKREPETAG
1070
     1
1071
        1
1005
127507
  0
ARC
  5
127508
  8
OBJECT
 10
6083.0
 20
-140.9999999999990905
 30
0.0
 40
3.0
 50
0.0
 51
90.0
1001
ACDBBLOCKREPETAG
1070
     1
1071
        2
1005
127508
  0
LINE
  5
127509
  8
OBJECT
 10
6080.0
 20
-261.9999999999990905
 30
0.0
 11
6083.0
 21
-261.9999999999990905
 31
0.0
1001
ACDBBLOCKREPETAG
1070
     1
1071
        3
1005
127509
  0
ARC
  5
12750A
  8
OBJECT
 10
6083.0
 20
-258.9999999999990905
 30
0.0
 40
3.0
 50
270.0
 51
0.0
1001
ACDBBLOCKREPETAG
1070
     1
1071
        4
1005
12750A
  0
LINE
  5
12750B
  8
OBJECT
 10
6086.0
 20
-258.9999999999990905
 30
0.0
 11
6086.0
 21
-140.9999999999990905
 31
0.0
1001
ACDBBLOCKREPETAG
1070
     1
1071
        5
1005
12750B
  0
LINE
  5
12750C
  8
OBJECT
 10
3946.6921941437540227
 20
-195.4663816131605074
 30
0.0
 11
3970.4540343856351683
 21
-193.7986514643698115
 31
0.0
1001
ACDBBLOCKREPETAG
1070
     1
1071
      326
1005
12750C
  0
LINE
  5
12750D
  8
OBJECT
 10
3947.3854347270598737
 20
-190.305593971766001
 30
0.0
 11
3966.9884352629019304
 21
-188.9297527266016061
 31
0.0
1001
ACDBBLOCKREPETAG
1070
     1
1071
      327
1005
12750D
  0
LINE
  5
12750E
  8
OBJECT
 10
3974.1135374752780081
 20
-242.7772259263720116
 30
0.0
 11
3982.1366988374079483
 21
-234.1690987954708021
 31
0.0
1001
ACDBBLOCKREPETAG
1070
     1
1071
      328
1005
12750E
  0
ARC
  5
12750F
  8
OBJECT
 10
3982.116007124540829
 20
-183.2818896631823975
 30
0.0
 40
60.0311132460326178
 50
254.0702013041274938
 51
262.3393610608658832
1001
ACDBBLOCKREPETAG
1070
     1
1071
      329
1005
12750F
  0
LINE
  5
127510
  8
OBJECT
 10
3977.6125997325148091
 20
-197.6749527714991927
 30
0.0
 11
3982.1366988374079483
 21
-234.1690987954708021
 31
0.0
1001
ACDBBLOCKREPETAG
1070
     1
1071
      330
1005
127510
  0
ARC
  5
127511
  8
OBJECT
 10
3967.6885653456411092
 20
-198.9052135113188058
 30
0.0
 40
10.0
 50
7.0667782929957923
 51
94.0147343705324232
1001
ACDBBLOCKREPETAG
1070
     1
1071
      331
1005
127511
  0
ARC
  5
127512
  8
OBJECT
 10
3970.9441253709728699
 20
-200.7814740187558868
 30
0.0
 40
7.0
 50
7.0667782929957923
 51
94.0147337750146477
1001
ACDBBLOCKREPETAG
1070
     1
1071
      332
1005
127512
  0
POINT
  5
127513
  8
DOTS
 10
4000.0
 20
-199.9999999999990905
 30
0.0
 50
270.0
1001
ACDBBLOCKREPETAG
1070
     1
1071
      347
1005
127513
  0
ARC
  5
127514
  8
OBJECT
 10
4000.0
 20
-199.9999999999990905
 30
0.0
 40
77.0
 50
202.258868999880093
 51
247.7411309999056073
1001
ACDBBLOCKREPETAG
1070
     1
1071
        0
1005
127514
  0
ARC
  5
127515
  8
OBJECT
 10
4000.0
 20
-199.9999999999990905
 30
0.0
 40
80.0
 50
50.8049656614017309
 51
72.4173439999210729
1001
ACDBBLOCKREPETAG
1070
     1
1071
        1
1005
127515
  0
ARC
  5
127516
  8
OBJECT
 10
4000.0
 20
-199.9999999999990905
 30
0.0
 40
77.0
 50
292.2588690000944212
 51
337.7411310001198785
1001
ACDBBLOCKREPETAG
1070
     1
1071
        2
1005
127516
  0
ARC
  5
127517
  8
OBJECT
 10
4000.0
 20
-199.9999999999990905
 30
0.0
 40
77.0
 50
112.2588690000944069
 51
157.741131000119907
1001
ACDBBLOCKREPETAG
1070
     1
1071
        3
1005
127517
  0
ARC
  5
127518
  8
OBJECT
 10
4000.0
 20
-199.9999999999990905
 30
0.0
 40
80.0
 50
107.5826560000788987
 51
162.4173443189428099
1001
ACDBBLOCKREPETAG
1070
     1
1071
        4
1005
127518
  0
ARC
  5
127519
  8
OBJECT
 10
4000.0
 20
-199.9999999999990905
 30
0.0
 40
80.0
 50
197.5826545812242898
 51
252.4173443189411046
1001
ACDBBLOCKREPETAG
1070
     1
1071
        5
1005
127519
  0
ARC
  5
12751A
  8
OBJECT
 10
4000.0
 20
-199.9999999999990905
 30
0.0
 40
80.0
 50
287.5826567808985033
 51
309.1949674261358041
1001
ACDBBLOCKREPETAG
1070
     1
1071
        6
1005
12751A
  0
ARC
  5
12751B
  8
OBJECT
 10
4000.0
 20
-199.9999999999990905
 30
0.0
 40
77.0
 50
22.2588689998801286
 51
67.7411309999055646
1001
ACDBBLOCKREPETAG
1070
     1
1071
        7
1005
12751B
  0
CIRCLE
  5
12751C
  8
OBJECT
 10
4000.0
 20
-199.9999999999990905
 30
0.0
 40
70.0
1001
ACDBBLOCKREPETAG
1070
     1
1071
        8
1005
12751C
  0
LINE
  5
12751D
  8
OBJECT
 10
4029.1669749999969099
 20
-271.2621049999988827
 30
0.0
 11
4021.2231624441042186
 21
-279.2059175558924835
 31
0.0
1001
ACDBBLOCKREPETAG
1070
     1
1071
        9
1005
12751D
  0
LINE
  5
12751E
  8
OBJECT
 10
3970.8330260000011549
 20
-271.2621049999988827
 30
0.0
 11
3978.7768389219181699
 21
-279.2059179219168072
 31
0.0
1001
ACDBBLOCKREPETAG
1070
     1
1071
       10
1005
12751E
  0
ARC
  5
12751F
  8
OBJECT
 10
4000.0
 20
-199.9999999999990905
 30
0.0
 40
82.0000000000000142
 50
255.0000004486406908
 51
285.0000005394795721
1001
ACDBBLOCKREPETAG
1070
     1
1071
       11
1005
12751F
  0
LINE
  5
127520
  8
OBJECT
 10
3928.7378959999991821
 20
-229.1669739999989019
 30
0.0
 11
3920.7940817120547763
 21
-221.2231597120544961
 31
0.0
1001
ACDBBLOCKREPETAG
1070
     1
1071
       12
1005
127520
  0
ARC
  5
127521
  8
OBJECT
 10
4000.0
 20
-199.9999999999990905
 30
0.0
 40
82.0000000000000142
 50
165.0000004488541947
 51
194.9999985630261108
1001
ACDBBLOCKREPETAG
1070
     1
1071
       13
1005
127521
  0
LINE
  5
127522
  8
OBJECT
 10
3970.8330260000011549
 20
-128.7378949999992983
 30
0.0
 11
3978.7768389219181699
 21
-120.7940820780794979
 31
0.0
1001
ACDBBLOCKREPETAG
1070
     1
1071
       14
1005
127522
  0
ARC
  5
127523
  8
OBJECT
 10
4000.0
 20
-199.9999999999990905
 30
0.0
 40
82.0000000000000142
 50
74.9999994605204421
 51
104.999999551359295
1001
ACDBBLOCKREPETAG
1070
     1
1071
       15
1005
127523
  0
LINE
  5
127524
  8
OBJECT
 10
4029.1669749999969099
 20
-128.7378949999992983
 30
0.0
 11
4021.2231624441042186
 21
-120.7940824441039069
 31
0.0
1001
ACDBBLOCKREPETAG
1070
     1
1071
       16
1005
127524
  0
LINE
  5
127525
  8
OBJECT
 10
3962.4020590000000084
 20
-161.9389330000003895
 30
0.0
 11
4037.0841102714221051
 21
-174.5180316957439004
 31
0.0
1001
ACDBBLOCKREPETAG
1070
     1
1071
       17
1005
127525
  0
LINE
  5
127526
  8
OBJECT
 10
4044.093656999995801
 20
-169.7014939999999115
 30
0.0
 11
4037.0841102714221051
 21
-174.5180316957439004
 31
0.0
1001
ACDBBLOCKREPETAG
1070
     1
1071
       18
1005
127526
  0
LINE
  5
127527
  8
OBJECT
 10
3928.7378959999991821
 20
-170.8330249999989974
 30
0.0
 11
3920.7940820780800095
 21
-178.7768389219191079
 31
0.0
1001
ACDBBLOCKREPETAG
1070
     1
1071
       19
1005
127527
  0
CIRCLE
  5
127528
  8
OBJECT
 10
4000.0
 20
-199.9999999999990905
 30
0.0
 40
53.5000000000000071
1001
ACDBBLOCKREPETAG
1070
     1
1071
       20
1005
127528
  0
ARC
  5
127529
  8
OBJECT
 10
4000.0
 20
-199.9999999999990905
 30
0.0
 40
50.0
 50
131.7018096435525081
 51
168.5237695595874072
1001
ACDBBLOCKREPETAG
1070
     1
1071
       21
1005
127529
  0
ARC
  5
12752A
  8
OBJECT
 10
4000.0
 20
-199.9999999999990905
 30
0.0
 40
50.0
 50
238.819942999904697
 51
34.4945062501170625
1001
ACDBBLOCKREPETAG
1070
     1
1071
       22
1005
12752A
  0
LINE
  5
12752B
  8
OBJECT
 10
4071.2621049999970637
 20
-170.8330249999989974
 30
0.0
 11
4079.2059175558911193
 21
-178.7768375558943035
 31
0.0
1001
ACDBBLOCKREPETAG
1070
     1
1071
       23
1005
12752B
  0
ARC
  5
12752C
  8
OBJECT
 10
4000.0
 20
-199.9999999999990905
 30
0.0
 40
82.0000000000000142
 50
345.00000044885428
 51
15.0000005393717206
1001
ACDBBLOCKREPETAG
1070
     1
1071
       24
1005
12752C
  0
LINE
  5
12752D
  8
OBJECT
 10
4071.2621049999970637
 20
-229.1669739999989019
 30
0.0
 11
4079.2059179219199905
 21
-221.2231610780791016
 31
0.0
1001
ACDBBLOCKREPETAG
1070
     1
1071
       25
1005
12752D
  0
LINE
  5
12752E
  8
OBJECT
 10
4045.6618002273239654
 20
-137.9999999999990905
 30
0.0
 11
4080.0
 21
-137.9999999999990905
 31
0.0
1001
ACDBBLOCKREPETAG
1070
     1
1071
       26
1005
12752E
  0
LINE
  5
12752F
  8
OBJECT
 10
4045.6618002273239654
 20
-261.9999999999990905
 30
0.0
 11
4080.0
 21
-261.9999999999990905
 31
0.0
1001
ACDBBLOCKREPETAG
1070
     1
1071
       27
1005
12752F
  0
LINE
  5
127530
  8
CENTER
 10
4080.0
 20
-199.9999999999990905
 30
0.0
 11
3903.0
 21
-199.9999999999990905
 31
0.0
1001
ACDBBLOCKREPETAG
1070
     1
1071
       36
1005
127530
  0
LINE
  5
127531
  8
CENTER
 10
4000.0
 20
-296.9999999999990905
 30
0.0
 11
4000.0
 21
-104.9999999999991047
 31
0.0
1001
ACDBBLOCKREPETAG
1070
     1
1071
       37
1005
127531
  0
LINE
  5
127532
  8
OBJECT
 10
4083.0
 20
-534.0
 30
0.0
 11
4080.0
 21
-534.0
 31
0.0
1001
ACDBBLOCKREPETAG
1070
     1
1071
        1
1005
127532
  0
ARC
  5
127533
  8
OBJECT
 10
4083.0
 20
-537.0
 30
0.0
 40
3.0
 50
0.0
 51
90.0
1001
ACDBBLOCKREPETAG
1070
     1
1071
        2
1005
127533
  0
LINE
  5
127534
  8
OBJECT
 10
4080.0
 20
-658.0
 30
0.0
 11
4083.0
 21
-658.0
 31
0.0
1001
ACDBBLOCKREPETAG
1070
     1
1071
        3
1005
127534
  0
ARC
  5
127535
  8
OBJECT
 10
4083.0
 20
-655.0
 30
0.0
 40
3.0
 50
270.0
 51
0.0
1001
ACDBBLOCKREPETAG
1070
     1
1071
        4
1005
127535
  0
LINE
  5
127536
  8
OBJECT
 10
4086.0
 20
-655.0
 30
0.0
 11
4086.0
 21
-537.0
 31
0.0
1001
ACDBBLOCKREPETAG
1070
     1
1071
        5
1005
127536
  0
LINE
  5
127537
  8
CENTER
 10
4101.0
 20
-199.9999999999990905
 30
0.0
 11
4080.0
 21
-199.9999999999990905
 31
0.0
1001
ACDBBLOCKREPETAG
1070
     1
1071
        0
1005
127537
  0
LINE
  5
127538
  8
OBJECT
 10
4083.0
 20
-137.9999999999990905
 30
0.0
 11
4080.0
 21
-137.9999999999990905
 31
0.0
1001
ACDBBLOCKREPETAG
1070
     1
1071
        1
1005
127538
  0
ARC
  5
127539
  8
OBJECT
 10
4083.0
 20
-140.9999999999990905
 30
0.0
 40
3.0
 50
0.0
 51
90.0
1001
ACDBBLOCKREPETAG
1070
     1
1071
        2
1005
127539
  0
LINE
  5
12753A
  8
OBJECT
 10
4080.0
 20
-261.9999999999990905
 30
0.0
 11
4083.0
 21
-261.9999999999990905
 31
0.0
1001
ACDBBLOCKREPETAG
1070
     1
1071
        3
1005
12753A
  0
ARC
  5
12753B
  8
OBJECT
 10
4083.0
 20
-258.9999999999990905
 30
0.0
 40
3.0
 50
270.0
 51
0.0
1001
ACDBBLOCKREPETAG
1070
     1
1071
        4
1005
12753B
  0
LINE
  5
12753C
  8
OBJECT
 10
4086.0
 20
-258.9999999999990905
 30
0.0
 11
4086.0
 21
-140.9999999999990905
 31
0.0
1001
ACDBBLOCKREPETAG
1070
     1
1071
        5
1005
12753C
  0
LINE
  5
12753D
  8
SLIM
  6
CONTINUOUS
 10
11914.9999999999909051
 20
-669.4738530943465094
 30
0.0
 11
11929.4738530943395745
 21
-654.9999999999994316
 31
0.0
1001
ACAD
1010
0.0
1020
0.0
1030
0.0
  0
LINE
  5
12753E
  8
SLIM
  6
CONTINUOUS
 10
11915.0
 20
-687.4343653364843476
 30
0.0
 11
11947.4343653364794591
 21
-654.9999999999994316
 31
0.0
1001
ACAD
1010
0.0
1020
0.0
1030
0.0
  0
LINE
  5
12753F
  8
SLIM
  6
CONTINUOUS
 10
11915.0
 20
-705.3948775786220722
 30
0.0
 11
11965.3948775786193437
 21
-654.9999999999994316
 31
0.0
1001
ACAD
1010
0.0
1020
0.0
1030
0.0
  0
LINE
  5
127540
  8
SLIM
  6
CONTINUOUS
 10
11915.0
 20
-723.3553898207595694
 30
0.0
 11
11983.3553898207592283
 21
-654.9999999999994316
 31
0.0
1001
ACAD
1010
0.0
1020
0.0
1030
0.0
  0
LINE
  5
127541
  8
SLIM
  6
CONTINUOUS
 10
11915.0
 20
-741.3159020628974076
 30
0.0
 11
12001.315902062890018
 21
-654.9999999999994316
 31
0.0
1001
ACAD
1010
0.0
1020
0.0
1030
0.0
  0
LINE
  5
127542
  8
SLIM
  6
CONTINUOUS
 10
11915.0
 20
-759.2764143050352459
 30
0.0
 11
12019.2764143050299026
 21
-654.9999999999994316
 31
0.0
1001
ACAD
1010
0.0
1020
0.0
1030
0.0
  0
LINE
  5
127543
  8
SLIM
  6
CONTINUOUS
 10
11915.0
 20
-777.2369265471731978
 30
0.0
 11
12037.2369265471697872
 21
-654.9999999999994316
 31
0.0
1001
ACAD
1010
0.0
1020
0.0
1030
0.0
  0
LINE
  5
127544
  8
SLIM
  6
CONTINUOUS
 10
11915.0
 20
-795.1974387893105813
 30
0.0
 11
12055.1974387893096718
 21
-654.9999999999994316
 31
0.0
1001
ACAD
1010
0.0
1020
0.0
1030
0.0
  0
LINE
  5
127545
  8
SLIM
  6
CONTINUOUS
 10
11915.0
 20
-813.157951031448647
 30
0.0
 11
12073.1579510314404615
 21
-654.9999999999994316
 31
0.0
1001
ACAD
1010
0.0
1020
0.0
1030
0.0
  0
LINE
  5
127546
  8
SLIM
  6
CONTINUOUS
 10
11915.0
 20
-831.1184632735860305
 30
0.0
 11
12085.0000000000090949
 21
-661.118463273577504
 31
0.0
1001
ACAD
1010
0.0
1020
0.0
1030
0.0
  0
LINE
  5
127547
  8
SLIM
  6
CONTINUOUS
 10
11915.0
 20
-849.0789755157237551
 30
0.0
 11
12085.0000000000090949
 21
-679.0789755157162517
 31
0.0
1001
ACAD
1010
0.0
1020
0.0
1030
0.0
  0
LINE
  5
127548
  8
SLIM
  6
CONTINUOUS
 10
11915.0
 20
-867.039487757861707
 30
0.0
 11
12085.0000000000090949
 21
-697.0394877578553405
 31
0.0
1001
ACAD
1010
0.0
1020
0.0
1030
0.0
  0
LINE
  5
127549
  8
SLIM
  6
CONTINUOUS
 10
11915.2836007495607191
 20
-884.7163992504414409
 30
0.0
 11
12085.0000000000090949
 21
-714.9999999999939746
 31
0.0
1001
ACAD
1010
0.0
1020
0.0
1030
0.0
  0
LINE
  5
12754A
  8
SLIM
  6
CONTINUOUS
 10
11917.4979104780395573
 20
-900.462601764097144
 30
0.0
 11
12085.0000000000090949
 21
-732.9605122421329497
 31
0.0
1001
ACAD
1010
0.0
1020
0.0
1030
0.0
  0
LINE
  5
12754B
  8
SLIM
  6
CONTINUOUS
 10
11919.7122202065202146
 20
-916.2088042777523924
 30
0.0
 11
12085.0
 21
-750.9210244842719248
 31
0.0
1001
ACAD
1010
0.0
1020
0.0
1030
0.0
  0
LINE
  5
12754C
  8
SLIM
  6
CONTINUOUS
 10
11921.9265299350099667
 20
-931.9550067914077545
 30
0.0
 11
12085.0
 21
-768.8815367264104452
 31
0.0
1001
ACAD
1010
0.0
1020
0.0
1030
0.0
  0
LINE
  5
12754D
  8
SLIM
  6
CONTINUOUS
 10
11924.1408396634906239
 20
-947.7012093050630028
 30
0.0
 11
12085.0
 21
-786.842048968549534
 31
0.0
1001
ACAD
1010
0.0
1020
0.0
1030
0.0
  0
LINE
  5
12754E
  8
SLIM
  6
CONTINUOUS
 10
11926.3551493919694622
 20
-963.4474118187182512
 30
0.0
 11
12085.0
 21
-804.8025612106886229
 31
0.0
1001
ACAD
1010
0.0
1020
0.0
1030
0.0
  0
LINE
  5
12754F
  8
SLIM
  6
CONTINUOUS
 10
11928.5694591204501194
 20
-979.1936143323739543
 30
0.0
 11
12085.0
 21
-822.7630734528273706
 31
0.0
1001
ACAD
1010
0.0
1020
0.0
1030
0.0
  0
LINE
  5
127550
  8
SLIM
  6
CONTINUOUS
 10
11930.7837688489398715
 20
-994.9398168460288616
 30
0.0
 11
12085.0
 21
-840.7235856949663457
 31
0.0
1001
ACAD
1010
0.0
1020
0.0
1030
0.0
  0
LINE
  5
127551
  8
SLIM
  6
CONTINUOUS
 10
11932.9980785774205287
 20
-1010.6860193596839963
 30
0.0
 11
12085.0
 21
-858.6840979371054345
 31
0.0
1001
ACAD
1010
0.0
1020
0.0
1030
0.0
  0
LINE
  5
127552
  8
SLIM
  6
CONTINUOUS
 10
11932.9999999999909051
 20
-1028.6446101792510035
 30
0.0
 11
12085.0
 21
-876.6446101792440686
 31
0.0
1001
ACAD
1010
0.0
1020
0.0
1030
0.0
  0
LINE
  5
127553
  8
SLIM
  6
CONTINUOUS
 10
11932.9999999999909051
 20
-1046.6051224213899786
 30
0.0
 11
12083.0518371543694229
 21
-896.553285267016463
 31
0.0
1001
ACAD
1010
0.0
1020
0.0
1030
0.0
  0
LINE
  5
127554
  8
SLIM
  6
CONTINUOUS
 10
11932.9999999999909051
 20
-1064.5656346635280443
 30
0.0
 11
12080.1128442420194915
 21
-917.4527904215037779
 31
0.0
1001
ACAD
1010
0.0
1020
0.0
1030
0.0
  0
LINE
  5
127555
  8
SLIM
  6
CONTINUOUS
 10
11932.9999999999909051
 20
-1082.5261469056661099
 30
0.0
 11
12077.1738513296695601
 21
-938.3522955759910928
 31
0.0
1001
ACAD
1010
0.0
1020
0.0
1030
0.0
  0
LINE
  5
127556
  8
SLIM
  6
CONTINUOUS
 10
11932.9999999999909051
 20
-1100.486659147805085
 30
0.0
 11
12074.2348584173196286
 21
-959.2518007304784078
 31
0.0
1001
ACAD
1010
0.0
1020
0.0
1030
0.0
  0
LINE
  5
127557
  8
SLIM
  6
CONTINUOUS
 10
11932.9999999999909051
 20
-1118.4471713899420138
 30
0.0
 11
12071.2958655049696972
 21
-980.1513058849657227
 31
0.0
1001
ACAD
1010
0.0
1020
0.0
1030
0.0
  0
LINE
  5
127558
  8
SLIM
  6
CONTINUOUS
 10
11932.9999999999909051
 20
-1136.4076836320809889
 30
0.0
 11
12068.3568725926197658
 21
-1001.0508110394530377
 31
0.0
1001
ACAD
1010
0.0
1020
0.0
1030
0.0
  0
LINE
  5
127559
  8
SLIM
  6
CONTINUOUS
 10
11942.368195874219964
 20
-1144.9999999999959073
 30
0.0
 11
12067.0000000000090949
 21
-1020.3681958742009783
 31
0.0
1001
ACAD
1010
0.0
1020
0.0
1030
0.0
  0
LINE
  5
12755A
  8
SLIM
  6
CONTINUOUS
 10
11960.3287081163507537
 20
-1144.9999999999970441
 30
0.0
 11
12067.0000000000090949
 21
-1038.3287081163400671
 31
0.0
1001
ACAD
1010
0.0
1020
0.0
1030
0.0
  0
LINE
  5
12755B
  8
SLIM
  6
CONTINUOUS
 10
11978.2892203584906383
 20
-1144.9999999999970441
 30
0.0
 11
12067.0000000000090949
 21
-1056.2892203584779054
 31
0.0
1001
ACAD
1010
0.0
1020
0.0
1030
0.0
  0
LINE
  5
12755C
  8
SLIM
  6
CONTINUOUS
 10
11996.2497326006305229
 20
-1144.9999999999979536
 30
0.0
 11
12067.0000000000090949
 21
-1074.249732600615971
 31
0.0
1001
ACAD
1010
0.0
1020
0.0
1030
0.0
  0
LINE
  5
12755D
  8
SLIM
  6
CONTINUOUS
 10
12014.2102448427704076
 20
-1144.9999999999979536
 30
0.0
 11
12067.0000000000090949
 21
-1092.2102448427549461
 31
0.0
1001
ACAD
1010
0.0
1020
0.0
1030
0.0
  0
LINE
  5
12755E
  8
SLIM
  6
CONTINUOUS
 10
12032.1707570849102922
 20
-1144.9999999999979536
 30
0.0
 11
12067.0000000000090949
 21
-1110.1707570848930118
 31
0.0
1001
ACAD
1010
0.0
1020
0.0
1030
0.0
  0
LINE
  5
12755F
  8
SLIM
  6
CONTINUOUS
 10
12050.1312693270392629
 20
-1144.9999999999990905
 30
0.0
 11
12067.0000000000090949
 21
-1128.1312693270310774
 31
0.0
1001
ACAD
1010
0.0
1020
0.0
1030
0.0
  0
LINE
  5
127560
  8
OBJECT
 10
11932.9999999999909051
 20
-1144.9999999999959073
 30
0.0
 11
12067.0000000000090949
 21
-1144.9999999999990905
 31
0.0
1001
ACDBBLOCKREPETAG
1070
     1
1071
        1
1005
127560
  0
LINE
  5
127561
  8
OBJECT
 10
11914.9999999999909051
 20
-654.9999999999994316
 30
0.0
 11
11915.0
 21
-882.6996828091407679
 31
0.0
1001
ACDBBLOCKREPETAG
1070
     1
1071
        2
1005
127561
  0
LINE
  5
127562
  8
OBJECT
 10
12085.0000000000090949
 20
-654.9999999999994316
 30
0.0
 11
12085.0
 21
-882.6996828091719181
 31
0.0
1001
ACDBBLOCKREPETAG
1070
     1
1071
        3
1005
127562
  0
LINE
  5
127563
  8
OBJECT
 10
11915.0
 20
-882.6996828091407679
 30
0.0
 11
11932.9999999999909051
 21
-1010.6996828090809686
 31
0.0
1001
ACDBBLOCKREPETAG
1070
     1
1071
        4
1005
127563
  0
LINE
  5
127564
  8
OBJECT
 10
12067.0000000000090949
 20
-1010.6996828091280349
 30
0.0
 11
12085.0
 21
-882.6996828091719181
 31
0.0
1001
ACDBBLOCKREPETAG
1070
     1
1071
        5
1005
127564
  0
LINE
  5
127565
  8
OBJECT
 10
12085.0000000000090949
 20
-654.9999999999994316
 30
0.0
 11
11914.9999999999909051
 21
-654.9999999999994316
 31
0.0
1001
ACDBBLOCKREPETAG
1070
     1
1071
        6
1005
127565
  0
POINT
  5
127566
  8
DOTS
 10
12000.0
 20
-799.9999999999994316
 30
0.0
1001
ACDBBLOCKREPETAG
1070
     1
1071
        7
1005
127566
  0
LINE
  5
127567
  8
OBJECT
 10
11932.9999999999909051
 20
-1010.6996828090809686
 30
0.0
 11
11932.9999999999909051
 21
-1144.9999999999959073
 31
0.0
1001
ACDBBLOCKREPETAG
1070
     1
1071
        8
1005
127567
  0
LINE
  5
127568
  8
OBJECT
 10
12067.0000000000090949
 20
-1010.6996828091280349
 30
0.0
 11
12067.0000000000090949
 21
-1144.9999999999990905
 31
0.0
1001
ACDBBLOCKREPETAG
1070
     1
1071
        9
1005
127568
  0
LINE
  5
127569
  8
SLIM
  6
CONTINUOUS
 10
9914.999999999992724
 20
-669.4738530943465094
 30
0.0
 11
9929.4738530943377555
 21
-654.9999999999994316
 31
0.0
1001
ACAD
1010
0.0
1020
0.0
1030
0.0
  0
LINE
  5
12756A
  8
SLIM
  6
CONTINUOUS
 10
9914.999999999994543
 20
-687.4343653364843476
 30
0.0
 11
9947.4343653364794591
 21
-654.9999999999994316
 31
0.0
1001
ACAD
1010
0.0
1020
0.0
1030
0.0
  0
LINE
  5
12756B
  8
SLIM
  6
CONTINUOUS
 10
9914.999999999994543
 20
-705.3948775786220722
 30
0.0
 11
9965.3948775786175247
 21
-654.9999999999994316
 31
0.0
1001
ACAD
1010
0.0
1020
0.0
1030
0.0
  0
LINE
  5
12756C
  8
SLIM
  6
CONTINUOUS
 10
9914.999999999994543
 20
-723.3553898207595694
 30
0.0
 11
9983.3553898207555903
 21
-654.9999999999994316
 31
0.0
1001
ACAD
1010
0.0
1020
0.0
1030
0.0
  0
LINE
  5
12756D
  8
SLIM
  6
CONTINUOUS
 10
9914.999999999998181
 20
-741.3159020628974076
 30
0.0
 11
10001.315902062890018
 21
-654.9999999999994316
 31
0.0
1001
ACAD
1010
0.0
1020
0.0
1030
0.0
  0
LINE
  5
12756E
  8
SLIM
  6
CONTINUOUS
 10
9914.999999999998181
 20
-759.2764143050352459
 30
0.0
 11
10019.2764143050299026
 21
-654.9999999999994316
 31
0.0
1001
ACAD
1010
0.0
1020
0.0
1030
0.0
  0
LINE
  5
12756F
  8
SLIM
  6
CONTINUOUS
 10
9914.999999999998181
 20
-777.2369265471731978
 30
0.0
 11
10037.2369265471606923
 21
-654.9999999999994316
 31
0.0
1001
ACAD
1010
0.0
1020
0.0
1030
0.0
  0
LINE
  5
127570
  8
SLIM
  6
CONTINUOUS
 10
9914.999999999998181
 20
-795.1974387893105813
 30
0.0
 11
10055.1974387893005769
 21
-654.9999999999994316
 31
0.0
1001
ACAD
1010
0.0
1020
0.0
1030
0.0
  0
LINE
  5
127571
  8
SLIM
  6
CONTINUOUS
 10
9914.999999999998181
 20
-813.157951031448647
 30
0.0
 11
10073.1579510314404615
 21
-654.9999999999994316
 31
0.0
1001
ACAD
1010
0.0
1020
0.0
1030
0.0
  0
LINE
  5
127572
  8
SLIM
  6
CONTINUOUS
 10
9914.999999999998181
 20
-831.1184632735860305
 30
0.0
 11
10085.0000000000090949
 21
-661.118463273577504
 31
0.0
1001
ACAD
1010
0.0
1020
0.0
1030
0.0
  0
LINE
  5
127573
  8
SLIM
  6
CONTINUOUS
 10
9914.999999999998181
 20
-849.0789755157237551
 30
0.0
 11
10085.0000000000090949
 21
-679.0789755157162517
 31
0.0
1001
ACAD
1010
0.0
1020
0.0
1030
0.0
  0
LINE
  5
127574
  8
SLIM
  6
CONTINUOUS
 10
9915.0
 20
-867.039487757861707
 30
0.0
 11
10085.0
 21
-697.0394877578553405
 31
0.0
1001
ACAD
1010
0.0
1020
0.0
1030
0.0
  0
LINE
  5
127575
  8
SLIM
  6
CONTINUOUS
 10
9915.2836007495607191
 20
-884.7163992504414409
 30
0.0
 11
10085.0
 21
-714.9999999999939746
 31
0.0
1001
ACAD
1010
0.0
1020
0.0
1030
0.0
  0
LINE
  5
127576
  8
SLIM
  6
CONTINUOUS
 10
9917.4979104780413763
 20
-900.462601764097144
 30
0.0
 11
10085.0
 21
-732.9605122421329497
 31
0.0
1001
ACAD
1010
0.0
1020
0.0
1030
0.0
  0
LINE
  5
127577
  8
SLIM
  6
CONTINUOUS
 10
9919.7122202065274905
 20
-916.2088042777523924
 30
0.0
 11
10085.0
 21
-750.9210244842719248
 31
0.0
1001
ACAD
1010
0.0
1020
0.0
1030
0.0
  0
LINE
  5
127578
  8
SLIM
  6
CONTINUOUS
 10
9921.9265299350081477
 20
-931.9550067914077545
 30
0.0
 11
10085.0
 21
-768.8815367264104452
 31
0.0
1001
ACAD
1010
0.0
1020
0.0
1030
0.0
  0
LINE
  5
127579
  8
SLIM
  6
CONTINUOUS
 10
9924.1408396634906239
 20
-947.7012093050630028
 30
0.0
 11
10085.0
 21
-786.842048968549534
 31
0.0
1001
ACAD
1010
0.0
1020
0.0
1030
0.0
  0
LINE
  5
12757A
  8
SLIM
  6
CONTINUOUS
 10
9926.3551493919731001
 20
-963.4474118187182512
 30
0.0
 11
10085.0
 21
-804.8025612106886229
 31
0.0
1001
ACAD
1010
0.0
1020
0.0
1030
0.0
  0
LINE
  5
12757B
  8
SLIM
  6
CONTINUOUS
 10
9928.5694591204555763
 20
-979.1936143323739543
 30
0.0
 11
10085.0
 21
-822.7630734528273706
 31
0.0
1001
ACAD
1010
0.0
1020
0.0
1030
0.0
  0
LINE
  5
12757C
  8
SLIM
  6
CONTINUOUS
 10
9930.7837688489416905
 20
-994.9398168460288616
 30
0.0
 11
10085.0
 21
-840.7235856949663457
 31
0.0
1001
ACAD
1010
0.0
1020
0.0
1030
0.0
  0
LINE
  5
12757D
  8
SLIM
  6
CONTINUOUS
 10
9932.9980785774205287
 20
-1010.6860193596839963
 30
0.0
 11
10085.0
 21
-858.6840979371054345
 31
0.0
1001
ACAD
1010
0.0
1020
0.0
1030
0.0
  0
LINE
  5
12757E
  8
SLIM
  6
CONTINUOUS
 10
9932.999999999992724
 20
-1028.6446101792510035
 30
0.0
 11
10085.0
 21
-876.6446101792440686
 31
0.0
1001
ACAD
1010
0.0
1020
0.0
1030
0.0
  0
LINE
  5
12757F
  8
SLIM
  6
CONTINUOUS
 10
9932.999999999992724
 20
-1046.6051224213899786
 30
0.0
 11
10083.051837154360328
 21
-896.553285267016463
 31
0.0
1001
ACAD
1010
0.0
1020
0.0
1030
0.0
  0
LINE
  5
127580
  8
SLIM
  6
CONTINUOUS
 10
9932.999999999992724
 20
-1064.5656346635280443
 30
0.0
 11
10080.1128442420103966
 21
-917.4527904215037779
 31
0.0
1001
ACAD
1010
0.0
1020
0.0
1030
0.0
  0
LINE
  5
127581
  8
SLIM
  6
CONTINUOUS
 10
9932.999999999992724
 20
-1082.5261469056661099
 30
0.0
 11
10077.1738513296695601
 21
-938.3522955759910928
 31
0.0
1001
ACAD
1010
0.0
1020
0.0
1030
0.0
  0
LINE
  5
127582
  8
SLIM
  6
CONTINUOUS
 10
9932.999999999992724
 20
-1100.486659147805085
 30
0.0
 11
10074.2348584173196286
 21
-959.2518007304784078
 31
0.0
1001
ACAD
1010
0.0
1020
0.0
1030
0.0
  0
LINE
  5
127583
  8
SLIM
  6
CONTINUOUS
 10
9932.999999999992724
 20
-1118.4471713899420138
 30
0.0
 11
10071.2958655049696972
 21
-980.1513058849657227
 31
0.0
1001
ACAD
1010
0.0
1020
0.0
1030
0.0
  0
LINE
  5
127584
  8
SLIM
  6
CONTINUOUS
 10
9932.999999999992724
 20
-1136.4076836320809889
 30
0.0
 11
10068.3568725926197658
 21
-1001.0508110394530377
 31
0.0
1001
ACAD
1010
0.0
1020
0.0
1030
0.0
  0
LINE
  5
127585
  8
SLIM
  6
CONTINUOUS
 10
9942.368195874216326
 20
-1144.9999999999959073
 30
0.0
 11
10067.0000000000090949
 21
-1020.3681958742009783
 31
0.0
1001
ACAD
1010
0.0
1020
0.0
1030
0.0
  0
LINE
  5
127586
  8
SLIM
  6
CONTINUOUS
 10
9960.3287081163525727
 20
-1144.9999999999970441
 30
0.0
 11
10067.0000000000090949
 21
-1038.3287081163400671
 31
0.0
1001
ACAD
1010
0.0
1020
0.0
1030
0.0
  0
LINE
  5
127587
  8
SLIM
  6
CONTINUOUS
 10
9978.2892203584906383
 20
-1144.9999999999970441
 30
0.0
 11
10067.0000000000090949
 21
-1056.2892203584779054
 31
0.0
1001
ACAD
1010
0.0
1020
0.0
1030
0.0
  0
LINE
  5
127588
  8
SLIM
  6
CONTINUOUS
 10
9996.2497326006287039
 20
-1144.9999999999979536
 30
0.0
 11
10067.0000000000090949
 21
-1074.249732600615971
 31
0.0
1001
ACAD
1010
0.0
1020
0.0
1030
0.0
  0
LINE
  5
127589
  8
SLIM
  6
CONTINUOUS
 10
10014.2102448427594936
 20
-1144.9999999999979536
 30
0.0
 11
10067.0000000000090949
 21
-1092.2102448427549461
 31
0.0
1001
ACAD
1010
0.0
1020
0.0
1030
0.0
  0
LINE
  5
12758A
  8
SLIM
  6
CONTINUOUS
 10
10032.1707570848993782
 20
-1144.9999999999979536
 30
0.0
 11
10067.0000000000090949
 21
-1110.1707570848930118
 31
0.0
1001
ACAD
1010
0.0
1020
0.0
1030
0.0
  0
LINE
  5
12758B
  8
SLIM
  6
CONTINUOUS
 10
10050.1312693270392629
 20
-1144.9999999999990905
 30
0.0
 11
10067.0000000000090949
 21
-1128.1312693270310774
 31
0.0
1001
ACAD
1010
0.0
1020
0.0
1030
0.0
  0
LINE
  5
12758C
  8
OBJECT
 10
9932.999999999992724
 20
-1144.9999999999959073
 30
0.0
 11
10067.0000000000090949
 21
-1144.9999999999990905
 31
0.0
1001
ACDBBLOCKREPETAG
1070
     1
1071
        1
1005
12758C
  0
LINE
  5
12758D
  8
OBJECT
 10
9914.999999999992724
 20
-654.9999999999994316
 30
0.0
 11
9915.0
 21
-882.6996828091407679
 31
0.0
1001
ACDBBLOCKREPETAG
1070
     1
1071
        2
1005
12758D
  0
LINE
  5
12758E
  8
OBJECT
 10
10085.0000000000090949
 20
-654.9999999999994316
 30
0.0
 11
10085.0
 21
-882.6996828091719181
 31
0.0
1001
ACDBBLOCKREPETAG
1070
     1
1071
        3
1005
12758E
  0
LINE
  5
12758F
  8
OBJECT
 10
9915.0
 20
-882.6996828091407679
 30
0.0
 11
9932.999999999992724
 21
-1010.6996828090809686
 31
0.0
1001
ACDBBLOCKREPETAG
1070
     1
1071
        4
1005
12758F
  0
LINE
  5
127590
  8
OBJECT
 10
10067.0000000000090949
 20
-1010.6996828091280349
 30
0.0
 11
10085.0
 21
-882.6996828091719181
 31
0.0
1001
ACDBBLOCKREPETAG
1070
     1
1071
        5
1005
127590
  0
LINE
  5
127591
  8
OBJECT
 10
10085.0000000000090949
 20
-654.9999999999994316
 30
0.0
 11
9914.999999999992724
 21
-654.9999999999994316
 31
0.0
1001
ACDBBLOCKREPETAG
1070
     1
1071
        6
1005
127591
  0
POINT
  5
127592
  8
DOTS
 10
10000.0
 20
-799.9999999999994316
 30
0.0
1001
ACDBBLOCKREPETAG
1070
     1
1071
        7
1005
127592
  0
LINE
  5
127593
  8
OBJECT
 10
9932.999999999992724
 20
-1010.6996828090809686
 30
0.0
 11
9932.999999999992724
 21
-1144.9999999999959073
 31
0.0
1001
ACDBBLOCKREPETAG
1070
     1
1071
        8
1005
127593
  0
LINE
  5
127594
  8
OBJECT
 10
10067.0000000000090949
 20
-1010.6996828091280349
 30
0.0
 11
10067.0000000000090949
 21
-1144.9999999999990905
 31
0.0
1001
ACDBBLOCKREPETAG
1070
     1
1071
        9
1005
127594
  0
POINT
  5
127595
  8
DOTS
 10
8000.0
 20
-799.9999999999994316
 30
0.0
1001
ACDBBLOCKREPETAG
1070
     1
1071
       10
1005
127595
  0
LINE
  5
127596
  8
OBJECT
 10
7943.0
 20
-1134.9999999999979536
 30
0.0
 11
8057.0
 21
-1134.9999999999979536
 31
0.0
1001
ACDBBLOCKREPETAG
1070
     1
1071
        1
1005
0
  0
LINE
  5
127597
  8
OBJECT
 10
7933.0
 20
-1104.9999999999970441
 30
0.0
 11
8067.0
 21
-1104.9999999999970441
 31
0.0
1001
ACDBBLOCKREPETAG
1070
     1
1071
        2
1005
0
  0
LINE
  5
127598
  8
OBJECT
 10
7914.9999999999918145
 20
-654.9999999999994316
 30
0.0
 11
7915.0
 21
-882.699682809135993
 31
0.0
1001
ACDBBLOCKREPETAG
1070
     1
1071
        5
1005
0
  0
LINE
  5
127599
  8
OBJECT
 10
8085.0000000000063665
 20
-654.9999999999994316
 30
0.0
 11
8085.0
 21
-882.699682809135993
 31
0.0
1001
ACDBBLOCKREPETAG
1070
     1
1071
        6
1005
0
  0
LINE
  5
12759A
  8
OBJECT
 10
8085.0000000000063665
 20
-654.9999999999994316
 30
0.0
 11
7914.9999999999918145
 21
-654.9999999999994316
 31
0.0
1001
ACDBBLOCKREPETAG
1070
     1
1071
        9
1005
0
  0
LINE
  5
12759B
  8
OBJECT
 10
7933.0
 20
-1104.9999999999970441
 30
0.0
 11
7933.0
 21
-1010.699682809135993
 31
0.0
1001
ACDBBLOCKREPETAG
1070
     1
1071
      415
1005
0
  0
LINE
  5
12759C
  8
OBJECT
 10
8067.0
 20
-1104.9999999999970441
 30
0.0
 11
8067.0
 21
-1010.699682809135993
 31
0.0
1001
ACDBBLOCKREPETAG
1070
     1
1071
      416
1005
0
  0
LINE
  5
12759D
  8
OBJECT
 10
7915.0
 20
-882.699682809135993
 30
0.0
 11
7933.0
 21
-1010.699682809135993
 31
0.0
1001
ACDBBLOCKREPETAG
1070
     1
1071
      424
1005
0
  0
LINE
  5
12759E
  8
OBJECT
 10
8067.0
 20
-1010.699682809135993
 30
0.0
 11
8085.0
 21
-882.699682809135993
 31
0.0
1001
ACDBBLOCKREPETAG
1070
     1
1071
      425
1005
0
  0
LINE
  5
12759F
  8
OBJECT
 10
7943.0
 20
-1134.9999999999979536
 30
0.0
 11
7943.0
 21
-1104.9999999999970441
 31
0.0
1001
ACDBBLOCKREPETAG
1070
     1
1071
      415
1005
0
  0
LINE
  5
1275A0
  8
OBJECT
 10
8057.0
 20
-1134.9999999999979536
 30
0.0
 11
8057.0
 21
-1104.9999999999970441
 31
0.0
1001
ACDBBLOCKREPETAG
1070
     1
1071
      415
1005
0
  0
LINE
  5
1275A1
  8
SLIM
  6
CONTINUOUS
 10
7914.9999999999918145
 20
-669.4738530943460546
 30
0.0
 11
7929.473853094338665
 21
-654.9999999999994316
 31
0.0
1001
GRADIENTCOLOR1ACI
1070
     5
1001
GRADIENTCOLOR2ACI
1070
     2
1001
ACAD
1010
0.0
1020
0.0
1030
0.0
  0
LINE
  5
1275A2
  8
SLIM
  6
CONTINUOUS
 10
7914.999999999996362
 20
-687.4343653364838929
 30
0.0
 11
7947.4343653364758211
 21
-654.9999999999994316
 31
0.0
1001
GRADIENTCOLOR1ACI
1070
     5
1001
GRADIENTCOLOR2ACI
1070
     2
1001
ACAD
1010
0.0
1020
0.0
1030
0.0
  0
LINE
  5
1275A3
  8
SLIM
  6
CONTINUOUS
 10
7914.999999999996362
 20
-705.3948775786217311
 30
0.0
 11
7965.3948775786138867
 21
-654.9999999999994316
 31
0.0
1001
GRADIENTCOLOR1ACI
1070
     5
1001
GRADIENTCOLOR2ACI
1070
     2
1001
ACAD
1010
0.0
1020
0.0
1030
0.0
  0
LINE
  5
1275A4
  8
SLIM
  6
CONTINUOUS
 10
7914.999999999998181
 20
-723.3553898207592283
 30
0.0
 11
7983.3553898207546808
 21
-654.9999999999994316
 31
0.0
1001
GRADIENTCOLOR1ACI
1070
     5
1001
GRADIENTCOLOR2ACI
1070
     2
1001
ACAD
1010
0.0
1020
0.0
1030
0.0
  0
LINE
  5
1275A5
  8
SLIM
  6
CONTINUOUS
 10
7914.999999999998181
 20
-741.3159020628974076
 30
0.0
 11
8001.3159020628927465
 21
-654.9999999999994316
 31
0.0
1001
GRADIENTCOLOR1ACI
1070
     5
1001
GRADIENTCOLOR2ACI
1070
     2
1001
ACAD
1010
0.0
1020
0.0
1030
0.0
  0
LINE
  5
1275A6
  8
SLIM
  6
CONTINUOUS
 10
7914.999999999998181
 20
-759.2764143050350185
 30
0.0
 11
8019.2764143050299026
 21
-654.9999999999994316
 31
0.0
1001
GRADIENTCOLOR1ACI
1070
     5
1001
GRADIENTCOLOR2ACI
1070
     2
1001
ACAD
1010
0.0
1020
0.0
1030
0.0
  0
LINE
  5
1275A7
  8
SLIM
  6
CONTINUOUS
 10
7914.9999999999990905
 20
-777.236926547172402
 30
0.0
 11
8037.2369265471688777
 21
-654.9999999999994316
 31
0.0
1001
GRADIENTCOLOR1ACI
1070
     5
1001
GRADIENTCOLOR2ACI
1070
     2
1001
ACAD
1010
0.0
1020
0.0
1030
0.0
  0
LINE
  5
1275A8
  8
SLIM
  6
CONTINUOUS
 10
7914.9999999999990905
 20
-795.1974387893104677
 30
0.0
 11
8055.1974387893096718
 21
-654.9999999999994316
 31
0.0
1001
GRADIENTCOLOR1ACI
1070
     5
1001
GRADIENTCOLOR2ACI
1070
     2
1001
ACAD
1010
0.0
1020
0.0
1030
0.0
  0
LINE
  5
1275A9
  8
SLIM
  6
CONTINUOUS
 10
7914.9999999999990905
 20
-813.1579510314484196
 30
0.0
 11
8073.157951031446828
 21
-654.9999999999994316
 31
0.0
1001
GRADIENTCOLOR1ACI
1070
     5
1001
GRADIENTCOLOR2ACI
1070
     2
1001
ACAD
1010
0.0
1020
0.0
1030
0.0
  0
LINE
  5
1275AA
  8
SLIM
  6
CONTINUOUS
 10
7914.999999999998181
 20
-831.1184632735859168
 30
0.0
 11
8085.0000000000063665
 21
-661.1184632735769355
 31
0.0
1001
GRADIENTCOLOR1ACI
1070
     5
1001
GRADIENTCOLOR2ACI
1070
     2
1001
ACAD
1010
0.0
1020
0.0
1030
0.0
  0
LINE
  5
1275AB
  8
SLIM
  6
CONTINUOUS
 10
7914.999999999998181
 20
-849.0789755157235277
 30
0.0
 11
8085.0000000000063665
 21
-679.0789755157160243
 31
0.0
1001
GRADIENTCOLOR1ACI
1070
     5
1001
GRADIENTCOLOR2ACI
1070
     2
1001
ACAD
1010
0.0
1020
0.0
1030
0.0
  0
LINE
  5
1275AC
  8
SLIM
  6
CONTINUOUS
 10
7915.0
 20
-867.0394877578612522
 30
0.0
 11
8085.0000000000063665
 21
-697.0394877578547721
 31
0.0
1001
GRADIENTCOLOR1ACI
1070
     5
1001
GRADIENTCOLOR2ACI
1070
     2
1001
ACAD
1010
0.0
1020
0.0
1030
0.0
  0
LINE
  5
1275AD
  8
SLIM
  6
CONTINUOUS
 10
7915.2836007495589001
 20
-884.7163992504406451
 30
0.0
 11
8085.0000000000063665
 21
-714.9999999999938609
 31
0.0
1001
GRADIENTCOLOR1ACI
1070
     5
1001
GRADIENTCOLOR2ACI
1070
     2
1001
ACAD
1010
0.0
1020
0.0
1030
0.0
  0
LINE
  5
1275AE
  8
SLIM
  6
CONTINUOUS
 10
7917.4979104780422858
 20
-900.4626017640960072
 30
0.0
 11
8085.0000000000063665
 21
-732.9605122421326087
 31
0.0
1001
GRADIENTCOLOR1ACI
1070
     5
1001
GRADIENTCOLOR2ACI
1070
     2
1001
ACAD
1010
0.0
1020
0.0
1030
0.0
  0
LINE
  5
1275AF
  8
SLIM
  6
CONTINUOUS
 10
7919.7122202065256715
 20
-916.2088042777517103
 30
0.0
 11
8085.0000000000063665
 21
-750.9210244842715838
 31
0.0
1001
GRADIENTCOLOR1ACI
1070
     5
1001
GRADIENTCOLOR2ACI
1070
     2
1001
ACAD
1010
0.0
1020
0.0
1030
0.0
  0
LINE
  5
1275B0
  8
SLIM
  6
CONTINUOUS
 10
7921.9265299350072382
 20
-931.9550067914072997
 30
0.0
 11
8085.000000000001819
 21
-768.8815367264104452
 31
0.0
1001
GRADIENTCOLOR1ACI
1070
     5
1001
GRADIENTCOLOR2ACI
1070
     2
1001
ACAD
1010
0.0
1020
0.0
1030
0.0
  0
LINE
  5
1275B1
  8
SLIM
  6
CONTINUOUS
 10
7924.1408396634878955
 20
-947.7012093050625481
 30
0.0
 11
8085.000000000001819
 21
-786.8420489685494204
 31
0.0
1001
GRADIENTCOLOR1ACI
1070
     5
1001
GRADIENTCOLOR2ACI
1070
     2
1001
ACAD
1010
0.0
1020
0.0
1030
0.0
  0
LINE
  5
1275B2
  8
SLIM
  6
CONTINUOUS
 10
7926.3551493919731001
 20
-963.4474118187182512
 30
0.0
 11
8085.000000000001819
 21
-804.8025612106882818
 31
0.0
1001
GRADIENTCOLOR1ACI
1070
     5
1001
GRADIENTCOLOR2ACI
1070
     2
1001
ACAD
1010
0.0
1020
0.0
1030
0.0
  0
LINE
  5
1275B3
  8
SLIM
  6
CONTINUOUS
 10
7928.5694591204537574
 20
-979.1936143323736133
 30
0.0
 11
8085.000000000001819
 21
-822.7630734528270295
 31
0.0
1001
GRADIENTCOLOR1ACI
1070
     5
1001
GRADIENTCOLOR2ACI
1070
     2
1001
ACAD
1010
0.0
1020
0.0
1030
0.0
  0
LINE
  5
1275B4
  8
SLIM
  6
CONTINUOUS
 10
7930.783768848940781
 20
-994.9398168460288616
 30
0.0
 11
8085.000000000001819
 21
-840.7235856949656636
 31
0.0
1001
GRADIENTCOLOR1ACI
1070
     5
1001
GRADIENTCOLOR2ACI
1070
     2
1001
ACAD
1010
0.0
1020
0.0
1030
0.0
  0
LINE
  5
1275B5
  8
SLIM
  6
CONTINUOUS
 10
7932.9980785774187098
 20
-1010.6860193596850195
 30
0.0
 11
8085.0
 21
-858.6840979371046387
 31
0.0
1001
GRADIENTCOLOR1ACI
1070
     5
1001
GRADIENTCOLOR2ACI
1070
     2
1001
ACAD
1010
0.0
1020
0.0
1030
0.0
  0
LINE
  5
1275B6
  8
SLIM
  6
CONTINUOUS
 10
7933.0
 20
-1028.6446101792439549
 30
0.0
 11
8085.0
 21
-876.6446101792435002
 31
0.0
1001
GRADIENTCOLOR1ACI
1070
     5
1001
GRADIENTCOLOR2ACI
1070
     2
1001
ACAD
1010
0.0
1020
0.0
1030
0.0
  0
LINE
  5
1275B7
  8
SLIM
  6
CONTINUOUS
 10
7933.0
 20
-1046.6051224213820205
 30
0.0
 11
8083.051837154362147
 21
-896.553285267022261
 31
0.0
1001
GRADIENTCOLOR1ACI
1070
     5
1001
GRADIENTCOLOR2ACI
1070
     2
1001
ACAD
1010
0.0
1020
0.0
1030
0.0
  0
LINE
  5
1275B8
  8
SLIM
  6
CONTINUOUS
 10
7933.0
 20
-1064.5656346635200862
 30
0.0
 11
8080.1128442420113061
 21
-917.4527904215107128
 31
0.0
1001
GRADIENTCOLOR1ACI
1070
     5
1001
GRADIENTCOLOR2ACI
1070
     2
1001
ACAD
1010
0.0
1020
0.0
1030
0.0
  0
LINE
  5
1275B9
  8
SLIM
  6
CONTINUOUS
 10
7933.0
 20
-1082.5261469056590613
 30
0.0
 11
8077.1738513296613746
 21
-938.3522955759987099
 31
0.0
1001
GRADIENTCOLOR1ACI
1070
     5
1001
GRADIENTCOLOR2ACI
1070
     2
1001
ACAD
1010
0.0
1020
0.0
1030
0.0
  0
LINE
  5
1275BA
  8
SLIM
  6
CONTINUOUS
 10
7933.0
 20
-1100.4866591477968996
 30
0.0
 11
8074.2348584173114432
 21
-959.251800730487048
 31
0.0
1001
GRADIENTCOLOR1ACI
1070
     5
1001
GRADIENTCOLOR2ACI
1070
     2
1001
ACAD
1010
0.0
1020
0.0
1030
0.0
  0
LINE
  5
1275BB
  8
SLIM
  6
CONTINUOUS
 10
7943.0
 20
-1108.4471713899349652
 30
0.0
 11
7946.4471713899383758
 21
-1104.9999999999970441
 31
0.0
1001
GRADIENTCOLOR1ACI
1070
     5
1001
GRADIENTCOLOR2ACI
1070
     2
1001
ACAD
1010
0.0
1020
0.0
1030
0.0
  0
LINE
  5
1275BC
  8
SLIM
  6
CONTINUOUS
 10
7946.4471713899383758
 20
-1104.9999999999970441
 30
0.0
 11
8071.2958655049606023
 21
-980.1513058849754998
 31
0.0
1001
GRADIENTCOLOR1ACI
1070
     5
1001
GRADIENTCOLOR2ACI
1070
     2
1001
ACAD
1010
0.0
1020
0.0
1030
0.0
  0
LINE
  5
1275BD
  8
SLIM
  6
CONTINUOUS
 10
7943.0
 20
-1126.4076836320739403
 30
0.0
 11
7964.4076836320782604
 21
-1104.9999999999970441
 31
0.0
1001
GRADIENTCOLOR1ACI
1070
     5
1001
GRADIENTCOLOR2ACI
1070
     2
1001
ACAD
1010
0.0
1020
0.0
1030
0.0
  0
LINE
  5
1275BE
  8
SLIM
  6
CONTINUOUS
 10
7964.4076836320782604
 20
-1104.9999999999970441
 30
0.0
 11
8068.3568725926088518
 21
-1001.0508110394639516
 31
0.0
1001
GRADIENTCOLOR1ACI
1070
     5
1001
GRADIENTCOLOR2ACI
1070
     2
1001
ACAD
1010
0.0
1020
0.0
1030
0.0
  0
LINE
  5
1275BF
  8
SLIM
  6
CONTINUOUS
 10
7952.3681958742126881
 20
-1134.9999999999979536
 30
0.0
 11
7982.3681958742117786
 21
-1104.9999999999970441
 31
0.0
1001
GRADIENTCOLOR1ACI
1070
     5
1001
GRADIENTCOLOR2ACI
1070
     2
1001
ACAD
1010
0.0
1020
0.0
1030
0.0
  0
LINE
  5
1275C0
  8
SLIM
  6
CONTINUOUS
 10
7982.3681958742117786
 20
-1104.9999999999970441
 30
0.0
 11
8067.0
 21
-1020.3681958742120059
 31
0.0
1001
GRADIENTCOLOR1ACI
1070
     5
1001
GRADIENTCOLOR2ACI
1070
     2
1001
ACAD
1010
0.0
1020
0.0
1030
0.0
  0
LINE
  5
1275C1
  8
SLIM
  6
CONTINUOUS
 10
7970.3287081163516632
 20
-1134.9999999999979536
 30
0.0
 11
8000.3287081163516632
 21
-1104.9999999999970441
 31
0.0
1001
GRADIENTCOLOR1ACI
1070
     5
1001
GRADIENTCOLOR2ACI
1070
     2
1001
ACAD
1010
0.0
1020
0.0
1030
0.0
  0
LINE
  5
1275C2
  8
SLIM
  6
CONTINUOUS
 10
8000.3287081163516632
 20
-1104.9999999999970441
 30
0.0
 11
8067.0
 21
-1038.3287081163500716
 31
0.0
1001
GRADIENTCOLOR1ACI
1070
     5
1001
GRADIENTCOLOR2ACI
1070
     2
1001
ACAD
1010
0.0
1020
0.0
1030
0.0
  0
LINE
  5
1275C3
  8
SLIM
  6
CONTINUOUS
 10
7988.2892203584915478
 20
-1134.9999999999979536
 30
0.0
 11
8018.2892203584888193
 21
-1104.9999999999970441
 31
0.0
1001
GRADIENTCOLOR1ACI
1070
     5
1001
GRADIENTCOLOR2ACI
1070
     2
1001
ACAD
1010
0.0
1020
0.0
1030
0.0
  0
LINE
  5
1275C4
  8
SLIM
  6
CONTINUOUS
 10
8018.2892203584888193
 20
-1104.9999999999970441
 30
0.0
 11
8067.0
 21
-1056.2892203584890467
 31
0.0
1001
GRADIENTCOLOR1ACI
1070
     5
1001
GRADIENTCOLOR2ACI
1070
     2
1001
ACAD
1010
0.0
1020
0.0
1030
0.0
  0
LINE
  5
1275C5
  8
SLIM
  6
CONTINUOUS
 10
8006.249732600626885
 20
-1134.9999999999979536
 30
0.0
 11
8036.2497326006277945
 21
-1104.9999999999970441
 31
0.0
1001
GRADIENTCOLOR1ACI
1070
     5
1001
GRADIENTCOLOR2ACI
1070
     2
1001
ACAD
1010
0.0
1020
0.0
1030
0.0
  0
LINE
  5
1275C6
  8
SLIM
  6
CONTINUOUS
 10
8036.2497326006277945
 20
-1104.9999999999970441
 30
0.0
 11
8067.0
 21
-1074.2497326006271123
 31
0.0
1001
GRADIENTCOLOR1ACI
1070
     5
1001
GRADIENTCOLOR2ACI
1070
     2
1001
ACAD
1010
0.0
1020
0.0
1030
0.0
  0
LINE
  5
1275C7
  8
SLIM
  6
CONTINUOUS
 10
8024.2102448427676791
 20
-1134.9999999999979536
 30
0.0
 11
8054.2102448427685886
 21
-1104.9999999999970441
 31
0.0
1001
GRADIENTCOLOR1ACI
1070
     5
1001
GRADIENTCOLOR2ACI
1070
     2
1001
ACAD
1010
0.0
1020
0.0
1030
0.0
  0
LINE
  5
1275C8
  8
SLIM
  6
CONTINUOUS
 10
8054.2102448427685886
 20
-1104.9999999999970441
 30
0.0
 11
8067.0
 21
-1092.2102448427649506
 31
0.0
1001
GRADIENTCOLOR1ACI
1070
     5
1001
GRADIENTCOLOR2ACI
1070
     2
1001
ACAD
1010
0.0
1020
0.0
1030
0.0
  0
LINE
  5
1275C9
  8
SLIM
  6
CONTINUOUS
 10
8042.1707570849066542
 20
-1134.9999999999979536
 30
0.0
 11
8057.0
 21
-1120.1707570849030162
 31
0.0
1001
GRADIENTCOLOR1ACI
1070
     5
1001
GRADIENTCOLOR2ACI
1070
     2
1001
ACAD
1010
0.0
1020
0.0
1030
0.0
  0
LINE
  5
1275CA
  8
OBJECT
 10
7918.0
 20
-470.9999999999993179
 30
0.0
 11
7918.0
 21
-449.9999999999993747
 31
0.0
1001
ACDBBLOCKREPETAG
1070
     1
1071
        0
1005
1275CA
  0
LINE
  5
1275CB
  8
OBJECT
 10
7918.0
 20
-449.9999999999993747
 30
0.0
 11
8082.000000000003638
 21
-449.9999999999993747
 31
0.0
1001
ACDBBLOCKREPETAG
1070
     1
1071
        1
1005
1275CB
  0
LINE
  5
1275CC
  8
HIDDEN
 10
7943.0
 20
-519.9999999999994316
 30
0.0
 11
8057.0
 21
-519.9999999999994316
 31
0.0
1001
ACDBBLOCKREPETAG
1070
     1
1071
        2
1005
1275CC
  0
LINE
  5
1275CD
  8
OBJECT
 10
8082.000000000003638
 20
-470.9999999999993179
 30
0.0
 11
7918.0
 21
-470.9999999999993179
 31
0.0
1001
ACDBBLOCKREPETAG
1070
     1
1071
        3
1005
1275CD
  0
LINE
  5
1275CE
  8
CENTER
 10
8000.0
 20
-434.9999999999993747
 30
0.0
 11
8000.0
 21
-799.9999999999994316
 31
0.0
1001
ACDBBLOCKREPETAG
1070
     1
1071
        4
1005
1275CE
  0
LINE
  5
1275CF
  8
OBJECT
 10
7925.0
 20
-533.9999999999994316
 30
0.0
 11
7925.0
 21
-787.9999999999994316
 31
0.0
1001
ACDBBLOCKREPETAG
1070
     1
1071
        5
1005
1275CF
  0
LINE
  5
1275D0
  8
OBJECT
 10
7928.0
 20
-470.9999999999993179
 30
0.0
 11
7928.0
 21
-533.9999999999994316
 31
0.0
1001
ACDBBLOCKREPETAG
1070
     1
1071
        6
1005
1275D0
  0
LINE
  5
1275D1
  8
OBJECT
 10
8072.0
 20
-533.9999999999994316
 30
0.0
 11
8072.0
 21
-470.9999999999993179
 31
0.0
1001
ACDBBLOCKREPETAG
1070
     1
1071
        7
1005
1275D1
  0
LINE
  5
1275D2
  8
OBJECT
 10
7920.0
 20
-787.9999999999994316
 30
0.0
 11
8080.0
 21
-787.9999999999994316
 31
0.0
1001
ACDBBLOCKREPETAG
1070
     1
1071
        8
1005
1275D2
  0
LINE
  5
1275D3
  8
OBJECT
 10
8080.0
 20
-533.9999999999994316
 30
0.0
 11
7925.0
 21
-533.9999999999994316
 31
0.0
1001
ACDBBLOCKREPETAG
1070
     1
1071
        9
1005
1275D3
  0
LINE
  5
1275D4
  8
OBJECT
 10
7920.0
 20
-787.9999999999994316
 30
0.0
 11
7920.0
 21
-799.9999999999994316
 31
0.0
1001
ACDBBLOCKREPETAG
1070
     1
1071
       10
1005
1275D4
  0
LINE
  5
1275D5
  8
OBJECT
 10
7920.0
 20
-799.9999999999994316
 30
0.0
 11
8080.0
 21
-799.9999999999994316
 31
0.0
1001
ACDBBLOCKREPETAG
1070
     1
1071
       11
1005
1275D5
  0
LINE
  5
1275D6
  8
OBJECT
 10
8080.0
 20
-799.9999999999994316
 30
0.0
 11
8080.0
 21
-787.9999999999994316
 31
0.0
1001
ACDBBLOCKREPETAG
1070
     1
1071
       12
1005
1275D6
  0
LINE
  5
1275D7
  8
OBJECT
 10
8074.9999999998599378
 20
-657.9999999998503881
 30
0.0
 11
8075.0
 21
-787.9999999999994316
 31
0.0
1001
ACDBBLOCKREPETAG
1070
     1
1071
       14
1005
1275D7
  0
LINE
  5
1275D8
  8
OBJECT
 10
8074.9999908029858489
 20
-657.9999860270213503
 30
0.0
 11
8080.0
 21
-657.9999860270213503
 31
0.0
1001
ACDBBLOCKREPETAG
1070
     1
1071
       15
1005
1275D8
  0
LINE
  5
1275D9
  8
OBJECT
 10
7920.7940817120261272
 20
-449.9999999999993747
 30
0.0
 11
7920.7940817120261272
 21
-470.9999999999993179
 31
0.0
1001
ACDBBLOCKREPETAG
1070
     1
1071
       16
1005
1275D9
  0
LINE
  5
1275DA
  8
OBJECT
 10
7928.7378959999978179
 20
-449.9999999999993747
 30
0.0
 11
7928.7378959999978179
 21
-470.9999999999993179
 31
0.0
1001
ACDBBLOCKREPETAG
1070
     1
1071
       17
1005
1275DA
  0
LINE
  5
1275DB
  8
OBJECT
 10
7970.8330260000011549
 20
-449.9999999999993747
 30
0.0
 11
7970.8330260000011549
 21
-470.9999999999993179
 31
0.0
1001
ACDBBLOCKREPETAG
1070
     1
1071
       18
1005
1275DB
  0
LINE
  5
1275DC
  8
OBJECT
 10
7978.7768389217990261
 20
-449.9999999999993747
 30
0.0
 11
7978.7768389217990261
 21
-470.9999999999993179
 31
0.0
1001
ACDBBLOCKREPETAG
1070
     1
1071
       19
1005
1275DC
  0
LINE
  5
1275DD
  8
OBJECT
 10
8082.0
 20
-470.9999999999993179
 30
0.0
 11
8082.0
 21
-449.9999999999993747
 31
0.0
1001
ACDBBLOCKREPETAG
1070
     1
1071
       20
1005
1275DD
  0
LINE
  5
1275DE
  8
OBJECT
 10
8079.2059182879729633
 20
-449.9999999999993747
 30
0.0
 11
8079.2059182879729633
 21
-470.9999999999993179
 31
0.0
1001
ACDBBLOCKREPETAG
1070
     1
1071
       21
1005
1275DE
  0
LINE
  5
1275DF
  8
OBJECT
 10
8071.2621040000021821
 20
-449.9999999999993747
 30
0.0
 11
8071.2621040000021821
 21
-470.9999999999993179
 31
0.0
1001
ACDBBLOCKREPETAG
1070
     1
1071
       22
1005
1275DF
  0
LINE
  5
1275E0
  8
OBJECT
 10
8029.1669739999979356
 20
-449.9999999999993747
 30
0.0
 11
8029.1669739999979356
 21
-470.9999999999993179
 31
0.0
1001
ACDBBLOCKREPETAG
1070
     1
1071
       23
1005
1275E0
  0
LINE
  5
1275E1
  8
OBJECT
 10
8021.2231610782018834
 20
-449.9999999999993747
 30
0.0
 11
8021.2231610782018834
 21
-470.9999999999993179
 31
0.0
1001
ACDBBLOCKREPETAG
1070
     1
1071
       24
1005
1275E1
  0
ARC
  5
1275E2
  8
OBJECT
 10
8200.6872746716726397
 20
-649.4080994101070701
 30
0.0
 40
170.6350503965855978
 50
137.4413445918430057
 51
149.9194958133722082
1001
ACDBBLOCKREPETAG
1070
     1
1071
       25
1005
1275E2
  0
ARC
  5
1275E3
  8
OBJECT
 10
8118.8455987040497348
 20
-605.8827266953644539
 30
0.0
 40
78.0722220217636647
 50
147.4551531038293035
 51
164.663659977199103
1001
ACDBBLOCKREPETAG
1070
     1
1071
       26
1005
1275E3
  0
ARC
  5
1275E4
  8
OBJECT
 10
8085.7554349608708435
 20
-595.9999999999994316
 30
0.0
 40
43.5535392688561771
 50
165.6884523007529992
 51
194.3115476992468871
1001
ACDBBLOCKREPETAG
1070
     1
1071
       27
1005
1275E4
  0
ARC
  5
1275E5
  8
OBJECT
 10
8200.6872746716726397
 20
-542.5919005898917931
 30
0.0
 40
170.6350503965855978
 50
210.0805041866277918
 51
222.5586554081569943
1001
ACDBBLOCKREPETAG
1070
     1
1071
       28
1005
1275E5
  0
ARC
  5
1275E6
  8
OBJECT
 10
8118.8455987040497348
 20
-586.1172733046345229
 30
0.0
 40
78.0722220217636647
 50
195.3363400228006128
 51
212.5448468961706112
1001
ACDBBLOCKREPETAG
1070
     1
1071
       29
1005
1275E6
  0
POINT
  5
1275E7
  8
DOTS
 10
8000.0
 20
-654.9999999999994316
 30
0.0
1001
ACDBBLOCKREPETAG
1070
     1
1071
      204
1005
1275E7
  0
LINE
  5
1275E8
  8
OBJECT
 10
11918.0
 20
-470.9999999999993179
 30
0.0
 11
11918.0
 21
-449.9999999999993747
 31
0.0
1001
ACDBBLOCKREPETAG
1070
     1
1071
        0
1005
1275E8
  0
LINE
  5
1275E9
  8
OBJECT
 10
11918.0
 20
-449.9999999999993747
 30
0.0
 11
12082.0
 21
-449.9999999999993747
 31
0.0
1001
ACDBBLOCKREPETAG
1070
     1
1071
        1
1005
1275E9
  0
LINE
  5
1275EA
  8
HIDDEN
 10
11943.0
 20
-519.9999999999994316
 30
0.0
 11
12057.0
 21
-519.9999999999994316
 31
0.0
1001
ACDBBLOCKREPETAG
1070
     1
1071
        2
1005
1275EA
  0
LINE
  5
1275EB
  8
OBJECT
 10
12082.0
 20
-470.9999999999993179
 30
0.0
 11
11918.0
 21
-470.9999999999993179
 31
0.0
1001
ACDBBLOCKREPETAG
1070
     1
1071
        3
1005
1275EB
  0
LINE
  5
1275EC
  8
CENTER
 10
12000.0
 20
-434.9999999999993747
 30
0.0
 11
12000.0
 21
-799.9999999999994316
 31
0.0
1001
ACDBBLOCKREPETAG
1070
     1
1071
        4
1005
1275EC
  0
LINE
  5
1275ED
  8
OBJECT
 10
11925.0
 20
-533.9999999999994316
 30
0.0
 11
11925.0
 21
-787.9999999999994316
 31
0.0
1001
ACDBBLOCKREPETAG
1070
     1
1071
        5
1005
1275ED
  0
LINE
  5
1275EE
  8
OBJECT
 10
11928.0
 20
-470.9999999999993179
 30
0.0
 11
11928.0
 21
-533.9999999999994316
 31
0.0
1001
ACDBBLOCKREPETAG
1070
     1
1071
        6
1005
1275EE
  0
LINE
  5
1275EF
  8
OBJECT
 10
12072.0
 20
-533.9999999999994316
 30
0.0
 11
12072.0
 21
-470.9999999999993179
 31
0.0
1001
ACDBBLOCKREPETAG
1070
     1
1071
        7
1005
1275EF
  0
LINE
  5
1275F0
  8
OBJECT
 10
11920.0
 20
-787.9999999999994316
 30
0.0
 11
12080.0
 21
-787.9999999999994316
 31
0.0
1001
ACDBBLOCKREPETAG
1070
     1
1071
        8
1005
1275F0
  0
LINE
  5
1275F1
  8
OBJECT
 10
12080.0
 20
-533.9999999999994316
 30
0.0
 11
11925.0
 21
-533.9999999999994316
 31
0.0
1001
ACDBBLOCKREPETAG
1070
     1
1071
        9
1005
1275F1
  0
LINE
  5
1275F2
  8
OBJECT
 10
11920.0
 20
-787.9999999999994316
 30
0.0
 11
11920.0
 21
-799.9999999999994316
 31
0.0
1001
ACDBBLOCKREPETAG
1070
     1
1071
       10
1005
1275F2
  0
LINE
  5
1275F3
  8
OBJECT
 10
11920.0
 20
-799.9999999999994316
 30
0.0
 11
12080.0
 21
-799.9999999999994316
 31
0.0
1001
ACDBBLOCKREPETAG
1070
     1
1071
       11
1005
1275F3
  0
LINE
  5
1275F4
  8
OBJECT
 10
12080.0
 20
-799.9999999999994316
 30
0.0
 11
12080.0
 21
-787.9999999999994316
 31
0.0
1001
ACDBBLOCKREPETAG
1070
     1
1071
       12
1005
1275F4
  0
LINE
  5
1275F5
  8
OBJECT
 10
12074.9999999998599378
 20
-657.9999999998503881
 30
0.0
 11
12075.0
 21
-787.9999999999994316
 31
0.0
1001
ACDBBLOCKREPETAG
1070
     1
1071
       14
1005
1275F5
  0
LINE
  5
1275F6
  8
OBJECT
 10
12074.9999908029894868
 20
-657.9999860270213503
 30
0.0
 11
12080.0
 21
-657.9999860270213503
 31
0.0
1001
ACDBBLOCKREPETAG
1070
     1
1071
       15
1005
1275F6
  0
LINE
  5
1275F7
  8
OBJECT
 10
11920.7940817120197607
 20
-449.9999999999993747
 30
0.0
 11
11920.7940817120197607
 21
-470.9999999999993179
 31
0.0
1001
ACDBBLOCKREPETAG
1070
     1
1071
       16
1005
1275F7
  0
LINE
  5
1275F8
  8
OBJECT
 10
11928.7378960000005463
 20
-449.9999999999993747
 30
0.0
 11
11928.7378960000005463
 21
-470.9999999999993179
 31
0.0
1001
ACDBBLOCKREPETAG
1070
     1
1071
       17
1005
1275F8
  0
LINE
  5
1275F9
  8
OBJECT
 10
11970.8330260000002454
 20
-449.9999999999993747
 30
0.0
 11
11970.8330260000002454
 21
-470.9999999999993179
 31
0.0
1001
ACDBBLOCKREPETAG
1070
     1
1071
       18
1005
1275F9
  0
LINE
  5
1275FA
  8
OBJECT
 10
11978.7768389217999356
 20
-449.9999999999993747
 30
0.0
 11
11978.7768389217999356
 21
-470.9999999999993179
 31
0.0
1001
ACDBBLOCKREPETAG
1070
     1
1071
       19
1005
1275FA
  0
LINE
  5
1275FB
  8
OBJECT
 10
12082.0
 20
-470.9999999999993179
 30
0.0
 11
12082.0
 21
-449.9999999999993747
 31
0.0
1001
ACDBBLOCKREPETAG
1070
     1
1071
       20
1005
1275FB
  0
LINE
  5
1275FC
  8
OBJECT
 10
12079.2059182879693253
 20
-449.9999999999993747
 30
0.0
 11
12079.2059182879693253
 21
-470.9999999999993179
 31
0.0
1001
ACDBBLOCKREPETAG
1070
     1
1071
       21
1005
1275FC
  0
LINE
  5
1275FD
  8
OBJECT
 10
12071.2621039999994537
 20
-449.9999999999993747
 30
0.0
 11
12071.2621039999994537
 21
-470.9999999999993179
 31
0.0
1001
ACDBBLOCKREPETAG
1070
     1
1071
       22
1005
1275FD
  0
LINE
  5
1275FE
  8
OBJECT
 10
12029.1669739999997546
 20
-449.9999999999993747
 30
0.0
 11
12029.1669739999997546
 21
-470.9999999999993179
 31
0.0
1001
ACDBBLOCKREPETAG
1070
     1
1071
       23
1005
1275FE
  0
LINE
  5
1275FF
  8
OBJECT
 10
12021.2231610782000644
 20
-449.9999999999993747
 30
0.0
 11
12021.2231610782000644
 21
-470.9999999999993179
 31
0.0
1001
ACDBBLOCKREPETAG
1070
     1
1071
       24
1005
1275FF
  0
ARC
  5
127600
  8
OBJECT
 10
12200.6872746716708207
 20
-649.4080994101070701
 30
0.0
 40
170.6350503965855978
 50
137.4413445918430057
 51
149.9194958133722082
1001
ACDBBLOCKREPETAG
1070
     1
1071
       25
1005
127600
  0
ARC
  5
127601
  8
OBJECT
 10
12118.8455987040506443
 20
-605.8827266953644539
 30
0.0
 40
78.0722220217636647
 50
147.4551531038293035
 51
164.663659977185489
1001
ACDBBLOCKREPETAG
1070
     1
1071
       26
1005
127601
  0
ARC
  5
127602
  8
OBJECT
 10
12085.7554349608708435
 20
-595.9999999999994316
 30
0.0
 40
43.5535392688561771
 50
165.6884523007529992
 51
194.3115476992468871
1001
ACDBBLOCKREPETAG
1070
     1
1071
       27
1005
127602
  0
ARC
  5
127603
  8
OBJECT
 10
12200.6872746716708207
 20
-542.5919005898917931
 30
0.0
 40
170.6350503965855978
 50
210.0805041866277918
 51
222.5586554081569943
1001
ACDBBLOCKREPETAG
1070
     1
1071
       28
1005
127603
  0
ARC
  5
127604
  8
OBJECT
 10
12118.8455987040506443
 20
-586.1172733046345229
 30
0.0
 40
78.0722220217636647
 50
195.336340022814511
 51
212.5448468961706112
1001
ACDBBLOCKREPETAG
1070
     1
1071
       29
1005
127604
  0
POINT
  5
127605
  8
DOTS
 10
12000.0
 20
-654.9999999999994316
 30
0.0
1001
ACDBBLOCKREPETAG
1070
     1
1071
      204
1005
127605
  0
LINE
  5
127606
  8
OBJECT
 10
9918.0
 20
-470.9999999999993179
 30
0.0
 11
9918.0
 21
-449.9999999999993747
 31
0.0
1001
ACDBBLOCKREPETAG
1070
     1
1071
        0
1005
127606
  0
LINE
  5
127607
  8
OBJECT
 10
9918.0
 20
-449.9999999999993747
 30
0.0
 11
10082.0
 21
-449.9999999999993747
 31
0.0
1001
ACDBBLOCKREPETAG
1070
     1
1071
        1
1005
127607
  0
LINE
  5
127608
  8
HIDDEN
 10
9943.0
 20
-519.9999999999994316
 30
0.0
 11
10057.0
 21
-519.9999999999994316
 31
0.0
1001
ACDBBLOCKREPETAG
1070
     1
1071
        2
1005
127608
  0
LINE
  5
127609
  8
OBJECT
 10
10082.0
 20
-470.9999999999993179
 30
0.0
 11
9918.0
 21
-470.9999999999993179
 31
0.0
1001
ACDBBLOCKREPETAG
1070
     1
1071
        3
1005
127609
  0
LINE
  5
12760A
  8
CENTER
 10
10000.0
 20
-434.9999999999993747
 30
0.0
 11
10000.0
 21
-799.9999999999994316
 31
0.0
1001
ACDBBLOCKREPETAG
1070
     1
1071
        4
1005
12760A
  0
LINE
  5
12760B
  8
OBJECT
 10
9925.0
 20
-533.9999999999994316
 30
0.0
 11
9925.0
 21
-787.9999999999994316
 31
0.0
1001
ACDBBLOCKREPETAG
1070
     1
1071
        5
1005
12760B
  0
LINE
  5
12760C
  8
OBJECT
 10
9928.0
 20
-470.9999999999993179
 30
0.0
 11
9928.0
 21
-533.9999999999994316
 31
0.0
1001
ACDBBLOCKREPETAG
1070
     1
1071
        6
1005
12760C
  0
LINE
  5
12760D
  8
OBJECT
 10
10072.0
 20
-533.9999999999994316
 30
0.0
 11
10072.0
 21
-470.9999999999993179
 31
0.0
1001
ACDBBLOCKREPETAG
1070
     1
1071
        7
1005
12760D
  0
LINE
  5
12760E
  8
OBJECT
 10
9920.0
 20
-787.9999999999994316
 30
0.0
 11
10080.0
 21
-787.9999999999994316
 31
0.0
1001
ACDBBLOCKREPETAG
1070
     1
1071
        8
1005
12760E
  0
LINE
  5
12760F
  8
OBJECT
 10
10080.0
 20
-533.9999999999994316
 30
0.0
 11
9925.0
 21
-533.9999999999994316
 31
0.0
1001
ACDBBLOCKREPETAG
1070
     1
1071
        9
1005
12760F
  0
LINE
  5
127610
  8
OBJECT
 10
9920.0
 20
-787.9999999999994316
 30
0.0
 11
9920.0
 21
-799.9999999999994316
 31
0.0
1001
ACDBBLOCKREPETAG
1070
     1
1071
       10
1005
127610
  0
LINE
  5
127611
  8
OBJECT
 10
9920.0
 20
-799.9999999999994316
 30
0.0
 11
10080.0
 21
-799.9999999999994316
 31
0.0
1001
ACDBBLOCKREPETAG
1070
     1
1071
       11
1005
127611
  0
LINE
  5
127612
  8
OBJECT
 10
10080.0
 20
-799.9999999999994316
 30
0.0
 11
10080.0
 21
-787.9999999999994316
 31
0.0
1001
ACDBBLOCKREPETAG
1070
     1
1071
       12
1005
127612
  0
LINE
  5
127613
  8
OBJECT
 10
10074.9999999998599378
 20
-657.9999999998503881
 30
0.0
 11
10075.0
 21
-787.9999999999994316
 31
0.0
1001
ACDBBLOCKREPETAG
1070
     1
1071
       14
1005
127613
  0
LINE
  5
127614
  8
OBJECT
 10
10074.9999908029803919
 20
-657.9999860270213503
 30
0.0
 11
10080.0
 21
-657.9999860270213503
 31
0.0
1001
ACDBBLOCKREPETAG
1070
     1
1071
       15
1005
127614
  0
LINE
  5
127615
  8
OBJECT
 10
9920.7940817120233987
 20
-449.9999999999993747
 30
0.0
 11
9920.7940817120233987
 21
-470.9999999999993179
 31
0.0
1001
ACDBBLOCKREPETAG
1070
     1
1071
       16
1005
127615
  0
LINE
  5
127616
  8
OBJECT
 10
9928.7378959999969084
 20
-449.9999999999993747
 30
0.0
 11
9928.7378959999969084
 21
-470.9999999999993179
 31
0.0
1001
ACDBBLOCKREPETAG
1070
     1
1071
       17
1005
127616
  0
LINE
  5
127617
  8
OBJECT
 10
9970.8330259999984264
 20
-449.9999999999993747
 30
0.0
 11
9970.8330259999984264
 21
-470.9999999999993179
 31
0.0
1001
ACDBBLOCKREPETAG
1070
     1
1071
       18
1005
127617
  0
LINE
  5
127618
  8
OBJECT
 10
9978.7768389218017546
 20
-449.9999999999993747
 30
0.0
 11
9978.7768389218017546
 21
-470.9999999999993179
 31
0.0
1001
ACDBBLOCKREPETAG
1070
     1
1071
       19
1005
127618
  0
LINE
  5
127619
  8
OBJECT
 10
10082.0
 20
-470.9999999999993179
 30
0.0
 11
10082.0
 21
-449.9999999999993747
 31
0.0
1001
ACDBBLOCKREPETAG
1070
     1
1071
       20
1005
127619
  0
LINE
  5
12761A
  8
OBJECT
 10
10079.2059182879693253
 20
-449.9999999999993747
 30
0.0
 11
10079.2059182879693253
 21
-470.9999999999993179
 31
0.0
1001
ACDBBLOCKREPETAG
1070
     1
1071
       21
1005
12761A
  0
LINE
  5
12761B
  8
OBJECT
 10
10071.2621039999994537
 20
-449.9999999999993747
 30
0.0
 11
10071.2621039999994537
 21
-470.9999999999993179
 31
0.0
1001
ACDBBLOCKREPETAG
1070
     1
1071
       22
1005
12761B
  0
LINE
  5
12761C
  8
OBJECT
 10
10029.1669739999997546
 20
-449.9999999999993747
 30
0.0
 11
10029.1669739999997546
 21
-470.9999999999993179
 31
0.0
1001
ACDBBLOCKREPETAG
1070
     1
1071
       23
1005
12761C
  0
LINE
  5
12761D
  8
OBJECT
 10
10021.2231610782000644
 20
-449.9999999999993747
 30
0.0
 11
10021.2231610782000644
 21
-470.9999999999993179
 31
0.0
1001
ACDBBLOCKREPETAG
1070
     1
1071
       24
1005
12761D
  0
ARC
  5
12761E
  8
OBJECT
 10
10200.6872746716708207
 20
-649.4080994101070701
 30
0.0
 40
170.6350503965855978
 50
137.4413445918430057
 51
149.9194958133722082
1001
ACDBBLOCKREPETAG
1070
     1
1071
       25
1005
12761E
  0
ARC
  5
12761F
  8
OBJECT
 10
10118.8455987040506443
 20
-605.8827266953644539
 30
0.0
 40
78.0722220217636647
 50
147.4551531038293035
 51
164.663659977185489
1001
ACDBBLOCKREPETAG
1070
     1
1071
       26
1005
12761F
  0
ARC
  5
127620
  8
OBJECT
 10
10085.7554349608708435
 20
-595.9999999999994316
 30
0.0
 40
43.5535392688561771
 50
165.6884523007529992
 51
194.3115476992468871
1001
ACDBBLOCKREPETAG
1070
     1
1071
       27
1005
127620
  0
ARC
  5
127621
  8
OBJECT
 10
10200.6872746716708207
 20
-542.5919005898917931
 30
0.0
 40
170.6350503965855978
 50
210.0805041866277918
 51
222.5586554081569943
1001
ACDBBLOCKREPETAG
1070
     1
1071
       28
1005
127621
  0
ARC
  5
127622
  8
OBJECT
 10
10118.8455987040506443
 20
-586.1172733046345229
 30
0.0
 40
78.0722220217636647
 50
195.336340022814511
 51
212.5448468961706112
1001
ACDBBLOCKREPETAG
1070
     1
1071
       29
1005
127622
  0
POINT
  5
127623
  8
DOTS
 10
10000.0
 20
-654.9999999999994316
 30
0.0
1001
ACDBBLOCKREPETAG
1070
     1
1071
      204
1005
127623
  0
LINE
  5
127624
  8
OBJECT
 10
5918.0
 20
-470.9999999999993179
 30
0.0
 11
5918.0
 21
-449.9999999999993747
 31
0.0
1001
ACDBBLOCKREPETAG
1070
     1
1071
        0
1005
127624
  0
LINE
  5
127625
  8
OBJECT
 10
5918.0
 20
-449.9999999999993747
 30
0.0
 11
6082.000000000003638
 21
-449.9999999999993747
 31
0.0
1001
ACDBBLOCKREPETAG
1070
     1
1071
        1
1005
127625
  0
LINE
  5
127626
  8
HIDDEN
 10
5943.0
 20
-519.9999999999994316
 30
0.0
 11
6057.0
 21
-519.9999999999994316
 31
0.0
1001
ACDBBLOCKREPETAG
1070
     1
1071
        2
1005
127626
  0
LINE
  5
127627
  8
OBJECT
 10
6082.000000000003638
 20
-470.9999999999993179
 30
0.0
 11
5918.0
 21
-470.9999999999993179
 31
0.0
1001
ACDBBLOCKREPETAG
1070
     1
1071
        3
1005
127627
  0
LINE
  5
127628
  8
CENTER
 10
6000.0
 20
-434.9999999999993747
 30
0.0
 11
6000.0
 21
-799.9999999999994316
 31
0.0
1001
ACDBBLOCKREPETAG
1070
     1
1071
        4
1005
127628
  0
LINE
  5
127629
  8
OBJECT
 10
5925.0
 20
-533.9999999999994316
 30
0.0
 11
5925.0
 21
-787.9999999999994316
 31
0.0
1001
ACDBBLOCKREPETAG
1070
     1
1071
        5
1005
127629
  0
LINE
  5
12762A
  8
OBJECT
 10
5928.0
 20
-470.9999999999993179
 30
0.0
 11
5928.0
 21
-533.9999999999994316
 31
0.0
1001
ACDBBLOCKREPETAG
1070
     1
1071
        6
1005
12762A
  0
LINE
  5
12762B
  8
OBJECT
 10
6072.0
 20
-533.9999999999994316
 30
0.0
 11
6072.0
 21
-470.9999999999993179
 31
0.0
1001
ACDBBLOCKREPETAG
1070
     1
1071
        7
1005
12762B
  0
LINE
  5
12762C
  8
OBJECT
 10
5920.0
 20
-787.9999999999994316
 30
0.0
 11
6080.0
 21
-787.9999999999994316
 31
0.0
1001
ACDBBLOCKREPETAG
1070
     1
1071
        8
1005
12762C
  0
LINE
  5
12762D
  8
OBJECT
 10
6080.0
 20
-533.9999999999994316
 30
0.0
 11
5925.0
 21
-533.9999999999994316
 31
0.0
1001
ACDBBLOCKREPETAG
1070
     1
1071
        9
1005
12762D
  0
LINE
  5
12762E
  8
OBJECT
 10
5920.0
 20
-787.9999999999994316
 30
0.0
 11
5920.0
 21
-799.9999999999994316
 31
0.0
1001
ACDBBLOCKREPETAG
1070
     1
1071
       10
1005
12762E
  0
LINE
  5
12762F
  8
OBJECT
 10
5920.0
 20
-799.9999999999994316
 30
0.0
 11
6080.0
 21
-799.9999999999994316
 31
0.0
1001
ACDBBLOCKREPETAG
1070
     1
1071
       11
1005
12762F
  0
LINE
  5
127630
  8
OBJECT
 10
6080.0
 20
-799.9999999999994316
 30
0.0
 11
6080.0
 21
-787.9999999999994316
 31
0.0
1001
ACDBBLOCKREPETAG
1070
     1
1071
       12
1005
127630
  0
LINE
  5
127631
  8
OBJECT
 10
6074.9999999998617568
 20
-657.9999999998503881
 30
0.0
 11
6075.0
 21
-787.9999999999994316
 31
0.0
1001
ACDBBLOCKREPETAG
1070
     1
1071
       14
1005
127631
  0
LINE
  5
127632
  8
OBJECT
 10
6074.9999908029849394
 20
-657.9999860270213503
 30
0.0
 11
6080.0
 21
-657.9999860270213503
 31
0.0
1001
ACDBBLOCKREPETAG
1070
     1
1071
       15
1005
127632
  0
LINE
  5
127633
  8
OBJECT
 10
5920.7940817120252177
 20
-449.9999999999993747
 30
0.0
 11
5920.7940817120252177
 21
-470.9999999999993179
 31
0.0
1001
ACDBBLOCKREPETAG
1070
     1
1071
       16
1005
127633
  0
LINE
  5
127634
  8
OBJECT
 10
5928.7378959999987273
 20
-449.9999999999993747
 30
0.0
 11
5928.7378959999987273
 21
-470.9999999999993179
 31
0.0
1001
ACDBBLOCKREPETAG
1070
     1
1071
       17
1005
127634
  0
LINE
  5
127635
  8
OBJECT
 10
5970.8330260000011549
 20
-449.9999999999993747
 30
0.0
 11
5970.8330260000011549
 21
-470.9999999999993179
 31
0.0
1001
ACDBBLOCKREPETAG
1070
     1
1071
       18
1005
127635
  0
LINE
  5
127636
  8
OBJECT
 10
5978.7768389217990261
 20
-449.9999999999993747
 30
0.0
 11
5978.7768389217990261
 21
-470.9999999999993179
 31
0.0
1001
ACDBBLOCKREPETAG
1070
     1
1071
       19
1005
127636
  0
LINE
  5
127637
  8
OBJECT
 10
6082.0
 20
-470.9999999999993179
 30
0.0
 11
6082.0
 21
-449.9999999999993747
 31
0.0
1001
ACDBBLOCKREPETAG
1070
     1
1071
       20
1005
127637
  0
LINE
  5
127638
  8
OBJECT
 10
6079.2059182879747823
 20
-449.9999999999993747
 30
0.0
 11
6079.2059182879747823
 21
-470.9999999999993179
 31
0.0
1001
ACDBBLOCKREPETAG
1070
     1
1071
       21
1005
127638
  0
LINE
  5
127639
  8
OBJECT
 10
6071.2621040000021821
 20
-449.9999999999993747
 30
0.0
 11
6071.2621040000021821
 21
-470.9999999999993179
 31
0.0
1001
ACDBBLOCKREPETAG
1070
     1
1071
       22
1005
127639
  0
LINE
  5
12763A
  8
OBJECT
 10
6029.1669739999979356
 20
-449.9999999999993747
 30
0.0
 11
6029.1669739999979356
 21
-470.9999999999993179
 31
0.0
1001
ACDBBLOCKREPETAG
1070
     1
1071
       23
1005
12763A
  0
LINE
  5
12763B
  8
OBJECT
 10
6021.2231610782009739
 20
-449.9999999999993747
 30
0.0
 11
6021.2231610782009739
 21
-470.9999999999993179
 31
0.0
1001
ACDBBLOCKREPETAG
1070
     1
1071
       24
1005
12763B
  0
ARC
  5
12763C
  8
OBJECT
 10
6200.6872746716726397
 20
-649.4080994101070701
 30
0.0
 40
170.6350503965855978
 50
137.4413445918430057
 51
149.9194958133722082
1001
ACDBBLOCKREPETAG
1070
     1
1071
       25
1005
12763C
  0
ARC
  5
12763D
  8
OBJECT
 10
6118.8455987040497348
 20
-605.8827266953644539
 30
0.0
 40
78.0722220217636647
 50
147.4551531038293035
 51
164.663659977199103
1001
ACDBBLOCKREPETAG
1070
     1
1071
       26
1005
12763D
  0
ARC
  5
12763E
  8
OBJECT
 10
6085.7554349608726625
 20
-595.9999999999994316
 30
0.0
 40
43.5535392688561771
 50
165.6884523007529992
 51
194.3115476992468871
1001
ACDBBLOCKREPETAG
1070
     1
1071
       27
1005
12763E
  0
ARC
  5
12763F
  8
OBJECT
 10
6200.6872746716726397
 20
-542.5919005898917931
 30
0.0
 40
170.6350503965855978
 50
210.0805041866277918
 51
222.5586554081569943
1001
ACDBBLOCKREPETAG
1070
     1
1071
       28
1005
12763F
  0
ARC
  5
127640
  8
OBJECT
 10
6118.8455987040497348
 20
-586.1172733046345229
 30
0.0
 40
78.0722220217636647
 50
195.3363400228006128
 51
212.5448468961706112
1001
ACDBBLOCKREPETAG
1070
     1
1071
       29
1005
127640
  0
POINT
  5
127641
  8
DOTS
 10
6000.0
 20
-654.9999999999994316
 30
0.0
1001
ACDBBLOCKREPETAG
1070
     1
1071
      204
1005
127641
  0
LINE
  5
127642
  8
OBJECT
 10
3918.0
 20
-470.9999999999993179
 30
0.0
 11
3918.0
 21
-449.9999999999993747
 31
0.0
1001
ACDBBLOCKREPETAG
1070
     1
1071
        0
1005
127642
  0
LINE
  5
127643
  8
OBJECT
 10
3918.0
 20
-449.9999999999993747
 30
0.0
 11
4082.0000000000031832
 21
-449.9999999999993747
 31
0.0
1001
ACDBBLOCKREPETAG
1070
     1
1071
        1
1005
127643
  0
LINE
  5
127644
  8
HIDDEN
 10
3943.0
 20
-519.9999999999994316
 30
0.0
 11
4057.0
 21
-519.9999999999994316
 31
0.0
1001
ACDBBLOCKREPETAG
1070
     1
1071
        2
1005
127644
  0
LINE
  5
127645
  8
OBJECT
 10
4082.0000000000031832
 20
-470.9999999999993179
 30
0.0
 11
3918.0
 21
-470.9999999999993179
 31
0.0
1001
ACDBBLOCKREPETAG
1070
     1
1071
        3
1005
127645
  0
LINE
  5
127646
  8
CENTER
 10
4000.0
 20
-434.9999999999993747
 30
0.0
 11
4000.0
 21
-799.9999999999994316
 31
0.0
1001
ACDBBLOCKREPETAG
1070
     1
1071
        4
1005
127646
  0
LINE
  5
127647
  8
OBJECT
 10
3925.0
 20
-533.9999999999994316
 30
0.0
 11
3925.0
 21
-787.9999999999994316
 31
0.0
1001
ACDBBLOCKREPETAG
1070
     1
1071
        5
1005
127647
  0
LINE
  5
127648
  8
OBJECT
 10
3928.0
 20
-470.9999999999993179
 30
0.0
 11
3928.0
 21
-533.9999999999994316
 31
0.0
1001
ACDBBLOCKREPETAG
1070
     1
1071
        6
1005
127648
  0
LINE
  5
127649
  8
OBJECT
 10
4072.0
 20
-533.9999999999994316
 30
0.0
 11
4072.0
 21
-470.9999999999993179
 31
0.0
1001
ACDBBLOCKREPETAG
1070
     1
1071
        7
1005
127649
  0
LINE
  5
12764A
  8
OBJECT
 10
3920.0
 20
-787.9999999999994316
 30
0.0
 11
4080.0
 21
-787.9999999999994316
 31
0.0
1001
ACDBBLOCKREPETAG
1070
     1
1071
        8
1005
12764A
  0
LINE
  5
12764B
  8
OBJECT
 10
4080.0
 20
-533.9999999999994316
 30
0.0
 11
3925.0
 21
-533.9999999999994316
 31
0.0
1001
ACDBBLOCKREPETAG
1070
     1
1071
        9
1005
12764B
  0
LINE
  5
12764C
  8
OBJECT
 10
3920.0
 20
-787.9999999999994316
 30
0.0
 11
3920.0
 21
-799.9999999999994316
 31
0.0
1001
ACDBBLOCKREPETAG
1070
     1
1071
       10
1005
12764C
  0
LINE
  5
12764D
  8
OBJECT
 10
3920.0
 20
-799.9999999999994316
 30
0.0
 11
4080.0
 21
-799.9999999999994316
 31
0.0
1001
ACDBBLOCKREPETAG
1070
     1
1071
       11
1005
12764D
  0
LINE
  5
12764E
  8
OBJECT
 10
4080.0
 20
-799.9999999999994316
 30
0.0
 11
4080.0
 21
-787.9999999999994316
 31
0.0
1001
ACDBBLOCKREPETAG
1070
     1
1071
       12
1005
12764E
  0
LINE
  5
12764F
  8
OBJECT
 10
4074.9999999998622116
 20
-657.9999999998503881
 30
0.0
 11
4075.0
 21
-787.9999999999994316
 31
0.0
1001
ACDBBLOCKREPETAG
1070
     1
1071
       14
1005
12764F
  0
LINE
  5
127650
  8
OBJECT
 10
4074.9999908029849394
 20
-657.9999860270213503
 30
0.0
 11
4080.0
 21
-657.9999860270213503
 31
0.0
1001
ACDBBLOCKREPETAG
1070
     1
1071
       15
1005
127650
  0
LINE
  5
127651
  8
OBJECT
 10
3920.7940817120261272
 20
-449.9999999999993747
 30
0.0
 11
3920.7940817120261272
 21
-470.9999999999993179
 31
0.0
1001
ACDBBLOCKREPETAG
1070
     1
1071
       16
1005
127651
  0
LINE
  5
127652
  8
OBJECT
 10
3928.7378959999991821
 20
-449.9999999999993747
 30
0.0
 11
3928.7378959999991821
 21
-470.9999999999993179
 31
0.0
1001
ACDBBLOCKREPETAG
1070
     1
1071
       17
1005
127652
  0
LINE
  5
127653
  8
OBJECT
 10
3970.8330260000011549
 20
-449.9999999999993747
 30
0.0
 11
3970.8330260000011549
 21
-470.9999999999993179
 31
0.0
1001
ACDBBLOCKREPETAG
1070
     1
1071
       18
1005
127653
  0
LINE
  5
127654
  8
OBJECT
 10
3978.7768389217990261
 20
-449.9999999999993747
 30
0.0
 11
3978.7768389217990261
 21
-470.9999999999993179
 31
0.0
1001
ACDBBLOCKREPETAG
1070
     1
1071
       19
1005
127654
  0
LINE
  5
127655
  8
OBJECT
 10
4082.0
 20
-470.9999999999993179
 30
0.0
 11
4082.0
 21
-449.9999999999993747
 31
0.0
1001
ACDBBLOCKREPETAG
1070
     1
1071
       20
1005
127655
  0
LINE
  5
127656
  8
OBJECT
 10
4079.2059182879729633
 20
-449.9999999999993747
 30
0.0
 11
4079.2059182879729633
 21
-470.9999999999993179
 31
0.0
1001
ACDBBLOCKREPETAG
1070
     1
1071
       21
1005
127656
  0
LINE
  5
127657
  8
OBJECT
 10
4071.2621040000008179
 20
-449.9999999999993747
 30
0.0
 11
4071.2621040000008179
 21
-470.9999999999993179
 31
0.0
1001
ACDBBLOCKREPETAG
1070
     1
1071
       22
1005
127657
  0
LINE
  5
127658
  8
OBJECT
 10
4029.1669739999988451
 20
-449.9999999999993747
 30
0.0
 11
4029.1669739999988451
 21
-470.9999999999993179
 31
0.0
1001
ACDBBLOCKREPETAG
1070
     1
1071
       23
1005
127658
  0
LINE
  5
127659
  8
OBJECT
 10
4021.2231610781991549
 20
-449.9999999999993747
 30
0.0
 11
4021.2231610781991549
 21
-470.9999999999993179
 31
0.0
1001
ACDBBLOCKREPETAG
1070
     1
1071
       24
1005
127659
  0
ARC
  5
12765A
  8
OBJECT
 10
4200.6872746716726397
 20
-649.4080994101070701
 30
0.0
 40
170.6350503965855978
 50
137.4413445918430057
 51
149.9194958133722082
1001
ACDBBLOCKREPETAG
1070
     1
1071
       25
1005
12765A
  0
ARC
  5
12765B
  8
OBJECT
 10
4118.8455987040506443
 20
-605.8827266953644539
 30
0.0
 40
78.0722220217636647
 50
147.4551531038152916
 51
164.6636599771923102
1001
ACDBBLOCKREPETAG
1070
     1
1071
       26
1005
12765B
  0
ARC
  5
12765C
  8
OBJECT
 10
4085.7554349608708435
 20
-595.9999999999994316
 30
0.0
 40
43.5535392688561771
 50
165.6884523007466044
 51
194.3115476992531967
1001
ACDBBLOCKREPETAG
1070
     1
1071
       27
1005
12765C
  0
ARC
  5
12765D
  8
OBJECT
 10
4200.6872746716726397
 20
-542.5919005898917931
 30
0.0
 40
170.6350503965855978
 50
210.0805041866277918
 51
222.5586554081569943
1001
ACDBBLOCKREPETAG
1070
     1
1071
       28
1005
12765D
  0
ARC
  5
12765E
  8
OBJECT
 10
4118.8455987040506443
 20
-586.1172733046345229
 30
0.0
 40
78.0722220217636647
 50
195.3363400228074909
 51
212.5448468961847084
1001
ACDBBLOCKREPETAG
1070
     1
1071
       29
1005
12765E
  0
POINT
  5
12765F
  8
DOTS
 10
4000.0
 20
-654.9999999999994316
 30
0.0
1001
ACDBBLOCKREPETAG
1070
     1
1071
      204
1005
12765F
  0
LINE
  5
127660
  8
OBJECT
 10
1918.0
 20
-470.9999999999993179
 30
0.0
 11
1918.0
 21
-449.9999999999993747
 31
0.0
1001
ACDBBLOCKREPETAG
1070
     1
1071
        0
1005
127660
  0
LINE
  5
127661
  8
OBJECT
 10
1918.0
 20
-449.9999999999993747
 30
0.0
 11
2082.0000000000040927
 21
-449.9999999999993747
 31
0.0
1001
ACDBBLOCKREPETAG
1070
     1
1071
        1
1005
127661
  0
LINE
  5
127662
  8
HIDDEN
 10
1943.0
 20
-519.9999999999994316
 30
0.0
 11
2057.0
 21
-519.9999999999994316
 31
0.0
1001
ACDBBLOCKREPETAG
1070
     1
1071
        2
1005
127662
  0
LINE
  5
127663
  8
OBJECT
 10
2082.0000000000040927
 20
-470.9999999999993179
 30
0.0
 11
1918.0
 21
-470.9999999999993179
 31
0.0
1001
ACDBBLOCKREPETAG
1070
     1
1071
        3
1005
127663
  0
LINE
  5
127664
  8
CENTER
 10
2000.0
 20
-434.9999999999993747
 30
0.0
 11
2000.0
 21
-799.9999999999994316
 31
0.0
1001
ACDBBLOCKREPETAG
1070
     1
1071
        4
1005
127664
  0
LINE
  5
127665
  8
OBJECT
 10
1925.0
 20
-533.9999999999994316
 30
0.0
 11
1925.0
 21
-787.9999999999994316
 31
0.0
1001
ACDBBLOCKREPETAG
1070
     1
1071
        5
1005
127665
  0
LINE
  5
127666
  8
OBJECT
 10
1928.0
 20
-470.9999999999993179
 30
0.0
 11
1928.0
 21
-533.9999999999994316
 31
0.0
1001
ACDBBLOCKREPETAG
1070
     1
1071
        6
1005
127666
  0
LINE
  5
127667
  8
OBJECT
 10
2072.0
 20
-533.9999999999994316
 30
0.0
 11
2072.0
 21
-470.9999999999993179
 31
0.0
1001
ACDBBLOCKREPETAG
1070
     1
1071
        7
1005
127667
  0
LINE
  5
127668
  8
OBJECT
 10
1920.0
 20
-787.9999999999994316
 30
0.0
 11
2080.0
 21
-787.9999999999994316
 31
0.0
1001
ACDBBLOCKREPETAG
1070
     1
1071
        8
1005
127668
  0
LINE
  5
127669
  8
OBJECT
 10
2080.0
 20
-533.9999999999994316
 30
0.0
 11
1925.0
 21
-533.9999999999994316
 31
0.0
1001
ACDBBLOCKREPETAG
1070
     1
1071
        9
1005
127669
  0
LINE
  5
12766A
  8
OBJECT
 10
1920.0
 20
-787.9999999999994316
 30
0.0
 11
1920.0
 21
-799.9999999999994316
 31
0.0
1001
ACDBBLOCKREPETAG
1070
     1
1071
       10
1005
12766A
  0
LINE
  5
12766B
  8
OBJECT
 10
1920.0
 20
-799.9999999999994316
 30
0.0
 11
2080.0
 21
-799.9999999999994316
 31
0.0
1001
ACDBBLOCKREPETAG
1070
     1
1071
       11
1005
12766B
  0
LINE
  5
12766C
  8
OBJECT
 10
2080.0
 20
-799.9999999999994316
 30
0.0
 11
2080.0
 21
-787.9999999999994316
 31
0.0
1001
ACDBBLOCKREPETAG
1070
     1
1071
       12
1005
12766C
  0
LINE
  5
12766D
  8
OBJECT
 10
2074.9999999998622116
 20
-657.9999999998503881
 30
0.0
 11
2075.0
 21
-787.9999999999994316
 31
0.0
1001
ACDBBLOCKREPETAG
1070
     1
1071
       14
1005
12766D
  0
LINE
  5
12766E
  8
OBJECT
 10
2074.9999908029849394
 20
-657.9999860270213503
 30
0.0
 11
2080.0
 21
-657.9999860270213503
 31
0.0
1001
ACDBBLOCKREPETAG
1070
     1
1071
       15
1005
12766E
  0
LINE
  5
12766F
  8
OBJECT
 10
1920.7940817120249903
 20
-449.9999999999993747
 30
0.0
 11
1920.7940817120249903
 21
-470.9999999999993179
 31
0.0
1001
ACDBBLOCKREPETAG
1070
     1
1071
       16
1005
12766F
  0
LINE
  5
127670
  8
OBJECT
 10
1928.7378959999989547
 20
-449.9999999999993747
 30
0.0
 11
1928.7378959999989547
 21
-470.9999999999993179
 31
0.0
1001
ACDBBLOCKREPETAG
1070
     1
1071
       17
1005
127670
  0
LINE
  5
127671
  8
OBJECT
 10
1970.833026000000018
 20
-449.9999999999993747
 30
0.0
 11
1970.833026000000018
 21
-470.9999999999993179
 31
0.0
1001
ACDBBLOCKREPETAG
1070
     1
1071
       18
1005
127671
  0
LINE
  5
127672
  8
OBJECT
 10
1978.7768389217999356
 20
-449.9999999999993747
 30
0.0
 11
1978.7768389217999356
 21
-470.9999999999993179
 31
0.0
1001
ACDBBLOCKREPETAG
1070
     1
1071
       19
1005
127672
  0
LINE
  5
127673
  8
OBJECT
 10
2082.0
 20
-470.9999999999993179
 30
0.0
 11
2082.0
 21
-449.9999999999993747
 31
0.0
1001
ACDBBLOCKREPETAG
1070
     1
1071
       20
1005
127673
  0
LINE
  5
127674
  8
OBJECT
 10
2079.2059182879747823
 20
-449.9999999999993747
 30
0.0
 11
2079.2059182879747823
 21
-470.9999999999993179
 31
0.0
1001
ACDBBLOCKREPETAG
1070
     1
1071
       21
1005
127674
  0
LINE
  5
127675
  8
OBJECT
 10
2071.2621039999999084
 20
-449.9999999999993747
 30
0.0
 11
2071.2621039999999084
 21
-470.9999999999993179
 31
0.0
1001
ACDBBLOCKREPETAG
1070
     1
1071
       22
1005
127675
  0
LINE
  5
127676
  8
OBJECT
 10
2029.166973999999982
 20
-449.9999999999993747
 30
0.0
 11
2029.166973999999982
 21
-470.9999999999993179
 31
0.0
1001
ACDBBLOCKREPETAG
1070
     1
1071
       23
1005
127676
  0
LINE
  5
127677
  8
OBJECT
 10
2021.2231610782000644
 20
-449.9999999999993747
 30
0.0
 11
2021.2231610782000644
 21
-470.9999999999993179
 31
0.0
1001
ACDBBLOCKREPETAG
1070
     1
1071
       24
1005
127677
  0
ARC
  5
127678
  8
OBJECT
 10
2200.6872746716730944
 20
-649.4080994101070701
 30
0.0
 40
170.6350503965855978
 50
137.4413445918430057
 51
149.9194958133655007
1001
ACDBBLOCKREPETAG
1070
     1
1071
       25
1005
127678
  0
ARC
  5
127679
  8
OBJECT
 10
2118.845598704051099
 20
-605.8827266953644539
 30
0.0
 40
78.0722220217636647
 50
147.4551531038152916
 51
164.6636599771958061
1001
ACDBBLOCKREPETAG
1070
     1
1071
       26
1005
127679
  0
ARC
  5
12767A
  8
OBJECT
 10
2085.7554349608731172
 20
-595.9999999999994316
 30
0.0
 40
43.5535392688561771
 50
165.6884523007466044
 51
194.3115476992531967
1001
ACDBBLOCKREPETAG
1070
     1
1071
       27
1005
12767A
  0
ARC
  5
12767B
  8
OBJECT
 10
2200.6872746716730944
 20
-542.5919005898917931
 30
0.0
 40
170.6350503965855978
 50
210.0805041866343004
 51
222.5586554081569943
1001
ACDBBLOCKREPETAG
1070
     1
1071
       28
1005
12767B
  0
ARC
  5
12767C
  8
OBJECT
 10
2118.845598704051099
 20
-586.1172733046345229
 30
0.0
 40
78.0722220217636647
 50
195.3363400228041939
 51
212.5448468961847084
1001
ACDBBLOCKREPETAG
1070
     1
1071
       29
1005
12767C
  0
POINT
  5
12767D
  8
DOTS
 10
2000.0
 20
-654.9999999999994316
 30
0.0
1001
ACDBBLOCKREPETAG
1070
     1
1071
      204
1005
12767D
  0
LINE
  5
12767E
  8
OBJECT
 10
1946.6921941437540227
 20
-195.4663816131605074
 30
0.0
 11
1970.4540343856349409
 21
-193.7986514643698115
 31
0.0
1001
ACDBBLOCKREPETAG
1070
     1
1071
      326
1005
12767E
  0
LINE
  5
12767F
  8
OBJECT
 10
1947.3854347270610106
 20
-190.305593971766001
 30
0.0
 11
1966.9884352629001114
 21
-188.9297527266016061
 31
0.0
1001
ACDBBLOCKREPETAG
1070
     1
1071
      327
1005
12767F
  0
LINE
  5
127680
  8
OBJECT
 10
1974.1135374752770986
 20
-242.7772259263720116
 30
0.0
 11
1982.1366988374049924
 21
-234.1690987954708021
 31
0.0
1001
ACDBBLOCKREPETAG
1070
     1
1071
      328
1005
127680
  0
ARC
  5
127681
  8
OBJECT
 10
1982.11600712453901
 20
-183.2818896631823975
 30
0.0
 40
60.0311132460326178
 50
254.0702013041274938
 51
262.3393610608658832
1001
ACDBBLOCKREPETAG
1070
     1
1071
      329
1005
127681
  0
LINE
  5
127682
  8
OBJECT
 10
1977.6125997325138997
 20
-197.6749527714991927
 30
0.0
 11
1982.1366988374049924
 21
-234.1690987954708021
 31
0.0
1001
ACDBBLOCKREPETAG
1070
     1
1071
      330
1005
127682
  0
ARC
  5
127683
  8
OBJECT
 10
1967.6885653456411092
 20
-198.9052135113188058
 30
0.0
 40
10.0
 50
7.0667782929957923
 51
94.0147343705324232
1001
ACDBBLOCKREPETAG
1070
     1
1071
      331
1005
127683
  0
ARC
  5
127684
  8
OBJECT
 10
1970.9441253709740067
 20
-200.7814740187558868
 30
0.0
 40
7.0
 50
7.0667782929957923
 51
94.0147337750146477
1001
ACDBBLOCKREPETAG
1070
     1
1071
      332
1005
127684
  0
POINT
  5
127685
  8
DOTS
 10
2000.0
 20
-199.9999999999990905
 30
0.0
 50
270.0
1001
ACDBBLOCKREPETAG
1070
     1
1071
      347
1005
127685
  0
ARC
  5
127686
  8
OBJECT
 10
2000.0
 20
-199.9999999999990905
 30
0.0
 40
77.0
 50
202.2588689998752045
 51
247.7411309999176012
1001
ACDBBLOCKREPETAG
1070
     1
1071
        0
1005
127686
  0
ARC
  5
127687
  8
OBJECT
 10
2000.0
 20
-199.9999999999990905
 30
0.0
 40
80.0
 50
50.8049656614017309
 51
72.4173439999210729
1001
ACDBBLOCKREPETAG
1070
     1
1071
        1
1005
127687
  0
ARC
  5
127688
  8
OBJECT
 10
2000.0
 20
-199.9999999999990905
 30
0.0
 40
77.0
 50
292.2588690000824272
 51
337.7411310001248239
1001
ACDBBLOCKREPETAG
1070
     1
1071
        2
1005
127688
  0
ARC
  5
127689
  8
OBJECT
 10
2000.0
 20
-199.9999999999990905
 30
0.0
 40
77.0
 50
112.2588690000822993
 51
157.7411310001247955
1001
ACDBBLOCKREPETAG
1070
     1
1071
        3
1005
127689
  0
ARC
  5
12768A
  8
OBJECT
 10
2000.0
 20
-199.9999999999990905
 30
0.0
 40
80.0
 50
107.5826560000788987
 51
162.4173443189467037
1001
ACDBBLOCKREPETAG
1070
     1
1071
        4
1005
12768A
  0
ARC
  5
12768B
  8
OBJECT
 10
2000.0
 20
-199.9999999999990905
 30
0.0
 40
80.0
 50
197.5826545812282973
 51
252.4173443189411046
1001
ACDBBLOCKREPETAG
1070
     1
1071
        5
1005
12768B
  0
ARC
  5
12768C
  8
OBJECT
 10
2000.0
 20
-199.9999999999990905
 30
0.0
 40
80.0
 50
287.5826567808985033
 51
309.1949674261358041
1001
ACDBBLOCKREPETAG
1070
     1
1071
        6
1005
12768C
  0
ARC
  5
12768D
  8
OBJECT
 10
2000.0
 20
-199.9999999999990905
 30
0.0
 40
77.0
 50
22.258868999875201
 51
67.7411309999176154
1001
ACDBBLOCKREPETAG
1070
     1
1071
        7
1005
12768D
  0
CIRCLE
  5
12768E
  8
OBJECT
 10
2000.0
 20
-199.9999999999990905
 30
0.0
 40
70.0
1001
ACDBBLOCKREPETAG
1070
     1
1071
        8
1005
12768E
  0
LINE
  5
12768F
  8
OBJECT
 10
2029.1669749999969099
 20
-271.2621049999988827
 30
0.0
 11
2021.2231624441049007
 21
-279.2059175558924835
 31
0.0
1001
ACDBBLOCKREPETAG
1070
     1
1071
        9
1005
12768F
  0
LINE
  5
127690
  8
OBJECT
 10
1970.833026000000018
 20
-271.2621049999988827
 30
0.0
 11
1978.7768389219158962
 21
-279.2059179219168072
 31
0.0
1001
ACDBBLOCKREPETAG
1070
     1
1071
       10
1005
127690
  0
ARC
  5
127691
  8
OBJECT
 10
2000.0
 20
-199.9999999999990905
 30
0.0
 40
82.0000000000000142
 50
255.0000004486406908
 51
285.0000005394920777
1001
ACDBBLOCKREPETAG
1070
     1
1071
       11
1005
127691
  0
LINE
  5
127692
  8
OBJECT
 10
1928.7378959999989547
 20
-229.1669739999989019
 30
0.0
 11
1920.7940817120540942
 21
-221.2231597120544961
 31
0.0
1001
ACDBBLOCKREPETAG
1070
     1
1071
       12
1005
127692
  0
ARC
  5
127693
  8
OBJECT
 10
2000.0
 20
-199.9999999999990905
 30
0.0
 40
82.0000000000000142
 50
165.0000004488508125
 51
194.9999985630261108
1001
ACDBBLOCKREPETAG
1070
     1
1071
       13
1005
127693
  0
LINE
  5
127694
  8
OBJECT
 10
1970.833026000000018
 20
-128.7378949999992983
 30
0.0
 11
1978.7768389219158962
 21
-120.7940820780794979
 31
0.0
1001
ACDBBLOCKREPETAG
1070
     1
1071
       14
1005
127694
  0
ARC
  5
127695
  8
OBJECT
 10
2000.0
 20
-199.9999999999990905
 30
0.0
 40
82.0000000000000142
 50
74.9999994605078513
 51
104.999999551359295
1001
ACDBBLOCKREPETAG
1070
     1
1071
       15
1005
127695
  0
LINE
  5
127696
  8
OBJECT
 10
2029.1669749999969099
 20
-128.7378949999992983
 30
0.0
 11
2021.2231624441049007
 21
-120.7940824441039069
 31
0.0
1001
ACDBBLOCKREPETAG
1070
     1
1071
       16
1005
127696
  0
LINE
  5
127697
  8
OBJECT
 10
1962.4020590000000084
 20
-161.9389330000003895
 30
0.0
 11
2037.0841102714221051
 21
-174.5180316957439004
 31
0.0
1001
ACDBBLOCKREPETAG
1070
     1
1071
       17
1005
127697
  0
LINE
  5
127698
  8
OBJECT
 10
2044.0936569999980748
 20
-169.7014939999999115
 30
0.0
 11
2037.0841102714221051
 21
-174.5180316957439004
 31
0.0
1001
ACDBBLOCKREPETAG
1070
     1
1071
       18
1005
127698
  0
LINE
  5
127699
  8
OBJECT
 10
1928.7378959999989547
 20
-170.8330249999989974
 30
0.0
 11
1920.7940820780791
 21
-178.7768389219191079
 31
0.0
1001
ACDBBLOCKREPETAG
1070
     1
1071
       19
1005
127699
  0
CIRCLE
  5
12769A
  8
OBJECT
 10
2000.0
 20
-199.9999999999990905
 30
0.0
 40
53.5000000000000071
1001
ACDBBLOCKREPETAG
1070
     1
1071
       20
1005
12769A
  0
ARC
  5
12769B
  8
OBJECT
 10
2000.0
 20
-199.9999999999990905
 30
0.0
 40
50.0
 50
131.7018096435525081
 51
168.5237695595847924
1001
ACDBBLOCKREPETAG
1070
     1
1071
       21
1005
12769B
  0
ARC
  5
12769C
  8
OBJECT
 10
2000.0
 20
-199.9999999999990905
 30
0.0
 40
50.0
 50
238.819942999904697
 51
34.4945062501170625
1001
ACDBBLOCKREPETAG
1070
     1
1071
       22
1005
12769C
  0
LINE
  5
12769D
  8
OBJECT
 10
2071.2621049999970637
 20
-170.8330249999989974
 30
0.0
 11
2079.2059175558929383
 21
-178.7768375558943035
 31
0.0
1001
ACDBBLOCKREPETAG
1070
     1
1071
       23
1005
12769D
  0
ARC
  5
12769E
  8
OBJECT
 10
2000.0
 20
-199.9999999999990905
 30
0.0
 40
82.0000000000000142
 50
345.0000004488509262
 51
15.0000005393717206
1001
ACDBBLOCKREPETAG
1070
     1
1071
       24
1005
12769E
  0
LINE
  5
12769F
  8
OBJECT
 10
2071.2621049999970637
 20
-229.1669739999989019
 30
0.0
 11
2079.2059179219209
 21
-221.2231610780791016
 31
0.0
1001
ACDBBLOCKREPETAG
1070
     1
1071
       25
1005
12769F
  0
LINE
  5
1276A0
  8
OBJECT
 10
2045.6618002273251022
 20
-137.9999999999990905
 30
0.0
 11
2080.0
 21
-137.9999999999990905
 31
0.0
1001
ACDBBLOCKREPETAG
1070
     1
1071
       26
1005
1276A0
  0
LINE
  5
1276A1
  8
OBJECT
 10
2045.6618002273251022
 20
-261.9999999999990905
 30
0.0
 11
2080.0
 21
-261.9999999999990905
 31
0.0
1001
ACDBBLOCKREPETAG
1070
     1
1071
       27
1005
1276A1
  0
LINE
  5
1276A2
  8
CENTER
 10
2080.0
 20
-199.9999999999990905
 30
0.0
 11
1903.0
 21
-199.9999999999990905
 31
0.0
1001
ACDBBLOCKREPETAG
1070
     1
1071
       36
1005
1276A2
  0
LINE
  5
1276A3
  8
CENTER
 10
2000.0
 20
-296.9999999999990905
 30
0.0
 11
2000.0
 21
-104.9999999999991047
 31
0.0
1001
ACDBBLOCKREPETAG
1070
     1
1071
       37
1005
1276A3
  0
LINE
  5
1276A4
  8
OBJECT
 10
12085.9999999999909051
 20
-1233.9999999999990905
 30
0.0
 11
12085.9999999999909051
 21
-1243.9999999999990905
 31
0.0
1001
ACDBBLOCKREPETAG
1070
     1
1071
      121
1005
1276A4
  0
LINE
  5
1276A5
  8
OBJECT
 10
12069.9999999999909051
 20
-1233.9999999999990905
 30
0.0
 11
12069.9999999999909051
 21
-1243.9999999999990905
 31
0.0
1001
ACDBBLOCKREPETAG
1070
     1
1071
      122
1005
1276A5
  0
LINE
  5
1276A6
  8
OBJECT
 10
12085.9999999999909051
 20
-1243.9999999999990905
 30
0.0
 11
12069.9999999999909051
 21
-1243.9999999999990905
 31
0.0
1001
ACDBBLOCKREPETAG
1070
     1
1071
      123
1005
1276A6
  0
LINE
  5
1276A7
  8
OBJECT
 10
12090.0
 20
-1194.9999999999959073
 30
0.0
 11
11924.0
 21
-1194.9999999999959073
 31
0.0
1001
ACDBBLOCKREPETAG
1070
     1
1071
      124
1005
1276A7
  0
LINE
  5
1276A8
  8
OBJECT
 10
12090.0
 20
-1209.9999999999990905
 30
0.0
 11
12090.0
 21
-1194.9999999999959073
 31
0.0
1001
ACDBBLOCKREPETAG
1070
     1
1071
      125
1005
1276A8
  0
LINE
  5
1276A9
  8
OBJECT
 10
11924.0
 20
-1209.9999999999990905
 30
0.0
 11
12090.0
 21
-1209.9999999999990905
 31
0.0
1001
ACDBBLOCKREPETAG
1070
     1
1071
      126
1005
1276A9
  0
LINE
  5
1276AA
  8
OBJECT
 10
12067.4999999999799911
 20
-1209.9999999999990905
 30
0.0
 11
12067.4999999999799911
 21
-1219.9999999999990905
 31
0.0
1001
ACDBBLOCKREPETAG
1070
     1
1071
      127
1005
1276AA
  0
LINE
  5
1276AB
  8
OBJECT
 10
12072.9999999999909051
 20
-1219.9999999999990905
 30
0.0
 11
12072.9999999999909051
 21
-1209.9999999999990905
 31
0.0
1001
ACDBBLOCKREPETAG
1070
     1
1071
      128
1005
1276AB
  0
LINE
  5
1276AC
  8
OBJECT
 10
12082.9999999999909051
 20
-1219.9999999999990905
 30
0.0
 11
12082.9999999999909051
 21
-1209.9999999999990905
 31
0.0
1001
ACDBBLOCKREPETAG
1070
     1
1071
      129
1005
1276AC
  0
LINE
  5
1276AD
  8
OBJECT
 10
11924.0
 20
-1219.9999999999990905
 30
0.0
 11
11924.0
 21
-1233.9999999999959073
 31
0.0
1001
ACDBBLOCKREPETAG
1070
     1
1071
      130
1005
1276AD
  0
LINE
  5
1276AE
  8
OBJECT
 10
12090.0
 20
-1219.9999999999990905
 30
0.0
 11
12090.0
 21
-1233.9999999999959073
 31
0.0
1001
ACDBBLOCKREPETAG
1070
     1
1071
      131
1005
1276AE
  0
LINE
  5
1276AF
  8
OBJECT
 10
11924.0
 20
-1233.9999999999959073
 30
0.0
 11
12090.0
 21
-1233.9999999999959073
 31
0.0
1001
ACDBBLOCKREPETAG
1070
     1
1071
      132
1005
1276AF
  0
LINE
  5
1276B0
  8
OBJECT
 10
11924.0
 20
-1219.9999999999990905
 30
0.0
 11
12090.0
 21
-1219.9999999999990905
 31
0.0
1001
ACDBBLOCKREPETAG
1070
     1
1071
      133
1005
1276B0
  0
LINE
  5
1276B1
  8
OBJECT
 10
11932.4999999999799911
 20
-1209.9999999999990905
 30
0.0
 11
11932.4999999999799911
 21
-1219.9999999999990905
 31
0.0
1001
ACDBBLOCKREPETAG
1070
     1
1071
      134
1005
1276B1
  0
LINE
  5
1276B2
  8
OBJECT
 10
11934.0
 20
-1158.9999999999959073
 30
0.0
 11
12065.9999999999909051
 21
-1158.9999999999959073
 31
0.0
1001
ACDBBLOCKREPETAG
1070
     1
1071
      135
1005
1276B2
  0
LINE
  5
1276B3
  8
OBJECT
 10
11924.0
 20
-1209.9999999999990905
 30
0.0
 11
11924.0
 21
-1194.9999999999959073
 31
0.0
1001
ACDBBLOCKREPETAG
1070
     1
1071
      136
1005
1276B3
  0
LINE
  5
1276B4
  8
HIDDEN
 10
11943.0
 20
-1169.9999999999990905
 30
0.0
 11
12057.0
 21
-1169.9999999999990905
 31
0.0
1001
ACDBBLOCKREPETAG
1070
     1
1071
      137
1005
1276B4
  0
LINE
  5
1276B5
  8
OBJECT
 10
12086.9999999999909051
 20
-1193.2000000000000455
 30
0.0
 11
12086.9999999999909051
 21
-1194.9999999999990905
 31
0.0
1001
ACDBBLOCKREPETAG
1070
     1
1071
      138
1005
1276B5
  0
LINE
  5
1276B6
  8
OBJECT
 10
12068.9999999999909051
 20
-1193.2000000000000455
 30
0.0
 11
12068.9999999999909051
 21
-1194.9999999999990905
 31
0.0
1001
ACDBBLOCKREPETAG
1070
     1
1071
      139
1005
1276B6
  0
LINE
  5
1276B7
  8
OBJECT
 10
12072.2499999999909051
 20
-1183.4999999999990905
 30
0.0
 11
12083.7499999999909051
 21
-1183.4999999999990905
 31
0.0
1001
ACDBBLOCKREPETAG
1070
     1
1071
      140
1005
1276B7
  0
LINE
  5
1276B8
  8
OBJECT
 10
12072.2499999999909051
 20
-1183.4999999999990905
 30
0.0
 11
12072.2499999999909051
 21
-1193.2000000000000455
 31
0.0
1001
ACDBBLOCKREPETAG
1070
     1
1071
      141
1005
1276B8
  0
LINE
  5
1276B9
  8
OBJECT
 10
12083.7499999999909051
 20
-1183.4999999999990905
 30
0.0
 11
12083.7499999999909051
 21
-1193.2000000000000455
 31
0.0
1001
ACDBBLOCKREPETAG
1070
     1
1071
      142
1005
1276B9
  0
LINE
  5
1276BA
  8
OBJECT
 10
11931.9999999999799911
 20
-1274.9999999999990905
 30
0.0
 11
12067.9999999999799911
 21
-1274.9999999999990905
 31
0.0
1001
ACDBBLOCKREPETAG
1070
     1
1071
      143
1005
1276BA
  0
LINE
  5
1276BB
  8
OBJECT
 10
11931.9999999999799911
 20
-1274.9999999999990905
 30
0.0
 11
11931.9999999999799911
 21
-1233.9999999999990905
 31
0.0
1001
ACDBBLOCKREPETAG
1070
     1
1071
      144
1005
1276BB
  0
LINE
  5
1276BC
  8
OBJECT
 10
12067.9999999999799911
 20
-1274.9999999999990905
 30
0.0
 11
12067.9999999999799911
 21
-1233.9999999999990905
 31
0.0
1001
ACDBBLOCKREPETAG
1070
     1
1071
      145
1005
1276BC
  0
LINE
  5
1276BD
  8
OBJECT
 10
12086.9999999999909051
 20
-1193.2000000000000455
 30
0.0
 11
12068.9999999999909051
 21
-1193.2000000000000455
 31
0.0
1001
ACDBBLOCKREPETAG
1070
     1
1071
      146
1005
1276BD
  0
LINE
  5
1276BE
  8
CENTER
 10
12000.0
 20
-799.9999999999994316
 30
0.0
 11
12000.0
 21
-1289.9999999999990905
 31
0.0
1001
ACDBBLOCKREPETAG
1070
     1
1071
      147
1005
1276BE
  0
LINE
  5
1276BF
  8
OBJECT
 10
11925.0
 20
-799.9999999999994316
 30
0.0
 11
11925.0
 21
-881.9999999999959073
 31
0.0
1001
ACDBBLOCKREPETAG
1070
     1
1071
      148
1005
1276BF
  0
LINE
  5
1276C0
  8
OBJECT
 10
12075.0
 20
-799.9999999999994316
 30
0.0
 11
12075.0
 21
-881.9999999999921556
 31
0.0
1001
ACDBBLOCKREPETAG
1070
     1
1071
      149
1005
1276C0
  0
LINE
  5
1276C1
  8
OBJECT
 10
11925.0
 20
-881.9999999999959073
 30
0.0
 11
12075.0
 21
-881.9999999999921556
 31
0.0
1001
ACDBBLOCKREPETAG
1070
     1
1071
      150
1005
1276C1
  0
LINE
  5
1276C2
  8
OBJECT
 10
11943.0
 20
-1158.9999999999959073
 30
0.0
 11
11943.0
 21
-1009.9999999999920419
 31
0.0
1001
ACDBBLOCKREPETAG
1070
     1
1071
      151
1005
1276C2
  0
LINE
  5
1276C3
  8
OBJECT
 10
12057.0
 20
-1009.9999999999920419
 30
0.0
 11
11943.0
 21
-1009.9999999999920419
 31
0.0
1001
ACDBBLOCKREPETAG
1070
     1
1071
      152
1005
1276C3
  0
LINE
  5
1276C4
  8
OBJECT
 10
12057.0
 20
-1009.9999999999920419
 30
0.0
 11
12057.0
 21
-1158.9999999999959073
 31
0.0
1001
ACDBBLOCKREPETAG
1070
     1
1071
      153
1005
1276C4
  0
LINE
  5
1276C5
  8
OBJECT
 10
11925.0
 20
-881.9999999999959073
 30
0.0
 11
11943.0
 21
-1009.9999999999920419
 31
0.0
1001
ACDBBLOCKREPETAG
1070
     1
1071
      154
1005
1276C5
  0
LINE
  5
1276C6
  8
OBJECT
 10
12057.0
 20
-1009.9999999999920419
 30
0.0
 11
12075.0
 21
-881.9999999999921556
 31
0.0
1001
ACDBBLOCKREPETAG
1070
     1
1071
      155
1005
1276C6
  0
LINE
  5
1276C7
  8
OBJECT
 10
11934.0
 20
-1194.9999999999959073
 30
0.0
 11
11934.0
 21
-1158.9999999999959073
 31
0.0
1001
ACDBBLOCKREPETAG
1070
     1
1071
      156
1005
1276C7
  0
LINE
  5
1276C8
  8
OBJECT
 10
12066.0
 20
-1194.9999999999959073
 30
0.0
 11
12065.9999999999909051
 21
-1158.9999999999959073
 31
0.0
1001
ACDBBLOCKREPETAG
1070
     1
1071
      157
1005
1276C8
  0
LINE
  5
1276C9
  8
OBJECT
 10
11954.75
 20
-1184.6999999999929969
 30
0.0
 11
11967.25
 21
-1184.6999999999929969
 31
0.0
1001
ACDBBLOCKREPETAG
1070
     1
1071
      158
1005
1276C9
  0
LINE
  5
1276CA
  8
OBJECT
 10
11946.0
 20
-1194.9999999999959073
 30
0.0
 11
11946.0
 21
-1192.6999999999959527
 31
0.0
1001
ACDBBLOCKREPETAG
1070
     1
1071
      159
1005
1276CA
  0
LINE
  5
1276CB
  8
OBJECT
 10
11976.0
 20
-1194.9999999999959073
 30
0.0
 11
11976.0
 21
-1192.6999999999959527
 31
0.0
1001
ACDBBLOCKREPETAG
1070
     1
1071
      160
1005
1276CB
  0
LINE
  5
1276CC
  8
OBJECT
 10
11954.75
 20
-1184.6999999999929969
 30
0.0
 11
11954.75
 21
-1192.6999999999959527
 31
0.0
1001
ACDBBLOCKREPETAG
1070
     1
1071
      161
1005
1276CC
  0
LINE
  5
1276CD
  8
OBJECT
 10
11967.25
 20
-1184.6999999999929969
 30
0.0
 11
11967.25
 21
-1192.6999999999959527
 31
0.0
1001
ACDBBLOCKREPETAG
1070
     1
1071
      162
1005
1276CD
  0
LINE
  5
1276CE
  8
OBJECT
 10
11946.0
 20
-1192.6999999999959527
 30
0.0
 11
11976.0
 21
-1192.6999999999959527
 31
0.0
1001
ACDBBLOCKREPETAG
1070
     1
1071
      163
1005
1276CE
  0
LINE
  5
1276CF
  8
OBJECT
 10
11953.0
 20
-1233.9999999999959073
 30
0.0
 11
11953.0
 21
-1243.9999999999959073
 31
0.0
1001
ACDBBLOCKREPETAG
1070
     1
1071
      164
1005
1276CF
  0
LINE
  5
1276D0
  8
OBJECT
 10
11969.0
 20
-1233.9999999999959073
 30
0.0
 11
11969.0
 21
-1243.9999999999959073
 31
0.0
1001
ACDBBLOCKREPETAG
1070
     1
1071
      165
1005
1276D0
  0
LINE
  5
1276D1
  8
OBJECT
 10
11953.0
 20
-1243.9999999999959073
 30
0.0
 11
11969.0
 21
-1243.9999999999959073
 31
0.0
1001
ACDBBLOCKREPETAG
1070
     1
1071
      166
1005
1276D1
  0
LINE
  5
1276D2
  8
OBJECT
 10
11966.0
 20
-1219.9999999999959073
 30
0.0
 11
11966.0
 21
-1209.9999999999959073
 31
0.0
1001
ACDBBLOCKREPETAG
1070
     1
1071
      167
1005
1276D2
  0
LINE
  5
1276D3
  8
OBJECT
 10
11956.0
 20
-1219.9999999999959073
 30
0.0
 11
11956.0
 21
-1209.9999999999959073
 31
0.0
1001
ACDBBLOCKREPETAG
1070
     1
1071
      168
1005
1276D3
  0
LINE
  5
1276D4
  8
OBJECT
 10
10090.0
 20
-1194.9999999999959073
 30
0.0
 11
9924.0
 21
-1194.9999999999959073
 31
0.0
1001
ACDBBLOCKREPETAG
1070
     1
1071
       12
1005
1276D4
  0
LINE
  5
1276D5
  8
OBJECT
 10
10066.0
 20
-1158.9999999999959073
 30
0.0
 11
9934.0
 21
-1158.9999999999959073
 31
0.0
1001
ACDBBLOCKREPETAG
1070
     1
1071
       13
1005
1276D5
  0
LINE
  5
1276D6
  8
OBJECT
 10
10090.0
 20
-1209.9999999999990905
 30
0.0
 11
10090.0
 21
-1194.9999999999959073
 31
0.0
1001
ACDBBLOCKREPETAG
1070
     1
1071
       14
1005
1276D6
  0
LINE
  5
1276D7
  8
OBJECT
 10
9924.0
 20
-1209.9999999999990905
 30
0.0
 11
10090.0
 21
-1209.9999999999990905
 31
0.0
1001
ACDBBLOCKREPETAG
1070
     1
1071
       15
1005
1276D7
  0
LINE
  5
1276D8
  8
OBJECT
 10
10067.4999999999799911
 20
-1209.9999999999990905
 30
0.0
 11
10067.4999999999799911
 21
-1219.9999999999990905
 31
0.0
1001
ACDBBLOCKREPETAG
1070
     1
1071
       16
1005
1276D8
  0
LINE
  5
1276D9
  8
OBJECT
 10
9924.0
 20
-1219.9999999999990905
 30
0.0
 11
9924.0
 21
-1233.9999999999959073
 31
0.0
1001
ACDBBLOCKREPETAG
1070
     1
1071
       17
1005
1276D9
  0
LINE
  5
1276DA
  8
OBJECT
 10
10090.0
 20
-1219.9999999999990905
 30
0.0
 11
10090.0
 21
-1233.9999999999959073
 31
0.0
1001
ACDBBLOCKREPETAG
1070
     1
1071
       18
1005
1276DA
  0
LINE
  5
1276DB
  8
OBJECT
 10
9924.0
 20
-1233.9999999999959073
 30
0.0
 11
10090.0
 21
-1233.9999999999959073
 31
0.0
1001
ACDBBLOCKREPETAG
1070
     1
1071
       19
1005
1276DB
  0
LINE
  5
1276DC
  8
OBJECT
 10
9924.0
 20
-1219.9999999999990905
 30
0.0
 11
10090.0
 21
-1219.9999999999990905
 31
0.0
1001
ACDBBLOCKREPETAG
1070
     1
1071
       20
1005
1276DC
  0
LINE
  5
1276DD
  8
OBJECT
 10
9932.4999999999836291
 20
-1209.9999999999990905
 30
0.0
 11
9932.4999999999836291
 21
-1219.9999999999990905
 31
0.0
1001
ACDBBLOCKREPETAG
1070
     1
1071
       21
1005
1276DD
  0
LINE
  5
1276DE
  8
OBJECT
 10
9924.0
 20
-1209.9999999999990905
 30
0.0
 11
9924.0
 21
-1194.9999999999959073
 31
0.0
1001
ACDBBLOCKREPETAG
1070
     1
1071
       22
1005
1276DE
  0
LINE
  5
1276DF
  8
HIDDEN
 10
9943.0
 20
-1169.9999999999990905
 30
0.0
 11
10057.0
 21
-1169.9999999999990905
 31
0.0
1001
ACDBBLOCKREPETAG
1070
     1
1071
       23
1005
1276DF
  0
LINE
  5
1276E0
  8
CENTER
 10
10000.0
 20
-799.9999999999994316
 30
0.0
 11
10000.0
 21
-1248.9999999999959073
 31
0.0
1001
ACDBBLOCKREPETAG
1070
     1
1071
       24
1005
1276E0
  0
LINE
  5
1276E1
  8
OBJECT
 10
9925.0
 20
-799.9999999999994316
 30
0.0
 11
9925.0
 21
-881.9999999999959073
 31
0.0
1001
ACDBBLOCKREPETAG
1070
     1
1071
       25
1005
1276E1
  0
LINE
  5
1276E2
  8
OBJECT
 10
10075.0
 20
-799.9999999999994316
 30
0.0
 11
10075.0
 21
-881.9999999999921556
 31
0.0
1001
ACDBBLOCKREPETAG
1070
     1
1071
       26
1005
1276E2
  0
LINE
  5
1276E3
  8
OBJECT
 10
9925.0
 20
-881.9999999999959073
 30
0.0
 11
10075.0
 21
-881.9999999999921556
 31
0.0
1001
ACDBBLOCKREPETAG
1070
     1
1071
       27
1005
1276E3
  0
LINE
  5
1276E4
  8
OBJECT
 10
10057.0
 20
-1158.9999999999959073
 30
0.0
 11
10057.0
 21
-1009.9999999999920419
 31
0.0
1001
ACDBBLOCKREPETAG
1070
     1
1071
       28
1005
1276E4
  0
LINE
  5
1276E5
  8
OBJECT
 10
9943.0
 20
-1158.9999999999959073
 30
0.0
 11
9943.0
 21
-1009.9999999999920419
 31
0.0
1001
ACDBBLOCKREPETAG
1070
     1
1071
       29
1005
1276E5
  0
LINE
  5
1276E6
  8
OBJECT
 10
10057.0
 20
-1009.9999999999920419
 30
0.0
 11
9943.0
 21
-1009.9999999999920419
 31
0.0
1001
ACDBBLOCKREPETAG
1070
     1
1071
       30
1005
1276E6
  0
LINE
  5
1276E7
  8
OBJECT
 10
9925.0
 20
-881.9999999999959073
 30
0.0
 11
9943.0
 21
-1009.9999999999920419
 31
0.0
1001
ACDBBLOCKREPETAG
1070
     1
1071
       31
1005
1276E7
  0
LINE
  5
1276E8
  8
OBJECT
 10
10057.0
 20
-1009.9999999999920419
 30
0.0
 11
10075.0
 21
-881.9999999999921556
 31
0.0
1001
ACDBBLOCKREPETAG
1070
     1
1071
       32
1005
1276E8
  0
LINE
  5
1276E9
  8
OBJECT
 10
9934.0
 20
-1158.9999999999959073
 30
0.0
 11
9934.0
 21
-1194.9999999999959073
 31
0.0
1001
ACDBBLOCKREPETAG
1070
     1
1071
       33
1005
1276E9
  0
LINE
  5
1276EA
  8
OBJECT
 10
10066.0
 20
-1158.9999999999959073
 30
0.0
 11
10066.0
 21
-1194.9999999999959073
 31
0.0
1001
ACDBBLOCKREPETAG
1070
     1
1071
       34
1005
1276EA
  0
LINE
  5
1276EB
  8
OBJECT
 10
10082.9999999999909051
 20
-1219.9999999999959073
 30
0.0
 11
10082.9999999999909051
 21
-1209.9999999999959073
 31
0.0
1001
ACDBBLOCKREPETAG
1070
     1
1071
       35
1005
1276EB
  0
LINE
  5
1276EC
  8
OBJECT
 10
10072.9999999999909051
 20
-1219.9999999999959073
 30
0.0
 11
10072.9999999999909051
 21
-1209.9999999999959073
 31
0.0
1001
ACDBBLOCKREPETAG
1070
     1
1071
       36
1005
1276EC
  0
LINE
  5
1276ED
  8
OBJECT
 10
10068.9999999999799911
 20
-1189.9999999999959073
 30
0.0
 11
10068.9999999999799911
 21
-1194.9999999999959073
 31
0.0
1001
ACDBBLOCKREPETAG
1070
     1
1071
       37
1005
1276ED
  0
LINE
  5
1276EE
  8
OBJECT
 10
10087.0
 20
-1189.9999999999959073
 30
0.0
 11
10087.0
 21
-1194.9999999999959073
 31
0.0
1001
ACDBBLOCKREPETAG
1070
     1
1071
       38
1005
1276EE
  0
LINE
  5
1276EF
  8
OBJECT
 10
10087.0
 20
-1189.9999999999959073
 30
0.0
 11
10068.9999999999799911
 21
-1189.9999999999959073
 31
0.0
1001
ACDBBLOCKREPETAG
1070
     1
1071
       39
1005
1276EF
  0
LINE
  5
1276F0
  8
OBJECT
 10
10073.0
 20
-1241.9999999999959073
 30
0.0
 11
10073.0
 21
-1244.9999999999959073
 31
0.0
1001
ACDBBLOCKREPETAG
1070
     1
1071
       40
1005
1276F0
  0
LINE
  5
1276F1
  8
OBJECT
 10
10073.0
 20
-1244.9999999999959073
 30
0.0
 11
10083.0
 21
-1244.9999999999959073
 31
0.0
1001
ACDBBLOCKREPETAG
1070
     1
1071
       41
1005
1276F1
  0
LINE
  5
1276F2
  8
OBJECT
 10
10083.0
 20
-1244.9999999999959073
 30
0.0
 11
10083.0
 21
-1241.9999999999959073
 31
0.0
1001
ACDBBLOCKREPETAG
1070
     1
1071
       43
1005
1276F2
  0
LINE
  5
1276F3
  8
OBJECT
 10
9968.5
 20
-1189.9999999999959073
 30
0.0
 11
9951.9999999999909051
 21
-1189.9999999999959073
 31
0.0
1001
ACDBBLOCKREPETAG
1070
     1
1071
       48
1005
1276F3
  0
LINE
  5
1276F4
  8
OBJECT
 10
9976.0
 20
-1194.9999999999959073
 30
0.0
 11
9976.0
 21
-1192.9999999999959073
 31
0.0
1001
ACDBBLOCKREPETAG
1070
     1
1071
       49
1005
1276F4
  0
LINE
  5
1276F5
  8
OBJECT
 10
9966.0
 20
-1219.9999999999959073
 30
0.0
 11
9966.0
 21
-1209.9999999999959073
 31
0.0
1001
ACDBBLOCKREPETAG
1070
     1
1071
       50
1005
1276F5
  0
LINE
  5
1276F6
  8
OBJECT
 10
9956.0
 20
-1219.9999999999959073
 30
0.0
 11
9956.0
 21
-1209.9999999999959073
 31
0.0
1001
ACDBBLOCKREPETAG
1070
     1
1071
       51
1005
1276F6
  0
LINE
  5
1276F7
  8
OBJECT
 10
9951.9999999999909051
 20
-1189.9999999999959073
 30
0.0
 11
9951.9999999999909051
 21
-1194.9999999999959073
 31
0.0
1001
ACDBBLOCKREPETAG
1070
     1
1071
       52
1005
1276F7
  0
LINE
  5
1276F8
  8
OBJECT
 10
9956.0
 20
-1241.9999999999959073
 30
0.0
 11
9956.0
 21
-1244.9999999999959073
 31
0.0
1001
ACDBBLOCKREPETAG
1070
     1
1071
       53
1005
1276F8
  0
LINE
  5
1276F9
  8
OBJECT
 10
9956.0
 20
-1244.9999999999959073
 30
0.0
 11
9966.0
 21
-1244.9999999999959073
 31
0.0
1001
ACDBBLOCKREPETAG
1070
     1
1071
       54
1005
1276F9
  0
LINE
  5
1276FA
  8
OBJECT
 10
9951.1850454237774102
 20
-1241.9999999999959073
 30
0.0
 11
9970.8149545762189518
 21
-1241.9999999999959073
 31
0.0
1001
ACDBBLOCKREPETAG
1070
     1
1071
       55
1005
1276FA
  0
LINE
  5
1276FB
  8
OBJECT
 10
9966.0
 20
-1244.9999999999959073
 30
0.0
 11
9966.0
 21
-1241.9999999999959073
 31
0.0
1001
ACDBBLOCKREPETAG
1070
     1
1071
       56
1005
1276FB
  0
LINE
  5
1276FC
  8
OBJECT
 10
9976.0
 20
-1192.9999999999959073
 30
0.0
 11
9968.5
 21
-1189.9999999999959073
 31
0.0
1001
ACDBBLOCKREPETAG
1070
     1
1071
       57
1005
1276FC
  0
LINE
  5
1276FD
  8
OBJECT
 10
9951.1850454237774102
 20
-1233.9999999999959073
 30
0.0
 11
9951.1850454237774102
 21
-1241.9999999999959073
 31
0.0
1001
ACDBBLOCKREPETAG
1070
     1
1071
      630
1005
1276FD
  0
LINE
  5
1276FE
  8
OBJECT
 10
9956.0925227118896146
 20
-1233.9999999999959073
 30
0.0
 11
9956.0925227118896146
 21
-1241.9999999999959073
 31
0.0
1001
ACDBBLOCKREPETAG
1070
     1
1071
      631
1005
1276FE
  0
LINE
  5
1276FF
  8
OBJECT
 10
9965.9074772881122044
 20
-1233.9999999999959073
 30
0.0
 11
9965.9074772881122044
 21
-1241.9999999999959073
 31
0.0
1001
ACDBBLOCKREPETAG
1070
     1
1071
      632
1005
1276FF
  0
LINE
  5
127700
  8
OBJECT
 10
9970.8149545762244088
 20
-1233.9999999999959073
 30
0.0
 11
9970.8149545762244088
 21
-1241.9999999999959073
 31
0.0
1001
ACDBBLOCKREPETAG
1070
     1
1071
      633
1005
127700
  0
LINE
  5
127701
  8
OBJECT
 10
10068.1850454237701342
 20
-1241.9999999999959073
 30
0.0
 11
10087.8149545762207708
 21
-1241.9999999999959073
 31
0.0
1001
ACDBBLOCKREPETAG
1070
     1
1071
      634
1005
127701
  0
LINE
  5
127702
  8
OBJECT
 10
10068.1850454237701342
 20
-1233.9999999999959073
 30
0.0
 11
10068.1850454237701342
 21
-1241.9999999999959073
 31
0.0
1001
ACDBBLOCKREPETAG
1070
     1
1071
      635
1005
127702
  0
LINE
  5
127703
  8
OBJECT
 10
10073.0925227118896146
 20
-1233.9999999999959073
 30
0.0
 11
10073.0925227118896146
 21
-1241.9999999999959073
 31
0.0
1001
ACDBBLOCKREPETAG
1070
     1
1071
      636
1005
127703
  0
LINE
  5
127704
  8
OBJECT
 10
10082.9074772881103854
 20
-1233.9999999999959073
 30
0.0
 11
10082.9074772881103854
 21
-1241.9999999999959073
 31
0.0
1001
ACDBBLOCKREPETAG
1070
     1
1071
      637
1005
127704
  0
LINE
  5
127705
  8
OBJECT
 10
10087.8149545762207708
 20
-1233.9999999999959073
 30
0.0
 11
10087.8149545762207708
 21
-1241.9999999999959073
 31
0.0
1001
ACDBBLOCKREPETAG
1070
     1
1071
      638
1005
127705
  0
LINE
  5
127706
  8
OBJECT
 10
7943.0
 20
-1209.9999999999959073
 30
0.0
 11
8057.0
 21
-1209.9999999999959073
 31
0.0
1001
ACDBBLOCKREPETAG
1070
     1
1071
        0
1005
127706
  0
LINE
  5
127707
  8
OBJECT
 10
7943.0
 20
-1209.9999999999959073
 30
0.0
 11
7943.0
 21
-1009.999999999996021
 31
0.0
1001
ACDBBLOCKREPETAG
1070
     1
1071
        1
1005
127707
  0
LINE
  5
127708
  8
OBJECT
 10
8057.0
 20
-1209.9999999999959073
 30
0.0
 11
8057.0
 21
-1009.999999999996021
 31
0.0
1001
ACDBBLOCKREPETAG
1070
     1
1071
        2
1005
127708
  0
LINE
  5
127709
  8
OBJECT
 10
7943.0
 20
-1009.999999999996021
 30
0.0
 11
8057.0
 21
-1009.999999999996021
 31
0.0
1001
ACDBBLOCKREPETAG
1070
     1
1071
        3
1005
127709
  0
LINE
  5
12770A
  8
HIDDEN
 10
7950.0
 20
-1009.999999999996021
 30
0.0
 11
7950.0
 21
-1209.9999999999959073
 31
0.0
1001
ACDBBLOCKREPETAG
1070
     1
1071
        4
1005
12770A
  0
LINE
  5
12770B
  8
HIDDEN
 10
8050.0
 20
-1009.999999999996021
 30
0.0
 11
8050.0
 21
-1209.9999999999959073
 31
0.0
1001
ACDBBLOCKREPETAG
1070
     1
1071
        5
1005
12770B
  0
LINE
  5
12770C
  8
CENTER
 10
8000.0
 20
-799.9999999999994316
 30
0.0
 11
8000.0
 21
-1224.9999999999959073
 31
0.0
1001
ACDBBLOCKREPETAG
1070
     1
1071
        6
1005
12770C
  0
LINE
  5
12770D
  8
OBJECT
 10
7925.0
 20
-799.9999999999994316
 30
0.0
 11
7925.0
 21
-881.9999999999959073
 31
0.0
1001
ACDBBLOCKREPETAG
1070
     1
1071
        7
1005
12770D
  0
LINE
  5
12770E
  8
OBJECT
 10
8075.0
 20
-799.9999999999994316
 30
0.0
 11
8075.0
 21
-881.9999999999959073
 31
0.0
1001
ACDBBLOCKREPETAG
1070
     1
1071
        8
1005
12770E
  0
LINE
  5
12770F
  8
OBJECT
 10
7925.0
 20
-881.9999999999959073
 30
0.0
 11
8075.0
 21
-881.9999999999959073
 31
0.0
1001
ACDBBLOCKREPETAG
1070
     1
1071
        9
1005
12770F
  0
LINE
  5
127710
  8
OBJECT
 10
7925.0
 20
-881.9999999999959073
 30
0.0
 11
7943.0
 21
-1009.999999999996021
 31
0.0
1001
ACDBBLOCKREPETAG
1070
     1
1071
       10
1005
127710
  0
LINE
  5
127711
  8
OBJECT
 10
8057.0
 20
-1009.999999999996021
 30
0.0
 11
8075.0
 21
-881.9999999999959073
 31
0.0
1001
ACDBBLOCKREPETAG
1070
     1
1071
       11
1005
127711
  0
LINE
  5
127712
  8
OBJECT
 10
6085.9999999999918145
 20
-1233.9999999999990905
 30
0.0
 11
6085.9999999999918145
 21
-1243.9999999999990905
 31
0.0
1001
ACDBBLOCKREPETAG
1070
     1
1071
      121
1005
127712
  0
LINE
  5
127713
  8
OBJECT
 10
6069.9999999999918145
 20
-1233.9999999999990905
 30
0.0
 11
6069.9999999999918145
 21
-1243.9999999999990905
 31
0.0
1001
ACDBBLOCKREPETAG
1070
     1
1071
      122
1005
127713
  0
LINE
  5
127714
  8
OBJECT
 10
6085.9999999999918145
 20
-1243.9999999999990905
 30
0.0
 11
6069.9999999999918145
 21
-1243.9999999999990905
 31
0.0
1001
ACDBBLOCKREPETAG
1070
     1
1071
      123
1005
127714
  0
LINE
  5
127715
  8
OBJECT
 10
6090.0
 20
-1194.9999999999959073
 30
0.0
 11
5924.0
 21
-1194.9999999999959073
 31
0.0
1001
ACDBBLOCKREPETAG
1070
     1
1071
      124
1005
127715
  0
LINE
  5
127716
  8
OBJECT
 10
6090.0
 20
-1209.9999999999990905
 30
0.0
 11
6090.0
 21
-1194.9999999999959073
 31
0.0
1001
ACDBBLOCKREPETAG
1070
     1
1071
      125
1005
127716
  0
LINE
  5
127717
  8
OBJECT
 10
5924.0
 20
-1209.9999999999990905
 30
0.0
 11
6090.0
 21
-1209.9999999999990905
 31
0.0
1001
ACDBBLOCKREPETAG
1070
     1
1071
      126
1005
127717
  0
LINE
  5
127718
  8
OBJECT
 10
6067.4999999999854481
 20
-1209.9999999999990905
 30
0.0
 11
6067.4999999999854481
 21
-1219.9999999999990905
 31
0.0
1001
ACDBBLOCKREPETAG
1070
     1
1071
      127
1005
127718
  0
LINE
  5
127719
  8
OBJECT
 10
6072.9999999999918145
 20
-1219.9999999999990905
 30
0.0
 11
6072.9999999999918145
 21
-1209.9999999999990905
 31
0.0
1001
ACDBBLOCKREPETAG
1070
     1
1071
      128
1005
127719
  0
LINE
  5
12771A
  8
OBJECT
 10
6082.9999999999918145
 20
-1219.9999999999990905
 30
0.0
 11
6082.9999999999918145
 21
-1209.9999999999990905
 31
0.0
1001
ACDBBLOCKREPETAG
1070
     1
1071
      129
1005
12771A
  0
LINE
  5
12771B
  8
OBJECT
 10
5924.0
 20
-1219.9999999999990905
 30
0.0
 11
5924.0
 21
-1233.9999999999959073
 31
0.0
1001
ACDBBLOCKREPETAG
1070
     1
1071
      130
1005
12771B
  0
LINE
  5
12771C
  8
OBJECT
 10
6090.0
 20
-1219.9999999999990905
 30
0.0
 11
6090.0
 21
-1233.9999999999959073
 31
0.0
1001
ACDBBLOCKREPETAG
1070
     1
1071
      131
1005
12771C
  0
LINE
  5
12771D
  8
OBJECT
 10
5924.0
 20
-1233.9999999999959073
 30
0.0
 11
6090.0
 21
-1233.9999999999959073
 31
0.0
1001
ACDBBLOCKREPETAG
1070
     1
1071
      132
1005
12771D
  0
LINE
  5
12771E
  8
OBJECT
 10
5924.0
 20
-1219.9999999999990905
 30
0.0
 11
6090.0
 21
-1219.9999999999990905
 31
0.0
1001
ACDBBLOCKREPETAG
1070
     1
1071
      133
1005
12771E
  0
LINE
  5
12771F
  8
OBJECT
 10
5932.4999999999854481
 20
-1209.9999999999990905
 30
0.0
 11
5932.4999999999854481
 21
-1219.9999999999990905
 31
0.0
1001
ACDBBLOCKREPETAG
1070
     1
1071
      134
1005
12771F
  0
LINE
  5
127720
  8
OBJECT
 10
5934.0
 20
-1158.9999999999959073
 30
0.0
 11
6065.9999999999909051
 21
-1158.9999999999959073
 31
0.0
1001
ACDBBLOCKREPETAG
1070
     1
1071
      135
1005
127720
  0
LINE
  5
127721
  8
OBJECT
 10
5924.0
 20
-1209.9999999999990905
 30
0.0
 11
5924.0
 21
-1194.9999999999959073
 31
0.0
1001
ACDBBLOCKREPETAG
1070
     1
1071
      136
1005
127721
  0
LINE
  5
127722
  8
HIDDEN
 10
5943.0
 20
-1169.9999999999990905
 30
0.0
 11
6057.0
 21
-1169.9999999999990905
 31
0.0
1001
ACDBBLOCKREPETAG
1070
     1
1071
      137
1005
127722
  0
LINE
  5
127723
  8
OBJECT
 10
6086.9999999999918145
 20
-1193.2000000000000455
 30
0.0
 11
6086.9999999999918145
 21
-1194.9999999999990905
 31
0.0
1001
ACDBBLOCKREPETAG
1070
     1
1071
      138
1005
127723
  0
LINE
  5
127724
  8
OBJECT
 10
6068.9999999999909051
 20
-1193.2000000000000455
 30
0.0
 11
6068.9999999999909051
 21
-1194.9999999999990905
 31
0.0
1001
ACDBBLOCKREPETAG
1070
     1
1071
      139
1005
127724
  0
LINE
  5
127725
  8
OBJECT
 10
6072.2499999999918145
 20
-1183.4999999999990905
 30
0.0
 11
6083.7499999999918145
 21
-1183.4999999999990905
 31
0.0
1001
ACDBBLOCKREPETAG
1070
     1
1071
      140
1005
127725
  0
LINE
  5
127726
  8
OBJECT
 10
6072.2499999999918145
 20
-1183.4999999999990905
 30
0.0
 11
6072.2499999999918145
 21
-1193.2000000000000455
 31
0.0
1001
ACDBBLOCKREPETAG
1070
     1
1071
      141
1005
127726
  0
LINE
  5
127727
  8
OBJECT
 10
6083.7499999999918145
 20
-1183.4999999999990905
 30
0.0
 11
6083.7499999999918145
 21
-1193.2000000000000455
 31
0.0
1001
ACDBBLOCKREPETAG
1070
     1
1071
      142
1005
127727
  0
LINE
  5
127728
  8
OBJECT
 10
5931.9999999999863576
 20
-1274.9999999999990905
 30
0.0
 11
6067.9999999999863576
 21
-1274.9999999999990905
 31
0.0
1001
ACDBBLOCKREPETAG
1070
     1
1071
      143
1005
127728
  0
LINE
  5
127729
  8
OBJECT
 10
5931.9999999999863576
 20
-1274.9999999999990905
 30
0.0
 11
5931.9999999999863576
 21
-1233.9999999999990905
 31
0.0
1001
ACDBBLOCKREPETAG
1070
     1
1071
      144
1005
127729
  0
LINE
  5
12772A
  8
OBJECT
 10
6067.9999999999863576
 20
-1274.9999999999990905
 30
0.0
 11
6067.9999999999863576
 21
-1233.9999999999990905
 31
0.0
1001
ACDBBLOCKREPETAG
1070
     1
1071
      145
1005
12772A
  0
LINE
  5
12772B
  8
OBJECT
 10
6086.9999999999918145
 20
-1193.2000000000000455
 30
0.0
 11
6068.9999999999909051
 21
-1193.2000000000000455
 31
0.0
1001
ACDBBLOCKREPETAG
1070
     1
1071
      146
1005
12772B
  0
LINE
  5
12772C
  8
CENTER
 10
6000.0
 20
-799.9999999999994316
 30
0.0
 11
6000.0
 21
-1289.9999999999990905
 31
0.0
1001
ACDBBLOCKREPETAG
1070
     1
1071
      147
1005
12772C
  0
LINE
  5
12772D
  8
OBJECT
 10
5925.0
 20
-799.9999999999994316
 30
0.0
 11
5925.0
 21
-881.9999999999959073
 31
0.0
1001
ACDBBLOCKREPETAG
1070
     1
1071
      148
1005
12772D
  0
LINE
  5
12772E
  8
OBJECT
 10
6075.0
 20
-799.9999999999994316
 30
0.0
 11
6075.0
 21
-881.9999999999921556
 31
0.0
1001
ACDBBLOCKREPETAG
1070
     1
1071
      149
1005
12772E
  0
LINE
  5
12772F
  8
OBJECT
 10
5925.0
 20
-881.9999999999959073
 30
0.0
 11
6075.0
 21
-881.9999999999921556
 31
0.0
1001
ACDBBLOCKREPETAG
1070
     1
1071
      150
1005
12772F
  0
LINE
  5
127730
  8
OBJECT
 10
5943.0
 20
-1158.9999999999959073
 30
0.0
 11
5943.0
 21
-1009.9999999999920419
 31
0.0
1001
ACDBBLOCKREPETAG
1070
     1
1071
      151
1005
127730
  0
LINE
  5
127731
  8
OBJECT
 10
6057.0
 20
-1009.9999999999920419
 30
0.0
 11
5943.0
 21
-1009.9999999999920419
 31
0.0
1001
ACDBBLOCKREPETAG
1070
     1
1071
      152
1005
127731
  0
LINE
  5
127732
  8
OBJECT
 10
6057.0
 20
-1009.9999999999920419
 30
0.0
 11
6057.0
 21
-1158.9999999999959073
 31
0.0
1001
ACDBBLOCKREPETAG
1070
     1
1071
      153
1005
127732
  0
LINE
  5
127733
  8
OBJECT
 10
5925.0
 20
-881.9999999999959073
 30
0.0
 11
5943.0
 21
-1009.9999999999920419
 31
0.0
1001
ACDBBLOCKREPETAG
1070
     1
1071
      154
1005
127733
  0
LINE
  5
127734
  8
OBJECT
 10
6057.0
 20
-1009.9999999999920419
 30
0.0
 11
6075.0
 21
-881.9999999999921556
 31
0.0
1001
ACDBBLOCKREPETAG
1070
     1
1071
      155
1005
127734
  0
LINE
  5
127735
  8
OBJECT
 10
5934.0
 20
-1194.9999999999959073
 30
0.0
 11
5934.0
 21
-1158.9999999999959073
 31
0.0
1001
ACDBBLOCKREPETAG
1070
     1
1071
      156
1005
127735
  0
LINE
  5
127736
  8
OBJECT
 10
6066.0
 20
-1194.9999999999959073
 30
0.0
 11
6065.9999999999909051
 21
-1158.9999999999959073
 31
0.0
1001
ACDBBLOCKREPETAG
1070
     1
1071
      157
1005
127736
  0
LINE
  5
127737
  8
OBJECT
 10
5954.75
 20
-1184.6999999999929969
 30
0.0
 11
5967.2499999999990905
 21
-1184.6999999999929969
 31
0.0
1001
ACDBBLOCKREPETAG
1070
     1
1071
      158
1005
127737
  0
LINE
  5
127738
  8
OBJECT
 10
5946.0
 20
-1194.9999999999959073
 30
0.0
 11
5946.0
 21
-1192.6999999999959527
 31
0.0
1001
ACDBBLOCKREPETAG
1070
     1
1071
      159
1005
127738
  0
LINE
  5
127739
  8
OBJECT
 10
5976.0
 20
-1194.9999999999959073
 30
0.0
 11
5976.0
 21
-1192.6999999999959527
 31
0.0
1001
ACDBBLOCKREPETAG
1070
     1
1071
      160
1005
127739
  0
LINE
  5
12773A
  8
OBJECT
 10
5954.75
 20
-1184.6999999999929969
 30
0.0
 11
5954.75
 21
-1192.6999999999959527
 31
0.0
1001
ACDBBLOCKREPETAG
1070
     1
1071
      161
1005
12773A
  0
LINE
  5
12773B
  8
OBJECT
 10
5967.2499999999990905
 20
-1184.6999999999929969
 30
0.0
 11
5967.2499999999990905
 21
-1192.6999999999959527
 31
0.0
1001
ACDBBLOCKREPETAG
1070
     1
1071
      162
1005
12773B
  0
LINE
  5
12773C
  8
OBJECT
 10
5946.0
 20
-1192.6999999999959527
 30
0.0
 11
5976.0
 21
-1192.6999999999959527
 31
0.0
1001
ACDBBLOCKREPETAG
1070
     1
1071
      163
1005
12773C
  0
LINE
  5
12773D
  8
OBJECT
 10
5953.0
 20
-1233.9999999999959073
 30
0.0
 11
5953.0
 21
-1243.9999999999959073
 31
0.0
1001
ACDBBLOCKREPETAG
1070
     1
1071
      164
1005
12773D
  0
LINE
  5
12773E
  8
OBJECT
 10
5969.0
 20
-1233.9999999999959073
 30
0.0
 11
5969.0
 21
-1243.9999999999959073
 31
0.0
1001
ACDBBLOCKREPETAG
1070
     1
1071
      165
1005
12773E
  0
LINE
  5
12773F
  8
OBJECT
 10
5953.0
 20
-1243.9999999999959073
 30
0.0
 11
5969.0
 21
-1243.9999999999959073
 31
0.0
1001
ACDBBLOCKREPETAG
1070
     1
1071
      166
1005
12773F
  0
LINE
  5
127740
  8
OBJECT
 10
5966.0
 20
-1219.9999999999959073
 30
0.0
 11
5966.0
 21
-1209.9999999999959073
 31
0.0
1001
ACDBBLOCKREPETAG
1070
     1
1071
      167
1005
127740
  0
LINE
  5
127741
  8
OBJECT
 10
5956.0
 20
-1219.9999999999959073
 30
0.0
 11
5956.0
 21
-1209.9999999999959073
 31
0.0
1001
ACDBBLOCKREPETAG
1070
     1
1071
      168
1005
127741
  0
LINE
  5
127742
  8
OBJECT
 10
4090.0
 20
-1194.9999999999959073
 30
0.0
 11
3924.0
 21
-1194.9999999999959073
 31
0.0
1001
ACDBBLOCKREPETAG
1070
     1
1071
       12
1005
127742
  0
LINE
  5
127743
  8
OBJECT
 10
4066.0
 20
-1158.9999999999959073
 30
0.0
 11
3934.0
 21
-1158.9999999999959073
 31
0.0
1001
ACDBBLOCKREPETAG
1070
     1
1071
       13
1005
127743
  0
LINE
  5
127744
  8
OBJECT
 10
4090.0
 20
-1209.9999999999990905
 30
0.0
 11
4090.0
 21
-1194.9999999999959073
 31
0.0
1001
ACDBBLOCKREPETAG
1070
     1
1071
       14
1005
127744
  0
LINE
  5
127745
  8
OBJECT
 10
3924.0
 20
-1209.9999999999990905
 30
0.0
 11
4090.0
 21
-1209.9999999999990905
 31
0.0
1001
ACDBBLOCKREPETAG
1070
     1
1071
       15
1005
127745
  0
LINE
  5
127746
  8
OBJECT
 10
4067.4999999999840838
 20
-1209.9999999999990905
 30
0.0
 11
4067.4999999999840838
 21
-1219.9999999999990905
 31
0.0
1001
ACDBBLOCKREPETAG
1070
     1
1071
       16
1005
127746
  0
LINE
  5
127747
  8
OBJECT
 10
3924.0
 20
-1219.9999999999990905
 30
0.0
 11
3924.0
 21
-1233.9999999999959073
 31
0.0
1001
ACDBBLOCKREPETAG
1070
     1
1071
       17
1005
127747
  0
LINE
  5
127748
  8
OBJECT
 10
4090.0
 20
-1219.9999999999990905
 30
0.0
 11
4090.0
 21
-1233.9999999999959073
 31
0.0
1001
ACDBBLOCKREPETAG
1070
     1
1071
       18
1005
127748
  0
LINE
  5
127749
  8
OBJECT
 10
3924.0
 20
-1233.9999999999959073
 30
0.0
 11
4090.0
 21
-1233.9999999999959073
 31
0.0
1001
ACDBBLOCKREPETAG
1070
     1
1071
       19
1005
127749
  0
LINE
  5
12774A
  8
OBJECT
 10
3924.0
 20
-1219.9999999999990905
 30
0.0
 11
4090.0
 21
-1219.9999999999990905
 31
0.0
1001
ACDBBLOCKREPETAG
1070
     1
1071
       20
1005
12774A
  0
LINE
  5
12774B
  8
OBJECT
 10
3932.4999999999849933
 20
-1209.9999999999990905
 30
0.0
 11
3932.4999999999849933
 21
-1219.9999999999990905
 31
0.0
1001
ACDBBLOCKREPETAG
1070
     1
1071
       21
1005
12774B
  0
LINE
  5
12774C
  8
OBJECT
 10
3924.0
 20
-1209.9999999999990905
 30
0.0
 11
3924.0
 21
-1194.9999999999959073
 31
0.0
1001
ACDBBLOCKREPETAG
1070
     1
1071
       22
1005
12774C
  0
LINE
  5
12774D
  8
HIDDEN
 10
3943.0
 20
-1169.9999999999990905
 30
0.0
 11
4057.0
 21
-1169.9999999999990905
 31
0.0
1001
ACDBBLOCKREPETAG
1070
     1
1071
       23
1005
12774D
  0
LINE
  5
12774E
  8
CENTER
 10
4000.0
 20
-799.9999999999994316
 30
0.0
 11
4000.0
 21
-1248.9999999999959073
 31
0.0
1001
ACDBBLOCKREPETAG
1070
     1
1071
       24
1005
12774E
  0
LINE
  5
12774F
  8
OBJECT
 10
3925.0
 20
-799.9999999999994316
 30
0.0
 11
3925.0
 21
-881.9999999999959073
 31
0.0
1001
ACDBBLOCKREPETAG
1070
     1
1071
       25
1005
12774F
  0
LINE
  5
127750
  8
OBJECT
 10
4075.0
 20
-799.9999999999994316
 30
0.0
 11
4075.0
 21
-881.9999999999921556
 31
0.0
1001
ACDBBLOCKREPETAG
1070
     1
1071
       26
1005
127750
  0
LINE
  5
127751
  8
OBJECT
 10
3925.0
 20
-881.9999999999959073
 30
0.0
 11
4075.0
 21
-881.9999999999921556
 31
0.0
1001
ACDBBLOCKREPETAG
1070
     1
1071
       27
1005
127751
  0
LINE
  5
127752
  8
OBJECT
 10
4057.0
 20
-1158.9999999999959073
 30
0.0
 11
4057.0
 21
-1009.9999999999920419
 31
0.0
1001
ACDBBLOCKREPETAG
1070
     1
1071
       28
1005
127752
  0
LINE
  5
127753
  8
OBJECT
 10
3943.0
 20
-1158.9999999999959073
 30
0.0
 11
3943.0
 21
-1009.9999999999920419
 31
0.0
1001
ACDBBLOCKREPETAG
1070
     1
1071
       29
1005
127753
  0
LINE
  5
127754
  8
OBJECT
 10
4057.0
 20
-1009.9999999999920419
 30
0.0
 11
3943.0
 21
-1009.9999999999920419
 31
0.0
1001
ACDBBLOCKREPETAG
1070
     1
1071
       30
1005
127754
  0
LINE
  5
127755
  8
OBJECT
 10
3925.0
 20
-881.9999999999959073
 30
0.0
 11
3943.0
 21
-1009.9999999999920419
 31
0.0
1001
ACDBBLOCKREPETAG
1070
     1
1071
       31
1005
127755
  0
LINE
  5
127756
  8
OBJECT
 10
4057.0
 20
-1009.9999999999920419
 30
0.0
 11
4075.0
 21
-881.9999999999921556
 31
0.0
1001
ACDBBLOCKREPETAG
1070
     1
1071
       32
1005
127756
  0
LINE
  5
127757
  8
OBJECT
 10
3934.0
 20
-1158.9999999999959073
 30
0.0
 11
3934.0
 21
-1194.9999999999959073
 31
0.0
1001
ACDBBLOCKREPETAG
1070
     1
1071
       33
1005
127757
  0
LINE
  5
127758
  8
OBJECT
 10
4066.0
 20
-1158.9999999999959073
 30
0.0
 11
4066.0
 21
-1194.9999999999959073
 31
0.0
1001
ACDBBLOCKREPETAG
1070
     1
1071
       34
1005
127758
  0
LINE
  5
127759
  8
OBJECT
 10
4082.9999999999931788
 20
-1219.9999999999959073
 30
0.0
 11
4082.9999999999931788
 21
-1209.9999999999959073
 31
0.0
1001
ACDBBLOCKREPETAG
1070
     1
1071
       35
1005
127759
  0
LINE
  5
12775A
  8
OBJECT
 10
4072.9999999999918145
 20
-1219.9999999999959073
 30
0.0
 11
4072.9999999999918145
 21
-1209.9999999999959073
 31
0.0
1001
ACDBBLOCKREPETAG
1070
     1
1071
       36
1005
12775A
  0
LINE
  5
12775B
  8
OBJECT
 10
4068.9999999999840838
 20
-1189.9999999999959073
 30
0.0
 11
4068.9999999999840838
 21
-1194.9999999999959073
 31
0.0
1001
ACDBBLOCKREPETAG
1070
     1
1071
       37
1005
12775B
  0
LINE
  5
12775C
  8
OBJECT
 10
4087.0
 20
-1189.9999999999959073
 30
0.0
 11
4087.0
 21
-1194.9999999999959073
 31
0.0
1001
ACDBBLOCKREPETAG
1070
     1
1071
       38
1005
12775C
  0
LINE
  5
12775D
  8
OBJECT
 10
4087.0
 20
-1189.9999999999959073
 30
0.0
 11
4068.9999999999840838
 21
-1189.9999999999959073
 31
0.0
1001
ACDBBLOCKREPETAG
1070
     1
1071
       39
1005
12775D
  0
LINE
  5
12775E
  8
OBJECT
 10
4073.0
 20
-1241.9999999999959073
 30
0.0
 11
4073.0
 21
-1244.9999999999959073
 31
0.0
1001
ACDBBLOCKREPETAG
1070
     1
1071
       40
1005
12775E
  0
LINE
  5
12775F
  8
OBJECT
 10
4073.0
 20
-1244.9999999999959073
 30
0.0
 11
4083.0
 21
-1244.9999999999959073
 31
0.0
1001
ACDBBLOCKREPETAG
1070
     1
1071
       41
1005
12775F
  0
LINE
  5
127760
  8
OBJECT
 10
4083.0
 20
-1244.9999999999959073
 30
0.0
 11
4083.0
 21
-1241.9999999999959073
 31
0.0
1001
ACDBBLOCKREPETAG
1070
     1
1071
       43
1005
127760
  0
LINE
  5
127761
  8
OBJECT
 10
3968.5
 20
-1189.9999999999959073
 30
0.0
 11
3951.9999999999931788
 21
-1189.9999999999959073
 31
0.0
1001
ACDBBLOCKREPETAG
1070
     1
1071
       48
1005
127761
  0
LINE
  5
127762
  8
OBJECT
 10
3976.0
 20
-1194.9999999999959073
 30
0.0
 11
3976.0
 21
-1192.9999999999959073
 31
0.0
1001
ACDBBLOCKREPETAG
1070
     1
1071
       49
1005
127762
  0
LINE
  5
127763
  8
OBJECT
 10
3966.0
 20
-1219.9999999999959073
 30
0.0
 11
3966.0
 21
-1209.9999999999959073
 31
0.0
1001
ACDBBLOCKREPETAG
1070
     1
1071
       50
1005
127763
  0
LINE
  5
127764
  8
OBJECT
 10
3956.0
 20
-1219.9999999999959073
 30
0.0
 11
3956.0
 21
-1209.9999999999959073
 31
0.0
1001
ACDBBLOCKREPETAG
1070
     1
1071
       51
1005
127764
  0
LINE
  5
127765
  8
OBJECT
 10
3951.9999999999931788
 20
-1189.9999999999959073
 30
0.0
 11
3951.9999999999931788
 21
-1194.9999999999959073
 31
0.0
1001
ACDBBLOCKREPETAG
1070
     1
1071
       52
1005
127765
  0
LINE
  5
127766
  8
OBJECT
 10
3956.0
 20
-1241.9999999999959073
 30
0.0
 11
3956.0
 21
-1244.9999999999959073
 31
0.0
1001
ACDBBLOCKREPETAG
1070
     1
1071
       53
1005
127766
  0
LINE
  5
127767
  8
OBJECT
 10
3956.0
 20
-1244.9999999999959073
 30
0.0
 11
3966.0
 21
-1244.9999999999959073
 31
0.0
1001
ACDBBLOCKREPETAG
1070
     1
1071
       54
1005
127767
  0
LINE
  5
127768
  8
OBJECT
 10
3951.1850454237719532
 20
-1241.9999999999959073
 30
0.0
 11
3970.8149545762212256
 21
-1241.9999999999959073
 31
0.0
1001
ACDBBLOCKREPETAG
1070
     1
1071
       55
1005
127768
  0
LINE
  5
127769
  8
OBJECT
 10
3966.0
 20
-1244.9999999999959073
 30
0.0
 11
3966.0
 21
-1241.9999999999959073
 31
0.0
1001
ACDBBLOCKREPETAG
1070
     1
1071
       56
1005
127769
  0
LINE
  5
12776A
  8
OBJECT
 10
3976.0
 20
-1192.9999999999959073
 30
0.0
 11
3968.5
 21
-1189.9999999999959073
 31
0.0
1001
ACDBBLOCKREPETAG
1070
     1
1071
       57
1005
12776A
  0
LINE
  5
12776B
  8
OBJECT
 10
3951.1850454237769554
 20
-1233.9999999999959073
 30
0.0
 11
3951.1850454237769554
 21
-1241.9999999999959073
 31
0.0
1001
ACDBBLOCKREPETAG
1070
     1
1071
      630
1005
12776B
  0
LINE
  5
12776C
  8
OBJECT
 10
3956.0925227118891598
 20
-1233.9999999999959073
 30
0.0
 11
3956.0925227118891598
 21
-1241.9999999999959073
 31
0.0
1001
ACDBBLOCKREPETAG
1070
     1
1071
      631
1005
12776C
  0
LINE
  5
12776D
  8
OBJECT
 10
3965.9074772881122044
 20
-1233.9999999999959073
 30
0.0
 11
3965.9074772881122044
 21
-1241.9999999999959073
 31
0.0
1001
ACDBBLOCKREPETAG
1070
     1
1071
      632
1005
12776D
  0
LINE
  5
12776E
  8
OBJECT
 10
3970.8149545762230446
 20
-1233.9999999999959073
 30
0.0
 11
3970.8149545762230446
 21
-1241.9999999999959073
 31
0.0
1001
ACDBBLOCKREPETAG
1070
     1
1071
      633
1005
12776E
  0
LINE
  5
12776F
  8
OBJECT
 10
4068.1850454237719532
 20
-1241.9999999999959073
 30
0.0
 11
4087.8149545762198613
 21
-1241.9999999999959073
 31
0.0
1001
ACDBBLOCKREPETAG
1070
     1
1071
      634
1005
12776F
  0
LINE
  5
127770
  8
OBJECT
 10
4068.1850454237769554
 20
-1233.9999999999959073
 30
0.0
 11
4068.1850454237769554
 21
-1241.9999999999959073
 31
0.0
1001
ACDBBLOCKREPETAG
1070
     1
1071
      635
1005
127770
  0
LINE
  5
127771
  8
OBJECT
 10
4073.0925227118868861
 20
-1233.9999999999959073
 30
0.0
 11
4073.0925227118868861
 21
-1241.9999999999959073
 31
0.0
1001
ACDBBLOCKREPETAG
1070
     1
1071
      636
1005
127771
  0
LINE
  5
127772
  8
OBJECT
 10
4082.9074772881122044
 20
-1233.9999999999959073
 30
0.0
 11
4082.9074772881122044
 21
-1241.9999999999959073
 31
0.0
1001
ACDBBLOCKREPETAG
1070
     1
1071
      637
1005
127772
  0
LINE
  5
127773
  8
OBJECT
 10
4087.8149545762230446
 20
-1233.9999999999959073
 30
0.0
 11
4087.8149545762230446
 21
-1241.9999999999959073
 31
0.0
1001
ACDBBLOCKREPETAG
1070
     1
1071
      638
1005
127773
  0
LINE
  5
127774
  8
OBJECT
 10
1943.0
 20
-1209.9999999999959073
 30
0.0
 11
2057.0
 21
-1209.9999999999959073
 31
0.0
1001
ACDBBLOCKREPETAG
1070
     1
1071
        0
1005
127774
  0
LINE
  5
127775
  8
OBJECT
 10
1943.0
 20
-1209.9999999999959073
 30
0.0
 11
1943.0
 21
-1009.999999999996021
 31
0.0
1001
ACDBBLOCKREPETAG
1070
     1
1071
        1
1005
127775
  0
LINE
  5
127776
  8
OBJECT
 10
2057.0
 20
-1209.9999999999959073
 30
0.0
 11
2057.0
 21
-1009.999999999996021
 31
0.0
1001
ACDBBLOCKREPETAG
1070
     1
1071
        2
1005
127776
  0
LINE
  5
127777
  8
OBJECT
 10
1943.0
 20
-1009.999999999996021
 30
0.0
 11
2057.0
 21
-1009.999999999996021
 31
0.0
1001
ACDBBLOCKREPETAG
1070
     1
1071
        3
1005
127777
  0
LINE
  5
127778
  8
HIDDEN
 10
1950.0
 20
-1009.999999999996021
 30
0.0
 11
1950.0
 21
-1209.9999999999959073
 31
0.0
1001
ACDBBLOCKREPETAG
1070
     1
1071
        4
1005
127778
  0
LINE
  5
127779
  8
HIDDEN
 10
2050.0
 20
-1009.999999999996021
 30
0.0
 11
2050.0
 21
-1209.9999999999959073
 31
0.0
1001
ACDBBLOCKREPETAG
1070
     1
1071
        5
1005
127779
  0
LINE
  5
12777A
  8
CENTER
 10
2000.0
 20
-799.9999999999994316
 30
0.0
 11
2000.0
 21
-1224.9999999999959073
 31
0.0
1001
ACDBBLOCKREPETAG
1070
     1
1071
        6
1005
12777A
  0
LINE
  5
12777B
  8
OBJECT
 10
1925.0
 20
-799.9999999999994316
 30
0.0
 11
1925.0
 21
-881.9999999999959073
 31
0.0
1001
ACDBBLOCKREPETAG
1070
     1
1071
        7
1005
12777B
  0
LINE
  5
12777C
  8
OBJECT
 10
2075.0
 20
-799.9999999999994316
 30
0.0
 11
2075.0
 21
-881.9999999999959073
 31
0.0
1001
ACDBBLOCKREPETAG
1070
     1
1071
        8
1005
12777C
  0
LINE
  5
12777D
  8
OBJECT
 10
1925.0
 20
-881.9999999999959073
 30
0.0
 11
2075.0
 21
-881.9999999999959073
 31
0.0
1001
ACDBBLOCKREPETAG
1070
     1
1071
        9
1005
12777D
  0
LINE
  5
12777E
  8
OBJECT
 10
1925.0
 20
-881.9999999999959073
 30
0.0
 11
1943.0
 21
-1009.999999999996021
 31
0.0
1001
ACDBBLOCKREPETAG
1070
     1
1071
       10
1005
12777E
  0
LINE
  5
12777F
  8
OBJECT
 10
2057.0
 20
-1009.999999999996021
 30
0.0
 11
2075.0
 21
-881.9999999999959073
 31
0.0
1001
ACDBBLOCKREPETAG
1070
     1
1071
       11
1005
12777F
  0
LINE
  5
127780
  8
OBJECT
 10
2083.0
 20
-534.0
 30
0.0
 11
2080.0
 21
-534.0
 31
0.0
1001
ACDBBLOCKREPETAG
1070
     1
1071
        1
1005
127780
  0
ARC
  5
127781
  8
OBJECT
 10
2083.0
 20
-537.0
 30
0.0
 40
3.0
 50
0.0
 51
90.0
1001
ACDBBLOCKREPETAG
1070
     1
1071
        2
1005
127781
  0
LINE
  5
127782
  8
OBJECT
 10
2080.0
 20
-658.0
 30
0.0
 11
2083.0
 21
-658.0
 31
0.0
1001
ACDBBLOCKREPETAG
1070
     1
1071
        3
1005
127782
  0
ARC
  5
127783
  8
OBJECT
 10
2083.0
 20
-655.0
 30
0.0
 40
3.0
 50
270.0
 51
0.0
1001
ACDBBLOCKREPETAG
1070
     1
1071
        4
1005
127783
  0
LINE
  5
127784
  8
OBJECT
 10
2086.0
 20
-655.0
 30
0.0
 11
2086.0
 21
-537.0
 31
0.0
1001
ACDBBLOCKREPETAG
1070
     1
1071
        5
1005
127784
  0
LINE
  5
127785
  8
CENTER
 10
2101.0
 20
-199.9999999999990905
 30
0.0
 11
2080.0
 21
-199.9999999999990905
 31
0.0
1001
ACDBBLOCKREPETAG
1070
     1
1071
        0
1005
127785
  0
LINE
  5
127786
  8
OBJECT
 10
2083.0
 20
-137.9999999999990905
 30
0.0
 11
2080.0
 21
-137.9999999999990905
 31
0.0
1001
ACDBBLOCKREPETAG
1070
     1
1071
        1
1005
127786
  0
ARC
  5
127787
  8
OBJECT
 10
2083.0
 20
-140.9999999999990905
 30
0.0
 40
3.0
 50
0.0
 51
90.0
1001
ACDBBLOCKREPETAG
1070
     1
1071
        2
1005
127787
  0
LINE
  5
127788
  8
OBJECT
 10
2080.0
 20
-261.9999999999990905
 30
0.0
 11
2083.0
 21
-261.9999999999990905
 31
0.0
1001
ACDBBLOCKREPETAG
1070
     1
1071
        3
1005
127788
  0
ARC
  5
127789
  8
OBJECT
 10
2083.0
 20
-258.9999999999990905
 30
0.0
 40
3.0
 50
270.0
 51
0.0
1001
ACDBBLOCKREPETAG
1070
     1
1071
        4
1005
127789
  0
LINE
  5
12778A
  8
OBJECT
 10
2086.0
 20
-258.9999999999990905
 30
0.0
 11
2086.0
 21
-140.9999999999990905
 31
0.0
1001
ACDBBLOCKREPETAG
1070
     1
1071
        5
1005
12778A
  0
TEXT
  5
12778B
  8
SLIM
 10
0.0
 20
670.0
 30
0.0
 40
100.0
  1
4HF-0-S+100
 41
0.75
  0
TEXT
  5
12778C
  8
SLIM
 10
0.0
 20
520.0
 30
0.0
 40
100.0
  1
4HF-0-W+100
 41
0.75
  0
LINE
  5
12778D
  8
CENTER
 10
12091.0
 20
-1483.9999999999959073
 30
0.0
 11
11895.0
 21
-1483.9999999999959073
 31
0.0
1001
ACDBBLOCKREPETAG
1070
     1
1071
       10
1005
12778D
  0
LINE
  5
12778E
  8
CENTER
 10
12000.0
 20
-1575.2746644292119527
 30
0.0
 11
12000.0
 21
-1392.7253355707789524
 31
0.0
1001
ACDBBLOCKREPETAG
1070
     1
1071
       11
1005
12778E
  0
CIRCLE
  5
12778F
  8
OBJECT
 10
12000.0
 20
-1483.9999999999959073
 30
0.0
 40
50.0
1001
ACDBBLOCKREPETAG
1070
     1
1071
       12
1005
12778F
  0
CIRCLE
  5
127790
  8
OBJECT
 10
12000.0
 20
-1483.9999999999959073
 30
0.0
 40
60.0
1001
ACDBBLOCKREPETAG
1070
     1
1071
       13
1005
127790
  0
CIRCLE
  5
127791
  8
OBJECT
 10
12000.0
 20
-1483.9999999999959073
 30
0.0
 40
68.0
1001
ACDBBLOCKREPETAG
1070
     1
1071
       14
1005
127791
  0
ARC
  5
127792
  8
OBJECT
 10
11922.5
 20
-1483.9999999999959073
 30
0.0
 40
12.0
 50
92.1054262722161354
 51
267.8945737277837225
1001
ACDBBLOCKREPETAG
1070
     1
1071
       15
1005
127792
  0
ARC
  5
127793
  8
OBJECT
 10
11921.5080645161306165
 20
-1510.9817728104681009
 30
0.0
 40
15.0
 50
18.9705187796526502
 51
87.8945737277838788
1001
ACDBBLOCKREPETAG
1070
     1
1071
       16
1005
127793
  0
ARC
  5
127794
  8
OBJECT
 10
11921.5080645161306165
 20
-1457.0182271895280337
 30
0.0
 40
15.0
 50
272.105426272216107
 51
341.0294812203474066
1001
ACDBBLOCKREPETAG
1070
     1
1071
       17
1005
127794
  0
CIRCLE
  5
127795
  8
SLIM
 10
11922.0
 20
-1483.9999999999959073
 30
0.0
 40
8.0
1001
ACDBBLOCKREPETAG
1070
     1
1071
       18
1005
127795
  0
POLYLINE
  5
127796
  8
SLIM
 66
     1
 10
0.0
 20
0.0
 30
0.0
 70
     1
1001
ACDBBLOCKREPETAG
1070
     1
1071
       19
1005
127796
  0
VERTEX
  5
127977
  8
SLIM
 10
11924.3094010767599684
 20
-1487.9999999999959073
 30
0.0
  0
VERTEX
  5
127978
  8
SLIM
 10
11926.6188021535199368
 20
-1483.9999999999959073
 30
0.0
  0
VERTEX
  5
127979
  8
SLIM
 10
11924.3094010767599684
 20
-1479.9999999999959073
 30
0.0
  0
VERTEX
  5
12797A
  8
SLIM
 10
11919.6905989232400316
 20
-1479.9999999999959073
 30
0.0
  0
VERTEX
  5
12797B
  8
SLIM
 10
11917.3811978464891581
 20
-1483.9999999999959073
 30
0.0
  0
VERTEX
  5
12797C
  8
SLIM
 10
11919.6905989232400316
 20
-1487.9999999999959073
 30
0.0
  0
SEQEND
  5
12797D
  8
SLIM
  0
ARC
  5
127797
  8
OBJECT
 10
12038.75
 20
-1551.1169687932920169
 30
0.0
 40
12.0
 50
212.1054262721301882
 51
27.8945737276831096
1001
ACDBBLOCKREPETAG
1070
     1
1071
       20
1005
127797
  0
ARC
  5
127798
  8
OBJECT
 10
12062.6128684349405376
 20
-1538.485123716003045
 30
0.0
 40
15.0
 50
138.9705187794475876
 51
207.8945737276831949
1001
ACDBBLOCKREPETAG
1070
     1
1071
       21
1005
127798
  0
ARC
  5
127799
  8
OBJECT
 10
12015.8790670489306649
 20
-1565.4668965264750113
 30
0.0
 40
15.0
 50
32.1054262721301882
 51
101.0294812204407009
1001
ACDBBLOCKREPETAG
1070
     1
1071
       22
1005
127799
  0
CIRCLE
  5
12779A
  8
SLIM
 10
12039.0
 20
-1551.5499814951829194
 30
0.0
 40
7.9999999999999982
1001
ACDBBLOCKREPETAG
1070
     1
1071
       23
1005
12779A
  0
POLYLINE
  5
12779B
  8
SLIM
 66
     1
 10
0.0
 20
0.0
 30
0.0
 70
     1
1001
ACDBBLOCKREPETAG
1070
     1
1071
       24
1005
12779B
  0
VERTEX
  5
12797E
  8
SLIM
 10
12041.3094010767599684
 20
-1547.5499814951829194
 30
0.0
  0
VERTEX
  5
12797F
  8
SLIM
 10
12036.6905989232400316
 20
-1547.5499814951829194
 30
0.0
  0
VERTEX
  5
127980
  8
SLIM
 10
12034.3811978464891581
 20
-1551.5499814951829194
 30
0.0
  0
VERTEX
  5
127981
  8
SLIM
 10
12036.6905989232400316
 20
-1555.5499814951829194
 30
0.0
  0
VERTEX
  5
127982
  8
SLIM
 10
12041.3094010767599684
 20
-1555.5499814951829194
 30
0.0
  0
VERTEX
  5
127983
  8
SLIM
 10
12043.6188021535199368
 20
-1551.5499814951829194
 30
0.0
  0
SEQEND
  5
127984
  8
SLIM
  0
ARC
  5
12779C
  8
OBJECT
 10
12038.75
 20
-1416.8830312067029809
 30
0.0
 40
12.0
 50
332.1054262723168904
 51
147.8945737278698118
1001
ACDBBLOCKREPETAG
1070
     1
1071
       25
1005
12779C
  0
ARC
  5
12779D
  8
OBJECT
 10
12015.8790670489306649
 20
-1402.5331034735199864
 30
0.0
 40
15.0
 50
258.9705187795593133
 51
327.8945737278697266
1001
ACDBBLOCKREPETAG
1070
     1
1071
       26
1005
12779D
  0
ARC
  5
12779E
  8
OBJECT
 10
12062.6128684349405376
 20
-1429.5148762839880874
 30
0.0
 40
15.0
 50
152.1054262723168904
 51
221.0294812205522987
1001
ACDBBLOCKREPETAG
1070
     1
1071
       27
1005
12779E
  0
CIRCLE
  5
12779F
  8
SLIM
 10
12039.0
 20
-1416.4500185048088952
 30
0.0
 40
8.0
1001
ACDBBLOCKREPETAG
1070
     1
1071
       28
1005
12779F
  0
POLYLINE
  5
1277A0
  8
SLIM
 66
     1
 10
0.0
 20
0.0
 30
0.0
 70
     1
1001
ACDBBLOCKREPETAG
1070
     1
1071
       29
1005
1277A0
  0
VERTEX
  5
127985
  8
SLIM
 10
12034.3811978464891581
 20
-1416.4500185048120784
 30
0.0
  0
VERTEX
  5
127986
  8
SLIM
 10
12036.6905989232400316
 20
-1420.4500185048088952
 30
0.0
  0
VERTEX
  5
127987
  8
SLIM
 10
12041.3094010767599684
 20
-1420.4500185048120784
 30
0.0
  0
VERTEX
  5
127988
  8
SLIM
 10
12043.6188021535199368
 20
-1416.4500185048088952
 30
0.0
  0
VERTEX
  5
127989
  8
SLIM
 10
12041.3094010767599684
 20
-1412.4500185048120784
 30
0.0
  0
VERTEX
  5
12798A
  8
SLIM
 10
12036.6905989232400316
 20
-1412.4500185048088952
 30
0.0
  0
SEQEND
  5
12798B
  8
SLIM
  0
ARC
  5
1277A1
  8
OBJECT
 10
12000.0
 20
-1483.9999999999959073
 30
0.0
 40
76.0
 50
214.8638379541717995
 51
265.136162045732874
1001
ACDBBLOCKREPETAG
1070
     1
1071
       42
1005
1277A1
  0
ARC
  5
1277A2
  8
OBJECT
 10
12000.0
 20
-1483.9999999999959073
 30
0.0
 40
76.0
 50
334.8638379543094743
 51
25.1361620456905612
1001
ACDBBLOCKREPETAG
1070
     1
1071
       43
1005
1277A2
  0
ARC
  5
1277A3
  8
OBJECT
 10
12000.0
 20
-1483.9999999999959073
 30
0.0
 40
76.0
 50
94.8638379542670407
 51
145.1361620458280868
1001
ACDBBLOCKREPETAG
1070
     1
1071
       44
1005
1277A3
  0
ARC
  5
1277A4
  8
OBJECT
 10
11922.0
 20
-1483.9999999999959073
 30
0.0
 40
12.0
 50
145.1361620458280868
 51
214.8638379541717995
1001
ACDBBLOCKREPETAG
1070
     1
1071
       45
1005
1277A4
  0
LINE
  5
1277A5
  8
OBJECT
 10
11912.1538461538293632
 20
-1490.8595374798580906
 30
0.0
 11
11937.6410256409508293
 21
-1527.443737372457008
 31
0.0
1001
ACDBBLOCKREPETAG
1070
     1
1071
       46
1005
1277A5
  0
LINE
  5
1277A6
  8
OBJECT
 10
11912.1538461538293632
 20
-1477.1404625201350882
 30
0.0
 11
11937.6410256409508293
 21
-1440.5562626275329876
 31
0.0
1001
ACDBBLOCKREPETAG
1070
     1
1071
       47
1005
1277A6
  0
ARC
  5
1277A7
  8
OBJECT
 10
12039.0
 20
-1551.5499814951811004
 30
0.0
 40
12.0
 50
265.1361620459429105
 51
334.86383795410012
1001
ACDBBLOCKREPETAG
1070
     1
1071
       48
1005
1277A7
  0
LINE
  5
1277A8
  8
OBJECT
 10
12049.8636106388494227
 20
-1556.6472321156009002
 30
0.0
 11
12068.8028673794105998
 21
-1516.2825872626449382
 31
0.0
1001
ACDBBLOCKREPETAG
1070
     1
1071
       49
1005
1277A8
  0
LINE
  5
1277A9
  8
OBJECT
 10
12037.9825432073103002
 20
-1563.5067695954649025
 30
0.0
 11
11993.556106979629476
 21
-1559.7263246351060388
 31
0.0
1001
ACDBBLOCKREPETAG
1070
     1
1071
       50
1005
1277A9
  0
ARC
  5
1277AA
  8
OBJECT
 10
12039.0
 20
-1416.450018504810032
 30
0.0
 40
12.0
 50
25.1361620458999511
 51
94.8638379540571179
1001
ACDBBLOCKREPETAG
1070
     1
1071
       51
1005
1277AA
  0
LINE
  5
1277AB
  8
OBJECT
 10
12037.9825432073103002
 20
-1404.4932304045280489
 30
0.0
 11
11993.556106979629476
 21
-1408.2736753648850936
 31
0.0
1001
ACDBBLOCKREPETAG
1070
     1
1071
       52
1005
1277AB
  0
LINE
  5
1277AC
  8
OBJECT
 10
12049.8636106388494227
 20
-1411.352767884387049
 30
0.0
 11
12068.8028673794196948
 21
-1451.7174127373471038
 31
0.0
1001
ACDBBLOCKREPETAG
1070
     1
1071
       53
1005
1277AC
  0
LINE
  5
1277AD
  8
CENTER
 10
9909.0
 20
-1483.9999999999959073
 30
0.0
 11
10105.0
 21
-1483.9999999999959073
 31
0.0
1001
ACDBBLOCKREPETAG
1070
     1
1071
        0
1005
1277AD
  0
LINE
  5
1277AE
  8
CENTER
 10
10000.0
 20
-1575.2746644292119527
 30
0.0
 11
10000.0
 21
-1392.7253355707789524
 31
0.0
1001
ACDBBLOCKREPETAG
1070
     1
1071
        1
1005
1277AE
  0
CIRCLE
  5
1277AF
  8
OBJECT
 10
10000.0
 20
-1483.9999999999959073
 30
0.0
 40
50.0
1001
ACDBBLOCKREPETAG
1070
     1
1071
        2
1005
1277AF
  0
CIRCLE
  5
1277B0
  8
OBJECT
 10
10000.0
 20
-1483.9999999999959073
 30
0.0
 40
62.0
1001
ACDBBLOCKREPETAG
1070
     1
1071
        3
1005
1277B0
  0
CIRCLE
  5
1277B1
  8
SLIM
 10
9922.0
 20
-1483.9999999999959073
 30
0.0
 40
5.0
1001
ACDBBLOCKREPETAG
1070
     1
1071
        4
1005
1277B1
  0
POLYLINE
  5
1277B2
  8
SLIM
 66
     1
 10
0.0
 20
0.0
 30
0.0
 70
     1
1001
ACDBBLOCKREPETAG
1070
     1
1071
        5
1005
1277B2
  0
VERTEX
  5
12798C
  8
SLIM
 10
9926.9074772881140234
 20
-1492.4999999999959073
 30
0.0
  0
VERTEX
  5
12798D
  8
SLIM
 10
9931.8149545762298658
 20
-1483.9999999999959073
 30
0.0
  0
VERTEX
  5
12798E
  8
SLIM
 10
9926.9074772881140234
 20
-1475.4999999999959073
 30
0.0
  0
VERTEX
  5
12798F
  8
SLIM
 10
9917.0925227118914336
 20
-1475.4999999999959073
 30
0.0
  0
VERTEX
  5
127990
  8
SLIM
 10
9912.1850454237828671
 20
-1483.9999999999959073
 30
0.0
  0
VERTEX
  5
127991
  8
SLIM
 10
9917.0925227118914336
 20
-1492.4999999999959073
 30
0.0
  0
SEQEND
  5
127992
  8
SLIM
  0
CIRCLE
  5
1277B3
  8
SLIM
 10
10039.0
 20
-1551.5499814951829194
 30
0.0
 40
4.9999999999999991
1001
ACDBBLOCKREPETAG
1070
     1
1071
        6
1005
1277B3
  0
POLYLINE
  5
1277B4
  8
SLIM
 66
     1
 10
0.0
 20
0.0
 30
0.0
 70
     1
1001
ACDBBLOCKREPETAG
1070
     1
1071
        7
1005
1277B4
  0
VERTEX
  5
127993
  8
SLIM
 10
10043.9074772881103854
 20
-1543.0499814951829194
 30
0.0
  0
VERTEX
  5
127994
  8
SLIM
 10
10034.0925227118805196
 20
-1543.0499814951829194
 30
0.0
  0
VERTEX
  5
127995
  8
SLIM
 10
10029.1850454237792292
 20
-1551.5499814951829194
 30
0.0
  0
VERTEX
  5
127996
  8
SLIM
 10
10034.0925227118805196
 20
-1560.0499814951829194
 30
0.0
  0
VERTEX
  5
127997
  8
SLIM
 10
10043.9074772881103854
 20
-1560.0499814951829194
 30
0.0
  0
VERTEX
  5
127998
  8
SLIM
 10
10048.8149545762298658
 20
-1551.5499814951829194
 30
0.0
  0
SEQEND
  5
127999
  8
SLIM
  0
CIRCLE
  5
1277B5
  8
SLIM
 10
10039.0
 20
-1416.4500185048088952
 30
0.0
 40
5.0
1001
ACDBBLOCKREPETAG
1070
     1
1071
        8
1005
1277B5
  0
POLYLINE
  5
1277B6
  8
SLIM
 66
     1
 10
0.0
 20
0.0
 30
0.0
 70
     1
1001
ACDBBLOCKREPETAG
1070
     1
1071
        9
1005
1277B6
  0
VERTEX
  5
12799A
  8
SLIM
 10
10029.1850454237792292
 20
-1416.4500185048088952
 30
0.0
  0
VERTEX
  5
12799B
  8
SLIM
 10
10034.0925227118896146
 20
-1424.9500185048120784
 30
0.0
  0
VERTEX
  5
12799C
  8
SLIM
 10
10043.9074772881103854
 20
-1424.9500185048088952
 30
0.0
  0
VERTEX
  5
12799D
  8
SLIM
 10
10048.8149545762298658
 20
-1416.4500185048120784
 30
0.0
  0
VERTEX
  5
12799E
  8
SLIM
 10
10043.9074772881103854
 20
-1407.9500185048088952
 30
0.0
  0
VERTEX
  5
12799F
  8
SLIM
 10
10034.0925227118805196
 20
-1407.9500185048120784
 30
0.0
  0
SEQEND
  5
1279A0
  8
SLIM
  0
ARC
  5
1277B7
  8
OBJECT
 10
10000.0
 20
-1483.9999999999959073
 30
0.0
 40
76.0
 50
214.8638379541717995
 51
265.136162045732874
1001
ACDBBLOCKREPETAG
1070
     1
1071
       30
1005
1277B7
  0
ARC
  5
1277B8
  8
OBJECT
 10
10000.0
 20
-1483.9999999999959073
 30
0.0
 40
76.0
 50
334.8638379543094743
 51
25.1361620456905612
1001
ACDBBLOCKREPETAG
1070
     1
1071
       31
1005
1277B8
  0
ARC
  5
1277B9
  8
OBJECT
 10
10000.0
 20
-1483.9999999999959073
 30
0.0
 40
76.0
 50
94.8638379542670407
 51
145.1361620458280868
1001
ACDBBLOCKREPETAG
1070
     1
1071
       32
1005
1277B9
  0
ARC
  5
1277BA
  8
OBJECT
 10
9922.0
 20
-1483.9999999999959073
 30
0.0
 40
12.0
 50
145.1361620458280868
 51
214.8638379541717995
1001
ACDBBLOCKREPETAG
1070
     1
1071
       33
1005
1277BA
  0
LINE
  5
1277BB
  8
OBJECT
 10
9912.1538461538311822
 20
-1490.8595374798580906
 30
0.0
 11
9937.6410256409490103
 21
-1527.443737372457008
 31
0.0
1001
ACDBBLOCKREPETAG
1070
     1
1071
       34
1005
1277BB
  0
LINE
  5
1277BC
  8
OBJECT
 10
9912.1538461538293632
 20
-1477.1404625201350882
 30
0.0
 11
9937.6410256409490103
 21
-1440.5562626275329876
 31
0.0
1001
ACDBBLOCKREPETAG
1070
     1
1071
       35
1005
1277BC
  0
ARC
  5
1277BD
  8
OBJECT
 10
10039.0
 20
-1551.5499814951811004
 30
0.0
 40
12.0
 50
265.1361620459429105
 51
334.86383795410012
1001
ACDBBLOCKREPETAG
1070
     1
1071
       36
1005
1277BD
  0
LINE
  5
1277BE
  8
OBJECT
 10
10049.8636106388403277
 20
-1556.6472321156009002
 30
0.0
 11
10068.8028673794105998
 21
-1516.2825872626449382
 31
0.0
1001
ACDBBLOCKREPETAG
1070
     1
1071
       37
1005
1277BE
  0
LINE
  5
1277BF
  8
OBJECT
 10
10037.9825432073103002
 20
-1563.5067695954649025
 30
0.0
 11
9993.556106979633114
 21
-1559.7263246351060388
 31
0.0
1001
ACDBBLOCKREPETAG
1070
     1
1071
       38
1005
1277BF
  0
ARC
  5
1277C0
  8
OBJECT
 10
10039.0
 20
-1416.450018504810032
 30
0.0
 40
12.0
 50
25.1361620458999511
 51
94.8638379540571179
1001
ACDBBLOCKREPETAG
1070
     1
1071
       39
1005
1277C0
  0
LINE
  5
1277C1
  8
OBJECT
 10
10037.9825432073103002
 20
-1404.4932304045280489
 30
0.0
 11
9993.5561069796367519
 21
-1408.2736753648850936
 31
0.0
1001
ACDBBLOCKREPETAG
1070
     1
1071
       40
1005
1277C1
  0
LINE
  5
1277C2
  8
OBJECT
 10
10049.8636106388403277
 20
-1411.352767884387049
 30
0.0
 11
10068.8028673794196948
 21
-1451.7174127373471038
 31
0.0
1001
ACDBBLOCKREPETAG
1070
     1
1071
       41
1005
1277C2
  0
LINE
  5
1277C3
  8
CENTER
 10
6091.0
 20
-1524.9999999999990905
 30
0.0
 11
5895.0
 21
-1524.9999999999990905
 31
0.0
1001
ACDBBLOCKREPETAG
1070
     1
1071
       10
1005
1277C3
  0
LINE
  5
1277C4
  8
CENTER
 10
6000.0
 20
-1616.2746644292149085
 30
0.0
 11
6000.0
 21
-1433.7253355707819082
 31
0.0
1001
ACDBBLOCKREPETAG
1070
     1
1071
       11
1005
1277C4
  0
CIRCLE
  5
1277C5
  8
OBJECT
 10
6000.0
 20
-1524.9999999999990905
 30
0.0
 40
50.0
1001
ACDBBLOCKREPETAG
1070
     1
1071
       12
1005
1277C5
  0
CIRCLE
  5
1277C6
  8
OBJECT
 10
6000.0
 20
-1524.9999999999990905
 30
0.0
 40
60.0
1001
ACDBBLOCKREPETAG
1070
     1
1071
       13
1005
1277C6
  0
CIRCLE
  5
1277C7
  8
OBJECT
 10
6000.0
 20
-1524.9999999999990905
 30
0.0
 40
68.0
1001
ACDBBLOCKREPETAG
1070
     1
1071
       14
1005
1277C7
  0
ARC
  5
1277C8
  8
OBJECT
 10
5922.5
 20
-1524.9999999999990905
 30
0.0
 40
12.0
 50
92.1054262722161354
 51
267.8945737277837225
1001
ACDBBLOCKREPETAG
1070
     1
1071
       15
1005
1277C8
  0
ARC
  5
1277C9
  8
OBJECT
 10
5921.5080645161360735
 20
-1551.9817728104710568
 30
0.0
 40
15.0
 50
18.9705187796357109
 51
87.8945737277838788
1001
ACDBBLOCKREPETAG
1070
     1
1071
       16
1005
1277C9
  0
ARC
  5
1277CA
  8
OBJECT
 10
5921.5080645161360735
 20
-1498.0182271895309896
 30
0.0
 40
15.0
 50
272.105426272216107
 51
341.0294812203642891
1001
ACDBBLOCKREPETAG
1070
     1
1071
       17
1005
1277CA
  0
CIRCLE
  5
1277CB
  8
SLIM
 10
5922.0
 20
-1524.9999999999990905
 30
0.0
 40
8.0
1001
ACDBBLOCKREPETAG
1070
     1
1071
       18
1005
1277CB
  0
POLYLINE
  5
1277CC
  8
SLIM
 66
     1
 10
0.0
 20
0.0
 30
0.0
 70
     1
1001
ACDBBLOCKREPETAG
1070
     1
1071
       19
1005
1277CC
  0
VERTEX
  5
1279A1
  8
SLIM
 10
5924.3094010767672444
 20
-1528.9999999999990905
 30
0.0
  0
VERTEX
  5
1279A2
  8
SLIM
 10
5926.6188021535190273
 20
-1524.9999999999990905
 30
0.0
  0
VERTEX
  5
1279A3
  8
SLIM
 10
5924.3094010767672444
 20
-1520.9999999999990905
 30
0.0
  0
VERTEX
  5
1279A4
  8
SLIM
 10
5919.6905989232491265
 20
-1520.9999999999990905
 30
0.0
  0
VERTEX
  5
1279A5
  8
SLIM
 10
5917.3811978464882486
 20
-1524.9999999999990905
 30
0.0
  0
VERTEX
  5
1279A6
  8
SLIM
 10
5919.6905989232491265
 20
-1528.9999999999990905
 30
0.0
  0
SEQEND
  5
1279A7
  8
SLIM
  0
ARC
  5
1277CD
  8
OBJECT
 10
6038.75
 20
-1592.1169687932949728
 30
0.0
 40
12.0
 50
212.1054262721578993
 51
27.8945737277074883
1001
ACDBBLOCKREPETAG
1070
     1
1071
       20
1005
1277CD
  0
ARC
  5
1277CE
  8
OBJECT
 10
6062.612868434945085
 20
-1579.4851237160060009
 30
0.0
 40
15.0
 50
138.9705187794475876
 51
207.8945737277074102
1001
ACDBBLOCKREPETAG
1070
     1
1071
       21
1005
1277CE
  0
ARC
  5
1277CF
  8
OBJECT
 10
6015.8790670489306649
 20
-1606.4668965264779672
 30
0.0
 40
15.0
 50
32.105426272157878
 51
101.0294812204407009
1001
ACDBBLOCKREPETAG
1070
     1
1071
       22
1005
1277CF
  0
CIRCLE
  5
1277D0
  8
SLIM
 10
6039.0
 20
-1592.5499814951861026
 30
0.0
 40
7.9999999999999982
1001
ACDBBLOCKREPETAG
1070
     1
1071
       23
1005
1277D0
  0
POLYLINE
  5
1277D1
  8
SLIM
 66
     1
 10
0.0
 20
0.0
 30
0.0
 70
     1
1001
ACDBBLOCKREPETAG
1070
     1
1071
       24
1005
1277D1
  0
VERTEX
  5
1279A8
  8
SLIM
 10
6041.3094010767608779
 20
-1588.5499814951861026
 30
0.0
  0
VERTEX
  5
1279A9
  8
SLIM
 10
6036.6905989232473075
 20
-1588.5499814951861026
 30
0.0
  0
VERTEX
  5
1279AA
  8
SLIM
 10
6034.3811978464891581
 20
-1592.5499814951861026
 30
0.0
  0
VERTEX
  5
1279AB
  8
SLIM
 10
6036.6905989232473075
 20
-1596.5499814951861026
 30
0.0
  0
VERTEX
  5
1279AC
  8
SLIM
 10
6041.3094010767608779
 20
-1596.5499814951861026
 30
0.0
  0
VERTEX
  5
1279AD
  8
SLIM
 10
6043.6188021535199368
 20
-1592.5499814951861026
 30
0.0
  0
SEQEND
  5
1279AE
  8
SLIM
  0
ARC
  5
1277D2
  8
OBJECT
 10
6038.75
 20
-1457.8830312067070736
 30
0.0
 40
12.0
 50
332.1054262722923909
 51
147.8945737278421007
1001
ACDBBLOCKREPETAG
1070
     1
1071
       25
1005
1277D2
  0
ARC
  5
1277D3
  8
OBJECT
 10
6015.8790670489306649
 20
-1443.5331034735229423
 30
0.0
 40
15.0
 50
258.9705187795593133
 51
327.894573727841987
1001
ACDBBLOCKREPETAG
1070
     1
1071
       26
1005
1277D3
  0
ARC
  5
1277D4
  8
OBJECT
 10
6062.612868434945085
 20
-1470.5148762839910432
 30
0.0
 40
15.0
 50
152.1054262722925046
 51
221.0294812205522987
1001
ACDBBLOCKREPETAG
1070
     1
1071
       27
1005
1277D4
  0
CIRCLE
  5
1277D5
  8
SLIM
 10
6039.0
 20
-1457.4500185048120784
 30
0.0
 40
8.0
1001
ACDBBLOCKREPETAG
1070
     1
1071
       28
1005
1277D5
  0
POLYLINE
  5
1277D6
  8
SLIM
 66
     1
 10
0.0
 20
0.0
 30
0.0
 70
     1
1001
ACDBBLOCKREPETAG
1070
     1
1071
       29
1005
1277D6
  0
VERTEX
  5
1279AF
  8
SLIM
 10
6034.3811978464891581
 20
-1457.4500185048150342
 30
0.0
  0
VERTEX
  5
1279B0
  8
SLIM
 10
6036.6905989232473075
 20
-1461.4500185048120784
 30
0.0
  0
VERTEX
  5
1279B1
  8
SLIM
 10
6041.3094010767608779
 20
-1461.4500185048150342
 30
0.0
  0
VERTEX
  5
1279B2
  8
SLIM
 10
6043.6188021535199368
 20
-1457.4500185048120784
 30
0.0
  0
VERTEX
  5
1279B3
  8
SLIM
 10
6041.3094010767672444
 20
-1453.4500185048150342
 30
0.0
  0
VERTEX
  5
1279B4
  8
SLIM
 10
6036.6905989232473075
 20
-1453.4500185048120784
 30
0.0
  0
SEQEND
  5
1279B5
  8
SLIM
  0
ARC
  5
1277D7
  8
OBJECT
 10
6000.0
 20
-1524.9999999999990905
 30
0.0
 40
76.0
 50
214.8638379541420989
 51
265.136162045732874
1001
ACDBBLOCKREPETAG
1070
     1
1071
       42
1005
1277D7
  0
ARC
  5
1277D8
  8
OBJECT
 10
6000.0
 20
-1524.9999999999990905
 30
0.0
 40
76.0
 50
334.8638379543094743
 51
25.1361620456905612
1001
ACDBBLOCKREPETAG
1070
     1
1071
       43
1005
1277D8
  0
ARC
  5
1277D9
  8
OBJECT
 10
6000.0
 20
-1524.9999999999990905
 30
0.0
 40
76.0
 50
94.8638379542670407
 51
145.1361620458579011
1001
ACDBBLOCKREPETAG
1070
     1
1071
       44
1005
1277D9
  0
ARC
  5
1277DA
  8
OBJECT
 10
5922.0
 20
-1524.9999999999990905
 30
0.0
 40
12.0
 50
145.1361620458579011
 51
214.8638379541420989
1001
ACDBBLOCKREPETAG
1070
     1
1071
       45
1005
1277DA
  0
LINE
  5
1277DB
  8
OBJECT
 10
5912.1538461538320917
 20
-1531.8595374798610464
 30
0.0
 11
5937.6410256409490103
 21
-1568.4437373724599638
 31
0.0
1001
ACDBBLOCKREPETAG
1070
     1
1071
       46
1005
1277DB
  0
LINE
  5
1277DC
  8
OBJECT
 10
5912.1538461538293632
 20
-1518.1404625201380441
 30
0.0
 11
5937.6410256409490103
 21
-1481.5562626275359435
 31
0.0
1001
ACDBBLOCKREPETAG
1070
     1
1071
       47
1005
1277DC
  0
ARC
  5
1277DD
  8
OBJECT
 10
6039.0
 20
-1592.5499814951829194
 30
0.0
 40
12.0
 50
265.1361620459429105
 51
334.86383795410012
1001
ACDBBLOCKREPETAG
1070
     1
1071
       48
1005
1277DD
  0
LINE
  5
1277DE
  8
OBJECT
 10
6049.8636106388557891
 20
-1597.6472321156040834
 30
0.0
 11
6068.8028673794142378
 21
-1557.282587262647894
 31
0.0
1001
ACDBBLOCKREPETAG
1070
     1
1071
       49
1005
1277DE
  0
LINE
  5
1277DF
  8
OBJECT
 10
6037.9825432073157572
 20
-1604.5067695954680858
 30
0.0
 11
5993.556106979633114
 21
-1600.7263246351089947
 31
0.0
1001
ACDBBLOCKREPETAG
1070
     1
1071
       50
1005
1277DF
  0
ARC
  5
1277E0
  8
OBJECT
 10
6039.0
 20
-1457.4500185048138974
 30
0.0
 40
12.0
 50
25.1361620458999511
 51
94.8638379540571179
1001
ACDBBLOCKREPETAG
1070
     1
1071
       51
1005
1277E0
  0
LINE
  5
1277E1
  8
OBJECT
 10
6037.9825432073112097
 20
-1445.4932304045310048
 30
0.0
 11
5993.5561069796340234
 21
-1449.2736753648889589
 31
0.0
1001
ACDBBLOCKREPETAG
1070
     1
1071
       52
1005
1277E1
  0
LINE
  5
1277E2
  8
OBJECT
 10
6049.8636106388557891
 20
-1452.3527678843900048
 30
0.0
 11
6068.8028673794160568
 21
-1492.717412737352106
 31
0.0
1001
ACDBBLOCKREPETAG
1070
     1
1071
       53
1005
1277E2
  0
LINE
  5
1277E3
  8
CENTER
 10
3909.0
 20
-1483.9999999999959073
 30
0.0
 11
4105.0
 21
-1483.9999999999959073
 31
0.0
1001
ACDBBLOCKREPETAG
1070
     1
1071
        0
1005
1277E3
  0
LINE
  5
1277E4
  8
CENTER
 10
4000.0
 20
-1575.2746644292119527
 30
0.0
 11
4000.0
 21
-1392.7253355707789524
 31
0.0
1001
ACDBBLOCKREPETAG
1070
     1
1071
        1
1005
1277E4
  0
CIRCLE
  5
1277E5
  8
OBJECT
 10
4000.0
 20
-1483.9999999999959073
 30
0.0
 40
50.0
1001
ACDBBLOCKREPETAG
1070
     1
1071
        2
1005
1277E5
  0
CIRCLE
  5
1277E6
  8
OBJECT
 10
4000.0
 20
-1483.9999999999959073
 30
0.0
 40
62.0
1001
ACDBBLOCKREPETAG
1070
     1
1071
        3
1005
1277E6
  0
CIRCLE
  5
1277E7
  8
SLIM
 10
3922.0
 20
-1483.9999999999959073
 30
0.0
 40
5.0
1001
ACDBBLOCKREPETAG
1070
     1
1071
        4
1005
1277E7
  0
POLYLINE
  5
1277E8
  8
SLIM
 66
     1
 10
0.0
 20
0.0
 30
0.0
 70
     1
1001
ACDBBLOCKREPETAG
1070
     1
1071
        5
1005
1277E8
  0
VERTEX
  5
1279B6
  8
SLIM
 10
3926.9074772881149329
 20
-1492.4999999999959073
 30
0.0
  0
VERTEX
  5
1279B7
  8
SLIM
 10
3931.8149545762271373
 20
-1483.9999999999959073
 30
0.0
  0
VERTEX
  5
1279B8
  8
SLIM
 10
3926.9074772881149329
 20
-1475.4999999999959073
 30
0.0
  0
VERTEX
  5
1279B9
  8
SLIM
 10
3917.0925227118927978
 20
-1475.4999999999959073
 30
0.0
  0
VERTEX
  5
1279BA
  8
SLIM
 10
3912.1850454237787744
 20
-1483.9999999999959073
 30
0.0
  0
VERTEX
  5
1279BB
  8
SLIM
 10
3917.0925227118927978
 20
-1492.4999999999959073
 30
0.0
  0
SEQEND
  5
1279BC
  8
SLIM
  0
CIRCLE
  5
1277E9
  8
SLIM
 10
4039.0
 20
-1551.5499814951829194
 30
0.0
 40
4.9999999999999991
1001
ACDBBLOCKREPETAG
1070
     1
1071
        6
1005
1277E9
  0
POLYLINE
  5
1277EA
  8
SLIM
 66
     1
 10
0.0
 20
0.0
 30
0.0
 70
     1
1001
ACDBBLOCKREPETAG
1070
     1
1071
        7
1005
1277EA
  0
VERTEX
  5
1279BD
  8
SLIM
 10
4043.9074772881140234
 20
-1543.0499814951829194
 30
0.0
  0
VERTEX
  5
1279BE
  8
SLIM
 10
4034.0925227118859766
 20
-1543.0499814951829194
 30
0.0
  0
VERTEX
  5
1279BF
  8
SLIM
 10
4029.1850454237787744
 20
-1551.5499814951829194
 30
0.0
  0
VERTEX
  5
1279C0
  8
SLIM
 10
4034.0925227118859766
 20
-1560.0499814951829194
 30
0.0
  0
VERTEX
  5
1279C1
  8
SLIM
 10
4043.9074772881140234
 20
-1560.0499814951829194
 30
0.0
  0
VERTEX
  5
1279C2
  8
SLIM
 10
4048.8149545762271373
 20
-1551.5499814951829194
 30
0.0
  0
SEQEND
  5
1279C3
  8
SLIM
  0
CIRCLE
  5
1277EB
  8
SLIM
 10
4039.0
 20
-1416.4500185048088952
 30
0.0
 40
5.0
1001
ACDBBLOCKREPETAG
1070
     1
1071
        8
1005
1277EB
  0
POLYLINE
  5
1277EC
  8
SLIM
 66
     1
 10
0.0
 20
0.0
 30
0.0
 70
     1
1001
ACDBBLOCKREPETAG
1070
     1
1071
        9
1005
1277EC
  0
VERTEX
  5
1279C4
  8
SLIM
 10
4029.1850454237787744
 20
-1416.4500185048088952
 30
0.0
  0
VERTEX
  5
1279C5
  8
SLIM
 10
4034.0925227118927978
 20
-1424.9500185048120784
 30
0.0
  0
VERTEX
  5
1279C6
  8
SLIM
 10
4043.9074772881140234
 20
-1424.9500185048088952
 30
0.0
  0
VERTEX
  5
1279C7
  8
SLIM
 10
4048.8149545762271373
 20
-1416.4500185048120784
 30
0.0
  0
VERTEX
  5
1279C8
  8
SLIM
 10
4043.9074772881140234
 20
-1407.9500185048088952
 30
0.0
  0
VERTEX
  5
1279C9
  8
SLIM
 10
4034.0925227118859766
 20
-1407.9500185048120784
 30
0.0
  0
SEQEND
  5
1279CA
  8
SLIM
  0
ARC
  5
1277ED
  8
OBJECT
 10
4000.0
 20
-1483.9999999999959073
 30
0.0
 40
76.0
 50
214.8638379541420989
 51
265.136162045732874
1001
ACDBBLOCKREPETAG
1070
     1
1071
       30
1005
1277ED
  0
ARC
  5
1277EE
  8
OBJECT
 10
4000.0
 20
-1483.9999999999959073
 30
0.0
 40
76.0
 50
334.8638379543094743
 51
25.1361620456905612
1001
ACDBBLOCKREPETAG
1070
     1
1071
       31
1005
1277EE
  0
ARC
  5
1277EF
  8
OBJECT
 10
4000.0
 20
-1483.9999999999959073
 30
0.0
 40
76.0
 50
94.8638379542670407
 51
145.1361620458579011
1001
ACDBBLOCKREPETAG
1070
     1
1071
       32
1005
1277EF
  0
ARC
  5
1277F0
  8
OBJECT
 10
3922.0
 20
-1483.9999999999959073
 30
0.0
 40
12.0
 50
145.1361620458579011
 51
214.8638379541420989
1001
ACDBBLOCKREPETAG
1070
     1
1071
       33
1005
1277F0
  0
LINE
  5
1277F1
  8
OBJECT
 10
3912.1538461538330012
 20
-1490.8595374798580906
 30
0.0
 11
3937.6410256409508293
 21
-1527.443737372457008
 31
0.0
1001
ACDBBLOCKREPETAG
1070
     1
1071
       34
1005
1277F1
  0
LINE
  5
1277F2
  8
OBJECT
 10
3912.1538461538298179
 20
-1477.1404625201350882
 30
0.0
 11
3937.6410256409508293
 21
-1440.5562626275329876
 31
0.0
1001
ACDBBLOCKREPETAG
1070
     1
1071
       35
1005
1277F2
  0
ARC
  5
1277F3
  8
OBJECT
 10
4039.0
 20
-1551.5499814951811004
 30
0.0
 40
12.0
 50
265.1361620459429105
 51
334.8638379541110908
1001
ACDBBLOCKREPETAG
1070
     1
1071
       36
1005
1277F3
  0
LINE
  5
1277F4
  8
OBJECT
 10
4049.8636106388548797
 20
-1556.6472321156009002
 30
0.0
 11
4068.8028673794128736
 21
-1516.2825872626449382
 31
0.0
1001
ACDBBLOCKREPETAG
1070
     1
1071
       37
1005
1277F4
  0
LINE
  5
1277F5
  8
OBJECT
 10
4037.9825432073148477
 20
-1563.5067695954649025
 30
0.0
 11
3993.5561069796322045
 21
-1559.7263246351060388
 31
0.0
1001
ACDBBLOCKREPETAG
1070
     1
1071
       38
1005
1277F5
  0
ARC
  5
1277F6
  8
OBJECT
 10
4039.0
 20
-1416.450018504810032
 30
0.0
 40
12.0
 50
25.1361620458888702
 51
94.8638379540571179
1001
ACDBBLOCKREPETAG
1070
     1
1071
       39
1005
1277F6
  0
LINE
  5
1277F7
  8
OBJECT
 10
4037.9825432073121192
 20
-1404.4932304045280489
 30
0.0
 11
3993.5561069796340234
 21
-1408.2736753648850936
 31
0.0
1001
ACDBBLOCKREPETAG
1070
     1
1071
       40
1005
1277F7
  0
LINE
  5
1277F8
  8
OBJECT
 10
4049.8636106388548797
 20
-1411.352767884387049
 30
0.0
 11
4068.8028673794160568
 21
-1451.7174127373471038
 31
0.0
1001
ACDBBLOCKREPETAG
1070
     1
1071
       41
1005
1277F8
  0
TEXT
  5
1277F9
  8
SLIM
 10
3853.75
 20
-1751.4999999999959073
 30
0.0
 40
35.0
  1
両受けスタイル（W）
 41
0.75
  0
TEXT
  5
1277FA
  8
SLIM
 10
5811.8000000000001819
 20
-1848.9999999999990905
 30
0.0
 40
28.0
  1
※ 対応スラブ厚　150mm以上
 41
0.75
  0
TEXT
  5
1277FB
  8
SLIM
 10
5598.8999999999996362
 20
-1942.3333333333318933
 30
0.0
 40
28.0
  1
国土交通大臣認定・（一財）日本消防設備安全センター性能評定取得品
 41
0.75
  0
TEXT
  5
1277FC
  8
SLIM
 10
5631.1000000000003638
 20
-1989.0
 30
0.0
 40
28.0
  1
注）ご採用にあたり、認定書及び評定書の内容をご確認ください。
 41
0.75
  0
TEXT
  5
1277FD
  8
SLIM
 10
11824.6000000000003638
 20
-1807.9999999999959073
 30
0.0
 40
28.0
  1
※ 対応スラブ厚　150～480
 41
0.75
  0
TEXT
  5
1277FE
  8
SLIM
 10
11598.8999999999996362
 20
-1901.3333333333289374
 30
0.0
 40
28.0
  1
国土交通大臣認定・（一財）日本消防設備安全センター性能評定取得品
 41
0.75
  0
TEXT
  5
1277FF
  8
SLIM
 10
11631.1000000000003638
 20
-1947.9999999999959073
 30
0.0
 40
28.0
  1
注）ご採用にあたり、認定書及び評定書の内容をご確認ください。
 41
0.75
  0
TEXT
  5
127800
  8
SLIM
 10
9824.6000000000003638
 20
-1807.9999999999959073
 30
0.0
 40
28.0
  1
※ 対応スラブ厚　180～480
 41
0.75
  0
TEXT
  5
127801
  8
SLIM
 10
9598.8999999999996362
 20
-1901.3333333333289374
 30
0.0
 40
28.0
  1
国土交通大臣認定・（一財）日本消防設備安全センター性能評定取得品
 41
0.75
  0
TEXT
  5
127802
  8
SLIM
 10
9631.1000000000003638
 20
-1947.9999999999959073
 30
0.0
 40
28.0
  1
注）ご採用にあたり、認定書及び評定書の内容をご確認ください。
 41
0.75
  0
TEXT
  5
127803
  8
SLIM
 10
7771.3999999999987267
 20
-1540.666666666664014
 30
0.0
 40
28.0
  1
※ 対応スラブ厚　180｛150｝～440
 41
0.75
  0
TEXT
  5
127804
  8
SLIM
 10
7733.2999999999983629
 20
-1587.3333333333309838
 30
0.0
 40
28.0
  1
｛｝内はカンペイ立て管との組み合わせの場合
 41
0.75
  0
TEXT
  5
127805
  8
SLIM
 10
7598.8999999999987267
 20
-1680.666666666664014
 30
0.0
 40
28.0
  1
国土交通大臣認定・（一財）日本消防設備安全センター性能評定取得品
 41
0.75
  0
TEXT
  5
127806
  8
SLIM
 10
7631.1000000000003638
 20
-1727.3333333333309838
 30
0.0
 40
28.0
  1
注）ご採用にあたり、認定書及び評定書の内容をご確認ください。
 41
0.75
  0
TEXT
  5
127807
  8
SLIM
 10
9739.125000000001819
 20
-1751.4999999999959073
 30
0.0
 40
35.0
  1
両受けスタイル（W）＋シンドカット
 41
0.75
  0
TEXT
  5
127808
  8
SLIM
 10
11743.5
 20
-1751.4999999999959073
 30
0.0
 40
35.0
  1
カンペイ君（WKP）＋シンドカット
 41
0.75
  0
TEXT
  5
127809
  8
SLIM
 10
7741.625
 20
-1477.4999999999979536
 30
0.0
 40
35.0
  1
片受けスタイル（S）＋シンドカット
 41
0.75
  0
TEXT
  5
12780A
  8
SLIM
 10
5858.1250000000009095
 20
-1792.4999999999990905
 30
0.0
 40
35.0
  1
カンペイ君（WKP）
 41
0.75
  0
TEXT
  5
12780B
  8
SLIM
 10
1856.25
 20
-1477.4999999999979536
 30
0.0
 40
35.0
  1
片受けスタイル（S）
 41
0.75
  0
TEXT
  5
12780C
  8
SLIM
 10
0.0
 20
370.0
 30
0.0
 40
100.0
  1
4HF-0-WKP+100
 41
0.75
  0
VIEWPORT
  5
F6BA7
 67
     1
  8
0
 10
185.5034606251186915
 20
101.8328354358671959
 30
0.0
 40
414.3487481428715
 41
222.1965796813965142
 68
     1
 69
     1
1001
ACAD
1000
MVIEW
1002
{
1070
    16
1010
0.0
1020
0.0
1030
0.0
1010
0.0
1020
0.0
1030
1.0
1040
0.0
1040
222.1965796813965142
1040
185.5034606251186915
1040
101.8328354358671959
1040
50.0
1040
0.0
1040
0.0
1070
     0
1070
     0
1070
     1
1070
     1
1070
     0
1070
     0
1070
     0
1070
     0
1040
0.0
1040
0.0
1040
0.0
1040
10.0
1040
10.0
1040
10.0
1040
10.0
1070
     0
1002
{
1002
}
1002
}
  0
VIEWPORT
  5
F6BA9
 67
     1
  8
OBJECT
 10
145.3303314447402954
 20
101.8328338861465028
 30
0.0
 40
232.5285303115844044
 41
162.9325342178343021
 68
     2
 69
     2
1001
ACAD
1000
MVIEW
1002
{
1070
    16
1010
0.0
1020
0.0
1030
0.0
1010
0.0
1020
0.0
1030
1.0
1040
0.0
1040
25942.5590440314699663
1040
2377.6044570773769919
1040
-7591.5176687056618903
1040
50.0
1040
0.0
1040
0.0
1070
     0
1070
   600
1070
     1
1070
     1
1070
     0
1070
     0
1070
     0
1070
     0
1040
0.0
1040
0.0
1040
0.0
1040
1.0
1040
1.0
1040
0.0
1040
0.0
1070
     0
1002
{
1002
}
1002
}
  0
ENDSEC
  0
EOF
