  0
SECTION
  2
HEADER
  9
$ACADVER
  1
AC1009
  9
$INSBASE
 10
0.0
 20
0.0
 30
0.0
  9
$EXTMIN
 10
0.0
 20
-1889.0
 30
0.0
  9
$EXTMAX
 10
12412.30000000001
 20
770.0
 30
0.0
  9
$LIMMIN
 10
0.0
 20
0.0
  9
$LIMMAX
 10
210.0
 20
297.0
  9
$ORTHOMODE
 70
     0
  9
$REGENMODE
 70
     1
  9
$FILLMODE
 70
     1
  9
$QTEXTMODE
 70
     0
  9
$MIRRTEXT
 70
     0
  9
$DRAGMODE
 70
     2
  9
$LTSCALE
 40
1.0
  9
$OSMODE
 70
   109
  9
$ATTMODE
 70
     1
  9
$TEXTSIZE
 40
4.0
  9
$TRACEWID
 40
0.05
  9
$TEXTSTYLE
  7
STANDARD
  9
$CLAYER
  8
OBJECT
  9
$CELTYPE
  6
BYLAYER
  9
$CECOLOR
 62
   256
  9
$DIMSCALE
 40
10.0
  9
$DIMASZ
 40
2.0
  9
$DIMEXO
 40
1.0
  9
$DIMDLI
 40
10.0
  9
$DIMRND
 40
0.0
  9
$DIMDLE
 40
0.0
  9
$DIMEXE
 40
1.0
  9
$DIMTP
 40
0.0
  9
$DIMTM
 40
0.0
  9
$DIMTXT
 40
3.2000000000000002
  9
$DIMCEN
 40
0.0
  9
$DIMTSZ
 40
0.0
  9
$DIMTOL
 70
     0
  9
$DIMLIM
 70
     0
  9
$DIMTIH
 70
     0
  9
$DIMTOH
 70
     0
  9
$DIMSE1
 70
     0
  9
$DIMSE2
 70
     0
  9
$DIMTAD
 70
     1
  9
$DIMZIN
 70
     8
  9
$DIMBLK
  1
OPEN30
  9
$DIMASO
 70
     1
  9
$DIMSHO
 70
     1
  9
$DIMPOST
  1

  9
$DIMAPOST
  1

  9
$DIMALT
 70
     0
  9
$DIMALTD
 70
     2
  9
$DIMALTF
 40
25.399999999999999
  9
$DIMLFAC
 40
1.0
  9
$DIMTOFL
 70
     1
  9
$DIMTVP
 40
0.0
  9
$DIMTIX
 70
     0
  9
$DIMSOXD
 70
     0
  9
$DIMSAH
 70
     0
  9
$DIMBLK1
  1

  9
$DIMBLK2
  1

  9
$DIMSTYLE
  2
S10
  9
$DIMCLRD
 70
   256
  9
$DIMCLRE
 70
   256
  9
$DIMCLRT
 70
   256
  9
$DIMTFAC
 40
1.0
  9
$DIMGAP
 40
0.9
  9
$LUNITS
 70
     2
  9
$LUPREC
 70
     2
  9
$SKETCHINC
 40
0.1
  9
$FILLETRAD
 40
0.0
  9
$AUNITS
 70
     0
  9
$AUPREC
 70
     2
  9
$MENU
  1
ACAD
  9
$ELEVATION
 40
0.0
  9
$PELEVATION
 40
0.0
  9
$THICKNESS
 40
0.0
  9
$LIMCHECK
 70
     0
  9
$BLIPMODE
 70
     0
  9
$CHAMFERA
 40
2.0
  9
$CHAMFERB
 40
2.0
  9
$SKPOLY
 70
     0
  9
$TDCREATE
 40
2453095.4929404748
  9
$TDUPDATE
 40
2457290.6310991552
  9
$TDINDWG
 40
18.476152384300001
  9
$TDUSRTIMER
 40
18.476151840299998
  9
$USRTIMER
 70
     1
  9
$ANGBASE
 50
0.0
  9
$ANGDIR
 70
     0
  9
$PDMODE
 70
    35
  9
$PDSIZE
 40
2.0
  9
$PLINEWID
 40
0.0
  9
$COORDS
 70
     1
  9
$SPLFRAME
 70
     0
  9
$SPLINETYPE
 70
     6
  9
$SPLINESEGS
 70
     8
  9
$ATTDIA
 70
     0
  9
$ATTREQ
 70
     1
  9
$HANDLING
 70
     1
  9
$HANDSEED
  5
12707A
  9
$SURFTAB1
 70
     6
  9
$SURFTAB2
 70
     6
  9
$SURFTYPE
 70
     6
  9
$SURFU
 70
     6
  9
$SURFV
 70
     6
  9
$UCSNAME
  2

  9
$UCSORG
 10
0.0
 20
0.0
 30
0.0
  9
$UCSXDIR
 10
1.0
 20
0.0
 30
0.0
  9
$UCSYDIR
 10
0.0
 20
1.0
 30
0.0
  9
$PUCSNAME
  2

  9
$PUCSORG
 10
0.0
 20
0.0
 30
0.0
  9
$PUCSXDIR
 10
1.0
 20
0.0
 30
0.0
  9
$PUCSYDIR
 10
0.0
 20
1.0
 30
0.0
  9
$USERI1
 70
     0
  9
$USERI2
 70
     0
  9
$USERI3
 70
     0
  9
$USERI4
 70
     0
  9
$USERI5
 70
     0
  9
$USERR1
 40
0.0
  9
$USERR2
 40
0.0
  9
$USERR3
 40
0.0
  9
$USERR4
 40
0.0
  9
$USERR5
 40
0.0
  9
$WORLDVIEW
 70
     1
  9
$SHADEDGE
 70
     3
  9
$SHADEDIF
 70
    70
  9
$TILEMODE
 70
     1
  9
$MAXACTVP
 70
    64
  9
$PLIMCHECK
 70
     0
  9
$PEXTMIN
 10
29.066066288948051
 20
20.366566777229309
 30
0.0
  9
$PEXTMAX
 10
261.5945966005325
 20
183.29910099506381
 30
0.0
  9
$PLIMMIN
 10
-3.17498779296875
 20
-3.1749999523162842
  9
$PLIMMAX
 10
293.83566284179687
 20
206.8406708240509
  9
$UNITMODE
 70
     0
  9
$VISRETAIN
 70
     1
  9
$PLINEGEN
 70
     0
  9
$PSLTSCALE
 70
     1
  0
ENDSEC
  0
SECTION
  2
TABLES
  0
TABLE
  2
VPORT
 70
     1
  0
VPORT
  2
*ACTIVE
 70
     0
 10
0.0
 20
0.0
 11
1.0
 21
1.0
 12
8304.8310627089013
 22
-1320.2412310487789
 13
0.0
 23
0.0
 14
1.0
 24
1.0
 15
0.0
 25
0.0
 16
0.0
 26
0.0
 36
1.0
 17
0.0
 27
0.0
 37
0.0
 40
8940.7841570804703
 41
1.6494178525226391
 42
50.0
 43
0.0
 44
0.0
 50
0.0
 51
0.0
 71
     0
 72
   600
 73
     1
 74
     1
 75
     0
 76
     0
 77
     0
 78
     0
  0
ENDTAB
  0
TABLE
  2
LTYPE
 70
     4
  0
LTYPE
  2
CONTINUOUS
 70
     0
  3
Solid line
 72
    65
 73
     0
 40
0.0
  0
LTYPE
  2
ACAD_ISO08W100
 70
     0
  3
ISO long-dash short-dash ____ __ ____ __ ____ _
 72
    65
 73
     4
 40
36.0
 49
24.0
 49
-3.0
 49
6.0
 49
-3.0
  0
LTYPE
  2
ACAD_ISO02W100
 70
     0
  3
ISO dash __ __ __ __ __ __ __ __ __ __ __ __ __
 72
    65
 73
     2
 40
15.0
 49
12.0
 49
-3.0
  0
ENDTAB
  0
TABLE
  2
LAYER
 70
     7
  0
LAYER
  2
0
 70
     0
 62
     7
  6
CONTINUOUS
  0
LAYER
  2
DEFPOINTS
 70
     0
 62
     7
  6
CONTINUOUS
  0
LAYER
  2
OBJECT
 70
     0
 62
     4
  6
CONTINUOUS
  0
LAYER
  2
HIDDEN
 70
     0
 62
     2
  6
ACAD_ISO02W100
  0
LAYER
  2
CENTER
 70
     0
 62
     2
  6
ACAD_ISO08W100
  0
LAYER
  2
DOTS
 70
     0
 62
     1
  6
CONTINUOUS
  0
LAYER
  2
SLIM
 70
     0
 62
     2
  6
CONTINUOUS
  0
ENDTAB
  0
TABLE
  2
STYLE
 70
     1
  0
STYLE
  2
STANDARD
 70
     0
 40
0.0
 41
0.75
 50
0.0
 71
     0
 42
4.0
  3
simplex.shx
  4
bigfont.shx
  0
ENDTAB
  0
TABLE
  2
VIEW
 70
     1
  0
ENDTAB
  0
TABLE
  2
UCS
 70
     0
  0
ENDTAB
  0
TABLE
  2
APPID
 70
    19
  0
APPID
  2
ACAD
 70
     0
  0
APPID
  2
ACAD_PSEXT
 70
     0
  0
APPID
  2
ACAD_EXEMPT_FROM_CAD_STANDARDS
 70
     0
  0
APPID
  2
ACAECLAYERSTANDARD
 70
     0
  0
APPID
  2
ACAUTHENVIRON
 70
     0
  0
APPID
  2
ACDBDYNAMICBLOCKTRUENAME
 70
     0
  0
APPID
  2
ACDBDYNAMICBLOCKGUID
 70
     0
  0
APPID
  2
ACDBBLOCKREPETAG
 70
     0
  0
APPID
  2
ACDBBLOCKREPBTAG
 70
     0
  0
APPID
  2
ACAD_NAV_VCDISPLAY
 70
     0
  0
APPID
  2
ACAD_DSTYLE_DIMRADIAL_EXTENSION
 70
     0
  0
APPID
  2
ACAD_DSTYLE_DIMJAG
 70
     0
  0
APPID
  2
ACAD_DSTYLE_DIMTALN
 70
     0
  0
APPID
  2
ACADANNOTATIVE
 70
     0
  0
APPID
  2
ACADANNOPO
 70
     0
  0
APPID
  2
GRADIENTCOLOR1ACI
 70
     0
  0
APPID
  2
GRADIENTCOLOR2ACI
 70
     0
  0
APPID
  2
CONTENTBLOCKICON
 70
     0
  0
APPID
  2
ACAD_MLEADERVER
 70
     0
  0
ENDTAB
  0
TABLE
  2
DIMSTYLE
 70
     2
  0
DIMSTYLE
  2
STANDARD
 70
     0
  3

  4

  5

  6

  7

 40
1.0
 41
0.18
 42
0.0625
 43
0.38
 44
0.18
 45
0.0
 46
0.0
 47
0.0
 48
0.0
140
0.18
141
0.09
142
0.0
143
25.399999999999999
144
1.0
145
0.0
146
1.0
147
0.09
 71
     0
 72
     0
 73
     1
 74
     1
 75
     0
 76
     0
 77
     0
 78
     0
170
     0
171
     2
172
     0
173
     0
174
     0
175
     0
176
     0
177
     0
178
     0
  0
DIMSTYLE
  2
S10
 70
     0
  3

  4

  5
OPEN30
  6

  7

 40
10.0
 41
2.0
 42
1.0
 43
10.0
 44
1.0
 45
0.0
 46
0.0
 47
0.0
 48
0.0
140
3.2000000000000002
141
0.0
142
0.0
143
25.399999999999999
144
1.0
145
0.0
146
1.0
147
0.9
 71
     0
 72
     0
 73
     0
 74
     0
 75
     0
 76
     0
 77
     1
 78
     8
170
     0
171
     2
172
     1
173
     0
174
     0
175
     0
176
   256
177
   256
178
   256
  0
ENDTAB
  0
ENDSEC
  0
SECTION
  2
BLOCKS
  0
BLOCK
  8
0
  2
$MODEL_SPACE
 70
     0
 10
0.0
 20
0.0
 30
0.0
  3
$MODEL_SPACE
  1

  0
ENDBLK
  5
20
  8
0
  0
BLOCK
 67
     1
  8
0
  2
$PAPER_SPACE
 70
     0
 10
0.0
 20
0.0
 30
0.0
  3
$PAPER_SPACE
  1

  0
ENDBLK
  5
F6BA3
 67
     1
  8
0
  0
BLOCK
  8
0
  2
_OPEN30
 70
     0
 10
0.0
 20
0.0
 30
0.0
  3
_OPEN30
  1

  0
LINE
  5
202
  8
0
  6
BYBLOCK
 62
     0
 10
-1.0
 20
0.26794919
 30
0.0
 11
0.0
 21
0.0
 31
0.0
  0
LINE
  5
203
  8
0
  6
BYBLOCK
 62
     0
 10
0.0
 20
0.0
 30
0.0
 11
-1.0
 21
-0.26794919
 31
0.0
  0
LINE
  5
204
  8
0
  6
BYBLOCK
 62
     0
 10
0.0
 20
0.0
 30
0.0
 11
-1.0
 21
0.0
 31
0.0
  0
ENDBLK
  5
206
  8
0
  0
ENDSEC
  0
SECTION
  2
ENTITIES
  0
LINE
  5
126AC2
  8
OBJECT
 10
11918.0
 20
-470.99999999999949
 30
0.0
 11
11918.0
 21
-449.99999999999949
 31
0.0
1001
ACDBBLOCKREPETAG
1070
     1
1071
        0
1005
126AC2
  0
LINE
  5
126AC3
  8
OBJECT
 10
11918.0
 20
-449.99999999999949
 30
0.0
 11
12082.0
 21
-449.99999999999949
 31
0.0
1001
ACDBBLOCKREPETAG
1070
     1
1071
        1
1005
126AC3
  0
LINE
  5
126AC4
  8
HIDDEN
 10
11943.0
 20
-519.99999999999955
 30
0.0
 11
12057.0
 21
-519.99999999999955
 31
0.0
1001
ACDBBLOCKREPETAG
1070
     1
1071
        2
1005
126AC4
  0
LINE
  5
126AC5
  8
OBJECT
 10
12082.0
 20
-470.99999999999949
 30
0.0
 11
11918.0
 21
-470.99999999999949
 31
0.0
1001
ACDBBLOCKREPETAG
1070
     1
1071
        3
1005
126AC5
  0
LINE
  5
126AC6
  8
CENTER
 10
12000.0
 20
-434.99999999999949
 30
0.0
 11
12000.0
 21
-799.99999999999955
 31
0.0
1001
ACDBBLOCKREPETAG
1070
     1
1071
        4
1005
126AC6
  0
LINE
  5
126AC7
  8
OBJECT
 10
11925.0
 20
-533.99999999999955
 30
0.0
 11
11925.0
 21
-787.99999999999955
 31
0.0
1001
ACDBBLOCKREPETAG
1070
     1
1071
        5
1005
126AC7
  0
LINE
  5
126AC8
  8
OBJECT
 10
11928.0
 20
-470.99999999999949
 30
0.0
 11
11928.0
 21
-533.99999999999955
 31
0.0
1001
ACDBBLOCKREPETAG
1070
     1
1071
        6
1005
126AC8
  0
LINE
  5
126AC9
  8
OBJECT
 10
12072.0
 20
-533.99999999999955
 30
0.0
 11
12072.0
 21
-470.99999999999949
 31
0.0
1001
ACDBBLOCKREPETAG
1070
     1
1071
        7
1005
126AC9
  0
LINE
  5
126ACA
  8
OBJECT
 10
11920.0
 20
-787.99999999999955
 30
0.0
 11
12080.0
 21
-787.99999999999955
 31
0.0
1001
ACDBBLOCKREPETAG
1070
     1
1071
        8
1005
126ACA
  0
LINE
  5
126ACB
  8
OBJECT
 10
12080.0
 20
-533.99999999999955
 30
0.0
 11
11925.0
 21
-533.99999999999955
 31
0.0
1001
ACDBBLOCKREPETAG
1070
     1
1071
        9
1005
126ACB
  0
LINE
  5
126ACC
  8
OBJECT
 10
11920.0
 20
-787.99999999999955
 30
0.0
 11
11920.0
 21
-799.99999999999955
 31
0.0
1001
ACDBBLOCKREPETAG
1070
     1
1071
       10
1005
126ACC
  0
LINE
  5
126ACD
  8
OBJECT
 10
11920.0
 20
-799.99999999999955
 30
0.0
 11
12080.0
 21
-799.99999999999955
 31
0.0
1001
ACDBBLOCKREPETAG
1070
     1
1071
       11
1005
126ACD
  0
LINE
  5
126ACE
  8
OBJECT
 10
12080.0
 20
-799.99999999999955
 30
0.0
 11
12080.0
 21
-787.99999999999955
 31
0.0
1001
ACDBBLOCKREPETAG
1070
     1
1071
       12
1005
126ACE
  0
LINE
  5
126ACF
  8
OBJECT
 10
12074.99999999986
 20
-657.99999999985039
 30
0.0
 11
12075.0
 21
-787.99999999999955
 31
0.0
1001
ACDBBLOCKREPETAG
1070
     1
1071
       14
1005
126ACF
  0
LINE
  5
126AD0
  8
OBJECT
 10
12074.99999080298
 20
-657.99998602702135
 30
0.0
 11
12080.0
 21
-657.99998602702135
 31
0.0
1001
ACDBBLOCKREPETAG
1070
     1
1071
       15
1005
126AD0
  0
LINE
  5
126AD1
  8
OBJECT
 10
11920.79408171202
 20
-449.99999999999949
 30
0.0
 11
11920.79408171202
 21
-470.99999999999949
 31
0.0
1001
ACDBBLOCKREPETAG
1070
     1
1071
       16
1005
126AD1
  0
LINE
  5
126AD2
  8
OBJECT
 10
11928.737896000001
 20
-449.99999999999949
 30
0.0
 11
11928.737896000001
 21
-470.99999999999949
 31
0.0
1001
ACDBBLOCKREPETAG
1070
     1
1071
       17
1005
126AD2
  0
LINE
  5
126AD3
  8
OBJECT
 10
11970.833026
 20
-449.99999999999949
 30
0.0
 11
11970.833026
 21
-470.99999999999949
 31
0.0
1001
ACDBBLOCKREPETAG
1070
     1
1071
       18
1005
126AD3
  0
LINE
  5
126AD4
  8
OBJECT
 10
11978.7768389218
 20
-449.99999999999949
 30
0.0
 11
11978.7768389218
 21
-470.99999999999949
 31
0.0
1001
ACDBBLOCKREPETAG
1070
     1
1071
       19
1005
126AD4
  0
LINE
  5
126AD5
  8
OBJECT
 10
12082.0
 20
-470.99999999999949
 30
0.0
 11
12082.0
 21
-449.99999999999949
 31
0.0
1001
ACDBBLOCKREPETAG
1070
     1
1071
       20
1005
126AD5
  0
LINE
  5
126AD6
  8
OBJECT
 10
12079.205918287969
 20
-449.99999999999949
 30
0.0
 11
12079.205918287969
 21
-470.99999999999949
 31
0.0
1001
ACDBBLOCKREPETAG
1070
     1
1071
       21
1005
126AD6
  0
LINE
  5
126AD7
  8
OBJECT
 10
12071.262103999999
 20
-449.99999999999949
 30
0.0
 11
12071.262103999999
 21
-470.99999999999949
 31
0.0
1001
ACDBBLOCKREPETAG
1070
     1
1071
       22
1005
126AD7
  0
LINE
  5
126AD8
  8
OBJECT
 10
12029.166974
 20
-449.99999999999949
 30
0.0
 11
12029.166974
 21
-470.99999999999949
 31
0.0
1001
ACDBBLOCKREPETAG
1070
     1
1071
       23
1005
126AD8
  0
LINE
  5
126AD9
  8
OBJECT
 10
12021.2231610782
 20
-449.99999999999949
 30
0.0
 11
12021.2231610782
 21
-470.99999999999949
 31
0.0
1001
ACDBBLOCKREPETAG
1070
     1
1071
       24
1005
126AD9
  0
ARC
  5
126ADA
  8
OBJECT
 10
12200.687274671671
 20
-649.40809941010718
 30
0.0
 40
170.6350503965856
 50
137.44134459184301
 51
149.91949581337221
1001
ACDBBLOCKREPETAG
1070
     1
1071
       25
1005
126ADA
  0
ARC
  5
126ADB
  8
OBJECT
 10
12118.845598704051
 20
-605.88272669536445
 30
0.0
 40
78.072222021763665
 50
147.4551531038293
 51
164.66365997718549
1001
ACDBBLOCKREPETAG
1070
     1
1071
       26
1005
126ADB
  0
ARC
  5
126ADC
  8
OBJECT
 10
12085.755434960871
 20
-595.99999999999955
 30
0.0
 40
43.553539268856177
 50
165.688452300753
 51
194.31154769924689
1001
ACDBBLOCKREPETAG
1070
     1
1071
       27
1005
126ADC
  0
ARC
  5
126ADD
  8
OBJECT
 10
12200.687274671671
 20
-542.59190058989179
 30
0.0
 40
170.6350503965856
 50
210.08050418662779
 51
222.55865540815699
1001
ACDBBLOCKREPETAG
1070
     1
1071
       28
1005
126ADD
  0
ARC
  5
126ADE
  8
OBJECT
 10
12118.845598704051
 20
-586.11727330463464
 30
0.0
 40
78.072222021763665
 50
195.33634002281451
 51
212.54484689617061
1001
ACDBBLOCKREPETAG
1070
     1
1071
       29
1005
126ADE
  0
POINT
  5
126ADF
  8
DOTS
 10
12000.0
 20
-654.99999999999955
 30
0.0
1001
ACDBBLOCKREPETAG
1070
     1
1071
      204
1005
126ADF
  0
LINE
  5
126AE0
  8
SLIM
 10
11927.30183005652
 20
-155.95484036957669
 30
0.0
 11
11955.954840369581
 21
-127.30183005652241
 31
0.0
1001
GRADIENTCOLOR1ACI
1070
     5
1001
GRADIENTCOLOR2ACI
1070
     2
1001
ACAD
1010
0.0
1020
0.0
1030
0.0
1001
ACDBBLOCKREPETAG
1070
     1
1071
      416
1005
126AE0
  0
LINE
  5
126AE1
  8
SLIM
 10
11919.48615207084
 20
-172.7507744763318
 30
0.0
 11
11938.29030895727
 21
-153.9466175898965
 31
0.0
1001
GRADIENTCOLOR1ACI
1070
     5
1001
GRADIENTCOLOR2ACI
1070
     2
1001
ACAD
1010
0.0
1020
0.0
1030
0.0
1001
ACDBBLOCKREPETAG
1070
     1
1071
      417
1005
126AE1
  0
LINE
  5
126AE2
  8
SLIM
 10
11953.9466175899
 20
-138.29030895727169
 30
0.0
 11
11972.75077447633
 21
-119.4861520708365
 31
0.0
1001
GRADIENTCOLOR1ACI
1070
     5
1001
GRADIENTCOLOR2ACI
1070
     2
1001
ACAD
1010
0.0
1020
0.0
1030
0.0
1001
ACDBBLOCKREPETAG
1070
     1
1071
      418
1005
126AE2
  0
LINE
  5
126AE3
  8
SLIM
 10
11916.35966799338
 20
-184.85751467486031
 30
0.0
 11
11920.236091437009
 21
-180.9810912312297
 31
0.0
1001
GRADIENTCOLOR1ACI
1070
     5
1001
GRADIENTCOLOR2ACI
1070
     2
1001
ACAD
1010
0.0
1020
0.0
1030
0.0
1001
ACDBBLOCKREPETAG
1070
     1
1071
      419
1005
126AE3
  0
LINE
  5
126AE4
  8
SLIM
 10
11980.98109123123
 20
-120.2360914370078
 30
0.0
 11
11984.857514674861
 21
-116.359667993377
 31
0.0
1001
GRADIENTCOLOR1ACI
1070
     5
1001
GRADIENTCOLOR2ACI
1070
     2
1001
ACAD
1010
0.0
1020
0.0
1030
0.0
1001
ACDBBLOCKREPETAG
1070
     1
1071
      420
1005
126AE4
  0
LINE
  5
126AE5
  8
SLIM
 10
11915.14405758905
 20
-195.0533812002549
 30
0.0
 11
11918.412550338729
 21
-191.78488845057959
 31
0.0
1001
GRADIENTCOLOR1ACI
1070
     5
1001
GRADIENTCOLOR2ACI
1070
     2
1001
ACAD
1010
0.0
1020
0.0
1030
0.0
1001
ACDBBLOCKREPETAG
1070
     1
1071
      421
1005
126AE5
  0
LINE
  5
126AE6
  8
SLIM
 10
11991.78488845058
 20
-118.4125503387271
 30
0.0
 11
11995.05338120025
 21
-115.1440575890517
 31
0.0
1001
GRADIENTCOLOR1ACI
1070
     5
1001
GRADIENTCOLOR2ACI
1070
     2
1001
ACAD
1010
0.0
1020
0.0
1030
0.0
1001
ACDBBLOCKREPETAG
1070
     1
1071
      422
1005
126AE6
  0
LINE
  5
126AE7
  8
SLIM
 10
11915.097963557469
 20
-204.07973135290339
 30
0.0
 11
11918.00833819905
 21
-201.16935671132859
 31
0.0
1001
GRADIENTCOLOR1ACI
1070
     5
1001
GRADIENTCOLOR2ACI
1070
     2
1001
ACAD
1010
0.0
1020
0.0
1030
0.0
1001
ACDBBLOCKREPETAG
1070
     1
1071
      423
1005
126AE7
  0
LINE
  5
126AE8
  8
SLIM
 10
12001.169356711331
 20
-118.0083381990472
 30
0.0
 11
12004.0797313529
 21
-115.0979635574724
 31
0.0
1001
GRADIENTCOLOR1ACI
1070
     5
1001
GRADIENTCOLOR2ACI
1070
     2
1001
ACAD
1010
0.0
1020
0.0
1030
0.0
1001
ACDBBLOCKREPETAG
1070
     1
1071
      424
1005
126AE8
  0
LINE
  5
126AE9
  8
SLIM
 10
11915.889972620869
 20
-212.2679784105739
 30
0.0
 11
11918.56326394268
 21
-209.59468708876071
 31
0.0
1001
GRADIENTCOLOR1ACI
1070
     5
1001
GRADIENTCOLOR2ACI
1070
     2
1001
ACAD
1010
0.0
1020
0.0
1030
0.0
1001
ACDBBLOCKREPETAG
1070
     1
1071
      425
1005
126AE9
  0
LINE
  5
126AEA
  8
SLIM
 10
12009.59468708876
 20
-118.5632639426843
 30
0.0
 11
12012.267978410569
 21
-115.88997262087101
 31
0.0
1001
GRADIENTCOLOR1ACI
1070
     5
1001
GRADIENTCOLOR2ACI
1070
     2
1001
ACAD
1010
0.0
1020
0.0
1030
0.0
1001
ACDBBLOCKREPETAG
1070
     1
1071
      426
1005
126AEA
  0
LINE
  5
126AEB
  8
SLIM
 10
11917.338265695151
 20
-219.7999414573614
 30
0.0
 11
11919.844379359491
 21
-217.29382779302409
 31
0.0
1001
GRADIENTCOLOR1ACI
1070
     5
1001
GRADIENTCOLOR2ACI
1070
     2
1001
ACAD
1010
0.0
1020
0.0
1030
0.0
1001
ACDBBLOCKREPETAG
1070
     1
1071
      427
1005
126AEB
  0
LINE
  5
126AEC
  8
SLIM
 10
12017.293827793021
 20
-119.84437935949001
 30
0.0
 11
12019.799941457361
 21
-117.3382656951527
 31
0.0
1001
GRADIENTCOLOR1ACI
1070
     5
1001
GRADIENTCOLOR2ACI
1070
     2
1001
ACAD
1010
0.0
1020
0.0
1030
0.0
1001
ACDBBLOCKREPETAG
1070
     1
1071
      428
1005
126AEC
  0
LINE
  5
126AED
  8
SLIM
 10
11919.331259406301
 20
-226.78720386727881
 30
0.0
 11
11922.844692636791
 21
-223.27377063679219
 31
0.0
1001
GRADIENTCOLOR1ACI
1070
     5
1001
GRADIENTCOLOR2ACI
1070
     2
1001
ACAD
1010
0.0
1020
0.0
1030
0.0
1001
ACDBBLOCKREPETAG
1070
     1
1071
      429
1005
126AED
  0
LINE
  5
126AEE
  8
SLIM
 10
12023.27377163679
 20
-122.8446916367926
 30
0.0
 11
12026.787203867279
 21
-119.3312594063045
 31
0.0
1001
GRADIENTCOLOR1ACI
1070
     5
1001
GRADIENTCOLOR2ACI
1070
     2
1001
ACAD
1010
0.0
1020
0.0
1030
0.0
1001
ACDBBLOCKREPETAG
1070
     1
1071
      430
1005
126AEE
  0
LINE
  5
126AEF
  8
SLIM
 10
11921.79571631862
 20
-233.30300307603281
 30
0.0
 11
11927.334820697321
 21
-227.76389869732679
 31
0.0
1001
GRADIENTCOLOR1ACI
1070
     5
1001
GRADIENTCOLOR2ACI
1070
     2
1001
ACAD
1010
0.0
1020
0.0
1030
0.0
1001
ACDBBLOCKREPETAG
1070
     1
1071
      431
1005
126AEF
  0
LINE
  5
126AF0
  8
SLIM
 10
12027.76389969732
 20
-127.33481969732929
 30
0.0
 11
12033.303003076029
 21
-121.7957163186195
 31
0.0
1001
GRADIENTCOLOR1ACI
1070
     5
1001
GRADIENTCOLOR2ACI
1070
     2
1001
ACAD
1010
0.0
1020
0.0
1030
0.0
1001
ACDBBLOCKREPETAG
1070
     1
1071
      432
1005
126AF0
  0
LINE
  5
126AF1
  8
SLIM
 10
11924.681663531341
 20
-239.39731198437761
 30
0.0
 11
11930.63987686439
 21
-233.4390986513296
 31
0.0
1001
GRADIENTCOLOR1ACI
1070
     5
1001
GRADIENTCOLOR2ACI
1070
     2
1001
ACAD
1010
0.0
1020
0.0
1030
0.0
1001
ACDBBLOCKREPETAG
1070
     1
1071
      433
1005
126AF1
  0
LINE
  5
126AF2
  8
SLIM
 10
12033.43909865133
 20
-130.63987686439191
 30
0.0
 11
12039.397311984379
 21
-124.681663531344
 31
0.0
1001
GRADIENTCOLOR1ACI
1070
     5
1001
GRADIENTCOLOR2ACI
1070
     2
1001
ACAD
1010
0.0
1020
0.0
1030
0.0
1001
ACDBBLOCKREPETAG
1070
     1
1071
      434
1005
126AF2
  0
LINE
  5
126AF3
  8
SLIM
 10
11927.954461102419
 20
-245.10477053436679
 30
0.0
 11
11933.77500701499
 21
-239.28422462179759
 31
0.0
1001
GRADIENTCOLOR1ACI
1070
     5
1001
GRADIENTCOLOR2ACI
1070
     2
1001
ACAD
1010
0.0
1020
0.0
1030
0.0
1001
ACDBBLOCKREPETAG
1070
     1
1071
      435
1005
126AF3
  0
LINE
  5
126AF4
  8
SLIM
 10
12039.284224621801
 20
-133.77500701499309
 30
0.0
 11
12045.10477053437
 21
-127.95446110242381
 31
0.0
1001
GRADIENTCOLOR1ACI
1070
     5
1001
GRADIENTCOLOR2ACI
1070
     2
1001
ACAD
1010
0.0
1020
0.0
1030
0.0
1001
ACDBBLOCKREPETAG
1070
     1
1071
      436
1005
126AF4
  0
LINE
  5
126AF5
  8
SLIM
 10
11931.59033196866
 20
-250.44915578919529
 30
0.0
 11
11937.31820758806
 21
-244.72128016980349
 31
0.0
1001
GRADIENTCOLOR1ACI
1070
     5
1001
GRADIENTCOLOR2ACI
1070
     2
1001
ACAD
1010
0.0
1020
0.0
1030
0.0
1001
ACDBBLOCKREPETAG
1070
     1
1071
      437
1005
126AF5
  0
LINE
  5
126AF6
  8
SLIM
 10
12044.721280169801
 20
-137.31820758805651
 30
0.0
 11
12050.449155789191
 21
-131.59033196866449
 31
0.0
1001
GRADIENTCOLOR1ACI
1070
     5
1001
GRADIENTCOLOR2ACI
1070
     2
1001
ACAD
1010
0.0
1020
0.0
1030
0.0
1001
ACDBBLOCKREPETAG
1070
     1
1071
      438
1005
126AF6
  0
LINE
  5
126AF7
  8
SLIM
 10
11935.573749692519
 20
-255.44599418640331
 30
0.0
 11
11941.24811054159
 21
-249.77163333734029
 31
0.0
1001
GRADIENTCOLOR1ACI
1070
     5
1001
GRADIENTCOLOR2ACI
1070
     2
1001
ACAD
1010
0.0
1020
0.0
1030
0.0
1001
ACDBBLOCKREPETAG
1070
     1
1071
      439
1005
126AF7
  0
LINE
  5
126AF8
  8
SLIM
 10
12053.019743878929
 20
-137.99999999999901
 30
0.0
 11
12055.445994186401
 21
-135.57374969252561
 31
0.0
1001
GRADIENTCOLOR1ACI
1070
     5
1001
GRADIENTCOLOR2ACI
1070
     2
1001
ACAD
1010
0.0
1020
0.0
1030
0.0
1001
ACDBBLOCKREPETAG
1070
     1
1071
      440
1005
126AF8
  0
LINE
  5
126AF9
  8
SLIM
 10
11939.895923599141
 20
-260.10407640085549
 30
0.0
 11
11945.55277784863
 21
-254.44722215136329
 31
0.0
1001
GRADIENTCOLOR1ACI
1070
     5
1001
GRADIENTCOLOR2ACI
1070
     2
1001
ACAD
1010
0.0
1020
0.0
1030
0.0
1001
ACDBBLOCKREPETAG
1070
     1
1071
      441
1005
126AF9
  0
LINE
  5
126AFA
  8
SLIM
 10
11944.55400581359
 20
-264.42625030747251
 30
0.0
 11
11950.228366662661
 21
-258.75188945840949
 31
0.0
1001
GRADIENTCOLOR1ACI
1070
     5
1001
GRADIENTCOLOR2ACI
1070
     2
1001
ACAD
1010
0.0
1020
0.0
1030
0.0
1001
ACDBBLOCKREPETAG
1070
     1
1071
      442
1005
126AFA
  0
LINE
  5
126AFB
  8
SLIM
 10
11949.5508442108
 20
-268.40966803133369
 30
0.0
 11
11955.27871983019
 21
-262.68179241194167
 31
0.0
1001
GRADIENTCOLOR1ACI
1070
     5
1001
GRADIENTCOLOR2ACI
1070
     2
1001
ACAD
1010
0.0
1020
0.0
1030
0.0
1001
ACDBBLOCKREPETAG
1070
     1
1071
      443
1005
126AFB
  0
LINE
  5
126AFC
  8
SLIM
 10
11954.89522946563
 20
-272.04553889757432
 30
0.0
 11
11960.715775378199
 21
-266.22499298500497
 31
0.0
1001
GRADIENTCOLOR1ACI
1070
     5
1001
GRADIENTCOLOR2ACI
1070
     2
1001
ACAD
1010
0.0
1020
0.0
1030
0.0
1001
ACDBBLOCKREPETAG
1070
     1
1071
      444
1005
126AFC
  0
LINE
  5
126AFD
  8
SLIM
 10
11960.602688015621
 20
-275.31833646865419
 30
0.0
 11
11966.56090134867
 21
-269.36012313560622
 31
0.0
1001
GRADIENTCOLOR1ACI
1070
     5
1001
GRADIENTCOLOR2ACI
1070
     2
1001
ACAD
1010
0.0
1020
0.0
1030
0.0
1001
ACDBBLOCKREPETAG
1070
     1
1071
      445
1005
126AFD
  0
LINE
  5
126AFE
  8
SLIM
 10
11966.69699692396
 20
-278.20428368137863
 30
0.0
 11
11972.236100802669
 21
-272.66517980267162
 31
0.0
1001
GRADIENTCOLOR1ACI
1070
     5
1001
GRADIENTCOLOR2ACI
1070
     2
1001
ACAD
1010
0.0
1020
0.0
1030
0.0
1001
ACDBBLOCKREPETAG
1070
     1
1071
      446
1005
126AFE
  0
LINE
  5
126AFF
  8
SLIM
 10
11973.212796132721
 20
-280.66874059369371
 30
0.0
 11
11976.72622886321
 21
-277.15530786320562
 31
0.0
1001
GRADIENTCOLOR1ACI
1070
     5
1001
GRADIENTCOLOR2ACI
1070
     2
1001
ACAD
1010
0.0
1020
0.0
1030
0.0
1001
ACDBBLOCKREPETAG
1070
     1
1071
      447
1005
126AFF
  0
LINE
  5
126B00
  8
SLIM
 10
11980.200058542639
 20
-282.66173430484548
 30
0.0
 11
11982.70617220697
 21
-280.15562064050812
 31
0.0
1001
GRADIENTCOLOR1ACI
1070
     5
1001
GRADIENTCOLOR2ACI
1070
     2
1001
ACAD
1010
0.0
1020
0.0
1030
0.0
1001
ACDBBLOCKREPETAG
1070
     1
1071
      448
1005
126B00
  0
LINE
  5
126B01
  8
SLIM
 10
11987.73202158942
 20
-284.11002737912708
 30
0.0
 11
11990.40531291124
 21
-281.43673605731391
 31
0.0
1001
GRADIENTCOLOR1ACI
1070
     5
1001
GRADIENTCOLOR2ACI
1070
     2
1001
ACAD
1010
0.0
1020
0.0
1030
0.0
1001
ACDBBLOCKREPETAG
1070
     1
1071
      449
1005
126B01
  0
LINE
  5
126B02
  8
SLIM
 10
11995.9202686471
 20
-284.90203644252568
 30
0.0
 11
11998.830643288669
 21
-281.99166180095102
 31
0.0
1001
GRADIENTCOLOR1ACI
1070
     5
1001
GRADIENTCOLOR2ACI
1070
     2
1001
ACAD
1010
0.0
1020
0.0
1030
0.0
1001
ACDBBLOCKREPETAG
1070
     1
1071
      450
1005
126B02
  0
LINE
  5
126B03
  8
SLIM
 10
12004.94661879974
 20
-284.8559424109464
 30
0.0
 11
12008.21511154942
 21
-281.58744966127108
 31
0.0
1001
GRADIENTCOLOR1ACI
1070
     5
1001
GRADIENTCOLOR2ACI
1070
     2
1001
ACAD
1010
0.0
1020
0.0
1030
0.0
1001
ACDBBLOCKREPETAG
1070
     1
1071
      451
1005
126B03
  0
LINE
  5
126B04
  8
SLIM
 10
12015.142485325139
 20
-283.64033200662112
 30
0.0
 11
12019.01890876877
 21
-279.76390856299031
 31
0.0
1001
GRADIENTCOLOR1ACI
1070
     5
1001
GRADIENTCOLOR2ACI
1070
     2
1001
ACAD
1010
0.0
1020
0.0
1030
0.0
1001
ACDBBLOCKREPETAG
1070
     1
1071
      452
1005
126B04
  0
LINE
  5
126B05
  8
SLIM
 10
12027.249225523659
 20
-280.51384792916173
 30
0.0
 11
12045.76307345283
 21
-261.99999999999909
 31
0.0
1001
GRADIENTCOLOR1ACI
1070
     5
1001
GRADIENTCOLOR2ACI
1070
     2
1001
ACAD
1010
0.0
1020
0.0
1030
0.0
1001
ACDBBLOCKREPETAG
1070
     1
1071
      453
1005
126B05
  0
LINE
  5
126B06
  8
SLIM
 10
12044.045159630419
 20
-272.6981699434757
 30
0.0
 11
12054.743329573899
 21
-261.99999999999909
 31
0.0
1001
GRADIENTCOLOR1ACI
1070
     5
1001
GRADIENTCOLOR2ACI
1070
     2
1001
ACAD
1010
0.0
1020
0.0
1030
0.0
1001
ACDBBLOCKREPETAG
1070
     1
1071
      454
1005
126B06
  0
ARC
  5
126B07
  8
OBJECT
 10
12000.0
 20
-199.99999999999909
 30
0.0
 40
77.0
 50
202.25886899982271
 51
247.7411309999043
1001
ACDBBLOCKREPETAG
1070
     1
1071
      212
1005
126B07
  0
ARC
  5
126B08
  8
OBJECT
 10
12000.0
 20
-199.99999999999909
 30
0.0
 40
77.0
 50
292.25886900009567
 51
337.74113100017729
1001
ACDBBLOCKREPETAG
1070
     1
1071
      215
1005
126B08
  0
ARC
  5
126B09
  8
OBJECT
 10
12000.0
 20
-199.99999999999909
 30
0.0
 40
77.0
 50
112.2588690000957
 51
157.74113100017721
1001
ACDBBLOCKREPETAG
1070
     1
1071
      216
1005
126B09
  0
ARC
  5
126B0A
  8
OBJECT
 10
12000.0
 20
-199.99999999999909
 30
0.0
 40
77.0
 50
22.25886899982272
 51
67.741130999904328
1001
ACDBBLOCKREPETAG
1070
     1
1071
      220
1005
126B0A
  0
CIRCLE
  5
126B0B
  8
OBJECT
 10
12000.0
 20
-199.99999999999909
 30
0.0
 40
70.0
1001
ACDBBLOCKREPETAG
1070
     1
1071
      221
1005
126B0B
  0
LINE
  5
126B0C
  8
OBJECT
 10
12029.166974999989
 20
-271.26210499999888
 30
0.0
 11
12021.223162444099
 21
-279.20591755589248
 31
0.0
1001
ACDBBLOCKREPETAG
1070
     1
1071
      222
1005
126B0C
  0
LINE
  5
126B0D
  8
OBJECT
 10
11970.833026
 20
-271.26210499999888
 30
0.0
 11
11978.77683892192
 21
-279.20591792191681
 31
0.0
1001
ACDBBLOCKREPETAG
1070
     1
1071
      223
1005
126B0D
  0
ARC
  5
126B0E
  8
OBJECT
 10
12000.0
 20
-199.99999999999909
 30
0.0
 40
82.000000000000014
 50
255.00000044864029
 51
285.00000053969478
1001
ACDBBLOCKREPETAG
1070
     1
1071
      224
1005
126B0E
  0
LINE
  5
126B0F
  8
OBJECT
 10
11928.737896000001
 20
-229.1669739999989
 30
0.0
 11
11920.794081712051
 21
-221.2231597120545
 31
0.0
1001
ACDBBLOCKREPETAG
1070
     1
1071
      225
1005
126B0F
  0
ARC
  5
126B10
  8
OBJECT
 10
12000.0
 20
-199.99999999999909
 30
0.0
 40
82.000000000000014
 50
165.0000004487506
 51
194.9999985630001
1001
ACDBBLOCKREPETAG
1070
     1
1071
      226
1005
126B10
  0
LINE
  5
126B11
  8
OBJECT
 10
11970.833026
 20
-128.7378949999993
 30
0.0
 11
11978.77683892192
 21
-120.7940820780795
 31
0.0
1001
ACDBBLOCKREPETAG
1070
     1
1071
      227
1005
126B11
  0
ARC
  5
126B12
  8
OBJECT
 10
12000.0
 20
-199.99999999999909
 30
0.0
 40
82.000000000000014
 50
74.999999460305204
 51
104.99999955135971
1001
ACDBBLOCKREPETAG
1070
     1
1071
      228
1005
126B12
  0
LINE
  5
126B13
  8
OBJECT
 10
12029.166974999989
 20
-128.7378949999993
 30
0.0
 11
12021.223162444099
 21
-120.79408244410391
 31
0.0
1001
ACDBBLOCKREPETAG
1070
     1
1071
      229
1005
126B13
  0
LINE
  5
126B14
  8
OBJECT
 10
11962.402059
 20
-161.93893300000039
 30
0.0
 11
12037.08411027142
 21
-174.5180316957439
 31
0.0
1001
ACDBBLOCKREPETAG
1070
     1
1071
      230
1005
126B14
  0
LINE
  5
126B15
  8
OBJECT
 10
12044.093656999999
 20
-169.70149399999991
 30
0.0
 11
12037.08411027142
 21
-174.5180316957439
 31
0.0
1001
ACDBBLOCKREPETAG
1070
     1
1071
      231
1005
126B15
  0
LINE
  5
126B16
  8
OBJECT
 10
11928.737896000001
 20
-170.833024999999
 30
0.0
 11
11920.79408207808
 21
-178.77683892191911
 31
0.0
1001
ACDBBLOCKREPETAG
1070
     1
1071
      232
1005
126B16
  0
CIRCLE
  5
126B17
  8
OBJECT
 10
12000.0
 20
-199.99999999999909
 30
0.0
 40
53.500000000000007
1001
ACDBBLOCKREPETAG
1070
     1
1071
      233
1005
126B17
  0
ARC
  5
126B18
  8
OBJECT
 10
12000.0
 20
-199.99999999999909
 30
0.0
 40
50.0
 50
131.7018096435265
 51
168.52376955955751
1001
ACDBBLOCKREPETAG
1070
     1
1071
      234
1005
126B18
  0
ARC
  5
126B19
  8
OBJECT
 10
12000.0
 20
-199.99999999999909
 30
0.0
 40
50.0
 50
238.8199429999047
 51
34.494506250115712
1001
ACDBBLOCKREPETAG
1070
     1
1071
      235
1005
126B19
  0
LINE
  5
126B1A
  8
OBJECT
 10
12071.262104999991
 20
-170.833024999999
 30
0.0
 11
12079.20591755589
 21
-178.77683755589439
 31
0.0
1001
ACDBBLOCKREPETAG
1070
     1
1071
      236
1005
126B1A
  0
ARC
  5
126B1B
  8
OBJECT
 10
12000.0
 20
-199.99999999999909
 30
0.0
 40
82.000000000000014
 50
345.0000004487506
 51
15.000000539345651
1001
ACDBBLOCKREPETAG
1070
     1
1071
      237
1005
126B1B
  0
LINE
  5
126B1C
  8
OBJECT
 10
12071.262104999991
 20
-229.1669739999989
 30
0.0
 11
12079.20591792192
 21
-221.2231610780791
 31
0.0
1001
ACDBBLOCKREPETAG
1070
     1
1071
      238
1005
126B1C
  0
LINE
  5
126B1D
  8
OBJECT
 10
12045.661800227321
 20
-137.99999999999909
 30
0.0
 11
12080.0
 21
-137.99999999999909
 31
0.0
1001
ACDBBLOCKREPETAG
1070
     1
1071
      239
1005
126B1D
  0
LINE
  5
126B1E
  8
OBJECT
 10
12045.661800227321
 20
-261.99999999999909
 30
0.0
 11
12080.0
 21
-261.99999999999909
 31
0.0
1001
ACDBBLOCKREPETAG
1070
     1
1071
      240
1005
126B1E
  0
LINE
  5
126B1F
  8
CENTER
 10
12080.0
 20
-199.99999999999909
 30
0.0
 11
11900.00189721606
 21
-199.99999999999909
 31
0.0
1001
ACDBBLOCKREPETAG
1070
     1
1071
      249
1005
126B1F
  0
LINE
  5
126B20
  8
CENTER
 10
12000.0
 20
-299.99999999999909
 30
0.0
 11
12000.0
 21
-99.999999999999091
 31
0.0
1001
ACDBBLOCKREPETAG
1070
     1
1071
      250
1005
126B20
  0
ARC
  5
126B21
  8
OBJECT
 10
12000.0
 20
-199.99999999999909
 30
0.0
 40
85.0
 50
46.837102859852038
 51
313.16289714014789
1001
ACDBBLOCKREPETAG
1070
     1
1071
      251
1005
126B21
  0
LINE
  5
126B22
  8
OBJECT
 10
11946.69219414375
 20
-195.46638161316059
 30
0.0
 11
11970.45403438563
 21
-193.79865146436981
 31
0.0
1001
ACDBBLOCKREPETAG
1070
     1
1071
      340
1005
126B22
  0
LINE
  5
126B23
  8
OBJECT
 10
11947.385434727061
 20
-190.305593971766
 30
0.0
 11
11966.9884352629
 21
-188.92975272660161
 31
0.0
1001
ACDBBLOCKREPETAG
1070
     1
1071
      341
1005
126B23
  0
LINE
  5
126B24
  8
OBJECT
 10
11974.11353747527
 20
-242.77722592637201
 30
0.0
 11
11982.136698837399
 21
-234.1690987954708
 31
0.0
1001
ACDBBLOCKREPETAG
1070
     1
1071
      342
1005
126B24
  0
ARC
  5
126B25
  8
OBJECT
 10
11982.116007124539
 20
-183.28188966318251
 30
0.0
 40
60.031113246032611
 50
254.07020130412749
 51
262.33936106086588
1001
ACDBBLOCKREPETAG
1070
     1
1071
      343
1005
126B25
  0
LINE
  5
126B26
  8
OBJECT
 10
11977.612599732511
 20
-197.67495277149919
 30
0.0
 11
11982.136698837399
 21
-234.1690987954708
 31
0.0
1001
ACDBBLOCKREPETAG
1070
     1
1071
      344
1005
126B26
  0
ARC
  5
126B27
  8
OBJECT
 10
11967.688565345639
 20
-198.90521351131881
 30
0.0
 40
10.0
 50
7.0667782929989977
 51
94.014734370532395
1001
ACDBBLOCKREPETAG
1070
     1
1071
      345
1005
126B27
  0
ARC
  5
126B28
  8
OBJECT
 10
11970.94412537097
 20
-200.78147401875589
 30
0.0
 40
7.0
 50
7.0667782929989977
 51
94.014733775014633
1001
ACDBBLOCKREPETAG
1070
     1
1071
      346
1005
126B28
  0
POINT
  5
126B29
  8
DOTS
 10
12000.0
 20
-199.99999999999909
 30
0.0
 50
270.0
1001
ACDBBLOCKREPETAG
1070
     1
1071
      349
1005
126B29
  0
LINE
  5
126B2A
  8
OBJECT
 10
12202.99999999998
 20
-483.0000000000008
 30
0.0
 11
12209.99999999998
 21
-483.0000000000008
 31
0.0
1001
ACDBBLOCKREPETAG
1070
     1
1071
       83
1005
126B2A
  0
LINE
  5
126B2B
  8
OBJECT
 10
12209.99999999998
 20
-483.0000000000008
 30
0.0
 11
12209.99999999998
 21
-607.00000000000091
 31
0.0
1001
ACDBBLOCKREPETAG
1070
     1
1071
       84
1005
126B2B
  0
LINE
  5
126B2C
  8
OBJECT
 10
12085.99999999998
 20
-553.3502637757274
 30
0.0
 11
12085.99999999998
 21
-655.00000000000091
 31
0.0
1001
ACDBBLOCKREPETAG
1070
     1
1071
       85
1005
126B2C
  0
LINE
  5
126B2D
  8
OBJECT
 10
12209.99999999998
 20
-607.00000000000091
 30
0.0
 11
12202.99999999998
 21
-607.00000000000091
 31
0.0
1001
ACDBBLOCKREPETAG
1070
     1
1071
       86
1005
126B2D
  0
LINE
  5
126B2E
  8
OBJECT
 10
12202.99999999998
 20
-607.00000000000091
 30
0.0
 11
12202.99999999998
 21
-483.0000000000008
 31
0.0
1001
ACDBBLOCKREPETAG
1070
     1
1071
       87
1005
126B2E
  0
LINE
  5
126B2F
  8
CENTER
 10
12134.99999999998
 20
-545.00000000000091
 30
0.0
 11
12224.99999999998
 21
-545.00000000000091
 31
0.0
1001
ACDBBLOCKREPETAG
1070
     1
1071
       88
1005
126B2F
  0
LINE
  5
126B30
  8
OBJECT
 10
12079.99999999998
 20
-658.0
 30
0.0
 11
12082.99999999998
 21
-658.0000000000008
 31
0.0
1001
ACDBBLOCKREPETAG
1070
     1
1071
       89
1005
126B30
  0
ARC
  5
126B31
  8
OBJECT
 10
12082.99999999998
 20
-655.00000000000091
 30
0.0
 40
3.0
 50
270.0
 51
0.0
1001
ACDBBLOCKREPETAG
1070
     1
1071
       90
1005
126B31
  0
LINE
  5
126B32
  8
OBJECT
 10
12202.99999999998
 20
-486.00000000000091
 30
0.0
 11
12166.99999999998
 21
-486.00000000000091
 31
0.0
1001
ACDBBLOCKREPETAG
1070
     1
1071
       91
1005
126B32
  0
LINE
  5
126B33
  8
OBJECT
 10
12166.99999999998
 20
-486.00000000000091
 30
0.0
 11
12166.99999999998
 21
-604.0000000000008
 31
0.0
1001
ACDBBLOCKREPETAG
1070
     1
1071
       92
1005
126B33
  0
LINE
  5
126B34
  8
OBJECT
 10
12162.99999999998
 20
-490.50000000000091
 30
0.0
 11
12162.99999999998
 21
-599.5000000000008
 31
0.0
1001
ACDBBLOCKREPETAG
1070
     1
1071
       93
1005
126B34
  0
LINE
  5
126B35
  8
OBJECT
 10
12162.99999999998
 20
-490.50000000000091
 30
0.0
 11
12149.99999999998
 21
-490.50000000000091
 31
0.0
1001
ACDBBLOCKREPETAG
1070
     1
1071
       94
1005
126B35
  0
LINE
  5
126B36
  8
OBJECT
 10
12166.99999999998
 20
-604.0000000000008
 30
0.0
 11
12202.99999999998
 21
-604.0000000000008
 31
0.0
1001
ACDBBLOCKREPETAG
1070
     1
1071
       95
1005
126B36
  0
LINE
  5
126B37
  8
OBJECT
 10
12166.99999999998
 20
-486.00000000000091
 30
0.0
 11
12162.99999999998
 21
-490.50000000000091
 31
0.0
1001
ACDBBLOCKREPETAG
1070
     1
1071
       96
1005
126B37
  0
LINE
  5
126B38
  8
OBJECT
 10
12149.99999999998
 20
-490.50000000000091
 30
0.0
 11
12149.99999999998
 21
-575.74491827928784
 31
0.0
1001
ACDBBLOCKREPETAG
1070
     1
1071
       97
1005
126B38
  0
ARC
  5
126B39
  8
OBJECT
 10
12152.799999999979
 20
-585.00000000000091
 30
0.0
 40
85.0
 50
91.887731891831109
 51
143.1301023540934
1001
ACDBBLOCKREPETAG
1070
     1
1071
       98
1005
126B39
  0
LINE
  5
126B3A
  8
HIDDEN
 10
12157.99999999998
 20
-500.5000000000008
 30
0.0
 11
12157.99999999998
 21
-589.50000000000091
 31
0.0
1001
ACDBBLOCKREPETAG
1070
     1
1071
      100
1005
126B3A
  0
LINE
  5
126B3B
  8
OBJECT
 10
12085.99999999998
 20
-651.07945073181781
 30
0.0
 11
12156.631319921031
 21
-599.5000000000008
 31
0.0
1001
ACDBBLOCKREPETAG
1070
     1
1071
      101
1005
126B3B
  0
LINE
  5
126B3C
  8
OBJECT
 10
12079.99999999998
 20
-534.0
 30
0.0
 11
12084.799999999979
 21
-534.0
 31
0.0
1001
ACDBBLOCKREPETAG
1070
     1
1071
      102
1005
126B3C
  0
LINE
  5
126B3D
  8
OBJECT
 10
12085.99999999998
 20
-553.35026377573013
 30
0.0
 11
12084.799999999979
 21
-534.0
 31
0.0
1001
ACDBBLOCKREPETAG
1070
     1
1071
      103
1005
126B3D
  0
LINE
  5
126B3E
  8
OBJECT
 10
12162.99999999998
 20
-599.5000000000008
 30
0.0
 11
12156.631319921031
 21
-599.5000000000008
 31
0.0
1001
ACDBBLOCKREPETAG
1070
     1
1071
      104
1005
126B3E
  0
LINE
  5
126B3F
  8
OBJECT
 10
12166.99999999998
 20
-604.0000000000008
 30
0.0
 11
12162.99999999998
 21
-599.5000000000008
 31
0.0
1001
ACDBBLOCKREPETAG
1070
     1
1071
      105
1005
126B3F
  0
LINE
  5
126B40
  8
OBJECT
 10
12202.99999999998
 20
-137.99999999999909
 30
0.0
 11
12209.99999999998
 21
-137.99999999999909
 31
0.0
1001
ACDBBLOCKREPETAG
1070
     1
1071
       85
1005
126B40
  0
LINE
  5
126B41
  8
OBJECT
 10
12209.99999999998
 20
-137.99999999999909
 30
0.0
 11
12209.99999999998
 21
-261.99999999999909
 31
0.0
1001
ACDBBLOCKREPETAG
1070
     1
1071
       86
1005
126B41
  0
LINE
  5
126B42
  8
OBJECT
 10
12209.99999999998
 20
-261.99999999999909
 30
0.0
 11
12202.99999999998
 21
-261.99999999999909
 31
0.0
1001
ACDBBLOCKREPETAG
1070
     1
1071
       87
1005
126B42
  0
LINE
  5
126B43
  8
OBJECT
 10
12202.99999999998
 20
-261.99999999999909
 30
0.0
 11
12202.99999999998
 21
-137.99999999999909
 31
0.0
1001
ACDBBLOCKREPETAG
1070
     1
1071
       88
1005
126B43
  0
LINE
  5
126B44
  8
CENTER
 10
12224.99999999998
 20
-199.99999999999909
 30
0.0
 11
12080.0
 21
-199.99999999999909
 31
0.0
1001
ACDBBLOCKREPETAG
1070
     1
1071
       89
1005
126B44
  0
LINE
  5
126B45
  8
OBJECT
 10
12149.999974964179
 20
-245.0000000000027
 30
0.0
 11
12086.0
 21
-244.99999999999909
 31
0.0
1001
ACDBBLOCKREPETAG
1070
     1
1071
       90
1005
126B45
  0
LINE
  5
126B46
  8
OBJECT
 10
12149.999974964179
 20
-154.99999999999909
 30
0.0
 11
12086.0
 21
-154.99999999999909
 31
0.0
1001
ACDBBLOCKREPETAG
1070
     1
1071
       91
1005
126B46
  0
LINE
  5
126B47
  8
OBJECT
 10
12202.99999999998
 20
-140.99999999999909
 30
0.0
 11
12166.99999999998
 21
-140.99999999999909
 31
0.0
1001
ACDBBLOCKREPETAG
1070
     1
1071
       92
1005
126B47
  0
LINE
  5
126B48
  8
OBJECT
 10
12166.99999999998
 20
-140.99999999999909
 30
0.0
 11
12166.99999999998
 21
-258.99999999999909
 31
0.0
1001
ACDBBLOCKREPETAG
1070
     1
1071
       93
1005
126B48
  0
LINE
  5
126B49
  8
OBJECT
 10
12166.99999999998
 20
-258.99999999999909
 30
0.0
 11
12202.99999999998
 21
-258.99999999999909
 31
0.0
1001
ACDBBLOCKREPETAG
1070
     1
1071
       94
1005
126B49
  0
LINE
  5
126B4A
  8
OBJECT
 10
12162.99999999998
 20
-145.49999999999909
 30
0.0
 11
12149.99999999998
 21
-145.49999999999909
 31
0.0
1001
ACDBBLOCKREPETAG
1070
     1
1071
       95
1005
126B4A
  0
LINE
  5
126B4B
  8
OBJECT
 10
12149.99999999998
 20
-254.49999999999909
 30
0.0
 11
12162.99999999998
 21
-254.49999999999909
 31
0.0
1001
ACDBBLOCKREPETAG
1070
     1
1071
       96
1005
126B4B
  0
LINE
  5
126B4C
  8
OBJECT
 10
12162.99999999998
 20
-254.49999999999909
 30
0.0
 11
12162.99999999998
 21
-145.49999999999909
 31
0.0
1001
ACDBBLOCKREPETAG
1070
     1
1071
       97
1005
126B4C
  0
LINE
  5
126B4D
  8
OBJECT
 10
12166.99999999998
 20
-140.99999999999909
 30
0.0
 11
12162.99999999998
 21
-145.49999999999909
 31
0.0
1001
ACDBBLOCKREPETAG
1070
     1
1071
       98
1005
126B4D
  0
LINE
  5
126B4E
  8
OBJECT
 10
12166.99999999998
 20
-258.99999999999909
 30
0.0
 11
12162.99999999998
 21
-254.49999999999909
 31
0.0
1001
ACDBBLOCKREPETAG
1070
     1
1071
       99
1005
126B4E
  0
LINE
  5
126B4F
  8
OBJECT
 10
12083.0
 20
-137.99999999999909
 30
0.0
 11
12080.0
 21
-137.99999999999909
 31
0.0
1001
ACDBBLOCKREPETAG
1070
     1
1071
      100
1005
126B4F
  0
ARC
  5
126B50
  8
OBJECT
 10
12083.0
 20
-140.99999999999909
 30
0.0
 40
3.0
 50
0.0
 51
90.0
1001
ACDBBLOCKREPETAG
1070
     1
1071
      101
1005
126B50
  0
LINE
  5
126B51
  8
OBJECT
 10
12080.0
 20
-261.99999999999909
 30
0.0
 11
12083.0
 21
-261.99999999999909
 31
0.0
1001
ACDBBLOCKREPETAG
1070
     1
1071
      102
1005
126B51
  0
ARC
  5
126B52
  8
OBJECT
 10
12083.0
 20
-258.99999999999909
 30
0.0
 40
3.0
 50
270.0
 51
0.0
1001
ACDBBLOCKREPETAG
1070
     1
1071
      103
1005
126B52
  0
LINE
  5
126B53
  8
OBJECT
 10
12086.0
 20
-258.99999999999909
 30
0.0
 11
12086.0
 21
-210.3227903203578
 31
0.0
1001
ACDBBLOCKREPETAG
1070
     1
1071
      104
1005
126B53
  0
LINE
  5
126B54
  8
OBJECT
 10
12086.0
 20
-189.6772096796403
 30
0.0
 11
12086.0
 21
-140.99999999999909
 31
0.0
1001
ACDBBLOCKREPETAG
1070
     1
1071
      105
1005
126B54
  0
LINE
  5
126B55
  8
HIDDEN
 10
12157.99999999998
 20
-155.49999999999909
 30
0.0
 11
12157.99999999998
 21
-244.49999999999909
 31
0.0
1001
ACDBBLOCKREPETAG
1070
     1
1071
      106
1005
126B55
  0
LINE
  5
126B56
  8
OBJECT
 10
12149.999974964179
 20
-254.4999509238105
 30
0.0
 11
12149.999974964179
 21
-145.4999509238105
 31
0.0
1001
ACDBBLOCKREPETAG
1070
     1
1071
      108
1005
126B56
  0
ARC
  5
126B57
  8
OBJECT
 10
12129.800000000019
 20
-199.99999999999909
 30
0.0
 40
45.000000000000547
 50
90.0
 51
270.0
1001
ACDBBLOCKREPETAG
1070
     1
1071
      109
1005
126B57
  0
LINE
  5
126B58
  8
OBJECT
 10
9918.0
 20
-470.99999999999949
 30
0.0
 11
9918.0
 21
-449.99999999999949
 31
0.0
1001
ACDBBLOCKREPETAG
1070
     1
1071
        0
1005
126B58
  0
LINE
  5
126B59
  8
OBJECT
 10
9918.0
 20
-449.99999999999949
 30
0.0
 11
10082.0
 21
-449.99999999999949
 31
0.0
1001
ACDBBLOCKREPETAG
1070
     1
1071
        1
1005
126B59
  0
LINE
  5
126B5A
  8
HIDDEN
 10
9943.0
 20
-519.99999999999955
 30
0.0
 11
10057.0
 21
-519.99999999999955
 31
0.0
1001
ACDBBLOCKREPETAG
1070
     1
1071
        2
1005
126B5A
  0
LINE
  5
126B5B
  8
OBJECT
 10
10082.0
 20
-470.99999999999949
 30
0.0
 11
9918.0
 21
-470.99999999999949
 31
0.0
1001
ACDBBLOCKREPETAG
1070
     1
1071
        3
1005
126B5B
  0
LINE
  5
126B5C
  8
CENTER
 10
10000.0
 20
-434.99999999999949
 30
0.0
 11
10000.0
 21
-799.99999999999955
 31
0.0
1001
ACDBBLOCKREPETAG
1070
     1
1071
        4
1005
126B5C
  0
LINE
  5
126B5D
  8
OBJECT
 10
9925.0
 20
-533.99999999999955
 30
0.0
 11
9925.0
 21
-787.99999999999955
 31
0.0
1001
ACDBBLOCKREPETAG
1070
     1
1071
        5
1005
126B5D
  0
LINE
  5
126B5E
  8
OBJECT
 10
9928.0
 20
-470.99999999999949
 30
0.0
 11
9928.0
 21
-533.99999999999955
 31
0.0
1001
ACDBBLOCKREPETAG
1070
     1
1071
        6
1005
126B5E
  0
LINE
  5
126B5F
  8
OBJECT
 10
10072.0
 20
-533.99999999999955
 30
0.0
 11
10072.0
 21
-470.99999999999949
 31
0.0
1001
ACDBBLOCKREPETAG
1070
     1
1071
        7
1005
126B5F
  0
LINE
  5
126B60
  8
OBJECT
 10
9920.0
 20
-787.99999999999955
 30
0.0
 11
10080.0
 21
-787.99999999999955
 31
0.0
1001
ACDBBLOCKREPETAG
1070
     1
1071
        8
1005
126B60
  0
LINE
  5
126B61
  8
OBJECT
 10
10080.0
 20
-533.99999999999955
 30
0.0
 11
9925.0
 21
-533.99999999999955
 31
0.0
1001
ACDBBLOCKREPETAG
1070
     1
1071
        9
1005
126B61
  0
LINE
  5
126B62
  8
OBJECT
 10
9920.0
 20
-787.99999999999955
 30
0.0
 11
9920.0
 21
-799.99999999999955
 31
0.0
1001
ACDBBLOCKREPETAG
1070
     1
1071
       10
1005
126B62
  0
LINE
  5
126B63
  8
OBJECT
 10
9920.0
 20
-799.99999999999955
 30
0.0
 11
10080.0
 21
-799.99999999999955
 31
0.0
1001
ACDBBLOCKREPETAG
1070
     1
1071
       11
1005
126B63
  0
LINE
  5
126B64
  8
OBJECT
 10
10080.0
 20
-799.99999999999955
 30
0.0
 11
10080.0
 21
-787.99999999999955
 31
0.0
1001
ACDBBLOCKREPETAG
1070
     1
1071
       12
1005
126B64
  0
LINE
  5
126B65
  8
OBJECT
 10
10074.99999999986
 20
-657.99999999985039
 30
0.0
 11
10075.0
 21
-787.99999999999955
 31
0.0
1001
ACDBBLOCKREPETAG
1070
     1
1071
       14
1005
126B65
  0
LINE
  5
126B66
  8
OBJECT
 10
10074.99999080298
 20
-657.99998602702135
 30
0.0
 11
10080.0
 21
-657.99998602702135
 31
0.0
1001
ACDBBLOCKREPETAG
1070
     1
1071
       15
1005
126B66
  0
LINE
  5
126B67
  8
OBJECT
 10
9920.7940817120252
 20
-449.99999999999949
 30
0.0
 11
9920.7940817120252
 21
-470.99999999999949
 31
0.0
1001
ACDBBLOCKREPETAG
1070
     1
1071
       16
1005
126B67
  0
LINE
  5
126B68
  8
OBJECT
 10
9928.7378959999987
 20
-449.99999999999949
 30
0.0
 11
9928.7378959999987
 21
-470.99999999999949
 31
0.0
1001
ACDBBLOCKREPETAG
1070
     1
1071
       17
1005
126B68
  0
LINE
  5
126B69
  8
OBJECT
 10
9970.8330260000002
 20
-449.99999999999949
 30
0.0
 11
9970.8330260000002
 21
-470.99999999999949
 31
0.0
1001
ACDBBLOCKREPETAG
1070
     1
1071
       18
1005
126B69
  0
LINE
  5
126B6A
  8
OBJECT
 10
9978.7768389218018
 20
-449.99999999999949
 30
0.0
 11
9978.7768389218018
 21
-470.99999999999949
 31
0.0
1001
ACDBBLOCKREPETAG
1070
     1
1071
       19
1005
126B6A
  0
LINE
  5
126B6B
  8
OBJECT
 10
10082.0
 20
-470.99999999999949
 30
0.0
 11
10082.0
 21
-449.99999999999949
 31
0.0
1001
ACDBBLOCKREPETAG
1070
     1
1071
       20
1005
126B6B
  0
LINE
  5
126B6C
  8
OBJECT
 10
10079.205918287969
 20
-449.99999999999949
 30
0.0
 11
10079.205918287969
 21
-470.99999999999949
 31
0.0
1001
ACDBBLOCKREPETAG
1070
     1
1071
       21
1005
126B6C
  0
LINE
  5
126B6D
  8
OBJECT
 10
10071.262103999999
 20
-449.99999999999949
 30
0.0
 11
10071.262103999999
 21
-470.99999999999949
 31
0.0
1001
ACDBBLOCKREPETAG
1070
     1
1071
       22
1005
126B6D
  0
LINE
  5
126B6E
  8
OBJECT
 10
10029.166974
 20
-449.99999999999949
 30
0.0
 11
10029.166974
 21
-470.99999999999949
 31
0.0
1001
ACDBBLOCKREPETAG
1070
     1
1071
       23
1005
126B6E
  0
LINE
  5
126B6F
  8
OBJECT
 10
10021.2231610782
 20
-449.99999999999949
 30
0.0
 11
10021.2231610782
 21
-470.99999999999949
 31
0.0
1001
ACDBBLOCKREPETAG
1070
     1
1071
       24
1005
126B6F
  0
ARC
  5
126B70
  8
OBJECT
 10
10200.687274671671
 20
-649.40809941010718
 30
0.0
 40
170.6350503965856
 50
137.44134459184301
 51
149.91949581337221
1001
ACDBBLOCKREPETAG
1070
     1
1071
       25
1005
126B70
  0
ARC
  5
126B71
  8
OBJECT
 10
10118.845598704051
 20
-605.88272669536445
 30
0.0
 40
78.072222021763665
 50
147.4551531038293
 51
164.66365997718549
1001
ACDBBLOCKREPETAG
1070
     1
1071
       26
1005
126B71
  0
ARC
  5
126B72
  8
OBJECT
 10
10085.755434960871
 20
-595.99999999999955
 30
0.0
 40
43.553539268856177
 50
165.688452300753
 51
194.31154769924689
1001
ACDBBLOCKREPETAG
1070
     1
1071
       27
1005
126B72
  0
ARC
  5
126B73
  8
OBJECT
 10
10200.687274671671
 20
-542.59190058989179
 30
0.0
 40
170.6350503965856
 50
210.08050418662779
 51
222.55865540815699
1001
ACDBBLOCKREPETAG
1070
     1
1071
       28
1005
126B73
  0
ARC
  5
126B74
  8
OBJECT
 10
10118.845598704051
 20
-586.11727330463464
 30
0.0
 40
78.072222021763665
 50
195.33634002281451
 51
212.54484689617061
1001
ACDBBLOCKREPETAG
1070
     1
1071
       29
1005
126B74
  0
POINT
  5
126B75
  8
DOTS
 10
10000.0
 20
-654.99999999999955
 30
0.0
1001
ACDBBLOCKREPETAG
1070
     1
1071
      204
1005
126B75
  0
LINE
  5
126B76
  8
SLIM
 10
9927.3018300565236
 20
-155.95484036957669
 30
0.0
 11
9955.9548403695771
 21
-127.30183005652241
 31
0.0
1001
GRADIENTCOLOR1ACI
1070
     5
1001
GRADIENTCOLOR2ACI
1070
     2
1001
ACAD
1010
0.0
1020
0.0
1030
0.0
1001
ACDBBLOCKREPETAG
1070
     1
1071
      416
1005
126B76
  0
LINE
  5
126B77
  8
SLIM
 10
9919.4861520708382
 20
-172.7507744763318
 30
0.0
 11
9938.2903089572719
 21
-153.9466175898965
 31
0.0
1001
GRADIENTCOLOR1ACI
1070
     5
1001
GRADIENTCOLOR2ACI
1070
     2
1001
ACAD
1010
0.0
1020
0.0
1030
0.0
1001
ACDBBLOCKREPETAG
1070
     1
1071
      417
1005
126B77
  0
LINE
  5
126B78
  8
SLIM
 10
9953.9466175898997
 20
-138.29030895727169
 30
0.0
 11
9972.7507744763334
 21
-119.4861520708365
 31
0.0
1001
GRADIENTCOLOR1ACI
1070
     5
1001
GRADIENTCOLOR2ACI
1070
     2
1001
ACAD
1010
0.0
1020
0.0
1030
0.0
1001
ACDBBLOCKREPETAG
1070
     1
1071
      418
1005
126B78
  0
LINE
  5
126B79
  8
SLIM
 10
9916.3596679933798
 20
-184.85751467486031
 30
0.0
 11
9920.2360914370092
 21
-180.9810912312297
 31
0.0
1001
GRADIENTCOLOR1ACI
1070
     5
1001
GRADIENTCOLOR2ACI
1070
     2
1001
ACAD
1010
0.0
1020
0.0
1030
0.0
1001
ACDBBLOCKREPETAG
1070
     1
1071
      419
1005
126B79
  0
LINE
  5
126B7A
  8
SLIM
 10
9980.9810912312314
 20
-120.2360914370078
 30
0.0
 11
9984.8575146748626
 21
-116.359667993377
 31
0.0
1001
GRADIENTCOLOR1ACI
1070
     5
1001
GRADIENTCOLOR2ACI
1070
     2
1001
ACAD
1010
0.0
1020
0.0
1030
0.0
1001
ACDBBLOCKREPETAG
1070
     1
1071
      420
1005
126B7A
  0
LINE
  5
126B7B
  8
SLIM
 10
9915.1440575890538
 20
-195.0533812002549
 30
0.0
 11
9918.4125503387295
 21
-191.78488845057959
 31
0.0
1001
GRADIENTCOLOR1ACI
1070
     5
1001
GRADIENTCOLOR2ACI
1070
     2
1001
ACAD
1010
0.0
1020
0.0
1030
0.0
1001
ACDBBLOCKREPETAG
1070
     1
1071
      421
1005
126B7B
  0
LINE
  5
126B7C
  8
SLIM
 10
9991.7848884505802
 20
-118.4125503387271
 30
0.0
 11
9995.0533812002577
 21
-115.1440575890517
 31
0.0
1001
GRADIENTCOLOR1ACI
1070
     5
1001
GRADIENTCOLOR2ACI
1070
     2
1001
ACAD
1010
0.0
1020
0.0
1030
0.0
1001
ACDBBLOCKREPETAG
1070
     1
1071
      422
1005
126B7C
  0
LINE
  5
126B7D
  8
SLIM
 10
9915.0979635574731
 20
-204.07973135290339
 30
0.0
 11
9918.0083381990498
 21
-201.16935671132859
 31
0.0
1001
GRADIENTCOLOR1ACI
1070
     5
1001
GRADIENTCOLOR2ACI
1070
     2
1001
ACAD
1010
0.0
1020
0.0
1030
0.0
1001
ACDBBLOCKREPETAG
1070
     1
1071
      423
1005
126B7D
  0
LINE
  5
126B7E
  8
SLIM
 10
10001.169356711331
 20
-118.0083381990472
 30
0.0
 11
10004.0797313529
 21
-115.0979635574724
 31
0.0
1001
GRADIENTCOLOR1ACI
1070
     5
1001
GRADIENTCOLOR2ACI
1070
     2
1001
ACAD
1010
0.0
1020
0.0
1030
0.0
1001
ACDBBLOCKREPETAG
1070
     1
1071
      424
1005
126B7E
  0
LINE
  5
126B7F
  8
SLIM
 10
9915.8899726208747
 20
-212.2679784105739
 30
0.0
 11
9918.5632639426876
 21
-209.59468708876071
 31
0.0
1001
GRADIENTCOLOR1ACI
1070
     5
1001
GRADIENTCOLOR2ACI
1070
     2
1001
ACAD
1010
0.0
1020
0.0
1030
0.0
1001
ACDBBLOCKREPETAG
1070
     1
1071
      425
1005
126B7F
  0
LINE
  5
126B80
  8
SLIM
 10
10009.59468708876
 20
-118.5632639426843
 30
0.0
 11
10012.267978410569
 21
-115.88997262087101
 31
0.0
1001
GRADIENTCOLOR1ACI
1070
     5
1001
GRADIENTCOLOR2ACI
1070
     2
1001
ACAD
1010
0.0
1020
0.0
1030
0.0
1001
ACDBBLOCKREPETAG
1070
     1
1071
      426
1005
126B80
  0
LINE
  5
126B81
  8
SLIM
 10
9917.3382656951544
 20
-219.7999414573614
 30
0.0
 11
9919.8443793594906
 21
-217.29382779302409
 31
0.0
1001
GRADIENTCOLOR1ACI
1070
     5
1001
GRADIENTCOLOR2ACI
1070
     2
1001
ACAD
1010
0.0
1020
0.0
1030
0.0
1001
ACDBBLOCKREPETAG
1070
     1
1071
      427
1005
126B81
  0
LINE
  5
126B82
  8
SLIM
 10
10017.293827793021
 20
-119.84437935949001
 30
0.0
 11
10019.799941457361
 21
-117.3382656951527
 31
0.0
1001
GRADIENTCOLOR1ACI
1070
     5
1001
GRADIENTCOLOR2ACI
1070
     2
1001
ACAD
1010
0.0
1020
0.0
1030
0.0
1001
ACDBBLOCKREPETAG
1070
     1
1071
      428
1005
126B82
  0
LINE
  5
126B83
  8
SLIM
 10
9919.3312594063045
 20
-226.78720386727881
 30
0.0
 11
9922.8446926367924
 21
-223.27377063679219
 31
0.0
1001
GRADIENTCOLOR1ACI
1070
     5
1001
GRADIENTCOLOR2ACI
1070
     2
1001
ACAD
1010
0.0
1020
0.0
1030
0.0
1001
ACDBBLOCKREPETAG
1070
     1
1071
      429
1005
126B83
  0
LINE
  5
126B84
  8
SLIM
 10
10023.27377163679
 20
-122.8446916367926
 30
0.0
 11
10026.787203867279
 21
-119.3312594063045
 31
0.0
1001
GRADIENTCOLOR1ACI
1070
     5
1001
GRADIENTCOLOR2ACI
1070
     2
1001
ACAD
1010
0.0
1020
0.0
1030
0.0
1001
ACDBBLOCKREPETAG
1070
     1
1071
      430
1005
126B84
  0
LINE
  5
126B85
  8
SLIM
 10
9921.7957163186184
 20
-233.30300307603281
 30
0.0
 11
9927.3348206973278
 21
-227.76389869732679
 31
0.0
1001
GRADIENTCOLOR1ACI
1070
     5
1001
GRADIENTCOLOR2ACI
1070
     2
1001
ACAD
1010
0.0
1020
0.0
1030
0.0
1001
ACDBBLOCKREPETAG
1070
     1
1071
      431
1005
126B85
  0
LINE
  5
126B86
  8
SLIM
 10
10027.76389969732
 20
-127.33481969732929
 30
0.0
 11
10033.303003076029
 21
-121.7957163186195
 31
0.0
1001
GRADIENTCOLOR1ACI
1070
     5
1001
GRADIENTCOLOR2ACI
1070
     2
1001
ACAD
1010
0.0
1020
0.0
1030
0.0
1001
ACDBBLOCKREPETAG
1070
     1
1071
      432
1005
126B86
  0
LINE
  5
126B87
  8
SLIM
 10
9924.6816635313444
 20
-239.39731198437761
 30
0.0
 11
9930.6398768643921
 21
-233.4390986513296
 31
0.0
1001
GRADIENTCOLOR1ACI
1070
     5
1001
GRADIENTCOLOR2ACI
1070
     2
1001
ACAD
1010
0.0
1020
0.0
1030
0.0
1001
ACDBBLOCKREPETAG
1070
     1
1071
      433
1005
126B87
  0
LINE
  5
126B88
  8
SLIM
 10
10033.43909865133
 20
-130.63987686439191
 30
0.0
 11
10039.39731198437
 21
-124.681663531344
 31
0.0
1001
GRADIENTCOLOR1ACI
1070
     5
1001
GRADIENTCOLOR2ACI
1070
     2
1001
ACAD
1010
0.0
1020
0.0
1030
0.0
1001
ACDBBLOCKREPETAG
1070
     1
1071
      434
1005
126B88
  0
LINE
  5
126B89
  8
SLIM
 10
9927.9544611024248
 20
-245.10477053436679
 30
0.0
 11
9933.7750070149923
 21
-239.28422462179759
 31
0.0
1001
GRADIENTCOLOR1ACI
1070
     5
1001
GRADIENTCOLOR2ACI
1070
     2
1001
ACAD
1010
0.0
1020
0.0
1030
0.0
1001
ACDBBLOCKREPETAG
1070
     1
1071
      435
1005
126B89
  0
LINE
  5
126B8A
  8
SLIM
 10
10039.284224621801
 20
-133.77500701499309
 30
0.0
 11
10045.104770534361
 21
-127.95446110242381
 31
0.0
1001
GRADIENTCOLOR1ACI
1070
     5
1001
GRADIENTCOLOR2ACI
1070
     2
1001
ACAD
1010
0.0
1020
0.0
1030
0.0
1001
ACDBBLOCKREPETAG
1070
     1
1071
      436
1005
126B8A
  0
LINE
  5
126B8B
  8
SLIM
 10
9931.5903319686659
 20
-250.44915578919529
 30
0.0
 11
9937.3182075880577
 21
-244.72128016980349
 31
0.0
1001
GRADIENTCOLOR1ACI
1070
     5
1001
GRADIENTCOLOR2ACI
1070
     2
1001
ACAD
1010
0.0
1020
0.0
1030
0.0
1001
ACDBBLOCKREPETAG
1070
     1
1071
      437
1005
126B8B
  0
LINE
  5
126B8C
  8
SLIM
 10
10044.721280169801
 20
-137.31820758805651
 30
0.0
 11
10050.449155789191
 21
-131.59033196866449
 31
0.0
1001
GRADIENTCOLOR1ACI
1070
     5
1001
GRADIENTCOLOR2ACI
1070
     2
1001
ACAD
1010
0.0
1020
0.0
1030
0.0
1001
ACDBBLOCKREPETAG
1070
     1
1071
      438
1005
126B8C
  0
LINE
  5
126B8D
  8
SLIM
 10
9935.5737496925285
 20
-255.44599418640331
 30
0.0
 11
9941.2481105415918
 21
-249.77163333734029
 31
0.0
1001
GRADIENTCOLOR1ACI
1070
     5
1001
GRADIENTCOLOR2ACI
1070
     2
1001
ACAD
1010
0.0
1020
0.0
1030
0.0
1001
ACDBBLOCKREPETAG
1070
     1
1071
      439
1005
126B8D
  0
LINE
  5
126B8E
  8
SLIM
 10
10053.019743878929
 20
-137.99999999999901
 30
0.0
 11
10055.445994186401
 21
-135.57374969252561
 31
0.0
1001
GRADIENTCOLOR1ACI
1070
     5
1001
GRADIENTCOLOR2ACI
1070
     2
1001
ACAD
1010
0.0
1020
0.0
1030
0.0
1001
ACDBBLOCKREPETAG
1070
     1
1071
      440
1005
126B8E
  0
LINE
  5
126B8F
  8
SLIM
 10
9939.8959235991442
 20
-260.10407640085549
 30
0.0
 11
9945.5527778486357
 21
-254.44722215136329
 31
0.0
1001
GRADIENTCOLOR1ACI
1070
     5
1001
GRADIENTCOLOR2ACI
1070
     2
1001
ACAD
1010
0.0
1020
0.0
1030
0.0
1001
ACDBBLOCKREPETAG
1070
     1
1071
      441
1005
126B8F
  0
LINE
  5
126B90
  8
SLIM
 10
9944.5540058135957
 20
-264.42625030747251
 30
0.0
 11
9950.2283666626608
 21
-258.75188945840949
 31
0.0
1001
GRADIENTCOLOR1ACI
1070
     5
1001
GRADIENTCOLOR2ACI
1070
     2
1001
ACAD
1010
0.0
1020
0.0
1030
0.0
1001
ACDBBLOCKREPETAG
1070
     1
1071
      442
1005
126B90
  0
LINE
  5
126B91
  8
SLIM
 10
9949.5508442108039
 20
-268.40966803133369
 30
0.0
 11
9955.2787198301976
 21
-262.68179241194167
 31
0.0
1001
GRADIENTCOLOR1ACI
1070
     5
1001
GRADIENTCOLOR2ACI
1070
     2
1001
ACAD
1010
0.0
1020
0.0
1030
0.0
1001
ACDBBLOCKREPETAG
1070
     1
1071
      443
1005
126B91
  0
LINE
  5
126B92
  8
SLIM
 10
9954.8952294656319
 20
-272.04553889757432
 30
0.0
 11
9960.7157753782012
 21
-266.22499298500497
 31
0.0
1001
GRADIENTCOLOR1ACI
1070
     5
1001
GRADIENTCOLOR2ACI
1070
     2
1001
ACAD
1010
0.0
1020
0.0
1030
0.0
1001
ACDBBLOCKREPETAG
1070
     1
1071
      444
1005
126B92
  0
LINE
  5
126B93
  8
SLIM
 10
9960.6026880156223
 20
-275.31833646865419
 30
0.0
 11
9966.5609013486719
 21
-269.36012313560622
 31
0.0
1001
GRADIENTCOLOR1ACI
1070
     5
1001
GRADIENTCOLOR2ACI
1070
     2
1001
ACAD
1010
0.0
1020
0.0
1030
0.0
1001
ACDBBLOCKREPETAG
1070
     1
1071
      445
1005
126B93
  0
LINE
  5
126B94
  8
SLIM
 10
9966.6969969239653
 20
-278.20428368137863
 30
0.0
 11
9972.2361008026728
 21
-272.66517980267162
 31
0.0
1001
GRADIENTCOLOR1ACI
1070
     5
1001
GRADIENTCOLOR2ACI
1070
     2
1001
ACAD
1010
0.0
1020
0.0
1030
0.0
1001
ACDBBLOCKREPETAG
1070
     1
1071
      446
1005
126B94
  0
LINE
  5
126B95
  8
SLIM
 10
9973.2127961327205
 20
-280.66874059369371
 30
0.0
 11
9976.7262288632082
 21
-277.15530786320562
 31
0.0
1001
GRADIENTCOLOR1ACI
1070
     5
1001
GRADIENTCOLOR2ACI
1070
     2
1001
ACAD
1010
0.0
1020
0.0
1030
0.0
1001
ACDBBLOCKREPETAG
1070
     1
1071
      447
1005
126B95
  0
LINE
  5
126B96
  8
SLIM
 10
9980.2000585426395
 20
-282.66173430484548
 30
0.0
 11
9982.7061722069757
 21
-280.15562064050812
 31
0.0
1001
GRADIENTCOLOR1ACI
1070
     5
1001
GRADIENTCOLOR2ACI
1070
     2
1001
ACAD
1010
0.0
1020
0.0
1030
0.0
1001
ACDBBLOCKREPETAG
1070
     1
1071
      448
1005
126B96
  0
LINE
  5
126B97
  8
SLIM
 10
9987.7320215894251
 20
-284.11002737912708
 30
0.0
 11
9990.4053129112399
 21
-281.43673605731391
 31
0.0
1001
GRADIENTCOLOR1ACI
1070
     5
1001
GRADIENTCOLOR2ACI
1070
     2
1001
ACAD
1010
0.0
1020
0.0
1030
0.0
1001
ACDBBLOCKREPETAG
1070
     1
1071
      449
1005
126B97
  0
LINE
  5
126B98
  8
SLIM
 10
9995.9202686470962
 20
-284.90203644252568
 30
0.0
 11
9998.8306432886711
 21
-281.99166180095102
 31
0.0
1001
GRADIENTCOLOR1ACI
1070
     5
1001
GRADIENTCOLOR2ACI
1070
     2
1001
ACAD
1010
0.0
1020
0.0
1030
0.0
1001
ACDBBLOCKREPETAG
1070
     1
1071
      450
1005
126B98
  0
LINE
  5
126B99
  8
SLIM
 10
10004.94661879974
 20
-284.8559424109464
 30
0.0
 11
10008.21511154942
 21
-281.58744966127108
 31
0.0
1001
GRADIENTCOLOR1ACI
1070
     5
1001
GRADIENTCOLOR2ACI
1070
     2
1001
ACAD
1010
0.0
1020
0.0
1030
0.0
1001
ACDBBLOCKREPETAG
1070
     1
1071
      451
1005
126B99
  0
LINE
  5
126B9A
  8
SLIM
 10
10015.142485325139
 20
-283.64033200662112
 30
0.0
 11
10019.01890876877
 21
-279.76390856299031
 31
0.0
1001
GRADIENTCOLOR1ACI
1070
     5
1001
GRADIENTCOLOR2ACI
1070
     2
1001
ACAD
1010
0.0
1020
0.0
1030
0.0
1001
ACDBBLOCKREPETAG
1070
     1
1071
      452
1005
126B9A
  0
LINE
  5
126B9B
  8
SLIM
 10
10027.249225523659
 20
-280.51384792916173
 30
0.0
 11
10045.76307345283
 21
-261.99999999999909
 31
0.0
1001
GRADIENTCOLOR1ACI
1070
     5
1001
GRADIENTCOLOR2ACI
1070
     2
1001
ACAD
1010
0.0
1020
0.0
1030
0.0
1001
ACDBBLOCKREPETAG
1070
     1
1071
      453
1005
126B9B
  0
LINE
  5
126B9C
  8
SLIM
 10
10044.045159630419
 20
-272.6981699434757
 30
0.0
 11
10054.743329573899
 21
-261.99999999999909
 31
0.0
1001
GRADIENTCOLOR1ACI
1070
     5
1001
GRADIENTCOLOR2ACI
1070
     2
1001
ACAD
1010
0.0
1020
0.0
1030
0.0
1001
ACDBBLOCKREPETAG
1070
     1
1071
      454
1005
126B9C
  0
ARC
  5
126B9D
  8
OBJECT
 10
10000.0
 20
-199.99999999999909
 30
0.0
 40
77.0
 50
202.25886899982271
 51
247.7411309999043
1001
ACDBBLOCKREPETAG
1070
     1
1071
      212
1005
126B9D
  0
ARC
  5
126B9E
  8
OBJECT
 10
10000.0
 20
-199.99999999999909
 30
0.0
 40
77.0
 50
292.25886900009567
 51
337.74113100017729
1001
ACDBBLOCKREPETAG
1070
     1
1071
      215
1005
126B9E
  0
ARC
  5
126B9F
  8
OBJECT
 10
10000.0
 20
-199.99999999999909
 30
0.0
 40
77.0
 50
112.2588690000957
 51
157.74113100017721
1001
ACDBBLOCKREPETAG
1070
     1
1071
      216
1005
126B9F
  0
ARC
  5
126BA0
  8
OBJECT
 10
10000.0
 20
-199.99999999999909
 30
0.0
 40
77.0
 50
22.25886899982272
 51
67.741130999904328
1001
ACDBBLOCKREPETAG
1070
     1
1071
      220
1005
126BA0
  0
CIRCLE
  5
126BA1
  8
OBJECT
 10
10000.0
 20
-199.99999999999909
 30
0.0
 40
70.0
1001
ACDBBLOCKREPETAG
1070
     1
1071
      221
1005
126BA1
  0
LINE
  5
126BA2
  8
OBJECT
 10
10029.166974999989
 20
-271.26210499999888
 30
0.0
 11
10021.223162444099
 21
-279.20591755589248
 31
0.0
1001
ACDBBLOCKREPETAG
1070
     1
1071
      222
1005
126BA2
  0
LINE
  5
126BA3
  8
OBJECT
 10
9970.8330260000002
 20
-271.26210499999888
 30
0.0
 11
9978.77683892192
 21
-279.20591792191681
 31
0.0
1001
ACDBBLOCKREPETAG
1070
     1
1071
      223
1005
126BA3
  0
ARC
  5
126BA4
  8
OBJECT
 10
10000.0
 20
-199.99999999999909
 30
0.0
 40
82.000000000000014
 50
255.00000044864029
 51
285.00000053969478
1001
ACDBBLOCKREPETAG
1070
     1
1071
      224
1005
126BA4
  0
LINE
  5
126BA5
  8
OBJECT
 10
9928.7378959999987
 20
-229.1669739999989
 30
0.0
 11
9920.7940817120543
 21
-221.2231597120545
 31
0.0
1001
ACDBBLOCKREPETAG
1070
     1
1071
      225
1005
126BA5
  0
ARC
  5
126BA6
  8
OBJECT
 10
10000.0
 20
-199.99999999999909
 30
0.0
 40
82.000000000000014
 50
165.0000004487506
 51
194.9999985630001
1001
ACDBBLOCKREPETAG
1070
     1
1071
      226
1005
126BA6
  0
LINE
  5
126BA7
  8
OBJECT
 10
9970.8330260000002
 20
-128.7378949999993
 30
0.0
 11
9978.77683892192
 21
-120.7940820780795
 31
0.0
1001
ACDBBLOCKREPETAG
1070
     1
1071
      227
1005
126BA7
  0
ARC
  5
126BA8
  8
OBJECT
 10
10000.0
 20
-199.99999999999909
 30
0.0
 40
82.000000000000014
 50
74.999999460305204
 51
104.99999955135971
1001
ACDBBLOCKREPETAG
1070
     1
1071
      228
1005
126BA8
  0
LINE
  5
126BA9
  8
OBJECT
 10
10029.166974999989
 20
-128.7378949999993
 30
0.0
 11
10021.223162444099
 21
-120.79408244410391
 31
0.0
1001
ACDBBLOCKREPETAG
1070
     1
1071
      229
1005
126BA9
  0
LINE
  5
126BAA
  8
OBJECT
 10
9962.402059
 20
-161.93893300000039
 30
0.0
 11
10037.08411027142
 21
-174.5180316957439
 31
0.0
1001
ACDBBLOCKREPETAG
1070
     1
1071
      230
1005
126BAA
  0
LINE
  5
126BAB
  8
OBJECT
 10
10044.09365699999
 20
-169.70149399999991
 30
0.0
 11
10037.08411027142
 21
-174.5180316957439
 31
0.0
1001
ACDBBLOCKREPETAG
1070
     1
1071
      231
1005
126BAB
  0
LINE
  5
126BAC
  8
OBJECT
 10
9928.7378959999987
 20
-170.833024999999
 30
0.0
 11
9920.7940820780805
 21
-178.77683892191911
 31
0.0
1001
ACDBBLOCKREPETAG
1070
     1
1071
      232
1005
126BAC
  0
CIRCLE
  5
126BAD
  8
OBJECT
 10
10000.0
 20
-199.99999999999909
 30
0.0
 40
53.500000000000007
1001
ACDBBLOCKREPETAG
1070
     1
1071
      233
1005
126BAD
  0
ARC
  5
126BAE
  8
OBJECT
 10
10000.0
 20
-199.99999999999909
 30
0.0
 40
50.0
 50
131.7018096435265
 51
168.52376955955751
1001
ACDBBLOCKREPETAG
1070
     1
1071
      234
1005
126BAE
  0
ARC
  5
126BAF
  8
OBJECT
 10
10000.0
 20
-199.99999999999909
 30
0.0
 40
50.0
 50
238.8199429999047
 51
34.494506250115712
1001
ACDBBLOCKREPETAG
1070
     1
1071
      235
1005
126BAF
  0
LINE
  5
126BB0
  8
OBJECT
 10
10071.262104999991
 20
-170.833024999999
 30
0.0
 11
10079.20591755589
 21
-178.77683755589439
 31
0.0
1001
ACDBBLOCKREPETAG
1070
     1
1071
      236
1005
126BB0
  0
ARC
  5
126BB1
  8
OBJECT
 10
10000.0
 20
-199.99999999999909
 30
0.0
 40
82.000000000000014
 50
345.0000004487506
 51
15.000000539345651
1001
ACDBBLOCKREPETAG
1070
     1
1071
      237
1005
126BB1
  0
LINE
  5
126BB2
  8
OBJECT
 10
10071.262104999991
 20
-229.1669739999989
 30
0.0
 11
10079.20591792192
 21
-221.2231610780791
 31
0.0
1001
ACDBBLOCKREPETAG
1070
     1
1071
      238
1005
126BB2
  0
LINE
  5
126BB3
  8
OBJECT
 10
10045.661800227321
 20
-137.99999999999909
 30
0.0
 11
10080.0
 21
-137.99999999999909
 31
0.0
1001
ACDBBLOCKREPETAG
1070
     1
1071
      239
1005
126BB3
  0
LINE
  5
126BB4
  8
OBJECT
 10
10045.661800227321
 20
-261.99999999999909
 30
0.0
 11
10080.0
 21
-261.99999999999909
 31
0.0
1001
ACDBBLOCKREPETAG
1070
     1
1071
      240
1005
126BB4
  0
LINE
  5
126BB5
  8
CENTER
 10
10080.0
 20
-199.99999999999909
 30
0.0
 11
9900.0018972160615
 21
-199.99999999999909
 31
0.0
1001
ACDBBLOCKREPETAG
1070
     1
1071
      249
1005
126BB5
  0
LINE
  5
126BB6
  8
CENTER
 10
10000.0
 20
-299.99999999999909
 30
0.0
 11
10000.0
 21
-99.999999999999091
 31
0.0
1001
ACDBBLOCKREPETAG
1070
     1
1071
      250
1005
126BB6
  0
ARC
  5
126BB7
  8
OBJECT
 10
10000.0
 20
-199.99999999999909
 30
0.0
 40
85.0
 50
46.837102859852038
 51
313.16289714014789
1001
ACDBBLOCKREPETAG
1070
     1
1071
      251
1005
126BB7
  0
LINE
  5
126BB8
  8
OBJECT
 10
9946.6921941437558
 20
-195.46638161316059
 30
0.0
 11
9970.4540343856352
 21
-193.79865146436981
 31
0.0
1001
ACDBBLOCKREPETAG
1070
     1
1071
      340
1005
126BB8
  0
LINE
  5
126BB9
  8
OBJECT
 10
9947.3854347270626
 20
-190.305593971766
 30
0.0
 11
9966.9884352629015
 21
-188.92975272660161
 31
0.0
1001
ACDBBLOCKREPETAG
1070
     1
1071
      341
1005
126BB9
  0
LINE
  5
126BBA
  8
OBJECT
 10
9974.1135374752776
 20
-242.77722592637201
 30
0.0
 11
9982.1366988374084
 21
-234.1690987954708
 31
0.0
1001
ACDBBLOCKREPETAG
1070
     1
1071
      342
1005
126BBA
  0
ARC
  5
126BBB
  8
OBJECT
 10
9982.1160071245395
 20
-183.28188966318251
 30
0.0
 40
60.031113246032611
 50
254.07020130412749
 51
262.33936106086588
1001
ACDBBLOCKREPETAG
1070
     1
1071
      343
1005
126BBB
  0
LINE
  5
126BBC
  8
OBJECT
 10
9977.6125997325162
 20
-197.67495277149919
 30
0.0
 11
9982.1366988374084
 21
-234.1690987954708
 31
0.0
1001
ACDBBLOCKREPETAG
1070
     1
1071
      344
1005
126BBC
  0
ARC
  5
126BBD
  8
OBJECT
 10
9967.6885653456411
 20
-198.90521351131881
 30
0.0
 40
10.0
 50
7.0667782929989977
 51
94.014734370532395
1001
ACDBBLOCKREPETAG
1070
     1
1071
      345
1005
126BBD
  0
ARC
  5
126BBE
  8
OBJECT
 10
9970.9441253709756
 20
-200.78147401875589
 30
0.0
 40
7.0
 50
7.0667782929989977
 51
94.014733775014633
1001
ACDBBLOCKREPETAG
1070
     1
1071
      346
1005
126BBE
  0
POINT
  5
126BBF
  8
DOTS
 10
10000.0
 20
-199.99999999999909
 30
0.0
 50
270.0
1001
ACDBBLOCKREPETAG
1070
     1
1071
      349
1005
126BBF
  0
LINE
  5
126BC0
  8
OBJECT
 10
10202.99999999998
 20
-483.0000000000008
 30
0.0
 11
10209.99999999998
 21
-483.0000000000008
 31
0.0
1001
ACDBBLOCKREPETAG
1070
     1
1071
       83
1005
126BC0
  0
LINE
  5
126BC1
  8
OBJECT
 10
10209.99999999998
 20
-483.0000000000008
 30
0.0
 11
10209.99999999998
 21
-607.00000000000091
 31
0.0
1001
ACDBBLOCKREPETAG
1070
     1
1071
       84
1005
126BC1
  0
LINE
  5
126BC2
  8
OBJECT
 10
10085.99999999998
 20
-553.3502637757274
 30
0.0
 11
10085.99999999998
 21
-655.00000000000091
 31
0.0
1001
ACDBBLOCKREPETAG
1070
     1
1071
       85
1005
126BC2
  0
LINE
  5
126BC3
  8
OBJECT
 10
10209.99999999998
 20
-607.00000000000091
 30
0.0
 11
10202.99999999998
 21
-607.00000000000091
 31
0.0
1001
ACDBBLOCKREPETAG
1070
     1
1071
       86
1005
126BC3
  0
LINE
  5
126BC4
  8
OBJECT
 10
10202.99999999998
 20
-607.00000000000091
 30
0.0
 11
10202.99999999998
 21
-483.0000000000008
 31
0.0
1001
ACDBBLOCKREPETAG
1070
     1
1071
       87
1005
126BC4
  0
LINE
  5
126BC5
  8
CENTER
 10
10134.99999999998
 20
-545.00000000000091
 30
0.0
 11
10224.99999999998
 21
-545.00000000000091
 31
0.0
1001
ACDBBLOCKREPETAG
1070
     1
1071
       88
1005
126BC5
  0
LINE
  5
126BC6
  8
OBJECT
 10
10079.99999999998
 20
-658.0
 30
0.0
 11
10082.99999999998
 21
-658.0000000000008
 31
0.0
1001
ACDBBLOCKREPETAG
1070
     1
1071
       89
1005
126BC6
  0
ARC
  5
126BC7
  8
OBJECT
 10
10082.99999999998
 20
-655.00000000000091
 30
0.0
 40
3.0
 50
270.0
 51
0.0
1001
ACDBBLOCKREPETAG
1070
     1
1071
       90
1005
126BC7
  0
LINE
  5
126BC8
  8
OBJECT
 10
10202.99999999998
 20
-486.00000000000091
 30
0.0
 11
10166.99999999998
 21
-486.00000000000091
 31
0.0
1001
ACDBBLOCKREPETAG
1070
     1
1071
       91
1005
126BC8
  0
LINE
  5
126BC9
  8
OBJECT
 10
10166.99999999998
 20
-486.00000000000091
 30
0.0
 11
10166.99999999998
 21
-604.0000000000008
 31
0.0
1001
ACDBBLOCKREPETAG
1070
     1
1071
       92
1005
126BC9
  0
LINE
  5
126BCA
  8
OBJECT
 10
10162.99999999998
 20
-490.50000000000091
 30
0.0
 11
10162.99999999998
 21
-599.5000000000008
 31
0.0
1001
ACDBBLOCKREPETAG
1070
     1
1071
       93
1005
126BCA
  0
LINE
  5
126BCB
  8
OBJECT
 10
10162.99999999998
 20
-490.50000000000091
 30
0.0
 11
10149.99999999998
 21
-490.50000000000091
 31
0.0
1001
ACDBBLOCKREPETAG
1070
     1
1071
       94
1005
126BCB
  0
LINE
  5
126BCC
  8
OBJECT
 10
10166.99999999998
 20
-604.0000000000008
 30
0.0
 11
10202.99999999998
 21
-604.0000000000008
 31
0.0
1001
ACDBBLOCKREPETAG
1070
     1
1071
       95
1005
126BCC
  0
LINE
  5
126BCD
  8
OBJECT
 10
10166.99999999998
 20
-486.00000000000091
 30
0.0
 11
10162.99999999998
 21
-490.50000000000091
 31
0.0
1001
ACDBBLOCKREPETAG
1070
     1
1071
       96
1005
126BCD
  0
LINE
  5
126BCE
  8
OBJECT
 10
10149.99999999998
 20
-490.50000000000091
 30
0.0
 11
10149.99999999998
 21
-575.74491827928784
 31
0.0
1001
ACDBBLOCKREPETAG
1070
     1
1071
       97
1005
126BCE
  0
ARC
  5
126BCF
  8
OBJECT
 10
10152.799999999979
 20
-585.00000000000091
 30
0.0
 40
85.0
 50
91.887731891831109
 51
143.1301023540934
1001
ACDBBLOCKREPETAG
1070
     1
1071
       98
1005
126BCF
  0
LINE
  5
126BD0
  8
HIDDEN
 10
10157.99999999998
 20
-500.5000000000008
 30
0.0
 11
10157.99999999998
 21
-589.50000000000091
 31
0.0
1001
ACDBBLOCKREPETAG
1070
     1
1071
      100
1005
126BD0
  0
LINE
  5
126BD1
  8
OBJECT
 10
10085.99999999998
 20
-651.07945073181781
 30
0.0
 11
10156.631319921031
 21
-599.5000000000008
 31
0.0
1001
ACDBBLOCKREPETAG
1070
     1
1071
      101
1005
126BD1
  0
LINE
  5
126BD2
  8
OBJECT
 10
10079.99999999998
 20
-534.0
 30
0.0
 11
10084.799999999979
 21
-534.0
 31
0.0
1001
ACDBBLOCKREPETAG
1070
     1
1071
      102
1005
126BD2
  0
LINE
  5
126BD3
  8
OBJECT
 10
10085.99999999998
 20
-553.35026377573013
 30
0.0
 11
10084.799999999979
 21
-534.0
 31
0.0
1001
ACDBBLOCKREPETAG
1070
     1
1071
      103
1005
126BD3
  0
LINE
  5
126BD4
  8
OBJECT
 10
10162.99999999998
 20
-599.5000000000008
 30
0.0
 11
10156.631319921031
 21
-599.5000000000008
 31
0.0
1001
ACDBBLOCKREPETAG
1070
     1
1071
      104
1005
126BD4
  0
LINE
  5
126BD5
  8
OBJECT
 10
10166.99999999998
 20
-604.0000000000008
 30
0.0
 11
10162.99999999998
 21
-599.5000000000008
 31
0.0
1001
ACDBBLOCKREPETAG
1070
     1
1071
      105
1005
126BD5
  0
LINE
  5
126BD6
  8
OBJECT
 10
10202.99999999998
 20
-137.99999999999909
 30
0.0
 11
10209.99999999998
 21
-137.99999999999909
 31
0.0
1001
ACDBBLOCKREPETAG
1070
     1
1071
       85
1005
126BD6
  0
LINE
  5
126BD7
  8
OBJECT
 10
10209.99999999998
 20
-137.99999999999909
 30
0.0
 11
10209.99999999998
 21
-261.99999999999909
 31
0.0
1001
ACDBBLOCKREPETAG
1070
     1
1071
       86
1005
126BD7
  0
LINE
  5
126BD8
  8
OBJECT
 10
10209.99999999998
 20
-261.99999999999909
 30
0.0
 11
10202.99999999998
 21
-261.99999999999909
 31
0.0
1001
ACDBBLOCKREPETAG
1070
     1
1071
       87
1005
126BD8
  0
LINE
  5
126BD9
  8
OBJECT
 10
10202.99999999998
 20
-261.99999999999909
 30
0.0
 11
10202.99999999998
 21
-137.99999999999909
 31
0.0
1001
ACDBBLOCKREPETAG
1070
     1
1071
       88
1005
126BD9
  0
LINE
  5
126BDA
  8
CENTER
 10
10224.99999999998
 20
-199.99999999999909
 30
0.0
 11
10080.0
 21
-199.99999999999909
 31
0.0
1001
ACDBBLOCKREPETAG
1070
     1
1071
       89
1005
126BDA
  0
LINE
  5
126BDB
  8
OBJECT
 10
10149.99997496419
 20
-245.0000000000027
 30
0.0
 11
10086.0
 21
-244.99999999999909
 31
0.0
1001
ACDBBLOCKREPETAG
1070
     1
1071
       90
1005
126BDB
  0
LINE
  5
126BDC
  8
OBJECT
 10
10149.99997496419
 20
-154.99999999999909
 30
0.0
 11
10086.0
 21
-154.99999999999909
 31
0.0
1001
ACDBBLOCKREPETAG
1070
     1
1071
       91
1005
126BDC
  0
LINE
  5
126BDD
  8
OBJECT
 10
10202.99999999998
 20
-140.99999999999909
 30
0.0
 11
10166.99999999998
 21
-140.99999999999909
 31
0.0
1001
ACDBBLOCKREPETAG
1070
     1
1071
       92
1005
126BDD
  0
LINE
  5
126BDE
  8
OBJECT
 10
10166.99999999998
 20
-140.99999999999909
 30
0.0
 11
10166.99999999998
 21
-258.99999999999909
 31
0.0
1001
ACDBBLOCKREPETAG
1070
     1
1071
       93
1005
126BDE
  0
LINE
  5
126BDF
  8
OBJECT
 10
10166.99999999998
 20
-258.99999999999909
 30
0.0
 11
10202.99999999998
 21
-258.99999999999909
 31
0.0
1001
ACDBBLOCKREPETAG
1070
     1
1071
       94
1005
126BDF
  0
LINE
  5
126BE0
  8
OBJECT
 10
10162.99999999998
 20
-145.49999999999909
 30
0.0
 11
10149.99999999998
 21
-145.49999999999909
 31
0.0
1001
ACDBBLOCKREPETAG
1070
     1
1071
       95
1005
126BE0
  0
LINE
  5
126BE1
  8
OBJECT
 10
10149.99999999998
 20
-254.49999999999909
 30
0.0
 11
10162.99999999998
 21
-254.49999999999909
 31
0.0
1001
ACDBBLOCKREPETAG
1070
     1
1071
       96
1005
126BE1
  0
LINE
  5
126BE2
  8
OBJECT
 10
10162.99999999998
 20
-254.49999999999909
 30
0.0
 11
10162.99999999998
 21
-145.49999999999909
 31
0.0
1001
ACDBBLOCKREPETAG
1070
     1
1071
       97
1005
126BE2
  0
LINE
  5
126BE3
  8
OBJECT
 10
10166.99999999998
 20
-140.99999999999909
 30
0.0
 11
10162.99999999998
 21
-145.49999999999909
 31
0.0
1001
ACDBBLOCKREPETAG
1070
     1
1071
       98
1005
126BE3
  0
LINE
  5
126BE4
  8
OBJECT
 10
10166.99999999998
 20
-258.99999999999909
 30
0.0
 11
10162.99999999998
 21
-254.49999999999909
 31
0.0
1001
ACDBBLOCKREPETAG
1070
     1
1071
       99
1005
126BE4
  0
LINE
  5
126BE5
  8
OBJECT
 10
10083.0
 20
-137.99999999999909
 30
0.0
 11
10080.0
 21
-137.99999999999909
 31
0.0
1001
ACDBBLOCKREPETAG
1070
     1
1071
      100
1005
126BE5
  0
ARC
  5
126BE6
  8
OBJECT
 10
10083.0
 20
-140.99999999999909
 30
0.0
 40
3.0
 50
0.0
 51
90.0
1001
ACDBBLOCKREPETAG
1070
     1
1071
      101
1005
126BE6
  0
LINE
  5
126BE7
  8
OBJECT
 10
10080.0
 20
-261.99999999999909
 30
0.0
 11
10083.0
 21
-261.99999999999909
 31
0.0
1001
ACDBBLOCKREPETAG
1070
     1
1071
      102
1005
126BE7
  0
ARC
  5
126BE8
  8
OBJECT
 10
10083.0
 20
-258.99999999999909
 30
0.0
 40
3.0
 50
270.0
 51
0.0
1001
ACDBBLOCKREPETAG
1070
     1
1071
      103
1005
126BE8
  0
LINE
  5
126BE9
  8
OBJECT
 10
10086.0
 20
-258.99999999999909
 30
0.0
 11
10086.0
 21
-210.3227903203578
 31
0.0
1001
ACDBBLOCKREPETAG
1070
     1
1071
      104
1005
126BE9
  0
LINE
  5
126BEA
  8
OBJECT
 10
10086.0
 20
-189.6772096796403
 30
0.0
 11
10086.0
 21
-140.99999999999909
 31
0.0
1001
ACDBBLOCKREPETAG
1070
     1
1071
      105
1005
126BEA
  0
LINE
  5
126BEB
  8
HIDDEN
 10
10157.99999999998
 20
-155.49999999999909
 30
0.0
 11
10157.99999999998
 21
-244.49999999999909
 31
0.0
1001
ACDBBLOCKREPETAG
1070
     1
1071
      106
1005
126BEB
  0
LINE
  5
126BEC
  8
OBJECT
 10
10149.99997496419
 20
-254.4999509238105
 30
0.0
 11
10149.99997496419
 21
-145.4999509238105
 31
0.0
1001
ACDBBLOCKREPETAG
1070
     1
1071
      108
1005
126BEC
  0
ARC
  5
126BED
  8
OBJECT
 10
10129.800000000019
 20
-199.99999999999909
 30
0.0
 40
45.000000000000547
 50
90.0
 51
270.0
1001
ACDBBLOCKREPETAG
1070
     1
1071
      109
1005
126BED
  0
LINE
  5
126BEE
  8
OBJECT
 10
7918.0
 20
-470.99999999999949
 30
0.0
 11
7918.0
 21
-449.99999999999949
 31
0.0
1001
ACDBBLOCKREPETAG
1070
     1
1071
        0
1005
126BEE
  0
LINE
  5
126BEF
  8
OBJECT
 10
7918.0
 20
-449.99999999999949
 30
0.0
 11
8082.0000000000036
 21
-449.99999999999949
 31
0.0
1001
ACDBBLOCKREPETAG
1070
     1
1071
        1
1005
126BEF
  0
LINE
  5
126BF0
  8
HIDDEN
 10
7943.0
 20
-519.99999999999955
 30
0.0
 11
8057.0
 21
-519.99999999999955
 31
0.0
1001
ACDBBLOCKREPETAG
1070
     1
1071
        2
1005
126BF0
  0
LINE
  5
126BF1
  8
OBJECT
 10
8082.0000000000036
 20
-470.99999999999949
 30
0.0
 11
7918.0
 21
-470.99999999999949
 31
0.0
1001
ACDBBLOCKREPETAG
1070
     1
1071
        3
1005
126BF1
  0
LINE
  5
126BF2
  8
CENTER
 10
8000.0
 20
-434.99999999999949
 30
0.0
 11
8000.0
 21
-799.99999999999955
 31
0.0
1001
ACDBBLOCKREPETAG
1070
     1
1071
        4
1005
126BF2
  0
LINE
  5
126BF3
  8
OBJECT
 10
7925.0
 20
-533.99999999999955
 30
0.0
 11
7925.0
 21
-787.99999999999955
 31
0.0
1001
ACDBBLOCKREPETAG
1070
     1
1071
        5
1005
126BF3
  0
LINE
  5
126BF4
  8
OBJECT
 10
7928.0
 20
-470.99999999999949
 30
0.0
 11
7928.0
 21
-533.99999999999955
 31
0.0
1001
ACDBBLOCKREPETAG
1070
     1
1071
        6
1005
126BF4
  0
LINE
  5
126BF5
  8
OBJECT
 10
8072.0
 20
-533.99999999999955
 30
0.0
 11
8072.0
 21
-470.99999999999949
 31
0.0
1001
ACDBBLOCKREPETAG
1070
     1
1071
        7
1005
126BF5
  0
LINE
  5
126BF6
  8
OBJECT
 10
7920.0
 20
-787.99999999999955
 30
0.0
 11
8080.0
 21
-787.99999999999955
 31
0.0
1001
ACDBBLOCKREPETAG
1070
     1
1071
        8
1005
126BF6
  0
LINE
  5
126BF7
  8
OBJECT
 10
8080.0
 20
-533.99999999999955
 30
0.0
 11
7925.0
 21
-533.99999999999955
 31
0.0
1001
ACDBBLOCKREPETAG
1070
     1
1071
        9
1005
126BF7
  0
LINE
  5
126BF8
  8
OBJECT
 10
7920.0
 20
-787.99999999999955
 30
0.0
 11
7920.0
 21
-799.99999999999955
 31
0.0
1001
ACDBBLOCKREPETAG
1070
     1
1071
       10
1005
126BF8
  0
LINE
  5
126BF9
  8
OBJECT
 10
7920.0
 20
-799.99999999999955
 30
0.0
 11
8080.0
 21
-799.99999999999955
 31
0.0
1001
ACDBBLOCKREPETAG
1070
     1
1071
       11
1005
126BF9
  0
LINE
  5
126BFA
  8
OBJECT
 10
8080.0
 20
-799.99999999999955
 30
0.0
 11
8080.0
 21
-787.99999999999955
 31
0.0
1001
ACDBBLOCKREPETAG
1070
     1
1071
       12
1005
126BFA
  0
LINE
  5
126BFB
  8
OBJECT
 10
8074.9999999998618
 20
-657.99999999985039
 30
0.0
 11
8075.0
 21
-787.99999999999955
 31
0.0
1001
ACDBBLOCKREPETAG
1070
     1
1071
       14
1005
126BFB
  0
LINE
  5
126BFC
  8
OBJECT
 10
8074.9999908029858
 20
-657.99998602702135
 30
0.0
 11
8080.0
 21
-657.99998602702135
 31
0.0
1001
ACDBBLOCKREPETAG
1070
     1
1071
       15
1005
126BFC
  0
LINE
  5
126BFD
  8
OBJECT
 10
7920.7940817120261
 20
-449.99999999999949
 30
0.0
 11
7920.7940817120261
 21
-470.99999999999949
 31
0.0
1001
ACDBBLOCKREPETAG
1070
     1
1071
       16
1005
126BFD
  0
LINE
  5
126BFE
  8
OBJECT
 10
7928.7378959999978
 20
-449.99999999999949
 30
0.0
 11
7928.7378959999978
 21
-470.99999999999949
 31
0.0
1001
ACDBBLOCKREPETAG
1070
     1
1071
       17
1005
126BFE
  0
LINE
  5
126BFF
  8
OBJECT
 10
7970.8330260000012
 20
-449.99999999999949
 30
0.0
 11
7970.8330260000012
 21
-470.99999999999949
 31
0.0
1001
ACDBBLOCKREPETAG
1070
     1
1071
       18
1005
126BFF
  0
LINE
  5
126C00
  8
OBJECT
 10
7978.7768389217999
 20
-449.99999999999949
 30
0.0
 11
7978.7768389217999
 21
-470.99999999999949
 31
0.0
1001
ACDBBLOCKREPETAG
1070
     1
1071
       19
1005
126C00
  0
LINE
  5
126C01
  8
OBJECT
 10
8082.0
 20
-470.99999999999949
 30
0.0
 11
8082.0
 21
-449.99999999999949
 31
0.0
1001
ACDBBLOCKREPETAG
1070
     1
1071
       20
1005
126C01
  0
LINE
  5
126C02
  8
OBJECT
 10
8079.2059182879748
 20
-449.99999999999949
 30
0.0
 11
8079.2059182879748
 21
-470.99999999999949
 31
0.0
1001
ACDBBLOCKREPETAG
1070
     1
1071
       21
1005
126C02
  0
LINE
  5
126C03
  8
OBJECT
 10
8071.2621040000022
 20
-449.99999999999949
 30
0.0
 11
8071.2621040000022
 21
-470.99999999999949
 31
0.0
1001
ACDBBLOCKREPETAG
1070
     1
1071
       22
1005
126C03
  0
LINE
  5
126C04
  8
OBJECT
 10
8029.1669739999998
 20
-449.99999999999949
 30
0.0
 11
8029.1669739999998
 21
-470.99999999999949
 31
0.0
1001
ACDBBLOCKREPETAG
1070
     1
1071
       23
1005
126C04
  0
LINE
  5
126C05
  8
OBJECT
 10
8021.2231610782001
 20
-449.99999999999949
 30
0.0
 11
8021.2231610782001
 21
-470.99999999999949
 31
0.0
1001
ACDBBLOCKREPETAG
1070
     1
1071
       24
1005
126C05
  0
ARC
  5
126C06
  8
OBJECT
 10
8200.6872746716726
 20
-649.40809941010718
 30
0.0
 40
170.6350503965856
 50
137.44134459184301
 51
149.91949581337221
1001
ACDBBLOCKREPETAG
1070
     1
1071
       25
1005
126C06
  0
ARC
  5
126C07
  8
OBJECT
 10
8118.8455987040506
 20
-605.88272669536445
 30
0.0
 40
78.072222021763665
 50
147.4551531038293
 51
164.66365997719919
1001
ACDBBLOCKREPETAG
1070
     1
1071
       26
1005
126C07
  0
ARC
  5
126C08
  8
OBJECT
 10
8085.7554349608727
 20
-595.99999999999955
 30
0.0
 40
43.553539268856177
 50
165.688452300753
 51
194.31154769924689
1001
ACDBBLOCKREPETAG
1070
     1
1071
       27
1005
126C08
  0
ARC
  5
126C09
  8
OBJECT
 10
8200.6872746716726
 20
-542.59190058989179
 30
0.0
 40
170.6350503965856
 50
210.08050418662779
 51
222.55865540815699
1001
ACDBBLOCKREPETAG
1070
     1
1071
       28
1005
126C09
  0
ARC
  5
126C0A
  8
OBJECT
 10
8118.8455987040506
 20
-586.11727330463464
 30
0.0
 40
78.072222021763665
 50
195.3363400228007
 51
212.54484689617061
1001
ACDBBLOCKREPETAG
1070
     1
1071
       29
1005
126C0A
  0
POINT
  5
126C0B
  8
DOTS
 10
8000.0
 20
-654.99999999999955
 30
0.0
1001
ACDBBLOCKREPETAG
1070
     1
1071
      204
1005
126C0B
  0
LINE
  5
126C0C
  8
SLIM
 10
7927.3018300565236
 20
-155.95484036957669
 30
0.0
 11
7955.9548403695781
 21
-127.30183005652241
 31
0.0
1001
GRADIENTCOLOR1ACI
1070
     5
1001
GRADIENTCOLOR2ACI
1070
     2
1001
ACAD
1010
0.0
1020
0.0
1030
0.0
1001
ACDBBLOCKREPETAG
1070
     1
1071
      416
1005
126C0C
  0
LINE
  5
126C0D
  8
SLIM
 10
7919.4861520708373
 20
-172.7507744763318
 30
0.0
 11
7938.2903089572737
 21
-153.9466175898965
 31
0.0
1001
GRADIENTCOLOR1ACI
1070
     5
1001
GRADIENTCOLOR2ACI
1070
     2
1001
ACAD
1010
0.0
1020
0.0
1030
0.0
1001
ACDBBLOCKREPETAG
1070
     1
1071
      417
1005
126C0D
  0
LINE
  5
126C0E
  8
SLIM
 10
7953.9466175898979
 20
-138.29030895727169
 30
0.0
 11
7972.7507744763334
 21
-119.4861520708365
 31
0.0
1001
GRADIENTCOLOR1ACI
1070
     5
1001
GRADIENTCOLOR2ACI
1070
     2
1001
ACAD
1010
0.0
1020
0.0
1030
0.0
1001
ACDBBLOCKREPETAG
1070
     1
1071
      418
1005
126C0E
  0
LINE
  5
126C0F
  8
SLIM
 10
7916.3596679933771
 20
-184.85751467486031
 30
0.0
 11
7920.2360914370092
 21
-180.9810912312297
 31
0.0
1001
GRADIENTCOLOR1ACI
1070
     5
1001
GRADIENTCOLOR2ACI
1070
     2
1001
ACAD
1010
0.0
1020
0.0
1030
0.0
1001
ACDBBLOCKREPETAG
1070
     1
1071
      419
1005
126C0F
  0
LINE
  5
126C10
  8
SLIM
 10
7980.9810912312296
 20
-120.2360914370078
 30
0.0
 11
7984.8575146748608
 21
-116.359667993377
 31
0.0
1001
GRADIENTCOLOR1ACI
1070
     5
1001
GRADIENTCOLOR2ACI
1070
     2
1001
ACAD
1010
0.0
1020
0.0
1030
0.0
1001
ACDBBLOCKREPETAG
1070
     1
1071
      420
1005
126C10
  0
LINE
  5
126C11
  8
SLIM
 10
7915.1440575890529
 20
-195.0533812002549
 30
0.0
 11
7918.4125503387277
 21
-191.78488845057959
 31
0.0
1001
GRADIENTCOLOR1ACI
1070
     5
1001
GRADIENTCOLOR2ACI
1070
     2
1001
ACAD
1010
0.0
1020
0.0
1030
0.0
1001
ACDBBLOCKREPETAG
1070
     1
1071
      421
1005
126C11
  0
LINE
  5
126C12
  8
SLIM
 10
7991.7848884505802
 20
-118.4125503387271
 30
0.0
 11
7995.0533812002559
 21
-115.1440575890517
 31
0.0
1001
GRADIENTCOLOR1ACI
1070
     5
1001
GRADIENTCOLOR2ACI
1070
     2
1001
ACAD
1010
0.0
1020
0.0
1030
0.0
1001
ACDBBLOCKREPETAG
1070
     1
1071
      422
1005
126C12
  0
LINE
  5
126C13
  8
SLIM
 10
7915.0979635574731
 20
-204.07973135290339
 30
0.0
 11
7918.008338199048
 21
-201.16935671132859
 31
0.0
1001
GRADIENTCOLOR1ACI
1070
     5
1001
GRADIENTCOLOR2ACI
1070
     2
1001
ACAD
1010
0.0
1020
0.0
1030
0.0
1001
ACDBBLOCKREPETAG
1070
     1
1071
      423
1005
126C13
  0
LINE
  5
126C14
  8
SLIM
 10
8001.1693567113289
 20
-118.0083381990472
 30
0.0
 11
8004.0797313529056
 21
-115.0979635574724
 31
0.0
1001
GRADIENTCOLOR1ACI
1070
     5
1001
GRADIENTCOLOR2ACI
1070
     2
1001
ACAD
1010
0.0
1020
0.0
1030
0.0
1001
ACDBBLOCKREPETAG
1070
     1
1071
      424
1005
126C14
  0
LINE
  5
126C15
  8
SLIM
 10
7915.889972620871
 20
-212.2679784105739
 30
0.0
 11
7918.5632639426858
 21
-209.59468708876071
 31
0.0
1001
GRADIENTCOLOR1ACI
1070
     5
1001
GRADIENTCOLOR2ACI
1070
     2
1001
ACAD
1010
0.0
1020
0.0
1030
0.0
1001
ACDBBLOCKREPETAG
1070
     1
1071
      425
1005
126C15
  0
LINE
  5
126C16
  8
SLIM
 10
8009.5946870887619
 20
-118.5632639426843
 30
0.0
 11
8012.2679784105749
 21
-115.88997262087101
 31
0.0
1001
GRADIENTCOLOR1ACI
1070
     5
1001
GRADIENTCOLOR2ACI
1070
     2
1001
ACAD
1010
0.0
1020
0.0
1030
0.0
1001
ACDBBLOCKREPETAG
1070
     1
1071
      426
1005
126C16
  0
LINE
  5
126C17
  8
SLIM
 10
7917.3382656951526
 20
-219.7999414573614
 30
0.0
 11
7919.8443793594897
 21
-217.29382779302409
 31
0.0
1001
GRADIENTCOLOR1ACI
1070
     5
1001
GRADIENTCOLOR2ACI
1070
     2
1001
ACAD
1010
0.0
1020
0.0
1030
0.0
1001
ACDBBLOCKREPETAG
1070
     1
1071
      427
1005
126C17
  0
LINE
  5
126C18
  8
SLIM
 10
8017.2938277930252
 20
-119.84437935949001
 30
0.0
 11
8019.7999414573624
 21
-117.3382656951527
 31
0.0
1001
GRADIENTCOLOR1ACI
1070
     5
1001
GRADIENTCOLOR2ACI
1070
     2
1001
ACAD
1010
0.0
1020
0.0
1030
0.0
1001
ACDBBLOCKREPETAG
1070
     1
1071
      428
1005
126C18
  0
LINE
  5
126C19
  8
SLIM
 10
7919.3312594063054
 20
-226.78720386727881
 30
0.0
 11
7922.8446926367924
 21
-223.27377063679219
 31
0.0
1001
GRADIENTCOLOR1ACI
1070
     5
1001
GRADIENTCOLOR2ACI
1070
     2
1001
ACAD
1010
0.0
1020
0.0
1030
0.0
1001
ACDBBLOCKREPETAG
1070
     1
1071
      429
1005
126C19
  0
LINE
  5
126C1A
  8
SLIM
 10
8023.2737716367928
 20
-122.8446916367926
 30
0.0
 11
8026.7872038672785
 21
-119.3312594063045
 31
0.0
1001
GRADIENTCOLOR1ACI
1070
     5
1001
GRADIENTCOLOR2ACI
1070
     2
1001
ACAD
1010
0.0
1020
0.0
1030
0.0
1001
ACDBBLOCKREPETAG
1070
     1
1071
      430
1005
126C1A
  0
LINE
  5
126C1B
  8
SLIM
 10
7921.7957163186193
 20
-233.30300307603281
 30
0.0
 11
7927.3348206973269
 21
-227.76389869732679
 31
0.0
1001
GRADIENTCOLOR1ACI
1070
     5
1001
GRADIENTCOLOR2ACI
1070
     2
1001
ACAD
1010
0.0
1020
0.0
1030
0.0
1001
ACDBBLOCKREPETAG
1070
     1
1071
      431
1005
126C1B
  0
LINE
  5
126C1C
  8
SLIM
 10
8027.7638996973237
 20
-127.33481969732929
 30
0.0
 11
8033.3030030760328
 21
-121.7957163186195
 31
0.0
1001
GRADIENTCOLOR1ACI
1070
     5
1001
GRADIENTCOLOR2ACI
1070
     2
1001
ACAD
1010
0.0
1020
0.0
1030
0.0
1001
ACDBBLOCKREPETAG
1070
     1
1071
      432
1005
126C1C
  0
LINE
  5
126C1D
  8
SLIM
 10
7924.6816635313453
 20
-239.39731198437761
 30
0.0
 11
7930.639876864393
 21
-233.4390986513296
 31
0.0
1001
GRADIENTCOLOR1ACI
1070
     5
1001
GRADIENTCOLOR2ACI
1070
     2
1001
ACAD
1010
0.0
1020
0.0
1030
0.0
1001
ACDBBLOCKREPETAG
1070
     1
1071
      433
1005
126C1D
  0
LINE
  5
126C1E
  8
SLIM
 10
8033.4390986513308
 20
-130.63987686439191
 30
0.0
 11
8039.3973119843777
 21
-124.681663531344
 31
0.0
1001
GRADIENTCOLOR1ACI
1070
     5
1001
GRADIENTCOLOR2ACI
1070
     2
1001
ACAD
1010
0.0
1020
0.0
1030
0.0
1001
ACDBBLOCKREPETAG
1070
     1
1071
      434
1005
126C1E
  0
LINE
  5
126C1F
  8
SLIM
 10
7927.9544611024248
 20
-245.10477053436679
 30
0.0
 11
7933.7750070149932
 21
-239.28422462179759
 31
0.0
1001
GRADIENTCOLOR1ACI
1070
     5
1001
GRADIENTCOLOR2ACI
1070
     2
1001
ACAD
1010
0.0
1020
0.0
1030
0.0
1001
ACDBBLOCKREPETAG
1070
     1
1071
      435
1005
126C1F
  0
LINE
  5
126C20
  8
SLIM
 10
8039.2842246217997
 20
-133.77500701499309
 30
0.0
 11
8045.104770534369
 21
-127.95446110242381
 31
0.0
1001
GRADIENTCOLOR1ACI
1070
     5
1001
GRADIENTCOLOR2ACI
1070
     2
1001
ACAD
1010
0.0
1020
0.0
1030
0.0
1001
ACDBBLOCKREPETAG
1070
     1
1071
      436
1005
126C20
  0
LINE
  5
126C21
  8
SLIM
 10
7931.5903319686649
 20
-250.44915578919529
 30
0.0
 11
7937.3182075880577
 21
-244.72128016980349
 31
0.0
1001
GRADIENTCOLOR1ACI
1070
     5
1001
GRADIENTCOLOR2ACI
1070
     2
1001
ACAD
1010
0.0
1020
0.0
1030
0.0
1001
ACDBBLOCKREPETAG
1070
     1
1071
      437
1005
126C21
  0
LINE
  5
126C22
  8
SLIM
 10
8044.7212801698042
 20
-137.31820758805651
 30
0.0
 11
8050.449155789197
 21
-131.59033196866449
 31
0.0
1001
GRADIENTCOLOR1ACI
1070
     5
1001
GRADIENTCOLOR2ACI
1070
     2
1001
ACAD
1010
0.0
1020
0.0
1030
0.0
1001
ACDBBLOCKREPETAG
1070
     1
1071
      438
1005
126C22
  0
LINE
  5
126C23
  8
SLIM
 10
7935.5737496925267
 20
-255.44599418640331
 30
0.0
 11
7941.24811054159
 21
-249.77163333734029
 31
0.0
1001
GRADIENTCOLOR1ACI
1070
     5
1001
GRADIENTCOLOR2ACI
1070
     2
1001
ACAD
1010
0.0
1020
0.0
1030
0.0
1001
ACDBBLOCKREPETAG
1070
     1
1071
      439
1005
126C23
  0
LINE
  5
126C24
  8
SLIM
 10
8053.0197438789319
 20
-137.99999999999901
 30
0.0
 11
8055.4459941864043
 21
-135.57374969252561
 31
0.0
1001
GRADIENTCOLOR1ACI
1070
     5
1001
GRADIENTCOLOR2ACI
1070
     2
1001
ACAD
1010
0.0
1020
0.0
1030
0.0
1001
ACDBBLOCKREPETAG
1070
     1
1071
      440
1005
126C24
  0
LINE
  5
126C25
  8
SLIM
 10
7939.8959235991442
 20
-260.10407640085549
 30
0.0
 11
7945.5527778486357
 21
-254.44722215136329
 31
0.0
1001
GRADIENTCOLOR1ACI
1070
     5
1001
GRADIENTCOLOR2ACI
1070
     2
1001
ACAD
1010
0.0
1020
0.0
1030
0.0
1001
ACDBBLOCKREPETAG
1070
     1
1071
      441
1005
126C25
  0
LINE
  5
126C26
  8
SLIM
 10
7944.5540058135957
 20
-264.42625030747251
 30
0.0
 11
7950.2283666626599
 21
-258.75188945840949
 31
0.0
1001
GRADIENTCOLOR1ACI
1070
     5
1001
GRADIENTCOLOR2ACI
1070
     2
1001
ACAD
1010
0.0
1020
0.0
1030
0.0
1001
ACDBBLOCKREPETAG
1070
     1
1071
      442
1005
126C26
  0
LINE
  5
126C27
  8
SLIM
 10
7949.5508442108039
 20
-268.40966803133369
 30
0.0
 11
7955.2787198301958
 21
-262.68179241194167
 31
0.0
1001
GRADIENTCOLOR1ACI
1070
     5
1001
GRADIENTCOLOR2ACI
1070
     2
1001
ACAD
1010
0.0
1020
0.0
1030
0.0
1001
ACDBBLOCKREPETAG
1070
     1
1071
      443
1005
126C27
  0
LINE
  5
126C28
  8
SLIM
 10
7954.895229465631
 20
-272.04553889757432
 30
0.0
 11
7960.7157753782021
 21
-266.22499298500497
 31
0.0
1001
GRADIENTCOLOR1ACI
1070
     5
1001
GRADIENTCOLOR2ACI
1070
     2
1001
ACAD
1010
0.0
1020
0.0
1030
0.0
1001
ACDBBLOCKREPETAG
1070
     1
1071
      444
1005
126C28
  0
LINE
  5
126C29
  8
SLIM
 10
7960.6026880156223
 20
-275.31833646865419
 30
0.0
 11
7966.5609013486683
 21
-269.36012313560622
 31
0.0
1001
GRADIENTCOLOR1ACI
1070
     5
1001
GRADIENTCOLOR2ACI
1070
     2
1001
ACAD
1010
0.0
1020
0.0
1030
0.0
1001
ACDBBLOCKREPETAG
1070
     1
1071
      445
1005
126C29
  0
LINE
  5
126C2A
  8
SLIM
 10
7966.6969969239663
 20
-278.20428368137863
 30
0.0
 11
7972.2361008026737
 21
-272.66517980267162
 31
0.0
1001
GRADIENTCOLOR1ACI
1070
     5
1001
GRADIENTCOLOR2ACI
1070
     2
1001
ACAD
1010
0.0
1020
0.0
1030
0.0
1001
ACDBBLOCKREPETAG
1070
     1
1071
      446
1005
126C2A
  0
LINE
  5
126C2B
  8
SLIM
 10
7973.2127961327196
 20
-280.66874059369371
 30
0.0
 11
7976.7262288632082
 21
-277.15530786320562
 31
0.0
1001
GRADIENTCOLOR1ACI
1070
     5
1001
GRADIENTCOLOR2ACI
1070
     2
1001
ACAD
1010
0.0
1020
0.0
1030
0.0
1001
ACDBBLOCKREPETAG
1070
     1
1071
      447
1005
126C2B
  0
LINE
  5
126C2C
  8
SLIM
 10
7980.2000585426395
 20
-282.66173430484548
 30
0.0
 11
7982.7061722069739
 21
-280.15562064050812
 31
0.0
1001
GRADIENTCOLOR1ACI
1070
     5
1001
GRADIENTCOLOR2ACI
1070
     2
1001
ACAD
1010
0.0
1020
0.0
1030
0.0
1001
ACDBBLOCKREPETAG
1070
     1
1071
      448
1005
126C2C
  0
LINE
  5
126C2D
  8
SLIM
 10
7987.732021589426
 20
-284.11002737912708
 30
0.0
 11
7990.405312911239
 21
-281.43673605731391
 31
0.0
1001
GRADIENTCOLOR1ACI
1070
     5
1001
GRADIENTCOLOR2ACI
1070
     2
1001
ACAD
1010
0.0
1020
0.0
1030
0.0
1001
ACDBBLOCKREPETAG
1070
     1
1071
      449
1005
126C2D
  0
LINE
  5
126C2E
  8
SLIM
 10
7995.9202686470962
 20
-284.90203644252568
 30
0.0
 11
7998.8306432886702
 21
-281.99166180095102
 31
0.0
1001
GRADIENTCOLOR1ACI
1070
     5
1001
GRADIENTCOLOR2ACI
1070
     2
1001
ACAD
1010
0.0
1020
0.0
1030
0.0
1001
ACDBBLOCKREPETAG
1070
     1
1071
      450
1005
126C2E
  0
LINE
  5
126C2F
  8
SLIM
 10
8004.9466187997441
 20
-284.8559424109464
 30
0.0
 11
8008.2151115494198
 21
-281.58744966127108
 31
0.0
1001
GRADIENTCOLOR1ACI
1070
     5
1001
GRADIENTCOLOR2ACI
1070
     2
1001
ACAD
1010
0.0
1020
0.0
1030
0.0
1001
ACDBBLOCKREPETAG
1070
     1
1071
      451
1005
126C2F
  0
LINE
  5
126C30
  8
SLIM
 10
8015.1424853251392
 20
-283.64033200662112
 30
0.0
 11
8019.0189087687686
 21
-279.76390856299031
 31
0.0
1001
GRADIENTCOLOR1ACI
1070
     5
1001
GRADIENTCOLOR2ACI
1070
     2
1001
ACAD
1010
0.0
1020
0.0
1030
0.0
1001
ACDBBLOCKREPETAG
1070
     1
1071
      452
1005
126C30
  0
LINE
  5
126C31
  8
SLIM
 10
8027.2492255236657
 20
-280.51384792916173
 30
0.0
 11
8045.7630734528302
 21
-261.99999999999909
 31
0.0
1001
GRADIENTCOLOR1ACI
1070
     5
1001
GRADIENTCOLOR2ACI
1070
     2
1001
ACAD
1010
0.0
1020
0.0
1030
0.0
1001
ACDBBLOCKREPETAG
1070
     1
1071
      453
1005
126C31
  0
LINE
  5
126C32
  8
SLIM
 10
8044.045159630421
 20
-272.6981699434757
 30
0.0
 11
8054.7433295739002
 21
-261.99999999999909
 31
0.0
1001
GRADIENTCOLOR1ACI
1070
     5
1001
GRADIENTCOLOR2ACI
1070
     2
1001
ACAD
1010
0.0
1020
0.0
1030
0.0
1001
ACDBBLOCKREPETAG
1070
     1
1071
      454
1005
126C32
  0
ARC
  5
126C33
  8
OBJECT
 10
8000.0
 20
-199.99999999999909
 30
0.0
 40
77.0
 50
202.25886899982271
 51
247.7411309999043
1001
ACDBBLOCKREPETAG
1070
     1
1071
      212
1005
126C33
  0
ARC
  5
126C34
  8
OBJECT
 10
8000.0
 20
-199.99999999999909
 30
0.0
 40
77.0
 50
292.25886900009567
 51
337.74113100017729
1001
ACDBBLOCKREPETAG
1070
     1
1071
      215
1005
126C34
  0
ARC
  5
126C35
  8
OBJECT
 10
8000.0
 20
-199.99999999999909
 30
0.0
 40
77.0
 50
112.2588690000957
 51
157.74113100017721
1001
ACDBBLOCKREPETAG
1070
     1
1071
      216
1005
126C35
  0
ARC
  5
126C36
  8
OBJECT
 10
8000.0
 20
-199.99999999999909
 30
0.0
 40
77.0
 50
22.25886899982272
 51
67.741130999904328
1001
ACDBBLOCKREPETAG
1070
     1
1071
      220
1005
126C36
  0
CIRCLE
  5
126C37
  8
OBJECT
 10
8000.0
 20
-199.99999999999909
 30
0.0
 40
70.0
1001
ACDBBLOCKREPETAG
1070
     1
1071
      221
1005
126C37
  0
LINE
  5
126C38
  8
OBJECT
 10
8029.1669749999928
 20
-271.26210499999888
 30
0.0
 11
8021.2231624441047
 21
-279.20591755589248
 31
0.0
1001
ACDBBLOCKREPETAG
1070
     1
1071
      222
1005
126C38
  0
LINE
  5
126C39
  8
OBJECT
 10
7970.8330260000012
 20
-271.26210499999888
 30
0.0
 11
7978.77683892192
 21
-279.20591792191681
 31
0.0
1001
ACDBBLOCKREPETAG
1070
     1
1071
      223
1005
126C39
  0
ARC
  5
126C3A
  8
OBJECT
 10
8000.0
 20
-199.99999999999909
 30
0.0
 40
82.000000000000014
 50
255.00000044864029
 51
285.00000053969478
1001
ACDBBLOCKREPETAG
1070
     1
1071
      224
1005
126C3A
  0
LINE
  5
126C3B
  8
OBJECT
 10
7928.7378959999978
 20
-229.1669739999989
 30
0.0
 11
7920.7940817120543
 21
-221.2231597120545
 31
0.0
1001
ACDBBLOCKREPETAG
1070
     1
1071
      225
1005
126C3B
  0
ARC
  5
126C3C
  8
OBJECT
 10
8000.0
 20
-199.99999999999909
 30
0.0
 40
82.000000000000014
 50
165.0000004487641
 51
194.99999856301361
1001
ACDBBLOCKREPETAG
1070
     1
1071
      226
1005
126C3C
  0
LINE
  5
126C3D
  8
OBJECT
 10
7970.8330260000012
 20
-128.7378949999993
 30
0.0
 11
7978.77683892192
 21
-120.7940820780795
 31
0.0
1001
ACDBBLOCKREPETAG
1070
     1
1071
      227
1005
126C3D
  0
ARC
  5
126C3E
  8
OBJECT
 10
8000.0
 20
-199.99999999999909
 30
0.0
 40
82.000000000000014
 50
74.999999460305204
 51
104.99999955135971
1001
ACDBBLOCKREPETAG
1070
     1
1071
      228
1005
126C3E
  0
LINE
  5
126C3F
  8
OBJECT
 10
8029.1669749999928
 20
-128.7378949999993
 30
0.0
 11
8021.2231624441047
 21
-120.79408244410391
 31
0.0
1001
ACDBBLOCKREPETAG
1070
     1
1071
      229
1005
126C3F
  0
LINE
  5
126C40
  8
OBJECT
 10
7962.402059
 20
-161.93893300000039
 30
0.0
 11
8037.0841102714267
 21
-174.5180316957439
 31
0.0
1001
ACDBBLOCKREPETAG
1070
     1
1071
      230
1005
126C40
  0
LINE
  5
126C41
  8
OBJECT
 10
8044.0936569999967
 20
-169.70149399999991
 30
0.0
 11
8037.0841102714267
 21
-174.5180316957439
 31
0.0
1001
ACDBBLOCKREPETAG
1070
     1
1071
      231
1005
126C41
  0
LINE
  5
126C42
  8
OBJECT
 10
7928.7378959999978
 20
-170.833024999999
 30
0.0
 11
7920.7940820780786
 21
-178.77683892191911
 31
0.0
1001
ACDBBLOCKREPETAG
1070
     1
1071
      232
1005
126C42
  0
CIRCLE
  5
126C43
  8
OBJECT
 10
8000.0
 20
-199.99999999999909
 30
0.0
 40
53.500000000000007
1001
ACDBBLOCKREPETAG
1070
     1
1071
      233
1005
126C43
  0
ARC
  5
126C44
  8
OBJECT
 10
8000.0
 20
-199.99999999999909
 30
0.0
 40
50.0
 50
131.7018096435265
 51
168.52376955954711
1001
ACDBBLOCKREPETAG
1070
     1
1071
      234
1005
126C44
  0
ARC
  5
126C45
  8
OBJECT
 10
8000.0
 20
-199.99999999999909
 30
0.0
 40
50.0
 50
238.8199429999047
 51
34.494506250115712
1001
ACDBBLOCKREPETAG
1070
     1
1071
      235
1005
126C45
  0
LINE
  5
126C46
  8
OBJECT
 10
8071.2621049999934
 20
-170.833024999999
 30
0.0
 11
8079.2059175558898
 21
-178.77683755589439
 31
0.0
1001
ACDBBLOCKREPETAG
1070
     1
1071
      236
1005
126C46
  0
ARC
  5
126C47
  8
OBJECT
 10
8000.0
 20
-199.99999999999909
 30
0.0
 40
82.000000000000014
 50
345.00000044876413
 51
15.00000053935913
1001
ACDBBLOCKREPETAG
1070
     1
1071
      237
1005
126C47
  0
LINE
  5
126C48
  8
OBJECT
 10
8071.2621049999934
 20
-229.1669739999989
 30
0.0
 11
8079.2059179219214
 21
-221.2231610780791
 31
0.0
1001
ACDBBLOCKREPETAG
1070
     1
1071
      238
1005
126C48
  0
LINE
  5
126C49
  8
OBJECT
 10
8045.6618002273253
 20
-137.99999999999909
 30
0.0
 11
8080.0
 21
-137.99999999999909
 31
0.0
1001
ACDBBLOCKREPETAG
1070
     1
1071
      239
1005
126C49
  0
LINE
  5
126C4A
  8
OBJECT
 10
8045.6618002273253
 20
-261.99999999999909
 30
0.0
 11
8080.0
 21
-261.99999999999909
 31
0.0
1001
ACDBBLOCKREPETAG
1070
     1
1071
      240
1005
126C4A
  0
LINE
  5
126C4B
  8
CENTER
 10
8080.0
 20
-199.99999999999909
 30
0.0
 11
7900.0018972160606
 21
-199.99999999999909
 31
0.0
1001
ACDBBLOCKREPETAG
1070
     1
1071
      249
1005
126C4B
  0
LINE
  5
126C4C
  8
CENTER
 10
8000.0
 20
-299.99999999999909
 30
0.0
 11
8000.0
 21
-99.999999999999091
 31
0.0
1001
ACDBBLOCKREPETAG
1070
     1
1071
      250
1005
126C4C
  0
ARC
  5
126C4D
  8
OBJECT
 10
8000.0
 20
-199.99999999999909
 30
0.0
 40
85.0
 50
46.837102859814031
 51
313.16289714018598
1001
ACDBBLOCKREPETAG
1070
     1
1071
      251
1005
126C4D
  0
LINE
  5
126C4E
  8
OBJECT
 10
7946.692194143754
 20
-195.46638161316059
 30
0.0
 11
7970.4540343856352
 21
-193.79865146436981
 31
0.0
1001
ACDBBLOCKREPETAG
1070
     1
1071
      340
1005
126C4E
  0
LINE
  5
126C4F
  8
OBJECT
 10
7947.3854347270599
 20
-190.305593971766
 30
0.0
 11
7966.9884352629006
 21
-188.92975272660161
 31
0.0
1001
ACDBBLOCKREPETAG
1070
     1
1071
      341
1005
126C4F
  0
LINE
  5
126C50
  8
OBJECT
 10
7974.1135374752766
 20
-242.77722592637201
 30
0.0
 11
7982.1366988374066
 21
-234.1690987954708
 31
0.0
1001
ACDBBLOCKREPETAG
1070
     1
1071
      342
1005
126C50
  0
ARC
  5
126C51
  8
OBJECT
 10
7982.1160071245404
 20
-183.28188966318251
 30
0.0
 40
60.031113246032611
 50
254.07020130412749
 51
262.33936106086588
1001
ACDBBLOCKREPETAG
1070
     1
1071
      343
1005
126C51
  0
LINE
  5
126C52
  8
OBJECT
 10
7977.6125997325144
 20
-197.67495277149919
 30
0.0
 11
7982.1366988374066
 21
-234.1690987954708
 31
0.0
1001
ACDBBLOCKREPETAG
1070
     1
1071
      344
1005
126C52
  0
ARC
  5
126C53
  8
OBJECT
 10
7967.6885653456411
 20
-198.90521351131881
 30
0.0
 40
10.0
 50
7.0667782929925869
 51
94.014734370532395
1001
ACDBBLOCKREPETAG
1070
     1
1071
      345
1005
126C53
  0
ARC
  5
126C54
  8
OBJECT
 10
7970.9441253709738
 20
-200.78147401875589
 30
0.0
 40
7.0
 50
7.0667782929925869
 51
94.014733775014633
1001
ACDBBLOCKREPETAG
1070
     1
1071
      346
1005
126C54
  0
POINT
  5
126C55
  8
DOTS
 10
8000.0
 20
-199.99999999999909
 30
0.0
 50
270.0
1001
ACDBBLOCKREPETAG
1070
     1
1071
      349
1005
126C55
  0
LINE
  5
126C56
  8
OBJECT
 10
8202.9999999999854
 20
-483.0000000000008
 30
0.0
 11
8209.9999999999836
 21
-483.0000000000008
 31
0.0
1001
ACDBBLOCKREPETAG
1070
     1
1071
       83
1005
126C56
  0
LINE
  5
126C57
  8
OBJECT
 10
8209.9999999999836
 20
-483.0000000000008
 30
0.0
 11
8209.9999999999836
 21
-607.00000000000091
 31
0.0
1001
ACDBBLOCKREPETAG
1070
     1
1071
       84
1005
126C57
  0
LINE
  5
126C58
  8
OBJECT
 10
8085.9999999999864
 20
-553.3502637757274
 30
0.0
 11
8085.9999999999864
 21
-655.00000000000091
 31
0.0
1001
ACDBBLOCKREPETAG
1070
     1
1071
       85
1005
126C58
  0
LINE
  5
126C59
  8
OBJECT
 10
8209.9999999999836
 20
-607.00000000000091
 30
0.0
 11
8202.9999999999854
 21
-607.00000000000091
 31
0.0
1001
ACDBBLOCKREPETAG
1070
     1
1071
       86
1005
126C59
  0
LINE
  5
126C5A
  8
OBJECT
 10
8202.9999999999854
 20
-607.00000000000091
 30
0.0
 11
8202.9999999999854
 21
-483.0000000000008
 31
0.0
1001
ACDBBLOCKREPETAG
1070
     1
1071
       87
1005
126C5A
  0
LINE
  5
126C5B
  8
CENTER
 10
8134.9999999999854
 20
-545.00000000000091
 30
0.0
 11
8224.9999999999854
 21
-545.00000000000091
 31
0.0
1001
ACDBBLOCKREPETAG
1070
     1
1071
       88
1005
126C5B
  0
LINE
  5
126C5C
  8
OBJECT
 10
8079.9999999999818
 20
-658.0
 30
0.0
 11
8082.9999999999854
 21
-658.0000000000008
 31
0.0
1001
ACDBBLOCKREPETAG
1070
     1
1071
       89
1005
126C5C
  0
ARC
  5
126C5D
  8
OBJECT
 10
8082.9999999999854
 20
-655.00000000000091
 30
0.0
 40
3.0
 50
270.0
 51
0.0
1001
ACDBBLOCKREPETAG
1070
     1
1071
       90
1005
126C5D
  0
LINE
  5
126C5E
  8
OBJECT
 10
8202.9999999999854
 20
-486.00000000000091
 30
0.0
 11
8166.9999999999854
 21
-486.00000000000091
 31
0.0
1001
ACDBBLOCKREPETAG
1070
     1
1071
       91
1005
126C5E
  0
LINE
  5
126C5F
  8
OBJECT
 10
8166.9999999999854
 20
-486.00000000000091
 30
0.0
 11
8166.9999999999854
 21
-604.0000000000008
 31
0.0
1001
ACDBBLOCKREPETAG
1070
     1
1071
       92
1005
126C5F
  0
LINE
  5
126C60
  8
OBJECT
 10
8162.9999999999864
 20
-490.50000000000091
 30
0.0
 11
8162.9999999999864
 21
-599.5000000000008
 31
0.0
1001
ACDBBLOCKREPETAG
1070
     1
1071
       93
1005
126C60
  0
LINE
  5
126C61
  8
OBJECT
 10
8162.9999999999864
 20
-490.50000000000091
 30
0.0
 11
8149.9999999999864
 21
-490.50000000000091
 31
0.0
1001
ACDBBLOCKREPETAG
1070
     1
1071
       94
1005
126C61
  0
LINE
  5
126C62
  8
OBJECT
 10
8166.9999999999854
 20
-604.0000000000008
 30
0.0
 11
8202.9999999999854
 21
-604.0000000000008
 31
0.0
1001
ACDBBLOCKREPETAG
1070
     1
1071
       95
1005
126C62
  0
LINE
  5
126C63
  8
OBJECT
 10
8166.9999999999854
 20
-486.00000000000091
 30
0.0
 11
8162.9999999999864
 21
-490.50000000000091
 31
0.0
1001
ACDBBLOCKREPETAG
1070
     1
1071
       96
1005
126C63
  0
LINE
  5
126C64
  8
OBJECT
 10
8149.9999999999864
 20
-490.50000000000091
 30
0.0
 11
8149.9999999999864
 21
-575.74491827928784
 31
0.0
1001
ACDBBLOCKREPETAG
1070
     1
1071
       97
1005
126C64
  0
ARC
  5
126C65
  8
OBJECT
 10
8152.7999999999838
 20
-585.00000000000091
 30
0.0
 40
85.0
 50
91.887731891831109
 51
143.1301023540934
1001
ACDBBLOCKREPETAG
1070
     1
1071
       98
1005
126C65
  0
LINE
  5
126C66
  8
HIDDEN
 10
8157.9999999999854
 20
-500.5000000000008
 30
0.0
 11
8157.9999999999854
 21
-589.50000000000091
 31
0.0
1001
ACDBBLOCKREPETAG
1070
     1
1071
      100
1005
126C66
  0
LINE
  5
126C67
  8
OBJECT
 10
8085.9999999999864
 20
-651.07945073181781
 30
0.0
 11
8156.6313199210299
 21
-599.5000000000008
 31
0.0
1001
ACDBBLOCKREPETAG
1070
     1
1071
      101
1005
126C67
  0
LINE
  5
126C68
  8
OBJECT
 10
8079.9999999999818
 20
-534.0
 30
0.0
 11
8084.7999999999847
 21
-534.0
 31
0.0
1001
ACDBBLOCKREPETAG
1070
     1
1071
      102
1005
126C68
  0
LINE
  5
126C69
  8
OBJECT
 10
8085.9999999999864
 20
-553.35026377573013
 30
0.0
 11
8084.7999999999847
 21
-534.0
 31
0.0
1001
ACDBBLOCKREPETAG
1070
     1
1071
      103
1005
126C69
  0
LINE
  5
126C6A
  8
OBJECT
 10
8162.9999999999864
 20
-599.5000000000008
 30
0.0
 11
8156.6313199210299
 21
-599.5000000000008
 31
0.0
1001
ACDBBLOCKREPETAG
1070
     1
1071
      104
1005
126C6A
  0
LINE
  5
126C6B
  8
OBJECT
 10
8166.9999999999854
 20
-604.0000000000008
 30
0.0
 11
8162.9999999999864
 21
-599.5000000000008
 31
0.0
1001
ACDBBLOCKREPETAG
1070
     1
1071
      105
1005
126C6B
  0
LINE
  5
126C6C
  8
OBJECT
 10
8202.9999999999854
 20
-137.99999999999909
 30
0.0
 11
8209.9999999999836
 21
-137.99999999999909
 31
0.0
1001
ACDBBLOCKREPETAG
1070
     1
1071
       85
1005
126C6C
  0
LINE
  5
126C6D
  8
OBJECT
 10
8209.9999999999836
 20
-137.99999999999909
 30
0.0
 11
8209.9999999999836
 21
-261.99999999999909
 31
0.0
1001
ACDBBLOCKREPETAG
1070
     1
1071
       86
1005
126C6D
  0
LINE
  5
126C6E
  8
OBJECT
 10
8209.9999999999836
 20
-261.99999999999909
 30
0.0
 11
8202.9999999999854
 21
-261.99999999999909
 31
0.0
1001
ACDBBLOCKREPETAG
1070
     1
1071
       87
1005
126C6E
  0
LINE
  5
126C6F
  8
OBJECT
 10
8202.9999999999854
 20
-261.99999999999909
 30
0.0
 11
8202.9999999999854
 21
-137.99999999999909
 31
0.0
1001
ACDBBLOCKREPETAG
1070
     1
1071
       88
1005
126C6F
  0
LINE
  5
126C70
  8
CENTER
 10
8224.9999999999854
 20
-199.99999999999909
 30
0.0
 11
8080.0
 21
-199.99999999999909
 31
0.0
1001
ACDBBLOCKREPETAG
1070
     1
1071
       89
1005
126C70
  0
LINE
  5
126C71
  8
OBJECT
 10
8149.9999749641856
 20
-245.0000000000027
 30
0.0
 11
8086.0
 21
-244.99999999999909
 31
0.0
1001
ACDBBLOCKREPETAG
1070
     1
1071
       90
1005
126C71
  0
LINE
  5
126C72
  8
OBJECT
 10
8149.9999749641856
 20
-154.99999999999909
 30
0.0
 11
8086.0
 21
-154.99999999999909
 31
0.0
1001
ACDBBLOCKREPETAG
1070
     1
1071
       91
1005
126C72
  0
LINE
  5
126C73
  8
OBJECT
 10
8202.9999999999854
 20
-140.99999999999909
 30
0.0
 11
8166.9999999999854
 21
-140.99999999999909
 31
0.0
1001
ACDBBLOCKREPETAG
1070
     1
1071
       92
1005
126C73
  0
LINE
  5
126C74
  8
OBJECT
 10
8166.9999999999854
 20
-140.99999999999909
 30
0.0
 11
8166.9999999999854
 21
-258.99999999999909
 31
0.0
1001
ACDBBLOCKREPETAG
1070
     1
1071
       93
1005
126C74
  0
LINE
  5
126C75
  8
OBJECT
 10
8166.9999999999854
 20
-258.99999999999909
 30
0.0
 11
8202.9999999999854
 21
-258.99999999999909
 31
0.0
1001
ACDBBLOCKREPETAG
1070
     1
1071
       94
1005
126C75
  0
LINE
  5
126C76
  8
OBJECT
 10
8162.9999999999864
 20
-145.49999999999909
 30
0.0
 11
8149.9999999999864
 21
-145.49999999999909
 31
0.0
1001
ACDBBLOCKREPETAG
1070
     1
1071
       95
1005
126C76
  0
LINE
  5
126C77
  8
OBJECT
 10
8149.9999999999864
 20
-254.49999999999909
 30
0.0
 11
8162.9999999999864
 21
-254.49999999999909
 31
0.0
1001
ACDBBLOCKREPETAG
1070
     1
1071
       96
1005
126C77
  0
LINE
  5
126C78
  8
OBJECT
 10
8162.9999999999864
 20
-254.49999999999909
 30
0.0
 11
8162.9999999999864
 21
-145.49999999999909
 31
0.0
1001
ACDBBLOCKREPETAG
1070
     1
1071
       97
1005
126C78
  0
LINE
  5
126C79
  8
OBJECT
 10
8166.9999999999854
 20
-140.99999999999909
 30
0.0
 11
8162.9999999999864
 21
-145.49999999999909
 31
0.0
1001
ACDBBLOCKREPETAG
1070
     1
1071
       98
1005
126C79
  0
LINE
  5
126C7A
  8
OBJECT
 10
8166.9999999999854
 20
-258.99999999999909
 30
0.0
 11
8162.9999999999864
 21
-254.49999999999909
 31
0.0
1001
ACDBBLOCKREPETAG
1070
     1
1071
       99
1005
126C7A
  0
LINE
  5
126C7B
  8
OBJECT
 10
8083.0
 20
-137.99999999999909
 30
0.0
 11
8080.0
 21
-137.99999999999909
 31
0.0
1001
ACDBBLOCKREPETAG
1070
     1
1071
      100
1005
126C7B
  0
ARC
  5
126C7C
  8
OBJECT
 10
8083.0
 20
-140.99999999999909
 30
0.0
 40
3.0
 50
0.0
 51
90.0
1001
ACDBBLOCKREPETAG
1070
     1
1071
      101
1005
126C7C
  0
LINE
  5
126C7D
  8
OBJECT
 10
8080.0
 20
-261.99999999999909
 30
0.0
 11
8083.0
 21
-261.99999999999909
 31
0.0
1001
ACDBBLOCKREPETAG
1070
     1
1071
      102
1005
126C7D
  0
ARC
  5
126C7E
  8
OBJECT
 10
8083.0
 20
-258.99999999999909
 30
0.0
 40
3.0
 50
270.0
 51
0.0
1001
ACDBBLOCKREPETAG
1070
     1
1071
      103
1005
126C7E
  0
LINE
  5
126C7F
  8
OBJECT
 10
8086.0
 20
-258.99999999999909
 30
0.0
 11
8086.0
 21
-210.3227903203578
 31
0.0
1001
ACDBBLOCKREPETAG
1070
     1
1071
      104
1005
126C7F
  0
LINE
  5
126C80
  8
OBJECT
 10
8086.0
 20
-189.6772096796403
 30
0.0
 11
8086.0
 21
-140.99999999999909
 31
0.0
1001
ACDBBLOCKREPETAG
1070
     1
1071
      105
1005
126C80
  0
LINE
  5
126C81
  8
HIDDEN
 10
8157.9999999999854
 20
-155.49999999999909
 30
0.0
 11
8157.9999999999854
 21
-244.49999999999909
 31
0.0
1001
ACDBBLOCKREPETAG
1070
     1
1071
      106
1005
126C81
  0
LINE
  5
126C82
  8
OBJECT
 10
8149.9999749641856
 20
-254.4999509238105
 30
0.0
 11
8149.9999749641856
 21
-145.4999509238105
 31
0.0
1001
ACDBBLOCKREPETAG
1070
     1
1071
      108
1005
126C82
  0
ARC
  5
126C83
  8
OBJECT
 10
8129.8000000000238
 20
-199.99999999999909
 30
0.0
 40
45.000000000000547
 50
90.0
 51
270.0
1001
ACDBBLOCKREPETAG
1070
     1
1071
      109
1005
126C83
  0
LINE
  5
126C84
  8
OBJECT
 10
5918.0
 20
-470.99999999999949
 30
0.0
 11
5918.0
 21
-449.99999999999949
 31
0.0
1001
ACDBBLOCKREPETAG
1070
     1
1071
        0
1005
126C84
  0
LINE
  5
126C85
  8
OBJECT
 10
5918.0
 20
-449.99999999999949
 30
0.0
 11
6082.0000000000036
 21
-449.99999999999949
 31
0.0
1001
ACDBBLOCKREPETAG
1070
     1
1071
        1
1005
126C85
  0
LINE
  5
126C86
  8
HIDDEN
 10
5943.0
 20
-519.99999999999955
 30
0.0
 11
6057.0
 21
-519.99999999999955
 31
0.0
1001
ACDBBLOCKREPETAG
1070
     1
1071
        2
1005
126C86
  0
LINE
  5
126C87
  8
OBJECT
 10
6082.0000000000036
 20
-470.99999999999949
 30
0.0
 11
5918.0
 21
-470.99999999999949
 31
0.0
1001
ACDBBLOCKREPETAG
1070
     1
1071
        3
1005
126C87
  0
LINE
  5
126C88
  8
CENTER
 10
6000.0
 20
-434.99999999999949
 30
0.0
 11
6000.0
 21
-799.99999999999955
 31
0.0
1001
ACDBBLOCKREPETAG
1070
     1
1071
        4
1005
126C88
  0
LINE
  5
126C89
  8
OBJECT
 10
5925.0
 20
-533.99999999999955
 30
0.0
 11
5925.0
 21
-787.99999999999955
 31
0.0
1001
ACDBBLOCKREPETAG
1070
     1
1071
        5
1005
126C89
  0
LINE
  5
126C8A
  8
OBJECT
 10
5928.0
 20
-470.99999999999949
 30
0.0
 11
5928.0
 21
-533.99999999999955
 31
0.0
1001
ACDBBLOCKREPETAG
1070
     1
1071
        6
1005
126C8A
  0
LINE
  5
126C8B
  8
OBJECT
 10
6072.0
 20
-533.99999999999955
 30
0.0
 11
6072.0
 21
-470.99999999999949
 31
0.0
1001
ACDBBLOCKREPETAG
1070
     1
1071
        7
1005
126C8B
  0
LINE
  5
126C8C
  8
OBJECT
 10
5920.0
 20
-787.99999999999955
 30
0.0
 11
6080.0
 21
-787.99999999999955
 31
0.0
1001
ACDBBLOCKREPETAG
1070
     1
1071
        8
1005
126C8C
  0
LINE
  5
126C8D
  8
OBJECT
 10
6080.0
 20
-533.99999999999955
 30
0.0
 11
5925.0
 21
-533.99999999999955
 31
0.0
1001
ACDBBLOCKREPETAG
1070
     1
1071
        9
1005
126C8D
  0
LINE
  5
126C8E
  8
OBJECT
 10
5920.0
 20
-787.99999999999955
 30
0.0
 11
5920.0
 21
-799.99999999999955
 31
0.0
1001
ACDBBLOCKREPETAG
1070
     1
1071
       10
1005
126C8E
  0
LINE
  5
126C8F
  8
OBJECT
 10
5920.0
 20
-799.99999999999955
 30
0.0
 11
6080.0
 21
-799.99999999999955
 31
0.0
1001
ACDBBLOCKREPETAG
1070
     1
1071
       11
1005
126C8F
  0
LINE
  5
126C90
  8
OBJECT
 10
6080.0
 20
-799.99999999999955
 30
0.0
 11
6080.0
 21
-787.99999999999955
 31
0.0
1001
ACDBBLOCKREPETAG
1070
     1
1071
       12
1005
126C90
  0
LINE
  5
126C91
  8
OBJECT
 10
6074.9999999998618
 20
-657.99999999985039
 30
0.0
 11
6075.0
 21
-787.99999999999955
 31
0.0
1001
ACDBBLOCKREPETAG
1070
     1
1071
       14
1005
126C91
  0
LINE
  5
126C92
  8
OBJECT
 10
6074.9999908029858
 20
-657.99998602702135
 30
0.0
 11
6080.0
 21
-657.99998602702135
 31
0.0
1001
ACDBBLOCKREPETAG
1070
     1
1071
       15
1005
126C92
  0
LINE
  5
126C93
  8
OBJECT
 10
5920.7940817120252
 20
-449.99999999999949
 30
0.0
 11
5920.7940817120252
 21
-470.99999999999949
 31
0.0
1001
ACDBBLOCKREPETAG
1070
     1
1071
       16
1005
126C93
  0
LINE
  5
126C94
  8
OBJECT
 10
5928.7378959999987
 20
-449.99999999999949
 30
0.0
 11
5928.7378959999987
 21
-470.99999999999949
 31
0.0
1001
ACDBBLOCKREPETAG
1070
     1
1071
       17
1005
126C94
  0
LINE
  5
126C95
  8
OBJECT
 10
5970.8330260000012
 20
-449.99999999999949
 30
0.0
 11
5970.8330260000012
 21
-470.99999999999949
 31
0.0
1001
ACDBBLOCKREPETAG
1070
     1
1071
       18
1005
126C95
  0
LINE
  5
126C96
  8
OBJECT
 10
5978.7768389217999
 20
-449.99999999999949
 30
0.0
 11
5978.7768389217999
 21
-470.99999999999949
 31
0.0
1001
ACDBBLOCKREPETAG
1070
     1
1071
       19
1005
126C96
  0
LINE
  5
126C97
  8
OBJECT
 10
6082.0
 20
-470.99999999999949
 30
0.0
 11
6082.0
 21
-449.99999999999949
 31
0.0
1001
ACDBBLOCKREPETAG
1070
     1
1071
       20
1005
126C97
  0
LINE
  5
126C98
  8
OBJECT
 10
6079.2059182879748
 20
-449.99999999999949
 30
0.0
 11
6079.2059182879748
 21
-470.99999999999949
 31
0.0
1001
ACDBBLOCKREPETAG
1070
     1
1071
       21
1005
126C98
  0
LINE
  5
126C99
  8
OBJECT
 10
6071.2621040000022
 20
-449.99999999999949
 30
0.0
 11
6071.2621040000022
 21
-470.99999999999949
 31
0.0
1001
ACDBBLOCKREPETAG
1070
     1
1071
       22
1005
126C99
  0
LINE
  5
126C9A
  8
OBJECT
 10
6029.1669739999988
 20
-449.99999999999949
 30
0.0
 11
6029.1669739999988
 21
-470.99999999999949
 31
0.0
1001
ACDBBLOCKREPETAG
1070
     1
1071
       23
1005
126C9A
  0
LINE
  5
126C9B
  8
OBJECT
 10
6021.2231610782001
 20
-449.99999999999949
 30
0.0
 11
6021.2231610782001
 21
-470.99999999999949
 31
0.0
1001
ACDBBLOCKREPETAG
1070
     1
1071
       24
1005
126C9B
  0
ARC
  5
126C9C
  8
OBJECT
 10
6200.6872746716726
 20
-649.40809941010718
 30
0.0
 40
170.6350503965856
 50
137.44134459184301
 51
149.91949581337221
1001
ACDBBLOCKREPETAG
1070
     1
1071
       25
1005
126C9C
  0
ARC
  5
126C9D
  8
OBJECT
 10
6118.8455987040506
 20
-605.88272669536445
 30
0.0
 40
78.072222021763665
 50
147.4551531038293
 51
164.66365997719919
1001
ACDBBLOCKREPETAG
1070
     1
1071
       26
1005
126C9D
  0
ARC
  5
126C9E
  8
OBJECT
 10
6085.7554349608727
 20
-595.99999999999955
 30
0.0
 40
43.553539268856177
 50
165.688452300753
 51
194.31154769924689
1001
ACDBBLOCKREPETAG
1070
     1
1071
       27
1005
126C9E
  0
ARC
  5
126C9F
  8
OBJECT
 10
6200.6872746716726
 20
-542.59190058989179
 30
0.0
 40
170.6350503965856
 50
210.08050418662779
 51
222.55865540815699
1001
ACDBBLOCKREPETAG
1070
     1
1071
       28
1005
126C9F
  0
ARC
  5
126CA0
  8
OBJECT
 10
6118.8455987040506
 20
-586.11727330463464
 30
0.0
 40
78.072222021763665
 50
195.3363400228007
 51
212.54484689617061
1001
ACDBBLOCKREPETAG
1070
     1
1071
       29
1005
126CA0
  0
POINT
  5
126CA1
  8
DOTS
 10
6000.0
 20
-654.99999999999955
 30
0.0
1001
ACDBBLOCKREPETAG
1070
     1
1071
      204
1005
126CA1
  0
LINE
  5
126CA2
  8
OBJECT
 10
5946.692194143754
 20
-195.46638161316059
 30
0.0
 11
5970.4540343856352
 21
-193.79865146436981
 31
0.0
1001
ACDBBLOCKREPETAG
1070
     1
1071
      326
1005
126CA2
  0
LINE
  5
126CA3
  8
OBJECT
 10
5947.3854347270608
 20
-190.305593971766
 30
0.0
 11
5966.9884352629006
 21
-188.92975272660161
 31
0.0
1001
ACDBBLOCKREPETAG
1070
     1
1071
      327
1005
126CA3
  0
LINE
  5
126CA4
  8
OBJECT
 10
5974.1135374752776
 20
-242.77722592637201
 30
0.0
 11
5982.1366988374066
 21
-234.1690987954708
 31
0.0
1001
ACDBBLOCKREPETAG
1070
     1
1071
      328
1005
126CA4
  0
ARC
  5
126CA5
  8
OBJECT
 10
5982.1160071245386
 20
-183.28188966318251
 30
0.0
 40
60.031113246032611
 50
254.07020130412749
 51
262.33936106086588
1001
ACDBBLOCKREPETAG
1070
     1
1071
      329
1005
126CA5
  0
LINE
  5
126CA6
  8
OBJECT
 10
5977.6125997325144
 20
-197.67495277149919
 30
0.0
 11
5982.1366988374066
 21
-234.1690987954708
 31
0.0
1001
ACDBBLOCKREPETAG
1070
     1
1071
      330
1005
126CA6
  0
ARC
  5
126CA7
  8
OBJECT
 10
5967.6885653456411
 20
-198.90521351131881
 30
0.0
 40
10.0
 50
7.0667782929925869
 51
94.014734370532395
1001
ACDBBLOCKREPETAG
1070
     1
1071
      331
1005
126CA7
  0
ARC
  5
126CA8
  8
OBJECT
 10
5970.9441253709738
 20
-200.78147401875589
 30
0.0
 40
7.0
 50
7.0667782929925869
 51
94.014733775014633
1001
ACDBBLOCKREPETAG
1070
     1
1071
      332
1005
126CA8
  0
POINT
  5
126CA9
  8
DOTS
 10
6000.0
 20
-199.99999999999909
 30
0.0
 50
270.0
1001
ACDBBLOCKREPETAG
1070
     1
1071
      347
1005
126CA9
  0
ARC
  5
126CAA
  8
OBJECT
 10
6000.0
 20
-199.99999999999909
 30
0.0
 40
77.0
 50
202.25886899988009
 51
247.74113099990561
1001
ACDBBLOCKREPETAG
1070
     1
1071
        0
1005
126CAA
  0
ARC
  5
126CAB
  8
OBJECT
 10
6000.0
 20
-199.99999999999909
 30
0.0
 40
80.0
 50
50.804965661401717
 51
72.417343999921073
1001
ACDBBLOCKREPETAG
1070
     1
1071
        1
1005
126CAB
  0
ARC
  5
126CAC
  8
OBJECT
 10
6000.0
 20
-199.99999999999909
 30
0.0
 40
77.0
 50
292.25886900009442
 51
337.74113100011988
1001
ACDBBLOCKREPETAG
1070
     1
1071
        2
1005
126CAC
  0
ARC
  5
126CAD
  8
OBJECT
 10
6000.0
 20
-199.99999999999909
 30
0.0
 40
77.0
 50
112.25886900009441
 51
157.74113100011991
1001
ACDBBLOCKREPETAG
1070
     1
1071
        3
1005
126CAD
  0
ARC
  5
126CAE
  8
OBJECT
 10
6000.0
 20
-199.99999999999909
 30
0.0
 40
80.0
 50
107.5826560000789
 51
162.41734431895071
1001
ACDBBLOCKREPETAG
1070
     1
1071
        4
1005
126CAE
  0
ARC
  5
126CAF
  8
OBJECT
 10
6000.0
 20
-199.99999999999909
 30
0.0
 40
80.0
 50
197.58265458123219
 51
252.4173443189411
1001
ACDBBLOCKREPETAG
1070
     1
1071
        5
1005
126CAF
  0
ARC
  5
126CB0
  8
OBJECT
 10
6000.0
 20
-199.99999999999909
 30
0.0
 40
80.0
 50
287.5826567808985
 51
309.19496742611562
1001
ACDBBLOCKREPETAG
1070
     1
1071
        6
1005
126CB0
  0
ARC
  5
126CB1
  8
OBJECT
 10
6000.0
 20
-199.99999999999909
 30
0.0
 40
77.0
 50
22.258868999880129
 51
67.741130999905565
1001
ACDBBLOCKREPETAG
1070
     1
1071
        7
1005
126CB1
  0
CIRCLE
  5
126CB2
  8
OBJECT
 10
6000.0
 20
-199.99999999999909
 30
0.0
 40
70.0
1001
ACDBBLOCKREPETAG
1070
     1
1071
        8
1005
126CB2
  0
LINE
  5
126CB3
  8
OBJECT
 10
6029.1669749999974
 20
-271.26210499999888
 30
0.0
 11
6021.2231624441047
 21
-279.20591755589248
 31
0.0
1001
ACDBBLOCKREPETAG
1070
     1
1071
        9
1005
126CB3
  0
LINE
  5
126CB4
  8
OBJECT
 10
5970.8330260000012
 20
-271.26210499999888
 30
0.0
 11
5978.7768389219164
 21
-279.20591792191681
 31
0.0
1001
ACDBBLOCKREPETAG
1070
     1
1071
       10
1005
126CB4
  0
ARC
  5
126CB5
  8
OBJECT
 10
6000.0
 20
-199.99999999999909
 30
0.0
 40
82.000000000000014
 50
255.00000044864069
 51
285.00000053947957
1001
ACDBBLOCKREPETAG
1070
     1
1071
       11
1005
126CB5
  0
LINE
  5
126CB6
  8
OBJECT
 10
5928.7378959999987
 20
-229.1669739999989
 30
0.0
 11
5920.7940817120543
 21
-221.2231597120545
 31
0.0
1001
ACDBBLOCKREPETAG
1070
     1
1071
       12
1005
126CB6
  0
ARC
  5
126CB7
  8
OBJECT
 10
6000.0
 20
-199.99999999999909
 30
0.0
 40
82.000000000000014
 50
165.0000004488474
 51
194.9999985630262
1001
ACDBBLOCKREPETAG
1070
     1
1071
       13
1005
126CB7
  0
LINE
  5
126CB8
  8
OBJECT
 10
5970.8330260000012
 20
-128.7378949999993
 30
0.0
 11
5978.7768389219164
 21
-120.7940820780795
 31
0.0
1001
ACDBBLOCKREPETAG
1070
     1
1071
       14
1005
126CB8
  0
ARC
  5
126CB9
  8
OBJECT
 10
6000.0
 20
-199.99999999999909
 30
0.0
 40
82.000000000000014
 50
74.999999460520456
 51
104.99999955135929
1001
ACDBBLOCKREPETAG
1070
     1
1071
       15
1005
126CB9
  0
LINE
  5
126CBA
  8
OBJECT
 10
6029.1669749999974
 20
-128.7378949999993
 30
0.0
 11
6021.2231624441047
 21
-120.79408244410391
 31
0.0
1001
ACDBBLOCKREPETAG
1070
     1
1071
       16
1005
126CBA
  0
LINE
  5
126CBB
  8
OBJECT
 10
5962.402059
 20
-161.93893300000039
 30
0.0
 11
6037.0841102714221
 21
-174.5180316957439
 31
0.0
1001
ACDBBLOCKREPETAG
1070
     1
1071
       17
1005
126CBB
  0
LINE
  5
126CBC
  8
OBJECT
 10
6044.0936569999967
 20
-169.70149399999991
 30
0.0
 11
6037.0841102714221
 21
-174.5180316957439
 31
0.0
1001
ACDBBLOCKREPETAG
1070
     1
1071
       18
1005
126CBC
  0
LINE
  5
126CBD
  8
OBJECT
 10
5928.7378959999987
 20
-170.833024999999
 30
0.0
 11
5920.7940820780777
 21
-178.77683892191911
 31
0.0
1001
ACDBBLOCKREPETAG
1070
     1
1071
       19
1005
126CBD
  0
CIRCLE
  5
126CBE
  8
OBJECT
 10
6000.0
 20
-199.99999999999909
 30
0.0
 40
53.500000000000007
1001
ACDBBLOCKREPETAG
1070
     1
1071
       20
1005
126CBE
  0
ARC
  5
126CBF
  8
OBJECT
 10
6000.0
 20
-199.99999999999909
 30
0.0
 40
50.0
 50
131.70180964353301
 51
168.52376955958221
1001
ACDBBLOCKREPETAG
1070
     1
1071
       21
1005
126CBF
  0
ARC
  5
126CC0
  8
OBJECT
 10
6000.0
 20
-199.99999999999909
 30
0.0
 40
50.0
 50
238.8199429999047
 51
34.494506250117063
1001
ACDBBLOCKREPETAG
1070
     1
1071
       22
1005
126CC0
  0
LINE
  5
126CC1
  8
OBJECT
 10
6071.262104999998
 20
-170.833024999999
 30
0.0
 11
6079.2059175558934
 21
-178.77683755589439
 31
0.0
1001
ACDBBLOCKREPETAG
1070
     1
1071
       23
1005
126CC1
  0
ARC
  5
126CC2
  8
OBJECT
 10
6000.0
 20
-199.99999999999909
 30
0.0
 40
82.000000000000014
 50
345.0000004488474
 51
15.00000053937171
1001
ACDBBLOCKREPETAG
1070
     1
1071
       24
1005
126CC2
  0
LINE
  5
126CC3
  8
OBJECT
 10
6071.262104999998
 20
-229.1669739999989
 30
0.0
 11
6079.2059179219214
 21
-221.2231610780791
 31
0.0
1001
ACDBBLOCKREPETAG
1070
     1
1071
       25
1005
126CC3
  0
LINE
  5
126CC4
  8
OBJECT
 10
6045.6618002273253
 20
-137.99999999999909
 30
0.0
 11
6080.0
 21
-137.99999999999909
 31
0.0
1001
ACDBBLOCKREPETAG
1070
     1
1071
       26
1005
126CC4
  0
LINE
  5
126CC5
  8
OBJECT
 10
6045.6618002273253
 20
-261.99999999999909
 30
0.0
 11
6080.0
 21
-261.99999999999909
 31
0.0
1001
ACDBBLOCKREPETAG
1070
     1
1071
       27
1005
126CC5
  0
LINE
  5
126CC6
  8
CENTER
 10
6080.0
 20
-199.99999999999909
 30
0.0
 11
5903.0
 21
-199.99999999999909
 31
0.0
1001
ACDBBLOCKREPETAG
1070
     1
1071
       36
1005
126CC6
  0
LINE
  5
126CC7
  8
CENTER
 10
6000.0
 20
-296.99999999999909
 30
0.0
 11
6000.0
 21
-104.9999999999991
 31
0.0
1001
ACDBBLOCKREPETAG
1070
     1
1071
       37
1005
126CC7
  0
LINE
  5
126CC8
  8
OBJECT
 10
6202.9999999999864
 20
-483.0000000000008
 30
0.0
 11
6209.9999999999864
 21
-483.0000000000008
 31
0.0
1001
ACDBBLOCKREPETAG
1070
     1
1071
       83
1005
126CC8
  0
LINE
  5
126CC9
  8
OBJECT
 10
6209.9999999999864
 20
-483.0000000000008
 30
0.0
 11
6209.9999999999864
 21
-607.00000000000091
 31
0.0
1001
ACDBBLOCKREPETAG
1070
     1
1071
       84
1005
126CC9
  0
LINE
  5
126CCA
  8
OBJECT
 10
6085.9999999999864
 20
-553.3502637757274
 30
0.0
 11
6085.9999999999864
 21
-655.00000000000091
 31
0.0
1001
ACDBBLOCKREPETAG
1070
     1
1071
       85
1005
126CCA
  0
LINE
  5
126CCB
  8
OBJECT
 10
6209.9999999999864
 20
-607.00000000000091
 30
0.0
 11
6202.9999999999864
 21
-607.00000000000091
 31
0.0
1001
ACDBBLOCKREPETAG
1070
     1
1071
       86
1005
126CCB
  0
LINE
  5
126CCC
  8
OBJECT
 10
6202.9999999999864
 20
-607.00000000000091
 30
0.0
 11
6202.9999999999864
 21
-483.0000000000008
 31
0.0
1001
ACDBBLOCKREPETAG
1070
     1
1071
       87
1005
126CCC
  0
LINE
  5
126CCD
  8
CENTER
 10
6134.9999999999854
 20
-545.00000000000091
 30
0.0
 11
6224.9999999999864
 21
-545.00000000000091
 31
0.0
1001
ACDBBLOCKREPETAG
1070
     1
1071
       88
1005
126CCD
  0
LINE
  5
126CCE
  8
OBJECT
 10
6079.9999999999818
 20
-658.0
 30
0.0
 11
6082.9999999999854
 21
-658.0000000000008
 31
0.0
1001
ACDBBLOCKREPETAG
1070
     1
1071
       89
1005
126CCE
  0
ARC
  5
126CCF
  8
OBJECT
 10
6082.9999999999854
 20
-655.00000000000091
 30
0.0
 40
3.0
 50
270.0
 51
0.0
1001
ACDBBLOCKREPETAG
1070
     1
1071
       90
1005
126CCF
  0
LINE
  5
126CD0
  8
OBJECT
 10
6202.9999999999864
 20
-486.00000000000091
 30
0.0
 11
6166.9999999999854
 21
-486.00000000000091
 31
0.0
1001
ACDBBLOCKREPETAG
1070
     1
1071
       91
1005
126CD0
  0
LINE
  5
126CD1
  8
OBJECT
 10
6166.9999999999854
 20
-486.00000000000091
 30
0.0
 11
6166.9999999999854
 21
-604.0000000000008
 31
0.0
1001
ACDBBLOCKREPETAG
1070
     1
1071
       92
1005
126CD1
  0
LINE
  5
126CD2
  8
OBJECT
 10
6162.9999999999864
 20
-490.50000000000091
 30
0.0
 11
6162.9999999999864
 21
-599.5000000000008
 31
0.0
1001
ACDBBLOCKREPETAG
1070
     1
1071
       93
1005
126CD2
  0
LINE
  5
126CD3
  8
OBJECT
 10
6162.9999999999864
 20
-490.50000000000091
 30
0.0
 11
6149.9999999999864
 21
-490.50000000000091
 31
0.0
1001
ACDBBLOCKREPETAG
1070
     1
1071
       94
1005
126CD3
  0
LINE
  5
126CD4
  8
OBJECT
 10
6166.9999999999854
 20
-604.0000000000008
 30
0.0
 11
6202.9999999999864
 21
-604.0000000000008
 31
0.0
1001
ACDBBLOCKREPETAG
1070
     1
1071
       95
1005
126CD4
  0
LINE
  5
126CD5
  8
OBJECT
 10
6166.9999999999854
 20
-486.00000000000091
 30
0.0
 11
6162.9999999999864
 21
-490.50000000000091
 31
0.0
1001
ACDBBLOCKREPETAG
1070
     1
1071
       96
1005
126CD5
  0
LINE
  5
126CD6
  8
OBJECT
 10
6149.9999999999864
 20
-490.50000000000091
 30
0.0
 11
6149.9999999999864
 21
-575.74491827928784
 31
0.0
1001
ACDBBLOCKREPETAG
1070
     1
1071
       97
1005
126CD6
  0
ARC
  5
126CD7
  8
OBJECT
 10
6152.7999999999838
 20
-585.00000000000091
 30
0.0
 40
85.0
 50
91.887731891831109
 51
143.1301023540934
1001
ACDBBLOCKREPETAG
1070
     1
1071
       98
1005
126CD7
  0
LINE
  5
126CD8
  8
HIDDEN
 10
6157.9999999999864
 20
-500.5000000000008
 30
0.0
 11
6157.9999999999864
 21
-589.50000000000091
 31
0.0
1001
ACDBBLOCKREPETAG
1070
     1
1071
      100
1005
126CD8
  0
LINE
  5
126CD9
  8
OBJECT
 10
6085.9999999999864
 20
-651.07945073181781
 30
0.0
 11
6156.6313199210299
 21
-599.5000000000008
 31
0.0
1001
ACDBBLOCKREPETAG
1070
     1
1071
      101
1005
126CD9
  0
LINE
  5
126CDA
  8
OBJECT
 10
6079.9999999999818
 20
-534.0
 30
0.0
 11
6084.7999999999847
 21
-534.0
 31
0.0
1001
ACDBBLOCKREPETAG
1070
     1
1071
      102
1005
126CDA
  0
LINE
  5
126CDB
  8
OBJECT
 10
6085.9999999999864
 20
-553.35026377573013
 30
0.0
 11
6084.7999999999847
 21
-534.0
 31
0.0
1001
ACDBBLOCKREPETAG
1070
     1
1071
      103
1005
126CDB
  0
LINE
  5
126CDC
  8
OBJECT
 10
6162.9999999999864
 20
-599.5000000000008
 30
0.0
 11
6156.6313199210299
 21
-599.5000000000008
 31
0.0
1001
ACDBBLOCKREPETAG
1070
     1
1071
      104
1005
126CDC
  0
LINE
  5
126CDD
  8
OBJECT
 10
6166.9999999999854
 20
-604.0000000000008
 30
0.0
 11
6162.9999999999864
 21
-599.5000000000008
 31
0.0
1001
ACDBBLOCKREPETAG
1070
     1
1071
      105
1005
126CDD
  0
LINE
  5
126CDE
  8
OBJECT
 10
6202.9999999999864
 20
-137.99999999999909
 30
0.0
 11
6209.9999999999864
 21
-137.99999999999909
 31
0.0
1001
ACDBBLOCKREPETAG
1070
     1
1071
       85
1005
126CDE
  0
LINE
  5
126CDF
  8
OBJECT
 10
6209.9999999999864
 20
-137.99999999999909
 30
0.0
 11
6209.9999999999864
 21
-261.99999999999909
 31
0.0
1001
ACDBBLOCKREPETAG
1070
     1
1071
       86
1005
126CDF
  0
LINE
  5
126CE0
  8
OBJECT
 10
6209.9999999999864
 20
-261.99999999999909
 30
0.0
 11
6202.9999999999864
 21
-261.99999999999909
 31
0.0
1001
ACDBBLOCKREPETAG
1070
     1
1071
       87
1005
126CE0
  0
LINE
  5
126CE1
  8
OBJECT
 10
6202.9999999999864
 20
-261.99999999999909
 30
0.0
 11
6202.9999999999864
 21
-137.99999999999909
 31
0.0
1001
ACDBBLOCKREPETAG
1070
     1
1071
       88
1005
126CE1
  0
LINE
  5
126CE2
  8
CENTER
 10
6224.9999999999864
 20
-199.99999999999909
 30
0.0
 11
6080.0
 21
-199.99999999999909
 31
0.0
1001
ACDBBLOCKREPETAG
1070
     1
1071
       89
1005
126CE2
  0
LINE
  5
126CE3
  8
OBJECT
 10
6149.9999749641856
 20
-245.0000000000027
 30
0.0
 11
6086.0
 21
-244.99999999999909
 31
0.0
1001
ACDBBLOCKREPETAG
1070
     1
1071
       90
1005
126CE3
  0
LINE
  5
126CE4
  8
OBJECT
 10
6149.9999749641856
 20
-154.99999999999909
 30
0.0
 11
6086.0
 21
-154.99999999999909
 31
0.0
1001
ACDBBLOCKREPETAG
1070
     1
1071
       91
1005
126CE4
  0
LINE
  5
126CE5
  8
OBJECT
 10
6202.9999999999864
 20
-140.99999999999909
 30
0.0
 11
6166.9999999999854
 21
-140.99999999999909
 31
0.0
1001
ACDBBLOCKREPETAG
1070
     1
1071
       92
1005
126CE5
  0
LINE
  5
126CE6
  8
OBJECT
 10
6166.9999999999854
 20
-140.99999999999909
 30
0.0
 11
6166.9999999999854
 21
-258.99999999999909
 31
0.0
1001
ACDBBLOCKREPETAG
1070
     1
1071
       93
1005
126CE6
  0
LINE
  5
126CE7
  8
OBJECT
 10
6166.9999999999854
 20
-258.99999999999909
 30
0.0
 11
6202.9999999999864
 21
-258.99999999999909
 31
0.0
1001
ACDBBLOCKREPETAG
1070
     1
1071
       94
1005
126CE7
  0
LINE
  5
126CE8
  8
OBJECT
 10
6162.9999999999864
 20
-145.49999999999909
 30
0.0
 11
6149.9999999999864
 21
-145.49999999999909
 31
0.0
1001
ACDBBLOCKREPETAG
1070
     1
1071
       95
1005
126CE8
  0
LINE
  5
126CE9
  8
OBJECT
 10
6149.9999999999864
 20
-254.49999999999909
 30
0.0
 11
6162.9999999999864
 21
-254.49999999999909
 31
0.0
1001
ACDBBLOCKREPETAG
1070
     1
1071
       96
1005
126CE9
  0
LINE
  5
126CEA
  8
OBJECT
 10
6162.9999999999864
 20
-254.49999999999909
 30
0.0
 11
6162.9999999999864
 21
-145.49999999999909
 31
0.0
1001
ACDBBLOCKREPETAG
1070
     1
1071
       97
1005
126CEA
  0
LINE
  5
126CEB
  8
OBJECT
 10
6166.9999999999854
 20
-140.99999999999909
 30
0.0
 11
6162.9999999999864
 21
-145.49999999999909
 31
0.0
1001
ACDBBLOCKREPETAG
1070
     1
1071
       98
1005
126CEB
  0
LINE
  5
126CEC
  8
OBJECT
 10
6166.9999999999854
 20
-258.99999999999909
 30
0.0
 11
6162.9999999999864
 21
-254.49999999999909
 31
0.0
1001
ACDBBLOCKREPETAG
1070
     1
1071
       99
1005
126CEC
  0
LINE
  5
126CED
  8
OBJECT
 10
6083.0
 20
-137.99999999999909
 30
0.0
 11
6080.0
 21
-137.99999999999909
 31
0.0
1001
ACDBBLOCKREPETAG
1070
     1
1071
      100
1005
126CED
  0
ARC
  5
126CEE
  8
OBJECT
 10
6083.0
 20
-140.99999999999909
 30
0.0
 40
3.0
 50
0.0
 51
90.0
1001
ACDBBLOCKREPETAG
1070
     1
1071
      101
1005
126CEE
  0
LINE
  5
126CEF
  8
OBJECT
 10
6080.0
 20
-261.99999999999909
 30
0.0
 11
6083.0
 21
-261.99999999999909
 31
0.0
1001
ACDBBLOCKREPETAG
1070
     1
1071
      102
1005
126CEF
  0
ARC
  5
126CF0
  8
OBJECT
 10
6083.0
 20
-258.99999999999909
 30
0.0
 40
3.0
 50
270.0
 51
0.0
1001
ACDBBLOCKREPETAG
1070
     1
1071
      103
1005
126CF0
  0
LINE
  5
126CF1
  8
OBJECT
 10
6086.0
 20
-258.99999999999909
 30
0.0
 11
6086.0
 21
-210.3227903203578
 31
0.0
1001
ACDBBLOCKREPETAG
1070
     1
1071
      104
1005
126CF1
  0
LINE
  5
126CF2
  8
OBJECT
 10
6086.0
 20
-189.6772096796403
 30
0.0
 11
6086.0
 21
-140.99999999999909
 31
0.0
1001
ACDBBLOCKREPETAG
1070
     1
1071
      105
1005
126CF2
  0
LINE
  5
126CF3
  8
HIDDEN
 10
6157.9999999999864
 20
-155.49999999999909
 30
0.0
 11
6157.9999999999864
 21
-244.49999999999909
 31
0.0
1001
ACDBBLOCKREPETAG
1070
     1
1071
      106
1005
126CF3
  0
LINE
  5
126CF4
  8
OBJECT
 10
6149.9999749641856
 20
-254.4999509238105
 30
0.0
 11
6149.9999749641856
 21
-145.4999509238105
 31
0.0
1001
ACDBBLOCKREPETAG
1070
     1
1071
      108
1005
126CF4
  0
ARC
  5
126CF5
  8
OBJECT
 10
6129.8000000000247
 20
-199.99999999999909
 30
0.0
 40
45.000000000000547
 50
90.0
 51
270.0
1001
ACDBBLOCKREPETAG
1070
     1
1071
      109
1005
126CF5
  0
LINE
  5
126CF6
  8
OBJECT
 10
3918.0
 20
-470.99999999999949
 30
0.0
 11
3918.0
 21
-449.99999999999949
 31
0.0
1001
ACDBBLOCKREPETAG
1070
     1
1071
        0
1005
126CF6
  0
LINE
  5
126CF7
  8
OBJECT
 10
3918.0
 20
-449.99999999999949
 30
0.0
 11
4082.0000000000032
 21
-449.99999999999949
 31
0.0
1001
ACDBBLOCKREPETAG
1070
     1
1071
        1
1005
126CF7
  0
LINE
  5
126CF8
  8
HIDDEN
 10
3943.0
 20
-519.99999999999955
 30
0.0
 11
4057.0
 21
-519.99999999999955
 31
0.0
1001
ACDBBLOCKREPETAG
1070
     1
1071
        2
1005
126CF8
  0
LINE
  5
126CF9
  8
OBJECT
 10
4082.0000000000032
 20
-470.99999999999949
 30
0.0
 11
3918.0
 21
-470.99999999999949
 31
0.0
1001
ACDBBLOCKREPETAG
1070
     1
1071
        3
1005
126CF9
  0
LINE
  5
126CFA
  8
CENTER
 10
4000.0
 20
-434.99999999999949
 30
0.0
 11
4000.0
 21
-799.99999999999955
 31
0.0
1001
ACDBBLOCKREPETAG
1070
     1
1071
        4
1005
126CFA
  0
LINE
  5
126CFB
  8
OBJECT
 10
3925.0
 20
-533.99999999999955
 30
0.0
 11
3925.0
 21
-787.99999999999955
 31
0.0
1001
ACDBBLOCKREPETAG
1070
     1
1071
        5
1005
126CFB
  0
LINE
  5
126CFC
  8
OBJECT
 10
3928.0
 20
-470.99999999999949
 30
0.0
 11
3928.0
 21
-533.99999999999955
 31
0.0
1001
ACDBBLOCKREPETAG
1070
     1
1071
        6
1005
126CFC
  0
LINE
  5
126CFD
  8
OBJECT
 10
4072.0
 20
-533.99999999999955
 30
0.0
 11
4072.0
 21
-470.99999999999949
 31
0.0
1001
ACDBBLOCKREPETAG
1070
     1
1071
        7
1005
126CFD
  0
LINE
  5
126CFE
  8
OBJECT
 10
3920.0
 20
-787.99999999999955
 30
0.0
 11
4080.0
 21
-787.99999999999955
 31
0.0
1001
ACDBBLOCKREPETAG
1070
     1
1071
        8
1005
126CFE
  0
LINE
  5
126CFF
  8
OBJECT
 10
4080.0
 20
-533.99999999999955
 30
0.0
 11
3925.0
 21
-533.99999999999955
 31
0.0
1001
ACDBBLOCKREPETAG
1070
     1
1071
        9
1005
126CFF
  0
LINE
  5
126D00
  8
OBJECT
 10
3920.0
 20
-787.99999999999955
 30
0.0
 11
3920.0
 21
-799.99999999999955
 31
0.0
1001
ACDBBLOCKREPETAG
1070
     1
1071
       10
1005
126D00
  0
LINE
  5
126D01
  8
OBJECT
 10
3920.0
 20
-799.99999999999955
 30
0.0
 11
4080.0
 21
-799.99999999999955
 31
0.0
1001
ACDBBLOCKREPETAG
1070
     1
1071
       11
1005
126D01
  0
LINE
  5
126D02
  8
OBJECT
 10
4080.0
 20
-799.99999999999955
 30
0.0
 11
4080.0
 21
-787.99999999999955
 31
0.0
1001
ACDBBLOCKREPETAG
1070
     1
1071
       12
1005
126D02
  0
LINE
  5
126D03
  8
OBJECT
 10
4074.9999999998622
 20
-657.99999999985039
 30
0.0
 11
4075.0
 21
-787.99999999999955
 31
0.0
1001
ACDBBLOCKREPETAG
1070
     1
1071
       14
1005
126D03
  0
LINE
  5
126D04
  8
OBJECT
 10
4074.9999908029849
 20
-657.99998602702135
 30
0.0
 11
4080.0
 21
-657.99998602702135
 31
0.0
1001
ACDBBLOCKREPETAG
1070
     1
1071
       15
1005
126D04
  0
LINE
  5
126D05
  8
OBJECT
 10
3920.7940817120261
 20
-449.99999999999949
 30
0.0
 11
3920.7940817120261
 21
-470.99999999999949
 31
0.0
1001
ACDBBLOCKREPETAG
1070
     1
1071
       16
1005
126D05
  0
LINE
  5
126D06
  8
OBJECT
 10
3928.7378959999992
 20
-449.99999999999949
 30
0.0
 11
3928.7378959999992
 21
-470.99999999999949
 31
0.0
1001
ACDBBLOCKREPETAG
1070
     1
1071
       17
1005
126D06
  0
LINE
  5
126D07
  8
OBJECT
 10
3970.8330260000012
 20
-449.99999999999949
 30
0.0
 11
3970.8330260000012
 21
-470.99999999999949
 31
0.0
1001
ACDBBLOCKREPETAG
1070
     1
1071
       18
1005
126D07
  0
LINE
  5
126D08
  8
OBJECT
 10
3978.7768389217999
 20
-449.99999999999949
 30
0.0
 11
3978.7768389217999
 21
-470.99999999999949
 31
0.0
1001
ACDBBLOCKREPETAG
1070
     1
1071
       19
1005
126D08
  0
LINE
  5
126D09
  8
OBJECT
 10
4082.0
 20
-470.99999999999949
 30
0.0
 11
4082.0
 21
-449.99999999999949
 31
0.0
1001
ACDBBLOCKREPETAG
1070
     1
1071
       20
1005
126D09
  0
LINE
  5
126D0A
  8
OBJECT
 10
4079.2059182879739
 20
-449.99999999999949
 30
0.0
 11
4079.2059182879739
 21
-470.99999999999949
 31
0.0
1001
ACDBBLOCKREPETAG
1070
     1
1071
       21
1005
126D0A
  0
LINE
  5
126D0B
  8
OBJECT
 10
4071.2621040000008
 20
-449.99999999999949
 30
0.0
 11
4071.2621040000008
 21
-470.99999999999949
 31
0.0
1001
ACDBBLOCKREPETAG
1070
     1
1071
       22
1005
126D0B
  0
LINE
  5
126D0C
  8
OBJECT
 10
4029.1669739999988
 20
-449.99999999999949
 30
0.0
 11
4029.1669739999988
 21
-470.99999999999949
 31
0.0
1001
ACDBBLOCKREPETAG
1070
     1
1071
       23
1005
126D0C
  0
LINE
  5
126D0D
  8
OBJECT
 10
4021.2231610781992
 20
-449.99999999999949
 30
0.0
 11
4021.2231610781992
 21
-470.99999999999949
 31
0.0
1001
ACDBBLOCKREPETAG
1070
     1
1071
       24
1005
126D0D
  0
ARC
  5
126D0E
  8
OBJECT
 10
4200.6872746716726
 20
-649.40809941010718
 30
0.0
 40
170.6350503965856
 50
137.44134459184301
 51
149.91949581337221
1001
ACDBBLOCKREPETAG
1070
     1
1071
       25
1005
126D0E
  0
ARC
  5
126D0F
  8
OBJECT
 10
4118.8455987040506
 20
-605.88272669536445
 30
0.0
 40
78.072222021763665
 50
147.45515310381529
 51
164.66365997719231
1001
ACDBBLOCKREPETAG
1070
     1
1071
       26
1005
126D0F
  0
ARC
  5
126D10
  8
OBJECT
 10
4085.7554349608722
 20
-595.99999999999955
 30
0.0
 40
43.553539268856177
 50
165.6884523007466
 51
194.3115476992534
1001
ACDBBLOCKREPETAG
1070
     1
1071
       27
1005
126D10
  0
ARC
  5
126D11
  8
OBJECT
 10
4200.6872746716726
 20
-542.59190058989179
 30
0.0
 40
170.6350503965856
 50
210.08050418662779
 51
222.55865540815699
1001
ACDBBLOCKREPETAG
1070
     1
1071
       28
1005
126D11
  0
ARC
  5
126D12
  8
OBJECT
 10
4118.8455987040506
 20
-586.11727330463464
 30
0.0
 40
78.072222021763665
 50
195.3363400228076
 51
212.54484689618471
1001
ACDBBLOCKREPETAG
1070
     1
1071
       29
1005
126D12
  0
POINT
  5
126D13
  8
DOTS
 10
4000.0
 20
-654.99999999999955
 30
0.0
1001
ACDBBLOCKREPETAG
1070
     1
1071
      204
1005
126D13
  0
LINE
  5
126D14
  8
OBJECT
 10
3946.692194143754
 20
-195.46638161316059
 30
0.0
 11
3970.4540343856352
 21
-193.79865146436981
 31
0.0
1001
ACDBBLOCKREPETAG
1070
     1
1071
      326
1005
126D14
  0
LINE
  5
126D15
  8
OBJECT
 10
3947.3854347270608
 20
-190.305593971766
 30
0.0
 11
3966.9884352629019
 21
-188.92975272660161
 31
0.0
1001
ACDBBLOCKREPETAG
1070
     1
1071
      327
1005
126D15
  0
LINE
  5
126D16
  8
OBJECT
 10
3974.113537475278
 20
-242.77722592637201
 30
0.0
 11
3982.136698837407
 21
-234.1690987954708
 31
0.0
1001
ACDBBLOCKREPETAG
1070
     1
1071
      328
1005
126D16
  0
ARC
  5
126D17
  8
OBJECT
 10
3982.1160071245399
 20
-183.28188966318251
 30
0.0
 40
60.031113246032611
 50
254.07020130412749
 51
262.33936106086588
1001
ACDBBLOCKREPETAG
1070
     1
1071
      329
1005
126D17
  0
LINE
  5
126D18
  8
OBJECT
 10
3977.6125997325148
 20
-197.67495277149919
 30
0.0
 11
3982.136698837407
 21
-234.1690987954708
 31
0.0
1001
ACDBBLOCKREPETAG
1070
     1
1071
      330
1005
126D18
  0
ARC
  5
126D19
  8
OBJECT
 10
3967.6885653456411
 20
-198.90521351131881
 30
0.0
 40
10.0
 50
7.0667782929957941
 51
94.014734370532395
1001
ACDBBLOCKREPETAG
1070
     1
1071
      331
1005
126D19
  0
ARC
  5
126D1A
  8
OBJECT
 10
3970.9441253709738
 20
-200.78147401875589
 30
0.0
 40
7.0
 50
7.0667782929957941
 51
94.014733775014633
1001
ACDBBLOCKREPETAG
1070
     1
1071
      332
1005
126D1A
  0
POINT
  5
126D1B
  8
DOTS
 10
4000.0
 20
-199.99999999999909
 30
0.0
 50
270.0
1001
ACDBBLOCKREPETAG
1070
     1
1071
      347
1005
126D1B
  0
ARC
  5
126D1C
  8
OBJECT
 10
4000.0
 20
-199.99999999999909
 30
0.0
 40
77.0
 50
202.25886899988009
 51
247.74113099990561
1001
ACDBBLOCKREPETAG
1070
     1
1071
        0
1005
126D1C
  0
ARC
  5
126D1D
  8
OBJECT
 10
4000.0
 20
-199.99999999999909
 30
0.0
 40
80.0
 50
50.804965661401717
 51
72.417343999921073
1001
ACDBBLOCKREPETAG
1070
     1
1071
        1
1005
126D1D
  0
ARC
  5
126D1E
  8
OBJECT
 10
4000.0
 20
-199.99999999999909
 30
0.0
 40
77.0
 50
292.25886900009442
 51
337.74113100011988
1001
ACDBBLOCKREPETAG
1070
     1
1071
        2
1005
126D1E
  0
ARC
  5
126D1F
  8
OBJECT
 10
4000.0
 20
-199.99999999999909
 30
0.0
 40
77.0
 50
112.25886900009441
 51
157.74113100011991
1001
ACDBBLOCKREPETAG
1070
     1
1071
        3
1005
126D1F
  0
ARC
  5
126D20
  8
OBJECT
 10
4000.0
 20
-199.99999999999909
 30
0.0
 40
80.0
 50
107.5826560000789
 51
162.41734431894281
1001
ACDBBLOCKREPETAG
1070
     1
1071
        4
1005
126D20
  0
ARC
  5
126D21
  8
OBJECT
 10
4000.0
 20
-199.99999999999909
 30
0.0
 40
80.0
 50
197.5826545812244
 51
252.4173443189411
1001
ACDBBLOCKREPETAG
1070
     1
1071
        5
1005
126D21
  0
ARC
  5
126D22
  8
OBJECT
 10
4000.0
 20
-199.99999999999909
 30
0.0
 40
80.0
 50
287.5826567808985
 51
309.1949674261358
1001
ACDBBLOCKREPETAG
1070
     1
1071
        6
1005
126D22
  0
ARC
  5
126D23
  8
OBJECT
 10
4000.0
 20
-199.99999999999909
 30
0.0
 40
77.0
 50
22.258868999880129
 51
67.741130999905565
1001
ACDBBLOCKREPETAG
1070
     1
1071
        7
1005
126D23
  0
CIRCLE
  5
126D24
  8
OBJECT
 10
4000.0
 20
-199.99999999999909
 30
0.0
 40
70.0
1001
ACDBBLOCKREPETAG
1070
     1
1071
        8
1005
126D24
  0
LINE
  5
126D25
  8
OBJECT
 10
4029.1669749999969
 20
-271.26210499999888
 30
0.0
 11
4021.2231624441042
 21
-279.20591755589248
 31
0.0
1001
ACDBBLOCKREPETAG
1070
     1
1071
        9
1005
126D25
  0
LINE
  5
126D26
  8
OBJECT
 10
3970.8330260000012
 20
-271.26210499999888
 30
0.0
 11
3978.7768389219168
 21
-279.20591792191681
 31
0.0
1001
ACDBBLOCKREPETAG
1070
     1
1071
       10
1005
126D26
  0
ARC
  5
126D27
  8
OBJECT
 10
4000.0
 20
-199.99999999999909
 30
0.0
 40
82.000000000000014
 50
255.00000044864069
 51
285.00000053947957
1001
ACDBBLOCKREPETAG
1070
     1
1071
       11
1005
126D27
  0
LINE
  5
126D28
  8
OBJECT
 10
3928.7378959999992
 20
-229.1669739999989
 30
0.0
 11
3920.7940817120548
 21
-221.2231597120545
 31
0.0
1001
ACDBBLOCKREPETAG
1070
     1
1071
       12
1005
126D28
  0
ARC
  5
126D29
  8
OBJECT
 10
4000.0
 20
-199.99999999999909
 30
0.0
 40
82.000000000000014
 50
165.00000044885419
 51
194.9999985630262
1001
ACDBBLOCKREPETAG
1070
     1
1071
       13
1005
126D29
  0
LINE
  5
126D2A
  8
OBJECT
 10
3970.8330260000012
 20
-128.7378949999993
 30
0.0
 11
3978.7768389219168
 21
-120.7940820780795
 31
0.0
1001
ACDBBLOCKREPETAG
1070
     1
1071
       14
1005
126D2A
  0
ARC
  5
126D2B
  8
OBJECT
 10
4000.0
 20
-199.99999999999909
 30
0.0
 40
82.000000000000014
 50
74.999999460520456
 51
104.99999955135929
1001
ACDBBLOCKREPETAG
1070
     1
1071
       15
1005
126D2B
  0
LINE
  5
126D2C
  8
OBJECT
 10
4029.1669749999969
 20
-128.7378949999993
 30
0.0
 11
4021.2231624441042
 21
-120.79408244410391
 31
0.0
1001
ACDBBLOCKREPETAG
1070
     1
1071
       16
1005
126D2C
  0
LINE
  5
126D2D
  8
OBJECT
 10
3962.402059
 20
-161.93893300000039
 30
0.0
 11
4037.0841102714221
 21
-174.5180316957439
 31
0.0
1001
ACDBBLOCKREPETAG
1070
     1
1071
       17
1005
126D2D
  0
LINE
  5
126D2E
  8
OBJECT
 10
4044.0936569999972
 20
-169.70149399999991
 30
0.0
 11
4037.0841102714221
 21
-174.5180316957439
 31
0.0
1001
ACDBBLOCKREPETAG
1070
     1
1071
       18
1005
126D2E
  0
LINE
  5
126D2F
  8
OBJECT
 10
3928.7378959999992
 20
-170.833024999999
 30
0.0
 11
3920.7940820780782
 21
-178.77683892191911
 31
0.0
1001
ACDBBLOCKREPETAG
1070
     1
1071
       19
1005
126D2F
  0
CIRCLE
  5
126D30
  8
OBJECT
 10
4000.0
 20
-199.99999999999909
 30
0.0
 40
53.500000000000007
1001
ACDBBLOCKREPETAG
1070
     1
1071
       20
1005
126D30
  0
ARC
  5
126D31
  8
OBJECT
 10
4000.0
 20
-199.99999999999909
 30
0.0
 40
50.0
 50
131.70180964355251
 51
168.52376955958741
1001
ACDBBLOCKREPETAG
1070
     1
1071
       21
1005
126D31
  0
ARC
  5
126D32
  8
OBJECT
 10
4000.0
 20
-199.99999999999909
 30
0.0
 40
50.0
 50
238.8199429999047
 51
34.494506250117063
1001
ACDBBLOCKREPETAG
1070
     1
1071
       22
1005
126D32
  0
LINE
  5
126D33
  8
OBJECT
 10
4071.2621049999971
 20
-170.833024999999
 30
0.0
 11
4079.2059175558929
 21
-178.77683755589439
 31
0.0
1001
ACDBBLOCKREPETAG
1070
     1
1071
       23
1005
126D33
  0
ARC
  5
126D34
  8
OBJECT
 10
4000.0
 20
-199.99999999999909
 30
0.0
 40
82.000000000000014
 50
345.00000044885422
 51
15.00000053937171
1001
ACDBBLOCKREPETAG
1070
     1
1071
       24
1005
126D34
  0
LINE
  5
126D35
  8
OBJECT
 10
4071.2621049999971
 20
-229.1669739999989
 30
0.0
 11
4079.2059179219209
 21
-221.2231610780791
 31
0.0
1001
ACDBBLOCKREPETAG
1070
     1
1071
       25
1005
126D35
  0
LINE
  5
126D36
  8
OBJECT
 10
4045.661800227324
 20
-137.99999999999909
 30
0.0
 11
4080.0
 21
-137.99999999999909
 31
0.0
1001
ACDBBLOCKREPETAG
1070
     1
1071
       26
1005
126D36
  0
LINE
  5
126D37
  8
OBJECT
 10
4045.661800227324
 20
-261.99999999999909
 30
0.0
 11
4080.0
 21
-261.99999999999909
 31
0.0
1001
ACDBBLOCKREPETAG
1070
     1
1071
       27
1005
126D37
  0
LINE
  5
126D38
  8
CENTER
 10
4080.0
 20
-199.99999999999909
 30
0.0
 11
3903.0
 21
-199.99999999999909
 31
0.0
1001
ACDBBLOCKREPETAG
1070
     1
1071
       36
1005
126D38
  0
LINE
  5
126D39
  8
CENTER
 10
4000.0
 20
-296.99999999999909
 30
0.0
 11
4000.0
 21
-104.9999999999991
 31
0.0
1001
ACDBBLOCKREPETAG
1070
     1
1071
       37
1005
126D39
  0
LINE
  5
126D3A
  8
OBJECT
 10
4202.9999999999854
 20
-483.0000000000008
 30
0.0
 11
4209.9999999999854
 21
-483.0000000000008
 31
0.0
1001
ACDBBLOCKREPETAG
1070
     1
1071
       83
1005
126D3A
  0
LINE
  5
126D3B
  8
OBJECT
 10
4209.9999999999854
 20
-483.0000000000008
 30
0.0
 11
4209.9999999999854
 21
-607.00000000000091
 31
0.0
1001
ACDBBLOCKREPETAG
1070
     1
1071
       84
1005
126D3B
  0
LINE
  5
126D3C
  8
OBJECT
 10
4085.9999999999859
 20
-553.3502637757274
 30
0.0
 11
4085.9999999999859
 21
-655.00000000000091
 31
0.0
1001
ACDBBLOCKREPETAG
1070
     1
1071
       85
1005
126D3C
  0
LINE
  5
126D3D
  8
OBJECT
 10
4209.9999999999854
 20
-607.00000000000091
 30
0.0
 11
4202.9999999999854
 21
-607.00000000000091
 31
0.0
1001
ACDBBLOCKREPETAG
1070
     1
1071
       86
1005
126D3D
  0
LINE
  5
126D3E
  8
OBJECT
 10
4202.9999999999854
 20
-607.00000000000091
 30
0.0
 11
4202.9999999999854
 21
-483.0000000000008
 31
0.0
1001
ACDBBLOCKREPETAG
1070
     1
1071
       87
1005
126D3E
  0
LINE
  5
126D3F
  8
CENTER
 10
4134.9999999999854
 20
-545.00000000000091
 30
0.0
 11
4224.9999999999864
 21
-545.00000000000091
 31
0.0
1001
ACDBBLOCKREPETAG
1070
     1
1071
       88
1005
126D3F
  0
LINE
  5
126D40
  8
OBJECT
 10
4079.9999999999818
 20
-658.0
 30
0.0
 11
4082.999999999985
 21
-658.0000000000008
 31
0.0
1001
ACDBBLOCKREPETAG
1070
     1
1071
       89
1005
126D40
  0
ARC
  5
126D41
  8
OBJECT
 10
4082.999999999985
 20
-655.00000000000091
 30
0.0
 40
3.0
 50
270.0
 51
0.0
1001
ACDBBLOCKREPETAG
1070
     1
1071
       90
1005
126D41
  0
LINE
  5
126D42
  8
OBJECT
 10
4202.9999999999854
 20
-486.00000000000091
 30
0.0
 11
4166.9999999999854
 21
-486.00000000000091
 31
0.0
1001
ACDBBLOCKREPETAG
1070
     1
1071
       91
1005
126D42
  0
LINE
  5
126D43
  8
OBJECT
 10
4166.9999999999854
 20
-486.00000000000091
 30
0.0
 11
4166.9999999999854
 21
-604.0000000000008
 31
0.0
1001
ACDBBLOCKREPETAG
1070
     1
1071
       92
1005
126D43
  0
LINE
  5
126D44
  8
OBJECT
 10
4162.9999999999854
 20
-490.50000000000091
 30
0.0
 11
4162.9999999999854
 21
-599.5000000000008
 31
0.0
1001
ACDBBLOCKREPETAG
1070
     1
1071
       93
1005
126D44
  0
LINE
  5
126D45
  8
OBJECT
 10
4162.9999999999854
 20
-490.50000000000091
 30
0.0
 11
4149.9999999999864
 21
-490.50000000000091
 31
0.0
1001
ACDBBLOCKREPETAG
1070
     1
1071
       94
1005
126D45
  0
LINE
  5
126D46
  8
OBJECT
 10
4166.9999999999854
 20
-604.0000000000008
 30
0.0
 11
4202.9999999999854
 21
-604.0000000000008
 31
0.0
1001
ACDBBLOCKREPETAG
1070
     1
1071
       95
1005
126D46
  0
LINE
  5
126D47
  8
OBJECT
 10
4166.9999999999854
 20
-486.00000000000091
 30
0.0
 11
4162.9999999999854
 21
-490.50000000000091
 31
0.0
1001
ACDBBLOCKREPETAG
1070
     1
1071
       96
1005
126D47
  0
LINE
  5
126D48
  8
OBJECT
 10
4149.9999999999864
 20
-490.50000000000091
 30
0.0
 11
4149.9999999999864
 21
-575.74491827928784
 31
0.0
1001
ACDBBLOCKREPETAG
1070
     1
1071
       97
1005
126D48
  0
ARC
  5
126D49
  8
OBJECT
 10
4152.7999999999838
 20
-585.00000000000091
 30
0.0
 40
85.0
 50
91.887731891831109
 51
143.1301023540934
1001
ACDBBLOCKREPETAG
1070
     1
1071
       98
1005
126D49
  0
LINE
  5
126D4A
  8
HIDDEN
 10
4157.9999999999864
 20
-500.5000000000008
 30
0.0
 11
4157.9999999999864
 21
-589.50000000000091
 31
0.0
1001
ACDBBLOCKREPETAG
1070
     1
1071
      100
1005
126D4A
  0
LINE
  5
126D4B
  8
OBJECT
 10
4085.9999999999859
 20
-651.07945073181781
 30
0.0
 11
4156.6313199210299
 21
-599.5000000000008
 31
0.0
1001
ACDBBLOCKREPETAG
1070
     1
1071
      101
1005
126D4B
  0
LINE
  5
126D4C
  8
OBJECT
 10
4079.9999999999818
 20
-534.0
 30
0.0
 11
4084.7999999999852
 21
-534.0
 31
0.0
1001
ACDBBLOCKREPETAG
1070
     1
1071
      102
1005
126D4C
  0
LINE
  5
126D4D
  8
OBJECT
 10
4085.9999999999859
 20
-553.35026377573013
 30
0.0
 11
4084.7999999999852
 21
-534.0
 31
0.0
1001
ACDBBLOCKREPETAG
1070
     1
1071
      103
1005
126D4D
  0
LINE
  5
126D4E
  8
OBJECT
 10
4162.9999999999854
 20
-599.5000000000008
 30
0.0
 11
4156.6313199210299
 21
-599.5000000000008
 31
0.0
1001
ACDBBLOCKREPETAG
1070
     1
1071
      104
1005
126D4E
  0
LINE
  5
126D4F
  8
OBJECT
 10
4166.9999999999854
 20
-604.0000000000008
 30
0.0
 11
4162.9999999999854
 21
-599.5000000000008
 31
0.0
1001
ACDBBLOCKREPETAG
1070
     1
1071
      105
1005
126D4F
  0
LINE
  5
126D50
  8
OBJECT
 10
4202.9999999999854
 20
-137.99999999999909
 30
0.0
 11
4209.9999999999854
 21
-137.99999999999909
 31
0.0
1001
ACDBBLOCKREPETAG
1070
     1
1071
       85
1005
126D50
  0
LINE
  5
126D51
  8
OBJECT
 10
4209.9999999999854
 20
-137.99999999999909
 30
0.0
 11
4209.9999999999854
 21
-261.99999999999909
 31
0.0
1001
ACDBBLOCKREPETAG
1070
     1
1071
       86
1005
126D51
  0
LINE
  5
126D52
  8
OBJECT
 10
4209.9999999999854
 20
-261.99999999999909
 30
0.0
 11
4202.9999999999854
 21
-261.99999999999909
 31
0.0
1001
ACDBBLOCKREPETAG
1070
     1
1071
       87
1005
126D52
  0
LINE
  5
126D53
  8
OBJECT
 10
4202.9999999999854
 20
-261.99999999999909
 30
0.0
 11
4202.9999999999854
 21
-137.99999999999909
 31
0.0
1001
ACDBBLOCKREPETAG
1070
     1
1071
       88
1005
126D53
  0
LINE
  5
126D54
  8
CENTER
 10
4224.9999999999864
 20
-199.99999999999909
 30
0.0
 11
4080.0
 21
-199.99999999999909
 31
0.0
1001
ACDBBLOCKREPETAG
1070
     1
1071
       89
1005
126D54
  0
LINE
  5
126D55
  8
OBJECT
 10
4149.9999749641856
 20
-245.0000000000027
 30
0.0
 11
4086.0
 21
-244.99999999999909
 31
0.0
1001
ACDBBLOCKREPETAG
1070
     1
1071
       90
1005
126D55
  0
LINE
  5
126D56
  8
OBJECT
 10
4149.9999749641856
 20
-154.99999999999909
 30
0.0
 11
4086.0
 21
-154.99999999999909
 31
0.0
1001
ACDBBLOCKREPETAG
1070
     1
1071
       91
1005
126D56
  0
LINE
  5
126D57
  8
OBJECT
 10
4202.9999999999854
 20
-140.99999999999909
 30
0.0
 11
4166.9999999999854
 21
-140.99999999999909
 31
0.0
1001
ACDBBLOCKREPETAG
1070
     1
1071
       92
1005
126D57
  0
LINE
  5
126D58
  8
OBJECT
 10
4166.9999999999854
 20
-140.99999999999909
 30
0.0
 11
4166.9999999999854
 21
-258.99999999999909
 31
0.0
1001
ACDBBLOCKREPETAG
1070
     1
1071
       93
1005
126D58
  0
LINE
  5
126D59
  8
OBJECT
 10
4166.9999999999854
 20
-258.99999999999909
 30
0.0
 11
4202.9999999999854
 21
-258.99999999999909
 31
0.0
1001
ACDBBLOCKREPETAG
1070
     1
1071
       94
1005
126D59
  0
LINE
  5
126D5A
  8
OBJECT
 10
4162.9999999999854
 20
-145.49999999999909
 30
0.0
 11
4149.9999999999864
 21
-145.49999999999909
 31
0.0
1001
ACDBBLOCKREPETAG
1070
     1
1071
       95
1005
126D5A
  0
LINE
  5
126D5B
  8
OBJECT
 10
4149.9999999999864
 20
-254.49999999999909
 30
0.0
 11
4162.9999999999854
 21
-254.49999999999909
 31
0.0
1001
ACDBBLOCKREPETAG
1070
     1
1071
       96
1005
126D5B
  0
LINE
  5
126D5C
  8
OBJECT
 10
4162.9999999999854
 20
-254.49999999999909
 30
0.0
 11
4162.9999999999854
 21
-145.49999999999909
 31
0.0
1001
ACDBBLOCKREPETAG
1070
     1
1071
       97
1005
126D5C
  0
LINE
  5
126D5D
  8
OBJECT
 10
4166.9999999999854
 20
-140.99999999999909
 30
0.0
 11
4162.9999999999854
 21
-145.49999999999909
 31
0.0
1001
ACDBBLOCKREPETAG
1070
     1
1071
       98
1005
126D5D
  0
LINE
  5
126D5E
  8
OBJECT
 10
4166.9999999999854
 20
-258.99999999999909
 30
0.0
 11
4162.9999999999854
 21
-254.49999999999909
 31
0.0
1001
ACDBBLOCKREPETAG
1070
     1
1071
       99
1005
126D5E
  0
LINE
  5
126D5F
  8
OBJECT
 10
4083.0
 20
-137.99999999999909
 30
0.0
 11
4080.0
 21
-137.99999999999909
 31
0.0
1001
ACDBBLOCKREPETAG
1070
     1
1071
      100
1005
126D5F
  0
ARC
  5
126D60
  8
OBJECT
 10
4083.0
 20
-140.99999999999909
 30
0.0
 40
3.0
 50
0.0
 51
90.0
1001
ACDBBLOCKREPETAG
1070
     1
1071
      101
1005
126D60
  0
LINE
  5
126D61
  8
OBJECT
 10
4080.0
 20
-261.99999999999909
 30
0.0
 11
4083.0
 21
-261.99999999999909
 31
0.0
1001
ACDBBLOCKREPETAG
1070
     1
1071
      102
1005
126D61
  0
ARC
  5
126D62
  8
OBJECT
 10
4083.0
 20
-258.99999999999909
 30
0.0
 40
3.0
 50
270.0
 51
0.0
1001
ACDBBLOCKREPETAG
1070
     1
1071
      103
1005
126D62
  0
LINE
  5
126D63
  8
OBJECT
 10
4086.0
 20
-258.99999999999909
 30
0.0
 11
4086.0
 21
-210.3227903203578
 31
0.0
1001
ACDBBLOCKREPETAG
1070
     1
1071
      104
1005
126D63
  0
LINE
  5
126D64
  8
OBJECT
 10
4086.0
 20
-189.6772096796403
 30
0.0
 11
4086.0
 21
-140.99999999999909
 31
0.0
1001
ACDBBLOCKREPETAG
1070
     1
1071
      105
1005
126D64
  0
LINE
  5
126D65
  8
HIDDEN
 10
4157.9999999999864
 20
-155.49999999999909
 30
0.0
 11
4157.9999999999864
 21
-244.49999999999909
 31
0.0
1001
ACDBBLOCKREPETAG
1070
     1
1071
      106
1005
126D65
  0
LINE
  5
126D66
  8
OBJECT
 10
4149.9999749641856
 20
-254.4999509238105
 30
0.0
 11
4149.9999749641856
 21
-145.4999509238105
 31
0.0
1001
ACDBBLOCKREPETAG
1070
     1
1071
      108
1005
126D66
  0
ARC
  5
126D67
  8
OBJECT
 10
4129.8000000000247
 20
-199.99999999999909
 30
0.0
 40
45.000000000000547
 50
90.0
 51
270.0
1001
ACDBBLOCKREPETAG
1070
     1
1071
      109
1005
126D67
  0
LINE
  5
126D68
  8
SLIM
 10
11914.999999999991
 20
-669.47385309434696
 30
0.0
 11
11929.47385309434
 21
-654.99999999999955
 31
0.0
1001
GRADIENTCOLOR1ACI
1070
     5
1001
GRADIENTCOLOR2ACI
1070
     2
1001
ACAD
1010
0.0
1020
0.0
1030
0.0
  0
LINE
  5
126D69
  8
SLIM
 10
11914.999999999991
 20
-687.43436533648469
 30
0.0
 11
11947.434365336479
 21
-654.99999999999955
 31
0.0
1001
GRADIENTCOLOR1ACI
1070
     5
1001
GRADIENTCOLOR2ACI
1070
     2
1001
ACAD
1010
0.0
1020
0.0
1030
0.0
  0
LINE
  5
126D6A
  8
SLIM
 10
11915.0
 20
-705.39487757862241
 30
0.0
 11
11965.394877578619
 21
-654.99999999999955
 31
0.0
1001
GRADIENTCOLOR1ACI
1070
     5
1001
GRADIENTCOLOR2ACI
1070
     2
1001
ACAD
1010
0.0
1020
0.0
1030
0.0
  0
LINE
  5
126D6B
  8
SLIM
 10
11915.0
 20
-723.35538982076014
 30
0.0
 11
11983.355389820759
 21
-654.99999999999955
 31
0.0
1001
GRADIENTCOLOR1ACI
1070
     5
1001
GRADIENTCOLOR2ACI
1070
     2
1001
ACAD
1010
0.0
1020
0.0
1030
0.0
  0
LINE
  5
126D6C
  8
SLIM
 10
11915.0
 20
-741.31590206289775
 30
0.0
 11
12001.31590206289
 21
-654.99999999999955
 31
0.0
1001
GRADIENTCOLOR1ACI
1070
     5
1001
GRADIENTCOLOR2ACI
1070
     2
1001
ACAD
1010
0.0
1020
0.0
1030
0.0
  0
LINE
  5
126D6D
  8
SLIM
 10
11915.0
 20
-759.27641430503559
 30
0.0
 11
12019.27641430503
 21
-654.99999999999955
 31
0.0
1001
GRADIENTCOLOR1ACI
1070
     5
1001
GRADIENTCOLOR2ACI
1070
     2
1001
ACAD
1010
0.0
1020
0.0
1030
0.0
  0
LINE
  5
126D6E
  8
SLIM
 10
11915.0
 20
-777.2369265471732
 30
0.0
 11
12037.23692654717
 21
-654.99999999999955
 31
0.0
1001
GRADIENTCOLOR1ACI
1070
     5
1001
GRADIENTCOLOR2ACI
1070
     2
1001
ACAD
1010
0.0
1020
0.0
1030
0.0
  0
LINE
  5
126D6F
  8
SLIM
 10
11915.0
 20
-795.19743878931092
 30
0.0
 11
12055.19743878931
 21
-654.99999999999955
 31
0.0
1001
GRADIENTCOLOR1ACI
1070
     5
1001
GRADIENTCOLOR2ACI
1070
     2
1001
ACAD
1010
0.0
1020
0.0
1030
0.0
  0
LINE
  5
126D70
  8
SLIM
 10
11915.0
 20
-813.15795103144865
 30
0.0
 11
12073.15795103145
 21
-654.99999999999955
 31
0.0
1001
GRADIENTCOLOR1ACI
1070
     5
1001
GRADIENTCOLOR2ACI
1070
     2
1001
ACAD
1010
0.0
1020
0.0
1030
0.0
  0
LINE
  5
126D71
  8
SLIM
 10
11915.0
 20
-831.11846327358637
 30
0.0
 11
12085.000000000009
 21
-661.11846327357705
 31
0.0
1001
GRADIENTCOLOR1ACI
1070
     5
1001
GRADIENTCOLOR2ACI
1070
     2
1001
ACAD
1010
0.0
1020
0.0
1030
0.0
  0
LINE
  5
126D72
  8
SLIM
 10
11915.0
 20
-849.07897551572387
 30
0.0
 11
12085.000000000009
 21
-679.07897551571614
 31
0.0
1001
GRADIENTCOLOR1ACI
1070
     5
1001
GRADIENTCOLOR2ACI
1070
     2
1001
ACAD
1010
0.0
1020
0.0
1030
0.0
  0
LINE
  5
126D73
  8
SLIM
 10
11915.0
 20
-867.03948775786171
 30
0.0
 11
12085.000000000009
 21
-697.039487757855
 31
0.0
1001
GRADIENTCOLOR1ACI
1070
     5
1001
GRADIENTCOLOR2ACI
1070
     2
1001
ACAD
1010
0.0
1020
0.0
1030
0.0
  0
LINE
  5
126D74
  8
SLIM
 10
11915.283600749561
 20
-884.71639925044155
 30
0.0
 11
12085.000000000009
 21
-714.99999999999386
 31
0.0
1001
GRADIENTCOLOR1ACI
1070
     5
1001
GRADIENTCOLOR2ACI
1070
     2
1001
ACAD
1010
0.0
1020
0.0
1030
0.0
  0
LINE
  5
126D75
  8
SLIM
 10
11917.49791047804
 20
-900.46260176409714
 30
0.0
 11
12085.000000000009
 21
-732.96051224213284
 31
0.0
1001
GRADIENTCOLOR1ACI
1070
     5
1001
GRADIENTCOLOR2ACI
1070
     2
1001
ACAD
1010
0.0
1020
0.0
1030
0.0
  0
LINE
  5
126D76
  8
SLIM
 10
11919.71222020652
 20
-916.20880427775239
 30
0.0
 11
12085.0
 21
-750.92102448427181
 31
0.0
1001
GRADIENTCOLOR1ACI
1070
     5
1001
GRADIENTCOLOR2ACI
1070
     2
1001
ACAD
1010
0.0
1020
0.0
1030
0.0
  0
LINE
  5
126D77
  8
SLIM
 10
11921.92652993501
 20
-931.95500679140775
 30
0.0
 11
12085.0
 21
-768.88153672641067
 31
0.0
1001
GRADIENTCOLOR1ACI
1070
     5
1001
GRADIENTCOLOR2ACI
1070
     2
1001
ACAD
1010
0.0
1020
0.0
1030
0.0
  0
LINE
  5
126D78
  8
SLIM
 10
11924.140839663491
 20
-947.701209305063
 30
0.0
 11
12085.0
 21
-786.84204896854953
 31
0.0
1001
GRADIENTCOLOR1ACI
1070
     5
1001
GRADIENTCOLOR2ACI
1070
     2
1001
ACAD
1010
0.0
1020
0.0
1030
0.0
  0
LINE
  5
126D79
  8
SLIM
 10
11926.355149391969
 20
-963.44741181871848
 30
0.0
 11
12085.0
 21
-804.80256121068851
 31
0.0
1001
GRADIENTCOLOR1ACI
1070
     5
1001
GRADIENTCOLOR2ACI
1070
     2
1001
ACAD
1010
0.0
1020
0.0
1030
0.0
  0
LINE
  5
126D7A
  8
SLIM
 10
11928.56945912045
 20
-979.19361433237384
 30
0.0
 11
12085.0
 21
-822.76307345282737
 31
0.0
1001
GRADIENTCOLOR1ACI
1070
     5
1001
GRADIENTCOLOR2ACI
1070
     2
1001
ACAD
1010
0.0
1020
0.0
1030
0.0
  0
LINE
  5
126D7B
  8
SLIM
 10
11930.78376884894
 20
-994.93981684602909
 30
0.0
 11
12085.0
 21
-840.72358569496635
 31
0.0
1001
GRADIENTCOLOR1ACI
1070
     5
1001
GRADIENTCOLOR2ACI
1070
     2
1001
ACAD
1010
0.0
1020
0.0
1030
0.0
  0
LINE
  5
126D7C
  8
SLIM
 10
11932.998078577421
 20
-1010.686019359684
 30
0.0
 11
12085.0
 21
-858.68409793710521
 31
0.0
1001
GRADIENTCOLOR1ACI
1070
     5
1001
GRADIENTCOLOR2ACI
1070
     2
1001
ACAD
1010
0.0
1020
0.0
1030
0.0
  0
LINE
  5
126D7D
  8
SLIM
 10
11932.999999999991
 20
-1028.644610179251
 30
0.0
 11
12085.0
 21
-876.64461017924407
 31
0.0
1001
GRADIENTCOLOR1ACI
1070
     5
1001
GRADIENTCOLOR2ACI
1070
     2
1001
ACAD
1010
0.0
1020
0.0
1030
0.0
  0
LINE
  5
126D7E
  8
SLIM
 10
11934.60512242139
 20
-1044.9999999999959
 30
0.0
 11
12083.051837154369
 21
-896.55328526701646
 31
0.0
1001
GRADIENTCOLOR1ACI
1070
     5
1001
GRADIENTCOLOR2ACI
1070
     2
1001
ACAD
1010
0.0
1020
0.0
1030
0.0
  0
LINE
  5
126D7F
  8
SLIM
 10
11952.565634663521
 20
-1044.9999999999959
 30
0.0
 11
12080.112844242019
 21
-917.45279042150378
 31
0.0
1001
GRADIENTCOLOR1ACI
1070
     5
1001
GRADIENTCOLOR2ACI
1070
     2
1001
ACAD
1010
0.0
1020
0.0
1030
0.0
  0
LINE
  5
126D80
  8
SLIM
 10
11970.52614690566
 20
-1044.999999999997
 30
0.0
 11
12077.17385132967
 21
-938.35229557599109
 31
0.0
1001
GRADIENTCOLOR1ACI
1070
     5
1001
GRADIENTCOLOR2ACI
1070
     2
1001
ACAD
1010
0.0
1020
0.0
1030
0.0
  0
LINE
  5
126D81
  8
SLIM
 10
11988.4866591478
 20
-1044.999999999997
 30
0.0
 11
12074.23485841732
 21
-959.25180073047841
 31
0.0
1001
GRADIENTCOLOR1ACI
1070
     5
1001
GRADIENTCOLOR2ACI
1070
     2
1001
ACAD
1010
0.0
1020
0.0
1030
0.0
  0
LINE
  5
126D82
  8
SLIM
 10
12006.44717138994
 20
-1044.999999999998
 30
0.0
 11
12071.29586550497
 21
-980.15130588496572
 31
0.0
1001
GRADIENTCOLOR1ACI
1070
     5
1001
GRADIENTCOLOR2ACI
1070
     2
1001
ACAD
1010
0.0
1020
0.0
1030
0.0
  0
LINE
  5
126D83
  8
SLIM
 10
12024.40768363208
 20
-1044.999999999998
 30
0.0
 11
12068.35687259262
 21
-1001.050811039453
 31
0.0
1001
GRADIENTCOLOR1ACI
1070
     5
1001
GRADIENTCOLOR2ACI
1070
     2
1001
ACAD
1010
0.0
1020
0.0
1030
0.0
  0
LINE
  5
126D84
  8
SLIM
 10
12042.368195874211
 20
-1044.9999999999991
 30
0.0
 11
12067.000000000009
 21
-1020.368195874201
 31
0.0
1001
GRADIENTCOLOR1ACI
1070
     5
1001
GRADIENTCOLOR2ACI
1070
     2
1001
ACAD
1010
0.0
1020
0.0
1030
0.0
  0
LINE
  5
126D85
  8
SLIM
 10
12060.328708116351
 20
-1044.9999999999991
 30
0.0
 11
12067.000000000009
 21
-1038.3287081163401
 31
0.0
1001
GRADIENTCOLOR1ACI
1070
     5
1001
GRADIENTCOLOR2ACI
1070
     2
1001
ACAD
1010
0.0
1020
0.0
1030
0.0
  0
LINE
  5
126D86
  8
OBJECT
 10
11932.999999999991
 20
-1044.9999999999959
 30
0.0
 11
12067.000000000009
 21
-1044.9999999999991
 31
0.0
1001
ACDBBLOCKREPETAG
1070
     1
1071
        1
1005
126D86
  0
LINE
  5
126D87
  8
OBJECT
 10
11914.999999999991
 20
-654.99999999999955
 30
0.0
 11
11915.0
 21
-882.69968280914088
 31
0.0
1001
ACDBBLOCKREPETAG
1070
     1
1071
        2
1005
126D87
  0
LINE
  5
126D88
  8
OBJECT
 10
12085.000000000009
 20
-654.99999999999955
 30
0.0
 11
12085.0
 21
-882.69968280917192
 31
0.0
1001
ACDBBLOCKREPETAG
1070
     1
1071
        3
1005
126D88
  0
LINE
  5
126D89
  8
OBJECT
 10
11915.0
 20
-882.69968280914088
 30
0.0
 11
11932.999999999991
 21
-1010.699682809081
 31
0.0
1001
ACDBBLOCKREPETAG
1070
     1
1071
        4
1005
126D89
  0
LINE
  5
126D8A
  8
OBJECT
 10
12067.000000000009
 20
-1010.699682809128
 30
0.0
 11
12085.0
 21
-882.69968280917192
 31
0.0
1001
ACDBBLOCKREPETAG
1070
     1
1071
        5
1005
126D8A
  0
LINE
  5
126D8B
  8
OBJECT
 10
12085.000000000009
 20
-654.99999999999955
 30
0.0
 11
11914.999999999991
 21
-654.99999999999955
 31
0.0
1001
ACDBBLOCKREPETAG
1070
     1
1071
        6
1005
126D8B
  0
LINE
  5
126D8C
  8
OBJECT
 10
11932.999999999991
 20
-1010.699682809081
 30
0.0
 11
11932.999999999991
 21
-1044.9999999999959
 31
0.0
1001
ACDBBLOCKREPETAG
1070
     1
1071
        8
1005
126D8C
  0
LINE
  5
126D8D
  8
OBJECT
 10
12067.000000000009
 20
-1010.699682809128
 30
0.0
 11
12067.000000000009
 21
-1044.9999999999991
 31
0.0
1001
ACDBBLOCKREPETAG
1070
     1
1071
        9
1005
126D8D
  0
LINE
  5
126D8E
  8
SLIM
 10
9914.9999999999927
 20
-669.47385309434696
 30
0.0
 11
9929.4738530943396
 21
-654.99999999999955
 31
0.0
1001
GRADIENTCOLOR1ACI
1070
     5
1001
GRADIENTCOLOR2ACI
1070
     2
1001
ACAD
1010
0.0
1020
0.0
1030
0.0
  0
LINE
  5
126D8F
  8
SLIM
 10
9914.9999999999927
 20
-687.43436533648469
 30
0.0
 11
9947.4343653364795
 21
-654.99999999999955
 31
0.0
1001
GRADIENTCOLOR1ACI
1070
     5
1001
GRADIENTCOLOR2ACI
1070
     2
1001
ACAD
1010
0.0
1020
0.0
1030
0.0
  0
LINE
  5
126D90
  8
SLIM
 10
9914.9999999999945
 20
-705.39487757862241
 30
0.0
 11
9965.3948775786175
 21
-654.99999999999955
 31
0.0
1001
GRADIENTCOLOR1ACI
1070
     5
1001
GRADIENTCOLOR2ACI
1070
     2
1001
ACAD
1010
0.0
1020
0.0
1030
0.0
  0
LINE
  5
126D91
  8
SLIM
 10
9914.9999999999945
 20
-723.35538982076014
 30
0.0
 11
9983.3553898207556
 21
-654.99999999999955
 31
0.0
1001
GRADIENTCOLOR1ACI
1070
     5
1001
GRADIENTCOLOR2ACI
1070
     2
1001
ACAD
1010
0.0
1020
0.0
1030
0.0
  0
LINE
  5
126D92
  8
SLIM
 10
9914.9999999999945
 20
-741.31590206289775
 30
0.0
 11
10001.31590206289
 21
-654.99999999999955
 31
0.0
1001
GRADIENTCOLOR1ACI
1070
     5
1001
GRADIENTCOLOR2ACI
1070
     2
1001
ACAD
1010
0.0
1020
0.0
1030
0.0
  0
LINE
  5
126D93
  8
SLIM
 10
9914.9999999999964
 20
-759.27641430503559
 30
0.0
 11
10019.27641430503
 21
-654.99999999999955
 31
0.0
1001
GRADIENTCOLOR1ACI
1070
     5
1001
GRADIENTCOLOR2ACI
1070
     2
1001
ACAD
1010
0.0
1020
0.0
1030
0.0
  0
LINE
  5
126D94
  8
SLIM
 10
9914.9999999999964
 20
-777.2369265471732
 30
0.0
 11
10037.23692654717
 21
-654.99999999999955
 31
0.0
1001
GRADIENTCOLOR1ACI
1070
     5
1001
GRADIENTCOLOR2ACI
1070
     2
1001
ACAD
1010
0.0
1020
0.0
1030
0.0
  0
LINE
  5
126D95
  8
SLIM
 10
9914.9999999999964
 20
-795.19743878931092
 30
0.0
 11
10055.197438789301
 21
-654.99999999999955
 31
0.0
1001
GRADIENTCOLOR1ACI
1070
     5
1001
GRADIENTCOLOR2ACI
1070
     2
1001
ACAD
1010
0.0
1020
0.0
1030
0.0
  0
LINE
  5
126D96
  8
SLIM
 10
9914.9999999999982
 20
-813.15795103144865
 30
0.0
 11
10073.15795103144
 21
-654.99999999999955
 31
0.0
1001
GRADIENTCOLOR1ACI
1070
     5
1001
GRADIENTCOLOR2ACI
1070
     2
1001
ACAD
1010
0.0
1020
0.0
1030
0.0
  0
LINE
  5
126D97
  8
SLIM
 10
9914.9999999999982
 20
-831.11846327358637
 30
0.0
 11
10085.000000000009
 21
-661.11846327357705
 31
0.0
1001
GRADIENTCOLOR1ACI
1070
     5
1001
GRADIENTCOLOR2ACI
1070
     2
1001
ACAD
1010
0.0
1020
0.0
1030
0.0
  0
LINE
  5
126D98
  8
SLIM
 10
9914.9999999999982
 20
-849.07897551572387
 30
0.0
 11
10085.000000000009
 21
-679.07897551571614
 31
0.0
1001
GRADIENTCOLOR1ACI
1070
     5
1001
GRADIENTCOLOR2ACI
1070
     2
1001
ACAD
1010
0.0
1020
0.0
1030
0.0
  0
LINE
  5
126D99
  8
SLIM
 10
9915.0
 20
-867.03948775786171
 30
0.0
 11
10085.0
 21
-697.039487757855
 31
0.0
1001
GRADIENTCOLOR1ACI
1070
     5
1001
GRADIENTCOLOR2ACI
1070
     2
1001
ACAD
1010
0.0
1020
0.0
1030
0.0
  0
LINE
  5
126D9A
  8
SLIM
 10
9915.2836007495589
 20
-884.71639925044155
 30
0.0
 11
10085.0
 21
-714.99999999999386
 31
0.0
1001
GRADIENTCOLOR1ACI
1070
     5
1001
GRADIENTCOLOR2ACI
1070
     2
1001
ACAD
1010
0.0
1020
0.0
1030
0.0
  0
LINE
  5
126D9B
  8
SLIM
 10
9917.4979104780414
 20
-900.46260176409714
 30
0.0
 11
10085.0
 21
-732.96051224213284
 31
0.0
1001
GRADIENTCOLOR1ACI
1070
     5
1001
GRADIENTCOLOR2ACI
1070
     2
1001
ACAD
1010
0.0
1020
0.0
1030
0.0
  0
LINE
  5
126D9C
  8
SLIM
 10
9919.7122202065257
 20
-916.20880427775239
 30
0.0
 11
10085.0
 21
-750.92102448427181
 31
0.0
1001
GRADIENTCOLOR1ACI
1070
     5
1001
GRADIENTCOLOR2ACI
1070
     2
1001
ACAD
1010
0.0
1020
0.0
1030
0.0
  0
LINE
  5
126D9D
  8
SLIM
 10
9921.9265299350063
 20
-931.95500679140775
 30
0.0
 11
10085.0
 21
-768.88153672641067
 31
0.0
1001
GRADIENTCOLOR1ACI
1070
     5
1001
GRADIENTCOLOR2ACI
1070
     2
1001
ACAD
1010
0.0
1020
0.0
1030
0.0
  0
LINE
  5
126D9E
  8
SLIM
 10
9924.1408396634906
 20
-947.701209305063
 30
0.0
 11
10085.0
 21
-786.84204896854953
 31
0.0
1001
GRADIENTCOLOR1ACI
1070
     5
1001
GRADIENTCOLOR2ACI
1070
     2
1001
ACAD
1010
0.0
1020
0.0
1030
0.0
  0
LINE
  5
126D9F
  8
SLIM
 10
9926.3551493919731
 20
-963.44741181871848
 30
0.0
 11
10085.0
 21
-804.80256121068851
 31
0.0
1001
GRADIENTCOLOR1ACI
1070
     5
1001
GRADIENTCOLOR2ACI
1070
     2
1001
ACAD
1010
0.0
1020
0.0
1030
0.0
  0
LINE
  5
126DA0
  8
SLIM
 10
9928.5694591204556
 20
-979.19361433237384
 30
0.0
 11
10085.0
 21
-822.76307345282737
 31
0.0
1001
GRADIENTCOLOR1ACI
1070
     5
1001
GRADIENTCOLOR2ACI
1070
     2
1001
ACAD
1010
0.0
1020
0.0
1030
0.0
  0
LINE
  5
126DA1
  8
SLIM
 10
9930.7837688489399
 20
-994.93981684602909
 30
0.0
 11
10085.0
 21
-840.72358569496635
 31
0.0
1001
GRADIENTCOLOR1ACI
1070
     5
1001
GRADIENTCOLOR2ACI
1070
     2
1001
ACAD
1010
0.0
1020
0.0
1030
0.0
  0
LINE
  5
126DA2
  8
SLIM
 10
9932.9980785774205
 20
-1010.686019359684
 30
0.0
 11
10085.0
 21
-858.68409793710521
 31
0.0
1001
GRADIENTCOLOR1ACI
1070
     5
1001
GRADIENTCOLOR2ACI
1070
     2
1001
ACAD
1010
0.0
1020
0.0
1030
0.0
  0
LINE
  5
126DA3
  8
SLIM
 10
9932.9999999999927
 20
-1028.644610179251
 30
0.0
 11
10085.0
 21
-876.64461017924407
 31
0.0
1001
GRADIENTCOLOR1ACI
1070
     5
1001
GRADIENTCOLOR2ACI
1070
     2
1001
ACAD
1010
0.0
1020
0.0
1030
0.0
  0
LINE
  5
126DA4
  8
SLIM
 10
9934.6051224213879
 20
-1044.9999999999959
 30
0.0
 11
10083.05183715436
 21
-896.55328526701646
 31
0.0
1001
GRADIENTCOLOR1ACI
1070
     5
1001
GRADIENTCOLOR2ACI
1070
     2
1001
ACAD
1010
0.0
1020
0.0
1030
0.0
  0
LINE
  5
126DA5
  8
SLIM
 10
9952.5656346635242
 20
-1044.9999999999959
 30
0.0
 11
10080.11284424201
 21
-917.45279042150378
 31
0.0
1001
GRADIENTCOLOR1ACI
1070
     5
1001
GRADIENTCOLOR2ACI
1070
     2
1001
ACAD
1010
0.0
1020
0.0
1030
0.0
  0
LINE
  5
126DA6
  8
SLIM
 10
9970.5261469056622
 20
-1044.999999999997
 30
0.0
 11
10077.17385132967
 21
-938.35229557599109
 31
0.0
1001
GRADIENTCOLOR1ACI
1070
     5
1001
GRADIENTCOLOR2ACI
1070
     2
1001
ACAD
1010
0.0
1020
0.0
1030
0.0
  0
LINE
  5
126DA7
  8
SLIM
 10
9988.4866591478003
 20
-1044.999999999997
 30
0.0
 11
10074.23485841732
 21
-959.25180073047841
 31
0.0
1001
GRADIENTCOLOR1ACI
1070
     5
1001
GRADIENTCOLOR2ACI
1070
     2
1001
ACAD
1010
0.0
1020
0.0
1030
0.0
  0
LINE
  5
126DA8
  8
SLIM
 10
10006.44717138994
 20
-1044.999999999998
 30
0.0
 11
10071.29586550497
 21
-980.15130588496572
 31
0.0
1001
GRADIENTCOLOR1ACI
1070
     5
1001
GRADIENTCOLOR2ACI
1070
     2
1001
ACAD
1010
0.0
1020
0.0
1030
0.0
  0
LINE
  5
126DA9
  8
SLIM
 10
10024.407683632069
 20
-1044.999999999998
 30
0.0
 11
10068.35687259262
 21
-1001.050811039453
 31
0.0
1001
GRADIENTCOLOR1ACI
1070
     5
1001
GRADIENTCOLOR2ACI
1070
     2
1001
ACAD
1010
0.0
1020
0.0
1030
0.0
  0
LINE
  5
126DAA
  8
SLIM
 10
10042.368195874211
 20
-1044.9999999999991
 30
0.0
 11
10067.000000000009
 21
-1020.368195874201
 31
0.0
1001
GRADIENTCOLOR1ACI
1070
     5
1001
GRADIENTCOLOR2ACI
1070
     2
1001
ACAD
1010
0.0
1020
0.0
1030
0.0
  0
LINE
  5
126DAB
  8
SLIM
 10
10060.328708116351
 20
-1044.9999999999991
 30
0.0
 11
10067.000000000009
 21
-1038.3287081163401
 31
0.0
1001
GRADIENTCOLOR1ACI
1070
     5
1001
GRADIENTCOLOR2ACI
1070
     2
1001
ACAD
1010
0.0
1020
0.0
1030
0.0
  0
LINE
  5
126DAC
  8
OBJECT
 10
9932.9999999999927
 20
-1044.9999999999959
 30
0.0
 11
10067.000000000009
 21
-1044.9999999999991
 31
0.0
1001
ACDBBLOCKREPETAG
1070
     1
1071
        1
1005
126DAC
  0
LINE
  5
126DAD
  8
OBJECT
 10
9914.9999999999927
 20
-654.99999999999955
 30
0.0
 11
9915.0
 21
-882.69968280914088
 31
0.0
1001
ACDBBLOCKREPETAG
1070
     1
1071
        2
1005
126DAD
  0
LINE
  5
126DAE
  8
OBJECT
 10
10085.000000000009
 20
-654.99999999999955
 30
0.0
 11
10085.0
 21
-882.69968280917192
 31
0.0
1001
ACDBBLOCKREPETAG
1070
     1
1071
        3
1005
126DAE
  0
LINE
  5
126DAF
  8
OBJECT
 10
9915.0
 20
-882.69968280914088
 30
0.0
 11
9932.9999999999927
 21
-1010.699682809081
 31
0.0
1001
ACDBBLOCKREPETAG
1070
     1
1071
        4
1005
126DAF
  0
LINE
  5
126DB0
  8
OBJECT
 10
10067.000000000009
 20
-1010.699682809128
 30
0.0
 11
10085.0
 21
-882.69968280917192
 31
0.0
1001
ACDBBLOCKREPETAG
1070
     1
1071
        5
1005
126DB0
  0
LINE
  5
126DB1
  8
OBJECT
 10
10085.000000000009
 20
-654.99999999999955
 30
0.0
 11
9914.9999999999927
 21
-654.99999999999955
 31
0.0
1001
ACDBBLOCKREPETAG
1070
     1
1071
        6
1005
126DB1
  0
LINE
  5
126DB2
  8
OBJECT
 10
9932.9999999999927
 20
-1010.699682809081
 30
0.0
 11
9932.9999999999927
 21
-1044.9999999999959
 31
0.0
1001
ACDBBLOCKREPETAG
1070
     1
1071
        8
1005
126DB2
  0
LINE
  5
126DB3
  8
OBJECT
 10
10067.000000000009
 20
-1010.699682809128
 30
0.0
 11
10067.000000000009
 21
-1044.9999999999991
 31
0.0
1001
ACDBBLOCKREPETAG
1070
     1
1071
        9
1005
126DB3
  0
LINE
  5
126DB4
  8
SLIM
 10
7914.9999999999927
 20
-669.47385309434696
 30
0.0
 11
7929.4738530943396
 21
-654.99999999999955
 31
0.0
1001
GRADIENTCOLOR1ACI
1070
     5
1001
GRADIENTCOLOR2ACI
1070
     2
1001
ACAD
1010
0.0
1020
0.0
1030
0.0
  0
LINE
  5
126DB5
  8
SLIM
 10
7914.9999999999927
 20
-687.43436533648469
 30
0.0
 11
7947.4343653364776
 21
-654.99999999999955
 31
0.0
1001
GRADIENTCOLOR1ACI
1070
     5
1001
GRADIENTCOLOR2ACI
1070
     2
1001
ACAD
1010
0.0
1020
0.0
1030
0.0
  0
LINE
  5
126DB6
  8
SLIM
 10
7914.9999999999927
 20
-705.39487757862241
 30
0.0
 11
7965.3948775786157
 21
-654.99999999999955
 31
0.0
1001
GRADIENTCOLOR1ACI
1070
     5
1001
GRADIENTCOLOR2ACI
1070
     2
1001
ACAD
1010
0.0
1020
0.0
1030
0.0
  0
LINE
  5
126DB7
  8
SLIM
 10
7914.9999999999955
 20
-723.35538982076014
 30
0.0
 11
7983.3553898207547
 21
-654.99999999999955
 31
0.0
1001
GRADIENTCOLOR1ACI
1070
     5
1001
GRADIENTCOLOR2ACI
1070
     2
1001
ACAD
1010
0.0
1020
0.0
1030
0.0
  0
LINE
  5
126DB8
  8
SLIM
 10
7914.9999999999964
 20
-741.31590206289775
 30
0.0
 11
8001.3159020628927
 21
-654.99999999999955
 31
0.0
1001
GRADIENTCOLOR1ACI
1070
     5
1001
GRADIENTCOLOR2ACI
1070
     2
1001
ACAD
1010
0.0
1020
0.0
1030
0.0
  0
LINE
  5
126DB9
  8
SLIM
 10
7914.9999999999964
 20
-759.27641430503536
 30
0.0
 11
8019.2764143050317
 21
-654.99999999999955
 31
0.0
1001
GRADIENTCOLOR1ACI
1070
     5
1001
GRADIENTCOLOR2ACI
1070
     2
1001
ACAD
1010
0.0
1020
0.0
1030
0.0
  0
LINE
  5
126DBA
  8
SLIM
 10
7914.9999999999964
 20
-777.2369265471732
 30
0.0
 11
8037.2369265471707
 21
-654.99999999999955
 31
0.0
1001
GRADIENTCOLOR1ACI
1070
     5
1001
GRADIENTCOLOR2ACI
1070
     2
1001
ACAD
1010
0.0
1020
0.0
1030
0.0
  0
LINE
  5
126DBB
  8
SLIM
 10
7914.9999999999982
 20
-795.19743878931092
 30
0.0
 11
8055.1974387893079
 21
-654.99999999999955
 31
0.0
1001
GRADIENTCOLOR1ACI
1070
     5
1001
GRADIENTCOLOR2ACI
1070
     2
1001
ACAD
1010
0.0
1020
0.0
1030
0.0
  0
LINE
  5
126DBC
  8
SLIM
 10
7914.9999999999982
 20
-813.15795103144865
 30
0.0
 11
8073.1579510314468
 21
-654.99999999999955
 31
0.0
1001
GRADIENTCOLOR1ACI
1070
     5
1001
GRADIENTCOLOR2ACI
1070
     2
1001
ACAD
1010
0.0
1020
0.0
1030
0.0
  0
LINE
  5
126DBD
  8
SLIM
 10
7914.9999999999982
 20
-831.11846327358614
 30
0.0
 11
8085.0000000000073
 21
-661.11846327357705
 31
0.0
1001
GRADIENTCOLOR1ACI
1070
     5
1001
GRADIENTCOLOR2ACI
1070
     2
1001
ACAD
1010
0.0
1020
0.0
1030
0.0
  0
LINE
  5
126DBE
  8
SLIM
 10
7914.9999999999991
 20
-849.07897551572387
 30
0.0
 11
8085.0000000000073
 21
-679.07897551571614
 31
0.0
1001
GRADIENTCOLOR1ACI
1070
     5
1001
GRADIENTCOLOR2ACI
1070
     2
1001
ACAD
1010
0.0
1020
0.0
1030
0.0
  0
LINE
  5
126DBF
  8
SLIM
 10
7914.9999999999991
 20
-867.03948775786171
 30
0.0
 11
8085.0000000000064
 21
-697.039487757855
 31
0.0
1001
GRADIENTCOLOR1ACI
1070
     5
1001
GRADIENTCOLOR2ACI
1070
     2
1001
ACAD
1010
0.0
1020
0.0
1030
0.0
  0
LINE
  5
126DC0
  8
SLIM
 10
7915.283600749558
 20
-884.71639925044155
 30
0.0
 11
8085.0000000000064
 21
-714.99999999999386
 31
0.0
1001
GRADIENTCOLOR1ACI
1070
     5
1001
GRADIENTCOLOR2ACI
1070
     2
1001
ACAD
1010
0.0
1020
0.0
1030
0.0
  0
LINE
  5
126DC1
  8
SLIM
 10
7917.4979104780423
 20
-900.46260176409692
 30
0.0
 11
8085.0000000000064
 21
-732.96051224213284
 31
0.0
1001
GRADIENTCOLOR1ACI
1070
     5
1001
GRADIENTCOLOR2ACI
1070
     2
1001
ACAD
1010
0.0
1020
0.0
1030
0.0
  0
LINE
  5
126DC2
  8
SLIM
 10
7919.7122202065239
 20
-916.20880427775217
 30
0.0
 11
8085.0000000000064
 21
-750.92102448427181
 31
0.0
1001
GRADIENTCOLOR1ACI
1070
     5
1001
GRADIENTCOLOR2ACI
1070
     2
1001
ACAD
1010
0.0
1020
0.0
1030
0.0
  0
LINE
  5
126DC3
  8
SLIM
 10
7921.9265299350072
 20
-931.9550067914073
 30
0.0
 11
8085.0000000000036
 21
-768.88153672641067
 31
0.0
1001
GRADIENTCOLOR1ACI
1070
     5
1001
GRADIENTCOLOR2ACI
1070
     2
1001
ACAD
1010
0.0
1020
0.0
1030
0.0
  0
LINE
  5
126DC4
  8
SLIM
 10
7924.1408396634897
 20
-947.70120930506255
 30
0.0
 11
8085.0000000000036
 21
-786.84204896854953
 31
0.0
1001
GRADIENTCOLOR1ACI
1070
     5
1001
GRADIENTCOLOR2ACI
1070
     2
1001
ACAD
1010
0.0
1020
0.0
1030
0.0
  0
LINE
  5
126DC5
  8
SLIM
 10
7926.3551493919731
 20
-963.44741181871802
 30
0.0
 11
8085.0000000000018
 21
-804.80256121068851
 31
0.0
1001
GRADIENTCOLOR1ACI
1070
     5
1001
GRADIENTCOLOR2ACI
1070
     2
1001
ACAD
1010
0.0
1020
0.0
1030
0.0
  0
LINE
  5
126DC6
  8
SLIM
 10
7928.5694591204556
 20
-979.19361433237327
 30
0.0
 11
8085.0000000000018
 21
-822.76307345282737
 31
0.0
1001
GRADIENTCOLOR1ACI
1070
     5
1001
GRADIENTCOLOR2ACI
1070
     2
1001
ACAD
1010
0.0
1020
0.0
1030
0.0
  0
LINE
  5
126DC7
  8
SLIM
 10
7930.783768848939
 20
-994.93981684602863
 30
0.0
 11
8085.0000000000018
 21
-840.72358569496635
 31
0.0
1001
GRADIENTCOLOR1ACI
1070
     5
1001
GRADIENTCOLOR2ACI
1070
     2
1001
ACAD
1010
0.0
1020
0.0
1030
0.0
  0
LINE
  5
126DC8
  8
SLIM
 10
7938.6840979371091
 20
-1004.999999999998
 30
0.0
 11
8085.0
 21
-858.68409793710521
 31
0.0
1001
GRADIENTCOLOR1ACI
1070
     5
1001
GRADIENTCOLOR2ACI
1070
     2
1001
ACAD
1010
0.0
1020
0.0
1030
0.0
  0
LINE
  5
126DC9
  8
SLIM
 10
7943.0
 20
-1018.644610179244
 30
0.0
 11
7956.6446101792462
 21
-1004.999999999998
 31
0.0
1001
GRADIENTCOLOR1ACI
1070
     5
1001
GRADIENTCOLOR2ACI
1070
     2
1001
ACAD
1010
0.0
1020
0.0
1030
0.0
  0
LINE
  5
126DCA
  8
SLIM
 10
7956.6446101792462
 20
-1004.999999999998
 30
0.0
 11
8085.0
 21
-876.64461017924407
 31
0.0
1001
GRADIENTCOLOR1ACI
1070
     5
1001
GRADIENTCOLOR2ACI
1070
     2
1001
ACAD
1010
0.0
1020
0.0
1030
0.0
  0
LINE
  5
126DCB
  8
SLIM
 10
7944.6051224213861
 20
-1034.999999999998
 30
0.0
 11
7974.6051224213861
 21
-1004.999999999998
 31
0.0
1001
GRADIENTCOLOR1ACI
1070
     5
1001
GRADIENTCOLOR2ACI
1070
     2
1001
ACAD
1010
0.0
1020
0.0
1030
0.0
  0
LINE
  5
126DCC
  8
SLIM
 10
7974.6051224213861
 20
-1004.999999999998
 30
0.0
 11
8083.0518371543658
 21
-896.55328526701703
 31
0.0
1001
GRADIENTCOLOR1ACI
1070
     5
1001
GRADIENTCOLOR2ACI
1070
     2
1001
ACAD
1010
0.0
1020
0.0
1030
0.0
  0
LINE
  5
126DCD
  8
SLIM
 10
7962.5656346635242
 20
-1034.999999999998
 30
0.0
 11
7992.5656346635242
 21
-1004.999999999998
 31
0.0
1001
GRADIENTCOLOR1ACI
1070
     5
1001
GRADIENTCOLOR2ACI
1070
     2
1001
ACAD
1010
0.0
1020
0.0
1030
0.0
  0
LINE
  5
126DCE
  8
SLIM
 10
7992.5656346635242
 20
-1004.999999999998
 30
0.0
 11
8080.1128442420159
 21
-917.45279042150526
 31
0.0
1001
GRADIENTCOLOR1ACI
1070
     5
1001
GRADIENTCOLOR2ACI
1070
     2
1001
ACAD
1010
0.0
1020
0.0
1030
0.0
  0
LINE
  5
126DCF
  8
SLIM
 10
7980.5261469056622
 20
-1034.999999999998
 30
0.0
 11
8010.5261469056613
 21
-1004.999999999998
 31
0.0
1001
GRADIENTCOLOR1ACI
1070
     5
1001
GRADIENTCOLOR2ACI
1070
     2
1001
ACAD
1010
0.0
1020
0.0
1030
0.0
  0
LINE
  5
126DD0
  8
SLIM
 10
8010.5261469056613
 20
-1004.999999999998
 30
0.0
 11
8077.1738513296659
 21
-938.35229557599303
 31
0.0
1001
GRADIENTCOLOR1ACI
1070
     5
1001
GRADIENTCOLOR2ACI
1070
     2
1001
ACAD
1010
0.0
1020
0.0
1030
0.0
  0
LINE
  5
126DD1
  8
SLIM
 10
7998.4866591478003
 20
-1034.999999999998
 30
0.0
 11
8028.4866591478003
 21
-1004.999999999998
 31
0.0
1001
GRADIENTCOLOR1ACI
1070
     5
1001
GRADIENTCOLOR2ACI
1070
     2
1001
ACAD
1010
0.0
1020
0.0
1030
0.0
  0
LINE
  5
126DD2
  8
SLIM
 10
8028.4866591478003
 20
-1004.999999999998
 30
0.0
 11
8074.234858417316
 21
-959.25180073048114
 31
0.0
1001
GRADIENTCOLOR1ACI
1070
     5
1001
GRADIENTCOLOR2ACI
1070
     2
1001
ACAD
1010
0.0
1020
0.0
1030
0.0
  0
LINE
  5
126DD3
  8
SLIM
 10
8016.4471713899393
 20
-1034.999999999998
 30
0.0
 11
8046.4471713899393
 21
-1004.999999999998
 31
0.0
1001
GRADIENTCOLOR1ACI
1070
     5
1001
GRADIENTCOLOR2ACI
1070
     2
1001
ACAD
1010
0.0
1020
0.0
1030
0.0
  0
LINE
  5
126DD4
  8
SLIM
 10
8046.4471713899393
 20
-1004.999999999998
 30
0.0
 11
8071.2958655049679
 21
-980.15130588496925
 31
0.0
1001
GRADIENTCOLOR1ACI
1070
     5
1001
GRADIENTCOLOR2ACI
1070
     2
1001
ACAD
1010
0.0
1020
0.0
1030
0.0
  0
LINE
  5
126DD5
  8
SLIM
 10
8034.4076836320774
 20
-1034.999999999998
 30
0.0
 11
8057.0
 21
-1012.4076836320741
 31
0.0
1001
GRADIENTCOLOR1ACI
1070
     5
1001
GRADIENTCOLOR2ACI
1070
     2
1001
ACAD
1010
0.0
1020
0.0
1030
0.0
  0
LINE
  5
126DD6
  8
SLIM
 10
8064.4076836320764
 20
-1004.999999999998
 30
0.0
 11
8068.3568725926179
 21
-1001.050811039457
 31
0.0
1001
GRADIENTCOLOR1ACI
1070
     5
1001
GRADIENTCOLOR2ACI
1070
     2
1001
ACAD
1010
0.0
1020
0.0
1030
0.0
  0
LINE
  5
126DD7
  8
SLIM
 10
8052.3681958742136
 20
-1034.999999999998
 30
0.0
 11
8057.0
 21
-1030.368195874212
 31
0.0
1001
GRADIENTCOLOR1ACI
1070
     5
1001
GRADIENTCOLOR2ACI
1070
     2
1001
ACAD
1010
0.0
1020
0.0
1030
0.0
  0
LINE
  5
126DD8
  8
OBJECT
 10
7943.0
 20
-1034.999999999998
 30
0.0
 11
8057.0
 21
-1034.999999999998
 31
0.0
1001
ACDBBLOCKREPETAG
1070
     1
1071
        1
1005
126DD8
  0
LINE
  5
126DD9
  8
OBJECT
 10
7932.1984821049673
 20
-1004.999999999998
 30
0.0
 11
8067.8015178950409
 21
-1004.999999999998
 31
0.0
1001
ACDBBLOCKREPETAG
1070
     1
1071
        2
1005
126DD9
  0
LINE
  5
126DDA
  8
OBJECT
 10
7943.0
 20
-1034.999999999998
 30
0.0
 11
7943.0
 21
-1009.999999999998
 31
0.0
1001
ACDBBLOCKREPETAG
1070
     1
1071
        3
1005
126DDA
  0
LINE
  5
126DDB
  8
OBJECT
 10
7914.9999999999927
 20
-654.99999999999955
 30
0.0
 11
7915.0
 21
-882.69968280914088
 31
0.0
1001
ACDBBLOCKREPETAG
1070
     1
1071
        4
1005
126DDB
  0
LINE
  5
126DDC
  8
OBJECT
 10
8085.0000000000073
 20
-654.99999999999955
 30
0.0
 11
8085.0
 21
-882.69968280917192
 31
0.0
1001
ACDBBLOCKREPETAG
1070
     1
1071
        5
1005
126DDC
  0
LINE
  5
126DDD
  8
OBJECT
 10
7915.0
 20
-882.69968280914088
 30
0.0
 11
7932.1984821049673
 21
-1004.999999999998
 31
0.0
1001
ACDBBLOCKREPETAG
1070
     1
1071
        6
1005
126DDD
  0
LINE
  5
126DDE
  8
OBJECT
 10
8067.8015178950409
 20
-1004.999999999998
 30
0.0
 11
8085.0
 21
-882.69968280917192
 31
0.0
1001
ACDBBLOCKREPETAG
1070
     1
1071
        7
1005
126DDE
  0
LINE
  5
126DDF
  8
OBJECT
 10
8085.0000000000073
 20
-654.99999999999955
 30
0.0
 11
7914.9999999999927
 21
-654.99999999999955
 31
0.0
1001
ACDBBLOCKREPETAG
1070
     1
1071
        8
1005
126DDF
  0
LINE
  5
126DE0
  8
OBJECT
 10
7943.0
 20
-1009.999999999998
 30
0.0
 11
7942.296875
 21
-1004.999999999998
 31
0.0
1001
ACDBBLOCKREPETAG
1070
     1
1071
       10
1005
126DE0
  0
LINE
  5
126DE1
  8
OBJECT
 10
8057.0
 20
-1034.999999999998
 30
0.0
 11
8057.0
 21
-1009.999999999998
 31
0.0
1001
ACDBBLOCKREPETAG
1070
     1
1071
       11
1005
126DE1
  0
LINE
  5
126DE2
  8
OBJECT
 10
8057.0
 20
-1009.999999999998
 30
0.0
 11
8057.7031250000009
 21
-1004.999999999998
 31
0.0
1001
ACDBBLOCKREPETAG
1070
     1
1071
       12
1005
126DE2
  0
LINE
  5
126DE3
  8
OBJECT
 10
1918.0
 20
-470.99999999999949
 30
0.0
 11
1918.0
 21
-449.99999999999949
 31
0.0
1001
ACDBBLOCKREPETAG
1070
     1
1071
        0
1005
126DE3
  0
LINE
  5
126DE4
  8
OBJECT
 10
1918.0
 20
-449.99999999999949
 30
0.0
 11
2082.0000000000041
 21
-449.99999999999949
 31
0.0
1001
ACDBBLOCKREPETAG
1070
     1
1071
        1
1005
126DE4
  0
LINE
  5
126DE5
  8
HIDDEN
 10
1943.0
 20
-519.99999999999955
 30
0.0
 11
2057.0
 21
-519.99999999999955
 31
0.0
1001
ACDBBLOCKREPETAG
1070
     1
1071
        2
1005
126DE5
  0
LINE
  5
126DE6
  8
OBJECT
 10
2082.0000000000041
 20
-470.99999999999949
 30
0.0
 11
1918.0
 21
-470.99999999999949
 31
0.0
1001
ACDBBLOCKREPETAG
1070
     1
1071
        3
1005
126DE6
  0
LINE
  5
126DE7
  8
CENTER
 10
2000.0
 20
-434.99999999999949
 30
0.0
 11
2000.0
 21
-799.99999999999955
 31
0.0
1001
ACDBBLOCKREPETAG
1070
     1
1071
        4
1005
126DE7
  0
LINE
  5
126DE8
  8
OBJECT
 10
1925.0
 20
-533.99999999999955
 30
0.0
 11
1925.0
 21
-787.99999999999955
 31
0.0
1001
ACDBBLOCKREPETAG
1070
     1
1071
        5
1005
126DE8
  0
LINE
  5
126DE9
  8
OBJECT
 10
1928.0
 20
-470.99999999999949
 30
0.0
 11
1928.0
 21
-533.99999999999955
 31
0.0
1001
ACDBBLOCKREPETAG
1070
     1
1071
        6
1005
126DE9
  0
LINE
  5
126DEA
  8
OBJECT
 10
2072.0
 20
-533.99999999999955
 30
0.0
 11
2072.0
 21
-470.99999999999949
 31
0.0
1001
ACDBBLOCKREPETAG
1070
     1
1071
        7
1005
126DEA
  0
LINE
  5
126DEB
  8
OBJECT
 10
1920.0
 20
-787.99999999999955
 30
0.0
 11
2080.0
 21
-787.99999999999955
 31
0.0
1001
ACDBBLOCKREPETAG
1070
     1
1071
        8
1005
126DEB
  0
LINE
  5
126DEC
  8
OBJECT
 10
2080.0
 20
-533.99999999999955
 30
0.0
 11
1925.0
 21
-533.99999999999955
 31
0.0
1001
ACDBBLOCKREPETAG
1070
     1
1071
        9
1005
126DEC
  0
LINE
  5
126DED
  8
OBJECT
 10
1920.0
 20
-787.99999999999955
 30
0.0
 11
1920.0
 21
-799.99999999999955
 31
0.0
1001
ACDBBLOCKREPETAG
1070
     1
1071
       10
1005
126DED
  0
LINE
  5
126DEE
  8
OBJECT
 10
1920.0
 20
-799.99999999999955
 30
0.0
 11
2080.0
 21
-799.99999999999955
 31
0.0
1001
ACDBBLOCKREPETAG
1070
     1
1071
       11
1005
126DEE
  0
LINE
  5
126DEF
  8
OBJECT
 10
2080.0
 20
-799.99999999999955
 30
0.0
 11
2080.0
 21
-787.99999999999955
 31
0.0
1001
ACDBBLOCKREPETAG
1070
     1
1071
       12
1005
126DEF
  0
LINE
  5
126DF0
  8
OBJECT
 10
2074.9999999998622
 20
-657.99999999985039
 30
0.0
 11
2075.0
 21
-787.99999999999955
 31
0.0
1001
ACDBBLOCKREPETAG
1070
     1
1071
       14
1005
126DF0
  0
LINE
  5
126DF1
  8
OBJECT
 10
2074.9999908029858
 20
-657.99998602702135
 30
0.0
 11
2080.0
 21
-657.99998602702135
 31
0.0
1001
ACDBBLOCKREPETAG
1070
     1
1071
       15
1005
126DF1
  0
LINE
  5
126DF2
  8
OBJECT
 10
1920.794081712025
 20
-449.99999999999949
 30
0.0
 11
1920.794081712025
 21
-470.99999999999949
 31
0.0
1001
ACDBBLOCKREPETAG
1070
     1
1071
       16
1005
126DF2
  0
LINE
  5
126DF3
  8
OBJECT
 10
1928.737895999999
 20
-449.99999999999949
 30
0.0
 11
1928.737895999999
 21
-470.99999999999949
 31
0.0
1001
ACDBBLOCKREPETAG
1070
     1
1071
       17
1005
126DF3
  0
LINE
  5
126DF4
  8
OBJECT
 10
1970.833026
 20
-449.99999999999949
 30
0.0
 11
1970.833026
 21
-470.99999999999949
 31
0.0
1001
ACDBBLOCKREPETAG
1070
     1
1071
       18
1005
126DF4
  0
LINE
  5
126DF5
  8
OBJECT
 10
1978.7768389217999
 20
-449.99999999999949
 30
0.0
 11
1978.7768389217999
 21
-470.99999999999949
 31
0.0
1001
ACDBBLOCKREPETAG
1070
     1
1071
       19
1005
126DF5
  0
LINE
  5
126DF6
  8
OBJECT
 10
2082.0
 20
-470.99999999999949
 30
0.0
 11
2082.0
 21
-449.99999999999949
 31
0.0
1001
ACDBBLOCKREPETAG
1070
     1
1071
       20
1005
126DF6
  0
LINE
  5
126DF7
  8
OBJECT
 10
2079.2059182879748
 20
-449.99999999999949
 30
0.0
 11
2079.2059182879748
 21
-470.99999999999949
 31
0.0
1001
ACDBBLOCKREPETAG
1070
     1
1071
       21
1005
126DF7
  0
LINE
  5
126DF8
  8
OBJECT
 10
2071.2621040000008
 20
-449.99999999999949
 30
0.0
 11
2071.2621040000008
 21
-470.99999999999949
 31
0.0
1001
ACDBBLOCKREPETAG
1070
     1
1071
       22
1005
126DF8
  0
LINE
  5
126DF9
  8
OBJECT
 10
2029.166974
 20
-449.99999999999949
 30
0.0
 11
2029.166974
 21
-470.99999999999949
 31
0.0
1001
ACDBBLOCKREPETAG
1070
     1
1071
       23
1005
126DF9
  0
LINE
  5
126DFA
  8
OBJECT
 10
2021.2231610782001
 20
-449.99999999999949
 30
0.0
 11
2021.2231610782001
 21
-470.99999999999949
 31
0.0
1001
ACDBBLOCKREPETAG
1070
     1
1071
       24
1005
126DFA
  0
ARC
  5
126DFB
  8
OBJECT
 10
2200.6872746716731
 20
-649.40809941010718
 30
0.0
 40
170.6350503965856
 50
137.44134459184301
 51
149.91949581336559
1001
ACDBBLOCKREPETAG
1070
     1
1071
       25
1005
126DFB
  0
ARC
  5
126DFC
  8
OBJECT
 10
2118.8455987040511
 20
-605.88272669536445
 30
0.0
 40
78.072222021763665
 50
147.45515310381529
 51
164.66365997719581
1001
ACDBBLOCKREPETAG
1070
     1
1071
       26
1005
126DFC
  0
ARC
  5
126DFD
  8
OBJECT
 10
2085.7554349608731
 20
-595.99999999999955
 30
0.0
 40
43.553539268856177
 50
165.6884523007466
 51
194.3115476992534
1001
ACDBBLOCKREPETAG
1070
     1
1071
       27
1005
126DFD
  0
ARC
  5
126DFE
  8
OBJECT
 10
2200.6872746716731
 20
-542.59190058989179
 30
0.0
 40
170.6350503965856
 50
210.0805041866343
 51
222.55865540815699
1001
ACDBBLOCKREPETAG
1070
     1
1071
       28
1005
126DFE
  0
ARC
  5
126DFF
  8
OBJECT
 10
2118.8455987040511
 20
-586.11727330463464
 30
0.0
 40
78.072222021763665
 50
195.33634002280419
 51
212.54484689618471
1001
ACDBBLOCKREPETAG
1070
     1
1071
       29
1005
126DFF
  0
POINT
  5
126E00
  8
DOTS
 10
2000.0
 20
-654.99999999999955
 30
0.0
1001
ACDBBLOCKREPETAG
1070
     1
1071
      204
1005
126E00
  0
LINE
  5
126E01
  8
OBJECT
 10
1946.692194143754
 20
-195.46638161316059
 30
0.0
 11
1970.4540343856349
 21
-193.79865146436981
 31
0.0
1001
ACDBBLOCKREPETAG
1070
     1
1071
      326
1005
126E01
  0
LINE
  5
126E02
  8
OBJECT
 10
1947.385434727061
 20
-190.305593971766
 30
0.0
 11
1966.988435262901
 21
-188.92975272660161
 31
0.0
1001
ACDBBLOCKREPETAG
1070
     1
1071
      327
1005
126E02
  0
LINE
  5
126E03
  8
OBJECT
 10
1974.1135374752771
 20
-242.77722592637201
 30
0.0
 11
1982.1366988374059
 21
-234.1690987954708
 31
0.0
1001
ACDBBLOCKREPETAG
1070
     1
1071
      328
1005
126E03
  0
ARC
  5
126E04
  8
OBJECT
 10
1982.116007124539
 20
-183.28188966318251
 30
0.0
 40
60.031113246032611
 50
254.07020130412749
 51
262.33936106086588
1001
ACDBBLOCKREPETAG
1070
     1
1071
      329
1005
126E04
  0
LINE
  5
126E05
  8
OBJECT
 10
1977.6125997325139
 20
-197.67495277149919
 30
0.0
 11
1982.1366988374059
 21
-234.1690987954708
 31
0.0
1001
ACDBBLOCKREPETAG
1070
     1
1071
      330
1005
126E05
  0
ARC
  5
126E06
  8
OBJECT
 10
1967.6885653456411
 20
-198.90521351131881
 30
0.0
 40
10.0
 50
7.0667782929957941
 51
94.014734370532395
1001
ACDBBLOCKREPETAG
1070
     1
1071
      331
1005
126E06
  0
ARC
  5
126E07
  8
OBJECT
 10
1970.944125370974
 20
-200.78147401875589
 30
0.0
 40
7.0
 50
7.0667782929957941
 51
94.014733775014633
1001
ACDBBLOCKREPETAG
1070
     1
1071
      332
1005
126E07
  0
POINT
  5
126E08
  8
DOTS
 10
2000.0
 20
-199.99999999999909
 30
0.0
 50
270.0
1001
ACDBBLOCKREPETAG
1070
     1
1071
      347
1005
126E08
  0
ARC
  5
126E09
  8
OBJECT
 10
2000.0
 20
-199.99999999999909
 30
0.0
 40
77.0
 50
202.2588689998752
 51
247.7411309999176
1001
ACDBBLOCKREPETAG
1070
     1
1071
        0
1005
126E09
  0
ARC
  5
126E0A
  8
OBJECT
 10
2000.0
 20
-199.99999999999909
 30
0.0
 40
80.0
 50
50.804965661401717
 51
72.417343999921073
1001
ACDBBLOCKREPETAG
1070
     1
1071
        1
1005
126E0A
  0
ARC
  5
126E0B
  8
OBJECT
 10
2000.0
 20
-199.99999999999909
 30
0.0
 40
77.0
 50
292.25886900008243
 51
337.74113100012482
1001
ACDBBLOCKREPETAG
1070
     1
1071
        2
1005
126E0B
  0
ARC
  5
126E0C
  8
OBJECT
 10
2000.0
 20
-199.99999999999909
 30
0.0
 40
77.0
 50
112.2588690000823
 51
157.7411310001248
1001
ACDBBLOCKREPETAG
1070
     1
1071
        3
1005
126E0C
  0
ARC
  5
126E0D
  8
OBJECT
 10
2000.0
 20
-199.99999999999909
 30
0.0
 40
80.0
 50
107.5826560000789
 51
162.4173443189467
1001
ACDBBLOCKREPETAG
1070
     1
1071
        4
1005
126E0D
  0
ARC
  5
126E0E
  8
OBJECT
 10
2000.0
 20
-199.99999999999909
 30
0.0
 40
80.0
 50
197.5826545812283
 51
252.4173443189411
1001
ACDBBLOCKREPETAG
1070
     1
1071
        5
1005
126E0E
  0
ARC
  5
126E0F
  8
OBJECT
 10
2000.0
 20
-199.99999999999909
 30
0.0
 40
80.0
 50
287.5826567808985
 51
309.1949674261358
1001
ACDBBLOCKREPETAG
1070
     1
1071
        6
1005
126E0F
  0
ARC
  5
126E10
  8
OBJECT
 10
2000.0
 20
-199.99999999999909
 30
0.0
 40
77.0
 50
22.258868999875201
 51
67.74113099991763
1001
ACDBBLOCKREPETAG
1070
     1
1071
        7
1005
126E10
  0
CIRCLE
  5
126E11
  8
OBJECT
 10
2000.0
 20
-199.99999999999909
 30
0.0
 40
70.0
1001
ACDBBLOCKREPETAG
1070
     1
1071
        8
1005
126E11
  0
LINE
  5
126E12
  8
OBJECT
 10
2029.1669749999969
 20
-271.26210499999888
 30
0.0
 11
2021.2231624441049
 21
-279.20591755589248
 31
0.0
1001
ACDBBLOCKREPETAG
1070
     1
1071
        9
1005
126E12
  0
LINE
  5
126E13
  8
OBJECT
 10
1970.833026
 20
-271.26210499999888
 30
0.0
 11
1978.7768389219159
 21
-279.20591792191681
 31
0.0
1001
ACDBBLOCKREPETAG
1070
     1
1071
       10
1005
126E13
  0
ARC
  5
126E14
  8
OBJECT
 10
2000.0
 20
-199.99999999999909
 30
0.0
 40
82.000000000000014
 50
255.00000044864069
 51
285.00000053949208
1001
ACDBBLOCKREPETAG
1070
     1
1071
       11
1005
126E14
  0
LINE
  5
126E15
  8
OBJECT
 10
1928.737895999999
 20
-229.1669739999989
 30
0.0
 11
1920.7940817120541
 21
-221.2231597120545
 31
0.0
1001
ACDBBLOCKREPETAG
1070
     1
1071
       12
1005
126E15
  0
ARC
  5
126E16
  8
OBJECT
 10
2000.0
 20
-199.99999999999909
 30
0.0
 40
82.000000000000014
 50
165.00000044885081
 51
194.9999985630262
1001
ACDBBLOCKREPETAG
1070
     1
1071
       13
1005
126E16
  0
LINE
  5
126E17
  8
OBJECT
 10
1970.833026
 20
-128.7378949999993
 30
0.0
 11
1978.7768389219159
 21
-120.7940820780795
 31
0.0
1001
ACDBBLOCKREPETAG
1070
     1
1071
       14
1005
126E17
  0
ARC
  5
126E18
  8
OBJECT
 10
2000.0
 20
-199.99999999999909
 30
0.0
 40
82.000000000000014
 50
74.999999460507865
 51
104.99999955135929
1001
ACDBBLOCKREPETAG
1070
     1
1071
       15
1005
126E18
  0
LINE
  5
126E19
  8
OBJECT
 10
2029.1669749999969
 20
-128.7378949999993
 30
0.0
 11
2021.2231624441049
 21
-120.79408244410391
 31
0.0
1001
ACDBBLOCKREPETAG
1070
     1
1071
       16
1005
126E19
  0
LINE
  5
126E1A
  8
OBJECT
 10
1962.402059
 20
-161.93893300000039
 30
0.0
 11
2037.0841102714221
 21
-174.5180316957439
 31
0.0
1001
ACDBBLOCKREPETAG
1070
     1
1071
       17
1005
126E1A
  0
LINE
  5
126E1B
  8
OBJECT
 10
2044.0936569999981
 20
-169.70149399999991
 30
0.0
 11
2037.0841102714221
 21
-174.5180316957439
 31
0.0
1001
ACDBBLOCKREPETAG
1070
     1
1071
       18
1005
126E1B
  0
LINE
  5
126E1C
  8
OBJECT
 10
1928.737895999999
 20
-170.833024999999
 30
0.0
 11
1920.7940820780791
 21
-178.77683892191911
 31
0.0
1001
ACDBBLOCKREPETAG
1070
     1
1071
       19
1005
126E1C
  0
CIRCLE
  5
126E1D
  8
OBJECT
 10
2000.0
 20
-199.99999999999909
 30
0.0
 40
53.500000000000007
1001
ACDBBLOCKREPETAG
1070
     1
1071
       20
1005
126E1D
  0
ARC
  5
126E1E
  8
OBJECT
 10
2000.0
 20
-199.99999999999909
 30
0.0
 40
50.0
 50
131.70180964355251
 51
168.52376955958479
1001
ACDBBLOCKREPETAG
1070
     1
1071
       21
1005
126E1E
  0
ARC
  5
126E1F
  8
OBJECT
 10
2000.0
 20
-199.99999999999909
 30
0.0
 40
50.0
 50
238.8199429999047
 51
34.494506250117063
1001
ACDBBLOCKREPETAG
1070
     1
1071
       22
1005
126E1F
  0
LINE
  5
126E20
  8
OBJECT
 10
2071.262104999998
 20
-170.833024999999
 30
0.0
 11
2079.2059175558929
 21
-178.77683755589439
 31
0.0
1001
ACDBBLOCKREPETAG
1070
     1
1071
       23
1005
126E20
  0
ARC
  5
126E21
  8
OBJECT
 10
2000.0
 20
-199.99999999999909
 30
0.0
 40
82.000000000000014
 50
345.00000044885081
 51
15.00000053937171
1001
ACDBBLOCKREPETAG
1070
     1
1071
       24
1005
126E21
  0
LINE
  5
126E22
  8
OBJECT
 10
2071.262104999998
 20
-229.1669739999989
 30
0.0
 11
2079.2059179219209
 21
-221.2231610780791
 31
0.0
1001
ACDBBLOCKREPETAG
1070
     1
1071
       25
1005
126E22
  0
LINE
  5
126E23
  8
OBJECT
 10
2045.6618002273251
 20
-137.99999999999909
 30
0.0
 11
2080.0
 21
-137.99999999999909
 31
0.0
1001
ACDBBLOCKREPETAG
1070
     1
1071
       26
1005
126E23
  0
LINE
  5
126E24
  8
OBJECT
 10
2045.6618002273251
 20
-261.99999999999909
 30
0.0
 11
2080.0
 21
-261.99999999999909
 31
0.0
1001
ACDBBLOCKREPETAG
1070
     1
1071
       27
1005
126E24
  0
LINE
  5
126E25
  8
CENTER
 10
2080.0
 20
-199.99999999999909
 30
0.0
 11
1903.0
 21
-199.99999999999909
 31
0.0
1001
ACDBBLOCKREPETAG
1070
     1
1071
       36
1005
126E25
  0
LINE
  5
126E26
  8
CENTER
 10
2000.0
 20
-296.99999999999909
 30
0.0
 11
2000.0
 21
-104.9999999999991
 31
0.0
1001
ACDBBLOCKREPETAG
1070
     1
1071
       37
1005
126E26
  0
LINE
  5
126E27
  8
OBJECT
 10
12085.999999999991
 20
-1133.9999999999991
 30
0.0
 11
12085.999999999991
 21
-1143.9999999999991
 31
0.0
1001
ACDBBLOCKREPETAG
1070
     1
1071
      121
1005
126E27
  0
LINE
  5
126E28
  8
OBJECT
 10
12069.999999999991
 20
-1133.9999999999991
 30
0.0
 11
12069.999999999991
 21
-1143.9999999999991
 31
0.0
1001
ACDBBLOCKREPETAG
1070
     1
1071
      122
1005
126E28
  0
LINE
  5
126E29
  8
OBJECT
 10
12085.999999999991
 20
-1143.9999999999991
 30
0.0
 11
12069.999999999991
 21
-1143.9999999999991
 31
0.0
1001
ACDBBLOCKREPETAG
1070
     1
1071
      123
1005
126E29
  0
LINE
  5
126E2A
  8
OBJECT
 10
12090.0
 20
-1094.9999999999959
 30
0.0
 11
11924.0
 21
-1094.9999999999959
 31
0.0
1001
ACDBBLOCKREPETAG
1070
     1
1071
      124
1005
126E2A
  0
LINE
  5
126E2B
  8
OBJECT
 10
12090.0
 20
-1109.9999999999991
 30
0.0
 11
12090.0
 21
-1094.9999999999959
 31
0.0
1001
ACDBBLOCKREPETAG
1070
     1
1071
      125
1005
126E2B
  0
LINE
  5
126E2C
  8
OBJECT
 10
11924.0
 20
-1109.9999999999991
 30
0.0
 11
12090.0
 21
-1109.9999999999991
 31
0.0
1001
ACDBBLOCKREPETAG
1070
     1
1071
      126
1005
126E2C
  0
LINE
  5
126E2D
  8
OBJECT
 10
12067.49999999998
 20
-1109.9999999999991
 30
0.0
 11
12067.49999999998
 21
-1119.9999999999991
 31
0.0
1001
ACDBBLOCKREPETAG
1070
     1
1071
      127
1005
126E2D
  0
LINE
  5
126E2E
  8
OBJECT
 10
12072.999999999991
 20
-1119.9999999999991
 30
0.0
 11
12072.999999999991
 21
-1109.9999999999991
 31
0.0
1001
ACDBBLOCKREPETAG
1070
     1
1071
      128
1005
126E2E
  0
LINE
  5
126E2F
  8
OBJECT
 10
12082.999999999991
 20
-1119.9999999999991
 30
0.0
 11
12082.999999999991
 21
-1109.9999999999991
 31
0.0
1001
ACDBBLOCKREPETAG
1070
     1
1071
      129
1005
126E2F
  0
LINE
  5
126E30
  8
OBJECT
 10
11924.0
 20
-1119.9999999999991
 30
0.0
 11
11924.0
 21
-1133.9999999999959
 31
0.0
1001
ACDBBLOCKREPETAG
1070
     1
1071
      130
1005
126E30
  0
LINE
  5
126E31
  8
OBJECT
 10
12090.0
 20
-1119.9999999999991
 30
0.0
 11
12090.0
 21
-1133.9999999999959
 31
0.0
1001
ACDBBLOCKREPETAG
1070
     1
1071
      131
1005
126E31
  0
LINE
  5
126E32
  8
OBJECT
 10
11924.0
 20
-1133.9999999999959
 30
0.0
 11
12090.0
 21
-1133.9999999999959
 31
0.0
1001
ACDBBLOCKREPETAG
1070
     1
1071
      132
1005
126E32
  0
LINE
  5
126E33
  8
OBJECT
 10
11924.0
 20
-1119.9999999999991
 30
0.0
 11
12090.0
 21
-1119.9999999999991
 31
0.0
1001
ACDBBLOCKREPETAG
1070
     1
1071
      133
1005
126E33
  0
LINE
  5
126E34
  8
OBJECT
 10
11932.49999999998
 20
-1109.9999999999991
 30
0.0
 11
11932.49999999998
 21
-1119.9999999999991
 31
0.0
1001
ACDBBLOCKREPETAG
1070
     1
1071
      134
1005
126E34
  0
LINE
  5
126E35
  8
OBJECT
 10
11934.0
 20
-1058.9999999999959
 30
0.0
 11
12065.999999999991
 21
-1058.9999999999959
 31
0.0
1001
ACDBBLOCKREPETAG
1070
     1
1071
      135
1005
126E35
  0
LINE
  5
126E36
  8
OBJECT
 10
11924.0
 20
-1109.9999999999991
 30
0.0
 11
11924.0
 21
-1094.9999999999959
 31
0.0
1001
ACDBBLOCKREPETAG
1070
     1
1071
      136
1005
126E36
  0
LINE
  5
126E37
  8
HIDDEN
 10
11943.0
 20
-1069.9999999999991
 30
0.0
 11
12057.0
 21
-1069.9999999999991
 31
0.0
1001
ACDBBLOCKREPETAG
1070
     1
1071
      137
1005
126E37
  0
LINE
  5
126E38
  8
OBJECT
 10
12086.999999999991
 20
-1093.2
 30
0.0
 11
12086.999999999991
 21
-1094.9999999999991
 31
0.0
1001
ACDBBLOCKREPETAG
1070
     1
1071
      138
1005
126E38
  0
LINE
  5
126E39
  8
OBJECT
 10
12068.999999999991
 20
-1093.2
 30
0.0
 11
12068.999999999991
 21
-1094.9999999999991
 31
0.0
1001
ACDBBLOCKREPETAG
1070
     1
1071
      139
1005
126E39
  0
LINE
  5
126E3A
  8
OBJECT
 10
12072.249999999991
 20
-1083.4999999999991
 30
0.0
 11
12083.749999999991
 21
-1083.4999999999991
 31
0.0
1001
ACDBBLOCKREPETAG
1070
     1
1071
      140
1005
126E3A
  0
LINE
  5
126E3B
  8
OBJECT
 10
12072.249999999991
 20
-1083.4999999999991
 30
0.0
 11
12072.249999999991
 21
-1093.2
 31
0.0
1001
ACDBBLOCKREPETAG
1070
     1
1071
      141
1005
126E3B
  0
LINE
  5
126E3C
  8
OBJECT
 10
12083.749999999991
 20
-1083.4999999999991
 30
0.0
 11
12083.749999999991
 21
-1093.2
 31
0.0
1001
ACDBBLOCKREPETAG
1070
     1
1071
      142
1005
126E3C
  0
LINE
  5
126E3D
  8
OBJECT
 10
11931.99999999998
 20
-1174.9999999999991
 30
0.0
 11
12067.99999999998
 21
-1174.9999999999991
 31
0.0
1001
ACDBBLOCKREPETAG
1070
     1
1071
      143
1005
126E3D
  0
LINE
  5
126E3E
  8
OBJECT
 10
11931.99999999998
 20
-1174.9999999999991
 30
0.0
 11
11931.99999999998
 21
-1133.9999999999991
 31
0.0
1001
ACDBBLOCKREPETAG
1070
     1
1071
      144
1005
126E3E
  0
LINE
  5
126E3F
  8
OBJECT
 10
12067.99999999998
 20
-1174.9999999999991
 30
0.0
 11
12067.99999999998
 21
-1133.9999999999991
 31
0.0
1001
ACDBBLOCKREPETAG
1070
     1
1071
      145
1005
126E3F
  0
LINE
  5
126E40
  8
OBJECT
 10
12086.999999999991
 20
-1093.2
 30
0.0
 11
12068.999999999991
 21
-1093.2
 31
0.0
1001
ACDBBLOCKREPETAG
1070
     1
1071
      146
1005
126E40
  0
LINE
  5
126E41
  8
CENTER
 10
12000.0
 20
-799.99999999999955
 30
0.0
 11
12000.0
 21
-1189.9999999999991
 31
0.0
1001
ACDBBLOCKREPETAG
1070
     1
1071
      147
1005
126E41
  0
LINE
  5
126E42
  8
OBJECT
 10
11925.0
 20
-799.99999999999955
 30
0.0
 11
11925.0
 21
-881.99999999999591
 31
0.0
1001
ACDBBLOCKREPETAG
1070
     1
1071
      148
1005
126E42
  0
LINE
  5
126E43
  8
OBJECT
 10
12075.0
 20
-799.99999999999955
 30
0.0
 11
12075.0
 21
-881.99999999999216
 31
0.0
1001
ACDBBLOCKREPETAG
1070
     1
1071
      149
1005
126E43
  0
LINE
  5
126E44
  8
OBJECT
 10
11925.0
 20
-881.99999999999591
 30
0.0
 11
12075.0
 21
-881.99999999999216
 31
0.0
1001
ACDBBLOCKREPETAG
1070
     1
1071
      150
1005
126E44
  0
LINE
  5
126E45
  8
OBJECT
 10
11943.0
 20
-1058.9999999999959
 30
0.0
 11
11943.0
 21
-1009.999999999992
 31
0.0
1001
ACDBBLOCKREPETAG
1070
     1
1071
      151
1005
126E45
  0
LINE
  5
126E46
  8
OBJECT
 10
12057.0
 20
-1009.999999999992
 30
0.0
 11
11943.0
 21
-1009.999999999992
 31
0.0
1001
ACDBBLOCKREPETAG
1070
     1
1071
      152
1005
126E46
  0
LINE
  5
126E47
  8
OBJECT
 10
12057.0
 20
-1009.999999999992
 30
0.0
 11
12057.0
 21
-1058.9999999999959
 31
0.0
1001
ACDBBLOCKREPETAG
1070
     1
1071
      153
1005
126E47
  0
LINE
  5
126E48
  8
OBJECT
 10
11925.0
 20
-881.99999999999591
 30
0.0
 11
11943.0
 21
-1009.999999999992
 31
0.0
1001
ACDBBLOCKREPETAG
1070
     1
1071
      154
1005
126E48
  0
LINE
  5
126E49
  8
OBJECT
 10
12057.0
 20
-1009.999999999992
 30
0.0
 11
12075.0
 21
-881.99999999999216
 31
0.0
1001
ACDBBLOCKREPETAG
1070
     1
1071
      155
1005
126E49
  0
LINE
  5
126E4A
  8
OBJECT
 10
11934.0
 20
-1094.9999999999959
 30
0.0
 11
11934.0
 21
-1058.9999999999959
 31
0.0
1001
ACDBBLOCKREPETAG
1070
     1
1071
      156
1005
126E4A
  0
LINE
  5
126E4B
  8
OBJECT
 10
12066.0
 20
-1094.9999999999959
 30
0.0
 11
12065.999999999991
 21
-1058.9999999999959
 31
0.0
1001
ACDBBLOCKREPETAG
1070
     1
1071
      157
1005
126E4B
  0
LINE
  5
126E4C
  8
OBJECT
 10
11954.75
 20
-1084.699999999993
 30
0.0
 11
11967.25
 21
-1084.699999999993
 31
0.0
1001
ACDBBLOCKREPETAG
1070
     1
1071
      158
1005
126E4C
  0
LINE
  5
126E4D
  8
OBJECT
 10
11946.0
 20
-1094.9999999999959
 30
0.0
 11
11946.0
 21
-1092.699999999996
 31
0.0
1001
ACDBBLOCKREPETAG
1070
     1
1071
      159
1005
126E4D
  0
LINE
  5
126E4E
  8
OBJECT
 10
11976.0
 20
-1094.9999999999959
 30
0.0
 11
11976.0
 21
-1092.699999999996
 31
0.0
1001
ACDBBLOCKREPETAG
1070
     1
1071
      160
1005
126E4E
  0
LINE
  5
126E4F
  8
OBJECT
 10
11954.75
 20
-1084.699999999993
 30
0.0
 11
11954.75
 21
-1092.699999999996
 31
0.0
1001
ACDBBLOCKREPETAG
1070
     1
1071
      161
1005
126E4F
  0
LINE
  5
126E50
  8
OBJECT
 10
11967.25
 20
-1084.699999999993
 30
0.0
 11
11967.25
 21
-1092.699999999996
 31
0.0
1001
ACDBBLOCKREPETAG
1070
     1
1071
      162
1005
126E50
  0
LINE
  5
126E51
  8
OBJECT
 10
11946.0
 20
-1092.699999999996
 30
0.0
 11
11976.0
 21
-1092.699999999996
 31
0.0
1001
ACDBBLOCKREPETAG
1070
     1
1071
      163
1005
126E51
  0
LINE
  5
126E52
  8
OBJECT
 10
11953.0
 20
-1133.9999999999959
 30
0.0
 11
11953.0
 21
-1143.9999999999959
 31
0.0
1001
ACDBBLOCKREPETAG
1070
     1
1071
      164
1005
126E52
  0
LINE
  5
126E53
  8
OBJECT
 10
11969.0
 20
-1133.9999999999959
 30
0.0
 11
11969.0
 21
-1143.9999999999959
 31
0.0
1001
ACDBBLOCKREPETAG
1070
     1
1071
      165
1005
126E53
  0
LINE
  5
126E54
  8
OBJECT
 10
11953.0
 20
-1143.9999999999959
 30
0.0
 11
11969.0
 21
-1143.9999999999959
 31
0.0
1001
ACDBBLOCKREPETAG
1070
     1
1071
      166
1005
126E54
  0
LINE
  5
126E55
  8
OBJECT
 10
11966.0
 20
-1119.9999999999959
 30
0.0
 11
11966.0
 21
-1109.9999999999959
 31
0.0
1001
ACDBBLOCKREPETAG
1070
     1
1071
      167
1005
126E55
  0
LINE
  5
126E56
  8
OBJECT
 10
11956.0
 20
-1119.9999999999959
 30
0.0
 11
11956.0
 21
-1109.9999999999959
 31
0.0
1001
ACDBBLOCKREPETAG
1070
     1
1071
      168
1005
126E56
  0
LINE
  5
126E57
  8
OBJECT
 10
10090.0
 20
-1094.9999999999959
 30
0.0
 11
9924.0
 21
-1094.9999999999959
 31
0.0
1001
ACDBBLOCKREPETAG
1070
     1
1071
       12
1005
126E57
  0
LINE
  5
126E58
  8
OBJECT
 10
10066.0
 20
-1058.9999999999959
 30
0.0
 11
9934.0
 21
-1058.9999999999959
 31
0.0
1001
ACDBBLOCKREPETAG
1070
     1
1071
       13
1005
126E58
  0
LINE
  5
126E59
  8
OBJECT
 10
10090.0
 20
-1109.9999999999991
 30
0.0
 11
10090.0
 21
-1094.9999999999959
 31
0.0
1001
ACDBBLOCKREPETAG
1070
     1
1071
       14
1005
126E59
  0
LINE
  5
126E5A
  8
OBJECT
 10
9924.0
 20
-1109.9999999999991
 30
0.0
 11
10090.0
 21
-1109.9999999999991
 31
0.0
1001
ACDBBLOCKREPETAG
1070
     1
1071
       15
1005
126E5A
  0
LINE
  5
126E5B
  8
OBJECT
 10
10067.49999999998
 20
-1109.9999999999991
 30
0.0
 11
10067.49999999998
 21
-1119.9999999999991
 31
0.0
1001
ACDBBLOCKREPETAG
1070
     1
1071
       16
1005
126E5B
  0
LINE
  5
126E5C
  8
OBJECT
 10
9924.0
 20
-1119.9999999999991
 30
0.0
 11
9924.0
 21
-1133.9999999999959
 31
0.0
1001
ACDBBLOCKREPETAG
1070
     1
1071
       17
1005
126E5C
  0
LINE
  5
126E5D
  8
OBJECT
 10
10090.0
 20
-1119.9999999999991
 30
0.0
 11
10090.0
 21
-1133.9999999999959
 31
0.0
1001
ACDBBLOCKREPETAG
1070
     1
1071
       18
1005
126E5D
  0
LINE
  5
126E5E
  8
OBJECT
 10
9924.0
 20
-1133.9999999999959
 30
0.0
 11
10090.0
 21
-1133.9999999999959
 31
0.0
1001
ACDBBLOCKREPETAG
1070
     1
1071
       19
1005
126E5E
  0
LINE
  5
126E5F
  8
OBJECT
 10
9924.0
 20
-1119.9999999999991
 30
0.0
 11
10090.0
 21
-1119.9999999999991
 31
0.0
1001
ACDBBLOCKREPETAG
1070
     1
1071
       20
1005
126E5F
  0
LINE
  5
126E60
  8
OBJECT
 10
9932.4999999999854
 20
-1109.9999999999991
 30
0.0
 11
9932.4999999999854
 21
-1119.9999999999991
 31
0.0
1001
ACDBBLOCKREPETAG
1070
     1
1071
       21
1005
126E60
  0
LINE
  5
126E61
  8
OBJECT
 10
9924.0
 20
-1109.9999999999991
 30
0.0
 11
9924.0
 21
-1094.9999999999959
 31
0.0
1001
ACDBBLOCKREPETAG
1070
     1
1071
       22
1005
126E61
  0
LINE
  5
126E62
  8
HIDDEN
 10
9943.0
 20
-1069.9999999999991
 30
0.0
 11
10057.0
 21
-1069.9999999999991
 31
0.0
1001
ACDBBLOCKREPETAG
1070
     1
1071
       23
1005
126E62
  0
LINE
  5
126E63
  8
CENTER
 10
10000.0
 20
-799.99999999999955
 30
0.0
 11
10000.0
 21
-1148.9999999999959
 31
0.0
1001
ACDBBLOCKREPETAG
1070
     1
1071
       24
1005
126E63
  0
LINE
  5
126E64
  8
OBJECT
 10
9925.0
 20
-799.99999999999955
 30
0.0
 11
9925.0
 21
-881.99999999999591
 31
0.0
1001
ACDBBLOCKREPETAG
1070
     1
1071
       25
1005
126E64
  0
LINE
  5
126E65
  8
OBJECT
 10
10075.0
 20
-799.99999999999955
 30
0.0
 11
10075.0
 21
-881.99999999999216
 31
0.0
1001
ACDBBLOCKREPETAG
1070
     1
1071
       26
1005
126E65
  0
LINE
  5
126E66
  8
OBJECT
 10
9925.0
 20
-881.99999999999591
 30
0.0
 11
10075.0
 21
-881.99999999999216
 31
0.0
1001
ACDBBLOCKREPETAG
1070
     1
1071
       27
1005
126E66
  0
LINE
  5
126E67
  8
OBJECT
 10
10057.0
 20
-1058.9999999999959
 30
0.0
 11
10057.0
 21
-1009.999999999992
 31
0.0
1001
ACDBBLOCKREPETAG
1070
     1
1071
       28
1005
126E67
  0
LINE
  5
126E68
  8
OBJECT
 10
9943.0
 20
-1058.9999999999959
 30
0.0
 11
9943.0
 21
-1009.999999999992
 31
0.0
1001
ACDBBLOCKREPETAG
1070
     1
1071
       29
1005
126E68
  0
LINE
  5
126E69
  8
OBJECT
 10
10057.0
 20
-1009.999999999992
 30
0.0
 11
9943.0
 21
-1009.999999999992
 31
0.0
1001
ACDBBLOCKREPETAG
1070
     1
1071
       30
1005
126E69
  0
LINE
  5
126E6A
  8
OBJECT
 10
9925.0
 20
-881.99999999999591
 30
0.0
 11
9943.0
 21
-1009.999999999992
 31
0.0
1001
ACDBBLOCKREPETAG
1070
     1
1071
       31
1005
126E6A
  0
LINE
  5
126E6B
  8
OBJECT
 10
10057.0
 20
-1009.999999999992
 30
0.0
 11
10075.0
 21
-881.99999999999216
 31
0.0
1001
ACDBBLOCKREPETAG
1070
     1
1071
       32
1005
126E6B
  0
LINE
  5
126E6C
  8
OBJECT
 10
9934.0
 20
-1058.9999999999959
 30
0.0
 11
9934.0
 21
-1094.9999999999959
 31
0.0
1001
ACDBBLOCKREPETAG
1070
     1
1071
       33
1005
126E6C
  0
LINE
  5
126E6D
  8
OBJECT
 10
10066.0
 20
-1058.9999999999959
 30
0.0
 11
10066.0
 21
-1094.9999999999959
 31
0.0
1001
ACDBBLOCKREPETAG
1070
     1
1071
       34
1005
126E6D
  0
LINE
  5
126E6E
  8
OBJECT
 10
10082.999999999991
 20
-1119.9999999999959
 30
0.0
 11
10082.999999999991
 21
-1109.9999999999959
 31
0.0
1001
ACDBBLOCKREPETAG
1070
     1
1071
       35
1005
126E6E
  0
LINE
  5
126E6F
  8
OBJECT
 10
10072.999999999991
 20
-1119.9999999999959
 30
0.0
 11
10072.999999999991
 21
-1109.9999999999959
 31
0.0
1001
ACDBBLOCKREPETAG
1070
     1
1071
       36
1005
126E6F
  0
LINE
  5
126E70
  8
OBJECT
 10
10068.99999999998
 20
-1089.9999999999959
 30
0.0
 11
10068.99999999998
 21
-1094.9999999999959
 31
0.0
1001
ACDBBLOCKREPETAG
1070
     1
1071
       37
1005
126E70
  0
LINE
  5
126E71
  8
OBJECT
 10
10087.0
 20
-1089.9999999999959
 30
0.0
 11
10087.0
 21
-1094.9999999999959
 31
0.0
1001
ACDBBLOCKREPETAG
1070
     1
1071
       38
1005
126E71
  0
LINE
  5
126E72
  8
OBJECT
 10
10087.0
 20
-1089.9999999999959
 30
0.0
 11
10068.99999999998
 21
-1089.9999999999959
 31
0.0
1001
ACDBBLOCKREPETAG
1070
     1
1071
       39
1005
126E72
  0
LINE
  5
126E73
  8
OBJECT
 10
10073.0
 20
-1141.9999999999959
 30
0.0
 11
10073.0
 21
-1144.9999999999959
 31
0.0
1001
ACDBBLOCKREPETAG
1070
     1
1071
       40
1005
126E73
  0
LINE
  5
126E74
  8
OBJECT
 10
10073.0
 20
-1144.9999999999959
 30
0.0
 11
10083.0
 21
-1144.9999999999959
 31
0.0
1001
ACDBBLOCKREPETAG
1070
     1
1071
       41
1005
126E74
  0
LINE
  5
126E75
  8
OBJECT
 10
10083.0
 20
-1144.9999999999959
 30
0.0
 11
10083.0
 21
-1141.9999999999959
 31
0.0
1001
ACDBBLOCKREPETAG
1070
     1
1071
       43
1005
126E75
  0
LINE
  5
126E76
  8
OBJECT
 10
9968.5
 20
-1089.9999999999959
 30
0.0
 11
9951.9999999999927
 21
-1089.9999999999959
 31
0.0
1001
ACDBBLOCKREPETAG
1070
     1
1071
       48
1005
126E76
  0
LINE
  5
126E77
  8
OBJECT
 10
9976.0
 20
-1094.9999999999959
 30
0.0
 11
9976.0
 21
-1092.9999999999959
 31
0.0
1001
ACDBBLOCKREPETAG
1070
     1
1071
       49
1005
126E77
  0
LINE
  5
126E78
  8
OBJECT
 10
9966.0
 20
-1119.9999999999959
 30
0.0
 11
9966.0
 21
-1109.9999999999959
 31
0.0
1001
ACDBBLOCKREPETAG
1070
     1
1071
       50
1005
126E78
  0
LINE
  5
126E79
  8
OBJECT
 10
9956.0
 20
-1119.9999999999959
 30
0.0
 11
9956.0
 21
-1109.9999999999959
 31
0.0
1001
ACDBBLOCKREPETAG
1070
     1
1071
       51
1005
126E79
  0
LINE
  5
126E7A
  8
OBJECT
 10
9951.9999999999927
 20
-1089.9999999999959
 30
0.0
 11
9951.9999999999927
 21
-1094.9999999999959
 31
0.0
1001
ACDBBLOCKREPETAG
1070
     1
1071
       52
1005
126E7A
  0
LINE
  5
126E7B
  8
OBJECT
 10
9956.0
 20
-1141.9999999999959
 30
0.0
 11
9956.0
 21
-1144.9999999999959
 31
0.0
1001
ACDBBLOCKREPETAG
1070
     1
1071
       53
1005
126E7B
  0
LINE
  5
126E7C
  8
OBJECT
 10
9956.0
 20
-1144.9999999999959
 30
0.0
 11
9966.0
 21
-1144.9999999999959
 31
0.0
1001
ACDBBLOCKREPETAG
1070
     1
1071
       54
1005
126E7C
  0
LINE
  5
126E7D
  8
OBJECT
 10
9951.185045423772
 20
-1141.9999999999959
 30
0.0
 11
9970.8149545762208
 21
-1141.9999999999959
 31
0.0
1001
ACDBBLOCKREPETAG
1070
     1
1071
       55
1005
126E7D
  0
LINE
  5
126E7E
  8
OBJECT
 10
9966.0
 20
-1144.9999999999959
 30
0.0
 11
9966.0
 21
-1141.9999999999959
 31
0.0
1001
ACDBBLOCKREPETAG
1070
     1
1071
       56
1005
126E7E
  0
LINE
  5
126E7F
  8
OBJECT
 10
9976.0
 20
-1092.9999999999959
 30
0.0
 11
9968.5
 21
-1089.9999999999959
 31
0.0
1001
ACDBBLOCKREPETAG
1070
     1
1071
       57
1005
126E7F
  0
LINE
  5
126E80
  8
OBJECT
 10
9951.1850454237774
 20
-1133.9999999999959
 30
0.0
 11
9951.1850454237774
 21
-1141.9999999999959
 31
0.0
1001
ACDBBLOCKREPETAG
1070
     1
1071
      630
1005
126E80
  0
LINE
  5
126E81
  8
OBJECT
 10
9956.0925227118896
 20
-1133.9999999999959
 30
0.0
 11
9956.0925227118896
 21
-1141.9999999999959
 31
0.0
1001
ACDBBLOCKREPETAG
1070
     1
1071
      631
1005
126E81
  0
LINE
  5
126E82
  8
OBJECT
 10
9965.9074772881122
 20
-1133.9999999999959
 30
0.0
 11
9965.9074772881122
 21
-1141.9999999999959
 31
0.0
1001
ACDBBLOCKREPETAG
1070
     1
1071
      632
1005
126E82
  0
LINE
  5
126E83
  8
OBJECT
 10
9970.8149545762244
 20
-1133.9999999999959
 30
0.0
 11
9970.8149545762244
 21
-1141.9999999999959
 31
0.0
1001
ACDBBLOCKREPETAG
1070
     1
1071
      633
1005
126E83
  0
LINE
  5
126E84
  8
OBJECT
 10
10068.18504542377
 20
-1141.9999999999959
 30
0.0
 11
10087.814954576221
 21
-1141.9999999999959
 31
0.0
1001
ACDBBLOCKREPETAG
1070
     1
1071
      634
1005
126E84
  0
LINE
  5
126E85
  8
OBJECT
 10
10068.18504542377
 20
-1133.9999999999959
 30
0.0
 11
10068.18504542377
 21
-1141.9999999999959
 31
0.0
1001
ACDBBLOCKREPETAG
1070
     1
1071
      635
1005
126E85
  0
LINE
  5
126E86
  8
OBJECT
 10
10073.09252271189
 20
-1133.9999999999959
 30
0.0
 11
10073.09252271189
 21
-1141.9999999999959
 31
0.0
1001
ACDBBLOCKREPETAG
1070
     1
1071
      636
1005
126E86
  0
LINE
  5
126E87
  8
OBJECT
 10
10082.90747728811
 20
-1133.9999999999959
 30
0.0
 11
10082.90747728811
 21
-1141.9999999999959
 31
0.0
1001
ACDBBLOCKREPETAG
1070
     1
1071
      637
1005
126E87
  0
LINE
  5
126E88
  8
OBJECT
 10
10087.814954576221
 20
-1133.9999999999959
 30
0.0
 11
10087.814954576221
 21
-1141.9999999999959
 31
0.0
1001
ACDBBLOCKREPETAG
1070
     1
1071
      638
1005
126E88
  0
LINE
  5
126E89
  8
OBJECT
 10
7943.0
 20
-1109.9999999999959
 30
0.0
 11
8057.0
 21
-1109.9999999999959
 31
0.0
1001
ACDBBLOCKREPETAG
1070
     1
1071
        0
1005
126E89
  0
LINE
  5
126E8A
  8
OBJECT
 10
7943.0
 20
-1109.9999999999959
 30
0.0
 11
7943.0
 21
-1009.999999999996
 31
0.0
1001
ACDBBLOCKREPETAG
1070
     1
1071
        1
1005
126E8A
  0
LINE
  5
126E8B
  8
OBJECT
 10
8057.0
 20
-1109.9999999999959
 30
0.0
 11
8057.0
 21
-1009.999999999996
 31
0.0
1001
ACDBBLOCKREPETAG
1070
     1
1071
        2
1005
126E8B
  0
LINE
  5
126E8C
  8
OBJECT
 10
7943.0
 20
-1009.999999999996
 30
0.0
 11
8057.0
 21
-1009.999999999996
 31
0.0
1001
ACDBBLOCKREPETAG
1070
     1
1071
        3
1005
126E8C
  0
LINE
  5
126E8D
  8
HIDDEN
 10
7950.0
 20
-1009.999999999996
 30
0.0
 11
7950.0
 21
-1109.9999999999959
 31
0.0
1001
ACDBBLOCKREPETAG
1070
     1
1071
        4
1005
126E8D
  0
LINE
  5
126E8E
  8
HIDDEN
 10
8050.0
 20
-1009.999999999996
 30
0.0
 11
8050.0
 21
-1109.9999999999959
 31
0.0
1001
ACDBBLOCKREPETAG
1070
     1
1071
        5
1005
126E8E
  0
LINE
  5
126E8F
  8
CENTER
 10
8000.0
 20
-799.99999999999955
 30
0.0
 11
8000.0
 21
-1124.9999999999959
 31
0.0
1001
ACDBBLOCKREPETAG
1070
     1
1071
        6
1005
126E8F
  0
LINE
  5
126E90
  8
OBJECT
 10
7925.0
 20
-799.99999999999955
 30
0.0
 11
7925.0
 21
-881.99999999999591
 31
0.0
1001
ACDBBLOCKREPETAG
1070
     1
1071
        7
1005
126E90
  0
LINE
  5
126E91
  8
OBJECT
 10
8075.0
 20
-799.99999999999955
 30
0.0
 11
8075.0
 21
-881.99999999999591
 31
0.0
1001
ACDBBLOCKREPETAG
1070
     1
1071
        8
1005
126E91
  0
LINE
  5
126E92
  8
OBJECT
 10
7925.0
 20
-881.99999999999591
 30
0.0
 11
8075.0
 21
-881.99999999999591
 31
0.0
1001
ACDBBLOCKREPETAG
1070
     1
1071
        9
1005
126E92
  0
LINE
  5
126E93
  8
OBJECT
 10
7925.0
 20
-881.99999999999591
 30
0.0
 11
7943.0
 21
-1009.999999999996
 31
0.0
1001
ACDBBLOCKREPETAG
1070
     1
1071
       10
1005
126E93
  0
LINE
  5
126E94
  8
OBJECT
 10
8057.0
 20
-1009.999999999996
 30
0.0
 11
8075.0
 21
-881.99999999999591
 31
0.0
1001
ACDBBLOCKREPETAG
1070
     1
1071
       11
1005
126E94
  0
LINE
  5
126E95
  8
OBJECT
 10
6085.9999999999927
 20
-1133.9999999999991
 30
0.0
 11
6085.9999999999927
 21
-1143.9999999999991
 31
0.0
1001
ACDBBLOCKREPETAG
1070
     1
1071
      121
1005
126E95
  0
LINE
  5
126E96
  8
OBJECT
 10
6069.9999999999927
 20
-1133.9999999999991
 30
0.0
 11
6069.9999999999927
 21
-1143.9999999999991
 31
0.0
1001
ACDBBLOCKREPETAG
1070
     1
1071
      122
1005
126E96
  0
LINE
  5
126E97
  8
OBJECT
 10
6085.9999999999927
 20
-1143.9999999999991
 30
0.0
 11
6069.9999999999927
 21
-1143.9999999999991
 31
0.0
1001
ACDBBLOCKREPETAG
1070
     1
1071
      123
1005
126E97
  0
LINE
  5
126E98
  8
OBJECT
 10
6090.0
 20
-1094.9999999999959
 30
0.0
 11
5924.0
 21
-1094.9999999999959
 31
0.0
1001
ACDBBLOCKREPETAG
1070
     1
1071
      124
1005
126E98
  0
LINE
  5
126E99
  8
OBJECT
 10
6090.0
 20
-1109.9999999999991
 30
0.0
 11
6090.0
 21
-1094.9999999999959
 31
0.0
1001
ACDBBLOCKREPETAG
1070
     1
1071
      125
1005
126E99
  0
LINE
  5
126E9A
  8
OBJECT
 10
5924.0
 20
-1109.9999999999991
 30
0.0
 11
6090.0
 21
-1109.9999999999991
 31
0.0
1001
ACDBBLOCKREPETAG
1070
     1
1071
      126
1005
126E9A
  0
LINE
  5
126E9B
  8
OBJECT
 10
6067.4999999999854
 20
-1109.9999999999991
 30
0.0
 11
6067.4999999999854
 21
-1119.9999999999991
 31
0.0
1001
ACDBBLOCKREPETAG
1070
     1
1071
      127
1005
126E9B
  0
LINE
  5
126E9C
  8
OBJECT
 10
6072.9999999999927
 20
-1119.9999999999991
 30
0.0
 11
6072.9999999999927
 21
-1109.9999999999991
 31
0.0
1001
ACDBBLOCKREPETAG
1070
     1
1071
      128
1005
126E9C
  0
LINE
  5
126E9D
  8
OBJECT
 10
6082.9999999999927
 20
-1119.9999999999991
 30
0.0
 11
6082.9999999999927
 21
-1109.9999999999991
 31
0.0
1001
ACDBBLOCKREPETAG
1070
     1
1071
      129
1005
126E9D
  0
LINE
  5
126E9E
  8
OBJECT
 10
5924.0
 20
-1119.9999999999991
 30
0.0
 11
5924.0
 21
-1133.9999999999959
 31
0.0
1001
ACDBBLOCKREPETAG
1070
     1
1071
      130
1005
126E9E
  0
LINE
  5
126E9F
  8
OBJECT
 10
6090.0
 20
-1119.9999999999991
 30
0.0
 11
6090.0
 21
-1133.9999999999959
 31
0.0
1001
ACDBBLOCKREPETAG
1070
     1
1071
      131
1005
126E9F
  0
LINE
  5
126EA0
  8
OBJECT
 10
5924.0
 20
-1133.9999999999959
 30
0.0
 11
6090.0
 21
-1133.9999999999959
 31
0.0
1001
ACDBBLOCKREPETAG
1070
     1
1071
      132
1005
126EA0
  0
LINE
  5
126EA1
  8
OBJECT
 10
5924.0
 20
-1119.9999999999991
 30
0.0
 11
6090.0
 21
-1119.9999999999991
 31
0.0
1001
ACDBBLOCKREPETAG
1070
     1
1071
      133
1005
126EA1
  0
LINE
  5
126EA2
  8
OBJECT
 10
5932.4999999999854
 20
-1109.9999999999991
 30
0.0
 11
5932.4999999999854
 21
-1119.9999999999991
 31
0.0
1001
ACDBBLOCKREPETAG
1070
     1
1071
      134
1005
126EA2
  0
LINE
  5
126EA3
  8
OBJECT
 10
5934.0
 20
-1058.9999999999959
 30
0.0
 11
6065.9999999999918
 21
-1058.9999999999959
 31
0.0
1001
ACDBBLOCKREPETAG
1070
     1
1071
      135
1005
126EA3
  0
LINE
  5
126EA4
  8
OBJECT
 10
5924.0
 20
-1109.9999999999991
 30
0.0
 11
5924.0
 21
-1094.9999999999959
 31
0.0
1001
ACDBBLOCKREPETAG
1070
     1
1071
      136
1005
126EA4
  0
LINE
  5
126EA5
  8
HIDDEN
 10
5943.0
 20
-1069.9999999999991
 30
0.0
 11
6057.0
 21
-1069.9999999999991
 31
0.0
1001
ACDBBLOCKREPETAG
1070
     1
1071
      137
1005
126EA5
  0
LINE
  5
126EA6
  8
OBJECT
 10
6086.9999999999918
 20
-1093.2
 30
0.0
 11
6086.9999999999918
 21
-1094.9999999999991
 31
0.0
1001
ACDBBLOCKREPETAG
1070
     1
1071
      138
1005
126EA6
  0
LINE
  5
126EA7
  8
OBJECT
 10
6068.9999999999918
 20
-1093.2
 30
0.0
 11
6068.9999999999918
 21
-1094.9999999999991
 31
0.0
1001
ACDBBLOCKREPETAG
1070
     1
1071
      139
1005
126EA7
  0
LINE
  5
126EA8
  8
OBJECT
 10
6072.2499999999927
 20
-1083.4999999999991
 30
0.0
 11
6083.7499999999927
 21
-1083.4999999999991
 31
0.0
1001
ACDBBLOCKREPETAG
1070
     1
1071
      140
1005
126EA8
  0
LINE
  5
126EA9
  8
OBJECT
 10
6072.2499999999927
 20
-1083.4999999999991
 30
0.0
 11
6072.2499999999927
 21
-1093.2
 31
0.0
1001
ACDBBLOCKREPETAG
1070
     1
1071
      141
1005
126EA9
  0
LINE
  5
126EAA
  8
OBJECT
 10
6083.7499999999927
 20
-1083.4999999999991
 30
0.0
 11
6083.7499999999927
 21
-1093.2
 31
0.0
1001
ACDBBLOCKREPETAG
1070
     1
1071
      142
1005
126EAA
  0
LINE
  5
126EAB
  8
OBJECT
 10
5931.9999999999864
 20
-1174.9999999999991
 30
0.0
 11
6067.9999999999864
 21
-1174.9999999999991
 31
0.0
1001
ACDBBLOCKREPETAG
1070
     1
1071
      143
1005
126EAB
  0
LINE
  5
126EAC
  8
OBJECT
 10
5931.9999999999864
 20
-1174.9999999999991
 30
0.0
 11
5931.9999999999864
 21
-1133.9999999999991
 31
0.0
1001
ACDBBLOCKREPETAG
1070
     1
1071
      144
1005
126EAC
  0
LINE
  5
126EAD
  8
OBJECT
 10
6067.9999999999864
 20
-1174.9999999999991
 30
0.0
 11
6067.9999999999864
 21
-1133.9999999999991
 31
0.0
1001
ACDBBLOCKREPETAG
1070
     1
1071
      145
1005
126EAD
  0
LINE
  5
126EAE
  8
OBJECT
 10
6086.9999999999918
 20
-1093.2
 30
0.0
 11
6068.9999999999918
 21
-1093.2
 31
0.0
1001
ACDBBLOCKREPETAG
1070
     1
1071
      146
1005
126EAE
  0
LINE
  5
126EAF
  8
CENTER
 10
6000.0
 20
-799.99999999999955
 30
0.0
 11
6000.0
 21
-1189.9999999999991
 31
0.0
1001
ACDBBLOCKREPETAG
1070
     1
1071
      147
1005
126EAF
  0
LINE
  5
126EB0
  8
OBJECT
 10
5925.0
 20
-799.99999999999955
 30
0.0
 11
5925.0
 21
-881.99999999999591
 31
0.0
1001
ACDBBLOCKREPETAG
1070
     1
1071
      148
1005
126EB0
  0
LINE
  5
126EB1
  8
OBJECT
 10
6075.0
 20
-799.99999999999955
 30
0.0
 11
6075.0
 21
-881.99999999999216
 31
0.0
1001
ACDBBLOCKREPETAG
1070
     1
1071
      149
1005
126EB1
  0
LINE
  5
126EB2
  8
OBJECT
 10
5925.0
 20
-881.99999999999591
 30
0.0
 11
6075.0
 21
-881.99999999999216
 31
0.0
1001
ACDBBLOCKREPETAG
1070
     1
1071
      150
1005
126EB2
  0
LINE
  5
126EB3
  8
OBJECT
 10
5943.0
 20
-1058.9999999999959
 30
0.0
 11
5943.0
 21
-1009.999999999992
 31
0.0
1001
ACDBBLOCKREPETAG
1070
     1
1071
      151
1005
126EB3
  0
LINE
  5
126EB4
  8
OBJECT
 10
6057.0
 20
-1009.999999999992
 30
0.0
 11
5943.0
 21
-1009.999999999992
 31
0.0
1001
ACDBBLOCKREPETAG
1070
     1
1071
      152
1005
126EB4
  0
LINE
  5
126EB5
  8
OBJECT
 10
6057.0
 20
-1009.999999999992
 30
0.0
 11
6057.0
 21
-1058.9999999999959
 31
0.0
1001
ACDBBLOCKREPETAG
1070
     1
1071
      153
1005
126EB5
  0
LINE
  5
126EB6
  8
OBJECT
 10
5925.0
 20
-881.99999999999591
 30
0.0
 11
5943.0
 21
-1009.999999999992
 31
0.0
1001
ACDBBLOCKREPETAG
1070
     1
1071
      154
1005
126EB6
  0
LINE
  5
126EB7
  8
OBJECT
 10
6057.0
 20
-1009.999999999992
 30
0.0
 11
6075.0
 21
-881.99999999999216
 31
0.0
1001
ACDBBLOCKREPETAG
1070
     1
1071
      155
1005
126EB7
  0
LINE
  5
126EB8
  8
OBJECT
 10
5934.0
 20
-1094.9999999999959
 30
0.0
 11
5934.0
 21
-1058.9999999999959
 31
0.0
1001
ACDBBLOCKREPETAG
1070
     1
1071
      156
1005
126EB8
  0
LINE
  5
126EB9
  8
OBJECT
 10
6066.0
 20
-1094.9999999999959
 30
0.0
 11
6065.9999999999918
 21
-1058.9999999999959
 31
0.0
1001
ACDBBLOCKREPETAG
1070
     1
1071
      157
1005
126EB9
  0
LINE
  5
126EBA
  8
OBJECT
 10
5954.75
 20
-1084.699999999993
 30
0.0
 11
5967.2499999999991
 21
-1084.699999999993
 31
0.0
1001
ACDBBLOCKREPETAG
1070
     1
1071
      158
1005
126EBA
  0
LINE
  5
126EBB
  8
OBJECT
 10
5946.0
 20
-1094.9999999999959
 30
0.0
 11
5946.0
 21
-1092.699999999996
 31
0.0
1001
ACDBBLOCKREPETAG
1070
     1
1071
      159
1005
126EBB
  0
LINE
  5
126EBC
  8
OBJECT
 10
5976.0
 20
-1094.9999999999959
 30
0.0
 11
5976.0
 21
-1092.699999999996
 31
0.0
1001
ACDBBLOCKREPETAG
1070
     1
1071
      160
1005
126EBC
  0
LINE
  5
126EBD
  8
OBJECT
 10
5954.75
 20
-1084.699999999993
 30
0.0
 11
5954.75
 21
-1092.699999999996
 31
0.0
1001
ACDBBLOCKREPETAG
1070
     1
1071
      161
1005
126EBD
  0
LINE
  5
126EBE
  8
OBJECT
 10
5967.2499999999991
 20
-1084.699999999993
 30
0.0
 11
5967.2499999999991
 21
-1092.699999999996
 31
0.0
1001
ACDBBLOCKREPETAG
1070
     1
1071
      162
1005
126EBE
  0
LINE
  5
126EBF
  8
OBJECT
 10
5946.0
 20
-1092.699999999996
 30
0.0
 11
5976.0
 21
-1092.699999999996
 31
0.0
1001
ACDBBLOCKREPETAG
1070
     1
1071
      163
1005
126EBF
  0
LINE
  5
126EC0
  8
OBJECT
 10
5953.0
 20
-1133.9999999999959
 30
0.0
 11
5953.0
 21
-1143.9999999999959
 31
0.0
1001
ACDBBLOCKREPETAG
1070
     1
1071
      164
1005
126EC0
  0
LINE
  5
126EC1
  8
OBJECT
 10
5969.0
 20
-1133.9999999999959
 30
0.0
 11
5969.0
 21
-1143.9999999999959
 31
0.0
1001
ACDBBLOCKREPETAG
1070
     1
1071
      165
1005
126EC1
  0
LINE
  5
126EC2
  8
OBJECT
 10
5953.0
 20
-1143.9999999999959
 30
0.0
 11
5969.0
 21
-1143.9999999999959
 31
0.0
1001
ACDBBLOCKREPETAG
1070
     1
1071
      166
1005
126EC2
  0
LINE
  5
126EC3
  8
OBJECT
 10
5966.0
 20
-1119.9999999999959
 30
0.0
 11
5966.0
 21
-1109.9999999999959
 31
0.0
1001
ACDBBLOCKREPETAG
1070
     1
1071
      167
1005
126EC3
  0
LINE
  5
126EC4
  8
OBJECT
 10
5956.0
 20
-1119.9999999999959
 30
0.0
 11
5956.0
 21
-1109.9999999999959
 31
0.0
1001
ACDBBLOCKREPETAG
1070
     1
1071
      168
1005
126EC4
  0
LINE
  5
126EC5
  8
OBJECT
 10
4090.0
 20
-1094.9999999999959
 30
0.0
 11
3924.0
 21
-1094.9999999999959
 31
0.0
1001
ACDBBLOCKREPETAG
1070
     1
1071
       12
1005
126EC5
  0
LINE
  5
126EC6
  8
OBJECT
 10
4066.0
 20
-1058.9999999999959
 30
0.0
 11
3934.0
 21
-1058.9999999999959
 31
0.0
1001
ACDBBLOCKREPETAG
1070
     1
1071
       13
1005
126EC6
  0
LINE
  5
126EC7
  8
OBJECT
 10
4090.0
 20
-1109.9999999999991
 30
0.0
 11
4090.0
 21
-1094.9999999999959
 31
0.0
1001
ACDBBLOCKREPETAG
1070
     1
1071
       14
1005
126EC7
  0
LINE
  5
126EC8
  8
OBJECT
 10
3924.0
 20
-1109.9999999999991
 30
0.0
 11
4090.0
 21
-1109.9999999999991
 31
0.0
1001
ACDBBLOCKREPETAG
1070
     1
1071
       15
1005
126EC8
  0
LINE
  5
126EC9
  8
OBJECT
 10
4067.499999999985
 20
-1109.9999999999991
 30
0.0
 11
4067.499999999985
 21
-1119.9999999999991
 31
0.0
1001
ACDBBLOCKREPETAG
1070
     1
1071
       16
1005
126EC9
  0
LINE
  5
126ECA
  8
OBJECT
 10
3924.0
 20
-1119.9999999999991
 30
0.0
 11
3924.0
 21
-1133.9999999999959
 31
0.0
1001
ACDBBLOCKREPETAG
1070
     1
1071
       17
1005
126ECA
  0
LINE
  5
126ECB
  8
OBJECT
 10
4090.0
 20
-1119.9999999999991
 30
0.0
 11
4090.0
 21
-1133.9999999999959
 31
0.0
1001
ACDBBLOCKREPETAG
1070
     1
1071
       18
1005
126ECB
  0
LINE
  5
126ECC
  8
OBJECT
 10
3924.0
 20
-1133.9999999999959
 30
0.0
 11
4090.0
 21
-1133.9999999999959
 31
0.0
1001
ACDBBLOCKREPETAG
1070
     1
1071
       19
1005
126ECC
  0
LINE
  5
126ECD
  8
OBJECT
 10
3924.0
 20
-1119.9999999999991
 30
0.0
 11
4090.0
 21
-1119.9999999999991
 31
0.0
1001
ACDBBLOCKREPETAG
1070
     1
1071
       20
1005
126ECD
  0
LINE
  5
126ECE
  8
OBJECT
 10
3932.499999999985
 20
-1109.9999999999991
 30
0.0
 11
3932.499999999985
 21
-1119.9999999999991
 31
0.0
1001
ACDBBLOCKREPETAG
1070
     1
1071
       21
1005
126ECE
  0
LINE
  5
126ECF
  8
OBJECT
 10
3924.0
 20
-1109.9999999999991
 30
0.0
 11
3924.0
 21
-1094.9999999999959
 31
0.0
1001
ACDBBLOCKREPETAG
1070
     1
1071
       22
1005
126ECF
  0
LINE
  5
126ED0
  8
HIDDEN
 10
3943.0
 20
-1069.9999999999991
 30
0.0
 11
4057.0
 21
-1069.9999999999991
 31
0.0
1001
ACDBBLOCKREPETAG
1070
     1
1071
       23
1005
126ED0
  0
LINE
  5
126ED1
  8
CENTER
 10
4000.0
 20
-799.99999999999955
 30
0.0
 11
4000.0
 21
-1148.9999999999959
 31
0.0
1001
ACDBBLOCKREPETAG
1070
     1
1071
       24
1005
126ED1
  0
LINE
  5
126ED2
  8
OBJECT
 10
3925.0
 20
-799.99999999999955
 30
0.0
 11
3925.0
 21
-881.99999999999591
 31
0.0
1001
ACDBBLOCKREPETAG
1070
     1
1071
       25
1005
126ED2
  0
LINE
  5
126ED3
  8
OBJECT
 10
4075.0
 20
-799.99999999999955
 30
0.0
 11
4075.0
 21
-881.99999999999216
 31
0.0
1001
ACDBBLOCKREPETAG
1070
     1
1071
       26
1005
126ED3
  0
LINE
  5
126ED4
  8
OBJECT
 10
3925.0
 20
-881.99999999999591
 30
0.0
 11
4075.0
 21
-881.99999999999216
 31
0.0
1001
ACDBBLOCKREPETAG
1070
     1
1071
       27
1005
126ED4
  0
LINE
  5
126ED5
  8
OBJECT
 10
4057.0
 20
-1058.9999999999959
 30
0.0
 11
4057.0
 21
-1009.999999999992
 31
0.0
1001
ACDBBLOCKREPETAG
1070
     1
1071
       28
1005
126ED5
  0
LINE
  5
126ED6
  8
OBJECT
 10
3943.0
 20
-1058.9999999999959
 30
0.0
 11
3943.0
 21
-1009.999999999992
 31
0.0
1001
ACDBBLOCKREPETAG
1070
     1
1071
       29
1005
126ED6
  0
LINE
  5
126ED7
  8
OBJECT
 10
4057.0
 20
-1009.999999999992
 30
0.0
 11
3943.0
 21
-1009.999999999992
 31
0.0
1001
ACDBBLOCKREPETAG
1070
     1
1071
       30
1005
126ED7
  0
LINE
  5
126ED8
  8
OBJECT
 10
3925.0
 20
-881.99999999999591
 30
0.0
 11
3943.0
 21
-1009.999999999992
 31
0.0
1001
ACDBBLOCKREPETAG
1070
     1
1071
       31
1005
126ED8
  0
LINE
  5
126ED9
  8
OBJECT
 10
4057.0
 20
-1009.999999999992
 30
0.0
 11
4075.0
 21
-881.99999999999216
 31
0.0
1001
ACDBBLOCKREPETAG
1070
     1
1071
       32
1005
126ED9
  0
LINE
  5
126EDA
  8
OBJECT
 10
3934.0
 20
-1058.9999999999959
 30
0.0
 11
3934.0
 21
-1094.9999999999959
 31
0.0
1001
ACDBBLOCKREPETAG
1070
     1
1071
       33
1005
126EDA
  0
LINE
  5
126EDB
  8
OBJECT
 10
4066.0
 20
-1058.9999999999959
 30
0.0
 11
4066.0
 21
-1094.9999999999959
 31
0.0
1001
ACDBBLOCKREPETAG
1070
     1
1071
       34
1005
126EDB
  0
LINE
  5
126EDC
  8
OBJECT
 10
4082.9999999999932
 20
-1119.9999999999959
 30
0.0
 11
4082.9999999999932
 21
-1109.9999999999959
 31
0.0
1001
ACDBBLOCKREPETAG
1070
     1
1071
       35
1005
126EDC
  0
LINE
  5
126EDD
  8
OBJECT
 10
4072.9999999999918
 20
-1119.9999999999959
 30
0.0
 11
4072.9999999999918
 21
-1109.9999999999959
 31
0.0
1001
ACDBBLOCKREPETAG
1070
     1
1071
       36
1005
126EDD
  0
LINE
  5
126EDE
  8
OBJECT
 10
4068.999999999985
 20
-1089.9999999999959
 30
0.0
 11
4068.999999999985
 21
-1094.9999999999959
 31
0.0
1001
ACDBBLOCKREPETAG
1070
     1
1071
       37
1005
126EDE
  0
LINE
  5
126EDF
  8
OBJECT
 10
4087.0
 20
-1089.9999999999959
 30
0.0
 11
4087.0
 21
-1094.9999999999959
 31
0.0
1001
ACDBBLOCKREPETAG
1070
     1
1071
       38
1005
126EDF
  0
LINE
  5
126EE0
  8
OBJECT
 10
4087.0
 20
-1089.9999999999959
 30
0.0
 11
4068.999999999985
 21
-1089.9999999999959
 31
0.0
1001
ACDBBLOCKREPETAG
1070
     1
1071
       39
1005
126EE0
  0
LINE
  5
126EE1
  8
OBJECT
 10
4073.0
 20
-1141.9999999999959
 30
0.0
 11
4073.0
 21
-1144.9999999999959
 31
0.0
1001
ACDBBLOCKREPETAG
1070
     1
1071
       40
1005
126EE1
  0
LINE
  5
126EE2
  8
OBJECT
 10
4073.0
 20
-1144.9999999999959
 30
0.0
 11
4083.0
 21
-1144.9999999999959
 31
0.0
1001
ACDBBLOCKREPETAG
1070
     1
1071
       41
1005
126EE2
  0
LINE
  5
126EE3
  8
OBJECT
 10
4083.0
 20
-1144.9999999999959
 30
0.0
 11
4083.0
 21
-1141.9999999999959
 31
0.0
1001
ACDBBLOCKREPETAG
1070
     1
1071
       43
1005
126EE3
  0
LINE
  5
126EE4
  8
OBJECT
 10
3968.5
 20
-1089.9999999999959
 30
0.0
 11
3951.9999999999932
 21
-1089.9999999999959
 31
0.0
1001
ACDBBLOCKREPETAG
1070
     1
1071
       48
1005
126EE4
  0
LINE
  5
126EE5
  8
OBJECT
 10
3976.0
 20
-1094.9999999999959
 30
0.0
 11
3976.0
 21
-1092.9999999999959
 31
0.0
1001
ACDBBLOCKREPETAG
1070
     1
1071
       49
1005
126EE5
  0
LINE
  5
126EE6
  8
OBJECT
 10
3966.0
 20
-1119.9999999999959
 30
0.0
 11
3966.0
 21
-1109.9999999999959
 31
0.0
1001
ACDBBLOCKREPETAG
1070
     1
1071
       50
1005
126EE6
  0
LINE
  5
126EE7
  8
OBJECT
 10
3956.0
 20
-1119.9999999999959
 30
0.0
 11
3956.0
 21
-1109.9999999999959
 31
0.0
1001
ACDBBLOCKREPETAG
1070
     1
1071
       51
1005
126EE7
  0
LINE
  5
126EE8
  8
OBJECT
 10
3951.9999999999932
 20
-1089.9999999999959
 30
0.0
 11
3951.9999999999932
 21
-1094.9999999999959
 31
0.0
1001
ACDBBLOCKREPETAG
1070
     1
1071
       52
1005
126EE8
  0
LINE
  5
126EE9
  8
OBJECT
 10
3956.0
 20
-1141.9999999999959
 30
0.0
 11
3956.0
 21
-1144.9999999999959
 31
0.0
1001
ACDBBLOCKREPETAG
1070
     1
1071
       53
1005
126EE9
  0
LINE
  5
126EEA
  8
OBJECT
 10
3956.0
 20
-1144.9999999999959
 30
0.0
 11
3966.0
 21
-1144.9999999999959
 31
0.0
1001
ACDBBLOCKREPETAG
1070
     1
1071
       54
1005
126EEA
  0
LINE
  5
126EEB
  8
OBJECT
 10
3951.185045423772
 20
-1141.9999999999959
 30
0.0
 11
3970.8149545762212
 21
-1141.9999999999959
 31
0.0
1001
ACDBBLOCKREPETAG
1070
     1
1071
       55
1005
126EEB
  0
LINE
  5
126EEC
  8
OBJECT
 10
3966.0
 20
-1144.9999999999959
 30
0.0
 11
3966.0
 21
-1141.9999999999959
 31
0.0
1001
ACDBBLOCKREPETAG
1070
     1
1071
       56
1005
126EEC
  0
LINE
  5
126EED
  8
OBJECT
 10
3976.0
 20
-1092.9999999999959
 30
0.0
 11
3968.5
 21
-1089.9999999999959
 31
0.0
1001
ACDBBLOCKREPETAG
1070
     1
1071
       57
1005
126EED
  0
LINE
  5
126EEE
  8
OBJECT
 10
3951.185045423777
 20
-1133.9999999999959
 30
0.0
 11
3951.185045423777
 21
-1141.9999999999959
 31
0.0
1001
ACDBBLOCKREPETAG
1070
     1
1071
      630
1005
126EEE
  0
LINE
  5
126EEF
  8
OBJECT
 10
3956.0925227118892
 20
-1133.9999999999959
 30
0.0
 11
3956.0925227118892
 21
-1141.9999999999959
 31
0.0
1001
ACDBBLOCKREPETAG
1070
     1
1071
      631
1005
126EEF
  0
LINE
  5
126EF0
  8
OBJECT
 10
3965.9074772881122
 20
-1133.9999999999959
 30
0.0
 11
3965.9074772881122
 21
-1141.9999999999959
 31
0.0
1001
ACDBBLOCKREPETAG
1070
     1
1071
      632
1005
126EF0
  0
LINE
  5
126EF1
  8
OBJECT
 10
3970.814954576223
 20
-1133.9999999999959
 30
0.0
 11
3970.814954576223
 21
-1141.9999999999959
 31
0.0
1001
ACDBBLOCKREPETAG
1070
     1
1071
      633
1005
126EF1
  0
LINE
  5
126EF2
  8
OBJECT
 10
4068.185045423772
 20
-1141.9999999999959
 30
0.0
 11
4087.8149545762199
 21
-1141.9999999999959
 31
0.0
1001
ACDBBLOCKREPETAG
1070
     1
1071
      634
1005
126EF2
  0
LINE
  5
126EF3
  8
OBJECT
 10
4068.185045423777
 20
-1133.9999999999959
 30
0.0
 11
4068.185045423777
 21
-1141.9999999999959
 31
0.0
1001
ACDBBLOCKREPETAG
1070
     1
1071
      635
1005
126EF3
  0
LINE
  5
126EF4
  8
OBJECT
 10
4073.0925227118869
 20
-1133.9999999999959
 30
0.0
 11
4073.0925227118869
 21
-1141.9999999999959
 31
0.0
1001
ACDBBLOCKREPETAG
1070
     1
1071
      636
1005
126EF4
  0
LINE
  5
126EF5
  8
OBJECT
 10
4082.9074772881122
 20
-1133.9999999999959
 30
0.0
 11
4082.9074772881122
 21
-1141.9999999999959
 31
0.0
1001
ACDBBLOCKREPETAG
1070
     1
1071
      637
1005
126EF5
  0
LINE
  5
126EF6
  8
OBJECT
 10
4087.814954576223
 20
-1133.9999999999959
 30
0.0
 11
4087.814954576223
 21
-1141.9999999999959
 31
0.0
1001
ACDBBLOCKREPETAG
1070
     1
1071
      638
1005
126EF6
  0
LINE
  5
126EF7
  8
OBJECT
 10
1943.0
 20
-1109.9999999999959
 30
0.0
 11
2057.0
 21
-1109.9999999999959
 31
0.0
1001
ACDBBLOCKREPETAG
1070
     1
1071
        0
1005
126EF7
  0
LINE
  5
126EF8
  8
OBJECT
 10
1943.0
 20
-1109.9999999999959
 30
0.0
 11
1943.0
 21
-1009.999999999996
 31
0.0
1001
ACDBBLOCKREPETAG
1070
     1
1071
        1
1005
126EF8
  0
LINE
  5
126EF9
  8
OBJECT
 10
2057.0
 20
-1109.9999999999959
 30
0.0
 11
2057.0
 21
-1009.999999999996
 31
0.0
1001
ACDBBLOCKREPETAG
1070
     1
1071
        2
1005
126EF9
  0
LINE
  5
126EFA
  8
OBJECT
 10
1943.0
 20
-1009.999999999996
 30
0.0
 11
2057.0
 21
-1009.999999999996
 31
0.0
1001
ACDBBLOCKREPETAG
1070
     1
1071
        3
1005
126EFA
  0
LINE
  5
126EFB
  8
HIDDEN
 10
1950.0
 20
-1009.999999999996
 30
0.0
 11
1950.0
 21
-1109.9999999999959
 31
0.0
1001
ACDBBLOCKREPETAG
1070
     1
1071
        4
1005
126EFB
  0
LINE
  5
126EFC
  8
HIDDEN
 10
2050.0
 20
-1009.999999999996
 30
0.0
 11
2050.0
 21
-1109.9999999999959
 31
0.0
1001
ACDBBLOCKREPETAG
1070
     1
1071
        5
1005
126EFC
  0
LINE
  5
126EFD
  8
CENTER
 10
2000.0
 20
-799.99999999999955
 30
0.0
 11
2000.0
 21
-1124.9999999999959
 31
0.0
1001
ACDBBLOCKREPETAG
1070
     1
1071
        6
1005
126EFD
  0
LINE
  5
126EFE
  8
OBJECT
 10
1925.0
 20
-799.99999999999955
 30
0.0
 11
1925.0
 21
-881.99999999999591
 31
0.0
1001
ACDBBLOCKREPETAG
1070
     1
1071
        7
1005
126EFE
  0
LINE
  5
126EFF
  8
OBJECT
 10
2075.0
 20
-799.99999999999955
 30
0.0
 11
2075.0
 21
-881.99999999999591
 31
0.0
1001
ACDBBLOCKREPETAG
1070
     1
1071
        8
1005
126EFF
  0
LINE
  5
126F00
  8
OBJECT
 10
1925.0
 20
-881.99999999999591
 30
0.0
 11
2075.0
 21
-881.99999999999591
 31
0.0
1001
ACDBBLOCKREPETAG
1070
     1
1071
        9
1005
126F00
  0
LINE
  5
126F01
  8
OBJECT
 10
1925.0
 20
-881.99999999999591
 30
0.0
 11
1943.0
 21
-1009.999999999996
 31
0.0
1001
ACDBBLOCKREPETAG
1070
     1
1071
       10
1005
126F01
  0
LINE
  5
126F02
  8
OBJECT
 10
2057.0
 20
-1009.999999999996
 30
0.0
 11
2075.0
 21
-881.99999999999591
 31
0.0
1001
ACDBBLOCKREPETAG
1070
     1
1071
       11
1005
126F02
  0
LINE
  5
126F03
  8
OBJECT
 10
2202.9999999999859
 20
-483.0000000000008
 30
0.0
 11
2209.9999999999859
 21
-483.0000000000008
 31
0.0
1001
ACDBBLOCKREPETAG
1070
     1
1071
       83
1005
126F03
  0
LINE
  5
126F04
  8
OBJECT
 10
2209.9999999999859
 20
-483.0000000000008
 30
0.0
 11
2209.9999999999859
 21
-607.00000000000091
 31
0.0
1001
ACDBBLOCKREPETAG
1070
     1
1071
       84
1005
126F04
  0
LINE
  5
126F05
  8
OBJECT
 10
2085.9999999999859
 20
-553.3502637757274
 30
0.0
 11
2085.9999999999859
 21
-655.00000000000091
 31
0.0
1001
ACDBBLOCKREPETAG
1070
     1
1071
       85
1005
126F05
  0
LINE
  5
126F06
  8
OBJECT
 10
2209.9999999999859
 20
-607.00000000000091
 30
0.0
 11
2202.9999999999859
 21
-607.00000000000091
 31
0.0
1001
ACDBBLOCKREPETAG
1070
     1
1071
       86
1005
126F06
  0
LINE
  5
126F07
  8
OBJECT
 10
2202.9999999999859
 20
-607.00000000000091
 30
0.0
 11
2202.9999999999859
 21
-483.0000000000008
 31
0.0
1001
ACDBBLOCKREPETAG
1070
     1
1071
       87
1005
126F07
  0
LINE
  5
126F08
  8
CENTER
 10
2134.9999999999859
 20
-545.00000000000091
 30
0.0
 11
2224.999999999985
 21
-545.00000000000091
 31
0.0
1001
ACDBBLOCKREPETAG
1070
     1
1071
       88
1005
126F08
  0
LINE
  5
126F09
  8
OBJECT
 10
2079.9999999999818
 20
-658.0
 30
0.0
 11
2082.999999999985
 21
-658.0000000000008
 31
0.0
1001
ACDBBLOCKREPETAG
1070
     1
1071
       89
1005
126F09
  0
ARC
  5
126F0A
  8
OBJECT
 10
2082.999999999985
 20
-655.00000000000091
 30
0.0
 40
3.0
 50
270.0
 51
0.0
1001
ACDBBLOCKREPETAG
1070
     1
1071
       90
1005
126F0A
  0
LINE
  5
126F0B
  8
OBJECT
 10
2202.9999999999859
 20
-486.00000000000091
 30
0.0
 11
2166.9999999999859
 21
-486.00000000000091
 31
0.0
1001
ACDBBLOCKREPETAG
1070
     1
1071
       91
1005
126F0B
  0
LINE
  5
126F0C
  8
OBJECT
 10
2166.9999999999859
 20
-486.00000000000091
 30
0.0
 11
2166.9999999999859
 21
-604.0000000000008
 31
0.0
1001
ACDBBLOCKREPETAG
1070
     1
1071
       92
1005
126F0C
  0
LINE
  5
126F0D
  8
OBJECT
 10
2162.9999999999859
 20
-490.50000000000091
 30
0.0
 11
2162.9999999999859
 21
-599.5000000000008
 31
0.0
1001
ACDBBLOCKREPETAG
1070
     1
1071
       93
1005
126F0D
  0
LINE
  5
126F0E
  8
OBJECT
 10
2162.9999999999859
 20
-490.50000000000091
 30
0.0
 11
2149.9999999999859
 21
-490.50000000000091
 31
0.0
1001
ACDBBLOCKREPETAG
1070
     1
1071
       94
1005
126F0E
  0
LINE
  5
126F0F
  8
OBJECT
 10
2166.9999999999859
 20
-604.0000000000008
 30
0.0
 11
2202.9999999999859
 21
-604.0000000000008
 31
0.0
1001
ACDBBLOCKREPETAG
1070
     1
1071
       95
1005
126F0F
  0
LINE
  5
126F10
  8
OBJECT
 10
2166.9999999999859
 20
-486.00000000000091
 30
0.0
 11
2162.9999999999859
 21
-490.50000000000091
 31
0.0
1001
ACDBBLOCKREPETAG
1070
     1
1071
       96
1005
126F10
  0
LINE
  5
126F11
  8
OBJECT
 10
2149.9999999999859
 20
-490.50000000000091
 30
0.0
 11
2149.9999999999859
 21
-575.74491827928784
 31
0.0
1001
ACDBBLOCKREPETAG
1070
     1
1071
       97
1005
126F11
  0
ARC
  5
126F12
  8
OBJECT
 10
2152.7999999999838
 20
-585.00000000000091
 30
0.0
 40
85.0
 50
91.887731891831109
 51
143.1301023540934
1001
ACDBBLOCKREPETAG
1070
     1
1071
       98
1005
126F12
  0
LINE
  5
126F13
  8
HIDDEN
 10
2157.9999999999859
 20
-500.5000000000008
 30
0.0
 11
2157.9999999999859
 21
-589.50000000000091
 31
0.0
1001
ACDBBLOCKREPETAG
1070
     1
1071
      100
1005
126F13
  0
LINE
  5
126F14
  8
OBJECT
 10
2085.9999999999859
 20
-651.07945073181781
 30
0.0
 11
2156.6313199210308
 21
-599.5000000000008
 31
0.0
1001
ACDBBLOCKREPETAG
1070
     1
1071
      101
1005
126F14
  0
LINE
  5
126F15
  8
OBJECT
 10
2079.9999999999818
 20
-534.0
 30
0.0
 11
2084.7999999999852
 21
-534.0
 31
0.0
1001
ACDBBLOCKREPETAG
1070
     1
1071
      102
1005
126F15
  0
LINE
  5
126F16
  8
OBJECT
 10
2085.9999999999859
 20
-553.35026377573013
 30
0.0
 11
2084.7999999999852
 21
-534.0
 31
0.0
1001
ACDBBLOCKREPETAG
1070
     1
1071
      103
1005
126F16
  0
LINE
  5
126F17
  8
OBJECT
 10
2162.9999999999859
 20
-599.5000000000008
 30
0.0
 11
2156.6313199210308
 21
-599.5000000000008
 31
0.0
1001
ACDBBLOCKREPETAG
1070
     1
1071
      104
1005
126F17
  0
LINE
  5
126F18
  8
OBJECT
 10
2166.9999999999859
 20
-604.0000000000008
 30
0.0
 11
2162.9999999999859
 21
-599.5000000000008
 31
0.0
1001
ACDBBLOCKREPETAG
1070
     1
1071
      105
1005
126F18
  0
LINE
  5
126F19
  8
OBJECT
 10
2202.9999999999859
 20
-137.99999999999909
 30
0.0
 11
2209.9999999999859
 21
-137.99999999999909
 31
0.0
1001
ACDBBLOCKREPETAG
1070
     1
1071
       85
1005
126F19
  0
LINE
  5
126F1A
  8
OBJECT
 10
2209.9999999999859
 20
-137.99999999999909
 30
0.0
 11
2209.9999999999859
 21
-261.99999999999909
 31
0.0
1001
ACDBBLOCKREPETAG
1070
     1
1071
       86
1005
126F1A
  0
LINE
  5
126F1B
  8
OBJECT
 10
2209.9999999999859
 20
-261.99999999999909
 30
0.0
 11
2202.9999999999859
 21
-261.99999999999909
 31
0.0
1001
ACDBBLOCKREPETAG
1070
     1
1071
       87
1005
126F1B
  0
LINE
  5
126F1C
  8
OBJECT
 10
2202.9999999999859
 20
-261.99999999999909
 30
0.0
 11
2202.9999999999859
 21
-137.99999999999909
 31
0.0
1001
ACDBBLOCKREPETAG
1070
     1
1071
       88
1005
126F1C
  0
LINE
  5
126F1D
  8
CENTER
 10
2224.999999999985
 20
-199.99999999999909
 30
0.0
 11
2080.0
 21
-199.99999999999909
 31
0.0
1001
ACDBBLOCKREPETAG
1070
     1
1071
       89
1005
126F1D
  0
LINE
  5
126F1E
  8
OBJECT
 10
2149.9999749641861
 20
-245.0000000000027
 30
0.0
 11
2086.0
 21
-244.99999999999909
 31
0.0
1001
ACDBBLOCKREPETAG
1070
     1
1071
       90
1005
126F1E
  0
LINE
  5
126F1F
  8
OBJECT
 10
2149.9999749641861
 20
-154.99999999999909
 30
0.0
 11
2086.0
 21
-154.99999999999909
 31
0.0
1001
ACDBBLOCKREPETAG
1070
     1
1071
       91
1005
126F1F
  0
LINE
  5
126F20
  8
OBJECT
 10
2202.9999999999859
 20
-140.99999999999909
 30
0.0
 11
2166.9999999999859
 21
-140.99999999999909
 31
0.0
1001
ACDBBLOCKREPETAG
1070
     1
1071
       92
1005
126F20
  0
LINE
  5
126F21
  8
OBJECT
 10
2166.9999999999859
 20
-140.99999999999909
 30
0.0
 11
2166.9999999999859
 21
-258.99999999999909
 31
0.0
1001
ACDBBLOCKREPETAG
1070
     1
1071
       93
1005
126F21
  0
LINE
  5
126F22
  8
OBJECT
 10
2166.9999999999859
 20
-258.99999999999909
 30
0.0
 11
2202.9999999999859
 21
-258.99999999999909
 31
0.0
1001
ACDBBLOCKREPETAG
1070
     1
1071
       94
1005
126F22
  0
LINE
  5
126F23
  8
OBJECT
 10
2162.9999999999859
 20
-145.49999999999909
 30
0.0
 11
2149.9999999999859
 21
-145.49999999999909
 31
0.0
1001
ACDBBLOCKREPETAG
1070
     1
1071
       95
1005
126F23
  0
LINE
  5
126F24
  8
OBJECT
 10
2149.9999999999859
 20
-254.49999999999909
 30
0.0
 11
2162.9999999999859
 21
-254.49999999999909
 31
0.0
1001
ACDBBLOCKREPETAG
1070
     1
1071
       96
1005
126F24
  0
LINE
  5
126F25
  8
OBJECT
 10
2162.9999999999859
 20
-254.49999999999909
 30
0.0
 11
2162.9999999999859
 21
-145.49999999999909
 31
0.0
1001
ACDBBLOCKREPETAG
1070
     1
1071
       97
1005
126F25
  0
LINE
  5
126F26
  8
OBJECT
 10
2166.9999999999859
 20
-140.99999999999909
 30
0.0
 11
2162.9999999999859
 21
-145.49999999999909
 31
0.0
1001
ACDBBLOCKREPETAG
1070
     1
1071
       98
1005
126F26
  0
LINE
  5
126F27
  8
OBJECT
 10
2166.9999999999859
 20
-258.99999999999909
 30
0.0
 11
2162.9999999999859
 21
-254.49999999999909
 31
0.0
1001
ACDBBLOCKREPETAG
1070
     1
1071
       99
1005
126F27
  0
LINE
  5
126F28
  8
OBJECT
 10
2083.0
 20
-137.99999999999909
 30
0.0
 11
2080.0
 21
-137.99999999999909
 31
0.0
1001
ACDBBLOCKREPETAG
1070
     1
1071
      100
1005
126F28
  0
ARC
  5
126F29
  8
OBJECT
 10
2083.0
 20
-140.99999999999909
 30
0.0
 40
3.0
 50
0.0
 51
90.0
1001
ACDBBLOCKREPETAG
1070
     1
1071
      101
1005
126F29
  0
LINE
  5
126F2A
  8
OBJECT
 10
2080.0
 20
-261.99999999999909
 30
0.0
 11
2083.0
 21
-261.99999999999909
 31
0.0
1001
ACDBBLOCKREPETAG
1070
     1
1071
      102
1005
126F2A
  0
ARC
  5
126F2B
  8
OBJECT
 10
2083.0
 20
-258.99999999999909
 30
0.0
 40
3.0
 50
270.0
 51
0.0
1001
ACDBBLOCKREPETAG
1070
     1
1071
      103
1005
126F2B
  0
LINE
  5
126F2C
  8
OBJECT
 10
2086.0
 20
-258.99999999999909
 30
0.0
 11
2086.0
 21
-210.3227903203578
 31
0.0
1001
ACDBBLOCKREPETAG
1070
     1
1071
      104
1005
126F2C
  0
LINE
  5
126F2D
  8
OBJECT
 10
2086.0
 20
-189.6772096796403
 30
0.0
 11
2086.0
 21
-140.99999999999909
 31
0.0
1001
ACDBBLOCKREPETAG
1070
     1
1071
      105
1005
126F2D
  0
LINE
  5
126F2E
  8
HIDDEN
 10
2157.9999999999859
 20
-155.49999999999909
 30
0.0
 11
2157.9999999999859
 21
-244.49999999999909
 31
0.0
1001
ACDBBLOCKREPETAG
1070
     1
1071
      106
1005
126F2E
  0
LINE
  5
126F2F
  8
OBJECT
 10
2149.9999749641861
 20
-254.4999509238105
 30
0.0
 11
2149.9999749641861
 21
-145.4999509238105
 31
0.0
1001
ACDBBLOCKREPETAG
1070
     1
1071
      108
1005
126F2F
  0
ARC
  5
126F30
  8
OBJECT
 10
2129.8000000000252
 20
-199.99999999999909
 30
0.0
 40
45.000000000000547
 50
90.0
 51
270.0
1001
ACDBBLOCKREPETAG
1070
     1
1071
      109
1005
126F30
  0
TEXT
  5
126F31
  8
SLIM
 10
0.0
 20
670.0
 30
0.0
 40
100.0
  1
4HF-Z6-P110-S
 41
0.75
  0
TEXT
  5
126F32
  8
SLIM
 10
0.0
 20
520.0
 30
0.0
 40
100.0
  1
4HF-Z6-P110-W
 41
0.75
  0
LINE
  5
126F33
  8
CENTER
 10
12091.0
 20
-1383.9999999999959
 30
0.0
 11
11895.0
 21
-1383.9999999999959
 31
0.0
1001
ACDBBLOCKREPETAG
1070
     1
1071
       10
1005
126F33
  0
LINE
  5
126F34
  8
CENTER
 10
12000.0
 20
-1475.274664429212
 30
0.0
 11
12000.0
 21
-1292.725335570779
 31
0.0
1001
ACDBBLOCKREPETAG
1070
     1
1071
       11
1005
126F34
  0
CIRCLE
  5
126F35
  8
OBJECT
 10
12000.0
 20
-1383.9999999999959
 30
0.0
 40
50.0
1001
ACDBBLOCKREPETAG
1070
     1
1071
       12
1005
126F35
  0
CIRCLE
  5
126F36
  8
OBJECT
 10
12000.0
 20
-1383.9999999999959
 30
0.0
 40
60.0
1001
ACDBBLOCKREPETAG
1070
     1
1071
       13
1005
126F36
  0
CIRCLE
  5
126F37
  8
OBJECT
 10
12000.0
 20
-1383.9999999999959
 30
0.0
 40
68.0
1001
ACDBBLOCKREPETAG
1070
     1
1071
       14
1005
126F37
  0
ARC
  5
126F38
  8
OBJECT
 10
11922.5
 20
-1383.9999999999959
 30
0.0
 40
12.0
 50
92.105426272216135
 51
267.89457372778378
1001
ACDBBLOCKREPETAG
1070
     1
1071
       15
1005
126F38
  0
ARC
  5
126F39
  8
OBJECT
 10
11921.508064516131
 20
-1410.981772810467
 30
0.0
 40
15.0
 50
18.97051877965265
 51
87.894573727783879
1001
ACDBBLOCKREPETAG
1070
     1
1071
       16
1005
126F39
  0
ARC
  5
126F3A
  8
OBJECT
 10
11921.508064516131
 20
-1357.018227189528
 30
0.0
 40
15.0
 50
272.10542627221611
 51
341.02948122034741
1001
ACDBBLOCKREPETAG
1070
     1
1071
       17
1005
126F3A
  0
CIRCLE
  5
126F3B
  8
SLIM
 10
11922.0
 20
-1383.9999999999959
 30
0.0
 40
8.0
1001
ACDBBLOCKREPETAG
1070
     1
1071
       18
1005
126F3B
  0
ARC
  5
126F3D
  8
OBJECT
 10
12038.75
 20
-1451.116968793292
 30
0.0
 40
12.0
 50
212.10542627213019
 51
27.89457372768311
1001
ACDBBLOCKREPETAG
1070
     1
1071
       20
1005
126F3D
  0
ARC
  5
126F3E
  8
OBJECT
 10
12062.612868434941
 20
-1438.485123716003
 30
0.0
 40
15.0
 50
138.97051877944759
 51
207.89457372768311
1001
ACDBBLOCKREPETAG
1070
     1
1071
       21
1005
126F3E
  0
ARC
  5
126F3F
  8
OBJECT
 10
12015.879067048931
 20
-1465.466896526475
 30
0.0
 40
15.0
 50
32.105426272130188
 51
101.0294812204407
1001
ACDBBLOCKREPETAG
1070
     1
1071
       22
1005
126F3F
  0
CIRCLE
  5
126F40
  8
SLIM
 10
12039.0
 20
-1451.5499814951829
 30
0.0
 40
7.9999999999999991
1001
ACDBBLOCKREPETAG
1070
     1
1071
       23
1005
126F40
  0
ARC
  5
126F42
  8
OBJECT
 10
12038.75
 20
-1316.883031206703
 30
0.0
 40
12.0
 50
332.10542627231689
 51
147.89457372786981
1001
ACDBBLOCKREPETAG
1070
     1
1071
       25
1005
126F42
  0
ARC
  5
126F43
  8
OBJECT
 10
12015.879067048931
 20
-1302.53310347352
 30
0.0
 40
15.0
 50
258.97051877955931
 51
327.89457372786978
1001
ACDBBLOCKREPETAG
1070
     1
1071
       26
1005
126F43
  0
ARC
  5
126F44
  8
OBJECT
 10
12062.612868434941
 20
-1329.514876283989
 30
0.0
 40
15.0
 50
152.10542627231689
 51
221.02948122055241
1001
ACDBBLOCKREPETAG
1070
     1
1071
       27
1005
126F44
  0
CIRCLE
  5
126F45
  8
SLIM
 10
12039.0
 20
-1316.4500185048089
 30
0.0
 40
8.0
1001
ACDBBLOCKREPETAG
1070
     1
1071
       28
1005
126F45
  0
ARC
  5
126F47
  8
OBJECT
 10
12000.0
 20
-1383.9999999999959
 30
0.0
 40
76.0
 50
214.8638379541718
 51
265.13616204573287
1001
ACDBBLOCKREPETAG
1070
     1
1071
       42
1005
126F47
  0
ARC
  5
126F48
  8
OBJECT
 10
12000.0
 20
-1383.9999999999959
 30
0.0
 40
76.0
 50
334.86383795430942
 51
25.136162045690561
1001
ACDBBLOCKREPETAG
1070
     1
1071
       43
1005
126F48
  0
ARC
  5
126F49
  8
OBJECT
 10
12000.0
 20
-1383.9999999999959
 30
0.0
 40
76.0
 50
94.863837954267041
 51
145.13616204582809
1001
ACDBBLOCKREPETAG
1070
     1
1071
       44
1005
126F49
  0
ARC
  5
126F4A
  8
OBJECT
 10
11922.0
 20
-1383.9999999999959
 30
0.0
 40
12.0
 50
145.13616204582809
 51
214.8638379541718
1001
ACDBBLOCKREPETAG
1070
     1
1071
       45
1005
126F4A
  0
LINE
  5
126F4B
  8
OBJECT
 10
11912.153846153829
 20
-1390.8595374798581
 30
0.0
 11
11937.641025640951
 21
-1427.443737372457
 31
0.0
1001
ACDBBLOCKREPETAG
1070
     1
1071
       46
1005
126F4B
  0
LINE
  5
126F4C
  8
OBJECT
 10
11912.153846153829
 20
-1377.1404625201351
 30
0.0
 11
11937.641025640951
 21
-1340.556262627533
 31
0.0
1001
ACDBBLOCKREPETAG
1070
     1
1071
       47
1005
126F4C
  0
ARC
  5
126F4D
  8
OBJECT
 10
12039.0
 20
-1451.5499814951811
 30
0.0
 40
12.0
 50
265.13616204594291
 51
334.86383795410012
1001
ACDBBLOCKREPETAG
1070
     1
1071
       48
1005
126F4D
  0
LINE
  5
126F4E
  8
OBJECT
 10
12049.863610638849
 20
-1456.6472321156009
 30
0.0
 11
12068.802867379411
 21
-1416.2825872626449
 31
0.0
1001
ACDBBLOCKREPETAG
1070
     1
1071
       49
1005
126F4E
  0
LINE
  5
126F4F
  8
OBJECT
 10
12037.98254320731
 20
-1463.5067695954649
 30
0.0
 11
11993.556106979629
 21
-1459.726324635106
 31
0.0
1001
ACDBBLOCKREPETAG
1070
     1
1071
       50
1005
126F4F
  0
ARC
  5
126F50
  8
OBJECT
 10
12039.0
 20
-1316.45001850481
 30
0.0
 40
12.0
 50
25.13616204589994
 51
94.863837954057146
1001
ACDBBLOCKREPETAG
1070
     1
1071
       51
1005
126F50
  0
LINE
  5
126F51
  8
OBJECT
 10
12037.98254320731
 20
-1304.493230404528
 30
0.0
 11
11993.556106979629
 21
-1308.2736753648851
 31
0.0
1001
ACDBBLOCKREPETAG
1070
     1
1071
       52
1005
126F51
  0
LINE
  5
126F52
  8
OBJECT
 10
12049.863610638849
 20
-1311.352767884387
 30
0.0
 11
12068.80286737942
 21
-1351.7174127373489
 31
0.0
1001
ACDBBLOCKREPETAG
1070
     1
1071
       53
1005
126F52
  0
LINE
  5
126F53
  8
CENTER
 10
9909.0
 20
-1383.9999999999959
 30
0.0
 11
10105.0
 21
-1383.9999999999959
 31
0.0
1001
ACDBBLOCKREPETAG
1070
     1
1071
        0
1005
126F53
  0
LINE
  5
126F54
  8
CENTER
 10
10000.0
 20
-1475.274664429212
 30
0.0
 11
10000.0
 21
-1292.725335570779
 31
0.0
1001
ACDBBLOCKREPETAG
1070
     1
1071
        1
1005
126F54
  0
CIRCLE
  5
126F55
  8
OBJECT
 10
10000.0
 20
-1383.9999999999959
 30
0.0
 40
50.0
1001
ACDBBLOCKREPETAG
1070
     1
1071
        2
1005
126F55
  0
CIRCLE
  5
126F56
  8
OBJECT
 10
10000.0
 20
-1383.9999999999959
 30
0.0
 40
62.0
1001
ACDBBLOCKREPETAG
1070
     1
1071
        3
1005
126F56
  0
CIRCLE
  5
126F57
  8
SLIM
 10
9922.0
 20
-1383.9999999999959
 30
0.0
 40
5.0
1001
ACDBBLOCKREPETAG
1070
     1
1071
        4
1005
126F57
  0
CIRCLE
  5
126F59
  8
SLIM
 10
10039.0
 20
-1451.5499814951829
 30
0.0
 40
4.9999999999999991
1001
ACDBBLOCKREPETAG
1070
     1
1071
        6
1005
126F59
  0
CIRCLE
  5
126F5B
  8
SLIM
 10
10039.0
 20
-1316.4500185048089
 30
0.0
 40
5.0
1001
ACDBBLOCKREPETAG
1070
     1
1071
        8
1005
126F5B
  0
ARC
  5
126F5D
  8
OBJECT
 10
10000.0
 20
-1383.9999999999959
 30
0.0
 40
76.0
 50
214.8638379541718
 51
265.13616204573287
1001
ACDBBLOCKREPETAG
1070
     1
1071
       30
1005
126F5D
  0
ARC
  5
126F5E
  8
OBJECT
 10
10000.0
 20
-1383.9999999999959
 30
0.0
 40
76.0
 50
334.86383795430942
 51
25.136162045690561
1001
ACDBBLOCKREPETAG
1070
     1
1071
       31
1005
126F5E
  0
ARC
  5
126F5F
  8
OBJECT
 10
10000.0
 20
-1383.9999999999959
 30
0.0
 40
76.0
 50
94.863837954267041
 51
145.13616204582809
1001
ACDBBLOCKREPETAG
1070
     1
1071
       32
1005
126F5F
  0
ARC
  5
126F60
  8
OBJECT
 10
9922.0
 20
-1383.9999999999959
 30
0.0
 40
12.0
 50
145.13616204582809
 51
214.8638379541718
1001
ACDBBLOCKREPETAG
1070
     1
1071
       33
1005
126F60
  0
LINE
  5
126F61
  8
OBJECT
 10
9912.1538461538348
 20
-1390.8595374798581
 30
0.0
 11
9937.6410256409508
 21
-1427.443737372457
 31
0.0
1001
ACDBBLOCKREPETAG
1070
     1
1071
       34
1005
126F61
  0
LINE
  5
126F62
  8
OBJECT
 10
9912.1538461538294
 20
-1377.1404625201351
 30
0.0
 11
9937.6410256409508
 21
-1340.556262627533
 31
0.0
1001
ACDBBLOCKREPETAG
1070
     1
1071
       35
1005
126F62
  0
ARC
  5
126F63
  8
OBJECT
 10
10039.0
 20
-1451.5499814951811
 30
0.0
 40
12.0
 50
265.13616204594291
 51
334.86383795410012
1001
ACDBBLOCKREPETAG
1070
     1
1071
       36
1005
126F63
  0
LINE
  5
126F64
  8
OBJECT
 10
10049.863610638849
 20
-1456.6472321156009
 30
0.0
 11
10068.802867379411
 21
-1416.2825872626449
 31
0.0
1001
ACDBBLOCKREPETAG
1070
     1
1071
       37
1005
126F64
  0
LINE
  5
126F65
  8
OBJECT
 10
10037.98254320731
 20
-1463.5067695954649
 30
0.0
 11
9993.5561069796313
 21
-1459.726324635106
 31
0.0
1001
ACDBBLOCKREPETAG
1070
     1
1071
       38
1005
126F65
  0
ARC
  5
126F66
  8
OBJECT
 10
10039.0
 20
-1316.45001850481
 30
0.0
 40
12.0
 50
25.13616204589994
 51
94.863837954057146
1001
ACDBBLOCKREPETAG
1070
     1
1071
       39
1005
126F66
  0
LINE
  5
126F67
  8
OBJECT
 10
10037.98254320731
 20
-1304.493230404528
 30
0.0
 11
9993.5561069796349
 21
-1308.2736753648851
 31
0.0
1001
ACDBBLOCKREPETAG
1070
     1
1071
       40
1005
126F67
  0
LINE
  5
126F68
  8
OBJECT
 10
10049.863610638849
 20
-1311.352767884387
 30
0.0
 11
10068.80286737942
 21
-1351.7174127373489
 31
0.0
1001
ACDBBLOCKREPETAG
1070
     1
1071
       41
1005
126F68
  0
LINE
  5
126F69
  8
CENTER
 10
6091.0
 20
-1424.9999999999991
 30
0.0
 11
5895.0
 21
-1424.9999999999991
 31
0.0
1001
ACDBBLOCKREPETAG
1070
     1
1071
       10
1005
126F69
  0
LINE
  5
126F6A
  8
CENTER
 10
6000.0
 20
-1516.2746644292149
 30
0.0
 11
6000.0
 21
-1333.7253355707819
 31
0.0
1001
ACDBBLOCKREPETAG
1070
     1
1071
       11
1005
126F6A
  0
CIRCLE
  5
126F6B
  8
OBJECT
 10
6000.0
 20
-1424.9999999999991
 30
0.0
 40
50.0
1001
ACDBBLOCKREPETAG
1070
     1
1071
       12
1005
126F6B
  0
CIRCLE
  5
126F6C
  8
OBJECT
 10
6000.0
 20
-1424.9999999999991
 30
0.0
 40
60.0
1001
ACDBBLOCKREPETAG
1070
     1
1071
       13
1005
126F6C
  0
CIRCLE
  5
126F6D
  8
OBJECT
 10
6000.0
 20
-1424.9999999999991
 30
0.0
 40
68.0
1001
ACDBBLOCKREPETAG
1070
     1
1071
       14
1005
126F6D
  0
ARC
  5
126F6E
  8
OBJECT
 10
5922.5
 20
-1424.9999999999991
 30
0.0
 40
12.0
 50
92.105426272216135
 51
267.89457372778378
1001
ACDBBLOCKREPETAG
1070
     1
1071
       15
1005
126F6E
  0
ARC
  5
126F6F
  8
OBJECT
 10
5921.5080645161361
 20
-1451.9817728104711
 30
0.0
 40
15.0
 50
18.970518779635711
 51
87.894573727783879
1001
ACDBBLOCKREPETAG
1070
     1
1071
       16
1005
126F6F
  0
ARC
  5
126F70
  8
OBJECT
 10
5921.5080645161361
 20
-1398.018227189531
 30
0.0
 40
15.0
 50
272.10542627221611
 51
341.02948122036429
1001
ACDBBLOCKREPETAG
1070
     1
1071
       17
1005
126F70
  0
CIRCLE
  5
126F71
  8
SLIM
 10
5922.0
 20
-1424.9999999999991
 30
0.0
 40
8.0
1001
ACDBBLOCKREPETAG
1070
     1
1071
       18
1005
126F71
  0
ARC
  5
126F73
  8
OBJECT
 10
6038.75
 20
-1492.116968793295
 30
0.0
 40
12.0
 50
212.1054262721579
 51
27.894573727707488
1001
ACDBBLOCKREPETAG
1070
     1
1071
       20
1005
126F73
  0
ARC
  5
126F74
  8
OBJECT
 10
6062.612868434946
 20
-1479.485123716006
 30
0.0
 40
15.0
 50
138.97051877944759
 51
207.8945737277075
1001
ACDBBLOCKREPETAG
1070
     1
1071
       21
1005
126F74
  0
ARC
  5
126F75
  8
OBJECT
 10
6015.8790670489316
 20
-1506.466896526478
 30
0.0
 40
15.0
 50
32.105426272157878
 51
101.0294812204407
1001
ACDBBLOCKREPETAG
1070
     1
1071
       22
1005
126F75
  0
CIRCLE
  5
126F76
  8
SLIM
 10
6039.0
 20
-1492.5499814951861
 30
0.0
 40
7.9999999999999991
1001
ACDBBLOCKREPETAG
1070
     1
1071
       23
1005
126F76
  0
ARC
  5
126F78
  8
OBJECT
 10
6038.75
 20
-1357.8830312067059
 30
0.0
 40
12.0
 50
332.1054262722925
 51
147.8945737278421
1001
ACDBBLOCKREPETAG
1070
     1
1071
       25
1005
126F78
  0
ARC
  5
126F79
  8
OBJECT
 10
6015.8790670489316
 20
-1343.5331034735241
 30
0.0
 40
15.0
 50
258.97051877955931
 51
327.8945737278421
1001
ACDBBLOCKREPETAG
1070
     1
1071
       26
1005
126F79
  0
ARC
  5
126F7A
  8
OBJECT
 10
6062.612868434946
 20
-1370.514876283992
 30
0.0
 40
15.0
 50
152.1054262722925
 51
221.02948122055241
1001
ACDBBLOCKREPETAG
1070
     1
1071
       27
1005
126F7A
  0
CIRCLE
  5
126F7B
  8
SLIM
 10
6039.0
 20
-1357.4500185048121
 30
0.0
 40
8.0
1001
ACDBBLOCKREPETAG
1070
     1
1071
       28
1005
126F7B
  0
ARC
  5
126F7D
  8
OBJECT
 10
6000.0
 20
-1424.9999999999991
 30
0.0
 40
76.0
 50
214.8638379541421
 51
265.13616204573287
1001
ACDBBLOCKREPETAG
1070
     1
1071
       42
1005
126F7D
  0
ARC
  5
126F7E
  8
OBJECT
 10
6000.0
 20
-1424.9999999999991
 30
0.0
 40
76.0
 50
334.86383795430942
 51
25.136162045690561
1001
ACDBBLOCKREPETAG
1070
     1
1071
       43
1005
126F7E
  0
ARC
  5
126F7F
  8
OBJECT
 10
6000.0
 20
-1424.9999999999991
 30
0.0
 40
76.0
 50
94.863837954267041
 51
145.1361620458579
1001
ACDBBLOCKREPETAG
1070
     1
1071
       44
1005
126F7F
  0
ARC
  5
126F80
  8
OBJECT
 10
5922.0
 20
-1424.9999999999991
 30
0.0
 40
12.0
 50
145.1361620458579
 51
214.8638379541421
1001
ACDBBLOCKREPETAG
1070
     1
1071
       45
1005
126F80
  0
LINE
  5
126F81
  8
OBJECT
 10
5912.153846153833
 20
-1431.859537479861
 30
0.0
 11
5937.6410256409499
 21
-1468.44373737246
 31
0.0
1001
ACDBBLOCKREPETAG
1070
     1
1071
       46
1005
126F81
  0
LINE
  5
126F82
  8
OBJECT
 10
5912.1538461538294
 20
-1418.140462520138
 30
0.0
 11
5937.6410256409499
 21
-1381.5562626275359
 31
0.0
1001
ACDBBLOCKREPETAG
1070
     1
1071
       47
1005
126F82
  0
ARC
  5
126F83
  8
OBJECT
 10
6039.0
 20
-1492.5499814951841
 30
0.0
 40
12.0
 50
265.13616204594291
 51
334.86383795410012
1001
ACDBBLOCKREPETAG
1070
     1
1071
       48
1005
126F83
  0
LINE
  5
126F84
  8
OBJECT
 10
6049.8636106388549
 20
-1497.6472321156041
 30
0.0
 11
6068.8028673794142
 21
-1457.2825872626479
 31
0.0
1001
ACDBBLOCKREPETAG
1070
     1
1071
       49
1005
126F84
  0
LINE
  5
126F85
  8
OBJECT
 10
6037.9825432073158
 20
-1504.5067695954681
 30
0.0
 11
5993.5561069796322
 21
-1500.726324635109
 31
0.0
1001
ACDBBLOCKREPETAG
1070
     1
1071
       50
1005
126F85
  0
ARC
  5
126F86
  8
OBJECT
 10
6039.0
 20
-1357.450018504813
 30
0.0
 40
12.0
 50
25.13616204589994
 51
94.863837954057146
1001
ACDBBLOCKREPETAG
1070
     1
1071
       51
1005
126F86
  0
LINE
  5
126F87
  8
OBJECT
 10
6037.9825432073121
 20
-1345.493230404531
 30
0.0
 11
5993.5561069796349
 21
-1349.273675364889
 31
0.0
1001
ACDBBLOCKREPETAG
1070
     1
1071
       52
1005
126F87
  0
LINE
  5
126F88
  8
OBJECT
 10
6049.8636106388549
 20
-1352.35276788439
 30
0.0
 11
6068.802867379417
 21
-1392.7174127373521
 31
0.0
1001
ACDBBLOCKREPETAG
1070
     1
1071
       53
1005
126F88
  0
LINE
  5
126F89
  8
CENTER
 10
3909.0
 20
-1383.9999999999959
 30
0.0
 11
4105.0
 21
-1383.9999999999959
 31
0.0
1001
ACDBBLOCKREPETAG
1070
     1
1071
        0
1005
126F89
  0
LINE
  5
126F8A
  8
CENTER
 10
4000.0
 20
-1475.274664429212
 30
0.0
 11
4000.0
 21
-1292.725335570779
 31
0.0
1001
ACDBBLOCKREPETAG
1070
     1
1071
        1
1005
126F8A
  0
CIRCLE
  5
126F8B
  8
OBJECT
 10
4000.0
 20
-1383.9999999999959
 30
0.0
 40
50.0
1001
ACDBBLOCKREPETAG
1070
     1
1071
        2
1005
126F8B
  0
CIRCLE
  5
126F8C
  8
OBJECT
 10
4000.0
 20
-1383.9999999999959
 30
0.0
 40
62.0
1001
ACDBBLOCKREPETAG
1070
     1
1071
        3
1005
126F8C
  0
CIRCLE
  5
126F8D
  8
SLIM
 10
3922.0
 20
-1383.9999999999959
 30
0.0
 40
5.0
1001
ACDBBLOCKREPETAG
1070
     1
1071
        4
1005
126F8D
  0
CIRCLE
  5
126F8F
  8
SLIM
 10
4039.0
 20
-1451.5499814951829
 30
0.0
 40
4.9999999999999991
1001
ACDBBLOCKREPETAG
1070
     1
1071
        6
1005
126F8F
  0
CIRCLE
  5
126F91
  8
SLIM
 10
4039.0
 20
-1316.4500185048089
 30
0.0
 40
5.0
1001
ACDBBLOCKREPETAG
1070
     1
1071
        8
1005
126F91
  0
ARC
  5
126F93
  8
OBJECT
 10
4000.0
 20
-1383.9999999999959
 30
0.0
 40
76.0
 50
214.8638379541421
 51
265.13616204573287
1001
ACDBBLOCKREPETAG
1070
     1
1071
       30
1005
126F93
  0
ARC
  5
126F94
  8
OBJECT
 10
4000.0
 20
-1383.9999999999959
 30
0.0
 40
76.0
 50
334.86383795430942
 51
25.136162045690561
1001
ACDBBLOCKREPETAG
1070
     1
1071
       31
1005
126F94
  0
ARC
  5
126F95
  8
OBJECT
 10
4000.0
 20
-1383.9999999999959
 30
0.0
 40
76.0
 50
94.863837954267041
 51
145.1361620458579
1001
ACDBBLOCKREPETAG
1070
     1
1071
       32
1005
126F95
  0
ARC
  5
126F96
  8
OBJECT
 10
3922.0
 20
-1383.9999999999959
 30
0.0
 40
12.0
 50
145.1361620458579
 51
214.8638379541421
1001
ACDBBLOCKREPETAG
1070
     1
1071
       33
1005
126F96
  0
LINE
  5
126F97
  8
OBJECT
 10
3912.153846153833
 20
-1390.8595374798581
 30
0.0
 11
3937.6410256409508
 21
-1427.443737372457
 31
0.0
1001
ACDBBLOCKREPETAG
1070
     1
1071
       34
1005
126F97
  0
LINE
  5
126F98
  8
OBJECT
 10
3912.1538461538298
 20
-1377.1404625201351
 30
0.0
 11
3937.6410256409508
 21
-1340.556262627533
 31
0.0
1001
ACDBBLOCKREPETAG
1070
     1
1071
       35
1005
126F98
  0
ARC
  5
126F99
  8
OBJECT
 10
4039.0
 20
-1451.5499814951811
 30
0.0
 40
12.0
 50
265.13616204594291
 51
334.86383795411109
1001
ACDBBLOCKREPETAG
1070
     1
1071
       36
1005
126F99
  0
LINE
  5
126F9A
  8
OBJECT
 10
4049.8636106388549
 20
-1456.6472321156009
 30
0.0
 11
4068.8028673794138
 21
-1416.2825872626449
 31
0.0
1001
ACDBBLOCKREPETAG
1070
     1
1071
       37
1005
126F9A
  0
LINE
  5
126F9B
  8
OBJECT
 10
4037.9825432073148
 20
-1463.5067695954649
 30
0.0
 11
3993.5561069796322
 21
-1459.726324635106
 31
0.0
1001
ACDBBLOCKREPETAG
1070
     1
1071
       38
1005
126F9B
  0
ARC
  5
126F9C
  8
OBJECT
 10
4039.0
 20
-1316.45001850481
 30
0.0
 40
12.0
 50
25.13616204588887
 51
94.863837954057146
1001
ACDBBLOCKREPETAG
1070
     1
1071
       39
1005
126F9C
  0
LINE
  5
126F9D
  8
OBJECT
 10
4037.9825432073121
 20
-1304.493230404528
 30
0.0
 11
3993.5561069796349
 21
-1308.2736753648851
 31
0.0
1001
ACDBBLOCKREPETAG
1070
     1
1071
       40
1005
126F9D
  0
LINE
  5
126F9E
  8
OBJECT
 10
4049.8636106388549
 20
-1311.352767884387
 30
0.0
 11
4068.802867379417
 21
-1351.7174127373489
 31
0.0
1001
ACDBBLOCKREPETAG
1070
     1
1071
       41
1005
126F9E
  0
TEXT
  5
126F9F
  8
SLIM
 10
3853.75
 20
-1651.4999999999959
 30
0.0
 40
35.0
  1
両受けスタイル（W）
 41
0.75
  0
TEXT
  5
126FA0
  8
SLIM
 10
5811.8000000000002
 20
-1748.9999999999991
 30
0.0
 40
28.0
  1
※ 対応スラブ厚　150mm以上
 41
0.75
  0
TEXT
  5
126FA1
  8
SLIM
 10
5611.5
 20
-1842.3333333333319
 30
0.0
 40
28.0
  1
国土交通大臣認定・（一財）日本消防設備安全センター性能評定取得品
 41
0.75
  0
TEXT
  5
126FA2
  8
SLIM
 10
5631.1000000000004
 20
-1888.9999999999991
 30
0.0
 40
28.0
  1
注）ご採用にあたり、認定書及び評定書の内容をご確認ください。
 41
0.75
  0
TEXT
  5
126FA3
  8
SLIM
 10
11824.6
 20
-1707.9999999999959
 30
0.0
 40
28.0
  1
※ 対応スラブ厚　150～380
 41
0.75
  0
TEXT
  5
126FA4
  8
SLIM
 10
11611.5
 20
-1801.3333333333289
 30
0.0
 40
28.0
  1
国土交通大臣認定・（一財）日本消防設備安全センター性能評定取得品
 41
0.75
  0
TEXT
  5
126FA5
  8
SLIM
 10
11631.1
 20
-1847.9999999999959
 30
0.0
 40
28.0
  1
注）ご採用にあたり、認定書及び評定書の内容をご確認ください。
 41
0.75
  0
TEXT
  5
126FA6
  8
SLIM
 10
9824.6000000000004
 20
-1707.9999999999959
 30
0.0
 40
28.0
  1
※ 対応スラブ厚　180～380
 41
0.75
  0
TEXT
  5
126FA7
  8
SLIM
 10
9611.5000000000018
 20
-1801.3333333333289
 30
0.0
 40
28.0
  1
国土交通大臣認定・（一財）日本消防設備安全センター性能評定取得品
 41
0.75
  0
TEXT
  5
126FA8
  8
SLIM
 10
9631.1000000000004
 20
-1847.9999999999959
 30
0.0
 40
28.0
  1
注）ご採用にあたり、認定書及び評定書の内容をご確認ください。
 41
0.75
  0
TEXT
  5
126FA9
  8
SLIM
 10
7771.4000000000005
 20
-1440.666666666664
 30
0.0
 40
28.0
  1
※ 対応スラブ厚　180｛150｝～340
 41
0.75
  0
TEXT
  5
126FAA
  8
SLIM
 10
7733.2999999999993
 20
-1487.333333333331
 30
0.0
 40
28.0
  1
｛｝内はカンペイ立て管との組み合わせの場合
 41
0.75
  0
TEXT
  5
126FAB
  8
SLIM
 10
7611.4999999999991
 20
-1580.6666666666649
 30
0.0
 40
28.0
  1
国土交通大臣認定・（一財）日本消防設備安全センター性能評定取得品
 41
0.75
  0
TEXT
  5
126FAC
  8
SLIM
 10
7631.1000000000004
 20
-1627.333333333331
 30
0.0
 40
28.0
  1
注）ご採用にあたり、認定書及び評定書の内容をご確認ください。
 41
0.75
  0
TEXT
  5
126FAD
  8
SLIM
 10
9739.1250000000018
 20
-1651.4999999999959
 30
0.0
 40
35.0
  1
両受けスタイル（W）＋シンドカット
 41
0.75
  0
TEXT
  5
126FAE
  8
SLIM
 10
11743.5
 20
-1651.4999999999959
 30
0.0
 40
35.0
  1
カンペイ君（WKP）＋シンドカット
 41
0.75
  0
TEXT
  5
126FAF
  8
SLIM
 10
7741.625
 20
-1377.499999999997
 30
0.0
 40
35.0
  1
片受けスタイル（S）＋シンドカット
 41
0.75
  0
TEXT
  5
126FB0
  8
SLIM
 10
5858.1250000000009
 20
-1692.4999999999991
 30
0.0
 40
35.0
  1
カンペイ君（WKP）
 41
0.75
  0
TEXT
  5
126FB1
  8
SLIM
 10
1856.25
 20
-1377.499999999997
 30
0.0
 40
35.0
  1
片受けスタイル（S）
 41
0.75
  0
TEXT
  5
126FB2
  8
SLIM
 10
0.0
 20
369.99999999999989
 30
0.0
 40
100.0
  1
4HF-Z6-P110-WKP
 41
0.75
  0
LINE
  5
126FD8
  8
SLIM
 10
4029.1850454237788
 20
-1316.4500185048089
 30
0.0
 11
4034.0925227118928
 21
-1324.9500185048121
 31
0.0
1001
ACDBBLOCKREPETAG
1070
     1
1071
        9
1005
126F92
  0
LINE
  5
126FD9
  8
SLIM
 10
4034.0925227118928
 20
-1324.9500185048121
 30
0.0
 11
4043.907477288114
 21
-1324.950018504808
 31
0.0
1001
ACDBBLOCKREPETAG
1070
     1
1071
        9
1005
126F92
  0
LINE
  5
126FDA
  8
SLIM
 10
4043.907477288114
 20
-1324.950018504808
 30
0.0
 11
4048.814954576228
 21
-1316.4500185048121
 31
0.0
1001
ACDBBLOCKREPETAG
1070
     1
1071
        9
1005
126F92
  0
LINE
  5
126FDB
  8
SLIM
 10
4048.814954576228
 20
-1316.4500185048121
 30
0.0
 11
4043.907477288114
 21
-1307.950018504808
 31
0.0
1001
ACDBBLOCKREPETAG
1070
     1
1071
        9
1005
126F92
  0
LINE
  5
126FDC
  8
SLIM
 10
4043.907477288114
 20
-1307.950018504808
 30
0.0
 11
4034.092522711886
 21
-1307.9500185048121
 31
0.0
1001
ACDBBLOCKREPETAG
1070
     1
1071
        9
1005
126F92
  0
LINE
  5
126FDD
  8
SLIM
 10
4034.092522711886
 20
-1307.9500185048121
 30
0.0
 11
4029.1850454237788
 21
-1316.4500185048089
 31
0.0
1001
ACDBBLOCKREPETAG
1070
     1
1071
        9
1005
126F92
  0
LINE
  5
126FDE
  8
SLIM
 10
4043.907477288114
 20
-1443.0499814951829
 30
0.0
 11
4034.092522711886
 21
-1443.0499814951829
 31
0.0
1001
ACDBBLOCKREPETAG
1070
     1
1071
        7
1005
126F90
  0
LINE
  5
126FDF
  8
SLIM
 10
4034.092522711886
 20
-1443.0499814951829
 30
0.0
 11
4029.1850454237788
 21
-1451.5499814951829
 31
0.0
1001
ACDBBLOCKREPETAG
1070
     1
1071
        7
1005
126F90
  0
LINE
  5
126FE0
  8
SLIM
 10
4029.1850454237788
 20
-1451.5499814951829
 30
0.0
 11
4034.092522711886
 21
-1460.0499814951829
 31
0.0
1001
ACDBBLOCKREPETAG
1070
     1
1071
        7
1005
126F90
  0
LINE
  5
126FE1
  8
SLIM
 10
4034.092522711886
 20
-1460.0499814951829
 30
0.0
 11
4043.907477288114
 21
-1460.0499814951829
 31
0.0
1001
ACDBBLOCKREPETAG
1070
     1
1071
        7
1005
126F90
  0
LINE
  5
126FE2
  8
SLIM
 10
4043.907477288114
 20
-1460.0499814951829
 30
0.0
 11
4048.814954576228
 21
-1451.5499814951829
 31
0.0
1001
ACDBBLOCKREPETAG
1070
     1
1071
        7
1005
126F90
  0
LINE
  5
126FE3
  8
SLIM
 10
4048.814954576228
 20
-1451.5499814951829
 30
0.0
 11
4043.907477288114
 21
-1443.0499814951829
 31
0.0
1001
ACDBBLOCKREPETAG
1070
     1
1071
        7
1005
126F90
  0
LINE
  5
126FE4
  8
SLIM
 10
3926.907477288114
 20
-1392.4999999999959
 30
0.0
 11
3931.814954576228
 21
-1383.9999999999959
 31
0.0
1001
ACDBBLOCKREPETAG
1070
     1
1071
        5
1005
126F8E
  0
LINE
  5
126FE5
  8
SLIM
 10
3931.814954576228
 20
-1383.9999999999959
 30
0.0
 11
3926.907477288114
 21
-1375.4999999999959
 31
0.0
1001
ACDBBLOCKREPETAG
1070
     1
1071
        5
1005
126F8E
  0
LINE
  5
126FE6
  8
SLIM
 10
3926.907477288114
 20
-1375.4999999999959
 30
0.0
 11
3917.0925227118928
 21
-1375.4999999999959
 31
0.0
1001
ACDBBLOCKREPETAG
1070
     1
1071
        5
1005
126F8E
  0
LINE
  5
126FE7
  8
SLIM
 10
3917.0925227118928
 20
-1375.4999999999959
 30
0.0
 11
3912.1850454237788
 21
-1383.9999999999959
 31
0.0
1001
ACDBBLOCKREPETAG
1070
     1
1071
        5
1005
126F8E
  0
LINE
  5
126FE8
  8
SLIM
 10
3912.1850454237788
 20
-1383.9999999999959
 30
0.0
 11
3917.0925227118928
 21
-1392.4999999999959
 31
0.0
1001
ACDBBLOCKREPETAG
1070
     1
1071
        5
1005
126F8E
  0
LINE
  5
126FE9
  8
SLIM
 10
3917.0925227118928
 20
-1392.4999999999959
 30
0.0
 11
3926.907477288114
 21
-1392.4999999999959
 31
0.0
1001
ACDBBLOCKREPETAG
1070
     1
1071
        5
1005
126F8E
  0
LINE
  5
126FEA
  8
SLIM
 10
6034.3811978464882
 20
-1357.450018504815
 30
0.0
 11
6036.6905989232473
 21
-1361.4500185048121
 31
0.0
1001
ACDBBLOCKREPETAG
1070
     1
1071
       29
1005
126F7C
  0
LINE
  5
126FEB
  8
SLIM
 10
6036.6905989232473
 20
-1361.4500185048121
 30
0.0
 11
6041.30940107676
 21
-1361.450018504815
 31
0.0
1001
ACDBBLOCKREPETAG
1070
     1
1071
       29
1005
126F7C
  0
LINE
  5
126FEC
  8
SLIM
 10
6041.30940107676
 20
-1361.450018504815
 30
0.0
 11
6043.6188021535199
 21
-1357.4500185048121
 31
0.0
1001
ACDBBLOCKREPETAG
1070
     1
1071
       29
1005
126F7C
  0
LINE
  5
126FED
  8
SLIM
 10
6043.6188021535199
 20
-1357.4500185048121
 30
0.0
 11
6041.3094010767672
 21
-1353.450018504815
 31
0.0
1001
ACDBBLOCKREPETAG
1070
     1
1071
       29
1005
126F7C
  0
LINE
  5
126FEE
  8
SLIM
 10
6041.3094010767672
 20
-1353.450018504815
 30
0.0
 11
6036.6905989232473
 21
-1353.4500185048121
 31
0.0
1001
ACDBBLOCKREPETAG
1070
     1
1071
       29
1005
126F7C
  0
LINE
  5
126FEF
  8
SLIM
 10
6036.6905989232473
 20
-1353.4500185048121
 30
0.0
 11
6034.3811978464882
 21
-1357.450018504815
 31
0.0
1001
ACDBBLOCKREPETAG
1070
     1
1071
       29
1005
126F7C
  0
LINE
  5
126FF0
  8
SLIM
 10
6041.30940107676
 20
-1488.5499814951861
 30
0.0
 11
6036.6905989232473
 21
-1488.5499814951861
 31
0.0
1001
ACDBBLOCKREPETAG
1070
     1
1071
       24
1005
126F77
  0
LINE
  5
126FF1
  8
SLIM
 10
6036.6905989232473
 20
-1488.5499814951861
 30
0.0
 11
6034.3811978464882
 21
-1492.5499814951861
 31
0.0
1001
ACDBBLOCKREPETAG
1070
     1
1071
       24
1005
126F77
  0
LINE
  5
126FF2
  8
SLIM
 10
6034.3811978464882
 20
-1492.5499814951861
 30
0.0
 11
6036.6905989232473
 21
-1496.5499814951861
 31
0.0
1001
ACDBBLOCKREPETAG
1070
     1
1071
       24
1005
126F77
  0
LINE
  5
126FF3
  8
SLIM
 10
6036.6905989232473
 20
-1496.5499814951861
 30
0.0
 11
6041.30940107676
 21
-1496.5499814951861
 31
0.0
1001
ACDBBLOCKREPETAG
1070
     1
1071
       24
1005
126F77
  0
LINE
  5
126FF4
  8
SLIM
 10
6041.30940107676
 20
-1496.5499814951861
 30
0.0
 11
6043.6188021535199
 21
-1492.5499814951861
 31
0.0
1001
ACDBBLOCKREPETAG
1070
     1
1071
       24
1005
126F77
  0
LINE
  5
126FF5
  8
SLIM
 10
6043.6188021535199
 20
-1492.5499814951861
 30
0.0
 11
6041.30940107676
 21
-1488.5499814951861
 31
0.0
1001
ACDBBLOCKREPETAG
1070
     1
1071
       24
1005
126F77
  0
LINE
  5
126FF6
  8
SLIM
 10
5924.3094010767672
 20
-1428.9999999999991
 30
0.0
 11
5926.618802153519
 21
-1424.9999999999991
 31
0.0
1001
ACDBBLOCKREPETAG
1070
     1
1071
       19
1005
126F72
  0
LINE
  5
126FF7
  8
SLIM
 10
5926.618802153519
 20
-1424.9999999999991
 30
0.0
 11
5924.3094010767672
 21
-1420.9999999999991
 31
0.0
1001
ACDBBLOCKREPETAG
1070
     1
1071
       19
1005
126F72
  0
LINE
  5
126FF8
  8
SLIM
 10
5924.3094010767672
 20
-1420.9999999999991
 30
0.0
 11
5919.6905989232482
 21
-1420.9999999999991
 31
0.0
1001
ACDBBLOCKREPETAG
1070
     1
1071
       19
1005
126F72
  0
LINE
  5
126FF9
  8
SLIM
 10
5919.6905989232482
 20
-1420.9999999999991
 30
0.0
 11
5917.3811978464882
 21
-1424.9999999999991
 31
0.0
1001
ACDBBLOCKREPETAG
1070
     1
1071
       19
1005
126F72
  0
LINE
  5
126FFA
  8
SLIM
 10
5917.3811978464882
 20
-1424.9999999999991
 30
0.0
 11
5919.6905989232482
 21
-1428.9999999999991
 31
0.0
1001
ACDBBLOCKREPETAG
1070
     1
1071
       19
1005
126F72
  0
LINE
  5
126FFB
  8
SLIM
 10
5919.6905989232482
 20
-1428.9999999999991
 30
0.0
 11
5924.3094010767672
 21
-1428.9999999999991
 31
0.0
1001
ACDBBLOCKREPETAG
1070
     1
1071
       19
1005
126F72
  0
LINE
  5
126FFC
  8
SLIM
 10
10029.185045423779
 20
-1316.4500185048089
 30
0.0
 11
10034.09252271189
 21
-1324.9500185048121
 31
0.0
1001
ACDBBLOCKREPETAG
1070
     1
1071
        9
1005
126F5C
  0
LINE
  5
126FFD
  8
SLIM
 10
10034.09252271189
 20
-1324.9500185048121
 30
0.0
 11
10043.90747728811
 21
-1324.950018504808
 31
0.0
1001
ACDBBLOCKREPETAG
1070
     1
1071
        9
1005
126F5C
  0
LINE
  5
126FFE
  8
SLIM
 10
10043.90747728811
 20
-1324.950018504808
 30
0.0
 11
10048.81495457623
 21
-1316.4500185048121
 31
0.0
1001
ACDBBLOCKREPETAG
1070
     1
1071
        9
1005
126F5C
  0
LINE
  5
126FFF
  8
SLIM
 10
10048.81495457623
 20
-1316.4500185048121
 30
0.0
 11
10043.90747728811
 21
-1307.950018504808
 31
0.0
1001
ACDBBLOCKREPETAG
1070
     1
1071
        9
1005
126F5C
  0
LINE
  5
127000
  8
SLIM
 10
10043.90747728811
 20
-1307.950018504808
 30
0.0
 11
10034.092522711881
 21
-1307.9500185048121
 31
0.0
1001
ACDBBLOCKREPETAG
1070
     1
1071
        9
1005
126F5C
  0
LINE
  5
127001
  8
SLIM
 10
10034.092522711881
 20
-1307.9500185048121
 30
0.0
 11
10029.185045423779
 21
-1316.4500185048089
 31
0.0
1001
ACDBBLOCKREPETAG
1070
     1
1071
        9
1005
126F5C
  0
LINE
  5
127002
  8
SLIM
 10
10043.90747728811
 20
-1443.0499814951829
 30
0.0
 11
10034.092522711881
 21
-1443.0499814951829
 31
0.0
1001
ACDBBLOCKREPETAG
1070
     1
1071
        7
1005
126F5A
  0
LINE
  5
127003
  8
SLIM
 10
10034.092522711881
 20
-1443.0499814951829
 30
0.0
 11
10029.185045423779
 21
-1451.5499814951829
 31
0.0
1001
ACDBBLOCKREPETAG
1070
     1
1071
        7
1005
126F5A
  0
LINE
  5
127004
  8
SLIM
 10
10029.185045423779
 20
-1451.5499814951829
 30
0.0
 11
10034.092522711881
 21
-1460.0499814951829
 31
0.0
1001
ACDBBLOCKREPETAG
1070
     1
1071
        7
1005
126F5A
  0
LINE
  5
127005
  8
SLIM
 10
10034.092522711881
 20
-1460.0499814951829
 30
0.0
 11
10043.90747728811
 21
-1460.0499814951829
 31
0.0
1001
ACDBBLOCKREPETAG
1070
     1
1071
        7
1005
126F5A
  0
LINE
  5
127006
  8
SLIM
 10
10043.90747728811
 20
-1460.0499814951829
 30
0.0
 11
10048.81495457623
 21
-1451.5499814951829
 31
0.0
1001
ACDBBLOCKREPETAG
1070
     1
1071
        7
1005
126F5A
  0
LINE
  5
127007
  8
SLIM
 10
10048.81495457623
 20
-1451.5499814951829
 30
0.0
 11
10043.90747728811
 21
-1443.0499814951829
 31
0.0
1001
ACDBBLOCKREPETAG
1070
     1
1071
        7
1005
126F5A
  0
LINE
  5
127008
  8
SLIM
 10
9926.907477288114
 20
-1392.4999999999959
 30
0.0
 11
9931.814954576228
 21
-1383.9999999999959
 31
0.0
1001
ACDBBLOCKREPETAG
1070
     1
1071
        5
1005
126F58
  0
LINE
  5
127009
  8
SLIM
 10
9931.814954576228
 20
-1383.9999999999959
 30
0.0
 11
9926.907477288114
 21
-1375.4999999999959
 31
0.0
1001
ACDBBLOCKREPETAG
1070
     1
1071
        5
1005
126F58
  0
LINE
  5
12700A
  8
SLIM
 10
9926.907477288114
 20
-1375.4999999999959
 30
0.0
 11
9917.0925227118933
 21
-1375.4999999999959
 31
0.0
1001
ACDBBLOCKREPETAG
1070
     1
1071
        5
1005
126F58
  0
LINE
  5
12700B
  8
SLIM
 10
9917.0925227118933
 20
-1375.4999999999959
 30
0.0
 11
9912.185045423781
 21
-1383.9999999999959
 31
0.0
1001
ACDBBLOCKREPETAG
1070
     1
1071
        5
1005
126F58
  0
LINE
  5
12700C
  8
SLIM
 10
9912.185045423781
 20
-1383.9999999999959
 30
0.0
 11
9917.0925227118933
 21
-1392.4999999999959
 31
0.0
1001
ACDBBLOCKREPETAG
1070
     1
1071
        5
1005
126F58
  0
LINE
  5
12700D
  8
SLIM
 10
9917.0925227118933
 20
-1392.4999999999959
 30
0.0
 11
9926.907477288114
 21
-1392.4999999999959
 31
0.0
1001
ACDBBLOCKREPETAG
1070
     1
1071
        5
1005
126F58
  0
LINE
  5
12700E
  8
SLIM
 10
12034.381197846489
 20
-1316.4500185048121
 30
0.0
 11
12036.69059892324
 21
-1320.450018504808
 31
0.0
1001
ACDBBLOCKREPETAG
1070
     1
1071
       29
1005
126F46
  0
LINE
  5
12700F
  8
SLIM
 10
12036.69059892324
 20
-1320.450018504808
 30
0.0
 11
12041.30940107676
 21
-1320.4500185048121
 31
0.0
1001
ACDBBLOCKREPETAG
1070
     1
1071
       29
1005
126F46
  0
LINE
  5
127010
  8
SLIM
 10
12041.30940107676
 20
-1320.4500185048121
 30
0.0
 11
12043.61880215352
 21
-1316.4500185048089
 31
0.0
1001
ACDBBLOCKREPETAG
1070
     1
1071
       29
1005
126F46
  0
LINE
  5
127011
  8
SLIM
 10
12043.61880215352
 20
-1316.4500185048089
 30
0.0
 11
12041.30940107676
 21
-1312.4500185048121
 31
0.0
1001
ACDBBLOCKREPETAG
1070
     1
1071
       29
1005
126F46
  0
LINE
  5
127012
  8
SLIM
 10
12041.30940107676
 20
-1312.4500185048121
 30
0.0
 11
12036.69059892324
 21
-1312.450018504808
 31
0.0
1001
ACDBBLOCKREPETAG
1070
     1
1071
       29
1005
126F46
  0
LINE
  5
127013
  8
SLIM
 10
12036.69059892324
 20
-1312.450018504808
 30
0.0
 11
12034.381197846489
 21
-1316.4500185048121
 31
0.0
1001
ACDBBLOCKREPETAG
1070
     1
1071
       29
1005
126F46
  0
LINE
  5
127014
  8
SLIM
 10
12041.30940107676
 20
-1447.5499814951829
 30
0.0
 11
12036.69059892324
 21
-1447.5499814951829
 31
0.0
1001
ACDBBLOCKREPETAG
1070
     1
1071
       24
1005
126F41
  0
LINE
  5
127015
  8
SLIM
 10
12036.69059892324
 20
-1447.5499814951829
 30
0.0
 11
12034.381197846489
 21
-1451.5499814951829
 31
0.0
1001
ACDBBLOCKREPETAG
1070
     1
1071
       24
1005
126F41
  0
LINE
  5
127016
  8
SLIM
 10
12034.381197846489
 20
-1451.5499814951829
 30
0.0
 11
12036.69059892324
 21
-1455.5499814951829
 31
0.0
1001
ACDBBLOCKREPETAG
1070
     1
1071
       24
1005
126F41
  0
LINE
  5
127017
  8
SLIM
 10
12036.69059892324
 20
-1455.5499814951829
 30
0.0
 11
12041.30940107676
 21
-1455.5499814951829
 31
0.0
1001
ACDBBLOCKREPETAG
1070
     1
1071
       24
1005
126F41
  0
LINE
  5
127018
  8
SLIM
 10
12041.30940107676
 20
-1455.5499814951829
 30
0.0
 11
12043.61880215352
 21
-1451.5499814951829
 31
0.0
1001
ACDBBLOCKREPETAG
1070
     1
1071
       24
1005
126F41
  0
LINE
  5
127019
  8
SLIM
 10
12043.61880215352
 20
-1451.5499814951829
 30
0.0
 11
12041.30940107676
 21
-1447.5499814951829
 31
0.0
1001
ACDBBLOCKREPETAG
1070
     1
1071
       24
1005
126F41
  0
LINE
  5
12701A
  8
SLIM
 10
11924.30940107676
 20
-1387.9999999999959
 30
0.0
 11
11926.61880215352
 21
-1383.9999999999959
 31
0.0
1001
ACDBBLOCKREPETAG
1070
     1
1071
       19
1005
126F3C
  0
LINE
  5
12701B
  8
SLIM
 10
11926.61880215352
 20
-1383.9999999999959
 30
0.0
 11
11924.30940107676
 21
-1379.9999999999959
 31
0.0
1001
ACDBBLOCKREPETAG
1070
     1
1071
       19
1005
126F3C
  0
LINE
  5
12701C
  8
SLIM
 10
11924.30940107676
 20
-1379.9999999999959
 30
0.0
 11
11919.69059892324
 21
-1379.9999999999959
 31
0.0
1001
ACDBBLOCKREPETAG
1070
     1
1071
       19
1005
126F3C
  0
LINE
  5
12701D
  8
SLIM
 10
11919.69059892324
 20
-1379.9999999999959
 30
0.0
 11
11917.381197846489
 21
-1383.9999999999959
 31
0.0
1001
ACDBBLOCKREPETAG
1070
     1
1071
       19
1005
126F3C
  0
LINE
  5
12701E
  8
SLIM
 10
11917.381197846489
 20
-1383.9999999999959
 30
0.0
 11
11919.69059892324
 21
-1387.9999999999959
 31
0.0
1001
ACDBBLOCKREPETAG
1070
     1
1071
       19
1005
126F3C
  0
LINE
  5
12701F
  8
SLIM
 10
11919.69059892324
 20
-1387.9999999999959
 30
0.0
 11
11924.30940107676
 21
-1387.9999999999959
 31
0.0
1001
ACDBBLOCKREPETAG
1070
     1
1071
       19
1005
126F3C
  0
VIEWPORT
  5
F6BA7
 67
     1
  8
0
 10
185.50346062511869
 20
101.8328354358673
 30
0.0
 40
414.3487481428715
 41
222.19657968139651
 68
     1
 69
     1
1001
ACAD
1000
MVIEW
1002
{
1070
    16
1010
0.0
1020
0.0
1030
0.0
1010
0.0
1020
0.0
1030
1.0
1040
0.0
1040
222.19657968139651
1040
185.50346062511869
1040
101.8328354358673
1040
50.0
1040
0.0
1040
0.0
1070
     0
1070
     0
1070
     1
1070
     1
1070
     0
1070
     0
1070
     0
1070
     0
1040
0.0
1040
0.0
1040
0.0
1040
10.0
1040
10.0
1040
10.0
1040
10.0
1070
     0
1002
{
1002
}
1002
}
  0
VIEWPORT
  5
F6BA9
 67
     1
  8
OBJECT
 10
145.3303314447403
 20
101.8328338861465
 30
0.0
 40
232.52853031158449
 41
162.93253421783439
 68
     2
 69
     2
1001
ACAD
1000
MVIEW
1002
{
1070
    16
1010
0.0
1020
0.0
1030
0.0
1010
0.0
1020
0.0
1030
1.0
1040
0.0
1040
25942.55904403147
1040
2377.604457077377
1040
-7591.5176687056619
1040
50.0
1040
0.0
1040
0.0
1070
     0
1070
   600
1070
     1
1070
     1
1070
     0
1070
     0
1070
     0
1070
     0
1040
0.0
1040
0.0
1040
0.0
1040
1.0
1040
1.0
1040
0.0
1040
0.0
1070
     0
1002
{
1002
}
1002
}
  0
ENDSEC
  0
EOF
