  0
SECTION
  2
HEADER
  9
$ACADVER
  1
AC1009
  9
$INSBASE
 10
0.0
 20
0.0
 30
0.0
  9
$EXTMIN
 10
0.0
 20
-1889.0
 30
0.0
  9
$EXTMAX
 10
12399.70000000001
 20
770.0
 30
0.0
  9
$LIMMIN
 10
0.0
 20
0.0
  9
$LIMMAX
 10
210.0
 20
297.0
  9
$ORTHOMODE
 70
     0
  9
$REGENMODE
 70
     1
  9
$FILLMODE
 70
     1
  9
$QTEXTMODE
 70
     0
  9
$MIRRTEXT
 70
     0
  9
$DRAGMODE
 70
     2
  9
$LTSCALE
 40
1.0
  9
$OSMODE
 70
   109
  9
$ATTMODE
 70
     1
  9
$TEXTSIZE
 40
4.0
  9
$TRACEWID
 40
0.05
  9
$TEXTSTYLE
  7
STANDARD
  9
$CLAYER
  8
OBJECT
  9
$CELTYPE
  6
BYLAYER
  9
$CECOLOR
 62
   256
  9
$DIMSCALE
 40
10.0
  9
$DIMASZ
 40
2.0
  9
$DIMEXO
 40
1.0
  9
$DIMDLI
 40
10.0
  9
$DIMRND
 40
0.0
  9
$DIMDLE
 40
0.0
  9
$DIMEXE
 40
1.0
  9
$DIMTP
 40
0.0
  9
$DIMTM
 40
0.0
  9
$DIMTXT
 40
3.2000000000000002
  9
$DIMCEN
 40
0.0
  9
$DIMTSZ
 40
0.0
  9
$DIMTOL
 70
     0
  9
$DIMLIM
 70
     0
  9
$DIMTIH
 70
     0
  9
$DIMTOH
 70
     0
  9
$DIMSE1
 70
     0
  9
$DIMSE2
 70
     0
  9
$DIMTAD
 70
     1
  9
$DIMZIN
 70
     8
  9
$DIMBLK
  1
OPEN30
  9
$DIMASO
 70
     1
  9
$DIMSHO
 70
     1
  9
$DIMPOST
  1

  9
$DIMAPOST
  1

  9
$DIMALT
 70
     0
  9
$DIMALTD
 70
     2
  9
$DIMALTF
 40
25.399999999999999
  9
$DIMLFAC
 40
1.0
  9
$DIMTOFL
 70
     1
  9
$DIMTVP
 40
0.0
  9
$DIMTIX
 70
     0
  9
$DIMSOXD
 70
     0
  9
$DIMSAH
 70
     0
  9
$DIMBLK1
  1

  9
$DIMBLK2
  1

  9
$DIMSTYLE
  2
S10
  9
$DIMCLRD
 70
   256
  9
$DIMCLRE
 70
   256
  9
$DIMCLRT
 70
   256
  9
$DIMTFAC
 40
1.0
  9
$DIMGAP
 40
0.9
  9
$LUNITS
 70
     2
  9
$LUPREC
 70
     2
  9
$SKETCHINC
 40
0.1
  9
$FILLETRAD
 40
0.0
  9
$AUNITS
 70
     0
  9
$AUPREC
 70
     2
  9
$MENU
  1
ACAD
  9
$ELEVATION
 40
0.0
  9
$PELEVATION
 40
0.0
  9
$THICKNESS
 40
0.0
  9
$LIMCHECK
 70
     0
  9
$BLIPMODE
 70
     0
  9
$CHAMFERA
 40
2.0
  9
$CHAMFERB
 40
2.0
  9
$SKPOLY
 70
     0
  9
$TDCREATE
 40
2453095.4929404748
  9
$TDUPDATE
 40
2457256.571118773
  9
$TDINDWG
 40
18.480883009300001
  9
$TDUSRTIMER
 40
18.480882465299999
  9
$USRTIMER
 70
     1
  9
$ANGBASE
 50
0.0
  9
$ANGDIR
 70
     0
  9
$PDMODE
 70
    35
  9
$PDSIZE
 40
2.0
  9
$PLINEWID
 40
0.0
  9
$COORDS
 70
     1
  9
$SPLFRAME
 70
     0
  9
$SPLINETYPE
 70
     6
  9
$SPLINESEGS
 70
     8
  9
$ATTDIA
 70
     0
  9
$ATTREQ
 70
     1
  9
$HANDLING
 70
     1
  9
$HANDSEED
  5
127B44
  9
$SURFTAB1
 70
     6
  9
$SURFTAB2
 70
     6
  9
$SURFTYPE
 70
     6
  9
$SURFU
 70
     6
  9
$SURFV
 70
     6
  9
$UCSNAME
  2

  9
$UCSORG
 10
0.0
 20
0.0
 30
0.0
  9
$UCSXDIR
 10
1.0
 20
0.0
 30
0.0
  9
$UCSYDIR
 10
0.0
 20
1.0
 30
0.0
  9
$PUCSNAME
  2

  9
$PUCSORG
 10
0.0
 20
0.0
 30
0.0
  9
$PUCSXDIR
 10
1.0
 20
0.0
 30
0.0
  9
$PUCSYDIR
 10
0.0
 20
1.0
 30
0.0
  9
$USERI1
 70
     0
  9
$USERI2
 70
     0
  9
$USERI3
 70
     0
  9
$USERI4
 70
     0
  9
$USERI5
 70
     0
  9
$USERR1
 40
0.0
  9
$USERR2
 40
0.0
  9
$USERR3
 40
0.0
  9
$USERR4
 40
0.0
  9
$USERR5
 40
0.0
  9
$WORLDVIEW
 70
     1
  9
$SHADEDGE
 70
     3
  9
$SHADEDIF
 70
    70
  9
$TILEMODE
 70
     1
  9
$MAXACTVP
 70
    64
  9
$PLIMCHECK
 70
     0
  9
$PEXTMIN
 10
29.066066288948051
 20
20.366566777229309
 30
0.0
  9
$PEXTMAX
 10
261.5945966005325
 20
183.29910099506381
 30
0.0
  9
$PLIMMIN
 10
-3.17498779296875
 20
-3.1749999523162842
  9
$PLIMMAX
 10
293.83566284179687
 20
206.8406708240509
  9
$UNITMODE
 70
     0
  9
$VISRETAIN
 70
     1
  9
$PLINEGEN
 70
     0
  9
$PSLTSCALE
 70
     1
  0
ENDSEC
  0
SECTION
  2
TABLES
  0
TABLE
  2
VPORT
 70
     1
  0
VPORT
  2
*ACTIVE
 70
     0
 10
0.0
 20
0.0
 11
1.0
 21
1.0
 12
7385.9797598876103
 22
-4589.9268308573028
 13
0.0
 23
0.0
 14
1.0
 24
1.0
 15
0.0
 25
0.0
 16
0.0
 26
0.0
 36
1.0
 17
0.0
 27
0.0
 37
0.0
 40
22138.416703373219
 41
1.6494178525226391
 42
50.0
 43
0.0
 44
0.0
 50
0.0
 51
0.0
 71
     0
 72
   600
 73
     1
 74
     1
 75
     0
 76
     0
 77
     0
 78
     0
  0
ENDTAB
  0
TABLE
  2
LTYPE
 70
     4
  0
LTYPE
  2
CONTINUOUS
 70
     0
  3
Solid line
 72
    65
 73
     0
 40
0.0
  0
LTYPE
  2
PHANTOM2
 70
     0
  3
___ _ _ ___ _ _ ___ _ _ ___ _ _
 72
    65
 73
     6
 40
1.25
 49
0.625
 49
-0.125
 49
0.125
 49
-0.125
 49
0.125
 49
-0.125
  0
LTYPE
  2
ACAD_ISO08W100
 70
     0
  3
ISO long-dash short-dash ____ __ ____ __ ____ _
 72
    65
 73
     4
 40
36.0
 49
24.0
 49
-3.0
 49
6.0
 49
-3.0
  0
LTYPE
  2
ACAD_ISO02W100
 70
     0
  3
ISO dash __ __ __ __ __ __ __ __ __ __ __ __ __
 72
    65
 73
     2
 40
15.0
 49
12.0
 49
-3.0
  0
ENDTAB
  0
TABLE
  2
LAYER
 70
     7
  0
LAYER
  2
0
 70
     0
 62
     7
  6
CONTINUOUS
  0
LAYER
  2
OBJECT
 70
     0
 62
     4
  6
CONTINUOUS
  0
LAYER
  2
DEFPOINTS
 70
     0
 62
     7
  6
CONTINUOUS
  0
LAYER
  2
HIDDEN
 70
     0
 62
     2
  6
ACAD_ISO02W100
  0
LAYER
  2
CENTER
 70
     0
 62
     2
  6
ACAD_ISO08W100
  0
LAYER
  2
DOTS
 70
     0
 62
     1
  6
CONTINUOUS
  0
LAYER
  2
SLIM
 70
     0
 62
     2
  6
CONTINUOUS
  0
ENDTAB
  0
TABLE
  2
STYLE
 70
     2
  0
STYLE
  2
STANDARD
 70
     0
 40
0.0
 41
0.75
 50
0.0
 71
     0
 42
4.0
  3
simplex.shx
  4
bigfont.shx
  0
ENDTAB
  0
TABLE
  2
VIEW
 70
     0
  0
ENDTAB
  0
TABLE
  2
UCS
 70
     0
  0
ENDTAB
  0
TABLE
  2
APPID
 70
    19
  0
APPID
  2
ACAD
 70
     0
  0
APPID
  2
ACADANNOTATIVE
 70
     0
  0
APPID
  2
ACAD_PSEXT
 70
     0
  0
APPID
  2
ACAD_EXEMPT_FROM_CAD_STANDARDS
 70
     0
  0
APPID
  2
ACAECLAYERSTANDARD
 70
     0
  0
APPID
  2
ACAUTHENVIRON
 70
     0
  0
APPID
  2
ACDBDYNAMICBLOCKTRUENAME
 70
     0
  0
APPID
  2
ACDBDYNAMICBLOCKGUID
 70
     0
  0
APPID
  2
ACDBBLOCKREPETAG
 70
     0
  0
APPID
  2
ACDBBLOCKREPBTAG
 70
     0
  0
APPID
  2
ACAD_NAV_VCDISPLAY
 70
     0
  0
APPID
  2
ACAD_DSTYLE_DIMRADIAL_EXTENSION
 70
     0
  0
APPID
  2
ACAD_DSTYLE_DIMJAG
 70
     0
  0
APPID
  2
ACAD_DSTYLE_DIMTALN
 70
     0
  0
APPID
  2
ACADANNOPO
 70
     0
  0
APPID
  2
GRADIENTCOLOR1ACI
 70
     0
  0
APPID
  2
GRADIENTCOLOR2ACI
 70
     0
  0
APPID
  2
CONTENTBLOCKICON
 70
     0
  0
APPID
  2
ACAD_MLEADERVER
 70
     0
  0
ENDTAB
  0
TABLE
  2
DIMSTYLE
 70
     3
  0
DIMSTYLE
  2
STANDARD
 70
     0
  3

  4

  5

  6

  7

 40
1.0
 41
0.18
 42
0.0625
 43
0.38
 44
0.18
 45
0.0
 46
0.0
 47
0.0
 48
0.0
140
0.18
141
0.09
142
0.0
143
25.399999999999999
144
1.0
145
0.0
146
1.0
147
0.09
 71
     0
 72
     0
 73
     1
 74
     1
 75
     0
 76
     0
 77
     0
 78
     0
170
     0
171
     2
172
     0
173
     0
174
     0
175
     0
176
     0
177
     0
178
     0
  0
DIMSTYLE
  2
S10
 70
     0
  3

  4

  5

  6

  7

 40
10.0
 41
2.0
 42
1.0
 43
10.0
 44
1.0
 45
0.0
 46
0.0
 47
0.0
 48
0.0
140
3.2000000000000002
141
0.0
142
0.0
143
25.399999999999999
144
1.0
145
0.0
146
1.0
147
0.9
 71
     0
 72
     0
 73
     0
 74
     0
 75
     0
 76
     0
 77
     1
 78
     8
170
     0
171
     2
172
     1
173
     0
174
     0
175
     0
176
   256
177
   256
178
   256
  0
ENDTAB
  0
ENDSEC
  0
SECTION
  2
BLOCKS
  0
BLOCK
  8
0
  2
$MODEL_SPACE
 70
     0
 10
0.0
 20
0.0
 30
0.0
  3
$MODEL_SPACE
  1

  0
ENDBLK
  5
127A6C
  8
0
  0
BLOCK
 67
     1
  8
0
  2
$PAPER_SPACE
 70
     0
 10
0.0
 20
0.0
 30
0.0
  3
$PAPER_SPACE
  1

  0
ENDBLK
  5
127A68
 67
     1
  8
0
  0
BLOCK
  8
0
  2
_OPEN30
 70
     0
 10
0.0
 20
0.0
 30
0.0
  3
_OPEN30
  1

  0
LINE
  5
202
  8
0
  6
BYBLOCK
 62
     0
 10
-1.0
 20
0.26794919
 30
0.0
 11
0.0
 21
0.0
 31
0.0
  0
LINE
  5
203
  8
0
  6
BYBLOCK
 62
     0
 10
0.0
 20
0.0
 30
0.0
 11
-1.0
 21
-0.26794919
 31
0.0
  0
LINE
  5
204
  8
0
  6
BYBLOCK
 62
     0
 10
0.0
 20
0.0
 30
0.0
 11
-1.0
 21
0.0
 31
0.0
  0
ENDBLK
  5
206
  8
0
  0
ENDSEC
  0
SECTION
  2
ENTITIES
  0
LINE
  5
127450
  8
OBJECT
 10
11918.0
 20
-470.99999999999937
 30
0.0
 11
11918.0
 21
-449.99999999999937
 31
0.0
1001
ACDBBLOCKREPETAG
1070
     1
1071
        0
1005
127450
  0
LINE
  5
127451
  8
OBJECT
 10
11918.0
 20
-449.99999999999937
 30
0.0
 11
12082.0
 21
-449.99999999999937
 31
0.0
1001
ACDBBLOCKREPETAG
1070
     1
1071
        1
1005
127451
  0
LINE
  5
127452
  8
HIDDEN
 10
11943.0
 20
-519.99999999999955
 30
0.0
 11
12057.0
 21
-519.99999999999955
 31
0.0
1001
ACDBBLOCKREPETAG
1070
     1
1071
        2
1005
127452
  0
LINE
  5
127453
  8
OBJECT
 10
12082.0
 20
-470.99999999999937
 30
0.0
 11
11918.0
 21
-470.99999999999937
 31
0.0
1001
ACDBBLOCKREPETAG
1070
     1
1071
        3
1005
127453
  0
LINE
  5
127454
  8
CENTER
 10
12000.0
 20
-434.99999999999949
 30
0.0
 11
12000.0
 21
-799.99999999999955
 31
0.0
1001
ACDBBLOCKREPETAG
1070
     1
1071
        4
1005
127454
  0
LINE
  5
127455
  8
OBJECT
 10
11925.0
 20
-533.99999999999955
 30
0.0
 11
11925.0
 21
-787.99999999999955
 31
0.0
1001
ACDBBLOCKREPETAG
1070
     1
1071
        5
1005
127455
  0
LINE
  5
127456
  8
OBJECT
 10
11928.0
 20
-470.99999999999937
 30
0.0
 11
11928.0
 21
-533.99999999999955
 31
0.0
1001
ACDBBLOCKREPETAG
1070
     1
1071
        6
1005
127456
  0
LINE
  5
127457
  8
OBJECT
 10
12072.0
 20
-533.99999999999955
 30
0.0
 11
12072.0
 21
-470.99999999999937
 31
0.0
1001
ACDBBLOCKREPETAG
1070
     1
1071
        7
1005
127457
  0
LINE
  5
127458
  8
OBJECT
 10
11920.0
 20
-787.99999999999955
 30
0.0
 11
12080.0
 21
-787.99999999999955
 31
0.0
1001
ACDBBLOCKREPETAG
1070
     1
1071
        8
1005
127458
  0
LINE
  5
127459
  8
OBJECT
 10
12080.0
 20
-533.99999999999955
 30
0.0
 11
11925.0
 21
-533.99999999999955
 31
0.0
1001
ACDBBLOCKREPETAG
1070
     1
1071
        9
1005
127459
  0
LINE
  5
12745A
  8
OBJECT
 10
11920.0
 20
-787.99999999999955
 30
0.0
 11
11920.0
 21
-799.99999999999955
 31
0.0
1001
ACDBBLOCKREPETAG
1070
     1
1071
       10
1005
12745A
  0
LINE
  5
12745B
  8
OBJECT
 10
11920.0
 20
-799.99999999999955
 30
0.0
 11
12080.0
 21
-799.99999999999955
 31
0.0
1001
ACDBBLOCKREPETAG
1070
     1
1071
       11
1005
12745B
  0
LINE
  5
12745C
  8
OBJECT
 10
12080.0
 20
-799.99999999999955
 30
0.0
 11
12080.0
 21
-787.99999999999955
 31
0.0
1001
ACDBBLOCKREPETAG
1070
     1
1071
       12
1005
12745C
  0
LINE
  5
12745D
  8
OBJECT
 10
12074.99999999986
 20
-657.99999999985039
 30
0.0
 11
12075.0
 21
-787.99999999999955
 31
0.0
1001
ACDBBLOCKREPETAG
1070
     1
1071
       14
1005
12745D
  0
LINE
  5
12745E
  8
OBJECT
 10
12074.99999080298
 20
-657.99998602702135
 30
0.0
 11
12080.0
 21
-657.99998602702135
 31
0.0
1001
ACDBBLOCKREPETAG
1070
     1
1071
       15
1005
12745E
  0
LINE
  5
12745F
  8
OBJECT
 10
11920.79408171202
 20
-449.99999999999937
 30
0.0
 11
11920.79408171202
 21
-470.99999999999937
 31
0.0
1001
ACDBBLOCKREPETAG
1070
     1
1071
       16
1005
12745F
  0
LINE
  5
127460
  8
OBJECT
 10
11928.737896000001
 20
-449.99999999999937
 30
0.0
 11
11928.737896000001
 21
-470.99999999999937
 31
0.0
1001
ACDBBLOCKREPETAG
1070
     1
1071
       17
1005
127460
  0
LINE
  5
127461
  8
OBJECT
 10
11970.833026
 20
-449.99999999999937
 30
0.0
 11
11970.833026
 21
-470.99999999999937
 31
0.0
1001
ACDBBLOCKREPETAG
1070
     1
1071
       18
1005
127461
  0
LINE
  5
127462
  8
OBJECT
 10
11978.7768389218
 20
-449.99999999999937
 30
0.0
 11
11978.7768389218
 21
-470.99999999999937
 31
0.0
1001
ACDBBLOCKREPETAG
1070
     1
1071
       19
1005
127462
  0
LINE
  5
127463
  8
OBJECT
 10
12082.0
 20
-470.99999999999937
 30
0.0
 11
12082.0
 21
-449.99999999999937
 31
0.0
1001
ACDBBLOCKREPETAG
1070
     1
1071
       20
1005
127463
  0
LINE
  5
127464
  8
OBJECT
 10
12079.205918287969
 20
-449.99999999999937
 30
0.0
 11
12079.205918287969
 21
-470.99999999999937
 31
0.0
1001
ACDBBLOCKREPETAG
1070
     1
1071
       21
1005
127464
  0
LINE
  5
127465
  8
OBJECT
 10
12071.262103999999
 20
-449.99999999999937
 30
0.0
 11
12071.262103999999
 21
-470.99999999999937
 31
0.0
1001
ACDBBLOCKREPETAG
1070
     1
1071
       22
1005
127465
  0
LINE
  5
127466
  8
OBJECT
 10
12029.166974
 20
-449.99999999999937
 30
0.0
 11
12029.166974
 21
-470.99999999999937
 31
0.0
1001
ACDBBLOCKREPETAG
1070
     1
1071
       23
1005
127466
  0
LINE
  5
127467
  8
OBJECT
 10
12021.2231610782
 20
-449.99999999999937
 30
0.0
 11
12021.2231610782
 21
-470.99999999999937
 31
0.0
1001
ACDBBLOCKREPETAG
1070
     1
1071
       24
1005
127467
  0
ARC
  5
127468
  8
OBJECT
 10
12200.687274671671
 20
-649.40809941010718
 30
0.0
 40
170.6350503965856
 50
137.44134459184301
 51
149.91949581337221
1001
ACDBBLOCKREPETAG
1070
     1
1071
       25
1005
127468
  0
ARC
  5
127469
  8
OBJECT
 10
12118.845598704051
 20
-605.88272669536445
 30
0.0
 40
78.072222021763665
 50
147.4551531038293
 51
164.66365997718549
1001
ACDBBLOCKREPETAG
1070
     1
1071
       26
1005
127469
  0
ARC
  5
12746A
  8
OBJECT
 10
12085.755434960871
 20
-595.99999999999955
 30
0.0
 40
43.55353926885617
 50
165.688452300753
 51
194.3115476992468
1001
ACDBBLOCKREPETAG
1070
     1
1071
       27
1005
12746A
  0
ARC
  5
12746B
  8
OBJECT
 10
12200.687274671671
 20
-542.59190058989179
 30
0.0
 40
170.6350503965856
 50
210.08050418662771
 51
222.55865540815699
1001
ACDBBLOCKREPETAG
1070
     1
1071
       28
1005
12746B
  0
ARC
  5
12746C
  8
OBJECT
 10
12118.845598704051
 20
-586.11727330463452
 30
0.0
 40
78.072222021763665
 50
195.33634002281451
 51
212.5448468961705
1001
ACDBBLOCKREPETAG
1070
     1
1071
       29
1005
12746C
  0
POINT
  5
12746D
  8
DOTS
 10
12000.0
 20
-654.99999999999966
 30
0.0
1001
ACDBBLOCKREPETAG
1070
     1
1071
      204
1005
12746D
  0
LINE
  5
12746E
  8
SLIM
 10
11927.30183005652
 20
-155.95484036957669
 30
0.0
 11
11955.954840369581
 21
-127.30183005652241
 31
0.0
1001
GRADIENTCOLOR1ACI
1070
     5
1001
GRADIENTCOLOR2ACI
1070
     2
1001
ACAD
1010
0.0
1020
0.0
1030
0.0
1001
ACDBBLOCKREPETAG
1070
     1
1071
      416
1005
12746E
  0
LINE
  5
12746F
  8
SLIM
 10
11919.48615207084
 20
-172.7507744763318
 30
0.0
 11
11938.29030895727
 21
-153.9466175898965
 31
0.0
1001
GRADIENTCOLOR1ACI
1070
     5
1001
GRADIENTCOLOR2ACI
1070
     2
1001
ACAD
1010
0.0
1020
0.0
1030
0.0
1001
ACDBBLOCKREPETAG
1070
     1
1071
      417
1005
12746F
  0
LINE
  5
127470
  8
SLIM
 10
11953.9466175899
 20
-138.29030895727169
 30
0.0
 11
11972.75077447633
 21
-119.4861520708365
 31
0.0
1001
GRADIENTCOLOR1ACI
1070
     5
1001
GRADIENTCOLOR2ACI
1070
     2
1001
ACAD
1010
0.0
1020
0.0
1030
0.0
1001
ACDBBLOCKREPETAG
1070
     1
1071
      418
1005
127470
  0
LINE
  5
127471
  8
SLIM
 10
11916.35966799338
 20
-184.85751467486031
 30
0.0
 11
11920.236091437009
 21
-180.9810912312297
 31
0.0
1001
GRADIENTCOLOR1ACI
1070
     5
1001
GRADIENTCOLOR2ACI
1070
     2
1001
ACAD
1010
0.0
1020
0.0
1030
0.0
1001
ACDBBLOCKREPETAG
1070
     1
1071
      419
1005
127471
  0
LINE
  5
127472
  8
SLIM
 10
11980.98109123123
 20
-120.2360914370078
 30
0.0
 11
11984.857514674861
 21
-116.359667993377
 31
0.0
1001
GRADIENTCOLOR1ACI
1070
     5
1001
GRADIENTCOLOR2ACI
1070
     2
1001
ACAD
1010
0.0
1020
0.0
1030
0.0
1001
ACDBBLOCKREPETAG
1070
     1
1071
      420
1005
127472
  0
LINE
  5
127473
  8
SLIM
 10
11915.14405758905
 20
-195.0533812002549
 30
0.0
 11
11918.412550338729
 21
-191.78488845057959
 31
0.0
1001
GRADIENTCOLOR1ACI
1070
     5
1001
GRADIENTCOLOR2ACI
1070
     2
1001
ACAD
1010
0.0
1020
0.0
1030
0.0
1001
ACDBBLOCKREPETAG
1070
     1
1071
      421
1005
127473
  0
LINE
  5
127474
  8
SLIM
 10
11991.78488845058
 20
-118.4125503387271
 30
0.0
 11
11995.05338120025
 21
-115.1440575890517
 31
0.0
1001
GRADIENTCOLOR1ACI
1070
     5
1001
GRADIENTCOLOR2ACI
1070
     2
1001
ACAD
1010
0.0
1020
0.0
1030
0.0
1001
ACDBBLOCKREPETAG
1070
     1
1071
      422
1005
127474
  0
LINE
  5
127475
  8
SLIM
 10
11915.097963557469
 20
-204.07973135290339
 30
0.0
 11
11918.00833819905
 21
-201.1693567113285
 31
0.0
1001
GRADIENTCOLOR1ACI
1070
     5
1001
GRADIENTCOLOR2ACI
1070
     2
1001
ACAD
1010
0.0
1020
0.0
1030
0.0
1001
ACDBBLOCKREPETAG
1070
     1
1071
      423
1005
127475
  0
LINE
  5
127476
  8
SLIM
 10
12001.169356711331
 20
-118.0083381990472
 30
0.0
 11
12004.0797313529
 21
-115.0979635574724
 31
0.0
1001
GRADIENTCOLOR1ACI
1070
     5
1001
GRADIENTCOLOR2ACI
1070
     2
1001
ACAD
1010
0.0
1020
0.0
1030
0.0
1001
ACDBBLOCKREPETAG
1070
     1
1071
      424
1005
127476
  0
LINE
  5
127477
  8
SLIM
 10
11915.889972620869
 20
-212.2679784105739
 30
0.0
 11
11918.56326394268
 21
-209.59468708876071
 31
0.0
1001
GRADIENTCOLOR1ACI
1070
     5
1001
GRADIENTCOLOR2ACI
1070
     2
1001
ACAD
1010
0.0
1020
0.0
1030
0.0
1001
ACDBBLOCKREPETAG
1070
     1
1071
      425
1005
127477
  0
LINE
  5
127478
  8
SLIM
 10
12009.59468708876
 20
-118.5632639426843
 30
0.0
 11
12012.267978410569
 21
-115.88997262087101
 31
0.0
1001
GRADIENTCOLOR1ACI
1070
     5
1001
GRADIENTCOLOR2ACI
1070
     2
1001
ACAD
1010
0.0
1020
0.0
1030
0.0
1001
ACDBBLOCKREPETAG
1070
     1
1071
      426
1005
127478
  0
LINE
  5
127479
  8
SLIM
 10
11917.338265695151
 20
-219.7999414573614
 30
0.0
 11
11919.844379359491
 21
-217.29382779302409
 31
0.0
1001
GRADIENTCOLOR1ACI
1070
     5
1001
GRADIENTCOLOR2ACI
1070
     2
1001
ACAD
1010
0.0
1020
0.0
1030
0.0
1001
ACDBBLOCKREPETAG
1070
     1
1071
      427
1005
127479
  0
LINE
  5
12747A
  8
SLIM
 10
12017.293827793021
 20
-119.84437935949001
 30
0.0
 11
12019.799941457361
 21
-117.3382656951527
 31
0.0
1001
GRADIENTCOLOR1ACI
1070
     5
1001
GRADIENTCOLOR2ACI
1070
     2
1001
ACAD
1010
0.0
1020
0.0
1030
0.0
1001
ACDBBLOCKREPETAG
1070
     1
1071
      428
1005
12747A
  0
LINE
  5
12747B
  8
SLIM
 10
11919.331259406301
 20
-226.78720386727881
 30
0.0
 11
11922.844692636791
 21
-223.27377063679211
 31
0.0
1001
GRADIENTCOLOR1ACI
1070
     5
1001
GRADIENTCOLOR2ACI
1070
     2
1001
ACAD
1010
0.0
1020
0.0
1030
0.0
1001
ACDBBLOCKREPETAG
1070
     1
1071
      429
1005
12747B
  0
LINE
  5
12747C
  8
SLIM
 10
12023.27377163679
 20
-122.8446916367926
 30
0.0
 11
12026.787203867279
 21
-119.3312594063045
 31
0.0
1001
GRADIENTCOLOR1ACI
1070
     5
1001
GRADIENTCOLOR2ACI
1070
     2
1001
ACAD
1010
0.0
1020
0.0
1030
0.0
1001
ACDBBLOCKREPETAG
1070
     1
1071
      430
1005
12747C
  0
LINE
  5
12747D
  8
SLIM
 10
11921.79571631862
 20
-233.30300307603281
 30
0.0
 11
11927.334820697321
 21
-227.76389869732679
 31
0.0
1001
GRADIENTCOLOR1ACI
1070
     5
1001
GRADIENTCOLOR2ACI
1070
     2
1001
ACAD
1010
0.0
1020
0.0
1030
0.0
1001
ACDBBLOCKREPETAG
1070
     1
1071
      431
1005
12747D
  0
LINE
  5
12747E
  8
SLIM
 10
12027.76389969732
 20
-127.33481969732929
 30
0.0
 11
12033.303003076029
 21
-121.7957163186195
 31
0.0
1001
GRADIENTCOLOR1ACI
1070
     5
1001
GRADIENTCOLOR2ACI
1070
     2
1001
ACAD
1010
0.0
1020
0.0
1030
0.0
1001
ACDBBLOCKREPETAG
1070
     1
1071
      432
1005
12747E
  0
LINE
  5
12747F
  8
SLIM
 10
11924.681663531341
 20
-239.39731198437761
 30
0.0
 11
11930.63987686439
 21
-233.4390986513296
 31
0.0
1001
GRADIENTCOLOR1ACI
1070
     5
1001
GRADIENTCOLOR2ACI
1070
     2
1001
ACAD
1010
0.0
1020
0.0
1030
0.0
1001
ACDBBLOCKREPETAG
1070
     1
1071
      433
1005
12747F
  0
LINE
  5
127480
  8
SLIM
 10
12033.43909865133
 20
-130.63987686439191
 30
0.0
 11
12039.397311984379
 21
-124.681663531344
 31
0.0
1001
GRADIENTCOLOR1ACI
1070
     5
1001
GRADIENTCOLOR2ACI
1070
     2
1001
ACAD
1010
0.0
1020
0.0
1030
0.0
1001
ACDBBLOCKREPETAG
1070
     1
1071
      434
1005
127480
  0
LINE
  5
127481
  8
SLIM
 10
11927.954461102419
 20
-245.10477053436679
 30
0.0
 11
11933.77500701499
 21
-239.28422462179759
 31
0.0
1001
GRADIENTCOLOR1ACI
1070
     5
1001
GRADIENTCOLOR2ACI
1070
     2
1001
ACAD
1010
0.0
1020
0.0
1030
0.0
1001
ACDBBLOCKREPETAG
1070
     1
1071
      435
1005
127481
  0
LINE
  5
127482
  8
SLIM
 10
12039.284224621801
 20
-133.77500701499301
 30
0.0
 11
12045.10477053437
 21
-127.95446110242381
 31
0.0
1001
GRADIENTCOLOR1ACI
1070
     5
1001
GRADIENTCOLOR2ACI
1070
     2
1001
ACAD
1010
0.0
1020
0.0
1030
0.0
1001
ACDBBLOCKREPETAG
1070
     1
1071
      436
1005
127482
  0
LINE
  5
127483
  8
SLIM
 10
11931.59033196866
 20
-250.44915578919529
 30
0.0
 11
11937.31820758806
 21
-244.72128016980349
 31
0.0
1001
GRADIENTCOLOR1ACI
1070
     5
1001
GRADIENTCOLOR2ACI
1070
     2
1001
ACAD
1010
0.0
1020
0.0
1030
0.0
1001
ACDBBLOCKREPETAG
1070
     1
1071
      437
1005
127483
  0
LINE
  5
127484
  8
SLIM
 10
12044.721280169801
 20
-137.31820758805651
 30
0.0
 11
12050.449155789191
 21
-131.59033196866449
 31
0.0
1001
GRADIENTCOLOR1ACI
1070
     5
1001
GRADIENTCOLOR2ACI
1070
     2
1001
ACAD
1010
0.0
1020
0.0
1030
0.0
1001
ACDBBLOCKREPETAG
1070
     1
1071
      438
1005
127484
  0
LINE
  5
127485
  8
SLIM
 10
11935.573749692519
 20
-255.44599418640331
 30
0.0
 11
11941.24811054159
 21
-249.77163333734029
 31
0.0
1001
GRADIENTCOLOR1ACI
1070
     5
1001
GRADIENTCOLOR2ACI
1070
     2
1001
ACAD
1010
0.0
1020
0.0
1030
0.0
1001
ACDBBLOCKREPETAG
1070
     1
1071
      439
1005
127485
  0
LINE
  5
127486
  8
SLIM
 10
12053.01974387892
 20
-137.99999999999901
 30
0.0
 11
12055.445994186401
 21
-135.57374969252561
 31
0.0
1001
GRADIENTCOLOR1ACI
1070
     5
1001
GRADIENTCOLOR2ACI
1070
     2
1001
ACAD
1010
0.0
1020
0.0
1030
0.0
1001
ACDBBLOCKREPETAG
1070
     1
1071
      440
1005
127486
  0
LINE
  5
127487
  8
SLIM
 10
11939.895923599141
 20
-260.10407640085549
 30
0.0
 11
11945.55277784863
 21
-254.44722215136329
 31
0.0
1001
GRADIENTCOLOR1ACI
1070
     5
1001
GRADIENTCOLOR2ACI
1070
     2
1001
ACAD
1010
0.0
1020
0.0
1030
0.0
1001
ACDBBLOCKREPETAG
1070
     1
1071
      441
1005
127487
  0
LINE
  5
127488
  8
SLIM
 10
11944.55400581359
 20
-264.4262503074724
 30
0.0
 11
11950.228366662661
 21
-258.75188945840949
 31
0.0
1001
GRADIENTCOLOR1ACI
1070
     5
1001
GRADIENTCOLOR2ACI
1070
     2
1001
ACAD
1010
0.0
1020
0.0
1030
0.0
1001
ACDBBLOCKREPETAG
1070
     1
1071
      442
1005
127488
  0
LINE
  5
127489
  8
SLIM
 10
11949.5508442108
 20
-268.40966803133369
 30
0.0
 11
11955.27871983019
 21
-262.68179241194167
 31
0.0
1001
GRADIENTCOLOR1ACI
1070
     5
1001
GRADIENTCOLOR2ACI
1070
     2
1001
ACAD
1010
0.0
1020
0.0
1030
0.0
1001
ACDBBLOCKREPETAG
1070
     1
1071
      443
1005
127489
  0
LINE
  5
12748A
  8
SLIM
 10
11954.89522946563
 20
-272.04553889757432
 30
0.0
 11
11960.715775378199
 21
-266.22499298500497
 31
0.0
1001
GRADIENTCOLOR1ACI
1070
     5
1001
GRADIENTCOLOR2ACI
1070
     2
1001
ACAD
1010
0.0
1020
0.0
1030
0.0
1001
ACDBBLOCKREPETAG
1070
     1
1071
      444
1005
12748A
  0
LINE
  5
12748B
  8
SLIM
 10
11960.602688015621
 20
-275.31833646865419
 30
0.0
 11
11966.56090134867
 21
-269.36012313560622
 31
0.0
1001
GRADIENTCOLOR1ACI
1070
     5
1001
GRADIENTCOLOR2ACI
1070
     2
1001
ACAD
1010
0.0
1020
0.0
1030
0.0
1001
ACDBBLOCKREPETAG
1070
     1
1071
      445
1005
12748B
  0
LINE
  5
12748C
  8
SLIM
 10
11966.69699692396
 20
-278.20428368137863
 30
0.0
 11
11972.236100802669
 21
-272.66517980267162
 31
0.0
1001
GRADIENTCOLOR1ACI
1070
     5
1001
GRADIENTCOLOR2ACI
1070
     2
1001
ACAD
1010
0.0
1020
0.0
1030
0.0
1001
ACDBBLOCKREPETAG
1070
     1
1071
      446
1005
12748C
  0
LINE
  5
12748D
  8
SLIM
 10
11973.212796132721
 20
-280.66874059369371
 30
0.0
 11
11976.72622886321
 21
-277.15530786320562
 31
0.0
1001
GRADIENTCOLOR1ACI
1070
     5
1001
GRADIENTCOLOR2ACI
1070
     2
1001
ACAD
1010
0.0
1020
0.0
1030
0.0
1001
ACDBBLOCKREPETAG
1070
     1
1071
      447
1005
12748D
  0
LINE
  5
12748E
  8
SLIM
 10
11980.200058542639
 20
-282.66173430484548
 30
0.0
 11
11982.70617220697
 21
-280.15562064050812
 31
0.0
1001
GRADIENTCOLOR1ACI
1070
     5
1001
GRADIENTCOLOR2ACI
1070
     2
1001
ACAD
1010
0.0
1020
0.0
1030
0.0
1001
ACDBBLOCKREPETAG
1070
     1
1071
      448
1005
12748E
  0
LINE
  5
12748F
  8
SLIM
 10
11987.73202158942
 20
-284.11002737912702
 30
0.0
 11
11990.40531291124
 21
-281.43673605731391
 31
0.0
1001
GRADIENTCOLOR1ACI
1070
     5
1001
GRADIENTCOLOR2ACI
1070
     2
1001
ACAD
1010
0.0
1020
0.0
1030
0.0
1001
ACDBBLOCKREPETAG
1070
     1
1071
      449
1005
12748F
  0
LINE
  5
127490
  8
SLIM
 10
11995.9202686471
 20
-284.90203644252568
 30
0.0
 11
11998.83064328866
 21
-281.99166180095108
 31
0.0
1001
GRADIENTCOLOR1ACI
1070
     5
1001
GRADIENTCOLOR2ACI
1070
     2
1001
ACAD
1010
0.0
1020
0.0
1030
0.0
1001
ACDBBLOCKREPETAG
1070
     1
1071
      450
1005
127490
  0
LINE
  5
127491
  8
SLIM
 10
12004.94661879974
 20
-284.8559424109464
 30
0.0
 11
12008.21511154942
 21
-281.58744966127108
 31
0.0
1001
GRADIENTCOLOR1ACI
1070
     5
1001
GRADIENTCOLOR2ACI
1070
     2
1001
ACAD
1010
0.0
1020
0.0
1030
0.0
1001
ACDBBLOCKREPETAG
1070
     1
1071
      451
1005
127491
  0
LINE
  5
127492
  8
SLIM
 10
12015.142485325139
 20
-283.64033200662112
 30
0.0
 11
12019.01890876877
 21
-279.76390856299031
 31
0.0
1001
GRADIENTCOLOR1ACI
1070
     5
1001
GRADIENTCOLOR2ACI
1070
     2
1001
ACAD
1010
0.0
1020
0.0
1030
0.0
1001
ACDBBLOCKREPETAG
1070
     1
1071
      452
1005
127492
  0
LINE
  5
127493
  8
SLIM
 10
12027.249225523659
 20
-280.51384792916173
 30
0.0
 11
12045.76307345283
 21
-261.99999999999909
 31
0.0
1001
GRADIENTCOLOR1ACI
1070
     5
1001
GRADIENTCOLOR2ACI
1070
     2
1001
ACAD
1010
0.0
1020
0.0
1030
0.0
1001
ACDBBLOCKREPETAG
1070
     1
1071
      453
1005
127493
  0
LINE
  5
127494
  8
SLIM
 10
12044.045159630419
 20
-272.6981699434757
 30
0.0
 11
12054.743329573899
 21
-261.99999999999909
 31
0.0
1001
GRADIENTCOLOR1ACI
1070
     5
1001
GRADIENTCOLOR2ACI
1070
     2
1001
ACAD
1010
0.0
1020
0.0
1030
0.0
1001
ACDBBLOCKREPETAG
1070
     1
1071
      454
1005
127494
  0
ARC
  5
127495
  8
OBJECT
 10
12000.0
 20
-199.99999999999909
 30
0.0
 40
77.0
 50
202.25886899982271
 51
247.7411309999043
1001
ACDBBLOCKREPETAG
1070
     1
1071
      212
1005
127495
  0
ARC
  5
127496
  8
OBJECT
 10
12000.0
 20
-199.99999999999909
 30
0.0
 40
77.0
 50
292.25886900009567
 51
337.74113100017729
1001
ACDBBLOCKREPETAG
1070
     1
1071
      215
1005
127496
  0
ARC
  5
127497
  8
OBJECT
 10
12000.0
 20
-199.99999999999909
 30
0.0
 40
77.0
 50
112.2588690000957
 51
157.74113100017721
1001
ACDBBLOCKREPETAG
1070
     1
1071
      216
1005
127497
  0
ARC
  5
127498
  8
OBJECT
 10
12000.0
 20
-199.99999999999909
 30
0.0
 40
77.0
 50
22.25886899982272
 51
67.741130999904328
1001
ACDBBLOCKREPETAG
1070
     1
1071
      220
1005
127498
  0
CIRCLE
  5
127499
  8
OBJECT
 10
12000.0
 20
-199.99999999999909
 30
0.0
 40
70.0
1001
ACDBBLOCKREPETAG
1070
     1
1071
      221
1005
127499
  0
LINE
  5
12749A
  8
OBJECT
 10
12029.16697499998
 20
-271.26210499999888
 30
0.0
 11
12021.223162444099
 21
-279.20591755589248
 31
0.0
1001
ACDBBLOCKREPETAG
1070
     1
1071
      222
1005
12749A
  0
LINE
  5
12749B
  8
OBJECT
 10
11970.833026
 20
-271.26210499999888
 30
0.0
 11
11978.77683892192
 21
-279.20591792191681
 31
0.0
1001
ACDBBLOCKREPETAG
1070
     1
1071
      223
1005
12749B
  0
ARC
  5
12749C
  8
OBJECT
 10
12000.0
 20
-199.99999999999909
 30
0.0
 40
82.000000000000014
 50
255.00000044864029
 51
285.00000053969478
1001
ACDBBLOCKREPETAG
1070
     1
1071
      224
1005
12749C
  0
LINE
  5
12749D
  8
OBJECT
 10
11928.737896000001
 20
-229.1669739999989
 30
0.0
 11
11920.794081712051
 21
-221.2231597120545
 31
0.0
1001
ACDBBLOCKREPETAG
1070
     1
1071
      225
1005
12749D
  0
ARC
  5
12749E
  8
OBJECT
 10
12000.0
 20
-199.99999999999909
 30
0.0
 40
82.000000000000014
 50
165.0000004487506
 51
194.9999985630001
1001
ACDBBLOCKREPETAG
1070
     1
1071
      226
1005
12749E
  0
LINE
  5
12749F
  8
OBJECT
 10
11970.833026
 20
-128.7378949999993
 30
0.0
 11
11978.77683892192
 21
-120.7940820780795
 31
0.0
1001
ACDBBLOCKREPETAG
1070
     1
1071
      227
1005
12749F
  0
ARC
  5
1274A0
  8
OBJECT
 10
12000.0
 20
-199.99999999999909
 30
0.0
 40
82.000000000000014
 50
74.999999460305204
 51
104.99999955135971
1001
ACDBBLOCKREPETAG
1070
     1
1071
      228
1005
1274A0
  0
LINE
  5
1274A1
  8
OBJECT
 10
12029.16697499998
 20
-128.7378949999993
 30
0.0
 11
12021.223162444099
 21
-120.79408244410391
 31
0.0
1001
ACDBBLOCKREPETAG
1070
     1
1071
      229
1005
1274A1
  0
LINE
  5
1274A2
  8
OBJECT
 10
11962.402059
 20
-161.93893300000039
 30
0.0
 11
12037.08411027142
 21
-174.5180316957439
 31
0.0
1001
ACDBBLOCKREPETAG
1070
     1
1071
      230
1005
1274A2
  0
LINE
  5
1274A3
  8
OBJECT
 10
12044.093656999999
 20
-169.70149399999991
 30
0.0
 11
12037.08411027142
 21
-174.5180316957439
 31
0.0
1001
ACDBBLOCKREPETAG
1070
     1
1071
      231
1005
1274A3
  0
LINE
  5
1274A4
  8
OBJECT
 10
11928.737896000001
 20
-170.833024999999
 30
0.0
 11
11920.79408207808
 21
-178.77683892191911
 31
0.0
1001
ACDBBLOCKREPETAG
1070
     1
1071
      232
1005
1274A4
  0
CIRCLE
  5
1274A5
  8
OBJECT
 10
12000.0
 20
-199.99999999999909
 30
0.0
 40
53.500000000000007
1001
ACDBBLOCKREPETAG
1070
     1
1071
      233
1005
1274A5
  0
ARC
  5
1274A6
  8
OBJECT
 10
12000.0
 20
-199.99999999999909
 30
0.0
 40
50.0
 50
131.7018096435265
 51
168.52376955955751
1001
ACDBBLOCKREPETAG
1070
     1
1071
      234
1005
1274A6
  0
ARC
  5
1274A7
  8
OBJECT
 10
12000.0
 20
-199.99999999999909
 30
0.0
 40
50.0
 50
238.8199429999047
 51
34.494506250115712
1001
ACDBBLOCKREPETAG
1070
     1
1071
      235
1005
1274A7
  0
LINE
  5
1274A8
  8
OBJECT
 10
12071.262104999991
 20
-170.833024999999
 30
0.0
 11
12079.20591755589
 21
-178.77683755589439
 31
0.0
1001
ACDBBLOCKREPETAG
1070
     1
1071
      236
1005
1274A8
  0
ARC
  5
1274A9
  8
OBJECT
 10
12000.0
 20
-199.99999999999909
 30
0.0
 40
82.000000000000014
 50
345.0000004487506
 51
15.000000539345651
1001
ACDBBLOCKREPETAG
1070
     1
1071
      237
1005
1274A9
  0
LINE
  5
1274AA
  8
OBJECT
 10
12071.262104999991
 20
-229.1669739999989
 30
0.0
 11
12079.20591792192
 21
-221.2231610780791
 31
0.0
1001
ACDBBLOCKREPETAG
1070
     1
1071
      238
1005
1274AA
  0
LINE
  5
1274AB
  8
OBJECT
 10
12045.661800227321
 20
-137.99999999999909
 30
0.0
 11
12080.0
 21
-137.99999999999909
 31
0.0
1001
ACDBBLOCKREPETAG
1070
     1
1071
      239
1005
1274AB
  0
LINE
  5
1274AC
  8
OBJECT
 10
12045.661800227321
 20
-261.99999999999909
 30
0.0
 11
12080.0
 21
-261.99999999999909
 31
0.0
1001
ACDBBLOCKREPETAG
1070
     1
1071
      240
1005
1274AC
  0
LINE
  5
1274AD
  8
CENTER
 10
12080.0
 20
-199.99999999999909
 30
0.0
 11
11900.00189721606
 21
-199.99999999999909
 31
0.0
1001
ACDBBLOCKREPETAG
1070
     1
1071
      249
1005
1274AD
  0
LINE
  5
1274AE
  8
CENTER
 10
12000.0
 20
-299.99999999999898
 30
0.0
 11
12000.0
 21
-99.999999999999091
 31
0.0
1001
ACDBBLOCKREPETAG
1070
     1
1071
      250
1005
1274AE
  0
ARC
  5
1274AF
  8
OBJECT
 10
12000.0
 20
-199.99999999999909
 30
0.0
 40
85.0
 50
46.837102859852038
 51
313.16289714014778
1001
ACDBBLOCKREPETAG
1070
     1
1071
      251
1005
1274AF
  0
LINE
  5
1274B0
  8
OBJECT
 10
11946.69219414375
 20
-195.46638161316051
 30
0.0
 11
11970.45403438563
 21
-193.79865146436981
 31
0.0
1001
ACDBBLOCKREPETAG
1070
     1
1071
      340
1005
1274B0
  0
LINE
  5
1274B1
  8
OBJECT
 10
11947.385434727061
 20
-190.305593971766
 30
0.0
 11
11966.9884352629
 21
-188.92975272660161
 31
0.0
1001
ACDBBLOCKREPETAG
1070
     1
1071
      341
1005
1274B1
  0
LINE
  5
1274B2
  8
OBJECT
 10
11974.11353747527
 20
-242.77722592637201
 30
0.0
 11
11982.136698837399
 21
-234.1690987954708
 31
0.0
1001
ACDBBLOCKREPETAG
1070
     1
1071
      342
1005
1274B2
  0
ARC
  5
1274B3
  8
OBJECT
 10
11982.116007124539
 20
-183.28188966318251
 30
0.0
 40
60.031113246032611
 50
254.07020130412749
 51
262.33936106086588
1001
ACDBBLOCKREPETAG
1070
     1
1071
      343
1005
1274B3
  0
LINE
  5
1274B4
  8
OBJECT
 10
11977.612599732511
 20
-197.67495277149911
 30
0.0
 11
11982.136698837399
 21
-234.1690987954708
 31
0.0
1001
ACDBBLOCKREPETAG
1070
     1
1071
      344
1005
1274B4
  0
ARC
  5
1274B5
  8
OBJECT
 10
11967.688565345639
 20
-198.90521351131881
 30
0.0
 40
10.0
 50
7.0667782929989968
 51
94.014734370532395
1001
ACDBBLOCKREPETAG
1070
     1
1071
      345
1005
1274B5
  0
ARC
  5
1274B6
  8
OBJECT
 10
11970.94412537097
 20
-200.78147401875589
 30
0.0
 40
7.0
 50
7.0667782929989968
 51
94.014733775014648
1001
ACDBBLOCKREPETAG
1070
     1
1071
      346
1005
1274B6
  0
POINT
  5
1274B7
  8
DOTS
 10
12000.0
 20
-199.99999999999909
 30
0.0
 50
270.0
1001
ACDBBLOCKREPETAG
1070
     1
1071
      349
1005
1274B7
  0
LINE
  5
1274B8
  8
OBJECT
 10
12212.99999999998
 20
-453.0000000000008
 30
0.0
 11
12219.99999999998
 21
-453.0000000000008
 31
0.0
1001
ACDBBLOCKREPETAG
1070
     1
1071
      106
1005
1274B8
  0
LINE
  5
1274B9
  8
OBJECT
 10
12219.99999999998
 20
-453.0000000000008
 30
0.0
 11
12219.99999999998
 21
-577.0000000000008
 31
0.0
1001
ACDBBLOCKREPETAG
1070
     1
1071
      107
1005
1274B9
  0
LINE
  5
1274BA
  8
OBJECT
 10
12085.99999999998
 20
-553.3502637757274
 30
0.0
 11
12085.99999999998
 21
-655.00000000000068
 31
0.0
1001
ACDBBLOCKREPETAG
1070
     1
1071
      108
1005
1274BA
  0
LINE
  5
1274BB
  8
OBJECT
 10
12219.99999999998
 20
-577.0000000000008
 30
0.0
 11
12212.99999999998
 21
-577.0000000000008
 31
0.0
1001
ACDBBLOCKREPETAG
1070
     1
1071
      109
1005
1274BB
  0
LINE
  5
1274BC
  8
OBJECT
 10
12212.99999999998
 20
-577.0000000000008
 30
0.0
 11
12212.99999999998
 21
-453.0000000000008
 31
0.0
1001
ACDBBLOCKREPETAG
1070
     1
1071
      110
1005
1274BC
  0
LINE
  5
1274BD
  8
CENTER
 10
12144.99999999998
 20
-515.0000000000008
 30
0.0
 11
12234.99999999998
 21
-515.0000000000008
 31
0.0
1001
ACDBBLOCKREPETAG
1070
     1
1071
      111
1005
1274BD
  0
LINE
  5
1274BE
  8
OBJECT
 10
12079.99999999998
 20
-658.0
 30
0.0
 11
12082.99999999998
 21
-658.0000000000008
 31
0.0
1001
ACDBBLOCKREPETAG
1070
     1
1071
      112
1005
1274BE
  0
ARC
  5
1274BF
  8
OBJECT
 10
12082.99999999998
 20
-655.00000000000068
 30
0.0
 40
3.0
 50
270.0
 51
0.0
1001
ACDBBLOCKREPETAG
1070
     1
1071
      113
1005
1274BF
  0
LINE
  5
1274C0
  8
OBJECT
 10
12212.99999999998
 20
-456.0000000000008
 30
0.0
 11
12176.99999999998
 21
-456.0000000000008
 31
0.0
1001
ACDBBLOCKREPETAG
1070
     1
1071
      114
1005
1274C0
  0
LINE
  5
1274C1
  8
OBJECT
 10
12176.99999999998
 20
-456.0000000000008
 30
0.0
 11
12176.99999999998
 21
-553.15756805667843
 31
0.0
1001
ACDBBLOCKREPETAG
1070
     1
1071
      115
1005
1274C1
  0
LINE
  5
1274C2
  8
OBJECT
 10
12172.99999999998
 20
-460.5000000000008
 30
0.0
 11
12172.99999999998
 21
-545.74491827928705
 31
0.0
1001
ACDBBLOCKREPETAG
1070
     1
1071
      116
1005
1274C2
  0
LINE
  5
1274C3
  8
OBJECT
 10
12172.99999999998
 20
-460.5000000000008
 30
0.0
 11
12159.99999999998
 21
-460.5000000000008
 31
0.0
1001
ACDBBLOCKREPETAG
1070
     1
1071
      117
1005
1274C3
  0
LINE
  5
1274C4
  8
OBJECT
 10
12168.656316825471
 20
-574.0000000000008
 30
0.0
 11
12212.99999999998
 21
-574.0000000000008
 31
0.0
1001
ACDBBLOCKREPETAG
1070
     1
1071
      118
1005
1274C4
  0
LINE
  5
1274C5
  8
OBJECT
 10
12176.99999999998
 20
-456.0000000000008
 30
0.0
 11
12172.99999999998
 21
-460.5000000000008
 31
0.0
1001
ACDBBLOCKREPETAG
1070
     1
1071
      119
1005
1274C5
  0
LINE
  5
1274C6
  8
OBJECT
 10
12159.99999999998
 20
-460.5000000000008
 30
0.0
 11
12159.99999999998
 21
-545.74491827928784
 31
0.0
1001
ACDBBLOCKREPETAG
1070
     1
1071
      120
1005
1274C6
  0
ARC
  5
1274C7
  8
OBJECT
 10
12091.99999999998
 20
-537.27386365609345
 30
0.0
 40
85.0
 50
308.59099323720869
 51
334.4008612781347
1001
ACDBBLOCKREPETAG
1070
     1
1071
      121
1005
1274C7
  0
ARC
  5
1274C8
  8
OBJECT
 10
12162.799999999979
 20
-555.00000000000068
 30
0.0
 40
85.0
 50
91.887731891831123
 51
160.07406787456929
1001
ACDBBLOCKREPETAG
1070
     1
1071
      122
1005
1274C8
  0
LINE
  5
1274C9
  8
OBJECT
 10
12085.99999999998
 20
-650.81075719270927
 30
0.0
 11
12145.0193225436
 21
-603.71143914629465
 31
0.0
1001
ACDBBLOCKREPETAG
1070
     1
1071
      123
1005
1274C9
  0
LINE
  5
1274CA
  8
OBJECT
 10
12172.99999999998
 20
-545.74491827928705
 30
0.0
 11
12159.99999999998
 21
-545.74491827928784
 31
0.0
1001
ACDBBLOCKREPETAG
1070
     1
1071
      124
1005
1274CA
  0
LINE
  5
1274CB
  8
OBJECT
 10
12176.99999999998
 20
-553.15756805667843
 30
0.0
 11
12172.99999999998
 21
-545.74491827928705
 31
0.0
1001
ACDBBLOCKREPETAG
1070
     1
1071
      125
1005
1274CB
  0
LINE
  5
1274CC
  8
OBJECT
 10
12080.00000000002
 20
-534.0
 30
0.0
 11
12082.888612159621
 21
-526.03156729425325
 31
0.0
1001
ACDBBLOCKREPETAG
1070
     1
1071
      126
1005
1274CC
  0
LINE
  5
1274CD
  8
OBJECT
 10
12080.00000000002
 20
-534.0
 30
0.0
 11
12085.99999999998
 21
-553.3502637757274
 31
0.0
1001
ACDBBLOCKREPETAG
1070
     1
1071
      127
1005
1274CD
  0
LINE
  5
1274CE
  8
HIDDEN
 10
12167.99999999998
 20
-470.5000000000008
 30
0.0
 11
12167.99999999998
 21
-559.50000000000068
 31
0.0
1001
ACDBBLOCKREPETAG
1070
     1
1071
      129
1005
1274CE
  0
LINE
  5
1274CF
  8
OBJECT
 10
12212.99999999998
 20
-137.99999999999909
 30
0.0
 11
12219.99999999998
 21
-137.99999999999909
 31
0.0
1001
ACDBBLOCKREPETAG
1070
     1
1071
      110
1005
1274CF
  0
LINE
  5
1274D0
  8
OBJECT
 10
12219.99999999998
 20
-137.99999999999909
 30
0.0
 11
12219.99999999998
 21
-261.99999999999909
 31
0.0
1001
ACDBBLOCKREPETAG
1070
     1
1071
      111
1005
1274D0
  0
LINE
  5
1274D1
  8
OBJECT
 10
12219.99999999998
 20
-261.99999999999909
 30
0.0
 11
12212.99999999998
 21
-261.99999999999909
 31
0.0
1001
ACDBBLOCKREPETAG
1070
     1
1071
      112
1005
1274D1
  0
LINE
  5
1274D2
  8
OBJECT
 10
12212.99999999998
 20
-261.99999999999909
 30
0.0
 11
12212.99999999998
 21
-137.99999999999909
 31
0.0
1001
ACDBBLOCKREPETAG
1070
     1
1071
      113
1005
1274D2
  0
LINE
  5
1274D3
  8
CENTER
 10
12234.99999999998
 20
-199.99999999999909
 30
0.0
 11
12080.0
 21
-199.99999999999909
 31
0.0
1001
ACDBBLOCKREPETAG
1070
     1
1071
      114
1005
1274D3
  0
LINE
  5
1274D4
  8
OBJECT
 10
12159.999974964179
 20
-245.0000000000027
 30
0.0
 11
12086.0
 21
-244.99999999999909
 31
0.0
1001
ACDBBLOCKREPETAG
1070
     1
1071
      115
1005
1274D4
  0
LINE
  5
1274D5
  8
OBJECT
 10
12159.999974964179
 20
-154.99999999999909
 30
0.0
 11
12086.0
 21
-154.99999999999909
 31
0.0
1001
ACDBBLOCKREPETAG
1070
     1
1071
      116
1005
1274D5
  0
LINE
  5
1274D6
  8
OBJECT
 10
12212.99999999998
 20
-140.99999999999909
 30
0.0
 11
12176.99999999998
 21
-140.99999999999909
 31
0.0
1001
ACDBBLOCKREPETAG
1070
     1
1071
      117
1005
1274D6
  0
LINE
  5
1274D7
  8
OBJECT
 10
12176.99999999998
 20
-140.99999999999909
 30
0.0
 11
12176.99999999998
 21
-258.99999999999909
 31
0.0
1001
ACDBBLOCKREPETAG
1070
     1
1071
      118
1005
1274D7
  0
LINE
  5
1274D8
  8
OBJECT
 10
12176.99999999998
 20
-258.99999999999909
 30
0.0
 11
12212.99999999998
 21
-258.99999999999909
 31
0.0
1001
ACDBBLOCKREPETAG
1070
     1
1071
      119
1005
1274D8
  0
LINE
  5
1274D9
  8
OBJECT
 10
12172.99999999998
 20
-145.49999999999909
 30
0.0
 11
12159.99999999998
 21
-145.49999999999909
 31
0.0
1001
ACDBBLOCKREPETAG
1070
     1
1071
      120
1005
1274D9
  0
LINE
  5
1274DA
  8
OBJECT
 10
12159.99999999998
 20
-254.49999999999909
 30
0.0
 11
12172.99999999998
 21
-254.49999999999909
 31
0.0
1001
ACDBBLOCKREPETAG
1070
     1
1071
      121
1005
1274DA
  0
LINE
  5
1274DB
  8
OBJECT
 10
12172.99999999998
 20
-254.49999999999909
 30
0.0
 11
12172.99999999998
 21
-145.49999999999909
 31
0.0
1001
ACDBBLOCKREPETAG
1070
     1
1071
      122
1005
1274DB
  0
LINE
  5
1274DC
  8
OBJECT
 10
12176.99999999998
 20
-140.99999999999909
 30
0.0
 11
12172.99999999998
 21
-145.49999999999909
 31
0.0
1001
ACDBBLOCKREPETAG
1070
     1
1071
      123
1005
1274DC
  0
LINE
  5
1274DD
  8
OBJECT
 10
12176.99999999998
 20
-258.99999999999909
 30
0.0
 11
12172.99999999998
 21
-254.49999999999909
 31
0.0
1001
ACDBBLOCKREPETAG
1070
     1
1071
      124
1005
1274DD
  0
LINE
  5
1274DE
  8
OBJECT
 10
12083.0
 20
-137.99999999999909
 30
0.0
 11
12080.0
 21
-137.99999999999909
 31
0.0
1001
ACDBBLOCKREPETAG
1070
     1
1071
      125
1005
1274DE
  0
ARC
  5
1274DF
  8
OBJECT
 10
12083.0
 20
-140.99999999999909
 30
0.0
 40
3.0
 50
0.0
 51
90.0
1001
ACDBBLOCKREPETAG
1070
     1
1071
      126
1005
1274DF
  0
LINE
  5
1274E0
  8
OBJECT
 10
12080.0
 20
-261.99999999999909
 30
0.0
 11
12083.0
 21
-261.99999999999909
 31
0.0
1001
ACDBBLOCKREPETAG
1070
     1
1071
      127
1005
1274E0
  0
ARC
  5
1274E1
  8
OBJECT
 10
12083.0
 20
-258.99999999999909
 30
0.0
 40
3.0
 50
270.0
 51
0.0
1001
ACDBBLOCKREPETAG
1070
     1
1071
      128
1005
1274E1
  0
LINE
  5
1274E2
  8
OBJECT
 10
12086.0
 20
-258.99999999999909
 30
0.0
 11
12086.0
 21
-222.44994432063581
 31
0.0
1001
ACDBBLOCKREPETAG
1070
     1
1071
      129
1005
1274E2
  0
LINE
  5
1274E3
  8
OBJECT
 10
12086.0
 20
-177.55005567935859
 30
0.0
 11
12086.0
 21
-140.99999999999909
 31
0.0
1001
ACDBBLOCKREPETAG
1070
     1
1071
      130
1005
1274E3
  0
LINE
  5
1274E4
  8
HIDDEN
 10
12167.99999999998
 20
-155.49999999999909
 30
0.0
 11
12167.99999999998
 21
-244.49999999999909
 31
0.0
1001
ACDBBLOCKREPETAG
1070
     1
1071
      131
1005
1274E4
  0
LINE
  5
1274E5
  8
OBJECT
 10
12159.999974964179
 20
-254.4999509238105
 30
0.0
 11
12159.999974964179
 21
-145.4999509238105
 31
0.0
1001
ACDBBLOCKREPETAG
1070
     1
1071
      133
1005
1274E5
  0
ARC
  5
1274E6
  8
OBJECT
 10
12125.0
 20
-199.99999999999909
 30
0.0
 40
45.000000000000547
 50
90.0
 51
166.2158024759261
1001
ACDBBLOCKREPETAG
1070
     1
1071
      134
1005
1274E6
  0
ARC
  5
1274E7
  8
OBJECT
 10
12125.0
 20
-199.99999999999909
 30
0.0
 40
45.000000000000547
 50
193.78421279332531
 51
270.0
1001
ACDBBLOCKREPETAG
1070
     1
1071
      402
1005
1274E7
  0
LINE
  5
1274E8
  8
OBJECT
 10
9918.0
 20
-470.99999999999937
 30
0.0
 11
9918.0
 21
-449.99999999999937
 31
0.0
1001
ACDBBLOCKREPETAG
1070
     1
1071
        0
1005
1274E8
  0
LINE
  5
1274E9
  8
OBJECT
 10
9918.0
 20
-449.99999999999937
 30
0.0
 11
10082.0
 21
-449.99999999999937
 31
0.0
1001
ACDBBLOCKREPETAG
1070
     1
1071
        1
1005
1274E9
  0
LINE
  5
1274EA
  8
HIDDEN
 10
9943.0
 20
-519.99999999999955
 30
0.0
 11
10057.0
 21
-519.99999999999955
 31
0.0
1001
ACDBBLOCKREPETAG
1070
     1
1071
        2
1005
1274EA
  0
LINE
  5
1274EB
  8
OBJECT
 10
10082.0
 20
-470.99999999999937
 30
0.0
 11
9918.0
 21
-470.99999999999937
 31
0.0
1001
ACDBBLOCKREPETAG
1070
     1
1071
        3
1005
1274EB
  0
LINE
  5
1274EC
  8
CENTER
 10
10000.0
 20
-434.99999999999949
 30
0.0
 11
10000.0
 21
-799.99999999999955
 31
0.0
1001
ACDBBLOCKREPETAG
1070
     1
1071
        4
1005
1274EC
  0
LINE
  5
1274ED
  8
OBJECT
 10
9925.0
 20
-533.99999999999955
 30
0.0
 11
9925.0
 21
-787.99999999999955
 31
0.0
1001
ACDBBLOCKREPETAG
1070
     1
1071
        5
1005
1274ED
  0
LINE
  5
1274EE
  8
OBJECT
 10
9928.0
 20
-470.99999999999937
 30
0.0
 11
9928.0
 21
-533.99999999999955
 31
0.0
1001
ACDBBLOCKREPETAG
1070
     1
1071
        6
1005
1274EE
  0
LINE
  5
1274EF
  8
OBJECT
 10
10072.0
 20
-533.99999999999955
 30
0.0
 11
10072.0
 21
-470.99999999999937
 31
0.0
1001
ACDBBLOCKREPETAG
1070
     1
1071
        7
1005
1274EF
  0
LINE
  5
1274F0
  8
OBJECT
 10
9920.0
 20
-787.99999999999955
 30
0.0
 11
10080.0
 21
-787.99999999999955
 31
0.0
1001
ACDBBLOCKREPETAG
1070
     1
1071
        8
1005
1274F0
  0
LINE
  5
1274F1
  8
OBJECT
 10
10080.0
 20
-533.99999999999955
 30
0.0
 11
9925.0
 21
-533.99999999999955
 31
0.0
1001
ACDBBLOCKREPETAG
1070
     1
1071
        9
1005
1274F1
  0
LINE
  5
1274F2
  8
OBJECT
 10
9920.0
 20
-787.99999999999955
 30
0.0
 11
9920.0
 21
-799.99999999999955
 31
0.0
1001
ACDBBLOCKREPETAG
1070
     1
1071
       10
1005
1274F2
  0
LINE
  5
1274F3
  8
OBJECT
 10
9920.0
 20
-799.99999999999955
 30
0.0
 11
10080.0
 21
-799.99999999999955
 31
0.0
1001
ACDBBLOCKREPETAG
1070
     1
1071
       11
1005
1274F3
  0
LINE
  5
1274F4
  8
OBJECT
 10
10080.0
 20
-799.99999999999955
 30
0.0
 11
10080.0
 21
-787.99999999999955
 31
0.0
1001
ACDBBLOCKREPETAG
1070
     1
1071
       12
1005
1274F4
  0
LINE
  5
1274F5
  8
OBJECT
 10
10074.99999999986
 20
-657.99999999985039
 30
0.0
 11
10075.0
 21
-787.99999999999955
 31
0.0
1001
ACDBBLOCKREPETAG
1070
     1
1071
       14
1005
1274F5
  0
LINE
  5
1274F6
  8
OBJECT
 10
10074.99999080298
 20
-657.99998602702135
 30
0.0
 11
10080.0
 21
-657.99998602702135
 31
0.0
1001
ACDBBLOCKREPETAG
1070
     1
1071
       15
1005
1274F6
  0
LINE
  5
1274F7
  8
OBJECT
 10
9920.7940817120234
 20
-449.99999999999937
 30
0.0
 11
9920.7940817120234
 21
-470.99999999999937
 31
0.0
1001
ACDBBLOCKREPETAG
1070
     1
1071
       16
1005
1274F7
  0
LINE
  5
1274F8
  8
OBJECT
 10
9928.7378959999969
 20
-449.99999999999937
 30
0.0
 11
9928.7378959999969
 21
-470.99999999999937
 31
0.0
1001
ACDBBLOCKREPETAG
1070
     1
1071
       17
1005
1274F8
  0
LINE
  5
1274F9
  8
OBJECT
 10
9970.8330260000002
 20
-449.99999999999937
 30
0.0
 11
9970.8330260000002
 21
-470.99999999999937
 31
0.0
1001
ACDBBLOCKREPETAG
1070
     1
1071
       18
1005
1274F9
  0
LINE
  5
1274FA
  8
OBJECT
 10
9978.7768389218036
 20
-449.99999999999937
 30
0.0
 11
9978.7768389218036
 21
-470.99999999999937
 31
0.0
1001
ACDBBLOCKREPETAG
1070
     1
1071
       19
1005
1274FA
  0
LINE
  5
1274FB
  8
OBJECT
 10
10082.0
 20
-470.99999999999937
 30
0.0
 11
10082.0
 21
-449.99999999999937
 31
0.0
1001
ACDBBLOCKREPETAG
1070
     1
1071
       20
1005
1274FB
  0
LINE
  5
1274FC
  8
OBJECT
 10
10079.205918287969
 20
-449.99999999999937
 30
0.0
 11
10079.205918287969
 21
-470.99999999999937
 31
0.0
1001
ACDBBLOCKREPETAG
1070
     1
1071
       21
1005
1274FC
  0
LINE
  5
1274FD
  8
OBJECT
 10
10071.262103999999
 20
-449.99999999999937
 30
0.0
 11
10071.262103999999
 21
-470.99999999999937
 31
0.0
1001
ACDBBLOCKREPETAG
1070
     1
1071
       22
1005
1274FD
  0
LINE
  5
1274FE
  8
OBJECT
 10
10029.166974
 20
-449.99999999999937
 30
0.0
 11
10029.166974
 21
-470.99999999999937
 31
0.0
1001
ACDBBLOCKREPETAG
1070
     1
1071
       23
1005
1274FE
  0
LINE
  5
1274FF
  8
OBJECT
 10
10021.2231610782
 20
-449.99999999999937
 30
0.0
 11
10021.2231610782
 21
-470.99999999999937
 31
0.0
1001
ACDBBLOCKREPETAG
1070
     1
1071
       24
1005
1274FF
  0
ARC
  5
127500
  8
OBJECT
 10
10200.687274671671
 20
-649.40809941010718
 30
0.0
 40
170.6350503965856
 50
137.44134459184301
 51
149.91949581337221
1001
ACDBBLOCKREPETAG
1070
     1
1071
       25
1005
127500
  0
ARC
  5
127501
  8
OBJECT
 10
10118.845598704051
 20
-605.88272669536445
 30
0.0
 40
78.072222021763665
 50
147.4551531038293
 51
164.66365997718549
1001
ACDBBLOCKREPETAG
1070
     1
1071
       26
1005
127501
  0
ARC
  5
127502
  8
OBJECT
 10
10085.755434960871
 20
-595.99999999999955
 30
0.0
 40
43.55353926885617
 50
165.688452300753
 51
194.3115476992468
1001
ACDBBLOCKREPETAG
1070
     1
1071
       27
1005
127502
  0
ARC
  5
127503
  8
OBJECT
 10
10200.687274671671
 20
-542.59190058989179
 30
0.0
 40
170.6350503965856
 50
210.08050418662771
 51
222.55865540815699
1001
ACDBBLOCKREPETAG
1070
     1
1071
       28
1005
127503
  0
ARC
  5
127504
  8
OBJECT
 10
10118.845598704051
 20
-586.11727330463452
 30
0.0
 40
78.072222021763665
 50
195.33634002281451
 51
212.5448468961705
1001
ACDBBLOCKREPETAG
1070
     1
1071
       29
1005
127504
  0
POINT
  5
127505
  8
DOTS
 10
10000.0
 20
-654.99999999999966
 30
0.0
1001
ACDBBLOCKREPETAG
1070
     1
1071
      204
1005
127505
  0
LINE
  5
127506
  8
SLIM
 10
9927.3018300565236
 20
-155.95484036957669
 30
0.0
 11
9955.9548403695771
 21
-127.30183005652241
 31
0.0
1001
GRADIENTCOLOR1ACI
1070
     5
1001
GRADIENTCOLOR2ACI
1070
     2
1001
ACAD
1010
0.0
1020
0.0
1030
0.0
1001
ACDBBLOCKREPETAG
1070
     1
1071
      416
1005
127506
  0
LINE
  5
127507
  8
SLIM
 10
9919.4861520708382
 20
-172.7507744763318
 30
0.0
 11
9938.2903089572737
 21
-153.9466175898965
 31
0.0
1001
GRADIENTCOLOR1ACI
1070
     5
1001
GRADIENTCOLOR2ACI
1070
     2
1001
ACAD
1010
0.0
1020
0.0
1030
0.0
1001
ACDBBLOCKREPETAG
1070
     1
1071
      417
1005
127507
  0
LINE
  5
127508
  8
SLIM
 10
9953.9466175898997
 20
-138.29030895727169
 30
0.0
 11
9972.7507744763316
 21
-119.4861520708365
 31
0.0
1001
GRADIENTCOLOR1ACI
1070
     5
1001
GRADIENTCOLOR2ACI
1070
     2
1001
ACAD
1010
0.0
1020
0.0
1030
0.0
1001
ACDBBLOCKREPETAG
1070
     1
1071
      418
1005
127508
  0
LINE
  5
127509
  8
SLIM
 10
9916.3596679933817
 20
-184.85751467486031
 30
0.0
 11
9920.2360914370074
 21
-180.9810912312297
 31
0.0
1001
GRADIENTCOLOR1ACI
1070
     5
1001
GRADIENTCOLOR2ACI
1070
     2
1001
ACAD
1010
0.0
1020
0.0
1030
0.0
1001
ACDBBLOCKREPETAG
1070
     1
1071
      419
1005
127509
  0
LINE
  5
12750A
  8
SLIM
 10
9980.9810912312314
 20
-120.2360914370078
 30
0.0
 11
9984.8575146748644
 21
-116.359667993377
 31
0.0
1001
GRADIENTCOLOR1ACI
1070
     5
1001
GRADIENTCOLOR2ACI
1070
     2
1001
ACAD
1010
0.0
1020
0.0
1030
0.0
1001
ACDBBLOCKREPETAG
1070
     1
1071
      420
1005
12750A
  0
LINE
  5
12750B
  8
SLIM
 10
9915.1440575890538
 20
-195.0533812002549
 30
0.0
 11
9918.4125503387295
 21
-191.78488845057959
 31
0.0
1001
GRADIENTCOLOR1ACI
1070
     5
1001
GRADIENTCOLOR2ACI
1070
     2
1001
ACAD
1010
0.0
1020
0.0
1030
0.0
1001
ACDBBLOCKREPETAG
1070
     1
1071
      421
1005
12750B
  0
LINE
  5
12750C
  8
SLIM
 10
9991.7848884505802
 20
-118.4125503387271
 30
0.0
 11
9995.0533812002577
 21
-115.1440575890517
 31
0.0
1001
GRADIENTCOLOR1ACI
1070
     5
1001
GRADIENTCOLOR2ACI
1070
     2
1001
ACAD
1010
0.0
1020
0.0
1030
0.0
1001
ACDBBLOCKREPETAG
1070
     1
1071
      422
1005
12750C
  0
LINE
  5
12750D
  8
SLIM
 10
9915.0979635574713
 20
-204.07973135290339
 30
0.0
 11
9918.0083381990517
 21
-201.1693567113285
 31
0.0
1001
GRADIENTCOLOR1ACI
1070
     5
1001
GRADIENTCOLOR2ACI
1070
     2
1001
ACAD
1010
0.0
1020
0.0
1030
0.0
1001
ACDBBLOCKREPETAG
1070
     1
1071
      423
1005
12750D
  0
LINE
  5
12750E
  8
SLIM
 10
10001.169356711331
 20
-118.0083381990472
 30
0.0
 11
10004.0797313529
 21
-115.0979635574724
 31
0.0
1001
GRADIENTCOLOR1ACI
1070
     5
1001
GRADIENTCOLOR2ACI
1070
     2
1001
ACAD
1010
0.0
1020
0.0
1030
0.0
1001
ACDBBLOCKREPETAG
1070
     1
1071
      424
1005
12750E
  0
LINE
  5
12750F
  8
SLIM
 10
9915.8899726208747
 20
-212.2679784105739
 30
0.0
 11
9918.5632639426876
 21
-209.59468708876071
 31
0.0
1001
GRADIENTCOLOR1ACI
1070
     5
1001
GRADIENTCOLOR2ACI
1070
     2
1001
ACAD
1010
0.0
1020
0.0
1030
0.0
1001
ACDBBLOCKREPETAG
1070
     1
1071
      425
1005
12750F
  0
LINE
  5
127510
  8
SLIM
 10
10009.59468708876
 20
-118.5632639426843
 30
0.0
 11
10012.26797841056
 21
-115.88997262087101
 31
0.0
1001
GRADIENTCOLOR1ACI
1070
     5
1001
GRADIENTCOLOR2ACI
1070
     2
1001
ACAD
1010
0.0
1020
0.0
1030
0.0
1001
ACDBBLOCKREPETAG
1070
     1
1071
      426
1005
127510
  0
LINE
  5
127511
  8
SLIM
 10
9917.3382656951544
 20
-219.7999414573614
 30
0.0
 11
9919.8443793594906
 21
-217.29382779302409
 31
0.0
1001
GRADIENTCOLOR1ACI
1070
     5
1001
GRADIENTCOLOR2ACI
1070
     2
1001
ACAD
1010
0.0
1020
0.0
1030
0.0
1001
ACDBBLOCKREPETAG
1070
     1
1071
      427
1005
127511
  0
LINE
  5
127512
  8
SLIM
 10
10017.293827793021
 20
-119.84437935949001
 30
0.0
 11
10019.799941457361
 21
-117.3382656951527
 31
0.0
1001
GRADIENTCOLOR1ACI
1070
     5
1001
GRADIENTCOLOR2ACI
1070
     2
1001
ACAD
1010
0.0
1020
0.0
1030
0.0
1001
ACDBBLOCKREPETAG
1070
     1
1071
      428
1005
127512
  0
LINE
  5
127513
  8
SLIM
 10
9919.3312594063045
 20
-226.78720386727881
 30
0.0
 11
9922.8446926367924
 21
-223.27377063679211
 31
0.0
1001
GRADIENTCOLOR1ACI
1070
     5
1001
GRADIENTCOLOR2ACI
1070
     2
1001
ACAD
1010
0.0
1020
0.0
1030
0.0
1001
ACDBBLOCKREPETAG
1070
     1
1071
      429
1005
127513
  0
LINE
  5
127514
  8
SLIM
 10
10023.27377163679
 20
-122.8446916367926
 30
0.0
 11
10026.787203867279
 21
-119.3312594063045
 31
0.0
1001
GRADIENTCOLOR1ACI
1070
     5
1001
GRADIENTCOLOR2ACI
1070
     2
1001
ACAD
1010
0.0
1020
0.0
1030
0.0
1001
ACDBBLOCKREPETAG
1070
     1
1071
      430
1005
127514
  0
LINE
  5
127515
  8
SLIM
 10
9921.7957163186184
 20
-233.30300307603281
 30
0.0
 11
9927.3348206973278
 21
-227.76389869732679
 31
0.0
1001
GRADIENTCOLOR1ACI
1070
     5
1001
GRADIENTCOLOR2ACI
1070
     2
1001
ACAD
1010
0.0
1020
0.0
1030
0.0
1001
ACDBBLOCKREPETAG
1070
     1
1071
      431
1005
127515
  0
LINE
  5
127516
  8
SLIM
 10
10027.76389969732
 20
-127.33481969732929
 30
0.0
 11
10033.303003076029
 21
-121.7957163186195
 31
0.0
1001
GRADIENTCOLOR1ACI
1070
     5
1001
GRADIENTCOLOR2ACI
1070
     2
1001
ACAD
1010
0.0
1020
0.0
1030
0.0
1001
ACDBBLOCKREPETAG
1070
     1
1071
      432
1005
127516
  0
LINE
  5
127517
  8
SLIM
 10
9924.6816635313444
 20
-239.39731198437761
 30
0.0
 11
9930.6398768643921
 21
-233.4390986513296
 31
0.0
1001
GRADIENTCOLOR1ACI
1070
     5
1001
GRADIENTCOLOR2ACI
1070
     2
1001
ACAD
1010
0.0
1020
0.0
1030
0.0
1001
ACDBBLOCKREPETAG
1070
     1
1071
      433
1005
127517
  0
LINE
  5
127518
  8
SLIM
 10
10033.43909865133
 20
-130.63987686439191
 30
0.0
 11
10039.39731198437
 21
-124.681663531344
 31
0.0
1001
GRADIENTCOLOR1ACI
1070
     5
1001
GRADIENTCOLOR2ACI
1070
     2
1001
ACAD
1010
0.0
1020
0.0
1030
0.0
1001
ACDBBLOCKREPETAG
1070
     1
1071
      434
1005
127518
  0
LINE
  5
127519
  8
SLIM
 10
9927.9544611024248
 20
-245.10477053436679
 30
0.0
 11
9933.7750070149923
 21
-239.28422462179759
 31
0.0
1001
GRADIENTCOLOR1ACI
1070
     5
1001
GRADIENTCOLOR2ACI
1070
     2
1001
ACAD
1010
0.0
1020
0.0
1030
0.0
1001
ACDBBLOCKREPETAG
1070
     1
1071
      435
1005
127519
  0
LINE
  5
12751A
  8
SLIM
 10
10039.284224621801
 20
-133.77500701499301
 30
0.0
 11
10045.104770534361
 21
-127.95446110242381
 31
0.0
1001
GRADIENTCOLOR1ACI
1070
     5
1001
GRADIENTCOLOR2ACI
1070
     2
1001
ACAD
1010
0.0
1020
0.0
1030
0.0
1001
ACDBBLOCKREPETAG
1070
     1
1071
      436
1005
12751A
  0
LINE
  5
12751B
  8
SLIM
 10
9931.5903319686659
 20
-250.44915578919529
 30
0.0
 11
9937.3182075880559
 21
-244.72128016980349
 31
0.0
1001
GRADIENTCOLOR1ACI
1070
     5
1001
GRADIENTCOLOR2ACI
1070
     2
1001
ACAD
1010
0.0
1020
0.0
1030
0.0
1001
ACDBBLOCKREPETAG
1070
     1
1071
      437
1005
12751B
  0
LINE
  5
12751C
  8
SLIM
 10
10044.721280169801
 20
-137.31820758805651
 30
0.0
 11
10050.449155789191
 21
-131.59033196866449
 31
0.0
1001
GRADIENTCOLOR1ACI
1070
     5
1001
GRADIENTCOLOR2ACI
1070
     2
1001
ACAD
1010
0.0
1020
0.0
1030
0.0
1001
ACDBBLOCKREPETAG
1070
     1
1071
      438
1005
12751C
  0
LINE
  5
12751D
  8
SLIM
 10
9935.5737496925303
 20
-255.44599418640331
 30
0.0
 11
9941.2481105415936
 21
-249.77163333734029
 31
0.0
1001
GRADIENTCOLOR1ACI
1070
     5
1001
GRADIENTCOLOR2ACI
1070
     2
1001
ACAD
1010
0.0
1020
0.0
1030
0.0
1001
ACDBBLOCKREPETAG
1070
     1
1071
      439
1005
12751D
  0
LINE
  5
12751E
  8
SLIM
 10
10053.019743878929
 20
-137.99999999999901
 30
0.0
 11
10055.445994186401
 21
-135.57374969252561
 31
0.0
1001
GRADIENTCOLOR1ACI
1070
     5
1001
GRADIENTCOLOR2ACI
1070
     2
1001
ACAD
1010
0.0
1020
0.0
1030
0.0
1001
ACDBBLOCKREPETAG
1070
     1
1071
      440
1005
12751E
  0
LINE
  5
12751F
  8
SLIM
 10
9939.8959235991442
 20
-260.10407640085549
 30
0.0
 11
9945.5527778486357
 21
-254.44722215136329
 31
0.0
1001
GRADIENTCOLOR1ACI
1070
     5
1001
GRADIENTCOLOR2ACI
1070
     2
1001
ACAD
1010
0.0
1020
0.0
1030
0.0
1001
ACDBBLOCKREPETAG
1070
     1
1071
      441
1005
12751F
  0
LINE
  5
127520
  8
SLIM
 10
9944.5540058135957
 20
-264.4262503074724
 30
0.0
 11
9950.2283666626608
 21
-258.75188945840949
 31
0.0
1001
GRADIENTCOLOR1ACI
1070
     5
1001
GRADIENTCOLOR2ACI
1070
     2
1001
ACAD
1010
0.0
1020
0.0
1030
0.0
1001
ACDBBLOCKREPETAG
1070
     1
1071
      442
1005
127520
  0
LINE
  5
127521
  8
SLIM
 10
9949.5508442108039
 20
-268.40966803133369
 30
0.0
 11
9955.2787198301976
 21
-262.68179241194167
 31
0.0
1001
GRADIENTCOLOR1ACI
1070
     5
1001
GRADIENTCOLOR2ACI
1070
     2
1001
ACAD
1010
0.0
1020
0.0
1030
0.0
1001
ACDBBLOCKREPETAG
1070
     1
1071
      443
1005
127521
  0
LINE
  5
127522
  8
SLIM
 10
9954.8952294656337
 20
-272.04553889757432
 30
0.0
 11
9960.7157753781994
 21
-266.22499298500497
 31
0.0
1001
GRADIENTCOLOR1ACI
1070
     5
1001
GRADIENTCOLOR2ACI
1070
     2
1001
ACAD
1010
0.0
1020
0.0
1030
0.0
1001
ACDBBLOCKREPETAG
1070
     1
1071
      444
1005
127522
  0
LINE
  5
127523
  8
SLIM
 10
9960.6026880156223
 20
-275.31833646865419
 30
0.0
 11
9966.5609013486755
 21
-269.36012313560622
 31
0.0
1001
GRADIENTCOLOR1ACI
1070
     5
1001
GRADIENTCOLOR2ACI
1070
     2
1001
ACAD
1010
0.0
1020
0.0
1030
0.0
1001
ACDBBLOCKREPETAG
1070
     1
1071
      445
1005
127523
  0
LINE
  5
127524
  8
SLIM
 10
9966.6969969239635
 20
-278.20428368137863
 30
0.0
 11
9972.2361008026728
 21
-272.66517980267162
 31
0.0
1001
GRADIENTCOLOR1ACI
1070
     5
1001
GRADIENTCOLOR2ACI
1070
     2
1001
ACAD
1010
0.0
1020
0.0
1030
0.0
1001
ACDBBLOCKREPETAG
1070
     1
1071
      446
1005
127524
  0
LINE
  5
127525
  8
SLIM
 10
9973.2127961327205
 20
-280.66874059369371
 30
0.0
 11
9976.7262288632082
 21
-277.15530786320562
 31
0.0
1001
GRADIENTCOLOR1ACI
1070
     5
1001
GRADIENTCOLOR2ACI
1070
     2
1001
ACAD
1010
0.0
1020
0.0
1030
0.0
1001
ACDBBLOCKREPETAG
1070
     1
1071
      447
1005
127525
  0
LINE
  5
127526
  8
SLIM
 10
9980.2000585426413
 20
-282.66173430484548
 30
0.0
 11
9982.7061722069757
 21
-280.15562064050812
 31
0.0
1001
GRADIENTCOLOR1ACI
1070
     5
1001
GRADIENTCOLOR2ACI
1070
     2
1001
ACAD
1010
0.0
1020
0.0
1030
0.0
1001
ACDBBLOCKREPETAG
1070
     1
1071
      448
1005
127526
  0
LINE
  5
127527
  8
SLIM
 10
9987.7320215894215
 20
-284.11002737912702
 30
0.0
 11
9990.4053129112417
 21
-281.43673605731391
 31
0.0
1001
GRADIENTCOLOR1ACI
1070
     5
1001
GRADIENTCOLOR2ACI
1070
     2
1001
ACAD
1010
0.0
1020
0.0
1030
0.0
1001
ACDBBLOCKREPETAG
1070
     1
1071
      449
1005
127527
  0
LINE
  5
127528
  8
SLIM
 10
9995.9202686470962
 20
-284.90203644252568
 30
0.0
 11
9998.8306432886711
 21
-281.99166180095108
 31
0.0
1001
GRADIENTCOLOR1ACI
1070
     5
1001
GRADIENTCOLOR2ACI
1070
     2
1001
ACAD
1010
0.0
1020
0.0
1030
0.0
1001
ACDBBLOCKREPETAG
1070
     1
1071
      450
1005
127528
  0
LINE
  5
127529
  8
SLIM
 10
10004.94661879974
 20
-284.8559424109464
 30
0.0
 11
10008.21511154942
 21
-281.58744966127108
 31
0.0
1001
GRADIENTCOLOR1ACI
1070
     5
1001
GRADIENTCOLOR2ACI
1070
     2
1001
ACAD
1010
0.0
1020
0.0
1030
0.0
1001
ACDBBLOCKREPETAG
1070
     1
1071
      451
1005
127529
  0
LINE
  5
12752A
  8
SLIM
 10
10015.142485325139
 20
-283.64033200662112
 30
0.0
 11
10019.01890876877
 21
-279.76390856299031
 31
0.0
1001
GRADIENTCOLOR1ACI
1070
     5
1001
GRADIENTCOLOR2ACI
1070
     2
1001
ACAD
1010
0.0
1020
0.0
1030
0.0
1001
ACDBBLOCKREPETAG
1070
     1
1071
      452
1005
12752A
  0
LINE
  5
12752B
  8
SLIM
 10
10027.249225523659
 20
-280.51384792916173
 30
0.0
 11
10045.76307345283
 21
-261.99999999999909
 31
0.0
1001
GRADIENTCOLOR1ACI
1070
     5
1001
GRADIENTCOLOR2ACI
1070
     2
1001
ACAD
1010
0.0
1020
0.0
1030
0.0
1001
ACDBBLOCKREPETAG
1070
     1
1071
      453
1005
12752B
  0
LINE
  5
12752C
  8
SLIM
 10
10044.045159630419
 20
-272.6981699434757
 30
0.0
 11
10054.743329573899
 21
-261.99999999999909
 31
0.0
1001
GRADIENTCOLOR1ACI
1070
     5
1001
GRADIENTCOLOR2ACI
1070
     2
1001
ACAD
1010
0.0
1020
0.0
1030
0.0
1001
ACDBBLOCKREPETAG
1070
     1
1071
      454
1005
12752C
  0
ARC
  5
12752D
  8
OBJECT
 10
10000.0
 20
-199.99999999999909
 30
0.0
 40
77.0
 50
202.25886899982271
 51
247.7411309999043
1001
ACDBBLOCKREPETAG
1070
     1
1071
      212
1005
12752D
  0
ARC
  5
12752E
  8
OBJECT
 10
10000.0
 20
-199.99999999999909
 30
0.0
 40
77.0
 50
292.25886900009567
 51
337.74113100017729
1001
ACDBBLOCKREPETAG
1070
     1
1071
      215
1005
12752E
  0
ARC
  5
12752F
  8
OBJECT
 10
10000.0
 20
-199.99999999999909
 30
0.0
 40
77.0
 50
112.2588690000957
 51
157.74113100017721
1001
ACDBBLOCKREPETAG
1070
     1
1071
      216
1005
12752F
  0
ARC
  5
127530
  8
OBJECT
 10
10000.0
 20
-199.99999999999909
 30
0.0
 40
77.0
 50
22.25886899982272
 51
67.741130999904328
1001
ACDBBLOCKREPETAG
1070
     1
1071
      220
1005
127530
  0
CIRCLE
  5
127531
  8
OBJECT
 10
10000.0
 20
-199.99999999999909
 30
0.0
 40
70.0
1001
ACDBBLOCKREPETAG
1070
     1
1071
      221
1005
127531
  0
LINE
  5
127532
  8
OBJECT
 10
10029.166974999989
 20
-271.26210499999888
 30
0.0
 11
10021.223162444099
 21
-279.20591755589248
 31
0.0
1001
ACDBBLOCKREPETAG
1070
     1
1071
      222
1005
127532
  0
LINE
  5
127533
  8
OBJECT
 10
9970.8330260000002
 20
-271.26210499999888
 30
0.0
 11
9978.77683892192
 21
-279.20591792191681
 31
0.0
1001
ACDBBLOCKREPETAG
1070
     1
1071
      223
1005
127533
  0
ARC
  5
127534
  8
OBJECT
 10
10000.0
 20
-199.99999999999909
 30
0.0
 40
82.000000000000014
 50
255.00000044864029
 51
285.00000053969478
1001
ACDBBLOCKREPETAG
1070
     1
1071
      224
1005
127534
  0
LINE
  5
127535
  8
OBJECT
 10
9928.7378959999969
 20
-229.1669739999989
 30
0.0
 11
9920.7940817120543
 21
-221.2231597120545
 31
0.0
1001
ACDBBLOCKREPETAG
1070
     1
1071
      225
1005
127535
  0
ARC
  5
127536
  8
OBJECT
 10
10000.0
 20
-199.99999999999909
 30
0.0
 40
82.000000000000014
 50
165.0000004487506
 51
194.9999985630001
1001
ACDBBLOCKREPETAG
1070
     1
1071
      226
1005
127536
  0
LINE
  5
127537
  8
OBJECT
 10
9970.8330260000002
 20
-128.7378949999993
 30
0.0
 11
9978.77683892192
 21
-120.7940820780795
 31
0.0
1001
ACDBBLOCKREPETAG
1070
     1
1071
      227
1005
127537
  0
ARC
  5
127538
  8
OBJECT
 10
10000.0
 20
-199.99999999999909
 30
0.0
 40
82.000000000000014
 50
74.999999460305204
 51
104.99999955135971
1001
ACDBBLOCKREPETAG
1070
     1
1071
      228
1005
127538
  0
LINE
  5
127539
  8
OBJECT
 10
10029.166974999989
 20
-128.7378949999993
 30
0.0
 11
10021.223162444099
 21
-120.79408244410391
 31
0.0
1001
ACDBBLOCKREPETAG
1070
     1
1071
      229
1005
127539
  0
LINE
  5
12753A
  8
OBJECT
 10
9962.402059
 20
-161.93893300000039
 30
0.0
 11
10037.08411027142
 21
-174.5180316957439
 31
0.0
1001
ACDBBLOCKREPETAG
1070
     1
1071
      230
1005
12753A
  0
LINE
  5
12753B
  8
OBJECT
 10
10044.09365699999
 20
-169.70149399999991
 30
0.0
 11
10037.08411027142
 21
-174.5180316957439
 31
0.0
1001
ACDBBLOCKREPETAG
1070
     1
1071
      231
1005
12753B
  0
LINE
  5
12753C
  8
OBJECT
 10
9928.7378959999969
 20
-170.833024999999
 30
0.0
 11
9920.7940820780805
 21
-178.77683892191911
 31
0.0
1001
ACDBBLOCKREPETAG
1070
     1
1071
      232
1005
12753C
  0
CIRCLE
  5
12753D
  8
OBJECT
 10
10000.0
 20
-199.99999999999909
 30
0.0
 40
53.500000000000007
1001
ACDBBLOCKREPETAG
1070
     1
1071
      233
1005
12753D
  0
ARC
  5
12753E
  8
OBJECT
 10
10000.0
 20
-199.99999999999909
 30
0.0
 40
50.0
 50
131.7018096435265
 51
168.52376955955751
1001
ACDBBLOCKREPETAG
1070
     1
1071
      234
1005
12753E
  0
ARC
  5
12753F
  8
OBJECT
 10
10000.0
 20
-199.99999999999909
 30
0.0
 40
50.0
 50
238.8199429999047
 51
34.494506250115712
1001
ACDBBLOCKREPETAG
1070
     1
1071
      235
1005
12753F
  0
LINE
  5
127540
  8
OBJECT
 10
10071.262104999991
 20
-170.833024999999
 30
0.0
 11
10079.20591755589
 21
-178.77683755589439
 31
0.0
1001
ACDBBLOCKREPETAG
1070
     1
1071
      236
1005
127540
  0
ARC
  5
127541
  8
OBJECT
 10
10000.0
 20
-199.99999999999909
 30
0.0
 40
82.000000000000014
 50
345.0000004487506
 51
15.000000539345651
1001
ACDBBLOCKREPETAG
1070
     1
1071
      237
1005
127541
  0
LINE
  5
127542
  8
OBJECT
 10
10071.262104999991
 20
-229.1669739999989
 30
0.0
 11
10079.20591792192
 21
-221.2231610780791
 31
0.0
1001
ACDBBLOCKREPETAG
1070
     1
1071
      238
1005
127542
  0
LINE
  5
127543
  8
OBJECT
 10
10045.661800227321
 20
-137.99999999999909
 30
0.0
 11
10080.0
 21
-137.99999999999909
 31
0.0
1001
ACDBBLOCKREPETAG
1070
     1
1071
      239
1005
127543
  0
LINE
  5
127544
  8
OBJECT
 10
10045.661800227321
 20
-261.99999999999909
 30
0.0
 11
10080.0
 21
-261.99999999999909
 31
0.0
1001
ACDBBLOCKREPETAG
1070
     1
1071
      240
1005
127544
  0
LINE
  5
127545
  8
CENTER
 10
10080.0
 20
-199.99999999999909
 30
0.0
 11
9900.0018972160615
 21
-199.99999999999909
 31
0.0
1001
ACDBBLOCKREPETAG
1070
     1
1071
      249
1005
127545
  0
LINE
  5
127546
  8
CENTER
 10
10000.0
 20
-299.99999999999898
 30
0.0
 11
10000.0
 21
-99.999999999999091
 31
0.0
1001
ACDBBLOCKREPETAG
1070
     1
1071
      250
1005
127546
  0
ARC
  5
127547
  8
OBJECT
 10
10000.0
 20
-199.99999999999909
 30
0.0
 40
85.0
 50
46.837102859852038
 51
313.16289714014778
1001
ACDBBLOCKREPETAG
1070
     1
1071
      251
1005
127547
  0
LINE
  5
127548
  8
OBJECT
 10
9946.6921941437577
 20
-195.46638161316051
 30
0.0
 11
9970.4540343856352
 21
-193.79865146436981
 31
0.0
1001
ACDBBLOCKREPETAG
1070
     1
1071
      340
1005
127548
  0
LINE
  5
127549
  8
OBJECT
 10
9947.3854347270626
 20
-190.305593971766
 30
0.0
 11
9966.9884352628997
 21
-188.92975272660161
 31
0.0
1001
ACDBBLOCKREPETAG
1070
     1
1071
      341
1005
127549
  0
LINE
  5
12754A
  8
OBJECT
 10
9974.1135374752757
 20
-242.77722592637201
 30
0.0
 11
9982.1366988374084
 21
-234.1690987954708
 31
0.0
1001
ACDBBLOCKREPETAG
1070
     1
1071
      342
1005
12754A
  0
ARC
  5
12754B
  8
OBJECT
 10
9982.1160071245395
 20
-183.28188966318251
 30
0.0
 40
60.031113246032611
 50
254.07020130412749
 51
262.33936106086588
1001
ACDBBLOCKREPETAG
1070
     1
1071
      343
1005
12754B
  0
LINE
  5
12754C
  8
OBJECT
 10
9977.6125997325162
 20
-197.67495277149911
 30
0.0
 11
9982.1366988374084
 21
-234.1690987954708
 31
0.0
1001
ACDBBLOCKREPETAG
1070
     1
1071
      344
1005
12754C
  0
ARC
  5
12754D
  8
OBJECT
 10
9967.6885653456393
 20
-198.90521351131881
 30
0.0
 40
10.0
 50
7.0667782929989968
 51
94.014734370532395
1001
ACDBBLOCKREPETAG
1070
     1
1071
      345
1005
12754D
  0
ARC
  5
12754E
  8
OBJECT
 10
9970.9441253709756
 20
-200.78147401875589
 30
0.0
 40
7.0
 50
7.0667782929989968
 51
94.014733775014648
1001
ACDBBLOCKREPETAG
1070
     1
1071
      346
1005
12754E
  0
POINT
  5
12754F
  8
DOTS
 10
10000.0
 20
-199.99999999999909
 30
0.0
 50
270.0
1001
ACDBBLOCKREPETAG
1070
     1
1071
      349
1005
12754F
  0
LINE
  5
127550
  8
OBJECT
 10
10212.99999999998
 20
-453.0000000000008
 30
0.0
 11
10219.99999999998
 21
-453.0000000000008
 31
0.0
1001
ACDBBLOCKREPETAG
1070
     1
1071
      106
1005
127550
  0
LINE
  5
127551
  8
OBJECT
 10
10219.99999999998
 20
-453.0000000000008
 30
0.0
 11
10219.99999999998
 21
-577.0000000000008
 31
0.0
1001
ACDBBLOCKREPETAG
1070
     1
1071
      107
1005
127551
  0
LINE
  5
127552
  8
OBJECT
 10
10085.99999999998
 20
-553.3502637757274
 30
0.0
 11
10085.99999999998
 21
-655.00000000000068
 31
0.0
1001
ACDBBLOCKREPETAG
1070
     1
1071
      108
1005
127552
  0
LINE
  5
127553
  8
OBJECT
 10
10219.99999999998
 20
-577.0000000000008
 30
0.0
 11
10212.99999999998
 21
-577.0000000000008
 31
0.0
1001
ACDBBLOCKREPETAG
1070
     1
1071
      109
1005
127553
  0
LINE
  5
127554
  8
OBJECT
 10
10212.99999999998
 20
-577.0000000000008
 30
0.0
 11
10212.99999999998
 21
-453.0000000000008
 31
0.0
1001
ACDBBLOCKREPETAG
1070
     1
1071
      110
1005
127554
  0
LINE
  5
127555
  8
CENTER
 10
10144.99999999998
 20
-515.0000000000008
 30
0.0
 11
10234.99999999998
 21
-515.0000000000008
 31
0.0
1001
ACDBBLOCKREPETAG
1070
     1
1071
      111
1005
127555
  0
LINE
  5
127556
  8
OBJECT
 10
10079.99999999998
 20
-658.0
 30
0.0
 11
10082.99999999998
 21
-658.0000000000008
 31
0.0
1001
ACDBBLOCKREPETAG
1070
     1
1071
      112
1005
127556
  0
ARC
  5
127557
  8
OBJECT
 10
10082.99999999998
 20
-655.00000000000068
 30
0.0
 40
3.0
 50
270.0
 51
0.0
1001
ACDBBLOCKREPETAG
1070
     1
1071
      113
1005
127557
  0
LINE
  5
127558
  8
OBJECT
 10
10212.99999999998
 20
-456.0000000000008
 30
0.0
 11
10176.99999999998
 21
-456.0000000000008
 31
0.0
1001
ACDBBLOCKREPETAG
1070
     1
1071
      114
1005
127558
  0
LINE
  5
127559
  8
OBJECT
 10
10176.99999999998
 20
-456.0000000000008
 30
0.0
 11
10176.99999999998
 21
-553.15756805667843
 31
0.0
1001
ACDBBLOCKREPETAG
1070
     1
1071
      115
1005
127559
  0
LINE
  5
12755A
  8
OBJECT
 10
10172.99999999998
 20
-460.5000000000008
 30
0.0
 11
10172.99999999998
 21
-545.74491827928705
 31
0.0
1001
ACDBBLOCKREPETAG
1070
     1
1071
      116
1005
12755A
  0
LINE
  5
12755B
  8
OBJECT
 10
10172.99999999998
 20
-460.5000000000008
 30
0.0
 11
10159.99999999998
 21
-460.5000000000008
 31
0.0
1001
ACDBBLOCKREPETAG
1070
     1
1071
      117
1005
12755B
  0
LINE
  5
12755C
  8
OBJECT
 10
10168.656316825471
 20
-574.0000000000008
 30
0.0
 11
10212.99999999998
 21
-574.0000000000008
 31
0.0
1001
ACDBBLOCKREPETAG
1070
     1
1071
      118
1005
12755C
  0
LINE
  5
12755D
  8
OBJECT
 10
10176.99999999998
 20
-456.0000000000008
 30
0.0
 11
10172.99999999998
 21
-460.5000000000008
 31
0.0
1001
ACDBBLOCKREPETAG
1070
     1
1071
      119
1005
12755D
  0
LINE
  5
12755E
  8
OBJECT
 10
10159.99999999998
 20
-460.5000000000008
 30
0.0
 11
10159.99999999998
 21
-545.74491827928784
 31
0.0
1001
ACDBBLOCKREPETAG
1070
     1
1071
      120
1005
12755E
  0
ARC
  5
12755F
  8
OBJECT
 10
10091.99999999998
 20
-537.27386365609345
 30
0.0
 40
85.0
 50
308.59099323720869
 51
334.4008612781347
1001
ACDBBLOCKREPETAG
1070
     1
1071
      121
1005
12755F
  0
ARC
  5
127560
  8
OBJECT
 10
10162.799999999979
 20
-555.00000000000068
 30
0.0
 40
85.0
 50
91.887731891831123
 51
160.07406787456929
1001
ACDBBLOCKREPETAG
1070
     1
1071
      122
1005
127560
  0
LINE
  5
127561
  8
OBJECT
 10
10085.99999999998
 20
-650.81075719270927
 30
0.0
 11
10145.0193225436
 21
-603.71143914629465
 31
0.0
1001
ACDBBLOCKREPETAG
1070
     1
1071
      123
1005
127561
  0
LINE
  5
127562
  8
OBJECT
 10
10172.99999999998
 20
-545.74491827928705
 30
0.0
 11
10159.99999999998
 21
-545.74491827928784
 31
0.0
1001
ACDBBLOCKREPETAG
1070
     1
1071
      124
1005
127562
  0
LINE
  5
127563
  8
OBJECT
 10
10176.99999999998
 20
-553.15756805667843
 30
0.0
 11
10172.99999999998
 21
-545.74491827928705
 31
0.0
1001
ACDBBLOCKREPETAG
1070
     1
1071
      125
1005
127563
  0
LINE
  5
127564
  8
OBJECT
 10
10080.00000000002
 20
-534.0
 30
0.0
 11
10082.888612159621
 21
-526.03156729425325
 31
0.0
1001
ACDBBLOCKREPETAG
1070
     1
1071
      126
1005
127564
  0
LINE
  5
127565
  8
OBJECT
 10
10080.00000000002
 20
-534.0
 30
0.0
 11
10085.99999999998
 21
-553.3502637757274
 31
0.0
1001
ACDBBLOCKREPETAG
1070
     1
1071
      127
1005
127565
  0
LINE
  5
127566
  8
HIDDEN
 10
10167.99999999998
 20
-470.5000000000008
 30
0.0
 11
10167.99999999998
 21
-559.50000000000068
 31
0.0
1001
ACDBBLOCKREPETAG
1070
     1
1071
      129
1005
127566
  0
LINE
  5
127567
  8
OBJECT
 10
10212.99999999998
 20
-137.99999999999909
 30
0.0
 11
10219.99999999998
 21
-137.99999999999909
 31
0.0
1001
ACDBBLOCKREPETAG
1070
     1
1071
      110
1005
127567
  0
LINE
  5
127568
  8
OBJECT
 10
10219.99999999998
 20
-137.99999999999909
 30
0.0
 11
10219.99999999998
 21
-261.99999999999909
 31
0.0
1001
ACDBBLOCKREPETAG
1070
     1
1071
      111
1005
127568
  0
LINE
  5
127569
  8
OBJECT
 10
10219.99999999998
 20
-261.99999999999909
 30
0.0
 11
10212.99999999998
 21
-261.99999999999909
 31
0.0
1001
ACDBBLOCKREPETAG
1070
     1
1071
      112
1005
127569
  0
LINE
  5
12756A
  8
OBJECT
 10
10212.99999999998
 20
-261.99999999999909
 30
0.0
 11
10212.99999999998
 21
-137.99999999999909
 31
0.0
1001
ACDBBLOCKREPETAG
1070
     1
1071
      113
1005
12756A
  0
LINE
  5
12756B
  8
CENTER
 10
10234.99999999998
 20
-199.99999999999909
 30
0.0
 11
10080.0
 21
-199.99999999999909
 31
0.0
1001
ACDBBLOCKREPETAG
1070
     1
1071
      114
1005
12756B
  0
LINE
  5
12756C
  8
OBJECT
 10
10159.999974964179
 20
-245.0000000000027
 30
0.0
 11
10086.0
 21
-244.99999999999909
 31
0.0
1001
ACDBBLOCKREPETAG
1070
     1
1071
      115
1005
12756C
  0
LINE
  5
12756D
  8
OBJECT
 10
10159.999974964179
 20
-154.99999999999909
 30
0.0
 11
10086.0
 21
-154.99999999999909
 31
0.0
1001
ACDBBLOCKREPETAG
1070
     1
1071
      116
1005
12756D
  0
LINE
  5
12756E
  8
OBJECT
 10
10212.99999999998
 20
-140.99999999999909
 30
0.0
 11
10176.99999999998
 21
-140.99999999999909
 31
0.0
1001
ACDBBLOCKREPETAG
1070
     1
1071
      117
1005
12756E
  0
LINE
  5
12756F
  8
OBJECT
 10
10176.99999999998
 20
-140.99999999999909
 30
0.0
 11
10176.99999999998
 21
-258.99999999999909
 31
0.0
1001
ACDBBLOCKREPETAG
1070
     1
1071
      118
1005
12756F
  0
LINE
  5
127570
  8
OBJECT
 10
10176.99999999998
 20
-258.99999999999909
 30
0.0
 11
10212.99999999998
 21
-258.99999999999909
 31
0.0
1001
ACDBBLOCKREPETAG
1070
     1
1071
      119
1005
127570
  0
LINE
  5
127571
  8
OBJECT
 10
10172.99999999998
 20
-145.49999999999909
 30
0.0
 11
10159.99999999998
 21
-145.49999999999909
 31
0.0
1001
ACDBBLOCKREPETAG
1070
     1
1071
      120
1005
127571
  0
LINE
  5
127572
  8
OBJECT
 10
10159.99999999998
 20
-254.49999999999909
 30
0.0
 11
10172.99999999998
 21
-254.49999999999909
 31
0.0
1001
ACDBBLOCKREPETAG
1070
     1
1071
      121
1005
127572
  0
LINE
  5
127573
  8
OBJECT
 10
10172.99999999998
 20
-254.49999999999909
 30
0.0
 11
10172.99999999998
 21
-145.49999999999909
 31
0.0
1001
ACDBBLOCKREPETAG
1070
     1
1071
      122
1005
127573
  0
LINE
  5
127574
  8
OBJECT
 10
10176.99999999998
 20
-140.99999999999909
 30
0.0
 11
10172.99999999998
 21
-145.49999999999909
 31
0.0
1001
ACDBBLOCKREPETAG
1070
     1
1071
      123
1005
127574
  0
LINE
  5
127575
  8
OBJECT
 10
10176.99999999998
 20
-258.99999999999909
 30
0.0
 11
10172.99999999998
 21
-254.49999999999909
 31
0.0
1001
ACDBBLOCKREPETAG
1070
     1
1071
      124
1005
127575
  0
LINE
  5
127576
  8
OBJECT
 10
10083.0
 20
-137.99999999999909
 30
0.0
 11
10080.0
 21
-137.99999999999909
 31
0.0
1001
ACDBBLOCKREPETAG
1070
     1
1071
      125
1005
127576
  0
ARC
  5
127577
  8
OBJECT
 10
10083.0
 20
-140.99999999999909
 30
0.0
 40
3.0
 50
0.0
 51
90.0
1001
ACDBBLOCKREPETAG
1070
     1
1071
      126
1005
127577
  0
LINE
  5
127578
  8
OBJECT
 10
10080.0
 20
-261.99999999999909
 30
0.0
 11
10083.0
 21
-261.99999999999909
 31
0.0
1001
ACDBBLOCKREPETAG
1070
     1
1071
      127
1005
127578
  0
ARC
  5
127579
  8
OBJECT
 10
10083.0
 20
-258.99999999999909
 30
0.0
 40
3.0
 50
270.0
 51
0.0
1001
ACDBBLOCKREPETAG
1070
     1
1071
      128
1005
127579
  0
LINE
  5
12757A
  8
OBJECT
 10
10086.0
 20
-258.99999999999909
 30
0.0
 11
10086.0
 21
-222.44994432063581
 31
0.0
1001
ACDBBLOCKREPETAG
1070
     1
1071
      129
1005
12757A
  0
LINE
  5
12757B
  8
OBJECT
 10
10086.0
 20
-177.55005567935859
 30
0.0
 11
10086.0
 21
-140.99999999999909
 31
0.0
1001
ACDBBLOCKREPETAG
1070
     1
1071
      130
1005
12757B
  0
LINE
  5
12757C
  8
HIDDEN
 10
10167.99999999998
 20
-155.49999999999909
 30
0.0
 11
10167.99999999998
 21
-244.49999999999909
 31
0.0
1001
ACDBBLOCKREPETAG
1070
     1
1071
      131
1005
12757C
  0
LINE
  5
12757D
  8
OBJECT
 10
10159.999974964179
 20
-254.4999509238105
 30
0.0
 11
10159.999974964179
 21
-145.4999509238105
 31
0.0
1001
ACDBBLOCKREPETAG
1070
     1
1071
      133
1005
12757D
  0
ARC
  5
12757E
  8
OBJECT
 10
10125.0
 20
-199.99999999999909
 30
0.0
 40
45.000000000000547
 50
90.0
 51
166.2158024759261
1001
ACDBBLOCKREPETAG
1070
     1
1071
      134
1005
12757E
  0
ARC
  5
12757F
  8
OBJECT
 10
10125.0
 20
-199.99999999999909
 30
0.0
 40
45.000000000000547
 50
193.78421279332531
 51
270.0
1001
ACDBBLOCKREPETAG
1070
     1
1071
      402
1005
12757F
  0
LINE
  5
127580
  8
OBJECT
 10
7918.0
 20
-470.99999999999937
 30
0.0
 11
7918.0
 21
-449.99999999999937
 31
0.0
1001
ACDBBLOCKREPETAG
1070
     1
1071
        0
1005
127580
  0
LINE
  5
127581
  8
OBJECT
 10
7918.0
 20
-449.99999999999937
 30
0.0
 11
8082.0000000000036
 21
-449.99999999999937
 31
0.0
1001
ACDBBLOCKREPETAG
1070
     1
1071
        1
1005
127581
  0
LINE
  5
127582
  8
HIDDEN
 10
7943.0
 20
-519.99999999999955
 30
0.0
 11
8057.0
 21
-519.99999999999955
 31
0.0
1001
ACDBBLOCKREPETAG
1070
     1
1071
        2
1005
127582
  0
LINE
  5
127583
  8
OBJECT
 10
8082.0000000000036
 20
-470.99999999999937
 30
0.0
 11
7918.0
 21
-470.99999999999937
 31
0.0
1001
ACDBBLOCKREPETAG
1070
     1
1071
        3
1005
127583
  0
LINE
  5
127584
  8
CENTER
 10
8000.0
 20
-434.99999999999949
 30
0.0
 11
8000.0
 21
-799.99999999999955
 31
0.0
1001
ACDBBLOCKREPETAG
1070
     1
1071
        4
1005
127584
  0
LINE
  5
127585
  8
OBJECT
 10
7925.0
 20
-533.99999999999955
 30
0.0
 11
7925.0
 21
-787.99999999999955
 31
0.0
1001
ACDBBLOCKREPETAG
1070
     1
1071
        5
1005
127585
  0
LINE
  5
127586
  8
OBJECT
 10
7928.0
 20
-470.99999999999937
 30
0.0
 11
7928.0
 21
-533.99999999999955
 31
0.0
1001
ACDBBLOCKREPETAG
1070
     1
1071
        6
1005
127586
  0
LINE
  5
127587
  8
OBJECT
 10
8072.0
 20
-533.99999999999955
 30
0.0
 11
8072.0
 21
-470.99999999999937
 31
0.0
1001
ACDBBLOCKREPETAG
1070
     1
1071
        7
1005
127587
  0
LINE
  5
127588
  8
OBJECT
 10
7920.0
 20
-787.99999999999955
 30
0.0
 11
8080.0
 21
-787.99999999999955
 31
0.0
1001
ACDBBLOCKREPETAG
1070
     1
1071
        8
1005
127588
  0
LINE
  5
127589
  8
OBJECT
 10
8080.0
 20
-533.99999999999955
 30
0.0
 11
7925.0
 21
-533.99999999999955
 31
0.0
1001
ACDBBLOCKREPETAG
1070
     1
1071
        9
1005
127589
  0
LINE
  5
12758A
  8
OBJECT
 10
7920.0
 20
-787.99999999999955
 30
0.0
 11
7920.0
 21
-799.99999999999955
 31
0.0
1001
ACDBBLOCKREPETAG
1070
     1
1071
       10
1005
12758A
  0
LINE
  5
12758B
  8
OBJECT
 10
7920.0
 20
-799.99999999999955
 30
0.0
 11
8080.0
 21
-799.99999999999955
 31
0.0
1001
ACDBBLOCKREPETAG
1070
     1
1071
       11
1005
12758B
  0
LINE
  5
12758C
  8
OBJECT
 10
8080.0
 20
-799.99999999999955
 30
0.0
 11
8080.0
 21
-787.99999999999955
 31
0.0
1001
ACDBBLOCKREPETAG
1070
     1
1071
       12
1005
12758C
  0
LINE
  5
12758D
  8
OBJECT
 10
8074.9999999998618
 20
-657.99999999985039
 30
0.0
 11
8075.0
 21
-787.99999999999955
 31
0.0
1001
ACDBBLOCKREPETAG
1070
     1
1071
       14
1005
12758D
  0
LINE
  5
12758E
  8
OBJECT
 10
8074.9999908029858
 20
-657.99998602702135
 30
0.0
 11
8080.0
 21
-657.99998602702135
 31
0.0
1001
ACDBBLOCKREPETAG
1070
     1
1071
       15
1005
12758E
  0
LINE
  5
12758F
  8
OBJECT
 10
7920.7940817120261
 20
-449.99999999999937
 30
0.0
 11
7920.7940817120261
 21
-470.99999999999937
 31
0.0
1001
ACDBBLOCKREPETAG
1070
     1
1071
       16
1005
12758F
  0
LINE
  5
127590
  8
OBJECT
 10
7928.7378959999978
 20
-449.99999999999937
 30
0.0
 11
7928.7378959999978
 21
-470.99999999999937
 31
0.0
1001
ACDBBLOCKREPETAG
1070
     1
1071
       17
1005
127590
  0
LINE
  5
127591
  8
OBJECT
 10
7970.8330260000021
 20
-449.99999999999937
 30
0.0
 11
7970.8330260000021
 21
-470.99999999999937
 31
0.0
1001
ACDBBLOCKREPETAG
1070
     1
1071
       18
1005
127591
  0
LINE
  5
127592
  8
OBJECT
 10
7978.7768389218018
 20
-449.99999999999937
 30
0.0
 11
7978.7768389218018
 21
-470.99999999999937
 31
0.0
1001
ACDBBLOCKREPETAG
1070
     1
1071
       19
1005
127592
  0
LINE
  5
127593
  8
OBJECT
 10
8082.0
 20
-470.99999999999937
 30
0.0
 11
8082.0
 21
-449.99999999999937
 31
0.0
1001
ACDBBLOCKREPETAG
1070
     1
1071
       20
1005
127593
  0
LINE
  5
127594
  8
OBJECT
 10
8079.205918287973
 20
-449.99999999999937
 30
0.0
 11
8079.205918287973
 21
-470.99999999999937
 31
0.0
1001
ACDBBLOCKREPETAG
1070
     1
1071
       21
1005
127594
  0
LINE
  5
127595
  8
OBJECT
 10
8071.262104000004
 20
-449.99999999999937
 30
0.0
 11
8071.262104000004
 21
-470.99999999999937
 31
0.0
1001
ACDBBLOCKREPETAG
1070
     1
1071
       22
1005
127595
  0
LINE
  5
127596
  8
OBJECT
 10
8029.1669739999998
 20
-449.99999999999937
 30
0.0
 11
8029.1669739999998
 21
-470.99999999999937
 31
0.0
1001
ACDBBLOCKREPETAG
1070
     1
1071
       23
1005
127596
  0
LINE
  5
127597
  8
OBJECT
 10
8021.2231610782001
 20
-449.99999999999937
 30
0.0
 11
8021.2231610782001
 21
-470.99999999999937
 31
0.0
1001
ACDBBLOCKREPETAG
1070
     1
1071
       24
1005
127597
  0
ARC
  5
127598
  8
OBJECT
 10
8200.6872746716726
 20
-649.40809941010718
 30
0.0
 40
170.6350503965856
 50
137.44134459184301
 51
149.91949581337221
1001
ACDBBLOCKREPETAG
1070
     1
1071
       25
1005
127598
  0
ARC
  5
127599
  8
OBJECT
 10
8118.8455987040506
 20
-605.88272669536445
 30
0.0
 40
78.072222021763665
 50
147.4551531038293
 51
164.66365997719919
1001
ACDBBLOCKREPETAG
1070
     1
1071
       26
1005
127599
  0
ARC
  5
12759A
  8
OBJECT
 10
8085.7554349608708
 20
-595.99999999999955
 30
0.0
 40
43.55353926885617
 50
165.688452300753
 51
194.3115476992468
1001
ACDBBLOCKREPETAG
1070
     1
1071
       27
1005
12759A
  0
ARC
  5
12759B
  8
OBJECT
 10
8200.6872746716726
 20
-542.59190058989179
 30
0.0
 40
170.6350503965856
 50
210.08050418662771
 51
222.55865540815699
1001
ACDBBLOCKREPETAG
1070
     1
1071
       28
1005
12759B
  0
ARC
  5
12759C
  8
OBJECT
 10
8118.8455987040506
 20
-586.11727330463452
 30
0.0
 40
78.072222021763665
 50
195.33634002280061
 51
212.5448468961705
1001
ACDBBLOCKREPETAG
1070
     1
1071
       29
1005
12759C
  0
POINT
  5
12759D
  8
DOTS
 10
8000.0
 20
-654.99999999999966
 30
0.0
1001
ACDBBLOCKREPETAG
1070
     1
1071
      204
1005
12759D
  0
LINE
  5
12759E
  8
SLIM
 10
7927.3018300565236
 20
-155.95484036957669
 30
0.0
 11
7955.9548403695781
 21
-127.30183005652241
 31
0.0
1001
GRADIENTCOLOR1ACI
1070
     5
1001
GRADIENTCOLOR2ACI
1070
     2
1001
ACAD
1010
0.0
1020
0.0
1030
0.0
1001
ACDBBLOCKREPETAG
1070
     1
1071
      416
1005
12759E
  0
LINE
  5
12759F
  8
SLIM
 10
7919.4861520708373
 20
-172.7507744763318
 30
0.0
 11
7938.2903089572737
 21
-153.9466175898965
 31
0.0
1001
GRADIENTCOLOR1ACI
1070
     5
1001
GRADIENTCOLOR2ACI
1070
     2
1001
ACAD
1010
0.0
1020
0.0
1030
0.0
1001
ACDBBLOCKREPETAG
1070
     1
1071
      417
1005
12759F
  0
LINE
  5
1275A0
  8
SLIM
 10
7953.9466175898988
 20
-138.29030895727169
 30
0.0
 11
7972.7507744763334
 21
-119.4861520708365
 31
0.0
1001
GRADIENTCOLOR1ACI
1070
     5
1001
GRADIENTCOLOR2ACI
1070
     2
1001
ACAD
1010
0.0
1020
0.0
1030
0.0
1001
ACDBBLOCKREPETAG
1070
     1
1071
      418
1005
1275A0
  0
LINE
  5
1275A1
  8
SLIM
 10
7916.3596679933771
 20
-184.85751467486031
 30
0.0
 11
7920.2360914370101
 21
-180.9810912312297
 31
0.0
1001
GRADIENTCOLOR1ACI
1070
     5
1001
GRADIENTCOLOR2ACI
1070
     2
1001
ACAD
1010
0.0
1020
0.0
1030
0.0
1001
ACDBBLOCKREPETAG
1070
     1
1071
      419
1005
1275A1
  0
LINE
  5
1275A2
  8
SLIM
 10
7980.9810912312296
 20
-120.2360914370078
 30
0.0
 11
7984.8575146748608
 21
-116.359667993377
 31
0.0
1001
GRADIENTCOLOR1ACI
1070
     5
1001
GRADIENTCOLOR2ACI
1070
     2
1001
ACAD
1010
0.0
1020
0.0
1030
0.0
1001
ACDBBLOCKREPETAG
1070
     1
1071
      420
1005
1275A2
  0
LINE
  5
1275A3
  8
SLIM
 10
7915.1440575890529
 20
-195.0533812002549
 30
0.0
 11
7918.4125503387259
 21
-191.78488845057959
 31
0.0
1001
GRADIENTCOLOR1ACI
1070
     5
1001
GRADIENTCOLOR2ACI
1070
     2
1001
ACAD
1010
0.0
1020
0.0
1030
0.0
1001
ACDBBLOCKREPETAG
1070
     1
1071
      421
1005
1275A3
  0
LINE
  5
1275A4
  8
SLIM
 10
7991.7848884505784
 20
-118.4125503387271
 30
0.0
 11
7995.0533812002559
 21
-115.1440575890517
 31
0.0
1001
GRADIENTCOLOR1ACI
1070
     5
1001
GRADIENTCOLOR2ACI
1070
     2
1001
ACAD
1010
0.0
1020
0.0
1030
0.0
1001
ACDBBLOCKREPETAG
1070
     1
1071
      422
1005
1275A4
  0
LINE
  5
1275A5
  8
SLIM
 10
7915.097963557474
 20
-204.07973135290339
 30
0.0
 11
7918.008338199048
 21
-201.1693567113285
 31
0.0
1001
GRADIENTCOLOR1ACI
1070
     5
1001
GRADIENTCOLOR2ACI
1070
     2
1001
ACAD
1010
0.0
1020
0.0
1030
0.0
1001
ACDBBLOCKREPETAG
1070
     1
1071
      423
1005
1275A5
  0
LINE
  5
1275A6
  8
SLIM
 10
8001.1693567113307
 20
-118.0083381990472
 30
0.0
 11
8004.0797313529074
 21
-115.0979635574724
 31
0.0
1001
GRADIENTCOLOR1ACI
1070
     5
1001
GRADIENTCOLOR2ACI
1070
     2
1001
ACAD
1010
0.0
1020
0.0
1030
0.0
1001
ACDBBLOCKREPETAG
1070
     1
1071
      424
1005
1275A6
  0
LINE
  5
1275A7
  8
SLIM
 10
7915.889972620871
 20
-212.2679784105739
 30
0.0
 11
7918.5632639426858
 21
-209.59468708876071
 31
0.0
1001
GRADIENTCOLOR1ACI
1070
     5
1001
GRADIENTCOLOR2ACI
1070
     2
1001
ACAD
1010
0.0
1020
0.0
1030
0.0
1001
ACDBBLOCKREPETAG
1070
     1
1071
      425
1005
1275A7
  0
LINE
  5
1275A8
  8
SLIM
 10
8009.5946870887637
 20
-118.5632639426843
 30
0.0
 11
8012.2679784105749
 21
-115.88997262087101
 31
0.0
1001
GRADIENTCOLOR1ACI
1070
     5
1001
GRADIENTCOLOR2ACI
1070
     2
1001
ACAD
1010
0.0
1020
0.0
1030
0.0
1001
ACDBBLOCKREPETAG
1070
     1
1071
      426
1005
1275A8
  0
LINE
  5
1275A9
  8
SLIM
 10
7917.3382656951526
 20
-219.7999414573614
 30
0.0
 11
7919.8443793594897
 21
-217.29382779302409
 31
0.0
1001
GRADIENTCOLOR1ACI
1070
     5
1001
GRADIENTCOLOR2ACI
1070
     2
1001
ACAD
1010
0.0
1020
0.0
1030
0.0
1001
ACDBBLOCKREPETAG
1070
     1
1071
      427
1005
1275A9
  0
LINE
  5
1275AA
  8
SLIM
 10
8017.2938277930252
 20
-119.84437935949001
 30
0.0
 11
8019.7999414573624
 21
-117.3382656951527
 31
0.0
1001
GRADIENTCOLOR1ACI
1070
     5
1001
GRADIENTCOLOR2ACI
1070
     2
1001
ACAD
1010
0.0
1020
0.0
1030
0.0
1001
ACDBBLOCKREPETAG
1070
     1
1071
      428
1005
1275AA
  0
LINE
  5
1275AB
  8
SLIM
 10
7919.3312594063054
 20
-226.78720386727881
 30
0.0
 11
7922.8446926367924
 21
-223.27377063679211
 31
0.0
1001
GRADIENTCOLOR1ACI
1070
     5
1001
GRADIENTCOLOR2ACI
1070
     2
1001
ACAD
1010
0.0
1020
0.0
1030
0.0
1001
ACDBBLOCKREPETAG
1070
     1
1071
      429
1005
1275AB
  0
LINE
  5
1275AC
  8
SLIM
 10
8023.2737716367947
 20
-122.8446916367926
 30
0.0
 11
8026.7872038672767
 21
-119.3312594063045
 31
0.0
1001
GRADIENTCOLOR1ACI
1070
     5
1001
GRADIENTCOLOR2ACI
1070
     2
1001
ACAD
1010
0.0
1020
0.0
1030
0.0
1001
ACDBBLOCKREPETAG
1070
     1
1071
      430
1005
1275AC
  0
LINE
  5
1275AD
  8
SLIM
 10
7921.7957163186193
 20
-233.30300307603281
 30
0.0
 11
7927.3348206973278
 21
-227.76389869732679
 31
0.0
1001
GRADIENTCOLOR1ACI
1070
     5
1001
GRADIENTCOLOR2ACI
1070
     2
1001
ACAD
1010
0.0
1020
0.0
1030
0.0
1001
ACDBBLOCKREPETAG
1070
     1
1071
      431
1005
1275AD
  0
LINE
  5
1275AE
  8
SLIM
 10
8027.7638996973228
 20
-127.33481969732929
 30
0.0
 11
8033.3030030760328
 21
-121.7957163186195
 31
0.0
1001
GRADIENTCOLOR1ACI
1070
     5
1001
GRADIENTCOLOR2ACI
1070
     2
1001
ACAD
1010
0.0
1020
0.0
1030
0.0
1001
ACDBBLOCKREPETAG
1070
     1
1071
      432
1005
1275AE
  0
LINE
  5
1275AF
  8
SLIM
 10
7924.6816635313462
 20
-239.39731198437761
 30
0.0
 11
7930.639876864393
 21
-233.4390986513296
 31
0.0
1001
GRADIENTCOLOR1ACI
1070
     5
1001
GRADIENTCOLOR2ACI
1070
     2
1001
ACAD
1010
0.0
1020
0.0
1030
0.0
1001
ACDBBLOCKREPETAG
1070
     1
1071
      433
1005
1275AF
  0
LINE
  5
1275B0
  8
SLIM
 10
8033.4390986513308
 20
-130.63987686439191
 30
0.0
 11
8039.3973119843777
 21
-124.681663531344
 31
0.0
1001
GRADIENTCOLOR1ACI
1070
     5
1001
GRADIENTCOLOR2ACI
1070
     2
1001
ACAD
1010
0.0
1020
0.0
1030
0.0
1001
ACDBBLOCKREPETAG
1070
     1
1071
      434
1005
1275B0
  0
LINE
  5
1275B1
  8
SLIM
 10
7927.9544611024266
 20
-245.10477053436679
 30
0.0
 11
7933.7750070149932
 21
-239.28422462179759
 31
0.0
1001
GRADIENTCOLOR1ACI
1070
     5
1001
GRADIENTCOLOR2ACI
1070
     2
1001
ACAD
1010
0.0
1020
0.0
1030
0.0
1001
ACDBBLOCKREPETAG
1070
     1
1071
      435
1005
1275B1
  0
LINE
  5
1275B2
  8
SLIM
 10
8039.2842246217979
 20
-133.77500701499301
 30
0.0
 11
8045.1047705343699
 21
-127.95446110242381
 31
0.0
1001
GRADIENTCOLOR1ACI
1070
     5
1001
GRADIENTCOLOR2ACI
1070
     2
1001
ACAD
1010
0.0
1020
0.0
1030
0.0
1001
ACDBBLOCKREPETAG
1070
     1
1071
      436
1005
1275B2
  0
LINE
  5
1275B3
  8
SLIM
 10
7931.5903319686649
 20
-250.44915578919529
 30
0.0
 11
7937.3182075880577
 21
-244.72128016980349
 31
0.0
1001
GRADIENTCOLOR1ACI
1070
     5
1001
GRADIENTCOLOR2ACI
1070
     2
1001
ACAD
1010
0.0
1020
0.0
1030
0.0
1001
ACDBBLOCKREPETAG
1070
     1
1071
      437
1005
1275B3
  0
LINE
  5
1275B4
  8
SLIM
 10
8044.7212801698061
 20
-137.31820758805651
 30
0.0
 11
8050.449155789197
 21
-131.59033196866449
 31
0.0
1001
GRADIENTCOLOR1ACI
1070
     5
1001
GRADIENTCOLOR2ACI
1070
     2
1001
ACAD
1010
0.0
1020
0.0
1030
0.0
1001
ACDBBLOCKREPETAG
1070
     1
1071
      438
1005
1275B4
  0
LINE
  5
1275B5
  8
SLIM
 10
7935.5737496925258
 20
-255.44599418640331
 30
0.0
 11
7941.24811054159
 21
-249.77163333734029
 31
0.0
1001
GRADIENTCOLOR1ACI
1070
     5
1001
GRADIENTCOLOR2ACI
1070
     2
1001
ACAD
1010
0.0
1020
0.0
1030
0.0
1001
ACDBBLOCKREPETAG
1070
     1
1071
      439
1005
1275B5
  0
LINE
  5
1275B6
  8
SLIM
 10
8053.0197438789319
 20
-137.99999999999901
 30
0.0
 11
8055.4459941864034
 21
-135.57374969252561
 31
0.0
1001
GRADIENTCOLOR1ACI
1070
     5
1001
GRADIENTCOLOR2ACI
1070
     2
1001
ACAD
1010
0.0
1020
0.0
1030
0.0
1001
ACDBBLOCKREPETAG
1070
     1
1071
      440
1005
1275B6
  0
LINE
  5
1275B7
  8
SLIM
 10
7939.8959235991442
 20
-260.10407640085549
 30
0.0
 11
7945.5527778486357
 21
-254.44722215136329
 31
0.0
1001
GRADIENTCOLOR1ACI
1070
     5
1001
GRADIENTCOLOR2ACI
1070
     2
1001
ACAD
1010
0.0
1020
0.0
1030
0.0
1001
ACDBBLOCKREPETAG
1070
     1
1071
      441
1005
1275B7
  0
LINE
  5
1275B8
  8
SLIM
 10
7944.5540058135948
 20
-264.4262503074724
 30
0.0
 11
7950.2283666626608
 21
-258.75188945840949
 31
0.0
1001
GRADIENTCOLOR1ACI
1070
     5
1001
GRADIENTCOLOR2ACI
1070
     2
1001
ACAD
1010
0.0
1020
0.0
1030
0.0
1001
ACDBBLOCKREPETAG
1070
     1
1071
      442
1005
1275B8
  0
LINE
  5
1275B9
  8
SLIM
 10
7949.5508442108039
 20
-268.40966803133369
 30
0.0
 11
7955.2787198301958
 21
-262.68179241194167
 31
0.0
1001
GRADIENTCOLOR1ACI
1070
     5
1001
GRADIENTCOLOR2ACI
1070
     2
1001
ACAD
1010
0.0
1020
0.0
1030
0.0
1001
ACDBBLOCKREPETAG
1070
     1
1071
      443
1005
1275B9
  0
LINE
  5
1275BA
  8
SLIM
 10
7954.895229465631
 20
-272.04553889757432
 30
0.0
 11
7960.7157753782021
 21
-266.22499298500497
 31
0.0
1001
GRADIENTCOLOR1ACI
1070
     5
1001
GRADIENTCOLOR2ACI
1070
     2
1001
ACAD
1010
0.0
1020
0.0
1030
0.0
1001
ACDBBLOCKREPETAG
1070
     1
1071
      444
1005
1275BA
  0
LINE
  5
1275BB
  8
SLIM
 10
7960.6026880156223
 20
-275.31833646865419
 30
0.0
 11
7966.5609013486683
 21
-269.36012313560622
 31
0.0
1001
GRADIENTCOLOR1ACI
1070
     5
1001
GRADIENTCOLOR2ACI
1070
     2
1001
ACAD
1010
0.0
1020
0.0
1030
0.0
1001
ACDBBLOCKREPETAG
1070
     1
1071
      445
1005
1275BB
  0
LINE
  5
1275BC
  8
SLIM
 10
7966.6969969239663
 20
-278.20428368137863
 30
0.0
 11
7972.2361008026746
 21
-272.66517980267162
 31
0.0
1001
GRADIENTCOLOR1ACI
1070
     5
1001
GRADIENTCOLOR2ACI
1070
     2
1001
ACAD
1010
0.0
1020
0.0
1030
0.0
1001
ACDBBLOCKREPETAG
1070
     1
1071
      446
1005
1275BC
  0
LINE
  5
1275BD
  8
SLIM
 10
7973.2127961327187
 20
-280.66874059369371
 30
0.0
 11
7976.7262288632082
 21
-277.15530786320562
 31
0.0
1001
GRADIENTCOLOR1ACI
1070
     5
1001
GRADIENTCOLOR2ACI
1070
     2
1001
ACAD
1010
0.0
1020
0.0
1030
0.0
1001
ACDBBLOCKREPETAG
1070
     1
1071
      447
1005
1275BD
  0
LINE
  5
1275BE
  8
SLIM
 10
7980.2000585426395
 20
-282.66173430484548
 30
0.0
 11
7982.7061722069739
 21
-280.15562064050812
 31
0.0
1001
GRADIENTCOLOR1ACI
1070
     5
1001
GRADIENTCOLOR2ACI
1070
     2
1001
ACAD
1010
0.0
1020
0.0
1030
0.0
1001
ACDBBLOCKREPETAG
1070
     1
1071
      448
1005
1275BE
  0
LINE
  5
1275BF
  8
SLIM
 10
7987.732021589426
 20
-284.11002737912702
 30
0.0
 11
7990.4053129112399
 21
-281.43673605731391
 31
0.0
1001
GRADIENTCOLOR1ACI
1070
     5
1001
GRADIENTCOLOR2ACI
1070
     2
1001
ACAD
1010
0.0
1020
0.0
1030
0.0
1001
ACDBBLOCKREPETAG
1070
     1
1071
      449
1005
1275BF
  0
LINE
  5
1275C0
  8
SLIM
 10
7995.9202686470962
 20
-284.90203644252568
 30
0.0
 11
7998.8306432886693
 21
-281.99166180095108
 31
0.0
1001
GRADIENTCOLOR1ACI
1070
     5
1001
GRADIENTCOLOR2ACI
1070
     2
1001
ACAD
1010
0.0
1020
0.0
1030
0.0
1001
ACDBBLOCKREPETAG
1070
     1
1071
      450
1005
1275C0
  0
LINE
  5
1275C1
  8
SLIM
 10
8004.9466187997441
 20
-284.8559424109464
 30
0.0
 11
8008.2151115494216
 21
-281.58744966127108
 31
0.0
1001
GRADIENTCOLOR1ACI
1070
     5
1001
GRADIENTCOLOR2ACI
1070
     2
1001
ACAD
1010
0.0
1020
0.0
1030
0.0
1001
ACDBBLOCKREPETAG
1070
     1
1071
      451
1005
1275C1
  0
LINE
  5
1275C2
  8
SLIM
 10
8015.1424853251401
 20
-283.64033200662112
 30
0.0
 11
8019.0189087687686
 21
-279.76390856299031
 31
0.0
1001
GRADIENTCOLOR1ACI
1070
     5
1001
GRADIENTCOLOR2ACI
1070
     2
1001
ACAD
1010
0.0
1020
0.0
1030
0.0
1001
ACDBBLOCKREPETAG
1070
     1
1071
      452
1005
1275C2
  0
LINE
  5
1275C3
  8
SLIM
 10
8027.2492255236657
 20
-280.51384792916173
 30
0.0
 11
8045.7630734528302
 21
-261.99999999999909
 31
0.0
1001
GRADIENTCOLOR1ACI
1070
     5
1001
GRADIENTCOLOR2ACI
1070
     2
1001
ACAD
1010
0.0
1020
0.0
1030
0.0
1001
ACDBBLOCKREPETAG
1070
     1
1071
      453
1005
1275C3
  0
LINE
  5
1275C4
  8
SLIM
 10
8044.045159630421
 20
-272.6981699434757
 30
0.0
 11
8054.7433295739002
 21
-261.99999999999909
 31
0.0
1001
GRADIENTCOLOR1ACI
1070
     5
1001
GRADIENTCOLOR2ACI
1070
     2
1001
ACAD
1010
0.0
1020
0.0
1030
0.0
1001
ACDBBLOCKREPETAG
1070
     1
1071
      454
1005
1275C4
  0
ARC
  5
1275C5
  8
OBJECT
 10
8000.0
 20
-199.99999999999909
 30
0.0
 40
77.0
 50
202.25886899982271
 51
247.7411309999043
1001
ACDBBLOCKREPETAG
1070
     1
1071
      212
1005
1275C5
  0
ARC
  5
1275C6
  8
OBJECT
 10
8000.0
 20
-199.99999999999909
 30
0.0
 40
77.0
 50
292.25886900009567
 51
337.74113100017729
1001
ACDBBLOCKREPETAG
1070
     1
1071
      215
1005
1275C6
  0
ARC
  5
1275C7
  8
OBJECT
 10
8000.0
 20
-199.99999999999909
 30
0.0
 40
77.0
 50
112.2588690000957
 51
157.74113100017721
1001
ACDBBLOCKREPETAG
1070
     1
1071
      216
1005
1275C7
  0
ARC
  5
1275C8
  8
OBJECT
 10
8000.0
 20
-199.99999999999909
 30
0.0
 40
77.0
 50
22.25886899982272
 51
67.741130999904328
1001
ACDBBLOCKREPETAG
1070
     1
1071
      220
1005
1275C8
  0
CIRCLE
  5
1275C9
  8
OBJECT
 10
8000.0
 20
-199.99999999999909
 30
0.0
 40
70.0
1001
ACDBBLOCKREPETAG
1070
     1
1071
      221
1005
1275C9
  0
LINE
  5
1275CA
  8
OBJECT
 10
8029.1669749999928
 20
-271.26210499999888
 30
0.0
 11
8021.2231624441047
 21
-279.20591755589248
 31
0.0
1001
ACDBBLOCKREPETAG
1070
     1
1071
      222
1005
1275CA
  0
LINE
  5
1275CB
  8
OBJECT
 10
7970.8330260000021
 20
-271.26210499999888
 30
0.0
 11
7978.77683892192
 21
-279.20591792191681
 31
0.0
1001
ACDBBLOCKREPETAG
1070
     1
1071
      223
1005
1275CB
  0
ARC
  5
1275CC
  8
OBJECT
 10
8000.0
 20
-199.99999999999909
 30
0.0
 40
82.000000000000014
 50
255.00000044864029
 51
285.00000053969478
1001
ACDBBLOCKREPETAG
1070
     1
1071
      224
1005
1275CC
  0
LINE
  5
1275CD
  8
OBJECT
 10
7928.7378959999978
 20
-229.1669739999989
 30
0.0
 11
7920.7940817120543
 21
-221.2231597120545
 31
0.0
1001
ACDBBLOCKREPETAG
1070
     1
1071
      225
1005
1275CD
  0
ARC
  5
1275CE
  8
OBJECT
 10
8000.0
 20
-199.99999999999909
 30
0.0
 40
82.000000000000014
 50
165.0000004487641
 51
194.99999856301361
1001
ACDBBLOCKREPETAG
1070
     1
1071
      226
1005
1275CE
  0
LINE
  5
1275CF
  8
OBJECT
 10
7970.8330260000021
 20
-128.7378949999993
 30
0.0
 11
7978.77683892192
 21
-120.7940820780795
 31
0.0
1001
ACDBBLOCKREPETAG
1070
     1
1071
      227
1005
1275CF
  0
ARC
  5
1275D0
  8
OBJECT
 10
8000.0
 20
-199.99999999999909
 30
0.0
 40
82.000000000000014
 50
74.999999460305204
 51
104.99999955135971
1001
ACDBBLOCKREPETAG
1070
     1
1071
      228
1005
1275D0
  0
LINE
  5
1275D1
  8
OBJECT
 10
8029.1669749999928
 20
-128.7378949999993
 30
0.0
 11
8021.2231624441047
 21
-120.79408244410391
 31
0.0
1001
ACDBBLOCKREPETAG
1070
     1
1071
      229
1005
1275D1
  0
LINE
  5
1275D2
  8
OBJECT
 10
7962.402059
 20
-161.93893300000039
 30
0.0
 11
8037.0841102714267
 21
-174.5180316957439
 31
0.0
1001
ACDBBLOCKREPETAG
1070
     1
1071
      230
1005
1275D2
  0
LINE
  5
1275D3
  8
OBJECT
 10
8044.0936569999967
 20
-169.70149399999991
 30
0.0
 11
8037.0841102714267
 21
-174.5180316957439
 31
0.0
1001
ACDBBLOCKREPETAG
1070
     1
1071
      231
1005
1275D3
  0
LINE
  5
1275D4
  8
OBJECT
 10
7928.7378959999978
 20
-170.833024999999
 30
0.0
 11
7920.7940820780777
 21
-178.77683892191911
 31
0.0
1001
ACDBBLOCKREPETAG
1070
     1
1071
      232
1005
1275D4
  0
CIRCLE
  5
1275D5
  8
OBJECT
 10
8000.0
 20
-199.99999999999909
 30
0.0
 40
53.500000000000007
1001
ACDBBLOCKREPETAG
1070
     1
1071
      233
1005
1275D5
  0
ARC
  5
1275D6
  8
OBJECT
 10
8000.0
 20
-199.99999999999909
 30
0.0
 40
50.0
 50
131.7018096435265
 51
168.52376955954711
1001
ACDBBLOCKREPETAG
1070
     1
1071
      234
1005
1275D6
  0
ARC
  5
1275D7
  8
OBJECT
 10
8000.0
 20
-199.99999999999909
 30
0.0
 40
50.0
 50
238.8199429999047
 51
34.494506250115712
1001
ACDBBLOCKREPETAG
1070
     1
1071
      235
1005
1275D7
  0
LINE
  5
1275D8
  8
OBJECT
 10
8071.2621049999934
 20
-170.833024999999
 30
0.0
 11
8079.2059175558898
 21
-178.77683755589439
 31
0.0
1001
ACDBBLOCKREPETAG
1070
     1
1071
      236
1005
1275D8
  0
ARC
  5
1275D9
  8
OBJECT
 10
8000.0
 20
-199.99999999999909
 30
0.0
 40
82.000000000000014
 50
345.00000044876413
 51
15.00000053935913
1001
ACDBBLOCKREPETAG
1070
     1
1071
      237
1005
1275D9
  0
LINE
  5
1275DA
  8
OBJECT
 10
8071.2621049999934
 20
-229.1669739999989
 30
0.0
 11
8079.2059179219232
 21
-221.2231610780791
 31
0.0
1001
ACDBBLOCKREPETAG
1070
     1
1071
      238
1005
1275DA
  0
LINE
  5
1275DB
  8
OBJECT
 10
8045.6618002273271
 20
-137.99999999999909
 30
0.0
 11
8080.0
 21
-137.99999999999909
 31
0.0
1001
ACDBBLOCKREPETAG
1070
     1
1071
      239
1005
1275DB
  0
LINE
  5
1275DC
  8
OBJECT
 10
8045.6618002273271
 20
-261.99999999999909
 30
0.0
 11
8080.0
 21
-261.99999999999909
 31
0.0
1001
ACDBBLOCKREPETAG
1070
     1
1071
      240
1005
1275DC
  0
LINE
  5
1275DD
  8
CENTER
 10
8080.0
 20
-199.99999999999909
 30
0.0
 11
7900.0018972160606
 21
-199.99999999999909
 31
0.0
1001
ACDBBLOCKREPETAG
1070
     1
1071
      249
1005
1275DD
  0
LINE
  5
1275DE
  8
CENTER
 10
8000.0
 20
-299.99999999999898
 30
0.0
 11
8000.0
 21
-99.999999999999091
 31
0.0
1001
ACDBBLOCKREPETAG
1070
     1
1071
      250
1005
1275DE
  0
ARC
  5
1275DF
  8
OBJECT
 10
8000.0
 20
-199.99999999999909
 30
0.0
 40
85.0
 50
46.837102859814031
 51
313.16289714018598
1001
ACDBBLOCKREPETAG
1070
     1
1071
      251
1005
1275DF
  0
LINE
  5
1275E0
  8
OBJECT
 10
7946.692194143754
 20
-195.46638161316051
 30
0.0
 11
7970.4540343856352
 21
-193.79865146436981
 31
0.0
1001
ACDBBLOCKREPETAG
1070
     1
1071
      340
1005
1275E0
  0
LINE
  5
1275E1
  8
OBJECT
 10
7947.3854347270599
 20
-190.305593971766
 30
0.0
 11
7966.9884352628978
 21
-188.92975272660161
 31
0.0
1001
ACDBBLOCKREPETAG
1070
     1
1071
      341
1005
1275E1
  0
LINE
  5
1275E2
  8
OBJECT
 10
7974.1135374752766
 20
-242.77722592637201
 30
0.0
 11
7982.1366988374048
 21
-234.1690987954708
 31
0.0
1001
ACDBBLOCKREPETAG
1070
     1
1071
      342
1005
1275E2
  0
ARC
  5
1275E3
  8
OBJECT
 10
7982.1160071245422
 20
-183.28188966318251
 30
0.0
 40
60.031113246032611
 50
254.07020130412749
 51
262.33936106086588
1001
ACDBBLOCKREPETAG
1070
     1
1071
      343
1005
1275E3
  0
LINE
  5
1275E4
  8
OBJECT
 10
7977.6125997325144
 20
-197.67495277149911
 30
0.0
 11
7982.1366988374048
 21
-234.1690987954708
 31
0.0
1001
ACDBBLOCKREPETAG
1070
     1
1071
      344
1005
1275E4
  0
ARC
  5
1275E5
  8
OBJECT
 10
7967.6885653456429
 20
-198.90521351131881
 30
0.0
 40
10.0
 50
7.0667782929925851
 51
94.014734370532395
1001
ACDBBLOCKREPETAG
1070
     1
1071
      345
1005
1275E5
  0
ARC
  5
1275E6
  8
OBJECT
 10
7970.9441253709729
 20
-200.78147401875589
 30
0.0
 40
7.0
 50
7.0667782929925851
 51
94.014733775014648
1001
ACDBBLOCKREPETAG
1070
     1
1071
      346
1005
1275E6
  0
POINT
  5
1275E7
  8
DOTS
 10
8000.0
 20
-199.99999999999909
 30
0.0
 50
270.0
1001
ACDBBLOCKREPETAG
1070
     1
1071
      349
1005
1275E7
  0
LINE
  5
1275E8
  8
OBJECT
 10
8212.9999999999836
 20
-453.0000000000008
 30
0.0
 11
8219.9999999999873
 21
-453.0000000000008
 31
0.0
1001
ACDBBLOCKREPETAG
1070
     1
1071
      106
1005
1275E8
  0
LINE
  5
1275E9
  8
OBJECT
 10
8219.9999999999873
 20
-453.0000000000008
 30
0.0
 11
8219.9999999999873
 21
-577.0000000000008
 31
0.0
1001
ACDBBLOCKREPETAG
1070
     1
1071
      107
1005
1275E9
  0
LINE
  5
1275EA
  8
OBJECT
 10
8085.9999999999873
 20
-553.3502637757274
 30
0.0
 11
8085.9999999999873
 21
-655.00000000000068
 31
0.0
1001
ACDBBLOCKREPETAG
1070
     1
1071
      108
1005
1275EA
  0
LINE
  5
1275EB
  8
OBJECT
 10
8219.9999999999873
 20
-577.0000000000008
 30
0.0
 11
8212.9999999999836
 21
-577.0000000000008
 31
0.0
1001
ACDBBLOCKREPETAG
1070
     1
1071
      109
1005
1275EB
  0
LINE
  5
1275EC
  8
OBJECT
 10
8212.9999999999836
 20
-577.0000000000008
 30
0.0
 11
8212.9999999999836
 21
-453.0000000000008
 31
0.0
1001
ACDBBLOCKREPETAG
1070
     1
1071
      110
1005
1275EC
  0
LINE
  5
1275ED
  8
CENTER
 10
8144.9999999999873
 20
-515.0000000000008
 30
0.0
 11
8234.9999999999873
 21
-515.0000000000008
 31
0.0
1001
ACDBBLOCKREPETAG
1070
     1
1071
      111
1005
1275ED
  0
LINE
  5
1275EE
  8
OBJECT
 10
8079.9999999999818
 20
-658.0
 30
0.0
 11
8082.9999999999873
 21
-658.0000000000008
 31
0.0
1001
ACDBBLOCKREPETAG
1070
     1
1071
      112
1005
1275EE
  0
ARC
  5
1275EF
  8
OBJECT
 10
8082.9999999999873
 20
-655.00000000000068
 30
0.0
 40
3.0
 50
270.0
 51
0.0
1001
ACDBBLOCKREPETAG
1070
     1
1071
      113
1005
1275EF
  0
LINE
  5
1275F0
  8
OBJECT
 10
8212.9999999999836
 20
-456.0000000000008
 30
0.0
 11
8176.9999999999873
 21
-456.0000000000008
 31
0.0
1001
ACDBBLOCKREPETAG
1070
     1
1071
      114
1005
1275F0
  0
LINE
  5
1275F1
  8
OBJECT
 10
8176.9999999999873
 20
-456.0000000000008
 30
0.0
 11
8176.9999999999873
 21
-553.15756805667843
 31
0.0
1001
ACDBBLOCKREPETAG
1070
     1
1071
      115
1005
1275F1
  0
LINE
  5
1275F2
  8
OBJECT
 10
8172.9999999999854
 20
-460.5000000000008
 30
0.0
 11
8172.99999999998
 21
-545.74491827928705
 31
0.0
1001
ACDBBLOCKREPETAG
1070
     1
1071
      116
1005
1275F2
  0
LINE
  5
1275F3
  8
OBJECT
 10
8172.9999999999854
 20
-460.5000000000008
 30
0.0
 11
8159.9999999999873
 21
-460.5000000000008
 31
0.0
1001
ACDBBLOCKREPETAG
1070
     1
1071
      117
1005
1275F3
  0
LINE
  5
1275F4
  8
OBJECT
 10
8168.6563168254688
 20
-574.0000000000008
 30
0.0
 11
8212.9999999999836
 21
-574.0000000000008
 31
0.0
1001
ACDBBLOCKREPETAG
1070
     1
1071
      118
1005
1275F4
  0
LINE
  5
1275F5
  8
OBJECT
 10
8176.9999999999873
 20
-456.0000000000008
 30
0.0
 11
8172.9999999999854
 21
-460.5000000000008
 31
0.0
1001
ACDBBLOCKREPETAG
1070
     1
1071
      119
1005
1275F5
  0
LINE
  5
1275F6
  8
OBJECT
 10
8159.9999999999873
 20
-460.5000000000008
 30
0.0
 11
8159.9999999999873
 21
-545.74491827928784
 31
0.0
1001
ACDBBLOCKREPETAG
1070
     1
1071
      120
1005
1275F6
  0
ARC
  5
1275F7
  8
OBJECT
 10
8091.9999999999864
 20
-537.27386365609345
 30
0.0
 40
85.0
 50
308.59099323720869
 51
334.40086127811207
1001
ACDBBLOCKREPETAG
1070
     1
1071
      121
1005
1275F7
  0
ARC
  5
1275F8
  8
OBJECT
 10
8162.7999999999838
 20
-555.00000000000068
 30
0.0
 40
85.0
 50
91.887731891831123
 51
160.07406787456929
1001
ACDBBLOCKREPETAG
1070
     1
1071
      122
1005
1275F8
  0
LINE
  5
1275F9
  8
OBJECT
 10
8085.9999999999873
 20
-650.81075719270927
 30
0.0
 11
8145.0193225436024
 21
-603.71143914629465
 31
0.0
1001
ACDBBLOCKREPETAG
1070
     1
1071
      123
1005
1275F9
  0
LINE
  5
1275FA
  8
OBJECT
 10
8172.99999999998
 20
-545.74491827928705
 30
0.0
 11
8159.9999999999873
 21
-545.74491827928784
 31
0.0
1001
ACDBBLOCKREPETAG
1070
     1
1071
      124
1005
1275FA
  0
LINE
  5
1275FB
  8
OBJECT
 10
8176.9999999999873
 20
-553.15756805667843
 30
0.0
 11
8172.99999999998
 21
-545.74491827928705
 31
0.0
1001
ACDBBLOCKREPETAG
1070
     1
1071
      125
1005
1275FB
  0
LINE
  5
1275FC
  8
OBJECT
 10
8080.0000000000173
 20
-534.0
 30
0.0
 11
8082.8886121596206
 21
-526.03156729425325
 31
0.0
1001
ACDBBLOCKREPETAG
1070
     1
1071
      126
1005
1275FC
  0
LINE
  5
1275FD
  8
OBJECT
 10
8080.0000000000173
 20
-534.0
 30
0.0
 11
8085.9999999999873
 21
-553.3502637757274
 31
0.0
1001
ACDBBLOCKREPETAG
1070
     1
1071
      127
1005
1275FD
  0
LINE
  5
1275FE
  8
HIDDEN
 10
8167.9999999999864
 20
-470.5000000000008
 30
0.0
 11
8167.9999999999864
 21
-559.50000000000068
 31
0.0
1001
ACDBBLOCKREPETAG
1070
     1
1071
      129
1005
1275FE
  0
LINE
  5
1275FF
  8
OBJECT
 10
8212.9999999999836
 20
-137.99999999999909
 30
0.0
 11
8219.9999999999873
 21
-137.99999999999909
 31
0.0
1001
ACDBBLOCKREPETAG
1070
     1
1071
      110
1005
1275FF
  0
LINE
  5
127600
  8
OBJECT
 10
8219.9999999999873
 20
-137.99999999999909
 30
0.0
 11
8219.9999999999873
 21
-261.99999999999909
 31
0.0
1001
ACDBBLOCKREPETAG
1070
     1
1071
      111
1005
127600
  0
LINE
  5
127601
  8
OBJECT
 10
8219.9999999999873
 20
-261.99999999999909
 30
0.0
 11
8212.9999999999836
 21
-261.99999999999909
 31
0.0
1001
ACDBBLOCKREPETAG
1070
     1
1071
      112
1005
127601
  0
LINE
  5
127602
  8
OBJECT
 10
8212.9999999999836
 20
-261.99999999999909
 30
0.0
 11
8212.9999999999836
 21
-137.99999999999909
 31
0.0
1001
ACDBBLOCKREPETAG
1070
     1
1071
      113
1005
127602
  0
LINE
  5
127603
  8
CENTER
 10
8234.9999999999873
 20
-199.99999999999909
 30
0.0
 11
8080.0000000000027
 21
-199.99999999999909
 31
0.0
1001
ACDBBLOCKREPETAG
1070
     1
1071
      114
1005
127603
  0
LINE
  5
127604
  8
OBJECT
 10
8159.9999749641838
 20
-245.0000000000027
 30
0.0
 11
8086.0
 21
-244.99999999999909
 31
0.0
1001
ACDBBLOCKREPETAG
1070
     1
1071
      115
1005
127604
  0
LINE
  5
127605
  8
OBJECT
 10
8159.9999749641838
 20
-154.99999999999909
 30
0.0
 11
8086.0
 21
-154.99999999999909
 31
0.0
1001
ACDBBLOCKREPETAG
1070
     1
1071
      116
1005
127605
  0
LINE
  5
127606
  8
OBJECT
 10
8212.9999999999836
 20
-140.99999999999909
 30
0.0
 11
8176.9999999999873
 21
-140.99999999999909
 31
0.0
1001
ACDBBLOCKREPETAG
1070
     1
1071
      117
1005
127606
  0
LINE
  5
127607
  8
OBJECT
 10
8176.9999999999873
 20
-140.99999999999909
 30
0.0
 11
8176.9999999999873
 21
-258.99999999999909
 31
0.0
1001
ACDBBLOCKREPETAG
1070
     1
1071
      118
1005
127607
  0
LINE
  5
127608
  8
OBJECT
 10
8176.9999999999873
 20
-258.99999999999909
 30
0.0
 11
8212.9999999999836
 21
-258.99999999999909
 31
0.0
1001
ACDBBLOCKREPETAG
1070
     1
1071
      119
1005
127608
  0
LINE
  5
127609
  8
OBJECT
 10
8172.9999999999854
 20
-145.49999999999909
 30
0.0
 11
8159.9999999999873
 21
-145.49999999999909
 31
0.0
1001
ACDBBLOCKREPETAG
1070
     1
1071
      120
1005
127609
  0
LINE
  5
12760A
  8
OBJECT
 10
8159.9999999999873
 20
-254.49999999999909
 30
0.0
 11
8172.9999999999854
 21
-254.49999999999909
 31
0.0
1001
ACDBBLOCKREPETAG
1070
     1
1071
      121
1005
12760A
  0
LINE
  5
12760B
  8
OBJECT
 10
8172.9999999999854
 20
-254.49999999999909
 30
0.0
 11
8172.9999999999854
 21
-145.49999999999909
 31
0.0
1001
ACDBBLOCKREPETAG
1070
     1
1071
      122
1005
12760B
  0
LINE
  5
12760C
  8
OBJECT
 10
8176.9999999999873
 20
-140.99999999999909
 30
0.0
 11
8172.9999999999854
 21
-145.49999999999909
 31
0.0
1001
ACDBBLOCKREPETAG
1070
     1
1071
      123
1005
12760C
  0
LINE
  5
12760D
  8
OBJECT
 10
8176.9999999999873
 20
-258.99999999999909
 30
0.0
 11
8172.9999999999854
 21
-254.49999999999909
 31
0.0
1001
ACDBBLOCKREPETAG
1070
     1
1071
      124
1005
12760D
  0
LINE
  5
12760E
  8
OBJECT
 10
8083.0
 20
-137.99999999999909
 30
0.0
 11
8080.0
 21
-137.99999999999909
 31
0.0
1001
ACDBBLOCKREPETAG
1070
     1
1071
      125
1005
12760E
  0
ARC
  5
12760F
  8
OBJECT
 10
8083.0
 20
-140.99999999999909
 30
0.0
 40
3.0
 50
0.0
 51
90.0
1001
ACDBBLOCKREPETAG
1070
     1
1071
      126
1005
12760F
  0
LINE
  5
127610
  8
OBJECT
 10
8080.0
 20
-261.99999999999909
 30
0.0
 11
8083.0
 21
-261.99999999999909
 31
0.0
1001
ACDBBLOCKREPETAG
1070
     1
1071
      127
1005
127610
  0
ARC
  5
127611
  8
OBJECT
 10
8083.0
 20
-258.99999999999909
 30
0.0
 40
3.0
 50
270.0
 51
0.0
1001
ACDBBLOCKREPETAG
1070
     1
1071
      128
1005
127611
  0
LINE
  5
127612
  8
OBJECT
 10
8086.0
 20
-258.99999999999909
 30
0.0
 11
8086.0
 21
-222.44994432063581
 31
0.0
1001
ACDBBLOCKREPETAG
1070
     1
1071
      129
1005
127612
  0
LINE
  5
127613
  8
OBJECT
 10
8086.0
 20
-177.55005567935859
 30
0.0
 11
8086.0
 21
-140.99999999999909
 31
0.0
1001
ACDBBLOCKREPETAG
1070
     1
1071
      130
1005
127613
  0
LINE
  5
127614
  8
HIDDEN
 10
8167.9999999999864
 20
-155.49999999999909
 30
0.0
 11
8167.9999999999864
 21
-244.49999999999909
 31
0.0
1001
ACDBBLOCKREPETAG
1070
     1
1071
      131
1005
127614
  0
LINE
  5
127615
  8
OBJECT
 10
8159.9999749641838
 20
-254.4999509238105
 30
0.0
 11
8159.9999749641838
 21
-145.4999509238105
 31
0.0
1001
ACDBBLOCKREPETAG
1070
     1
1071
      133
1005
127615
  0
ARC
  5
127616
  8
OBJECT
 10
8125.0000000000027
 20
-199.99999999999909
 30
0.0
 40
45.000000000000547
 50
90.0
 51
166.2158024759261
1001
ACDBBLOCKREPETAG
1070
     1
1071
      134
1005
127616
  0
ARC
  5
127617
  8
OBJECT
 10
8125.0000000000027
 20
-199.99999999999909
 30
0.0
 40
45.000000000000547
 50
193.78421279332531
 51
270.0
1001
ACDBBLOCKREPETAG
1070
     1
1071
      402
1005
127617
  0
LINE
  5
127618
  8
OBJECT
 10
5918.0
 20
-470.99999999999937
 30
0.0
 11
5918.0
 21
-449.99999999999937
 31
0.0
1001
ACDBBLOCKREPETAG
1070
     1
1071
        0
1005
127618
  0
LINE
  5
127619
  8
OBJECT
 10
5918.0
 20
-449.99999999999937
 30
0.0
 11
6082.0000000000036
 21
-449.99999999999937
 31
0.0
1001
ACDBBLOCKREPETAG
1070
     1
1071
        1
1005
127619
  0
LINE
  5
12761A
  8
HIDDEN
 10
5943.0
 20
-519.99999999999955
 30
0.0
 11
6057.0
 21
-519.99999999999955
 31
0.0
1001
ACDBBLOCKREPETAG
1070
     1
1071
        2
1005
12761A
  0
LINE
  5
12761B
  8
OBJECT
 10
6082.0000000000036
 20
-470.99999999999937
 30
0.0
 11
5918.0
 21
-470.99999999999937
 31
0.0
1001
ACDBBLOCKREPETAG
1070
     1
1071
        3
1005
12761B
  0
LINE
  5
12761C
  8
CENTER
 10
6000.0
 20
-434.99999999999949
 30
0.0
 11
6000.0
 21
-799.99999999999955
 31
0.0
1001
ACDBBLOCKREPETAG
1070
     1
1071
        4
1005
12761C
  0
LINE
  5
12761D
  8
OBJECT
 10
5925.0
 20
-533.99999999999955
 30
0.0
 11
5925.0
 21
-787.99999999999955
 31
0.0
1001
ACDBBLOCKREPETAG
1070
     1
1071
        5
1005
12761D
  0
LINE
  5
12761E
  8
OBJECT
 10
5928.0
 20
-470.99999999999937
 30
0.0
 11
5928.0
 21
-533.99999999999955
 31
0.0
1001
ACDBBLOCKREPETAG
1070
     1
1071
        6
1005
12761E
  0
LINE
  5
12761F
  8
OBJECT
 10
6072.0
 20
-533.99999999999955
 30
0.0
 11
6072.0
 21
-470.99999999999937
 31
0.0
1001
ACDBBLOCKREPETAG
1070
     1
1071
        7
1005
12761F
  0
LINE
  5
127620
  8
OBJECT
 10
5920.0
 20
-787.99999999999955
 30
0.0
 11
6080.0
 21
-787.99999999999955
 31
0.0
1001
ACDBBLOCKREPETAG
1070
     1
1071
        8
1005
127620
  0
LINE
  5
127621
  8
OBJECT
 10
6080.0
 20
-533.99999999999955
 30
0.0
 11
5925.0
 21
-533.99999999999955
 31
0.0
1001
ACDBBLOCKREPETAG
1070
     1
1071
        9
1005
127621
  0
LINE
  5
127622
  8
OBJECT
 10
5920.0
 20
-787.99999999999955
 30
0.0
 11
5920.0
 21
-799.99999999999955
 31
0.0
1001
ACDBBLOCKREPETAG
1070
     1
1071
       10
1005
127622
  0
LINE
  5
127623
  8
OBJECT
 10
5920.0
 20
-799.99999999999955
 30
0.0
 11
6080.0
 21
-799.99999999999955
 31
0.0
1001
ACDBBLOCKREPETAG
1070
     1
1071
       11
1005
127623
  0
LINE
  5
127624
  8
OBJECT
 10
6080.0
 20
-799.99999999999955
 30
0.0
 11
6080.0
 21
-787.99999999999955
 31
0.0
1001
ACDBBLOCKREPETAG
1070
     1
1071
       12
1005
127624
  0
LINE
  5
127625
  8
OBJECT
 10
6074.9999999998618
 20
-657.99999999985039
 30
0.0
 11
6075.0
 21
-787.99999999999955
 31
0.0
1001
ACDBBLOCKREPETAG
1070
     1
1071
       14
1005
127625
  0
LINE
  5
127626
  8
OBJECT
 10
6074.9999908029858
 20
-657.99998602702135
 30
0.0
 11
6080.0
 21
-657.99998602702135
 31
0.0
1001
ACDBBLOCKREPETAG
1070
     1
1071
       15
1005
127626
  0
LINE
  5
127627
  8
OBJECT
 10
5920.7940817120252
 20
-449.99999999999937
 30
0.0
 11
5920.7940817120252
 21
-470.99999999999937
 31
0.0
1001
ACDBBLOCKREPETAG
1070
     1
1071
       16
1005
127627
  0
LINE
  5
127628
  8
OBJECT
 10
5928.7378959999987
 20
-449.99999999999937
 30
0.0
 11
5928.7378959999987
 21
-470.99999999999937
 31
0.0
1001
ACDBBLOCKREPETAG
1070
     1
1071
       17
1005
127628
  0
LINE
  5
127629
  8
OBJECT
 10
5970.8330260000012
 20
-449.99999999999937
 30
0.0
 11
5970.8330260000012
 21
-470.99999999999937
 31
0.0
1001
ACDBBLOCKREPETAG
1070
     1
1071
       18
1005
127629
  0
LINE
  5
12762A
  8
OBJECT
 10
5978.7768389218008
 20
-449.99999999999937
 30
0.0
 11
5978.7768389218008
 21
-470.99999999999937
 31
0.0
1001
ACDBBLOCKREPETAG
1070
     1
1071
       19
1005
12762A
  0
LINE
  5
12762B
  8
OBJECT
 10
6082.0
 20
-470.99999999999937
 30
0.0
 11
6082.0
 21
-449.99999999999937
 31
0.0
1001
ACDBBLOCKREPETAG
1070
     1
1071
       20
1005
12762B
  0
LINE
  5
12762C
  8
OBJECT
 10
6079.2059182879748
 20
-449.99999999999937
 30
0.0
 11
6079.2059182879748
 21
-470.99999999999937
 31
0.0
1001
ACDBBLOCKREPETAG
1070
     1
1071
       21
1005
12762C
  0
LINE
  5
12762D
  8
OBJECT
 10
6071.2621040000022
 20
-449.99999999999937
 30
0.0
 11
6071.2621040000022
 21
-470.99999999999937
 31
0.0
1001
ACDBBLOCKREPETAG
1070
     1
1071
       22
1005
12762D
  0
LINE
  5
12762E
  8
OBJECT
 10
6029.1669739999979
 20
-449.99999999999937
 30
0.0
 11
6029.1669739999979
 21
-470.99999999999937
 31
0.0
1001
ACDBBLOCKREPETAG
1070
     1
1071
       23
1005
12762E
  0
LINE
  5
12762F
  8
OBJECT
 10
6021.2231610781992
 20
-449.99999999999937
 30
0.0
 11
6021.2231610781992
 21
-470.99999999999937
 31
0.0
1001
ACDBBLOCKREPETAG
1070
     1
1071
       24
1005
12762F
  0
ARC
  5
127630
  8
OBJECT
 10
6200.6872746716735
 20
-649.40809941010718
 30
0.0
 40
170.6350503965856
 50
137.44134459184301
 51
149.91949581337221
1001
ACDBBLOCKREPETAG
1070
     1
1071
       25
1005
127630
  0
ARC
  5
127631
  8
OBJECT
 10
6118.8455987040506
 20
-605.88272669536445
 30
0.0
 40
78.072222021763665
 50
147.4551531038293
 51
164.66365997719919
1001
ACDBBLOCKREPETAG
1070
     1
1071
       26
1005
127631
  0
ARC
  5
127632
  8
OBJECT
 10
6085.7554349608727
 20
-595.99999999999955
 30
0.0
 40
43.55353926885617
 50
165.688452300753
 51
194.3115476992468
1001
ACDBBLOCKREPETAG
1070
     1
1071
       27
1005
127632
  0
ARC
  5
127633
  8
OBJECT
 10
6200.6872746716735
 20
-542.59190058989179
 30
0.0
 40
170.6350503965856
 50
210.08050418662771
 51
222.55865540815699
1001
ACDBBLOCKREPETAG
1070
     1
1071
       28
1005
127633
  0
ARC
  5
127634
  8
OBJECT
 10
6118.8455987040506
 20
-586.11727330463452
 30
0.0
 40
78.072222021763665
 50
195.33634002280061
 51
212.5448468961705
1001
ACDBBLOCKREPETAG
1070
     1
1071
       29
1005
127634
  0
POINT
  5
127635
  8
DOTS
 10
6000.0
 20
-654.99999999999966
 30
0.0
1001
ACDBBLOCKREPETAG
1070
     1
1071
      204
1005
127635
  0
LINE
  5
127636
  8
OBJECT
 10
5946.692194143754
 20
-195.46638161316051
 30
0.0
 11
5970.4540343856352
 21
-193.79865146436981
 31
0.0
1001
ACDBBLOCKREPETAG
1070
     1
1071
      326
1005
127636
  0
LINE
  5
127637
  8
OBJECT
 10
5947.3854347270608
 20
-190.305593971766
 30
0.0
 11
5966.9884352629006
 21
-188.92975272660161
 31
0.0
1001
ACDBBLOCKREPETAG
1070
     1
1071
      327
1005
127637
  0
LINE
  5
127638
  8
OBJECT
 10
5974.1135374752794
 20
-242.77722592637201
 30
0.0
 11
5982.1366988374084
 21
-234.1690987954708
 31
0.0
1001
ACDBBLOCKREPETAG
1070
     1
1071
      328
1005
127638
  0
ARC
  5
127639
  8
OBJECT
 10
5982.1160071245376
 20
-183.28188966318251
 30
0.0
 40
60.031113246032611
 50
254.07020130412749
 51
262.33936106086588
1001
ACDBBLOCKREPETAG
1070
     1
1071
      329
1005
127639
  0
LINE
  5
12763A
  8
OBJECT
 10
5977.6125997325144
 20
-197.67495277149911
 30
0.0
 11
5982.1366988374084
 21
-234.1690987954708
 31
0.0
1001
ACDBBLOCKREPETAG
1070
     1
1071
      330
1005
12763A
  0
ARC
  5
12763B
  8
OBJECT
 10
5967.6885653456411
 20
-198.90521351131881
 30
0.0
 40
10.0
 50
7.0667782929925851
 51
94.014734370532395
1001
ACDBBLOCKREPETAG
1070
     1
1071
      331
1005
12763B
  0
ARC
  5
12763C
  8
OBJECT
 10
5970.9441253709738
 20
-200.78147401875589
 30
0.0
 40
7.0
 50
7.0667782929925851
 51
94.014733775014648
1001
ACDBBLOCKREPETAG
1070
     1
1071
      332
1005
12763C
  0
POINT
  5
12763D
  8
DOTS
 10
6000.0
 20
-199.99999999999909
 30
0.0
 50
270.0
1001
ACDBBLOCKREPETAG
1070
     1
1071
      347
1005
12763D
  0
ARC
  5
12763E
  8
OBJECT
 10
6000.0
 20
-199.99999999999909
 30
0.0
 40
77.0
 50
202.25886899988009
 51
247.74113099990561
1001
ACDBBLOCKREPETAG
1070
     1
1071
        0
1005
12763E
  0
ARC
  5
12763F
  8
OBJECT
 10
6000.0
 20
-199.99999999999909
 30
0.0
 40
80.0
 50
50.804965661401717
 51
72.417343999921059
1001
ACDBBLOCKREPETAG
1070
     1
1071
        1
1005
12763F
  0
ARC
  5
127640
  8
OBJECT
 10
6000.0
 20
-199.99999999999909
 30
0.0
 40
77.0
 50
292.25886900009442
 51
337.74113100011988
1001
ACDBBLOCKREPETAG
1070
     1
1071
        2
1005
127640
  0
ARC
  5
127641
  8
OBJECT
 10
6000.0
 20
-199.99999999999909
 30
0.0
 40
77.0
 50
112.25886900009441
 51
157.74113100011991
1001
ACDBBLOCKREPETAG
1070
     1
1071
        3
1005
127641
  0
ARC
  5
127642
  8
OBJECT
 10
6000.0
 20
-199.99999999999909
 30
0.0
 40
80.0
 50
107.5826560000789
 51
162.41734431895071
1001
ACDBBLOCKREPETAG
1070
     1
1071
        4
1005
127642
  0
ARC
  5
127643
  8
OBJECT
 10
6000.0
 20
-199.99999999999909
 30
0.0
 40
80.0
 50
197.58265458123211
 51
252.4173443189411
1001
ACDBBLOCKREPETAG
1070
     1
1071
        5
1005
127643
  0
ARC
  5
127644
  8
OBJECT
 10
6000.0
 20
-199.99999999999909
 30
0.0
 40
80.0
 50
287.5826567808985
 51
309.19496742611562
1001
ACDBBLOCKREPETAG
1070
     1
1071
        6
1005
127644
  0
ARC
  5
127645
  8
OBJECT
 10
6000.0
 20
-199.99999999999909
 30
0.0
 40
77.0
 50
22.258868999880129
 51
67.741130999905565
1001
ACDBBLOCKREPETAG
1070
     1
1071
        7
1005
127645
  0
CIRCLE
  5
127646
  8
OBJECT
 10
6000.0
 20
-199.99999999999909
 30
0.0
 40
70.0
1001
ACDBBLOCKREPETAG
1070
     1
1071
        8
1005
127646
  0
LINE
  5
127647
  8
OBJECT
 10
6029.1669749999983
 20
-271.26210499999888
 30
0.0
 11
6021.2231624441056
 21
-279.20591755589248
 31
0.0
1001
ACDBBLOCKREPETAG
1070
     1
1071
        9
1005
127647
  0
LINE
  5
127648
  8
OBJECT
 10
5970.8330260000012
 20
-271.26210499999888
 30
0.0
 11
5978.7768389219164
 21
-279.20591792191681
 31
0.0
1001
ACDBBLOCKREPETAG
1070
     1
1071
       10
1005
127648
  0
ARC
  5
127649
  8
OBJECT
 10
6000.0
 20
-199.99999999999909
 30
0.0
 40
82.000000000000014
 50
255.00000044864069
 51
285.00000053947957
1001
ACDBBLOCKREPETAG
1070
     1
1071
       11
1005
127649
  0
LINE
  5
12764A
  8
OBJECT
 10
5928.7378959999987
 20
-229.1669739999989
 30
0.0
 11
5920.7940817120543
 21
-221.2231597120545
 31
0.0
1001
ACDBBLOCKREPETAG
1070
     1
1071
       12
1005
12764A
  0
ARC
  5
12764B
  8
OBJECT
 10
6000.0
 20
-199.99999999999909
 30
0.0
 40
82.000000000000014
 50
165.0000004488474
 51
194.9999985630262
1001
ACDBBLOCKREPETAG
1070
     1
1071
       13
1005
12764B
  0
LINE
  5
12764C
  8
OBJECT
 10
5970.8330260000012
 20
-128.7378949999993
 30
0.0
 11
5978.7768389219164
 21
-120.7940820780795
 31
0.0
1001
ACDBBLOCKREPETAG
1070
     1
1071
       14
1005
12764C
  0
ARC
  5
12764D
  8
OBJECT
 10
6000.0
 20
-199.99999999999909
 30
0.0
 40
82.000000000000014
 50
74.999999460520442
 51
104.99999955135929
1001
ACDBBLOCKREPETAG
1070
     1
1071
       15
1005
12764D
  0
LINE
  5
12764E
  8
OBJECT
 10
6029.1669749999983
 20
-128.7378949999993
 30
0.0
 11
6021.2231624441056
 21
-120.79408244410391
 31
0.0
1001
ACDBBLOCKREPETAG
1070
     1
1071
       16
1005
12764E
  0
LINE
  5
12764F
  8
OBJECT
 10
5962.402059
 20
-161.93893300000039
 30
0.0
 11
6037.0841102714221
 21
-174.5180316957439
 31
0.0
1001
ACDBBLOCKREPETAG
1070
     1
1071
       17
1005
12764F
  0
LINE
  5
127650
  8
OBJECT
 10
6044.0936569999967
 20
-169.70149399999991
 30
0.0
 11
6037.0841102714221
 21
-174.5180316957439
 31
0.0
1001
ACDBBLOCKREPETAG
1070
     1
1071
       18
1005
127650
  0
LINE
  5
127651
  8
OBJECT
 10
5928.7378959999987
 20
-170.833024999999
 30
0.0
 11
5920.7940820780777
 21
-178.77683892191911
 31
0.0
1001
ACDBBLOCKREPETAG
1070
     1
1071
       19
1005
127651
  0
CIRCLE
  5
127652
  8
OBJECT
 10
6000.0
 20
-199.99999999999909
 30
0.0
 40
53.500000000000007
1001
ACDBBLOCKREPETAG
1070
     1
1071
       20
1005
127652
  0
ARC
  5
127653
  8
OBJECT
 10
6000.0
 20
-199.99999999999909
 30
0.0
 40
50.0
 50
131.70180964353301
 51
168.52376955958221
1001
ACDBBLOCKREPETAG
1070
     1
1071
       21
1005
127653
  0
ARC
  5
127654
  8
OBJECT
 10
6000.0
 20
-199.99999999999909
 30
0.0
 40
50.0
 50
238.8199429999047
 51
34.49450625011707
1001
ACDBBLOCKREPETAG
1070
     1
1071
       22
1005
127654
  0
LINE
  5
127655
  8
OBJECT
 10
6071.262104999998
 20
-170.833024999999
 30
0.0
 11
6079.2059175558934
 21
-178.77683755589439
 31
0.0
1001
ACDBBLOCKREPETAG
1070
     1
1071
       23
1005
127655
  0
ARC
  5
127656
  8
OBJECT
 10
6000.0
 20
-199.99999999999909
 30
0.0
 40
82.000000000000014
 50
345.00000044884729
 51
15.00000053937171
1001
ACDBBLOCKREPETAG
1070
     1
1071
       24
1005
127656
  0
LINE
  5
127657
  8
OBJECT
 10
6071.262104999998
 20
-229.1669739999989
 30
0.0
 11
6079.2059179219223
 21
-221.2231610780791
 31
0.0
1001
ACDBBLOCKREPETAG
1070
     1
1071
       25
1005
127657
  0
LINE
  5
127658
  8
OBJECT
 10
6045.6618002273253
 20
-137.99999999999909
 30
0.0
 11
6080.0
 21
-137.99999999999909
 31
0.0
1001
ACDBBLOCKREPETAG
1070
     1
1071
       26
1005
127658
  0
LINE
  5
127659
  8
OBJECT
 10
6045.6618002273253
 20
-261.99999999999909
 30
0.0
 11
6080.0
 21
-261.99999999999909
 31
0.0
1001
ACDBBLOCKREPETAG
1070
     1
1071
       27
1005
127659
  0
LINE
  5
12765A
  8
CENTER
 10
6080.0
 20
-199.99999999999909
 30
0.0
 11
5903.0
 21
-199.99999999999909
 31
0.0
1001
ACDBBLOCKREPETAG
1070
     1
1071
       36
1005
12765A
  0
LINE
  5
12765B
  8
CENTER
 10
6000.0
 20
-296.99999999999898
 30
0.0
 11
6000.0
 21
-104.9999999999991
 31
0.0
1001
ACDBBLOCKREPETAG
1070
     1
1071
       37
1005
12765B
  0
LINE
  5
12765C
  8
OBJECT
 10
6212.9999999999864
 20
-453.0000000000008
 30
0.0
 11
6219.9999999999873
 21
-453.0000000000008
 31
0.0
1001
ACDBBLOCKREPETAG
1070
     1
1071
      106
1005
12765C
  0
LINE
  5
12765D
  8
OBJECT
 10
6219.9999999999873
 20
-453.0000000000008
 30
0.0
 11
6219.9999999999873
 21
-577.0000000000008
 31
0.0
1001
ACDBBLOCKREPETAG
1070
     1
1071
      107
1005
12765D
  0
LINE
  5
12765E
  8
OBJECT
 10
6085.9999999999864
 20
-553.3502637757274
 30
0.0
 11
6085.9999999999864
 21
-655.00000000000068
 31
0.0
1001
ACDBBLOCKREPETAG
1070
     1
1071
      108
1005
12765E
  0
LINE
  5
12765F
  8
OBJECT
 10
6219.9999999999873
 20
-577.0000000000008
 30
0.0
 11
6212.9999999999864
 21
-577.0000000000008
 31
0.0
1001
ACDBBLOCKREPETAG
1070
     1
1071
      109
1005
12765F
  0
LINE
  5
127660
  8
OBJECT
 10
6212.9999999999864
 20
-577.0000000000008
 30
0.0
 11
6212.9999999999864
 21
-453.0000000000008
 31
0.0
1001
ACDBBLOCKREPETAG
1070
     1
1071
      110
1005
127660
  0
LINE
  5
127661
  8
CENTER
 10
6144.9999999999873
 20
-515.0000000000008
 30
0.0
 11
6234.9999999999864
 21
-515.0000000000008
 31
0.0
1001
ACDBBLOCKREPETAG
1070
     1
1071
      111
1005
127661
  0
LINE
  5
127662
  8
OBJECT
 10
6079.9999999999818
 20
-658.0
 30
0.0
 11
6082.9999999999864
 21
-658.0000000000008
 31
0.0
1001
ACDBBLOCKREPETAG
1070
     1
1071
      112
1005
127662
  0
ARC
  5
127663
  8
OBJECT
 10
6082.9999999999864
 20
-655.00000000000068
 30
0.0
 40
3.0
 50
270.0
 51
0.0
1001
ACDBBLOCKREPETAG
1070
     1
1071
      113
1005
127663
  0
LINE
  5
127664
  8
OBJECT
 10
6212.9999999999864
 20
-456.0000000000008
 30
0.0
 11
6176.9999999999873
 21
-456.0000000000008
 31
0.0
1001
ACDBBLOCKREPETAG
1070
     1
1071
      114
1005
127664
  0
LINE
  5
127665
  8
OBJECT
 10
6176.9999999999873
 20
-456.0000000000008
 30
0.0
 11
6176.9999999999873
 21
-553.15756805667843
 31
0.0
1001
ACDBBLOCKREPETAG
1070
     1
1071
      115
1005
127665
  0
LINE
  5
127666
  8
OBJECT
 10
6172.9999999999864
 20
-460.5000000000008
 30
0.0
 11
6172.9999999999818
 21
-545.74491827928705
 31
0.0
1001
ACDBBLOCKREPETAG
1070
     1
1071
      116
1005
127666
  0
LINE
  5
127667
  8
OBJECT
 10
6172.9999999999864
 20
-460.5000000000008
 30
0.0
 11
6159.9999999999864
 21
-460.5000000000008
 31
0.0
1001
ACDBBLOCKREPETAG
1070
     1
1071
      117
1005
127667
  0
LINE
  5
127668
  8
OBJECT
 10
6168.6563168254688
 20
-574.0000000000008
 30
0.0
 11
6212.9999999999864
 21
-574.0000000000008
 31
0.0
1001
ACDBBLOCKREPETAG
1070
     1
1071
      118
1005
127668
  0
LINE
  5
127669
  8
OBJECT
 10
6176.9999999999873
 20
-456.0000000000008
 30
0.0
 11
6172.9999999999864
 21
-460.5000000000008
 31
0.0
1001
ACDBBLOCKREPETAG
1070
     1
1071
      119
1005
127669
  0
LINE
  5
12766A
  8
OBJECT
 10
6159.9999999999864
 20
-460.5000000000008
 30
0.0
 11
6159.9999999999864
 21
-545.74491827928784
 31
0.0
1001
ACDBBLOCKREPETAG
1070
     1
1071
      120
1005
12766A
  0
ARC
  5
12766B
  8
OBJECT
 10
6091.9999999999873
 20
-537.27386365609345
 30
0.0
 40
85.0
 50
308.59099323720869
 51
334.40086127811207
1001
ACDBBLOCKREPETAG
1070
     1
1071
      121
1005
12766B
  0
ARC
  5
12766C
  8
OBJECT
 10
6162.7999999999856
 20
-555.00000000000068
 30
0.0
 40
85.0
 50
91.887731891831123
 51
160.07406787456929
1001
ACDBBLOCKREPETAG
1070
     1
1071
      122
1005
12766C
  0
LINE
  5
12766D
  8
OBJECT
 10
6085.9999999999864
 20
-650.81075719270927
 30
0.0
 11
6145.0193225436024
 21
-603.71143914629465
 31
0.0
1001
ACDBBLOCKREPETAG
1070
     1
1071
      123
1005
12766D
  0
LINE
  5
12766E
  8
OBJECT
 10
6172.9999999999818
 20
-545.74491827928705
 30
0.0
 11
6159.9999999999864
 21
-545.74491827928784
 31
0.0
1001
ACDBBLOCKREPETAG
1070
     1
1071
      124
1005
12766E
  0
LINE
  5
12766F
  8
OBJECT
 10
6176.9999999999873
 20
-553.15756805667843
 30
0.0
 11
6172.9999999999818
 21
-545.74491827928705
 31
0.0
1001
ACDBBLOCKREPETAG
1070
     1
1071
      125
1005
12766F
  0
LINE
  5
127670
  8
OBJECT
 10
6080.0000000000182
 20
-534.0
 30
0.0
 11
6082.8886121596233
 21
-526.03156729425325
 31
0.0
1001
ACDBBLOCKREPETAG
1070
     1
1071
      126
1005
127670
  0
LINE
  5
127671
  8
OBJECT
 10
6080.0000000000182
 20
-534.0
 30
0.0
 11
6085.9999999999864
 21
-553.3502637757274
 31
0.0
1001
ACDBBLOCKREPETAG
1070
     1
1071
      127
1005
127671
  0
LINE
  5
127672
  8
HIDDEN
 10
6167.9999999999864
 20
-470.5000000000008
 30
0.0
 11
6167.9999999999864
 21
-559.50000000000068
 31
0.0
1001
ACDBBLOCKREPETAG
1070
     1
1071
      129
1005
127672
  0
LINE
  5
127673
  8
OBJECT
 10
6212.9999999999864
 20
-137.99999999999909
 30
0.0
 11
6219.9999999999873
 21
-137.99999999999909
 31
0.0
1001
ACDBBLOCKREPETAG
1070
     1
1071
      110
1005
127673
  0
LINE
  5
127674
  8
OBJECT
 10
6219.9999999999873
 20
-137.99999999999909
 30
0.0
 11
6219.9999999999873
 21
-261.99999999999909
 31
0.0
1001
ACDBBLOCKREPETAG
1070
     1
1071
      111
1005
127674
  0
LINE
  5
127675
  8
OBJECT
 10
6219.9999999999873
 20
-261.99999999999909
 30
0.0
 11
6212.9999999999864
 21
-261.99999999999909
 31
0.0
1001
ACDBBLOCKREPETAG
1070
     1
1071
      112
1005
127675
  0
LINE
  5
127676
  8
OBJECT
 10
6212.9999999999864
 20
-261.99999999999909
 30
0.0
 11
6212.9999999999864
 21
-137.99999999999909
 31
0.0
1001
ACDBBLOCKREPETAG
1070
     1
1071
      113
1005
127676
  0
LINE
  5
127677
  8
CENTER
 10
6234.9999999999864
 20
-199.99999999999909
 30
0.0
 11
6080.0000000000036
 21
-199.99999999999909
 31
0.0
1001
ACDBBLOCKREPETAG
1070
     1
1071
      114
1005
127677
  0
LINE
  5
127678
  8
OBJECT
 10
6159.9999749641856
 20
-245.0000000000027
 30
0.0
 11
6086.0
 21
-244.99999999999909
 31
0.0
1001
ACDBBLOCKREPETAG
1070
     1
1071
      115
1005
127678
  0
LINE
  5
127679
  8
OBJECT
 10
6159.9999749641856
 20
-154.99999999999909
 30
0.0
 11
6086.0
 21
-154.99999999999909
 31
0.0
1001
ACDBBLOCKREPETAG
1070
     1
1071
      116
1005
127679
  0
LINE
  5
12767A
  8
OBJECT
 10
6212.9999999999864
 20
-140.99999999999909
 30
0.0
 11
6176.9999999999873
 21
-140.99999999999909
 31
0.0
1001
ACDBBLOCKREPETAG
1070
     1
1071
      117
1005
12767A
  0
LINE
  5
12767B
  8
OBJECT
 10
6176.9999999999873
 20
-140.99999999999909
 30
0.0
 11
6176.9999999999873
 21
-258.99999999999909
 31
0.0
1001
ACDBBLOCKREPETAG
1070
     1
1071
      118
1005
12767B
  0
LINE
  5
12767C
  8
OBJECT
 10
6176.9999999999873
 20
-258.99999999999909
 30
0.0
 11
6212.9999999999864
 21
-258.99999999999909
 31
0.0
1001
ACDBBLOCKREPETAG
1070
     1
1071
      119
1005
12767C
  0
LINE
  5
12767D
  8
OBJECT
 10
6172.9999999999864
 20
-145.49999999999909
 30
0.0
 11
6159.9999999999864
 21
-145.49999999999909
 31
0.0
1001
ACDBBLOCKREPETAG
1070
     1
1071
      120
1005
12767D
  0
LINE
  5
12767E
  8
OBJECT
 10
6159.9999999999864
 20
-254.49999999999909
 30
0.0
 11
6172.9999999999864
 21
-254.49999999999909
 31
0.0
1001
ACDBBLOCKREPETAG
1070
     1
1071
      121
1005
12767E
  0
LINE
  5
12767F
  8
OBJECT
 10
6172.9999999999864
 20
-254.49999999999909
 30
0.0
 11
6172.9999999999864
 21
-145.49999999999909
 31
0.0
1001
ACDBBLOCKREPETAG
1070
     1
1071
      122
1005
12767F
  0
LINE
  5
127680
  8
OBJECT
 10
6176.9999999999873
 20
-140.99999999999909
 30
0.0
 11
6172.9999999999864
 21
-145.49999999999909
 31
0.0
1001
ACDBBLOCKREPETAG
1070
     1
1071
      123
1005
127680
  0
LINE
  5
127681
  8
OBJECT
 10
6176.9999999999873
 20
-258.99999999999909
 30
0.0
 11
6172.9999999999864
 21
-254.49999999999909
 31
0.0
1001
ACDBBLOCKREPETAG
1070
     1
1071
      124
1005
127681
  0
LINE
  5
127682
  8
OBJECT
 10
6083.0
 20
-137.99999999999909
 30
0.0
 11
6080.0
 21
-137.99999999999909
 31
0.0
1001
ACDBBLOCKREPETAG
1070
     1
1071
      125
1005
127682
  0
ARC
  5
127683
  8
OBJECT
 10
6083.0
 20
-140.99999999999909
 30
0.0
 40
3.0
 50
0.0
 51
90.0
1001
ACDBBLOCKREPETAG
1070
     1
1071
      126
1005
127683
  0
LINE
  5
127684
  8
OBJECT
 10
6080.0
 20
-261.99999999999909
 30
0.0
 11
6083.0
 21
-261.99999999999909
 31
0.0
1001
ACDBBLOCKREPETAG
1070
     1
1071
      127
1005
127684
  0
ARC
  5
127685
  8
OBJECT
 10
6083.0
 20
-258.99999999999909
 30
0.0
 40
3.0
 50
270.0
 51
0.0
1001
ACDBBLOCKREPETAG
1070
     1
1071
      128
1005
127685
  0
LINE
  5
127686
  8
OBJECT
 10
6086.0
 20
-258.99999999999909
 30
0.0
 11
6086.0
 21
-222.44994432063581
 31
0.0
1001
ACDBBLOCKREPETAG
1070
     1
1071
      129
1005
127686
  0
LINE
  5
127687
  8
OBJECT
 10
6086.0
 20
-177.55005567935859
 30
0.0
 11
6086.0
 21
-140.99999999999909
 31
0.0
1001
ACDBBLOCKREPETAG
1070
     1
1071
      130
1005
127687
  0
LINE
  5
127688
  8
HIDDEN
 10
6167.9999999999864
 20
-155.49999999999909
 30
0.0
 11
6167.9999999999864
 21
-244.49999999999909
 31
0.0
1001
ACDBBLOCKREPETAG
1070
     1
1071
      131
1005
127688
  0
LINE
  5
127689
  8
OBJECT
 10
6159.9999749641856
 20
-254.4999509238105
 30
0.0
 11
6159.9999749641856
 21
-145.4999509238105
 31
0.0
1001
ACDBBLOCKREPETAG
1070
     1
1071
      133
1005
127689
  0
ARC
  5
12768A
  8
OBJECT
 10
6125.0000000000027
 20
-199.99999999999909
 30
0.0
 40
45.000000000000547
 50
90.0
 51
166.2158024759261
1001
ACDBBLOCKREPETAG
1070
     1
1071
      134
1005
12768A
  0
ARC
  5
12768B
  8
OBJECT
 10
6125.0000000000027
 20
-199.99999999999909
 30
0.0
 40
45.000000000000547
 50
193.78421279332531
 51
270.0
1001
ACDBBLOCKREPETAG
1070
     1
1071
      402
1005
12768B
  0
LINE
  5
12768C
  8
OBJECT
 10
3918.0
 20
-470.99999999999937
 30
0.0
 11
3918.0
 21
-449.99999999999937
 31
0.0
1001
ACDBBLOCKREPETAG
1070
     1
1071
        0
1005
12768C
  0
LINE
  5
12768D
  8
OBJECT
 10
3918.0
 20
-449.99999999999937
 30
0.0
 11
4082.0000000000032
 21
-449.99999999999937
 31
0.0
1001
ACDBBLOCKREPETAG
1070
     1
1071
        1
1005
12768D
  0
LINE
  5
12768E
  8
HIDDEN
 10
3943.0
 20
-519.99999999999955
 30
0.0
 11
4057.0
 21
-519.99999999999955
 31
0.0
1001
ACDBBLOCKREPETAG
1070
     1
1071
        2
1005
12768E
  0
LINE
  5
12768F
  8
OBJECT
 10
4082.0000000000032
 20
-470.99999999999937
 30
0.0
 11
3918.0
 21
-470.99999999999937
 31
0.0
1001
ACDBBLOCKREPETAG
1070
     1
1071
        3
1005
12768F
  0
LINE
  5
127690
  8
CENTER
 10
4000.0
 20
-434.99999999999949
 30
0.0
 11
4000.0
 21
-799.99999999999955
 31
0.0
1001
ACDBBLOCKREPETAG
1070
     1
1071
        4
1005
127690
  0
LINE
  5
127691
  8
OBJECT
 10
3925.0
 20
-533.99999999999955
 30
0.0
 11
3925.0
 21
-787.99999999999955
 31
0.0
1001
ACDBBLOCKREPETAG
1070
     1
1071
        5
1005
127691
  0
LINE
  5
127692
  8
OBJECT
 10
3928.0
 20
-470.99999999999937
 30
0.0
 11
3928.0
 21
-533.99999999999955
 31
0.0
1001
ACDBBLOCKREPETAG
1070
     1
1071
        6
1005
127692
  0
LINE
  5
127693
  8
OBJECT
 10
4072.0
 20
-533.99999999999955
 30
0.0
 11
4072.0
 21
-470.99999999999937
 31
0.0
1001
ACDBBLOCKREPETAG
1070
     1
1071
        7
1005
127693
  0
LINE
  5
127694
  8
OBJECT
 10
3920.0
 20
-787.99999999999955
 30
0.0
 11
4080.0
 21
-787.99999999999955
 31
0.0
1001
ACDBBLOCKREPETAG
1070
     1
1071
        8
1005
127694
  0
LINE
  5
127695
  8
OBJECT
 10
4080.0
 20
-533.99999999999955
 30
0.0
 11
3925.0
 21
-533.99999999999955
 31
0.0
1001
ACDBBLOCKREPETAG
1070
     1
1071
        9
1005
127695
  0
LINE
  5
127696
  8
OBJECT
 10
3920.0
 20
-787.99999999999955
 30
0.0
 11
3920.0
 21
-799.99999999999955
 31
0.0
1001
ACDBBLOCKREPETAG
1070
     1
1071
       10
1005
127696
  0
LINE
  5
127697
  8
OBJECT
 10
3920.0
 20
-799.99999999999955
 30
0.0
 11
4080.0
 21
-799.99999999999955
 31
0.0
1001
ACDBBLOCKREPETAG
1070
     1
1071
       11
1005
127697
  0
LINE
  5
127698
  8
OBJECT
 10
4080.0
 20
-799.99999999999955
 30
0.0
 11
4080.0
 21
-787.99999999999955
 31
0.0
1001
ACDBBLOCKREPETAG
1070
     1
1071
       12
1005
127698
  0
LINE
  5
127699
  8
OBJECT
 10
4074.9999999998631
 20
-657.99999999985039
 30
0.0
 11
4075.0
 21
-787.99999999999955
 31
0.0
1001
ACDBBLOCKREPETAG
1070
     1
1071
       14
1005
127699
  0
LINE
  5
12769A
  8
OBJECT
 10
4074.9999908029849
 20
-657.99998602702135
 30
0.0
 11
4080.0
 21
-657.99998602702135
 31
0.0
1001
ACDBBLOCKREPETAG
1070
     1
1071
       15
1005
12769A
  0
LINE
  5
12769B
  8
OBJECT
 10
3920.7940817120261
 20
-449.99999999999937
 30
0.0
 11
3920.7940817120261
 21
-470.99999999999937
 31
0.0
1001
ACDBBLOCKREPETAG
1070
     1
1071
       16
1005
12769B
  0
LINE
  5
12769C
  8
OBJECT
 10
3928.7378959999992
 20
-449.99999999999937
 30
0.0
 11
3928.7378959999992
 21
-470.99999999999937
 31
0.0
1001
ACDBBLOCKREPETAG
1070
     1
1071
       17
1005
12769C
  0
LINE
  5
12769D
  8
OBJECT
 10
3970.8330260000012
 20
-449.99999999999937
 30
0.0
 11
3970.8330260000012
 21
-470.99999999999937
 31
0.0
1001
ACDBBLOCKREPETAG
1070
     1
1071
       18
1005
12769D
  0
LINE
  5
12769E
  8
OBJECT
 10
3978.7768389217999
 20
-449.99999999999937
 30
0.0
 11
3978.7768389217999
 21
-470.99999999999937
 31
0.0
1001
ACDBBLOCKREPETAG
1070
     1
1071
       19
1005
12769E
  0
LINE
  5
12769F
  8
OBJECT
 10
4082.0
 20
-470.99999999999937
 30
0.0
 11
4082.0
 21
-449.99999999999937
 31
0.0
1001
ACDBBLOCKREPETAG
1070
     1
1071
       20
1005
12769F
  0
LINE
  5
1276A0
  8
OBJECT
 10
4079.205918287973
 20
-449.99999999999937
 30
0.0
 11
4079.205918287973
 21
-470.99999999999937
 31
0.0
1001
ACDBBLOCKREPETAG
1070
     1
1071
       21
1005
1276A0
  0
LINE
  5
1276A1
  8
OBJECT
 10
4071.2621040000008
 20
-449.99999999999937
 30
0.0
 11
4071.2621040000008
 21
-470.99999999999937
 31
0.0
1001
ACDBBLOCKREPETAG
1070
     1
1071
       22
1005
1276A1
  0
LINE
  5
1276A2
  8
OBJECT
 10
4029.1669739999979
 20
-449.99999999999937
 30
0.0
 11
4029.1669739999979
 21
-470.99999999999937
 31
0.0
1001
ACDBBLOCKREPETAG
1070
     1
1071
       23
1005
1276A2
  0
LINE
  5
1276A3
  8
OBJECT
 10
4021.2231610781992
 20
-449.99999999999937
 30
0.0
 11
4021.2231610781992
 21
-470.99999999999937
 31
0.0
1001
ACDBBLOCKREPETAG
1070
     1
1071
       24
1005
1276A3
  0
ARC
  5
1276A4
  8
OBJECT
 10
4200.6872746716726
 20
-649.40809941010718
 30
0.0
 40
170.6350503965856
 50
137.44134459184301
 51
149.91949581337221
1001
ACDBBLOCKREPETAG
1070
     1
1071
       25
1005
1276A4
  0
ARC
  5
1276A5
  8
OBJECT
 10
4118.8455987040506
 20
-605.88272669536445
 30
0.0
 40
78.072222021763665
 50
147.45515310381529
 51
164.66365997719231
1001
ACDBBLOCKREPETAG
1070
     1
1071
       26
1005
1276A5
  0
ARC
  5
1276A6
  8
OBJECT
 10
4085.7554349608722
 20
-595.99999999999955
 30
0.0
 40
43.55353926885617
 50
165.6884523007466
 51
194.3115476992534
1001
ACDBBLOCKREPETAG
1070
     1
1071
       27
1005
1276A6
  0
ARC
  5
1276A7
  8
OBJECT
 10
4200.6872746716726
 20
-542.59190058989179
 30
0.0
 40
170.6350503965856
 50
210.08050418662771
 51
222.55865540815699
1001
ACDBBLOCKREPETAG
1070
     1
1071
       28
1005
1276A7
  0
ARC
  5
1276A8
  8
OBJECT
 10
4118.8455987040506
 20
-586.11727330463452
 30
0.0
 40
78.072222021763665
 50
195.33634002280749
 51
212.54484689618471
1001
ACDBBLOCKREPETAG
1070
     1
1071
       29
1005
1276A8
  0
POINT
  5
1276A9
  8
DOTS
 10
4000.0
 20
-654.99999999999966
 30
0.0
1001
ACDBBLOCKREPETAG
1070
     1
1071
      204
1005
1276A9
  0
LINE
  5
1276AA
  8
OBJECT
 10
3946.6921941437549
 20
-195.46638161316051
 30
0.0
 11
3970.4540343856352
 21
-193.79865146436981
 31
0.0
1001
ACDBBLOCKREPETAG
1070
     1
1071
      326
1005
1276AA
  0
LINE
  5
1276AB
  8
OBJECT
 10
3947.3854347270608
 20
-190.305593971766
 30
0.0
 11
3966.9884352629019
 21
-188.92975272660161
 31
0.0
1001
ACDBBLOCKREPETAG
1070
     1
1071
      327
1005
1276AB
  0
LINE
  5
1276AC
  8
OBJECT
 10
3974.113537475278
 20
-242.77722592637201
 30
0.0
 11
3982.1366988374079
 21
-234.1690987954708
 31
0.0
1001
ACDBBLOCKREPETAG
1070
     1
1071
      328
1005
1276AC
  0
ARC
  5
1276AD
  8
OBJECT
 10
3982.1160071245399
 20
-183.28188966318251
 30
0.0
 40
60.031113246032611
 50
254.07020130412749
 51
262.33936106086588
1001
ACDBBLOCKREPETAG
1070
     1
1071
      329
1005
1276AD
  0
LINE
  5
1276AE
  8
OBJECT
 10
3977.6125997325148
 20
-197.67495277149911
 30
0.0
 11
3982.1366988374079
 21
-234.1690987954708
 31
0.0
1001
ACDBBLOCKREPETAG
1070
     1
1071
      330
1005
1276AE
  0
ARC
  5
1276AF
  8
OBJECT
 10
3967.6885653456411
 20
-198.90521351131881
 30
0.0
 40
10.0
 50
7.0667782929957941
 51
94.014734370532395
1001
ACDBBLOCKREPETAG
1070
     1
1071
      331
1005
1276AF
  0
ARC
  5
1276B0
  8
OBJECT
 10
3970.9441253709729
 20
-200.78147401875589
 30
0.0
 40
7.0
 50
7.0667782929957941
 51
94.014733775014648
1001
ACDBBLOCKREPETAG
1070
     1
1071
      332
1005
1276B0
  0
POINT
  5
1276B1
  8
DOTS
 10
4000.0
 20
-199.99999999999909
 30
0.0
 50
270.0
1001
ACDBBLOCKREPETAG
1070
     1
1071
      347
1005
1276B1
  0
ARC
  5
1276B2
  8
OBJECT
 10
4000.0
 20
-199.99999999999909
 30
0.0
 40
77.0
 50
202.25886899988009
 51
247.74113099990561
1001
ACDBBLOCKREPETAG
1070
     1
1071
        0
1005
1276B2
  0
ARC
  5
1276B3
  8
OBJECT
 10
4000.0
 20
-199.99999999999909
 30
0.0
 40
80.0
 50
50.804965661401717
 51
72.417343999921059
1001
ACDBBLOCKREPETAG
1070
     1
1071
        1
1005
1276B3
  0
ARC
  5
1276B4
  8
OBJECT
 10
4000.0
 20
-199.99999999999909
 30
0.0
 40
77.0
 50
292.25886900009442
 51
337.74113100011988
1001
ACDBBLOCKREPETAG
1070
     1
1071
        2
1005
1276B4
  0
ARC
  5
1276B5
  8
OBJECT
 10
4000.0
 20
-199.99999999999909
 30
0.0
 40
77.0
 50
112.25886900009441
 51
157.74113100011991
1001
ACDBBLOCKREPETAG
1070
     1
1071
        3
1005
1276B5
  0
ARC
  5
1276B6
  8
OBJECT
 10
4000.0
 20
-199.99999999999909
 30
0.0
 40
80.0
 50
107.5826560000789
 51
162.41734431894281
1001
ACDBBLOCKREPETAG
1070
     1
1071
        4
1005
1276B6
  0
ARC
  5
1276B7
  8
OBJECT
 10
4000.0
 20
-199.99999999999909
 30
0.0
 40
80.0
 50
197.58265458122429
 51
252.4173443189411
1001
ACDBBLOCKREPETAG
1070
     1
1071
        5
1005
1276B7
  0
ARC
  5
1276B8
  8
OBJECT
 10
4000.0
 20
-199.99999999999909
 30
0.0
 40
80.0
 50
287.5826567808985
 51
309.1949674261358
1001
ACDBBLOCKREPETAG
1070
     1
1071
        6
1005
1276B8
  0
ARC
  5
1276B9
  8
OBJECT
 10
4000.0
 20
-199.99999999999909
 30
0.0
 40
77.0
 50
22.258868999880129
 51
67.741130999905565
1001
ACDBBLOCKREPETAG
1070
     1
1071
        7
1005
1276B9
  0
CIRCLE
  5
1276BA
  8
OBJECT
 10
4000.0
 20
-199.99999999999909
 30
0.0
 40
70.0
1001
ACDBBLOCKREPETAG
1070
     1
1071
        8
1005
1276BA
  0
LINE
  5
1276BB
  8
OBJECT
 10
4029.1669749999969
 20
-271.26210499999888
 30
0.0
 11
4021.2231624441042
 21
-279.20591755589248
 31
0.0
1001
ACDBBLOCKREPETAG
1070
     1
1071
        9
1005
1276BB
  0
LINE
  5
1276BC
  8
OBJECT
 10
3970.8330260000012
 20
-271.26210499999888
 30
0.0
 11
3978.7768389219182
 21
-279.20591792191681
 31
0.0
1001
ACDBBLOCKREPETAG
1070
     1
1071
       10
1005
1276BC
  0
ARC
  5
1276BD
  8
OBJECT
 10
4000.0
 20
-199.99999999999909
 30
0.0
 40
82.000000000000014
 50
255.00000044864069
 51
285.00000053947957
1001
ACDBBLOCKREPETAG
1070
     1
1071
       11
1005
1276BD
  0
LINE
  5
1276BE
  8
OBJECT
 10
3928.7378959999992
 20
-229.1669739999989
 30
0.0
 11
3920.7940817120548
 21
-221.2231597120545
 31
0.0
1001
ACDBBLOCKREPETAG
1070
     1
1071
       12
1005
1276BE
  0
ARC
  5
1276BF
  8
OBJECT
 10
4000.0
 20
-199.99999999999909
 30
0.0
 40
82.000000000000014
 50
165.00000044885411
 51
194.9999985630262
1001
ACDBBLOCKREPETAG
1070
     1
1071
       13
1005
1276BF
  0
LINE
  5
1276C0
  8
OBJECT
 10
3970.8330260000012
 20
-128.7378949999993
 30
0.0
 11
3978.7768389219182
 21
-120.7940820780795
 31
0.0
1001
ACDBBLOCKREPETAG
1070
     1
1071
       14
1005
1276C0
  0
ARC
  5
1276C1
  8
OBJECT
 10
4000.0
 20
-199.99999999999909
 30
0.0
 40
82.000000000000014
 50
74.999999460520442
 51
104.99999955135929
1001
ACDBBLOCKREPETAG
1070
     1
1071
       15
1005
1276C1
  0
LINE
  5
1276C2
  8
OBJECT
 10
4029.1669749999969
 20
-128.7378949999993
 30
0.0
 11
4021.2231624441042
 21
-120.79408244410391
 31
0.0
1001
ACDBBLOCKREPETAG
1070
     1
1071
       16
1005
1276C2
  0
LINE
  5
1276C3
  8
OBJECT
 10
3962.4020590000009
 20
-161.93893300000039
 30
0.0
 11
4037.0841102714221
 21
-174.5180316957439
 31
0.0
1001
ACDBBLOCKREPETAG
1070
     1
1071
       17
1005
1276C3
  0
LINE
  5
1276C4
  8
OBJECT
 10
4044.0936569999958
 20
-169.70149399999991
 30
0.0
 11
4037.0841102714221
 21
-174.5180316957439
 31
0.0
1001
ACDBBLOCKREPETAG
1070
     1
1071
       18
1005
1276C4
  0
LINE
  5
1276C5
  8
OBJECT
 10
3928.7378959999992
 20
-170.833024999999
 30
0.0
 11
3920.7940820780782
 21
-178.77683892191911
 31
0.0
1001
ACDBBLOCKREPETAG
1070
     1
1071
       19
1005
1276C5
  0
CIRCLE
  5
1276C6
  8
OBJECT
 10
4000.0
 20
-199.99999999999909
 30
0.0
 40
53.500000000000007
1001
ACDBBLOCKREPETAG
1070
     1
1071
       20
1005
1276C6
  0
ARC
  5
1276C7
  8
OBJECT
 10
4000.0
 20
-199.99999999999909
 30
0.0
 40
50.0
 50
131.70180964355251
 51
168.52376955958741
1001
ACDBBLOCKREPETAG
1070
     1
1071
       21
1005
1276C7
  0
ARC
  5
1276C8
  8
OBJECT
 10
4000.0
 20
-199.99999999999909
 30
0.0
 40
50.0
 50
238.8199429999047
 51
34.49450625011707
1001
ACDBBLOCKREPETAG
1070
     1
1071
       22
1005
1276C8
  0
LINE
  5
1276C9
  8
OBJECT
 10
4071.2621049999971
 20
-170.833024999999
 30
0.0
 11
4079.2059175558929
 21
-178.77683755589439
 31
0.0
1001
ACDBBLOCKREPETAG
1070
     1
1071
       23
1005
1276C9
  0
ARC
  5
1276CA
  8
OBJECT
 10
4000.0
 20
-199.99999999999909
 30
0.0
 40
82.000000000000014
 50
345.00000044885422
 51
15.00000053937171
1001
ACDBBLOCKREPETAG
1070
     1
1071
       24
1005
1276CA
  0
LINE
  5
1276CB
  8
OBJECT
 10
4071.2621049999971
 20
-229.1669739999989
 30
0.0
 11
4079.20591792192
 21
-221.2231610780791
 31
0.0
1001
ACDBBLOCKREPETAG
1070
     1
1071
       25
1005
1276CB
  0
LINE
  5
1276CC
  8
OBJECT
 10
4045.661800227324
 20
-137.99999999999909
 30
0.0
 11
4080.0
 21
-137.99999999999909
 31
0.0
1001
ACDBBLOCKREPETAG
1070
     1
1071
       26
1005
1276CC
  0
LINE
  5
1276CD
  8
OBJECT
 10
4045.661800227324
 20
-261.99999999999909
 30
0.0
 11
4080.0
 21
-261.99999999999909
 31
0.0
1001
ACDBBLOCKREPETAG
1070
     1
1071
       27
1005
1276CD
  0
LINE
  5
1276CE
  8
CENTER
 10
4080.0
 20
-199.99999999999909
 30
0.0
 11
3903.0
 21
-199.99999999999909
 31
0.0
1001
ACDBBLOCKREPETAG
1070
     1
1071
       36
1005
1276CE
  0
LINE
  5
1276CF
  8
CENTER
 10
4000.0
 20
-296.99999999999898
 30
0.0
 11
4000.0
 21
-104.9999999999991
 31
0.0
1001
ACDBBLOCKREPETAG
1070
     1
1071
       37
1005
1276CF
  0
LINE
  5
1276D0
  8
OBJECT
 10
4212.9999999999854
 20
-453.0000000000008
 30
0.0
 11
4219.9999999999854
 21
-453.0000000000008
 31
0.0
1001
ACDBBLOCKREPETAG
1070
     1
1071
      106
1005
1276D0
  0
LINE
  5
1276D1
  8
OBJECT
 10
4219.9999999999854
 20
-453.0000000000008
 30
0.0
 11
4219.9999999999854
 21
-577.0000000000008
 31
0.0
1001
ACDBBLOCKREPETAG
1070
     1
1071
      107
1005
1276D1
  0
LINE
  5
1276D2
  8
OBJECT
 10
4085.9999999999859
 20
-553.3502637757274
 30
0.0
 11
4085.9999999999859
 21
-655.00000000000068
 31
0.0
1001
ACDBBLOCKREPETAG
1070
     1
1071
      108
1005
1276D2
  0
LINE
  5
1276D3
  8
OBJECT
 10
4219.9999999999854
 20
-577.0000000000008
 30
0.0
 11
4212.9999999999854
 21
-577.0000000000008
 31
0.0
1001
ACDBBLOCKREPETAG
1070
     1
1071
      109
1005
1276D3
  0
LINE
  5
1276D4
  8
OBJECT
 10
4212.9999999999854
 20
-577.0000000000008
 30
0.0
 11
4212.9999999999854
 21
-453.0000000000008
 31
0.0
1001
ACDBBLOCKREPETAG
1070
     1
1071
      110
1005
1276D4
  0
LINE
  5
1276D5
  8
CENTER
 10
4144.9999999999854
 20
-515.0000000000008
 30
0.0
 11
4234.9999999999854
 21
-515.0000000000008
 31
0.0
1001
ACDBBLOCKREPETAG
1070
     1
1071
      111
1005
1276D5
  0
LINE
  5
1276D6
  8
OBJECT
 10
4079.9999999999818
 20
-658.0
 30
0.0
 11
4082.999999999985
 21
-658.0000000000008
 31
0.0
1001
ACDBBLOCKREPETAG
1070
     1
1071
      112
1005
1276D6
  0
ARC
  5
1276D7
  8
OBJECT
 10
4082.999999999985
 20
-655.00000000000068
 30
0.0
 40
3.0
 50
270.0
 51
0.0
1001
ACDBBLOCKREPETAG
1070
     1
1071
      113
1005
1276D7
  0
LINE
  5
1276D8
  8
OBJECT
 10
4212.9999999999854
 20
-456.0000000000008
 30
0.0
 11
4176.9999999999854
 21
-456.0000000000008
 31
0.0
1001
ACDBBLOCKREPETAG
1070
     1
1071
      114
1005
1276D8
  0
LINE
  5
1276D9
  8
OBJECT
 10
4176.9999999999854
 20
-456.0000000000008
 30
0.0
 11
4176.9999999999854
 21
-553.15756805667843
 31
0.0
1001
ACDBBLOCKREPETAG
1070
     1
1071
      115
1005
1276D9
  0
LINE
  5
1276DA
  8
OBJECT
 10
4172.9999999999854
 20
-460.5000000000008
 30
0.0
 11
4172.9999999999818
 21
-545.74491827928705
 31
0.0
1001
ACDBBLOCKREPETAG
1070
     1
1071
      116
1005
1276DA
  0
LINE
  5
1276DB
  8
OBJECT
 10
4172.9999999999854
 20
-460.5000000000008
 30
0.0
 11
4159.9999999999854
 21
-460.5000000000008
 31
0.0
1001
ACDBBLOCKREPETAG
1070
     1
1071
      117
1005
1276DB
  0
LINE
  5
1276DC
  8
OBJECT
 10
4168.6563168254679
 20
-574.0000000000008
 30
0.0
 11
4212.9999999999854
 21
-574.0000000000008
 31
0.0
1001
ACDBBLOCKREPETAG
1070
     1
1071
      118
1005
1276DC
  0
LINE
  5
1276DD
  8
OBJECT
 10
4176.9999999999854
 20
-456.0000000000008
 30
0.0
 11
4172.9999999999854
 21
-460.5000000000008
 31
0.0
1001
ACDBBLOCKREPETAG
1070
     1
1071
      119
1005
1276DD
  0
LINE
  5
1276DE
  8
OBJECT
 10
4159.9999999999854
 20
-460.5000000000008
 30
0.0
 11
4159.9999999999854
 21
-545.74491827928784
 31
0.0
1001
ACDBBLOCKREPETAG
1070
     1
1071
      120
1005
1276DE
  0
ARC
  5
1276DF
  8
OBJECT
 10
4091.9999999999841
 20
-537.27386365609345
 30
0.0
 40
85.0
 50
308.59099323720869
 51
334.40086127812339
1001
ACDBBLOCKREPETAG
1070
     1
1071
      121
1005
1276DF
  0
ARC
  5
1276E0
  8
OBJECT
 10
4162.7999999999847
 20
-555.00000000000068
 30
0.0
 40
85.0
 50
91.887731891831123
 51
160.07406787456929
1001
ACDBBLOCKREPETAG
1070
     1
1071
      122
1005
1276E0
  0
LINE
  5
1276E1
  8
OBJECT
 10
4085.9999999999859
 20
-650.81075719270927
 30
0.0
 11
4145.0193225436024
 21
-603.71143914629465
 31
0.0
1001
ACDBBLOCKREPETAG
1070
     1
1071
      123
1005
1276E1
  0
LINE
  5
1276E2
  8
OBJECT
 10
4172.9999999999818
 20
-545.74491827928705
 30
0.0
 11
4159.9999999999854
 21
-545.74491827928784
 31
0.0
1001
ACDBBLOCKREPETAG
1070
     1
1071
      124
1005
1276E2
  0
LINE
  5
1276E3
  8
OBJECT
 10
4176.9999999999854
 20
-553.15756805667843
 30
0.0
 11
4172.9999999999818
 21
-545.74491827928705
 31
0.0
1001
ACDBBLOCKREPETAG
1070
     1
1071
      125
1005
1276E3
  0
LINE
  5
1276E4
  8
OBJECT
 10
4080.0000000000168
 20
-534.0
 30
0.0
 11
4082.8886121596229
 21
-526.03156729425325
 31
0.0
1001
ACDBBLOCKREPETAG
1070
     1
1071
      126
1005
1276E4
  0
LINE
  5
1276E5
  8
OBJECT
 10
4080.0000000000168
 20
-534.0
 30
0.0
 11
4085.9999999999859
 21
-553.3502637757274
 31
0.0
1001
ACDBBLOCKREPETAG
1070
     1
1071
      127
1005
1276E5
  0
LINE
  5
1276E6
  8
HIDDEN
 10
4167.9999999999854
 20
-470.5000000000008
 30
0.0
 11
4167.9999999999854
 21
-559.50000000000068
 31
0.0
1001
ACDBBLOCKREPETAG
1070
     1
1071
      129
1005
1276E6
  0
LINE
  5
1276E7
  8
OBJECT
 10
4212.9999999999854
 20
-137.99999999999909
 30
0.0
 11
4219.9999999999854
 21
-137.99999999999909
 31
0.0
1001
ACDBBLOCKREPETAG
1070
     1
1071
      110
1005
1276E7
  0
LINE
  5
1276E8
  8
OBJECT
 10
4219.9999999999854
 20
-137.99999999999909
 30
0.0
 11
4219.9999999999854
 21
-261.99999999999909
 31
0.0
1001
ACDBBLOCKREPETAG
1070
     1
1071
      111
1005
1276E8
  0
LINE
  5
1276E9
  8
OBJECT
 10
4219.9999999999854
 20
-261.99999999999909
 30
0.0
 11
4212.9999999999854
 21
-261.99999999999909
 31
0.0
1001
ACDBBLOCKREPETAG
1070
     1
1071
      112
1005
1276E9
  0
LINE
  5
1276EA
  8
OBJECT
 10
4212.9999999999854
 20
-261.99999999999909
 30
0.0
 11
4212.9999999999854
 21
-137.99999999999909
 31
0.0
1001
ACDBBLOCKREPETAG
1070
     1
1071
      113
1005
1276EA
  0
LINE
  5
1276EB
  8
CENTER
 10
4234.9999999999854
 20
-199.99999999999909
 30
0.0
 11
4080.0000000000041
 21
-199.99999999999909
 31
0.0
1001
ACDBBLOCKREPETAG
1070
     1
1071
      114
1005
1276EB
  0
LINE
  5
1276EC
  8
OBJECT
 10
4159.9999749641847
 20
-245.0000000000027
 30
0.0
 11
4086.0
 21
-244.99999999999909
 31
0.0
1001
ACDBBLOCKREPETAG
1070
     1
1071
      115
1005
1276EC
  0
LINE
  5
1276ED
  8
OBJECT
 10
4159.9999749641847
 20
-154.99999999999909
 30
0.0
 11
4086.0
 21
-154.99999999999909
 31
0.0
1001
ACDBBLOCKREPETAG
1070
     1
1071
      116
1005
1276ED
  0
LINE
  5
1276EE
  8
OBJECT
 10
4212.9999999999854
 20
-140.99999999999909
 30
0.0
 11
4176.9999999999854
 21
-140.99999999999909
 31
0.0
1001
ACDBBLOCKREPETAG
1070
     1
1071
      117
1005
1276EE
  0
LINE
  5
1276EF
  8
OBJECT
 10
4176.9999999999854
 20
-140.99999999999909
 30
0.0
 11
4176.9999999999854
 21
-258.99999999999909
 31
0.0
1001
ACDBBLOCKREPETAG
1070
     1
1071
      118
1005
1276EF
  0
LINE
  5
1276F0
  8
OBJECT
 10
4176.9999999999854
 20
-258.99999999999909
 30
0.0
 11
4212.9999999999854
 21
-258.99999999999909
 31
0.0
1001
ACDBBLOCKREPETAG
1070
     1
1071
      119
1005
1276F0
  0
LINE
  5
1276F1
  8
OBJECT
 10
4172.9999999999854
 20
-145.49999999999909
 30
0.0
 11
4159.9999999999854
 21
-145.49999999999909
 31
0.0
1001
ACDBBLOCKREPETAG
1070
     1
1071
      120
1005
1276F1
  0
LINE
  5
1276F2
  8
OBJECT
 10
4159.9999999999854
 20
-254.49999999999909
 30
0.0
 11
4172.9999999999854
 21
-254.49999999999909
 31
0.0
1001
ACDBBLOCKREPETAG
1070
     1
1071
      121
1005
1276F2
  0
LINE
  5
1276F3
  8
OBJECT
 10
4172.9999999999854
 20
-254.49999999999909
 30
0.0
 11
4172.9999999999854
 21
-145.49999999999909
 31
0.0
1001
ACDBBLOCKREPETAG
1070
     1
1071
      122
1005
1276F3
  0
LINE
  5
1276F4
  8
OBJECT
 10
4176.9999999999854
 20
-140.99999999999909
 30
0.0
 11
4172.9999999999854
 21
-145.49999999999909
 31
0.0
1001
ACDBBLOCKREPETAG
1070
     1
1071
      123
1005
1276F4
  0
LINE
  5
1276F5
  8
OBJECT
 10
4176.9999999999854
 20
-258.99999999999909
 30
0.0
 11
4172.9999999999854
 21
-254.49999999999909
 31
0.0
1001
ACDBBLOCKREPETAG
1070
     1
1071
      124
1005
1276F5
  0
LINE
  5
1276F6
  8
OBJECT
 10
4083.0
 20
-137.99999999999909
 30
0.0
 11
4080.0
 21
-137.99999999999909
 31
0.0
1001
ACDBBLOCKREPETAG
1070
     1
1071
      125
1005
1276F6
  0
ARC
  5
1276F7
  8
OBJECT
 10
4083.0
 20
-140.99999999999909
 30
0.0
 40
3.0
 50
0.0
 51
90.0
1001
ACDBBLOCKREPETAG
1070
     1
1071
      126
1005
1276F7
  0
LINE
  5
1276F8
  8
OBJECT
 10
4080.0
 20
-261.99999999999909
 30
0.0
 11
4083.0
 21
-261.99999999999909
 31
0.0
1001
ACDBBLOCKREPETAG
1070
     1
1071
      127
1005
1276F8
  0
ARC
  5
1276F9
  8
OBJECT
 10
4083.0
 20
-258.99999999999909
 30
0.0
 40
3.0
 50
270.0
 51
0.0
1001
ACDBBLOCKREPETAG
1070
     1
1071
      128
1005
1276F9
  0
LINE
  5
1276FA
  8
OBJECT
 10
4086.0
 20
-258.99999999999909
 30
0.0
 11
4086.0
 21
-222.44994432063581
 31
0.0
1001
ACDBBLOCKREPETAG
1070
     1
1071
      129
1005
1276FA
  0
LINE
  5
1276FB
  8
OBJECT
 10
4086.0
 20
-177.55005567935859
 30
0.0
 11
4086.0
 21
-140.99999999999909
 31
0.0
1001
ACDBBLOCKREPETAG
1070
     1
1071
      130
1005
1276FB
  0
LINE
  5
1276FC
  8
HIDDEN
 10
4167.9999999999854
 20
-155.49999999999909
 30
0.0
 11
4167.9999999999854
 21
-244.49999999999909
 31
0.0
1001
ACDBBLOCKREPETAG
1070
     1
1071
      131
1005
1276FC
  0
LINE
  5
1276FD
  8
OBJECT
 10
4159.9999749641847
 20
-254.4999509238105
 30
0.0
 11
4159.9999749641847
 21
-145.4999509238105
 31
0.0
1001
ACDBBLOCKREPETAG
1070
     1
1071
      133
1005
1276FD
  0
ARC
  5
1276FE
  8
OBJECT
 10
4125.0000000000018
 20
-199.99999999999909
 30
0.0
 40
45.000000000000547
 50
90.0
 51
166.2158024759261
1001
ACDBBLOCKREPETAG
1070
     1
1071
      134
1005
1276FE
  0
ARC
  5
1276FF
  8
OBJECT
 10
4125.0000000000018
 20
-199.99999999999909
 30
0.0
 40
45.000000000000547
 50
193.78421279332531
 51
270.0
1001
ACDBBLOCKREPETAG
1070
     1
1071
      402
1005
1276FF
  0
LINE
  5
127700
  8
SLIM
 10
11914.999999999991
 20
-669.47385309434685
 30
0.0
 11
11929.47385309434
 21
-654.99999999999966
 31
0.0
1001
GRADIENTCOLOR1ACI
1070
     5
1001
GRADIENTCOLOR2ACI
1070
     2
1001
ACAD
1010
0.0
1020
0.0
1030
0.0
  0
LINE
  5
127701
  8
SLIM
 10
11914.999999999991
 20
-687.43436533648469
 30
0.0
 11
11947.434365336479
 21
-654.99999999999966
 31
0.0
1001
GRADIENTCOLOR1ACI
1070
     5
1001
GRADIENTCOLOR2ACI
1070
     2
1001
ACAD
1010
0.0
1020
0.0
1030
0.0
  0
LINE
  5
127702
  8
SLIM
 10
11915.0
 20
-705.39487757862241
 30
0.0
 11
11965.394877578619
 21
-654.99999999999966
 31
0.0
1001
GRADIENTCOLOR1ACI
1070
     5
1001
GRADIENTCOLOR2ACI
1070
     2
1001
ACAD
1010
0.0
1020
0.0
1030
0.0
  0
LINE
  5
127703
  8
SLIM
 10
11915.0
 20
-723.35538982076014
 30
0.0
 11
11983.355389820759
 21
-654.99999999999966
 31
0.0
1001
GRADIENTCOLOR1ACI
1070
     5
1001
GRADIENTCOLOR2ACI
1070
     2
1001
ACAD
1010
0.0
1020
0.0
1030
0.0
  0
LINE
  5
127704
  8
SLIM
 10
11915.0
 20
-741.31590206289775
 30
0.0
 11
12001.31590206289
 21
-654.99999999999966
 31
0.0
1001
GRADIENTCOLOR1ACI
1070
     5
1001
GRADIENTCOLOR2ACI
1070
     2
1001
ACAD
1010
0.0
1020
0.0
1030
0.0
  0
LINE
  5
127705
  8
SLIM
 10
11915.0
 20
-759.27641430503559
 30
0.0
 11
12019.27641430503
 21
-654.99999999999966
 31
0.0
1001
GRADIENTCOLOR1ACI
1070
     5
1001
GRADIENTCOLOR2ACI
1070
     2
1001
ACAD
1010
0.0
1020
0.0
1030
0.0
  0
LINE
  5
127706
  8
SLIM
 10
11915.0
 20
-777.2369265471732
 30
0.0
 11
12037.23692654717
 21
-654.99999999999966
 31
0.0
1001
GRADIENTCOLOR1ACI
1070
     5
1001
GRADIENTCOLOR2ACI
1070
     2
1001
ACAD
1010
0.0
1020
0.0
1030
0.0
  0
LINE
  5
127707
  8
SLIM
 10
11915.0
 20
-795.19743878931092
 30
0.0
 11
12055.19743878931
 21
-654.99999999999966
 31
0.0
1001
GRADIENTCOLOR1ACI
1070
     5
1001
GRADIENTCOLOR2ACI
1070
     2
1001
ACAD
1010
0.0
1020
0.0
1030
0.0
  0
LINE
  5
127708
  8
SLIM
 10
11915.0
 20
-813.15795103144865
 30
0.0
 11
12073.15795103145
 21
-654.99999999999966
 31
0.0
1001
GRADIENTCOLOR1ACI
1070
     5
1001
GRADIENTCOLOR2ACI
1070
     2
1001
ACAD
1010
0.0
1020
0.0
1030
0.0
  0
LINE
  5
127709
  8
SLIM
 10
11915.0
 20
-831.11846327358614
 30
0.0
 11
12085.000000000009
 21
-661.11846327357694
 31
0.0
1001
GRADIENTCOLOR1ACI
1070
     5
1001
GRADIENTCOLOR2ACI
1070
     2
1001
ACAD
1010
0.0
1020
0.0
1030
0.0
  0
LINE
  5
12770A
  8
SLIM
 10
11915.0
 20
-849.07897551572387
 30
0.0
 11
12085.000000000009
 21
-679.07897551571614
 31
0.0
1001
GRADIENTCOLOR1ACI
1070
     5
1001
GRADIENTCOLOR2ACI
1070
     2
1001
ACAD
1010
0.0
1020
0.0
1030
0.0
  0
LINE
  5
12770B
  8
SLIM
 10
11915.0
 20
-867.03948775786171
 30
0.0
 11
12085.000000000009
 21
-697.039487757855
 31
0.0
1001
GRADIENTCOLOR1ACI
1070
     5
1001
GRADIENTCOLOR2ACI
1070
     2
1001
ACAD
1010
0.0
1020
0.0
1030
0.0
  0
LINE
  5
12770C
  8
SLIM
 10
11915.283600749561
 20
-884.71639925044144
 30
0.0
 11
12085.000000000009
 21
-714.99999999999386
 31
0.0
1001
GRADIENTCOLOR1ACI
1070
     5
1001
GRADIENTCOLOR2ACI
1070
     2
1001
ACAD
1010
0.0
1020
0.0
1030
0.0
  0
LINE
  5
12770D
  8
SLIM
 10
11917.49791047804
 20
-900.46260176409714
 30
0.0
 11
12085.000000000009
 21
-732.96051224213272
 31
0.0
1001
GRADIENTCOLOR1ACI
1070
     5
1001
GRADIENTCOLOR2ACI
1070
     2
1001
ACAD
1010
0.0
1020
0.0
1030
0.0
  0
LINE
  5
12770E
  8
SLIM
 10
11919.71222020652
 20
-916.20880427775239
 30
0.0
 11
12085.0
 21
-750.92102448427181
 31
0.0
1001
GRADIENTCOLOR1ACI
1070
     5
1001
GRADIENTCOLOR2ACI
1070
     2
1001
ACAD
1010
0.0
1020
0.0
1030
0.0
  0
LINE
  5
12770F
  8
SLIM
 10
11921.92652993501
 20
-931.95500679140775
 30
0.0
 11
12085.0
 21
-768.88153672641056
 31
0.0
1001
GRADIENTCOLOR1ACI
1070
     5
1001
GRADIENTCOLOR2ACI
1070
     2
1001
ACAD
1010
0.0
1020
0.0
1030
0.0
  0
LINE
  5
127710
  8
SLIM
 10
11924.140839663491
 20
-947.701209305063
 30
0.0
 11
12085.0
 21
-786.84204896854953
 31
0.0
1001
GRADIENTCOLOR1ACI
1070
     5
1001
GRADIENTCOLOR2ACI
1070
     2
1001
ACAD
1010
0.0
1020
0.0
1030
0.0
  0
LINE
  5
127711
  8
SLIM
 10
11926.35514939196
 20
-963.44741181871825
 30
0.0
 11
12085.0
 21
-804.80256121068851
 31
0.0
1001
GRADIENTCOLOR1ACI
1070
     5
1001
GRADIENTCOLOR2ACI
1070
     2
1001
ACAD
1010
0.0
1020
0.0
1030
0.0
  0
LINE
  5
127712
  8
SLIM
 10
11928.56945912045
 20
-979.19361433237384
 30
0.0
 11
12085.0
 21
-822.76307345282714
 31
0.0
1001
GRADIENTCOLOR1ACI
1070
     5
1001
GRADIENTCOLOR2ACI
1070
     2
1001
ACAD
1010
0.0
1020
0.0
1030
0.0
  0
LINE
  5
127713
  8
SLIM
 10
11930.78376884894
 20
-994.93981684602909
 30
0.0
 11
12085.0
 21
-840.72358569496635
 31
0.0
1001
GRADIENTCOLOR1ACI
1070
     5
1001
GRADIENTCOLOR2ACI
1070
     2
1001
ACAD
1010
0.0
1020
0.0
1030
0.0
  0
LINE
  5
127714
  8
SLIM
 10
11932.998078577421
 20
-1010.686019359684
 30
0.0
 11
12085.0
 21
-858.68409793710521
 31
0.0
1001
GRADIENTCOLOR1ACI
1070
     5
1001
GRADIENTCOLOR2ACI
1070
     2
1001
ACAD
1010
0.0
1020
0.0
1030
0.0
  0
LINE
  5
127715
  8
SLIM
 10
11932.999999999991
 20
-1028.644610179251
 30
0.0
 11
12085.0
 21
-876.64461017924395
 31
0.0
1001
GRADIENTCOLOR1ACI
1070
     5
1001
GRADIENTCOLOR2ACI
1070
     2
1001
ACAD
1010
0.0
1020
0.0
1030
0.0
  0
LINE
  5
127716
  8
SLIM
 10
11934.60512242139
 20
-1044.9999999999959
 30
0.0
 11
12083.051837154369
 21
-896.55328526701646
 31
0.0
1001
GRADIENTCOLOR1ACI
1070
     5
1001
GRADIENTCOLOR2ACI
1070
     2
1001
ACAD
1010
0.0
1020
0.0
1030
0.0
  0
LINE
  5
127717
  8
SLIM
 10
11952.565634663521
 20
-1044.9999999999959
 30
0.0
 11
12080.112844242019
 21
-917.45279042150355
 31
0.0
1001
GRADIENTCOLOR1ACI
1070
     5
1001
GRADIENTCOLOR2ACI
1070
     2
1001
ACAD
1010
0.0
1020
0.0
1030
0.0
  0
LINE
  5
127718
  8
SLIM
 10
11970.52614690566
 20
-1044.999999999997
 30
0.0
 11
12077.17385132967
 21
-938.35229557599132
 31
0.0
1001
GRADIENTCOLOR1ACI
1070
     5
1001
GRADIENTCOLOR2ACI
1070
     2
1001
ACAD
1010
0.0
1020
0.0
1030
0.0
  0
LINE
  5
127719
  8
SLIM
 10
11988.4866591478
 20
-1044.999999999997
 30
0.0
 11
12074.23485841732
 21
-959.25180073047841
 31
0.0
1001
GRADIENTCOLOR1ACI
1070
     5
1001
GRADIENTCOLOR2ACI
1070
     2
1001
ACAD
1010
0.0
1020
0.0
1030
0.0
  0
LINE
  5
12771A
  8
SLIM
 10
12006.44717138994
 20
-1044.999999999998
 30
0.0
 11
12071.29586550497
 21
-980.15130588496572
 31
0.0
1001
GRADIENTCOLOR1ACI
1070
     5
1001
GRADIENTCOLOR2ACI
1070
     2
1001
ACAD
1010
0.0
1020
0.0
1030
0.0
  0
LINE
  5
12771B
  8
SLIM
 10
12024.40768363208
 20
-1044.999999999998
 30
0.0
 11
12068.35687259262
 21
-1001.050811039453
 31
0.0
1001
GRADIENTCOLOR1ACI
1070
     5
1001
GRADIENTCOLOR2ACI
1070
     2
1001
ACAD
1010
0.0
1020
0.0
1030
0.0
  0
LINE
  5
12771C
  8
SLIM
 10
12042.368195874211
 20
-1044.9999999999991
 30
0.0
 11
12067.0
 21
-1020.368195874201
 31
0.0
1001
GRADIENTCOLOR1ACI
1070
     5
1001
GRADIENTCOLOR2ACI
1070
     2
1001
ACAD
1010
0.0
1020
0.0
1030
0.0
  0
LINE
  5
12771D
  8
SLIM
 10
12060.328708116351
 20
-1044.9999999999991
 30
0.0
 11
12067.0
 21
-1038.3287081163401
 31
0.0
1001
GRADIENTCOLOR1ACI
1070
     5
1001
GRADIENTCOLOR2ACI
1070
     2
1001
ACAD
1010
0.0
1020
0.0
1030
0.0
  0
LINE
  5
12771E
  8
OBJECT
 10
11932.999999999991
 20
-1044.9999999999959
 30
0.0
 11
12067.0
 21
-1044.9999999999991
 31
0.0
1001
ACDBBLOCKREPETAG
1070
     1
1071
        1
1005
12771E
  0
LINE
  5
12771F
  8
OBJECT
 10
11914.999999999991
 20
-654.99999999999966
 30
0.0
 11
11915.0
 21
-882.69968280914077
 31
0.0
1001
ACDBBLOCKREPETAG
1070
     1
1071
        2
1005
12771F
  0
LINE
  5
127720
  8
OBJECT
 10
12085.000000000009
 20
-654.99999999999966
 30
0.0
 11
12085.0
 21
-882.69968280917192
 31
0.0
1001
ACDBBLOCKREPETAG
1070
     1
1071
        3
1005
127720
  0
LINE
  5
127721
  8
OBJECT
 10
11915.0
 20
-882.69968280914077
 30
0.0
 11
11932.999999999991
 21
-1010.699682809081
 31
0.0
1001
ACDBBLOCKREPETAG
1070
     1
1071
        4
1005
127721
  0
LINE
  5
127722
  8
OBJECT
 10
12067.0
 20
-1010.699682809128
 30
0.0
 11
12085.0
 21
-882.69968280917192
 31
0.0
1001
ACDBBLOCKREPETAG
1070
     1
1071
        5
1005
127722
  0
LINE
  5
127723
  8
OBJECT
 10
12085.000000000009
 20
-654.99999999999966
 30
0.0
 11
11914.999999999991
 21
-654.99999999999966
 31
0.0
1001
ACDBBLOCKREPETAG
1070
     1
1071
        6
1005
127723
  0
LINE
  5
127724
  8
OBJECT
 10
11932.999999999991
 20
-1010.699682809081
 30
0.0
 11
11932.999999999991
 21
-1044.9999999999959
 31
0.0
1001
ACDBBLOCKREPETAG
1070
     1
1071
        8
1005
127724
  0
LINE
  5
127725
  8
OBJECT
 10
12067.0
 20
-1010.699682809128
 30
0.0
 11
12067.0
 21
-1044.9999999999991
 31
0.0
1001
ACDBBLOCKREPETAG
1070
     1
1071
        9
1005
127725
  0
LINE
  5
127726
  8
SLIM
 10
9914.9999999999927
 20
-669.47385309434685
 30
0.0
 11
9929.4738530943396
 21
-654.99999999999966
 31
0.0
1001
GRADIENTCOLOR1ACI
1070
     5
1001
GRADIENTCOLOR2ACI
1070
     2
1001
ACAD
1010
0.0
1020
0.0
1030
0.0
  0
LINE
  5
127727
  8
SLIM
 10
9914.9999999999927
 20
-687.43436533648469
 30
0.0
 11
9947.4343653364795
 21
-654.99999999999966
 31
0.0
1001
GRADIENTCOLOR1ACI
1070
     5
1001
GRADIENTCOLOR2ACI
1070
     2
1001
ACAD
1010
0.0
1020
0.0
1030
0.0
  0
LINE
  5
127728
  8
SLIM
 10
9914.9999999999945
 20
-705.39487757862241
 30
0.0
 11
9965.3948775786175
 21
-654.99999999999966
 31
0.0
1001
GRADIENTCOLOR1ACI
1070
     5
1001
GRADIENTCOLOR2ACI
1070
     2
1001
ACAD
1010
0.0
1020
0.0
1030
0.0
  0
LINE
  5
127729
  8
SLIM
 10
9914.9999999999945
 20
-723.35538982076014
 30
0.0
 11
9983.3553898207556
 21
-654.99999999999966
 31
0.0
1001
GRADIENTCOLOR1ACI
1070
     5
1001
GRADIENTCOLOR2ACI
1070
     2
1001
ACAD
1010
0.0
1020
0.0
1030
0.0
  0
LINE
  5
12772A
  8
SLIM
 10
9914.9999999999945
 20
-741.31590206289775
 30
0.0
 11
10001.31590206289
 21
-654.99999999999966
 31
0.0
1001
GRADIENTCOLOR1ACI
1070
     5
1001
GRADIENTCOLOR2ACI
1070
     2
1001
ACAD
1010
0.0
1020
0.0
1030
0.0
  0
LINE
  5
12772B
  8
SLIM
 10
9914.9999999999964
 20
-759.27641430503559
 30
0.0
 11
10019.27641430503
 21
-654.99999999999966
 31
0.0
1001
GRADIENTCOLOR1ACI
1070
     5
1001
GRADIENTCOLOR2ACI
1070
     2
1001
ACAD
1010
0.0
1020
0.0
1030
0.0
  0
LINE
  5
12772C
  8
SLIM
 10
9914.9999999999964
 20
-777.2369265471732
 30
0.0
 11
10037.23692654717
 21
-654.99999999999966
 31
0.0
1001
GRADIENTCOLOR1ACI
1070
     5
1001
GRADIENTCOLOR2ACI
1070
     2
1001
ACAD
1010
0.0
1020
0.0
1030
0.0
  0
LINE
  5
12772D
  8
SLIM
 10
9914.9999999999964
 20
-795.19743878931092
 30
0.0
 11
10055.197438789301
 21
-654.99999999999966
 31
0.0
1001
GRADIENTCOLOR1ACI
1070
     5
1001
GRADIENTCOLOR2ACI
1070
     2
1001
ACAD
1010
0.0
1020
0.0
1030
0.0
  0
LINE
  5
12772E
  8
SLIM
 10
9914.9999999999982
 20
-813.15795103144865
 30
0.0
 11
10073.15795103144
 21
-654.99999999999966
 31
0.0
1001
GRADIENTCOLOR1ACI
1070
     5
1001
GRADIENTCOLOR2ACI
1070
     2
1001
ACAD
1010
0.0
1020
0.0
1030
0.0
  0
LINE
  5
12772F
  8
SLIM
 10
9914.9999999999982
 20
-831.11846327358614
 30
0.0
 11
10085.000000000009
 21
-661.11846327357694
 31
0.0
1001
GRADIENTCOLOR1ACI
1070
     5
1001
GRADIENTCOLOR2ACI
1070
     2
1001
ACAD
1010
0.0
1020
0.0
1030
0.0
  0
LINE
  5
127730
  8
SLIM
 10
9914.9999999999982
 20
-849.07897551572387
 30
0.0
 11
10085.000000000009
 21
-679.07897551571614
 31
0.0
1001
GRADIENTCOLOR1ACI
1070
     5
1001
GRADIENTCOLOR2ACI
1070
     2
1001
ACAD
1010
0.0
1020
0.0
1030
0.0
  0
LINE
  5
127731
  8
SLIM
 10
9915.0
 20
-867.03948775786171
 30
0.0
 11
10085.0
 21
-697.039487757855
 31
0.0
1001
GRADIENTCOLOR1ACI
1070
     5
1001
GRADIENTCOLOR2ACI
1070
     2
1001
ACAD
1010
0.0
1020
0.0
1030
0.0
  0
LINE
  5
127732
  8
SLIM
 10
9915.2836007495607
 20
-884.71639925044144
 30
0.0
 11
10085.0
 21
-714.99999999999386
 31
0.0
1001
GRADIENTCOLOR1ACI
1070
     5
1001
GRADIENTCOLOR2ACI
1070
     2
1001
ACAD
1010
0.0
1020
0.0
1030
0.0
  0
LINE
  5
127733
  8
SLIM
 10
9917.4979104780396
 20
-900.46260176409714
 30
0.0
 11
10085.0
 21
-732.96051224213272
 31
0.0
1001
GRADIENTCOLOR1ACI
1070
     5
1001
GRADIENTCOLOR2ACI
1070
     2
1001
ACAD
1010
0.0
1020
0.0
1030
0.0
  0
LINE
  5
127734
  8
SLIM
 10
9919.7122202065257
 20
-916.20880427775239
 30
0.0
 11
10085.0
 21
-750.92102448427181
 31
0.0
1001
GRADIENTCOLOR1ACI
1070
     5
1001
GRADIENTCOLOR2ACI
1070
     2
1001
ACAD
1010
0.0
1020
0.0
1030
0.0
  0
LINE
  5
127735
  8
SLIM
 10
9921.9265299350063
 20
-931.95500679140775
 30
0.0
 11
10085.0
 21
-768.88153672641056
 31
0.0
1001
GRADIENTCOLOR1ACI
1070
     5
1001
GRADIENTCOLOR2ACI
1070
     2
1001
ACAD
1010
0.0
1020
0.0
1030
0.0
  0
LINE
  5
127736
  8
SLIM
 10
9924.1408396634924
 20
-947.701209305063
 30
0.0
 11
10085.0
 21
-786.84204896854953
 31
0.0
1001
GRADIENTCOLOR1ACI
1070
     5
1001
GRADIENTCOLOR2ACI
1070
     2
1001
ACAD
1010
0.0
1020
0.0
1030
0.0
  0
LINE
  5
127737
  8
SLIM
 10
9926.3551493919731
 20
-963.44741181871825
 30
0.0
 11
10085.0
 21
-804.80256121068851
 31
0.0
1001
GRADIENTCOLOR1ACI
1070
     5
1001
GRADIENTCOLOR2ACI
1070
     2
1001
ACAD
1010
0.0
1020
0.0
1030
0.0
  0
LINE
  5
127738
  8
SLIM
 10
9928.5694591204574
 20
-979.19361433237384
 30
0.0
 11
10085.0
 21
-822.76307345282714
 31
0.0
1001
GRADIENTCOLOR1ACI
1070
     5
1001
GRADIENTCOLOR2ACI
1070
     2
1001
ACAD
1010
0.0
1020
0.0
1030
0.0
  0
LINE
  5
127739
  8
SLIM
 10
9930.7837688489417
 20
-994.93981684602909
 30
0.0
 11
10085.0
 21
-840.72358569496635
 31
0.0
1001
GRADIENTCOLOR1ACI
1070
     5
1001
GRADIENTCOLOR2ACI
1070
     2
1001
ACAD
1010
0.0
1020
0.0
1030
0.0
  0
LINE
  5
12773A
  8
SLIM
 10
9932.9980785774187
 20
-1010.686019359684
 30
0.0
 11
10085.0
 21
-858.68409793710521
 31
0.0
1001
GRADIENTCOLOR1ACI
1070
     5
1001
GRADIENTCOLOR2ACI
1070
     2
1001
ACAD
1010
0.0
1020
0.0
1030
0.0
  0
LINE
  5
12773B
  8
SLIM
 10
9932.9999999999927
 20
-1028.644610179251
 30
0.0
 11
10085.0
 21
-876.64461017924395
 31
0.0
1001
GRADIENTCOLOR1ACI
1070
     5
1001
GRADIENTCOLOR2ACI
1070
     2
1001
ACAD
1010
0.0
1020
0.0
1030
0.0
  0
LINE
  5
12773C
  8
SLIM
 10
9934.6051224213898
 20
-1044.9999999999959
 30
0.0
 11
10083.05183715436
 21
-896.55328526701646
 31
0.0
1001
GRADIENTCOLOR1ACI
1070
     5
1001
GRADIENTCOLOR2ACI
1070
     2
1001
ACAD
1010
0.0
1020
0.0
1030
0.0
  0
LINE
  5
12773D
  8
SLIM
 10
9952.5656346635242
 20
-1044.9999999999959
 30
0.0
 11
10080.11284424201
 21
-917.45279042150355
 31
0.0
1001
GRADIENTCOLOR1ACI
1070
     5
1001
GRADIENTCOLOR2ACI
1070
     2
1001
ACAD
1010
0.0
1020
0.0
1030
0.0
  0
LINE
  5
12773E
  8
SLIM
 10
9970.5261469056622
 20
-1044.999999999997
 30
0.0
 11
10077.17385132967
 21
-938.35229557599132
 31
0.0
1001
GRADIENTCOLOR1ACI
1070
     5
1001
GRADIENTCOLOR2ACI
1070
     2
1001
ACAD
1010
0.0
1020
0.0
1030
0.0
  0
LINE
  5
12773F
  8
SLIM
 10
9988.4866591478003
 20
-1044.999999999997
 30
0.0
 11
10074.23485841732
 21
-959.25180073047841
 31
0.0
1001
GRADIENTCOLOR1ACI
1070
     5
1001
GRADIENTCOLOR2ACI
1070
     2
1001
ACAD
1010
0.0
1020
0.0
1030
0.0
  0
LINE
  5
127740
  8
SLIM
 10
10006.44717138994
 20
-1044.999999999998
 30
0.0
 11
10071.29586550497
 21
-980.15130588496572
 31
0.0
1001
GRADIENTCOLOR1ACI
1070
     5
1001
GRADIENTCOLOR2ACI
1070
     2
1001
ACAD
1010
0.0
1020
0.0
1030
0.0
  0
LINE
  5
127741
  8
SLIM
 10
10024.407683632069
 20
-1044.999999999998
 30
0.0
 11
10068.35687259262
 21
-1001.050811039453
 31
0.0
1001
GRADIENTCOLOR1ACI
1070
     5
1001
GRADIENTCOLOR2ACI
1070
     2
1001
ACAD
1010
0.0
1020
0.0
1030
0.0
  0
LINE
  5
127742
  8
SLIM
 10
10042.368195874211
 20
-1044.9999999999991
 30
0.0
 11
10067.000000000009
 21
-1020.368195874201
 31
0.0
1001
GRADIENTCOLOR1ACI
1070
     5
1001
GRADIENTCOLOR2ACI
1070
     2
1001
ACAD
1010
0.0
1020
0.0
1030
0.0
  0
LINE
  5
127743
  8
SLIM
 10
10060.328708116351
 20
-1044.9999999999991
 30
0.0
 11
10067.000000000009
 21
-1038.3287081163401
 31
0.0
1001
GRADIENTCOLOR1ACI
1070
     5
1001
GRADIENTCOLOR2ACI
1070
     2
1001
ACAD
1010
0.0
1020
0.0
1030
0.0
  0
LINE
  5
127744
  8
OBJECT
 10
9932.9999999999927
 20
-1044.9999999999959
 30
0.0
 11
10067.000000000009
 21
-1044.9999999999991
 31
0.0
1001
ACDBBLOCKREPETAG
1070
     1
1071
        1
1005
127744
  0
LINE
  5
127745
  8
OBJECT
 10
9914.9999999999927
 20
-654.99999999999966
 30
0.0
 11
9915.0
 21
-882.69968280914077
 31
0.0
1001
ACDBBLOCKREPETAG
1070
     1
1071
        2
1005
127745
  0
LINE
  5
127746
  8
OBJECT
 10
10085.000000000009
 20
-654.99999999999966
 30
0.0
 11
10085.0
 21
-882.69968280917192
 31
0.0
1001
ACDBBLOCKREPETAG
1070
     1
1071
        3
1005
127746
  0
LINE
  5
127747
  8
OBJECT
 10
9915.0
 20
-882.69968280914077
 30
0.0
 11
9932.9999999999927
 21
-1010.699682809081
 31
0.0
1001
ACDBBLOCKREPETAG
1070
     1
1071
        4
1005
127747
  0
LINE
  5
127748
  8
OBJECT
 10
10067.000000000009
 20
-1010.699682809128
 30
0.0
 11
10085.0
 21
-882.69968280917192
 31
0.0
1001
ACDBBLOCKREPETAG
1070
     1
1071
        5
1005
127748
  0
LINE
  5
127749
  8
OBJECT
 10
10085.000000000009
 20
-654.99999999999966
 30
0.0
 11
9914.9999999999927
 21
-654.99999999999966
 31
0.0
1001
ACDBBLOCKREPETAG
1070
     1
1071
        6
1005
127749
  0
LINE
  5
12774A
  8
OBJECT
 10
9932.9999999999927
 20
-1010.699682809081
 30
0.0
 11
9932.9999999999927
 21
-1044.9999999999959
 31
0.0
1001
ACDBBLOCKREPETAG
1070
     1
1071
        8
1005
12774A
  0
LINE
  5
12774B
  8
OBJECT
 10
10067.000000000009
 20
-1010.699682809128
 30
0.0
 11
10067.000000000009
 21
-1044.9999999999991
 31
0.0
1001
ACDBBLOCKREPETAG
1070
     1
1071
        9
1005
12774B
  0
LINE
  5
12774C
  8
SLIM
 10
7914.9999999999918
 20
-669.47385309434685
 30
0.0
 11
7929.4738530943387
 21
-654.99999999999966
 31
0.0
1001
GRADIENTCOLOR1ACI
1070
     5
1001
GRADIENTCOLOR2ACI
1070
     2
1001
ACAD
1010
0.0
1020
0.0
1030
0.0
  0
LINE
  5
12774D
  8
SLIM
 10
7914.9999999999918
 20
-687.43436533648469
 30
0.0
 11
7947.4343653364758
 21
-654.99999999999966
 31
0.0
1001
GRADIENTCOLOR1ACI
1070
     5
1001
GRADIENTCOLOR2ACI
1070
     2
1001
ACAD
1010
0.0
1020
0.0
1030
0.0
  0
LINE
  5
12774E
  8
SLIM
 10
7914.9999999999918
 20
-705.39487757862241
 30
0.0
 11
7965.3948775786139
 21
-654.99999999999966
 31
0.0
1001
GRADIENTCOLOR1ACI
1070
     5
1001
GRADIENTCOLOR2ACI
1070
     2
1001
ACAD
1010
0.0
1020
0.0
1030
0.0
  0
LINE
  5
12774F
  8
SLIM
 10
7914.9999999999964
 20
-723.35538982076014
 30
0.0
 11
7983.3553898207547
 21
-654.99999999999966
 31
0.0
1001
GRADIENTCOLOR1ACI
1070
     5
1001
GRADIENTCOLOR2ACI
1070
     2
1001
ACAD
1010
0.0
1020
0.0
1030
0.0
  0
LINE
  5
127750
  8
SLIM
 10
7914.9999999999982
 20
-741.31590206289775
 30
0.0
 11
8001.3159020628927
 21
-654.99999999999966
 31
0.0
1001
GRADIENTCOLOR1ACI
1070
     5
1001
GRADIENTCOLOR2ACI
1070
     2
1001
ACAD
1010
0.0
1020
0.0
1030
0.0
  0
LINE
  5
127751
  8
SLIM
 10
7914.9999999999982
 20
-759.27641430503525
 30
0.0
 11
8019.2764143050299
 21
-654.99999999999966
 31
0.0
1001
GRADIENTCOLOR1ACI
1070
     5
1001
GRADIENTCOLOR2ACI
1070
     2
1001
ACAD
1010
0.0
1020
0.0
1030
0.0
  0
LINE
  5
127752
  8
SLIM
 10
7914.9999999999982
 20
-777.2369265471732
 30
0.0
 11
8037.2369265471707
 21
-654.99999999999966
 31
0.0
1001
GRADIENTCOLOR1ACI
1070
     5
1001
GRADIENTCOLOR2ACI
1070
     2
1001
ACAD
1010
0.0
1020
0.0
1030
0.0
  0
LINE
  5
127753
  8
SLIM
 10
7914.9999999999982
 20
-795.19743878931092
 30
0.0
 11
8055.1974387893079
 21
-654.99999999999966
 31
0.0
1001
GRADIENTCOLOR1ACI
1070
     5
1001
GRADIENTCOLOR2ACI
1070
     2
1001
ACAD
1010
0.0
1020
0.0
1030
0.0
  0
LINE
  5
127754
  8
SLIM
 10
7914.9999999999982
 20
-813.15795103144865
 30
0.0
 11
8073.1579510314468
 21
-654.99999999999966
 31
0.0
1001
GRADIENTCOLOR1ACI
1070
     5
1001
GRADIENTCOLOR2ACI
1070
     2
1001
ACAD
1010
0.0
1020
0.0
1030
0.0
  0
LINE
  5
127755
  8
SLIM
 10
7914.9999999999982
 20
-831.11846327358603
 30
0.0
 11
8085.0000000000064
 21
-661.11846327357694
 31
0.0
1001
GRADIENTCOLOR1ACI
1070
     5
1001
GRADIENTCOLOR2ACI
1070
     2
1001
ACAD
1010
0.0
1020
0.0
1030
0.0
  0
LINE
  5
127756
  8
SLIM
 10
7914.9999999999982
 20
-849.07897551572387
 30
0.0
 11
8085.0000000000064
 21
-679.07897551571614
 31
0.0
1001
GRADIENTCOLOR1ACI
1070
     5
1001
GRADIENTCOLOR2ACI
1070
     2
1001
ACAD
1010
0.0
1020
0.0
1030
0.0
  0
LINE
  5
127757
  8
SLIM
 10
7914.9999999999982
 20
-867.03948775786171
 30
0.0
 11
8085.0000000000064
 21
-697.039487757855
 31
0.0
1001
GRADIENTCOLOR1ACI
1070
     5
1001
GRADIENTCOLOR2ACI
1070
     2
1001
ACAD
1010
0.0
1020
0.0
1030
0.0
  0
LINE
  5
127758
  8
SLIM
 10
7915.283600749558
 20
-884.71639925044144
 30
0.0
 11
8085.0000000000064
 21
-714.99999999999386
 31
0.0
1001
GRADIENTCOLOR1ACI
1070
     5
1001
GRADIENTCOLOR2ACI
1070
     2
1001
ACAD
1010
0.0
1020
0.0
1030
0.0
  0
LINE
  5
127759
  8
SLIM
 10
7917.4979104780423
 20
-900.46260176409714
 30
0.0
 11
8085.0000000000064
 21
-732.96051224213272
 31
0.0
1001
GRADIENTCOLOR1ACI
1070
     5
1001
GRADIENTCOLOR2ACI
1070
     2
1001
ACAD
1010
0.0
1020
0.0
1030
0.0
  0
LINE
  5
12775A
  8
SLIM
 10
7919.7122202065239
 20
-916.20880427775205
 30
0.0
 11
8085.0000000000064
 21
-750.92102448427181
 31
0.0
1001
GRADIENTCOLOR1ACI
1070
     5
1001
GRADIENTCOLOR2ACI
1070
     2
1001
ACAD
1010
0.0
1020
0.0
1030
0.0
  0
LINE
  5
12775B
  8
SLIM
 10
7921.9265299350072
 20
-931.9550067914073
 30
0.0
 11
8085.0000000000018
 21
-768.88153672641056
 31
0.0
1001
GRADIENTCOLOR1ACI
1070
     5
1001
GRADIENTCOLOR2ACI
1070
     2
1001
ACAD
1010
0.0
1020
0.0
1030
0.0
  0
LINE
  5
12775C
  8
SLIM
 10
7924.1408396634897
 20
-947.70120930506255
 30
0.0
 11
8085.0000000000018
 21
-786.84204896854953
 31
0.0
1001
GRADIENTCOLOR1ACI
1070
     5
1001
GRADIENTCOLOR2ACI
1070
     2
1001
ACAD
1010
0.0
1020
0.0
1030
0.0
  0
LINE
  5
12775D
  8
SLIM
 10
7926.3551493919731
 20
-963.44741181871814
 30
0.0
 11
8085.0000000000018
 21
-804.80256121068851
 31
0.0
1001
GRADIENTCOLOR1ACI
1070
     5
1001
GRADIENTCOLOR2ACI
1070
     2
1001
ACAD
1010
0.0
1020
0.0
1030
0.0
  0
LINE
  5
12775E
  8
SLIM
 10
7928.5694591204538
 20
-979.19361433237304
 30
0.0
 11
8085.0000000000018
 21
-822.76307345282714
 31
0.0
1001
GRADIENTCOLOR1ACI
1070
     5
1001
GRADIENTCOLOR2ACI
1070
     2
1001
ACAD
1010
0.0
1020
0.0
1030
0.0
  0
LINE
  5
12775F
  8
SLIM
 10
7930.783768848939
 20
-994.93981684602863
 30
0.0
 11
8085.0000000000018
 21
-840.72358569496635
 31
0.0
1001
GRADIENTCOLOR1ACI
1070
     5
1001
GRADIENTCOLOR2ACI
1070
     2
1001
ACAD
1010
0.0
1020
0.0
1030
0.0
  0
LINE
  5
127760
  8
SLIM
 10
7938.6840979371091
 20
-1004.999999999998
 30
0.0
 11
8085.0
 21
-858.68409793710521
 31
0.0
1001
GRADIENTCOLOR1ACI
1070
     5
1001
GRADIENTCOLOR2ACI
1070
     2
1001
ACAD
1010
0.0
1020
0.0
1030
0.0
  0
LINE
  5
127761
  8
SLIM
 10
7943.0
 20
-1018.644610179244
 30
0.0
 11
7956.6446101792453
 21
-1004.999999999998
 31
0.0
1001
GRADIENTCOLOR1ACI
1070
     5
1001
GRADIENTCOLOR2ACI
1070
     2
1001
ACAD
1010
0.0
1020
0.0
1030
0.0
  0
LINE
  5
127762
  8
SLIM
 10
7956.6446101792453
 20
-1004.999999999998
 30
0.0
 11
8085.0
 21
-876.64461017924395
 31
0.0
1001
GRADIENTCOLOR1ACI
1070
     5
1001
GRADIENTCOLOR2ACI
1070
     2
1001
ACAD
1010
0.0
1020
0.0
1030
0.0
  0
LINE
  5
127763
  8
SLIM
 10
7944.6051224213861
 20
-1034.999999999998
 30
0.0
 11
7974.6051224213861
 21
-1004.999999999998
 31
0.0
1001
GRADIENTCOLOR1ACI
1070
     5
1001
GRADIENTCOLOR2ACI
1070
     2
1001
ACAD
1010
0.0
1020
0.0
1030
0.0
  0
LINE
  5
127764
  8
SLIM
 10
7974.6051224213861
 20
-1004.999999999998
 30
0.0
 11
8083.051837154364
 21
-896.55328526701703
 31
0.0
1001
GRADIENTCOLOR1ACI
1070
     5
1001
GRADIENTCOLOR2ACI
1070
     2
1001
ACAD
1010
0.0
1020
0.0
1030
0.0
  0
LINE
  5
127765
  8
SLIM
 10
7962.5656346635242
 20
-1034.999999999998
 30
0.0
 11
7992.5656346635242
 21
-1004.999999999998
 31
0.0
1001
GRADIENTCOLOR1ACI
1070
     5
1001
GRADIENTCOLOR2ACI
1070
     2
1001
ACAD
1010
0.0
1020
0.0
1030
0.0
  0
LINE
  5
127766
  8
SLIM
 10
7992.5656346635242
 20
-1004.999999999998
 30
0.0
 11
8080.1128442420159
 21
-917.45279042150526
 31
0.0
1001
GRADIENTCOLOR1ACI
1070
     5
1001
GRADIENTCOLOR2ACI
1070
     2
1001
ACAD
1010
0.0
1020
0.0
1030
0.0
  0
LINE
  5
127767
  8
SLIM
 10
7980.5261469056622
 20
-1034.999999999998
 30
0.0
 11
8010.5261469056586
 21
-1004.999999999998
 31
0.0
1001
GRADIENTCOLOR1ACI
1070
     5
1001
GRADIENTCOLOR2ACI
1070
     2
1001
ACAD
1010
0.0
1020
0.0
1030
0.0
  0
LINE
  5
127768
  8
SLIM
 10
8010.5261469056586
 20
-1004.999999999998
 30
0.0
 11
8077.1738513296659
 21
-938.35229557599303
 31
0.0
1001
GRADIENTCOLOR1ACI
1070
     5
1001
GRADIENTCOLOR2ACI
1070
     2
1001
ACAD
1010
0.0
1020
0.0
1030
0.0
  0
LINE
  5
127769
  8
SLIM
 10
7998.4866591478003
 20
-1034.999999999998
 30
0.0
 11
8028.4866591478003
 21
-1004.999999999998
 31
0.0
1001
GRADIENTCOLOR1ACI
1070
     5
1001
GRADIENTCOLOR2ACI
1070
     2
1001
ACAD
1010
0.0
1020
0.0
1030
0.0
  0
LINE
  5
12776A
  8
SLIM
 10
8028.4866591478003
 20
-1004.999999999998
 30
0.0
 11
8074.234858417316
 21
-959.25180073048125
 31
0.0
1001
GRADIENTCOLOR1ACI
1070
     5
1001
GRADIENTCOLOR2ACI
1070
     2
1001
ACAD
1010
0.0
1020
0.0
1030
0.0
  0
LINE
  5
12776B
  8
SLIM
 10
8016.4471713899393
 20
-1034.999999999998
 30
0.0
 11
8046.4471713899411
 21
-1004.999999999998
 31
0.0
1001
GRADIENTCOLOR1ACI
1070
     5
1001
GRADIENTCOLOR2ACI
1070
     2
1001
ACAD
1010
0.0
1020
0.0
1030
0.0
  0
LINE
  5
12776C
  8
SLIM
 10
8046.4471713899411
 20
-1004.999999999998
 30
0.0
 11
8071.2958655049679
 21
-980.15130588496913
 31
0.0
1001
GRADIENTCOLOR1ACI
1070
     5
1001
GRADIENTCOLOR2ACI
1070
     2
1001
ACAD
1010
0.0
1020
0.0
1030
0.0
  0
LINE
  5
12776D
  8
SLIM
 10
8034.4076836320774
 20
-1034.999999999998
 30
0.0
 11
8057.0
 21
-1012.4076836320741
 31
0.0
1001
GRADIENTCOLOR1ACI
1070
     5
1001
GRADIENTCOLOR2ACI
1070
     2
1001
ACAD
1010
0.0
1020
0.0
1030
0.0
  0
LINE
  5
12776E
  8
SLIM
 10
8064.4076836320764
 20
-1004.999999999998
 30
0.0
 11
8068.3568725926198
 21
-1001.050811039457
 31
0.0
1001
GRADIENTCOLOR1ACI
1070
     5
1001
GRADIENTCOLOR2ACI
1070
     2
1001
ACAD
1010
0.0
1020
0.0
1030
0.0
  0
LINE
  5
12776F
  8
SLIM
 10
8052.3681958742136
 20
-1034.999999999998
 30
0.0
 11
8057.0
 21
-1030.368195874212
 31
0.0
1001
GRADIENTCOLOR1ACI
1070
     5
1001
GRADIENTCOLOR2ACI
1070
     2
1001
ACAD
1010
0.0
1020
0.0
1030
0.0
  0
LINE
  5
127770
  8
OBJECT
 10
7943.0
 20
-1034.999999999998
 30
0.0
 11
8057.0
 21
-1034.999999999998
 31
0.0
1001
ACDBBLOCKREPETAG
1070
     1
1071
        1
1005
127770
  0
LINE
  5
127771
  8
OBJECT
 10
7932.1984821049646
 20
-1004.999999999998
 30
0.0
 11
8067.8015178950409
 21
-1004.999999999998
 31
0.0
1001
ACDBBLOCKREPETAG
1070
     1
1071
        2
1005
127771
  0
LINE
  5
127772
  8
OBJECT
 10
7943.0
 20
-1034.999999999998
 30
0.0
 11
7943.0
 21
-1009.999999999998
 31
0.0
1001
ACDBBLOCKREPETAG
1070
     1
1071
        3
1005
127772
  0
LINE
  5
127773
  8
OBJECT
 10
7914.9999999999918
 20
-654.99999999999966
 30
0.0
 11
7915.0
 21
-882.69968280914077
 31
0.0
1001
ACDBBLOCKREPETAG
1070
     1
1071
        4
1005
127773
  0
LINE
  5
127774
  8
OBJECT
 10
8085.0000000000064
 20
-654.99999999999966
 30
0.0
 11
8085.0
 21
-882.69968280917192
 31
0.0
1001
ACDBBLOCKREPETAG
1070
     1
1071
        5
1005
127774
  0
LINE
  5
127775
  8
OBJECT
 10
7915.0
 20
-882.69968280914077
 30
0.0
 11
7932.1984821049646
 21
-1004.999999999998
 31
0.0
1001
ACDBBLOCKREPETAG
1070
     1
1071
        6
1005
127775
  0
LINE
  5
127776
  8
OBJECT
 10
8067.8015178950409
 20
-1004.999999999998
 30
0.0
 11
8085.0
 21
-882.69968280917192
 31
0.0
1001
ACDBBLOCKREPETAG
1070
     1
1071
        7
1005
127776
  0
LINE
  5
127777
  8
OBJECT
 10
8085.0000000000064
 20
-654.99999999999966
 30
0.0
 11
7914.9999999999918
 21
-654.99999999999966
 31
0.0
1001
ACDBBLOCKREPETAG
1070
     1
1071
        8
1005
127777
  0
LINE
  5
127778
  8
OBJECT
 10
7943.0
 20
-1009.999999999998
 30
0.0
 11
7942.296875
 21
-1004.999999999998
 31
0.0
1001
ACDBBLOCKREPETAG
1070
     1
1071
       10
1005
127778
  0
LINE
  5
127779
  8
OBJECT
 10
8057.0
 20
-1034.999999999998
 30
0.0
 11
8057.0
 21
-1009.999999999998
 31
0.0
1001
ACDBBLOCKREPETAG
1070
     1
1071
       11
1005
127779
  0
LINE
  5
12777A
  8
OBJECT
 10
8057.0
 20
-1009.999999999998
 30
0.0
 11
8057.7031250000027
 21
-1004.999999999998
 31
0.0
1001
ACDBBLOCKREPETAG
1070
     1
1071
       12
1005
12777A
  0
LINE
  5
12777B
  8
OBJECT
 10
1918.0
 20
-470.99999999999937
 30
0.0
 11
1918.0
 21
-449.99999999999937
 31
0.0
1001
ACDBBLOCKREPETAG
1070
     1
1071
        0
1005
12777B
  0
LINE
  5
12777C
  8
OBJECT
 10
1918.0
 20
-449.99999999999937
 30
0.0
 11
2082.0000000000041
 21
-449.99999999999937
 31
0.0
1001
ACDBBLOCKREPETAG
1070
     1
1071
        1
1005
12777C
  0
LINE
  5
12777D
  8
HIDDEN
 10
1943.0
 20
-519.99999999999955
 30
0.0
 11
2057.0
 21
-519.99999999999955
 31
0.0
1001
ACDBBLOCKREPETAG
1070
     1
1071
        2
1005
12777D
  0
LINE
  5
12777E
  8
OBJECT
 10
2082.0000000000041
 20
-470.99999999999937
 30
0.0
 11
1918.0
 21
-470.99999999999937
 31
0.0
1001
ACDBBLOCKREPETAG
1070
     1
1071
        3
1005
12777E
  0
LINE
  5
12777F
  8
CENTER
 10
2000.0
 20
-434.99999999999949
 30
0.0
 11
2000.0
 21
-799.99999999999955
 31
0.0
1001
ACDBBLOCKREPETAG
1070
     1
1071
        4
1005
12777F
  0
LINE
  5
127780
  8
OBJECT
 10
1925.0
 20
-533.99999999999955
 30
0.0
 11
1925.0
 21
-787.99999999999955
 31
0.0
1001
ACDBBLOCKREPETAG
1070
     1
1071
        5
1005
127780
  0
LINE
  5
127781
  8
OBJECT
 10
1928.0
 20
-470.99999999999937
 30
0.0
 11
1928.0
 21
-533.99999999999955
 31
0.0
1001
ACDBBLOCKREPETAG
1070
     1
1071
        6
1005
127781
  0
LINE
  5
127782
  8
OBJECT
 10
2072.0
 20
-533.99999999999955
 30
0.0
 11
2072.0
 21
-470.99999999999937
 31
0.0
1001
ACDBBLOCKREPETAG
1070
     1
1071
        7
1005
127782
  0
LINE
  5
127783
  8
OBJECT
 10
1920.0
 20
-787.99999999999955
 30
0.0
 11
2080.0
 21
-787.99999999999955
 31
0.0
1001
ACDBBLOCKREPETAG
1070
     1
1071
        8
1005
127783
  0
LINE
  5
127784
  8
OBJECT
 10
2080.0
 20
-533.99999999999955
 30
0.0
 11
1925.0
 21
-533.99999999999955
 31
0.0
1001
ACDBBLOCKREPETAG
1070
     1
1071
        9
1005
127784
  0
LINE
  5
127785
  8
OBJECT
 10
1920.0
 20
-787.99999999999955
 30
0.0
 11
1920.0
 21
-799.99999999999955
 31
0.0
1001
ACDBBLOCKREPETAG
1070
     1
1071
       10
1005
127785
  0
LINE
  5
127786
  8
OBJECT
 10
1920.0
 20
-799.99999999999955
 30
0.0
 11
2080.0
 21
-799.99999999999955
 31
0.0
1001
ACDBBLOCKREPETAG
1070
     1
1071
       11
1005
127786
  0
LINE
  5
127787
  8
OBJECT
 10
2080.0
 20
-799.99999999999955
 30
0.0
 11
2080.0
 21
-787.99999999999955
 31
0.0
1001
ACDBBLOCKREPETAG
1070
     1
1071
       12
1005
127787
  0
LINE
  5
127788
  8
OBJECT
 10
2074.9999999998622
 20
-657.99999999985039
 30
0.0
 11
2075.0
 21
-787.99999999999955
 31
0.0
1001
ACDBBLOCKREPETAG
1070
     1
1071
       14
1005
127788
  0
LINE
  5
127789
  8
OBJECT
 10
2074.9999908029849
 20
-657.99998602702135
 30
0.0
 11
2080.0
 21
-657.99998602702135
 31
0.0
1001
ACDBBLOCKREPETAG
1070
     1
1071
       15
1005
127789
  0
LINE
  5
12778A
  8
OBJECT
 10
1920.794081712025
 20
-449.99999999999937
 30
0.0
 11
1920.794081712025
 21
-470.99999999999937
 31
0.0
1001
ACDBBLOCKREPETAG
1070
     1
1071
       16
1005
12778A
  0
LINE
  5
12778B
  8
OBJECT
 10
1928.737895999999
 20
-449.99999999999937
 30
0.0
 11
1928.737895999999
 21
-470.99999999999937
 31
0.0
1001
ACDBBLOCKREPETAG
1070
     1
1071
       17
1005
12778B
  0
LINE
  5
12778C
  8
OBJECT
 10
1970.833026
 20
-449.99999999999937
 30
0.0
 11
1970.833026
 21
-470.99999999999937
 31
0.0
1001
ACDBBLOCKREPETAG
1070
     1
1071
       18
1005
12778C
  0
LINE
  5
12778D
  8
OBJECT
 10
1978.7768389217999
 20
-449.99999999999937
 30
0.0
 11
1978.7768389217999
 21
-470.99999999999937
 31
0.0
1001
ACDBBLOCKREPETAG
1070
     1
1071
       19
1005
12778D
  0
LINE
  5
12778E
  8
OBJECT
 10
2082.0
 20
-470.99999999999937
 30
0.0
 11
2082.0
 21
-449.99999999999937
 31
0.0
1001
ACDBBLOCKREPETAG
1070
     1
1071
       20
1005
12778E
  0
LINE
  5
12778F
  8
OBJECT
 10
2079.2059182879748
 20
-449.99999999999937
 30
0.0
 11
2079.2059182879748
 21
-470.99999999999937
 31
0.0
1001
ACDBBLOCKREPETAG
1070
     1
1071
       21
1005
12778F
  0
LINE
  5
127790
  8
OBJECT
 10
2071.2621040000008
 20
-449.99999999999937
 30
0.0
 11
2071.2621040000008
 21
-470.99999999999937
 31
0.0
1001
ACDBBLOCKREPETAG
1070
     1
1071
       22
1005
127790
  0
LINE
  5
127791
  8
OBJECT
 10
2029.166974
 20
-449.99999999999937
 30
0.0
 11
2029.166974
 21
-470.99999999999937
 31
0.0
1001
ACDBBLOCKREPETAG
1070
     1
1071
       23
1005
127791
  0
LINE
  5
127792
  8
OBJECT
 10
2021.2231610782001
 20
-449.99999999999937
 30
0.0
 11
2021.2231610782001
 21
-470.99999999999937
 31
0.0
1001
ACDBBLOCKREPETAG
1070
     1
1071
       24
1005
127792
  0
ARC
  5
127793
  8
OBJECT
 10
2200.6872746716731
 20
-649.40809941010718
 30
0.0
 40
170.6350503965856
 50
137.44134459184301
 51
149.91949581336559
1001
ACDBBLOCKREPETAG
1070
     1
1071
       25
1005
127793
  0
ARC
  5
127794
  8
OBJECT
 10
2118.8455987040511
 20
-605.88272669536445
 30
0.0
 40
78.072222021763665
 50
147.45515310381529
 51
164.66365997719581
1001
ACDBBLOCKREPETAG
1070
     1
1071
       26
1005
127794
  0
ARC
  5
127795
  8
OBJECT
 10
2085.7554349608731
 20
-595.99999999999955
 30
0.0
 40
43.55353926885617
 50
165.6884523007466
 51
194.3115476992534
1001
ACDBBLOCKREPETAG
1070
     1
1071
       27
1005
127795
  0
ARC
  5
127796
  8
OBJECT
 10
2200.6872746716731
 20
-542.59190058989179
 30
0.0
 40
170.6350503965856
 50
210.0805041866343
 51
222.55865540815699
1001
ACDBBLOCKREPETAG
1070
     1
1071
       28
1005
127796
  0
ARC
  5
127797
  8
OBJECT
 10
2118.8455987040511
 20
-586.11727330463452
 30
0.0
 40
78.072222021763665
 50
195.33634002280411
 51
212.54484689618471
1001
ACDBBLOCKREPETAG
1070
     1
1071
       29
1005
127797
  0
POINT
  5
127798
  8
DOTS
 10
2000.0
 20
-654.99999999999966
 30
0.0
1001
ACDBBLOCKREPETAG
1070
     1
1071
      204
1005
127798
  0
LINE
  5
127799
  8
OBJECT
 10
1946.692194143754
 20
-195.46638161316051
 30
0.0
 11
1970.4540343856349
 21
-193.79865146436981
 31
0.0
1001
ACDBBLOCKREPETAG
1070
     1
1071
      326
1005
127799
  0
LINE
  5
12779A
  8
OBJECT
 10
1947.385434727061
 20
-190.305593971766
 30
0.0
 11
1966.988435262901
 21
-188.92975272660161
 31
0.0
1001
ACDBBLOCKREPETAG
1070
     1
1071
      327
1005
12779A
  0
LINE
  5
12779B
  8
OBJECT
 10
1974.1135374752771
 20
-242.77722592637201
 30
0.0
 11
1982.136698837405
 21
-234.1690987954708
 31
0.0
1001
ACDBBLOCKREPETAG
1070
     1
1071
      328
1005
12779B
  0
ARC
  5
12779C
  8
OBJECT
 10
1982.1160071245381
 20
-183.28188966318251
 30
0.0
 40
60.031113246032611
 50
254.07020130412749
 51
262.33936106086588
1001
ACDBBLOCKREPETAG
1070
     1
1071
      329
1005
12779C
  0
LINE
  5
12779D
  8
OBJECT
 10
1977.612599732513
 20
-197.67495277149911
 30
0.0
 11
1982.136698837405
 21
-234.1690987954708
 31
0.0
1001
ACDBBLOCKREPETAG
1070
     1
1071
      330
1005
12779D
  0
ARC
  5
12779E
  8
OBJECT
 10
1967.6885653456411
 20
-198.90521351131881
 30
0.0
 40
10.0
 50
7.0667782929957941
 51
94.014734370532395
1001
ACDBBLOCKREPETAG
1070
     1
1071
      331
1005
12779E
  0
ARC
  5
12779F
  8
OBJECT
 10
1970.944125370974
 20
-200.78147401875589
 30
0.0
 40
7.0
 50
7.0667782929957941
 51
94.014733775014648
1001
ACDBBLOCKREPETAG
1070
     1
1071
      332
1005
12779F
  0
POINT
  5
1277A0
  8
DOTS
 10
2000.0
 20
-199.99999999999909
 30
0.0
 50
270.0
1001
ACDBBLOCKREPETAG
1070
     1
1071
      347
1005
1277A0
  0
ARC
  5
1277A1
  8
OBJECT
 10
2000.0
 20
-199.99999999999909
 30
0.0
 40
77.0
 50
202.25886899987509
 51
247.7411309999176
1001
ACDBBLOCKREPETAG
1070
     1
1071
        0
1005
1277A1
  0
ARC
  5
1277A2
  8
OBJECT
 10
2000.0
 20
-199.99999999999909
 30
0.0
 40
80.0
 50
50.804965661401717
 51
72.417343999921059
1001
ACDBBLOCKREPETAG
1070
     1
1071
        1
1005
1277A2
  0
ARC
  5
1277A3
  8
OBJECT
 10
2000.0
 20
-199.99999999999909
 30
0.0
 40
77.0
 50
292.25886900008243
 51
337.74113100012482
1001
ACDBBLOCKREPETAG
1070
     1
1071
        2
1005
1277A3
  0
ARC
  5
1277A4
  8
OBJECT
 10
2000.0
 20
-199.99999999999909
 30
0.0
 40
77.0
 50
112.2588690000823
 51
157.7411310001248
1001
ACDBBLOCKREPETAG
1070
     1
1071
        3
1005
1277A4
  0
ARC
  5
1277A5
  8
OBJECT
 10
2000.0
 20
-199.99999999999909
 30
0.0
 40
80.0
 50
107.5826560000789
 51
162.4173443189467
1001
ACDBBLOCKREPETAG
1070
     1
1071
        4
1005
1277A5
  0
ARC
  5
1277A6
  8
OBJECT
 10
2000.0
 20
-199.99999999999909
 30
0.0
 40
80.0
 50
197.5826545812283
 51
252.4173443189411
1001
ACDBBLOCKREPETAG
1070
     1
1071
        5
1005
1277A6
  0
ARC
  5
1277A7
  8
OBJECT
 10
2000.0
 20
-199.99999999999909
 30
0.0
 40
80.0
 50
287.5826567808985
 51
309.1949674261358
1001
ACDBBLOCKREPETAG
1070
     1
1071
        6
1005
1277A7
  0
ARC
  5
1277A8
  8
OBJECT
 10
2000.0
 20
-199.99999999999909
 30
0.0
 40
77.0
 50
22.258868999875201
 51
67.74113099991763
1001
ACDBBLOCKREPETAG
1070
     1
1071
        7
1005
1277A8
  0
CIRCLE
  5
1277A9
  8
OBJECT
 10
2000.0
 20
-199.99999999999909
 30
0.0
 40
70.0
1001
ACDBBLOCKREPETAG
1070
     1
1071
        8
1005
1277A9
  0
LINE
  5
1277AA
  8
OBJECT
 10
2029.1669749999969
 20
-271.26210499999888
 30
0.0
 11
2021.2231624441049
 21
-279.20591755589248
 31
0.0
1001
ACDBBLOCKREPETAG
1070
     1
1071
        9
1005
1277AA
  0
LINE
  5
1277AB
  8
OBJECT
 10
1970.833026
 20
-271.26210499999888
 30
0.0
 11
1978.7768389219159
 21
-279.20591792191681
 31
0.0
1001
ACDBBLOCKREPETAG
1070
     1
1071
       10
1005
1277AB
  0
ARC
  5
1277AC
  8
OBJECT
 10
2000.0
 20
-199.99999999999909
 30
0.0
 40
82.000000000000014
 50
255.00000044864069
 51
285.00000053949208
1001
ACDBBLOCKREPETAG
1070
     1
1071
       11
1005
1277AC
  0
LINE
  5
1277AD
  8
OBJECT
 10
1928.737895999999
 20
-229.1669739999989
 30
0.0
 11
1920.7940817120541
 21
-221.2231597120545
 31
0.0
1001
ACDBBLOCKREPETAG
1070
     1
1071
       12
1005
1277AD
  0
ARC
  5
1277AE
  8
OBJECT
 10
2000.0
 20
-199.99999999999909
 30
0.0
 40
82.000000000000014
 50
165.00000044885081
 51
194.9999985630262
1001
ACDBBLOCKREPETAG
1070
     1
1071
       13
1005
1277AE
  0
LINE
  5
1277AF
  8
OBJECT
 10
1970.833026
 20
-128.7378949999993
 30
0.0
 11
1978.7768389219159
 21
-120.7940820780795
 31
0.0
1001
ACDBBLOCKREPETAG
1070
     1
1071
       14
1005
1277AF
  0
ARC
  5
1277B0
  8
OBJECT
 10
2000.0
 20
-199.99999999999909
 30
0.0
 40
82.000000000000014
 50
74.999999460507865
 51
104.99999955135929
1001
ACDBBLOCKREPETAG
1070
     1
1071
       15
1005
1277B0
  0
LINE
  5
1277B1
  8
OBJECT
 10
2029.1669749999969
 20
-128.7378949999993
 30
0.0
 11
2021.2231624441049
 21
-120.79408244410391
 31
0.0
1001
ACDBBLOCKREPETAG
1070
     1
1071
       16
1005
1277B1
  0
LINE
  5
1277B2
  8
OBJECT
 10
1962.402059
 20
-161.93893300000039
 30
0.0
 11
2037.0841102714221
 21
-174.5180316957439
 31
0.0
1001
ACDBBLOCKREPETAG
1070
     1
1071
       17
1005
1277B2
  0
LINE
  5
1277B3
  8
OBJECT
 10
2044.0936569999981
 20
-169.70149399999991
 30
0.0
 11
2037.0841102714221
 21
-174.5180316957439
 31
0.0
1001
ACDBBLOCKREPETAG
1070
     1
1071
       18
1005
1277B3
  0
LINE
  5
1277B4
  8
OBJECT
 10
1928.737895999999
 20
-170.833024999999
 30
0.0
 11
1920.7940820780791
 21
-178.77683892191911
 31
0.0
1001
ACDBBLOCKREPETAG
1070
     1
1071
       19
1005
1277B4
  0
CIRCLE
  5
1277B5
  8
OBJECT
 10
2000.0
 20
-199.99999999999909
 30
0.0
 40
53.500000000000007
1001
ACDBBLOCKREPETAG
1070
     1
1071
       20
1005
1277B5
  0
ARC
  5
1277B6
  8
OBJECT
 10
2000.0
 20
-199.99999999999909
 30
0.0
 40
50.0
 50
131.70180964355251
 51
168.52376955958479
1001
ACDBBLOCKREPETAG
1070
     1
1071
       21
1005
1277B6
  0
ARC
  5
1277B7
  8
OBJECT
 10
2000.0
 20
-199.99999999999909
 30
0.0
 40
50.0
 50
238.8199429999047
 51
34.49450625011707
1001
ACDBBLOCKREPETAG
1070
     1
1071
       22
1005
1277B7
  0
LINE
  5
1277B8
  8
OBJECT
 10
2071.262104999998
 20
-170.833024999999
 30
0.0
 11
2079.2059175558929
 21
-178.77683755589439
 31
0.0
1001
ACDBBLOCKREPETAG
1070
     1
1071
       23
1005
1277B8
  0
ARC
  5
1277B9
  8
OBJECT
 10
2000.0
 20
-199.99999999999909
 30
0.0
 40
82.000000000000014
 50
345.00000044885081
 51
15.00000053937171
1001
ACDBBLOCKREPETAG
1070
     1
1071
       24
1005
1277B9
  0
LINE
  5
1277BA
  8
OBJECT
 10
2071.262104999998
 20
-229.1669739999989
 30
0.0
 11
2079.2059179219209
 21
-221.2231610780791
 31
0.0
1001
ACDBBLOCKREPETAG
1070
     1
1071
       25
1005
1277BA
  0
LINE
  5
1277BB
  8
OBJECT
 10
2045.6618002273251
 20
-137.99999999999909
 30
0.0
 11
2080.0
 21
-137.99999999999909
 31
0.0
1001
ACDBBLOCKREPETAG
1070
     1
1071
       26
1005
1277BB
  0
LINE
  5
1277BC
  8
OBJECT
 10
2045.6618002273251
 20
-261.99999999999909
 30
0.0
 11
2080.0
 21
-261.99999999999909
 31
0.0
1001
ACDBBLOCKREPETAG
1070
     1
1071
       27
1005
1277BC
  0
LINE
  5
1277BD
  8
CENTER
 10
2080.0
 20
-199.99999999999909
 30
0.0
 11
1903.0
 21
-199.99999999999909
 31
0.0
1001
ACDBBLOCKREPETAG
1070
     1
1071
       36
1005
1277BD
  0
LINE
  5
1277BE
  8
CENTER
 10
2000.0
 20
-296.99999999999898
 30
0.0
 11
2000.0
 21
-104.9999999999991
 31
0.0
1001
ACDBBLOCKREPETAG
1070
     1
1071
       37
1005
1277BE
  0
LINE
  5
1277BF
  8
OBJECT
 10
12085.999999999991
 20
-1133.9999999999991
 30
0.0
 11
12085.999999999991
 21
-1143.9999999999991
 31
0.0
1001
ACDBBLOCKREPETAG
1070
     1
1071
      121
1005
1277BF
  0
LINE
  5
1277C0
  8
OBJECT
 10
12069.999999999991
 20
-1133.9999999999991
 30
0.0
 11
12069.999999999991
 21
-1143.9999999999991
 31
0.0
1001
ACDBBLOCKREPETAG
1070
     1
1071
      122
1005
1277C0
  0
LINE
  5
1277C1
  8
OBJECT
 10
12085.999999999991
 20
-1143.9999999999991
 30
0.0
 11
12069.999999999991
 21
-1143.9999999999991
 31
0.0
1001
ACDBBLOCKREPETAG
1070
     1
1071
      123
1005
1277C1
  0
LINE
  5
1277C2
  8
OBJECT
 10
12090.0
 20
-1094.9999999999959
 30
0.0
 11
11924.0
 21
-1094.9999999999959
 31
0.0
1001
ACDBBLOCKREPETAG
1070
     1
1071
      124
1005
1277C2
  0
LINE
  5
1277C3
  8
OBJECT
 10
12090.0
 20
-1109.9999999999991
 30
0.0
 11
12090.0
 21
-1094.9999999999959
 31
0.0
1001
ACDBBLOCKREPETAG
1070
     1
1071
      125
1005
1277C3
  0
LINE
  5
1277C4
  8
OBJECT
 10
11924.0
 20
-1109.9999999999991
 30
0.0
 11
12090.0
 21
-1109.9999999999991
 31
0.0
1001
ACDBBLOCKREPETAG
1070
     1
1071
      126
1005
1277C4
  0
LINE
  5
1277C5
  8
OBJECT
 10
12067.49999999998
 20
-1109.9999999999991
 30
0.0
 11
12067.49999999998
 21
-1119.9999999999991
 31
0.0
1001
ACDBBLOCKREPETAG
1070
     1
1071
      127
1005
1277C5
  0
LINE
  5
1277C6
  8
OBJECT
 10
12072.999999999991
 20
-1119.9999999999991
 30
0.0
 11
12072.999999999991
 21
-1109.9999999999991
 31
0.0
1001
ACDBBLOCKREPETAG
1070
     1
1071
      128
1005
1277C6
  0
LINE
  5
1277C7
  8
OBJECT
 10
12082.999999999991
 20
-1119.9999999999991
 30
0.0
 11
12082.999999999991
 21
-1109.9999999999991
 31
0.0
1001
ACDBBLOCKREPETAG
1070
     1
1071
      129
1005
1277C7
  0
LINE
  5
1277C8
  8
OBJECT
 10
11924.0
 20
-1119.9999999999991
 30
0.0
 11
11924.0
 21
-1133.9999999999959
 31
0.0
1001
ACDBBLOCKREPETAG
1070
     1
1071
      130
1005
1277C8
  0
LINE
  5
1277C9
  8
OBJECT
 10
12090.0
 20
-1119.9999999999991
 30
0.0
 11
12090.0
 21
-1133.9999999999959
 31
0.0
1001
ACDBBLOCKREPETAG
1070
     1
1071
      131
1005
1277C9
  0
LINE
  5
1277CA
  8
OBJECT
 10
11924.0
 20
-1133.9999999999959
 30
0.0
 11
12090.0
 21
-1133.9999999999959
 31
0.0
1001
ACDBBLOCKREPETAG
1070
     1
1071
      132
1005
1277CA
  0
LINE
  5
1277CB
  8
OBJECT
 10
11924.0
 20
-1119.9999999999991
 30
0.0
 11
12090.0
 21
-1119.9999999999991
 31
0.0
1001
ACDBBLOCKREPETAG
1070
     1
1071
      133
1005
1277CB
  0
LINE
  5
1277CC
  8
OBJECT
 10
11932.49999999998
 20
-1109.9999999999991
 30
0.0
 11
11932.49999999998
 21
-1119.9999999999991
 31
0.0
1001
ACDBBLOCKREPETAG
1070
     1
1071
      134
1005
1277CC
  0
LINE
  5
1277CD
  8
OBJECT
 10
11934.0
 20
-1058.9999999999959
 30
0.0
 11
12065.999999999991
 21
-1058.9999999999959
 31
0.0
1001
ACDBBLOCKREPETAG
1070
     1
1071
      135
1005
1277CD
  0
LINE
  5
1277CE
  8
OBJECT
 10
11924.0
 20
-1109.9999999999991
 30
0.0
 11
11924.0
 21
-1094.9999999999959
 31
0.0
1001
ACDBBLOCKREPETAG
1070
     1
1071
      136
1005
1277CE
  0
LINE
  5
1277CF
  8
HIDDEN
 10
11943.0
 20
-1069.9999999999991
 30
0.0
 11
12057.0
 21
-1069.9999999999991
 31
0.0
1001
ACDBBLOCKREPETAG
1070
     1
1071
      137
1005
1277CF
  0
LINE
  5
1277D0
  8
OBJECT
 10
12086.999999999991
 20
-1093.2
 30
0.0
 11
12086.999999999991
 21
-1094.9999999999991
 31
0.0
1001
ACDBBLOCKREPETAG
1070
     1
1071
      138
1005
1277D0
  0
LINE
  5
1277D1
  8
OBJECT
 10
12068.999999999991
 20
-1093.2
 30
0.0
 11
12068.999999999991
 21
-1094.9999999999991
 31
0.0
1001
ACDBBLOCKREPETAG
1070
     1
1071
      139
1005
1277D1
  0
LINE
  5
1277D2
  8
OBJECT
 10
12072.249999999991
 20
-1083.4999999999991
 30
0.0
 11
12083.749999999991
 21
-1083.4999999999991
 31
0.0
1001
ACDBBLOCKREPETAG
1070
     1
1071
      140
1005
1277D2
  0
LINE
  5
1277D3
  8
OBJECT
 10
12072.249999999991
 20
-1083.4999999999991
 30
0.0
 11
12072.249999999991
 21
-1093.2
 31
0.0
1001
ACDBBLOCKREPETAG
1070
     1
1071
      141
1005
1277D3
  0
LINE
  5
1277D4
  8
OBJECT
 10
12083.749999999991
 20
-1083.4999999999991
 30
0.0
 11
12083.749999999991
 21
-1093.2
 31
0.0
1001
ACDBBLOCKREPETAG
1070
     1
1071
      142
1005
1277D4
  0
LINE
  5
1277D5
  8
OBJECT
 10
11931.99999999998
 20
-1174.9999999999991
 30
0.0
 11
12067.99999999998
 21
-1174.9999999999991
 31
0.0
1001
ACDBBLOCKREPETAG
1070
     1
1071
      143
1005
1277D5
  0
LINE
  5
1277D6
  8
OBJECT
 10
11931.99999999998
 20
-1174.9999999999991
 30
0.0
 11
11931.99999999998
 21
-1133.9999999999991
 31
0.0
1001
ACDBBLOCKREPETAG
1070
     1
1071
      144
1005
1277D6
  0
LINE
  5
1277D7
  8
OBJECT
 10
12067.99999999998
 20
-1174.9999999999991
 30
0.0
 11
12067.99999999998
 21
-1133.9999999999991
 31
0.0
1001
ACDBBLOCKREPETAG
1070
     1
1071
      145
1005
1277D7
  0
LINE
  5
1277D8
  8
OBJECT
 10
12086.999999999991
 20
-1093.2
 30
0.0
 11
12068.999999999991
 21
-1093.2
 31
0.0
1001
ACDBBLOCKREPETAG
1070
     1
1071
      146
1005
1277D8
  0
LINE
  5
1277D9
  8
CENTER
 10
12000.0
 20
-799.99999999999955
 30
0.0
 11
12000.0
 21
-1189.9999999999991
 31
0.0
1001
ACDBBLOCKREPETAG
1070
     1
1071
      147
1005
1277D9
  0
LINE
  5
1277DA
  8
OBJECT
 10
11925.0
 20
-799.99999999999955
 30
0.0
 11
11925.0
 21
-881.99999999999591
 31
0.0
1001
ACDBBLOCKREPETAG
1070
     1
1071
      148
1005
1277DA
  0
LINE
  5
1277DB
  8
OBJECT
 10
12075.0
 20
-799.99999999999955
 30
0.0
 11
12075.0
 21
-881.99999999999204
 31
0.0
1001
ACDBBLOCKREPETAG
1070
     1
1071
      149
1005
1277DB
  0
LINE
  5
1277DC
  8
OBJECT
 10
11925.0
 20
-881.99999999999591
 30
0.0
 11
12075.0
 21
-881.99999999999204
 31
0.0
1001
ACDBBLOCKREPETAG
1070
     1
1071
      150
1005
1277DC
  0
LINE
  5
1277DD
  8
OBJECT
 10
11943.0
 20
-1058.9999999999959
 30
0.0
 11
11943.0
 21
-1009.999999999992
 31
0.0
1001
ACDBBLOCKREPETAG
1070
     1
1071
      151
1005
1277DD
  0
LINE
  5
1277DE
  8
OBJECT
 10
12057.0
 20
-1009.999999999992
 30
0.0
 11
11943.0
 21
-1009.999999999992
 31
0.0
1001
ACDBBLOCKREPETAG
1070
     1
1071
      152
1005
1277DE
  0
LINE
  5
1277DF
  8
OBJECT
 10
12057.0
 20
-1009.999999999992
 30
0.0
 11
12057.0
 21
-1058.9999999999959
 31
0.0
1001
ACDBBLOCKREPETAG
1070
     1
1071
      153
1005
1277DF
  0
LINE
  5
1277E0
  8
OBJECT
 10
11925.0
 20
-881.99999999999591
 30
0.0
 11
11943.0
 21
-1009.999999999992
 31
0.0
1001
ACDBBLOCKREPETAG
1070
     1
1071
      154
1005
1277E0
  0
LINE
  5
1277E1
  8
OBJECT
 10
12057.0
 20
-1009.999999999992
 30
0.0
 11
12075.0
 21
-881.99999999999204
 31
0.0
1001
ACDBBLOCKREPETAG
1070
     1
1071
      155
1005
1277E1
  0
LINE
  5
1277E2
  8
OBJECT
 10
11934.0
 20
-1094.9999999999959
 30
0.0
 11
11934.0
 21
-1058.9999999999959
 31
0.0
1001
ACDBBLOCKREPETAG
1070
     1
1071
      156
1005
1277E2
  0
LINE
  5
1277E3
  8
OBJECT
 10
12066.0
 20
-1094.9999999999959
 30
0.0
 11
12065.999999999991
 21
-1058.9999999999959
 31
0.0
1001
ACDBBLOCKREPETAG
1070
     1
1071
      157
1005
1277E3
  0
LINE
  5
1277E4
  8
OBJECT
 10
11954.75
 20
-1084.699999999993
 30
0.0
 11
11967.25
 21
-1084.699999999993
 31
0.0
1001
ACDBBLOCKREPETAG
1070
     1
1071
      158
1005
1277E4
  0
LINE
  5
1277E5
  8
OBJECT
 10
11946.0
 20
-1094.9999999999959
 30
0.0
 11
11946.0
 21
-1092.699999999996
 31
0.0
1001
ACDBBLOCKREPETAG
1070
     1
1071
      159
1005
1277E5
  0
LINE
  5
1277E6
  8
OBJECT
 10
11976.0
 20
-1094.9999999999959
 30
0.0
 11
11976.0
 21
-1092.699999999996
 31
0.0
1001
ACDBBLOCKREPETAG
1070
     1
1071
      160
1005
1277E6
  0
LINE
  5
1277E7
  8
OBJECT
 10
11954.75
 20
-1084.699999999993
 30
0.0
 11
11954.75
 21
-1092.699999999996
 31
0.0
1001
ACDBBLOCKREPETAG
1070
     1
1071
      161
1005
1277E7
  0
LINE
  5
1277E8
  8
OBJECT
 10
11967.25
 20
-1084.699999999993
 30
0.0
 11
11967.25
 21
-1092.699999999996
 31
0.0
1001
ACDBBLOCKREPETAG
1070
     1
1071
      162
1005
1277E8
  0
LINE
  5
1277E9
  8
OBJECT
 10
11946.0
 20
-1092.699999999996
 30
0.0
 11
11976.0
 21
-1092.699999999996
 31
0.0
1001
ACDBBLOCKREPETAG
1070
     1
1071
      163
1005
1277E9
  0
LINE
  5
1277EA
  8
OBJECT
 10
11953.0
 20
-1133.9999999999959
 30
0.0
 11
11953.0
 21
-1143.9999999999959
 31
0.0
1001
ACDBBLOCKREPETAG
1070
     1
1071
      164
1005
1277EA
  0
LINE
  5
1277EB
  8
OBJECT
 10
11969.0
 20
-1133.9999999999959
 30
0.0
 11
11969.0
 21
-1143.9999999999959
 31
0.0
1001
ACDBBLOCKREPETAG
1070
     1
1071
      165
1005
1277EB
  0
LINE
  5
1277EC
  8
OBJECT
 10
11953.0
 20
-1143.9999999999959
 30
0.0
 11
11969.0
 21
-1143.9999999999959
 31
0.0
1001
ACDBBLOCKREPETAG
1070
     1
1071
      166
1005
1277EC
  0
LINE
  5
1277ED
  8
OBJECT
 10
11966.0
 20
-1119.9999999999959
 30
0.0
 11
11966.0
 21
-1109.9999999999959
 31
0.0
1001
ACDBBLOCKREPETAG
1070
     1
1071
      167
1005
1277ED
  0
LINE
  5
1277EE
  8
OBJECT
 10
11956.0
 20
-1119.9999999999959
 30
0.0
 11
11956.0
 21
-1109.9999999999959
 31
0.0
1001
ACDBBLOCKREPETAG
1070
     1
1071
      168
1005
1277EE
  0
LINE
  5
1277EF
  8
OBJECT
 10
10090.0
 20
-1094.9999999999959
 30
0.0
 11
9924.0
 21
-1094.9999999999959
 31
0.0
1001
ACDBBLOCKREPETAG
1070
     1
1071
       12
1005
1277EF
  0
LINE
  5
1277F0
  8
OBJECT
 10
10066.0
 20
-1058.9999999999959
 30
0.0
 11
9934.0
 21
-1058.9999999999959
 31
0.0
1001
ACDBBLOCKREPETAG
1070
     1
1071
       13
1005
1277F0
  0
LINE
  5
1277F1
  8
OBJECT
 10
10090.0
 20
-1109.9999999999991
 30
0.0
 11
10090.0
 21
-1094.9999999999959
 31
0.0
1001
ACDBBLOCKREPETAG
1070
     1
1071
       14
1005
1277F1
  0
LINE
  5
1277F2
  8
OBJECT
 10
9924.0
 20
-1109.9999999999991
 30
0.0
 11
10090.0
 21
-1109.9999999999991
 31
0.0
1001
ACDBBLOCKREPETAG
1070
     1
1071
       15
1005
1277F2
  0
LINE
  5
1277F3
  8
OBJECT
 10
10067.49999999998
 20
-1109.9999999999991
 30
0.0
 11
10067.49999999998
 21
-1119.9999999999991
 31
0.0
1001
ACDBBLOCKREPETAG
1070
     1
1071
       16
1005
1277F3
  0
LINE
  5
1277F4
  8
OBJECT
 10
9924.0
 20
-1119.9999999999991
 30
0.0
 11
9924.0
 21
-1133.9999999999959
 31
0.0
1001
ACDBBLOCKREPETAG
1070
     1
1071
       17
1005
1277F4
  0
LINE
  5
1277F5
  8
OBJECT
 10
10090.0
 20
-1119.9999999999991
 30
0.0
 11
10090.0
 21
-1133.9999999999959
 31
0.0
1001
ACDBBLOCKREPETAG
1070
     1
1071
       18
1005
1277F5
  0
LINE
  5
1277F6
  8
OBJECT
 10
9924.0
 20
-1133.9999999999959
 30
0.0
 11
10090.0
 21
-1133.9999999999959
 31
0.0
1001
ACDBBLOCKREPETAG
1070
     1
1071
       19
1005
1277F6
  0
LINE
  5
1277F7
  8
OBJECT
 10
9924.0
 20
-1119.9999999999991
 30
0.0
 11
10090.0
 21
-1119.9999999999991
 31
0.0
1001
ACDBBLOCKREPETAG
1070
     1
1071
       20
1005
1277F7
  0
LINE
  5
1277F8
  8
OBJECT
 10
9932.4999999999836
 20
-1109.9999999999991
 30
0.0
 11
9932.4999999999836
 21
-1119.9999999999991
 31
0.0
1001
ACDBBLOCKREPETAG
1070
     1
1071
       21
1005
1277F8
  0
LINE
  5
1277F9
  8
OBJECT
 10
9924.0
 20
-1109.9999999999991
 30
0.0
 11
9924.0
 21
-1094.9999999999959
 31
0.0
1001
ACDBBLOCKREPETAG
1070
     1
1071
       22
1005
1277F9
  0
LINE
  5
1277FA
  8
HIDDEN
 10
9943.0
 20
-1069.9999999999991
 30
0.0
 11
10057.0
 21
-1069.9999999999991
 31
0.0
1001
ACDBBLOCKREPETAG
1070
     1
1071
       23
1005
1277FA
  0
LINE
  5
1277FB
  8
CENTER
 10
10000.0
 20
-799.99999999999955
 30
0.0
 11
10000.0
 21
-1148.9999999999959
 31
0.0
1001
ACDBBLOCKREPETAG
1070
     1
1071
       24
1005
1277FB
  0
LINE
  5
1277FC
  8
OBJECT
 10
9925.0
 20
-799.99999999999955
 30
0.0
 11
9925.0
 21
-881.99999999999591
 31
0.0
1001
ACDBBLOCKREPETAG
1070
     1
1071
       25
1005
1277FC
  0
LINE
  5
1277FD
  8
OBJECT
 10
10075.0
 20
-799.99999999999955
 30
0.0
 11
10075.0
 21
-881.99999999999204
 31
0.0
1001
ACDBBLOCKREPETAG
1070
     1
1071
       26
1005
1277FD
  0
LINE
  5
1277FE
  8
OBJECT
 10
9925.0
 20
-881.99999999999591
 30
0.0
 11
10075.0
 21
-881.99999999999204
 31
0.0
1001
ACDBBLOCKREPETAG
1070
     1
1071
       27
1005
1277FE
  0
LINE
  5
1277FF
  8
OBJECT
 10
10057.0
 20
-1058.9999999999959
 30
0.0
 11
10057.0
 21
-1009.999999999992
 31
0.0
1001
ACDBBLOCKREPETAG
1070
     1
1071
       28
1005
1277FF
  0
LINE
  5
127800
  8
OBJECT
 10
9943.0
 20
-1058.9999999999959
 30
0.0
 11
9943.0
 21
-1009.999999999992
 31
0.0
1001
ACDBBLOCKREPETAG
1070
     1
1071
       29
1005
127800
  0
LINE
  5
127801
  8
OBJECT
 10
10057.0
 20
-1009.999999999992
 30
0.0
 11
9943.0
 21
-1009.999999999992
 31
0.0
1001
ACDBBLOCKREPETAG
1070
     1
1071
       30
1005
127801
  0
LINE
  5
127802
  8
OBJECT
 10
9925.0
 20
-881.99999999999591
 30
0.0
 11
9943.0
 21
-1009.999999999992
 31
0.0
1001
ACDBBLOCKREPETAG
1070
     1
1071
       31
1005
127802
  0
LINE
  5
127803
  8
OBJECT
 10
10057.0
 20
-1009.999999999992
 30
0.0
 11
10075.0
 21
-881.99999999999204
 31
0.0
1001
ACDBBLOCKREPETAG
1070
     1
1071
       32
1005
127803
  0
LINE
  5
127804
  8
OBJECT
 10
9934.0
 20
-1058.9999999999959
 30
0.0
 11
9934.0
 21
-1094.9999999999959
 31
0.0
1001
ACDBBLOCKREPETAG
1070
     1
1071
       33
1005
127804
  0
LINE
  5
127805
  8
OBJECT
 10
10066.0
 20
-1058.9999999999959
 30
0.0
 11
10066.0
 21
-1094.9999999999959
 31
0.0
1001
ACDBBLOCKREPETAG
1070
     1
1071
       34
1005
127805
  0
LINE
  5
127806
  8
OBJECT
 10
10082.999999999991
 20
-1119.9999999999959
 30
0.0
 11
10082.999999999991
 21
-1109.9999999999959
 31
0.0
1001
ACDBBLOCKREPETAG
1070
     1
1071
       35
1005
127806
  0
LINE
  5
127807
  8
OBJECT
 10
10072.999999999991
 20
-1119.9999999999959
 30
0.0
 11
10072.999999999991
 21
-1109.9999999999959
 31
0.0
1001
ACDBBLOCKREPETAG
1070
     1
1071
       36
1005
127807
  0
LINE
  5
127808
  8
OBJECT
 10
10068.99999999998
 20
-1089.9999999999959
 30
0.0
 11
10068.99999999998
 21
-1094.9999999999959
 31
0.0
1001
ACDBBLOCKREPETAG
1070
     1
1071
       37
1005
127808
  0
LINE
  5
127809
  8
OBJECT
 10
10087.0
 20
-1089.9999999999959
 30
0.0
 11
10087.0
 21
-1094.9999999999959
 31
0.0
1001
ACDBBLOCKREPETAG
1070
     1
1071
       38
1005
127809
  0
LINE
  5
12780A
  8
OBJECT
 10
10087.0
 20
-1089.9999999999959
 30
0.0
 11
10068.99999999998
 21
-1089.9999999999959
 31
0.0
1001
ACDBBLOCKREPETAG
1070
     1
1071
       39
1005
12780A
  0
LINE
  5
12780B
  8
OBJECT
 10
10073.0
 20
-1141.9999999999959
 30
0.0
 11
10073.0
 21
-1144.9999999999959
 31
0.0
1001
ACDBBLOCKREPETAG
1070
     1
1071
       40
1005
12780B
  0
LINE
  5
12780C
  8
OBJECT
 10
10073.0
 20
-1144.9999999999959
 30
0.0
 11
10083.0
 21
-1144.9999999999959
 31
0.0
1001
ACDBBLOCKREPETAG
1070
     1
1071
       41
1005
12780C
  0
LINE
  5
12780D
  8
OBJECT
 10
10083.0
 20
-1144.9999999999959
 30
0.0
 11
10083.0
 21
-1141.9999999999959
 31
0.0
1001
ACDBBLOCKREPETAG
1070
     1
1071
       43
1005
12780D
  0
LINE
  5
12780E
  8
OBJECT
 10
9968.5
 20
-1089.9999999999959
 30
0.0
 11
9951.9999999999909
 21
-1089.9999999999959
 31
0.0
1001
ACDBBLOCKREPETAG
1070
     1
1071
       48
1005
12780E
  0
LINE
  5
12780F
  8
OBJECT
 10
9976.0
 20
-1094.9999999999959
 30
0.0
 11
9976.0
 21
-1092.9999999999959
 31
0.0
1001
ACDBBLOCKREPETAG
1070
     1
1071
       49
1005
12780F
  0
LINE
  5
127810
  8
OBJECT
 10
9966.0
 20
-1119.9999999999959
 30
0.0
 11
9966.0
 21
-1109.9999999999959
 31
0.0
1001
ACDBBLOCKREPETAG
1070
     1
1071
       50
1005
127810
  0
LINE
  5
127811
  8
OBJECT
 10
9956.0
 20
-1119.9999999999959
 30
0.0
 11
9956.0
 21
-1109.9999999999959
 31
0.0
1001
ACDBBLOCKREPETAG
1070
     1
1071
       51
1005
127811
  0
LINE
  5
127812
  8
OBJECT
 10
9951.9999999999909
 20
-1089.9999999999959
 30
0.0
 11
9951.9999999999909
 21
-1094.9999999999959
 31
0.0
1001
ACDBBLOCKREPETAG
1070
     1
1071
       52
1005
127812
  0
LINE
  5
127813
  8
OBJECT
 10
9956.0
 20
-1141.9999999999959
 30
0.0
 11
9956.0
 21
-1144.9999999999959
 31
0.0
1001
ACDBBLOCKREPETAG
1070
     1
1071
       53
1005
127813
  0
LINE
  5
127814
  8
OBJECT
 10
9956.0
 20
-1144.9999999999959
 30
0.0
 11
9966.0
 21
-1144.9999999999959
 31
0.0
1001
ACDBBLOCKREPETAG
1070
     1
1071
       54
1005
127814
  0
LINE
  5
127815
  8
OBJECT
 10
9951.185045423772
 20
-1141.9999999999959
 30
0.0
 11
9970.814954576219
 21
-1141.9999999999959
 31
0.0
1001
ACDBBLOCKREPETAG
1070
     1
1071
       55
1005
127815
  0
LINE
  5
127816
  8
OBJECT
 10
9966.0
 20
-1144.9999999999959
 30
0.0
 11
9966.0
 21
-1141.9999999999959
 31
0.0
1001
ACDBBLOCKREPETAG
1070
     1
1071
       56
1005
127816
  0
LINE
  5
127817
  8
OBJECT
 10
9976.0
 20
-1092.9999999999959
 30
0.0
 11
9968.5
 21
-1089.9999999999959
 31
0.0
1001
ACDBBLOCKREPETAG
1070
     1
1071
       57
1005
127817
  0
LINE
  5
127818
  8
OBJECT
 10
9951.1850454237774
 20
-1133.9999999999959
 30
0.0
 11
9951.1850454237774
 21
-1141.9999999999959
 31
0.0
1001
ACDBBLOCKREPETAG
1070
     1
1071
      630
1005
127818
  0
LINE
  5
127819
  8
OBJECT
 10
9956.0925227118896
 20
-1133.9999999999959
 30
0.0
 11
9956.0925227118896
 21
-1141.9999999999959
 31
0.0
1001
ACDBBLOCKREPETAG
1070
     1
1071
      631
1005
127819
  0
LINE
  5
12781A
  8
OBJECT
 10
9965.9074772881122
 20
-1133.9999999999959
 30
0.0
 11
9965.9074772881122
 21
-1141.9999999999959
 31
0.0
1001
ACDBBLOCKREPETAG
1070
     1
1071
      632
1005
12781A
  0
LINE
  5
12781B
  8
OBJECT
 10
9970.8149545762244
 20
-1133.9999999999959
 30
0.0
 11
9970.8149545762244
 21
-1141.9999999999959
 31
0.0
1001
ACDBBLOCKREPETAG
1070
     1
1071
      633
1005
12781B
  0
LINE
  5
12781C
  8
OBJECT
 10
10068.18504542377
 20
-1141.9999999999959
 30
0.0
 11
10087.814954576221
 21
-1141.9999999999959
 31
0.0
1001
ACDBBLOCKREPETAG
1070
     1
1071
      634
1005
12781C
  0
LINE
  5
12781D
  8
OBJECT
 10
10068.18504542377
 20
-1133.9999999999959
 30
0.0
 11
10068.18504542377
 21
-1141.9999999999959
 31
0.0
1001
ACDBBLOCKREPETAG
1070
     1
1071
      635
1005
12781D
  0
LINE
  5
12781E
  8
OBJECT
 10
10073.09252271189
 20
-1133.9999999999959
 30
0.0
 11
10073.09252271189
 21
-1141.9999999999959
 31
0.0
1001
ACDBBLOCKREPETAG
1070
     1
1071
      636
1005
12781E
  0
LINE
  5
12781F
  8
OBJECT
 10
10082.90747728811
 20
-1133.9999999999959
 30
0.0
 11
10082.90747728811
 21
-1141.9999999999959
 31
0.0
1001
ACDBBLOCKREPETAG
1070
     1
1071
      637
1005
12781F
  0
LINE
  5
127820
  8
OBJECT
 10
10087.814954576221
 20
-1133.9999999999959
 30
0.0
 11
10087.814954576221
 21
-1141.9999999999959
 31
0.0
1001
ACDBBLOCKREPETAG
1070
     1
1071
      638
1005
127820
  0
LINE
  5
127821
  8
OBJECT
 10
7943.0
 20
-1109.9999999999959
 30
0.0
 11
8057.0
 21
-1109.9999999999959
 31
0.0
1001
ACDBBLOCKREPETAG
1070
     1
1071
        0
1005
127821
  0
LINE
  5
127822
  8
OBJECT
 10
7943.0
 20
-1109.9999999999959
 30
0.0
 11
7943.0
 21
-1009.999999999996
 31
0.0
1001
ACDBBLOCKREPETAG
1070
     1
1071
        1
1005
127822
  0
LINE
  5
127823
  8
OBJECT
 10
8057.0
 20
-1109.9999999999959
 30
0.0
 11
8057.0
 21
-1009.999999999996
 31
0.0
1001
ACDBBLOCKREPETAG
1070
     1
1071
        2
1005
127823
  0
LINE
  5
127824
  8
OBJECT
 10
7943.0
 20
-1009.999999999996
 30
0.0
 11
8057.0
 21
-1009.999999999996
 31
0.0
1001
ACDBBLOCKREPETAG
1070
     1
1071
        3
1005
127824
  0
LINE
  5
127825
  8
HIDDEN
 10
7950.0
 20
-1009.999999999996
 30
0.0
 11
7950.0
 21
-1109.9999999999959
 31
0.0
1001
ACDBBLOCKREPETAG
1070
     1
1071
        4
1005
127825
  0
LINE
  5
127826
  8
HIDDEN
 10
8050.0
 20
-1009.999999999996
 30
0.0
 11
8050.0
 21
-1109.9999999999959
 31
0.0
1001
ACDBBLOCKREPETAG
1070
     1
1071
        5
1005
127826
  0
LINE
  5
127827
  8
CENTER
 10
8000.0
 20
-799.99999999999955
 30
0.0
 11
8000.0
 21
-1124.9999999999959
 31
0.0
1001
ACDBBLOCKREPETAG
1070
     1
1071
        6
1005
127827
  0
LINE
  5
127828
  8
OBJECT
 10
7925.0
 20
-799.99999999999955
 30
0.0
 11
7925.0
 21
-881.99999999999591
 31
0.0
1001
ACDBBLOCKREPETAG
1070
     1
1071
        7
1005
127828
  0
LINE
  5
127829
  8
OBJECT
 10
8075.0
 20
-799.99999999999955
 30
0.0
 11
8075.0
 21
-881.99999999999591
 31
0.0
1001
ACDBBLOCKREPETAG
1070
     1
1071
        8
1005
127829
  0
LINE
  5
12782A
  8
OBJECT
 10
7925.0
 20
-881.99999999999591
 30
0.0
 11
8075.0
 21
-881.99999999999591
 31
0.0
1001
ACDBBLOCKREPETAG
1070
     1
1071
        9
1005
12782A
  0
LINE
  5
12782B
  8
OBJECT
 10
7925.0
 20
-881.99999999999591
 30
0.0
 11
7943.0
 21
-1009.999999999996
 31
0.0
1001
ACDBBLOCKREPETAG
1070
     1
1071
       10
1005
12782B
  0
LINE
  5
12782C
  8
OBJECT
 10
8057.0
 20
-1009.999999999996
 30
0.0
 11
8075.0
 21
-881.99999999999591
 31
0.0
1001
ACDBBLOCKREPETAG
1070
     1
1071
       11
1005
12782C
  0
LINE
  5
12782D
  8
OBJECT
 10
6085.9999999999927
 20
-1133.9999999999991
 30
0.0
 11
6085.9999999999927
 21
-1143.9999999999991
 31
0.0
1001
ACDBBLOCKREPETAG
1070
     1
1071
      121
1005
12782D
  0
LINE
  5
12782E
  8
OBJECT
 10
6069.9999999999927
 20
-1133.9999999999991
 30
0.0
 11
6069.9999999999927
 21
-1143.9999999999991
 31
0.0
1001
ACDBBLOCKREPETAG
1070
     1
1071
      122
1005
12782E
  0
LINE
  5
12782F
  8
OBJECT
 10
6085.9999999999927
 20
-1143.9999999999991
 30
0.0
 11
6069.9999999999927
 21
-1143.9999999999991
 31
0.0
1001
ACDBBLOCKREPETAG
1070
     1
1071
      123
1005
12782F
  0
LINE
  5
127830
  8
OBJECT
 10
6090.0
 20
-1094.9999999999959
 30
0.0
 11
5924.0
 21
-1094.9999999999959
 31
0.0
1001
ACDBBLOCKREPETAG
1070
     1
1071
      124
1005
127830
  0
LINE
  5
127831
  8
OBJECT
 10
6090.0
 20
-1109.9999999999991
 30
0.0
 11
6090.0
 21
-1094.9999999999959
 31
0.0
1001
ACDBBLOCKREPETAG
1070
     1
1071
      125
1005
127831
  0
LINE
  5
127832
  8
OBJECT
 10
5924.0
 20
-1109.9999999999991
 30
0.0
 11
6090.0
 21
-1109.9999999999991
 31
0.0
1001
ACDBBLOCKREPETAG
1070
     1
1071
      126
1005
127832
  0
LINE
  5
127833
  8
OBJECT
 10
6067.4999999999864
 20
-1109.9999999999991
 30
0.0
 11
6067.4999999999864
 21
-1119.9999999999991
 31
0.0
1001
ACDBBLOCKREPETAG
1070
     1
1071
      127
1005
127833
  0
LINE
  5
127834
  8
OBJECT
 10
6072.9999999999927
 20
-1119.9999999999991
 30
0.0
 11
6072.9999999999927
 21
-1109.9999999999991
 31
0.0
1001
ACDBBLOCKREPETAG
1070
     1
1071
      128
1005
127834
  0
LINE
  5
127835
  8
OBJECT
 10
6082.9999999999927
 20
-1119.9999999999991
 30
0.0
 11
6082.9999999999927
 21
-1109.9999999999991
 31
0.0
1001
ACDBBLOCKREPETAG
1070
     1
1071
      129
1005
127835
  0
LINE
  5
127836
  8
OBJECT
 10
5924.0
 20
-1119.9999999999991
 30
0.0
 11
5924.0
 21
-1133.9999999999959
 31
0.0
1001
ACDBBLOCKREPETAG
1070
     1
1071
      130
1005
127836
  0
LINE
  5
127837
  8
OBJECT
 10
6090.0
 20
-1119.9999999999991
 30
0.0
 11
6090.0
 21
-1133.9999999999959
 31
0.0
1001
ACDBBLOCKREPETAG
1070
     1
1071
      131
1005
127837
  0
LINE
  5
127838
  8
OBJECT
 10
5924.0
 20
-1133.9999999999959
 30
0.0
 11
6090.0
 21
-1133.9999999999959
 31
0.0
1001
ACDBBLOCKREPETAG
1070
     1
1071
      132
1005
127838
  0
LINE
  5
127839
  8
OBJECT
 10
5924.0
 20
-1119.9999999999991
 30
0.0
 11
6090.0
 21
-1119.9999999999991
 31
0.0
1001
ACDBBLOCKREPETAG
1070
     1
1071
      133
1005
127839
  0
LINE
  5
12783A
  8
OBJECT
 10
5932.4999999999864
 20
-1109.9999999999991
 30
0.0
 11
5932.4999999999864
 21
-1119.9999999999991
 31
0.0
1001
ACDBBLOCKREPETAG
1070
     1
1071
      134
1005
12783A
  0
LINE
  5
12783B
  8
OBJECT
 10
5934.0
 20
-1058.9999999999959
 30
0.0
 11
6065.9999999999909
 21
-1058.9999999999959
 31
0.0
1001
ACDBBLOCKREPETAG
1070
     1
1071
      135
1005
12783B
  0
LINE
  5
12783C
  8
OBJECT
 10
5924.0
 20
-1109.9999999999991
 30
0.0
 11
5924.0
 21
-1094.9999999999959
 31
0.0
1001
ACDBBLOCKREPETAG
1070
     1
1071
      136
1005
12783C
  0
LINE
  5
12783D
  8
HIDDEN
 10
5943.0
 20
-1069.9999999999991
 30
0.0
 11
6057.0
 21
-1069.9999999999991
 31
0.0
1001
ACDBBLOCKREPETAG
1070
     1
1071
      137
1005
12783D
  0
LINE
  5
12783E
  8
OBJECT
 10
6086.9999999999918
 20
-1093.2
 30
0.0
 11
6086.9999999999918
 21
-1094.9999999999991
 31
0.0
1001
ACDBBLOCKREPETAG
1070
     1
1071
      138
1005
12783E
  0
LINE
  5
12783F
  8
OBJECT
 10
6068.9999999999909
 20
-1093.2
 30
0.0
 11
6068.9999999999909
 21
-1094.9999999999991
 31
0.0
1001
ACDBBLOCKREPETAG
1070
     1
1071
      139
1005
12783F
  0
LINE
  5
127840
  8
OBJECT
 10
6072.2499999999927
 20
-1083.4999999999991
 30
0.0
 11
6083.7499999999927
 21
-1083.4999999999991
 31
0.0
1001
ACDBBLOCKREPETAG
1070
     1
1071
      140
1005
127840
  0
LINE
  5
127841
  8
OBJECT
 10
6072.2499999999927
 20
-1083.4999999999991
 30
0.0
 11
6072.2499999999927
 21
-1093.2
 31
0.0
1001
ACDBBLOCKREPETAG
1070
     1
1071
      141
1005
127841
  0
LINE
  5
127842
  8
OBJECT
 10
6083.7499999999927
 20
-1083.4999999999991
 30
0.0
 11
6083.7499999999927
 21
-1093.2
 31
0.0
1001
ACDBBLOCKREPETAG
1070
     1
1071
      142
1005
127842
  0
LINE
  5
127843
  8
OBJECT
 10
5931.9999999999873
 20
-1174.9999999999991
 30
0.0
 11
6067.9999999999873
 21
-1174.9999999999991
 31
0.0
1001
ACDBBLOCKREPETAG
1070
     1
1071
      143
1005
127843
  0
LINE
  5
127844
  8
OBJECT
 10
5931.9999999999873
 20
-1174.9999999999991
 30
0.0
 11
5931.9999999999873
 21
-1133.9999999999991
 31
0.0
1001
ACDBBLOCKREPETAG
1070
     1
1071
      144
1005
127844
  0
LINE
  5
127845
  8
OBJECT
 10
6067.9999999999873
 20
-1174.9999999999991
 30
0.0
 11
6067.9999999999873
 21
-1133.9999999999991
 31
0.0
1001
ACDBBLOCKREPETAG
1070
     1
1071
      145
1005
127845
  0
LINE
  5
127846
  8
OBJECT
 10
6086.9999999999918
 20
-1093.2
 30
0.0
 11
6068.9999999999909
 21
-1093.2
 31
0.0
1001
ACDBBLOCKREPETAG
1070
     1
1071
      146
1005
127846
  0
LINE
  5
127847
  8
CENTER
 10
6000.0
 20
-799.99999999999955
 30
0.0
 11
6000.0
 21
-1189.9999999999991
 31
0.0
1001
ACDBBLOCKREPETAG
1070
     1
1071
      147
1005
127847
  0
LINE
  5
127848
  8
OBJECT
 10
5925.0
 20
-799.99999999999955
 30
0.0
 11
5925.0
 21
-881.99999999999591
 31
0.0
1001
ACDBBLOCKREPETAG
1070
     1
1071
      148
1005
127848
  0
LINE
  5
127849
  8
OBJECT
 10
6075.0
 20
-799.99999999999955
 30
0.0
 11
6075.0
 21
-881.99999999999204
 31
0.0
1001
ACDBBLOCKREPETAG
1070
     1
1071
      149
1005
127849
  0
LINE
  5
12784A
  8
OBJECT
 10
5925.0
 20
-881.99999999999591
 30
0.0
 11
6075.0
 21
-881.99999999999204
 31
0.0
1001
ACDBBLOCKREPETAG
1070
     1
1071
      150
1005
12784A
  0
LINE
  5
12784B
  8
OBJECT
 10
5943.0
 20
-1058.9999999999959
 30
0.0
 11
5943.0
 21
-1009.999999999992
 31
0.0
1001
ACDBBLOCKREPETAG
1070
     1
1071
      151
1005
12784B
  0
LINE
  5
12784C
  8
OBJECT
 10
6057.0
 20
-1009.999999999992
 30
0.0
 11
5943.0
 21
-1009.999999999992
 31
0.0
1001
ACDBBLOCKREPETAG
1070
     1
1071
      152
1005
12784C
  0
LINE
  5
12784D
  8
OBJECT
 10
6057.0
 20
-1009.999999999992
 30
0.0
 11
6057.0
 21
-1058.9999999999959
 31
0.0
1001
ACDBBLOCKREPETAG
1070
     1
1071
      153
1005
12784D
  0
LINE
  5
12784E
  8
OBJECT
 10
5925.0
 20
-881.99999999999591
 30
0.0
 11
5943.0
 21
-1009.999999999992
 31
0.0
1001
ACDBBLOCKREPETAG
1070
     1
1071
      154
1005
12784E
  0
LINE
  5
12784F
  8
OBJECT
 10
6057.0
 20
-1009.999999999992
 30
0.0
 11
6075.0
 21
-881.99999999999204
 31
0.0
1001
ACDBBLOCKREPETAG
1070
     1
1071
      155
1005
12784F
  0
LINE
  5
127850
  8
OBJECT
 10
5934.0
 20
-1094.9999999999959
 30
0.0
 11
5934.0
 21
-1058.9999999999959
 31
0.0
1001
ACDBBLOCKREPETAG
1070
     1
1071
      156
1005
127850
  0
LINE
  5
127851
  8
OBJECT
 10
6066.0
 20
-1094.9999999999959
 30
0.0
 11
6065.9999999999909
 21
-1058.9999999999959
 31
0.0
1001
ACDBBLOCKREPETAG
1070
     1
1071
      157
1005
127851
  0
LINE
  5
127852
  8
OBJECT
 10
5954.75
 20
-1084.699999999993
 30
0.0
 11
5967.2499999999991
 21
-1084.699999999993
 31
0.0
1001
ACDBBLOCKREPETAG
1070
     1
1071
      158
1005
127852
  0
LINE
  5
127853
  8
OBJECT
 10
5946.0
 20
-1094.9999999999959
 30
0.0
 11
5946.0
 21
-1092.699999999996
 31
0.0
1001
ACDBBLOCKREPETAG
1070
     1
1071
      159
1005
127853
  0
LINE
  5
127854
  8
OBJECT
 10
5976.0
 20
-1094.9999999999959
 30
0.0
 11
5976.0
 21
-1092.699999999996
 31
0.0
1001
ACDBBLOCKREPETAG
1070
     1
1071
      160
1005
127854
  0
LINE
  5
127855
  8
OBJECT
 10
5954.75
 20
-1084.699999999993
 30
0.0
 11
5954.75
 21
-1092.699999999996
 31
0.0
1001
ACDBBLOCKREPETAG
1070
     1
1071
      161
1005
127855
  0
LINE
  5
127856
  8
OBJECT
 10
5967.2499999999991
 20
-1084.699999999993
 30
0.0
 11
5967.2499999999991
 21
-1092.699999999996
 31
0.0
1001
ACDBBLOCKREPETAG
1070
     1
1071
      162
1005
127856
  0
LINE
  5
127857
  8
OBJECT
 10
5946.0
 20
-1092.699999999996
 30
0.0
 11
5976.0
 21
-1092.699999999996
 31
0.0
1001
ACDBBLOCKREPETAG
1070
     1
1071
      163
1005
127857
  0
LINE
  5
127858
  8
OBJECT
 10
5953.0
 20
-1133.9999999999959
 30
0.0
 11
5953.0
 21
-1143.9999999999959
 31
0.0
1001
ACDBBLOCKREPETAG
1070
     1
1071
      164
1005
127858
  0
LINE
  5
127859
  8
OBJECT
 10
5969.0
 20
-1133.9999999999959
 30
0.0
 11
5969.0
 21
-1143.9999999999959
 31
0.0
1001
ACDBBLOCKREPETAG
1070
     1
1071
      165
1005
127859
  0
LINE
  5
12785A
  8
OBJECT
 10
5953.0
 20
-1143.9999999999959
 30
0.0
 11
5969.0
 21
-1143.9999999999959
 31
0.0
1001
ACDBBLOCKREPETAG
1070
     1
1071
      166
1005
12785A
  0
LINE
  5
12785B
  8
OBJECT
 10
5966.0
 20
-1119.9999999999959
 30
0.0
 11
5966.0
 21
-1109.9999999999959
 31
0.0
1001
ACDBBLOCKREPETAG
1070
     1
1071
      167
1005
12785B
  0
LINE
  5
12785C
  8
OBJECT
 10
5956.0
 20
-1119.9999999999959
 30
0.0
 11
5956.0
 21
-1109.9999999999959
 31
0.0
1001
ACDBBLOCKREPETAG
1070
     1
1071
      168
1005
12785C
  0
LINE
  5
12785D
  8
OBJECT
 10
4090.0
 20
-1094.9999999999959
 30
0.0
 11
3924.0
 21
-1094.9999999999959
 31
0.0
1001
ACDBBLOCKREPETAG
1070
     1
1071
       12
1005
12785D
  0
LINE
  5
12785E
  8
OBJECT
 10
4066.0
 20
-1058.9999999999959
 30
0.0
 11
3934.0
 21
-1058.9999999999959
 31
0.0
1001
ACDBBLOCKREPETAG
1070
     1
1071
       13
1005
12785E
  0
LINE
  5
12785F
  8
OBJECT
 10
4090.0
 20
-1109.9999999999991
 30
0.0
 11
4090.0
 21
-1094.9999999999959
 31
0.0
1001
ACDBBLOCKREPETAG
1070
     1
1071
       14
1005
12785F
  0
LINE
  5
127860
  8
OBJECT
 10
3924.0
 20
-1109.9999999999991
 30
0.0
 11
4090.0
 21
-1109.9999999999991
 31
0.0
1001
ACDBBLOCKREPETAG
1070
     1
1071
       15
1005
127860
  0
LINE
  5
127861
  8
OBJECT
 10
4067.4999999999841
 20
-1109.9999999999991
 30
0.0
 11
4067.4999999999841
 21
-1119.9999999999991
 31
0.0
1001
ACDBBLOCKREPETAG
1070
     1
1071
       16
1005
127861
  0
LINE
  5
127862
  8
OBJECT
 10
3924.0
 20
-1119.9999999999991
 30
0.0
 11
3924.0
 21
-1133.9999999999959
 31
0.0
1001
ACDBBLOCKREPETAG
1070
     1
1071
       17
1005
127862
  0
LINE
  5
127863
  8
OBJECT
 10
4090.0
 20
-1119.9999999999991
 30
0.0
 11
4090.0
 21
-1133.9999999999959
 31
0.0
1001
ACDBBLOCKREPETAG
1070
     1
1071
       18
1005
127863
  0
LINE
  5
127864
  8
OBJECT
 10
3924.0
 20
-1133.9999999999959
 30
0.0
 11
4090.0
 21
-1133.9999999999959
 31
0.0
1001
ACDBBLOCKREPETAG
1070
     1
1071
       19
1005
127864
  0
LINE
  5
127865
  8
OBJECT
 10
3924.0
 20
-1119.9999999999991
 30
0.0
 11
4090.0
 21
-1119.9999999999991
 31
0.0
1001
ACDBBLOCKREPETAG
1070
     1
1071
       20
1005
127865
  0
LINE
  5
127866
  8
OBJECT
 10
3932.499999999985
 20
-1109.9999999999991
 30
0.0
 11
3932.499999999985
 21
-1119.9999999999991
 31
0.0
1001
ACDBBLOCKREPETAG
1070
     1
1071
       21
1005
127866
  0
LINE
  5
127867
  8
OBJECT
 10
3924.0
 20
-1109.9999999999991
 30
0.0
 11
3924.0
 21
-1094.9999999999959
 31
0.0
1001
ACDBBLOCKREPETAG
1070
     1
1071
       22
1005
127867
  0
LINE
  5
127868
  8
HIDDEN
 10
3943.0
 20
-1069.9999999999991
 30
0.0
 11
4057.0
 21
-1069.9999999999991
 31
0.0
1001
ACDBBLOCKREPETAG
1070
     1
1071
       23
1005
127868
  0
LINE
  5
127869
  8
CENTER
 10
4000.0
 20
-799.99999999999955
 30
0.0
 11
4000.0
 21
-1148.9999999999959
 31
0.0
1001
ACDBBLOCKREPETAG
1070
     1
1071
       24
1005
127869
  0
LINE
  5
12786A
  8
OBJECT
 10
3925.0
 20
-799.99999999999955
 30
0.0
 11
3925.0
 21
-881.99999999999591
 31
0.0
1001
ACDBBLOCKREPETAG
1070
     1
1071
       25
1005
12786A
  0
LINE
  5
12786B
  8
OBJECT
 10
4075.0
 20
-799.99999999999955
 30
0.0
 11
4075.0
 21
-881.99999999999204
 31
0.0
1001
ACDBBLOCKREPETAG
1070
     1
1071
       26
1005
12786B
  0
LINE
  5
12786C
  8
OBJECT
 10
3925.0
 20
-881.99999999999591
 30
0.0
 11
4075.0
 21
-881.99999999999204
 31
0.0
1001
ACDBBLOCKREPETAG
1070
     1
1071
       27
1005
12786C
  0
LINE
  5
12786D
  8
OBJECT
 10
4057.0
 20
-1058.9999999999959
 30
0.0
 11
4057.0
 21
-1009.999999999992
 31
0.0
1001
ACDBBLOCKREPETAG
1070
     1
1071
       28
1005
12786D
  0
LINE
  5
12786E
  8
OBJECT
 10
3943.0
 20
-1058.9999999999959
 30
0.0
 11
3943.0
 21
-1009.999999999992
 31
0.0
1001
ACDBBLOCKREPETAG
1070
     1
1071
       29
1005
12786E
  0
LINE
  5
12786F
  8
OBJECT
 10
4057.0
 20
-1009.999999999992
 30
0.0
 11
3943.0
 21
-1009.999999999992
 31
0.0
1001
ACDBBLOCKREPETAG
1070
     1
1071
       30
1005
12786F
  0
LINE
  5
127870
  8
OBJECT
 10
3925.0
 20
-881.99999999999591
 30
0.0
 11
3943.0
 21
-1009.999999999992
 31
0.0
1001
ACDBBLOCKREPETAG
1070
     1
1071
       31
1005
127870
  0
LINE
  5
127871
  8
OBJECT
 10
4057.0
 20
-1009.999999999992
 30
0.0
 11
4075.0
 21
-881.99999999999204
 31
0.0
1001
ACDBBLOCKREPETAG
1070
     1
1071
       32
1005
127871
  0
LINE
  5
127872
  8
OBJECT
 10
3934.0
 20
-1058.9999999999959
 30
0.0
 11
3934.0
 21
-1094.9999999999959
 31
0.0
1001
ACDBBLOCKREPETAG
1070
     1
1071
       33
1005
127872
  0
LINE
  5
127873
  8
OBJECT
 10
4066.0
 20
-1058.9999999999959
 30
0.0
 11
4066.0
 21
-1094.9999999999959
 31
0.0
1001
ACDBBLOCKREPETAG
1070
     1
1071
       34
1005
127873
  0
LINE
  5
127874
  8
OBJECT
 10
4082.9999999999932
 20
-1119.9999999999959
 30
0.0
 11
4082.9999999999932
 21
-1109.9999999999959
 31
0.0
1001
ACDBBLOCKREPETAG
1070
     1
1071
       35
1005
127874
  0
LINE
  5
127875
  8
OBJECT
 10
4072.9999999999918
 20
-1119.9999999999959
 30
0.0
 11
4072.9999999999918
 21
-1109.9999999999959
 31
0.0
1001
ACDBBLOCKREPETAG
1070
     1
1071
       36
1005
127875
  0
LINE
  5
127876
  8
OBJECT
 10
4068.9999999999841
 20
-1089.9999999999959
 30
0.0
 11
4068.9999999999841
 21
-1094.9999999999959
 31
0.0
1001
ACDBBLOCKREPETAG
1070
     1
1071
       37
1005
127876
  0
LINE
  5
127877
  8
OBJECT
 10
4087.0
 20
-1089.9999999999959
 30
0.0
 11
4087.0
 21
-1094.9999999999959
 31
0.0
1001
ACDBBLOCKREPETAG
1070
     1
1071
       38
1005
127877
  0
LINE
  5
127878
  8
OBJECT
 10
4087.0
 20
-1089.9999999999959
 30
0.0
 11
4068.9999999999841
 21
-1089.9999999999959
 31
0.0
1001
ACDBBLOCKREPETAG
1070
     1
1071
       39
1005
127878
  0
LINE
  5
127879
  8
OBJECT
 10
4073.0
 20
-1141.9999999999959
 30
0.0
 11
4073.0
 21
-1144.9999999999959
 31
0.0
1001
ACDBBLOCKREPETAG
1070
     1
1071
       40
1005
127879
  0
LINE
  5
12787A
  8
OBJECT
 10
4073.0
 20
-1144.9999999999959
 30
0.0
 11
4083.0
 21
-1144.9999999999959
 31
0.0
1001
ACDBBLOCKREPETAG
1070
     1
1071
       41
1005
12787A
  0
LINE
  5
12787B
  8
OBJECT
 10
4083.0
 20
-1144.9999999999959
 30
0.0
 11
4083.0
 21
-1141.9999999999959
 31
0.0
1001
ACDBBLOCKREPETAG
1070
     1
1071
       43
1005
12787B
  0
LINE
  5
12787C
  8
OBJECT
 10
3968.5
 20
-1089.9999999999959
 30
0.0
 11
3951.9999999999932
 21
-1089.9999999999959
 31
0.0
1001
ACDBBLOCKREPETAG
1070
     1
1071
       48
1005
12787C
  0
LINE
  5
12787D
  8
OBJECT
 10
3976.0
 20
-1094.9999999999959
 30
0.0
 11
3976.0
 21
-1092.9999999999959
 31
0.0
1001
ACDBBLOCKREPETAG
1070
     1
1071
       49
1005
12787D
  0
LINE
  5
12787E
  8
OBJECT
 10
3966.0
 20
-1119.9999999999959
 30
0.0
 11
3966.0
 21
-1109.9999999999959
 31
0.0
1001
ACDBBLOCKREPETAG
1070
     1
1071
       50
1005
12787E
  0
LINE
  5
12787F
  8
OBJECT
 10
3956.0
 20
-1119.9999999999959
 30
0.0
 11
3956.0
 21
-1109.9999999999959
 31
0.0
1001
ACDBBLOCKREPETAG
1070
     1
1071
       51
1005
12787F
  0
LINE
  5
127880
  8
OBJECT
 10
3951.9999999999932
 20
-1089.9999999999959
 30
0.0
 11
3951.9999999999932
 21
-1094.9999999999959
 31
0.0
1001
ACDBBLOCKREPETAG
1070
     1
1071
       52
1005
127880
  0
LINE
  5
127881
  8
OBJECT
 10
3956.0
 20
-1141.9999999999959
 30
0.0
 11
3956.0
 21
-1144.9999999999959
 31
0.0
1001
ACDBBLOCKREPETAG
1070
     1
1071
       53
1005
127881
  0
LINE
  5
127882
  8
OBJECT
 10
3956.0
 20
-1144.9999999999959
 30
0.0
 11
3966.0
 21
-1144.9999999999959
 31
0.0
1001
ACDBBLOCKREPETAG
1070
     1
1071
       54
1005
127882
  0
LINE
  5
127883
  8
OBJECT
 10
3951.185045423772
 20
-1141.9999999999959
 30
0.0
 11
3970.8149545762212
 21
-1141.9999999999959
 31
0.0
1001
ACDBBLOCKREPETAG
1070
     1
1071
       55
1005
127883
  0
LINE
  5
127884
  8
OBJECT
 10
3966.0
 20
-1144.9999999999959
 30
0.0
 11
3966.0
 21
-1141.9999999999959
 31
0.0
1001
ACDBBLOCKREPETAG
1070
     1
1071
       56
1005
127884
  0
LINE
  5
127885
  8
OBJECT
 10
3976.0
 20
-1092.9999999999959
 30
0.0
 11
3968.5
 21
-1089.9999999999959
 31
0.0
1001
ACDBBLOCKREPETAG
1070
     1
1071
       57
1005
127885
  0
LINE
  5
127886
  8
OBJECT
 10
3951.185045423777
 20
-1133.9999999999959
 30
0.0
 11
3951.185045423777
 21
-1141.9999999999959
 31
0.0
1001
ACDBBLOCKREPETAG
1070
     1
1071
      630
1005
127886
  0
LINE
  5
127887
  8
OBJECT
 10
3956.0925227118901
 20
-1133.9999999999959
 30
0.0
 11
3956.0925227118901
 21
-1141.9999999999959
 31
0.0
1001
ACDBBLOCKREPETAG
1070
     1
1071
      631
1005
127887
  0
LINE
  5
127888
  8
OBJECT
 10
3965.9074772881122
 20
-1133.9999999999959
 30
0.0
 11
3965.9074772881122
 21
-1141.9999999999959
 31
0.0
1001
ACDBBLOCKREPETAG
1070
     1
1071
      632
1005
127888
  0
LINE
  5
127889
  8
OBJECT
 10
3970.814954576223
 20
-1133.9999999999959
 30
0.0
 11
3970.814954576223
 21
-1141.9999999999959
 31
0.0
1001
ACDBBLOCKREPETAG
1070
     1
1071
      633
1005
127889
  0
LINE
  5
12788A
  8
OBJECT
 10
4068.185045423772
 20
-1141.9999999999959
 30
0.0
 11
4087.8149545762199
 21
-1141.9999999999959
 31
0.0
1001
ACDBBLOCKREPETAG
1070
     1
1071
      634
1005
12788A
  0
LINE
  5
12788B
  8
OBJECT
 10
4068.185045423777
 20
-1133.9999999999959
 30
0.0
 11
4068.185045423777
 21
-1141.9999999999959
 31
0.0
1001
ACDBBLOCKREPETAG
1070
     1
1071
      635
1005
12788B
  0
LINE
  5
12788C
  8
OBJECT
 10
4073.0925227118869
 20
-1133.9999999999959
 30
0.0
 11
4073.0925227118869
 21
-1141.9999999999959
 31
0.0
1001
ACDBBLOCKREPETAG
1070
     1
1071
      636
1005
12788C
  0
LINE
  5
12788D
  8
OBJECT
 10
4082.9074772881122
 20
-1133.9999999999959
 30
0.0
 11
4082.9074772881122
 21
-1141.9999999999959
 31
0.0
1001
ACDBBLOCKREPETAG
1070
     1
1071
      637
1005
12788D
  0
LINE
  5
12788E
  8
OBJECT
 10
4087.814954576223
 20
-1133.9999999999959
 30
0.0
 11
4087.814954576223
 21
-1141.9999999999959
 31
0.0
1001
ACDBBLOCKREPETAG
1070
     1
1071
      638
1005
12788E
  0
LINE
  5
12788F
  8
OBJECT
 10
1943.0
 20
-1109.9999999999959
 30
0.0
 11
2057.0
 21
-1109.9999999999959
 31
0.0
1001
ACDBBLOCKREPETAG
1070
     1
1071
        0
1005
12788F
  0
LINE
  5
127890
  8
OBJECT
 10
1943.0
 20
-1109.9999999999959
 30
0.0
 11
1943.0
 21
-1009.999999999996
 31
0.0
1001
ACDBBLOCKREPETAG
1070
     1
1071
        1
1005
127890
  0
LINE
  5
127891
  8
OBJECT
 10
2057.0
 20
-1109.9999999999959
 30
0.0
 11
2057.0
 21
-1009.999999999996
 31
0.0
1001
ACDBBLOCKREPETAG
1070
     1
1071
        2
1005
127891
  0
LINE
  5
127892
  8
OBJECT
 10
1943.0
 20
-1009.999999999996
 30
0.0
 11
2057.0
 21
-1009.999999999996
 31
0.0
1001
ACDBBLOCKREPETAG
1070
     1
1071
        3
1005
127892
  0
LINE
  5
127893
  8
HIDDEN
 10
1950.0
 20
-1009.999999999996
 30
0.0
 11
1950.0
 21
-1109.9999999999959
 31
0.0
1001
ACDBBLOCKREPETAG
1070
     1
1071
        4
1005
127893
  0
LINE
  5
127894
  8
HIDDEN
 10
2050.0
 20
-1009.999999999996
 30
0.0
 11
2050.0
 21
-1109.9999999999959
 31
0.0
1001
ACDBBLOCKREPETAG
1070
     1
1071
        5
1005
127894
  0
LINE
  5
127895
  8
CENTER
 10
2000.0
 20
-799.99999999999955
 30
0.0
 11
2000.0
 21
-1124.9999999999959
 31
0.0
1001
ACDBBLOCKREPETAG
1070
     1
1071
        6
1005
127895
  0
LINE
  5
127896
  8
OBJECT
 10
1925.0
 20
-799.99999999999955
 30
0.0
 11
1925.0
 21
-881.99999999999591
 31
0.0
1001
ACDBBLOCKREPETAG
1070
     1
1071
        7
1005
127896
  0
LINE
  5
127897
  8
OBJECT
 10
2075.0
 20
-799.99999999999955
 30
0.0
 11
2075.0
 21
-881.99999999999591
 31
0.0
1001
ACDBBLOCKREPETAG
1070
     1
1071
        8
1005
127897
  0
LINE
  5
127898
  8
OBJECT
 10
1925.0
 20
-881.99999999999591
 30
0.0
 11
2075.0
 21
-881.99999999999591
 31
0.0
1001
ACDBBLOCKREPETAG
1070
     1
1071
        9
1005
127898
  0
LINE
  5
127899
  8
OBJECT
 10
1925.0
 20
-881.99999999999591
 30
0.0
 11
1943.0
 21
-1009.999999999996
 31
0.0
1001
ACDBBLOCKREPETAG
1070
     1
1071
       10
1005
127899
  0
LINE
  5
12789A
  8
OBJECT
 10
2057.0
 20
-1009.999999999996
 30
0.0
 11
2075.0
 21
-881.99999999999591
 31
0.0
1001
ACDBBLOCKREPETAG
1070
     1
1071
       11
1005
12789A
  0
LINE
  5
12789B
  8
OBJECT
 10
2212.999999999985
 20
-453.0000000000008
 30
0.0
 11
2219.999999999985
 21
-453.0000000000008
 31
0.0
1001
ACDBBLOCKREPETAG
1070
     1
1071
      106
1005
12789B
  0
LINE
  5
12789C
  8
OBJECT
 10
2219.999999999985
 20
-453.0000000000008
 30
0.0
 11
2219.999999999985
 21
-577.0000000000008
 31
0.0
1001
ACDBBLOCKREPETAG
1070
     1
1071
      107
1005
12789C
  0
LINE
  5
12789D
  8
OBJECT
 10
2085.9999999999859
 20
-553.3502637757274
 30
0.0
 11
2085.9999999999859
 21
-655.00000000000068
 31
0.0
1001
ACDBBLOCKREPETAG
1070
     1
1071
      108
1005
12789D
  0
LINE
  5
12789E
  8
OBJECT
 10
2219.999999999985
 20
-577.0000000000008
 30
0.0
 11
2212.999999999985
 21
-577.0000000000008
 31
0.0
1001
ACDBBLOCKREPETAG
1070
     1
1071
      109
1005
12789E
  0
LINE
  5
12789F
  8
OBJECT
 10
2212.999999999985
 20
-577.0000000000008
 30
0.0
 11
2212.999999999985
 21
-453.0000000000008
 31
0.0
1001
ACDBBLOCKREPETAG
1070
     1
1071
      110
1005
12789F
  0
LINE
  5
1278A0
  8
CENTER
 10
2144.999999999985
 20
-515.0000000000008
 30
0.0
 11
2234.9999999999859
 21
-515.0000000000008
 31
0.0
1001
ACDBBLOCKREPETAG
1070
     1
1071
      111
1005
1278A0
  0
LINE
  5
1278A1
  8
OBJECT
 10
2079.9999999999809
 20
-658.0
 30
0.0
 11
2082.999999999985
 21
-658.0000000000008
 31
0.0
1001
ACDBBLOCKREPETAG
1070
     1
1071
      112
1005
1278A1
  0
ARC
  5
1278A2
  8
OBJECT
 10
2082.999999999985
 20
-655.00000000000068
 30
0.0
 40
3.0
 50
270.0
 51
0.0
1001
ACDBBLOCKREPETAG
1070
     1
1071
      113
1005
1278A2
  0
LINE
  5
1278A3
  8
OBJECT
 10
2212.999999999985
 20
-456.0000000000008
 30
0.0
 11
2176.999999999985
 21
-456.0000000000008
 31
0.0
1001
ACDBBLOCKREPETAG
1070
     1
1071
      114
1005
1278A3
  0
LINE
  5
1278A4
  8
OBJECT
 10
2176.999999999985
 20
-456.0000000000008
 30
0.0
 11
2176.999999999985
 21
-553.15756805667843
 31
0.0
1001
ACDBBLOCKREPETAG
1070
     1
1071
      115
1005
1278A4
  0
LINE
  5
1278A5
  8
OBJECT
 10
2172.999999999985
 20
-460.5000000000008
 30
0.0
 11
2172.9999999999818
 21
-545.74491827928705
 31
0.0
1001
ACDBBLOCKREPETAG
1070
     1
1071
      116
1005
1278A5
  0
LINE
  5
1278A6
  8
OBJECT
 10
2172.999999999985
 20
-460.5000000000008
 30
0.0
 11
2159.999999999985
 21
-460.5000000000008
 31
0.0
1001
ACDBBLOCKREPETAG
1070
     1
1071
      117
1005
1278A6
  0
LINE
  5
1278A7
  8
OBJECT
 10
2168.6563168254688
 20
-574.0000000000008
 30
0.0
 11
2212.999999999985
 21
-574.0000000000008
 31
0.0
1001
ACDBBLOCKREPETAG
1070
     1
1071
      118
1005
1278A7
  0
LINE
  5
1278A8
  8
OBJECT
 10
2176.999999999985
 20
-456.0000000000008
 30
0.0
 11
2172.999999999985
 21
-460.5000000000008
 31
0.0
1001
ACDBBLOCKREPETAG
1070
     1
1071
      119
1005
1278A8
  0
LINE
  5
1278A9
  8
OBJECT
 10
2159.999999999985
 20
-460.5000000000008
 30
0.0
 11
2159.999999999985
 21
-545.74491827928784
 31
0.0
1001
ACDBBLOCKREPETAG
1070
     1
1071
      120
1005
1278A9
  0
ARC
  5
1278AA
  8
OBJECT
 10
2091.9999999999859
 20
-537.27386365609345
 30
0.0
 40
85.0
 50
308.59099323720869
 51
334.40086127812339
1001
ACDBBLOCKREPETAG
1070
     1
1071
      121
1005
1278AA
  0
ARC
  5
1278AB
  8
OBJECT
 10
2162.7999999999852
 20
-555.00000000000068
 30
0.0
 40
85.0
 50
91.887731891831123
 51
160.07406787456929
1001
ACDBBLOCKREPETAG
1070
     1
1071
      122
1005
1278AB
  0
LINE
  5
1278AC
  8
OBJECT
 10
2085.9999999999859
 20
-650.81075719270927
 30
0.0
 11
2145.0193225436019
 21
-603.71143914629465
 31
0.0
1001
ACDBBLOCKREPETAG
1070
     1
1071
      123
1005
1278AC
  0
LINE
  5
1278AD
  8
OBJECT
 10
2172.9999999999818
 20
-545.74491827928705
 30
0.0
 11
2159.999999999985
 21
-545.74491827928784
 31
0.0
1001
ACDBBLOCKREPETAG
1070
     1
1071
      124
1005
1278AD
  0
LINE
  5
1278AE
  8
OBJECT
 10
2176.999999999985
 20
-553.15756805667843
 30
0.0
 11
2172.9999999999818
 21
-545.74491827928705
 31
0.0
1001
ACDBBLOCKREPETAG
1070
     1
1071
      125
1005
1278AE
  0
LINE
  5
1278AF
  8
OBJECT
 10
2080.0000000000191
 20
-534.0
 30
0.0
 11
2082.8886121596229
 21
-526.03156729425325
 31
0.0
1001
ACDBBLOCKREPETAG
1070
     1
1071
      126
1005
1278AF
  0
LINE
  5
1278B0
  8
OBJECT
 10
2080.0000000000191
 20
-534.0
 30
0.0
 11
2085.9999999999859
 21
-553.3502637757274
 31
0.0
1001
ACDBBLOCKREPETAG
1070
     1
1071
      127
1005
1278B0
  0
LINE
  5
1278B1
  8
HIDDEN
 10
2167.999999999985
 20
-470.5000000000008
 30
0.0
 11
2167.999999999985
 21
-559.50000000000068
 31
0.0
1001
ACDBBLOCKREPETAG
1070
     1
1071
      129
1005
1278B1
  0
LINE
  5
1278B2
  8
OBJECT
 10
2212.999999999985
 20
-137.99999999999909
 30
0.0
 11
2219.999999999985
 21
-137.99999999999909
 31
0.0
1001
ACDBBLOCKREPETAG
1070
     1
1071
      110
1005
1278B2
  0
LINE
  5
1278B3
  8
OBJECT
 10
2219.999999999985
 20
-137.99999999999909
 30
0.0
 11
2219.999999999985
 21
-261.99999999999909
 31
0.0
1001
ACDBBLOCKREPETAG
1070
     1
1071
      111
1005
1278B3
  0
LINE
  5
1278B4
  8
OBJECT
 10
2219.999999999985
 20
-261.99999999999909
 30
0.0
 11
2212.999999999985
 21
-261.99999999999909
 31
0.0
1001
ACDBBLOCKREPETAG
1070
     1
1071
      112
1005
1278B4
  0
LINE
  5
1278B5
  8
OBJECT
 10
2212.999999999985
 20
-261.99999999999909
 30
0.0
 11
2212.999999999985
 21
-137.99999999999909
 31
0.0
1001
ACDBBLOCKREPETAG
1070
     1
1071
      113
1005
1278B5
  0
LINE
  5
1278B6
  8
CENTER
 10
2234.9999999999859
 20
-199.99999999999909
 30
0.0
 11
2080.0000000000041
 21
-199.99999999999909
 31
0.0
1001
ACDBBLOCKREPETAG
1070
     1
1071
      114
1005
1278B6
  0
LINE
  5
1278B7
  8
OBJECT
 10
2159.999974964187
 20
-245.0000000000027
 30
0.0
 11
2086.0
 21
-244.99999999999909
 31
0.0
1001
ACDBBLOCKREPETAG
1070
     1
1071
      115
1005
1278B7
  0
LINE
  5
1278B8
  8
OBJECT
 10
2159.999974964187
 20
-154.99999999999909
 30
0.0
 11
2086.0
 21
-154.99999999999909
 31
0.0
1001
ACDBBLOCKREPETAG
1070
     1
1071
      116
1005
1278B8
  0
LINE
  5
1278B9
  8
OBJECT
 10
2212.999999999985
 20
-140.99999999999909
 30
0.0
 11
2176.999999999985
 21
-140.99999999999909
 31
0.0
1001
ACDBBLOCKREPETAG
1070
     1
1071
      117
1005
1278B9
  0
LINE
  5
1278BA
  8
OBJECT
 10
2176.999999999985
 20
-140.99999999999909
 30
0.0
 11
2176.999999999985
 21
-258.99999999999909
 31
0.0
1001
ACDBBLOCKREPETAG
1070
     1
1071
      118
1005
1278BA
  0
LINE
  5
1278BB
  8
OBJECT
 10
2176.999999999985
 20
-258.99999999999909
 30
0.0
 11
2212.999999999985
 21
-258.99999999999909
 31
0.0
1001
ACDBBLOCKREPETAG
1070
     1
1071
      119
1005
1278BB
  0
LINE
  5
1278BC
  8
OBJECT
 10
2172.999999999985
 20
-145.49999999999909
 30
0.0
 11
2159.999999999985
 21
-145.49999999999909
 31
0.0
1001
ACDBBLOCKREPETAG
1070
     1
1071
      120
1005
1278BC
  0
LINE
  5
1278BD
  8
OBJECT
 10
2159.999999999985
 20
-254.49999999999909
 30
0.0
 11
2172.999999999985
 21
-254.49999999999909
 31
0.0
1001
ACDBBLOCKREPETAG
1070
     1
1071
      121
1005
1278BD
  0
LINE
  5
1278BE
  8
OBJECT
 10
2172.999999999985
 20
-254.49999999999909
 30
0.0
 11
2172.999999999985
 21
-145.49999999999909
 31
0.0
1001
ACDBBLOCKREPETAG
1070
     1
1071
      122
1005
1278BE
  0
LINE
  5
1278BF
  8
OBJECT
 10
2176.999999999985
 20
-140.99999999999909
 30
0.0
 11
2172.999999999985
 21
-145.49999999999909
 31
0.0
1001
ACDBBLOCKREPETAG
1070
     1
1071
      123
1005
1278BF
  0
LINE
  5
1278C0
  8
OBJECT
 10
2176.999999999985
 20
-258.99999999999909
 30
0.0
 11
2172.999999999985
 21
-254.49999999999909
 31
0.0
1001
ACDBBLOCKREPETAG
1070
     1
1071
      124
1005
1278C0
  0
LINE
  5
1278C1
  8
OBJECT
 10
2083.0
 20
-137.99999999999909
 30
0.0
 11
2080.0
 21
-137.99999999999909
 31
0.0
1001
ACDBBLOCKREPETAG
1070
     1
1071
      125
1005
1278C1
  0
ARC
  5
1278C2
  8
OBJECT
 10
2083.0
 20
-140.99999999999909
 30
0.0
 40
3.0
 50
0.0
 51
90.0
1001
ACDBBLOCKREPETAG
1070
     1
1071
      126
1005
1278C2
  0
LINE
  5
1278C3
  8
OBJECT
 10
2080.0
 20
-261.99999999999909
 30
0.0
 11
2083.0
 21
-261.99999999999909
 31
0.0
1001
ACDBBLOCKREPETAG
1070
     1
1071
      127
1005
1278C3
  0
ARC
  5
1278C4
  8
OBJECT
 10
2083.0
 20
-258.99999999999909
 30
0.0
 40
3.0
 50
270.0
 51
0.0
1001
ACDBBLOCKREPETAG
1070
     1
1071
      128
1005
1278C4
  0
LINE
  5
1278C5
  8
OBJECT
 10
2086.0
 20
-258.99999999999909
 30
0.0
 11
2086.0
 21
-222.44994432063581
 31
0.0
1001
ACDBBLOCKREPETAG
1070
     1
1071
      129
1005
1278C5
  0
LINE
  5
1278C6
  8
OBJECT
 10
2086.0
 20
-177.55005567935859
 30
0.0
 11
2086.0
 21
-140.99999999999909
 31
0.0
1001
ACDBBLOCKREPETAG
1070
     1
1071
      130
1005
1278C6
  0
LINE
  5
1278C7
  8
HIDDEN
 10
2167.999999999985
 20
-155.49999999999909
 30
0.0
 11
2167.999999999985
 21
-244.49999999999909
 31
0.0
1001
ACDBBLOCKREPETAG
1070
     1
1071
      131
1005
1278C7
  0
LINE
  5
1278C8
  8
OBJECT
 10
2159.999974964187
 20
-254.4999509238105
 30
0.0
 11
2159.999974964187
 21
-145.4999509238105
 31
0.0
1001
ACDBBLOCKREPETAG
1070
     1
1071
      133
1005
1278C8
  0
ARC
  5
1278C9
  8
OBJECT
 10
2125.0000000000032
 20
-199.99999999999909
 30
0.0
 40
45.000000000000547
 50
90.0
 51
166.2158024759261
1001
ACDBBLOCKREPETAG
1070
     1
1071
      134
1005
1278C9
  0
ARC
  5
1278CA
  8
OBJECT
 10
2125.0000000000032
 20
-199.99999999999909
 30
0.0
 40
45.000000000000547
 50
193.78421279332531
 51
270.0
1001
ACDBBLOCKREPETAG
1070
     1
1071
      402
1005
1278CA
  0
TEXT
  5
1278CB
  8
SLIM
 10
0.0
 20
670.0
 30
0.0
 40
100.0
  1
4HF-Z6-P140-S
 41
0.75
  0
TEXT
  5
1278CC
  8
SLIM
 10
0.0
 20
520.0
 30
0.0
 40
100.0
  1
4HF-Z6-P140-W
 41
0.75
  0
LINE
  5
1278CD
  8
CENTER
 10
12091.0
 20
-1383.9999999999959
 30
0.0
 11
11895.0
 21
-1383.9999999999959
 31
0.0
1001
ACDBBLOCKREPETAG
1070
     1
1071
       10
1005
1278CD
  0
LINE
  5
1278CE
  8
CENTER
 10
12000.0
 20
-1475.274664429212
 30
0.0
 11
12000.0
 21
-1292.725335570779
 31
0.0
1001
ACDBBLOCKREPETAG
1070
     1
1071
       11
1005
1278CE
  0
CIRCLE
  5
1278CF
  8
OBJECT
 10
12000.0
 20
-1383.9999999999959
 30
0.0
 40
50.0
1001
ACDBBLOCKREPETAG
1070
     1
1071
       12
1005
1278CF
  0
CIRCLE
  5
1278D0
  8
OBJECT
 10
12000.0
 20
-1383.9999999999959
 30
0.0
 40
60.0
1001
ACDBBLOCKREPETAG
1070
     1
1071
       13
1005
1278D0
  0
CIRCLE
  5
1278D1
  8
OBJECT
 10
12000.0
 20
-1383.9999999999959
 30
0.0
 40
68.0
1001
ACDBBLOCKREPETAG
1070
     1
1071
       14
1005
1278D1
  0
ARC
  5
1278D2
  8
OBJECT
 10
11922.5
 20
-1383.9999999999959
 30
0.0
 40
12.0
 50
92.105426272216135
 51
267.89457372778372
1001
ACDBBLOCKREPETAG
1070
     1
1071
       15
1005
1278D2
  0
ARC
  5
1278D3
  8
OBJECT
 10
11921.508064516131
 20
-1410.981772810467
 30
0.0
 40
15.0
 50
18.97051877965265
 51
87.894573727783893
1001
ACDBBLOCKREPETAG
1070
     1
1071
       16
1005
1278D3
  0
ARC
  5
1278D4
  8
OBJECT
 10
11921.508064516131
 20
-1357.018227189528
 30
0.0
 40
15.0
 50
272.10542627221611
 51
341.02948122034741
1001
ACDBBLOCKREPETAG
1070
     1
1071
       17
1005
1278D4
  0
CIRCLE
  5
1278D5
  8
SLIM
 10
11922.0
 20
-1383.9999999999959
 30
0.0
 40
8.0
1001
ACDBBLOCKREPETAG
1070
     1
1071
       18
1005
1278D5
  0
POLYLINE
  5
1278D6
  8
SLIM
 66
     1
 10
0.0
 20
0.0
 30
0.0
 70
     1
1001
ACDBBLOCKREPETAG
1070
     1
1071
       19
1005
1278D6
  0
VERTEX
  5
127AB4
  8
SLIM
 10
11924.30940107676
 20
-1387.9999999999959
 30
0.0
  0
VERTEX
  5
127AB5
  8
SLIM
 10
11926.61880215352
 20
-1383.9999999999959
 30
0.0
  0
VERTEX
  5
127AB6
  8
SLIM
 10
11924.30940107676
 20
-1379.9999999999959
 30
0.0
  0
VERTEX
  5
127AB7
  8
SLIM
 10
11919.69059892324
 20
-1379.9999999999959
 30
0.0
  0
VERTEX
  5
127AB8
  8
SLIM
 10
11917.381197846489
 20
-1383.9999999999959
 30
0.0
  0
VERTEX
  5
127AB9
  8
SLIM
 10
11919.69059892324
 20
-1387.9999999999959
 30
0.0
  0
SEQEND
  5
127ABA
  8
SLIM
  0
ARC
  5
1278D7
  8
OBJECT
 10
12038.75
 20
-1451.116968793292
 30
0.0
 40
12.0
 50
212.10542627213019
 51
27.89457372768311
1001
ACDBBLOCKREPETAG
1070
     1
1071
       20
1005
1278D7
  0
ARC
  5
1278D8
  8
OBJECT
 10
12062.612868434941
 20
-1438.485123716003
 30
0.0
 40
15.0
 50
138.97051877944759
 51
207.89457372768319
1001
ACDBBLOCKREPETAG
1070
     1
1071
       21
1005
1278D8
  0
ARC
  5
1278D9
  8
OBJECT
 10
12015.879067048931
 20
-1465.466896526475
 30
0.0
 40
15.0
 50
32.105426272130188
 51
101.0294812204407
1001
ACDBBLOCKREPETAG
1070
     1
1071
       22
1005
1278D9
  0
CIRCLE
  5
1278DA
  8
SLIM
 10
12039.0
 20
-1451.5499814951829
 30
0.0
 40
7.9999999999999982
1001
ACDBBLOCKREPETAG
1070
     1
1071
       23
1005
1278DA
  0
POLYLINE
  5
1278DB
  8
SLIM
 66
     1
 10
0.0
 20
0.0
 30
0.0
 70
     1
1001
ACDBBLOCKREPETAG
1070
     1
1071
       24
1005
1278DB
  0
VERTEX
  5
127ABB
  8
SLIM
 10
12041.30940107676
 20
-1447.5499814951829
 30
0.0
  0
VERTEX
  5
127ABC
  8
SLIM
 10
12036.69059892324
 20
-1447.5499814951829
 30
0.0
  0
VERTEX
  5
127ABD
  8
SLIM
 10
12034.381197846489
 20
-1451.5499814951829
 30
0.0
  0
VERTEX
  5
127ABE
  8
SLIM
 10
12036.69059892324
 20
-1455.5499814951829
 30
0.0
  0
VERTEX
  5
127ABF
  8
SLIM
 10
12041.30940107676
 20
-1455.5499814951829
 30
0.0
  0
VERTEX
  5
127AC0
  8
SLIM
 10
12043.61880215352
 20
-1451.5499814951829
 30
0.0
  0
SEQEND
  5
127AC1
  8
SLIM
  0
ARC
  5
1278DC
  8
OBJECT
 10
12038.75
 20
-1316.883031206703
 30
0.0
 40
12.0
 50
332.10542627231678
 51
147.89457372786981
1001
ACDBBLOCKREPETAG
1070
     1
1071
       25
1005
1278DC
  0
ARC
  5
1278DD
  8
OBJECT
 10
12015.879067048931
 20
-1302.53310347352
 30
0.0
 40
15.0
 50
258.97051877955931
 51
327.89457372786978
1001
ACDBBLOCKREPETAG
1070
     1
1071
       26
1005
1278DD
  0
ARC
  5
1278DE
  8
OBJECT
 10
12062.612868434941
 20
-1329.514876283989
 30
0.0
 40
15.0
 50
152.10542627231681
 51
221.02948122055241
1001
ACDBBLOCKREPETAG
1070
     1
1071
       27
1005
1278DE
  0
CIRCLE
  5
1278DF
  8
SLIM
 10
12039.0
 20
-1316.4500185048089
 30
0.0
 40
8.0
1001
ACDBBLOCKREPETAG
1070
     1
1071
       28
1005
1278DF
  0
POLYLINE
  5
1278E0
  8
SLIM
 66
     1
 10
0.0
 20
0.0
 30
0.0
 70
     1
1001
ACDBBLOCKREPETAG
1070
     1
1071
       29
1005
1278E0
  0
VERTEX
  5
127AC2
  8
SLIM
 10
12034.381197846489
 20
-1316.4500185048121
 30
0.0
  0
VERTEX
  5
127AC3
  8
SLIM
 10
12036.69059892324
 20
-1320.450018504808
 30
0.0
  0
VERTEX
  5
127AC4
  8
SLIM
 10
12041.30940107676
 20
-1320.4500185048121
 30
0.0
  0
VERTEX
  5
127AC5
  8
SLIM
 10
12043.61880215352
 20
-1316.4500185048089
 30
0.0
  0
VERTEX
  5
127AC6
  8
SLIM
 10
12041.30940107676
 20
-1312.4500185048121
 30
0.0
  0
VERTEX
  5
127AC7
  8
SLIM
 10
12036.69059892324
 20
-1312.450018504808
 30
0.0
  0
SEQEND
  5
127AC8
  8
SLIM
  0
ARC
  5
1278E1
  8
OBJECT
 10
12000.0
 20
-1383.9999999999959
 30
0.0
 40
76.0
 50
214.8638379541718
 51
265.13616204573287
1001
ACDBBLOCKREPETAG
1070
     1
1071
       42
1005
1278E1
  0
ARC
  5
1278E2
  8
OBJECT
 10
12000.0
 20
-1383.9999999999959
 30
0.0
 40
76.0
 50
334.86383795430942
 51
25.136162045690561
1001
ACDBBLOCKREPETAG
1070
     1
1071
       43
1005
1278E2
  0
ARC
  5
1278E3
  8
OBJECT
 10
12000.0
 20
-1383.9999999999959
 30
0.0
 40
76.0
 50
94.863837954267041
 51
145.13616204582809
1001
ACDBBLOCKREPETAG
1070
     1
1071
       44
1005
1278E3
  0
ARC
  5
1278E4
  8
OBJECT
 10
11922.0
 20
-1383.9999999999959
 30
0.0
 40
12.0
 50
145.13616204582809
 51
214.8638379541718
1001
ACDBBLOCKREPETAG
1070
     1
1071
       45
1005
1278E4
  0
LINE
  5
1278E5
  8
OBJECT
 10
11912.153846153829
 20
-1390.8595374798581
 30
0.0
 11
11937.641025640951
 21
-1427.443737372457
 31
0.0
1001
ACDBBLOCKREPETAG
1070
     1
1071
       46
1005
1278E5
  0
LINE
  5
1278E6
  8
OBJECT
 10
11912.153846153829
 20
-1377.1404625201351
 30
0.0
 11
11937.641025640951
 21
-1340.556262627533
 31
0.0
1001
ACDBBLOCKREPETAG
1070
     1
1071
       47
1005
1278E6
  0
ARC
  5
1278E7
  8
OBJECT
 10
12039.0
 20
-1451.5499814951811
 30
0.0
 40
12.0
 50
265.13616204594291
 51
334.86383795410012
1001
ACDBBLOCKREPETAG
1070
     1
1071
       48
1005
1278E7
  0
LINE
  5
1278E8
  8
OBJECT
 10
12049.863610638849
 20
-1456.6472321156009
 30
0.0
 11
12068.802867379411
 21
-1416.282587262644
 31
0.0
1001
ACDBBLOCKREPETAG
1070
     1
1071
       49
1005
1278E8
  0
LINE
  5
1278E9
  8
OBJECT
 10
12037.98254320731
 20
-1463.506769595464
 30
0.0
 11
11993.556106979629
 21
-1459.726324635106
 31
0.0
1001
ACDBBLOCKREPETAG
1070
     1
1071
       50
1005
1278E9
  0
ARC
  5
1278EA
  8
OBJECT
 10
12039.0
 20
-1316.45001850481
 30
0.0
 40
12.0
 50
25.136162045899951
 51
94.863837954057146
1001
ACDBBLOCKREPETAG
1070
     1
1071
       51
1005
1278EA
  0
LINE
  5
1278EB
  8
OBJECT
 10
12037.98254320731
 20
-1304.493230404528
 30
0.0
 11
11993.556106979629
 21
-1308.2736753648851
 31
0.0
1001
ACDBBLOCKREPETAG
1070
     1
1071
       52
1005
1278EB
  0
LINE
  5
1278EC
  8
OBJECT
 10
12049.863610638849
 20
-1311.352767884387
 30
0.0
 11
12068.80286737942
 21
-1351.7174127373489
 31
0.0
1001
ACDBBLOCKREPETAG
1070
     1
1071
       53
1005
1278EC
  0
LINE
  5
1278ED
  8
CENTER
 10
9909.0
 20
-1383.9999999999959
 30
0.0
 11
10105.0
 21
-1383.9999999999959
 31
0.0
1001
ACDBBLOCKREPETAG
1070
     1
1071
        0
1005
1278ED
  0
LINE
  5
1278EE
  8
CENTER
 10
10000.0
 20
-1475.274664429212
 30
0.0
 11
10000.0
 21
-1292.725335570779
 31
0.0
1001
ACDBBLOCKREPETAG
1070
     1
1071
        1
1005
1278EE
  0
CIRCLE
  5
1278EF
  8
OBJECT
 10
10000.0
 20
-1383.9999999999959
 30
0.0
 40
50.0
1001
ACDBBLOCKREPETAG
1070
     1
1071
        2
1005
1278EF
  0
CIRCLE
  5
1278F0
  8
OBJECT
 10
10000.0
 20
-1383.9999999999959
 30
0.0
 40
62.0
1001
ACDBBLOCKREPETAG
1070
     1
1071
        3
1005
1278F0
  0
CIRCLE
  5
1278F1
  8
SLIM
 10
9922.0
 20
-1383.9999999999959
 30
0.0
 40
5.0
1001
ACDBBLOCKREPETAG
1070
     1
1071
        4
1005
1278F1
  0
POLYLINE
  5
1278F2
  8
SLIM
 66
     1
 10
0.0
 20
0.0
 30
0.0
 70
     1
1001
ACDBBLOCKREPETAG
1070
     1
1071
        5
1005
1278F2
  0
VERTEX
  5
127AC9
  8
SLIM
 10
9926.907477288114
 20
-1392.4999999999959
 30
0.0
  0
VERTEX
  5
127ACA
  8
SLIM
 10
9931.814954576228
 20
-1383.9999999999959
 30
0.0
  0
VERTEX
  5
127ACB
  8
SLIM
 10
9926.907477288114
 20
-1375.4999999999959
 30
0.0
  0
VERTEX
  5
127ACC
  8
SLIM
 10
9917.0925227118914
 20
-1375.4999999999959
 30
0.0
  0
VERTEX
  5
127ACD
  8
SLIM
 10
9912.1850454237829
 20
-1383.9999999999959
 30
0.0
  0
VERTEX
  5
127ACE
  8
SLIM
 10
9917.0925227118914
 20
-1392.4999999999959
 30
0.0
  0
SEQEND
  5
127ACF
  8
SLIM
  0
CIRCLE
  5
1278F3
  8
SLIM
 10
10039.0
 20
-1451.5499814951829
 30
0.0
 40
4.9999999999999991
1001
ACDBBLOCKREPETAG
1070
     1
1071
        6
1005
1278F3
  0
POLYLINE
  5
1278F4
  8
SLIM
 66
     1
 10
0.0
 20
0.0
 30
0.0
 70
     1
1001
ACDBBLOCKREPETAG
1070
     1
1071
        7
1005
1278F4
  0
VERTEX
  5
127AD0
  8
SLIM
 10
10043.90747728811
 20
-1443.0499814951829
 30
0.0
  0
VERTEX
  5
127AD1
  8
SLIM
 10
10034.092522711881
 20
-1443.0499814951829
 30
0.0
  0
VERTEX
  5
127AD2
  8
SLIM
 10
10029.185045423779
 20
-1451.5499814951829
 30
0.0
  0
VERTEX
  5
127AD3
  8
SLIM
 10
10034.092522711881
 20
-1460.0499814951829
 30
0.0
  0
VERTEX
  5
127AD4
  8
SLIM
 10
10043.90747728811
 20
-1460.0499814951829
 30
0.0
  0
VERTEX
  5
127AD5
  8
SLIM
 10
10048.81495457623
 20
-1451.5499814951829
 30
0.0
  0
SEQEND
  5
127AD6
  8
SLIM
  0
CIRCLE
  5
1278F5
  8
SLIM
 10
10039.0
 20
-1316.4500185048089
 30
0.0
 40
5.0
1001
ACDBBLOCKREPETAG
1070
     1
1071
        8
1005
1278F5
  0
POLYLINE
  5
1278F6
  8
SLIM
 66
     1
 10
0.0
 20
0.0
 30
0.0
 70
     1
1001
ACDBBLOCKREPETAG
1070
     1
1071
        9
1005
1278F6
  0
VERTEX
  5
127AD7
  8
SLIM
 10
10029.185045423779
 20
-1316.4500185048089
 30
0.0
  0
VERTEX
  5
127AD8
  8
SLIM
 10
10034.09252271189
 20
-1324.9500185048121
 30
0.0
  0
VERTEX
  5
127AD9
  8
SLIM
 10
10043.90747728811
 20
-1324.950018504808
 30
0.0
  0
VERTEX
  5
127ADA
  8
SLIM
 10
10048.81495457623
 20
-1316.4500185048121
 30
0.0
  0
VERTEX
  5
127ADB
  8
SLIM
 10
10043.90747728811
 20
-1307.950018504808
 30
0.0
  0
VERTEX
  5
127ADC
  8
SLIM
 10
10034.092522711881
 20
-1307.9500185048121
 30
0.0
  0
SEQEND
  5
127ADD
  8
SLIM
  0
ARC
  5
1278F7
  8
OBJECT
 10
10000.0
 20
-1383.9999999999959
 30
0.0
 40
76.0
 50
214.8638379541718
 51
265.13616204573287
1001
ACDBBLOCKREPETAG
1070
     1
1071
       30
1005
1278F7
  0
ARC
  5
1278F8
  8
OBJECT
 10
10000.0
 20
-1383.9999999999959
 30
0.0
 40
76.0
 50
334.86383795430942
 51
25.136162045690561
1001
ACDBBLOCKREPETAG
1070
     1
1071
       31
1005
1278F8
  0
ARC
  5
1278F9
  8
OBJECT
 10
10000.0
 20
-1383.9999999999959
 30
0.0
 40
76.0
 50
94.863837954267041
 51
145.13616204582809
1001
ACDBBLOCKREPETAG
1070
     1
1071
       32
1005
1278F9
  0
ARC
  5
1278FA
  8
OBJECT
 10
9922.0
 20
-1383.9999999999959
 30
0.0
 40
12.0
 50
145.13616204582809
 51
214.8638379541718
1001
ACDBBLOCKREPETAG
1070
     1
1071
       33
1005
1278FA
  0
LINE
  5
1278FB
  8
OBJECT
 10
9912.1538461538348
 20
-1390.8595374798581
 30
0.0
 11
9937.641025640949
 21
-1427.443737372457
 31
0.0
1001
ACDBBLOCKREPETAG
1070
     1
1071
       34
1005
1278FB
  0
LINE
  5
1278FC
  8
OBJECT
 10
9912.1538461538275
 20
-1377.1404625201351
 30
0.0
 11
9937.641025640949
 21
-1340.556262627533
 31
0.0
1001
ACDBBLOCKREPETAG
1070
     1
1071
       35
1005
1278FC
  0
ARC
  5
1278FD
  8
OBJECT
 10
10039.0
 20
-1451.5499814951811
 30
0.0
 40
12.0
 50
265.13616204594291
 51
334.86383795410012
1001
ACDBBLOCKREPETAG
1070
     1
1071
       36
1005
1278FD
  0
LINE
  5
1278FE
  8
OBJECT
 10
10049.86361063884
 20
-1456.6472321156009
 30
0.0
 11
10068.802867379411
 21
-1416.282587262644
 31
0.0
1001
ACDBBLOCKREPETAG
1070
     1
1071
       37
1005
1278FE
  0
LINE
  5
1278FF
  8
OBJECT
 10
10037.98254320731
 20
-1463.506769595464
 30
0.0
 11
9993.5561069796331
 21
-1459.726324635106
 31
0.0
1001
ACDBBLOCKREPETAG
1070
     1
1071
       38
1005
1278FF
  0
ARC
  5
127900
  8
OBJECT
 10
10039.0
 20
-1316.45001850481
 30
0.0
 40
12.0
 50
25.136162045899951
 51
94.863837954057146
1001
ACDBBLOCKREPETAG
1070
     1
1071
       39
1005
127900
  0
LINE
  5
127901
  8
OBJECT
 10
10037.98254320731
 20
-1304.493230404528
 30
0.0
 11
9993.5561069796368
 21
-1308.2736753648851
 31
0.0
1001
ACDBBLOCKREPETAG
1070
     1
1071
       40
1005
127901
  0
LINE
  5
127902
  8
OBJECT
 10
10049.86361063884
 20
-1311.352767884387
 30
0.0
 11
10068.80286737942
 21
-1351.7174127373489
 31
0.0
1001
ACDBBLOCKREPETAG
1070
     1
1071
       41
1005
127902
  0
LINE
  5
127903
  8
CENTER
 10
6091.0
 20
-1424.9999999999991
 30
0.0
 11
5895.0
 21
-1424.9999999999991
 31
0.0
1001
ACDBBLOCKREPETAG
1070
     1
1071
       10
1005
127903
  0
LINE
  5
127904
  8
CENTER
 10
6000.0
 20
-1516.2746644292149
 30
0.0
 11
6000.0
 21
-1333.7253355707819
 31
0.0
1001
ACDBBLOCKREPETAG
1070
     1
1071
       11
1005
127904
  0
CIRCLE
  5
127905
  8
OBJECT
 10
6000.0
 20
-1424.9999999999991
 30
0.0
 40
50.0
1001
ACDBBLOCKREPETAG
1070
     1
1071
       12
1005
127905
  0
CIRCLE
  5
127906
  8
OBJECT
 10
6000.0
 20
-1424.9999999999991
 30
0.0
 40
60.0
1001
ACDBBLOCKREPETAG
1070
     1
1071
       13
1005
127906
  0
CIRCLE
  5
127907
  8
OBJECT
 10
6000.0
 20
-1424.9999999999991
 30
0.0
 40
68.0
1001
ACDBBLOCKREPETAG
1070
     1
1071
       14
1005
127907
  0
ARC
  5
127908
  8
OBJECT
 10
5922.5
 20
-1424.9999999999991
 30
0.0
 40
12.0
 50
92.105426272216135
 51
267.89457372778372
1001
ACDBBLOCKREPETAG
1070
     1
1071
       15
1005
127908
  0
ARC
  5
127909
  8
OBJECT
 10
5921.5080645161361
 20
-1451.9817728104711
 30
0.0
 40
15.0
 50
18.970518779635711
 51
87.894573727783893
1001
ACDBBLOCKREPETAG
1070
     1
1071
       16
1005
127909
  0
ARC
  5
12790A
  8
OBJECT
 10
5921.5080645161361
 20
-1398.018227189531
 30
0.0
 40
15.0
 50
272.10542627221611
 51
341.02948122036429
1001
ACDBBLOCKREPETAG
1070
     1
1071
       17
1005
12790A
  0
CIRCLE
  5
12790B
  8
SLIM
 10
5922.0
 20
-1424.9999999999991
 30
0.0
 40
8.0
1001
ACDBBLOCKREPETAG
1070
     1
1071
       18
1005
12790B
  0
POLYLINE
  5
12790C
  8
SLIM
 66
     1
 10
0.0
 20
0.0
 30
0.0
 70
     1
1001
ACDBBLOCKREPETAG
1070
     1
1071
       19
1005
12790C
  0
VERTEX
  5
127ADE
  8
SLIM
 10
5924.3094010767672
 20
-1428.9999999999991
 30
0.0
  0
VERTEX
  5
127ADF
  8
SLIM
 10
5926.618802153519
 20
-1424.9999999999991
 30
0.0
  0
VERTEX
  5
127AE0
  8
SLIM
 10
5924.3094010767672
 20
-1420.9999999999991
 30
0.0
  0
VERTEX
  5
127AE1
  8
SLIM
 10
5919.6905989232482
 20
-1420.9999999999991
 30
0.0
  0
VERTEX
  5
127AE2
  8
SLIM
 10
5917.3811978464882
 20
-1424.9999999999991
 30
0.0
  0
VERTEX
  5
127AE3
  8
SLIM
 10
5919.6905989232482
 20
-1428.9999999999991
 30
0.0
  0
SEQEND
  5
127AE4
  8
SLIM
  0
ARC
  5
12790D
  8
OBJECT
 10
6038.75
 20
-1492.116968793295
 30
0.0
 40
12.0
 50
212.1054262721579
 51
27.894573727707481
1001
ACDBBLOCKREPETAG
1070
     1
1071
       20
1005
12790D
  0
ARC
  5
12790E
  8
OBJECT
 10
6062.612868434946
 20
-1479.485123716006
 30
0.0
 40
15.0
 50
138.97051877944759
 51
207.89457372770741
1001
ACDBBLOCKREPETAG
1070
     1
1071
       21
1005
12790E
  0
ARC
  5
12790F
  8
OBJECT
 10
6015.8790670489307
 20
-1506.466896526478
 30
0.0
 40
15.0
 50
32.105426272157878
 51
101.0294812204407
1001
ACDBBLOCKREPETAG
1070
     1
1071
       22
1005
12790F
  0
CIRCLE
  5
127910
  8
SLIM
 10
6039.0
 20
-1492.5499814951861
 30
0.0
 40
7.9999999999999982
1001
ACDBBLOCKREPETAG
1070
     1
1071
       23
1005
127910
  0
POLYLINE
  5
127911
  8
SLIM
 66
     1
 10
0.0
 20
0.0
 30
0.0
 70
     1
1001
ACDBBLOCKREPETAG
1070
     1
1071
       24
1005
127911
  0
VERTEX
  5
127AE5
  8
SLIM
 10
6041.30940107676
 20
-1488.5499814951861
 30
0.0
  0
VERTEX
  5
127AE6
  8
SLIM
 10
6036.6905989232473
 20
-1488.5499814951861
 30
0.0
  0
VERTEX
  5
127AE7
  8
SLIM
 10
6034.3811978464892
 20
-1492.5499814951861
 30
0.0
  0
VERTEX
  5
127AE8
  8
SLIM
 10
6036.6905989232473
 20
-1496.5499814951861
 30
0.0
  0
VERTEX
  5
127AE9
  8
SLIM
 10
6041.30940107676
 20
-1496.5499814951861
 30
0.0
  0
VERTEX
  5
127AEA
  8
SLIM
 10
6043.6188021535199
 20
-1492.5499814951861
 30
0.0
  0
SEQEND
  5
127AEB
  8
SLIM
  0
ARC
  5
127912
  8
OBJECT
 10
6038.75
 20
-1357.8830312067059
 30
0.0
 40
12.0
 50
332.1054262722925
 51
147.8945737278421
1001
ACDBBLOCKREPETAG
1070
     1
1071
       25
1005
127912
  0
ARC
  5
127913
  8
OBJECT
 10
6015.8790670489307
 20
-1343.5331034735241
 30
0.0
 40
15.0
 50
258.97051877955931
 51
327.89457372784221
1001
ACDBBLOCKREPETAG
1070
     1
1071
       26
1005
127913
  0
ARC
  5
127914
  8
OBJECT
 10
6062.612868434946
 20
-1370.514876283992
 30
0.0
 40
15.0
 50
152.1054262722925
 51
221.02948122055241
1001
ACDBBLOCKREPETAG
1070
     1
1071
       27
1005
127914
  0
CIRCLE
  5
127915
  8
SLIM
 10
6039.0
 20
-1357.4500185048121
 30
0.0
 40
8.0
1001
ACDBBLOCKREPETAG
1070
     1
1071
       28
1005
127915
  0
POLYLINE
  5
127916
  8
SLIM
 66
     1
 10
0.0
 20
0.0
 30
0.0
 70
     1
1001
ACDBBLOCKREPETAG
1070
     1
1071
       29
1005
127916
  0
VERTEX
  5
127AEC
  8
SLIM
 10
6034.3811978464892
 20
-1357.450018504815
 30
0.0
  0
VERTEX
  5
127AED
  8
SLIM
 10
6036.6905989232473
 20
-1361.4500185048121
 30
0.0
  0
VERTEX
  5
127AEE
  8
SLIM
 10
6041.30940107676
 20
-1361.450018504815
 30
0.0
  0
VERTEX
  5
127AEF
  8
SLIM
 10
6043.6188021535199
 20
-1357.4500185048121
 30
0.0
  0
VERTEX
  5
127AF0
  8
SLIM
 10
6041.3094010767672
 20
-1353.450018504815
 30
0.0
  0
VERTEX
  5
127AF1
  8
SLIM
 10
6036.6905989232473
 20
-1353.4500185048121
 30
0.0
  0
SEQEND
  5
127AF2
  8
SLIM
  0
ARC
  5
127917
  8
OBJECT
 10
6000.0
 20
-1424.9999999999991
 30
0.0
 40
76.0
 50
214.8638379541421
 51
265.13616204573287
1001
ACDBBLOCKREPETAG
1070
     1
1071
       42
1005
127917
  0
ARC
  5
127918
  8
OBJECT
 10
6000.0
 20
-1424.9999999999991
 30
0.0
 40
76.0
 50
334.86383795430942
 51
25.136162045690561
1001
ACDBBLOCKREPETAG
1070
     1
1071
       43
1005
127918
  0
ARC
  5
127919
  8
OBJECT
 10
6000.0
 20
-1424.9999999999991
 30
0.0
 40
76.0
 50
94.863837954267041
 51
145.1361620458579
1001
ACDBBLOCKREPETAG
1070
     1
1071
       44
1005
127919
  0
ARC
  5
12791A
  8
OBJECT
 10
5922.0
 20
-1424.9999999999991
 30
0.0
 40
12.0
 50
145.1361620458579
 51
214.8638379541421
1001
ACDBBLOCKREPETAG
1070
     1
1071
       45
1005
12791A
  0
LINE
  5
12791B
  8
OBJECT
 10
5912.153846153833
 20
-1431.859537479861
 30
0.0
 11
5937.641025640949
 21
-1468.44373737246
 31
0.0
1001
ACDBBLOCKREPETAG
1070
     1
1071
       46
1005
12791B
  0
LINE
  5
12791C
  8
OBJECT
 10
5912.1538461538294
 20
-1418.140462520138
 30
0.0
 11
5937.641025640949
 21
-1381.5562626275359
 31
0.0
1001
ACDBBLOCKREPETAG
1070
     1
1071
       47
1005
12791C
  0
ARC
  5
12791D
  8
OBJECT
 10
6039.0
 20
-1492.5499814951841
 30
0.0
 40
12.0
 50
265.13616204594291
 51
334.86383795410012
1001
ACDBBLOCKREPETAG
1070
     1
1071
       48
1005
12791D
  0
LINE
  5
12791E
  8
OBJECT
 10
6049.8636106388549
 20
-1497.6472321156029
 30
0.0
 11
6068.8028673794142
 21
-1457.2825872626479
 31
0.0
1001
ACDBBLOCKREPETAG
1070
     1
1071
       49
1005
12791E
  0
LINE
  5
12791F
  8
OBJECT
 10
6037.9825432073158
 20
-1504.5067695954681
 30
0.0
 11
5993.5561069796322
 21
-1500.726324635109
 31
0.0
1001
ACDBBLOCKREPETAG
1070
     1
1071
       50
1005
12791F
  0
ARC
  5
127920
  8
OBJECT
 10
6039.0
 20
-1357.450018504813
 30
0.0
 40
12.0
 50
25.136162045899951
 51
94.863837954057146
1001
ACDBBLOCKREPETAG
1070
     1
1071
       51
1005
127920
  0
LINE
  5
127921
  8
OBJECT
 10
6037.9825432073121
 20
-1345.493230404531
 30
0.0
 11
5993.556106979634
 21
-1349.273675364889
 31
0.0
1001
ACDBBLOCKREPETAG
1070
     1
1071
       52
1005
127921
  0
LINE
  5
127922
  8
OBJECT
 10
6049.8636106388549
 20
-1352.35276788439
 30
0.0
 11
6068.8028673794161
 21
-1392.7174127373521
 31
0.0
1001
ACDBBLOCKREPETAG
1070
     1
1071
       53
1005
127922
  0
LINE
  5
127923
  8
CENTER
 10
3909.0
 20
-1383.9999999999959
 30
0.0
 11
4105.0
 21
-1383.9999999999959
 31
0.0
1001
ACDBBLOCKREPETAG
1070
     1
1071
        0
1005
127923
  0
LINE
  5
127924
  8
CENTER
 10
4000.0
 20
-1475.274664429212
 30
0.0
 11
4000.0
 21
-1292.725335570779
 31
0.0
1001
ACDBBLOCKREPETAG
1070
     1
1071
        1
1005
127924
  0
CIRCLE
  5
127925
  8
OBJECT
 10
4000.0
 20
-1383.9999999999959
 30
0.0
 40
50.0
1001
ACDBBLOCKREPETAG
1070
     1
1071
        2
1005
127925
  0
CIRCLE
  5
127926
  8
OBJECT
 10
4000.0
 20
-1383.9999999999959
 30
0.0
 40
62.0
1001
ACDBBLOCKREPETAG
1070
     1
1071
        3
1005
127926
  0
CIRCLE
  5
127927
  8
SLIM
 10
3922.0
 20
-1383.9999999999959
 30
0.0
 40
5.0
1001
ACDBBLOCKREPETAG
1070
     1
1071
        4
1005
127927
  0
POLYLINE
  5
127928
  8
SLIM
 66
     1
 10
0.0
 20
0.0
 30
0.0
 70
     1
1001
ACDBBLOCKREPETAG
1070
     1
1071
        5
1005
127928
  0
VERTEX
  5
127AF3
  8
SLIM
 10
3926.907477288114
 20
-1392.4999999999959
 30
0.0
  0
VERTEX
  5
127AF4
  8
SLIM
 10
3931.814954576228
 20
-1383.9999999999959
 30
0.0
  0
VERTEX
  5
127AF5
  8
SLIM
 10
3926.907477288114
 20
-1375.4999999999959
 30
0.0
  0
VERTEX
  5
127AF6
  8
SLIM
 10
3917.0925227118928
 20
-1375.4999999999959
 30
0.0
  0
VERTEX
  5
127AF7
  8
SLIM
 10
3912.1850454237788
 20
-1383.9999999999959
 30
0.0
  0
VERTEX
  5
127AF8
  8
SLIM
 10
3917.0925227118928
 20
-1392.4999999999959
 30
0.0
  0
SEQEND
  5
127AF9
  8
SLIM
  0
CIRCLE
  5
127929
  8
SLIM
 10
4039.0
 20
-1451.5499814951829
 30
0.0
 40
4.9999999999999991
1001
ACDBBLOCKREPETAG
1070
     1
1071
        6
1005
127929
  0
POLYLINE
  5
12792A
  8
SLIM
 66
     1
 10
0.0
 20
0.0
 30
0.0
 70
     1
1001
ACDBBLOCKREPETAG
1070
     1
1071
        7
1005
12792A
  0
VERTEX
  5
127AFA
  8
SLIM
 10
4043.907477288114
 20
-1443.0499814951829
 30
0.0
  0
VERTEX
  5
127AFB
  8
SLIM
 10
4034.092522711886
 20
-1443.0499814951829
 30
0.0
  0
VERTEX
  5
127AFC
  8
SLIM
 10
4029.1850454237788
 20
-1451.5499814951829
 30
0.0
  0
VERTEX
  5
127AFD
  8
SLIM
 10
4034.092522711886
 20
-1460.0499814951829
 30
0.0
  0
VERTEX
  5
127AFE
  8
SLIM
 10
4043.907477288114
 20
-1460.0499814951829
 30
0.0
  0
VERTEX
  5
127AFF
  8
SLIM
 10
4048.814954576228
 20
-1451.5499814951829
 30
0.0
  0
SEQEND
  5
127B00
  8
SLIM
  0
CIRCLE
  5
12792B
  8
SLIM
 10
4039.0
 20
-1316.4500185048089
 30
0.0
 40
5.0
1001
ACDBBLOCKREPETAG
1070
     1
1071
        8
1005
12792B
  0
POLYLINE
  5
12792C
  8
SLIM
 66
     1
 10
0.0
 20
0.0
 30
0.0
 70
     1
1001
ACDBBLOCKREPETAG
1070
     1
1071
        9
1005
12792C
  0
VERTEX
  5
127B01
  8
SLIM
 10
4029.1850454237788
 20
-1316.4500185048089
 30
0.0
  0
VERTEX
  5
127B02
  8
SLIM
 10
4034.0925227118928
 20
-1324.9500185048121
 30
0.0
  0
VERTEX
  5
127B03
  8
SLIM
 10
4043.907477288114
 20
-1324.950018504808
 30
0.0
  0
VERTEX
  5
127B04
  8
SLIM
 10
4048.814954576228
 20
-1316.4500185048121
 30
0.0
  0
VERTEX
  5
127B05
  8
SLIM
 10
4043.907477288114
 20
-1307.950018504808
 30
0.0
  0
VERTEX
  5
127B06
  8
SLIM
 10
4034.092522711886
 20
-1307.9500185048121
 30
0.0
  0
SEQEND
  5
127B07
  8
SLIM
  0
ARC
  5
12792D
  8
OBJECT
 10
4000.0
 20
-1383.9999999999959
 30
0.0
 40
76.0
 50
214.8638379541421
 51
265.13616204573287
1001
ACDBBLOCKREPETAG
1070
     1
1071
       30
1005
12792D
  0
ARC
  5
12792E
  8
OBJECT
 10
4000.0
 20
-1383.9999999999959
 30
0.0
 40
76.0
 50
334.86383795430942
 51
25.136162045690561
1001
ACDBBLOCKREPETAG
1070
     1
1071
       31
1005
12792E
  0
ARC
  5
12792F
  8
OBJECT
 10
4000.0
 20
-1383.9999999999959
 30
0.0
 40
76.0
 50
94.863837954267041
 51
145.1361620458579
1001
ACDBBLOCKREPETAG
1070
     1
1071
       32
1005
12792F
  0
ARC
  5
127930
  8
OBJECT
 10
3922.0
 20
-1383.9999999999959
 30
0.0
 40
12.0
 50
145.1361620458579
 51
214.8638379541421
1001
ACDBBLOCKREPETAG
1070
     1
1071
       33
1005
127930
  0
LINE
  5
127931
  8
OBJECT
 10
3912.153846153833
 20
-1390.8595374798581
 30
0.0
 11
3937.6410256409508
 21
-1427.443737372457
 31
0.0
1001
ACDBBLOCKREPETAG
1070
     1
1071
       34
1005
127931
  0
LINE
  5
127932
  8
OBJECT
 10
3912.1538461538298
 20
-1377.1404625201351
 30
0.0
 11
3937.6410256409508
 21
-1340.556262627533
 31
0.0
1001
ACDBBLOCKREPETAG
1070
     1
1071
       35
1005
127932
  0
ARC
  5
127933
  8
OBJECT
 10
4039.0
 20
-1451.5499814951811
 30
0.0
 40
12.0
 50
265.13616204594291
 51
334.86383795411098
1001
ACDBBLOCKREPETAG
1070
     1
1071
       36
1005
127933
  0
LINE
  5
127934
  8
OBJECT
 10
4049.8636106388549
 20
-1456.6472321156009
 30
0.0
 11
4068.8028673794129
 21
-1416.282587262644
 31
0.0
1001
ACDBBLOCKREPETAG
1070
     1
1071
       37
1005
127934
  0
LINE
  5
127935
  8
OBJECT
 10
4037.9825432073148
 20
-1463.506769595464
 30
0.0
 11
3993.5561069796322
 21
-1459.726324635106
 31
0.0
1001
ACDBBLOCKREPETAG
1070
     1
1071
       38
1005
127935
  0
ARC
  5
127936
  8
OBJECT
 10
4039.0
 20
-1316.45001850481
 30
0.0
 40
12.0
 50
25.13616204588887
 51
94.863837954057146
1001
ACDBBLOCKREPETAG
1070
     1
1071
       39
1005
127936
  0
LINE
  5
127937
  8
OBJECT
 10
4037.9825432073121
 20
-1304.493230404528
 30
0.0
 11
3993.556106979634
 21
-1308.2736753648851
 31
0.0
1001
ACDBBLOCKREPETAG
1070
     1
1071
       40
1005
127937
  0
LINE
  5
127938
  8
OBJECT
 10
4049.8636106388549
 20
-1311.352767884387
 30
0.0
 11
4068.8028673794161
 21
-1351.7174127373489
 31
0.0
1001
ACDBBLOCKREPETAG
1070
     1
1071
       41
1005
127938
  0
TEXT
  5
127939
  8
SLIM
 10
3853.75
 20
-1651.4999999999959
 30
0.0
 40
35.0
  1
両受けスタイル（W）
 41
0.75
  0
TEXT
  5
12793A
  8
SLIM
 10
5811.8000000000002
 20
-1748.9999999999991
 30
0.0
 40
28.0
  1
※ 対応スラブ厚　150mm以上
 41
0.75
  0
TEXT
  5
12793B
  8
SLIM
 10
5598.8999999999996
 20
-1842.3333333333319
 30
0.0
 40
28.0
  1
国土交通大臣認定・（一財）日本消防設備安全センター性能評定取得品
 41
0.75
  0
TEXT
  5
12793C
  8
SLIM
 10
5631.1000000000004
 20
-1888.9999999999991
 30
0.0
 40
28.0
  1
注）ご採用にあたり、認定書及び評定書の内容をご確認ください。
 41
0.75
  0
TEXT
  5
12793D
  8
SLIM
 10
11824.6
 20
-1707.9999999999959
 30
0.0
 40
28.0
  1
※ 対応スラブ厚　150～380
 41
0.75
  0
TEXT
  5
12793E
  8
SLIM
 10
11598.9
 20
-1801.3333333333289
 30
0.0
 40
28.0
  1
国土交通大臣認定・（一財）日本消防設備安全センター性能評定取得品
 41
0.75
  0
TEXT
  5
12793F
  8
SLIM
 10
11631.1
 20
-1847.9999999999959
 30
0.0
 40
28.0
  1
注）ご採用にあたり、認定書及び評定書の内容をご確認ください。
 41
0.75
  0
TEXT
  5
127940
  8
SLIM
 10
9824.6000000000004
 20
-1707.9999999999959
 30
0.0
 40
28.0
  1
※ 対応スラブ厚　180～380
 41
0.75
  0
TEXT
  5
127941
  8
SLIM
 10
9598.8999999999996
 20
-1801.3333333333289
 30
0.0
 40
28.0
  1
国土交通大臣認定・（一財）日本消防設備安全センター性能評定取得品
 41
0.75
  0
TEXT
  5
127942
  8
SLIM
 10
9631.1000000000004
 20
-1847.9999999999959
 30
0.0
 40
28.0
  1
注）ご採用にあたり、認定書及び評定書の内容をご確認ください。
 41
0.75
  0
TEXT
  5
127943
  8
SLIM
 10
7771.3999999999987
 20
-1440.666666666664
 30
0.0
 40
28.0
  1
※ 対応スラブ厚　180｛150｝～340
 41
0.75
  0
TEXT
  5
127944
  8
SLIM
 10
7733.2999999999975
 20
-1487.333333333331
 30
0.0
 40
28.0
  1
｛｝内はカンペイ立て管との組み合わせの場合
 41
0.75
  0
TEXT
  5
127945
  8
SLIM
 10
7598.8999999999969
 20
-1580.6666666666649
 30
0.0
 40
28.0
  1
国土交通大臣認定・（一財）日本消防設備安全センター性能評定取得品
 41
0.75
  0
TEXT
  5
127946
  8
SLIM
 10
7631.1000000000004
 20
-1627.333333333331
 30
0.0
 40
28.0
  1
注）ご採用にあたり、認定書及び評定書の内容をご確認ください。
 41
0.75
  0
TEXT
  5
127947
  8
SLIM
 10
9739.1250000000018
 20
-1651.4999999999959
 30
0.0
 40
35.0
  1
両受けスタイル（W）＋シンドカット
 41
0.75
  0
TEXT
  5
127948
  8
SLIM
 10
11743.5
 20
-1651.4999999999959
 30
0.0
 40
35.0
  1
カンペイ君（WKP）＋シンドカット
 41
0.75
  0
TEXT
  5
127949
  8
SLIM
 10
7741.625
 20
-1377.499999999997
 30
0.0
 40
35.0
  1
片受けスタイル（S）＋シンドカット
 41
0.75
  0
TEXT
  5
12794A
  8
SLIM
 10
5858.1250000000009
 20
-1692.4999999999991
 30
0.0
 40
35.0
  1
カンペイ君（WKP）
 41
0.75
  0
TEXT
  5
12794B
  8
SLIM
 10
1856.25
 20
-1377.499999999997
 30
0.0
 40
35.0
  1
片受けスタイル（S）
 41
0.75
  0
TEXT
  5
12794C
  8
SLIM
 10
0.0
 20
369.99999999999989
 30
0.0
 40
100.0
  1
4HF-Z6-P140-WKP
 41
0.75
  0
VIEWPORT
  5
F6BA7
 67
     1
  8
0
 10
185.50346062511861
 20
101.8328354358673
 30
0.0
 40
414.3487481428715
 41
222.19657968139651
 68
     1
 69
     1
1001
ACAD
1000
MVIEW
1002
{
1070
    16
1010
0.0
1020
0.0
1030
0.0
1010
0.0
1020
0.0
1030
1.0
1040
0.0
1040
222.19657968139651
1040
185.50346062511861
1040
101.8328354358673
1040
50.0
1040
0.0
1040
0.0
1070
     0
1070
     0
1070
     1
1070
     1
1070
     0
1070
     0
1070
     0
1070
     0
1040
0.0
1040
0.0
1040
0.0
1040
10.0
1040
10.0
1040
10.0
1040
10.0
1070
     0
1002
{
1002
}
1002
}
  0
VIEWPORT
  5
F6BA9
 67
     1
  8
OBJECT
 10
145.3303314447403
 20
101.8328338861465
 30
0.0
 40
232.5285303115844
 41
162.93253421783439
 68
     2
 69
     2
1001
ACAD
1000
MVIEW
1002
{
1070
    16
1010
0.0
1020
0.0
1030
0.0
1010
0.0
1020
0.0
1030
1.0
1040
0.0
1040
25942.55904403147
1040
2377.604457077377
1040
-7591.5176687056619
1040
50.0
1040
0.0
1040
0.0
1070
     0
1070
   600
1070
     1
1070
     1
1070
     0
1070
     0
1070
     0
1070
     0
1040
0.0
1040
0.0
1040
0.0
1040
1.0
1040
1.0
1040
0.0
1040
0.0
1070
     0
1002
{
1002
}
1002
}
  0
ENDSEC
  0
EOF
