  0
SECTION
  2
HEADER
  9
$ACADVER
  1
AC1009
  9
$INSBASE
 10
0.0
 20
0.0
 30
0.0
  9
$EXTMIN
 10
0.0
 20
-2144.0
 30
0.0
  9
$EXTMAX
 10
12399.70000000001
 20
770.0
 30
0.0
  9
$LIMMIN
 10
0.0
 20
0.0
  9
$LIMMAX
 10
210.0
 20
297.0
  9
$ORTHOMODE
 70
     0
  9
$REGENMODE
 70
     1
  9
$FILLMODE
 70
     1
  9
$QTEXTMODE
 70
     0
  9
$MIRRTEXT
 70
     0
  9
$DRAGMODE
 70
     2
  9
$LTSCALE
 40
1.0
  9
$OSMODE
 70
   125
  9
$ATTMODE
 70
     1
  9
$TEXTSIZE
 40
4.0
  9
$TRACEWID
 40
0.05
  9
$TEXTSTYLE
  7
STANDARD
  9
$CLAYER
  8
OBJECT
  9
$CELTYPE
  6
BYLAYER
  9
$CECOLOR
 62
   256
  9
$DIMSCALE
 40
10.0
  9
$DIMASZ
 40
2.0
  9
$DIMEXO
 40
1.0
  9
$DIMDLI
 40
10.0
  9
$DIMRND
 40
0.0
  9
$DIMDLE
 40
0.0
  9
$DIMEXE
 40
1.0
  9
$DIMTP
 40
0.0
  9
$DIMTM
 40
0.0
  9
$DIMTXT
 40
3.2000000000000002
  9
$DIMCEN
 40
0.0
  9
$DIMTSZ
 40
0.0
  9
$DIMTOL
 70
     0
  9
$DIMLIM
 70
     0
  9
$DIMTIH
 70
     0
  9
$DIMTOH
 70
     0
  9
$DIMSE1
 70
     0
  9
$DIMSE2
 70
     0
  9
$DIMTAD
 70
     1
  9
$DIMZIN
 70
     8
  9
$DIMBLK
  1
OPEN30
  9
$DIMASO
 70
     1
  9
$DIMSHO
 70
     1
  9
$DIMPOST
  1

  9
$DIMAPOST
  1

  9
$DIMALT
 70
     0
  9
$DIMALTD
 70
     2
  9
$DIMALTF
 40
25.399999999999999
  9
$DIMLFAC
 40
1.0
  9
$DIMTOFL
 70
     1
  9
$DIMTVP
 40
0.0
  9
$DIMTIX
 70
     0
  9
$DIMSOXD
 70
     0
  9
$DIMSAH
 70
     0
  9
$DIMBLK1
  1

  9
$DIMBLK2
  1

  9
$DIMSTYLE
  2
S10
  9
$DIMCLRD
 70
   256
  9
$DIMCLRE
 70
   256
  9
$DIMCLRT
 70
   256
  9
$DIMTFAC
 40
1.0
  9
$DIMGAP
 40
0.9
  9
$LUNITS
 70
     2
  9
$LUPREC
 70
     2
  9
$SKETCHINC
 40
0.1
  9
$FILLETRAD
 40
0.0
  9
$AUNITS
 70
     0
  9
$AUPREC
 70
     2
  9
$MENU
  1
ACAD
  9
$ELEVATION
 40
0.0
  9
$PELEVATION
 40
0.0
  9
$THICKNESS
 40
0.0
  9
$LIMCHECK
 70
     0
  9
$BLIPMODE
 70
     0
  9
$CHAMFERA
 40
2.0
  9
$CHAMFERB
 40
2.0
  9
$SKPOLY
 70
     0
  9
$TDCREATE
 40
2453095.4929404748
  9
$TDUPDATE
 40
2457303.4173336001
  9
$TDINDWG
 40
18.482266990700001
  9
$TDUSRTIMER
 40
18.4822662616
  9
$USRTIMER
 70
     1
  9
$ANGBASE
 50
0.0
  9
$ANGDIR
 70
     0
  9
$PDMODE
 70
    35
  9
$PDSIZE
 40
2.0
  9
$PLINEWID
 40
0.0
  9
$COORDS
 70
     1
  9
$SPLFRAME
 70
     0
  9
$SPLINETYPE
 70
     6
  9
$SPLINESEGS
 70
     8
  9
$ATTDIA
 70
     1
  9
$ATTREQ
 70
     1
  9
$HANDLING
 70
     1
  9
$HANDSEED
  5
1234C1
  9
$SURFTAB1
 70
     6
  9
$SURFTAB2
 70
     6
  9
$SURFTYPE
 70
     6
  9
$SURFU
 70
     6
  9
$SURFV
 70
     6
  9
$UCSNAME
  2

  9
$UCSORG
 10
0.0
 20
0.0
 30
0.0
  9
$UCSXDIR
 10
1.0
 20
0.0
 30
0.0
  9
$UCSYDIR
 10
0.0
 20
1.0
 30
0.0
  9
$PUCSNAME
  2

  9
$PUCSORG
 10
0.0
 20
0.0
 30
0.0
  9
$PUCSXDIR
 10
1.0
 20
0.0
 30
0.0
  9
$PUCSYDIR
 10
0.0
 20
1.0
 30
0.0
  9
$USERI1
 70
     0
  9
$USERI2
 70
     0
  9
$USERI3
 70
     0
  9
$USERI4
 70
     0
  9
$USERI5
 70
     0
  9
$USERR1
 40
0.0
  9
$USERR2
 40
0.0
  9
$USERR3
 40
0.0
  9
$USERR4
 40
0.0
  9
$USERR5
 40
0.0
  9
$WORLDVIEW
 70
     1
  9
$SHADEDGE
 70
     3
  9
$SHADEDIF
 70
    70
  9
$TILEMODE
 70
     1
  9
$MAXACTVP
 70
    64
  9
$PLIMCHECK
 70
     0
  9
$PEXTMIN
 10
29.066066288948051
 20
20.366566777229309
 30
0.0
  9
$PEXTMAX
 10
261.5945966005325
 20
183.29910099506381
 30
0.0
  9
$PLIMMIN
 10
-3.17498779296875
 20
-3.1749999523162842
  9
$PLIMMAX
 10
293.83566284179687
 20
206.8406708240509
  9
$UNITMODE
 70
     0
  9
$VISRETAIN
 70
     1
  9
$PLINEGEN
 70
     0
  9
$PSLTSCALE
 70
     1
  0
ENDSEC
  0
SECTION
  2
TABLES
  0
TABLE
  2
VPORT
 70
     1
  0
VPORT
  2
*ACTIVE
 70
     0
 10
0.0
 20
0.0
 11
1.0
 21
1.0
 12
7130.6856996817087
 22
-1287.821925160476
 13
0.0
 23
0.0
 14
1.0
 24
1.0
 15
0.0
 25
0.0
 16
0.0
 26
0.0
 36
1.0
 17
0.0
 27
0.0
 37
0.0
 40
9389.9138997215287
 41
1.70911528150134
 42
50.0
 43
0.0
 44
0.0
 50
0.0
 51
0.0
 71
     0
 72
   600
 73
     1
 74
     1
 75
     0
 76
     0
 77
     0
 78
     0
  0
ENDTAB
  0
TABLE
  2
LTYPE
 70
     3
  0
LTYPE
  2
CONTINUOUS
 70
     0
  3
Solid line
 72
    65
 73
     0
 40
0.0
  0
LTYPE
  2
ACAD_ISO08W100
 70
     0
  3
ISO long-dash short-dash ____ __ ____ __ ____ _
 72
    65
 73
     4
 40
36.0
 49
24.0
 49
-3.0
 49
6.0
 49
-3.0
  0
LTYPE
  2
ACAD_ISO02W100
 70
     0
  3
ISO dash __ __ __ __ __ __ __ __ __ __ __ __ __
 72
    65
 73
     2
 40
15.0
 49
12.0
 49
-3.0
  0
ENDTAB
  0
TABLE
  2
LAYER
 70
     7
  0
LAYER
  2
0
 70
     0
 62
     7
  6
CONTINUOUS
  0
LAYER
  2
OBJECT
 70
     0
 62
     4
  6
CONTINUOUS
  0
LAYER
  2
DEFPOINTS
 70
     0
 62
     7
  6
CONTINUOUS
  0
LAYER
  2
HIDDEN
 70
     0
 62
     2
  6
ACAD_ISO02W100
  0
LAYER
  2
CENTER
 70
     0
 62
     2
  6
ACAD_ISO08W100
  0
LAYER
  2
DOTS
 70
     0
 62
     1
  6
CONTINUOUS
  0
LAYER
  2
SLIM
 70
     0
 62
     2
  6
CONTINUOUS
  0
ENDTAB
  0
TABLE
  2
STYLE
 70
     2
  0
STYLE
  2
STANDARD
 70
     0
 40
0.0
 41
0.75
 50
0.0
 71
     0
 42
4.0
  3
simplex.shx
  4
bigfont.shx
  0
ENDTAB
  0
TABLE
  2
VIEW
 70
     0
  0
ENDTAB
  0
TABLE
  2
UCS
 70
     0
  0
ENDTAB
  0
TABLE
  2
APPID
 70
    18
  0
APPID
  2
ACAD
 70
     0
  0
APPID
  2
ACADANNOTATIVE
 70
     0
  0
APPID
  2
ACAD_PSEXT
 70
     0
  0
APPID
  2
ACAD_EXEMPT_FROM_CAD_STANDARDS
 70
     0
  0
APPID
  2
ACAECLAYERSTANDARD
 70
     0
  0
APPID
  2
ACAUTHENVIRON
 70
     0
  0
APPID
  2
ACDBDYNAMICBLOCKTRUENAME
 70
     0
  0
APPID
  2
ACDBDYNAMICBLOCKGUID
 70
     0
  0
APPID
  2
ACDBBLOCKREPETAG
 70
     0
  0
APPID
  2
ACDBBLOCKREPBTAG
 70
     0
  0
APPID
  2
ACAD_NAV_VCDISPLAY
 70
     0
  0
APPID
  2
ACAD_DSTYLE_DIMRADIAL_EXTENSION
 70
     0
  0
APPID
  2
ACAD_DSTYLE_DIMJAG
 70
     0
  0
APPID
  2
ACAD_DSTYLE_DIMTALN
 70
     0
  0
APPID
  2
ACADANNOPO
 70
     0
  0
APPID
  2
GRADIENTCOLOR1ACI
 70
     0
  0
APPID
  2
GRADIENTCOLOR2ACI
 70
     0
  0
APPID
  2
ACAD_MLEADERVER
 70
     0
  0
ENDTAB
  0
TABLE
  2
DIMSTYLE
 70
     3
  0
DIMSTYLE
  2
STANDARD
 70
     0
  3

  4

  5

  6

  7

 40
1.0
 41
0.18
 42
0.0625
 43
0.38
 44
0.18
 45
0.0
 46
0.0
 47
0.0
 48
0.0
140
0.18
141
0.09
142
0.0
143
25.399999999999999
144
1.0
145
0.0
146
1.0
147
0.09
 71
     0
 72
     0
 73
     1
 74
     1
 75
     0
 76
     0
 77
     0
 78
     0
170
     0
171
     2
172
     0
173
     0
174
     0
175
     0
176
     0
177
     0
178
     0
  0
DIMSTYLE
  2
S10
 70
     0
  3

  4

  5

  6

  7

 40
10.0
 41
2.0
 42
1.0
 43
10.0
 44
1.0
 45
0.0
 46
0.0
 47
0.0
 48
0.0
140
3.2000000000000002
141
0.0
142
0.0
143
25.399999999999999
144
1.0
145
0.0
146
1.0
147
0.9
 71
     0
 72
     0
 73
     0
 74
     0
 75
     0
 76
     0
 77
     1
 78
     8
170
     0
171
     2
172
     1
173
     0
174
     0
175
     0
176
   256
177
   256
178
   256
  0
ENDTAB
  0
ENDSEC
  0
SECTION
  2
BLOCKS
  0
BLOCK
  8
0
  2
$MODEL_SPACE
 70
     0
 10
0.0
 20
0.0
 30
0.0
  3
$MODEL_SPACE
  1

  0
ENDBLK
  5
1233E6
  8
0
  0
BLOCK
 67
     1
  8
0
  2
$PAPER_SPACE
 70
     0
 10
0.0
 20
0.0
 30
0.0
  3
$PAPER_SPACE
  1

  0
ENDBLK
  5
1233E2
 67
     1
  8
0
  0
BLOCK
  8
0
  2
_OPEN30
 70
     0
 10
0.0
 20
0.0
 30
0.0
  3
_OPEN30
  1

  0
LINE
  5
202
  8
0
  6
BYBLOCK
 62
     0
 10
-1.0
 20
0.26794919
 30
0.0
 11
0.0
 21
0.0
 31
0.0
  0
LINE
  5
203
  8
0
  6
BYBLOCK
 62
     0
 10
0.0
 20
0.0
 30
0.0
 11
-1.0
 21
-0.26794919
 31
0.0
  0
LINE
  5
204
  8
0
  6
BYBLOCK
 62
     0
 10
0.0
 20
0.0
 30
0.0
 11
-1.0
 21
0.0
 31
0.0
  0
ENDBLK
  5
206
  8
0
  0
ENDSEC
  0
SECTION
  2
ENTITIES
  0
LINE
  5
122D2F
  8
OBJECT
 10
11923.0
 20
-570.99999999999432
 30
0.0
 11
11923.0
 21
-549.99999999999432
 31
0.0
1001
ACDBBLOCKREPETAG
1070
     1
1071
       36
1005
122D2F
  0
LINE
  5
122D30
  8
OBJECT
 10
11923.0
 20
-549.99999999999432
 30
0.0
 11
12077.0
 21
-549.99999999999432
 31
0.0
1001
ACDBBLOCKREPETAG
1070
     1
1071
       37
1005
122D30
  0
LINE
  5
122D31
  8
HIDDEN
 10
11943.0
 20
-619.99999999999432
 30
0.0
 11
12057.0
 21
-619.99999999999432
 31
0.0
1001
ACDBBLOCKREPETAG
1070
     1
1071
       38
1005
122D31
  0
LINE
  5
122D32
  8
OBJECT
 10
12077.0
 20
-549.99999999999432
 30
0.0
 11
12077.0
 21
-570.99999999999432
 31
0.0
1001
ACDBBLOCKREPETAG
1070
     1
1071
       39
1005
122D32
  0
LINE
  5
122D33
  8
OBJECT
 10
12077.0
 20
-570.99999999999432
 30
0.0
 11
11923.0
 21
-570.99999999999432
 31
0.0
1001
ACDBBLOCKREPETAG
1070
     1
1071
       40
1005
122D33
  0
LINE
  5
122D34
  8
CENTER
 10
12000.0
 20
-534.99999999999432
 30
0.0
 11
12000.0
 21
-769.9999999999942
 31
0.0
1001
ACDBBLOCKREPETAG
1070
     1
1071
       41
1005
122D34
  0
LINE
  5
122D35
  8
OBJECT
 10
11928.0
 20
-570.99999999999432
 30
0.0
 11
11928.0
 21
-633.99999999999432
 31
0.0
1001
ACDBBLOCKREPETAG
1070
     1
1071
       42
1005
122D35
  0
LINE
  5
122D36
  8
OBJECT
 10
12072.0
 20
-633.99999999999432
 30
0.0
 11
12072.0
 21
-570.99999999999432
 31
0.0
1001
ACDBBLOCKREPETAG
1070
     1
1071
       43
1005
122D36
  0
LINE
  5
122D37
  8
OBJECT
 10
11920.0
 20
-757.9999999999942
 30
0.0
 11
12080.0
 21
-757.9999999999942
 31
0.0
1001
ACDBBLOCKREPETAG
1070
     1
1071
       44
1005
122D37
  0
LINE
  5
122D38
  8
OBJECT
 10
12080.0
 20
-633.99999999999432
 30
0.0
 11
11920.0
 21
-633.99999999999432
 31
0.0
1001
ACDBBLOCKREPETAG
1070
     1
1071
       45
1005
122D38
  0
LINE
  5
122D39
  8
OBJECT
 10
11920.0
 20
-757.9999999999942
 30
0.0
 11
11920.0
 21
-769.9999999999942
 31
0.0
1001
ACDBBLOCKREPETAG
1070
     1
1071
       46
1005
122D39
  0
LINE
  5
122D3A
  8
OBJECT
 10
11920.0
 20
-769.9999999999942
 30
0.0
 11
12080.0
 21
-769.9999999999942
 31
0.0
1001
ACDBBLOCKREPETAG
1070
     1
1071
       47
1005
122D3A
  0
LINE
  5
122D3B
  8
OBJECT
 10
12080.0
 20
-769.9999999999942
 30
0.0
 11
12080.0
 21
-757.9999999999942
 31
0.0
1001
ACDBBLOCKREPETAG
1070
     1
1071
       48
1005
122D3B
  0
ARC
  5
122D3C
  8
OBJECT
 10
12200.687274671671
 20
-749.40809941010195
 30
0.0
 40
170.6350503965856
 50
137.44134459184301
 51
149.91949581337221
1001
ACDBBLOCKREPETAG
1070
     1
1071
       52
1005
122D3C
  0
ARC
  5
122D3D
  8
OBJECT
 10
12200.687274671671
 20
-642.59190058988645
 30
0.0
 40
170.6350503965856
 50
210.08050418662771
 51
222.55865540815699
1001
ACDBBLOCKREPETAG
1070
     1
1071
       53
1005
122D3D
  0
ARC
  5
122D3E
  8
OBJECT
 10
11799.312725328329
 20
-749.40809941010195
 30
0.0
 40
170.6350503965856
 50
30.080504186787142
 51
42.558655408456282
1001
ACDBBLOCKREPETAG
1070
     1
1071
       54
1005
122D3E
  0
ARC
  5
122D3F
  8
OBJECT
 10
11799.312725328329
 20
-642.59190058988645
 30
0.0
 40
170.6350503965856
 50
317.44134459154373
 51
329.9194958132129
1001
ACDBBLOCKREPETAG
1070
     1
1071
       55
1005
122D3F
  0
POINT
  5
122D40
  8
DOTS
 10
12000.0
 20
-754.9999999999942
 30
0.0
1001
ACDBBLOCKREPETAG
1070
     1
1071
      184
1005
122D40
  0
LINE
  5
122D41
  8
SLIM
 10
11945.256670426101
 20
-137.99999999999909
 30
0.0
 11
11955.954840369581
 21
-127.30183005652231
 31
0.0
1001
GRADIENTCOLOR1ACI
1070
     5
1001
GRADIENTCOLOR2ACI
1070
     2
1001
ACAD
1010
0.0
1020
0.0
1030
0.0
1001
ACDBBLOCKREPETAG
1070
     1
1071
      428
1005
122D41
  0
LINE
  5
122D42
  8
SLIM
 10
11954.23692654717
 20
-137.99999999999909
 30
0.0
 11
11972.75077447633
 21
-119.4861520708364
 31
0.0
1001
GRADIENTCOLOR1ACI
1070
     5
1001
GRADIENTCOLOR2ACI
1070
     2
1001
ACAD
1010
0.0
1020
0.0
1030
0.0
1001
ACDBBLOCKREPETAG
1070
     1
1071
      429
1005
122D42
  0
LINE
  5
122D43
  8
SLIM
 10
11973.521224312461
 20
-127.6959583557812
 30
0.0
 11
11984.857514674861
 21
-116.359667993377
 31
0.0
1001
GRADIENTCOLOR1ACI
1070
     5
1001
GRADIENTCOLOR2ACI
1070
     2
1001
ACAD
1010
0.0
1020
0.0
1030
0.0
1001
ACDBBLOCKREPETAG
1070
     1
1071
      430
1005
122D43
  0
LINE
  5
122D44
  8
SLIM
 10
11985.894417146121
 20
-124.30302164318159
 30
0.0
 11
11995.05338120025
 21
-115.1440575890517
 31
0.0
1001
GRADIENTCOLOR1ACI
1070
     5
1001
GRADIENTCOLOR2ACI
1070
     2
1001
ACAD
1010
0.0
1020
0.0
1030
0.0
1001
ACDBBLOCKREPETAG
1070
     1
1071
      431
1005
122D44
  0
LINE
  5
122D45
  8
SLIM
 10
11996.077732749211
 20
-123.0999621611699
 30
0.0
 11
12000.0
 21
-119.1776949103767
 31
0.0
1001
GRADIENTCOLOR1ACI
1070
     5
1001
GRADIENTCOLOR2ACI
1070
     2
1001
ACAD
1010
0.0
1020
0.0
1030
0.0
1001
ACDBBLOCKREPETAG
1070
     1
1071
      432
1005
122D45
  0
LINE
  5
122D46
  8
SLIM
 10
12000.0
 20
-119.1776949103767
 30
0.0
 11
12004.0797313529
 21
-115.0979635574724
 31
0.0
1001
GRADIENTCOLOR1ACI
1070
     5
1001
GRADIENTCOLOR2ACI
1070
     2
1001
ACAD
1010
0.0
1020
0.0
1030
0.0
1001
ACDBBLOCKREPETAG
1070
     1
1071
      433
1005
122D46
  0
LINE
  5
122D47
  8
SLIM
 10
12004.995720254279
 20
-123.1622307771683
 30
0.0
 11
12012.267978410569
 21
-115.88997262087101
 31
0.0
1001
GRADIENTCOLOR1ACI
1070
     5
1001
GRADIENTCOLOR2ACI
1070
     2
1001
ACAD
1010
0.0
1020
0.0
1030
0.0
1001
ACDBBLOCKREPETAG
1070
     1
1071
      434
1005
122D47
  0
LINE
  5
122D48
  8
SLIM
 10
12013.028059366959
 20
-124.1101477855505
 30
0.0
 11
12019.799941457361
 21
-117.3382656951526
 31
0.0
1001
GRADIENTCOLOR1ACI
1070
     5
1001
GRADIENTCOLOR2ACI
1070
     2
1001
ACAD
1010
0.0
1020
0.0
1030
0.0
1001
ACDBBLOCKREPETAG
1070
     1
1071
      435
1005
122D48
  0
LINE
  5
122D49
  8
SLIM
 10
12020.374081314239
 20
-125.7443819593383
 30
0.0
 11
12026.787203867279
 21
-119.3312594063044
 31
0.0
1001
GRADIENTCOLOR1ACI
1070
     5
1001
GRADIENTCOLOR2ACI
1070
     2
1001
ACAD
1010
0.0
1020
0.0
1030
0.0
1001
ACDBBLOCKREPETAG
1070
     1
1071
      436
1005
122D49
  0
LINE
  5
122D4A
  8
SLIM
 10
12027.15247199887
 20
-127.946247395778
 30
0.0
 11
12033.303003076029
 21
-121.7957163186195
 31
0.0
1001
GRADIENTCOLOR1ACI
1070
     5
1001
GRADIENTCOLOR2ACI
1070
     2
1001
ACAD
1010
0.0
1020
0.0
1030
0.0
1001
ACDBBLOCKREPETAG
1070
     1
1071
      437
1005
122D4A
  0
LINE
  5
122D4B
  8
SLIM
 10
12033.43909865133
 20
-130.63987686439191
 30
0.0
 11
12039.397311984379
 21
-124.6816635313439
 31
0.0
1001
GRADIENTCOLOR1ACI
1070
     5
1001
GRADIENTCOLOR2ACI
1070
     2
1001
ACAD
1010
0.0
1020
0.0
1030
0.0
1001
ACDBBLOCKREPETAG
1070
     1
1071
      438
1005
122D4B
  0
LINE
  5
122D4C
  8
SLIM
 10
12039.284224621801
 20
-133.77500701499321
 30
0.0
 11
12045.10477053437
 21
-127.95446110242381
 31
0.0
1001
GRADIENTCOLOR1ACI
1070
     5
1001
GRADIENTCOLOR2ACI
1070
     2
1001
ACAD
1010
0.0
1020
0.0
1030
0.0
1001
ACDBBLOCKREPETAG
1070
     1
1071
      439
1005
122D4C
  0
LINE
  5
122D4D
  8
SLIM
 10
12044.721280169801
 20
-137.31820758805651
 30
0.0
 11
12050.449155789191
 21
-131.59033196866449
 31
0.0
1001
GRADIENTCOLOR1ACI
1070
     5
1001
GRADIENTCOLOR2ACI
1070
     2
1001
ACAD
1010
0.0
1020
0.0
1030
0.0
1001
ACDBBLOCKREPETAG
1070
     1
1071
      440
1005
122D4D
  0
LINE
  5
122D4E
  8
SLIM
 10
12053.01974387892
 20
-137.99999999999909
 30
0.0
 11
12055.445994186401
 21
-135.57374969252561
 31
0.0
1001
GRADIENTCOLOR1ACI
1070
     5
1001
GRADIENTCOLOR2ACI
1070
     2
1001
ACAD
1010
0.0
1020
0.0
1030
0.0
1001
ACDBBLOCKREPETAG
1070
     1
1071
      441
1005
122D4E
  0
LINE
  5
122D4F
  8
CENTER
 10
12000.0
 20
-279.99999999999909
 30
0.0
 11
12000.0
 21
-99.999999999999091
 31
0.0
1001
ACDBBLOCKREPETAG
1070
     1
1071
      160
1005
122D4F
  0
CIRCLE
  5
122D50
  8
OBJECT
 10
12000.0
 20
-199.99999999999909
 30
0.0
 40
70.0
1001
ACDBBLOCKREPETAG
1070
     1
1071
      161
1005
122D50
  0
CIRCLE
  5
122D51
  8
OBJECT
 10
12000.0
 20
-199.99999999999909
 30
0.0
 40
77.0
1001
ACDBBLOCKREPETAG
1070
     1
1071
      162
1005
122D51
  0
LINE
  5
122D52
  8
OBJECT
 10
12045.661800227321
 20
-137.99999999999909
 30
0.0
 11
12080.0
 21
-137.99999999999909
 31
0.0
1001
ACDBBLOCKREPETAG
1070
     1
1071
      164
1005
122D52
  0
LINE
  5
122D53
  8
OBJECT
 10
12062.0
 20
-261.99999999999909
 30
0.0
 11
12080.0
 21
-261.99999999999909
 31
0.0
1001
ACDBBLOCKREPETAG
1070
     1
1071
      165
1005
122D53
  0
LINE
  5
122D54
  8
OBJECT
 10
12062.0
 20
-261.99999999999909
 30
0.0
 11
12062.0
 21
-279.99999999999909
 31
0.0
1001
ACDBBLOCKREPETAG
1070
     1
1071
      167
1005
122D54
  0
LINE
  5
122D55
  8
OBJECT
 10
11938.0
 20
-261.99999999999909
 30
0.0
 11
11938.0
 21
-279.99999999999909
 31
0.0
1001
ACDBBLOCKREPETAG
1070
     1
1071
      168
1005
122D55
  0
LINE
  5
122D56
  8
OBJECT
 10
11938.0
 20
-261.99999999999909
 30
0.0
 11
11920.0
 21
-261.99999999999909
 31
0.0
1001
ACDBBLOCKREPETAG
1070
     1
1071
      170
1005
122D56
  0
LINE
  5
122D57
  8
OBJECT
 10
11954.33819977267
 20
-137.99999999999909
 30
0.0
 11
11920.0
 21
-137.99999999999909
 31
0.0
1001
ACDBBLOCKREPETAG
1070
     1
1071
      171
1005
122D57
  0
LINE
  5
122D58
  8
OBJECT
 10
11945.55277784863
 20
-254.44722215136329
 30
0.0
 11
11938.0
 21
-261.99999999999909
 31
0.0
1001
ACDBBLOCKREPETAG
1070
     1
1071
      180
1005
122D58
  0
LINE
  5
122D59
  8
OBJECT
 10
12054.447222151361
 20
-254.44722215136329
 30
0.0
 11
12062.0
 21
-261.99999999999909
 31
0.0
1001
ACDBBLOCKREPETAG
1070
     1
1071
      181
1005
122D59
  0
ARC
  5
122D5A
  8
OBJECT
 10
12000.0
 20
-199.99999999999909
 30
0.0
 40
85.0
 50
46.837102859844251
 51
133.16289714015571
1001
ACDBBLOCKREPETAG
1070
     1
1071
      183
1005
122D5A
  0
LINE
  5
122D5B
  8
OBJECT
 10
12024.1029330933
 20
-243.80694712371681
 30
0.0
 11
12020.659656999989
 21
-232.55462199999889
 31
0.0
1001
ACDBBLOCKREPETAG
1070
     1
1071
      314
1005
122D5B
  0
LINE
  5
122D5C
  8
OBJECT
 10
11986.79274990136
 20
-218.22553374208019
 30
0.0
 11
12020.659656999989
 21
-232.5546219999969
 31
0.0
1001
ACDBBLOCKREPETAG
1070
     1
1071
      316
1005
122D5C
  0
ARC
  5
122D5D
  8
OBJECT
 10
11982.8961697619
 20
-227.4351299990567
 30
0.0
 40
10.0
 50
67.066778292911366
 51
154.01473437031629
1001
ACDBBLOCKREPETAG
1070
     1
1071
      317
1005
122D5D
  0
ARC
  5
122D5E
  8
OBJECT
 10
11986.148839038129
 20
-225.55386256729159
 30
0.0
 40
7.0
 50
67.066778292911366
 51
154.0147337749826
1001
ACDBBLOCKREPETAG
1070
     1
1071
      318
1005
122D5E
  0
LINE
  5
122D5F
  8
OBJECT
 10
11969.4199755553
 20
-243.89888500818171
 30
0.0
 11
11979.85649182323
 21
-222.48688253356801
 31
0.0
1001
ACDBBLOCKREPETAG
1070
     1
1071
      349
1005
122D5F
  0
LINE
  5
122D60
  8
OBJECT
 10
11965.29721690061
 20
-240.71813901882729
 30
0.0
 11
11973.90710226651
 21
-223.05373004430751
 31
0.0
1001
ACDBBLOCKREPETAG
1070
     1
1071
      350
1005
122D60
  0
ARC
  5
122D61
  8
OBJECT
 10
11976.57969530731
 20
-207.1289369828437
 30
0.0
 40
60.031113246032611
 50
314.07020130422319
 51
322.33936106089681
1001
ACDBBLOCKREPETAG
1070
     1
1071
      351
1005
122D61
  0
CIRCLE
  5
122D62
  8
OBJECT
 10
12000.0
 20
-199.99999999999909
 30
0.0
 40
53.5
1001
ACDBBLOCKREPETAG
1070
     1
1071
      352
1005
122D62
  0
POINT
  5
122D63
  8
DOTS
 10
12000.0
 20
-199.99999999999909
 30
0.0
 50
270.0
1001
ACDBBLOCKREPETAG
1070
     1
1071
      364
1005
122D63
  0
ARC
  5
122D64
  8
OBJECT
 10
12000.0
 20
-199.99999999999909
 30
0.0
 40
50.0
 50
298.81994300000417
 51
228.5237695596397
1001
ACDBBLOCKREPETAG
1070
     1
1071
      157
1005
122D64
  0
LINE
  5
122D65
  8
CENTER
 10
12080.0
 20
-199.99999999999909
 30
0.0
 11
11920.0
 21
-199.99999999999909
 31
0.0
1001
ACDBBLOCKREPETAG
1070
     1
1071
      158
1005
122D65
  0
LINE
  5
122D66
  8
OBJECT
 10
11787.00000000002
 20
-137.99999999999909
 30
0.0
 11
11780.00000000002
 21
-137.99999999999909
 31
0.0
1001
ACDBBLOCKREPETAG
1070
     1
1071
      110
1005
122D66
  0
LINE
  5
122D67
  8
OBJECT
 10
11780.00000000002
 20
-137.99999999999909
 30
0.0
 11
11780.00000000002
 21
-261.99999999999909
 31
0.0
1001
ACDBBLOCKREPETAG
1070
     1
1071
      111
1005
122D67
  0
LINE
  5
122D68
  8
OBJECT
 10
11780.00000000002
 20
-261.99999999999909
 30
0.0
 11
11787.00000000002
 21
-261.99999999999909
 31
0.0
1001
ACDBBLOCKREPETAG
1070
     1
1071
      112
1005
122D68
  0
LINE
  5
122D69
  8
OBJECT
 10
11787.00000000002
 20
-261.99999999999909
 30
0.0
 11
11787.00000000002
 21
-137.99999999999909
 31
0.0
1001
ACDBBLOCKREPETAG
1070
     1
1071
      113
1005
122D69
  0
LINE
  5
122D6A
  8
CENTER
 10
11765.00000000002
 20
-199.99999999999909
 30
0.0
 11
11920.0
 21
-199.99999999999909
 31
0.0
1001
ACDBBLOCKREPETAG
1070
     1
1071
      114
1005
122D6A
  0
LINE
  5
122D6B
  8
OBJECT
 10
11840.00002503581
 20
-245.0000000000027
 30
0.0
 11
11914.0
 21
-244.99999999999909
 31
0.0
1001
ACDBBLOCKREPETAG
1070
     1
1071
      115
1005
122D6B
  0
LINE
  5
122D6C
  8
OBJECT
 10
11840.00002503581
 20
-154.99999999999909
 30
0.0
 11
11914.0
 21
-154.99999999999909
 31
0.0
1001
ACDBBLOCKREPETAG
1070
     1
1071
      116
1005
122D6C
  0
LINE
  5
122D6D
  8
OBJECT
 10
11787.00000000002
 20
-140.99999999999909
 30
0.0
 11
11823.00000000002
 21
-140.99999999999909
 31
0.0
1001
ACDBBLOCKREPETAG
1070
     1
1071
      117
1005
122D6D
  0
LINE
  5
122D6E
  8
OBJECT
 10
11823.00000000002
 20
-140.99999999999909
 30
0.0
 11
11823.00000000002
 21
-258.99999999999909
 31
0.0
1001
ACDBBLOCKREPETAG
1070
     1
1071
      118
1005
122D6E
  0
LINE
  5
122D6F
  8
OBJECT
 10
11823.00000000002
 20
-258.99999999999909
 30
0.0
 11
11787.00000000002
 21
-258.99999999999909
 31
0.0
1001
ACDBBLOCKREPETAG
1070
     1
1071
      119
1005
122D6F
  0
LINE
  5
122D70
  8
OBJECT
 10
11827.00000000002
 20
-145.49999999999909
 30
0.0
 11
11840.00000000002
 21
-145.49999999999909
 31
0.0
1001
ACDBBLOCKREPETAG
1070
     1
1071
      120
1005
122D70
  0
LINE
  5
122D71
  8
OBJECT
 10
11840.00000000002
 20
-254.49999999999909
 30
0.0
 11
11827.00000000002
 21
-254.49999999999909
 31
0.0
1001
ACDBBLOCKREPETAG
1070
     1
1071
      121
1005
122D71
  0
LINE
  5
122D72
  8
OBJECT
 10
11827.00000000002
 20
-254.49999999999909
 30
0.0
 11
11827.00000000002
 21
-145.49999999999909
 31
0.0
1001
ACDBBLOCKREPETAG
1070
     1
1071
      122
1005
122D72
  0
LINE
  5
122D73
  8
OBJECT
 10
11823.00000000002
 20
-140.99999999999909
 30
0.0
 11
11827.00000000002
 21
-145.49999999999909
 31
0.0
1001
ACDBBLOCKREPETAG
1070
     1
1071
      123
1005
122D73
  0
LINE
  5
122D74
  8
OBJECT
 10
11823.00000000002
 20
-258.99999999999909
 30
0.0
 11
11827.00000000002
 21
-254.49999999999909
 31
0.0
1001
ACDBBLOCKREPETAG
1070
     1
1071
      124
1005
122D74
  0
LINE
  5
122D75
  8
OBJECT
 10
11917.0
 20
-137.99999999999909
 30
0.0
 11
11920.0
 21
-137.99999999999909
 31
0.0
1001
ACDBBLOCKREPETAG
1070
     1
1071
      125
1005
122D75
  0
ARC
  5
122D76
  8
OBJECT
 10
11917.0
 20
-140.99999999999909
 30
0.0
 40
3.0
 50
90.0
 51
180.0
1001
ACDBBLOCKREPETAG
1070
     1
1071
      126
1005
122D76
  0
LINE
  5
122D77
  8
OBJECT
 10
11920.0
 20
-261.99999999999909
 30
0.0
 11
11917.0
 21
-261.99999999999909
 31
0.0
1001
ACDBBLOCKREPETAG
1070
     1
1071
      127
1005
122D77
  0
ARC
  5
122D78
  8
OBJECT
 10
11917.0
 20
-258.99999999999909
 30
0.0
 40
3.0
 50
180.0
 51
270.0
1001
ACDBBLOCKREPETAG
1070
     1
1071
      128
1005
122D78
  0
LINE
  5
122D79
  8
OBJECT
 10
11914.0
 20
-258.99999999999909
 30
0.0
 11
11914.0
 21
-222.44994432063581
 31
0.0
1001
ACDBBLOCKREPETAG
1070
     1
1071
      129
1005
122D79
  0
LINE
  5
122D7A
  8
OBJECT
 10
11914.0
 20
-177.55005567935859
 30
0.0
 11
11914.0
 21
-140.99999999999909
 31
0.0
1001
ACDBBLOCKREPETAG
1070
     1
1071
      130
1005
122D7A
  0
LINE
  5
122D7B
  8
HIDDEN
 10
11832.00000000002
 20
-155.49999999999909
 30
0.0
 11
11832.00000000002
 21
-244.49999999999909
 31
0.0
1001
ACDBBLOCKREPETAG
1070
     1
1071
      131
1005
122D7B
  0
LINE
  5
122D7C
  8
OBJECT
 10
11840.00002503581
 20
-254.4999509238105
 30
0.0
 11
11840.00002503581
 21
-145.4999509238105
 31
0.0
1001
ACDBBLOCKREPETAG
1070
     1
1071
      133
1005
122D7C
  0
ARC
  5
122D7D
  8
OBJECT
 10
11875.0
 20
-199.99999999999909
 30
0.0
 40
45.000000000000547
 50
270.0
 51
90.0
1001
ACDBBLOCKREPETAG
1070
     1
1071
      134
1005
122D7D
  0
LINE
  5
122D7E
  8
CENTER
 10
12000.0
 20
-300.99999999999898
 30
0.0
 11
12000.0
 21
-279.99999999999909
 31
0.0
1001
ACDBBLOCKREPETAG
1070
     1
1071
        0
1005
122D7E
  0
LINE
  5
122D7F
  8
OBJECT
 10
12062.0
 20
-283.0
 30
0.0
 11
12062.0
 21
-279.99999999999909
 31
0.0
1001
ACDBBLOCKREPETAG
1070
     1
1071
        1
1005
122D7F
  0
ARC
  5
122D80
  8
OBJECT
 10
12059.0
 20
-283.0
 30
0.0
 40
3.0
 50
270.0
 51
0.0
1001
ACDBBLOCKREPETAG
1070
     1
1071
        2
1005
122D80
  0
LINE
  5
122D81
  8
OBJECT
 10
11938.0
 20
-279.99999999999909
 30
0.0
 11
11938.0
 21
-282.99999999999818
 31
0.0
1001
ACDBBLOCKREPETAG
1070
     1
1071
        3
1005
122D81
  0
ARC
  5
122D82
  8
OBJECT
 10
11941.0
 20
-282.99999999999818
 30
0.0
 40
3.0
 50
180.0
 51
270.0
1001
ACDBBLOCKREPETAG
1070
     1
1071
        4
1005
122D82
  0
LINE
  5
122D83
  8
OBJECT
 10
11941.0
 20
-285.99999999999818
 30
0.0
 11
12059.0
 21
-286.0
 31
0.0
1001
ACDBBLOCKREPETAG
1070
     1
1071
        5
1005
122D83
  0
LINE
  5
122D84
  8
OBJECT
 10
12212.99999999998
 20
-137.99999999999909
 30
0.0
 11
12219.99999999998
 21
-137.99999999999909
 31
0.0
1001
ACDBBLOCKREPETAG
1070
     1
1071
      110
1005
122D84
  0
LINE
  5
122D85
  8
OBJECT
 10
12219.99999999998
 20
-137.99999999999909
 30
0.0
 11
12219.99999999998
 21
-261.99999999999909
 31
0.0
1001
ACDBBLOCKREPETAG
1070
     1
1071
      111
1005
122D85
  0
LINE
  5
122D86
  8
OBJECT
 10
12219.99999999998
 20
-261.99999999999909
 30
0.0
 11
12212.99999999998
 21
-261.99999999999909
 31
0.0
1001
ACDBBLOCKREPETAG
1070
     1
1071
      112
1005
122D86
  0
LINE
  5
122D87
  8
OBJECT
 10
12212.99999999998
 20
-261.99999999999909
 30
0.0
 11
12212.99999999998
 21
-137.99999999999909
 31
0.0
1001
ACDBBLOCKREPETAG
1070
     1
1071
      113
1005
122D87
  0
LINE
  5
122D88
  8
CENTER
 10
12234.99999999998
 20
-199.99999999999909
 30
0.0
 11
12080.0
 21
-199.99999999999909
 31
0.0
1001
ACDBBLOCKREPETAG
1070
     1
1071
      114
1005
122D88
  0
LINE
  5
122D89
  8
OBJECT
 10
12159.999974964179
 20
-245.0000000000027
 30
0.0
 11
12086.0
 21
-244.99999999999909
 31
0.0
1001
ACDBBLOCKREPETAG
1070
     1
1071
      115
1005
122D89
  0
LINE
  5
122D8A
  8
OBJECT
 10
12159.999974964179
 20
-154.99999999999909
 30
0.0
 11
12086.0
 21
-154.99999999999909
 31
0.0
1001
ACDBBLOCKREPETAG
1070
     1
1071
      116
1005
122D8A
  0
LINE
  5
122D8B
  8
OBJECT
 10
12212.99999999998
 20
-140.99999999999909
 30
0.0
 11
12176.99999999998
 21
-140.99999999999909
 31
0.0
1001
ACDBBLOCKREPETAG
1070
     1
1071
      117
1005
122D8B
  0
LINE
  5
122D8C
  8
OBJECT
 10
12176.99999999998
 20
-140.99999999999909
 30
0.0
 11
12176.99999999998
 21
-258.99999999999909
 31
0.0
1001
ACDBBLOCKREPETAG
1070
     1
1071
      118
1005
122D8C
  0
LINE
  5
122D8D
  8
OBJECT
 10
12176.99999999998
 20
-258.99999999999909
 30
0.0
 11
12212.99999999998
 21
-258.99999999999909
 31
0.0
1001
ACDBBLOCKREPETAG
1070
     1
1071
      119
1005
122D8D
  0
LINE
  5
122D8E
  8
OBJECT
 10
12172.99999999998
 20
-145.49999999999909
 30
0.0
 11
12159.99999999998
 21
-145.49999999999909
 31
0.0
1001
ACDBBLOCKREPETAG
1070
     1
1071
      120
1005
122D8E
  0
LINE
  5
122D8F
  8
OBJECT
 10
12159.99999999998
 20
-254.49999999999909
 30
0.0
 11
12172.99999999998
 21
-254.49999999999909
 31
0.0
1001
ACDBBLOCKREPETAG
1070
     1
1071
      121
1005
122D8F
  0
LINE
  5
122D90
  8
OBJECT
 10
12172.99999999998
 20
-254.49999999999909
 30
0.0
 11
12172.99999999998
 21
-145.49999999999909
 31
0.0
1001
ACDBBLOCKREPETAG
1070
     1
1071
      122
1005
122D90
  0
LINE
  5
122D91
  8
OBJECT
 10
12176.99999999998
 20
-140.99999999999909
 30
0.0
 11
12172.99999999998
 21
-145.49999999999909
 31
0.0
1001
ACDBBLOCKREPETAG
1070
     1
1071
      123
1005
122D91
  0
LINE
  5
122D92
  8
OBJECT
 10
12176.99999999998
 20
-258.99999999999909
 30
0.0
 11
12172.99999999998
 21
-254.49999999999909
 31
0.0
1001
ACDBBLOCKREPETAG
1070
     1
1071
      124
1005
122D92
  0
LINE
  5
122D93
  8
OBJECT
 10
12083.0
 20
-137.99999999999909
 30
0.0
 11
12080.0
 21
-137.99999999999909
 31
0.0
1001
ACDBBLOCKREPETAG
1070
     1
1071
      125
1005
122D93
  0
ARC
  5
122D94
  8
OBJECT
 10
12083.0
 20
-140.99999999999909
 30
0.0
 40
3.0
 50
0.0
 51
90.0
1001
ACDBBLOCKREPETAG
1070
     1
1071
      126
1005
122D94
  0
LINE
  5
122D95
  8
OBJECT
 10
12080.0
 20
-261.99999999999909
 30
0.0
 11
12083.0
 21
-261.99999999999909
 31
0.0
1001
ACDBBLOCKREPETAG
1070
     1
1071
      127
1005
122D95
  0
ARC
  5
122D96
  8
OBJECT
 10
12083.0
 20
-258.99999999999909
 30
0.0
 40
3.0
 50
270.0
 51
0.0
1001
ACDBBLOCKREPETAG
1070
     1
1071
      128
1005
122D96
  0
LINE
  5
122D97
  8
OBJECT
 10
12086.0
 20
-258.99999999999909
 30
0.0
 11
12086.0
 21
-222.44994432063581
 31
0.0
1001
ACDBBLOCKREPETAG
1070
     1
1071
      129
1005
122D97
  0
LINE
  5
122D98
  8
OBJECT
 10
12086.0
 20
-177.55005567935859
 30
0.0
 11
12086.0
 21
-140.99999999999909
 31
0.0
1001
ACDBBLOCKREPETAG
1070
     1
1071
      130
1005
122D98
  0
LINE
  5
122D99
  8
HIDDEN
 10
12167.99999999998
 20
-155.49999999999909
 30
0.0
 11
12167.99999999998
 21
-244.49999999999909
 31
0.0
1001
ACDBBLOCKREPETAG
1070
     1
1071
      131
1005
122D99
  0
LINE
  5
122D9A
  8
OBJECT
 10
12159.999974964179
 20
-254.4999509238105
 30
0.0
 11
12159.999974964179
 21
-145.4999509238105
 31
0.0
1001
ACDBBLOCKREPETAG
1070
     1
1071
      133
1005
122D9A
  0
ARC
  5
122D9B
  8
OBJECT
 10
12125.0
 20
-199.99999999999909
 30
0.0
 40
45.000000000000547
 50
90.0
 51
270.0
1001
ACDBBLOCKREPETAG
1070
     1
1071
      134
1005
122D9B
  0
LINE
  5
122D9C
  8
OBJECT
 10
11787.0
 20
-553.0
 30
0.0
 11
11780.000000000009
 21
-553.0
 31
0.0
1001
ACDBBLOCKREPETAG
1070
     1
1071
      106
1005
122D9C
  0
LINE
  5
122D9D
  8
OBJECT
 10
11780.000000000009
 20
-553.0
 30
0.0
 11
11780.000000000009
 21
-677.0
 31
0.0
1001
ACDBBLOCKREPETAG
1070
     1
1071
      107
1005
122D9D
  0
LINE
  5
122D9E
  8
OBJECT
 10
11914.0
 20
-653.3502637757274
 30
0.0
 11
11914.0
 21
-755.00000000000102
 31
0.0
1001
ACDBBLOCKREPETAG
1070
     1
1071
      108
1005
122D9E
  0
LINE
  5
122D9F
  8
OBJECT
 10
11780.000000000009
 20
-677.0
 30
0.0
 11
11787.0
 21
-677.0
 31
0.0
1001
ACDBBLOCKREPETAG
1070
     1
1071
      109
1005
122D9F
  0
LINE
  5
122DA0
  8
OBJECT
 10
11787.0
 20
-677.0
 30
0.0
 11
11787.0
 21
-553.0
 31
0.0
1001
ACDBBLOCKREPETAG
1070
     1
1071
      110
1005
122DA0
  0
LINE
  5
122DA1
  8
CENTER
 10
11855.000000000009
 20
-615.0000000000008
 30
0.0
 11
11765.0
 21
-615.0
 31
0.0
1001
ACDBBLOCKREPETAG
1070
     1
1071
      111
1005
122DA1
  0
LINE
  5
122DA2
  8
OBJECT
 10
11920.00000000002
 20
-758.0
 30
0.0
 11
11917.000000000009
 21
-758.0000000000008
 31
0.0
1001
ACDBBLOCKREPETAG
1070
     1
1071
      112
1005
122DA2
  0
ARC
  5
122DA3
  8
OBJECT
 10
11917.000000000009
 20
-755.00000000000102
 30
0.0
 40
3.0
 50
180.0
 51
270.0
1001
ACDBBLOCKREPETAG
1070
     1
1071
      113
1005
122DA3
  0
LINE
  5
122DA4
  8
OBJECT
 10
11787.0
 20
-556.0
 30
0.0
 11
11823.000000000009
 21
-556.0000000000008
 31
0.0
1001
ACDBBLOCKREPETAG
1070
     1
1071
      114
1005
122DA4
  0
LINE
  5
122DA5
  8
OBJECT
 10
11823.000000000009
 20
-556.0000000000008
 30
0.0
 11
11823.000000000009
 21
-653.15756805667843
 31
0.0
1001
ACDBBLOCKREPETAG
1070
     1
1071
      115
1005
122DA5
  0
LINE
  5
122DA6
  8
OBJECT
 10
11827.0
 20
-560.5000000000008
 30
0.0
 11
11827.00000000002
 21
-645.74491827928705
 31
0.0
1001
ACDBBLOCKREPETAG
1070
     1
1071
      116
1005
122DA6
  0
LINE
  5
122DA7
  8
OBJECT
 10
11827.0
 20
-560.5000000000008
 30
0.0
 11
11840.000000000009
 21
-560.5000000000008
 31
0.0
1001
ACDBBLOCKREPETAG
1070
     1
1071
      117
1005
122DA7
  0
LINE
  5
122DA8
  8
OBJECT
 10
11831.343683174529
 20
-674.0000000000008
 30
0.0
 11
11787.0
 21
-674.0
 31
0.0
1001
ACDBBLOCKREPETAG
1070
     1
1071
      118
1005
122DA8
  0
LINE
  5
122DA9
  8
OBJECT
 10
11823.000000000009
 20
-556.0000000000008
 30
0.0
 11
11827.0
 21
-560.5000000000008
 31
0.0
1001
ACDBBLOCKREPETAG
1070
     1
1071
      119
1005
122DA9
  0
LINE
  5
122DAA
  8
OBJECT
 10
11840.000000000009
 20
-560.5000000000008
 30
0.0
 11
11840.000000000009
 21
-645.74491827928784
 31
0.0
1001
ACDBBLOCKREPETAG
1070
     1
1071
      120
1005
122DAA
  0
ARC
  5
122DAB
  8
OBJECT
 10
11908.0
 20
-637.27386365609345
 30
0.0
 40
85.0
 50
205.5991387218653
 51
231.40900676279119
1001
ACDBBLOCKREPETAG
1070
     1
1071
      121
1005
122DAB
  0
ARC
  5
122DAC
  8
OBJECT
 10
11837.20000000001
 20
-655.00000000000068
 30
0.0
 40
85.0
 50
19.925932125430649
 51
88.112268108168848
1001
ACDBBLOCKREPETAG
1070
     1
1071
      122
1005
122DAC
  0
LINE
  5
122DAD
  8
OBJECT
 10
11914.0
 20
-750.81075719270905
 30
0.0
 11
11854.9806774564
 21
-703.71143914629454
 31
0.0
1001
ACDBBLOCKREPETAG
1070
     1
1071
      123
1005
122DAD
  0
LINE
  5
122DAE
  8
OBJECT
 10
11827.00000000002
 20
-645.74491827928705
 30
0.0
 11
11840.000000000009
 21
-645.74491827928784
 31
0.0
1001
ACDBBLOCKREPETAG
1070
     1
1071
      124
1005
122DAE
  0
LINE
  5
122DAF
  8
OBJECT
 10
11823.000000000009
 20
-653.15756805667843
 30
0.0
 11
11827.00000000002
 21
-645.74491827928705
 31
0.0
1001
ACDBBLOCKREPETAG
1070
     1
1071
      125
1005
122DAF
  0
LINE
  5
122DB0
  8
OBJECT
 10
11919.99999999998
 20
-634.0
 30
0.0
 11
11917.111387840379
 21
-626.03156729425325
 31
0.0
1001
ACDBBLOCKREPETAG
1070
     1
1071
      126
1005
122DB0
  0
LINE
  5
122DB1
  8
OBJECT
 10
11919.99999999998
 20
-634.0
 30
0.0
 11
11914.0
 21
-653.3502637757274
 31
0.0
1001
ACDBBLOCKREPETAG
1070
     1
1071
      127
1005
122DB1
  0
LINE
  5
122DB2
  8
HIDDEN
 10
11832.0
 20
-570.5000000000008
 30
0.0
 11
11832.0
 21
-659.50000000000068
 31
0.0
1001
ACDBBLOCKREPETAG
1070
     1
1071
      129
1005
122DB2
  0
CIRCLE
  5
122DB3
  8
OBJECT
 10
12000.0
 20
-696.0
 30
0.0
 40
62.0
1001
ACDBBLOCKREPETAG
1070
     1
1071
        0
1005
122DB3
  0
LINE
  5
122DB4
  8
OBJECT
 10
12212.99999999998
 20
-553.0000000000008
 30
0.0
 11
12219.99999999998
 21
-553.0000000000008
 31
0.0
1001
ACDBBLOCKREPETAG
1070
     1
1071
      106
1005
122DB4
  0
LINE
  5
122DB5
  8
OBJECT
 10
12219.99999999998
 20
-553.0000000000008
 30
0.0
 11
12219.99999999998
 21
-677.0000000000008
 31
0.0
1001
ACDBBLOCKREPETAG
1070
     1
1071
      107
1005
122DB5
  0
LINE
  5
122DB6
  8
OBJECT
 10
12085.99999999998
 20
-653.3502637757274
 30
0.0
 11
12085.99999999998
 21
-755.00000000000102
 31
0.0
1001
ACDBBLOCKREPETAG
1070
     1
1071
      108
1005
122DB6
  0
LINE
  5
122DB7
  8
OBJECT
 10
12219.99999999998
 20
-677.0000000000008
 30
0.0
 11
12212.99999999998
 21
-677.0000000000008
 31
0.0
1001
ACDBBLOCKREPETAG
1070
     1
1071
      109
1005
122DB7
  0
LINE
  5
122DB8
  8
OBJECT
 10
12212.99999999998
 20
-677.0000000000008
 30
0.0
 11
12212.99999999998
 21
-553.0000000000008
 31
0.0
1001
ACDBBLOCKREPETAG
1070
     1
1071
      110
1005
122DB8
  0
LINE
  5
122DB9
  8
CENTER
 10
12144.99999999998
 20
-615.0000000000008
 30
0.0
 11
12234.99999999998
 21
-615.0000000000008
 31
0.0
1001
ACDBBLOCKREPETAG
1070
     1
1071
      111
1005
122DB9
  0
LINE
  5
122DBA
  8
OBJECT
 10
12079.99999999998
 20
-758.0
 30
0.0
 11
12082.99999999998
 21
-758.0000000000008
 31
0.0
1001
ACDBBLOCKREPETAG
1070
     1
1071
      112
1005
122DBA
  0
ARC
  5
122DBB
  8
OBJECT
 10
12082.99999999998
 20
-755.00000000000102
 30
0.0
 40
3.0
 50
270.0
 51
0.0
1001
ACDBBLOCKREPETAG
1070
     1
1071
      113
1005
122DBB
  0
LINE
  5
122DBC
  8
OBJECT
 10
12212.99999999998
 20
-556.0000000000008
 30
0.0
 11
12176.99999999998
 21
-556.0000000000008
 31
0.0
1001
ACDBBLOCKREPETAG
1070
     1
1071
      114
1005
122DBC
  0
LINE
  5
122DBD
  8
OBJECT
 10
12176.99999999998
 20
-556.0000000000008
 30
0.0
 11
12176.99999999998
 21
-653.15756805667843
 31
0.0
1001
ACDBBLOCKREPETAG
1070
     1
1071
      115
1005
122DBD
  0
LINE
  5
122DBE
  8
OBJECT
 10
12172.99999999998
 20
-560.5000000000008
 30
0.0
 11
12172.99999999998
 21
-645.74491827928705
 31
0.0
1001
ACDBBLOCKREPETAG
1070
     1
1071
      116
1005
122DBE
  0
LINE
  5
122DBF
  8
OBJECT
 10
12172.99999999998
 20
-560.5000000000008
 30
0.0
 11
12159.99999999998
 21
-560.5000000000008
 31
0.0
1001
ACDBBLOCKREPETAG
1070
     1
1071
      117
1005
122DBF
  0
LINE
  5
122DC0
  8
OBJECT
 10
12168.656316825471
 20
-674.0000000000008
 30
0.0
 11
12212.99999999998
 21
-674.0000000000008
 31
0.0
1001
ACDBBLOCKREPETAG
1070
     1
1071
      118
1005
122DC0
  0
LINE
  5
122DC1
  8
OBJECT
 10
12176.99999999998
 20
-556.0000000000008
 30
0.0
 11
12172.99999999998
 21
-560.5000000000008
 31
0.0
1001
ACDBBLOCKREPETAG
1070
     1
1071
      119
1005
122DC1
  0
LINE
  5
122DC2
  8
OBJECT
 10
12159.99999999998
 20
-560.5000000000008
 30
0.0
 11
12159.99999999998
 21
-645.74491827928784
 31
0.0
1001
ACDBBLOCKREPETAG
1070
     1
1071
      120
1005
122DC2
  0
ARC
  5
122DC3
  8
OBJECT
 10
12091.99999999998
 20
-637.27386365609345
 30
0.0
 40
85.0
 50
308.59099323720869
 51
334.4008612781347
1001
ACDBBLOCKREPETAG
1070
     1
1071
      121
1005
122DC3
  0
ARC
  5
122DC4
  8
OBJECT
 10
12162.799999999979
 20
-655.00000000000068
 30
0.0
 40
85.0
 50
91.887731891831123
 51
160.07406787456929
1001
ACDBBLOCKREPETAG
1070
     1
1071
      122
1005
122DC4
  0
LINE
  5
122DC5
  8
OBJECT
 10
12085.99999999998
 20
-750.81075719270905
 30
0.0
 11
12145.0193225436
 21
-703.71143914629454
 31
0.0
1001
ACDBBLOCKREPETAG
1070
     1
1071
      123
1005
122DC5
  0
LINE
  5
122DC6
  8
OBJECT
 10
12172.99999999998
 20
-645.74491827928705
 30
0.0
 11
12159.99999999998
 21
-645.74491827928784
 31
0.0
1001
ACDBBLOCKREPETAG
1070
     1
1071
      124
1005
122DC6
  0
LINE
  5
122DC7
  8
OBJECT
 10
12176.99999999998
 20
-653.15756805667843
 30
0.0
 11
12172.99999999998
 21
-645.74491827928705
 31
0.0
1001
ACDBBLOCKREPETAG
1070
     1
1071
      125
1005
122DC7
  0
LINE
  5
122DC8
  8
OBJECT
 10
12080.00000000002
 20
-634.0
 30
0.0
 11
12082.888612159621
 21
-626.03156729425325
 31
0.0
1001
ACDBBLOCKREPETAG
1070
     1
1071
      126
1005
122DC8
  0
LINE
  5
122DC9
  8
OBJECT
 10
12080.00000000002
 20
-634.0
 30
0.0
 11
12085.99999999998
 21
-653.3502637757274
 31
0.0
1001
ACDBBLOCKREPETAG
1070
     1
1071
      127
1005
122DC9
  0
LINE
  5
122DCA
  8
HIDDEN
 10
12167.99999999998
 20
-570.5000000000008
 30
0.0
 11
12167.99999999998
 21
-659.50000000000068
 31
0.0
1001
ACDBBLOCKREPETAG
1070
     1
1071
      129
1005
122DCA
  0
LINE
  5
122DCB
  8
OBJECT
 10
9923.0
 20
-570.99999999999432
 30
0.0
 11
9923.0
 21
-549.99999999999432
 31
0.0
1001
ACDBBLOCKREPETAG
1070
     1
1071
       36
1005
122DCB
  0
LINE
  5
122DCC
  8
OBJECT
 10
9923.0
 20
-549.99999999999432
 30
0.0
 11
10077.0
 21
-549.99999999999432
 31
0.0
1001
ACDBBLOCKREPETAG
1070
     1
1071
       37
1005
122DCC
  0
LINE
  5
122DCD
  8
HIDDEN
 10
9943.0
 20
-619.99999999999432
 30
0.0
 11
10057.0
 21
-619.99999999999432
 31
0.0
1001
ACDBBLOCKREPETAG
1070
     1
1071
       38
1005
122DCD
  0
LINE
  5
122DCE
  8
OBJECT
 10
10077.0
 20
-549.99999999999432
 30
0.0
 11
10077.0
 21
-570.99999999999432
 31
0.0
1001
ACDBBLOCKREPETAG
1070
     1
1071
       39
1005
122DCE
  0
LINE
  5
122DCF
  8
OBJECT
 10
10077.0
 20
-570.99999999999432
 30
0.0
 11
9923.0
 21
-570.99999999999432
 31
0.0
1001
ACDBBLOCKREPETAG
1070
     1
1071
       40
1005
122DCF
  0
LINE
  5
122DD0
  8
CENTER
 10
10000.0
 20
-534.99999999999432
 30
0.0
 11
10000.0
 21
-769.9999999999942
 31
0.0
1001
ACDBBLOCKREPETAG
1070
     1
1071
       41
1005
122DD0
  0
LINE
  5
122DD1
  8
OBJECT
 10
9928.0
 20
-570.99999999999432
 30
0.0
 11
9928.0
 21
-633.99999999999432
 31
0.0
1001
ACDBBLOCKREPETAG
1070
     1
1071
       42
1005
122DD1
  0
LINE
  5
122DD2
  8
OBJECT
 10
10072.0
 20
-633.99999999999432
 30
0.0
 11
10072.0
 21
-570.99999999999432
 31
0.0
1001
ACDBBLOCKREPETAG
1070
     1
1071
       43
1005
122DD2
  0
LINE
  5
122DD3
  8
OBJECT
 10
9920.0
 20
-757.9999999999942
 30
0.0
 11
10080.0
 21
-757.9999999999942
 31
0.0
1001
ACDBBLOCKREPETAG
1070
     1
1071
       44
1005
122DD3
  0
LINE
  5
122DD4
  8
OBJECT
 10
10080.0
 20
-633.99999999999432
 30
0.0
 11
9920.0
 21
-633.99999999999432
 31
0.0
1001
ACDBBLOCKREPETAG
1070
     1
1071
       45
1005
122DD4
  0
LINE
  5
122DD5
  8
OBJECT
 10
9920.0
 20
-757.9999999999942
 30
0.0
 11
9920.0
 21
-769.9999999999942
 31
0.0
1001
ACDBBLOCKREPETAG
1070
     1
1071
       46
1005
122DD5
  0
LINE
  5
122DD6
  8
OBJECT
 10
9920.0
 20
-769.9999999999942
 30
0.0
 11
10080.0
 21
-769.9999999999942
 31
0.0
1001
ACDBBLOCKREPETAG
1070
     1
1071
       47
1005
122DD6
  0
LINE
  5
122DD7
  8
OBJECT
 10
10080.0
 20
-769.9999999999942
 30
0.0
 11
10080.0
 21
-757.9999999999942
 31
0.0
1001
ACDBBLOCKREPETAG
1070
     1
1071
       48
1005
122DD7
  0
ARC
  5
122DD8
  8
OBJECT
 10
10200.687274671671
 20
-749.40809941010195
 30
0.0
 40
170.6350503965856
 50
137.44134459184301
 51
149.91949581337221
1001
ACDBBLOCKREPETAG
1070
     1
1071
       52
1005
122DD8
  0
ARC
  5
122DD9
  8
OBJECT
 10
10200.687274671671
 20
-642.59190058988645
 30
0.0
 40
170.6350503965856
 50
210.08050418662771
 51
222.55865540815699
1001
ACDBBLOCKREPETAG
1070
     1
1071
       53
1005
122DD9
  0
ARC
  5
122DDA
  8
OBJECT
 10
9799.3127253283274
 20
-749.40809941010195
 30
0.0
 40
170.6350503965856
 50
30.080504186787142
 51
42.558655408456282
1001
ACDBBLOCKREPETAG
1070
     1
1071
       54
1005
122DDA
  0
ARC
  5
122DDB
  8
OBJECT
 10
9799.3127253283274
 20
-642.59190058988645
 30
0.0
 40
170.6350503965856
 50
317.44134459154373
 51
329.9194958132129
1001
ACDBBLOCKREPETAG
1070
     1
1071
       55
1005
122DDB
  0
POINT
  5
122DDC
  8
DOTS
 10
10000.0
 20
-754.9999999999942
 30
0.0
1001
ACDBBLOCKREPETAG
1070
     1
1071
      184
1005
122DDC
  0
LINE
  5
122DDD
  8
SLIM
 10
9945.2566704261044
 20
-137.99999999999909
 30
0.0
 11
9955.9548403695771
 21
-127.30183005652231
 31
0.0
1001
GRADIENTCOLOR1ACI
1070
     5
1001
GRADIENTCOLOR2ACI
1070
     2
1001
ACAD
1010
0.0
1020
0.0
1030
0.0
1001
ACDBBLOCKREPETAG
1070
     1
1071
      428
1005
122DDD
  0
LINE
  5
122DDE
  8
SLIM
 10
9954.2369265471734
 20
-137.99999999999909
 30
0.0
 11
9972.7507744763316
 21
-119.4861520708364
 31
0.0
1001
GRADIENTCOLOR1ACI
1070
     5
1001
GRADIENTCOLOR2ACI
1070
     2
1001
ACAD
1010
0.0
1020
0.0
1030
0.0
1001
ACDBBLOCKREPETAG
1070
     1
1071
      429
1005
122DDE
  0
LINE
  5
122DDF
  8
SLIM
 10
9973.5212243124606
 20
-127.6959583557812
 30
0.0
 11
9984.8575146748644
 21
-116.359667993377
 31
0.0
1001
GRADIENTCOLOR1ACI
1070
     5
1001
GRADIENTCOLOR2ACI
1070
     2
1001
ACAD
1010
0.0
1020
0.0
1030
0.0
1001
ACDBBLOCKREPETAG
1070
     1
1071
      430
1005
122DDF
  0
LINE
  5
122DE0
  8
SLIM
 10
9985.8944171461262
 20
-124.30302164318159
 30
0.0
 11
9995.0533812002577
 21
-115.1440575890517
 31
0.0
1001
GRADIENTCOLOR1ACI
1070
     5
1001
GRADIENTCOLOR2ACI
1070
     2
1001
ACAD
1010
0.0
1020
0.0
1030
0.0
1001
ACDBBLOCKREPETAG
1070
     1
1071
      431
1005
122DE0
  0
LINE
  5
122DE1
  8
SLIM
 10
9996.0777327492033
 20
-123.0999621611699
 30
0.0
 11
10000.0
 21
-119.1776949103767
 31
0.0
1001
GRADIENTCOLOR1ACI
1070
     5
1001
GRADIENTCOLOR2ACI
1070
     2
1001
ACAD
1010
0.0
1020
0.0
1030
0.0
1001
ACDBBLOCKREPETAG
1070
     1
1071
      432
1005
122DE1
  0
LINE
  5
122DE2
  8
SLIM
 10
10000.0
 20
-119.1776949103767
 30
0.0
 11
10004.0797313529
 21
-115.0979635574724
 31
0.0
1001
GRADIENTCOLOR1ACI
1070
     5
1001
GRADIENTCOLOR2ACI
1070
     2
1001
ACAD
1010
0.0
1020
0.0
1030
0.0
1001
ACDBBLOCKREPETAG
1070
     1
1071
      433
1005
122DE2
  0
LINE
  5
122DE3
  8
SLIM
 10
10004.99572025427
 20
-123.1622307771683
 30
0.0
 11
10012.26797841056
 21
-115.88997262087101
 31
0.0
1001
GRADIENTCOLOR1ACI
1070
     5
1001
GRADIENTCOLOR2ACI
1070
     2
1001
ACAD
1010
0.0
1020
0.0
1030
0.0
1001
ACDBBLOCKREPETAG
1070
     1
1071
      434
1005
122DE3
  0
LINE
  5
122DE4
  8
SLIM
 10
10013.028059366959
 20
-124.1101477855505
 30
0.0
 11
10019.799941457361
 21
-117.3382656951526
 31
0.0
1001
GRADIENTCOLOR1ACI
1070
     5
1001
GRADIENTCOLOR2ACI
1070
     2
1001
ACAD
1010
0.0
1020
0.0
1030
0.0
1001
ACDBBLOCKREPETAG
1070
     1
1071
      435
1005
122DE4
  0
LINE
  5
122DE5
  8
SLIM
 10
10020.374081314239
 20
-125.7443819593383
 30
0.0
 11
10026.787203867279
 21
-119.3312594063044
 31
0.0
1001
GRADIENTCOLOR1ACI
1070
     5
1001
GRADIENTCOLOR2ACI
1070
     2
1001
ACAD
1010
0.0
1020
0.0
1030
0.0
1001
ACDBBLOCKREPETAG
1070
     1
1071
      436
1005
122DE5
  0
LINE
  5
122DE6
  8
SLIM
 10
10027.15247199887
 20
-127.946247395778
 30
0.0
 11
10033.303003076029
 21
-121.7957163186195
 31
0.0
1001
GRADIENTCOLOR1ACI
1070
     5
1001
GRADIENTCOLOR2ACI
1070
     2
1001
ACAD
1010
0.0
1020
0.0
1030
0.0
1001
ACDBBLOCKREPETAG
1070
     1
1071
      437
1005
122DE6
  0
LINE
  5
122DE7
  8
SLIM
 10
10033.43909865133
 20
-130.63987686439191
 30
0.0
 11
10039.39731198437
 21
-124.6816635313439
 31
0.0
1001
GRADIENTCOLOR1ACI
1070
     5
1001
GRADIENTCOLOR2ACI
1070
     2
1001
ACAD
1010
0.0
1020
0.0
1030
0.0
1001
ACDBBLOCKREPETAG
1070
     1
1071
      438
1005
122DE7
  0
LINE
  5
122DE8
  8
SLIM
 10
10039.284224621801
 20
-133.77500701499321
 30
0.0
 11
10045.104770534361
 21
-127.95446110242381
 31
0.0
1001
GRADIENTCOLOR1ACI
1070
     5
1001
GRADIENTCOLOR2ACI
1070
     2
1001
ACAD
1010
0.0
1020
0.0
1030
0.0
1001
ACDBBLOCKREPETAG
1070
     1
1071
      439
1005
122DE8
  0
LINE
  5
122DE9
  8
SLIM
 10
10044.721280169801
 20
-137.31820758805651
 30
0.0
 11
10050.449155789191
 21
-131.59033196866449
 31
0.0
1001
GRADIENTCOLOR1ACI
1070
     5
1001
GRADIENTCOLOR2ACI
1070
     2
1001
ACAD
1010
0.0
1020
0.0
1030
0.0
1001
ACDBBLOCKREPETAG
1070
     1
1071
      440
1005
122DE9
  0
LINE
  5
122DEA
  8
SLIM
 10
10053.019743878929
 20
-137.99999999999909
 30
0.0
 11
10055.445994186401
 21
-135.57374969252561
 31
0.0
1001
GRADIENTCOLOR1ACI
1070
     5
1001
GRADIENTCOLOR2ACI
1070
     2
1001
ACAD
1010
0.0
1020
0.0
1030
0.0
1001
ACDBBLOCKREPETAG
1070
     1
1071
      441
1005
122DEA
  0
LINE
  5
122DEB
  8
CENTER
 10
10000.0
 20
-279.99999999999909
 30
0.0
 11
10000.0
 21
-99.999999999999091
 31
0.0
1001
ACDBBLOCKREPETAG
1070
     1
1071
      160
1005
122DEB
  0
CIRCLE
  5
122DEC
  8
OBJECT
 10
10000.0
 20
-199.99999999999909
 30
0.0
 40
70.0
1001
ACDBBLOCKREPETAG
1070
     1
1071
      161
1005
122DEC
  0
CIRCLE
  5
122DED
  8
OBJECT
 10
10000.0
 20
-199.99999999999909
 30
0.0
 40
77.0
1001
ACDBBLOCKREPETAG
1070
     1
1071
      162
1005
122DED
  0
LINE
  5
122DEE
  8
OBJECT
 10
10045.661800227321
 20
-137.99999999999909
 30
0.0
 11
10080.0
 21
-137.99999999999909
 31
0.0
1001
ACDBBLOCKREPETAG
1070
     1
1071
      164
1005
122DEE
  0
LINE
  5
122DEF
  8
OBJECT
 10
10062.0
 20
-261.99999999999909
 30
0.0
 11
10080.0
 21
-261.99999999999909
 31
0.0
1001
ACDBBLOCKREPETAG
1070
     1
1071
      165
1005
122DEF
  0
LINE
  5
122DF0
  8
OBJECT
 10
10062.0
 20
-261.99999999999909
 30
0.0
 11
10062.0
 21
-279.99999999999909
 31
0.0
1001
ACDBBLOCKREPETAG
1070
     1
1071
      167
1005
122DF0
  0
LINE
  5
122DF1
  8
OBJECT
 10
9938.0
 20
-261.99999999999909
 30
0.0
 11
9938.0
 21
-279.99999999999909
 31
0.0
1001
ACDBBLOCKREPETAG
1070
     1
1071
      168
1005
122DF1
  0
LINE
  5
122DF2
  8
OBJECT
 10
9938.0
 20
-261.99999999999909
 30
0.0
 11
9920.0
 21
-261.99999999999909
 31
0.0
1001
ACDBBLOCKREPETAG
1070
     1
1071
      170
1005
122DF2
  0
LINE
  5
122DF3
  8
OBJECT
 10
9954.3381997726756
 20
-137.99999999999909
 30
0.0
 11
9920.0
 21
-137.99999999999909
 31
0.0
1001
ACDBBLOCKREPETAG
1070
     1
1071
      171
1005
122DF3
  0
LINE
  5
122DF4
  8
OBJECT
 10
9945.5527778486357
 20
-254.44722215136329
 30
0.0
 11
9938.0
 21
-261.99999999999909
 31
0.0
1001
ACDBBLOCKREPETAG
1070
     1
1071
      180
1005
122DF4
  0
LINE
  5
122DF5
  8
OBJECT
 10
10054.447222151361
 20
-254.44722215136329
 30
0.0
 11
10062.0
 21
-261.99999999999909
 31
0.0
1001
ACDBBLOCKREPETAG
1070
     1
1071
      181
1005
122DF5
  0
ARC
  5
122DF6
  8
OBJECT
 10
10000.0
 20
-199.99999999999909
 30
0.0
 40
85.0
 50
46.837102859844251
 51
133.16289714015571
1001
ACDBBLOCKREPETAG
1070
     1
1071
      183
1005
122DF6
  0
LINE
  5
122DF7
  8
OBJECT
 10
10024.1029330933
 20
-243.80694712371681
 30
0.0
 11
10020.659656999989
 21
-232.55462199999889
 31
0.0
1001
ACDBBLOCKREPETAG
1070
     1
1071
      314
1005
122DF7
  0
LINE
  5
122DF8
  8
OBJECT
 10
9986.7927499013749
 20
-218.22553374208019
 30
0.0
 11
10020.659656999989
 21
-232.5546219999969
 31
0.0
1001
ACDBBLOCKREPETAG
1070
     1
1071
      316
1005
122DF8
  0
ARC
  5
122DF9
  8
OBJECT
 10
9982.8961697618997
 20
-227.4351299990567
 30
0.0
 40
10.0
 50
67.066778292911366
 51
154.01473437031629
1001
ACDBBLOCKREPETAG
1070
     1
1071
      317
1005
122DF9
  0
ARC
  5
122DFA
  8
OBJECT
 10
9986.1488390381292
 20
-225.55386256729159
 30
0.0
 40
7.0
 50
67.066778292911366
 51
154.0147337749826
1001
ACDBBLOCKREPETAG
1070
     1
1071
      318
1005
122DFA
  0
LINE
  5
122DFB
  8
OBJECT
 10
9969.4199755553
 20
-243.89888500818171
 30
0.0
 11
9979.8564918232369
 21
-222.48688253356801
 31
0.0
1001
ACDBBLOCKREPETAG
1070
     1
1071
      349
1005
122DFB
  0
LINE
  5
122DFC
  8
OBJECT
 10
9965.2972169006098
 20
-240.71813901882729
 30
0.0
 11
9973.9071022665084
 21
-223.05373004430751
 31
0.0
1001
ACDBBLOCKREPETAG
1070
     1
1071
      350
1005
122DFC
  0
ARC
  5
122DFD
  8
OBJECT
 10
9976.5796953073132
 20
-207.1289369828437
 30
0.0
 40
60.031113246032611
 50
314.07020130422319
 51
322.33936106089681
1001
ACDBBLOCKREPETAG
1070
     1
1071
      351
1005
122DFD
  0
CIRCLE
  5
122DFE
  8
OBJECT
 10
10000.0
 20
-199.99999999999909
 30
0.0
 40
53.5
1001
ACDBBLOCKREPETAG
1070
     1
1071
      352
1005
122DFE
  0
POINT
  5
122DFF
  8
DOTS
 10
10000.0
 20
-199.99999999999909
 30
0.0
 50
270.0
1001
ACDBBLOCKREPETAG
1070
     1
1071
      364
1005
122DFF
  0
ARC
  5
122E00
  8
OBJECT
 10
10000.0
 20
-199.99999999999909
 30
0.0
 40
50.0
 50
298.81994300000417
 51
228.5237695596397
1001
ACDBBLOCKREPETAG
1070
     1
1071
      157
1005
122E00
  0
LINE
  5
122E01
  8
CENTER
 10
10080.0
 20
-199.99999999999909
 30
0.0
 11
9920.0
 21
-199.99999999999909
 31
0.0
1001
ACDBBLOCKREPETAG
1070
     1
1071
      158
1005
122E01
  0
LINE
  5
122E02
  8
OBJECT
 10
9787.00000000002
 20
-137.99999999999909
 30
0.0
 11
9780.0000000000182
 21
-137.99999999999909
 31
0.0
1001
ACDBBLOCKREPETAG
1070
     1
1071
      110
1005
122E02
  0
LINE
  5
122E03
  8
OBJECT
 10
9780.0000000000182
 20
-137.99999999999909
 30
0.0
 11
9780.0000000000182
 21
-261.99999999999909
 31
0.0
1001
ACDBBLOCKREPETAG
1070
     1
1071
      111
1005
122E03
  0
LINE
  5
122E04
  8
OBJECT
 10
9780.0000000000182
 20
-261.99999999999909
 30
0.0
 11
9787.00000000002
 21
-261.99999999999909
 31
0.0
1001
ACDBBLOCKREPETAG
1070
     1
1071
      112
1005
122E04
  0
LINE
  5
122E05
  8
OBJECT
 10
9787.00000000002
 20
-261.99999999999909
 30
0.0
 11
9787.00000000002
 21
-137.99999999999909
 31
0.0
1001
ACDBBLOCKREPETAG
1070
     1
1071
      113
1005
122E05
  0
LINE
  5
122E06
  8
CENTER
 10
9765.0000000000218
 20
-199.99999999999909
 30
0.0
 11
9920.0
 21
-199.99999999999909
 31
0.0
1001
ACDBBLOCKREPETAG
1070
     1
1071
      114
1005
122E06
  0
LINE
  5
122E07
  8
OBJECT
 10
9840.0000250358207
 20
-245.0000000000027
 30
0.0
 11
9914.0000000000055
 21
-244.99999999999909
 31
0.0
1001
ACDBBLOCKREPETAG
1070
     1
1071
      115
1005
122E07
  0
LINE
  5
122E08
  8
OBJECT
 10
9840.0000250358207
 20
-154.99999999999909
 30
0.0
 11
9914.0000000000055
 21
-154.99999999999909
 31
0.0
1001
ACDBBLOCKREPETAG
1070
     1
1071
      116
1005
122E08
  0
LINE
  5
122E09
  8
OBJECT
 10
9787.00000000002
 20
-140.99999999999909
 30
0.0
 11
9823.0000000000182
 21
-140.99999999999909
 31
0.0
1001
ACDBBLOCKREPETAG
1070
     1
1071
      117
1005
122E09
  0
LINE
  5
122E0A
  8
OBJECT
 10
9823.0000000000182
 20
-140.99999999999909
 30
0.0
 11
9823.0000000000182
 21
-258.99999999999909
 31
0.0
1001
ACDBBLOCKREPETAG
1070
     1
1071
      118
1005
122E0A
  0
LINE
  5
122E0B
  8
OBJECT
 10
9823.0000000000182
 20
-258.99999999999909
 30
0.0
 11
9787.00000000002
 21
-258.99999999999909
 31
0.0
1001
ACDBBLOCKREPETAG
1070
     1
1071
      119
1005
122E0B
  0
LINE
  5
122E0C
  8
OBJECT
 10
9827.0000000000182
 20
-145.49999999999909
 30
0.0
 11
9840.0000000000182
 21
-145.49999999999909
 31
0.0
1001
ACDBBLOCKREPETAG
1070
     1
1071
      120
1005
122E0C
  0
LINE
  5
122E0D
  8
OBJECT
 10
9840.0000000000182
 20
-254.49999999999909
 30
0.0
 11
9827.0000000000182
 21
-254.49999999999909
 31
0.0
1001
ACDBBLOCKREPETAG
1070
     1
1071
      121
1005
122E0D
  0
LINE
  5
122E0E
  8
OBJECT
 10
9827.0000000000182
 20
-254.49999999999909
 30
0.0
 11
9827.0000000000182
 21
-145.49999999999909
 31
0.0
1001
ACDBBLOCKREPETAG
1070
     1
1071
      122
1005
122E0E
  0
LINE
  5
122E0F
  8
OBJECT
 10
9823.0000000000182
 20
-140.99999999999909
 30
0.0
 11
9827.0000000000182
 21
-145.49999999999909
 31
0.0
1001
ACDBBLOCKREPETAG
1070
     1
1071
      123
1005
122E0F
  0
LINE
  5
122E10
  8
OBJECT
 10
9823.0000000000182
 20
-258.99999999999909
 30
0.0
 11
9827.0000000000182
 21
-254.49999999999909
 31
0.0
1001
ACDBBLOCKREPETAG
1070
     1
1071
      124
1005
122E10
  0
LINE
  5
122E11
  8
OBJECT
 10
9917.0000000000055
 20
-137.99999999999909
 30
0.0
 11
9920.0000000000055
 21
-137.99999999999909
 31
0.0
1001
ACDBBLOCKREPETAG
1070
     1
1071
      125
1005
122E11
  0
ARC
  5
122E12
  8
OBJECT
 10
9917.0000000000055
 20
-140.99999999999909
 30
0.0
 40
3.0
 50
90.0
 51
180.0
1001
ACDBBLOCKREPETAG
1070
     1
1071
      126
1005
122E12
  0
LINE
  5
122E13
  8
OBJECT
 10
9920.0000000000055
 20
-261.99999999999909
 30
0.0
 11
9917.0000000000055
 21
-261.99999999999909
 31
0.0
1001
ACDBBLOCKREPETAG
1070
     1
1071
      127
1005
122E13
  0
ARC
  5
122E14
  8
OBJECT
 10
9917.0000000000055
 20
-258.99999999999909
 30
0.0
 40
3.0
 50
180.0
 51
270.0
1001
ACDBBLOCKREPETAG
1070
     1
1071
      128
1005
122E14
  0
LINE
  5
122E15
  8
OBJECT
 10
9914.0000000000055
 20
-258.99999999999909
 30
0.0
 11
9914.0000000000055
 21
-222.44994432063581
 31
0.0
1001
ACDBBLOCKREPETAG
1070
     1
1071
      129
1005
122E15
  0
LINE
  5
122E16
  8
OBJECT
 10
9914.0000000000055
 20
-177.55005567935859
 30
0.0
 11
9914.0000000000055
 21
-140.99999999999909
 31
0.0
1001
ACDBBLOCKREPETAG
1070
     1
1071
      130
1005
122E16
  0
LINE
  5
122E17
  8
HIDDEN
 10
9832.0000000000182
 20
-155.49999999999909
 30
0.0
 11
9832.0000000000182
 21
-244.49999999999909
 31
0.0
1001
ACDBBLOCKREPETAG
1070
     1
1071
      131
1005
122E17
  0
LINE
  5
122E18
  8
OBJECT
 10
9840.0000250358207
 20
-254.4999509238105
 30
0.0
 11
9840.0000250358207
 21
-145.4999509238105
 31
0.0
1001
ACDBBLOCKREPETAG
1070
     1
1071
      133
1005
122E18
  0
ARC
  5
122E19
  8
OBJECT
 10
9875.0
 20
-199.99999999999909
 30
0.0
 40
45.000000000000547
 50
270.0
 51
90.0
1001
ACDBBLOCKREPETAG
1070
     1
1071
      134
1005
122E19
  0
LINE
  5
122E1A
  8
CENTER
 10
10000.0
 20
-300.99999999999898
 30
0.0
 11
10000.0
 21
-279.99999999999909
 31
0.0
1001
ACDBBLOCKREPETAG
1070
     1
1071
        0
1005
122E1A
  0
LINE
  5
122E1B
  8
OBJECT
 10
10062.0
 20
-283.0
 30
0.0
 11
10062.0
 21
-279.99999999999909
 31
0.0
1001
ACDBBLOCKREPETAG
1070
     1
1071
        1
1005
122E1B
  0
ARC
  5
122E1C
  8
OBJECT
 10
10059.0
 20
-283.0
 30
0.0
 40
3.0
 50
270.0
 51
0.0
1001
ACDBBLOCKREPETAG
1070
     1
1071
        2
1005
122E1C
  0
LINE
  5
122E1D
  8
OBJECT
 10
9938.0
 20
-279.99999999999909
 30
0.0
 11
9938.0
 21
-282.99999999999818
 31
0.0
1001
ACDBBLOCKREPETAG
1070
     1
1071
        3
1005
122E1D
  0
ARC
  5
122E1E
  8
OBJECT
 10
9941.0
 20
-282.99999999999818
 30
0.0
 40
3.0
 50
180.0
 51
270.0
1001
ACDBBLOCKREPETAG
1070
     1
1071
        4
1005
122E1E
  0
LINE
  5
122E1F
  8
OBJECT
 10
9941.0
 20
-285.99999999999818
 30
0.0
 11
10059.0
 21
-286.0
 31
0.0
1001
ACDBBLOCKREPETAG
1070
     1
1071
        5
1005
122E1F
  0
LINE
  5
122E20
  8
OBJECT
 10
10212.99999999998
 20
-137.99999999999909
 30
0.0
 11
10219.99999999998
 21
-137.99999999999909
 31
0.0
1001
ACDBBLOCKREPETAG
1070
     1
1071
      110
1005
122E20
  0
LINE
  5
122E21
  8
OBJECT
 10
10219.99999999998
 20
-137.99999999999909
 30
0.0
 11
10219.99999999998
 21
-261.99999999999909
 31
0.0
1001
ACDBBLOCKREPETAG
1070
     1
1071
      111
1005
122E21
  0
LINE
  5
122E22
  8
OBJECT
 10
10219.99999999998
 20
-261.99999999999909
 30
0.0
 11
10212.99999999998
 21
-261.99999999999909
 31
0.0
1001
ACDBBLOCKREPETAG
1070
     1
1071
      112
1005
122E22
  0
LINE
  5
122E23
  8
OBJECT
 10
10212.99999999998
 20
-261.99999999999909
 30
0.0
 11
10212.99999999998
 21
-137.99999999999909
 31
0.0
1001
ACDBBLOCKREPETAG
1070
     1
1071
      113
1005
122E23
  0
LINE
  5
122E24
  8
CENTER
 10
10234.99999999998
 20
-199.99999999999909
 30
0.0
 11
10080.0
 21
-199.99999999999909
 31
0.0
1001
ACDBBLOCKREPETAG
1070
     1
1071
      114
1005
122E24
  0
LINE
  5
122E25
  8
OBJECT
 10
10159.999974964179
 20
-245.0000000000027
 30
0.0
 11
10086.0
 21
-244.99999999999909
 31
0.0
1001
ACDBBLOCKREPETAG
1070
     1
1071
      115
1005
122E25
  0
LINE
  5
122E26
  8
OBJECT
 10
10159.999974964179
 20
-154.99999999999909
 30
0.0
 11
10086.0
 21
-154.99999999999909
 31
0.0
1001
ACDBBLOCKREPETAG
1070
     1
1071
      116
1005
122E26
  0
LINE
  5
122E27
  8
OBJECT
 10
10212.99999999998
 20
-140.99999999999909
 30
0.0
 11
10176.99999999998
 21
-140.99999999999909
 31
0.0
1001
ACDBBLOCKREPETAG
1070
     1
1071
      117
1005
122E27
  0
LINE
  5
122E28
  8
OBJECT
 10
10176.99999999998
 20
-140.99999999999909
 30
0.0
 11
10176.99999999998
 21
-258.99999999999909
 31
0.0
1001
ACDBBLOCKREPETAG
1070
     1
1071
      118
1005
122E28
  0
LINE
  5
122E29
  8
OBJECT
 10
10176.99999999998
 20
-258.99999999999909
 30
0.0
 11
10212.99999999998
 21
-258.99999999999909
 31
0.0
1001
ACDBBLOCKREPETAG
1070
     1
1071
      119
1005
122E29
  0
LINE
  5
122E2A
  8
OBJECT
 10
10172.99999999998
 20
-145.49999999999909
 30
0.0
 11
10159.99999999998
 21
-145.49999999999909
 31
0.0
1001
ACDBBLOCKREPETAG
1070
     1
1071
      120
1005
122E2A
  0
LINE
  5
122E2B
  8
OBJECT
 10
10159.99999999998
 20
-254.49999999999909
 30
0.0
 11
10172.99999999998
 21
-254.49999999999909
 31
0.0
1001
ACDBBLOCKREPETAG
1070
     1
1071
      121
1005
122E2B
  0
LINE
  5
122E2C
  8
OBJECT
 10
10172.99999999998
 20
-254.49999999999909
 30
0.0
 11
10172.99999999998
 21
-145.49999999999909
 31
0.0
1001
ACDBBLOCKREPETAG
1070
     1
1071
      122
1005
122E2C
  0
LINE
  5
122E2D
  8
OBJECT
 10
10176.99999999998
 20
-140.99999999999909
 30
0.0
 11
10172.99999999998
 21
-145.49999999999909
 31
0.0
1001
ACDBBLOCKREPETAG
1070
     1
1071
      123
1005
122E2D
  0
LINE
  5
122E2E
  8
OBJECT
 10
10176.99999999998
 20
-258.99999999999909
 30
0.0
 11
10172.99999999998
 21
-254.49999999999909
 31
0.0
1001
ACDBBLOCKREPETAG
1070
     1
1071
      124
1005
122E2E
  0
LINE
  5
122E2F
  8
OBJECT
 10
10083.0
 20
-137.99999999999909
 30
0.0
 11
10080.0
 21
-137.99999999999909
 31
0.0
1001
ACDBBLOCKREPETAG
1070
     1
1071
      125
1005
122E2F
  0
ARC
  5
122E30
  8
OBJECT
 10
10083.0
 20
-140.99999999999909
 30
0.0
 40
3.0
 50
0.0
 51
90.0
1001
ACDBBLOCKREPETAG
1070
     1
1071
      126
1005
122E30
  0
LINE
  5
122E31
  8
OBJECT
 10
10080.0
 20
-261.99999999999909
 30
0.0
 11
10083.0
 21
-261.99999999999909
 31
0.0
1001
ACDBBLOCKREPETAG
1070
     1
1071
      127
1005
122E31
  0
ARC
  5
122E32
  8
OBJECT
 10
10083.0
 20
-258.99999999999909
 30
0.0
 40
3.0
 50
270.0
 51
0.0
1001
ACDBBLOCKREPETAG
1070
     1
1071
      128
1005
122E32
  0
LINE
  5
122E33
  8
OBJECT
 10
10086.0
 20
-258.99999999999909
 30
0.0
 11
10086.0
 21
-222.44994432063581
 31
0.0
1001
ACDBBLOCKREPETAG
1070
     1
1071
      129
1005
122E33
  0
LINE
  5
122E34
  8
OBJECT
 10
10086.0
 20
-177.55005567935859
 30
0.0
 11
10086.0
 21
-140.99999999999909
 31
0.0
1001
ACDBBLOCKREPETAG
1070
     1
1071
      130
1005
122E34
  0
LINE
  5
122E35
  8
HIDDEN
 10
10167.99999999998
 20
-155.49999999999909
 30
0.0
 11
10167.99999999998
 21
-244.49999999999909
 31
0.0
1001
ACDBBLOCKREPETAG
1070
     1
1071
      131
1005
122E35
  0
LINE
  5
122E36
  8
OBJECT
 10
10159.999974964179
 20
-254.4999509238105
 30
0.0
 11
10159.999974964179
 21
-145.4999509238105
 31
0.0
1001
ACDBBLOCKREPETAG
1070
     1
1071
      133
1005
122E36
  0
ARC
  5
122E37
  8
OBJECT
 10
10125.0
 20
-199.99999999999909
 30
0.0
 40
45.000000000000547
 50
90.0
 51
270.0
1001
ACDBBLOCKREPETAG
1070
     1
1071
      134
1005
122E37
  0
LINE
  5
122E38
  8
OBJECT
 10
9787.0000000000127
 20
-553.0
 30
0.0
 11
9780.0000000000127
 21
-553.0
 31
0.0
1001
ACDBBLOCKREPETAG
1070
     1
1071
      106
1005
122E38
  0
LINE
  5
122E39
  8
OBJECT
 10
9780.0000000000127
 20
-553.0
 30
0.0
 11
9780.0000000000127
 21
-677.0
 31
0.0
1001
ACDBBLOCKREPETAG
1070
     1
1071
      107
1005
122E39
  0
LINE
  5
122E3A
  8
OBJECT
 10
9914.0000000000127
 20
-653.3502637757274
 30
0.0
 11
9914.0000000000127
 21
-755.00000000000102
 31
0.0
1001
ACDBBLOCKREPETAG
1070
     1
1071
      108
1005
122E3A
  0
LINE
  5
122E3B
  8
OBJECT
 10
9780.0000000000127
 20
-677.0
 30
0.0
 11
9787.0000000000127
 21
-677.0
 31
0.0
1001
ACDBBLOCKREPETAG
1070
     1
1071
      109
1005
122E3B
  0
LINE
  5
122E3C
  8
OBJECT
 10
9787.0000000000127
 20
-677.0
 30
0.0
 11
9787.0000000000127
 21
-553.0
 31
0.0
1001
ACDBBLOCKREPETAG
1070
     1
1071
      110
1005
122E3C
  0
LINE
  5
122E3D
  8
CENTER
 10
9855.0000000000182
 20
-615.0000000000008
 30
0.0
 11
9765.0000000000146
 21
-615.0
 31
0.0
1001
ACDBBLOCKREPETAG
1070
     1
1071
      111
1005
122E3D
  0
LINE
  5
122E3E
  8
OBJECT
 10
9920.0000000000182
 20
-758.0
 30
0.0
 11
9917.0000000000146
 21
-758.0000000000008
 31
0.0
1001
ACDBBLOCKREPETAG
1070
     1
1071
      112
1005
122E3E
  0
ARC
  5
122E3F
  8
OBJECT
 10
9917.0000000000146
 20
-755.00000000000102
 30
0.0
 40
3.0
 50
180.0
 51
270.0
1001
ACDBBLOCKREPETAG
1070
     1
1071
      113
1005
122E3F
  0
LINE
  5
122E40
  8
OBJECT
 10
9787.0000000000127
 20
-556.0
 30
0.0
 11
9823.0000000000146
 21
-556.0000000000008
 31
0.0
1001
ACDBBLOCKREPETAG
1070
     1
1071
      114
1005
122E40
  0
LINE
  5
122E41
  8
OBJECT
 10
9823.0000000000146
 20
-556.0000000000008
 30
0.0
 11
9823.0000000000146
 21
-653.15756805667843
 31
0.0
1001
ACDBBLOCKREPETAG
1070
     1
1071
      115
1005
122E41
  0
LINE
  5
122E42
  8
OBJECT
 10
9827.0000000000127
 20
-560.5000000000008
 30
0.0
 11
9827.0000000000182
 21
-645.74491827928705
 31
0.0
1001
ACDBBLOCKREPETAG
1070
     1
1071
      116
1005
122E42
  0
LINE
  5
122E43
  8
OBJECT
 10
9827.0000000000127
 20
-560.5000000000008
 30
0.0
 11
9840.0000000000146
 21
-560.5000000000008
 31
0.0
1001
ACDBBLOCKREPETAG
1070
     1
1071
      117
1005
122E43
  0
LINE
  5
122E44
  8
OBJECT
 10
9831.3436831745348
 20
-674.0000000000008
 30
0.0
 11
9787.0000000000127
 21
-674.0
 31
0.0
1001
ACDBBLOCKREPETAG
1070
     1
1071
      118
1005
122E44
  0
LINE
  5
122E45
  8
OBJECT
 10
9823.0000000000146
 20
-556.0000000000008
 30
0.0
 11
9827.0000000000127
 21
-560.5000000000008
 31
0.0
1001
ACDBBLOCKREPETAG
1070
     1
1071
      119
1005
122E45
  0
LINE
  5
122E46
  8
OBJECT
 10
9840.0000000000146
 20
-560.5000000000008
 30
0.0
 11
9840.0000000000146
 21
-645.74491827928784
 31
0.0
1001
ACDBBLOCKREPETAG
1070
     1
1071
      120
1005
122E46
  0
ARC
  5
122E47
  8
OBJECT
 10
9908.0000000000127
 20
-637.27386365609345
 30
0.0
 40
85.0
 50
205.5991387218653
 51
231.40900676279119
1001
ACDBBLOCKREPETAG
1070
     1
1071
      121
1005
122E47
  0
ARC
  5
122E48
  8
OBJECT
 10
9837.2000000000171
 20
-655.00000000000068
 30
0.0
 40
85.0
 50
19.925932125430649
 51
88.112268108168848
1001
ACDBBLOCKREPETAG
1070
     1
1071
      122
1005
122E48
  0
LINE
  5
122E49
  8
OBJECT
 10
9914.0000000000127
 20
-750.81075719270905
 30
0.0
 11
9854.9806774563986
 21
-703.71143914629454
 31
0.0
1001
ACDBBLOCKREPETAG
1070
     1
1071
      123
1005
122E49
  0
LINE
  5
122E4A
  8
OBJECT
 10
9827.0000000000182
 20
-645.74491827928705
 30
0.0
 11
9840.0000000000146
 21
-645.74491827928784
 31
0.0
1001
ACDBBLOCKREPETAG
1070
     1
1071
      124
1005
122E4A
  0
LINE
  5
122E4B
  8
OBJECT
 10
9823.0000000000146
 20
-653.15756805667843
 30
0.0
 11
9827.0000000000182
 21
-645.74491827928705
 31
0.0
1001
ACDBBLOCKREPETAG
1070
     1
1071
      125
1005
122E4B
  0
LINE
  5
122E4C
  8
OBJECT
 10
9919.99999999998
 20
-634.0
 30
0.0
 11
9917.1113878403758
 21
-626.03156729425325
 31
0.0
1001
ACDBBLOCKREPETAG
1070
     1
1071
      126
1005
122E4C
  0
LINE
  5
122E4D
  8
OBJECT
 10
9919.99999999998
 20
-634.0
 30
0.0
 11
9914.0000000000127
 21
-653.3502637757274
 31
0.0
1001
ACDBBLOCKREPETAG
1070
     1
1071
      127
1005
122E4D
  0
LINE
  5
122E4E
  8
HIDDEN
 10
9832.0000000000146
 20
-570.5000000000008
 30
0.0
 11
9832.0000000000146
 21
-659.50000000000068
 31
0.0
1001
ACDBBLOCKREPETAG
1070
     1
1071
      129
1005
122E4E
  0
CIRCLE
  5
122E4F
  8
OBJECT
 10
10000.0
 20
-696.0
 30
0.0
 40
62.0
1001
ACDBBLOCKREPETAG
1070
     1
1071
        0
1005
122E4F
  0
LINE
  5
122E50
  8
OBJECT
 10
10212.99999999998
 20
-553.0000000000008
 30
0.0
 11
10219.99999999998
 21
-553.0000000000008
 31
0.0
1001
ACDBBLOCKREPETAG
1070
     1
1071
      106
1005
122E50
  0
LINE
  5
122E51
  8
OBJECT
 10
10219.99999999998
 20
-553.0000000000008
 30
0.0
 11
10219.99999999998
 21
-677.0000000000008
 31
0.0
1001
ACDBBLOCKREPETAG
1070
     1
1071
      107
1005
122E51
  0
LINE
  5
122E52
  8
OBJECT
 10
10085.99999999998
 20
-653.3502637757274
 30
0.0
 11
10085.99999999998
 21
-755.00000000000102
 31
0.0
1001
ACDBBLOCKREPETAG
1070
     1
1071
      108
1005
122E52
  0
LINE
  5
122E53
  8
OBJECT
 10
10219.99999999998
 20
-677.0000000000008
 30
0.0
 11
10212.99999999998
 21
-677.0000000000008
 31
0.0
1001
ACDBBLOCKREPETAG
1070
     1
1071
      109
1005
122E53
  0
LINE
  5
122E54
  8
OBJECT
 10
10212.99999999998
 20
-677.0000000000008
 30
0.0
 11
10212.99999999998
 21
-553.0000000000008
 31
0.0
1001
ACDBBLOCKREPETAG
1070
     1
1071
      110
1005
122E54
  0
LINE
  5
122E55
  8
CENTER
 10
10144.99999999998
 20
-615.0000000000008
 30
0.0
 11
10234.99999999998
 21
-615.0000000000008
 31
0.0
1001
ACDBBLOCKREPETAG
1070
     1
1071
      111
1005
122E55
  0
LINE
  5
122E56
  8
OBJECT
 10
10079.99999999998
 20
-758.0
 30
0.0
 11
10082.99999999998
 21
-758.0000000000008
 31
0.0
1001
ACDBBLOCKREPETAG
1070
     1
1071
      112
1005
122E56
  0
ARC
  5
122E57
  8
OBJECT
 10
10082.99999999998
 20
-755.00000000000102
 30
0.0
 40
3.0
 50
270.0
 51
0.0
1001
ACDBBLOCKREPETAG
1070
     1
1071
      113
1005
122E57
  0
LINE
  5
122E58
  8
OBJECT
 10
10212.99999999998
 20
-556.0000000000008
 30
0.0
 11
10176.99999999998
 21
-556.0000000000008
 31
0.0
1001
ACDBBLOCKREPETAG
1070
     1
1071
      114
1005
122E58
  0
LINE
  5
122E59
  8
OBJECT
 10
10176.99999999998
 20
-556.0000000000008
 30
0.0
 11
10176.99999999998
 21
-653.15756805667843
 31
0.0
1001
ACDBBLOCKREPETAG
1070
     1
1071
      115
1005
122E59
  0
LINE
  5
122E5A
  8
OBJECT
 10
10172.99999999998
 20
-560.5000000000008
 30
0.0
 11
10172.99999999998
 21
-645.74491827928705
 31
0.0
1001
ACDBBLOCKREPETAG
1070
     1
1071
      116
1005
122E5A
  0
LINE
  5
122E5B
  8
OBJECT
 10
10172.99999999998
 20
-560.5000000000008
 30
0.0
 11
10159.99999999998
 21
-560.5000000000008
 31
0.0
1001
ACDBBLOCKREPETAG
1070
     1
1071
      117
1005
122E5B
  0
LINE
  5
122E5C
  8
OBJECT
 10
10168.656316825471
 20
-674.0000000000008
 30
0.0
 11
10212.99999999998
 21
-674.0000000000008
 31
0.0
1001
ACDBBLOCKREPETAG
1070
     1
1071
      118
1005
122E5C
  0
LINE
  5
122E5D
  8
OBJECT
 10
10176.99999999998
 20
-556.0000000000008
 30
0.0
 11
10172.99999999998
 21
-560.5000000000008
 31
0.0
1001
ACDBBLOCKREPETAG
1070
     1
1071
      119
1005
122E5D
  0
LINE
  5
122E5E
  8
OBJECT
 10
10159.99999999998
 20
-560.5000000000008
 30
0.0
 11
10159.99999999998
 21
-645.74491827928784
 31
0.0
1001
ACDBBLOCKREPETAG
1070
     1
1071
      120
1005
122E5E
  0
ARC
  5
122E5F
  8
OBJECT
 10
10091.99999999998
 20
-637.27386365609345
 30
0.0
 40
85.0
 50
308.59099323720869
 51
334.4008612781347
1001
ACDBBLOCKREPETAG
1070
     1
1071
      121
1005
122E5F
  0
ARC
  5
122E60
  8
OBJECT
 10
10162.799999999979
 20
-655.00000000000068
 30
0.0
 40
85.0
 50
91.887731891831123
 51
160.07406787456929
1001
ACDBBLOCKREPETAG
1070
     1
1071
      122
1005
122E60
  0
LINE
  5
122E61
  8
OBJECT
 10
10085.99999999998
 20
-750.81075719270905
 30
0.0
 11
10145.0193225436
 21
-703.71143914629454
 31
0.0
1001
ACDBBLOCKREPETAG
1070
     1
1071
      123
1005
122E61
  0
LINE
  5
122E62
  8
OBJECT
 10
10172.99999999998
 20
-645.74491827928705
 30
0.0
 11
10159.99999999998
 21
-645.74491827928784
 31
0.0
1001
ACDBBLOCKREPETAG
1070
     1
1071
      124
1005
122E62
  0
LINE
  5
122E63
  8
OBJECT
 10
10176.99999999998
 20
-653.15756805667843
 30
0.0
 11
10172.99999999998
 21
-645.74491827928705
 31
0.0
1001
ACDBBLOCKREPETAG
1070
     1
1071
      125
1005
122E63
  0
LINE
  5
122E64
  8
OBJECT
 10
10080.00000000002
 20
-634.0
 30
0.0
 11
10082.888612159621
 21
-626.03156729425325
 31
0.0
1001
ACDBBLOCKREPETAG
1070
     1
1071
      126
1005
122E64
  0
LINE
  5
122E65
  8
OBJECT
 10
10080.00000000002
 20
-634.0
 30
0.0
 11
10085.99999999998
 21
-653.3502637757274
 31
0.0
1001
ACDBBLOCKREPETAG
1070
     1
1071
      127
1005
122E65
  0
LINE
  5
122E66
  8
HIDDEN
 10
10167.99999999998
 20
-570.5000000000008
 30
0.0
 11
10167.99999999998
 21
-659.50000000000068
 31
0.0
1001
ACDBBLOCKREPETAG
1070
     1
1071
      129
1005
122E66
  0
LINE
  5
122E67
  8
OBJECT
 10
7923.0
 20
-570.99999999999432
 30
0.0
 11
7923.0
 21
-549.99999999999432
 31
0.0
1001
ACDBBLOCKREPETAG
1070
     1
1071
       36
1005
122E67
  0
LINE
  5
122E68
  8
OBJECT
 10
7923.0
 20
-549.99999999999432
 30
0.0
 11
8077.0
 21
-549.99999999999432
 31
0.0
1001
ACDBBLOCKREPETAG
1070
     1
1071
       37
1005
122E68
  0
LINE
  5
122E69
  8
HIDDEN
 10
7943.0
 20
-619.99999999999432
 30
0.0
 11
8057.0
 21
-619.99999999999432
 31
0.0
1001
ACDBBLOCKREPETAG
1070
     1
1071
       38
1005
122E69
  0
LINE
  5
122E6A
  8
OBJECT
 10
8077.0
 20
-549.99999999999432
 30
0.0
 11
8077.0
 21
-570.99999999999432
 31
0.0
1001
ACDBBLOCKREPETAG
1070
     1
1071
       39
1005
122E6A
  0
LINE
  5
122E6B
  8
OBJECT
 10
8077.0
 20
-570.99999999999432
 30
0.0
 11
7923.0
 21
-570.99999999999432
 31
0.0
1001
ACDBBLOCKREPETAG
1070
     1
1071
       40
1005
122E6B
  0
LINE
  5
122E6C
  8
CENTER
 10
8000.0
 20
-534.99999999999432
 30
0.0
 11
8000.0
 21
-769.9999999999942
 31
0.0
1001
ACDBBLOCKREPETAG
1070
     1
1071
       41
1005
122E6C
  0
LINE
  5
122E6D
  8
OBJECT
 10
7928.0
 20
-570.99999999999432
 30
0.0
 11
7928.0
 21
-633.99999999999432
 31
0.0
1001
ACDBBLOCKREPETAG
1070
     1
1071
       42
1005
122E6D
  0
LINE
  5
122E6E
  8
OBJECT
 10
8072.0
 20
-633.99999999999432
 30
0.0
 11
8072.0
 21
-570.99999999999432
 31
0.0
1001
ACDBBLOCKREPETAG
1070
     1
1071
       43
1005
122E6E
  0
LINE
  5
122E6F
  8
OBJECT
 10
7920.0
 20
-757.9999999999942
 30
0.0
 11
8080.0
 21
-757.9999999999942
 31
0.0
1001
ACDBBLOCKREPETAG
1070
     1
1071
       44
1005
122E6F
  0
LINE
  5
122E70
  8
OBJECT
 10
8080.0
 20
-633.99999999999432
 30
0.0
 11
7920.0
 21
-633.99999999999432
 31
0.0
1001
ACDBBLOCKREPETAG
1070
     1
1071
       45
1005
122E70
  0
LINE
  5
122E71
  8
OBJECT
 10
7920.0
 20
-757.9999999999942
 30
0.0
 11
7920.0
 21
-769.9999999999942
 31
0.0
1001
ACDBBLOCKREPETAG
1070
     1
1071
       46
1005
122E71
  0
LINE
  5
122E72
  8
OBJECT
 10
7920.0
 20
-769.9999999999942
 30
0.0
 11
8080.0
 21
-769.9999999999942
 31
0.0
1001
ACDBBLOCKREPETAG
1070
     1
1071
       47
1005
122E72
  0
LINE
  5
122E73
  8
OBJECT
 10
8080.0
 20
-769.9999999999942
 30
0.0
 11
8080.0
 21
-757.9999999999942
 31
0.0
1001
ACDBBLOCKREPETAG
1070
     1
1071
       48
1005
122E73
  0
ARC
  5
122E74
  8
OBJECT
 10
8200.6872746716726
 20
-749.40809941010195
 30
0.0
 40
170.6350503965856
 50
137.44134459184301
 51
149.91949581337221
1001
ACDBBLOCKREPETAG
1070
     1
1071
       52
1005
122E74
  0
ARC
  5
122E75
  8
OBJECT
 10
8200.6872746716726
 20
-642.59190058988645
 30
0.0
 40
170.6350503965856
 50
210.08050418662771
 51
222.55865540815699
1001
ACDBBLOCKREPETAG
1070
     1
1071
       53
1005
122E75
  0
ARC
  5
122E76
  8
OBJECT
 10
7799.3127253283265
 20
-749.40809941010195
 30
0.0
 40
170.6350503965856
 50
30.080504186787142
 51
42.558655408456282
1001
ACDBBLOCKREPETAG
1070
     1
1071
       54
1005
122E76
  0
ARC
  5
122E77
  8
OBJECT
 10
7799.3127253283265
 20
-642.59190058988645
 30
0.0
 40
170.6350503965856
 50
317.44134459154373
 51
329.9194958132129
1001
ACDBBLOCKREPETAG
1070
     1
1071
       55
1005
122E77
  0
POINT
  5
122E78
  8
DOTS
 10
8000.0
 20
-754.9999999999942
 30
0.0
1001
ACDBBLOCKREPETAG
1070
     1
1071
      184
1005
122E78
  0
LINE
  5
122E79
  8
SLIM
 10
7945.2566704260989
 20
-137.99999999999909
 30
0.0
 11
7955.9548403695781
 21
-127.30183005652231
 31
0.0
1001
GRADIENTCOLOR1ACI
1070
     5
1001
GRADIENTCOLOR2ACI
1070
     2
1001
ACAD
1010
0.0
1020
0.0
1030
0.0
1001
ACDBBLOCKREPETAG
1070
     1
1071
      428
1005
122E79
  0
LINE
  5
122E7A
  8
SLIM
 10
7954.2369265471707
 20
-137.99999999999909
 30
0.0
 11
7972.7507744763334
 21
-119.4861520708364
 31
0.0
1001
GRADIENTCOLOR1ACI
1070
     5
1001
GRADIENTCOLOR2ACI
1070
     2
1001
ACAD
1010
0.0
1020
0.0
1030
0.0
1001
ACDBBLOCKREPETAG
1070
     1
1071
      429
1005
122E7A
  0
LINE
  5
122E7B
  8
SLIM
 10
7973.5212243124561
 20
-127.6959583557812
 30
0.0
 11
7984.8575146748608
 21
-116.359667993377
 31
0.0
1001
GRADIENTCOLOR1ACI
1070
     5
1001
GRADIENTCOLOR2ACI
1070
     2
1001
ACAD
1010
0.0
1020
0.0
1030
0.0
1001
ACDBBLOCKREPETAG
1070
     1
1071
      430
1005
122E7B
  0
LINE
  5
122E7C
  8
SLIM
 10
7985.8944171461262
 20
-124.30302164318159
 30
0.0
 11
7995.0533812002559
 21
-115.1440575890517
 31
0.0
1001
GRADIENTCOLOR1ACI
1070
     5
1001
GRADIENTCOLOR2ACI
1070
     2
1001
ACAD
1010
0.0
1020
0.0
1030
0.0
1001
ACDBBLOCKREPETAG
1070
     1
1071
      431
1005
122E7C
  0
LINE
  5
122E7D
  8
SLIM
 10
7996.077732749206
 20
-123.0999621611699
 30
0.0
 11
8000.0
 21
-119.1776949103767
 31
0.0
1001
GRADIENTCOLOR1ACI
1070
     5
1001
GRADIENTCOLOR2ACI
1070
     2
1001
ACAD
1010
0.0
1020
0.0
1030
0.0
1001
ACDBBLOCKREPETAG
1070
     1
1071
      432
1005
122E7D
  0
LINE
  5
122E7E
  8
SLIM
 10
8000.0
 20
-119.1776949103767
 30
0.0
 11
8004.0797313529074
 21
-115.0979635574724
 31
0.0
1001
GRADIENTCOLOR1ACI
1070
     5
1001
GRADIENTCOLOR2ACI
1070
     2
1001
ACAD
1010
0.0
1020
0.0
1030
0.0
1001
ACDBBLOCKREPETAG
1070
     1
1071
      433
1005
122E7E
  0
LINE
  5
122E7F
  8
SLIM
 10
8004.9957202542737
 20
-123.1622307771683
 30
0.0
 11
8012.2679784105749
 21
-115.88997262087101
 31
0.0
1001
GRADIENTCOLOR1ACI
1070
     5
1001
GRADIENTCOLOR2ACI
1070
     2
1001
ACAD
1010
0.0
1020
0.0
1030
0.0
1001
ACDBBLOCKREPETAG
1070
     1
1071
      434
1005
122E7F
  0
LINE
  5
122E80
  8
SLIM
 10
8013.028059366964
 20
-124.1101477855505
 30
0.0
 11
8019.7999414573624
 21
-117.3382656951526
 31
0.0
1001
GRADIENTCOLOR1ACI
1070
     5
1001
GRADIENTCOLOR2ACI
1070
     2
1001
ACAD
1010
0.0
1020
0.0
1030
0.0
1001
ACDBBLOCKREPETAG
1070
     1
1071
      435
1005
122E80
  0
LINE
  5
122E81
  8
SLIM
 10
8020.3740813142458
 20
-125.7443819593383
 30
0.0
 11
8026.7872038672767
 21
-119.3312594063044
 31
0.0
1001
GRADIENTCOLOR1ACI
1070
     5
1001
GRADIENTCOLOR2ACI
1070
     2
1001
ACAD
1010
0.0
1020
0.0
1030
0.0
1001
ACDBBLOCKREPETAG
1070
     1
1071
      436
1005
122E81
  0
LINE
  5
122E82
  8
SLIM
 10
8027.1524719988738
 20
-127.946247395778
 30
0.0
 11
8033.3030030760328
 21
-121.7957163186195
 31
0.0
1001
GRADIENTCOLOR1ACI
1070
     5
1001
GRADIENTCOLOR2ACI
1070
     2
1001
ACAD
1010
0.0
1020
0.0
1030
0.0
1001
ACDBBLOCKREPETAG
1070
     1
1071
      437
1005
122E82
  0
LINE
  5
122E83
  8
SLIM
 10
8033.4390986513308
 20
-130.63987686439191
 30
0.0
 11
8039.3973119843777
 21
-124.6816635313439
 31
0.0
1001
GRADIENTCOLOR1ACI
1070
     5
1001
GRADIENTCOLOR2ACI
1070
     2
1001
ACAD
1010
0.0
1020
0.0
1030
0.0
1001
ACDBBLOCKREPETAG
1070
     1
1071
      438
1005
122E83
  0
LINE
  5
122E84
  8
SLIM
 10
8039.2842246217979
 20
-133.77500701499321
 30
0.0
 11
8045.1047705343699
 21
-127.95446110242381
 31
0.0
1001
GRADIENTCOLOR1ACI
1070
     5
1001
GRADIENTCOLOR2ACI
1070
     2
1001
ACAD
1010
0.0
1020
0.0
1030
0.0
1001
ACDBBLOCKREPETAG
1070
     1
1071
      439
1005
122E84
  0
LINE
  5
122E85
  8
SLIM
 10
8044.7212801698061
 20
-137.31820758805651
 30
0.0
 11
8050.449155789197
 21
-131.59033196866449
 31
0.0
1001
GRADIENTCOLOR1ACI
1070
     5
1001
GRADIENTCOLOR2ACI
1070
     2
1001
ACAD
1010
0.0
1020
0.0
1030
0.0
1001
ACDBBLOCKREPETAG
1070
     1
1071
      440
1005
122E85
  0
LINE
  5
122E86
  8
SLIM
 10
8053.0197438789319
 20
-137.99999999999909
 30
0.0
 11
8055.4459941864034
 21
-135.57374969252561
 31
0.0
1001
GRADIENTCOLOR1ACI
1070
     5
1001
GRADIENTCOLOR2ACI
1070
     2
1001
ACAD
1010
0.0
1020
0.0
1030
0.0
1001
ACDBBLOCKREPETAG
1070
     1
1071
      441
1005
122E86
  0
LINE
  5
122E87
  8
CENTER
 10
8000.0
 20
-279.99999999999909
 30
0.0
 11
8000.0
 21
-99.999999999999091
 31
0.0
1001
ACDBBLOCKREPETAG
1070
     1
1071
      160
1005
122E87
  0
CIRCLE
  5
122E88
  8
OBJECT
 10
8000.0
 20
-199.99999999999909
 30
0.0
 40
70.0
1001
ACDBBLOCKREPETAG
1070
     1
1071
      161
1005
122E88
  0
CIRCLE
  5
122E89
  8
OBJECT
 10
8000.0
 20
-199.99999999999909
 30
0.0
 40
77.0
1001
ACDBBLOCKREPETAG
1070
     1
1071
      162
1005
122E89
  0
LINE
  5
122E8A
  8
OBJECT
 10
8045.6618002273271
 20
-137.99999999999909
 30
0.0
 11
8080.0
 21
-137.99999999999909
 31
0.0
1001
ACDBBLOCKREPETAG
1070
     1
1071
      164
1005
122E8A
  0
LINE
  5
122E8B
  8
OBJECT
 10
8062.0
 20
-261.99999999999909
 30
0.0
 11
8080.0
 21
-261.99999999999909
 31
0.0
1001
ACDBBLOCKREPETAG
1070
     1
1071
      165
1005
122E8B
  0
LINE
  5
122E8C
  8
OBJECT
 10
8062.0
 20
-261.99999999999909
 30
0.0
 11
8062.0
 21
-279.99999999999909
 31
0.0
1001
ACDBBLOCKREPETAG
1070
     1
1071
      167
1005
122E8C
  0
LINE
  5
122E8D
  8
OBJECT
 10
7938.0
 20
-261.99999999999909
 30
0.0
 11
7938.0
 21
-279.99999999999909
 31
0.0
1001
ACDBBLOCKREPETAG
1070
     1
1071
      168
1005
122E8D
  0
LINE
  5
122E8E
  8
OBJECT
 10
7938.0
 20
-261.99999999999909
 30
0.0
 11
7920.0
 21
-261.99999999999909
 31
0.0
1001
ACDBBLOCKREPETAG
1070
     1
1071
      170
1005
122E8E
  0
LINE
  5
122E8F
  8
OBJECT
 10
7954.3381997726747
 20
-137.99999999999909
 30
0.0
 11
7920.0
 21
-137.99999999999909
 31
0.0
1001
ACDBBLOCKREPETAG
1070
     1
1071
      171
1005
122E8F
  0
LINE
  5
122E90
  8
OBJECT
 10
7945.5527778486357
 20
-254.44722215136329
 30
0.0
 11
7938.0
 21
-261.99999999999909
 31
0.0
1001
ACDBBLOCKREPETAG
1070
     1
1071
      180
1005
122E90
  0
LINE
  5
122E91
  8
OBJECT
 10
8054.4472221513652
 20
-254.44722215136329
 30
0.0
 11
8062.0
 21
-261.99999999999909
 31
0.0
1001
ACDBBLOCKREPETAG
1070
     1
1071
      181
1005
122E91
  0
ARC
  5
122E92
  8
OBJECT
 10
8000.0
 20
-199.99999999999909
 30
0.0
 40
85.0
 50
46.837102859806208
 51
133.16289714019371
1001
ACDBBLOCKREPETAG
1070
     1
1071
      183
1005
122E92
  0
LINE
  5
122E93
  8
OBJECT
 10
8024.1029330933006
 20
-243.80694712371681
 30
0.0
 11
8020.6596569999974
 21
-232.55462199999889
 31
0.0
1001
ACDBBLOCKREPETAG
1070
     1
1071
      314
1005
122E93
  0
LINE
  5
122E94
  8
OBJECT
 10
7986.7927499013749
 20
-218.22553374208019
 30
0.0
 11
8020.6596569999974
 21
-232.5546219999969
 31
0.0
1001
ACDBBLOCKREPETAG
1070
     1
1071
      316
1005
122E94
  0
ARC
  5
122E95
  8
OBJECT
 10
7982.8961697618997
 20
-227.4351299990567
 30
0.0
 40
10.0
 50
67.066778292911366
 51
154.0147343702935
1001
ACDBBLOCKREPETAG
1070
     1
1071
      317
1005
122E95
  0
ARC
  5
122E96
  8
OBJECT
 10
7986.1488390381273
 20
-225.55386256729159
 30
0.0
 40
7.0
 50
67.066778292911366
 51
154.0147337749826
1001
ACDBBLOCKREPETAG
1070
     1
1071
      318
1005
122E96
  0
LINE
  5
122E97
  8
OBJECT
 10
7969.4199755553009
 20
-243.89888500818171
 30
0.0
 11
7979.8564918232369
 21
-222.48688253356801
 31
0.0
1001
ACDBBLOCKREPETAG
1070
     1
1071
      349
1005
122E97
  0
LINE
  5
122E98
  8
OBJECT
 10
7965.2972169006098
 20
-240.71813901882729
 30
0.0
 11
7973.9071022665084
 21
-223.05373004430751
 31
0.0
1001
ACDBBLOCKREPETAG
1070
     1
1071
      350
1005
122E98
  0
ARC
  5
122E99
  8
OBJECT
 10
7976.5796953073141
 20
-207.1289369828437
 30
0.0
 40
60.031113246032611
 50
314.07020130418567
 51
322.33936106089681
1001
ACDBBLOCKREPETAG
1070
     1
1071
      351
1005
122E99
  0
CIRCLE
  5
122E9A
  8
OBJECT
 10
8000.0
 20
-199.99999999999909
 30
0.0
 40
53.5
1001
ACDBBLOCKREPETAG
1070
     1
1071
      352
1005
122E9A
  0
POINT
  5
122E9B
  8
DOTS
 10
8000.0
 20
-199.99999999999909
 30
0.0
 50
270.0
1001
ACDBBLOCKREPETAG
1070
     1
1071
      364
1005
122E9B
  0
ARC
  5
122E9C
  8
OBJECT
 10
8000.0
 20
-199.99999999999909
 30
0.0
 40
50.0
 50
298.81994300000417
 51
228.5237695596397
1001
ACDBBLOCKREPETAG
1070
     1
1071
      157
1005
122E9C
  0
LINE
  5
122E9D
  8
CENTER
 10
8080.0
 20
-199.99999999999909
 30
0.0
 11
7920.0
 21
-199.99999999999909
 31
0.0
1001
ACDBBLOCKREPETAG
1070
     1
1071
      158
1005
122E9D
  0
LINE
  5
122E9E
  8
OBJECT
 10
7787.0000000000191
 20
-137.99999999999909
 30
0.0
 11
7780.0000000000182
 21
-137.99999999999909
 31
0.0
1001
ACDBBLOCKREPETAG
1070
     1
1071
      110
1005
122E9E
  0
LINE
  5
122E9F
  8
OBJECT
 10
7780.0000000000182
 20
-137.99999999999909
 30
0.0
 11
7780.0000000000182
 21
-261.99999999999909
 31
0.0
1001
ACDBBLOCKREPETAG
1070
     1
1071
      111
1005
122E9F
  0
LINE
  5
122EA0
  8
OBJECT
 10
7780.0000000000182
 20
-261.99999999999909
 30
0.0
 11
7787.0000000000191
 21
-261.99999999999909
 31
0.0
1001
ACDBBLOCKREPETAG
1070
     1
1071
      112
1005
122EA0
  0
LINE
  5
122EA1
  8
OBJECT
 10
7787.0000000000191
 20
-261.99999999999909
 30
0.0
 11
7787.0000000000191
 21
-137.99999999999909
 31
0.0
1001
ACDBBLOCKREPETAG
1070
     1
1071
      113
1005
122EA1
  0
LINE
  5
122EA2
  8
CENTER
 10
7765.0000000000191
 20
-199.99999999999909
 30
0.0
 11
7920.0
 21
-199.99999999999909
 31
0.0
1001
ACDBBLOCKREPETAG
1070
     1
1071
      114
1005
122EA2
  0
LINE
  5
122EA3
  8
OBJECT
 10
7840.0000250358171
 20
-245.0000000000027
 30
0.0
 11
7914.0000000000027
 21
-244.99999999999909
 31
0.0
1001
ACDBBLOCKREPETAG
1070
     1
1071
      115
1005
122EA3
  0
LINE
  5
122EA4
  8
OBJECT
 10
7840.0000250358171
 20
-154.99999999999909
 30
0.0
 11
7914.0000000000027
 21
-154.99999999999909
 31
0.0
1001
ACDBBLOCKREPETAG
1070
     1
1071
      116
1005
122EA4
  0
LINE
  5
122EA5
  8
OBJECT
 10
7787.0000000000191
 20
-140.99999999999909
 30
0.0
 11
7823.0000000000191
 21
-140.99999999999909
 31
0.0
1001
ACDBBLOCKREPETAG
1070
     1
1071
      117
1005
122EA5
  0
LINE
  5
122EA6
  8
OBJECT
 10
7823.0000000000191
 20
-140.99999999999909
 30
0.0
 11
7823.0000000000191
 21
-258.99999999999909
 31
0.0
1001
ACDBBLOCKREPETAG
1070
     1
1071
      118
1005
122EA6
  0
LINE
  5
122EA7
  8
OBJECT
 10
7823.0000000000191
 20
-258.99999999999909
 30
0.0
 11
7787.0000000000191
 21
-258.99999999999909
 31
0.0
1001
ACDBBLOCKREPETAG
1070
     1
1071
      119
1005
122EA7
  0
LINE
  5
122EA8
  8
OBJECT
 10
7827.0000000000182
 20
-145.49999999999909
 30
0.0
 11
7840.0000000000191
 21
-145.49999999999909
 31
0.0
1001
ACDBBLOCKREPETAG
1070
     1
1071
      120
1005
122EA8
  0
LINE
  5
122EA9
  8
OBJECT
 10
7840.0000000000191
 20
-254.49999999999909
 30
0.0
 11
7827.0000000000182
 21
-254.49999999999909
 31
0.0
1001
ACDBBLOCKREPETAG
1070
     1
1071
      121
1005
122EA9
  0
LINE
  5
122EAA
  8
OBJECT
 10
7827.0000000000182
 20
-254.49999999999909
 30
0.0
 11
7827.0000000000182
 21
-145.49999999999909
 31
0.0
1001
ACDBBLOCKREPETAG
1070
     1
1071
      122
1005
122EAA
  0
LINE
  5
122EAB
  8
OBJECT
 10
7823.0000000000191
 20
-140.99999999999909
 30
0.0
 11
7827.0000000000182
 21
-145.49999999999909
 31
0.0
1001
ACDBBLOCKREPETAG
1070
     1
1071
      123
1005
122EAB
  0
LINE
  5
122EAC
  8
OBJECT
 10
7823.0000000000191
 20
-258.99999999999909
 30
0.0
 11
7827.0000000000182
 21
-254.49999999999909
 31
0.0
1001
ACDBBLOCKREPETAG
1070
     1
1071
      124
1005
122EAC
  0
LINE
  5
122EAD
  8
OBJECT
 10
7917.0000000000027
 20
-137.99999999999909
 30
0.0
 11
7920.0000000000027
 21
-137.99999999999909
 31
0.0
1001
ACDBBLOCKREPETAG
1070
     1
1071
      125
1005
122EAD
  0
ARC
  5
122EAE
  8
OBJECT
 10
7917.0000000000027
 20
-140.99999999999909
 30
0.0
 40
3.0
 50
90.0
 51
180.0
1001
ACDBBLOCKREPETAG
1070
     1
1071
      126
1005
122EAE
  0
LINE
  5
122EAF
  8
OBJECT
 10
7920.0000000000027
 20
-261.99999999999909
 30
0.0
 11
7917.0000000000027
 21
-261.99999999999909
 31
0.0
1001
ACDBBLOCKREPETAG
1070
     1
1071
      127
1005
122EAF
  0
ARC
  5
122EB0
  8
OBJECT
 10
7917.0000000000027
 20
-258.99999999999909
 30
0.0
 40
3.0
 50
180.0
 51
270.0
1001
ACDBBLOCKREPETAG
1070
     1
1071
      128
1005
122EB0
  0
LINE
  5
122EB1
  8
OBJECT
 10
7914.0000000000027
 20
-258.99999999999909
 30
0.0
 11
7914.0000000000027
 21
-222.44994432063581
 31
0.0
1001
ACDBBLOCKREPETAG
1070
     1
1071
      129
1005
122EB1
  0
LINE
  5
122EB2
  8
OBJECT
 10
7914.0000000000027
 20
-177.55005567935859
 30
0.0
 11
7914.0000000000027
 21
-140.99999999999909
 31
0.0
1001
ACDBBLOCKREPETAG
1070
     1
1071
      130
1005
122EB2
  0
LINE
  5
122EB3
  8
HIDDEN
 10
7832.0000000000182
 20
-155.49999999999909
 30
0.0
 11
7832.0000000000182
 21
-244.49999999999909
 31
0.0
1001
ACDBBLOCKREPETAG
1070
     1
1071
      131
1005
122EB3
  0
LINE
  5
122EB4
  8
OBJECT
 10
7840.0000250358171
 20
-254.4999509238105
 30
0.0
 11
7840.0000250358171
 21
-145.4999509238105
 31
0.0
1001
ACDBBLOCKREPETAG
1070
     1
1071
      133
1005
122EB4
  0
ARC
  5
122EB5
  8
OBJECT
 10
7875.0
 20
-199.99999999999909
 30
0.0
 40
45.000000000000547
 50
270.0
 51
90.0
1001
ACDBBLOCKREPETAG
1070
     1
1071
      134
1005
122EB5
  0
LINE
  5
122EB6
  8
CENTER
 10
8000.0
 20
-300.99999999999898
 30
0.0
 11
8000.0
 21
-279.99999999999909
 31
0.0
1001
ACDBBLOCKREPETAG
1070
     1
1071
        0
1005
122EB6
  0
LINE
  5
122EB7
  8
OBJECT
 10
8062.0
 20
-283.0
 30
0.0
 11
8062.0
 21
-279.99999999999909
 31
0.0
1001
ACDBBLOCKREPETAG
1070
     1
1071
        1
1005
122EB7
  0
ARC
  5
122EB8
  8
OBJECT
 10
8059.0
 20
-283.0
 30
0.0
 40
3.0
 50
270.0
 51
0.0
1001
ACDBBLOCKREPETAG
1070
     1
1071
        2
1005
122EB8
  0
LINE
  5
122EB9
  8
OBJECT
 10
7938.0
 20
-279.99999999999909
 30
0.0
 11
7938.0
 21
-282.99999999999818
 31
0.0
1001
ACDBBLOCKREPETAG
1070
     1
1071
        3
1005
122EB9
  0
ARC
  5
122EBA
  8
OBJECT
 10
7941.0
 20
-282.99999999999818
 30
0.0
 40
3.0
 50
180.0
 51
270.0
1001
ACDBBLOCKREPETAG
1070
     1
1071
        4
1005
122EBA
  0
LINE
  5
122EBB
  8
OBJECT
 10
7941.0
 20
-285.99999999999818
 30
0.0
 11
8059.0
 21
-286.0
 31
0.0
1001
ACDBBLOCKREPETAG
1070
     1
1071
        5
1005
122EBB
  0
LINE
  5
122EBC
  8
OBJECT
 10
8212.9999999999836
 20
-137.99999999999909
 30
0.0
 11
8219.9999999999873
 21
-137.99999999999909
 31
0.0
1001
ACDBBLOCKREPETAG
1070
     1
1071
      110
1005
122EBC
  0
LINE
  5
122EBD
  8
OBJECT
 10
8219.9999999999873
 20
-137.99999999999909
 30
0.0
 11
8219.9999999999873
 21
-261.99999999999909
 31
0.0
1001
ACDBBLOCKREPETAG
1070
     1
1071
      111
1005
122EBD
  0
LINE
  5
122EBE
  8
OBJECT
 10
8219.9999999999873
 20
-261.99999999999909
 30
0.0
 11
8212.9999999999836
 21
-261.99999999999909
 31
0.0
1001
ACDBBLOCKREPETAG
1070
     1
1071
      112
1005
122EBE
  0
LINE
  5
122EBF
  8
OBJECT
 10
8212.9999999999836
 20
-261.99999999999909
 30
0.0
 11
8212.9999999999836
 21
-137.99999999999909
 31
0.0
1001
ACDBBLOCKREPETAG
1070
     1
1071
      113
1005
122EBF
  0
LINE
  5
122EC0
  8
CENTER
 10
8234.9999999999873
 20
-199.99999999999909
 30
0.0
 11
8080.0000000000027
 21
-199.99999999999909
 31
0.0
1001
ACDBBLOCKREPETAG
1070
     1
1071
      114
1005
122EC0
  0
LINE
  5
122EC1
  8
OBJECT
 10
8159.9999749641838
 20
-245.0000000000027
 30
0.0
 11
8086.0
 21
-244.99999999999909
 31
0.0
1001
ACDBBLOCKREPETAG
1070
     1
1071
      115
1005
122EC1
  0
LINE
  5
122EC2
  8
OBJECT
 10
8159.9999749641838
 20
-154.99999999999909
 30
0.0
 11
8086.0
 21
-154.99999999999909
 31
0.0
1001
ACDBBLOCKREPETAG
1070
     1
1071
      116
1005
122EC2
  0
LINE
  5
122EC3
  8
OBJECT
 10
8212.9999999999836
 20
-140.99999999999909
 30
0.0
 11
8176.9999999999873
 21
-140.99999999999909
 31
0.0
1001
ACDBBLOCKREPETAG
1070
     1
1071
      117
1005
122EC3
  0
LINE
  5
122EC4
  8
OBJECT
 10
8176.9999999999873
 20
-140.99999999999909
 30
0.0
 11
8176.9999999999873
 21
-258.99999999999909
 31
0.0
1001
ACDBBLOCKREPETAG
1070
     1
1071
      118
1005
122EC4
  0
LINE
  5
122EC5
  8
OBJECT
 10
8176.9999999999873
 20
-258.99999999999909
 30
0.0
 11
8212.9999999999836
 21
-258.99999999999909
 31
0.0
1001
ACDBBLOCKREPETAG
1070
     1
1071
      119
1005
122EC5
  0
LINE
  5
122EC6
  8
OBJECT
 10
8172.9999999999854
 20
-145.49999999999909
 30
0.0
 11
8159.9999999999873
 21
-145.49999999999909
 31
0.0
1001
ACDBBLOCKREPETAG
1070
     1
1071
      120
1005
122EC6
  0
LINE
  5
122EC7
  8
OBJECT
 10
8159.9999999999873
 20
-254.49999999999909
 30
0.0
 11
8172.9999999999854
 21
-254.49999999999909
 31
0.0
1001
ACDBBLOCKREPETAG
1070
     1
1071
      121
1005
122EC7
  0
LINE
  5
122EC8
  8
OBJECT
 10
8172.9999999999854
 20
-254.49999999999909
 30
0.0
 11
8172.9999999999854
 21
-145.49999999999909
 31
0.0
1001
ACDBBLOCKREPETAG
1070
     1
1071
      122
1005
122EC8
  0
LINE
  5
122EC9
  8
OBJECT
 10
8176.9999999999873
 20
-140.99999999999909
 30
0.0
 11
8172.9999999999854
 21
-145.49999999999909
 31
0.0
1001
ACDBBLOCKREPETAG
1070
     1
1071
      123
1005
122EC9
  0
LINE
  5
122ECA
  8
OBJECT
 10
8176.9999999999873
 20
-258.99999999999909
 30
0.0
 11
8172.9999999999854
 21
-254.49999999999909
 31
0.0
1001
ACDBBLOCKREPETAG
1070
     1
1071
      124
1005
122ECA
  0
LINE
  5
122ECB
  8
OBJECT
 10
8083.0
 20
-137.99999999999909
 30
0.0
 11
8080.0
 21
-137.99999999999909
 31
0.0
1001
ACDBBLOCKREPETAG
1070
     1
1071
      125
1005
122ECB
  0
ARC
  5
122ECC
  8
OBJECT
 10
8083.0
 20
-140.99999999999909
 30
0.0
 40
3.0
 50
0.0
 51
90.0
1001
ACDBBLOCKREPETAG
1070
     1
1071
      126
1005
122ECC
  0
LINE
  5
122ECD
  8
OBJECT
 10
8080.0
 20
-261.99999999999909
 30
0.0
 11
8083.0
 21
-261.99999999999909
 31
0.0
1001
ACDBBLOCKREPETAG
1070
     1
1071
      127
1005
122ECD
  0
ARC
  5
122ECE
  8
OBJECT
 10
8083.0
 20
-258.99999999999909
 30
0.0
 40
3.0
 50
270.0
 51
0.0
1001
ACDBBLOCKREPETAG
1070
     1
1071
      128
1005
122ECE
  0
LINE
  5
122ECF
  8
OBJECT
 10
8086.0
 20
-258.99999999999909
 30
0.0
 11
8086.0
 21
-222.44994432063581
 31
0.0
1001
ACDBBLOCKREPETAG
1070
     1
1071
      129
1005
122ECF
  0
LINE
  5
122ED0
  8
OBJECT
 10
8086.0
 20
-177.55005567935859
 30
0.0
 11
8086.0
 21
-140.99999999999909
 31
0.0
1001
ACDBBLOCKREPETAG
1070
     1
1071
      130
1005
122ED0
  0
LINE
  5
122ED1
  8
HIDDEN
 10
8167.9999999999864
 20
-155.49999999999909
 30
0.0
 11
8167.9999999999864
 21
-244.49999999999909
 31
0.0
1001
ACDBBLOCKREPETAG
1070
     1
1071
      131
1005
122ED1
  0
LINE
  5
122ED2
  8
OBJECT
 10
8159.9999749641838
 20
-254.4999509238105
 30
0.0
 11
8159.9999749641838
 21
-145.4999509238105
 31
0.0
1001
ACDBBLOCKREPETAG
1070
     1
1071
      133
1005
122ED2
  0
ARC
  5
122ED3
  8
OBJECT
 10
8125.0000000000027
 20
-199.99999999999909
 30
0.0
 40
45.000000000000547
 50
90.0
 51
270.0
1001
ACDBBLOCKREPETAG
1070
     1
1071
      134
1005
122ED3
  0
LINE
  5
122ED4
  8
OBJECT
 10
7787.0000000000127
 20
-553.0
 30
0.0
 11
7780.0000000000136
 21
-553.0
 31
0.0
1001
ACDBBLOCKREPETAG
1070
     1
1071
      106
1005
122ED4
  0
LINE
  5
122ED5
  8
OBJECT
 10
7780.0000000000136
 20
-553.0
 30
0.0
 11
7780.0000000000136
 21
-677.0
 31
0.0
1001
ACDBBLOCKREPETAG
1070
     1
1071
      107
1005
122ED5
  0
LINE
  5
122ED6
  8
OBJECT
 10
7914.0000000000136
 20
-653.3502637757274
 30
0.0
 11
7914.0000000000136
 21
-755.00000000000102
 31
0.0
1001
ACDBBLOCKREPETAG
1070
     1
1071
      108
1005
122ED6
  0
LINE
  5
122ED7
  8
OBJECT
 10
7780.0000000000136
 20
-677.0
 30
0.0
 11
7787.0000000000127
 21
-677.0
 31
0.0
1001
ACDBBLOCKREPETAG
1070
     1
1071
      109
1005
122ED7
  0
LINE
  5
122ED8
  8
OBJECT
 10
7787.0000000000127
 20
-677.0
 30
0.0
 11
7787.0000000000127
 21
-553.0
 31
0.0
1001
ACDBBLOCKREPETAG
1070
     1
1071
      110
1005
122ED8
  0
LINE
  5
122ED9
  8
CENTER
 10
7855.0000000000136
 20
-615.0000000000008
 30
0.0
 11
7765.0000000000127
 21
-615.0
 31
0.0
1001
ACDBBLOCKREPETAG
1070
     1
1071
      111
1005
122ED9
  0
LINE
  5
122EDA
  8
OBJECT
 10
7920.0000000000191
 20
-758.0
 30
0.0
 11
7917.0000000000136
 21
-758.0000000000008
 31
0.0
1001
ACDBBLOCKREPETAG
1070
     1
1071
      112
1005
122EDA
  0
ARC
  5
122EDB
  8
OBJECT
 10
7917.0000000000136
 20
-755.00000000000102
 30
0.0
 40
3.0
 50
180.0
 51
270.0
1001
ACDBBLOCKREPETAG
1070
     1
1071
      113
1005
122EDB
  0
LINE
  5
122EDC
  8
OBJECT
 10
7787.0000000000127
 20
-556.0
 30
0.0
 11
7823.0000000000127
 21
-556.0000000000008
 31
0.0
1001
ACDBBLOCKREPETAG
1070
     1
1071
      114
1005
122EDC
  0
LINE
  5
122EDD
  8
OBJECT
 10
7823.0000000000127
 20
-556.0000000000008
 30
0.0
 11
7823.0000000000127
 21
-653.15756805667843
 31
0.0
1001
ACDBBLOCKREPETAG
1070
     1
1071
      115
1005
122EDD
  0
LINE
  5
122EDE
  8
OBJECT
 10
7827.0000000000136
 20
-560.5000000000008
 30
0.0
 11
7827.0000000000182
 21
-645.74491827928705
 31
0.0
1001
ACDBBLOCKREPETAG
1070
     1
1071
      116
1005
122EDE
  0
LINE
  5
122EDF
  8
OBJECT
 10
7827.0000000000136
 20
-560.5000000000008
 30
0.0
 11
7840.0000000000136
 21
-560.5000000000008
 31
0.0
1001
ACDBBLOCKREPETAG
1070
     1
1071
      117
1005
122EDF
  0
LINE
  5
122EE0
  8
OBJECT
 10
7831.3436831745303
 20
-674.0000000000008
 30
0.0
 11
7787.0000000000127
 21
-674.0
 31
0.0
1001
ACDBBLOCKREPETAG
1070
     1
1071
      118
1005
122EE0
  0
LINE
  5
122EE1
  8
OBJECT
 10
7823.0000000000127
 20
-556.0000000000008
 30
0.0
 11
7827.0000000000136
 21
-560.5000000000008
 31
0.0
1001
ACDBBLOCKREPETAG
1070
     1
1071
      119
1005
122EE1
  0
LINE
  5
122EE2
  8
OBJECT
 10
7840.0000000000136
 20
-560.5000000000008
 30
0.0
 11
7840.0000000000136
 21
-645.74491827928784
 31
0.0
1001
ACDBBLOCKREPETAG
1070
     1
1071
      120
1005
122EE2
  0
ARC
  5
122EE3
  8
OBJECT
 10
7908.0000000000136
 20
-637.27386365609345
 30
0.0
 40
85.0
 50
205.5991387218879
 51
231.40900676279119
1001
ACDBBLOCKREPETAG
1070
     1
1071
      121
1005
122EE3
  0
ARC
  5
122EE4
  8
OBJECT
 10
7837.2000000000171
 20
-655.00000000000068
 30
0.0
 40
85.0
 50
19.925932125430649
 51
88.112268108168848
1001
ACDBBLOCKREPETAG
1070
     1
1071
      122
1005
122EE4
  0
LINE
  5
122EE5
  8
OBJECT
 10
7914.0000000000136
 20
-750.81075719270905
 30
0.0
 11
7854.9806774563967
 21
-703.71143914629454
 31
0.0
1001
ACDBBLOCKREPETAG
1070
     1
1071
      123
1005
122EE5
  0
LINE
  5
122EE6
  8
OBJECT
 10
7827.0000000000182
 20
-645.74491827928705
 30
0.0
 11
7840.0000000000136
 21
-645.74491827928784
 31
0.0
1001
ACDBBLOCKREPETAG
1070
     1
1071
      124
1005
122EE6
  0
LINE
  5
122EE7
  8
OBJECT
 10
7823.0000000000127
 20
-653.15756805667843
 30
0.0
 11
7827.0000000000182
 21
-645.74491827928705
 31
0.0
1001
ACDBBLOCKREPETAG
1070
     1
1071
      125
1005
122EE7
  0
LINE
  5
122EE8
  8
OBJECT
 10
7919.99999999998
 20
-634.0
 30
0.0
 11
7917.1113878403758
 21
-626.03156729425325
 31
0.0
1001
ACDBBLOCKREPETAG
1070
     1
1071
      126
1005
122EE8
  0
LINE
  5
122EE9
  8
OBJECT
 10
7919.99999999998
 20
-634.0
 30
0.0
 11
7914.0000000000136
 21
-653.3502637757274
 31
0.0
1001
ACDBBLOCKREPETAG
1070
     1
1071
      127
1005
122EE9
  0
LINE
  5
122EEA
  8
HIDDEN
 10
7832.0000000000136
 20
-570.5000000000008
 30
0.0
 11
7832.0000000000136
 21
-659.50000000000068
 31
0.0
1001
ACDBBLOCKREPETAG
1070
     1
1071
      129
1005
122EEA
  0
CIRCLE
  5
122EEB
  8
OBJECT
 10
8000.0
 20
-696.0
 30
0.0
 40
62.0
1001
ACDBBLOCKREPETAG
1070
     1
1071
        0
1005
122EEB
  0
LINE
  5
122EEC
  8
OBJECT
 10
8212.9999999999836
 20
-553.0000000000008
 30
0.0
 11
8219.9999999999873
 21
-553.0000000000008
 31
0.0
1001
ACDBBLOCKREPETAG
1070
     1
1071
      106
1005
122EEC
  0
LINE
  5
122EED
  8
OBJECT
 10
8219.9999999999873
 20
-553.0000000000008
 30
0.0
 11
8219.9999999999873
 21
-677.0000000000008
 31
0.0
1001
ACDBBLOCKREPETAG
1070
     1
1071
      107
1005
122EED
  0
LINE
  5
122EEE
  8
OBJECT
 10
8085.9999999999873
 20
-653.3502637757274
 30
0.0
 11
8085.9999999999873
 21
-755.00000000000102
 31
0.0
1001
ACDBBLOCKREPETAG
1070
     1
1071
      108
1005
122EEE
  0
LINE
  5
122EEF
  8
OBJECT
 10
8219.9999999999873
 20
-677.0000000000008
 30
0.0
 11
8212.9999999999836
 21
-677.0000000000008
 31
0.0
1001
ACDBBLOCKREPETAG
1070
     1
1071
      109
1005
122EEF
  0
LINE
  5
122EF0
  8
OBJECT
 10
8212.9999999999836
 20
-677.0000000000008
 30
0.0
 11
8212.9999999999836
 21
-553.0000000000008
 31
0.0
1001
ACDBBLOCKREPETAG
1070
     1
1071
      110
1005
122EF0
  0
LINE
  5
122EF1
  8
CENTER
 10
8144.9999999999873
 20
-615.0000000000008
 30
0.0
 11
8234.9999999999873
 21
-615.0000000000008
 31
0.0
1001
ACDBBLOCKREPETAG
1070
     1
1071
      111
1005
122EF1
  0
LINE
  5
122EF2
  8
OBJECT
 10
8079.9999999999818
 20
-758.0
 30
0.0
 11
8082.9999999999873
 21
-758.0000000000008
 31
0.0
1001
ACDBBLOCKREPETAG
1070
     1
1071
      112
1005
122EF2
  0
ARC
  5
122EF3
  8
OBJECT
 10
8082.9999999999873
 20
-755.00000000000102
 30
0.0
 40
3.0
 50
270.0
 51
0.0
1001
ACDBBLOCKREPETAG
1070
     1
1071
      113
1005
122EF3
  0
LINE
  5
122EF4
  8
OBJECT
 10
8212.9999999999836
 20
-556.0000000000008
 30
0.0
 11
8176.9999999999873
 21
-556.0000000000008
 31
0.0
1001
ACDBBLOCKREPETAG
1070
     1
1071
      114
1005
122EF4
  0
LINE
  5
122EF5
  8
OBJECT
 10
8176.9999999999873
 20
-556.0000000000008
 30
0.0
 11
8176.9999999999873
 21
-653.15756805667843
 31
0.0
1001
ACDBBLOCKREPETAG
1070
     1
1071
      115
1005
122EF5
  0
LINE
  5
122EF6
  8
OBJECT
 10
8172.9999999999854
 20
-560.5000000000008
 30
0.0
 11
8172.99999999998
 21
-645.74491827928705
 31
0.0
1001
ACDBBLOCKREPETAG
1070
     1
1071
      116
1005
122EF6
  0
LINE
  5
122EF7
  8
OBJECT
 10
8172.9999999999854
 20
-560.5000000000008
 30
0.0
 11
8159.9999999999873
 21
-560.5000000000008
 31
0.0
1001
ACDBBLOCKREPETAG
1070
     1
1071
      117
1005
122EF7
  0
LINE
  5
122EF8
  8
OBJECT
 10
8168.6563168254688
 20
-674.0000000000008
 30
0.0
 11
8212.9999999999836
 21
-674.0000000000008
 31
0.0
1001
ACDBBLOCKREPETAG
1070
     1
1071
      118
1005
122EF8
  0
LINE
  5
122EF9
  8
OBJECT
 10
8176.9999999999873
 20
-556.0000000000008
 30
0.0
 11
8172.9999999999854
 21
-560.5000000000008
 31
0.0
1001
ACDBBLOCKREPETAG
1070
     1
1071
      119
1005
122EF9
  0
LINE
  5
122EFA
  8
OBJECT
 10
8159.9999999999873
 20
-560.5000000000008
 30
0.0
 11
8159.9999999999873
 21
-645.74491827928784
 31
0.0
1001
ACDBBLOCKREPETAG
1070
     1
1071
      120
1005
122EFA
  0
ARC
  5
122EFB
  8
OBJECT
 10
8091.9999999999864
 20
-637.27386365609345
 30
0.0
 40
85.0
 50
308.59099323720869
 51
334.40086127811207
1001
ACDBBLOCKREPETAG
1070
     1
1071
      121
1005
122EFB
  0
ARC
  5
122EFC
  8
OBJECT
 10
8162.7999999999838
 20
-655.00000000000068
 30
0.0
 40
85.0
 50
91.887731891831123
 51
160.07406787456929
1001
ACDBBLOCKREPETAG
1070
     1
1071
      122
1005
122EFC
  0
LINE
  5
122EFD
  8
OBJECT
 10
8085.9999999999873
 20
-750.81075719270905
 30
0.0
 11
8145.0193225436024
 21
-703.71143914629454
 31
0.0
1001
ACDBBLOCKREPETAG
1070
     1
1071
      123
1005
122EFD
  0
LINE
  5
122EFE
  8
OBJECT
 10
8172.99999999998
 20
-645.74491827928705
 30
0.0
 11
8159.9999999999873
 21
-645.74491827928784
 31
0.0
1001
ACDBBLOCKREPETAG
1070
     1
1071
      124
1005
122EFE
  0
LINE
  5
122EFF
  8
OBJECT
 10
8176.9999999999873
 20
-653.15756805667843
 30
0.0
 11
8172.99999999998
 21
-645.74491827928705
 31
0.0
1001
ACDBBLOCKREPETAG
1070
     1
1071
      125
1005
122EFF
  0
LINE
  5
122F00
  8
OBJECT
 10
8080.0000000000173
 20
-634.0
 30
0.0
 11
8082.8886121596206
 21
-626.03156729425325
 31
0.0
1001
ACDBBLOCKREPETAG
1070
     1
1071
      126
1005
122F00
  0
LINE
  5
122F01
  8
OBJECT
 10
8080.0000000000173
 20
-634.0
 30
0.0
 11
8085.9999999999873
 21
-653.3502637757274
 31
0.0
1001
ACDBBLOCKREPETAG
1070
     1
1071
      127
1005
122F01
  0
LINE
  5
122F02
  8
HIDDEN
 10
8167.9999999999864
 20
-570.5000000000008
 30
0.0
 11
8167.9999999999864
 21
-659.50000000000068
 31
0.0
1001
ACDBBLOCKREPETAG
1070
     1
1071
      129
1005
122F02
  0
LINE
  5
122F03
  8
OBJECT
 10
5923.0
 20
-570.99999999999432
 30
0.0
 11
5923.0
 21
-549.99999999999432
 31
0.0
1001
ACDBBLOCKREPETAG
1070
     1
1071
       36
1005
122F03
  0
LINE
  5
122F04
  8
OBJECT
 10
5923.0
 20
-549.99999999999432
 30
0.0
 11
6077.0
 21
-549.99999999999432
 31
0.0
1001
ACDBBLOCKREPETAG
1070
     1
1071
       37
1005
122F04
  0
LINE
  5
122F05
  8
HIDDEN
 10
5943.0
 20
-619.99999999999432
 30
0.0
 11
6057.0
 21
-619.99999999999432
 31
0.0
1001
ACDBBLOCKREPETAG
1070
     1
1071
       38
1005
122F05
  0
LINE
  5
122F06
  8
OBJECT
 10
6077.0
 20
-549.99999999999432
 30
0.0
 11
6077.0
 21
-570.99999999999432
 31
0.0
1001
ACDBBLOCKREPETAG
1070
     1
1071
       39
1005
122F06
  0
LINE
  5
122F07
  8
OBJECT
 10
6077.0
 20
-570.99999999999432
 30
0.0
 11
5923.0
 21
-570.99999999999432
 31
0.0
1001
ACDBBLOCKREPETAG
1070
     1
1071
       40
1005
122F07
  0
LINE
  5
122F08
  8
CENTER
 10
6000.0
 20
-534.99999999999432
 30
0.0
 11
6000.0
 21
-769.9999999999942
 31
0.0
1001
ACDBBLOCKREPETAG
1070
     1
1071
       41
1005
122F08
  0
LINE
  5
122F09
  8
OBJECT
 10
5928.0
 20
-570.99999999999432
 30
0.0
 11
5928.0
 21
-633.99999999999432
 31
0.0
1001
ACDBBLOCKREPETAG
1070
     1
1071
       42
1005
122F09
  0
LINE
  5
122F0A
  8
OBJECT
 10
6072.0
 20
-633.99999999999432
 30
0.0
 11
6072.0
 21
-570.99999999999432
 31
0.0
1001
ACDBBLOCKREPETAG
1070
     1
1071
       43
1005
122F0A
  0
LINE
  5
122F0B
  8
OBJECT
 10
5920.0
 20
-757.9999999999942
 30
0.0
 11
6080.0
 21
-757.9999999999942
 31
0.0
1001
ACDBBLOCKREPETAG
1070
     1
1071
       44
1005
122F0B
  0
LINE
  5
122F0C
  8
OBJECT
 10
6080.0
 20
-633.99999999999432
 30
0.0
 11
5920.0
 21
-633.99999999999432
 31
0.0
1001
ACDBBLOCKREPETAG
1070
     1
1071
       45
1005
122F0C
  0
LINE
  5
122F0D
  8
OBJECT
 10
5920.0
 20
-757.9999999999942
 30
0.0
 11
5920.0
 21
-769.9999999999942
 31
0.0
1001
ACDBBLOCKREPETAG
1070
     1
1071
       46
1005
122F0D
  0
LINE
  5
122F0E
  8
OBJECT
 10
5920.0
 20
-769.9999999999942
 30
0.0
 11
6080.0
 21
-769.9999999999942
 31
0.0
1001
ACDBBLOCKREPETAG
1070
     1
1071
       47
1005
122F0E
  0
LINE
  5
122F0F
  8
OBJECT
 10
6080.0
 20
-769.9999999999942
 30
0.0
 11
6080.0
 21
-757.9999999999942
 31
0.0
1001
ACDBBLOCKREPETAG
1070
     1
1071
       48
1005
122F0F
  0
ARC
  5
122F10
  8
OBJECT
 10
6200.6872746716735
 20
-749.40809941010195
 30
0.0
 40
170.6350503965856
 50
137.44134459184301
 51
149.91949581337221
1001
ACDBBLOCKREPETAG
1070
     1
1071
       52
1005
122F10
  0
ARC
  5
122F11
  8
OBJECT
 10
6200.6872746716735
 20
-642.59190058988645
 30
0.0
 40
170.6350503965856
 50
210.08050418662771
 51
222.55865540815699
1001
ACDBBLOCKREPETAG
1070
     1
1071
       53
1005
122F11
  0
ARC
  5
122F12
  8
OBJECT
 10
5799.3127253283274
 20
-749.40809941010195
 30
0.0
 40
170.6350503965856
 50
30.080504186787142
 51
42.558655408456282
1001
ACDBBLOCKREPETAG
1070
     1
1071
       54
1005
122F12
  0
ARC
  5
122F13
  8
OBJECT
 10
5799.3127253283274
 20
-642.59190058988645
 30
0.0
 40
170.6350503965856
 50
317.44134459154373
 51
329.9194958132129
1001
ACDBBLOCKREPETAG
1070
     1
1071
       55
1005
122F13
  0
POINT
  5
122F14
  8
DOTS
 10
6000.0
 20
-754.9999999999942
 30
0.0
1001
ACDBBLOCKREPETAG
1070
     1
1071
      184
1005
122F14
  0
LINE
  5
122F15
  8
OBJECT
 10
5969.4199755553018
 20
-243.89888500818171
 30
0.0
 11
5979.8564918232369
 21
-222.48688253356801
 31
0.0
1001
ACDBBLOCKREPETAG
1070
     1
1071
      305
1005
122F15
  0
LINE
  5
122F16
  8
OBJECT
 10
5965.2972169006089
 20
-240.71813901882729
 30
0.0
 11
5973.9071022665084
 21
-223.05373004430751
 31
0.0
1001
ACDBBLOCKREPETAG
1070
     1
1071
      306
1005
122F16
  0
LINE
  5
122F17
  8
OBJECT
 10
6024.1029330933034
 20
-243.80694712371681
 30
0.0
 11
6020.6596569999956
 21
-232.55462199999889
 31
0.0
1001
ACDBBLOCKREPETAG
1070
     1
1071
      307
1005
122F17
  0
ARC
  5
122F18
  8
OBJECT
 10
5976.5796953073141
 20
-207.1289369828437
 30
0.0
 40
60.031113246032611
 50
314.07020130418567
 51
322.33936106089681
1001
ACDBBLOCKREPETAG
1070
     1
1071
      308
1005
122F18
  0
LINE
  5
122F19
  8
OBJECT
 10
5986.7927499013749
 20
-218.22553374208019
 30
0.0
 11
6020.6596569999956
 21
-232.5546219999969
 31
0.0
1001
ACDBBLOCKREPETAG
1070
     1
1071
      309
1005
122F19
  0
ARC
  5
122F1A
  8
OBJECT
 10
5982.8961697618997
 20
-227.4351299990567
 30
0.0
 40
10.0
 50
67.066778292911366
 51
154.0147343702935
1001
ACDBBLOCKREPETAG
1070
     1
1071
      310
1005
122F1A
  0
ARC
  5
122F1B
  8
OBJECT
 10
5986.1488390381273
 20
-225.55386256729159
 30
0.0
 40
7.0
 50
67.066778292911366
 51
154.0147337749826
1001
ACDBBLOCKREPETAG
1070
     1
1071
      311
1005
122F1B
  0
CIRCLE
  5
122F1C
  8
OBJECT
 10
6000.0
 20
-199.99999999999909
 30
0.0
 40
53.5
1001
ACDBBLOCKREPETAG
1070
     1
1071
      340
1005
122F1C
  0
POINT
  5
122F1D
  8
DOTS
 10
6000.0
 20
-199.99999999999909
 30
0.0
 50
270.0
1001
ACDBBLOCKREPETAG
1070
     1
1071
      153
1005
122F1D
  0
ARC
  5
122F1E
  8
OBJECT
 10
6000.0
 20
-199.99999999999909
 30
0.0
 40
50.0
 50
298.81994300000417
 51
228.52376955965491
1001
ACDBBLOCKREPETAG
1070
     1
1071
       48
1005
122F1E
  0
LINE
  5
122F1F
  8
CENTER
 10
6080.0
 20
-199.99999999999909
 30
0.0
 11
5920.0
 21
-199.99999999999909
 31
0.0
1001
ACDBBLOCKREPETAG
1070
     1
1071
       49
1005
122F1F
  0
LINE
  5
122F20
  8
CENTER
 10
6000.0
 20
-279.99999999999909
 30
0.0
 11
6000.0
 21
-104.9999999999991
 31
0.0
1001
ACDBBLOCKREPETAG
1070
     1
1071
       50
1005
122F20
  0
CIRCLE
  5
122F21
  8
OBJECT
 10
6000.0
 20
-199.99999999999909
 30
0.0
 40
70.0
1001
ACDBBLOCKREPETAG
1070
     1
1071
       51
1005
122F21
  0
CIRCLE
  5
122F22
  8
OBJECT
 10
6000.0
 20
-199.99999999999909
 30
0.0
 40
77.0
1001
ACDBBLOCKREPETAG
1070
     1
1071
       52
1005
122F22
  0
ARC
  5
122F23
  8
OBJECT
 10
6000.0
 20
-199.99999999999909
 30
0.0
 40
80.0
 50
50.80503257388439
 51
129.1949674261156
1001
ACDBBLOCKREPETAG
1070
     1
1071
       53
1005
122F23
  0
LINE
  5
122F24
  8
OBJECT
 10
6045.6618002273253
 20
-137.99999999999909
 30
0.0
 11
6080.0
 21
-137.99999999999909
 31
0.0
1001
ACDBBLOCKREPETAG
1070
     1
1071
       54
1005
122F24
  0
LINE
  5
122F25
  8
OBJECT
 10
6062.0
 20
-261.99999999999909
 30
0.0
 11
6080.0
 21
-261.99999999999909
 31
0.0
1001
ACDBBLOCKREPETAG
1070
     1
1071
       55
1005
122F25
  0
LINE
  5
122F26
  8
OBJECT
 10
6062.0
 20
-261.99999999999909
 30
0.0
 11
6062.0
 21
-279.99999999999909
 31
0.0
1001
ACDBBLOCKREPETAG
1070
     1
1071
       57
1005
122F26
  0
LINE
  5
122F27
  8
OBJECT
 10
5938.0
 20
-261.99999999999909
 30
0.0
 11
5938.0
 21
-279.99999999999909
 31
0.0
1001
ACDBBLOCKREPETAG
1070
     1
1071
       58
1005
122F27
  0
LINE
  5
122F28
  8
OBJECT
 10
5938.0
 20
-261.99999999999909
 30
0.0
 11
5920.0
 21
-261.99999999999909
 31
0.0
1001
ACDBBLOCKREPETAG
1070
     1
1071
       60
1005
122F28
  0
LINE
  5
122F29
  8
OBJECT
 10
5954.3381997726738
 20
-137.99999999999909
 30
0.0
 11
5920.0
 21
-137.99999999999909
 31
0.0
1001
ACDBBLOCKREPETAG
1070
     1
1071
       61
1005
122F29
  0
LINE
  5
122F2A
  8
OBJECT
 10
5945.5527778486367
 20
-254.44722215136329
 30
0.0
 11
5938.0
 21
-261.99999999999909
 31
0.0
1001
ACDBBLOCKREPETAG
1070
     1
1071
       42
1005
122F2A
  0
LINE
  5
122F2B
  8
OBJECT
 10
6054.4472221513633
 20
-254.44722215136329
 30
0.0
 11
6062.0
 21
-261.99999999999909
 31
0.0
1001
ACDBBLOCKREPETAG
1070
     1
1071
       43
1005
122F2B
  0
LINE
  5
122F2C
  8
OBJECT
 10
5787.0000000000182
 20
-137.99999999999909
 30
0.0
 11
5780.0000000000182
 21
-137.99999999999909
 31
0.0
1001
ACDBBLOCKREPETAG
1070
     1
1071
      110
1005
122F2C
  0
LINE
  5
122F2D
  8
OBJECT
 10
5780.0000000000182
 20
-137.99999999999909
 30
0.0
 11
5780.0000000000182
 21
-261.99999999999909
 31
0.0
1001
ACDBBLOCKREPETAG
1070
     1
1071
      111
1005
122F2D
  0
LINE
  5
122F2E
  8
OBJECT
 10
5780.0000000000182
 20
-261.99999999999909
 30
0.0
 11
5787.0000000000182
 21
-261.99999999999909
 31
0.0
1001
ACDBBLOCKREPETAG
1070
     1
1071
      112
1005
122F2E
  0
LINE
  5
122F2F
  8
OBJECT
 10
5787.0000000000182
 20
-261.99999999999909
 30
0.0
 11
5787.0000000000182
 21
-137.99999999999909
 31
0.0
1001
ACDBBLOCKREPETAG
1070
     1
1071
      113
1005
122F2F
  0
LINE
  5
122F30
  8
CENTER
 10
5765.0000000000182
 20
-199.99999999999909
 30
0.0
 11
5920.0
 21
-199.99999999999909
 31
0.0
1001
ACDBBLOCKREPETAG
1070
     1
1071
      114
1005
122F30
  0
LINE
  5
122F31
  8
OBJECT
 10
5840.0000250358171
 20
-245.0000000000027
 30
0.0
 11
5914.0000000000036
 21
-244.99999999999909
 31
0.0
1001
ACDBBLOCKREPETAG
1070
     1
1071
      115
1005
122F31
  0
LINE
  5
122F32
  8
OBJECT
 10
5840.0000250358171
 20
-154.99999999999909
 30
0.0
 11
5914.0000000000036
 21
-154.99999999999909
 31
0.0
1001
ACDBBLOCKREPETAG
1070
     1
1071
      116
1005
122F32
  0
LINE
  5
122F33
  8
OBJECT
 10
5787.0000000000182
 20
-140.99999999999909
 30
0.0
 11
5823.0000000000182
 21
-140.99999999999909
 31
0.0
1001
ACDBBLOCKREPETAG
1070
     1
1071
      117
1005
122F33
  0
LINE
  5
122F34
  8
OBJECT
 10
5823.0000000000182
 20
-140.99999999999909
 30
0.0
 11
5823.0000000000182
 21
-258.99999999999909
 31
0.0
1001
ACDBBLOCKREPETAG
1070
     1
1071
      118
1005
122F34
  0
LINE
  5
122F35
  8
OBJECT
 10
5823.0000000000182
 20
-258.99999999999909
 30
0.0
 11
5787.0000000000182
 21
-258.99999999999909
 31
0.0
1001
ACDBBLOCKREPETAG
1070
     1
1071
      119
1005
122F35
  0
LINE
  5
122F36
  8
OBJECT
 10
5827.0000000000182
 20
-145.49999999999909
 30
0.0
 11
5840.0000000000182
 21
-145.49999999999909
 31
0.0
1001
ACDBBLOCKREPETAG
1070
     1
1071
      120
1005
122F36
  0
LINE
  5
122F37
  8
OBJECT
 10
5840.0000000000182
 20
-254.49999999999909
 30
0.0
 11
5827.0000000000182
 21
-254.49999999999909
 31
0.0
1001
ACDBBLOCKREPETAG
1070
     1
1071
      121
1005
122F37
  0
LINE
  5
122F38
  8
OBJECT
 10
5827.0000000000182
 20
-254.49999999999909
 30
0.0
 11
5827.0000000000182
 21
-145.49999999999909
 31
0.0
1001
ACDBBLOCKREPETAG
1070
     1
1071
      122
1005
122F38
  0
LINE
  5
122F39
  8
OBJECT
 10
5823.0000000000182
 20
-140.99999999999909
 30
0.0
 11
5827.0000000000182
 21
-145.49999999999909
 31
0.0
1001
ACDBBLOCKREPETAG
1070
     1
1071
      123
1005
122F39
  0
LINE
  5
122F3A
  8
OBJECT
 10
5823.0000000000182
 20
-258.99999999999909
 30
0.0
 11
5827.0000000000182
 21
-254.49999999999909
 31
0.0
1001
ACDBBLOCKREPETAG
1070
     1
1071
      124
1005
122F3A
  0
LINE
  5
122F3B
  8
OBJECT
 10
5917.0000000000036
 20
-137.99999999999909
 30
0.0
 11
5920.0000000000036
 21
-137.99999999999909
 31
0.0
1001
ACDBBLOCKREPETAG
1070
     1
1071
      125
1005
122F3B
  0
ARC
  5
122F3C
  8
OBJECT
 10
5917.0000000000036
 20
-140.99999999999909
 30
0.0
 40
3.0
 50
90.0
 51
180.0
1001
ACDBBLOCKREPETAG
1070
     1
1071
      126
1005
122F3C
  0
LINE
  5
122F3D
  8
OBJECT
 10
5920.0000000000036
 20
-261.99999999999909
 30
0.0
 11
5917.0000000000036
 21
-261.99999999999909
 31
0.0
1001
ACDBBLOCKREPETAG
1070
     1
1071
      127
1005
122F3D
  0
ARC
  5
122F3E
  8
OBJECT
 10
5917.0000000000036
 20
-258.99999999999909
 30
0.0
 40
3.0
 50
180.0
 51
270.0
1001
ACDBBLOCKREPETAG
1070
     1
1071
      128
1005
122F3E
  0
LINE
  5
122F3F
  8
OBJECT
 10
5914.0000000000036
 20
-258.99999999999909
 30
0.0
 11
5914.0000000000036
 21
-222.44994432063581
 31
0.0
1001
ACDBBLOCKREPETAG
1070
     1
1071
      129
1005
122F3F
  0
LINE
  5
122F40
  8
OBJECT
 10
5914.0000000000036
 20
-177.55005567935859
 30
0.0
 11
5914.0000000000036
 21
-140.99999999999909
 31
0.0
1001
ACDBBLOCKREPETAG
1070
     1
1071
      130
1005
122F40
  0
LINE
  5
122F41
  8
HIDDEN
 10
5832.0000000000182
 20
-155.49999999999909
 30
0.0
 11
5832.0000000000182
 21
-244.49999999999909
 31
0.0
1001
ACDBBLOCKREPETAG
1070
     1
1071
      131
1005
122F41
  0
LINE
  5
122F42
  8
OBJECT
 10
5840.0000250358171
 20
-254.4999509238105
 30
0.0
 11
5840.0000250358171
 21
-145.4999509238105
 31
0.0
1001
ACDBBLOCKREPETAG
1070
     1
1071
      133
1005
122F42
  0
ARC
  5
122F43
  8
OBJECT
 10
5875.0
 20
-199.99999999999909
 30
0.0
 40
45.000000000000547
 50
270.0
 51
90.0
1001
ACDBBLOCKREPETAG
1070
     1
1071
      134
1005
122F43
  0
LINE
  5
122F44
  8
CENTER
 10
6000.0
 20
-300.99999999999898
 30
0.0
 11
6000.0
 21
-279.99999999999909
 31
0.0
1001
ACDBBLOCKREPETAG
1070
     1
1071
        0
1005
122F44
  0
LINE
  5
122F45
  8
OBJECT
 10
6062.0
 20
-283.0
 30
0.0
 11
6062.0
 21
-279.99999999999909
 31
0.0
1001
ACDBBLOCKREPETAG
1070
     1
1071
        1
1005
122F45
  0
ARC
  5
122F46
  8
OBJECT
 10
6059.0
 20
-283.0
 30
0.0
 40
3.0
 50
270.0
 51
0.0
1001
ACDBBLOCKREPETAG
1070
     1
1071
        2
1005
122F46
  0
LINE
  5
122F47
  8
OBJECT
 10
5938.0
 20
-279.99999999999909
 30
0.0
 11
5938.0
 21
-282.99999999999818
 31
0.0
1001
ACDBBLOCKREPETAG
1070
     1
1071
        3
1005
122F47
  0
ARC
  5
122F48
  8
OBJECT
 10
5941.0
 20
-282.99999999999818
 30
0.0
 40
3.0
 50
180.0
 51
270.0
1001
ACDBBLOCKREPETAG
1070
     1
1071
        4
1005
122F48
  0
LINE
  5
122F49
  8
OBJECT
 10
5941.0
 20
-285.99999999999818
 30
0.0
 11
6059.0
 21
-286.0
 31
0.0
1001
ACDBBLOCKREPETAG
1070
     1
1071
        5
1005
122F49
  0
LINE
  5
122F4A
  8
OBJECT
 10
6212.9999999999864
 20
-137.99999999999909
 30
0.0
 11
6219.9999999999873
 21
-137.99999999999909
 31
0.0
1001
ACDBBLOCKREPETAG
1070
     1
1071
      110
1005
122F4A
  0
LINE
  5
122F4B
  8
OBJECT
 10
6219.9999999999873
 20
-137.99999999999909
 30
0.0
 11
6219.9999999999873
 21
-261.99999999999909
 31
0.0
1001
ACDBBLOCKREPETAG
1070
     1
1071
      111
1005
122F4B
  0
LINE
  5
122F4C
  8
OBJECT
 10
6219.9999999999873
 20
-261.99999999999909
 30
0.0
 11
6212.9999999999864
 21
-261.99999999999909
 31
0.0
1001
ACDBBLOCKREPETAG
1070
     1
1071
      112
1005
122F4C
  0
LINE
  5
122F4D
  8
OBJECT
 10
6212.9999999999864
 20
-261.99999999999909
 30
0.0
 11
6212.9999999999864
 21
-137.99999999999909
 31
0.0
1001
ACDBBLOCKREPETAG
1070
     1
1071
      113
1005
122F4D
  0
LINE
  5
122F4E
  8
CENTER
 10
6234.9999999999864
 20
-199.99999999999909
 30
0.0
 11
6080.0000000000036
 21
-199.99999999999909
 31
0.0
1001
ACDBBLOCKREPETAG
1070
     1
1071
      114
1005
122F4E
  0
LINE
  5
122F4F
  8
OBJECT
 10
6159.9999749641856
 20
-245.0000000000027
 30
0.0
 11
6086.0
 21
-244.99999999999909
 31
0.0
1001
ACDBBLOCKREPETAG
1070
     1
1071
      115
1005
122F4F
  0
LINE
  5
122F50
  8
OBJECT
 10
6159.9999749641856
 20
-154.99999999999909
 30
0.0
 11
6086.0
 21
-154.99999999999909
 31
0.0
1001
ACDBBLOCKREPETAG
1070
     1
1071
      116
1005
122F50
  0
LINE
  5
122F51
  8
OBJECT
 10
6212.9999999999864
 20
-140.99999999999909
 30
0.0
 11
6176.9999999999873
 21
-140.99999999999909
 31
0.0
1001
ACDBBLOCKREPETAG
1070
     1
1071
      117
1005
122F51
  0
LINE
  5
122F52
  8
OBJECT
 10
6176.9999999999873
 20
-140.99999999999909
 30
0.0
 11
6176.9999999999873
 21
-258.99999999999909
 31
0.0
1001
ACDBBLOCKREPETAG
1070
     1
1071
      118
1005
122F52
  0
LINE
  5
122F53
  8
OBJECT
 10
6176.9999999999873
 20
-258.99999999999909
 30
0.0
 11
6212.9999999999864
 21
-258.99999999999909
 31
0.0
1001
ACDBBLOCKREPETAG
1070
     1
1071
      119
1005
122F53
  0
LINE
  5
122F54
  8
OBJECT
 10
6172.9999999999864
 20
-145.49999999999909
 30
0.0
 11
6159.9999999999864
 21
-145.49999999999909
 31
0.0
1001
ACDBBLOCKREPETAG
1070
     1
1071
      120
1005
122F54
  0
LINE
  5
122F55
  8
OBJECT
 10
6159.9999999999864
 20
-254.49999999999909
 30
0.0
 11
6172.9999999999864
 21
-254.49999999999909
 31
0.0
1001
ACDBBLOCKREPETAG
1070
     1
1071
      121
1005
122F55
  0
LINE
  5
122F56
  8
OBJECT
 10
6172.9999999999864
 20
-254.49999999999909
 30
0.0
 11
6172.9999999999864
 21
-145.49999999999909
 31
0.0
1001
ACDBBLOCKREPETAG
1070
     1
1071
      122
1005
122F56
  0
LINE
  5
122F57
  8
OBJECT
 10
6176.9999999999873
 20
-140.99999999999909
 30
0.0
 11
6172.9999999999864
 21
-145.49999999999909
 31
0.0
1001
ACDBBLOCKREPETAG
1070
     1
1071
      123
1005
122F57
  0
LINE
  5
122F58
  8
OBJECT
 10
6176.9999999999873
 20
-258.99999999999909
 30
0.0
 11
6172.9999999999864
 21
-254.49999999999909
 31
0.0
1001
ACDBBLOCKREPETAG
1070
     1
1071
      124
1005
122F58
  0
LINE
  5
122F59
  8
OBJECT
 10
6083.0
 20
-137.99999999999909
 30
0.0
 11
6080.0
 21
-137.99999999999909
 31
0.0
1001
ACDBBLOCKREPETAG
1070
     1
1071
      125
1005
122F59
  0
ARC
  5
122F5A
  8
OBJECT
 10
6083.0
 20
-140.99999999999909
 30
0.0
 40
3.0
 50
0.0
 51
90.0
1001
ACDBBLOCKREPETAG
1070
     1
1071
      126
1005
122F5A
  0
LINE
  5
122F5B
  8
OBJECT
 10
6080.0
 20
-261.99999999999909
 30
0.0
 11
6083.0
 21
-261.99999999999909
 31
0.0
1001
ACDBBLOCKREPETAG
1070
     1
1071
      127
1005
122F5B
  0
ARC
  5
122F5C
  8
OBJECT
 10
6083.0
 20
-258.99999999999909
 30
0.0
 40
3.0
 50
270.0
 51
0.0
1001
ACDBBLOCKREPETAG
1070
     1
1071
      128
1005
122F5C
  0
LINE
  5
122F5D
  8
OBJECT
 10
6086.0
 20
-258.99999999999909
 30
0.0
 11
6086.0
 21
-222.44994432063581
 31
0.0
1001
ACDBBLOCKREPETAG
1070
     1
1071
      129
1005
122F5D
  0
LINE
  5
122F5E
  8
OBJECT
 10
6086.0
 20
-177.55005567935859
 30
0.0
 11
6086.0
 21
-140.99999999999909
 31
0.0
1001
ACDBBLOCKREPETAG
1070
     1
1071
      130
1005
122F5E
  0
LINE
  5
122F5F
  8
HIDDEN
 10
6167.9999999999864
 20
-155.49999999999909
 30
0.0
 11
6167.9999999999864
 21
-244.49999999999909
 31
0.0
1001
ACDBBLOCKREPETAG
1070
     1
1071
      131
1005
122F5F
  0
LINE
  5
122F60
  8
OBJECT
 10
6159.9999749641856
 20
-254.4999509238105
 30
0.0
 11
6159.9999749641856
 21
-145.4999509238105
 31
0.0
1001
ACDBBLOCKREPETAG
1070
     1
1071
      133
1005
122F60
  0
ARC
  5
122F61
  8
OBJECT
 10
6125.0000000000027
 20
-199.99999999999909
 30
0.0
 40
45.000000000000547
 50
90.0
 51
270.0
1001
ACDBBLOCKREPETAG
1070
     1
1071
      134
1005
122F61
  0
LINE
  5
122F62
  8
OBJECT
 10
5787.0000000000146
 20
-553.0
 30
0.0
 11
5780.0000000000146
 21
-553.0
 31
0.0
1001
ACDBBLOCKREPETAG
1070
     1
1071
      106
1005
122F62
  0
LINE
  5
122F63
  8
OBJECT
 10
5780.0000000000146
 20
-553.0
 30
0.0
 11
5780.0000000000146
 21
-677.0
 31
0.0
1001
ACDBBLOCKREPETAG
1070
     1
1071
      107
1005
122F63
  0
LINE
  5
122F64
  8
OBJECT
 10
5914.0000000000146
 20
-653.3502637757274
 30
0.0
 11
5914.0000000000146
 21
-755.00000000000102
 31
0.0
1001
ACDBBLOCKREPETAG
1070
     1
1071
      108
1005
122F64
  0
LINE
  5
122F65
  8
OBJECT
 10
5780.0000000000146
 20
-677.0
 30
0.0
 11
5787.0000000000146
 21
-677.0
 31
0.0
1001
ACDBBLOCKREPETAG
1070
     1
1071
      109
1005
122F65
  0
LINE
  5
122F66
  8
OBJECT
 10
5787.0000000000146
 20
-677.0
 30
0.0
 11
5787.0000000000146
 21
-553.0
 31
0.0
1001
ACDBBLOCKREPETAG
1070
     1
1071
      110
1005
122F66
  0
LINE
  5
122F67
  8
CENTER
 10
5855.0000000000136
 20
-615.0000000000008
 30
0.0
 11
5765.0000000000136
 21
-615.0
 31
0.0
1001
ACDBBLOCKREPETAG
1070
     1
1071
      111
1005
122F67
  0
LINE
  5
122F68
  8
OBJECT
 10
5920.0000000000182
 20
-758.0
 30
0.0
 11
5917.0000000000136
 21
-758.0000000000008
 31
0.0
1001
ACDBBLOCKREPETAG
1070
     1
1071
      112
1005
122F68
  0
ARC
  5
122F69
  8
OBJECT
 10
5917.0000000000136
 20
-755.00000000000102
 30
0.0
 40
3.0
 50
180.0
 51
270.0
1001
ACDBBLOCKREPETAG
1070
     1
1071
      113
1005
122F69
  0
LINE
  5
122F6A
  8
OBJECT
 10
5787.0000000000146
 20
-556.0
 30
0.0
 11
5823.0000000000136
 21
-556.0000000000008
 31
0.0
1001
ACDBBLOCKREPETAG
1070
     1
1071
      114
1005
122F6A
  0
LINE
  5
122F6B
  8
OBJECT
 10
5823.0000000000136
 20
-556.0000000000008
 30
0.0
 11
5823.0000000000136
 21
-653.15756805667843
 31
0.0
1001
ACDBBLOCKREPETAG
1070
     1
1071
      115
1005
122F6B
  0
LINE
  5
122F6C
  8
OBJECT
 10
5827.0000000000146
 20
-560.5000000000008
 30
0.0
 11
5827.0000000000182
 21
-645.74491827928705
 31
0.0
1001
ACDBBLOCKREPETAG
1070
     1
1071
      116
1005
122F6C
  0
LINE
  5
122F6D
  8
OBJECT
 10
5827.0000000000146
 20
-560.5000000000008
 30
0.0
 11
5840.0000000000136
 21
-560.5000000000008
 31
0.0
1001
ACDBBLOCKREPETAG
1070
     1
1071
      117
1005
122F6D
  0
LINE
  5
122F6E
  8
OBJECT
 10
5831.3436831745312
 20
-674.0000000000008
 30
0.0
 11
5787.0000000000146
 21
-674.0
 31
0.0
1001
ACDBBLOCKREPETAG
1070
     1
1071
      118
1005
122F6E
  0
LINE
  5
122F6F
  8
OBJECT
 10
5823.0000000000136
 20
-556.0000000000008
 30
0.0
 11
5827.0000000000146
 21
-560.5000000000008
 31
0.0
1001
ACDBBLOCKREPETAG
1070
     1
1071
      119
1005
122F6F
  0
LINE
  5
122F70
  8
OBJECT
 10
5840.0000000000136
 20
-560.5000000000008
 30
0.0
 11
5840.0000000000136
 21
-645.74491827928784
 31
0.0
1001
ACDBBLOCKREPETAG
1070
     1
1071
      120
1005
122F70
  0
ARC
  5
122F71
  8
OBJECT
 10
5908.0000000000146
 20
-637.27386365609345
 30
0.0
 40
85.0
 50
205.5991387218879
 51
231.40900676279119
1001
ACDBBLOCKREPETAG
1070
     1
1071
      121
1005
122F71
  0
ARC
  5
122F72
  8
OBJECT
 10
5837.2000000000171
 20
-655.00000000000068
 30
0.0
 40
85.0
 50
19.925932125430649
 51
88.112268108168848
1001
ACDBBLOCKREPETAG
1070
     1
1071
      122
1005
122F72
  0
LINE
  5
122F73
  8
OBJECT
 10
5914.0000000000146
 20
-750.81075719270905
 30
0.0
 11
5854.9806774563986
 21
-703.71143914629454
 31
0.0
1001
ACDBBLOCKREPETAG
1070
     1
1071
      123
1005
122F73
  0
LINE
  5
122F74
  8
OBJECT
 10
5827.0000000000182
 20
-645.74491827928705
 30
0.0
 11
5840.0000000000136
 21
-645.74491827928784
 31
0.0
1001
ACDBBLOCKREPETAG
1070
     1
1071
      124
1005
122F74
  0
LINE
  5
122F75
  8
OBJECT
 10
5823.0000000000136
 20
-653.15756805667843
 30
0.0
 11
5827.0000000000182
 21
-645.74491827928705
 31
0.0
1001
ACDBBLOCKREPETAG
1070
     1
1071
      125
1005
122F75
  0
LINE
  5
122F76
  8
OBJECT
 10
5919.9999999999818
 20
-634.0
 30
0.0
 11
5917.1113878403776
 21
-626.03156729425325
 31
0.0
1001
ACDBBLOCKREPETAG
1070
     1
1071
      126
1005
122F76
  0
LINE
  5
122F77
  8
OBJECT
 10
5919.9999999999818
 20
-634.0
 30
0.0
 11
5914.0000000000146
 21
-653.3502637757274
 31
0.0
1001
ACDBBLOCKREPETAG
1070
     1
1071
      127
1005
122F77
  0
LINE
  5
122F78
  8
HIDDEN
 10
5832.0000000000136
 20
-570.5000000000008
 30
0.0
 11
5832.0000000000136
 21
-659.50000000000068
 31
0.0
1001
ACDBBLOCKREPETAG
1070
     1
1071
      129
1005
122F78
  0
CIRCLE
  5
122F79
  8
OBJECT
 10
6000.0
 20
-696.0
 30
0.0
 40
62.0
1001
ACDBBLOCKREPETAG
1070
     1
1071
        0
1005
122F79
  0
LINE
  5
122F7A
  8
OBJECT
 10
6212.9999999999864
 20
-553.0000000000008
 30
0.0
 11
6219.9999999999873
 21
-553.0000000000008
 31
0.0
1001
ACDBBLOCKREPETAG
1070
     1
1071
      106
1005
122F7A
  0
LINE
  5
122F7B
  8
OBJECT
 10
6219.9999999999873
 20
-553.0000000000008
 30
0.0
 11
6219.9999999999873
 21
-677.0000000000008
 31
0.0
1001
ACDBBLOCKREPETAG
1070
     1
1071
      107
1005
122F7B
  0
LINE
  5
122F7C
  8
OBJECT
 10
6085.9999999999864
 20
-653.3502637757274
 30
0.0
 11
6085.9999999999864
 21
-755.00000000000102
 31
0.0
1001
ACDBBLOCKREPETAG
1070
     1
1071
      108
1005
122F7C
  0
LINE
  5
122F7D
  8
OBJECT
 10
6219.9999999999873
 20
-677.0000000000008
 30
0.0
 11
6212.9999999999864
 21
-677.0000000000008
 31
0.0
1001
ACDBBLOCKREPETAG
1070
     1
1071
      109
1005
122F7D
  0
LINE
  5
122F7E
  8
OBJECT
 10
6212.9999999999864
 20
-677.0000000000008
 30
0.0
 11
6212.9999999999864
 21
-553.0000000000008
 31
0.0
1001
ACDBBLOCKREPETAG
1070
     1
1071
      110
1005
122F7E
  0
LINE
  5
122F7F
  8
CENTER
 10
6144.9999999999873
 20
-615.0000000000008
 30
0.0
 11
6234.9999999999864
 21
-615.0000000000008
 31
0.0
1001
ACDBBLOCKREPETAG
1070
     1
1071
      111
1005
122F7F
  0
LINE
  5
122F80
  8
OBJECT
 10
6079.9999999999818
 20
-758.0
 30
0.0
 11
6082.9999999999864
 21
-758.0000000000008
 31
0.0
1001
ACDBBLOCKREPETAG
1070
     1
1071
      112
1005
122F80
  0
ARC
  5
122F81
  8
OBJECT
 10
6082.9999999999864
 20
-755.00000000000102
 30
0.0
 40
3.0
 50
270.0
 51
0.0
1001
ACDBBLOCKREPETAG
1070
     1
1071
      113
1005
122F81
  0
LINE
  5
122F82
  8
OBJECT
 10
6212.9999999999864
 20
-556.0000000000008
 30
0.0
 11
6176.9999999999873
 21
-556.0000000000008
 31
0.0
1001
ACDBBLOCKREPETAG
1070
     1
1071
      114
1005
122F82
  0
LINE
  5
122F83
  8
OBJECT
 10
6176.9999999999873
 20
-556.0000000000008
 30
0.0
 11
6176.9999999999873
 21
-653.15756805667843
 31
0.0
1001
ACDBBLOCKREPETAG
1070
     1
1071
      115
1005
122F83
  0
LINE
  5
122F84
  8
OBJECT
 10
6172.9999999999864
 20
-560.5000000000008
 30
0.0
 11
6172.9999999999818
 21
-645.74491827928705
 31
0.0
1001
ACDBBLOCKREPETAG
1070
     1
1071
      116
1005
122F84
  0
LINE
  5
122F85
  8
OBJECT
 10
6172.9999999999864
 20
-560.5000000000008
 30
0.0
 11
6159.9999999999864
 21
-560.5000000000008
 31
0.0
1001
ACDBBLOCKREPETAG
1070
     1
1071
      117
1005
122F85
  0
LINE
  5
122F86
  8
OBJECT
 10
6168.6563168254688
 20
-674.0000000000008
 30
0.0
 11
6212.9999999999864
 21
-674.0000000000008
 31
0.0
1001
ACDBBLOCKREPETAG
1070
     1
1071
      118
1005
122F86
  0
LINE
  5
122F87
  8
OBJECT
 10
6176.9999999999873
 20
-556.0000000000008
 30
0.0
 11
6172.9999999999864
 21
-560.5000000000008
 31
0.0
1001
ACDBBLOCKREPETAG
1070
     1
1071
      119
1005
122F87
  0
LINE
  5
122F88
  8
OBJECT
 10
6159.9999999999864
 20
-560.5000000000008
 30
0.0
 11
6159.9999999999864
 21
-645.74491827928784
 31
0.0
1001
ACDBBLOCKREPETAG
1070
     1
1071
      120
1005
122F88
  0
ARC
  5
122F89
  8
OBJECT
 10
6091.9999999999873
 20
-637.27386365609345
 30
0.0
 40
85.0
 50
308.59099323720869
 51
334.40086127811207
1001
ACDBBLOCKREPETAG
1070
     1
1071
      121
1005
122F89
  0
ARC
  5
122F8A
  8
OBJECT
 10
6162.7999999999856
 20
-655.00000000000068
 30
0.0
 40
85.0
 50
91.887731891831123
 51
160.07406787456929
1001
ACDBBLOCKREPETAG
1070
     1
1071
      122
1005
122F8A
  0
LINE
  5
122F8B
  8
OBJECT
 10
6085.9999999999864
 20
-750.81075719270905
 30
0.0
 11
6145.0193225436024
 21
-703.71143914629454
 31
0.0
1001
ACDBBLOCKREPETAG
1070
     1
1071
      123
1005
122F8B
  0
LINE
  5
122F8C
  8
OBJECT
 10
6172.9999999999818
 20
-645.74491827928705
 30
0.0
 11
6159.9999999999864
 21
-645.74491827928784
 31
0.0
1001
ACDBBLOCKREPETAG
1070
     1
1071
      124
1005
122F8C
  0
LINE
  5
122F8D
  8
OBJECT
 10
6176.9999999999873
 20
-653.15756805667843
 30
0.0
 11
6172.9999999999818
 21
-645.74491827928705
 31
0.0
1001
ACDBBLOCKREPETAG
1070
     1
1071
      125
1005
122F8D
  0
LINE
  5
122F8E
  8
OBJECT
 10
6080.0000000000182
 20
-634.0
 30
0.0
 11
6082.8886121596233
 21
-626.03156729425325
 31
0.0
1001
ACDBBLOCKREPETAG
1070
     1
1071
      126
1005
122F8E
  0
LINE
  5
122F8F
  8
OBJECT
 10
6080.0000000000182
 20
-634.0
 30
0.0
 11
6085.9999999999864
 21
-653.3502637757274
 31
0.0
1001
ACDBBLOCKREPETAG
1070
     1
1071
      127
1005
122F8F
  0
LINE
  5
122F90
  8
HIDDEN
 10
6167.9999999999864
 20
-570.5000000000008
 30
0.0
 11
6167.9999999999864
 21
-659.50000000000068
 31
0.0
1001
ACDBBLOCKREPETAG
1070
     1
1071
      129
1005
122F90
  0
LINE
  5
122F91
  8
OBJECT
 10
3923.0
 20
-570.99999999999432
 30
0.0
 11
3923.0
 21
-549.99999999999432
 31
0.0
1001
ACDBBLOCKREPETAG
1070
     1
1071
       36
1005
122F91
  0
LINE
  5
122F92
  8
OBJECT
 10
3923.0
 20
-549.99999999999432
 30
0.0
 11
4077.0
 21
-549.99999999999432
 31
0.0
1001
ACDBBLOCKREPETAG
1070
     1
1071
       37
1005
122F92
  0
LINE
  5
122F93
  8
HIDDEN
 10
3943.0
 20
-619.99999999999432
 30
0.0
 11
4057.0
 21
-619.99999999999432
 31
0.0
1001
ACDBBLOCKREPETAG
1070
     1
1071
       38
1005
122F93
  0
LINE
  5
122F94
  8
OBJECT
 10
4077.0
 20
-549.99999999999432
 30
0.0
 11
4077.0
 21
-570.99999999999432
 31
0.0
1001
ACDBBLOCKREPETAG
1070
     1
1071
       39
1005
122F94
  0
LINE
  5
122F95
  8
OBJECT
 10
4077.0
 20
-570.99999999999432
 30
0.0
 11
3923.0
 21
-570.99999999999432
 31
0.0
1001
ACDBBLOCKREPETAG
1070
     1
1071
       40
1005
122F95
  0
LINE
  5
122F96
  8
CENTER
 10
4000.0
 20
-534.99999999999432
 30
0.0
 11
4000.0
 21
-769.9999999999942
 31
0.0
1001
ACDBBLOCKREPETAG
1070
     1
1071
       41
1005
122F96
  0
LINE
  5
122F97
  8
OBJECT
 10
3928.0
 20
-570.99999999999432
 30
0.0
 11
3928.0
 21
-633.99999999999432
 31
0.0
1001
ACDBBLOCKREPETAG
1070
     1
1071
       42
1005
122F97
  0
LINE
  5
122F98
  8
OBJECT
 10
4072.0
 20
-633.99999999999432
 30
0.0
 11
4072.0
 21
-570.99999999999432
 31
0.0
1001
ACDBBLOCKREPETAG
1070
     1
1071
       43
1005
122F98
  0
LINE
  5
122F99
  8
OBJECT
 10
3920.0
 20
-757.9999999999942
 30
0.0
 11
4080.0
 21
-757.9999999999942
 31
0.0
1001
ACDBBLOCKREPETAG
1070
     1
1071
       44
1005
122F99
  0
LINE
  5
122F9A
  8
OBJECT
 10
4080.0
 20
-633.99999999999432
 30
0.0
 11
3920.0
 21
-633.99999999999432
 31
0.0
1001
ACDBBLOCKREPETAG
1070
     1
1071
       45
1005
122F9A
  0
LINE
  5
122F9B
  8
OBJECT
 10
3920.0
 20
-757.9999999999942
 30
0.0
 11
3920.0
 21
-769.9999999999942
 31
0.0
1001
ACDBBLOCKREPETAG
1070
     1
1071
       46
1005
122F9B
  0
LINE
  5
122F9C
  8
OBJECT
 10
3920.0
 20
-769.9999999999942
 30
0.0
 11
4080.0
 21
-769.9999999999942
 31
0.0
1001
ACDBBLOCKREPETAG
1070
     1
1071
       47
1005
122F9C
  0
LINE
  5
122F9D
  8
OBJECT
 10
4080.0
 20
-769.9999999999942
 30
0.0
 11
4080.0
 21
-757.9999999999942
 31
0.0
1001
ACDBBLOCKREPETAG
1070
     1
1071
       48
1005
122F9D
  0
ARC
  5
122F9E
  8
OBJECT
 10
4200.6872746716726
 20
-749.40809941010195
 30
0.0
 40
170.6350503965856
 50
137.44134459184301
 51
149.91949581337221
1001
ACDBBLOCKREPETAG
1070
     1
1071
       52
1005
122F9E
  0
ARC
  5
122F9F
  8
OBJECT
 10
4200.6872746716726
 20
-642.59190058988645
 30
0.0
 40
170.6350503965856
 50
210.08050418662771
 51
222.55865540815699
1001
ACDBBLOCKREPETAG
1070
     1
1071
       53
1005
122F9F
  0
ARC
  5
122FA0
  8
OBJECT
 10
3799.3127253283278
 20
-749.40809941010195
 30
0.0
 40
170.6350503965856
 50
30.080504186774089
 51
42.558655408456282
1001
ACDBBLOCKREPETAG
1070
     1
1071
       54
1005
122FA0
  0
ARC
  5
122FA1
  8
OBJECT
 10
3799.3127253283278
 20
-642.59190058988645
 30
0.0
 40
170.6350503965856
 50
317.44134459154373
 51
329.91949581322592
1001
ACDBBLOCKREPETAG
1070
     1
1071
       55
1005
122FA1
  0
POINT
  5
122FA2
  8
DOTS
 10
4000.0
 20
-754.9999999999942
 30
0.0
1001
ACDBBLOCKREPETAG
1070
     1
1071
      184
1005
122FA2
  0
LINE
  5
122FA3
  8
OBJECT
 10
3969.4199755553018
 20
-243.89888500818171
 30
0.0
 11
3979.8564918232369
 21
-222.48688253356801
 31
0.0
1001
ACDBBLOCKREPETAG
1070
     1
1071
      305
1005
122FA3
  0
LINE
  5
122FA4
  8
OBJECT
 10
3965.2972169006089
 20
-240.71813901882729
 30
0.0
 11
3973.9071022665089
 21
-223.05373004430751
 31
0.0
1001
ACDBBLOCKREPETAG
1070
     1
1071
      306
1005
122FA4
  0
LINE
  5
122FA5
  8
OBJECT
 10
4024.102933093302
 20
-243.80694712371681
 30
0.0
 11
4020.6596569999951
 21
-232.55462199999889
 31
0.0
1001
ACDBBLOCKREPETAG
1070
     1
1071
      307
1005
122FA5
  0
ARC
  5
122FA6
  8
OBJECT
 10
3976.579695307315
 20
-207.1289369828437
 30
0.0
 40
60.031113246032611
 50
314.07020130418567
 51
322.33936106091278
1001
ACDBBLOCKREPETAG
1070
     1
1071
      308
1005
122FA6
  0
LINE
  5
122FA7
  8
OBJECT
 10
3986.7927499013749
 20
-218.22553374208019
 30
0.0
 11
4020.6596569999951
 21
-232.5546219999969
 31
0.0
1001
ACDBBLOCKREPETAG
1070
     1
1071
      309
1005
122FA7
  0
ARC
  5
122FA8
  8
OBJECT
 10
3982.896169761902
 20
-227.4351299990567
 30
0.0
 40
10.0
 50
67.066778292911366
 51
154.0147343702935
1001
ACDBBLOCKREPETAG
1070
     1
1071
      310
1005
122FA8
  0
ARC
  5
122FA9
  8
OBJECT
 10
3986.1488390381278
 20
-225.55386256729159
 30
0.0
 40
7.0
 50
67.066778292911366
 51
154.01473377497121
1001
ACDBBLOCKREPETAG
1070
     1
1071
      311
1005
122FA9
  0
CIRCLE
  5
122FAA
  8
OBJECT
 10
4000.0
 20
-199.99999999999909
 30
0.0
 40
53.5
1001
ACDBBLOCKREPETAG
1070
     1
1071
      340
1005
122FAA
  0
POINT
  5
122FAB
  8
DOTS
 10
4000.0
 20
-199.99999999999909
 30
0.0
 50
270.0
1001
ACDBBLOCKREPETAG
1070
     1
1071
      153
1005
122FAB
  0
ARC
  5
122FAC
  8
OBJECT
 10
4000.0
 20
-199.99999999999909
 30
0.0
 40
50.0
 50
298.81994300000417
 51
228.52376955967449
1001
ACDBBLOCKREPETAG
1070
     1
1071
       48
1005
122FAC
  0
LINE
  5
122FAD
  8
CENTER
 10
4080.0
 20
-199.99999999999909
 30
0.0
 11
3920.0
 21
-199.99999999999909
 31
0.0
1001
ACDBBLOCKREPETAG
1070
     1
1071
       49
1005
122FAD
  0
LINE
  5
122FAE
  8
CENTER
 10
4000.0
 20
-279.99999999999909
 30
0.0
 11
4000.0
 21
-104.9999999999991
 31
0.0
1001
ACDBBLOCKREPETAG
1070
     1
1071
       50
1005
122FAE
  0
CIRCLE
  5
122FAF
  8
OBJECT
 10
4000.0
 20
-199.99999999999909
 30
0.0
 40
70.0
1001
ACDBBLOCKREPETAG
1070
     1
1071
       51
1005
122FAF
  0
CIRCLE
  5
122FB0
  8
OBJECT
 10
4000.0
 20
-199.99999999999909
 30
0.0
 40
77.0
1001
ACDBBLOCKREPETAG
1070
     1
1071
       52
1005
122FB0
  0
ARC
  5
122FB1
  8
OBJECT
 10
4000.0
 20
-199.99999999999909
 30
0.0
 40
80.0
 50
50.805032573864182
 51
129.1949674261358
1001
ACDBBLOCKREPETAG
1070
     1
1071
       53
1005
122FB1
  0
LINE
  5
122FB2
  8
OBJECT
 10
4045.661800227324
 20
-137.99999999999909
 30
0.0
 11
4080.0
 21
-137.99999999999909
 31
0.0
1001
ACDBBLOCKREPETAG
1070
     1
1071
       54
1005
122FB2
  0
LINE
  5
122FB3
  8
OBJECT
 10
4062.0
 20
-261.99999999999909
 30
0.0
 11
4080.0
 21
-261.99999999999909
 31
0.0
1001
ACDBBLOCKREPETAG
1070
     1
1071
       55
1005
122FB3
  0
LINE
  5
122FB4
  8
OBJECT
 10
4062.0
 20
-261.99999999999909
 30
0.0
 11
4062.0
 21
-279.99999999999909
 31
0.0
1001
ACDBBLOCKREPETAG
1070
     1
1071
       57
1005
122FB4
  0
LINE
  5
122FB5
  8
OBJECT
 10
3938.0
 20
-261.99999999999909
 30
0.0
 11
3938.0
 21
-279.99999999999909
 31
0.0
1001
ACDBBLOCKREPETAG
1070
     1
1071
       58
1005
122FB5
  0
LINE
  5
122FB6
  8
OBJECT
 10
3938.0
 20
-261.99999999999909
 30
0.0
 11
3920.0
 21
-261.99999999999909
 31
0.0
1001
ACDBBLOCKREPETAG
1070
     1
1071
       60
1005
122FB6
  0
LINE
  5
122FB7
  8
OBJECT
 10
3954.338199772676
 20
-137.99999999999909
 30
0.0
 11
3920.0
 21
-137.99999999999909
 31
0.0
1001
ACDBBLOCKREPETAG
1070
     1
1071
       61
1005
122FB7
  0
LINE
  5
122FB8
  8
OBJECT
 10
3945.5527778486362
 20
-254.44722215136329
 30
0.0
 11
3938.0
 21
-261.99999999999909
 31
0.0
1001
ACDBBLOCKREPETAG
1070
     1
1071
       42
1005
122FB8
  0
LINE
  5
122FB9
  8
OBJECT
 10
4054.4472221513638
 20
-254.44722215136329
 30
0.0
 11
4062.0
 21
-261.99999999999909
 31
0.0
1001
ACDBBLOCKREPETAG
1070
     1
1071
       43
1005
122FB9
  0
LINE
  5
122FBA
  8
OBJECT
 10
3787.0000000000191
 20
-137.99999999999909
 30
0.0
 11
3780.0000000000182
 21
-137.99999999999909
 31
0.0
1001
ACDBBLOCKREPETAG
1070
     1
1071
      110
1005
122FBA
  0
LINE
  5
122FBB
  8
OBJECT
 10
3780.0000000000182
 20
-137.99999999999909
 30
0.0
 11
3780.0000000000182
 21
-261.99999999999909
 31
0.0
1001
ACDBBLOCKREPETAG
1070
     1
1071
      111
1005
122FBB
  0
LINE
  5
122FBC
  8
OBJECT
 10
3780.0000000000182
 20
-261.99999999999909
 30
0.0
 11
3787.0000000000191
 21
-261.99999999999909
 31
0.0
1001
ACDBBLOCKREPETAG
1070
     1
1071
      112
1005
122FBC
  0
LINE
  5
122FBD
  8
OBJECT
 10
3787.0000000000191
 20
-261.99999999999909
 30
0.0
 11
3787.0000000000191
 21
-137.99999999999909
 31
0.0
1001
ACDBBLOCKREPETAG
1070
     1
1071
      113
1005
122FBD
  0
LINE
  5
122FBE
  8
CENTER
 10
3765.0000000000182
 20
-199.99999999999909
 30
0.0
 11
3920.0
 21
-199.99999999999909
 31
0.0
1001
ACDBBLOCKREPETAG
1070
     1
1071
      114
1005
122FBE
  0
LINE
  5
122FBF
  8
OBJECT
 10
3840.0000250358171
 20
-245.0000000000027
 30
0.0
 11
3914.000000000005
 21
-244.99999999999909
 31
0.0
1001
ACDBBLOCKREPETAG
1070
     1
1071
      115
1005
122FBF
  0
LINE
  5
122FC0
  8
OBJECT
 10
3840.0000250358171
 20
-154.99999999999909
 30
0.0
 11
3914.000000000005
 21
-154.99999999999909
 31
0.0
1001
ACDBBLOCKREPETAG
1070
     1
1071
      116
1005
122FC0
  0
LINE
  5
122FC1
  8
OBJECT
 10
3787.0000000000191
 20
-140.99999999999909
 30
0.0
 11
3823.0000000000182
 21
-140.99999999999909
 31
0.0
1001
ACDBBLOCKREPETAG
1070
     1
1071
      117
1005
122FC1
  0
LINE
  5
122FC2
  8
OBJECT
 10
3823.0000000000182
 20
-140.99999999999909
 30
0.0
 11
3823.0000000000182
 21
-258.99999999999909
 31
0.0
1001
ACDBBLOCKREPETAG
1070
     1
1071
      118
1005
122FC2
  0
LINE
  5
122FC3
  8
OBJECT
 10
3823.0000000000182
 20
-258.99999999999909
 30
0.0
 11
3787.0000000000191
 21
-258.99999999999909
 31
0.0
1001
ACDBBLOCKREPETAG
1070
     1
1071
      119
1005
122FC3
  0
LINE
  5
122FC4
  8
OBJECT
 10
3827.0000000000182
 20
-145.49999999999909
 30
0.0
 11
3840.0000000000191
 21
-145.49999999999909
 31
0.0
1001
ACDBBLOCKREPETAG
1070
     1
1071
      120
1005
122FC4
  0
LINE
  5
122FC5
  8
OBJECT
 10
3840.0000000000191
 20
-254.49999999999909
 30
0.0
 11
3827.0000000000182
 21
-254.49999999999909
 31
0.0
1001
ACDBBLOCKREPETAG
1070
     1
1071
      121
1005
122FC5
  0
LINE
  5
122FC6
  8
OBJECT
 10
3827.0000000000182
 20
-254.49999999999909
 30
0.0
 11
3827.0000000000182
 21
-145.49999999999909
 31
0.0
1001
ACDBBLOCKREPETAG
1070
     1
1071
      122
1005
122FC6
  0
LINE
  5
122FC7
  8
OBJECT
 10
3823.0000000000182
 20
-140.99999999999909
 30
0.0
 11
3827.0000000000182
 21
-145.49999999999909
 31
0.0
1001
ACDBBLOCKREPETAG
1070
     1
1071
      123
1005
122FC7
  0
LINE
  5
122FC8
  8
OBJECT
 10
3823.0000000000182
 20
-258.99999999999909
 30
0.0
 11
3827.0000000000182
 21
-254.49999999999909
 31
0.0
1001
ACDBBLOCKREPETAG
1070
     1
1071
      124
1005
122FC8
  0
LINE
  5
122FC9
  8
OBJECT
 10
3917.000000000005
 20
-137.99999999999909
 30
0.0
 11
3920.0000000000041
 21
-137.99999999999909
 31
0.0
1001
ACDBBLOCKREPETAG
1070
     1
1071
      125
1005
122FC9
  0
ARC
  5
122FCA
  8
OBJECT
 10
3917.000000000005
 20
-140.99999999999909
 30
0.0
 40
3.0
 50
90.0
 51
180.0
1001
ACDBBLOCKREPETAG
1070
     1
1071
      126
1005
122FCA
  0
LINE
  5
122FCB
  8
OBJECT
 10
3920.0000000000041
 20
-261.99999999999909
 30
0.0
 11
3917.000000000005
 21
-261.99999999999909
 31
0.0
1001
ACDBBLOCKREPETAG
1070
     1
1071
      127
1005
122FCB
  0
ARC
  5
122FCC
  8
OBJECT
 10
3917.000000000005
 20
-258.99999999999909
 30
0.0
 40
3.0
 50
180.0
 51
270.0
1001
ACDBBLOCKREPETAG
1070
     1
1071
      128
1005
122FCC
  0
LINE
  5
122FCD
  8
OBJECT
 10
3914.000000000005
 20
-258.99999999999909
 30
0.0
 11
3914.000000000005
 21
-222.44994432063581
 31
0.0
1001
ACDBBLOCKREPETAG
1070
     1
1071
      129
1005
122FCD
  0
LINE
  5
122FCE
  8
OBJECT
 10
3914.000000000005
 20
-177.55005567935859
 30
0.0
 11
3914.000000000005
 21
-140.99999999999909
 31
0.0
1001
ACDBBLOCKREPETAG
1070
     1
1071
      130
1005
122FCE
  0
LINE
  5
122FCF
  8
HIDDEN
 10
3832.0000000000182
 20
-155.49999999999909
 30
0.0
 11
3832.0000000000182
 21
-244.49999999999909
 31
0.0
1001
ACDBBLOCKREPETAG
1070
     1
1071
      131
1005
122FCF
  0
LINE
  5
122FD0
  8
OBJECT
 10
3840.0000250358171
 20
-254.4999509238105
 30
0.0
 11
3840.0000250358171
 21
-145.4999509238105
 31
0.0
1001
ACDBBLOCKREPETAG
1070
     1
1071
      133
1005
122FD0
  0
ARC
  5
122FD1
  8
OBJECT
 10
3875.0
 20
-199.99999999999909
 30
0.0
 40
45.000000000000547
 50
270.0
 51
90.0
1001
ACDBBLOCKREPETAG
1070
     1
1071
      134
1005
122FD1
  0
LINE
  5
122FD2
  8
CENTER
 10
4000.0
 20
-300.99999999999898
 30
0.0
 11
4000.0
 21
-279.99999999999909
 31
0.0
1001
ACDBBLOCKREPETAG
1070
     1
1071
        0
1005
122FD2
  0
LINE
  5
122FD3
  8
OBJECT
 10
4062.0
 20
-283.0
 30
0.0
 11
4062.0
 21
-279.99999999999909
 31
0.0
1001
ACDBBLOCKREPETAG
1070
     1
1071
        1
1005
122FD3
  0
ARC
  5
122FD4
  8
OBJECT
 10
4059.0
 20
-283.0
 30
0.0
 40
3.0
 50
270.0
 51
0.0
1001
ACDBBLOCKREPETAG
1070
     1
1071
        2
1005
122FD4
  0
LINE
  5
122FD5
  8
OBJECT
 10
3938.0
 20
-279.99999999999909
 30
0.0
 11
3938.0
 21
-282.99999999999818
 31
0.0
1001
ACDBBLOCKREPETAG
1070
     1
1071
        3
1005
122FD5
  0
ARC
  5
122FD6
  8
OBJECT
 10
3941.0
 20
-282.99999999999818
 30
0.0
 40
3.0
 50
180.0
 51
270.0
1001
ACDBBLOCKREPETAG
1070
     1
1071
        4
1005
122FD6
  0
LINE
  5
122FD7
  8
OBJECT
 10
3941.0
 20
-285.99999999999818
 30
0.0
 11
4059.0
 21
-286.0
 31
0.0
1001
ACDBBLOCKREPETAG
1070
     1
1071
        5
1005
122FD7
  0
LINE
  5
122FD8
  8
OBJECT
 10
4212.9999999999854
 20
-137.99999999999909
 30
0.0
 11
4219.9999999999854
 21
-137.99999999999909
 31
0.0
1001
ACDBBLOCKREPETAG
1070
     1
1071
      110
1005
122FD8
  0
LINE
  5
122FD9
  8
OBJECT
 10
4219.9999999999854
 20
-137.99999999999909
 30
0.0
 11
4219.9999999999854
 21
-261.99999999999909
 31
0.0
1001
ACDBBLOCKREPETAG
1070
     1
1071
      111
1005
122FD9
  0
LINE
  5
122FDA
  8
OBJECT
 10
4219.9999999999854
 20
-261.99999999999909
 30
0.0
 11
4212.9999999999854
 21
-261.99999999999909
 31
0.0
1001
ACDBBLOCKREPETAG
1070
     1
1071
      112
1005
122FDA
  0
LINE
  5
122FDB
  8
OBJECT
 10
4212.9999999999854
 20
-261.99999999999909
 30
0.0
 11
4212.9999999999854
 21
-137.99999999999909
 31
0.0
1001
ACDBBLOCKREPETAG
1070
     1
1071
      113
1005
122FDB
  0
LINE
  5
122FDC
  8
CENTER
 10
4234.9999999999854
 20
-199.99999999999909
 30
0.0
 11
4080.0000000000041
 21
-199.99999999999909
 31
0.0
1001
ACDBBLOCKREPETAG
1070
     1
1071
      114
1005
122FDC
  0
LINE
  5
122FDD
  8
OBJECT
 10
4159.9999749641847
 20
-245.0000000000027
 30
0.0
 11
4086.0
 21
-244.99999999999909
 31
0.0
1001
ACDBBLOCKREPETAG
1070
     1
1071
      115
1005
122FDD
  0
LINE
  5
122FDE
  8
OBJECT
 10
4159.9999749641847
 20
-154.99999999999909
 30
0.0
 11
4086.0
 21
-154.99999999999909
 31
0.0
1001
ACDBBLOCKREPETAG
1070
     1
1071
      116
1005
122FDE
  0
LINE
  5
122FDF
  8
OBJECT
 10
4212.9999999999854
 20
-140.99999999999909
 30
0.0
 11
4176.9999999999854
 21
-140.99999999999909
 31
0.0
1001
ACDBBLOCKREPETAG
1070
     1
1071
      117
1005
122FDF
  0
LINE
  5
122FE0
  8
OBJECT
 10
4176.9999999999854
 20
-140.99999999999909
 30
0.0
 11
4176.9999999999854
 21
-258.99999999999909
 31
0.0
1001
ACDBBLOCKREPETAG
1070
     1
1071
      118
1005
122FE0
  0
LINE
  5
122FE1
  8
OBJECT
 10
4176.9999999999854
 20
-258.99999999999909
 30
0.0
 11
4212.9999999999854
 21
-258.99999999999909
 31
0.0
1001
ACDBBLOCKREPETAG
1070
     1
1071
      119
1005
122FE1
  0
LINE
  5
122FE2
  8
OBJECT
 10
4172.9999999999854
 20
-145.49999999999909
 30
0.0
 11
4159.9999999999854
 21
-145.49999999999909
 31
0.0
1001
ACDBBLOCKREPETAG
1070
     1
1071
      120
1005
122FE2
  0
LINE
  5
122FE3
  8
OBJECT
 10
4159.9999999999854
 20
-254.49999999999909
 30
0.0
 11
4172.9999999999854
 21
-254.49999999999909
 31
0.0
1001
ACDBBLOCKREPETAG
1070
     1
1071
      121
1005
122FE3
  0
LINE
  5
122FE4
  8
OBJECT
 10
4172.9999999999854
 20
-254.49999999999909
 30
0.0
 11
4172.9999999999854
 21
-145.49999999999909
 31
0.0
1001
ACDBBLOCKREPETAG
1070
     1
1071
      122
1005
122FE4
  0
LINE
  5
122FE5
  8
OBJECT
 10
4176.9999999999854
 20
-140.99999999999909
 30
0.0
 11
4172.9999999999854
 21
-145.49999999999909
 31
0.0
1001
ACDBBLOCKREPETAG
1070
     1
1071
      123
1005
122FE5
  0
LINE
  5
122FE6
  8
OBJECT
 10
4176.9999999999854
 20
-258.99999999999909
 30
0.0
 11
4172.9999999999854
 21
-254.49999999999909
 31
0.0
1001
ACDBBLOCKREPETAG
1070
     1
1071
      124
1005
122FE6
  0
LINE
  5
122FE7
  8
OBJECT
 10
4083.0
 20
-137.99999999999909
 30
0.0
 11
4080.0
 21
-137.99999999999909
 31
0.0
1001
ACDBBLOCKREPETAG
1070
     1
1071
      125
1005
122FE7
  0
ARC
  5
122FE8
  8
OBJECT
 10
4083.0
 20
-140.99999999999909
 30
0.0
 40
3.0
 50
0.0
 51
90.0
1001
ACDBBLOCKREPETAG
1070
     1
1071
      126
1005
122FE8
  0
LINE
  5
122FE9
  8
OBJECT
 10
4080.0
 20
-261.99999999999909
 30
0.0
 11
4083.0
 21
-261.99999999999909
 31
0.0
1001
ACDBBLOCKREPETAG
1070
     1
1071
      127
1005
122FE9
  0
ARC
  5
122FEA
  8
OBJECT
 10
4083.0
 20
-258.99999999999909
 30
0.0
 40
3.0
 50
270.0
 51
0.0
1001
ACDBBLOCKREPETAG
1070
     1
1071
      128
1005
122FEA
  0
LINE
  5
122FEB
  8
OBJECT
 10
4086.0
 20
-258.99999999999909
 30
0.0
 11
4086.0
 21
-222.44994432063581
 31
0.0
1001
ACDBBLOCKREPETAG
1070
     1
1071
      129
1005
122FEB
  0
LINE
  5
122FEC
  8
OBJECT
 10
4086.0
 20
-177.55005567935859
 30
0.0
 11
4086.0
 21
-140.99999999999909
 31
0.0
1001
ACDBBLOCKREPETAG
1070
     1
1071
      130
1005
122FEC
  0
LINE
  5
122FED
  8
HIDDEN
 10
4167.9999999999854
 20
-155.49999999999909
 30
0.0
 11
4167.9999999999854
 21
-244.49999999999909
 31
0.0
1001
ACDBBLOCKREPETAG
1070
     1
1071
      131
1005
122FED
  0
LINE
  5
122FEE
  8
OBJECT
 10
4159.9999749641847
 20
-254.4999509238105
 30
0.0
 11
4159.9999749641847
 21
-145.4999509238105
 31
0.0
1001
ACDBBLOCKREPETAG
1070
     1
1071
      133
1005
122FEE
  0
ARC
  5
122FEF
  8
OBJECT
 10
4125.0000000000018
 20
-199.99999999999909
 30
0.0
 40
45.000000000000547
 50
90.0
 51
270.0
1001
ACDBBLOCKREPETAG
1070
     1
1071
      134
1005
122FEF
  0
LINE
  5
122FF0
  8
OBJECT
 10
3787.000000000015
 20
-553.0
 30
0.0
 11
3780.000000000015
 21
-553.0
 31
0.0
1001
ACDBBLOCKREPETAG
1070
     1
1071
      106
1005
122FF0
  0
LINE
  5
122FF1
  8
OBJECT
 10
3780.000000000015
 20
-553.0
 30
0.0
 11
3780.000000000015
 21
-677.0
 31
0.0
1001
ACDBBLOCKREPETAG
1070
     1
1071
      107
1005
122FF1
  0
LINE
  5
122FF2
  8
OBJECT
 10
3914.0000000000159
 20
-653.3502637757274
 30
0.0
 11
3914.0000000000159
 21
-755.00000000000102
 31
0.0
1001
ACDBBLOCKREPETAG
1070
     1
1071
      108
1005
122FF2
  0
LINE
  5
122FF3
  8
OBJECT
 10
3780.000000000015
 20
-677.0
 30
0.0
 11
3787.000000000015
 21
-677.0
 31
0.0
1001
ACDBBLOCKREPETAG
1070
     1
1071
      109
1005
122FF3
  0
LINE
  5
122FF4
  8
OBJECT
 10
3787.000000000015
 20
-677.0
 30
0.0
 11
3787.000000000015
 21
-553.0
 31
0.0
1001
ACDBBLOCKREPETAG
1070
     1
1071
      110
1005
122FF4
  0
LINE
  5
122FF5
  8
CENTER
 10
3855.0000000000141
 20
-615.0000000000008
 30
0.0
 11
3765.0000000000159
 21
-615.0
 31
0.0
1001
ACDBBLOCKREPETAG
1070
     1
1071
      111
1005
122FF5
  0
LINE
  5
122FF6
  8
OBJECT
 10
3920.0000000000182
 20
-758.0
 30
0.0
 11
3917.0000000000141
 21
-758.0000000000008
 31
0.0
1001
ACDBBLOCKREPETAG
1070
     1
1071
      112
1005
122FF6
  0
ARC
  5
122FF7
  8
OBJECT
 10
3917.0000000000141
 20
-755.00000000000102
 30
0.0
 40
3.0
 50
180.0
 51
270.0
1001
ACDBBLOCKREPETAG
1070
     1
1071
      113
1005
122FF7
  0
LINE
  5
122FF8
  8
OBJECT
 10
3787.000000000015
 20
-556.0
 30
0.0
 11
3823.0000000000141
 21
-556.0000000000008
 31
0.0
1001
ACDBBLOCKREPETAG
1070
     1
1071
      114
1005
122FF8
  0
LINE
  5
122FF9
  8
OBJECT
 10
3823.0000000000141
 20
-556.0000000000008
 30
0.0
 11
3823.0000000000141
 21
-653.15756805667843
 31
0.0
1001
ACDBBLOCKREPETAG
1070
     1
1071
      115
1005
122FF9
  0
LINE
  5
122FFA
  8
OBJECT
 10
3827.000000000015
 20
-560.5000000000008
 30
0.0
 11
3827.0000000000182
 21
-645.74491827928705
 31
0.0
1001
ACDBBLOCKREPETAG
1070
     1
1071
      116
1005
122FFA
  0
LINE
  5
122FFB
  8
OBJECT
 10
3827.000000000015
 20
-560.5000000000008
 30
0.0
 11
3840.0000000000159
 21
-560.5000000000008
 31
0.0
1001
ACDBBLOCKREPETAG
1070
     1
1071
      117
1005
122FFB
  0
LINE
  5
122FFC
  8
OBJECT
 10
3831.3436831745321
 20
-674.0000000000008
 30
0.0
 11
3787.000000000015
 21
-674.0
 31
0.0
1001
ACDBBLOCKREPETAG
1070
     1
1071
      118
1005
122FFC
  0
LINE
  5
122FFD
  8
OBJECT
 10
3823.0000000000141
 20
-556.0000000000008
 30
0.0
 11
3827.000000000015
 21
-560.5000000000008
 31
0.0
1001
ACDBBLOCKREPETAG
1070
     1
1071
      119
1005
122FFD
  0
LINE
  5
122FFE
  8
OBJECT
 10
3840.0000000000159
 20
-560.5000000000008
 30
0.0
 11
3840.0000000000159
 21
-645.74491827928784
 31
0.0
1001
ACDBBLOCKREPETAG
1070
     1
1071
      120
1005
122FFE
  0
ARC
  5
122FFF
  8
OBJECT
 10
3908.000000000015
 20
-637.27386365609345
 30
0.0
 40
85.0
 50
205.59913872187661
 51
231.40900676279119
1001
ACDBBLOCKREPETAG
1070
     1
1071
      121
1005
122FFF
  0
ARC
  5
123000
  8
OBJECT
 10
3837.2000000000162
 20
-655.00000000000068
 30
0.0
 40
85.0
 50
19.925932125430649
 51
88.112268108168848
1001
ACDBBLOCKREPETAG
1070
     1
1071
      122
1005
123000
  0
LINE
  5
123001
  8
OBJECT
 10
3914.0000000000159
 20
-750.81075719270905
 30
0.0
 11
3854.9806774563981
 21
-703.71143914629454
 31
0.0
1001
ACDBBLOCKREPETAG
1070
     1
1071
      123
1005
123001
  0
LINE
  5
123002
  8
OBJECT
 10
3827.0000000000182
 20
-645.74491827928705
 30
0.0
 11
3840.0000000000159
 21
-645.74491827928784
 31
0.0
1001
ACDBBLOCKREPETAG
1070
     1
1071
      124
1005
123002
  0
LINE
  5
123003
  8
OBJECT
 10
3823.0000000000141
 20
-653.15756805667843
 30
0.0
 11
3827.0000000000182
 21
-645.74491827928705
 31
0.0
1001
ACDBBLOCKREPETAG
1070
     1
1071
      125
1005
123003
  0
LINE
  5
123004
  8
OBJECT
 10
3919.9999999999818
 20
-634.0
 30
0.0
 11
3917.111387840378
 21
-626.03156729425325
 31
0.0
1001
ACDBBLOCKREPETAG
1070
     1
1071
      126
1005
123004
  0
LINE
  5
123005
  8
OBJECT
 10
3919.9999999999818
 20
-634.0
 30
0.0
 11
3914.0000000000159
 21
-653.3502637757274
 31
0.0
1001
ACDBBLOCKREPETAG
1070
     1
1071
      127
1005
123005
  0
LINE
  5
123006
  8
HIDDEN
 10
3832.0000000000159
 20
-570.5000000000008
 30
0.0
 11
3832.0000000000159
 21
-659.50000000000068
 31
0.0
1001
ACDBBLOCKREPETAG
1070
     1
1071
      129
1005
123006
  0
CIRCLE
  5
123007
  8
OBJECT
 10
4000.0
 20
-696.0
 30
0.0
 40
62.0
1001
ACDBBLOCKREPETAG
1070
     1
1071
        0
1005
123007
  0
LINE
  5
123008
  8
OBJECT
 10
4212.9999999999854
 20
-553.0000000000008
 30
0.0
 11
4219.9999999999854
 21
-553.0000000000008
 31
0.0
1001
ACDBBLOCKREPETAG
1070
     1
1071
      106
1005
123008
  0
LINE
  5
123009
  8
OBJECT
 10
4219.9999999999854
 20
-553.0000000000008
 30
0.0
 11
4219.9999999999854
 21
-677.0000000000008
 31
0.0
1001
ACDBBLOCKREPETAG
1070
     1
1071
      107
1005
123009
  0
LINE
  5
12300A
  8
OBJECT
 10
4085.9999999999859
 20
-653.3502637757274
 30
0.0
 11
4085.9999999999859
 21
-755.00000000000102
 31
0.0
1001
ACDBBLOCKREPETAG
1070
     1
1071
      108
1005
12300A
  0
LINE
  5
12300B
  8
OBJECT
 10
4219.9999999999854
 20
-677.0000000000008
 30
0.0
 11
4212.9999999999854
 21
-677.0000000000008
 31
0.0
1001
ACDBBLOCKREPETAG
1070
     1
1071
      109
1005
12300B
  0
LINE
  5
12300C
  8
OBJECT
 10
4212.9999999999854
 20
-677.0000000000008
 30
0.0
 11
4212.9999999999854
 21
-553.0000000000008
 31
0.0
1001
ACDBBLOCKREPETAG
1070
     1
1071
      110
1005
12300C
  0
LINE
  5
12300D
  8
CENTER
 10
4144.9999999999854
 20
-615.0000000000008
 30
0.0
 11
4234.9999999999854
 21
-615.0000000000008
 31
0.0
1001
ACDBBLOCKREPETAG
1070
     1
1071
      111
1005
12300D
  0
LINE
  5
12300E
  8
OBJECT
 10
4079.9999999999818
 20
-758.0
 30
0.0
 11
4082.999999999985
 21
-758.0000000000008
 31
0.0
1001
ACDBBLOCKREPETAG
1070
     1
1071
      112
1005
12300E
  0
ARC
  5
12300F
  8
OBJECT
 10
4082.999999999985
 20
-755.00000000000102
 30
0.0
 40
3.0
 50
270.0
 51
0.0
1001
ACDBBLOCKREPETAG
1070
     1
1071
      113
1005
12300F
  0
LINE
  5
123010
  8
OBJECT
 10
4212.9999999999854
 20
-556.0000000000008
 30
0.0
 11
4176.9999999999854
 21
-556.0000000000008
 31
0.0
1001
ACDBBLOCKREPETAG
1070
     1
1071
      114
1005
123010
  0
LINE
  5
123011
  8
OBJECT
 10
4176.9999999999854
 20
-556.0000000000008
 30
0.0
 11
4176.9999999999854
 21
-653.15756805667843
 31
0.0
1001
ACDBBLOCKREPETAG
1070
     1
1071
      115
1005
123011
  0
LINE
  5
123012
  8
OBJECT
 10
4172.9999999999854
 20
-560.5000000000008
 30
0.0
 11
4172.9999999999818
 21
-645.74491827928705
 31
0.0
1001
ACDBBLOCKREPETAG
1070
     1
1071
      116
1005
123012
  0
LINE
  5
123013
  8
OBJECT
 10
4172.9999999999854
 20
-560.5000000000008
 30
0.0
 11
4159.9999999999854
 21
-560.5000000000008
 31
0.0
1001
ACDBBLOCKREPETAG
1070
     1
1071
      117
1005
123013
  0
LINE
  5
123014
  8
OBJECT
 10
4168.6563168254679
 20
-674.0000000000008
 30
0.0
 11
4212.9999999999854
 21
-674.0000000000008
 31
0.0
1001
ACDBBLOCKREPETAG
1070
     1
1071
      118
1005
123014
  0
LINE
  5
123015
  8
OBJECT
 10
4176.9999999999854
 20
-556.0000000000008
 30
0.0
 11
4172.9999999999854
 21
-560.5000000000008
 31
0.0
1001
ACDBBLOCKREPETAG
1070
     1
1071
      119
1005
123015
  0
LINE
  5
123016
  8
OBJECT
 10
4159.9999999999854
 20
-560.5000000000008
 30
0.0
 11
4159.9999999999854
 21
-645.74491827928784
 31
0.0
1001
ACDBBLOCKREPETAG
1070
     1
1071
      120
1005
123016
  0
ARC
  5
123017
  8
OBJECT
 10
4091.9999999999841
 20
-637.27386365609345
 30
0.0
 40
85.0
 50
308.59099323720869
 51
334.40086127812339
1001
ACDBBLOCKREPETAG
1070
     1
1071
      121
1005
123017
  0
ARC
  5
123018
  8
OBJECT
 10
4162.7999999999847
 20
-655.00000000000068
 30
0.0
 40
85.0
 50
91.887731891831123
 51
160.07406787456929
1001
ACDBBLOCKREPETAG
1070
     1
1071
      122
1005
123018
  0
LINE
  5
123019
  8
OBJECT
 10
4085.9999999999859
 20
-750.81075719270905
 30
0.0
 11
4145.0193225436024
 21
-703.71143914629454
 31
0.0
1001
ACDBBLOCKREPETAG
1070
     1
1071
      123
1005
123019
  0
LINE
  5
12301A
  8
OBJECT
 10
4172.9999999999818
 20
-645.74491827928705
 30
0.0
 11
4159.9999999999854
 21
-645.74491827928784
 31
0.0
1001
ACDBBLOCKREPETAG
1070
     1
1071
      124
1005
12301A
  0
LINE
  5
12301B
  8
OBJECT
 10
4176.9999999999854
 20
-653.15756805667843
 30
0.0
 11
4172.9999999999818
 21
-645.74491827928705
 31
0.0
1001
ACDBBLOCKREPETAG
1070
     1
1071
      125
1005
12301B
  0
LINE
  5
12301C
  8
OBJECT
 10
4080.0000000000168
 20
-634.0
 30
0.0
 11
4082.8886121596229
 21
-626.03156729425325
 31
0.0
1001
ACDBBLOCKREPETAG
1070
     1
1071
      126
1005
12301C
  0
LINE
  5
12301D
  8
OBJECT
 10
4080.0000000000168
 20
-634.0
 30
0.0
 11
4085.9999999999859
 21
-653.3502637757274
 31
0.0
1001
ACDBBLOCKREPETAG
1070
     1
1071
      127
1005
12301D
  0
LINE
  5
12301E
  8
HIDDEN
 10
4167.9999999999854
 20
-570.5000000000008
 30
0.0
 11
4167.9999999999854
 21
-659.50000000000068
 31
0.0
1001
ACDBBLOCKREPETAG
1070
     1
1071
      129
1005
12301E
  0
LINE
  5
12301F
  8
OBJECT
 10
1923.0
 20
-570.99999999999432
 30
0.0
 11
1923.0
 21
-549.99999999999432
 31
0.0
1001
ACDBBLOCKREPETAG
1070
     1
1071
       36
1005
12301F
  0
LINE
  5
123020
  8
OBJECT
 10
1923.0
 20
-549.99999999999432
 30
0.0
 11
2077.0
 21
-549.99999999999432
 31
0.0
1001
ACDBBLOCKREPETAG
1070
     1
1071
       37
1005
123020
  0
LINE
  5
123021
  8
HIDDEN
 10
1943.0
 20
-619.99999999999432
 30
0.0
 11
2057.0
 21
-619.99999999999432
 31
0.0
1001
ACDBBLOCKREPETAG
1070
     1
1071
       38
1005
123021
  0
LINE
  5
123022
  8
OBJECT
 10
2077.0
 20
-549.99999999999432
 30
0.0
 11
2077.0
 21
-570.99999999999432
 31
0.0
1001
ACDBBLOCKREPETAG
1070
     1
1071
       39
1005
123022
  0
LINE
  5
123023
  8
OBJECT
 10
2077.0
 20
-570.99999999999432
 30
0.0
 11
1923.0
 21
-570.99999999999432
 31
0.0
1001
ACDBBLOCKREPETAG
1070
     1
1071
       40
1005
123023
  0
LINE
  5
123024
  8
CENTER
 10
2000.0
 20
-534.99999999999432
 30
0.0
 11
2000.0
 21
-769.9999999999942
 31
0.0
1001
ACDBBLOCKREPETAG
1070
     1
1071
       41
1005
123024
  0
LINE
  5
123025
  8
OBJECT
 10
1928.0
 20
-570.99999999999432
 30
0.0
 11
1928.0
 21
-633.99999999999432
 31
0.0
1001
ACDBBLOCKREPETAG
1070
     1
1071
       42
1005
123025
  0
LINE
  5
123026
  8
OBJECT
 10
2072.0
 20
-633.99999999999432
 30
0.0
 11
2072.0
 21
-570.99999999999432
 31
0.0
1001
ACDBBLOCKREPETAG
1070
     1
1071
       43
1005
123026
  0
LINE
  5
123027
  8
OBJECT
 10
1920.0
 20
-757.9999999999942
 30
0.0
 11
2080.0
 21
-757.9999999999942
 31
0.0
1001
ACDBBLOCKREPETAG
1070
     1
1071
       44
1005
123027
  0
LINE
  5
123028
  8
OBJECT
 10
2080.0
 20
-633.99999999999432
 30
0.0
 11
1920.0
 21
-633.99999999999432
 31
0.0
1001
ACDBBLOCKREPETAG
1070
     1
1071
       45
1005
123028
  0
LINE
  5
123029
  8
OBJECT
 10
1920.0
 20
-757.9999999999942
 30
0.0
 11
1920.0
 21
-769.9999999999942
 31
0.0
1001
ACDBBLOCKREPETAG
1070
     1
1071
       46
1005
123029
  0
LINE
  5
12302A
  8
OBJECT
 10
1920.0
 20
-769.9999999999942
 30
0.0
 11
2080.0
 21
-769.9999999999942
 31
0.0
1001
ACDBBLOCKREPETAG
1070
     1
1071
       47
1005
12302A
  0
LINE
  5
12302B
  8
OBJECT
 10
2080.0
 20
-769.9999999999942
 30
0.0
 11
2080.0
 21
-757.9999999999942
 31
0.0
1001
ACDBBLOCKREPETAG
1070
     1
1071
       48
1005
12302B
  0
ARC
  5
12302C
  8
OBJECT
 10
2200.6872746716731
 20
-749.40809941010195
 30
0.0
 40
170.6350503965856
 50
137.44134459184301
 51
149.91949581336559
1001
ACDBBLOCKREPETAG
1070
     1
1071
       52
1005
12302C
  0
ARC
  5
12302D
  8
OBJECT
 10
2200.6872746716731
 20
-642.59190058988645
 30
0.0
 40
170.6350503965856
 50
210.0805041866343
 51
222.55865540815699
1001
ACDBBLOCKREPETAG
1070
     1
1071
       53
1005
12302D
  0
ARC
  5
12302E
  8
OBJECT
 10
1799.312725328326
 20
-749.40809941010195
 30
0.0
 40
170.6350503965856
 50
30.080504186774089
 51
42.558655408447443
1001
ACDBBLOCKREPETAG
1070
     1
1071
       54
1005
12302E
  0
ARC
  5
12302F
  8
OBJECT
 10
1799.312725328326
 20
-642.59190058988645
 30
0.0
 40
170.6350503965856
 50
317.44134459155248
 51
329.91949581322592
1001
ACDBBLOCKREPETAG
1070
     1
1071
       55
1005
12302F
  0
POINT
  5
123030
  8
DOTS
 10
2000.0
 20
-754.9999999999942
 30
0.0
1001
ACDBBLOCKREPETAG
1070
     1
1071
      184
1005
123030
  0
LINE
  5
123031
  8
OBJECT
 10
1969.4199755553
 20
-243.89888500818171
 30
0.0
 11
1979.856491823236
 21
-222.48688253356801
 31
0.0
1001
ACDBBLOCKREPETAG
1070
     1
1071
      305
1005
123031
  0
LINE
  5
123032
  8
OBJECT
 10
1965.2972169006091
 20
-240.71813901882729
 30
0.0
 11
1973.907102266508
 21
-223.05373004430751
 31
0.0
1001
ACDBBLOCKREPETAG
1070
     1
1071
      306
1005
123032
  0
LINE
  5
123033
  8
OBJECT
 10
2024.102933093302
 20
-243.80694712371681
 30
0.0
 11
2020.659656999997
 21
-232.55462199999889
 31
0.0
1001
ACDBBLOCKREPETAG
1070
     1
1071
      307
1005
123033
  0
ARC
  5
123034
  8
OBJECT
 10
1976.579695307315
 20
-207.1289369828437
 30
0.0
 40
60.031113246032611
 50
314.07020130418567
 51
322.33936106091278
1001
ACDBBLOCKREPETAG
1070
     1
1071
      308
1005
123034
  0
LINE
  5
123035
  8
OBJECT
 10
1986.7927499013749
 20
-218.22553374208019
 30
0.0
 11
2020.659656999997
 21
-232.5546219999969
 31
0.0
1001
ACDBBLOCKREPETAG
1070
     1
1071
      309
1005
123035
  0
ARC
  5
123036
  8
OBJECT
 10
1982.8961697619
 20
-227.4351299990567
 30
0.0
 40
10.0
 50
67.066778292923374
 51
154.0147343702935
1001
ACDBBLOCKREPETAG
1070
     1
1071
      310
1005
123036
  0
ARC
  5
123037
  8
OBJECT
 10
1986.1488390381271
 20
-225.55386256729159
 30
0.0
 40
7.0
 50
67.066778292923374
 51
154.01473377497121
1001
ACDBBLOCKREPETAG
1070
     1
1071
      311
1005
123037
  0
CIRCLE
  5
123038
  8
OBJECT
 10
2000.0
 20
-199.99999999999909
 30
0.0
 40
53.5
1001
ACDBBLOCKREPETAG
1070
     1
1071
      340
1005
123038
  0
POINT
  5
123039
  8
DOTS
 10
2000.0
 20
-199.99999999999909
 30
0.0
 50
270.0
1001
ACDBBLOCKREPETAG
1070
     1
1071
      153
1005
123039
  0
ARC
  5
12303A
  8
OBJECT
 10
2000.0
 20
-199.99999999999909
 30
0.0
 40
50.0
 50
298.81994300000417
 51
228.52376955967449
1001
ACDBBLOCKREPETAG
1070
     1
1071
       48
1005
12303A
  0
LINE
  5
12303B
  8
CENTER
 10
2080.0
 20
-199.99999999999909
 30
0.0
 11
1920.0
 21
-199.99999999999909
 31
0.0
1001
ACDBBLOCKREPETAG
1070
     1
1071
       49
1005
12303B
  0
LINE
  5
12303C
  8
CENTER
 10
2000.0
 20
-279.99999999999909
 30
0.0
 11
2000.0
 21
-104.9999999999991
 31
0.0
1001
ACDBBLOCKREPETAG
1070
     1
1071
       50
1005
12303C
  0
CIRCLE
  5
12303D
  8
OBJECT
 10
2000.0
 20
-199.99999999999909
 30
0.0
 40
70.0
1001
ACDBBLOCKREPETAG
1070
     1
1071
       51
1005
12303D
  0
CIRCLE
  5
12303E
  8
OBJECT
 10
2000.0
 20
-199.99999999999909
 30
0.0
 40
77.0
1001
ACDBBLOCKREPETAG
1070
     1
1071
       52
1005
12303E
  0
ARC
  5
12303F
  8
OBJECT
 10
2000.0
 20
-199.99999999999909
 30
0.0
 40
80.0
 50
50.805032573864182
 51
129.1949674261358
1001
ACDBBLOCKREPETAG
1070
     1
1071
       53
1005
12303F
  0
LINE
  5
123040
  8
OBJECT
 10
2045.6618002273251
 20
-137.99999999999909
 30
0.0
 11
2080.0
 21
-137.99999999999909
 31
0.0
1001
ACDBBLOCKREPETAG
1070
     1
1071
       54
1005
123040
  0
LINE
  5
123041
  8
OBJECT
 10
2062.0
 20
-261.99999999999909
 30
0.0
 11
2080.0
 21
-261.99999999999909
 31
0.0
1001
ACDBBLOCKREPETAG
1070
     1
1071
       55
1005
123041
  0
LINE
  5
123042
  8
OBJECT
 10
2062.0
 20
-261.99999999999909
 30
0.0
 11
2062.0
 21
-279.99999999999909
 31
0.0
1001
ACDBBLOCKREPETAG
1070
     1
1071
       57
1005
123042
  0
LINE
  5
123043
  8
OBJECT
 10
1938.0
 20
-261.99999999999909
 30
0.0
 11
1938.0
 21
-279.99999999999909
 31
0.0
1001
ACDBBLOCKREPETAG
1070
     1
1071
       58
1005
123043
  0
LINE
  5
123044
  8
OBJECT
 10
1938.0
 20
-261.99999999999909
 30
0.0
 11
1920.0
 21
-261.99999999999909
 31
0.0
1001
ACDBBLOCKREPETAG
1070
     1
1071
       60
1005
123044
  0
LINE
  5
123045
  8
OBJECT
 10
1954.3381997726749
 20
-137.99999999999909
 30
0.0
 11
1920.0
 21
-137.99999999999909
 31
0.0
1001
ACDBBLOCKREPETAG
1070
     1
1071
       61
1005
123045
  0
LINE
  5
123046
  8
OBJECT
 10
1945.5527778486351
 20
-254.44722215136329
 30
0.0
 11
1938.0
 21
-261.99999999999909
 31
0.0
1001
ACDBBLOCKREPETAG
1070
     1
1071
       42
1005
123046
  0
LINE
  5
123047
  8
OBJECT
 10
2054.4472221513638
 20
-254.44722215136329
 30
0.0
 11
2062.0
 21
-261.99999999999909
 31
0.0
1001
ACDBBLOCKREPETAG
1070
     1
1071
       43
1005
123047
  0
LINE
  5
123048
  8
OBJECT
 10
1787.000000000018
 20
-137.99999999999909
 30
0.0
 11
1780.000000000018
 21
-137.99999999999909
 31
0.0
1001
ACDBBLOCKREPETAG
1070
     1
1071
      110
1005
123048
  0
LINE
  5
123049
  8
OBJECT
 10
1780.000000000018
 20
-137.99999999999909
 30
0.0
 11
1780.000000000018
 21
-261.99999999999909
 31
0.0
1001
ACDBBLOCKREPETAG
1070
     1
1071
      111
1005
123049
  0
LINE
  5
12304A
  8
OBJECT
 10
1780.000000000018
 20
-261.99999999999909
 30
0.0
 11
1787.000000000018
 21
-261.99999999999909
 31
0.0
1001
ACDBBLOCKREPETAG
1070
     1
1071
      112
1005
12304A
  0
LINE
  5
12304B
  8
OBJECT
 10
1787.000000000018
 20
-261.99999999999909
 30
0.0
 11
1787.000000000018
 21
-137.99999999999909
 31
0.0
1001
ACDBBLOCKREPETAG
1070
     1
1071
      113
1005
12304B
  0
LINE
  5
12304C
  8
CENTER
 10
1765.000000000018
 20
-199.99999999999909
 30
0.0
 11
1920.0
 21
-199.99999999999909
 31
0.0
1001
ACDBBLOCKREPETAG
1070
     1
1071
      114
1005
12304C
  0
LINE
  5
12304D
  8
OBJECT
 10
1840.0000250358171
 20
-245.0000000000027
 30
0.0
 11
1914.000000000003
 21
-244.99999999999909
 31
0.0
1001
ACDBBLOCKREPETAG
1070
     1
1071
      115
1005
12304D
  0
LINE
  5
12304E
  8
OBJECT
 10
1840.0000250358171
 20
-154.99999999999909
 30
0.0
 11
1914.000000000003
 21
-154.99999999999909
 31
0.0
1001
ACDBBLOCKREPETAG
1070
     1
1071
      116
1005
12304E
  0
LINE
  5
12304F
  8
OBJECT
 10
1787.000000000018
 20
-140.99999999999909
 30
0.0
 11
1823.000000000018
 21
-140.99999999999909
 31
0.0
1001
ACDBBLOCKREPETAG
1070
     1
1071
      117
1005
12304F
  0
LINE
  5
123050
  8
OBJECT
 10
1823.000000000018
 20
-140.99999999999909
 30
0.0
 11
1823.000000000018
 21
-258.99999999999909
 31
0.0
1001
ACDBBLOCKREPETAG
1070
     1
1071
      118
1005
123050
  0
LINE
  5
123051
  8
OBJECT
 10
1823.000000000018
 20
-258.99999999999909
 30
0.0
 11
1787.000000000018
 21
-258.99999999999909
 31
0.0
1001
ACDBBLOCKREPETAG
1070
     1
1071
      119
1005
123051
  0
LINE
  5
123052
  8
OBJECT
 10
1827.000000000018
 20
-145.49999999999909
 30
0.0
 11
1840.000000000018
 21
-145.49999999999909
 31
0.0
1001
ACDBBLOCKREPETAG
1070
     1
1071
      120
1005
123052
  0
LINE
  5
123053
  8
OBJECT
 10
1840.000000000018
 20
-254.49999999999909
 30
0.0
 11
1827.000000000018
 21
-254.49999999999909
 31
0.0
1001
ACDBBLOCKREPETAG
1070
     1
1071
      121
1005
123053
  0
LINE
  5
123054
  8
OBJECT
 10
1827.000000000018
 20
-254.49999999999909
 30
0.0
 11
1827.000000000018
 21
-145.49999999999909
 31
0.0
1001
ACDBBLOCKREPETAG
1070
     1
1071
      122
1005
123054
  0
LINE
  5
123055
  8
OBJECT
 10
1823.000000000018
 20
-140.99999999999909
 30
0.0
 11
1827.000000000018
 21
-145.49999999999909
 31
0.0
1001
ACDBBLOCKREPETAG
1070
     1
1071
      123
1005
123055
  0
LINE
  5
123056
  8
OBJECT
 10
1823.000000000018
 20
-258.99999999999909
 30
0.0
 11
1827.000000000018
 21
-254.49999999999909
 31
0.0
1001
ACDBBLOCKREPETAG
1070
     1
1071
      124
1005
123056
  0
LINE
  5
123057
  8
OBJECT
 10
1917.0000000000041
 20
-137.99999999999909
 30
0.0
 11
1920.0000000000041
 21
-137.99999999999909
 31
0.0
1001
ACDBBLOCKREPETAG
1070
     1
1071
      125
1005
123057
  0
ARC
  5
123058
  8
OBJECT
 10
1917.0000000000041
 20
-140.99999999999909
 30
0.0
 40
3.0
 50
90.0
 51
180.0
1001
ACDBBLOCKREPETAG
1070
     1
1071
      126
1005
123058
  0
LINE
  5
123059
  8
OBJECT
 10
1920.0000000000041
 20
-261.99999999999909
 30
0.0
 11
1917.0000000000041
 21
-261.99999999999909
 31
0.0
1001
ACDBBLOCKREPETAG
1070
     1
1071
      127
1005
123059
  0
ARC
  5
12305A
  8
OBJECT
 10
1917.0000000000041
 20
-258.99999999999909
 30
0.0
 40
3.0
 50
180.0
 51
270.0
1001
ACDBBLOCKREPETAG
1070
     1
1071
      128
1005
12305A
  0
LINE
  5
12305B
  8
OBJECT
 10
1914.000000000003
 20
-258.99999999999909
 30
0.0
 11
1914.000000000003
 21
-222.44994432063581
 31
0.0
1001
ACDBBLOCKREPETAG
1070
     1
1071
      129
1005
12305B
  0
LINE
  5
12305C
  8
OBJECT
 10
1914.000000000003
 20
-177.55005567935859
 30
0.0
 11
1914.000000000003
 21
-140.99999999999909
 31
0.0
1001
ACDBBLOCKREPETAG
1070
     1
1071
      130
1005
12305C
  0
LINE
  5
12305D
  8
HIDDEN
 10
1832.000000000018
 20
-155.49999999999909
 30
0.0
 11
1832.000000000018
 21
-244.49999999999909
 31
0.0
1001
ACDBBLOCKREPETAG
1070
     1
1071
      131
1005
12305D
  0
LINE
  5
12305E
  8
OBJECT
 10
1840.0000250358171
 20
-254.4999509238105
 30
0.0
 11
1840.0000250358171
 21
-145.4999509238105
 31
0.0
1001
ACDBBLOCKREPETAG
1070
     1
1071
      133
1005
12305E
  0
ARC
  5
12305F
  8
OBJECT
 10
1875.0
 20
-199.99999999999909
 30
0.0
 40
45.000000000000547
 50
270.0
 51
90.0
1001
ACDBBLOCKREPETAG
1070
     1
1071
      134
1005
12305F
  0
LINE
  5
123060
  8
CENTER
 10
2000.0
 20
-300.99999999999898
 30
0.0
 11
2000.0
 21
-279.99999999999909
 31
0.0
1001
ACDBBLOCKREPETAG
1070
     1
1071
        0
1005
123060
  0
LINE
  5
123061
  8
OBJECT
 10
2062.0
 20
-283.0
 30
0.0
 11
2062.0
 21
-279.99999999999909
 31
0.0
1001
ACDBBLOCKREPETAG
1070
     1
1071
        1
1005
123061
  0
ARC
  5
123062
  8
OBJECT
 10
2059.0
 20
-283.0
 30
0.0
 40
3.0
 50
270.0
 51
0.0
1001
ACDBBLOCKREPETAG
1070
     1
1071
        2
1005
123062
  0
LINE
  5
123063
  8
OBJECT
 10
1938.0
 20
-279.99999999999909
 30
0.0
 11
1938.0
 21
-282.99999999999818
 31
0.0
1001
ACDBBLOCKREPETAG
1070
     1
1071
        3
1005
123063
  0
ARC
  5
123064
  8
OBJECT
 10
1941.0
 20
-282.99999999999818
 30
0.0
 40
3.0
 50
180.0
 51
270.0
1001
ACDBBLOCKREPETAG
1070
     1
1071
        4
1005
123064
  0
LINE
  5
123065
  8
OBJECT
 10
1941.0
 20
-285.99999999999818
 30
0.0
 11
2059.0
 21
-286.0
 31
0.0
1001
ACDBBLOCKREPETAG
1070
     1
1071
        5
1005
123065
  0
LINE
  5
123066
  8
OBJECT
 10
2212.999999999985
 20
-137.99999999999909
 30
0.0
 11
2219.999999999985
 21
-137.99999999999909
 31
0.0
1001
ACDBBLOCKREPETAG
1070
     1
1071
      110
1005
123066
  0
LINE
  5
123067
  8
OBJECT
 10
2219.999999999985
 20
-137.99999999999909
 30
0.0
 11
2219.999999999985
 21
-261.99999999999909
 31
0.0
1001
ACDBBLOCKREPETAG
1070
     1
1071
      111
1005
123067
  0
LINE
  5
123068
  8
OBJECT
 10
2219.999999999985
 20
-261.99999999999909
 30
0.0
 11
2212.999999999985
 21
-261.99999999999909
 31
0.0
1001
ACDBBLOCKREPETAG
1070
     1
1071
      112
1005
123068
  0
LINE
  5
123069
  8
OBJECT
 10
2212.999999999985
 20
-261.99999999999909
 30
0.0
 11
2212.999999999985
 21
-137.99999999999909
 31
0.0
1001
ACDBBLOCKREPETAG
1070
     1
1071
      113
1005
123069
  0
LINE
  5
12306A
  8
CENTER
 10
2234.9999999999859
 20
-199.99999999999909
 30
0.0
 11
2080.0000000000041
 21
-199.99999999999909
 31
0.0
1001
ACDBBLOCKREPETAG
1070
     1
1071
      114
1005
12306A
  0
LINE
  5
12306B
  8
OBJECT
 10
2159.999974964187
 20
-245.0000000000027
 30
0.0
 11
2086.0
 21
-244.99999999999909
 31
0.0
1001
ACDBBLOCKREPETAG
1070
     1
1071
      115
1005
12306B
  0
LINE
  5
12306C
  8
OBJECT
 10
2159.999974964187
 20
-154.99999999999909
 30
0.0
 11
2086.0
 21
-154.99999999999909
 31
0.0
1001
ACDBBLOCKREPETAG
1070
     1
1071
      116
1005
12306C
  0
LINE
  5
12306D
  8
OBJECT
 10
2212.999999999985
 20
-140.99999999999909
 30
0.0
 11
2176.999999999985
 21
-140.99999999999909
 31
0.0
1001
ACDBBLOCKREPETAG
1070
     1
1071
      117
1005
12306D
  0
LINE
  5
12306E
  8
OBJECT
 10
2176.999999999985
 20
-140.99999999999909
 30
0.0
 11
2176.999999999985
 21
-258.99999999999909
 31
0.0
1001
ACDBBLOCKREPETAG
1070
     1
1071
      118
1005
12306E
  0
LINE
  5
12306F
  8
OBJECT
 10
2176.999999999985
 20
-258.99999999999909
 30
0.0
 11
2212.999999999985
 21
-258.99999999999909
 31
0.0
1001
ACDBBLOCKREPETAG
1070
     1
1071
      119
1005
12306F
  0
LINE
  5
123070
  8
OBJECT
 10
2172.999999999985
 20
-145.49999999999909
 30
0.0
 11
2159.999999999985
 21
-145.49999999999909
 31
0.0
1001
ACDBBLOCKREPETAG
1070
     1
1071
      120
1005
123070
  0
LINE
  5
123071
  8
OBJECT
 10
2159.999999999985
 20
-254.49999999999909
 30
0.0
 11
2172.999999999985
 21
-254.49999999999909
 31
0.0
1001
ACDBBLOCKREPETAG
1070
     1
1071
      121
1005
123071
  0
LINE
  5
123072
  8
OBJECT
 10
2172.999999999985
 20
-254.49999999999909
 30
0.0
 11
2172.999999999985
 21
-145.49999999999909
 31
0.0
1001
ACDBBLOCKREPETAG
1070
     1
1071
      122
1005
123072
  0
LINE
  5
123073
  8
OBJECT
 10
2176.999999999985
 20
-140.99999999999909
 30
0.0
 11
2172.999999999985
 21
-145.49999999999909
 31
0.0
1001
ACDBBLOCKREPETAG
1070
     1
1071
      123
1005
123073
  0
LINE
  5
123074
  8
OBJECT
 10
2176.999999999985
 20
-258.99999999999909
 30
0.0
 11
2172.999999999985
 21
-254.49999999999909
 31
0.0
1001
ACDBBLOCKREPETAG
1070
     1
1071
      124
1005
123074
  0
LINE
  5
123075
  8
OBJECT
 10
2083.0
 20
-137.99999999999909
 30
0.0
 11
2080.0
 21
-137.99999999999909
 31
0.0
1001
ACDBBLOCKREPETAG
1070
     1
1071
      125
1005
123075
  0
ARC
  5
123076
  8
OBJECT
 10
2083.0
 20
-140.99999999999909
 30
0.0
 40
3.0
 50
0.0
 51
90.0
1001
ACDBBLOCKREPETAG
1070
     1
1071
      126
1005
123076
  0
LINE
  5
123077
  8
OBJECT
 10
2080.0
 20
-261.99999999999909
 30
0.0
 11
2083.0
 21
-261.99999999999909
 31
0.0
1001
ACDBBLOCKREPETAG
1070
     1
1071
      127
1005
123077
  0
ARC
  5
123078
  8
OBJECT
 10
2083.0
 20
-258.99999999999909
 30
0.0
 40
3.0
 50
270.0
 51
0.0
1001
ACDBBLOCKREPETAG
1070
     1
1071
      128
1005
123078
  0
LINE
  5
123079
  8
OBJECT
 10
2086.0
 20
-258.99999999999909
 30
0.0
 11
2086.0
 21
-222.44994432063581
 31
0.0
1001
ACDBBLOCKREPETAG
1070
     1
1071
      129
1005
123079
  0
LINE
  5
12307A
  8
OBJECT
 10
2086.0
 20
-177.55005567935859
 30
0.0
 11
2086.0
 21
-140.99999999999909
 31
0.0
1001
ACDBBLOCKREPETAG
1070
     1
1071
      130
1005
12307A
  0
LINE
  5
12307B
  8
HIDDEN
 10
2167.999999999985
 20
-155.49999999999909
 30
0.0
 11
2167.999999999985
 21
-244.49999999999909
 31
0.0
1001
ACDBBLOCKREPETAG
1070
     1
1071
      131
1005
12307B
  0
LINE
  5
12307C
  8
OBJECT
 10
2159.999974964187
 20
-254.4999509238105
 30
0.0
 11
2159.999974964187
 21
-145.4999509238105
 31
0.0
1001
ACDBBLOCKREPETAG
1070
     1
1071
      133
1005
12307C
  0
ARC
  5
12307D
  8
OBJECT
 10
2125.0000000000032
 20
-199.99999999999909
 30
0.0
 40
45.000000000000547
 50
90.0
 51
270.0
1001
ACDBBLOCKREPETAG
1070
     1
1071
      134
1005
12307D
  0
LINE
  5
12307E
  8
OBJECT
 10
1787.000000000015
 20
-553.0
 30
0.0
 11
1780.0000000000141
 21
-553.0
 31
0.0
1001
ACDBBLOCKREPETAG
1070
     1
1071
      106
1005
12307E
  0
LINE
  5
12307F
  8
OBJECT
 10
1780.0000000000141
 20
-553.0
 30
0.0
 11
1780.0000000000141
 21
-677.0
 31
0.0
1001
ACDBBLOCKREPETAG
1070
     1
1071
      107
1005
12307F
  0
LINE
  5
123080
  8
OBJECT
 10
1914.0000000000141
 20
-653.3502637757274
 30
0.0
 11
1914.0000000000141
 21
-755.00000000000102
 31
0.0
1001
ACDBBLOCKREPETAG
1070
     1
1071
      108
1005
123080
  0
LINE
  5
123081
  8
OBJECT
 10
1780.0000000000141
 20
-677.0
 30
0.0
 11
1787.000000000015
 21
-677.0
 31
0.0
1001
ACDBBLOCKREPETAG
1070
     1
1071
      109
1005
123081
  0
LINE
  5
123082
  8
OBJECT
 10
1787.000000000015
 20
-677.0
 30
0.0
 11
1787.000000000015
 21
-553.0
 31
0.0
1001
ACDBBLOCKREPETAG
1070
     1
1071
      110
1005
123082
  0
LINE
  5
123083
  8
CENTER
 10
1855.0000000000141
 20
-615.0000000000008
 30
0.0
 11
1765.0000000000141
 21
-615.0
 31
0.0
1001
ACDBBLOCKREPETAG
1070
     1
1071
      111
1005
123083
  0
LINE
  5
123084
  8
OBJECT
 10
1920.000000000018
 20
-758.0
 30
0.0
 11
1917.000000000015
 21
-758.0000000000008
 31
0.0
1001
ACDBBLOCKREPETAG
1070
     1
1071
      112
1005
123084
  0
ARC
  5
123085
  8
OBJECT
 10
1917.000000000015
 20
-755.00000000000102
 30
0.0
 40
3.0
 50
180.0
 51
270.0
1001
ACDBBLOCKREPETAG
1070
     1
1071
      113
1005
123085
  0
LINE
  5
123086
  8
OBJECT
 10
1787.000000000015
 20
-556.0
 30
0.0
 11
1823.0000000000141
 21
-556.0000000000008
 31
0.0
1001
ACDBBLOCKREPETAG
1070
     1
1071
      114
1005
123086
  0
LINE
  5
123087
  8
OBJECT
 10
1823.0000000000141
 20
-556.0000000000008
 30
0.0
 11
1823.0000000000141
 21
-653.15756805667843
 31
0.0
1001
ACDBBLOCKREPETAG
1070
     1
1071
      115
1005
123087
  0
LINE
  5
123088
  8
OBJECT
 10
1827.0000000000141
 20
-560.5000000000008
 30
0.0
 11
1827.000000000018
 21
-645.74491827928705
 31
0.0
1001
ACDBBLOCKREPETAG
1070
     1
1071
      116
1005
123088
  0
LINE
  5
123089
  8
OBJECT
 10
1827.0000000000141
 20
-560.5000000000008
 30
0.0
 11
1840.0000000000141
 21
-560.5000000000008
 31
0.0
1001
ACDBBLOCKREPETAG
1070
     1
1071
      117
1005
123089
  0
LINE
  5
12308A
  8
OBJECT
 10
1831.343683174531
 20
-674.0000000000008
 30
0.0
 11
1787.000000000015
 21
-674.0
 31
0.0
1001
ACDBBLOCKREPETAG
1070
     1
1071
      118
1005
12308A
  0
LINE
  5
12308B
  8
OBJECT
 10
1823.0000000000141
 20
-556.0000000000008
 30
0.0
 11
1827.0000000000141
 21
-560.5000000000008
 31
0.0
1001
ACDBBLOCKREPETAG
1070
     1
1071
      119
1005
12308B
  0
LINE
  5
12308C
  8
OBJECT
 10
1840.0000000000141
 20
-560.5000000000008
 30
0.0
 11
1840.0000000000141
 21
-645.74491827928784
 31
0.0
1001
ACDBBLOCKREPETAG
1070
     1
1071
      120
1005
12308C
  0
ARC
  5
12308D
  8
OBJECT
 10
1908.000000000015
 20
-637.27386365609345
 30
0.0
 40
85.0
 50
205.59913872188221
 51
231.40900676279119
1001
ACDBBLOCKREPETAG
1070
     1
1071
      121
1005
12308D
  0
ARC
  5
12308E
  8
OBJECT
 10
1837.2000000000151
 20
-655.00000000000068
 30
0.0
 40
85.0
 50
19.925932125426211
 51
88.112268108168848
1001
ACDBBLOCKREPETAG
1070
     1
1071
      122
1005
12308E
  0
LINE
  5
12308F
  8
OBJECT
 10
1914.0000000000141
 20
-750.81075719270905
 30
0.0
 11
1854.980677456399
 21
-703.71143914629454
 31
0.0
1001
ACDBBLOCKREPETAG
1070
     1
1071
      123
1005
12308F
  0
LINE
  5
123090
  8
OBJECT
 10
1827.000000000018
 20
-645.74491827928705
 30
0.0
 11
1840.0000000000141
 21
-645.74491827928784
 31
0.0
1001
ACDBBLOCKREPETAG
1070
     1
1071
      124
1005
123090
  0
LINE
  5
123091
  8
OBJECT
 10
1823.0000000000141
 20
-653.15756805667843
 30
0.0
 11
1827.000000000018
 21
-645.74491827928705
 31
0.0
1001
ACDBBLOCKREPETAG
1070
     1
1071
      125
1005
123091
  0
LINE
  5
123092
  8
OBJECT
 10
1919.999999999982
 20
-634.0
 30
0.0
 11
1917.111387840378
 21
-626.03156729425325
 31
0.0
1001
ACDBBLOCKREPETAG
1070
     1
1071
      126
1005
123092
  0
LINE
  5
123093
  8
OBJECT
 10
1919.999999999982
 20
-634.0
 30
0.0
 11
1914.0000000000141
 21
-653.3502637757274
 31
0.0
1001
ACDBBLOCKREPETAG
1070
     1
1071
      127
1005
123093
  0
LINE
  5
123094
  8
HIDDEN
 10
1832.0000000000141
 20
-570.5000000000008
 30
0.0
 11
1832.0000000000141
 21
-659.50000000000068
 31
0.0
1001
ACDBBLOCKREPETAG
1070
     1
1071
      129
1005
123094
  0
CIRCLE
  5
123095
  8
OBJECT
 10
2000.0
 20
-696.0
 30
0.0
 40
62.0
1001
ACDBBLOCKREPETAG
1070
     1
1071
        0
1005
123095
  0
LINE
  5
123096
  8
OBJECT
 10
2212.999999999985
 20
-553.0000000000008
 30
0.0
 11
2219.999999999985
 21
-553.0000000000008
 31
0.0
1001
ACDBBLOCKREPETAG
1070
     1
1071
      106
1005
123096
  0
LINE
  5
123097
  8
OBJECT
 10
2219.999999999985
 20
-553.0000000000008
 30
0.0
 11
2219.999999999985
 21
-677.0000000000008
 31
0.0
1001
ACDBBLOCKREPETAG
1070
     1
1071
      107
1005
123097
  0
LINE
  5
123098
  8
OBJECT
 10
2085.9999999999859
 20
-653.3502637757274
 30
0.0
 11
2085.9999999999859
 21
-755.00000000000102
 31
0.0
1001
ACDBBLOCKREPETAG
1070
     1
1071
      108
1005
123098
  0
LINE
  5
123099
  8
OBJECT
 10
2219.999999999985
 20
-677.0000000000008
 30
0.0
 11
2212.999999999985
 21
-677.0000000000008
 31
0.0
1001
ACDBBLOCKREPETAG
1070
     1
1071
      109
1005
123099
  0
LINE
  5
12309A
  8
OBJECT
 10
2212.999999999985
 20
-677.0000000000008
 30
0.0
 11
2212.999999999985
 21
-553.0000000000008
 31
0.0
1001
ACDBBLOCKREPETAG
1070
     1
1071
      110
1005
12309A
  0
LINE
  5
12309B
  8
CENTER
 10
2144.999999999985
 20
-615.0000000000008
 30
0.0
 11
2234.9999999999859
 21
-615.0000000000008
 31
0.0
1001
ACDBBLOCKREPETAG
1070
     1
1071
      111
1005
12309B
  0
LINE
  5
12309C
  8
OBJECT
 10
2079.9999999999809
 20
-758.0
 30
0.0
 11
2082.999999999985
 21
-758.0000000000008
 31
0.0
1001
ACDBBLOCKREPETAG
1070
     1
1071
      112
1005
12309C
  0
ARC
  5
12309D
  8
OBJECT
 10
2082.999999999985
 20
-755.00000000000102
 30
0.0
 40
3.0
 50
270.0
 51
0.0
1001
ACDBBLOCKREPETAG
1070
     1
1071
      113
1005
12309D
  0
LINE
  5
12309E
  8
OBJECT
 10
2212.999999999985
 20
-556.0000000000008
 30
0.0
 11
2176.999999999985
 21
-556.0000000000008
 31
0.0
1001
ACDBBLOCKREPETAG
1070
     1
1071
      114
1005
12309E
  0
LINE
  5
12309F
  8
OBJECT
 10
2176.999999999985
 20
-556.0000000000008
 30
0.0
 11
2176.999999999985
 21
-653.15756805667843
 31
0.0
1001
ACDBBLOCKREPETAG
1070
     1
1071
      115
1005
12309F
  0
LINE
  5
1230A0
  8
OBJECT
 10
2172.999999999985
 20
-560.5000000000008
 30
0.0
 11
2172.9999999999818
 21
-645.74491827928705
 31
0.0
1001
ACDBBLOCKREPETAG
1070
     1
1071
      116
1005
1230A0
  0
LINE
  5
1230A1
  8
OBJECT
 10
2172.999999999985
 20
-560.5000000000008
 30
0.0
 11
2159.999999999985
 21
-560.5000000000008
 31
0.0
1001
ACDBBLOCKREPETAG
1070
     1
1071
      117
1005
1230A1
  0
LINE
  5
1230A2
  8
OBJECT
 10
2168.6563168254688
 20
-674.0000000000008
 30
0.0
 11
2212.999999999985
 21
-674.0000000000008
 31
0.0
1001
ACDBBLOCKREPETAG
1070
     1
1071
      118
1005
1230A2
  0
LINE
  5
1230A3
  8
OBJECT
 10
2176.999999999985
 20
-556.0000000000008
 30
0.0
 11
2172.999999999985
 21
-560.5000000000008
 31
0.0
1001
ACDBBLOCKREPETAG
1070
     1
1071
      119
1005
1230A3
  0
LINE
  5
1230A4
  8
OBJECT
 10
2159.999999999985
 20
-560.5000000000008
 30
0.0
 11
2159.999999999985
 21
-645.74491827928784
 31
0.0
1001
ACDBBLOCKREPETAG
1070
     1
1071
      120
1005
1230A4
  0
ARC
  5
1230A5
  8
OBJECT
 10
2091.9999999999859
 20
-637.27386365609345
 30
0.0
 40
85.0
 50
308.59099323720869
 51
334.40086127812339
1001
ACDBBLOCKREPETAG
1070
     1
1071
      121
1005
1230A5
  0
ARC
  5
1230A6
  8
OBJECT
 10
2162.7999999999852
 20
-655.00000000000068
 30
0.0
 40
85.0
 50
91.887731891831123
 51
160.07406787456929
1001
ACDBBLOCKREPETAG
1070
     1
1071
      122
1005
1230A6
  0
LINE
  5
1230A7
  8
OBJECT
 10
2085.9999999999859
 20
-750.81075719270905
 30
0.0
 11
2145.0193225436019
 21
-703.71143914629454
 31
0.0
1001
ACDBBLOCKREPETAG
1070
     1
1071
      123
1005
1230A7
  0
LINE
  5
1230A8
  8
OBJECT
 10
2172.9999999999818
 20
-645.74491827928705
 30
0.0
 11
2159.999999999985
 21
-645.74491827928784
 31
0.0
1001
ACDBBLOCKREPETAG
1070
     1
1071
      124
1005
1230A8
  0
LINE
  5
1230A9
  8
OBJECT
 10
2176.999999999985
 20
-653.15756805667843
 30
0.0
 11
2172.9999999999818
 21
-645.74491827928705
 31
0.0
1001
ACDBBLOCKREPETAG
1070
     1
1071
      125
1005
1230A9
  0
LINE
  5
1230AA
  8
OBJECT
 10
2080.0000000000191
 20
-634.0
 30
0.0
 11
2082.8886121596229
 21
-626.03156729425325
 31
0.0
1001
ACDBBLOCKREPETAG
1070
     1
1071
      126
1005
1230AA
  0
LINE
  5
1230AB
  8
OBJECT
 10
2080.0000000000191
 20
-634.0
 30
0.0
 11
2085.9999999999859
 21
-653.3502637757274
 31
0.0
1001
ACDBBLOCKREPETAG
1070
     1
1071
      127
1005
1230AB
  0
LINE
  5
1230AC
  8
HIDDEN
 10
2167.999999999985
 20
-570.5000000000008
 30
0.0
 11
2167.999999999985
 21
-659.50000000000068
 31
0.0
1001
ACDBBLOCKREPETAG
1070
     1
1071
      129
1005
1230AC
  0
LINE
  5
1230AD
  8
SLIM
 10
11914.999999999991
 20
-765.19743878931536
 30
0.0
 11
11925.197438789301
 21
-755.0
 31
0.0
1001
ACAD
1010
0.0
1020
0.0
1030
0.0
1001
ACDBBLOCKREPETAG
1070
     1
1071
        0
1005
0
  0
LINE
  5
1230AE
  8
SLIM
 10
11914.999999999991
 20
-783.15795103145354
 30
0.0
 11
11943.15795103144
 21
-755.0
 31
0.0
1001
ACAD
1010
0.0
1020
0.0
1030
0.0
1001
ACDBBLOCKREPETAG
1070
     1
1071
       10
1005
1230AE
  0
LINE
  5
1230AF
  8
SLIM
 10
11914.999999999991
 20
-801.11846327359149
 30
0.0
 11
11961.11846327358
 21
-755.0
 31
0.0
1001
ACAD
1010
0.0
1020
0.0
1030
0.0
1001
ACDBBLOCKREPETAG
1070
     1
1071
       11
1005
1230AF
  0
LINE
  5
1230B0
  8
SLIM
 10
11914.999999999991
 20
-819.0789755157291
 30
0.0
 11
11979.07897551572
 21
-755.0
 31
0.0
1001
ACAD
1010
0.0
1020
0.0
1030
0.0
1001
ACDBBLOCKREPETAG
1070
     1
1071
       12
1005
1230B0
  0
LINE
  5
1230B1
  8
SLIM
 10
11914.999999999991
 20
-837.03948775786716
 30
0.0
 11
11997.03948775786
 21
-755.0
 31
0.0
1001
ACAD
1010
0.0
1020
0.0
1030
0.0
1001
ACDBBLOCKREPETAG
1070
     1
1071
       13
1005
1230B1
  0
LINE
  5
1230B2
  8
SLIM
 10
11914.999999999991
 20
-855.00000000000523
 30
0.0
 11
12015.0
 21
-755.0
 31
0.0
1001
ACAD
1010
0.0
1020
0.0
1030
0.0
1001
ACDBBLOCKREPETAG
1070
     1
1071
       14
1005
1230B2
  0
LINE
  5
1230B3
  8
SLIM
 10
11914.999999999991
 20
-872.96051224214295
 30
0.0
 11
12032.96051224214
 21
-755.0
 31
0.0
1001
ACAD
1010
0.0
1020
0.0
1030
0.0
1001
ACDBBLOCKREPETAG
1070
     1
1071
       15
1005
1230B3
  0
LINE
  5
1230B4
  8
SLIM
 10
11914.999999999991
 20
-890.92102448428136
 30
0.0
 11
12050.921024484271
 21
-755.0
 31
0.0
1001
ACAD
1010
0.0
1020
0.0
1030
0.0
1001
ACDBBLOCKREPETAG
1070
     1
1071
       16
1005
1230B4
  0
LINE
  5
1230B5
  8
SLIM
 10
11915.0
 20
-908.8815367264192
 30
0.0
 11
12068.881536726411
 21
-755.0
 31
0.0
1001
ACAD
1010
0.0
1020
0.0
1030
0.0
1001
ACDBBLOCKREPETAG
1070
     1
1071
       17
1005
1230B5
  0
LINE
  5
1230B6
  8
SLIM
 10
11915.0
 20
-926.84204896855715
 30
0.0
 11
12085.000000000009
 21
-756.84204896854578
 31
0.0
1001
ACAD
1010
0.0
1020
0.0
1030
0.0
1001
ACDBBLOCKREPETAG
1070
     1
1071
       18
1005
1230B6
  0
LINE
  5
1230B7
  8
SLIM
 10
11915.0
 20
-944.80256121069533
 30
0.0
 11
12085.000000000009
 21
-774.80256121068464
 31
0.0
1001
ACAD
1010
0.0
1020
0.0
1030
0.0
1001
ACDBBLOCKREPETAG
1070
     1
1071
       19
1005
1230B7
  0
LINE
  5
1230B8
  8
SLIM
 10
11915.0
 20
-962.76307345283294
 30
0.0
 11
12085.000000000009
 21
-792.76307345282305
 31
0.0
1001
ACAD
1010
0.0
1020
0.0
1030
0.0
1001
ACDBBLOCKREPETAG
1070
     1
1071
       20
1005
1230B8
  0
LINE
  5
1230B9
  8
SLIM
 10
11915.0
 20
-980.72358569497135
 30
0.0
 11
12085.0
 21
-810.7235856949618
 31
0.0
1001
ACAD
1010
0.0
1020
0.0
1030
0.0
1001
ACDBBLOCKREPETAG
1070
     1
1071
       21
1005
1230B9
  0
LINE
  5
1230BA
  8
SLIM
 10
11915.0
 20
-998.68409793710907
 30
0.0
 11
12085.0
 21
-828.68409793710055
 31
0.0
1001
ACAD
1010
0.0
1020
0.0
1030
0.0
1001
ACDBBLOCKREPETAG
1070
     1
1071
       22
1005
1230BA
  0
LINE
  5
1230BB
  8
SLIM
 10
11915.0
 20
-1016.644610179247
 30
0.0
 11
12085.0
 21
-846.64461017923895
 31
0.0
1001
ACAD
1010
0.0
1020
0.0
1030
0.0
1001
ACDBBLOCKREPETAG
1070
     1
1071
       23
1005
1230BB
  0
LINE
  5
1230BC
  8
SLIM
 10
11915.0
 20
-1034.605122421385
 30
0.0
 11
12085.0
 21
-864.60512242137781
 31
0.0
1001
ACAD
1010
0.0
1020
0.0
1030
0.0
1001
ACDBBLOCKREPETAG
1070
     1
1071
       24
1005
1230BC
  0
LINE
  5
1230BD
  8
SLIM
 10
11915.0
 20
-1052.565634663523
 30
0.0
 11
12085.0
 21
-882.56563466351645
 31
0.0
1001
ACAD
1010
0.0
1020
0.0
1030
0.0
1001
ACDBBLOCKREPETAG
1070
     1
1071
       25
1005
1230BD
  0
LINE
  5
1230BE
  8
SLIM
 10
11915.0
 20
-1070.5261469056611
 30
0.0
 11
12085.0
 21
-900.5261469056552
 31
0.0
1001
ACAD
1010
0.0
1020
0.0
1030
0.0
1001
ACDBBLOCKREPETAG
1070
     1
1071
       26
1005
1230BE
  0
LINE
  5
1230BF
  8
SLIM
 10
11915.0
 20
-1088.4866591477989
 30
0.0
 11
12085.0
 21
-918.48665914779383
 31
0.0
1001
ACAD
1010
0.0
1020
0.0
1030
0.0
1001
ACDBBLOCKREPETAG
1070
     1
1071
       27
1005
1230BF
  0
LINE
  5
1230C0
  8
SLIM
 10
11915.0
 20
-1106.447171389937
 30
0.0
 11
12085.0
 21
-936.44717138993246
 31
0.0
1001
ACAD
1010
0.0
1020
0.0
1030
0.0
1001
ACDBBLOCKREPETAG
1070
     1
1071
       28
1005
1230C0
  0
LINE
  5
1230C1
  8
SLIM
 10
11915.0
 20
-1124.4076836320739
 30
0.0
 11
12085.0
 21
-954.40768363207064
 31
0.0
1001
ACAD
1010
0.0
1020
0.0
1030
0.0
1001
ACDBBLOCKREPETAG
1070
     1
1071
       29
1005
1230C1
  0
LINE
  5
1230C2
  8
SLIM
 10
11915.575570103911
 20
-1141.7926257703
 30
0.0
 11
12085.0
 21
-972.36819587420985
 31
0.0
1001
ACAD
1010
0.0
1020
0.0
1030
0.0
1001
ACDBBLOCKREPETAG
1070
     1
1071
       30
1005
1230C2
  0
LINE
  5
1230C3
  8
SLIM
 10
11917.789879832389
 20
-1157.538828283954
 30
0.0
 11
12085.0
 21
-990.32870811634814
 31
0.0
1001
ACAD
1010
0.0
1020
0.0
1030
0.0
1001
ACDBBLOCKREPETAG
1070
     1
1071
       31
1005
1230C3
  0
LINE
  5
1230C4
  8
SLIM
 10
11920.004189560879
 20
-1173.28503079761
 30
0.0
 11
12085.0
 21
-1008.289220358487
 31
0.0
1001
ACAD
1010
0.0
1020
0.0
1030
0.0
1001
ACDBBLOCKREPETAG
1070
     1
1071
       32
1005
1230C4
  0
LINE
  5
1230C5
  8
SLIM
 10
11922.21849928936
 20
-1189.0312333112661
 30
0.0
 11
12085.0
 21
-1026.249732600626
 31
0.0
1001
ACAD
1010
0.0
1020
0.0
1030
0.0
1001
ACDBBLOCKREPETAG
1070
     1
1071
       33
1005
1230C5
  0
LINE
  5
1230C6
  8
SLIM
 10
11924.432809017841
 20
-1204.777435824921
 30
0.0
 11
12085.0
 21
-1044.210244842764
 31
0.0
1001
ACAD
1010
0.0
1020
0.0
1030
0.0
1001
ACDBBLOCKREPETAG
1070
     1
1071
       34
1005
1230C6
  0
LINE
  5
1230C7
  8
SLIM
 10
11926.64711874633
 20
-1220.523638338577
 30
0.0
 11
12085.0
 21
-1062.170757084903
 31
0.0
1001
ACAD
1010
0.0
1020
0.0
1030
0.0
1001
ACDBBLOCKREPETAG
1070
     1
1071
       35
1005
1230C7
  0
LINE
  5
1230C8
  8
SLIM
 10
11928.861428474809
 20
-1236.2698408522319
 30
0.0
 11
12085.0
 21
-1080.1312693270411
 31
0.0
1001
ACAD
1010
0.0
1020
0.0
1030
0.0
1001
ACDBBLOCKREPETAG
1070
     1
1071
       36
1005
1230C8
  0
LINE
  5
1230C9
  8
SLIM
 10
11931.07573820329
 20
-1252.0160433658871
 30
0.0
 11
12085.0
 21
-1098.0917815691801
 31
0.0
1001
ACAD
1010
0.0
1020
0.0
1030
0.0
1001
ACDBBLOCKREPETAG
1070
     1
1071
       37
1005
1230C9
  0
LINE
  5
1230CA
  8
SLIM
 10
11932.999999999991
 20
-1268.0522938113261
 30
0.0
 11
12085.0
 21
-1116.052293811319
 31
0.0
1001
ACAD
1010
0.0
1020
0.0
1030
0.0
1001
ACDBBLOCKREPETAG
1070
     1
1071
       38
1005
1230CA
  0
LINE
  5
1230CB
  8
SLIM
 10
11932.999999999991
 20
-1286.0128060534651
 30
0.0
 11
12085.0
 21
-1134.012806053458
 31
0.0
1001
ACAD
1010
0.0
1020
0.0
1030
0.0
1001
ACDBBLOCKREPETAG
1070
     1
1071
       39
1005
1230CB
  0
LINE
  5
1230CC
  8
SLIM
 10
11932.999999999991
 20
-1303.9733182956029
 30
0.0
 11
12082.664314193131
 21
-1154.3090041024641
 31
0.0
1001
ACAD
1010
0.0
1020
0.0
1030
0.0
1001
ACDBBLOCKREPETAG
1070
     1
1071
       40
1005
1230CC
  0
LINE
  5
1230CD
  8
SLIM
 10
11949.93383053773
 20
-1304.999999999997
 30
0.0
 11
12079.725321280779
 21
-1175.2085092569521
 31
0.0
1001
ACAD
1010
0.0
1020
0.0
1030
0.0
1001
ACDBBLOCKREPETAG
1070
     1
1071
       41
1005
1230CD
  0
LINE
  5
1230CE
  8
SLIM
 10
11967.89434277986
 20
-1304.999999999997
 30
0.0
 11
12076.78632836842
 21
-1196.108014411438
 31
0.0
1001
ACAD
1010
0.0
1020
0.0
1030
0.0
1001
ACDBBLOCKREPETAG
1070
     1
1071
       42
1005
1230CE
  0
LINE
  5
1230CF
  8
SLIM
 10
11985.854855022009
 20
-1304.999999999998
 30
0.0
 11
12073.847335456079
 21
-1217.007519565926
 31
0.0
1001
ACAD
1010
0.0
1020
0.0
1030
0.0
1001
ACDBBLOCKREPETAG
1070
     1
1071
       43
1005
1230CF
  0
LINE
  5
1230D0
  8
SLIM
 10
12003.815367264149
 20
-1304.999999999998
 30
0.0
 11
12070.908342543729
 21
-1237.907024720414
 31
0.0
1001
ACAD
1010
0.0
1020
0.0
1030
0.0
1001
ACDBBLOCKREPETAG
1070
     1
1071
       44
1005
1230D0
  0
LINE
  5
1230D1
  8
SLIM
 10
12021.775879506289
 20
-1304.9999999999991
 30
0.0
 11
12067.969349631379
 21
-1258.8065298749009
 31
0.0
1001
ACAD
1010
0.0
1020
0.0
1030
0.0
1001
ACDBBLOCKREPETAG
1070
     1
1071
       45
1005
1230D1
  0
LINE
  5
1230D2
  8
SLIM
 10
12039.736391748431
 20
-1304.9999999999991
 30
0.0
 11
12067.0
 21
-1277.7363917484149
 31
0.0
1001
ACAD
1010
0.0
1020
0.0
1030
0.0
1001
ACDBBLOCKREPETAG
1070
     1
1071
       46
1005
1230D2
  0
LINE
  5
1230D3
  8
SLIM
 10
12057.69690399056
 20
-1304.9999999999991
 30
0.0
 11
12067.0
 21
-1295.696903990553
 31
0.0
1001
ACAD
1010
0.0
1020
0.0
1030
0.0
1001
ACDBBLOCKREPETAG
1070
     1
1071
       47
1005
1230D3
  0
LINE
  5
1230D4
  8
OBJECT
 10
11932.999999999991
 20
-1304.9999999999959
 30
0.0
 11
12067.0
 21
-1305.0
 31
0.0
1001
ACDBBLOCKREPETAG
1070
     1
1071
        1
1005
1230D4
  0
LINE
  5
1230D5
  8
OBJECT
 10
11914.999999999991
 20
-755.0
 30
0.0
 11
11915.0
 21
-1137.699682809141
 31
0.0
1001
ACDBBLOCKREPETAG
1070
     1
1071
        2
1005
1230D5
  0
LINE
  5
1230D6
  8
OBJECT
 10
12085.000000000009
 20
-755.0
 30
0.0
 11
12085.0
 21
-1137.6996828091719
 31
0.0
1001
ACDBBLOCKREPETAG
1070
     1
1071
        3
1005
1230D6
  0
LINE
  5
1230D7
  8
OBJECT
 10
11915.0
 20
-1137.699682809141
 30
0.0
 11
11932.999999999991
 21
-1265.699682809081
 31
0.0
1001
ACDBBLOCKREPETAG
1070
     1
1071
        4
1005
1230D7
  0
LINE
  5
1230D8
  8
OBJECT
 10
12067.0
 20
-1265.6996828091289
 30
0.0
 11
12085.0
 21
-1137.6996828091719
 31
0.0
1001
ACDBBLOCKREPETAG
1070
     1
1071
        5
1005
1230D8
  0
LINE
  5
1230D9
  8
OBJECT
 10
12085.000000000009
 20
-755.0
 30
0.0
 11
11914.999999999991
 21
-755.0
 31
0.0
1001
ACDBBLOCKREPETAG
1070
     1
1071
        6
1005
1230D9
  0
LINE
  5
1230DA
  8
OBJECT
 10
11932.999999999991
 20
-1265.699682809081
 30
0.0
 11
11932.999999999991
 21
-1304.9999999999959
 31
0.0
1001
ACDBBLOCKREPETAG
1070
     1
1071
        8
1005
1230DA
  0
LINE
  5
1230DB
  8
OBJECT
 10
12067.0
 20
-1265.6996828091289
 30
0.0
 11
12067.0
 21
-1305.0
 31
0.0
1001
ACDBBLOCKREPETAG
1070
     1
1071
        9
1005
1230DB
  0
LINE
  5
1230DC
  8
SLIM
 10
9914.9999999999927
 20
-765.19743878931536
 30
0.0
 11
9925.1974387893097
 21
-755.0
 31
0.0
1001
ACAD
1010
0.0
1020
0.0
1030
0.0
1001
ACDBBLOCKREPETAG
1070
     1
1071
        0
1005
0
  0
LINE
  5
1230DD
  8
SLIM
 10
9914.9999999999927
 20
-783.15795103145354
 30
0.0
 11
9943.1579510314441
 21
-755.0
 31
0.0
1001
ACAD
1010
0.0
1020
0.0
1030
0.0
1001
ACDBBLOCKREPETAG
1070
     1
1071
       10
1005
1230DD
  0
LINE
  5
1230DE
  8
SLIM
 10
9914.9999999999927
 20
-801.11846327359149
 30
0.0
 11
9961.1184632735858
 21
-755.0
 31
0.0
1001
ACAD
1010
0.0
1020
0.0
1030
0.0
1001
ACDBBLOCKREPETAG
1070
     1
1071
       11
1005
1230DE
  0
LINE
  5
1230DF
  8
SLIM
 10
9914.9999999999945
 20
-819.0789755157291
 30
0.0
 11
9979.0789755157257
 21
-755.0
 31
0.0
1001
ACAD
1010
0.0
1020
0.0
1030
0.0
1001
ACDBBLOCKREPETAG
1070
     1
1071
       12
1005
1230DF
  0
LINE
  5
1230E0
  8
SLIM
 10
9914.9999999999945
 20
-837.03948775786716
 30
0.0
 11
9997.0394877578656
 21
-755.0
 31
0.0
1001
ACAD
1010
0.0
1020
0.0
1030
0.0
1001
ACDBBLOCKREPETAG
1070
     1
1071
       13
1005
1230E0
  0
LINE
  5
1230E1
  8
SLIM
 10
9914.9999999999945
 20
-855.00000000000523
 30
0.0
 11
10015.0
 21
-755.0
 31
0.0
1001
ACAD
1010
0.0
1020
0.0
1030
0.0
1001
ACDBBLOCKREPETAG
1070
     1
1071
       14
1005
1230E1
  0
LINE
  5
1230E2
  8
SLIM
 10
9914.9999999999945
 20
-872.96051224214295
 30
0.0
 11
10032.96051224214
 21
-755.0
 31
0.0
1001
ACAD
1010
0.0
1020
0.0
1030
0.0
1001
ACDBBLOCKREPETAG
1070
     1
1071
       15
1005
1230E2
  0
LINE
  5
1230E3
  8
SLIM
 10
9914.9999999999945
 20
-890.92102448428136
 30
0.0
 11
10050.921024484271
 21
-755.0
 31
0.0
1001
ACAD
1010
0.0
1020
0.0
1030
0.0
1001
ACDBBLOCKREPETAG
1070
     1
1071
       16
1005
1230E3
  0
LINE
  5
1230E4
  8
SLIM
 10
9914.9999999999964
 20
-908.8815367264192
 30
0.0
 11
10068.881536726411
 21
-755.0
 31
0.0
1001
ACAD
1010
0.0
1020
0.0
1030
0.0
1001
ACDBBLOCKREPETAG
1070
     1
1071
       17
1005
1230E4
  0
LINE
  5
1230E5
  8
SLIM
 10
9914.9999999999964
 20
-926.84204896855715
 30
0.0
 11
10085.000000000009
 21
-756.84204896854578
 31
0.0
1001
ACAD
1010
0.0
1020
0.0
1030
0.0
1001
ACDBBLOCKREPETAG
1070
     1
1071
       18
1005
1230E5
  0
LINE
  5
1230E6
  8
SLIM
 10
9914.9999999999964
 20
-944.80256121069533
 30
0.0
 11
10085.000000000009
 21
-774.80256121068464
 31
0.0
1001
ACAD
1010
0.0
1020
0.0
1030
0.0
1001
ACDBBLOCKREPETAG
1070
     1
1071
       19
1005
1230E6
  0
LINE
  5
1230E7
  8
SLIM
 10
9914.9999999999964
 20
-962.76307345283294
 30
0.0
 11
10085.000000000009
 21
-792.76307345282305
 31
0.0
1001
ACAD
1010
0.0
1020
0.0
1030
0.0
1001
ACDBBLOCKREPETAG
1070
     1
1071
       20
1005
1230E7
  0
LINE
  5
1230E8
  8
SLIM
 10
9914.9999999999964
 20
-980.72358569497135
 30
0.0
 11
10085.0
 21
-810.7235856949618
 31
0.0
1001
ACAD
1010
0.0
1020
0.0
1030
0.0
1001
ACDBBLOCKREPETAG
1070
     1
1071
       21
1005
1230E8
  0
LINE
  5
1230E9
  8
SLIM
 10
9914.9999999999982
 20
-998.68409793710907
 30
0.0
 11
10085.0
 21
-828.68409793710055
 31
0.0
1001
ACAD
1010
0.0
1020
0.0
1030
0.0
1001
ACDBBLOCKREPETAG
1070
     1
1071
       22
1005
1230E9
  0
LINE
  5
1230EA
  8
SLIM
 10
9914.9999999999982
 20
-1016.644610179247
 30
0.0
 11
10085.0
 21
-846.64461017923895
 31
0.0
1001
ACAD
1010
0.0
1020
0.0
1030
0.0
1001
ACDBBLOCKREPETAG
1070
     1
1071
       23
1005
1230EA
  0
LINE
  5
1230EB
  8
SLIM
 10
9914.9999999999982
 20
-1034.605122421385
 30
0.0
 11
10085.0
 21
-864.60512242137781
 31
0.0
1001
ACAD
1010
0.0
1020
0.0
1030
0.0
1001
ACDBBLOCKREPETAG
1070
     1
1071
       24
1005
1230EB
  0
LINE
  5
1230EC
  8
SLIM
 10
9914.9999999999982
 20
-1052.565634663523
 30
0.0
 11
10085.0
 21
-882.56563466351645
 31
0.0
1001
ACAD
1010
0.0
1020
0.0
1030
0.0
1001
ACDBBLOCKREPETAG
1070
     1
1071
       25
1005
1230EC
  0
LINE
  5
1230ED
  8
SLIM
 10
9914.9999999999982
 20
-1070.5261469056611
 30
0.0
 11
10085.0
 21
-900.5261469056552
 31
0.0
1001
ACAD
1010
0.0
1020
0.0
1030
0.0
1001
ACDBBLOCKREPETAG
1070
     1
1071
       26
1005
1230ED
  0
LINE
  5
1230EE
  8
SLIM
 10
9915.0
 20
-1088.4866591477989
 30
0.0
 11
10085.0
 21
-918.48665914779383
 31
0.0
1001
ACAD
1010
0.0
1020
0.0
1030
0.0
1001
ACDBBLOCKREPETAG
1070
     1
1071
       27
1005
1230EE
  0
LINE
  5
1230EF
  8
SLIM
 10
9915.0
 20
-1106.447171389937
 30
0.0
 11
10085.0
 21
-936.44717138993246
 31
0.0
1001
ACAD
1010
0.0
1020
0.0
1030
0.0
1001
ACDBBLOCKREPETAG
1070
     1
1071
       28
1005
1230EF
  0
LINE
  5
1230F0
  8
SLIM
 10
9915.0
 20
-1124.4076836320739
 30
0.0
 11
10085.0
 21
-954.40768363207064
 31
0.0
1001
ACAD
1010
0.0
1020
0.0
1030
0.0
1001
ACDBBLOCKREPETAG
1070
     1
1071
       29
1005
1230F0
  0
LINE
  5
1230F1
  8
SLIM
 10
9915.5755701039125
 20
-1141.7926257703
 30
0.0
 11
10085.0
 21
-972.36819587420985
 31
0.0
1001
ACAD
1010
0.0
1020
0.0
1030
0.0
1001
ACDBBLOCKREPETAG
1070
     1
1071
       30
1005
1230F1
  0
LINE
  5
1230F2
  8
SLIM
 10
9917.7898798323986
 20
-1157.538828283954
 30
0.0
 11
10085.0
 21
-990.32870811634814
 31
0.0
1001
ACAD
1010
0.0
1020
0.0
1030
0.0
1001
ACDBBLOCKREPETAG
1070
     1
1071
       31
1005
1230F2
  0
LINE
  5
1230F3
  8
SLIM
 10
9920.0041895608792
 20
-1173.28503079761
 30
0.0
 11
10085.0
 21
-1008.289220358487
 31
0.0
1001
ACAD
1010
0.0
1020
0.0
1030
0.0
1001
ACDBBLOCKREPETAG
1070
     1
1071
       32
1005
1230F3
  0
LINE
  5
1230F4
  8
SLIM
 10
9922.2184992893599
 20
-1189.0312333112661
 30
0.0
 11
10085.0
 21
-1026.249732600626
 31
0.0
1001
ACAD
1010
0.0
1020
0.0
1030
0.0
1001
ACDBBLOCKREPETAG
1070
     1
1071
       33
1005
1230F4
  0
LINE
  5
1230F5
  8
SLIM
 10
9924.4328090178442
 20
-1204.777435824921
 30
0.0
 11
10085.0
 21
-1044.210244842764
 31
0.0
1001
ACAD
1010
0.0
1020
0.0
1030
0.0
1001
ACDBBLOCKREPETAG
1070
     1
1071
       34
1005
1230F5
  0
LINE
  5
1230F6
  8
SLIM
 10
9926.6471187463285
 20
-1220.523638338577
 30
0.0
 11
10085.0
 21
-1062.170757084903
 31
0.0
1001
ACAD
1010
0.0
1020
0.0
1030
0.0
1001
ACDBBLOCKREPETAG
1070
     1
1071
       35
1005
1230F6
  0
LINE
  5
1230F7
  8
SLIM
 10
9928.8614284748091
 20
-1236.2698408522319
 30
0.0
 11
10085.0
 21
-1080.1312693270411
 31
0.0
1001
ACAD
1010
0.0
1020
0.0
1030
0.0
1001
ACDBBLOCKREPETAG
1070
     1
1071
       36
1005
1230F7
  0
LINE
  5
1230F8
  8
SLIM
 10
9931.0757382032916
 20
-1252.0160433658871
 30
0.0
 11
10085.0
 21
-1098.0917815691801
 31
0.0
1001
ACAD
1010
0.0
1020
0.0
1030
0.0
1001
ACDBBLOCKREPETAG
1070
     1
1071
       37
1005
1230F8
  0
LINE
  5
1230F9
  8
SLIM
 10
9932.9999999999927
 20
-1268.0522938113261
 30
0.0
 11
10085.0
 21
-1116.052293811319
 31
0.0
1001
ACAD
1010
0.0
1020
0.0
1030
0.0
1001
ACDBBLOCKREPETAG
1070
     1
1071
       38
1005
1230F9
  0
LINE
  5
1230FA
  8
SLIM
 10
9932.9999999999927
 20
-1286.0128060534651
 30
0.0
 11
10085.0
 21
-1134.012806053458
 31
0.0
1001
ACAD
1010
0.0
1020
0.0
1030
0.0
1001
ACDBBLOCKREPETAG
1070
     1
1071
       39
1005
1230FA
  0
LINE
  5
1230FB
  8
SLIM
 10
9932.9999999999927
 20
-1303.9733182956029
 30
0.0
 11
10082.664314193131
 21
-1154.3090041024641
 31
0.0
1001
ACAD
1010
0.0
1020
0.0
1030
0.0
1001
ACDBBLOCKREPETAG
1070
     1
1071
       40
1005
1230FB
  0
LINE
  5
1230FC
  8
SLIM
 10
9949.9338305377387
 20
-1304.999999999997
 30
0.0
 11
10079.725321280779
 21
-1175.2085092569521
 31
0.0
1001
ACAD
1010
0.0
1020
0.0
1030
0.0
1001
ACDBBLOCKREPETAG
1070
     1
1071
       41
1005
1230FC
  0
LINE
  5
1230FD
  8
SLIM
 10
9967.8943427798768
 20
-1304.999999999997
 30
0.0
 11
10076.786328368429
 21
-1196.108014411438
 31
0.0
1001
ACAD
1010
0.0
1020
0.0
1030
0.0
1001
ACDBBLOCKREPETAG
1070
     1
1071
       42
1005
1230FD
  0
LINE
  5
1230FE
  8
SLIM
 10
9985.8548550220112
 20
-1304.999999999998
 30
0.0
 11
10073.847335456079
 21
-1217.007519565926
 31
0.0
1001
ACAD
1010
0.0
1020
0.0
1030
0.0
1001
ACDBBLOCKREPETAG
1070
     1
1071
       43
1005
1230FE
  0
LINE
  5
1230FF
  8
SLIM
 10
10003.815367264149
 20
-1304.999999999998
 30
0.0
 11
10070.90834254372
 21
-1237.907024720414
 31
0.0
1001
ACAD
1010
0.0
1020
0.0
1030
0.0
1001
ACDBBLOCKREPETAG
1070
     1
1071
       44
1005
1230FF
  0
LINE
  5
123100
  8
SLIM
 10
10021.77587950628
 20
-1304.9999999999991
 30
0.0
 11
10067.969349631379
 21
-1258.8065298749009
 31
0.0
1001
ACAD
1010
0.0
1020
0.0
1030
0.0
1001
ACDBBLOCKREPETAG
1070
     1
1071
       45
1005
123100
  0
LINE
  5
123101
  8
SLIM
 10
10039.736391748431
 20
-1304.9999999999991
 30
0.0
 11
10067.000000000009
 21
-1277.7363917484149
 31
0.0
1001
ACAD
1010
0.0
1020
0.0
1030
0.0
1001
ACDBBLOCKREPETAG
1070
     1
1071
       46
1005
123101
  0
LINE
  5
123102
  8
SLIM
 10
10057.69690399056
 20
-1304.9999999999991
 30
0.0
 11
10067.000000000009
 21
-1295.696903990553
 31
0.0
1001
ACAD
1010
0.0
1020
0.0
1030
0.0
1001
ACDBBLOCKREPETAG
1070
     1
1071
       47
1005
123102
  0
LINE
  5
123103
  8
OBJECT
 10
9932.9999999999927
 20
-1304.9999999999959
 30
0.0
 11
10067.000000000009
 21
-1305.0
 31
0.0
1001
ACDBBLOCKREPETAG
1070
     1
1071
        1
1005
123103
  0
LINE
  5
123104
  8
OBJECT
 10
9914.9999999999927
 20
-755.0
 30
0.0
 11
9915.0
 21
-1137.699682809141
 31
0.0
1001
ACDBBLOCKREPETAG
1070
     1
1071
        2
1005
123104
  0
LINE
  5
123105
  8
OBJECT
 10
10085.000000000009
 20
-755.0
 30
0.0
 11
10085.0
 21
-1137.6996828091719
 31
0.0
1001
ACDBBLOCKREPETAG
1070
     1
1071
        3
1005
123105
  0
LINE
  5
123106
  8
OBJECT
 10
9915.0
 20
-1137.699682809141
 30
0.0
 11
9932.9999999999927
 21
-1265.699682809081
 31
0.0
1001
ACDBBLOCKREPETAG
1070
     1
1071
        4
1005
123106
  0
LINE
  5
123107
  8
OBJECT
 10
10067.000000000009
 20
-1265.6996828091289
 30
0.0
 11
10085.0
 21
-1137.6996828091719
 31
0.0
1001
ACDBBLOCKREPETAG
1070
     1
1071
        5
1005
123107
  0
LINE
  5
123108
  8
OBJECT
 10
10085.000000000009
 20
-755.0
 30
0.0
 11
9914.9999999999927
 21
-755.0
 31
0.0
1001
ACDBBLOCKREPETAG
1070
     1
1071
        6
1005
123108
  0
LINE
  5
123109
  8
OBJECT
 10
9932.9999999999927
 20
-1265.699682809081
 30
0.0
 11
9932.9999999999927
 21
-1304.9999999999959
 31
0.0
1001
ACDBBLOCKREPETAG
1070
     1
1071
        8
1005
123109
  0
LINE
  5
12310A
  8
OBJECT
 10
10067.000000000009
 20
-1265.6996828091289
 30
0.0
 11
10067.000000000009
 21
-1305.0
 31
0.0
1001
ACDBBLOCKREPETAG
1070
     1
1071
        9
1005
12310A
  0
LINE
  5
12310B
  8
SLIM
 10
7914.9999999999918
 20
-765.19743878931536
 30
0.0
 11
7925.1974387893079
 21
-755.0
 31
0.0
1001
ACAD
1010
0.0
1020
0.0
1030
0.0
1001
ACDBBLOCKREPETAG
1070
     1
1071
        0
1005
0
  0
LINE
  5
12310C
  8
SLIM
 10
7914.9999999999918
 20
-783.15795103145354
 30
0.0
 11
7943.1579510314459
 21
-755.0
 31
0.0
1001
ACAD
1010
0.0
1020
0.0
1030
0.0
1001
ACDBBLOCKREPETAG
1070
     1
1071
       11
1005
12310C
  0
LINE
  5
12310D
  8
SLIM
 10
7914.9999999999918
 20
-801.11846327359149
 30
0.0
 11
7961.1184632735867
 21
-755.0
 31
0.0
1001
ACAD
1010
0.0
1020
0.0
1030
0.0
1001
ACDBBLOCKREPETAG
1070
     1
1071
       12
1005
12310D
  0
LINE
  5
12310E
  8
SLIM
 10
7914.9999999999918
 20
-819.0789755157291
 30
0.0
 11
7979.078975515723
 21
-755.0
 31
0.0
1001
ACAD
1010
0.0
1020
0.0
1030
0.0
1001
ACDBBLOCKREPETAG
1070
     1
1071
       13
1005
12310E
  0
LINE
  5
12310F
  8
SLIM
 10
7914.9999999999964
 20
-837.03948775786716
 30
0.0
 11
7997.0394877578628
 21
-755.0
 31
0.0
1001
ACAD
1010
0.0
1020
0.0
1030
0.0
1001
ACDBBLOCKREPETAG
1070
     1
1071
       14
1005
12310F
  0
LINE
  5
123110
  8
SLIM
 10
7914.9999999999964
 20
-855.00000000000523
 30
0.0
 11
8015.0
 21
-755.0
 31
0.0
1001
ACAD
1010
0.0
1020
0.0
1030
0.0
1001
ACDBBLOCKREPETAG
1070
     1
1071
       15
1005
123110
  0
LINE
  5
123111
  8
SLIM
 10
7914.9999999999964
 20
-872.96051224214295
 30
0.0
 11
8032.960512242139
 21
-755.0
 31
0.0
1001
ACAD
1010
0.0
1020
0.0
1030
0.0
1001
ACDBBLOCKREPETAG
1070
     1
1071
       16
1005
123111
  0
LINE
  5
123112
  8
SLIM
 10
7914.9999999999982
 20
-890.92102448428136
 30
0.0
 11
8050.9210244842798
 21
-755.0
 31
0.0
1001
ACAD
1010
0.0
1020
0.0
1030
0.0
1001
ACDBBLOCKREPETAG
1070
     1
1071
       17
1005
123112
  0
LINE
  5
123113
  8
SLIM
 10
7914.9999999999982
 20
-908.8815367264192
 30
0.0
 11
8068.8815367264133
 21
-755.0
 31
0.0
1001
ACAD
1010
0.0
1020
0.0
1030
0.0
1001
ACDBBLOCKREPETAG
1070
     1
1071
       18
1005
123113
  0
LINE
  5
123114
  8
SLIM
 10
7914.9999999999982
 20
-926.84204896855715
 30
0.0
 11
8085.0000000000064
 21
-756.84204896854578
 31
0.0
1001
ACAD
1010
0.0
1020
0.0
1030
0.0
1001
ACDBBLOCKREPETAG
1070
     1
1071
       19
1005
123114
  0
LINE
  5
123115
  8
SLIM
 10
7914.9999999999982
 20
-944.80256121069533
 30
0.0
 11
8085.0000000000064
 21
-774.80256121068464
 31
0.0
1001
ACAD
1010
0.0
1020
0.0
1030
0.0
1001
ACDBBLOCKREPETAG
1070
     1
1071
       20
1005
123115
  0
LINE
  5
123116
  8
SLIM
 10
7914.9999999999982
 20
-962.76307345283294
 30
0.0
 11
8085.0000000000064
 21
-792.76307345282305
 31
0.0
1001
ACAD
1010
0.0
1020
0.0
1030
0.0
1001
ACDBBLOCKREPETAG
1070
     1
1071
       21
1005
123116
  0
LINE
  5
123117
  8
SLIM
 10
7914.9999999999982
 20
-980.72358569497135
 30
0.0
 11
8085.0000000000064
 21
-810.7235856949618
 31
0.0
1001
ACAD
1010
0.0
1020
0.0
1030
0.0
1001
ACDBBLOCKREPETAG
1070
     1
1071
       22
1005
123117
  0
LINE
  5
123118
  8
SLIM
 10
7914.9999999999982
 20
-998.68409793710907
 30
0.0
 11
8085.0000000000064
 21
-828.68409793710055
 31
0.0
1001
ACAD
1010
0.0
1020
0.0
1030
0.0
1001
ACDBBLOCKREPETAG
1070
     1
1071
       23
1005
123118
  0
LINE
  5
123119
  8
SLIM
 10
7914.9999999999982
 20
-1016.644610179247
 30
0.0
 11
8085.0000000000064
 21
-846.64461017923895
 31
0.0
1001
ACAD
1010
0.0
1020
0.0
1030
0.0
1001
ACDBBLOCKREPETAG
1070
     1
1071
       24
1005
123119
  0
LINE
  5
12311A
  8
SLIM
 10
7914.9999999999982
 20
-1034.605122421385
 30
0.0
 11
8085.0000000000064
 21
-864.60512242137781
 31
0.0
1001
ACAD
1010
0.0
1020
0.0
1030
0.0
1001
ACDBBLOCKREPETAG
1070
     1
1071
       25
1005
12311A
  0
LINE
  5
12311B
  8
SLIM
 10
7914.9999999999982
 20
-1052.565634663523
 30
0.0
 11
8085.0000000000064
 21
-882.56563466351645
 31
0.0
1001
ACAD
1010
0.0
1020
0.0
1030
0.0
1001
ACDBBLOCKREPETAG
1070
     1
1071
       26
1005
12311B
  0
LINE
  5
12311C
  8
SLIM
 10
7914.9999999999982
 20
-1070.5261469056611
 30
0.0
 11
8085.0000000000064
 21
-900.5261469056552
 31
0.0
1001
ACAD
1010
0.0
1020
0.0
1030
0.0
1001
ACDBBLOCKREPETAG
1070
     1
1071
       27
1005
12311C
  0
LINE
  5
12311D
  8
SLIM
 10
7914.9999999999982
 20
-1088.4866591477989
 30
0.0
 11
8085.0000000000064
 21
-918.48665914779383
 31
0.0
1001
ACAD
1010
0.0
1020
0.0
1030
0.0
1001
ACDBBLOCKREPETAG
1070
     1
1071
       28
1005
12311D
  0
LINE
  5
12311E
  8
SLIM
 10
7914.9999999999982
 20
-1106.447171389937
 30
0.0
 11
8085.0000000000018
 21
-936.44717138993246
 31
0.0
1001
ACAD
1010
0.0
1020
0.0
1030
0.0
1001
ACDBBLOCKREPETAG
1070
     1
1071
       29
1005
12311E
  0
LINE
  5
12311F
  8
SLIM
 10
7915.0
 20
-1124.4076836320739
 30
0.0
 11
8085.0000000000018
 21
-954.40768363207064
 31
0.0
1001
ACAD
1010
0.0
1020
0.0
1030
0.0
1001
ACDBBLOCKREPETAG
1070
     1
1071
       30
1005
12311F
  0
LINE
  5
123120
  8
SLIM
 10
7915.5755701039097
 20
-1141.7926257703
 30
0.0
 11
8085.0000000000018
 21
-972.36819587420985
 31
0.0
1001
ACAD
1010
0.0
1020
0.0
1030
0.0
1001
ACDBBLOCKREPETAG
1070
     1
1071
       31
1005
123120
  0
LINE
  5
123121
  8
SLIM
 10
7917.7898798323949
 20
-1157.538828283956
 30
0.0
 11
8085.0000000000018
 21
-990.32870811634814
 31
0.0
1001
ACAD
1010
0.0
1020
0.0
1030
0.0
1001
ACDBBLOCKREPETAG
1070
     1
1071
       32
1005
123121
  0
LINE
  5
123122
  8
SLIM
 10
7920.0041895608774
 20
-1173.2850307976109
 30
0.0
 11
8085.0000000000018
 21
-1008.289220358487
 31
0.0
1001
ACAD
1010
0.0
1020
0.0
1030
0.0
1001
ACDBBLOCKREPETAG
1070
     1
1071
       33
1005
123122
  0
LINE
  5
123123
  8
SLIM
 10
7922.2184992893599
 20
-1189.031233311267
 30
0.0
 11
8085.0000000000018
 21
-1026.249732600626
 31
0.0
1001
ACAD
1010
0.0
1020
0.0
1030
0.0
1001
ACDBBLOCKREPETAG
1070
     1
1071
       34
1005
123123
  0
LINE
  5
123124
  8
SLIM
 10
7924.4328090178433
 20
-1204.777435824923
 30
0.0
 11
8085.0000000000018
 21
-1044.210244842764
 31
0.0
1001
ACAD
1010
0.0
1020
0.0
1030
0.0
1001
ACDBBLOCKREPETAG
1070
     1
1071
       35
1005
123124
  0
LINE
  5
123125
  8
SLIM
 10
7926.647118746323
 20
-1220.5236383385779
 30
0.0
 11
8085.0000000000018
 21
-1062.170757084903
 31
0.0
1001
ACAD
1010
0.0
1020
0.0
1030
0.0
1001
ACDBBLOCKREPETAG
1070
     1
1071
       36
1005
123125
  0
LINE
  5
123126
  8
SLIM
 10
7928.8614284748082
 20
-1236.269840852234
 30
0.0
 11
8085.0
 21
-1080.1312693270411
 31
0.0
1001
ACAD
1010
0.0
1020
0.0
1030
0.0
1001
ACDBBLOCKREPETAG
1070
     1
1071
       37
1005
123126
  0
LINE
  5
123127
  8
SLIM
 10
7931.0757382032898
 20
-1252.01604336589
 30
0.0
 11
8085.0
 21
-1098.0917815691801
 31
0.0
1001
ACAD
1010
0.0
1020
0.0
1030
0.0
1001
ACDBBLOCKREPETAG
1070
     1
1071
       38
1005
123127
  0
LINE
  5
123128
  8
SLIM
 10
7936.0522938113209
 20
-1265.0
 30
0.0
 11
8085.0
 21
-1116.052293811319
 31
0.0
1001
ACAD
1010
0.0
1020
0.0
1030
0.0
1001
ACDBBLOCKREPETAG
1070
     1
1071
       39
1005
123128
  0
LINE
  5
123129
  8
SLIM
 10
7943.0
 20
-1276.0128060534571
 30
0.0
 11
7954.0128060534598
 21
-1265.0
 31
0.0
1001
ACAD
1010
0.0
1020
0.0
1030
0.0
1001
ACDBBLOCKREPETAG
1070
     1
1071
       40
1005
123129
  0
LINE
  5
12312A
  8
SLIM
 10
7954.0128060534598
 20
-1265.0
 30
0.0
 11
8085.0
 21
-1134.012806053458
 31
0.0
1001
ACAD
1010
0.0
1020
0.0
1030
0.0
1001
ACDBBLOCKREPETAG
1070
     1
1071
       41
1005
12312A
  0
LINE
  5
12312B
  8
SLIM
 10
7946.973318295597
 20
-1290.0
 30
0.0
 11
7971.9733182955979
 21
-1265.0
 31
0.0
1001
ACAD
1010
0.0
1020
0.0
1030
0.0
1001
ACDBBLOCKREPETAG
1070
     1
1071
       42
1005
12312B
  0
LINE
  5
12312C
  8
SLIM
 10
7971.9733182955979
 20
-1265.0
 30
0.0
 11
8082.664314193129
 21
-1154.309004102465
 31
0.0
1001
ACAD
1010
0.0
1020
0.0
1030
0.0
1001
ACDBBLOCKREPETAG
1070
     1
1071
       43
1005
12312C
  0
LINE
  5
12312D
  8
SLIM
 10
7964.9338305377341
 20
-1290.0
 30
0.0
 11
7989.9338305377341
 21
-1265.0
 31
0.0
1001
ACAD
1010
0.0
1020
0.0
1030
0.0
1001
ACDBBLOCKREPETAG
1070
     1
1071
       44
1005
12312D
  0
LINE
  5
12312E
  8
SLIM
 10
7989.9338305377341
 20
-1265.0
 30
0.0
 11
8079.7253212807827
 21
-1175.208509256953
 31
0.0
1001
ACAD
1010
0.0
1020
0.0
1030
0.0
1001
ACDBBLOCKREPETAG
1070
     1
1071
       45
1005
12312E
  0
LINE
  5
12312F
  8
SLIM
 10
7982.8943427798713
 20
-1290.0
 30
0.0
 11
8007.8943427798722
 21
-1265.0
 31
0.0
1001
ACAD
1010
0.0
1020
0.0
1030
0.0
1001
ACDBBLOCKREPETAG
1070
     1
1071
       46
1005
12312F
  0
LINE
  5
123130
  8
SLIM
 10
8007.8943427798722
 20
-1265.0
 30
0.0
 11
8076.786328368431
 21
-1196.108014411441
 31
0.0
1001
ACAD
1010
0.0
1020
0.0
1030
0.0
1001
ACDBBLOCKREPETAG
1070
     1
1071
       47
1005
123130
  0
LINE
  5
123131
  8
SLIM
 10
8000.8548550220103
 20
-1290.0
 30
0.0
 11
8025.8548550220094
 21
-1265.0
 31
0.0
1001
ACAD
1010
0.0
1020
0.0
1030
0.0
1001
ACDBBLOCKREPETAG
1070
     1
1071
       48
1005
123131
  0
LINE
  5
123132
  8
SLIM
 10
8025.8548550220094
 20
-1265.0
 30
0.0
 11
8073.8473354560829
 21
-1217.007519565929
 31
0.0
1001
ACAD
1010
0.0
1020
0.0
1030
0.0
1001
ACDBBLOCKREPETAG
1070
     1
1071
       49
1005
123132
  0
LINE
  5
123133
  8
SLIM
 10
8018.8153672641492
 20
-1290.0
 30
0.0
 11
8043.8153672641502
 21
-1265.0
 31
0.0
1001
ACAD
1010
0.0
1020
0.0
1030
0.0
1001
ACDBBLOCKREPETAG
1070
     1
1071
       50
1005
123133
  0
LINE
  5
123134
  8
SLIM
 10
8043.8153672641502
 20
-1265.0
 30
0.0
 11
8070.9083425437329
 21
-1237.907024720417
 31
0.0
1001
ACAD
1010
0.0
1020
0.0
1030
0.0
1001
ACDBBLOCKREPETAG
1070
     1
1071
       51
1005
123134
  0
LINE
  5
123135
  8
SLIM
 10
8036.7758795062846
 20
-1290.0
 30
0.0
 11
8057.0
 21
-1269.7758795062871
 31
0.0
1001
ACAD
1010
0.0
1020
0.0
1030
0.0
1001
ACDBBLOCKREPETAG
1070
     1
1071
       52
1005
123135
  0
LINE
  5
123136
  8
SLIM
 10
8061.7758795062846
 20
-1265.0
 30
0.0
 11
8067.9693496313812
 21
-1258.806529874905
 31
0.0
1001
ACAD
1010
0.0
1020
0.0
1030
0.0
1001
ACDBBLOCKREPETAG
1070
     1
1071
       53
1005
123136
  0
LINE
  5
123137
  8
SLIM
 10
8054.7363917484254
 20
-1290.0
 30
0.0
 11
8057.0
 21
-1287.7363917484261
 31
0.0
1001
ACAD
1010
0.0
1020
0.0
1030
0.0
1001
ACDBBLOCKREPETAG
1070
     1
1071
       54
1005
123137
  0
LINE
  5
123138
  8
OBJECT
 10
7943.0
 20
-1290.0
 30
0.0
 11
8057.0
 21
-1290.0
 31
0.0
1001
ACDBBLOCKREPETAG
1070
     1
1071
        1
1005
123138
  0
LINE
  5
123139
  8
OBJECT
 10
7932.9016071049627
 20
-1265.0
 30
0.0
 11
8067.09839289504
 21
-1265.0
 31
0.0
1001
ACDBBLOCKREPETAG
1070
     1
1071
        2
1005
123139
  0
LINE
  5
12313A
  8
OBJECT
 10
7943.0
 20
-1290.0
 30
0.0
 11
7943.0
 21
-1265.0
 31
0.0
1001
ACDBBLOCKREPETAG
1070
     1
1071
        3
1005
12313A
  0
LINE
  5
12313B
  8
OBJECT
 10
8057.0
 20
-1290.0
 30
0.0
 11
8057.0
 21
-1265.0
 31
0.0
1001
ACDBBLOCKREPETAG
1070
     1
1071
        4
1005
12313B
  0
LINE
  5
12313C
  8
OBJECT
 10
7914.9999999999918
 20
-755.0
 30
0.0
 11
7915.0
 21
-1137.699682809143
 31
0.0
1001
ACDBBLOCKREPETAG
1070
     1
1071
        5
1005
12313C
  0
LINE
  5
12313D
  8
OBJECT
 10
8085.0000000000064
 20
-755.0
 30
0.0
 11
8085.0
 21
-1137.6996828091719
 31
0.0
1001
ACDBBLOCKREPETAG
1070
     1
1071
        6
1005
12313D
  0
LINE
  5
12313E
  8
OBJECT
 10
7915.0
 20
-1137.699682809143
 30
0.0
 11
7932.9016071049627
 21
-1265.0
 31
0.0
1001
ACDBBLOCKREPETAG
1070
     1
1071
        7
1005
12313E
  0
LINE
  5
12313F
  8
OBJECT
 10
8067.09839289504
 20
-1265.0
 30
0.0
 11
8085.0
 21
-1137.6996828091719
 31
0.0
1001
ACDBBLOCKREPETAG
1070
     1
1071
        8
1005
12313F
  0
LINE
  5
123140
  8
OBJECT
 10
8085.0000000000064
 20
-755.0
 30
0.0
 11
7914.9999999999918
 21
-755.0
 31
0.0
1001
ACDBBLOCKREPETAG
1070
     1
1071
        9
1005
123140
  0
TEXT
  5
123141
  8
SLIM
 10
0.0
 20
670.0
 30
0.0
 40
100.0
  1
4SL2-Z606-P140-0-S
 41
0.75
  0
TEXT
  5
123142
  8
SLIM
 10
0.0
 20
520.0
 30
0.0
 40
100.0
  1
4SL2-Z606-P140-0-W
 41
0.75
  0
LINE
  5
123143
  8
OBJECT
 10
12085.999999999991
 20
-1388.9999999999991
 30
0.0
 11
12085.999999999991
 21
-1398.9999999999991
 31
0.0
1001
ACDBBLOCKREPETAG
1070
     1
1071
      121
1005
123143
  0
LINE
  5
123144
  8
OBJECT
 10
12069.999999999991
 20
-1388.9999999999991
 30
0.0
 11
12069.999999999991
 21
-1398.9999999999991
 31
0.0
1001
ACDBBLOCKREPETAG
1070
     1
1071
      122
1005
123144
  0
LINE
  5
123145
  8
OBJECT
 10
12085.999999999991
 20
-1398.9999999999991
 30
0.0
 11
12069.999999999991
 21
-1398.9999999999991
 31
0.0
1001
ACDBBLOCKREPETAG
1070
     1
1071
      123
1005
123145
  0
LINE
  5
123146
  8
OBJECT
 10
12090.0
 20
-1349.9999999999959
 30
0.0
 11
11924.0
 21
-1349.9999999999959
 31
0.0
1001
ACDBBLOCKREPETAG
1070
     1
1071
      124
1005
123146
  0
LINE
  5
123147
  8
OBJECT
 10
12090.0
 20
-1364.9999999999991
 30
0.0
 11
12090.0
 21
-1349.9999999999959
 31
0.0
1001
ACDBBLOCKREPETAG
1070
     1
1071
      125
1005
123147
  0
LINE
  5
123148
  8
OBJECT
 10
11924.0
 20
-1364.9999999999991
 30
0.0
 11
12090.0
 21
-1364.9999999999991
 31
0.0
1001
ACDBBLOCKREPETAG
1070
     1
1071
      126
1005
123148
  0
LINE
  5
123149
  8
OBJECT
 10
12067.49999999998
 20
-1364.9999999999991
 30
0.0
 11
12067.49999999998
 21
-1375.0
 31
0.0
1001
ACDBBLOCKREPETAG
1070
     1
1071
      127
1005
123149
  0
LINE
  5
12314A
  8
OBJECT
 10
12072.999999999991
 20
-1375.0
 30
0.0
 11
12072.999999999991
 21
-1364.9999999999991
 31
0.0
1001
ACDBBLOCKREPETAG
1070
     1
1071
      128
1005
12314A
  0
LINE
  5
12314B
  8
OBJECT
 10
12082.999999999991
 20
-1375.0
 30
0.0
 11
12082.999999999991
 21
-1364.9999999999991
 31
0.0
1001
ACDBBLOCKREPETAG
1070
     1
1071
      129
1005
12314B
  0
LINE
  5
12314C
  8
OBJECT
 10
11924.0
 20
-1375.0
 30
0.0
 11
11924.0
 21
-1388.9999999999959
 31
0.0
1001
ACDBBLOCKREPETAG
1070
     1
1071
      130
1005
12314C
  0
LINE
  5
12314D
  8
OBJECT
 10
12090.0
 20
-1375.0
 30
0.0
 11
12090.0
 21
-1388.9999999999959
 31
0.0
1001
ACDBBLOCKREPETAG
1070
     1
1071
      131
1005
12314D
  0
LINE
  5
12314E
  8
OBJECT
 10
11924.0
 20
-1388.9999999999959
 30
0.0
 11
12090.0
 21
-1388.9999999999959
 31
0.0
1001
ACDBBLOCKREPETAG
1070
     1
1071
      132
1005
12314E
  0
LINE
  5
12314F
  8
OBJECT
 10
11924.0
 20
-1375.0
 30
0.0
 11
12090.0
 21
-1375.0
 31
0.0
1001
ACDBBLOCKREPETAG
1070
     1
1071
      133
1005
12314F
  0
LINE
  5
123150
  8
OBJECT
 10
11932.49999999998
 20
-1364.9999999999991
 30
0.0
 11
11932.49999999998
 21
-1375.0
 31
0.0
1001
ACDBBLOCKREPETAG
1070
     1
1071
      134
1005
123150
  0
LINE
  5
123151
  8
OBJECT
 10
11934.0
 20
-1313.9999999999959
 30
0.0
 11
12065.999999999991
 21
-1313.9999999999959
 31
0.0
1001
ACDBBLOCKREPETAG
1070
     1
1071
      135
1005
123151
  0
LINE
  5
123152
  8
OBJECT
 10
11924.0
 20
-1364.9999999999991
 30
0.0
 11
11924.0
 21
-1349.9999999999959
 31
0.0
1001
ACDBBLOCKREPETAG
1070
     1
1071
      136
1005
123152
  0
LINE
  5
123153
  8
HIDDEN
 10
11943.0
 20
-1324.9999999999991
 30
0.0
 11
12057.0
 21
-1324.9999999999991
 31
0.0
1001
ACDBBLOCKREPETAG
1070
     1
1071
      137
1005
123153
  0
LINE
  5
123154
  8
OBJECT
 10
12086.999999999991
 20
-1348.2
 30
0.0
 11
12086.999999999991
 21
-1349.9999999999991
 31
0.0
1001
ACDBBLOCKREPETAG
1070
     1
1071
      138
1005
123154
  0
LINE
  5
123155
  8
OBJECT
 10
12068.999999999991
 20
-1348.2
 30
0.0
 11
12068.999999999991
 21
-1349.9999999999991
 31
0.0
1001
ACDBBLOCKREPETAG
1070
     1
1071
      139
1005
123155
  0
LINE
  5
123156
  8
OBJECT
 10
12072.249999999991
 20
-1338.5
 30
0.0
 11
12083.749999999991
 21
-1338.5
 31
0.0
1001
ACDBBLOCKREPETAG
1070
     1
1071
      140
1005
123156
  0
LINE
  5
123157
  8
OBJECT
 10
12072.249999999991
 20
-1338.5
 30
0.0
 11
12072.249999999991
 21
-1348.2
 31
0.0
1001
ACDBBLOCKREPETAG
1070
     1
1071
      141
1005
123157
  0
LINE
  5
123158
  8
OBJECT
 10
12083.749999999991
 20
-1338.5
 30
0.0
 11
12083.749999999991
 21
-1348.2
 31
0.0
1001
ACDBBLOCKREPETAG
1070
     1
1071
      142
1005
123158
  0
LINE
  5
123159
  8
OBJECT
 10
11931.99999999998
 20
-1429.9999999999991
 30
0.0
 11
12067.99999999998
 21
-1429.9999999999991
 31
0.0
1001
ACDBBLOCKREPETAG
1070
     1
1071
      143
1005
123159
  0
LINE
  5
12315A
  8
OBJECT
 10
11931.99999999998
 20
-1429.9999999999991
 30
0.0
 11
11931.99999999998
 21
-1388.9999999999991
 31
0.0
1001
ACDBBLOCKREPETAG
1070
     1
1071
      144
1005
12315A
  0
LINE
  5
12315B
  8
OBJECT
 10
12067.99999999998
 20
-1429.9999999999991
 30
0.0
 11
12067.99999999998
 21
-1388.9999999999991
 31
0.0
1001
ACDBBLOCKREPETAG
1070
     1
1071
      145
1005
12315B
  0
LINE
  5
12315C
  8
OBJECT
 10
12086.999999999991
 20
-1348.2
 30
0.0
 11
12068.999999999991
 21
-1348.2
 31
0.0
1001
ACDBBLOCKREPETAG
1070
     1
1071
      146
1005
12315C
  0
LINE
  5
12315D
  8
CENTER
 10
12000.0
 20
-1054.9999999999991
 30
0.0
 11
12000.0
 21
-1444.9999999999991
 31
0.0
1001
ACDBBLOCKREPETAG
1070
     1
1071
      147
1005
12315D
  0
LINE
  5
12315E
  8
OBJECT
 10
11925.0
 20
-1054.9999999999991
 30
0.0
 11
11925.0
 21
-1136.9999999999959
 31
0.0
1001
ACDBBLOCKREPETAG
1070
     1
1071
      148
1005
12315E
  0
LINE
  5
12315F
  8
OBJECT
 10
12075.0
 20
-1054.9999999999991
 30
0.0
 11
12075.0
 21
-1136.999999999992
 31
0.0
1001
ACDBBLOCKREPETAG
1070
     1
1071
      149
1005
12315F
  0
LINE
  5
123160
  8
OBJECT
 10
11925.0
 20
-1136.9999999999959
 30
0.0
 11
12075.0
 21
-1136.999999999992
 31
0.0
1001
ACDBBLOCKREPETAG
1070
     1
1071
      150
1005
123160
  0
LINE
  5
123161
  8
OBJECT
 10
11943.0
 20
-1313.9999999999959
 30
0.0
 11
11943.0
 21
-1264.999999999992
 31
0.0
1001
ACDBBLOCKREPETAG
1070
     1
1071
      151
1005
123161
  0
LINE
  5
123162
  8
OBJECT
 10
12057.0
 20
-1264.999999999992
 30
0.0
 11
11943.0
 21
-1264.999999999992
 31
0.0
1001
ACDBBLOCKREPETAG
1070
     1
1071
      152
1005
123162
  0
LINE
  5
123163
  8
OBJECT
 10
12057.0
 20
-1264.999999999992
 30
0.0
 11
12057.0
 21
-1313.9999999999959
 31
0.0
1001
ACDBBLOCKREPETAG
1070
     1
1071
      153
1005
123163
  0
LINE
  5
123164
  8
OBJECT
 10
11925.0
 20
-1136.9999999999959
 30
0.0
 11
11943.0
 21
-1264.999999999992
 31
0.0
1001
ACDBBLOCKREPETAG
1070
     1
1071
      154
1005
123164
  0
LINE
  5
123165
  8
OBJECT
 10
12057.0
 20
-1264.999999999992
 30
0.0
 11
12075.0
 21
-1136.999999999992
 31
0.0
1001
ACDBBLOCKREPETAG
1070
     1
1071
      155
1005
123165
  0
LINE
  5
123166
  8
OBJECT
 10
11934.0
 20
-1349.9999999999959
 30
0.0
 11
11934.0
 21
-1313.9999999999959
 31
0.0
1001
ACDBBLOCKREPETAG
1070
     1
1071
      156
1005
123166
  0
LINE
  5
123167
  8
OBJECT
 10
12066.0
 20
-1349.9999999999959
 30
0.0
 11
12065.999999999991
 21
-1313.9999999999959
 31
0.0
1001
ACDBBLOCKREPETAG
1070
     1
1071
      157
1005
123167
  0
LINE
  5
123168
  8
OBJECT
 10
11954.75
 20
-1339.699999999993
 30
0.0
 11
11967.25
 21
-1339.699999999993
 31
0.0
1001
ACDBBLOCKREPETAG
1070
     1
1071
      158
1005
123168
  0
LINE
  5
123169
  8
OBJECT
 10
11946.0
 20
-1349.9999999999959
 30
0.0
 11
11946.0
 21
-1347.6999999999971
 31
0.0
1001
ACDBBLOCKREPETAG
1070
     1
1071
      159
1005
123169
  0
LINE
  5
12316A
  8
OBJECT
 10
11976.0
 20
-1349.9999999999959
 30
0.0
 11
11976.0
 21
-1347.6999999999971
 31
0.0
1001
ACDBBLOCKREPETAG
1070
     1
1071
      160
1005
12316A
  0
LINE
  5
12316B
  8
OBJECT
 10
11954.75
 20
-1339.699999999993
 30
0.0
 11
11954.75
 21
-1347.6999999999971
 31
0.0
1001
ACDBBLOCKREPETAG
1070
     1
1071
      161
1005
12316B
  0
LINE
  5
12316C
  8
OBJECT
 10
11967.25
 20
-1339.699999999993
 30
0.0
 11
11967.25
 21
-1347.6999999999971
 31
0.0
1001
ACDBBLOCKREPETAG
1070
     1
1071
      162
1005
12316C
  0
LINE
  5
12316D
  8
OBJECT
 10
11946.0
 20
-1347.6999999999971
 30
0.0
 11
11976.0
 21
-1347.6999999999971
 31
0.0
1001
ACDBBLOCKREPETAG
1070
     1
1071
      163
1005
12316D
  0
LINE
  5
12316E
  8
OBJECT
 10
11953.0
 20
-1388.9999999999959
 30
0.0
 11
11953.0
 21
-1398.9999999999959
 31
0.0
1001
ACDBBLOCKREPETAG
1070
     1
1071
      164
1005
12316E
  0
LINE
  5
12316F
  8
OBJECT
 10
11969.0
 20
-1388.9999999999959
 30
0.0
 11
11969.0
 21
-1398.9999999999959
 31
0.0
1001
ACDBBLOCKREPETAG
1070
     1
1071
      165
1005
12316F
  0
LINE
  5
123170
  8
OBJECT
 10
11953.0
 20
-1398.9999999999959
 30
0.0
 11
11969.0
 21
-1398.9999999999959
 31
0.0
1001
ACDBBLOCKREPETAG
1070
     1
1071
      166
1005
123170
  0
LINE
  5
123171
  8
OBJECT
 10
11966.0
 20
-1374.9999999999959
 30
0.0
 11
11966.0
 21
-1364.9999999999959
 31
0.0
1001
ACDBBLOCKREPETAG
1070
     1
1071
      167
1005
123171
  0
LINE
  5
123172
  8
OBJECT
 10
11956.0
 20
-1374.9999999999959
 30
0.0
 11
11956.0
 21
-1364.9999999999959
 31
0.0
1001
ACDBBLOCKREPETAG
1070
     1
1071
      168
1005
123172
  0
LINE
  5
123173
  8
OBJECT
 10
10090.0
 20
-1349.9999999999959
 30
0.0
 11
9924.0
 21
-1349.9999999999959
 31
0.0
1001
ACDBBLOCKREPETAG
1070
     1
1071
       12
1005
123173
  0
LINE
  5
123174
  8
OBJECT
 10
10066.0
 20
-1313.9999999999959
 30
0.0
 11
9934.0
 21
-1313.9999999999959
 31
0.0
1001
ACDBBLOCKREPETAG
1070
     1
1071
       13
1005
123174
  0
LINE
  5
123175
  8
OBJECT
 10
10090.0
 20
-1365.0
 30
0.0
 11
10090.0
 21
-1349.9999999999959
 31
0.0
1001
ACDBBLOCKREPETAG
1070
     1
1071
       14
1005
123175
  0
LINE
  5
123176
  8
OBJECT
 10
9924.0
 20
-1365.0
 30
0.0
 11
10090.0
 21
-1365.0
 31
0.0
1001
ACDBBLOCKREPETAG
1070
     1
1071
       15
1005
123176
  0
LINE
  5
123177
  8
OBJECT
 10
10067.49999999998
 20
-1365.0
 30
0.0
 11
10067.49999999998
 21
-1375.0
 31
0.0
1001
ACDBBLOCKREPETAG
1070
     1
1071
       16
1005
123177
  0
LINE
  5
123178
  8
OBJECT
 10
9924.0
 20
-1375.0
 30
0.0
 11
9924.0
 21
-1388.9999999999959
 31
0.0
1001
ACDBBLOCKREPETAG
1070
     1
1071
       17
1005
123178
  0
LINE
  5
123179
  8
OBJECT
 10
10090.0
 20
-1375.0
 30
0.0
 11
10090.0
 21
-1388.9999999999959
 31
0.0
1001
ACDBBLOCKREPETAG
1070
     1
1071
       18
1005
123179
  0
LINE
  5
12317A
  8
OBJECT
 10
9924.0
 20
-1388.9999999999959
 30
0.0
 11
10090.0
 21
-1388.9999999999959
 31
0.0
1001
ACDBBLOCKREPETAG
1070
     1
1071
       19
1005
12317A
  0
LINE
  5
12317B
  8
OBJECT
 10
9924.0
 20
-1375.0
 30
0.0
 11
10090.0
 21
-1375.0
 31
0.0
1001
ACDBBLOCKREPETAG
1070
     1
1071
       20
1005
12317B
  0
LINE
  5
12317C
  8
OBJECT
 10
9932.4999999999836
 20
-1365.0
 30
0.0
 11
9932.4999999999836
 21
-1375.0
 31
0.0
1001
ACDBBLOCKREPETAG
1070
     1
1071
       21
1005
12317C
  0
LINE
  5
12317D
  8
OBJECT
 10
9924.0
 20
-1365.0
 30
0.0
 11
9924.0
 21
-1349.9999999999959
 31
0.0
1001
ACDBBLOCKREPETAG
1070
     1
1071
       22
1005
12317D
  0
LINE
  5
12317E
  8
HIDDEN
 10
9943.0
 20
-1325.0
 30
0.0
 11
10057.0
 21
-1325.0
 31
0.0
1001
ACDBBLOCKREPETAG
1070
     1
1071
       23
1005
12317E
  0
LINE
  5
12317F
  8
CENTER
 10
10000.0
 20
-1055.0
 30
0.0
 11
10000.0
 21
-1403.9999999999959
 31
0.0
1001
ACDBBLOCKREPETAG
1070
     1
1071
       24
1005
12317F
  0
LINE
  5
123180
  8
OBJECT
 10
9925.0
 20
-1055.0
 30
0.0
 11
9925.0
 21
-1136.9999999999959
 31
0.0
1001
ACDBBLOCKREPETAG
1070
     1
1071
       25
1005
123180
  0
LINE
  5
123181
  8
OBJECT
 10
10075.0
 20
-1055.0
 30
0.0
 11
10075.0
 21
-1136.999999999993
 31
0.0
1001
ACDBBLOCKREPETAG
1070
     1
1071
       26
1005
123181
  0
LINE
  5
123182
  8
OBJECT
 10
9925.0
 20
-1136.9999999999959
 30
0.0
 11
10075.0
 21
-1136.999999999993
 31
0.0
1001
ACDBBLOCKREPETAG
1070
     1
1071
       27
1005
123182
  0
LINE
  5
123183
  8
OBJECT
 10
10057.0
 20
-1313.9999999999959
 30
0.0
 11
10057.0
 21
-1264.999999999993
 31
0.0
1001
ACDBBLOCKREPETAG
1070
     1
1071
       28
1005
123183
  0
LINE
  5
123184
  8
OBJECT
 10
9943.0
 20
-1313.9999999999959
 30
0.0
 11
9943.0
 21
-1264.999999999993
 31
0.0
1001
ACDBBLOCKREPETAG
1070
     1
1071
       29
1005
123184
  0
LINE
  5
123185
  8
OBJECT
 10
10057.0
 20
-1264.999999999993
 30
0.0
 11
9943.0
 21
-1264.999999999993
 31
0.0
1001
ACDBBLOCKREPETAG
1070
     1
1071
       30
1005
123185
  0
LINE
  5
123186
  8
OBJECT
 10
9925.0
 20
-1136.9999999999959
 30
0.0
 11
9943.0
 21
-1264.999999999993
 31
0.0
1001
ACDBBLOCKREPETAG
1070
     1
1071
       31
1005
123186
  0
LINE
  5
123187
  8
OBJECT
 10
10057.0
 20
-1264.999999999993
 30
0.0
 11
10075.0
 21
-1136.999999999993
 31
0.0
1001
ACDBBLOCKREPETAG
1070
     1
1071
       32
1005
123187
  0
LINE
  5
123188
  8
OBJECT
 10
9934.0
 20
-1313.9999999999959
 30
0.0
 11
9934.0
 21
-1349.9999999999959
 31
0.0
1001
ACDBBLOCKREPETAG
1070
     1
1071
       33
1005
123188
  0
LINE
  5
123189
  8
OBJECT
 10
10066.0
 20
-1313.9999999999959
 30
0.0
 11
10066.0
 21
-1349.9999999999959
 31
0.0
1001
ACDBBLOCKREPETAG
1070
     1
1071
       34
1005
123189
  0
LINE
  5
12318A
  8
OBJECT
 10
10082.999999999991
 20
-1374.9999999999959
 30
0.0
 11
10082.999999999991
 21
-1364.9999999999959
 31
0.0
1001
ACDBBLOCKREPETAG
1070
     1
1071
       35
1005
12318A
  0
LINE
  5
12318B
  8
OBJECT
 10
10072.999999999991
 20
-1374.9999999999959
 30
0.0
 11
10072.999999999991
 21
-1364.9999999999959
 31
0.0
1001
ACDBBLOCKREPETAG
1070
     1
1071
       36
1005
12318B
  0
LINE
  5
12318C
  8
OBJECT
 10
10068.99999999998
 20
-1344.9999999999959
 30
0.0
 11
10068.99999999998
 21
-1349.9999999999959
 31
0.0
1001
ACDBBLOCKREPETAG
1070
     1
1071
       37
1005
12318C
  0
LINE
  5
12318D
  8
OBJECT
 10
10087.0
 20
-1344.9999999999959
 30
0.0
 11
10087.0
 21
-1349.9999999999959
 31
0.0
1001
ACDBBLOCKREPETAG
1070
     1
1071
       38
1005
12318D
  0
LINE
  5
12318E
  8
OBJECT
 10
10087.0
 20
-1344.9999999999959
 30
0.0
 11
10068.99999999998
 21
-1344.9999999999959
 31
0.0
1001
ACDBBLOCKREPETAG
1070
     1
1071
       39
1005
12318E
  0
LINE
  5
12318F
  8
OBJECT
 10
10073.0
 20
-1396.9999999999959
 30
0.0
 11
10073.0
 21
-1399.9999999999959
 31
0.0
1001
ACDBBLOCKREPETAG
1070
     1
1071
       40
1005
12318F
  0
LINE
  5
123190
  8
OBJECT
 10
10073.0
 20
-1399.9999999999959
 30
0.0
 11
10083.0
 21
-1399.9999999999959
 31
0.0
1001
ACDBBLOCKREPETAG
1070
     1
1071
       41
1005
123190
  0
LINE
  5
123191
  8
OBJECT
 10
10083.0
 20
-1399.9999999999959
 30
0.0
 11
10083.0
 21
-1396.9999999999959
 31
0.0
1001
ACDBBLOCKREPETAG
1070
     1
1071
       43
1005
123191
  0
LINE
  5
123192
  8
OBJECT
 10
9968.5
 20
-1344.9999999999959
 30
0.0
 11
9951.9999999999909
 21
-1344.9999999999959
 31
0.0
1001
ACDBBLOCKREPETAG
1070
     1
1071
       48
1005
123192
  0
LINE
  5
123193
  8
OBJECT
 10
9976.0
 20
-1349.9999999999959
 30
0.0
 11
9976.0
 21
-1347.9999999999959
 31
0.0
1001
ACDBBLOCKREPETAG
1070
     1
1071
       49
1005
123193
  0
LINE
  5
123194
  8
OBJECT
 10
9966.0
 20
-1374.9999999999959
 30
0.0
 11
9966.0
 21
-1364.9999999999959
 31
0.0
1001
ACDBBLOCKREPETAG
1070
     1
1071
       50
1005
123194
  0
LINE
  5
123195
  8
OBJECT
 10
9956.0
 20
-1374.9999999999959
 30
0.0
 11
9956.0
 21
-1364.9999999999959
 31
0.0
1001
ACDBBLOCKREPETAG
1070
     1
1071
       51
1005
123195
  0
LINE
  5
123196
  8
OBJECT
 10
9951.9999999999909
 20
-1344.9999999999959
 30
0.0
 11
9951.9999999999909
 21
-1349.9999999999959
 31
0.0
1001
ACDBBLOCKREPETAG
1070
     1
1071
       52
1005
123196
  0
LINE
  5
123197
  8
OBJECT
 10
9956.0
 20
-1396.9999999999959
 30
0.0
 11
9956.0
 21
-1399.9999999999959
 31
0.0
1001
ACDBBLOCKREPETAG
1070
     1
1071
       53
1005
123197
  0
LINE
  5
123198
  8
OBJECT
 10
9956.0
 20
-1399.9999999999959
 30
0.0
 11
9966.0
 21
-1399.9999999999959
 31
0.0
1001
ACDBBLOCKREPETAG
1070
     1
1071
       54
1005
123198
  0
LINE
  5
123199
  8
OBJECT
 10
9951.185045423772
 20
-1396.9999999999959
 30
0.0
 11
9970.814954576219
 21
-1396.9999999999959
 31
0.0
1001
ACDBBLOCKREPETAG
1070
     1
1071
       55
1005
123199
  0
LINE
  5
12319A
  8
OBJECT
 10
9966.0
 20
-1399.9999999999959
 30
0.0
 11
9966.0
 21
-1396.9999999999959
 31
0.0
1001
ACDBBLOCKREPETAG
1070
     1
1071
       56
1005
12319A
  0
LINE
  5
12319B
  8
OBJECT
 10
9976.0
 20
-1347.9999999999959
 30
0.0
 11
9968.5
 21
-1344.9999999999959
 31
0.0
1001
ACDBBLOCKREPETAG
1070
     1
1071
       57
1005
12319B
  0
LINE
  5
12319C
  8
OBJECT
 10
9951.1850454237774
 20
-1388.9999999999959
 30
0.0
 11
9951.1850454237774
 21
-1396.9999999999959
 31
0.0
1001
ACDBBLOCKREPETAG
1070
     1
1071
      630
1005
12319C
  0
LINE
  5
12319D
  8
OBJECT
 10
9956.0925227118896
 20
-1388.9999999999959
 30
0.0
 11
9956.0925227118896
 21
-1396.9999999999959
 31
0.0
1001
ACDBBLOCKREPETAG
1070
     1
1071
      631
1005
12319D
  0
LINE
  5
12319E
  8
OBJECT
 10
9965.9074772881122
 20
-1388.9999999999959
 30
0.0
 11
9965.9074772881122
 21
-1396.9999999999959
 31
0.0
1001
ACDBBLOCKREPETAG
1070
     1
1071
      632
1005
12319E
  0
LINE
  5
12319F
  8
OBJECT
 10
9970.8149545762244
 20
-1388.9999999999959
 30
0.0
 11
9970.8149545762244
 21
-1396.9999999999959
 31
0.0
1001
ACDBBLOCKREPETAG
1070
     1
1071
      633
1005
12319F
  0
LINE
  5
1231A0
  8
OBJECT
 10
10068.18504542377
 20
-1396.9999999999959
 30
0.0
 11
10087.814954576221
 21
-1396.9999999999959
 31
0.0
1001
ACDBBLOCKREPETAG
1070
     1
1071
      634
1005
1231A0
  0
LINE
  5
1231A1
  8
OBJECT
 10
10068.18504542377
 20
-1388.9999999999959
 30
0.0
 11
10068.18504542377
 21
-1396.9999999999959
 31
0.0
1001
ACDBBLOCKREPETAG
1070
     1
1071
      635
1005
1231A1
  0
LINE
  5
1231A2
  8
OBJECT
 10
10073.09252271189
 20
-1388.9999999999959
 30
0.0
 11
10073.09252271189
 21
-1396.9999999999959
 31
0.0
1001
ACDBBLOCKREPETAG
1070
     1
1071
      636
1005
1231A2
  0
LINE
  5
1231A3
  8
OBJECT
 10
10082.90747728811
 20
-1388.9999999999959
 30
0.0
 11
10082.90747728811
 21
-1396.9999999999959
 31
0.0
1001
ACDBBLOCKREPETAG
1070
     1
1071
      637
1005
1231A3
  0
LINE
  5
1231A4
  8
OBJECT
 10
10087.814954576221
 20
-1388.9999999999959
 30
0.0
 11
10087.814954576221
 21
-1396.9999999999959
 31
0.0
1001
ACDBBLOCKREPETAG
1070
     1
1071
      638
1005
1231A4
  0
LINE
  5
1231A5
  8
OBJECT
 10
7943.0
 20
-1364.9999999999959
 30
0.0
 11
8057.0
 21
-1364.9999999999959
 31
0.0
1001
ACDBBLOCKREPETAG
1070
     1
1071
        0
1005
1231A5
  0
LINE
  5
1231A6
  8
OBJECT
 10
7943.0
 20
-1364.9999999999959
 30
0.0
 11
7943.0
 21
-1264.9999999999959
 31
0.0
1001
ACDBBLOCKREPETAG
1070
     1
1071
        1
1005
1231A6
  0
LINE
  5
1231A7
  8
OBJECT
 10
8057.0
 20
-1364.9999999999959
 30
0.0
 11
8057.0
 21
-1264.9999999999959
 31
0.0
1001
ACDBBLOCKREPETAG
1070
     1
1071
        2
1005
1231A7
  0
LINE
  5
1231A8
  8
OBJECT
 10
7943.0
 20
-1264.9999999999959
 30
0.0
 11
8057.0
 21
-1264.9999999999959
 31
0.0
1001
ACDBBLOCKREPETAG
1070
     1
1071
        3
1005
1231A8
  0
LINE
  5
1231A9
  8
HIDDEN
 10
7950.0
 20
-1264.9999999999959
 30
0.0
 11
7950.0
 21
-1364.9999999999959
 31
0.0
1001
ACDBBLOCKREPETAG
1070
     1
1071
        4
1005
1231A9
  0
LINE
  5
1231AA
  8
HIDDEN
 10
8050.0
 20
-1264.9999999999959
 30
0.0
 11
8050.0
 21
-1364.9999999999959
 31
0.0
1001
ACDBBLOCKREPETAG
1070
     1
1071
        5
1005
1231AA
  0
LINE
  5
1231AB
  8
CENTER
 10
8000.0
 20
-1055.0
 30
0.0
 11
8000.0
 21
-1379.9999999999959
 31
0.0
1001
ACDBBLOCKREPETAG
1070
     1
1071
        6
1005
1231AB
  0
LINE
  5
1231AC
  8
OBJECT
 10
7925.0
 20
-1055.0
 30
0.0
 11
7925.0
 21
-1136.9999999999959
 31
0.0
1001
ACDBBLOCKREPETAG
1070
     1
1071
        7
1005
1231AC
  0
LINE
  5
1231AD
  8
OBJECT
 10
8075.0
 20
-1055.0
 30
0.0
 11
8075.0
 21
-1136.9999999999959
 31
0.0
1001
ACDBBLOCKREPETAG
1070
     1
1071
        8
1005
1231AD
  0
LINE
  5
1231AE
  8
OBJECT
 10
7925.0
 20
-1136.9999999999959
 30
0.0
 11
8075.0
 21
-1136.9999999999959
 31
0.0
1001
ACDBBLOCKREPETAG
1070
     1
1071
        9
1005
1231AE
  0
LINE
  5
1231AF
  8
OBJECT
 10
7925.0
 20
-1136.9999999999959
 30
0.0
 11
7943.0
 21
-1264.9999999999959
 31
0.0
1001
ACDBBLOCKREPETAG
1070
     1
1071
       10
1005
1231AF
  0
LINE
  5
1231B0
  8
OBJECT
 10
8057.0
 20
-1264.9999999999959
 30
0.0
 11
8075.0
 21
-1136.9999999999959
 31
0.0
1001
ACDBBLOCKREPETAG
1070
     1
1071
       11
1005
1231B0
  0
LINE
  5
1231B1
  8
OBJECT
 10
6085.9999999999927
 20
-1388.9999999999991
 30
0.0
 11
6085.9999999999927
 21
-1398.9999999999991
 31
0.0
1001
ACDBBLOCKREPETAG
1070
     1
1071
      121
1005
1231B1
  0
LINE
  5
1231B2
  8
OBJECT
 10
6069.9999999999927
 20
-1388.9999999999991
 30
0.0
 11
6069.9999999999927
 21
-1398.9999999999991
 31
0.0
1001
ACDBBLOCKREPETAG
1070
     1
1071
      122
1005
1231B2
  0
LINE
  5
1231B3
  8
OBJECT
 10
6085.9999999999927
 20
-1398.9999999999991
 30
0.0
 11
6069.9999999999927
 21
-1398.9999999999991
 31
0.0
1001
ACDBBLOCKREPETAG
1070
     1
1071
      123
1005
1231B3
  0
LINE
  5
1231B4
  8
OBJECT
 10
6090.0
 20
-1349.9999999999959
 30
0.0
 11
5924.0
 21
-1349.9999999999959
 31
0.0
1001
ACDBBLOCKREPETAG
1070
     1
1071
      124
1005
1231B4
  0
LINE
  5
1231B5
  8
OBJECT
 10
6090.0
 20
-1364.9999999999991
 30
0.0
 11
6090.0
 21
-1349.9999999999959
 31
0.0
1001
ACDBBLOCKREPETAG
1070
     1
1071
      125
1005
1231B5
  0
LINE
  5
1231B6
  8
OBJECT
 10
5924.0
 20
-1364.9999999999991
 30
0.0
 11
6090.0
 21
-1364.9999999999991
 31
0.0
1001
ACDBBLOCKREPETAG
1070
     1
1071
      126
1005
1231B6
  0
LINE
  5
1231B7
  8
OBJECT
 10
6067.4999999999864
 20
-1364.9999999999991
 30
0.0
 11
6067.4999999999864
 21
-1375.0
 31
0.0
1001
ACDBBLOCKREPETAG
1070
     1
1071
      127
1005
1231B7
  0
LINE
  5
1231B8
  8
OBJECT
 10
6072.9999999999927
 20
-1375.0
 30
0.0
 11
6072.9999999999927
 21
-1364.9999999999991
 31
0.0
1001
ACDBBLOCKREPETAG
1070
     1
1071
      128
1005
1231B8
  0
LINE
  5
1231B9
  8
OBJECT
 10
6082.9999999999927
 20
-1375.0
 30
0.0
 11
6082.9999999999927
 21
-1364.9999999999991
 31
0.0
1001
ACDBBLOCKREPETAG
1070
     1
1071
      129
1005
1231B9
  0
LINE
  5
1231BA
  8
OBJECT
 10
5924.0
 20
-1375.0
 30
0.0
 11
5924.0
 21
-1388.9999999999959
 31
0.0
1001
ACDBBLOCKREPETAG
1070
     1
1071
      130
1005
1231BA
  0
LINE
  5
1231BB
  8
OBJECT
 10
6090.0
 20
-1375.0
 30
0.0
 11
6090.0
 21
-1388.9999999999959
 31
0.0
1001
ACDBBLOCKREPETAG
1070
     1
1071
      131
1005
1231BB
  0
LINE
  5
1231BC
  8
OBJECT
 10
5924.0
 20
-1388.9999999999959
 30
0.0
 11
6090.0
 21
-1388.9999999999959
 31
0.0
1001
ACDBBLOCKREPETAG
1070
     1
1071
      132
1005
1231BC
  0
LINE
  5
1231BD
  8
OBJECT
 10
5924.0
 20
-1375.0
 30
0.0
 11
6090.0
 21
-1375.0
 31
0.0
1001
ACDBBLOCKREPETAG
1070
     1
1071
      133
1005
1231BD
  0
LINE
  5
1231BE
  8
OBJECT
 10
5932.4999999999864
 20
-1364.9999999999991
 30
0.0
 11
5932.4999999999864
 21
-1375.0
 31
0.0
1001
ACDBBLOCKREPETAG
1070
     1
1071
      134
1005
1231BE
  0
LINE
  5
1231BF
  8
OBJECT
 10
5934.0
 20
-1313.9999999999959
 30
0.0
 11
6065.9999999999909
 21
-1313.9999999999959
 31
0.0
1001
ACDBBLOCKREPETAG
1070
     1
1071
      135
1005
1231BF
  0
LINE
  5
1231C0
  8
OBJECT
 10
5924.0
 20
-1364.9999999999991
 30
0.0
 11
5924.0
 21
-1349.9999999999959
 31
0.0
1001
ACDBBLOCKREPETAG
1070
     1
1071
      136
1005
1231C0
  0
LINE
  5
1231C1
  8
HIDDEN
 10
5943.0
 20
-1324.9999999999991
 30
0.0
 11
6057.0
 21
-1324.9999999999991
 31
0.0
1001
ACDBBLOCKREPETAG
1070
     1
1071
      137
1005
1231C1
  0
LINE
  5
1231C2
  8
OBJECT
 10
6086.9999999999918
 20
-1348.2
 30
0.0
 11
6086.9999999999918
 21
-1349.9999999999991
 31
0.0
1001
ACDBBLOCKREPETAG
1070
     1
1071
      138
1005
1231C2
  0
LINE
  5
1231C3
  8
OBJECT
 10
6068.9999999999909
 20
-1348.2
 30
0.0
 11
6068.9999999999909
 21
-1349.9999999999991
 31
0.0
1001
ACDBBLOCKREPETAG
1070
     1
1071
      139
1005
1231C3
  0
LINE
  5
1231C4
  8
OBJECT
 10
6072.2499999999927
 20
-1338.5
 30
0.0
 11
6083.7499999999927
 21
-1338.5
 31
0.0
1001
ACDBBLOCKREPETAG
1070
     1
1071
      140
1005
1231C4
  0
LINE
  5
1231C5
  8
OBJECT
 10
6072.2499999999927
 20
-1338.5
 30
0.0
 11
6072.2499999999927
 21
-1348.2
 31
0.0
1001
ACDBBLOCKREPETAG
1070
     1
1071
      141
1005
1231C5
  0
LINE
  5
1231C6
  8
OBJECT
 10
6083.7499999999927
 20
-1338.5
 30
0.0
 11
6083.7499999999927
 21
-1348.2
 31
0.0
1001
ACDBBLOCKREPETAG
1070
     1
1071
      142
1005
1231C6
  0
LINE
  5
1231C7
  8
OBJECT
 10
5931.9999999999873
 20
-1429.9999999999991
 30
0.0
 11
6067.9999999999873
 21
-1429.9999999999991
 31
0.0
1001
ACDBBLOCKREPETAG
1070
     1
1071
      143
1005
1231C7
  0
LINE
  5
1231C8
  8
OBJECT
 10
5931.9999999999873
 20
-1429.9999999999991
 30
0.0
 11
5931.9999999999873
 21
-1388.9999999999991
 31
0.0
1001
ACDBBLOCKREPETAG
1070
     1
1071
      144
1005
1231C8
  0
LINE
  5
1231C9
  8
OBJECT
 10
6067.9999999999873
 20
-1429.9999999999991
 30
0.0
 11
6067.9999999999873
 21
-1388.9999999999991
 31
0.0
1001
ACDBBLOCKREPETAG
1070
     1
1071
      145
1005
1231C9
  0
LINE
  5
1231CA
  8
OBJECT
 10
6086.9999999999918
 20
-1348.2
 30
0.0
 11
6068.9999999999909
 21
-1348.2
 31
0.0
1001
ACDBBLOCKREPETAG
1070
     1
1071
      146
1005
1231CA
  0
LINE
  5
1231CB
  8
CENTER
 10
6000.0
 20
-1054.9999999999991
 30
0.0
 11
6000.0
 21
-1444.9999999999991
 31
0.0
1001
ACDBBLOCKREPETAG
1070
     1
1071
      147
1005
1231CB
  0
LINE
  5
1231CC
  8
OBJECT
 10
5925.0
 20
-1054.9999999999991
 30
0.0
 11
5925.0
 21
-1136.9999999999959
 31
0.0
1001
ACDBBLOCKREPETAG
1070
     1
1071
      148
1005
1231CC
  0
LINE
  5
1231CD
  8
OBJECT
 10
6075.0
 20
-1054.9999999999991
 30
0.0
 11
6075.0
 21
-1136.999999999992
 31
0.0
1001
ACDBBLOCKREPETAG
1070
     1
1071
      149
1005
1231CD
  0
LINE
  5
1231CE
  8
OBJECT
 10
5925.0
 20
-1136.9999999999959
 30
0.0
 11
6075.0
 21
-1136.999999999992
 31
0.0
1001
ACDBBLOCKREPETAG
1070
     1
1071
      150
1005
1231CE
  0
LINE
  5
1231CF
  8
OBJECT
 10
5943.0
 20
-1313.9999999999959
 30
0.0
 11
5943.0
 21
-1264.999999999992
 31
0.0
1001
ACDBBLOCKREPETAG
1070
     1
1071
      151
1005
1231CF
  0
LINE
  5
1231D0
  8
OBJECT
 10
6057.0
 20
-1264.999999999992
 30
0.0
 11
5943.0
 21
-1264.999999999992
 31
0.0
1001
ACDBBLOCKREPETAG
1070
     1
1071
      152
1005
1231D0
  0
LINE
  5
1231D1
  8
OBJECT
 10
6057.0
 20
-1264.999999999992
 30
0.0
 11
6057.0
 21
-1313.9999999999959
 31
0.0
1001
ACDBBLOCKREPETAG
1070
     1
1071
      153
1005
1231D1
  0
LINE
  5
1231D2
  8
OBJECT
 10
5925.0
 20
-1136.9999999999959
 30
0.0
 11
5943.0
 21
-1264.999999999992
 31
0.0
1001
ACDBBLOCKREPETAG
1070
     1
1071
      154
1005
1231D2
  0
LINE
  5
1231D3
  8
OBJECT
 10
6057.0
 20
-1264.999999999992
 30
0.0
 11
6075.0
 21
-1136.999999999992
 31
0.0
1001
ACDBBLOCKREPETAG
1070
     1
1071
      155
1005
1231D3
  0
LINE
  5
1231D4
  8
OBJECT
 10
5934.0
 20
-1349.9999999999959
 30
0.0
 11
5934.0
 21
-1313.9999999999959
 31
0.0
1001
ACDBBLOCKREPETAG
1070
     1
1071
      156
1005
1231D4
  0
LINE
  5
1231D5
  8
OBJECT
 10
6066.0
 20
-1349.9999999999959
 30
0.0
 11
6065.9999999999909
 21
-1313.9999999999959
 31
0.0
1001
ACDBBLOCKREPETAG
1070
     1
1071
      157
1005
1231D5
  0
LINE
  5
1231D6
  8
OBJECT
 10
5954.75
 20
-1339.699999999993
 30
0.0
 11
5967.2499999999991
 21
-1339.699999999993
 31
0.0
1001
ACDBBLOCKREPETAG
1070
     1
1071
      158
1005
1231D6
  0
LINE
  5
1231D7
  8
OBJECT
 10
5946.0
 20
-1349.9999999999959
 30
0.0
 11
5946.0
 21
-1347.6999999999971
 31
0.0
1001
ACDBBLOCKREPETAG
1070
     1
1071
      159
1005
1231D7
  0
LINE
  5
1231D8
  8
OBJECT
 10
5976.0
 20
-1349.9999999999959
 30
0.0
 11
5976.0
 21
-1347.6999999999971
 31
0.0
1001
ACDBBLOCKREPETAG
1070
     1
1071
      160
1005
1231D8
  0
LINE
  5
1231D9
  8
OBJECT
 10
5954.75
 20
-1339.699999999993
 30
0.0
 11
5954.75
 21
-1347.6999999999971
 31
0.0
1001
ACDBBLOCKREPETAG
1070
     1
1071
      161
1005
1231D9
  0
LINE
  5
1231DA
  8
OBJECT
 10
5967.2499999999991
 20
-1339.699999999993
 30
0.0
 11
5967.2499999999991
 21
-1347.6999999999971
 31
0.0
1001
ACDBBLOCKREPETAG
1070
     1
1071
      162
1005
1231DA
  0
LINE
  5
1231DB
  8
OBJECT
 10
5946.0
 20
-1347.6999999999971
 30
0.0
 11
5976.0
 21
-1347.6999999999971
 31
0.0
1001
ACDBBLOCKREPETAG
1070
     1
1071
      163
1005
1231DB
  0
LINE
  5
1231DC
  8
OBJECT
 10
5953.0
 20
-1388.9999999999959
 30
0.0
 11
5953.0
 21
-1398.9999999999959
 31
0.0
1001
ACDBBLOCKREPETAG
1070
     1
1071
      164
1005
1231DC
  0
LINE
  5
1231DD
  8
OBJECT
 10
5969.0
 20
-1388.9999999999959
 30
0.0
 11
5969.0
 21
-1398.9999999999959
 31
0.0
1001
ACDBBLOCKREPETAG
1070
     1
1071
      165
1005
1231DD
  0
LINE
  5
1231DE
  8
OBJECT
 10
5953.0
 20
-1398.9999999999959
 30
0.0
 11
5969.0
 21
-1398.9999999999959
 31
0.0
1001
ACDBBLOCKREPETAG
1070
     1
1071
      166
1005
1231DE
  0
LINE
  5
1231DF
  8
OBJECT
 10
5966.0
 20
-1374.9999999999959
 30
0.0
 11
5966.0
 21
-1364.9999999999959
 31
0.0
1001
ACDBBLOCKREPETAG
1070
     1
1071
      167
1005
1231DF
  0
LINE
  5
1231E0
  8
OBJECT
 10
5956.0
 20
-1374.9999999999959
 30
0.0
 11
5956.0
 21
-1364.9999999999959
 31
0.0
1001
ACDBBLOCKREPETAG
1070
     1
1071
      168
1005
1231E0
  0
LINE
  5
1231E1
  8
OBJECT
 10
4090.0
 20
-1349.9999999999959
 30
0.0
 11
3924.0
 21
-1349.9999999999959
 31
0.0
1001
ACDBBLOCKREPETAG
1070
     1
1071
       12
1005
1231E1
  0
LINE
  5
1231E2
  8
OBJECT
 10
4066.0
 20
-1313.9999999999959
 30
0.0
 11
3934.0
 21
-1313.9999999999959
 31
0.0
1001
ACDBBLOCKREPETAG
1070
     1
1071
       13
1005
1231E2
  0
LINE
  5
1231E3
  8
OBJECT
 10
4090.0
 20
-1365.0
 30
0.0
 11
4090.0
 21
-1349.9999999999959
 31
0.0
1001
ACDBBLOCKREPETAG
1070
     1
1071
       14
1005
1231E3
  0
LINE
  5
1231E4
  8
OBJECT
 10
3924.0
 20
-1365.0
 30
0.0
 11
4090.0
 21
-1365.0
 31
0.0
1001
ACDBBLOCKREPETAG
1070
     1
1071
       15
1005
1231E4
  0
LINE
  5
1231E5
  8
OBJECT
 10
4067.4999999999841
 20
-1365.0
 30
0.0
 11
4067.4999999999841
 21
-1375.0
 31
0.0
1001
ACDBBLOCKREPETAG
1070
     1
1071
       16
1005
1231E5
  0
LINE
  5
1231E6
  8
OBJECT
 10
3924.0
 20
-1375.0
 30
0.0
 11
3924.0
 21
-1388.9999999999959
 31
0.0
1001
ACDBBLOCKREPETAG
1070
     1
1071
       17
1005
1231E6
  0
LINE
  5
1231E7
  8
OBJECT
 10
4090.0
 20
-1375.0
 30
0.0
 11
4090.0
 21
-1388.9999999999959
 31
0.0
1001
ACDBBLOCKREPETAG
1070
     1
1071
       18
1005
1231E7
  0
LINE
  5
1231E8
  8
OBJECT
 10
3924.0
 20
-1388.9999999999959
 30
0.0
 11
4090.0
 21
-1388.9999999999959
 31
0.0
1001
ACDBBLOCKREPETAG
1070
     1
1071
       19
1005
1231E8
  0
LINE
  5
1231E9
  8
OBJECT
 10
3924.0
 20
-1375.0
 30
0.0
 11
4090.0
 21
-1375.0
 31
0.0
1001
ACDBBLOCKREPETAG
1070
     1
1071
       20
1005
1231E9
  0
LINE
  5
1231EA
  8
OBJECT
 10
3932.499999999985
 20
-1365.0
 30
0.0
 11
3932.499999999985
 21
-1375.0
 31
0.0
1001
ACDBBLOCKREPETAG
1070
     1
1071
       21
1005
1231EA
  0
LINE
  5
1231EB
  8
OBJECT
 10
3924.0
 20
-1365.0
 30
0.0
 11
3924.0
 21
-1349.9999999999959
 31
0.0
1001
ACDBBLOCKREPETAG
1070
     1
1071
       22
1005
1231EB
  0
LINE
  5
1231EC
  8
HIDDEN
 10
3943.0
 20
-1325.0
 30
0.0
 11
4057.0
 21
-1325.0
 31
0.0
1001
ACDBBLOCKREPETAG
1070
     1
1071
       23
1005
1231EC
  0
LINE
  5
1231ED
  8
CENTER
 10
4000.0
 20
-1055.0
 30
0.0
 11
4000.0
 21
-1403.9999999999959
 31
0.0
1001
ACDBBLOCKREPETAG
1070
     1
1071
       24
1005
1231ED
  0
LINE
  5
1231EE
  8
OBJECT
 10
3925.0
 20
-1055.0
 30
0.0
 11
3925.0
 21
-1136.9999999999959
 31
0.0
1001
ACDBBLOCKREPETAG
1070
     1
1071
       25
1005
1231EE
  0
LINE
  5
1231EF
  8
OBJECT
 10
4075.0
 20
-1055.0
 30
0.0
 11
4075.0
 21
-1136.999999999993
 31
0.0
1001
ACDBBLOCKREPETAG
1070
     1
1071
       26
1005
1231EF
  0
LINE
  5
1231F0
  8
OBJECT
 10
3925.0
 20
-1136.9999999999959
 30
0.0
 11
4075.0
 21
-1136.999999999993
 31
0.0
1001
ACDBBLOCKREPETAG
1070
     1
1071
       27
1005
1231F0
  0
LINE
  5
1231F1
  8
OBJECT
 10
4057.0
 20
-1313.9999999999959
 30
0.0
 11
4057.0
 21
-1264.999999999993
 31
0.0
1001
ACDBBLOCKREPETAG
1070
     1
1071
       28
1005
1231F1
  0
LINE
  5
1231F2
  8
OBJECT
 10
3943.0
 20
-1313.9999999999959
 30
0.0
 11
3943.0
 21
-1264.999999999993
 31
0.0
1001
ACDBBLOCKREPETAG
1070
     1
1071
       29
1005
1231F2
  0
LINE
  5
1231F3
  8
OBJECT
 10
4057.0
 20
-1264.999999999993
 30
0.0
 11
3943.0
 21
-1264.999999999993
 31
0.0
1001
ACDBBLOCKREPETAG
1070
     1
1071
       30
1005
1231F3
  0
LINE
  5
1231F4
  8
OBJECT
 10
3925.0
 20
-1136.9999999999959
 30
0.0
 11
3943.0
 21
-1264.999999999993
 31
0.0
1001
ACDBBLOCKREPETAG
1070
     1
1071
       31
1005
1231F4
  0
LINE
  5
1231F5
  8
OBJECT
 10
4057.0
 20
-1264.999999999993
 30
0.0
 11
4075.0
 21
-1136.999999999993
 31
0.0
1001
ACDBBLOCKREPETAG
1070
     1
1071
       32
1005
1231F5
  0
LINE
  5
1231F6
  8
OBJECT
 10
3934.0
 20
-1313.9999999999959
 30
0.0
 11
3934.0
 21
-1349.9999999999959
 31
0.0
1001
ACDBBLOCKREPETAG
1070
     1
1071
       33
1005
1231F6
  0
LINE
  5
1231F7
  8
OBJECT
 10
4066.0
 20
-1313.9999999999959
 30
0.0
 11
4066.0
 21
-1349.9999999999959
 31
0.0
1001
ACDBBLOCKREPETAG
1070
     1
1071
       34
1005
1231F7
  0
LINE
  5
1231F8
  8
OBJECT
 10
4082.9999999999932
 20
-1374.9999999999959
 30
0.0
 11
4082.9999999999932
 21
-1364.9999999999959
 31
0.0
1001
ACDBBLOCKREPETAG
1070
     1
1071
       35
1005
1231F8
  0
LINE
  5
1231F9
  8
OBJECT
 10
4072.9999999999918
 20
-1374.9999999999959
 30
0.0
 11
4072.9999999999918
 21
-1364.9999999999959
 31
0.0
1001
ACDBBLOCKREPETAG
1070
     1
1071
       36
1005
1231F9
  0
LINE
  5
1231FA
  8
OBJECT
 10
4068.9999999999841
 20
-1344.9999999999959
 30
0.0
 11
4068.9999999999841
 21
-1349.9999999999959
 31
0.0
1001
ACDBBLOCKREPETAG
1070
     1
1071
       37
1005
1231FA
  0
LINE
  5
1231FB
  8
OBJECT
 10
4087.0
 20
-1344.9999999999959
 30
0.0
 11
4087.0
 21
-1349.9999999999959
 31
0.0
1001
ACDBBLOCKREPETAG
1070
     1
1071
       38
1005
1231FB
  0
LINE
  5
1231FC
  8
OBJECT
 10
4087.0
 20
-1344.9999999999959
 30
0.0
 11
4068.9999999999841
 21
-1344.9999999999959
 31
0.0
1001
ACDBBLOCKREPETAG
1070
     1
1071
       39
1005
1231FC
  0
LINE
  5
1231FD
  8
OBJECT
 10
4073.0
 20
-1396.9999999999959
 30
0.0
 11
4073.0
 21
-1399.9999999999959
 31
0.0
1001
ACDBBLOCKREPETAG
1070
     1
1071
       40
1005
1231FD
  0
LINE
  5
1231FE
  8
OBJECT
 10
4073.0
 20
-1399.9999999999959
 30
0.0
 11
4083.0
 21
-1399.9999999999959
 31
0.0
1001
ACDBBLOCKREPETAG
1070
     1
1071
       41
1005
1231FE
  0
LINE
  5
1231FF
  8
OBJECT
 10
4083.0
 20
-1399.9999999999959
 30
0.0
 11
4083.0
 21
-1396.9999999999959
 31
0.0
1001
ACDBBLOCKREPETAG
1070
     1
1071
       43
1005
1231FF
  0
LINE
  5
123200
  8
OBJECT
 10
3968.5
 20
-1344.9999999999959
 30
0.0
 11
3951.9999999999932
 21
-1344.9999999999959
 31
0.0
1001
ACDBBLOCKREPETAG
1070
     1
1071
       48
1005
123200
  0
LINE
  5
123201
  8
OBJECT
 10
3976.0
 20
-1349.9999999999959
 30
0.0
 11
3976.0
 21
-1347.9999999999959
 31
0.0
1001
ACDBBLOCKREPETAG
1070
     1
1071
       49
1005
123201
  0
LINE
  5
123202
  8
OBJECT
 10
3966.0
 20
-1374.9999999999959
 30
0.0
 11
3966.0
 21
-1364.9999999999959
 31
0.0
1001
ACDBBLOCKREPETAG
1070
     1
1071
       50
1005
123202
  0
LINE
  5
123203
  8
OBJECT
 10
3956.0
 20
-1374.9999999999959
 30
0.0
 11
3956.0
 21
-1364.9999999999959
 31
0.0
1001
ACDBBLOCKREPETAG
1070
     1
1071
       51
1005
123203
  0
LINE
  5
123204
  8
OBJECT
 10
3951.9999999999932
 20
-1344.9999999999959
 30
0.0
 11
3951.9999999999932
 21
-1349.9999999999959
 31
0.0
1001
ACDBBLOCKREPETAG
1070
     1
1071
       52
1005
123204
  0
LINE
  5
123205
  8
OBJECT
 10
3956.0
 20
-1396.9999999999959
 30
0.0
 11
3956.0
 21
-1399.9999999999959
 31
0.0
1001
ACDBBLOCKREPETAG
1070
     1
1071
       53
1005
123205
  0
LINE
  5
123206
  8
OBJECT
 10
3956.0
 20
-1399.9999999999959
 30
0.0
 11
3966.0
 21
-1399.9999999999959
 31
0.0
1001
ACDBBLOCKREPETAG
1070
     1
1071
       54
1005
123206
  0
LINE
  5
123207
  8
OBJECT
 10
3951.185045423772
 20
-1396.9999999999959
 30
0.0
 11
3970.8149545762212
 21
-1396.9999999999959
 31
0.0
1001
ACDBBLOCKREPETAG
1070
     1
1071
       55
1005
123207
  0
LINE
  5
123208
  8
OBJECT
 10
3966.0
 20
-1399.9999999999959
 30
0.0
 11
3966.0
 21
-1396.9999999999959
 31
0.0
1001
ACDBBLOCKREPETAG
1070
     1
1071
       56
1005
123208
  0
LINE
  5
123209
  8
OBJECT
 10
3976.0
 20
-1347.9999999999959
 30
0.0
 11
3968.5
 21
-1344.9999999999959
 31
0.0
1001
ACDBBLOCKREPETAG
1070
     1
1071
       57
1005
123209
  0
LINE
  5
12320A
  8
OBJECT
 10
3951.185045423777
 20
-1388.9999999999959
 30
0.0
 11
3951.185045423777
 21
-1396.9999999999959
 31
0.0
1001
ACDBBLOCKREPETAG
1070
     1
1071
      630
1005
12320A
  0
LINE
  5
12320B
  8
OBJECT
 10
3956.0925227118901
 20
-1388.9999999999959
 30
0.0
 11
3956.0925227118901
 21
-1396.9999999999959
 31
0.0
1001
ACDBBLOCKREPETAG
1070
     1
1071
      631
1005
12320B
  0
LINE
  5
12320C
  8
OBJECT
 10
3965.9074772881122
 20
-1388.9999999999959
 30
0.0
 11
3965.9074772881122
 21
-1396.9999999999959
 31
0.0
1001
ACDBBLOCKREPETAG
1070
     1
1071
      632
1005
12320C
  0
LINE
  5
12320D
  8
OBJECT
 10
3970.814954576223
 20
-1388.9999999999959
 30
0.0
 11
3970.814954576223
 21
-1396.9999999999959
 31
0.0
1001
ACDBBLOCKREPETAG
1070
     1
1071
      633
1005
12320D
  0
LINE
  5
12320E
  8
OBJECT
 10
4068.185045423772
 20
-1396.9999999999959
 30
0.0
 11
4087.8149545762199
 21
-1396.9999999999959
 31
0.0
1001
ACDBBLOCKREPETAG
1070
     1
1071
      634
1005
12320E
  0
LINE
  5
12320F
  8
OBJECT
 10
4068.185045423777
 20
-1388.9999999999959
 30
0.0
 11
4068.185045423777
 21
-1396.9999999999959
 31
0.0
1001
ACDBBLOCKREPETAG
1070
     1
1071
      635
1005
12320F
  0
LINE
  5
123210
  8
OBJECT
 10
4073.0925227118869
 20
-1388.9999999999959
 30
0.0
 11
4073.0925227118869
 21
-1396.9999999999959
 31
0.0
1001
ACDBBLOCKREPETAG
1070
     1
1071
      636
1005
123210
  0
LINE
  5
123211
  8
OBJECT
 10
4082.9074772881122
 20
-1388.9999999999959
 30
0.0
 11
4082.9074772881122
 21
-1396.9999999999959
 31
0.0
1001
ACDBBLOCKREPETAG
1070
     1
1071
      637
1005
123211
  0
LINE
  5
123212
  8
OBJECT
 10
4087.814954576223
 20
-1388.9999999999959
 30
0.0
 11
4087.814954576223
 21
-1396.9999999999959
 31
0.0
1001
ACDBBLOCKREPETAG
1070
     1
1071
      638
1005
123212
  0
LINE
  5
123213
  8
OBJECT
 10
7925.0
 20
-770.0
 30
0.0
 11
7925.0
 21
-1043.0
 31
0.0
1001
ACDBBLOCKREPETAG
1070
     1
1071
        1
1005
123213
  0
LINE
  5
123214
  8
OBJECT
 10
8075.0
 20
-769.9999999999942
 30
0.0
 11
8075.0
 21
-1043.0
 31
0.0
1001
ACDBBLOCKREPETAG
1070
     1
1071
        3
1005
123214
  0
LINE
  5
123215
  8
CENTER
 10
8000.0
 20
-770.0
 30
0.0
 11
8000.0
 21
-1055.0
 31
0.0
1001
ACDBBLOCKREPETAG
1070
     1
1071
        6
1005
123215
  0
LINE
  5
123216
  8
OBJECT
 10
7920.0
 20
-1055.0
 30
0.0
 11
8080.0
 21
-1055.0
 31
0.0
1001
ACDBBLOCKREPETAG
1070
     1
1071
        7
1005
123216
  0
LINE
  5
123217
  8
OBJECT
 10
7920.0
 20
-1043.0
 30
0.0
 11
8080.0
 21
-1043.0
 31
0.0
1001
ACDBBLOCKREPETAG
1070
     1
1071
        8
1005
123217
  0
LINE
  5
123218
  8
OBJECT
 10
7920.0
 20
-1043.0
 30
0.0
 11
7920.0
 21
-1055.0
 31
0.0
1001
ACDBBLOCKREPETAG
1070
     1
1071
        9
1005
123218
  0
LINE
  5
123219
  8
OBJECT
 10
8080.0
 20
-1043.0
 30
0.0
 11
8080.0
 21
-1055.0
 31
0.0
1001
ACDBBLOCKREPETAG
1070
     1
1071
       10
1005
123219
  0
LINE
  5
12321A
  8
OBJECT
 10
9925.0
 20
-770.0
 30
0.0
 11
9925.0
 21
-1043.0
 31
0.0
1001
ACDBBLOCKREPETAG
1070
     1
1071
        1
1005
12321A
  0
LINE
  5
12321B
  8
OBJECT
 10
10075.0
 20
-769.9999999999942
 30
0.0
 11
10075.0
 21
-1043.0
 31
0.0
1001
ACDBBLOCKREPETAG
1070
     1
1071
        3
1005
12321B
  0
LINE
  5
12321C
  8
CENTER
 10
10000.0
 20
-770.0
 30
0.0
 11
10000.0
 21
-1055.0
 31
0.0
1001
ACDBBLOCKREPETAG
1070
     1
1071
        6
1005
12321C
  0
LINE
  5
12321D
  8
OBJECT
 10
9920.0
 20
-1055.0
 30
0.0
 11
10080.0
 21
-1055.0
 31
0.0
1001
ACDBBLOCKREPETAG
1070
     1
1071
        7
1005
12321D
  0
LINE
  5
12321E
  8
OBJECT
 10
9920.0
 20
-1043.0
 30
0.0
 11
10080.0
 21
-1043.0
 31
0.0
1001
ACDBBLOCKREPETAG
1070
     1
1071
        8
1005
12321E
  0
LINE
  5
12321F
  8
OBJECT
 10
9920.0
 20
-1043.0
 30
0.0
 11
9920.0
 21
-1055.0
 31
0.0
1001
ACDBBLOCKREPETAG
1070
     1
1071
        9
1005
12321F
  0
LINE
  5
123220
  8
OBJECT
 10
10080.0
 20
-1043.0
 30
0.0
 11
10080.0
 21
-1055.0
 31
0.0
1001
ACDBBLOCKREPETAG
1070
     1
1071
       10
1005
123220
  0
LINE
  5
123221
  8
OBJECT
 10
11925.0
 20
-770.0
 30
0.0
 11
11925.0
 21
-1043.0
 31
0.0
1001
ACDBBLOCKREPETAG
1070
     1
1071
        1
1005
123221
  0
LINE
  5
123222
  8
OBJECT
 10
12075.0
 20
-769.9999999999942
 30
0.0
 11
12075.0
 21
-1043.0
 31
0.0
1001
ACDBBLOCKREPETAG
1070
     1
1071
        3
1005
123222
  0
LINE
  5
123223
  8
CENTER
 10
12000.0
 20
-770.0
 30
0.0
 11
12000.0
 21
-1055.0
 31
0.0
1001
ACDBBLOCKREPETAG
1070
     1
1071
        6
1005
123223
  0
LINE
  5
123224
  8
OBJECT
 10
11920.0
 20
-1055.0
 30
0.0
 11
12080.0
 21
-1055.0
 31
0.0
1001
ACDBBLOCKREPETAG
1070
     1
1071
        7
1005
123224
  0
LINE
  5
123225
  8
OBJECT
 10
11920.0
 20
-1043.0
 30
0.0
 11
12080.0
 21
-1043.0
 31
0.0
1001
ACDBBLOCKREPETAG
1070
     1
1071
        8
1005
123225
  0
LINE
  5
123226
  8
OBJECT
 10
11920.0
 20
-1043.0
 30
0.0
 11
11920.0
 21
-1055.0
 31
0.0
1001
ACDBBLOCKREPETAG
1070
     1
1071
        9
1005
123226
  0
LINE
  5
123227
  8
OBJECT
 10
12080.0
 20
-1043.0
 30
0.0
 11
12080.0
 21
-1055.0
 31
0.0
1001
ACDBBLOCKREPETAG
1070
     1
1071
       10
1005
123227
  0
LINE
  5
123228
  8
CENTER
 10
11909.0
 20
-1638.9999999999959
 30
0.0
 11
12105.0
 21
-1638.9999999999959
 31
0.0
1001
ACDBBLOCKREPETAG
1070
     1
1071
       10
1005
123228
  0
LINE
  5
123229
  8
CENTER
 10
12000.0
 20
-1547.7253355707801
 30
0.0
 11
12000.0
 21
-1730.2746644292131
 31
0.0
1001
ACDBBLOCKREPETAG
1070
     1
1071
       11
1005
123229
  0
CIRCLE
  5
12322A
  8
OBJECT
 10
12000.0
 20
-1638.9999999999959
 30
0.0
 40
50.0
1001
ACDBBLOCKREPETAG
1070
     1
1071
       12
1005
12322A
  0
CIRCLE
  5
12322B
  8
OBJECT
 10
12000.0
 20
-1638.9999999999959
 30
0.0
 40
60.0
1001
ACDBBLOCKREPETAG
1070
     1
1071
       13
1005
12322B
  0
CIRCLE
  5
12322C
  8
OBJECT
 10
12000.0
 20
-1638.9999999999959
 30
0.0
 40
68.0
1001
ACDBBLOCKREPETAG
1070
     1
1071
       14
1005
12322C
  0
ARC
  5
12322D
  8
OBJECT
 10
12077.5
 20
-1638.9999999999959
 30
0.0
 40
12.0
 50
272.10542627221611
 51
87.894573727783893
1001
ACDBBLOCKREPETAG
1070
     1
1071
       15
1005
12322D
  0
ARC
  5
12322E
  8
OBJECT
 10
12078.49193548386
 20
-1612.0182271895239
 30
0.0
 40
15.0
 50
198.97051877965251
 51
267.89457372778372
1001
ACDBBLOCKREPETAG
1070
     1
1071
       16
1005
12322E
  0
ARC
  5
12322F
  8
OBJECT
 10
12078.49193548386
 20
-1665.981772810464
 30
0.0
 40
15.0
 50
92.105426272216135
 51
161.02948122034729
1001
ACDBBLOCKREPETAG
1070
     1
1071
       17
1005
12322F
  0
CIRCLE
  5
123230
  8
SLIM
 10
12078.0
 20
-1638.9999999999959
 30
0.0
 40
8.0
1001
ACDBBLOCKREPETAG
1070
     1
1071
       18
1005
123230
  0
POLYLINE
  5
123231
  8
SLIM
 66
     1
 10
0.0
 20
0.0
 30
0.0
 70
     1
1001
ACDBBLOCKREPETAG
1070
     1
1071
       19
1005
123231
  0
VERTEX
  5
12342D
  8
SLIM
 10
12075.69059892322
 20
-1634.9999999999959
 30
0.0
  0
VERTEX
  5
12342E
  8
SLIM
 10
12073.38119784648
 20
-1638.9999999999959
 30
0.0
  0
VERTEX
  5
12342F
  8
SLIM
 10
12075.69059892322
 20
-1642.9999999999959
 30
0.0
  0
VERTEX
  5
123430
  8
SLIM
 10
12080.309401076751
 20
-1642.9999999999959
 30
0.0
  0
VERTEX
  5
123431
  8
SLIM
 10
12082.618802153511
 20
-1638.9999999999959
 30
0.0
  0
VERTEX
  5
123432
  8
SLIM
 10
12080.309401076751
 20
-1634.9999999999959
 30
0.0
  0
SEQEND
  5
123433
  8
SLIM
  0
ARC
  5
123232
  8
OBJECT
 10
11961.25
 20
-1571.8830312067
 30
0.0
 40
12.0
 50
32.105426272130188
 51
207.89457372768319
1001
ACDBBLOCKREPETAG
1070
     1
1071
       20
1005
123232
  0
ARC
  5
123233
  8
OBJECT
 10
11937.38713156505
 20
-1584.514876283989
 30
0.0
 40
15.0
 50
318.97051877944762
 51
27.89457372768311
1001
ACDBBLOCKREPETAG
1070
     1
1071
       21
1005
123233
  0
ARC
  5
123234
  8
OBJECT
 10
11984.120932951069
 20
-1557.533103473517
 30
0.0
 40
15.0
 50
212.10542627213019
 51
281.02948122044069
1001
ACDBBLOCKREPETAG
1070
     1
1071
       22
1005
123234
  0
CIRCLE
  5
123235
  8
SLIM
 10
11961.0
 20
-1571.450018504808
 30
0.0
 40
7.9999999999999982
1001
ACDBBLOCKREPETAG
1070
     1
1071
       23
1005
123235
  0
POLYLINE
  5
123236
  8
SLIM
 66
     1
 10
0.0
 20
0.0
 30
0.0
 70
     1
1001
ACDBBLOCKREPETAG
1070
     1
1071
       24
1005
123236
  0
VERTEX
  5
123434
  8
SLIM
 10
11958.69059892324
 20
-1575.4500185048089
 30
0.0
  0
VERTEX
  5
123435
  8
SLIM
 10
11963.309401076751
 20
-1575.4500185048089
 30
0.0
  0
VERTEX
  5
123436
  8
SLIM
 10
11965.618802153511
 20
-1571.450018504808
 30
0.0
  0
VERTEX
  5
123437
  8
SLIM
 10
11963.309401076751
 20
-1567.4500185048089
 30
0.0
  0
VERTEX
  5
123438
  8
SLIM
 10
11958.69059892324
 20
-1567.4500185048089
 30
0.0
  0
VERTEX
  5
123439
  8
SLIM
 10
11956.38119784648
 20
-1571.450018504808
 30
0.0
  0
SEQEND
  5
12343A
  8
SLIM
  0
ARC
  5
123237
  8
OBJECT
 10
11961.25
 20
-1706.1169687932891
 30
0.0
 40
12.0
 50
152.10542627231681
 51
327.89457372786978
1001
ACDBBLOCKREPETAG
1070
     1
1071
       25
1005
123237
  0
ARC
  5
123238
  8
OBJECT
 10
11984.120932951069
 20
-1720.4668965264721
 30
0.0
 40
15.0
 50
78.970518779559228
 51
147.89457372786981
1001
ACDBBLOCKREPETAG
1070
     1
1071
       26
1005
123238
  0
ARC
  5
123239
  8
OBJECT
 10
11937.38713156505
 20
-1693.485123716004
 30
0.0
 40
15.0
 50
332.10542627231678
 51
41.029481220552412
1001
ACDBBLOCKREPETAG
1070
     1
1071
       27
1005
123239
  0
CIRCLE
  5
12323A
  8
SLIM
 10
11961.0
 20
-1706.549981495182
 30
0.0
 40
8.0
1001
ACDBBLOCKREPETAG
1070
     1
1071
       28
1005
12323A
  0
POLYLINE
  5
12323B
  8
SLIM
 66
     1
 10
0.0
 20
0.0
 30
0.0
 70
     1
1001
ACDBBLOCKREPETAG
1070
     1
1071
       29
1005
12323B
  0
VERTEX
  5
12343B
  8
SLIM
 10
11965.618802153511
 20
-1706.54998149518
 30
0.0
  0
VERTEX
  5
12343C
  8
SLIM
 10
11963.309401076751
 20
-1702.5499814951829
 30
0.0
  0
VERTEX
  5
12343D
  8
SLIM
 10
11958.69059892324
 20
-1702.54998149518
 30
0.0
  0
VERTEX
  5
12343E
  8
SLIM
 10
11956.38119784648
 20
-1706.549981495182
 30
0.0
  0
VERTEX
  5
12343F
  8
SLIM
 10
11958.69059892322
 20
-1710.54998149518
 30
0.0
  0
VERTEX
  5
123440
  8
SLIM
 10
11963.309401076751
 20
-1710.5499814951841
 30
0.0
  0
SEQEND
  5
123441
  8
SLIM
  0
ARC
  5
12323C
  8
OBJECT
 10
12000.0
 20
-1638.9999999999959
 30
0.0
 40
76.0
 50
34.863837954171863
 51
85.136162045732945
1001
ACDBBLOCKREPETAG
1070
     1
1071
       42
1005
12323C
  0
ARC
  5
12323D
  8
OBJECT
 10
12000.0
 20
-1638.9999999999959
 30
0.0
 40
76.0
 50
154.86383795430939
 51
205.1361620456905
1001
ACDBBLOCKREPETAG
1070
     1
1071
       43
1005
12323D
  0
ARC
  5
12323E
  8
OBJECT
 10
12000.0
 20
-1638.9999999999959
 30
0.0
 40
76.0
 50
274.86383795426718
 51
325.13616204582797
1001
ACDBBLOCKREPETAG
1070
     1
1071
       44
1005
12323E
  0
ARC
  5
12323F
  8
OBJECT
 10
12078.0
 20
-1638.9999999999959
 30
0.0
 40
12.0
 50
325.13616204582797
 51
34.863837954171863
1001
ACDBBLOCKREPETAG
1070
     1
1071
       45
1005
12323F
  0
LINE
  5
123240
  8
OBJECT
 10
12087.84615384616
 20
-1632.140462520134
 30
0.0
 11
12062.358974359049
 21
-1595.556262627535
 31
0.0
1001
ACDBBLOCKREPETAG
1070
     1
1071
       46
1005
123240
  0
LINE
  5
123241
  8
OBJECT
 10
12087.846153846171
 20
-1645.859537479857
 30
0.0
 11
12062.358974359049
 21
-1682.4437373724591
 31
0.0
1001
ACDBBLOCKREPETAG
1070
     1
1071
       47
1005
123241
  0
ARC
  5
123242
  8
OBJECT
 10
11961.0
 20
-1571.4500185048109
 30
0.0
 40
12.0
 50
85.136162045942811
 51
154.86383795410001
1001
ACDBBLOCKREPETAG
1070
     1
1071
       48
1005
123242
  0
LINE
  5
123243
  8
OBJECT
 10
11950.13638936114
 20
-1566.3527678843909
 30
0.0
 11
11931.19713262058
 21
-1606.7174127373471
 31
0.0
1001
ACDBBLOCKREPETAG
1070
     1
1071
       49
1005
123243
  0
LINE
  5
123244
  8
OBJECT
 10
11962.017456792681
 20
-1559.4932304045269
 30
0.0
 11
12006.443893020371
 21
-1563.273675364886
 31
0.0
1001
ACDBBLOCKREPETAG
1070
     1
1071
       50
1005
123244
  0
ARC
  5
123245
  8
OBJECT
 10
11961.0
 20
-1706.549981495182
 30
0.0
 40
12.0
 50
205.13616204589991
 51
274.8638379540572
1001
ACDBBLOCKREPETAG
1070
     1
1071
       51
1005
123245
  0
LINE
  5
123246
  8
OBJECT
 10
11962.01745679269
 20
-1718.506769595464
 30
0.0
 11
12006.44389302036
 21
-1714.726324635106
 31
0.0
1001
ACDBBLOCKREPETAG
1070
     1
1071
       52
1005
123246
  0
LINE
  5
123247
  8
OBJECT
 10
11950.13638936114
 20
-1711.647232115605
 30
0.0
 11
11931.19713262058
 21
-1671.2825872626429
 31
0.0
1001
ACDBBLOCKREPETAG
1070
     1
1071
       53
1005
123247
  0
LINE
  5
123248
  8
CENTER
 10
9909.0
 20
-1638.9999999999959
 30
0.0
 11
10105.0
 21
-1638.9999999999959
 31
0.0
1001
ACDBBLOCKREPETAG
1070
     1
1071
        0
1005
123248
  0
LINE
  5
123249
  8
CENTER
 10
10000.0
 20
-1547.7253355707801
 30
0.0
 11
10000.0
 21
-1730.2746644292131
 31
0.0
1001
ACDBBLOCKREPETAG
1070
     1
1071
        1
1005
123249
  0
CIRCLE
  5
12324A
  8
OBJECT
 10
10000.0
 20
-1638.9999999999959
 30
0.0
 40
50.0
1001
ACDBBLOCKREPETAG
1070
     1
1071
        2
1005
12324A
  0
CIRCLE
  5
12324B
  8
OBJECT
 10
10000.0
 20
-1638.9999999999959
 30
0.0
 40
62.0
1001
ACDBBLOCKREPETAG
1070
     1
1071
        3
1005
12324B
  0
CIRCLE
  5
12324C
  8
SLIM
 10
10078.0
 20
-1638.9999999999959
 30
0.0
 40
5.0
1001
ACDBBLOCKREPETAG
1070
     1
1071
        4
1005
12324C
  0
POLYLINE
  5
12324D
  8
SLIM
 66
     1
 10
0.0
 20
0.0
 30
0.0
 70
     1
1001
ACDBBLOCKREPETAG
1070
     1
1071
        5
1005
12324D
  0
VERTEX
  5
123442
  8
SLIM
 10
10073.092522711881
 20
-1630.4999999999959
 30
0.0
  0
VERTEX
  5
123443
  8
SLIM
 10
10068.18504542377
 20
-1638.9999999999959
 30
0.0
  0
VERTEX
  5
123444
  8
SLIM
 10
10073.092522711881
 20
-1647.4999999999959
 30
0.0
  0
VERTEX
  5
123445
  8
SLIM
 10
10082.907477288099
 20
-1647.4999999999959
 30
0.0
  0
VERTEX
  5
123446
  8
SLIM
 10
10087.814954576221
 20
-1638.9999999999959
 30
0.0
  0
VERTEX
  5
123447
  8
SLIM
 10
10082.907477288099
 20
-1630.4999999999959
 30
0.0
  0
SEQEND
  5
123448
  8
SLIM
  0
CIRCLE
  5
12324E
  8
SLIM
 10
9961.0
 20
-1571.450018504808
 30
0.0
 40
4.9999999999999991
1001
ACDBBLOCKREPETAG
1070
     1
1071
        6
1005
12324E
  0
POLYLINE
  5
12324F
  8
SLIM
 66
     1
 10
0.0
 20
0.0
 30
0.0
 70
     1
1001
ACDBBLOCKREPETAG
1070
     1
1071
        7
1005
12324F
  0
VERTEX
  5
123449
  8
SLIM
 10
9956.092522711886
 20
-1579.950018504808
 30
0.0
  0
VERTEX
  5
12344A
  8
SLIM
 10
9965.907477288114
 20
-1579.950018504808
 30
0.0
  0
VERTEX
  5
12344B
  8
SLIM
 10
9970.814954576219
 20
-1571.450018504808
 30
0.0
  0
VERTEX
  5
12344C
  8
SLIM
 10
9965.907477288114
 20
-1562.9500185048089
 30
0.0
  0
VERTEX
  5
12344D
  8
SLIM
 10
9956.092522711886
 20
-1562.9500185048089
 30
0.0
  0
VERTEX
  5
12344E
  8
SLIM
 10
9951.185045423772
 20
-1571.450018504808
 30
0.0
  0
SEQEND
  5
12344F
  8
SLIM
  0
CIRCLE
  5
123250
  8
SLIM
 10
9961.0
 20
-1706.549981495182
 30
0.0
 40
5.0
1001
ACDBBLOCKREPETAG
1070
     1
1071
        8
1005
123250
  0
POLYLINE
  5
123251
  8
SLIM
 66
     1
 10
0.0
 20
0.0
 30
0.0
 70
     1
1001
ACDBBLOCKREPETAG
1070
     1
1071
        9
1005
123251
  0
VERTEX
  5
123450
  8
SLIM
 10
9970.814954576219
 20
-1706.549981495182
 30
0.0
  0
VERTEX
  5
123451
  8
SLIM
 10
9965.9074772881049
 20
-1698.04998149518
 30
0.0
  0
VERTEX
  5
123452
  8
SLIM
 10
9956.092522711886
 20
-1698.0499814951841
 30
0.0
  0
VERTEX
  5
123453
  8
SLIM
 10
9951.185045423772
 20
-1706.54998149518
 30
0.0
  0
VERTEX
  5
123454
  8
SLIM
 10
9956.092522711886
 20
-1715.0499814951829
 30
0.0
  0
VERTEX
  5
123455
  8
SLIM
 10
9965.907477288114
 20
-1715.04998149518
 30
0.0
  0
SEQEND
  5
123456
  8
SLIM
  0
ARC
  5
123252
  8
OBJECT
 10
10000.0
 20
-1638.9999999999959
 30
0.0
 40
76.0
 50
34.863837954171863
 51
85.136162045732945
1001
ACDBBLOCKREPETAG
1070
     1
1071
       30
1005
123252
  0
ARC
  5
123253
  8
OBJECT
 10
10000.0
 20
-1638.9999999999959
 30
0.0
 40
76.0
 50
154.86383795430939
 51
205.1361620456905
1001
ACDBBLOCKREPETAG
1070
     1
1071
       31
1005
123253
  0
ARC
  5
123254
  8
OBJECT
 10
10000.0
 20
-1638.9999999999959
 30
0.0
 40
76.0
 50
274.86383795426718
 51
325.13616204582797
1001
ACDBBLOCKREPETAG
1070
     1
1071
       32
1005
123254
  0
ARC
  5
123255
  8
OBJECT
 10
10078.0
 20
-1638.9999999999959
 30
0.0
 40
12.0
 50
325.13616204582797
 51
34.863837954171863
1001
ACDBBLOCKREPETAG
1070
     1
1071
       33
1005
123255
  0
LINE
  5
123256
  8
OBJECT
 10
10087.84615384616
 20
-1632.140462520134
 30
0.0
 11
10062.35897435904
 21
-1595.556262627535
 31
0.0
1001
ACDBBLOCKREPETAG
1070
     1
1071
       34
1005
123256
  0
LINE
  5
123257
  8
OBJECT
 10
10087.846153846171
 20
-1645.859537479857
 30
0.0
 11
10062.35897435904
 21
-1682.4437373724591
 31
0.0
1001
ACDBBLOCKREPETAG
1070
     1
1071
       35
1005
123257
  0
ARC
  5
123258
  8
OBJECT
 10
9961.0
 20
-1571.4500185048109
 30
0.0
 40
12.0
 50
85.136162045942811
 51
154.86383795410001
1001
ACDBBLOCKREPETAG
1070
     1
1071
       36
1005
123258
  0
LINE
  5
123259
  8
OBJECT
 10
9950.1363893611433
 20
-1566.3527678843909
 30
0.0
 11
9931.1971326205894
 21
-1606.7174127373471
 31
0.0
1001
ACDBBLOCKREPETAG
1070
     1
1071
       37
1005
123259
  0
LINE
  5
12325A
  8
OBJECT
 10
9962.0174567926842
 20
-1559.4932304045269
 30
0.0
 11
10006.443893020371
 21
-1563.273675364886
 31
0.0
1001
ACDBBLOCKREPETAG
1070
     1
1071
       38
1005
12325A
  0
ARC
  5
12325B
  8
OBJECT
 10
9961.0
 20
-1706.549981495182
 30
0.0
 40
12.0
 50
205.13616204589991
 51
274.8638379540572
1001
ACDBBLOCKREPETAG
1070
     1
1071
       39
1005
12325B
  0
LINE
  5
12325C
  8
OBJECT
 10
9962.0174567926897
 20
-1718.506769595464
 30
0.0
 11
10006.44389302036
 21
-1714.726324635106
 31
0.0
1001
ACDBBLOCKREPETAG
1070
     1
1071
       40
1005
12325C
  0
LINE
  5
12325D
  8
OBJECT
 10
9950.1363893611433
 20
-1711.647232115605
 30
0.0
 11
9931.1971326205821
 21
-1671.2825872626429
 31
0.0
1001
ACDBBLOCKREPETAG
1070
     1
1071
       41
1005
12325D
  0
LINE
  5
12325E
  8
CENTER
 10
5909.0
 20
-1679.9999999999991
 30
0.0
 11
6105.0
 21
-1679.9999999999991
 31
0.0
1001
ACDBBLOCKREPETAG
1070
     1
1071
       10
1005
12325E
  0
LINE
  5
12325F
  8
CENTER
 10
6000.0
 20
-1588.725335570783
 30
0.0
 11
6000.0
 21
-1771.274664429216
 31
0.0
1001
ACDBBLOCKREPETAG
1070
     1
1071
       11
1005
12325F
  0
CIRCLE
  5
123260
  8
OBJECT
 10
6000.0
 20
-1679.9999999999991
 30
0.0
 40
50.0
1001
ACDBBLOCKREPETAG
1070
     1
1071
       12
1005
123260
  0
CIRCLE
  5
123261
  8
OBJECT
 10
6000.0
 20
-1679.9999999999991
 30
0.0
 40
60.0
1001
ACDBBLOCKREPETAG
1070
     1
1071
       13
1005
123261
  0
CIRCLE
  5
123262
  8
OBJECT
 10
6000.0
 20
-1679.9999999999991
 30
0.0
 40
68.0
1001
ACDBBLOCKREPETAG
1070
     1
1071
       14
1005
123262
  0
ARC
  5
123263
  8
OBJECT
 10
6077.5
 20
-1679.9999999999991
 30
0.0
 40
12.0
 50
272.10542627221611
 51
87.894573727783893
1001
ACDBBLOCKREPETAG
1070
     1
1071
       15
1005
123263
  0
ARC
  5
123264
  8
OBJECT
 10
6078.4919354838639
 20
-1653.018227189528
 30
0.0
 40
15.0
 50
198.9705187796356
 51
267.89457372778372
1001
ACDBBLOCKREPETAG
1070
     1
1071
       16
1005
123264
  0
ARC
  5
123265
  8
OBJECT
 10
6078.4919354838639
 20
-1706.9817728104681
 30
0.0
 40
15.0
 50
92.105426272216135
 51
161.02948122036429
1001
ACDBBLOCKREPETAG
1070
     1
1071
       17
1005
123265
  0
CIRCLE
  5
123266
  8
SLIM
 10
6078.0
 20
-1679.9999999999991
 30
0.0
 40
8.0
1001
ACDBBLOCKREPETAG
1070
     1
1071
       18
1005
123266
  0
POLYLINE
  5
123267
  8
SLIM
 66
     1
 10
0.0
 20
0.0
 30
0.0
 70
     1
1001
ACDBBLOCKREPETAG
1070
     1
1071
       19
1005
123267
  0
VERTEX
  5
123457
  8
SLIM
 10
6075.6905989232328
 20
-1675.9999999999991
 30
0.0
  0
VERTEX
  5
123458
  8
SLIM
 10
6073.3811978464801
 20
-1679.9999999999991
 30
0.0
  0
VERTEX
  5
123459
  8
SLIM
 10
6075.6905989232328
 20
-1683.9999999999991
 30
0.0
  0
VERTEX
  5
12345A
  8
SLIM
 10
6080.3094010767527
 20
-1683.9999999999991
 30
0.0
  0
VERTEX
  5
12345B
  8
SLIM
 10
6082.6188021535136
 20
-1679.9999999999991
 30
0.0
  0
VERTEX
  5
12345C
  8
SLIM
 10
6080.3094010767527
 20
-1675.9999999999991
 30
0.0
  0
SEQEND
  5
12345D
  8
SLIM
  0
ARC
  5
123268
  8
OBJECT
 10
5961.25
 20
-1612.883031206703
 30
0.0
 40
12.0
 50
32.105426272157878
 51
207.89457372770741
1001
ACDBBLOCKREPETAG
1070
     1
1071
       20
1005
123268
  0
ARC
  5
123269
  8
OBJECT
 10
5937.387131565054
 20
-1625.514876283992
 30
0.0
 40
15.0
 50
318.97051877944762
 51
27.894573727707481
1001
ACDBBLOCKREPETAG
1070
     1
1071
       21
1005
123269
  0
ARC
  5
12326A
  8
OBJECT
 10
5984.1209329510702
 20
-1598.53310347352
 30
0.0
 40
15.0
 50
212.1054262721579
 51
281.02948122044069
1001
ACDBBLOCKREPETAG
1070
     1
1071
       22
1005
12326A
  0
CIRCLE
  5
12326B
  8
SLIM
 10
5961.0
 20
-1612.4500185048121
 30
0.0
 40
7.9999999999999982
1001
ACDBBLOCKREPETAG
1070
     1
1071
       23
1005
12326B
  0
POLYLINE
  5
12326C
  8
SLIM
 66
     1
 10
0.0
 20
0.0
 30
0.0
 70
     1
1001
ACDBBLOCKREPETAG
1070
     1
1071
       24
1005
12326C
  0
VERTEX
  5
12345E
  8
SLIM
 10
5958.69059892324
 20
-1616.4500185048121
 30
0.0
  0
VERTEX
  5
12345F
  8
SLIM
 10
5963.3094010767518
 20
-1616.4500185048121
 30
0.0
  0
VERTEX
  5
123460
  8
SLIM
 10
5965.6188021535136
 20
-1612.4500185048121
 30
0.0
  0
VERTEX
  5
123461
  8
SLIM
 10
5963.3094010767518
 20
-1608.4500185048121
 30
0.0
  0
VERTEX
  5
123462
  8
SLIM
 10
5958.69059892324
 20
-1608.4500185048121
 30
0.0
  0
VERTEX
  5
123463
  8
SLIM
 10
5956.3811978464792
 20
-1612.4500185048121
 30
0.0
  0
SEQEND
  5
123464
  8
SLIM
  0
ARC
  5
12326D
  8
OBJECT
 10
5961.25
 20
-1747.116968793292
 30
0.0
 40
12.0
 50
152.1054262722925
 51
327.89457372784221
1001
ACDBBLOCKREPETAG
1070
     1
1071
       25
1005
12326D
  0
ARC
  5
12326E
  8
OBJECT
 10
5984.1209329510702
 20
-1761.466896526475
 30
0.0
 40
15.0
 50
78.970518779559228
 51
147.8945737278421
1001
ACDBBLOCKREPETAG
1070
     1
1071
       26
1005
12326E
  0
ARC
  5
12326F
  8
OBJECT
 10
5937.387131565054
 20
-1734.4851237160069
 30
0.0
 40
15.0
 50
332.1054262722925
 51
41.029481220552412
1001
ACDBBLOCKREPETAG
1070
     1
1071
       27
1005
12326F
  0
CIRCLE
  5
123270
  8
SLIM
 10
5961.0
 20
-1747.5499814951861
 30
0.0
 40
8.0
1001
ACDBBLOCKREPETAG
1070
     1
1071
       28
1005
123270
  0
POLYLINE
  5
123271
  8
SLIM
 66
     1
 10
0.0
 20
0.0
 30
0.0
 70
     1
1001
ACDBBLOCKREPETAG
1070
     1
1071
       29
1005
123271
  0
VERTEX
  5
123465
  8
SLIM
 10
5965.6188021535136
 20
-1747.5499814951829
 30
0.0
  0
VERTEX
  5
123466
  8
SLIM
 10
5963.3094010767518
 20
-1743.549981495187
 30
0.0
  0
VERTEX
  5
123467
  8
SLIM
 10
5958.69059892324
 20
-1743.5499814951829
 30
0.0
  0
VERTEX
  5
123468
  8
SLIM
 10
5956.3811978464792
 20
-1747.5499814951861
 30
0.0
  0
VERTEX
  5
123469
  8
SLIM
 10
5958.6905989232328
 20
-1751.549981495182
 30
0.0
  0
VERTEX
  5
12346A
  8
SLIM
 10
5963.3094010767518
 20
-1751.549981495187
 30
0.0
  0
SEQEND
  5
12346B
  8
SLIM
  0
ARC
  5
123272
  8
OBJECT
 10
6000.0
 20
-1679.9999999999991
 30
0.0
 40
76.0
 50
34.863837954142063
 51
85.136162045732945
1001
ACDBBLOCKREPETAG
1070
     1
1071
       42
1005
123272
  0
ARC
  5
123273
  8
OBJECT
 10
6000.0
 20
-1679.9999999999991
 30
0.0
 40
76.0
 50
154.86383795430939
 51
205.1361620456905
1001
ACDBBLOCKREPETAG
1070
     1
1071
       43
1005
123273
  0
ARC
  5
123274
  8
OBJECT
 10
6000.0
 20
-1679.9999999999991
 30
0.0
 40
76.0
 50
274.86383795426718
 51
325.13616204585799
1001
ACDBBLOCKREPETAG
1070
     1
1071
       44
1005
123274
  0
ARC
  5
123275
  8
OBJECT
 10
6078.0
 20
-1679.9999999999991
 30
0.0
 40
12.0
 50
325.13616204585799
 51
34.863837954142063
1001
ACDBBLOCKREPETAG
1070
     1
1071
       45
1005
123275
  0
LINE
  5
123276
  8
OBJECT
 10
6087.846153846167
 20
-1673.1404625201369
 30
0.0
 11
6062.3589743590501
 21
-1636.556262627538
 31
0.0
1001
ACDBBLOCKREPETAG
1070
     1
1071
       46
1005
123276
  0
LINE
  5
123277
  8
OBJECT
 10
6087.8461538461697
 20
-1686.8595374798599
 30
0.0
 11
6062.3589743590501
 21
-1723.4437373724629
 31
0.0
1001
ACDBBLOCKREPETAG
1070
     1
1071
       47
1005
123277
  0
ARC
  5
123278
  8
OBJECT
 10
5961.0
 20
-1612.4500185048139
 30
0.0
 40
12.0
 50
85.136162045942811
 51
154.86383795410001
1001
ACDBBLOCKREPETAG
1070
     1
1071
       48
1005
123278
  0
LINE
  5
123279
  8
OBJECT
 10
5950.1363893611451
 20
-1607.3527678843941
 30
0.0
 11
5931.1971326205849
 21
-1647.7174127373501
 31
0.0
1001
ACDBBLOCKREPETAG
1070
     1
1071
       49
1005
123279
  0
LINE
  5
12327A
  8
OBJECT
 10
5962.0174567926842
 20
-1600.4932304045301
 30
0.0
 11
6006.4438930203669
 21
-1604.273675364889
 31
0.0
1001
ACDBBLOCKREPETAG
1070
     1
1071
       50
1005
12327A
  0
ARC
  5
12327B
  8
OBJECT
 10
5961.0
 20
-1747.549981495185
 30
0.0
 40
12.0
 50
205.13616204589991
 51
274.8638379540572
1001
ACDBBLOCKREPETAG
1070
     1
1071
       51
1005
12327B
  0
LINE
  5
12327C
  8
OBJECT
 10
5962.0174567926879
 20
-1759.5067695954669
 30
0.0
 11
6006.4438930203651
 21
-1755.7263246351099
 31
0.0
1001
ACDBBLOCKREPETAG
1070
     1
1071
       52
1005
12327C
  0
LINE
  5
12327D
  8
OBJECT
 10
5950.1363893611451
 20
-1752.6472321156079
 30
0.0
 11
5931.1971326205821
 21
-1712.282587262647
 31
0.0
1001
ACDBBLOCKREPETAG
1070
     1
1071
       53
1005
12327D
  0
LINE
  5
12327E
  8
CENTER
 10
3909.0
 20
-1638.9999999999959
 30
0.0
 11
4105.0
 21
-1638.9999999999959
 31
0.0
1001
ACDBBLOCKREPETAG
1070
     1
1071
        0
1005
12327E
  0
LINE
  5
12327F
  8
CENTER
 10
4000.0
 20
-1547.7253355707801
 30
0.0
 11
4000.0
 21
-1730.2746644292131
 31
0.0
1001
ACDBBLOCKREPETAG
1070
     1
1071
        1
1005
12327F
  0
CIRCLE
  5
123280
  8
OBJECT
 10
4000.0
 20
-1638.9999999999959
 30
0.0
 40
50.0
1001
ACDBBLOCKREPETAG
1070
     1
1071
        2
1005
123280
  0
CIRCLE
  5
123281
  8
OBJECT
 10
4000.0
 20
-1638.9999999999959
 30
0.0
 40
62.0
1001
ACDBBLOCKREPETAG
1070
     1
1071
        3
1005
123281
  0
CIRCLE
  5
123282
  8
SLIM
 10
4078.0
 20
-1638.9999999999959
 30
0.0
 40
5.0
1001
ACDBBLOCKREPETAG
1070
     1
1071
        4
1005
123282
  0
POLYLINE
  5
123283
  8
SLIM
 66
     1
 10
0.0
 20
0.0
 30
0.0
 70
     1
1001
ACDBBLOCKREPETAG
1070
     1
1071
        5
1005
123283
  0
VERTEX
  5
12346C
  8
SLIM
 10
4073.092522711886
 20
-1630.4999999999959
 30
0.0
  0
VERTEX
  5
12346D
  8
SLIM
 10
4068.185045423772
 20
-1638.9999999999959
 30
0.0
  0
VERTEX
  5
12346E
  8
SLIM
 10
4073.092522711886
 20
-1647.4999999999959
 30
0.0
  0
VERTEX
  5
12346F
  8
SLIM
 10
4082.9074772881072
 20
-1647.4999999999959
 30
0.0
  0
VERTEX
  5
123470
  8
SLIM
 10
4087.8149545762199
 20
-1638.9999999999959
 30
0.0
  0
VERTEX
  5
123471
  8
SLIM
 10
4082.9074772881072
 20
-1630.4999999999959
 30
0.0
  0
SEQEND
  5
123472
  8
SLIM
  0
CIRCLE
  5
123284
  8
SLIM
 10
3961.0
 20
-1571.450018504808
 30
0.0
 40
4.9999999999999991
1001
ACDBBLOCKREPETAG
1070
     1
1071
        6
1005
123284
  0
POLYLINE
  5
123285
  8
SLIM
 66
     1
 10
0.0
 20
0.0
 30
0.0
 70
     1
1001
ACDBBLOCKREPETAG
1070
     1
1071
        7
1005
123285
  0
VERTEX
  5
123473
  8
SLIM
 10
3956.092522711886
 20
-1579.950018504808
 30
0.0
  0
VERTEX
  5
123474
  8
SLIM
 10
3965.907477288114
 20
-1579.950018504808
 30
0.0
  0
VERTEX
  5
123475
  8
SLIM
 10
3970.8149545762212
 20
-1571.450018504808
 30
0.0
  0
VERTEX
  5
123476
  8
SLIM
 10
3965.907477288114
 20
-1562.9500185048089
 30
0.0
  0
VERTEX
  5
123477
  8
SLIM
 10
3956.092522711886
 20
-1562.9500185048089
 30
0.0
  0
VERTEX
  5
123478
  8
SLIM
 10
3951.185045423772
 20
-1571.450018504808
 30
0.0
  0
SEQEND
  5
123479
  8
SLIM
  0
CIRCLE
  5
123286
  8
SLIM
 10
3961.0
 20
-1706.549981495182
 30
0.0
 40
5.0
1001
ACDBBLOCKREPETAG
1070
     1
1071
        8
1005
123286
  0
POLYLINE
  5
123287
  8
SLIM
 66
     1
 10
0.0
 20
0.0
 30
0.0
 70
     1
1001
ACDBBLOCKREPETAG
1070
     1
1071
        9
1005
123287
  0
VERTEX
  5
12347A
  8
SLIM
 10
3970.8149545762212
 20
-1706.549981495182
 30
0.0
  0
VERTEX
  5
12347B
  8
SLIM
 10
3965.9074772881072
 20
-1698.04998149518
 30
0.0
  0
VERTEX
  5
12347C
  8
SLIM
 10
3956.092522711886
 20
-1698.0499814951841
 30
0.0
  0
VERTEX
  5
12347D
  8
SLIM
 10
3951.185045423772
 20
-1706.54998149518
 30
0.0
  0
VERTEX
  5
12347E
  8
SLIM
 10
3956.092522711886
 20
-1715.0499814951829
 30
0.0
  0
VERTEX
  5
12347F
  8
SLIM
 10
3965.907477288114
 20
-1715.04998149518
 30
0.0
  0
SEQEND
  5
123480
  8
SLIM
  0
ARC
  5
123288
  8
OBJECT
 10
4000.0
 20
-1638.9999999999959
 30
0.0
 40
76.0
 50
34.863837954142063
 51
85.136162045732945
1001
ACDBBLOCKREPETAG
1070
     1
1071
       30
1005
123288
  0
ARC
  5
123289
  8
OBJECT
 10
4000.0
 20
-1638.9999999999959
 30
0.0
 40
76.0
 50
154.86383795430939
 51
205.1361620456905
1001
ACDBBLOCKREPETAG
1070
     1
1071
       31
1005
123289
  0
ARC
  5
12328A
  8
OBJECT
 10
4000.0
 20
-1638.9999999999959
 30
0.0
 40
76.0
 50
274.86383795426718
 51
325.13616204585799
1001
ACDBBLOCKREPETAG
1070
     1
1071
       32
1005
12328A
  0
ARC
  5
12328B
  8
OBJECT
 10
4078.0
 20
-1638.9999999999959
 30
0.0
 40
12.0
 50
325.13616204585799
 51
34.863837954142063
1001
ACDBBLOCKREPETAG
1070
     1
1071
       33
1005
12328B
  0
LINE
  5
12328C
  8
OBJECT
 10
4087.846153846167
 20
-1632.140462520134
 30
0.0
 11
4062.3589743590492
 21
-1595.556262627535
 31
0.0
1001
ACDBBLOCKREPETAG
1070
     1
1071
       34
1005
12328C
  0
LINE
  5
12328D
  8
OBJECT
 10
4087.8461538461711
 20
-1645.859537479857
 30
0.0
 11
4062.3589743590492
 21
-1682.4437373724591
 31
0.0
1001
ACDBBLOCKREPETAG
1070
     1
1071
       35
1005
12328D
  0
ARC
  5
12328E
  8
OBJECT
 10
3961.0
 20
-1571.4500185048109
 30
0.0
 40
12.0
 50
85.136162045942811
 51
154.86383795411109
1001
ACDBBLOCKREPETAG
1070
     1
1071
       36
1005
12328E
  0
LINE
  5
12328F
  8
OBJECT
 10
3950.136389361146
 20
-1566.3527678843909
 30
0.0
 11
3931.1971326205862
 21
-1606.7174127373471
 31
0.0
1001
ACDBBLOCKREPETAG
1070
     1
1071
       37
1005
12328F
  0
LINE
  5
123290
  8
OBJECT
 10
3962.0174567926852
 20
-1559.4932304045269
 30
0.0
 11
4006.4438930203678
 21
-1563.273675364886
 31
0.0
1001
ACDBBLOCKREPETAG
1070
     1
1071
       38
1005
123290
  0
ARC
  5
123291
  8
OBJECT
 10
3961.0
 20
-1706.549981495182
 30
0.0
 40
12.0
 50
205.13616204588891
 51
274.8638379540572
1001
ACDBBLOCKREPETAG
1070
     1
1071
       39
1005
123291
  0
LINE
  5
123292
  8
OBJECT
 10
3962.0174567926879
 20
-1718.506769595464
 30
0.0
 11
4006.4438930203651
 21
-1714.726324635106
 31
0.0
1001
ACDBBLOCKREPETAG
1070
     1
1071
       40
1005
123292
  0
LINE
  5
123293
  8
OBJECT
 10
3950.136389361146
 20
-1711.647232115605
 30
0.0
 11
3931.1971326205821
 21
-1671.2825872626429
 31
0.0
1001
ACDBBLOCKREPETAG
1070
     1
1071
       41
1005
123293
  0
LINE
  5
123294
  8
OBJECT
 10
1943.0
 20
-1364.9999999999959
 30
0.0
 11
2057.0
 21
-1364.9999999999959
 31
0.0
1001
ACDBBLOCKREPETAG
1070
     1
1071
        0
1005
123294
  0
LINE
  5
123295
  8
OBJECT
 10
1943.0
 20
-1364.9999999999959
 30
0.0
 11
1943.0
 21
-1264.9999999999959
 31
0.0
1001
ACDBBLOCKREPETAG
1070
     1
1071
        1
1005
123295
  0
LINE
  5
123296
  8
OBJECT
 10
2057.0
 20
-1364.9999999999959
 30
0.0
 11
2057.0
 21
-1264.9999999999959
 31
0.0
1001
ACDBBLOCKREPETAG
1070
     1
1071
        2
1005
123296
  0
LINE
  5
123297
  8
OBJECT
 10
1943.0
 20
-1264.9999999999959
 30
0.0
 11
2057.0
 21
-1264.9999999999959
 31
0.0
1001
ACDBBLOCKREPETAG
1070
     1
1071
        3
1005
123297
  0
LINE
  5
123298
  8
HIDDEN
 10
1950.0
 20
-1264.9999999999959
 30
0.0
 11
1950.0
 21
-1364.9999999999959
 31
0.0
1001
ACDBBLOCKREPETAG
1070
     1
1071
        4
1005
123298
  0
LINE
  5
123299
  8
HIDDEN
 10
2050.0
 20
-1264.9999999999959
 30
0.0
 11
2050.0
 21
-1364.9999999999959
 31
0.0
1001
ACDBBLOCKREPETAG
1070
     1
1071
        5
1005
123299
  0
LINE
  5
12329A
  8
CENTER
 10
2000.0
 20
-1055.0
 30
0.0
 11
2000.0
 21
-1379.9999999999959
 31
0.0
1001
ACDBBLOCKREPETAG
1070
     1
1071
        6
1005
12329A
  0
LINE
  5
12329B
  8
OBJECT
 10
1925.0
 20
-1055.0
 30
0.0
 11
1925.0
 21
-1136.9999999999959
 31
0.0
1001
ACDBBLOCKREPETAG
1070
     1
1071
        7
1005
12329B
  0
LINE
  5
12329C
  8
OBJECT
 10
2075.0
 20
-1055.0
 30
0.0
 11
2075.0
 21
-1136.9999999999959
 31
0.0
1001
ACDBBLOCKREPETAG
1070
     1
1071
        8
1005
12329C
  0
LINE
  5
12329D
  8
OBJECT
 10
1925.0
 20
-1136.9999999999959
 30
0.0
 11
2075.0
 21
-1136.9999999999959
 31
0.0
1001
ACDBBLOCKREPETAG
1070
     1
1071
        9
1005
12329D
  0
LINE
  5
12329E
  8
OBJECT
 10
1925.0
 20
-1136.9999999999959
 30
0.0
 11
1943.0
 21
-1264.9999999999959
 31
0.0
1001
ACDBBLOCKREPETAG
1070
     1
1071
       10
1005
12329E
  0
LINE
  5
12329F
  8
OBJECT
 10
2057.0
 20
-1264.9999999999959
 30
0.0
 11
2075.0
 21
-1136.9999999999959
 31
0.0
1001
ACDBBLOCKREPETAG
1070
     1
1071
       11
1005
12329F
  0
TEXT
  5
1232A0
  8
SLIM
 10
3853.75
 20
-1906.4999999999959
 30
0.0
 40
35.0
  1
両受けスタイル（W）
 41
0.75
  0
LINE
  5
1232A1
  8
OBJECT
 10
1925.0
 20
-770.0
 30
0.0
 11
1925.0
 21
-1043.0
 31
0.0
1001
ACDBBLOCKREPETAG
1070
     1
1071
        1
1005
1232A1
  0
LINE
  5
1232A2
  8
OBJECT
 10
2075.0
 20
-769.9999999999942
 30
0.0
 11
2075.0
 21
-1043.0
 31
0.0
1001
ACDBBLOCKREPETAG
1070
     1
1071
        3
1005
1232A2
  0
LINE
  5
1232A3
  8
CENTER
 10
2000.0
 20
-770.0
 30
0.0
 11
2000.0
 21
-1055.0
 31
0.0
1001
ACDBBLOCKREPETAG
1070
     1
1071
        6
1005
1232A3
  0
LINE
  5
1232A4
  8
OBJECT
 10
1920.0
 20
-1055.0
 30
0.0
 11
2080.0
 21
-1055.0
 31
0.0
1001
ACDBBLOCKREPETAG
1070
     1
1071
        7
1005
1232A4
  0
LINE
  5
1232A5
  8
OBJECT
 10
1920.0
 20
-1043.0
 30
0.0
 11
2080.0
 21
-1043.0
 31
0.0
1001
ACDBBLOCKREPETAG
1070
     1
1071
        8
1005
1232A5
  0
LINE
  5
1232A6
  8
OBJECT
 10
1920.0
 20
-1043.0
 30
0.0
 11
1920.0
 21
-1055.0
 31
0.0
1001
ACDBBLOCKREPETAG
1070
     1
1071
        9
1005
1232A6
  0
LINE
  5
1232A7
  8
OBJECT
 10
2080.0
 20
-1043.0
 30
0.0
 11
2080.0
 21
-1055.0
 31
0.0
1001
ACDBBLOCKREPETAG
1070
     1
1071
       10
1005
1232A7
  0
LINE
  5
1232A8
  8
OBJECT
 10
3925.0
 20
-770.0
 30
0.0
 11
3925.0
 21
-1043.0
 31
0.0
1001
ACDBBLOCKREPETAG
1070
     1
1071
        1
1005
1232A8
  0
LINE
  5
1232A9
  8
OBJECT
 10
4075.0
 20
-769.9999999999942
 30
0.0
 11
4075.0
 21
-1043.0
 31
0.0
1001
ACDBBLOCKREPETAG
1070
     1
1071
        3
1005
1232A9
  0
LINE
  5
1232AA
  8
CENTER
 10
4000.0
 20
-770.0
 30
0.0
 11
4000.0
 21
-1055.0
 31
0.0
1001
ACDBBLOCKREPETAG
1070
     1
1071
        6
1005
1232AA
  0
LINE
  5
1232AB
  8
OBJECT
 10
3920.0
 20
-1055.0
 30
0.0
 11
4080.0
 21
-1055.0
 31
0.0
1001
ACDBBLOCKREPETAG
1070
     1
1071
        7
1005
1232AB
  0
LINE
  5
1232AC
  8
OBJECT
 10
3920.0
 20
-1043.0
 30
0.0
 11
4080.0
 21
-1043.0
 31
0.0
1001
ACDBBLOCKREPETAG
1070
     1
1071
        8
1005
1232AC
  0
LINE
  5
1232AD
  8
OBJECT
 10
3920.0
 20
-1043.0
 30
0.0
 11
3920.0
 21
-1055.0
 31
0.0
1001
ACDBBLOCKREPETAG
1070
     1
1071
        9
1005
1232AD
  0
LINE
  5
1232AE
  8
OBJECT
 10
4080.0
 20
-1043.0
 30
0.0
 11
4080.0
 21
-1055.0
 31
0.0
1001
ACDBBLOCKREPETAG
1070
     1
1071
       10
1005
1232AE
  0
LINE
  5
1232AF
  8
OBJECT
 10
5925.0
 20
-770.0
 30
0.0
 11
5925.0
 21
-1043.0
 31
0.0
1001
ACDBBLOCKREPETAG
1070
     1
1071
        1
1005
1232AF
  0
LINE
  5
1232B0
  8
OBJECT
 10
6075.0
 20
-769.9999999999942
 30
0.0
 11
6075.0
 21
-1043.0
 31
0.0
1001
ACDBBLOCKREPETAG
1070
     1
1071
        3
1005
1232B0
  0
LINE
  5
1232B1
  8
CENTER
 10
6000.0
 20
-770.0
 30
0.0
 11
6000.0
 21
-1055.0
 31
0.0
1001
ACDBBLOCKREPETAG
1070
     1
1071
        6
1005
1232B1
  0
LINE
  5
1232B2
  8
OBJECT
 10
5920.0
 20
-1055.0
 30
0.0
 11
6080.0
 21
-1055.0
 31
0.0
1001
ACDBBLOCKREPETAG
1070
     1
1071
        7
1005
1232B2
  0
LINE
  5
1232B3
  8
OBJECT
 10
5920.0
 20
-1043.0
 30
0.0
 11
6080.0
 21
-1043.0
 31
0.0
1001
ACDBBLOCKREPETAG
1070
     1
1071
        8
1005
1232B3
  0
LINE
  5
1232B4
  8
OBJECT
 10
5920.0
 20
-1043.0
 30
0.0
 11
5920.0
 21
-1055.0
 31
0.0
1001
ACDBBLOCKREPETAG
1070
     1
1071
        9
1005
1232B4
  0
LINE
  5
1232B5
  8
OBJECT
 10
6080.0
 20
-1043.0
 30
0.0
 11
6080.0
 21
-1055.0
 31
0.0
1001
ACDBBLOCKREPETAG
1070
     1
1071
       10
1005
1232B5
  0
TEXT
  5
1232B6
  8
SLIM
 10
5811.8000000000002
 20
-2004.0
 30
0.0
 40
28.0
  1
※ 対応スラブ厚　150mm以上
 41
0.75
  0
TEXT
  5
1232B7
  8
SLIM
 10
5598.8999999999996
 20
-2097.333333333333
 30
0.0
 40
28.0
  1
国土交通大臣認定・（一財）日本消防設備安全センター性能評定取得品
 41
0.75
  0
TEXT
  5
1232B8
  8
SLIM
 10
5631.1000000000004
 20
-2144.0
 30
0.0
 40
28.0
  1
注）ご採用にあたり、認定書及び評定書の内容をご確認ください。
 41
0.75
  0
TEXT
  5
1232B9
  8
SLIM
 10
11824.6
 20
-1962.9999999999959
 30
0.0
 40
28.0
  1
※ 対応スラブ厚　150～540
 41
0.75
  0
TEXT
  5
1232BA
  8
SLIM
 10
11598.9
 20
-2056.3333333333289
 30
0.0
 40
28.0
  1
国土交通大臣認定・（一財）日本消防設備安全センター性能評定取得品
 41
0.75
  0
TEXT
  5
1232BB
  8
SLIM
 10
11631.1
 20
-2102.9999999999968
 30
0.0
 40
28.0
  1
注）ご採用にあたり、認定書及び評定書の内容をご確認ください。
 41
0.75
  0
TEXT
  5
1232BC
  8
SLIM
 10
9824.6000000000004
 20
-1962.9999999999959
 30
0.0
 40
28.0
  1
※ 対応スラブ厚　180～540
 41
0.75
  0
TEXT
  5
1232BD
  8
SLIM
 10
9598.8999999999996
 20
-2056.3333333333289
 30
0.0
 40
28.0
  1
国土交通大臣認定・（一財）日本消防設備安全センター性能評定取得品
 41
0.75
  0
TEXT
  5
1232BE
  8
SLIM
 10
9631.1000000000004
 20
-2102.9999999999968
 30
0.0
 40
28.0
  1
注）ご採用にあたり、認定書及び評定書の内容をご確認ください。
 41
0.75
  0
TEXT
  5
1232BF
  8
SLIM
 10
7771.3999999999987
 20
-1695.666666666664
 30
0.0
 40
28.0
  1
※ 対応スラブ厚　180｛150｝～500
 41
0.75
  0
TEXT
  5
1232C0
  8
SLIM
 10
7733.2999999999975
 20
-1742.3333333333319
 30
0.0
 40
28.0
  1
｛｝内はカンペイ立て管との組み合わせの場合
 41
0.75
  0
TEXT
  5
1232C1
  8
SLIM
 10
7598.8999999999969
 20
-1835.666666666664
 30
0.0
 40
28.0
  1
国土交通大臣認定・（一財）日本消防設備安全センター性能評定取得品
 41
0.75
  0
TEXT
  5
1232C2
  8
SLIM
 10
7631.1000000000004
 20
-1882.3333333333319
 30
0.0
 40
28.0
  1
注）ご採用にあたり、認定書及び評定書の内容をご確認ください。
 41
0.75
  0
TEXT
  5
1232C3
  8
SLIM
 10
9739.1250000000018
 20
-1906.4999999999959
 30
0.0
 40
35.0
  1
両受けスタイル（W）＋シンドカット
 41
0.75
  0
TEXT
  5
1232C4
  8
SLIM
 10
11743.5
 20
-1906.4999999999959
 30
0.0
 40
35.0
  1
カンペイ君（WKP）＋シンドカット
 41
0.75
  0
TEXT
  5
1232C5
  8
SLIM
 10
7741.625
 20
-1632.499999999998
 30
0.0
 40
35.0
  1
片受けスタイル（S）＋シンドカット
 41
0.75
  0
TEXT
  5
1232C6
  8
SLIM
 10
5858.1250000000009
 20
-1947.4999999999991
 30
0.0
 40
35.0
  1
カンペイ君（WKP）
 41
0.75
  0
TEXT
  5
1232C7
  8
SLIM
 10
1856.25
 20
-1632.499999999998
 30
0.0
 40
35.0
  1
片受けスタイル（S）
 41
0.75
  0
TEXT
  5
1232C8
  8
SLIM
 10
0.0
 20
370.0
 30
0.0
 40
100.0
  1
4SL2-Z606-P140-0-WKP
 41
0.75
  0
VIEWPORT
  5
F6BA7
 67
     1
  8
0
 10
145.33033752441401
 20
101.8328354358673
 30
0.0
 40
334.0025019414623
 41
222.19657968139651
 68
     1
 69
     1
1001
ACAD
1000
MVIEW
1002
{
1070
    16
1010
0.0
1020
0.0
1030
0.0
1010
0.0
1020
0.0
1030
1.0
1040
0.0
1040
222.19657968139651
1040
145.33033752441401
1040
101.8328354358673
1040
50.0
1040
0.0
1040
0.0
1070
     0
1070
     0
1070
     1
1070
     1
1070
     0
1070
     0
1070
     0
1070
     0
1040
0.0
1040
0.0
1040
0.0
1040
10.0
1040
10.0
1040
10.0
1040
10.0
1070
     0
1002
{
1002
}
1002
}
  0
VIEWPORT
  5
F6BA9
 67
     1
  8
OBJECT
 10
145.3303314447403
 20
101.8328338861465
 30
0.0
 40
232.5285303115844
 41
162.93253421783439
 68
     2
 69
     2
1001
ACAD
1000
MVIEW
1002
{
1070
    16
1010
0.0
1020
0.0
1030
0.0
1010
0.0
1020
0.0
1030
1.0
1040
0.0
1040
25942.55904403147
1040
2377.604457077377
1040
-7591.5176687056619
1040
50.0
1040
0.0
1040
0.0
1070
     0
1070
   600
1070
     1
1070
     1
1070
     0
1070
     0
1070
     0
1070
     0
1040
0.0
1040
0.0
1040
0.0
1040
1.0
1040
1.0
1040
0.0
1040
0.0
1070
     0
1002
{
1002
}
1002
}
  0
ENDSEC
  0
EOF
