  0
SECTION
  2
HEADER
  9
$ACADVER
  1
AC1009
  9
$INSBASE
 10
0.0
 20
0.0
 30
0.0
  9
$EXTMIN
 10
-0.0000000000002274
 20
-3982.4999999999982
 30
0.0
  9
$EXTMAX
 10
12964.09999999998
 20
770.0
 30
0.0
  9
$LIMMIN
 10
0.0
 20
0.0
  9
$LIMMAX
 10
210.0
 20
297.0
  9
$ORTHOMODE
 70
     0
  9
$REGENMODE
 70
     1
  9
$FILLMODE
 70
     1
  9
$QTEXTMODE
 70
     0
  9
$MIRRTEXT
 70
     0
  9
$DRAGMODE
 70
     2
  9
$LTSCALE
 40
1.0
  9
$OSMODE
 70
   381
  9
$ATTMODE
 70
     1
  9
$TEXTSIZE
 40
4.0
  9
$TRACEWID
 40
0.05
  9
$TEXTSTYLE
  7
STANDARD
  9
$CLAYER
  8
SLIM
  9
$CELTYPE
  6
BYLAYER
  9
$CECOLOR
 62
   256
  9
$DIMSCALE
 40
10.0
  9
$DIMASZ
 40
2.0
  9
$DIMEXO
 40
1.0
  9
$DIMDLI
 40
10.0
  9
$DIMRND
 40
0.0
  9
$DIMDLE
 40
0.0
  9
$DIMEXE
 40
1.0
  9
$DIMTP
 40
0.0
  9
$DIMTM
 40
0.0
  9
$DIMTXT
 40
3.2000000000000002
  9
$DIMCEN
 40
0.0
  9
$DIMTSZ
 40
0.0
  9
$DIMTOL
 70
     0
  9
$DIMLIM
 70
     0
  9
$DIMTIH
 70
     0
  9
$DIMTOH
 70
     0
  9
$DIMSE1
 70
     0
  9
$DIMSE2
 70
     0
  9
$DIMTAD
 70
     1
  9
$DIMZIN
 70
     8
  9
$DIMBLK
  1
OPEN30
  9
$DIMASO
 70
     1
  9
$DIMSHO
 70
     1
  9
$DIMPOST
  1

  9
$DIMAPOST
  1

  9
$DIMALT
 70
     0
  9
$DIMALTD
 70
     2
  9
$DIMALTF
 40
25.399999999999999
  9
$DIMLFAC
 40
1.0
  9
$DIMTOFL
 70
     1
  9
$DIMTVP
 40
0.0
  9
$DIMTIX
 70
     0
  9
$DIMSOXD
 70
     0
  9
$DIMSAH
 70
     0
  9
$DIMBLK1
  1

  9
$DIMBLK2
  1

  9
$DIMSTYLE
  2
S10
  9
$DIMCLRD
 70
   256
  9
$DIMCLRE
 70
   256
  9
$DIMCLRT
 70
   256
  9
$DIMTFAC
 40
1.0
  9
$DIMGAP
 40
0.9
  9
$LUNITS
 70
     2
  9
$LUPREC
 70
     2
  9
$SKETCHINC
 40
0.1
  9
$FILLETRAD
 40
0.0
  9
$AUNITS
 70
     0
  9
$AUPREC
 70
     2
  9
$MENU
  1
ACAD
  9
$ELEVATION
 40
0.0
  9
$PELEVATION
 40
0.0
  9
$THICKNESS
 40
0.0
  9
$LIMCHECK
 70
     0
  9
$BLIPMODE
 70
     0
  9
$CHAMFERA
 40
2.0
  9
$CHAMFERB
 40
2.0
  9
$SKPOLY
 70
     0
  9
$TDCREATE
 40
2453095.4929404748
  9
$TDUPDATE
 40
2457989.3160530091
  9
$TDINDWG
 40
18.801451539399999
  9
$TDUSRTIMER
 40
18.801450879600001
  9
$USRTIMER
 70
     1
  9
$ANGBASE
 50
0.0
  9
$ANGDIR
 70
     0
  9
$PDMODE
 70
    35
  9
$PDSIZE
 40
2.0
  9
$PLINEWID
 40
0.0
  9
$COORDS
 70
     1
  9
$SPLFRAME
 70
     0
  9
$SPLINETYPE
 70
     6
  9
$SPLINESEGS
 70
     8
  9
$ATTDIA
 70
     1
  9
$ATTREQ
 70
     1
  9
$HANDLING
 70
     1
  9
$HANDSEED
  5
12ABD5
  9
$SURFTAB1
 70
     6
  9
$SURFTAB2
 70
     6
  9
$SURFTYPE
 70
     6
  9
$SURFU
 70
     6
  9
$SURFV
 70
     6
  9
$UCSNAME
  2

  9
$UCSORG
 10
0.0
 20
0.0
 30
0.0
  9
$UCSXDIR
 10
1.0
 20
0.0
 30
0.0
  9
$UCSYDIR
 10
0.0
 20
1.0
 30
0.0
  9
$PUCSNAME
  2

  9
$PUCSORG
 10
0.0
 20
0.0
 30
0.0
  9
$PUCSXDIR
 10
1.0
 20
0.0
 30
0.0
  9
$PUCSYDIR
 10
0.0
 20
1.0
 30
0.0
  9
$USERI1
 70
     0
  9
$USERI2
 70
     0
  9
$USERI3
 70
     0
  9
$USERI4
 70
     0
  9
$USERI5
 70
     0
  9
$USERR1
 40
0.0
  9
$USERR2
 40
0.0
  9
$USERR3
 40
0.0
  9
$USERR4
 40
0.0
  9
$USERR5
 40
0.0
  9
$WORLDVIEW
 70
     1
  9
$SHADEDGE
 70
     3
  9
$SHADEDIF
 70
    70
  9
$TILEMODE
 70
     1
  9
$MAXACTVP
 70
    64
  9
$PLIMCHECK
 70
     0
  9
$PEXTMIN
 10
29.066066288948051
 20
20.366566777229309
 30
0.0
  9
$PEXTMAX
 10
261.5945966005325
 20
183.29910099506381
 30
0.0
  9
$PLIMMIN
 10
-3.17498779296875
 20
-3.1749999523162842
  9
$PLIMMAX
 10
293.83566284179687
 20
206.8406708240509
  9
$UNITMODE
 70
     0
  9
$VISRETAIN
 70
     1
  9
$PLINEGEN
 70
     0
  9
$PSLTSCALE
 70
     1
  0
ENDSEC
  0
SECTION
  2
TABLES
  0
TABLE
  2
VPORT
 70
     1
  0
VPORT
  2
*ACTIVE
 70
     0
 10
0.0
 20
0.0
 11
1.0
 21
1.0
 12
9510.3945990330612
 22
-1109.1259423348999
 13
0.0
 23
0.0
 14
1.0
 24
1.0
 15
0.0
 25
0.0
 16
0.0
 26
0.0
 36
1.0
 17
0.0
 27
0.0
 37
0.0
 40
29795.702937143498
 41
1.70911528150134
 42
50.0
 43
0.0
 44
0.0
 50
0.0
 51
0.0
 71
     0
 72
   600
 73
     1
 74
     1
 75
     0
 76
     0
 77
     0
 78
     0
  0
ENDTAB
  0
TABLE
  2
LTYPE
 70
     3
  0
LTYPE
  2
CONTINUOUS
 70
     0
  3
Solid line
 72
    65
 73
     0
 40
0.0
  0
LTYPE
  2
ACAD_ISO08W100
 70
     0
  3
ISO long-dash short-dash ____ __ ____ __ ____ _
 72
    65
 73
     4
 40
36.0
 49
24.0
 49
-3.0
 49
6.0
 49
-3.0
  0
LTYPE
  2
ACAD_ISO02W100
 70
     0
  3
ISO dash __ __ __ __ __ __ __ __ __ __ __ __ __
 72
    65
 73
     2
 40
15.0
 49
12.0
 49
-3.0
  0
ENDTAB
  0
TABLE
  2
LAYER
 70
     8
  0
LAYER
  2
0
 70
     0
 62
     7
  6
CONTINUOUS
  0
LAYER
  2
SLIM
 70
     0
 62
     2
  6
CONTINUOUS
  0
LAYER
  2
DEFPOINTS
 70
     0
 62
     7
  6
CONTINUOUS
  0
LAYER
  2
DIM
 70
     0
 62
     7
  6
CONTINUOUS
  0
LAYER
  2
OBJECT
 70
     0
 62
     4
  6
CONTINUOUS
  0
LAYER
  2
HIDDEN
 70
     0
 62
     2
  6
ACAD_ISO02W100
  0
LAYER
  2
CENTER
 70
     0
 62
     2
  6
ACAD_ISO08W100
  0
LAYER
  2
DOTS
 70
     0
 62
     1
  6
CONTINUOUS
  0
ENDTAB
  0
TABLE
  2
STYLE
 70
     2
  0
STYLE
  2
STANDARD
 70
     0
 40
0.0
 41
0.75
 50
0.0
 71
     0
 42
4.0
  3
simplex.shx
  4
bigfont.shx
  0
ENDTAB
  0
TABLE
  2
VIEW
 70
     0
  0
ENDTAB
  0
TABLE
  2
UCS
 70
     0
  0
ENDTAB
  0
TABLE
  2
APPID
 70
    20
  0
APPID
  2
ACAD
 70
     0
  0
APPID
  2
ACADANNOTATIVE
 70
     0
  0
APPID
  2
ACAD_PSEXT
 70
     0
  0
APPID
  2
ACAD_EXEMPT_FROM_CAD_STANDARDS
 70
     0
  0
APPID
  2
ACAECLAYERSTANDARD
 70
     0
  0
APPID
  2
ACAUTHENVIRON
 70
     0
  0
APPID
  2
ACDBDYNAMICBLOCKTRUENAME
 70
     0
  0
APPID
  2
ACDBDYNAMICBLOCKGUID
 70
     0
  0
APPID
  2
ACDBBLOCKREPETAG
 70
     0
  0
APPID
  2
ACDBBLOCKREPBTAG
 70
     0
  0
APPID
  2
ACAD_NAV_VCDISPLAY
 70
     0
  0
APPID
  2
ACAD_DSTYLE_DIMRADIAL_EXTENSION
 70
     0
  0
APPID
  2
ACAD_DSTYLE_DIMJAG
 70
     0
  0
APPID
  2
ACAD_DSTYLE_DIMTALN
 70
     0
  0
APPID
  2
ACADANNOPO
 70
     0
  0
APPID
  2
GRADIENTCOLOR1ACI
 70
     0
  0
APPID
  2
GRADIENTCOLOR2ACI
 70
     0
  0
APPID
  2
ACADANNOMONITORALERTICONDI
 70
     0
  0
APPID
  2
CONTENTBLOCKICON
 70
     0
  0
APPID
  2
ACAD_MLEADERVER
 70
     0
  0
ENDTAB
  0
TABLE
  2
DIMSTYLE
 70
     3
  0
DIMSTYLE
  2
STANDARD
 70
     0
  3

  4

  5

  6

  7

 40
1.0
 41
0.18
 42
0.0625
 43
0.38
 44
0.18
 45
0.0
 46
0.0
 47
0.0
 48
0.0
140
0.18
141
0.09
142
0.0
143
25.399999999999999
144
1.0
145
0.0
146
1.0
147
0.09
 71
     0
 72
     0
 73
     1
 74
     1
 75
     0
 76
     0
 77
     0
 78
     0
170
     0
171
     2
172
     0
173
     0
174
     0
175
     0
176
     0
177
     0
178
     0
  0
DIMSTYLE
  2
S10
 70
     0
  3

  4

  5

  6

  7

 40
10.0
 41
2.0
 42
1.0
 43
10.0
 44
1.0
 45
0.0
 46
0.0
 47
0.0
 48
0.0
140
3.2000000000000002
141
0.0
142
0.0
143
25.399999999999999
144
1.0
145
0.0
146
1.0
147
0.9
 71
     0
 72
     0
 73
     0
 74
     0
 75
     0
 76
     0
 77
     1
 78
     8
170
     0
171
     2
172
     1
173
     0
174
     0
175
     0
176
   256
177
   256
178
   256
  0
ENDTAB
  0
ENDSEC
  0
SECTION
  2
BLOCKS
  0
BLOCK
  8
0
  2
$MODEL_SPACE
 70
     0
 10
0.0
 20
0.0
 30
0.0
  3
$MODEL_SPACE
  1

  0
ENDBLK
  5
12AAB7
  8
0
  0
BLOCK
 67
     1
  8
0
  2
$PAPER_SPACE
 70
     0
 10
0.0
 20
0.0
 30
0.0
  3
$PAPER_SPACE
  1

  0
ENDBLK
  5
12AAB3
 67
     1
  8
0
  0
BLOCK
  8
0
  2
_OPEN30
 70
     0
 10
0.0
 20
0.0
 30
0.0
  3
_OPEN30
  1

  0
LINE
  5
202
  8
0
  6
BYBLOCK
 62
     0
 10
-1.0
 20
0.26794919
 30
0.0
 11
0.0
 21
0.0
 31
0.0
  0
LINE
  5
203
  8
0
  6
BYBLOCK
 62
     0
 10
0.0
 20
0.0
 30
0.0
 11
-1.0
 21
-0.26794919
 31
0.0
  0
LINE
  5
204
  8
0
  6
BYBLOCK
 62
     0
 10
0.0
 20
0.0
 30
0.0
 11
-1.0
 21
0.0
 31
0.0
  0
ENDBLK
  5
206
  8
0
  0
BLOCK
  8
0
  2
*U8
 70
     1
 10
0.0
 20
0.0
 30
0.0
  3
*U8
  1

  0
TEXT
  5
12A9A0
  8
DIM
 10
12700.424581672751
 20
-868.99999999999784
 30
0.0
 40
32.0
  1
P
 50
90.0
 41
0.75
  0
ENDBLK
  5
12A9A2
  8
0
  0
BLOCK
  8
0
  2
*U9
 70
     1
 10
0.0
 20
0.0
 30
0.0
  3
*U9
  1

  0
TEXT
  5
12A9A4
  8
DIM
 10
10700.424581672751
 20
-868.99999999999829
 30
0.0
 40
32.0
  1
P
 50
90.0
 41
0.75
  0
ENDBLK
  5
12A9A6
  8
0
  0
BLOCK
  8
0
  2
*U10
 70
     1
 10
0.0
 20
0.0
 30
0.0
  3
*U10
  1

  0
TEXT
  5
12A9A8
  8
DIM
 10
8700.4245816727544
 20
-868.99999999999875
 30
0.0
 40
32.0
  1
P
 50
90.0
 41
0.75
  0
ENDBLK
  5
12A9AA
  8
0
  0
BLOCK
  8
0
  2
*U11
 70
     1
 10
0.0
 20
0.0
 30
0.0
  3
*U11
  1

  0
TEXT
  5
12A9AC
  8
DIM
 10
6700.4245816727562
 20
-868.99999999999898
 30
0.0
 40
32.0
  1
P
 50
90.0
 41
0.75
  0
ENDBLK
  5
12A9AE
  8
0
  0
BLOCK
  8
0
  2
*U12
 70
     1
 10
0.0
 20
0.0
 30
0.0
  3
*U12
  1

  0
TEXT
  5
12A9B0
  8
DIM
 10
4700.4245816727562
 20
-868.99999999999943
 30
0.0
 40
32.0
  1
P
 50
90.0
 41
0.75
  0
ENDBLK
  5
12A9B2
  8
0
  0
BLOCK
  8
0
  2
*U13
 70
     1
 10
0.0
 20
0.0
 30
0.0
  3
*U13
  1

  0
TEXT
  5
12A9B4
  8
SLIM
 10
158.95238095238091
 20
-1393.9999999999991
 30
0.0
 40
26.0
  1
75
  0
ENDBLK
  5
12A9B6
  8
0
  0
BLOCK
  8
0
  2
*U14
 70
     1
 10
0.0
 20
0.0
 30
0.0
  3
*U14
  1

  0
TEXT
  5
12A9B8
  8
SLIM
 10
518.95238095238085
 20
-929.99999999999909
 30
0.0
 40
26.0
  1
65
  0
ENDBLK
  5
12A9BA
  8
0
  0
BLOCK
  8
0
  2
*U15
 70
     1
 10
0.0
 20
0.0
 30
0.0
  3
*U15
  1

  0
TEXT
  5
12A9BC
  8
SLIM
 10
158.95238095238091
 20
-929.99999999999909
 30
0.0
 40
26.0
  1
50
  0
ENDBLK
  5
12A9BE
  8
0
  0
BLOCK
  8
0
  2
*U16
 70
     1
 10
0.0
 20
0.0
 30
0.0
  3
*U16
  1

  0
TEXT
  5
12A9D4
  8
SLIM
 10
158.9523809524228
 20
-130.00000000017181
 30
0.0
 40
26.0
  1
50
  0
ENDBLK
  5
12A9D6
  8
0
  0
BLOCK
  8
0
  2
*U17
 70
     1
 10
0.0
 20
0.0
 30
0.0
  3
*U17
  1

  0
TEXT
  5
12A9D8
  8
DIM
 10
12334.11645607577
 20
-1322.7428571428541
 30
0.0
 40
32.0
  1
590-P（シンドカット）
 50
90.0
 41
0.75
  0
ENDBLK
  5
12A9DA
  8
0
  0
BLOCK
  8
0
  2
*U18
 70
     1
 10
0.0
 20
0.0
 30
0.0
  3
*U18
  1

  0
TEXT
  5
12A9DC
  8
DIM
 10
10334.11645607577
 20
-1322.7428571428541
 30
0.0
 40
32.0
  1
590-P（シンドカット）
 50
90.0
 41
0.75
  0
ENDBLK
  5
12A9DE
  8
0
  0
BLOCK
  8
0
  2
*U19
 70
     1
 10
0.0
 20
0.0
 30
0.0
  3
*U19
  1

  0
TEXT
  5
12A9E0
  8
DIM
 10
8334.1164560757734
 20
-1302.742857142855
 30
0.0
 40
32.0
  1
550-P（シンドカット）
 50
90.0
 41
0.75
  0
ENDBLK
  5
12A9E2
  8
0
  0
BLOCK
  8
0
  2
*U20
 70
     1
 10
0.0
 20
0.0
 30
0.0
  3
*U20
  1

  0
TEXT
  5
12A9E4
  8
DIM
 10
2700.4245816727562
 20
-868.99999999999955
 30
0.0
 40
32.0
  1
P
 50
90.0
 41
0.75
  0
ENDBLK
  5
12A9E6
  8
0
  0
BLOCK
  8
0
  2
*U21
 70
     1
 10
0.0
 20
0.0
 30
0.0
  3
*U21
  1

  0
TEXT
  5
12A9E8
  8
DIM
 10
2709.479620594459
 20
-3469.1428571428528
 30
0.0
 40
32.0
  1
A
 50
90.0
 41
0.75
  0
ENDBLK
  5
12A9EA
  8
0
  0
BLOCK
  8
0
  2
*U22
 70
     1
 10
0.0
 20
0.0
 30
0.0
  3
*U22
  1

  0
TEXT
  5
12A9EC
  8
DIM
 10
2707.840928403733
 20
-3850.9999999999968
 30
0.0
 40
32.0
  1
B
 50
90.0
 41
0.75
  0
ENDBLK
  5
12A9EE
  8
0
  0
BLOCK
  8
0
  2
*U23
 70
     1
 10
0.0
 20
0.0
 30
0.0
  3
*U23
  1

  0
TEXT
  5
12A9F0
  8
DIM
 10
2561.4285714285711
 20
-3323.208121984444
 30
0.0
 40
32.0
  1
C
 41
0.75
  0
ENDBLK
  5
12A9F2
  8
0
  0
ENDSEC
  0
SECTION
  2
ENTITIES
  0
LINE
  5
11273E
  8
OBJECT
 10
2325.0
 20
-3864.9999999999968
 30
0.0
 11
5075.0
 21
-3864.9999999999968
 31
0.0
  0
LINE
  5
11412B
  8
SLIM
 10
3256.0
 20
-2922.5000160472709
 30
0.0
 11
3256.0
 21
-3252.5000160472709
 31
0.0
  0
LINE
  5
11412C
  8
SLIM
 10
3380.0
 20
-2922.5000160472709
 30
0.0
 11
3380.0
 21
-3252.5000160472709
 31
0.0
  0
LINE
  5
11412D
  8
SLIM
 10
3510.0
 20
-2982.50001604727
 30
0.0
 11
3510.0
 21
-3252.5000160472709
 31
0.0
  0
LINE
  5
11412E
  8
SLIM
 10
3640.0
 20
-2982.50001604727
 30
0.0
 11
3640.0
 21
-3252.5000160472709
 31
0.0
  0
LINE
  5
11412F
  8
SLIM
 10
3770.0
 20
-3252.5000160472709
 30
0.0
 11
3770.0
 21
-2922.5000160472709
 31
0.0
  0
LINE
  5
114131
  8
SLIM
 10
3770.0
 20
-2922.5000160472709
 30
0.0
 11
3256.0
 21
-2922.5000160472709
 31
0.0
  0
LINE
  5
114132
  8
SLIM
 10
3769.9999999999991
 20
-2982.50001604727
 30
0.0
 11
3380.0
 21
-2982.50001604727
 31
0.0
  0
LINE
  5
114133
  8
SLIM
 10
3770.0
 20
-3042.5000160472709
 30
0.0
 11
3256.0
 21
-3042.5000160472709
 31
0.0
  0
LINE
  5
114134
  8
SLIM
 10
3770.0
 20
-3112.5000160472709
 30
0.0
 11
3256.0
 21
-3112.5000160472709
 31
0.0
  0
LINE
  5
114135
  8
SLIM
 10
3770.0
 20
-3182.5000160472709
 30
0.0
 11
3256.0
 21
-3182.5000160472709
 31
0.0
  0
LINE
  5
114136
  8
SLIM
 10
3770.0
 20
-3252.5000160472709
 30
0.0
 11
3256.0
 21
-3252.5000160472709
 31
0.0
  0
LINE
  5
11414B
  8
SLIM
 10
3380.0
 20
-3042.5000160472709
 30
0.0
 11
3255.9999722746579
 21
-2922.5000000000018
 31
0.0
  0
LINE
  5
1238B4
  8
CENTER
 10
2579.9999999999991
 20
-3459.9999999999968
 30
0.0
 11
2409.9999999999991
 21
-3459.9999999999968
 31
0.0
1001
ACDBBLOCKREPETAG
1070
     1
1071
       14
1005
122545
  0
LINE
  5
1238B5
  8
CENTER
 10
2500.0
 20
-3549.9999999999968
 30
0.0
 11
2500.0
 21
-3369.9999999999968
 31
0.0
1001
ACDBBLOCKREPETAG
1070
     1
1071
       15
1005
122546
  0
CIRCLE
  5
1238B6
  8
OBJECT
 10
2500.0
 20
-3459.9999999999968
 30
0.0
 40
70.0
1001
ACDBBLOCKREPETAG
1070
     1
1071
       16
1005
122547
  0
CIRCLE
  5
1238B7
  8
OBJECT
 10
2500.0
 20
-3459.9999999999968
 30
0.0
 40
75.0
1001
ACDBBLOCKREPETAG
1070
     1
1071
       17
1005
122548
  0
LINE
  5
123927
  8
CENTER
 10
2500.0
 20
-3644.9999999999991
 30
0.0
 11
2500.0
 21
-3891.9999999999991
 31
0.0
1001
ACDBBLOCKREPETAG
1070
     1
1071
       25
1005
123927
  0
LINE
  5
123928
  8
OBJECT
 10
2425.0
 20
-3659.9999999999968
 30
0.0
 11
2425.0
 21
-3879.9999999999991
 31
0.0
1001
ACDBBLOCKREPETAG
1070
     1
1071
       26
1005
123928
  0
LINE
  5
12392C
  8
OBJECT
 10
2575.0
 20
-3659.9999999999968
 30
0.0
 11
2575.0
 21
-3756.5000000000618
 31
0.0
1001
ACDBBLOCKREPETAG
1070
     1
1071
       34
1005
12392C
  0
LINE
  5
123A5C
  8
OBJECT
 10
2575.0
 20
-3862.4999999999991
 30
0.0
 11
2575.0
 21
-3879.9999999999991
 31
0.0
1001
ACDBBLOCKREPETAG
1070
     1
1071
       34
1005
12392C
  0
LINE
  5
123A5E
  8
CENTER
 10
2900.0
 20
-3644.9999999999991
 30
0.0
 11
2900.0
 21
-3891.9999999999991
 31
0.0
1001
ACDBBLOCKREPETAG
1070
     1
1071
       25
1005
123927
  0
LINE
  5
123A5F
  8
OBJECT
 10
2825.0
 20
-3659.9999999999968
 30
0.0
 11
2825.0
 21
-3879.9999999999991
 31
0.0
1001
ACDBBLOCKREPETAG
1070
     1
1071
       26
1005
123928
  0
LINE
  5
123A60
  8
OBJECT
 10
2975.0
 20
-3659.9999999999968
 30
0.0
 11
2975.0
 21
-3879.9999999999991
 31
0.0
1001
ACDBBLOCKREPETAG
1070
     1
1071
       34
1005
12392C
  0
LINE
  5
123AD2
  8
CENTER
 10
3579.9999999999991
 20
-3459.9999999999968
 30
0.0
 11
3410.0
 21
-3459.9999999999968
 31
0.0
1001
ACDBBLOCKREPETAG
1070
     1
1071
       14
1005
122545
  0
LINE
  5
123AD3
  8
CENTER
 10
3500.0
 20
-3549.9999999999968
 30
0.0
 11
3500.0
 21
-3369.9999999999968
 31
0.0
1001
ACDBBLOCKREPETAG
1070
     1
1071
       15
1005
122546
  0
CIRCLE
  5
123AD4
  8
OBJECT
 10
3500.0
 20
-3459.9999999999968
 30
0.0
 40
70.0
1001
ACDBBLOCKREPETAG
1070
     1
1071
       16
1005
122547
  0
CIRCLE
  5
123AD5
  8
OBJECT
 10
3500.0
 20
-3459.9999999999968
 30
0.0
 40
75.0
1001
ACDBBLOCKREPETAG
1070
     1
1071
       17
1005
122548
  0
LINE
  5
123ADD
  8
CENTER
 10
3500.0
 20
-3644.9999999999991
 30
0.0
 11
3500.0
 21
-3891.9999999999991
 31
0.0
1001
ACDBBLOCKREPETAG
1070
     1
1071
       25
1005
123927
  0
LINE
  5
123ADE
  8
OBJECT
 10
3424.9999999999991
 20
-3659.9999999999968
 30
0.0
 11
3424.9999999999991
 21
-3879.9999999999991
 31
0.0
1001
ACDBBLOCKREPETAG
1070
     1
1071
       26
1005
123928
  0
LINE
  5
123ADF
  8
OBJECT
 10
3574.9999999999991
 20
-3659.9999999999968
 30
0.0
 11
3574.9999999999991
 21
-3756.5000000000618
 31
0.0
1001
ACDBBLOCKREPETAG
1070
     1
1071
       34
1005
12392C
  0
LINE
  5
123AE0
  8
OBJECT
 10
3574.9999999999991
 20
-3862.4999999999991
 30
0.0
 11
3574.9999999999991
 21
-3879.9999999999991
 31
0.0
1001
ACDBBLOCKREPETAG
1070
     1
1071
       34
1005
12392C
  0
LINE
  5
123AE8
  8
CENTER
 10
3900.0
 20
-3644.9999999999991
 30
0.0
 11
3900.0
 21
-3891.9999999999991
 31
0.0
1001
ACDBBLOCKREPETAG
1070
     1
1071
       25
1005
123927
  0
LINE
  5
123AE9
  8
OBJECT
 10
3824.9999999999991
 20
-3659.9999999999968
 30
0.0
 11
3824.9999999999991
 21
-3879.9999999999991
 31
0.0
1001
ACDBBLOCKREPETAG
1070
     1
1071
       26
1005
123928
  0
LINE
  5
123AEA
  8
OBJECT
 10
3975.0
 20
-3659.9999999999968
 30
0.0
 11
3975.0
 21
-3879.9999999999991
 31
0.0
1001
ACDBBLOCKREPETAG
1070
     1
1071
       34
1005
12392C
  0
LINE
  5
123B38
  8
CENTER
 10
4579.9999999999991
 20
-3459.9999999999968
 30
0.0
 11
4409.9999999999991
 21
-3459.9999999999968
 31
0.0
1001
ACDBBLOCKREPETAG
1070
     1
1071
       14
1005
122545
  0
LINE
  5
123B39
  8
CENTER
 10
4499.9999999999991
 20
-3549.9999999999968
 30
0.0
 11
4499.9999999999991
 21
-3369.9999999999968
 31
0.0
1001
ACDBBLOCKREPETAG
1070
     1
1071
       15
1005
122546
  0
CIRCLE
  5
123B3A
  8
OBJECT
 10
4499.9999999999991
 20
-3459.9999999999968
 30
0.0
 40
70.0
1001
ACDBBLOCKREPETAG
1070
     1
1071
       16
1005
122547
  0
CIRCLE
  5
123B3B
  8
OBJECT
 10
4499.9999999999991
 20
-3459.9999999999968
 30
0.0
 40
75.0
1001
ACDBBLOCKREPETAG
1070
     1
1071
       17
1005
122548
  0
LINE
  5
123B43
  8
CENTER
 10
4500.0
 20
-3644.9999999999991
 30
0.0
 11
4500.0
 21
-3891.9999999999991
 31
0.0
1001
ACDBBLOCKREPETAG
1070
     1
1071
       25
1005
123927
  0
LINE
  5
123B44
  8
OBJECT
 10
4425.0
 20
-3659.9999999999968
 30
0.0
 11
4425.0
 21
-3879.9999999999991
 31
0.0
1001
ACDBBLOCKREPETAG
1070
     1
1071
       26
1005
123928
  0
LINE
  5
123B45
  8
OBJECT
 10
4575.0
 20
-3659.9999999999968
 30
0.0
 11
4575.0
 21
-3756.5000000000618
 31
0.0
1001
ACDBBLOCKREPETAG
1070
     1
1071
       34
1005
12392C
  0
LINE
  5
123B46
  8
OBJECT
 10
4575.0
 20
-3862.4999999999991
 30
0.0
 11
4575.0
 21
-3879.9999999999991
 31
0.0
1001
ACDBBLOCKREPETAG
1070
     1
1071
       34
1005
12392C
  0
LINE
  5
123B4E
  8
CENTER
 10
4900.0
 20
-3644.9999999999991
 30
0.0
 11
4900.0
 21
-3891.9999999999991
 31
0.0
1001
ACDBBLOCKREPETAG
1070
     1
1071
       25
1005
123927
  0
LINE
  5
123B4F
  8
OBJECT
 10
4825.0
 20
-3659.9999999999968
 30
0.0
 11
4825.0
 21
-3879.9999999999991
 31
0.0
1001
ACDBBLOCKREPETAG
1070
     1
1071
       26
1005
123928
  0
LINE
  5
123B50
  8
OBJECT
 10
4975.0
 20
-3659.9999999999968
 30
0.0
 11
4974.9999999999991
 21
-3879.9999999999991
 31
0.0
1001
ACDBBLOCKREPETAG
1070
     1
1071
       34
1005
12392C
  0
POINT
  5
124C02
  8
DOTS
 10
2500.0
 20
-3459.9999999999968
 30
0.0
  0
POINT
  5
124C03
  8
DOTS
 10
2500.0
 20
-3864.9999999999968
 30
0.0
  0
POINT
  5
124C05
  8
DOTS
 10
3500.0
 20
-3864.9999999999968
 30
0.0
  0
POINT
  5
124C07
  8
DOTS
 10
3500.0
 20
-3459.9999999999968
 30
0.0
  0
POINT
  5
124C08
  8
DOTS
 10
4499.9999999999991
 20
-3459.9999999999968
 30
0.0
  0
POINT
  5
124C09
  8
DOTS
 10
4499.9999999999991
 20
-3864.9999999999968
 30
0.0
  0
LINE
  5
1289B8
  8
OBJECT
 10
2633.0
 20
-113.99999541468151
 30
0.0
 11
2640.0
 21
-113.99999541468151
 31
0.0
1001
ACDBBLOCKREPETAG
1070
     1
1071
       47
1005
1289A5
  0
LINE
  5
1289B9
  8
OBJECT
 10
2640.0
 20
-113.99999541468151
 30
0.0
 11
2640.0
 21
-128.99999541468151
 31
0.0
1001
ACDBBLOCKREPETAG
1070
     1
1071
       48
1005
1289A6
  0
LINE
  5
1289BA
  8
OBJECT
 10
2640.0
 20
-237.99999541468151
 30
0.0
 11
2633.0
 21
-237.99999541468151
 31
0.0
1001
ACDBBLOCKREPETAG
1070
     1
1071
       49
1005
1289A7
  0
LINE
  5
1289BB
  8
OBJECT
 10
2633.0
 20
-128.99999541468151
 30
0.0
 11
2633.0
 21
-113.99999541468151
 31
0.0
1001
ACDBBLOCKREPETAG
1070
     1
1071
       50
1005
1289A8
  0
LINE
  5
1289BC
  8
OBJECT
 10
2633.0
 20
-116.99999541468151
 30
0.0
 11
2597.0
 21
-116.99999541468151
 31
0.0
1001
ACDBBLOCKREPETAG
1070
     1
1071
       52
1005
1289AA
  0
LINE
  5
1289BD
  8
OBJECT
 10
2597.0
 20
-116.99999541468151
 30
0.0
 11
2597.0
 21
-131.99999541468151
 31
0.0
1001
ACDBBLOCKREPETAG
1070
     1
1071
       53
1005
1289AB
  0
LINE
  5
1289BE
  8
OBJECT
 10
2597.0
 20
-234.99999541468151
 30
0.0
 11
2633.0
 21
-234.99999541468151
 31
0.0
1001
ACDBBLOCKREPETAG
1070
     1
1071
       54
1005
1289AC
  0
LINE
  5
1289BF
  8
OBJECT
 10
2593.0
 20
-121.49999541468151
 30
0.0
 11
2586.0
 21
-121.49999541468151
 31
0.0
1001
ACDBBLOCKREPETAG
1070
     1
1071
       55
1005
1289AD
  0
LINE
  5
1289C0
  8
OBJECT
 10
2586.0
 20
-230.49999541468151
 30
0.0
 11
2593.0
 21
-230.49999541468151
 31
0.0
1001
ACDBBLOCKREPETAG
1070
     1
1071
       56
1005
1289AE
  0
LINE
  5
1289C1
  8
OBJECT
 10
2593.0
 20
-136.49999541468151
 30
0.0
 11
2593.0
 21
-121.49999541468151
 31
0.0
1001
ACDBBLOCKREPETAG
1070
     1
1071
       57
1005
1289AF
  0
LINE
  5
1289C2
  8
OBJECT
 10
2597.0
 20
-116.99999541468151
 30
0.0
 11
2593.0
 21
-121.49999541468151
 31
0.0
1001
ACDBBLOCKREPETAG
1070
     1
1071
       58
1005
1289B0
  0
LINE
  5
1289C3
  8
OBJECT
 10
2597.0
 20
-234.99999541468151
 30
0.0
 11
2593.0
 21
-230.49999541468151
 31
0.0
1001
ACDBBLOCKREPETAG
1070
     1
1071
       59
1005
1289B1
  0
LINE
  5
1289CA
  8
OBJECT
 10
2633.0
 20
-237.99999541468151
 30
0.0
 11
2640.0
 21
-237.99999541468151
 31
0.0
1001
ACDBBLOCKREPETAG
1070
     1
1071
       47
1005
1289A5
  0
LINE
  5
1289CB
  8
OBJECT
 10
2640.0
 20
-237.99999541468151
 30
0.0
 11
2640.0
 21
-222.99999541468159
 31
0.0
1001
ACDBBLOCKREPETAG
1070
     1
1071
       48
1005
1289A6
  0
LINE
  5
1289CC
  8
OBJECT
 10
2633.0
 20
-222.99999541468159
 30
0.0
 11
2633.0
 21
-237.99999541468151
 31
0.0
1001
ACDBBLOCKREPETAG
1070
     1
1071
       50
1005
1289A8
  0
LINE
  5
1289CD
  8
OBJECT
 10
2633.0
 20
-234.99999541468151
 30
0.0
 11
2597.0
 21
-234.99999541468151
 31
0.0
1001
ACDBBLOCKREPETAG
1070
     1
1071
       52
1005
1289AA
  0
LINE
  5
1289CE
  8
OBJECT
 10
2597.0
 20
-234.99999541468151
 30
0.0
 11
2597.0
 21
-219.99999541468151
 31
0.0
1001
ACDBBLOCKREPETAG
1070
     1
1071
       53
1005
1289AB
  0
LINE
  5
1289CF
  8
OBJECT
 10
2593.0
 20
-230.49999541468151
 30
0.0
 11
2586.0
 21
-230.49999541468151
 31
0.0
1001
ACDBBLOCKREPETAG
1070
     1
1071
       55
1005
1289AD
  0
LINE
  5
1289D0
  8
OBJECT
 10
2593.0
 20
-215.49999541468151
 30
0.0
 11
2593.0
 21
-230.49999541468151
 31
0.0
1001
ACDBBLOCKREPETAG
1070
     1
1071
       57
1005
1289AF
  0
LINE
  5
1289D1
  8
OBJECT
 10
2597.0
 20
-234.99999541468151
 30
0.0
 11
2593.0
 21
-230.49999541468151
 31
0.0
1001
ACDBBLOCKREPETAG
1070
     1
1071
       58
1005
1289B0
  0
LINE
  5
1289D9
  8
OBJECT
 10
4633.0
 20
-113.99999541468151
 30
0.0
 11
4640.0
 21
-113.99999541468151
 31
0.0
1001
ACDBBLOCKREPETAG
1070
     1
1071
       47
1005
1289A5
  0
LINE
  5
1289DA
  8
OBJECT
 10
4640.0
 20
-113.99999541468151
 30
0.0
 11
4640.0
 21
-128.99999541468151
 31
0.0
1001
ACDBBLOCKREPETAG
1070
     1
1071
       48
1005
1289A6
  0
LINE
  5
1289DB
  8
OBJECT
 10
4640.0
 20
-237.99999541468151
 30
0.0
 11
4633.0
 21
-237.99999541468151
 31
0.0
1001
ACDBBLOCKREPETAG
1070
     1
1071
       49
1005
1289A7
  0
LINE
  5
1289DC
  8
OBJECT
 10
4633.0
 20
-128.99999541468151
 30
0.0
 11
4633.0
 21
-113.99999541468151
 31
0.0
1001
ACDBBLOCKREPETAG
1070
     1
1071
       50
1005
1289A8
  0
LINE
  5
1289DD
  8
OBJECT
 10
4633.0
 20
-116.99999541468151
 30
0.0
 11
4597.0
 21
-116.99999541468151
 31
0.0
1001
ACDBBLOCKREPETAG
1070
     1
1071
       52
1005
1289AA
  0
LINE
  5
1289DE
  8
OBJECT
 10
4597.0
 20
-116.99999541468151
 30
0.0
 11
4597.0
 21
-131.99999541468151
 31
0.0
1001
ACDBBLOCKREPETAG
1070
     1
1071
       53
1005
1289AB
  0
LINE
  5
1289DF
  8
OBJECT
 10
4597.0
 20
-234.99999541468151
 30
0.0
 11
4633.0
 21
-234.99999541468151
 31
0.0
1001
ACDBBLOCKREPETAG
1070
     1
1071
       54
1005
1289AC
  0
LINE
  5
1289E0
  8
OBJECT
 10
4593.0
 20
-121.49999541468151
 30
0.0
 11
4586.0
 21
-121.49999541468151
 31
0.0
1001
ACDBBLOCKREPETAG
1070
     1
1071
       55
1005
1289AD
  0
LINE
  5
1289E1
  8
OBJECT
 10
4586.0
 20
-230.49999541468151
 30
0.0
 11
4593.0
 21
-230.49999541468151
 31
0.0
1001
ACDBBLOCKREPETAG
1070
     1
1071
       56
1005
1289AE
  0
LINE
  5
1289E2
  8
OBJECT
 10
4593.0
 20
-136.49999541468151
 30
0.0
 11
4593.0
 21
-121.49999541468151
 31
0.0
1001
ACDBBLOCKREPETAG
1070
     1
1071
       57
1005
1289AF
  0
LINE
  5
1289E3
  8
OBJECT
 10
4597.0
 20
-116.99999541468151
 30
0.0
 11
4593.0
 21
-121.49999541468151
 31
0.0
1001
ACDBBLOCKREPETAG
1070
     1
1071
       58
1005
1289B0
  0
LINE
  5
1289E4
  8
OBJECT
 10
4597.0
 20
-234.99999541468151
 30
0.0
 11
4593.0
 21
-230.49999541468151
 31
0.0
1001
ACDBBLOCKREPETAG
1070
     1
1071
       59
1005
1289B1
  0
LINE
  5
1289E5
  8
OBJECT
 10
4633.0
 20
-237.99999541468151
 30
0.0
 11
4640.0
 21
-237.99999541468151
 31
0.0
1001
ACDBBLOCKREPETAG
1070
     1
1071
       47
1005
1289A5
  0
LINE
  5
1289E6
  8
OBJECT
 10
4640.0
 20
-237.99999541468151
 30
0.0
 11
4640.0
 21
-222.99999541468159
 31
0.0
1001
ACDBBLOCKREPETAG
1070
     1
1071
       48
1005
1289A6
  0
LINE
  5
1289E7
  8
OBJECT
 10
4633.0
 20
-222.99999541468159
 30
0.0
 11
4633.0
 21
-237.99999541468151
 31
0.0
1001
ACDBBLOCKREPETAG
1070
     1
1071
       50
1005
1289A8
  0
LINE
  5
1289E8
  8
OBJECT
 10
4633.0
 20
-234.99999541468151
 30
0.0
 11
4597.0
 21
-234.99999541468151
 31
0.0
1001
ACDBBLOCKREPETAG
1070
     1
1071
       52
1005
1289AA
  0
LINE
  5
1289E9
  8
OBJECT
 10
4597.0
 20
-234.99999541468151
 30
0.0
 11
4597.0
 21
-219.99999541468151
 31
0.0
1001
ACDBBLOCKREPETAG
1070
     1
1071
       53
1005
1289AB
  0
LINE
  5
1289EA
  8
OBJECT
 10
4593.0
 20
-230.49999541468151
 30
0.0
 11
4586.0
 21
-230.49999541468151
 31
0.0
1001
ACDBBLOCKREPETAG
1070
     1
1071
       55
1005
1289AD
  0
LINE
  5
1289EB
  8
OBJECT
 10
4593.0
 20
-215.49999541468151
 30
0.0
 11
4593.0
 21
-230.49999541468151
 31
0.0
1001
ACDBBLOCKREPETAG
1070
     1
1071
       57
1005
1289AF
  0
LINE
  5
1289EC
  8
OBJECT
 10
4597.0
 20
-234.99999541468151
 30
0.0
 11
4593.0
 21
-230.49999541468151
 31
0.0
1001
ACDBBLOCKREPETAG
1070
     1
1071
       58
1005
1289B0
  0
LINE
  5
1289F4
  8
OBJECT
 10
6633.0
 20
-113.99999541468151
 30
0.0
 11
6640.0
 21
-113.99999541468151
 31
0.0
1001
ACDBBLOCKREPETAG
1070
     1
1071
       47
1005
1289A5
  0
LINE
  5
1289F5
  8
OBJECT
 10
6640.0
 20
-113.99999541468151
 30
0.0
 11
6640.0
 21
-128.99999541468151
 31
0.0
1001
ACDBBLOCKREPETAG
1070
     1
1071
       48
1005
1289A6
  0
LINE
  5
1289F6
  8
OBJECT
 10
6640.0
 20
-237.99999541468151
 30
0.0
 11
6633.0
 21
-237.99999541468151
 31
0.0
1001
ACDBBLOCKREPETAG
1070
     1
1071
       49
1005
1289A7
  0
LINE
  5
1289F7
  8
OBJECT
 10
6633.0
 20
-128.99999541468151
 30
0.0
 11
6633.0
 21
-113.99999541468151
 31
0.0
1001
ACDBBLOCKREPETAG
1070
     1
1071
       50
1005
1289A8
  0
LINE
  5
1289F8
  8
OBJECT
 10
6633.0
 20
-116.99999541468151
 30
0.0
 11
6597.0
 21
-116.99999541468151
 31
0.0
1001
ACDBBLOCKREPETAG
1070
     1
1071
       52
1005
1289AA
  0
LINE
  5
1289F9
  8
OBJECT
 10
6597.0
 20
-116.99999541468151
 30
0.0
 11
6597.0
 21
-131.99999541468151
 31
0.0
1001
ACDBBLOCKREPETAG
1070
     1
1071
       53
1005
1289AB
  0
LINE
  5
1289FA
  8
OBJECT
 10
6597.0
 20
-234.99999541468151
 30
0.0
 11
6633.0
 21
-234.99999541468151
 31
0.0
1001
ACDBBLOCKREPETAG
1070
     1
1071
       54
1005
1289AC
  0
LINE
  5
1289FB
  8
OBJECT
 10
6593.0
 20
-121.49999541468151
 30
0.0
 11
6586.0
 21
-121.49999541468151
 31
0.0
1001
ACDBBLOCKREPETAG
1070
     1
1071
       55
1005
1289AD
  0
LINE
  5
1289FC
  8
OBJECT
 10
6586.0
 20
-230.49999541468151
 30
0.0
 11
6593.0
 21
-230.49999541468151
 31
0.0
1001
ACDBBLOCKREPETAG
1070
     1
1071
       56
1005
1289AE
  0
LINE
  5
1289FD
  8
OBJECT
 10
6593.0
 20
-136.49999541468151
 30
0.0
 11
6593.0
 21
-121.49999541468151
 31
0.0
1001
ACDBBLOCKREPETAG
1070
     1
1071
       57
1005
1289AF
  0
LINE
  5
1289FE
  8
OBJECT
 10
6597.0
 20
-116.99999541468151
 30
0.0
 11
6593.0
 21
-121.49999541468151
 31
0.0
1001
ACDBBLOCKREPETAG
1070
     1
1071
       58
1005
1289B0
  0
LINE
  5
1289FF
  8
OBJECT
 10
6597.0
 20
-234.99999541468151
 30
0.0
 11
6593.0
 21
-230.49999541468151
 31
0.0
1001
ACDBBLOCKREPETAG
1070
     1
1071
       59
1005
1289B1
  0
LINE
  5
128A00
  8
OBJECT
 10
6633.0
 20
-237.99999541468151
 30
0.0
 11
6640.0
 21
-237.99999541468151
 31
0.0
1001
ACDBBLOCKREPETAG
1070
     1
1071
       47
1005
1289A5
  0
LINE
  5
128A01
  8
OBJECT
 10
6640.0
 20
-237.99999541468151
 30
0.0
 11
6640.0
 21
-222.99999541468159
 31
0.0
1001
ACDBBLOCKREPETAG
1070
     1
1071
       48
1005
1289A6
  0
LINE
  5
128A02
  8
OBJECT
 10
6633.0
 20
-222.99999541468159
 30
0.0
 11
6633.0
 21
-237.99999541468151
 31
0.0
1001
ACDBBLOCKREPETAG
1070
     1
1071
       50
1005
1289A8
  0
LINE
  5
128A03
  8
OBJECT
 10
6633.0
 20
-234.99999541468151
 30
0.0
 11
6597.0
 21
-234.99999541468151
 31
0.0
1001
ACDBBLOCKREPETAG
1070
     1
1071
       52
1005
1289AA
  0
LINE
  5
128A04
  8
OBJECT
 10
6597.0
 20
-234.99999541468151
 30
0.0
 11
6597.0
 21
-219.99999541468151
 31
0.0
1001
ACDBBLOCKREPETAG
1070
     1
1071
       53
1005
1289AB
  0
LINE
  5
128A05
  8
OBJECT
 10
6593.0
 20
-230.49999541468151
 30
0.0
 11
6586.0
 21
-230.49999541468151
 31
0.0
1001
ACDBBLOCKREPETAG
1070
     1
1071
       55
1005
1289AD
  0
LINE
  5
128A06
  8
OBJECT
 10
6593.0
 20
-215.49999541468151
 30
0.0
 11
6593.0
 21
-230.49999541468151
 31
0.0
1001
ACDBBLOCKREPETAG
1070
     1
1071
       57
1005
1289AF
  0
LINE
  5
128A07
  8
OBJECT
 10
6597.0
 20
-234.99999541468151
 30
0.0
 11
6593.0
 21
-230.49999541468151
 31
0.0
1001
ACDBBLOCKREPETAG
1070
     1
1071
       58
1005
1289B0
  0
LINE
  5
128A0F
  8
OBJECT
 10
8633.0
 20
-113.99999541468151
 30
0.0
 11
8640.0
 21
-113.99999541468151
 31
0.0
1001
ACDBBLOCKREPETAG
1070
     1
1071
       47
1005
1289A5
  0
LINE
  5
128A10
  8
OBJECT
 10
8640.0
 20
-113.99999541468151
 30
0.0
 11
8640.0
 21
-128.99999541468151
 31
0.0
1001
ACDBBLOCKREPETAG
1070
     1
1071
       48
1005
1289A6
  0
LINE
  5
128A11
  8
OBJECT
 10
8640.0
 20
-237.99999541468151
 30
0.0
 11
8633.0
 21
-237.99999541468151
 31
0.0
1001
ACDBBLOCKREPETAG
1070
     1
1071
       49
1005
1289A7
  0
LINE
  5
128A12
  8
OBJECT
 10
8633.0
 20
-128.99999541468151
 30
0.0
 11
8633.0
 21
-113.99999541468151
 31
0.0
1001
ACDBBLOCKREPETAG
1070
     1
1071
       50
1005
1289A8
  0
LINE
  5
128A13
  8
OBJECT
 10
8633.0
 20
-116.99999541468151
 30
0.0
 11
8597.0
 21
-116.99999541468151
 31
0.0
1001
ACDBBLOCKREPETAG
1070
     1
1071
       52
1005
1289AA
  0
LINE
  5
128A14
  8
OBJECT
 10
8597.0
 20
-116.99999541468151
 30
0.0
 11
8597.0
 21
-131.99999541468151
 31
0.0
1001
ACDBBLOCKREPETAG
1070
     1
1071
       53
1005
1289AB
  0
LINE
  5
128A15
  8
OBJECT
 10
8597.0
 20
-234.99999541468151
 30
0.0
 11
8633.0
 21
-234.99999541468151
 31
0.0
1001
ACDBBLOCKREPETAG
1070
     1
1071
       54
1005
1289AC
  0
LINE
  5
128A16
  8
OBJECT
 10
8593.0
 20
-121.49999541468151
 30
0.0
 11
8586.0
 21
-121.49999541468151
 31
0.0
1001
ACDBBLOCKREPETAG
1070
     1
1071
       55
1005
1289AD
  0
LINE
  5
128A17
  8
OBJECT
 10
8586.0
 20
-230.49999541468151
 30
0.0
 11
8593.0
 21
-230.49999541468151
 31
0.0
1001
ACDBBLOCKREPETAG
1070
     1
1071
       56
1005
1289AE
  0
LINE
  5
128A18
  8
OBJECT
 10
8593.0
 20
-136.49999541468151
 30
0.0
 11
8593.0
 21
-121.49999541468151
 31
0.0
1001
ACDBBLOCKREPETAG
1070
     1
1071
       57
1005
1289AF
  0
LINE
  5
128A19
  8
OBJECT
 10
8597.0
 20
-116.99999541468151
 30
0.0
 11
8593.0
 21
-121.49999541468151
 31
0.0
1001
ACDBBLOCKREPETAG
1070
     1
1071
       58
1005
1289B0
  0
LINE
  5
128A1A
  8
OBJECT
 10
8597.0
 20
-234.99999541468151
 30
0.0
 11
8593.0
 21
-230.49999541468151
 31
0.0
1001
ACDBBLOCKREPETAG
1070
     1
1071
       59
1005
1289B1
  0
LINE
  5
128A1B
  8
OBJECT
 10
8633.0
 20
-237.99999541468151
 30
0.0
 11
8640.0
 21
-237.99999541468151
 31
0.0
1001
ACDBBLOCKREPETAG
1070
     1
1071
       47
1005
1289A5
  0
LINE
  5
128A1C
  8
OBJECT
 10
8640.0
 20
-237.99999541468151
 30
0.0
 11
8640.0
 21
-222.99999541468159
 31
0.0
1001
ACDBBLOCKREPETAG
1070
     1
1071
       48
1005
1289A6
  0
LINE
  5
128A1D
  8
OBJECT
 10
8633.0
 20
-222.99999541468159
 30
0.0
 11
8633.0
 21
-237.99999541468151
 31
0.0
1001
ACDBBLOCKREPETAG
1070
     1
1071
       50
1005
1289A8
  0
LINE
  5
128A1E
  8
OBJECT
 10
8633.0
 20
-234.99999541468151
 30
0.0
 11
8597.0
 21
-234.99999541468151
 31
0.0
1001
ACDBBLOCKREPETAG
1070
     1
1071
       52
1005
1289AA
  0
LINE
  5
128A1F
  8
OBJECT
 10
8597.0
 20
-234.99999541468151
 30
0.0
 11
8597.0
 21
-219.99999541468151
 31
0.0
1001
ACDBBLOCKREPETAG
1070
     1
1071
       53
1005
1289AB
  0
LINE
  5
128A20
  8
OBJECT
 10
8593.0
 20
-230.49999541468151
 30
0.0
 11
8586.0
 21
-230.49999541468151
 31
0.0
1001
ACDBBLOCKREPETAG
1070
     1
1071
       55
1005
1289AD
  0
LINE
  5
128A21
  8
OBJECT
 10
8593.0
 20
-215.49999541468151
 30
0.0
 11
8593.0
 21
-230.49999541468151
 31
0.0
1001
ACDBBLOCKREPETAG
1070
     1
1071
       57
1005
1289AF
  0
LINE
  5
128A22
  8
OBJECT
 10
8597.0
 20
-234.99999541468151
 30
0.0
 11
8593.0
 21
-230.49999541468151
 31
0.0
1001
ACDBBLOCKREPETAG
1070
     1
1071
       58
1005
1289B0
  0
LINE
  5
128A2A
  8
OBJECT
 10
10633.0
 20
-113.99999541468151
 30
0.0
 11
10640.0
 21
-113.99999541468151
 31
0.0
1001
ACDBBLOCKREPETAG
1070
     1
1071
       47
1005
1289A5
  0
LINE
  5
128A2B
  8
OBJECT
 10
10640.0
 20
-113.99999541468151
 30
0.0
 11
10640.0
 21
-128.99999541468151
 31
0.0
1001
ACDBBLOCKREPETAG
1070
     1
1071
       48
1005
1289A6
  0
LINE
  5
128A2C
  8
OBJECT
 10
10640.0
 20
-237.99999541468151
 30
0.0
 11
10633.0
 21
-237.99999541468151
 31
0.0
1001
ACDBBLOCKREPETAG
1070
     1
1071
       49
1005
1289A7
  0
LINE
  5
128A2D
  8
OBJECT
 10
10633.0
 20
-128.99999541468151
 30
0.0
 11
10633.0
 21
-113.99999541468151
 31
0.0
1001
ACDBBLOCKREPETAG
1070
     1
1071
       50
1005
1289A8
  0
LINE
  5
128A2E
  8
OBJECT
 10
10633.0
 20
-116.99999541468151
 30
0.0
 11
10597.0
 21
-116.99999541468151
 31
0.0
1001
ACDBBLOCKREPETAG
1070
     1
1071
       52
1005
1289AA
  0
LINE
  5
128A2F
  8
OBJECT
 10
10597.0
 20
-116.99999541468151
 30
0.0
 11
10597.0
 21
-131.99999541468151
 31
0.0
1001
ACDBBLOCKREPETAG
1070
     1
1071
       53
1005
1289AB
  0
LINE
  5
128A30
  8
OBJECT
 10
10597.0
 20
-234.99999541468151
 30
0.0
 11
10633.0
 21
-234.99999541468151
 31
0.0
1001
ACDBBLOCKREPETAG
1070
     1
1071
       54
1005
1289AC
  0
LINE
  5
128A31
  8
OBJECT
 10
10593.0
 20
-121.49999541468151
 30
0.0
 11
10586.0
 21
-121.49999541468151
 31
0.0
1001
ACDBBLOCKREPETAG
1070
     1
1071
       55
1005
1289AD
  0
LINE
  5
128A32
  8
OBJECT
 10
10586.0
 20
-230.49999541468151
 30
0.0
 11
10593.0
 21
-230.49999541468151
 31
0.0
1001
ACDBBLOCKREPETAG
1070
     1
1071
       56
1005
1289AE
  0
LINE
  5
128A33
  8
OBJECT
 10
10593.0
 20
-136.49999541468151
 30
0.0
 11
10593.0
 21
-121.49999541468151
 31
0.0
1001
ACDBBLOCKREPETAG
1070
     1
1071
       57
1005
1289AF
  0
LINE
  5
128A34
  8
OBJECT
 10
10597.0
 20
-116.99999541468151
 30
0.0
 11
10593.0
 21
-121.49999541468151
 31
0.0
1001
ACDBBLOCKREPETAG
1070
     1
1071
       58
1005
1289B0
  0
LINE
  5
128A35
  8
OBJECT
 10
10597.0
 20
-234.99999541468151
 30
0.0
 11
10593.0
 21
-230.49999541468151
 31
0.0
1001
ACDBBLOCKREPETAG
1070
     1
1071
       59
1005
1289B1
  0
LINE
  5
128A36
  8
OBJECT
 10
10633.0
 20
-237.99999541468151
 30
0.0
 11
10640.0
 21
-237.99999541468151
 31
0.0
1001
ACDBBLOCKREPETAG
1070
     1
1071
       47
1005
1289A5
  0
LINE
  5
128A37
  8
OBJECT
 10
10640.0
 20
-237.99999541468151
 30
0.0
 11
10640.0
 21
-222.99999541468159
 31
0.0
1001
ACDBBLOCKREPETAG
1070
     1
1071
       48
1005
1289A6
  0
LINE
  5
128A38
  8
OBJECT
 10
10633.0
 20
-222.99999541468159
 30
0.0
 11
10633.0
 21
-237.99999541468151
 31
0.0
1001
ACDBBLOCKREPETAG
1070
     1
1071
       50
1005
1289A8
  0
LINE
  5
128A39
  8
OBJECT
 10
10633.0
 20
-234.99999541468151
 30
0.0
 11
10597.0
 21
-234.99999541468151
 31
0.0
1001
ACDBBLOCKREPETAG
1070
     1
1071
       52
1005
1289AA
  0
LINE
  5
128A3A
  8
OBJECT
 10
10597.0
 20
-234.99999541468151
 30
0.0
 11
10597.0
 21
-219.99999541468151
 31
0.0
1001
ACDBBLOCKREPETAG
1070
     1
1071
       53
1005
1289AB
  0
LINE
  5
128A3B
  8
OBJECT
 10
10593.0
 20
-230.49999541468151
 30
0.0
 11
10586.0
 21
-230.49999541468151
 31
0.0
1001
ACDBBLOCKREPETAG
1070
     1
1071
       55
1005
1289AD
  0
LINE
  5
128A3C
  8
OBJECT
 10
10593.0
 20
-215.49999541468151
 30
0.0
 11
10593.0
 21
-230.49999541468151
 31
0.0
1001
ACDBBLOCKREPETAG
1070
     1
1071
       57
1005
1289AF
  0
LINE
  5
128A3D
  8
OBJECT
 10
10597.0
 20
-234.99999541468151
 30
0.0
 11
10593.0
 21
-230.49999541468151
 31
0.0
1001
ACDBBLOCKREPETAG
1070
     1
1071
       58
1005
1289B0
  0
LINE
  5
128A45
  8
OBJECT
 10
12633.0
 20
-113.99999541468151
 30
0.0
 11
12640.0
 21
-113.99999541468151
 31
0.0
1001
ACDBBLOCKREPETAG
1070
     1
1071
       47
1005
1289A5
  0
LINE
  5
128A46
  8
OBJECT
 10
12640.0
 20
-113.99999541468151
 30
0.0
 11
12640.0
 21
-128.99999541468151
 31
0.0
1001
ACDBBLOCKREPETAG
1070
     1
1071
       48
1005
1289A6
  0
LINE
  5
128A47
  8
OBJECT
 10
12640.0
 20
-237.99999541468151
 30
0.0
 11
12633.0
 21
-237.99999541468151
 31
0.0
1001
ACDBBLOCKREPETAG
1070
     1
1071
       49
1005
1289A7
  0
LINE
  5
128A48
  8
OBJECT
 10
12633.0
 20
-128.99999541468151
 30
0.0
 11
12633.0
 21
-113.99999541468151
 31
0.0
1001
ACDBBLOCKREPETAG
1070
     1
1071
       50
1005
1289A8
  0
LINE
  5
128A49
  8
OBJECT
 10
12633.0
 20
-116.99999541468151
 30
0.0
 11
12597.0
 21
-116.99999541468151
 31
0.0
1001
ACDBBLOCKREPETAG
1070
     1
1071
       52
1005
1289AA
  0
LINE
  5
128A4A
  8
OBJECT
 10
12597.0
 20
-116.99999541468151
 30
0.0
 11
12597.0
 21
-131.99999541468151
 31
0.0
1001
ACDBBLOCKREPETAG
1070
     1
1071
       53
1005
1289AB
  0
LINE
  5
128A4B
  8
OBJECT
 10
12597.0
 20
-234.99999541468151
 30
0.0
 11
12633.0
 21
-234.99999541468151
 31
0.0
1001
ACDBBLOCKREPETAG
1070
     1
1071
       54
1005
1289AC
  0
LINE
  5
128A4C
  8
OBJECT
 10
12593.0
 20
-121.49999541468151
 30
0.0
 11
12586.0
 21
-121.49999541468151
 31
0.0
1001
ACDBBLOCKREPETAG
1070
     1
1071
       55
1005
1289AD
  0
LINE
  5
128A4D
  8
OBJECT
 10
12586.0
 20
-230.49999541468151
 30
0.0
 11
12593.0
 21
-230.49999541468151
 31
0.0
1001
ACDBBLOCKREPETAG
1070
     1
1071
       56
1005
1289AE
  0
LINE
  5
128A4E
  8
OBJECT
 10
12593.0
 20
-136.49999541468151
 30
0.0
 11
12593.0
 21
-121.49999541468151
 31
0.0
1001
ACDBBLOCKREPETAG
1070
     1
1071
       57
1005
1289AF
  0
LINE
  5
128A4F
  8
OBJECT
 10
12597.0
 20
-116.99999541468151
 30
0.0
 11
12593.0
 21
-121.49999541468151
 31
0.0
1001
ACDBBLOCKREPETAG
1070
     1
1071
       58
1005
1289B0
  0
LINE
  5
128A50
  8
OBJECT
 10
12597.0
 20
-234.99999541468151
 30
0.0
 11
12593.0
 21
-230.49999541468151
 31
0.0
1001
ACDBBLOCKREPETAG
1070
     1
1071
       59
1005
1289B1
  0
LINE
  5
128A51
  8
OBJECT
 10
12633.0
 20
-237.99999541468151
 30
0.0
 11
12640.0
 21
-237.99999541468151
 31
0.0
1001
ACDBBLOCKREPETAG
1070
     1
1071
       47
1005
1289A5
  0
LINE
  5
128A52
  8
OBJECT
 10
12640.0
 20
-237.99999541468151
 30
0.0
 11
12640.0
 21
-222.99999541468159
 31
0.0
1001
ACDBBLOCKREPETAG
1070
     1
1071
       48
1005
1289A6
  0
LINE
  5
128A53
  8
OBJECT
 10
12633.0
 20
-222.99999541468159
 30
0.0
 11
12633.0
 21
-237.99999541468151
 31
0.0
1001
ACDBBLOCKREPETAG
1070
     1
1071
       50
1005
1289A8
  0
LINE
  5
128A54
  8
OBJECT
 10
12633.0
 20
-234.99999541468151
 30
0.0
 11
12597.0
 21
-234.99999541468151
 31
0.0
1001
ACDBBLOCKREPETAG
1070
     1
1071
       52
1005
1289AA
  0
LINE
  5
128A55
  8
OBJECT
 10
12597.0
 20
-234.99999541468151
 30
0.0
 11
12597.0
 21
-219.99999541468151
 31
0.0
1001
ACDBBLOCKREPETAG
1070
     1
1071
       53
1005
1289AB
  0
LINE
  5
128A56
  8
OBJECT
 10
12593.0
 20
-230.49999541468151
 30
0.0
 11
12586.0
 21
-230.49999541468151
 31
0.0
1001
ACDBBLOCKREPETAG
1070
     1
1071
       55
1005
1289AD
  0
LINE
  5
128A57
  8
OBJECT
 10
12593.0
 20
-215.49999541468151
 30
0.0
 11
12593.0
 21
-230.49999541468151
 31
0.0
1001
ACDBBLOCKREPETAG
1070
     1
1071
       57
1005
1289AF
  0
LINE
  5
128A58
  8
OBJECT
 10
12597.0
 20
-234.99999541468151
 30
0.0
 11
12593.0
 21
-230.49999541468151
 31
0.0
1001
ACDBBLOCKREPETAG
1070
     1
1071
       58
1005
1289B0
  0
LINE
  5
12A295
  8
DIM
 10
12665.0
 20
-711.0
 30
0.0
 11
12719.424581672751
 21
-711.0
 31
0.0
  0
LINE
  5
12A296
  8
DIM
 10
12650.0
 20
-1011.0
 30
0.0
 11
12719.424581672751
 21
-1011.0
 31
0.0
  0
LINE
  5
12A297
  8
DIM
 10
12709.424581672751
 20
-731.0
 30
0.0
 11
12709.424581672751
 21
-991.0
 31
0.0
  0
INSERT
  5
12A298
  8
DIM
  2
_OPEN30
 10
12709.424581672751
 20
-711.0
 30
0.0
 41
20.0
 42
20.0
 43
20.0
 50
90.0
  0
INSERT
  5
12A299
  8
DIM
  2
_OPEN30
 10
12709.424581672751
 20
-1011.0
 30
0.0
 41
20.0
 42
20.0
 43
20.0
 50
270.0
  0
INSERT
  5
12A29A
  8
SLIM
  2
*U8
 10
0.0
 20
0.0
 30
0.0
  0
LINE
  5
12A29B
  8
OBJECT
 10
12633.0
 20
-664.0
 30
0.0
 11
12640.0
 21
-664.0
 31
0.0
1001
ACDBBLOCKREPETAG
1070
     1
1071
        7
1005
12A29B
  0
LINE
  5
12A29C
  8
OBJECT
 10
12640.0
 20
-664.0
 30
0.0
 11
12640.0
 21
-755.0
 31
0.0
1001
ACDBBLOCKREPETAG
1070
     1
1071
        8
1005
12A29C
  0
LINE
  5
12A29D
  8
OBJECT
 10
12633.0
 20
-755.0
 30
0.0
 11
12633.0
 21
-664.0
 31
0.0
1001
ACDBBLOCKREPETAG
1070
     1
1071
        9
1005
12A29D
  0
LINE
  5
12A29E
  8
CENTER
 10
12655.0
 20
-711.0
 30
0.0
 11
12571.0
 21
-711.0
 31
0.0
1001
ACDBBLOCKREPETAG
1070
     1
1071
       10
1005
12A29E
  0
LINE
  5
12A29F
  8
OBJECT
 10
12633.0
 20
-667.0
 30
0.0
 11
12597.0
 21
-667.0
 31
0.0
1001
ACDBBLOCKREPETAG
1070
     1
1071
       11
1005
12A29F
  0
LINE
  5
12A2A0
  8
OBJECT
 10
12597.0
 20
-667.0
 30
0.0
 11
12597.0
 21
-755.0
 31
0.0
1001
ACDBBLOCKREPETAG
1070
     1
1071
       12
1005
12A2A0
  0
LINE
  5
12A2A1
  8
OBJECT
 10
12597.0
 20
-755.0
 30
0.0
 11
12640.0
 21
-755.0
 31
0.0
1001
ACDBBLOCKREPETAG
1070
     1
1071
       13
1005
12A2A1
  0
LINE
  5
12A2A2
  8
OBJECT
 10
12593.0
 20
-671.49999999999977
 30
0.0
 11
12586.0
 21
-671.49999999999977
 31
0.0
1001
ACDBBLOCKREPETAG
1070
     1
1071
       14
1005
12A2A2
  0
LINE
  5
12A2A3
  8
OBJECT
 10
12586.0
 20
-750.49999999999989
 30
0.0
 11
12593.0
 21
-750.49999999999989
 31
0.0
1001
ACDBBLOCKREPETAG
1070
     1
1071
       15
1005
12A2A3
  0
LINE
  5
12A2A4
  8
OBJECT
 10
12593.0
 20
-750.49999999999989
 30
0.0
 11
12593.0
 21
-671.49999999999977
 31
0.0
1001
ACDBBLOCKREPETAG
1070
     1
1071
       16
1005
12A2A4
  0
LINE
  5
12A2A5
  8
OBJECT
 10
12597.0
 20
-667.0
 30
0.0
 11
12593.0
 21
-671.49999999999977
 31
0.0
1001
ACDBBLOCKREPETAG
1070
     1
1071
       17
1005
12A2A5
  0
LINE
  5
12A2A6
  8
OBJECT
 10
12597.0
 20
-755.0
 30
0.0
 11
12593.0
 21
-750.49999999999989
 31
0.0
1001
ACDBBLOCKREPETAG
1070
     1
1071
       18
1005
12A2A6
  0
LINE
  5
12A2A7
  8
OBJECT
 10
12583.0
 20
-634.0
 30
0.0
 11
12580.0
 21
-634.0
 31
0.0
1001
ACDBBLOCKREPETAG
1070
     1
1071
       19
1005
12A2A7
  0
ARC
  5
12A2A8
  8
OBJECT
 10
12583.0
 20
-637.0
 30
0.0
 40
3.0
 50
0.0
 51
90.0
1001
ACDBBLOCKREPETAG
1070
     1
1071
       20
1005
12A2A8
  0
LINE
  5
12A2A9
  8
OBJECT
 10
12580.0
 20
-758.0
 30
0.0
 11
12583.0
 21
-758.0
 31
0.0
1001
ACDBBLOCKREPETAG
1070
     1
1071
       21
1005
12A2A9
  0
ARC
  5
12A2AA
  8
OBJECT
 10
12583.0
 20
-755.0
 30
0.0
 40
3.0
 50
270.0
 51
0.0
1001
ACDBBLOCKREPETAG
1070
     1
1071
       22
1005
12A2AA
  0
LINE
  5
12A2AB
  8
OBJECT
 10
12586.0
 20
-755.0
 30
0.0
 11
12586.0
 21
-637.0
 31
0.0
1001
ACDBBLOCKREPETAG
1070
     1
1071
       23
1005
12A2AB
  0
LINE
  5
12A2AC
  8
HIDDEN
 10
12588.0
 20
-681.0
 30
0.0
 11
12588.0
 21
-741.0
 31
0.0
1001
ACDBBLOCKREPETAG
1070
     1
1071
       24
1005
12A2AC
  0
LINE
  5
12A2AD
  8
DIM
 10
10665.0
 20
-711.0
 30
0.0
 11
10719.424581672751
 21
-711.0
 31
0.0
  0
LINE
  5
12A2AE
  8
DIM
 10
10650.0
 20
-1011.0
 30
0.0
 11
10719.424581672751
 21
-1011.0
 31
0.0
  0
LINE
  5
12A2AF
  8
DIM
 10
10709.424581672751
 20
-731.0
 30
0.0
 11
10709.424581672751
 21
-991.0
 31
0.0
  0
INSERT
  5
12A2B0
  8
DIM
  2
_OPEN30
 10
10709.424581672751
 20
-711.0
 30
0.0
 41
20.0
 42
20.0
 43
20.0
 50
90.0
  0
INSERT
  5
12A2B1
  8
DIM
  2
_OPEN30
 10
10709.424581672751
 20
-1011.0
 30
0.0
 41
20.0
 42
20.0
 43
20.0
 50
270.0
  0
INSERT
  5
12A2B2
  8
SLIM
  2
*U9
 10
0.0
 20
0.0
 30
0.0
  0
LINE
  5
12A2B3
  8
OBJECT
 10
10633.0
 20
-664.0
 30
0.0
 11
10640.0
 21
-664.0
 31
0.0
1001
ACDBBLOCKREPETAG
1070
     1
1071
        7
1005
12A2B3
  0
LINE
  5
12A2B4
  8
OBJECT
 10
10640.0
 20
-664.0
 30
0.0
 11
10640.0
 21
-755.0
 31
0.0
1001
ACDBBLOCKREPETAG
1070
     1
1071
        8
1005
12A2B4
  0
LINE
  5
12A2B5
  8
OBJECT
 10
10633.0
 20
-755.0
 30
0.0
 11
10633.0
 21
-664.0
 31
0.0
1001
ACDBBLOCKREPETAG
1070
     1
1071
        9
1005
12A2B5
  0
LINE
  5
12A2B6
  8
CENTER
 10
10655.0
 20
-711.0
 30
0.0
 11
10571.0
 21
-711.0
 31
0.0
1001
ACDBBLOCKREPETAG
1070
     1
1071
       10
1005
12A2B6
  0
LINE
  5
12A2B7
  8
OBJECT
 10
10633.0
 20
-667.0
 30
0.0
 11
10597.0
 21
-667.0
 31
0.0
1001
ACDBBLOCKREPETAG
1070
     1
1071
       11
1005
12A2B7
  0
LINE
  5
12A2B8
  8
OBJECT
 10
10597.0
 20
-667.0
 30
0.0
 11
10597.0
 21
-755.0
 31
0.0
1001
ACDBBLOCKREPETAG
1070
     1
1071
       12
1005
12A2B8
  0
LINE
  5
12A2B9
  8
OBJECT
 10
10597.0
 20
-755.0
 30
0.0
 11
10640.0
 21
-755.0
 31
0.0
1001
ACDBBLOCKREPETAG
1070
     1
1071
       13
1005
12A2B9
  0
LINE
  5
12A2BA
  8
OBJECT
 10
10593.0
 20
-671.49999999999977
 30
0.0
 11
10586.0
 21
-671.49999999999977
 31
0.0
1001
ACDBBLOCKREPETAG
1070
     1
1071
       14
1005
12A2BA
  0
LINE
  5
12A2BB
  8
OBJECT
 10
10586.0
 20
-750.49999999999989
 30
0.0
 11
10593.0
 21
-750.49999999999989
 31
0.0
1001
ACDBBLOCKREPETAG
1070
     1
1071
       15
1005
12A2BB
  0
LINE
  5
12A2BC
  8
OBJECT
 10
10593.0
 20
-750.49999999999989
 30
0.0
 11
10593.0
 21
-671.49999999999977
 31
0.0
1001
ACDBBLOCKREPETAG
1070
     1
1071
       16
1005
12A2BC
  0
LINE
  5
12A2BD
  8
OBJECT
 10
10597.0
 20
-667.0
 30
0.0
 11
10593.0
 21
-671.49999999999977
 31
0.0
1001
ACDBBLOCKREPETAG
1070
     1
1071
       17
1005
12A2BD
  0
LINE
  5
12A2BE
  8
OBJECT
 10
10597.0
 20
-755.0
 30
0.0
 11
10593.0
 21
-750.49999999999989
 31
0.0
1001
ACDBBLOCKREPETAG
1070
     1
1071
       18
1005
12A2BE
  0
LINE
  5
12A2BF
  8
OBJECT
 10
10583.0
 20
-634.0
 30
0.0
 11
10580.0
 21
-634.0
 31
0.0
1001
ACDBBLOCKREPETAG
1070
     1
1071
       19
1005
12A2BF
  0
ARC
  5
12A2C0
  8
OBJECT
 10
10583.0
 20
-637.0
 30
0.0
 40
3.0
 50
0.0
 51
90.0
1001
ACDBBLOCKREPETAG
1070
     1
1071
       20
1005
12A2C0
  0
LINE
  5
12A2C1
  8
OBJECT
 10
10580.0
 20
-758.0
 30
0.0
 11
10583.0
 21
-758.0
 31
0.0
1001
ACDBBLOCKREPETAG
1070
     1
1071
       21
1005
12A2C1
  0
ARC
  5
12A2C2
  8
OBJECT
 10
10583.0
 20
-755.0
 30
0.0
 40
3.0
 50
270.0
 51
0.0
1001
ACDBBLOCKREPETAG
1070
     1
1071
       22
1005
12A2C2
  0
LINE
  5
12A2C3
  8
OBJECT
 10
10586.0
 20
-755.0
 30
0.0
 11
10586.0
 21
-637.0
 31
0.0
1001
ACDBBLOCKREPETAG
1070
     1
1071
       23
1005
12A2C3
  0
LINE
  5
12A2C4
  8
HIDDEN
 10
10588.0
 20
-681.0
 30
0.0
 11
10588.0
 21
-741.0
 31
0.0
1001
ACDBBLOCKREPETAG
1070
     1
1071
       24
1005
12A2C4
  0
LINE
  5
12A2C5
  8
DIM
 10
8665.0
 20
-711.0
 30
0.0
 11
8719.4245816727544
 21
-711.0
 31
0.0
  0
LINE
  5
12A2C6
  8
DIM
 10
8650.0
 20
-1011.0
 30
0.0
 11
8719.4245816727544
 21
-1011.0
 31
0.0
  0
LINE
  5
12A2C7
  8
DIM
 10
8709.4245816727544
 20
-731.0
 30
0.0
 11
8709.4245816727544
 21
-991.0
 31
0.0
  0
INSERT
  5
12A2C8
  8
DIM
  2
_OPEN30
 10
8709.4245816727544
 20
-711.0
 30
0.0
 41
20.0
 42
20.0
 43
20.0
 50
90.0
  0
INSERT
  5
12A2C9
  8
DIM
  2
_OPEN30
 10
8709.4245816727544
 20
-1011.0
 30
0.0
 41
20.0
 42
20.0
 43
20.0
 50
270.0
  0
INSERT
  5
12A2CA
  8
SLIM
  2
*U10
 10
0.0
 20
0.0
 30
0.0
  0
LINE
  5
12A2CB
  8
OBJECT
 10
8633.0
 20
-664.0
 30
0.0
 11
8640.0
 21
-664.0
 31
0.0
1001
ACDBBLOCKREPETAG
1070
     1
1071
        7
1005
12A2CB
  0
LINE
  5
12A2CC
  8
OBJECT
 10
8640.0
 20
-664.0
 30
0.0
 11
8640.0
 21
-755.0
 31
0.0
1001
ACDBBLOCKREPETAG
1070
     1
1071
        8
1005
12A2CC
  0
LINE
  5
12A2CD
  8
OBJECT
 10
8633.0
 20
-755.0
 30
0.0
 11
8633.0
 21
-664.0
 31
0.0
1001
ACDBBLOCKREPETAG
1070
     1
1071
        9
1005
12A2CD
  0
LINE
  5
12A2CE
  8
CENTER
 10
8655.0
 20
-711.0
 30
0.0
 11
8571.0
 21
-711.0
 31
0.0
1001
ACDBBLOCKREPETAG
1070
     1
1071
       10
1005
12A2CE
  0
LINE
  5
12A2CF
  8
OBJECT
 10
8633.0
 20
-667.0
 30
0.0
 11
8597.0
 21
-667.0
 31
0.0
1001
ACDBBLOCKREPETAG
1070
     1
1071
       11
1005
12A2CF
  0
LINE
  5
12A2D0
  8
OBJECT
 10
8597.0
 20
-667.0
 30
0.0
 11
8597.0
 21
-755.0
 31
0.0
1001
ACDBBLOCKREPETAG
1070
     1
1071
       12
1005
12A2D0
  0
LINE
  5
12A2D1
  8
OBJECT
 10
8597.0
 20
-755.0
 30
0.0
 11
8640.0
 21
-755.0
 31
0.0
1001
ACDBBLOCKREPETAG
1070
     1
1071
       13
1005
12A2D1
  0
LINE
  5
12A2D2
  8
OBJECT
 10
8593.0
 20
-671.49999999999977
 30
0.0
 11
8586.0
 21
-671.49999999999977
 31
0.0
1001
ACDBBLOCKREPETAG
1070
     1
1071
       14
1005
12A2D2
  0
LINE
  5
12A2D3
  8
OBJECT
 10
8586.0
 20
-750.49999999999989
 30
0.0
 11
8593.0
 21
-750.49999999999989
 31
0.0
1001
ACDBBLOCKREPETAG
1070
     1
1071
       15
1005
12A2D3
  0
LINE
  5
12A2D4
  8
OBJECT
 10
8593.0
 20
-750.49999999999989
 30
0.0
 11
8593.0
 21
-671.49999999999977
 31
0.0
1001
ACDBBLOCKREPETAG
1070
     1
1071
       16
1005
12A2D4
  0
LINE
  5
12A2D5
  8
OBJECT
 10
8597.0
 20
-667.0
 30
0.0
 11
8593.0
 21
-671.49999999999977
 31
0.0
1001
ACDBBLOCKREPETAG
1070
     1
1071
       17
1005
12A2D5
  0
LINE
  5
12A2D6
  8
OBJECT
 10
8597.0
 20
-755.0
 30
0.0
 11
8593.0
 21
-750.49999999999989
 31
0.0
1001
ACDBBLOCKREPETAG
1070
     1
1071
       18
1005
12A2D6
  0
LINE
  5
12A2D7
  8
OBJECT
 10
8583.0
 20
-634.0
 30
0.0
 11
8580.0
 21
-634.0
 31
0.0
1001
ACDBBLOCKREPETAG
1070
     1
1071
       19
1005
12A2D7
  0
ARC
  5
12A2D8
  8
OBJECT
 10
8583.0
 20
-637.0
 30
0.0
 40
3.0
 50
0.0
 51
90.0
1001
ACDBBLOCKREPETAG
1070
     1
1071
       20
1005
12A2D8
  0
LINE
  5
12A2D9
  8
OBJECT
 10
8580.0
 20
-758.0
 30
0.0
 11
8583.0
 21
-758.0
 31
0.0
1001
ACDBBLOCKREPETAG
1070
     1
1071
       21
1005
12A2D9
  0
ARC
  5
12A2DA
  8
OBJECT
 10
8583.0
 20
-755.0
 30
0.0
 40
3.0
 50
270.0
 51
0.0
1001
ACDBBLOCKREPETAG
1070
     1
1071
       22
1005
12A2DA
  0
LINE
  5
12A2DB
  8
OBJECT
 10
8586.0
 20
-755.0
 30
0.0
 11
8586.0
 21
-637.0
 31
0.0
1001
ACDBBLOCKREPETAG
1070
     1
1071
       23
1005
12A2DB
  0
LINE
  5
12A2DC
  8
HIDDEN
 10
8588.0
 20
-681.0
 30
0.0
 11
8588.0
 21
-741.0
 31
0.0
1001
ACDBBLOCKREPETAG
1070
     1
1071
       24
1005
12A2DC
  0
LINE
  5
12A2DD
  8
DIM
 10
6665.0
 20
-711.0
 30
0.0
 11
6719.4245816727562
 21
-711.0
 31
0.0
  0
LINE
  5
12A2DE
  8
DIM
 10
6650.0
 20
-1011.0
 30
0.0
 11
6719.4245816727562
 21
-1011.0
 31
0.0
  0
LINE
  5
12A2DF
  8
DIM
 10
6709.4245816727562
 20
-731.0
 30
0.0
 11
6709.4245816727562
 21
-991.0
 31
0.0
  0
INSERT
  5
12A2E0
  8
DIM
  2
_OPEN30
 10
6709.4245816727562
 20
-711.0
 30
0.0
 41
20.0
 42
20.0
 43
20.0
 50
90.0
  0
INSERT
  5
12A2E1
  8
DIM
  2
_OPEN30
 10
6709.4245816727562
 20
-1011.0
 30
0.0
 41
20.0
 42
20.0
 43
20.0
 50
270.0
  0
INSERT
  5
12A2E2
  8
SLIM
  2
*U11
 10
0.0
 20
0.0
 30
0.0
  0
LINE
  5
12A2E3
  8
OBJECT
 10
6633.0
 20
-664.0
 30
0.0
 11
6640.0
 21
-664.0
 31
0.0
1001
ACDBBLOCKREPETAG
1070
     1
1071
        7
1005
12A2E3
  0
LINE
  5
12A2E4
  8
OBJECT
 10
6640.0
 20
-664.0
 30
0.0
 11
6640.0
 21
-755.0
 31
0.0
1001
ACDBBLOCKREPETAG
1070
     1
1071
        8
1005
12A2E4
  0
LINE
  5
12A2E5
  8
OBJECT
 10
6633.0
 20
-755.0
 30
0.0
 11
6633.0
 21
-664.0
 31
0.0
1001
ACDBBLOCKREPETAG
1070
     1
1071
        9
1005
12A2E5
  0
LINE
  5
12A2E6
  8
CENTER
 10
6655.0
 20
-711.0
 30
0.0
 11
6571.0
 21
-711.0
 31
0.0
1001
ACDBBLOCKREPETAG
1070
     1
1071
       10
1005
12A2E6
  0
LINE
  5
12A2E7
  8
OBJECT
 10
6633.0
 20
-667.0
 30
0.0
 11
6597.0
 21
-667.0
 31
0.0
1001
ACDBBLOCKREPETAG
1070
     1
1071
       11
1005
12A2E7
  0
LINE
  5
12A2E8
  8
OBJECT
 10
6597.0
 20
-667.0
 30
0.0
 11
6597.0
 21
-755.0
 31
0.0
1001
ACDBBLOCKREPETAG
1070
     1
1071
       12
1005
12A2E8
  0
LINE
  5
12A2E9
  8
OBJECT
 10
6597.0
 20
-755.0
 30
0.0
 11
6640.0
 21
-755.0
 31
0.0
1001
ACDBBLOCKREPETAG
1070
     1
1071
       13
1005
12A2E9
  0
LINE
  5
12A2EA
  8
OBJECT
 10
6593.0
 20
-671.49999999999977
 30
0.0
 11
6586.0
 21
-671.49999999999977
 31
0.0
1001
ACDBBLOCKREPETAG
1070
     1
1071
       14
1005
12A2EA
  0
LINE
  5
12A2EB
  8
OBJECT
 10
6586.0
 20
-750.49999999999989
 30
0.0
 11
6593.0
 21
-750.49999999999989
 31
0.0
1001
ACDBBLOCKREPETAG
1070
     1
1071
       15
1005
12A2EB
  0
LINE
  5
12A2EC
  8
OBJECT
 10
6593.0
 20
-750.49999999999989
 30
0.0
 11
6593.0
 21
-671.49999999999977
 31
0.0
1001
ACDBBLOCKREPETAG
1070
     1
1071
       16
1005
12A2EC
  0
LINE
  5
12A2ED
  8
OBJECT
 10
6597.0
 20
-667.0
 30
0.0
 11
6593.0
 21
-671.49999999999977
 31
0.0
1001
ACDBBLOCKREPETAG
1070
     1
1071
       17
1005
12A2ED
  0
LINE
  5
12A2EE
  8
OBJECT
 10
6597.0
 20
-755.0
 30
0.0
 11
6593.0
 21
-750.49999999999989
 31
0.0
1001
ACDBBLOCKREPETAG
1070
     1
1071
       18
1005
12A2EE
  0
LINE
  5
12A2EF
  8
OBJECT
 10
6583.0
 20
-634.0
 30
0.0
 11
6580.0
 21
-634.0
 31
0.0
1001
ACDBBLOCKREPETAG
1070
     1
1071
       19
1005
12A2EF
  0
ARC
  5
12A2F0
  8
OBJECT
 10
6583.0
 20
-637.0
 30
0.0
 40
3.0
 50
0.0
 51
90.0
1001
ACDBBLOCKREPETAG
1070
     1
1071
       20
1005
12A2F0
  0
LINE
  5
12A2F1
  8
OBJECT
 10
6580.0
 20
-758.0
 30
0.0
 11
6583.0
 21
-758.0
 31
0.0
1001
ACDBBLOCKREPETAG
1070
     1
1071
       21
1005
12A2F1
  0
ARC
  5
12A2F2
  8
OBJECT
 10
6583.0
 20
-755.0
 30
0.0
 40
3.0
 50
270.0
 51
0.0
1001
ACDBBLOCKREPETAG
1070
     1
1071
       22
1005
12A2F2
  0
LINE
  5
12A2F3
  8
OBJECT
 10
6586.0
 20
-755.0
 30
0.0
 11
6586.0
 21
-637.0
 31
0.0
1001
ACDBBLOCKREPETAG
1070
     1
1071
       23
1005
12A2F3
  0
LINE
  5
12A2F4
  8
HIDDEN
 10
6588.0
 20
-681.0
 30
0.0
 11
6588.0
 21
-741.0
 31
0.0
1001
ACDBBLOCKREPETAG
1070
     1
1071
       24
1005
12A2F4
  0
LINE
  5
12A2F5
  8
DIM
 10
4665.0
 20
-711.0
 30
0.0
 11
4719.4245816727571
 21
-711.0
 31
0.0
  0
LINE
  5
12A2F6
  8
DIM
 10
4650.0
 20
-1011.0
 30
0.0
 11
4719.4245816727571
 21
-1011.0
 31
0.0
  0
LINE
  5
12A2F7
  8
DIM
 10
4709.4245816727562
 20
-731.0
 30
0.0
 11
4709.4245816727562
 21
-991.0
 31
0.0
  0
INSERT
  5
12A2F8
  8
DIM
  2
_OPEN30
 10
4709.4245816727562
 20
-711.0
 30
0.0
 41
20.0
 42
20.0
 43
20.0
 50
90.0
  0
INSERT
  5
12A2F9
  8
DIM
  2
_OPEN30
 10
4709.4245816727562
 20
-1011.0
 30
0.0
 41
20.0
 42
20.0
 43
20.0
 50
270.0
  0
INSERT
  5
12A2FA
  8
SLIM
  2
*U12
 10
0.0
 20
0.0
 30
0.0
  0
LINE
  5
12A2FB
  8
OBJECT
 10
4633.0
 20
-664.0
 30
0.0
 11
4640.0
 21
-664.0
 31
0.0
1001
ACDBBLOCKREPETAG
1070
     1
1071
        7
1005
12A2FB
  0
LINE
  5
12A2FC
  8
OBJECT
 10
4640.0
 20
-664.0
 30
0.0
 11
4640.0
 21
-755.0
 31
0.0
1001
ACDBBLOCKREPETAG
1070
     1
1071
        8
1005
12A2FC
  0
LINE
  5
12A2FD
  8
OBJECT
 10
4633.0
 20
-755.0
 30
0.0
 11
4633.0
 21
-664.0
 31
0.0
1001
ACDBBLOCKREPETAG
1070
     1
1071
        9
1005
12A2FD
  0
LINE
  5
12A2FE
  8
CENTER
 10
4655.0
 20
-711.0
 30
0.0
 11
4571.0
 21
-711.0
 31
0.0
1001
ACDBBLOCKREPETAG
1070
     1
1071
       10
1005
12A2FE
  0
LINE
  5
12A2FF
  8
OBJECT
 10
4633.0
 20
-667.0
 30
0.0
 11
4597.0
 21
-667.0
 31
0.0
1001
ACDBBLOCKREPETAG
1070
     1
1071
       11
1005
12A2FF
  0
LINE
  5
12A300
  8
OBJECT
 10
4597.0
 20
-667.0
 30
0.0
 11
4597.0
 21
-755.0
 31
0.0
1001
ACDBBLOCKREPETAG
1070
     1
1071
       12
1005
12A300
  0
LINE
  5
12A301
  8
OBJECT
 10
4597.0
 20
-755.0
 30
0.0
 11
4640.0
 21
-755.0
 31
0.0
1001
ACDBBLOCKREPETAG
1070
     1
1071
       13
1005
12A301
  0
LINE
  5
12A302
  8
OBJECT
 10
4593.0
 20
-671.49999999999977
 30
0.0
 11
4586.0
 21
-671.49999999999977
 31
0.0
1001
ACDBBLOCKREPETAG
1070
     1
1071
       14
1005
12A302
  0
LINE
  5
12A303
  8
OBJECT
 10
4586.0
 20
-750.49999999999989
 30
0.0
 11
4593.0
 21
-750.49999999999989
 31
0.0
1001
ACDBBLOCKREPETAG
1070
     1
1071
       15
1005
12A303
  0
LINE
  5
12A304
  8
OBJECT
 10
4593.0
 20
-750.49999999999989
 30
0.0
 11
4593.0
 21
-671.49999999999977
 31
0.0
1001
ACDBBLOCKREPETAG
1070
     1
1071
       16
1005
12A304
  0
LINE
  5
12A305
  8
OBJECT
 10
4597.0
 20
-667.0
 30
0.0
 11
4593.0
 21
-671.49999999999977
 31
0.0
1001
ACDBBLOCKREPETAG
1070
     1
1071
       17
1005
12A305
  0
LINE
  5
12A306
  8
OBJECT
 10
4597.0
 20
-755.0
 30
0.0
 11
4593.0
 21
-750.49999999999989
 31
0.0
1001
ACDBBLOCKREPETAG
1070
     1
1071
       18
1005
12A306
  0
LINE
  5
12A307
  8
OBJECT
 10
4583.0
 20
-634.0
 30
0.0
 11
4580.0
 21
-634.0
 31
0.0
1001
ACDBBLOCKREPETAG
1070
     1
1071
       19
1005
12A307
  0
ARC
  5
12A308
  8
OBJECT
 10
4583.0
 20
-637.0
 30
0.0
 40
3.0
 50
0.0
 51
90.0
1001
ACDBBLOCKREPETAG
1070
     1
1071
       20
1005
12A308
  0
LINE
  5
12A309
  8
OBJECT
 10
4580.0
 20
-758.0
 30
0.0
 11
4583.0
 21
-758.0
 31
0.0
1001
ACDBBLOCKREPETAG
1070
     1
1071
       21
1005
12A309
  0
ARC
  5
12A30A
  8
OBJECT
 10
4583.0
 20
-755.0
 30
0.0
 40
3.0
 50
270.0
 51
0.0
1001
ACDBBLOCKREPETAG
1070
     1
1071
       22
1005
12A30A
  0
LINE
  5
12A30B
  8
OBJECT
 10
4586.0
 20
-755.0
 30
0.0
 11
4586.0
 21
-637.0
 31
0.0
1001
ACDBBLOCKREPETAG
1070
     1
1071
       23
1005
12A30B
  0
LINE
  5
12A30C
  8
HIDDEN
 10
4588.0
 20
-681.0
 30
0.0
 11
4588.0
 21
-741.0
 31
0.0
1001
ACDBBLOCKREPETAG
1070
     1
1071
       24
1005
12A30C
  0
LINE
  5
12A30D
  8
OBJECT
 10
12633.0
 20
-128.99999541468151
 30
0.0
 11
12640.0
 21
-128.99999541468151
 31
0.0
1001
ACDBBLOCKREPETAG
1070
     1
1071
        7
1005
12A30D
  0
LINE
  5
12A30E
  8
OBJECT
 10
12640.0
 20
-128.99999541468151
 30
0.0
 11
12640.0
 21
-222.99999541468159
 31
0.0
1001
ACDBBLOCKREPETAG
1070
     1
1071
        8
1005
12A30E
  0
LINE
  5
12A30F
  8
OBJECT
 10
12640.0
 20
-222.99999541468159
 30
0.0
 11
12633.0
 21
-222.99999541468159
 31
0.0
1001
ACDBBLOCKREPETAG
1070
     1
1071
        9
1005
12A30F
  0
LINE
  5
12A310
  8
OBJECT
 10
12633.0
 20
-222.99999541468159
 30
0.0
 11
12633.0
 21
-128.99999541468151
 31
0.0
1001
ACDBBLOCKREPETAG
1070
     1
1071
       10
1005
12A310
  0
LINE
  5
12A311
  8
CENTER
 10
12655.0
 20
-175.99999541468151
 30
0.0
 11
12580.0
 21
-175.99999541468151
 31
0.0
1001
ACDBBLOCKREPETAG
1070
     1
1071
       11
1005
12A311
  0
LINE
  5
12A312
  8
OBJECT
 10
12633.0
 20
-131.99999541468151
 30
0.0
 11
12597.0
 21
-131.99999541468151
 31
0.0
1001
ACDBBLOCKREPETAG
1070
     1
1071
       12
1005
12A312
  0
LINE
  5
12A313
  8
OBJECT
 10
12597.0
 20
-131.99999541468151
 30
0.0
 11
12597.0
 21
-219.99999541468151
 31
0.0
1001
ACDBBLOCKREPETAG
1070
     1
1071
       13
1005
12A313
  0
LINE
  5
12A314
  8
OBJECT
 10
12597.0
 20
-219.99999541468151
 30
0.0
 11
12633.0
 21
-219.99999541468151
 31
0.0
1001
ACDBBLOCKREPETAG
1070
     1
1071
       14
1005
12A314
  0
LINE
  5
12A315
  8
OBJECT
 10
12593.0
 20
-136.49999541468151
 30
0.0
 11
12586.0
 21
-136.49999541468151
 31
0.0
1001
ACDBBLOCKREPETAG
1070
     1
1071
       15
1005
12A315
  0
LINE
  5
12A316
  8
OBJECT
 10
12586.0
 20
-215.49999541468151
 30
0.0
 11
12593.0
 21
-215.49999541468151
 31
0.0
1001
ACDBBLOCKREPETAG
1070
     1
1071
       16
1005
12A316
  0
LINE
  5
12A317
  8
OBJECT
 10
12593.0
 20
-215.49999541468151
 30
0.0
 11
12593.0
 21
-136.49999541468151
 31
0.0
1001
ACDBBLOCKREPETAG
1070
     1
1071
       17
1005
12A317
  0
LINE
  5
12A318
  8
OBJECT
 10
12597.0
 20
-131.99999541468151
 30
0.0
 11
12593.0
 21
-136.49999541468151
 31
0.0
1001
ACDBBLOCKREPETAG
1070
     1
1071
       18
1005
12A318
  0
LINE
  5
12A319
  8
OBJECT
 10
12597.0
 20
-219.99999541468151
 30
0.0
 11
12593.0
 21
-215.49999541468151
 31
0.0
1001
ACDBBLOCKREPETAG
1070
     1
1071
       19
1005
12A319
  0
LINE
  5
12A31A
  8
OBJECT
 10
12583.0
 20
-113.99999541468151
 30
0.0
 11
12580.0
 21
-113.99999541468151
 31
0.0
1001
ACDBBLOCKREPETAG
1070
     1
1071
       20
1005
12A31A
  0
ARC
  5
12A31B
  8
OBJECT
 10
12583.0
 20
-116.99999541468151
 30
0.0
 40
3.0
 50
0.0
 51
90.0
1001
ACDBBLOCKREPETAG
1070
     1
1071
       21
1005
12A31B
  0
LINE
  5
12A31C
  8
OBJECT
 10
12580.0
 20
-237.99999541468151
 30
0.0
 11
12583.0
 21
-237.99999541468151
 31
0.0
1001
ACDBBLOCKREPETAG
1070
     1
1071
       22
1005
12A31C
  0
ARC
  5
12A31D
  8
OBJECT
 10
12583.0
 20
-234.99999541468151
 30
0.0
 40
3.0
 50
270.0
 51
0.0
1001
ACDBBLOCKREPETAG
1070
     1
1071
       23
1005
12A31D
  0
LINE
  5
12A31E
  8
OBJECT
 10
12586.0
 20
-234.99999541468151
 30
0.0
 11
12586.0
 21
-116.99999541468151
 31
0.0
1001
ACDBBLOCKREPETAG
1070
     1
1071
       24
1005
12A31E
  0
LINE
  5
12A31F
  8
HIDDEN
 10
12588.0
 20
-145.99999541468151
 30
0.0
 11
12588.0
 21
-205.99999541468151
 31
0.0
1001
ACDBBLOCKREPETAG
1070
     1
1071
       25
1005
12A31F
  0
LINE
  5
12A320
  8
OBJECT
 10
10633.0
 20
-128.99999541468151
 30
0.0
 11
10640.0
 21
-128.99999541468151
 31
0.0
1001
ACDBBLOCKREPETAG
1070
     1
1071
        7
1005
12A320
  0
LINE
  5
12A321
  8
OBJECT
 10
10640.0
 20
-128.99999541468151
 30
0.0
 11
10640.0
 21
-222.99999541468159
 31
0.0
1001
ACDBBLOCKREPETAG
1070
     1
1071
        8
1005
12A321
  0
LINE
  5
12A322
  8
OBJECT
 10
10640.0
 20
-222.99999541468159
 30
0.0
 11
10633.0
 21
-222.99999541468159
 31
0.0
1001
ACDBBLOCKREPETAG
1070
     1
1071
        9
1005
12A322
  0
LINE
  5
12A323
  8
OBJECT
 10
10633.0
 20
-222.99999541468159
 30
0.0
 11
10633.0
 21
-128.99999541468151
 31
0.0
1001
ACDBBLOCKREPETAG
1070
     1
1071
       10
1005
12A323
  0
LINE
  5
12A324
  8
CENTER
 10
10655.0
 20
-175.99999541468151
 30
0.0
 11
10580.0
 21
-175.99999541468151
 31
0.0
1001
ACDBBLOCKREPETAG
1070
     1
1071
       11
1005
12A324
  0
LINE
  5
12A325
  8
OBJECT
 10
10633.0
 20
-131.99999541468151
 30
0.0
 11
10597.0
 21
-131.99999541468151
 31
0.0
1001
ACDBBLOCKREPETAG
1070
     1
1071
       12
1005
12A325
  0
LINE
  5
12A326
  8
OBJECT
 10
10597.0
 20
-131.99999541468151
 30
0.0
 11
10597.0
 21
-219.99999541468151
 31
0.0
1001
ACDBBLOCKREPETAG
1070
     1
1071
       13
1005
12A326
  0
LINE
  5
12A327
  8
OBJECT
 10
10597.0
 20
-219.99999541468151
 30
0.0
 11
10633.0
 21
-219.99999541468151
 31
0.0
1001
ACDBBLOCKREPETAG
1070
     1
1071
       14
1005
12A327
  0
LINE
  5
12A328
  8
OBJECT
 10
10593.0
 20
-136.49999541468151
 30
0.0
 11
10586.0
 21
-136.49999541468151
 31
0.0
1001
ACDBBLOCKREPETAG
1070
     1
1071
       15
1005
12A328
  0
LINE
  5
12A329
  8
OBJECT
 10
10586.0
 20
-215.49999541468151
 30
0.0
 11
10593.0
 21
-215.49999541468151
 31
0.0
1001
ACDBBLOCKREPETAG
1070
     1
1071
       16
1005
12A329
  0
LINE
  5
12A32A
  8
OBJECT
 10
10593.0
 20
-215.49999541468151
 30
0.0
 11
10593.0
 21
-136.49999541468151
 31
0.0
1001
ACDBBLOCKREPETAG
1070
     1
1071
       17
1005
12A32A
  0
LINE
  5
12A32B
  8
OBJECT
 10
10597.0
 20
-131.99999541468151
 30
0.0
 11
10593.0
 21
-136.49999541468151
 31
0.0
1001
ACDBBLOCKREPETAG
1070
     1
1071
       18
1005
12A32B
  0
LINE
  5
12A32C
  8
OBJECT
 10
10597.0
 20
-219.99999541468151
 30
0.0
 11
10593.0
 21
-215.49999541468151
 31
0.0
1001
ACDBBLOCKREPETAG
1070
     1
1071
       19
1005
12A32C
  0
LINE
  5
12A32D
  8
OBJECT
 10
10583.0
 20
-113.99999541468151
 30
0.0
 11
10580.0
 21
-113.99999541468151
 31
0.0
1001
ACDBBLOCKREPETAG
1070
     1
1071
       20
1005
12A32D
  0
ARC
  5
12A32E
  8
OBJECT
 10
10583.0
 20
-116.99999541468151
 30
0.0
 40
3.0
 50
0.0
 51
90.0
1001
ACDBBLOCKREPETAG
1070
     1
1071
       21
1005
12A32E
  0
LINE
  5
12A32F
  8
OBJECT
 10
10580.0
 20
-237.99999541468151
 30
0.0
 11
10583.0
 21
-237.99999541468151
 31
0.0
1001
ACDBBLOCKREPETAG
1070
     1
1071
       22
1005
12A32F
  0
ARC
  5
12A330
  8
OBJECT
 10
10583.0
 20
-234.99999541468151
 30
0.0
 40
3.0
 50
270.0
 51
0.0
1001
ACDBBLOCKREPETAG
1070
     1
1071
       23
1005
12A330
  0
LINE
  5
12A331
  8
OBJECT
 10
10586.0
 20
-234.99999541468151
 30
0.0
 11
10586.0
 21
-116.99999541468151
 31
0.0
1001
ACDBBLOCKREPETAG
1070
     1
1071
       24
1005
12A331
  0
LINE
  5
12A332
  8
HIDDEN
 10
10588.0
 20
-145.99999541468151
 30
0.0
 11
10588.0
 21
-205.99999541468151
 31
0.0
1001
ACDBBLOCKREPETAG
1070
     1
1071
       25
1005
12A332
  0
LINE
  5
12A333
  8
OBJECT
 10
8633.0
 20
-128.99999541468151
 30
0.0
 11
8640.0
 21
-128.99999541468151
 31
0.0
1001
ACDBBLOCKREPETAG
1070
     1
1071
        7
1005
12A333
  0
LINE
  5
12A334
  8
OBJECT
 10
8640.0
 20
-128.99999541468151
 30
0.0
 11
8640.0
 21
-222.99999541468159
 31
0.0
1001
ACDBBLOCKREPETAG
1070
     1
1071
        8
1005
12A334
  0
LINE
  5
12A335
  8
OBJECT
 10
8640.0
 20
-222.99999541468159
 30
0.0
 11
8633.0
 21
-222.99999541468159
 31
0.0
1001
ACDBBLOCKREPETAG
1070
     1
1071
        9
1005
12A335
  0
LINE
  5
12A336
  8
OBJECT
 10
8633.0
 20
-222.99999541468159
 30
0.0
 11
8633.0
 21
-128.99999541468151
 31
0.0
1001
ACDBBLOCKREPETAG
1070
     1
1071
       10
1005
12A336
  0
LINE
  5
12A337
  8
CENTER
 10
8655.0
 20
-175.99999541468151
 30
0.0
 11
8580.0
 21
-175.99999541468151
 31
0.0
1001
ACDBBLOCKREPETAG
1070
     1
1071
       11
1005
12A337
  0
LINE
  5
12A338
  8
OBJECT
 10
8633.0
 20
-131.99999541468151
 30
0.0
 11
8597.0
 21
-131.99999541468151
 31
0.0
1001
ACDBBLOCKREPETAG
1070
     1
1071
       12
1005
12A338
  0
LINE
  5
12A339
  8
OBJECT
 10
8597.0
 20
-131.99999541468151
 30
0.0
 11
8597.0
 21
-219.99999541468151
 31
0.0
1001
ACDBBLOCKREPETAG
1070
     1
1071
       13
1005
12A339
  0
LINE
  5
12A33A
  8
OBJECT
 10
8597.0
 20
-219.99999541468151
 30
0.0
 11
8633.0
 21
-219.99999541468151
 31
0.0
1001
ACDBBLOCKREPETAG
1070
     1
1071
       14
1005
12A33A
  0
LINE
  5
12A33B
  8
OBJECT
 10
8593.0
 20
-136.49999541468151
 30
0.0
 11
8586.0
 21
-136.49999541468151
 31
0.0
1001
ACDBBLOCKREPETAG
1070
     1
1071
       15
1005
12A33B
  0
LINE
  5
12A33C
  8
OBJECT
 10
8586.0
 20
-215.49999541468151
 30
0.0
 11
8593.0
 21
-215.49999541468151
 31
0.0
1001
ACDBBLOCKREPETAG
1070
     1
1071
       16
1005
12A33C
  0
LINE
  5
12A33D
  8
OBJECT
 10
8593.0
 20
-215.49999541468151
 30
0.0
 11
8593.0
 21
-136.49999541468151
 31
0.0
1001
ACDBBLOCKREPETAG
1070
     1
1071
       17
1005
12A33D
  0
LINE
  5
12A33E
  8
OBJECT
 10
8597.0
 20
-131.99999541468151
 30
0.0
 11
8593.0
 21
-136.49999541468151
 31
0.0
1001
ACDBBLOCKREPETAG
1070
     1
1071
       18
1005
12A33E
  0
LINE
  5
12A33F
  8
OBJECT
 10
8597.0
 20
-219.99999541468151
 30
0.0
 11
8593.0
 21
-215.49999541468151
 31
0.0
1001
ACDBBLOCKREPETAG
1070
     1
1071
       19
1005
12A33F
  0
LINE
  5
12A340
  8
OBJECT
 10
8583.0
 20
-113.99999541468151
 30
0.0
 11
8580.0
 21
-113.99999541468151
 31
0.0
1001
ACDBBLOCKREPETAG
1070
     1
1071
       20
1005
12A340
  0
ARC
  5
12A341
  8
OBJECT
 10
8583.0
 20
-116.99999541468151
 30
0.0
 40
3.0
 50
0.0
 51
90.0
1001
ACDBBLOCKREPETAG
1070
     1
1071
       21
1005
12A341
  0
LINE
  5
12A342
  8
OBJECT
 10
8580.0
 20
-237.99999541468151
 30
0.0
 11
8583.0
 21
-237.99999541468151
 31
0.0
1001
ACDBBLOCKREPETAG
1070
     1
1071
       22
1005
12A342
  0
ARC
  5
12A343
  8
OBJECT
 10
8583.0
 20
-234.99999541468151
 30
0.0
 40
3.0
 50
270.0
 51
0.0
1001
ACDBBLOCKREPETAG
1070
     1
1071
       23
1005
12A343
  0
LINE
  5
12A344
  8
OBJECT
 10
8586.0
 20
-234.99999541468151
 30
0.0
 11
8586.0
 21
-116.99999541468151
 31
0.0
1001
ACDBBLOCKREPETAG
1070
     1
1071
       24
1005
12A344
  0
LINE
  5
12A345
  8
HIDDEN
 10
8588.0
 20
-145.99999541468151
 30
0.0
 11
8588.0
 21
-205.99999541468151
 31
0.0
1001
ACDBBLOCKREPETAG
1070
     1
1071
       25
1005
12A345
  0
LINE
  5
12A346
  8
OBJECT
 10
6633.0
 20
-128.99999541468151
 30
0.0
 11
6640.0
 21
-128.99999541468151
 31
0.0
1001
ACDBBLOCKREPETAG
1070
     1
1071
        7
1005
12A346
  0
LINE
  5
12A347
  8
OBJECT
 10
6640.0
 20
-128.99999541468151
 30
0.0
 11
6640.0
 21
-222.99999541468159
 31
0.0
1001
ACDBBLOCKREPETAG
1070
     1
1071
        8
1005
12A347
  0
LINE
  5
12A348
  8
OBJECT
 10
6640.0
 20
-222.99999541468159
 30
0.0
 11
6633.0
 21
-222.99999541468159
 31
0.0
1001
ACDBBLOCKREPETAG
1070
     1
1071
        9
1005
12A348
  0
LINE
  5
12A349
  8
OBJECT
 10
6633.0
 20
-222.99999541468159
 30
0.0
 11
6633.0
 21
-128.99999541468151
 31
0.0
1001
ACDBBLOCKREPETAG
1070
     1
1071
       10
1005
12A349
  0
LINE
  5
12A34A
  8
CENTER
 10
6655.0
 20
-175.99999541468151
 30
0.0
 11
6580.0
 21
-175.99999541468151
 31
0.0
1001
ACDBBLOCKREPETAG
1070
     1
1071
       11
1005
12A34A
  0
LINE
  5
12A34B
  8
OBJECT
 10
6633.0
 20
-131.99999541468151
 30
0.0
 11
6597.0
 21
-131.99999541468151
 31
0.0
1001
ACDBBLOCKREPETAG
1070
     1
1071
       12
1005
12A34B
  0
LINE
  5
12A34C
  8
OBJECT
 10
6597.0
 20
-131.99999541468151
 30
0.0
 11
6597.0
 21
-219.99999541468151
 31
0.0
1001
ACDBBLOCKREPETAG
1070
     1
1071
       13
1005
12A34C
  0
LINE
  5
12A34D
  8
OBJECT
 10
6597.0
 20
-219.99999541468151
 30
0.0
 11
6633.0
 21
-219.99999541468151
 31
0.0
1001
ACDBBLOCKREPETAG
1070
     1
1071
       14
1005
12A34D
  0
LINE
  5
12A34E
  8
OBJECT
 10
6593.0
 20
-136.49999541468151
 30
0.0
 11
6586.0
 21
-136.49999541468151
 31
0.0
1001
ACDBBLOCKREPETAG
1070
     1
1071
       15
1005
12A34E
  0
LINE
  5
12A34F
  8
OBJECT
 10
6586.0
 20
-215.49999541468151
 30
0.0
 11
6593.0
 21
-215.49999541468151
 31
0.0
1001
ACDBBLOCKREPETAG
1070
     1
1071
       16
1005
12A34F
  0
LINE
  5
12A350
  8
OBJECT
 10
6593.0
 20
-215.49999541468151
 30
0.0
 11
6593.0
 21
-136.49999541468151
 31
0.0
1001
ACDBBLOCKREPETAG
1070
     1
1071
       17
1005
12A350
  0
LINE
  5
12A351
  8
OBJECT
 10
6597.0
 20
-131.99999541468151
 30
0.0
 11
6593.0
 21
-136.49999541468151
 31
0.0
1001
ACDBBLOCKREPETAG
1070
     1
1071
       18
1005
12A351
  0
LINE
  5
12A352
  8
OBJECT
 10
6597.0
 20
-219.99999541468151
 30
0.0
 11
6593.0
 21
-215.49999541468151
 31
0.0
1001
ACDBBLOCKREPETAG
1070
     1
1071
       19
1005
12A352
  0
LINE
  5
12A353
  8
OBJECT
 10
6583.0
 20
-113.99999541468151
 30
0.0
 11
6580.0
 21
-113.99999541468151
 31
0.0
1001
ACDBBLOCKREPETAG
1070
     1
1071
       20
1005
12A353
  0
ARC
  5
12A354
  8
OBJECT
 10
6583.0
 20
-116.99999541468151
 30
0.0
 40
3.0
 50
0.0
 51
90.0
1001
ACDBBLOCKREPETAG
1070
     1
1071
       21
1005
12A354
  0
LINE
  5
12A355
  8
OBJECT
 10
6580.0
 20
-237.99999541468151
 30
0.0
 11
6583.0
 21
-237.99999541468151
 31
0.0
1001
ACDBBLOCKREPETAG
1070
     1
1071
       22
1005
12A355
  0
ARC
  5
12A356
  8
OBJECT
 10
6583.0
 20
-234.99999541468151
 30
0.0
 40
3.0
 50
270.0
 51
0.0
1001
ACDBBLOCKREPETAG
1070
     1
1071
       23
1005
12A356
  0
LINE
  5
12A357
  8
OBJECT
 10
6586.0
 20
-234.99999541468151
 30
0.0
 11
6586.0
 21
-116.99999541468151
 31
0.0
1001
ACDBBLOCKREPETAG
1070
     1
1071
       24
1005
12A357
  0
LINE
  5
12A358
  8
HIDDEN
 10
6588.0
 20
-145.99999541468151
 30
0.0
 11
6588.0
 21
-205.99999541468151
 31
0.0
1001
ACDBBLOCKREPETAG
1070
     1
1071
       25
1005
12A358
  0
LINE
  5
12A359
  8
OBJECT
 10
4633.0
 20
-128.99999541468151
 30
0.0
 11
4640.0
 21
-128.99999541468151
 31
0.0
1001
ACDBBLOCKREPETAG
1070
     1
1071
        7
1005
12A359
  0
LINE
  5
12A35A
  8
OBJECT
 10
4640.0
 20
-128.99999541468151
 30
0.0
 11
4640.0
 21
-222.99999541468159
 31
0.0
1001
ACDBBLOCKREPETAG
1070
     1
1071
        8
1005
12A35A
  0
LINE
  5
12A35B
  8
OBJECT
 10
4640.0
 20
-222.99999541468159
 30
0.0
 11
4633.0
 21
-222.99999541468159
 31
0.0
1001
ACDBBLOCKREPETAG
1070
     1
1071
        9
1005
12A35B
  0
LINE
  5
12A35C
  8
OBJECT
 10
4633.0
 20
-222.99999541468159
 30
0.0
 11
4633.0
 21
-128.99999541468151
 31
0.0
1001
ACDBBLOCKREPETAG
1070
     1
1071
       10
1005
12A35C
  0
LINE
  5
12A35D
  8
CENTER
 10
4655.0
 20
-175.99999541468151
 30
0.0
 11
4580.0
 21
-175.99999541468151
 31
0.0
1001
ACDBBLOCKREPETAG
1070
     1
1071
       11
1005
12A35D
  0
LINE
  5
12A35E
  8
OBJECT
 10
4633.0
 20
-131.99999541468151
 30
0.0
 11
4597.0
 21
-131.99999541468151
 31
0.0
1001
ACDBBLOCKREPETAG
1070
     1
1071
       12
1005
12A35E
  0
LINE
  5
12A35F
  8
OBJECT
 10
4597.0
 20
-131.99999541468151
 30
0.0
 11
4597.0
 21
-219.99999541468151
 31
0.0
1001
ACDBBLOCKREPETAG
1070
     1
1071
       13
1005
12A35F
  0
LINE
  5
12A360
  8
OBJECT
 10
4597.0
 20
-219.99999541468151
 30
0.0
 11
4633.0
 21
-219.99999541468151
 31
0.0
1001
ACDBBLOCKREPETAG
1070
     1
1071
       14
1005
12A360
  0
LINE
  5
12A361
  8
OBJECT
 10
4593.0
 20
-136.49999541468151
 30
0.0
 11
4586.0
 21
-136.49999541468151
 31
0.0
1001
ACDBBLOCKREPETAG
1070
     1
1071
       15
1005
12A361
  0
LINE
  5
12A362
  8
OBJECT
 10
4586.0
 20
-215.49999541468151
 30
0.0
 11
4593.0
 21
-215.49999541468151
 31
0.0
1001
ACDBBLOCKREPETAG
1070
     1
1071
       16
1005
12A362
  0
LINE
  5
12A363
  8
OBJECT
 10
4593.0
 20
-215.49999541468151
 30
0.0
 11
4593.0
 21
-136.49999541468151
 31
0.0
1001
ACDBBLOCKREPETAG
1070
     1
1071
       17
1005
12A363
  0
LINE
  5
12A364
  8
OBJECT
 10
4597.0
 20
-131.99999541468151
 30
0.0
 11
4593.0
 21
-136.49999541468151
 31
0.0
1001
ACDBBLOCKREPETAG
1070
     1
1071
       18
1005
12A364
  0
LINE
  5
12A365
  8
OBJECT
 10
4597.0
 20
-219.99999541468151
 30
0.0
 11
4593.0
 21
-215.49999541468151
 31
0.0
1001
ACDBBLOCKREPETAG
1070
     1
1071
       19
1005
12A365
  0
LINE
  5
12A366
  8
OBJECT
 10
4583.0
 20
-113.99999541468151
 30
0.0
 11
4580.0
 21
-113.99999541468151
 31
0.0
1001
ACDBBLOCKREPETAG
1070
     1
1071
       20
1005
12A366
  0
ARC
  5
12A367
  8
OBJECT
 10
4583.0
 20
-116.99999541468151
 30
0.0
 40
3.0
 50
0.0
 51
90.0
1001
ACDBBLOCKREPETAG
1070
     1
1071
       21
1005
12A367
  0
LINE
  5
12A368
  8
OBJECT
 10
4580.0
 20
-237.99999541468151
 30
0.0
 11
4583.0
 21
-237.99999541468151
 31
0.0
1001
ACDBBLOCKREPETAG
1070
     1
1071
       22
1005
12A368
  0
ARC
  5
12A369
  8
OBJECT
 10
4583.0
 20
-234.99999541468151
 30
0.0
 40
3.0
 50
270.0
 51
0.0
1001
ACDBBLOCKREPETAG
1070
     1
1071
       23
1005
12A369
  0
LINE
  5
12A36A
  8
OBJECT
 10
4586.0
 20
-234.99999541468151
 30
0.0
 11
4586.0
 21
-116.99999541468151
 31
0.0
1001
ACDBBLOCKREPETAG
1070
     1
1071
       24
1005
12A36A
  0
LINE
  5
12A36B
  8
HIDDEN
 10
4588.0
 20
-145.99999541468151
 30
0.0
 11
4588.0
 21
-205.99999541468151
 31
0.0
1001
ACDBBLOCKREPETAG
1070
     1
1071
       25
1005
12A36B
  0
LINE
  5
12A36C
  8
OBJECT
 10
118.0
 20
-1362.9999999999991
 30
0.0
 11
118.0
 21
-1355.9999999999991
 31
0.0
1001
ACDBBLOCKREPETAG
1070
     1
1071
       34
1005
12A36C
  0
LINE
  5
12A36D
  8
OBJECT
 10
118.0
 20
-1355.9999999999991
 30
0.0
 11
242.0
 21
-1355.9999999999991
 31
0.0
1001
ACDBBLOCKREPETAG
1070
     1
1071
       35
1005
12A36D
  0
LINE
  5
12A36E
  8
OBJECT
 10
242.0
 20
-1355.9999999999991
 30
0.0
 11
242.0
 21
-1362.9999999999991
 31
0.0
1001
ACDBBLOCKREPETAG
1070
     1
1071
       36
1005
12A36E
  0
LINE
  5
12A36F
  8
OBJECT
 10
242.0
 20
-1362.9999999999991
 30
0.0
 11
118.0
 21
-1362.9999999999991
 31
0.0
1001
ACDBBLOCKREPETAG
1070
     1
1071
       37
1005
12A36F
  0
LINE
  5
12A370
  8
OBJECT
 10
121.0
 20
-1362.9999999999991
 30
0.0
 11
121.0
 21
-1398.9999999999991
 31
0.0
1001
ACDBBLOCKREPETAG
1070
     1
1071
       38
1005
12A370
  0
LINE
  5
12A371
  8
OBJECT
 10
121.0
 20
-1398.9999999999991
 30
0.0
 11
239.0
 21
-1398.9999999999991
 31
0.0
1001
ACDBBLOCKREPETAG
1070
     1
1071
       39
1005
12A371
  0
LINE
  5
12A372
  8
OBJECT
 10
239.0
 20
-1398.9999999999991
 30
0.0
 11
239.0
 21
-1362.9999999999991
 31
0.0
1001
ACDBBLOCKREPETAG
1070
     1
1071
       40
1005
12A372
  0
LINE
  5
12A373
  8
OBJECT
 10
125.5
 20
-1402.9999999999991
 30
0.0
 11
125.5
 21
-1413.4999999999991
 31
0.0
1001
ACDBBLOCKREPETAG
1070
     1
1071
       41
1005
12A373
  0
LINE
  5
12A374
  8
OBJECT
 10
234.5
 20
-1413.4999999999991
 30
0.0
 11
234.5
 21
-1402.9999999999991
 31
0.0
1001
ACDBBLOCKREPETAG
1070
     1
1071
       42
1005
12A374
  0
LINE
  5
12A375
  8
OBJECT
 10
234.5
 20
-1402.9999999999991
 30
0.0
 11
125.5
 21
-1402.9999999999991
 31
0.0
1001
ACDBBLOCKREPETAG
1070
     1
1071
       43
1005
12A375
  0
LINE
  5
12A376
  8
OBJECT
 10
121.0
 20
-1398.9999999999991
 30
0.0
 11
125.5
 21
-1402.9999999999991
 31
0.0
1001
ACDBBLOCKREPETAG
1070
     1
1071
       44
1005
12A376
  0
LINE
  5
12A377
  8
OBJECT
 10
239.0
 20
-1398.9999999999991
 30
0.0
 11
234.5
 21
-1402.9999999999991
 31
0.0
1001
ACDBBLOCKREPETAG
1070
     1
1071
       45
1005
12A377
  0
LINE
  5
12A378
  8
OBJECT
 10
130.5
 20
-1418.4999999999991
 30
0.0
 11
130.50000000000091
 21
-1439.65508008702
 31
0.0
1001
ACDBBLOCKREPETAG
1070
     1
1071
       46
1005
12A378
  0
LINE
  5
12A379
  8
OBJECT
 10
229.5
 20
-1418.4999999999991
 30
0.0
 11
229.5
 21
-1439.6550800870209
 31
0.0
1001
ACDBBLOCKREPETAG
1070
     1
1071
       47
1005
12A379
  0
LINE
  5
12A37A
  8
OBJECT
 10
125.5
 20
-1413.4999999999991
 30
0.0
 11
234.5
 21
-1413.4999999999991
 31
0.0
1001
ACDBBLOCKREPETAG
1070
     1
1071
       48
1005
12A37A
  0
LINE
  5
12A37B
  8
OBJECT
 10
130.5
 20
-1418.4999999999991
 30
0.0
 11
229.5
 21
-1418.4999999999991
 31
0.0
1001
ACDBBLOCKREPETAG
1070
     1
1071
       49
1005
12A37B
  0
LINE
  5
12A37C
  8
OBJECT
 10
125.5
 20
-1413.4999999999991
 30
0.0
 11
130.5
 21
-1418.4999999999991
 31
0.0
1001
ACDBBLOCKREPETAG
1070
     1
1071
       50
1005
12A37C
  0
LINE
  5
12A37D
  8
OBJECT
 10
229.5
 20
-1418.4999999999991
 30
0.0
 11
234.49999999999639
 21
-1413.4999999999991
 31
0.0
1001
ACDBBLOCKREPETAG
1070
     1
1071
       51
1005
12A37D
  0
INSERT
  5
12A37E
  8
SLIM
  2
*U13
 10
0.0
 20
0.0
 30
0.0
  0
LINE
  5
12A37F
  8
HIDDEN
 10
135.5
 20
-1407.9999999999991
 30
0.0
 11
224.5
 21
-1407.9999999999991
 31
0.0
1001
ACDBBLOCKREPETAG
1070
     1
1071
       65
1005
12A37F
  0
ARC
  5
12A380
  8
OBJECT
 10
180.0
 20
-1495.9999999999991
 30
0.0
 40
50.0
 50
28.81994300016834
 51
318.52376955954998
1001
ACDBBLOCKREPETAG
1070
     1
1071
       49
1005
12A380
  0
CIRCLE
  5
12A381
  8
OBJECT
 10
180.0
 20
-1495.9999999999991
 30
0.0
 40
70.0
1001
ACDBBLOCKREPETAG
1070
     1
1071
       50
1005
12A381
  0
CIRCLE
  5
12A382
  8
OBJECT
 10
180.0
 20
-1495.9999999999991
 30
0.0
 40
75.0
1001
ACDBBLOCKREPETAG
1070
     1
1071
       51
1005
12A382
  0
POINT
  5
12A383
  8
DOTS
 10
180.0
 20
-1495.9999999999991
 30
0.0
1001
ACDBBLOCKREPETAG
1070
     1
1071
       63
1005
12A383
  0
LINE
  5
12A384
  8
OBJECT
 10
223.80694712371769
 20
-1471.897066906698
 30
0.0
 11
212.5546219999996
 21
-1475.340343000003
 31
0.0
1001
ACDBBLOCKREPETAG
1070
     1
1071
      141
1005
12A384
  0
LINE
  5
12A385
  8
OBJECT
 10
198.22553374207919
 20
-1509.2072500986239
 30
0.0
 11
212.55462199999599
 21
-1475.340343000003
 31
0.0
1001
ACDBBLOCKREPETAG
1070
     1
1071
      143
1005
12A385
  0
ARC
  5
12A386
  8
OBJECT
 10
207.4351299990594
 20
-1513.103830238098
 30
0.0
 40
10.0
 50
157.0667782929232
 51
244.01473437026289
1001
ACDBBLOCKREPETAG
1070
     1
1071
      144
1005
12A386
  0
ARC
  5
12A387
  8
OBJECT
 10
205.5538625672925
 20
-1509.851160961872
 30
0.0
 40
7.0
 50
157.0667782929232
 51
244.01473377502219
1001
ACDBBLOCKREPETAG
1070
     1
1071
      145
1005
12A387
  0
LINE
  5
12A388
  8
OBJECT
 10
238.86769720860229
 20
-1533.876037614252
 30
0.0
 11
202.48688253356889
 21
-1516.143508176762
 31
0.0
1001
ACDBBLOCKREPETAG
1070
     1
1071
      154
1005
12A388
  0
LINE
  5
12A389
  8
OBJECT
 10
235.9167324445028
 20
-1538.1107947292589
 30
0.0
 11
203.05373004431021
 21
-1522.0928977334911
 31
0.0
1001
ACDBBLOCKREPETAG
1070
     1
1071
      155
1005
12A389
  0
ARC
  5
12A38A
  8
OBJECT
 10
184.75760589857131
 20
-1522.273755513954
 30
0.0
 40
63.739013211305632
 50
8.1694378253172513
 51
52.219052524698952
1001
ACDBBLOCKREPETAG
1070
     1
1071
      156
1005
12A38A
  0
LINE
  5
12A38B
  8
OBJECT
 10
485.0
 20
-898.99999999999932
 30
0.0
 11
485.0
 21
-891.9999999999992
 31
0.0
1001
ACDBBLOCKREPETAG
1070
     1
1071
       18
1005
12A38B
  0
LINE
  5
12A38C
  8
OBJECT
 10
485.0
 20
-891.9999999999992
 30
0.0
 11
595.0
 21
-891.9999999999992
 31
0.0
1001
ACDBBLOCKREPETAG
1070
     1
1071
       19
1005
12A38C
  0
LINE
  5
12A38D
  8
OBJECT
 10
595.0
 20
-891.9999999999992
 30
0.0
 11
595.0
 21
-898.99999999999932
 31
0.0
1001
ACDBBLOCKREPETAG
1070
     1
1071
       20
1005
12A38D
  0
LINE
  5
12A38E
  8
OBJECT
 10
595.0
 20
-898.99999999999932
 30
0.0
 11
485.0
 21
-898.99999999999932
 31
0.0
1001
ACDBBLOCKREPETAG
1070
     1
1071
       21
1005
12A38E
  0
LINE
  5
12A38F
  8
OBJECT
 10
488.0
 20
-898.99999999999932
 30
0.0
 11
488.0
 21
-934.99999999999875
 31
0.0
1001
ACDBBLOCKREPETAG
1070
     1
1071
       22
1005
12A38F
  0
LINE
  5
12A390
  8
OBJECT
 10
488.0
 20
-934.99999999999875
 30
0.0
 11
592.0
 21
-934.99999999999875
 31
0.0
1001
ACDBBLOCKREPETAG
1070
     1
1071
       23
1005
12A390
  0
LINE
  5
12A391
  8
OBJECT
 10
592.0
 20
-934.99999999999875
 30
0.0
 11
592.0
 21
-898.99999999999932
 31
0.0
1001
ACDBBLOCKREPETAG
1070
     1
1071
       24
1005
12A391
  0
LINE
  5
12A392
  8
OBJECT
 10
492.49999999999989
 20
-938.99999999999909
 30
0.0
 11
492.49999999999989
 21
-947.49999999999875
 31
0.0
1001
ACDBBLOCKREPETAG
1070
     1
1071
       25
1005
12A392
  0
LINE
  5
12A393
  8
OBJECT
 10
587.5
 20
-947.49999999999955
 30
0.0
 11
587.5
 21
-938.99999999999909
 31
0.0
1001
ACDBBLOCKREPETAG
1070
     1
1071
       26
1005
12A393
  0
LINE
  5
12A394
  8
OBJECT
 10
587.5
 20
-938.99999999999909
 30
0.0
 11
492.49999999999989
 21
-938.99999999999909
 31
0.0
1001
ACDBBLOCKREPETAG
1070
     1
1071
       27
1005
12A394
  0
LINE
  5
12A395
  8
OBJECT
 10
488.0
 20
-934.99999999999875
 30
0.0
 11
492.49999999999989
 21
-938.99999999999909
 31
0.0
1001
ACDBBLOCKREPETAG
1070
     1
1071
       28
1005
12A395
  0
LINE
  5
12A396
  8
OBJECT
 10
592.0
 20
-934.99999999999875
 30
0.0
 11
587.5
 21
-938.99999999999909
 31
0.0
1001
ACDBBLOCKREPETAG
1070
     1
1071
       29
1005
12A396
  0
LINE
  5
12A397
  8
OBJECT
 10
589.5
 20
-947.50000000000034
 30
0.0
 11
490.5
 21
-947.49999999999875
 31
0.0
1001
ACDBBLOCKREPETAG
1070
     1
1071
       30
1005
12A397
  0
LINE
  5
12A398
  8
OBJECT
 10
490.5
 20
-947.49999999999875
 30
0.0
 11
490.5000000000008
 21
-975.65508008701954
 31
0.0
1001
ACDBBLOCKREPETAG
1070
     1
1071
       31
1005
12A398
  0
LINE
  5
12A399
  8
OBJECT
 10
589.5
 20
-947.50000000000034
 30
0.0
 11
589.5000000000008
 21
-975.65508008702056
 31
0.0
1001
ACDBBLOCKREPETAG
1070
     1
1071
       32
1005
12A399
  0
INSERT
  5
12A39A
  8
SLIM
  2
*U14
 10
0.0
 20
0.0
 30
0.0
  0
LINE
  5
12A39B
  8
HIDDEN
 10
502.0
 20
-943.99999999999875
 30
0.0
 11
578.0
 21
-943.99999999999875
 31
0.0
1001
ACDBBLOCKREPETAG
1070
     1
1071
       57
1005
12A39B
  0
ARC
  5
12A39C
  8
OBJECT
 10
540.0
 20
-1031.9999999999991
 30
0.0
 40
50.0
 50
28.819943000169118
 51
318.52376955955111
1001
ACDBBLOCKREPETAG
1070
     1
1071
       49
1005
12A39C
  0
CIRCLE
  5
12A39D
  8
OBJECT
 10
540.0
 20
-1031.9999999999991
 30
0.0
 40
70.0
1001
ACDBBLOCKREPETAG
1070
     1
1071
       50
1005
12A39D
  0
CIRCLE
  5
12A39E
  8
OBJECT
 10
540.0
 20
-1031.9999999999991
 30
0.0
 40
75.0
1001
ACDBBLOCKREPETAG
1070
     1
1071
       51
1005
12A39E
  0
POINT
  5
12A39F
  8
DOTS
 10
540.0
 20
-1031.9999999999991
 30
0.0
1001
ACDBBLOCKREPETAG
1070
     1
1071
       63
1005
12A39F
  0
LINE
  5
12A3A0
  8
OBJECT
 10
583.80694712371769
 20
-1007.897066906697
 30
0.0
 11
572.55462199999965
 21
-1011.340343000002
 31
0.0
1001
ACDBBLOCKREPETAG
1070
     1
1071
      141
1005
12A3A0
  0
LINE
  5
12A3A1
  8
OBJECT
 10
558.22553374207905
 20
-1045.2072500986239
 30
0.0
 11
572.55462199999602
 21
-1011.340343000002
 31
0.0
1001
ACDBBLOCKREPETAG
1070
     1
1071
      143
1005
12A3A1
  0
ARC
  5
12A3A2
  8
OBJECT
 10
567.43512999905943
 20
-1049.1038302380971
 30
0.0
 40
10.0
 50
157.06677829292209
 51
244.01473437026289
1001
ACDBBLOCKREPETAG
1070
     1
1071
      144
1005
12A3A2
  0
ARC
  5
12A3A3
  8
OBJECT
 10
565.55386256729241
 20
-1045.851160961872
 30
0.0
 40
7.0
 50
157.06677829292209
 51
244.0147337750206
1001
ACDBBLOCKREPETAG
1070
     1
1071
      145
1005
12A3A3
  0
LINE
  5
12A3A4
  8
OBJECT
 10
598.86769720860241
 20
-1069.876037614252
 30
0.0
 11
562.48688253356875
 21
-1052.143508176762
 31
0.0
1001
ACDBBLOCKREPETAG
1070
     1
1071
      154
1005
12A3A4
  0
LINE
  5
12A3A5
  8
OBJECT
 10
595.91673244450271
 20
-1074.110794729258
 30
0.0
 11
563.05373004430999
 21
-1058.09289773349
 31
0.0
1001
ACDBBLOCKREPETAG
1070
     1
1071
      155
1005
12A3A5
  0
ARC
  5
12A3A6
  8
OBJECT
 10
544.75760589857111
 20
-1058.273755513954
 30
0.0
 40
63.739013211305632
 50
8.1694378253174822
 51
52.21905252470151
1001
ACDBBLOCKREPETAG
1070
     1
1071
      156
1005
12A3A6
  0
LINE
  5
12A3A7
  8
OBJECT
 10
133.0
 20
-898.99999999999932
 30
0.0
 11
133.0
 21
-891.9999999999992
 31
0.0
1001
ACDBBLOCKREPETAG
1070
     1
1071
        0
1005
12A3A7
  0
LINE
  5
12A3A8
  8
OBJECT
 10
133.0
 20
-891.9999999999992
 30
0.0
 11
227.0
 21
-891.9999999999992
 31
0.0
1001
ACDBBLOCKREPETAG
1070
     1
1071
        1
1005
12A3A8
  0
LINE
  5
12A3A9
  8
OBJECT
 10
227.0
 20
-891.9999999999992
 30
0.0
 11
227.0
 21
-898.99999999999932
 31
0.0
1001
ACDBBLOCKREPETAG
1070
     1
1071
        2
1005
12A3A9
  0
LINE
  5
12A3AA
  8
OBJECT
 10
227.0
 20
-898.99999999999932
 30
0.0
 11
133.0
 21
-898.99999999999932
 31
0.0
1001
ACDBBLOCKREPETAG
1070
     1
1071
        3
1005
12A3AA
  0
LINE
  5
12A3AB
  8
OBJECT
 10
136.0
 20
-898.99999999999932
 30
0.0
 11
136.0
 21
-934.99999999999875
 31
0.0
1001
ACDBBLOCKREPETAG
1070
     1
1071
        4
1005
12A3AB
  0
LINE
  5
12A3AC
  8
OBJECT
 10
136.0
 20
-934.99999999999875
 30
0.0
 11
224.0
 21
-934.99999999999875
 31
0.0
1001
ACDBBLOCKREPETAG
1070
     1
1071
        5
1005
12A3AC
  0
LINE
  5
12A3AD
  8
OBJECT
 10
224.0
 20
-934.99999999999875
 30
0.0
 11
224.0
 21
-898.99999999999932
 31
0.0
1001
ACDBBLOCKREPETAG
1070
     1
1071
        6
1005
12A3AD
  0
LINE
  5
12A3AE
  8
OBJECT
 10
140.5
 20
-938.99999999999909
 30
0.0
 11
140.5
 21
-947.49999999999875
 31
0.0
1001
ACDBBLOCKREPETAG
1070
     1
1071
        7
1005
12A3AE
  0
LINE
  5
12A3AF
  8
OBJECT
 10
219.5
 20
-947.49999999999955
 30
0.0
 11
219.5
 21
-938.99999999999909
 31
0.0
1001
ACDBBLOCKREPETAG
1070
     1
1071
        8
1005
12A3AF
  0
LINE
  5
12A3B0
  8
OBJECT
 10
219.5
 20
-938.99999999999909
 30
0.0
 11
140.5
 21
-938.99999999999909
 31
0.0
1001
ACDBBLOCKREPETAG
1070
     1
1071
        9
1005
12A3B0
  0
LINE
  5
12A3B1
  8
OBJECT
 10
136.0
 20
-934.99999999999875
 30
0.0
 11
140.5
 21
-938.99999999999909
 31
0.0
1001
ACDBBLOCKREPETAG
1070
     1
1071
       10
1005
12A3B1
  0
LINE
  5
12A3B2
  8
OBJECT
 10
224.0
 20
-934.99999999999875
 30
0.0
 11
219.5
 21
-938.99999999999909
 31
0.0
1001
ACDBBLOCKREPETAG
1070
     1
1071
       11
1005
12A3B2
  0
LINE
  5
12A3B3
  8
OBJECT
 10
226.5
 20
-947.49999999999989
 30
0.0
 11
133.5
 21
-947.49999999999875
 31
0.0
1001
ACDBBLOCKREPETAG
1070
     1
1071
       12
1005
12A3B3
  0
ARC
  5
12A3B4
  8
OBJECT
 10
133.5
 20
-950.49999999999841
 30
0.0
 40
3.0
 50
90.0
 51
180.0
1001
ACDBBLOCKREPETAG
1070
     1
1071
       13
1005
12A3B4
  0
LINE
  5
12A3B5
  8
OBJECT
 10
130.5
 20
-950.49999999999841
 30
0.0
 11
130.49999999999909
 21
-975.65508008702056
 31
0.0
1001
ACDBBLOCKREPETAG
1070
     1
1071
       15
1005
12A3B5
  0
LINE
  5
12A3B6
  8
OBJECT
 10
229.5
 20
-950.5
 30
0.0
 11
229.49999999999909
 21
-975.65508008701954
 31
0.0
1001
ACDBBLOCKREPETAG
1070
     1
1071
       16
1005
12A3B6
  0
ARC
  5
12A3B7
  8
OBJECT
 10
226.5
 20
-950.5
 30
0.0
 40
3.0
 50
0.0
 51
90.0
1001
ACDBBLOCKREPETAG
1070
     1
1071
       17
1005
12A3B7
  0
INSERT
  5
12A3B8
  8
SLIM
  2
*U15
 10
0.0
 20
0.0
 30
0.0
  0
LINE
  5
12A3B9
  8
HIDDEN
 10
150.0
 20
-943.99999999999875
 30
0.0
 11
210.0
 21
-943.99999999999875
 31
0.0
1001
ACDBBLOCKREPETAG
1070
     1
1071
       56
1005
12A3B9
  0
ARC
  5
12A3BA
  8
OBJECT
 10
180.0
 20
-1031.9999999999991
 30
0.0
 40
50.0
 50
28.81994300016834
 51
318.52376955954998
1001
ACDBBLOCKREPETAG
1070
     1
1071
       49
1005
12A3BA
  0
CIRCLE
  5
12A3BB
  8
OBJECT
 10
180.0
 20
-1031.9999999999991
 30
0.0
 40
70.0
1001
ACDBBLOCKREPETAG
1070
     1
1071
       50
1005
12A3BB
  0
CIRCLE
  5
12A3BC
  8
OBJECT
 10
180.0
 20
-1031.9999999999991
 30
0.0
 40
75.0
1001
ACDBBLOCKREPETAG
1070
     1
1071
       51
1005
12A3BC
  0
POINT
  5
12A3BD
  8
DOTS
 10
180.0
 20
-1031.9999999999991
 30
0.0
1001
ACDBBLOCKREPETAG
1070
     1
1071
       63
1005
12A3BD
  0
LINE
  5
12A3BE
  8
OBJECT
 10
223.80694712371769
 20
-1007.897066906697
 30
0.0
 11
212.5546219999996
 21
-1011.340343000002
 31
0.0
1001
ACDBBLOCKREPETAG
1070
     1
1071
      141
1005
12A3BE
  0
LINE
  5
12A3BF
  8
OBJECT
 10
198.22553374207919
 20
-1045.2072500986239
 30
0.0
 11
212.55462199999599
 21
-1011.340343000002
 31
0.0
1001
ACDBBLOCKREPETAG
1070
     1
1071
      143
1005
12A3BF
  0
ARC
  5
12A3C0
  8
OBJECT
 10
207.4351299990594
 20
-1049.1038302380971
 30
0.0
 40
10.0
 50
157.0667782929232
 51
244.01473437026289
1001
ACDBBLOCKREPETAG
1070
     1
1071
      144
1005
12A3C0
  0
ARC
  5
12A3C1
  8
OBJECT
 10
205.5538625672925
 20
-1045.851160961872
 30
0.0
 40
7.0
 50
157.0667782929232
 51
244.01473377502219
1001
ACDBBLOCKREPETAG
1070
     1
1071
      145
1005
12A3C1
  0
LINE
  5
12A3C2
  8
OBJECT
 10
238.86769720860229
 20
-1069.876037614252
 30
0.0
 11
202.48688253356889
 21
-1052.143508176762
 31
0.0
1001
ACDBBLOCKREPETAG
1070
     1
1071
      154
1005
12A3C2
  0
LINE
  5
12A3C3
  8
OBJECT
 10
235.9167324445028
 20
-1074.110794729258
 30
0.0
 11
203.05373004431021
 21
-1058.09289773349
 31
0.0
1001
ACDBBLOCKREPETAG
1070
     1
1071
      155
1005
12A3C3
  0
ARC
  5
12A3C4
  8
OBJECT
 10
184.75760589857131
 20
-1058.273755513954
 30
0.0
 40
63.739013211305632
 50
8.1694378253172513
 51
52.219052524698952
1001
ACDBBLOCKREPETAG
1070
     1
1071
      156
1005
12A3C4
  0
ARC
  5
12A3C5
  8
OBJECT
 10
12500.0
 20
-175.99999541468151
 30
0.0
 40
50.0
 50
298.81994300000417
 51
228.52376955964741
1001
ACDBBLOCKREPETAG
1070
     1
1071
      185
1005
12A3C5
  0
LINE
  5
12A3C6
  8
SLIM
 10
12427.30183005652
 20
-131.95483578426081
 30
0.0
 11
12455.954840369581
 21
-103.3018254712013
 31
0.0
1001
ACAD
1010
0.0
1020
0.0
1030
0.0
1001
ACDBBLOCKREPETAG
1070
     1
1071
      429
1005
12A3C6
  0
LINE
  5
12A3C7
  8
SLIM
 10
12419.486152070829
 20
-148.75076989101481
 30
0.0
 11
12428.8911593638
 21
-139.34576259805101
 31
0.0
1001
ACAD
1010
0.0
1020
0.0
1030
0.0
1001
ACDBBLOCKREPETAG
1070
     1
1071
      381
1005
12A3C7
  0
LINE
  5
12A3C8
  8
SLIM
 10
12463.345767183369
 20
-104.8911547784803
 30
0.0
 11
12472.75077447633
 21
-95.486147485516582
 31
0.0
1001
ACAD
1010
0.0
1020
0.0
1030
0.0
1001
ACDBBLOCKREPETAG
1070
     1
1071
      382
1005
12A3C8
  0
LINE
  5
12A3C9
  8
SLIM
 10
12416.35966799338
 20
-160.85751008954301
 30
0.0
 11
12423.0316308417
 21
-154.18554724121299
 31
0.0
1001
ACAD
1010
0.0
1020
0.0
1030
0.0
1001
ACDBBLOCKREPETAG
1070
     1
1071
      383
1005
12A3C9
  0
LINE
  5
12A3CA
  8
SLIM
 10
12478.185551826529
 20
-99.031626256387483
 30
0.0
 11
12484.857514674861
 21
-92.359663408057429
 31
0.0
1001
ACAD
1010
0.0
1020
0.0
1030
0.0
1001
ACDBBLOCKREPETAG
1070
     1
1071
      384
1005
12A3CA
  0
LINE
  5
12A3CB
  8
SLIM
 10
12415.14405758905
 20
-171.05337661493741
 30
0.0
 11
12420.691234743779
 21
-165.50619946020811
 31
0.0
1001
ACAD
1010
0.0
1020
0.0
1030
0.0
1001
ACDBBLOCKREPETAG
1070
     1
1071
      385
1005
12A3CB
  0
LINE
  5
12A3CC
  8
SLIM
 10
12489.50620404553
 20
-96.691230158461494
 30
0.0
 11
12495.05338120026
 21
-91.144053003732239
 31
0.0
1001
ACAD
1010
0.0
1020
0.0
1030
0.0
1001
ACDBBLOCKREPETAG
1070
     1
1071
      386
1005
12A3CC
  0
LINE
  5
12A3CD
  8
SLIM
 10
12415.09796355746
 20
-180.07972676759269
 30
0.0
 11
12419.17769491037
 21
-175.99999541468151
 31
0.0
1001
ACAD
1010
0.0
1020
0.0
1030
0.0
1001
ACDBBLOCKREPETAG
1070
     1
1071
      387
1005
12A3CD
  0
LINE
  5
12A3CE
  8
SLIM
 10
12500.0
 20
-95.177690325059132
 30
0.0
 11
12504.0797313529
 21
-91.097958972153265
 31
0.0
1001
ACAD
1010
0.0
1020
0.0
1030
0.0
1001
ACDBBLOCKREPETAG
1070
     1
1071
      388
1005
12A3CE
  0
LINE
  5
12A3CF
  8
SLIM
 10
12419.17769491037
 20
-175.99999541468151
 30
0.0
 11
12420.00427028175
 21
-175.17342004330999
 31
0.0
1001
ACAD
1010
0.0
1020
0.0
1030
0.0
1001
ACDBBLOCKREPETAG
1070
     1
1071
      389
1005
12A3CF
  0
LINE
  5
12A3D0
  8
SLIM
 10
12499.173424628631
 20
-96.004265696428789
 30
0.0
 11
12500.0
 21
-95.177690325059146
 31
0.0
1001
ACAD
1010
0.0
1020
0.0
1030
0.0
1001
ACDBBLOCKREPETAG
1070
     1
1071
      390
1005
12A3D0
  0
LINE
  5
12A3D1
  8
SLIM
 10
12415.88997262086
 20
-188.2679738252624
 30
0.0
 11
12420.37908993235
 21
-183.77885651377261
 31
0.0
1001
ACAD
1010
0.0
1020
0.0
1030
0.0
1001
ACDBBLOCKREPETAG
1070
     1
1071
      391
1005
12A3D1
  0
LINE
  5
12A3D2
  8
SLIM
 10
12507.77886109909
 20
-96.379085347030724
 30
0.0
 11
12512.26797841058
 21
-91.889968035552343
 31
0.0
1001
ACAD
1010
0.0
1020
0.0
1030
0.0
1001
ACDBBLOCKREPETAG
1070
     1
1071
      392
1005
12A3D2
  0
LINE
  5
12A3D3
  8
SLIM
 10
12417.338265695151
 20
-195.7999368720495
 30
0.0
 11
12421.53614970347
 21
-191.6020528637238
 31
0.0
1001
ACAD
1010
0.0
1020
0.0
1030
0.0
1001
ACDBBLOCKREPETAG
1070
     1
1071
      393
1005
12A3D3
  0
LINE
  5
12A3D4
  8
SLIM
 10
12515.60205744905
 20
-97.536145118149506
 30
0.0
 11
12519.799941457361
 21
-93.338261109834278
 31
0.0
1001
ACAD
1010
0.0
1020
0.0
1030
0.0
1001
ACDBBLOCKREPETAG
1070
     1
1071
      394
1005
12A3D4
  0
LINE
  5
12A3D5
  8
SLIM
 10
12419.331259406301
 20
-202.78719928196651
 30
0.0
 11
12423.317950993851
 21
-198.80050769441161
 31
0.0
1001
ACAD
1010
0.0
1020
0.0
1030
0.0
1001
ACDBBLOCKREPETAG
1070
     1
1071
      395
1005
12A3D5
  0
LINE
  5
12A3D6
  8
SLIM
 10
12522.800512279729
 20
-99.317946408531412
 30
0.0
 11
12526.787203867279
 21
-95.331254820986345
 31
0.0
1001
ACAD
1010
0.0
1020
0.0
1030
0.0
1001
ACDBBLOCKREPETAG
1070
     1
1071
      396
1005
12A3D6
  0
LINE
  5
12A3D7
  8
SLIM
 10
12421.795716318609
 20
-209.3029984907202
 30
0.0
 11
12425.62664068147
 21
-205.47207412786429
 31
0.0
1001
ACAD
1010
0.0
1020
0.0
1030
0.0
1001
ACDBBLOCKREPETAG
1070
     1
1071
      397
1005
12A3D7
  0
LINE
  5
12A3D8
  8
SLIM
 10
12529.47207871319
 20
-101.6266360961484
 30
0.0
 11
12533.303003076029
 21
-97.795711733301616
 31
0.0
1001
ACAD
1010
0.0
1020
0.0
1030
0.0
1001
ACDBBLOCKREPETAG
1070
     1
1071
      398
1005
12A3D8
  0
LINE
  5
12A3D9
  8
SLIM
 10
12424.681663531341
 20
-215.39730739906469
 30
0.0
 11
12428.397899414491
 21
-211.68107151591281
 31
0.0
1001
ACAD
1010
0.0
1020
0.0
1030
0.0
1001
ACDBBLOCKREPETAG
1070
     1
1071
      399
1005
12A3D9
  0
LINE
  5
12A3DA
  8
SLIM
 10
12535.681076101229
 20
-104.3978948291695
 30
0.0
 11
12539.397311984379
 21
-100.6816589460261
 31
0.0
1001
ACAD
1010
0.0
1020
0.0
1030
0.0
1001
ACDBBLOCKREPETAG
1070
     1
1071
      400
1005
12A3DA
  0
LINE
  5
12A3DB
  8
SLIM
 10
12427.954461102419
 20
-221.1047659490537
 30
0.0
 11
12431.58829484775
 21
-217.47093220372389
 31
0.0
1001
ACAD
1010
0.0
1020
0.0
1030
0.0
1001
ACDBBLOCKREPETAG
1070
     1
1071
      401
1005
12A3DB
  0
LINE
  5
12A3DC
  8
SLIM
 10
12541.470936789039
 20
-107.588290262428
 30
0.0
 11
12545.104770534361
 21
-103.9544565171061
 31
0.0
1001
ACAD
1010
0.0
1020
0.0
1030
0.0
1001
ACDBBLOCKREPETAG
1070
     1
1071
      402
1005
12A3DC
  0
LINE
  5
12A3DD
  8
SLIM
 10
12431.59033196866
 20
-226.44915120388191
 30
0.0
 11
12435.16855767846
 21
-222.8709254940826
 31
0.0
1001
ACAD
1010
0.0
1020
0.0
1030
0.0
1001
ACDBBLOCKREPETAG
1070
     1
1071
      403
1005
12A3DD
  0
LINE
  5
12A3DE
  8
SLIM
 10
12546.8709300794
 20
-111.1685530931389
 30
0.0
 11
12550.449155789191
 21
-107.5903273833469
 31
0.0
1001
ACAD
1010
0.0
1020
0.0
1030
0.0
1001
ACDBBLOCKREPETAG
1070
     1
1071
      404
1005
12A3DE
  0
LINE
  5
12A3DF
  8
SLIM
 10
12435.573749692519
 20
-231.44598960108971
 30
0.0
 11
12439.119812975139
 21
-227.89992631846809
 31
0.0
1001
ACAD
1010
0.0
1020
0.0
1030
0.0
1001
ACDBBLOCKREPETAG
1070
     1
1071
      405
1005
12A3DF
  0
LINE
  5
12A3E0
  8
SLIM
 10
12553.019743878929
 20
-113.99999541468151
 30
0.0
 11
12555.445994186401
 21
-111.5737451072081
 31
0.0
1001
ACAD
1010
0.0
1020
0.0
1030
0.0
1001
ACDBBLOCKREPETAG
1070
     1
1071
      406
1005
12A3E0
  0
LINE
  5
12A3E1
  8
SLIM
 10
12439.895923599141
 20
-236.10407181554169
 30
0.0
 11
12443.431457505079
 21
-232.5685379096023
 31
0.0
1001
ACAD
1010
0.0
1020
0.0
1030
0.0
1001
ACDBBLOCKREPETAG
1070
     1
1071
      407
1005
12A3E1
  0
LINE
  5
12A3E2
  8
SLIM
 10
12444.55400581359
 20
-240.42624572215851
 30
0.0
 11
12448.10006909621
 21
-236.88018243953789
 31
0.0
1001
ACAD
1010
0.0
1020
0.0
1030
0.0
1001
ACDBBLOCKREPETAG
1070
     1
1071
      408
1005
12A3E2
  0
LINE
  5
12A3E3
  8
SLIM
 10
12449.5508442108
 20
-244.40966344601941
 30
0.0
 11
12453.1290699206
 21
-240.831437736222
 31
0.0
1001
ACAD
1010
0.0
1020
0.0
1030
0.0
1001
ACDBBLOCKREPETAG
1070
     1
1071
      409
1005
12A3E3
  0
LINE
  5
12A3E4
  8
SLIM
 10
12454.89522946563
 20
-248.04553431225989
 30
0.0
 11
12458.52906321095
 21
-244.41170056693321
 31
0.0
1001
ACAD
1010
0.0
1020
0.0
1030
0.0
1001
ACDBBLOCKREPETAG
1070
     1
1071
      410
1005
12A3E4
  0
LINE
  5
12A3E5
  8
SLIM
 10
12460.602688015621
 20
-251.3183318833396
 30
0.0
 11
12464.31892389876
 21
-247.60209600019189
 31
0.0
1001
ACAD
1010
0.0
1020
0.0
1030
0.0
1001
ACDBBLOCKREPETAG
1070
     1
1071
      411
1005
12A3E5
  0
LINE
  5
12A3E6
  8
SLIM
 10
12466.69699692396
 20
-254.2042790960638
 30
0.0
 11
12470.52792128681
 21
-250.3733547332132
 31
0.0
1001
ACAD
1010
0.0
1020
0.0
1030
0.0
1001
ACDBBLOCKREPETAG
1070
     1
1071
      412
1005
12A3E6
  0
LINE
  5
12A3E7
  8
SLIM
 10
12473.21279613271
 20
-256.66873600837869
 30
0.0
 11
12477.19948772026
 21
-252.68204442083049
 31
0.0
1001
ACAD
1010
0.0
1020
0.0
1030
0.0
1001
ACDBBLOCKREPETAG
1070
     1
1071
      413
1005
12A3E7
  0
LINE
  5
12A3E8
  8
SLIM
 10
12480.20005854263
 20
-258.66172971953029
 30
0.0
 11
12484.39794255095
 21
-254.4638457112128
 31
0.0
1001
ACAD
1010
0.0
1020
0.0
1030
0.0
1001
ACDBBLOCKREPETAG
1070
     1
1071
      414
1005
12A3E8
  0
LINE
  5
12A3E9
  8
SLIM
 10
12487.73202158942
 20
-260.11002279381171
 30
0.0
 11
12492.221138900901
 21
-255.62090548233189
 31
0.0
1001
ACAD
1010
0.0
1020
0.0
1030
0.0
1001
ACDBBLOCKREPETAG
1070
     1
1071
      415
1005
12A3E9
  0
LINE
  5
12A3EA
  8
SLIM
 10
12495.920268647091
 20
-260.90203185721009
 30
0.0
 11
12500.0
 21
-256.82230050430388
 31
0.0
1001
ACAD
1010
0.0
1020
0.0
1030
0.0
1001
ACDBBLOCKREPETAG
1070
     1
1071
      416
1005
12A3EA
  0
LINE
  5
12A3EB
  8
SLIM
 10
12500.0
 20
-256.82230050430388
 30
0.0
 11
12500.826575371369
 21
-255.99572513293049
 31
0.0
1001
ACAD
1010
0.0
1020
0.0
1030
0.0
1001
ACDBBLOCKREPETAG
1070
     1
1071
      417
1005
12A3EB
  0
LINE
  5
12A3EC
  8
SLIM
 10
12504.94661879974
 20
-260.85593782563058
 30
0.0
 11
12510.49379595447
 21
-255.3087606708975
 31
0.0
1001
ACAD
1010
0.0
1020
0.0
1030
0.0
1001
ACDBBLOCKREPETAG
1070
     1
1071
      418
1005
12A3EC
  0
LINE
  5
12A3ED
  8
SLIM
 10
12515.14248532513
 20
-259.64032742130519
 30
0.0
 11
12521.814448173471
 21
-252.9683645729709
 31
0.0
1001
ACAD
1010
0.0
1020
0.0
1030
0.0
1001
ACDBBLOCKREPETAG
1070
     1
1071
      419
1005
12A3ED
  0
LINE
  5
12A3EE
  8
SLIM
 10
12527.249225523659
 20
-256.51384334384568
 30
0.0
 11
12536.654232816631
 21
-247.10883605087631
 31
0.0
1001
ACAD
1010
0.0
1020
0.0
1030
0.0
1001
ACDBBLOCKREPETAG
1070
     1
1071
      420
1005
12A3EE
  0
LINE
  5
12A3EF
  8
SLIM
 10
12544.045159630419
 20
-248.6981653581594
 30
0.0
 11
12554.743329573899
 21
-237.99999541468151
 31
0.0
1001
ACAD
1010
0.0
1020
0.0
1030
0.0
1001
ACDBBLOCKREPETAG
1070
     1
1071
      421
1005
12A3EF
  0
LINE
  5
12A3F0
  8
CENTER
 10
12580.0
 20
-175.99999541468151
 30
0.0
 11
12400.0
 21
-175.99999541468151
 31
0.0
1001
ACDBBLOCKREPETAG
1070
     1
1071
      187
1005
12A3F0
  0
LINE
  5
12A3F1
  8
CENTER
 10
12500.0
 20
-275.99999541468162
 30
0.0
 11
12500.0
 21
-75.999995414681507
 31
0.0
1001
ACDBBLOCKREPETAG
1070
     1
1071
      188
1005
12A3F1
  0
CIRCLE
  5
12A3F2
  8
OBJECT
 10
12500.0
 20
-175.99999541468151
 30
0.0
 40
70.0
1001
ACDBBLOCKREPETAG
1070
     1
1071
      189
1005
12A3F2
  0
CIRCLE
  5
12A3F3
  8
OBJECT
 10
12500.0
 20
-175.99999541468151
 30
0.0
 40
77.0
1001
ACDBBLOCKREPETAG
1070
     1
1071
      190
1005
12A3F3
  0
ARC
  5
12A3F4
  8
OBJECT
 10
12500.0
 20
-175.99999541468151
 30
0.0
 40
80.0
 50
50.805032573897769
 51
309.19496742610232
1001
ACDBBLOCKREPETAG
1070
     1
1071
      191
1005
12A3F4
  0
LINE
  5
12A3F5
  8
OBJECT
 10
12545.661800227321
 20
-113.99999541468151
 30
0.0
 11
12580.0
 21
-113.99999541468151
 31
0.0
1001
ACDBBLOCKREPETAG
1070
     1
1071
      192
1005
12A3F5
  0
LINE
  5
12A3F6
  8
OBJECT
 10
12545.661800227321
 20
-237.99999541468151
 30
0.0
 11
12580.0
 21
-237.99999541468151
 31
0.0
1001
ACDBBLOCKREPETAG
1070
     1
1071
      193
1005
12A3F6
  0
ARC
  5
12A3F7
  8
OBJECT
 10
12500.0
 20
-175.99999541468151
 30
0.0
 40
85.0
 50
46.837102859853147
 51
313.16289714014681
1001
ACDBBLOCKREPETAG
1070
     1
1071
      202
1005
12A3F7
  0
LINE
  5
12A3F8
  8
OBJECT
 10
12524.1029330933
 20
-219.8069425383992
 30
0.0
 11
12520.659656999989
 21
-208.5546174146811
 31
0.0
1001
ACDBBLOCKREPETAG
1070
     1
1071
      321
1005
12A3F8
  0
LINE
  5
12A3F9
  8
OBJECT
 10
12486.79274990136
 20
-194.2255291567626
 30
0.0
 11
12520.659656999989
 21
-208.55461741467931
 31
0.0
1001
ACDBBLOCKREPETAG
1070
     1
1071
      323
1005
12A3F9
  0
ARC
  5
12A3FA
  8
OBJECT
 10
12482.8961697619
 20
-203.43512541373909
 30
0.0
 40
10.0
 50
67.066778292911366
 51
154.01473437031629
1001
ACDBBLOCKREPETAG
1070
     1
1071
      324
1005
12A3FA
  0
ARC
  5
12A3FB
  8
OBJECT
 10
12486.14883903812
 20
-201.55385798197401
 30
0.0
 40
7.0
 50
67.066778292911366
 51
154.0147337749826
1001
ACDBBLOCKREPETAG
1070
     1
1071
      325
1005
12A3FB
  0
LINE
  5
12A3FC
  8
OBJECT
 10
12469.4199755553
 20
-219.89888042286421
 30
0.0
 11
12479.856491823241
 21
-198.48687794825031
 31
0.0
1001
ACDBBLOCKREPETAG
1070
     1
1071
      353
1005
12A3FC
  0
LINE
  5
12A3FD
  8
OBJECT
 10
12465.29721690061
 20
-216.71813443350979
 30
0.0
 11
12473.90710226651
 21
-199.0537254589899
 31
0.0
1001
ACDBBLOCKREPETAG
1070
     1
1071
      354
1005
12A3FD
  0
ARC
  5
12A3FE
  8
OBJECT
 10
12476.57969530731
 20
-183.128932397526
 30
0.0
 40
60.031113246032611
 50
314.07020130422319
 51
322.33936106089681
1001
ACDBBLOCKREPETAG
1070
     1
1071
      355
1005
12A3FE
  0
CIRCLE
  5
12A3FF
  8
OBJECT
 10
12500.0
 20
-175.99999541468151
 30
0.0
 40
53.5
1001
ACDBBLOCKREPETAG
1070
     1
1071
      356
1005
12A3FF
  0
POINT
  5
12A400
  8
DOTS
 10
12500.0
 20
-175.99999541468151
 30
0.0
 50
270.0
1001
ACDBBLOCKREPETAG
1070
     1
1071
      365
1005
12A400
  0
LINE
  5
12A401
  8
OBJECT
 10
6524.1029330933034
 20
-219.8069425383992
 30
0.0
 11
6520.6596569999947
 21
-208.5546174146811
 31
0.0
1001
ACDBBLOCKREPETAG
1070
     1
1071
      300
1005
12A401
  0
LINE
  5
12A402
  8
OBJECT
 10
6486.7927499013749
 20
-194.2255291567626
 30
0.0
 11
6520.6596569999947
 21
-208.55461741467931
 31
0.0
1001
ACDBBLOCKREPETAG
1070
     1
1071
      302
1005
12A402
  0
ARC
  5
12A403
  8
OBJECT
 10
6482.8961697619015
 20
-203.43512541373909
 30
0.0
 40
10.0
 50
67.066778292911366
 51
154.0147343702935
1001
ACDBBLOCKREPETAG
1070
     1
1071
      303
1005
12A403
  0
ARC
  5
12A404
  8
OBJECT
 10
6486.1488390381273
 20
-201.55385798197401
 30
0.0
 40
7.0
 50
67.066778292911366
 51
154.0147337749826
1001
ACDBBLOCKREPETAG
1070
     1
1071
      304
1005
12A404
  0
LINE
  5
12A405
  8
OBJECT
 10
6469.4199755553009
 20
-219.89888042286421
 30
0.0
 11
6479.8564918232369
 21
-198.48687794825031
 31
0.0
1001
ACDBBLOCKREPETAG
1070
     1
1071
      341
1005
12A405
  0
LINE
  5
12A406
  8
OBJECT
 10
6465.2972169006089
 20
-216.71813443350979
 30
0.0
 11
6473.9071022665084
 21
-199.0537254589899
 31
0.0
1001
ACDBBLOCKREPETAG
1070
     1
1071
      342
1005
12A406
  0
ARC
  5
12A407
  8
OBJECT
 10
6476.5796953073141
 20
-183.128932397526
 30
0.0
 40
60.031113246032611
 50
314.07020130418567
 51
322.33936106089681
1001
ACDBBLOCKREPETAG
1070
     1
1071
      343
1005
12A407
  0
CIRCLE
  5
12A408
  8
OBJECT
 10
6500.0
 20
-175.99999541468151
 30
0.0
 40
53.5
1001
ACDBBLOCKREPETAG
1070
     1
1071
      344
1005
12A408
  0
POINT
  5
12A409
  8
DOTS
 10
6500.0
 20
-175.99999541468151
 30
0.0
 50
270.0
1001
ACDBBLOCKREPETAG
1070
     1
1071
      362
1005
12A409
  0
ARC
  5
12A40A
  8
OBJECT
 10
6500.0
 20
-175.99999541468151
 30
0.0
 40
50.0
 50
298.81994300000417
 51
228.52376955965491
1001
ACDBBLOCKREPETAG
1070
     1
1071
        7
1005
12A40A
  0
LINE
  5
12A40B
  8
CENTER
 10
6580.0
 20
-175.99999541468151
 30
0.0
 11
6405.0
 21
-175.99999541468151
 31
0.0
1001
ACDBBLOCKREPETAG
1070
     1
1071
       14
1005
12A40B
  0
LINE
  5
12A40C
  8
CENTER
 10
6500.0
 20
-270.99999541468162
 30
0.0
 11
6500.0
 21
-80.999995414681507
 31
0.0
1001
ACDBBLOCKREPETAG
1070
     1
1071
       15
1005
12A40C
  0
CIRCLE
  5
12A40D
  8
OBJECT
 10
6500.0
 20
-175.99999541468151
 30
0.0
 40
70.0
1001
ACDBBLOCKREPETAG
1070
     1
1071
       16
1005
12A40D
  0
CIRCLE
  5
12A40E
  8
OBJECT
 10
6500.0
 20
-175.99999541468151
 30
0.0
 40
77.0
1001
ACDBBLOCKREPETAG
1070
     1
1071
       17
1005
12A40E
  0
ARC
  5
12A40F
  8
OBJECT
 10
6500.0
 20
-175.99999541468151
 30
0.0
 40
80.0
 50
50.80503257388439
 51
309.19496742611562
1001
ACDBBLOCKREPETAG
1070
     1
1071
       18
1005
12A40F
  0
LINE
  5
12A410
  8
OBJECT
 10
6545.6618002273262
 20
-113.99999541468151
 30
0.0
 11
6580.0
 21
-113.99999541468151
 31
0.0
1001
ACDBBLOCKREPETAG
1070
     1
1071
       19
1005
12A410
  0
LINE
  5
12A411
  8
OBJECT
 10
6545.6618002273262
 20
-237.99999541468151
 30
0.0
 11
6580.0
 21
-237.99999541468151
 31
0.0
1001
ACDBBLOCKREPETAG
1070
     1
1071
       20
1005
12A411
  0
ARC
  5
12A412
  8
OBJECT
 10
10500.0
 20
-175.99999541468151
 30
0.0
 40
50.0
 50
298.81994300000417
 51
228.52376955964741
1001
ACDBBLOCKREPETAG
1070
     1
1071
      185
1005
12A412
  0
LINE
  5
12A413
  8
SLIM
 10
10427.30183005652
 20
-131.95483578426081
 30
0.0
 11
10455.954840369581
 21
-103.3018254712013
 31
0.0
1001
ACAD
1010
0.0
1020
0.0
1030
0.0
1001
ACDBBLOCKREPETAG
1070
     1
1071
      429
1005
12A413
  0
LINE
  5
12A414
  8
SLIM
 10
10419.48615207082
 20
-148.75076989101481
 30
0.0
 11
10428.8911593638
 21
-139.34576259805101
 31
0.0
1001
ACAD
1010
0.0
1020
0.0
1030
0.0
1001
ACDBBLOCKREPETAG
1070
     1
1071
      381
1005
12A414
  0
LINE
  5
12A415
  8
SLIM
 10
10463.34576718336
 20
-104.8911547784803
 30
0.0
 11
10472.75077447633
 21
-95.486147485516582
 31
0.0
1001
ACAD
1010
0.0
1020
0.0
1030
0.0
1001
ACDBBLOCKREPETAG
1070
     1
1071
      382
1005
12A415
  0
LINE
  5
12A416
  8
SLIM
 10
10416.35966799338
 20
-160.85751008954301
 30
0.0
 11
10423.03163084171
 21
-154.18554724121299
 31
0.0
1001
ACAD
1010
0.0
1020
0.0
1030
0.0
1001
ACDBBLOCKREPETAG
1070
     1
1071
      383
1005
12A416
  0
LINE
  5
12A417
  8
SLIM
 10
10478.185551826529
 20
-99.031626256387483
 30
0.0
 11
10484.857514674861
 21
-92.359663408057429
 31
0.0
1001
ACAD
1010
0.0
1020
0.0
1030
0.0
1001
ACDBBLOCKREPETAG
1070
     1
1071
      384
1005
12A417
  0
LINE
  5
12A418
  8
SLIM
 10
10415.14405758905
 20
-171.05337661493741
 30
0.0
 11
10420.691234743779
 21
-165.50619946020811
 31
0.0
1001
ACAD
1010
0.0
1020
0.0
1030
0.0
1001
ACDBBLOCKREPETAG
1070
     1
1071
      385
1005
12A418
  0
LINE
  5
12A419
  8
SLIM
 10
10489.50620404553
 20
-96.691230158461494
 30
0.0
 11
10495.05338120026
 21
-91.144053003732239
 31
0.0
1001
ACAD
1010
0.0
1020
0.0
1030
0.0
1001
ACDBBLOCKREPETAG
1070
     1
1071
      386
1005
12A419
  0
LINE
  5
12A41A
  8
SLIM
 10
10415.09796355746
 20
-180.07972676759269
 30
0.0
 11
10419.17769491037
 21
-175.99999541468151
 31
0.0
1001
ACAD
1010
0.0
1020
0.0
1030
0.0
1001
ACDBBLOCKREPETAG
1070
     1
1071
      387
1005
12A41A
  0
LINE
  5
12A41B
  8
SLIM
 10
10500.0
 20
-95.177690325059132
 30
0.0
 11
10504.0797313529
 21
-91.097958972153265
 31
0.0
1001
ACAD
1010
0.0
1020
0.0
1030
0.0
1001
ACDBBLOCKREPETAG
1070
     1
1071
      388
1005
12A41B
  0
LINE
  5
12A41C
  8
SLIM
 10
10419.17769491037
 20
-175.99999541468151
 30
0.0
 11
10420.00427028175
 21
-175.17342004330999
 31
0.0
1001
ACAD
1010
0.0
1020
0.0
1030
0.0
1001
ACDBBLOCKREPETAG
1070
     1
1071
      389
1005
12A41C
  0
LINE
  5
12A41D
  8
SLIM
 10
10499.173424628631
 20
-96.004265696428789
 30
0.0
 11
10500.0
 21
-95.177690325059146
 31
0.0
1001
ACAD
1010
0.0
1020
0.0
1030
0.0
1001
ACDBBLOCKREPETAG
1070
     1
1071
      390
1005
12A41D
  0
LINE
  5
12A41E
  8
SLIM
 10
10415.88997262086
 20
-188.2679738252624
 30
0.0
 11
10420.37908993235
 21
-183.77885651377261
 31
0.0
1001
ACAD
1010
0.0
1020
0.0
1030
0.0
1001
ACDBBLOCKREPETAG
1070
     1
1071
      391
1005
12A41E
  0
LINE
  5
12A41F
  8
SLIM
 10
10507.77886109909
 20
-96.379085347030724
 30
0.0
 11
10512.26797841056
 21
-91.889968035552343
 31
0.0
1001
ACAD
1010
0.0
1020
0.0
1030
0.0
1001
ACDBBLOCKREPETAG
1070
     1
1071
      392
1005
12A41F
  0
LINE
  5
12A420
  8
SLIM
 10
10417.338265695151
 20
-195.7999368720495
 30
0.0
 11
10421.53614970347
 21
-191.6020528637238
 31
0.0
1001
ACAD
1010
0.0
1020
0.0
1030
0.0
1001
ACDBBLOCKREPETAG
1070
     1
1071
      393
1005
12A420
  0
LINE
  5
12A421
  8
SLIM
 10
10515.60205744905
 20
-97.536145118149506
 30
0.0
 11
10519.799941457361
 21
-93.338261109834278
 31
0.0
1001
ACAD
1010
0.0
1020
0.0
1030
0.0
1001
ACDBBLOCKREPETAG
1070
     1
1071
      394
1005
12A421
  0
LINE
  5
12A422
  8
SLIM
 10
10419.331259406301
 20
-202.78719928196651
 30
0.0
 11
10423.317950993851
 21
-198.80050769441161
 31
0.0
1001
ACAD
1010
0.0
1020
0.0
1030
0.0
1001
ACDBBLOCKREPETAG
1070
     1
1071
      395
1005
12A422
  0
LINE
  5
12A423
  8
SLIM
 10
10522.800512279729
 20
-99.317946408531412
 30
0.0
 11
10526.787203867279
 21
-95.331254820986345
 31
0.0
1001
ACAD
1010
0.0
1020
0.0
1030
0.0
1001
ACDBBLOCKREPETAG
1070
     1
1071
      396
1005
12A423
  0
LINE
  5
12A424
  8
SLIM
 10
10421.795716318609
 20
-209.3029984907202
 30
0.0
 11
10425.62664068147
 21
-205.47207412786429
 31
0.0
1001
ACAD
1010
0.0
1020
0.0
1030
0.0
1001
ACDBBLOCKREPETAG
1070
     1
1071
      397
1005
12A424
  0
LINE
  5
12A425
  8
SLIM
 10
10529.47207871319
 20
-101.6266360961484
 30
0.0
 11
10533.303003076029
 21
-97.795711733301616
 31
0.0
1001
ACAD
1010
0.0
1020
0.0
1030
0.0
1001
ACDBBLOCKREPETAG
1070
     1
1071
      398
1005
12A425
  0
LINE
  5
12A426
  8
SLIM
 10
10424.681663531341
 20
-215.39730739906469
 30
0.0
 11
10428.397899414491
 21
-211.68107151591281
 31
0.0
1001
ACAD
1010
0.0
1020
0.0
1030
0.0
1001
ACDBBLOCKREPETAG
1070
     1
1071
      399
1005
12A426
  0
LINE
  5
12A427
  8
SLIM
 10
10535.681076101229
 20
-104.3978948291695
 30
0.0
 11
10539.397311984379
 21
-100.6816589460261
 31
0.0
1001
ACAD
1010
0.0
1020
0.0
1030
0.0
1001
ACDBBLOCKREPETAG
1070
     1
1071
      400
1005
12A427
  0
LINE
  5
12A428
  8
SLIM
 10
10427.954461102419
 20
-221.1047659490537
 30
0.0
 11
10431.58829484775
 21
-217.47093220372389
 31
0.0
1001
ACAD
1010
0.0
1020
0.0
1030
0.0
1001
ACDBBLOCKREPETAG
1070
     1
1071
      401
1005
12A428
  0
LINE
  5
12A429
  8
SLIM
 10
10541.470936789039
 20
-107.588290262428
 30
0.0
 11
10545.10477053437
 21
-103.9544565171061
 31
0.0
1001
ACAD
1010
0.0
1020
0.0
1030
0.0
1001
ACDBBLOCKREPETAG
1070
     1
1071
      402
1005
12A429
  0
LINE
  5
12A42A
  8
SLIM
 10
10431.59033196866
 20
-226.44915120388191
 30
0.0
 11
10435.16855767846
 21
-222.8709254940826
 31
0.0
1001
ACAD
1010
0.0
1020
0.0
1030
0.0
1001
ACDBBLOCKREPETAG
1070
     1
1071
      403
1005
12A42A
  0
LINE
  5
12A42B
  8
SLIM
 10
10546.8709300794
 20
-111.1685530931389
 30
0.0
 11
10550.449155789191
 21
-107.5903273833469
 31
0.0
1001
ACAD
1010
0.0
1020
0.0
1030
0.0
1001
ACDBBLOCKREPETAG
1070
     1
1071
      404
1005
12A42B
  0
LINE
  5
12A42C
  8
SLIM
 10
10435.573749692519
 20
-231.44598960108971
 30
0.0
 11
10439.119812975139
 21
-227.89992631846809
 31
0.0
1001
ACAD
1010
0.0
1020
0.0
1030
0.0
1001
ACDBBLOCKREPETAG
1070
     1
1071
      405
1005
12A42C
  0
LINE
  5
12A42D
  8
SLIM
 10
10553.019743878929
 20
-113.99999541468151
 30
0.0
 11
10555.445994186401
 21
-111.5737451072081
 31
0.0
1001
ACAD
1010
0.0
1020
0.0
1030
0.0
1001
ACDBBLOCKREPETAG
1070
     1
1071
      406
1005
12A42D
  0
LINE
  5
12A42E
  8
SLIM
 10
10439.895923599141
 20
-236.10407181554169
 30
0.0
 11
10443.431457505079
 21
-232.5685379096023
 31
0.0
1001
ACAD
1010
0.0
1020
0.0
1030
0.0
1001
ACDBBLOCKREPETAG
1070
     1
1071
      407
1005
12A42E
  0
LINE
  5
12A42F
  8
SLIM
 10
10444.55400581359
 20
-240.42624572215851
 30
0.0
 11
10448.10006909621
 21
-236.88018243953789
 31
0.0
1001
ACAD
1010
0.0
1020
0.0
1030
0.0
1001
ACDBBLOCKREPETAG
1070
     1
1071
      408
1005
12A42F
  0
LINE
  5
12A430
  8
SLIM
 10
10449.5508442108
 20
-244.40966344601941
 30
0.0
 11
10453.1290699206
 21
-240.831437736222
 31
0.0
1001
ACAD
1010
0.0
1020
0.0
1030
0.0
1001
ACDBBLOCKREPETAG
1070
     1
1071
      409
1005
12A430
  0
LINE
  5
12A431
  8
SLIM
 10
10454.89522946563
 20
-248.04553431225989
 30
0.0
 11
10458.52906321095
 21
-244.41170056693321
 31
0.0
1001
ACAD
1010
0.0
1020
0.0
1030
0.0
1001
ACDBBLOCKREPETAG
1070
     1
1071
      410
1005
12A431
  0
LINE
  5
12A432
  8
SLIM
 10
10460.602688015621
 20
-251.3183318833396
 30
0.0
 11
10464.31892389876
 21
-247.60209600019189
 31
0.0
1001
ACAD
1010
0.0
1020
0.0
1030
0.0
1001
ACDBBLOCKREPETAG
1070
     1
1071
      411
1005
12A432
  0
LINE
  5
12A433
  8
SLIM
 10
10466.69699692396
 20
-254.2042790960638
 30
0.0
 11
10470.52792128681
 21
-250.3733547332132
 31
0.0
1001
ACAD
1010
0.0
1020
0.0
1030
0.0
1001
ACDBBLOCKREPETAG
1070
     1
1071
      412
1005
12A433
  0
LINE
  5
12A434
  8
SLIM
 10
10473.212796132721
 20
-256.66873600837869
 30
0.0
 11
10477.19948772026
 21
-252.68204442083049
 31
0.0
1001
ACAD
1010
0.0
1020
0.0
1030
0.0
1001
ACDBBLOCKREPETAG
1070
     1
1071
      413
1005
12A434
  0
LINE
  5
12A435
  8
SLIM
 10
10480.20005854263
 20
-258.66172971953029
 30
0.0
 11
10484.39794255095
 21
-254.4638457112128
 31
0.0
1001
ACAD
1010
0.0
1020
0.0
1030
0.0
1001
ACDBBLOCKREPETAG
1070
     1
1071
      414
1005
12A435
  0
LINE
  5
12A436
  8
SLIM
 10
10487.73202158942
 20
-260.11002279381171
 30
0.0
 11
10492.221138900901
 21
-255.62090548233189
 31
0.0
1001
ACAD
1010
0.0
1020
0.0
1030
0.0
1001
ACDBBLOCKREPETAG
1070
     1
1071
      415
1005
12A436
  0
LINE
  5
12A437
  8
SLIM
 10
10495.920268647091
 20
-260.90203185721009
 30
0.0
 11
10500.0
 21
-256.82230050430388
 31
0.0
1001
ACAD
1010
0.0
1020
0.0
1030
0.0
1001
ACDBBLOCKREPETAG
1070
     1
1071
      416
1005
12A437
  0
LINE
  5
12A438
  8
SLIM
 10
10500.0
 20
-256.82230050430388
 30
0.0
 11
10500.826575371369
 21
-255.99572513293049
 31
0.0
1001
ACAD
1010
0.0
1020
0.0
1030
0.0
1001
ACDBBLOCKREPETAG
1070
     1
1071
      417
1005
12A438
  0
LINE
  5
12A439
  8
SLIM
 10
10504.94661879974
 20
-260.85593782563058
 30
0.0
 11
10510.49379595447
 21
-255.3087606708975
 31
0.0
1001
ACAD
1010
0.0
1020
0.0
1030
0.0
1001
ACDBBLOCKREPETAG
1070
     1
1071
      418
1005
12A439
  0
LINE
  5
12A43A
  8
SLIM
 10
10515.14248532513
 20
-259.64032742130519
 30
0.0
 11
10521.814448173471
 21
-252.9683645729709
 31
0.0
1001
ACAD
1010
0.0
1020
0.0
1030
0.0
1001
ACDBBLOCKREPETAG
1070
     1
1071
      419
1005
12A43A
  0
LINE
  5
12A43B
  8
SLIM
 10
10527.249225523659
 20
-256.51384334384568
 30
0.0
 11
10536.654232816631
 21
-247.10883605087631
 31
0.0
1001
ACAD
1010
0.0
1020
0.0
1030
0.0
1001
ACDBBLOCKREPETAG
1070
     1
1071
      420
1005
12A43B
  0
LINE
  5
12A43C
  8
SLIM
 10
10544.045159630419
 20
-248.6981653581594
 30
0.0
 11
10554.743329573899
 21
-237.99999541468151
 31
0.0
1001
ACAD
1010
0.0
1020
0.0
1030
0.0
1001
ACDBBLOCKREPETAG
1070
     1
1071
      421
1005
12A43C
  0
LINE
  5
12A43D
  8
CENTER
 10
10580.0
 20
-175.99999541468151
 30
0.0
 11
10400.0
 21
-175.99999541468151
 31
0.0
1001
ACDBBLOCKREPETAG
1070
     1
1071
      187
1005
12A43D
  0
LINE
  5
12A43E
  8
CENTER
 10
10500.0
 20
-275.99999541468162
 30
0.0
 11
10500.0
 21
-75.999995414681507
 31
0.0
1001
ACDBBLOCKREPETAG
1070
     1
1071
      188
1005
12A43E
  0
CIRCLE
  5
12A43F
  8
OBJECT
 10
10500.0
 20
-175.99999541468151
 30
0.0
 40
70.0
1001
ACDBBLOCKREPETAG
1070
     1
1071
      189
1005
12A43F
  0
CIRCLE
  5
12A440
  8
OBJECT
 10
10500.0
 20
-175.99999541468151
 30
0.0
 40
77.0
1001
ACDBBLOCKREPETAG
1070
     1
1071
      190
1005
12A440
  0
ARC
  5
12A441
  8
OBJECT
 10
10500.0
 20
-175.99999541468151
 30
0.0
 40
80.0
 50
50.805032573897769
 51
309.19496742610232
1001
ACDBBLOCKREPETAG
1070
     1
1071
      191
1005
12A441
  0
LINE
  5
12A442
  8
OBJECT
 10
10545.661800227321
 20
-113.99999541468151
 30
0.0
 11
10580.0
 21
-113.99999541468151
 31
0.0
1001
ACDBBLOCKREPETAG
1070
     1
1071
      192
1005
12A442
  0
LINE
  5
12A443
  8
OBJECT
 10
10545.661800227321
 20
-237.99999541468151
 30
0.0
 11
10580.0
 21
-237.99999541468151
 31
0.0
1001
ACDBBLOCKREPETAG
1070
     1
1071
      193
1005
12A443
  0
ARC
  5
12A444
  8
OBJECT
 10
10500.0
 20
-175.99999541468151
 30
0.0
 40
85.0
 50
46.837102859853147
 51
313.16289714014681
1001
ACDBBLOCKREPETAG
1070
     1
1071
      202
1005
12A444
  0
LINE
  5
12A445
  8
OBJECT
 10
10524.1029330933
 20
-219.8069425383992
 30
0.0
 11
10520.659656999989
 21
-208.5546174146811
 31
0.0
1001
ACDBBLOCKREPETAG
1070
     1
1071
      321
1005
12A445
  0
LINE
  5
12A446
  8
OBJECT
 10
10486.792749901369
 20
-194.2255291567626
 30
0.0
 11
10520.659656999989
 21
-208.55461741467931
 31
0.0
1001
ACDBBLOCKREPETAG
1070
     1
1071
      323
1005
12A446
  0
ARC
  5
12A447
  8
OBJECT
 10
10482.8961697619
 20
-203.43512541373909
 30
0.0
 40
10.0
 50
67.066778292911366
 51
154.01473437031629
1001
ACDBBLOCKREPETAG
1070
     1
1071
      324
1005
12A447
  0
ARC
  5
12A448
  8
OBJECT
 10
10486.14883903812
 20
-201.55385798197401
 30
0.0
 40
7.0
 50
67.066778292911366
 51
154.0147337749826
1001
ACDBBLOCKREPETAG
1070
     1
1071
      325
1005
12A448
  0
LINE
  5
12A449
  8
OBJECT
 10
10469.4199755553
 20
-219.89888042286421
 30
0.0
 11
10479.856491823241
 21
-198.48687794825031
 31
0.0
1001
ACDBBLOCKREPETAG
1070
     1
1071
      353
1005
12A449
  0
LINE
  5
12A44A
  8
OBJECT
 10
10465.29721690061
 20
-216.71813443350979
 30
0.0
 11
10473.90710226651
 21
-199.0537254589899
 31
0.0
1001
ACDBBLOCKREPETAG
1070
     1
1071
      354
1005
12A44A
  0
ARC
  5
12A44B
  8
OBJECT
 10
10476.57969530731
 20
-183.128932397526
 30
0.0
 40
60.031113246032611
 50
314.07020130422319
 51
322.33936106089681
1001
ACDBBLOCKREPETAG
1070
     1
1071
      355
1005
12A44B
  0
CIRCLE
  5
12A44C
  8
OBJECT
 10
10500.0
 20
-175.99999541468151
 30
0.0
 40
53.5
1001
ACDBBLOCKREPETAG
1070
     1
1071
      356
1005
12A44C
  0
POINT
  5
12A44D
  8
DOTS
 10
10500.0
 20
-175.99999541468151
 30
0.0
 50
270.0
1001
ACDBBLOCKREPETAG
1070
     1
1071
      365
1005
12A44D
  0
LINE
  5
12A44E
  8
OBJECT
 10
4524.1029330933034
 20
-219.8069425383992
 30
0.0
 11
4520.6596569999947
 21
-208.5546174146811
 31
0.0
1001
ACDBBLOCKREPETAG
1070
     1
1071
      300
1005
12A44E
  0
LINE
  5
12A44F
  8
OBJECT
 10
4486.7927499013749
 20
-194.2255291567626
 30
0.0
 11
4520.6596569999947
 21
-208.55461741467931
 31
0.0
1001
ACDBBLOCKREPETAG
1070
     1
1071
      302
1005
12A44F
  0
ARC
  5
12A450
  8
OBJECT
 10
4482.8961697619006
 20
-203.43512541373909
 30
0.0
 40
10.0
 50
67.066778292911366
 51
154.0147343702935
1001
ACDBBLOCKREPETAG
1070
     1
1071
      303
1005
12A450
  0
ARC
  5
12A451
  8
OBJECT
 10
4486.1488390381273
 20
-201.55385798197401
 30
0.0
 40
7.0
 50
67.066778292911366
 51
154.0147337749826
1001
ACDBBLOCKREPETAG
1070
     1
1071
      304
1005
12A451
  0
LINE
  5
12A452
  8
OBJECT
 10
4469.4199755553018
 20
-219.89888042286421
 30
0.0
 11
4479.8564918232369
 21
-198.48687794825031
 31
0.0
1001
ACDBBLOCKREPETAG
1070
     1
1071
      341
1005
12A452
  0
LINE
  5
12A453
  8
OBJECT
 10
4465.2972169006089
 20
-216.71813443350979
 30
0.0
 11
4473.9071022665084
 21
-199.0537254589899
 31
0.0
1001
ACDBBLOCKREPETAG
1070
     1
1071
      342
1005
12A453
  0
ARC
  5
12A454
  8
OBJECT
 10
4476.5796953073141
 20
-183.128932397526
 30
0.0
 40
60.031113246032611
 50
314.07020130418567
 51
322.33936106089681
1001
ACDBBLOCKREPETAG
1070
     1
1071
      343
1005
12A454
  0
CIRCLE
  5
12A455
  8
OBJECT
 10
4500.0
 20
-175.99999541468151
 30
0.0
 40
53.5
1001
ACDBBLOCKREPETAG
1070
     1
1071
      344
1005
12A455
  0
POINT
  5
12A456
  8
DOTS
 10
4500.0
 20
-175.99999541468151
 30
0.0
 50
270.0
1001
ACDBBLOCKREPETAG
1070
     1
1071
      362
1005
12A456
  0
ARC
  5
12A457
  8
OBJECT
 10
4500.0
 20
-175.99999541468151
 30
0.0
 40
50.0
 50
298.81994300000417
 51
228.52376955965491
1001
ACDBBLOCKREPETAG
1070
     1
1071
        7
1005
12A457
  0
LINE
  5
12A458
  8
CENTER
 10
4580.0
 20
-175.99999541468151
 30
0.0
 11
4405.0
 21
-175.99999541468151
 31
0.0
1001
ACDBBLOCKREPETAG
1070
     1
1071
       14
1005
12A458
  0
LINE
  5
12A459
  8
CENTER
 10
4500.0
 20
-270.99999541468162
 30
0.0
 11
4500.0
 21
-80.999995414681507
 31
0.0
1001
ACDBBLOCKREPETAG
1070
     1
1071
       15
1005
12A459
  0
CIRCLE
  5
12A45A
  8
OBJECT
 10
4500.0
 20
-175.99999541468151
 30
0.0
 40
70.0
1001
ACDBBLOCKREPETAG
1070
     1
1071
       16
1005
12A45A
  0
CIRCLE
  5
12A45B
  8
OBJECT
 10
4500.0
 20
-175.99999541468151
 30
0.0
 40
77.0
1001
ACDBBLOCKREPETAG
1070
     1
1071
       17
1005
12A45B
  0
ARC
  5
12A45C
  8
OBJECT
 10
4500.0
 20
-175.99999541468151
 30
0.0
 40
80.0
 50
50.80503257388439
 51
309.19496742611562
1001
ACDBBLOCKREPETAG
1070
     1
1071
       18
1005
12A45C
  0
LINE
  5
12A45D
  8
OBJECT
 10
4545.6618002273244
 20
-113.99999541468151
 30
0.0
 11
4580.0
 21
-113.99999541468151
 31
0.0
1001
ACDBBLOCKREPETAG
1070
     1
1071
       19
1005
12A45D
  0
LINE
  5
12A45E
  8
OBJECT
 10
4545.6618002273244
 20
-237.99999541468151
 30
0.0
 11
4580.0
 21
-237.99999541468151
 31
0.0
1001
ACDBBLOCKREPETAG
1070
     1
1071
       20
1005
12A45E
  0
ARC
  5
12A45F
  8
OBJECT
 10
8500.0
 20
-175.99999541468151
 30
0.0
 40
50.0
 50
298.81994300000417
 51
228.52376955964741
1001
ACDBBLOCKREPETAG
1070
     1
1071
      185
1005
12A45F
  0
LINE
  5
12A460
  8
SLIM
 10
8427.3018300565236
 20
-131.95483578426081
 30
0.0
 11
8455.9548403695826
 21
-103.3018254712013
 31
0.0
1001
ACAD
1010
0.0
1020
0.0
1030
0.0
1001
ACDBBLOCKREPETAG
1070
     1
1071
      429
1005
12A460
  0
LINE
  5
12A461
  8
SLIM
 10
8419.4861520708346
 20
-148.75076989101481
 30
0.0
 11
8428.8911593638004
 21
-139.34576259805101
 31
0.0
1001
ACAD
1010
0.0
1020
0.0
1030
0.0
1001
ACDBBLOCKREPETAG
1070
     1
1071
      381
1005
12A461
  0
LINE
  5
12A462
  8
SLIM
 10
8463.3457671833712
 20
-104.8911547784803
 30
0.0
 11
8472.7507744763334
 21
-95.486147485516582
 31
0.0
1001
ACAD
1010
0.0
1020
0.0
1030
0.0
1001
ACDBBLOCKREPETAG
1070
     1
1071
      382
1005
12A462
  0
LINE
  5
12A463
  8
SLIM
 10
8416.3596679933762
 20
-160.85751008954301
 30
0.0
 11
8423.0316308417041
 21
-154.18554724121299
 31
0.0
1001
ACAD
1010
0.0
1020
0.0
1030
0.0
1001
ACDBBLOCKREPETAG
1070
     1
1071
      383
1005
12A463
  0
LINE
  5
12A464
  8
SLIM
 10
8478.1855518265329
 20
-99.031626256387483
 30
0.0
 11
8484.8575146748626
 21
-92.359663408057429
 31
0.0
1001
ACAD
1010
0.0
1020
0.0
1030
0.0
1001
ACDBBLOCKREPETAG
1070
     1
1071
      384
1005
12A464
  0
LINE
  5
12A465
  8
SLIM
 10
8415.1440575890501
 20
-171.05337661493741
 30
0.0
 11
8420.691234743781
 21
-165.50619946020811
 31
0.0
1001
ACAD
1010
0.0
1020
0.0
1030
0.0
1001
ACDBBLOCKREPETAG
1070
     1
1071
      385
1005
12A465
  0
LINE
  5
12A466
  8
SLIM
 10
8489.5062040455286
 20
-96.691230158461494
 30
0.0
 11
8495.0533812002577
 21
-91.144053003732239
 31
0.0
1001
ACAD
1010
0.0
1020
0.0
1030
0.0
1001
ACDBBLOCKREPETAG
1070
     1
1071
      386
1005
12A466
  0
LINE
  5
12A467
  8
SLIM
 10
8415.0979635574658
 20
-180.07972676759269
 30
0.0
 11
8419.1776949103787
 21
-175.99999541468151
 31
0.0
1001
ACAD
1010
0.0
1020
0.0
1030
0.0
1001
ACDBBLOCKREPETAG
1070
     1
1071
      387
1005
12A467
  0
LINE
  5
12A468
  8
SLIM
 10
8500.0
 20
-95.177690325059132
 30
0.0
 11
8504.0797313529074
 21
-91.097958972153265
 31
0.0
1001
ACAD
1010
0.0
1020
0.0
1030
0.0
1001
ACDBBLOCKREPETAG
1070
     1
1071
      388
1005
12A468
  0
LINE
  5
12A469
  8
SLIM
 10
8419.1776949103787
 20
-175.99999541468151
 30
0.0
 11
8420.0042702817464
 21
-175.17342004330999
 31
0.0
1001
ACAD
1010
0.0
1020
0.0
1030
0.0
1001
ACDBBLOCKREPETAG
1070
     1
1071
      389
1005
12A469
  0
LINE
  5
12A46A
  8
SLIM
 10
8499.1734246286305
 20
-96.004265696428789
 30
0.0
 11
8500.0
 21
-95.177690325059146
 31
0.0
1001
ACAD
1010
0.0
1020
0.0
1030
0.0
1001
ACDBBLOCKREPETAG
1070
     1
1071
      390
1005
12A46A
  0
LINE
  5
12A46B
  8
SLIM
 10
8415.8899726208656
 20
-188.2679738252624
 30
0.0
 11
8420.3790899323576
 21
-183.77885651377261
 31
0.0
1001
ACAD
1010
0.0
1020
0.0
1030
0.0
1001
ACDBBLOCKREPETAG
1070
     1
1071
      391
1005
12A46B
  0
LINE
  5
12A46C
  8
SLIM
 10
8507.7788610990974
 20
-96.379085347030724
 30
0.0
 11
8512.2679784105767
 21
-91.889968035552343
 31
0.0
1001
ACAD
1010
0.0
1020
0.0
1030
0.0
1001
ACDBBLOCKREPETAG
1070
     1
1071
      392
1005
12A46C
  0
LINE
  5
12A46D
  8
SLIM
 10
8417.3382656951471
 20
-195.7999368720495
 30
0.0
 11
8421.5361497034737
 21
-191.6020528637238
 31
0.0
1001
ACAD
1010
0.0
1020
0.0
1030
0.0
1001
ACDBBLOCKREPETAG
1070
     1
1071
      393
1005
12A46D
  0
LINE
  5
12A46E
  8
SLIM
 10
8515.6020574490485
 20
-97.536145118149506
 30
0.0
 11
8519.7999414573624
 21
-93.338261109834278
 31
0.0
1001
ACAD
1010
0.0
1020
0.0
1030
0.0
1001
ACDBBLOCKREPETAG
1070
     1
1071
      394
1005
12A46E
  0
LINE
  5
12A46F
  8
SLIM
 10
8419.3312594063045
 20
-202.78719928196651
 30
0.0
 11
8423.3179509938545
 21
-198.80050769441161
 31
0.0
1001
ACAD
1010
0.0
1020
0.0
1030
0.0
1001
ACDBBLOCKREPETAG
1070
     1
1071
      395
1005
12A46F
  0
LINE
  5
12A470
  8
SLIM
 10
8522.8005122797367
 20
-99.317946408531412
 30
0.0
 11
8526.7872038672776
 21
-95.331254820986345
 31
0.0
1001
ACAD
1010
0.0
1020
0.0
1030
0.0
1001
ACDBBLOCKREPETAG
1070
     1
1071
      396
1005
12A470
  0
LINE
  5
12A471
  8
SLIM
 10
8421.7957163186147
 20
-209.3029984907202
 30
0.0
 11
8425.6266406814684
 21
-205.47207412786429
 31
0.0
1001
ACAD
1010
0.0
1020
0.0
1030
0.0
1001
ACDBBLOCKREPETAG
1070
     1
1071
      397
1005
12A471
  0
LINE
  5
12A472
  8
SLIM
 10
8529.4720787131864
 20
-101.6266360961484
 30
0.0
 11
8533.3030030760347
 21
-97.795711733301616
 31
0.0
1001
ACAD
1010
0.0
1020
0.0
1030
0.0
1001
ACDBBLOCKREPETAG
1070
     1
1071
      398
1005
12A472
  0
LINE
  5
12A473
  8
SLIM
 10
8424.6816635313407
 20
-215.39730739906469
 30
0.0
 11
8428.3978994144927
 21
-211.68107151591281
 31
0.0
1001
ACAD
1010
0.0
1020
0.0
1030
0.0
1001
ACDBBLOCKREPETAG
1070
     1
1071
      399
1005
12A473
  0
LINE
  5
12A474
  8
SLIM
 10
8535.6810761012348
 20
-104.3978948291695
 30
0.0
 11
8539.3973119843777
 21
-100.6816589460261
 31
0.0
1001
ACAD
1010
0.0
1020
0.0
1030
0.0
1001
ACDBBLOCKREPETAG
1070
     1
1071
      400
1005
12A474
  0
LINE
  5
12A475
  8
SLIM
 10
8427.9544611024212
 20
-221.1047659490537
 30
0.0
 11
8431.5882948477501
 21
-217.47093220372389
 31
0.0
1001
ACAD
1010
0.0
1020
0.0
1030
0.0
1001
ACDBBLOCKREPETAG
1070
     1
1071
      401
1005
12A475
  0
LINE
  5
12A476
  8
SLIM
 10
8541.4709367890446
 20
-107.588290262428
 30
0.0
 11
8545.1047705343717
 21
-103.9544565171061
 31
0.0
1001
ACAD
1010
0.0
1020
0.0
1030
0.0
1001
ACDBBLOCKREPETAG
1070
     1
1071
      402
1005
12A476
  0
LINE
  5
12A477
  8
SLIM
 10
8431.5903319686622
 20
-226.44915120388191
 30
0.0
 11
8435.1685576784603
 21
-222.8709254940826
 31
0.0
1001
ACAD
1010
0.0
1020
0.0
1030
0.0
1001
ACDBBLOCKREPETAG
1070
     1
1071
      403
1005
12A477
  0
LINE
  5
12A478
  8
SLIM
 10
8546.8709300794035
 20
-111.1685530931389
 30
0.0
 11
8550.4491557891979
 21
-107.5903273833469
 31
0.0
1001
ACAD
1010
0.0
1020
0.0
1030
0.0
1001
ACDBBLOCKREPETAG
1070
     1
1071
      404
1005
12A478
  0
LINE
  5
12A479
  8
SLIM
 10
8435.5737496925212
 20
-231.44598960108971
 30
0.0
 11
8439.1198129751447
 21
-227.89992631846809
 31
0.0
1001
ACAD
1010
0.0
1020
0.0
1030
0.0
1001
ACDBBLOCKREPETAG
1070
     1
1071
      405
1005
12A479
  0
LINE
  5
12A47A
  8
SLIM
 10
8553.0197438789328
 20
-113.99999541468151
 30
0.0
 11
8555.4459941864025
 21
-111.5737451072081
 31
0.0
1001
ACAD
1010
0.0
1020
0.0
1030
0.0
1001
ACDBBLOCKREPETAG
1070
     1
1071
      406
1005
12A47A
  0
LINE
  5
12A47B
  8
SLIM
 10
8439.8959235991388
 20
-236.10407181554169
 30
0.0
 11
8443.4314575050776
 21
-232.5685379096023
 31
0.0
1001
ACAD
1010
0.0
1020
0.0
1030
0.0
1001
ACDBBLOCKREPETAG
1070
     1
1071
      407
1005
12A47B
  0
LINE
  5
12A47C
  8
SLIM
 10
8444.5540058135903
 20
-240.42624572215851
 30
0.0
 11
8448.1000690962137
 21
-236.88018243953789
 31
0.0
1001
ACAD
1010
0.0
1020
0.0
1030
0.0
1001
ACDBBLOCKREPETAG
1070
     1
1071
      408
1005
12A47C
  0
LINE
  5
12A47D
  8
SLIM
 10
8449.5508442108003
 20
-244.40966344601941
 30
0.0
 11
8453.1290699205965
 21
-240.831437736222
 31
0.0
1001
ACAD
1010
0.0
1020
0.0
1030
0.0
1001
ACDBBLOCKREPETAG
1070
     1
1071
      409
1005
12A47D
  0
LINE
  5
12A47E
  8
SLIM
 10
8454.8952294656283
 20
-248.04553431225989
 30
0.0
 11
8458.5290632109554
 21
-244.41170056693321
 31
0.0
1001
ACAD
1010
0.0
1020
0.0
1030
0.0
1001
ACDBBLOCKREPETAG
1070
     1
1071
      410
1005
12A47E
  0
LINE
  5
12A47F
  8
SLIM
 10
8460.6026880156169
 20
-251.3183318833396
 30
0.0
 11
8464.318923898767
 21
-247.60209600019189
 31
0.0
1001
ACAD
1010
0.0
1020
0.0
1030
0.0
1001
ACDBBLOCKREPETAG
1070
     1
1071
      411
1005
12A47F
  0
LINE
  5
12A480
  8
SLIM
 10
8466.6969969239617
 20
-254.2042790960638
 30
0.0
 11
8470.5279212868136
 21
-250.3733547332132
 31
0.0
1001
ACAD
1010
0.0
1020
0.0
1030
0.0
1001
ACDBBLOCKREPETAG
1070
     1
1071
      412
1005
12A480
  0
LINE
  5
12A481
  8
SLIM
 10
8473.2127961327187
 20
-256.66873600837869
 30
0.0
 11
8477.1994877202687
 21
-252.68204442083049
 31
0.0
1001
ACAD
1010
0.0
1020
0.0
1030
0.0
1001
ACDBBLOCKREPETAG
1070
     1
1071
      413
1005
12A481
  0
LINE
  5
12A482
  8
SLIM
 10
8480.2000585426358
 20
-258.66172971953029
 30
0.0
 11
8484.3979425509551
 21
-254.4638457112128
 31
0.0
1001
ACAD
1010
0.0
1020
0.0
1030
0.0
1001
ACDBBLOCKREPETAG
1070
     1
1071
      414
1005
12A482
  0
LINE
  5
12A483
  8
SLIM
 10
8487.7320215894215
 20
-260.11002279381171
 30
0.0
 11
8492.2211389009026
 21
-255.62090548233189
 31
0.0
1001
ACAD
1010
0.0
1020
0.0
1030
0.0
1001
ACDBBLOCKREPETAG
1070
     1
1071
      415
1005
12A483
  0
LINE
  5
12A484
  8
SLIM
 10
8495.9202686470926
 20
-260.90203185721009
 30
0.0
 11
8500.0
 21
-256.82230050430388
 31
0.0
1001
ACAD
1010
0.0
1020
0.0
1030
0.0
1001
ACDBBLOCKREPETAG
1070
     1
1071
      416
1005
12A484
  0
LINE
  5
12A485
  8
SLIM
 10
8500.0
 20
-256.82230050430388
 30
0.0
 11
8500.8265753713731
 21
-255.99572513293049
 31
0.0
1001
ACAD
1010
0.0
1020
0.0
1030
0.0
1001
ACDBBLOCKREPETAG
1070
     1
1071
      417
1005
12A485
  0
LINE
  5
12A486
  8
SLIM
 10
8504.9466187997423
 20
-260.85593782563058
 30
0.0
 11
8510.493795954475
 21
-255.3087606708975
 31
0.0
1001
ACAD
1010
0.0
1020
0.0
1030
0.0
1001
ACDBBLOCKREPETAG
1070
     1
1071
      418
1005
12A486
  0
LINE
  5
12A487
  8
SLIM
 10
8515.1424853251374
 20
-259.64032742130519
 30
0.0
 11
8521.8144481734707
 21
-252.9683645729709
 31
0.0
1001
ACAD
1010
0.0
1020
0.0
1030
0.0
1001
ACDBBLOCKREPETAG
1070
     1
1071
      419
1005
12A487
  0
LINE
  5
12A488
  8
SLIM
 10
8527.2492255236666
 20
-256.51384334384568
 30
0.0
 11
8536.6542328166342
 21
-247.10883605087631
 31
0.0
1001
ACAD
1010
0.0
1020
0.0
1030
0.0
1001
ACDBBLOCKREPETAG
1070
     1
1071
      420
1005
12A488
  0
LINE
  5
12A489
  8
SLIM
 10
8544.045159630421
 20
-248.6981653581594
 30
0.0
 11
8554.7433295738992
 21
-237.99999541468151
 31
0.0
1001
ACAD
1010
0.0
1020
0.0
1030
0.0
1001
ACDBBLOCKREPETAG
1070
     1
1071
      421
1005
12A489
  0
LINE
  5
12A48A
  8
CENTER
 10
8580.0
 20
-175.99999541468151
 30
0.0
 11
8400.0
 21
-175.99999541468151
 31
0.0
1001
ACDBBLOCKREPETAG
1070
     1
1071
      187
1005
12A48A
  0
LINE
  5
12A48B
  8
CENTER
 10
8500.0
 20
-275.99999541468162
 30
0.0
 11
8500.0
 21
-75.999995414681507
 31
0.0
1001
ACDBBLOCKREPETAG
1070
     1
1071
      188
1005
12A48B
  0
CIRCLE
  5
12A48C
  8
OBJECT
 10
8500.0
 20
-175.99999541468151
 30
0.0
 40
70.0
1001
ACDBBLOCKREPETAG
1070
     1
1071
      189
1005
12A48C
  0
CIRCLE
  5
12A48D
  8
OBJECT
 10
8500.0
 20
-175.99999541468151
 30
0.0
 40
77.0
1001
ACDBBLOCKREPETAG
1070
     1
1071
      190
1005
12A48D
  0
ARC
  5
12A48E
  8
OBJECT
 10
8500.0
 20
-175.99999541468151
 30
0.0
 40
80.0
 50
50.805032573897769
 51
309.19496742610232
1001
ACDBBLOCKREPETAG
1070
     1
1071
      191
1005
12A48E
  0
LINE
  5
12A48F
  8
OBJECT
 10
8545.6618002273262
 20
-113.99999541468151
 30
0.0
 11
8580.0
 21
-113.99999541468151
 31
0.0
1001
ACDBBLOCKREPETAG
1070
     1
1071
      192
1005
12A48F
  0
LINE
  5
12A490
  8
OBJECT
 10
8545.6618002273262
 20
-237.99999541468151
 30
0.0
 11
8580.0
 21
-237.99999541468151
 31
0.0
1001
ACDBBLOCKREPETAG
1070
     1
1071
      193
1005
12A490
  0
ARC
  5
12A491
  8
OBJECT
 10
8500.0
 20
-175.99999541468151
 30
0.0
 40
85.0
 50
46.837102859853147
 51
313.16289714014681
1001
ACDBBLOCKREPETAG
1070
     1
1071
      202
1005
12A491
  0
LINE
  5
12A492
  8
OBJECT
 10
8524.1029330933015
 20
-219.8069425383992
 30
0.0
 11
8520.6596569999983
 21
-208.5546174146811
 31
0.0
1001
ACDBBLOCKREPETAG
1070
     1
1071
      321
1005
12A492
  0
LINE
  5
12A493
  8
OBJECT
 10
8486.7927499013731
 20
-194.2255291567626
 30
0.0
 11
8520.6596569999983
 21
-208.55461741467931
 31
0.0
1001
ACDBBLOCKREPETAG
1070
     1
1071
      323
1005
12A493
  0
ARC
  5
12A494
  8
OBJECT
 10
8482.8961697618979
 20
-203.43512541373909
 30
0.0
 40
10.0
 50
67.066778292911366
 51
154.01473437031629
1001
ACDBBLOCKREPETAG
1070
     1
1071
      324
1005
12A494
  0
ARC
  5
12A495
  8
OBJECT
 10
8486.1488390381255
 20
-201.55385798197401
 30
0.0
 40
7.0
 50
67.066778292911366
 51
154.0147337749826
1001
ACDBBLOCKREPETAG
1070
     1
1071
      325
1005
12A495
  0
LINE
  5
12A496
  8
OBJECT
 10
8469.4199755553018
 20
-219.89888042286421
 30
0.0
 11
8479.8564918232369
 21
-198.48687794825031
 31
0.0
1001
ACDBBLOCKREPETAG
1070
     1
1071
      353
1005
12A496
  0
LINE
  5
12A497
  8
OBJECT
 10
8465.2972169006116
 20
-216.71813443350979
 30
0.0
 11
8473.9071022665084
 21
-199.0537254589899
 31
0.0
1001
ACDBBLOCKREPETAG
1070
     1
1071
      354
1005
12A497
  0
ARC
  5
12A498
  8
OBJECT
 10
8476.5796953073132
 20
-183.128932397526
 30
0.0
 40
60.031113246032611
 50
314.07020130422319
 51
322.33936106089681
1001
ACDBBLOCKREPETAG
1070
     1
1071
      355
1005
12A498
  0
CIRCLE
  5
12A499
  8
OBJECT
 10
8500.0
 20
-175.99999541468151
 30
0.0
 40
53.5
1001
ACDBBLOCKREPETAG
1070
     1
1071
      356
1005
12A499
  0
POINT
  5
12A49A
  8
DOTS
 10
8500.0
 20
-175.99999541468151
 30
0.0
 50
270.0
1001
ACDBBLOCKREPETAG
1070
     1
1071
      365
1005
12A49A
  0
LINE
  5
12A49B
  8
OBJECT
 10
2524.102933093302
 20
-219.8069425383992
 30
0.0
 11
2520.659656999997
 21
-208.5546174146811
 31
0.0
1001
ACDBBLOCKREPETAG
1070
     1
1071
      300
1005
12A49B
  0
LINE
  5
12A49C
  8
OBJECT
 10
2486.7927499013749
 20
-194.2255291567626
 30
0.0
 11
2520.659656999997
 21
-208.55461741467931
 31
0.0
1001
ACDBBLOCKREPETAG
1070
     1
1071
      302
1005
12A49C
  0
ARC
  5
12A49D
  8
OBJECT
 10
2482.896169761902
 20
-203.43512541373909
 30
0.0
 40
10.0
 50
67.066778292911366
 51
154.0147343702935
1001
ACDBBLOCKREPETAG
1070
     1
1071
      303
1005
12A49D
  0
ARC
  5
12A49E
  8
OBJECT
 10
2486.1488390381278
 20
-201.55385798197401
 30
0.0
 40
7.0
 50
67.066778292911366
 51
154.01473377497121
1001
ACDBBLOCKREPETAG
1070
     1
1071
      304
1005
12A49E
  0
LINE
  5
12A49F
  8
OBJECT
 10
2469.4199755553018
 20
-219.89888042286421
 30
0.0
 11
2479.8564918232369
 21
-198.48687794825031
 31
0.0
1001
ACDBBLOCKREPETAG
1070
     1
1071
      341
1005
12A49F
  0
LINE
  5
12A4A0
  8
OBJECT
 10
2465.2972169006089
 20
-216.71813443350979
 30
0.0
 11
2473.9071022665089
 21
-199.0537254589899
 31
0.0
1001
ACDBBLOCKREPETAG
1070
     1
1071
      342
1005
12A4A0
  0
ARC
  5
12A4A1
  8
OBJECT
 10
2476.579695307315
 20
-183.128932397526
 30
0.0
 40
60.031113246032611
 50
314.07020130418567
 51
322.33936106091278
1001
ACDBBLOCKREPETAG
1070
     1
1071
      343
1005
12A4A1
  0
CIRCLE
  5
12A4A2
  8
OBJECT
 10
2500.0
 20
-175.99999541468151
 30
0.0
 40
53.5
1001
ACDBBLOCKREPETAG
1070
     1
1071
      344
1005
12A4A2
  0
POINT
  5
12A4A3
  8
DOTS
 10
2500.0
 20
-175.99999541468151
 30
0.0
 50
270.0
1001
ACDBBLOCKREPETAG
1070
     1
1071
      362
1005
12A4A3
  0
ARC
  5
12A4A4
  8
OBJECT
 10
2500.0
 20
-175.99999541468151
 30
0.0
 40
50.0
 50
298.81994300000417
 51
228.52376955967449
1001
ACDBBLOCKREPETAG
1070
     1
1071
        7
1005
12A4A4
  0
LINE
  5
12A4A5
  8
CENTER
 10
2580.0
 20
-175.99999541468151
 30
0.0
 11
2405.0
 21
-175.99999541468151
 31
0.0
1001
ACDBBLOCKREPETAG
1070
     1
1071
       14
1005
12A4A5
  0
LINE
  5
12A4A6
  8
CENTER
 10
2500.0
 20
-270.99999541468162
 30
0.0
 11
2500.0
 21
-80.999995414681507
 31
0.0
1001
ACDBBLOCKREPETAG
1070
     1
1071
       15
1005
12A4A6
  0
CIRCLE
  5
12A4A7
  8
OBJECT
 10
2500.0
 20
-175.99999541468151
 30
0.0
 40
70.0
1001
ACDBBLOCKREPETAG
1070
     1
1071
       16
1005
12A4A7
  0
CIRCLE
  5
12A4A8
  8
OBJECT
 10
2500.0
 20
-175.99999541468151
 30
0.0
 40
77.0
1001
ACDBBLOCKREPETAG
1070
     1
1071
       17
1005
12A4A8
  0
ARC
  5
12A4A9
  8
OBJECT
 10
2500.0
 20
-175.99999541468151
 30
0.0
 40
80.0
 50
50.805032573864182
 51
309.1949674261358
1001
ACDBBLOCKREPETAG
1070
     1
1071
       18
1005
12A4A9
  0
LINE
  5
12A4AA
  8
OBJECT
 10
2545.6618002273249
 20
-113.99999541468151
 30
0.0
 11
2580.0
 21
-113.99999541468151
 31
0.0
1001
ACDBBLOCKREPETAG
1070
     1
1071
       19
1005
12A4AA
  0
LINE
  5
12A4AB
  8
OBJECT
 10
2545.6618002273249
 20
-237.99999541468151
 30
0.0
 11
2580.0
 21
-237.99999541468151
 31
0.0
1001
ACDBBLOCKREPETAG
1070
     1
1071
       20
1005
12A4AB
  0
LINE
  5
12A4AC
  8
OBJECT
 10
2633.0
 20
-128.99999541468151
 30
0.0
 11
2640.0
 21
-128.99999541468151
 31
0.0
1001
ACDBBLOCKREPETAG
1070
     1
1071
        7
1005
12A4AC
  0
LINE
  5
12A4AD
  8
OBJECT
 10
2640.0
 20
-128.99999541468151
 30
0.0
 11
2640.0
 21
-222.99999541468159
 31
0.0
1001
ACDBBLOCKREPETAG
1070
     1
1071
        8
1005
12A4AD
  0
LINE
  5
12A4AE
  8
OBJECT
 10
2640.0
 20
-222.99999541468159
 30
0.0
 11
2633.0
 21
-222.99999541468159
 31
0.0
1001
ACDBBLOCKREPETAG
1070
     1
1071
        9
1005
12A4AE
  0
LINE
  5
12A4AF
  8
OBJECT
 10
2633.0
 20
-222.99999541468159
 30
0.0
 11
2633.0
 21
-128.99999541468151
 31
0.0
1001
ACDBBLOCKREPETAG
1070
     1
1071
       10
1005
12A4AF
  0
LINE
  5
12A4B0
  8
CENTER
 10
2655.0
 20
-175.99999541468151
 30
0.0
 11
2580.0
 21
-175.99999541468151
 31
0.0
1001
ACDBBLOCKREPETAG
1070
     1
1071
       11
1005
12A4B0
  0
LINE
  5
12A4B1
  8
OBJECT
 10
2633.0
 20
-131.99999541468151
 30
0.0
 11
2597.0
 21
-131.99999541468151
 31
0.0
1001
ACDBBLOCKREPETAG
1070
     1
1071
       12
1005
12A4B1
  0
LINE
  5
12A4B2
  8
OBJECT
 10
2597.0
 20
-131.99999541468151
 30
0.0
 11
2597.0
 21
-219.99999541468151
 31
0.0
1001
ACDBBLOCKREPETAG
1070
     1
1071
       13
1005
12A4B2
  0
LINE
  5
12A4B3
  8
OBJECT
 10
2597.0
 20
-219.99999541468151
 30
0.0
 11
2633.0
 21
-219.99999541468151
 31
0.0
1001
ACDBBLOCKREPETAG
1070
     1
1071
       14
1005
12A4B3
  0
LINE
  5
12A4B4
  8
OBJECT
 10
2593.0
 20
-136.49999541468151
 30
0.0
 11
2586.0
 21
-136.49999541468151
 31
0.0
1001
ACDBBLOCKREPETAG
1070
     1
1071
       15
1005
12A4B4
  0
LINE
  5
12A4B5
  8
OBJECT
 10
2586.0
 20
-215.49999541468151
 30
0.0
 11
2593.0
 21
-215.49999541468151
 31
0.0
1001
ACDBBLOCKREPETAG
1070
     1
1071
       16
1005
12A4B5
  0
LINE
  5
12A4B6
  8
OBJECT
 10
2593.0
 20
-215.49999541468151
 30
0.0
 11
2593.0
 21
-136.49999541468151
 31
0.0
1001
ACDBBLOCKREPETAG
1070
     1
1071
       17
1005
12A4B6
  0
LINE
  5
12A4B7
  8
OBJECT
 10
2597.0
 20
-131.99999541468151
 30
0.0
 11
2593.0
 21
-136.49999541468151
 31
0.0
1001
ACDBBLOCKREPETAG
1070
     1
1071
       18
1005
12A4B7
  0
LINE
  5
12A4B8
  8
OBJECT
 10
2597.0
 20
-219.99999541468151
 30
0.0
 11
2593.0
 21
-215.49999541468151
 31
0.0
1001
ACDBBLOCKREPETAG
1070
     1
1071
       19
1005
12A4B8
  0
LINE
  5
12A4B9
  8
OBJECT
 10
2583.0
 20
-113.99999541468151
 30
0.0
 11
2580.0
 21
-113.99999541468151
 31
0.0
1001
ACDBBLOCKREPETAG
1070
     1
1071
       20
1005
12A4B9
  0
ARC
  5
12A4BA
  8
OBJECT
 10
2583.0
 20
-116.99999541468151
 30
0.0
 40
3.0
 50
0.0
 51
90.0
1001
ACDBBLOCKREPETAG
1070
     1
1071
       21
1005
12A4BA
  0
LINE
  5
12A4BB
  8
OBJECT
 10
2580.0
 20
-237.99999541468151
 30
0.0
 11
2583.0
 21
-237.99999541468151
 31
0.0
1001
ACDBBLOCKREPETAG
1070
     1
1071
       22
1005
12A4BB
  0
ARC
  5
12A4BC
  8
OBJECT
 10
2583.0
 20
-234.99999541468151
 30
0.0
 40
3.0
 50
270.0
 51
0.0
1001
ACDBBLOCKREPETAG
1070
     1
1071
       23
1005
12A4BC
  0
LINE
  5
12A4BD
  8
OBJECT
 10
2586.0
 20
-234.99999541468151
 30
0.0
 11
2586.0
 21
-116.99999541468151
 31
0.0
1001
ACDBBLOCKREPETAG
1070
     1
1071
       24
1005
12A4BD
  0
LINE
  5
12A4BE
  8
HIDDEN
 10
2588.0
 20
-145.99999541468151
 30
0.0
 11
2588.0
 21
-205.99999541468151
 31
0.0
1001
ACDBBLOCKREPETAG
1070
     1
1071
       25
1005
12A4BE
  0
LINE
  5
12A4BF
  8
OBJECT
 10
12575.0
 20
-770.0
 30
0.0
 11
12575.0
 21
-902.50000000006548
 31
0.0
1001
ACDBBLOCKREPETAG
1070
     1
1071
        1
1005
12A4BF
  0
LINE
  5
12A4C0
  8
OBJECT
 10
12425.0
 20
-769.9999999999942
 30
0.0
 11
12425.0
 21
-1043.0
 31
0.0
1001
ACDBBLOCKREPETAG
1070
     1
1071
        3
1005
12A4C0
  0
LINE
  5
12A4C1
  8
CENTER
 10
12500.0
 20
-770.0
 30
0.0
 11
12500.0
 21
-1055.0
 31
0.0
1001
ACDBBLOCKREPETAG
1070
     1
1071
        6
1005
12A4C1
  0
LINE
  5
12A4C2
  8
OBJECT
 10
12419.999999999991
 20
-1055.0
 30
0.0
 11
12580.0
 21
-1055.0
 31
0.0
1001
ACDBBLOCKREPETAG
1070
     1
1071
        7
1005
12A4C2
  0
LINE
  5
12A4C3
  8
OBJECT
 10
12419.999999999991
 20
-1043.0
 30
0.0
 11
12580.0
 21
-1043.0
 31
0.0
1001
ACDBBLOCKREPETAG
1070
     1
1071
        8
1005
12A4C3
  0
LINE
  5
12A4C4
  8
OBJECT
 10
12419.999999999991
 20
-1043.0
 30
0.0
 11
12419.999999999991
 21
-1055.0
 31
0.0
1001
ACDBBLOCKREPETAG
1070
     1
1071
        9
1005
12A4C4
  0
LINE
  5
12A4C5
  8
OBJECT
 10
12580.0
 20
-1043.0
 30
0.0
 11
12580.0
 21
-1055.0
 31
0.0
1001
ACDBBLOCKREPETAG
1070
     1
1071
       10
1005
12A4C5
  0
LINE
  5
12A4C6
  8
OBJECT
 10
12575.0
 20
-1008.5
 30
0.0
 11
12575.0
 21
-1043.0
 31
0.0
1001
ACDBBLOCKREPETAG
1070
     1
1071
        1
1005
12A4BF
  0
POINT
  5
12A4C7
  8
DOTS
 10
12500.0
 20
-1011.0
 30
0.0
  0
LINE
  5
12A4C8
  8
OBJECT
 10
12633.00000000016
 20
-890.00000000022908
 30
0.0
 11
12640.000000000149
 21
-890.00000000022908
 31
0.0
1001
ACDBBLOCKREPETAG
1070
     1
1071
       46
1005
12A4C8
  0
LINE
  5
12A4C9
  8
OBJECT
 10
12640.000000000149
 20
-890.00000000022908
 30
0.0
 11
12640.000000000149
 21
-1011.000000000229
 31
0.0
1001
ACDBBLOCKREPETAG
1070
     1
1071
       47
1005
12A4C9
  0
LINE
  5
12A4CA
  8
OBJECT
 10
12633.00000000016
 20
-1011.000000000229
 30
0.0
 11
12633.00000000016
 21
-890.00000000022908
 31
0.0
1001
ACDBBLOCKREPETAG
1070
     1
1071
       48
1005
12A4CA
  0
LINE
  5
12A4CB
  8
CENTER
 10
12655.00000000016
 20
-952.00000000022919
 30
0.0
 11
12541.34491991317
 21
-952.00000000029422
 31
0.0
1001
ACDBBLOCKREPETAG
1070
     1
1071
       49
1005
12A4CB
  0
LINE
  5
12A4CC
  8
OBJECT
 10
12633.00000000016
 20
-893.00000000022919
 30
0.0
 11
12597.00000000016
 21
-893.00000000022919
 31
0.0
1001
ACDBBLOCKREPETAG
1070
     1
1071
       50
1005
12A4CC
  0
LINE
  5
12A4CD
  8
OBJECT
 10
12597.00000000016
 20
-893.00000000022919
 30
0.0
 11
12597.00000000016
 21
-1011.000000000229
 31
0.0
1001
ACDBBLOCKREPETAG
1070
     1
1071
       51
1005
12A4CD
  0
LINE
  5
12A4CE
  8
OBJECT
 10
12597.00000000016
 20
-1011.000000000229
 30
0.0
 11
12640.000000000149
 21
-1011.000000000229
 31
0.0
1001
ACDBBLOCKREPETAG
1070
     1
1071
       52
1005
12A4CE
  0
LINE
  5
12A4CF
  8
OBJECT
 10
12593.00000000016
 20
-897.50000000022919
 30
0.0
 11
12582.50000000016
 21
-897.50000000022919
 31
0.0
1001
ACDBBLOCKREPETAG
1070
     1
1071
       53
1005
12A4CF
  0
LINE
  5
12A4D0
  8
OBJECT
 10
12582.50000000016
 20
-1006.500000000229
 30
0.0
 11
12593.00000000016
 21
-1006.500000000229
 31
0.0
1001
ACDBBLOCKREPETAG
1070
     1
1071
       54
1005
12A4D0
  0
LINE
  5
12A4D1
  8
OBJECT
 10
12593.00000000016
 20
-1006.500000000229
 30
0.0
 11
12593.00000000016
 21
-897.50000000022919
 31
0.0
1001
ACDBBLOCKREPETAG
1070
     1
1071
       55
1005
12A4D1
  0
LINE
  5
12A4D2
  8
OBJECT
 10
12597.00000000016
 20
-893.00000000022919
 30
0.0
 11
12593.00000000016
 21
-897.50000000022919
 31
0.0
1001
ACDBBLOCKREPETAG
1070
     1
1071
       56
1005
12A4D2
  0
LINE
  5
12A4D3
  8
OBJECT
 10
12597.00000000016
 20
-1011.000000000229
 30
0.0
 11
12593.00000000016
 21
-1006.500000000229
 31
0.0
1001
ACDBBLOCKREPETAG
1070
     1
1071
       57
1005
12A4D3
  0
LINE
  5
12A4D4
  8
HIDDEN
 10
12588.00000000016
 20
-907.50000000022919
 30
0.0
 11
12588.00000000016
 21
-996.50000000022908
 31
0.0
1001
ACDBBLOCKREPETAG
1070
     1
1071
       58
1005
12A4D4
  0
ARC
  5
12A4D5
  8
OBJECT
 10
12664.878272878939
 20
-967.40950726145843
 30
0.0
 40
110.86635228309
 50
144.16342741929409
 51
163.04035380434561
1001
ACDBBLOCKREPETAG
1070
     1
1071
       59
1005
12A4D5
  0
ARC
  5
12A4D6
  8
OBJECT
 10
12617.13598877707
 20
-952.28774971867813
 30
0.0
 40
60.791749880358971
 50
163.54720465221311
 51
179.72879698282691
1001
ACDBBLOCKREPETAG
1070
     1
1071
       60
1005
12A4D6
  0
ARC
  5
12A4D7
  8
OBJECT
 10
12617.13599565641
 20
-958.71224976013025
 30
0.0
 40
60.79175676209487
 50
180.2712034781452
 51
196.45277946052011
1001
ACDBBLOCKREPETAG
1070
     1
1071
       61
1005
12A4D7
  0
ARC
  5
12A4D8
  8
OBJECT
 10
12664.878272878939
 20
-943.59049273906555
 30
0.0
 40
110.8663522830916
 50
196.95964619565439
 51
215.83657258070579
1001
ACDBBLOCKREPETAG
1070
     1
1071
       62
1005
12A4D8
  0
LINE
  5
12A4D9
  8
OBJECT
 10
12556.34491991317
 20
-952.00000000026546
 30
0.0
 11
12556.34491991317
 21
-959.00000000026205
 31
0.0
1001
ACDBBLOCKREPETAG
1070
     1
1071
       63
1005
12A4D9
  0
LINE
  5
12A4DA
  8
OBJECT
 10
12575.0
 20
-902.50000000052353
 30
0.0
 11
12577.5
 21
-902.50000000052353
 31
0.0
1001
ACDBBLOCKREPETAG
1070
     1
1071
       65
1005
12A4DA
  0
LINE
  5
12A4DB
  8
OBJECT
 10
12575.0
 20
-1008.5
 30
0.0
 11
12579.5
 21
-1008.5
 31
0.0
1001
ACDBBLOCKREPETAG
1070
     1
1071
       66
1005
12A4DB
  0
LINE
  5
12A4DC
  8
OBJECT
 10
12579.5
 20
-1008.5
 30
0.0
 11
12577.5
 21
-902.50000000052353
 31
0.0
1001
ACDBBLOCKREPETAG
1070
     1
1071
       67
1005
12A4DC
  0
LINE
  5
12A4DD
  8
OBJECT
 10
12579.5
 20
-1008.5
 30
0.0
 11
12582.50000000016
 21
-1006.500000000229
 31
0.0
1001
ACDBBLOCKREPETAG
1070
     1
1071
       68
1005
12A4DD
  0
LINE
  5
12A4DE
  8
OBJECT
 10
12582.50000000016
 20
-1006.500000000229
 30
0.0
 11
12582.50000000016
 21
-897.50000000022919
 31
0.0
1001
ACDBBLOCKREPETAG
1070
     1
1071
       69
1005
12A4DE
  0
LINE
  5
12A4DF
  8
OBJECT
 10
12582.50000000016
 20
-897.50000000022919
 30
0.0
 11
12577.5
 21
-902.50000000052353
 31
0.0
1001
ACDBBLOCKREPETAG
1070
     1
1071
       70
1005
12A4DF
  0
LINE
  5
12A4E0
  8
OBJECT
 10
10575.0
 20
-770.0
 30
0.0
 11
10575.0
 21
-902.50000000006548
 31
0.0
1001
ACDBBLOCKREPETAG
1070
     1
1071
        1
1005
12A4E0
  0
LINE
  5
12A4E1
  8
OBJECT
 10
10425.0
 20
-769.9999999999942
 30
0.0
 11
10425.0
 21
-1043.0
 31
0.0
1001
ACDBBLOCKREPETAG
1070
     1
1071
        3
1005
12A4E1
  0
LINE
  5
12A4E2
  8
CENTER
 10
10500.0
 20
-770.0
 30
0.0
 11
10500.0
 21
-1055.0
 31
0.0
1001
ACDBBLOCKREPETAG
1070
     1
1071
        6
1005
12A4E2
  0
LINE
  5
12A4E3
  8
OBJECT
 10
10420.0
 20
-1055.0
 30
0.0
 11
10580.0
 21
-1055.0
 31
0.0
1001
ACDBBLOCKREPETAG
1070
     1
1071
        7
1005
12A4E3
  0
LINE
  5
12A4E4
  8
OBJECT
 10
10420.0
 20
-1043.0
 30
0.0
 11
10580.0
 21
-1043.0
 31
0.0
1001
ACDBBLOCKREPETAG
1070
     1
1071
        8
1005
12A4E4
  0
LINE
  5
12A4E5
  8
OBJECT
 10
10420.0
 20
-1043.0
 30
0.0
 11
10420.0
 21
-1055.0
 31
0.0
1001
ACDBBLOCKREPETAG
1070
     1
1071
        9
1005
12A4E5
  0
LINE
  5
12A4E6
  8
OBJECT
 10
10580.0
 20
-1043.0
 30
0.0
 11
10580.0
 21
-1055.0
 31
0.0
1001
ACDBBLOCKREPETAG
1070
     1
1071
       10
1005
12A4E6
  0
LINE
  5
12A4E7
  8
OBJECT
 10
10575.0
 20
-1008.5
 30
0.0
 11
10575.0
 21
-1043.0
 31
0.0
1001
ACDBBLOCKREPETAG
1070
     1
1071
        1
1005
12A4E0
  0
POINT
  5
12A4E8
  8
DOTS
 10
10500.0
 20
-1011.0
 30
0.0
  0
LINE
  5
12A4E9
  8
OBJECT
 10
10633.000000000169
 20
-890.00000000022908
 30
0.0
 11
10640.00000000016
 21
-890.00000000022908
 31
0.0
1001
ACDBBLOCKREPETAG
1070
     1
1071
       46
1005
12A4E9
  0
LINE
  5
12A4EA
  8
OBJECT
 10
10640.00000000016
 20
-890.00000000022908
 30
0.0
 11
10640.00000000016
 21
-1011.000000000229
 31
0.0
1001
ACDBBLOCKREPETAG
1070
     1
1071
       47
1005
12A4EA
  0
LINE
  5
12A4EB
  8
OBJECT
 10
10633.000000000169
 20
-1011.000000000229
 30
0.0
 11
10633.000000000169
 21
-890.00000000022908
 31
0.0
1001
ACDBBLOCKREPETAG
1070
     1
1071
       48
1005
12A4EB
  0
LINE
  5
12A4EC
  8
CENTER
 10
10655.00000000016
 20
-952.00000000022919
 30
0.0
 11
10541.34491991317
 21
-952.00000000029422
 31
0.0
1001
ACDBBLOCKREPETAG
1070
     1
1071
       49
1005
12A4EC
  0
LINE
  5
12A4ED
  8
OBJECT
 10
10633.000000000169
 20
-893.00000000022919
 30
0.0
 11
10597.00000000016
 21
-893.00000000022919
 31
0.0
1001
ACDBBLOCKREPETAG
1070
     1
1071
       50
1005
12A4ED
  0
LINE
  5
12A4EE
  8
OBJECT
 10
10597.00000000016
 20
-893.00000000022919
 30
0.0
 11
10597.00000000016
 21
-1011.000000000229
 31
0.0
1001
ACDBBLOCKREPETAG
1070
     1
1071
       51
1005
12A4EE
  0
LINE
  5
12A4EF
  8
OBJECT
 10
10597.00000000016
 20
-1011.000000000229
 30
0.0
 11
10640.00000000016
 21
-1011.000000000229
 31
0.0
1001
ACDBBLOCKREPETAG
1070
     1
1071
       52
1005
12A4EF
  0
LINE
  5
12A4F0
  8
OBJECT
 10
10593.000000000169
 20
-897.50000000022919
 30
0.0
 11
10582.500000000169
 21
-897.50000000022919
 31
0.0
1001
ACDBBLOCKREPETAG
1070
     1
1071
       53
1005
12A4F0
  0
LINE
  5
12A4F1
  8
OBJECT
 10
10582.500000000169
 20
-1006.500000000229
 30
0.0
 11
10593.000000000169
 21
-1006.500000000229
 31
0.0
1001
ACDBBLOCKREPETAG
1070
     1
1071
       54
1005
12A4F1
  0
LINE
  5
12A4F2
  8
OBJECT
 10
10593.000000000169
 20
-1006.500000000229
 30
0.0
 11
10593.000000000169
 21
-897.50000000022919
 31
0.0
1001
ACDBBLOCKREPETAG
1070
     1
1071
       55
1005
12A4F2
  0
LINE
  5
12A4F3
  8
OBJECT
 10
10597.00000000016
 20
-893.00000000022919
 30
0.0
 11
10593.000000000169
 21
-897.50000000022919
 31
0.0
1001
ACDBBLOCKREPETAG
1070
     1
1071
       56
1005
12A4F3
  0
LINE
  5
12A4F4
  8
OBJECT
 10
10597.00000000016
 20
-1011.000000000229
 30
0.0
 11
10593.000000000169
 21
-1006.500000000229
 31
0.0
1001
ACDBBLOCKREPETAG
1070
     1
1071
       57
1005
12A4F4
  0
LINE
  5
12A4F5
  8
HIDDEN
 10
10588.000000000169
 20
-907.50000000022919
 30
0.0
 11
10588.000000000169
 21
-996.50000000022908
 31
0.0
1001
ACDBBLOCKREPETAG
1070
     1
1071
       58
1005
12A4F5
  0
ARC
  5
12A4F6
  8
OBJECT
 10
10664.878272878939
 20
-967.40950726145843
 30
0.0
 40
110.86635228309
 50
144.16342741929409
 51
163.04035380434561
1001
ACDBBLOCKREPETAG
1070
     1
1071
       59
1005
12A4F6
  0
ARC
  5
12A4F7
  8
OBJECT
 10
10617.13598877707
 20
-952.28774971867813
 30
0.0
 40
60.791749880358971
 50
163.54720465221311
 51
179.72879698282691
1001
ACDBBLOCKREPETAG
1070
     1
1071
       60
1005
12A4F7
  0
ARC
  5
12A4F8
  8
OBJECT
 10
10617.13599565641
 20
-958.71224976013025
 30
0.0
 40
60.79175676209487
 50
180.2712034781452
 51
196.45277946052011
1001
ACDBBLOCKREPETAG
1070
     1
1071
       61
1005
12A4F8
  0
ARC
  5
12A4F9
  8
OBJECT
 10
10664.878272878939
 20
-943.59049273906555
 30
0.0
 40
110.8663522830916
 50
196.95964619565439
 51
215.83657258070579
1001
ACDBBLOCKREPETAG
1070
     1
1071
       62
1005
12A4F9
  0
LINE
  5
12A4FA
  8
OBJECT
 10
10556.34491991317
 20
-952.00000000026546
 30
0.0
 11
10556.34491991317
 21
-959.00000000026205
 31
0.0
1001
ACDBBLOCKREPETAG
1070
     1
1071
       63
1005
12A4FA
  0
LINE
  5
12A4FB
  8
OBJECT
 10
10575.0
 20
-902.50000000052353
 30
0.0
 11
10577.5
 21
-902.50000000052353
 31
0.0
1001
ACDBBLOCKREPETAG
1070
     1
1071
       65
1005
12A4FB
  0
LINE
  5
12A4FC
  8
OBJECT
 10
10575.0
 20
-1008.5
 30
0.0
 11
10579.5
 21
-1008.5
 31
0.0
1001
ACDBBLOCKREPETAG
1070
     1
1071
       66
1005
12A4FC
  0
LINE
  5
12A4FD
  8
OBJECT
 10
10579.5
 20
-1008.5
 30
0.0
 11
10577.5
 21
-902.50000000052353
 31
0.0
1001
ACDBBLOCKREPETAG
1070
     1
1071
       67
1005
12A4FD
  0
LINE
  5
12A4FE
  8
OBJECT
 10
10579.5
 20
-1008.5
 30
0.0
 11
10582.500000000169
 21
-1006.500000000229
 31
0.0
1001
ACDBBLOCKREPETAG
1070
     1
1071
       68
1005
12A4FE
  0
LINE
  5
12A4FF
  8
OBJECT
 10
10582.500000000169
 20
-1006.500000000229
 30
0.0
 11
10582.500000000169
 21
-897.50000000022919
 31
0.0
1001
ACDBBLOCKREPETAG
1070
     1
1071
       69
1005
12A4FF
  0
LINE
  5
12A500
  8
OBJECT
 10
10582.500000000169
 20
-897.50000000022919
 30
0.0
 11
10577.5
 21
-902.50000000052353
 31
0.0
1001
ACDBBLOCKREPETAG
1070
     1
1071
       70
1005
12A500
  0
LINE
  5
12A501
  8
OBJECT
 10
8575.0
 20
-770.0
 30
0.0
 11
8575.0
 21
-902.50000000006548
 31
0.0
1001
ACDBBLOCKREPETAG
1070
     1
1071
        1
1005
12A501
  0
LINE
  5
12A502
  8
OBJECT
 10
8425.0
 20
-769.9999999999942
 30
0.0
 11
8425.0
 21
-1043.0
 31
0.0
1001
ACDBBLOCKREPETAG
1070
     1
1071
        3
1005
12A502
  0
LINE
  5
12A503
  8
CENTER
 10
8500.0
 20
-770.0
 30
0.0
 11
8500.0
 21
-1055.0
 31
0.0
1001
ACDBBLOCKREPETAG
1070
     1
1071
        6
1005
12A503
  0
LINE
  5
12A504
  8
OBJECT
 10
8420.0
 20
-1055.0
 30
0.0
 11
8580.0
 21
-1055.0
 31
0.0
1001
ACDBBLOCKREPETAG
1070
     1
1071
        7
1005
12A504
  0
LINE
  5
12A505
  8
OBJECT
 10
8420.0
 20
-1043.0
 30
0.0
 11
8580.0
 21
-1043.0
 31
0.0
1001
ACDBBLOCKREPETAG
1070
     1
1071
        8
1005
12A505
  0
LINE
  5
12A506
  8
OBJECT
 10
8420.0
 20
-1043.0
 30
0.0
 11
8420.0
 21
-1055.0
 31
0.0
1001
ACDBBLOCKREPETAG
1070
     1
1071
        9
1005
12A506
  0
LINE
  5
12A507
  8
OBJECT
 10
8580.0
 20
-1043.0
 30
0.0
 11
8580.0
 21
-1055.0
 31
0.0
1001
ACDBBLOCKREPETAG
1070
     1
1071
       10
1005
12A507
  0
LINE
  5
12A508
  8
OBJECT
 10
8575.0
 20
-1008.5
 30
0.0
 11
8575.0
 21
-1043.0
 31
0.0
1001
ACDBBLOCKREPETAG
1070
     1
1071
        1
1005
12A501
  0
POINT
  5
12A509
  8
DOTS
 10
8500.0
 20
-1011.0
 30
0.0
  0
LINE
  5
12A50A
  8
OBJECT
 10
8633.0000000001655
 20
-890.00000000022908
 30
0.0
 11
8640.0000000001655
 21
-890.00000000022908
 31
0.0
1001
ACDBBLOCKREPETAG
1070
     1
1071
       46
1005
12A50A
  0
LINE
  5
12A50B
  8
OBJECT
 10
8640.0000000001655
 20
-890.00000000022908
 30
0.0
 11
8640.0000000001655
 21
-1011.000000000229
 31
0.0
1001
ACDBBLOCKREPETAG
1070
     1
1071
       47
1005
12A50B
  0
LINE
  5
12A50C
  8
OBJECT
 10
8633.0000000001655
 20
-1011.000000000229
 30
0.0
 11
8633.0000000001655
 21
-890.00000000022908
 31
0.0
1001
ACDBBLOCKREPETAG
1070
     1
1071
       48
1005
12A50C
  0
LINE
  5
12A50D
  8
CENTER
 10
8655.0000000001655
 20
-952.00000000022919
 30
0.0
 11
8541.3449199131719
 21
-952.00000000029422
 31
0.0
1001
ACDBBLOCKREPETAG
1070
     1
1071
       49
1005
12A50D
  0
LINE
  5
12A50E
  8
OBJECT
 10
8633.0000000001655
 20
-893.00000000022919
 30
0.0
 11
8597.0000000001655
 21
-893.00000000022919
 31
0.0
1001
ACDBBLOCKREPETAG
1070
     1
1071
       50
1005
12A50E
  0
LINE
  5
12A50F
  8
OBJECT
 10
8597.0000000001655
 20
-893.00000000022919
 30
0.0
 11
8597.0000000001655
 21
-1011.000000000229
 31
0.0
1001
ACDBBLOCKREPETAG
1070
     1
1071
       51
1005
12A50F
  0
LINE
  5
12A510
  8
OBJECT
 10
8597.0000000001655
 20
-1011.000000000229
 30
0.0
 11
8640.0000000001655
 21
-1011.000000000229
 31
0.0
1001
ACDBBLOCKREPETAG
1070
     1
1071
       52
1005
12A510
  0
LINE
  5
12A511
  8
OBJECT
 10
8593.0000000001655
 20
-897.50000000022919
 30
0.0
 11
8582.5000000001637
 21
-897.50000000022919
 31
0.0
1001
ACDBBLOCKREPETAG
1070
     1
1071
       53
1005
12A511
  0
LINE
  5
12A512
  8
OBJECT
 10
8582.5000000001637
 20
-1006.500000000229
 30
0.0
 11
8593.0000000001655
 21
-1006.500000000229
 31
0.0
1001
ACDBBLOCKREPETAG
1070
     1
1071
       54
1005
12A512
  0
LINE
  5
12A513
  8
OBJECT
 10
8593.0000000001655
 20
-1006.500000000229
 30
0.0
 11
8593.0000000001655
 21
-897.50000000022919
 31
0.0
1001
ACDBBLOCKREPETAG
1070
     1
1071
       55
1005
12A513
  0
LINE
  5
12A514
  8
OBJECT
 10
8597.0000000001655
 20
-893.00000000022919
 30
0.0
 11
8593.0000000001655
 21
-897.50000000022919
 31
0.0
1001
ACDBBLOCKREPETAG
1070
     1
1071
       56
1005
12A514
  0
LINE
  5
12A515
  8
OBJECT
 10
8597.0000000001655
 20
-1011.000000000229
 30
0.0
 11
8593.0000000001655
 21
-1006.500000000229
 31
0.0
1001
ACDBBLOCKREPETAG
1070
     1
1071
       57
1005
12A515
  0
LINE
  5
12A516
  8
HIDDEN
 10
8588.0000000001655
 20
-907.50000000022919
 30
0.0
 11
8588.0000000001655
 21
-996.50000000022908
 31
0.0
1001
ACDBBLOCKREPETAG
1070
     1
1071
       58
1005
12A516
  0
ARC
  5
12A517
  8
OBJECT
 10
8664.8782728789447
 20
-967.40950726145843
 30
0.0
 40
110.86635228309
 50
144.16342741929409
 51
163.04035380434561
1001
ACDBBLOCKREPETAG
1070
     1
1071
       59
1005
12A517
  0
ARC
  5
12A518
  8
OBJECT
 10
8617.1359887770777
 20
-952.28774971867813
 30
0.0
 40
60.791749880358971
 50
163.54720465221311
 51
179.72879698282691
1001
ACDBBLOCKREPETAG
1070
     1
1071
       60
1005
12A518
  0
ARC
  5
12A519
  8
OBJECT
 10
8617.1359956564174
 20
-958.71224976013025
 30
0.0
 40
60.79175676209487
 50
180.2712034781452
 51
196.45277946052011
1001
ACDBBLOCKREPETAG
1070
     1
1071
       61
1005
12A519
  0
ARC
  5
12A51A
  8
OBJECT
 10
8664.8782728789447
 20
-943.59049273906555
 30
0.0
 40
110.8663522830916
 50
196.95964619565439
 51
215.83657258070579
1001
ACDBBLOCKREPETAG
1070
     1
1071
       62
1005
12A51A
  0
LINE
  5
12A51B
  8
OBJECT
 10
8556.3449199131719
 20
-952.00000000026546
 30
0.0
 11
8556.3449199131719
 21
-959.00000000026205
 31
0.0
1001
ACDBBLOCKREPETAG
1070
     1
1071
       63
1005
12A51B
  0
LINE
  5
12A51C
  8
OBJECT
 10
8575.0000000000018
 20
-902.50000000052353
 30
0.0
 11
8577.5000000000018
 21
-902.50000000052353
 31
0.0
1001
ACDBBLOCKREPETAG
1070
     1
1071
       65
1005
12A51C
  0
LINE
  5
12A51D
  8
OBJECT
 10
8575.0
 20
-1008.5
 30
0.0
 11
8579.5000000000018
 21
-1008.5
 31
0.0
1001
ACDBBLOCKREPETAG
1070
     1
1071
       66
1005
12A51D
  0
LINE
  5
12A51E
  8
OBJECT
 10
8579.5000000000018
 20
-1008.5
 30
0.0
 11
8577.5000000000018
 21
-902.50000000052353
 31
0.0
1001
ACDBBLOCKREPETAG
1070
     1
1071
       67
1005
12A51E
  0
LINE
  5
12A51F
  8
OBJECT
 10
8579.5000000000018
 20
-1008.5
 30
0.0
 11
8582.5000000001637
 21
-1006.500000000229
 31
0.0
1001
ACDBBLOCKREPETAG
1070
     1
1071
       68
1005
12A51F
  0
LINE
  5
12A520
  8
OBJECT
 10
8582.5000000001637
 20
-1006.500000000229
 30
0.0
 11
8582.5000000001637
 21
-897.50000000022919
 31
0.0
1001
ACDBBLOCKREPETAG
1070
     1
1071
       69
1005
12A520
  0
LINE
  5
12A521
  8
OBJECT
 10
8582.5000000001637
 20
-897.50000000022919
 30
0.0
 11
8577.5000000000018
 21
-902.50000000052353
 31
0.0
1001
ACDBBLOCKREPETAG
1070
     1
1071
       70
1005
12A521
  0
LINE
  5
12A522
  8
OBJECT
 10
6575.0
 20
-770.0
 30
0.0
 11
6575.0
 21
-902.50000000006548
 31
0.0
1001
ACDBBLOCKREPETAG
1070
     1
1071
        1
1005
12A522
  0
LINE
  5
12A523
  8
OBJECT
 10
6425.0
 20
-769.9999999999942
 30
0.0
 11
6425.0
 21
-1043.0
 31
0.0
1001
ACDBBLOCKREPETAG
1070
     1
1071
        3
1005
12A523
  0
LINE
  5
12A524
  8
CENTER
 10
6500.0
 20
-770.0
 30
0.0
 11
6500.0
 21
-1055.0
 31
0.0
1001
ACDBBLOCKREPETAG
1070
     1
1071
        6
1005
12A524
  0
LINE
  5
12A525
  8
OBJECT
 10
6420.0
 20
-1055.0
 30
0.0
 11
6580.0
 21
-1055.0
 31
0.0
1001
ACDBBLOCKREPETAG
1070
     1
1071
        7
1005
12A525
  0
LINE
  5
12A526
  8
OBJECT
 10
6420.0
 20
-1043.0
 30
0.0
 11
6580.0
 21
-1043.0
 31
0.0
1001
ACDBBLOCKREPETAG
1070
     1
1071
        8
1005
12A526
  0
LINE
  5
12A527
  8
OBJECT
 10
6420.0
 20
-1043.0
 30
0.0
 11
6420.0
 21
-1055.0
 31
0.0
1001
ACDBBLOCKREPETAG
1070
     1
1071
        9
1005
12A527
  0
LINE
  5
12A528
  8
OBJECT
 10
6580.0
 20
-1043.0
 30
0.0
 11
6580.0
 21
-1055.0
 31
0.0
1001
ACDBBLOCKREPETAG
1070
     1
1071
       10
1005
12A528
  0
LINE
  5
12A529
  8
OBJECT
 10
6575.0
 20
-1008.5
 30
0.0
 11
6575.0
 21
-1043.0
 31
0.0
1001
ACDBBLOCKREPETAG
1070
     1
1071
        1
1005
12A522
  0
POINT
  5
12A52A
  8
DOTS
 10
6500.0
 20
-1011.0
 30
0.0
  0
LINE
  5
12A52B
  8
OBJECT
 10
6633.0000000001673
 20
-890.00000000022908
 30
0.0
 11
6640.0000000001673
 21
-890.00000000022908
 31
0.0
1001
ACDBBLOCKREPETAG
1070
     1
1071
       46
1005
12A52B
  0
LINE
  5
12A52C
  8
OBJECT
 10
6640.0000000001673
 20
-890.00000000022908
 30
0.0
 11
6640.0000000001673
 21
-1011.000000000229
 31
0.0
1001
ACDBBLOCKREPETAG
1070
     1
1071
       47
1005
12A52C
  0
LINE
  5
12A52D
  8
OBJECT
 10
6633.0000000001673
 20
-1011.000000000229
 30
0.0
 11
6633.0000000001673
 21
-890.00000000022908
 31
0.0
1001
ACDBBLOCKREPETAG
1070
     1
1071
       48
1005
12A52D
  0
LINE
  5
12A52E
  8
CENTER
 10
6655.0000000001692
 20
-952.00000000022919
 30
0.0
 11
6541.344919913171
 21
-952.00000000029422
 31
0.0
1001
ACDBBLOCKREPETAG
1070
     1
1071
       49
1005
12A52E
  0
LINE
  5
12A52F
  8
OBJECT
 10
6633.0000000001673
 20
-893.00000000022919
 30
0.0
 11
6597.0000000001692
 21
-893.00000000022919
 31
0.0
1001
ACDBBLOCKREPETAG
1070
     1
1071
       50
1005
12A52F
  0
LINE
  5
12A530
  8
OBJECT
 10
6597.0000000001692
 20
-893.00000000022919
 30
0.0
 11
6597.0000000001692
 21
-1011.000000000229
 31
0.0
1001
ACDBBLOCKREPETAG
1070
     1
1071
       51
1005
12A530
  0
LINE
  5
12A531
  8
OBJECT
 10
6597.0000000001692
 20
-1011.000000000229
 30
0.0
 11
6640.0000000001673
 21
-1011.000000000229
 31
0.0
1001
ACDBBLOCKREPETAG
1070
     1
1071
       52
1005
12A531
  0
LINE
  5
12A532
  8
OBJECT
 10
6593.0000000001664
 20
-897.50000000022919
 30
0.0
 11
6582.5000000001683
 21
-897.50000000022919
 31
0.0
1001
ACDBBLOCKREPETAG
1070
     1
1071
       53
1005
12A532
  0
LINE
  5
12A533
  8
OBJECT
 10
6582.5000000001683
 20
-1006.500000000229
 30
0.0
 11
6593.0000000001664
 21
-1006.500000000229
 31
0.0
1001
ACDBBLOCKREPETAG
1070
     1
1071
       54
1005
12A533
  0
LINE
  5
12A534
  8
OBJECT
 10
6593.0000000001664
 20
-1006.500000000229
 30
0.0
 11
6593.0000000001664
 21
-897.50000000022919
 31
0.0
1001
ACDBBLOCKREPETAG
1070
     1
1071
       55
1005
12A534
  0
LINE
  5
12A535
  8
OBJECT
 10
6597.0000000001692
 20
-893.00000000022919
 30
0.0
 11
6593.0000000001664
 21
-897.50000000022919
 31
0.0
1001
ACDBBLOCKREPETAG
1070
     1
1071
       56
1005
12A535
  0
LINE
  5
12A536
  8
OBJECT
 10
6597.0000000001692
 20
-1011.000000000229
 30
0.0
 11
6593.0000000001664
 21
-1006.500000000229
 31
0.0
1001
ACDBBLOCKREPETAG
1070
     1
1071
       57
1005
12A536
  0
LINE
  5
12A537
  8
HIDDEN
 10
6588.0000000001673
 20
-907.50000000022919
 30
0.0
 11
6588.0000000001673
 21
-996.50000000022908
 31
0.0
1001
ACDBBLOCKREPETAG
1070
     1
1071
       58
1005
12A537
  0
ARC
  5
12A538
  8
OBJECT
 10
6664.8782728789402
 20
-967.40950726145843
 30
0.0
 40
110.86635228309
 50
144.16342741929409
 51
163.04035380434561
1001
ACDBBLOCKREPETAG
1070
     1
1071
       59
1005
12A538
  0
ARC
  5
12A539
  8
OBJECT
 10
6617.135988777075
 20
-952.28774971867813
 30
0.0
 40
60.791749880358971
 50
163.54720465221311
 51
179.72879698282651
1001
ACDBBLOCKREPETAG
1070
     1
1071
       60
1005
12A539
  0
ARC
  5
12A53A
  8
OBJECT
 10
6617.1359956564156
 20
-958.71224976013025
 30
0.0
 40
60.79175676209487
 50
180.2712034781452
 51
196.45277946052011
1001
ACDBBLOCKREPETAG
1070
     1
1071
       61
1005
12A53A
  0
ARC
  5
12A53B
  8
OBJECT
 10
6664.8782728789402
 20
-943.59049273906555
 30
0.0
 40
110.8663522830916
 50
196.95964619565439
 51
215.83657258070579
1001
ACDBBLOCKREPETAG
1070
     1
1071
       62
1005
12A53B
  0
LINE
  5
12A53C
  8
OBJECT
 10
6556.3449199131719
 20
-952.00000000026546
 30
0.0
 11
6556.3449199131719
 21
-959.00000000026205
 31
0.0
1001
ACDBBLOCKREPETAG
1070
     1
1071
       63
1005
12A53C
  0
LINE
  5
12A53D
  8
OBJECT
 10
6575.0000000000036
 20
-902.50000000052353
 30
0.0
 11
6577.5000000000036
 21
-902.50000000052353
 31
0.0
1001
ACDBBLOCKREPETAG
1070
     1
1071
       65
1005
12A53D
  0
LINE
  5
12A53E
  8
OBJECT
 10
6575.0
 20
-1008.5
 30
0.0
 11
6579.5
 21
-1008.5
 31
0.0
1001
ACDBBLOCKREPETAG
1070
     1
1071
       66
1005
12A53E
  0
LINE
  5
12A53F
  8
OBJECT
 10
6579.5
 20
-1008.5
 30
0.0
 11
6577.5000000000036
 21
-902.50000000052353
 31
0.0
1001
ACDBBLOCKREPETAG
1070
     1
1071
       67
1005
12A53F
  0
LINE
  5
12A540
  8
OBJECT
 10
6579.5
 20
-1008.5
 30
0.0
 11
6582.5000000001683
 21
-1006.500000000229
 31
0.0
1001
ACDBBLOCKREPETAG
1070
     1
1071
       68
1005
12A540
  0
LINE
  5
12A541
  8
OBJECT
 10
6582.5000000001683
 20
-1006.500000000229
 30
0.0
 11
6582.5000000001683
 21
-897.50000000022919
 31
0.0
1001
ACDBBLOCKREPETAG
1070
     1
1071
       69
1005
12A541
  0
LINE
  5
12A542
  8
OBJECT
 10
6582.5000000001683
 20
-897.50000000022919
 30
0.0
 11
6577.5000000000036
 21
-902.50000000052353
 31
0.0
1001
ACDBBLOCKREPETAG
1070
     1
1071
       70
1005
12A542
  0
LINE
  5
12A543
  8
OBJECT
 10
4575.0
 20
-770.0
 30
0.0
 11
4575.0
 21
-902.50000000006548
 31
0.0
1001
ACDBBLOCKREPETAG
1070
     1
1071
        1
1005
12A543
  0
LINE
  5
12A544
  8
OBJECT
 10
4425.0
 20
-769.9999999999942
 30
0.0
 11
4425.0
 21
-1043.0
 31
0.0
1001
ACDBBLOCKREPETAG
1070
     1
1071
        3
1005
12A544
  0
LINE
  5
12A545
  8
CENTER
 10
4500.0
 20
-770.0
 30
0.0
 11
4500.0
 21
-1055.0
 31
0.0
1001
ACDBBLOCKREPETAG
1070
     1
1071
        6
1005
12A545
  0
LINE
  5
12A546
  8
OBJECT
 10
4420.0
 20
-1055.0
 30
0.0
 11
4580.0
 21
-1055.0
 31
0.0
1001
ACDBBLOCKREPETAG
1070
     1
1071
        7
1005
12A546
  0
LINE
  5
12A547
  8
OBJECT
 10
4420.0
 20
-1043.0
 30
0.0
 11
4580.0
 21
-1043.0
 31
0.0
1001
ACDBBLOCKREPETAG
1070
     1
1071
        8
1005
12A547
  0
LINE
  5
12A548
  8
OBJECT
 10
4420.0
 20
-1043.0
 30
0.0
 11
4420.0
 21
-1055.0
 31
0.0
1001
ACDBBLOCKREPETAG
1070
     1
1071
        9
1005
12A548
  0
LINE
  5
12A549
  8
OBJECT
 10
4580.0
 20
-1043.0
 30
0.0
 11
4580.0
 21
-1055.0
 31
0.0
1001
ACDBBLOCKREPETAG
1070
     1
1071
       10
1005
12A549
  0
LINE
  5
12A54A
  8
OBJECT
 10
4575.0
 20
-1008.5
 30
0.0
 11
4575.0
 21
-1043.0
 31
0.0
1001
ACDBBLOCKREPETAG
1070
     1
1071
        1
1005
12A543
  0
POINT
  5
12A54B
  8
DOTS
 10
4500.0
 20
-1011.0
 30
0.0
  0
LINE
  5
12A54C
  8
OBJECT
 10
4633.0000000001673
 20
-890.00000000022908
 30
0.0
 11
4640.0000000001673
 21
-890.00000000022908
 31
0.0
1001
ACDBBLOCKREPETAG
1070
     1
1071
       46
1005
12A54C
  0
LINE
  5
12A54D
  8
OBJECT
 10
4640.0000000001673
 20
-890.00000000022908
 30
0.0
 11
4640.0000000001673
 21
-1011.000000000229
 31
0.0
1001
ACDBBLOCKREPETAG
1070
     1
1071
       47
1005
12A54D
  0
LINE
  5
12A54E
  8
OBJECT
 10
4633.0000000001673
 20
-1011.000000000229
 30
0.0
 11
4633.0000000001673
 21
-890.00000000022908
 31
0.0
1001
ACDBBLOCKREPETAG
1070
     1
1071
       48
1005
12A54E
  0
LINE
  5
12A54F
  8
CENTER
 10
4655.0000000001673
 20
-952.00000000022919
 30
0.0
 11
4541.344919913171
 21
-952.00000000029422
 31
0.0
1001
ACDBBLOCKREPETAG
1070
     1
1071
       49
1005
12A54F
  0
LINE
  5
12A550
  8
OBJECT
 10
4633.0000000001673
 20
-893.00000000022919
 30
0.0
 11
4597.0000000001673
 21
-893.00000000022919
 31
0.0
1001
ACDBBLOCKREPETAG
1070
     1
1071
       50
1005
12A550
  0
LINE
  5
12A551
  8
OBJECT
 10
4597.0000000001673
 20
-893.00000000022919
 30
0.0
 11
4597.0000000001673
 21
-1011.000000000229
 31
0.0
1001
ACDBBLOCKREPETAG
1070
     1
1071
       51
1005
12A551
  0
LINE
  5
12A552
  8
OBJECT
 10
4597.0000000001673
 20
-1011.000000000229
 30
0.0
 11
4640.0000000001673
 21
-1011.000000000229
 31
0.0
1001
ACDBBLOCKREPETAG
1070
     1
1071
       52
1005
12A552
  0
LINE
  5
12A553
  8
OBJECT
 10
4593.0000000001673
 20
-897.50000000022919
 30
0.0
 11
4582.5000000001673
 21
-897.50000000022919
 31
0.0
1001
ACDBBLOCKREPETAG
1070
     1
1071
       53
1005
12A553
  0
LINE
  5
12A554
  8
OBJECT
 10
4582.5000000001673
 20
-1006.500000000229
 30
0.0
 11
4593.0000000001673
 21
-1006.500000000229
 31
0.0
1001
ACDBBLOCKREPETAG
1070
     1
1071
       54
1005
12A554
  0
LINE
  5
12A555
  8
OBJECT
 10
4593.0000000001673
 20
-1006.500000000229
 30
0.0
 11
4593.0000000001673
 21
-897.50000000022919
 31
0.0
1001
ACDBBLOCKREPETAG
1070
     1
1071
       55
1005
12A555
  0
LINE
  5
12A556
  8
OBJECT
 10
4597.0000000001673
 20
-893.00000000022919
 30
0.0
 11
4593.0000000001673
 21
-897.50000000022919
 31
0.0
1001
ACDBBLOCKREPETAG
1070
     1
1071
       56
1005
12A556
  0
LINE
  5
12A557
  8
OBJECT
 10
4597.0000000001673
 20
-1011.000000000229
 30
0.0
 11
4593.0000000001673
 21
-1006.500000000229
 31
0.0
1001
ACDBBLOCKREPETAG
1070
     1
1071
       57
1005
12A557
  0
LINE
  5
12A558
  8
HIDDEN
 10
4588.0000000001673
 20
-907.50000000022919
 30
0.0
 11
4588.0000000001673
 21
-996.50000000022908
 31
0.0
1001
ACDBBLOCKREPETAG
1070
     1
1071
       58
1005
12A558
  0
ARC
  5
12A559
  8
OBJECT
 10
4664.8782728789411
 20
-967.40950726145843
 30
0.0
 40
110.86635228309
 50
144.16342741929409
 51
163.04035380434561
1001
ACDBBLOCKREPETAG
1070
     1
1071
       59
1005
12A559
  0
ARC
  5
12A55A
  8
OBJECT
 10
4617.1359887770741
 20
-952.28774971867813
 30
0.0
 40
60.791749880358971
 50
163.54720465221311
 51
179.72879698282651
1001
ACDBBLOCKREPETAG
1070
     1
1071
       60
1005
12A55A
  0
ARC
  5
12A55B
  8
OBJECT
 10
4617.1359956564156
 20
-958.71224976013025
 30
0.0
 40
60.79175676209487
 50
180.2712034781452
 51
196.45277946052011
1001
ACDBBLOCKREPETAG
1070
     1
1071
       61
1005
12A55B
  0
ARC
  5
12A55C
  8
OBJECT
 10
4664.8782728789411
 20
-943.59049273906555
 30
0.0
 40
110.8663522830916
 50
196.95964619565439
 51
215.83657258070579
1001
ACDBBLOCKREPETAG
1070
     1
1071
       62
1005
12A55C
  0
LINE
  5
12A55D
  8
OBJECT
 10
4556.344919913171
 20
-952.00000000026546
 30
0.0
 11
4556.344919913171
 21
-959.00000000026205
 31
0.0
1001
ACDBBLOCKREPETAG
1070
     1
1071
       63
1005
12A55D
  0
LINE
  5
12A55E
  8
OBJECT
 10
4575.0000000000009
 20
-902.50000000052353
 30
0.0
 11
4577.5000000000018
 21
-902.50000000052353
 31
0.0
1001
ACDBBLOCKREPETAG
1070
     1
1071
       65
1005
12A55E
  0
LINE
  5
12A55F
  8
OBJECT
 10
4575.0
 20
-1008.5
 30
0.0
 11
4579.5
 21
-1008.5
 31
0.0
1001
ACDBBLOCKREPETAG
1070
     1
1071
       66
1005
12A55F
  0
LINE
  5
12A560
  8
OBJECT
 10
4579.5
 20
-1008.5
 30
0.0
 11
4577.5000000000018
 21
-902.50000000052353
 31
0.0
1001
ACDBBLOCKREPETAG
1070
     1
1071
       67
1005
12A560
  0
LINE
  5
12A561
  8
OBJECT
 10
4579.5
 20
-1008.5
 30
0.0
 11
4582.5000000001673
 21
-1006.500000000229
 31
0.0
1001
ACDBBLOCKREPETAG
1070
     1
1071
       68
1005
12A561
  0
LINE
  5
12A562
  8
OBJECT
 10
4582.5000000001673
 20
-1006.500000000229
 30
0.0
 11
4582.5000000001673
 21
-897.50000000022919
 31
0.0
1001
ACDBBLOCKREPETAG
1070
     1
1071
       69
1005
12A562
  0
LINE
  5
12A563
  8
OBJECT
 10
4582.5000000001673
 20
-897.50000000022919
 30
0.0
 11
4577.5000000000018
 21
-902.50000000052353
 31
0.0
1001
ACDBBLOCKREPETAG
1070
     1
1071
       70
1005
12A563
  0
POLYLINE
  5
12A564
  8
HIDDEN
 66
     1
 10
0.0
 20
0.0
 30
0.0
 70
     1
1001
ACDBBLOCKREPETAG
1070
     1
1071
      105
1005
0
  0
VERTEX
  5
12AB2D
  8
HIDDEN
 10
359.99999999987779
 20
-799.99999999999818
 30
0.0
  0
VERTEX
  5
12AB2E
  8
HIDDEN
 10
719.99999999975603
 20
-799.99999999999818
 30
0.0
  0
VERTEX
  5
12AB2F
  8
HIDDEN
 10
719.99999999975603
 20
-1263.9999999998399
 30
0.0
  0
VERTEX
  5
12AB30
  8
HIDDEN
 10
359.99999999987779
 20
-1263.9999999998399
 30
0.0
  0
SEQEND
  5
12AB31
  8
HIDDEN
  0
POLYLINE
  5
12A565
  8
HIDDEN
 66
     1
 10
0.0
 20
0.0
 30
0.0
 70
     1
1001
ACDBBLOCKREPETAG
1070
     1
1071
      110
1005
0
  0
VERTEX
  5
12AB32
  8
HIDDEN
 10
-0.0000000000002274
 20
-799.99999999999818
 30
0.0
  0
VERTEX
  5
12AB33
  8
HIDDEN
 10
359.99999999987779
 20
-799.99999999999818
 30
0.0
  0
VERTEX
  5
12AB34
  8
HIDDEN
 10
359.99999999987779
 20
-1263.9999999998399
 30
0.0
  0
VERTEX
  5
12AB35
  8
HIDDEN
 10
-0.0000000000002274
 20
-1263.9999999998399
 30
0.0
  0
SEQEND
  5
12AB36
  8
HIDDEN
  0
POLYLINE
  5
12A566
  8
HIDDEN
 66
     1
 10
0.0
 20
0.0
 30
0.0
 70
     1
1001
ACDBBLOCKREPETAG
1070
     1
1071
      125
1005
0
  0
VERTEX
  5
12AB37
  8
HIDDEN
 10
-0.0000000000002274
 20
-1263.9999999998399
 30
0.0
  0
VERTEX
  5
12AB38
  8
HIDDEN
 10
359.99999999987779
 20
-1263.9999999998399
 30
0.0
  0
VERTEX
  5
12AB39
  8
HIDDEN
 10
359.99999999987779
 20
-1727.999999999681
 30
0.0
  0
VERTEX
  5
12AB3A
  8
HIDDEN
 10
-0.0000000000002274
 20
-1727.999999999681
 30
0.0
  0
SEQEND
  5
12AB3B
  8
HIDDEN
  0
POLYLINE
  5
12A567
  8
HIDDEN
 66
     1
 10
0.0
 20
0.0
 30
0.0
 70
     1
1001
ACDBBLOCKREPETAG
1070
     1
1071
      110
1005
0
  0
VERTEX
  5
12AB3C
  8
HIDDEN
 10
-0.0000000000002274
 20
0.0000000000009095
 30
0.0
  0
VERTEX
  5
12AB3D
  8
HIDDEN
 10
359.99999999987779
 20
0.0000000000009095
 30
0.0
  0
VERTEX
  5
12AB3E
  8
HIDDEN
 10
359.99999999987779
 20
-463.99999999984078
 30
0.0
  0
VERTEX
  5
12AB3F
  8
HIDDEN
 10
-0.0000000000002274
 20
-463.99999999984078
 30
0.0
  0
SEQEND
  5
12AB40
  8
HIDDEN
  0
INSERT
  5
12A568
  8
SLIM
  2
*U16
 10
0.0
 20
0.0
 30
0.0
  0
LINE
  5
12A569
  8
OBJECT
 10
133.00000000004169
 20
-99.000000000171866
 30
0.0
 11
133.00000000004169
 21
-92.000000000171866
 31
0.0
1001
ACDBBLOCKREPETAG
1070
     1
1071
        1
1005
12A569
  0
LINE
  5
12A56A
  8
OBJECT
 10
133.00000000004169
 20
-92.000000000171866
 30
0.0
 11
227.00000000004181
 21
-92.000000000171866
 31
0.0
1001
ACDBBLOCKREPETAG
1070
     1
1071
        2
1005
12A56A
  0
LINE
  5
12A56B
  8
OBJECT
 10
227.00000000004181
 20
-92.000000000171866
 30
0.0
 11
227.00000000004181
 21
-99.000000000171866
 31
0.0
1001
ACDBBLOCKREPETAG
1070
     1
1071
        3
1005
12A56B
  0
LINE
  5
12A56C
  8
OBJECT
 10
227.00000000004181
 20
-99.000000000171866
 30
0.0
 11
133.00000000004169
 21
-99.000000000171866
 31
0.0
1001
ACDBBLOCKREPETAG
1070
     1
1071
        4
1005
12A56C
  0
LINE
  5
12A56D
  8
OBJECT
 10
136.00000000004169
 20
-99.000000000171866
 30
0.0
 11
136.00000000004169
 21
-135.00000000017181
 31
0.0
1001
ACDBBLOCKREPETAG
1070
     1
1071
        5
1005
12A56D
  0
LINE
  5
12A56E
  8
OBJECT
 10
136.00000000004169
 20
-135.00000000017181
 30
0.0
 11
224.00000000004181
 21
-135.00000000017181
 31
0.0
1001
ACDBBLOCKREPETAG
1070
     1
1071
        6
1005
12A56E
  0
LINE
  5
12A56F
  8
OBJECT
 10
224.00000000004181
 20
-135.00000000017181
 30
0.0
 11
224.00000000004181
 21
-99.000000000171866
 31
0.0
1001
ACDBBLOCKREPETAG
1070
     1
1071
        7
1005
12A56F
  0
LINE
  5
12A570
  8
OBJECT
 10
140.50000000004181
 20
-139.00000000017181
 30
0.0
 11
140.50000000004181
 21
-146.00000000017181
 31
0.0
1001
ACDBBLOCKREPETAG
1070
     1
1071
        8
1005
12A570
  0
LINE
  5
12A571
  8
OBJECT
 10
219.50000000004189
 20
-146.00000000017181
 30
0.0
 11
219.50000000004189
 21
-139.00000000017181
 31
0.0
1001
ACDBBLOCKREPETAG
1070
     1
1071
        9
1005
12A571
  0
LINE
  5
12A572
  8
OBJECT
 10
219.50000000004189
 20
-139.00000000017181
 30
0.0
 11
140.50000000004181
 21
-139.00000000017181
 31
0.0
1001
ACDBBLOCKREPETAG
1070
     1
1071
       10
1005
12A572
  0
LINE
  5
12A573
  8
OBJECT
 10
136.00000000004169
 20
-135.00000000017181
 30
0.0
 11
140.50000000004181
 21
-139.00000000017181
 31
0.0
1001
ACDBBLOCKREPETAG
1070
     1
1071
       11
1005
12A573
  0
LINE
  5
12A574
  8
OBJECT
 10
224.00000000004181
 20
-135.00000000017181
 30
0.0
 11
219.50000000004189
 21
-139.00000000017181
 31
0.0
1001
ACDBBLOCKREPETAG
1070
     1
1071
       12
1005
12A574
  0
LINE
  5
12A575
  8
OBJECT
 10
118.00000000004179
 20
-149.00000000017101
 30
0.0
 11
118.00000000004179
 21
-152.00000000017181
 31
0.0
1001
ACDBBLOCKREPETAG
1070
     1
1071
       13
1005
12A575
  0
ARC
  5
12A576
  8
OBJECT
 10
121.00000000004179
 20
-149.00000000017101
 30
0.0
 40
3.0
 50
90.0
 51
180.0
1001
ACDBBLOCKREPETAG
1070
     1
1071
       14
1005
12A576
  0
LINE
  5
12A577
  8
OBJECT
 10
242.00000000004181
 20
-152.00000000017181
 30
0.0
 11
242.00000000004181
 21
-149.0000000001728
 31
0.0
1001
ACDBBLOCKREPETAG
1070
     1
1071
       15
1005
12A577
  0
ARC
  5
12A578
  8
OBJECT
 10
239.00000000004181
 20
-149.0000000001728
 30
0.0
 40
3.0
 50
0.0
 51
90.0
1001
ACDBBLOCKREPETAG
1070
     1
1071
       16
1005
12A578
  0
LINE
  5
12A579
  8
OBJECT
 10
239.00000000004181
 20
-146.0000000001728
 30
0.0
 11
121.00000000004179
 21
-146.00000000017101
 31
0.0
1001
ACDBBLOCKREPETAG
1070
     1
1071
       17
1005
12A579
  0
LINE
  5
12A57A
  8
HIDDEN
 10
150.00000000004181
 20
-144.00000000017189
 30
0.0
 11
210.00000000004181
 21
-144.00000000017189
 31
0.0
1001
ACDBBLOCKREPETAG
1070
     1
1071
      420
1005
12A57A
  0
ARC
  5
12A57B
  8
OBJECT
 10
180.00000000004181
 20
-232.00000000017189
 30
0.0
 40
50.0
 50
28.819943000140022
 51
318.52376955951968
1001
ACDBBLOCKREPETAG
1070
     1
1071
       49
1005
12A57B
  0
CIRCLE
  5
12A57C
  8
OBJECT
 10
180.00000000004181
 20
-232.00000000017189
 30
0.0
 40
70.0
1001
ACDBBLOCKREPETAG
1070
     1
1071
       50
1005
12A57C
  0
CIRCLE
  5
12A57D
  8
OBJECT
 10
180.00000000004181
 20
-232.00000000017189
 30
0.0
 40
77.0
1001
ACDBBLOCKREPETAG
1070
     1
1071
       51
1005
12A57D
  0
ARC
  5
12A57E
  8
OBJECT
 10
180.00000000004181
 20
-232.00000000017189
 30
0.0
 40
80.0
 50
140.80503257377961
 51
39.194967426220252
1001
ACDBBLOCKREPETAG
1070
     1
1071
       52
1005
12A57E
  0
LINE
  5
12A57F
  8
OBJECT
 10
118.00000000004179
 20
-186.3381997728473
 30
0.0
 11
118.00000000004179
 21
-152.00000000017181
 31
0.0
1001
ACDBBLOCKREPETAG
1070
     1
1071
       53
1005
12A57F
  0
LINE
  5
12A580
  8
OBJECT
 10
242.00000000004181
 20
-186.3381997728473
 30
0.0
 11
242.00000000004181
 21
-152.00000000017181
 31
0.0
1001
ACDBBLOCKREPETAG
1070
     1
1071
       54
1005
12A580
  0
LINE
  5
12A581
  8
OBJECT
 10
223.8069471237595
 20
-207.89706690687029
 30
0.0
 11
212.55462200004149
 21
-211.34034300017541
 31
0.0
1001
ACDBBLOCKREPETAG
1070
     1
1071
      141
1005
12A581
  0
LINE
  5
12A582
  8
OBJECT
 10
198.22553374212291
 20
-245.207250098797
 30
0.0
 11
212.5546220000397
 21
-211.34034300017541
 31
0.0
1001
ACDBBLOCKREPETAG
1070
     1
1071
      143
1005
12A582
  0
ARC
  5
12A583
  8
OBJECT
 10
207.43512999909939
 20
-249.10383023827021
 30
0.0
 40
10.0
 50
157.066778292897
 51
244.01473437020459
1001
ACDBBLOCKREPETAG
1070
     1
1071
      144
1005
12A583
  0
ARC
  5
12A584
  8
OBJECT
 10
205.55386256733439
 20
-245.85116096204459
 30
0.0
 40
7.0
 50
157.066778292897
 51
244.0147337750746
1001
ACDBBLOCKREPETAG
1070
     1
1071
      145
1005
12A584
  0
LINE
  5
12A585
  8
OBJECT
 10
223.89888500822451
 20
-262.58002444487028
 30
0.0
 11
202.4868825336107
 21
-252.143508176935
 31
0.0
1001
ACDBBLOCKREPETAG
1070
     1
1071
      154
1005
12A585
  0
LINE
  5
12A586
  8
OBJECT
 10
220.71813901887009
 20
-266.70278309956279
 30
0.0
 11
203.0537300443502
 21
-258.09289773366339
 31
0.0
1001
ACDBBLOCKREPETAG
1070
     1
1071
      155
1005
12A586
  0
ARC
  5
12A587
  8
OBJECT
 10
187.12893698288639
 20
-255.42030469285689
 30
0.0
 40
60.031113246032611
 50
44.070201304186917
 51
52.339361060978852
1001
ACDBBLOCKREPETAG
1070
     1
1071
      156
1005
12A587
  0
CIRCLE
  5
12A588
  8
OBJECT
 10
180.00000000004181
 20
-232.00000000017189
 30
0.0
 40
53.5
1001
ACDBBLOCKREPETAG
1070
     1
1071
      157
1005
12A588
  0
POINT
  5
12A589
  8
DOTS
 10
180.00000000004181
 20
-232.00000000017189
 30
0.0
1001
ACDBBLOCKREPETAG
1070
     1
1071
      162
1005
12A589
  0
TEXT
  5
12A58A
  8
SLIM
 10
97.714285714225042
 20
-1707.9999999996919
 30
0.0
 40
48.0
  1
A3000
 41
0.75
1001
ACDBBLOCKREPETAG
1070
     1
1071
      119
1005
0
  0
TEXT
  5
12A58B
  8
SLIM
 10
457.71428571410308
 20
-1243.9999999998499
 30
0.0
 40
48.0
  1
A2000
 41
0.75
1001
ACDBBLOCKREPETAG
1070
     1
1071
      119
1005
0
  0
TEXT
  5
12A58C
  8
SLIM
 10
101.1428571427964
 20
-1243.9999999998499
 30
0.0
 40
48.0
  1
A1000
 41
0.75
1001
ACDBBLOCKREPETAG
1070
     1
1071
      119
1005
0
  0
TEXT
  5
12A58D
  8
SLIM
 10
0.000003566523219
 20
-775.9999954146823
 30
0.0
 40
79.999999999972701
  1
下部枝管バリエーション
 41
0.75
1001
ACDBBLOCKREPETAG
1070
     1
1071
      119
1005
120BCB
  0
LINE
  5
12A58E
  8
DIM
 10
12404.999999999991
 20
-1011.0
 30
0.0
 11
12333.11645607577
 21
-1011.0
 31
0.0
  0
LINE
  5
12A58F
  8
DIM
 10
12422.999999999991
 20
-1300.999999999997
 30
0.0
 11
12333.11645607577
 21
-1300.999999999997
 31
0.0
  0
LINE
  5
12A590
  8
DIM
 10
12343.11645607577
 20
-1031.0
 30
0.0
 11
12343.11645607577
 21
-1280.999999999997
 31
0.0
  0
INSERT
  5
12A591
  8
DIM
  2
_OPEN30
 10
12343.11645607577
 20
-1011.0
 30
0.0
 41
20.0
 42
20.0
 43
20.0
 50
90.0
  0
INSERT
  5
12A592
  8
DIM
  2
_OPEN30
 10
12343.11645607577
 20
-1300.999999999997
 30
0.0
 41
20.0
 42
20.0
 43
20.0
 50
270.0
  0
INSERT
  5
12A593
  8
SLIM
  2
*U17
 10
0.0
 20
0.0
 30
0.0
  0
LINE
  5
12A594
  8
DIM
 10
10404.999999999991
 20
-1011.0
 30
0.0
 11
10333.11645607577
 21
-1011.0
 31
0.0
  0
LINE
  5
12A595
  8
DIM
 10
10422.999999999991
 20
-1300.999999999997
 30
0.0
 11
10333.11645607577
 21
-1300.999999999997
 31
0.0
  0
LINE
  5
12A596
  8
DIM
 10
10343.11645607577
 20
-1031.0
 30
0.0
 11
10343.11645607577
 21
-1280.999999999997
 31
0.0
  0
INSERT
  5
12A597
  8
DIM
  2
_OPEN30
 10
10343.11645607577
 20
-1011.0
 30
0.0
 41
20.0
 42
20.0
 43
20.0
 50
90.0
  0
INSERT
  5
12A598
  8
DIM
  2
_OPEN30
 10
10343.11645607577
 20
-1300.999999999997
 30
0.0
 41
20.0
 42
20.0
 43
20.0
 50
270.0
  0
INSERT
  5
12A599
  8
SLIM
  2
*U18
 10
0.0
 20
0.0
 30
0.0
  0
LINE
  5
12A59A
  8
DIM
 10
8404.9999999999927
 20
-1010.999999999999
 30
0.0
 11
8333.1164560757734
 21
-1010.999999999999
 31
0.0
  0
LINE
  5
12A59B
  8
DIM
 10
8422.3391071049646
 20
-1260.9999999999991
 30
0.0
 11
8333.1164560757734
 21
-1260.9999999999991
 31
0.0
  0
LINE
  5
12A59C
  8
DIM
 10
8343.1164560757734
 20
-1030.9999999999991
 30
0.0
 11
8343.1164560757734
 21
-1240.9999999999991
 31
0.0
  0
INSERT
  5
12A59D
  8
DIM
  2
_OPEN30
 10
8343.1164560757734
 20
-1010.999999999999
 30
0.0
 41
20.0
 42
20.0
 43
20.0
 50
90.0
  0
INSERT
  5
12A59E
  8
DIM
  2
_OPEN30
 10
8343.1164560757734
 20
-1260.9999999999991
 30
0.0
 41
20.0
 42
20.0
 43
20.0
 50
270.0
  0
INSERT
  5
12A59F
  8
SLIM
  2
*U19
 10
0.0
 20
0.0
 30
0.0
  0
LINE
  5
12A5A0
  8
OBJECT
 10
2575.0
 20
-770.0
 30
0.0
 11
2575.0
 21
-902.50000000006548
 31
0.0
1001
ACDBBLOCKREPETAG
1070
     1
1071
        1
1005
12A5A0
  0
LINE
  5
12A5A1
  8
OBJECT
 10
2425.0
 20
-769.9999999999942
 30
0.0
 11
2425.0
 21
-1043.0
 31
0.0
1001
ACDBBLOCKREPETAG
1070
     1
1071
        3
1005
12A5A1
  0
LINE
  5
12A5A2
  8
CENTER
 10
2500.0
 20
-770.0
 30
0.0
 11
2500.0
 21
-1055.0
 31
0.0
1001
ACDBBLOCKREPETAG
1070
     1
1071
        6
1005
12A5A2
  0
LINE
  5
12A5A3
  8
OBJECT
 10
2420.0
 20
-1055.0
 30
0.0
 11
2580.0
 21
-1055.0
 31
0.0
1001
ACDBBLOCKREPETAG
1070
     1
1071
        7
1005
12A5A3
  0
LINE
  5
12A5A4
  8
OBJECT
 10
2420.0
 20
-1043.0
 30
0.0
 11
2580.0
 21
-1043.0
 31
0.0
1001
ACDBBLOCKREPETAG
1070
     1
1071
        8
1005
12A5A4
  0
LINE
  5
12A5A5
  8
OBJECT
 10
2420.0
 20
-1043.0
 30
0.0
 11
2420.0
 21
-1055.0
 31
0.0
1001
ACDBBLOCKREPETAG
1070
     1
1071
        9
1005
12A5A5
  0
LINE
  5
12A5A6
  8
OBJECT
 10
2580.0
 20
-1043.0
 30
0.0
 11
2580.0
 21
-1055.0
 31
0.0
1001
ACDBBLOCKREPETAG
1070
     1
1071
       10
1005
12A5A6
  0
LINE
  5
12A5A7
  8
OBJECT
 10
2575.0
 20
-1008.5
 30
0.0
 11
2575.0
 21
-1043.0
 31
0.0
1001
ACDBBLOCKREPETAG
1070
     1
1071
        1
1005
12A5A0
  0
POINT
  5
12A5A8
  8
DOTS
 10
2500.0
 20
-1011.0
 30
0.0
  0
LINE
  5
12A5A9
  8
OBJECT
 10
2633.0000000001678
 20
-890.00000000022908
 30
0.0
 11
2640.0000000001669
 21
-890.00000000022908
 31
0.0
1001
ACDBBLOCKREPETAG
1070
     1
1071
       46
1005
12A5A9
  0
LINE
  5
12A5AA
  8
OBJECT
 10
2640.0000000001669
 20
-890.00000000022908
 30
0.0
 11
2640.0000000001669
 21
-1011.000000000229
 31
0.0
1001
ACDBBLOCKREPETAG
1070
     1
1071
       47
1005
12A5AA
  0
LINE
  5
12A5AB
  8
OBJECT
 10
2633.0000000001678
 20
-1011.000000000229
 30
0.0
 11
2633.0000000001678
 21
-890.00000000022908
 31
0.0
1001
ACDBBLOCKREPETAG
1070
     1
1071
       48
1005
12A5AB
  0
LINE
  5
12A5AC
  8
CENTER
 10
2655.0000000001692
 20
-952.00000000022919
 30
0.0
 11
2541.3449199131719
 21
-952.00000000029422
 31
0.0
1001
ACDBBLOCKREPETAG
1070
     1
1071
       49
1005
12A5AC
  0
LINE
  5
12A5AD
  8
OBJECT
 10
2633.0000000001678
 20
-893.00000000022919
 30
0.0
 11
2597.0000000001678
 21
-893.00000000022919
 31
0.0
1001
ACDBBLOCKREPETAG
1070
     1
1071
       50
1005
12A5AD
  0
LINE
  5
12A5AE
  8
OBJECT
 10
2597.0000000001678
 20
-893.00000000022919
 30
0.0
 11
2597.0000000001678
 21
-1011.000000000229
 31
0.0
1001
ACDBBLOCKREPETAG
1070
     1
1071
       51
1005
12A5AE
  0
LINE
  5
12A5AF
  8
OBJECT
 10
2597.0000000001678
 20
-1011.000000000229
 30
0.0
 11
2640.0000000001669
 21
-1011.000000000229
 31
0.0
1001
ACDBBLOCKREPETAG
1070
     1
1071
       52
1005
12A5AF
  0
LINE
  5
12A5B0
  8
OBJECT
 10
2593.0000000001669
 20
-897.50000000022919
 30
0.0
 11
2582.5000000001669
 21
-897.50000000022919
 31
0.0
1001
ACDBBLOCKREPETAG
1070
     1
1071
       53
1005
12A5B0
  0
LINE
  5
12A5B1
  8
OBJECT
 10
2582.5000000001669
 20
-1006.500000000229
 30
0.0
 11
2593.0000000001669
 21
-1006.500000000229
 31
0.0
1001
ACDBBLOCKREPETAG
1070
     1
1071
       54
1005
12A5B1
  0
LINE
  5
12A5B2
  8
OBJECT
 10
2593.0000000001669
 20
-1006.500000000229
 30
0.0
 11
2593.0000000001669
 21
-897.50000000022919
 31
0.0
1001
ACDBBLOCKREPETAG
1070
     1
1071
       55
1005
12A5B2
  0
LINE
  5
12A5B3
  8
OBJECT
 10
2597.0000000001678
 20
-893.00000000022919
 30
0.0
 11
2593.0000000001669
 21
-897.50000000022919
 31
0.0
1001
ACDBBLOCKREPETAG
1070
     1
1071
       56
1005
12A5B3
  0
LINE
  5
12A5B4
  8
OBJECT
 10
2597.0000000001678
 20
-1011.000000000229
 30
0.0
 11
2593.0000000001669
 21
-1006.500000000229
 31
0.0
1001
ACDBBLOCKREPETAG
1070
     1
1071
       57
1005
12A5B4
  0
LINE
  5
12A5B5
  8
HIDDEN
 10
2588.0000000001669
 20
-907.50000000022919
 30
0.0
 11
2588.0000000001669
 21
-996.50000000022908
 31
0.0
1001
ACDBBLOCKREPETAG
1070
     1
1071
       58
1005
12A5B5
  0
ARC
  5
12A5B6
  8
OBJECT
 10
2664.8782728789411
 20
-967.40950726145843
 30
0.0
 40
110.86635228309
 50
144.16342741929409
 51
163.040353804338
1001
ACDBBLOCKREPETAG
1070
     1
1071
       59
1005
12A5B6
  0
ARC
  5
12A5B7
  8
OBJECT
 10
2617.1359887770741
 20
-952.28774971867813
 30
0.0
 40
60.791749880358971
 50
163.5472046522205
 51
179.72879698282679
1001
ACDBBLOCKREPETAG
1070
     1
1071
       60
1005
12A5B7
  0
ARC
  5
12A5B8
  8
OBJECT
 10
2617.1359956564161
 20
-958.71224976013025
 30
0.0
 40
60.79175676209487
 50
180.2712034781452
 51
196.45277946052761
1001
ACDBBLOCKREPETAG
1070
     1
1071
       61
1005
12A5B8
  0
ARC
  5
12A5B9
  8
OBJECT
 10
2664.8782728789411
 20
-943.59049273906555
 30
0.0
 40
110.8663522830916
 50
196.95964619566189
 51
215.83657258070579
1001
ACDBBLOCKREPETAG
1070
     1
1071
       62
1005
12A5B9
  0
LINE
  5
12A5BA
  8
OBJECT
 10
2556.3449199131719
 20
-952.00000000026546
 30
0.0
 11
2556.3449199131719
 21
-959.00000000026205
 31
0.0
1001
ACDBBLOCKREPETAG
1070
     1
1071
       63
1005
12A5BA
  0
LINE
  5
12A5BB
  8
OBJECT
 10
2575.000000000005
 20
-902.50000000052353
 30
0.0
 11
2577.5000000000041
 21
-902.50000000052353
 31
0.0
1001
ACDBBLOCKREPETAG
1070
     1
1071
       65
1005
12A5BB
  0
LINE
  5
12A5BC
  8
OBJECT
 10
2575.0
 20
-1008.5
 30
0.0
 11
2579.5
 21
-1008.5
 31
0.0
1001
ACDBBLOCKREPETAG
1070
     1
1071
       66
1005
12A5BC
  0
LINE
  5
12A5BD
  8
OBJECT
 10
2579.5
 20
-1008.5
 30
0.0
 11
2577.5000000000041
 21
-902.50000000052353
 31
0.0
1001
ACDBBLOCKREPETAG
1070
     1
1071
       67
1005
12A5BD
  0
LINE
  5
12A5BE
  8
OBJECT
 10
2579.5
 20
-1008.5
 30
0.0
 11
2582.5000000001669
 21
-1006.500000000229
 31
0.0
1001
ACDBBLOCKREPETAG
1070
     1
1071
       68
1005
12A5BE
  0
LINE
  5
12A5BF
  8
OBJECT
 10
2582.5000000001669
 20
-1006.500000000229
 30
0.0
 11
2582.5000000001669
 21
-897.50000000022919
 31
0.0
1001
ACDBBLOCKREPETAG
1070
     1
1071
       69
1005
12A5BF
  0
LINE
  5
12A5C0
  8
OBJECT
 10
2582.5000000001669
 20
-897.50000000022919
 30
0.0
 11
2577.5000000000041
 21
-902.50000000052353
 31
0.0
1001
ACDBBLOCKREPETAG
1070
     1
1071
       70
1005
12A5C0
  0
LINE
  5
12A5C1
  8
DIM
 10
2665.0
 20
-711.0
 30
0.0
 11
2719.4245816727562
 21
-711.0
 31
0.0
  0
LINE
  5
12A5C2
  8
DIM
 10
2650.0
 20
-1011.0
 30
0.0
 11
2719.4245816727562
 21
-1011.0
 31
0.0
  0
LINE
  5
12A5C3
  8
DIM
 10
2709.4245816727562
 20
-731.0
 30
0.0
 11
2709.4245816727562
 21
-991.0
 31
0.0
  0
INSERT
  5
12A5C4
  8
DIM
  2
_OPEN30
 10
2709.4245816727562
 20
-711.0
 30
0.0
 41
20.0
 42
20.0
 43
20.0
 50
90.0
  0
INSERT
  5
12A5C5
  8
DIM
  2
_OPEN30
 10
2709.4245816727562
 20
-1011.0
 30
0.0
 41
20.0
 42
20.0
 43
20.0
 50
270.0
  0
INSERT
  5
12A5C6
  8
SLIM
  2
*U20
 10
0.0
 20
0.0
 30
0.0
  0
LINE
  5
12A5C7
  8
CENTER
 10
4977.0
 20
-3805.9999999999968
 30
0.0
 11
4823.0
 21
-3805.9999999999968
 31
0.0
1001
ACDBBLOCKREPETAG
1070
     1
1071
       17
1005
12A5C7
  0
CIRCLE
  5
12A5C8
  8
OBJECT
 10
4900.0
 20
-3805.9999999999968
 30
0.0
 40
41.5
1001
ACDBBLOCKREPETAG
1070
     1
1071
       18
1005
12A5C8
  0
CIRCLE
  5
12A5C9
  8
OBJECT
 10
4900.0
 20
-3805.9999999999968
 30
0.0
 40
54.0
1001
ACDBBLOCKREPETAG
1070
     1
1071
       19
1005
12A5C9
  0
ARC
  5
12A5CA
  8
OBJECT
 10
4900.0
 20
-3805.9999999999968
 30
0.0
 40
62.0
 50
287.89655112921122
 51
252.1034488707887
1001
ACDBBLOCKREPETAG
1070
     1
1071
       20
1005
12A5CA
  0
LINE
  5
12A5CB
  8
OBJECT
 10
4880.947441116743
 20
-3864.9999999999968
 30
0.0
 11
4919.052558883257
 21
-3864.9999999999968
 31
0.0
1001
ACDBBLOCKREPETAG
1070
     1
1071
       21
1005
12A5CB
  0
POINT
  5
12A5CC
  8
DOTS
 10
4900.0
 20
-3864.9999999999968
 30
0.0
1001
ACDBBLOCKREPETAG
1070
     1
1071
       23
1005
12A5CC
  0
LINE
  5
12A5CD
  8
OBJECT
 10
4633.0
 20
-3743.9999999999959
 30
0.0
 11
4640.0
 21
-3743.9999999999959
 31
0.0
1001
ACDBBLOCKREPETAG
1070
     1
1071
       46
1005
12A5CD
  0
LINE
  5
12A5CE
  8
OBJECT
 10
4640.0
 20
-3743.9999999999959
 30
0.0
 11
4640.0
 21
-3864.9999999999968
 31
0.0
1001
ACDBBLOCKREPETAG
1070
     1
1071
       47
1005
12A5CE
  0
LINE
  5
12A5CF
  8
OBJECT
 10
4633.0
 20
-3864.9999999999968
 30
0.0
 11
4633.0
 21
-3743.9999999999959
 31
0.0
1001
ACDBBLOCKREPETAG
1070
     1
1071
       48
1005
12A5CF
  0
LINE
  5
12A5D0
  8
CENTER
 10
4655.0
 20
-3805.9999999999968
 30
0.0
 11
4541.3449199130037
 21
-3806.0000000000618
 31
0.0
1001
ACDBBLOCKREPETAG
1070
     1
1071
       49
1005
12A5D0
  0
LINE
  5
12A5D1
  8
OBJECT
 10
4633.0
 20
-3746.9999999999959
 30
0.0
 11
4597.0
 21
-3746.9999999999959
 31
0.0
1001
ACDBBLOCKREPETAG
1070
     1
1071
       50
1005
12A5D1
  0
LINE
  5
12A5D2
  8
OBJECT
 10
4597.0
 20
-3746.9999999999959
 30
0.0
 11
4597.0
 21
-3864.9999999999968
 31
0.0
1001
ACDBBLOCKREPETAG
1070
     1
1071
       51
1005
12A5D2
  0
LINE
  5
12A5D3
  8
OBJECT
 10
4597.0
 20
-3864.9999999999968
 30
0.0
 11
4640.0
 21
-3864.9999999999968
 31
0.0
1001
ACDBBLOCKREPETAG
1070
     1
1071
       52
1005
12A5D3
  0
LINE
  5
12A5D4
  8
OBJECT
 10
4593.0
 20
-3751.4999999999959
 30
0.0
 11
4582.5
 21
-3751.4999999999959
 31
0.0
1001
ACDBBLOCKREPETAG
1070
     1
1071
       53
1005
12A5D4
  0
LINE
  5
12A5D5
  8
OBJECT
 10
4582.5
 20
-3860.4999999999959
 30
0.0
 11
4593.0
 21
-3860.4999999999959
 31
0.0
1001
ACDBBLOCKREPETAG
1070
     1
1071
       54
1005
12A5D5
  0
LINE
  5
12A5D6
  8
OBJECT
 10
4593.0
 20
-3860.4999999999959
 30
0.0
 11
4593.0
 21
-3751.4999999999959
 31
0.0
1001
ACDBBLOCKREPETAG
1070
     1
1071
       55
1005
12A5D6
  0
LINE
  5
12A5D7
  8
OBJECT
 10
4597.0
 20
-3746.9999999999959
 30
0.0
 11
4593.0
 21
-3751.4999999999959
 31
0.0
1001
ACDBBLOCKREPETAG
1070
     1
1071
       56
1005
12A5D7
  0
LINE
  5
12A5D8
  8
OBJECT
 10
4597.0
 20
-3864.9999999999968
 30
0.0
 11
4593.0
 21
-3860.4999999999959
 31
0.0
1001
ACDBBLOCKREPETAG
1070
     1
1071
       57
1005
12A5D8
  0
LINE
  5
12A5D9
  8
HIDDEN
 10
4588.0
 20
-3761.4999999999968
 30
0.0
 11
4588.0
 21
-3850.4999999999968
 31
0.0
1001
ACDBBLOCKREPETAG
1070
     1
1071
       58
1005
12A5D9
  0
ARC
  5
12A5DA
  8
OBJECT
 10
4664.8782728787719
 20
-3821.4095072612249
 30
0.0
 40
110.86635228309
 50
144.16342741928889
 51
163.04035380433939
1001
ACDBBLOCKREPETAG
1070
     1
1071
       59
1005
12A5DA
  0
ARC
  5
12A5DB
  8
OBJECT
 10
4617.1359887769049
 20
-3806.287749718445
 30
0.0
 40
60.791749880358971
 50
163.54720465221931
 51
179.72879698282651
1001
ACDBBLOCKREPETAG
1070
     1
1071
       60
1005
12A5DB
  0
ARC
  5
12A5DC
  8
OBJECT
 10
4617.1359956562483
 20
-3812.7122497598971
 30
0.0
 40
60.79175676209487
 50
180.2712034781452
 51
196.4527794605265
1001
ACDBBLOCKREPETAG
1070
     1
1071
       61
1005
12A5DC
  0
ARC
  5
12A5DD
  8
OBJECT
 10
4664.8782728787719
 20
-3797.5904927388328
 30
0.0
 40
110.8663522830916
 50
196.9596461956605
 51
215.83657258071111
1001
ACDBBLOCKREPETAG
1070
     1
1071
       62
1005
12A5DD
  0
LINE
  5
12A5DE
  8
OBJECT
 10
4556.3449199130037
 20
-3806.0000000000332
 30
0.0
 11
4556.3449199130037
 21
-3813.0000000000291
 31
0.0
1001
ACDBBLOCKREPETAG
1070
     1
1071
       63
1005
12A5DE
  0
LINE
  5
12A5DF
  8
OBJECT
 10
4574.9999999998336
 20
-3756.500000000291
 30
0.0
 11
4577.4999999998363
 21
-3756.500000000291
 31
0.0
1001
ACDBBLOCKREPETAG
1070
     1
1071
       65
1005
12A5DF
  0
LINE
  5
12A5E0
  8
OBJECT
 10
4574.9999999998327
 20
-3862.4999999997672
 30
0.0
 11
4579.4999999998308
 21
-3862.4999999997672
 31
0.0
1001
ACDBBLOCKREPETAG
1070
     1
1071
       66
1005
12A5E0
  0
LINE
  5
12A5E1
  8
OBJECT
 10
4579.4999999998308
 20
-3862.4999999997672
 30
0.0
 11
4577.4999999998363
 21
-3756.500000000291
 31
0.0
1001
ACDBBLOCKREPETAG
1070
     1
1071
       67
1005
12A5E1
  0
LINE
  5
12A5E2
  8
OBJECT
 10
4579.4999999998308
 20
-3862.4999999997672
 30
0.0
 11
4582.5
 21
-3860.4999999999959
 31
0.0
1001
ACDBBLOCKREPETAG
1070
     1
1071
       68
1005
12A5E2
  0
LINE
  5
12A5E3
  8
OBJECT
 10
4582.5
 20
-3860.4999999999959
 30
0.0
 11
4582.5
 21
-3751.4999999999959
 31
0.0
1001
ACDBBLOCKREPETAG
1070
     1
1071
       69
1005
12A5E3
  0
LINE
  5
12A5E4
  8
OBJECT
 10
4582.5
 20
-3751.4999999999959
 30
0.0
 11
4577.4999999998363
 21
-3756.500000000291
 31
0.0
1001
ACDBBLOCKREPETAG
1070
     1
1071
       70
1005
12A5E4
  0
LINE
  5
12A5E5
  8
OBJECT
 10
4633.0000000000009
 20
-3397.9999999999959
 30
0.0
 11
4640.0000000000018
 21
-3397.9999999999959
 31
0.0
1001
ACDBBLOCKREPETAG
1070
     1
1071
       38
1005
12A5E5
  0
LINE
  5
12A5E6
  8
OBJECT
 10
4640.0000000000018
 20
-3397.9999999999959
 30
0.0
 11
4640.0
 21
-3521.9999999999968
 31
0.0
1001
ACDBBLOCKREPETAG
1070
     1
1071
       39
1005
12A5E6
  0
LINE
  5
12A5E7
  8
OBJECT
 10
4640.0
 20
-3521.9999999999968
 30
0.0
 11
4633.0
 21
-3521.9999999999968
 31
0.0
1001
ACDBBLOCKREPETAG
1070
     1
1071
       40
1005
12A5E7
  0
LINE
  5
12A5E8
  8
OBJECT
 10
4633.0
 20
-3521.9999999999968
 30
0.0
 11
4633.0000000000009
 21
-3397.9999999999959
 31
0.0
1001
ACDBBLOCKREPETAG
1070
     1
1071
       41
1005
12A5E8
  0
LINE
  5
12A5E9
  8
CENTER
 10
4655.0
 20
-3459.9999999999968
 30
0.0
 11
4580.0
 21
-3459.9999999999968
 31
0.0
1001
ACDBBLOCKREPETAG
1070
     1
1071
       42
1005
12A5E9
  0
LINE
  5
12A5EA
  8
OBJECT
 10
4633.0000000000009
 20
-3400.9999999999959
 30
0.0
 11
4597.0000000000018
 21
-3400.9999999999959
 31
0.0
1001
ACDBBLOCKREPETAG
1070
     1
1071
       43
1005
12A5EA
  0
LINE
  5
12A5EB
  8
OBJECT
 10
4597.0000000000018
 20
-3400.9999999999959
 30
0.0
 11
4597.0
 21
-3518.9999999999968
 31
0.0
1001
ACDBBLOCKREPETAG
1070
     1
1071
       44
1005
12A5EB
  0
LINE
  5
12A5EC
  8
OBJECT
 10
4597.0
 20
-3518.9999999999968
 30
0.0
 11
4633.0
 21
-3518.9999999999968
 31
0.0
1001
ACDBBLOCKREPETAG
1070
     1
1071
       45
1005
12A5EC
  0
LINE
  5
12A5ED
  8
OBJECT
 10
4593.0000000000018
 20
-3405.4999999999959
 30
0.0
 11
4582.5000000000018
 21
-3405.4999999999959
 31
0.0
1001
ACDBBLOCKREPETAG
1070
     1
1071
       46
1005
12A5ED
  0
LINE
  5
12A5EE
  8
OBJECT
 10
4582.5
 20
-3514.4999999999968
 30
0.0
 11
4593.0
 21
-3514.4999999999968
 31
0.0
1001
ACDBBLOCKREPETAG
1070
     1
1071
       47
1005
12A5EE
  0
LINE
  5
12A5EF
  8
OBJECT
 10
4593.0
 20
-3514.4999999999968
 30
0.0
 11
4593.0000000000018
 21
-3405.4999999999959
 31
0.0
1001
ACDBBLOCKREPETAG
1070
     1
1071
       48
1005
12A5EF
  0
LINE
  5
12A5F0
  8
OBJECT
 10
4597.0000000000018
 20
-3400.9999999999959
 30
0.0
 11
4593.0000000000018
 21
-3405.4999999999959
 31
0.0
1001
ACDBBLOCKREPETAG
1070
     1
1071
       49
1005
12A5F0
  0
LINE
  5
12A5F1
  8
OBJECT
 10
4597.0
 20
-3518.9999999999968
 30
0.0
 11
4593.0
 21
-3514.4999999999968
 31
0.0
1001
ACDBBLOCKREPETAG
1070
     1
1071
       50
1005
12A5F1
  0
LINE
  5
12A5F2
  8
HIDDEN
 10
4588.0
 20
-3415.4999999999968
 30
0.0
 11
4588.0
 21
-3504.4999999999968
 31
0.0
1001
ACDBBLOCKREPETAG
1070
     1
1071
       51
1005
12A5F2
  0
LINE
  5
12A5F3
  8
OBJECT
 10
4577.5000000000018
 20
-3410.4999999999959
 30
0.0
 11
4556.3449199129791
 21
-3410.4999999999959
 31
0.0
1001
ACDBBLOCKREPETAG
1070
     1
1071
       52
1005
12A5F3
  0
LINE
  5
12A5F4
  8
OBJECT
 10
4577.4999999999991
 20
-3509.4999999999959
 30
0.0
 11
4556.3449199129791
 21
-3509.4999999999959
 31
0.0
1001
ACDBBLOCKREPETAG
1070
     1
1071
       53
1005
12A5F4
  0
LINE
  5
12A5F5
  8
OBJECT
 10
4582.5000000000018
 20
-3405.4999999999959
 30
0.0
 11
4582.5
 21
-3514.4999999999968
 31
0.0
1001
ACDBBLOCKREPETAG
1070
     1
1071
       54
1005
12A5F5
  0
LINE
  5
12A5F6
  8
OBJECT
 10
4577.5000000000018
 20
-3410.4999999999959
 30
0.0
 11
4577.4999999999991
 21
-3509.4999999999959
 31
0.0
1001
ACDBBLOCKREPETAG
1070
     1
1071
       55
1005
12A5F6
  0
LINE
  5
12A5F7
  8
OBJECT
 10
4582.5000000000018
 20
-3405.4999999999959
 30
0.0
 11
4577.5000000000018
 21
-3410.4999999999959
 31
0.0
1001
ACDBBLOCKREPETAG
1070
     1
1071
       56
1005
12A5F7
  0
LINE
  5
12A5F8
  8
OBJECT
 10
4577.4999999999991
 20
-3509.4999999999959
 30
0.0
 11
4582.5
 21
-3514.4999999999932
 31
0.0
1001
ACDBBLOCKREPETAG
1070
     1
1071
       57
1005
12A5F8
  0
CIRCLE
  5
12A5F9
  8
OBJECT
 10
3900.0
 20
-3812.9999999999968
 30
0.0
 40
35.5
1001
ACDBBLOCKREPETAG
1070
     1
1071
       11
1005
12A5F9
  0
LINE
  5
12A5FA
  8
CENTER
 10
3830.0
 20
-3812.9999999999968
 30
0.0
 11
3970.0
 21
-3812.9999999999968
 31
0.0
1001
ACDBBLOCKREPETAG
1070
     1
1071
       12
1005
12A5FA
  0
CIRCLE
  5
12A5FB
  8
OBJECT
 10
3900.0
 20
-3812.9999999999968
 30
0.0
 40
47.0
1001
ACDBBLOCKREPETAG
1070
     1
1071
       14
1005
12A5FB
  0
ARC
  5
12A5FC
  8
OBJECT
 10
3900.0
 20
-3812.9999999999968
 30
0.0
 40
55.0
 50
289.01126526008892
 51
250.98873473991111
1001
ACDBBLOCKREPETAG
1070
     1
1071
       15
1005
12A5FC
  0
LINE
  5
12A5FD
  8
OBJECT
 10
3882.0835271328319
 20
-3864.9999999999968
 30
0.0
 11
3917.9164728671672
 21
-3864.9999999999968
 31
0.0
1001
ACDBBLOCKREPETAG
1070
     1
1071
       16
1005
12A5FD
  0
POINT
  5
12A5FE
  8
DOTS
 10
3900.0
 20
-3864.9999999999968
 30
0.0
1001
ACDBBLOCKREPETAG
1070
     1
1071
       24
1005
12A5FE
  0
LINE
  5
12A5FF
  8
OBJECT
 10
3633.0
 20
-3757.9999999999959
 30
0.0
 11
3640.0
 21
-3757.9999999999959
 31
0.0
1001
ACDBBLOCKREPETAG
1070
     1
1071
       23
1005
12A5FF
  0
LINE
  5
12A600
  8
OBJECT
 10
3640.0
 20
-3757.9999999999959
 30
0.0
 11
3640.0
 21
-3864.9999999999968
 31
0.0
1001
ACDBBLOCKREPETAG
1070
     1
1071
       24
1005
12A600
  0
LINE
  5
12A601
  8
OBJECT
 10
3584.5
 20
-3759.5000000000618
 30
0.0
 11
3584.5
 21
-3862.4999999999968
 31
0.0
1001
ACDBBLOCKREPETAG
1070
     1
1071
       25
1005
12A601
  0
ARC
  5
12A602
  8
OBJECT
 10
3581.5
 20
-3759.5000000000618
 30
0.0
 40
3.0
 50
0.0
 51
90.0
1001
ACDBBLOCKREPETAG
1070
     1
1071
       26
1005
12A602
  0
LINE
  5
12A603
  8
OBJECT
 10
3633.0
 20
-3864.9999999999968
 30
0.0
 11
3633.0
 21
-3757.9999999999959
 31
0.0
1001
ACDBBLOCKREPETAG
1070
     1
1071
       27
1005
12A603
  0
LINE
  5
12A604
  8
CENTER
 10
3655.0
 20
-3812.9999999999968
 30
0.0
 11
3541.3449199130041
 21
-3813.0000000000618
 31
0.0
1001
ACDBBLOCKREPETAG
1070
     1
1071
       28
1005
12A604
  0
LINE
  5
12A605
  8
OBJECT
 10
3633.0
 20
-3760.9999999999968
 30
0.0
 11
3597.0
 21
-3760.9999999999968
 31
0.0
1001
ACDBBLOCKREPETAG
1070
     1
1071
       29
1005
12A605
  0
LINE
  5
12A606
  8
OBJECT
 10
3597.0
 20
-3760.9999999999968
 30
0.0
 11
3597.0
 21
-3864.9999999999968
 31
0.0
1001
ACDBBLOCKREPETAG
1070
     1
1071
       30
1005
12A606
  0
LINE
  5
12A607
  8
OBJECT
 10
3597.0
 20
-3864.9999999999968
 30
0.0
 11
3640.0
 21
-3864.9999999999968
 31
0.0
1001
ACDBBLOCKREPETAG
1070
     1
1071
       31
1005
12A607
  0
LINE
  5
12A608
  8
OBJECT
 10
3593.0
 20
-3765.4999999999968
 30
0.0
 11
3584.5
 21
-3765.4999999999968
 31
0.0
1001
ACDBBLOCKREPETAG
1070
     1
1071
       32
1005
12A608
  0
LINE
  5
12A609
  8
OBJECT
 10
3584.5
 20
-3860.4999999999959
 30
0.0
 11
3593.0
 21
-3860.4999999999959
 31
0.0
1001
ACDBBLOCKREPETAG
1070
     1
1071
       33
1005
12A609
  0
LINE
  5
12A60A
  8
OBJECT
 10
3593.0
 20
-3860.4999999999959
 30
0.0
 11
3593.0
 21
-3765.4999999999968
 31
0.0
1001
ACDBBLOCKREPETAG
1070
     1
1071
       34
1005
12A60A
  0
LINE
  5
12A60B
  8
OBJECT
 10
3597.0
 20
-3760.9999999999968
 30
0.0
 11
3593.0
 21
-3765.4999999999968
 31
0.0
1001
ACDBBLOCKREPETAG
1070
     1
1071
       35
1005
12A60B
  0
LINE
  5
12A60C
  8
OBJECT
 10
3597.0
 20
-3864.9999999999968
 30
0.0
 11
3593.0
 21
-3860.4999999999959
 31
0.0
1001
ACDBBLOCKREPETAG
1070
     1
1071
       36
1005
12A60C
  0
LINE
  5
12A60D
  8
HIDDEN
 10
3588.0
 20
-3774.9999999999968
 30
0.0
 11
3588.0
 21
-3850.9999999999959
 31
0.0
1001
ACDBBLOCKREPETAG
1070
     1
1071
       37
1005
12A60D
  0
ARC
  5
12A60E
  8
OBJECT
 10
3664.8782728787742
 20
-3821.4095072612249
 30
0.0
 40
110.86635228309
 50
144.16342741928889
 51
163.04035380433169
1001
ACDBBLOCKREPETAG
1070
     1
1071
       38
1005
12A60E
  0
ARC
  5
12A60F
  8
OBJECT
 10
3617.1359887769072
 20
-3806.287749718445
 30
0.0
 40
60.791749880358971
 50
163.5472046522267
 51
179.72879698282679
1001
ACDBBLOCKREPETAG
1070
     1
1071
       39
1005
12A60F
  0
ARC
  5
12A610
  8
OBJECT
 10
3617.1359956562478
 20
-3812.7122497598971
 30
0.0
 40
60.79175676209487
 50
180.2712034781452
 51
196.4527794605338
1001
ACDBBLOCKREPETAG
1070
     1
1071
       40
1005
12A610
  0
ARC
  5
12A611
  8
OBJECT
 10
3664.8782728787742
 20
-3797.5904927388328
 30
0.0
 40
110.8663522830916
 50
196.95964619566811
 51
215.83657258071111
1001
ACDBBLOCKREPETAG
1070
     1
1071
       41
1005
12A611
  0
LINE
  5
12A612
  8
OBJECT
 10
3556.3449199130041
 20
-3806.0000000000332
 30
0.0
 11
3556.3449199130041
 21
-3813.0000000000291
 31
0.0
1001
ACDBBLOCKREPETAG
1070
     1
1071
       42
1005
12A612
  0
LINE
  5
12A613
  8
OBJECT
 10
3574.9999999999991
 20
-3756.5000000000618
 30
0.0
 11
3581.5
 21
-3756.5000000000618
 31
0.0
1001
ACDBBLOCKREPETAG
1070
     1
1071
       43
1005
12A613
  0
LINE
  5
12A614
  8
OBJECT
 10
3574.9999999999991
 20
-3862.4999999999968
 30
0.0
 11
3584.5
 21
-3862.4999999999968
 31
0.0
1001
ACDBBLOCKREPETAG
1070
     1
1071
       44
1005
12A614
  0
LINE
  5
12A615
  8
OBJECT
 10
3633.0
 20
-3404.9999999999959
 30
0.0
 11
3640.0
 21
-3404.9999999999959
 31
0.0
1001
ACDBBLOCKREPETAG
1070
     1
1071
       20
1005
12A615
  0
LINE
  5
12A616
  8
OBJECT
 10
3640.0
 20
-3404.9999999999959
 30
0.0
 11
3640.0
 21
-3514.9999999999968
 31
0.0
1001
ACDBBLOCKREPETAG
1070
     1
1071
       21
1005
12A616
  0
LINE
  5
12A617
  8
OBJECT
 10
3640.0
 20
-3514.9999999999968
 30
0.0
 11
3633.0
 21
-3514.9999999999968
 31
0.0
1001
ACDBBLOCKREPETAG
1070
     1
1071
       22
1005
12A617
  0
LINE
  5
12A618
  8
OBJECT
 10
3633.0
 20
-3514.9999999999968
 30
0.0
 11
3633.0
 21
-3404.9999999999959
 31
0.0
1001
ACDBBLOCKREPETAG
1070
     1
1071
       23
1005
12A618
  0
LINE
  5
12A619
  8
CENTER
 10
3655.0
 20
-3459.9999999999968
 30
0.0
 11
3580.0
 21
-3459.9999999999968
 31
0.0
1001
ACDBBLOCKREPETAG
1070
     1
1071
       24
1005
12A619
  0
LINE
  5
12A61A
  8
OBJECT
 10
3633.0
 20
-3407.9999999999959
 30
0.0
 11
3597.0
 21
-3407.9999999999959
 31
0.0
1001
ACDBBLOCKREPETAG
1070
     1
1071
       25
1005
12A61A
  0
LINE
  5
12A61B
  8
OBJECT
 10
3597.0
 20
-3407.9999999999959
 30
0.0
 11
3597.0
 21
-3511.9999999999959
 31
0.0
1001
ACDBBLOCKREPETAG
1070
     1
1071
       26
1005
12A61B
  0
LINE
  5
12A61C
  8
OBJECT
 10
3597.0
 20
-3511.9999999999959
 30
0.0
 11
3633.0
 21
-3511.9999999999959
 31
0.0
1001
ACDBBLOCKREPETAG
1070
     1
1071
       27
1005
12A61C
  0
LINE
  5
12A61D
  8
OBJECT
 10
3593.0
 20
-3412.4999999999959
 30
0.0
 11
3584.5
 21
-3412.4999999999959
 31
0.0
1001
ACDBBLOCKREPETAG
1070
     1
1071
       28
1005
12A61D
  0
LINE
  5
12A61E
  8
OBJECT
 10
3584.5
 20
-3507.4999999999968
 30
0.0
 11
3593.0
 21
-3507.4999999999968
 31
0.0
1001
ACDBBLOCKREPETAG
1070
     1
1071
       29
1005
12A61E
  0
LINE
  5
12A61F
  8
OBJECT
 10
3593.0
 20
-3507.4999999999968
 30
0.0
 11
3593.0
 21
-3412.4999999999959
 31
0.0
1001
ACDBBLOCKREPETAG
1070
     1
1071
       30
1005
12A61F
  0
LINE
  5
12A620
  8
OBJECT
 10
3597.0
 20
-3407.9999999999959
 30
0.0
 11
3593.0
 21
-3412.4999999999959
 31
0.0
1001
ACDBBLOCKREPETAG
1070
     1
1071
       31
1005
12A620
  0
LINE
  5
12A621
  8
OBJECT
 10
3597.0
 20
-3511.9999999999959
 30
0.0
 11
3593.0
 21
-3507.4999999999968
 31
0.0
1001
ACDBBLOCKREPETAG
1070
     1
1071
       32
1005
12A621
  0
LINE
  5
12A622
  8
OBJECT
 10
3584.4999999999982
 20
-3509.4999999999959
 30
0.0
 11
3584.5
 21
-3410.4999999999959
 31
0.0
1001
ACDBBLOCKREPETAG
1070
     1
1071
       33
1005
12A622
  0
LINE
  5
12A623
  8
HIDDEN
 10
3588.0
 20
-3421.9999999999968
 30
0.0
 11
3588.0
 21
-3497.9999999999959
 31
0.0
1001
ACDBBLOCKREPETAG
1070
     1
1071
       34
1005
12A623
  0
LINE
  5
12A624
  8
OBJECT
 10
3584.5
 20
-3410.4999999999959
 30
0.0
 11
3556.3449199129791
 21
-3410.4999999999959
 31
0.0
1001
ACDBBLOCKREPETAG
1070
     1
1071
       35
1005
12A624
  0
LINE
  5
12A625
  8
OBJECT
 10
3584.4999999999982
 20
-3509.4999999999959
 30
0.0
 11
3556.3449199129791
 21
-3509.4999999999959
 31
0.0
1001
ACDBBLOCKREPETAG
1070
     1
1071
       36
1005
12A625
  0
LINE
  5
12A626
  8
CENTER
 10
2838.0
 20
-3820.9999999999968
 30
0.0
 11
2962.0
 21
-3820.9999999999968
 31
0.0
1001
ACDBBLOCKREPETAG
1070
     1
1071
        0
1005
12A626
  0
CIRCLE
  5
12A627
  8
OBJECT
 10
2900.0
 20
-3820.9999999999968
 30
0.0
 40
28.0
1001
ACDBBLOCKREPETAG
1070
     1
1071
        2
1005
12A627
  0
CIRCLE
  5
12A628
  8
OBJECT
 10
2900.0
 20
-3820.9999999999968
 30
0.0
 40
39.0
1001
ACDBBLOCKREPETAG
1070
     1
1071
        3
1005
12A628
  0
ARC
  5
12A629
  8
OBJECT
 10
2900.0
 20
-3820.9999999999968
 30
0.0
 40
47.0
 50
290.58196921144412
 51
249.41803078855591
1001
ACDBBLOCKREPETAG
1070
     1
1071
        4
1005
12A629
  0
LINE
  5
12A62A
  8
OBJECT
 10
2883.4772883581418
 20
-3864.9999999999968
 30
0.0
 11
2916.5227116418569
 21
-3864.9999999999968
 31
0.0
1001
ACDBBLOCKREPETAG
1070
     1
1071
        5
1005
12A62A
  0
ARC
  5
12A62B
  8
OBJECT
 10
2900.0
 20
-3805.9999999999932
 30
0.0
 40
49.5
 50
0.0
 51
180.0
1001
ACDBBLOCKREPETAG
1070
     1
1071
        6
1005
12A62B
  0
LINE
  5
12A62C
  8
OBJECT
 10
2850.5000000000032
 20
-3805.9999999999932
 30
0.0
 11
2850.5000000000032
 21
-3812.9999999999968
 31
0.0
1001
ACDBBLOCKREPETAG
1070
     1
1071
        7
1005
12A62C
  0
LINE
  5
12A62D
  8
OBJECT
 10
2949.5000000000068
 20
-3805.9999999999932
 30
0.0
 11
2949.5000000000068
 21
-3812.9999999999968
 31
0.0
1001
ACDBBLOCKREPETAG
1070
     1
1071
        8
1005
12A62D
  0
ARC
  5
12A62E
  8
OBJECT
 10
2900.0
 20
-3812.9999999999968
 30
0.0
 40
49.5
 50
180.0
 51
202.66956385104879
1001
ACDBBLOCKREPETAG
1070
     1
1071
        9
1005
12A62E
  0
ARC
  5
12A62F
  8
OBJECT
 10
2900.0
 20
-3812.9999999999968
 30
0.0
 40
49.5
 50
337.33043614895121
 51
0.0
1001
ACDBBLOCKREPETAG
1070
     1
1071
       10
1005
12A62F
  0
POINT
  5
12A630
  8
DOTS
 10
2900.0
 20
-3864.9999999999968
 30
0.0
1001
ACDBBLOCKREPETAG
1070
     1
1071
       25
1005
12A630
  0
LINE
  5
12A631
  8
OBJECT
 10
2633.0
 20
-3773.9999999999968
 30
0.0
 11
2640.0
 21
-3773.9999999999968
 31
0.0
1001
ACDBBLOCKREPETAG
1070
     1
1071
        0
1005
12A631
  0
LINE
  5
12A632
  8
OBJECT
 10
2640.0
 20
-3773.9999999999968
 30
0.0
 11
2640.0
 21
-3864.9999999999968
 31
0.0
1001
ACDBBLOCKREPETAG
1070
     1
1071
        1
1005
12A632
  0
LINE
  5
12A633
  8
OBJECT
 10
2584.5
 20
-3759.5000000000618
 30
0.0
 11
2584.5
 21
-3862.4999999999968
 31
0.0
1001
ACDBBLOCKREPETAG
1070
     1
1071
        2
1005
12A633
  0
ARC
  5
12A634
  8
OBJECT
 10
2581.5
 20
-3759.5000000000618
 30
0.0
 40
3.0
 50
0.0
 51
90.0
1001
ACDBBLOCKREPETAG
1070
     1
1071
        3
1005
12A634
  0
LINE
  5
12A635
  8
OBJECT
 10
2633.0
 20
-3864.9999999999968
 30
0.0
 11
2633.0
 21
-3773.9999999999968
 31
0.0
1001
ACDBBLOCKREPETAG
1070
     1
1071
        4
1005
12A635
  0
LINE
  5
12A636
  8
CENTER
 10
2655.0
 20
-3820.9999999999968
 30
0.0
 11
2541.911823713584
 21
-3820.9999999999968
 31
0.0
1001
ACDBBLOCKREPETAG
1070
     1
1071
        5
1005
12A636
  0
LINE
  5
12A637
  8
OBJECT
 10
2633.0
 20
-3776.9999999999968
 30
0.0
 11
2596.9999999999991
 21
-3776.9999999999968
 31
0.0
1001
ACDBBLOCKREPETAG
1070
     1
1071
        6
1005
12A637
  0
LINE
  5
12A638
  8
OBJECT
 10
2596.9999999999991
 20
-3776.9999999999968
 30
0.0
 11
2596.9999999999991
 21
-3864.9999999999968
 31
0.0
1001
ACDBBLOCKREPETAG
1070
     1
1071
        7
1005
12A638
  0
LINE
  5
12A639
  8
OBJECT
 10
2596.9999999999991
 20
-3864.9999999999968
 30
0.0
 11
2640.0
 21
-3864.9999999999968
 31
0.0
1001
ACDBBLOCKREPETAG
1070
     1
1071
        8
1005
12A639
  0
LINE
  5
12A63A
  8
OBJECT
 10
2593.0
 20
-3781.4999999999959
 30
0.0
 11
2584.5
 21
-3781.4999999999959
 31
0.0
1001
ACDBBLOCKREPETAG
1070
     1
1071
        9
1005
12A63A
  0
LINE
  5
12A63B
  8
OBJECT
 10
2584.5
 20
-3860.4999999999959
 30
0.0
 11
2593.0
 21
-3860.4999999999959
 31
0.0
1001
ACDBBLOCKREPETAG
1070
     1
1071
       10
1005
12A63B
  0
LINE
  5
12A63C
  8
OBJECT
 10
2593.0
 20
-3860.4999999999959
 30
0.0
 11
2593.0
 21
-3781.4999999999959
 31
0.0
1001
ACDBBLOCKREPETAG
1070
     1
1071
       11
1005
12A63C
  0
LINE
  5
12A63D
  8
OBJECT
 10
2596.9999999999991
 20
-3776.9999999999968
 30
0.0
 11
2593.0
 21
-3781.4999999999959
 31
0.0
1001
ACDBBLOCKREPETAG
1070
     1
1071
       12
1005
12A63D
  0
LINE
  5
12A63E
  8
OBJECT
 10
2596.9999999999991
 20
-3864.9999999999968
 30
0.0
 11
2593.0
 21
-3860.4999999999959
 31
0.0
1001
ACDBBLOCKREPETAG
1070
     1
1071
       13
1005
12A63E
  0
LINE
  5
12A63F
  8
HIDDEN
 10
2588.0
 20
-3790.9999999999959
 30
0.0
 11
2588.0
 21
-3850.9999999999959
 31
0.0
1001
ACDBBLOCKREPETAG
1070
     1
1071
       14
1005
12A63F
  0
ARC
  5
12A640
  8
OBJECT
 10
2664.8782728787751
 20
-3821.4095072612249
 30
0.0
 40
110.86635228309
 50
144.1634274191434
 51
163.04035380433169
1001
ACDBBLOCKREPETAG
1070
     1
1071
       15
1005
12A640
  0
ARC
  5
12A641
  8
OBJECT
 10
2617.1359887769072
 20
-3806.287749718445
 30
0.0
 40
60.791749880358971
 50
163.5472046522267
 51
179.72879698282679
1001
ACDBBLOCKREPETAG
1070
     1
1071
       16
1005
12A641
  0
ARC
  5
12A642
  8
OBJECT
 10
2617.1359956562478
 20
-3812.7122497598971
 30
0.0
 40
60.79175676209487
 50
180.2712034781452
 51
196.4527794605338
1001
ACDBBLOCKREPETAG
1070
     1
1071
       17
1005
12A642
  0
ARC
  5
12A643
  8
OBJECT
 10
2664.8782728787751
 20
-3797.5904927388328
 30
0.0
 40
110.8663522830916
 50
196.95964619566811
 51
215.8365725808566
1001
ACDBBLOCKREPETAG
1070
     1
1071
       18
1005
12A643
  0
LINE
  5
12A644
  8
OBJECT
 10
2556.3449199130041
 20
-3806.0000000000332
 30
0.0
 11
2556.3449199130041
 21
-3813.0000000000291
 31
0.0
1001
ACDBBLOCKREPETAG
1070
     1
1071
       19
1005
12A644
  0
LINE
  5
12A645
  8
OBJECT
 10
2575.0
 20
-3756.5000000000618
 30
0.0
 11
2581.5
 21
-3756.5000000000618
 31
0.0
1001
ACDBBLOCKREPETAG
1070
     1
1071
       20
1005
12A645
  0
LINE
  5
12A646
  8
OBJECT
 10
2575.0
 20
-3862.4999999999968
 30
0.0
 11
2584.5
 21
-3862.4999999999968
 31
0.0
1001
ACDBBLOCKREPETAG
1070
     1
1071
       21
1005
12A646
  0
LINE
  5
12A647
  8
OBJECT
 10
2633.0
 20
-3412.9999999999968
 30
0.0
 11
2640.0
 21
-3412.9999999999968
 31
0.0
1001
ACDBBLOCKREPETAG
1070
     1
1071
        0
1005
12A647
  0
LINE
  5
12A648
  8
OBJECT
 10
2640.0
 20
-3412.9999999999968
 30
0.0
 11
2640.0
 21
-3506.9999999999968
 31
0.0
1001
ACDBBLOCKREPETAG
1070
     1
1071
        1
1005
12A648
  0
LINE
  5
12A649
  8
OBJECT
 10
2640.0
 20
-3506.9999999999968
 30
0.0
 11
2633.0
 21
-3506.9999999999968
 31
0.0
1001
ACDBBLOCKREPETAG
1070
     1
1071
        2
1005
12A649
  0
LINE
  5
12A64A
  8
OBJECT
 10
2633.0
 20
-3506.9999999999968
 30
0.0
 11
2633.0
 21
-3412.9999999999968
 31
0.0
1001
ACDBBLOCKREPETAG
1070
     1
1071
        3
1005
12A64A
  0
LINE
  5
12A64B
  8
CENTER
 10
2655.0
 20
-3459.9999999999968
 30
0.0
 11
2580.0
 21
-3459.9999999999968
 31
0.0
1001
ACDBBLOCKREPETAG
1070
     1
1071
        4
1005
12A64B
  0
LINE
  5
12A64C
  8
OBJECT
 10
2633.0
 20
-3415.9999999999959
 30
0.0
 11
2596.9999999999991
 21
-3415.9999999999959
 31
0.0
1001
ACDBBLOCKREPETAG
1070
     1
1071
        5
1005
12A64C
  0
LINE
  5
12A64D
  8
OBJECT
 10
2596.9999999999991
 20
-3415.9999999999959
 30
0.0
 11
2596.9999999999991
 21
-3503.9999999999959
 31
0.0
1001
ACDBBLOCKREPETAG
1070
     1
1071
        6
1005
12A64D
  0
LINE
  5
12A64E
  8
OBJECT
 10
2596.9999999999991
 20
-3503.9999999999959
 30
0.0
 11
2633.0
 21
-3503.9999999999959
 31
0.0
1001
ACDBBLOCKREPETAG
1070
     1
1071
        7
1005
12A64E
  0
LINE
  5
12A64F
  8
OBJECT
 10
2593.0
 20
-3420.4999999999959
 30
0.0
 11
2584.5
 21
-3420.4999999999959
 31
0.0
1001
ACDBBLOCKREPETAG
1070
     1
1071
        8
1005
12A64F
  0
LINE
  5
12A650
  8
OBJECT
 10
2584.5
 20
-3499.4999999999959
 30
0.0
 11
2593.0
 21
-3499.4999999999959
 31
0.0
1001
ACDBBLOCKREPETAG
1070
     1
1071
        9
1005
12A650
  0
LINE
  5
12A651
  8
OBJECT
 10
2593.0
 20
-3499.4999999999959
 30
0.0
 11
2593.0
 21
-3420.4999999999959
 31
0.0
1001
ACDBBLOCKREPETAG
1070
     1
1071
       10
1005
12A651
  0
LINE
  5
12A652
  8
OBJECT
 10
2596.9999999999991
 20
-3415.9999999999959
 30
0.0
 11
2593.0
 21
-3420.4999999999959
 31
0.0
1001
ACDBBLOCKREPETAG
1070
     1
1071
       11
1005
12A652
  0
LINE
  5
12A653
  8
OBJECT
 10
2596.9999999999991
 20
-3503.9999999999959
 30
0.0
 11
2593.0
 21
-3499.4999999999959
 31
0.0
1001
ACDBBLOCKREPETAG
1070
     1
1071
       12
1005
12A653
  0
LINE
  5
12A654
  8
OBJECT
 10
2584.4999999999991
 20
-3506.4999999999959
 30
0.0
 11
2584.5
 21
-3413.4999999999959
 31
0.0
1001
ACDBBLOCKREPETAG
1070
     1
1071
       13
1005
12A654
  0
ARC
  5
12A655
  8
OBJECT
 10
2581.5
 20
-3413.4999999999959
 30
0.0
 40
3.0
 50
0.0
 51
90.0
1001
ACDBBLOCKREPETAG
1070
     1
1071
       14
1005
12A655
  0
LINE
  5
12A656
  8
HIDDEN
 10
2588.0
 20
-3429.9999999999959
 30
0.0
 11
2588.0
 21
-3489.9999999999968
 31
0.0
1001
ACDBBLOCKREPETAG
1070
     1
1071
       15
1005
12A656
  0
LINE
  5
12A657
  8
OBJECT
 10
2581.5
 20
-3410.4999999999959
 30
0.0
 11
2556.3449199129791
 21
-3410.4999999999959
 31
0.0
1001
ACDBBLOCKREPETAG
1070
     1
1071
       17
1005
12A657
  0
LINE
  5
12A658
  8
OBJECT
 10
2581.4999999999991
 20
-3509.4999999999959
 30
0.0
 11
2556.3449199129791
 21
-3509.4999999999959
 31
0.0
1001
ACDBBLOCKREPETAG
1070
     1
1071
       18
1005
12A658
  0
ARC
  5
12A659
  8
OBJECT
 10
2581.4999999999991
 20
-3506.4999999999959
 30
0.0
 40
3.0
 50
270.0
 51
0.0
1001
ACDBBLOCKREPETAG
1070
     1
1071
       19
1005
12A659
  0
TEXT
  5
12A65A
  8
SLIM
 10
12034.5
 20
-1964.6666666666631
 30
0.0
 40
28.0
  1
※ 対応P寸法　　180＜190＞～300（10mm単位。＜＞内は下枝75の場合）
 41
0.75
  0
TEXT
  5
12A65B
  8
SLIM
 10
12033.304
 20
-2011.3333333333301
 30
0.0
 40
28.0
  1
※ 対応スラブ厚　150～（580-P）
 41
0.75
  0
TEXT
  5
12A65C
  8
SLIM
 10
12098.9
 20
-2104.6666666666638
 30
0.0
 40
28.0
  1
国土交通大臣認定・（一財）日本消防設備安全センター性能評定取得品
 41
0.75
  0
TEXT
  5
12A65D
  8
SLIM
 10
12131.1
 20
-2151.3333333333289
 30
0.0
 40
28.0
  1
注）ご採用にあたり、認定書及び評定書の内容をご確認ください。
 41
0.75
  0
TEXT
  5
12A65E
  8
SLIM
 10
10034.5
 20
-1964.6666666666631
 30
0.0
 40
28.0
  1
※ 対応P寸法　　180＜190＞～300（10mm単位。＜＞内は下枝75の場合）
 41
0.75
  0
TEXT
  5
12A65F
  8
SLIM
 10
10033.304
 20
-2011.3333333333301
 30
0.0
 40
28.0
  1
※ 対応スラブ厚　180～（580-P）
 41
0.75
  0
TEXT
  5
12A660
  8
SLIM
 10
10098.9
 20
-2104.6666666666638
 30
0.0
 40
28.0
  1
国土交通大臣認定・（一財）日本消防設備安全センター性能評定取得品
 41
0.75
  0
TEXT
  5
12A661
  8
SLIM
 10
10131.1
 20
-2151.3333333333289
 30
0.0
 40
28.0
  1
注）ご採用にあたり、認定書及び評定書の内容をご確認ください。
 41
0.75
  0
TEXT
  5
12A662
  8
SLIM
 10
6028.9000000000005
 20
-2016.3333600000001
 30
0.0
 40
28.0
  1
 ※ 対応P寸法　　180＜190＞～330（10mm単位。＜＞内は下枝75の場合）
 41
0.75
  0
TEXT
  5
12A663
  8
SLIM
 10
6035.8040000000001
 20
-2063.0000266666671
 30
0.0
 40
28.0
  1
※ 対応スラブ厚　150mm以上
 41
0.75
  0
TEXT
  5
12A664
  8
SLIM
 10
6098.8999999999996
 20
-2134.9999733333329
 30
0.0
 40
28.0
  1
国土交通大臣認定・（一財）日本消防設備安全センター性能評定取得品
 41
0.75
  0
TEXT
  5
12A665
  8
SLIM
 10
6131.1000000000004
 20
-2181.666639999999
 30
0.0
 40
28.0
  1
注）ご採用にあたり、認定書及び評定書の内容をご確認ください。
 41
0.75
  0
TEXT
  5
12A666
  8
SLIM
 10
4034.5
 20
-1982.9999999999959
 30
0.0
 40
28.0
  1
※ 対応P寸法　　180＜190＞～330（10mm単位。＜＞内は下枝75の場合）
 41
0.75
  0
TEXT
  5
12A667
  8
SLIM
 10
2034.5
 20
-1708.999999999998
 30
0.0
 40
28.0
  1
※ 対応P寸法　　180＜190＞～330（10mm単位。＜＞内は下枝75の場合）
 41
0.75
  0
TEXT
  5
12A668
  8
SLIM
 10
8180.5
 20
-1703.000026666665
 30
0.0
 40
28.0
  1
※ 対応P寸法　　180＜190＞～300（10mm単位）
 41
0.75
  0
TEXT
  5
12A669
  8
SLIM
 10
8176.0998000000018
 20
-1749.666693333332
 30
0.0
 40
28.0
  1
※ 対応スラブ厚　180｛150｝～（540-P）
 41
0.75
  0
TEXT
  5
12A66A
  8
SLIM
 10
8211.8999999999978
 20
-1796.3333599999989
 30
0.0
 40
28.0
  1
＜＞内は下枝75、｛｝内はカンペイ立て管との組み合わせの場合
 41
0.75
  0
TEXT
  5
12A66B
  8
SLIM
 10
8098.8999999999978
 20
-1868.3333066666651
 30
0.0
 40
28.0
  1
国土交通大臣認定・（一財）日本消防設備安全センター性能評定取得品
 41
0.75
  0
TEXT
  5
12A66C
  8
SLIM
 10
8131.1000000000013
 20
-1914.999973333332
 30
0.0
 40
28.0
  1
注）ご採用にあたり、認定書及び評定書の内容をご確認ください。
 41
0.75
  0
LINE
  5
12A66D
  8
OBJECT
 10
12423.0
 20
-570.99999999999432
 30
0.0
 11
12423.0
 21
-549.99999999999432
 31
0.0
1001
ACDBBLOCKREPETAG
1070
     1
1071
        0
1005
12A66D
  0
LINE
  5
12A66E
  8
OBJECT
 10
12423.0
 20
-549.99999999999432
 30
0.0
 11
12577.0
 21
-549.99999999999432
 31
0.0
1001
ACDBBLOCKREPETAG
1070
     1
1071
        1
1005
12A66E
  0
LINE
  5
12A66F
  8
HIDDEN
 10
12443.0
 20
-619.99999999999432
 30
0.0
 11
12557.0
 21
-619.99999999999432
 31
0.0
1001
ACDBBLOCKREPETAG
1070
     1
1071
        2
1005
12A66F
  0
LINE
  5
12A670
  8
OBJECT
 10
12577.0
 20
-549.99999999999432
 30
0.0
 11
12577.0
 21
-570.99999999999432
 31
0.0
1001
ACDBBLOCKREPETAG
1070
     1
1071
        3
1005
12A670
  0
LINE
  5
12A671
  8
OBJECT
 10
12577.0
 20
-570.99999999999432
 30
0.0
 11
12423.0
 21
-570.99999999999432
 31
0.0
1001
ACDBBLOCKREPETAG
1070
     1
1071
        4
1005
12A671
  0
LINE
  5
12A672
  8
CENTER
 10
12500.0
 20
-534.99999999999432
 30
0.0
 11
12500.0
 21
-769.9999999999942
 31
0.0
1001
ACDBBLOCKREPETAG
1070
     1
1071
        5
1005
12A672
  0
LINE
  5
12A673
  8
OBJECT
 10
12425.0
 20
-633.99999999999432
 30
0.0
 11
12425.0
 21
-757.9999999999942
 31
0.0
1001
ACDBBLOCKREPETAG
1070
     1
1071
        6
1005
12A673
  0
LINE
  5
12A674
  8
OBJECT
 10
12428.0
 20
-570.99999999999432
 30
0.0
 11
12428.0
 21
-633.99999999999432
 31
0.0
1001
ACDBBLOCKREPETAG
1070
     1
1071
        7
1005
12A674
  0
LINE
  5
12A675
  8
OBJECT
 10
12572.0
 20
-633.99999999999432
 30
0.0
 11
12572.0
 21
-570.99999999999432
 31
0.0
1001
ACDBBLOCKREPETAG
1070
     1
1071
        8
1005
12A675
  0
LINE
  5
12A676
  8
OBJECT
 10
12420.0
 20
-757.9999999999942
 30
0.0
 11
12580.0
 21
-757.9999999999942
 31
0.0
1001
ACDBBLOCKREPETAG
1070
     1
1071
        9
1005
12A676
  0
LINE
  5
12A677
  8
OBJECT
 10
12580.0
 20
-633.99999999999432
 30
0.0
 11
12425.0
 21
-633.99999999999432
 31
0.0
1001
ACDBBLOCKREPETAG
1070
     1
1071
       10
1005
12A677
  0
LINE
  5
12A678
  8
OBJECT
 10
12420.0
 20
-757.9999999999942
 30
0.0
 11
12420.0
 21
-769.9999999999942
 31
0.0
1001
ACDBBLOCKREPETAG
1070
     1
1071
       11
1005
12A678
  0
LINE
  5
12A679
  8
OBJECT
 10
12420.0
 20
-769.9999999999942
 30
0.0
 11
12580.0
 21
-769.9999999999942
 31
0.0
1001
ACDBBLOCKREPETAG
1070
     1
1071
       12
1005
12A679
  0
LINE
  5
12A67A
  8
OBJECT
 10
12580.0
 20
-769.9999999999942
 30
0.0
 11
12580.0
 21
-757.9999999999942
 31
0.0
1001
ACDBBLOCKREPETAG
1070
     1
1071
       13
1005
12A67A
  0
ARC
  5
12A67B
  8
OBJECT
 10
12700.687274671671
 20
-749.40809941010195
 30
0.0
 40
170.6350503965856
 50
137.44134459184301
 51
149.91949581337221
1001
ACDBBLOCKREPETAG
1070
     1
1071
       15
1005
12A67B
  0
ARC
  5
12A67C
  8
OBJECT
 10
12618.845598704051
 20
-705.88272669535922
 30
0.0
 40
78.072222021763665
 50
147.45515310379639
 51
164.6636599771729
1001
ACDBBLOCKREPETAG
1070
     1
1071
       16
1005
12A67C
  0
ARC
  5
12A67D
  8
OBJECT
 10
12585.755434960871
 20
-695.99999999999432
 30
0.0
 40
43.55353926885617
 50
165.6884523008477
 51
194.3115476991523
1001
ACDBBLOCKREPETAG
1070
     1
1071
       17
1005
12A67D
  0
ARC
  5
12A67E
  8
OBJECT
 10
12700.687274671671
 20
-642.59190058988645
 30
0.0
 40
170.6350503965856
 50
210.08050418662771
 51
222.55865540815699
1001
ACDBBLOCKREPETAG
1070
     1
1071
       18
1005
12A67E
  0
ARC
  5
12A67F
  8
OBJECT
 10
12618.845598704051
 20
-686.11727330462952
 30
0.0
 40
78.072222021763665
 50
195.3363400228271
 51
212.54484689620361
1001
ACDBBLOCKREPETAG
1070
     1
1071
       19
1005
12A67F
  0
LINE
  5
12A680
  8
OBJECT
 10
10423.0
 20
-570.99999999999432
 30
0.0
 11
10423.0
 21
-549.99999999999432
 31
0.0
1001
ACDBBLOCKREPETAG
1070
     1
1071
        0
1005
12A680
  0
LINE
  5
12A681
  8
OBJECT
 10
10423.0
 20
-549.99999999999432
 30
0.0
 11
10577.0
 21
-549.99999999999432
 31
0.0
1001
ACDBBLOCKREPETAG
1070
     1
1071
        1
1005
12A681
  0
LINE
  5
12A682
  8
HIDDEN
 10
10443.0
 20
-619.99999999999432
 30
0.0
 11
10557.0
 21
-619.99999999999432
 31
0.0
1001
ACDBBLOCKREPETAG
1070
     1
1071
        2
1005
12A682
  0
LINE
  5
12A683
  8
OBJECT
 10
10577.0
 20
-549.99999999999432
 30
0.0
 11
10577.0
 21
-570.99999999999432
 31
0.0
1001
ACDBBLOCKREPETAG
1070
     1
1071
        3
1005
12A683
  0
LINE
  5
12A684
  8
OBJECT
 10
10577.0
 20
-570.99999999999432
 30
0.0
 11
10423.0
 21
-570.99999999999432
 31
0.0
1001
ACDBBLOCKREPETAG
1070
     1
1071
        4
1005
12A684
  0
LINE
  5
12A685
  8
CENTER
 10
10500.0
 20
-534.99999999999432
 30
0.0
 11
10500.0
 21
-769.9999999999942
 31
0.0
1001
ACDBBLOCKREPETAG
1070
     1
1071
        5
1005
12A685
  0
LINE
  5
12A686
  8
OBJECT
 10
10425.0
 20
-633.99999999999432
 30
0.0
 11
10425.0
 21
-757.9999999999942
 31
0.0
1001
ACDBBLOCKREPETAG
1070
     1
1071
        6
1005
12A686
  0
LINE
  5
12A687
  8
OBJECT
 10
10428.0
 20
-570.99999999999432
 30
0.0
 11
10428.0
 21
-633.99999999999432
 31
0.0
1001
ACDBBLOCKREPETAG
1070
     1
1071
        7
1005
12A687
  0
LINE
  5
12A688
  8
OBJECT
 10
10572.0
 20
-633.99999999999432
 30
0.0
 11
10572.0
 21
-570.99999999999432
 31
0.0
1001
ACDBBLOCKREPETAG
1070
     1
1071
        8
1005
12A688
  0
LINE
  5
12A689
  8
OBJECT
 10
10420.0
 20
-757.9999999999942
 30
0.0
 11
10580.0
 21
-757.9999999999942
 31
0.0
1001
ACDBBLOCKREPETAG
1070
     1
1071
        9
1005
12A689
  0
LINE
  5
12A68A
  8
OBJECT
 10
10580.0
 20
-633.99999999999432
 30
0.0
 11
10425.0
 21
-633.99999999999432
 31
0.0
1001
ACDBBLOCKREPETAG
1070
     1
1071
       10
1005
12A68A
  0
LINE
  5
12A68B
  8
OBJECT
 10
10420.0
 20
-757.9999999999942
 30
0.0
 11
10420.0
 21
-769.9999999999942
 31
0.0
1001
ACDBBLOCKREPETAG
1070
     1
1071
       11
1005
12A68B
  0
LINE
  5
12A68C
  8
OBJECT
 10
10420.0
 20
-769.9999999999942
 30
0.0
 11
10580.0
 21
-769.9999999999942
 31
0.0
1001
ACDBBLOCKREPETAG
1070
     1
1071
       12
1005
12A68C
  0
LINE
  5
12A68D
  8
OBJECT
 10
10580.0
 20
-769.9999999999942
 30
0.0
 11
10580.0
 21
-757.9999999999942
 31
0.0
1001
ACDBBLOCKREPETAG
1070
     1
1071
       13
1005
12A68D
  0
ARC
  5
12A68E
  8
OBJECT
 10
10700.687274671671
 20
-749.40809941010195
 30
0.0
 40
170.6350503965856
 50
137.44134459184301
 51
149.91949581337221
1001
ACDBBLOCKREPETAG
1070
     1
1071
       15
1005
12A68E
  0
ARC
  5
12A68F
  8
OBJECT
 10
10618.845598704051
 20
-705.88272669535922
 30
0.0
 40
78.072222021763665
 50
147.45515310379639
 51
164.6636599771729
1001
ACDBBLOCKREPETAG
1070
     1
1071
       16
1005
12A68F
  0
ARC
  5
12A690
  8
OBJECT
 10
10585.755434960871
 20
-695.99999999999432
 30
0.0
 40
43.55353926885617
 50
165.6884523008477
 51
194.3115476991523
1001
ACDBBLOCKREPETAG
1070
     1
1071
       17
1005
12A690
  0
ARC
  5
12A691
  8
OBJECT
 10
10700.687274671671
 20
-642.59190058988645
 30
0.0
 40
170.6350503965856
 50
210.08050418662771
 51
222.55865540815699
1001
ACDBBLOCKREPETAG
1070
     1
1071
       18
1005
12A691
  0
ARC
  5
12A692
  8
OBJECT
 10
10618.845598704051
 20
-686.11727330462952
 30
0.0
 40
78.072222021763665
 50
195.3363400228271
 51
212.54484689620361
1001
ACDBBLOCKREPETAG
1070
     1
1071
       19
1005
12A692
  0
LINE
  5
12A693
  8
OBJECT
 10
8423.0
 20
-570.99999999999432
 30
0.0
 11
8423.0
 21
-549.99999999999432
 31
0.0
1001
ACDBBLOCKREPETAG
1070
     1
1071
        0
1005
12A693
  0
LINE
  5
12A694
  8
OBJECT
 10
8423.0
 20
-549.99999999999432
 30
0.0
 11
8577.0
 21
-549.99999999999432
 31
0.0
1001
ACDBBLOCKREPETAG
1070
     1
1071
        1
1005
12A694
  0
LINE
  5
12A695
  8
HIDDEN
 10
8443.0
 20
-619.99999999999432
 30
0.0
 11
8557.0
 21
-619.99999999999432
 31
0.0
1001
ACDBBLOCKREPETAG
1070
     1
1071
        2
1005
12A695
  0
LINE
  5
12A696
  8
OBJECT
 10
8577.0
 20
-549.99999999999432
 30
0.0
 11
8577.0
 21
-570.99999999999432
 31
0.0
1001
ACDBBLOCKREPETAG
1070
     1
1071
        3
1005
12A696
  0
LINE
  5
12A697
  8
OBJECT
 10
8577.0
 20
-570.99999999999432
 30
0.0
 11
8423.0
 21
-570.99999999999432
 31
0.0
1001
ACDBBLOCKREPETAG
1070
     1
1071
        4
1005
12A697
  0
LINE
  5
12A698
  8
CENTER
 10
8500.0
 20
-534.99999999999432
 30
0.0
 11
8500.0
 21
-769.9999999999942
 31
0.0
1001
ACDBBLOCKREPETAG
1070
     1
1071
        5
1005
12A698
  0
LINE
  5
12A699
  8
OBJECT
 10
8425.0
 20
-633.99999999999432
 30
0.0
 11
8425.0
 21
-757.9999999999942
 31
0.0
1001
ACDBBLOCKREPETAG
1070
     1
1071
        6
1005
12A699
  0
LINE
  5
12A69A
  8
OBJECT
 10
8428.0
 20
-570.99999999999432
 30
0.0
 11
8428.0
 21
-633.99999999999432
 31
0.0
1001
ACDBBLOCKREPETAG
1070
     1
1071
        7
1005
12A69A
  0
LINE
  5
12A69B
  8
OBJECT
 10
8572.0
 20
-633.99999999999432
 30
0.0
 11
8572.0
 21
-570.99999999999432
 31
0.0
1001
ACDBBLOCKREPETAG
1070
     1
1071
        8
1005
12A69B
  0
LINE
  5
12A69C
  8
OBJECT
 10
8420.0
 20
-757.9999999999942
 30
0.0
 11
8580.0
 21
-757.9999999999942
 31
0.0
1001
ACDBBLOCKREPETAG
1070
     1
1071
        9
1005
12A69C
  0
LINE
  5
12A69D
  8
OBJECT
 10
8580.0
 20
-633.99999999999432
 30
0.0
 11
8425.0
 21
-633.99999999999432
 31
0.0
1001
ACDBBLOCKREPETAG
1070
     1
1071
       10
1005
12A69D
  0
LINE
  5
12A69E
  8
OBJECT
 10
8420.0
 20
-757.9999999999942
 30
0.0
 11
8420.0
 21
-769.9999999999942
 31
0.0
1001
ACDBBLOCKREPETAG
1070
     1
1071
       11
1005
12A69E
  0
LINE
  5
12A69F
  8
OBJECT
 10
8420.0
 20
-769.9999999999942
 30
0.0
 11
8580.0
 21
-769.9999999999942
 31
0.0
1001
ACDBBLOCKREPETAG
1070
     1
1071
       12
1005
12A69F
  0
LINE
  5
12A6A0
  8
OBJECT
 10
8580.0
 20
-769.9999999999942
 30
0.0
 11
8580.0
 21
-757.9999999999942
 31
0.0
1001
ACDBBLOCKREPETAG
1070
     1
1071
       13
1005
12A6A0
  0
ARC
  5
12A6A1
  8
OBJECT
 10
8700.6872746716726
 20
-749.40809941010195
 30
0.0
 40
170.6350503965856
 50
137.44134459184301
 51
149.91949581337221
1001
ACDBBLOCKREPETAG
1070
     1
1071
       15
1005
12A6A1
  0
ARC
  5
12A6A2
  8
OBJECT
 10
8618.8455987040506
 20
-705.88272669535922
 30
0.0
 40
78.072222021763665
 50
147.45515310379639
 51
164.6636599771729
1001
ACDBBLOCKREPETAG
1070
     1
1071
       16
1005
12A6A2
  0
ARC
  5
12A6A3
  8
OBJECT
 10
8585.7554349608708
 20
-695.99999999999432
 30
0.0
 40
43.55353926885617
 50
165.6884523008477
 51
194.3115476991523
1001
ACDBBLOCKREPETAG
1070
     1
1071
       17
1005
12A6A3
  0
ARC
  5
12A6A4
  8
OBJECT
 10
8700.6872746716726
 20
-642.59190058988645
 30
0.0
 40
170.6350503965856
 50
210.08050418662771
 51
222.55865540815699
1001
ACDBBLOCKREPETAG
1070
     1
1071
       18
1005
12A6A4
  0
ARC
  5
12A6A5
  8
OBJECT
 10
8618.8455987040506
 20
-686.11727330462952
 30
0.0
 40
78.072222021763665
 50
195.3363400228271
 51
212.54484689620361
1001
ACDBBLOCKREPETAG
1070
     1
1071
       19
1005
12A6A5
  0
LINE
  5
12A6A6
  8
OBJECT
 10
6423.0
 20
-570.99999999999432
 30
0.0
 11
6423.0
 21
-549.99999999999432
 31
0.0
1001
ACDBBLOCKREPETAG
1070
     1
1071
        0
1005
12A6A6
  0
LINE
  5
12A6A7
  8
OBJECT
 10
6423.0
 20
-549.99999999999432
 30
0.0
 11
6577.0
 21
-549.99999999999432
 31
0.0
1001
ACDBBLOCKREPETAG
1070
     1
1071
        1
1005
12A6A7
  0
LINE
  5
12A6A8
  8
HIDDEN
 10
6443.0
 20
-619.99999999999432
 30
0.0
 11
6557.0
 21
-619.99999999999432
 31
0.0
1001
ACDBBLOCKREPETAG
1070
     1
1071
        2
1005
12A6A8
  0
LINE
  5
12A6A9
  8
OBJECT
 10
6577.0
 20
-549.99999999999432
 30
0.0
 11
6577.0
 21
-570.99999999999432
 31
0.0
1001
ACDBBLOCKREPETAG
1070
     1
1071
        3
1005
12A6A9
  0
LINE
  5
12A6AA
  8
OBJECT
 10
6577.0
 20
-570.99999999999432
 30
0.0
 11
6423.0
 21
-570.99999999999432
 31
0.0
1001
ACDBBLOCKREPETAG
1070
     1
1071
        4
1005
12A6AA
  0
LINE
  5
12A6AB
  8
CENTER
 10
6500.0
 20
-534.99999999999432
 30
0.0
 11
6500.0
 21
-769.9999999999942
 31
0.0
1001
ACDBBLOCKREPETAG
1070
     1
1071
        5
1005
12A6AB
  0
LINE
  5
12A6AC
  8
OBJECT
 10
6425.0
 20
-633.99999999999432
 30
0.0
 11
6425.0
 21
-757.9999999999942
 31
0.0
1001
ACDBBLOCKREPETAG
1070
     1
1071
        6
1005
12A6AC
  0
LINE
  5
12A6AD
  8
OBJECT
 10
6428.0
 20
-570.99999999999432
 30
0.0
 11
6428.0
 21
-633.99999999999432
 31
0.0
1001
ACDBBLOCKREPETAG
1070
     1
1071
        7
1005
12A6AD
  0
LINE
  5
12A6AE
  8
OBJECT
 10
6572.0
 20
-633.99999999999432
 30
0.0
 11
6572.0
 21
-570.99999999999432
 31
0.0
1001
ACDBBLOCKREPETAG
1070
     1
1071
        8
1005
12A6AE
  0
LINE
  5
12A6AF
  8
OBJECT
 10
6420.0
 20
-757.9999999999942
 30
0.0
 11
6580.0
 21
-757.9999999999942
 31
0.0
1001
ACDBBLOCKREPETAG
1070
     1
1071
        9
1005
12A6AF
  0
LINE
  5
12A6B0
  8
OBJECT
 10
6580.0
 20
-633.99999999999432
 30
0.0
 11
6425.0
 21
-633.99999999999432
 31
0.0
1001
ACDBBLOCKREPETAG
1070
     1
1071
       10
1005
12A6B0
  0
LINE
  5
12A6B1
  8
OBJECT
 10
6420.0
 20
-757.9999999999942
 30
0.0
 11
6420.0
 21
-769.9999999999942
 31
0.0
1001
ACDBBLOCKREPETAG
1070
     1
1071
       11
1005
12A6B1
  0
LINE
  5
12A6B2
  8
OBJECT
 10
6420.0
 20
-769.9999999999942
 30
0.0
 11
6580.0
 21
-769.9999999999942
 31
0.0
1001
ACDBBLOCKREPETAG
1070
     1
1071
       12
1005
12A6B2
  0
LINE
  5
12A6B3
  8
OBJECT
 10
6580.0
 20
-769.9999999999942
 30
0.0
 11
6580.0
 21
-757.9999999999942
 31
0.0
1001
ACDBBLOCKREPETAG
1070
     1
1071
       13
1005
12A6B3
  0
ARC
  5
12A6B4
  8
OBJECT
 10
6700.6872746716717
 20
-749.40809941010195
 30
0.0
 40
170.6350503965856
 50
137.44134459184301
 51
149.91949581337221
1001
ACDBBLOCKREPETAG
1070
     1
1071
       15
1005
12A6B4
  0
ARC
  5
12A6B5
  8
OBJECT
 10
6618.8455987040506
 20
-705.88272669535922
 30
0.0
 40
78.072222021763665
 50
147.4551531037684
 51
164.66365997718671
1001
ACDBBLOCKREPETAG
1070
     1
1071
       16
1005
12A6B5
  0
ARC
  5
12A6B6
  8
OBJECT
 10
6585.7554349608727
 20
-695.99999999999432
 30
0.0
 40
43.55353926885617
 50
165.6884523008477
 51
194.3115476991523
1001
ACDBBLOCKREPETAG
1070
     1
1071
       17
1005
12A6B6
  0
ARC
  5
12A6B7
  8
OBJECT
 10
6700.6872746716717
 20
-642.59190058988645
 30
0.0
 40
170.6350503965856
 50
210.08050418662771
 51
222.55865540815699
1001
ACDBBLOCKREPETAG
1070
     1
1071
       18
1005
12A6B7
  0
ARC
  5
12A6B8
  8
OBJECT
 10
6618.8455987040506
 20
-686.11727330462952
 30
0.0
 40
78.072222021763665
 50
195.3363400228132
 51
212.5448468962316
1001
ACDBBLOCKREPETAG
1070
     1
1071
       19
1005
12A6B8
  0
LINE
  5
12A6B9
  8
OBJECT
 10
4423.0
 20
-570.99999999999432
 30
0.0
 11
4423.0
 21
-549.99999999999432
 31
0.0
1001
ACDBBLOCKREPETAG
1070
     1
1071
        0
1005
12A6B9
  0
LINE
  5
12A6BA
  8
OBJECT
 10
4423.0
 20
-549.99999999999432
 30
0.0
 11
4577.0
 21
-549.99999999999432
 31
0.0
1001
ACDBBLOCKREPETAG
1070
     1
1071
        1
1005
12A6BA
  0
LINE
  5
12A6BB
  8
HIDDEN
 10
4443.0
 20
-619.99999999999432
 30
0.0
 11
4557.0
 21
-619.99999999999432
 31
0.0
1001
ACDBBLOCKREPETAG
1070
     1
1071
        2
1005
12A6BB
  0
LINE
  5
12A6BC
  8
OBJECT
 10
4577.0
 20
-549.99999999999432
 30
0.0
 11
4577.0
 21
-570.99999999999432
 31
0.0
1001
ACDBBLOCKREPETAG
1070
     1
1071
        3
1005
12A6BC
  0
LINE
  5
12A6BD
  8
OBJECT
 10
4577.0
 20
-570.99999999999432
 30
0.0
 11
4423.0
 21
-570.99999999999432
 31
0.0
1001
ACDBBLOCKREPETAG
1070
     1
1071
        4
1005
12A6BD
  0
LINE
  5
12A6BE
  8
CENTER
 10
4500.0
 20
-534.99999999999432
 30
0.0
 11
4500.0
 21
-769.9999999999942
 31
0.0
1001
ACDBBLOCKREPETAG
1070
     1
1071
        5
1005
12A6BE
  0
LINE
  5
12A6BF
  8
OBJECT
 10
4425.0
 20
-633.99999999999432
 30
0.0
 11
4425.0
 21
-757.9999999999942
 31
0.0
1001
ACDBBLOCKREPETAG
1070
     1
1071
        6
1005
12A6BF
  0
LINE
  5
12A6C0
  8
OBJECT
 10
4428.0
 20
-570.99999999999432
 30
0.0
 11
4428.0
 21
-633.99999999999432
 31
0.0
1001
ACDBBLOCKREPETAG
1070
     1
1071
        7
1005
12A6C0
  0
LINE
  5
12A6C1
  8
OBJECT
 10
4572.0
 20
-633.99999999999432
 30
0.0
 11
4572.0
 21
-570.99999999999432
 31
0.0
1001
ACDBBLOCKREPETAG
1070
     1
1071
        8
1005
12A6C1
  0
LINE
  5
12A6C2
  8
OBJECT
 10
4420.0
 20
-757.9999999999942
 30
0.0
 11
4580.0
 21
-757.9999999999942
 31
0.0
1001
ACDBBLOCKREPETAG
1070
     1
1071
        9
1005
12A6C2
  0
LINE
  5
12A6C3
  8
OBJECT
 10
4580.0
 20
-633.99999999999432
 30
0.0
 11
4425.0
 21
-633.99999999999432
 31
0.0
1001
ACDBBLOCKREPETAG
1070
     1
1071
       10
1005
12A6C3
  0
LINE
  5
12A6C4
  8
OBJECT
 10
4420.0
 20
-757.9999999999942
 30
0.0
 11
4420.0
 21
-769.9999999999942
 31
0.0
1001
ACDBBLOCKREPETAG
1070
     1
1071
       11
1005
12A6C4
  0
LINE
  5
12A6C5
  8
OBJECT
 10
4420.0
 20
-769.9999999999942
 30
0.0
 11
4580.0
 21
-769.9999999999942
 31
0.0
1001
ACDBBLOCKREPETAG
1070
     1
1071
       12
1005
12A6C5
  0
LINE
  5
12A6C6
  8
OBJECT
 10
4580.0
 20
-769.9999999999942
 30
0.0
 11
4580.0
 21
-757.9999999999942
 31
0.0
1001
ACDBBLOCKREPETAG
1070
     1
1071
       13
1005
12A6C6
  0
ARC
  5
12A6C7
  8
OBJECT
 10
4700.6872746716726
 20
-749.40809941010195
 30
0.0
 40
170.6350503965856
 50
137.44134459184301
 51
149.91949581337221
1001
ACDBBLOCKREPETAG
1070
     1
1071
       15
1005
12A6C7
  0
ARC
  5
12A6C8
  8
OBJECT
 10
4618.8455987040506
 20
-705.88272669535922
 30
0.0
 40
78.072222021763665
 50
147.4551531037684
 51
164.66365997718671
1001
ACDBBLOCKREPETAG
1070
     1
1071
       16
1005
12A6C8
  0
ARC
  5
12A6C9
  8
OBJECT
 10
4585.7554349608718
 20
-695.99999999999432
 30
0.0
 40
43.55353926885617
 50
165.6884523008477
 51
194.3115476991523
1001
ACDBBLOCKREPETAG
1070
     1
1071
       17
1005
12A6C9
  0
ARC
  5
12A6CA
  8
OBJECT
 10
4700.6872746716726
 20
-642.59190058988645
 30
0.0
 40
170.6350503965856
 50
210.08050418662771
 51
222.55865540815699
1001
ACDBBLOCKREPETAG
1070
     1
1071
       18
1005
12A6CA
  0
ARC
  5
12A6CB
  8
OBJECT
 10
4618.8455987040506
 20
-686.11727330462952
 30
0.0
 40
78.072222021763665
 50
195.3363400228132
 51
212.5448468962316
1001
ACDBBLOCKREPETAG
1070
     1
1071
       19
1005
12A6CB
  0
LINE
  5
12A6CC
  8
SLIM
 10
10414.999999999991
 20
-1014.276414305039
 30
0.0
 11
10418.27641430503
 21
-1011.0
 31
0.0
1001
GRADIENTCOLOR1ACI
1070
     5
1001
GRADIENTCOLOR2ACI
1070
     2
1001
ACAD
1010
0.0
1020
0.0
1030
0.0
  0
LINE
  5
12A6CD
  8
SLIM
 10
10414.999999999991
 20
-1032.2369265471759
 30
0.0
 11
10436.23692654717
 21
-1011.0
 31
0.0
1001
GRADIENTCOLOR1ACI
1070
     5
1001
GRADIENTCOLOR2ACI
1070
     2
1001
ACAD
1010
0.0
1020
0.0
1030
0.0
  0
LINE
  5
12A6CE
  8
SLIM
 10
10414.999999999991
 20
-1050.197438789314
 30
0.0
 11
10454.197438789301
 21
-1011.0
 31
0.0
1001
GRADIENTCOLOR1ACI
1070
     5
1001
GRADIENTCOLOR2ACI
1070
     2
1001
ACAD
1010
0.0
1020
0.0
1030
0.0
  0
LINE
  5
12A6CF
  8
SLIM
 10
10414.999999999991
 20
-1068.15795103145
 30
0.0
 11
10472.15795103144
 21
-1011.0
 31
0.0
1001
GRADIENTCOLOR1ACI
1070
     5
1001
GRADIENTCOLOR2ACI
1070
     2
1001
ACAD
1010
0.0
1020
0.0
1030
0.0
  0
LINE
  5
12A6D0
  8
SLIM
 10
10414.999999999991
 20
-1086.1184632735881
 30
0.0
 11
10490.11846327358
 21
-1011.0
 31
0.0
1001
GRADIENTCOLOR1ACI
1070
     5
1001
GRADIENTCOLOR2ACI
1070
     2
1001
ACAD
1010
0.0
1020
0.0
1030
0.0
  0
LINE
  5
12A6D1
  8
SLIM
 10
10415.0
 20
-1104.0789755157259
 30
0.0
 11
10508.07897551572
 21
-1011.0
 31
0.0
1001
GRADIENTCOLOR1ACI
1070
     5
1001
GRADIENTCOLOR2ACI
1070
     2
1001
ACAD
1010
0.0
1020
0.0
1030
0.0
  0
LINE
  5
12A6D2
  8
SLIM
 10
10415.0
 20
-1122.0394877578631
 30
0.0
 11
10526.03948775786
 21
-1011.0
 31
0.0
1001
GRADIENTCOLOR1ACI
1070
     5
1001
GRADIENTCOLOR2ACI
1070
     2
1001
ACAD
1010
0.0
1020
0.0
1030
0.0
  0
LINE
  5
12A6D3
  8
SLIM
 10
10415.283600749561
 20
-1139.716399250442
 30
0.0
 11
10544.0
 21
-1011.0
 31
0.0
1001
GRADIENTCOLOR1ACI
1070
     5
1001
GRADIENTCOLOR2ACI
1070
     2
1001
ACAD
1010
0.0
1020
0.0
1030
0.0
  0
LINE
  5
12A6D4
  8
SLIM
 10
10417.49791047804
 20
-1155.4626017640981
 30
0.0
 11
10561.96051224214
 21
-1011.0
 31
0.0
1001
GRADIENTCOLOR1ACI
1070
     5
1001
GRADIENTCOLOR2ACI
1070
     2
1001
ACAD
1010
0.0
1020
0.0
1030
0.0
  0
LINE
  5
12A6D5
  8
SLIM
 10
10419.71222020652
 20
-1171.208804277753
 30
0.0
 11
10579.921024484271
 21
-1011.0
 31
0.0
1001
GRADIENTCOLOR1ACI
1070
     5
1001
GRADIENTCOLOR2ACI
1070
     2
1001
ACAD
1010
0.0
1020
0.0
1030
0.0
  0
LINE
  5
12A6D6
  8
SLIM
 10
10421.926529935001
 20
-1186.9550067914081
 30
0.0
 11
10585.000000000009
 21
-1023.881536726409
 31
0.0
1001
GRADIENTCOLOR1ACI
1070
     5
1001
GRADIENTCOLOR2ACI
1070
     2
1001
ACAD
1010
0.0
1020
0.0
1030
0.0
  0
LINE
  5
12A6D7
  8
SLIM
 10
10424.140839663491
 20
-1202.7012093050639
 30
0.0
 11
10585.0
 21
-1041.8420489685479
 31
0.0
1001
GRADIENTCOLOR1ACI
1070
     5
1001
GRADIENTCOLOR2ACI
1070
     2
1001
ACAD
1010
0.0
1020
0.0
1030
0.0
  0
LINE
  5
12A6D8
  8
SLIM
 10
10426.355149391969
 20
-1218.447411818719
 30
0.0
 11
10585.0
 21
-1059.8025612106881
 31
0.0
1001
GRADIENTCOLOR1ACI
1070
     5
1001
GRADIENTCOLOR2ACI
1070
     2
1001
ACAD
1010
0.0
1020
0.0
1030
0.0
  0
LINE
  5
12A6D9
  8
SLIM
 10
10428.56945912045
 20
-1234.193614332374
 30
0.0
 11
10585.0
 21
-1077.7630734528259
 31
0.0
1001
GRADIENTCOLOR1ACI
1070
     5
1001
GRADIENTCOLOR2ACI
1070
     2
1001
ACAD
1010
0.0
1020
0.0
1030
0.0
  0
LINE
  5
12A6DA
  8
SLIM
 10
10430.78376884894
 20
-1249.93981684603
 30
0.0
 11
10585.0
 21
-1095.723585694966
 31
0.0
1001
GRADIENTCOLOR1ACI
1070
     5
1001
GRADIENTCOLOR2ACI
1070
     2
1001
ACAD
1010
0.0
1020
0.0
1030
0.0
  0
LINE
  5
12A6DB
  8
SLIM
 10
10432.998078577421
 20
-1265.6860193596849
 30
0.0
 11
10585.0
 21
-1113.684097937105
 31
0.0
1001
GRADIENTCOLOR1ACI
1070
     5
1001
GRADIENTCOLOR2ACI
1070
     2
1001
ACAD
1010
0.0
1020
0.0
1030
0.0
  0
LINE
  5
12A6DC
  8
SLIM
 10
10432.999999999991
 20
-1283.6446101792519
 30
0.0
 11
10585.0
 21
-1131.6446101792451
 31
0.0
1001
GRADIENTCOLOR1ACI
1070
     5
1001
GRADIENTCOLOR2ACI
1070
     2
1001
ACAD
1010
0.0
1020
0.0
1030
0.0
  0
LINE
  5
12A6DD
  8
SLIM
 10
10433.605122421381
 20
-1300.999999999997
 30
0.0
 11
10583.05183715436
 21
-1151.553285267016
 31
0.0
1001
GRADIENTCOLOR1ACI
1070
     5
1001
GRADIENTCOLOR2ACI
1070
     2
1001
ACAD
1010
0.0
1020
0.0
1030
0.0
  0
LINE
  5
12A6DE
  8
SLIM
 10
10451.565634663521
 20
-1300.999999999997
 30
0.0
 11
10580.112844242019
 21
-1172.452790421504
 31
0.0
1001
GRADIENTCOLOR1ACI
1070
     5
1001
GRADIENTCOLOR2ACI
1070
     2
1001
ACAD
1010
0.0
1020
0.0
1030
0.0
  0
LINE
  5
12A6DF
  8
SLIM
 10
10469.52614690566
 20
-1300.999999999997
 30
0.0
 11
10577.17385132967
 21
-1193.352295575992
 31
0.0
1001
GRADIENTCOLOR1ACI
1070
     5
1001
GRADIENTCOLOR2ACI
1070
     2
1001
ACAD
1010
0.0
1020
0.0
1030
0.0
  0
LINE
  5
12A6E0
  8
SLIM
 10
10487.4866591478
 20
-1300.999999999998
 30
0.0
 11
10574.23485841732
 21
-1214.2518007304791
 31
0.0
1001
GRADIENTCOLOR1ACI
1070
     5
1001
GRADIENTCOLOR2ACI
1070
     2
1001
ACAD
1010
0.0
1020
0.0
1030
0.0
  0
LINE
  5
12A6E1
  8
SLIM
 10
10505.44717138994
 20
-1300.9999999999991
 30
0.0
 11
10571.29586550497
 21
-1235.1513058849671
 31
0.0
1001
GRADIENTCOLOR1ACI
1070
     5
1001
GRADIENTCOLOR2ACI
1070
     2
1001
ACAD
1010
0.0
1020
0.0
1030
0.0
  0
LINE
  5
12A6E2
  8
SLIM
 10
10523.40768363208
 20
-1300.9999999999991
 30
0.0
 11
10568.35687259262
 21
-1256.0508110394539
 31
0.0
1001
GRADIENTCOLOR1ACI
1070
     5
1001
GRADIENTCOLOR2ACI
1070
     2
1001
ACAD
1010
0.0
1020
0.0
1030
0.0
  0
LINE
  5
12A6E3
  8
SLIM
 10
10541.368195874211
 20
-1301.0
 30
0.0
 11
10567.000000000009
 21
-1275.368195874202
 31
0.0
1001
GRADIENTCOLOR1ACI
1070
     5
1001
GRADIENTCOLOR2ACI
1070
     2
1001
ACAD
1010
0.0
1020
0.0
1030
0.0
  0
LINE
  5
12A6E4
  8
SLIM
 10
10559.328708116351
 20
-1301.0
 30
0.0
 11
10567.000000000009
 21
-1293.328708116341
 31
0.0
1001
GRADIENTCOLOR1ACI
1070
     5
1001
GRADIENTCOLOR2ACI
1070
     2
1001
ACAD
1010
0.0
1020
0.0
1030
0.0
  0
LINE
  5
12A6E5
  8
OBJECT
 10
10432.999999999991
 20
-1300.999999999997
 30
0.0
 11
10567.000000000009
 21
-1301.0
 31
0.0
1001
ACDBBLOCKREPETAG
1070
     1
1071
        1
1005
12A6E5
  0
LINE
  5
12A6E6
  8
OBJECT
 10
10414.999999999991
 20
-1011.0
 30
0.0
 11
10415.0
 21
-1137.6996828091419
 31
0.0
1001
ACDBBLOCKREPETAG
1070
     1
1071
        2
1005
12A6E6
  0
LINE
  5
12A6E7
  8
OBJECT
 10
10585.000000000009
 20
-1011.0
 30
0.0
 11
10585.0
 21
-1137.6996828091731
 31
0.0
1001
ACDBBLOCKREPETAG
1070
     1
1071
        3
1005
12A6E7
  0
LINE
  5
12A6E8
  8
OBJECT
 10
10415.0
 20
-1137.6996828091419
 30
0.0
 11
10432.999999999991
 21
-1265.6996828090821
 31
0.0
1001
ACDBBLOCKREPETAG
1070
     1
1071
        4
1005
12A6E8
  0
LINE
  5
12A6E9
  8
OBJECT
 10
10567.000000000009
 20
-1265.6996828091289
 30
0.0
 11
10585.0
 21
-1137.6996828091731
 31
0.0
1001
ACDBBLOCKREPETAG
1070
     1
1071
        5
1005
12A6E9
  0
LINE
  5
12A6EA
  8
OBJECT
 10
10585.000000000009
 20
-1011.0
 30
0.0
 11
10414.999999999991
 21
-1011.0
 31
0.0
1001
ACDBBLOCKREPETAG
1070
     1
1071
        6
1005
12A6EA
  0
LINE
  5
12A6EB
  8
OBJECT
 10
10432.999999999991
 20
-1265.6996828090821
 30
0.0
 11
10432.999999999991
 21
-1300.999999999997
 31
0.0
1001
ACDBBLOCKREPETAG
1070
     1
1071
        8
1005
12A6EB
  0
LINE
  5
12A6EC
  8
OBJECT
 10
10567.000000000009
 20
-1265.6996828091289
 30
0.0
 11
10567.000000000009
 21
-1301.0
 31
0.0
1001
ACDBBLOCKREPETAG
1070
     1
1071
        9
1005
12A6EC
  0
LINE
  5
12A6ED
  8
SLIM
 10
8414.9999999999909
 20
-1014.276414305038
 30
0.0
 11
8418.2764143050317
 21
-1010.999999999999
 31
0.0
1001
GRADIENTCOLOR1ACI
1070
     5
1001
GRADIENTCOLOR2ACI
1070
     2
1001
ACAD
1010
0.0
1020
0.0
1030
0.0
  0
LINE
  5
12A6EE
  8
SLIM
 10
8414.9999999999945
 20
-1032.2369265471759
 30
0.0
 11
8436.2369265471698
 21
-1010.999999999999
 31
0.0
1001
GRADIENTCOLOR1ACI
1070
     5
1001
GRADIENTCOLOR2ACI
1070
     2
1001
ACAD
1010
0.0
1020
0.0
1030
0.0
  0
LINE
  5
12A6EF
  8
SLIM
 10
8414.9999999999945
 20
-1050.1974387893131
 30
0.0
 11
8454.1974387893097
 21
-1010.999999999999
 31
0.0
1001
GRADIENTCOLOR1ACI
1070
     5
1001
GRADIENTCOLOR2ACI
1070
     2
1001
ACAD
1010
0.0
1020
0.0
1030
0.0
  0
LINE
  5
12A6F0
  8
SLIM
 10
8414.9999999999964
 20
-1068.15795103145
 30
0.0
 11
8472.1579510314459
 21
-1010.999999999999
 31
0.0
1001
GRADIENTCOLOR1ACI
1070
     5
1001
GRADIENTCOLOR2ACI
1070
     2
1001
ACAD
1010
0.0
1020
0.0
1030
0.0
  0
LINE
  5
12A6F1
  8
SLIM
 10
8414.9999999999964
 20
-1086.118463273586
 30
0.0
 11
8490.1184632735876
 21
-1010.999999999999
 31
0.0
1001
GRADIENTCOLOR1ACI
1070
     5
1001
GRADIENTCOLOR2ACI
1070
     2
1001
ACAD
1010
0.0
1020
0.0
1030
0.0
  0
LINE
  5
12A6F2
  8
SLIM
 10
8414.9999999999964
 20
-1104.0789755157241
 30
0.0
 11
8508.0789755157257
 21
-1010.999999999999
 31
0.0
1001
GRADIENTCOLOR1ACI
1070
     5
1001
GRADIENTCOLOR2ACI
1070
     2
1001
ACAD
1010
0.0
1020
0.0
1030
0.0
  0
LINE
  5
12A6F3
  8
SLIM
 10
8415.0
 20
-1122.0394877578619
 30
0.0
 11
8526.0394877578583
 21
-1010.999999999999
 31
0.0
1001
GRADIENTCOLOR1ACI
1070
     5
1001
GRADIENTCOLOR2ACI
1070
     2
1001
ACAD
1010
0.0
1020
0.0
1030
0.0
  0
LINE
  5
12A6F4
  8
SLIM
 10
8415.2836007495571
 20
-1139.7163992504411
 30
0.0
 11
8544.0
 21
-1010.999999999999
 31
0.0
1001
GRADIENTCOLOR1ACI
1070
     5
1001
GRADIENTCOLOR2ACI
1070
     2
1001
ACAD
1010
0.0
1020
0.0
1030
0.0
  0
LINE
  5
12A6F5
  8
SLIM
 10
8417.4979104780377
 20
-1155.462601764096
 30
0.0
 11
8561.9605122421344
 21
-1010.999999999999
 31
0.0
1001
GRADIENTCOLOR1ACI
1070
     5
1001
GRADIENTCOLOR2ACI
1070
     2
1001
ACAD
1010
0.0
1020
0.0
1030
0.0
  0
LINE
  5
12A6F6
  8
SLIM
 10
8419.7122202065257
 20
-1171.208804277753
 30
0.0
 11
8579.9210244842743
 21
-1010.999999999999
 31
0.0
1001
GRADIENTCOLOR1ACI
1070
     5
1001
GRADIENTCOLOR2ACI
1070
     2
1001
ACAD
1010
0.0
1020
0.0
1030
0.0
  0
LINE
  5
12A6F7
  8
SLIM
 10
8421.9265299350063
 20
-1186.955006791409
 30
0.0
 11
8585.0000000000055
 21
-1023.8815367264079
 31
0.0
1001
GRADIENTCOLOR1ACI
1070
     5
1001
GRADIENTCOLOR2ACI
1070
     2
1001
ACAD
1010
0.0
1020
0.0
1030
0.0
  0
LINE
  5
12A6F8
  8
SLIM
 10
8424.1408396634924
 20
-1202.7012093050639
 30
0.0
 11
8585.0000000000055
 21
-1041.842048968547
 31
0.0
1001
GRADIENTCOLOR1ACI
1070
     5
1001
GRADIENTCOLOR2ACI
1070
     2
1001
ACAD
1010
0.0
1020
0.0
1030
0.0
  0
LINE
  5
12A6F9
  8
SLIM
 10
8426.3551493919713
 20
-1218.44741181872
 30
0.0
 11
8585.0000000000018
 21
-1059.802561210686
 31
0.0
1001
GRADIENTCOLOR1ACI
1070
     5
1001
GRADIENTCOLOR2ACI
1070
     2
1001
ACAD
1010
0.0
1020
0.0
1030
0.0
  0
LINE
  5
12A6FA
  8
SLIM
 10
8428.5694591204538
 20
-1234.193614332376
 30
0.0
 11
8585.0000000000018
 21
-1077.7630734528259
 31
0.0
1001
GRADIENTCOLOR1ACI
1070
     5
1001
GRADIENTCOLOR2ACI
1070
     2
1001
ACAD
1010
0.0
1020
0.0
1030
0.0
  0
LINE
  5
12A6FB
  8
SLIM
 10
8430.7837688489362
 20
-1249.939816846032
 30
0.0
 11
8585.0000000000018
 21
-1095.7235856949651
 31
0.0
1001
GRADIENTCOLOR1ACI
1070
     5
1001
GRADIENTCOLOR2ACI
1070
     2
1001
ACAD
1010
0.0
1020
0.0
1030
0.0
  0
LINE
  5
12A6FC
  8
SLIM
 10
8437.6840979371063
 20
-1260.9999999999991
 30
0.0
 11
8585.0000000000018
 21
-1113.6840979371041
 31
0.0
1001
GRADIENTCOLOR1ACI
1070
     5
1001
GRADIENTCOLOR2ACI
1070
     2
1001
ACAD
1010
0.0
1020
0.0
1030
0.0
  0
LINE
  5
12A6FD
  8
SLIM
 10
8443.0
 20
-1273.644610179244
 30
0.0
 11
8455.6446101792462
 21
-1260.9999999999991
 31
0.0
1001
GRADIENTCOLOR1ACI
1070
     5
1001
GRADIENTCOLOR2ACI
1070
     2
1001
ACAD
1010
0.0
1020
0.0
1030
0.0
  0
LINE
  5
12A6FE
  8
SLIM
 10
8455.6446101792462
 20
-1260.9999999999991
 30
0.0
 11
8585.0
 21
-1131.644610179244
 31
0.0
1001
GRADIENTCOLOR1ACI
1070
     5
1001
GRADIENTCOLOR2ACI
1070
     2
1001
ACAD
1010
0.0
1020
0.0
1030
0.0
  0
LINE
  5
12A6FF
  8
SLIM
 10
8444.6051224213843
 20
-1289.9999999999991
 30
0.0
 11
8473.6051224213825
 21
-1260.9999999999991
 31
0.0
1001
GRADIENTCOLOR1ACI
1070
     5
1001
GRADIENTCOLOR2ACI
1070
     2
1001
ACAD
1010
0.0
1020
0.0
1030
0.0
  0
LINE
  5
12A700
  8
SLIM
 10
8473.6051224213825
 20
-1260.9999999999991
 30
0.0
 11
8583.0518371543658
 21
-1151.553285267016
 31
0.0
1001
GRADIENTCOLOR1ACI
1070
     5
1001
GRADIENTCOLOR2ACI
1070
     2
1001
ACAD
1010
0.0
1020
0.0
1030
0.0
  0
LINE
  5
12A701
  8
SLIM
 10
8462.5656346635205
 20
-1289.9999999999991
 30
0.0
 11
8491.5656346635205
 21
-1260.9999999999991
 31
0.0
1001
GRADIENTCOLOR1ACI
1070
     5
1001
GRADIENTCOLOR2ACI
1070
     2
1001
ACAD
1010
0.0
1020
0.0
1030
0.0
  0
LINE
  5
12A702
  8
SLIM
 10
8491.5656346635205
 20
-1260.9999999999991
 30
0.0
 11
8580.1128442420159
 21
-1172.4527904215049
 31
0.0
1001
GRADIENTCOLOR1ACI
1070
     5
1001
GRADIENTCOLOR2ACI
1070
     2
1001
ACAD
1010
0.0
1020
0.0
1030
0.0
  0
LINE
  5
12A703
  8
SLIM
 10
8480.5261469056604
 20
-1289.9999999999991
 30
0.0
 11
8509.5261469056622
 21
-1260.9999999999991
 31
0.0
1001
GRADIENTCOLOR1ACI
1070
     5
1001
GRADIENTCOLOR2ACI
1070
     2
1001
ACAD
1010
0.0
1020
0.0
1030
0.0
  0
LINE
  5
12A704
  8
SLIM
 10
8509.5261469056622
 20
-1260.9999999999991
 30
0.0
 11
8577.1738513296659
 21
-1193.352295575992
 31
0.0
1001
GRADIENTCOLOR1ACI
1070
     5
1001
GRADIENTCOLOR2ACI
1070
     2
1001
ACAD
1010
0.0
1020
0.0
1030
0.0
  0
LINE
  5
12A705
  8
SLIM
 10
8498.4866591477985
 20
-1289.9999999999991
 30
0.0
 11
8527.4866591477985
 21
-1260.9999999999991
 31
0.0
1001
GRADIENTCOLOR1ACI
1070
     5
1001
GRADIENTCOLOR2ACI
1070
     2
1001
ACAD
1010
0.0
1020
0.0
1030
0.0
  0
LINE
  5
12A706
  8
SLIM
 10
8527.4866591477985
 20
-1260.9999999999991
 30
0.0
 11
8574.234858417316
 21
-1214.2518007304809
 31
0.0
1001
GRADIENTCOLOR1ACI
1070
     5
1001
GRADIENTCOLOR2ACI
1070
     2
1001
ACAD
1010
0.0
1020
0.0
1030
0.0
  0
LINE
  5
12A707
  8
SLIM
 10
8516.4471713899384
 20
-1289.9999999999991
 30
0.0
 11
8545.4471713899366
 21
-1260.9999999999991
 31
0.0
1001
GRADIENTCOLOR1ACI
1070
     5
1001
GRADIENTCOLOR2ACI
1070
     2
1001
ACAD
1010
0.0
1020
0.0
1030
0.0
  0
LINE
  5
12A708
  8
SLIM
 10
8545.4471713899366
 20
-1260.9999999999991
 30
0.0
 11
8571.2958655049661
 21
-1235.1513058849689
 31
0.0
1001
GRADIENTCOLOR1ACI
1070
     5
1001
GRADIENTCOLOR2ACI
1070
     2
1001
ACAD
1010
0.0
1020
0.0
1030
0.0
  0
LINE
  5
12A709
  8
SLIM
 10
8534.4076836320746
 20
-1289.9999999999991
 30
0.0
 11
8557.0
 21
-1267.4076836320739
 31
0.0
1001
GRADIENTCOLOR1ACI
1070
     5
1001
GRADIENTCOLOR2ACI
1070
     2
1001
ACAD
1010
0.0
1020
0.0
1030
0.0
  0
LINE
  5
12A70A
  8
SLIM
 10
8563.4076836320746
 20
-1260.9999999999991
 30
0.0
 11
8568.3568725926179
 21
-1256.0508110394569
 31
0.0
1001
GRADIENTCOLOR1ACI
1070
     5
1001
GRADIENTCOLOR2ACI
1070
     2
1001
ACAD
1010
0.0
1020
0.0
1030
0.0
  0
LINE
  5
12A70B
  8
SLIM
 10
8552.3681958742145
 20
-1289.9999999999991
 30
0.0
 11
8557.0
 21
-1285.368195874212
 31
0.0
1001
GRADIENTCOLOR1ACI
1070
     5
1001
GRADIENTCOLOR2ACI
1070
     2
1001
ACAD
1010
0.0
1020
0.0
1030
0.0
  0
LINE
  5
12A70C
  8
OBJECT
 10
8443.0
 20
-1289.9999999999991
 30
0.0
 11
8557.0
 21
-1289.9999999999991
 31
0.0
1001
ACDBBLOCKREPETAG
1070
     1
1071
        1
1005
0
  0
LINE
  5
12A70D
  8
OBJECT
 10
8432.3391071049627
 20
-1260.9999999999991
 30
0.0
 11
8567.6608928950409
 21
-1260.9999999999991
 31
0.0
1001
ACDBBLOCKREPETAG
1070
     1
1071
        2
1005
0
  0
LINE
  5
12A70E
  8
OBJECT
 10
8443.0
 20
-1289.9999999999991
 30
0.0
 11
8443.0
 21
-1260.9999999999991
 31
0.0
1001
ACDBBLOCKREPETAG
1070
     1
1071
        3
1005
0
  0
LINE
  5
12A70F
  8
OBJECT
 10
8557.0
 20
-1289.9999999999991
 30
0.0
 11
8557.0
 21
-1260.9999999999991
 31
0.0
1001
ACDBBLOCKREPETAG
1070
     1
1071
        4
1005
0
  0
LINE
  5
12A710
  8
OBJECT
 10
8414.9999999999909
 20
-1010.999999999999
 30
0.0
 11
8415.0
 21
-1137.699682809143
 31
0.0
1001
ACDBBLOCKREPETAG
1070
     1
1071
        5
1005
0
  0
LINE
  5
12A711
  8
OBJECT
 10
8585.0000000000055
 20
-1010.999999999999
 30
0.0
 11
8585.0
 21
-1137.6996828091719
 31
0.0
1001
ACDBBLOCKREPETAG
1070
     1
1071
        6
1005
0
  0
LINE
  5
12A712
  8
OBJECT
 10
8415.0
 20
-1137.699682809143
 30
0.0
 11
8432.3391071049627
 21
-1260.9999999999991
 31
0.0
1001
ACDBBLOCKREPETAG
1070
     1
1071
        7
1005
0
  0
LINE
  5
12A713
  8
OBJECT
 10
8567.6608928950409
 20
-1260.9999999999991
 30
0.0
 11
8585.0
 21
-1137.6996828091719
 31
0.0
1001
ACDBBLOCKREPETAG
1070
     1
1071
        8
1005
0
  0
LINE
  5
12A714
  8
OBJECT
 10
8585.0000000000055
 20
-1010.999999999999
 30
0.0
 11
8414.9999999999909
 21
-1010.999999999999
 31
0.0
1001
ACDBBLOCKREPETAG
1070
     1
1071
        9
1005
0
  0
LINE
  5
12A715
  8
SLIM
 10
12414.999999999991
 20
-1014.276414305039
 30
0.0
 11
12418.27641430503
 21
-1011.0
 31
0.0
1001
GRADIENTCOLOR1ACI
1070
     5
1001
GRADIENTCOLOR2ACI
1070
     2
1001
ACAD
1010
0.0
1020
0.0
1030
0.0
  0
LINE
  5
12A716
  8
SLIM
 10
12414.999999999991
 20
-1032.2369265471759
 30
0.0
 11
12436.23692654717
 21
-1011.0
 31
0.0
1001
GRADIENTCOLOR1ACI
1070
     5
1001
GRADIENTCOLOR2ACI
1070
     2
1001
ACAD
1010
0.0
1020
0.0
1030
0.0
  0
LINE
  5
12A717
  8
SLIM
 10
12414.999999999991
 20
-1050.197438789314
 30
0.0
 11
12454.19743878931
 21
-1011.0
 31
0.0
1001
GRADIENTCOLOR1ACI
1070
     5
1001
GRADIENTCOLOR2ACI
1070
     2
1001
ACAD
1010
0.0
1020
0.0
1030
0.0
  0
LINE
  5
12A718
  8
SLIM
 10
12414.999999999991
 20
-1068.15795103145
 30
0.0
 11
12472.15795103144
 21
-1011.0
 31
0.0
1001
GRADIENTCOLOR1ACI
1070
     5
1001
GRADIENTCOLOR2ACI
1070
     2
1001
ACAD
1010
0.0
1020
0.0
1030
0.0
  0
LINE
  5
12A719
  8
SLIM
 10
12414.999999999991
 20
-1086.1184632735881
 30
0.0
 11
12490.11846327358
 21
-1011.0
 31
0.0
1001
GRADIENTCOLOR1ACI
1070
     5
1001
GRADIENTCOLOR2ACI
1070
     2
1001
ACAD
1010
0.0
1020
0.0
1030
0.0
  0
LINE
  5
12A71A
  8
SLIM
 10
12415.0
 20
-1104.0789755157259
 30
0.0
 11
12508.07897551572
 21
-1011.0
 31
0.0
1001
GRADIENTCOLOR1ACI
1070
     5
1001
GRADIENTCOLOR2ACI
1070
     2
1001
ACAD
1010
0.0
1020
0.0
1030
0.0
  0
LINE
  5
12A71B
  8
SLIM
 10
12415.0
 20
-1122.0394877578631
 30
0.0
 11
12526.03948775786
 21
-1011.0
 31
0.0
1001
GRADIENTCOLOR1ACI
1070
     5
1001
GRADIENTCOLOR2ACI
1070
     2
1001
ACAD
1010
0.0
1020
0.0
1030
0.0
  0
LINE
  5
12A71C
  8
SLIM
 10
12415.283600749561
 20
-1139.716399250442
 30
0.0
 11
12544.0
 21
-1011.0
 31
0.0
1001
GRADIENTCOLOR1ACI
1070
     5
1001
GRADIENTCOLOR2ACI
1070
     2
1001
ACAD
1010
0.0
1020
0.0
1030
0.0
  0
LINE
  5
12A71D
  8
SLIM
 10
12417.49791047804
 20
-1155.4626017640981
 30
0.0
 11
12561.96051224214
 21
-1011.0
 31
0.0
1001
GRADIENTCOLOR1ACI
1070
     5
1001
GRADIENTCOLOR2ACI
1070
     2
1001
ACAD
1010
0.0
1020
0.0
1030
0.0
  0
LINE
  5
12A71E
  8
SLIM
 10
12419.71222020652
 20
-1171.208804277753
 30
0.0
 11
12579.921024484271
 21
-1011.0
 31
0.0
1001
GRADIENTCOLOR1ACI
1070
     5
1001
GRADIENTCOLOR2ACI
1070
     2
1001
ACAD
1010
0.0
1020
0.0
1030
0.0
  0
LINE
  5
12A71F
  8
SLIM
 10
12421.92652993501
 20
-1186.9550067914081
 30
0.0
 11
12585.000000000009
 21
-1023.881536726409
 31
0.0
1001
GRADIENTCOLOR1ACI
1070
     5
1001
GRADIENTCOLOR2ACI
1070
     2
1001
ACAD
1010
0.0
1020
0.0
1030
0.0
  0
LINE
  5
12A720
  8
SLIM
 10
12424.140839663491
 20
-1202.7012093050639
 30
0.0
 11
12585.0
 21
-1041.8420489685479
 31
0.0
1001
GRADIENTCOLOR1ACI
1070
     5
1001
GRADIENTCOLOR2ACI
1070
     2
1001
ACAD
1010
0.0
1020
0.0
1030
0.0
  0
LINE
  5
12A721
  8
SLIM
 10
12426.35514939196
 20
-1218.447411818719
 30
0.0
 11
12585.0
 21
-1059.8025612106881
 31
0.0
1001
GRADIENTCOLOR1ACI
1070
     5
1001
GRADIENTCOLOR2ACI
1070
     2
1001
ACAD
1010
0.0
1020
0.0
1030
0.0
  0
LINE
  5
12A722
  8
SLIM
 10
12428.56945912045
 20
-1234.193614332374
 30
0.0
 11
12585.0
 21
-1077.7630734528259
 31
0.0
1001
GRADIENTCOLOR1ACI
1070
     5
1001
GRADIENTCOLOR2ACI
1070
     2
1001
ACAD
1010
0.0
1020
0.0
1030
0.0
  0
LINE
  5
12A723
  8
SLIM
 10
12430.78376884894
 20
-1249.93981684603
 30
0.0
 11
12585.0
 21
-1095.723585694966
 31
0.0
1001
GRADIENTCOLOR1ACI
1070
     5
1001
GRADIENTCOLOR2ACI
1070
     2
1001
ACAD
1010
0.0
1020
0.0
1030
0.0
  0
LINE
  5
12A724
  8
SLIM
 10
12432.998078577421
 20
-1265.6860193596849
 30
0.0
 11
12585.0
 21
-1113.684097937105
 31
0.0
1001
GRADIENTCOLOR1ACI
1070
     5
1001
GRADIENTCOLOR2ACI
1070
     2
1001
ACAD
1010
0.0
1020
0.0
1030
0.0
  0
LINE
  5
12A725
  8
SLIM
 10
12432.999999999991
 20
-1283.6446101792519
 30
0.0
 11
12585.0
 21
-1131.6446101792451
 31
0.0
1001
GRADIENTCOLOR1ACI
1070
     5
1001
GRADIENTCOLOR2ACI
1070
     2
1001
ACAD
1010
0.0
1020
0.0
1030
0.0
  0
LINE
  5
12A726
  8
SLIM
 10
12433.605122421381
 20
-1300.999999999997
 30
0.0
 11
12583.05183715436
 21
-1151.553285267016
 31
0.0
1001
GRADIENTCOLOR1ACI
1070
     5
1001
GRADIENTCOLOR2ACI
1070
     2
1001
ACAD
1010
0.0
1020
0.0
1030
0.0
  0
LINE
  5
12A727
  8
SLIM
 10
12451.565634663521
 20
-1300.999999999997
 30
0.0
 11
12580.11284424201
 21
-1172.452790421504
 31
0.0
1001
GRADIENTCOLOR1ACI
1070
     5
1001
GRADIENTCOLOR2ACI
1070
     2
1001
ACAD
1010
0.0
1020
0.0
1030
0.0
  0
LINE
  5
12A728
  8
SLIM
 10
12469.52614690566
 20
-1300.999999999997
 30
0.0
 11
12577.17385132967
 21
-1193.352295575992
 31
0.0
1001
GRADIENTCOLOR1ACI
1070
     5
1001
GRADIENTCOLOR2ACI
1070
     2
1001
ACAD
1010
0.0
1020
0.0
1030
0.0
  0
LINE
  5
12A729
  8
SLIM
 10
12487.4866591478
 20
-1300.999999999998
 30
0.0
 11
12574.23485841732
 21
-1214.2518007304791
 31
0.0
1001
GRADIENTCOLOR1ACI
1070
     5
1001
GRADIENTCOLOR2ACI
1070
     2
1001
ACAD
1010
0.0
1020
0.0
1030
0.0
  0
LINE
  5
12A72A
  8
SLIM
 10
12505.44717138994
 20
-1300.9999999999991
 30
0.0
 11
12571.29586550497
 21
-1235.1513058849671
 31
0.0
1001
GRADIENTCOLOR1ACI
1070
     5
1001
GRADIENTCOLOR2ACI
1070
     2
1001
ACAD
1010
0.0
1020
0.0
1030
0.0
  0
LINE
  5
12A72B
  8
SLIM
 10
12523.407683632069
 20
-1300.9999999999991
 30
0.0
 11
12568.35687259262
 21
-1256.0508110394539
 31
0.0
1001
GRADIENTCOLOR1ACI
1070
     5
1001
GRADIENTCOLOR2ACI
1070
     2
1001
ACAD
1010
0.0
1020
0.0
1030
0.0
  0
LINE
  5
12A72C
  8
SLIM
 10
12541.368195874211
 20
-1301.0
 30
0.0
 11
12567.000000000009
 21
-1275.368195874202
 31
0.0
1001
GRADIENTCOLOR1ACI
1070
     5
1001
GRADIENTCOLOR2ACI
1070
     2
1001
ACAD
1010
0.0
1020
0.0
1030
0.0
  0
LINE
  5
12A72D
  8
SLIM
 10
12559.328708116351
 20
-1301.0
 30
0.0
 11
12567.000000000009
 21
-1293.328708116341
 31
0.0
1001
GRADIENTCOLOR1ACI
1070
     5
1001
GRADIENTCOLOR2ACI
1070
     2
1001
ACAD
1010
0.0
1020
0.0
1030
0.0
  0
LINE
  5
12A72E
  8
OBJECT
 10
12432.999999999991
 20
-1300.999999999997
 30
0.0
 11
12567.000000000009
 21
-1301.0
 31
0.0
1001
ACDBBLOCKREPETAG
1070
     1
1071
        1
1005
12A72E
  0
LINE
  5
12A72F
  8
OBJECT
 10
12414.999999999991
 20
-1011.0
 30
0.0
 11
12415.0
 21
-1137.6996828091419
 31
0.0
1001
ACDBBLOCKREPETAG
1070
     1
1071
        2
1005
12A72F
  0
LINE
  5
12A730
  8
OBJECT
 10
12585.000000000009
 20
-1011.0
 30
0.0
 11
12585.0
 21
-1137.6996828091731
 31
0.0
1001
ACDBBLOCKREPETAG
1070
     1
1071
        3
1005
12A730
  0
LINE
  5
12A731
  8
OBJECT
 10
12415.0
 20
-1137.6996828091419
 30
0.0
 11
12432.999999999991
 21
-1265.6996828090821
 31
0.0
1001
ACDBBLOCKREPETAG
1070
     1
1071
        4
1005
12A731
  0
LINE
  5
12A732
  8
OBJECT
 10
12567.000000000009
 20
-1265.6996828091289
 30
0.0
 11
12585.0
 21
-1137.6996828091731
 31
0.0
1001
ACDBBLOCKREPETAG
1070
     1
1071
        5
1005
12A732
  0
LINE
  5
12A733
  8
OBJECT
 10
12585.000000000009
 20
-1011.0
 30
0.0
 11
12414.999999999991
 21
-1011.0
 31
0.0
1001
ACDBBLOCKREPETAG
1070
     1
1071
        6
1005
12A733
  0
LINE
  5
12A734
  8
OBJECT
 10
12432.999999999991
 20
-1265.6996828090821
 30
0.0
 11
12432.999999999991
 21
-1300.999999999997
 31
0.0
1001
ACDBBLOCKREPETAG
1070
     1
1071
        8
1005
12A734
  0
LINE
  5
12A735
  8
OBJECT
 10
12567.000000000009
 20
-1265.6996828091289
 30
0.0
 11
12567.000000000009
 21
-1301.0
 31
0.0
1001
ACDBBLOCKREPETAG
1070
     1
1071
        9
1005
12A735
  0
TEXT
  5
12A736
  8
SLIM
 10
156.85714285708241
 20
-443.99999999984971
 30
0.0
 40
48.0
  1
A1
 41
0.75
1001
ACDBBLOCKREPETAG
1070
     1
1071
      119
1005
0
  0
LINE
  5
12A737
  8
OBJECT
 10
2423.0
 20
-570.99999999999432
 30
0.0
 11
2423.0
 21
-549.99999999999432
 31
0.0
1001
ACDBBLOCKREPETAG
1070
     1
1071
        0
1005
12A737
  0
LINE
  5
12A738
  8
OBJECT
 10
2423.0
 20
-549.99999999999432
 30
0.0
 11
2577.0
 21
-549.99999999999432
 31
0.0
1001
ACDBBLOCKREPETAG
1070
     1
1071
        1
1005
12A738
  0
LINE
  5
12A739
  8
HIDDEN
 10
2443.0
 20
-619.99999999999432
 30
0.0
 11
2557.0
 21
-619.99999999999432
 31
0.0
1001
ACDBBLOCKREPETAG
1070
     1
1071
        2
1005
12A739
  0
LINE
  5
12A73A
  8
OBJECT
 10
2577.0
 20
-549.99999999999432
 30
0.0
 11
2577.0
 21
-570.99999999999432
 31
0.0
1001
ACDBBLOCKREPETAG
1070
     1
1071
        3
1005
12A73A
  0
LINE
  5
12A73B
  8
OBJECT
 10
2577.0
 20
-570.99999999999432
 30
0.0
 11
2423.0
 21
-570.99999999999432
 31
0.0
1001
ACDBBLOCKREPETAG
1070
     1
1071
        4
1005
12A73B
  0
LINE
  5
12A73C
  8
CENTER
 10
2500.0
 20
-534.99999999999432
 30
0.0
 11
2500.0
 21
-769.9999999999942
 31
0.0
1001
ACDBBLOCKREPETAG
1070
     1
1071
        5
1005
12A73C
  0
LINE
  5
12A73D
  8
OBJECT
 10
2425.0
 20
-633.99999999999432
 30
0.0
 11
2425.0
 21
-757.9999999999942
 31
0.0
1001
ACDBBLOCKREPETAG
1070
     1
1071
        6
1005
12A73D
  0
LINE
  5
12A73E
  8
OBJECT
 10
2428.0
 20
-570.99999999999432
 30
0.0
 11
2428.0
 21
-633.99999999999432
 31
0.0
1001
ACDBBLOCKREPETAG
1070
     1
1071
        7
1005
12A73E
  0
LINE
  5
12A73F
  8
OBJECT
 10
2572.0
 20
-633.99999999999432
 30
0.0
 11
2572.0
 21
-570.99999999999432
 31
0.0
1001
ACDBBLOCKREPETAG
1070
     1
1071
        8
1005
12A73F
  0
LINE
  5
12A740
  8
OBJECT
 10
2420.0
 20
-757.9999999999942
 30
0.0
 11
2580.0
 21
-757.9999999999942
 31
0.0
1001
ACDBBLOCKREPETAG
1070
     1
1071
        9
1005
12A740
  0
LINE
  5
12A741
  8
OBJECT
 10
2580.0
 20
-633.99999999999432
 30
0.0
 11
2425.0
 21
-633.99999999999432
 31
0.0
1001
ACDBBLOCKREPETAG
1070
     1
1071
       10
1005
12A741
  0
LINE
  5
12A742
  8
OBJECT
 10
2420.0
 20
-757.9999999999942
 30
0.0
 11
2420.0
 21
-769.9999999999942
 31
0.0
1001
ACDBBLOCKREPETAG
1070
     1
1071
       11
1005
12A742
  0
LINE
  5
12A743
  8
OBJECT
 10
2420.0
 20
-769.9999999999942
 30
0.0
 11
2580.0
 21
-769.9999999999942
 31
0.0
1001
ACDBBLOCKREPETAG
1070
     1
1071
       12
1005
12A743
  0
LINE
  5
12A744
  8
OBJECT
 10
2580.0
 20
-769.9999999999942
 30
0.0
 11
2580.0
 21
-757.9999999999942
 31
0.0
1001
ACDBBLOCKREPETAG
1070
     1
1071
       13
1005
12A744
  0
ARC
  5
12A745
  8
OBJECT
 10
2700.6872746716731
 20
-749.40809941010195
 30
0.0
 40
170.6350503965856
 50
137.44134459184301
 51
149.91949581337221
1001
ACDBBLOCKREPETAG
1070
     1
1071
       15
1005
12A745
  0
ARC
  5
12A746
  8
OBJECT
 10
2618.8455987040511
 20
-705.88272669535922
 30
0.0
 40
78.072222021763665
 50
147.4551531037684
 51
164.6636599771798
1001
ACDBBLOCKREPETAG
1070
     1
1071
       16
1005
12A746
  0
ARC
  5
12A747
  8
OBJECT
 10
2585.7554349608731
 20
-695.99999999999432
 30
0.0
 40
43.55353926885617
 50
165.6884523008477
 51
194.3115476991523
1001
ACDBBLOCKREPETAG
1070
     1
1071
       17
1005
12A747
  0
ARC
  5
12A748
  8
OBJECT
 10
2700.6872746716731
 20
-642.59190058988645
 30
0.0
 40
170.6350503965856
 50
210.08050418662771
 51
222.55865540815699
1001
ACDBBLOCKREPETAG
1070
     1
1071
       18
1005
12A748
  0
ARC
  5
12A749
  8
OBJECT
 10
2618.8455987040511
 20
-686.11727330462952
 30
0.0
 40
78.072222021763665
 50
195.3363400228202
 51
212.5448468962316
1001
ACDBBLOCKREPETAG
1070
     1
1071
       19
1005
12A749
  0
LINE
  5
12A74A
  8
OBJECT
 10
2633.0
 20
-664.0
 30
0.0
 11
2640.0
 21
-664.0
 31
0.0
1001
ACDBBLOCKREPETAG
1070
     1
1071
        7
1005
12A74A
  0
LINE
  5
12A74B
  8
OBJECT
 10
2640.0
 20
-664.0
 30
0.0
 11
2640.0
 21
-755.0
 31
0.0
1001
ACDBBLOCKREPETAG
1070
     1
1071
        8
1005
12A74B
  0
LINE
  5
12A74C
  8
OBJECT
 10
2633.0
 20
-755.0
 30
0.0
 11
2633.0
 21
-664.0
 31
0.0
1001
ACDBBLOCKREPETAG
1070
     1
1071
        9
1005
12A74C
  0
LINE
  5
12A74D
  8
CENTER
 10
2655.0
 20
-711.0
 30
0.0
 11
2571.0
 21
-711.0
 31
0.0
1001
ACDBBLOCKREPETAG
1070
     1
1071
       10
1005
12A74D
  0
LINE
  5
12A74E
  8
OBJECT
 10
2633.0
 20
-667.0
 30
0.0
 11
2597.0
 21
-667.0
 31
0.0
1001
ACDBBLOCKREPETAG
1070
     1
1071
       11
1005
12A74E
  0
LINE
  5
12A74F
  8
OBJECT
 10
2597.0
 20
-667.0
 30
0.0
 11
2597.0
 21
-755.0
 31
0.0
1001
ACDBBLOCKREPETAG
1070
     1
1071
       12
1005
12A74F
  0
LINE
  5
12A750
  8
OBJECT
 10
2597.0
 20
-755.0
 30
0.0
 11
2640.0
 21
-755.0
 31
0.0
1001
ACDBBLOCKREPETAG
1070
     1
1071
       13
1005
12A750
  0
LINE
  5
12A751
  8
OBJECT
 10
2593.0
 20
-671.49999999999977
 30
0.0
 11
2586.0
 21
-671.49999999999977
 31
0.0
1001
ACDBBLOCKREPETAG
1070
     1
1071
       14
1005
12A751
  0
LINE
  5
12A752
  8
OBJECT
 10
2586.0
 20
-750.49999999999989
 30
0.0
 11
2593.0
 21
-750.49999999999989
 31
0.0
1001
ACDBBLOCKREPETAG
1070
     1
1071
       15
1005
12A752
  0
LINE
  5
12A753
  8
OBJECT
 10
2593.0
 20
-750.49999999999989
 30
0.0
 11
2593.0
 21
-671.49999999999977
 31
0.0
1001
ACDBBLOCKREPETAG
1070
     1
1071
       16
1005
12A753
  0
LINE
  5
12A754
  8
OBJECT
 10
2597.0
 20
-667.0
 30
0.0
 11
2593.0
 21
-671.49999999999977
 31
0.0
1001
ACDBBLOCKREPETAG
1070
     1
1071
       17
1005
12A754
  0
LINE
  5
12A755
  8
OBJECT
 10
2597.0
 20
-755.0
 30
0.0
 11
2593.0
 21
-750.49999999999989
 31
0.0
1001
ACDBBLOCKREPETAG
1070
     1
1071
       18
1005
12A755
  0
LINE
  5
12A756
  8
OBJECT
 10
2583.0
 20
-634.0
 30
0.0
 11
2580.0
 21
-634.0
 31
0.0
1001
ACDBBLOCKREPETAG
1070
     1
1071
       19
1005
12A756
  0
ARC
  5
12A757
  8
OBJECT
 10
2583.0
 20
-637.0
 30
0.0
 40
3.0
 50
0.0
 51
90.0
1001
ACDBBLOCKREPETAG
1070
     1
1071
       20
1005
12A757
  0
LINE
  5
12A758
  8
OBJECT
 10
2580.0
 20
-758.0
 30
0.0
 11
2583.0
 21
-758.0
 31
0.0
1001
ACDBBLOCKREPETAG
1070
     1
1071
       21
1005
12A758
  0
ARC
  5
12A759
  8
OBJECT
 10
2583.0
 20
-755.0
 30
0.0
 40
3.0
 50
270.0
 51
0.0
1001
ACDBBLOCKREPETAG
1070
     1
1071
       22
1005
12A759
  0
LINE
  5
12A75A
  8
OBJECT
 10
2586.0
 20
-755.0
 30
0.0
 11
2586.0
 21
-637.0
 31
0.0
1001
ACDBBLOCKREPETAG
1070
     1
1071
       23
1005
12A75A
  0
LINE
  5
12A75B
  8
HIDDEN
 10
2588.0
 20
-681.0
 30
0.0
 11
2588.0
 21
-741.0
 31
0.0
1001
ACDBBLOCKREPETAG
1070
     1
1071
       24
1005
12A75B
  0
TEXT
  5
12A75C
  8
SLIM
 10
0.0000035665234464
 20
24.000004585317608
 30
0.0
 40
79.999999999972701
  1
上部枝管
 41
0.75
1001
ACDBBLOCKREPETAG
1070
     1
1071
      119
1005
120BCB
  0
LINE
  5
12A75D
  8
DIM
 10
2650.0
 20
-3506.9999999999968
 30
0.0
 11
2728.479620594459
 21
-3506.9999999999968
 31
0.0
  0
LINE
  5
12A75E
  8
DIM
 10
2650.0
 20
-3412.9999999999968
 30
0.0
 11
2728.479620594459
 21
-3412.9999999999968
 31
0.0
  0
LINE
  5
12A75F
  8
DIM
 10
2718.479620594459
 20
-3486.9999999999959
 30
0.0
 11
2718.479620594459
 21
-3432.9999999999959
 31
0.0
  0
INSERT
  5
12A760
  8
DIM
  2
_OPEN30
 10
2718.479620594459
 20
-3506.9999999999968
 30
0.0
 41
20.0
 42
20.0
 43
20.0
 50
270.0
  0
INSERT
  5
12A761
  8
DIM
  2
_OPEN30
 10
2718.479620594459
 20
-3412.9999999999968
 30
0.0
 41
20.0
 42
20.0
 43
20.0
 50
90.0
  0
INSERT
  5
12A762
  8
SLIM
  2
*U21
 10
0.0
 20
0.0
 30
0.0
  0
LINE
  5
12A763
  8
DIM
 10
2650.0
 20
-3864.9999999999968
 30
0.0
 11
2726.8409284037339
 21
-3864.9999999999968
 31
0.0
  0
LINE
  5
12A764
  8
DIM
 10
2665.0
 20
-3820.9999999999968
 30
0.0
 11
2726.8409284037339
 21
-3820.9999999999968
 31
0.0
  0
LINE
  5
12A765
  8
DIM
 10
2716.8409284037339
 20
-3884.9999999999991
 30
0.0
 11
2716.8409284037339
 21
-3904.9999999999968
 31
0.0
  0
LINE
  5
12A766
  8
DIM
 10
2716.8409284037339
 20
-3800.9999999999982
 30
0.0
 11
2716.8409284037339
 21
-3780.9999999999968
 31
0.0
  0
LINE
  5
12A767
  8
DIM
 10
2716.8409284037339
 20
-3864.9999999999968
 30
0.0
 11
2716.8409284037339
 21
-3820.9999999999968
 31
0.0
  0
INSERT
  5
12A768
  8
DIM
  2
_OPEN30
 10
2716.8409284037339
 20
-3864.9999999999968
 30
0.0
 41
20.0
 42
20.0
 43
20.0
 50
90.0
  0
INSERT
  5
12A769
  8
DIM
  2
_OPEN30
 10
2716.8409284037339
 20
-3820.9999999999968
 30
0.0
 41
20.0
 42
20.0
 43
20.0
 50
270.0
  0
INSERT
  5
12A76A
  8
SLIM
  2
*U22
 10
0.0
 20
0.0
 30
0.0
  0
LINE
  5
12A76B
  8
DIM
 10
2500.0
 20
-3359.9999999999968
 30
0.0
 11
2500.0
 21
-3322.208121984444
 31
0.0
  0
LINE
  5
12A76C
  8
DIM
 10
2640.0
 20
-3402.9999999999968
 30
0.0
 11
2640.0
 21
-3322.208121984444
 31
0.0
  0
LINE
  5
12A76D
  8
DIM
 10
2520.0
 20
-3332.208121984444
 30
0.0
 11
2620.0
 21
-3332.208121984444
 31
0.0
  0
INSERT
  5
12A76E
  8
DIM
  2
_OPEN30
 10
2500.0
 20
-3332.208121984444
 30
0.0
 41
20.0
 42
20.0
 43
20.0
 50
180.0
  0
INSERT
  5
12A76F
  8
DIM
  2
_OPEN30
 10
2640.0
 20
-3332.208121984444
 30
0.0
 41
20.0
 42
20.0
 43
20.0
  0
INSERT
  5
12A770
  8
SLIM
  2
*U23
 10
0.0
 20
0.0
 30
0.0
  0
TEXT
  5
12A771
  8
SLIM
 10
3270.9999999999991
 20
-3237.5000160472709
 30
0.0
 40
40.0
  1
C寸法
 41
0.75
  0
TEXT
  5
12A772
  8
SLIM
 10
3270.9999999999991
 20
-3167.5000160472709
 30
0.0
 40
40.0
  1
B寸法
 41
0.75
  0
TEXT
  5
12A773
  8
SLIM
 10
3270.2857142857151
 20
-3097.5000160472709
 30
0.0
 40
40.0
  1
A寸法
 41
0.75
  0
TEXT
  5
12A774
  8
SLIM
 10
3669.2857142857142
 20
-3237.5000160472709
 30
0.0
 40
40.0
  1
140
 41
0.75
  0
TEXT
  5
12A775
  8
SLIM
 10
3409.2857142857151
 20
-3237.5000160472709
 30
0.0
 40
40.0
  1
140
 41
0.75
  0
TEXT
  5
12A776
  8
SLIM
 10
3539.2857142857151
 20
-3237.5000160472709
 30
0.0
 40
40.0
  1
140
 41
0.75
  0
TEXT
  5
12A777
  8
SLIM
 10
3681.4285714285711
 20
-3167.5000160472709
 30
0.0
 40
40.0
  1
59
 41
0.75
  0
TEXT
  5
12A778
  8
SLIM
 10
3420.0
 20
-3167.5000160472709
 30
0.0
 40
40.0
  1
44
 41
0.75
  0
TEXT
  5
12A779
  8
SLIM
 10
3550.7142857142849
 20
-3167.5000160472709
 30
0.0
 40
40.0
  1
52
 41
0.75
  0
TEXT
  5
12A77A
  8
SLIM
 10
3471.0
 20
-2972.5000160472709
 30
0.0
 40
40.0
  1
横枝管サイズ
 41
0.75
  0
TEXT
  5
12A77B
  8
SLIM
 10
3654.8571428571422
 20
-3027.50001604727
 30
0.0
 40
30.0
  1
75（3）
 41
0.75
  0
TEXT
  5
12A77C
  8
SLIM
 10
3524.8571428571422
 20
-3027.50001604727
 30
0.0
 40
30.0
  1
65（2）
 41
0.75
  0
TEXT
  5
12A77D
  8
SLIM
 10
3397.0
 20
-3027.50001604727
 30
0.0
 40
30.0
  1
50（1）
 41
0.75
  0
TEXT
  5
12A77E
  8
SLIM
 10
3668.5714285714289
 20
-3097.5000160472709
 30
0.0
 40
40.0
  1
124
 41
0.75
  0
TEXT
  5
12A77F
  8
SLIM
 10
3420.0
 20
-3097.5000160472709
 30
0.0
 40
40.0
  1
94
 41
0.75
  0
TEXT
  5
12A780
  8
SLIM
 10
3542.142857142856
 20
-3097.5000160472709
 30
0.0
 40
40.0
  1
110
 41
0.75
  0
TEXT
  5
12A781
  8
SLIM
 10
2349.9999999999991
 20
-2997.5
 30
0.0
 40
75.0
  1
下部枝管サイズ毎の形状
 41
0.75
  0
TEXT
  5
12A782
  8
SLIM
 10
4394.25
 20
-3982.4999999999968
 30
0.0
 40
35.0
  1
通常枝75（3）
 41
0.75
  0
TEXT
  5
12A783
  8
SLIM
 10
3394.2499999999991
 20
-3982.4999999999968
 30
0.0
 40
35.0
  1
通常枝65（2）
 41
0.75
  0
TEXT
  5
12A784
  8
SLIM
 10
2396.75
 20
-3982.4999999999968
 30
0.0
 40
35.0
  1
通常枝50（1）
 41
0.75
  0
TEXT
  5
12A785
  8
SLIM
 10
2337.75
 20
282.50000000000011
 30
0.0
 40
35.0
  1
（枝管サイズ毎に寸法が異なります。管底の位置は全サイズで同じです）
 41
0.75
  0
TEXT
  5
12A786
  8
SLIM
 10
2350.0
 20
532.5
 30
0.0
 40
75.0
  1
側面図の代表機種
 41
0.75
  0
TEXT
  5
12A787
  8
SLIM
 10
2350.0
 20
369.99999999999989
 30
0.0
 40
100.0
  1
4SL2-A1-A3000-P300
 41
0.75
  0
TEXT
  5
12A788
  8
SLIM
 10
0.0
 20
670.0
 30
0.0
 40
100.0
  1
4SL2-A1-AX000-PXXX-S
 41
0.75
  0
TEXT
  5
12A789
  8
SLIM
 10
0.0
 20
520.0
 30
0.0
 40
100.0
  1
4SL2-A1-AX000-PXXX-W
 41
0.75
  0
LINE
  5
12A78A
  8
OBJECT
 10
12585.999999999991
 20
-1388.9999999999991
 30
0.0
 11
12585.999999999991
 21
-1398.9999999999991
 31
0.0
1001
ACDBBLOCKREPETAG
1070
     1
1071
      121
1005
12A78A
  0
LINE
  5
12A78B
  8
OBJECT
 10
12569.999999999991
 20
-1388.9999999999991
 30
0.0
 11
12569.999999999991
 21
-1398.9999999999991
 31
0.0
1001
ACDBBLOCKREPETAG
1070
     1
1071
      122
1005
12A78B
  0
LINE
  5
12A78C
  8
OBJECT
 10
12585.999999999991
 20
-1398.9999999999991
 30
0.0
 11
12569.999999999991
 21
-1398.9999999999991
 31
0.0
1001
ACDBBLOCKREPETAG
1070
     1
1071
      123
1005
12A78C
  0
LINE
  5
12A78D
  8
OBJECT
 10
12590.0
 20
-1349.9999999999959
 30
0.0
 11
12424.0
 21
-1349.9999999999959
 31
0.0
1001
ACDBBLOCKREPETAG
1070
     1
1071
      124
1005
12A78D
  0
LINE
  5
12A78E
  8
OBJECT
 10
12590.0
 20
-1364.9999999999991
 30
0.0
 11
12590.0
 21
-1349.9999999999959
 31
0.0
1001
ACDBBLOCKREPETAG
1070
     1
1071
      125
1005
12A78E
  0
LINE
  5
12A78F
  8
OBJECT
 10
12424.0
 20
-1364.9999999999991
 30
0.0
 11
12590.0
 21
-1364.9999999999991
 31
0.0
1001
ACDBBLOCKREPETAG
1070
     1
1071
      126
1005
12A78F
  0
LINE
  5
12A790
  8
OBJECT
 10
12567.49999999998
 20
-1364.9999999999991
 30
0.0
 11
12567.49999999998
 21
-1375.0
 31
0.0
1001
ACDBBLOCKREPETAG
1070
     1
1071
      127
1005
12A790
  0
LINE
  5
12A791
  8
OBJECT
 10
12572.999999999991
 20
-1375.0
 30
0.0
 11
12572.999999999991
 21
-1364.9999999999991
 31
0.0
1001
ACDBBLOCKREPETAG
1070
     1
1071
      128
1005
12A791
  0
LINE
  5
12A792
  8
OBJECT
 10
12582.999999999991
 20
-1375.0
 30
0.0
 11
12582.999999999991
 21
-1364.9999999999991
 31
0.0
1001
ACDBBLOCKREPETAG
1070
     1
1071
      129
1005
12A792
  0
LINE
  5
12A793
  8
OBJECT
 10
12424.0
 20
-1375.0
 30
0.0
 11
12424.0
 21
-1388.9999999999959
 31
0.0
1001
ACDBBLOCKREPETAG
1070
     1
1071
      130
1005
12A793
  0
LINE
  5
12A794
  8
OBJECT
 10
12590.0
 20
-1375.0
 30
0.0
 11
12590.0
 21
-1388.9999999999959
 31
0.0
1001
ACDBBLOCKREPETAG
1070
     1
1071
      131
1005
12A794
  0
LINE
  5
12A795
  8
OBJECT
 10
12424.0
 20
-1388.9999999999959
 30
0.0
 11
12590.0
 21
-1388.9999999999959
 31
0.0
1001
ACDBBLOCKREPETAG
1070
     1
1071
      132
1005
12A795
  0
LINE
  5
12A796
  8
OBJECT
 10
12424.0
 20
-1375.0
 30
0.0
 11
12590.0
 21
-1375.0
 31
0.0
1001
ACDBBLOCKREPETAG
1070
     1
1071
      133
1005
12A796
  0
LINE
  5
12A797
  8
OBJECT
 10
12432.49999999998
 20
-1364.9999999999991
 30
0.0
 11
12432.49999999998
 21
-1375.0
 31
0.0
1001
ACDBBLOCKREPETAG
1070
     1
1071
      134
1005
12A797
  0
LINE
  5
12A798
  8
OBJECT
 10
12434.0
 20
-1313.9999999999959
 30
0.0
 11
12565.999999999991
 21
-1313.9999999999959
 31
0.0
1001
ACDBBLOCKREPETAG
1070
     1
1071
      135
1005
12A798
  0
LINE
  5
12A799
  8
OBJECT
 10
12424.0
 20
-1364.9999999999991
 30
0.0
 11
12424.0
 21
-1349.9999999999959
 31
0.0
1001
ACDBBLOCKREPETAG
1070
     1
1071
      136
1005
12A799
  0
LINE
  5
12A79A
  8
HIDDEN
 10
12443.0
 20
-1324.9999999999991
 30
0.0
 11
12557.0
 21
-1324.9999999999991
 31
0.0
1001
ACDBBLOCKREPETAG
1070
     1
1071
      137
1005
12A79A
  0
LINE
  5
12A79B
  8
OBJECT
 10
12586.999999999991
 20
-1348.2
 30
0.0
 11
12586.999999999991
 21
-1349.9999999999991
 31
0.0
1001
ACDBBLOCKREPETAG
1070
     1
1071
      138
1005
12A79B
  0
LINE
  5
12A79C
  8
OBJECT
 10
12568.999999999991
 20
-1348.2
 30
0.0
 11
12568.999999999991
 21
-1349.9999999999991
 31
0.0
1001
ACDBBLOCKREPETAG
1070
     1
1071
      139
1005
12A79C
  0
LINE
  5
12A79D
  8
OBJECT
 10
12572.249999999991
 20
-1338.5
 30
0.0
 11
12583.749999999991
 21
-1338.5
 31
0.0
1001
ACDBBLOCKREPETAG
1070
     1
1071
      140
1005
12A79D
  0
LINE
  5
12A79E
  8
OBJECT
 10
12572.249999999991
 20
-1338.5
 30
0.0
 11
12572.249999999991
 21
-1348.2
 31
0.0
1001
ACDBBLOCKREPETAG
1070
     1
1071
      141
1005
12A79E
  0
LINE
  5
12A79F
  8
OBJECT
 10
12583.749999999991
 20
-1338.5
 30
0.0
 11
12583.749999999991
 21
-1348.2
 31
0.0
1001
ACDBBLOCKREPETAG
1070
     1
1071
      142
1005
12A79F
  0
LINE
  5
12A7A0
  8
OBJECT
 10
12431.99999999998
 20
-1429.9999999999991
 30
0.0
 11
12567.99999999998
 21
-1429.9999999999991
 31
0.0
1001
ACDBBLOCKREPETAG
1070
     1
1071
      143
1005
12A7A0
  0
LINE
  5
12A7A1
  8
OBJECT
 10
12431.99999999998
 20
-1429.9999999999991
 30
0.0
 11
12431.99999999998
 21
-1388.9999999999991
 31
0.0
1001
ACDBBLOCKREPETAG
1070
     1
1071
      144
1005
12A7A1
  0
LINE
  5
12A7A2
  8
OBJECT
 10
12567.99999999998
 20
-1429.9999999999991
 30
0.0
 11
12567.99999999998
 21
-1388.9999999999991
 31
0.0
1001
ACDBBLOCKREPETAG
1070
     1
1071
      145
1005
12A7A2
  0
LINE
  5
12A7A3
  8
OBJECT
 10
12586.999999999991
 20
-1348.2
 30
0.0
 11
12568.999999999991
 21
-1348.2
 31
0.0
1001
ACDBBLOCKREPETAG
1070
     1
1071
      146
1005
12A7A3
  0
LINE
  5
12A7A4
  8
CENTER
 10
12500.0
 20
-1054.9999999999991
 30
0.0
 11
12500.0
 21
-1444.9999999999991
 31
0.0
1001
ACDBBLOCKREPETAG
1070
     1
1071
      147
1005
12A7A4
  0
LINE
  5
12A7A5
  8
OBJECT
 10
12425.0
 20
-1054.9999999999991
 30
0.0
 11
12425.0
 21
-1136.9999999999959
 31
0.0
1001
ACDBBLOCKREPETAG
1070
     1
1071
      148
1005
12A7A5
  0
LINE
  5
12A7A6
  8
OBJECT
 10
12575.0
 20
-1054.9999999999991
 30
0.0
 11
12575.0
 21
-1136.999999999992
 31
0.0
1001
ACDBBLOCKREPETAG
1070
     1
1071
      149
1005
12A7A6
  0
LINE
  5
12A7A7
  8
OBJECT
 10
12425.0
 20
-1136.9999999999959
 30
0.0
 11
12575.0
 21
-1136.999999999992
 31
0.0
1001
ACDBBLOCKREPETAG
1070
     1
1071
      150
1005
12A7A7
  0
LINE
  5
12A7A8
  8
OBJECT
 10
12443.0
 20
-1313.9999999999959
 30
0.0
 11
12443.0
 21
-1264.999999999992
 31
0.0
1001
ACDBBLOCKREPETAG
1070
     1
1071
      151
1005
12A7A8
  0
LINE
  5
12A7A9
  8
OBJECT
 10
12557.0
 20
-1264.999999999992
 30
0.0
 11
12443.0
 21
-1264.999999999992
 31
0.0
1001
ACDBBLOCKREPETAG
1070
     1
1071
      152
1005
12A7A9
  0
LINE
  5
12A7AA
  8
OBJECT
 10
12557.0
 20
-1264.999999999992
 30
0.0
 11
12557.0
 21
-1313.9999999999959
 31
0.0
1001
ACDBBLOCKREPETAG
1070
     1
1071
      153
1005
12A7AA
  0
LINE
  5
12A7AB
  8
OBJECT
 10
12425.0
 20
-1136.9999999999959
 30
0.0
 11
12443.0
 21
-1264.999999999992
 31
0.0
1001
ACDBBLOCKREPETAG
1070
     1
1071
      154
1005
12A7AB
  0
LINE
  5
12A7AC
  8
OBJECT
 10
12557.0
 20
-1264.999999999992
 30
0.0
 11
12575.0
 21
-1136.999999999992
 31
0.0
1001
ACDBBLOCKREPETAG
1070
     1
1071
      155
1005
12A7AC
  0
LINE
  5
12A7AD
  8
OBJECT
 10
12434.0
 20
-1349.9999999999959
 30
0.0
 11
12434.0
 21
-1313.9999999999959
 31
0.0
1001
ACDBBLOCKREPETAG
1070
     1
1071
      156
1005
12A7AD
  0
LINE
  5
12A7AE
  8
OBJECT
 10
12566.0
 20
-1349.9999999999959
 30
0.0
 11
12565.999999999991
 21
-1313.9999999999959
 31
0.0
1001
ACDBBLOCKREPETAG
1070
     1
1071
      157
1005
12A7AE
  0
LINE
  5
12A7AF
  8
OBJECT
 10
12454.75
 20
-1339.699999999993
 30
0.0
 11
12467.25
 21
-1339.699999999993
 31
0.0
1001
ACDBBLOCKREPETAG
1070
     1
1071
      158
1005
12A7AF
  0
LINE
  5
12A7B0
  8
OBJECT
 10
12446.0
 20
-1349.9999999999959
 30
0.0
 11
12446.0
 21
-1347.6999999999971
 31
0.0
1001
ACDBBLOCKREPETAG
1070
     1
1071
      159
1005
12A7B0
  0
LINE
  5
12A7B1
  8
OBJECT
 10
12476.0
 20
-1349.9999999999959
 30
0.0
 11
12476.0
 21
-1347.6999999999971
 31
0.0
1001
ACDBBLOCKREPETAG
1070
     1
1071
      160
1005
12A7B1
  0
LINE
  5
12A7B2
  8
OBJECT
 10
12454.75
 20
-1339.699999999993
 30
0.0
 11
12454.75
 21
-1347.6999999999971
 31
0.0
1001
ACDBBLOCKREPETAG
1070
     1
1071
      161
1005
12A7B2
  0
LINE
  5
12A7B3
  8
OBJECT
 10
12467.25
 20
-1339.699999999993
 30
0.0
 11
12467.25
 21
-1347.6999999999971
 31
0.0
1001
ACDBBLOCKREPETAG
1070
     1
1071
      162
1005
12A7B3
  0
LINE
  5
12A7B4
  8
OBJECT
 10
12446.0
 20
-1347.6999999999971
 30
0.0
 11
12476.0
 21
-1347.6999999999971
 31
0.0
1001
ACDBBLOCKREPETAG
1070
     1
1071
      163
1005
12A7B4
  0
LINE
  5
12A7B5
  8
OBJECT
 10
12453.0
 20
-1388.9999999999959
 30
0.0
 11
12453.0
 21
-1398.9999999999959
 31
0.0
1001
ACDBBLOCKREPETAG
1070
     1
1071
      164
1005
12A7B5
  0
LINE
  5
12A7B6
  8
OBJECT
 10
12469.0
 20
-1388.9999999999959
 30
0.0
 11
12469.0
 21
-1398.9999999999959
 31
0.0
1001
ACDBBLOCKREPETAG
1070
     1
1071
      165
1005
12A7B6
  0
LINE
  5
12A7B7
  8
OBJECT
 10
12453.0
 20
-1398.9999999999959
 30
0.0
 11
12469.0
 21
-1398.9999999999959
 31
0.0
1001
ACDBBLOCKREPETAG
1070
     1
1071
      166
1005
12A7B7
  0
LINE
  5
12A7B8
  8
OBJECT
 10
12466.0
 20
-1374.9999999999959
 30
0.0
 11
12466.0
 21
-1364.9999999999959
 31
0.0
1001
ACDBBLOCKREPETAG
1070
     1
1071
      167
1005
12A7B8
  0
LINE
  5
12A7B9
  8
OBJECT
 10
12456.0
 20
-1374.9999999999959
 30
0.0
 11
12456.0
 21
-1364.9999999999959
 31
0.0
1001
ACDBBLOCKREPETAG
1070
     1
1071
      168
1005
12A7B9
  0
LINE
  5
12A7BA
  8
OBJECT
 10
10590.0
 20
-1349.9999999999959
 30
0.0
 11
10424.0
 21
-1349.9999999999959
 31
0.0
1001
ACDBBLOCKREPETAG
1070
     1
1071
       12
1005
12A7BA
  0
LINE
  5
12A7BB
  8
OBJECT
 10
10566.0
 20
-1313.9999999999959
 30
0.0
 11
10434.0
 21
-1313.9999999999959
 31
0.0
1001
ACDBBLOCKREPETAG
1070
     1
1071
       13
1005
12A7BB
  0
LINE
  5
12A7BC
  8
OBJECT
 10
10590.0
 20
-1365.0
 30
0.0
 11
10590.0
 21
-1349.9999999999959
 31
0.0
1001
ACDBBLOCKREPETAG
1070
     1
1071
       14
1005
12A7BC
  0
LINE
  5
12A7BD
  8
OBJECT
 10
10424.0
 20
-1365.0
 30
0.0
 11
10590.0
 21
-1365.0
 31
0.0
1001
ACDBBLOCKREPETAG
1070
     1
1071
       15
1005
12A7BD
  0
LINE
  5
12A7BE
  8
OBJECT
 10
10567.49999999998
 20
-1365.0
 30
0.0
 11
10567.49999999998
 21
-1375.0
 31
0.0
1001
ACDBBLOCKREPETAG
1070
     1
1071
       16
1005
12A7BE
  0
LINE
  5
12A7BF
  8
OBJECT
 10
10424.0
 20
-1375.0
 30
0.0
 11
10424.0
 21
-1388.9999999999959
 31
0.0
1001
ACDBBLOCKREPETAG
1070
     1
1071
       17
1005
12A7BF
  0
LINE
  5
12A7C0
  8
OBJECT
 10
10590.0
 20
-1375.0
 30
0.0
 11
10590.0
 21
-1388.9999999999959
 31
0.0
1001
ACDBBLOCKREPETAG
1070
     1
1071
       18
1005
12A7C0
  0
LINE
  5
12A7C1
  8
OBJECT
 10
10424.0
 20
-1388.9999999999959
 30
0.0
 11
10590.0
 21
-1388.9999999999959
 31
0.0
1001
ACDBBLOCKREPETAG
1070
     1
1071
       19
1005
12A7C1
  0
LINE
  5
12A7C2
  8
OBJECT
 10
10424.0
 20
-1375.0
 30
0.0
 11
10590.0
 21
-1375.0
 31
0.0
1001
ACDBBLOCKREPETAG
1070
     1
1071
       20
1005
12A7C2
  0
LINE
  5
12A7C3
  8
OBJECT
 10
10432.49999999998
 20
-1365.0
 30
0.0
 11
10432.49999999998
 21
-1375.0
 31
0.0
1001
ACDBBLOCKREPETAG
1070
     1
1071
       21
1005
12A7C3
  0
LINE
  5
12A7C4
  8
OBJECT
 10
10424.0
 20
-1365.0
 30
0.0
 11
10424.0
 21
-1349.9999999999959
 31
0.0
1001
ACDBBLOCKREPETAG
1070
     1
1071
       22
1005
12A7C4
  0
LINE
  5
12A7C5
  8
HIDDEN
 10
10443.0
 20
-1325.0
 30
0.0
 11
10557.0
 21
-1325.0
 31
0.0
1001
ACDBBLOCKREPETAG
1070
     1
1071
       23
1005
12A7C5
  0
LINE
  5
12A7C6
  8
CENTER
 10
10500.0
 20
-1055.0
 30
0.0
 11
10500.0
 21
-1403.9999999999959
 31
0.0
1001
ACDBBLOCKREPETAG
1070
     1
1071
       24
1005
12A7C6
  0
LINE
  5
12A7C7
  8
OBJECT
 10
10425.0
 20
-1055.0
 30
0.0
 11
10425.0
 21
-1136.9999999999959
 31
0.0
1001
ACDBBLOCKREPETAG
1070
     1
1071
       25
1005
12A7C7
  0
LINE
  5
12A7C8
  8
OBJECT
 10
10575.0
 20
-1055.0
 30
0.0
 11
10575.0
 21
-1136.999999999993
 31
0.0
1001
ACDBBLOCKREPETAG
1070
     1
1071
       26
1005
12A7C8
  0
LINE
  5
12A7C9
  8
OBJECT
 10
10425.0
 20
-1136.9999999999959
 30
0.0
 11
10575.0
 21
-1136.999999999993
 31
0.0
1001
ACDBBLOCKREPETAG
1070
     1
1071
       27
1005
12A7C9
  0
LINE
  5
12A7CA
  8
OBJECT
 10
10557.0
 20
-1313.9999999999959
 30
0.0
 11
10557.0
 21
-1264.999999999993
 31
0.0
1001
ACDBBLOCKREPETAG
1070
     1
1071
       28
1005
12A7CA
  0
LINE
  5
12A7CB
  8
OBJECT
 10
10443.0
 20
-1313.9999999999959
 30
0.0
 11
10443.0
 21
-1264.999999999993
 31
0.0
1001
ACDBBLOCKREPETAG
1070
     1
1071
       29
1005
12A7CB
  0
LINE
  5
12A7CC
  8
OBJECT
 10
10557.0
 20
-1264.999999999993
 30
0.0
 11
10443.0
 21
-1264.999999999993
 31
0.0
1001
ACDBBLOCKREPETAG
1070
     1
1071
       30
1005
12A7CC
  0
LINE
  5
12A7CD
  8
OBJECT
 10
10425.0
 20
-1136.9999999999959
 30
0.0
 11
10443.0
 21
-1264.999999999993
 31
0.0
1001
ACDBBLOCKREPETAG
1070
     1
1071
       31
1005
12A7CD
  0
LINE
  5
12A7CE
  8
OBJECT
 10
10557.0
 20
-1264.999999999993
 30
0.0
 11
10575.0
 21
-1136.999999999993
 31
0.0
1001
ACDBBLOCKREPETAG
1070
     1
1071
       32
1005
12A7CE
  0
LINE
  5
12A7CF
  8
OBJECT
 10
10434.0
 20
-1313.9999999999959
 30
0.0
 11
10434.0
 21
-1349.9999999999959
 31
0.0
1001
ACDBBLOCKREPETAG
1070
     1
1071
       33
1005
12A7CF
  0
LINE
  5
12A7D0
  8
OBJECT
 10
10566.0
 20
-1313.9999999999959
 30
0.0
 11
10566.0
 21
-1349.9999999999959
 31
0.0
1001
ACDBBLOCKREPETAG
1070
     1
1071
       34
1005
12A7D0
  0
LINE
  5
12A7D1
  8
OBJECT
 10
10582.999999999991
 20
-1374.9999999999959
 30
0.0
 11
10582.999999999991
 21
-1364.9999999999959
 31
0.0
1001
ACDBBLOCKREPETAG
1070
     1
1071
       35
1005
12A7D1
  0
LINE
  5
12A7D2
  8
OBJECT
 10
10572.999999999991
 20
-1374.9999999999959
 30
0.0
 11
10572.999999999991
 21
-1364.9999999999959
 31
0.0
1001
ACDBBLOCKREPETAG
1070
     1
1071
       36
1005
12A7D2
  0
LINE
  5
12A7D3
  8
OBJECT
 10
10568.99999999998
 20
-1344.9999999999959
 30
0.0
 11
10568.99999999998
 21
-1349.9999999999959
 31
0.0
1001
ACDBBLOCKREPETAG
1070
     1
1071
       37
1005
12A7D3
  0
LINE
  5
12A7D4
  8
OBJECT
 10
10587.0
 20
-1344.9999999999959
 30
0.0
 11
10587.0
 21
-1349.9999999999959
 31
0.0
1001
ACDBBLOCKREPETAG
1070
     1
1071
       38
1005
12A7D4
  0
LINE
  5
12A7D5
  8
OBJECT
 10
10587.0
 20
-1344.9999999999959
 30
0.0
 11
10568.99999999998
 21
-1344.9999999999959
 31
0.0
1001
ACDBBLOCKREPETAG
1070
     1
1071
       39
1005
12A7D5
  0
LINE
  5
12A7D6
  8
OBJECT
 10
10573.0
 20
-1396.9999999999959
 30
0.0
 11
10573.0
 21
-1399.9999999999959
 31
0.0
1001
ACDBBLOCKREPETAG
1070
     1
1071
       40
1005
12A7D6
  0
LINE
  5
12A7D7
  8
OBJECT
 10
10573.0
 20
-1399.9999999999959
 30
0.0
 11
10583.0
 21
-1399.9999999999959
 31
0.0
1001
ACDBBLOCKREPETAG
1070
     1
1071
       41
1005
12A7D7
  0
LINE
  5
12A7D8
  8
OBJECT
 10
10583.0
 20
-1399.9999999999959
 30
0.0
 11
10583.0
 21
-1396.9999999999959
 31
0.0
1001
ACDBBLOCKREPETAG
1070
     1
1071
       43
1005
12A7D8
  0
LINE
  5
12A7D9
  8
OBJECT
 10
10468.5
 20
-1344.9999999999959
 30
0.0
 11
10451.999999999991
 21
-1344.9999999999959
 31
0.0
1001
ACDBBLOCKREPETAG
1070
     1
1071
       48
1005
12A7D9
  0
LINE
  5
12A7DA
  8
OBJECT
 10
10476.0
 20
-1349.9999999999959
 30
0.0
 11
10476.0
 21
-1347.9999999999959
 31
0.0
1001
ACDBBLOCKREPETAG
1070
     1
1071
       49
1005
12A7DA
  0
LINE
  5
12A7DB
  8
OBJECT
 10
10466.0
 20
-1374.9999999999959
 30
0.0
 11
10466.0
 21
-1364.9999999999959
 31
0.0
1001
ACDBBLOCKREPETAG
1070
     1
1071
       50
1005
12A7DB
  0
LINE
  5
12A7DC
  8
OBJECT
 10
10456.0
 20
-1374.9999999999959
 30
0.0
 11
10456.0
 21
-1364.9999999999959
 31
0.0
1001
ACDBBLOCKREPETAG
1070
     1
1071
       51
1005
12A7DC
  0
LINE
  5
12A7DD
  8
OBJECT
 10
10451.999999999991
 20
-1344.9999999999959
 30
0.0
 11
10451.999999999991
 21
-1349.9999999999959
 31
0.0
1001
ACDBBLOCKREPETAG
1070
     1
1071
       52
1005
12A7DD
  0
LINE
  5
12A7DE
  8
OBJECT
 10
10456.0
 20
-1396.9999999999959
 30
0.0
 11
10456.0
 21
-1399.9999999999959
 31
0.0
1001
ACDBBLOCKREPETAG
1070
     1
1071
       53
1005
12A7DE
  0
LINE
  5
12A7DF
  8
OBJECT
 10
10456.0
 20
-1399.9999999999959
 30
0.0
 11
10466.0
 21
-1399.9999999999959
 31
0.0
1001
ACDBBLOCKREPETAG
1070
     1
1071
       54
1005
12A7DF
  0
LINE
  5
12A7E0
  8
OBJECT
 10
10451.18504542377
 20
-1396.9999999999959
 30
0.0
 11
10470.814954576221
 21
-1396.9999999999959
 31
0.0
1001
ACDBBLOCKREPETAG
1070
     1
1071
       55
1005
12A7E0
  0
LINE
  5
12A7E1
  8
OBJECT
 10
10466.0
 20
-1399.9999999999959
 30
0.0
 11
10466.0
 21
-1396.9999999999959
 31
0.0
1001
ACDBBLOCKREPETAG
1070
     1
1071
       56
1005
12A7E1
  0
LINE
  5
12A7E2
  8
OBJECT
 10
10476.0
 20
-1347.9999999999959
 30
0.0
 11
10468.5
 21
-1344.9999999999959
 31
0.0
1001
ACDBBLOCKREPETAG
1070
     1
1071
       57
1005
12A7E2
  0
LINE
  5
12A7E3
  8
OBJECT
 10
10451.18504542377
 20
-1388.9999999999959
 30
0.0
 11
10451.18504542377
 21
-1396.9999999999959
 31
0.0
1001
ACDBBLOCKREPETAG
1070
     1
1071
      630
1005
12A7E3
  0
LINE
  5
12A7E4
  8
OBJECT
 10
10456.09252271189
 20
-1388.9999999999959
 30
0.0
 11
10456.09252271189
 21
-1396.9999999999959
 31
0.0
1001
ACDBBLOCKREPETAG
1070
     1
1071
      631
1005
12A7E4
  0
LINE
  5
12A7E5
  8
OBJECT
 10
10465.90747728811
 20
-1388.9999999999959
 30
0.0
 11
10465.90747728811
 21
-1396.9999999999959
 31
0.0
1001
ACDBBLOCKREPETAG
1070
     1
1071
      632
1005
12A7E5
  0
LINE
  5
12A7E6
  8
OBJECT
 10
10470.814954576221
 20
-1388.9999999999959
 30
0.0
 11
10470.814954576221
 21
-1396.9999999999959
 31
0.0
1001
ACDBBLOCKREPETAG
1070
     1
1071
      633
1005
12A7E6
  0
LINE
  5
12A7E7
  8
OBJECT
 10
10568.18504542377
 20
-1396.9999999999959
 30
0.0
 11
10587.814954576221
 21
-1396.9999999999959
 31
0.0
1001
ACDBBLOCKREPETAG
1070
     1
1071
      634
1005
12A7E7
  0
LINE
  5
12A7E8
  8
OBJECT
 10
10568.18504542377
 20
-1388.9999999999959
 30
0.0
 11
10568.18504542377
 21
-1396.9999999999959
 31
0.0
1001
ACDBBLOCKREPETAG
1070
     1
1071
      635
1005
12A7E8
  0
LINE
  5
12A7E9
  8
OBJECT
 10
10573.09252271189
 20
-1388.9999999999959
 30
0.0
 11
10573.09252271189
 21
-1396.9999999999959
 31
0.0
1001
ACDBBLOCKREPETAG
1070
     1
1071
      636
1005
12A7E9
  0
LINE
  5
12A7EA
  8
OBJECT
 10
10582.90747728811
 20
-1388.9999999999959
 30
0.0
 11
10582.90747728811
 21
-1396.9999999999959
 31
0.0
1001
ACDBBLOCKREPETAG
1070
     1
1071
      637
1005
12A7EA
  0
LINE
  5
12A7EB
  8
OBJECT
 10
10587.814954576221
 20
-1388.9999999999959
 30
0.0
 11
10587.814954576221
 21
-1396.9999999999959
 31
0.0
1001
ACDBBLOCKREPETAG
1070
     1
1071
      638
1005
12A7EB
  0
LINE
  5
12A7EC
  8
OBJECT
 10
8443.0
 20
-1364.9999999999959
 30
0.0
 11
8557.0
 21
-1364.9999999999959
 31
0.0
1001
ACDBBLOCKREPETAG
1070
     1
1071
        0
1005
12A7EC
  0
LINE
  5
12A7ED
  8
OBJECT
 10
8443.0
 20
-1364.9999999999959
 30
0.0
 11
8443.0
 21
-1264.9999999999959
 31
0.0
1001
ACDBBLOCKREPETAG
1070
     1
1071
        1
1005
12A7ED
  0
LINE
  5
12A7EE
  8
OBJECT
 10
8557.0
 20
-1364.9999999999959
 30
0.0
 11
8557.0
 21
-1264.9999999999959
 31
0.0
1001
ACDBBLOCKREPETAG
1070
     1
1071
        2
1005
12A7EE
  0
LINE
  5
12A7EF
  8
OBJECT
 10
8443.0
 20
-1264.9999999999959
 30
0.0
 11
8557.0
 21
-1264.9999999999959
 31
0.0
1001
ACDBBLOCKREPETAG
1070
     1
1071
        3
1005
12A7EF
  0
LINE
  5
12A7F0
  8
HIDDEN
 10
8450.0
 20
-1264.9999999999959
 30
0.0
 11
8450.0
 21
-1364.9999999999959
 31
0.0
1001
ACDBBLOCKREPETAG
1070
     1
1071
        4
1005
12A7F0
  0
LINE
  5
12A7F1
  8
HIDDEN
 10
8550.0
 20
-1264.9999999999959
 30
0.0
 11
8550.0
 21
-1364.9999999999959
 31
0.0
1001
ACDBBLOCKREPETAG
1070
     1
1071
        5
1005
12A7F1
  0
LINE
  5
12A7F2
  8
CENTER
 10
8500.0
 20
-1055.0
 30
0.0
 11
8500.0
 21
-1379.9999999999959
 31
0.0
1001
ACDBBLOCKREPETAG
1070
     1
1071
        6
1005
12A7F2
  0
LINE
  5
12A7F3
  8
OBJECT
 10
8425.0
 20
-1055.0
 30
0.0
 11
8425.0
 21
-1136.9999999999959
 31
0.0
1001
ACDBBLOCKREPETAG
1070
     1
1071
        7
1005
12A7F3
  0
LINE
  5
12A7F4
  8
OBJECT
 10
8575.0
 20
-1055.0
 30
0.0
 11
8575.0
 21
-1136.9999999999959
 31
0.0
1001
ACDBBLOCKREPETAG
1070
     1
1071
        8
1005
12A7F4
  0
LINE
  5
12A7F5
  8
OBJECT
 10
8425.0
 20
-1136.9999999999959
 30
0.0
 11
8575.0
 21
-1136.9999999999959
 31
0.0
1001
ACDBBLOCKREPETAG
1070
     1
1071
        9
1005
12A7F5
  0
LINE
  5
12A7F6
  8
OBJECT
 10
8425.0
 20
-1136.9999999999959
 30
0.0
 11
8443.0
 21
-1264.9999999999959
 31
0.0
1001
ACDBBLOCKREPETAG
1070
     1
1071
       10
1005
12A7F6
  0
LINE
  5
12A7F7
  8
OBJECT
 10
8557.0
 20
-1264.9999999999959
 30
0.0
 11
8575.0
 21
-1136.9999999999959
 31
0.0
1001
ACDBBLOCKREPETAG
1070
     1
1071
       11
1005
12A7F7
  0
LINE
  5
12A7F8
  8
OBJECT
 10
6585.9999999999927
 20
-1388.9999999999991
 30
0.0
 11
6585.9999999999927
 21
-1398.9999999999991
 31
0.0
1001
ACDBBLOCKREPETAG
1070
     1
1071
      121
1005
12A7F8
  0
LINE
  5
12A7F9
  8
OBJECT
 10
6569.9999999999927
 20
-1388.9999999999991
 30
0.0
 11
6569.9999999999927
 21
-1398.9999999999991
 31
0.0
1001
ACDBBLOCKREPETAG
1070
     1
1071
      122
1005
12A7F9
  0
LINE
  5
12A7FA
  8
OBJECT
 10
6585.9999999999927
 20
-1398.9999999999991
 30
0.0
 11
6569.9999999999927
 21
-1398.9999999999991
 31
0.0
1001
ACDBBLOCKREPETAG
1070
     1
1071
      123
1005
12A7FA
  0
LINE
  5
12A7FB
  8
OBJECT
 10
6590.0
 20
-1349.9999999999959
 30
0.0
 11
6424.0
 21
-1349.9999999999959
 31
0.0
1001
ACDBBLOCKREPETAG
1070
     1
1071
      124
1005
12A7FB
  0
LINE
  5
12A7FC
  8
OBJECT
 10
6590.0
 20
-1364.9999999999991
 30
0.0
 11
6590.0
 21
-1349.9999999999959
 31
0.0
1001
ACDBBLOCKREPETAG
1070
     1
1071
      125
1005
12A7FC
  0
LINE
  5
12A7FD
  8
OBJECT
 10
6424.0
 20
-1364.9999999999991
 30
0.0
 11
6590.0
 21
-1364.9999999999991
 31
0.0
1001
ACDBBLOCKREPETAG
1070
     1
1071
      126
1005
12A7FD
  0
LINE
  5
12A7FE
  8
OBJECT
 10
6567.4999999999873
 20
-1364.9999999999991
 30
0.0
 11
6567.4999999999873
 21
-1375.0
 31
0.0
1001
ACDBBLOCKREPETAG
1070
     1
1071
      127
1005
12A7FE
  0
LINE
  5
12A7FF
  8
OBJECT
 10
6572.9999999999927
 20
-1375.0
 30
0.0
 11
6572.9999999999927
 21
-1364.9999999999991
 31
0.0
1001
ACDBBLOCKREPETAG
1070
     1
1071
      128
1005
12A7FF
  0
LINE
  5
12A800
  8
OBJECT
 10
6582.9999999999927
 20
-1375.0
 30
0.0
 11
6582.9999999999927
 21
-1364.9999999999991
 31
0.0
1001
ACDBBLOCKREPETAG
1070
     1
1071
      129
1005
12A800
  0
LINE
  5
12A801
  8
OBJECT
 10
6424.0
 20
-1375.0
 30
0.0
 11
6424.0
 21
-1388.9999999999959
 31
0.0
1001
ACDBBLOCKREPETAG
1070
     1
1071
      130
1005
12A801
  0
LINE
  5
12A802
  8
OBJECT
 10
6590.0
 20
-1375.0
 30
0.0
 11
6590.0
 21
-1388.9999999999959
 31
0.0
1001
ACDBBLOCKREPETAG
1070
     1
1071
      131
1005
12A802
  0
LINE
  5
12A803
  8
OBJECT
 10
6424.0
 20
-1388.9999999999959
 30
0.0
 11
6590.0
 21
-1388.9999999999959
 31
0.0
1001
ACDBBLOCKREPETAG
1070
     1
1071
      132
1005
12A803
  0
LINE
  5
12A804
  8
OBJECT
 10
6424.0
 20
-1375.0
 30
0.0
 11
6590.0
 21
-1375.0
 31
0.0
1001
ACDBBLOCKREPETAG
1070
     1
1071
      133
1005
12A804
  0
LINE
  5
12A805
  8
OBJECT
 10
6432.4999999999864
 20
-1364.9999999999991
 30
0.0
 11
6432.4999999999864
 21
-1375.0
 31
0.0
1001
ACDBBLOCKREPETAG
1070
     1
1071
      134
1005
12A805
  0
LINE
  5
12A806
  8
OBJECT
 10
6434.0
 20
-1313.9999999999959
 30
0.0
 11
6565.9999999999918
 21
-1313.9999999999959
 31
0.0
1001
ACDBBLOCKREPETAG
1070
     1
1071
      135
1005
12A806
  0
LINE
  5
12A807
  8
OBJECT
 10
6424.0
 20
-1364.9999999999991
 30
0.0
 11
6424.0
 21
-1349.9999999999959
 31
0.0
1001
ACDBBLOCKREPETAG
1070
     1
1071
      136
1005
12A807
  0
LINE
  5
12A808
  8
HIDDEN
 10
6443.0
 20
-1324.9999999999991
 30
0.0
 11
6557.0
 21
-1324.9999999999991
 31
0.0
1001
ACDBBLOCKREPETAG
1070
     1
1071
      137
1005
12A808
  0
LINE
  5
12A809
  8
OBJECT
 10
6586.9999999999927
 20
-1348.2
 30
0.0
 11
6586.9999999999927
 21
-1349.9999999999991
 31
0.0
1001
ACDBBLOCKREPETAG
1070
     1
1071
      138
1005
12A809
  0
LINE
  5
12A80A
  8
OBJECT
 10
6568.9999999999909
 20
-1348.2
 30
0.0
 11
6568.9999999999909
 21
-1349.9999999999991
 31
0.0
1001
ACDBBLOCKREPETAG
1070
     1
1071
      139
1005
12A80A
  0
LINE
  5
12A80B
  8
OBJECT
 10
6572.2499999999927
 20
-1338.5
 30
0.0
 11
6583.7499999999927
 21
-1338.5
 31
0.0
1001
ACDBBLOCKREPETAG
1070
     1
1071
      140
1005
12A80B
  0
LINE
  5
12A80C
  8
OBJECT
 10
6572.2499999999927
 20
-1338.5
 30
0.0
 11
6572.2499999999927
 21
-1348.2
 31
0.0
1001
ACDBBLOCKREPETAG
1070
     1
1071
      141
1005
12A80C
  0
LINE
  5
12A80D
  8
OBJECT
 10
6583.7499999999927
 20
-1338.5
 30
0.0
 11
6583.7499999999927
 21
-1348.2
 31
0.0
1001
ACDBBLOCKREPETAG
1070
     1
1071
      142
1005
12A80D
  0
LINE
  5
12A80E
  8
OBJECT
 10
6431.9999999999873
 20
-1429.9999999999991
 30
0.0
 11
6567.9999999999873
 21
-1429.9999999999991
 31
0.0
1001
ACDBBLOCKREPETAG
1070
     1
1071
      143
1005
12A80E
  0
LINE
  5
12A80F
  8
OBJECT
 10
6431.9999999999873
 20
-1429.9999999999991
 30
0.0
 11
6431.9999999999873
 21
-1388.9999999999991
 31
0.0
1001
ACDBBLOCKREPETAG
1070
     1
1071
      144
1005
12A80F
  0
LINE
  5
12A810
  8
OBJECT
 10
6567.9999999999873
 20
-1429.9999999999991
 30
0.0
 11
6567.9999999999873
 21
-1388.9999999999991
 31
0.0
1001
ACDBBLOCKREPETAG
1070
     1
1071
      145
1005
12A810
  0
LINE
  5
12A811
  8
OBJECT
 10
6586.9999999999927
 20
-1348.2
 30
0.0
 11
6568.9999999999909
 21
-1348.2
 31
0.0
1001
ACDBBLOCKREPETAG
1070
     1
1071
      146
1005
12A811
  0
LINE
  5
12A812
  8
CENTER
 10
6500.0
 20
-1054.9999999999991
 30
0.0
 11
6500.0
 21
-1444.9999999999991
 31
0.0
1001
ACDBBLOCKREPETAG
1070
     1
1071
      147
1005
12A812
  0
LINE
  5
12A813
  8
OBJECT
 10
6425.0
 20
-1054.9999999999991
 30
0.0
 11
6425.0
 21
-1136.9999999999959
 31
0.0
1001
ACDBBLOCKREPETAG
1070
     1
1071
      148
1005
12A813
  0
LINE
  5
12A814
  8
OBJECT
 10
6575.0
 20
-1054.9999999999991
 30
0.0
 11
6575.0
 21
-1136.999999999992
 31
0.0
1001
ACDBBLOCKREPETAG
1070
     1
1071
      149
1005
12A814
  0
LINE
  5
12A815
  8
OBJECT
 10
6425.0
 20
-1136.9999999999959
 30
0.0
 11
6575.0
 21
-1136.999999999992
 31
0.0
1001
ACDBBLOCKREPETAG
1070
     1
1071
      150
1005
12A815
  0
LINE
  5
12A816
  8
OBJECT
 10
6443.0
 20
-1313.9999999999959
 30
0.0
 11
6443.0
 21
-1264.999999999992
 31
0.0
1001
ACDBBLOCKREPETAG
1070
     1
1071
      151
1005
12A816
  0
LINE
  5
12A817
  8
OBJECT
 10
6557.0
 20
-1264.999999999992
 30
0.0
 11
6443.0
 21
-1264.999999999992
 31
0.0
1001
ACDBBLOCKREPETAG
1070
     1
1071
      152
1005
12A817
  0
LINE
  5
12A818
  8
OBJECT
 10
6557.0
 20
-1264.999999999992
 30
0.0
 11
6557.0
 21
-1313.9999999999959
 31
0.0
1001
ACDBBLOCKREPETAG
1070
     1
1071
      153
1005
12A818
  0
LINE
  5
12A819
  8
OBJECT
 10
6425.0
 20
-1136.9999999999959
 30
0.0
 11
6443.0
 21
-1264.999999999992
 31
0.0
1001
ACDBBLOCKREPETAG
1070
     1
1071
      154
1005
12A819
  0
LINE
  5
12A81A
  8
OBJECT
 10
6557.0
 20
-1264.999999999992
 30
0.0
 11
6575.0
 21
-1136.999999999992
 31
0.0
1001
ACDBBLOCKREPETAG
1070
     1
1071
      155
1005
12A81A
  0
LINE
  5
12A81B
  8
OBJECT
 10
6434.0
 20
-1349.9999999999959
 30
0.0
 11
6434.0
 21
-1313.9999999999959
 31
0.0
1001
ACDBBLOCKREPETAG
1070
     1
1071
      156
1005
12A81B
  0
LINE
  5
12A81C
  8
OBJECT
 10
6566.0
 20
-1349.9999999999959
 30
0.0
 11
6565.9999999999918
 21
-1313.9999999999959
 31
0.0
1001
ACDBBLOCKREPETAG
1070
     1
1071
      157
1005
12A81C
  0
LINE
  5
12A81D
  8
OBJECT
 10
6454.75
 20
-1339.699999999993
 30
0.0
 11
6467.2499999999991
 21
-1339.699999999993
 31
0.0
1001
ACDBBLOCKREPETAG
1070
     1
1071
      158
1005
12A81D
  0
LINE
  5
12A81E
  8
OBJECT
 10
6446.0
 20
-1349.9999999999959
 30
0.0
 11
6446.0
 21
-1347.6999999999971
 31
0.0
1001
ACDBBLOCKREPETAG
1070
     1
1071
      159
1005
12A81E
  0
LINE
  5
12A81F
  8
OBJECT
 10
6476.0
 20
-1349.9999999999959
 30
0.0
 11
6476.0
 21
-1347.6999999999971
 31
0.0
1001
ACDBBLOCKREPETAG
1070
     1
1071
      160
1005
12A81F
  0
LINE
  5
12A820
  8
OBJECT
 10
6454.75
 20
-1339.699999999993
 30
0.0
 11
6454.75
 21
-1347.6999999999971
 31
0.0
1001
ACDBBLOCKREPETAG
1070
     1
1071
      161
1005
12A820
  0
LINE
  5
12A821
  8
OBJECT
 10
6467.2499999999991
 20
-1339.699999999993
 30
0.0
 11
6467.2499999999991
 21
-1347.6999999999971
 31
0.0
1001
ACDBBLOCKREPETAG
1070
     1
1071
      162
1005
12A821
  0
LINE
  5
12A822
  8
OBJECT
 10
6446.0
 20
-1347.6999999999971
 30
0.0
 11
6476.0
 21
-1347.6999999999971
 31
0.0
1001
ACDBBLOCKREPETAG
1070
     1
1071
      163
1005
12A822
  0
LINE
  5
12A823
  8
OBJECT
 10
6453.0
 20
-1388.9999999999959
 30
0.0
 11
6453.0
 21
-1398.9999999999959
 31
0.0
1001
ACDBBLOCKREPETAG
1070
     1
1071
      164
1005
12A823
  0
LINE
  5
12A824
  8
OBJECT
 10
6469.0
 20
-1388.9999999999959
 30
0.0
 11
6469.0
 21
-1398.9999999999959
 31
0.0
1001
ACDBBLOCKREPETAG
1070
     1
1071
      165
1005
12A824
  0
LINE
  5
12A825
  8
OBJECT
 10
6453.0
 20
-1398.9999999999959
 30
0.0
 11
6469.0
 21
-1398.9999999999959
 31
0.0
1001
ACDBBLOCKREPETAG
1070
     1
1071
      166
1005
12A825
  0
LINE
  5
12A826
  8
OBJECT
 10
6466.0
 20
-1374.9999999999959
 30
0.0
 11
6466.0
 21
-1364.9999999999959
 31
0.0
1001
ACDBBLOCKREPETAG
1070
     1
1071
      167
1005
12A826
  0
LINE
  5
12A827
  8
OBJECT
 10
6456.0
 20
-1374.9999999999959
 30
0.0
 11
6456.0
 21
-1364.9999999999959
 31
0.0
1001
ACDBBLOCKREPETAG
1070
     1
1071
      168
1005
12A827
  0
LINE
  5
12A828
  8
OBJECT
 10
4590.0
 20
-1349.9999999999959
 30
0.0
 11
4424.0
 21
-1349.9999999999959
 31
0.0
1001
ACDBBLOCKREPETAG
1070
     1
1071
       12
1005
12A828
  0
LINE
  5
12A829
  8
OBJECT
 10
4566.0
 20
-1313.9999999999959
 30
0.0
 11
4434.0
 21
-1313.9999999999959
 31
0.0
1001
ACDBBLOCKREPETAG
1070
     1
1071
       13
1005
12A829
  0
LINE
  5
12A82A
  8
OBJECT
 10
4590.0
 20
-1365.0
 30
0.0
 11
4590.0
 21
-1349.9999999999959
 31
0.0
1001
ACDBBLOCKREPETAG
1070
     1
1071
       14
1005
12A82A
  0
LINE
  5
12A82B
  8
OBJECT
 10
4424.0
 20
-1365.0
 30
0.0
 11
4590.0
 21
-1365.0
 31
0.0
1001
ACDBBLOCKREPETAG
1070
     1
1071
       15
1005
12A82B
  0
LINE
  5
12A82C
  8
OBJECT
 10
4567.4999999999864
 20
-1365.0
 30
0.0
 11
4567.4999999999864
 21
-1375.0
 31
0.0
1001
ACDBBLOCKREPETAG
1070
     1
1071
       16
1005
12A82C
  0
LINE
  5
12A82D
  8
OBJECT
 10
4424.0
 20
-1375.0
 30
0.0
 11
4424.0
 21
-1388.9999999999959
 31
0.0
1001
ACDBBLOCKREPETAG
1070
     1
1071
       17
1005
12A82D
  0
LINE
  5
12A82E
  8
OBJECT
 10
4590.0
 20
-1375.0
 30
0.0
 11
4590.0
 21
-1388.9999999999959
 31
0.0
1001
ACDBBLOCKREPETAG
1070
     1
1071
       18
1005
12A82E
  0
LINE
  5
12A82F
  8
OBJECT
 10
4424.0
 20
-1388.9999999999959
 30
0.0
 11
4590.0
 21
-1388.9999999999959
 31
0.0
1001
ACDBBLOCKREPETAG
1070
     1
1071
       19
1005
12A82F
  0
LINE
  5
12A830
  8
OBJECT
 10
4424.0
 20
-1375.0
 30
0.0
 11
4590.0
 21
-1375.0
 31
0.0
1001
ACDBBLOCKREPETAG
1070
     1
1071
       20
1005
12A830
  0
LINE
  5
12A831
  8
OBJECT
 10
4432.4999999999854
 20
-1365.0
 30
0.0
 11
4432.4999999999854
 21
-1375.0
 31
0.0
1001
ACDBBLOCKREPETAG
1070
     1
1071
       21
1005
12A831
  0
LINE
  5
12A832
  8
OBJECT
 10
4424.0
 20
-1365.0
 30
0.0
 11
4424.0
 21
-1349.9999999999959
 31
0.0
1001
ACDBBLOCKREPETAG
1070
     1
1071
       22
1005
12A832
  0
LINE
  5
12A833
  8
HIDDEN
 10
4443.0
 20
-1325.0
 30
0.0
 11
4557.0
 21
-1325.0
 31
0.0
1001
ACDBBLOCKREPETAG
1070
     1
1071
       23
1005
12A833
  0
LINE
  5
12A834
  8
CENTER
 10
4500.0
 20
-1055.0
 30
0.0
 11
4500.0
 21
-1403.9999999999959
 31
0.0
1001
ACDBBLOCKREPETAG
1070
     1
1071
       24
1005
12A834
  0
LINE
  5
12A835
  8
OBJECT
 10
4425.0
 20
-1055.0
 30
0.0
 11
4425.0
 21
-1136.9999999999959
 31
0.0
1001
ACDBBLOCKREPETAG
1070
     1
1071
       25
1005
12A835
  0
LINE
  5
12A836
  8
OBJECT
 10
4575.0
 20
-1055.0
 30
0.0
 11
4575.0
 21
-1136.999999999993
 31
0.0
1001
ACDBBLOCKREPETAG
1070
     1
1071
       26
1005
12A836
  0
LINE
  5
12A837
  8
OBJECT
 10
4425.0
 20
-1136.9999999999959
 30
0.0
 11
4575.0
 21
-1136.999999999993
 31
0.0
1001
ACDBBLOCKREPETAG
1070
     1
1071
       27
1005
12A837
  0
LINE
  5
12A838
  8
OBJECT
 10
4557.0
 20
-1313.9999999999959
 30
0.0
 11
4557.0
 21
-1264.999999999993
 31
0.0
1001
ACDBBLOCKREPETAG
1070
     1
1071
       28
1005
12A838
  0
LINE
  5
12A839
  8
OBJECT
 10
4443.0
 20
-1313.9999999999959
 30
0.0
 11
4443.0
 21
-1264.999999999993
 31
0.0
1001
ACDBBLOCKREPETAG
1070
     1
1071
       29
1005
12A839
  0
LINE
  5
12A83A
  8
OBJECT
 10
4557.0
 20
-1264.999999999993
 30
0.0
 11
4443.0
 21
-1264.999999999993
 31
0.0
1001
ACDBBLOCKREPETAG
1070
     1
1071
       30
1005
12A83A
  0
LINE
  5
12A83B
  8
OBJECT
 10
4425.0
 20
-1136.9999999999959
 30
0.0
 11
4443.0
 21
-1264.999999999993
 31
0.0
1001
ACDBBLOCKREPETAG
1070
     1
1071
       31
1005
12A83B
  0
LINE
  5
12A83C
  8
OBJECT
 10
4557.0
 20
-1264.999999999993
 30
0.0
 11
4575.0
 21
-1136.999999999993
 31
0.0
1001
ACDBBLOCKREPETAG
1070
     1
1071
       32
1005
12A83C
  0
LINE
  5
12A83D
  8
OBJECT
 10
4434.0
 20
-1313.9999999999959
 30
0.0
 11
4434.0
 21
-1349.9999999999959
 31
0.0
1001
ACDBBLOCKREPETAG
1070
     1
1071
       33
1005
12A83D
  0
LINE
  5
12A83E
  8
OBJECT
 10
4566.0
 20
-1313.9999999999959
 30
0.0
 11
4566.0
 21
-1349.9999999999959
 31
0.0
1001
ACDBBLOCKREPETAG
1070
     1
1071
       34
1005
12A83E
  0
LINE
  5
12A83F
  8
OBJECT
 10
4582.9999999999927
 20
-1374.9999999999959
 30
0.0
 11
4582.9999999999927
 21
-1364.9999999999959
 31
0.0
1001
ACDBBLOCKREPETAG
1070
     1
1071
       35
1005
12A83F
  0
LINE
  5
12A840
  8
OBJECT
 10
4572.9999999999918
 20
-1374.9999999999959
 30
0.0
 11
4572.9999999999918
 21
-1364.9999999999959
 31
0.0
1001
ACDBBLOCKREPETAG
1070
     1
1071
       36
1005
12A840
  0
LINE
  5
12A841
  8
OBJECT
 10
4568.9999999999864
 20
-1344.9999999999959
 30
0.0
 11
4568.9999999999864
 21
-1349.9999999999959
 31
0.0
1001
ACDBBLOCKREPETAG
1070
     1
1071
       37
1005
12A841
  0
LINE
  5
12A842
  8
OBJECT
 10
4587.0
 20
-1344.9999999999959
 30
0.0
 11
4587.0
 21
-1349.9999999999959
 31
0.0
1001
ACDBBLOCKREPETAG
1070
     1
1071
       38
1005
12A842
  0
LINE
  5
12A843
  8
OBJECT
 10
4587.0
 20
-1344.9999999999959
 30
0.0
 11
4568.9999999999864
 21
-1344.9999999999959
 31
0.0
1001
ACDBBLOCKREPETAG
1070
     1
1071
       39
1005
12A843
  0
LINE
  5
12A844
  8
OBJECT
 10
4573.0
 20
-1396.9999999999959
 30
0.0
 11
4573.0
 21
-1399.9999999999959
 31
0.0
1001
ACDBBLOCKREPETAG
1070
     1
1071
       40
1005
12A844
  0
LINE
  5
12A845
  8
OBJECT
 10
4573.0
 20
-1399.9999999999959
 30
0.0
 11
4583.0
 21
-1399.9999999999959
 31
0.0
1001
ACDBBLOCKREPETAG
1070
     1
1071
       41
1005
12A845
  0
LINE
  5
12A846
  8
OBJECT
 10
4583.0
 20
-1399.9999999999959
 30
0.0
 11
4583.0
 21
-1396.9999999999959
 31
0.0
1001
ACDBBLOCKREPETAG
1070
     1
1071
       43
1005
12A846
  0
LINE
  5
12A847
  8
OBJECT
 10
4468.5
 20
-1344.9999999999959
 30
0.0
 11
4451.9999999999909
 21
-1344.9999999999959
 31
0.0
1001
ACDBBLOCKREPETAG
1070
     1
1071
       48
1005
12A847
  0
LINE
  5
12A848
  8
OBJECT
 10
4476.0
 20
-1349.9999999999959
 30
0.0
 11
4476.0
 21
-1347.9999999999959
 31
0.0
1001
ACDBBLOCKREPETAG
1070
     1
1071
       49
1005
12A848
  0
LINE
  5
12A849
  8
OBJECT
 10
4466.0
 20
-1374.9999999999959
 30
0.0
 11
4466.0
 21
-1364.9999999999959
 31
0.0
1001
ACDBBLOCKREPETAG
1070
     1
1071
       50
1005
12A849
  0
LINE
  5
12A84A
  8
OBJECT
 10
4456.0
 20
-1374.9999999999959
 30
0.0
 11
4456.0
 21
-1364.9999999999959
 31
0.0
1001
ACDBBLOCKREPETAG
1070
     1
1071
       51
1005
12A84A
  0
LINE
  5
12A84B
  8
OBJECT
 10
4451.9999999999909
 20
-1344.9999999999959
 30
0.0
 11
4451.9999999999909
 21
-1349.9999999999959
 31
0.0
1001
ACDBBLOCKREPETAG
1070
     1
1071
       52
1005
12A84B
  0
LINE
  5
12A84C
  8
OBJECT
 10
4456.0
 20
-1396.9999999999959
 30
0.0
 11
4456.0
 21
-1399.9999999999959
 31
0.0
1001
ACDBBLOCKREPETAG
1070
     1
1071
       53
1005
12A84C
  0
LINE
  5
12A84D
  8
OBJECT
 10
4456.0
 20
-1399.9999999999959
 30
0.0
 11
4466.0
 21
-1399.9999999999959
 31
0.0
1001
ACDBBLOCKREPETAG
1070
     1
1071
       54
1005
12A84D
  0
LINE
  5
12A84E
  8
OBJECT
 10
4451.185045423772
 20
-1396.9999999999959
 30
0.0
 11
4470.8149545762208
 21
-1396.9999999999959
 31
0.0
1001
ACDBBLOCKREPETAG
1070
     1
1071
       55
1005
12A84E
  0
LINE
  5
12A84F
  8
OBJECT
 10
4466.0
 20
-1399.9999999999959
 30
0.0
 11
4466.0
 21
-1396.9999999999959
 31
0.0
1001
ACDBBLOCKREPETAG
1070
     1
1071
       56
1005
12A84F
  0
LINE
  5
12A850
  8
OBJECT
 10
4476.0
 20
-1347.9999999999959
 30
0.0
 11
4468.5
 21
-1344.9999999999959
 31
0.0
1001
ACDBBLOCKREPETAG
1070
     1
1071
       57
1005
12A850
  0
LINE
  5
12A851
  8
OBJECT
 10
4451.1850454237756
 20
-1388.9999999999959
 30
0.0
 11
4451.1850454237756
 21
-1396.9999999999959
 31
0.0
1001
ACDBBLOCKREPETAG
1070
     1
1071
      630
1005
12A851
  0
LINE
  5
12A852
  8
OBJECT
 10
4456.0925227118869
 20
-1388.9999999999959
 30
0.0
 11
4456.0925227118869
 21
-1396.9999999999959
 31
0.0
1001
ACDBBLOCKREPETAG
1070
     1
1071
      631
1005
12A852
  0
LINE
  5
12A853
  8
OBJECT
 10
4465.9074772881113
 20
-1388.9999999999959
 30
0.0
 11
4465.9074772881113
 21
-1396.9999999999959
 31
0.0
1001
ACDBBLOCKREPETAG
1070
     1
1071
      632
1005
12A853
  0
LINE
  5
12A854
  8
OBJECT
 10
4470.8149545762226
 20
-1388.9999999999959
 30
0.0
 11
4470.8149545762226
 21
-1396.9999999999959
 31
0.0
1001
ACDBBLOCKREPETAG
1070
     1
1071
      633
1005
12A854
  0
LINE
  5
12A855
  8
OBJECT
 10
4568.185045423772
 20
-1396.9999999999959
 30
0.0
 11
4587.814954576219
 21
-1396.9999999999959
 31
0.0
1001
ACDBBLOCKREPETAG
1070
     1
1071
      634
1005
12A855
  0
LINE
  5
12A856
  8
OBJECT
 10
4568.1850454237783
 20
-1388.9999999999959
 30
0.0
 11
4568.1850454237783
 21
-1396.9999999999959
 31
0.0
1001
ACDBBLOCKREPETAG
1070
     1
1071
      635
1005
12A856
  0
LINE
  5
12A857
  8
OBJECT
 10
4573.0925227118869
 20
-1388.9999999999959
 30
0.0
 11
4573.0925227118869
 21
-1396.9999999999959
 31
0.0
1001
ACDBBLOCKREPETAG
1070
     1
1071
      636
1005
12A857
  0
LINE
  5
12A858
  8
OBJECT
 10
4582.9074772881122
 20
-1388.9999999999959
 30
0.0
 11
4582.9074772881122
 21
-1396.9999999999959
 31
0.0
1001
ACDBBLOCKREPETAG
1070
     1
1071
      637
1005
12A858
  0
LINE
  5
12A859
  8
OBJECT
 10
4587.8149545762226
 20
-1388.9999999999959
 30
0.0
 11
4587.8149545762226
 21
-1396.9999999999959
 31
0.0
1001
ACDBBLOCKREPETAG
1070
     1
1071
      638
1005
12A859
  0
LINE
  5
12A85A
  8
CENTER
 10
12409.0
 20
-1638.9999999999959
 30
0.0
 11
12605.0
 21
-1638.9999999999959
 31
0.0
1001
ACDBBLOCKREPETAG
1070
     1
1071
       10
1005
12A85A
  0
LINE
  5
12A85B
  8
CENTER
 10
12500.0
 20
-1547.7253355707801
 30
0.0
 11
12500.0
 21
-1730.2746644292131
 31
0.0
1001
ACDBBLOCKREPETAG
1070
     1
1071
       11
1005
12A85B
  0
CIRCLE
  5
12A85C
  8
OBJECT
 10
12500.0
 20
-1638.9999999999959
 30
0.0
 40
50.0
1001
ACDBBLOCKREPETAG
1070
     1
1071
       12
1005
12A85C
  0
CIRCLE
  5
12A85D
  8
OBJECT
 10
12500.0
 20
-1638.9999999999959
 30
0.0
 40
60.0
1001
ACDBBLOCKREPETAG
1070
     1
1071
       13
1005
12A85D
  0
CIRCLE
  5
12A85E
  8
OBJECT
 10
12500.0
 20
-1638.9999999999959
 30
0.0
 40
68.0
1001
ACDBBLOCKREPETAG
1070
     1
1071
       14
1005
12A85E
  0
ARC
  5
12A85F
  8
OBJECT
 10
12577.5
 20
-1638.9999999999959
 30
0.0
 40
12.0
 50
272.10542627221611
 51
87.894573727783893
1001
ACDBBLOCKREPETAG
1070
     1
1071
       15
1005
12A85F
  0
ARC
  5
12A860
  8
OBJECT
 10
12578.49193548386
 20
-1612.0182271895239
 30
0.0
 40
15.0
 50
198.97051877965251
 51
267.89457372778372
1001
ACDBBLOCKREPETAG
1070
     1
1071
       16
1005
12A860
  0
ARC
  5
12A861
  8
OBJECT
 10
12578.49193548386
 20
-1665.981772810464
 30
0.0
 40
15.0
 50
92.105426272216135
 51
161.02948122034729
1001
ACDBBLOCKREPETAG
1070
     1
1071
       17
1005
12A861
  0
CIRCLE
  5
12A862
  8
SLIM
 10
12578.0
 20
-1638.9999999999959
 30
0.0
 40
8.0
1001
ACDBBLOCKREPETAG
1070
     1
1071
       18
1005
12A862
  0
POLYLINE
  5
12A863
  8
SLIM
 66
     1
 10
0.0
 20
0.0
 30
0.0
 70
     1
1001
ACDBBLOCKREPETAG
1070
     1
1071
       19
1005
12A863
  0
VERTEX
  5
12AB41
  8
SLIM
 10
12575.690598923229
 20
-1634.9999999999959
 30
0.0
  0
VERTEX
  5
12AB42
  8
SLIM
 10
12573.38119784648
 20
-1638.9999999999959
 30
0.0
  0
VERTEX
  5
12AB43
  8
SLIM
 10
12575.690598923229
 20
-1642.9999999999959
 30
0.0
  0
VERTEX
  5
12AB44
  8
SLIM
 10
12580.309401076751
 20
-1642.9999999999959
 30
0.0
  0
VERTEX
  5
12AB45
  8
SLIM
 10
12582.618802153511
 20
-1638.9999999999959
 30
0.0
  0
VERTEX
  5
12AB46
  8
SLIM
 10
12580.309401076751
 20
-1634.9999999999959
 30
0.0
  0
SEQEND
  5
12AB47
  8
SLIM
  0
ARC
  5
12A864
  8
OBJECT
 10
12461.25
 20
-1571.8830312067
 30
0.0
 40
12.0
 50
32.105426272130188
 51
207.89457372768319
1001
ACDBBLOCKREPETAG
1070
     1
1071
       20
1005
12A864
  0
ARC
  5
12A865
  8
OBJECT
 10
12437.38713156505
 20
-1584.514876283989
 30
0.0
 40
15.0
 50
318.97051877944762
 51
27.89457372768311
1001
ACDBBLOCKREPETAG
1070
     1
1071
       21
1005
12A865
  0
ARC
  5
12A866
  8
OBJECT
 10
12484.120932951069
 20
-1557.533103473517
 30
0.0
 40
15.0
 50
212.10542627213019
 51
281.02948122044069
1001
ACDBBLOCKREPETAG
1070
     1
1071
       22
1005
12A866
  0
CIRCLE
  5
12A867
  8
SLIM
 10
12461.0
 20
-1571.450018504808
 30
0.0
 40
7.9999999999999982
1001
ACDBBLOCKREPETAG
1070
     1
1071
       23
1005
12A867
  0
POLYLINE
  5
12A868
  8
SLIM
 66
     1
 10
0.0
 20
0.0
 30
0.0
 70
     1
1001
ACDBBLOCKREPETAG
1070
     1
1071
       24
1005
12A868
  0
VERTEX
  5
12AB48
  8
SLIM
 10
12458.69059892324
 20
-1575.4500185048089
 30
0.0
  0
VERTEX
  5
12AB49
  8
SLIM
 10
12463.309401076751
 20
-1575.4500185048089
 30
0.0
  0
VERTEX
  5
12AB4A
  8
SLIM
 10
12465.618802153511
 20
-1571.450018504808
 30
0.0
  0
VERTEX
  5
12AB4B
  8
SLIM
 10
12463.309401076751
 20
-1567.4500185048089
 30
0.0
  0
VERTEX
  5
12AB4C
  8
SLIM
 10
12458.69059892324
 20
-1567.4500185048089
 30
0.0
  0
VERTEX
  5
12AB4D
  8
SLIM
 10
12456.38119784648
 20
-1571.450018504808
 30
0.0
  0
SEQEND
  5
12AB4E
  8
SLIM
  0
ARC
  5
12A869
  8
OBJECT
 10
12461.25
 20
-1706.1169687932891
 30
0.0
 40
12.0
 50
152.10542627231681
 51
327.89457372786978
1001
ACDBBLOCKREPETAG
1070
     1
1071
       25
1005
12A869
  0
ARC
  5
12A86A
  8
OBJECT
 10
12484.120932951069
 20
-1720.4668965264721
 30
0.0
 40
15.0
 50
78.970518779559228
 51
147.89457372786981
1001
ACDBBLOCKREPETAG
1070
     1
1071
       26
1005
12A86A
  0
ARC
  5
12A86B
  8
OBJECT
 10
12437.38713156505
 20
-1693.485123716004
 30
0.0
 40
15.0
 50
332.10542627231678
 51
41.029481220552412
1001
ACDBBLOCKREPETAG
1070
     1
1071
       27
1005
12A86B
  0
CIRCLE
  5
12A86C
  8
SLIM
 10
12461.0
 20
-1706.549981495182
 30
0.0
 40
8.0
1001
ACDBBLOCKREPETAG
1070
     1
1071
       28
1005
12A86C
  0
POLYLINE
  5
12A86D
  8
SLIM
 66
     1
 10
0.0
 20
0.0
 30
0.0
 70
     1
1001
ACDBBLOCKREPETAG
1070
     1
1071
       29
1005
12A86D
  0
VERTEX
  5
12AB4F
  8
SLIM
 10
12465.618802153511
 20
-1706.54998149518
 30
0.0
  0
VERTEX
  5
12AB50
  8
SLIM
 10
12463.309401076751
 20
-1702.5499814951829
 30
0.0
  0
VERTEX
  5
12AB51
  8
SLIM
 10
12458.69059892324
 20
-1702.54998149518
 30
0.0
  0
VERTEX
  5
12AB52
  8
SLIM
 10
12456.38119784648
 20
-1706.549981495182
 30
0.0
  0
VERTEX
  5
12AB53
  8
SLIM
 10
12458.69059892322
 20
-1710.54998149518
 30
0.0
  0
VERTEX
  5
12AB54
  8
SLIM
 10
12463.309401076751
 20
-1710.5499814951841
 30
0.0
  0
SEQEND
  5
12AB55
  8
SLIM
  0
ARC
  5
12A86E
  8
OBJECT
 10
12500.0
 20
-1638.9999999999959
 30
0.0
 40
76.0
 50
34.863837954171863
 51
85.136162045732945
1001
ACDBBLOCKREPETAG
1070
     1
1071
       42
1005
12A86E
  0
ARC
  5
12A86F
  8
OBJECT
 10
12500.0
 20
-1638.9999999999959
 30
0.0
 40
76.0
 50
154.86383795430939
 51
205.1361620456905
1001
ACDBBLOCKREPETAG
1070
     1
1071
       43
1005
12A86F
  0
ARC
  5
12A870
  8
OBJECT
 10
12500.0
 20
-1638.9999999999959
 30
0.0
 40
76.0
 50
274.86383795426718
 51
325.13616204582797
1001
ACDBBLOCKREPETAG
1070
     1
1071
       44
1005
12A870
  0
ARC
  5
12A871
  8
OBJECT
 10
12578.0
 20
-1638.9999999999959
 30
0.0
 40
12.0
 50
325.13616204582797
 51
34.863837954171863
1001
ACDBBLOCKREPETAG
1070
     1
1071
       45
1005
12A871
  0
LINE
  5
12A872
  8
OBJECT
 10
12587.84615384616
 20
-1632.140462520134
 30
0.0
 11
12562.35897435904
 21
-1595.556262627535
 31
0.0
1001
ACDBBLOCKREPETAG
1070
     1
1071
       46
1005
12A872
  0
LINE
  5
12A873
  8
OBJECT
 10
12587.846153846171
 20
-1645.859537479857
 30
0.0
 11
12562.35897435904
 21
-1682.4437373724591
 31
0.0
1001
ACDBBLOCKREPETAG
1070
     1
1071
       47
1005
12A873
  0
ARC
  5
12A874
  8
OBJECT
 10
12461.0
 20
-1571.4500185048109
 30
0.0
 40
12.0
 50
85.136162045942811
 51
154.86383795410001
1001
ACDBBLOCKREPETAG
1070
     1
1071
       48
1005
12A874
  0
LINE
  5
12A875
  8
OBJECT
 10
12450.13638936114
 20
-1566.3527678843909
 30
0.0
 11
12431.19713262058
 21
-1606.7174127373471
 31
0.0
1001
ACDBBLOCKREPETAG
1070
     1
1071
       49
1005
12A875
  0
LINE
  5
12A876
  8
OBJECT
 10
12462.017456792681
 20
-1559.4932304045269
 30
0.0
 11
12506.443893020371
 21
-1563.273675364886
 31
0.0
1001
ACDBBLOCKREPETAG
1070
     1
1071
       50
1005
12A876
  0
ARC
  5
12A877
  8
OBJECT
 10
12461.0
 20
-1706.549981495182
 30
0.0
 40
12.0
 50
205.13616204589991
 51
274.8638379540572
1001
ACDBBLOCKREPETAG
1070
     1
1071
       51
1005
12A877
  0
LINE
  5
12A878
  8
OBJECT
 10
12462.01745679269
 20
-1718.506769595464
 30
0.0
 11
12506.44389302036
 21
-1714.726324635106
 31
0.0
1001
ACDBBLOCKREPETAG
1070
     1
1071
       52
1005
12A878
  0
LINE
  5
12A879
  8
OBJECT
 10
12450.13638936114
 20
-1711.647232115605
 30
0.0
 11
12431.19713262058
 21
-1671.2825872626429
 31
0.0
1001
ACDBBLOCKREPETAG
1070
     1
1071
       53
1005
12A879
  0
LINE
  5
12A87A
  8
CENTER
 10
10409.0
 20
-1638.9999999999959
 30
0.0
 11
10605.0
 21
-1638.9999999999959
 31
0.0
1001
ACDBBLOCKREPETAG
1070
     1
1071
        0
1005
12A87A
  0
LINE
  5
12A87B
  8
CENTER
 10
10500.0
 20
-1547.7253355707801
 30
0.0
 11
10500.0
 21
-1730.2746644292131
 31
0.0
1001
ACDBBLOCKREPETAG
1070
     1
1071
        1
1005
12A87B
  0
CIRCLE
  5
12A87C
  8
OBJECT
 10
10500.0
 20
-1638.9999999999959
 30
0.0
 40
50.0
1001
ACDBBLOCKREPETAG
1070
     1
1071
        2
1005
12A87C
  0
CIRCLE
  5
12A87D
  8
OBJECT
 10
10500.0
 20
-1638.9999999999959
 30
0.0
 40
62.0
1001
ACDBBLOCKREPETAG
1070
     1
1071
        3
1005
12A87D
  0
CIRCLE
  5
12A87E
  8
SLIM
 10
10578.0
 20
-1638.9999999999959
 30
0.0
 40
5.0
1001
ACDBBLOCKREPETAG
1070
     1
1071
        4
1005
12A87E
  0
POLYLINE
  5
12A87F
  8
SLIM
 66
     1
 10
0.0
 20
0.0
 30
0.0
 70
     1
1001
ACDBBLOCKREPETAG
1070
     1
1071
        5
1005
12A87F
  0
VERTEX
  5
12AB56
  8
SLIM
 10
10573.092522711881
 20
-1630.4999999999959
 30
0.0
  0
VERTEX
  5
12AB57
  8
SLIM
 10
10568.18504542377
 20
-1638.9999999999959
 30
0.0
  0
VERTEX
  5
12AB58
  8
SLIM
 10
10573.092522711881
 20
-1647.4999999999959
 30
0.0
  0
VERTEX
  5
12AB59
  8
SLIM
 10
10582.90747728811
 20
-1647.4999999999959
 30
0.0
  0
VERTEX
  5
12AB5A
  8
SLIM
 10
10587.814954576221
 20
-1638.9999999999959
 30
0.0
  0
VERTEX
  5
12AB5B
  8
SLIM
 10
10582.90747728811
 20
-1630.4999999999959
 30
0.0
  0
SEQEND
  5
12AB5C
  8
SLIM
  0
CIRCLE
  5
12A880
  8
SLIM
 10
10461.0
 20
-1571.450018504808
 30
0.0
 40
4.9999999999999991
1001
ACDBBLOCKREPETAG
1070
     1
1071
        6
1005
12A880
  0
POLYLINE
  5
12A881
  8
SLIM
 66
     1
 10
0.0
 20
0.0
 30
0.0
 70
     1
1001
ACDBBLOCKREPETAG
1070
     1
1071
        7
1005
12A881
  0
VERTEX
  5
12AB5D
  8
SLIM
 10
10456.092522711881
 20
-1579.950018504808
 30
0.0
  0
VERTEX
  5
12AB5E
  8
SLIM
 10
10465.90747728811
 20
-1579.950018504808
 30
0.0
  0
VERTEX
  5
12AB5F
  8
SLIM
 10
10470.814954576221
 20
-1571.450018504808
 30
0.0
  0
VERTEX
  5
12AB60
  8
SLIM
 10
10465.90747728811
 20
-1562.9500185048089
 30
0.0
  0
VERTEX
  5
12AB61
  8
SLIM
 10
10456.092522711881
 20
-1562.9500185048089
 30
0.0
  0
VERTEX
  5
12AB62
  8
SLIM
 10
10451.18504542377
 20
-1571.450018504808
 30
0.0
  0
SEQEND
  5
12AB63
  8
SLIM
  0
CIRCLE
  5
12A882
  8
SLIM
 10
10461.0
 20
-1706.549981495182
 30
0.0
 40
5.0
1001
ACDBBLOCKREPETAG
1070
     1
1071
        8
1005
12A882
  0
POLYLINE
  5
12A883
  8
SLIM
 66
     1
 10
0.0
 20
0.0
 30
0.0
 70
     1
1001
ACDBBLOCKREPETAG
1070
     1
1071
        9
1005
12A883
  0
VERTEX
  5
12AB64
  8
SLIM
 10
10470.814954576221
 20
-1706.549981495182
 30
0.0
  0
VERTEX
  5
12AB65
  8
SLIM
 10
10465.907477288099
 20
-1698.04998149518
 30
0.0
  0
VERTEX
  5
12AB66
  8
SLIM
 10
10456.092522711881
 20
-1698.0499814951841
 30
0.0
  0
VERTEX
  5
12AB67
  8
SLIM
 10
10451.18504542377
 20
-1706.54998149518
 30
0.0
  0
VERTEX
  5
12AB68
  8
SLIM
 10
10456.092522711881
 20
-1715.0499814951829
 30
0.0
  0
VERTEX
  5
12AB69
  8
SLIM
 10
10465.90747728811
 20
-1715.04998149518
 30
0.0
  0
SEQEND
  5
12AB6A
  8
SLIM
  0
ARC
  5
12A884
  8
OBJECT
 10
10500.0
 20
-1638.9999999999959
 30
0.0
 40
76.0
 50
34.863837954171863
 51
85.136162045732945
1001
ACDBBLOCKREPETAG
1070
     1
1071
       30
1005
12A884
  0
ARC
  5
12A885
  8
OBJECT
 10
10500.0
 20
-1638.9999999999959
 30
0.0
 40
76.0
 50
154.86383795430939
 51
205.1361620456905
1001
ACDBBLOCKREPETAG
1070
     1
1071
       31
1005
12A885
  0
ARC
  5
12A886
  8
OBJECT
 10
10500.0
 20
-1638.9999999999959
 30
0.0
 40
76.0
 50
274.86383795426718
 51
325.13616204582797
1001
ACDBBLOCKREPETAG
1070
     1
1071
       32
1005
12A886
  0
ARC
  5
12A887
  8
OBJECT
 10
10578.0
 20
-1638.9999999999959
 30
0.0
 40
12.0
 50
325.13616204582797
 51
34.863837954171863
1001
ACDBBLOCKREPETAG
1070
     1
1071
       33
1005
12A887
  0
LINE
  5
12A888
  8
OBJECT
 10
10587.84615384616
 20
-1632.140462520134
 30
0.0
 11
10562.35897435904
 21
-1595.556262627535
 31
0.0
1001
ACDBBLOCKREPETAG
1070
     1
1071
       34
1005
12A888
  0
LINE
  5
12A889
  8
OBJECT
 10
10587.846153846171
 20
-1645.859537479857
 30
0.0
 11
10562.35897435904
 21
-1682.4437373724591
 31
0.0
1001
ACDBBLOCKREPETAG
1070
     1
1071
       35
1005
12A889
  0
ARC
  5
12A88A
  8
OBJECT
 10
10461.0
 20
-1571.4500185048109
 30
0.0
 40
12.0
 50
85.136162045942811
 51
154.86383795410001
1001
ACDBBLOCKREPETAG
1070
     1
1071
       36
1005
12A88A
  0
LINE
  5
12A88B
  8
OBJECT
 10
10450.13638936114
 20
-1566.3527678843909
 30
0.0
 11
10431.19713262058
 21
-1606.7174127373471
 31
0.0
1001
ACDBBLOCKREPETAG
1070
     1
1071
       37
1005
12A88B
  0
LINE
  5
12A88C
  8
OBJECT
 10
10462.017456792681
 20
-1559.4932304045269
 30
0.0
 11
10506.443893020371
 21
-1563.273675364886
 31
0.0
1001
ACDBBLOCKREPETAG
1070
     1
1071
       38
1005
12A88C
  0
ARC
  5
12A88D
  8
OBJECT
 10
10461.0
 20
-1706.549981495182
 30
0.0
 40
12.0
 50
205.13616204589991
 51
274.8638379540572
1001
ACDBBLOCKREPETAG
1070
     1
1071
       39
1005
12A88D
  0
LINE
  5
12A88E
  8
OBJECT
 10
10462.01745679269
 20
-1718.506769595464
 30
0.0
 11
10506.44389302036
 21
-1714.726324635106
 31
0.0
1001
ACDBBLOCKREPETAG
1070
     1
1071
       40
1005
12A88E
  0
LINE
  5
12A88F
  8
OBJECT
 10
10450.13638936114
 20
-1711.647232115605
 30
0.0
 11
10431.19713262058
 21
-1671.2825872626429
 31
0.0
1001
ACDBBLOCKREPETAG
1070
     1
1071
       41
1005
12A88F
  0
LINE
  5
12A890
  8
CENTER
 10
6409.0
 20
-1679.9999999999991
 30
0.0
 11
6605.0
 21
-1679.9999999999991
 31
0.0
1001
ACDBBLOCKREPETAG
1070
     1
1071
       10
1005
12A890
  0
LINE
  5
12A891
  8
CENTER
 10
6500.0
 20
-1588.725335570783
 30
0.0
 11
6500.0
 21
-1771.274664429216
 31
0.0
1001
ACDBBLOCKREPETAG
1070
     1
1071
       11
1005
12A891
  0
CIRCLE
  5
12A892
  8
OBJECT
 10
6500.0
 20
-1679.9999999999991
 30
0.0
 40
50.0
1001
ACDBBLOCKREPETAG
1070
     1
1071
       12
1005
12A892
  0
CIRCLE
  5
12A893
  8
OBJECT
 10
6500.0
 20
-1679.9999999999991
 30
0.0
 40
60.0
1001
ACDBBLOCKREPETAG
1070
     1
1071
       13
1005
12A893
  0
CIRCLE
  5
12A894
  8
OBJECT
 10
6500.0
 20
-1679.9999999999991
 30
0.0
 40
68.0
1001
ACDBBLOCKREPETAG
1070
     1
1071
       14
1005
12A894
  0
ARC
  5
12A895
  8
OBJECT
 10
6577.5
 20
-1679.9999999999991
 30
0.0
 40
12.0
 50
272.10542627221611
 51
87.894573727783893
1001
ACDBBLOCKREPETAG
1070
     1
1071
       15
1005
12A895
  0
ARC
  5
12A896
  8
OBJECT
 10
6578.4919354838639
 20
-1653.018227189528
 30
0.0
 40
15.0
 50
198.9705187796356
 51
267.89457372778372
1001
ACDBBLOCKREPETAG
1070
     1
1071
       16
1005
12A896
  0
ARC
  5
12A897
  8
OBJECT
 10
6578.4919354838639
 20
-1706.9817728104681
 30
0.0
 40
15.0
 50
92.105426272216135
 51
161.02948122036429
1001
ACDBBLOCKREPETAG
1070
     1
1071
       17
1005
12A897
  0
CIRCLE
  5
12A898
  8
SLIM
 10
6578.0
 20
-1679.9999999999991
 30
0.0
 40
8.0
1001
ACDBBLOCKREPETAG
1070
     1
1071
       18
1005
12A898
  0
POLYLINE
  5
12A899
  8
SLIM
 66
     1
 10
0.0
 20
0.0
 30
0.0
 70
     1
1001
ACDBBLOCKREPETAG
1070
     1
1071
       19
1005
12A899
  0
VERTEX
  5
12AB6B
  8
SLIM
 10
6575.6905989232318
 20
-1675.9999999999991
 30
0.0
  0
VERTEX
  5
12AB6C
  8
SLIM
 10
6573.3811978464792
 20
-1679.9999999999991
 30
0.0
  0
VERTEX
  5
12AB6D
  8
SLIM
 10
6575.6905989232318
 20
-1683.9999999999991
 30
0.0
  0
VERTEX
  5
12AB6E
  8
SLIM
 10
6580.3094010767518
 20
-1683.9999999999991
 30
0.0
  0
VERTEX
  5
12AB6F
  8
SLIM
 10
6582.6188021535127
 20
-1679.9999999999991
 30
0.0
  0
VERTEX
  5
12AB70
  8
SLIM
 10
6580.3094010767518
 20
-1675.9999999999991
 30
0.0
  0
SEQEND
  5
12AB71
  8
SLIM
  0
ARC
  5
12A89A
  8
OBJECT
 10
6461.2499999999991
 20
-1612.883031206703
 30
0.0
 40
12.0
 50
32.105426272157878
 51
207.89457372770741
1001
ACDBBLOCKREPETAG
1070
     1
1071
       20
1005
12A89A
  0
ARC
  5
12A89B
  8
OBJECT
 10
6437.3871315650549
 20
-1625.514876283992
 30
0.0
 40
15.0
 50
318.97051877944762
 51
27.894573727707481
1001
ACDBBLOCKREPETAG
1070
     1
1071
       21
1005
12A89B
  0
ARC
  5
12A89C
  8
OBJECT
 10
6484.1209329510693
 20
-1598.53310347352
 30
0.0
 40
15.0
 50
212.1054262721579
 51
281.02948122044069
1001
ACDBBLOCKREPETAG
1070
     1
1071
       22
1005
12A89C
  0
CIRCLE
  5
12A89D
  8
SLIM
 10
6461.0
 20
-1612.4500185048121
 30
0.0
 40
7.9999999999999982
1001
ACDBBLOCKREPETAG
1070
     1
1071
       23
1005
12A89D
  0
POLYLINE
  5
12A89E
  8
SLIM
 66
     1
 10
0.0
 20
0.0
 30
0.0
 70
     1
1001
ACDBBLOCKREPETAG
1070
     1
1071
       24
1005
12A89E
  0
VERTEX
  5
12AB72
  8
SLIM
 10
6458.69059892324
 20
-1616.4500185048121
 30
0.0
  0
VERTEX
  5
12AB73
  8
SLIM
 10
6463.3094010767518
 20
-1616.4500185048121
 30
0.0
  0
VERTEX
  5
12AB74
  8
SLIM
 10
6465.6188021535136
 20
-1612.4500185048121
 30
0.0
  0
VERTEX
  5
12AB75
  8
SLIM
 10
6463.3094010767518
 20
-1608.4500185048121
 30
0.0
  0
VERTEX
  5
12AB76
  8
SLIM
 10
6458.69059892324
 20
-1608.4500185048121
 30
0.0
  0
VERTEX
  5
12AB77
  8
SLIM
 10
6456.3811978464801
 20
-1612.4500185048121
 30
0.0
  0
SEQEND
  5
12AB78
  8
SLIM
  0
ARC
  5
12A89F
  8
OBJECT
 10
6461.2499999999991
 20
-1747.116968793292
 30
0.0
 40
12.0
 50
152.1054262722925
 51
327.89457372784221
1001
ACDBBLOCKREPETAG
1070
     1
1071
       25
1005
12A89F
  0
ARC
  5
12A8A0
  8
OBJECT
 10
6484.1209329510693
 20
-1761.466896526475
 30
0.0
 40
15.0
 50
78.970518779559228
 51
147.8945737278421
1001
ACDBBLOCKREPETAG
1070
     1
1071
       26
1005
12A8A0
  0
ARC
  5
12A8A1
  8
OBJECT
 10
6437.3871315650549
 20
-1734.4851237160069
 30
0.0
 40
15.0
 50
332.1054262722925
 51
41.029481220552412
1001
ACDBBLOCKREPETAG
1070
     1
1071
       27
1005
12A8A1
  0
CIRCLE
  5
12A8A2
  8
SLIM
 10
6461.0
 20
-1747.5499814951861
 30
0.0
 40
8.0
1001
ACDBBLOCKREPETAG
1070
     1
1071
       28
1005
12A8A2
  0
POLYLINE
  5
12A8A3
  8
SLIM
 66
     1
 10
0.0
 20
0.0
 30
0.0
 70
     1
1001
ACDBBLOCKREPETAG
1070
     1
1071
       29
1005
12A8A3
  0
VERTEX
  5
12AB79
  8
SLIM
 10
6465.6188021535136
 20
-1747.5499814951829
 30
0.0
  0
VERTEX
  5
12AB7A
  8
SLIM
 10
6463.3094010767518
 20
-1743.549981495187
 30
0.0
  0
VERTEX
  5
12AB7B
  8
SLIM
 10
6458.69059892324
 20
-1743.5499814951829
 30
0.0
  0
VERTEX
  5
12AB7C
  8
SLIM
 10
6456.3811978464801
 20
-1747.5499814951861
 30
0.0
  0
VERTEX
  5
12AB7D
  8
SLIM
 10
6458.6905989232328
 20
-1751.549981495182
 30
0.0
  0
VERTEX
  5
12AB7E
  8
SLIM
 10
6463.3094010767518
 20
-1751.549981495187
 30
0.0
  0
SEQEND
  5
12AB7F
  8
SLIM
  0
ARC
  5
12A8A4
  8
OBJECT
 10
6500.0
 20
-1679.9999999999991
 30
0.0
 40
76.0
 50
34.863837954142063
 51
85.136162045732945
1001
ACDBBLOCKREPETAG
1070
     1
1071
       42
1005
12A8A4
  0
ARC
  5
12A8A5
  8
OBJECT
 10
6500.0
 20
-1679.9999999999991
 30
0.0
 40
76.0
 50
154.86383795430939
 51
205.1361620456905
1001
ACDBBLOCKREPETAG
1070
     1
1071
       43
1005
12A8A5
  0
ARC
  5
12A8A6
  8
OBJECT
 10
6500.0
 20
-1679.9999999999991
 30
0.0
 40
76.0
 50
274.86383795426718
 51
325.13616204585799
1001
ACDBBLOCKREPETAG
1070
     1
1071
       44
1005
12A8A6
  0
ARC
  5
12A8A7
  8
OBJECT
 10
6578.0
 20
-1679.9999999999991
 30
0.0
 40
12.0
 50
325.13616204585799
 51
34.863837954142063
1001
ACDBBLOCKREPETAG
1070
     1
1071
       45
1005
12A8A7
  0
LINE
  5
12A8A8
  8
OBJECT
 10
6587.8461538461661
 20
-1673.1404625201369
 30
0.0
 11
6562.3589743590492
 21
-1636.556262627538
 31
0.0
1001
ACDBBLOCKREPETAG
1070
     1
1071
       46
1005
12A8A8
  0
LINE
  5
12A8A9
  8
OBJECT
 10
6587.8461538461688
 20
-1686.8595374798599
 30
0.0
 11
6562.3589743590492
 21
-1723.4437373724629
 31
0.0
1001
ACDBBLOCKREPETAG
1070
     1
1071
       47
1005
12A8A9
  0
ARC
  5
12A8AA
  8
OBJECT
 10
6461.0
 20
-1612.4500185048139
 30
0.0
 40
12.0
 50
85.136162045942811
 51
154.86383795410001
1001
ACDBBLOCKREPETAG
1070
     1
1071
       48
1005
12A8AA
  0
LINE
  5
12A8AB
  8
OBJECT
 10
6450.1363893611451
 20
-1607.3527678843941
 30
0.0
 11
6431.1971326205858
 21
-1647.7174127373501
 31
0.0
1001
ACDBBLOCKREPETAG
1070
     1
1071
       49
1005
12A8AB
  0
LINE
  5
12A8AC
  8
OBJECT
 10
6462.0174567926842
 20
-1600.4932304045301
 30
0.0
 11
6506.4438930203687
 21
-1604.273675364889
 31
0.0
1001
ACDBBLOCKREPETAG
1070
     1
1071
       50
1005
12A8AC
  0
ARC
  5
12A8AD
  8
OBJECT
 10
6461.0
 20
-1747.549981495185
 30
0.0
 40
12.0
 50
205.13616204589991
 51
274.8638379540572
1001
ACDBBLOCKREPETAG
1070
     1
1071
       51
1005
12A8AD
  0
LINE
  5
12A8AE
  8
OBJECT
 10
6462.0174567926879
 20
-1759.5067695954669
 30
0.0
 11
6506.4438930203651
 21
-1755.7263246351099
 31
0.0
1001
ACDBBLOCKREPETAG
1070
     1
1071
       52
1005
12A8AE
  0
LINE
  5
12A8AF
  8
OBJECT
 10
6450.1363893611451
 20
-1752.6472321156079
 30
0.0
 11
6431.1971326205821
 21
-1712.282587262647
 31
0.0
1001
ACDBBLOCKREPETAG
1070
     1
1071
       53
1005
12A8AF
  0
LINE
  5
12A8B0
  8
CENTER
 10
4409.0
 20
-1638.9999999999959
 30
0.0
 11
4605.0
 21
-1638.9999999999959
 31
0.0
1001
ACDBBLOCKREPETAG
1070
     1
1071
        0
1005
12A8B0
  0
LINE
  5
12A8B1
  8
CENTER
 10
4500.0
 20
-1547.7253355707801
 30
0.0
 11
4500.0
 21
-1730.2746644292131
 31
0.0
1001
ACDBBLOCKREPETAG
1070
     1
1071
        1
1005
12A8B1
  0
CIRCLE
  5
12A8B2
  8
OBJECT
 10
4500.0
 20
-1638.9999999999959
 30
0.0
 40
50.0
1001
ACDBBLOCKREPETAG
1070
     1
1071
        2
1005
12A8B2
  0
CIRCLE
  5
12A8B3
  8
OBJECT
 10
4500.0
 20
-1638.9999999999959
 30
0.0
 40
62.0
1001
ACDBBLOCKREPETAG
1070
     1
1071
        3
1005
12A8B3
  0
CIRCLE
  5
12A8B4
  8
SLIM
 10
4578.0
 20
-1638.9999999999959
 30
0.0
 40
5.0
1001
ACDBBLOCKREPETAG
1070
     1
1071
        4
1005
12A8B4
  0
POLYLINE
  5
12A8B5
  8
SLIM
 66
     1
 10
0.0
 20
0.0
 30
0.0
 70
     1
1001
ACDBBLOCKREPETAG
1070
     1
1071
        5
1005
12A8B5
  0
VERTEX
  5
12AB80
  8
SLIM
 10
4573.092522711886
 20
-1630.4999999999959
 30
0.0
  0
VERTEX
  5
12AB81
  8
SLIM
 10
4568.185045423772
 20
-1638.9999999999959
 30
0.0
  0
VERTEX
  5
12AB82
  8
SLIM
 10
4573.092522711886
 20
-1647.4999999999959
 30
0.0
  0
VERTEX
  5
12AB83
  8
SLIM
 10
4582.9074772881049
 20
-1647.4999999999959
 30
0.0
  0
VERTEX
  5
12AB84
  8
SLIM
 10
4587.814954576219
 20
-1638.9999999999959
 30
0.0
  0
VERTEX
  5
12AB85
  8
SLIM
 10
4582.9074772881049
 20
-1630.4999999999959
 30
0.0
  0
SEQEND
  5
12AB86
  8
SLIM
  0
CIRCLE
  5
12A8B6
  8
SLIM
 10
4461.0
 20
-1571.450018504808
 30
0.0
 40
4.9999999999999991
1001
ACDBBLOCKREPETAG
1070
     1
1071
        6
1005
12A8B6
  0
POLYLINE
  5
12A8B7
  8
SLIM
 66
     1
 10
0.0
 20
0.0
 30
0.0
 70
     1
1001
ACDBBLOCKREPETAG
1070
     1
1071
        7
1005
12A8B7
  0
VERTEX
  5
12AB87
  8
SLIM
 10
4456.092522711886
 20
-1579.950018504808
 30
0.0
  0
VERTEX
  5
12AB88
  8
SLIM
 10
4465.907477288114
 20
-1579.950018504808
 30
0.0
  0
VERTEX
  5
12AB89
  8
SLIM
 10
4470.8149545762208
 20
-1571.450018504808
 30
0.0
  0
VERTEX
  5
12AB8A
  8
SLIM
 10
4465.907477288114
 20
-1562.9500185048089
 30
0.0
  0
VERTEX
  5
12AB8B
  8
SLIM
 10
4456.092522711886
 20
-1562.9500185048089
 30
0.0
  0
VERTEX
  5
12AB8C
  8
SLIM
 10
4451.185045423772
 20
-1571.450018504808
 30
0.0
  0
SEQEND
  5
12AB8D
  8
SLIM
  0
CIRCLE
  5
12A8B8
  8
SLIM
 10
4461.0
 20
-1706.549981495182
 30
0.0
 40
5.0
1001
ACDBBLOCKREPETAG
1070
     1
1071
        8
1005
12A8B8
  0
POLYLINE
  5
12A8B9
  8
SLIM
 66
     1
 10
0.0
 20
0.0
 30
0.0
 70
     1
1001
ACDBBLOCKREPETAG
1070
     1
1071
        9
1005
12A8B9
  0
VERTEX
  5
12AB8E
  8
SLIM
 10
4470.8149545762208
 20
-1706.549981495182
 30
0.0
  0
VERTEX
  5
12AB8F
  8
SLIM
 10
4465.9074772881067
 20
-1698.04998149518
 30
0.0
  0
VERTEX
  5
12AB90
  8
SLIM
 10
4456.092522711886
 20
-1698.0499814951841
 30
0.0
  0
VERTEX
  5
12AB91
  8
SLIM
 10
4451.185045423772
 20
-1706.54998149518
 30
0.0
  0
VERTEX
  5
12AB92
  8
SLIM
 10
4456.092522711886
 20
-1715.0499814951829
 30
0.0
  0
VERTEX
  5
12AB93
  8
SLIM
 10
4465.907477288114
 20
-1715.04998149518
 30
0.0
  0
SEQEND
  5
12AB94
  8
SLIM
  0
ARC
  5
12A8BA
  8
OBJECT
 10
4500.0
 20
-1638.9999999999959
 30
0.0
 40
76.0
 50
34.863837954142063
 51
85.136162045732945
1001
ACDBBLOCKREPETAG
1070
     1
1071
       30
1005
12A8BA
  0
ARC
  5
12A8BB
  8
OBJECT
 10
4500.0
 20
-1638.9999999999959
 30
0.0
 40
76.0
 50
154.86383795430939
 51
205.1361620456905
1001
ACDBBLOCKREPETAG
1070
     1
1071
       31
1005
12A8BB
  0
ARC
  5
12A8BC
  8
OBJECT
 10
4500.0
 20
-1638.9999999999959
 30
0.0
 40
76.0
 50
274.86383795426718
 51
325.13616204585799
1001
ACDBBLOCKREPETAG
1070
     1
1071
       32
1005
12A8BC
  0
ARC
  5
12A8BD
  8
OBJECT
 10
4578.0
 20
-1638.9999999999959
 30
0.0
 40
12.0
 50
325.13616204585799
 51
34.863837954142063
1001
ACDBBLOCKREPETAG
1070
     1
1071
       33
1005
12A8BD
  0
LINE
  5
12A8BE
  8
OBJECT
 10
4587.846153846167
 20
-1632.140462520134
 30
0.0
 11
4562.3589743590492
 21
-1595.556262627535
 31
0.0
1001
ACDBBLOCKREPETAG
1070
     1
1071
       34
1005
12A8BE
  0
LINE
  5
12A8BF
  8
OBJECT
 10
4587.8461538461697
 20
-1645.859537479857
 30
0.0
 11
4562.3589743590492
 21
-1682.4437373724591
 31
0.0
1001
ACDBBLOCKREPETAG
1070
     1
1071
       35
1005
12A8BF
  0
ARC
  5
12A8C0
  8
OBJECT
 10
4461.0
 20
-1571.4500185048109
 30
0.0
 40
12.0
 50
85.136162045942811
 51
154.86383795410001
1001
ACDBBLOCKREPETAG
1070
     1
1071
       36
1005
12A8C0
  0
LINE
  5
12A8C1
  8
OBJECT
 10
4450.1363893611451
 20
-1566.3527678843909
 30
0.0
 11
4431.1971326205839
 21
-1606.7174127373471
 31
0.0
1001
ACDBBLOCKREPETAG
1070
     1
1071
       37
1005
12A8C1
  0
LINE
  5
12A8C2
  8
OBJECT
 10
4462.0174567926833
 20
-1559.4932304045269
 30
0.0
 11
4506.4438930203669
 21
-1563.273675364886
 31
0.0
1001
ACDBBLOCKREPETAG
1070
     1
1071
       38
1005
12A8C2
  0
ARC
  5
12A8C3
  8
OBJECT
 10
4461.0
 20
-1706.549981495182
 30
0.0
 40
12.0
 50
205.13616204589991
 51
274.8638379540572
1001
ACDBBLOCKREPETAG
1070
     1
1071
       39
1005
12A8C3
  0
LINE
  5
12A8C4
  8
OBJECT
 10
4462.0174567926879
 20
-1718.506769595464
 30
0.0
 11
4506.4438930203651
 21
-1714.726324635106
 31
0.0
1001
ACDBBLOCKREPETAG
1070
     1
1071
       40
1005
12A8C4
  0
LINE
  5
12A8C5
  8
OBJECT
 10
4450.1363893611451
 20
-1711.647232115605
 30
0.0
 11
4431.1971326205821
 21
-1671.2825872626429
 31
0.0
1001
ACDBBLOCKREPETAG
1070
     1
1071
       41
1005
12A8C5
  0
LINE
  5
12A8C6
  8
OBJECT
 10
2443.0
 20
-1364.9999999999959
 30
0.0
 11
2557.0
 21
-1364.9999999999959
 31
0.0
1001
ACDBBLOCKREPETAG
1070
     1
1071
        0
1005
12A8C6
  0
LINE
  5
12A8C7
  8
OBJECT
 10
2443.0
 20
-1364.9999999999959
 30
0.0
 11
2443.0
 21
-1264.9999999999959
 31
0.0
1001
ACDBBLOCKREPETAG
1070
     1
1071
        1
1005
12A8C7
  0
LINE
  5
12A8C8
  8
OBJECT
 10
2557.0
 20
-1364.9999999999959
 30
0.0
 11
2557.0
 21
-1264.9999999999959
 31
0.0
1001
ACDBBLOCKREPETAG
1070
     1
1071
        2
1005
12A8C8
  0
LINE
  5
12A8C9
  8
OBJECT
 10
2443.0
 20
-1264.9999999999959
 30
0.0
 11
2557.0
 21
-1264.9999999999959
 31
0.0
1001
ACDBBLOCKREPETAG
1070
     1
1071
        3
1005
12A8C9
  0
LINE
  5
12A8CA
  8
HIDDEN
 10
2450.0
 20
-1264.9999999999959
 30
0.0
 11
2450.0
 21
-1364.9999999999959
 31
0.0
1001
ACDBBLOCKREPETAG
1070
     1
1071
        4
1005
12A8CA
  0
LINE
  5
12A8CB
  8
HIDDEN
 10
2550.0
 20
-1264.9999999999959
 30
0.0
 11
2550.0
 21
-1364.9999999999959
 31
0.0
1001
ACDBBLOCKREPETAG
1070
     1
1071
        5
1005
12A8CB
  0
LINE
  5
12A8CC
  8
CENTER
 10
2500.0
 20
-1055.0
 30
0.0
 11
2500.0
 21
-1379.9999999999959
 31
0.0
1001
ACDBBLOCKREPETAG
1070
     1
1071
        6
1005
12A8CC
  0
LINE
  5
12A8CD
  8
OBJECT
 10
2425.0
 20
-1055.0
 30
0.0
 11
2425.0
 21
-1136.9999999999959
 31
0.0
1001
ACDBBLOCKREPETAG
1070
     1
1071
        7
1005
12A8CD
  0
LINE
  5
12A8CE
  8
OBJECT
 10
2575.0
 20
-1055.0
 30
0.0
 11
2575.0
 21
-1136.9999999999959
 31
0.0
1001
ACDBBLOCKREPETAG
1070
     1
1071
        8
1005
12A8CE
  0
LINE
  5
12A8CF
  8
OBJECT
 10
2425.0
 20
-1136.9999999999959
 30
0.0
 11
2575.0
 21
-1136.9999999999959
 31
0.0
1001
ACDBBLOCKREPETAG
1070
     1
1071
        9
1005
12A8CF
  0
LINE
  5
12A8D0
  8
OBJECT
 10
2425.0
 20
-1136.9999999999959
 30
0.0
 11
2443.0
 21
-1264.9999999999959
 31
0.0
1001
ACDBBLOCKREPETAG
1070
     1
1071
       10
1005
12A8D0
  0
LINE
  5
12A8D1
  8
OBJECT
 10
2557.0
 20
-1264.9999999999959
 30
0.0
 11
2575.0
 21
-1136.9999999999959
 31
0.0
1001
ACDBBLOCKREPETAG
1070
     1
1071
       11
1005
12A8D1
  0
TEXT
  5
12A8D2
  8
SLIM
 10
4353.75
 20
-1906.4999999999959
 30
0.0
 40
35.0
  1
両受けスタイル（W）
 41
0.75
  0
TEXT
  5
12A8D3
  8
SLIM
 10
10239.125
 20
-1906.4999999999959
 30
0.0
 40
35.0
  1
両受けスタイル（W）＋シンドカット
 41
0.75
  0
TEXT
  5
12A8D4
  8
SLIM
 10
12243.5
 20
-1906.4999999999959
 30
0.0
 40
35.0
  1
カンペイ君（WKP）＋シンドカット
 41
0.75
  0
TEXT
  5
12A8D5
  8
SLIM
 10
8241.625
 20
-1632.499999999998
 30
0.0
 40
35.0
  1
片受けスタイル（S）＋シンドカット
 41
0.75
  0
TEXT
  5
12A8D6
  8
SLIM
 10
6358.1250000000009
 20
-1947.4999999999991
 30
0.0
 40
35.0
  1
カンペイ君（WKP）
 41
0.75
  0
TEXT
  5
12A8D7
  8
SLIM
 10
2356.25
 20
-1632.499999999998
 30
0.0
 40
35.0
  1
片受けスタイル（S）
 41
0.75
  0
TEXT
  5
12A8D8
  8
SLIM
 10
0.0
 20
370.0
 30
0.0
 40
100.0
  1
4SL2-A1-AX000-PXXX-WKP
 41
0.75
  0
VIEWPORT
  5
F6BA7
 67
     1
  8
0
 10
195.9179030619629
 20
118.0453354894254
 30
0.0
 40
435.17763301655992
 41
254.6215797885128
 68
     1
 69
     1
1001
ACAD
1000
MVIEW
1002
{
1070
    16
1010
0.0
1020
0.0
1030
0.0
1010
0.0
1020
0.0
1030
1.0
1040
0.0
1040
254.6215797885128
1040
195.9179030619629
1040
118.0453354894254
1040
50.0
1040
0.0
1040
0.0
1070
     0
1070
     0
1070
     1
1070
     1
1070
     0
1070
     0
1070
     0
1070
     0
1040
0.0
1040
0.0
1040
0.0
1040
10.0
1040
10.0
1040
10.0
1040
10.0
1070
     0
1002
{
1002
}
1002
}
  0
VIEWPORT
  5
F6BA9
 67
     1
  8
OBJECT
 10
145.3303314447403
 20
101.8328338861465
 30
0.0
 40
232.5285303115844
 41
162.93253421783439
 68
     2
 69
     2
1001
ACAD
1000
MVIEW
1002
{
1070
    16
1010
0.0
1020
0.0
1030
0.0
1010
0.0
1020
0.0
1030
1.0
1040
0.0
1040
25942.55904403147
1040
2377.604457077377
1040
-7591.5176687056619
1040
50.0
1040
0.0
1040
0.0
1070
     0
1070
   600
1070
     1
1070
     1
1070
     0
1070
     0
1070
     0
1070
     0
1040
0.0
1040
0.0
1040
0.0
1040
1.0
1040
1.0
1040
0.0
1040
0.0
1070
     0
1002
{
1002
}
1002
}
  0
ENDSEC
  0
EOF
