  0
SECTION
  2
HEADER
  9
$ACADVER
  1
AC1009
  9
$INSBASE
 10
0.0
 20
0.0
 30
0.0
  9
$EXTMIN
 10
0.0
 20
-2163.9999999999991
 30
0.0
  9
$EXTMAX
 10
12399.70000000001
 20
770.0
 30
0.0
  9
$LIMMIN
 10
0.0
 20
0.0
  9
$LIMMAX
 10
210.0
 20
297.0
  9
$ORTHOMODE
 70
     0
  9
$REGENMODE
 70
     1
  9
$FILLMODE
 70
     1
  9
$QTEXTMODE
 70
     0
  9
$MIRRTEXT
 70
     0
  9
$DRAGMODE
 70
     2
  9
$LTSCALE
 40
1.0
  9
$OSMODE
 70
   109
  9
$ATTMODE
 70
     1
  9
$TEXTSIZE
 40
4.0
  9
$TRACEWID
 40
0.05
  9
$TEXTSTYLE
  7
STANDARD
  9
$CLAYER
  8
OBJECT
  9
$CELTYPE
  6
BYLAYER
  9
$CECOLOR
 62
   256
  9
$DIMSCALE
 40
10.0
  9
$DIMASZ
 40
2.0
  9
$DIMEXO
 40
1.0
  9
$DIMDLI
 40
10.0
  9
$DIMRND
 40
0.0
  9
$DIMDLE
 40
0.0
  9
$DIMEXE
 40
1.0
  9
$DIMTP
 40
0.0
  9
$DIMTM
 40
0.0
  9
$DIMTXT
 40
3.2000000000000002
  9
$DIMCEN
 40
0.0
  9
$DIMTSZ
 40
0.0
  9
$DIMTOL
 70
     0
  9
$DIMLIM
 70
     0
  9
$DIMTIH
 70
     0
  9
$DIMTOH
 70
     0
  9
$DIMSE1
 70
     0
  9
$DIMSE2
 70
     0
  9
$DIMTAD
 70
     1
  9
$DIMZIN
 70
     8
  9
$DIMBLK
  1
OPEN30
  9
$DIMASO
 70
     1
  9
$DIMSHO
 70
     1
  9
$DIMPOST
  1

  9
$DIMAPOST
  1

  9
$DIMALT
 70
     0
  9
$DIMALTD
 70
     2
  9
$DIMALTF
 40
25.399999999999999
  9
$DIMLFAC
 40
1.0
  9
$DIMTOFL
 70
     1
  9
$DIMTVP
 40
0.0
  9
$DIMTIX
 70
     0
  9
$DIMSOXD
 70
     0
  9
$DIMSAH
 70
     0
  9
$DIMBLK1
  1

  9
$DIMBLK2
  1

  9
$DIMSTYLE
  2
S10
  9
$DIMCLRD
 70
   256
  9
$DIMCLRE
 70
   256
  9
$DIMCLRT
 70
   256
  9
$DIMTFAC
 40
1.0
  9
$DIMGAP
 40
0.9
  9
$LUNITS
 70
     2
  9
$LUPREC
 70
     2
  9
$SKETCHINC
 40
0.1
  9
$FILLETRAD
 40
0.0
  9
$AUNITS
 70
     0
  9
$AUPREC
 70
     2
  9
$MENU
  1
ACAD
  9
$ELEVATION
 40
0.0
  9
$PELEVATION
 40
0.0
  9
$THICKNESS
 40
0.0
  9
$LIMCHECK
 70
     0
  9
$BLIPMODE
 70
     0
  9
$CHAMFERA
 40
2.0
  9
$CHAMFERB
 40
2.0
  9
$SKPOLY
 70
     0
  9
$TDCREATE
 40
2453095.4929404748
  9
$TDUPDATE
 40
2457234.6481189821
  9
$TDINDWG
 40
18.383008865699999
  9
$TDUSRTIMER
 40
18.383008136600001
  9
$USRTIMER
 70
     1
  9
$ANGBASE
 50
0.0
  9
$ANGDIR
 70
     0
  9
$PDMODE
 70
    35
  9
$PDSIZE
 40
2.0
  9
$PLINEWID
 40
0.0
  9
$COORDS
 70
     1
  9
$SPLFRAME
 70
     0
  9
$SPLINETYPE
 70
     6
  9
$SPLINESEGS
 70
     8
  9
$ATTDIA
 70
     0
  9
$ATTREQ
 70
     1
  9
$HANDLING
 70
     1
  9
$HANDSEED
  5
124837
  9
$SURFTAB1
 70
     6
  9
$SURFTAB2
 70
     6
  9
$SURFTYPE
 70
     6
  9
$SURFU
 70
     6
  9
$SURFV
 70
     6
  9
$UCSNAME
  2

  9
$UCSORG
 10
0.0
 20
0.0
 30
0.0
  9
$UCSXDIR
 10
1.0
 20
0.0
 30
0.0
  9
$UCSYDIR
 10
0.0
 20
1.0
 30
0.0
  9
$PUCSNAME
  2

  9
$PUCSORG
 10
0.0
 20
0.0
 30
0.0
  9
$PUCSXDIR
 10
1.0
 20
0.0
 30
0.0
  9
$PUCSYDIR
 10
0.0
 20
1.0
 30
0.0
  9
$USERI1
 70
     0
  9
$USERI2
 70
     0
  9
$USERI3
 70
     0
  9
$USERI4
 70
     0
  9
$USERI5
 70
     0
  9
$USERR1
 40
0.0
  9
$USERR2
 40
0.0
  9
$USERR3
 40
0.0
  9
$USERR4
 40
0.0
  9
$USERR5
 40
0.0
  9
$WORLDVIEW
 70
     1
  9
$SHADEDGE
 70
     3
  9
$SHADEDIF
 70
    70
  9
$TILEMODE
 70
     1
  9
$MAXACTVP
 70
    64
  9
$PLIMCHECK
 70
     0
  9
$PEXTMIN
 10
29.066066288948051
 20
20.366566777229309
 30
0.0
  9
$PEXTMAX
 10
261.5945966005325
 20
183.29910099506381
 30
0.0
  9
$PLIMMIN
 10
-3.17498779296875
 20
-3.1749999523162842
  9
$PLIMMAX
 10
293.83566284179687
 20
206.8406708240509
  9
$UNITMODE
 70
     0
  9
$VISRETAIN
 70
     1
  9
$PLINEGEN
 70
     0
  9
$PSLTSCALE
 70
     1
  0
ENDSEC
  0
SECTION
  2
TABLES
  0
TABLE
  2
VPORT
 70
     1
  0
VPORT
  2
*ACTIVE
 70
     0
 10
0.0
 20
0.0
 11
1.0
 21
1.0
 12
10742.05562783495
 22
-3124.1719989722101
 13
0.0
 23
0.0
 14
1.0
 24
1.0
 15
0.0
 25
0.0
 16
0.0
 26
0.0
 36
1.0
 17
0.0
 27
0.0
 37
0.0
 40
16862.32983063065
 41
1.6494178525226391
 42
50.0
 43
0.0
 44
0.0
 50
0.0
 51
0.0
 71
     0
 72
   600
 73
     1
 74
     1
 75
     0
 76
     0
 77
     0
 78
     0
  0
ENDTAB
  0
TABLE
  2
LTYPE
 70
     4
  0
LTYPE
  2
CONTINUOUS
 70
     0
  3
Solid line
 72
    65
 73
     0
 40
0.0
  0
LTYPE
  2
PHANTOM2
 70
     0
  3
___ _ _ ___ _ _ ___ _ _ ___ _ _
 72
    65
 73
     6
 40
1.25
 49
0.625
 49
-0.125
 49
0.125
 49
-0.125
 49
0.125
 49
-0.125
  0
LTYPE
  2
ACAD_ISO08W100
 70
     0
  3
ISO long-dash short-dash ____ __ ____ __ ____ _
 72
    65
 73
     4
 40
36.0
 49
24.0
 49
-3.0
 49
6.0
 49
-3.0
  0
LTYPE
  2
ACAD_ISO02W100
 70
     0
  3
ISO dash __ __ __ __ __ __ __ __ __ __ __ __ __
 72
    65
 73
     2
 40
15.0
 49
12.0
 49
-3.0
  0
ENDTAB
  0
TABLE
  2
LAYER
 70
     7
  0
LAYER
  2
0
 70
     0
 62
     7
  6
CONTINUOUS
  0
LAYER
  2
OBJECT
 70
     0
 62
     4
  6
CONTINUOUS
  0
LAYER
  2
DEFPOINTS
 70
     0
 62
     7
  6
CONTINUOUS
  0
LAYER
  2
HIDDEN
 70
     0
 62
     2
  6
ACAD_ISO02W100
  0
LAYER
  2
CENTER
 70
     0
 62
     2
  6
ACAD_ISO08W100
  0
LAYER
  2
DOTS
 70
     0
 62
     1
  6
CONTINUOUS
  0
LAYER
  2
SLIM
 70
     0
 62
     2
  6
CONTINUOUS
  0
ENDTAB
  0
TABLE
  2
STYLE
 70
     2
  0
STYLE
  2
STANDARD
 70
     0
 40
0.0
 41
0.75
 50
0.0
 71
     0
 42
4.0
  3
simplex.shx
  4
bigfont.shx
  0
ENDTAB
  0
TABLE
  2
VIEW
 70
     0
  0
ENDTAB
  0
TABLE
  2
UCS
 70
     0
  0
ENDTAB
  0
TABLE
  2
APPID
 70
    18
  0
APPID
  2
ACAD
 70
     0
  0
APPID
  2
ACADANNOTATIVE
 70
     0
  0
APPID
  2
ACAD_PSEXT
 70
     0
  0
APPID
  2
ACAD_EXEMPT_FROM_CAD_STANDARDS
 70
     0
  0
APPID
  2
ACAECLAYERSTANDARD
 70
     0
  0
APPID
  2
ACAUTHENVIRON
 70
     0
  0
APPID
  2
ACDBDYNAMICBLOCKTRUENAME
 70
     0
  0
APPID
  2
ACDBDYNAMICBLOCKGUID
 70
     0
  0
APPID
  2
ACDBBLOCKREPETAG
 70
     0
  0
APPID
  2
ACDBBLOCKREPBTAG
 70
     0
  0
APPID
  2
ACAD_NAV_VCDISPLAY
 70
     0
  0
APPID
  2
ACAD_DSTYLE_DIMRADIAL_EXTENSION
 70
     0
  0
APPID
  2
ACAD_DSTYLE_DIMJAG
 70
     0
  0
APPID
  2
ACAD_DSTYLE_DIMTALN
 70
     0
  0
APPID
  2
ACADANNOPO
 70
     0
  0
APPID
  2
GRADIENTCOLOR1ACI
 70
     0
  0
APPID
  2
GRADIENTCOLOR2ACI
 70
     0
  0
APPID
  2
ACAD_MLEADERVER
 70
     0
  0
ENDTAB
  0
TABLE
  2
DIMSTYLE
 70
     3
  0
DIMSTYLE
  2
STANDARD
 70
     0
  3

  4

  5

  6

  7

 40
1.0
 41
0.18
 42
0.0625
 43
0.38
 44
0.18
 45
0.0
 46
0.0
 47
0.0
 48
0.0
140
0.18
141
0.09
142
0.0
143
25.399999999999999
144
1.0
145
0.0
146
1.0
147
0.09
 71
     0
 72
     0
 73
     1
 74
     1
 75
     0
 76
     0
 77
     0
 78
     0
170
     0
171
     2
172
     0
173
     0
174
     0
175
     0
176
     0
177
     0
178
     0
  0
DIMSTYLE
  2
S10
 70
     0
  3

  4

  5

  6

  7

 40
10.0
 41
2.0
 42
1.0
 43
10.0
 44
1.0
 45
0.0
 46
0.0
 47
0.0
 48
0.0
140
3.2000000000000002
141
0.0
142
0.0
143
25.399999999999999
144
1.0
145
0.0
146
1.0
147
0.9
 71
     0
 72
     0
 73
     0
 74
     0
 75
     0
 76
     0
 77
     1
 78
     8
170
     0
171
     2
172
     1
173
     0
174
     0
175
     0
176
   256
177
   256
178
   256
  0
ENDTAB
  0
ENDSEC
  0
SECTION
  2
BLOCKS
  0
BLOCK
  8
0
  2
$MODEL_SPACE
 70
     0
 10
0.0
 20
0.0
 30
0.0
  3
$MODEL_SPACE
  1

  0
ENDBLK
  5
124652
  8
0
  0
BLOCK
 67
     1
  8
0
  2
$PAPER_SPACE
 70
     0
 10
0.0
 20
0.0
 30
0.0
  3
$PAPER_SPACE
  1

  0
ENDBLK
  5
12464E
 67
     1
  8
0
  0
BLOCK
  8
0
  2
_OPEN30
 70
     0
 10
0.0
 20
0.0
 30
0.0
  3
_OPEN30
  1

  0
LINE
  5
202
  8
0
  6
BYBLOCK
 62
     0
 10
-1.0
 20
0.26794919
 30
0.0
 11
0.0
 21
0.0
 31
0.0
  0
LINE
  5
203
  8
0
  6
BYBLOCK
 62
     0
 10
0.0
 20
0.0
 30
0.0
 11
-1.0
 21
-0.26794919
 31
0.0
  0
LINE
  5
204
  8
0
  6
BYBLOCK
 62
     0
 10
0.0
 20
0.0
 30
0.0
 11
-1.0
 21
0.0
 31
0.0
  0
ENDBLK
  5
206
  8
0
  0
ENDSEC
  0
SECTION
  2
ENTITIES
  0
ARC
  5
123335
  8
OBJECT
 10
12000.0
 20
-199.99999999999909
 30
0.0
 40
50.0
 50
298.81994300000417
 51
228.52376955964741
1001
ACDBBLOCKREPETAG
1070
     1
1071
      185
1005
123335
  0
LINE
  5
123336
  8
SLIM
 10
11927.30183005652
 20
-155.95484036957691
 30
0.0
 11
11955.954840369581
 21
-127.30183005652231
 31
0.0
1001
GRADIENTCOLOR1ACI
1070
     5
1001
GRADIENTCOLOR2ACI
1070
     2
1001
ACAD
1010
0.0
1020
0.0
1030
0.0
1001
ACDBBLOCKREPETAG
1070
     1
1071
      442
1005
123336
  0
LINE
  5
123337
  8
SLIM
 10
11919.48615207084
 20
-172.75077447633191
 30
0.0
 11
11938.29030895727
 21
-153.94661758989659
 31
0.0
1001
GRADIENTCOLOR1ACI
1070
     5
1001
GRADIENTCOLOR2ACI
1070
     2
1001
ACAD
1010
0.0
1020
0.0
1030
0.0
1001
ACDBBLOCKREPETAG
1070
     1
1071
      443
1005
123337
  0
LINE
  5
123338
  8
SLIM
 10
11953.9466175899
 20
-138.29030895727169
 30
0.0
 11
11972.75077447633
 21
-119.4861520708364
 31
0.0
1001
GRADIENTCOLOR1ACI
1070
     5
1001
GRADIENTCOLOR2ACI
1070
     2
1001
ACAD
1010
0.0
1020
0.0
1030
0.0
1001
ACDBBLOCKREPETAG
1070
     1
1071
      444
1005
123338
  0
LINE
  5
123339
  8
SLIM
 10
11916.35966799338
 20
-184.8575146748604
 30
0.0
 11
11927.69595835578
 21
-173.5212243124561
 31
0.0
1001
GRADIENTCOLOR1ACI
1070
     5
1001
GRADIENTCOLOR2ACI
1070
     2
1001
ACAD
1010
0.0
1020
0.0
1030
0.0
1001
ACDBBLOCKREPETAG
1070
     1
1071
      445
1005
123339
  0
LINE
  5
12333A
  8
SLIM
 10
11973.521224312461
 20
-127.6959583557812
 30
0.0
 11
11984.857514674861
 21
-116.359667993377
 31
0.0
1001
GRADIENTCOLOR1ACI
1070
     5
1001
GRADIENTCOLOR2ACI
1070
     2
1001
ACAD
1010
0.0
1020
0.0
1030
0.0
1001
ACDBBLOCKREPETAG
1070
     1
1071
      446
1005
12333A
  0
LINE
  5
12333B
  8
SLIM
 10
11915.14405758905
 20
-195.0533812002549
 30
0.0
 11
11924.30302164318
 21
-185.89441714612491
 31
0.0
1001
GRADIENTCOLOR1ACI
1070
     5
1001
GRADIENTCOLOR2ACI
1070
     2
1001
ACAD
1010
0.0
1020
0.0
1030
0.0
1001
ACDBBLOCKREPETAG
1070
     1
1071
      447
1005
12333B
  0
LINE
  5
12333C
  8
SLIM
 10
11985.894417146121
 20
-124.30302164318159
 30
0.0
 11
11995.05338120025
 21
-115.1440575890517
 31
0.0
1001
GRADIENTCOLOR1ACI
1070
     5
1001
GRADIENTCOLOR2ACI
1070
     2
1001
ACAD
1010
0.0
1020
0.0
1030
0.0
1001
ACDBBLOCKREPETAG
1070
     1
1071
      448
1005
12333C
  0
LINE
  5
12333D
  8
SLIM
 10
11915.097963557469
 20
-204.07973135290339
 30
0.0
 11
11919.17769491037
 21
-199.99999999999909
 31
0.0
1001
GRADIENTCOLOR1ACI
1070
     5
1001
GRADIENTCOLOR2ACI
1070
     2
1001
ACAD
1010
0.0
1020
0.0
1030
0.0
1001
ACDBBLOCKREPETAG
1070
     1
1071
      449
1005
12333D
  0
LINE
  5
12333E
  8
SLIM
 10
12000.0
 20
-119.1776949103767
 30
0.0
 11
12004.0797313529
 21
-115.0979635574724
 31
0.0
1001
GRADIENTCOLOR1ACI
1070
     5
1001
GRADIENTCOLOR2ACI
1070
     2
1001
ACAD
1010
0.0
1020
0.0
1030
0.0
1001
ACDBBLOCKREPETAG
1070
     1
1071
      450
1005
12333E
  0
LINE
  5
12333F
  8
SLIM
 10
11919.17769491037
 20
-199.99999999999909
 30
0.0
 11
11923.09996216117
 21
-196.07773274920581
 31
0.0
1001
GRADIENTCOLOR1ACI
1070
     5
1001
GRADIENTCOLOR2ACI
1070
     2
1001
ACAD
1010
0.0
1020
0.0
1030
0.0
1001
ACDBBLOCKREPETAG
1070
     1
1071
      451
1005
12333F
  0
LINE
  5
123340
  8
SLIM
 10
11996.077732749211
 20
-123.0999621611699
 30
0.0
 11
12000.0
 21
-119.1776949103767
 31
0.0
1001
GRADIENTCOLOR1ACI
1070
     5
1001
GRADIENTCOLOR2ACI
1070
     2
1001
ACAD
1010
0.0
1020
0.0
1030
0.0
1001
ACDBBLOCKREPETAG
1070
     1
1071
      452
1005
123340
  0
LINE
  5
123341
  8
SLIM
 10
11915.889972620869
 20
-212.26797841057399
 30
0.0
 11
11923.16223077717
 21
-204.9957202542767
 31
0.0
1001
GRADIENTCOLOR1ACI
1070
     5
1001
GRADIENTCOLOR2ACI
1070
     2
1001
ACAD
1010
0.0
1020
0.0
1030
0.0
1001
ACDBBLOCKREPETAG
1070
     1
1071
      453
1005
123341
  0
LINE
  5
123342
  8
SLIM
 10
12004.995720254279
 20
-123.1622307771683
 30
0.0
 11
12012.267978410569
 21
-115.88997262087101
 31
0.0
1001
GRADIENTCOLOR1ACI
1070
     5
1001
GRADIENTCOLOR2ACI
1070
     2
1001
ACAD
1010
0.0
1020
0.0
1030
0.0
1001
ACDBBLOCKREPETAG
1070
     1
1071
      454
1005
123342
  0
LINE
  5
123343
  8
SLIM
 10
11917.338265695151
 20
-219.79994145736151
 30
0.0
 11
11924.11014778555
 21
-213.02805936696359
 31
0.0
1001
GRADIENTCOLOR1ACI
1070
     5
1001
GRADIENTCOLOR2ACI
1070
     2
1001
ACAD
1010
0.0
1020
0.0
1030
0.0
1001
ACDBBLOCKREPETAG
1070
     1
1071
      455
1005
123343
  0
LINE
  5
123344
  8
SLIM
 10
12013.028059366959
 20
-124.1101477855505
 30
0.0
 11
12019.799941457361
 21
-117.3382656951526
 31
0.0
1001
GRADIENTCOLOR1ACI
1070
     5
1001
GRADIENTCOLOR2ACI
1070
     2
1001
ACAD
1010
0.0
1020
0.0
1030
0.0
1001
ACDBBLOCKREPETAG
1070
     1
1071
      456
1005
123344
  0
LINE
  5
123345
  8
SLIM
 10
11919.331259406301
 20
-226.78720386727881
 30
0.0
 11
11925.744381959341
 21
-220.3740813142449
 31
0.0
1001
GRADIENTCOLOR1ACI
1070
     5
1001
GRADIENTCOLOR2ACI
1070
     2
1001
ACAD
1010
0.0
1020
0.0
1030
0.0
1001
ACDBBLOCKREPETAG
1070
     1
1071
      457
1005
123345
  0
LINE
  5
123346
  8
SLIM
 10
12020.374081314239
 20
-125.7443819593384
 30
0.0
 11
12026.787203867279
 21
-119.3312594063044
 31
0.0
1001
GRADIENTCOLOR1ACI
1070
     5
1001
GRADIENTCOLOR2ACI
1070
     2
1001
ACAD
1010
0.0
1020
0.0
1030
0.0
1001
ACDBBLOCKREPETAG
1070
     1
1071
      458
1005
123346
  0
LINE
  5
123347
  8
SLIM
 10
11921.79571631862
 20
-233.30300307603289
 30
0.0
 11
11927.946247395779
 21
-227.1524719988744
 31
0.0
1001
GRADIENTCOLOR1ACI
1070
     5
1001
GRADIENTCOLOR2ACI
1070
     2
1001
ACAD
1010
0.0
1020
0.0
1030
0.0
1001
ACDBBLOCKREPETAG
1070
     1
1071
      459
1005
123347
  0
LINE
  5
123348
  8
SLIM
 10
12027.15247199887
 20
-127.946247395778
 30
0.0
 11
12033.303003076029
 21
-121.7957163186195
 31
0.0
1001
GRADIENTCOLOR1ACI
1070
     5
1001
GRADIENTCOLOR2ACI
1070
     2
1001
ACAD
1010
0.0
1020
0.0
1030
0.0
1001
ACDBBLOCKREPETAG
1070
     1
1071
      460
1005
123348
  0
LINE
  5
123349
  8
SLIM
 10
11924.681663531341
 20
-239.39731198437769
 30
0.0
 11
11930.63987686439
 21
-233.4390986513296
 31
0.0
1001
GRADIENTCOLOR1ACI
1070
     5
1001
GRADIENTCOLOR2ACI
1070
     2
1001
ACAD
1010
0.0
1020
0.0
1030
0.0
1001
ACDBBLOCKREPETAG
1070
     1
1071
      461
1005
123349
  0
LINE
  5
12334A
  8
SLIM
 10
12033.43909865133
 20
-130.63987686439199
 30
0.0
 11
12039.397311984379
 21
-124.6816635313439
 31
0.0
1001
GRADIENTCOLOR1ACI
1070
     5
1001
GRADIENTCOLOR2ACI
1070
     2
1001
ACAD
1010
0.0
1020
0.0
1030
0.0
1001
ACDBBLOCKREPETAG
1070
     1
1071
      462
1005
12334A
  0
LINE
  5
12334B
  8
SLIM
 10
11927.954461102419
 20
-245.10477053436691
 30
0.0
 11
11933.77500701499
 21
-239.28422462179751
 31
0.0
1001
GRADIENTCOLOR1ACI
1070
     5
1001
GRADIENTCOLOR2ACI
1070
     2
1001
ACAD
1010
0.0
1020
0.0
1030
0.0
1001
ACDBBLOCKREPETAG
1070
     1
1071
      463
1005
12334B
  0
LINE
  5
12334C
  8
SLIM
 10
12039.284224621801
 20
-133.77500701499321
 30
0.0
 11
12045.10477053437
 21
-127.95446110242381
 31
0.0
1001
GRADIENTCOLOR1ACI
1070
     5
1001
GRADIENTCOLOR2ACI
1070
     2
1001
ACAD
1010
0.0
1020
0.0
1030
0.0
1001
ACDBBLOCKREPETAG
1070
     1
1071
      464
1005
12334C
  0
LINE
  5
12334D
  8
SLIM
 10
11931.59033196866
 20
-250.4491557891954
 30
0.0
 11
11937.31820758806
 21
-244.72128016980341
 31
0.0
1001
GRADIENTCOLOR1ACI
1070
     5
1001
GRADIENTCOLOR2ACI
1070
     2
1001
ACAD
1010
0.0
1020
0.0
1030
0.0
1001
ACDBBLOCKREPETAG
1070
     1
1071
      465
1005
12334D
  0
LINE
  5
12334E
  8
SLIM
 10
12044.721280169801
 20
-137.31820758805651
 30
0.0
 11
12050.449155789191
 21
-131.59033196866449
 31
0.0
1001
GRADIENTCOLOR1ACI
1070
     5
1001
GRADIENTCOLOR2ACI
1070
     2
1001
ACAD
1010
0.0
1020
0.0
1030
0.0
1001
ACDBBLOCKREPETAG
1070
     1
1071
      466
1005
12334E
  0
LINE
  5
12334F
  8
SLIM
 10
11935.573749692519
 20
-255.4459941864034
 30
0.0
 11
11941.24811054159
 21
-249.77163333734029
 31
0.0
1001
GRADIENTCOLOR1ACI
1070
     5
1001
GRADIENTCOLOR2ACI
1070
     2
1001
ACAD
1010
0.0
1020
0.0
1030
0.0
1001
ACDBBLOCKREPETAG
1070
     1
1071
      467
1005
12334F
  0
LINE
  5
123350
  8
SLIM
 10
12053.01974387892
 20
-137.99999999999909
 30
0.0
 11
12055.445994186401
 21
-135.57374969252561
 31
0.0
1001
GRADIENTCOLOR1ACI
1070
     5
1001
GRADIENTCOLOR2ACI
1070
     2
1001
ACAD
1010
0.0
1020
0.0
1030
0.0
1001
ACDBBLOCKREPETAG
1070
     1
1071
      468
1005
123350
  0
LINE
  5
123351
  8
SLIM
 10
11939.895923599141
 20
-260.10407640085572
 30
0.0
 11
11945.55277784863
 21
-254.44722215136329
 31
0.0
1001
GRADIENTCOLOR1ACI
1070
     5
1001
GRADIENTCOLOR2ACI
1070
     2
1001
ACAD
1010
0.0
1020
0.0
1030
0.0
1001
ACDBBLOCKREPETAG
1070
     1
1071
      469
1005
123351
  0
LINE
  5
123352
  8
SLIM
 10
11944.55400581359
 20
-264.4262503074724
 30
0.0
 11
11950.228366662661
 21
-258.75188945840949
 31
0.0
1001
GRADIENTCOLOR1ACI
1070
     5
1001
GRADIENTCOLOR2ACI
1070
     2
1001
ACAD
1010
0.0
1020
0.0
1030
0.0
1001
ACDBBLOCKREPETAG
1070
     1
1071
      470
1005
123352
  0
LINE
  5
123353
  8
SLIM
 10
11949.5508442108
 20
-268.40966803133369
 30
0.0
 11
11955.27871983019
 21
-262.68179241194167
 31
0.0
1001
GRADIENTCOLOR1ACI
1070
     5
1001
GRADIENTCOLOR2ACI
1070
     2
1001
ACAD
1010
0.0
1020
0.0
1030
0.0
1001
ACDBBLOCKREPETAG
1070
     1
1071
      471
1005
123353
  0
LINE
  5
123354
  8
SLIM
 10
11954.89522946563
 20
-272.04553889757437
 30
0.0
 11
11960.715775378199
 21
-266.22499298500497
 31
0.0
1001
GRADIENTCOLOR1ACI
1070
     5
1001
GRADIENTCOLOR2ACI
1070
     2
1001
ACAD
1010
0.0
1020
0.0
1030
0.0
1001
ACDBBLOCKREPETAG
1070
     1
1071
      472
1005
123354
  0
LINE
  5
123355
  8
SLIM
 10
11960.602688015621
 20
-275.31833646865431
 30
0.0
 11
11966.56090134867
 21
-269.36012313560622
 31
0.0
1001
GRADIENTCOLOR1ACI
1070
     5
1001
GRADIENTCOLOR2ACI
1070
     2
1001
ACAD
1010
0.0
1020
0.0
1030
0.0
1001
ACDBBLOCKREPETAG
1070
     1
1071
      473
1005
123355
  0
LINE
  5
123356
  8
SLIM
 10
11966.69699692396
 20
-278.20428368137868
 30
0.0
 11
11972.847528001121
 21
-272.05375260422022
 31
0.0
1001
GRADIENTCOLOR1ACI
1070
     5
1001
GRADIENTCOLOR2ACI
1070
     2
1001
ACAD
1010
0.0
1020
0.0
1030
0.0
1001
ACDBBLOCKREPETAG
1070
     1
1071
      474
1005
123356
  0
LINE
  5
123357
  8
SLIM
 10
11973.212796132721
 20
-280.66874059369371
 30
0.0
 11
11979.62591868575
 21
-274.25561804065973
 31
0.0
1001
GRADIENTCOLOR1ACI
1070
     5
1001
GRADIENTCOLOR2ACI
1070
     2
1001
ACAD
1010
0.0
1020
0.0
1030
0.0
1001
ACDBBLOCKREPETAG
1070
     1
1071
      475
1005
123357
  0
LINE
  5
123358
  8
SLIM
 10
11980.200058542639
 20
-282.6617343048456
 30
0.0
 11
11986.97194063303
 21
-275.88985221444773
 31
0.0
1001
GRADIENTCOLOR1ACI
1070
     5
1001
GRADIENTCOLOR2ACI
1070
     2
1001
ACAD
1010
0.0
1020
0.0
1030
0.0
1001
ACDBBLOCKREPETAG
1070
     1
1071
      476
1005
123358
  0
LINE
  5
123359
  8
SLIM
 10
11987.73202158942
 20
-284.11002737912702
 30
0.0
 11
11995.004279745721
 21
-276.83776922282988
 31
0.0
1001
GRADIENTCOLOR1ACI
1070
     5
1001
GRADIENTCOLOR2ACI
1070
     2
1001
ACAD
1010
0.0
1020
0.0
1030
0.0
1001
ACDBBLOCKREPETAG
1070
     1
1071
      477
1005
123359
  0
LINE
  5
12335A
  8
SLIM
 10
11995.9202686471
 20
-284.9020364425258
 30
0.0
 11
12000.0
 21
-280.82230508962152
 31
0.0
1001
GRADIENTCOLOR1ACI
1070
     5
1001
GRADIENTCOLOR2ACI
1070
     2
1001
ACAD
1010
0.0
1020
0.0
1030
0.0
1001
ACDBBLOCKREPETAG
1070
     1
1071
      478
1005
12335A
  0
LINE
  5
12335B
  8
SLIM
 10
12000.0
 20
-280.82230508962152
 30
0.0
 11
12003.922267250789
 21
-276.90003783882821
 31
0.0
1001
GRADIENTCOLOR1ACI
1070
     5
1001
GRADIENTCOLOR2ACI
1070
     2
1001
ACAD
1010
0.0
1020
0.0
1030
0.0
1001
ACDBBLOCKREPETAG
1070
     1
1071
      479
1005
12335B
  0
LINE
  5
12335C
  8
SLIM
 10
12004.94661879974
 20
-284.85594241094651
 30
0.0
 11
12014.10558285387
 21
-275.6969783568166
 31
0.0
1001
GRADIENTCOLOR1ACI
1070
     5
1001
GRADIENTCOLOR2ACI
1070
     2
1001
ACAD
1010
0.0
1020
0.0
1030
0.0
1001
ACDBBLOCKREPETAG
1070
     1
1071
      480
1005
12335C
  0
LINE
  5
12335D
  8
SLIM
 10
12015.142485325139
 20
-283.64033200662118
 30
0.0
 11
12026.478775687539
 21
-272.30404164421702
 31
0.0
1001
GRADIENTCOLOR1ACI
1070
     5
1001
GRADIENTCOLOR2ACI
1070
     2
1001
ACAD
1010
0.0
1020
0.0
1030
0.0
1001
ACDBBLOCKREPETAG
1070
     1
1071
      481
1005
12335D
  0
LINE
  5
12335E
  8
SLIM
 10
12027.249225523659
 20
-280.51384792916173
 30
0.0
 11
12045.76307345283
 21
-261.99999999999909
 31
0.0
1001
GRADIENTCOLOR1ACI
1070
     5
1001
GRADIENTCOLOR2ACI
1070
     2
1001
ACAD
1010
0.0
1020
0.0
1030
0.0
1001
ACDBBLOCKREPETAG
1070
     1
1071
      482
1005
12335E
  0
LINE
  5
12335F
  8
SLIM
 10
12044.045159630419
 20
-272.69816994347582
 30
0.0
 11
12054.743329573899
 21
-261.99999999999909
 31
0.0
1001
GRADIENTCOLOR1ACI
1070
     5
1001
GRADIENTCOLOR2ACI
1070
     2
1001
ACAD
1010
0.0
1020
0.0
1030
0.0
1001
ACDBBLOCKREPETAG
1070
     1
1071
      483
1005
12335F
  0
LINE
  5
123360
  8
CENTER
 10
12080.0
 20
-199.99999999999909
 30
0.0
 11
11900.0
 21
-199.99999999999909
 31
0.0
1001
ACDBBLOCKREPETAG
1070
     1
1071
      187
1005
123360
  0
LINE
  5
123361
  8
CENTER
 10
12000.0
 20
-299.99999999999898
 30
0.0
 11
12000.0
 21
-99.999999999999091
 31
0.0
1001
ACDBBLOCKREPETAG
1070
     1
1071
      188
1005
123361
  0
CIRCLE
  5
123362
  8
OBJECT
 10
12000.0
 20
-199.99999999999909
 30
0.0
 40
70.0
1001
ACDBBLOCKREPETAG
1070
     1
1071
      189
1005
123362
  0
CIRCLE
  5
123363
  8
OBJECT
 10
12000.0
 20
-199.99999999999909
 30
0.0
 40
77.0
1001
ACDBBLOCKREPETAG
1070
     1
1071
      190
1005
123363
  0
LINE
  5
123364
  8
OBJECT
 10
12045.661800227321
 20
-137.99999999999909
 30
0.0
 11
12080.0
 21
-137.99999999999909
 31
0.0
1001
ACDBBLOCKREPETAG
1070
     1
1071
      192
1005
123364
  0
LINE
  5
123365
  8
OBJECT
 10
12045.661800227321
 20
-261.99999999999909
 30
0.0
 11
12080.0
 21
-261.99999999999909
 31
0.0
1001
ACDBBLOCKREPETAG
1070
     1
1071
      193
1005
123365
  0
ARC
  5
123366
  8
OBJECT
 10
12000.0
 20
-199.99999999999909
 30
0.0
 40
85.0
 50
46.837102859853147
 51
313.16289714014681
1001
ACDBBLOCKREPETAG
1070
     1
1071
      202
1005
123366
  0
LINE
  5
123367
  8
OBJECT
 10
12024.1029330933
 20
-243.80694712371681
 30
0.0
 11
12020.659656999989
 21
-232.55462199999889
 31
0.0
1001
ACDBBLOCKREPETAG
1070
     1
1071
      321
1005
123367
  0
LINE
  5
123368
  8
OBJECT
 10
11986.79274990136
 20
-218.22553374208019
 30
0.0
 11
12020.659656999989
 21
-232.5546219999969
 31
0.0
1001
ACDBBLOCKREPETAG
1070
     1
1071
      323
1005
123368
  0
ARC
  5
123369
  8
OBJECT
 10
11982.8961697619
 20
-227.4351299990567
 30
0.0
 40
10.0
 50
67.066778292911366
 51
154.01473437031629
1001
ACDBBLOCKREPETAG
1070
     1
1071
      324
1005
123369
  0
ARC
  5
12336A
  8
OBJECT
 10
11986.148839038129
 20
-225.55386256729159
 30
0.0
 40
7.0
 50
67.066778292911366
 51
154.0147337749826
1001
ACDBBLOCKREPETAG
1070
     1
1071
      325
1005
12336A
  0
LINE
  5
12336B
  8
OBJECT
 10
11969.4199755553
 20
-243.89888500818171
 30
0.0
 11
11979.85649182323
 21
-222.48688253356801
 31
0.0
1001
ACDBBLOCKREPETAG
1070
     1
1071
      353
1005
12336B
  0
LINE
  5
12336C
  8
OBJECT
 10
11965.29721690061
 20
-240.71813901882729
 30
0.0
 11
11973.90710226651
 21
-223.05373004430751
 31
0.0
1001
ACDBBLOCKREPETAG
1070
     1
1071
      354
1005
12336C
  0
ARC
  5
12336D
  8
OBJECT
 10
11976.57969530731
 20
-207.1289369828437
 30
0.0
 40
60.031113246032611
 50
314.07020130422319
 51
322.33936106089681
1001
ACDBBLOCKREPETAG
1070
     1
1071
      355
1005
12336D
  0
CIRCLE
  5
12336E
  8
OBJECT
 10
12000.0
 20
-199.99999999999909
 30
0.0
 40
53.5
1001
ACDBBLOCKREPETAG
1070
     1
1071
      356
1005
12336E
  0
POINT
  5
12336F
  8
DOTS
 10
12000.0
 20
-199.99999999999909
 30
0.0
 50
270.0
1001
ACDBBLOCKREPETAG
1070
     1
1071
      365
1005
12336F
  0
LINE
  5
123370
  8
OBJECT
 10
12083.0
 20
-534.0
 30
0.0
 11
12080.0
 21
-534.0
 31
0.0
1001
ACDBBLOCKREPETAG
1070
     1
1071
        1
1005
123370
  0
ARC
  5
123371
  8
OBJECT
 10
12083.0
 20
-537.0
 30
0.0
 40
3.0
 50
0.0
 51
90.0
1001
ACDBBLOCKREPETAG
1070
     1
1071
        2
1005
123371
  0
LINE
  5
123372
  8
OBJECT
 10
12080.0
 20
-658.0
 30
0.0
 11
12083.0
 21
-658.0
 31
0.0
1001
ACDBBLOCKREPETAG
1070
     1
1071
        3
1005
123372
  0
ARC
  5
123373
  8
OBJECT
 10
12083.0
 20
-655.0
 30
0.0
 40
3.0
 50
270.0
 51
0.0
1001
ACDBBLOCKREPETAG
1070
     1
1071
        4
1005
123373
  0
LINE
  5
123374
  8
OBJECT
 10
12086.0
 20
-655.0
 30
0.0
 11
12086.0
 21
-537.0
 31
0.0
1001
ACDBBLOCKREPETAG
1070
     1
1071
        5
1005
123374
  0
LINE
  5
123375
  8
CENTER
 10
12101.0
 20
-199.99999999999909
 30
0.0
 11
12080.0
 21
-199.99999999999909
 31
0.0
1001
ACDBBLOCKREPETAG
1070
     1
1071
        0
1005
123375
  0
LINE
  5
123376
  8
OBJECT
 10
12083.0
 20
-137.99999999999909
 30
0.0
 11
12080.0
 21
-137.99999999999909
 31
0.0
1001
ACDBBLOCKREPETAG
1070
     1
1071
        1
1005
123376
  0
ARC
  5
123377
  8
OBJECT
 10
12083.0
 20
-140.99999999999909
 30
0.0
 40
3.0
 50
0.0
 51
90.0
1001
ACDBBLOCKREPETAG
1070
     1
1071
        2
1005
123377
  0
LINE
  5
123378
  8
OBJECT
 10
12080.0
 20
-261.99999999999909
 30
0.0
 11
12083.0
 21
-261.99999999999909
 31
0.0
1001
ACDBBLOCKREPETAG
1070
     1
1071
        3
1005
123378
  0
ARC
  5
123379
  8
OBJECT
 10
12083.0
 20
-258.99999999999909
 30
0.0
 40
3.0
 50
270.0
 51
0.0
1001
ACDBBLOCKREPETAG
1070
     1
1071
        4
1005
123379
  0
LINE
  5
12337A
  8
OBJECT
 10
12086.0
 20
-258.99999999999909
 30
0.0
 11
12086.0
 21
-140.99999999999909
 31
0.0
1001
ACDBBLOCKREPETAG
1070
     1
1071
        5
1005
12337A
  0
ARC
  5
12337B
  8
OBJECT
 10
10000.0
 20
-199.99999999999909
 30
0.0
 40
50.0
 50
298.81994300000417
 51
228.52376955964741
1001
ACDBBLOCKREPETAG
1070
     1
1071
      185
1005
12337B
  0
LINE
  5
12337C
  8
SLIM
 10
9927.3018300565236
 20
-155.95484036957691
 30
0.0
 11
9955.9548403695771
 21
-127.30183005652231
 31
0.0
1001
GRADIENTCOLOR1ACI
1070
     5
1001
GRADIENTCOLOR2ACI
1070
     2
1001
ACAD
1010
0.0
1020
0.0
1030
0.0
1001
ACDBBLOCKREPETAG
1070
     1
1071
      442
1005
12337C
  0
LINE
  5
12337D
  8
SLIM
 10
9919.4861520708382
 20
-172.75077447633191
 30
0.0
 11
9938.2903089572737
 21
-153.94661758989659
 31
0.0
1001
GRADIENTCOLOR1ACI
1070
     5
1001
GRADIENTCOLOR2ACI
1070
     2
1001
ACAD
1010
0.0
1020
0.0
1030
0.0
1001
ACDBBLOCKREPETAG
1070
     1
1071
      443
1005
12337D
  0
LINE
  5
12337E
  8
SLIM
 10
9953.9466175898997
 20
-138.29030895727169
 30
0.0
 11
9972.7507744763316
 21
-119.4861520708364
 31
0.0
1001
GRADIENTCOLOR1ACI
1070
     5
1001
GRADIENTCOLOR2ACI
1070
     2
1001
ACAD
1010
0.0
1020
0.0
1030
0.0
1001
ACDBBLOCKREPETAG
1070
     1
1071
      444
1005
12337E
  0
LINE
  5
12337F
  8
SLIM
 10
9916.3596679933817
 20
-184.8575146748604
 30
0.0
 11
9927.6959583557837
 21
-173.5212243124561
 31
0.0
1001
GRADIENTCOLOR1ACI
1070
     5
1001
GRADIENTCOLOR2ACI
1070
     2
1001
ACAD
1010
0.0
1020
0.0
1030
0.0
1001
ACDBBLOCKREPETAG
1070
     1
1071
      445
1005
12337F
  0
LINE
  5
123380
  8
SLIM
 10
9973.5212243124606
 20
-127.6959583557812
 30
0.0
 11
9984.8575146748644
 21
-116.359667993377
 31
0.0
1001
GRADIENTCOLOR1ACI
1070
     5
1001
GRADIENTCOLOR2ACI
1070
     2
1001
ACAD
1010
0.0
1020
0.0
1030
0.0
1001
ACDBBLOCKREPETAG
1070
     1
1071
      446
1005
123380
  0
LINE
  5
123381
  8
SLIM
 10
9915.1440575890538
 20
-195.0533812002549
 30
0.0
 11
9924.3030216431835
 21
-185.89441714612491
 31
0.0
1001
GRADIENTCOLOR1ACI
1070
     5
1001
GRADIENTCOLOR2ACI
1070
     2
1001
ACAD
1010
0.0
1020
0.0
1030
0.0
1001
ACDBBLOCKREPETAG
1070
     1
1071
      447
1005
123381
  0
LINE
  5
123382
  8
SLIM
 10
9985.8944171461262
 20
-124.30302164318159
 30
0.0
 11
9995.0533812002577
 21
-115.1440575890517
 31
0.0
1001
GRADIENTCOLOR1ACI
1070
     5
1001
GRADIENTCOLOR2ACI
1070
     2
1001
ACAD
1010
0.0
1020
0.0
1030
0.0
1001
ACDBBLOCKREPETAG
1070
     1
1071
      448
1005
123382
  0
LINE
  5
123383
  8
SLIM
 10
9915.0979635574713
 20
-204.07973135290339
 30
0.0
 11
9919.1776949103787
 21
-199.99999999999909
 31
0.0
1001
GRADIENTCOLOR1ACI
1070
     5
1001
GRADIENTCOLOR2ACI
1070
     2
1001
ACAD
1010
0.0
1020
0.0
1030
0.0
1001
ACDBBLOCKREPETAG
1070
     1
1071
      449
1005
123383
  0
LINE
  5
123384
  8
SLIM
 10
10000.0
 20
-119.1776949103767
 30
0.0
 11
10004.0797313529
 21
-115.0979635574724
 31
0.0
1001
GRADIENTCOLOR1ACI
1070
     5
1001
GRADIENTCOLOR2ACI
1070
     2
1001
ACAD
1010
0.0
1020
0.0
1030
0.0
1001
ACDBBLOCKREPETAG
1070
     1
1071
      450
1005
123384
  0
LINE
  5
123385
  8
SLIM
 10
9919.1776949103787
 20
-199.99999999999909
 30
0.0
 11
9923.09996216117
 21
-196.07773274920581
 31
0.0
1001
GRADIENTCOLOR1ACI
1070
     5
1001
GRADIENTCOLOR2ACI
1070
     2
1001
ACAD
1010
0.0
1020
0.0
1030
0.0
1001
ACDBBLOCKREPETAG
1070
     1
1071
      451
1005
123385
  0
LINE
  5
123386
  8
SLIM
 10
9996.0777327492033
 20
-123.0999621611699
 30
0.0
 11
10000.0
 21
-119.1776949103767
 31
0.0
1001
GRADIENTCOLOR1ACI
1070
     5
1001
GRADIENTCOLOR2ACI
1070
     2
1001
ACAD
1010
0.0
1020
0.0
1030
0.0
1001
ACDBBLOCKREPETAG
1070
     1
1071
      452
1005
123386
  0
LINE
  5
123387
  8
SLIM
 10
9915.8899726208747
 20
-212.26797841057399
 30
0.0
 11
9923.1622307771686
 21
-204.9957202542767
 31
0.0
1001
GRADIENTCOLOR1ACI
1070
     5
1001
GRADIENTCOLOR2ACI
1070
     2
1001
ACAD
1010
0.0
1020
0.0
1030
0.0
1001
ACDBBLOCKREPETAG
1070
     1
1071
      453
1005
123387
  0
LINE
  5
123388
  8
SLIM
 10
10004.99572025427
 20
-123.1622307771683
 30
0.0
 11
10012.26797841056
 21
-115.88997262087101
 31
0.0
1001
GRADIENTCOLOR1ACI
1070
     5
1001
GRADIENTCOLOR2ACI
1070
     2
1001
ACAD
1010
0.0
1020
0.0
1030
0.0
1001
ACDBBLOCKREPETAG
1070
     1
1071
      454
1005
123388
  0
LINE
  5
123389
  8
SLIM
 10
9917.3382656951544
 20
-219.79994145736151
 30
0.0
 11
9924.1101477855536
 21
-213.02805936696359
 31
0.0
1001
GRADIENTCOLOR1ACI
1070
     5
1001
GRADIENTCOLOR2ACI
1070
     2
1001
ACAD
1010
0.0
1020
0.0
1030
0.0
1001
ACDBBLOCKREPETAG
1070
     1
1071
      455
1005
123389
  0
LINE
  5
12338A
  8
SLIM
 10
10013.028059366959
 20
-124.1101477855505
 30
0.0
 11
10019.799941457361
 21
-117.3382656951526
 31
0.0
1001
GRADIENTCOLOR1ACI
1070
     5
1001
GRADIENTCOLOR2ACI
1070
     2
1001
ACAD
1010
0.0
1020
0.0
1030
0.0
1001
ACDBBLOCKREPETAG
1070
     1
1071
      456
1005
12338A
  0
LINE
  5
12338B
  8
SLIM
 10
9919.3312594063045
 20
-226.78720386727881
 30
0.0
 11
9925.7443819593445
 21
-220.3740813142449
 31
0.0
1001
GRADIENTCOLOR1ACI
1070
     5
1001
GRADIENTCOLOR2ACI
1070
     2
1001
ACAD
1010
0.0
1020
0.0
1030
0.0
1001
ACDBBLOCKREPETAG
1070
     1
1071
      457
1005
12338B
  0
LINE
  5
12338C
  8
SLIM
 10
10020.374081314239
 20
-125.7443819593384
 30
0.0
 11
10026.787203867279
 21
-119.3312594063044
 31
0.0
1001
GRADIENTCOLOR1ACI
1070
     5
1001
GRADIENTCOLOR2ACI
1070
     2
1001
ACAD
1010
0.0
1020
0.0
1030
0.0
1001
ACDBBLOCKREPETAG
1070
     1
1071
      458
1005
12338C
  0
LINE
  5
12338D
  8
SLIM
 10
9921.7957163186184
 20
-233.30300307603289
 30
0.0
 11
9927.9462473957792
 21
-227.1524719988744
 31
0.0
1001
GRADIENTCOLOR1ACI
1070
     5
1001
GRADIENTCOLOR2ACI
1070
     2
1001
ACAD
1010
0.0
1020
0.0
1030
0.0
1001
ACDBBLOCKREPETAG
1070
     1
1071
      459
1005
12338D
  0
LINE
  5
12338E
  8
SLIM
 10
10027.15247199887
 20
-127.946247395778
 30
0.0
 11
10033.303003076029
 21
-121.7957163186195
 31
0.0
1001
GRADIENTCOLOR1ACI
1070
     5
1001
GRADIENTCOLOR2ACI
1070
     2
1001
ACAD
1010
0.0
1020
0.0
1030
0.0
1001
ACDBBLOCKREPETAG
1070
     1
1071
      460
1005
12338E
  0
LINE
  5
12338F
  8
SLIM
 10
9924.6816635313444
 20
-239.39731198437769
 30
0.0
 11
9930.6398768643921
 21
-233.4390986513296
 31
0.0
1001
GRADIENTCOLOR1ACI
1070
     5
1001
GRADIENTCOLOR2ACI
1070
     2
1001
ACAD
1010
0.0
1020
0.0
1030
0.0
1001
ACDBBLOCKREPETAG
1070
     1
1071
      461
1005
12338F
  0
LINE
  5
123390
  8
SLIM
 10
10033.43909865133
 20
-130.63987686439199
 30
0.0
 11
10039.39731198437
 21
-124.6816635313439
 31
0.0
1001
GRADIENTCOLOR1ACI
1070
     5
1001
GRADIENTCOLOR2ACI
1070
     2
1001
ACAD
1010
0.0
1020
0.0
1030
0.0
1001
ACDBBLOCKREPETAG
1070
     1
1071
      462
1005
123390
  0
LINE
  5
123391
  8
SLIM
 10
9927.9544611024248
 20
-245.10477053436691
 30
0.0
 11
9933.7750070149923
 21
-239.28422462179751
 31
0.0
1001
GRADIENTCOLOR1ACI
1070
     5
1001
GRADIENTCOLOR2ACI
1070
     2
1001
ACAD
1010
0.0
1020
0.0
1030
0.0
1001
ACDBBLOCKREPETAG
1070
     1
1071
      463
1005
123391
  0
LINE
  5
123392
  8
SLIM
 10
10039.284224621801
 20
-133.77500701499321
 30
0.0
 11
10045.104770534361
 21
-127.95446110242381
 31
0.0
1001
GRADIENTCOLOR1ACI
1070
     5
1001
GRADIENTCOLOR2ACI
1070
     2
1001
ACAD
1010
0.0
1020
0.0
1030
0.0
1001
ACDBBLOCKREPETAG
1070
     1
1071
      464
1005
123392
  0
LINE
  5
123393
  8
SLIM
 10
9931.5903319686659
 20
-250.4491557891954
 30
0.0
 11
9937.3182075880559
 21
-244.72128016980341
 31
0.0
1001
GRADIENTCOLOR1ACI
1070
     5
1001
GRADIENTCOLOR2ACI
1070
     2
1001
ACAD
1010
0.0
1020
0.0
1030
0.0
1001
ACDBBLOCKREPETAG
1070
     1
1071
      465
1005
123393
  0
LINE
  5
123394
  8
SLIM
 10
10044.721280169801
 20
-137.31820758805651
 30
0.0
 11
10050.449155789191
 21
-131.59033196866449
 31
0.0
1001
GRADIENTCOLOR1ACI
1070
     5
1001
GRADIENTCOLOR2ACI
1070
     2
1001
ACAD
1010
0.0
1020
0.0
1030
0.0
1001
ACDBBLOCKREPETAG
1070
     1
1071
      466
1005
123394
  0
LINE
  5
123395
  8
SLIM
 10
9935.5737496925303
 20
-255.4459941864034
 30
0.0
 11
9941.2481105415936
 21
-249.77163333734029
 31
0.0
1001
GRADIENTCOLOR1ACI
1070
     5
1001
GRADIENTCOLOR2ACI
1070
     2
1001
ACAD
1010
0.0
1020
0.0
1030
0.0
1001
ACDBBLOCKREPETAG
1070
     1
1071
      467
1005
123395
  0
LINE
  5
123396
  8
SLIM
 10
10053.019743878929
 20
-137.99999999999909
 30
0.0
 11
10055.445994186401
 21
-135.57374969252561
 31
0.0
1001
GRADIENTCOLOR1ACI
1070
     5
1001
GRADIENTCOLOR2ACI
1070
     2
1001
ACAD
1010
0.0
1020
0.0
1030
0.0
1001
ACDBBLOCKREPETAG
1070
     1
1071
      468
1005
123396
  0
LINE
  5
123397
  8
SLIM
 10
9939.8959235991442
 20
-260.10407640085572
 30
0.0
 11
9945.5527778486357
 21
-254.44722215136329
 31
0.0
1001
GRADIENTCOLOR1ACI
1070
     5
1001
GRADIENTCOLOR2ACI
1070
     2
1001
ACAD
1010
0.0
1020
0.0
1030
0.0
1001
ACDBBLOCKREPETAG
1070
     1
1071
      469
1005
123397
  0
LINE
  5
123398
  8
SLIM
 10
9944.5540058135957
 20
-264.4262503074724
 30
0.0
 11
9950.2283666626608
 21
-258.75188945840949
 31
0.0
1001
GRADIENTCOLOR1ACI
1070
     5
1001
GRADIENTCOLOR2ACI
1070
     2
1001
ACAD
1010
0.0
1020
0.0
1030
0.0
1001
ACDBBLOCKREPETAG
1070
     1
1071
      470
1005
123398
  0
LINE
  5
123399
  8
SLIM
 10
9949.5508442108039
 20
-268.40966803133369
 30
0.0
 11
9955.2787198301976
 21
-262.68179241194167
 31
0.0
1001
GRADIENTCOLOR1ACI
1070
     5
1001
GRADIENTCOLOR2ACI
1070
     2
1001
ACAD
1010
0.0
1020
0.0
1030
0.0
1001
ACDBBLOCKREPETAG
1070
     1
1071
      471
1005
123399
  0
LINE
  5
12339A
  8
SLIM
 10
9954.8952294656337
 20
-272.04553889757437
 30
0.0
 11
9960.7157753781994
 21
-266.22499298500497
 31
0.0
1001
GRADIENTCOLOR1ACI
1070
     5
1001
GRADIENTCOLOR2ACI
1070
     2
1001
ACAD
1010
0.0
1020
0.0
1030
0.0
1001
ACDBBLOCKREPETAG
1070
     1
1071
      472
1005
12339A
  0
LINE
  5
12339B
  8
SLIM
 10
9960.6026880156223
 20
-275.31833646865431
 30
0.0
 11
9966.5609013486755
 21
-269.36012313560622
 31
0.0
1001
GRADIENTCOLOR1ACI
1070
     5
1001
GRADIENTCOLOR2ACI
1070
     2
1001
ACAD
1010
0.0
1020
0.0
1030
0.0
1001
ACDBBLOCKREPETAG
1070
     1
1071
      473
1005
12339B
  0
LINE
  5
12339C
  8
SLIM
 10
9966.6969969239635
 20
-278.20428368137868
 30
0.0
 11
9972.8475280011244
 21
-272.05375260422022
 31
0.0
1001
GRADIENTCOLOR1ACI
1070
     5
1001
GRADIENTCOLOR2ACI
1070
     2
1001
ACAD
1010
0.0
1020
0.0
1030
0.0
1001
ACDBBLOCKREPETAG
1070
     1
1071
      474
1005
12339C
  0
LINE
  5
12339D
  8
SLIM
 10
9973.2127961327205
 20
-280.66874059369371
 30
0.0
 11
9979.6259186857551
 21
-274.25561804065973
 31
0.0
1001
GRADIENTCOLOR1ACI
1070
     5
1001
GRADIENTCOLOR2ACI
1070
     2
1001
ACAD
1010
0.0
1020
0.0
1030
0.0
1001
ACDBBLOCKREPETAG
1070
     1
1071
      475
1005
12339D
  0
LINE
  5
12339E
  8
SLIM
 10
9980.2000585426413
 20
-282.6617343048456
 30
0.0
 11
9986.971940633035
 21
-275.88985221444773
 31
0.0
1001
GRADIENTCOLOR1ACI
1070
     5
1001
GRADIENTCOLOR2ACI
1070
     2
1001
ACAD
1010
0.0
1020
0.0
1030
0.0
1001
ACDBBLOCKREPETAG
1070
     1
1071
      476
1005
12339E
  0
LINE
  5
12339F
  8
SLIM
 10
9987.7320215894215
 20
-284.11002737912702
 30
0.0
 11
9995.0042797457209
 21
-276.83776922282988
 31
0.0
1001
GRADIENTCOLOR1ACI
1070
     5
1001
GRADIENTCOLOR2ACI
1070
     2
1001
ACAD
1010
0.0
1020
0.0
1030
0.0
1001
ACDBBLOCKREPETAG
1070
     1
1071
      477
1005
12339F
  0
LINE
  5
1233A0
  8
SLIM
 10
9995.9202686470962
 20
-284.9020364425258
 30
0.0
 11
10000.0
 21
-280.82230508962152
 31
0.0
1001
GRADIENTCOLOR1ACI
1070
     5
1001
GRADIENTCOLOR2ACI
1070
     2
1001
ACAD
1010
0.0
1020
0.0
1030
0.0
1001
ACDBBLOCKREPETAG
1070
     1
1071
      478
1005
1233A0
  0
LINE
  5
1233A1
  8
SLIM
 10
10000.0
 20
-280.82230508962152
 30
0.0
 11
10003.922267250789
 21
-276.90003783882821
 31
0.0
1001
GRADIENTCOLOR1ACI
1070
     5
1001
GRADIENTCOLOR2ACI
1070
     2
1001
ACAD
1010
0.0
1020
0.0
1030
0.0
1001
ACDBBLOCKREPETAG
1070
     1
1071
      479
1005
1233A1
  0
LINE
  5
1233A2
  8
SLIM
 10
10004.94661879974
 20
-284.85594241094651
 30
0.0
 11
10014.10558285387
 21
-275.6969783568166
 31
0.0
1001
GRADIENTCOLOR1ACI
1070
     5
1001
GRADIENTCOLOR2ACI
1070
     2
1001
ACAD
1010
0.0
1020
0.0
1030
0.0
1001
ACDBBLOCKREPETAG
1070
     1
1071
      480
1005
1233A2
  0
LINE
  5
1233A3
  8
SLIM
 10
10015.142485325139
 20
-283.64033200662118
 30
0.0
 11
10026.478775687539
 21
-272.30404164421702
 31
0.0
1001
GRADIENTCOLOR1ACI
1070
     5
1001
GRADIENTCOLOR2ACI
1070
     2
1001
ACAD
1010
0.0
1020
0.0
1030
0.0
1001
ACDBBLOCKREPETAG
1070
     1
1071
      481
1005
1233A3
  0
LINE
  5
1233A4
  8
SLIM
 10
10027.249225523659
 20
-280.51384792916173
 30
0.0
 11
10045.76307345283
 21
-261.99999999999909
 31
0.0
1001
GRADIENTCOLOR1ACI
1070
     5
1001
GRADIENTCOLOR2ACI
1070
     2
1001
ACAD
1010
0.0
1020
0.0
1030
0.0
1001
ACDBBLOCKREPETAG
1070
     1
1071
      482
1005
1233A4
  0
LINE
  5
1233A5
  8
SLIM
 10
10044.045159630419
 20
-272.69816994347582
 30
0.0
 11
10054.743329573899
 21
-261.99999999999909
 31
0.0
1001
GRADIENTCOLOR1ACI
1070
     5
1001
GRADIENTCOLOR2ACI
1070
     2
1001
ACAD
1010
0.0
1020
0.0
1030
0.0
1001
ACDBBLOCKREPETAG
1070
     1
1071
      483
1005
1233A5
  0
LINE
  5
1233A6
  8
CENTER
 10
10080.0
 20
-199.99999999999909
 30
0.0
 11
9900.0
 21
-199.99999999999909
 31
0.0
1001
ACDBBLOCKREPETAG
1070
     1
1071
      187
1005
1233A6
  0
LINE
  5
1233A7
  8
CENTER
 10
10000.0
 20
-299.99999999999898
 30
0.0
 11
10000.0
 21
-99.999999999999091
 31
0.0
1001
ACDBBLOCKREPETAG
1070
     1
1071
      188
1005
1233A7
  0
CIRCLE
  5
1233A8
  8
OBJECT
 10
10000.0
 20
-199.99999999999909
 30
0.0
 40
70.0
1001
ACDBBLOCKREPETAG
1070
     1
1071
      189
1005
1233A8
  0
CIRCLE
  5
1233A9
  8
OBJECT
 10
10000.0
 20
-199.99999999999909
 30
0.0
 40
77.0
1001
ACDBBLOCKREPETAG
1070
     1
1071
      190
1005
1233A9
  0
LINE
  5
1233AA
  8
OBJECT
 10
10045.661800227321
 20
-137.99999999999909
 30
0.0
 11
10080.0
 21
-137.99999999999909
 31
0.0
1001
ACDBBLOCKREPETAG
1070
     1
1071
      192
1005
1233AA
  0
LINE
  5
1233AB
  8
OBJECT
 10
10045.661800227321
 20
-261.99999999999909
 30
0.0
 11
10080.0
 21
-261.99999999999909
 31
0.0
1001
ACDBBLOCKREPETAG
1070
     1
1071
      193
1005
1233AB
  0
ARC
  5
1233AC
  8
OBJECT
 10
10000.0
 20
-199.99999999999909
 30
0.0
 40
85.0
 50
46.837102859853147
 51
313.16289714014681
1001
ACDBBLOCKREPETAG
1070
     1
1071
      202
1005
1233AC
  0
LINE
  5
1233AD
  8
OBJECT
 10
10024.1029330933
 20
-243.80694712371681
 30
0.0
 11
10020.659656999989
 21
-232.55462199999889
 31
0.0
1001
ACDBBLOCKREPETAG
1070
     1
1071
      321
1005
1233AD
  0
LINE
  5
1233AE
  8
OBJECT
 10
9986.7927499013749
 20
-218.22553374208019
 30
0.0
 11
10020.659656999989
 21
-232.5546219999969
 31
0.0
1001
ACDBBLOCKREPETAG
1070
     1
1071
      323
1005
1233AE
  0
ARC
  5
1233AF
  8
OBJECT
 10
9982.8961697618997
 20
-227.4351299990567
 30
0.0
 40
10.0
 50
67.066778292911366
 51
154.01473437031629
1001
ACDBBLOCKREPETAG
1070
     1
1071
      324
1005
1233AF
  0
ARC
  5
1233B0
  8
OBJECT
 10
9986.1488390381292
 20
-225.55386256729159
 30
0.0
 40
7.0
 50
67.066778292911366
 51
154.0147337749826
1001
ACDBBLOCKREPETAG
1070
     1
1071
      325
1005
1233B0
  0
LINE
  5
1233B1
  8
OBJECT
 10
9969.4199755553
 20
-243.89888500818171
 30
0.0
 11
9979.8564918232369
 21
-222.48688253356801
 31
0.0
1001
ACDBBLOCKREPETAG
1070
     1
1071
      353
1005
1233B1
  0
LINE
  5
1233B2
  8
OBJECT
 10
9965.2972169006098
 20
-240.71813901882729
 30
0.0
 11
9973.9071022665084
 21
-223.05373004430751
 31
0.0
1001
ACDBBLOCKREPETAG
1070
     1
1071
      354
1005
1233B2
  0
ARC
  5
1233B3
  8
OBJECT
 10
9976.5796953073132
 20
-207.1289369828437
 30
0.0
 40
60.031113246032611
 50
314.07020130422319
 51
322.33936106089681
1001
ACDBBLOCKREPETAG
1070
     1
1071
      355
1005
1233B3
  0
CIRCLE
  5
1233B4
  8
OBJECT
 10
10000.0
 20
-199.99999999999909
 30
0.0
 40
53.5
1001
ACDBBLOCKREPETAG
1070
     1
1071
      356
1005
1233B4
  0
POINT
  5
1233B5
  8
DOTS
 10
10000.0
 20
-199.99999999999909
 30
0.0
 50
270.0
1001
ACDBBLOCKREPETAG
1070
     1
1071
      365
1005
1233B5
  0
LINE
  5
1233B6
  8
OBJECT
 10
10083.0
 20
-534.0
 30
0.0
 11
10080.0
 21
-534.0
 31
0.0
1001
ACDBBLOCKREPETAG
1070
     1
1071
        1
1005
1233B6
  0
ARC
  5
1233B7
  8
OBJECT
 10
10083.0
 20
-537.0
 30
0.0
 40
3.0
 50
0.0
 51
90.0
1001
ACDBBLOCKREPETAG
1070
     1
1071
        2
1005
1233B7
  0
LINE
  5
1233B8
  8
OBJECT
 10
10080.0
 20
-658.0
 30
0.0
 11
10083.0
 21
-658.0
 31
0.0
1001
ACDBBLOCKREPETAG
1070
     1
1071
        3
1005
1233B8
  0
ARC
  5
1233B9
  8
OBJECT
 10
10083.0
 20
-655.0
 30
0.0
 40
3.0
 50
270.0
 51
0.0
1001
ACDBBLOCKREPETAG
1070
     1
1071
        4
1005
1233B9
  0
LINE
  5
1233BA
  8
OBJECT
 10
10086.0
 20
-655.0
 30
0.0
 11
10086.0
 21
-537.0
 31
0.0
1001
ACDBBLOCKREPETAG
1070
     1
1071
        5
1005
1233BA
  0
LINE
  5
1233BB
  8
CENTER
 10
10101.0
 20
-199.99999999999909
 30
0.0
 11
10080.0
 21
-199.99999999999909
 31
0.0
1001
ACDBBLOCKREPETAG
1070
     1
1071
        0
1005
1233BB
  0
LINE
  5
1233BC
  8
OBJECT
 10
10083.0
 20
-137.99999999999909
 30
0.0
 11
10080.0
 21
-137.99999999999909
 31
0.0
1001
ACDBBLOCKREPETAG
1070
     1
1071
        1
1005
1233BC
  0
ARC
  5
1233BD
  8
OBJECT
 10
10083.0
 20
-140.99999999999909
 30
0.0
 40
3.0
 50
0.0
 51
90.0
1001
ACDBBLOCKREPETAG
1070
     1
1071
        2
1005
1233BD
  0
LINE
  5
1233BE
  8
OBJECT
 10
10080.0
 20
-261.99999999999909
 30
0.0
 11
10083.0
 21
-261.99999999999909
 31
0.0
1001
ACDBBLOCKREPETAG
1070
     1
1071
        3
1005
1233BE
  0
ARC
  5
1233BF
  8
OBJECT
 10
10083.0
 20
-258.99999999999909
 30
0.0
 40
3.0
 50
270.0
 51
0.0
1001
ACDBBLOCKREPETAG
1070
     1
1071
        4
1005
1233BF
  0
LINE
  5
1233C0
  8
OBJECT
 10
10086.0
 20
-258.99999999999909
 30
0.0
 11
10086.0
 21
-140.99999999999909
 31
0.0
1001
ACDBBLOCKREPETAG
1070
     1
1071
        5
1005
1233C0
  0
ARC
  5
1233C1
  8
OBJECT
 10
8000.0
 20
-199.99999999999909
 30
0.0
 40
50.0
 50
298.81994300000417
 51
228.52376955964741
1001
ACDBBLOCKREPETAG
1070
     1
1071
      185
1005
1233C1
  0
LINE
  5
1233C2
  8
SLIM
 10
7927.3018300565236
 20
-155.95484036957691
 30
0.0
 11
7955.9548403695781
 21
-127.30183005652231
 31
0.0
1001
GRADIENTCOLOR1ACI
1070
     5
1001
GRADIENTCOLOR2ACI
1070
     2
1001
ACAD
1010
0.0
1020
0.0
1030
0.0
1001
ACDBBLOCKREPETAG
1070
     1
1071
      442
1005
1233C2
  0
LINE
  5
1233C3
  8
SLIM
 10
7919.4861520708373
 20
-172.75077447633191
 30
0.0
 11
7938.2903089572737
 21
-153.94661758989659
 31
0.0
1001
GRADIENTCOLOR1ACI
1070
     5
1001
GRADIENTCOLOR2ACI
1070
     2
1001
ACAD
1010
0.0
1020
0.0
1030
0.0
1001
ACDBBLOCKREPETAG
1070
     1
1071
      443
1005
1233C3
  0
LINE
  5
1233C4
  8
SLIM
 10
7953.9466175898988
 20
-138.29030895727169
 30
0.0
 11
7972.7507744763334
 21
-119.4861520708364
 31
0.0
1001
GRADIENTCOLOR1ACI
1070
     5
1001
GRADIENTCOLOR2ACI
1070
     2
1001
ACAD
1010
0.0
1020
0.0
1030
0.0
1001
ACDBBLOCKREPETAG
1070
     1
1071
      444
1005
1233C4
  0
LINE
  5
1233C5
  8
SLIM
 10
7916.3596679933771
 20
-184.8575146748604
 30
0.0
 11
7927.6959583557828
 21
-173.5212243124561
 31
0.0
1001
GRADIENTCOLOR1ACI
1070
     5
1001
GRADIENTCOLOR2ACI
1070
     2
1001
ACAD
1010
0.0
1020
0.0
1030
0.0
1001
ACDBBLOCKREPETAG
1070
     1
1071
      445
1005
1233C5
  0
LINE
  5
1233C6
  8
SLIM
 10
7973.5212243124561
 20
-127.6959583557812
 30
0.0
 11
7984.8575146748608
 21
-116.359667993377
 31
0.0
1001
GRADIENTCOLOR1ACI
1070
     5
1001
GRADIENTCOLOR2ACI
1070
     2
1001
ACAD
1010
0.0
1020
0.0
1030
0.0
1001
ACDBBLOCKREPETAG
1070
     1
1071
      446
1005
1233C6
  0
LINE
  5
1233C7
  8
SLIM
 10
7915.1440575890529
 20
-195.0533812002549
 30
0.0
 11
7924.3030216431825
 21
-185.89441714612491
 31
0.0
1001
GRADIENTCOLOR1ACI
1070
     5
1001
GRADIENTCOLOR2ACI
1070
     2
1001
ACAD
1010
0.0
1020
0.0
1030
0.0
1001
ACDBBLOCKREPETAG
1070
     1
1071
      447
1005
1233C7
  0
LINE
  5
1233C8
  8
SLIM
 10
7985.8944171461262
 20
-124.30302164318159
 30
0.0
 11
7995.0533812002559
 21
-115.1440575890517
 31
0.0
1001
GRADIENTCOLOR1ACI
1070
     5
1001
GRADIENTCOLOR2ACI
1070
     2
1001
ACAD
1010
0.0
1020
0.0
1030
0.0
1001
ACDBBLOCKREPETAG
1070
     1
1071
      448
1005
1233C8
  0
LINE
  5
1233C9
  8
SLIM
 10
7915.097963557474
 20
-204.07973135290339
 30
0.0
 11
7919.1776949103778
 21
-199.99999999999909
 31
0.0
1001
GRADIENTCOLOR1ACI
1070
     5
1001
GRADIENTCOLOR2ACI
1070
     2
1001
ACAD
1010
0.0
1020
0.0
1030
0.0
1001
ACDBBLOCKREPETAG
1070
     1
1071
      449
1005
1233C9
  0
LINE
  5
1233CA
  8
SLIM
 10
8000.0
 20
-119.1776949103767
 30
0.0
 11
8004.0797313529074
 21
-115.0979635574724
 31
0.0
1001
GRADIENTCOLOR1ACI
1070
     5
1001
GRADIENTCOLOR2ACI
1070
     2
1001
ACAD
1010
0.0
1020
0.0
1030
0.0
1001
ACDBBLOCKREPETAG
1070
     1
1071
      450
1005
1233CA
  0
LINE
  5
1233CB
  8
SLIM
 10
7919.1776949103778
 20
-199.99999999999909
 30
0.0
 11
7923.0999621611709
 21
-196.07773274920581
 31
0.0
1001
GRADIENTCOLOR1ACI
1070
     5
1001
GRADIENTCOLOR2ACI
1070
     2
1001
ACAD
1010
0.0
1020
0.0
1030
0.0
1001
ACDBBLOCKREPETAG
1070
     1
1071
      451
1005
1233CB
  0
LINE
  5
1233CC
  8
SLIM
 10
7996.077732749206
 20
-123.0999621611699
 30
0.0
 11
8000.0
 21
-119.1776949103767
 31
0.0
1001
GRADIENTCOLOR1ACI
1070
     5
1001
GRADIENTCOLOR2ACI
1070
     2
1001
ACAD
1010
0.0
1020
0.0
1030
0.0
1001
ACDBBLOCKREPETAG
1070
     1
1071
      452
1005
1233CC
  0
LINE
  5
1233CD
  8
SLIM
 10
7915.889972620871
 20
-212.26797841057399
 30
0.0
 11
7923.1622307771704
 21
-204.9957202542767
 31
0.0
1001
GRADIENTCOLOR1ACI
1070
     5
1001
GRADIENTCOLOR2ACI
1070
     2
1001
ACAD
1010
0.0
1020
0.0
1030
0.0
1001
ACDBBLOCKREPETAG
1070
     1
1071
      453
1005
1233CD
  0
LINE
  5
1233CE
  8
SLIM
 10
8004.9957202542737
 20
-123.1622307771683
 30
0.0
 11
8012.2679784105749
 21
-115.88997262087101
 31
0.0
1001
GRADIENTCOLOR1ACI
1070
     5
1001
GRADIENTCOLOR2ACI
1070
     2
1001
ACAD
1010
0.0
1020
0.0
1030
0.0
1001
ACDBBLOCKREPETAG
1070
     1
1071
      454
1005
1233CE
  0
LINE
  5
1233CF
  8
SLIM
 10
7917.3382656951526
 20
-219.79994145736151
 30
0.0
 11
7924.1101477855518
 21
-213.02805936696359
 31
0.0
1001
GRADIENTCOLOR1ACI
1070
     5
1001
GRADIENTCOLOR2ACI
1070
     2
1001
ACAD
1010
0.0
1020
0.0
1030
0.0
1001
ACDBBLOCKREPETAG
1070
     1
1071
      455
1005
1233CF
  0
LINE
  5
1233D0
  8
SLIM
 10
8013.028059366964
 20
-124.1101477855505
 30
0.0
 11
8019.7999414573624
 21
-117.3382656951526
 31
0.0
1001
GRADIENTCOLOR1ACI
1070
     5
1001
GRADIENTCOLOR2ACI
1070
     2
1001
ACAD
1010
0.0
1020
0.0
1030
0.0
1001
ACDBBLOCKREPETAG
1070
     1
1071
      456
1005
1233D0
  0
LINE
  5
1233D1
  8
SLIM
 10
7919.3312594063054
 20
-226.78720386727881
 30
0.0
 11
7925.74438195934
 21
-220.3740813142449
 31
0.0
1001
GRADIENTCOLOR1ACI
1070
     5
1001
GRADIENTCOLOR2ACI
1070
     2
1001
ACAD
1010
0.0
1020
0.0
1030
0.0
1001
ACDBBLOCKREPETAG
1070
     1
1071
      457
1005
1233D1
  0
LINE
  5
1233D2
  8
SLIM
 10
8020.3740813142458
 20
-125.7443819593384
 30
0.0
 11
8026.7872038672767
 21
-119.3312594063044
 31
0.0
1001
GRADIENTCOLOR1ACI
1070
     5
1001
GRADIENTCOLOR2ACI
1070
     2
1001
ACAD
1010
0.0
1020
0.0
1030
0.0
1001
ACDBBLOCKREPETAG
1070
     1
1071
      458
1005
1233D2
  0
LINE
  5
1233D3
  8
SLIM
 10
7921.7957163186193
 20
-233.30300307603289
 30
0.0
 11
7927.9462473957792
 21
-227.1524719988744
 31
0.0
1001
GRADIENTCOLOR1ACI
1070
     5
1001
GRADIENTCOLOR2ACI
1070
     2
1001
ACAD
1010
0.0
1020
0.0
1030
0.0
1001
ACDBBLOCKREPETAG
1070
     1
1071
      459
1005
1233D3
  0
LINE
  5
1233D4
  8
SLIM
 10
8027.1524719988738
 20
-127.946247395778
 30
0.0
 11
8033.3030030760328
 21
-121.7957163186195
 31
0.0
1001
GRADIENTCOLOR1ACI
1070
     5
1001
GRADIENTCOLOR2ACI
1070
     2
1001
ACAD
1010
0.0
1020
0.0
1030
0.0
1001
ACDBBLOCKREPETAG
1070
     1
1071
      460
1005
1233D4
  0
LINE
  5
1233D5
  8
SLIM
 10
7924.6816635313462
 20
-239.39731198437769
 30
0.0
 11
7930.639876864393
 21
-233.4390986513296
 31
0.0
1001
GRADIENTCOLOR1ACI
1070
     5
1001
GRADIENTCOLOR2ACI
1070
     2
1001
ACAD
1010
0.0
1020
0.0
1030
0.0
1001
ACDBBLOCKREPETAG
1070
     1
1071
      461
1005
1233D5
  0
LINE
  5
1233D6
  8
SLIM
 10
8033.4390986513308
 20
-130.63987686439199
 30
0.0
 11
8039.3973119843777
 21
-124.6816635313439
 31
0.0
1001
GRADIENTCOLOR1ACI
1070
     5
1001
GRADIENTCOLOR2ACI
1070
     2
1001
ACAD
1010
0.0
1020
0.0
1030
0.0
1001
ACDBBLOCKREPETAG
1070
     1
1071
      462
1005
1233D6
  0
LINE
  5
1233D7
  8
SLIM
 10
7927.9544611024266
 20
-245.10477053436691
 30
0.0
 11
7933.7750070149932
 21
-239.28422462179751
 31
0.0
1001
GRADIENTCOLOR1ACI
1070
     5
1001
GRADIENTCOLOR2ACI
1070
     2
1001
ACAD
1010
0.0
1020
0.0
1030
0.0
1001
ACDBBLOCKREPETAG
1070
     1
1071
      463
1005
1233D7
  0
LINE
  5
1233D8
  8
SLIM
 10
8039.2842246217979
 20
-133.77500701499321
 30
0.0
 11
8045.1047705343699
 21
-127.95446110242381
 31
0.0
1001
GRADIENTCOLOR1ACI
1070
     5
1001
GRADIENTCOLOR2ACI
1070
     2
1001
ACAD
1010
0.0
1020
0.0
1030
0.0
1001
ACDBBLOCKREPETAG
1070
     1
1071
      464
1005
1233D8
  0
LINE
  5
1233D9
  8
SLIM
 10
7931.5903319686649
 20
-250.4491557891954
 30
0.0
 11
7937.3182075880577
 21
-244.72128016980341
 31
0.0
1001
GRADIENTCOLOR1ACI
1070
     5
1001
GRADIENTCOLOR2ACI
1070
     2
1001
ACAD
1010
0.0
1020
0.0
1030
0.0
1001
ACDBBLOCKREPETAG
1070
     1
1071
      465
1005
1233D9
  0
LINE
  5
1233DA
  8
SLIM
 10
8044.7212801698061
 20
-137.31820758805651
 30
0.0
 11
8050.449155789197
 21
-131.59033196866449
 31
0.0
1001
GRADIENTCOLOR1ACI
1070
     5
1001
GRADIENTCOLOR2ACI
1070
     2
1001
ACAD
1010
0.0
1020
0.0
1030
0.0
1001
ACDBBLOCKREPETAG
1070
     1
1071
      466
1005
1233DA
  0
LINE
  5
1233DB
  8
SLIM
 10
7935.5737496925258
 20
-255.4459941864034
 30
0.0
 11
7941.24811054159
 21
-249.77163333734029
 31
0.0
1001
GRADIENTCOLOR1ACI
1070
     5
1001
GRADIENTCOLOR2ACI
1070
     2
1001
ACAD
1010
0.0
1020
0.0
1030
0.0
1001
ACDBBLOCKREPETAG
1070
     1
1071
      467
1005
1233DB
  0
LINE
  5
1233DC
  8
SLIM
 10
8053.0197438789319
 20
-137.99999999999909
 30
0.0
 11
8055.4459941864034
 21
-135.57374969252561
 31
0.0
1001
GRADIENTCOLOR1ACI
1070
     5
1001
GRADIENTCOLOR2ACI
1070
     2
1001
ACAD
1010
0.0
1020
0.0
1030
0.0
1001
ACDBBLOCKREPETAG
1070
     1
1071
      468
1005
1233DC
  0
LINE
  5
1233DD
  8
SLIM
 10
7939.8959235991442
 20
-260.10407640085572
 30
0.0
 11
7945.5527778486357
 21
-254.44722215136329
 31
0.0
1001
GRADIENTCOLOR1ACI
1070
     5
1001
GRADIENTCOLOR2ACI
1070
     2
1001
ACAD
1010
0.0
1020
0.0
1030
0.0
1001
ACDBBLOCKREPETAG
1070
     1
1071
      469
1005
1233DD
  0
LINE
  5
1233DE
  8
SLIM
 10
7944.5540058135948
 20
-264.4262503074724
 30
0.0
 11
7950.2283666626608
 21
-258.75188945840949
 31
0.0
1001
GRADIENTCOLOR1ACI
1070
     5
1001
GRADIENTCOLOR2ACI
1070
     2
1001
ACAD
1010
0.0
1020
0.0
1030
0.0
1001
ACDBBLOCKREPETAG
1070
     1
1071
      470
1005
1233DE
  0
LINE
  5
1233DF
  8
SLIM
 10
7949.5508442108039
 20
-268.40966803133369
 30
0.0
 11
7955.2787198301958
 21
-262.68179241194167
 31
0.0
1001
GRADIENTCOLOR1ACI
1070
     5
1001
GRADIENTCOLOR2ACI
1070
     2
1001
ACAD
1010
0.0
1020
0.0
1030
0.0
1001
ACDBBLOCKREPETAG
1070
     1
1071
      471
1005
1233DF
  0
LINE
  5
1233E0
  8
SLIM
 10
7954.895229465631
 20
-272.04553889757437
 30
0.0
 11
7960.7157753782021
 21
-266.22499298500497
 31
0.0
1001
GRADIENTCOLOR1ACI
1070
     5
1001
GRADIENTCOLOR2ACI
1070
     2
1001
ACAD
1010
0.0
1020
0.0
1030
0.0
1001
ACDBBLOCKREPETAG
1070
     1
1071
      472
1005
1233E0
  0
LINE
  5
1233E1
  8
SLIM
 10
7960.6026880156223
 20
-275.31833646865431
 30
0.0
 11
7966.5609013486683
 21
-269.36012313560622
 31
0.0
1001
GRADIENTCOLOR1ACI
1070
     5
1001
GRADIENTCOLOR2ACI
1070
     2
1001
ACAD
1010
0.0
1020
0.0
1030
0.0
1001
ACDBBLOCKREPETAG
1070
     1
1071
      473
1005
1233E1
  0
LINE
  5
1233E2
  8
SLIM
 10
7966.6969969239663
 20
-278.20428368137868
 30
0.0
 11
7972.8475280011244
 21
-272.05375260422022
 31
0.0
1001
GRADIENTCOLOR1ACI
1070
     5
1001
GRADIENTCOLOR2ACI
1070
     2
1001
ACAD
1010
0.0
1020
0.0
1030
0.0
1001
ACDBBLOCKREPETAG
1070
     1
1071
      474
1005
1233E2
  0
LINE
  5
1233E3
  8
SLIM
 10
7973.2127961327187
 20
-280.66874059369371
 30
0.0
 11
7979.6259186857542
 21
-274.25561804065973
 31
0.0
1001
GRADIENTCOLOR1ACI
1070
     5
1001
GRADIENTCOLOR2ACI
1070
     2
1001
ACAD
1010
0.0
1020
0.0
1030
0.0
1001
ACDBBLOCKREPETAG
1070
     1
1071
      475
1005
1233E3
  0
LINE
  5
1233E4
  8
SLIM
 10
7980.2000585426395
 20
-282.6617343048456
 30
0.0
 11
7986.971940633035
 21
-275.88985221444773
 31
0.0
1001
GRADIENTCOLOR1ACI
1070
     5
1001
GRADIENTCOLOR2ACI
1070
     2
1001
ACAD
1010
0.0
1020
0.0
1030
0.0
1001
ACDBBLOCKREPETAG
1070
     1
1071
      476
1005
1233E4
  0
LINE
  5
1233E5
  8
SLIM
 10
7987.732021589426
 20
-284.11002737912702
 30
0.0
 11
7995.0042797457209
 21
-276.83776922282988
 31
0.0
1001
GRADIENTCOLOR1ACI
1070
     5
1001
GRADIENTCOLOR2ACI
1070
     2
1001
ACAD
1010
0.0
1020
0.0
1030
0.0
1001
ACDBBLOCKREPETAG
1070
     1
1071
      477
1005
1233E5
  0
LINE
  5
1233E6
  8
SLIM
 10
7995.9202686470962
 20
-284.9020364425258
 30
0.0
 11
8000.0
 21
-280.82230508962152
 31
0.0
1001
GRADIENTCOLOR1ACI
1070
     5
1001
GRADIENTCOLOR2ACI
1070
     2
1001
ACAD
1010
0.0
1020
0.0
1030
0.0
1001
ACDBBLOCKREPETAG
1070
     1
1071
      478
1005
1233E6
  0
LINE
  5
1233E7
  8
SLIM
 10
8000.0
 20
-280.82230508962152
 30
0.0
 11
8003.9222672507931
 21
-276.90003783882821
 31
0.0
1001
GRADIENTCOLOR1ACI
1070
     5
1001
GRADIENTCOLOR2ACI
1070
     2
1001
ACAD
1010
0.0
1020
0.0
1030
0.0
1001
ACDBBLOCKREPETAG
1070
     1
1071
      479
1005
1233E7
  0
LINE
  5
1233E8
  8
SLIM
 10
8004.9466187997441
 20
-284.85594241094651
 30
0.0
 11
8014.1055828538756
 21
-275.6969783568166
 31
0.0
1001
GRADIENTCOLOR1ACI
1070
     5
1001
GRADIENTCOLOR2ACI
1070
     2
1001
ACAD
1010
0.0
1020
0.0
1030
0.0
1001
ACDBBLOCKREPETAG
1070
     1
1071
      480
1005
1233E8
  0
LINE
  5
1233E9
  8
SLIM
 10
8015.1424853251401
 20
-283.64033200662118
 30
0.0
 11
8026.478775687543
 21
-272.30404164421702
 31
0.0
1001
GRADIENTCOLOR1ACI
1070
     5
1001
GRADIENTCOLOR2ACI
1070
     2
1001
ACAD
1010
0.0
1020
0.0
1030
0.0
1001
ACDBBLOCKREPETAG
1070
     1
1071
      481
1005
1233E9
  0
LINE
  5
1233EA
  8
SLIM
 10
8027.2492255236657
 20
-280.51384792916173
 30
0.0
 11
8045.7630734528302
 21
-261.99999999999909
 31
0.0
1001
GRADIENTCOLOR1ACI
1070
     5
1001
GRADIENTCOLOR2ACI
1070
     2
1001
ACAD
1010
0.0
1020
0.0
1030
0.0
1001
ACDBBLOCKREPETAG
1070
     1
1071
      482
1005
1233EA
  0
LINE
  5
1233EB
  8
SLIM
 10
8044.045159630421
 20
-272.69816994347582
 30
0.0
 11
8054.7433295739002
 21
-261.99999999999909
 31
0.0
1001
GRADIENTCOLOR1ACI
1070
     5
1001
GRADIENTCOLOR2ACI
1070
     2
1001
ACAD
1010
0.0
1020
0.0
1030
0.0
1001
ACDBBLOCKREPETAG
1070
     1
1071
      483
1005
1233EB
  0
LINE
  5
1233EC
  8
CENTER
 10
8080.0
 20
-199.99999999999909
 30
0.0
 11
7900.0
 21
-199.99999999999909
 31
0.0
1001
ACDBBLOCKREPETAG
1070
     1
1071
      187
1005
1233EC
  0
LINE
  5
1233ED
  8
CENTER
 10
8000.0
 20
-299.99999999999898
 30
0.0
 11
8000.0
 21
-99.999999999999091
 31
0.0
1001
ACDBBLOCKREPETAG
1070
     1
1071
      188
1005
1233ED
  0
CIRCLE
  5
1233EE
  8
OBJECT
 10
8000.0
 20
-199.99999999999909
 30
0.0
 40
70.0
1001
ACDBBLOCKREPETAG
1070
     1
1071
      189
1005
1233EE
  0
CIRCLE
  5
1233EF
  8
OBJECT
 10
8000.0
 20
-199.99999999999909
 30
0.0
 40
77.0
1001
ACDBBLOCKREPETAG
1070
     1
1071
      190
1005
1233EF
  0
LINE
  5
1233F0
  8
OBJECT
 10
8045.6618002273271
 20
-137.99999999999909
 30
0.0
 11
8080.0
 21
-137.99999999999909
 31
0.0
1001
ACDBBLOCKREPETAG
1070
     1
1071
      192
1005
1233F0
  0
LINE
  5
1233F1
  8
OBJECT
 10
8045.6618002273271
 20
-261.99999999999909
 30
0.0
 11
8080.0
 21
-261.99999999999909
 31
0.0
1001
ACDBBLOCKREPETAG
1070
     1
1071
      193
1005
1233F1
  0
ARC
  5
1233F2
  8
OBJECT
 10
8000.0
 20
-199.99999999999909
 30
0.0
 40
85.0
 50
46.83710285981514
 51
313.16289714018478
1001
ACDBBLOCKREPETAG
1070
     1
1071
      202
1005
1233F2
  0
LINE
  5
1233F3
  8
OBJECT
 10
8024.1029330933006
 20
-243.80694712371681
 30
0.0
 11
8020.6596569999974
 21
-232.55462199999889
 31
0.0
1001
ACDBBLOCKREPETAG
1070
     1
1071
      321
1005
1233F3
  0
LINE
  5
1233F4
  8
OBJECT
 10
7986.7927499013749
 20
-218.22553374208019
 30
0.0
 11
8020.6596569999974
 21
-232.5546219999969
 31
0.0
1001
ACDBBLOCKREPETAG
1070
     1
1071
      323
1005
1233F4
  0
ARC
  5
1233F5
  8
OBJECT
 10
7982.8961697618997
 20
-227.4351299990567
 30
0.0
 40
10.0
 50
67.066778292911366
 51
154.0147343702935
1001
ACDBBLOCKREPETAG
1070
     1
1071
      324
1005
1233F5
  0
ARC
  5
1233F6
  8
OBJECT
 10
7986.1488390381273
 20
-225.55386256729159
 30
0.0
 40
7.0
 50
67.066778292911366
 51
154.0147337749826
1001
ACDBBLOCKREPETAG
1070
     1
1071
      325
1005
1233F6
  0
LINE
  5
1233F7
  8
OBJECT
 10
7969.4199755553009
 20
-243.89888500818171
 30
0.0
 11
7979.8564918232369
 21
-222.48688253356801
 31
0.0
1001
ACDBBLOCKREPETAG
1070
     1
1071
      353
1005
1233F7
  0
LINE
  5
1233F8
  8
OBJECT
 10
7965.2972169006098
 20
-240.71813901882729
 30
0.0
 11
7973.9071022665084
 21
-223.05373004430751
 31
0.0
1001
ACDBBLOCKREPETAG
1070
     1
1071
      354
1005
1233F8
  0
ARC
  5
1233F9
  8
OBJECT
 10
7976.5796953073141
 20
-207.1289369828437
 30
0.0
 40
60.031113246032611
 50
314.07020130418567
 51
322.33936106089681
1001
ACDBBLOCKREPETAG
1070
     1
1071
      355
1005
1233F9
  0
CIRCLE
  5
1233FA
  8
OBJECT
 10
8000.0
 20
-199.99999999999909
 30
0.0
 40
53.5
1001
ACDBBLOCKREPETAG
1070
     1
1071
      356
1005
1233FA
  0
POINT
  5
1233FB
  8
DOTS
 10
8000.0
 20
-199.99999999999909
 30
0.0
 50
270.0
1001
ACDBBLOCKREPETAG
1070
     1
1071
      365
1005
1233FB
  0
LINE
  5
1233FC
  8
OBJECT
 10
8083.0
 20
-534.0
 30
0.0
 11
8080.0
 21
-534.0
 31
0.0
1001
ACDBBLOCKREPETAG
1070
     1
1071
        1
1005
1233FC
  0
ARC
  5
1233FD
  8
OBJECT
 10
8083.0
 20
-537.0
 30
0.0
 40
3.0
 50
0.0
 51
90.0
1001
ACDBBLOCKREPETAG
1070
     1
1071
        2
1005
1233FD
  0
LINE
  5
1233FE
  8
OBJECT
 10
8080.0
 20
-658.0
 30
0.0
 11
8083.0
 21
-658.0
 31
0.0
1001
ACDBBLOCKREPETAG
1070
     1
1071
        3
1005
1233FE
  0
ARC
  5
1233FF
  8
OBJECT
 10
8083.0
 20
-655.0
 30
0.0
 40
3.0
 50
270.0
 51
0.0
1001
ACDBBLOCKREPETAG
1070
     1
1071
        4
1005
1233FF
  0
LINE
  5
123400
  8
OBJECT
 10
8086.0
 20
-655.0
 30
0.0
 11
8086.0
 21
-537.0
 31
0.0
1001
ACDBBLOCKREPETAG
1070
     1
1071
        5
1005
123400
  0
LINE
  5
123401
  8
CENTER
 10
8101.0
 20
-199.99999999999909
 30
0.0
 11
8080.0
 21
-199.99999999999909
 31
0.0
1001
ACDBBLOCKREPETAG
1070
     1
1071
        0
1005
123401
  0
LINE
  5
123402
  8
OBJECT
 10
8083.0
 20
-137.99999999999909
 30
0.0
 11
8080.0
 21
-137.99999999999909
 31
0.0
1001
ACDBBLOCKREPETAG
1070
     1
1071
        1
1005
123402
  0
ARC
  5
123403
  8
OBJECT
 10
8083.0
 20
-140.99999999999909
 30
0.0
 40
3.0
 50
0.0
 51
90.0
1001
ACDBBLOCKREPETAG
1070
     1
1071
        2
1005
123403
  0
LINE
  5
123404
  8
OBJECT
 10
8080.0
 20
-261.99999999999909
 30
0.0
 11
8083.0
 21
-261.99999999999909
 31
0.0
1001
ACDBBLOCKREPETAG
1070
     1
1071
        3
1005
123404
  0
ARC
  5
123405
  8
OBJECT
 10
8083.0
 20
-258.99999999999909
 30
0.0
 40
3.0
 50
270.0
 51
0.0
1001
ACDBBLOCKREPETAG
1070
     1
1071
        4
1005
123405
  0
LINE
  5
123406
  8
OBJECT
 10
8086.0
 20
-258.99999999999909
 30
0.0
 11
8086.0
 21
-140.99999999999909
 31
0.0
1001
ACDBBLOCKREPETAG
1070
     1
1071
        5
1005
123406
  0
LINE
  5
123407
  8
OBJECT
 10
6024.1029330933034
 20
-243.80694712371681
 30
0.0
 11
6020.6596569999956
 21
-232.55462199999889
 31
0.0
1001
ACDBBLOCKREPETAG
1070
     1
1071
      300
1005
123407
  0
LINE
  5
123408
  8
OBJECT
 10
5986.7927499013749
 20
-218.22553374208019
 30
0.0
 11
6020.6596569999956
 21
-232.5546219999969
 31
0.0
1001
ACDBBLOCKREPETAG
1070
     1
1071
      302
1005
123408
  0
ARC
  5
123409
  8
OBJECT
 10
5982.8961697618997
 20
-227.4351299990567
 30
0.0
 40
10.0
 50
67.066778292911366
 51
154.0147343702935
1001
ACDBBLOCKREPETAG
1070
     1
1071
      303
1005
123409
  0
ARC
  5
12340A
  8
OBJECT
 10
5986.1488390381273
 20
-225.55386256729159
 30
0.0
 40
7.0
 50
67.066778292911366
 51
154.0147337749826
1001
ACDBBLOCKREPETAG
1070
     1
1071
      304
1005
12340A
  0
LINE
  5
12340B
  8
OBJECT
 10
5969.4199755553018
 20
-243.89888500818171
 30
0.0
 11
5979.8564918232369
 21
-222.48688253356801
 31
0.0
1001
ACDBBLOCKREPETAG
1070
     1
1071
      341
1005
12340B
  0
LINE
  5
12340C
  8
OBJECT
 10
5965.2972169006089
 20
-240.71813901882729
 30
0.0
 11
5973.9071022665084
 21
-223.05373004430751
 31
0.0
1001
ACDBBLOCKREPETAG
1070
     1
1071
      342
1005
12340C
  0
ARC
  5
12340D
  8
OBJECT
 10
5976.5796953073141
 20
-207.1289369828437
 30
0.0
 40
60.031113246032611
 50
314.07020130418567
 51
322.33936106089681
1001
ACDBBLOCKREPETAG
1070
     1
1071
      343
1005
12340D
  0
CIRCLE
  5
12340E
  8
OBJECT
 10
6000.0
 20
-199.99999999999909
 30
0.0
 40
53.5
1001
ACDBBLOCKREPETAG
1070
     1
1071
      344
1005
12340E
  0
POINT
  5
12340F
  8
DOTS
 10
6000.0
 20
-199.99999999999909
 30
0.0
 50
270.0
1001
ACDBBLOCKREPETAG
1070
     1
1071
      362
1005
12340F
  0
ARC
  5
123410
  8
OBJECT
 10
6000.0
 20
-199.99999999999909
 30
0.0
 40
50.0
 50
298.81994300000417
 51
228.52376955965491
1001
ACDBBLOCKREPETAG
1070
     1
1071
        7
1005
123410
  0
LINE
  5
123411
  8
CENTER
 10
6080.0
 20
-199.99999999999909
 30
0.0
 11
5905.0
 21
-199.99999999999909
 31
0.0
1001
ACDBBLOCKREPETAG
1070
     1
1071
       14
1005
123411
  0
LINE
  5
123412
  8
CENTER
 10
6000.0
 20
-294.99999999999898
 30
0.0
 11
6000.0
 21
-104.9999999999991
 31
0.0
1001
ACDBBLOCKREPETAG
1070
     1
1071
       15
1005
123412
  0
CIRCLE
  5
123413
  8
OBJECT
 10
6000.0
 20
-199.99999999999909
 30
0.0
 40
70.0
1001
ACDBBLOCKREPETAG
1070
     1
1071
       16
1005
123413
  0
CIRCLE
  5
123414
  8
OBJECT
 10
6000.0
 20
-199.99999999999909
 30
0.0
 40
77.0
1001
ACDBBLOCKREPETAG
1070
     1
1071
       17
1005
123414
  0
ARC
  5
123415
  8
OBJECT
 10
6000.0
 20
-199.99999999999909
 30
0.0
 40
80.0
 50
50.80503257388439
 51
309.19496742611562
1001
ACDBBLOCKREPETAG
1070
     1
1071
       18
1005
123415
  0
LINE
  5
123416
  8
OBJECT
 10
6045.6618002273253
 20
-137.99999999999909
 30
0.0
 11
6080.0
 21
-137.99999999999909
 31
0.0
1001
ACDBBLOCKREPETAG
1070
     1
1071
       19
1005
123416
  0
LINE
  5
123417
  8
OBJECT
 10
6045.6618002273253
 20
-261.99999999999909
 30
0.0
 11
6080.0
 21
-261.99999999999909
 31
0.0
1001
ACDBBLOCKREPETAG
1070
     1
1071
       20
1005
123417
  0
LINE
  5
123418
  8
OBJECT
 10
6083.0
 20
-534.0
 30
0.0
 11
6080.0
 21
-534.0
 31
0.0
1001
ACDBBLOCKREPETAG
1070
     1
1071
        1
1005
123418
  0
ARC
  5
123419
  8
OBJECT
 10
6083.0
 20
-537.0
 30
0.0
 40
3.0
 50
0.0
 51
90.0
1001
ACDBBLOCKREPETAG
1070
     1
1071
        2
1005
123419
  0
LINE
  5
12341A
  8
OBJECT
 10
6080.0
 20
-658.0
 30
0.0
 11
6083.0
 21
-658.0
 31
0.0
1001
ACDBBLOCKREPETAG
1070
     1
1071
        3
1005
12341A
  0
ARC
  5
12341B
  8
OBJECT
 10
6083.0
 20
-655.0
 30
0.0
 40
3.0
 50
270.0
 51
0.0
1001
ACDBBLOCKREPETAG
1070
     1
1071
        4
1005
12341B
  0
LINE
  5
12341C
  8
OBJECT
 10
6086.0
 20
-655.0
 30
0.0
 11
6086.0
 21
-537.0
 31
0.0
1001
ACDBBLOCKREPETAG
1070
     1
1071
        5
1005
12341C
  0
LINE
  5
12341D
  8
CENTER
 10
6101.0
 20
-199.99999999999909
 30
0.0
 11
6080.0
 21
-199.99999999999909
 31
0.0
1001
ACDBBLOCKREPETAG
1070
     1
1071
        0
1005
12341D
  0
LINE
  5
12341E
  8
OBJECT
 10
6083.0
 20
-137.99999999999909
 30
0.0
 11
6080.0
 21
-137.99999999999909
 31
0.0
1001
ACDBBLOCKREPETAG
1070
     1
1071
        1
1005
12341E
  0
ARC
  5
12341F
  8
OBJECT
 10
6083.0
 20
-140.99999999999909
 30
0.0
 40
3.0
 50
0.0
 51
90.0
1001
ACDBBLOCKREPETAG
1070
     1
1071
        2
1005
12341F
  0
LINE
  5
123420
  8
OBJECT
 10
6080.0
 20
-261.99999999999909
 30
0.0
 11
6083.0
 21
-261.99999999999909
 31
0.0
1001
ACDBBLOCKREPETAG
1070
     1
1071
        3
1005
123420
  0
ARC
  5
123421
  8
OBJECT
 10
6083.0
 20
-258.99999999999909
 30
0.0
 40
3.0
 50
270.0
 51
0.0
1001
ACDBBLOCKREPETAG
1070
     1
1071
        4
1005
123421
  0
LINE
  5
123422
  8
OBJECT
 10
6086.0
 20
-258.99999999999909
 30
0.0
 11
6086.0
 21
-140.99999999999909
 31
0.0
1001
ACDBBLOCKREPETAG
1070
     1
1071
        5
1005
123422
  0
LINE
  5
123423
  8
OBJECT
 10
4024.102933093302
 20
-243.80694712371681
 30
0.0
 11
4020.6596569999951
 21
-232.55462199999889
 31
0.0
1001
ACDBBLOCKREPETAG
1070
     1
1071
      300
1005
123423
  0
LINE
  5
123424
  8
OBJECT
 10
3986.7927499013749
 20
-218.22553374208019
 30
0.0
 11
4020.6596569999951
 21
-232.5546219999969
 31
0.0
1001
ACDBBLOCKREPETAG
1070
     1
1071
      302
1005
123424
  0
ARC
  5
123425
  8
OBJECT
 10
3982.896169761902
 20
-227.4351299990567
 30
0.0
 40
10.0
 50
67.066778292911366
 51
154.0147343702935
1001
ACDBBLOCKREPETAG
1070
     1
1071
      303
1005
123425
  0
ARC
  5
123426
  8
OBJECT
 10
3986.1488390381278
 20
-225.55386256729159
 30
0.0
 40
7.0
 50
67.066778292911366
 51
154.01473377497121
1001
ACDBBLOCKREPETAG
1070
     1
1071
      304
1005
123426
  0
LINE
  5
123427
  8
OBJECT
 10
3969.4199755553018
 20
-243.89888500818171
 30
0.0
 11
3979.8564918232369
 21
-222.48688253356801
 31
0.0
1001
ACDBBLOCKREPETAG
1070
     1
1071
      341
1005
123427
  0
LINE
  5
123428
  8
OBJECT
 10
3965.2972169006089
 20
-240.71813901882729
 30
0.0
 11
3973.9071022665089
 21
-223.05373004430751
 31
0.0
1001
ACDBBLOCKREPETAG
1070
     1
1071
      342
1005
123428
  0
ARC
  5
123429
  8
OBJECT
 10
3976.579695307315
 20
-207.1289369828437
 30
0.0
 40
60.031113246032611
 50
314.07020130418567
 51
322.33936106091278
1001
ACDBBLOCKREPETAG
1070
     1
1071
      343
1005
123429
  0
CIRCLE
  5
12342A
  8
OBJECT
 10
4000.0
 20
-199.99999999999909
 30
0.0
 40
53.5
1001
ACDBBLOCKREPETAG
1070
     1
1071
      344
1005
12342A
  0
POINT
  5
12342B
  8
DOTS
 10
4000.0
 20
-199.99999999999909
 30
0.0
 50
270.0
1001
ACDBBLOCKREPETAG
1070
     1
1071
      362
1005
12342B
  0
ARC
  5
12342C
  8
OBJECT
 10
4000.0
 20
-199.99999999999909
 30
0.0
 40
50.0
 50
298.81994300000417
 51
228.52376955967449
1001
ACDBBLOCKREPETAG
1070
     1
1071
        7
1005
12342C
  0
LINE
  5
12342D
  8
CENTER
 10
4080.0
 20
-199.99999999999909
 30
0.0
 11
3905.0
 21
-199.99999999999909
 31
0.0
1001
ACDBBLOCKREPETAG
1070
     1
1071
       14
1005
12342D
  0
LINE
  5
12342E
  8
CENTER
 10
4000.0
 20
-294.99999999999898
 30
0.0
 11
4000.0
 21
-104.9999999999991
 31
0.0
1001
ACDBBLOCKREPETAG
1070
     1
1071
       15
1005
12342E
  0
CIRCLE
  5
12342F
  8
OBJECT
 10
4000.0
 20
-199.99999999999909
 30
0.0
 40
70.0
1001
ACDBBLOCKREPETAG
1070
     1
1071
       16
1005
12342F
  0
CIRCLE
  5
123430
  8
OBJECT
 10
4000.0
 20
-199.99999999999909
 30
0.0
 40
77.0
1001
ACDBBLOCKREPETAG
1070
     1
1071
       17
1005
123430
  0
ARC
  5
123431
  8
OBJECT
 10
4000.0
 20
-199.99999999999909
 30
0.0
 40
80.0
 50
50.805032573864182
 51
309.1949674261358
1001
ACDBBLOCKREPETAG
1070
     1
1071
       18
1005
123431
  0
LINE
  5
123432
  8
OBJECT
 10
4045.661800227324
 20
-137.99999999999909
 30
0.0
 11
4080.0
 21
-137.99999999999909
 31
0.0
1001
ACDBBLOCKREPETAG
1070
     1
1071
       19
1005
123432
  0
LINE
  5
123433
  8
OBJECT
 10
4045.661800227324
 20
-261.99999999999909
 30
0.0
 11
4080.0
 21
-261.99999999999909
 31
0.0
1001
ACDBBLOCKREPETAG
1070
     1
1071
       20
1005
123433
  0
LINE
  5
123434
  8
OBJECT
 10
4083.0
 20
-534.0
 30
0.0
 11
4080.0
 21
-534.0
 31
0.0
1001
ACDBBLOCKREPETAG
1070
     1
1071
        1
1005
123434
  0
ARC
  5
123435
  8
OBJECT
 10
4083.0
 20
-537.0
 30
0.0
 40
3.0
 50
0.0
 51
90.0
1001
ACDBBLOCKREPETAG
1070
     1
1071
        2
1005
123435
  0
LINE
  5
123436
  8
OBJECT
 10
4080.0
 20
-658.0
 30
0.0
 11
4083.0
 21
-658.0
 31
0.0
1001
ACDBBLOCKREPETAG
1070
     1
1071
        3
1005
123436
  0
ARC
  5
123437
  8
OBJECT
 10
4083.0
 20
-655.0
 30
0.0
 40
3.0
 50
270.0
 51
0.0
1001
ACDBBLOCKREPETAG
1070
     1
1071
        4
1005
123437
  0
LINE
  5
123438
  8
OBJECT
 10
4086.0
 20
-655.0
 30
0.0
 11
4086.0
 21
-537.0
 31
0.0
1001
ACDBBLOCKREPETAG
1070
     1
1071
        5
1005
123438
  0
LINE
  5
123439
  8
CENTER
 10
4101.0
 20
-199.99999999999909
 30
0.0
 11
4080.0
 21
-199.99999999999909
 31
0.0
1001
ACDBBLOCKREPETAG
1070
     1
1071
        0
1005
123439
  0
LINE
  5
12343A
  8
OBJECT
 10
4083.0
 20
-137.99999999999909
 30
0.0
 11
4080.0
 21
-137.99999999999909
 31
0.0
1001
ACDBBLOCKREPETAG
1070
     1
1071
        1
1005
12343A
  0
ARC
  5
12343B
  8
OBJECT
 10
4083.0
 20
-140.99999999999909
 30
0.0
 40
3.0
 50
0.0
 51
90.0
1001
ACDBBLOCKREPETAG
1070
     1
1071
        2
1005
12343B
  0
LINE
  5
12343C
  8
OBJECT
 10
4080.0
 20
-261.99999999999909
 30
0.0
 11
4083.0
 21
-261.99999999999909
 31
0.0
1001
ACDBBLOCKREPETAG
1070
     1
1071
        3
1005
12343C
  0
ARC
  5
12343D
  8
OBJECT
 10
4083.0
 20
-258.99999999999909
 30
0.0
 40
3.0
 50
270.0
 51
0.0
1001
ACDBBLOCKREPETAG
1070
     1
1071
        4
1005
12343D
  0
LINE
  5
12343E
  8
OBJECT
 10
4086.0
 20
-258.99999999999909
 30
0.0
 11
4086.0
 21
-140.99999999999909
 31
0.0
1001
ACDBBLOCKREPETAG
1070
     1
1071
        5
1005
12343E
  0
LINE
  5
12343F
  8
OBJECT
 10
2024.102933093302
 20
-243.80694712371681
 30
0.0
 11
2020.659656999997
 21
-232.55462199999889
 31
0.0
1001
ACDBBLOCKREPETAG
1070
     1
1071
      300
1005
12343F
  0
LINE
  5
123440
  8
OBJECT
 10
1986.7927499013749
 20
-218.22553374208019
 30
0.0
 11
2020.659656999997
 21
-232.5546219999969
 31
0.0
1001
ACDBBLOCKREPETAG
1070
     1
1071
      302
1005
123440
  0
ARC
  5
123441
  8
OBJECT
 10
1982.8961697619
 20
-227.4351299990567
 30
0.0
 40
10.0
 50
67.066778292923374
 51
154.0147343702935
1001
ACDBBLOCKREPETAG
1070
     1
1071
      303
1005
123441
  0
ARC
  5
123442
  8
OBJECT
 10
1986.1488390381271
 20
-225.55386256729159
 30
0.0
 40
7.0
 50
67.066778292923374
 51
154.01473377497121
1001
ACDBBLOCKREPETAG
1070
     1
1071
      304
1005
123442
  0
LINE
  5
123443
  8
OBJECT
 10
1969.4199755553
 20
-243.89888500818171
 30
0.0
 11
1979.856491823236
 21
-222.48688253356801
 31
0.0
1001
ACDBBLOCKREPETAG
1070
     1
1071
      341
1005
123443
  0
LINE
  5
123444
  8
OBJECT
 10
1965.2972169006091
 20
-240.71813901882729
 30
0.0
 11
1973.907102266508
 21
-223.05373004430751
 31
0.0
1001
ACDBBLOCKREPETAG
1070
     1
1071
      342
1005
123444
  0
ARC
  5
123445
  8
OBJECT
 10
1976.579695307315
 20
-207.1289369828437
 30
0.0
 40
60.031113246032611
 50
314.07020130418567
 51
322.33936106091278
1001
ACDBBLOCKREPETAG
1070
     1
1071
      343
1005
123445
  0
CIRCLE
  5
123446
  8
OBJECT
 10
2000.0
 20
-199.99999999999909
 30
0.0
 40
53.5
1001
ACDBBLOCKREPETAG
1070
     1
1071
      344
1005
123446
  0
POINT
  5
123447
  8
DOTS
 10
2000.0
 20
-199.99999999999909
 30
0.0
 50
270.0
1001
ACDBBLOCKREPETAG
1070
     1
1071
      362
1005
123447
  0
ARC
  5
123448
  8
OBJECT
 10
2000.0
 20
-199.99999999999909
 30
0.0
 40
50.0
 50
298.81994300000417
 51
228.52376955967449
1001
ACDBBLOCKREPETAG
1070
     1
1071
        7
1005
123448
  0
LINE
  5
123449
  8
CENTER
 10
2080.0
 20
-199.99999999999909
 30
0.0
 11
1905.0
 21
-199.99999999999909
 31
0.0
1001
ACDBBLOCKREPETAG
1070
     1
1071
       14
1005
123449
  0
LINE
  5
12344A
  8
CENTER
 10
2000.0
 20
-294.99999999999898
 30
0.0
 11
2000.0
 21
-104.9999999999991
 31
0.0
1001
ACDBBLOCKREPETAG
1070
     1
1071
       15
1005
12344A
  0
CIRCLE
  5
12344B
  8
OBJECT
 10
2000.0
 20
-199.99999999999909
 30
0.0
 40
70.0
1001
ACDBBLOCKREPETAG
1070
     1
1071
       16
1005
12344B
  0
CIRCLE
  5
12344C
  8
OBJECT
 10
2000.0
 20
-199.99999999999909
 30
0.0
 40
77.0
1001
ACDBBLOCKREPETAG
1070
     1
1071
       17
1005
12344C
  0
ARC
  5
12344D
  8
OBJECT
 10
2000.0
 20
-199.99999999999909
 30
0.0
 40
80.0
 50
50.805032573864182
 51
309.1949674261358
1001
ACDBBLOCKREPETAG
1070
     1
1071
       18
1005
12344D
  0
LINE
  5
12344E
  8
OBJECT
 10
2045.6618002273251
 20
-137.99999999999909
 30
0.0
 11
2080.0
 21
-137.99999999999909
 31
0.0
1001
ACDBBLOCKREPETAG
1070
     1
1071
       19
1005
12344E
  0
LINE
  5
12344F
  8
OBJECT
 10
2045.6618002273251
 20
-261.99999999999909
 30
0.0
 11
2080.0
 21
-261.99999999999909
 31
0.0
1001
ACDBBLOCKREPETAG
1070
     1
1071
       20
1005
12344F
  0
LINE
  5
123450
  8
OBJECT
 10
2083.0
 20
-534.0
 30
0.0
 11
2080.0
 21
-534.0
 31
0.0
1001
ACDBBLOCKREPETAG
1070
     1
1071
        1
1005
123450
  0
ARC
  5
123451
  8
OBJECT
 10
2083.0
 20
-537.0
 30
0.0
 40
3.0
 50
0.0
 51
90.0
1001
ACDBBLOCKREPETAG
1070
     1
1071
        2
1005
123451
  0
LINE
  5
123452
  8
OBJECT
 10
2080.0
 20
-658.0
 30
0.0
 11
2083.0
 21
-658.0
 31
0.0
1001
ACDBBLOCKREPETAG
1070
     1
1071
        3
1005
123452
  0
ARC
  5
123453
  8
OBJECT
 10
2083.0
 20
-655.0
 30
0.0
 40
3.0
 50
270.0
 51
0.0
1001
ACDBBLOCKREPETAG
1070
     1
1071
        4
1005
123453
  0
LINE
  5
123454
  8
OBJECT
 10
2086.0
 20
-655.0
 30
0.0
 11
2086.0
 21
-537.0
 31
0.0
1001
ACDBBLOCKREPETAG
1070
     1
1071
        5
1005
123454
  0
LINE
  5
123455
  8
CENTER
 10
2101.0
 20
-199.99999999999909
 30
0.0
 11
2080.0
 21
-199.99999999999909
 31
0.0
1001
ACDBBLOCKREPETAG
1070
     1
1071
        0
1005
123455
  0
LINE
  5
123456
  8
OBJECT
 10
2083.0
 20
-137.99999999999909
 30
0.0
 11
2080.0
 21
-137.99999999999909
 31
0.0
1001
ACDBBLOCKREPETAG
1070
     1
1071
        1
1005
123456
  0
ARC
  5
123457
  8
OBJECT
 10
2083.0
 20
-140.99999999999909
 30
0.0
 40
3.0
 50
0.0
 51
90.0
1001
ACDBBLOCKREPETAG
1070
     1
1071
        2
1005
123457
  0
LINE
  5
123458
  8
OBJECT
 10
2080.0
 20
-261.99999999999909
 30
0.0
 11
2083.0
 21
-261.99999999999909
 31
0.0
1001
ACDBBLOCKREPETAG
1070
     1
1071
        3
1005
123458
  0
ARC
  5
123459
  8
OBJECT
 10
2083.0
 20
-258.99999999999909
 30
0.0
 40
3.0
 50
270.0
 51
0.0
1001
ACDBBLOCKREPETAG
1070
     1
1071
        4
1005
123459
  0
LINE
  5
12345A
  8
OBJECT
 10
2086.0
 20
-258.99999999999909
 30
0.0
 11
2086.0
 21
-140.99999999999909
 31
0.0
1001
ACDBBLOCKREPETAG
1070
     1
1071
        5
1005
12345A
  0
LINE
  5
12345B
  8
SLIM
 10
11914.999999999991
 20
-659.47385309434696
 30
0.0
 11
11919.47385309434
 21
-654.99999999999966
 31
0.0
1001
ACAD
1010
0.0
1020
0.0
1030
0.0
1001
ACDBBLOCKREPETAG
1070
     1
1071
        0
1005
0
  0
LINE
  5
12345C
  8
SLIM
 10
11914.999999999991
 20
-677.43436533648514
 30
0.0
 11
11937.434365336479
 21
-654.99999999999966
 31
0.0
1001
ACAD
1010
0.0
1020
0.0
1030
0.0
1001
ACDBBLOCKREPETAG
1070
     1
1071
       10
1005
12345C
  0
LINE
  5
12345D
  8
SLIM
 10
11914.999999999991
 20
-695.39487757862321
 30
0.0
 11
11955.39487757861
 21
-654.99999999999966
 31
0.0
1001
ACAD
1010
0.0
1020
0.0
1030
0.0
1001
ACDBBLOCKREPETAG
1070
     1
1071
       11
1005
12345D
  0
LINE
  5
12345E
  8
SLIM
 10
11914.999999999991
 20
-713.35538982076127
 30
0.0
 11
11973.35538982075
 21
-654.99999999999966
 31
0.0
1001
ACAD
1010
0.0
1020
0.0
1030
0.0
1001
ACDBBLOCKREPETAG
1070
     1
1071
       12
1005
12345E
  0
LINE
  5
12345F
  8
SLIM
 10
11914.999999999991
 20
-731.31590206289934
 30
0.0
 11
11991.31590206289
 21
-654.99999999999966
 31
0.0
1001
ACAD
1010
0.0
1020
0.0
1030
0.0
1001
ACDBBLOCKREPETAG
1070
     1
1071
       13
1005
12345F
  0
LINE
  5
123460
  8
SLIM
 10
11914.999999999991
 20
-749.27641430503695
 30
0.0
 11
12009.27641430503
 21
-654.99999999999966
 31
0.0
1001
ACAD
1010
0.0
1020
0.0
1030
0.0
1001
ACDBBLOCKREPETAG
1070
     1
1071
       14
1005
123460
  0
LINE
  5
123461
  8
SLIM
 10
11914.999999999991
 20
-767.23692654717524
 30
0.0
 11
12027.23692654717
 21
-654.99999999999966
 31
0.0
1001
ACAD
1010
0.0
1020
0.0
1030
0.0
1001
ACDBBLOCKREPETAG
1070
     1
1071
       15
1005
123461
  0
LINE
  5
123462
  8
SLIM
 10
11914.999999999991
 20
-785.19743878931354
 30
0.0
 11
12045.19743878931
 21
-654.99999999999966
 31
0.0
1001
ACAD
1010
0.0
1020
0.0
1030
0.0
1001
ACDBBLOCKREPETAG
1070
     1
1071
       16
1005
123462
  0
LINE
  5
123463
  8
SLIM
 10
11914.999999999991
 20
-803.1579510314516
 30
0.0
 11
12063.15795103144
 21
-654.99999999999966
 31
0.0
1001
ACAD
1010
0.0
1020
0.0
1030
0.0
1001
ACDBBLOCKREPETAG
1070
     1
1071
       17
1005
123463
  0
LINE
  5
123464
  8
SLIM
 10
11914.999999999991
 20
-821.11846327358955
 30
0.0
 11
12081.11846327358
 21
-654.99999999999966
 31
0.0
1001
ACAD
1010
0.0
1020
0.0
1030
0.0
1001
ACDBBLOCKREPETAG
1070
     1
1071
       18
1005
123464
  0
LINE
  5
123465
  8
SLIM
 10
11914.999999999991
 20
-839.07897551572751
 30
0.0
 11
12085.000000000009
 21
-669.07897551571614
 31
0.0
1001
ACAD
1010
0.0
1020
0.0
1030
0.0
1001
ACDBBLOCKREPETAG
1070
     1
1071
       19
1005
123465
  0
LINE
  5
123466
  8
SLIM
 10
11915.0
 20
-857.03948775786546
 30
0.0
 11
12085.000000000009
 21
-687.03948775785454
 31
0.0
1001
ACAD
1010
0.0
1020
0.0
1030
0.0
1001
ACDBBLOCKREPETAG
1070
     1
1071
       20
1005
123466
  0
LINE
  5
123467
  8
SLIM
 10
11915.0
 20
-875.00000000000375
 30
0.0
 11
12085.0
 21
-704.99999999999329
 31
0.0
1001
ACAD
1010
0.0
1020
0.0
1030
0.0
1001
ACDBBLOCKREPETAG
1070
     1
1071
       21
1005
123467
  0
LINE
  5
123468
  8
SLIM
 10
11915.0
 20
-892.9605122421417
 30
0.0
 11
12085.0
 21
-722.96051224213159
 31
0.0
1001
ACAD
1010
0.0
1020
0.0
1030
0.0
1001
ACDBBLOCKREPETAG
1070
     1
1071
       22
1005
123468
  0
LINE
  5
123469
  8
SLIM
 10
11915.0
 20
-910.92102448427966
 30
0.0
 11
12085.0
 21
-740.92102448427033
 31
0.0
1001
ACAD
1010
0.0
1020
0.0
1030
0.0
1001
ACDBBLOCKREPETAG
1070
     1
1071
       23
1005
123469
  0
LINE
  5
12346A
  8
SLIM
 10
11915.0
 20
-928.88153672641772
 30
0.0
 11
12085.0
 21
-758.88153672640874
 31
0.0
1001
ACAD
1010
0.0
1020
0.0
1030
0.0
1001
ACDBBLOCKREPETAG
1070
     1
1071
       24
1005
12346A
  0
LINE
  5
12346B
  8
SLIM
 10
11915.0
 20
-946.8420489685559
 30
0.0
 11
12085.0
 21
-776.84204896854737
 31
0.0
1001
ACAD
1010
0.0
1020
0.0
1030
0.0
1001
ACDBBLOCKREPETAG
1070
     1
1071
       25
1005
12346B
  0
LINE
  5
12346C
  8
SLIM
 10
11915.0
 20
-964.80256121069385
 30
0.0
 11
12085.0
 21
-794.80256121068624
 31
0.0
1001
ACAD
1010
0.0
1020
0.0
1030
0.0
1001
ACDBBLOCKREPETAG
1070
     1
1071
       26
1005
12346C
  0
LINE
  5
12346D
  8
SLIM
 10
11915.0
 20
-982.76307345283203
 30
0.0
 11
12085.0
 21
-812.76307345282464
 31
0.0
1001
ACAD
1010
0.0
1020
0.0
1030
0.0
1001
ACDBBLOCKREPETAG
1070
     1
1071
       27
1005
12346D
  0
LINE
  5
12346E
  8
SLIM
 10
11915.0
 20
-1000.72358569497
 30
0.0
 11
12085.0
 21
-830.72358569496294
 31
0.0
1001
ACAD
1010
0.0
1020
0.0
1030
0.0
1001
ACDBBLOCKREPETAG
1070
     1
1071
       28
1005
12346E
  0
LINE
  5
12346F
  8
SLIM
 10
11915.0
 20
-1018.684097937108
 30
0.0
 11
12085.0
 21
-848.68409793710146
 31
0.0
1001
ACAD
1010
0.0
1020
0.0
1030
0.0
1001
ACDBBLOCKREPETAG
1070
     1
1071
       29
1005
12346F
  0
LINE
  5
123470
  8
SLIM
 10
11915.0
 20
-1036.644610179246
 30
0.0
 11
12085.0
 21
-866.64461017923998
 31
0.0
1001
ACAD
1010
0.0
1020
0.0
1030
0.0
1001
ACDBBLOCKREPETAG
1070
     1
1071
       30
1005
123470
  0
LINE
  5
123471
  8
SLIM
 10
11915.0
 20
-1054.6051224213841
 30
0.0
 11
12085.0
 21
-884.60512242137895
 31
0.0
1001
ACAD
1010
0.0
1020
0.0
1030
0.0
1001
ACDBBLOCKREPETAG
1070
     1
1071
       31
1005
123471
  0
LINE
  5
123472
  8
SLIM
 10
11915.0
 20
-1072.5656346635219
 30
0.0
 11
12085.0
 21
-902.56563466351713
 31
0.0
1001
ACAD
1010
0.0
1020
0.0
1030
0.0
1001
ACDBBLOCKREPETAG
1070
     1
1071
       32
1005
123472
  0
LINE
  5
123473
  8
SLIM
 10
11915.0
 20
-1090.52614690566
 30
0.0
 11
12085.0
 21
-920.52614690565599
 31
0.0
1001
ACAD
1010
0.0
1020
0.0
1030
0.0
1001
ACDBBLOCKREPETAG
1070
     1
1071
       33
1005
123473
  0
LINE
  5
123474
  8
SLIM
 10
11915.0
 20
-1108.486659147798
 30
0.0
 11
12085.0
 21
-938.4866591477944
 31
0.0
1001
ACAD
1010
0.0
1020
0.0
1030
0.0
1001
ACDBBLOCKREPETAG
1070
     1
1071
       34
1005
123474
  0
LINE
  5
123475
  8
SLIM
 10
11915.0
 20
-1126.4471713899361
 30
0.0
 11
12085.0
 21
-956.44717138993303
 31
0.0
1001
ACAD
1010
0.0
1020
0.0
1030
0.0
1001
ACDBBLOCKREPETAG
1070
     1
1071
       35
1005
123475
  0
LINE
  5
123476
  8
SLIM
 10
11915.0
 20
-1144.4076836320739
 30
0.0
 11
12085.0
 21
-974.4076836320711
 31
0.0
1001
ACAD
1010
0.0
1020
0.0
1030
0.0
1001
ACDBBLOCKREPETAG
1070
     1
1071
       36
1005
123476
  0
LINE
  5
123477
  8
SLIM
 10
11915.575570103911
 20
-1161.7926257702991
 30
0.0
 11
12085.0
 21
-992.36819587420985
 31
0.0
1001
ACAD
1010
0.0
1020
0.0
1030
0.0
1001
ACDBBLOCKREPETAG
1070
     1
1071
       37
1005
123477
  0
LINE
  5
123478
  8
SLIM
 10
11917.789879832389
 20
-1177.538828283954
 30
0.0
 11
12085.0
 21
-1010.328708116349
 31
0.0
1001
ACAD
1010
0.0
1020
0.0
1030
0.0
1001
ACDBBLOCKREPETAG
1070
     1
1071
       38
1005
123478
  0
LINE
  5
123479
  8
SLIM
 10
11920.004189560879
 20
-1193.28503079761
 30
0.0
 11
12085.0
 21
-1028.289220358487
 31
0.0
1001
ACAD
1010
0.0
1020
0.0
1030
0.0
1001
ACDBBLOCKREPETAG
1070
     1
1071
       39
1005
123479
  0
LINE
  5
12347A
  8
SLIM
 10
11922.21849928936
 20
-1209.0312333112661
 30
0.0
 11
12085.0
 21
-1046.2497326006251
 31
0.0
1001
ACAD
1010
0.0
1020
0.0
1030
0.0
1001
ACDBBLOCKREPETAG
1070
     1
1071
       40
1005
12347A
  0
LINE
  5
12347B
  8
SLIM
 10
11924.432809017841
 20
-1224.777435824921
 30
0.0
 11
12085.0
 21
-1064.210244842764
 31
0.0
1001
ACAD
1010
0.0
1020
0.0
1030
0.0
1001
ACDBBLOCKREPETAG
1070
     1
1071
       41
1005
12347B
  0
LINE
  5
12347C
  8
SLIM
 10
11926.64711874633
 20
-1240.5236383385759
 30
0.0
 11
12085.0
 21
-1082.170757084903
 31
0.0
1001
ACAD
1010
0.0
1020
0.0
1030
0.0
1001
ACDBBLOCKREPETAG
1070
     1
1071
       42
1005
12347C
  0
LINE
  5
12347D
  8
SLIM
 10
11928.861428474809
 20
-1256.2698408522319
 30
0.0
 11
12085.0
 21
-1100.1312693270411
 31
0.0
1001
ACAD
1010
0.0
1020
0.0
1030
0.0
1001
ACDBBLOCKREPETAG
1070
     1
1071
       43
1005
12347D
  0
LINE
  5
12347E
  8
SLIM
 10
11931.07573820329
 20
-1272.0160433658871
 30
0.0
 11
12085.0
 21
-1118.0917815691801
 31
0.0
1001
ACAD
1010
0.0
1020
0.0
1030
0.0
1001
ACDBBLOCKREPETAG
1070
     1
1071
       44
1005
12347E
  0
LINE
  5
12347F
  8
SLIM
 10
11932.999999999991
 20
-1288.0522938113261
 30
0.0
 11
12085.0
 21
-1136.0522938113179
 31
0.0
1001
ACAD
1010
0.0
1020
0.0
1030
0.0
1001
ACDBBLOCKREPETAG
1070
     1
1071
       45
1005
12347F
  0
LINE
  5
123480
  8
SLIM
 10
11932.999999999991
 20
-1306.0128060534639
 30
0.0
 11
12085.0
 21
-1154.0128060534571
 31
0.0
1001
ACAD
1010
0.0
1020
0.0
1030
0.0
1001
ACDBBLOCKREPETAG
1070
     1
1071
       46
1005
123480
  0
LINE
  5
123481
  8
SLIM
 10
11932.999999999991
 20
-1323.9733182956029
 30
0.0
 11
12082.664314193131
 21
-1174.3090041024641
 31
0.0
1001
ACAD
1010
0.0
1020
0.0
1030
0.0
1001
ACDBBLOCKREPETAG
1070
     1
1071
       47
1005
123481
  0
LINE
  5
123482
  8
SLIM
 10
11949.93383053773
 20
-1324.9999999999959
 30
0.0
 11
12079.725321280779
 21
-1195.2085092569509
 31
0.0
1001
ACAD
1010
0.0
1020
0.0
1030
0.0
1001
ACDBBLOCKREPETAG
1070
     1
1071
       48
1005
123482
  0
LINE
  5
123483
  8
SLIM
 10
11967.89434277986
 20
-1324.999999999997
 30
0.0
 11
12076.78632836842
 21
-1216.1080144114389
 31
0.0
1001
ACAD
1010
0.0
1020
0.0
1030
0.0
1001
ACDBBLOCKREPETAG
1070
     1
1071
       49
1005
123483
  0
LINE
  5
123484
  8
SLIM
 10
11985.854855022009
 20
-1324.999999999997
 30
0.0
 11
12073.847335456079
 21
-1237.007519565926
 31
0.0
1001
ACAD
1010
0.0
1020
0.0
1030
0.0
1001
ACDBBLOCKREPETAG
1070
     1
1071
       50
1005
123484
  0
LINE
  5
123485
  8
SLIM
 10
12003.815367264149
 20
-1324.999999999997
 30
0.0
 11
12070.908342543729
 21
-1257.907024720412
 31
0.0
1001
ACAD
1010
0.0
1020
0.0
1030
0.0
1001
ACDBBLOCKREPETAG
1070
     1
1071
       51
1005
123485
  0
LINE
  5
123486
  8
SLIM
 10
12021.775879506289
 20
-1324.999999999998
 30
0.0
 11
12067.969349631379
 21
-1278.8065298749
 31
0.0
1001
ACAD
1010
0.0
1020
0.0
1030
0.0
1001
ACDBBLOCKREPETAG
1070
     1
1071
       52
1005
123486
  0
LINE
  5
123487
  8
SLIM
 10
12039.736391748431
 20
-1324.999999999998
 30
0.0
 11
12067.0
 21
-1297.736391748414
 31
0.0
1001
ACAD
1010
0.0
1020
0.0
1030
0.0
1001
ACDBBLOCKREPETAG
1070
     1
1071
       53
1005
123487
  0
LINE
  5
123488
  8
SLIM
 10
12057.69690399056
 20
-1324.9999999999991
 30
0.0
 11
12067.0
 21
-1315.696903990553
 31
0.0
1001
ACAD
1010
0.0
1020
0.0
1030
0.0
1001
ACDBBLOCKREPETAG
1070
     1
1071
       54
1005
123488
  0
LINE
  5
123489
  8
OBJECT
 10
11932.999999999991
 20
-1324.9999999999959
 30
0.0
 11
12067.0
 21
-1324.9999999999991
 31
0.0
1001
ACDBBLOCKREPETAG
1070
     1
1071
        1
1005
123489
  0
LINE
  5
12348A
  8
OBJECT
 10
11914.999999999991
 20
-654.99999999999966
 30
0.0
 11
11915.0
 21
-1157.699682809141
 31
0.0
1001
ACDBBLOCKREPETAG
1070
     1
1071
        2
1005
12348A
  0
LINE
  5
12348B
  8
OBJECT
 10
12085.000000000009
 20
-654.99999999999966
 30
0.0
 11
12085.0
 21
-1157.6996828091719
 31
0.0
1001
ACDBBLOCKREPETAG
1070
     1
1071
        3
1005
12348B
  0
LINE
  5
12348C
  8
OBJECT
 10
11915.0
 20
-1157.699682809141
 30
0.0
 11
11932.999999999991
 21
-1285.699682809081
 31
0.0
1001
ACDBBLOCKREPETAG
1070
     1
1071
        4
1005
12348C
  0
LINE
  5
12348D
  8
OBJECT
 10
12067.0
 20
-1285.699682809128
 30
0.0
 11
12085.0
 21
-1157.6996828091719
 31
0.0
1001
ACDBBLOCKREPETAG
1070
     1
1071
        5
1005
12348D
  0
LINE
  5
12348E
  8
OBJECT
 10
12085.000000000009
 20
-654.99999999999966
 30
0.0
 11
11914.999999999991
 21
-654.99999999999966
 31
0.0
1001
ACDBBLOCKREPETAG
1070
     1
1071
        6
1005
12348E
  0
LINE
  5
12348F
  8
OBJECT
 10
11932.999999999991
 20
-1285.699682809081
 30
0.0
 11
11932.999999999991
 21
-1324.9999999999959
 31
0.0
1001
ACDBBLOCKREPETAG
1070
     1
1071
        8
1005
12348F
  0
LINE
  5
123490
  8
OBJECT
 10
12067.0
 20
-1285.699682809128
 30
0.0
 11
12067.0
 21
-1324.9999999999991
 31
0.0
1001
ACDBBLOCKREPETAG
1070
     1
1071
        9
1005
123490
  0
LINE
  5
123491
  8
SLIM
 10
9914.9999999999927
 20
-659.47385309434696
 30
0.0
 11
9919.4738530943396
 21
-654.99999999999966
 31
0.0
1001
ACAD
1010
0.0
1020
0.0
1030
0.0
1001
ACDBBLOCKREPETAG
1070
     1
1071
        0
1005
0
  0
LINE
  5
123492
  8
SLIM
 10
9914.9999999999927
 20
-677.43436533648514
 30
0.0
 11
9937.4343653364795
 21
-654.99999999999966
 31
0.0
1001
ACAD
1010
0.0
1020
0.0
1030
0.0
1001
ACDBBLOCKREPETAG
1070
     1
1071
       10
1005
123492
  0
LINE
  5
123493
  8
SLIM
 10
9914.9999999999927
 20
-695.39487757862321
 30
0.0
 11
9955.3948775786212
 21
-654.99999999999966
 31
0.0
1001
ACAD
1010
0.0
1020
0.0
1030
0.0
1001
ACDBBLOCKREPETAG
1070
     1
1071
       11
1005
123493
  0
LINE
  5
123494
  8
SLIM
 10
9914.9999999999927
 20
-713.35538982076127
 30
0.0
 11
9973.3553898207556
 21
-654.99999999999966
 31
0.0
1001
ACAD
1010
0.0
1020
0.0
1030
0.0
1001
ACDBBLOCKREPETAG
1070
     1
1071
       12
1005
123494
  0
LINE
  5
123495
  8
SLIM
 10
9914.9999999999945
 20
-731.31590206289934
 30
0.0
 11
9991.3159020628937
 21
-654.99999999999966
 31
0.0
1001
ACAD
1010
0.0
1020
0.0
1030
0.0
1001
ACDBBLOCKREPETAG
1070
     1
1071
       13
1005
123495
  0
LINE
  5
123496
  8
SLIM
 10
9914.9999999999945
 20
-749.27641430503695
 30
0.0
 11
10009.27641430503
 21
-654.99999999999966
 31
0.0
1001
ACAD
1010
0.0
1020
0.0
1030
0.0
1001
ACDBBLOCKREPETAG
1070
     1
1071
       14
1005
123496
  0
LINE
  5
123497
  8
SLIM
 10
9914.9999999999945
 20
-767.23692654717524
 30
0.0
 11
10027.23692654717
 21
-654.99999999999966
 31
0.0
1001
ACAD
1010
0.0
1020
0.0
1030
0.0
1001
ACDBBLOCKREPETAG
1070
     1
1071
       15
1005
123497
  0
LINE
  5
123498
  8
SLIM
 10
9914.9999999999945
 20
-785.19743878931354
 30
0.0
 11
10045.19743878931
 21
-654.99999999999966
 31
0.0
1001
ACAD
1010
0.0
1020
0.0
1030
0.0
1001
ACDBBLOCKREPETAG
1070
     1
1071
       16
1005
123498
  0
LINE
  5
123499
  8
SLIM
 10
9914.9999999999945
 20
-803.1579510314516
 30
0.0
 11
10063.15795103144
 21
-654.99999999999966
 31
0.0
1001
ACAD
1010
0.0
1020
0.0
1030
0.0
1001
ACDBBLOCKREPETAG
1070
     1
1071
       17
1005
123499
  0
LINE
  5
12349A
  8
SLIM
 10
9914.9999999999945
 20
-821.11846327358955
 30
0.0
 11
10081.11846327358
 21
-654.99999999999966
 31
0.0
1001
ACAD
1010
0.0
1020
0.0
1030
0.0
1001
ACDBBLOCKREPETAG
1070
     1
1071
       18
1005
12349A
  0
LINE
  5
12349B
  8
SLIM
 10
9914.9999999999945
 20
-839.07897551572751
 30
0.0
 11
10085.000000000009
 21
-669.07897551571614
 31
0.0
1001
ACAD
1010
0.0
1020
0.0
1030
0.0
1001
ACDBBLOCKREPETAG
1070
     1
1071
       19
1005
12349B
  0
LINE
  5
12349C
  8
SLIM
 10
9914.9999999999964
 20
-857.03948775786546
 30
0.0
 11
10085.000000000009
 21
-687.03948775785454
 31
0.0
1001
ACAD
1010
0.0
1020
0.0
1030
0.0
1001
ACDBBLOCKREPETAG
1070
     1
1071
       20
1005
12349C
  0
LINE
  5
12349D
  8
SLIM
 10
9914.9999999999964
 20
-875.00000000000375
 30
0.0
 11
10085.0
 21
-704.99999999999329
 31
0.0
1001
ACAD
1010
0.0
1020
0.0
1030
0.0
1001
ACDBBLOCKREPETAG
1070
     1
1071
       21
1005
12349D
  0
LINE
  5
12349E
  8
SLIM
 10
9914.9999999999964
 20
-892.9605122421417
 30
0.0
 11
10085.0
 21
-722.96051224213159
 31
0.0
1001
ACAD
1010
0.0
1020
0.0
1030
0.0
1001
ACDBBLOCKREPETAG
1070
     1
1071
       22
1005
12349E
  0
LINE
  5
12349F
  8
SLIM
 10
9914.9999999999964
 20
-910.92102448427966
 30
0.0
 11
10085.0
 21
-740.92102448427033
 31
0.0
1001
ACAD
1010
0.0
1020
0.0
1030
0.0
1001
ACDBBLOCKREPETAG
1070
     1
1071
       23
1005
12349F
  0
LINE
  5
1234A0
  8
SLIM
 10
9914.9999999999964
 20
-928.88153672641772
 30
0.0
 11
10085.0
 21
-758.88153672640874
 31
0.0
1001
ACAD
1010
0.0
1020
0.0
1030
0.0
1001
ACDBBLOCKREPETAG
1070
     1
1071
       24
1005
1234A0
  0
LINE
  5
1234A1
  8
SLIM
 10
9914.9999999999964
 20
-946.8420489685559
 30
0.0
 11
10085.0
 21
-776.84204896854737
 31
0.0
1001
ACAD
1010
0.0
1020
0.0
1030
0.0
1001
ACDBBLOCKREPETAG
1070
     1
1071
       25
1005
1234A1
  0
LINE
  5
1234A2
  8
SLIM
 10
9914.9999999999964
 20
-964.80256121069385
 30
0.0
 11
10085.0
 21
-794.80256121068624
 31
0.0
1001
ACAD
1010
0.0
1020
0.0
1030
0.0
1001
ACDBBLOCKREPETAG
1070
     1
1071
       26
1005
1234A2
  0
LINE
  5
1234A3
  8
SLIM
 10
9914.9999999999982
 20
-982.76307345283203
 30
0.0
 11
10085.0
 21
-812.76307345282464
 31
0.0
1001
ACAD
1010
0.0
1020
0.0
1030
0.0
1001
ACDBBLOCKREPETAG
1070
     1
1071
       27
1005
1234A3
  0
LINE
  5
1234A4
  8
SLIM
 10
9914.9999999999982
 20
-1000.72358569497
 30
0.0
 11
10085.0
 21
-830.72358569496294
 31
0.0
1001
ACAD
1010
0.0
1020
0.0
1030
0.0
1001
ACDBBLOCKREPETAG
1070
     1
1071
       28
1005
1234A4
  0
LINE
  5
1234A5
  8
SLIM
 10
9914.9999999999982
 20
-1018.684097937108
 30
0.0
 11
10085.0
 21
-848.68409793710146
 31
0.0
1001
ACAD
1010
0.0
1020
0.0
1030
0.0
1001
ACDBBLOCKREPETAG
1070
     1
1071
       29
1005
1234A5
  0
LINE
  5
1234A6
  8
SLIM
 10
9914.9999999999982
 20
-1036.644610179246
 30
0.0
 11
10085.0
 21
-866.64461017923998
 31
0.0
1001
ACAD
1010
0.0
1020
0.0
1030
0.0
1001
ACDBBLOCKREPETAG
1070
     1
1071
       30
1005
1234A6
  0
LINE
  5
1234A7
  8
SLIM
 10
9914.9999999999982
 20
-1054.6051224213841
 30
0.0
 11
10085.0
 21
-884.60512242137895
 31
0.0
1001
ACAD
1010
0.0
1020
0.0
1030
0.0
1001
ACDBBLOCKREPETAG
1070
     1
1071
       31
1005
1234A7
  0
LINE
  5
1234A8
  8
SLIM
 10
9914.9999999999982
 20
-1072.5656346635219
 30
0.0
 11
10085.0
 21
-902.56563466351713
 31
0.0
1001
ACAD
1010
0.0
1020
0.0
1030
0.0
1001
ACDBBLOCKREPETAG
1070
     1
1071
       32
1005
1234A8
  0
LINE
  5
1234A9
  8
SLIM
 10
9914.9999999999982
 20
-1090.52614690566
 30
0.0
 11
10085.0
 21
-920.52614690565599
 31
0.0
1001
ACAD
1010
0.0
1020
0.0
1030
0.0
1001
ACDBBLOCKREPETAG
1070
     1
1071
       33
1005
1234A9
  0
LINE
  5
1234AA
  8
SLIM
 10
9915.0
 20
-1108.486659147798
 30
0.0
 11
10085.0
 21
-938.4866591477944
 31
0.0
1001
ACAD
1010
0.0
1020
0.0
1030
0.0
1001
ACDBBLOCKREPETAG
1070
     1
1071
       34
1005
1234AA
  0
LINE
  5
1234AB
  8
SLIM
 10
9915.0
 20
-1126.4471713899361
 30
0.0
 11
10085.0
 21
-956.44717138993303
 31
0.0
1001
ACAD
1010
0.0
1020
0.0
1030
0.0
1001
ACDBBLOCKREPETAG
1070
     1
1071
       35
1005
1234AB
  0
LINE
  5
1234AC
  8
SLIM
 10
9915.0
 20
-1144.4076836320739
 30
0.0
 11
10085.0
 21
-974.4076836320711
 31
0.0
1001
ACAD
1010
0.0
1020
0.0
1030
0.0
1001
ACDBBLOCKREPETAG
1070
     1
1071
       36
1005
1234AC
  0
LINE
  5
1234AD
  8
SLIM
 10
9915.5755701039125
 20
-1161.7926257702991
 30
0.0
 11
10085.0
 21
-992.36819587420985
 31
0.0
1001
ACAD
1010
0.0
1020
0.0
1030
0.0
1001
ACDBBLOCKREPETAG
1070
     1
1071
       37
1005
1234AD
  0
LINE
  5
1234AE
  8
SLIM
 10
9917.7898798323986
 20
-1177.538828283954
 30
0.0
 11
10085.0
 21
-1010.328708116349
 31
0.0
1001
ACAD
1010
0.0
1020
0.0
1030
0.0
1001
ACDBBLOCKREPETAG
1070
     1
1071
       38
1005
1234AE
  0
LINE
  5
1234AF
  8
SLIM
 10
9920.0041895608792
 20
-1193.28503079761
 30
0.0
 11
10085.0
 21
-1028.289220358487
 31
0.0
1001
ACAD
1010
0.0
1020
0.0
1030
0.0
1001
ACDBBLOCKREPETAG
1070
     1
1071
       39
1005
1234AF
  0
LINE
  5
1234B0
  8
SLIM
 10
9922.2184992893599
 20
-1209.0312333112661
 30
0.0
 11
10085.0
 21
-1046.2497326006251
 31
0.0
1001
ACAD
1010
0.0
1020
0.0
1030
0.0
1001
ACDBBLOCKREPETAG
1070
     1
1071
       40
1005
1234B0
  0
LINE
  5
1234B1
  8
SLIM
 10
9924.4328090178442
 20
-1224.777435824921
 30
0.0
 11
10085.0
 21
-1064.210244842764
 31
0.0
1001
ACAD
1010
0.0
1020
0.0
1030
0.0
1001
ACDBBLOCKREPETAG
1070
     1
1071
       41
1005
1234B1
  0
LINE
  5
1234B2
  8
SLIM
 10
9926.6471187463285
 20
-1240.5236383385759
 30
0.0
 11
10085.0
 21
-1082.170757084903
 31
0.0
1001
ACAD
1010
0.0
1020
0.0
1030
0.0
1001
ACDBBLOCKREPETAG
1070
     1
1071
       42
1005
1234B2
  0
LINE
  5
1234B3
  8
SLIM
 10
9928.8614284748091
 20
-1256.2698408522319
 30
0.0
 11
10085.0
 21
-1100.1312693270411
 31
0.0
1001
ACAD
1010
0.0
1020
0.0
1030
0.0
1001
ACDBBLOCKREPETAG
1070
     1
1071
       43
1005
1234B3
  0
LINE
  5
1234B4
  8
SLIM
 10
9931.0757382032916
 20
-1272.0160433658871
 30
0.0
 11
10085.0
 21
-1118.0917815691801
 31
0.0
1001
ACAD
1010
0.0
1020
0.0
1030
0.0
1001
ACDBBLOCKREPETAG
1070
     1
1071
       44
1005
1234B4
  0
LINE
  5
1234B5
  8
SLIM
 10
9932.9999999999927
 20
-1288.0522938113261
 30
0.0
 11
10085.0
 21
-1136.0522938113179
 31
0.0
1001
ACAD
1010
0.0
1020
0.0
1030
0.0
1001
ACDBBLOCKREPETAG
1070
     1
1071
       45
1005
1234B5
  0
LINE
  5
1234B6
  8
SLIM
 10
9932.9999999999927
 20
-1306.0128060534639
 30
0.0
 11
10085.0
 21
-1154.0128060534571
 31
0.0
1001
ACAD
1010
0.0
1020
0.0
1030
0.0
1001
ACDBBLOCKREPETAG
1070
     1
1071
       46
1005
1234B6
  0
LINE
  5
1234B7
  8
SLIM
 10
9932.9999999999927
 20
-1323.9733182956029
 30
0.0
 11
10082.664314193131
 21
-1174.3090041024641
 31
0.0
1001
ACAD
1010
0.0
1020
0.0
1030
0.0
1001
ACDBBLOCKREPETAG
1070
     1
1071
       47
1005
1234B7
  0
LINE
  5
1234B8
  8
SLIM
 10
9949.9338305377387
 20
-1324.9999999999959
 30
0.0
 11
10079.725321280779
 21
-1195.2085092569509
 31
0.0
1001
ACAD
1010
0.0
1020
0.0
1030
0.0
1001
ACDBBLOCKREPETAG
1070
     1
1071
       48
1005
1234B8
  0
LINE
  5
1234B9
  8
SLIM
 10
9967.8943427798768
 20
-1324.999999999997
 30
0.0
 11
10076.786328368429
 21
-1216.1080144114389
 31
0.0
1001
ACAD
1010
0.0
1020
0.0
1030
0.0
1001
ACDBBLOCKREPETAG
1070
     1
1071
       49
1005
1234B9
  0
LINE
  5
1234BA
  8
SLIM
 10
9985.8548550220112
 20
-1324.999999999997
 30
0.0
 11
10073.847335456079
 21
-1237.007519565926
 31
0.0
1001
ACAD
1010
0.0
1020
0.0
1030
0.0
1001
ACDBBLOCKREPETAG
1070
     1
1071
       50
1005
1234BA
  0
LINE
  5
1234BB
  8
SLIM
 10
10003.815367264149
 20
-1324.999999999997
 30
0.0
 11
10070.90834254372
 21
-1257.907024720412
 31
0.0
1001
ACAD
1010
0.0
1020
0.0
1030
0.0
1001
ACDBBLOCKREPETAG
1070
     1
1071
       51
1005
1234BB
  0
LINE
  5
1234BC
  8
SLIM
 10
10021.77587950628
 20
-1324.999999999998
 30
0.0
 11
10067.969349631379
 21
-1278.8065298749
 31
0.0
1001
ACAD
1010
0.0
1020
0.0
1030
0.0
1001
ACDBBLOCKREPETAG
1070
     1
1071
       52
1005
1234BC
  0
LINE
  5
1234BD
  8
SLIM
 10
10039.736391748431
 20
-1324.999999999998
 30
0.0
 11
10067.000000000009
 21
-1297.736391748414
 31
0.0
1001
ACAD
1010
0.0
1020
0.0
1030
0.0
1001
ACDBBLOCKREPETAG
1070
     1
1071
       53
1005
1234BD
  0
LINE
  5
1234BE
  8
SLIM
 10
10057.69690399056
 20
-1324.9999999999991
 30
0.0
 11
10067.000000000009
 21
-1315.696903990553
 31
0.0
1001
ACAD
1010
0.0
1020
0.0
1030
0.0
1001
ACDBBLOCKREPETAG
1070
     1
1071
       54
1005
1234BE
  0
LINE
  5
1234BF
  8
OBJECT
 10
9932.9999999999927
 20
-1324.9999999999959
 30
0.0
 11
10067.000000000009
 21
-1324.9999999999991
 31
0.0
1001
ACDBBLOCKREPETAG
1070
     1
1071
        1
1005
1234BF
  0
LINE
  5
1234C0
  8
OBJECT
 10
9914.9999999999927
 20
-654.99999999999966
 30
0.0
 11
9915.0
 21
-1157.699682809141
 31
0.0
1001
ACDBBLOCKREPETAG
1070
     1
1071
        2
1005
1234C0
  0
LINE
  5
1234C1
  8
OBJECT
 10
10085.000000000009
 20
-654.99999999999966
 30
0.0
 11
10085.0
 21
-1157.6996828091719
 31
0.0
1001
ACDBBLOCKREPETAG
1070
     1
1071
        3
1005
1234C1
  0
LINE
  5
1234C2
  8
OBJECT
 10
9915.0
 20
-1157.699682809141
 30
0.0
 11
9932.9999999999927
 21
-1285.699682809081
 31
0.0
1001
ACDBBLOCKREPETAG
1070
     1
1071
        4
1005
1234C2
  0
LINE
  5
1234C3
  8
OBJECT
 10
10067.000000000009
 20
-1285.699682809128
 30
0.0
 11
10085.0
 21
-1157.6996828091719
 31
0.0
1001
ACDBBLOCKREPETAG
1070
     1
1071
        5
1005
1234C3
  0
LINE
  5
1234C4
  8
OBJECT
 10
10085.000000000009
 20
-654.99999999999966
 30
0.0
 11
9914.9999999999927
 21
-654.99999999999966
 31
0.0
1001
ACDBBLOCKREPETAG
1070
     1
1071
        6
1005
1234C4
  0
LINE
  5
1234C5
  8
OBJECT
 10
9932.9999999999927
 20
-1285.699682809081
 30
0.0
 11
9932.9999999999927
 21
-1324.9999999999959
 31
0.0
1001
ACDBBLOCKREPETAG
1070
     1
1071
        8
1005
1234C5
  0
LINE
  5
1234C6
  8
OBJECT
 10
10067.000000000009
 20
-1285.699682809128
 30
0.0
 11
10067.000000000009
 21
-1324.9999999999991
 31
0.0
1001
ACDBBLOCKREPETAG
1070
     1
1071
        9
1005
1234C6
  0
LINE
  5
1234C7
  8
SLIM
 10
7914.9999999999918
 20
-659.47385309434696
 30
0.0
 11
7919.4738530943414
 21
-654.99999999999966
 31
0.0
1001
ACAD
1010
0.0
1020
0.0
1030
0.0
1001
ACDBBLOCKREPETAG
1070
     1
1071
        0
1005
0
  0
LINE
  5
1234C8
  8
SLIM
 10
7914.9999999999918
 20
-677.43436533648514
 30
0.0
 11
7937.4343653364776
 21
-654.99999999999966
 31
0.0
1001
ACAD
1010
0.0
1020
0.0
1030
0.0
1001
ACDBBLOCKREPETAG
1070
     1
1071
       11
1005
1234C8
  0
LINE
  5
1234C9
  8
SLIM
 10
7914.9999999999918
 20
-695.39487757862321
 30
0.0
 11
7955.3948775786157
 21
-654.99999999999966
 31
0.0
1001
ACAD
1010
0.0
1020
0.0
1030
0.0
1001
ACDBBLOCKREPETAG
1070
     1
1071
       12
1005
1234C9
  0
LINE
  5
1234CA
  8
SLIM
 10
7914.9999999999918
 20
-713.35538982076093
 30
0.0
 11
7973.3553898207538
 21
-654.99999999999966
 31
0.0
1001
ACAD
1010
0.0
1020
0.0
1030
0.0
1001
ACDBBLOCKREPETAG
1070
     1
1071
       13
1005
1234CA
  0
LINE
  5
1234CB
  8
SLIM
 10
7914.9999999999918
 20
-731.31590206289934
 30
0.0
 11
7991.3159020628918
 21
-654.99999999999966
 31
0.0
1001
ACAD
1010
0.0
1020
0.0
1030
0.0
1001
ACDBBLOCKREPETAG
1070
     1
1071
       14
1005
1234CB
  0
LINE
  5
1234CC
  8
SLIM
 10
7914.9999999999964
 20
-749.27641430503695
 30
0.0
 11
8009.2764143050308
 21
-654.99999999999966
 31
0.0
1001
ACAD
1010
0.0
1020
0.0
1030
0.0
1001
ACDBBLOCKREPETAG
1070
     1
1071
       15
1005
1234CC
  0
LINE
  5
1234CD
  8
SLIM
 10
7914.9999999999964
 20
-767.23692654717524
 30
0.0
 11
8027.2369265471707
 21
-654.99999999999966
 31
0.0
1001
ACAD
1010
0.0
1020
0.0
1030
0.0
1001
ACDBBLOCKREPETAG
1070
     1
1071
       16
1005
1234CD
  0
LINE
  5
1234CE
  8
SLIM
 10
7914.9999999999964
 20
-785.1974387893132
 30
0.0
 11
8045.1974387893079
 21
-654.99999999999966
 31
0.0
1001
ACAD
1010
0.0
1020
0.0
1030
0.0
1001
ACDBBLOCKREPETAG
1070
     1
1071
       17
1005
1234CE
  0
LINE
  5
1234CF
  8
SLIM
 10
7914.9999999999964
 20
-803.15795103145126
 30
0.0
 11
8063.1579510314468
 21
-654.99999999999966
 31
0.0
1001
ACAD
1010
0.0
1020
0.0
1030
0.0
1001
ACDBBLOCKREPETAG
1070
     1
1071
       18
1005
1234CF
  0
LINE
  5
1234D0
  8
SLIM
 10
7914.9999999999982
 20
-821.11846327358955
 30
0.0
 11
8081.118463273584
 21
-654.99999999999966
 31
0.0
1001
ACAD
1010
0.0
1020
0.0
1030
0.0
1001
ACDBBLOCKREPETAG
1070
     1
1071
       19
1005
1234D0
  0
LINE
  5
1234D1
  8
SLIM
 10
7914.9999999999982
 20
-839.07897551572751
 30
0.0
 11
8085.0000000000064
 21
-669.07897551571602
 31
0.0
1001
ACAD
1010
0.0
1020
0.0
1030
0.0
1001
ACDBBLOCKREPETAG
1070
     1
1071
       20
1005
1234D1
  0
LINE
  5
1234D2
  8
SLIM
 10
7914.9999999999982
 20
-857.03948775786546
 30
0.0
 11
8085.0000000000064
 21
-687.03948775785454
 31
0.0
1001
ACAD
1010
0.0
1020
0.0
1030
0.0
1001
ACDBBLOCKREPETAG
1070
     1
1071
       21
1005
1234D2
  0
LINE
  5
1234D3
  8
SLIM
 10
7914.9999999999982
 20
-875.00000000000375
 30
0.0
 11
8085.0000000000064
 21
-704.99999999999329
 31
0.0
1001
ACAD
1010
0.0
1020
0.0
1030
0.0
1001
ACDBBLOCKREPETAG
1070
     1
1071
       22
1005
1234D3
  0
LINE
  5
1234D4
  8
SLIM
 10
7914.9999999999982
 20
-892.9605122421417
 30
0.0
 11
8085.0000000000064
 21
-722.96051224213159
 31
0.0
1001
ACAD
1010
0.0
1020
0.0
1030
0.0
1001
ACDBBLOCKREPETAG
1070
     1
1071
       23
1005
1234D4
  0
LINE
  5
1234D5
  8
SLIM
 10
7914.9999999999982
 20
-910.92102448427966
 30
0.0
 11
8085.0000000000064
 21
-740.92102448427033
 31
0.0
1001
ACAD
1010
0.0
1020
0.0
1030
0.0
1001
ACDBBLOCKREPETAG
1070
     1
1071
       24
1005
1234D5
  0
LINE
  5
1234D6
  8
SLIM
 10
7914.9999999999982
 20
-928.88153672641772
 30
0.0
 11
8085.0000000000064
 21
-758.88153672640874
 31
0.0
1001
ACAD
1010
0.0
1020
0.0
1030
0.0
1001
ACDBBLOCKREPETAG
1070
     1
1071
       25
1005
1234D6
  0
LINE
  5
1234D7
  8
SLIM
 10
7914.9999999999982
 20
-946.84204896855545
 30
0.0
 11
8085.0000000000064
 21
-776.84204896854737
 31
0.0
1001
ACAD
1010
0.0
1020
0.0
1030
0.0
1001
ACDBBLOCKREPETAG
1070
     1
1071
       26
1005
1234D7
  0
LINE
  5
1234D8
  8
SLIM
 10
7914.9999999999982
 20
-964.80256121069385
 30
0.0
 11
8085.0000000000064
 21
-794.80256121068567
 31
0.0
1001
ACAD
1010
0.0
1020
0.0
1030
0.0
1001
ACDBBLOCKREPETAG
1070
     1
1071
       27
1005
1234D8
  0
LINE
  5
1234D9
  8
SLIM
 10
7914.9999999999982
 20
-982.76307345283203
 30
0.0
 11
8085.0000000000064
 21
-812.76307345282441
 31
0.0
1001
ACAD
1010
0.0
1020
0.0
1030
0.0
1001
ACDBBLOCKREPETAG
1070
     1
1071
       28
1005
1234D9
  0
LINE
  5
1234DA
  8
SLIM
 10
7914.9999999999982
 20
-1000.72358569497
 30
0.0
 11
8085.0000000000064
 21
-830.72358569496294
 31
0.0
1001
ACAD
1010
0.0
1020
0.0
1030
0.0
1001
ACDBBLOCKREPETAG
1070
     1
1071
       29
1005
1234DA
  0
LINE
  5
1234DB
  8
SLIM
 10
7914.9999999999982
 20
-1018.684097937108
 30
0.0
 11
8085.0000000000064
 21
-848.68409793710146
 31
0.0
1001
ACAD
1010
0.0
1020
0.0
1030
0.0
1001
ACDBBLOCKREPETAG
1070
     1
1071
       30
1005
1234DB
  0
LINE
  5
1234DC
  8
SLIM
 10
7914.9999999999982
 20
-1036.644610179246
 30
0.0
 11
8085.0000000000064
 21
-866.64461017923998
 31
0.0
1001
ACAD
1010
0.0
1020
0.0
1030
0.0
1001
ACDBBLOCKREPETAG
1070
     1
1071
       31
1005
1234DC
  0
LINE
  5
1234DD
  8
SLIM
 10
7914.9999999999982
 20
-1054.6051224213841
 30
0.0
 11
8085.0000000000018
 21
-884.60512242137838
 31
0.0
1001
ACAD
1010
0.0
1020
0.0
1030
0.0
1001
ACDBBLOCKREPETAG
1070
     1
1071
       32
1005
1234DD
  0
LINE
  5
1234DE
  8
SLIM
 10
7914.9999999999982
 20
-1072.5656346635219
 30
0.0
 11
8085.0000000000018
 21
-902.56563466351713
 31
0.0
1001
ACAD
1010
0.0
1020
0.0
1030
0.0
1001
ACDBBLOCKREPETAG
1070
     1
1071
       33
1005
1234DE
  0
LINE
  5
1234DF
  8
SLIM
 10
7914.9999999999982
 20
-1090.52614690566
 30
0.0
 11
8085.0000000000018
 21
-920.52614690565565
 31
0.0
1001
ACAD
1010
0.0
1020
0.0
1030
0.0
1001
ACDBBLOCKREPETAG
1070
     1
1071
       34
1005
1234DF
  0
LINE
  5
1234E0
  8
SLIM
 10
7914.9999999999982
 20
-1108.486659147798
 30
0.0
 11
8085.0000000000018
 21
-938.4866591477944
 31
0.0
1001
ACAD
1010
0.0
1020
0.0
1030
0.0
1001
ACDBBLOCKREPETAG
1070
     1
1071
       35
1005
1234E0
  0
LINE
  5
1234E1
  8
SLIM
 10
7914.9999999999982
 20
-1126.4471713899361
 30
0.0
 11
8085.0000000000018
 21
-956.44717138993303
 31
0.0
1001
ACAD
1010
0.0
1020
0.0
1030
0.0
1001
ACDBBLOCKREPETAG
1070
     1
1071
       36
1005
1234E1
  0
LINE
  5
1234E2
  8
SLIM
 10
7915.0
 20
-1144.4076836320739
 30
0.0
 11
8085.0000000000018
 21
-974.4076836320711
 31
0.0
1001
ACAD
1010
0.0
1020
0.0
1030
0.0
1001
ACDBBLOCKREPETAG
1070
     1
1071
       37
1005
1234E2
  0
LINE
  5
1234E3
  8
SLIM
 10
7915.5755701039097
 20
-1161.7926257702991
 30
0.0
 11
8085.0000000000018
 21
-992.36819587420985
 31
0.0
1001
ACAD
1010
0.0
1020
0.0
1030
0.0
1001
ACDBBLOCKREPETAG
1070
     1
1071
       38
1005
1234E3
  0
LINE
  5
1234E4
  8
SLIM
 10
7917.7898798323949
 20
-1177.538828283954
 30
0.0
 11
8085.0000000000018
 21
-1010.328708116349
 31
0.0
1001
ACAD
1010
0.0
1020
0.0
1030
0.0
1001
ACDBBLOCKREPETAG
1070
     1
1071
       39
1005
1234E4
  0
LINE
  5
1234E5
  8
SLIM
 10
7920.0041895608774
 20
-1193.2850307976109
 30
0.0
 11
8085.0000000000018
 21
-1028.289220358487
 31
0.0
1001
ACAD
1010
0.0
1020
0.0
1030
0.0
1001
ACDBBLOCKREPETAG
1070
     1
1071
       40
1005
1234E5
  0
LINE
  5
1234E6
  8
SLIM
 10
7922.2184992893599
 20
-1209.0312333112661
 30
0.0
 11
8085.0000000000018
 21
-1046.2497326006251
 31
0.0
1001
ACAD
1010
0.0
1020
0.0
1030
0.0
1001
ACDBBLOCKREPETAG
1070
     1
1071
       41
1005
1234E6
  0
LINE
  5
1234E7
  8
SLIM
 10
7924.4328090178433
 20
-1224.7774358249219
 30
0.0
 11
8085.0
 21
-1064.210244842764
 31
0.0
1001
ACAD
1010
0.0
1020
0.0
1030
0.0
1001
ACDBBLOCKREPETAG
1070
     1
1071
       42
1005
1234E7
  0
LINE
  5
1234E8
  8
SLIM
 10
7926.647118746323
 20
-1240.5236383385779
 30
0.0
 11
8085.0
 21
-1082.170757084903
 31
0.0
1001
ACAD
1010
0.0
1020
0.0
1030
0.0
1001
ACDBBLOCKREPETAG
1070
     1
1071
       43
1005
1234E8
  0
LINE
  5
1234E9
  8
SLIM
 10
7928.8614284748082
 20
-1256.2698408522331
 30
0.0
 11
8085.0
 21
-1100.1312693270411
 31
0.0
1001
ACAD
1010
0.0
1020
0.0
1030
0.0
1001
ACDBBLOCKREPETAG
1070
     1
1071
       44
1005
1234E9
  0
LINE
  5
1234EA
  8
SLIM
 10
7931.0757382032898
 20
-1272.0160433658889
 30
0.0
 11
8085.0
 21
-1118.0917815691801
 31
0.0
1001
ACAD
1010
0.0
1020
0.0
1030
0.0
1001
ACDBBLOCKREPETAG
1070
     1
1071
       45
1005
1234EA
  0
LINE
  5
1234EB
  8
SLIM
 10
7936.0522938113209
 20
-1284.9999999999991
 30
0.0
 11
8085.0
 21
-1136.0522938113179
 31
0.0
1001
ACAD
1010
0.0
1020
0.0
1030
0.0
1001
ACDBBLOCKREPETAG
1070
     1
1071
       46
1005
1234EB
  0
LINE
  5
1234EC
  8
SLIM
 10
7943.0
 20
-1296.0128060534571
 30
0.0
 11
7954.0128060534598
 21
-1284.9999999999991
 31
0.0
1001
ACAD
1010
0.0
1020
0.0
1030
0.0
1001
ACDBBLOCKREPETAG
1070
     1
1071
       47
1005
1234EC
  0
LINE
  5
1234ED
  8
SLIM
 10
7954.0128060534598
 20
-1284.9999999999991
 30
0.0
 11
8085.0
 21
-1154.0128060534571
 31
0.0
1001
ACAD
1010
0.0
1020
0.0
1030
0.0
1001
ACDBBLOCKREPETAG
1070
     1
1071
       48
1005
1234ED
  0
LINE
  5
1234EE
  8
SLIM
 10
7946.973318295597
 20
-1309.9999999999991
 30
0.0
 11
7971.9733182955979
 21
-1284.9999999999991
 31
0.0
1001
ACAD
1010
0.0
1020
0.0
1030
0.0
1001
ACDBBLOCKREPETAG
1070
     1
1071
       49
1005
1234EE
  0
LINE
  5
1234EF
  8
SLIM
 10
7971.9733182955979
 20
-1284.9999999999991
 30
0.0
 11
8082.664314193129
 21
-1174.3090041024641
 31
0.0
1001
ACAD
1010
0.0
1020
0.0
1030
0.0
1001
ACDBBLOCKREPETAG
1070
     1
1071
       50
1005
1234EF
  0
LINE
  5
1234F0
  8
SLIM
 10
7964.9338305377341
 20
-1309.9999999999991
 30
0.0
 11
7989.9338305377341
 21
-1284.9999999999991
 31
0.0
1001
ACAD
1010
0.0
1020
0.0
1030
0.0
1001
ACDBBLOCKREPETAG
1070
     1
1071
       51
1005
1234F0
  0
LINE
  5
1234F1
  8
SLIM
 10
7989.9338305377341
 20
-1284.9999999999991
 30
0.0
 11
8079.7253212807827
 21
-1195.208509256953
 31
0.0
1001
ACAD
1010
0.0
1020
0.0
1030
0.0
1001
ACDBBLOCKREPETAG
1070
     1
1071
       52
1005
1234F1
  0
LINE
  5
1234F2
  8
SLIM
 10
7982.8943427798713
 20
-1309.9999999999991
 30
0.0
 11
8007.8943427798722
 21
-1284.9999999999991
 31
0.0
1001
ACAD
1010
0.0
1020
0.0
1030
0.0
1001
ACDBBLOCKREPETAG
1070
     1
1071
       53
1005
1234F2
  0
LINE
  5
1234F3
  8
SLIM
 10
8007.8943427798722
 20
-1284.9999999999991
 30
0.0
 11
8076.786328368431
 21
-1216.108014411441
 31
0.0
1001
ACAD
1010
0.0
1020
0.0
1030
0.0
1001
ACDBBLOCKREPETAG
1070
     1
1071
       54
1005
1234F3
  0
LINE
  5
1234F4
  8
SLIM
 10
8000.8548550220103
 20
-1309.9999999999991
 30
0.0
 11
8025.8548550220094
 21
-1284.9999999999991
 31
0.0
1001
ACAD
1010
0.0
1020
0.0
1030
0.0
1001
ACDBBLOCKREPETAG
1070
     1
1071
       55
1005
1234F4
  0
LINE
  5
1234F5
  8
SLIM
 10
8025.8548550220094
 20
-1284.9999999999991
 30
0.0
 11
8073.8473354560829
 21
-1237.007519565929
 31
0.0
1001
ACAD
1010
0.0
1020
0.0
1030
0.0
1001
ACDBBLOCKREPETAG
1070
     1
1071
       56
1005
1234F5
  0
LINE
  5
1234F6
  8
SLIM
 10
8018.8153672641492
 20
-1309.9999999999991
 30
0.0
 11
8043.8153672641502
 21
-1284.9999999999991
 31
0.0
1001
ACAD
1010
0.0
1020
0.0
1030
0.0
1001
ACDBBLOCKREPETAG
1070
     1
1071
       57
1005
1234F6
  0
LINE
  5
1234F7
  8
SLIM
 10
8043.8153672641502
 20
-1284.9999999999991
 30
0.0
 11
8070.9083425437329
 21
-1257.907024720417
 31
0.0
1001
ACAD
1010
0.0
1020
0.0
1030
0.0
1001
ACDBBLOCKREPETAG
1070
     1
1071
       58
1005
1234F7
  0
LINE
  5
1234F8
  8
SLIM
 10
8036.7758795062846
 20
-1309.9999999999991
 30
0.0
 11
8057.0
 21
-1289.7758795062871
 31
0.0
1001
ACAD
1010
0.0
1020
0.0
1030
0.0
1001
ACDBBLOCKREPETAG
1070
     1
1071
       59
1005
1234F8
  0
LINE
  5
1234F9
  8
SLIM
 10
8061.7758795062846
 20
-1284.9999999999991
 30
0.0
 11
8067.9693496313812
 21
-1278.806529874905
 31
0.0
1001
ACAD
1010
0.0
1020
0.0
1030
0.0
1001
ACDBBLOCKREPETAG
1070
     1
1071
       60
1005
1234F9
  0
LINE
  5
1234FA
  8
SLIM
 10
8054.7363917484254
 20
-1309.9999999999991
 30
0.0
 11
8057.0
 21
-1307.7363917484249
 31
0.0
1001
ACAD
1010
0.0
1020
0.0
1030
0.0
1001
ACDBBLOCKREPETAG
1070
     1
1071
       61
1005
1234FA
  0
LINE
  5
1234FB
  8
OBJECT
 10
7943.0
 20
-1309.9999999999991
 30
0.0
 11
8057.0
 21
-1309.9999999999991
 31
0.0
1001
ACDBBLOCKREPETAG
1070
     1
1071
        1
1005
1234FB
  0
LINE
  5
1234FC
  8
OBJECT
 10
7932.9016071049627
 20
-1284.9999999999991
 30
0.0
 11
8067.09839289504
 21
-1284.9999999999991
 31
0.0
1001
ACDBBLOCKREPETAG
1070
     1
1071
        2
1005
1234FC
  0
LINE
  5
1234FD
  8
OBJECT
 10
7943.0
 20
-1309.9999999999991
 30
0.0
 11
7943.0
 21
-1284.9999999999991
 31
0.0
1001
ACDBBLOCKREPETAG
1070
     1
1071
        3
1005
1234FD
  0
LINE
  5
1234FE
  8
OBJECT
 10
8057.0
 20
-1309.9999999999991
 30
0.0
 11
8057.0
 21
-1284.9999999999991
 31
0.0
1001
ACDBBLOCKREPETAG
1070
     1
1071
        4
1005
1234FE
  0
LINE
  5
1234FF
  8
OBJECT
 10
7914.9999999999918
 20
-654.99999999999966
 30
0.0
 11
7915.0
 21
-1157.699682809143
 31
0.0
1001
ACDBBLOCKREPETAG
1070
     1
1071
        5
1005
1234FF
  0
LINE
  5
123500
  8
OBJECT
 10
8085.0000000000064
 20
-654.99999999999966
 30
0.0
 11
8085.0
 21
-1157.6996828091719
 31
0.0
1001
ACDBBLOCKREPETAG
1070
     1
1071
        6
1005
123500
  0
LINE
  5
123501
  8
OBJECT
 10
7915.0
 20
-1157.699682809143
 30
0.0
 11
7932.9016071049627
 21
-1284.9999999999991
 31
0.0
1001
ACDBBLOCKREPETAG
1070
     1
1071
        7
1005
123501
  0
LINE
  5
123502
  8
OBJECT
 10
8067.09839289504
 20
-1284.9999999999991
 30
0.0
 11
8085.0
 21
-1157.6996828091719
 31
0.0
1001
ACDBBLOCKREPETAG
1070
     1
1071
        8
1005
123502
  0
LINE
  5
123503
  8
OBJECT
 10
8085.0000000000064
 20
-654.99999999999966
 30
0.0
 11
7914.9999999999918
 21
-654.99999999999966
 31
0.0
1001
ACDBBLOCKREPETAG
1070
     1
1071
        9
1005
123503
  0
LINE
  5
123504
  8
OBJECT
 10
11925.0
 20
-789.99999999999955
 30
0.0
 11
11925.0
 21
-1062.9999999999991
 31
0.0
1001
ACDBBLOCKREPETAG
1070
     1
1071
        1
1005
123504
  0
LINE
  5
123505
  8
OBJECT
 10
12075.0
 20
-789.99999999999375
 30
0.0
 11
12075.0
 21
-1062.9999999999991
 31
0.0
1001
ACDBBLOCKREPETAG
1070
     1
1071
        3
1005
123505
  0
LINE
  5
123506
  8
CENTER
 10
12000.0
 20
-789.99999999999955
 30
0.0
 11
12000.0
 21
-1074.9999999999991
 31
0.0
1001
ACDBBLOCKREPETAG
1070
     1
1071
        6
1005
123506
  0
LINE
  5
123507
  8
OBJECT
 10
11920.0
 20
-1074.9999999999991
 30
0.0
 11
12080.0
 21
-1074.9999999999991
 31
0.0
1001
ACDBBLOCKREPETAG
1070
     1
1071
        7
1005
123507
  0
LINE
  5
123508
  8
OBJECT
 10
11920.0
 20
-1062.9999999999991
 30
0.0
 11
12080.0
 21
-1062.9999999999991
 31
0.0
1001
ACDBBLOCKREPETAG
1070
     1
1071
        8
1005
123508
  0
LINE
  5
123509
  8
OBJECT
 10
11920.0
 20
-1062.9999999999991
 30
0.0
 11
11920.0
 21
-1074.9999999999991
 31
0.0
1001
ACDBBLOCKREPETAG
1070
     1
1071
        9
1005
123509
  0
LINE
  5
12350A
  8
OBJECT
 10
12080.0
 20
-1062.9999999999991
 30
0.0
 11
12080.0
 21
-1074.9999999999991
 31
0.0
1001
ACDBBLOCKREPETAG
1070
     1
1071
       10
1005
12350A
  0
LINE
  5
12350B
  8
OBJECT
 10
11923.0
 20
-470.99999999999937
 30
0.0
 11
11923.0
 21
-449.99999999999937
 31
0.0
1001
ACDBBLOCKREPETAG
1070
     1
1071
        0
1005
12350B
  0
LINE
  5
12350C
  8
OBJECT
 10
11923.0
 20
-449.99999999999937
 30
0.0
 11
12077.0
 21
-449.99999999999937
 31
0.0
1001
ACDBBLOCKREPETAG
1070
     1
1071
        1
1005
12350C
  0
LINE
  5
12350D
  8
HIDDEN
 10
11943.0
 20
-519.99999999999955
 30
0.0
 11
12057.0
 21
-519.99999999999955
 31
0.0
1001
ACDBBLOCKREPETAG
1070
     1
1071
        2
1005
12350D
  0
LINE
  5
12350E
  8
OBJECT
 10
12077.0
 20
-449.99999999999937
 30
0.0
 11
12077.0
 21
-470.99999999999937
 31
0.0
1001
ACDBBLOCKREPETAG
1070
     1
1071
        3
1005
12350E
  0
LINE
  5
12350F
  8
OBJECT
 10
12077.0
 20
-470.99999999999937
 30
0.0
 11
11923.0
 21
-470.99999999999937
 31
0.0
1001
ACDBBLOCKREPETAG
1070
     1
1071
        4
1005
12350F
  0
LINE
  5
123510
  8
CENTER
 10
12000.0
 20
-434.99999999999949
 30
0.0
 11
12000.0
 21
-789.99999999999955
 31
0.0
1001
ACDBBLOCKREPETAG
1070
     1
1071
        5
1005
123510
  0
LINE
  5
123511
  8
OBJECT
 10
11925.0
 20
-533.99999999999955
 30
0.0
 11
11925.0
 21
-777.99999999999955
 31
0.0
1001
ACDBBLOCKREPETAG
1070
     1
1071
        6
1005
123511
  0
LINE
  5
123512
  8
OBJECT
 10
11928.0
 20
-470.99999999999937
 30
0.0
 11
11928.0
 21
-533.99999999999955
 31
0.0
1001
ACDBBLOCKREPETAG
1070
     1
1071
        7
1005
123512
  0
LINE
  5
123513
  8
OBJECT
 10
12072.0
 20
-533.99999999999955
 30
0.0
 11
12072.0
 21
-470.99999999999937
 31
0.0
1001
ACDBBLOCKREPETAG
1070
     1
1071
        8
1005
123513
  0
LINE
  5
123514
  8
OBJECT
 10
11920.0
 20
-777.99999999999955
 30
0.0
 11
12080.0
 21
-777.99999999999955
 31
0.0
1001
ACDBBLOCKREPETAG
1070
     1
1071
        9
1005
123514
  0
LINE
  5
123515
  8
OBJECT
 10
12080.0
 20
-533.99999999999955
 30
0.0
 11
11925.0
 21
-533.99999999999955
 31
0.0
1001
ACDBBLOCKREPETAG
1070
     1
1071
       10
1005
123515
  0
LINE
  5
123516
  8
OBJECT
 10
11920.0
 20
-777.99999999999955
 30
0.0
 11
11920.0
 21
-789.99999999999955
 31
0.0
1001
ACDBBLOCKREPETAG
1070
     1
1071
       11
1005
123516
  0
LINE
  5
123517
  8
OBJECT
 10
11920.0
 20
-789.99999999999955
 30
0.0
 11
12080.0
 21
-789.99999999999955
 31
0.0
1001
ACDBBLOCKREPETAG
1070
     1
1071
       12
1005
123517
  0
LINE
  5
123518
  8
OBJECT
 10
12080.0
 20
-789.99999999999955
 30
0.0
 11
12080.0
 21
-777.99999999999955
 31
0.0
1001
ACDBBLOCKREPETAG
1070
     1
1071
       13
1005
123518
  0
LINE
  5
123519
  8
OBJECT
 10
12074.99999999986
 20
-657.99999999985039
 30
0.0
 11
12075.0
 21
-777.99999999999955
 31
0.0
1001
ACDBBLOCKREPETAG
1070
     1
1071
       15
1005
123519
  0
LINE
  5
12351A
  8
OBJECT
 10
12074.99999080298
 20
-657.99998602702135
 30
0.0
 11
12080.0
 21
-657.99998602702135
 31
0.0
1001
ACDBBLOCKREPETAG
1070
     1
1071
       16
1005
12351A
  0
ARC
  5
12351B
  8
OBJECT
 10
12200.687274671671
 20
-649.40809941010718
 30
0.0
 40
170.6350503965856
 50
137.44134459184301
 51
149.91949581337221
1001
ACDBBLOCKREPETAG
1070
     1
1071
       17
1005
12351B
  0
ARC
  5
12351C
  8
OBJECT
 10
12118.845598704051
 20
-605.88272669536445
 30
0.0
 40
78.072222021763665
 50
147.4551531038623
 51
164.6636599771729
1001
ACDBBLOCKREPETAG
1070
     1
1071
       18
1005
12351C
  0
ARC
  5
12351D
  8
OBJECT
 10
12085.755434960871
 20
-595.99999999999955
 30
0.0
 40
43.55353926885617
 50
165.688452300753
 51
194.3115476992468
1001
ACDBBLOCKREPETAG
1070
     1
1071
       19
1005
12351D
  0
ARC
  5
12351E
  8
OBJECT
 10
12200.687274671671
 20
-542.59190058989179
 30
0.0
 40
170.6350503965856
 50
210.08050418662771
 51
222.55865540815699
1001
ACDBBLOCKREPETAG
1070
     1
1071
       20
1005
12351E
  0
ARC
  5
12351F
  8
OBJECT
 10
12118.845598704051
 20
-586.11727330463452
 30
0.0
 40
78.072222021763665
 50
195.3363400228271
 51
212.5448468961377
1001
ACDBBLOCKREPETAG
1070
     1
1071
       21
1005
12351F
  0
POINT
  5
123520
  8
DOTS
 10
12000.0
 20
-654.99999999999966
 30
0.0
1001
ACDBBLOCKREPETAG
1070
     1
1071
      187
1005
123520
  0
LINE
  5
123521
  8
OBJECT
 10
9925.0
 20
-789.99999999999955
 30
0.0
 11
9925.0
 21
-1062.9999999999991
 31
0.0
1001
ACDBBLOCKREPETAG
1070
     1
1071
        1
1005
123521
  0
LINE
  5
123522
  8
OBJECT
 10
10075.0
 20
-789.99999999999375
 30
0.0
 11
10075.0
 21
-1062.9999999999991
 31
0.0
1001
ACDBBLOCKREPETAG
1070
     1
1071
        3
1005
123522
  0
LINE
  5
123523
  8
CENTER
 10
10000.0
 20
-789.99999999999955
 30
0.0
 11
10000.0
 21
-1074.9999999999991
 31
0.0
1001
ACDBBLOCKREPETAG
1070
     1
1071
        6
1005
123523
  0
LINE
  5
123524
  8
OBJECT
 10
9920.0
 20
-1074.9999999999991
 30
0.0
 11
10080.0
 21
-1074.9999999999991
 31
0.0
1001
ACDBBLOCKREPETAG
1070
     1
1071
        7
1005
123524
  0
LINE
  5
123525
  8
OBJECT
 10
9920.0
 20
-1062.9999999999991
 30
0.0
 11
10080.0
 21
-1062.9999999999991
 31
0.0
1001
ACDBBLOCKREPETAG
1070
     1
1071
        8
1005
123525
  0
LINE
  5
123526
  8
OBJECT
 10
9920.0
 20
-1062.9999999999991
 30
0.0
 11
9920.0
 21
-1074.9999999999991
 31
0.0
1001
ACDBBLOCKREPETAG
1070
     1
1071
        9
1005
123526
  0
LINE
  5
123527
  8
OBJECT
 10
10080.0
 20
-1062.9999999999991
 30
0.0
 11
10080.0
 21
-1074.9999999999991
 31
0.0
1001
ACDBBLOCKREPETAG
1070
     1
1071
       10
1005
123527
  0
LINE
  5
123528
  8
OBJECT
 10
9923.0
 20
-470.99999999999937
 30
0.0
 11
9923.0
 21
-449.99999999999937
 31
0.0
1001
ACDBBLOCKREPETAG
1070
     1
1071
        0
1005
123528
  0
LINE
  5
123529
  8
OBJECT
 10
9923.0
 20
-449.99999999999937
 30
0.0
 11
10077.0
 21
-449.99999999999937
 31
0.0
1001
ACDBBLOCKREPETAG
1070
     1
1071
        1
1005
123529
  0
LINE
  5
12352A
  8
HIDDEN
 10
9943.0
 20
-519.99999999999955
 30
0.0
 11
10057.0
 21
-519.99999999999955
 31
0.0
1001
ACDBBLOCKREPETAG
1070
     1
1071
        2
1005
12352A
  0
LINE
  5
12352B
  8
OBJECT
 10
10077.0
 20
-449.99999999999937
 30
0.0
 11
10077.0
 21
-470.99999999999937
 31
0.0
1001
ACDBBLOCKREPETAG
1070
     1
1071
        3
1005
12352B
  0
LINE
  5
12352C
  8
OBJECT
 10
10077.0
 20
-470.99999999999937
 30
0.0
 11
9923.0
 21
-470.99999999999937
 31
0.0
1001
ACDBBLOCKREPETAG
1070
     1
1071
        4
1005
12352C
  0
LINE
  5
12352D
  8
CENTER
 10
10000.0
 20
-434.99999999999949
 30
0.0
 11
10000.0
 21
-789.99999999999955
 31
0.0
1001
ACDBBLOCKREPETAG
1070
     1
1071
        5
1005
12352D
  0
LINE
  5
12352E
  8
OBJECT
 10
9925.0
 20
-533.99999999999955
 30
0.0
 11
9925.0
 21
-777.99999999999955
 31
0.0
1001
ACDBBLOCKREPETAG
1070
     1
1071
        6
1005
12352E
  0
LINE
  5
12352F
  8
OBJECT
 10
9928.0
 20
-470.99999999999937
 30
0.0
 11
9928.0
 21
-533.99999999999955
 31
0.0
1001
ACDBBLOCKREPETAG
1070
     1
1071
        7
1005
12352F
  0
LINE
  5
123530
  8
OBJECT
 10
10072.0
 20
-533.99999999999955
 30
0.0
 11
10072.0
 21
-470.99999999999937
 31
0.0
1001
ACDBBLOCKREPETAG
1070
     1
1071
        8
1005
123530
  0
LINE
  5
123531
  8
OBJECT
 10
9920.0
 20
-777.99999999999955
 30
0.0
 11
10080.0
 21
-777.99999999999955
 31
0.0
1001
ACDBBLOCKREPETAG
1070
     1
1071
        9
1005
123531
  0
LINE
  5
123532
  8
OBJECT
 10
10080.0
 20
-533.99999999999955
 30
0.0
 11
9925.0
 21
-533.99999999999955
 31
0.0
1001
ACDBBLOCKREPETAG
1070
     1
1071
       10
1005
123532
  0
LINE
  5
123533
  8
OBJECT
 10
9920.0
 20
-777.99999999999955
 30
0.0
 11
9920.0
 21
-789.99999999999955
 31
0.0
1001
ACDBBLOCKREPETAG
1070
     1
1071
       11
1005
123533
  0
LINE
  5
123534
  8
OBJECT
 10
9920.0
 20
-789.99999999999955
 30
0.0
 11
10080.0
 21
-789.99999999999955
 31
0.0
1001
ACDBBLOCKREPETAG
1070
     1
1071
       12
1005
123534
  0
LINE
  5
123535
  8
OBJECT
 10
10080.0
 20
-789.99999999999955
 30
0.0
 11
10080.0
 21
-777.99999999999955
 31
0.0
1001
ACDBBLOCKREPETAG
1070
     1
1071
       13
1005
123535
  0
LINE
  5
123536
  8
OBJECT
 10
10074.99999999986
 20
-657.99999999985039
 30
0.0
 11
10075.0
 21
-777.99999999999955
 31
0.0
1001
ACDBBLOCKREPETAG
1070
     1
1071
       15
1005
123536
  0
LINE
  5
123537
  8
OBJECT
 10
10074.99999080298
 20
-657.99998602702135
 30
0.0
 11
10080.0
 21
-657.99998602702135
 31
0.0
1001
ACDBBLOCKREPETAG
1070
     1
1071
       16
1005
123537
  0
ARC
  5
123538
  8
OBJECT
 10
10200.687274671671
 20
-649.40809941010718
 30
0.0
 40
170.6350503965856
 50
137.44134459184301
 51
149.91949581337221
1001
ACDBBLOCKREPETAG
1070
     1
1071
       17
1005
123538
  0
ARC
  5
123539
  8
OBJECT
 10
10118.845598704051
 20
-605.88272669536445
 30
0.0
 40
78.072222021763665
 50
147.4551531038623
 51
164.6636599771729
1001
ACDBBLOCKREPETAG
1070
     1
1071
       18
1005
123539
  0
ARC
  5
12353A
  8
OBJECT
 10
10085.755434960871
 20
-595.99999999999955
 30
0.0
 40
43.55353926885617
 50
165.688452300753
 51
194.3115476992468
1001
ACDBBLOCKREPETAG
1070
     1
1071
       19
1005
12353A
  0
ARC
  5
12353B
  8
OBJECT
 10
10200.687274671671
 20
-542.59190058989179
 30
0.0
 40
170.6350503965856
 50
210.08050418662771
 51
222.55865540815699
1001
ACDBBLOCKREPETAG
1070
     1
1071
       20
1005
12353B
  0
ARC
  5
12353C
  8
OBJECT
 10
10118.845598704051
 20
-586.11727330463452
 30
0.0
 40
78.072222021763665
 50
195.3363400228271
 51
212.5448468961377
1001
ACDBBLOCKREPETAG
1070
     1
1071
       21
1005
12353C
  0
POINT
  5
12353D
  8
DOTS
 10
10000.0
 20
-654.99999999999966
 30
0.0
1001
ACDBBLOCKREPETAG
1070
     1
1071
      187
1005
12353D
  0
LINE
  5
12353E
  8
OBJECT
 10
7925.0
 20
-789.99999999999955
 30
0.0
 11
7925.0
 21
-1062.9999999999991
 31
0.0
1001
ACDBBLOCKREPETAG
1070
     1
1071
        1
1005
12353E
  0
LINE
  5
12353F
  8
OBJECT
 10
8075.0
 20
-789.99999999999375
 30
0.0
 11
8075.0
 21
-1062.9999999999991
 31
0.0
1001
ACDBBLOCKREPETAG
1070
     1
1071
        3
1005
12353F
  0
LINE
  5
123540
  8
CENTER
 10
8000.0
 20
-789.99999999999955
 30
0.0
 11
8000.0
 21
-1074.9999999999991
 31
0.0
1001
ACDBBLOCKREPETAG
1070
     1
1071
        6
1005
123540
  0
LINE
  5
123541
  8
OBJECT
 10
7920.0
 20
-1074.9999999999991
 30
0.0
 11
8080.0
 21
-1074.9999999999991
 31
0.0
1001
ACDBBLOCKREPETAG
1070
     1
1071
        7
1005
123541
  0
LINE
  5
123542
  8
OBJECT
 10
7920.0
 20
-1062.9999999999991
 30
0.0
 11
8080.0
 21
-1062.9999999999991
 31
0.0
1001
ACDBBLOCKREPETAG
1070
     1
1071
        8
1005
123542
  0
LINE
  5
123543
  8
OBJECT
 10
7920.0
 20
-1062.9999999999991
 30
0.0
 11
7920.0
 21
-1074.9999999999991
 31
0.0
1001
ACDBBLOCKREPETAG
1070
     1
1071
        9
1005
123543
  0
LINE
  5
123544
  8
OBJECT
 10
8080.0
 20
-1062.9999999999991
 30
0.0
 11
8080.0
 21
-1074.9999999999991
 31
0.0
1001
ACDBBLOCKREPETAG
1070
     1
1071
       10
1005
123544
  0
LINE
  5
123545
  8
OBJECT
 10
7923.0
 20
-470.99999999999937
 30
0.0
 11
7923.0
 21
-449.99999999999937
 31
0.0
1001
ACDBBLOCKREPETAG
1070
     1
1071
        0
1005
123545
  0
LINE
  5
123546
  8
OBJECT
 10
7923.0
 20
-449.99999999999937
 30
0.0
 11
8077.0
 21
-449.99999999999937
 31
0.0
1001
ACDBBLOCKREPETAG
1070
     1
1071
        1
1005
123546
  0
LINE
  5
123547
  8
HIDDEN
 10
7943.0
 20
-519.99999999999955
 30
0.0
 11
8057.0
 21
-519.99999999999955
 31
0.0
1001
ACDBBLOCKREPETAG
1070
     1
1071
        2
1005
123547
  0
LINE
  5
123548
  8
OBJECT
 10
8077.0
 20
-449.99999999999937
 30
0.0
 11
8077.0
 21
-470.99999999999937
 31
0.0
1001
ACDBBLOCKREPETAG
1070
     1
1071
        3
1005
123548
  0
LINE
  5
123549
  8
OBJECT
 10
8077.0
 20
-470.99999999999937
 30
0.0
 11
7923.0
 21
-470.99999999999937
 31
0.0
1001
ACDBBLOCKREPETAG
1070
     1
1071
        4
1005
123549
  0
LINE
  5
12354A
  8
CENTER
 10
8000.0
 20
-434.99999999999949
 30
0.0
 11
8000.0
 21
-789.99999999999955
 31
0.0
1001
ACDBBLOCKREPETAG
1070
     1
1071
        5
1005
12354A
  0
LINE
  5
12354B
  8
OBJECT
 10
7925.0
 20
-533.99999999999955
 30
0.0
 11
7925.0
 21
-777.99999999999955
 31
0.0
1001
ACDBBLOCKREPETAG
1070
     1
1071
        6
1005
12354B
  0
LINE
  5
12354C
  8
OBJECT
 10
7928.0
 20
-470.99999999999937
 30
0.0
 11
7928.0
 21
-533.99999999999955
 31
0.0
1001
ACDBBLOCKREPETAG
1070
     1
1071
        7
1005
12354C
  0
LINE
  5
12354D
  8
OBJECT
 10
8072.0
 20
-533.99999999999955
 30
0.0
 11
8072.0
 21
-470.99999999999937
 31
0.0
1001
ACDBBLOCKREPETAG
1070
     1
1071
        8
1005
12354D
  0
LINE
  5
12354E
  8
OBJECT
 10
7920.0
 20
-777.99999999999955
 30
0.0
 11
8080.0
 21
-777.99999999999955
 31
0.0
1001
ACDBBLOCKREPETAG
1070
     1
1071
        9
1005
12354E
  0
LINE
  5
12354F
  8
OBJECT
 10
8080.0
 20
-533.99999999999955
 30
0.0
 11
7925.0
 21
-533.99999999999955
 31
0.0
1001
ACDBBLOCKREPETAG
1070
     1
1071
       10
1005
12354F
  0
LINE
  5
123550
  8
OBJECT
 10
7920.0
 20
-777.99999999999955
 30
0.0
 11
7920.0
 21
-789.99999999999955
 31
0.0
1001
ACDBBLOCKREPETAG
1070
     1
1071
       11
1005
123550
  0
LINE
  5
123551
  8
OBJECT
 10
7920.0
 20
-789.99999999999955
 30
0.0
 11
8080.0
 21
-789.99999999999955
 31
0.0
1001
ACDBBLOCKREPETAG
1070
     1
1071
       12
1005
123551
  0
LINE
  5
123552
  8
OBJECT
 10
8080.0
 20
-789.99999999999955
 30
0.0
 11
8080.0
 21
-777.99999999999955
 31
0.0
1001
ACDBBLOCKREPETAG
1070
     1
1071
       13
1005
123552
  0
LINE
  5
123553
  8
OBJECT
 10
8074.9999999998618
 20
-657.99999999985039
 30
0.0
 11
8075.0
 21
-777.99999999999955
 31
0.0
1001
ACDBBLOCKREPETAG
1070
     1
1071
       15
1005
123553
  0
LINE
  5
123554
  8
OBJECT
 10
8074.9999908029858
 20
-657.99998602702135
 30
0.0
 11
8080.0
 21
-657.99998602702135
 31
0.0
1001
ACDBBLOCKREPETAG
1070
     1
1071
       16
1005
123554
  0
ARC
  5
123555
  8
OBJECT
 10
8200.6872746716726
 20
-649.40809941010718
 30
0.0
 40
170.6350503965856
 50
137.44134459184301
 51
149.91949581337221
1001
ACDBBLOCKREPETAG
1070
     1
1071
       17
1005
123555
  0
ARC
  5
123556
  8
OBJECT
 10
8118.8455987040506
 20
-605.88272669536445
 30
0.0
 40
78.072222021763665
 50
147.4551531038623
 51
164.66365997718671
1001
ACDBBLOCKREPETAG
1070
     1
1071
       18
1005
123556
  0
ARC
  5
123557
  8
OBJECT
 10
8085.7554349608708
 20
-595.99999999999955
 30
0.0
 40
43.55353926885617
 50
165.688452300753
 51
194.3115476992468
1001
ACDBBLOCKREPETAG
1070
     1
1071
       19
1005
123557
  0
ARC
  5
123558
  8
OBJECT
 10
8200.6872746716726
 20
-542.59190058989179
 30
0.0
 40
170.6350503965856
 50
210.08050418662771
 51
222.55865540815699
1001
ACDBBLOCKREPETAG
1070
     1
1071
       20
1005
123558
  0
ARC
  5
123559
  8
OBJECT
 10
8118.8455987040506
 20
-586.11727330463452
 30
0.0
 40
78.072222021763665
 50
195.3363400228132
 51
212.5448468961377
1001
ACDBBLOCKREPETAG
1070
     1
1071
       21
1005
123559
  0
POINT
  5
12355A
  8
DOTS
 10
8000.0
 20
-654.99999999999966
 30
0.0
1001
ACDBBLOCKREPETAG
1070
     1
1071
      187
1005
12355A
  0
LINE
  5
12355B
  8
OBJECT
 10
5925.0
 20
-789.99999999999955
 30
0.0
 11
5925.0
 21
-1062.9999999999991
 31
0.0
1001
ACDBBLOCKREPETAG
1070
     1
1071
        1
1005
12355B
  0
LINE
  5
12355C
  8
OBJECT
 10
6075.0
 20
-789.99999999999375
 30
0.0
 11
6075.0
 21
-1062.9999999999991
 31
0.0
1001
ACDBBLOCKREPETAG
1070
     1
1071
        3
1005
12355C
  0
LINE
  5
12355D
  8
CENTER
 10
6000.0
 20
-789.99999999999955
 30
0.0
 11
6000.0
 21
-1074.9999999999991
 31
0.0
1001
ACDBBLOCKREPETAG
1070
     1
1071
        6
1005
12355D
  0
LINE
  5
12355E
  8
OBJECT
 10
5920.0
 20
-1074.9999999999991
 30
0.0
 11
6080.0
 21
-1074.9999999999991
 31
0.0
1001
ACDBBLOCKREPETAG
1070
     1
1071
        7
1005
12355E
  0
LINE
  5
12355F
  8
OBJECT
 10
5920.0
 20
-1062.9999999999991
 30
0.0
 11
6080.0
 21
-1062.9999999999991
 31
0.0
1001
ACDBBLOCKREPETAG
1070
     1
1071
        8
1005
12355F
  0
LINE
  5
123560
  8
OBJECT
 10
5920.0
 20
-1062.9999999999991
 30
0.0
 11
5920.0
 21
-1074.9999999999991
 31
0.0
1001
ACDBBLOCKREPETAG
1070
     1
1071
        9
1005
123560
  0
LINE
  5
123561
  8
OBJECT
 10
6080.0
 20
-1062.9999999999991
 30
0.0
 11
6080.0
 21
-1074.9999999999991
 31
0.0
1001
ACDBBLOCKREPETAG
1070
     1
1071
       10
1005
123561
  0
LINE
  5
123562
  8
OBJECT
 10
5923.0
 20
-470.99999999999937
 30
0.0
 11
5923.0
 21
-449.99999999999937
 31
0.0
1001
ACDBBLOCKREPETAG
1070
     1
1071
        0
1005
123562
  0
LINE
  5
123563
  8
OBJECT
 10
5923.0
 20
-449.99999999999937
 30
0.0
 11
6077.0
 21
-449.99999999999937
 31
0.0
1001
ACDBBLOCKREPETAG
1070
     1
1071
        1
1005
123563
  0
LINE
  5
123564
  8
HIDDEN
 10
5943.0
 20
-519.99999999999955
 30
0.0
 11
6057.0
 21
-519.99999999999955
 31
0.0
1001
ACDBBLOCKREPETAG
1070
     1
1071
        2
1005
123564
  0
LINE
  5
123565
  8
OBJECT
 10
6077.0
 20
-449.99999999999937
 30
0.0
 11
6077.0
 21
-470.99999999999937
 31
0.0
1001
ACDBBLOCKREPETAG
1070
     1
1071
        3
1005
123565
  0
LINE
  5
123566
  8
OBJECT
 10
6077.0
 20
-470.99999999999937
 30
0.0
 11
5923.0
 21
-470.99999999999937
 31
0.0
1001
ACDBBLOCKREPETAG
1070
     1
1071
        4
1005
123566
  0
LINE
  5
123567
  8
CENTER
 10
6000.0
 20
-434.99999999999949
 30
0.0
 11
6000.0
 21
-789.99999999999955
 31
0.0
1001
ACDBBLOCKREPETAG
1070
     1
1071
        5
1005
123567
  0
LINE
  5
123568
  8
OBJECT
 10
5925.0
 20
-533.99999999999955
 30
0.0
 11
5925.0
 21
-777.99999999999955
 31
0.0
1001
ACDBBLOCKREPETAG
1070
     1
1071
        6
1005
123568
  0
LINE
  5
123569
  8
OBJECT
 10
5928.0
 20
-470.99999999999937
 30
0.0
 11
5928.0
 21
-533.99999999999955
 31
0.0
1001
ACDBBLOCKREPETAG
1070
     1
1071
        7
1005
123569
  0
LINE
  5
12356A
  8
OBJECT
 10
6072.0
 20
-533.99999999999955
 30
0.0
 11
6072.0
 21
-470.99999999999937
 31
0.0
1001
ACDBBLOCKREPETAG
1070
     1
1071
        8
1005
12356A
  0
LINE
  5
12356B
  8
OBJECT
 10
5920.0
 20
-777.99999999999955
 30
0.0
 11
6080.0
 21
-777.99999999999955
 31
0.0
1001
ACDBBLOCKREPETAG
1070
     1
1071
        9
1005
12356B
  0
LINE
  5
12356C
  8
OBJECT
 10
6080.0
 20
-533.99999999999955
 30
0.0
 11
5925.0
 21
-533.99999999999955
 31
0.0
1001
ACDBBLOCKREPETAG
1070
     1
1071
       10
1005
12356C
  0
LINE
  5
12356D
  8
OBJECT
 10
5920.0
 20
-777.99999999999955
 30
0.0
 11
5920.0
 21
-789.99999999999955
 31
0.0
1001
ACDBBLOCKREPETAG
1070
     1
1071
       11
1005
12356D
  0
LINE
  5
12356E
  8
OBJECT
 10
5920.0
 20
-789.99999999999955
 30
0.0
 11
6080.0
 21
-789.99999999999955
 31
0.0
1001
ACDBBLOCKREPETAG
1070
     1
1071
       12
1005
12356E
  0
LINE
  5
12356F
  8
OBJECT
 10
6080.0
 20
-789.99999999999955
 30
0.0
 11
6080.0
 21
-777.99999999999955
 31
0.0
1001
ACDBBLOCKREPETAG
1070
     1
1071
       13
1005
12356F
  0
LINE
  5
123570
  8
OBJECT
 10
6074.9999999998618
 20
-657.99999999985039
 30
0.0
 11
6075.0
 21
-777.99999999999955
 31
0.0
1001
ACDBBLOCKREPETAG
1070
     1
1071
       15
1005
123570
  0
LINE
  5
123571
  8
OBJECT
 10
6074.9999908029858
 20
-657.99998602702135
 30
0.0
 11
6080.0
 21
-657.99998602702135
 31
0.0
1001
ACDBBLOCKREPETAG
1070
     1
1071
       16
1005
123571
  0
ARC
  5
123572
  8
OBJECT
 10
6200.6872746716735
 20
-649.40809941010718
 30
0.0
 40
170.6350503965856
 50
137.44134459184301
 51
149.91949581337221
1001
ACDBBLOCKREPETAG
1070
     1
1071
       17
1005
123572
  0
ARC
  5
123573
  8
OBJECT
 10
6118.8455987040506
 20
-605.88272669536445
 30
0.0
 40
78.072222021763665
 50
147.4551531038623
 51
164.66365997718671
1001
ACDBBLOCKREPETAG
1070
     1
1071
       18
1005
123573
  0
ARC
  5
123574
  8
OBJECT
 10
6085.7554349608727
 20
-595.99999999999955
 30
0.0
 40
43.55353926885617
 50
165.688452300753
 51
194.3115476992468
1001
ACDBBLOCKREPETAG
1070
     1
1071
       19
1005
123574
  0
ARC
  5
123575
  8
OBJECT
 10
6200.6872746716735
 20
-542.59190058989179
 30
0.0
 40
170.6350503965856
 50
210.08050418662771
 51
222.55865540815699
1001
ACDBBLOCKREPETAG
1070
     1
1071
       20
1005
123575
  0
ARC
  5
123576
  8
OBJECT
 10
6118.8455987040506
 20
-586.11727330463452
 30
0.0
 40
78.072222021763665
 50
195.3363400228132
 51
212.5448468961377
1001
ACDBBLOCKREPETAG
1070
     1
1071
       21
1005
123576
  0
POINT
  5
123577
  8
DOTS
 10
6000.0
 20
-654.99999999999966
 30
0.0
1001
ACDBBLOCKREPETAG
1070
     1
1071
      187
1005
123577
  0
LINE
  5
123578
  8
OBJECT
 10
3925.0
 20
-789.99999999999955
 30
0.0
 11
3925.0
 21
-1062.9999999999991
 31
0.0
1001
ACDBBLOCKREPETAG
1070
     1
1071
        1
1005
123578
  0
LINE
  5
123579
  8
OBJECT
 10
4075.0
 20
-789.99999999999375
 30
0.0
 11
4075.0
 21
-1062.9999999999991
 31
0.0
1001
ACDBBLOCKREPETAG
1070
     1
1071
        3
1005
123579
  0
LINE
  5
12357A
  8
CENTER
 10
4000.0
 20
-789.99999999999955
 30
0.0
 11
4000.0
 21
-1074.9999999999991
 31
0.0
1001
ACDBBLOCKREPETAG
1070
     1
1071
        6
1005
12357A
  0
LINE
  5
12357B
  8
OBJECT
 10
3920.0
 20
-1074.9999999999991
 30
0.0
 11
4080.0
 21
-1074.9999999999991
 31
0.0
1001
ACDBBLOCKREPETAG
1070
     1
1071
        7
1005
12357B
  0
LINE
  5
12357C
  8
OBJECT
 10
3920.0
 20
-1062.9999999999991
 30
0.0
 11
4080.0
 21
-1062.9999999999991
 31
0.0
1001
ACDBBLOCKREPETAG
1070
     1
1071
        8
1005
12357C
  0
LINE
  5
12357D
  8
OBJECT
 10
3920.0
 20
-1062.9999999999991
 30
0.0
 11
3920.0
 21
-1074.9999999999991
 31
0.0
1001
ACDBBLOCKREPETAG
1070
     1
1071
        9
1005
12357D
  0
LINE
  5
12357E
  8
OBJECT
 10
4080.0
 20
-1062.9999999999991
 30
0.0
 11
4080.0
 21
-1074.9999999999991
 31
0.0
1001
ACDBBLOCKREPETAG
1070
     1
1071
       10
1005
12357E
  0
LINE
  5
12357F
  8
OBJECT
 10
3923.0
 20
-470.99999999999937
 30
0.0
 11
3923.0
 21
-449.99999999999937
 31
0.0
1001
ACDBBLOCKREPETAG
1070
     1
1071
        0
1005
12357F
  0
LINE
  5
123580
  8
OBJECT
 10
3923.0
 20
-449.99999999999937
 30
0.0
 11
4077.0
 21
-449.99999999999937
 31
0.0
1001
ACDBBLOCKREPETAG
1070
     1
1071
        1
1005
123580
  0
LINE
  5
123581
  8
HIDDEN
 10
3943.0
 20
-519.99999999999955
 30
0.0
 11
4057.0
 21
-519.99999999999955
 31
0.0
1001
ACDBBLOCKREPETAG
1070
     1
1071
        2
1005
123581
  0
LINE
  5
123582
  8
OBJECT
 10
4077.0
 20
-449.99999999999937
 30
0.0
 11
4077.0
 21
-470.99999999999937
 31
0.0
1001
ACDBBLOCKREPETAG
1070
     1
1071
        3
1005
123582
  0
LINE
  5
123583
  8
OBJECT
 10
4077.0
 20
-470.99999999999937
 30
0.0
 11
3923.0
 21
-470.99999999999937
 31
0.0
1001
ACDBBLOCKREPETAG
1070
     1
1071
        4
1005
123583
  0
LINE
  5
123584
  8
CENTER
 10
4000.0
 20
-434.99999999999949
 30
0.0
 11
4000.0
 21
-789.99999999999955
 31
0.0
1001
ACDBBLOCKREPETAG
1070
     1
1071
        5
1005
123584
  0
LINE
  5
123585
  8
OBJECT
 10
3925.0
 20
-533.99999999999955
 30
0.0
 11
3925.0
 21
-777.99999999999955
 31
0.0
1001
ACDBBLOCKREPETAG
1070
     1
1071
        6
1005
123585
  0
LINE
  5
123586
  8
OBJECT
 10
3928.0
 20
-470.99999999999937
 30
0.0
 11
3928.0
 21
-533.99999999999955
 31
0.0
1001
ACDBBLOCKREPETAG
1070
     1
1071
        7
1005
123586
  0
LINE
  5
123587
  8
OBJECT
 10
4072.0
 20
-533.99999999999955
 30
0.0
 11
4072.0
 21
-470.99999999999937
 31
0.0
1001
ACDBBLOCKREPETAG
1070
     1
1071
        8
1005
123587
  0
LINE
  5
123588
  8
OBJECT
 10
3920.0
 20
-777.99999999999955
 30
0.0
 11
4080.0
 21
-777.99999999999955
 31
0.0
1001
ACDBBLOCKREPETAG
1070
     1
1071
        9
1005
123588
  0
LINE
  5
123589
  8
OBJECT
 10
4080.0
 20
-533.99999999999955
 30
0.0
 11
3925.0
 21
-533.99999999999955
 31
0.0
1001
ACDBBLOCKREPETAG
1070
     1
1071
       10
1005
123589
  0
LINE
  5
12358A
  8
OBJECT
 10
3920.0
 20
-777.99999999999955
 30
0.0
 11
3920.0
 21
-789.99999999999955
 31
0.0
1001
ACDBBLOCKREPETAG
1070
     1
1071
       11
1005
12358A
  0
LINE
  5
12358B
  8
OBJECT
 10
3920.0
 20
-789.99999999999955
 30
0.0
 11
4080.0
 21
-789.99999999999955
 31
0.0
1001
ACDBBLOCKREPETAG
1070
     1
1071
       12
1005
12358B
  0
LINE
  5
12358C
  8
OBJECT
 10
4080.0
 20
-789.99999999999955
 30
0.0
 11
4080.0
 21
-777.99999999999955
 31
0.0
1001
ACDBBLOCKREPETAG
1070
     1
1071
       13
1005
12358C
  0
LINE
  5
12358D
  8
OBJECT
 10
4074.9999999998631
 20
-657.99999999985039
 30
0.0
 11
4075.0
 21
-777.99999999999955
 31
0.0
1001
ACDBBLOCKREPETAG
1070
     1
1071
       15
1005
12358D
  0
LINE
  5
12358E
  8
OBJECT
 10
4074.9999908029849
 20
-657.99998602702135
 30
0.0
 11
4080.0
 21
-657.99998602702135
 31
0.0
1001
ACDBBLOCKREPETAG
1070
     1
1071
       16
1005
12358E
  0
ARC
  5
12358F
  8
OBJECT
 10
4200.6872746716726
 20
-649.40809941010718
 30
0.0
 40
170.6350503965856
 50
137.44134459184301
 51
149.91949581337221
1001
ACDBBLOCKREPETAG
1070
     1
1071
       17
1005
12358F
  0
ARC
  5
123590
  8
OBJECT
 10
4118.8455987040506
 20
-605.88272669536445
 30
0.0
 40
78.072222021763665
 50
147.4551531038623
 51
164.6636599771798
1001
ACDBBLOCKREPETAG
1070
     1
1071
       18
1005
123590
  0
ARC
  5
123591
  8
OBJECT
 10
4085.7554349608722
 20
-595.99999999999955
 30
0.0
 40
43.55353926885617
 50
165.6884523007466
 51
194.3115476992534
1001
ACDBBLOCKREPETAG
1070
     1
1071
       19
1005
123591
  0
ARC
  5
123592
  8
OBJECT
 10
4200.6872746716726
 20
-542.59190058989179
 30
0.0
 40
170.6350503965856
 50
210.08050418662771
 51
222.55865540815699
1001
ACDBBLOCKREPETAG
1070
     1
1071
       20
1005
123592
  0
ARC
  5
123593
  8
OBJECT
 10
4118.8455987040506
 20
-586.11727330463452
 30
0.0
 40
78.072222021763665
 50
195.3363400228202
 51
212.5448468961377
1001
ACDBBLOCKREPETAG
1070
     1
1071
       21
1005
123593
  0
POINT
  5
123594
  8
DOTS
 10
4000.0
 20
-654.99999999999966
 30
0.0
1001
ACDBBLOCKREPETAG
1070
     1
1071
      187
1005
123594
  0
LINE
  5
123595
  8
OBJECT
 10
1925.0
 20
-789.99999999999955
 30
0.0
 11
1925.0
 21
-1062.9999999999991
 31
0.0
1001
ACDBBLOCKREPETAG
1070
     1
1071
        1
1005
123595
  0
LINE
  5
123596
  8
OBJECT
 10
2075.0
 20
-789.99999999999375
 30
0.0
 11
2075.0
 21
-1062.9999999999991
 31
0.0
1001
ACDBBLOCKREPETAG
1070
     1
1071
        3
1005
123596
  0
LINE
  5
123597
  8
CENTER
 10
2000.0
 20
-789.99999999999955
 30
0.0
 11
2000.0
 21
-1074.9999999999991
 31
0.0
1001
ACDBBLOCKREPETAG
1070
     1
1071
        6
1005
123597
  0
LINE
  5
123598
  8
OBJECT
 10
1920.0
 20
-1074.9999999999991
 30
0.0
 11
2080.0
 21
-1074.9999999999991
 31
0.0
1001
ACDBBLOCKREPETAG
1070
     1
1071
        7
1005
123598
  0
LINE
  5
123599
  8
OBJECT
 10
1920.0
 20
-1062.9999999999991
 30
0.0
 11
2080.0
 21
-1062.9999999999991
 31
0.0
1001
ACDBBLOCKREPETAG
1070
     1
1071
        8
1005
123599
  0
LINE
  5
12359A
  8
OBJECT
 10
1920.0
 20
-1062.9999999999991
 30
0.0
 11
1920.0
 21
-1074.9999999999991
 31
0.0
1001
ACDBBLOCKREPETAG
1070
     1
1071
        9
1005
12359A
  0
LINE
  5
12359B
  8
OBJECT
 10
2080.0
 20
-1062.9999999999991
 30
0.0
 11
2080.0
 21
-1074.9999999999991
 31
0.0
1001
ACDBBLOCKREPETAG
1070
     1
1071
       10
1005
12359B
  0
LINE
  5
12359C
  8
OBJECT
 10
1923.0
 20
-470.99999999999937
 30
0.0
 11
1923.0
 21
-449.99999999999937
 31
0.0
1001
ACDBBLOCKREPETAG
1070
     1
1071
        0
1005
12359C
  0
LINE
  5
12359D
  8
OBJECT
 10
1923.0
 20
-449.99999999999937
 30
0.0
 11
2077.0
 21
-449.99999999999937
 31
0.0
1001
ACDBBLOCKREPETAG
1070
     1
1071
        1
1005
12359D
  0
LINE
  5
12359E
  8
HIDDEN
 10
1943.0
 20
-519.99999999999955
 30
0.0
 11
2057.0
 21
-519.99999999999955
 31
0.0
1001
ACDBBLOCKREPETAG
1070
     1
1071
        2
1005
12359E
  0
LINE
  5
12359F
  8
OBJECT
 10
2077.0
 20
-449.99999999999937
 30
0.0
 11
2077.0
 21
-470.99999999999937
 31
0.0
1001
ACDBBLOCKREPETAG
1070
     1
1071
        3
1005
12359F
  0
LINE
  5
1235A0
  8
OBJECT
 10
2077.0
 20
-470.99999999999937
 30
0.0
 11
1923.0
 21
-470.99999999999937
 31
0.0
1001
ACDBBLOCKREPETAG
1070
     1
1071
        4
1005
1235A0
  0
LINE
  5
1235A1
  8
CENTER
 10
2000.0
 20
-434.99999999999949
 30
0.0
 11
2000.0
 21
-789.99999999999955
 31
0.0
1001
ACDBBLOCKREPETAG
1070
     1
1071
        5
1005
1235A1
  0
LINE
  5
1235A2
  8
OBJECT
 10
1925.0
 20
-533.99999999999955
 30
0.0
 11
1925.0
 21
-777.99999999999955
 31
0.0
1001
ACDBBLOCKREPETAG
1070
     1
1071
        6
1005
1235A2
  0
LINE
  5
1235A3
  8
OBJECT
 10
1928.0
 20
-470.99999999999937
 30
0.0
 11
1928.0
 21
-533.99999999999955
 31
0.0
1001
ACDBBLOCKREPETAG
1070
     1
1071
        7
1005
1235A3
  0
LINE
  5
1235A4
  8
OBJECT
 10
2072.0
 20
-533.99999999999955
 30
0.0
 11
2072.0
 21
-470.99999999999937
 31
0.0
1001
ACDBBLOCKREPETAG
1070
     1
1071
        8
1005
1235A4
  0
LINE
  5
1235A5
  8
OBJECT
 10
1920.0
 20
-777.99999999999955
 30
0.0
 11
2080.0
 21
-777.99999999999955
 31
0.0
1001
ACDBBLOCKREPETAG
1070
     1
1071
        9
1005
1235A5
  0
LINE
  5
1235A6
  8
OBJECT
 10
2080.0
 20
-533.99999999999955
 30
0.0
 11
1925.0
 21
-533.99999999999955
 31
0.0
1001
ACDBBLOCKREPETAG
1070
     1
1071
       10
1005
1235A6
  0
LINE
  5
1235A7
  8
OBJECT
 10
1920.0
 20
-777.99999999999955
 30
0.0
 11
1920.0
 21
-789.99999999999955
 31
0.0
1001
ACDBBLOCKREPETAG
1070
     1
1071
       11
1005
1235A7
  0
LINE
  5
1235A8
  8
OBJECT
 10
1920.0
 20
-789.99999999999955
 30
0.0
 11
2080.0
 21
-789.99999999999955
 31
0.0
1001
ACDBBLOCKREPETAG
1070
     1
1071
       12
1005
1235A8
  0
LINE
  5
1235A9
  8
OBJECT
 10
2080.0
 20
-789.99999999999955
 30
0.0
 11
2080.0
 21
-777.99999999999955
 31
0.0
1001
ACDBBLOCKREPETAG
1070
     1
1071
       13
1005
1235A9
  0
LINE
  5
1235AA
  8
OBJECT
 10
2074.9999999998622
 20
-657.99999999985039
 30
0.0
 11
2075.0
 21
-777.99999999999955
 31
0.0
1001
ACDBBLOCKREPETAG
1070
     1
1071
       15
1005
1235AA
  0
LINE
  5
1235AB
  8
OBJECT
 10
2074.9999908029849
 20
-657.99998602702135
 30
0.0
 11
2080.0
 21
-657.99998602702135
 31
0.0
1001
ACDBBLOCKREPETAG
1070
     1
1071
       16
1005
1235AB
  0
ARC
  5
1235AC
  8
OBJECT
 10
2200.6872746716731
 20
-649.40809941010718
 30
0.0
 40
170.6350503965856
 50
137.44134459184301
 51
149.91949581336559
1001
ACDBBLOCKREPETAG
1070
     1
1071
       17
1005
1235AC
  0
ARC
  5
1235AD
  8
OBJECT
 10
2118.8455987040511
 20
-605.88272669536445
 30
0.0
 40
78.072222021763665
 50
147.4551531038623
 51
164.6636599771798
1001
ACDBBLOCKREPETAG
1070
     1
1071
       18
1005
1235AD
  0
ARC
  5
1235AE
  8
OBJECT
 10
2085.7554349608731
 20
-595.99999999999955
 30
0.0
 40
43.55353926885617
 50
165.6884523007466
 51
194.3115476992534
1001
ACDBBLOCKREPETAG
1070
     1
1071
       19
1005
1235AE
  0
ARC
  5
1235AF
  8
OBJECT
 10
2200.6872746716731
 20
-542.59190058989179
 30
0.0
 40
170.6350503965856
 50
210.0805041866343
 51
222.55865540815699
1001
ACDBBLOCKREPETAG
1070
     1
1071
       20
1005
1235AF
  0
ARC
  5
1235B0
  8
OBJECT
 10
2118.8455987040511
 20
-586.11727330463452
 30
0.0
 40
78.072222021763665
 50
195.3363400228202
 51
212.5448468961377
1001
ACDBBLOCKREPETAG
1070
     1
1071
       21
1005
1235B0
  0
POINT
  5
1235B1
  8
DOTS
 10
2000.0
 20
-654.99999999999966
 30
0.0
1001
ACDBBLOCKREPETAG
1070
     1
1071
      187
1005
1235B1
  0
LINE
  5
1235B2
  8
OBJECT
 10
12085.999999999991
 20
-1408.9999999999991
 30
0.0
 11
12085.999999999991
 21
-1418.9999999999991
 31
0.0
1001
ACDBBLOCKREPETAG
1070
     1
1071
      121
1005
1235B2
  0
LINE
  5
1235B3
  8
OBJECT
 10
12069.999999999991
 20
-1408.9999999999991
 30
0.0
 11
12069.999999999991
 21
-1418.9999999999991
 31
0.0
1001
ACDBBLOCKREPETAG
1070
     1
1071
      122
1005
1235B3
  0
LINE
  5
1235B4
  8
OBJECT
 10
12085.999999999991
 20
-1418.9999999999991
 30
0.0
 11
12069.999999999991
 21
-1418.9999999999991
 31
0.0
1001
ACDBBLOCKREPETAG
1070
     1
1071
      123
1005
1235B4
  0
LINE
  5
1235B5
  8
OBJECT
 10
12090.0
 20
-1369.9999999999959
 30
0.0
 11
11924.0
 21
-1369.9999999999959
 31
0.0
1001
ACDBBLOCKREPETAG
1070
     1
1071
      124
1005
1235B5
  0
LINE
  5
1235B6
  8
OBJECT
 10
12090.0
 20
-1385.0
 30
0.0
 11
12090.0
 21
-1369.9999999999959
 31
0.0
1001
ACDBBLOCKREPETAG
1070
     1
1071
      125
1005
1235B6
  0
LINE
  5
1235B7
  8
OBJECT
 10
11924.0
 20
-1385.0
 30
0.0
 11
12090.0
 21
-1385.0
 31
0.0
1001
ACDBBLOCKREPETAG
1070
     1
1071
      126
1005
1235B7
  0
LINE
  5
1235B8
  8
OBJECT
 10
12067.49999999998
 20
-1385.0
 30
0.0
 11
12067.49999999998
 21
-1394.9999999999991
 31
0.0
1001
ACDBBLOCKREPETAG
1070
     1
1071
      127
1005
1235B8
  0
LINE
  5
1235B9
  8
OBJECT
 10
12072.999999999991
 20
-1394.9999999999991
 30
0.0
 11
12072.999999999991
 21
-1385.0
 31
0.0
1001
ACDBBLOCKREPETAG
1070
     1
1071
      128
1005
1235B9
  0
LINE
  5
1235BA
  8
OBJECT
 10
12082.999999999991
 20
-1394.9999999999991
 30
0.0
 11
12082.999999999991
 21
-1385.0
 31
0.0
1001
ACDBBLOCKREPETAG
1070
     1
1071
      129
1005
1235BA
  0
LINE
  5
1235BB
  8
OBJECT
 10
11924.0
 20
-1394.9999999999991
 30
0.0
 11
11924.0
 21
-1408.9999999999959
 31
0.0
1001
ACDBBLOCKREPETAG
1070
     1
1071
      130
1005
1235BB
  0
LINE
  5
1235BC
  8
OBJECT
 10
12090.0
 20
-1394.9999999999991
 30
0.0
 11
12090.0
 21
-1408.9999999999959
 31
0.0
1001
ACDBBLOCKREPETAG
1070
     1
1071
      131
1005
1235BC
  0
LINE
  5
1235BD
  8
OBJECT
 10
11924.0
 20
-1408.9999999999959
 30
0.0
 11
12090.0
 21
-1408.9999999999959
 31
0.0
1001
ACDBBLOCKREPETAG
1070
     1
1071
      132
1005
1235BD
  0
LINE
  5
1235BE
  8
OBJECT
 10
11924.0
 20
-1394.9999999999991
 30
0.0
 11
12090.0
 21
-1394.9999999999991
 31
0.0
1001
ACDBBLOCKREPETAG
1070
     1
1071
      133
1005
1235BE
  0
LINE
  5
1235BF
  8
OBJECT
 10
11932.49999999998
 20
-1385.0
 30
0.0
 11
11932.49999999998
 21
-1394.9999999999991
 31
0.0
1001
ACDBBLOCKREPETAG
1070
     1
1071
      134
1005
1235BF
  0
LINE
  5
1235C0
  8
OBJECT
 10
11934.0
 20
-1333.9999999999959
 30
0.0
 11
12065.999999999991
 21
-1333.9999999999959
 31
0.0
1001
ACDBBLOCKREPETAG
1070
     1
1071
      135
1005
1235C0
  0
LINE
  5
1235C1
  8
OBJECT
 10
11924.0
 20
-1385.0
 30
0.0
 11
11924.0
 21
-1369.9999999999959
 31
0.0
1001
ACDBBLOCKREPETAG
1070
     1
1071
      136
1005
1235C1
  0
LINE
  5
1235C2
  8
HIDDEN
 10
11943.0
 20
-1344.9999999999991
 30
0.0
 11
12057.0
 21
-1344.9999999999991
 31
0.0
1001
ACDBBLOCKREPETAG
1070
     1
1071
      137
1005
1235C2
  0
LINE
  5
1235C3
  8
OBJECT
 10
12086.999999999991
 20
-1368.2
 30
0.0
 11
12086.999999999991
 21
-1369.9999999999991
 31
0.0
1001
ACDBBLOCKREPETAG
1070
     1
1071
      138
1005
1235C3
  0
LINE
  5
1235C4
  8
OBJECT
 10
12068.999999999991
 20
-1368.2
 30
0.0
 11
12068.999999999991
 21
-1369.9999999999991
 31
0.0
1001
ACDBBLOCKREPETAG
1070
     1
1071
      139
1005
1235C4
  0
LINE
  5
1235C5
  8
OBJECT
 10
12072.249999999991
 20
-1358.4999999999991
 30
0.0
 11
12083.749999999991
 21
-1358.4999999999991
 31
0.0
1001
ACDBBLOCKREPETAG
1070
     1
1071
      140
1005
1235C5
  0
LINE
  5
1235C6
  8
OBJECT
 10
12072.249999999991
 20
-1358.4999999999991
 30
0.0
 11
12072.249999999991
 21
-1368.2
 31
0.0
1001
ACDBBLOCKREPETAG
1070
     1
1071
      141
1005
1235C6
  0
LINE
  5
1235C7
  8
OBJECT
 10
12083.749999999991
 20
-1358.4999999999991
 30
0.0
 11
12083.749999999991
 21
-1368.2
 31
0.0
1001
ACDBBLOCKREPETAG
1070
     1
1071
      142
1005
1235C7
  0
LINE
  5
1235C8
  8
OBJECT
 10
11931.99999999998
 20
-1450.0
 30
0.0
 11
12067.99999999998
 21
-1450.0
 31
0.0
1001
ACDBBLOCKREPETAG
1070
     1
1071
      143
1005
1235C8
  0
LINE
  5
1235C9
  8
OBJECT
 10
11931.99999999998
 20
-1450.0
 30
0.0
 11
11931.99999999998
 21
-1408.9999999999991
 31
0.0
1001
ACDBBLOCKREPETAG
1070
     1
1071
      144
1005
1235C9
  0
LINE
  5
1235CA
  8
OBJECT
 10
12067.99999999998
 20
-1450.0
 30
0.0
 11
12067.99999999998
 21
-1408.9999999999991
 31
0.0
1001
ACDBBLOCKREPETAG
1070
     1
1071
      145
1005
1235CA
  0
LINE
  5
1235CB
  8
OBJECT
 10
12086.999999999991
 20
-1368.2
 30
0.0
 11
12068.999999999991
 21
-1368.2
 31
0.0
1001
ACDBBLOCKREPETAG
1070
     1
1071
      146
1005
1235CB
  0
LINE
  5
1235CC
  8
CENTER
 10
12000.0
 20
-1074.9999999999991
 30
0.0
 11
12000.0
 21
-1464.9999999999991
 31
0.0
1001
ACDBBLOCKREPETAG
1070
     1
1071
      147
1005
1235CC
  0
LINE
  5
1235CD
  8
OBJECT
 10
11925.0
 20
-1074.9999999999991
 30
0.0
 11
11925.0
 21
-1156.9999999999959
 31
0.0
1001
ACDBBLOCKREPETAG
1070
     1
1071
      148
1005
1235CD
  0
LINE
  5
1235CE
  8
OBJECT
 10
12075.0
 20
-1074.9999999999991
 30
0.0
 11
12075.0
 21
-1156.999999999992
 31
0.0
1001
ACDBBLOCKREPETAG
1070
     1
1071
      149
1005
1235CE
  0
LINE
  5
1235CF
  8
OBJECT
 10
11925.0
 20
-1156.9999999999959
 30
0.0
 11
12075.0
 21
-1156.999999999992
 31
0.0
1001
ACDBBLOCKREPETAG
1070
     1
1071
      150
1005
1235CF
  0
LINE
  5
1235D0
  8
OBJECT
 10
11943.0
 20
-1333.9999999999959
 30
0.0
 11
11943.0
 21
-1284.999999999992
 31
0.0
1001
ACDBBLOCKREPETAG
1070
     1
1071
      151
1005
1235D0
  0
LINE
  5
1235D1
  8
OBJECT
 10
12057.0
 20
-1284.999999999992
 30
0.0
 11
11943.0
 21
-1284.999999999992
 31
0.0
1001
ACDBBLOCKREPETAG
1070
     1
1071
      152
1005
1235D1
  0
LINE
  5
1235D2
  8
OBJECT
 10
12057.0
 20
-1284.999999999992
 30
0.0
 11
12057.0
 21
-1333.9999999999959
 31
0.0
1001
ACDBBLOCKREPETAG
1070
     1
1071
      153
1005
1235D2
  0
LINE
  5
1235D3
  8
OBJECT
 10
11925.0
 20
-1156.9999999999959
 30
0.0
 11
11943.0
 21
-1284.999999999992
 31
0.0
1001
ACDBBLOCKREPETAG
1070
     1
1071
      154
1005
1235D3
  0
LINE
  5
1235D4
  8
OBJECT
 10
12057.0
 20
-1284.999999999992
 30
0.0
 11
12075.0
 21
-1156.999999999992
 31
0.0
1001
ACDBBLOCKREPETAG
1070
     1
1071
      155
1005
1235D4
  0
LINE
  5
1235D5
  8
OBJECT
 10
11934.0
 20
-1369.9999999999959
 30
0.0
 11
11934.0
 21
-1333.9999999999959
 31
0.0
1001
ACDBBLOCKREPETAG
1070
     1
1071
      156
1005
1235D5
  0
LINE
  5
1235D6
  8
OBJECT
 10
12066.0
 20
-1369.9999999999959
 30
0.0
 11
12065.999999999991
 21
-1333.9999999999959
 31
0.0
1001
ACDBBLOCKREPETAG
1070
     1
1071
      157
1005
1235D6
  0
LINE
  5
1235D7
  8
OBJECT
 10
11954.75
 20
-1359.699999999993
 30
0.0
 11
11967.25
 21
-1359.699999999993
 31
0.0
1001
ACDBBLOCKREPETAG
1070
     1
1071
      158
1005
1235D7
  0
LINE
  5
1235D8
  8
OBJECT
 10
11946.0
 20
-1369.9999999999959
 30
0.0
 11
11946.0
 21
-1367.699999999996
 31
0.0
1001
ACDBBLOCKREPETAG
1070
     1
1071
      159
1005
1235D8
  0
LINE
  5
1235D9
  8
OBJECT
 10
11976.0
 20
-1369.9999999999959
 30
0.0
 11
11976.0
 21
-1367.699999999996
 31
0.0
1001
ACDBBLOCKREPETAG
1070
     1
1071
      160
1005
1235D9
  0
LINE
  5
1235DA
  8
OBJECT
 10
11954.75
 20
-1359.699999999993
 30
0.0
 11
11954.75
 21
-1367.699999999996
 31
0.0
1001
ACDBBLOCKREPETAG
1070
     1
1071
      161
1005
1235DA
  0
LINE
  5
1235DB
  8
OBJECT
 10
11967.25
 20
-1359.699999999993
 30
0.0
 11
11967.25
 21
-1367.699999999996
 31
0.0
1001
ACDBBLOCKREPETAG
1070
     1
1071
      162
1005
1235DB
  0
LINE
  5
1235DC
  8
OBJECT
 10
11946.0
 20
-1367.699999999996
 30
0.0
 11
11976.0
 21
-1367.699999999996
 31
0.0
1001
ACDBBLOCKREPETAG
1070
     1
1071
      163
1005
1235DC
  0
LINE
  5
1235DD
  8
OBJECT
 10
11953.0
 20
-1408.9999999999959
 30
0.0
 11
11953.0
 21
-1418.9999999999959
 31
0.0
1001
ACDBBLOCKREPETAG
1070
     1
1071
      164
1005
1235DD
  0
LINE
  5
1235DE
  8
OBJECT
 10
11969.0
 20
-1408.9999999999959
 30
0.0
 11
11969.0
 21
-1418.9999999999959
 31
0.0
1001
ACDBBLOCKREPETAG
1070
     1
1071
      165
1005
1235DE
  0
LINE
  5
1235DF
  8
OBJECT
 10
11953.0
 20
-1418.9999999999959
 30
0.0
 11
11969.0
 21
-1418.9999999999959
 31
0.0
1001
ACDBBLOCKREPETAG
1070
     1
1071
      166
1005
1235DF
  0
LINE
  5
1235E0
  8
OBJECT
 10
11966.0
 20
-1394.9999999999959
 30
0.0
 11
11966.0
 21
-1384.9999999999959
 31
0.0
1001
ACDBBLOCKREPETAG
1070
     1
1071
      167
1005
1235E0
  0
LINE
  5
1235E1
  8
OBJECT
 10
11956.0
 20
-1394.9999999999959
 30
0.0
 11
11956.0
 21
-1384.9999999999959
 31
0.0
1001
ACDBBLOCKREPETAG
1070
     1
1071
      168
1005
1235E1
  0
LINE
  5
1235E2
  8
OBJECT
 10
10090.0
 20
-1369.9999999999959
 30
0.0
 11
9924.0
 21
-1369.9999999999959
 31
0.0
1001
ACDBBLOCKREPETAG
1070
     1
1071
       12
1005
1235E2
  0
LINE
  5
1235E3
  8
OBJECT
 10
10066.0
 20
-1333.9999999999959
 30
0.0
 11
9934.0
 21
-1333.9999999999959
 31
0.0
1001
ACDBBLOCKREPETAG
1070
     1
1071
       13
1005
1235E3
  0
LINE
  5
1235E4
  8
OBJECT
 10
10090.0
 20
-1385.0
 30
0.0
 11
10090.0
 21
-1369.9999999999959
 31
0.0
1001
ACDBBLOCKREPETAG
1070
     1
1071
       14
1005
1235E4
  0
LINE
  5
1235E5
  8
OBJECT
 10
9924.0
 20
-1385.0
 30
0.0
 11
10090.0
 21
-1385.0
 31
0.0
1001
ACDBBLOCKREPETAG
1070
     1
1071
       15
1005
1235E5
  0
LINE
  5
1235E6
  8
OBJECT
 10
10067.49999999998
 20
-1385.0
 30
0.0
 11
10067.49999999998
 21
-1394.9999999999991
 31
0.0
1001
ACDBBLOCKREPETAG
1070
     1
1071
       16
1005
1235E6
  0
LINE
  5
1235E7
  8
OBJECT
 10
9924.0
 20
-1394.9999999999991
 30
0.0
 11
9924.0
 21
-1408.9999999999959
 31
0.0
1001
ACDBBLOCKREPETAG
1070
     1
1071
       17
1005
1235E7
  0
LINE
  5
1235E8
  8
OBJECT
 10
10090.0
 20
-1394.9999999999991
 30
0.0
 11
10090.0
 21
-1408.9999999999959
 31
0.0
1001
ACDBBLOCKREPETAG
1070
     1
1071
       18
1005
1235E8
  0
LINE
  5
1235E9
  8
OBJECT
 10
9924.0
 20
-1408.9999999999959
 30
0.0
 11
10090.0
 21
-1408.9999999999959
 31
0.0
1001
ACDBBLOCKREPETAG
1070
     1
1071
       19
1005
1235E9
  0
LINE
  5
1235EA
  8
OBJECT
 10
9924.0
 20
-1394.9999999999991
 30
0.0
 11
10090.0
 21
-1394.9999999999991
 31
0.0
1001
ACDBBLOCKREPETAG
1070
     1
1071
       20
1005
1235EA
  0
LINE
  5
1235EB
  8
OBJECT
 10
9932.4999999999836
 20
-1385.0
 30
0.0
 11
9932.4999999999836
 21
-1394.9999999999991
 31
0.0
1001
ACDBBLOCKREPETAG
1070
     1
1071
       21
1005
1235EB
  0
LINE
  5
1235EC
  8
OBJECT
 10
9924.0
 20
-1385.0
 30
0.0
 11
9924.0
 21
-1369.9999999999959
 31
0.0
1001
ACDBBLOCKREPETAG
1070
     1
1071
       22
1005
1235EC
  0
LINE
  5
1235ED
  8
HIDDEN
 10
9943.0
 20
-1344.9999999999991
 30
0.0
 11
10057.0
 21
-1344.9999999999991
 31
0.0
1001
ACDBBLOCKREPETAG
1070
     1
1071
       23
1005
1235ED
  0
LINE
  5
1235EE
  8
CENTER
 10
10000.0
 20
-1074.9999999999991
 30
0.0
 11
10000.0
 21
-1423.9999999999959
 31
0.0
1001
ACDBBLOCKREPETAG
1070
     1
1071
       24
1005
1235EE
  0
LINE
  5
1235EF
  8
OBJECT
 10
9925.0
 20
-1074.9999999999991
 30
0.0
 11
9925.0
 21
-1156.9999999999959
 31
0.0
1001
ACDBBLOCKREPETAG
1070
     1
1071
       25
1005
1235EF
  0
LINE
  5
1235F0
  8
OBJECT
 10
10075.0
 20
-1074.9999999999991
 30
0.0
 11
10075.0
 21
-1156.999999999992
 31
0.0
1001
ACDBBLOCKREPETAG
1070
     1
1071
       26
1005
1235F0
  0
LINE
  5
1235F1
  8
OBJECT
 10
9925.0
 20
-1156.9999999999959
 30
0.0
 11
10075.0
 21
-1156.999999999992
 31
0.0
1001
ACDBBLOCKREPETAG
1070
     1
1071
       27
1005
1235F1
  0
LINE
  5
1235F2
  8
OBJECT
 10
10057.0
 20
-1333.9999999999959
 30
0.0
 11
10057.0
 21
-1284.999999999992
 31
0.0
1001
ACDBBLOCKREPETAG
1070
     1
1071
       28
1005
1235F2
  0
LINE
  5
1235F3
  8
OBJECT
 10
9943.0
 20
-1333.9999999999959
 30
0.0
 11
9943.0
 21
-1284.999999999992
 31
0.0
1001
ACDBBLOCKREPETAG
1070
     1
1071
       29
1005
1235F3
  0
LINE
  5
1235F4
  8
OBJECT
 10
10057.0
 20
-1284.999999999992
 30
0.0
 11
9943.0
 21
-1284.999999999992
 31
0.0
1001
ACDBBLOCKREPETAG
1070
     1
1071
       30
1005
1235F4
  0
LINE
  5
1235F5
  8
OBJECT
 10
9925.0
 20
-1156.9999999999959
 30
0.0
 11
9943.0
 21
-1284.999999999992
 31
0.0
1001
ACDBBLOCKREPETAG
1070
     1
1071
       31
1005
1235F5
  0
LINE
  5
1235F6
  8
OBJECT
 10
10057.0
 20
-1284.999999999992
 30
0.0
 11
10075.0
 21
-1156.999999999992
 31
0.0
1001
ACDBBLOCKREPETAG
1070
     1
1071
       32
1005
1235F6
  0
LINE
  5
1235F7
  8
OBJECT
 10
9934.0
 20
-1333.9999999999959
 30
0.0
 11
9934.0
 21
-1369.9999999999959
 31
0.0
1001
ACDBBLOCKREPETAG
1070
     1
1071
       33
1005
1235F7
  0
LINE
  5
1235F8
  8
OBJECT
 10
10066.0
 20
-1333.9999999999959
 30
0.0
 11
10066.0
 21
-1369.9999999999959
 31
0.0
1001
ACDBBLOCKREPETAG
1070
     1
1071
       34
1005
1235F8
  0
LINE
  5
1235F9
  8
OBJECT
 10
10082.999999999991
 20
-1394.9999999999959
 30
0.0
 11
10082.999999999991
 21
-1384.9999999999959
 31
0.0
1001
ACDBBLOCKREPETAG
1070
     1
1071
       35
1005
1235F9
  0
LINE
  5
1235FA
  8
OBJECT
 10
10072.999999999991
 20
-1394.9999999999959
 30
0.0
 11
10072.999999999991
 21
-1384.9999999999959
 31
0.0
1001
ACDBBLOCKREPETAG
1070
     1
1071
       36
1005
1235FA
  0
LINE
  5
1235FB
  8
OBJECT
 10
10068.99999999998
 20
-1364.9999999999959
 30
0.0
 11
10068.99999999998
 21
-1369.9999999999959
 31
0.0
1001
ACDBBLOCKREPETAG
1070
     1
1071
       37
1005
1235FB
  0
LINE
  5
1235FC
  8
OBJECT
 10
10087.0
 20
-1364.9999999999959
 30
0.0
 11
10087.0
 21
-1369.9999999999959
 31
0.0
1001
ACDBBLOCKREPETAG
1070
     1
1071
       38
1005
1235FC
  0
LINE
  5
1235FD
  8
OBJECT
 10
10087.0
 20
-1364.9999999999959
 30
0.0
 11
10068.99999999998
 21
-1364.9999999999959
 31
0.0
1001
ACDBBLOCKREPETAG
1070
     1
1071
       39
1005
1235FD
  0
LINE
  5
1235FE
  8
OBJECT
 10
10073.0
 20
-1416.9999999999959
 30
0.0
 11
10073.0
 21
-1419.9999999999959
 31
0.0
1001
ACDBBLOCKREPETAG
1070
     1
1071
       40
1005
1235FE
  0
LINE
  5
1235FF
  8
OBJECT
 10
10073.0
 20
-1419.9999999999959
 30
0.0
 11
10083.0
 21
-1419.9999999999959
 31
0.0
1001
ACDBBLOCKREPETAG
1070
     1
1071
       41
1005
1235FF
  0
LINE
  5
123600
  8
OBJECT
 10
10083.0
 20
-1419.9999999999959
 30
0.0
 11
10083.0
 21
-1416.9999999999959
 31
0.0
1001
ACDBBLOCKREPETAG
1070
     1
1071
       43
1005
123600
  0
LINE
  5
123601
  8
OBJECT
 10
9968.5
 20
-1364.9999999999959
 30
0.0
 11
9951.9999999999909
 21
-1364.9999999999959
 31
0.0
1001
ACDBBLOCKREPETAG
1070
     1
1071
       48
1005
123601
  0
LINE
  5
123602
  8
OBJECT
 10
9976.0
 20
-1369.9999999999959
 30
0.0
 11
9976.0
 21
-1367.9999999999959
 31
0.0
1001
ACDBBLOCKREPETAG
1070
     1
1071
       49
1005
123602
  0
LINE
  5
123603
  8
OBJECT
 10
9966.0
 20
-1394.9999999999959
 30
0.0
 11
9966.0
 21
-1384.9999999999959
 31
0.0
1001
ACDBBLOCKREPETAG
1070
     1
1071
       50
1005
123603
  0
LINE
  5
123604
  8
OBJECT
 10
9956.0
 20
-1394.9999999999959
 30
0.0
 11
9956.0
 21
-1384.9999999999959
 31
0.0
1001
ACDBBLOCKREPETAG
1070
     1
1071
       51
1005
123604
  0
LINE
  5
123605
  8
OBJECT
 10
9951.9999999999909
 20
-1364.9999999999959
 30
0.0
 11
9951.9999999999909
 21
-1369.9999999999959
 31
0.0
1001
ACDBBLOCKREPETAG
1070
     1
1071
       52
1005
123605
  0
LINE
  5
123606
  8
OBJECT
 10
9956.0
 20
-1416.9999999999959
 30
0.0
 11
9956.0
 21
-1419.9999999999959
 31
0.0
1001
ACDBBLOCKREPETAG
1070
     1
1071
       53
1005
123606
  0
LINE
  5
123607
  8
OBJECT
 10
9956.0
 20
-1419.9999999999959
 30
0.0
 11
9966.0
 21
-1419.9999999999959
 31
0.0
1001
ACDBBLOCKREPETAG
1070
     1
1071
       54
1005
123607
  0
LINE
  5
123608
  8
OBJECT
 10
9951.185045423772
 20
-1416.9999999999959
 30
0.0
 11
9970.814954576219
 21
-1416.9999999999959
 31
0.0
1001
ACDBBLOCKREPETAG
1070
     1
1071
       55
1005
123608
  0
LINE
  5
123609
  8
OBJECT
 10
9966.0
 20
-1419.9999999999959
 30
0.0
 11
9966.0
 21
-1416.9999999999959
 31
0.0
1001
ACDBBLOCKREPETAG
1070
     1
1071
       56
1005
123609
  0
LINE
  5
12360A
  8
OBJECT
 10
9976.0
 20
-1367.9999999999959
 30
0.0
 11
9968.5
 21
-1364.9999999999959
 31
0.0
1001
ACDBBLOCKREPETAG
1070
     1
1071
       57
1005
12360A
  0
LINE
  5
12360B
  8
OBJECT
 10
9951.1850454237774
 20
-1408.9999999999959
 30
0.0
 11
9951.1850454237774
 21
-1416.9999999999959
 31
0.0
1001
ACDBBLOCKREPETAG
1070
     1
1071
      630
1005
12360B
  0
LINE
  5
12360C
  8
OBJECT
 10
9956.0925227118896
 20
-1408.9999999999959
 30
0.0
 11
9956.0925227118896
 21
-1416.9999999999959
 31
0.0
1001
ACDBBLOCKREPETAG
1070
     1
1071
      631
1005
12360C
  0
LINE
  5
12360D
  8
OBJECT
 10
9965.9074772881122
 20
-1408.9999999999959
 30
0.0
 11
9965.9074772881122
 21
-1416.9999999999959
 31
0.0
1001
ACDBBLOCKREPETAG
1070
     1
1071
      632
1005
12360D
  0
LINE
  5
12360E
  8
OBJECT
 10
9970.8149545762244
 20
-1408.9999999999959
 30
0.0
 11
9970.8149545762244
 21
-1416.9999999999959
 31
0.0
1001
ACDBBLOCKREPETAG
1070
     1
1071
      633
1005
12360E
  0
LINE
  5
12360F
  8
OBJECT
 10
10068.18504542377
 20
-1416.9999999999959
 30
0.0
 11
10087.814954576221
 21
-1416.9999999999959
 31
0.0
1001
ACDBBLOCKREPETAG
1070
     1
1071
      634
1005
12360F
  0
LINE
  5
123610
  8
OBJECT
 10
10068.18504542377
 20
-1408.9999999999959
 30
0.0
 11
10068.18504542377
 21
-1416.9999999999959
 31
0.0
1001
ACDBBLOCKREPETAG
1070
     1
1071
      635
1005
123610
  0
LINE
  5
123611
  8
OBJECT
 10
10073.09252271189
 20
-1408.9999999999959
 30
0.0
 11
10073.09252271189
 21
-1416.9999999999959
 31
0.0
1001
ACDBBLOCKREPETAG
1070
     1
1071
      636
1005
123611
  0
LINE
  5
123612
  8
OBJECT
 10
10082.90747728811
 20
-1408.9999999999959
 30
0.0
 11
10082.90747728811
 21
-1416.9999999999959
 31
0.0
1001
ACDBBLOCKREPETAG
1070
     1
1071
      637
1005
123612
  0
LINE
  5
123613
  8
OBJECT
 10
10087.814954576221
 20
-1408.9999999999959
 30
0.0
 11
10087.814954576221
 21
-1416.9999999999959
 31
0.0
1001
ACDBBLOCKREPETAG
1070
     1
1071
      638
1005
123613
  0
LINE
  5
123614
  8
OBJECT
 10
7943.0
 20
-1384.9999999999959
 30
0.0
 11
8057.0
 21
-1384.9999999999959
 31
0.0
1001
ACDBBLOCKREPETAG
1070
     1
1071
        0
1005
123614
  0
LINE
  5
123615
  8
OBJECT
 10
7943.0
 20
-1384.9999999999959
 30
0.0
 11
7943.0
 21
-1284.9999999999959
 31
0.0
1001
ACDBBLOCKREPETAG
1070
     1
1071
        1
1005
123615
  0
LINE
  5
123616
  8
OBJECT
 10
8057.0
 20
-1384.9999999999959
 30
0.0
 11
8057.0
 21
-1284.9999999999959
 31
0.0
1001
ACDBBLOCKREPETAG
1070
     1
1071
        2
1005
123616
  0
LINE
  5
123617
  8
OBJECT
 10
7943.0
 20
-1284.9999999999959
 30
0.0
 11
8057.0
 21
-1284.9999999999959
 31
0.0
1001
ACDBBLOCKREPETAG
1070
     1
1071
        3
1005
123617
  0
LINE
  5
123618
  8
HIDDEN
 10
7950.0
 20
-1284.9999999999959
 30
0.0
 11
7950.0
 21
-1384.9999999999959
 31
0.0
1001
ACDBBLOCKREPETAG
1070
     1
1071
        4
1005
123618
  0
LINE
  5
123619
  8
HIDDEN
 10
8050.0
 20
-1284.9999999999959
 30
0.0
 11
8050.0
 21
-1384.9999999999959
 31
0.0
1001
ACDBBLOCKREPETAG
1070
     1
1071
        5
1005
123619
  0
LINE
  5
12361A
  8
CENTER
 10
8000.0
 20
-1074.9999999999991
 30
0.0
 11
8000.0
 21
-1399.9999999999959
 31
0.0
1001
ACDBBLOCKREPETAG
1070
     1
1071
        6
1005
12361A
  0
LINE
  5
12361B
  8
OBJECT
 10
7925.0
 20
-1074.9999999999991
 30
0.0
 11
7925.0
 21
-1156.9999999999959
 31
0.0
1001
ACDBBLOCKREPETAG
1070
     1
1071
        7
1005
12361B
  0
LINE
  5
12361C
  8
OBJECT
 10
8075.0
 20
-1074.9999999999991
 30
0.0
 11
8075.0
 21
-1156.9999999999959
 31
0.0
1001
ACDBBLOCKREPETAG
1070
     1
1071
        8
1005
12361C
  0
LINE
  5
12361D
  8
OBJECT
 10
7925.0
 20
-1156.9999999999959
 30
0.0
 11
8075.0
 21
-1156.9999999999959
 31
0.0
1001
ACDBBLOCKREPETAG
1070
     1
1071
        9
1005
12361D
  0
LINE
  5
12361E
  8
OBJECT
 10
7925.0
 20
-1156.9999999999959
 30
0.0
 11
7943.0
 21
-1284.9999999999959
 31
0.0
1001
ACDBBLOCKREPETAG
1070
     1
1071
       10
1005
12361E
  0
LINE
  5
12361F
  8
OBJECT
 10
8057.0
 20
-1284.9999999999959
 30
0.0
 11
8075.0
 21
-1156.9999999999959
 31
0.0
1001
ACDBBLOCKREPETAG
1070
     1
1071
       11
1005
12361F
  0
LINE
  5
123620
  8
OBJECT
 10
6085.9999999999927
 20
-1408.9999999999991
 30
0.0
 11
6085.9999999999927
 21
-1418.9999999999991
 31
0.0
1001
ACDBBLOCKREPETAG
1070
     1
1071
      121
1005
123620
  0
LINE
  5
123621
  8
OBJECT
 10
6069.9999999999927
 20
-1408.9999999999991
 30
0.0
 11
6069.9999999999927
 21
-1418.9999999999991
 31
0.0
1001
ACDBBLOCKREPETAG
1070
     1
1071
      122
1005
123621
  0
LINE
  5
123622
  8
OBJECT
 10
6085.9999999999927
 20
-1418.9999999999991
 30
0.0
 11
6069.9999999999927
 21
-1418.9999999999991
 31
0.0
1001
ACDBBLOCKREPETAG
1070
     1
1071
      123
1005
123622
  0
LINE
  5
123623
  8
OBJECT
 10
6090.0
 20
-1369.9999999999959
 30
0.0
 11
5924.0
 21
-1369.9999999999959
 31
0.0
1001
ACDBBLOCKREPETAG
1070
     1
1071
      124
1005
123623
  0
LINE
  5
123624
  8
OBJECT
 10
6090.0
 20
-1385.0
 30
0.0
 11
6090.0
 21
-1369.9999999999959
 31
0.0
1001
ACDBBLOCKREPETAG
1070
     1
1071
      125
1005
123624
  0
LINE
  5
123625
  8
OBJECT
 10
5924.0
 20
-1385.0
 30
0.0
 11
6090.0
 21
-1385.0
 31
0.0
1001
ACDBBLOCKREPETAG
1070
     1
1071
      126
1005
123625
  0
LINE
  5
123626
  8
OBJECT
 10
6067.4999999999864
 20
-1385.0
 30
0.0
 11
6067.4999999999864
 21
-1394.9999999999991
 31
0.0
1001
ACDBBLOCKREPETAG
1070
     1
1071
      127
1005
123626
  0
LINE
  5
123627
  8
OBJECT
 10
6072.9999999999927
 20
-1394.9999999999991
 30
0.0
 11
6072.9999999999927
 21
-1385.0
 31
0.0
1001
ACDBBLOCKREPETAG
1070
     1
1071
      128
1005
123627
  0
LINE
  5
123628
  8
OBJECT
 10
6082.9999999999927
 20
-1394.9999999999991
 30
0.0
 11
6082.9999999999927
 21
-1385.0
 31
0.0
1001
ACDBBLOCKREPETAG
1070
     1
1071
      129
1005
123628
  0
LINE
  5
123629
  8
OBJECT
 10
5924.0
 20
-1394.9999999999991
 30
0.0
 11
5924.0
 21
-1408.9999999999959
 31
0.0
1001
ACDBBLOCKREPETAG
1070
     1
1071
      130
1005
123629
  0
LINE
  5
12362A
  8
OBJECT
 10
6090.0
 20
-1394.9999999999991
 30
0.0
 11
6090.0
 21
-1408.9999999999959
 31
0.0
1001
ACDBBLOCKREPETAG
1070
     1
1071
      131
1005
12362A
  0
LINE
  5
12362B
  8
OBJECT
 10
5924.0
 20
-1408.9999999999959
 30
0.0
 11
6090.0
 21
-1408.9999999999959
 31
0.0
1001
ACDBBLOCKREPETAG
1070
     1
1071
      132
1005
12362B
  0
LINE
  5
12362C
  8
OBJECT
 10
5924.0
 20
-1394.9999999999991
 30
0.0
 11
6090.0
 21
-1394.9999999999991
 31
0.0
1001
ACDBBLOCKREPETAG
1070
     1
1071
      133
1005
12362C
  0
LINE
  5
12362D
  8
OBJECT
 10
5932.4999999999864
 20
-1385.0
 30
0.0
 11
5932.4999999999864
 21
-1394.9999999999991
 31
0.0
1001
ACDBBLOCKREPETAG
1070
     1
1071
      134
1005
12362D
  0
LINE
  5
12362E
  8
OBJECT
 10
5934.0
 20
-1333.9999999999959
 30
0.0
 11
6065.9999999999909
 21
-1333.9999999999959
 31
0.0
1001
ACDBBLOCKREPETAG
1070
     1
1071
      135
1005
12362E
  0
LINE
  5
12362F
  8
OBJECT
 10
5924.0
 20
-1385.0
 30
0.0
 11
5924.0
 21
-1369.9999999999959
 31
0.0
1001
ACDBBLOCKREPETAG
1070
     1
1071
      136
1005
12362F
  0
LINE
  5
123630
  8
HIDDEN
 10
5943.0
 20
-1344.9999999999991
 30
0.0
 11
6057.0
 21
-1344.9999999999991
 31
0.0
1001
ACDBBLOCKREPETAG
1070
     1
1071
      137
1005
123630
  0
LINE
  5
123631
  8
OBJECT
 10
6086.9999999999918
 20
-1368.2
 30
0.0
 11
6086.9999999999918
 21
-1369.9999999999991
 31
0.0
1001
ACDBBLOCKREPETAG
1070
     1
1071
      138
1005
123631
  0
LINE
  5
123632
  8
OBJECT
 10
6068.9999999999909
 20
-1368.2
 30
0.0
 11
6068.9999999999909
 21
-1369.9999999999991
 31
0.0
1001
ACDBBLOCKREPETAG
1070
     1
1071
      139
1005
123632
  0
LINE
  5
123633
  8
OBJECT
 10
6072.2499999999927
 20
-1358.4999999999991
 30
0.0
 11
6083.7499999999927
 21
-1358.4999999999991
 31
0.0
1001
ACDBBLOCKREPETAG
1070
     1
1071
      140
1005
123633
  0
LINE
  5
123634
  8
OBJECT
 10
6072.2499999999927
 20
-1358.4999999999991
 30
0.0
 11
6072.2499999999927
 21
-1368.2
 31
0.0
1001
ACDBBLOCKREPETAG
1070
     1
1071
      141
1005
123634
  0
LINE
  5
123635
  8
OBJECT
 10
6083.7499999999927
 20
-1358.4999999999991
 30
0.0
 11
6083.7499999999927
 21
-1368.2
 31
0.0
1001
ACDBBLOCKREPETAG
1070
     1
1071
      142
1005
123635
  0
LINE
  5
123636
  8
OBJECT
 10
5931.9999999999873
 20
-1450.0
 30
0.0
 11
6067.9999999999873
 21
-1450.0
 31
0.0
1001
ACDBBLOCKREPETAG
1070
     1
1071
      143
1005
123636
  0
LINE
  5
123637
  8
OBJECT
 10
5931.9999999999873
 20
-1450.0
 30
0.0
 11
5931.9999999999873
 21
-1408.9999999999991
 31
0.0
1001
ACDBBLOCKREPETAG
1070
     1
1071
      144
1005
123637
  0
LINE
  5
123638
  8
OBJECT
 10
6067.9999999999873
 20
-1450.0
 30
0.0
 11
6067.9999999999873
 21
-1408.9999999999991
 31
0.0
1001
ACDBBLOCKREPETAG
1070
     1
1071
      145
1005
123638
  0
LINE
  5
123639
  8
OBJECT
 10
6086.9999999999918
 20
-1368.2
 30
0.0
 11
6068.9999999999909
 21
-1368.2
 31
0.0
1001
ACDBBLOCKREPETAG
1070
     1
1071
      146
1005
123639
  0
LINE
  5
12363A
  8
CENTER
 10
6000.0
 20
-1074.9999999999991
 30
0.0
 11
6000.0
 21
-1464.9999999999991
 31
0.0
1001
ACDBBLOCKREPETAG
1070
     1
1071
      147
1005
12363A
  0
LINE
  5
12363B
  8
OBJECT
 10
5925.0
 20
-1074.9999999999991
 30
0.0
 11
5925.0
 21
-1156.9999999999959
 31
0.0
1001
ACDBBLOCKREPETAG
1070
     1
1071
      148
1005
12363B
  0
LINE
  5
12363C
  8
OBJECT
 10
6075.0
 20
-1074.9999999999991
 30
0.0
 11
6075.0
 21
-1156.999999999992
 31
0.0
1001
ACDBBLOCKREPETAG
1070
     1
1071
      149
1005
12363C
  0
LINE
  5
12363D
  8
OBJECT
 10
5925.0
 20
-1156.9999999999959
 30
0.0
 11
6075.0
 21
-1156.999999999992
 31
0.0
1001
ACDBBLOCKREPETAG
1070
     1
1071
      150
1005
12363D
  0
LINE
  5
12363E
  8
OBJECT
 10
5943.0
 20
-1333.9999999999959
 30
0.0
 11
5943.0
 21
-1284.999999999992
 31
0.0
1001
ACDBBLOCKREPETAG
1070
     1
1071
      151
1005
12363E
  0
LINE
  5
12363F
  8
OBJECT
 10
6057.0
 20
-1284.999999999992
 30
0.0
 11
5943.0
 21
-1284.999999999992
 31
0.0
1001
ACDBBLOCKREPETAG
1070
     1
1071
      152
1005
12363F
  0
LINE
  5
123640
  8
OBJECT
 10
6057.0
 20
-1284.999999999992
 30
0.0
 11
6057.0
 21
-1333.9999999999959
 31
0.0
1001
ACDBBLOCKREPETAG
1070
     1
1071
      153
1005
123640
  0
LINE
  5
123641
  8
OBJECT
 10
5925.0
 20
-1156.9999999999959
 30
0.0
 11
5943.0
 21
-1284.999999999992
 31
0.0
1001
ACDBBLOCKREPETAG
1070
     1
1071
      154
1005
123641
  0
LINE
  5
123642
  8
OBJECT
 10
6057.0
 20
-1284.999999999992
 30
0.0
 11
6075.0
 21
-1156.999999999992
 31
0.0
1001
ACDBBLOCKREPETAG
1070
     1
1071
      155
1005
123642
  0
LINE
  5
123643
  8
OBJECT
 10
5934.0
 20
-1369.9999999999959
 30
0.0
 11
5934.0
 21
-1333.9999999999959
 31
0.0
1001
ACDBBLOCKREPETAG
1070
     1
1071
      156
1005
123643
  0
LINE
  5
123644
  8
OBJECT
 10
6066.0
 20
-1369.9999999999959
 30
0.0
 11
6065.9999999999909
 21
-1333.9999999999959
 31
0.0
1001
ACDBBLOCKREPETAG
1070
     1
1071
      157
1005
123644
  0
LINE
  5
123645
  8
OBJECT
 10
5954.75
 20
-1359.699999999993
 30
0.0
 11
5967.2499999999991
 21
-1359.699999999993
 31
0.0
1001
ACDBBLOCKREPETAG
1070
     1
1071
      158
1005
123645
  0
LINE
  5
123646
  8
OBJECT
 10
5946.0
 20
-1369.9999999999959
 30
0.0
 11
5946.0
 21
-1367.699999999996
 31
0.0
1001
ACDBBLOCKREPETAG
1070
     1
1071
      159
1005
123646
  0
LINE
  5
123647
  8
OBJECT
 10
5976.0
 20
-1369.9999999999959
 30
0.0
 11
5976.0
 21
-1367.699999999996
 31
0.0
1001
ACDBBLOCKREPETAG
1070
     1
1071
      160
1005
123647
  0
LINE
  5
123648
  8
OBJECT
 10
5954.75
 20
-1359.699999999993
 30
0.0
 11
5954.75
 21
-1367.699999999996
 31
0.0
1001
ACDBBLOCKREPETAG
1070
     1
1071
      161
1005
123648
  0
LINE
  5
123649
  8
OBJECT
 10
5967.2499999999991
 20
-1359.699999999993
 30
0.0
 11
5967.2499999999991
 21
-1367.699999999996
 31
0.0
1001
ACDBBLOCKREPETAG
1070
     1
1071
      162
1005
123649
  0
LINE
  5
12364A
  8
OBJECT
 10
5946.0
 20
-1367.699999999996
 30
0.0
 11
5976.0
 21
-1367.699999999996
 31
0.0
1001
ACDBBLOCKREPETAG
1070
     1
1071
      163
1005
12364A
  0
LINE
  5
12364B
  8
OBJECT
 10
5953.0
 20
-1408.9999999999959
 30
0.0
 11
5953.0
 21
-1418.9999999999959
 31
0.0
1001
ACDBBLOCKREPETAG
1070
     1
1071
      164
1005
12364B
  0
LINE
  5
12364C
  8
OBJECT
 10
5969.0
 20
-1408.9999999999959
 30
0.0
 11
5969.0
 21
-1418.9999999999959
 31
0.0
1001
ACDBBLOCKREPETAG
1070
     1
1071
      165
1005
12364C
  0
LINE
  5
12364D
  8
OBJECT
 10
5953.0
 20
-1418.9999999999959
 30
0.0
 11
5969.0
 21
-1418.9999999999959
 31
0.0
1001
ACDBBLOCKREPETAG
1070
     1
1071
      166
1005
12364D
  0
LINE
  5
12364E
  8
OBJECT
 10
5966.0
 20
-1394.9999999999959
 30
0.0
 11
5966.0
 21
-1384.9999999999959
 31
0.0
1001
ACDBBLOCKREPETAG
1070
     1
1071
      167
1005
12364E
  0
LINE
  5
12364F
  8
OBJECT
 10
5956.0
 20
-1394.9999999999959
 30
0.0
 11
5956.0
 21
-1384.9999999999959
 31
0.0
1001
ACDBBLOCKREPETAG
1070
     1
1071
      168
1005
12364F
  0
LINE
  5
123650
  8
OBJECT
 10
4090.0
 20
-1369.9999999999959
 30
0.0
 11
3924.0
 21
-1369.9999999999959
 31
0.0
1001
ACDBBLOCKREPETAG
1070
     1
1071
       12
1005
123650
  0
LINE
  5
123651
  8
OBJECT
 10
4066.0
 20
-1333.9999999999959
 30
0.0
 11
3934.0
 21
-1333.9999999999959
 31
0.0
1001
ACDBBLOCKREPETAG
1070
     1
1071
       13
1005
123651
  0
LINE
  5
123652
  8
OBJECT
 10
4090.0
 20
-1385.0
 30
0.0
 11
4090.0
 21
-1369.9999999999959
 31
0.0
1001
ACDBBLOCKREPETAG
1070
     1
1071
       14
1005
123652
  0
LINE
  5
123653
  8
OBJECT
 10
3924.0
 20
-1385.0
 30
0.0
 11
4090.0
 21
-1385.0
 31
0.0
1001
ACDBBLOCKREPETAG
1070
     1
1071
       15
1005
123653
  0
LINE
  5
123654
  8
OBJECT
 10
4067.4999999999841
 20
-1385.0
 30
0.0
 11
4067.4999999999841
 21
-1394.9999999999991
 31
0.0
1001
ACDBBLOCKREPETAG
1070
     1
1071
       16
1005
123654
  0
LINE
  5
123655
  8
OBJECT
 10
3924.0
 20
-1394.9999999999991
 30
0.0
 11
3924.0
 21
-1408.9999999999959
 31
0.0
1001
ACDBBLOCKREPETAG
1070
     1
1071
       17
1005
123655
  0
LINE
  5
123656
  8
OBJECT
 10
4090.0
 20
-1394.9999999999991
 30
0.0
 11
4090.0
 21
-1408.9999999999959
 31
0.0
1001
ACDBBLOCKREPETAG
1070
     1
1071
       18
1005
123656
  0
LINE
  5
123657
  8
OBJECT
 10
3924.0
 20
-1408.9999999999959
 30
0.0
 11
4090.0
 21
-1408.9999999999959
 31
0.0
1001
ACDBBLOCKREPETAG
1070
     1
1071
       19
1005
123657
  0
LINE
  5
123658
  8
OBJECT
 10
3924.0
 20
-1394.9999999999991
 30
0.0
 11
4090.0
 21
-1394.9999999999991
 31
0.0
1001
ACDBBLOCKREPETAG
1070
     1
1071
       20
1005
123658
  0
LINE
  5
123659
  8
OBJECT
 10
3932.499999999985
 20
-1385.0
 30
0.0
 11
3932.499999999985
 21
-1394.9999999999991
 31
0.0
1001
ACDBBLOCKREPETAG
1070
     1
1071
       21
1005
123659
  0
LINE
  5
12365A
  8
OBJECT
 10
3924.0
 20
-1385.0
 30
0.0
 11
3924.0
 21
-1369.9999999999959
 31
0.0
1001
ACDBBLOCKREPETAG
1070
     1
1071
       22
1005
12365A
  0
LINE
  5
12365B
  8
HIDDEN
 10
3943.0
 20
-1344.9999999999991
 30
0.0
 11
4057.0
 21
-1344.9999999999991
 31
0.0
1001
ACDBBLOCKREPETAG
1070
     1
1071
       23
1005
12365B
  0
LINE
  5
12365C
  8
CENTER
 10
4000.0
 20
-1074.9999999999991
 30
0.0
 11
4000.0
 21
-1423.9999999999959
 31
0.0
1001
ACDBBLOCKREPETAG
1070
     1
1071
       24
1005
12365C
  0
LINE
  5
12365D
  8
OBJECT
 10
3925.0
 20
-1074.9999999999991
 30
0.0
 11
3925.0
 21
-1156.9999999999959
 31
0.0
1001
ACDBBLOCKREPETAG
1070
     1
1071
       25
1005
12365D
  0
LINE
  5
12365E
  8
OBJECT
 10
4075.0
 20
-1074.9999999999991
 30
0.0
 11
4075.0
 21
-1156.999999999992
 31
0.0
1001
ACDBBLOCKREPETAG
1070
     1
1071
       26
1005
12365E
  0
LINE
  5
12365F
  8
OBJECT
 10
3925.0
 20
-1156.9999999999959
 30
0.0
 11
4075.0
 21
-1156.999999999992
 31
0.0
1001
ACDBBLOCKREPETAG
1070
     1
1071
       27
1005
12365F
  0
LINE
  5
123660
  8
OBJECT
 10
4057.0
 20
-1333.9999999999959
 30
0.0
 11
4057.0
 21
-1284.999999999992
 31
0.0
1001
ACDBBLOCKREPETAG
1070
     1
1071
       28
1005
123660
  0
LINE
  5
123661
  8
OBJECT
 10
3943.0
 20
-1333.9999999999959
 30
0.0
 11
3943.0
 21
-1284.999999999992
 31
0.0
1001
ACDBBLOCKREPETAG
1070
     1
1071
       29
1005
123661
  0
LINE
  5
123662
  8
OBJECT
 10
4057.0
 20
-1284.999999999992
 30
0.0
 11
3943.0
 21
-1284.999999999992
 31
0.0
1001
ACDBBLOCKREPETAG
1070
     1
1071
       30
1005
123662
  0
LINE
  5
123663
  8
OBJECT
 10
3925.0
 20
-1156.9999999999959
 30
0.0
 11
3943.0
 21
-1284.999999999992
 31
0.0
1001
ACDBBLOCKREPETAG
1070
     1
1071
       31
1005
123663
  0
LINE
  5
123664
  8
OBJECT
 10
4057.0
 20
-1284.999999999992
 30
0.0
 11
4075.0
 21
-1156.999999999992
 31
0.0
1001
ACDBBLOCKREPETAG
1070
     1
1071
       32
1005
123664
  0
LINE
  5
123665
  8
OBJECT
 10
3934.0
 20
-1333.9999999999959
 30
0.0
 11
3934.0
 21
-1369.9999999999959
 31
0.0
1001
ACDBBLOCKREPETAG
1070
     1
1071
       33
1005
123665
  0
LINE
  5
123666
  8
OBJECT
 10
4066.0
 20
-1333.9999999999959
 30
0.0
 11
4066.0
 21
-1369.9999999999959
 31
0.0
1001
ACDBBLOCKREPETAG
1070
     1
1071
       34
1005
123666
  0
LINE
  5
123667
  8
OBJECT
 10
4082.9999999999932
 20
-1394.9999999999959
 30
0.0
 11
4082.9999999999932
 21
-1384.9999999999959
 31
0.0
1001
ACDBBLOCKREPETAG
1070
     1
1071
       35
1005
123667
  0
LINE
  5
123668
  8
OBJECT
 10
4072.9999999999918
 20
-1394.9999999999959
 30
0.0
 11
4072.9999999999918
 21
-1384.9999999999959
 31
0.0
1001
ACDBBLOCKREPETAG
1070
     1
1071
       36
1005
123668
  0
LINE
  5
123669
  8
OBJECT
 10
4068.9999999999841
 20
-1364.9999999999959
 30
0.0
 11
4068.9999999999841
 21
-1369.9999999999959
 31
0.0
1001
ACDBBLOCKREPETAG
1070
     1
1071
       37
1005
123669
  0
LINE
  5
12366A
  8
OBJECT
 10
4087.0
 20
-1364.9999999999959
 30
0.0
 11
4087.0
 21
-1369.9999999999959
 31
0.0
1001
ACDBBLOCKREPETAG
1070
     1
1071
       38
1005
12366A
  0
LINE
  5
12366B
  8
OBJECT
 10
4087.0
 20
-1364.9999999999959
 30
0.0
 11
4068.9999999999841
 21
-1364.9999999999959
 31
0.0
1001
ACDBBLOCKREPETAG
1070
     1
1071
       39
1005
12366B
  0
LINE
  5
12366C
  8
OBJECT
 10
4073.0
 20
-1416.9999999999959
 30
0.0
 11
4073.0
 21
-1419.9999999999959
 31
0.0
1001
ACDBBLOCKREPETAG
1070
     1
1071
       40
1005
12366C
  0
LINE
  5
12366D
  8
OBJECT
 10
4073.0
 20
-1419.9999999999959
 30
0.0
 11
4083.0
 21
-1419.9999999999959
 31
0.0
1001
ACDBBLOCKREPETAG
1070
     1
1071
       41
1005
12366D
  0
LINE
  5
12366E
  8
OBJECT
 10
4083.0
 20
-1419.9999999999959
 30
0.0
 11
4083.0
 21
-1416.9999999999959
 31
0.0
1001
ACDBBLOCKREPETAG
1070
     1
1071
       43
1005
12366E
  0
LINE
  5
12366F
  8
OBJECT
 10
3968.5
 20
-1364.9999999999959
 30
0.0
 11
3951.9999999999932
 21
-1364.9999999999959
 31
0.0
1001
ACDBBLOCKREPETAG
1070
     1
1071
       48
1005
12366F
  0
LINE
  5
123670
  8
OBJECT
 10
3976.0
 20
-1369.9999999999959
 30
0.0
 11
3976.0
 21
-1367.9999999999959
 31
0.0
1001
ACDBBLOCKREPETAG
1070
     1
1071
       49
1005
123670
  0
LINE
  5
123671
  8
OBJECT
 10
3966.0
 20
-1394.9999999999959
 30
0.0
 11
3966.0
 21
-1384.9999999999959
 31
0.0
1001
ACDBBLOCKREPETAG
1070
     1
1071
       50
1005
123671
  0
LINE
  5
123672
  8
OBJECT
 10
3956.0
 20
-1394.9999999999959
 30
0.0
 11
3956.0
 21
-1384.9999999999959
 31
0.0
1001
ACDBBLOCKREPETAG
1070
     1
1071
       51
1005
123672
  0
LINE
  5
123673
  8
OBJECT
 10
3951.9999999999932
 20
-1364.9999999999959
 30
0.0
 11
3951.9999999999932
 21
-1369.9999999999959
 31
0.0
1001
ACDBBLOCKREPETAG
1070
     1
1071
       52
1005
123673
  0
LINE
  5
123674
  8
OBJECT
 10
3956.0
 20
-1416.9999999999959
 30
0.0
 11
3956.0
 21
-1419.9999999999959
 31
0.0
1001
ACDBBLOCKREPETAG
1070
     1
1071
       53
1005
123674
  0
LINE
  5
123675
  8
OBJECT
 10
3956.0
 20
-1419.9999999999959
 30
0.0
 11
3966.0
 21
-1419.9999999999959
 31
0.0
1001
ACDBBLOCKREPETAG
1070
     1
1071
       54
1005
123675
  0
LINE
  5
123676
  8
OBJECT
 10
3951.185045423772
 20
-1416.9999999999959
 30
0.0
 11
3970.8149545762212
 21
-1416.9999999999959
 31
0.0
1001
ACDBBLOCKREPETAG
1070
     1
1071
       55
1005
123676
  0
LINE
  5
123677
  8
OBJECT
 10
3966.0
 20
-1419.9999999999959
 30
0.0
 11
3966.0
 21
-1416.9999999999959
 31
0.0
1001
ACDBBLOCKREPETAG
1070
     1
1071
       56
1005
123677
  0
LINE
  5
123678
  8
OBJECT
 10
3976.0
 20
-1367.9999999999959
 30
0.0
 11
3968.5
 21
-1364.9999999999959
 31
0.0
1001
ACDBBLOCKREPETAG
1070
     1
1071
       57
1005
123678
  0
LINE
  5
123679
  8
OBJECT
 10
3951.185045423777
 20
-1408.9999999999959
 30
0.0
 11
3951.185045423777
 21
-1416.9999999999959
 31
0.0
1001
ACDBBLOCKREPETAG
1070
     1
1071
      630
1005
123679
  0
LINE
  5
12367A
  8
OBJECT
 10
3956.0925227118901
 20
-1408.9999999999959
 30
0.0
 11
3956.0925227118901
 21
-1416.9999999999959
 31
0.0
1001
ACDBBLOCKREPETAG
1070
     1
1071
      631
1005
12367A
  0
LINE
  5
12367B
  8
OBJECT
 10
3965.9074772881122
 20
-1408.9999999999959
 30
0.0
 11
3965.9074772881122
 21
-1416.9999999999959
 31
0.0
1001
ACDBBLOCKREPETAG
1070
     1
1071
      632
1005
12367B
  0
LINE
  5
12367C
  8
OBJECT
 10
3970.814954576223
 20
-1408.9999999999959
 30
0.0
 11
3970.814954576223
 21
-1416.9999999999959
 31
0.0
1001
ACDBBLOCKREPETAG
1070
     1
1071
      633
1005
12367C
  0
LINE
  5
12367D
  8
OBJECT
 10
4068.185045423772
 20
-1416.9999999999959
 30
0.0
 11
4087.8149545762199
 21
-1416.9999999999959
 31
0.0
1001
ACDBBLOCKREPETAG
1070
     1
1071
      634
1005
12367D
  0
LINE
  5
12367E
  8
OBJECT
 10
4068.185045423777
 20
-1408.9999999999959
 30
0.0
 11
4068.185045423777
 21
-1416.9999999999959
 31
0.0
1001
ACDBBLOCKREPETAG
1070
     1
1071
      635
1005
12367E
  0
LINE
  5
12367F
  8
OBJECT
 10
4073.0925227118869
 20
-1408.9999999999959
 30
0.0
 11
4073.0925227118869
 21
-1416.9999999999959
 31
0.0
1001
ACDBBLOCKREPETAG
1070
     1
1071
      636
1005
12367F
  0
LINE
  5
123680
  8
OBJECT
 10
4082.9074772881122
 20
-1408.9999999999959
 30
0.0
 11
4082.9074772881122
 21
-1416.9999999999959
 31
0.0
1001
ACDBBLOCKREPETAG
1070
     1
1071
      637
1005
123680
  0
LINE
  5
123681
  8
OBJECT
 10
4087.814954576223
 20
-1408.9999999999959
 30
0.0
 11
4087.814954576223
 21
-1416.9999999999959
 31
0.0
1001
ACDBBLOCKREPETAG
1070
     1
1071
      638
1005
123681
  0
LINE
  5
123682
  8
OBJECT
 10
1943.0
 20
-1384.9999999999959
 30
0.0
 11
2057.0
 21
-1384.9999999999959
 31
0.0
1001
ACDBBLOCKREPETAG
1070
     1
1071
        0
1005
123682
  0
LINE
  5
123683
  8
OBJECT
 10
1943.0
 20
-1384.9999999999959
 30
0.0
 11
1943.0
 21
-1284.9999999999959
 31
0.0
1001
ACDBBLOCKREPETAG
1070
     1
1071
        1
1005
123683
  0
LINE
  5
123684
  8
OBJECT
 10
2057.0
 20
-1384.9999999999959
 30
0.0
 11
2057.0
 21
-1284.9999999999959
 31
0.0
1001
ACDBBLOCKREPETAG
1070
     1
1071
        2
1005
123684
  0
LINE
  5
123685
  8
OBJECT
 10
1943.0
 20
-1284.9999999999959
 30
0.0
 11
2057.0
 21
-1284.9999999999959
 31
0.0
1001
ACDBBLOCKREPETAG
1070
     1
1071
        3
1005
123685
  0
LINE
  5
123686
  8
HIDDEN
 10
1950.0
 20
-1284.9999999999959
 30
0.0
 11
1950.0
 21
-1384.9999999999959
 31
0.0
1001
ACDBBLOCKREPETAG
1070
     1
1071
        4
1005
123686
  0
LINE
  5
123687
  8
HIDDEN
 10
2050.0
 20
-1284.9999999999959
 30
0.0
 11
2050.0
 21
-1384.9999999999959
 31
0.0
1001
ACDBBLOCKREPETAG
1070
     1
1071
        5
1005
123687
  0
LINE
  5
123688
  8
CENTER
 10
2000.0
 20
-1074.9999999999991
 30
0.0
 11
2000.0
 21
-1399.9999999999959
 31
0.0
1001
ACDBBLOCKREPETAG
1070
     1
1071
        6
1005
123688
  0
LINE
  5
123689
  8
OBJECT
 10
1925.0
 20
-1074.9999999999991
 30
0.0
 11
1925.0
 21
-1156.9999999999959
 31
0.0
1001
ACDBBLOCKREPETAG
1070
     1
1071
        7
1005
123689
  0
LINE
  5
12368A
  8
OBJECT
 10
2075.0
 20
-1074.9999999999991
 30
0.0
 11
2075.0
 21
-1156.9999999999959
 31
0.0
1001
ACDBBLOCKREPETAG
1070
     1
1071
        8
1005
12368A
  0
LINE
  5
12368B
  8
OBJECT
 10
1925.0
 20
-1156.9999999999959
 30
0.0
 11
2075.0
 21
-1156.9999999999959
 31
0.0
1001
ACDBBLOCKREPETAG
1070
     1
1071
        9
1005
12368B
  0
LINE
  5
12368C
  8
OBJECT
 10
1925.0
 20
-1156.9999999999959
 30
0.0
 11
1943.0
 21
-1284.9999999999959
 31
0.0
1001
ACDBBLOCKREPETAG
1070
     1
1071
       10
1005
12368C
  0
LINE
  5
12368D
  8
OBJECT
 10
2057.0
 20
-1284.9999999999959
 30
0.0
 11
2075.0
 21
-1156.9999999999959
 31
0.0
1001
ACDBBLOCKREPETAG
1070
     1
1071
       11
1005
12368D
  0
TEXT
  5
12368E
  8
SLIM
 10
0.0
 20
670.0
 30
0.0
 40
100.0
  1
4SLT2-0-0-S
 41
0.75
  0
TEXT
  5
12368F
  8
SLIM
 10
0.0
 20
520.0
 30
0.0
 40
100.0
  1
4SLT2-0-0-W
 41
0.75
  0
LINE
  5
123690
  8
CENTER
 10
11909.0
 20
-1658.9999999999959
 30
0.0
 11
12105.0
 21
-1658.9999999999959
 31
0.0
1001
ACDBBLOCKREPETAG
1070
     1
1071
       10
1005
123690
  0
LINE
  5
123691
  8
CENTER
 10
12000.0
 20
-1567.725335570779
 30
0.0
 11
12000.0
 21
-1750.274664429212
 31
0.0
1001
ACDBBLOCKREPETAG
1070
     1
1071
       11
1005
123691
  0
CIRCLE
  5
123692
  8
OBJECT
 10
12000.0
 20
-1658.9999999999959
 30
0.0
 40
50.0
1001
ACDBBLOCKREPETAG
1070
     1
1071
       12
1005
123692
  0
CIRCLE
  5
123693
  8
OBJECT
 10
12000.0
 20
-1658.9999999999959
 30
0.0
 40
60.0
1001
ACDBBLOCKREPETAG
1070
     1
1071
       13
1005
123693
  0
CIRCLE
  5
123694
  8
OBJECT
 10
12000.0
 20
-1658.9999999999959
 30
0.0
 40
68.0
1001
ACDBBLOCKREPETAG
1070
     1
1071
       14
1005
123694
  0
ARC
  5
123695
  8
OBJECT
 10
12077.5
 20
-1658.9999999999959
 30
0.0
 40
12.0
 50
272.10542627221611
 51
87.894573727783893
1001
ACDBBLOCKREPETAG
1070
     1
1071
       15
1005
123695
  0
ARC
  5
123696
  8
OBJECT
 10
12078.49193548386
 20
-1632.0182271895239
 30
0.0
 40
15.0
 50
198.97051877965251
 51
267.89457372778372
1001
ACDBBLOCKREPETAG
1070
     1
1071
       16
1005
123696
  0
ARC
  5
123697
  8
OBJECT
 10
12078.49193548386
 20
-1685.981772810464
 30
0.0
 40
15.0
 50
92.105426272216135
 51
161.02948122034729
1001
ACDBBLOCKREPETAG
1070
     1
1071
       17
1005
123697
  0
CIRCLE
  5
123698
  8
SLIM
 10
12078.0
 20
-1658.9999999999959
 30
0.0
 40
8.0
1001
ACDBBLOCKREPETAG
1070
     1
1071
       18
1005
123698
  0
POLYLINE
  5
123699
  8
SLIM
 66
     1
 10
0.0
 20
0.0
 30
0.0
 70
     1
1001
ACDBBLOCKREPETAG
1070
     1
1071
       19
1005
123699
  0
VERTEX
  5
1247A7
  8
SLIM
 10
12075.69059892322
 20
-1654.999999999995
 30
0.0
  0
VERTEX
  5
1247A8
  8
SLIM
 10
12073.38119784648
 20
-1658.9999999999959
 30
0.0
  0
VERTEX
  5
1247A9
  8
SLIM
 10
12075.69059892322
 20
-1662.9999999999959
 30
0.0
  0
VERTEX
  5
1247AA
  8
SLIM
 10
12080.309401076751
 20
-1662.9999999999959
 30
0.0
  0
VERTEX
  5
1247AB
  8
SLIM
 10
12082.618802153511
 20
-1658.9999999999959
 30
0.0
  0
VERTEX
  5
1247AC
  8
SLIM
 10
12080.309401076751
 20
-1654.999999999995
 30
0.0
  0
SEQEND
  5
1247AD
  8
SLIM
  0
ARC
  5
12369A
  8
OBJECT
 10
11961.25
 20
-1591.8830312067
 30
0.0
 40
12.0
 50
32.105426272130188
 51
207.89457372768319
1001
ACDBBLOCKREPETAG
1070
     1
1071
       20
1005
12369A
  0
ARC
  5
12369B
  8
OBJECT
 10
11937.38713156505
 20
-1604.5148762839881
 30
0.0
 40
15.0
 50
318.97051877944762
 51
27.89457372768311
1001
ACDBBLOCKREPETAG
1070
     1
1071
       21
1005
12369B
  0
ARC
  5
12369C
  8
OBJECT
 10
11984.120932951069
 20
-1577.533103473517
 30
0.0
 40
15.0
 50
212.10542627213019
 51
281.02948122044069
1001
ACDBBLOCKREPETAG
1070
     1
1071
       22
1005
12369C
  0
CIRCLE
  5
12369D
  8
SLIM
 10
11961.0
 20
-1591.4500185048089
 30
0.0
 40
7.9999999999999982
1001
ACDBBLOCKREPETAG
1070
     1
1071
       23
1005
12369D
  0
POLYLINE
  5
12369E
  8
SLIM
 66
     1
 10
0.0
 20
0.0
 30
0.0
 70
     1
1001
ACDBBLOCKREPETAG
1070
     1
1071
       24
1005
12369E
  0
VERTEX
  5
1247AE
  8
SLIM
 10
11958.69059892324
 20
-1595.4500185048089
 30
0.0
  0
VERTEX
  5
1247AF
  8
SLIM
 10
11963.309401076751
 20
-1595.4500185048089
 30
0.0
  0
VERTEX
  5
1247B0
  8
SLIM
 10
11965.618802153511
 20
-1591.4500185048089
 30
0.0
  0
VERTEX
  5
1247B1
  8
SLIM
 10
11963.309401076751
 20
-1587.4500185048089
 30
0.0
  0
VERTEX
  5
1247B2
  8
SLIM
 10
11958.69059892324
 20
-1587.4500185048089
 30
0.0
  0
VERTEX
  5
1247B3
  8
SLIM
 10
11956.38119784648
 20
-1591.4500185048089
 30
0.0
  0
SEQEND
  5
1247B4
  8
SLIM
  0
ARC
  5
12369F
  8
OBJECT
 10
11961.25
 20
-1726.1169687932879
 30
0.0
 40
12.0
 50
152.10542627231681
 51
327.89457372786978
1001
ACDBBLOCKREPETAG
1070
     1
1071
       25
1005
12369F
  0
ARC
  5
1236A0
  8
OBJECT
 10
11984.120932951069
 20
-1740.4668965264709
 30
0.0
 40
15.0
 50
78.970518779559228
 51
147.89457372786981
1001
ACDBBLOCKREPETAG
1070
     1
1071
       26
1005
1236A0
  0
ARC
  5
1236A1
  8
OBJECT
 10
11937.38713156505
 20
-1713.485123716003
 30
0.0
 40
15.0
 50
332.10542627231678
 51
41.029481220552412
1001
ACDBBLOCKREPETAG
1070
     1
1071
       27
1005
1236A1
  0
CIRCLE
  5
1236A2
  8
SLIM
 10
11961.0
 20
-1726.5499814951829
 30
0.0
 40
8.0
1001
ACDBBLOCKREPETAG
1070
     1
1071
       28
1005
1236A2
  0
POLYLINE
  5
1236A3
  8
SLIM
 66
     1
 10
0.0
 20
0.0
 30
0.0
 70
     1
1001
ACDBBLOCKREPETAG
1070
     1
1071
       29
1005
1236A3
  0
VERTEX
  5
1247B5
  8
SLIM
 10
11965.618802153511
 20
-1726.5499814951791
 30
0.0
  0
VERTEX
  5
1247B6
  8
SLIM
 10
11963.309401076751
 20
-1722.549981495182
 30
0.0
  0
VERTEX
  5
1247B7
  8
SLIM
 10
11958.69059892324
 20
-1722.5499814951791
 30
0.0
  0
VERTEX
  5
1247B8
  8
SLIM
 10
11956.38119784648
 20
-1726.5499814951829
 30
0.0
  0
VERTEX
  5
1247B9
  8
SLIM
 10
11958.69059892322
 20
-1730.5499814951791
 30
0.0
  0
VERTEX
  5
1247BA
  8
SLIM
 10
11963.309401076751
 20
-1730.549981495182
 30
0.0
  0
SEQEND
  5
1247BB
  8
SLIM
  0
ARC
  5
1236A4
  8
OBJECT
 10
12000.0
 20
-1658.9999999999959
 30
0.0
 40
76.0
 50
34.863837954171863
 51
85.136162045732945
1001
ACDBBLOCKREPETAG
1070
     1
1071
       42
1005
1236A4
  0
ARC
  5
1236A5
  8
OBJECT
 10
12000.0
 20
-1658.9999999999959
 30
0.0
 40
76.0
 50
154.86383795430939
 51
205.1361620456905
1001
ACDBBLOCKREPETAG
1070
     1
1071
       43
1005
1236A5
  0
ARC
  5
1236A6
  8
OBJECT
 10
12000.0
 20
-1658.9999999999959
 30
0.0
 40
76.0
 50
274.86383795426718
 51
325.13616204582797
1001
ACDBBLOCKREPETAG
1070
     1
1071
       44
1005
1236A6
  0
ARC
  5
1236A7
  8
OBJECT
 10
12078.0
 20
-1658.9999999999959
 30
0.0
 40
12.0
 50
325.13616204582797
 51
34.863837954171863
1001
ACDBBLOCKREPETAG
1070
     1
1071
       45
1005
1236A7
  0
LINE
  5
1236A8
  8
OBJECT
 10
12087.84615384616
 20
-1652.140462520133
 30
0.0
 11
12062.358974359049
 21
-1615.556262627535
 31
0.0
1001
ACDBBLOCKREPETAG
1070
     1
1071
       46
1005
1236A8
  0
LINE
  5
1236A9
  8
OBJECT
 10
12087.846153846171
 20
-1665.859537479856
 30
0.0
 11
12062.358974359049
 21
-1702.4437373724591
 31
0.0
1001
ACDBBLOCKREPETAG
1070
     1
1071
       47
1005
1236A9
  0
ARC
  5
1236AA
  8
OBJECT
 10
11961.0
 20
-1591.45001850481
 30
0.0
 40
12.0
 50
85.136162045942811
 51
154.86383795410001
1001
ACDBBLOCKREPETAG
1070
     1
1071
       48
1005
1236AA
  0
LINE
  5
1236AB
  8
OBJECT
 10
11950.13638936114
 20
-1586.35276788439
 30
0.0
 11
11931.19713262058
 21
-1626.7174127373471
 31
0.0
1001
ACDBBLOCKREPETAG
1070
     1
1071
       49
1005
1236AB
  0
LINE
  5
1236AC
  8
OBJECT
 10
11962.017456792681
 20
-1579.493230404526
 30
0.0
 11
12006.443893020371
 21
-1583.2736753648851
 31
0.0
1001
ACDBBLOCKREPETAG
1070
     1
1071
       50
1005
1236AC
  0
ARC
  5
1236AD
  8
OBJECT
 10
11961.0
 20
-1726.5499814951811
 30
0.0
 40
12.0
 50
205.13616204589991
 51
274.8638379540572
1001
ACDBBLOCKREPETAG
1070
     1
1071
       51
1005
1236AD
  0
LINE
  5
1236AE
  8
OBJECT
 10
11962.01745679269
 20
-1738.5067695954631
 30
0.0
 11
12006.44389302036
 21
-1734.726324635106
 31
0.0
1001
ACDBBLOCKREPETAG
1070
     1
1071
       52
1005
1236AE
  0
LINE
  5
1236AF
  8
OBJECT
 10
11950.13638936114
 20
-1731.647232115605
 30
0.0
 11
11931.19713262058
 21
-1691.2825872626429
 31
0.0
1001
ACDBBLOCKREPETAG
1070
     1
1071
       53
1005
1236AF
  0
LINE
  5
1236B0
  8
CENTER
 10
9909.0
 20
-1658.9999999999959
 30
0.0
 11
10105.0
 21
-1658.9999999999959
 31
0.0
1001
ACDBBLOCKREPETAG
1070
     1
1071
        0
1005
1236B0
  0
LINE
  5
1236B1
  8
CENTER
 10
10000.0
 20
-1567.725335570779
 30
0.0
 11
10000.0
 21
-1750.274664429212
 31
0.0
1001
ACDBBLOCKREPETAG
1070
     1
1071
        1
1005
1236B1
  0
CIRCLE
  5
1236B2
  8
OBJECT
 10
10000.0
 20
-1658.9999999999959
 30
0.0
 40
50.0
1001
ACDBBLOCKREPETAG
1070
     1
1071
        2
1005
1236B2
  0
CIRCLE
  5
1236B3
  8
OBJECT
 10
10000.0
 20
-1658.9999999999959
 30
0.0
 40
62.0
1001
ACDBBLOCKREPETAG
1070
     1
1071
        3
1005
1236B3
  0
CIRCLE
  5
1236B4
  8
SLIM
 10
10078.0
 20
-1658.9999999999959
 30
0.0
 40
5.0
1001
ACDBBLOCKREPETAG
1070
     1
1071
        4
1005
1236B4
  0
POLYLINE
  5
1236B5
  8
SLIM
 66
     1
 10
0.0
 20
0.0
 30
0.0
 70
     1
1001
ACDBBLOCKREPETAG
1070
     1
1071
        5
1005
1236B5
  0
VERTEX
  5
1247BC
  8
SLIM
 10
10073.092522711881
 20
-1650.4999999999959
 30
0.0
  0
VERTEX
  5
1247BD
  8
SLIM
 10
10068.18504542377
 20
-1658.9999999999959
 30
0.0
  0
VERTEX
  5
1247BE
  8
SLIM
 10
10073.092522711881
 20
-1667.4999999999959
 30
0.0
  0
VERTEX
  5
1247BF
  8
SLIM
 10
10082.907477288099
 20
-1667.4999999999959
 30
0.0
  0
VERTEX
  5
1247C0
  8
SLIM
 10
10087.814954576221
 20
-1658.9999999999959
 30
0.0
  0
VERTEX
  5
1247C1
  8
SLIM
 10
10082.907477288099
 20
-1650.4999999999959
 30
0.0
  0
SEQEND
  5
1247C2
  8
SLIM
  0
CIRCLE
  5
1236B6
  8
SLIM
 10
9961.0
 20
-1591.4500185048089
 30
0.0
 40
4.9999999999999991
1001
ACDBBLOCKREPETAG
1070
     1
1071
        6
1005
1236B6
  0
POLYLINE
  5
1236B7
  8
SLIM
 66
     1
 10
0.0
 20
0.0
 30
0.0
 70
     1
1001
ACDBBLOCKREPETAG
1070
     1
1071
        7
1005
1236B7
  0
VERTEX
  5
1247C3
  8
SLIM
 10
9956.092522711886
 20
-1599.9500185048089
 30
0.0
  0
VERTEX
  5
1247C4
  8
SLIM
 10
9965.907477288114
 20
-1599.9500185048089
 30
0.0
  0
VERTEX
  5
1247C5
  8
SLIM
 10
9970.814954576219
 20
-1591.4500185048089
 30
0.0
  0
VERTEX
  5
1247C6
  8
SLIM
 10
9965.907477288114
 20
-1582.950018504808
 30
0.0
  0
VERTEX
  5
1247C7
  8
SLIM
 10
9956.092522711886
 20
-1582.950018504808
 30
0.0
  0
VERTEX
  5
1247C8
  8
SLIM
 10
9951.185045423772
 20
-1591.4500185048089
 30
0.0
  0
SEQEND
  5
1247C9
  8
SLIM
  0
CIRCLE
  5
1236B8
  8
SLIM
 10
9961.0
 20
-1726.5499814951829
 30
0.0
 40
5.0
1001
ACDBBLOCKREPETAG
1070
     1
1071
        8
1005
1236B8
  0
POLYLINE
  5
1236B9
  8
SLIM
 66
     1
 10
0.0
 20
0.0
 30
0.0
 70
     1
1001
ACDBBLOCKREPETAG
1070
     1
1071
        9
1005
1236B9
  0
VERTEX
  5
1247CA
  8
SLIM
 10
9970.814954576219
 20
-1726.5499814951829
 30
0.0
  0
VERTEX
  5
1247CB
  8
SLIM
 10
9965.9074772881049
 20
-1718.0499814951791
 30
0.0
  0
VERTEX
  5
1247CC
  8
SLIM
 10
9956.092522711886
 20
-1718.049981495182
 30
0.0
  0
VERTEX
  5
1247CD
  8
SLIM
 10
9951.185045423772
 20
-1726.5499814951791
 30
0.0
  0
VERTEX
  5
1247CE
  8
SLIM
 10
9956.092522711886
 20
-1735.0499814951829
 30
0.0
  0
VERTEX
  5
1247CF
  8
SLIM
 10
9965.907477288114
 20
-1735.0499814951791
 30
0.0
  0
SEQEND
  5
1247D0
  8
SLIM
  0
ARC
  5
1236BA
  8
OBJECT
 10
10000.0
 20
-1658.9999999999959
 30
0.0
 40
76.0
 50
34.863837954171863
 51
85.136162045732945
1001
ACDBBLOCKREPETAG
1070
     1
1071
       30
1005
1236BA
  0
ARC
  5
1236BB
  8
OBJECT
 10
10000.0
 20
-1658.9999999999959
 30
0.0
 40
76.0
 50
154.86383795430939
 51
205.1361620456905
1001
ACDBBLOCKREPETAG
1070
     1
1071
       31
1005
1236BB
  0
ARC
  5
1236BC
  8
OBJECT
 10
10000.0
 20
-1658.9999999999959
 30
0.0
 40
76.0
 50
274.86383795426718
 51
325.13616204582797
1001
ACDBBLOCKREPETAG
1070
     1
1071
       32
1005
1236BC
  0
ARC
  5
1236BD
  8
OBJECT
 10
10078.0
 20
-1658.9999999999959
 30
0.0
 40
12.0
 50
325.13616204582797
 51
34.863837954171863
1001
ACDBBLOCKREPETAG
1070
     1
1071
       33
1005
1236BD
  0
LINE
  5
1236BE
  8
OBJECT
 10
10087.84615384616
 20
-1652.140462520133
 30
0.0
 11
10062.35897435904
 21
-1615.556262627535
 31
0.0
1001
ACDBBLOCKREPETAG
1070
     1
1071
       34
1005
1236BE
  0
LINE
  5
1236BF
  8
OBJECT
 10
10087.846153846171
 20
-1665.859537479856
 30
0.0
 11
10062.35897435904
 21
-1702.4437373724591
 31
0.0
1001
ACDBBLOCKREPETAG
1070
     1
1071
       35
1005
1236BF
  0
ARC
  5
1236C0
  8
OBJECT
 10
9961.0
 20
-1591.45001850481
 30
0.0
 40
12.0
 50
85.136162045942811
 51
154.86383795410001
1001
ACDBBLOCKREPETAG
1070
     1
1071
       36
1005
1236C0
  0
LINE
  5
1236C1
  8
OBJECT
 10
9950.1363893611433
 20
-1586.35276788439
 30
0.0
 11
9931.1971326205894
 21
-1626.7174127373471
 31
0.0
1001
ACDBBLOCKREPETAG
1070
     1
1071
       37
1005
1236C1
  0
LINE
  5
1236C2
  8
OBJECT
 10
9962.0174567926842
 20
-1579.493230404526
 30
0.0
 11
10006.443893020371
 21
-1583.2736753648851
 31
0.0
1001
ACDBBLOCKREPETAG
1070
     1
1071
       38
1005
1236C2
  0
ARC
  5
1236C3
  8
OBJECT
 10
9961.0
 20
-1726.5499814951811
 30
0.0
 40
12.0
 50
205.13616204589991
 51
274.8638379540572
1001
ACDBBLOCKREPETAG
1070
     1
1071
       39
1005
1236C3
  0
LINE
  5
1236C4
  8
OBJECT
 10
9962.0174567926897
 20
-1738.5067695954631
 30
0.0
 11
10006.44389302036
 21
-1734.726324635106
 31
0.0
1001
ACDBBLOCKREPETAG
1070
     1
1071
       40
1005
1236C4
  0
LINE
  5
1236C5
  8
OBJECT
 10
9950.1363893611433
 20
-1731.647232115605
 30
0.0
 11
9931.1971326205821
 21
-1691.2825872626429
 31
0.0
1001
ACDBBLOCKREPETAG
1070
     1
1071
       41
1005
1236C5
  0
LINE
  5
1236C6
  8
CENTER
 10
5909.0
 20
-1699.9999999999991
 30
0.0
 11
6105.0
 21
-1699.9999999999991
 31
0.0
1001
ACDBBLOCKREPETAG
1070
     1
1071
       10
1005
1236C6
  0
LINE
  5
1236C7
  8
CENTER
 10
6000.0
 20
-1608.7253355707819
 30
0.0
 11
6000.0
 21
-1791.2746644292149
 31
0.0
1001
ACDBBLOCKREPETAG
1070
     1
1071
       11
1005
1236C7
  0
CIRCLE
  5
1236C8
  8
OBJECT
 10
6000.0
 20
-1699.9999999999991
 30
0.0
 40
50.0
1001
ACDBBLOCKREPETAG
1070
     1
1071
       12
1005
1236C8
  0
CIRCLE
  5
1236C9
  8
OBJECT
 10
6000.0
 20
-1699.9999999999991
 30
0.0
 40
60.0
1001
ACDBBLOCKREPETAG
1070
     1
1071
       13
1005
1236C9
  0
CIRCLE
  5
1236CA
  8
OBJECT
 10
6000.0
 20
-1699.9999999999991
 30
0.0
 40
68.0
1001
ACDBBLOCKREPETAG
1070
     1
1071
       14
1005
1236CA
  0
ARC
  5
1236CB
  8
OBJECT
 10
6077.5
 20
-1699.9999999999991
 30
0.0
 40
12.0
 50
272.10542627221611
 51
87.894573727783893
1001
ACDBBLOCKREPETAG
1070
     1
1071
       15
1005
1236CB
  0
ARC
  5
1236CC
  8
OBJECT
 10
6078.4919354838639
 20
-1673.018227189526
 30
0.0
 40
15.0
 50
198.9705187796356
 51
267.89457372778372
1001
ACDBBLOCKREPETAG
1070
     1
1071
       16
1005
1236CC
  0
ARC
  5
1236CD
  8
OBJECT
 10
6078.4919354838639
 20
-1726.981772810467
 30
0.0
 40
15.0
 50
92.105426272216135
 51
161.02948122036429
1001
ACDBBLOCKREPETAG
1070
     1
1071
       17
1005
1236CD
  0
CIRCLE
  5
1236CE
  8
SLIM
 10
6078.0
 20
-1699.9999999999991
 30
0.0
 40
8.0
1001
ACDBBLOCKREPETAG
1070
     1
1071
       18
1005
1236CE
  0
POLYLINE
  5
1236CF
  8
SLIM
 66
     1
 10
0.0
 20
0.0
 30
0.0
 70
     1
1001
ACDBBLOCKREPETAG
1070
     1
1071
       19
1005
1236CF
  0
VERTEX
  5
1247D1
  8
SLIM
 10
6075.6905989232328
 20
-1695.9999999999991
 30
0.0
  0
VERTEX
  5
1247D2
  8
SLIM
 10
6073.3811978464801
 20
-1699.9999999999991
 30
0.0
  0
VERTEX
  5
1247D3
  8
SLIM
 10
6075.6905989232328
 20
-1703.9999999999991
 30
0.0
  0
VERTEX
  5
1247D4
  8
SLIM
 10
6080.3094010767527
 20
-1703.9999999999991
 30
0.0
  0
VERTEX
  5
1247D5
  8
SLIM
 10
6082.6188021535136
 20
-1699.9999999999991
 30
0.0
  0
VERTEX
  5
1247D6
  8
SLIM
 10
6080.3094010767527
 20
-1695.9999999999991
 30
0.0
  0
SEQEND
  5
1247D7
  8
SLIM
  0
ARC
  5
1236D0
  8
OBJECT
 10
5961.25
 20
-1632.883031206703
 30
0.0
 40
12.0
 50
32.105426272157878
 51
207.89457372770741
1001
ACDBBLOCKREPETAG
1070
     1
1071
       20
1005
1236D0
  0
ARC
  5
1236D1
  8
OBJECT
 10
5937.387131565054
 20
-1645.514876283992
 30
0.0
 40
15.0
 50
318.97051877944762
 51
27.894573727707481
1001
ACDBBLOCKREPETAG
1070
     1
1071
       21
1005
1236D1
  0
ARC
  5
1236D2
  8
OBJECT
 10
5984.1209329510702
 20
-1618.53310347352
 30
0.0
 40
15.0
 50
212.1054262721579
 51
281.02948122044069
1001
ACDBBLOCKREPETAG
1070
     1
1071
       22
1005
1236D2
  0
CIRCLE
  5
1236D3
  8
SLIM
 10
5961.0
 20
-1632.4500185048121
 30
0.0
 40
7.9999999999999982
1001
ACDBBLOCKREPETAG
1070
     1
1071
       23
1005
1236D3
  0
POLYLINE
  5
1236D4
  8
SLIM
 66
     1
 10
0.0
 20
0.0
 30
0.0
 70
     1
1001
ACDBBLOCKREPETAG
1070
     1
1071
       24
1005
1236D4
  0
VERTEX
  5
1247D8
  8
SLIM
 10
5958.69059892324
 20
-1636.4500185048121
 30
0.0
  0
VERTEX
  5
1247D9
  8
SLIM
 10
5963.3094010767518
 20
-1636.4500185048121
 30
0.0
  0
VERTEX
  5
1247DA
  8
SLIM
 10
5965.6188021535136
 20
-1632.4500185048121
 30
0.0
  0
VERTEX
  5
1247DB
  8
SLIM
 10
5963.3094010767518
 20
-1628.4500185048121
 30
0.0
  0
VERTEX
  5
1247DC
  8
SLIM
 10
5958.69059892324
 20
-1628.4500185048121
 30
0.0
  0
VERTEX
  5
1247DD
  8
SLIM
 10
5956.3811978464792
 20
-1632.4500185048121
 30
0.0
  0
SEQEND
  5
1247DE
  8
SLIM
  0
ARC
  5
1236D5
  8
OBJECT
 10
5961.25
 20
-1767.1169687932911
 30
0.0
 40
12.0
 50
152.1054262722925
 51
327.89457372784221
1001
ACDBBLOCKREPETAG
1070
     1
1071
       25
1005
1236D5
  0
ARC
  5
1236D6
  8
OBJECT
 10
5984.1209329510702
 20
-1781.466896526475
 30
0.0
 40
15.0
 50
78.970518779559228
 51
147.8945737278421
1001
ACDBBLOCKREPETAG
1070
     1
1071
       26
1005
1236D6
  0
ARC
  5
1236D7
  8
OBJECT
 10
5937.387131565054
 20
-1754.485123716006
 30
0.0
 40
15.0
 50
332.1054262722925
 51
41.029481220552412
1001
ACDBBLOCKREPETAG
1070
     1
1071
       27
1005
1236D7
  0
CIRCLE
  5
1236D8
  8
SLIM
 10
5961.0
 20
-1767.5499814951861
 30
0.0
 40
8.0
1001
ACDBBLOCKREPETAG
1070
     1
1071
       28
1005
1236D8
  0
POLYLINE
  5
1236D9
  8
SLIM
 66
     1
 10
0.0
 20
0.0
 30
0.0
 70
     1
1001
ACDBBLOCKREPETAG
1070
     1
1071
       29
1005
1236D9
  0
VERTEX
  5
1247DF
  8
SLIM
 10
5965.6188021535136
 20
-1767.549981495182
 30
0.0
  0
VERTEX
  5
1247E0
  8
SLIM
 10
5963.3094010767518
 20
-1763.5499814951861
 30
0.0
  0
VERTEX
  5
1247E1
  8
SLIM
 10
5958.69059892324
 20
-1763.5499814951829
 30
0.0
  0
VERTEX
  5
1247E2
  8
SLIM
 10
5956.3811978464792
 20
-1767.5499814951861
 30
0.0
  0
VERTEX
  5
1247E3
  8
SLIM
 10
5958.6905989232328
 20
-1771.549981495182
 30
0.0
  0
VERTEX
  5
1247E4
  8
SLIM
 10
5963.3094010767518
 20
-1771.5499814951861
 30
0.0
  0
SEQEND
  5
1247E5
  8
SLIM
  0
ARC
  5
1236DA
  8
OBJECT
 10
6000.0
 20
-1699.9999999999991
 30
0.0
 40
76.0
 50
34.863837954142063
 51
85.136162045732945
1001
ACDBBLOCKREPETAG
1070
     1
1071
       42
1005
1236DA
  0
ARC
  5
1236DB
  8
OBJECT
 10
6000.0
 20
-1699.9999999999991
 30
0.0
 40
76.0
 50
154.86383795430939
 51
205.1361620456905
1001
ACDBBLOCKREPETAG
1070
     1
1071
       43
1005
1236DB
  0
ARC
  5
1236DC
  8
OBJECT
 10
6000.0
 20
-1699.9999999999991
 30
0.0
 40
76.0
 50
274.86383795426718
 51
325.13616204585799
1001
ACDBBLOCKREPETAG
1070
     1
1071
       44
1005
1236DC
  0
ARC
  5
1236DD
  8
OBJECT
 10
6078.0
 20
-1699.9999999999991
 30
0.0
 40
12.0
 50
325.13616204585799
 51
34.863837954142063
1001
ACDBBLOCKREPETAG
1070
     1
1071
       45
1005
1236DD
  0
LINE
  5
1236DE
  8
OBJECT
 10
6087.846153846167
 20
-1693.140462520136
 30
0.0
 11
6062.3589743590501
 21
-1656.5562626275371
 31
0.0
1001
ACDBBLOCKREPETAG
1070
     1
1071
       46
1005
1236DE
  0
LINE
  5
1236DF
  8
OBJECT
 10
6087.8461538461697
 20
-1706.8595374798599
 30
0.0
 11
6062.3589743590501
 21
-1743.443737372462
 31
0.0
1001
ACDBBLOCKREPETAG
1070
     1
1071
       47
1005
1236DF
  0
ARC
  5
1236E0
  8
OBJECT
 10
5961.0
 20
-1632.4500185048139
 30
0.0
 40
12.0
 50
85.136162045942811
 51
154.86383795410001
1001
ACDBBLOCKREPETAG
1070
     1
1071
       48
1005
1236E0
  0
LINE
  5
1236E1
  8
OBJECT
 10
5950.1363893611451
 20
-1627.3527678843941
 30
0.0
 11
5931.1971326205849
 21
-1667.7174127373489
 31
0.0
1001
ACDBBLOCKREPETAG
1070
     1
1071
       49
1005
1236E1
  0
LINE
  5
1236E2
  8
OBJECT
 10
5962.0174567926842
 20
-1620.4932304045301
 30
0.0
 11
6006.4438930203669
 21
-1624.273675364889
 31
0.0
1001
ACDBBLOCKREPETAG
1070
     1
1071
       50
1005
1236E2
  0
ARC
  5
1236E3
  8
OBJECT
 10
5961.0
 20
-1767.5499814951841
 30
0.0
 40
12.0
 50
205.13616204589991
 51
274.8638379540572
1001
ACDBBLOCKREPETAG
1070
     1
1071
       51
1005
1236E3
  0
LINE
  5
1236E4
  8
OBJECT
 10
5962.0174567926879
 20
-1779.5067695954669
 30
0.0
 11
6006.4438930203651
 21
-1775.726324635109
 31
0.0
1001
ACDBBLOCKREPETAG
1070
     1
1071
       52
1005
1236E4
  0
LINE
  5
1236E5
  8
OBJECT
 10
5950.1363893611451
 20
-1772.6472321156079
 30
0.0
 11
5931.1971326205821
 21
-1732.2825872626461
 31
0.0
1001
ACDBBLOCKREPETAG
1070
     1
1071
       53
1005
1236E5
  0
LINE
  5
1236E6
  8
CENTER
 10
3909.0
 20
-1658.9999999999959
 30
0.0
 11
4105.0
 21
-1658.9999999999959
 31
0.0
1001
ACDBBLOCKREPETAG
1070
     1
1071
        0
1005
1236E6
  0
LINE
  5
1236E7
  8
CENTER
 10
4000.0
 20
-1567.725335570779
 30
0.0
 11
4000.0
 21
-1750.274664429212
 31
0.0
1001
ACDBBLOCKREPETAG
1070
     1
1071
        1
1005
1236E7
  0
CIRCLE
  5
1236E8
  8
OBJECT
 10
4000.0
 20
-1658.9999999999959
 30
0.0
 40
50.0
1001
ACDBBLOCKREPETAG
1070
     1
1071
        2
1005
1236E8
  0
CIRCLE
  5
1236E9
  8
OBJECT
 10
4000.0
 20
-1658.9999999999959
 30
0.0
 40
62.0
1001
ACDBBLOCKREPETAG
1070
     1
1071
        3
1005
1236E9
  0
CIRCLE
  5
1236EA
  8
SLIM
 10
4078.0
 20
-1658.9999999999959
 30
0.0
 40
5.0
1001
ACDBBLOCKREPETAG
1070
     1
1071
        4
1005
1236EA
  0
POLYLINE
  5
1236EB
  8
SLIM
 66
     1
 10
0.0
 20
0.0
 30
0.0
 70
     1
1001
ACDBBLOCKREPETAG
1070
     1
1071
        5
1005
1236EB
  0
VERTEX
  5
1247E6
  8
SLIM
 10
4073.092522711886
 20
-1650.4999999999959
 30
0.0
  0
VERTEX
  5
1247E7
  8
SLIM
 10
4068.185045423772
 20
-1658.9999999999959
 30
0.0
  0
VERTEX
  5
1247E8
  8
SLIM
 10
4073.092522711886
 20
-1667.4999999999959
 30
0.0
  0
VERTEX
  5
1247E9
  8
SLIM
 10
4082.9074772881072
 20
-1667.4999999999959
 30
0.0
  0
VERTEX
  5
1247EA
  8
SLIM
 10
4087.8149545762199
 20
-1658.9999999999959
 30
0.0
  0
VERTEX
  5
1247EB
  8
SLIM
 10
4082.9074772881072
 20
-1650.4999999999959
 30
0.0
  0
SEQEND
  5
1247EC
  8
SLIM
  0
CIRCLE
  5
1236EC
  8
SLIM
 10
3961.0
 20
-1591.4500185048089
 30
0.0
 40
4.9999999999999991
1001
ACDBBLOCKREPETAG
1070
     1
1071
        6
1005
1236EC
  0
POLYLINE
  5
1236ED
  8
SLIM
 66
     1
 10
0.0
 20
0.0
 30
0.0
 70
     1
1001
ACDBBLOCKREPETAG
1070
     1
1071
        7
1005
1236ED
  0
VERTEX
  5
1247ED
  8
SLIM
 10
3956.092522711886
 20
-1599.9500185048089
 30
0.0
  0
VERTEX
  5
1247EE
  8
SLIM
 10
3965.907477288114
 20
-1599.9500185048089
 30
0.0
  0
VERTEX
  5
1247EF
  8
SLIM
 10
3970.8149545762212
 20
-1591.4500185048089
 30
0.0
  0
VERTEX
  5
1247F0
  8
SLIM
 10
3965.907477288114
 20
-1582.950018504808
 30
0.0
  0
VERTEX
  5
1247F1
  8
SLIM
 10
3956.092522711886
 20
-1582.950018504808
 30
0.0
  0
VERTEX
  5
1247F2
  8
SLIM
 10
3951.185045423772
 20
-1591.4500185048089
 30
0.0
  0
SEQEND
  5
1247F3
  8
SLIM
  0
CIRCLE
  5
1236EE
  8
SLIM
 10
3961.0
 20
-1726.5499814951829
 30
0.0
 40
5.0
1001
ACDBBLOCKREPETAG
1070
     1
1071
        8
1005
1236EE
  0
POLYLINE
  5
1236EF
  8
SLIM
 66
     1
 10
0.0
 20
0.0
 30
0.0
 70
     1
1001
ACDBBLOCKREPETAG
1070
     1
1071
        9
1005
1236EF
  0
VERTEX
  5
1247F4
  8
SLIM
 10
3970.8149545762212
 20
-1726.5499814951829
 30
0.0
  0
VERTEX
  5
1247F5
  8
SLIM
 10
3965.9074772881072
 20
-1718.0499814951791
 30
0.0
  0
VERTEX
  5
1247F6
  8
SLIM
 10
3956.092522711886
 20
-1718.049981495182
 30
0.0
  0
VERTEX
  5
1247F7
  8
SLIM
 10
3951.185045423772
 20
-1726.5499814951791
 30
0.0
  0
VERTEX
  5
1247F8
  8
SLIM
 10
3956.092522711886
 20
-1735.0499814951829
 30
0.0
  0
VERTEX
  5
1247F9
  8
SLIM
 10
3965.907477288114
 20
-1735.0499814951791
 30
0.0
  0
SEQEND
  5
1247FA
  8
SLIM
  0
ARC
  5
1236F0
  8
OBJECT
 10
4000.0
 20
-1658.9999999999959
 30
0.0
 40
76.0
 50
34.863837954142063
 51
85.136162045732945
1001
ACDBBLOCKREPETAG
1070
     1
1071
       30
1005
1236F0
  0
ARC
  5
1236F1
  8
OBJECT
 10
4000.0
 20
-1658.9999999999959
 30
0.0
 40
76.0
 50
154.86383795430939
 51
205.1361620456905
1001
ACDBBLOCKREPETAG
1070
     1
1071
       31
1005
1236F1
  0
ARC
  5
1236F2
  8
OBJECT
 10
4000.0
 20
-1658.9999999999959
 30
0.0
 40
76.0
 50
274.86383795426718
 51
325.13616204585799
1001
ACDBBLOCKREPETAG
1070
     1
1071
       32
1005
1236F2
  0
ARC
  5
1236F3
  8
OBJECT
 10
4078.0
 20
-1658.9999999999959
 30
0.0
 40
12.0
 50
325.13616204585799
 51
34.863837954142063
1001
ACDBBLOCKREPETAG
1070
     1
1071
       33
1005
1236F3
  0
LINE
  5
1236F4
  8
OBJECT
 10
4087.846153846167
 20
-1652.140462520133
 30
0.0
 11
4062.3589743590492
 21
-1615.556262627535
 31
0.0
1001
ACDBBLOCKREPETAG
1070
     1
1071
       34
1005
1236F4
  0
LINE
  5
1236F5
  8
OBJECT
 10
4087.8461538461711
 20
-1665.859537479856
 30
0.0
 11
4062.3589743590492
 21
-1702.4437373724591
 31
0.0
1001
ACDBBLOCKREPETAG
1070
     1
1071
       35
1005
1236F5
  0
ARC
  5
1236F6
  8
OBJECT
 10
3961.0
 20
-1591.45001850481
 30
0.0
 40
12.0
 50
85.136162045942811
 51
154.86383795411109
1001
ACDBBLOCKREPETAG
1070
     1
1071
       36
1005
1236F6
  0
LINE
  5
1236F7
  8
OBJECT
 10
3950.136389361146
 20
-1586.35276788439
 30
0.0
 11
3931.1971326205862
 21
-1626.7174127373471
 31
0.0
1001
ACDBBLOCKREPETAG
1070
     1
1071
       37
1005
1236F7
  0
LINE
  5
1236F8
  8
OBJECT
 10
3962.0174567926852
 20
-1579.493230404526
 30
0.0
 11
4006.4438930203678
 21
-1583.2736753648851
 31
0.0
1001
ACDBBLOCKREPETAG
1070
     1
1071
       38
1005
1236F8
  0
ARC
  5
1236F9
  8
OBJECT
 10
3961.0
 20
-1726.5499814951811
 30
0.0
 40
12.0
 50
205.13616204588891
 51
274.8638379540572
1001
ACDBBLOCKREPETAG
1070
     1
1071
       39
1005
1236F9
  0
LINE
  5
1236FA
  8
OBJECT
 10
3962.0174567926879
 20
-1738.5067695954631
 30
0.0
 11
4006.4438930203651
 21
-1734.726324635106
 31
0.0
1001
ACDBBLOCKREPETAG
1070
     1
1071
       40
1005
1236FA
  0
LINE
  5
1236FB
  8
OBJECT
 10
3950.136389361146
 20
-1731.647232115605
 30
0.0
 11
3931.1971326205821
 21
-1691.2825872626429
 31
0.0
1001
ACDBBLOCKREPETAG
1070
     1
1071
       41
1005
1236FB
  0
TEXT
  5
1236FC
  8
SLIM
 10
3853.75
 20
-1926.4999999999959
 30
0.0
 40
35.0
  1
両受けスタイル（W）
 41
0.75
  0
TEXT
  5
1236FD
  8
SLIM
 10
5811.8000000000002
 20
-2024.0
 30
0.0
 40
28.0
  1
※ 対応スラブ厚　150mm以上
 41
0.75
  0
TEXT
  5
1236FE
  8
SLIM
 10
5598.8999999999996
 20
-2117.3333333333321
 30
0.0
 40
28.0
  1
国土交通大臣認定・（一財）日本消防設備安全センター性能評定取得品
 41
0.75
  0
TEXT
  5
1236FF
  8
SLIM
 10
5631.1000000000004
 20
-2164.0
 30
0.0
 40
28.0
  1
注）ご採用にあたり、認定書及び評定書の内容をご確認ください。
 41
0.75
  0
TEXT
  5
123700
  8
SLIM
 10
11824.6
 20
-1982.9999999999959
 30
0.0
 40
28.0
  1
※ 対応スラブ厚　150～660
 41
0.75
  0
TEXT
  5
123701
  8
SLIM
 10
11598.9
 20
-2076.3333333333289
 30
0.0
 40
28.0
  1
国土交通大臣認定・（一財）日本消防設備安全センター性能評定取得品
 41
0.75
  0
TEXT
  5
123702
  8
SLIM
 10
11631.1
 20
-2122.9999999999959
 30
0.0
 40
28.0
  1
注）ご採用にあたり、認定書及び評定書の内容をご確認ください。
 41
0.75
  0
TEXT
  5
123703
  8
SLIM
 10
9824.6000000000004
 20
-1982.9999999999959
 30
0.0
 40
28.0
  1
※ 対応スラブ厚　180～660
 41
0.75
  0
TEXT
  5
123704
  8
SLIM
 10
9598.8999999999996
 20
-2076.3333333333289
 30
0.0
 40
28.0
  1
国土交通大臣認定・（一財）日本消防設備安全センター性能評定取得品
 41
0.75
  0
TEXT
  5
123705
  8
SLIM
 10
9631.1000000000004
 20
-2122.9999999999959
 30
0.0
 40
28.0
  1
注）ご採用にあたり、認定書及び評定書の内容をご確認ください。
 41
0.75
  0
TEXT
  5
123706
  8
SLIM
 10
7771.3999999999987
 20
-1715.666666666664
 30
0.0
 40
28.0
  1
※ 対応スラブ厚　180｛150｝～620
 41
0.75
  0
TEXT
  5
123707
  8
SLIM
 10
7733.2999999999975
 20
-1762.333333333331
 30
0.0
 40
28.0
  1
｛｝内はカンペイ立て管との組み合わせの場合
 41
0.75
  0
TEXT
  5
123708
  8
SLIM
 10
7598.8999999999969
 20
-1855.6666666666649
 30
0.0
 40
28.0
  1
国土交通大臣認定・（一財）日本消防設備安全センター性能評定取得品
 41
0.75
  0
TEXT
  5
123709
  8
SLIM
 10
7631.1000000000004
 20
-1902.333333333331
 30
0.0
 40
28.0
  1
注）ご採用にあたり、認定書及び評定書の内容をご確認ください。
 41
0.75
  0
TEXT
  5
12370A
  8
SLIM
 10
9739.1250000000018
 20
-1926.4999999999959
 30
0.0
 40
35.0
  1
両受けスタイル（W）＋シンドカット
 41
0.75
  0
TEXT
  5
12370B
  8
SLIM
 10
11743.5
 20
-1926.4999999999959
 30
0.0
 40
35.0
  1
カンペイ君（WKP）＋シンドカット
 41
0.75
  0
TEXT
  5
12370C
  8
SLIM
 10
7741.625
 20
-1652.499999999998
 30
0.0
 40
35.0
  1
片受けスタイル（S）＋シンドカット
 41
0.75
  0
TEXT
  5
12370D
  8
SLIM
 10
5858.1250000000009
 20
-1967.4999999999991
 30
0.0
 40
35.0
  1
カンペイ君（WKP）
 41
0.75
  0
TEXT
  5
12370E
  8
SLIM
 10
1856.25
 20
-1652.499999999998
 30
0.0
 40
35.0
  1
片受けスタイル（S）
 41
0.75
  0
TEXT
  5
12370F
  8
SLIM
 10
0.0
 20
369.99999999999989
 30
0.0
 40
100.0
  1
4SLT2-0-0-WKP
 41
0.75
  0
VIEWPORT
  5
F6BA7
 67
     1
  8
0
 10
163.0024027789494
 20
101.8328354358673
 30
0.0
 40
369.34663245053321
 41
222.19657968139651
 68
     1
 69
     1
1001
ACAD
1000
MVIEW
1002
{
1070
    16
1010
0.0
1020
0.0
1030
0.0
1010
0.0
1020
0.0
1030
1.0
1040
0.0
1040
222.19657968139651
1040
163.0024027789494
1040
101.8328354358673
1040
50.0
1040
0.0
1040
0.0
1070
     0
1070
     0
1070
     1
1070
     1
1070
     0
1070
     0
1070
     0
1070
     0
1040
0.0
1040
0.0
1040
0.0
1040
10.0
1040
10.0
1040
10.0
1040
10.0
1070
     0
1002
{
1002
}
1002
}
  0
VIEWPORT
  5
F6BA9
 67
     1
  8
OBJECT
 10
145.3303314447403
 20
101.8328338861465
 30
0.0
 40
232.5285303115844
 41
162.93253421783439
 68
     2
 69
     2
1001
ACAD
1000
MVIEW
1002
{
1070
    16
1010
0.0
1020
0.0
1030
0.0
1010
0.0
1020
0.0
1030
1.0
1040
0.0
1040
25942.55904403147
1040
2377.604457077377
1040
-7591.5176687056619
1040
50.0
1040
0.0
1040
0.0
1070
     0
1070
   600
1070
     1
1070
     1
1070
     0
1070
     0
1070
     0
1070
     0
1040
0.0
1040
0.0
1040
0.0
1040
1.0
1040
1.0
1040
0.0
1040
0.0
1070
     0
1002
{
1002
}
1002
}
  0
ENDSEC
  0
EOF
