  0
SECTION
  2
HEADER
  9
$ACADVER
  1
AC1009
  9
$INSBASE
 10
0.0
 20
0.0
 30
0.0
  9
$EXTMIN
 10
0.0
 20
-2163.9999999999991
 30
0.0
  9
$EXTMAX
 10
12399.70000000001
 20
770.0
 30
0.0
  9
$LIMMIN
 10
0.0
 20
0.0
  9
$LIMMAX
 10
210.0
 20
297.0
  9
$ORTHOMODE
 70
     0
  9
$REGENMODE
 70
     1
  9
$FILLMODE
 70
     1
  9
$QTEXTMODE
 70
     0
  9
$MIRRTEXT
 70
     0
  9
$DRAGMODE
 70
     2
  9
$LTSCALE
 40
1.0
  9
$OSMODE
 70
   109
  9
$ATTMODE
 70
     1
  9
$TEXTSIZE
 40
4.0
  9
$TRACEWID
 40
0.05
  9
$TEXTSTYLE
  7
STANDARD
  9
$CLAYER
  8
OBJECT
  9
$CELTYPE
  6
BYLAYER
  9
$CECOLOR
 62
   256
  9
$DIMSCALE
 40
10.0
  9
$DIMASZ
 40
2.0
  9
$DIMEXO
 40
1.0
  9
$DIMDLI
 40
10.0
  9
$DIMRND
 40
0.0
  9
$DIMDLE
 40
0.0
  9
$DIMEXE
 40
1.0
  9
$DIMTP
 40
0.0
  9
$DIMTM
 40
0.0
  9
$DIMTXT
 40
3.2000000000000002
  9
$DIMCEN
 40
0.0
  9
$DIMTSZ
 40
0.0
  9
$DIMTOL
 70
     0
  9
$DIMLIM
 70
     0
  9
$DIMTIH
 70
     0
  9
$DIMTOH
 70
     0
  9
$DIMSE1
 70
     0
  9
$DIMSE2
 70
     0
  9
$DIMTAD
 70
     1
  9
$DIMZIN
 70
     8
  9
$DIMBLK
  1
OPEN30
  9
$DIMASO
 70
     1
  9
$DIMSHO
 70
     1
  9
$DIMPOST
  1

  9
$DIMAPOST
  1

  9
$DIMALT
 70
     0
  9
$DIMALTD
 70
     2
  9
$DIMALTF
 40
25.399999999999999
  9
$DIMLFAC
 40
1.0
  9
$DIMTOFL
 70
     1
  9
$DIMTVP
 40
0.0
  9
$DIMTIX
 70
     0
  9
$DIMSOXD
 70
     0
  9
$DIMSAH
 70
     0
  9
$DIMBLK1
  1

  9
$DIMBLK2
  1

  9
$DIMSTYLE
  2
S10
  9
$DIMCLRD
 70
   256
  9
$DIMCLRE
 70
   256
  9
$DIMCLRT
 70
   256
  9
$DIMTFAC
 40
1.0
  9
$DIMGAP
 40
0.9
  9
$LUNITS
 70
     2
  9
$LUPREC
 70
     2
  9
$SKETCHINC
 40
0.1
  9
$FILLETRAD
 40
0.0
  9
$AUNITS
 70
     0
  9
$AUPREC
 70
     2
  9
$MENU
  1
ACAD
  9
$ELEVATION
 40
0.0
  9
$PELEVATION
 40
0.0
  9
$THICKNESS
 40
0.0
  9
$LIMCHECK
 70
     0
  9
$BLIPMODE
 70
     0
  9
$CHAMFERA
 40
2.0
  9
$CHAMFERB
 40
2.0
  9
$SKPOLY
 70
     0
  9
$TDCREATE
 40
2453095.4929404748
  9
$TDUPDATE
 40
2457267.5515185068
  9
$TDINDWG
 40
18.387431539400001
  9
$TDUSRTIMER
 40
18.387430625
  9
$USRTIMER
 70
     1
  9
$ANGBASE
 50
0.0
  9
$ANGDIR
 70
     0
  9
$PDMODE
 70
    35
  9
$PDSIZE
 40
2.0
  9
$PLINEWID
 40
0.0
  9
$COORDS
 70
     1
  9
$SPLFRAME
 70
     0
  9
$SPLINETYPE
 70
     6
  9
$SPLINESEGS
 70
     8
  9
$ATTDIA
 70
     0
  9
$ATTREQ
 70
     1
  9
$HANDLING
 70
     1
  9
$HANDSEED
  5
1241E1
  9
$SURFTAB1
 70
     6
  9
$SURFTAB2
 70
     6
  9
$SURFTYPE
 70
     6
  9
$SURFU
 70
     6
  9
$SURFV
 70
     6
  9
$UCSNAME
  2

  9
$UCSORG
 10
0.0
 20
0.0
 30
0.0
  9
$UCSXDIR
 10
1.0
 20
0.0
 30
0.0
  9
$UCSYDIR
 10
0.0
 20
1.0
 30
0.0
  9
$PUCSNAME
  2

  9
$PUCSORG
 10
0.0
 20
0.0
 30
0.0
  9
$PUCSXDIR
 10
1.0
 20
0.0
 30
0.0
  9
$PUCSYDIR
 10
0.0
 20
1.0
 30
0.0
  9
$USERI1
 70
     0
  9
$USERI2
 70
     0
  9
$USERI3
 70
     0
  9
$USERI4
 70
     0
  9
$USERI5
 70
     0
  9
$USERR1
 40
0.0
  9
$USERR2
 40
0.0
  9
$USERR3
 40
0.0
  9
$USERR4
 40
0.0
  9
$USERR5
 40
0.0
  9
$WORLDVIEW
 70
     1
  9
$SHADEDGE
 70
     3
  9
$SHADEDIF
 70
    70
  9
$TILEMODE
 70
     1
  9
$MAXACTVP
 70
    64
  9
$PLIMCHECK
 70
     0
  9
$PEXTMIN
 10
29.066066288948051
 20
20.366566777229309
 30
0.0
  9
$PEXTMAX
 10
261.5945966005325
 20
183.29910099506381
 30
0.0
  9
$PLIMMIN
 10
-3.17498779296875
 20
-3.1749999523162842
  9
$PLIMMAX
 10
293.83566284179687
 20
206.8406708240509
  9
$UNITMODE
 70
     0
  9
$VISRETAIN
 70
     1
  9
$PLINEGEN
 70
     0
  9
$PSLTSCALE
 70
     1
  0
ENDSEC
  0
SECTION
  2
TABLES
  0
TABLE
  2
VPORT
 70
     1
  0
VPORT
  2
*ACTIVE
 70
     0
 10
0.0
 20
0.0
 11
1.0
 21
1.0
 12
6674.4643565943379
 22
-574.20531729260892
 13
0.0
 23
0.0
 14
1.0
 24
1.0
 15
0.0
 25
0.0
 16
0.0
 26
0.0
 36
1.0
 17
0.0
 27
0.0
 37
0.0
 40
6418.9974133677179
 41
1.6494178525226391
 42
50.0
 43
0.0
 44
0.0
 50
0.0
 51
0.0
 71
     0
 72
   600
 73
     1
 74
     1
 75
     0
 76
     0
 77
     0
 78
     0
  0
ENDTAB
  0
TABLE
  2
LTYPE
 70
     4
  0
LTYPE
  2
CONTINUOUS
 70
     0
  3
Solid line
 72
    65
 73
     0
 40
0.0
  0
LTYPE
  2
PHANTOM2
 70
     0
  3
___ _ _ ___ _ _ ___ _ _ ___ _ _
 72
    65
 73
     6
 40
1.25
 49
0.625
 49
-0.125
 49
0.125
 49
-0.125
 49
0.125
 49
-0.125
  0
LTYPE
  2
ACAD_ISO08W100
 70
     0
  3
ISO long-dash short-dash ____ __ ____ __ ____ _
 72
    65
 73
     4
 40
36.0
 49
24.0
 49
-3.0
 49
6.0
 49
-3.0
  0
LTYPE
  2
ACAD_ISO02W100
 70
     0
  3
ISO dash __ __ __ __ __ __ __ __ __ __ __ __ __
 72
    65
 73
     2
 40
15.0
 49
12.0
 49
-3.0
  0
ENDTAB
  0
TABLE
  2
LAYER
 70
     7
  0
LAYER
  2
0
 70
     0
 62
     7
  6
CONTINUOUS
  0
LAYER
  2
OBJECT
 70
     0
 62
     4
  6
CONTINUOUS
  0
LAYER
  2
DEFPOINTS
 70
     0
 62
     7
  6
CONTINUOUS
  0
LAYER
  2
HIDDEN
 70
     0
 62
     2
  6
ACAD_ISO02W100
  0
LAYER
  2
CENTER
 70
     0
 62
     2
  6
ACAD_ISO08W100
  0
LAYER
  2
DOTS
 70
     0
 62
     1
  6
CONTINUOUS
  0
LAYER
  2
SLIM
 70
     0
 62
     2
  6
CONTINUOUS
  0
ENDTAB
  0
TABLE
  2
STYLE
 70
     2
  0
STYLE
  2
STANDARD
 70
     0
 40
0.0
 41
0.75
 50
0.0
 71
     0
 42
4.0
  3
simplex.shx
  4
bigfont.shx
  0
ENDTAB
  0
TABLE
  2
VIEW
 70
     0
  0
ENDTAB
  0
TABLE
  2
UCS
 70
     0
  0
ENDTAB
  0
TABLE
  2
APPID
 70
    18
  0
APPID
  2
ACAD
 70
     0
  0
APPID
  2
ACADANNOTATIVE
 70
     0
  0
APPID
  2
ACAD_PSEXT
 70
     0
  0
APPID
  2
ACAD_EXEMPT_FROM_CAD_STANDARDS
 70
     0
  0
APPID
  2
ACAECLAYERSTANDARD
 70
     0
  0
APPID
  2
ACAUTHENVIRON
 70
     0
  0
APPID
  2
ACDBDYNAMICBLOCKTRUENAME
 70
     0
  0
APPID
  2
ACDBDYNAMICBLOCKGUID
 70
     0
  0
APPID
  2
ACDBBLOCKREPETAG
 70
     0
  0
APPID
  2
ACDBBLOCKREPBTAG
 70
     0
  0
APPID
  2
ACAD_NAV_VCDISPLAY
 70
     0
  0
APPID
  2
ACAD_DSTYLE_DIMRADIAL_EXTENSION
 70
     0
  0
APPID
  2
ACAD_DSTYLE_DIMJAG
 70
     0
  0
APPID
  2
ACAD_DSTYLE_DIMTALN
 70
     0
  0
APPID
  2
ACADANNOPO
 70
     0
  0
APPID
  2
GRADIENTCOLOR1ACI
 70
     0
  0
APPID
  2
GRADIENTCOLOR2ACI
 70
     0
  0
APPID
  2
ACAD_MLEADERVER
 70
     0
  0
ENDTAB
  0
TABLE
  2
DIMSTYLE
 70
     3
  0
DIMSTYLE
  2
STANDARD
 70
     0
  3

  4

  5

  6

  7

 40
1.0
 41
0.18
 42
0.0625
 43
0.38
 44
0.18
 45
0.0
 46
0.0
 47
0.0
 48
0.0
140
0.18
141
0.09
142
0.0
143
25.399999999999999
144
1.0
145
0.0
146
1.0
147
0.09
 71
     0
 72
     0
 73
     1
 74
     1
 75
     0
 76
     0
 77
     0
 78
     0
170
     0
171
     2
172
     0
173
     0
174
     0
175
     0
176
     0
177
     0
178
     0
  0
DIMSTYLE
  2
S10
 70
     0
  3

  4

  5

  6

  7

 40
10.0
 41
2.0
 42
1.0
 43
10.0
 44
1.0
 45
0.0
 46
0.0
 47
0.0
 48
0.0
140
3.2000000000000002
141
0.0
142
0.0
143
25.399999999999999
144
1.0
145
0.0
146
1.0
147
0.9
 71
     0
 72
     0
 73
     0
 74
     0
 75
     0
 76
     0
 77
     1
 78
     8
170
     0
171
     2
172
     1
173
     0
174
     0
175
     0
176
   256
177
   256
178
   256
  0
ENDTAB
  0
ENDSEC
  0
SECTION
  2
BLOCKS
  0
BLOCK
  8
0
  2
$MODEL_SPACE
 70
     0
 10
0.0
 20
0.0
 30
0.0
  3
$MODEL_SPACE
  1

  0
ENDBLK
  5
12410A
  8
0
  0
BLOCK
 67
     1
  8
0
  2
$PAPER_SPACE
 70
     0
 10
0.0
 20
0.0
 30
0.0
  3
$PAPER_SPACE
  1

  0
ENDBLK
  5
124106
 67
     1
  8
0
  0
BLOCK
  8
0
  2
_OPEN30
 70
     0
 10
0.0
 20
0.0
 30
0.0
  3
_OPEN30
  1

  0
LINE
  5
202
  8
0
  6
BYBLOCK
 62
     0
 10
-1.0
 20
0.26794919
 30
0.0
 11
0.0
 21
0.0
 31
0.0
  0
LINE
  5
203
  8
0
  6
BYBLOCK
 62
     0
 10
0.0
 20
0.0
 30
0.0
 11
-1.0
 21
-0.26794919
 31
0.0
  0
LINE
  5
204
  8
0
  6
BYBLOCK
 62
     0
 10
0.0
 20
0.0
 30
0.0
 11
-1.0
 21
0.0
 31
0.0
  0
ENDBLK
  5
206
  8
0
  0
ENDSEC
  0
SECTION
  2
ENTITIES
  0
ARC
  5
123B3F
  8
OBJECT
 10
12000.0
 20
-199.99999999999909
 30
0.0
 40
50.0
 50
298.81994300000417
 51
228.52376955964741
1001
ACDBBLOCKREPETAG
1070
     1
1071
      185
1005
123B3F
  0
LINE
  5
123B40
  8
SLIM
 10
11927.30183005652
 20
-155.95484036957691
 30
0.0
 11
11955.954840369581
 21
-127.30183005652231
 31
0.0
1001
GRADIENTCOLOR1ACI
1070
     5
1001
GRADIENTCOLOR2ACI
1070
     2
1001
ACAD
1010
0.0
1020
0.0
1030
0.0
1001
ACDBBLOCKREPETAG
1070
     1
1071
      442
1005
123B40
  0
LINE
  5
123B41
  8
SLIM
 10
11919.48615207084
 20
-172.75077447633191
 30
0.0
 11
11938.29030895727
 21
-153.94661758989659
 31
0.0
1001
GRADIENTCOLOR1ACI
1070
     5
1001
GRADIENTCOLOR2ACI
1070
     2
1001
ACAD
1010
0.0
1020
0.0
1030
0.0
1001
ACDBBLOCKREPETAG
1070
     1
1071
      443
1005
123B41
  0
LINE
  5
123B42
  8
SLIM
 10
11953.9466175899
 20
-138.29030895727169
 30
0.0
 11
11972.75077447633
 21
-119.4861520708364
 31
0.0
1001
GRADIENTCOLOR1ACI
1070
     5
1001
GRADIENTCOLOR2ACI
1070
     2
1001
ACAD
1010
0.0
1020
0.0
1030
0.0
1001
ACDBBLOCKREPETAG
1070
     1
1071
      444
1005
123B42
  0
LINE
  5
123B43
  8
SLIM
 10
11916.35966799338
 20
-184.8575146748604
 30
0.0
 11
11927.69595835578
 21
-173.5212243124561
 31
0.0
1001
GRADIENTCOLOR1ACI
1070
     5
1001
GRADIENTCOLOR2ACI
1070
     2
1001
ACAD
1010
0.0
1020
0.0
1030
0.0
1001
ACDBBLOCKREPETAG
1070
     1
1071
      445
1005
123B43
  0
LINE
  5
123B44
  8
SLIM
 10
11973.521224312461
 20
-127.6959583557812
 30
0.0
 11
11984.857514674861
 21
-116.359667993377
 31
0.0
1001
GRADIENTCOLOR1ACI
1070
     5
1001
GRADIENTCOLOR2ACI
1070
     2
1001
ACAD
1010
0.0
1020
0.0
1030
0.0
1001
ACDBBLOCKREPETAG
1070
     1
1071
      446
1005
123B44
  0
LINE
  5
123B45
  8
SLIM
 10
11915.14405758905
 20
-195.0533812002549
 30
0.0
 11
11924.30302164318
 21
-185.89441714612491
 31
0.0
1001
GRADIENTCOLOR1ACI
1070
     5
1001
GRADIENTCOLOR2ACI
1070
     2
1001
ACAD
1010
0.0
1020
0.0
1030
0.0
1001
ACDBBLOCKREPETAG
1070
     1
1071
      447
1005
123B45
  0
LINE
  5
123B46
  8
SLIM
 10
11985.894417146121
 20
-124.30302164318159
 30
0.0
 11
11995.05338120025
 21
-115.1440575890517
 31
0.0
1001
GRADIENTCOLOR1ACI
1070
     5
1001
GRADIENTCOLOR2ACI
1070
     2
1001
ACAD
1010
0.0
1020
0.0
1030
0.0
1001
ACDBBLOCKREPETAG
1070
     1
1071
      448
1005
123B46
  0
LINE
  5
123B47
  8
SLIM
 10
11915.097963557469
 20
-204.07973135290339
 30
0.0
 11
11919.17769491037
 21
-199.99999999999909
 31
0.0
1001
GRADIENTCOLOR1ACI
1070
     5
1001
GRADIENTCOLOR2ACI
1070
     2
1001
ACAD
1010
0.0
1020
0.0
1030
0.0
1001
ACDBBLOCKREPETAG
1070
     1
1071
      449
1005
123B47
  0
LINE
  5
123B48
  8
SLIM
 10
12000.0
 20
-119.1776949103767
 30
0.0
 11
12004.0797313529
 21
-115.0979635574724
 31
0.0
1001
GRADIENTCOLOR1ACI
1070
     5
1001
GRADIENTCOLOR2ACI
1070
     2
1001
ACAD
1010
0.0
1020
0.0
1030
0.0
1001
ACDBBLOCKREPETAG
1070
     1
1071
      450
1005
123B48
  0
LINE
  5
123B49
  8
SLIM
 10
11919.17769491037
 20
-199.99999999999909
 30
0.0
 11
11923.09996216117
 21
-196.07773274920581
 31
0.0
1001
GRADIENTCOLOR1ACI
1070
     5
1001
GRADIENTCOLOR2ACI
1070
     2
1001
ACAD
1010
0.0
1020
0.0
1030
0.0
1001
ACDBBLOCKREPETAG
1070
     1
1071
      451
1005
123B49
  0
LINE
  5
123B4A
  8
SLIM
 10
11996.077732749211
 20
-123.0999621611699
 30
0.0
 11
12000.0
 21
-119.1776949103767
 31
0.0
1001
GRADIENTCOLOR1ACI
1070
     5
1001
GRADIENTCOLOR2ACI
1070
     2
1001
ACAD
1010
0.0
1020
0.0
1030
0.0
1001
ACDBBLOCKREPETAG
1070
     1
1071
      452
1005
123B4A
  0
LINE
  5
123B4B
  8
SLIM
 10
11915.889972620869
 20
-212.26797841057399
 30
0.0
 11
11923.16223077717
 21
-204.9957202542767
 31
0.0
1001
GRADIENTCOLOR1ACI
1070
     5
1001
GRADIENTCOLOR2ACI
1070
     2
1001
ACAD
1010
0.0
1020
0.0
1030
0.0
1001
ACDBBLOCKREPETAG
1070
     1
1071
      453
1005
123B4B
  0
LINE
  5
123B4C
  8
SLIM
 10
12004.995720254279
 20
-123.1622307771683
 30
0.0
 11
12012.267978410569
 21
-115.88997262087101
 31
0.0
1001
GRADIENTCOLOR1ACI
1070
     5
1001
GRADIENTCOLOR2ACI
1070
     2
1001
ACAD
1010
0.0
1020
0.0
1030
0.0
1001
ACDBBLOCKREPETAG
1070
     1
1071
      454
1005
123B4C
  0
LINE
  5
123B4D
  8
SLIM
 10
11917.338265695151
 20
-219.79994145736151
 30
0.0
 11
11924.11014778555
 21
-213.02805936696359
 31
0.0
1001
GRADIENTCOLOR1ACI
1070
     5
1001
GRADIENTCOLOR2ACI
1070
     2
1001
ACAD
1010
0.0
1020
0.0
1030
0.0
1001
ACDBBLOCKREPETAG
1070
     1
1071
      455
1005
123B4D
  0
LINE
  5
123B4E
  8
SLIM
 10
12013.028059366959
 20
-124.1101477855505
 30
0.0
 11
12019.799941457361
 21
-117.3382656951526
 31
0.0
1001
GRADIENTCOLOR1ACI
1070
     5
1001
GRADIENTCOLOR2ACI
1070
     2
1001
ACAD
1010
0.0
1020
0.0
1030
0.0
1001
ACDBBLOCKREPETAG
1070
     1
1071
      456
1005
123B4E
  0
LINE
  5
123B4F
  8
SLIM
 10
11919.331259406301
 20
-226.78720386727881
 30
0.0
 11
11925.744381959341
 21
-220.3740813142449
 31
0.0
1001
GRADIENTCOLOR1ACI
1070
     5
1001
GRADIENTCOLOR2ACI
1070
     2
1001
ACAD
1010
0.0
1020
0.0
1030
0.0
1001
ACDBBLOCKREPETAG
1070
     1
1071
      457
1005
123B4F
  0
LINE
  5
123B50
  8
SLIM
 10
12020.374081314239
 20
-125.7443819593384
 30
0.0
 11
12026.787203867279
 21
-119.3312594063044
 31
0.0
1001
GRADIENTCOLOR1ACI
1070
     5
1001
GRADIENTCOLOR2ACI
1070
     2
1001
ACAD
1010
0.0
1020
0.0
1030
0.0
1001
ACDBBLOCKREPETAG
1070
     1
1071
      458
1005
123B50
  0
LINE
  5
123B51
  8
SLIM
 10
11921.79571631862
 20
-233.30300307603289
 30
0.0
 11
11927.946247395779
 21
-227.1524719988744
 31
0.0
1001
GRADIENTCOLOR1ACI
1070
     5
1001
GRADIENTCOLOR2ACI
1070
     2
1001
ACAD
1010
0.0
1020
0.0
1030
0.0
1001
ACDBBLOCKREPETAG
1070
     1
1071
      459
1005
123B51
  0
LINE
  5
123B52
  8
SLIM
 10
12027.15247199887
 20
-127.946247395778
 30
0.0
 11
12033.303003076029
 21
-121.7957163186195
 31
0.0
1001
GRADIENTCOLOR1ACI
1070
     5
1001
GRADIENTCOLOR2ACI
1070
     2
1001
ACAD
1010
0.0
1020
0.0
1030
0.0
1001
ACDBBLOCKREPETAG
1070
     1
1071
      460
1005
123B52
  0
LINE
  5
123B53
  8
SLIM
 10
11924.681663531341
 20
-239.39731198437769
 30
0.0
 11
11930.63987686439
 21
-233.4390986513296
 31
0.0
1001
GRADIENTCOLOR1ACI
1070
     5
1001
GRADIENTCOLOR2ACI
1070
     2
1001
ACAD
1010
0.0
1020
0.0
1030
0.0
1001
ACDBBLOCKREPETAG
1070
     1
1071
      461
1005
123B53
  0
LINE
  5
123B54
  8
SLIM
 10
12033.43909865133
 20
-130.63987686439199
 30
0.0
 11
12039.397311984379
 21
-124.6816635313439
 31
0.0
1001
GRADIENTCOLOR1ACI
1070
     5
1001
GRADIENTCOLOR2ACI
1070
     2
1001
ACAD
1010
0.0
1020
0.0
1030
0.0
1001
ACDBBLOCKREPETAG
1070
     1
1071
      462
1005
123B54
  0
LINE
  5
123B55
  8
SLIM
 10
11927.954461102419
 20
-245.10477053436691
 30
0.0
 11
11933.77500701499
 21
-239.28422462179751
 31
0.0
1001
GRADIENTCOLOR1ACI
1070
     5
1001
GRADIENTCOLOR2ACI
1070
     2
1001
ACAD
1010
0.0
1020
0.0
1030
0.0
1001
ACDBBLOCKREPETAG
1070
     1
1071
      463
1005
123B55
  0
LINE
  5
123B56
  8
SLIM
 10
12039.284224621801
 20
-133.77500701499321
 30
0.0
 11
12045.10477053437
 21
-127.95446110242381
 31
0.0
1001
GRADIENTCOLOR1ACI
1070
     5
1001
GRADIENTCOLOR2ACI
1070
     2
1001
ACAD
1010
0.0
1020
0.0
1030
0.0
1001
ACDBBLOCKREPETAG
1070
     1
1071
      464
1005
123B56
  0
LINE
  5
123B57
  8
SLIM
 10
11931.59033196866
 20
-250.4491557891954
 30
0.0
 11
11937.31820758806
 21
-244.72128016980341
 31
0.0
1001
GRADIENTCOLOR1ACI
1070
     5
1001
GRADIENTCOLOR2ACI
1070
     2
1001
ACAD
1010
0.0
1020
0.0
1030
0.0
1001
ACDBBLOCKREPETAG
1070
     1
1071
      465
1005
123B57
  0
LINE
  5
123B58
  8
SLIM
 10
12044.721280169801
 20
-137.31820758805651
 30
0.0
 11
12050.449155789191
 21
-131.59033196866449
 31
0.0
1001
GRADIENTCOLOR1ACI
1070
     5
1001
GRADIENTCOLOR2ACI
1070
     2
1001
ACAD
1010
0.0
1020
0.0
1030
0.0
1001
ACDBBLOCKREPETAG
1070
     1
1071
      466
1005
123B58
  0
LINE
  5
123B59
  8
SLIM
 10
11935.573749692519
 20
-255.4459941864034
 30
0.0
 11
11941.24811054159
 21
-249.77163333734029
 31
0.0
1001
GRADIENTCOLOR1ACI
1070
     5
1001
GRADIENTCOLOR2ACI
1070
     2
1001
ACAD
1010
0.0
1020
0.0
1030
0.0
1001
ACDBBLOCKREPETAG
1070
     1
1071
      467
1005
123B59
  0
LINE
  5
123B5A
  8
SLIM
 10
12053.01974387892
 20
-137.99999999999909
 30
0.0
 11
12055.445994186401
 21
-135.57374969252561
 31
0.0
1001
GRADIENTCOLOR1ACI
1070
     5
1001
GRADIENTCOLOR2ACI
1070
     2
1001
ACAD
1010
0.0
1020
0.0
1030
0.0
1001
ACDBBLOCKREPETAG
1070
     1
1071
      468
1005
123B5A
  0
LINE
  5
123B5B
  8
SLIM
 10
11939.895923599141
 20
-260.10407640085572
 30
0.0
 11
11945.55277784863
 21
-254.44722215136329
 31
0.0
1001
GRADIENTCOLOR1ACI
1070
     5
1001
GRADIENTCOLOR2ACI
1070
     2
1001
ACAD
1010
0.0
1020
0.0
1030
0.0
1001
ACDBBLOCKREPETAG
1070
     1
1071
      469
1005
123B5B
  0
LINE
  5
123B5C
  8
SLIM
 10
11944.55400581359
 20
-264.4262503074724
 30
0.0
 11
11950.228366662661
 21
-258.75188945840949
 31
0.0
1001
GRADIENTCOLOR1ACI
1070
     5
1001
GRADIENTCOLOR2ACI
1070
     2
1001
ACAD
1010
0.0
1020
0.0
1030
0.0
1001
ACDBBLOCKREPETAG
1070
     1
1071
      470
1005
123B5C
  0
LINE
  5
123B5D
  8
SLIM
 10
11949.5508442108
 20
-268.40966803133369
 30
0.0
 11
11955.27871983019
 21
-262.68179241194167
 31
0.0
1001
GRADIENTCOLOR1ACI
1070
     5
1001
GRADIENTCOLOR2ACI
1070
     2
1001
ACAD
1010
0.0
1020
0.0
1030
0.0
1001
ACDBBLOCKREPETAG
1070
     1
1071
      471
1005
123B5D
  0
LINE
  5
123B5E
  8
SLIM
 10
11954.89522946563
 20
-272.04553889757437
 30
0.0
 11
11960.715775378199
 21
-266.22499298500497
 31
0.0
1001
GRADIENTCOLOR1ACI
1070
     5
1001
GRADIENTCOLOR2ACI
1070
     2
1001
ACAD
1010
0.0
1020
0.0
1030
0.0
1001
ACDBBLOCKREPETAG
1070
     1
1071
      472
1005
123B5E
  0
LINE
  5
123B5F
  8
SLIM
 10
11960.602688015621
 20
-275.31833646865431
 30
0.0
 11
11966.56090134867
 21
-269.36012313560622
 31
0.0
1001
GRADIENTCOLOR1ACI
1070
     5
1001
GRADIENTCOLOR2ACI
1070
     2
1001
ACAD
1010
0.0
1020
0.0
1030
0.0
1001
ACDBBLOCKREPETAG
1070
     1
1071
      473
1005
123B5F
  0
LINE
  5
123B60
  8
SLIM
 10
11966.69699692396
 20
-278.20428368137868
 30
0.0
 11
11972.847528001121
 21
-272.05375260422022
 31
0.0
1001
GRADIENTCOLOR1ACI
1070
     5
1001
GRADIENTCOLOR2ACI
1070
     2
1001
ACAD
1010
0.0
1020
0.0
1030
0.0
1001
ACDBBLOCKREPETAG
1070
     1
1071
      474
1005
123B60
  0
LINE
  5
123B61
  8
SLIM
 10
11973.212796132721
 20
-280.66874059369371
 30
0.0
 11
11979.62591868575
 21
-274.25561804065973
 31
0.0
1001
GRADIENTCOLOR1ACI
1070
     5
1001
GRADIENTCOLOR2ACI
1070
     2
1001
ACAD
1010
0.0
1020
0.0
1030
0.0
1001
ACDBBLOCKREPETAG
1070
     1
1071
      475
1005
123B61
  0
LINE
  5
123B62
  8
SLIM
 10
11980.200058542639
 20
-282.6617343048456
 30
0.0
 11
11986.97194063303
 21
-275.88985221444773
 31
0.0
1001
GRADIENTCOLOR1ACI
1070
     5
1001
GRADIENTCOLOR2ACI
1070
     2
1001
ACAD
1010
0.0
1020
0.0
1030
0.0
1001
ACDBBLOCKREPETAG
1070
     1
1071
      476
1005
123B62
  0
LINE
  5
123B63
  8
SLIM
 10
11987.73202158942
 20
-284.11002737912702
 30
0.0
 11
11995.004279745721
 21
-276.83776922282988
 31
0.0
1001
GRADIENTCOLOR1ACI
1070
     5
1001
GRADIENTCOLOR2ACI
1070
     2
1001
ACAD
1010
0.0
1020
0.0
1030
0.0
1001
ACDBBLOCKREPETAG
1070
     1
1071
      477
1005
123B63
  0
LINE
  5
123B64
  8
SLIM
 10
11995.9202686471
 20
-284.9020364425258
 30
0.0
 11
12000.0
 21
-280.82230508962152
 31
0.0
1001
GRADIENTCOLOR1ACI
1070
     5
1001
GRADIENTCOLOR2ACI
1070
     2
1001
ACAD
1010
0.0
1020
0.0
1030
0.0
1001
ACDBBLOCKREPETAG
1070
     1
1071
      478
1005
123B64
  0
LINE
  5
123B65
  8
SLIM
 10
12000.0
 20
-280.82230508962152
 30
0.0
 11
12003.922267250789
 21
-276.90003783882821
 31
0.0
1001
GRADIENTCOLOR1ACI
1070
     5
1001
GRADIENTCOLOR2ACI
1070
     2
1001
ACAD
1010
0.0
1020
0.0
1030
0.0
1001
ACDBBLOCKREPETAG
1070
     1
1071
      479
1005
123B65
  0
LINE
  5
123B66
  8
SLIM
 10
12004.94661879974
 20
-284.85594241094651
 30
0.0
 11
12014.10558285387
 21
-275.6969783568166
 31
0.0
1001
GRADIENTCOLOR1ACI
1070
     5
1001
GRADIENTCOLOR2ACI
1070
     2
1001
ACAD
1010
0.0
1020
0.0
1030
0.0
1001
ACDBBLOCKREPETAG
1070
     1
1071
      480
1005
123B66
  0
LINE
  5
123B67
  8
SLIM
 10
12015.142485325139
 20
-283.64033200662118
 30
0.0
 11
12026.478775687539
 21
-272.30404164421702
 31
0.0
1001
GRADIENTCOLOR1ACI
1070
     5
1001
GRADIENTCOLOR2ACI
1070
     2
1001
ACAD
1010
0.0
1020
0.0
1030
0.0
1001
ACDBBLOCKREPETAG
1070
     1
1071
      481
1005
123B67
  0
LINE
  5
123B68
  8
SLIM
 10
12027.249225523659
 20
-280.51384792916173
 30
0.0
 11
12045.76307345283
 21
-261.99999999999909
 31
0.0
1001
GRADIENTCOLOR1ACI
1070
     5
1001
GRADIENTCOLOR2ACI
1070
     2
1001
ACAD
1010
0.0
1020
0.0
1030
0.0
1001
ACDBBLOCKREPETAG
1070
     1
1071
      482
1005
123B68
  0
LINE
  5
123B69
  8
SLIM
 10
12044.045159630419
 20
-272.69816994347582
 30
0.0
 11
12054.743329573899
 21
-261.99999999999909
 31
0.0
1001
GRADIENTCOLOR1ACI
1070
     5
1001
GRADIENTCOLOR2ACI
1070
     2
1001
ACAD
1010
0.0
1020
0.0
1030
0.0
1001
ACDBBLOCKREPETAG
1070
     1
1071
      483
1005
123B69
  0
LINE
  5
123B6A
  8
CENTER
 10
12080.0
 20
-199.99999999999909
 30
0.0
 11
11900.0
 21
-199.99999999999909
 31
0.0
1001
ACDBBLOCKREPETAG
1070
     1
1071
      187
1005
123B6A
  0
LINE
  5
123B6B
  8
CENTER
 10
12000.0
 20
-299.99999999999898
 30
0.0
 11
12000.0
 21
-99.999999999999091
 31
0.0
1001
ACDBBLOCKREPETAG
1070
     1
1071
      188
1005
123B6B
  0
CIRCLE
  5
123B6C
  8
OBJECT
 10
12000.0
 20
-199.99999999999909
 30
0.0
 40
70.0
1001
ACDBBLOCKREPETAG
1070
     1
1071
      189
1005
123B6C
  0
CIRCLE
  5
123B6D
  8
OBJECT
 10
12000.0
 20
-199.99999999999909
 30
0.0
 40
77.0
1001
ACDBBLOCKREPETAG
1070
     1
1071
      190
1005
123B6D
  0
LINE
  5
123B6E
  8
OBJECT
 10
12045.661800227321
 20
-137.99999999999909
 30
0.0
 11
12080.0
 21
-137.99999999999909
 31
0.0
1001
ACDBBLOCKREPETAG
1070
     1
1071
      192
1005
123B6E
  0
LINE
  5
123B6F
  8
OBJECT
 10
12045.661800227321
 20
-261.99999999999909
 30
0.0
 11
12080.0
 21
-261.99999999999909
 31
0.0
1001
ACDBBLOCKREPETAG
1070
     1
1071
      193
1005
123B6F
  0
ARC
  5
123B70
  8
OBJECT
 10
12000.0
 20
-199.99999999999909
 30
0.0
 40
85.0
 50
46.837102859853147
 51
313.16289714014681
1001
ACDBBLOCKREPETAG
1070
     1
1071
      202
1005
123B70
  0
LINE
  5
123B71
  8
OBJECT
 10
12024.1029330933
 20
-243.80694712371681
 30
0.0
 11
12020.659656999989
 21
-232.55462199999889
 31
0.0
1001
ACDBBLOCKREPETAG
1070
     1
1071
      321
1005
123B71
  0
LINE
  5
123B72
  8
OBJECT
 10
11986.79274990136
 20
-218.22553374208019
 30
0.0
 11
12020.659656999989
 21
-232.5546219999969
 31
0.0
1001
ACDBBLOCKREPETAG
1070
     1
1071
      323
1005
123B72
  0
ARC
  5
123B73
  8
OBJECT
 10
11982.8961697619
 20
-227.4351299990567
 30
0.0
 40
10.0
 50
67.066778292911366
 51
154.01473437031629
1001
ACDBBLOCKREPETAG
1070
     1
1071
      324
1005
123B73
  0
ARC
  5
123B74
  8
OBJECT
 10
11986.148839038129
 20
-225.55386256729159
 30
0.0
 40
7.0
 50
67.066778292911366
 51
154.0147337749826
1001
ACDBBLOCKREPETAG
1070
     1
1071
      325
1005
123B74
  0
LINE
  5
123B75
  8
OBJECT
 10
11969.4199755553
 20
-243.89888500818171
 30
0.0
 11
11979.85649182323
 21
-222.48688253356801
 31
0.0
1001
ACDBBLOCKREPETAG
1070
     1
1071
      353
1005
123B75
  0
LINE
  5
123B76
  8
OBJECT
 10
11965.29721690061
 20
-240.71813901882729
 30
0.0
 11
11973.90710226651
 21
-223.05373004430751
 31
0.0
1001
ACDBBLOCKREPETAG
1070
     1
1071
      354
1005
123B76
  0
ARC
  5
123B77
  8
OBJECT
 10
11976.57969530731
 20
-207.1289369828437
 30
0.0
 40
60.031113246032611
 50
314.07020130422319
 51
322.33936106089681
1001
ACDBBLOCKREPETAG
1070
     1
1071
      355
1005
123B77
  0
CIRCLE
  5
123B78
  8
OBJECT
 10
12000.0
 20
-199.99999999999909
 30
0.0
 40
53.5
1001
ACDBBLOCKREPETAG
1070
     1
1071
      356
1005
123B78
  0
POINT
  5
123B79
  8
DOTS
 10
12000.0
 20
-199.99999999999909
 30
0.0
 50
270.0
1001
ACDBBLOCKREPETAG
1070
     1
1071
      365
1005
123B79
  0
LINE
  5
123B7A
  8
OBJECT
 10
12202.99999999998
 20
-483.0000000000008
 30
0.0
 11
12209.99999999998
 21
-483.0000000000008
 31
0.0
1001
ACDBBLOCKREPETAG
1070
     1
1071
       83
1005
123B7A
  0
LINE
  5
123B7B
  8
OBJECT
 10
12209.99999999998
 20
-483.0000000000008
 30
0.0
 11
12209.99999999998
 21
-607.0000000000008
 31
0.0
1001
ACDBBLOCKREPETAG
1070
     1
1071
       84
1005
123B7B
  0
LINE
  5
123B7C
  8
OBJECT
 10
12085.99999999998
 20
-553.3502637757274
 30
0.0
 11
12085.99999999998
 21
-655.00000000000068
 31
0.0
1001
ACDBBLOCKREPETAG
1070
     1
1071
       85
1005
123B7C
  0
LINE
  5
123B7D
  8
OBJECT
 10
12209.99999999998
 20
-607.0000000000008
 30
0.0
 11
12202.99999999998
 21
-607.0000000000008
 31
0.0
1001
ACDBBLOCKREPETAG
1070
     1
1071
       86
1005
123B7D
  0
LINE
  5
123B7E
  8
OBJECT
 10
12202.99999999998
 20
-607.0000000000008
 30
0.0
 11
12202.99999999998
 21
-483.0000000000008
 31
0.0
1001
ACDBBLOCKREPETAG
1070
     1
1071
       87
1005
123B7E
  0
LINE
  5
123B7F
  8
CENTER
 10
12134.99999999998
 20
-545.0000000000008
 30
0.0
 11
12224.99999999998
 21
-545.0000000000008
 31
0.0
1001
ACDBBLOCKREPETAG
1070
     1
1071
       88
1005
123B7F
  0
LINE
  5
123B80
  8
OBJECT
 10
12079.99999999998
 20
-658.0
 30
0.0
 11
12082.99999999998
 21
-658.0000000000008
 31
0.0
1001
ACDBBLOCKREPETAG
1070
     1
1071
       89
1005
123B80
  0
ARC
  5
123B81
  8
OBJECT
 10
12082.99999999998
 20
-655.00000000000068
 30
0.0
 40
3.0
 50
270.0
 51
0.0
1001
ACDBBLOCKREPETAG
1070
     1
1071
       90
1005
123B81
  0
LINE
  5
123B82
  8
OBJECT
 10
12202.99999999998
 20
-486.0000000000008
 30
0.0
 11
12166.99999999998
 21
-486.0000000000008
 31
0.0
1001
ACDBBLOCKREPETAG
1070
     1
1071
       91
1005
123B82
  0
LINE
  5
123B83
  8
OBJECT
 10
12166.99999999998
 20
-486.0000000000008
 30
0.0
 11
12166.99999999998
 21
-604.0000000000008
 31
0.0
1001
ACDBBLOCKREPETAG
1070
     1
1071
       92
1005
123B83
  0
LINE
  5
123B84
  8
OBJECT
 10
12162.99999999998
 20
-490.5000000000008
 30
0.0
 11
12162.99999999998
 21
-599.5000000000008
 31
0.0
1001
ACDBBLOCKREPETAG
1070
     1
1071
       93
1005
123B84
  0
LINE
  5
123B85
  8
OBJECT
 10
12162.99999999998
 20
-490.5000000000008
 30
0.0
 11
12149.99999999998
 21
-490.5000000000008
 31
0.0
1001
ACDBBLOCKREPETAG
1070
     1
1071
       94
1005
123B85
  0
LINE
  5
123B86
  8
OBJECT
 10
12166.99999999998
 20
-604.0000000000008
 30
0.0
 11
12202.99999999998
 21
-604.0000000000008
 31
0.0
1001
ACDBBLOCKREPETAG
1070
     1
1071
       95
1005
123B86
  0
LINE
  5
123B87
  8
OBJECT
 10
12166.99999999998
 20
-486.0000000000008
 30
0.0
 11
12162.99999999998
 21
-490.5000000000008
 31
0.0
1001
ACDBBLOCKREPETAG
1070
     1
1071
       96
1005
123B87
  0
LINE
  5
123B88
  8
OBJECT
 10
12149.99999999998
 20
-490.5000000000008
 30
0.0
 11
12149.99999999998
 21
-575.74491827928784
 31
0.0
1001
ACDBBLOCKREPETAG
1070
     1
1071
       97
1005
123B88
  0
ARC
  5
123B89
  8
OBJECT
 10
12152.799999999979
 20
-585.00000000000068
 30
0.0
 40
85.0
 50
91.887731891831123
 51
143.1301023540934
1001
ACDBBLOCKREPETAG
1070
     1
1071
       98
1005
123B89
  0
LINE
  5
123B8A
  8
HIDDEN
 10
12157.99999999998
 20
-500.5000000000008
 30
0.0
 11
12157.99999999998
 21
-589.5000000000008
 31
0.0
1001
ACDBBLOCKREPETAG
1070
     1
1071
      100
1005
123B8A
  0
LINE
  5
123B8B
  8
OBJECT
 10
12085.99999999998
 20
-651.07945073181781
 30
0.0
 11
12156.631319921031
 21
-599.5000000000008
 31
0.0
1001
ACDBBLOCKREPETAG
1070
     1
1071
      101
1005
123B8B
  0
LINE
  5
123B8C
  8
OBJECT
 10
12079.99999999998
 20
-534.0
 30
0.0
 11
12084.799999999979
 21
-534.0
 31
0.0
1001
ACDBBLOCKREPETAG
1070
     1
1071
      102
1005
123B8C
  0
LINE
  5
123B8D
  8
OBJECT
 10
12085.99999999998
 20
-553.35026377573001
 30
0.0
 11
12084.799999999979
 21
-534.0
 31
0.0
1001
ACDBBLOCKREPETAG
1070
     1
1071
      103
1005
123B8D
  0
LINE
  5
123B8E
  8
OBJECT
 10
12162.99999999998
 20
-599.5000000000008
 30
0.0
 11
12156.631319921031
 21
-599.5000000000008
 31
0.0
1001
ACDBBLOCKREPETAG
1070
     1
1071
      104
1005
123B8E
  0
LINE
  5
123B8F
  8
OBJECT
 10
12166.99999999998
 20
-604.0000000000008
 30
0.0
 11
12162.99999999998
 21
-599.5000000000008
 31
0.0
1001
ACDBBLOCKREPETAG
1070
     1
1071
      105
1005
123B8F
  0
LINE
  5
123B90
  8
OBJECT
 10
12202.99999999998
 20
-137.99999999999909
 30
0.0
 11
12209.99999999998
 21
-137.99999999999909
 31
0.0
1001
ACDBBLOCKREPETAG
1070
     1
1071
       85
1005
123B90
  0
LINE
  5
123B91
  8
OBJECT
 10
12209.99999999998
 20
-137.99999999999909
 30
0.0
 11
12209.99999999998
 21
-261.99999999999909
 31
0.0
1001
ACDBBLOCKREPETAG
1070
     1
1071
       86
1005
123B91
  0
LINE
  5
123B92
  8
OBJECT
 10
12209.99999999998
 20
-261.99999999999909
 30
0.0
 11
12202.99999999998
 21
-261.99999999999909
 31
0.0
1001
ACDBBLOCKREPETAG
1070
     1
1071
       87
1005
123B92
  0
LINE
  5
123B93
  8
OBJECT
 10
12202.99999999998
 20
-261.99999999999909
 30
0.0
 11
12202.99999999998
 21
-137.99999999999909
 31
0.0
1001
ACDBBLOCKREPETAG
1070
     1
1071
       88
1005
123B93
  0
LINE
  5
123B94
  8
CENTER
 10
12224.99999999998
 20
-199.99999999999909
 30
0.0
 11
12080.0
 21
-199.99999999999909
 31
0.0
1001
ACDBBLOCKREPETAG
1070
     1
1071
       89
1005
123B94
  0
LINE
  5
123B95
  8
OBJECT
 10
12149.999974964179
 20
-245.0000000000027
 30
0.0
 11
12086.0
 21
-244.99999999999909
 31
0.0
1001
ACDBBLOCKREPETAG
1070
     1
1071
       90
1005
123B95
  0
LINE
  5
123B96
  8
OBJECT
 10
12149.999974964179
 20
-154.99999999999909
 30
0.0
 11
12086.0
 21
-154.99999999999909
 31
0.0
1001
ACDBBLOCKREPETAG
1070
     1
1071
       91
1005
123B96
  0
LINE
  5
123B97
  8
OBJECT
 10
12202.99999999998
 20
-140.99999999999909
 30
0.0
 11
12166.99999999998
 21
-140.99999999999909
 31
0.0
1001
ACDBBLOCKREPETAG
1070
     1
1071
       92
1005
123B97
  0
LINE
  5
123B98
  8
OBJECT
 10
12166.99999999998
 20
-140.99999999999909
 30
0.0
 11
12166.99999999998
 21
-258.99999999999909
 31
0.0
1001
ACDBBLOCKREPETAG
1070
     1
1071
       93
1005
123B98
  0
LINE
  5
123B99
  8
OBJECT
 10
12166.99999999998
 20
-258.99999999999909
 30
0.0
 11
12202.99999999998
 21
-258.99999999999909
 31
0.0
1001
ACDBBLOCKREPETAG
1070
     1
1071
       94
1005
123B99
  0
LINE
  5
123B9A
  8
OBJECT
 10
12162.99999999998
 20
-145.49999999999909
 30
0.0
 11
12149.99999999998
 21
-145.49999999999909
 31
0.0
1001
ACDBBLOCKREPETAG
1070
     1
1071
       95
1005
123B9A
  0
LINE
  5
123B9B
  8
OBJECT
 10
12149.99999999998
 20
-254.49999999999909
 30
0.0
 11
12162.99999999998
 21
-254.49999999999909
 31
0.0
1001
ACDBBLOCKREPETAG
1070
     1
1071
       96
1005
123B9B
  0
LINE
  5
123B9C
  8
OBJECT
 10
12162.99999999998
 20
-254.49999999999909
 30
0.0
 11
12162.99999999998
 21
-145.49999999999909
 31
0.0
1001
ACDBBLOCKREPETAG
1070
     1
1071
       97
1005
123B9C
  0
LINE
  5
123B9D
  8
OBJECT
 10
12166.99999999998
 20
-140.99999999999909
 30
0.0
 11
12162.99999999998
 21
-145.49999999999909
 31
0.0
1001
ACDBBLOCKREPETAG
1070
     1
1071
       98
1005
123B9D
  0
LINE
  5
123B9E
  8
OBJECT
 10
12166.99999999998
 20
-258.99999999999909
 30
0.0
 11
12162.99999999998
 21
-254.49999999999909
 31
0.0
1001
ACDBBLOCKREPETAG
1070
     1
1071
       99
1005
123B9E
  0
LINE
  5
123B9F
  8
OBJECT
 10
12083.0
 20
-137.99999999999909
 30
0.0
 11
12080.0
 21
-137.99999999999909
 31
0.0
1001
ACDBBLOCKREPETAG
1070
     1
1071
      100
1005
123B9F
  0
ARC
  5
123BA0
  8
OBJECT
 10
12083.0
 20
-140.99999999999909
 30
0.0
 40
3.0
 50
0.0
 51
90.0
1001
ACDBBLOCKREPETAG
1070
     1
1071
      101
1005
123BA0
  0
LINE
  5
123BA1
  8
OBJECT
 10
12080.0
 20
-261.99999999999909
 30
0.0
 11
12083.0
 21
-261.99999999999909
 31
0.0
1001
ACDBBLOCKREPETAG
1070
     1
1071
      102
1005
123BA1
  0
ARC
  5
123BA2
  8
OBJECT
 10
12083.0
 20
-258.99999999999909
 30
0.0
 40
3.0
 50
270.0
 51
0.0
1001
ACDBBLOCKREPETAG
1070
     1
1071
      103
1005
123BA2
  0
LINE
  5
123BA3
  8
OBJECT
 10
12086.0
 20
-258.99999999999909
 30
0.0
 11
12086.0
 21
-210.3227903203578
 31
0.0
1001
ACDBBLOCKREPETAG
1070
     1
1071
      104
1005
123BA3
  0
LINE
  5
123BA4
  8
OBJECT
 10
12086.0
 20
-189.6772096796403
 30
0.0
 11
12086.0
 21
-140.99999999999909
 31
0.0
1001
ACDBBLOCKREPETAG
1070
     1
1071
      105
1005
123BA4
  0
LINE
  5
123BA5
  8
HIDDEN
 10
12157.99999999998
 20
-155.49999999999909
 30
0.0
 11
12157.99999999998
 21
-244.49999999999909
 31
0.0
1001
ACDBBLOCKREPETAG
1070
     1
1071
      106
1005
123BA5
  0
LINE
  5
123BA6
  8
OBJECT
 10
12149.999974964179
 20
-254.4999509238105
 30
0.0
 11
12149.999974964179
 21
-145.4999509238105
 31
0.0
1001
ACDBBLOCKREPETAG
1070
     1
1071
      108
1005
123BA6
  0
ARC
  5
123BA7
  8
OBJECT
 10
12129.800000000019
 20
-199.99999999999909
 30
0.0
 40
45.000000000000547
 50
90.0
 51
270.0
1001
ACDBBLOCKREPETAG
1070
     1
1071
      109
1005
123BA7
  0
LINE
  5
123BA8
  8
OBJECT
 10
11923.0
 20
-470.99999999999937
 30
0.0
 11
11923.0
 21
-449.99999999999937
 31
0.0
1001
ACDBBLOCKREPETAG
1070
     1
1071
        0
1005
123BA8
  0
LINE
  5
123BA9
  8
OBJECT
 10
11923.0
 20
-449.99999999999937
 30
0.0
 11
12077.0
 21
-449.99999999999937
 31
0.0
1001
ACDBBLOCKREPETAG
1070
     1
1071
        1
1005
123BA9
  0
LINE
  5
123BAA
  8
HIDDEN
 10
11943.0
 20
-519.99999999999955
 30
0.0
 11
12057.0
 21
-519.99999999999955
 31
0.0
1001
ACDBBLOCKREPETAG
1070
     1
1071
        2
1005
123BAA
  0
LINE
  5
123BAB
  8
OBJECT
 10
12077.0
 20
-449.99999999999937
 30
0.0
 11
12077.0
 21
-470.99999999999937
 31
0.0
1001
ACDBBLOCKREPETAG
1070
     1
1071
        3
1005
123BAB
  0
LINE
  5
123BAC
  8
OBJECT
 10
12077.0
 20
-470.99999999999937
 30
0.0
 11
11923.0
 21
-470.99999999999937
 31
0.0
1001
ACDBBLOCKREPETAG
1070
     1
1071
        4
1005
123BAC
  0
LINE
  5
123BAD
  8
CENTER
 10
12000.0
 20
-434.99999999999949
 30
0.0
 11
12000.0
 21
-789.99999999999955
 31
0.0
1001
ACDBBLOCKREPETAG
1070
     1
1071
        5
1005
123BAD
  0
LINE
  5
123BAE
  8
OBJECT
 10
11925.0
 20
-533.99999999999955
 30
0.0
 11
11925.0
 21
-777.99999999999955
 31
0.0
1001
ACDBBLOCKREPETAG
1070
     1
1071
        6
1005
123BAE
  0
LINE
  5
123BAF
  8
OBJECT
 10
11928.0
 20
-470.99999999999937
 30
0.0
 11
11928.0
 21
-533.99999999999955
 31
0.0
1001
ACDBBLOCKREPETAG
1070
     1
1071
        7
1005
123BAF
  0
LINE
  5
123BB0
  8
OBJECT
 10
12072.0
 20
-533.99999999999955
 30
0.0
 11
12072.0
 21
-470.99999999999937
 31
0.0
1001
ACDBBLOCKREPETAG
1070
     1
1071
        8
1005
123BB0
  0
LINE
  5
123BB1
  8
OBJECT
 10
11920.0
 20
-777.99999999999955
 30
0.0
 11
12080.0
 21
-777.99999999999955
 31
0.0
1001
ACDBBLOCKREPETAG
1070
     1
1071
        9
1005
123BB1
  0
LINE
  5
123BB2
  8
OBJECT
 10
12080.0
 20
-533.99999999999955
 30
0.0
 11
11925.0
 21
-533.99999999999955
 31
0.0
1001
ACDBBLOCKREPETAG
1070
     1
1071
       10
1005
123BB2
  0
LINE
  5
123BB3
  8
OBJECT
 10
11920.0
 20
-777.99999999999955
 30
0.0
 11
11920.0
 21
-789.99999999999955
 31
0.0
1001
ACDBBLOCKREPETAG
1070
     1
1071
       11
1005
123BB3
  0
LINE
  5
123BB4
  8
OBJECT
 10
11920.0
 20
-789.99999999999955
 30
0.0
 11
12080.0
 21
-789.99999999999955
 31
0.0
1001
ACDBBLOCKREPETAG
1070
     1
1071
       12
1005
123BB4
  0
LINE
  5
123BB5
  8
OBJECT
 10
12080.0
 20
-789.99999999999955
 30
0.0
 11
12080.0
 21
-777.99999999999955
 31
0.0
1001
ACDBBLOCKREPETAG
1070
     1
1071
       13
1005
123BB5
  0
LINE
  5
123BB6
  8
OBJECT
 10
12074.99999999986
 20
-657.99999999985039
 30
0.0
 11
12075.0
 21
-777.99999999999955
 31
0.0
1001
ACDBBLOCKREPETAG
1070
     1
1071
       15
1005
123BB6
  0
LINE
  5
123BB7
  8
OBJECT
 10
12074.99999080298
 20
-657.99998602702135
 30
0.0
 11
12080.0
 21
-657.99998602702135
 31
0.0
1001
ACDBBLOCKREPETAG
1070
     1
1071
       16
1005
123BB7
  0
ARC
  5
123BB8
  8
OBJECT
 10
12200.687274671671
 20
-649.40809941010718
 30
0.0
 40
170.6350503965856
 50
137.44134459184301
 51
149.91949581337221
1001
ACDBBLOCKREPETAG
1070
     1
1071
       17
1005
123BB8
  0
ARC
  5
123BB9
  8
OBJECT
 10
12118.845598704051
 20
-605.88272669536445
 30
0.0
 40
78.072222021763665
 50
147.4551531038623
 51
164.6636599771729
1001
ACDBBLOCKREPETAG
1070
     1
1071
       18
1005
123BB9
  0
ARC
  5
123BBA
  8
OBJECT
 10
12085.755434960871
 20
-595.99999999999955
 30
0.0
 40
43.55353926885617
 50
165.688452300753
 51
194.3115476992468
1001
ACDBBLOCKREPETAG
1070
     1
1071
       19
1005
123BBA
  0
ARC
  5
123BBB
  8
OBJECT
 10
12200.687274671671
 20
-542.59190058989179
 30
0.0
 40
170.6350503965856
 50
210.08050418662771
 51
222.55865540815699
1001
ACDBBLOCKREPETAG
1070
     1
1071
       20
1005
123BBB
  0
ARC
  5
123BBC
  8
OBJECT
 10
12118.845598704051
 20
-586.11727330463452
 30
0.0
 40
78.072222021763665
 50
195.3363400228271
 51
212.5448468961377
1001
ACDBBLOCKREPETAG
1070
     1
1071
       21
1005
123BBC
  0
POINT
  5
123BBD
  8
DOTS
 10
12000.0
 20
-654.99999999999966
 30
0.0
1001
ACDBBLOCKREPETAG
1070
     1
1071
      187
1005
123BBD
  0
ARC
  5
123BBE
  8
OBJECT
 10
10000.0
 20
-199.99999999999909
 30
0.0
 40
50.0
 50
298.81994300000417
 51
228.52376955964741
1001
ACDBBLOCKREPETAG
1070
     1
1071
      185
1005
123BBE
  0
LINE
  5
123BBF
  8
SLIM
 10
9927.3018300565236
 20
-155.95484036957691
 30
0.0
 11
9955.9548403695771
 21
-127.30183005652231
 31
0.0
1001
GRADIENTCOLOR1ACI
1070
     5
1001
GRADIENTCOLOR2ACI
1070
     2
1001
ACAD
1010
0.0
1020
0.0
1030
0.0
1001
ACDBBLOCKREPETAG
1070
     1
1071
      442
1005
123BBF
  0
LINE
  5
123BC0
  8
SLIM
 10
9919.4861520708382
 20
-172.75077447633191
 30
0.0
 11
9938.2903089572737
 21
-153.94661758989659
 31
0.0
1001
GRADIENTCOLOR1ACI
1070
     5
1001
GRADIENTCOLOR2ACI
1070
     2
1001
ACAD
1010
0.0
1020
0.0
1030
0.0
1001
ACDBBLOCKREPETAG
1070
     1
1071
      443
1005
123BC0
  0
LINE
  5
123BC1
  8
SLIM
 10
9953.9466175898997
 20
-138.29030895727169
 30
0.0
 11
9972.7507744763316
 21
-119.4861520708364
 31
0.0
1001
GRADIENTCOLOR1ACI
1070
     5
1001
GRADIENTCOLOR2ACI
1070
     2
1001
ACAD
1010
0.0
1020
0.0
1030
0.0
1001
ACDBBLOCKREPETAG
1070
     1
1071
      444
1005
123BC1
  0
LINE
  5
123BC2
  8
SLIM
 10
9916.3596679933817
 20
-184.8575146748604
 30
0.0
 11
9927.6959583557837
 21
-173.5212243124561
 31
0.0
1001
GRADIENTCOLOR1ACI
1070
     5
1001
GRADIENTCOLOR2ACI
1070
     2
1001
ACAD
1010
0.0
1020
0.0
1030
0.0
1001
ACDBBLOCKREPETAG
1070
     1
1071
      445
1005
123BC2
  0
LINE
  5
123BC3
  8
SLIM
 10
9973.5212243124606
 20
-127.6959583557812
 30
0.0
 11
9984.8575146748644
 21
-116.359667993377
 31
0.0
1001
GRADIENTCOLOR1ACI
1070
     5
1001
GRADIENTCOLOR2ACI
1070
     2
1001
ACAD
1010
0.0
1020
0.0
1030
0.0
1001
ACDBBLOCKREPETAG
1070
     1
1071
      446
1005
123BC3
  0
LINE
  5
123BC4
  8
SLIM
 10
9915.1440575890538
 20
-195.0533812002549
 30
0.0
 11
9924.3030216431835
 21
-185.89441714612491
 31
0.0
1001
GRADIENTCOLOR1ACI
1070
     5
1001
GRADIENTCOLOR2ACI
1070
     2
1001
ACAD
1010
0.0
1020
0.0
1030
0.0
1001
ACDBBLOCKREPETAG
1070
     1
1071
      447
1005
123BC4
  0
LINE
  5
123BC5
  8
SLIM
 10
9985.8944171461262
 20
-124.30302164318159
 30
0.0
 11
9995.0533812002577
 21
-115.1440575890517
 31
0.0
1001
GRADIENTCOLOR1ACI
1070
     5
1001
GRADIENTCOLOR2ACI
1070
     2
1001
ACAD
1010
0.0
1020
0.0
1030
0.0
1001
ACDBBLOCKREPETAG
1070
     1
1071
      448
1005
123BC5
  0
LINE
  5
123BC6
  8
SLIM
 10
9915.0979635574713
 20
-204.07973135290339
 30
0.0
 11
9919.1776949103787
 21
-199.99999999999909
 31
0.0
1001
GRADIENTCOLOR1ACI
1070
     5
1001
GRADIENTCOLOR2ACI
1070
     2
1001
ACAD
1010
0.0
1020
0.0
1030
0.0
1001
ACDBBLOCKREPETAG
1070
     1
1071
      449
1005
123BC6
  0
LINE
  5
123BC7
  8
SLIM
 10
10000.0
 20
-119.1776949103767
 30
0.0
 11
10004.0797313529
 21
-115.0979635574724
 31
0.0
1001
GRADIENTCOLOR1ACI
1070
     5
1001
GRADIENTCOLOR2ACI
1070
     2
1001
ACAD
1010
0.0
1020
0.0
1030
0.0
1001
ACDBBLOCKREPETAG
1070
     1
1071
      450
1005
123BC7
  0
LINE
  5
123BC8
  8
SLIM
 10
9919.1776949103787
 20
-199.99999999999909
 30
0.0
 11
9923.09996216117
 21
-196.07773274920581
 31
0.0
1001
GRADIENTCOLOR1ACI
1070
     5
1001
GRADIENTCOLOR2ACI
1070
     2
1001
ACAD
1010
0.0
1020
0.0
1030
0.0
1001
ACDBBLOCKREPETAG
1070
     1
1071
      451
1005
123BC8
  0
LINE
  5
123BC9
  8
SLIM
 10
9996.0777327492033
 20
-123.0999621611699
 30
0.0
 11
10000.0
 21
-119.1776949103767
 31
0.0
1001
GRADIENTCOLOR1ACI
1070
     5
1001
GRADIENTCOLOR2ACI
1070
     2
1001
ACAD
1010
0.0
1020
0.0
1030
0.0
1001
ACDBBLOCKREPETAG
1070
     1
1071
      452
1005
123BC9
  0
LINE
  5
123BCA
  8
SLIM
 10
9915.8899726208747
 20
-212.26797841057399
 30
0.0
 11
9923.1622307771686
 21
-204.9957202542767
 31
0.0
1001
GRADIENTCOLOR1ACI
1070
     5
1001
GRADIENTCOLOR2ACI
1070
     2
1001
ACAD
1010
0.0
1020
0.0
1030
0.0
1001
ACDBBLOCKREPETAG
1070
     1
1071
      453
1005
123BCA
  0
LINE
  5
123BCB
  8
SLIM
 10
10004.99572025427
 20
-123.1622307771683
 30
0.0
 11
10012.26797841056
 21
-115.88997262087101
 31
0.0
1001
GRADIENTCOLOR1ACI
1070
     5
1001
GRADIENTCOLOR2ACI
1070
     2
1001
ACAD
1010
0.0
1020
0.0
1030
0.0
1001
ACDBBLOCKREPETAG
1070
     1
1071
      454
1005
123BCB
  0
LINE
  5
123BCC
  8
SLIM
 10
9917.3382656951544
 20
-219.79994145736151
 30
0.0
 11
9924.1101477855536
 21
-213.02805936696359
 31
0.0
1001
GRADIENTCOLOR1ACI
1070
     5
1001
GRADIENTCOLOR2ACI
1070
     2
1001
ACAD
1010
0.0
1020
0.0
1030
0.0
1001
ACDBBLOCKREPETAG
1070
     1
1071
      455
1005
123BCC
  0
LINE
  5
123BCD
  8
SLIM
 10
10013.028059366959
 20
-124.1101477855505
 30
0.0
 11
10019.799941457361
 21
-117.3382656951526
 31
0.0
1001
GRADIENTCOLOR1ACI
1070
     5
1001
GRADIENTCOLOR2ACI
1070
     2
1001
ACAD
1010
0.0
1020
0.0
1030
0.0
1001
ACDBBLOCKREPETAG
1070
     1
1071
      456
1005
123BCD
  0
LINE
  5
123BCE
  8
SLIM
 10
9919.3312594063045
 20
-226.78720386727881
 30
0.0
 11
9925.7443819593445
 21
-220.3740813142449
 31
0.0
1001
GRADIENTCOLOR1ACI
1070
     5
1001
GRADIENTCOLOR2ACI
1070
     2
1001
ACAD
1010
0.0
1020
0.0
1030
0.0
1001
ACDBBLOCKREPETAG
1070
     1
1071
      457
1005
123BCE
  0
LINE
  5
123BCF
  8
SLIM
 10
10020.374081314239
 20
-125.7443819593384
 30
0.0
 11
10026.787203867279
 21
-119.3312594063044
 31
0.0
1001
GRADIENTCOLOR1ACI
1070
     5
1001
GRADIENTCOLOR2ACI
1070
     2
1001
ACAD
1010
0.0
1020
0.0
1030
0.0
1001
ACDBBLOCKREPETAG
1070
     1
1071
      458
1005
123BCF
  0
LINE
  5
123BD0
  8
SLIM
 10
9921.7957163186184
 20
-233.30300307603289
 30
0.0
 11
9927.9462473957792
 21
-227.1524719988744
 31
0.0
1001
GRADIENTCOLOR1ACI
1070
     5
1001
GRADIENTCOLOR2ACI
1070
     2
1001
ACAD
1010
0.0
1020
0.0
1030
0.0
1001
ACDBBLOCKREPETAG
1070
     1
1071
      459
1005
123BD0
  0
LINE
  5
123BD1
  8
SLIM
 10
10027.15247199887
 20
-127.946247395778
 30
0.0
 11
10033.303003076029
 21
-121.7957163186195
 31
0.0
1001
GRADIENTCOLOR1ACI
1070
     5
1001
GRADIENTCOLOR2ACI
1070
     2
1001
ACAD
1010
0.0
1020
0.0
1030
0.0
1001
ACDBBLOCKREPETAG
1070
     1
1071
      460
1005
123BD1
  0
LINE
  5
123BD2
  8
SLIM
 10
9924.6816635313444
 20
-239.39731198437769
 30
0.0
 11
9930.6398768643921
 21
-233.4390986513296
 31
0.0
1001
GRADIENTCOLOR1ACI
1070
     5
1001
GRADIENTCOLOR2ACI
1070
     2
1001
ACAD
1010
0.0
1020
0.0
1030
0.0
1001
ACDBBLOCKREPETAG
1070
     1
1071
      461
1005
123BD2
  0
LINE
  5
123BD3
  8
SLIM
 10
10033.43909865133
 20
-130.63987686439199
 30
0.0
 11
10039.39731198437
 21
-124.6816635313439
 31
0.0
1001
GRADIENTCOLOR1ACI
1070
     5
1001
GRADIENTCOLOR2ACI
1070
     2
1001
ACAD
1010
0.0
1020
0.0
1030
0.0
1001
ACDBBLOCKREPETAG
1070
     1
1071
      462
1005
123BD3
  0
LINE
  5
123BD4
  8
SLIM
 10
9927.9544611024248
 20
-245.10477053436691
 30
0.0
 11
9933.7750070149923
 21
-239.28422462179751
 31
0.0
1001
GRADIENTCOLOR1ACI
1070
     5
1001
GRADIENTCOLOR2ACI
1070
     2
1001
ACAD
1010
0.0
1020
0.0
1030
0.0
1001
ACDBBLOCKREPETAG
1070
     1
1071
      463
1005
123BD4
  0
LINE
  5
123BD5
  8
SLIM
 10
10039.284224621801
 20
-133.77500701499321
 30
0.0
 11
10045.104770534361
 21
-127.95446110242381
 31
0.0
1001
GRADIENTCOLOR1ACI
1070
     5
1001
GRADIENTCOLOR2ACI
1070
     2
1001
ACAD
1010
0.0
1020
0.0
1030
0.0
1001
ACDBBLOCKREPETAG
1070
     1
1071
      464
1005
123BD5
  0
LINE
  5
123BD6
  8
SLIM
 10
9931.5903319686659
 20
-250.4491557891954
 30
0.0
 11
9937.3182075880559
 21
-244.72128016980341
 31
0.0
1001
GRADIENTCOLOR1ACI
1070
     5
1001
GRADIENTCOLOR2ACI
1070
     2
1001
ACAD
1010
0.0
1020
0.0
1030
0.0
1001
ACDBBLOCKREPETAG
1070
     1
1071
      465
1005
123BD6
  0
LINE
  5
123BD7
  8
SLIM
 10
10044.721280169801
 20
-137.31820758805651
 30
0.0
 11
10050.449155789191
 21
-131.59033196866449
 31
0.0
1001
GRADIENTCOLOR1ACI
1070
     5
1001
GRADIENTCOLOR2ACI
1070
     2
1001
ACAD
1010
0.0
1020
0.0
1030
0.0
1001
ACDBBLOCKREPETAG
1070
     1
1071
      466
1005
123BD7
  0
LINE
  5
123BD8
  8
SLIM
 10
9935.5737496925303
 20
-255.4459941864034
 30
0.0
 11
9941.2481105415936
 21
-249.77163333734029
 31
0.0
1001
GRADIENTCOLOR1ACI
1070
     5
1001
GRADIENTCOLOR2ACI
1070
     2
1001
ACAD
1010
0.0
1020
0.0
1030
0.0
1001
ACDBBLOCKREPETAG
1070
     1
1071
      467
1005
123BD8
  0
LINE
  5
123BD9
  8
SLIM
 10
10053.019743878929
 20
-137.99999999999909
 30
0.0
 11
10055.445994186401
 21
-135.57374969252561
 31
0.0
1001
GRADIENTCOLOR1ACI
1070
     5
1001
GRADIENTCOLOR2ACI
1070
     2
1001
ACAD
1010
0.0
1020
0.0
1030
0.0
1001
ACDBBLOCKREPETAG
1070
     1
1071
      468
1005
123BD9
  0
LINE
  5
123BDA
  8
SLIM
 10
9939.8959235991442
 20
-260.10407640085572
 30
0.0
 11
9945.5527778486357
 21
-254.44722215136329
 31
0.0
1001
GRADIENTCOLOR1ACI
1070
     5
1001
GRADIENTCOLOR2ACI
1070
     2
1001
ACAD
1010
0.0
1020
0.0
1030
0.0
1001
ACDBBLOCKREPETAG
1070
     1
1071
      469
1005
123BDA
  0
LINE
  5
123BDB
  8
SLIM
 10
9944.5540058135957
 20
-264.4262503074724
 30
0.0
 11
9950.2283666626608
 21
-258.75188945840949
 31
0.0
1001
GRADIENTCOLOR1ACI
1070
     5
1001
GRADIENTCOLOR2ACI
1070
     2
1001
ACAD
1010
0.0
1020
0.0
1030
0.0
1001
ACDBBLOCKREPETAG
1070
     1
1071
      470
1005
123BDB
  0
LINE
  5
123BDC
  8
SLIM
 10
9949.5508442108039
 20
-268.40966803133369
 30
0.0
 11
9955.2787198301976
 21
-262.68179241194167
 31
0.0
1001
GRADIENTCOLOR1ACI
1070
     5
1001
GRADIENTCOLOR2ACI
1070
     2
1001
ACAD
1010
0.0
1020
0.0
1030
0.0
1001
ACDBBLOCKREPETAG
1070
     1
1071
      471
1005
123BDC
  0
LINE
  5
123BDD
  8
SLIM
 10
9954.8952294656337
 20
-272.04553889757437
 30
0.0
 11
9960.7157753781994
 21
-266.22499298500497
 31
0.0
1001
GRADIENTCOLOR1ACI
1070
     5
1001
GRADIENTCOLOR2ACI
1070
     2
1001
ACAD
1010
0.0
1020
0.0
1030
0.0
1001
ACDBBLOCKREPETAG
1070
     1
1071
      472
1005
123BDD
  0
LINE
  5
123BDE
  8
SLIM
 10
9960.6026880156223
 20
-275.31833646865431
 30
0.0
 11
9966.5609013486755
 21
-269.36012313560622
 31
0.0
1001
GRADIENTCOLOR1ACI
1070
     5
1001
GRADIENTCOLOR2ACI
1070
     2
1001
ACAD
1010
0.0
1020
0.0
1030
0.0
1001
ACDBBLOCKREPETAG
1070
     1
1071
      473
1005
123BDE
  0
LINE
  5
123BDF
  8
SLIM
 10
9966.6969969239635
 20
-278.20428368137868
 30
0.0
 11
9972.8475280011244
 21
-272.05375260422022
 31
0.0
1001
GRADIENTCOLOR1ACI
1070
     5
1001
GRADIENTCOLOR2ACI
1070
     2
1001
ACAD
1010
0.0
1020
0.0
1030
0.0
1001
ACDBBLOCKREPETAG
1070
     1
1071
      474
1005
123BDF
  0
LINE
  5
123BE0
  8
SLIM
 10
9973.2127961327205
 20
-280.66874059369371
 30
0.0
 11
9979.6259186857551
 21
-274.25561804065973
 31
0.0
1001
GRADIENTCOLOR1ACI
1070
     5
1001
GRADIENTCOLOR2ACI
1070
     2
1001
ACAD
1010
0.0
1020
0.0
1030
0.0
1001
ACDBBLOCKREPETAG
1070
     1
1071
      475
1005
123BE0
  0
LINE
  5
123BE1
  8
SLIM
 10
9980.2000585426413
 20
-282.6617343048456
 30
0.0
 11
9986.971940633035
 21
-275.88985221444773
 31
0.0
1001
GRADIENTCOLOR1ACI
1070
     5
1001
GRADIENTCOLOR2ACI
1070
     2
1001
ACAD
1010
0.0
1020
0.0
1030
0.0
1001
ACDBBLOCKREPETAG
1070
     1
1071
      476
1005
123BE1
  0
LINE
  5
123BE2
  8
SLIM
 10
9987.7320215894215
 20
-284.11002737912702
 30
0.0
 11
9995.0042797457209
 21
-276.83776922282988
 31
0.0
1001
GRADIENTCOLOR1ACI
1070
     5
1001
GRADIENTCOLOR2ACI
1070
     2
1001
ACAD
1010
0.0
1020
0.0
1030
0.0
1001
ACDBBLOCKREPETAG
1070
     1
1071
      477
1005
123BE2
  0
LINE
  5
123BE3
  8
SLIM
 10
9995.9202686470962
 20
-284.9020364425258
 30
0.0
 11
10000.0
 21
-280.82230508962152
 31
0.0
1001
GRADIENTCOLOR1ACI
1070
     5
1001
GRADIENTCOLOR2ACI
1070
     2
1001
ACAD
1010
0.0
1020
0.0
1030
0.0
1001
ACDBBLOCKREPETAG
1070
     1
1071
      478
1005
123BE3
  0
LINE
  5
123BE4
  8
SLIM
 10
10000.0
 20
-280.82230508962152
 30
0.0
 11
10003.922267250789
 21
-276.90003783882821
 31
0.0
1001
GRADIENTCOLOR1ACI
1070
     5
1001
GRADIENTCOLOR2ACI
1070
     2
1001
ACAD
1010
0.0
1020
0.0
1030
0.0
1001
ACDBBLOCKREPETAG
1070
     1
1071
      479
1005
123BE4
  0
LINE
  5
123BE5
  8
SLIM
 10
10004.94661879974
 20
-284.85594241094651
 30
0.0
 11
10014.10558285387
 21
-275.6969783568166
 31
0.0
1001
GRADIENTCOLOR1ACI
1070
     5
1001
GRADIENTCOLOR2ACI
1070
     2
1001
ACAD
1010
0.0
1020
0.0
1030
0.0
1001
ACDBBLOCKREPETAG
1070
     1
1071
      480
1005
123BE5
  0
LINE
  5
123BE6
  8
SLIM
 10
10015.142485325139
 20
-283.64033200662118
 30
0.0
 11
10026.478775687539
 21
-272.30404164421702
 31
0.0
1001
GRADIENTCOLOR1ACI
1070
     5
1001
GRADIENTCOLOR2ACI
1070
     2
1001
ACAD
1010
0.0
1020
0.0
1030
0.0
1001
ACDBBLOCKREPETAG
1070
     1
1071
      481
1005
123BE6
  0
LINE
  5
123BE7
  8
SLIM
 10
10027.249225523659
 20
-280.51384792916173
 30
0.0
 11
10045.76307345283
 21
-261.99999999999909
 31
0.0
1001
GRADIENTCOLOR1ACI
1070
     5
1001
GRADIENTCOLOR2ACI
1070
     2
1001
ACAD
1010
0.0
1020
0.0
1030
0.0
1001
ACDBBLOCKREPETAG
1070
     1
1071
      482
1005
123BE7
  0
LINE
  5
123BE8
  8
SLIM
 10
10044.045159630419
 20
-272.69816994347582
 30
0.0
 11
10054.743329573899
 21
-261.99999999999909
 31
0.0
1001
GRADIENTCOLOR1ACI
1070
     5
1001
GRADIENTCOLOR2ACI
1070
     2
1001
ACAD
1010
0.0
1020
0.0
1030
0.0
1001
ACDBBLOCKREPETAG
1070
     1
1071
      483
1005
123BE8
  0
LINE
  5
123BE9
  8
CENTER
 10
10080.0
 20
-199.99999999999909
 30
0.0
 11
9900.0
 21
-199.99999999999909
 31
0.0
1001
ACDBBLOCKREPETAG
1070
     1
1071
      187
1005
123BE9
  0
LINE
  5
123BEA
  8
CENTER
 10
10000.0
 20
-299.99999999999898
 30
0.0
 11
10000.0
 21
-99.999999999999091
 31
0.0
1001
ACDBBLOCKREPETAG
1070
     1
1071
      188
1005
123BEA
  0
CIRCLE
  5
123BEB
  8
OBJECT
 10
10000.0
 20
-199.99999999999909
 30
0.0
 40
70.0
1001
ACDBBLOCKREPETAG
1070
     1
1071
      189
1005
123BEB
  0
CIRCLE
  5
123BEC
  8
OBJECT
 10
10000.0
 20
-199.99999999999909
 30
0.0
 40
77.0
1001
ACDBBLOCKREPETAG
1070
     1
1071
      190
1005
123BEC
  0
LINE
  5
123BED
  8
OBJECT
 10
10045.661800227321
 20
-137.99999999999909
 30
0.0
 11
10080.0
 21
-137.99999999999909
 31
0.0
1001
ACDBBLOCKREPETAG
1070
     1
1071
      192
1005
123BED
  0
LINE
  5
123BEE
  8
OBJECT
 10
10045.661800227321
 20
-261.99999999999909
 30
0.0
 11
10080.0
 21
-261.99999999999909
 31
0.0
1001
ACDBBLOCKREPETAG
1070
     1
1071
      193
1005
123BEE
  0
ARC
  5
123BEF
  8
OBJECT
 10
10000.0
 20
-199.99999999999909
 30
0.0
 40
85.0
 50
46.837102859853147
 51
313.16289714014681
1001
ACDBBLOCKREPETAG
1070
     1
1071
      202
1005
123BEF
  0
LINE
  5
123BF0
  8
OBJECT
 10
10024.1029330933
 20
-243.80694712371681
 30
0.0
 11
10020.659656999989
 21
-232.55462199999889
 31
0.0
1001
ACDBBLOCKREPETAG
1070
     1
1071
      321
1005
123BF0
  0
LINE
  5
123BF1
  8
OBJECT
 10
9986.7927499013749
 20
-218.22553374208019
 30
0.0
 11
10020.659656999989
 21
-232.5546219999969
 31
0.0
1001
ACDBBLOCKREPETAG
1070
     1
1071
      323
1005
123BF1
  0
ARC
  5
123BF2
  8
OBJECT
 10
9982.8961697618997
 20
-227.4351299990567
 30
0.0
 40
10.0
 50
67.066778292911366
 51
154.01473437031629
1001
ACDBBLOCKREPETAG
1070
     1
1071
      324
1005
123BF2
  0
ARC
  5
123BF3
  8
OBJECT
 10
9986.1488390381292
 20
-225.55386256729159
 30
0.0
 40
7.0
 50
67.066778292911366
 51
154.0147337749826
1001
ACDBBLOCKREPETAG
1070
     1
1071
      325
1005
123BF3
  0
LINE
  5
123BF4
  8
OBJECT
 10
9969.4199755553
 20
-243.89888500818171
 30
0.0
 11
9979.8564918232369
 21
-222.48688253356801
 31
0.0
1001
ACDBBLOCKREPETAG
1070
     1
1071
      353
1005
123BF4
  0
LINE
  5
123BF5
  8
OBJECT
 10
9965.2972169006098
 20
-240.71813901882729
 30
0.0
 11
9973.9071022665084
 21
-223.05373004430751
 31
0.0
1001
ACDBBLOCKREPETAG
1070
     1
1071
      354
1005
123BF5
  0
ARC
  5
123BF6
  8
OBJECT
 10
9976.5796953073132
 20
-207.1289369828437
 30
0.0
 40
60.031113246032611
 50
314.07020130422319
 51
322.33936106089681
1001
ACDBBLOCKREPETAG
1070
     1
1071
      355
1005
123BF6
  0
CIRCLE
  5
123BF7
  8
OBJECT
 10
10000.0
 20
-199.99999999999909
 30
0.0
 40
53.5
1001
ACDBBLOCKREPETAG
1070
     1
1071
      356
1005
123BF7
  0
POINT
  5
123BF8
  8
DOTS
 10
10000.0
 20
-199.99999999999909
 30
0.0
 50
270.0
1001
ACDBBLOCKREPETAG
1070
     1
1071
      365
1005
123BF8
  0
LINE
  5
123BF9
  8
OBJECT
 10
10202.99999999998
 20
-483.0000000000008
 30
0.0
 11
10209.99999999998
 21
-483.0000000000008
 31
0.0
1001
ACDBBLOCKREPETAG
1070
     1
1071
       83
1005
123BF9
  0
LINE
  5
123BFA
  8
OBJECT
 10
10209.99999999998
 20
-483.0000000000008
 30
0.0
 11
10209.99999999998
 21
-607.0000000000008
 31
0.0
1001
ACDBBLOCKREPETAG
1070
     1
1071
       84
1005
123BFA
  0
LINE
  5
123BFB
  8
OBJECT
 10
10085.99999999998
 20
-553.3502637757274
 30
0.0
 11
10085.99999999998
 21
-655.00000000000068
 31
0.0
1001
ACDBBLOCKREPETAG
1070
     1
1071
       85
1005
123BFB
  0
LINE
  5
123BFC
  8
OBJECT
 10
10209.99999999998
 20
-607.0000000000008
 30
0.0
 11
10202.99999999998
 21
-607.0000000000008
 31
0.0
1001
ACDBBLOCKREPETAG
1070
     1
1071
       86
1005
123BFC
  0
LINE
  5
123BFD
  8
OBJECT
 10
10202.99999999998
 20
-607.0000000000008
 30
0.0
 11
10202.99999999998
 21
-483.0000000000008
 31
0.0
1001
ACDBBLOCKREPETAG
1070
     1
1071
       87
1005
123BFD
  0
LINE
  5
123BFE
  8
CENTER
 10
10134.99999999998
 20
-545.0000000000008
 30
0.0
 11
10224.99999999998
 21
-545.0000000000008
 31
0.0
1001
ACDBBLOCKREPETAG
1070
     1
1071
       88
1005
123BFE
  0
LINE
  5
123BFF
  8
OBJECT
 10
10079.99999999998
 20
-658.0
 30
0.0
 11
10082.99999999998
 21
-658.0000000000008
 31
0.0
1001
ACDBBLOCKREPETAG
1070
     1
1071
       89
1005
123BFF
  0
ARC
  5
123C00
  8
OBJECT
 10
10082.99999999998
 20
-655.00000000000068
 30
0.0
 40
3.0
 50
270.0
 51
0.0
1001
ACDBBLOCKREPETAG
1070
     1
1071
       90
1005
123C00
  0
LINE
  5
123C01
  8
OBJECT
 10
10202.99999999998
 20
-486.0000000000008
 30
0.0
 11
10166.99999999998
 21
-486.0000000000008
 31
0.0
1001
ACDBBLOCKREPETAG
1070
     1
1071
       91
1005
123C01
  0
LINE
  5
123C02
  8
OBJECT
 10
10166.99999999998
 20
-486.0000000000008
 30
0.0
 11
10166.99999999998
 21
-604.0000000000008
 31
0.0
1001
ACDBBLOCKREPETAG
1070
     1
1071
       92
1005
123C02
  0
LINE
  5
123C03
  8
OBJECT
 10
10162.99999999998
 20
-490.5000000000008
 30
0.0
 11
10162.99999999998
 21
-599.5000000000008
 31
0.0
1001
ACDBBLOCKREPETAG
1070
     1
1071
       93
1005
123C03
  0
LINE
  5
123C04
  8
OBJECT
 10
10162.99999999998
 20
-490.5000000000008
 30
0.0
 11
10149.99999999998
 21
-490.5000000000008
 31
0.0
1001
ACDBBLOCKREPETAG
1070
     1
1071
       94
1005
123C04
  0
LINE
  5
123C05
  8
OBJECT
 10
10166.99999999998
 20
-604.0000000000008
 30
0.0
 11
10202.99999999998
 21
-604.0000000000008
 31
0.0
1001
ACDBBLOCKREPETAG
1070
     1
1071
       95
1005
123C05
  0
LINE
  5
123C06
  8
OBJECT
 10
10166.99999999998
 20
-486.0000000000008
 30
0.0
 11
10162.99999999998
 21
-490.5000000000008
 31
0.0
1001
ACDBBLOCKREPETAG
1070
     1
1071
       96
1005
123C06
  0
LINE
  5
123C07
  8
OBJECT
 10
10149.99999999998
 20
-490.5000000000008
 30
0.0
 11
10149.99999999998
 21
-575.74491827928784
 31
0.0
1001
ACDBBLOCKREPETAG
1070
     1
1071
       97
1005
123C07
  0
ARC
  5
123C08
  8
OBJECT
 10
10152.799999999979
 20
-585.00000000000068
 30
0.0
 40
85.0
 50
91.887731891831123
 51
143.1301023540934
1001
ACDBBLOCKREPETAG
1070
     1
1071
       98
1005
123C08
  0
LINE
  5
123C09
  8
HIDDEN
 10
10157.99999999998
 20
-500.5000000000008
 30
0.0
 11
10157.99999999998
 21
-589.5000000000008
 31
0.0
1001
ACDBBLOCKREPETAG
1070
     1
1071
      100
1005
123C09
  0
LINE
  5
123C0A
  8
OBJECT
 10
10085.99999999998
 20
-651.07945073181781
 30
0.0
 11
10156.631319921031
 21
-599.5000000000008
 31
0.0
1001
ACDBBLOCKREPETAG
1070
     1
1071
      101
1005
123C0A
  0
LINE
  5
123C0B
  8
OBJECT
 10
10079.99999999998
 20
-534.0
 30
0.0
 11
10084.799999999979
 21
-534.0
 31
0.0
1001
ACDBBLOCKREPETAG
1070
     1
1071
      102
1005
123C0B
  0
LINE
  5
123C0C
  8
OBJECT
 10
10085.99999999998
 20
-553.35026377573001
 30
0.0
 11
10084.799999999979
 21
-534.0
 31
0.0
1001
ACDBBLOCKREPETAG
1070
     1
1071
      103
1005
123C0C
  0
LINE
  5
123C0D
  8
OBJECT
 10
10162.99999999998
 20
-599.5000000000008
 30
0.0
 11
10156.631319921031
 21
-599.5000000000008
 31
0.0
1001
ACDBBLOCKREPETAG
1070
     1
1071
      104
1005
123C0D
  0
LINE
  5
123C0E
  8
OBJECT
 10
10166.99999999998
 20
-604.0000000000008
 30
0.0
 11
10162.99999999998
 21
-599.5000000000008
 31
0.0
1001
ACDBBLOCKREPETAG
1070
     1
1071
      105
1005
123C0E
  0
LINE
  5
123C0F
  8
OBJECT
 10
10202.99999999998
 20
-137.99999999999909
 30
0.0
 11
10209.99999999998
 21
-137.99999999999909
 31
0.0
1001
ACDBBLOCKREPETAG
1070
     1
1071
       85
1005
123C0F
  0
LINE
  5
123C10
  8
OBJECT
 10
10209.99999999998
 20
-137.99999999999909
 30
0.0
 11
10209.99999999998
 21
-261.99999999999909
 31
0.0
1001
ACDBBLOCKREPETAG
1070
     1
1071
       86
1005
123C10
  0
LINE
  5
123C11
  8
OBJECT
 10
10209.99999999998
 20
-261.99999999999909
 30
0.0
 11
10202.99999999998
 21
-261.99999999999909
 31
0.0
1001
ACDBBLOCKREPETAG
1070
     1
1071
       87
1005
123C11
  0
LINE
  5
123C12
  8
OBJECT
 10
10202.99999999998
 20
-261.99999999999909
 30
0.0
 11
10202.99999999998
 21
-137.99999999999909
 31
0.0
1001
ACDBBLOCKREPETAG
1070
     1
1071
       88
1005
123C12
  0
LINE
  5
123C13
  8
CENTER
 10
10224.99999999998
 20
-199.99999999999909
 30
0.0
 11
10080.0
 21
-199.99999999999909
 31
0.0
1001
ACDBBLOCKREPETAG
1070
     1
1071
       89
1005
123C13
  0
LINE
  5
123C14
  8
OBJECT
 10
10149.99997496419
 20
-245.0000000000027
 30
0.0
 11
10086.0
 21
-244.99999999999909
 31
0.0
1001
ACDBBLOCKREPETAG
1070
     1
1071
       90
1005
123C14
  0
LINE
  5
123C15
  8
OBJECT
 10
10149.99997496419
 20
-154.99999999999909
 30
0.0
 11
10086.0
 21
-154.99999999999909
 31
0.0
1001
ACDBBLOCKREPETAG
1070
     1
1071
       91
1005
123C15
  0
LINE
  5
123C16
  8
OBJECT
 10
10202.99999999998
 20
-140.99999999999909
 30
0.0
 11
10166.99999999998
 21
-140.99999999999909
 31
0.0
1001
ACDBBLOCKREPETAG
1070
     1
1071
       92
1005
123C16
  0
LINE
  5
123C17
  8
OBJECT
 10
10166.99999999998
 20
-140.99999999999909
 30
0.0
 11
10166.99999999998
 21
-258.99999999999909
 31
0.0
1001
ACDBBLOCKREPETAG
1070
     1
1071
       93
1005
123C17
  0
LINE
  5
123C18
  8
OBJECT
 10
10166.99999999998
 20
-258.99999999999909
 30
0.0
 11
10202.99999999998
 21
-258.99999999999909
 31
0.0
1001
ACDBBLOCKREPETAG
1070
     1
1071
       94
1005
123C18
  0
LINE
  5
123C19
  8
OBJECT
 10
10162.99999999998
 20
-145.49999999999909
 30
0.0
 11
10149.99999999998
 21
-145.49999999999909
 31
0.0
1001
ACDBBLOCKREPETAG
1070
     1
1071
       95
1005
123C19
  0
LINE
  5
123C1A
  8
OBJECT
 10
10149.99999999998
 20
-254.49999999999909
 30
0.0
 11
10162.99999999998
 21
-254.49999999999909
 31
0.0
1001
ACDBBLOCKREPETAG
1070
     1
1071
       96
1005
123C1A
  0
LINE
  5
123C1B
  8
OBJECT
 10
10162.99999999998
 20
-254.49999999999909
 30
0.0
 11
10162.99999999998
 21
-145.49999999999909
 31
0.0
1001
ACDBBLOCKREPETAG
1070
     1
1071
       97
1005
123C1B
  0
LINE
  5
123C1C
  8
OBJECT
 10
10166.99999999998
 20
-140.99999999999909
 30
0.0
 11
10162.99999999998
 21
-145.49999999999909
 31
0.0
1001
ACDBBLOCKREPETAG
1070
     1
1071
       98
1005
123C1C
  0
LINE
  5
123C1D
  8
OBJECT
 10
10166.99999999998
 20
-258.99999999999909
 30
0.0
 11
10162.99999999998
 21
-254.49999999999909
 31
0.0
1001
ACDBBLOCKREPETAG
1070
     1
1071
       99
1005
123C1D
  0
LINE
  5
123C1E
  8
OBJECT
 10
10083.0
 20
-137.99999999999909
 30
0.0
 11
10080.0
 21
-137.99999999999909
 31
0.0
1001
ACDBBLOCKREPETAG
1070
     1
1071
      100
1005
123C1E
  0
ARC
  5
123C1F
  8
OBJECT
 10
10083.0
 20
-140.99999999999909
 30
0.0
 40
3.0
 50
0.0
 51
90.0
1001
ACDBBLOCKREPETAG
1070
     1
1071
      101
1005
123C1F
  0
LINE
  5
123C20
  8
OBJECT
 10
10080.0
 20
-261.99999999999909
 30
0.0
 11
10083.0
 21
-261.99999999999909
 31
0.0
1001
ACDBBLOCKREPETAG
1070
     1
1071
      102
1005
123C20
  0
ARC
  5
123C21
  8
OBJECT
 10
10083.0
 20
-258.99999999999909
 30
0.0
 40
3.0
 50
270.0
 51
0.0
1001
ACDBBLOCKREPETAG
1070
     1
1071
      103
1005
123C21
  0
LINE
  5
123C22
  8
OBJECT
 10
10086.0
 20
-258.99999999999909
 30
0.0
 11
10086.0
 21
-210.3227903203578
 31
0.0
1001
ACDBBLOCKREPETAG
1070
     1
1071
      104
1005
123C22
  0
LINE
  5
123C23
  8
OBJECT
 10
10086.0
 20
-189.6772096796403
 30
0.0
 11
10086.0
 21
-140.99999999999909
 31
0.0
1001
ACDBBLOCKREPETAG
1070
     1
1071
      105
1005
123C23
  0
LINE
  5
123C24
  8
HIDDEN
 10
10157.99999999998
 20
-155.49999999999909
 30
0.0
 11
10157.99999999998
 21
-244.49999999999909
 31
0.0
1001
ACDBBLOCKREPETAG
1070
     1
1071
      106
1005
123C24
  0
LINE
  5
123C25
  8
OBJECT
 10
10149.99997496419
 20
-254.4999509238105
 30
0.0
 11
10149.99997496419
 21
-145.4999509238105
 31
0.0
1001
ACDBBLOCKREPETAG
1070
     1
1071
      108
1005
123C25
  0
ARC
  5
123C26
  8
OBJECT
 10
10129.800000000019
 20
-199.99999999999909
 30
0.0
 40
45.000000000000547
 50
90.0
 51
270.0
1001
ACDBBLOCKREPETAG
1070
     1
1071
      109
1005
123C26
  0
LINE
  5
123C27
  8
OBJECT
 10
9923.0
 20
-470.99999999999937
 30
0.0
 11
9923.0
 21
-449.99999999999937
 31
0.0
1001
ACDBBLOCKREPETAG
1070
     1
1071
        0
1005
123C27
  0
LINE
  5
123C28
  8
OBJECT
 10
9923.0
 20
-449.99999999999937
 30
0.0
 11
10077.0
 21
-449.99999999999937
 31
0.0
1001
ACDBBLOCKREPETAG
1070
     1
1071
        1
1005
123C28
  0
LINE
  5
123C29
  8
HIDDEN
 10
9943.0
 20
-519.99999999999955
 30
0.0
 11
10057.0
 21
-519.99999999999955
 31
0.0
1001
ACDBBLOCKREPETAG
1070
     1
1071
        2
1005
123C29
  0
LINE
  5
123C2A
  8
OBJECT
 10
10077.0
 20
-449.99999999999937
 30
0.0
 11
10077.0
 21
-470.99999999999937
 31
0.0
1001
ACDBBLOCKREPETAG
1070
     1
1071
        3
1005
123C2A
  0
LINE
  5
123C2B
  8
OBJECT
 10
10077.0
 20
-470.99999999999937
 30
0.0
 11
9923.0
 21
-470.99999999999937
 31
0.0
1001
ACDBBLOCKREPETAG
1070
     1
1071
        4
1005
123C2B
  0
LINE
  5
123C2C
  8
CENTER
 10
10000.0
 20
-434.99999999999949
 30
0.0
 11
10000.0
 21
-789.99999999999955
 31
0.0
1001
ACDBBLOCKREPETAG
1070
     1
1071
        5
1005
123C2C
  0
LINE
  5
123C2D
  8
OBJECT
 10
9925.0
 20
-533.99999999999955
 30
0.0
 11
9925.0
 21
-777.99999999999955
 31
0.0
1001
ACDBBLOCKREPETAG
1070
     1
1071
        6
1005
123C2D
  0
LINE
  5
123C2E
  8
OBJECT
 10
9928.0
 20
-470.99999999999937
 30
0.0
 11
9928.0
 21
-533.99999999999955
 31
0.0
1001
ACDBBLOCKREPETAG
1070
     1
1071
        7
1005
123C2E
  0
LINE
  5
123C2F
  8
OBJECT
 10
10072.0
 20
-533.99999999999955
 30
0.0
 11
10072.0
 21
-470.99999999999937
 31
0.0
1001
ACDBBLOCKREPETAG
1070
     1
1071
        8
1005
123C2F
  0
LINE
  5
123C30
  8
OBJECT
 10
9920.0
 20
-777.99999999999955
 30
0.0
 11
10080.0
 21
-777.99999999999955
 31
0.0
1001
ACDBBLOCKREPETAG
1070
     1
1071
        9
1005
123C30
  0
LINE
  5
123C31
  8
OBJECT
 10
10080.0
 20
-533.99999999999955
 30
0.0
 11
9925.0
 21
-533.99999999999955
 31
0.0
1001
ACDBBLOCKREPETAG
1070
     1
1071
       10
1005
123C31
  0
LINE
  5
123C32
  8
OBJECT
 10
9920.0
 20
-777.99999999999955
 30
0.0
 11
9920.0
 21
-789.99999999999955
 31
0.0
1001
ACDBBLOCKREPETAG
1070
     1
1071
       11
1005
123C32
  0
LINE
  5
123C33
  8
OBJECT
 10
9920.0
 20
-789.99999999999955
 30
0.0
 11
10080.0
 21
-789.99999999999955
 31
0.0
1001
ACDBBLOCKREPETAG
1070
     1
1071
       12
1005
123C33
  0
LINE
  5
123C34
  8
OBJECT
 10
10080.0
 20
-789.99999999999955
 30
0.0
 11
10080.0
 21
-777.99999999999955
 31
0.0
1001
ACDBBLOCKREPETAG
1070
     1
1071
       13
1005
123C34
  0
LINE
  5
123C35
  8
OBJECT
 10
10074.99999999986
 20
-657.99999999985039
 30
0.0
 11
10075.0
 21
-777.99999999999955
 31
0.0
1001
ACDBBLOCKREPETAG
1070
     1
1071
       15
1005
123C35
  0
LINE
  5
123C36
  8
OBJECT
 10
10074.99999080298
 20
-657.99998602702135
 30
0.0
 11
10080.0
 21
-657.99998602702135
 31
0.0
1001
ACDBBLOCKREPETAG
1070
     1
1071
       16
1005
123C36
  0
ARC
  5
123C37
  8
OBJECT
 10
10200.687274671671
 20
-649.40809941010718
 30
0.0
 40
170.6350503965856
 50
137.44134459184301
 51
149.91949581337221
1001
ACDBBLOCKREPETAG
1070
     1
1071
       17
1005
123C37
  0
ARC
  5
123C38
  8
OBJECT
 10
10118.845598704051
 20
-605.88272669536445
 30
0.0
 40
78.072222021763665
 50
147.4551531038623
 51
164.6636599771729
1001
ACDBBLOCKREPETAG
1070
     1
1071
       18
1005
123C38
  0
ARC
  5
123C39
  8
OBJECT
 10
10085.755434960871
 20
-595.99999999999955
 30
0.0
 40
43.55353926885617
 50
165.688452300753
 51
194.3115476992468
1001
ACDBBLOCKREPETAG
1070
     1
1071
       19
1005
123C39
  0
ARC
  5
123C3A
  8
OBJECT
 10
10200.687274671671
 20
-542.59190058989179
 30
0.0
 40
170.6350503965856
 50
210.08050418662771
 51
222.55865540815699
1001
ACDBBLOCKREPETAG
1070
     1
1071
       20
1005
123C3A
  0
ARC
  5
123C3B
  8
OBJECT
 10
10118.845598704051
 20
-586.11727330463452
 30
0.0
 40
78.072222021763665
 50
195.3363400228271
 51
212.5448468961377
1001
ACDBBLOCKREPETAG
1070
     1
1071
       21
1005
123C3B
  0
POINT
  5
123C3C
  8
DOTS
 10
10000.0
 20
-654.99999999999966
 30
0.0
1001
ACDBBLOCKREPETAG
1070
     1
1071
      187
1005
123C3C
  0
ARC
  5
123C3D
  8
OBJECT
 10
8000.0
 20
-199.99999999999909
 30
0.0
 40
50.0
 50
298.81994300000417
 51
228.52376955964741
1001
ACDBBLOCKREPETAG
1070
     1
1071
      185
1005
123C3D
  0
LINE
  5
123C3E
  8
SLIM
 10
7927.3018300565236
 20
-155.95484036957691
 30
0.0
 11
7955.9548403695781
 21
-127.30183005652231
 31
0.0
1001
GRADIENTCOLOR1ACI
1070
     5
1001
GRADIENTCOLOR2ACI
1070
     2
1001
ACAD
1010
0.0
1020
0.0
1030
0.0
1001
ACDBBLOCKREPETAG
1070
     1
1071
      442
1005
123C3E
  0
LINE
  5
123C3F
  8
SLIM
 10
7919.4861520708373
 20
-172.75077447633191
 30
0.0
 11
7938.2903089572737
 21
-153.94661758989659
 31
0.0
1001
GRADIENTCOLOR1ACI
1070
     5
1001
GRADIENTCOLOR2ACI
1070
     2
1001
ACAD
1010
0.0
1020
0.0
1030
0.0
1001
ACDBBLOCKREPETAG
1070
     1
1071
      443
1005
123C3F
  0
LINE
  5
123C40
  8
SLIM
 10
7953.9466175898988
 20
-138.29030895727169
 30
0.0
 11
7972.7507744763334
 21
-119.4861520708364
 31
0.0
1001
GRADIENTCOLOR1ACI
1070
     5
1001
GRADIENTCOLOR2ACI
1070
     2
1001
ACAD
1010
0.0
1020
0.0
1030
0.0
1001
ACDBBLOCKREPETAG
1070
     1
1071
      444
1005
123C40
  0
LINE
  5
123C41
  8
SLIM
 10
7916.3596679933771
 20
-184.8575146748604
 30
0.0
 11
7927.6959583557828
 21
-173.5212243124561
 31
0.0
1001
GRADIENTCOLOR1ACI
1070
     5
1001
GRADIENTCOLOR2ACI
1070
     2
1001
ACAD
1010
0.0
1020
0.0
1030
0.0
1001
ACDBBLOCKREPETAG
1070
     1
1071
      445
1005
123C41
  0
LINE
  5
123C42
  8
SLIM
 10
7973.5212243124561
 20
-127.6959583557812
 30
0.0
 11
7984.8575146748608
 21
-116.359667993377
 31
0.0
1001
GRADIENTCOLOR1ACI
1070
     5
1001
GRADIENTCOLOR2ACI
1070
     2
1001
ACAD
1010
0.0
1020
0.0
1030
0.0
1001
ACDBBLOCKREPETAG
1070
     1
1071
      446
1005
123C42
  0
LINE
  5
123C43
  8
SLIM
 10
7915.1440575890529
 20
-195.0533812002549
 30
0.0
 11
7924.3030216431825
 21
-185.89441714612491
 31
0.0
1001
GRADIENTCOLOR1ACI
1070
     5
1001
GRADIENTCOLOR2ACI
1070
     2
1001
ACAD
1010
0.0
1020
0.0
1030
0.0
1001
ACDBBLOCKREPETAG
1070
     1
1071
      447
1005
123C43
  0
LINE
  5
123C44
  8
SLIM
 10
7985.8944171461262
 20
-124.30302164318159
 30
0.0
 11
7995.0533812002559
 21
-115.1440575890517
 31
0.0
1001
GRADIENTCOLOR1ACI
1070
     5
1001
GRADIENTCOLOR2ACI
1070
     2
1001
ACAD
1010
0.0
1020
0.0
1030
0.0
1001
ACDBBLOCKREPETAG
1070
     1
1071
      448
1005
123C44
  0
LINE
  5
123C45
  8
SLIM
 10
7915.097963557474
 20
-204.07973135290339
 30
0.0
 11
7919.1776949103778
 21
-199.99999999999909
 31
0.0
1001
GRADIENTCOLOR1ACI
1070
     5
1001
GRADIENTCOLOR2ACI
1070
     2
1001
ACAD
1010
0.0
1020
0.0
1030
0.0
1001
ACDBBLOCKREPETAG
1070
     1
1071
      449
1005
123C45
  0
LINE
  5
123C46
  8
SLIM
 10
8000.0
 20
-119.1776949103767
 30
0.0
 11
8004.0797313529074
 21
-115.0979635574724
 31
0.0
1001
GRADIENTCOLOR1ACI
1070
     5
1001
GRADIENTCOLOR2ACI
1070
     2
1001
ACAD
1010
0.0
1020
0.0
1030
0.0
1001
ACDBBLOCKREPETAG
1070
     1
1071
      450
1005
123C46
  0
LINE
  5
123C47
  8
SLIM
 10
7919.1776949103778
 20
-199.99999999999909
 30
0.0
 11
7923.0999621611709
 21
-196.07773274920581
 31
0.0
1001
GRADIENTCOLOR1ACI
1070
     5
1001
GRADIENTCOLOR2ACI
1070
     2
1001
ACAD
1010
0.0
1020
0.0
1030
0.0
1001
ACDBBLOCKREPETAG
1070
     1
1071
      451
1005
123C47
  0
LINE
  5
123C48
  8
SLIM
 10
7996.077732749206
 20
-123.0999621611699
 30
0.0
 11
8000.0
 21
-119.1776949103767
 31
0.0
1001
GRADIENTCOLOR1ACI
1070
     5
1001
GRADIENTCOLOR2ACI
1070
     2
1001
ACAD
1010
0.0
1020
0.0
1030
0.0
1001
ACDBBLOCKREPETAG
1070
     1
1071
      452
1005
123C48
  0
LINE
  5
123C49
  8
SLIM
 10
7915.889972620871
 20
-212.26797841057399
 30
0.0
 11
7923.1622307771704
 21
-204.9957202542767
 31
0.0
1001
GRADIENTCOLOR1ACI
1070
     5
1001
GRADIENTCOLOR2ACI
1070
     2
1001
ACAD
1010
0.0
1020
0.0
1030
0.0
1001
ACDBBLOCKREPETAG
1070
     1
1071
      453
1005
123C49
  0
LINE
  5
123C4A
  8
SLIM
 10
8004.9957202542737
 20
-123.1622307771683
 30
0.0
 11
8012.2679784105749
 21
-115.88997262087101
 31
0.0
1001
GRADIENTCOLOR1ACI
1070
     5
1001
GRADIENTCOLOR2ACI
1070
     2
1001
ACAD
1010
0.0
1020
0.0
1030
0.0
1001
ACDBBLOCKREPETAG
1070
     1
1071
      454
1005
123C4A
  0
LINE
  5
123C4B
  8
SLIM
 10
7917.3382656951526
 20
-219.79994145736151
 30
0.0
 11
7924.1101477855518
 21
-213.02805936696359
 31
0.0
1001
GRADIENTCOLOR1ACI
1070
     5
1001
GRADIENTCOLOR2ACI
1070
     2
1001
ACAD
1010
0.0
1020
0.0
1030
0.0
1001
ACDBBLOCKREPETAG
1070
     1
1071
      455
1005
123C4B
  0
LINE
  5
123C4C
  8
SLIM
 10
8013.028059366964
 20
-124.1101477855505
 30
0.0
 11
8019.7999414573624
 21
-117.3382656951526
 31
0.0
1001
GRADIENTCOLOR1ACI
1070
     5
1001
GRADIENTCOLOR2ACI
1070
     2
1001
ACAD
1010
0.0
1020
0.0
1030
0.0
1001
ACDBBLOCKREPETAG
1070
     1
1071
      456
1005
123C4C
  0
LINE
  5
123C4D
  8
SLIM
 10
7919.3312594063054
 20
-226.78720386727881
 30
0.0
 11
7925.74438195934
 21
-220.3740813142449
 31
0.0
1001
GRADIENTCOLOR1ACI
1070
     5
1001
GRADIENTCOLOR2ACI
1070
     2
1001
ACAD
1010
0.0
1020
0.0
1030
0.0
1001
ACDBBLOCKREPETAG
1070
     1
1071
      457
1005
123C4D
  0
LINE
  5
123C4E
  8
SLIM
 10
8020.3740813142458
 20
-125.7443819593384
 30
0.0
 11
8026.7872038672767
 21
-119.3312594063044
 31
0.0
1001
GRADIENTCOLOR1ACI
1070
     5
1001
GRADIENTCOLOR2ACI
1070
     2
1001
ACAD
1010
0.0
1020
0.0
1030
0.0
1001
ACDBBLOCKREPETAG
1070
     1
1071
      458
1005
123C4E
  0
LINE
  5
123C4F
  8
SLIM
 10
7921.7957163186193
 20
-233.30300307603289
 30
0.0
 11
7927.9462473957792
 21
-227.1524719988744
 31
0.0
1001
GRADIENTCOLOR1ACI
1070
     5
1001
GRADIENTCOLOR2ACI
1070
     2
1001
ACAD
1010
0.0
1020
0.0
1030
0.0
1001
ACDBBLOCKREPETAG
1070
     1
1071
      459
1005
123C4F
  0
LINE
  5
123C50
  8
SLIM
 10
8027.1524719988738
 20
-127.946247395778
 30
0.0
 11
8033.3030030760328
 21
-121.7957163186195
 31
0.0
1001
GRADIENTCOLOR1ACI
1070
     5
1001
GRADIENTCOLOR2ACI
1070
     2
1001
ACAD
1010
0.0
1020
0.0
1030
0.0
1001
ACDBBLOCKREPETAG
1070
     1
1071
      460
1005
123C50
  0
LINE
  5
123C51
  8
SLIM
 10
7924.6816635313462
 20
-239.39731198437769
 30
0.0
 11
7930.639876864393
 21
-233.4390986513296
 31
0.0
1001
GRADIENTCOLOR1ACI
1070
     5
1001
GRADIENTCOLOR2ACI
1070
     2
1001
ACAD
1010
0.0
1020
0.0
1030
0.0
1001
ACDBBLOCKREPETAG
1070
     1
1071
      461
1005
123C51
  0
LINE
  5
123C52
  8
SLIM
 10
8033.4390986513308
 20
-130.63987686439199
 30
0.0
 11
8039.3973119843777
 21
-124.6816635313439
 31
0.0
1001
GRADIENTCOLOR1ACI
1070
     5
1001
GRADIENTCOLOR2ACI
1070
     2
1001
ACAD
1010
0.0
1020
0.0
1030
0.0
1001
ACDBBLOCKREPETAG
1070
     1
1071
      462
1005
123C52
  0
LINE
  5
123C53
  8
SLIM
 10
7927.9544611024266
 20
-245.10477053436691
 30
0.0
 11
7933.7750070149932
 21
-239.28422462179751
 31
0.0
1001
GRADIENTCOLOR1ACI
1070
     5
1001
GRADIENTCOLOR2ACI
1070
     2
1001
ACAD
1010
0.0
1020
0.0
1030
0.0
1001
ACDBBLOCKREPETAG
1070
     1
1071
      463
1005
123C53
  0
LINE
  5
123C54
  8
SLIM
 10
8039.2842246217979
 20
-133.77500701499321
 30
0.0
 11
8045.1047705343699
 21
-127.95446110242381
 31
0.0
1001
GRADIENTCOLOR1ACI
1070
     5
1001
GRADIENTCOLOR2ACI
1070
     2
1001
ACAD
1010
0.0
1020
0.0
1030
0.0
1001
ACDBBLOCKREPETAG
1070
     1
1071
      464
1005
123C54
  0
LINE
  5
123C55
  8
SLIM
 10
7931.5903319686649
 20
-250.4491557891954
 30
0.0
 11
7937.3182075880577
 21
-244.72128016980341
 31
0.0
1001
GRADIENTCOLOR1ACI
1070
     5
1001
GRADIENTCOLOR2ACI
1070
     2
1001
ACAD
1010
0.0
1020
0.0
1030
0.0
1001
ACDBBLOCKREPETAG
1070
     1
1071
      465
1005
123C55
  0
LINE
  5
123C56
  8
SLIM
 10
8044.7212801698061
 20
-137.31820758805651
 30
0.0
 11
8050.449155789197
 21
-131.59033196866449
 31
0.0
1001
GRADIENTCOLOR1ACI
1070
     5
1001
GRADIENTCOLOR2ACI
1070
     2
1001
ACAD
1010
0.0
1020
0.0
1030
0.0
1001
ACDBBLOCKREPETAG
1070
     1
1071
      466
1005
123C56
  0
LINE
  5
123C57
  8
SLIM
 10
7935.5737496925258
 20
-255.4459941864034
 30
0.0
 11
7941.24811054159
 21
-249.77163333734029
 31
0.0
1001
GRADIENTCOLOR1ACI
1070
     5
1001
GRADIENTCOLOR2ACI
1070
     2
1001
ACAD
1010
0.0
1020
0.0
1030
0.0
1001
ACDBBLOCKREPETAG
1070
     1
1071
      467
1005
123C57
  0
LINE
  5
123C58
  8
SLIM
 10
8053.0197438789319
 20
-137.99999999999909
 30
0.0
 11
8055.4459941864034
 21
-135.57374969252561
 31
0.0
1001
GRADIENTCOLOR1ACI
1070
     5
1001
GRADIENTCOLOR2ACI
1070
     2
1001
ACAD
1010
0.0
1020
0.0
1030
0.0
1001
ACDBBLOCKREPETAG
1070
     1
1071
      468
1005
123C58
  0
LINE
  5
123C59
  8
SLIM
 10
7939.8959235991442
 20
-260.10407640085572
 30
0.0
 11
7945.5527778486357
 21
-254.44722215136329
 31
0.0
1001
GRADIENTCOLOR1ACI
1070
     5
1001
GRADIENTCOLOR2ACI
1070
     2
1001
ACAD
1010
0.0
1020
0.0
1030
0.0
1001
ACDBBLOCKREPETAG
1070
     1
1071
      469
1005
123C59
  0
LINE
  5
123C5A
  8
SLIM
 10
7944.5540058135948
 20
-264.4262503074724
 30
0.0
 11
7950.2283666626608
 21
-258.75188945840949
 31
0.0
1001
GRADIENTCOLOR1ACI
1070
     5
1001
GRADIENTCOLOR2ACI
1070
     2
1001
ACAD
1010
0.0
1020
0.0
1030
0.0
1001
ACDBBLOCKREPETAG
1070
     1
1071
      470
1005
123C5A
  0
LINE
  5
123C5B
  8
SLIM
 10
7949.5508442108039
 20
-268.40966803133369
 30
0.0
 11
7955.2787198301958
 21
-262.68179241194167
 31
0.0
1001
GRADIENTCOLOR1ACI
1070
     5
1001
GRADIENTCOLOR2ACI
1070
     2
1001
ACAD
1010
0.0
1020
0.0
1030
0.0
1001
ACDBBLOCKREPETAG
1070
     1
1071
      471
1005
123C5B
  0
LINE
  5
123C5C
  8
SLIM
 10
7954.895229465631
 20
-272.04553889757437
 30
0.0
 11
7960.7157753782021
 21
-266.22499298500497
 31
0.0
1001
GRADIENTCOLOR1ACI
1070
     5
1001
GRADIENTCOLOR2ACI
1070
     2
1001
ACAD
1010
0.0
1020
0.0
1030
0.0
1001
ACDBBLOCKREPETAG
1070
     1
1071
      472
1005
123C5C
  0
LINE
  5
123C5D
  8
SLIM
 10
7960.6026880156223
 20
-275.31833646865431
 30
0.0
 11
7966.5609013486683
 21
-269.36012313560622
 31
0.0
1001
GRADIENTCOLOR1ACI
1070
     5
1001
GRADIENTCOLOR2ACI
1070
     2
1001
ACAD
1010
0.0
1020
0.0
1030
0.0
1001
ACDBBLOCKREPETAG
1070
     1
1071
      473
1005
123C5D
  0
LINE
  5
123C5E
  8
SLIM
 10
7966.6969969239663
 20
-278.20428368137868
 30
0.0
 11
7972.8475280011244
 21
-272.05375260422022
 31
0.0
1001
GRADIENTCOLOR1ACI
1070
     5
1001
GRADIENTCOLOR2ACI
1070
     2
1001
ACAD
1010
0.0
1020
0.0
1030
0.0
1001
ACDBBLOCKREPETAG
1070
     1
1071
      474
1005
123C5E
  0
LINE
  5
123C5F
  8
SLIM
 10
7973.2127961327187
 20
-280.66874059369371
 30
0.0
 11
7979.6259186857542
 21
-274.25561804065973
 31
0.0
1001
GRADIENTCOLOR1ACI
1070
     5
1001
GRADIENTCOLOR2ACI
1070
     2
1001
ACAD
1010
0.0
1020
0.0
1030
0.0
1001
ACDBBLOCKREPETAG
1070
     1
1071
      475
1005
123C5F
  0
LINE
  5
123C60
  8
SLIM
 10
7980.2000585426395
 20
-282.6617343048456
 30
0.0
 11
7986.971940633035
 21
-275.88985221444773
 31
0.0
1001
GRADIENTCOLOR1ACI
1070
     5
1001
GRADIENTCOLOR2ACI
1070
     2
1001
ACAD
1010
0.0
1020
0.0
1030
0.0
1001
ACDBBLOCKREPETAG
1070
     1
1071
      476
1005
123C60
  0
LINE
  5
123C61
  8
SLIM
 10
7987.732021589426
 20
-284.11002737912702
 30
0.0
 11
7995.0042797457209
 21
-276.83776922282988
 31
0.0
1001
GRADIENTCOLOR1ACI
1070
     5
1001
GRADIENTCOLOR2ACI
1070
     2
1001
ACAD
1010
0.0
1020
0.0
1030
0.0
1001
ACDBBLOCKREPETAG
1070
     1
1071
      477
1005
123C61
  0
LINE
  5
123C62
  8
SLIM
 10
7995.9202686470962
 20
-284.9020364425258
 30
0.0
 11
8000.0
 21
-280.82230508962152
 31
0.0
1001
GRADIENTCOLOR1ACI
1070
     5
1001
GRADIENTCOLOR2ACI
1070
     2
1001
ACAD
1010
0.0
1020
0.0
1030
0.0
1001
ACDBBLOCKREPETAG
1070
     1
1071
      478
1005
123C62
  0
LINE
  5
123C63
  8
SLIM
 10
8000.0
 20
-280.82230508962152
 30
0.0
 11
8003.9222672507931
 21
-276.90003783882821
 31
0.0
1001
GRADIENTCOLOR1ACI
1070
     5
1001
GRADIENTCOLOR2ACI
1070
     2
1001
ACAD
1010
0.0
1020
0.0
1030
0.0
1001
ACDBBLOCKREPETAG
1070
     1
1071
      479
1005
123C63
  0
LINE
  5
123C64
  8
SLIM
 10
8004.9466187997441
 20
-284.85594241094651
 30
0.0
 11
8014.1055828538756
 21
-275.6969783568166
 31
0.0
1001
GRADIENTCOLOR1ACI
1070
     5
1001
GRADIENTCOLOR2ACI
1070
     2
1001
ACAD
1010
0.0
1020
0.0
1030
0.0
1001
ACDBBLOCKREPETAG
1070
     1
1071
      480
1005
123C64
  0
LINE
  5
123C65
  8
SLIM
 10
8015.1424853251401
 20
-283.64033200662118
 30
0.0
 11
8026.478775687543
 21
-272.30404164421702
 31
0.0
1001
GRADIENTCOLOR1ACI
1070
     5
1001
GRADIENTCOLOR2ACI
1070
     2
1001
ACAD
1010
0.0
1020
0.0
1030
0.0
1001
ACDBBLOCKREPETAG
1070
     1
1071
      481
1005
123C65
  0
LINE
  5
123C66
  8
SLIM
 10
8027.2492255236657
 20
-280.51384792916173
 30
0.0
 11
8045.7630734528302
 21
-261.99999999999909
 31
0.0
1001
GRADIENTCOLOR1ACI
1070
     5
1001
GRADIENTCOLOR2ACI
1070
     2
1001
ACAD
1010
0.0
1020
0.0
1030
0.0
1001
ACDBBLOCKREPETAG
1070
     1
1071
      482
1005
123C66
  0
LINE
  5
123C67
  8
SLIM
 10
8044.045159630421
 20
-272.69816994347582
 30
0.0
 11
8054.7433295739002
 21
-261.99999999999909
 31
0.0
1001
GRADIENTCOLOR1ACI
1070
     5
1001
GRADIENTCOLOR2ACI
1070
     2
1001
ACAD
1010
0.0
1020
0.0
1030
0.0
1001
ACDBBLOCKREPETAG
1070
     1
1071
      483
1005
123C67
  0
LINE
  5
123C68
  8
CENTER
 10
8080.0
 20
-199.99999999999909
 30
0.0
 11
7900.0
 21
-199.99999999999909
 31
0.0
1001
ACDBBLOCKREPETAG
1070
     1
1071
      187
1005
123C68
  0
LINE
  5
123C69
  8
CENTER
 10
8000.0
 20
-299.99999999999898
 30
0.0
 11
8000.0
 21
-99.999999999999091
 31
0.0
1001
ACDBBLOCKREPETAG
1070
     1
1071
      188
1005
123C69
  0
CIRCLE
  5
123C6A
  8
OBJECT
 10
8000.0
 20
-199.99999999999909
 30
0.0
 40
70.0
1001
ACDBBLOCKREPETAG
1070
     1
1071
      189
1005
123C6A
  0
CIRCLE
  5
123C6B
  8
OBJECT
 10
8000.0
 20
-199.99999999999909
 30
0.0
 40
77.0
1001
ACDBBLOCKREPETAG
1070
     1
1071
      190
1005
123C6B
  0
LINE
  5
123C6C
  8
OBJECT
 10
8045.6618002273271
 20
-137.99999999999909
 30
0.0
 11
8080.0
 21
-137.99999999999909
 31
0.0
1001
ACDBBLOCKREPETAG
1070
     1
1071
      192
1005
123C6C
  0
LINE
  5
123C6D
  8
OBJECT
 10
8045.6618002273271
 20
-261.99999999999909
 30
0.0
 11
8080.0
 21
-261.99999999999909
 31
0.0
1001
ACDBBLOCKREPETAG
1070
     1
1071
      193
1005
123C6D
  0
ARC
  5
123C6E
  8
OBJECT
 10
8000.0
 20
-199.99999999999909
 30
0.0
 40
85.0
 50
46.83710285981514
 51
313.16289714018478
1001
ACDBBLOCKREPETAG
1070
     1
1071
      202
1005
123C6E
  0
LINE
  5
123C6F
  8
OBJECT
 10
8024.1029330933006
 20
-243.80694712371681
 30
0.0
 11
8020.6596569999974
 21
-232.55462199999889
 31
0.0
1001
ACDBBLOCKREPETAG
1070
     1
1071
      321
1005
123C6F
  0
LINE
  5
123C70
  8
OBJECT
 10
7986.7927499013749
 20
-218.22553374208019
 30
0.0
 11
8020.6596569999974
 21
-232.5546219999969
 31
0.0
1001
ACDBBLOCKREPETAG
1070
     1
1071
      323
1005
123C70
  0
ARC
  5
123C71
  8
OBJECT
 10
7982.8961697618997
 20
-227.4351299990567
 30
0.0
 40
10.0
 50
67.066778292911366
 51
154.0147343702935
1001
ACDBBLOCKREPETAG
1070
     1
1071
      324
1005
123C71
  0
ARC
  5
123C72
  8
OBJECT
 10
7986.1488390381273
 20
-225.55386256729159
 30
0.0
 40
7.0
 50
67.066778292911366
 51
154.0147337749826
1001
ACDBBLOCKREPETAG
1070
     1
1071
      325
1005
123C72
  0
LINE
  5
123C73
  8
OBJECT
 10
7969.4199755553009
 20
-243.89888500818171
 30
0.0
 11
7979.8564918232369
 21
-222.48688253356801
 31
0.0
1001
ACDBBLOCKREPETAG
1070
     1
1071
      353
1005
123C73
  0
LINE
  5
123C74
  8
OBJECT
 10
7965.2972169006098
 20
-240.71813901882729
 30
0.0
 11
7973.9071022665084
 21
-223.05373004430751
 31
0.0
1001
ACDBBLOCKREPETAG
1070
     1
1071
      354
1005
123C74
  0
ARC
  5
123C75
  8
OBJECT
 10
7976.5796953073141
 20
-207.1289369828437
 30
0.0
 40
60.031113246032611
 50
314.07020130418567
 51
322.33936106089681
1001
ACDBBLOCKREPETAG
1070
     1
1071
      355
1005
123C75
  0
CIRCLE
  5
123C76
  8
OBJECT
 10
8000.0
 20
-199.99999999999909
 30
0.0
 40
53.5
1001
ACDBBLOCKREPETAG
1070
     1
1071
      356
1005
123C76
  0
POINT
  5
123C77
  8
DOTS
 10
8000.0
 20
-199.99999999999909
 30
0.0
 50
270.0
1001
ACDBBLOCKREPETAG
1070
     1
1071
      365
1005
123C77
  0
LINE
  5
123C78
  8
OBJECT
 10
8202.9999999999854
 20
-483.0000000000008
 30
0.0
 11
8209.9999999999836
 21
-483.0000000000008
 31
0.0
1001
ACDBBLOCKREPETAG
1070
     1
1071
       83
1005
123C78
  0
LINE
  5
123C79
  8
OBJECT
 10
8209.9999999999836
 20
-483.0000000000008
 30
0.0
 11
8209.9999999999836
 21
-607.0000000000008
 31
0.0
1001
ACDBBLOCKREPETAG
1070
     1
1071
       84
1005
123C79
  0
LINE
  5
123C7A
  8
OBJECT
 10
8085.9999999999873
 20
-553.3502637757274
 30
0.0
 11
8085.9999999999873
 21
-655.00000000000068
 31
0.0
1001
ACDBBLOCKREPETAG
1070
     1
1071
       85
1005
123C7A
  0
LINE
  5
123C7B
  8
OBJECT
 10
8209.9999999999836
 20
-607.0000000000008
 30
0.0
 11
8202.9999999999854
 21
-607.0000000000008
 31
0.0
1001
ACDBBLOCKREPETAG
1070
     1
1071
       86
1005
123C7B
  0
LINE
  5
123C7C
  8
OBJECT
 10
8202.9999999999854
 20
-607.0000000000008
 30
0.0
 11
8202.9999999999854
 21
-483.0000000000008
 31
0.0
1001
ACDBBLOCKREPETAG
1070
     1
1071
       87
1005
123C7C
  0
LINE
  5
123C7D
  8
CENTER
 10
8134.9999999999873
 20
-545.0000000000008
 30
0.0
 11
8224.9999999999873
 21
-545.0000000000008
 31
0.0
1001
ACDBBLOCKREPETAG
1070
     1
1071
       88
1005
123C7D
  0
LINE
  5
123C7E
  8
OBJECT
 10
8079.9999999999818
 20
-658.0
 30
0.0
 11
8082.9999999999873
 21
-658.0000000000008
 31
0.0
1001
ACDBBLOCKREPETAG
1070
     1
1071
       89
1005
123C7E
  0
ARC
  5
123C7F
  8
OBJECT
 10
8082.9999999999873
 20
-655.00000000000068
 30
0.0
 40
3.0
 50
270.0
 51
0.0
1001
ACDBBLOCKREPETAG
1070
     1
1071
       90
1005
123C7F
  0
LINE
  5
123C80
  8
OBJECT
 10
8202.9999999999854
 20
-486.0000000000008
 30
0.0
 11
8166.9999999999854
 21
-486.0000000000008
 31
0.0
1001
ACDBBLOCKREPETAG
1070
     1
1071
       91
1005
123C80
  0
LINE
  5
123C81
  8
OBJECT
 10
8166.9999999999854
 20
-486.0000000000008
 30
0.0
 11
8166.9999999999854
 21
-604.0000000000008
 31
0.0
1001
ACDBBLOCKREPETAG
1070
     1
1071
       92
1005
123C81
  0
LINE
  5
123C82
  8
OBJECT
 10
8162.9999999999873
 20
-490.5000000000008
 30
0.0
 11
8162.9999999999873
 21
-599.5000000000008
 31
0.0
1001
ACDBBLOCKREPETAG
1070
     1
1071
       93
1005
123C82
  0
LINE
  5
123C83
  8
OBJECT
 10
8162.9999999999873
 20
-490.5000000000008
 30
0.0
 11
8149.9999999999873
 21
-490.5000000000008
 31
0.0
1001
ACDBBLOCKREPETAG
1070
     1
1071
       94
1005
123C83
  0
LINE
  5
123C84
  8
OBJECT
 10
8166.9999999999854
 20
-604.0000000000008
 30
0.0
 11
8202.9999999999854
 21
-604.0000000000008
 31
0.0
1001
ACDBBLOCKREPETAG
1070
     1
1071
       95
1005
123C84
  0
LINE
  5
123C85
  8
OBJECT
 10
8166.9999999999854
 20
-486.0000000000008
 30
0.0
 11
8162.9999999999873
 21
-490.5000000000008
 31
0.0
1001
ACDBBLOCKREPETAG
1070
     1
1071
       96
1005
123C85
  0
LINE
  5
123C86
  8
OBJECT
 10
8149.9999999999873
 20
-490.5000000000008
 30
0.0
 11
8149.9999999999873
 21
-575.74491827928784
 31
0.0
1001
ACDBBLOCKREPETAG
1070
     1
1071
       97
1005
123C86
  0
ARC
  5
123C87
  8
OBJECT
 10
8152.7999999999829
 20
-585.00000000000068
 30
0.0
 40
85.0
 50
91.887731891831123
 51
143.1301023540934
1001
ACDBBLOCKREPETAG
1070
     1
1071
       98
1005
123C87
  0
LINE
  5
123C88
  8
HIDDEN
 10
8157.9999999999873
 20
-500.5000000000008
 30
0.0
 11
8157.9999999999873
 21
-589.5000000000008
 31
0.0
1001
ACDBBLOCKREPETAG
1070
     1
1071
      100
1005
123C88
  0
LINE
  5
123C89
  8
OBJECT
 10
8085.9999999999873
 20
-651.07945073181781
 30
0.0
 11
8156.6313199210299
 21
-599.5000000000008
 31
0.0
1001
ACDBBLOCKREPETAG
1070
     1
1071
      101
1005
123C89
  0
LINE
  5
123C8A
  8
OBJECT
 10
8079.9999999999818
 20
-534.0
 30
0.0
 11
8084.7999999999847
 21
-534.0
 31
0.0
1001
ACDBBLOCKREPETAG
1070
     1
1071
      102
1005
123C8A
  0
LINE
  5
123C8B
  8
OBJECT
 10
8085.9999999999873
 20
-553.35026377573001
 30
0.0
 11
8084.7999999999847
 21
-534.0
 31
0.0
1001
ACDBBLOCKREPETAG
1070
     1
1071
      103
1005
123C8B
  0
LINE
  5
123C8C
  8
OBJECT
 10
8162.9999999999873
 20
-599.5000000000008
 30
0.0
 11
8156.6313199210299
 21
-599.5000000000008
 31
0.0
1001
ACDBBLOCKREPETAG
1070
     1
1071
      104
1005
123C8C
  0
LINE
  5
123C8D
  8
OBJECT
 10
8166.9999999999854
 20
-604.0000000000008
 30
0.0
 11
8162.9999999999873
 21
-599.5000000000008
 31
0.0
1001
ACDBBLOCKREPETAG
1070
     1
1071
      105
1005
123C8D
  0
LINE
  5
123C8E
  8
OBJECT
 10
8202.9999999999854
 20
-137.99999999999909
 30
0.0
 11
8209.9999999999836
 21
-137.99999999999909
 31
0.0
1001
ACDBBLOCKREPETAG
1070
     1
1071
       85
1005
123C8E
  0
LINE
  5
123C8F
  8
OBJECT
 10
8209.9999999999836
 20
-137.99999999999909
 30
0.0
 11
8209.9999999999836
 21
-261.99999999999909
 31
0.0
1001
ACDBBLOCKREPETAG
1070
     1
1071
       86
1005
123C8F
  0
LINE
  5
123C90
  8
OBJECT
 10
8209.9999999999836
 20
-261.99999999999909
 30
0.0
 11
8202.9999999999854
 21
-261.99999999999909
 31
0.0
1001
ACDBBLOCKREPETAG
1070
     1
1071
       87
1005
123C90
  0
LINE
  5
123C91
  8
OBJECT
 10
8202.9999999999854
 20
-261.99999999999909
 30
0.0
 11
8202.9999999999854
 21
-137.99999999999909
 31
0.0
1001
ACDBBLOCKREPETAG
1070
     1
1071
       88
1005
123C91
  0
LINE
  5
123C92
  8
CENTER
 10
8224.9999999999873
 20
-199.99999999999909
 30
0.0
 11
8080.0
 21
-199.99999999999909
 31
0.0
1001
ACDBBLOCKREPETAG
1070
     1
1071
       89
1005
123C92
  0
LINE
  5
123C93
  8
OBJECT
 10
8149.9999749641856
 20
-245.0000000000027
 30
0.0
 11
8086.0
 21
-244.99999999999909
 31
0.0
1001
ACDBBLOCKREPETAG
1070
     1
1071
       90
1005
123C93
  0
LINE
  5
123C94
  8
OBJECT
 10
8149.9999749641856
 20
-154.99999999999909
 30
0.0
 11
8086.0
 21
-154.99999999999909
 31
0.0
1001
ACDBBLOCKREPETAG
1070
     1
1071
       91
1005
123C94
  0
LINE
  5
123C95
  8
OBJECT
 10
8202.9999999999854
 20
-140.99999999999909
 30
0.0
 11
8166.9999999999854
 21
-140.99999999999909
 31
0.0
1001
ACDBBLOCKREPETAG
1070
     1
1071
       92
1005
123C95
  0
LINE
  5
123C96
  8
OBJECT
 10
8166.9999999999854
 20
-140.99999999999909
 30
0.0
 11
8166.9999999999854
 21
-258.99999999999909
 31
0.0
1001
ACDBBLOCKREPETAG
1070
     1
1071
       93
1005
123C96
  0
LINE
  5
123C97
  8
OBJECT
 10
8166.9999999999854
 20
-258.99999999999909
 30
0.0
 11
8202.9999999999854
 21
-258.99999999999909
 31
0.0
1001
ACDBBLOCKREPETAG
1070
     1
1071
       94
1005
123C97
  0
LINE
  5
123C98
  8
OBJECT
 10
8162.9999999999873
 20
-145.49999999999909
 30
0.0
 11
8149.9999999999873
 21
-145.49999999999909
 31
0.0
1001
ACDBBLOCKREPETAG
1070
     1
1071
       95
1005
123C98
  0
LINE
  5
123C99
  8
OBJECT
 10
8149.9999999999873
 20
-254.49999999999909
 30
0.0
 11
8162.9999999999873
 21
-254.49999999999909
 31
0.0
1001
ACDBBLOCKREPETAG
1070
     1
1071
       96
1005
123C99
  0
LINE
  5
123C9A
  8
OBJECT
 10
8162.9999999999873
 20
-254.49999999999909
 30
0.0
 11
8162.9999999999873
 21
-145.49999999999909
 31
0.0
1001
ACDBBLOCKREPETAG
1070
     1
1071
       97
1005
123C9A
  0
LINE
  5
123C9B
  8
OBJECT
 10
8166.9999999999854
 20
-140.99999999999909
 30
0.0
 11
8162.9999999999873
 21
-145.49999999999909
 31
0.0
1001
ACDBBLOCKREPETAG
1070
     1
1071
       98
1005
123C9B
  0
LINE
  5
123C9C
  8
OBJECT
 10
8166.9999999999854
 20
-258.99999999999909
 30
0.0
 11
8162.9999999999873
 21
-254.49999999999909
 31
0.0
1001
ACDBBLOCKREPETAG
1070
     1
1071
       99
1005
123C9C
  0
LINE
  5
123C9D
  8
OBJECT
 10
8083.0
 20
-137.99999999999909
 30
0.0
 11
8080.0
 21
-137.99999999999909
 31
0.0
1001
ACDBBLOCKREPETAG
1070
     1
1071
      100
1005
123C9D
  0
ARC
  5
123C9E
  8
OBJECT
 10
8083.0
 20
-140.99999999999909
 30
0.0
 40
3.0
 50
0.0
 51
90.0
1001
ACDBBLOCKREPETAG
1070
     1
1071
      101
1005
123C9E
  0
LINE
  5
123C9F
  8
OBJECT
 10
8080.0
 20
-261.99999999999909
 30
0.0
 11
8083.0
 21
-261.99999999999909
 31
0.0
1001
ACDBBLOCKREPETAG
1070
     1
1071
      102
1005
123C9F
  0
ARC
  5
123CA0
  8
OBJECT
 10
8083.0
 20
-258.99999999999909
 30
0.0
 40
3.0
 50
270.0
 51
0.0
1001
ACDBBLOCKREPETAG
1070
     1
1071
      103
1005
123CA0
  0
LINE
  5
123CA1
  8
OBJECT
 10
8086.0
 20
-258.99999999999909
 30
0.0
 11
8086.0
 21
-210.3227903203578
 31
0.0
1001
ACDBBLOCKREPETAG
1070
     1
1071
      104
1005
123CA1
  0
LINE
  5
123CA2
  8
OBJECT
 10
8086.0
 20
-189.6772096796403
 30
0.0
 11
8086.0
 21
-140.99999999999909
 31
0.0
1001
ACDBBLOCKREPETAG
1070
     1
1071
      105
1005
123CA2
  0
LINE
  5
123CA3
  8
HIDDEN
 10
8157.9999999999873
 20
-155.49999999999909
 30
0.0
 11
8157.9999999999873
 21
-244.49999999999909
 31
0.0
1001
ACDBBLOCKREPETAG
1070
     1
1071
      106
1005
123CA3
  0
LINE
  5
123CA4
  8
OBJECT
 10
8149.9999749641856
 20
-254.4999509238105
 30
0.0
 11
8149.9999749641856
 21
-145.4999509238105
 31
0.0
1001
ACDBBLOCKREPETAG
1070
     1
1071
      108
1005
123CA4
  0
ARC
  5
123CA5
  8
OBJECT
 10
8129.800000000022
 20
-199.99999999999909
 30
0.0
 40
45.000000000000547
 50
90.0
 51
270.0
1001
ACDBBLOCKREPETAG
1070
     1
1071
      109
1005
123CA5
  0
LINE
  5
123CA6
  8
OBJECT
 10
7923.0
 20
-470.99999999999937
 30
0.0
 11
7923.0
 21
-449.99999999999937
 31
0.0
1001
ACDBBLOCKREPETAG
1070
     1
1071
        0
1005
123CA6
  0
LINE
  5
123CA7
  8
OBJECT
 10
7923.0
 20
-449.99999999999937
 30
0.0
 11
8077.0
 21
-449.99999999999937
 31
0.0
1001
ACDBBLOCKREPETAG
1070
     1
1071
        1
1005
123CA7
  0
LINE
  5
123CA8
  8
HIDDEN
 10
7943.0
 20
-519.99999999999955
 30
0.0
 11
8057.0
 21
-519.99999999999955
 31
0.0
1001
ACDBBLOCKREPETAG
1070
     1
1071
        2
1005
123CA8
  0
LINE
  5
123CA9
  8
OBJECT
 10
8077.0
 20
-449.99999999999937
 30
0.0
 11
8077.0
 21
-470.99999999999937
 31
0.0
1001
ACDBBLOCKREPETAG
1070
     1
1071
        3
1005
123CA9
  0
LINE
  5
123CAA
  8
OBJECT
 10
8077.0
 20
-470.99999999999937
 30
0.0
 11
7923.0
 21
-470.99999999999937
 31
0.0
1001
ACDBBLOCKREPETAG
1070
     1
1071
        4
1005
123CAA
  0
LINE
  5
123CAB
  8
CENTER
 10
8000.0
 20
-434.99999999999949
 30
0.0
 11
8000.0
 21
-789.99999999999955
 31
0.0
1001
ACDBBLOCKREPETAG
1070
     1
1071
        5
1005
123CAB
  0
LINE
  5
123CAC
  8
OBJECT
 10
7925.0
 20
-533.99999999999955
 30
0.0
 11
7925.0
 21
-777.99999999999955
 31
0.0
1001
ACDBBLOCKREPETAG
1070
     1
1071
        6
1005
123CAC
  0
LINE
  5
123CAD
  8
OBJECT
 10
7928.0
 20
-470.99999999999937
 30
0.0
 11
7928.0
 21
-533.99999999999955
 31
0.0
1001
ACDBBLOCKREPETAG
1070
     1
1071
        7
1005
123CAD
  0
LINE
  5
123CAE
  8
OBJECT
 10
8072.0
 20
-533.99999999999955
 30
0.0
 11
8072.0
 21
-470.99999999999937
 31
0.0
1001
ACDBBLOCKREPETAG
1070
     1
1071
        8
1005
123CAE
  0
LINE
  5
123CAF
  8
OBJECT
 10
7920.0
 20
-777.99999999999955
 30
0.0
 11
8080.0
 21
-777.99999999999955
 31
0.0
1001
ACDBBLOCKREPETAG
1070
     1
1071
        9
1005
123CAF
  0
LINE
  5
123CB0
  8
OBJECT
 10
8080.0
 20
-533.99999999999955
 30
0.0
 11
7925.0
 21
-533.99999999999955
 31
0.0
1001
ACDBBLOCKREPETAG
1070
     1
1071
       10
1005
123CB0
  0
LINE
  5
123CB1
  8
OBJECT
 10
7920.0
 20
-777.99999999999955
 30
0.0
 11
7920.0
 21
-789.99999999999955
 31
0.0
1001
ACDBBLOCKREPETAG
1070
     1
1071
       11
1005
123CB1
  0
LINE
  5
123CB2
  8
OBJECT
 10
7920.0
 20
-789.99999999999955
 30
0.0
 11
8080.0
 21
-789.99999999999955
 31
0.0
1001
ACDBBLOCKREPETAG
1070
     1
1071
       12
1005
123CB2
  0
LINE
  5
123CB3
  8
OBJECT
 10
8080.0
 20
-789.99999999999955
 30
0.0
 11
8080.0
 21
-777.99999999999955
 31
0.0
1001
ACDBBLOCKREPETAG
1070
     1
1071
       13
1005
123CB3
  0
LINE
  5
123CB4
  8
OBJECT
 10
8074.9999999998618
 20
-657.99999999985039
 30
0.0
 11
8075.0
 21
-777.99999999999955
 31
0.0
1001
ACDBBLOCKREPETAG
1070
     1
1071
       15
1005
123CB4
  0
LINE
  5
123CB5
  8
OBJECT
 10
8074.9999908029858
 20
-657.99998602702135
 30
0.0
 11
8080.0
 21
-657.99998602702135
 31
0.0
1001
ACDBBLOCKREPETAG
1070
     1
1071
       16
1005
123CB5
  0
ARC
  5
123CB6
  8
OBJECT
 10
8200.6872746716726
 20
-649.40809941010718
 30
0.0
 40
170.6350503965856
 50
137.44134459184301
 51
149.91949581337221
1001
ACDBBLOCKREPETAG
1070
     1
1071
       17
1005
123CB6
  0
ARC
  5
123CB7
  8
OBJECT
 10
8118.8455987040506
 20
-605.88272669536445
 30
0.0
 40
78.072222021763665
 50
147.4551531038623
 51
164.66365997718671
1001
ACDBBLOCKREPETAG
1070
     1
1071
       18
1005
123CB7
  0
ARC
  5
123CB8
  8
OBJECT
 10
8085.7554349608708
 20
-595.99999999999955
 30
0.0
 40
43.55353926885617
 50
165.688452300753
 51
194.3115476992468
1001
ACDBBLOCKREPETAG
1070
     1
1071
       19
1005
123CB8
  0
ARC
  5
123CB9
  8
OBJECT
 10
8200.6872746716726
 20
-542.59190058989179
 30
0.0
 40
170.6350503965856
 50
210.08050418662771
 51
222.55865540815699
1001
ACDBBLOCKREPETAG
1070
     1
1071
       20
1005
123CB9
  0
ARC
  5
123CBA
  8
OBJECT
 10
8118.8455987040506
 20
-586.11727330463452
 30
0.0
 40
78.072222021763665
 50
195.3363400228132
 51
212.5448468961377
1001
ACDBBLOCKREPETAG
1070
     1
1071
       21
1005
123CBA
  0
POINT
  5
123CBB
  8
DOTS
 10
8000.0
 20
-654.99999999999966
 30
0.0
1001
ACDBBLOCKREPETAG
1070
     1
1071
      187
1005
123CBB
  0
LINE
  5
123CBC
  8
OBJECT
 10
6024.1029330933034
 20
-243.80694712371681
 30
0.0
 11
6020.6596569999956
 21
-232.55462199999889
 31
0.0
1001
ACDBBLOCKREPETAG
1070
     1
1071
      300
1005
123CBC
  0
LINE
  5
123CBD
  8
OBJECT
 10
5986.7927499013749
 20
-218.22553374208019
 30
0.0
 11
6020.6596569999956
 21
-232.5546219999969
 31
0.0
1001
ACDBBLOCKREPETAG
1070
     1
1071
      302
1005
123CBD
  0
ARC
  5
123CBE
  8
OBJECT
 10
5982.8961697618997
 20
-227.4351299990567
 30
0.0
 40
10.0
 50
67.066778292911366
 51
154.0147343702935
1001
ACDBBLOCKREPETAG
1070
     1
1071
      303
1005
123CBE
  0
ARC
  5
123CBF
  8
OBJECT
 10
5986.1488390381273
 20
-225.55386256729159
 30
0.0
 40
7.0
 50
67.066778292911366
 51
154.0147337749826
1001
ACDBBLOCKREPETAG
1070
     1
1071
      304
1005
123CBF
  0
LINE
  5
123CC0
  8
OBJECT
 10
5969.4199755553018
 20
-243.89888500818171
 30
0.0
 11
5979.8564918232369
 21
-222.48688253356801
 31
0.0
1001
ACDBBLOCKREPETAG
1070
     1
1071
      341
1005
123CC0
  0
LINE
  5
123CC1
  8
OBJECT
 10
5965.2972169006089
 20
-240.71813901882729
 30
0.0
 11
5973.9071022665084
 21
-223.05373004430751
 31
0.0
1001
ACDBBLOCKREPETAG
1070
     1
1071
      342
1005
123CC1
  0
ARC
  5
123CC2
  8
OBJECT
 10
5976.5796953073141
 20
-207.1289369828437
 30
0.0
 40
60.031113246032611
 50
314.07020130418567
 51
322.33936106089681
1001
ACDBBLOCKREPETAG
1070
     1
1071
      343
1005
123CC2
  0
CIRCLE
  5
123CC3
  8
OBJECT
 10
6000.0
 20
-199.99999999999909
 30
0.0
 40
53.5
1001
ACDBBLOCKREPETAG
1070
     1
1071
      344
1005
123CC3
  0
POINT
  5
123CC4
  8
DOTS
 10
6000.0
 20
-199.99999999999909
 30
0.0
 50
270.0
1001
ACDBBLOCKREPETAG
1070
     1
1071
      362
1005
123CC4
  0
ARC
  5
123CC5
  8
OBJECT
 10
6000.0
 20
-199.99999999999909
 30
0.0
 40
50.0
 50
298.81994300000417
 51
228.52376955965491
1001
ACDBBLOCKREPETAG
1070
     1
1071
        7
1005
123CC5
  0
LINE
  5
123CC6
  8
CENTER
 10
6080.0
 20
-199.99999999999909
 30
0.0
 11
5905.0
 21
-199.99999999999909
 31
0.0
1001
ACDBBLOCKREPETAG
1070
     1
1071
       14
1005
123CC6
  0
LINE
  5
123CC7
  8
CENTER
 10
6000.0
 20
-294.99999999999898
 30
0.0
 11
6000.0
 21
-104.9999999999991
 31
0.0
1001
ACDBBLOCKREPETAG
1070
     1
1071
       15
1005
123CC7
  0
CIRCLE
  5
123CC8
  8
OBJECT
 10
6000.0
 20
-199.99999999999909
 30
0.0
 40
70.0
1001
ACDBBLOCKREPETAG
1070
     1
1071
       16
1005
123CC8
  0
CIRCLE
  5
123CC9
  8
OBJECT
 10
6000.0
 20
-199.99999999999909
 30
0.0
 40
77.0
1001
ACDBBLOCKREPETAG
1070
     1
1071
       17
1005
123CC9
  0
ARC
  5
123CCA
  8
OBJECT
 10
6000.0
 20
-199.99999999999909
 30
0.0
 40
80.0
 50
50.80503257388439
 51
309.19496742611562
1001
ACDBBLOCKREPETAG
1070
     1
1071
       18
1005
123CCA
  0
LINE
  5
123CCB
  8
OBJECT
 10
6045.6618002273253
 20
-137.99999999999909
 30
0.0
 11
6080.0
 21
-137.99999999999909
 31
0.0
1001
ACDBBLOCKREPETAG
1070
     1
1071
       19
1005
123CCB
  0
LINE
  5
123CCC
  8
OBJECT
 10
6045.6618002273253
 20
-261.99999999999909
 30
0.0
 11
6080.0
 21
-261.99999999999909
 31
0.0
1001
ACDBBLOCKREPETAG
1070
     1
1071
       20
1005
123CCC
  0
LINE
  5
123CCD
  8
OBJECT
 10
6202.9999999999864
 20
-483.0000000000008
 30
0.0
 11
6209.9999999999864
 21
-483.0000000000008
 31
0.0
1001
ACDBBLOCKREPETAG
1070
     1
1071
       83
1005
123CCD
  0
LINE
  5
123CCE
  8
OBJECT
 10
6209.9999999999864
 20
-483.0000000000008
 30
0.0
 11
6209.9999999999864
 21
-607.0000000000008
 31
0.0
1001
ACDBBLOCKREPETAG
1070
     1
1071
       84
1005
123CCE
  0
LINE
  5
123CCF
  8
OBJECT
 10
6085.9999999999864
 20
-553.3502637757274
 30
0.0
 11
6085.9999999999864
 21
-655.00000000000068
 31
0.0
1001
ACDBBLOCKREPETAG
1070
     1
1071
       85
1005
123CCF
  0
LINE
  5
123CD0
  8
OBJECT
 10
6209.9999999999864
 20
-607.0000000000008
 30
0.0
 11
6202.9999999999864
 21
-607.0000000000008
 31
0.0
1001
ACDBBLOCKREPETAG
1070
     1
1071
       86
1005
123CD0
  0
LINE
  5
123CD1
  8
OBJECT
 10
6202.9999999999864
 20
-607.0000000000008
 30
0.0
 11
6202.9999999999864
 21
-483.0000000000008
 31
0.0
1001
ACDBBLOCKREPETAG
1070
     1
1071
       87
1005
123CD1
  0
LINE
  5
123CD2
  8
CENTER
 10
6134.9999999999873
 20
-545.0000000000008
 30
0.0
 11
6224.9999999999873
 21
-545.0000000000008
 31
0.0
1001
ACDBBLOCKREPETAG
1070
     1
1071
       88
1005
123CD2
  0
LINE
  5
123CD3
  8
OBJECT
 10
6079.9999999999818
 20
-658.0
 30
0.0
 11
6082.9999999999864
 21
-658.0000000000008
 31
0.0
1001
ACDBBLOCKREPETAG
1070
     1
1071
       89
1005
123CD3
  0
ARC
  5
123CD4
  8
OBJECT
 10
6082.9999999999864
 20
-655.00000000000068
 30
0.0
 40
3.0
 50
270.0
 51
0.0
1001
ACDBBLOCKREPETAG
1070
     1
1071
       90
1005
123CD4
  0
LINE
  5
123CD5
  8
OBJECT
 10
6202.9999999999864
 20
-486.0000000000008
 30
0.0
 11
6166.9999999999873
 21
-486.0000000000008
 31
0.0
1001
ACDBBLOCKREPETAG
1070
     1
1071
       91
1005
123CD5
  0
LINE
  5
123CD6
  8
OBJECT
 10
6166.9999999999873
 20
-486.0000000000008
 30
0.0
 11
6166.9999999999873
 21
-604.0000000000008
 31
0.0
1001
ACDBBLOCKREPETAG
1070
     1
1071
       92
1005
123CD6
  0
LINE
  5
123CD7
  8
OBJECT
 10
6162.9999999999864
 20
-490.5000000000008
 30
0.0
 11
6162.9999999999864
 21
-599.5000000000008
 31
0.0
1001
ACDBBLOCKREPETAG
1070
     1
1071
       93
1005
123CD7
  0
LINE
  5
123CD8
  8
OBJECT
 10
6162.9999999999864
 20
-490.5000000000008
 30
0.0
 11
6149.9999999999873
 21
-490.5000000000008
 31
0.0
1001
ACDBBLOCKREPETAG
1070
     1
1071
       94
1005
123CD8
  0
LINE
  5
123CD9
  8
OBJECT
 10
6166.9999999999873
 20
-604.0000000000008
 30
0.0
 11
6202.9999999999864
 21
-604.0000000000008
 31
0.0
1001
ACDBBLOCKREPETAG
1070
     1
1071
       95
1005
123CD9
  0
LINE
  5
123CDA
  8
OBJECT
 10
6166.9999999999873
 20
-486.0000000000008
 30
0.0
 11
6162.9999999999864
 21
-490.5000000000008
 31
0.0
1001
ACDBBLOCKREPETAG
1070
     1
1071
       96
1005
123CDA
  0
LINE
  5
123CDB
  8
OBJECT
 10
6149.9999999999873
 20
-490.5000000000008
 30
0.0
 11
6149.9999999999873
 21
-575.74491827928784
 31
0.0
1001
ACDBBLOCKREPETAG
1070
     1
1071
       97
1005
123CDB
  0
ARC
  5
123CDC
  8
OBJECT
 10
6152.7999999999838
 20
-585.00000000000068
 30
0.0
 40
85.0
 50
91.887731891831123
 51
143.1301023540934
1001
ACDBBLOCKREPETAG
1070
     1
1071
       98
1005
123CDC
  0
LINE
  5
123CDD
  8
HIDDEN
 10
6157.9999999999873
 20
-500.5000000000008
 30
0.0
 11
6157.9999999999873
 21
-589.5000000000008
 31
0.0
1001
ACDBBLOCKREPETAG
1070
     1
1071
      100
1005
123CDD
  0
LINE
  5
123CDE
  8
OBJECT
 10
6085.9999999999864
 20
-651.07945073181781
 30
0.0
 11
6156.6313199210299
 21
-599.5000000000008
 31
0.0
1001
ACDBBLOCKREPETAG
1070
     1
1071
      101
1005
123CDE
  0
LINE
  5
123CDF
  8
OBJECT
 10
6079.9999999999818
 20
-534.0
 30
0.0
 11
6084.7999999999856
 21
-534.0
 31
0.0
1001
ACDBBLOCKREPETAG
1070
     1
1071
      102
1005
123CDF
  0
LINE
  5
123CE0
  8
OBJECT
 10
6085.9999999999864
 20
-553.35026377573001
 30
0.0
 11
6084.7999999999856
 21
-534.0
 31
0.0
1001
ACDBBLOCKREPETAG
1070
     1
1071
      103
1005
123CE0
  0
LINE
  5
123CE1
  8
OBJECT
 10
6162.9999999999864
 20
-599.5000000000008
 30
0.0
 11
6156.6313199210299
 21
-599.5000000000008
 31
0.0
1001
ACDBBLOCKREPETAG
1070
     1
1071
      104
1005
123CE1
  0
LINE
  5
123CE2
  8
OBJECT
 10
6166.9999999999873
 20
-604.0000000000008
 30
0.0
 11
6162.9999999999864
 21
-599.5000000000008
 31
0.0
1001
ACDBBLOCKREPETAG
1070
     1
1071
      105
1005
123CE2
  0
LINE
  5
123CE3
  8
OBJECT
 10
6202.9999999999864
 20
-137.99999999999909
 30
0.0
 11
6209.9999999999864
 21
-137.99999999999909
 31
0.0
1001
ACDBBLOCKREPETAG
1070
     1
1071
       85
1005
123CE3
  0
LINE
  5
123CE4
  8
OBJECT
 10
6209.9999999999864
 20
-137.99999999999909
 30
0.0
 11
6209.9999999999864
 21
-261.99999999999909
 31
0.0
1001
ACDBBLOCKREPETAG
1070
     1
1071
       86
1005
123CE4
  0
LINE
  5
123CE5
  8
OBJECT
 10
6209.9999999999864
 20
-261.99999999999909
 30
0.0
 11
6202.9999999999864
 21
-261.99999999999909
 31
0.0
1001
ACDBBLOCKREPETAG
1070
     1
1071
       87
1005
123CE5
  0
LINE
  5
123CE6
  8
OBJECT
 10
6202.9999999999864
 20
-261.99999999999909
 30
0.0
 11
6202.9999999999864
 21
-137.99999999999909
 31
0.0
1001
ACDBBLOCKREPETAG
1070
     1
1071
       88
1005
123CE6
  0
LINE
  5
123CE7
  8
CENTER
 10
6224.9999999999873
 20
-199.99999999999909
 30
0.0
 11
6080.0
 21
-199.99999999999909
 31
0.0
1001
ACDBBLOCKREPETAG
1070
     1
1071
       89
1005
123CE7
  0
LINE
  5
123CE8
  8
OBJECT
 10
6149.9999749641856
 20
-245.0000000000027
 30
0.0
 11
6086.0
 21
-244.99999999999909
 31
0.0
1001
ACDBBLOCKREPETAG
1070
     1
1071
       90
1005
123CE8
  0
LINE
  5
123CE9
  8
OBJECT
 10
6149.9999749641856
 20
-154.99999999999909
 30
0.0
 11
6086.0
 21
-154.99999999999909
 31
0.0
1001
ACDBBLOCKREPETAG
1070
     1
1071
       91
1005
123CE9
  0
LINE
  5
123CEA
  8
OBJECT
 10
6202.9999999999864
 20
-140.99999999999909
 30
0.0
 11
6166.9999999999873
 21
-140.99999999999909
 31
0.0
1001
ACDBBLOCKREPETAG
1070
     1
1071
       92
1005
123CEA
  0
LINE
  5
123CEB
  8
OBJECT
 10
6166.9999999999873
 20
-140.99999999999909
 30
0.0
 11
6166.9999999999873
 21
-258.99999999999909
 31
0.0
1001
ACDBBLOCKREPETAG
1070
     1
1071
       93
1005
123CEB
  0
LINE
  5
123CEC
  8
OBJECT
 10
6166.9999999999873
 20
-258.99999999999909
 30
0.0
 11
6202.9999999999864
 21
-258.99999999999909
 31
0.0
1001
ACDBBLOCKREPETAG
1070
     1
1071
       94
1005
123CEC
  0
LINE
  5
123CED
  8
OBJECT
 10
6162.9999999999864
 20
-145.49999999999909
 30
0.0
 11
6149.9999999999873
 21
-145.49999999999909
 31
0.0
1001
ACDBBLOCKREPETAG
1070
     1
1071
       95
1005
123CED
  0
LINE
  5
123CEE
  8
OBJECT
 10
6149.9999999999873
 20
-254.49999999999909
 30
0.0
 11
6162.9999999999864
 21
-254.49999999999909
 31
0.0
1001
ACDBBLOCKREPETAG
1070
     1
1071
       96
1005
123CEE
  0
LINE
  5
123CEF
  8
OBJECT
 10
6162.9999999999864
 20
-254.49999999999909
 30
0.0
 11
6162.9999999999864
 21
-145.49999999999909
 31
0.0
1001
ACDBBLOCKREPETAG
1070
     1
1071
       97
1005
123CEF
  0
LINE
  5
123CF0
  8
OBJECT
 10
6166.9999999999873
 20
-140.99999999999909
 30
0.0
 11
6162.9999999999864
 21
-145.49999999999909
 31
0.0
1001
ACDBBLOCKREPETAG
1070
     1
1071
       98
1005
123CF0
  0
LINE
  5
123CF1
  8
OBJECT
 10
6166.9999999999873
 20
-258.99999999999909
 30
0.0
 11
6162.9999999999864
 21
-254.49999999999909
 31
0.0
1001
ACDBBLOCKREPETAG
1070
     1
1071
       99
1005
123CF1
  0
LINE
  5
123CF2
  8
OBJECT
 10
6083.0
 20
-137.99999999999909
 30
0.0
 11
6080.0
 21
-137.99999999999909
 31
0.0
1001
ACDBBLOCKREPETAG
1070
     1
1071
      100
1005
123CF2
  0
ARC
  5
123CF3
  8
OBJECT
 10
6083.0
 20
-140.99999999999909
 30
0.0
 40
3.0
 50
0.0
 51
90.0
1001
ACDBBLOCKREPETAG
1070
     1
1071
      101
1005
123CF3
  0
LINE
  5
123CF4
  8
OBJECT
 10
6080.0
 20
-261.99999999999909
 30
0.0
 11
6083.0
 21
-261.99999999999909
 31
0.0
1001
ACDBBLOCKREPETAG
1070
     1
1071
      102
1005
123CF4
  0
ARC
  5
123CF5
  8
OBJECT
 10
6083.0
 20
-258.99999999999909
 30
0.0
 40
3.0
 50
270.0
 51
0.0
1001
ACDBBLOCKREPETAG
1070
     1
1071
      103
1005
123CF5
  0
LINE
  5
123CF6
  8
OBJECT
 10
6086.0
 20
-258.99999999999909
 30
0.0
 11
6086.0
 21
-210.3227903203578
 31
0.0
1001
ACDBBLOCKREPETAG
1070
     1
1071
      104
1005
123CF6
  0
LINE
  5
123CF7
  8
OBJECT
 10
6086.0
 20
-189.6772096796403
 30
0.0
 11
6086.0
 21
-140.99999999999909
 31
0.0
1001
ACDBBLOCKREPETAG
1070
     1
1071
      105
1005
123CF7
  0
LINE
  5
123CF8
  8
HIDDEN
 10
6157.9999999999873
 20
-155.49999999999909
 30
0.0
 11
6157.9999999999873
 21
-244.49999999999909
 31
0.0
1001
ACDBBLOCKREPETAG
1070
     1
1071
      106
1005
123CF8
  0
LINE
  5
123CF9
  8
OBJECT
 10
6149.9999749641856
 20
-254.4999509238105
 30
0.0
 11
6149.9999749641856
 21
-145.4999509238105
 31
0.0
1001
ACDBBLOCKREPETAG
1070
     1
1071
      108
1005
123CF9
  0
ARC
  5
123CFA
  8
OBJECT
 10
6129.8000000000247
 20
-199.99999999999909
 30
0.0
 40
45.000000000000547
 50
90.0
 51
270.0
1001
ACDBBLOCKREPETAG
1070
     1
1071
      109
1005
123CFA
  0
LINE
  5
123CFB
  8
OBJECT
 10
5923.0
 20
-470.99999999999937
 30
0.0
 11
5923.0
 21
-449.99999999999937
 31
0.0
1001
ACDBBLOCKREPETAG
1070
     1
1071
        0
1005
123CFB
  0
LINE
  5
123CFC
  8
OBJECT
 10
5923.0
 20
-449.99999999999937
 30
0.0
 11
6077.0
 21
-449.99999999999937
 31
0.0
1001
ACDBBLOCKREPETAG
1070
     1
1071
        1
1005
123CFC
  0
LINE
  5
123CFD
  8
HIDDEN
 10
5943.0
 20
-519.99999999999955
 30
0.0
 11
6057.0
 21
-519.99999999999955
 31
0.0
1001
ACDBBLOCKREPETAG
1070
     1
1071
        2
1005
123CFD
  0
LINE
  5
123CFE
  8
OBJECT
 10
6077.0
 20
-449.99999999999937
 30
0.0
 11
6077.0
 21
-470.99999999999937
 31
0.0
1001
ACDBBLOCKREPETAG
1070
     1
1071
        3
1005
123CFE
  0
LINE
  5
123CFF
  8
OBJECT
 10
6077.0
 20
-470.99999999999937
 30
0.0
 11
5923.0
 21
-470.99999999999937
 31
0.0
1001
ACDBBLOCKREPETAG
1070
     1
1071
        4
1005
123CFF
  0
LINE
  5
123D00
  8
CENTER
 10
6000.0
 20
-434.99999999999949
 30
0.0
 11
6000.0
 21
-789.99999999999955
 31
0.0
1001
ACDBBLOCKREPETAG
1070
     1
1071
        5
1005
123D00
  0
LINE
  5
123D01
  8
OBJECT
 10
5925.0
 20
-533.99999999999955
 30
0.0
 11
5925.0
 21
-777.99999999999955
 31
0.0
1001
ACDBBLOCKREPETAG
1070
     1
1071
        6
1005
123D01
  0
LINE
  5
123D02
  8
OBJECT
 10
5928.0
 20
-470.99999999999937
 30
0.0
 11
5928.0
 21
-533.99999999999955
 31
0.0
1001
ACDBBLOCKREPETAG
1070
     1
1071
        7
1005
123D02
  0
LINE
  5
123D03
  8
OBJECT
 10
6072.0
 20
-533.99999999999955
 30
0.0
 11
6072.0
 21
-470.99999999999937
 31
0.0
1001
ACDBBLOCKREPETAG
1070
     1
1071
        8
1005
123D03
  0
LINE
  5
123D04
  8
OBJECT
 10
5920.0
 20
-777.99999999999955
 30
0.0
 11
6080.0
 21
-777.99999999999955
 31
0.0
1001
ACDBBLOCKREPETAG
1070
     1
1071
        9
1005
123D04
  0
LINE
  5
123D05
  8
OBJECT
 10
6080.0
 20
-533.99999999999955
 30
0.0
 11
5925.0
 21
-533.99999999999955
 31
0.0
1001
ACDBBLOCKREPETAG
1070
     1
1071
       10
1005
123D05
  0
LINE
  5
123D06
  8
OBJECT
 10
5920.0
 20
-777.99999999999955
 30
0.0
 11
5920.0
 21
-789.99999999999955
 31
0.0
1001
ACDBBLOCKREPETAG
1070
     1
1071
       11
1005
123D06
  0
LINE
  5
123D07
  8
OBJECT
 10
5920.0
 20
-789.99999999999955
 30
0.0
 11
6080.0
 21
-789.99999999999955
 31
0.0
1001
ACDBBLOCKREPETAG
1070
     1
1071
       12
1005
123D07
  0
LINE
  5
123D08
  8
OBJECT
 10
6080.0
 20
-789.99999999999955
 30
0.0
 11
6080.0
 21
-777.99999999999955
 31
0.0
1001
ACDBBLOCKREPETAG
1070
     1
1071
       13
1005
123D08
  0
LINE
  5
123D09
  8
OBJECT
 10
6074.9999999998618
 20
-657.99999999985039
 30
0.0
 11
6075.0
 21
-777.99999999999955
 31
0.0
1001
ACDBBLOCKREPETAG
1070
     1
1071
       15
1005
123D09
  0
LINE
  5
123D0A
  8
OBJECT
 10
6074.9999908029858
 20
-657.99998602702135
 30
0.0
 11
6080.0
 21
-657.99998602702135
 31
0.0
1001
ACDBBLOCKREPETAG
1070
     1
1071
       16
1005
123D0A
  0
ARC
  5
123D0B
  8
OBJECT
 10
6200.6872746716735
 20
-649.40809941010718
 30
0.0
 40
170.6350503965856
 50
137.44134459184301
 51
149.91949581337221
1001
ACDBBLOCKREPETAG
1070
     1
1071
       17
1005
123D0B
  0
ARC
  5
123D0C
  8
OBJECT
 10
6118.8455987040506
 20
-605.88272669536445
 30
0.0
 40
78.072222021763665
 50
147.4551531038623
 51
164.66365997718671
1001
ACDBBLOCKREPETAG
1070
     1
1071
       18
1005
123D0C
  0
ARC
  5
123D0D
  8
OBJECT
 10
6085.7554349608727
 20
-595.99999999999955
 30
0.0
 40
43.55353926885617
 50
165.688452300753
 51
194.3115476992468
1001
ACDBBLOCKREPETAG
1070
     1
1071
       19
1005
123D0D
  0
ARC
  5
123D0E
  8
OBJECT
 10
6200.6872746716735
 20
-542.59190058989179
 30
0.0
 40
170.6350503965856
 50
210.08050418662771
 51
222.55865540815699
1001
ACDBBLOCKREPETAG
1070
     1
1071
       20
1005
123D0E
  0
ARC
  5
123D0F
  8
OBJECT
 10
6118.8455987040506
 20
-586.11727330463452
 30
0.0
 40
78.072222021763665
 50
195.3363400228132
 51
212.5448468961377
1001
ACDBBLOCKREPETAG
1070
     1
1071
       21
1005
123D0F
  0
POINT
  5
123D10
  8
DOTS
 10
6000.0
 20
-654.99999999999966
 30
0.0
1001
ACDBBLOCKREPETAG
1070
     1
1071
      187
1005
123D10
  0
LINE
  5
123D11
  8
OBJECT
 10
4024.102933093302
 20
-243.80694712371681
 30
0.0
 11
4020.6596569999951
 21
-232.55462199999889
 31
0.0
1001
ACDBBLOCKREPETAG
1070
     1
1071
      300
1005
123D11
  0
LINE
  5
123D12
  8
OBJECT
 10
3986.7927499013749
 20
-218.22553374208019
 30
0.0
 11
4020.6596569999951
 21
-232.5546219999969
 31
0.0
1001
ACDBBLOCKREPETAG
1070
     1
1071
      302
1005
123D12
  0
ARC
  5
123D13
  8
OBJECT
 10
3982.896169761902
 20
-227.4351299990567
 30
0.0
 40
10.0
 50
67.066778292911366
 51
154.0147343702935
1001
ACDBBLOCKREPETAG
1070
     1
1071
      303
1005
123D13
  0
ARC
  5
123D14
  8
OBJECT
 10
3986.1488390381278
 20
-225.55386256729159
 30
0.0
 40
7.0
 50
67.066778292911366
 51
154.01473377497121
1001
ACDBBLOCKREPETAG
1070
     1
1071
      304
1005
123D14
  0
LINE
  5
123D15
  8
OBJECT
 10
3969.4199755553018
 20
-243.89888500818171
 30
0.0
 11
3979.8564918232369
 21
-222.48688253356801
 31
0.0
1001
ACDBBLOCKREPETAG
1070
     1
1071
      341
1005
123D15
  0
LINE
  5
123D16
  8
OBJECT
 10
3965.2972169006089
 20
-240.71813901882729
 30
0.0
 11
3973.9071022665089
 21
-223.05373004430751
 31
0.0
1001
ACDBBLOCKREPETAG
1070
     1
1071
      342
1005
123D16
  0
ARC
  5
123D17
  8
OBJECT
 10
3976.579695307315
 20
-207.1289369828437
 30
0.0
 40
60.031113246032611
 50
314.07020130418567
 51
322.33936106091278
1001
ACDBBLOCKREPETAG
1070
     1
1071
      343
1005
123D17
  0
CIRCLE
  5
123D18
  8
OBJECT
 10
4000.0
 20
-199.99999999999909
 30
0.0
 40
53.5
1001
ACDBBLOCKREPETAG
1070
     1
1071
      344
1005
123D18
  0
POINT
  5
123D19
  8
DOTS
 10
4000.0
 20
-199.99999999999909
 30
0.0
 50
270.0
1001
ACDBBLOCKREPETAG
1070
     1
1071
      362
1005
123D19
  0
ARC
  5
123D1A
  8
OBJECT
 10
4000.0
 20
-199.99999999999909
 30
0.0
 40
50.0
 50
298.81994300000417
 51
228.52376955967449
1001
ACDBBLOCKREPETAG
1070
     1
1071
        7
1005
123D1A
  0
LINE
  5
123D1B
  8
CENTER
 10
4080.0
 20
-199.99999999999909
 30
0.0
 11
3905.0
 21
-199.99999999999909
 31
0.0
1001
ACDBBLOCKREPETAG
1070
     1
1071
       14
1005
123D1B
  0
LINE
  5
123D1C
  8
CENTER
 10
4000.0
 20
-294.99999999999898
 30
0.0
 11
4000.0
 21
-104.9999999999991
 31
0.0
1001
ACDBBLOCKREPETAG
1070
     1
1071
       15
1005
123D1C
  0
CIRCLE
  5
123D1D
  8
OBJECT
 10
4000.0
 20
-199.99999999999909
 30
0.0
 40
70.0
1001
ACDBBLOCKREPETAG
1070
     1
1071
       16
1005
123D1D
  0
CIRCLE
  5
123D1E
  8
OBJECT
 10
4000.0
 20
-199.99999999999909
 30
0.0
 40
77.0
1001
ACDBBLOCKREPETAG
1070
     1
1071
       17
1005
123D1E
  0
ARC
  5
123D1F
  8
OBJECT
 10
4000.0
 20
-199.99999999999909
 30
0.0
 40
80.0
 50
50.805032573864182
 51
309.1949674261358
1001
ACDBBLOCKREPETAG
1070
     1
1071
       18
1005
123D1F
  0
LINE
  5
123D20
  8
OBJECT
 10
4045.661800227324
 20
-137.99999999999909
 30
0.0
 11
4080.0
 21
-137.99999999999909
 31
0.0
1001
ACDBBLOCKREPETAG
1070
     1
1071
       19
1005
123D20
  0
LINE
  5
123D21
  8
OBJECT
 10
4045.661800227324
 20
-261.99999999999909
 30
0.0
 11
4080.0
 21
-261.99999999999909
 31
0.0
1001
ACDBBLOCKREPETAG
1070
     1
1071
       20
1005
123D21
  0
LINE
  5
123D22
  8
OBJECT
 10
4202.9999999999854
 20
-483.0000000000008
 30
0.0
 11
4209.9999999999854
 21
-483.0000000000008
 31
0.0
1001
ACDBBLOCKREPETAG
1070
     1
1071
       83
1005
123D22
  0
LINE
  5
123D23
  8
OBJECT
 10
4209.9999999999854
 20
-483.0000000000008
 30
0.0
 11
4209.9999999999854
 21
-607.0000000000008
 31
0.0
1001
ACDBBLOCKREPETAG
1070
     1
1071
       84
1005
123D23
  0
LINE
  5
123D24
  8
OBJECT
 10
4085.9999999999859
 20
-553.3502637757274
 30
0.0
 11
4085.9999999999859
 21
-655.00000000000068
 31
0.0
1001
ACDBBLOCKREPETAG
1070
     1
1071
       85
1005
123D24
  0
LINE
  5
123D25
  8
OBJECT
 10
4209.9999999999854
 20
-607.0000000000008
 30
0.0
 11
4202.9999999999854
 21
-607.0000000000008
 31
0.0
1001
ACDBBLOCKREPETAG
1070
     1
1071
       86
1005
123D25
  0
LINE
  5
123D26
  8
OBJECT
 10
4202.9999999999854
 20
-607.0000000000008
 30
0.0
 11
4202.9999999999854
 21
-483.0000000000008
 31
0.0
1001
ACDBBLOCKREPETAG
1070
     1
1071
       87
1005
123D26
  0
LINE
  5
123D27
  8
CENTER
 10
4134.9999999999854
 20
-545.0000000000008
 30
0.0
 11
4224.9999999999864
 21
-545.0000000000008
 31
0.0
1001
ACDBBLOCKREPETAG
1070
     1
1071
       88
1005
123D27
  0
LINE
  5
123D28
  8
OBJECT
 10
4079.9999999999818
 20
-658.0
 30
0.0
 11
4082.999999999985
 21
-658.0000000000008
 31
0.0
1001
ACDBBLOCKREPETAG
1070
     1
1071
       89
1005
123D28
  0
ARC
  5
123D29
  8
OBJECT
 10
4082.999999999985
 20
-655.00000000000068
 30
0.0
 40
3.0
 50
270.0
 51
0.0
1001
ACDBBLOCKREPETAG
1070
     1
1071
       90
1005
123D29
  0
LINE
  5
123D2A
  8
OBJECT
 10
4202.9999999999854
 20
-486.0000000000008
 30
0.0
 11
4166.9999999999854
 21
-486.0000000000008
 31
0.0
1001
ACDBBLOCKREPETAG
1070
     1
1071
       91
1005
123D2A
  0
LINE
  5
123D2B
  8
OBJECT
 10
4166.9999999999854
 20
-486.0000000000008
 30
0.0
 11
4166.9999999999854
 21
-604.0000000000008
 31
0.0
1001
ACDBBLOCKREPETAG
1070
     1
1071
       92
1005
123D2B
  0
LINE
  5
123D2C
  8
OBJECT
 10
4162.9999999999854
 20
-490.5000000000008
 30
0.0
 11
4162.9999999999854
 21
-599.5000000000008
 31
0.0
1001
ACDBBLOCKREPETAG
1070
     1
1071
       93
1005
123D2C
  0
LINE
  5
123D2D
  8
OBJECT
 10
4162.9999999999854
 20
-490.5000000000008
 30
0.0
 11
4149.9999999999864
 21
-490.5000000000008
 31
0.0
1001
ACDBBLOCKREPETAG
1070
     1
1071
       94
1005
123D2D
  0
LINE
  5
123D2E
  8
OBJECT
 10
4166.9999999999854
 20
-604.0000000000008
 30
0.0
 11
4202.9999999999854
 21
-604.0000000000008
 31
0.0
1001
ACDBBLOCKREPETAG
1070
     1
1071
       95
1005
123D2E
  0
LINE
  5
123D2F
  8
OBJECT
 10
4166.9999999999854
 20
-486.0000000000008
 30
0.0
 11
4162.9999999999854
 21
-490.5000000000008
 31
0.0
1001
ACDBBLOCKREPETAG
1070
     1
1071
       96
1005
123D2F
  0
LINE
  5
123D30
  8
OBJECT
 10
4149.9999999999864
 20
-490.5000000000008
 30
0.0
 11
4149.9999999999864
 21
-575.74491827928784
 31
0.0
1001
ACDBBLOCKREPETAG
1070
     1
1071
       97
1005
123D30
  0
ARC
  5
123D31
  8
OBJECT
 10
4152.7999999999838
 20
-585.00000000000068
 30
0.0
 40
85.0
 50
91.887731891831123
 51
143.1301023540934
1001
ACDBBLOCKREPETAG
1070
     1
1071
       98
1005
123D31
  0
LINE
  5
123D32
  8
HIDDEN
 10
4157.9999999999864
 20
-500.5000000000008
 30
0.0
 11
4157.9999999999864
 21
-589.5000000000008
 31
0.0
1001
ACDBBLOCKREPETAG
1070
     1
1071
      100
1005
123D32
  0
LINE
  5
123D33
  8
OBJECT
 10
4085.9999999999859
 20
-651.07945073181781
 30
0.0
 11
4156.6313199210299
 21
-599.5000000000008
 31
0.0
1001
ACDBBLOCKREPETAG
1070
     1
1071
      101
1005
123D33
  0
LINE
  5
123D34
  8
OBJECT
 10
4079.9999999999818
 20
-534.0
 30
0.0
 11
4084.7999999999852
 21
-534.0
 31
0.0
1001
ACDBBLOCKREPETAG
1070
     1
1071
      102
1005
123D34
  0
LINE
  5
123D35
  8
OBJECT
 10
4085.9999999999859
 20
-553.35026377573001
 30
0.0
 11
4084.7999999999852
 21
-534.0
 31
0.0
1001
ACDBBLOCKREPETAG
1070
     1
1071
      103
1005
123D35
  0
LINE
  5
123D36
  8
OBJECT
 10
4162.9999999999854
 20
-599.5000000000008
 30
0.0
 11
4156.6313199210299
 21
-599.5000000000008
 31
0.0
1001
ACDBBLOCKREPETAG
1070
     1
1071
      104
1005
123D36
  0
LINE
  5
123D37
  8
OBJECT
 10
4166.9999999999854
 20
-604.0000000000008
 30
0.0
 11
4162.9999999999854
 21
-599.5000000000008
 31
0.0
1001
ACDBBLOCKREPETAG
1070
     1
1071
      105
1005
123D37
  0
LINE
  5
123D38
  8
OBJECT
 10
4202.9999999999854
 20
-137.99999999999909
 30
0.0
 11
4209.9999999999854
 21
-137.99999999999909
 31
0.0
1001
ACDBBLOCKREPETAG
1070
     1
1071
       85
1005
123D38
  0
LINE
  5
123D39
  8
OBJECT
 10
4209.9999999999854
 20
-137.99999999999909
 30
0.0
 11
4209.9999999999854
 21
-261.99999999999909
 31
0.0
1001
ACDBBLOCKREPETAG
1070
     1
1071
       86
1005
123D39
  0
LINE
  5
123D3A
  8
OBJECT
 10
4209.9999999999854
 20
-261.99999999999909
 30
0.0
 11
4202.9999999999854
 21
-261.99999999999909
 31
0.0
1001
ACDBBLOCKREPETAG
1070
     1
1071
       87
1005
123D3A
  0
LINE
  5
123D3B
  8
OBJECT
 10
4202.9999999999854
 20
-261.99999999999909
 30
0.0
 11
4202.9999999999854
 21
-137.99999999999909
 31
0.0
1001
ACDBBLOCKREPETAG
1070
     1
1071
       88
1005
123D3B
  0
LINE
  5
123D3C
  8
CENTER
 10
4224.9999999999864
 20
-199.99999999999909
 30
0.0
 11
4080.0
 21
-199.99999999999909
 31
0.0
1001
ACDBBLOCKREPETAG
1070
     1
1071
       89
1005
123D3C
  0
LINE
  5
123D3D
  8
OBJECT
 10
4149.9999749641856
 20
-245.0000000000027
 30
0.0
 11
4086.0
 21
-244.99999999999909
 31
0.0
1001
ACDBBLOCKREPETAG
1070
     1
1071
       90
1005
123D3D
  0
LINE
  5
123D3E
  8
OBJECT
 10
4149.9999749641856
 20
-154.99999999999909
 30
0.0
 11
4086.0
 21
-154.99999999999909
 31
0.0
1001
ACDBBLOCKREPETAG
1070
     1
1071
       91
1005
123D3E
  0
LINE
  5
123D3F
  8
OBJECT
 10
4202.9999999999854
 20
-140.99999999999909
 30
0.0
 11
4166.9999999999854
 21
-140.99999999999909
 31
0.0
1001
ACDBBLOCKREPETAG
1070
     1
1071
       92
1005
123D3F
  0
LINE
  5
123D40
  8
OBJECT
 10
4166.9999999999854
 20
-140.99999999999909
 30
0.0
 11
4166.9999999999854
 21
-258.99999999999909
 31
0.0
1001
ACDBBLOCKREPETAG
1070
     1
1071
       93
1005
123D40
  0
LINE
  5
123D41
  8
OBJECT
 10
4166.9999999999854
 20
-258.99999999999909
 30
0.0
 11
4202.9999999999854
 21
-258.99999999999909
 31
0.0
1001
ACDBBLOCKREPETAG
1070
     1
1071
       94
1005
123D41
  0
LINE
  5
123D42
  8
OBJECT
 10
4162.9999999999854
 20
-145.49999999999909
 30
0.0
 11
4149.9999999999864
 21
-145.49999999999909
 31
0.0
1001
ACDBBLOCKREPETAG
1070
     1
1071
       95
1005
123D42
  0
LINE
  5
123D43
  8
OBJECT
 10
4149.9999999999864
 20
-254.49999999999909
 30
0.0
 11
4162.9999999999854
 21
-254.49999999999909
 31
0.0
1001
ACDBBLOCKREPETAG
1070
     1
1071
       96
1005
123D43
  0
LINE
  5
123D44
  8
OBJECT
 10
4162.9999999999854
 20
-254.49999999999909
 30
0.0
 11
4162.9999999999854
 21
-145.49999999999909
 31
0.0
1001
ACDBBLOCKREPETAG
1070
     1
1071
       97
1005
123D44
  0
LINE
  5
123D45
  8
OBJECT
 10
4166.9999999999854
 20
-140.99999999999909
 30
0.0
 11
4162.9999999999854
 21
-145.49999999999909
 31
0.0
1001
ACDBBLOCKREPETAG
1070
     1
1071
       98
1005
123D45
  0
LINE
  5
123D46
  8
OBJECT
 10
4166.9999999999854
 20
-258.99999999999909
 30
0.0
 11
4162.9999999999854
 21
-254.49999999999909
 31
0.0
1001
ACDBBLOCKREPETAG
1070
     1
1071
       99
1005
123D46
  0
LINE
  5
123D47
  8
OBJECT
 10
4083.0
 20
-137.99999999999909
 30
0.0
 11
4080.0
 21
-137.99999999999909
 31
0.0
1001
ACDBBLOCKREPETAG
1070
     1
1071
      100
1005
123D47
  0
ARC
  5
123D48
  8
OBJECT
 10
4083.0
 20
-140.99999999999909
 30
0.0
 40
3.0
 50
0.0
 51
90.0
1001
ACDBBLOCKREPETAG
1070
     1
1071
      101
1005
123D48
  0
LINE
  5
123D49
  8
OBJECT
 10
4080.0
 20
-261.99999999999909
 30
0.0
 11
4083.0
 21
-261.99999999999909
 31
0.0
1001
ACDBBLOCKREPETAG
1070
     1
1071
      102
1005
123D49
  0
ARC
  5
123D4A
  8
OBJECT
 10
4083.0
 20
-258.99999999999909
 30
0.0
 40
3.0
 50
270.0
 51
0.0
1001
ACDBBLOCKREPETAG
1070
     1
1071
      103
1005
123D4A
  0
LINE
  5
123D4B
  8
OBJECT
 10
4086.0
 20
-258.99999999999909
 30
0.0
 11
4086.0
 21
-210.3227903203578
 31
0.0
1001
ACDBBLOCKREPETAG
1070
     1
1071
      104
1005
123D4B
  0
LINE
  5
123D4C
  8
OBJECT
 10
4086.0
 20
-189.6772096796403
 30
0.0
 11
4086.0
 21
-140.99999999999909
 31
0.0
1001
ACDBBLOCKREPETAG
1070
     1
1071
      105
1005
123D4C
  0
LINE
  5
123D4D
  8
HIDDEN
 10
4157.9999999999864
 20
-155.49999999999909
 30
0.0
 11
4157.9999999999864
 21
-244.49999999999909
 31
0.0
1001
ACDBBLOCKREPETAG
1070
     1
1071
      106
1005
123D4D
  0
LINE
  5
123D4E
  8
OBJECT
 10
4149.9999749641856
 20
-254.4999509238105
 30
0.0
 11
4149.9999749641856
 21
-145.4999509238105
 31
0.0
1001
ACDBBLOCKREPETAG
1070
     1
1071
      108
1005
123D4E
  0
ARC
  5
123D4F
  8
OBJECT
 10
4129.8000000000247
 20
-199.99999999999909
 30
0.0
 40
45.000000000000547
 50
90.0
 51
270.0
1001
ACDBBLOCKREPETAG
1070
     1
1071
      109
1005
123D4F
  0
LINE
  5
123D50
  8
OBJECT
 10
3923.0
 20
-470.99999999999937
 30
0.0
 11
3923.0
 21
-449.99999999999937
 31
0.0
1001
ACDBBLOCKREPETAG
1070
     1
1071
        0
1005
123D50
  0
LINE
  5
123D51
  8
OBJECT
 10
3923.0
 20
-449.99999999999937
 30
0.0
 11
4077.0
 21
-449.99999999999937
 31
0.0
1001
ACDBBLOCKREPETAG
1070
     1
1071
        1
1005
123D51
  0
LINE
  5
123D52
  8
HIDDEN
 10
3943.0
 20
-519.99999999999955
 30
0.0
 11
4057.0
 21
-519.99999999999955
 31
0.0
1001
ACDBBLOCKREPETAG
1070
     1
1071
        2
1005
123D52
  0
LINE
  5
123D53
  8
OBJECT
 10
4077.0
 20
-449.99999999999937
 30
0.0
 11
4077.0
 21
-470.99999999999937
 31
0.0
1001
ACDBBLOCKREPETAG
1070
     1
1071
        3
1005
123D53
  0
LINE
  5
123D54
  8
OBJECT
 10
4077.0
 20
-470.99999999999937
 30
0.0
 11
3923.0
 21
-470.99999999999937
 31
0.0
1001
ACDBBLOCKREPETAG
1070
     1
1071
        4
1005
123D54
  0
LINE
  5
123D55
  8
CENTER
 10
4000.0
 20
-434.99999999999949
 30
0.0
 11
4000.0
 21
-789.99999999999955
 31
0.0
1001
ACDBBLOCKREPETAG
1070
     1
1071
        5
1005
123D55
  0
LINE
  5
123D56
  8
OBJECT
 10
3925.0
 20
-533.99999999999955
 30
0.0
 11
3925.0
 21
-777.99999999999955
 31
0.0
1001
ACDBBLOCKREPETAG
1070
     1
1071
        6
1005
123D56
  0
LINE
  5
123D57
  8
OBJECT
 10
3928.0
 20
-470.99999999999937
 30
0.0
 11
3928.0
 21
-533.99999999999955
 31
0.0
1001
ACDBBLOCKREPETAG
1070
     1
1071
        7
1005
123D57
  0
LINE
  5
123D58
  8
OBJECT
 10
4072.0
 20
-533.99999999999955
 30
0.0
 11
4072.0
 21
-470.99999999999937
 31
0.0
1001
ACDBBLOCKREPETAG
1070
     1
1071
        8
1005
123D58
  0
LINE
  5
123D59
  8
OBJECT
 10
3920.0
 20
-777.99999999999955
 30
0.0
 11
4080.0
 21
-777.99999999999955
 31
0.0
1001
ACDBBLOCKREPETAG
1070
     1
1071
        9
1005
123D59
  0
LINE
  5
123D5A
  8
OBJECT
 10
4080.0
 20
-533.99999999999955
 30
0.0
 11
3925.0
 21
-533.99999999999955
 31
0.0
1001
ACDBBLOCKREPETAG
1070
     1
1071
       10
1005
123D5A
  0
LINE
  5
123D5B
  8
OBJECT
 10
3920.0
 20
-777.99999999999955
 30
0.0
 11
3920.0
 21
-789.99999999999955
 31
0.0
1001
ACDBBLOCKREPETAG
1070
     1
1071
       11
1005
123D5B
  0
LINE
  5
123D5C
  8
OBJECT
 10
3920.0
 20
-789.99999999999955
 30
0.0
 11
4080.0
 21
-789.99999999999955
 31
0.0
1001
ACDBBLOCKREPETAG
1070
     1
1071
       12
1005
123D5C
  0
LINE
  5
123D5D
  8
OBJECT
 10
4080.0
 20
-789.99999999999955
 30
0.0
 11
4080.0
 21
-777.99999999999955
 31
0.0
1001
ACDBBLOCKREPETAG
1070
     1
1071
       13
1005
123D5D
  0
LINE
  5
123D5E
  8
OBJECT
 10
4074.9999999998631
 20
-657.99999999985039
 30
0.0
 11
4075.0
 21
-777.99999999999955
 31
0.0
1001
ACDBBLOCKREPETAG
1070
     1
1071
       15
1005
123D5E
  0
LINE
  5
123D5F
  8
OBJECT
 10
4074.9999908029849
 20
-657.99998602702135
 30
0.0
 11
4080.0
 21
-657.99998602702135
 31
0.0
1001
ACDBBLOCKREPETAG
1070
     1
1071
       16
1005
123D5F
  0
ARC
  5
123D60
  8
OBJECT
 10
4200.6872746716726
 20
-649.40809941010718
 30
0.0
 40
170.6350503965856
 50
137.44134459184301
 51
149.91949581337221
1001
ACDBBLOCKREPETAG
1070
     1
1071
       17
1005
123D60
  0
ARC
  5
123D61
  8
OBJECT
 10
4118.8455987040506
 20
-605.88272669536445
 30
0.0
 40
78.072222021763665
 50
147.4551531038623
 51
164.6636599771798
1001
ACDBBLOCKREPETAG
1070
     1
1071
       18
1005
123D61
  0
ARC
  5
123D62
  8
OBJECT
 10
4085.7554349608722
 20
-595.99999999999955
 30
0.0
 40
43.55353926885617
 50
165.6884523007466
 51
194.3115476992534
1001
ACDBBLOCKREPETAG
1070
     1
1071
       19
1005
123D62
  0
ARC
  5
123D63
  8
OBJECT
 10
4200.6872746716726
 20
-542.59190058989179
 30
0.0
 40
170.6350503965856
 50
210.08050418662771
 51
222.55865540815699
1001
ACDBBLOCKREPETAG
1070
     1
1071
       20
1005
123D63
  0
ARC
  5
123D64
  8
OBJECT
 10
4118.8455987040506
 20
-586.11727330463452
 30
0.0
 40
78.072222021763665
 50
195.3363400228202
 51
212.5448468961377
1001
ACDBBLOCKREPETAG
1070
     1
1071
       21
1005
123D64
  0
POINT
  5
123D65
  8
DOTS
 10
4000.0
 20
-654.99999999999966
 30
0.0
1001
ACDBBLOCKREPETAG
1070
     1
1071
      187
1005
123D65
  0
LINE
  5
123D66
  8
OBJECT
 10
2024.102933093302
 20
-243.80694712371681
 30
0.0
 11
2020.659656999997
 21
-232.55462199999889
 31
0.0
1001
ACDBBLOCKREPETAG
1070
     1
1071
      300
1005
123D66
  0
LINE
  5
123D67
  8
OBJECT
 10
1986.7927499013749
 20
-218.22553374208019
 30
0.0
 11
2020.659656999997
 21
-232.5546219999969
 31
0.0
1001
ACDBBLOCKREPETAG
1070
     1
1071
      302
1005
123D67
  0
ARC
  5
123D68
  8
OBJECT
 10
1982.8961697619
 20
-227.4351299990567
 30
0.0
 40
10.0
 50
67.066778292923374
 51
154.0147343702935
1001
ACDBBLOCKREPETAG
1070
     1
1071
      303
1005
123D68
  0
ARC
  5
123D69
  8
OBJECT
 10
1986.1488390381271
 20
-225.55386256729159
 30
0.0
 40
7.0
 50
67.066778292923374
 51
154.01473377497121
1001
ACDBBLOCKREPETAG
1070
     1
1071
      304
1005
123D69
  0
LINE
  5
123D6A
  8
OBJECT
 10
1969.4199755553
 20
-243.89888500818171
 30
0.0
 11
1979.856491823236
 21
-222.48688253356801
 31
0.0
1001
ACDBBLOCKREPETAG
1070
     1
1071
      341
1005
123D6A
  0
LINE
  5
123D6B
  8
OBJECT
 10
1965.2972169006091
 20
-240.71813901882729
 30
0.0
 11
1973.907102266508
 21
-223.05373004430751
 31
0.0
1001
ACDBBLOCKREPETAG
1070
     1
1071
      342
1005
123D6B
  0
ARC
  5
123D6C
  8
OBJECT
 10
1976.579695307315
 20
-207.1289369828437
 30
0.0
 40
60.031113246032611
 50
314.07020130418567
 51
322.33936106091278
1001
ACDBBLOCKREPETAG
1070
     1
1071
      343
1005
123D6C
  0
CIRCLE
  5
123D6D
  8
OBJECT
 10
2000.0
 20
-199.99999999999909
 30
0.0
 40
53.5
1001
ACDBBLOCKREPETAG
1070
     1
1071
      344
1005
123D6D
  0
POINT
  5
123D6E
  8
DOTS
 10
2000.0
 20
-199.99999999999909
 30
0.0
 50
270.0
1001
ACDBBLOCKREPETAG
1070
     1
1071
      362
1005
123D6E
  0
ARC
  5
123D6F
  8
OBJECT
 10
2000.0
 20
-199.99999999999909
 30
0.0
 40
50.0
 50
298.81994300000417
 51
228.52376955967449
1001
ACDBBLOCKREPETAG
1070
     1
1071
        7
1005
123D6F
  0
LINE
  5
123D70
  8
CENTER
 10
2080.0
 20
-199.99999999999909
 30
0.0
 11
1905.0
 21
-199.99999999999909
 31
0.0
1001
ACDBBLOCKREPETAG
1070
     1
1071
       14
1005
123D70
  0
LINE
  5
123D71
  8
CENTER
 10
2000.0
 20
-294.99999999999898
 30
0.0
 11
2000.0
 21
-104.9999999999991
 31
0.0
1001
ACDBBLOCKREPETAG
1070
     1
1071
       15
1005
123D71
  0
CIRCLE
  5
123D72
  8
OBJECT
 10
2000.0
 20
-199.99999999999909
 30
0.0
 40
70.0
1001
ACDBBLOCKREPETAG
1070
     1
1071
       16
1005
123D72
  0
CIRCLE
  5
123D73
  8
OBJECT
 10
2000.0
 20
-199.99999999999909
 30
0.0
 40
77.0
1001
ACDBBLOCKREPETAG
1070
     1
1071
       17
1005
123D73
  0
ARC
  5
123D74
  8
OBJECT
 10
2000.0
 20
-199.99999999999909
 30
0.0
 40
80.0
 50
50.805032573864182
 51
309.1949674261358
1001
ACDBBLOCKREPETAG
1070
     1
1071
       18
1005
123D74
  0
LINE
  5
123D75
  8
OBJECT
 10
2045.6618002273251
 20
-137.99999999999909
 30
0.0
 11
2080.0
 21
-137.99999999999909
 31
0.0
1001
ACDBBLOCKREPETAG
1070
     1
1071
       19
1005
123D75
  0
LINE
  5
123D76
  8
OBJECT
 10
2045.6618002273251
 20
-261.99999999999909
 30
0.0
 11
2080.0
 21
-261.99999999999909
 31
0.0
1001
ACDBBLOCKREPETAG
1070
     1
1071
       20
1005
123D76
  0
LINE
  5
123D77
  8
OBJECT
 10
2202.9999999999859
 20
-483.0000000000008
 30
0.0
 11
2209.9999999999859
 21
-483.0000000000008
 31
0.0
1001
ACDBBLOCKREPETAG
1070
     1
1071
       83
1005
123D77
  0
LINE
  5
123D78
  8
OBJECT
 10
2209.9999999999859
 20
-483.0000000000008
 30
0.0
 11
2209.9999999999859
 21
-607.0000000000008
 31
0.0
1001
ACDBBLOCKREPETAG
1070
     1
1071
       84
1005
123D78
  0
LINE
  5
123D79
  8
OBJECT
 10
2085.9999999999859
 20
-553.3502637757274
 30
0.0
 11
2085.9999999999859
 21
-655.00000000000068
 31
0.0
1001
ACDBBLOCKREPETAG
1070
     1
1071
       85
1005
123D79
  0
LINE
  5
123D7A
  8
OBJECT
 10
2209.9999999999859
 20
-607.0000000000008
 30
0.0
 11
2202.9999999999859
 21
-607.0000000000008
 31
0.0
1001
ACDBBLOCKREPETAG
1070
     1
1071
       86
1005
123D7A
  0
LINE
  5
123D7B
  8
OBJECT
 10
2202.9999999999859
 20
-607.0000000000008
 30
0.0
 11
2202.9999999999859
 21
-483.0000000000008
 31
0.0
1001
ACDBBLOCKREPETAG
1070
     1
1071
       87
1005
123D7B
  0
LINE
  5
123D7C
  8
CENTER
 10
2134.9999999999859
 20
-545.0000000000008
 30
0.0
 11
2224.999999999985
 21
-545.0000000000008
 31
0.0
1001
ACDBBLOCKREPETAG
1070
     1
1071
       88
1005
123D7C
  0
LINE
  5
123D7D
  8
OBJECT
 10
2079.9999999999809
 20
-658.0
 30
0.0
 11
2082.999999999985
 21
-658.0000000000008
 31
0.0
1001
ACDBBLOCKREPETAG
1070
     1
1071
       89
1005
123D7D
  0
ARC
  5
123D7E
  8
OBJECT
 10
2082.999999999985
 20
-655.00000000000068
 30
0.0
 40
3.0
 50
270.0
 51
0.0
1001
ACDBBLOCKREPETAG
1070
     1
1071
       90
1005
123D7E
  0
LINE
  5
123D7F
  8
OBJECT
 10
2202.9999999999859
 20
-486.0000000000008
 30
0.0
 11
2166.9999999999859
 21
-486.0000000000008
 31
0.0
1001
ACDBBLOCKREPETAG
1070
     1
1071
       91
1005
123D7F
  0
LINE
  5
123D80
  8
OBJECT
 10
2166.9999999999859
 20
-486.0000000000008
 30
0.0
 11
2166.9999999999859
 21
-604.0000000000008
 31
0.0
1001
ACDBBLOCKREPETAG
1070
     1
1071
       92
1005
123D80
  0
LINE
  5
123D81
  8
OBJECT
 10
2162.9999999999859
 20
-490.5000000000008
 30
0.0
 11
2162.9999999999859
 21
-599.5000000000008
 31
0.0
1001
ACDBBLOCKREPETAG
1070
     1
1071
       93
1005
123D81
  0
LINE
  5
123D82
  8
OBJECT
 10
2162.9999999999859
 20
-490.5000000000008
 30
0.0
 11
2149.9999999999859
 21
-490.5000000000008
 31
0.0
1001
ACDBBLOCKREPETAG
1070
     1
1071
       94
1005
123D82
  0
LINE
  5
123D83
  8
OBJECT
 10
2166.9999999999859
 20
-604.0000000000008
 30
0.0
 11
2202.9999999999859
 21
-604.0000000000008
 31
0.0
1001
ACDBBLOCKREPETAG
1070
     1
1071
       95
1005
123D83
  0
LINE
  5
123D84
  8
OBJECT
 10
2166.9999999999859
 20
-486.0000000000008
 30
0.0
 11
2162.9999999999859
 21
-490.5000000000008
 31
0.0
1001
ACDBBLOCKREPETAG
1070
     1
1071
       96
1005
123D84
  0
LINE
  5
123D85
  8
OBJECT
 10
2149.9999999999859
 20
-490.5000000000008
 30
0.0
 11
2149.9999999999859
 21
-575.74491827928784
 31
0.0
1001
ACDBBLOCKREPETAG
1070
     1
1071
       97
1005
123D85
  0
ARC
  5
123D86
  8
OBJECT
 10
2152.7999999999838
 20
-585.00000000000068
 30
0.0
 40
85.0
 50
91.887731891831123
 51
143.1301023540934
1001
ACDBBLOCKREPETAG
1070
     1
1071
       98
1005
123D86
  0
LINE
  5
123D87
  8
HIDDEN
 10
2157.9999999999859
 20
-500.5000000000008
 30
0.0
 11
2157.9999999999859
 21
-589.5000000000008
 31
0.0
1001
ACDBBLOCKREPETAG
1070
     1
1071
      100
1005
123D87
  0
LINE
  5
123D88
  8
OBJECT
 10
2085.9999999999859
 20
-651.07945073181781
 30
0.0
 11
2156.6313199210308
 21
-599.5000000000008
 31
0.0
1001
ACDBBLOCKREPETAG
1070
     1
1071
      101
1005
123D88
  0
LINE
  5
123D89
  8
OBJECT
 10
2079.9999999999809
 20
-534.0
 30
0.0
 11
2084.7999999999852
 21
-534.0
 31
0.0
1001
ACDBBLOCKREPETAG
1070
     1
1071
      102
1005
123D89
  0
LINE
  5
123D8A
  8
OBJECT
 10
2085.9999999999859
 20
-553.35026377573001
 30
0.0
 11
2084.7999999999852
 21
-534.0
 31
0.0
1001
ACDBBLOCKREPETAG
1070
     1
1071
      103
1005
123D8A
  0
LINE
  5
123D8B
  8
OBJECT
 10
2162.9999999999859
 20
-599.5000000000008
 30
0.0
 11
2156.6313199210308
 21
-599.5000000000008
 31
0.0
1001
ACDBBLOCKREPETAG
1070
     1
1071
      104
1005
123D8B
  0
LINE
  5
123D8C
  8
OBJECT
 10
2166.9999999999859
 20
-604.0000000000008
 30
0.0
 11
2162.9999999999859
 21
-599.5000000000008
 31
0.0
1001
ACDBBLOCKREPETAG
1070
     1
1071
      105
1005
123D8C
  0
LINE
  5
123D8D
  8
OBJECT
 10
2202.9999999999859
 20
-137.99999999999909
 30
0.0
 11
2209.9999999999859
 21
-137.99999999999909
 31
0.0
1001
ACDBBLOCKREPETAG
1070
     1
1071
       85
1005
123D8D
  0
LINE
  5
123D8E
  8
OBJECT
 10
2209.9999999999859
 20
-137.99999999999909
 30
0.0
 11
2209.9999999999859
 21
-261.99999999999909
 31
0.0
1001
ACDBBLOCKREPETAG
1070
     1
1071
       86
1005
123D8E
  0
LINE
  5
123D8F
  8
OBJECT
 10
2209.9999999999859
 20
-261.99999999999909
 30
0.0
 11
2202.9999999999859
 21
-261.99999999999909
 31
0.0
1001
ACDBBLOCKREPETAG
1070
     1
1071
       87
1005
123D8F
  0
LINE
  5
123D90
  8
OBJECT
 10
2202.9999999999859
 20
-261.99999999999909
 30
0.0
 11
2202.9999999999859
 21
-137.99999999999909
 31
0.0
1001
ACDBBLOCKREPETAG
1070
     1
1071
       88
1005
123D90
  0
LINE
  5
123D91
  8
CENTER
 10
2224.999999999985
 20
-199.99999999999909
 30
0.0
 11
2080.0
 21
-199.99999999999909
 31
0.0
1001
ACDBBLOCKREPETAG
1070
     1
1071
       89
1005
123D91
  0
LINE
  5
123D92
  8
OBJECT
 10
2149.9999749641861
 20
-245.0000000000027
 30
0.0
 11
2086.0
 21
-244.99999999999909
 31
0.0
1001
ACDBBLOCKREPETAG
1070
     1
1071
       90
1005
123D92
  0
LINE
  5
123D93
  8
OBJECT
 10
2149.9999749641861
 20
-154.99999999999909
 30
0.0
 11
2086.0
 21
-154.99999999999909
 31
0.0
1001
ACDBBLOCKREPETAG
1070
     1
1071
       91
1005
123D93
  0
LINE
  5
123D94
  8
OBJECT
 10
2202.9999999999859
 20
-140.99999999999909
 30
0.0
 11
2166.9999999999859
 21
-140.99999999999909
 31
0.0
1001
ACDBBLOCKREPETAG
1070
     1
1071
       92
1005
123D94
  0
LINE
  5
123D95
  8
OBJECT
 10
2166.9999999999859
 20
-140.99999999999909
 30
0.0
 11
2166.9999999999859
 21
-258.99999999999909
 31
0.0
1001
ACDBBLOCKREPETAG
1070
     1
1071
       93
1005
123D95
  0
LINE
  5
123D96
  8
OBJECT
 10
2166.9999999999859
 20
-258.99999999999909
 30
0.0
 11
2202.9999999999859
 21
-258.99999999999909
 31
0.0
1001
ACDBBLOCKREPETAG
1070
     1
1071
       94
1005
123D96
  0
LINE
  5
123D97
  8
OBJECT
 10
2162.9999999999859
 20
-145.49999999999909
 30
0.0
 11
2149.9999999999859
 21
-145.49999999999909
 31
0.0
1001
ACDBBLOCKREPETAG
1070
     1
1071
       95
1005
123D97
  0
LINE
  5
123D98
  8
OBJECT
 10
2149.9999999999859
 20
-254.49999999999909
 30
0.0
 11
2162.9999999999859
 21
-254.49999999999909
 31
0.0
1001
ACDBBLOCKREPETAG
1070
     1
1071
       96
1005
123D98
  0
LINE
  5
123D99
  8
OBJECT
 10
2162.9999999999859
 20
-254.49999999999909
 30
0.0
 11
2162.9999999999859
 21
-145.49999999999909
 31
0.0
1001
ACDBBLOCKREPETAG
1070
     1
1071
       97
1005
123D99
  0
LINE
  5
123D9A
  8
OBJECT
 10
2166.9999999999859
 20
-140.99999999999909
 30
0.0
 11
2162.9999999999859
 21
-145.49999999999909
 31
0.0
1001
ACDBBLOCKREPETAG
1070
     1
1071
       98
1005
123D9A
  0
LINE
  5
123D9B
  8
OBJECT
 10
2166.9999999999859
 20
-258.99999999999909
 30
0.0
 11
2162.9999999999859
 21
-254.49999999999909
 31
0.0
1001
ACDBBLOCKREPETAG
1070
     1
1071
       99
1005
123D9B
  0
LINE
  5
123D9C
  8
OBJECT
 10
2083.0
 20
-137.99999999999909
 30
0.0
 11
2080.0
 21
-137.99999999999909
 31
0.0
1001
ACDBBLOCKREPETAG
1070
     1
1071
      100
1005
123D9C
  0
ARC
  5
123D9D
  8
OBJECT
 10
2083.0
 20
-140.99999999999909
 30
0.0
 40
3.0
 50
0.0
 51
90.0
1001
ACDBBLOCKREPETAG
1070
     1
1071
      101
1005
123D9D
  0
LINE
  5
123D9E
  8
OBJECT
 10
2080.0
 20
-261.99999999999909
 30
0.0
 11
2083.0
 21
-261.99999999999909
 31
0.0
1001
ACDBBLOCKREPETAG
1070
     1
1071
      102
1005
123D9E
  0
ARC
  5
123D9F
  8
OBJECT
 10
2083.0
 20
-258.99999999999909
 30
0.0
 40
3.0
 50
270.0
 51
0.0
1001
ACDBBLOCKREPETAG
1070
     1
1071
      103
1005
123D9F
  0
LINE
  5
123DA0
  8
OBJECT
 10
2086.0
 20
-258.99999999999909
 30
0.0
 11
2086.0
 21
-210.3227903203578
 31
0.0
1001
ACDBBLOCKREPETAG
1070
     1
1071
      104
1005
123DA0
  0
LINE
  5
123DA1
  8
OBJECT
 10
2086.0
 20
-189.6772096796403
 30
0.0
 11
2086.0
 21
-140.99999999999909
 31
0.0
1001
ACDBBLOCKREPETAG
1070
     1
1071
      105
1005
123DA1
  0
LINE
  5
123DA2
  8
HIDDEN
 10
2157.9999999999859
 20
-155.49999999999909
 30
0.0
 11
2157.9999999999859
 21
-244.49999999999909
 31
0.0
1001
ACDBBLOCKREPETAG
1070
     1
1071
      106
1005
123DA2
  0
LINE
  5
123DA3
  8
OBJECT
 10
2149.9999749641861
 20
-254.4999509238105
 30
0.0
 11
2149.9999749641861
 21
-145.4999509238105
 31
0.0
1001
ACDBBLOCKREPETAG
1070
     1
1071
      108
1005
123DA3
  0
ARC
  5
123DA4
  8
OBJECT
 10
2129.8000000000252
 20
-199.99999999999909
 30
0.0
 40
45.000000000000547
 50
90.0
 51
270.0
1001
ACDBBLOCKREPETAG
1070
     1
1071
      109
1005
123DA4
  0
LINE
  5
123DA5
  8
SLIM
 10
11914.999999999991
 20
-659.47385309434696
 30
0.0
 11
11919.47385309434
 21
-654.99999999999966
 31
0.0
1001
ACAD
1010
0.0
1020
0.0
1030
0.0
1001
ACDBBLOCKREPETAG
1070
     1
1071
        0
1005
0
  0
LINE
  5
123DA6
  8
SLIM
 10
11914.999999999991
 20
-677.43436533648514
 30
0.0
 11
11937.434365336479
 21
-654.99999999999966
 31
0.0
1001
ACAD
1010
0.0
1020
0.0
1030
0.0
1001
ACDBBLOCKREPETAG
1070
     1
1071
       10
1005
123DA6
  0
LINE
  5
123DA7
  8
SLIM
 10
11914.999999999991
 20
-695.39487757862321
 30
0.0
 11
11955.39487757861
 21
-654.99999999999966
 31
0.0
1001
ACAD
1010
0.0
1020
0.0
1030
0.0
1001
ACDBBLOCKREPETAG
1070
     1
1071
       11
1005
123DA7
  0
LINE
  5
123DA8
  8
SLIM
 10
11914.999999999991
 20
-713.35538982076127
 30
0.0
 11
11973.35538982075
 21
-654.99999999999966
 31
0.0
1001
ACAD
1010
0.0
1020
0.0
1030
0.0
1001
ACDBBLOCKREPETAG
1070
     1
1071
       12
1005
123DA8
  0
LINE
  5
123DA9
  8
SLIM
 10
11914.999999999991
 20
-731.31590206289934
 30
0.0
 11
11991.31590206289
 21
-654.99999999999966
 31
0.0
1001
ACAD
1010
0.0
1020
0.0
1030
0.0
1001
ACDBBLOCKREPETAG
1070
     1
1071
       13
1005
123DA9
  0
LINE
  5
123DAA
  8
SLIM
 10
11914.999999999991
 20
-749.27641430503695
 30
0.0
 11
12009.27641430503
 21
-654.99999999999966
 31
0.0
1001
ACAD
1010
0.0
1020
0.0
1030
0.0
1001
ACDBBLOCKREPETAG
1070
     1
1071
       14
1005
123DAA
  0
LINE
  5
123DAB
  8
SLIM
 10
11914.999999999991
 20
-767.23692654717524
 30
0.0
 11
12027.23692654717
 21
-654.99999999999966
 31
0.0
1001
ACAD
1010
0.0
1020
0.0
1030
0.0
1001
ACDBBLOCKREPETAG
1070
     1
1071
       15
1005
123DAB
  0
LINE
  5
123DAC
  8
SLIM
 10
11914.999999999991
 20
-785.19743878931354
 30
0.0
 11
12045.19743878931
 21
-654.99999999999966
 31
0.0
1001
ACAD
1010
0.0
1020
0.0
1030
0.0
1001
ACDBBLOCKREPETAG
1070
     1
1071
       16
1005
123DAC
  0
LINE
  5
123DAD
  8
SLIM
 10
11914.999999999991
 20
-803.1579510314516
 30
0.0
 11
12063.15795103144
 21
-654.99999999999966
 31
0.0
1001
ACAD
1010
0.0
1020
0.0
1030
0.0
1001
ACDBBLOCKREPETAG
1070
     1
1071
       17
1005
123DAD
  0
LINE
  5
123DAE
  8
SLIM
 10
11914.999999999991
 20
-821.11846327358955
 30
0.0
 11
12081.11846327358
 21
-654.99999999999966
 31
0.0
1001
ACAD
1010
0.0
1020
0.0
1030
0.0
1001
ACDBBLOCKREPETAG
1070
     1
1071
       18
1005
123DAE
  0
LINE
  5
123DAF
  8
SLIM
 10
11914.999999999991
 20
-839.07897551572751
 30
0.0
 11
12085.000000000009
 21
-669.07897551571614
 31
0.0
1001
ACAD
1010
0.0
1020
0.0
1030
0.0
1001
ACDBBLOCKREPETAG
1070
     1
1071
       19
1005
123DAF
  0
LINE
  5
123DB0
  8
SLIM
 10
11915.0
 20
-857.03948775786546
 30
0.0
 11
12085.000000000009
 21
-687.03948775785454
 31
0.0
1001
ACAD
1010
0.0
1020
0.0
1030
0.0
1001
ACDBBLOCKREPETAG
1070
     1
1071
       20
1005
123DB0
  0
LINE
  5
123DB1
  8
SLIM
 10
11915.0
 20
-875.00000000000375
 30
0.0
 11
12085.0
 21
-704.99999999999329
 31
0.0
1001
ACAD
1010
0.0
1020
0.0
1030
0.0
1001
ACDBBLOCKREPETAG
1070
     1
1071
       21
1005
123DB1
  0
LINE
  5
123DB2
  8
SLIM
 10
11915.0
 20
-892.9605122421417
 30
0.0
 11
12085.0
 21
-722.96051224213159
 31
0.0
1001
ACAD
1010
0.0
1020
0.0
1030
0.0
1001
ACDBBLOCKREPETAG
1070
     1
1071
       22
1005
123DB2
  0
LINE
  5
123DB3
  8
SLIM
 10
11915.0
 20
-910.92102448427966
 30
0.0
 11
12085.0
 21
-740.92102448427033
 31
0.0
1001
ACAD
1010
0.0
1020
0.0
1030
0.0
1001
ACDBBLOCKREPETAG
1070
     1
1071
       23
1005
123DB3
  0
LINE
  5
123DB4
  8
SLIM
 10
11915.0
 20
-928.88153672641772
 30
0.0
 11
12085.0
 21
-758.88153672640874
 31
0.0
1001
ACAD
1010
0.0
1020
0.0
1030
0.0
1001
ACDBBLOCKREPETAG
1070
     1
1071
       24
1005
123DB4
  0
LINE
  5
123DB5
  8
SLIM
 10
11915.0
 20
-946.8420489685559
 30
0.0
 11
12085.0
 21
-776.84204896854737
 31
0.0
1001
ACAD
1010
0.0
1020
0.0
1030
0.0
1001
ACDBBLOCKREPETAG
1070
     1
1071
       25
1005
123DB5
  0
LINE
  5
123DB6
  8
SLIM
 10
11915.0
 20
-964.80256121069385
 30
0.0
 11
12085.0
 21
-794.80256121068624
 31
0.0
1001
ACAD
1010
0.0
1020
0.0
1030
0.0
1001
ACDBBLOCKREPETAG
1070
     1
1071
       26
1005
123DB6
  0
LINE
  5
123DB7
  8
SLIM
 10
11915.0
 20
-982.76307345283203
 30
0.0
 11
12085.0
 21
-812.76307345282464
 31
0.0
1001
ACAD
1010
0.0
1020
0.0
1030
0.0
1001
ACDBBLOCKREPETAG
1070
     1
1071
       27
1005
123DB7
  0
LINE
  5
123DB8
  8
SLIM
 10
11915.0
 20
-1000.72358569497
 30
0.0
 11
12085.0
 21
-830.72358569496294
 31
0.0
1001
ACAD
1010
0.0
1020
0.0
1030
0.0
1001
ACDBBLOCKREPETAG
1070
     1
1071
       28
1005
123DB8
  0
LINE
  5
123DB9
  8
SLIM
 10
11915.0
 20
-1018.684097937108
 30
0.0
 11
12085.0
 21
-848.68409793710146
 31
0.0
1001
ACAD
1010
0.0
1020
0.0
1030
0.0
1001
ACDBBLOCKREPETAG
1070
     1
1071
       29
1005
123DB9
  0
LINE
  5
123DBA
  8
SLIM
 10
11915.0
 20
-1036.644610179246
 30
0.0
 11
12085.0
 21
-866.64461017923998
 31
0.0
1001
ACAD
1010
0.0
1020
0.0
1030
0.0
1001
ACDBBLOCKREPETAG
1070
     1
1071
       30
1005
123DBA
  0
LINE
  5
123DBB
  8
SLIM
 10
11915.0
 20
-1054.6051224213841
 30
0.0
 11
12085.0
 21
-884.60512242137895
 31
0.0
1001
ACAD
1010
0.0
1020
0.0
1030
0.0
1001
ACDBBLOCKREPETAG
1070
     1
1071
       31
1005
123DBB
  0
LINE
  5
123DBC
  8
SLIM
 10
11915.0
 20
-1072.5656346635219
 30
0.0
 11
12085.0
 21
-902.56563466351713
 31
0.0
1001
ACAD
1010
0.0
1020
0.0
1030
0.0
1001
ACDBBLOCKREPETAG
1070
     1
1071
       32
1005
123DBC
  0
LINE
  5
123DBD
  8
SLIM
 10
11915.0
 20
-1090.52614690566
 30
0.0
 11
12085.0
 21
-920.52614690565599
 31
0.0
1001
ACAD
1010
0.0
1020
0.0
1030
0.0
1001
ACDBBLOCKREPETAG
1070
     1
1071
       33
1005
123DBD
  0
LINE
  5
123DBE
  8
SLIM
 10
11915.0
 20
-1108.486659147798
 30
0.0
 11
12085.0
 21
-938.4866591477944
 31
0.0
1001
ACAD
1010
0.0
1020
0.0
1030
0.0
1001
ACDBBLOCKREPETAG
1070
     1
1071
       34
1005
123DBE
  0
LINE
  5
123DBF
  8
SLIM
 10
11915.0
 20
-1126.4471713899361
 30
0.0
 11
12085.0
 21
-956.44717138993303
 31
0.0
1001
ACAD
1010
0.0
1020
0.0
1030
0.0
1001
ACDBBLOCKREPETAG
1070
     1
1071
       35
1005
123DBF
  0
LINE
  5
123DC0
  8
SLIM
 10
11915.0
 20
-1144.4076836320739
 30
0.0
 11
12085.0
 21
-974.4076836320711
 31
0.0
1001
ACAD
1010
0.0
1020
0.0
1030
0.0
1001
ACDBBLOCKREPETAG
1070
     1
1071
       36
1005
123DC0
  0
LINE
  5
123DC1
  8
SLIM
 10
11915.575570103911
 20
-1161.7926257702991
 30
0.0
 11
12085.0
 21
-992.36819587420985
 31
0.0
1001
ACAD
1010
0.0
1020
0.0
1030
0.0
1001
ACDBBLOCKREPETAG
1070
     1
1071
       37
1005
123DC1
  0
LINE
  5
123DC2
  8
SLIM
 10
11917.789879832389
 20
-1177.538828283954
 30
0.0
 11
12085.0
 21
-1010.328708116349
 31
0.0
1001
ACAD
1010
0.0
1020
0.0
1030
0.0
1001
ACDBBLOCKREPETAG
1070
     1
1071
       38
1005
123DC2
  0
LINE
  5
123DC3
  8
SLIM
 10
11920.004189560879
 20
-1193.28503079761
 30
0.0
 11
12085.0
 21
-1028.289220358487
 31
0.0
1001
ACAD
1010
0.0
1020
0.0
1030
0.0
1001
ACDBBLOCKREPETAG
1070
     1
1071
       39
1005
123DC3
  0
LINE
  5
123DC4
  8
SLIM
 10
11922.21849928936
 20
-1209.0312333112661
 30
0.0
 11
12085.0
 21
-1046.2497326006251
 31
0.0
1001
ACAD
1010
0.0
1020
0.0
1030
0.0
1001
ACDBBLOCKREPETAG
1070
     1
1071
       40
1005
123DC4
  0
LINE
  5
123DC5
  8
SLIM
 10
11924.432809017841
 20
-1224.777435824921
 30
0.0
 11
12085.0
 21
-1064.210244842764
 31
0.0
1001
ACAD
1010
0.0
1020
0.0
1030
0.0
1001
ACDBBLOCKREPETAG
1070
     1
1071
       41
1005
123DC5
  0
LINE
  5
123DC6
  8
SLIM
 10
11926.64711874633
 20
-1240.5236383385759
 30
0.0
 11
12085.0
 21
-1082.170757084903
 31
0.0
1001
ACAD
1010
0.0
1020
0.0
1030
0.0
1001
ACDBBLOCKREPETAG
1070
     1
1071
       42
1005
123DC6
  0
LINE
  5
123DC7
  8
SLIM
 10
11928.861428474809
 20
-1256.2698408522319
 30
0.0
 11
12085.0
 21
-1100.1312693270411
 31
0.0
1001
ACAD
1010
0.0
1020
0.0
1030
0.0
1001
ACDBBLOCKREPETAG
1070
     1
1071
       43
1005
123DC7
  0
LINE
  5
123DC8
  8
SLIM
 10
11931.07573820329
 20
-1272.0160433658871
 30
0.0
 11
12085.0
 21
-1118.0917815691801
 31
0.0
1001
ACAD
1010
0.0
1020
0.0
1030
0.0
1001
ACDBBLOCKREPETAG
1070
     1
1071
       44
1005
123DC8
  0
LINE
  5
123DC9
  8
SLIM
 10
11932.999999999991
 20
-1288.0522938113261
 30
0.0
 11
12085.0
 21
-1136.0522938113179
 31
0.0
1001
ACAD
1010
0.0
1020
0.0
1030
0.0
1001
ACDBBLOCKREPETAG
1070
     1
1071
       45
1005
123DC9
  0
LINE
  5
123DCA
  8
SLIM
 10
11932.999999999991
 20
-1306.0128060534639
 30
0.0
 11
12085.0
 21
-1154.0128060534571
 31
0.0
1001
ACAD
1010
0.0
1020
0.0
1030
0.0
1001
ACDBBLOCKREPETAG
1070
     1
1071
       46
1005
123DCA
  0
LINE
  5
123DCB
  8
SLIM
 10
11932.999999999991
 20
-1323.9733182956029
 30
0.0
 11
12082.664314193131
 21
-1174.3090041024641
 31
0.0
1001
ACAD
1010
0.0
1020
0.0
1030
0.0
1001
ACDBBLOCKREPETAG
1070
     1
1071
       47
1005
123DCB
  0
LINE
  5
123DCC
  8
SLIM
 10
11949.93383053773
 20
-1324.9999999999959
 30
0.0
 11
12079.725321280779
 21
-1195.2085092569509
 31
0.0
1001
ACAD
1010
0.0
1020
0.0
1030
0.0
1001
ACDBBLOCKREPETAG
1070
     1
1071
       48
1005
123DCC
  0
LINE
  5
123DCD
  8
SLIM
 10
11967.89434277986
 20
-1324.999999999997
 30
0.0
 11
12076.78632836842
 21
-1216.1080144114389
 31
0.0
1001
ACAD
1010
0.0
1020
0.0
1030
0.0
1001
ACDBBLOCKREPETAG
1070
     1
1071
       49
1005
123DCD
  0
LINE
  5
123DCE
  8
SLIM
 10
11985.854855022009
 20
-1324.999999999997
 30
0.0
 11
12073.847335456079
 21
-1237.007519565926
 31
0.0
1001
ACAD
1010
0.0
1020
0.0
1030
0.0
1001
ACDBBLOCKREPETAG
1070
     1
1071
       50
1005
123DCE
  0
LINE
  5
123DCF
  8
SLIM
 10
12003.815367264149
 20
-1324.999999999997
 30
0.0
 11
12070.908342543729
 21
-1257.907024720412
 31
0.0
1001
ACAD
1010
0.0
1020
0.0
1030
0.0
1001
ACDBBLOCKREPETAG
1070
     1
1071
       51
1005
123DCF
  0
LINE
  5
123DD0
  8
SLIM
 10
12021.775879506289
 20
-1324.999999999998
 30
0.0
 11
12067.969349631379
 21
-1278.8065298749
 31
0.0
1001
ACAD
1010
0.0
1020
0.0
1030
0.0
1001
ACDBBLOCKREPETAG
1070
     1
1071
       52
1005
123DD0
  0
LINE
  5
123DD1
  8
SLIM
 10
12039.736391748431
 20
-1324.999999999998
 30
0.0
 11
12067.0
 21
-1297.736391748414
 31
0.0
1001
ACAD
1010
0.0
1020
0.0
1030
0.0
1001
ACDBBLOCKREPETAG
1070
     1
1071
       53
1005
123DD1
  0
LINE
  5
123DD2
  8
SLIM
 10
12057.69690399056
 20
-1324.9999999999991
 30
0.0
 11
12067.0
 21
-1315.696903990553
 31
0.0
1001
ACAD
1010
0.0
1020
0.0
1030
0.0
1001
ACDBBLOCKREPETAG
1070
     1
1071
       54
1005
123DD2
  0
LINE
  5
123DD3
  8
OBJECT
 10
11932.999999999991
 20
-1324.9999999999959
 30
0.0
 11
12067.0
 21
-1324.9999999999991
 31
0.0
1001
ACDBBLOCKREPETAG
1070
     1
1071
        1
1005
123DD3
  0
LINE
  5
123DD4
  8
OBJECT
 10
11914.999999999991
 20
-654.99999999999966
 30
0.0
 11
11915.0
 21
-1157.699682809141
 31
0.0
1001
ACDBBLOCKREPETAG
1070
     1
1071
        2
1005
123DD4
  0
LINE
  5
123DD5
  8
OBJECT
 10
12085.000000000009
 20
-654.99999999999966
 30
0.0
 11
12085.0
 21
-1157.6996828091719
 31
0.0
1001
ACDBBLOCKREPETAG
1070
     1
1071
        3
1005
123DD5
  0
LINE
  5
123DD6
  8
OBJECT
 10
11915.0
 20
-1157.699682809141
 30
0.0
 11
11932.999999999991
 21
-1285.699682809081
 31
0.0
1001
ACDBBLOCKREPETAG
1070
     1
1071
        4
1005
123DD6
  0
LINE
  5
123DD7
  8
OBJECT
 10
12067.0
 20
-1285.699682809128
 30
0.0
 11
12085.0
 21
-1157.6996828091719
 31
0.0
1001
ACDBBLOCKREPETAG
1070
     1
1071
        5
1005
123DD7
  0
LINE
  5
123DD8
  8
OBJECT
 10
12085.000000000009
 20
-654.99999999999966
 30
0.0
 11
11914.999999999991
 21
-654.99999999999966
 31
0.0
1001
ACDBBLOCKREPETAG
1070
     1
1071
        6
1005
123DD8
  0
LINE
  5
123DD9
  8
OBJECT
 10
11932.999999999991
 20
-1285.699682809081
 30
0.0
 11
11932.999999999991
 21
-1324.9999999999959
 31
0.0
1001
ACDBBLOCKREPETAG
1070
     1
1071
        8
1005
123DD9
  0
LINE
  5
123DDA
  8
OBJECT
 10
12067.0
 20
-1285.699682809128
 30
0.0
 11
12067.0
 21
-1324.9999999999991
 31
0.0
1001
ACDBBLOCKREPETAG
1070
     1
1071
        9
1005
123DDA
  0
LINE
  5
123DDB
  8
SLIM
 10
9914.9999999999927
 20
-659.47385309434696
 30
0.0
 11
9919.4738530943396
 21
-654.99999999999966
 31
0.0
1001
ACAD
1010
0.0
1020
0.0
1030
0.0
1001
ACDBBLOCKREPETAG
1070
     1
1071
        0
1005
0
  0
LINE
  5
123DDC
  8
SLIM
 10
9914.9999999999927
 20
-677.43436533648514
 30
0.0
 11
9937.4343653364795
 21
-654.99999999999966
 31
0.0
1001
ACAD
1010
0.0
1020
0.0
1030
0.0
1001
ACDBBLOCKREPETAG
1070
     1
1071
       10
1005
123DDC
  0
LINE
  5
123DDD
  8
SLIM
 10
9914.9999999999927
 20
-695.39487757862321
 30
0.0
 11
9955.3948775786212
 21
-654.99999999999966
 31
0.0
1001
ACAD
1010
0.0
1020
0.0
1030
0.0
1001
ACDBBLOCKREPETAG
1070
     1
1071
       11
1005
123DDD
  0
LINE
  5
123DDE
  8
SLIM
 10
9914.9999999999927
 20
-713.35538982076127
 30
0.0
 11
9973.3553898207556
 21
-654.99999999999966
 31
0.0
1001
ACAD
1010
0.0
1020
0.0
1030
0.0
1001
ACDBBLOCKREPETAG
1070
     1
1071
       12
1005
123DDE
  0
LINE
  5
123DDF
  8
SLIM
 10
9914.9999999999945
 20
-731.31590206289934
 30
0.0
 11
9991.3159020628937
 21
-654.99999999999966
 31
0.0
1001
ACAD
1010
0.0
1020
0.0
1030
0.0
1001
ACDBBLOCKREPETAG
1070
     1
1071
       13
1005
123DDF
  0
LINE
  5
123DE0
  8
SLIM
 10
9914.9999999999945
 20
-749.27641430503695
 30
0.0
 11
10009.27641430503
 21
-654.99999999999966
 31
0.0
1001
ACAD
1010
0.0
1020
0.0
1030
0.0
1001
ACDBBLOCKREPETAG
1070
     1
1071
       14
1005
123DE0
  0
LINE
  5
123DE1
  8
SLIM
 10
9914.9999999999945
 20
-767.23692654717524
 30
0.0
 11
10027.23692654717
 21
-654.99999999999966
 31
0.0
1001
ACAD
1010
0.0
1020
0.0
1030
0.0
1001
ACDBBLOCKREPETAG
1070
     1
1071
       15
1005
123DE1
  0
LINE
  5
123DE2
  8
SLIM
 10
9914.9999999999945
 20
-785.19743878931354
 30
0.0
 11
10045.19743878931
 21
-654.99999999999966
 31
0.0
1001
ACAD
1010
0.0
1020
0.0
1030
0.0
1001
ACDBBLOCKREPETAG
1070
     1
1071
       16
1005
123DE2
  0
LINE
  5
123DE3
  8
SLIM
 10
9914.9999999999945
 20
-803.1579510314516
 30
0.0
 11
10063.15795103144
 21
-654.99999999999966
 31
0.0
1001
ACAD
1010
0.0
1020
0.0
1030
0.0
1001
ACDBBLOCKREPETAG
1070
     1
1071
       17
1005
123DE3
  0
LINE
  5
123DE4
  8
SLIM
 10
9914.9999999999945
 20
-821.11846327358955
 30
0.0
 11
10081.11846327358
 21
-654.99999999999966
 31
0.0
1001
ACAD
1010
0.0
1020
0.0
1030
0.0
1001
ACDBBLOCKREPETAG
1070
     1
1071
       18
1005
123DE4
  0
LINE
  5
123DE5
  8
SLIM
 10
9914.9999999999945
 20
-839.07897551572751
 30
0.0
 11
10085.000000000009
 21
-669.07897551571614
 31
0.0
1001
ACAD
1010
0.0
1020
0.0
1030
0.0
1001
ACDBBLOCKREPETAG
1070
     1
1071
       19
1005
123DE5
  0
LINE
  5
123DE6
  8
SLIM
 10
9914.9999999999964
 20
-857.03948775786546
 30
0.0
 11
10085.000000000009
 21
-687.03948775785454
 31
0.0
1001
ACAD
1010
0.0
1020
0.0
1030
0.0
1001
ACDBBLOCKREPETAG
1070
     1
1071
       20
1005
123DE6
  0
LINE
  5
123DE7
  8
SLIM
 10
9914.9999999999964
 20
-875.00000000000375
 30
0.0
 11
10085.0
 21
-704.99999999999329
 31
0.0
1001
ACAD
1010
0.0
1020
0.0
1030
0.0
1001
ACDBBLOCKREPETAG
1070
     1
1071
       21
1005
123DE7
  0
LINE
  5
123DE8
  8
SLIM
 10
9914.9999999999964
 20
-892.9605122421417
 30
0.0
 11
10085.0
 21
-722.96051224213159
 31
0.0
1001
ACAD
1010
0.0
1020
0.0
1030
0.0
1001
ACDBBLOCKREPETAG
1070
     1
1071
       22
1005
123DE8
  0
LINE
  5
123DE9
  8
SLIM
 10
9914.9999999999964
 20
-910.92102448427966
 30
0.0
 11
10085.0
 21
-740.92102448427033
 31
0.0
1001
ACAD
1010
0.0
1020
0.0
1030
0.0
1001
ACDBBLOCKREPETAG
1070
     1
1071
       23
1005
123DE9
  0
LINE
  5
123DEA
  8
SLIM
 10
9914.9999999999964
 20
-928.88153672641772
 30
0.0
 11
10085.0
 21
-758.88153672640874
 31
0.0
1001
ACAD
1010
0.0
1020
0.0
1030
0.0
1001
ACDBBLOCKREPETAG
1070
     1
1071
       24
1005
123DEA
  0
LINE
  5
123DEB
  8
SLIM
 10
9914.9999999999964
 20
-946.8420489685559
 30
0.0
 11
10085.0
 21
-776.84204896854737
 31
0.0
1001
ACAD
1010
0.0
1020
0.0
1030
0.0
1001
ACDBBLOCKREPETAG
1070
     1
1071
       25
1005
123DEB
  0
LINE
  5
123DEC
  8
SLIM
 10
9914.9999999999964
 20
-964.80256121069385
 30
0.0
 11
10085.0
 21
-794.80256121068624
 31
0.0
1001
ACAD
1010
0.0
1020
0.0
1030
0.0
1001
ACDBBLOCKREPETAG
1070
     1
1071
       26
1005
123DEC
  0
LINE
  5
123DED
  8
SLIM
 10
9914.9999999999982
 20
-982.76307345283203
 30
0.0
 11
10085.0
 21
-812.76307345282464
 31
0.0
1001
ACAD
1010
0.0
1020
0.0
1030
0.0
1001
ACDBBLOCKREPETAG
1070
     1
1071
       27
1005
123DED
  0
LINE
  5
123DEE
  8
SLIM
 10
9914.9999999999982
 20
-1000.72358569497
 30
0.0
 11
10085.0
 21
-830.72358569496294
 31
0.0
1001
ACAD
1010
0.0
1020
0.0
1030
0.0
1001
ACDBBLOCKREPETAG
1070
     1
1071
       28
1005
123DEE
  0
LINE
  5
123DEF
  8
SLIM
 10
9914.9999999999982
 20
-1018.684097937108
 30
0.0
 11
10085.0
 21
-848.68409793710146
 31
0.0
1001
ACAD
1010
0.0
1020
0.0
1030
0.0
1001
ACDBBLOCKREPETAG
1070
     1
1071
       29
1005
123DEF
  0
LINE
  5
123DF0
  8
SLIM
 10
9914.9999999999982
 20
-1036.644610179246
 30
0.0
 11
10085.0
 21
-866.64461017923998
 31
0.0
1001
ACAD
1010
0.0
1020
0.0
1030
0.0
1001
ACDBBLOCKREPETAG
1070
     1
1071
       30
1005
123DF0
  0
LINE
  5
123DF1
  8
SLIM
 10
9914.9999999999982
 20
-1054.6051224213841
 30
0.0
 11
10085.0
 21
-884.60512242137895
 31
0.0
1001
ACAD
1010
0.0
1020
0.0
1030
0.0
1001
ACDBBLOCKREPETAG
1070
     1
1071
       31
1005
123DF1
  0
LINE
  5
123DF2
  8
SLIM
 10
9914.9999999999982
 20
-1072.5656346635219
 30
0.0
 11
10085.0
 21
-902.56563466351713
 31
0.0
1001
ACAD
1010
0.0
1020
0.0
1030
0.0
1001
ACDBBLOCKREPETAG
1070
     1
1071
       32
1005
123DF2
  0
LINE
  5
123DF3
  8
SLIM
 10
9914.9999999999982
 20
-1090.52614690566
 30
0.0
 11
10085.0
 21
-920.52614690565599
 31
0.0
1001
ACAD
1010
0.0
1020
0.0
1030
0.0
1001
ACDBBLOCKREPETAG
1070
     1
1071
       33
1005
123DF3
  0
LINE
  5
123DF4
  8
SLIM
 10
9915.0
 20
-1108.486659147798
 30
0.0
 11
10085.0
 21
-938.4866591477944
 31
0.0
1001
ACAD
1010
0.0
1020
0.0
1030
0.0
1001
ACDBBLOCKREPETAG
1070
     1
1071
       34
1005
123DF4
  0
LINE
  5
123DF5
  8
SLIM
 10
9915.0
 20
-1126.4471713899361
 30
0.0
 11
10085.0
 21
-956.44717138993303
 31
0.0
1001
ACAD
1010
0.0
1020
0.0
1030
0.0
1001
ACDBBLOCKREPETAG
1070
     1
1071
       35
1005
123DF5
  0
LINE
  5
123DF6
  8
SLIM
 10
9915.0
 20
-1144.4076836320739
 30
0.0
 11
10085.0
 21
-974.4076836320711
 31
0.0
1001
ACAD
1010
0.0
1020
0.0
1030
0.0
1001
ACDBBLOCKREPETAG
1070
     1
1071
       36
1005
123DF6
  0
LINE
  5
123DF7
  8
SLIM
 10
9915.5755701039125
 20
-1161.7926257702991
 30
0.0
 11
10085.0
 21
-992.36819587420985
 31
0.0
1001
ACAD
1010
0.0
1020
0.0
1030
0.0
1001
ACDBBLOCKREPETAG
1070
     1
1071
       37
1005
123DF7
  0
LINE
  5
123DF8
  8
SLIM
 10
9917.7898798323986
 20
-1177.538828283954
 30
0.0
 11
10085.0
 21
-1010.328708116349
 31
0.0
1001
ACAD
1010
0.0
1020
0.0
1030
0.0
1001
ACDBBLOCKREPETAG
1070
     1
1071
       38
1005
123DF8
  0
LINE
  5
123DF9
  8
SLIM
 10
9920.0041895608792
 20
-1193.28503079761
 30
0.0
 11
10085.0
 21
-1028.289220358487
 31
0.0
1001
ACAD
1010
0.0
1020
0.0
1030
0.0
1001
ACDBBLOCKREPETAG
1070
     1
1071
       39
1005
123DF9
  0
LINE
  5
123DFA
  8
SLIM
 10
9922.2184992893599
 20
-1209.0312333112661
 30
0.0
 11
10085.0
 21
-1046.2497326006251
 31
0.0
1001
ACAD
1010
0.0
1020
0.0
1030
0.0
1001
ACDBBLOCKREPETAG
1070
     1
1071
       40
1005
123DFA
  0
LINE
  5
123DFB
  8
SLIM
 10
9924.4328090178442
 20
-1224.777435824921
 30
0.0
 11
10085.0
 21
-1064.210244842764
 31
0.0
1001
ACAD
1010
0.0
1020
0.0
1030
0.0
1001
ACDBBLOCKREPETAG
1070
     1
1071
       41
1005
123DFB
  0
LINE
  5
123DFC
  8
SLIM
 10
9926.6471187463285
 20
-1240.5236383385759
 30
0.0
 11
10085.0
 21
-1082.170757084903
 31
0.0
1001
ACAD
1010
0.0
1020
0.0
1030
0.0
1001
ACDBBLOCKREPETAG
1070
     1
1071
       42
1005
123DFC
  0
LINE
  5
123DFD
  8
SLIM
 10
9928.8614284748091
 20
-1256.2698408522319
 30
0.0
 11
10085.0
 21
-1100.1312693270411
 31
0.0
1001
ACAD
1010
0.0
1020
0.0
1030
0.0
1001
ACDBBLOCKREPETAG
1070
     1
1071
       43
1005
123DFD
  0
LINE
  5
123DFE
  8
SLIM
 10
9931.0757382032916
 20
-1272.0160433658871
 30
0.0
 11
10085.0
 21
-1118.0917815691801
 31
0.0
1001
ACAD
1010
0.0
1020
0.0
1030
0.0
1001
ACDBBLOCKREPETAG
1070
     1
1071
       44
1005
123DFE
  0
LINE
  5
123DFF
  8
SLIM
 10
9932.9999999999927
 20
-1288.0522938113261
 30
0.0
 11
10085.0
 21
-1136.0522938113179
 31
0.0
1001
ACAD
1010
0.0
1020
0.0
1030
0.0
1001
ACDBBLOCKREPETAG
1070
     1
1071
       45
1005
123DFF
  0
LINE
  5
123E00
  8
SLIM
 10
9932.9999999999927
 20
-1306.0128060534639
 30
0.0
 11
10085.0
 21
-1154.0128060534571
 31
0.0
1001
ACAD
1010
0.0
1020
0.0
1030
0.0
1001
ACDBBLOCKREPETAG
1070
     1
1071
       46
1005
123E00
  0
LINE
  5
123E01
  8
SLIM
 10
9932.9999999999927
 20
-1323.9733182956029
 30
0.0
 11
10082.664314193131
 21
-1174.3090041024641
 31
0.0
1001
ACAD
1010
0.0
1020
0.0
1030
0.0
1001
ACDBBLOCKREPETAG
1070
     1
1071
       47
1005
123E01
  0
LINE
  5
123E02
  8
SLIM
 10
9949.9338305377387
 20
-1324.9999999999959
 30
0.0
 11
10079.725321280779
 21
-1195.2085092569509
 31
0.0
1001
ACAD
1010
0.0
1020
0.0
1030
0.0
1001
ACDBBLOCKREPETAG
1070
     1
1071
       48
1005
123E02
  0
LINE
  5
123E03
  8
SLIM
 10
9967.8943427798768
 20
-1324.999999999997
 30
0.0
 11
10076.786328368429
 21
-1216.1080144114389
 31
0.0
1001
ACAD
1010
0.0
1020
0.0
1030
0.0
1001
ACDBBLOCKREPETAG
1070
     1
1071
       49
1005
123E03
  0
LINE
  5
123E04
  8
SLIM
 10
9985.8548550220112
 20
-1324.999999999997
 30
0.0
 11
10073.847335456079
 21
-1237.007519565926
 31
0.0
1001
ACAD
1010
0.0
1020
0.0
1030
0.0
1001
ACDBBLOCKREPETAG
1070
     1
1071
       50
1005
123E04
  0
LINE
  5
123E05
  8
SLIM
 10
10003.815367264149
 20
-1324.999999999997
 30
0.0
 11
10070.90834254372
 21
-1257.907024720412
 31
0.0
1001
ACAD
1010
0.0
1020
0.0
1030
0.0
1001
ACDBBLOCKREPETAG
1070
     1
1071
       51
1005
123E05
  0
LINE
  5
123E06
  8
SLIM
 10
10021.77587950628
 20
-1324.999999999998
 30
0.0
 11
10067.969349631379
 21
-1278.8065298749
 31
0.0
1001
ACAD
1010
0.0
1020
0.0
1030
0.0
1001
ACDBBLOCKREPETAG
1070
     1
1071
       52
1005
123E06
  0
LINE
  5
123E07
  8
SLIM
 10
10039.736391748431
 20
-1324.999999999998
 30
0.0
 11
10067.000000000009
 21
-1297.736391748414
 31
0.0
1001
ACAD
1010
0.0
1020
0.0
1030
0.0
1001
ACDBBLOCKREPETAG
1070
     1
1071
       53
1005
123E07
  0
LINE
  5
123E08
  8
SLIM
 10
10057.69690399056
 20
-1324.9999999999991
 30
0.0
 11
10067.000000000009
 21
-1315.696903990553
 31
0.0
1001
ACAD
1010
0.0
1020
0.0
1030
0.0
1001
ACDBBLOCKREPETAG
1070
     1
1071
       54
1005
123E08
  0
LINE
  5
123E09
  8
OBJECT
 10
9932.9999999999927
 20
-1324.9999999999959
 30
0.0
 11
10067.000000000009
 21
-1324.9999999999991
 31
0.0
1001
ACDBBLOCKREPETAG
1070
     1
1071
        1
1005
123E09
  0
LINE
  5
123E0A
  8
OBJECT
 10
9914.9999999999927
 20
-654.99999999999966
 30
0.0
 11
9915.0
 21
-1157.699682809141
 31
0.0
1001
ACDBBLOCKREPETAG
1070
     1
1071
        2
1005
123E0A
  0
LINE
  5
123E0B
  8
OBJECT
 10
10085.000000000009
 20
-654.99999999999966
 30
0.0
 11
10085.0
 21
-1157.6996828091719
 31
0.0
1001
ACDBBLOCKREPETAG
1070
     1
1071
        3
1005
123E0B
  0
LINE
  5
123E0C
  8
OBJECT
 10
9915.0
 20
-1157.699682809141
 30
0.0
 11
9932.9999999999927
 21
-1285.699682809081
 31
0.0
1001
ACDBBLOCKREPETAG
1070
     1
1071
        4
1005
123E0C
  0
LINE
  5
123E0D
  8
OBJECT
 10
10067.000000000009
 20
-1285.699682809128
 30
0.0
 11
10085.0
 21
-1157.6996828091719
 31
0.0
1001
ACDBBLOCKREPETAG
1070
     1
1071
        5
1005
123E0D
  0
LINE
  5
123E0E
  8
OBJECT
 10
10085.000000000009
 20
-654.99999999999966
 30
0.0
 11
9914.9999999999927
 21
-654.99999999999966
 31
0.0
1001
ACDBBLOCKREPETAG
1070
     1
1071
        6
1005
123E0E
  0
LINE
  5
123E0F
  8
OBJECT
 10
9932.9999999999927
 20
-1285.699682809081
 30
0.0
 11
9932.9999999999927
 21
-1324.9999999999959
 31
0.0
1001
ACDBBLOCKREPETAG
1070
     1
1071
        8
1005
123E0F
  0
LINE
  5
123E10
  8
OBJECT
 10
10067.000000000009
 20
-1285.699682809128
 30
0.0
 11
10067.000000000009
 21
-1324.9999999999991
 31
0.0
1001
ACDBBLOCKREPETAG
1070
     1
1071
        9
1005
123E10
  0
LINE
  5
123E11
  8
SLIM
 10
7914.9999999999918
 20
-659.47385309434696
 30
0.0
 11
7919.4738530943414
 21
-654.99999999999966
 31
0.0
1001
ACAD
1010
0.0
1020
0.0
1030
0.0
1001
ACDBBLOCKREPETAG
1070
     1
1071
        0
1005
0
  0
LINE
  5
123E12
  8
SLIM
 10
7914.9999999999918
 20
-677.43436533648514
 30
0.0
 11
7937.4343653364776
 21
-654.99999999999966
 31
0.0
1001
ACAD
1010
0.0
1020
0.0
1030
0.0
1001
ACDBBLOCKREPETAG
1070
     1
1071
       11
1005
123E12
  0
LINE
  5
123E13
  8
SLIM
 10
7914.9999999999918
 20
-695.39487757862321
 30
0.0
 11
7955.3948775786157
 21
-654.99999999999966
 31
0.0
1001
ACAD
1010
0.0
1020
0.0
1030
0.0
1001
ACDBBLOCKREPETAG
1070
     1
1071
       12
1005
123E13
  0
LINE
  5
123E14
  8
SLIM
 10
7914.9999999999918
 20
-713.35538982076093
 30
0.0
 11
7973.3553898207538
 21
-654.99999999999966
 31
0.0
1001
ACAD
1010
0.0
1020
0.0
1030
0.0
1001
ACDBBLOCKREPETAG
1070
     1
1071
       13
1005
123E14
  0
LINE
  5
123E15
  8
SLIM
 10
7914.9999999999918
 20
-731.31590206289934
 30
0.0
 11
7991.3159020628918
 21
-654.99999999999966
 31
0.0
1001
ACAD
1010
0.0
1020
0.0
1030
0.0
1001
ACDBBLOCKREPETAG
1070
     1
1071
       14
1005
123E15
  0
LINE
  5
123E16
  8
SLIM
 10
7914.9999999999964
 20
-749.27641430503695
 30
0.0
 11
8009.2764143050308
 21
-654.99999999999966
 31
0.0
1001
ACAD
1010
0.0
1020
0.0
1030
0.0
1001
ACDBBLOCKREPETAG
1070
     1
1071
       15
1005
123E16
  0
LINE
  5
123E17
  8
SLIM
 10
7914.9999999999964
 20
-767.23692654717524
 30
0.0
 11
8027.2369265471707
 21
-654.99999999999966
 31
0.0
1001
ACAD
1010
0.0
1020
0.0
1030
0.0
1001
ACDBBLOCKREPETAG
1070
     1
1071
       16
1005
123E17
  0
LINE
  5
123E18
  8
SLIM
 10
7914.9999999999964
 20
-785.1974387893132
 30
0.0
 11
8045.1974387893079
 21
-654.99999999999966
 31
0.0
1001
ACAD
1010
0.0
1020
0.0
1030
0.0
1001
ACDBBLOCKREPETAG
1070
     1
1071
       17
1005
123E18
  0
LINE
  5
123E19
  8
SLIM
 10
7914.9999999999964
 20
-803.15795103145126
 30
0.0
 11
8063.1579510314468
 21
-654.99999999999966
 31
0.0
1001
ACAD
1010
0.0
1020
0.0
1030
0.0
1001
ACDBBLOCKREPETAG
1070
     1
1071
       18
1005
123E19
  0
LINE
  5
123E1A
  8
SLIM
 10
7914.9999999999982
 20
-821.11846327358955
 30
0.0
 11
8081.118463273584
 21
-654.99999999999966
 31
0.0
1001
ACAD
1010
0.0
1020
0.0
1030
0.0
1001
ACDBBLOCKREPETAG
1070
     1
1071
       19
1005
123E1A
  0
LINE
  5
123E1B
  8
SLIM
 10
7914.9999999999982
 20
-839.07897551572751
 30
0.0
 11
8085.0000000000064
 21
-669.07897551571602
 31
0.0
1001
ACAD
1010
0.0
1020
0.0
1030
0.0
1001
ACDBBLOCKREPETAG
1070
     1
1071
       20
1005
123E1B
  0
LINE
  5
123E1C
  8
SLIM
 10
7914.9999999999982
 20
-857.03948775786546
 30
0.0
 11
8085.0000000000064
 21
-687.03948775785454
 31
0.0
1001
ACAD
1010
0.0
1020
0.0
1030
0.0
1001
ACDBBLOCKREPETAG
1070
     1
1071
       21
1005
123E1C
  0
LINE
  5
123E1D
  8
SLIM
 10
7914.9999999999982
 20
-875.00000000000375
 30
0.0
 11
8085.0000000000064
 21
-704.99999999999329
 31
0.0
1001
ACAD
1010
0.0
1020
0.0
1030
0.0
1001
ACDBBLOCKREPETAG
1070
     1
1071
       22
1005
123E1D
  0
LINE
  5
123E1E
  8
SLIM
 10
7914.9999999999982
 20
-892.9605122421417
 30
0.0
 11
8085.0000000000064
 21
-722.96051224213159
 31
0.0
1001
ACAD
1010
0.0
1020
0.0
1030
0.0
1001
ACDBBLOCKREPETAG
1070
     1
1071
       23
1005
123E1E
  0
LINE
  5
123E1F
  8
SLIM
 10
7914.9999999999982
 20
-910.92102448427966
 30
0.0
 11
8085.0000000000064
 21
-740.92102448427033
 31
0.0
1001
ACAD
1010
0.0
1020
0.0
1030
0.0
1001
ACDBBLOCKREPETAG
1070
     1
1071
       24
1005
123E1F
  0
LINE
  5
123E20
  8
SLIM
 10
7914.9999999999982
 20
-928.88153672641772
 30
0.0
 11
8085.0000000000064
 21
-758.88153672640874
 31
0.0
1001
ACAD
1010
0.0
1020
0.0
1030
0.0
1001
ACDBBLOCKREPETAG
1070
     1
1071
       25
1005
123E20
  0
LINE
  5
123E21
  8
SLIM
 10
7914.9999999999982
 20
-946.84204896855545
 30
0.0
 11
8085.0000000000064
 21
-776.84204896854737
 31
0.0
1001
ACAD
1010
0.0
1020
0.0
1030
0.0
1001
ACDBBLOCKREPETAG
1070
     1
1071
       26
1005
123E21
  0
LINE
  5
123E22
  8
SLIM
 10
7914.9999999999982
 20
-964.80256121069385
 30
0.0
 11
8085.0000000000064
 21
-794.80256121068567
 31
0.0
1001
ACAD
1010
0.0
1020
0.0
1030
0.0
1001
ACDBBLOCKREPETAG
1070
     1
1071
       27
1005
123E22
  0
LINE
  5
123E23
  8
SLIM
 10
7914.9999999999982
 20
-982.76307345283203
 30
0.0
 11
8085.0000000000064
 21
-812.76307345282441
 31
0.0
1001
ACAD
1010
0.0
1020
0.0
1030
0.0
1001
ACDBBLOCKREPETAG
1070
     1
1071
       28
1005
123E23
  0
LINE
  5
123E24
  8
SLIM
 10
7914.9999999999982
 20
-1000.72358569497
 30
0.0
 11
8085.0000000000064
 21
-830.72358569496294
 31
0.0
1001
ACAD
1010
0.0
1020
0.0
1030
0.0
1001
ACDBBLOCKREPETAG
1070
     1
1071
       29
1005
123E24
  0
LINE
  5
123E25
  8
SLIM
 10
7914.9999999999982
 20
-1018.684097937108
 30
0.0
 11
8085.0000000000064
 21
-848.68409793710146
 31
0.0
1001
ACAD
1010
0.0
1020
0.0
1030
0.0
1001
ACDBBLOCKREPETAG
1070
     1
1071
       30
1005
123E25
  0
LINE
  5
123E26
  8
SLIM
 10
7914.9999999999982
 20
-1036.644610179246
 30
0.0
 11
8085.0000000000064
 21
-866.64461017923998
 31
0.0
1001
ACAD
1010
0.0
1020
0.0
1030
0.0
1001
ACDBBLOCKREPETAG
1070
     1
1071
       31
1005
123E26
  0
LINE
  5
123E27
  8
SLIM
 10
7914.9999999999982
 20
-1054.6051224213841
 30
0.0
 11
8085.0000000000018
 21
-884.60512242137838
 31
0.0
1001
ACAD
1010
0.0
1020
0.0
1030
0.0
1001
ACDBBLOCKREPETAG
1070
     1
1071
       32
1005
123E27
  0
LINE
  5
123E28
  8
SLIM
 10
7914.9999999999982
 20
-1072.5656346635219
 30
0.0
 11
8085.0000000000018
 21
-902.56563466351713
 31
0.0
1001
ACAD
1010
0.0
1020
0.0
1030
0.0
1001
ACDBBLOCKREPETAG
1070
     1
1071
       33
1005
123E28
  0
LINE
  5
123E29
  8
SLIM
 10
7914.9999999999982
 20
-1090.52614690566
 30
0.0
 11
8085.0000000000018
 21
-920.52614690565565
 31
0.0
1001
ACAD
1010
0.0
1020
0.0
1030
0.0
1001
ACDBBLOCKREPETAG
1070
     1
1071
       34
1005
123E29
  0
LINE
  5
123E2A
  8
SLIM
 10
7914.9999999999982
 20
-1108.486659147798
 30
0.0
 11
8085.0000000000018
 21
-938.4866591477944
 31
0.0
1001
ACAD
1010
0.0
1020
0.0
1030
0.0
1001
ACDBBLOCKREPETAG
1070
     1
1071
       35
1005
123E2A
  0
LINE
  5
123E2B
  8
SLIM
 10
7914.9999999999982
 20
-1126.4471713899361
 30
0.0
 11
8085.0000000000018
 21
-956.44717138993303
 31
0.0
1001
ACAD
1010
0.0
1020
0.0
1030
0.0
1001
ACDBBLOCKREPETAG
1070
     1
1071
       36
1005
123E2B
  0
LINE
  5
123E2C
  8
SLIM
 10
7915.0
 20
-1144.4076836320739
 30
0.0
 11
8085.0000000000018
 21
-974.4076836320711
 31
0.0
1001
ACAD
1010
0.0
1020
0.0
1030
0.0
1001
ACDBBLOCKREPETAG
1070
     1
1071
       37
1005
123E2C
  0
LINE
  5
123E2D
  8
SLIM
 10
7915.5755701039097
 20
-1161.7926257702991
 30
0.0
 11
8085.0000000000018
 21
-992.36819587420985
 31
0.0
1001
ACAD
1010
0.0
1020
0.0
1030
0.0
1001
ACDBBLOCKREPETAG
1070
     1
1071
       38
1005
123E2D
  0
LINE
  5
123E2E
  8
SLIM
 10
7917.7898798323949
 20
-1177.538828283954
 30
0.0
 11
8085.0000000000018
 21
-1010.328708116349
 31
0.0
1001
ACAD
1010
0.0
1020
0.0
1030
0.0
1001
ACDBBLOCKREPETAG
1070
     1
1071
       39
1005
123E2E
  0
LINE
  5
123E2F
  8
SLIM
 10
7920.0041895608774
 20
-1193.2850307976109
 30
0.0
 11
8085.0000000000018
 21
-1028.289220358487
 31
0.0
1001
ACAD
1010
0.0
1020
0.0
1030
0.0
1001
ACDBBLOCKREPETAG
1070
     1
1071
       40
1005
123E2F
  0
LINE
  5
123E30
  8
SLIM
 10
7922.2184992893599
 20
-1209.0312333112661
 30
0.0
 11
8085.0000000000018
 21
-1046.2497326006251
 31
0.0
1001
ACAD
1010
0.0
1020
0.0
1030
0.0
1001
ACDBBLOCKREPETAG
1070
     1
1071
       41
1005
123E30
  0
LINE
  5
123E31
  8
SLIM
 10
7924.4328090178433
 20
-1224.7774358249219
 30
0.0
 11
8085.0
 21
-1064.210244842764
 31
0.0
1001
ACAD
1010
0.0
1020
0.0
1030
0.0
1001
ACDBBLOCKREPETAG
1070
     1
1071
       42
1005
123E31
  0
LINE
  5
123E32
  8
SLIM
 10
7926.647118746323
 20
-1240.5236383385779
 30
0.0
 11
8085.0
 21
-1082.170757084903
 31
0.0
1001
ACAD
1010
0.0
1020
0.0
1030
0.0
1001
ACDBBLOCKREPETAG
1070
     1
1071
       43
1005
123E32
  0
LINE
  5
123E33
  8
SLIM
 10
7928.8614284748082
 20
-1256.2698408522331
 30
0.0
 11
8085.0
 21
-1100.1312693270411
 31
0.0
1001
ACAD
1010
0.0
1020
0.0
1030
0.0
1001
ACDBBLOCKREPETAG
1070
     1
1071
       44
1005
123E33
  0
LINE
  5
123E34
  8
SLIM
 10
7931.0757382032898
 20
-1272.0160433658889
 30
0.0
 11
8085.0
 21
-1118.0917815691801
 31
0.0
1001
ACAD
1010
0.0
1020
0.0
1030
0.0
1001
ACDBBLOCKREPETAG
1070
     1
1071
       45
1005
123E34
  0
LINE
  5
123E35
  8
SLIM
 10
7936.0522938113209
 20
-1284.9999999999991
 30
0.0
 11
8085.0
 21
-1136.0522938113179
 31
0.0
1001
ACAD
1010
0.0
1020
0.0
1030
0.0
1001
ACDBBLOCKREPETAG
1070
     1
1071
       46
1005
123E35
  0
LINE
  5
123E36
  8
SLIM
 10
7943.0
 20
-1296.0128060534571
 30
0.0
 11
7954.0128060534598
 21
-1284.9999999999991
 31
0.0
1001
ACAD
1010
0.0
1020
0.0
1030
0.0
1001
ACDBBLOCKREPETAG
1070
     1
1071
       47
1005
123E36
  0
LINE
  5
123E37
  8
SLIM
 10
7954.0128060534598
 20
-1284.9999999999991
 30
0.0
 11
8085.0
 21
-1154.0128060534571
 31
0.0
1001
ACAD
1010
0.0
1020
0.0
1030
0.0
1001
ACDBBLOCKREPETAG
1070
     1
1071
       48
1005
123E37
  0
LINE
  5
123E38
  8
SLIM
 10
7946.973318295597
 20
-1309.9999999999991
 30
0.0
 11
7971.9733182955979
 21
-1284.9999999999991
 31
0.0
1001
ACAD
1010
0.0
1020
0.0
1030
0.0
1001
ACDBBLOCKREPETAG
1070
     1
1071
       49
1005
123E38
  0
LINE
  5
123E39
  8
SLIM
 10
7971.9733182955979
 20
-1284.9999999999991
 30
0.0
 11
8082.664314193129
 21
-1174.3090041024641
 31
0.0
1001
ACAD
1010
0.0
1020
0.0
1030
0.0
1001
ACDBBLOCKREPETAG
1070
     1
1071
       50
1005
123E39
  0
LINE
  5
123E3A
  8
SLIM
 10
7964.9338305377341
 20
-1309.9999999999991
 30
0.0
 11
7989.9338305377341
 21
-1284.9999999999991
 31
0.0
1001
ACAD
1010
0.0
1020
0.0
1030
0.0
1001
ACDBBLOCKREPETAG
1070
     1
1071
       51
1005
123E3A
  0
LINE
  5
123E3B
  8
SLIM
 10
7989.9338305377341
 20
-1284.9999999999991
 30
0.0
 11
8079.7253212807827
 21
-1195.208509256953
 31
0.0
1001
ACAD
1010
0.0
1020
0.0
1030
0.0
1001
ACDBBLOCKREPETAG
1070
     1
1071
       52
1005
123E3B
  0
LINE
  5
123E3C
  8
SLIM
 10
7982.8943427798713
 20
-1309.9999999999991
 30
0.0
 11
8007.8943427798722
 21
-1284.9999999999991
 31
0.0
1001
ACAD
1010
0.0
1020
0.0
1030
0.0
1001
ACDBBLOCKREPETAG
1070
     1
1071
       53
1005
123E3C
  0
LINE
  5
123E3D
  8
SLIM
 10
8007.8943427798722
 20
-1284.9999999999991
 30
0.0
 11
8076.786328368431
 21
-1216.108014411441
 31
0.0
1001
ACAD
1010
0.0
1020
0.0
1030
0.0
1001
ACDBBLOCKREPETAG
1070
     1
1071
       54
1005
123E3D
  0
LINE
  5
123E3E
  8
SLIM
 10
8000.8548550220103
 20
-1309.9999999999991
 30
0.0
 11
8025.8548550220094
 21
-1284.9999999999991
 31
0.0
1001
ACAD
1010
0.0
1020
0.0
1030
0.0
1001
ACDBBLOCKREPETAG
1070
     1
1071
       55
1005
123E3E
  0
LINE
  5
123E3F
  8
SLIM
 10
8025.8548550220094
 20
-1284.9999999999991
 30
0.0
 11
8073.8473354560829
 21
-1237.007519565929
 31
0.0
1001
ACAD
1010
0.0
1020
0.0
1030
0.0
1001
ACDBBLOCKREPETAG
1070
     1
1071
       56
1005
123E3F
  0
LINE
  5
123E40
  8
SLIM
 10
8018.8153672641492
 20
-1309.9999999999991
 30
0.0
 11
8043.8153672641502
 21
-1284.9999999999991
 31
0.0
1001
ACAD
1010
0.0
1020
0.0
1030
0.0
1001
ACDBBLOCKREPETAG
1070
     1
1071
       57
1005
123E40
  0
LINE
  5
123E41
  8
SLIM
 10
8043.8153672641502
 20
-1284.9999999999991
 30
0.0
 11
8070.9083425437329
 21
-1257.907024720417
 31
0.0
1001
ACAD
1010
0.0
1020
0.0
1030
0.0
1001
ACDBBLOCKREPETAG
1070
     1
1071
       58
1005
123E41
  0
LINE
  5
123E42
  8
SLIM
 10
8036.7758795062846
 20
-1309.9999999999991
 30
0.0
 11
8057.0
 21
-1289.7758795062871
 31
0.0
1001
ACAD
1010
0.0
1020
0.0
1030
0.0
1001
ACDBBLOCKREPETAG
1070
     1
1071
       59
1005
123E42
  0
LINE
  5
123E43
  8
SLIM
 10
8061.7758795062846
 20
-1284.9999999999991
 30
0.0
 11
8067.9693496313812
 21
-1278.806529874905
 31
0.0
1001
ACAD
1010
0.0
1020
0.0
1030
0.0
1001
ACDBBLOCKREPETAG
1070
     1
1071
       60
1005
123E43
  0
LINE
  5
123E44
  8
SLIM
 10
8054.7363917484254
 20
-1309.9999999999991
 30
0.0
 11
8057.0
 21
-1307.7363917484249
 31
0.0
1001
ACAD
1010
0.0
1020
0.0
1030
0.0
1001
ACDBBLOCKREPETAG
1070
     1
1071
       61
1005
123E44
  0
LINE
  5
123E45
  8
OBJECT
 10
7943.0
 20
-1309.9999999999991
 30
0.0
 11
8057.0
 21
-1309.9999999999991
 31
0.0
1001
ACDBBLOCKREPETAG
1070
     1
1071
        1
1005
123E45
  0
LINE
  5
123E46
  8
OBJECT
 10
7932.9016071049627
 20
-1284.9999999999991
 30
0.0
 11
8067.09839289504
 21
-1284.9999999999991
 31
0.0
1001
ACDBBLOCKREPETAG
1070
     1
1071
        2
1005
123E46
  0
LINE
  5
123E47
  8
OBJECT
 10
7943.0
 20
-1309.9999999999991
 30
0.0
 11
7943.0
 21
-1284.9999999999991
 31
0.0
1001
ACDBBLOCKREPETAG
1070
     1
1071
        3
1005
123E47
  0
LINE
  5
123E48
  8
OBJECT
 10
8057.0
 20
-1309.9999999999991
 30
0.0
 11
8057.0
 21
-1284.9999999999991
 31
0.0
1001
ACDBBLOCKREPETAG
1070
     1
1071
        4
1005
123E48
  0
LINE
  5
123E49
  8
OBJECT
 10
7914.9999999999918
 20
-654.99999999999966
 30
0.0
 11
7915.0
 21
-1157.699682809143
 31
0.0
1001
ACDBBLOCKREPETAG
1070
     1
1071
        5
1005
123E49
  0
LINE
  5
123E4A
  8
OBJECT
 10
8085.0000000000064
 20
-654.99999999999966
 30
0.0
 11
8085.0
 21
-1157.6996828091719
 31
0.0
1001
ACDBBLOCKREPETAG
1070
     1
1071
        6
1005
123E4A
  0
LINE
  5
123E4B
  8
OBJECT
 10
7915.0
 20
-1157.699682809143
 30
0.0
 11
7932.9016071049627
 21
-1284.9999999999991
 31
0.0
1001
ACDBBLOCKREPETAG
1070
     1
1071
        7
1005
123E4B
  0
LINE
  5
123E4C
  8
OBJECT
 10
8067.09839289504
 20
-1284.9999999999991
 30
0.0
 11
8085.0
 21
-1157.6996828091719
 31
0.0
1001
ACDBBLOCKREPETAG
1070
     1
1071
        8
1005
123E4C
  0
LINE
  5
123E4D
  8
OBJECT
 10
8085.0000000000064
 20
-654.99999999999966
 30
0.0
 11
7914.9999999999918
 21
-654.99999999999966
 31
0.0
1001
ACDBBLOCKREPETAG
1070
     1
1071
        9
1005
123E4D
  0
LINE
  5
123E4E
  8
OBJECT
 10
11925.0
 20
-789.99999999999955
 30
0.0
 11
11925.0
 21
-1062.9999999999991
 31
0.0
1001
ACDBBLOCKREPETAG
1070
     1
1071
        1
1005
123E4E
  0
LINE
  5
123E4F
  8
OBJECT
 10
12075.0
 20
-789.99999999999375
 30
0.0
 11
12075.0
 21
-1062.9999999999991
 31
0.0
1001
ACDBBLOCKREPETAG
1070
     1
1071
        3
1005
123E4F
  0
LINE
  5
123E50
  8
CENTER
 10
12000.0
 20
-789.99999999999955
 30
0.0
 11
12000.0
 21
-1074.9999999999991
 31
0.0
1001
ACDBBLOCKREPETAG
1070
     1
1071
        6
1005
123E50
  0
LINE
  5
123E51
  8
OBJECT
 10
11920.0
 20
-1074.9999999999991
 30
0.0
 11
12080.0
 21
-1074.9999999999991
 31
0.0
1001
ACDBBLOCKREPETAG
1070
     1
1071
        7
1005
123E51
  0
LINE
  5
123E52
  8
OBJECT
 10
11920.0
 20
-1062.9999999999991
 30
0.0
 11
12080.0
 21
-1062.9999999999991
 31
0.0
1001
ACDBBLOCKREPETAG
1070
     1
1071
        8
1005
123E52
  0
LINE
  5
123E53
  8
OBJECT
 10
11920.0
 20
-1062.9999999999991
 30
0.0
 11
11920.0
 21
-1074.9999999999991
 31
0.0
1001
ACDBBLOCKREPETAG
1070
     1
1071
        9
1005
123E53
  0
LINE
  5
123E54
  8
OBJECT
 10
12080.0
 20
-1062.9999999999991
 30
0.0
 11
12080.0
 21
-1074.9999999999991
 31
0.0
1001
ACDBBLOCKREPETAG
1070
     1
1071
       10
1005
123E54
  0
LINE
  5
123E55
  8
OBJECT
 10
9925.0
 20
-789.99999999999955
 30
0.0
 11
9925.0
 21
-1062.9999999999991
 31
0.0
1001
ACDBBLOCKREPETAG
1070
     1
1071
        1
1005
123E55
  0
LINE
  5
123E56
  8
OBJECT
 10
10075.0
 20
-789.99999999999375
 30
0.0
 11
10075.0
 21
-1062.9999999999991
 31
0.0
1001
ACDBBLOCKREPETAG
1070
     1
1071
        3
1005
123E56
  0
LINE
  5
123E57
  8
CENTER
 10
10000.0
 20
-789.99999999999955
 30
0.0
 11
10000.0
 21
-1074.9999999999991
 31
0.0
1001
ACDBBLOCKREPETAG
1070
     1
1071
        6
1005
123E57
  0
LINE
  5
123E58
  8
OBJECT
 10
9920.0
 20
-1074.9999999999991
 30
0.0
 11
10080.0
 21
-1074.9999999999991
 31
0.0
1001
ACDBBLOCKREPETAG
1070
     1
1071
        7
1005
123E58
  0
LINE
  5
123E59
  8
OBJECT
 10
9920.0
 20
-1062.9999999999991
 30
0.0
 11
10080.0
 21
-1062.9999999999991
 31
0.0
1001
ACDBBLOCKREPETAG
1070
     1
1071
        8
1005
123E59
  0
LINE
  5
123E5A
  8
OBJECT
 10
9920.0
 20
-1062.9999999999991
 30
0.0
 11
9920.0
 21
-1074.9999999999991
 31
0.0
1001
ACDBBLOCKREPETAG
1070
     1
1071
        9
1005
123E5A
  0
LINE
  5
123E5B
  8
OBJECT
 10
10080.0
 20
-1062.9999999999991
 30
0.0
 11
10080.0
 21
-1074.9999999999991
 31
0.0
1001
ACDBBLOCKREPETAG
1070
     1
1071
       10
1005
123E5B
  0
LINE
  5
123E5C
  8
OBJECT
 10
7925.0
 20
-789.99999999999955
 30
0.0
 11
7925.0
 21
-1062.9999999999991
 31
0.0
1001
ACDBBLOCKREPETAG
1070
     1
1071
        1
1005
123E5C
  0
LINE
  5
123E5D
  8
OBJECT
 10
8075.0
 20
-789.99999999999375
 30
0.0
 11
8075.0
 21
-1062.9999999999991
 31
0.0
1001
ACDBBLOCKREPETAG
1070
     1
1071
        3
1005
123E5D
  0
LINE
  5
123E5E
  8
CENTER
 10
8000.0
 20
-789.99999999999955
 30
0.0
 11
8000.0
 21
-1074.9999999999991
 31
0.0
1001
ACDBBLOCKREPETAG
1070
     1
1071
        6
1005
123E5E
  0
LINE
  5
123E5F
  8
OBJECT
 10
7920.0
 20
-1074.9999999999991
 30
0.0
 11
8080.0
 21
-1074.9999999999991
 31
0.0
1001
ACDBBLOCKREPETAG
1070
     1
1071
        7
1005
123E5F
  0
LINE
  5
123E60
  8
OBJECT
 10
7920.0
 20
-1062.9999999999991
 30
0.0
 11
8080.0
 21
-1062.9999999999991
 31
0.0
1001
ACDBBLOCKREPETAG
1070
     1
1071
        8
1005
123E60
  0
LINE
  5
123E61
  8
OBJECT
 10
7920.0
 20
-1062.9999999999991
 30
0.0
 11
7920.0
 21
-1074.9999999999991
 31
0.0
1001
ACDBBLOCKREPETAG
1070
     1
1071
        9
1005
123E61
  0
LINE
  5
123E62
  8
OBJECT
 10
8080.0
 20
-1062.9999999999991
 30
0.0
 11
8080.0
 21
-1074.9999999999991
 31
0.0
1001
ACDBBLOCKREPETAG
1070
     1
1071
       10
1005
123E62
  0
LINE
  5
123E63
  8
OBJECT
 10
5925.0
 20
-789.99999999999955
 30
0.0
 11
5925.0
 21
-1062.9999999999991
 31
0.0
1001
ACDBBLOCKREPETAG
1070
     1
1071
        1
1005
123E63
  0
LINE
  5
123E64
  8
OBJECT
 10
6075.0
 20
-789.99999999999375
 30
0.0
 11
6075.0
 21
-1062.9999999999991
 31
0.0
1001
ACDBBLOCKREPETAG
1070
     1
1071
        3
1005
123E64
  0
LINE
  5
123E65
  8
CENTER
 10
6000.0
 20
-789.99999999999955
 30
0.0
 11
6000.0
 21
-1074.9999999999991
 31
0.0
1001
ACDBBLOCKREPETAG
1070
     1
1071
        6
1005
123E65
  0
LINE
  5
123E66
  8
OBJECT
 10
5920.0
 20
-1074.9999999999991
 30
0.0
 11
6080.0
 21
-1074.9999999999991
 31
0.0
1001
ACDBBLOCKREPETAG
1070
     1
1071
        7
1005
123E66
  0
LINE
  5
123E67
  8
OBJECT
 10
5920.0
 20
-1062.9999999999991
 30
0.0
 11
6080.0
 21
-1062.9999999999991
 31
0.0
1001
ACDBBLOCKREPETAG
1070
     1
1071
        8
1005
123E67
  0
LINE
  5
123E68
  8
OBJECT
 10
5920.0
 20
-1062.9999999999991
 30
0.0
 11
5920.0
 21
-1074.9999999999991
 31
0.0
1001
ACDBBLOCKREPETAG
1070
     1
1071
        9
1005
123E68
  0
LINE
  5
123E69
  8
OBJECT
 10
6080.0
 20
-1062.9999999999991
 30
0.0
 11
6080.0
 21
-1074.9999999999991
 31
0.0
1001
ACDBBLOCKREPETAG
1070
     1
1071
       10
1005
123E69
  0
LINE
  5
123E6A
  8
OBJECT
 10
3925.0
 20
-789.99999999999955
 30
0.0
 11
3925.0
 21
-1062.9999999999991
 31
0.0
1001
ACDBBLOCKREPETAG
1070
     1
1071
        1
1005
123E6A
  0
LINE
  5
123E6B
  8
OBJECT
 10
4075.0
 20
-789.99999999999375
 30
0.0
 11
4075.0
 21
-1062.9999999999991
 31
0.0
1001
ACDBBLOCKREPETAG
1070
     1
1071
        3
1005
123E6B
  0
LINE
  5
123E6C
  8
CENTER
 10
4000.0
 20
-789.99999999999955
 30
0.0
 11
4000.0
 21
-1074.9999999999991
 31
0.0
1001
ACDBBLOCKREPETAG
1070
     1
1071
        6
1005
123E6C
  0
LINE
  5
123E6D
  8
OBJECT
 10
3920.0
 20
-1074.9999999999991
 30
0.0
 11
4080.0
 21
-1074.9999999999991
 31
0.0
1001
ACDBBLOCKREPETAG
1070
     1
1071
        7
1005
123E6D
  0
LINE
  5
123E6E
  8
OBJECT
 10
3920.0
 20
-1062.9999999999991
 30
0.0
 11
4080.0
 21
-1062.9999999999991
 31
0.0
1001
ACDBBLOCKREPETAG
1070
     1
1071
        8
1005
123E6E
  0
LINE
  5
123E6F
  8
OBJECT
 10
3920.0
 20
-1062.9999999999991
 30
0.0
 11
3920.0
 21
-1074.9999999999991
 31
0.0
1001
ACDBBLOCKREPETAG
1070
     1
1071
        9
1005
123E6F
  0
LINE
  5
123E70
  8
OBJECT
 10
4080.0
 20
-1062.9999999999991
 30
0.0
 11
4080.0
 21
-1074.9999999999991
 31
0.0
1001
ACDBBLOCKREPETAG
1070
     1
1071
       10
1005
123E70
  0
LINE
  5
123E71
  8
OBJECT
 10
1925.0
 20
-789.99999999999955
 30
0.0
 11
1925.0
 21
-1062.9999999999991
 31
0.0
1001
ACDBBLOCKREPETAG
1070
     1
1071
        1
1005
123E71
  0
LINE
  5
123E72
  8
OBJECT
 10
2075.0
 20
-789.99999999999375
 30
0.0
 11
2075.0
 21
-1062.9999999999991
 31
0.0
1001
ACDBBLOCKREPETAG
1070
     1
1071
        3
1005
123E72
  0
LINE
  5
123E73
  8
CENTER
 10
2000.0
 20
-789.99999999999955
 30
0.0
 11
2000.0
 21
-1074.9999999999991
 31
0.0
1001
ACDBBLOCKREPETAG
1070
     1
1071
        6
1005
123E73
  0
LINE
  5
123E74
  8
OBJECT
 10
1920.0
 20
-1074.9999999999991
 30
0.0
 11
2080.0
 21
-1074.9999999999991
 31
0.0
1001
ACDBBLOCKREPETAG
1070
     1
1071
        7
1005
123E74
  0
LINE
  5
123E75
  8
OBJECT
 10
1920.0
 20
-1062.9999999999991
 30
0.0
 11
2080.0
 21
-1062.9999999999991
 31
0.0
1001
ACDBBLOCKREPETAG
1070
     1
1071
        8
1005
123E75
  0
LINE
  5
123E76
  8
OBJECT
 10
1920.0
 20
-1062.9999999999991
 30
0.0
 11
1920.0
 21
-1074.9999999999991
 31
0.0
1001
ACDBBLOCKREPETAG
1070
     1
1071
        9
1005
123E76
  0
LINE
  5
123E77
  8
OBJECT
 10
2080.0
 20
-1062.9999999999991
 30
0.0
 11
2080.0
 21
-1074.9999999999991
 31
0.0
1001
ACDBBLOCKREPETAG
1070
     1
1071
       10
1005
123E77
  0
LINE
  5
123E78
  8
OBJECT
 10
1923.0
 20
-470.99999999999937
 30
0.0
 11
1923.0
 21
-449.99999999999937
 31
0.0
1001
ACDBBLOCKREPETAG
1070
     1
1071
        0
1005
123E78
  0
LINE
  5
123E79
  8
OBJECT
 10
1923.0
 20
-449.99999999999937
 30
0.0
 11
2077.0
 21
-449.99999999999937
 31
0.0
1001
ACDBBLOCKREPETAG
1070
     1
1071
        1
1005
123E79
  0
LINE
  5
123E7A
  8
HIDDEN
 10
1943.0
 20
-519.99999999999955
 30
0.0
 11
2057.0
 21
-519.99999999999955
 31
0.0
1001
ACDBBLOCKREPETAG
1070
     1
1071
        2
1005
123E7A
  0
LINE
  5
123E7B
  8
OBJECT
 10
2077.0
 20
-449.99999999999937
 30
0.0
 11
2077.0
 21
-470.99999999999937
 31
0.0
1001
ACDBBLOCKREPETAG
1070
     1
1071
        3
1005
123E7B
  0
LINE
  5
123E7C
  8
OBJECT
 10
2077.0
 20
-470.99999999999937
 30
0.0
 11
1923.0
 21
-470.99999999999937
 31
0.0
1001
ACDBBLOCKREPETAG
1070
     1
1071
        4
1005
123E7C
  0
LINE
  5
123E7D
  8
CENTER
 10
2000.0
 20
-434.99999999999949
 30
0.0
 11
2000.0
 21
-789.99999999999955
 31
0.0
1001
ACDBBLOCKREPETAG
1070
     1
1071
        5
1005
123E7D
  0
LINE
  5
123E7E
  8
OBJECT
 10
1925.0
 20
-533.99999999999955
 30
0.0
 11
1925.0
 21
-777.99999999999955
 31
0.0
1001
ACDBBLOCKREPETAG
1070
     1
1071
        6
1005
123E7E
  0
LINE
  5
123E7F
  8
OBJECT
 10
1928.0
 20
-470.99999999999937
 30
0.0
 11
1928.0
 21
-533.99999999999955
 31
0.0
1001
ACDBBLOCKREPETAG
1070
     1
1071
        7
1005
123E7F
  0
LINE
  5
123E80
  8
OBJECT
 10
2072.0
 20
-533.99999999999955
 30
0.0
 11
2072.0
 21
-470.99999999999937
 31
0.0
1001
ACDBBLOCKREPETAG
1070
     1
1071
        8
1005
123E80
  0
LINE
  5
123E81
  8
OBJECT
 10
1920.0
 20
-777.99999999999955
 30
0.0
 11
2080.0
 21
-777.99999999999955
 31
0.0
1001
ACDBBLOCKREPETAG
1070
     1
1071
        9
1005
123E81
  0
LINE
  5
123E82
  8
OBJECT
 10
2080.0
 20
-533.99999999999955
 30
0.0
 11
1925.0
 21
-533.99999999999955
 31
0.0
1001
ACDBBLOCKREPETAG
1070
     1
1071
       10
1005
123E82
  0
LINE
  5
123E83
  8
OBJECT
 10
1920.0
 20
-777.99999999999955
 30
0.0
 11
1920.0
 21
-789.99999999999955
 31
0.0
1001
ACDBBLOCKREPETAG
1070
     1
1071
       11
1005
123E83
  0
LINE
  5
123E84
  8
OBJECT
 10
1920.0
 20
-789.99999999999955
 30
0.0
 11
2080.0
 21
-789.99999999999955
 31
0.0
1001
ACDBBLOCKREPETAG
1070
     1
1071
       12
1005
123E84
  0
LINE
  5
123E85
  8
OBJECT
 10
2080.0
 20
-789.99999999999955
 30
0.0
 11
2080.0
 21
-777.99999999999955
 31
0.0
1001
ACDBBLOCKREPETAG
1070
     1
1071
       13
1005
123E85
  0
LINE
  5
123E86
  8
OBJECT
 10
2074.9999999998622
 20
-657.99999999985039
 30
0.0
 11
2075.0
 21
-777.99999999999955
 31
0.0
1001
ACDBBLOCKREPETAG
1070
     1
1071
       15
1005
123E86
  0
LINE
  5
123E87
  8
OBJECT
 10
2074.9999908029849
 20
-657.99998602702135
 30
0.0
 11
2080.0
 21
-657.99998602702135
 31
0.0
1001
ACDBBLOCKREPETAG
1070
     1
1071
       16
1005
123E87
  0
ARC
  5
123E88
  8
OBJECT
 10
2200.6872746716731
 20
-649.40809941010718
 30
0.0
 40
170.6350503965856
 50
137.44134459184301
 51
149.91949581336559
1001
ACDBBLOCKREPETAG
1070
     1
1071
       17
1005
123E88
  0
ARC
  5
123E89
  8
OBJECT
 10
2118.8455987040511
 20
-605.88272669536445
 30
0.0
 40
78.072222021763665
 50
147.4551531038623
 51
164.6636599771798
1001
ACDBBLOCKREPETAG
1070
     1
1071
       18
1005
123E89
  0
ARC
  5
123E8A
  8
OBJECT
 10
2085.7554349608731
 20
-595.99999999999955
 30
0.0
 40
43.55353926885617
 50
165.6884523007466
 51
194.3115476992534
1001
ACDBBLOCKREPETAG
1070
     1
1071
       19
1005
123E8A
  0
ARC
  5
123E8B
  8
OBJECT
 10
2200.6872746716731
 20
-542.59190058989179
 30
0.0
 40
170.6350503965856
 50
210.0805041866343
 51
222.55865540815699
1001
ACDBBLOCKREPETAG
1070
     1
1071
       20
1005
123E8B
  0
ARC
  5
123E8C
  8
OBJECT
 10
2118.8455987040511
 20
-586.11727330463452
 30
0.0
 40
78.072222021763665
 50
195.3363400228202
 51
212.5448468961377
1001
ACDBBLOCKREPETAG
1070
     1
1071
       21
1005
123E8C
  0
POINT
  5
123E8D
  8
DOTS
 10
2000.0
 20
-654.99999999999966
 30
0.0
1001
ACDBBLOCKREPETAG
1070
     1
1071
      187
1005
123E8D
  0
LINE
  5
123E8E
  8
OBJECT
 10
12085.999999999991
 20
-1408.9999999999991
 30
0.0
 11
12085.999999999991
 21
-1418.9999999999991
 31
0.0
1001
ACDBBLOCKREPETAG
1070
     1
1071
      121
1005
123E8E
  0
LINE
  5
123E8F
  8
OBJECT
 10
12069.999999999991
 20
-1408.9999999999991
 30
0.0
 11
12069.999999999991
 21
-1418.9999999999991
 31
0.0
1001
ACDBBLOCKREPETAG
1070
     1
1071
      122
1005
123E8F
  0
LINE
  5
123E90
  8
OBJECT
 10
12085.999999999991
 20
-1418.9999999999991
 30
0.0
 11
12069.999999999991
 21
-1418.9999999999991
 31
0.0
1001
ACDBBLOCKREPETAG
1070
     1
1071
      123
1005
123E90
  0
LINE
  5
123E91
  8
OBJECT
 10
12090.0
 20
-1369.9999999999959
 30
0.0
 11
11924.0
 21
-1369.9999999999959
 31
0.0
1001
ACDBBLOCKREPETAG
1070
     1
1071
      124
1005
123E91
  0
LINE
  5
123E92
  8
OBJECT
 10
12090.0
 20
-1385.0
 30
0.0
 11
12090.0
 21
-1369.9999999999959
 31
0.0
1001
ACDBBLOCKREPETAG
1070
     1
1071
      125
1005
123E92
  0
LINE
  5
123E93
  8
OBJECT
 10
11924.0
 20
-1385.0
 30
0.0
 11
12090.0
 21
-1385.0
 31
0.0
1001
ACDBBLOCKREPETAG
1070
     1
1071
      126
1005
123E93
  0
LINE
  5
123E94
  8
OBJECT
 10
12067.49999999998
 20
-1385.0
 30
0.0
 11
12067.49999999998
 21
-1394.9999999999991
 31
0.0
1001
ACDBBLOCKREPETAG
1070
     1
1071
      127
1005
123E94
  0
LINE
  5
123E95
  8
OBJECT
 10
12072.999999999991
 20
-1394.9999999999991
 30
0.0
 11
12072.999999999991
 21
-1385.0
 31
0.0
1001
ACDBBLOCKREPETAG
1070
     1
1071
      128
1005
123E95
  0
LINE
  5
123E96
  8
OBJECT
 10
12082.999999999991
 20
-1394.9999999999991
 30
0.0
 11
12082.999999999991
 21
-1385.0
 31
0.0
1001
ACDBBLOCKREPETAG
1070
     1
1071
      129
1005
123E96
  0
LINE
  5
123E97
  8
OBJECT
 10
11924.0
 20
-1394.9999999999991
 30
0.0
 11
11924.0
 21
-1408.9999999999959
 31
0.0
1001
ACDBBLOCKREPETAG
1070
     1
1071
      130
1005
123E97
  0
LINE
  5
123E98
  8
OBJECT
 10
12090.0
 20
-1394.9999999999991
 30
0.0
 11
12090.0
 21
-1408.9999999999959
 31
0.0
1001
ACDBBLOCKREPETAG
1070
     1
1071
      131
1005
123E98
  0
LINE
  5
123E99
  8
OBJECT
 10
11924.0
 20
-1408.9999999999959
 30
0.0
 11
12090.0
 21
-1408.9999999999959
 31
0.0
1001
ACDBBLOCKREPETAG
1070
     1
1071
      132
1005
123E99
  0
LINE
  5
123E9A
  8
OBJECT
 10
11924.0
 20
-1394.9999999999991
 30
0.0
 11
12090.0
 21
-1394.9999999999991
 31
0.0
1001
ACDBBLOCKREPETAG
1070
     1
1071
      133
1005
123E9A
  0
LINE
  5
123E9B
  8
OBJECT
 10
11932.49999999998
 20
-1385.0
 30
0.0
 11
11932.49999999998
 21
-1394.9999999999991
 31
0.0
1001
ACDBBLOCKREPETAG
1070
     1
1071
      134
1005
123E9B
  0
LINE
  5
123E9C
  8
OBJECT
 10
11934.0
 20
-1333.9999999999959
 30
0.0
 11
12065.999999999991
 21
-1333.9999999999959
 31
0.0
1001
ACDBBLOCKREPETAG
1070
     1
1071
      135
1005
123E9C
  0
LINE
  5
123E9D
  8
OBJECT
 10
11924.0
 20
-1385.0
 30
0.0
 11
11924.0
 21
-1369.9999999999959
 31
0.0
1001
ACDBBLOCKREPETAG
1070
     1
1071
      136
1005
123E9D
  0
LINE
  5
123E9E
  8
HIDDEN
 10
11943.0
 20
-1344.9999999999991
 30
0.0
 11
12057.0
 21
-1344.9999999999991
 31
0.0
1001
ACDBBLOCKREPETAG
1070
     1
1071
      137
1005
123E9E
  0
LINE
  5
123E9F
  8
OBJECT
 10
12086.999999999991
 20
-1368.2
 30
0.0
 11
12086.999999999991
 21
-1369.9999999999991
 31
0.0
1001
ACDBBLOCKREPETAG
1070
     1
1071
      138
1005
123E9F
  0
LINE
  5
123EA0
  8
OBJECT
 10
12068.999999999991
 20
-1368.2
 30
0.0
 11
12068.999999999991
 21
-1369.9999999999991
 31
0.0
1001
ACDBBLOCKREPETAG
1070
     1
1071
      139
1005
123EA0
  0
LINE
  5
123EA1
  8
OBJECT
 10
12072.249999999991
 20
-1358.4999999999991
 30
0.0
 11
12083.749999999991
 21
-1358.4999999999991
 31
0.0
1001
ACDBBLOCKREPETAG
1070
     1
1071
      140
1005
123EA1
  0
LINE
  5
123EA2
  8
OBJECT
 10
12072.249999999991
 20
-1358.4999999999991
 30
0.0
 11
12072.249999999991
 21
-1368.2
 31
0.0
1001
ACDBBLOCKREPETAG
1070
     1
1071
      141
1005
123EA2
  0
LINE
  5
123EA3
  8
OBJECT
 10
12083.749999999991
 20
-1358.4999999999991
 30
0.0
 11
12083.749999999991
 21
-1368.2
 31
0.0
1001
ACDBBLOCKREPETAG
1070
     1
1071
      142
1005
123EA3
  0
LINE
  5
123EA4
  8
OBJECT
 10
11931.99999999998
 20
-1450.0
 30
0.0
 11
12067.99999999998
 21
-1450.0
 31
0.0
1001
ACDBBLOCKREPETAG
1070
     1
1071
      143
1005
123EA4
  0
LINE
  5
123EA5
  8
OBJECT
 10
11931.99999999998
 20
-1450.0
 30
0.0
 11
11931.99999999998
 21
-1408.9999999999991
 31
0.0
1001
ACDBBLOCKREPETAG
1070
     1
1071
      144
1005
123EA5
  0
LINE
  5
123EA6
  8
OBJECT
 10
12067.99999999998
 20
-1450.0
 30
0.0
 11
12067.99999999998
 21
-1408.9999999999991
 31
0.0
1001
ACDBBLOCKREPETAG
1070
     1
1071
      145
1005
123EA6
  0
LINE
  5
123EA7
  8
OBJECT
 10
12086.999999999991
 20
-1368.2
 30
0.0
 11
12068.999999999991
 21
-1368.2
 31
0.0
1001
ACDBBLOCKREPETAG
1070
     1
1071
      146
1005
123EA7
  0
LINE
  5
123EA8
  8
CENTER
 10
12000.0
 20
-1074.9999999999991
 30
0.0
 11
12000.0
 21
-1464.9999999999991
 31
0.0
1001
ACDBBLOCKREPETAG
1070
     1
1071
      147
1005
123EA8
  0
LINE
  5
123EA9
  8
OBJECT
 10
11925.0
 20
-1074.9999999999991
 30
0.0
 11
11925.0
 21
-1156.9999999999959
 31
0.0
1001
ACDBBLOCKREPETAG
1070
     1
1071
      148
1005
123EA9
  0
LINE
  5
123EAA
  8
OBJECT
 10
12075.0
 20
-1074.9999999999991
 30
0.0
 11
12075.0
 21
-1156.999999999992
 31
0.0
1001
ACDBBLOCKREPETAG
1070
     1
1071
      149
1005
123EAA
  0
LINE
  5
123EAB
  8
OBJECT
 10
11925.0
 20
-1156.9999999999959
 30
0.0
 11
12075.0
 21
-1156.999999999992
 31
0.0
1001
ACDBBLOCKREPETAG
1070
     1
1071
      150
1005
123EAB
  0
LINE
  5
123EAC
  8
OBJECT
 10
11943.0
 20
-1333.9999999999959
 30
0.0
 11
11943.0
 21
-1284.999999999992
 31
0.0
1001
ACDBBLOCKREPETAG
1070
     1
1071
      151
1005
123EAC
  0
LINE
  5
123EAD
  8
OBJECT
 10
12057.0
 20
-1284.999999999992
 30
0.0
 11
11943.0
 21
-1284.999999999992
 31
0.0
1001
ACDBBLOCKREPETAG
1070
     1
1071
      152
1005
123EAD
  0
LINE
  5
123EAE
  8
OBJECT
 10
12057.0
 20
-1284.999999999992
 30
0.0
 11
12057.0
 21
-1333.9999999999959
 31
0.0
1001
ACDBBLOCKREPETAG
1070
     1
1071
      153
1005
123EAE
  0
LINE
  5
123EAF
  8
OBJECT
 10
11925.0
 20
-1156.9999999999959
 30
0.0
 11
11943.0
 21
-1284.999999999992
 31
0.0
1001
ACDBBLOCKREPETAG
1070
     1
1071
      154
1005
123EAF
  0
LINE
  5
123EB0
  8
OBJECT
 10
12057.0
 20
-1284.999999999992
 30
0.0
 11
12075.0
 21
-1156.999999999992
 31
0.0
1001
ACDBBLOCKREPETAG
1070
     1
1071
      155
1005
123EB0
  0
LINE
  5
123EB1
  8
OBJECT
 10
11934.0
 20
-1369.9999999999959
 30
0.0
 11
11934.0
 21
-1333.9999999999959
 31
0.0
1001
ACDBBLOCKREPETAG
1070
     1
1071
      156
1005
123EB1
  0
LINE
  5
123EB2
  8
OBJECT
 10
12066.0
 20
-1369.9999999999959
 30
0.0
 11
12065.999999999991
 21
-1333.9999999999959
 31
0.0
1001
ACDBBLOCKREPETAG
1070
     1
1071
      157
1005
123EB2
  0
LINE
  5
123EB3
  8
OBJECT
 10
11954.75
 20
-1359.699999999993
 30
0.0
 11
11967.25
 21
-1359.699999999993
 31
0.0
1001
ACDBBLOCKREPETAG
1070
     1
1071
      158
1005
123EB3
  0
LINE
  5
123EB4
  8
OBJECT
 10
11946.0
 20
-1369.9999999999959
 30
0.0
 11
11946.0
 21
-1367.699999999996
 31
0.0
1001
ACDBBLOCKREPETAG
1070
     1
1071
      159
1005
123EB4
  0
LINE
  5
123EB5
  8
OBJECT
 10
11976.0
 20
-1369.9999999999959
 30
0.0
 11
11976.0
 21
-1367.699999999996
 31
0.0
1001
ACDBBLOCKREPETAG
1070
     1
1071
      160
1005
123EB5
  0
LINE
  5
123EB6
  8
OBJECT
 10
11954.75
 20
-1359.699999999993
 30
0.0
 11
11954.75
 21
-1367.699999999996
 31
0.0
1001
ACDBBLOCKREPETAG
1070
     1
1071
      161
1005
123EB6
  0
LINE
  5
123EB7
  8
OBJECT
 10
11967.25
 20
-1359.699999999993
 30
0.0
 11
11967.25
 21
-1367.699999999996
 31
0.0
1001
ACDBBLOCKREPETAG
1070
     1
1071
      162
1005
123EB7
  0
LINE
  5
123EB8
  8
OBJECT
 10
11946.0
 20
-1367.699999999996
 30
0.0
 11
11976.0
 21
-1367.699999999996
 31
0.0
1001
ACDBBLOCKREPETAG
1070
     1
1071
      163
1005
123EB8
  0
LINE
  5
123EB9
  8
OBJECT
 10
11953.0
 20
-1408.9999999999959
 30
0.0
 11
11953.0
 21
-1418.9999999999959
 31
0.0
1001
ACDBBLOCKREPETAG
1070
     1
1071
      164
1005
123EB9
  0
LINE
  5
123EBA
  8
OBJECT
 10
11969.0
 20
-1408.9999999999959
 30
0.0
 11
11969.0
 21
-1418.9999999999959
 31
0.0
1001
ACDBBLOCKREPETAG
1070
     1
1071
      165
1005
123EBA
  0
LINE
  5
123EBB
  8
OBJECT
 10
11953.0
 20
-1418.9999999999959
 30
0.0
 11
11969.0
 21
-1418.9999999999959
 31
0.0
1001
ACDBBLOCKREPETAG
1070
     1
1071
      166
1005
123EBB
  0
LINE
  5
123EBC
  8
OBJECT
 10
11966.0
 20
-1394.9999999999959
 30
0.0
 11
11966.0
 21
-1384.9999999999959
 31
0.0
1001
ACDBBLOCKREPETAG
1070
     1
1071
      167
1005
123EBC
  0
LINE
  5
123EBD
  8
OBJECT
 10
11956.0
 20
-1394.9999999999959
 30
0.0
 11
11956.0
 21
-1384.9999999999959
 31
0.0
1001
ACDBBLOCKREPETAG
1070
     1
1071
      168
1005
123EBD
  0
LINE
  5
123EBE
  8
OBJECT
 10
10090.0
 20
-1369.9999999999959
 30
0.0
 11
9924.0
 21
-1369.9999999999959
 31
0.0
1001
ACDBBLOCKREPETAG
1070
     1
1071
       12
1005
123EBE
  0
LINE
  5
123EBF
  8
OBJECT
 10
10066.0
 20
-1333.9999999999959
 30
0.0
 11
9934.0
 21
-1333.9999999999959
 31
0.0
1001
ACDBBLOCKREPETAG
1070
     1
1071
       13
1005
123EBF
  0
LINE
  5
123EC0
  8
OBJECT
 10
10090.0
 20
-1385.0
 30
0.0
 11
10090.0
 21
-1369.9999999999959
 31
0.0
1001
ACDBBLOCKREPETAG
1070
     1
1071
       14
1005
123EC0
  0
LINE
  5
123EC1
  8
OBJECT
 10
9924.0
 20
-1385.0
 30
0.0
 11
10090.0
 21
-1385.0
 31
0.0
1001
ACDBBLOCKREPETAG
1070
     1
1071
       15
1005
123EC1
  0
LINE
  5
123EC2
  8
OBJECT
 10
10067.49999999998
 20
-1385.0
 30
0.0
 11
10067.49999999998
 21
-1394.9999999999991
 31
0.0
1001
ACDBBLOCKREPETAG
1070
     1
1071
       16
1005
123EC2
  0
LINE
  5
123EC3
  8
OBJECT
 10
9924.0
 20
-1394.9999999999991
 30
0.0
 11
9924.0
 21
-1408.9999999999959
 31
0.0
1001
ACDBBLOCKREPETAG
1070
     1
1071
       17
1005
123EC3
  0
LINE
  5
123EC4
  8
OBJECT
 10
10090.0
 20
-1394.9999999999991
 30
0.0
 11
10090.0
 21
-1408.9999999999959
 31
0.0
1001
ACDBBLOCKREPETAG
1070
     1
1071
       18
1005
123EC4
  0
LINE
  5
123EC5
  8
OBJECT
 10
9924.0
 20
-1408.9999999999959
 30
0.0
 11
10090.0
 21
-1408.9999999999959
 31
0.0
1001
ACDBBLOCKREPETAG
1070
     1
1071
       19
1005
123EC5
  0
LINE
  5
123EC6
  8
OBJECT
 10
9924.0
 20
-1394.9999999999991
 30
0.0
 11
10090.0
 21
-1394.9999999999991
 31
0.0
1001
ACDBBLOCKREPETAG
1070
     1
1071
       20
1005
123EC6
  0
LINE
  5
123EC7
  8
OBJECT
 10
9932.4999999999836
 20
-1385.0
 30
0.0
 11
9932.4999999999836
 21
-1394.9999999999991
 31
0.0
1001
ACDBBLOCKREPETAG
1070
     1
1071
       21
1005
123EC7
  0
LINE
  5
123EC8
  8
OBJECT
 10
9924.0
 20
-1385.0
 30
0.0
 11
9924.0
 21
-1369.9999999999959
 31
0.0
1001
ACDBBLOCKREPETAG
1070
     1
1071
       22
1005
123EC8
  0
LINE
  5
123EC9
  8
HIDDEN
 10
9943.0
 20
-1344.9999999999991
 30
0.0
 11
10057.0
 21
-1344.9999999999991
 31
0.0
1001
ACDBBLOCKREPETAG
1070
     1
1071
       23
1005
123EC9
  0
LINE
  5
123ECA
  8
CENTER
 10
10000.0
 20
-1074.9999999999991
 30
0.0
 11
10000.0
 21
-1423.9999999999959
 31
0.0
1001
ACDBBLOCKREPETAG
1070
     1
1071
       24
1005
123ECA
  0
LINE
  5
123ECB
  8
OBJECT
 10
9925.0
 20
-1074.9999999999991
 30
0.0
 11
9925.0
 21
-1156.9999999999959
 31
0.0
1001
ACDBBLOCKREPETAG
1070
     1
1071
       25
1005
123ECB
  0
LINE
  5
123ECC
  8
OBJECT
 10
10075.0
 20
-1074.9999999999991
 30
0.0
 11
10075.0
 21
-1156.999999999992
 31
0.0
1001
ACDBBLOCKREPETAG
1070
     1
1071
       26
1005
123ECC
  0
LINE
  5
123ECD
  8
OBJECT
 10
9925.0
 20
-1156.9999999999959
 30
0.0
 11
10075.0
 21
-1156.999999999992
 31
0.0
1001
ACDBBLOCKREPETAG
1070
     1
1071
       27
1005
123ECD
  0
LINE
  5
123ECE
  8
OBJECT
 10
10057.0
 20
-1333.9999999999959
 30
0.0
 11
10057.0
 21
-1284.999999999992
 31
0.0
1001
ACDBBLOCKREPETAG
1070
     1
1071
       28
1005
123ECE
  0
LINE
  5
123ECF
  8
OBJECT
 10
9943.0
 20
-1333.9999999999959
 30
0.0
 11
9943.0
 21
-1284.999999999992
 31
0.0
1001
ACDBBLOCKREPETAG
1070
     1
1071
       29
1005
123ECF
  0
LINE
  5
123ED0
  8
OBJECT
 10
10057.0
 20
-1284.999999999992
 30
0.0
 11
9943.0
 21
-1284.999999999992
 31
0.0
1001
ACDBBLOCKREPETAG
1070
     1
1071
       30
1005
123ED0
  0
LINE
  5
123ED1
  8
OBJECT
 10
9925.0
 20
-1156.9999999999959
 30
0.0
 11
9943.0
 21
-1284.999999999992
 31
0.0
1001
ACDBBLOCKREPETAG
1070
     1
1071
       31
1005
123ED1
  0
LINE
  5
123ED2
  8
OBJECT
 10
10057.0
 20
-1284.999999999992
 30
0.0
 11
10075.0
 21
-1156.999999999992
 31
0.0
1001
ACDBBLOCKREPETAG
1070
     1
1071
       32
1005
123ED2
  0
LINE
  5
123ED3
  8
OBJECT
 10
9934.0
 20
-1333.9999999999959
 30
0.0
 11
9934.0
 21
-1369.9999999999959
 31
0.0
1001
ACDBBLOCKREPETAG
1070
     1
1071
       33
1005
123ED3
  0
LINE
  5
123ED4
  8
OBJECT
 10
10066.0
 20
-1333.9999999999959
 30
0.0
 11
10066.0
 21
-1369.9999999999959
 31
0.0
1001
ACDBBLOCKREPETAG
1070
     1
1071
       34
1005
123ED4
  0
LINE
  5
123ED5
  8
OBJECT
 10
10082.999999999991
 20
-1394.9999999999959
 30
0.0
 11
10082.999999999991
 21
-1384.9999999999959
 31
0.0
1001
ACDBBLOCKREPETAG
1070
     1
1071
       35
1005
123ED5
  0
LINE
  5
123ED6
  8
OBJECT
 10
10072.999999999991
 20
-1394.9999999999959
 30
0.0
 11
10072.999999999991
 21
-1384.9999999999959
 31
0.0
1001
ACDBBLOCKREPETAG
1070
     1
1071
       36
1005
123ED6
  0
LINE
  5
123ED7
  8
OBJECT
 10
10068.99999999998
 20
-1364.9999999999959
 30
0.0
 11
10068.99999999998
 21
-1369.9999999999959
 31
0.0
1001
ACDBBLOCKREPETAG
1070
     1
1071
       37
1005
123ED7
  0
LINE
  5
123ED8
  8
OBJECT
 10
10087.0
 20
-1364.9999999999959
 30
0.0
 11
10087.0
 21
-1369.9999999999959
 31
0.0
1001
ACDBBLOCKREPETAG
1070
     1
1071
       38
1005
123ED8
  0
LINE
  5
123ED9
  8
OBJECT
 10
10087.0
 20
-1364.9999999999959
 30
0.0
 11
10068.99999999998
 21
-1364.9999999999959
 31
0.0
1001
ACDBBLOCKREPETAG
1070
     1
1071
       39
1005
123ED9
  0
LINE
  5
123EDA
  8
OBJECT
 10
10073.0
 20
-1416.9999999999959
 30
0.0
 11
10073.0
 21
-1419.9999999999959
 31
0.0
1001
ACDBBLOCKREPETAG
1070
     1
1071
       40
1005
123EDA
  0
LINE
  5
123EDB
  8
OBJECT
 10
10073.0
 20
-1419.9999999999959
 30
0.0
 11
10083.0
 21
-1419.9999999999959
 31
0.0
1001
ACDBBLOCKREPETAG
1070
     1
1071
       41
1005
123EDB
  0
LINE
  5
123EDC
  8
OBJECT
 10
10083.0
 20
-1419.9999999999959
 30
0.0
 11
10083.0
 21
-1416.9999999999959
 31
0.0
1001
ACDBBLOCKREPETAG
1070
     1
1071
       43
1005
123EDC
  0
LINE
  5
123EDD
  8
OBJECT
 10
9968.5
 20
-1364.9999999999959
 30
0.0
 11
9951.9999999999909
 21
-1364.9999999999959
 31
0.0
1001
ACDBBLOCKREPETAG
1070
     1
1071
       48
1005
123EDD
  0
LINE
  5
123EDE
  8
OBJECT
 10
9976.0
 20
-1369.9999999999959
 30
0.0
 11
9976.0
 21
-1367.9999999999959
 31
0.0
1001
ACDBBLOCKREPETAG
1070
     1
1071
       49
1005
123EDE
  0
LINE
  5
123EDF
  8
OBJECT
 10
9966.0
 20
-1394.9999999999959
 30
0.0
 11
9966.0
 21
-1384.9999999999959
 31
0.0
1001
ACDBBLOCKREPETAG
1070
     1
1071
       50
1005
123EDF
  0
LINE
  5
123EE0
  8
OBJECT
 10
9956.0
 20
-1394.9999999999959
 30
0.0
 11
9956.0
 21
-1384.9999999999959
 31
0.0
1001
ACDBBLOCKREPETAG
1070
     1
1071
       51
1005
123EE0
  0
LINE
  5
123EE1
  8
OBJECT
 10
9951.9999999999909
 20
-1364.9999999999959
 30
0.0
 11
9951.9999999999909
 21
-1369.9999999999959
 31
0.0
1001
ACDBBLOCKREPETAG
1070
     1
1071
       52
1005
123EE1
  0
LINE
  5
123EE2
  8
OBJECT
 10
9956.0
 20
-1416.9999999999959
 30
0.0
 11
9956.0
 21
-1419.9999999999959
 31
0.0
1001
ACDBBLOCKREPETAG
1070
     1
1071
       53
1005
123EE2
  0
LINE
  5
123EE3
  8
OBJECT
 10
9956.0
 20
-1419.9999999999959
 30
0.0
 11
9966.0
 21
-1419.9999999999959
 31
0.0
1001
ACDBBLOCKREPETAG
1070
     1
1071
       54
1005
123EE3
  0
LINE
  5
123EE4
  8
OBJECT
 10
9951.185045423772
 20
-1416.9999999999959
 30
0.0
 11
9970.814954576219
 21
-1416.9999999999959
 31
0.0
1001
ACDBBLOCKREPETAG
1070
     1
1071
       55
1005
123EE4
  0
LINE
  5
123EE5
  8
OBJECT
 10
9966.0
 20
-1419.9999999999959
 30
0.0
 11
9966.0
 21
-1416.9999999999959
 31
0.0
1001
ACDBBLOCKREPETAG
1070
     1
1071
       56
1005
123EE5
  0
LINE
  5
123EE6
  8
OBJECT
 10
9976.0
 20
-1367.9999999999959
 30
0.0
 11
9968.5
 21
-1364.9999999999959
 31
0.0
1001
ACDBBLOCKREPETAG
1070
     1
1071
       57
1005
123EE6
  0
LINE
  5
123EE7
  8
OBJECT
 10
9951.1850454237774
 20
-1408.9999999999959
 30
0.0
 11
9951.1850454237774
 21
-1416.9999999999959
 31
0.0
1001
ACDBBLOCKREPETAG
1070
     1
1071
      630
1005
123EE7
  0
LINE
  5
123EE8
  8
OBJECT
 10
9956.0925227118896
 20
-1408.9999999999959
 30
0.0
 11
9956.0925227118896
 21
-1416.9999999999959
 31
0.0
1001
ACDBBLOCKREPETAG
1070
     1
1071
      631
1005
123EE8
  0
LINE
  5
123EE9
  8
OBJECT
 10
9965.9074772881122
 20
-1408.9999999999959
 30
0.0
 11
9965.9074772881122
 21
-1416.9999999999959
 31
0.0
1001
ACDBBLOCKREPETAG
1070
     1
1071
      632
1005
123EE9
  0
LINE
  5
123EEA
  8
OBJECT
 10
9970.8149545762244
 20
-1408.9999999999959
 30
0.0
 11
9970.8149545762244
 21
-1416.9999999999959
 31
0.0
1001
ACDBBLOCKREPETAG
1070
     1
1071
      633
1005
123EEA
  0
LINE
  5
123EEB
  8
OBJECT
 10
10068.18504542377
 20
-1416.9999999999959
 30
0.0
 11
10087.814954576221
 21
-1416.9999999999959
 31
0.0
1001
ACDBBLOCKREPETAG
1070
     1
1071
      634
1005
123EEB
  0
LINE
  5
123EEC
  8
OBJECT
 10
10068.18504542377
 20
-1408.9999999999959
 30
0.0
 11
10068.18504542377
 21
-1416.9999999999959
 31
0.0
1001
ACDBBLOCKREPETAG
1070
     1
1071
      635
1005
123EEC
  0
LINE
  5
123EED
  8
OBJECT
 10
10073.09252271189
 20
-1408.9999999999959
 30
0.0
 11
10073.09252271189
 21
-1416.9999999999959
 31
0.0
1001
ACDBBLOCKREPETAG
1070
     1
1071
      636
1005
123EED
  0
LINE
  5
123EEE
  8
OBJECT
 10
10082.90747728811
 20
-1408.9999999999959
 30
0.0
 11
10082.90747728811
 21
-1416.9999999999959
 31
0.0
1001
ACDBBLOCKREPETAG
1070
     1
1071
      637
1005
123EEE
  0
LINE
  5
123EEF
  8
OBJECT
 10
10087.814954576221
 20
-1408.9999999999959
 30
0.0
 11
10087.814954576221
 21
-1416.9999999999959
 31
0.0
1001
ACDBBLOCKREPETAG
1070
     1
1071
      638
1005
123EEF
  0
LINE
  5
123EF0
  8
OBJECT
 10
7943.0
 20
-1384.9999999999959
 30
0.0
 11
8057.0
 21
-1384.9999999999959
 31
0.0
1001
ACDBBLOCKREPETAG
1070
     1
1071
        0
1005
123EF0
  0
LINE
  5
123EF1
  8
OBJECT
 10
7943.0
 20
-1384.9999999999959
 30
0.0
 11
7943.0
 21
-1284.9999999999959
 31
0.0
1001
ACDBBLOCKREPETAG
1070
     1
1071
        1
1005
123EF1
  0
LINE
  5
123EF2
  8
OBJECT
 10
8057.0
 20
-1384.9999999999959
 30
0.0
 11
8057.0
 21
-1284.9999999999959
 31
0.0
1001
ACDBBLOCKREPETAG
1070
     1
1071
        2
1005
123EF2
  0
LINE
  5
123EF3
  8
OBJECT
 10
7943.0
 20
-1284.9999999999959
 30
0.0
 11
8057.0
 21
-1284.9999999999959
 31
0.0
1001
ACDBBLOCKREPETAG
1070
     1
1071
        3
1005
123EF3
  0
LINE
  5
123EF4
  8
HIDDEN
 10
7950.0
 20
-1284.9999999999959
 30
0.0
 11
7950.0
 21
-1384.9999999999959
 31
0.0
1001
ACDBBLOCKREPETAG
1070
     1
1071
        4
1005
123EF4
  0
LINE
  5
123EF5
  8
HIDDEN
 10
8050.0
 20
-1284.9999999999959
 30
0.0
 11
8050.0
 21
-1384.9999999999959
 31
0.0
1001
ACDBBLOCKREPETAG
1070
     1
1071
        5
1005
123EF5
  0
LINE
  5
123EF6
  8
CENTER
 10
8000.0
 20
-1074.9999999999991
 30
0.0
 11
8000.0
 21
-1399.9999999999959
 31
0.0
1001
ACDBBLOCKREPETAG
1070
     1
1071
        6
1005
123EF6
  0
LINE
  5
123EF7
  8
OBJECT
 10
7925.0
 20
-1074.9999999999991
 30
0.0
 11
7925.0
 21
-1156.9999999999959
 31
0.0
1001
ACDBBLOCKREPETAG
1070
     1
1071
        7
1005
123EF7
  0
LINE
  5
123EF8
  8
OBJECT
 10
8075.0
 20
-1074.9999999999991
 30
0.0
 11
8075.0
 21
-1156.9999999999959
 31
0.0
1001
ACDBBLOCKREPETAG
1070
     1
1071
        8
1005
123EF8
  0
LINE
  5
123EF9
  8
OBJECT
 10
7925.0
 20
-1156.9999999999959
 30
0.0
 11
8075.0
 21
-1156.9999999999959
 31
0.0
1001
ACDBBLOCKREPETAG
1070
     1
1071
        9
1005
123EF9
  0
LINE
  5
123EFA
  8
OBJECT
 10
7925.0
 20
-1156.9999999999959
 30
0.0
 11
7943.0
 21
-1284.9999999999959
 31
0.0
1001
ACDBBLOCKREPETAG
1070
     1
1071
       10
1005
123EFA
  0
LINE
  5
123EFB
  8
OBJECT
 10
8057.0
 20
-1284.9999999999959
 30
0.0
 11
8075.0
 21
-1156.9999999999959
 31
0.0
1001
ACDBBLOCKREPETAG
1070
     1
1071
       11
1005
123EFB
  0
LINE
  5
123EFC
  8
OBJECT
 10
6085.9999999999927
 20
-1408.9999999999991
 30
0.0
 11
6085.9999999999927
 21
-1418.9999999999991
 31
0.0
1001
ACDBBLOCKREPETAG
1070
     1
1071
      121
1005
123EFC
  0
LINE
  5
123EFD
  8
OBJECT
 10
6069.9999999999927
 20
-1408.9999999999991
 30
0.0
 11
6069.9999999999927
 21
-1418.9999999999991
 31
0.0
1001
ACDBBLOCKREPETAG
1070
     1
1071
      122
1005
123EFD
  0
LINE
  5
123EFE
  8
OBJECT
 10
6085.9999999999927
 20
-1418.9999999999991
 30
0.0
 11
6069.9999999999927
 21
-1418.9999999999991
 31
0.0
1001
ACDBBLOCKREPETAG
1070
     1
1071
      123
1005
123EFE
  0
LINE
  5
123EFF
  8
OBJECT
 10
6090.0
 20
-1369.9999999999959
 30
0.0
 11
5924.0
 21
-1369.9999999999959
 31
0.0
1001
ACDBBLOCKREPETAG
1070
     1
1071
      124
1005
123EFF
  0
LINE
  5
123F00
  8
OBJECT
 10
6090.0
 20
-1385.0
 30
0.0
 11
6090.0
 21
-1369.9999999999959
 31
0.0
1001
ACDBBLOCKREPETAG
1070
     1
1071
      125
1005
123F00
  0
LINE
  5
123F01
  8
OBJECT
 10
5924.0
 20
-1385.0
 30
0.0
 11
6090.0
 21
-1385.0
 31
0.0
1001
ACDBBLOCKREPETAG
1070
     1
1071
      126
1005
123F01
  0
LINE
  5
123F02
  8
OBJECT
 10
6067.4999999999864
 20
-1385.0
 30
0.0
 11
6067.4999999999864
 21
-1394.9999999999991
 31
0.0
1001
ACDBBLOCKREPETAG
1070
     1
1071
      127
1005
123F02
  0
LINE
  5
123F03
  8
OBJECT
 10
6072.9999999999927
 20
-1394.9999999999991
 30
0.0
 11
6072.9999999999927
 21
-1385.0
 31
0.0
1001
ACDBBLOCKREPETAG
1070
     1
1071
      128
1005
123F03
  0
LINE
  5
123F04
  8
OBJECT
 10
6082.9999999999927
 20
-1394.9999999999991
 30
0.0
 11
6082.9999999999927
 21
-1385.0
 31
0.0
1001
ACDBBLOCKREPETAG
1070
     1
1071
      129
1005
123F04
  0
LINE
  5
123F05
  8
OBJECT
 10
5924.0
 20
-1394.9999999999991
 30
0.0
 11
5924.0
 21
-1408.9999999999959
 31
0.0
1001
ACDBBLOCKREPETAG
1070
     1
1071
      130
1005
123F05
  0
LINE
  5
123F06
  8
OBJECT
 10
6090.0
 20
-1394.9999999999991
 30
0.0
 11
6090.0
 21
-1408.9999999999959
 31
0.0
1001
ACDBBLOCKREPETAG
1070
     1
1071
      131
1005
123F06
  0
LINE
  5
123F07
  8
OBJECT
 10
5924.0
 20
-1408.9999999999959
 30
0.0
 11
6090.0
 21
-1408.9999999999959
 31
0.0
1001
ACDBBLOCKREPETAG
1070
     1
1071
      132
1005
123F07
  0
LINE
  5
123F08
  8
OBJECT
 10
5924.0
 20
-1394.9999999999991
 30
0.0
 11
6090.0
 21
-1394.9999999999991
 31
0.0
1001
ACDBBLOCKREPETAG
1070
     1
1071
      133
1005
123F08
  0
LINE
  5
123F09
  8
OBJECT
 10
5932.4999999999864
 20
-1385.0
 30
0.0
 11
5932.4999999999864
 21
-1394.9999999999991
 31
0.0
1001
ACDBBLOCKREPETAG
1070
     1
1071
      134
1005
123F09
  0
LINE
  5
123F0A
  8
OBJECT
 10
5934.0
 20
-1333.9999999999959
 30
0.0
 11
6065.9999999999909
 21
-1333.9999999999959
 31
0.0
1001
ACDBBLOCKREPETAG
1070
     1
1071
      135
1005
123F0A
  0
LINE
  5
123F0B
  8
OBJECT
 10
5924.0
 20
-1385.0
 30
0.0
 11
5924.0
 21
-1369.9999999999959
 31
0.0
1001
ACDBBLOCKREPETAG
1070
     1
1071
      136
1005
123F0B
  0
LINE
  5
123F0C
  8
HIDDEN
 10
5943.0
 20
-1344.9999999999991
 30
0.0
 11
6057.0
 21
-1344.9999999999991
 31
0.0
1001
ACDBBLOCKREPETAG
1070
     1
1071
      137
1005
123F0C
  0
LINE
  5
123F0D
  8
OBJECT
 10
6086.9999999999918
 20
-1368.2
 30
0.0
 11
6086.9999999999918
 21
-1369.9999999999991
 31
0.0
1001
ACDBBLOCKREPETAG
1070
     1
1071
      138
1005
123F0D
  0
LINE
  5
123F0E
  8
OBJECT
 10
6068.9999999999909
 20
-1368.2
 30
0.0
 11
6068.9999999999909
 21
-1369.9999999999991
 31
0.0
1001
ACDBBLOCKREPETAG
1070
     1
1071
      139
1005
123F0E
  0
LINE
  5
123F0F
  8
OBJECT
 10
6072.2499999999927
 20
-1358.4999999999991
 30
0.0
 11
6083.7499999999927
 21
-1358.4999999999991
 31
0.0
1001
ACDBBLOCKREPETAG
1070
     1
1071
      140
1005
123F0F
  0
LINE
  5
123F10
  8
OBJECT
 10
6072.2499999999927
 20
-1358.4999999999991
 30
0.0
 11
6072.2499999999927
 21
-1368.2
 31
0.0
1001
ACDBBLOCKREPETAG
1070
     1
1071
      141
1005
123F10
  0
LINE
  5
123F11
  8
OBJECT
 10
6083.7499999999927
 20
-1358.4999999999991
 30
0.0
 11
6083.7499999999927
 21
-1368.2
 31
0.0
1001
ACDBBLOCKREPETAG
1070
     1
1071
      142
1005
123F11
  0
LINE
  5
123F12
  8
OBJECT
 10
5931.9999999999873
 20
-1450.0
 30
0.0
 11
6067.9999999999873
 21
-1450.0
 31
0.0
1001
ACDBBLOCKREPETAG
1070
     1
1071
      143
1005
123F12
  0
LINE
  5
123F13
  8
OBJECT
 10
5931.9999999999873
 20
-1450.0
 30
0.0
 11
5931.9999999999873
 21
-1408.9999999999991
 31
0.0
1001
ACDBBLOCKREPETAG
1070
     1
1071
      144
1005
123F13
  0
LINE
  5
123F14
  8
OBJECT
 10
6067.9999999999873
 20
-1450.0
 30
0.0
 11
6067.9999999999873
 21
-1408.9999999999991
 31
0.0
1001
ACDBBLOCKREPETAG
1070
     1
1071
      145
1005
123F14
  0
LINE
  5
123F15
  8
OBJECT
 10
6086.9999999999918
 20
-1368.2
 30
0.0
 11
6068.9999999999909
 21
-1368.2
 31
0.0
1001
ACDBBLOCKREPETAG
1070
     1
1071
      146
1005
123F15
  0
LINE
  5
123F16
  8
CENTER
 10
6000.0
 20
-1074.9999999999991
 30
0.0
 11
6000.0
 21
-1464.9999999999991
 31
0.0
1001
ACDBBLOCKREPETAG
1070
     1
1071
      147
1005
123F16
  0
LINE
  5
123F17
  8
OBJECT
 10
5925.0
 20
-1074.9999999999991
 30
0.0
 11
5925.0
 21
-1156.9999999999959
 31
0.0
1001
ACDBBLOCKREPETAG
1070
     1
1071
      148
1005
123F17
  0
LINE
  5
123F18
  8
OBJECT
 10
6075.0
 20
-1074.9999999999991
 30
0.0
 11
6075.0
 21
-1156.999999999992
 31
0.0
1001
ACDBBLOCKREPETAG
1070
     1
1071
      149
1005
123F18
  0
LINE
  5
123F19
  8
OBJECT
 10
5925.0
 20
-1156.9999999999959
 30
0.0
 11
6075.0
 21
-1156.999999999992
 31
0.0
1001
ACDBBLOCKREPETAG
1070
     1
1071
      150
1005
123F19
  0
LINE
  5
123F1A
  8
OBJECT
 10
5943.0
 20
-1333.9999999999959
 30
0.0
 11
5943.0
 21
-1284.999999999992
 31
0.0
1001
ACDBBLOCKREPETAG
1070
     1
1071
      151
1005
123F1A
  0
LINE
  5
123F1B
  8
OBJECT
 10
6057.0
 20
-1284.999999999992
 30
0.0
 11
5943.0
 21
-1284.999999999992
 31
0.0
1001
ACDBBLOCKREPETAG
1070
     1
1071
      152
1005
123F1B
  0
LINE
  5
123F1C
  8
OBJECT
 10
6057.0
 20
-1284.999999999992
 30
0.0
 11
6057.0
 21
-1333.9999999999959
 31
0.0
1001
ACDBBLOCKREPETAG
1070
     1
1071
      153
1005
123F1C
  0
LINE
  5
123F1D
  8
OBJECT
 10
5925.0
 20
-1156.9999999999959
 30
0.0
 11
5943.0
 21
-1284.999999999992
 31
0.0
1001
ACDBBLOCKREPETAG
1070
     1
1071
      154
1005
123F1D
  0
LINE
  5
123F1E
  8
OBJECT
 10
6057.0
 20
-1284.999999999992
 30
0.0
 11
6075.0
 21
-1156.999999999992
 31
0.0
1001
ACDBBLOCKREPETAG
1070
     1
1071
      155
1005
123F1E
  0
LINE
  5
123F1F
  8
OBJECT
 10
5934.0
 20
-1369.9999999999959
 30
0.0
 11
5934.0
 21
-1333.9999999999959
 31
0.0
1001
ACDBBLOCKREPETAG
1070
     1
1071
      156
1005
123F1F
  0
LINE
  5
123F20
  8
OBJECT
 10
6066.0
 20
-1369.9999999999959
 30
0.0
 11
6065.9999999999909
 21
-1333.9999999999959
 31
0.0
1001
ACDBBLOCKREPETAG
1070
     1
1071
      157
1005
123F20
  0
LINE
  5
123F21
  8
OBJECT
 10
5954.75
 20
-1359.699999999993
 30
0.0
 11
5967.2499999999991
 21
-1359.699999999993
 31
0.0
1001
ACDBBLOCKREPETAG
1070
     1
1071
      158
1005
123F21
  0
LINE
  5
123F22
  8
OBJECT
 10
5946.0
 20
-1369.9999999999959
 30
0.0
 11
5946.0
 21
-1367.699999999996
 31
0.0
1001
ACDBBLOCKREPETAG
1070
     1
1071
      159
1005
123F22
  0
LINE
  5
123F23
  8
OBJECT
 10
5976.0
 20
-1369.9999999999959
 30
0.0
 11
5976.0
 21
-1367.699999999996
 31
0.0
1001
ACDBBLOCKREPETAG
1070
     1
1071
      160
1005
123F23
  0
LINE
  5
123F24
  8
OBJECT
 10
5954.75
 20
-1359.699999999993
 30
0.0
 11
5954.75
 21
-1367.699999999996
 31
0.0
1001
ACDBBLOCKREPETAG
1070
     1
1071
      161
1005
123F24
  0
LINE
  5
123F25
  8
OBJECT
 10
5967.2499999999991
 20
-1359.699999999993
 30
0.0
 11
5967.2499999999991
 21
-1367.699999999996
 31
0.0
1001
ACDBBLOCKREPETAG
1070
     1
1071
      162
1005
123F25
  0
LINE
  5
123F26
  8
OBJECT
 10
5946.0
 20
-1367.699999999996
 30
0.0
 11
5976.0
 21
-1367.699999999996
 31
0.0
1001
ACDBBLOCKREPETAG
1070
     1
1071
      163
1005
123F26
  0
LINE
  5
123F27
  8
OBJECT
 10
5953.0
 20
-1408.9999999999959
 30
0.0
 11
5953.0
 21
-1418.9999999999959
 31
0.0
1001
ACDBBLOCKREPETAG
1070
     1
1071
      164
1005
123F27
  0
LINE
  5
123F28
  8
OBJECT
 10
5969.0
 20
-1408.9999999999959
 30
0.0
 11
5969.0
 21
-1418.9999999999959
 31
0.0
1001
ACDBBLOCKREPETAG
1070
     1
1071
      165
1005
123F28
  0
LINE
  5
123F29
  8
OBJECT
 10
5953.0
 20
-1418.9999999999959
 30
0.0
 11
5969.0
 21
-1418.9999999999959
 31
0.0
1001
ACDBBLOCKREPETAG
1070
     1
1071
      166
1005
123F29
  0
LINE
  5
123F2A
  8
OBJECT
 10
5966.0
 20
-1394.9999999999959
 30
0.0
 11
5966.0
 21
-1384.9999999999959
 31
0.0
1001
ACDBBLOCKREPETAG
1070
     1
1071
      167
1005
123F2A
  0
LINE
  5
123F2B
  8
OBJECT
 10
5956.0
 20
-1394.9999999999959
 30
0.0
 11
5956.0
 21
-1384.9999999999959
 31
0.0
1001
ACDBBLOCKREPETAG
1070
     1
1071
      168
1005
123F2B
  0
LINE
  5
123F2C
  8
OBJECT
 10
4090.0
 20
-1369.9999999999959
 30
0.0
 11
3924.0
 21
-1369.9999999999959
 31
0.0
1001
ACDBBLOCKREPETAG
1070
     1
1071
       12
1005
123F2C
  0
LINE
  5
123F2D
  8
OBJECT
 10
4066.0
 20
-1333.9999999999959
 30
0.0
 11
3934.0
 21
-1333.9999999999959
 31
0.0
1001
ACDBBLOCKREPETAG
1070
     1
1071
       13
1005
123F2D
  0
LINE
  5
123F2E
  8
OBJECT
 10
4090.0
 20
-1385.0
 30
0.0
 11
4090.0
 21
-1369.9999999999959
 31
0.0
1001
ACDBBLOCKREPETAG
1070
     1
1071
       14
1005
123F2E
  0
LINE
  5
123F2F
  8
OBJECT
 10
3924.0
 20
-1385.0
 30
0.0
 11
4090.0
 21
-1385.0
 31
0.0
1001
ACDBBLOCKREPETAG
1070
     1
1071
       15
1005
123F2F
  0
LINE
  5
123F30
  8
OBJECT
 10
4067.4999999999841
 20
-1385.0
 30
0.0
 11
4067.4999999999841
 21
-1394.9999999999991
 31
0.0
1001
ACDBBLOCKREPETAG
1070
     1
1071
       16
1005
123F30
  0
LINE
  5
123F31
  8
OBJECT
 10
3924.0
 20
-1394.9999999999991
 30
0.0
 11
3924.0
 21
-1408.9999999999959
 31
0.0
1001
ACDBBLOCKREPETAG
1070
     1
1071
       17
1005
123F31
  0
LINE
  5
123F32
  8
OBJECT
 10
4090.0
 20
-1394.9999999999991
 30
0.0
 11
4090.0
 21
-1408.9999999999959
 31
0.0
1001
ACDBBLOCKREPETAG
1070
     1
1071
       18
1005
123F32
  0
LINE
  5
123F33
  8
OBJECT
 10
3924.0
 20
-1408.9999999999959
 30
0.0
 11
4090.0
 21
-1408.9999999999959
 31
0.0
1001
ACDBBLOCKREPETAG
1070
     1
1071
       19
1005
123F33
  0
LINE
  5
123F34
  8
OBJECT
 10
3924.0
 20
-1394.9999999999991
 30
0.0
 11
4090.0
 21
-1394.9999999999991
 31
0.0
1001
ACDBBLOCKREPETAG
1070
     1
1071
       20
1005
123F34
  0
LINE
  5
123F35
  8
OBJECT
 10
3932.499999999985
 20
-1385.0
 30
0.0
 11
3932.499999999985
 21
-1394.9999999999991
 31
0.0
1001
ACDBBLOCKREPETAG
1070
     1
1071
       21
1005
123F35
  0
LINE
  5
123F36
  8
OBJECT
 10
3924.0
 20
-1385.0
 30
0.0
 11
3924.0
 21
-1369.9999999999959
 31
0.0
1001
ACDBBLOCKREPETAG
1070
     1
1071
       22
1005
123F36
  0
LINE
  5
123F37
  8
HIDDEN
 10
3943.0
 20
-1344.9999999999991
 30
0.0
 11
4057.0
 21
-1344.9999999999991
 31
0.0
1001
ACDBBLOCKREPETAG
1070
     1
1071
       23
1005
123F37
  0
LINE
  5
123F38
  8
CENTER
 10
4000.0
 20
-1074.9999999999991
 30
0.0
 11
4000.0
 21
-1423.9999999999959
 31
0.0
1001
ACDBBLOCKREPETAG
1070
     1
1071
       24
1005
123F38
  0
LINE
  5
123F39
  8
OBJECT
 10
3925.0
 20
-1074.9999999999991
 30
0.0
 11
3925.0
 21
-1156.9999999999959
 31
0.0
1001
ACDBBLOCKREPETAG
1070
     1
1071
       25
1005
123F39
  0
LINE
  5
123F3A
  8
OBJECT
 10
4075.0
 20
-1074.9999999999991
 30
0.0
 11
4075.0
 21
-1156.999999999992
 31
0.0
1001
ACDBBLOCKREPETAG
1070
     1
1071
       26
1005
123F3A
  0
LINE
  5
123F3B
  8
OBJECT
 10
3925.0
 20
-1156.9999999999959
 30
0.0
 11
4075.0
 21
-1156.999999999992
 31
0.0
1001
ACDBBLOCKREPETAG
1070
     1
1071
       27
1005
123F3B
  0
LINE
  5
123F3C
  8
OBJECT
 10
4057.0
 20
-1333.9999999999959
 30
0.0
 11
4057.0
 21
-1284.999999999992
 31
0.0
1001
ACDBBLOCKREPETAG
1070
     1
1071
       28
1005
123F3C
  0
LINE
  5
123F3D
  8
OBJECT
 10
3943.0
 20
-1333.9999999999959
 30
0.0
 11
3943.0
 21
-1284.999999999992
 31
0.0
1001
ACDBBLOCKREPETAG
1070
     1
1071
       29
1005
123F3D
  0
LINE
  5
123F3E
  8
OBJECT
 10
4057.0
 20
-1284.999999999992
 30
0.0
 11
3943.0
 21
-1284.999999999992
 31
0.0
1001
ACDBBLOCKREPETAG
1070
     1
1071
       30
1005
123F3E
  0
LINE
  5
123F3F
  8
OBJECT
 10
3925.0
 20
-1156.9999999999959
 30
0.0
 11
3943.0
 21
-1284.999999999992
 31
0.0
1001
ACDBBLOCKREPETAG
1070
     1
1071
       31
1005
123F3F
  0
LINE
  5
123F40
  8
OBJECT
 10
4057.0
 20
-1284.999999999992
 30
0.0
 11
4075.0
 21
-1156.999999999992
 31
0.0
1001
ACDBBLOCKREPETAG
1070
     1
1071
       32
1005
123F40
  0
LINE
  5
123F41
  8
OBJECT
 10
3934.0
 20
-1333.9999999999959
 30
0.0
 11
3934.0
 21
-1369.9999999999959
 31
0.0
1001
ACDBBLOCKREPETAG
1070
     1
1071
       33
1005
123F41
  0
LINE
  5
123F42
  8
OBJECT
 10
4066.0
 20
-1333.9999999999959
 30
0.0
 11
4066.0
 21
-1369.9999999999959
 31
0.0
1001
ACDBBLOCKREPETAG
1070
     1
1071
       34
1005
123F42
  0
LINE
  5
123F43
  8
OBJECT
 10
4082.9999999999932
 20
-1394.9999999999959
 30
0.0
 11
4082.9999999999932
 21
-1384.9999999999959
 31
0.0
1001
ACDBBLOCKREPETAG
1070
     1
1071
       35
1005
123F43
  0
LINE
  5
123F44
  8
OBJECT
 10
4072.9999999999918
 20
-1394.9999999999959
 30
0.0
 11
4072.9999999999918
 21
-1384.9999999999959
 31
0.0
1001
ACDBBLOCKREPETAG
1070
     1
1071
       36
1005
123F44
  0
LINE
  5
123F45
  8
OBJECT
 10
4068.9999999999841
 20
-1364.9999999999959
 30
0.0
 11
4068.9999999999841
 21
-1369.9999999999959
 31
0.0
1001
ACDBBLOCKREPETAG
1070
     1
1071
       37
1005
123F45
  0
LINE
  5
123F46
  8
OBJECT
 10
4087.0
 20
-1364.9999999999959
 30
0.0
 11
4087.0
 21
-1369.9999999999959
 31
0.0
1001
ACDBBLOCKREPETAG
1070
     1
1071
       38
1005
123F46
  0
LINE
  5
123F47
  8
OBJECT
 10
4087.0
 20
-1364.9999999999959
 30
0.0
 11
4068.9999999999841
 21
-1364.9999999999959
 31
0.0
1001
ACDBBLOCKREPETAG
1070
     1
1071
       39
1005
123F47
  0
LINE
  5
123F48
  8
OBJECT
 10
4073.0
 20
-1416.9999999999959
 30
0.0
 11
4073.0
 21
-1419.9999999999959
 31
0.0
1001
ACDBBLOCKREPETAG
1070
     1
1071
       40
1005
123F48
  0
LINE
  5
123F49
  8
OBJECT
 10
4073.0
 20
-1419.9999999999959
 30
0.0
 11
4083.0
 21
-1419.9999999999959
 31
0.0
1001
ACDBBLOCKREPETAG
1070
     1
1071
       41
1005
123F49
  0
LINE
  5
123F4A
  8
OBJECT
 10
4083.0
 20
-1419.9999999999959
 30
0.0
 11
4083.0
 21
-1416.9999999999959
 31
0.0
1001
ACDBBLOCKREPETAG
1070
     1
1071
       43
1005
123F4A
  0
LINE
  5
123F4B
  8
OBJECT
 10
3968.5
 20
-1364.9999999999959
 30
0.0
 11
3951.9999999999932
 21
-1364.9999999999959
 31
0.0
1001
ACDBBLOCKREPETAG
1070
     1
1071
       48
1005
123F4B
  0
LINE
  5
123F4C
  8
OBJECT
 10
3976.0
 20
-1369.9999999999959
 30
0.0
 11
3976.0
 21
-1367.9999999999959
 31
0.0
1001
ACDBBLOCKREPETAG
1070
     1
1071
       49
1005
123F4C
  0
LINE
  5
123F4D
  8
OBJECT
 10
3966.0
 20
-1394.9999999999959
 30
0.0
 11
3966.0
 21
-1384.9999999999959
 31
0.0
1001
ACDBBLOCKREPETAG
1070
     1
1071
       50
1005
123F4D
  0
LINE
  5
123F4E
  8
OBJECT
 10
3956.0
 20
-1394.9999999999959
 30
0.0
 11
3956.0
 21
-1384.9999999999959
 31
0.0
1001
ACDBBLOCKREPETAG
1070
     1
1071
       51
1005
123F4E
  0
LINE
  5
123F4F
  8
OBJECT
 10
3951.9999999999932
 20
-1364.9999999999959
 30
0.0
 11
3951.9999999999932
 21
-1369.9999999999959
 31
0.0
1001
ACDBBLOCKREPETAG
1070
     1
1071
       52
1005
123F4F
  0
LINE
  5
123F50
  8
OBJECT
 10
3956.0
 20
-1416.9999999999959
 30
0.0
 11
3956.0
 21
-1419.9999999999959
 31
0.0
1001
ACDBBLOCKREPETAG
1070
     1
1071
       53
1005
123F50
  0
LINE
  5
123F51
  8
OBJECT
 10
3956.0
 20
-1419.9999999999959
 30
0.0
 11
3966.0
 21
-1419.9999999999959
 31
0.0
1001
ACDBBLOCKREPETAG
1070
     1
1071
       54
1005
123F51
  0
LINE
  5
123F52
  8
OBJECT
 10
3951.185045423772
 20
-1416.9999999999959
 30
0.0
 11
3970.8149545762212
 21
-1416.9999999999959
 31
0.0
1001
ACDBBLOCKREPETAG
1070
     1
1071
       55
1005
123F52
  0
LINE
  5
123F53
  8
OBJECT
 10
3966.0
 20
-1419.9999999999959
 30
0.0
 11
3966.0
 21
-1416.9999999999959
 31
0.0
1001
ACDBBLOCKREPETAG
1070
     1
1071
       56
1005
123F53
  0
LINE
  5
123F54
  8
OBJECT
 10
3976.0
 20
-1367.9999999999959
 30
0.0
 11
3968.5
 21
-1364.9999999999959
 31
0.0
1001
ACDBBLOCKREPETAG
1070
     1
1071
       57
1005
123F54
  0
LINE
  5
123F55
  8
OBJECT
 10
3951.185045423777
 20
-1408.9999999999959
 30
0.0
 11
3951.185045423777
 21
-1416.9999999999959
 31
0.0
1001
ACDBBLOCKREPETAG
1070
     1
1071
      630
1005
123F55
  0
LINE
  5
123F56
  8
OBJECT
 10
3956.0925227118901
 20
-1408.9999999999959
 30
0.0
 11
3956.0925227118901
 21
-1416.9999999999959
 31
0.0
1001
ACDBBLOCKREPETAG
1070
     1
1071
      631
1005
123F56
  0
LINE
  5
123F57
  8
OBJECT
 10
3965.9074772881122
 20
-1408.9999999999959
 30
0.0
 11
3965.9074772881122
 21
-1416.9999999999959
 31
0.0
1001
ACDBBLOCKREPETAG
1070
     1
1071
      632
1005
123F57
  0
LINE
  5
123F58
  8
OBJECT
 10
3970.814954576223
 20
-1408.9999999999959
 30
0.0
 11
3970.814954576223
 21
-1416.9999999999959
 31
0.0
1001
ACDBBLOCKREPETAG
1070
     1
1071
      633
1005
123F58
  0
LINE
  5
123F59
  8
OBJECT
 10
4068.185045423772
 20
-1416.9999999999959
 30
0.0
 11
4087.8149545762199
 21
-1416.9999999999959
 31
0.0
1001
ACDBBLOCKREPETAG
1070
     1
1071
      634
1005
123F59
  0
LINE
  5
123F5A
  8
OBJECT
 10
4068.185045423777
 20
-1408.9999999999959
 30
0.0
 11
4068.185045423777
 21
-1416.9999999999959
 31
0.0
1001
ACDBBLOCKREPETAG
1070
     1
1071
      635
1005
123F5A
  0
LINE
  5
123F5B
  8
OBJECT
 10
4073.0925227118869
 20
-1408.9999999999959
 30
0.0
 11
4073.0925227118869
 21
-1416.9999999999959
 31
0.0
1001
ACDBBLOCKREPETAG
1070
     1
1071
      636
1005
123F5B
  0
LINE
  5
123F5C
  8
OBJECT
 10
4082.9074772881122
 20
-1408.9999999999959
 30
0.0
 11
4082.9074772881122
 21
-1416.9999999999959
 31
0.0
1001
ACDBBLOCKREPETAG
1070
     1
1071
      637
1005
123F5C
  0
LINE
  5
123F5D
  8
OBJECT
 10
4087.814954576223
 20
-1408.9999999999959
 30
0.0
 11
4087.814954576223
 21
-1416.9999999999959
 31
0.0
1001
ACDBBLOCKREPETAG
1070
     1
1071
      638
1005
123F5D
  0
LINE
  5
123F5E
  8
OBJECT
 10
1943.0
 20
-1384.9999999999959
 30
0.0
 11
2057.0
 21
-1384.9999999999959
 31
0.0
1001
ACDBBLOCKREPETAG
1070
     1
1071
        0
1005
123F5E
  0
LINE
  5
123F5F
  8
OBJECT
 10
1943.0
 20
-1384.9999999999959
 30
0.0
 11
1943.0
 21
-1284.9999999999959
 31
0.0
1001
ACDBBLOCKREPETAG
1070
     1
1071
        1
1005
123F5F
  0
LINE
  5
123F60
  8
OBJECT
 10
2057.0
 20
-1384.9999999999959
 30
0.0
 11
2057.0
 21
-1284.9999999999959
 31
0.0
1001
ACDBBLOCKREPETAG
1070
     1
1071
        2
1005
123F60
  0
LINE
  5
123F61
  8
OBJECT
 10
1943.0
 20
-1284.9999999999959
 30
0.0
 11
2057.0
 21
-1284.9999999999959
 31
0.0
1001
ACDBBLOCKREPETAG
1070
     1
1071
        3
1005
123F61
  0
LINE
  5
123F62
  8
HIDDEN
 10
1950.0
 20
-1284.9999999999959
 30
0.0
 11
1950.0
 21
-1384.9999999999959
 31
0.0
1001
ACDBBLOCKREPETAG
1070
     1
1071
        4
1005
123F62
  0
LINE
  5
123F63
  8
HIDDEN
 10
2050.0
 20
-1284.9999999999959
 30
0.0
 11
2050.0
 21
-1384.9999999999959
 31
0.0
1001
ACDBBLOCKREPETAG
1070
     1
1071
        5
1005
123F63
  0
LINE
  5
123F64
  8
CENTER
 10
2000.0
 20
-1074.9999999999991
 30
0.0
 11
2000.0
 21
-1399.9999999999959
 31
0.0
1001
ACDBBLOCKREPETAG
1070
     1
1071
        6
1005
123F64
  0
LINE
  5
123F65
  8
OBJECT
 10
1925.0
 20
-1074.9999999999991
 30
0.0
 11
1925.0
 21
-1156.9999999999959
 31
0.0
1001
ACDBBLOCKREPETAG
1070
     1
1071
        7
1005
123F65
  0
LINE
  5
123F66
  8
OBJECT
 10
2075.0
 20
-1074.9999999999991
 30
0.0
 11
2075.0
 21
-1156.9999999999959
 31
0.0
1001
ACDBBLOCKREPETAG
1070
     1
1071
        8
1005
123F66
  0
LINE
  5
123F67
  8
OBJECT
 10
1925.0
 20
-1156.9999999999959
 30
0.0
 11
2075.0
 21
-1156.9999999999959
 31
0.0
1001
ACDBBLOCKREPETAG
1070
     1
1071
        9
1005
123F67
  0
LINE
  5
123F68
  8
OBJECT
 10
1925.0
 20
-1156.9999999999959
 30
0.0
 11
1943.0
 21
-1284.9999999999959
 31
0.0
1001
ACDBBLOCKREPETAG
1070
     1
1071
       10
1005
123F68
  0
LINE
  5
123F69
  8
OBJECT
 10
2057.0
 20
-1284.9999999999959
 30
0.0
 11
2075.0
 21
-1156.9999999999959
 31
0.0
1001
ACDBBLOCKREPETAG
1070
     1
1071
       11
1005
123F69
  0
TEXT
  5
123F6A
  8
SLIM
 10
0.0
 20
670.0
 30
0.0
 40
100.0
  1
4SLT2-Z6-P110-0-S
 41
0.75
  0
TEXT
  5
123F6B
  8
SLIM
 10
0.0
 20
520.0
 30
0.0
 40
100.0
  1
4SLT2-Z6-P110-0-W
 41
0.75
  0
LINE
  5
123F6C
  8
CENTER
 10
11909.0
 20
-1658.9999999999959
 30
0.0
 11
12105.0
 21
-1658.9999999999959
 31
0.0
1001
ACDBBLOCKREPETAG
1070
     1
1071
       10
1005
123F6C
  0
LINE
  5
123F6D
  8
CENTER
 10
12000.0
 20
-1567.725335570779
 30
0.0
 11
12000.0
 21
-1750.274664429212
 31
0.0
1001
ACDBBLOCKREPETAG
1070
     1
1071
       11
1005
123F6D
  0
CIRCLE
  5
123F6E
  8
OBJECT
 10
12000.0
 20
-1658.9999999999959
 30
0.0
 40
50.0
1001
ACDBBLOCKREPETAG
1070
     1
1071
       12
1005
123F6E
  0
CIRCLE
  5
123F6F
  8
OBJECT
 10
12000.0
 20
-1658.9999999999959
 30
0.0
 40
60.0
1001
ACDBBLOCKREPETAG
1070
     1
1071
       13
1005
123F6F
  0
CIRCLE
  5
123F70
  8
OBJECT
 10
12000.0
 20
-1658.9999999999959
 30
0.0
 40
68.0
1001
ACDBBLOCKREPETAG
1070
     1
1071
       14
1005
123F70
  0
ARC
  5
123F71
  8
OBJECT
 10
12077.5
 20
-1658.9999999999959
 30
0.0
 40
12.0
 50
272.10542627221611
 51
87.894573727783893
1001
ACDBBLOCKREPETAG
1070
     1
1071
       15
1005
123F71
  0
ARC
  5
123F72
  8
OBJECT
 10
12078.49193548386
 20
-1632.0182271895239
 30
0.0
 40
15.0
 50
198.97051877965251
 51
267.89457372778372
1001
ACDBBLOCKREPETAG
1070
     1
1071
       16
1005
123F72
  0
ARC
  5
123F73
  8
OBJECT
 10
12078.49193548386
 20
-1685.981772810464
 30
0.0
 40
15.0
 50
92.105426272216135
 51
161.02948122034729
1001
ACDBBLOCKREPETAG
1070
     1
1071
       17
1005
123F73
  0
CIRCLE
  5
123F74
  8
SLIM
 10
12078.0
 20
-1658.9999999999959
 30
0.0
 40
8.0
1001
ACDBBLOCKREPETAG
1070
     1
1071
       18
1005
123F74
  0
POLYLINE
  5
123F75
  8
SLIM
 66
     1
 10
0.0
 20
0.0
 30
0.0
 70
     1
1001
ACDBBLOCKREPETAG
1070
     1
1071
       19
1005
123F75
  0
VERTEX
  5
124151
  8
SLIM
 10
12075.69059892322
 20
-1654.999999999995
 30
0.0
  0
VERTEX
  5
124152
  8
SLIM
 10
12073.38119784648
 20
-1658.9999999999959
 30
0.0
  0
VERTEX
  5
124153
  8
SLIM
 10
12075.69059892322
 20
-1662.9999999999959
 30
0.0
  0
VERTEX
  5
124154
  8
SLIM
 10
12080.309401076751
 20
-1662.9999999999959
 30
0.0
  0
VERTEX
  5
124155
  8
SLIM
 10
12082.618802153511
 20
-1658.9999999999959
 30
0.0
  0
VERTEX
  5
124156
  8
SLIM
 10
12080.309401076751
 20
-1654.999999999995
 30
0.0
  0
SEQEND
  5
124157
  8
SLIM
  0
ARC
  5
123F76
  8
OBJECT
 10
11961.25
 20
-1591.8830312067
 30
0.0
 40
12.0
 50
32.105426272130188
 51
207.89457372768319
1001
ACDBBLOCKREPETAG
1070
     1
1071
       20
1005
123F76
  0
ARC
  5
123F77
  8
OBJECT
 10
11937.38713156505
 20
-1604.5148762839881
 30
0.0
 40
15.0
 50
318.97051877944762
 51
27.89457372768311
1001
ACDBBLOCKREPETAG
1070
     1
1071
       21
1005
123F77
  0
ARC
  5
123F78
  8
OBJECT
 10
11984.120932951069
 20
-1577.533103473517
 30
0.0
 40
15.0
 50
212.10542627213019
 51
281.02948122044069
1001
ACDBBLOCKREPETAG
1070
     1
1071
       22
1005
123F78
  0
CIRCLE
  5
123F79
  8
SLIM
 10
11961.0
 20
-1591.4500185048089
 30
0.0
 40
7.9999999999999982
1001
ACDBBLOCKREPETAG
1070
     1
1071
       23
1005
123F79
  0
POLYLINE
  5
123F7A
  8
SLIM
 66
     1
 10
0.0
 20
0.0
 30
0.0
 70
     1
1001
ACDBBLOCKREPETAG
1070
     1
1071
       24
1005
123F7A
  0
VERTEX
  5
124158
  8
SLIM
 10
11958.69059892324
 20
-1595.4500185048089
 30
0.0
  0
VERTEX
  5
124159
  8
SLIM
 10
11963.309401076751
 20
-1595.4500185048089
 30
0.0
  0
VERTEX
  5
12415A
  8
SLIM
 10
11965.618802153511
 20
-1591.4500185048089
 30
0.0
  0
VERTEX
  5
12415B
  8
SLIM
 10
11963.309401076751
 20
-1587.4500185048089
 30
0.0
  0
VERTEX
  5
12415C
  8
SLIM
 10
11958.69059892324
 20
-1587.4500185048089
 30
0.0
  0
VERTEX
  5
12415D
  8
SLIM
 10
11956.38119784648
 20
-1591.4500185048089
 30
0.0
  0
SEQEND
  5
12415E
  8
SLIM
  0
ARC
  5
123F7B
  8
OBJECT
 10
11961.25
 20
-1726.1169687932879
 30
0.0
 40
12.0
 50
152.10542627231681
 51
327.89457372786978
1001
ACDBBLOCKREPETAG
1070
     1
1071
       25
1005
123F7B
  0
ARC
  5
123F7C
  8
OBJECT
 10
11984.120932951069
 20
-1740.4668965264709
 30
0.0
 40
15.0
 50
78.970518779559228
 51
147.89457372786981
1001
ACDBBLOCKREPETAG
1070
     1
1071
       26
1005
123F7C
  0
ARC
  5
123F7D
  8
OBJECT
 10
11937.38713156505
 20
-1713.485123716003
 30
0.0
 40
15.0
 50
332.10542627231678
 51
41.029481220552412
1001
ACDBBLOCKREPETAG
1070
     1
1071
       27
1005
123F7D
  0
CIRCLE
  5
123F7E
  8
SLIM
 10
11961.0
 20
-1726.5499814951829
 30
0.0
 40
8.0
1001
ACDBBLOCKREPETAG
1070
     1
1071
       28
1005
123F7E
  0
POLYLINE
  5
123F7F
  8
SLIM
 66
     1
 10
0.0
 20
0.0
 30
0.0
 70
     1
1001
ACDBBLOCKREPETAG
1070
     1
1071
       29
1005
123F7F
  0
VERTEX
  5
12415F
  8
SLIM
 10
11965.618802153511
 20
-1726.5499814951791
 30
0.0
  0
VERTEX
  5
124160
  8
SLIM
 10
11963.309401076751
 20
-1722.549981495182
 30
0.0
  0
VERTEX
  5
124161
  8
SLIM
 10
11958.69059892324
 20
-1722.5499814951791
 30
0.0
  0
VERTEX
  5
124162
  8
SLIM
 10
11956.38119784648
 20
-1726.5499814951829
 30
0.0
  0
VERTEX
  5
124163
  8
SLIM
 10
11958.69059892322
 20
-1730.5499814951791
 30
0.0
  0
VERTEX
  5
124164
  8
SLIM
 10
11963.309401076751
 20
-1730.549981495182
 30
0.0
  0
SEQEND
  5
124165
  8
SLIM
  0
ARC
  5
123F80
  8
OBJECT
 10
12000.0
 20
-1658.9999999999959
 30
0.0
 40
76.0
 50
34.863837954171863
 51
85.136162045732945
1001
ACDBBLOCKREPETAG
1070
     1
1071
       42
1005
123F80
  0
ARC
  5
123F81
  8
OBJECT
 10
12000.0
 20
-1658.9999999999959
 30
0.0
 40
76.0
 50
154.86383795430939
 51
205.1361620456905
1001
ACDBBLOCKREPETAG
1070
     1
1071
       43
1005
123F81
  0
ARC
  5
123F82
  8
OBJECT
 10
12000.0
 20
-1658.9999999999959
 30
0.0
 40
76.0
 50
274.86383795426718
 51
325.13616204582797
1001
ACDBBLOCKREPETAG
1070
     1
1071
       44
1005
123F82
  0
ARC
  5
123F83
  8
OBJECT
 10
12078.0
 20
-1658.9999999999959
 30
0.0
 40
12.0
 50
325.13616204582797
 51
34.863837954171863
1001
ACDBBLOCKREPETAG
1070
     1
1071
       45
1005
123F83
  0
LINE
  5
123F84
  8
OBJECT
 10
12087.84615384616
 20
-1652.140462520133
 30
0.0
 11
12062.358974359049
 21
-1615.556262627535
 31
0.0
1001
ACDBBLOCKREPETAG
1070
     1
1071
       46
1005
123F84
  0
LINE
  5
123F85
  8
OBJECT
 10
12087.846153846171
 20
-1665.859537479856
 30
0.0
 11
12062.358974359049
 21
-1702.4437373724591
 31
0.0
1001
ACDBBLOCKREPETAG
1070
     1
1071
       47
1005
123F85
  0
ARC
  5
123F86
  8
OBJECT
 10
11961.0
 20
-1591.45001850481
 30
0.0
 40
12.0
 50
85.136162045942811
 51
154.86383795410001
1001
ACDBBLOCKREPETAG
1070
     1
1071
       48
1005
123F86
  0
LINE
  5
123F87
  8
OBJECT
 10
11950.13638936114
 20
-1586.35276788439
 30
0.0
 11
11931.19713262058
 21
-1626.7174127373471
 31
0.0
1001
ACDBBLOCKREPETAG
1070
     1
1071
       49
1005
123F87
  0
LINE
  5
123F88
  8
OBJECT
 10
11962.017456792681
 20
-1579.493230404526
 30
0.0
 11
12006.443893020371
 21
-1583.2736753648851
 31
0.0
1001
ACDBBLOCKREPETAG
1070
     1
1071
       50
1005
123F88
  0
ARC
  5
123F89
  8
OBJECT
 10
11961.0
 20
-1726.5499814951811
 30
0.0
 40
12.0
 50
205.13616204589991
 51
274.8638379540572
1001
ACDBBLOCKREPETAG
1070
     1
1071
       51
1005
123F89
  0
LINE
  5
123F8A
  8
OBJECT
 10
11962.01745679269
 20
-1738.5067695954631
 30
0.0
 11
12006.44389302036
 21
-1734.726324635106
 31
0.0
1001
ACDBBLOCKREPETAG
1070
     1
1071
       52
1005
123F8A
  0
LINE
  5
123F8B
  8
OBJECT
 10
11950.13638936114
 20
-1731.647232115605
 30
0.0
 11
11931.19713262058
 21
-1691.2825872626429
 31
0.0
1001
ACDBBLOCKREPETAG
1070
     1
1071
       53
1005
123F8B
  0
LINE
  5
123F8C
  8
CENTER
 10
9909.0
 20
-1658.9999999999959
 30
0.0
 11
10105.0
 21
-1658.9999999999959
 31
0.0
1001
ACDBBLOCKREPETAG
1070
     1
1071
        0
1005
123F8C
  0
LINE
  5
123F8D
  8
CENTER
 10
10000.0
 20
-1567.725335570779
 30
0.0
 11
10000.0
 21
-1750.274664429212
 31
0.0
1001
ACDBBLOCKREPETAG
1070
     1
1071
        1
1005
123F8D
  0
CIRCLE
  5
123F8E
  8
OBJECT
 10
10000.0
 20
-1658.9999999999959
 30
0.0
 40
50.0
1001
ACDBBLOCKREPETAG
1070
     1
1071
        2
1005
123F8E
  0
CIRCLE
  5
123F8F
  8
OBJECT
 10
10000.0
 20
-1658.9999999999959
 30
0.0
 40
62.0
1001
ACDBBLOCKREPETAG
1070
     1
1071
        3
1005
123F8F
  0
CIRCLE
  5
123F90
  8
SLIM
 10
10078.0
 20
-1658.9999999999959
 30
0.0
 40
5.0
1001
ACDBBLOCKREPETAG
1070
     1
1071
        4
1005
123F90
  0
POLYLINE
  5
123F91
  8
SLIM
 66
     1
 10
0.0
 20
0.0
 30
0.0
 70
     1
1001
ACDBBLOCKREPETAG
1070
     1
1071
        5
1005
123F91
  0
VERTEX
  5
124166
  8
SLIM
 10
10073.092522711881
 20
-1650.4999999999959
 30
0.0
  0
VERTEX
  5
124167
  8
SLIM
 10
10068.18504542377
 20
-1658.9999999999959
 30
0.0
  0
VERTEX
  5
124168
  8
SLIM
 10
10073.092522711881
 20
-1667.4999999999959
 30
0.0
  0
VERTEX
  5
124169
  8
SLIM
 10
10082.907477288099
 20
-1667.4999999999959
 30
0.0
  0
VERTEX
  5
12416A
  8
SLIM
 10
10087.814954576221
 20
-1658.9999999999959
 30
0.0
  0
VERTEX
  5
12416B
  8
SLIM
 10
10082.907477288099
 20
-1650.4999999999959
 30
0.0
  0
SEQEND
  5
12416C
  8
SLIM
  0
CIRCLE
  5
123F92
  8
SLIM
 10
9961.0
 20
-1591.4500185048089
 30
0.0
 40
4.9999999999999991
1001
ACDBBLOCKREPETAG
1070
     1
1071
        6
1005
123F92
  0
POLYLINE
  5
123F93
  8
SLIM
 66
     1
 10
0.0
 20
0.0
 30
0.0
 70
     1
1001
ACDBBLOCKREPETAG
1070
     1
1071
        7
1005
123F93
  0
VERTEX
  5
12416D
  8
SLIM
 10
9956.092522711886
 20
-1599.9500185048089
 30
0.0
  0
VERTEX
  5
12416E
  8
SLIM
 10
9965.907477288114
 20
-1599.9500185048089
 30
0.0
  0
VERTEX
  5
12416F
  8
SLIM
 10
9970.814954576219
 20
-1591.4500185048089
 30
0.0
  0
VERTEX
  5
124170
  8
SLIM
 10
9965.907477288114
 20
-1582.950018504808
 30
0.0
  0
VERTEX
  5
124171
  8
SLIM
 10
9956.092522711886
 20
-1582.950018504808
 30
0.0
  0
VERTEX
  5
124172
  8
SLIM
 10
9951.185045423772
 20
-1591.4500185048089
 30
0.0
  0
SEQEND
  5
124173
  8
SLIM
  0
CIRCLE
  5
123F94
  8
SLIM
 10
9961.0
 20
-1726.5499814951829
 30
0.0
 40
5.0
1001
ACDBBLOCKREPETAG
1070
     1
1071
        8
1005
123F94
  0
POLYLINE
  5
123F95
  8
SLIM
 66
     1
 10
0.0
 20
0.0
 30
0.0
 70
     1
1001
ACDBBLOCKREPETAG
1070
     1
1071
        9
1005
123F95
  0
VERTEX
  5
124174
  8
SLIM
 10
9970.814954576219
 20
-1726.5499814951829
 30
0.0
  0
VERTEX
  5
124175
  8
SLIM
 10
9965.9074772881049
 20
-1718.0499814951791
 30
0.0
  0
VERTEX
  5
124176
  8
SLIM
 10
9956.092522711886
 20
-1718.049981495182
 30
0.0
  0
VERTEX
  5
124177
  8
SLIM
 10
9951.185045423772
 20
-1726.5499814951791
 30
0.0
  0
VERTEX
  5
124178
  8
SLIM
 10
9956.092522711886
 20
-1735.0499814951829
 30
0.0
  0
VERTEX
  5
124179
  8
SLIM
 10
9965.907477288114
 20
-1735.0499814951791
 30
0.0
  0
SEQEND
  5
12417A
  8
SLIM
  0
ARC
  5
123F96
  8
OBJECT
 10
10000.0
 20
-1658.9999999999959
 30
0.0
 40
76.0
 50
34.863837954171863
 51
85.136162045732945
1001
ACDBBLOCKREPETAG
1070
     1
1071
       30
1005
123F96
  0
ARC
  5
123F97
  8
OBJECT
 10
10000.0
 20
-1658.9999999999959
 30
0.0
 40
76.0
 50
154.86383795430939
 51
205.1361620456905
1001
ACDBBLOCKREPETAG
1070
     1
1071
       31
1005
123F97
  0
ARC
  5
123F98
  8
OBJECT
 10
10000.0
 20
-1658.9999999999959
 30
0.0
 40
76.0
 50
274.86383795426718
 51
325.13616204582797
1001
ACDBBLOCKREPETAG
1070
     1
1071
       32
1005
123F98
  0
ARC
  5
123F99
  8
OBJECT
 10
10078.0
 20
-1658.9999999999959
 30
0.0
 40
12.0
 50
325.13616204582797
 51
34.863837954171863
1001
ACDBBLOCKREPETAG
1070
     1
1071
       33
1005
123F99
  0
LINE
  5
123F9A
  8
OBJECT
 10
10087.84615384616
 20
-1652.140462520133
 30
0.0
 11
10062.35897435904
 21
-1615.556262627535
 31
0.0
1001
ACDBBLOCKREPETAG
1070
     1
1071
       34
1005
123F9A
  0
LINE
  5
123F9B
  8
OBJECT
 10
10087.846153846171
 20
-1665.859537479856
 30
0.0
 11
10062.35897435904
 21
-1702.4437373724591
 31
0.0
1001
ACDBBLOCKREPETAG
1070
     1
1071
       35
1005
123F9B
  0
ARC
  5
123F9C
  8
OBJECT
 10
9961.0
 20
-1591.45001850481
 30
0.0
 40
12.0
 50
85.136162045942811
 51
154.86383795410001
1001
ACDBBLOCKREPETAG
1070
     1
1071
       36
1005
123F9C
  0
LINE
  5
123F9D
  8
OBJECT
 10
9950.1363893611433
 20
-1586.35276788439
 30
0.0
 11
9931.1971326205894
 21
-1626.7174127373471
 31
0.0
1001
ACDBBLOCKREPETAG
1070
     1
1071
       37
1005
123F9D
  0
LINE
  5
123F9E
  8
OBJECT
 10
9962.0174567926842
 20
-1579.493230404526
 30
0.0
 11
10006.443893020371
 21
-1583.2736753648851
 31
0.0
1001
ACDBBLOCKREPETAG
1070
     1
1071
       38
1005
123F9E
  0
ARC
  5
123F9F
  8
OBJECT
 10
9961.0
 20
-1726.5499814951811
 30
0.0
 40
12.0
 50
205.13616204589991
 51
274.8638379540572
1001
ACDBBLOCKREPETAG
1070
     1
1071
       39
1005
123F9F
  0
LINE
  5
123FA0
  8
OBJECT
 10
9962.0174567926897
 20
-1738.5067695954631
 30
0.0
 11
10006.44389302036
 21
-1734.726324635106
 31
0.0
1001
ACDBBLOCKREPETAG
1070
     1
1071
       40
1005
123FA0
  0
LINE
  5
123FA1
  8
OBJECT
 10
9950.1363893611433
 20
-1731.647232115605
 30
0.0
 11
9931.1971326205821
 21
-1691.2825872626429
 31
0.0
1001
ACDBBLOCKREPETAG
1070
     1
1071
       41
1005
123FA1
  0
LINE
  5
123FA2
  8
CENTER
 10
5909.0
 20
-1699.9999999999991
 30
0.0
 11
6105.0
 21
-1699.9999999999991
 31
0.0
1001
ACDBBLOCKREPETAG
1070
     1
1071
       10
1005
123FA2
  0
LINE
  5
123FA3
  8
CENTER
 10
6000.0
 20
-1608.7253355707819
 30
0.0
 11
6000.0
 21
-1791.2746644292149
 31
0.0
1001
ACDBBLOCKREPETAG
1070
     1
1071
       11
1005
123FA3
  0
CIRCLE
  5
123FA4
  8
OBJECT
 10
6000.0
 20
-1699.9999999999991
 30
0.0
 40
50.0
1001
ACDBBLOCKREPETAG
1070
     1
1071
       12
1005
123FA4
  0
CIRCLE
  5
123FA5
  8
OBJECT
 10
6000.0
 20
-1699.9999999999991
 30
0.0
 40
60.0
1001
ACDBBLOCKREPETAG
1070
     1
1071
       13
1005
123FA5
  0
CIRCLE
  5
123FA6
  8
OBJECT
 10
6000.0
 20
-1699.9999999999991
 30
0.0
 40
68.0
1001
ACDBBLOCKREPETAG
1070
     1
1071
       14
1005
123FA6
  0
ARC
  5
123FA7
  8
OBJECT
 10
6077.5
 20
-1699.9999999999991
 30
0.0
 40
12.0
 50
272.10542627221611
 51
87.894573727783893
1001
ACDBBLOCKREPETAG
1070
     1
1071
       15
1005
123FA7
  0
ARC
  5
123FA8
  8
OBJECT
 10
6078.4919354838639
 20
-1673.018227189526
 30
0.0
 40
15.0
 50
198.9705187796356
 51
267.89457372778372
1001
ACDBBLOCKREPETAG
1070
     1
1071
       16
1005
123FA8
  0
ARC
  5
123FA9
  8
OBJECT
 10
6078.4919354838639
 20
-1726.981772810467
 30
0.0
 40
15.0
 50
92.105426272216135
 51
161.02948122036429
1001
ACDBBLOCKREPETAG
1070
     1
1071
       17
1005
123FA9
  0
CIRCLE
  5
123FAA
  8
SLIM
 10
6078.0
 20
-1699.9999999999991
 30
0.0
 40
8.0
1001
ACDBBLOCKREPETAG
1070
     1
1071
       18
1005
123FAA
  0
POLYLINE
  5
123FAB
  8
SLIM
 66
     1
 10
0.0
 20
0.0
 30
0.0
 70
     1
1001
ACDBBLOCKREPETAG
1070
     1
1071
       19
1005
123FAB
  0
VERTEX
  5
12417B
  8
SLIM
 10
6075.6905989232328
 20
-1695.9999999999991
 30
0.0
  0
VERTEX
  5
12417C
  8
SLIM
 10
6073.3811978464801
 20
-1699.9999999999991
 30
0.0
  0
VERTEX
  5
12417D
  8
SLIM
 10
6075.6905989232328
 20
-1703.9999999999991
 30
0.0
  0
VERTEX
  5
12417E
  8
SLIM
 10
6080.3094010767527
 20
-1703.9999999999991
 30
0.0
  0
VERTEX
  5
12417F
  8
SLIM
 10
6082.6188021535136
 20
-1699.9999999999991
 30
0.0
  0
VERTEX
  5
124180
  8
SLIM
 10
6080.3094010767527
 20
-1695.9999999999991
 30
0.0
  0
SEQEND
  5
124181
  8
SLIM
  0
ARC
  5
123FAC
  8
OBJECT
 10
5961.25
 20
-1632.883031206703
 30
0.0
 40
12.0
 50
32.105426272157878
 51
207.89457372770741
1001
ACDBBLOCKREPETAG
1070
     1
1071
       20
1005
123FAC
  0
ARC
  5
123FAD
  8
OBJECT
 10
5937.387131565054
 20
-1645.514876283992
 30
0.0
 40
15.0
 50
318.97051877944762
 51
27.894573727707481
1001
ACDBBLOCKREPETAG
1070
     1
1071
       21
1005
123FAD
  0
ARC
  5
123FAE
  8
OBJECT
 10
5984.1209329510702
 20
-1618.53310347352
 30
0.0
 40
15.0
 50
212.1054262721579
 51
281.02948122044069
1001
ACDBBLOCKREPETAG
1070
     1
1071
       22
1005
123FAE
  0
CIRCLE
  5
123FAF
  8
SLIM
 10
5961.0
 20
-1632.4500185048121
 30
0.0
 40
7.9999999999999982
1001
ACDBBLOCKREPETAG
1070
     1
1071
       23
1005
123FAF
  0
POLYLINE
  5
123FB0
  8
SLIM
 66
     1
 10
0.0
 20
0.0
 30
0.0
 70
     1
1001
ACDBBLOCKREPETAG
1070
     1
1071
       24
1005
123FB0
  0
VERTEX
  5
124182
  8
SLIM
 10
5958.69059892324
 20
-1636.4500185048121
 30
0.0
  0
VERTEX
  5
124183
  8
SLIM
 10
5963.3094010767518
 20
-1636.4500185048121
 30
0.0
  0
VERTEX
  5
124184
  8
SLIM
 10
5965.6188021535136
 20
-1632.4500185048121
 30
0.0
  0
VERTEX
  5
124185
  8
SLIM
 10
5963.3094010767518
 20
-1628.4500185048121
 30
0.0
  0
VERTEX
  5
124186
  8
SLIM
 10
5958.69059892324
 20
-1628.4500185048121
 30
0.0
  0
VERTEX
  5
124187
  8
SLIM
 10
5956.3811978464792
 20
-1632.4500185048121
 30
0.0
  0
SEQEND
  5
124188
  8
SLIM
  0
ARC
  5
123FB1
  8
OBJECT
 10
5961.25
 20
-1767.1169687932911
 30
0.0
 40
12.0
 50
152.1054262722925
 51
327.89457372784221
1001
ACDBBLOCKREPETAG
1070
     1
1071
       25
1005
123FB1
  0
ARC
  5
123FB2
  8
OBJECT
 10
5984.1209329510702
 20
-1781.466896526475
 30
0.0
 40
15.0
 50
78.970518779559228
 51
147.8945737278421
1001
ACDBBLOCKREPETAG
1070
     1
1071
       26
1005
123FB2
  0
ARC
  5
123FB3
  8
OBJECT
 10
5937.387131565054
 20
-1754.485123716006
 30
0.0
 40
15.0
 50
332.1054262722925
 51
41.029481220552412
1001
ACDBBLOCKREPETAG
1070
     1
1071
       27
1005
123FB3
  0
CIRCLE
  5
123FB4
  8
SLIM
 10
5961.0
 20
-1767.5499814951861
 30
0.0
 40
8.0
1001
ACDBBLOCKREPETAG
1070
     1
1071
       28
1005
123FB4
  0
POLYLINE
  5
123FB5
  8
SLIM
 66
     1
 10
0.0
 20
0.0
 30
0.0
 70
     1
1001
ACDBBLOCKREPETAG
1070
     1
1071
       29
1005
123FB5
  0
VERTEX
  5
124189
  8
SLIM
 10
5965.6188021535136
 20
-1767.549981495182
 30
0.0
  0
VERTEX
  5
12418A
  8
SLIM
 10
5963.3094010767518
 20
-1763.5499814951861
 30
0.0
  0
VERTEX
  5
12418B
  8
SLIM
 10
5958.69059892324
 20
-1763.5499814951829
 30
0.0
  0
VERTEX
  5
12418C
  8
SLIM
 10
5956.3811978464792
 20
-1767.5499814951861
 30
0.0
  0
VERTEX
  5
12418D
  8
SLIM
 10
5958.6905989232328
 20
-1771.549981495182
 30
0.0
  0
VERTEX
  5
12418E
  8
SLIM
 10
5963.3094010767518
 20
-1771.5499814951861
 30
0.0
  0
SEQEND
  5
12418F
  8
SLIM
  0
ARC
  5
123FB6
  8
OBJECT
 10
6000.0
 20
-1699.9999999999991
 30
0.0
 40
76.0
 50
34.863837954142063
 51
85.136162045732945
1001
ACDBBLOCKREPETAG
1070
     1
1071
       42
1005
123FB6
  0
ARC
  5
123FB7
  8
OBJECT
 10
6000.0
 20
-1699.9999999999991
 30
0.0
 40
76.0
 50
154.86383795430939
 51
205.1361620456905
1001
ACDBBLOCKREPETAG
1070
     1
1071
       43
1005
123FB7
  0
ARC
  5
123FB8
  8
OBJECT
 10
6000.0
 20
-1699.9999999999991
 30
0.0
 40
76.0
 50
274.86383795426718
 51
325.13616204585799
1001
ACDBBLOCKREPETAG
1070
     1
1071
       44
1005
123FB8
  0
ARC
  5
123FB9
  8
OBJECT
 10
6078.0
 20
-1699.9999999999991
 30
0.0
 40
12.0
 50
325.13616204585799
 51
34.863837954142063
1001
ACDBBLOCKREPETAG
1070
     1
1071
       45
1005
123FB9
  0
LINE
  5
123FBA
  8
OBJECT
 10
6087.846153846167
 20
-1693.140462520136
 30
0.0
 11
6062.3589743590501
 21
-1656.5562626275371
 31
0.0
1001
ACDBBLOCKREPETAG
1070
     1
1071
       46
1005
123FBA
  0
LINE
  5
123FBB
  8
OBJECT
 10
6087.8461538461697
 20
-1706.8595374798599
 30
0.0
 11
6062.3589743590501
 21
-1743.443737372462
 31
0.0
1001
ACDBBLOCKREPETAG
1070
     1
1071
       47
1005
123FBB
  0
ARC
  5
123FBC
  8
OBJECT
 10
5961.0
 20
-1632.4500185048139
 30
0.0
 40
12.0
 50
85.136162045942811
 51
154.86383795410001
1001
ACDBBLOCKREPETAG
1070
     1
1071
       48
1005
123FBC
  0
LINE
  5
123FBD
  8
OBJECT
 10
5950.1363893611451
 20
-1627.3527678843941
 30
0.0
 11
5931.1971326205849
 21
-1667.7174127373489
 31
0.0
1001
ACDBBLOCKREPETAG
1070
     1
1071
       49
1005
123FBD
  0
LINE
  5
123FBE
  8
OBJECT
 10
5962.0174567926842
 20
-1620.4932304045301
 30
0.0
 11
6006.4438930203669
 21
-1624.273675364889
 31
0.0
1001
ACDBBLOCKREPETAG
1070
     1
1071
       50
1005
123FBE
  0
ARC
  5
123FBF
  8
OBJECT
 10
5961.0
 20
-1767.5499814951841
 30
0.0
 40
12.0
 50
205.13616204589991
 51
274.8638379540572
1001
ACDBBLOCKREPETAG
1070
     1
1071
       51
1005
123FBF
  0
LINE
  5
123FC0
  8
OBJECT
 10
5962.0174567926879
 20
-1779.5067695954669
 30
0.0
 11
6006.4438930203651
 21
-1775.726324635109
 31
0.0
1001
ACDBBLOCKREPETAG
1070
     1
1071
       52
1005
123FC0
  0
LINE
  5
123FC1
  8
OBJECT
 10
5950.1363893611451
 20
-1772.6472321156079
 30
0.0
 11
5931.1971326205821
 21
-1732.2825872626461
 31
0.0
1001
ACDBBLOCKREPETAG
1070
     1
1071
       53
1005
123FC1
  0
LINE
  5
123FC2
  8
CENTER
 10
3909.0
 20
-1658.9999999999959
 30
0.0
 11
4105.0
 21
-1658.9999999999959
 31
0.0
1001
ACDBBLOCKREPETAG
1070
     1
1071
        0
1005
123FC2
  0
LINE
  5
123FC3
  8
CENTER
 10
4000.0
 20
-1567.725335570779
 30
0.0
 11
4000.0
 21
-1750.274664429212
 31
0.0
1001
ACDBBLOCKREPETAG
1070
     1
1071
        1
1005
123FC3
  0
CIRCLE
  5
123FC4
  8
OBJECT
 10
4000.0
 20
-1658.9999999999959
 30
0.0
 40
50.0
1001
ACDBBLOCKREPETAG
1070
     1
1071
        2
1005
123FC4
  0
CIRCLE
  5
123FC5
  8
OBJECT
 10
4000.0
 20
-1658.9999999999959
 30
0.0
 40
62.0
1001
ACDBBLOCKREPETAG
1070
     1
1071
        3
1005
123FC5
  0
CIRCLE
  5
123FC6
  8
SLIM
 10
4078.0
 20
-1658.9999999999959
 30
0.0
 40
5.0
1001
ACDBBLOCKREPETAG
1070
     1
1071
        4
1005
123FC6
  0
POLYLINE
  5
123FC7
  8
SLIM
 66
     1
 10
0.0
 20
0.0
 30
0.0
 70
     1
1001
ACDBBLOCKREPETAG
1070
     1
1071
        5
1005
123FC7
  0
VERTEX
  5
124190
  8
SLIM
 10
4073.092522711886
 20
-1650.4999999999959
 30
0.0
  0
VERTEX
  5
124191
  8
SLIM
 10
4068.185045423772
 20
-1658.9999999999959
 30
0.0
  0
VERTEX
  5
124192
  8
SLIM
 10
4073.092522711886
 20
-1667.4999999999959
 30
0.0
  0
VERTEX
  5
124193
  8
SLIM
 10
4082.9074772881072
 20
-1667.4999999999959
 30
0.0
  0
VERTEX
  5
124194
  8
SLIM
 10
4087.8149545762199
 20
-1658.9999999999959
 30
0.0
  0
VERTEX
  5
124195
  8
SLIM
 10
4082.9074772881072
 20
-1650.4999999999959
 30
0.0
  0
SEQEND
  5
124196
  8
SLIM
  0
CIRCLE
  5
123FC8
  8
SLIM
 10
3961.0
 20
-1591.4500185048089
 30
0.0
 40
4.9999999999999991
1001
ACDBBLOCKREPETAG
1070
     1
1071
        6
1005
123FC8
  0
POLYLINE
  5
123FC9
  8
SLIM
 66
     1
 10
0.0
 20
0.0
 30
0.0
 70
     1
1001
ACDBBLOCKREPETAG
1070
     1
1071
        7
1005
123FC9
  0
VERTEX
  5
124197
  8
SLIM
 10
3956.092522711886
 20
-1599.9500185048089
 30
0.0
  0
VERTEX
  5
124198
  8
SLIM
 10
3965.907477288114
 20
-1599.9500185048089
 30
0.0
  0
VERTEX
  5
124199
  8
SLIM
 10
3970.8149545762212
 20
-1591.4500185048089
 30
0.0
  0
VERTEX
  5
12419A
  8
SLIM
 10
3965.907477288114
 20
-1582.950018504808
 30
0.0
  0
VERTEX
  5
12419B
  8
SLIM
 10
3956.092522711886
 20
-1582.950018504808
 30
0.0
  0
VERTEX
  5
12419C
  8
SLIM
 10
3951.185045423772
 20
-1591.4500185048089
 30
0.0
  0
SEQEND
  5
12419D
  8
SLIM
  0
CIRCLE
  5
123FCA
  8
SLIM
 10
3961.0
 20
-1726.5499814951829
 30
0.0
 40
5.0
1001
ACDBBLOCKREPETAG
1070
     1
1071
        8
1005
123FCA
  0
POLYLINE
  5
123FCB
  8
SLIM
 66
     1
 10
0.0
 20
0.0
 30
0.0
 70
     1
1001
ACDBBLOCKREPETAG
1070
     1
1071
        9
1005
123FCB
  0
VERTEX
  5
12419E
  8
SLIM
 10
3970.8149545762212
 20
-1726.5499814951829
 30
0.0
  0
VERTEX
  5
12419F
  8
SLIM
 10
3965.9074772881072
 20
-1718.0499814951791
 30
0.0
  0
VERTEX
  5
1241A0
  8
SLIM
 10
3956.092522711886
 20
-1718.049981495182
 30
0.0
  0
VERTEX
  5
1241A1
  8
SLIM
 10
3951.185045423772
 20
-1726.5499814951791
 30
0.0
  0
VERTEX
  5
1241A2
  8
SLIM
 10
3956.092522711886
 20
-1735.0499814951829
 30
0.0
  0
VERTEX
  5
1241A3
  8
SLIM
 10
3965.907477288114
 20
-1735.0499814951791
 30
0.0
  0
SEQEND
  5
1241A4
  8
SLIM
  0
ARC
  5
123FCC
  8
OBJECT
 10
4000.0
 20
-1658.9999999999959
 30
0.0
 40
76.0
 50
34.863837954142063
 51
85.136162045732945
1001
ACDBBLOCKREPETAG
1070
     1
1071
       30
1005
123FCC
  0
ARC
  5
123FCD
  8
OBJECT
 10
4000.0
 20
-1658.9999999999959
 30
0.0
 40
76.0
 50
154.86383795430939
 51
205.1361620456905
1001
ACDBBLOCKREPETAG
1070
     1
1071
       31
1005
123FCD
  0
ARC
  5
123FCE
  8
OBJECT
 10
4000.0
 20
-1658.9999999999959
 30
0.0
 40
76.0
 50
274.86383795426718
 51
325.13616204585799
1001
ACDBBLOCKREPETAG
1070
     1
1071
       32
1005
123FCE
  0
ARC
  5
123FCF
  8
OBJECT
 10
4078.0
 20
-1658.9999999999959
 30
0.0
 40
12.0
 50
325.13616204585799
 51
34.863837954142063
1001
ACDBBLOCKREPETAG
1070
     1
1071
       33
1005
123FCF
  0
LINE
  5
123FD0
  8
OBJECT
 10
4087.846153846167
 20
-1652.140462520133
 30
0.0
 11
4062.3589743590492
 21
-1615.556262627535
 31
0.0
1001
ACDBBLOCKREPETAG
1070
     1
1071
       34
1005
123FD0
  0
LINE
  5
123FD1
  8
OBJECT
 10
4087.8461538461711
 20
-1665.859537479856
 30
0.0
 11
4062.3589743590492
 21
-1702.4437373724591
 31
0.0
1001
ACDBBLOCKREPETAG
1070
     1
1071
       35
1005
123FD1
  0
ARC
  5
123FD2
  8
OBJECT
 10
3961.0
 20
-1591.45001850481
 30
0.0
 40
12.0
 50
85.136162045942811
 51
154.86383795411109
1001
ACDBBLOCKREPETAG
1070
     1
1071
       36
1005
123FD2
  0
LINE
  5
123FD3
  8
OBJECT
 10
3950.136389361146
 20
-1586.35276788439
 30
0.0
 11
3931.1971326205862
 21
-1626.7174127373471
 31
0.0
1001
ACDBBLOCKREPETAG
1070
     1
1071
       37
1005
123FD3
  0
LINE
  5
123FD4
  8
OBJECT
 10
3962.0174567926852
 20
-1579.493230404526
 30
0.0
 11
4006.4438930203678
 21
-1583.2736753648851
 31
0.0
1001
ACDBBLOCKREPETAG
1070
     1
1071
       38
1005
123FD4
  0
ARC
  5
123FD5
  8
OBJECT
 10
3961.0
 20
-1726.5499814951811
 30
0.0
 40
12.0
 50
205.13616204588891
 51
274.8638379540572
1001
ACDBBLOCKREPETAG
1070
     1
1071
       39
1005
123FD5
  0
LINE
  5
123FD6
  8
OBJECT
 10
3962.0174567926879
 20
-1738.5067695954631
 30
0.0
 11
4006.4438930203651
 21
-1734.726324635106
 31
0.0
1001
ACDBBLOCKREPETAG
1070
     1
1071
       40
1005
123FD6
  0
LINE
  5
123FD7
  8
OBJECT
 10
3950.136389361146
 20
-1731.647232115605
 30
0.0
 11
3931.1971326205821
 21
-1691.2825872626429
 31
0.0
1001
ACDBBLOCKREPETAG
1070
     1
1071
       41
1005
123FD7
  0
TEXT
  5
123FD8
  8
SLIM
 10
3853.75
 20
-1926.4999999999959
 30
0.0
 40
35.0
  1
両受けスタイル（W）
 41
0.75
  0
TEXT
  5
123FD9
  8
SLIM
 10
5811.8000000000002
 20
-2024.0
 30
0.0
 40
28.0
  1
※ 対応スラブ厚　150mm以上
 41
0.75
  0
TEXT
  5
123FDA
  8
SLIM
 10
5598.8999999999996
 20
-2117.3333333333321
 30
0.0
 40
28.0
  1
国土交通大臣認定・（一財）日本消防設備安全センター性能評定取得品
 41
0.75
  0
TEXT
  5
123FDB
  8
SLIM
 10
5631.1000000000004
 20
-2164.0
 30
0.0
 40
28.0
  1
注）ご採用にあたり、認定書及び評定書の内容をご確認ください。
 41
0.75
  0
TEXT
  5
123FDC
  8
SLIM
 10
11824.6
 20
-1982.9999999999959
 30
0.0
 40
28.0
  1
※ 対応スラブ厚　150～660
 41
0.75
  0
TEXT
  5
123FDD
  8
SLIM
 10
11598.9
 20
-2076.3333333333289
 30
0.0
 40
28.0
  1
国土交通大臣認定・（一財）日本消防設備安全センター性能評定取得品
 41
0.75
  0
TEXT
  5
123FDE
  8
SLIM
 10
11631.1
 20
-2122.9999999999959
 30
0.0
 40
28.0
  1
注）ご採用にあたり、認定書及び評定書の内容をご確認ください。
 41
0.75
  0
TEXT
  5
123FDF
  8
SLIM
 10
9824.6000000000004
 20
-1982.9999999999959
 30
0.0
 40
28.0
  1
※ 対応スラブ厚　180～660
 41
0.75
  0
TEXT
  5
123FE0
  8
SLIM
 10
9598.8999999999996
 20
-2076.3333333333289
 30
0.0
 40
28.0
  1
国土交通大臣認定・（一財）日本消防設備安全センター性能評定取得品
 41
0.75
  0
TEXT
  5
123FE1
  8
SLIM
 10
9631.1000000000004
 20
-2122.9999999999959
 30
0.0
 40
28.0
  1
注）ご採用にあたり、認定書及び評定書の内容をご確認ください。
 41
0.75
  0
TEXT
  5
123FE2
  8
SLIM
 10
7771.3999999999987
 20
-1715.666666666664
 30
0.0
 40
28.0
  1
※ 対応スラブ厚　180｛150｝～620
 41
0.75
  0
TEXT
  5
123FE3
  8
SLIM
 10
7733.2999999999975
 20
-1762.333333333331
 30
0.0
 40
28.0
  1
｛｝内はカンペイ立て管との組み合わせの場合
 41
0.75
  0
TEXT
  5
123FE4
  8
SLIM
 10
7598.8999999999969
 20
-1855.6666666666649
 30
0.0
 40
28.0
  1
国土交通大臣認定・（一財）日本消防設備安全センター性能評定取得品
 41
0.75
  0
TEXT
  5
123FE5
  8
SLIM
 10
7631.1000000000004
 20
-1902.333333333331
 30
0.0
 40
28.0
  1
注）ご採用にあたり、認定書及び評定書の内容をご確認ください。
 41
0.75
  0
TEXT
  5
123FE6
  8
SLIM
 10
9739.1250000000018
 20
-1926.4999999999959
 30
0.0
 40
35.0
  1
両受けスタイル（W）＋シンドカット
 41
0.75
  0
TEXT
  5
123FE7
  8
SLIM
 10
11743.5
 20
-1926.4999999999959
 30
0.0
 40
35.0
  1
カンペイ君（WKP）＋シンドカット
 41
0.75
  0
TEXT
  5
123FE8
  8
SLIM
 10
7741.625
 20
-1652.499999999998
 30
0.0
 40
35.0
  1
片受けスタイル（S）＋シンドカット
 41
0.75
  0
TEXT
  5
123FE9
  8
SLIM
 10
5858.1250000000009
 20
-1967.4999999999991
 30
0.0
 40
35.0
  1
カンペイ君（WKP）
 41
0.75
  0
TEXT
  5
123FEA
  8
SLIM
 10
1856.25
 20
-1652.499999999998
 30
0.0
 40
35.0
  1
片受けスタイル（S）
 41
0.75
  0
TEXT
  5
123FEB
  8
SLIM
 10
0.0
 20
369.99999999999989
 30
0.0
 40
100.0
  1
4SLT2-Z6-P110-0-WKP
 41
0.75
  0
VIEWPORT
  5
F6BA7
 67
     1
  8
0
 10
163.0024027789494
 20
101.8328354358673
 30
0.0
 40
369.34663245053321
 41
222.19657968139651
 68
     1
 69
     1
1001
ACAD
1000
MVIEW
1002
{
1070
    16
1010
0.0
1020
0.0
1030
0.0
1010
0.0
1020
0.0
1030
1.0
1040
0.0
1040
222.19657968139651
1040
163.0024027789494
1040
101.8328354358673
1040
50.0
1040
0.0
1040
0.0
1070
     0
1070
     0
1070
     1
1070
     1
1070
     0
1070
     0
1070
     0
1070
     0
1040
0.0
1040
0.0
1040
0.0
1040
10.0
1040
10.0
1040
10.0
1040
10.0
1070
     0
1002
{
1002
}
1002
}
  0
VIEWPORT
  5
F6BA9
 67
     1
  8
OBJECT
 10
145.3303314447403
 20
101.8328338861465
 30
0.0
 40
232.5285303115844
 41
162.93253421783439
 68
     2
 69
     2
1001
ACAD
1000
MVIEW
1002
{
1070
    16
1010
0.0
1020
0.0
1030
0.0
1010
0.0
1020
0.0
1030
1.0
1040
0.0
1040
25942.55904403147
1040
2377.604457077377
1040
-7591.5176687056619
1040
50.0
1040
0.0
1040
0.0
1070
     0
1070
   600
1070
     1
1070
     1
1070
     0
1070
     0
1070
     0
1070
     0
1040
0.0
1040
0.0
1040
0.0
1040
1.0
1040
1.0
1040
0.0
1040
0.0
1070
     0
1002
{
1002
}
1002
}
  0
ENDSEC
  0
EOF
