  0
SECTION
  2
HEADER
  9
$ACADVER
  1
AC1009
  9
$INSBASE
 10
0.0
 20
0.0
 30
0.0
  9
$EXTMIN
 10
-0.0000000000002274
 20
-4102.4999999999973
 30
0.0
  9
$EXTMAX
 10
12966.09999999998
 20
770.0
 30
0.0
  9
$LIMMIN
 10
0.0
 20
0.0
  9
$LIMMAX
 10
210.0
 20
297.0
  9
$ORTHOMODE
 70
     0
  9
$REGENMODE
 70
     1
  9
$FILLMODE
 70
     1
  9
$QTEXTMODE
 70
     0
  9
$MIRRTEXT
 70
     0
  9
$DRAGMODE
 70
     2
  9
$LTSCALE
 40
1.0
  9
$OSMODE
 70
   125
  9
$ATTMODE
 70
     1
  9
$TEXTSIZE
 40
4.0
  9
$TRACEWID
 40
0.05
  9
$TEXTSTYLE
  7
STANDARD
  9
$CLAYER
  8
SLIM
  9
$CELTYPE
  6
BYLAYER
  9
$CECOLOR
 62
   256
  9
$DIMSCALE
 40
10.0
  9
$DIMASZ
 40
2.0
  9
$DIMEXO
 40
1.0
  9
$DIMDLI
 40
10.0
  9
$DIMRND
 40
0.0
  9
$DIMDLE
 40
0.0
  9
$DIMEXE
 40
1.0
  9
$DIMTP
 40
0.0
  9
$DIMTM
 40
0.0
  9
$DIMTXT
 40
3.2000000000000002
  9
$DIMCEN
 40
0.0
  9
$DIMTSZ
 40
0.0
  9
$DIMTOL
 70
     0
  9
$DIMLIM
 70
     0
  9
$DIMTIH
 70
     0
  9
$DIMTOH
 70
     0
  9
$DIMSE1
 70
     0
  9
$DIMSE2
 70
     0
  9
$DIMTAD
 70
     1
  9
$DIMZIN
 70
     8
  9
$DIMBLK
  1
OPEN30
  9
$DIMASO
 70
     1
  9
$DIMSHO
 70
     1
  9
$DIMPOST
  1

  9
$DIMAPOST
  1

  9
$DIMALT
 70
     0
  9
$DIMALTD
 70
     2
  9
$DIMALTF
 40
25.399999999999999
  9
$DIMLFAC
 40
1.0
  9
$DIMTOFL
 70
     1
  9
$DIMTVP
 40
0.0
  9
$DIMTIX
 70
     0
  9
$DIMSOXD
 70
     0
  9
$DIMSAH
 70
     0
  9
$DIMBLK1
  1

  9
$DIMBLK2
  1

  9
$DIMSTYLE
  2
S10
  9
$DIMCLRD
 70
   256
  9
$DIMCLRE
 70
   256
  9
$DIMCLRT
 70
   256
  9
$DIMTFAC
 40
1.0
  9
$DIMGAP
 40
0.9
  9
$LUNITS
 70
     2
  9
$LUPREC
 70
     2
  9
$SKETCHINC
 40
0.1
  9
$FILLETRAD
 40
0.0
  9
$AUNITS
 70
     0
  9
$AUPREC
 70
     2
  9
$MENU
  1
ACAD
  9
$ELEVATION
 40
0.0
  9
$PELEVATION
 40
0.0
  9
$THICKNESS
 40
0.0
  9
$LIMCHECK
 70
     0
  9
$BLIPMODE
 70
     0
  9
$CHAMFERA
 40
2.0
  9
$CHAMFERB
 40
2.0
  9
$SKPOLY
 70
     0
  9
$TDCREATE
 40
2453095.4929404748
  9
$TDUPDATE
 40
2457381.4812541092
  9
$TDINDWG
 40
18.7636189931
  9
$TDUSRTIMER
 40
18.7636178588
  9
$USRTIMER
 70
     1
  9
$ANGBASE
 50
0.0
  9
$ANGDIR
 70
     0
  9
$PDMODE
 70
    35
  9
$PDSIZE
 40
2.0
  9
$PLINEWID
 40
0.0
  9
$COORDS
 70
     1
  9
$SPLFRAME
 70
     0
  9
$SPLINETYPE
 70
     6
  9
$SPLINESEGS
 70
     8
  9
$ATTDIA
 70
     1
  9
$ATTREQ
 70
     1
  9
$HANDLING
 70
     1
  9
$HANDSEED
  5
12899B
  9
$SURFTAB1
 70
     6
  9
$SURFTAB2
 70
     6
  9
$SURFTYPE
 70
     6
  9
$SURFU
 70
     6
  9
$SURFV
 70
     6
  9
$UCSNAME
  2

  9
$UCSORG
 10
0.0
 20
0.0
 30
0.0
  9
$UCSXDIR
 10
1.0
 20
0.0
 30
0.0
  9
$UCSYDIR
 10
0.0
 20
1.0
 30
0.0
  9
$PUCSNAME
  2

  9
$PUCSORG
 10
0.0
 20
0.0
 30
0.0
  9
$PUCSXDIR
 10
1.0
 20
0.0
 30
0.0
  9
$PUCSYDIR
 10
0.0
 20
1.0
 30
0.0
  9
$USERI1
 70
     0
  9
$USERI2
 70
     0
  9
$USERI3
 70
     0
  9
$USERI4
 70
     0
  9
$USERI5
 70
     0
  9
$USERR1
 40
0.0
  9
$USERR2
 40
0.0
  9
$USERR3
 40
0.0
  9
$USERR4
 40
0.0
  9
$USERR5
 40
0.0
  9
$WORLDVIEW
 70
     1
  9
$SHADEDGE
 70
     3
  9
$SHADEDIF
 70
    70
  9
$TILEMODE
 70
     1
  9
$MAXACTVP
 70
    64
  9
$PLIMCHECK
 70
     0
  9
$PEXTMIN
 10
29.066066288948051
 20
20.366566777229309
 30
0.0
  9
$PEXTMAX
 10
261.5945966005325
 20
183.29910099506381
 30
0.0
  9
$PLIMMIN
 10
-3.17498779296875
 20
-3.1749999523162842
  9
$PLIMMAX
 10
293.83566284179687
 20
206.8406708240509
  9
$UNITMODE
 70
     0
  9
$VISRETAIN
 70
     1
  9
$PLINEGEN
 70
     0
  9
$PSLTSCALE
 70
     1
  0
ENDSEC
  0
SECTION
  2
TABLES
  0
TABLE
  2
VPORT
 70
     1
  0
VPORT
  2
*ACTIVE
 70
     0
 10
0.0
 20
0.0
 11
1.0
 21
1.0
 12
8605.2372119619267
 22
-802.492115352974
 13
0.0
 23
0.0
 14
1.0
 24
1.0
 15
0.0
 25
0.0
 16
0.0
 26
0.0
 36
1.0
 17
0.0
 27
0.0
 37
0.0
 40
10508.71841789869
 41
1.70911528150134
 42
50.0
 43
0.0
 44
0.0
 50
0.0
 51
0.0
 71
     0
 72
   600
 73
     1
 74
     1
 75
     0
 76
     0
 77
     0
 78
     0
  0
ENDTAB
  0
TABLE
  2
LTYPE
 70
     4
  0
LTYPE
  2
CONTINUOUS
 70
     0
  3
Solid line
 72
    65
 73
     0
 40
0.0
  0
LTYPE
  2
ACAD_ISO08W100
 70
     0
  3
ISO long-dash short-dash ____ __ ____ __ ____ _
 72
    65
 73
     4
 40
36.0
 49
24.0
 49
-3.0
 49
6.0
 49
-3.0
  0
LTYPE
  2
ACAD_ISO02W100
 70
     0
  3
ISO dash __ __ __ __ __ __ __ __ __ __ __ __ __
 72
    65
 73
     2
 40
15.0
 49
12.0
 49
-3.0
  0
ENDTAB
  0
TABLE
  2
LAYER
 70
     8
  0
LAYER
  2
0
 70
     0
 62
     7
  6
CONTINUOUS
  0
LAYER
  2
SLIM
 70
     0
 62
     2
  6
CONTINUOUS
  0
LAYER
  2
DEFPOINTS
 70
     0
 62
     7
  6
CONTINUOUS
  0
LAYER
  2
DIM
 70
     0
 62
     7
  6
CONTINUOUS
  0
LAYER
  2
OBJECT
 70
     0
 62
     4
  6
CONTINUOUS
  0
LAYER
  2
HIDDEN
 70
     0
 62
     2
  6
ACAD_ISO02W100
  0
LAYER
  2
CENTER
 70
     0
 62
     2
  6
ACAD_ISO08W100
  0
LAYER
  2
DOTS
 70
     0
 62
     1
  6
CONTINUOUS
  0
ENDTAB
  0
TABLE
  2
STYLE
 70
     2
  0
STYLE
  2
STANDARD
 70
     0
 40
0.0
 41
0.75
 50
0.0
 71
     0
 42
4.0
  3
simplex.shx
  4
bigfont.shx
  0
ENDTAB
  0
TABLE
  2
VIEW
 70
     0
  0
ENDTAB
  0
TABLE
  2
UCS
 70
     0
  0
ENDTAB
  0
TABLE
  2
APPID
 70
    20
  0
APPID
  2
ACAD
 70
     0
  0
APPID
  2
ACADANNOTATIVE
 70
     0
  0
APPID
  2
ACAD_PSEXT
 70
     0
  0
APPID
  2
ACAD_EXEMPT_FROM_CAD_STANDARDS
 70
     0
  0
APPID
  2
ACAECLAYERSTANDARD
 70
     0
  0
APPID
  2
ACAUTHENVIRON
 70
     0
  0
APPID
  2
ACDBDYNAMICBLOCKTRUENAME
 70
     0
  0
APPID
  2
ACDBDYNAMICBLOCKGUID
 70
     0
  0
APPID
  2
ACDBBLOCKREPETAG
 70
     0
  0
APPID
  2
ACDBBLOCKREPBTAG
 70
     0
  0
APPID
  2
ACAD_NAV_VCDISPLAY
 70
     0
  0
APPID
  2
ACAD_DSTYLE_DIMRADIAL_EXTENSION
 70
     0
  0
APPID
  2
ACAD_DSTYLE_DIMJAG
 70
     0
  0
APPID
  2
ACAD_DSTYLE_DIMTALN
 70
     0
  0
APPID
  2
ACADANNOPO
 70
     0
  0
APPID
  2
GRADIENTCOLOR1ACI
 70
     0
  0
APPID
  2
GRADIENTCOLOR2ACI
 70
     0
  0
APPID
  2
ACADANNOMONITORALERTICONDI
 70
     0
  0
APPID
  2
CONTENTBLOCKICON
 70
     0
  0
APPID
  2
ACAD_MLEADERVER
 70
     0
  0
ENDTAB
  0
TABLE
  2
DIMSTYLE
 70
     3
  0
DIMSTYLE
  2
STANDARD
 70
     0
  3

  4

  5

  6

  7

 40
1.0
 41
0.18
 42
0.0625
 43
0.38
 44
0.18
 45
0.0
 46
0.0
 47
0.0
 48
0.0
140
0.18
141
0.09
142
0.0
143
25.399999999999999
144
1.0
145
0.0
146
1.0
147
0.09
 71
     0
 72
     0
 73
     1
 74
     1
 75
     0
 76
     0
 77
     0
 78
     0
170
     0
171
     2
172
     0
173
     0
174
     0
175
     0
176
     0
177
     0
178
     0
  0
DIMSTYLE
  2
S10
 70
     0
  3

  4

  5

  6

  7

 40
10.0
 41
2.0
 42
1.0
 43
10.0
 44
1.0
 45
0.0
 46
0.0
 47
0.0
 48
0.0
140
3.2000000000000002
141
0.0
142
0.0
143
25.399999999999999
144
1.0
145
0.0
146
1.0
147
0.9
 71
     0
 72
     0
 73
     0
 74
     0
 75
     0
 76
     0
 77
     1
 78
     8
170
     0
171
     2
172
     1
173
     0
174
     0
175
     0
176
   256
177
   256
178
   256
  0
ENDTAB
  0
ENDSEC
  0
SECTION
  2
BLOCKS
  0
BLOCK
  8
0
  2
$MODEL_SPACE
 70
     0
 10
0.0
 20
0.0
 30
0.0
  3
$MODEL_SPACE
  1

  0
ENDBLK
  5
128886
  8
0
  0
BLOCK
 67
     1
  8
0
  2
$PAPER_SPACE
 70
     0
 10
0.0
 20
0.0
 30
0.0
  3
$PAPER_SPACE
  1

  0
ENDBLK
  5
128882
 67
     1
  8
0
  0
BLOCK
  8
0
  2
_OPEN30
 70
     0
 10
0.0
 20
0.0
 30
0.0
  3
_OPEN30
  1

  0
LINE
  5
202
  8
0
  6
BYBLOCK
 62
     0
 10
-1.0
 20
0.26794919
 30
0.0
 11
0.0
 21
0.0
 31
0.0
  0
LINE
  5
203
  8
0
  6
BYBLOCK
 62
     0
 10
0.0
 20
0.0
 30
0.0
 11
-1.0
 21
-0.26794919
 31
0.0
  0
LINE
  5
204
  8
0
  6
BYBLOCK
 62
     0
 10
0.0
 20
0.0
 30
0.0
 11
-1.0
 21
0.0
 31
0.0
  0
ENDBLK
  5
206
  8
0
  0
BLOCK
  8
0
  2
*U3
 70
     1
 10
0.0
 20
0.0
 30
0.0
  3
*U3
  1

  0
TEXT
  5
12850E
  8
SLIM
 10
158.95238095238091
 20
-1393.9999999999991
 30
0.0
 40
26.0
  1
75
  0
ENDBLK
  5
128510
  8
0
  0
BLOCK
  8
0
  2
*U4
 70
     1
 10
0.0
 20
0.0
 30
0.0
  3
*U4
  1

  0
TEXT
  5
128512
  8
SLIM
 10
518.95238095238085
 20
-929.99999999999909
 30
0.0
 40
26.0
  1
65
  0
ENDBLK
  5
128514
  8
0
  0
BLOCK
  8
0
  2
*U5
 70
     1
 10
0.0
 20
0.0
 30
0.0
  3
*U5
  1

  0
TEXT
  5
128516
  8
SLIM
 10
158.95238095238091
 20
-929.99999999999909
 30
0.0
 40
26.0
  1
50
  0
ENDBLK
  5
128518
  8
0
  0
BLOCK
  8
0
  2
*U6
 70
     1
 10
0.0
 20
0.0
 30
0.0
  3
*U6
  1

  0
TEXT
  5
12851A
  8
DIM
 10
12700.424581672751
 20
-923.99999999999818
 30
0.0
 40
32.0
  1
P
 50
90.0
 41
0.75
  0
ENDBLK
  5
12851C
  8
0
  0
BLOCK
  8
0
  2
*U7
 70
     1
 10
0.0
 20
0.0
 30
0.0
  3
*U7
  1

  0
TEXT
  5
12851E
  8
DIM
 10
10700.424581672751
 20
-923.99999999999818
 30
0.0
 40
32.0
  1
P
 50
90.0
 41
0.75
  0
ENDBLK
  5
128520
  8
0
  0
BLOCK
  8
0
  2
*U8
 70
     1
 10
0.0
 20
0.0
 30
0.0
  3
*U8
  1

  0
TEXT
  5
128522
  8
DIM
 10
8700.4245816727544
 20
-923.99999999999875
 30
0.0
 40
32.0
  1
P
 50
90.0
 41
0.75
  0
ENDBLK
  5
128524
  8
0
  0
BLOCK
  8
0
  2
*U9
 70
     1
 10
0.0
 20
0.0
 30
0.0
  3
*U9
  1

  0
TEXT
  5
128526
  8
DIM
 10
6700.4245816727562
 20
-923.99999999999932
 30
0.0
 40
32.0
  1
P
 50
90.0
 41
0.75
  0
ENDBLK
  5
128528
  8
0
  0
BLOCK
  8
0
  2
*U10
 70
     1
 10
0.0
 20
0.0
 30
0.0
  3
*U10
  1

  0
TEXT
  5
12852A
  8
DIM
 10
4700.4245816727562
 20
-923.99999999999932
 30
0.0
 40
32.0
  1
P
 50
90.0
 41
0.75
  0
ENDBLK
  5
12852C
  8
0
  0
BLOCK
  8
0
  2
*U11
 70
     1
 10
0.0
 20
0.0
 30
0.0
  3
*U11
  1

  0
TEXT
  5
128542
  8
SLIM
 10
158.9523809524228
 20
-130.00000000017181
 30
0.0
 40
26.0
  1
75
  0
ENDBLK
  5
128544
  8
0
  0
BLOCK
  8
0
  2
*U12
 70
     1
 10
0.0
 20
0.0
 30
0.0
  3
*U12
  1

  0
TEXT
  5
128546
  8
DIM
 10
12334.11645607577
 20
-1447.7428571428529
 30
0.0
 40
32.0
  1
730-P（シンドカット）
 50
90.0
 41
0.75
  0
ENDBLK
  5
128548
  8
0
  0
BLOCK
  8
0
  2
*U13
 70
     1
 10
0.0
 20
0.0
 30
0.0
  3
*U13
  1

  0
TEXT
  5
12854A
  8
DIM
 10
10334.11645607577
 20
-1447.7428571428541
 30
0.0
 40
32.0
  1
730-P（シンドカット）
 50
90.0
 41
0.75
  0
ENDBLK
  5
12854C
  8
0
  0
BLOCK
  8
0
  2
*U14
 70
     1
 10
0.0
 20
0.0
 30
0.0
  3
*U14
  1

  0
TEXT
  5
12854E
  8
DIM
 10
8334.1164560757734
 20
-1427.742857142855
 30
0.0
 40
32.0
  1
690-P（シンドカット）
 50
90.0
 41
0.75
  0
ENDBLK
  5
128550
  8
0
  0
BLOCK
  8
0
  2
*U15
 70
     1
 10
0.0
 20
0.0
 30
0.0
  3
*U15
  1

  0
TEXT
  5
128552
  8
DIM
 10
2700.4245816727571
 20
-923.99999999999943
 30
0.0
 40
32.0
  1
P
 50
90.0
 41
0.75
  0
ENDBLK
  5
128554
  8
0
  0
BLOCK
  8
0
  2
*U16
 70
     1
 10
0.0
 20
0.0
 30
0.0
  3
*U16
  1

  0
TEXT
  5
128556
  8
DIM
 10
2709.479620594459
 20
-3589.1428571428528
 30
0.0
 40
32.0
  1
A
 50
90.0
 41
0.75
  0
ENDBLK
  5
128558
  8
0
  0
BLOCK
  8
0
  2
*U17
 70
     1
 10
0.0
 20
0.0
 30
0.0
  3
*U17
  1

  0
TEXT
  5
12855A
  8
DIM
 10
2707.840928403733
 20
-3970.9999999999968
 30
0.0
 40
32.0
  1
B
 50
90.0
 41
0.75
  0
ENDBLK
  5
12855C
  8
0
  0
BLOCK
  8
0
  2
*U18
 70
     1
 10
0.0
 20
0.0
 30
0.0
  3
*U18
  1

  0
TEXT
  5
12855E
  8
DIM
 10
2561.4285714285711
 20
-3443.208121984444
 30
0.0
 40
32.0
  1
C
 41
0.75
  0
ENDBLK
  5
128560
  8
0
  0
ENDSEC
  0
SECTION
  2
ENTITIES
  0
LINE
  5
11273E
  8
OBJECT
 10
2325.0
 20
-3984.9999999999968
 30
0.0
 11
5075.0
 21
-3984.9999999999968
 31
0.0
  0
LINE
  5
11412B
  8
SLIM
 10
3256.0
 20
-3042.5000160472709
 30
0.0
 11
3256.0
 21
-3372.5000160472709
 31
0.0
  0
LINE
  5
11412C
  8
SLIM
 10
3380.0
 20
-3042.5000160472709
 30
0.0
 11
3380.0
 21
-3372.5000160472709
 31
0.0
  0
LINE
  5
11412D
  8
SLIM
 10
3510.0
 20
-3102.5000160472709
 30
0.0
 11
3510.0
 21
-3372.5000160472709
 31
0.0
  0
LINE
  5
11412E
  8
SLIM
 10
3640.0
 20
-3102.5000160472709
 30
0.0
 11
3640.0
 21
-3372.5000160472709
 31
0.0
  0
LINE
  5
11412F
  8
SLIM
 10
3770.0
 20
-3372.5000160472709
 30
0.0
 11
3770.0
 21
-3042.5000160472709
 31
0.0
  0
LINE
  5
114131
  8
SLIM
 10
3770.0
 20
-3042.5000160472709
 30
0.0
 11
3256.0
 21
-3042.5000160472709
 31
0.0
  0
LINE
  5
114132
  8
SLIM
 10
3769.9999999999991
 20
-3102.5000160472709
 30
0.0
 11
3380.0
 21
-3102.5000160472709
 31
0.0
  0
LINE
  5
114133
  8
SLIM
 10
3770.0
 20
-3162.5000160472709
 30
0.0
 11
3256.0
 21
-3162.5000160472709
 31
0.0
  0
LINE
  5
114134
  8
SLIM
 10
3770.0
 20
-3232.50001604727
 30
0.0
 11
3256.0
 21
-3232.50001604727
 31
0.0
  0
LINE
  5
114135
  8
SLIM
 10
3770.0
 20
-3302.5000160472709
 30
0.0
 11
3256.0
 21
-3302.5000160472709
 31
0.0
  0
LINE
  5
114136
  8
SLIM
 10
3770.0
 20
-3372.5000160472709
 30
0.0
 11
3256.0
 21
-3372.5000160472709
 31
0.0
  0
LINE
  5
11414B
  8
SLIM
 10
3380.0
 20
-3162.5000160472709
 30
0.0
 11
3255.9999722746579
 21
-3042.5
 31
0.0
  0
LINE
  5
1238B4
  8
CENTER
 10
2579.9999999999991
 20
-3579.9999999999959
 30
0.0
 11
2409.9999999999991
 21
-3579.9999999999959
 31
0.0
1001
ACDBBLOCKREPETAG
1070
     1
1071
       14
1005
122545
  0
LINE
  5
1238B5
  8
CENTER
 10
2500.0
 20
-3669.9999999999968
 30
0.0
 11
2500.0
 21
-3489.9999999999968
 31
0.0
1001
ACDBBLOCKREPETAG
1070
     1
1071
       15
1005
122546
  0
CIRCLE
  5
1238B6
  8
OBJECT
 10
2500.0
 20
-3579.9999999999959
 30
0.0
 40
70.0
1001
ACDBBLOCKREPETAG
1070
     1
1071
       16
1005
122547
  0
CIRCLE
  5
1238B7
  8
OBJECT
 10
2500.0
 20
-3579.9999999999959
 30
0.0
 40
75.0
1001
ACDBBLOCKREPETAG
1070
     1
1071
       17
1005
122548
  0
LINE
  5
123927
  8
CENTER
 10
2500.0
 20
-3764.9999999999968
 30
0.0
 11
2500.0
 21
-4011.9999999999959
 31
0.0
1001
ACDBBLOCKREPETAG
1070
     1
1071
       25
1005
123927
  0
LINE
  5
123928
  8
OBJECT
 10
2425.0
 20
-3779.9999999999991
 30
0.0
 11
2425.0
 21
-3999.9999999999968
 31
0.0
1001
ACDBBLOCKREPETAG
1070
     1
1071
       26
1005
123928
  0
LINE
  5
12392C
  8
OBJECT
 10
2575.0
 20
-3779.9999999999991
 30
0.0
 11
2575.0
 21
-3876.5000000000618
 31
0.0
1001
ACDBBLOCKREPETAG
1070
     1
1071
       34
1005
12392C
  0
LINE
  5
123A5C
  8
OBJECT
 10
2575.0
 20
-3982.4999999999991
 30
0.0
 11
2575.0
 21
-3999.9999999999968
 31
0.0
1001
ACDBBLOCKREPETAG
1070
     1
1071
       34
1005
12392C
  0
LINE
  5
123A5E
  8
CENTER
 10
2900.0
 20
-3764.9999999999968
 30
0.0
 11
2900.0
 21
-4011.9999999999959
 31
0.0
1001
ACDBBLOCKREPETAG
1070
     1
1071
       25
1005
123927
  0
LINE
  5
123A5F
  8
OBJECT
 10
2825.0
 20
-3779.9999999999991
 30
0.0
 11
2825.0
 21
-3999.9999999999968
 31
0.0
1001
ACDBBLOCKREPETAG
1070
     1
1071
       26
1005
123928
  0
LINE
  5
123A60
  8
OBJECT
 10
2975.0
 20
-3779.9999999999991
 30
0.0
 11
2975.0
 21
-3999.9999999999991
 31
0.0
1001
ACDBBLOCKREPETAG
1070
     1
1071
       34
1005
12392C
  0
LINE
  5
123AD2
  8
CENTER
 10
3579.9999999999991
 20
-3579.9999999999959
 30
0.0
 11
3410.0
 21
-3579.9999999999959
 31
0.0
1001
ACDBBLOCKREPETAG
1070
     1
1071
       14
1005
122545
  0
LINE
  5
123AD3
  8
CENTER
 10
3500.0
 20
-3669.9999999999968
 30
0.0
 11
3500.0
 21
-3489.9999999999968
 31
0.0
1001
ACDBBLOCKREPETAG
1070
     1
1071
       15
1005
122546
  0
CIRCLE
  5
123AD4
  8
OBJECT
 10
3500.0
 20
-3579.9999999999959
 30
0.0
 40
70.0
1001
ACDBBLOCKREPETAG
1070
     1
1071
       16
1005
122547
  0
CIRCLE
  5
123AD5
  8
OBJECT
 10
3500.0
 20
-3579.9999999999959
 30
0.0
 40
75.0
1001
ACDBBLOCKREPETAG
1070
     1
1071
       17
1005
122548
  0
LINE
  5
123ADD
  8
CENTER
 10
3500.0
 20
-3764.9999999999968
 30
0.0
 11
3500.0
 21
-4011.9999999999959
 31
0.0
1001
ACDBBLOCKREPETAG
1070
     1
1071
       25
1005
123927
  0
LINE
  5
123ADE
  8
OBJECT
 10
3424.9999999999991
 20
-3779.9999999999991
 30
0.0
 11
3424.9999999999991
 21
-3999.9999999999968
 31
0.0
1001
ACDBBLOCKREPETAG
1070
     1
1071
       26
1005
123928
  0
LINE
  5
123ADF
  8
OBJECT
 10
3574.9999999999991
 20
-3779.9999999999991
 30
0.0
 11
3574.9999999999991
 21
-3876.5000000000618
 31
0.0
1001
ACDBBLOCKREPETAG
1070
     1
1071
       34
1005
12392C
  0
LINE
  5
123AE0
  8
OBJECT
 10
3574.9999999999991
 20
-3982.4999999999991
 30
0.0
 11
3574.9999999999991
 21
-3999.9999999999968
 31
0.0
1001
ACDBBLOCKREPETAG
1070
     1
1071
       34
1005
12392C
  0
LINE
  5
123AE8
  8
CENTER
 10
3900.0
 20
-3764.9999999999968
 30
0.0
 11
3900.0
 21
-4011.9999999999959
 31
0.0
1001
ACDBBLOCKREPETAG
1070
     1
1071
       25
1005
123927
  0
LINE
  5
123AE9
  8
OBJECT
 10
3824.9999999999991
 20
-3779.9999999999991
 30
0.0
 11
3824.9999999999991
 21
-3999.9999999999968
 31
0.0
1001
ACDBBLOCKREPETAG
1070
     1
1071
       26
1005
123928
  0
LINE
  5
123AEA
  8
OBJECT
 10
3975.0
 20
-3779.9999999999991
 30
0.0
 11
3975.0
 21
-3999.9999999999991
 31
0.0
1001
ACDBBLOCKREPETAG
1070
     1
1071
       34
1005
12392C
  0
LINE
  5
123B38
  8
CENTER
 10
4579.9999999999991
 20
-3579.9999999999959
 30
0.0
 11
4409.9999999999991
 21
-3579.9999999999959
 31
0.0
1001
ACDBBLOCKREPETAG
1070
     1
1071
       14
1005
122545
  0
LINE
  5
123B39
  8
CENTER
 10
4499.9999999999991
 20
-3669.9999999999968
 30
0.0
 11
4499.9999999999991
 21
-3489.9999999999968
 31
0.0
1001
ACDBBLOCKREPETAG
1070
     1
1071
       15
1005
122546
  0
CIRCLE
  5
123B3A
  8
OBJECT
 10
4499.9999999999991
 20
-3579.9999999999959
 30
0.0
 40
70.0
1001
ACDBBLOCKREPETAG
1070
     1
1071
       16
1005
122547
  0
CIRCLE
  5
123B3B
  8
OBJECT
 10
4499.9999999999991
 20
-3579.9999999999959
 30
0.0
 40
75.0
1001
ACDBBLOCKREPETAG
1070
     1
1071
       17
1005
122548
  0
LINE
  5
123B43
  8
CENTER
 10
4500.0
 20
-3764.9999999999968
 30
0.0
 11
4500.0
 21
-4011.9999999999959
 31
0.0
1001
ACDBBLOCKREPETAG
1070
     1
1071
       25
1005
123927
  0
LINE
  5
123B44
  8
OBJECT
 10
4425.0
 20
-3779.9999999999991
 30
0.0
 11
4425.0
 21
-3999.9999999999968
 31
0.0
1001
ACDBBLOCKREPETAG
1070
     1
1071
       26
1005
123928
  0
LINE
  5
123B45
  8
OBJECT
 10
4575.0
 20
-3779.9999999999991
 30
0.0
 11
4575.0
 21
-3876.5000000000618
 31
0.0
1001
ACDBBLOCKREPETAG
1070
     1
1071
       34
1005
12392C
  0
LINE
  5
123B46
  8
OBJECT
 10
4575.0
 20
-3982.4999999999991
 30
0.0
 11
4575.0
 21
-3999.9999999999968
 31
0.0
1001
ACDBBLOCKREPETAG
1070
     1
1071
       34
1005
12392C
  0
LINE
  5
123B4E
  8
CENTER
 10
4900.0
 20
-3764.9999999999968
 30
0.0
 11
4900.0
 21
-4011.9999999999959
 31
0.0
1001
ACDBBLOCKREPETAG
1070
     1
1071
       25
1005
123927
  0
LINE
  5
123B4F
  8
OBJECT
 10
4825.0
 20
-3779.9999999999991
 30
0.0
 11
4825.0
 21
-3999.9999999999968
 31
0.0
1001
ACDBBLOCKREPETAG
1070
     1
1071
       26
1005
123928
  0
LINE
  5
123B50
  8
OBJECT
 10
4975.0
 20
-3779.9999999999991
 30
0.0
 11
4974.9999999999991
 21
-3999.9999999999991
 31
0.0
1001
ACDBBLOCKREPETAG
1070
     1
1071
       34
1005
12392C
  0
POINT
  5
124C02
  8
DOTS
 10
2500.0
 20
-3579.9999999999959
 30
0.0
  0
POINT
  5
124C03
  8
DOTS
 10
2500.0
 20
-3984.9999999999968
 30
0.0
  0
POINT
  5
124C05
  8
DOTS
 10
3500.0
 20
-3984.9999999999968
 30
0.0
  0
POINT
  5
124C07
  8
DOTS
 10
3500.0
 20
-3579.9999999999959
 30
0.0
  0
POINT
  5
124C08
  8
DOTS
 10
4499.9999999999991
 20
-3579.9999999999959
 30
0.0
  0
POINT
  5
124C09
  8
DOTS
 10
4499.9999999999991
 20
-3984.9999999999968
 30
0.0
  0
LINE
  5
12792E
  8
OBJECT
 10
12423.0
 20
-571.0
 30
0.0
 11
12423.0
 21
-550.0
 31
0.0
1001
ACDBBLOCKREPETAG
1070
     1
1071
        0
1005
12792E
  0
LINE
  5
12792F
  8
OBJECT
 10
12423.0
 20
-550.0
 30
0.0
 11
12577.0
 21
-550.0
 31
0.0
1001
ACDBBLOCKREPETAG
1070
     1
1071
        1
1005
12792F
  0
LINE
  5
127930
  8
HIDDEN
 10
12443.0
 20
-620.0
 30
0.0
 11
12557.0
 21
-620.0
 31
0.0
1001
ACDBBLOCKREPETAG
1070
     1
1071
        2
1005
127930
  0
LINE
  5
127931
  8
OBJECT
 10
12577.0
 20
-550.0
 30
0.0
 11
12577.0
 21
-571.0
 31
0.0
1001
ACDBBLOCKREPETAG
1070
     1
1071
        3
1005
127931
  0
LINE
  5
127932
  8
OBJECT
 10
12577.0
 20
-571.0
 30
0.0
 11
12423.0
 21
-571.0
 31
0.0
1001
ACDBBLOCKREPETAG
1070
     1
1071
        4
1005
127932
  0
LINE
  5
127933
  8
CENTER
 10
12500.0
 20
-535.0
 30
0.0
 11
12500.0
 21
-890.0
 31
0.0
1001
ACDBBLOCKREPETAG
1070
     1
1071
        5
1005
127933
  0
LINE
  5
127934
  8
OBJECT
 10
12425.0
 20
-634.0
 30
0.0
 11
12425.0
 21
-878.0
 31
0.0
1001
ACDBBLOCKREPETAG
1070
     1
1071
        6
1005
127934
  0
LINE
  5
127935
  8
OBJECT
 10
12428.0
 20
-571.0
 30
0.0
 11
12428.0
 21
-634.0
 31
0.0
1001
ACDBBLOCKREPETAG
1070
     1
1071
        7
1005
127935
  0
LINE
  5
127936
  8
OBJECT
 10
12572.0
 20
-634.0
 30
0.0
 11
12572.0
 21
-571.0
 31
0.0
1001
ACDBBLOCKREPETAG
1070
     1
1071
        8
1005
127936
  0
LINE
  5
127937
  8
OBJECT
 10
12420.0
 20
-878.0
 30
0.0
 11
12580.0
 21
-878.0
 31
0.0
1001
ACDBBLOCKREPETAG
1070
     1
1071
        9
1005
127937
  0
LINE
  5
127938
  8
OBJECT
 10
12580.0
 20
-634.0
 30
0.0
 11
12425.0
 21
-634.0
 31
0.0
1001
ACDBBLOCKREPETAG
1070
     1
1071
       10
1005
127938
  0
LINE
  5
127939
  8
OBJECT
 10
12420.0
 20
-878.0
 30
0.0
 11
12420.0
 21
-890.0
 31
0.0
1001
ACDBBLOCKREPETAG
1070
     1
1071
       11
1005
127939
  0
LINE
  5
12793A
  8
OBJECT
 10
12420.0
 20
-890.0
 30
0.0
 11
12580.0
 21
-890.0
 31
0.0
1001
ACDBBLOCKREPETAG
1070
     1
1071
       12
1005
12793A
  0
LINE
  5
12793B
  8
OBJECT
 10
12580.0
 20
-890.0
 30
0.0
 11
12580.0
 21
-878.0
 31
0.0
1001
ACDBBLOCKREPETAG
1070
     1
1071
       13
1005
12793B
  0
LINE
  5
12793C
  8
OBJECT
 10
12574.99999999986
 20
-757.99999999985096
 30
0.0
 11
12575.0
 21
-878.0
 31
0.0
1001
ACDBBLOCKREPETAG
1070
     1
1071
       15
1005
12793C
  0
LINE
  5
12793D
  8
OBJECT
 10
12574.999990802989
 20
-757.99998602702181
 30
0.0
 11
12580.0
 21
-757.99998602702181
 31
0.0
1001
ACDBBLOCKREPETAG
1070
     1
1071
       16
1005
12793D
  0
ARC
  5
12793E
  8
OBJECT
 10
12700.687274671671
 20
-749.40809941010752
 30
0.0
 40
170.6350503965856
 50
137.44134459184301
 51
149.91949581337221
1001
ACDBBLOCKREPETAG
1070
     1
1071
       17
1005
12793E
  0
ARC
  5
12793F
  8
OBJECT
 10
12618.845598704051
 20
-705.88272669536457
 30
0.0
 40
78.072222021763665
 50
147.4551531038623
 51
164.6636599771729
1001
ACDBBLOCKREPETAG
1070
     1
1071
       18
1005
12793F
  0
ARC
  5
127940
  8
OBJECT
 10
12585.755434960871
 20
-696.0
 30
0.0
 40
43.55353926885617
 50
165.688452300753
 51
194.3115476992468
1001
ACDBBLOCKREPETAG
1070
     1
1071
       19
1005
127940
  0
ARC
  5
127941
  8
OBJECT
 10
12700.687274671671
 20
-642.59190058989225
 30
0.0
 40
170.6350503965856
 50
210.08050418662771
 51
222.55865540815699
1001
ACDBBLOCKREPETAG
1070
     1
1071
       20
1005
127941
  0
ARC
  5
127942
  8
OBJECT
 10
12618.845598704051
 20
-686.11727330463521
 30
0.0
 40
78.072222021763665
 50
195.3363400228271
 51
212.5448468961377
1001
ACDBBLOCKREPETAG
1070
     1
1071
       21
1005
127942
  0
LINE
  5
127944
  8
OBJECT
 10
10423.0
 20
-571.0
 30
0.0
 11
10423.0
 21
-550.0
 31
0.0
1001
ACDBBLOCKREPETAG
1070
     1
1071
        0
1005
127944
  0
LINE
  5
127945
  8
OBJECT
 10
10423.0
 20
-550.0
 30
0.0
 11
10577.0
 21
-550.0
 31
0.0
1001
ACDBBLOCKREPETAG
1070
     1
1071
        1
1005
127945
  0
LINE
  5
127946
  8
HIDDEN
 10
10443.0
 20
-620.0
 30
0.0
 11
10557.0
 21
-620.0
 31
0.0
1001
ACDBBLOCKREPETAG
1070
     1
1071
        2
1005
127946
  0
LINE
  5
127947
  8
OBJECT
 10
10577.0
 20
-550.0
 30
0.0
 11
10577.0
 21
-571.0
 31
0.0
1001
ACDBBLOCKREPETAG
1070
     1
1071
        3
1005
127947
  0
LINE
  5
127948
  8
OBJECT
 10
10577.0
 20
-571.0
 30
0.0
 11
10423.0
 21
-571.0
 31
0.0
1001
ACDBBLOCKREPETAG
1070
     1
1071
        4
1005
127948
  0
LINE
  5
127949
  8
CENTER
 10
10500.0
 20
-535.0
 30
0.0
 11
10500.0
 21
-890.0
 31
0.0
1001
ACDBBLOCKREPETAG
1070
     1
1071
        5
1005
127949
  0
LINE
  5
12794A
  8
OBJECT
 10
10425.0
 20
-634.0
 30
0.0
 11
10425.0
 21
-878.0
 31
0.0
1001
ACDBBLOCKREPETAG
1070
     1
1071
        6
1005
12794A
  0
LINE
  5
12794B
  8
OBJECT
 10
10428.0
 20
-571.0
 30
0.0
 11
10428.0
 21
-634.0
 31
0.0
1001
ACDBBLOCKREPETAG
1070
     1
1071
        7
1005
12794B
  0
LINE
  5
12794C
  8
OBJECT
 10
10572.0
 20
-634.0
 30
0.0
 11
10572.0
 21
-571.0
 31
0.0
1001
ACDBBLOCKREPETAG
1070
     1
1071
        8
1005
12794C
  0
LINE
  5
12794D
  8
OBJECT
 10
10420.0
 20
-878.0
 30
0.0
 11
10580.0
 21
-878.0
 31
0.0
1001
ACDBBLOCKREPETAG
1070
     1
1071
        9
1005
12794D
  0
LINE
  5
12794E
  8
OBJECT
 10
10580.0
 20
-634.0
 30
0.0
 11
10425.0
 21
-634.0
 31
0.0
1001
ACDBBLOCKREPETAG
1070
     1
1071
       10
1005
12794E
  0
LINE
  5
12794F
  8
OBJECT
 10
10420.0
 20
-878.0
 30
0.0
 11
10420.0
 21
-890.0
 31
0.0
1001
ACDBBLOCKREPETAG
1070
     1
1071
       11
1005
12794F
  0
LINE
  5
127950
  8
OBJECT
 10
10420.0
 20
-890.0
 30
0.0
 11
10580.0
 21
-890.0
 31
0.0
1001
ACDBBLOCKREPETAG
1070
     1
1071
       12
1005
127950
  0
LINE
  5
127951
  8
OBJECT
 10
10580.0
 20
-890.0
 30
0.0
 11
10580.0
 21
-878.0
 31
0.0
1001
ACDBBLOCKREPETAG
1070
     1
1071
       13
1005
127951
  0
LINE
  5
127952
  8
OBJECT
 10
10574.99999999986
 20
-757.99999999985096
 30
0.0
 11
10575.0
 21
-878.0
 31
0.0
1001
ACDBBLOCKREPETAG
1070
     1
1071
       15
1005
127952
  0
LINE
  5
127953
  8
OBJECT
 10
10574.99999080298
 20
-757.99998602702181
 30
0.0
 11
10580.0
 21
-757.99998602702181
 31
0.0
1001
ACDBBLOCKREPETAG
1070
     1
1071
       16
1005
127953
  0
ARC
  5
127954
  8
OBJECT
 10
10700.687274671671
 20
-749.40809941010752
 30
0.0
 40
170.6350503965856
 50
137.44134459184301
 51
149.91949581337221
1001
ACDBBLOCKREPETAG
1070
     1
1071
       17
1005
127954
  0
ARC
  5
127955
  8
OBJECT
 10
10618.845598704051
 20
-705.88272669536457
 30
0.0
 40
78.072222021763665
 50
147.4551531038623
 51
164.6636599771729
1001
ACDBBLOCKREPETAG
1070
     1
1071
       18
1005
127955
  0
ARC
  5
127956
  8
OBJECT
 10
10585.755434960871
 20
-696.0
 30
0.0
 40
43.55353926885617
 50
165.688452300753
 51
194.3115476992468
1001
ACDBBLOCKREPETAG
1070
     1
1071
       19
1005
127956
  0
ARC
  5
127957
  8
OBJECT
 10
10700.687274671671
 20
-642.59190058989225
 30
0.0
 40
170.6350503965856
 50
210.08050418662771
 51
222.55865540815699
1001
ACDBBLOCKREPETAG
1070
     1
1071
       20
1005
127957
  0
ARC
  5
127958
  8
OBJECT
 10
10618.845598704051
 20
-686.11727330463521
 30
0.0
 40
78.072222021763665
 50
195.3363400228271
 51
212.5448468961377
1001
ACDBBLOCKREPETAG
1070
     1
1071
       21
1005
127958
  0
LINE
  5
12795A
  8
OBJECT
 10
8423.0
 20
-571.0
 30
0.0
 11
8423.0
 21
-550.0
 31
0.0
1001
ACDBBLOCKREPETAG
1070
     1
1071
        0
1005
12795A
  0
LINE
  5
12795B
  8
OBJECT
 10
8423.0
 20
-550.0
 30
0.0
 11
8577.0
 21
-550.0
 31
0.0
1001
ACDBBLOCKREPETAG
1070
     1
1071
        1
1005
12795B
  0
LINE
  5
12795C
  8
HIDDEN
 10
8443.0
 20
-620.0
 30
0.0
 11
8557.0
 21
-620.0
 31
0.0
1001
ACDBBLOCKREPETAG
1070
     1
1071
        2
1005
12795C
  0
LINE
  5
12795D
  8
OBJECT
 10
8577.0
 20
-550.0
 30
0.0
 11
8577.0
 21
-571.0
 31
0.0
1001
ACDBBLOCKREPETAG
1070
     1
1071
        3
1005
12795D
  0
LINE
  5
12795E
  8
OBJECT
 10
8577.0
 20
-571.0
 30
0.0
 11
8423.0
 21
-571.0
 31
0.0
1001
ACDBBLOCKREPETAG
1070
     1
1071
        4
1005
12795E
  0
LINE
  5
12795F
  8
CENTER
 10
8500.0
 20
-535.0
 30
0.0
 11
8500.0
 21
-890.0
 31
0.0
1001
ACDBBLOCKREPETAG
1070
     1
1071
        5
1005
12795F
  0
LINE
  5
127960
  8
OBJECT
 10
8425.0
 20
-634.0
 30
0.0
 11
8425.0
 21
-878.0
 31
0.0
1001
ACDBBLOCKREPETAG
1070
     1
1071
        6
1005
127960
  0
LINE
  5
127961
  8
OBJECT
 10
8428.0
 20
-571.0
 30
0.0
 11
8428.0
 21
-634.0
 31
0.0
1001
ACDBBLOCKREPETAG
1070
     1
1071
        7
1005
127961
  0
LINE
  5
127962
  8
OBJECT
 10
8572.0
 20
-634.0
 30
0.0
 11
8572.0
 21
-571.0
 31
0.0
1001
ACDBBLOCKREPETAG
1070
     1
1071
        8
1005
127962
  0
LINE
  5
127963
  8
OBJECT
 10
8420.0
 20
-878.0
 30
0.0
 11
8580.0
 21
-878.0
 31
0.0
1001
ACDBBLOCKREPETAG
1070
     1
1071
        9
1005
127963
  0
LINE
  5
127964
  8
OBJECT
 10
8580.0
 20
-634.0
 30
0.0
 11
8425.0
 21
-634.0
 31
0.0
1001
ACDBBLOCKREPETAG
1070
     1
1071
       10
1005
127964
  0
LINE
  5
127965
  8
OBJECT
 10
8420.0
 20
-878.0
 30
0.0
 11
8420.0
 21
-890.0
 31
0.0
1001
ACDBBLOCKREPETAG
1070
     1
1071
       11
1005
127965
  0
LINE
  5
127966
  8
OBJECT
 10
8420.0
 20
-890.0
 30
0.0
 11
8580.0
 21
-890.0
 31
0.0
1001
ACDBBLOCKREPETAG
1070
     1
1071
       12
1005
127966
  0
LINE
  5
127967
  8
OBJECT
 10
8580.0
 20
-890.0
 30
0.0
 11
8580.0
 21
-878.0
 31
0.0
1001
ACDBBLOCKREPETAG
1070
     1
1071
       13
1005
127967
  0
LINE
  5
127968
  8
OBJECT
 10
8574.9999999998618
 20
-757.99999999985096
 30
0.0
 11
8575.0
 21
-878.0
 31
0.0
1001
ACDBBLOCKREPETAG
1070
     1
1071
       15
1005
127968
  0
LINE
  5
127969
  8
OBJECT
 10
8574.9999908029858
 20
-757.99998602702181
 30
0.0
 11
8580.0
 21
-757.99998602702181
 31
0.0
1001
ACDBBLOCKREPETAG
1070
     1
1071
       16
1005
127969
  0
ARC
  5
12796A
  8
OBJECT
 10
8700.6872746716726
 20
-749.40809941010752
 30
0.0
 40
170.6350503965856
 50
137.44134459184301
 51
149.91949581337221
1001
ACDBBLOCKREPETAG
1070
     1
1071
       17
1005
12796A
  0
ARC
  5
12796B
  8
OBJECT
 10
8618.8455987040506
 20
-705.88272669536457
 30
0.0
 40
78.072222021763665
 50
147.4551531038623
 51
164.6636599771729
1001
ACDBBLOCKREPETAG
1070
     1
1071
       18
1005
12796B
  0
ARC
  5
12796C
  8
OBJECT
 10
8585.7554349608708
 20
-696.0
 30
0.0
 40
43.55353926885617
 50
165.688452300753
 51
194.3115476992468
1001
ACDBBLOCKREPETAG
1070
     1
1071
       19
1005
12796C
  0
ARC
  5
12796D
  8
OBJECT
 10
8700.6872746716726
 20
-642.59190058989225
 30
0.0
 40
170.6350503965856
 50
210.08050418662771
 51
222.55865540815699
1001
ACDBBLOCKREPETAG
1070
     1
1071
       20
1005
12796D
  0
ARC
  5
12796E
  8
OBJECT
 10
8618.8455987040506
 20
-686.11727330463521
 30
0.0
 40
78.072222021763665
 50
195.3363400228271
 51
212.5448468961377
1001
ACDBBLOCKREPETAG
1070
     1
1071
       21
1005
12796E
  0
LINE
  5
127970
  8
OBJECT
 10
6423.0
 20
-571.0
 30
0.0
 11
6423.0
 21
-550.0
 31
0.0
1001
ACDBBLOCKREPETAG
1070
     1
1071
        0
1005
127970
  0
LINE
  5
127971
  8
OBJECT
 10
6423.0
 20
-550.0
 30
0.0
 11
6577.0
 21
-550.0
 31
0.0
1001
ACDBBLOCKREPETAG
1070
     1
1071
        1
1005
127971
  0
LINE
  5
127972
  8
HIDDEN
 10
6443.0
 20
-620.0
 30
0.0
 11
6557.0
 21
-620.0
 31
0.0
1001
ACDBBLOCKREPETAG
1070
     1
1071
        2
1005
127972
  0
LINE
  5
127973
  8
OBJECT
 10
6577.0
 20
-550.0
 30
0.0
 11
6577.0
 21
-571.0
 31
0.0
1001
ACDBBLOCKREPETAG
1070
     1
1071
        3
1005
127973
  0
LINE
  5
127974
  8
OBJECT
 10
6577.0
 20
-571.0
 30
0.0
 11
6423.0
 21
-571.0
 31
0.0
1001
ACDBBLOCKREPETAG
1070
     1
1071
        4
1005
127974
  0
LINE
  5
127975
  8
CENTER
 10
6500.0
 20
-535.0
 30
0.0
 11
6500.0
 21
-890.0
 31
0.0
1001
ACDBBLOCKREPETAG
1070
     1
1071
        5
1005
127975
  0
LINE
  5
127976
  8
OBJECT
 10
6425.0
 20
-634.0
 30
0.0
 11
6425.0
 21
-878.0
 31
0.0
1001
ACDBBLOCKREPETAG
1070
     1
1071
        6
1005
127976
  0
LINE
  5
127977
  8
OBJECT
 10
6428.0
 20
-571.0
 30
0.0
 11
6428.0
 21
-634.0
 31
0.0
1001
ACDBBLOCKREPETAG
1070
     1
1071
        7
1005
127977
  0
LINE
  5
127978
  8
OBJECT
 10
6572.0
 20
-634.0
 30
0.0
 11
6572.0
 21
-571.0
 31
0.0
1001
ACDBBLOCKREPETAG
1070
     1
1071
        8
1005
127978
  0
LINE
  5
127979
  8
OBJECT
 10
6420.0
 20
-878.0
 30
0.0
 11
6580.0
 21
-878.0
 31
0.0
1001
ACDBBLOCKREPETAG
1070
     1
1071
        9
1005
127979
  0
LINE
  5
12797A
  8
OBJECT
 10
6580.0
 20
-634.0
 30
0.0
 11
6425.0
 21
-634.0
 31
0.0
1001
ACDBBLOCKREPETAG
1070
     1
1071
       10
1005
12797A
  0
LINE
  5
12797B
  8
OBJECT
 10
6420.0
 20
-878.0
 30
0.0
 11
6420.0
 21
-890.0
 31
0.0
1001
ACDBBLOCKREPETAG
1070
     1
1071
       11
1005
12797B
  0
LINE
  5
12797C
  8
OBJECT
 10
6420.0
 20
-890.0
 30
0.0
 11
6580.0
 21
-890.0
 31
0.0
1001
ACDBBLOCKREPETAG
1070
     1
1071
       12
1005
12797C
  0
LINE
  5
12797D
  8
OBJECT
 10
6580.0
 20
-890.0
 30
0.0
 11
6580.0
 21
-878.0
 31
0.0
1001
ACDBBLOCKREPETAG
1070
     1
1071
       13
1005
12797D
  0
LINE
  5
12797E
  8
OBJECT
 10
6574.9999999998618
 20
-757.99999999985096
 30
0.0
 11
6575.0
 21
-878.0
 31
0.0
1001
ACDBBLOCKREPETAG
1070
     1
1071
       15
1005
12797E
  0
LINE
  5
12797F
  8
OBJECT
 10
6574.9999908029858
 20
-757.99998602702181
 30
0.0
 11
6580.0
 21
-757.99998602702181
 31
0.0
1001
ACDBBLOCKREPETAG
1070
     1
1071
       16
1005
12797F
  0
ARC
  5
127980
  8
OBJECT
 10
6700.6872746716717
 20
-749.40809941010752
 30
0.0
 40
170.6350503965856
 50
137.44134459184301
 51
149.91949581337221
1001
ACDBBLOCKREPETAG
1070
     1
1071
       17
1005
127980
  0
ARC
  5
127981
  8
OBJECT
 10
6618.8455987040506
 20
-705.88272669536457
 30
0.0
 40
78.072222021763665
 50
147.4551531038623
 51
164.66365997718671
1001
ACDBBLOCKREPETAG
1070
     1
1071
       18
1005
127981
  0
ARC
  5
127982
  8
OBJECT
 10
6585.7554349608727
 20
-696.0
 30
0.0
 40
43.55353926885617
 50
165.688452300753
 51
194.3115476992468
1001
ACDBBLOCKREPETAG
1070
     1
1071
       19
1005
127982
  0
ARC
  5
127983
  8
OBJECT
 10
6700.6872746716717
 20
-642.59190058989225
 30
0.0
 40
170.6350503965856
 50
210.08050418662771
 51
222.55865540815699
1001
ACDBBLOCKREPETAG
1070
     1
1071
       20
1005
127983
  0
ARC
  5
127984
  8
OBJECT
 10
6618.8455987040506
 20
-686.11727330463521
 30
0.0
 40
78.072222021763665
 50
195.33634002281309
 51
212.5448468961377
1001
ACDBBLOCKREPETAG
1070
     1
1071
       21
1005
127984
  0
LINE
  5
127986
  8
OBJECT
 10
4423.0
 20
-571.0
 30
0.0
 11
4423.0
 21
-550.0
 31
0.0
1001
ACDBBLOCKREPETAG
1070
     1
1071
        0
1005
127986
  0
LINE
  5
127987
  8
OBJECT
 10
4423.0
 20
-550.0
 30
0.0
 11
4577.0
 21
-550.0
 31
0.0
1001
ACDBBLOCKREPETAG
1070
     1
1071
        1
1005
127987
  0
LINE
  5
127988
  8
HIDDEN
 10
4443.0
 20
-620.0
 30
0.0
 11
4557.0
 21
-620.0
 31
0.0
1001
ACDBBLOCKREPETAG
1070
     1
1071
        2
1005
127988
  0
LINE
  5
127989
  8
OBJECT
 10
4577.0
 20
-550.0
 30
0.0
 11
4577.0
 21
-571.0
 31
0.0
1001
ACDBBLOCKREPETAG
1070
     1
1071
        3
1005
127989
  0
LINE
  5
12798A
  8
OBJECT
 10
4577.0
 20
-571.0
 30
0.0
 11
4423.0
 21
-571.0
 31
0.0
1001
ACDBBLOCKREPETAG
1070
     1
1071
        4
1005
12798A
  0
LINE
  5
12798B
  8
CENTER
 10
4500.0
 20
-535.0
 30
0.0
 11
4500.0
 21
-890.0
 31
0.0
1001
ACDBBLOCKREPETAG
1070
     1
1071
        5
1005
12798B
  0
LINE
  5
12798C
  8
OBJECT
 10
4425.0
 20
-634.0
 30
0.0
 11
4425.0
 21
-878.0
 31
0.0
1001
ACDBBLOCKREPETAG
1070
     1
1071
        6
1005
12798C
  0
LINE
  5
12798D
  8
OBJECT
 10
4428.0
 20
-571.0
 30
0.0
 11
4428.0
 21
-634.0
 31
0.0
1001
ACDBBLOCKREPETAG
1070
     1
1071
        7
1005
12798D
  0
LINE
  5
12798E
  8
OBJECT
 10
4572.0
 20
-634.0
 30
0.0
 11
4572.0
 21
-571.0
 31
0.0
1001
ACDBBLOCKREPETAG
1070
     1
1071
        8
1005
12798E
  0
LINE
  5
12798F
  8
OBJECT
 10
4420.0
 20
-878.0
 30
0.0
 11
4580.0
 21
-878.0
 31
0.0
1001
ACDBBLOCKREPETAG
1070
     1
1071
        9
1005
12798F
  0
LINE
  5
127990
  8
OBJECT
 10
4580.0
 20
-634.0
 30
0.0
 11
4425.0
 21
-634.0
 31
0.0
1001
ACDBBLOCKREPETAG
1070
     1
1071
       10
1005
127990
  0
LINE
  5
127991
  8
OBJECT
 10
4420.0
 20
-878.0
 30
0.0
 11
4420.0
 21
-890.0
 31
0.0
1001
ACDBBLOCKREPETAG
1070
     1
1071
       11
1005
127991
  0
LINE
  5
127992
  8
OBJECT
 10
4420.0
 20
-890.0
 30
0.0
 11
4580.0
 21
-890.0
 31
0.0
1001
ACDBBLOCKREPETAG
1070
     1
1071
       12
1005
127992
  0
LINE
  5
127993
  8
OBJECT
 10
4580.0
 20
-890.0
 30
0.0
 11
4580.0
 21
-878.0
 31
0.0
1001
ACDBBLOCKREPETAG
1070
     1
1071
       13
1005
127993
  0
LINE
  5
127994
  8
OBJECT
 10
4574.9999999998618
 20
-757.99999999985096
 30
0.0
 11
4575.0
 21
-878.0
 31
0.0
1001
ACDBBLOCKREPETAG
1070
     1
1071
       15
1005
127994
  0
LINE
  5
127995
  8
OBJECT
 10
4574.9999908029849
 20
-757.99998602702181
 30
0.0
 11
4580.0
 21
-757.99998602702181
 31
0.0
1001
ACDBBLOCKREPETAG
1070
     1
1071
       16
1005
127995
  0
ARC
  5
127996
  8
OBJECT
 10
4700.6872746716726
 20
-749.40809941010752
 30
0.0
 40
170.6350503965856
 50
137.44134459184301
 51
149.91949581337221
1001
ACDBBLOCKREPETAG
1070
     1
1071
       17
1005
127996
  0
ARC
  5
127997
  8
OBJECT
 10
4618.8455987040506
 20
-705.88272669536457
 30
0.0
 40
78.072222021763665
 50
147.4551531038623
 51
164.66365997718671
1001
ACDBBLOCKREPETAG
1070
     1
1071
       18
1005
127997
  0
ARC
  5
127998
  8
OBJECT
 10
4585.7554349608718
 20
-696.0
 30
0.0
 40
43.55353926885617
 50
165.688452300753
 51
194.3115476992468
1001
ACDBBLOCKREPETAG
1070
     1
1071
       19
1005
127998
  0
ARC
  5
127999
  8
OBJECT
 10
4700.6872746716726
 20
-642.59190058989225
 30
0.0
 40
170.6350503965856
 50
210.08050418662771
 51
222.55865540815699
1001
ACDBBLOCKREPETAG
1070
     1
1071
       20
1005
127999
  0
ARC
  5
12799A
  8
OBJECT
 10
4618.8455987040506
 20
-686.11727330463521
 30
0.0
 40
78.072222021763665
 50
195.33634002281309
 51
212.5448468961377
1001
ACDBBLOCKREPETAG
1070
     1
1071
       21
1005
12799A
  0
LINE
  5
12799C
  8
OBJECT
 10
2423.0
 20
-571.0
 30
0.0
 11
2423.0
 21
-550.0
 31
0.0
1001
ACDBBLOCKREPETAG
1070
     1
1071
        0
1005
12799C
  0
LINE
  5
12799D
  8
OBJECT
 10
2423.0
 20
-550.0
 30
0.0
 11
2577.0
 21
-550.0
 31
0.0
1001
ACDBBLOCKREPETAG
1070
     1
1071
        1
1005
12799D
  0
LINE
  5
12799E
  8
HIDDEN
 10
2443.0
 20
-620.0
 30
0.0
 11
2557.0
 21
-620.0
 31
0.0
1001
ACDBBLOCKREPETAG
1070
     1
1071
        2
1005
12799E
  0
LINE
  5
12799F
  8
OBJECT
 10
2577.0
 20
-550.0
 30
0.0
 11
2577.0
 21
-571.0
 31
0.0
1001
ACDBBLOCKREPETAG
1070
     1
1071
        3
1005
12799F
  0
LINE
  5
1279A0
  8
OBJECT
 10
2577.0
 20
-571.0
 30
0.0
 11
2423.0
 21
-571.0
 31
0.0
1001
ACDBBLOCKREPETAG
1070
     1
1071
        4
1005
1279A0
  0
LINE
  5
1279A1
  8
CENTER
 10
2500.0
 20
-535.0
 30
0.0
 11
2500.0
 21
-890.0
 31
0.0
1001
ACDBBLOCKREPETAG
1070
     1
1071
        5
1005
1279A1
  0
LINE
  5
1279A2
  8
OBJECT
 10
2425.0
 20
-634.0
 30
0.0
 11
2425.0
 21
-878.0
 31
0.0
1001
ACDBBLOCKREPETAG
1070
     1
1071
        6
1005
1279A2
  0
LINE
  5
1279A3
  8
OBJECT
 10
2428.0
 20
-571.0
 30
0.0
 11
2428.0
 21
-634.0
 31
0.0
1001
ACDBBLOCKREPETAG
1070
     1
1071
        7
1005
1279A3
  0
LINE
  5
1279A4
  8
OBJECT
 10
2572.0
 20
-634.0
 30
0.0
 11
2572.0
 21
-571.0
 31
0.0
1001
ACDBBLOCKREPETAG
1070
     1
1071
        8
1005
1279A4
  0
LINE
  5
1279A5
  8
OBJECT
 10
2420.0
 20
-878.0
 30
0.0
 11
2580.0
 21
-878.0
 31
0.0
1001
ACDBBLOCKREPETAG
1070
     1
1071
        9
1005
1279A5
  0
LINE
  5
1279A6
  8
OBJECT
 10
2580.0
 20
-634.0
 30
0.0
 11
2425.0
 21
-634.0
 31
0.0
1001
ACDBBLOCKREPETAG
1070
     1
1071
       10
1005
1279A6
  0
LINE
  5
1279A7
  8
OBJECT
 10
2420.0
 20
-878.0
 30
0.0
 11
2420.0
 21
-890.0
 31
0.0
1001
ACDBBLOCKREPETAG
1070
     1
1071
       11
1005
1279A7
  0
LINE
  5
1279A8
  8
OBJECT
 10
2420.0
 20
-890.0
 30
0.0
 11
2580.0
 21
-890.0
 31
0.0
1001
ACDBBLOCKREPETAG
1070
     1
1071
       12
1005
1279A8
  0
LINE
  5
1279A9
  8
OBJECT
 10
2580.0
 20
-890.0
 30
0.0
 11
2580.0
 21
-878.0
 31
0.0
1001
ACDBBLOCKREPETAG
1070
     1
1071
       13
1005
1279A9
  0
LINE
  5
1279AA
  8
OBJECT
 10
2574.9999999998622
 20
-757.99999999985096
 30
0.0
 11
2575.0
 21
-878.0
 31
0.0
1001
ACDBBLOCKREPETAG
1070
     1
1071
       15
1005
1279AA
  0
LINE
  5
1279AB
  8
OBJECT
 10
2574.9999908029849
 20
-757.99998602702181
 30
0.0
 11
2580.0
 21
-757.99998602702181
 31
0.0
1001
ACDBBLOCKREPETAG
1070
     1
1071
       16
1005
1279AB
  0
ARC
  5
1279AC
  8
OBJECT
 10
2700.6872746716731
 20
-749.40809941010752
 30
0.0
 40
170.6350503965856
 50
137.44134459184301
 51
149.91949581337221
1001
ACDBBLOCKREPETAG
1070
     1
1071
       17
1005
1279AC
  0
ARC
  5
1279AD
  8
OBJECT
 10
2618.8455987040511
 20
-705.88272669536457
 30
0.0
 40
78.072222021763665
 50
147.4551531038623
 51
164.6636599771798
1001
ACDBBLOCKREPETAG
1070
     1
1071
       18
1005
1279AD
  0
ARC
  5
1279AE
  8
OBJECT
 10
2585.7554349608731
 20
-696.0
 30
0.0
 40
43.55353926885617
 50
165.6884523007466
 51
194.3115476992534
1001
ACDBBLOCKREPETAG
1070
     1
1071
       19
1005
1279AE
  0
ARC
  5
1279AF
  8
OBJECT
 10
2700.6872746716731
 20
-642.59190058989225
 30
0.0
 40
170.6350503965856
 50
210.08050418662771
 51
222.55865540815699
1001
ACDBBLOCKREPETAG
1070
     1
1071
       20
1005
1279AF
  0
ARC
  5
1279B0
  8
OBJECT
 10
2618.8455987040511
 20
-686.11727330463521
 30
0.0
 40
78.072222021763665
 50
195.3363400228202
 51
212.5448468961377
1001
ACDBBLOCKREPETAG
1070
     1
1071
       21
1005
1279B0
  0
TEXT
  5
1279B2
  8
SLIM
 10
12032.5
 20
-2095.3333599999969
 30
0.0
 40
28.0
  1
※ 対応P寸法　　310＜320＞～440（10mm単位。＜＞内は下枝75の場合）
 41
0.75
  0
TEXT
  5
1279B3
  8
SLIM
 10
12033.304
 20
-2142.000026666663
 30
0.0
 40
28.0
  1
※ 対応スラブ厚　150～（720-P）
 41
0.75
  0
TEXT
  5
1279B4
  8
SLIM
 10
12098.9
 20
-2213.9999733333289
 30
0.0
 40
28.0
  1
国土交通大臣認定・（一財）日本消防設備安全センター性能評定取得品
 41
0.75
  0
TEXT
  5
1279B5
  8
SLIM
 10
12131.1
 20
-2260.6666399999958
 30
0.0
 40
28.0
  1
注）ご採用にあたり、認定書及び評定書の内容をご確認ください。
 41
0.75
  0
TEXT
  5
1279B6
  8
SLIM
 10
10032.5
 20
-2095.3333599999969
 30
0.0
 40
28.0
  1
※ 対応P寸法　　310＜320＞～440（10mm単位。＜＞内は下枝75の場合）
 41
0.75
  0
TEXT
  5
1279B7
  8
SLIM
 10
10033.304
 20
-2142.000026666663
 30
0.0
 40
28.0
  1
※ 対応スラブ厚　180～（720-P）
 41
0.75
  0
TEXT
  5
1279B8
  8
SLIM
 10
10098.9
 20
-2213.9999733333289
 30
0.0
 40
28.0
  1
国土交通大臣認定・（一財）日本消防設備安全センター性能評定取得品
 41
0.75
  0
TEXT
  5
1279B9
  8
SLIM
 10
10131.1
 20
-2260.6666399999958
 30
0.0
 40
28.0
  1
注）ご採用にあたり、認定書及び評定書の内容をご確認ください。
 41
0.75
  0
TEXT
  5
1279BA
  8
SLIM
 10
6026.9000000000005
 20
-2136.3333600000001
 30
0.0
 40
28.0
  1
 ※ 対応P寸法　　310＜320＞～460（10mm単位。＜＞内は下枝75の場合）
 41
0.75
  0
TEXT
  5
1279BB
  8
SLIM
 10
6035.8040000000001
 20
-2183.0000266666661
 30
0.0
 40
28.0
  1
※ 対応スラブ厚　150mm以上
 41
0.75
  0
TEXT
  5
1279BC
  8
SLIM
 10
6098.8999999999996
 20
-2254.9999733333329
 30
0.0
 40
28.0
  1
国土交通大臣認定・（一財）日本消防設備安全センター性能評定取得品
 41
0.75
  0
TEXT
  5
1279BD
  8
SLIM
 10
6131.1000000000004
 20
-2301.666639999999
 30
0.0
 40
28.0
  1
注）ご採用にあたり、認定書及び評定書の内容をご確認ください。
 41
0.75
  0
TEXT
  5
1279BE
  8
SLIM
 10
4032.5
 20
-2102.9999999999968
 30
0.0
 40
28.0
  1
※ 対応P寸法　　310＜320＞～460（10mm単位。＜＞内は下枝75の場合）
 41
0.75
  0
TEXT
  5
1279BF
  8
SLIM
 10
2032.5
 20
-1828.999999999998
 30
0.0
 40
28.0
  1
※ 対応P寸法　　310＜320＞～460（10mm単位。＜＞内は下枝75の場合）
 41
0.75
  0
TEXT
  5
1279C0
  8
SLIM
 10
8178.4999999999973
 20
-1823.000026666665
 30
0.0
 40
28.0
  1
※ 対応P寸法　　310＜320＞～440（10mm単位）
 41
0.75
  0
TEXT
  5
1279C1
  8
SLIM
 10
8176.0998000000018
 20
-1869.666693333332
 30
0.0
 40
28.0
  1
※ 対応スラブ厚　180｛150｝～（680-P）
 41
0.75
  0
TEXT
  5
1279C2
  8
SLIM
 10
8211.8999999999978
 20
-1916.3333599999989
 30
0.0
 40
28.0
  1
＜＞内は下枝75、｛｝内はカンペイ立て管との組み合わせの場合
 41
0.75
  0
TEXT
  5
1279C3
  8
SLIM
 10
8098.8999999999978
 20
-1988.3333066666651
 30
0.0
 40
28.0
  1
国土交通大臣認定・（一財）日本消防設備安全センター性能評定取得品
 41
0.75
  0
TEXT
  5
1279C4
  8
SLIM
 10
8131.1000000000013
 20
-2034.9999733333329
 30
0.0
 40
28.0
  1
注）ご採用にあたり、認定書及び評定書の内容をご確認ください。
 41
0.75
  0
TEXT
  5
1279C5
  8
SLIM
 10
4353.75
 20
-2026.4999999999959
 30
0.0
 40
35.0
  1
両受けスタイル（W）
 41
0.75
  0
TEXT
  5
1279C6
  8
SLIM
 10
10239.125
 20
-2026.4999999999959
 30
0.0
 40
35.0
  1
両受けスタイル（W）＋シンドカット
 41
0.75
  0
TEXT
  5
1279C7
  8
SLIM
 10
12243.5
 20
-2026.4999999999959
 30
0.0
 40
35.0
  1
カンペイ君（WKP）＋シンドカット
 41
0.75
  0
TEXT
  5
1279C8
  8
SLIM
 10
8241.625
 20
-1752.499999999998
 30
0.0
 40
35.0
  1
片受けスタイル（S）＋シンドカット
 41
0.75
  0
TEXT
  5
1279C9
  8
SLIM
 10
6358.1250000000009
 20
-2067.5
 30
0.0
 40
35.0
  1
カンペイ君（WKP）
 41
0.75
  0
TEXT
  5
1279CA
  8
SLIM
 10
2356.25
 20
-1752.499999999998
 30
0.0
 40
35.0
  1
片受けスタイル（S）
 41
0.75
  0
LINE
  5
1279CB
  8
OBJECT
 10
118.0
 20
-1362.9999999999991
 30
0.0
 11
118.0
 21
-1355.9999999999991
 31
0.0
1001
ACDBBLOCKREPETAG
1070
     1
1071
       34
1005
1279CB
  0
LINE
  5
1279CC
  8
OBJECT
 10
118.0
 20
-1355.9999999999991
 30
0.0
 11
242.0
 21
-1355.9999999999991
 31
0.0
1001
ACDBBLOCKREPETAG
1070
     1
1071
       35
1005
1279CC
  0
LINE
  5
1279CD
  8
OBJECT
 10
242.0
 20
-1355.9999999999991
 30
0.0
 11
242.0
 21
-1362.9999999999991
 31
0.0
1001
ACDBBLOCKREPETAG
1070
     1
1071
       36
1005
1279CD
  0
LINE
  5
1279CE
  8
OBJECT
 10
242.0
 20
-1362.9999999999991
 30
0.0
 11
118.0
 21
-1362.9999999999991
 31
0.0
1001
ACDBBLOCKREPETAG
1070
     1
1071
       37
1005
1279CE
  0
LINE
  5
1279CF
  8
OBJECT
 10
121.0
 20
-1362.9999999999991
 30
0.0
 11
121.0
 21
-1398.9999999999991
 31
0.0
1001
ACDBBLOCKREPETAG
1070
     1
1071
       38
1005
1279CF
  0
LINE
  5
1279D0
  8
OBJECT
 10
121.0
 20
-1398.9999999999991
 30
0.0
 11
239.0
 21
-1398.9999999999991
 31
0.0
1001
ACDBBLOCKREPETAG
1070
     1
1071
       39
1005
1279D0
  0
LINE
  5
1279D1
  8
OBJECT
 10
239.0
 20
-1398.9999999999991
 30
0.0
 11
239.0
 21
-1362.9999999999991
 31
0.0
1001
ACDBBLOCKREPETAG
1070
     1
1071
       40
1005
1279D1
  0
LINE
  5
1279D2
  8
OBJECT
 10
125.5
 20
-1402.9999999999991
 30
0.0
 11
125.5
 21
-1413.4999999999991
 31
0.0
1001
ACDBBLOCKREPETAG
1070
     1
1071
       41
1005
1279D2
  0
LINE
  5
1279D3
  8
OBJECT
 10
234.5
 20
-1413.4999999999991
 30
0.0
 11
234.5
 21
-1402.9999999999991
 31
0.0
1001
ACDBBLOCKREPETAG
1070
     1
1071
       42
1005
1279D3
  0
LINE
  5
1279D4
  8
OBJECT
 10
234.5
 20
-1402.9999999999991
 30
0.0
 11
125.5
 21
-1402.9999999999991
 31
0.0
1001
ACDBBLOCKREPETAG
1070
     1
1071
       43
1005
1279D4
  0
LINE
  5
1279D5
  8
OBJECT
 10
121.0
 20
-1398.9999999999991
 30
0.0
 11
125.5
 21
-1402.9999999999991
 31
0.0
1001
ACDBBLOCKREPETAG
1070
     1
1071
       44
1005
1279D5
  0
LINE
  5
1279D6
  8
OBJECT
 10
239.0
 20
-1398.9999999999991
 30
0.0
 11
234.5
 21
-1402.9999999999991
 31
0.0
1001
ACDBBLOCKREPETAG
1070
     1
1071
       45
1005
1279D6
  0
LINE
  5
1279D7
  8
OBJECT
 10
130.5
 20
-1418.4999999999991
 30
0.0
 11
130.50000000000091
 21
-1439.65508008702
 31
0.0
1001
ACDBBLOCKREPETAG
1070
     1
1071
       46
1005
1279D7
  0
LINE
  5
1279D8
  8
OBJECT
 10
229.5
 20
-1418.4999999999991
 30
0.0
 11
229.5
 21
-1439.6550800870209
 31
0.0
1001
ACDBBLOCKREPETAG
1070
     1
1071
       47
1005
1279D8
  0
LINE
  5
1279D9
  8
OBJECT
 10
125.5
 20
-1413.4999999999991
 30
0.0
 11
234.5
 21
-1413.4999999999991
 31
0.0
1001
ACDBBLOCKREPETAG
1070
     1
1071
       48
1005
1279D9
  0
LINE
  5
1279DA
  8
OBJECT
 10
130.5
 20
-1418.4999999999991
 30
0.0
 11
229.5
 21
-1418.4999999999991
 31
0.0
1001
ACDBBLOCKREPETAG
1070
     1
1071
       49
1005
1279DA
  0
LINE
  5
1279DB
  8
OBJECT
 10
125.5
 20
-1413.4999999999991
 30
0.0
 11
130.5
 21
-1418.4999999999991
 31
0.0
1001
ACDBBLOCKREPETAG
1070
     1
1071
       50
1005
1279DB
  0
LINE
  5
1279DC
  8
OBJECT
 10
229.5
 20
-1418.4999999999991
 30
0.0
 11
234.49999999999639
 21
-1413.4999999999991
 31
0.0
1001
ACDBBLOCKREPETAG
1070
     1
1071
       51
1005
1279DC
  0
INSERT
  5
1279DD
  8
SLIM
  2
*U3
 10
0.0
 20
0.0
 30
0.0
  0
LINE
  5
1279DE
  8
HIDDEN
 10
135.5
 20
-1407.9999999999991
 30
0.0
 11
224.5
 21
-1407.9999999999991
 31
0.0
1001
ACDBBLOCKREPETAG
1070
     1
1071
       65
1005
1279DE
  0
ARC
  5
1279DF
  8
OBJECT
 10
180.0
 20
-1495.9999999999991
 30
0.0
 40
50.0
 50
28.81994300016834
 51
318.52376955954998
1001
ACDBBLOCKREPETAG
1070
     1
1071
       49
1005
1279DF
  0
CIRCLE
  5
1279E0
  8
OBJECT
 10
180.0
 20
-1495.9999999999991
 30
0.0
 40
70.0
1001
ACDBBLOCKREPETAG
1070
     1
1071
       50
1005
1279E0
  0
CIRCLE
  5
1279E1
  8
OBJECT
 10
180.0
 20
-1495.9999999999991
 30
0.0
 40
75.0
1001
ACDBBLOCKREPETAG
1070
     1
1071
       51
1005
1279E1
  0
POINT
  5
1279E2
  8
DOTS
 10
180.0
 20
-1495.9999999999991
 30
0.0
1001
ACDBBLOCKREPETAG
1070
     1
1071
       63
1005
1279E2
  0
LINE
  5
1279E3
  8
OBJECT
 10
223.80694712371769
 20
-1471.897066906698
 30
0.0
 11
212.5546219999996
 21
-1475.340343000003
 31
0.0
1001
ACDBBLOCKREPETAG
1070
     1
1071
      141
1005
1279E3
  0
LINE
  5
1279E4
  8
OBJECT
 10
198.22553374207919
 20
-1509.2072500986239
 30
0.0
 11
212.55462199999599
 21
-1475.340343000003
 31
0.0
1001
ACDBBLOCKREPETAG
1070
     1
1071
      143
1005
1279E4
  0
ARC
  5
1279E5
  8
OBJECT
 10
207.4351299990594
 20
-1513.103830238098
 30
0.0
 40
10.0
 50
157.06677829292309
 51
244.01473437026289
1001
ACDBBLOCKREPETAG
1070
     1
1071
      144
1005
1279E5
  0
ARC
  5
1279E6
  8
OBJECT
 10
205.5538625672925
 20
-1509.851160961872
 30
0.0
 40
7.0
 50
157.06677829292309
 51
244.01473377502219
1001
ACDBBLOCKREPETAG
1070
     1
1071
      145
1005
1279E6
  0
LINE
  5
1279E7
  8
OBJECT
 10
238.86769720860229
 20
-1533.876037614252
 30
0.0
 11
202.48688253356889
 21
-1516.143508176762
 31
0.0
1001
ACDBBLOCKREPETAG
1070
     1
1071
      154
1005
1279E7
  0
LINE
  5
1279E8
  8
OBJECT
 10
235.9167324445028
 20
-1538.1107947292589
 30
0.0
 11
203.05373004431021
 21
-1522.0928977334911
 31
0.0
1001
ACDBBLOCKREPETAG
1070
     1
1071
      155
1005
1279E8
  0
ARC
  5
1279E9
  8
OBJECT
 10
184.75760589857131
 20
-1522.273755513954
 30
0.0
 40
63.739013211305632
 50
8.1694378253172513
 51
52.219052524698952
1001
ACDBBLOCKREPETAG
1070
     1
1071
      156
1005
1279E9
  0
LINE
  5
1279EA
  8
OBJECT
 10
485.0
 20
-898.99999999999943
 30
0.0
 11
485.0
 21
-891.9999999999992
 31
0.0
1001
ACDBBLOCKREPETAG
1070
     1
1071
       18
1005
1279EA
  0
LINE
  5
1279EB
  8
OBJECT
 10
485.0
 20
-891.9999999999992
 30
0.0
 11
595.0
 21
-891.9999999999992
 31
0.0
1001
ACDBBLOCKREPETAG
1070
     1
1071
       19
1005
1279EB
  0
LINE
  5
1279EC
  8
OBJECT
 10
595.0
 20
-891.9999999999992
 30
0.0
 11
595.0
 21
-898.99999999999943
 31
0.0
1001
ACDBBLOCKREPETAG
1070
     1
1071
       20
1005
1279EC
  0
LINE
  5
1279ED
  8
OBJECT
 10
595.0
 20
-898.99999999999943
 30
0.0
 11
485.0
 21
-898.99999999999943
 31
0.0
1001
ACDBBLOCKREPETAG
1070
     1
1071
       21
1005
1279ED
  0
LINE
  5
1279EE
  8
OBJECT
 10
488.0
 20
-898.99999999999943
 30
0.0
 11
488.0
 21
-934.99999999999875
 31
0.0
1001
ACDBBLOCKREPETAG
1070
     1
1071
       22
1005
1279EE
  0
LINE
  5
1279EF
  8
OBJECT
 10
488.0
 20
-934.99999999999875
 30
0.0
 11
592.0
 21
-934.99999999999875
 31
0.0
1001
ACDBBLOCKREPETAG
1070
     1
1071
       23
1005
1279EF
  0
LINE
  5
1279F0
  8
OBJECT
 10
592.0
 20
-934.99999999999875
 30
0.0
 11
592.0
 21
-898.99999999999943
 31
0.0
1001
ACDBBLOCKREPETAG
1070
     1
1071
       24
1005
1279F0
  0
LINE
  5
1279F1
  8
OBJECT
 10
492.49999999999989
 20
-938.99999999999909
 30
0.0
 11
492.49999999999989
 21
-947.49999999999875
 31
0.0
1001
ACDBBLOCKREPETAG
1070
     1
1071
       25
1005
1279F1
  0
LINE
  5
1279F2
  8
OBJECT
 10
587.5
 20
-947.49999999999955
 30
0.0
 11
587.5
 21
-938.99999999999909
 31
0.0
1001
ACDBBLOCKREPETAG
1070
     1
1071
       26
1005
1279F2
  0
LINE
  5
1279F3
  8
OBJECT
 10
587.5
 20
-938.99999999999909
 30
0.0
 11
492.49999999999989
 21
-938.99999999999909
 31
0.0
1001
ACDBBLOCKREPETAG
1070
     1
1071
       27
1005
1279F3
  0
LINE
  5
1279F4
  8
OBJECT
 10
488.0
 20
-934.99999999999875
 30
0.0
 11
492.49999999999989
 21
-938.99999999999909
 31
0.0
1001
ACDBBLOCKREPETAG
1070
     1
1071
       28
1005
1279F4
  0
LINE
  5
1279F5
  8
OBJECT
 10
592.0
 20
-934.99999999999875
 30
0.0
 11
587.5
 21
-938.99999999999909
 31
0.0
1001
ACDBBLOCKREPETAG
1070
     1
1071
       29
1005
1279F5
  0
LINE
  5
1279F6
  8
OBJECT
 10
589.5
 20
-947.50000000000034
 30
0.0
 11
490.5
 21
-947.49999999999875
 31
0.0
1001
ACDBBLOCKREPETAG
1070
     1
1071
       30
1005
1279F6
  0
LINE
  5
1279F7
  8
OBJECT
 10
490.5
 20
-947.49999999999875
 30
0.0
 11
490.5000000000008
 21
-975.65508008701954
 31
0.0
1001
ACDBBLOCKREPETAG
1070
     1
1071
       31
1005
1279F7
  0
LINE
  5
1279F8
  8
OBJECT
 10
589.5
 20
-947.50000000000034
 30
0.0
 11
589.5000000000008
 21
-975.65508008702056
 31
0.0
1001
ACDBBLOCKREPETAG
1070
     1
1071
       32
1005
1279F8
  0
INSERT
  5
1279F9
  8
SLIM
  2
*U4
 10
0.0
 20
0.0
 30
0.0
  0
LINE
  5
1279FA
  8
HIDDEN
 10
502.0
 20
-943.99999999999875
 30
0.0
 11
578.0
 21
-943.99999999999875
 31
0.0
1001
ACDBBLOCKREPETAG
1070
     1
1071
       57
1005
1279FA
  0
ARC
  5
1279FB
  8
OBJECT
 10
540.0
 20
-1031.9999999999991
 30
0.0
 40
50.0
 50
28.819943000169118
 51
318.52376955955111
1001
ACDBBLOCKREPETAG
1070
     1
1071
       49
1005
1279FB
  0
CIRCLE
  5
1279FC
  8
OBJECT
 10
540.0
 20
-1031.9999999999991
 30
0.0
 40
70.0
1001
ACDBBLOCKREPETAG
1070
     1
1071
       50
1005
1279FC
  0
CIRCLE
  5
1279FD
  8
OBJECT
 10
540.0
 20
-1031.9999999999991
 30
0.0
 40
75.0
1001
ACDBBLOCKREPETAG
1070
     1
1071
       51
1005
1279FD
  0
POINT
  5
1279FE
  8
DOTS
 10
540.0
 20
-1031.9999999999991
 30
0.0
1001
ACDBBLOCKREPETAG
1070
     1
1071
       63
1005
1279FE
  0
LINE
  5
1279FF
  8
OBJECT
 10
583.80694712371769
 20
-1007.897066906697
 30
0.0
 11
572.55462199999965
 21
-1011.340343000002
 31
0.0
1001
ACDBBLOCKREPETAG
1070
     1
1071
      141
1005
1279FF
  0
LINE
  5
127A00
  8
OBJECT
 10
558.22553374207905
 20
-1045.2072500986239
 30
0.0
 11
572.55462199999602
 21
-1011.340343000002
 31
0.0
1001
ACDBBLOCKREPETAG
1070
     1
1071
      143
1005
127A00
  0
ARC
  5
127A01
  8
OBJECT
 10
567.43512999905943
 20
-1049.1038302380971
 30
0.0
 40
10.0
 50
157.06677829292209
 51
244.01473437026289
1001
ACDBBLOCKREPETAG
1070
     1
1071
      144
1005
127A01
  0
ARC
  5
127A02
  8
OBJECT
 10
565.55386256729241
 20
-1045.851160961872
 30
0.0
 40
7.0
 50
157.06677829292209
 51
244.0147337750206
1001
ACDBBLOCKREPETAG
1070
     1
1071
      145
1005
127A02
  0
LINE
  5
127A03
  8
OBJECT
 10
598.86769720860241
 20
-1069.876037614252
 30
0.0
 11
562.48688253356875
 21
-1052.143508176762
 31
0.0
1001
ACDBBLOCKREPETAG
1070
     1
1071
      154
1005
127A03
  0
LINE
  5
127A04
  8
OBJECT
 10
595.91673244450271
 20
-1074.110794729258
 30
0.0
 11
563.05373004430999
 21
-1058.09289773349
 31
0.0
1001
ACDBBLOCKREPETAG
1070
     1
1071
      155
1005
127A04
  0
ARC
  5
127A05
  8
OBJECT
 10
544.75760589857111
 20
-1058.273755513954
 30
0.0
 40
63.739013211305632
 50
8.1694378253174822
 51
52.21905252470151
1001
ACDBBLOCKREPETAG
1070
     1
1071
      156
1005
127A05
  0
LINE
  5
127A06
  8
OBJECT
 10
133.0
 20
-898.99999999999943
 30
0.0
 11
133.0
 21
-891.9999999999992
 31
0.0
1001
ACDBBLOCKREPETAG
1070
     1
1071
        0
1005
127A06
  0
LINE
  5
127A07
  8
OBJECT
 10
133.0
 20
-891.9999999999992
 30
0.0
 11
227.0
 21
-891.9999999999992
 31
0.0
1001
ACDBBLOCKREPETAG
1070
     1
1071
        1
1005
127A07
  0
LINE
  5
127A08
  8
OBJECT
 10
227.0
 20
-891.9999999999992
 30
0.0
 11
227.0
 21
-898.99999999999943
 31
0.0
1001
ACDBBLOCKREPETAG
1070
     1
1071
        2
1005
127A08
  0
LINE
  5
127A09
  8
OBJECT
 10
227.0
 20
-898.99999999999943
 30
0.0
 11
133.0
 21
-898.99999999999943
 31
0.0
1001
ACDBBLOCKREPETAG
1070
     1
1071
        3
1005
127A09
  0
LINE
  5
127A0A
  8
OBJECT
 10
136.0
 20
-898.99999999999943
 30
0.0
 11
136.0
 21
-934.99999999999875
 31
0.0
1001
ACDBBLOCKREPETAG
1070
     1
1071
        4
1005
127A0A
  0
LINE
  5
127A0B
  8
OBJECT
 10
136.0
 20
-934.99999999999875
 30
0.0
 11
224.0
 21
-934.99999999999875
 31
0.0
1001
ACDBBLOCKREPETAG
1070
     1
1071
        5
1005
127A0B
  0
LINE
  5
127A0C
  8
OBJECT
 10
224.0
 20
-934.99999999999875
 30
0.0
 11
224.0
 21
-898.99999999999943
 31
0.0
1001
ACDBBLOCKREPETAG
1070
     1
1071
        6
1005
127A0C
  0
LINE
  5
127A0D
  8
OBJECT
 10
140.5
 20
-938.99999999999909
 30
0.0
 11
140.5
 21
-947.49999999999875
 31
0.0
1001
ACDBBLOCKREPETAG
1070
     1
1071
        7
1005
127A0D
  0
LINE
  5
127A0E
  8
OBJECT
 10
219.5
 20
-947.49999999999955
 30
0.0
 11
219.5
 21
-938.99999999999909
 31
0.0
1001
ACDBBLOCKREPETAG
1070
     1
1071
        8
1005
127A0E
  0
LINE
  5
127A0F
  8
OBJECT
 10
219.5
 20
-938.99999999999909
 30
0.0
 11
140.5
 21
-938.99999999999909
 31
0.0
1001
ACDBBLOCKREPETAG
1070
     1
1071
        9
1005
127A0F
  0
LINE
  5
127A10
  8
OBJECT
 10
136.0
 20
-934.99999999999875
 30
0.0
 11
140.5
 21
-938.99999999999909
 31
0.0
1001
ACDBBLOCKREPETAG
1070
     1
1071
       10
1005
127A10
  0
LINE
  5
127A11
  8
OBJECT
 10
224.0
 20
-934.99999999999875
 30
0.0
 11
219.5
 21
-938.99999999999909
 31
0.0
1001
ACDBBLOCKREPETAG
1070
     1
1071
       11
1005
127A11
  0
LINE
  5
127A12
  8
OBJECT
 10
226.5
 20
-947.49999999999989
 30
0.0
 11
133.5
 21
-947.49999999999875
 31
0.0
1001
ACDBBLOCKREPETAG
1070
     1
1071
       12
1005
127A12
  0
ARC
  5
127A13
  8
OBJECT
 10
133.5
 20
-950.49999999999829
 30
0.0
 40
3.0
 50
90.0
 51
180.0
1001
ACDBBLOCKREPETAG
1070
     1
1071
       13
1005
127A13
  0
LINE
  5
127A14
  8
OBJECT
 10
130.5
 20
-950.49999999999829
 30
0.0
 11
130.49999999999909
 21
-975.65508008702056
 31
0.0
1001
ACDBBLOCKREPETAG
1070
     1
1071
       15
1005
127A14
  0
LINE
  5
127A15
  8
OBJECT
 10
229.5
 20
-950.5
 30
0.0
 11
229.49999999999909
 21
-975.65508008701954
 31
0.0
1001
ACDBBLOCKREPETAG
1070
     1
1071
       16
1005
127A15
  0
ARC
  5
127A16
  8
OBJECT
 10
226.5
 20
-950.5
 30
0.0
 40
3.0
 50
0.0
 51
90.0
1001
ACDBBLOCKREPETAG
1070
     1
1071
       17
1005
127A16
  0
INSERT
  5
127A17
  8
SLIM
  2
*U5
 10
0.0
 20
0.0
 30
0.0
  0
LINE
  5
127A18
  8
HIDDEN
 10
150.0
 20
-943.99999999999875
 30
0.0
 11
210.0
 21
-943.99999999999875
 31
0.0
1001
ACDBBLOCKREPETAG
1070
     1
1071
       56
1005
127A18
  0
ARC
  5
127A19
  8
OBJECT
 10
180.0
 20
-1031.9999999999991
 30
0.0
 40
50.0
 50
28.81994300016834
 51
318.52376955954998
1001
ACDBBLOCKREPETAG
1070
     1
1071
       49
1005
127A19
  0
CIRCLE
  5
127A1A
  8
OBJECT
 10
180.0
 20
-1031.9999999999991
 30
0.0
 40
70.0
1001
ACDBBLOCKREPETAG
1070
     1
1071
       50
1005
127A1A
  0
CIRCLE
  5
127A1B
  8
OBJECT
 10
180.0
 20
-1031.9999999999991
 30
0.0
 40
75.0
1001
ACDBBLOCKREPETAG
1070
     1
1071
       51
1005
127A1B
  0
POINT
  5
127A1C
  8
DOTS
 10
180.0
 20
-1031.9999999999991
 30
0.0
1001
ACDBBLOCKREPETAG
1070
     1
1071
       63
1005
127A1C
  0
LINE
  5
127A1D
  8
OBJECT
 10
223.80694712371769
 20
-1007.897066906697
 30
0.0
 11
212.5546219999996
 21
-1011.340343000002
 31
0.0
1001
ACDBBLOCKREPETAG
1070
     1
1071
      141
1005
127A1D
  0
LINE
  5
127A1E
  8
OBJECT
 10
198.22553374207919
 20
-1045.2072500986239
 30
0.0
 11
212.55462199999599
 21
-1011.340343000002
 31
0.0
1001
ACDBBLOCKREPETAG
1070
     1
1071
      143
1005
127A1E
  0
ARC
  5
127A1F
  8
OBJECT
 10
207.4351299990594
 20
-1049.1038302380971
 30
0.0
 40
10.0
 50
157.06677829292309
 51
244.01473437026289
1001
ACDBBLOCKREPETAG
1070
     1
1071
      144
1005
127A1F
  0
ARC
  5
127A20
  8
OBJECT
 10
205.5538625672925
 20
-1045.851160961872
 30
0.0
 40
7.0
 50
157.06677829292309
 51
244.01473377502219
1001
ACDBBLOCKREPETAG
1070
     1
1071
      145
1005
127A20
  0
LINE
  5
127A21
  8
OBJECT
 10
238.86769720860229
 20
-1069.876037614252
 30
0.0
 11
202.48688253356889
 21
-1052.143508176762
 31
0.0
1001
ACDBBLOCKREPETAG
1070
     1
1071
      154
1005
127A21
  0
LINE
  5
127A22
  8
OBJECT
 10
235.9167324445028
 20
-1074.110794729258
 30
0.0
 11
203.05373004431021
 21
-1058.09289773349
 31
0.0
1001
ACDBBLOCKREPETAG
1070
     1
1071
      155
1005
127A22
  0
ARC
  5
127A23
  8
OBJECT
 10
184.75760589857131
 20
-1058.273755513954
 30
0.0
 40
63.739013211305632
 50
8.1694378253172513
 51
52.219052524698952
1001
ACDBBLOCKREPETAG
1070
     1
1071
      156
1005
127A23
  0
ARC
  5
127A24
  8
OBJECT
 10
12500.0
 20
-175.99999541468151
 30
0.0
 40
50.0
 50
298.81994300000417
 51
228.52376955964741
1001
ACDBBLOCKREPETAG
1070
     1
1071
      185
1005
127A24
  0
LINE
  5
127A25
  8
SLIM
 10
12427.30183005652
 20
-131.95483578426081
 30
0.0
 11
12455.954840369581
 21
-103.3018254712013
 31
0.0
1001
ACAD
1010
0.0
1020
0.0
1030
0.0
1001
ACDBBLOCKREPETAG
1070
     1
1071
      429
1005
127A25
  0
LINE
  5
127A26
  8
SLIM
 10
12419.486152070829
 20
-148.75076989101481
 30
0.0
 11
12428.8911593638
 21
-139.34576259805101
 31
0.0
1001
ACAD
1010
0.0
1020
0.0
1030
0.0
1001
ACDBBLOCKREPETAG
1070
     1
1071
      381
1005
127A26
  0
LINE
  5
127A27
  8
SLIM
 10
12463.345767183369
 20
-104.8911547784803
 30
0.0
 11
12472.75077447633
 21
-95.486147485516582
 31
0.0
1001
ACAD
1010
0.0
1020
0.0
1030
0.0
1001
ACDBBLOCKREPETAG
1070
     1
1071
      382
1005
127A27
  0
LINE
  5
127A28
  8
SLIM
 10
12416.35966799338
 20
-160.85751008954301
 30
0.0
 11
12423.0316308417
 21
-154.18554724121299
 31
0.0
1001
ACAD
1010
0.0
1020
0.0
1030
0.0
1001
ACDBBLOCKREPETAG
1070
     1
1071
      383
1005
127A28
  0
LINE
  5
127A29
  8
SLIM
 10
12478.185551826529
 20
-99.031626256387483
 30
0.0
 11
12484.857514674861
 21
-92.359663408057429
 31
0.0
1001
ACAD
1010
0.0
1020
0.0
1030
0.0
1001
ACDBBLOCKREPETAG
1070
     1
1071
      384
1005
127A29
  0
LINE
  5
127A2A
  8
SLIM
 10
12415.14405758905
 20
-171.05337661493741
 30
0.0
 11
12420.691234743779
 21
-165.50619946020811
 31
0.0
1001
ACAD
1010
0.0
1020
0.0
1030
0.0
1001
ACDBBLOCKREPETAG
1070
     1
1071
      385
1005
127A2A
  0
LINE
  5
127A2B
  8
SLIM
 10
12489.50620404553
 20
-96.69123015846148
 30
0.0
 11
12495.05338120026
 21
-91.144053003732253
 31
0.0
1001
ACAD
1010
0.0
1020
0.0
1030
0.0
1001
ACDBBLOCKREPETAG
1070
     1
1071
      386
1005
127A2B
  0
LINE
  5
127A2C
  8
SLIM
 10
12415.09796355746
 20
-180.07972676759269
 30
0.0
 11
12419.17769491037
 21
-175.99999541468151
 31
0.0
1001
ACAD
1010
0.0
1020
0.0
1030
0.0
1001
ACDBBLOCKREPETAG
1070
     1
1071
      387
1005
127A2C
  0
LINE
  5
127A2D
  8
SLIM
 10
12500.0
 20
-95.177690325059132
 30
0.0
 11
12504.0797313529
 21
-91.097958972153265
 31
0.0
1001
ACAD
1010
0.0
1020
0.0
1030
0.0
1001
ACDBBLOCKREPETAG
1070
     1
1071
      388
1005
127A2D
  0
LINE
  5
127A2E
  8
SLIM
 10
12419.17769491037
 20
-175.99999541468151
 30
0.0
 11
12420.00427028175
 21
-175.17342004330999
 31
0.0
1001
ACAD
1010
0.0
1020
0.0
1030
0.0
1001
ACDBBLOCKREPETAG
1070
     1
1071
      389
1005
127A2E
  0
LINE
  5
127A2F
  8
SLIM
 10
12499.173424628631
 20
-96.004265696428789
 30
0.0
 11
12500.0
 21
-95.177690325059146
 31
0.0
1001
ACAD
1010
0.0
1020
0.0
1030
0.0
1001
ACDBBLOCKREPETAG
1070
     1
1071
      390
1005
127A2F
  0
LINE
  5
127A30
  8
SLIM
 10
12415.88997262086
 20
-188.2679738252624
 30
0.0
 11
12420.37908993235
 21
-183.77885651377261
 31
0.0
1001
ACAD
1010
0.0
1020
0.0
1030
0.0
1001
ACDBBLOCKREPETAG
1070
     1
1071
      391
1005
127A30
  0
LINE
  5
127A31
  8
SLIM
 10
12507.77886109909
 20
-96.379085347030724
 30
0.0
 11
12512.26797841058
 21
-91.889968035552343
 31
0.0
1001
ACAD
1010
0.0
1020
0.0
1030
0.0
1001
ACDBBLOCKREPETAG
1070
     1
1071
      392
1005
127A31
  0
LINE
  5
127A32
  8
SLIM
 10
12417.338265695151
 20
-195.7999368720495
 30
0.0
 11
12421.53614970347
 21
-191.6020528637238
 31
0.0
1001
ACAD
1010
0.0
1020
0.0
1030
0.0
1001
ACDBBLOCKREPETAG
1070
     1
1071
      393
1005
127A32
  0
LINE
  5
127A33
  8
SLIM
 10
12515.60205744905
 20
-97.536145118149506
 30
0.0
 11
12519.799941457361
 21
-93.338261109834278
 31
0.0
1001
ACAD
1010
0.0
1020
0.0
1030
0.0
1001
ACDBBLOCKREPETAG
1070
     1
1071
      394
1005
127A33
  0
LINE
  5
127A34
  8
SLIM
 10
12419.331259406301
 20
-202.78719928196651
 30
0.0
 11
12423.317950993851
 21
-198.80050769441161
 31
0.0
1001
ACAD
1010
0.0
1020
0.0
1030
0.0
1001
ACDBBLOCKREPETAG
1070
     1
1071
      395
1005
127A34
  0
LINE
  5
127A35
  8
SLIM
 10
12522.800512279729
 20
-99.317946408531412
 30
0.0
 11
12526.787203867279
 21
-95.331254820986345
 31
0.0
1001
ACAD
1010
0.0
1020
0.0
1030
0.0
1001
ACDBBLOCKREPETAG
1070
     1
1071
      396
1005
127A35
  0
LINE
  5
127A36
  8
SLIM
 10
12421.795716318609
 20
-209.3029984907202
 30
0.0
 11
12425.62664068147
 21
-205.47207412786429
 31
0.0
1001
ACAD
1010
0.0
1020
0.0
1030
0.0
1001
ACDBBLOCKREPETAG
1070
     1
1071
      397
1005
127A36
  0
LINE
  5
127A37
  8
SLIM
 10
12529.47207871319
 20
-101.6266360961484
 30
0.0
 11
12533.303003076029
 21
-97.795711733301616
 31
0.0
1001
ACAD
1010
0.0
1020
0.0
1030
0.0
1001
ACDBBLOCKREPETAG
1070
     1
1071
      398
1005
127A37
  0
LINE
  5
127A38
  8
SLIM
 10
12424.681663531341
 20
-215.39730739906469
 30
0.0
 11
12428.397899414491
 21
-211.68107151591281
 31
0.0
1001
ACAD
1010
0.0
1020
0.0
1030
0.0
1001
ACDBBLOCKREPETAG
1070
     1
1071
      399
1005
127A38
  0
LINE
  5
127A39
  8
SLIM
 10
12535.681076101229
 20
-104.3978948291695
 30
0.0
 11
12539.397311984379
 21
-100.6816589460261
 31
0.0
1001
ACAD
1010
0.0
1020
0.0
1030
0.0
1001
ACDBBLOCKREPETAG
1070
     1
1071
      400
1005
127A39
  0
LINE
  5
127A3A
  8
SLIM
 10
12427.954461102419
 20
-221.1047659490537
 30
0.0
 11
12431.58829484775
 21
-217.47093220372389
 31
0.0
1001
ACAD
1010
0.0
1020
0.0
1030
0.0
1001
ACDBBLOCKREPETAG
1070
     1
1071
      401
1005
127A3A
  0
LINE
  5
127A3B
  8
SLIM
 10
12541.470936789039
 20
-107.588290262428
 30
0.0
 11
12545.104770534361
 21
-103.9544565171061
 31
0.0
1001
ACAD
1010
0.0
1020
0.0
1030
0.0
1001
ACDBBLOCKREPETAG
1070
     1
1071
      402
1005
127A3B
  0
LINE
  5
127A3C
  8
SLIM
 10
12431.59033196866
 20
-226.44915120388191
 30
0.0
 11
12435.16855767846
 21
-222.8709254940826
 31
0.0
1001
ACAD
1010
0.0
1020
0.0
1030
0.0
1001
ACDBBLOCKREPETAG
1070
     1
1071
      403
1005
127A3C
  0
LINE
  5
127A3D
  8
SLIM
 10
12546.8709300794
 20
-111.1685530931389
 30
0.0
 11
12550.449155789191
 21
-107.5903273833469
 31
0.0
1001
ACAD
1010
0.0
1020
0.0
1030
0.0
1001
ACDBBLOCKREPETAG
1070
     1
1071
      404
1005
127A3D
  0
LINE
  5
127A3E
  8
SLIM
 10
12435.573749692519
 20
-231.44598960108971
 30
0.0
 11
12439.119812975139
 21
-227.89992631846809
 31
0.0
1001
ACAD
1010
0.0
1020
0.0
1030
0.0
1001
ACDBBLOCKREPETAG
1070
     1
1071
      405
1005
127A3E
  0
LINE
  5
127A3F
  8
SLIM
 10
12553.019743878929
 20
-113.99999541468151
 30
0.0
 11
12555.445994186401
 21
-111.5737451072081
 31
0.0
1001
ACAD
1010
0.0
1020
0.0
1030
0.0
1001
ACDBBLOCKREPETAG
1070
     1
1071
      406
1005
127A3F
  0
LINE
  5
127A40
  8
SLIM
 10
12439.895923599141
 20
-236.10407181554169
 30
0.0
 11
12443.431457505079
 21
-232.5685379096023
 31
0.0
1001
ACAD
1010
0.0
1020
0.0
1030
0.0
1001
ACDBBLOCKREPETAG
1070
     1
1071
      407
1005
127A40
  0
LINE
  5
127A41
  8
SLIM
 10
12444.55400581359
 20
-240.42624572215851
 30
0.0
 11
12448.10006909621
 21
-236.88018243953789
 31
0.0
1001
ACAD
1010
0.0
1020
0.0
1030
0.0
1001
ACDBBLOCKREPETAG
1070
     1
1071
      408
1005
127A41
  0
LINE
  5
127A42
  8
SLIM
 10
12449.5508442108
 20
-244.40966344601941
 30
0.0
 11
12453.1290699206
 21
-240.831437736222
 31
0.0
1001
ACAD
1010
0.0
1020
0.0
1030
0.0
1001
ACDBBLOCKREPETAG
1070
     1
1071
      409
1005
127A42
  0
LINE
  5
127A43
  8
SLIM
 10
12454.89522946563
 20
-248.04553431225989
 30
0.0
 11
12458.52906321095
 21
-244.41170056693321
 31
0.0
1001
ACAD
1010
0.0
1020
0.0
1030
0.0
1001
ACDBBLOCKREPETAG
1070
     1
1071
      410
1005
127A43
  0
LINE
  5
127A44
  8
SLIM
 10
12460.602688015621
 20
-251.3183318833396
 30
0.0
 11
12464.31892389876
 21
-247.60209600019189
 31
0.0
1001
ACAD
1010
0.0
1020
0.0
1030
0.0
1001
ACDBBLOCKREPETAG
1070
     1
1071
      411
1005
127A44
  0
LINE
  5
127A45
  8
SLIM
 10
12466.69699692396
 20
-254.2042790960638
 30
0.0
 11
12470.52792128681
 21
-250.3733547332132
 31
0.0
1001
ACAD
1010
0.0
1020
0.0
1030
0.0
1001
ACDBBLOCKREPETAG
1070
     1
1071
      412
1005
127A45
  0
LINE
  5
127A46
  8
SLIM
 10
12473.21279613271
 20
-256.66873600837869
 30
0.0
 11
12477.19948772026
 21
-252.68204442083049
 31
0.0
1001
ACAD
1010
0.0
1020
0.0
1030
0.0
1001
ACDBBLOCKREPETAG
1070
     1
1071
      413
1005
127A46
  0
LINE
  5
127A47
  8
SLIM
 10
12480.20005854263
 20
-258.66172971953029
 30
0.0
 11
12484.39794255095
 21
-254.4638457112128
 31
0.0
1001
ACAD
1010
0.0
1020
0.0
1030
0.0
1001
ACDBBLOCKREPETAG
1070
     1
1071
      414
1005
127A47
  0
LINE
  5
127A48
  8
SLIM
 10
12487.73202158942
 20
-260.11002279381171
 30
0.0
 11
12492.221138900901
 21
-255.62090548233189
 31
0.0
1001
ACAD
1010
0.0
1020
0.0
1030
0.0
1001
ACDBBLOCKREPETAG
1070
     1
1071
      415
1005
127A48
  0
LINE
  5
127A49
  8
SLIM
 10
12495.920268647091
 20
-260.90203185721009
 30
0.0
 11
12500.0
 21
-256.82230050430388
 31
0.0
1001
ACAD
1010
0.0
1020
0.0
1030
0.0
1001
ACDBBLOCKREPETAG
1070
     1
1071
      416
1005
127A49
  0
LINE
  5
127A4A
  8
SLIM
 10
12500.0
 20
-256.82230050430388
 30
0.0
 11
12500.826575371369
 21
-255.99572513293049
 31
0.0
1001
ACAD
1010
0.0
1020
0.0
1030
0.0
1001
ACDBBLOCKREPETAG
1070
     1
1071
      417
1005
127A4A
  0
LINE
  5
127A4B
  8
SLIM
 10
12504.94661879974
 20
-260.85593782563058
 30
0.0
 11
12510.49379595447
 21
-255.3087606708975
 31
0.0
1001
ACAD
1010
0.0
1020
0.0
1030
0.0
1001
ACDBBLOCKREPETAG
1070
     1
1071
      418
1005
127A4B
  0
LINE
  5
127A4C
  8
SLIM
 10
12515.14248532513
 20
-259.64032742130519
 30
0.0
 11
12521.814448173471
 21
-252.9683645729709
 31
0.0
1001
ACAD
1010
0.0
1020
0.0
1030
0.0
1001
ACDBBLOCKREPETAG
1070
     1
1071
      419
1005
127A4C
  0
LINE
  5
127A4D
  8
SLIM
 10
12527.249225523659
 20
-256.51384334384568
 30
0.0
 11
12536.654232816631
 21
-247.10883605087631
 31
0.0
1001
ACAD
1010
0.0
1020
0.0
1030
0.0
1001
ACDBBLOCKREPETAG
1070
     1
1071
      420
1005
127A4D
  0
LINE
  5
127A4E
  8
SLIM
 10
12544.045159630419
 20
-248.6981653581594
 30
0.0
 11
12554.743329573899
 21
-237.99999541468151
 31
0.0
1001
ACAD
1010
0.0
1020
0.0
1030
0.0
1001
ACDBBLOCKREPETAG
1070
     1
1071
      421
1005
127A4E
  0
LINE
  5
127A4F
  8
CENTER
 10
12580.0
 20
-175.99999541468151
 30
0.0
 11
12400.0
 21
-175.99999541468151
 31
0.0
1001
ACDBBLOCKREPETAG
1070
     1
1071
      187
1005
127A4F
  0
LINE
  5
127A50
  8
CENTER
 10
12500.0
 20
-275.99999541468162
 30
0.0
 11
12500.0
 21
-75.999995414681507
 31
0.0
1001
ACDBBLOCKREPETAG
1070
     1
1071
      188
1005
127A50
  0
CIRCLE
  5
127A51
  8
OBJECT
 10
12500.0
 20
-175.99999541468151
 30
0.0
 40
70.0
1001
ACDBBLOCKREPETAG
1070
     1
1071
      189
1005
127A51
  0
CIRCLE
  5
127A52
  8
OBJECT
 10
12500.0
 20
-175.99999541468151
 30
0.0
 40
77.0
1001
ACDBBLOCKREPETAG
1070
     1
1071
      190
1005
127A52
  0
ARC
  5
127A53
  8
OBJECT
 10
12500.0
 20
-175.99999541468151
 30
0.0
 40
80.0
 50
50.805032573897769
 51
309.19496742610232
1001
ACDBBLOCKREPETAG
1070
     1
1071
      191
1005
127A53
  0
LINE
  5
127A54
  8
OBJECT
 10
12545.661800227321
 20
-113.99999541468151
 30
0.0
 11
12580.0
 21
-113.99999541468151
 31
0.0
1001
ACDBBLOCKREPETAG
1070
     1
1071
      192
1005
127A54
  0
LINE
  5
127A55
  8
OBJECT
 10
12545.661800227321
 20
-237.99999541468151
 30
0.0
 11
12580.0
 21
-237.99999541468151
 31
0.0
1001
ACDBBLOCKREPETAG
1070
     1
1071
      193
1005
127A55
  0
ARC
  5
127A56
  8
OBJECT
 10
12500.0
 20
-175.99999541468151
 30
0.0
 40
85.0
 50
46.837102859853147
 51
313.16289714014681
1001
ACDBBLOCKREPETAG
1070
     1
1071
      202
1005
127A56
  0
LINE
  5
127A57
  8
OBJECT
 10
12524.1029330933
 20
-219.8069425383992
 30
0.0
 11
12520.659656999989
 21
-208.5546174146811
 31
0.0
1001
ACDBBLOCKREPETAG
1070
     1
1071
      321
1005
127A57
  0
LINE
  5
127A58
  8
OBJECT
 10
12486.79274990136
 20
-194.2255291567626
 30
0.0
 11
12520.659656999989
 21
-208.55461741467931
 31
0.0
1001
ACDBBLOCKREPETAG
1070
     1
1071
      323
1005
127A58
  0
ARC
  5
127A59
  8
OBJECT
 10
12482.8961697619
 20
-203.43512541373909
 30
0.0
 40
10.0
 50
67.066778292911366
 51
154.01473437031629
1001
ACDBBLOCKREPETAG
1070
     1
1071
      324
1005
127A59
  0
ARC
  5
127A5A
  8
OBJECT
 10
12486.14883903812
 20
-201.55385798197401
 30
0.0
 40
7.0
 50
67.066778292911366
 51
154.0147337749826
1001
ACDBBLOCKREPETAG
1070
     1
1071
      325
1005
127A5A
  0
LINE
  5
127A5B
  8
OBJECT
 10
12469.4199755553
 20
-219.89888042286421
 30
0.0
 11
12479.856491823241
 21
-198.48687794825031
 31
0.0
1001
ACDBBLOCKREPETAG
1070
     1
1071
      353
1005
127A5B
  0
LINE
  5
127A5C
  8
OBJECT
 10
12465.29721690061
 20
-216.71813443350979
 30
0.0
 11
12473.90710226651
 21
-199.0537254589899
 31
0.0
1001
ACDBBLOCKREPETAG
1070
     1
1071
      354
1005
127A5C
  0
ARC
  5
127A5D
  8
OBJECT
 10
12476.57969530731
 20
-183.128932397526
 30
0.0
 40
60.031113246032611
 50
314.07020130422319
 51
322.33936106089681
1001
ACDBBLOCKREPETAG
1070
     1
1071
      355
1005
127A5D
  0
CIRCLE
  5
127A5E
  8
OBJECT
 10
12500.0
 20
-175.99999541468151
 30
0.0
 40
53.5
1001
ACDBBLOCKREPETAG
1070
     1
1071
      356
1005
127A5E
  0
POINT
  5
127A5F
  8
DOTS
 10
12500.0
 20
-175.99999541468151
 30
0.0
 50
270.0
1001
ACDBBLOCKREPETAG
1070
     1
1071
      365
1005
127A5F
  0
LINE
  5
127A60
  8
OBJECT
 10
6524.1029330933043
 20
-219.8069425383992
 30
0.0
 11
6520.6596569999947
 21
-208.5546174146811
 31
0.0
1001
ACDBBLOCKREPETAG
1070
     1
1071
      300
1005
127A60
  0
LINE
  5
127A61
  8
OBJECT
 10
6486.7927499013749
 20
-194.2255291567626
 30
0.0
 11
6520.6596569999947
 21
-208.55461741467931
 31
0.0
1001
ACDBBLOCKREPETAG
1070
     1
1071
      302
1005
127A61
  0
ARC
  5
127A62
  8
OBJECT
 10
6482.8961697619015
 20
-203.43512541373909
 30
0.0
 40
10.0
 50
67.066778292911366
 51
154.0147343702935
1001
ACDBBLOCKREPETAG
1070
     1
1071
      303
1005
127A62
  0
ARC
  5
127A63
  8
OBJECT
 10
6486.1488390381273
 20
-201.55385798197401
 30
0.0
 40
7.0
 50
67.066778292911366
 51
154.0147337749826
1001
ACDBBLOCKREPETAG
1070
     1
1071
      304
1005
127A63
  0
LINE
  5
127A64
  8
OBJECT
 10
6469.4199755553009
 20
-219.89888042286421
 30
0.0
 11
6479.8564918232369
 21
-198.48687794825031
 31
0.0
1001
ACDBBLOCKREPETAG
1070
     1
1071
      341
1005
127A64
  0
LINE
  5
127A65
  8
OBJECT
 10
6465.2972169006089
 20
-216.71813443350979
 30
0.0
 11
6473.9071022665084
 21
-199.0537254589899
 31
0.0
1001
ACDBBLOCKREPETAG
1070
     1
1071
      342
1005
127A65
  0
ARC
  5
127A66
  8
OBJECT
 10
6476.5796953073141
 20
-183.128932397526
 30
0.0
 40
60.031113246032611
 50
314.07020130418567
 51
322.33936106089681
1001
ACDBBLOCKREPETAG
1070
     1
1071
      343
1005
127A66
  0
CIRCLE
  5
127A67
  8
OBJECT
 10
6500.0
 20
-175.99999541468151
 30
0.0
 40
53.5
1001
ACDBBLOCKREPETAG
1070
     1
1071
      344
1005
127A67
  0
POINT
  5
127A68
  8
DOTS
 10
6500.0
 20
-175.99999541468151
 30
0.0
 50
270.0
1001
ACDBBLOCKREPETAG
1070
     1
1071
      362
1005
127A68
  0
ARC
  5
127A69
  8
OBJECT
 10
6500.0
 20
-175.99999541468151
 30
0.0
 40
50.0
 50
298.81994300000417
 51
228.52376955965491
1001
ACDBBLOCKREPETAG
1070
     1
1071
        7
1005
127A69
  0
LINE
  5
127A6A
  8
CENTER
 10
6580.0
 20
-175.99999541468151
 30
0.0
 11
6405.0
 21
-175.99999541468151
 31
0.0
1001
ACDBBLOCKREPETAG
1070
     1
1071
       14
1005
127A6A
  0
LINE
  5
127A6B
  8
CENTER
 10
6500.0
 20
-270.99999541468162
 30
0.0
 11
6500.0
 21
-80.999995414681507
 31
0.0
1001
ACDBBLOCKREPETAG
1070
     1
1071
       15
1005
127A6B
  0
CIRCLE
  5
127A6C
  8
OBJECT
 10
6500.0
 20
-175.99999541468151
 30
0.0
 40
70.0
1001
ACDBBLOCKREPETAG
1070
     1
1071
       16
1005
127A6C
  0
CIRCLE
  5
127A6D
  8
OBJECT
 10
6500.0
 20
-175.99999541468151
 30
0.0
 40
77.0
1001
ACDBBLOCKREPETAG
1070
     1
1071
       17
1005
127A6D
  0
ARC
  5
127A6E
  8
OBJECT
 10
6500.0
 20
-175.99999541468151
 30
0.0
 40
80.0
 50
50.80503257388439
 51
309.19496742611562
1001
ACDBBLOCKREPETAG
1070
     1
1071
       18
1005
127A6E
  0
LINE
  5
127A6F
  8
OBJECT
 10
6545.6618002273262
 20
-113.99999541468151
 30
0.0
 11
6580.0
 21
-113.99999541468151
 31
0.0
1001
ACDBBLOCKREPETAG
1070
     1
1071
       19
1005
127A6F
  0
LINE
  5
127A70
  8
OBJECT
 10
6545.6618002273262
 20
-237.99999541468151
 30
0.0
 11
6580.0
 21
-237.99999541468151
 31
0.0
1001
ACDBBLOCKREPETAG
1070
     1
1071
       20
1005
127A70
  0
LINE
  5
127A71
  8
OBJECT
 10
12633.0
 20
-113.99999541468151
 30
0.0
 11
12640.0
 21
-113.99999541468151
 31
0.0
1001
ACDBBLOCKREPETAG
1070
     1
1071
       47
1005
127A71
  0
LINE
  5
127A72
  8
OBJECT
 10
12640.0
 20
-113.99999541468151
 30
0.0
 11
12640.0
 21
-237.99999541468151
 31
0.0
1001
ACDBBLOCKREPETAG
1070
     1
1071
       48
1005
127A72
  0
LINE
  5
127A73
  8
OBJECT
 10
12640.0
 20
-237.99999541468151
 30
0.0
 11
12633.0
 21
-237.99999541468151
 31
0.0
1001
ACDBBLOCKREPETAG
1070
     1
1071
       49
1005
127A73
  0
LINE
  5
127A74
  8
OBJECT
 10
12633.0
 20
-237.99999541468151
 30
0.0
 11
12633.0
 21
-113.99999541468151
 31
0.0
1001
ACDBBLOCKREPETAG
1070
     1
1071
       50
1005
127A74
  0
LINE
  5
127A75
  8
CENTER
 10
12655.0
 20
-175.99999541468151
 30
0.0
 11
12580.0
 21
-175.99999541468151
 31
0.0
1001
ACDBBLOCKREPETAG
1070
     1
1071
       51
1005
127A75
  0
LINE
  5
127A76
  8
OBJECT
 10
12633.0
 20
-116.99999541468151
 30
0.0
 11
12597.0
 21
-116.99999541468151
 31
0.0
1001
ACDBBLOCKREPETAG
1070
     1
1071
       52
1005
127A76
  0
LINE
  5
127A77
  8
OBJECT
 10
12597.0
 20
-116.99999541468151
 30
0.0
 11
12597.0
 21
-234.99999541468151
 31
0.0
1001
ACDBBLOCKREPETAG
1070
     1
1071
       53
1005
127A77
  0
LINE
  5
127A78
  8
OBJECT
 10
12597.0
 20
-234.99999541468151
 30
0.0
 11
12633.0
 21
-234.99999541468151
 31
0.0
1001
ACDBBLOCKREPETAG
1070
     1
1071
       54
1005
127A78
  0
LINE
  5
127A79
  8
OBJECT
 10
12593.0
 20
-121.49999541468151
 30
0.0
 11
12586.0
 21
-121.49999541468151
 31
0.0
1001
ACDBBLOCKREPETAG
1070
     1
1071
       55
1005
127A79
  0
LINE
  5
127A7A
  8
OBJECT
 10
12586.0
 20
-230.49999541468151
 30
0.0
 11
12593.0
 21
-230.49999541468151
 31
0.0
1001
ACDBBLOCKREPETAG
1070
     1
1071
       56
1005
127A7A
  0
LINE
  5
127A7B
  8
OBJECT
 10
12593.0
 20
-230.49999541468151
 30
0.0
 11
12593.0
 21
-121.49999541468151
 31
0.0
1001
ACDBBLOCKREPETAG
1070
     1
1071
       57
1005
127A7B
  0
LINE
  5
127A7C
  8
OBJECT
 10
12597.0
 20
-116.99999541468151
 30
0.0
 11
12593.0
 21
-121.49999541468151
 31
0.0
1001
ACDBBLOCKREPETAG
1070
     1
1071
       58
1005
127A7C
  0
LINE
  5
127A7D
  8
OBJECT
 10
12597.0
 20
-234.99999541468151
 30
0.0
 11
12593.0
 21
-230.49999541468151
 31
0.0
1001
ACDBBLOCKREPETAG
1070
     1
1071
       59
1005
127A7D
  0
LINE
  5
127A7E
  8
OBJECT
 10
12583.0
 20
-113.99999541468151
 30
0.0
 11
12580.0
 21
-113.99999541468151
 31
0.0
1001
ACDBBLOCKREPETAG
1070
     1
1071
       60
1005
127A7E
  0
ARC
  5
127A7F
  8
OBJECT
 10
12583.0
 20
-116.99999541468151
 30
0.0
 40
3.0
 50
0.0
 51
90.0
1001
ACDBBLOCKREPETAG
1070
     1
1071
       61
1005
127A7F
  0
LINE
  5
127A80
  8
OBJECT
 10
12580.0
 20
-237.99999541468151
 30
0.0
 11
12583.0
 21
-237.99999541468151
 31
0.0
1001
ACDBBLOCKREPETAG
1070
     1
1071
       62
1005
127A80
  0
ARC
  5
127A81
  8
OBJECT
 10
12583.0
 20
-234.99999541468151
 30
0.0
 40
3.0
 50
270.0
 51
0.0
1001
ACDBBLOCKREPETAG
1070
     1
1071
       63
1005
127A81
  0
LINE
  5
127A82
  8
OBJECT
 10
12586.0
 20
-234.99999541468151
 30
0.0
 11
12586.0
 21
-116.99999541468151
 31
0.0
1001
ACDBBLOCKREPETAG
1070
     1
1071
       64
1005
127A82
  0
LINE
  5
127A83
  8
HIDDEN
 10
12588.0
 20
-131.49999541468151
 30
0.0
 11
12588.0
 21
-220.49999541468151
 31
0.0
1001
ACDBBLOCKREPETAG
1070
     1
1071
       65
1005
127A83
  0
LINE
  5
127A84
  8
OBJECT
 10
6633.0
 20
-113.99999541468151
 30
0.0
 11
6640.0
 21
-113.99999541468151
 31
0.0
1001
ACDBBLOCKREPETAG
1070
     1
1071
       47
1005
127A84
  0
LINE
  5
127A85
  8
OBJECT
 10
6640.0
 20
-113.99999541468151
 30
0.0
 11
6640.0
 21
-237.99999541468151
 31
0.0
1001
ACDBBLOCKREPETAG
1070
     1
1071
       48
1005
127A85
  0
LINE
  5
127A86
  8
OBJECT
 10
6640.0
 20
-237.99999541468151
 30
0.0
 11
6633.0
 21
-237.99999541468151
 31
0.0
1001
ACDBBLOCKREPETAG
1070
     1
1071
       49
1005
127A86
  0
LINE
  5
127A87
  8
OBJECT
 10
6633.0
 20
-237.99999541468151
 30
0.0
 11
6633.0
 21
-113.99999541468151
 31
0.0
1001
ACDBBLOCKREPETAG
1070
     1
1071
       50
1005
127A87
  0
LINE
  5
127A88
  8
CENTER
 10
6655.0
 20
-175.99999541468151
 30
0.0
 11
6580.0
 21
-175.99999541468151
 31
0.0
1001
ACDBBLOCKREPETAG
1070
     1
1071
       51
1005
127A88
  0
LINE
  5
127A89
  8
OBJECT
 10
6633.0
 20
-116.99999541468151
 30
0.0
 11
6597.0
 21
-116.99999541468151
 31
0.0
1001
ACDBBLOCKREPETAG
1070
     1
1071
       52
1005
127A89
  0
LINE
  5
127A8A
  8
OBJECT
 10
6597.0
 20
-116.99999541468151
 30
0.0
 11
6597.0
 21
-234.99999541468151
 31
0.0
1001
ACDBBLOCKREPETAG
1070
     1
1071
       53
1005
127A8A
  0
LINE
  5
127A8B
  8
OBJECT
 10
6597.0
 20
-234.99999541468151
 30
0.0
 11
6633.0
 21
-234.99999541468151
 31
0.0
1001
ACDBBLOCKREPETAG
1070
     1
1071
       54
1005
127A8B
  0
LINE
  5
127A8C
  8
OBJECT
 10
6593.0
 20
-121.49999541468151
 30
0.0
 11
6586.0
 21
-121.49999541468151
 31
0.0
1001
ACDBBLOCKREPETAG
1070
     1
1071
       55
1005
127A8C
  0
LINE
  5
127A8D
  8
OBJECT
 10
6586.0
 20
-230.49999541468151
 30
0.0
 11
6593.0
 21
-230.49999541468151
 31
0.0
1001
ACDBBLOCKREPETAG
1070
     1
1071
       56
1005
127A8D
  0
LINE
  5
127A8E
  8
OBJECT
 10
6593.0
 20
-230.49999541468151
 30
0.0
 11
6593.0
 21
-121.49999541468151
 31
0.0
1001
ACDBBLOCKREPETAG
1070
     1
1071
       57
1005
127A8E
  0
LINE
  5
127A8F
  8
OBJECT
 10
6597.0
 20
-116.99999541468151
 30
0.0
 11
6593.0
 21
-121.49999541468151
 31
0.0
1001
ACDBBLOCKREPETAG
1070
     1
1071
       58
1005
127A8F
  0
LINE
  5
127A90
  8
OBJECT
 10
6597.0
 20
-234.99999541468151
 30
0.0
 11
6593.0
 21
-230.49999541468151
 31
0.0
1001
ACDBBLOCKREPETAG
1070
     1
1071
       59
1005
127A90
  0
LINE
  5
127A91
  8
OBJECT
 10
6583.0
 20
-113.99999541468151
 30
0.0
 11
6580.0
 21
-113.99999541468151
 31
0.0
1001
ACDBBLOCKREPETAG
1070
     1
1071
       60
1005
127A91
  0
ARC
  5
127A92
  8
OBJECT
 10
6583.0
 20
-116.99999541468151
 30
0.0
 40
3.0
 50
0.0
 51
90.0
1001
ACDBBLOCKREPETAG
1070
     1
1071
       61
1005
127A92
  0
LINE
  5
127A93
  8
OBJECT
 10
6580.0
 20
-237.99999541468151
 30
0.0
 11
6583.0
 21
-237.99999541468151
 31
0.0
1001
ACDBBLOCKREPETAG
1070
     1
1071
       62
1005
127A93
  0
ARC
  5
127A94
  8
OBJECT
 10
6583.0
 20
-234.99999541468151
 30
0.0
 40
3.0
 50
270.0
 51
0.0
1001
ACDBBLOCKREPETAG
1070
     1
1071
       63
1005
127A94
  0
LINE
  5
127A95
  8
OBJECT
 10
6586.0
 20
-234.99999541468151
 30
0.0
 11
6586.0
 21
-116.99999541468151
 31
0.0
1001
ACDBBLOCKREPETAG
1070
     1
1071
       64
1005
127A95
  0
LINE
  5
127A96
  8
HIDDEN
 10
6588.0
 20
-131.49999541468151
 30
0.0
 11
6588.0
 21
-220.49999541468151
 31
0.0
1001
ACDBBLOCKREPETAG
1070
     1
1071
       65
1005
127A96
  0
ARC
  5
127A97
  8
OBJECT
 10
10500.0
 20
-175.99999541468151
 30
0.0
 40
50.0
 50
298.81994300000417
 51
228.52376955964741
1001
ACDBBLOCKREPETAG
1070
     1
1071
      185
1005
127A97
  0
LINE
  5
127A98
  8
SLIM
 10
10427.30183005652
 20
-131.95483578426081
 30
0.0
 11
10455.954840369581
 21
-103.3018254712013
 31
0.0
1001
ACAD
1010
0.0
1020
0.0
1030
0.0
1001
ACDBBLOCKREPETAG
1070
     1
1071
      429
1005
127A98
  0
LINE
  5
127A99
  8
SLIM
 10
10419.48615207082
 20
-148.75076989101481
 30
0.0
 11
10428.8911593638
 21
-139.34576259805101
 31
0.0
1001
ACAD
1010
0.0
1020
0.0
1030
0.0
1001
ACDBBLOCKREPETAG
1070
     1
1071
      381
1005
127A99
  0
LINE
  5
127A9A
  8
SLIM
 10
10463.34576718336
 20
-104.8911547784803
 30
0.0
 11
10472.75077447633
 21
-95.486147485516582
 31
0.0
1001
ACAD
1010
0.0
1020
0.0
1030
0.0
1001
ACDBBLOCKREPETAG
1070
     1
1071
      382
1005
127A9A
  0
LINE
  5
127A9B
  8
SLIM
 10
10416.35966799338
 20
-160.85751008954301
 30
0.0
 11
10423.03163084171
 21
-154.18554724121299
 31
0.0
1001
ACAD
1010
0.0
1020
0.0
1030
0.0
1001
ACDBBLOCKREPETAG
1070
     1
1071
      383
1005
127A9B
  0
LINE
  5
127A9C
  8
SLIM
 10
10478.185551826529
 20
-99.031626256387483
 30
0.0
 11
10484.857514674861
 21
-92.359663408057429
 31
0.0
1001
ACAD
1010
0.0
1020
0.0
1030
0.0
1001
ACDBBLOCKREPETAG
1070
     1
1071
      384
1005
127A9C
  0
LINE
  5
127A9D
  8
SLIM
 10
10415.14405758905
 20
-171.05337661493741
 30
0.0
 11
10420.691234743779
 21
-165.50619946020811
 31
0.0
1001
ACAD
1010
0.0
1020
0.0
1030
0.0
1001
ACDBBLOCKREPETAG
1070
     1
1071
      385
1005
127A9D
  0
LINE
  5
127A9E
  8
SLIM
 10
10489.50620404553
 20
-96.69123015846148
 30
0.0
 11
10495.05338120026
 21
-91.144053003732253
 31
0.0
1001
ACAD
1010
0.0
1020
0.0
1030
0.0
1001
ACDBBLOCKREPETAG
1070
     1
1071
      386
1005
127A9E
  0
LINE
  5
127A9F
  8
SLIM
 10
10415.09796355746
 20
-180.07972676759269
 30
0.0
 11
10419.17769491037
 21
-175.99999541468151
 31
0.0
1001
ACAD
1010
0.0
1020
0.0
1030
0.0
1001
ACDBBLOCKREPETAG
1070
     1
1071
      387
1005
127A9F
  0
LINE
  5
127AA0
  8
SLIM
 10
10500.0
 20
-95.177690325059132
 30
0.0
 11
10504.0797313529
 21
-91.097958972153265
 31
0.0
1001
ACAD
1010
0.0
1020
0.0
1030
0.0
1001
ACDBBLOCKREPETAG
1070
     1
1071
      388
1005
127AA0
  0
LINE
  5
127AA1
  8
SLIM
 10
10419.17769491037
 20
-175.99999541468151
 30
0.0
 11
10420.00427028175
 21
-175.17342004330999
 31
0.0
1001
ACAD
1010
0.0
1020
0.0
1030
0.0
1001
ACDBBLOCKREPETAG
1070
     1
1071
      389
1005
127AA1
  0
LINE
  5
127AA2
  8
SLIM
 10
10499.173424628631
 20
-96.004265696428789
 30
0.0
 11
10500.0
 21
-95.177690325059146
 31
0.0
1001
ACAD
1010
0.0
1020
0.0
1030
0.0
1001
ACDBBLOCKREPETAG
1070
     1
1071
      390
1005
127AA2
  0
LINE
  5
127AA3
  8
SLIM
 10
10415.88997262086
 20
-188.2679738252624
 30
0.0
 11
10420.37908993235
 21
-183.77885651377261
 31
0.0
1001
ACAD
1010
0.0
1020
0.0
1030
0.0
1001
ACDBBLOCKREPETAG
1070
     1
1071
      391
1005
127AA3
  0
LINE
  5
127AA4
  8
SLIM
 10
10507.77886109909
 20
-96.379085347030724
 30
0.0
 11
10512.26797841056
 21
-91.889968035552343
 31
0.0
1001
ACAD
1010
0.0
1020
0.0
1030
0.0
1001
ACDBBLOCKREPETAG
1070
     1
1071
      392
1005
127AA4
  0
LINE
  5
127AA5
  8
SLIM
 10
10417.338265695151
 20
-195.7999368720495
 30
0.0
 11
10421.53614970347
 21
-191.6020528637238
 31
0.0
1001
ACAD
1010
0.0
1020
0.0
1030
0.0
1001
ACDBBLOCKREPETAG
1070
     1
1071
      393
1005
127AA5
  0
LINE
  5
127AA6
  8
SLIM
 10
10515.60205744905
 20
-97.536145118149506
 30
0.0
 11
10519.799941457361
 21
-93.338261109834278
 31
0.0
1001
ACAD
1010
0.0
1020
0.0
1030
0.0
1001
ACDBBLOCKREPETAG
1070
     1
1071
      394
1005
127AA6
  0
LINE
  5
127AA7
  8
SLIM
 10
10419.331259406301
 20
-202.78719928196651
 30
0.0
 11
10423.317950993851
 21
-198.80050769441161
 31
0.0
1001
ACAD
1010
0.0
1020
0.0
1030
0.0
1001
ACDBBLOCKREPETAG
1070
     1
1071
      395
1005
127AA7
  0
LINE
  5
127AA8
  8
SLIM
 10
10522.800512279729
 20
-99.317946408531412
 30
0.0
 11
10526.787203867279
 21
-95.331254820986345
 31
0.0
1001
ACAD
1010
0.0
1020
0.0
1030
0.0
1001
ACDBBLOCKREPETAG
1070
     1
1071
      396
1005
127AA8
  0
LINE
  5
127AA9
  8
SLIM
 10
10421.795716318609
 20
-209.3029984907202
 30
0.0
 11
10425.62664068147
 21
-205.47207412786429
 31
0.0
1001
ACAD
1010
0.0
1020
0.0
1030
0.0
1001
ACDBBLOCKREPETAG
1070
     1
1071
      397
1005
127AA9
  0
LINE
  5
127AAA
  8
SLIM
 10
10529.47207871319
 20
-101.6266360961484
 30
0.0
 11
10533.303003076029
 21
-97.795711733301616
 31
0.0
1001
ACAD
1010
0.0
1020
0.0
1030
0.0
1001
ACDBBLOCKREPETAG
1070
     1
1071
      398
1005
127AAA
  0
LINE
  5
127AAB
  8
SLIM
 10
10424.681663531341
 20
-215.39730739906469
 30
0.0
 11
10428.397899414491
 21
-211.68107151591281
 31
0.0
1001
ACAD
1010
0.0
1020
0.0
1030
0.0
1001
ACDBBLOCKREPETAG
1070
     1
1071
      399
1005
127AAB
  0
LINE
  5
127AAC
  8
SLIM
 10
10535.681076101229
 20
-104.3978948291695
 30
0.0
 11
10539.397311984379
 21
-100.6816589460261
 31
0.0
1001
ACAD
1010
0.0
1020
0.0
1030
0.0
1001
ACDBBLOCKREPETAG
1070
     1
1071
      400
1005
127AAC
  0
LINE
  5
127AAD
  8
SLIM
 10
10427.954461102419
 20
-221.1047659490537
 30
0.0
 11
10431.58829484775
 21
-217.47093220372389
 31
0.0
1001
ACAD
1010
0.0
1020
0.0
1030
0.0
1001
ACDBBLOCKREPETAG
1070
     1
1071
      401
1005
127AAD
  0
LINE
  5
127AAE
  8
SLIM
 10
10541.470936789039
 20
-107.588290262428
 30
0.0
 11
10545.10477053437
 21
-103.9544565171061
 31
0.0
1001
ACAD
1010
0.0
1020
0.0
1030
0.0
1001
ACDBBLOCKREPETAG
1070
     1
1071
      402
1005
127AAE
  0
LINE
  5
127AAF
  8
SLIM
 10
10431.59033196866
 20
-226.44915120388191
 30
0.0
 11
10435.16855767846
 21
-222.8709254940826
 31
0.0
1001
ACAD
1010
0.0
1020
0.0
1030
0.0
1001
ACDBBLOCKREPETAG
1070
     1
1071
      403
1005
127AAF
  0
LINE
  5
127AB0
  8
SLIM
 10
10546.8709300794
 20
-111.1685530931389
 30
0.0
 11
10550.449155789191
 21
-107.5903273833469
 31
0.0
1001
ACAD
1010
0.0
1020
0.0
1030
0.0
1001
ACDBBLOCKREPETAG
1070
     1
1071
      404
1005
127AB0
  0
LINE
  5
127AB1
  8
SLIM
 10
10435.573749692519
 20
-231.44598960108971
 30
0.0
 11
10439.119812975139
 21
-227.89992631846809
 31
0.0
1001
ACAD
1010
0.0
1020
0.0
1030
0.0
1001
ACDBBLOCKREPETAG
1070
     1
1071
      405
1005
127AB1
  0
LINE
  5
127AB2
  8
SLIM
 10
10553.019743878929
 20
-113.99999541468151
 30
0.0
 11
10555.445994186401
 21
-111.5737451072081
 31
0.0
1001
ACAD
1010
0.0
1020
0.0
1030
0.0
1001
ACDBBLOCKREPETAG
1070
     1
1071
      406
1005
127AB2
  0
LINE
  5
127AB3
  8
SLIM
 10
10439.895923599141
 20
-236.10407181554169
 30
0.0
 11
10443.431457505079
 21
-232.5685379096023
 31
0.0
1001
ACAD
1010
0.0
1020
0.0
1030
0.0
1001
ACDBBLOCKREPETAG
1070
     1
1071
      407
1005
127AB3
  0
LINE
  5
127AB4
  8
SLIM
 10
10444.55400581359
 20
-240.42624572215851
 30
0.0
 11
10448.10006909621
 21
-236.88018243953789
 31
0.0
1001
ACAD
1010
0.0
1020
0.0
1030
0.0
1001
ACDBBLOCKREPETAG
1070
     1
1071
      408
1005
127AB4
  0
LINE
  5
127AB5
  8
SLIM
 10
10449.5508442108
 20
-244.40966344601941
 30
0.0
 11
10453.1290699206
 21
-240.831437736222
 31
0.0
1001
ACAD
1010
0.0
1020
0.0
1030
0.0
1001
ACDBBLOCKREPETAG
1070
     1
1071
      409
1005
127AB5
  0
LINE
  5
127AB6
  8
SLIM
 10
10454.89522946563
 20
-248.04553431225989
 30
0.0
 11
10458.52906321095
 21
-244.41170056693321
 31
0.0
1001
ACAD
1010
0.0
1020
0.0
1030
0.0
1001
ACDBBLOCKREPETAG
1070
     1
1071
      410
1005
127AB6
  0
LINE
  5
127AB7
  8
SLIM
 10
10460.602688015621
 20
-251.3183318833396
 30
0.0
 11
10464.31892389876
 21
-247.60209600019189
 31
0.0
1001
ACAD
1010
0.0
1020
0.0
1030
0.0
1001
ACDBBLOCKREPETAG
1070
     1
1071
      411
1005
127AB7
  0
LINE
  5
127AB8
  8
SLIM
 10
10466.69699692396
 20
-254.2042790960638
 30
0.0
 11
10470.52792128681
 21
-250.3733547332132
 31
0.0
1001
ACAD
1010
0.0
1020
0.0
1030
0.0
1001
ACDBBLOCKREPETAG
1070
     1
1071
      412
1005
127AB8
  0
LINE
  5
127AB9
  8
SLIM
 10
10473.212796132721
 20
-256.66873600837869
 30
0.0
 11
10477.19948772026
 21
-252.68204442083049
 31
0.0
1001
ACAD
1010
0.0
1020
0.0
1030
0.0
1001
ACDBBLOCKREPETAG
1070
     1
1071
      413
1005
127AB9
  0
LINE
  5
127ABA
  8
SLIM
 10
10480.20005854263
 20
-258.66172971953029
 30
0.0
 11
10484.39794255095
 21
-254.4638457112128
 31
0.0
1001
ACAD
1010
0.0
1020
0.0
1030
0.0
1001
ACDBBLOCKREPETAG
1070
     1
1071
      414
1005
127ABA
  0
LINE
  5
127ABB
  8
SLIM
 10
10487.73202158942
 20
-260.11002279381171
 30
0.0
 11
10492.221138900901
 21
-255.62090548233189
 31
0.0
1001
ACAD
1010
0.0
1020
0.0
1030
0.0
1001
ACDBBLOCKREPETAG
1070
     1
1071
      415
1005
127ABB
  0
LINE
  5
127ABC
  8
SLIM
 10
10495.920268647091
 20
-260.90203185721009
 30
0.0
 11
10500.0
 21
-256.82230050430388
 31
0.0
1001
ACAD
1010
0.0
1020
0.0
1030
0.0
1001
ACDBBLOCKREPETAG
1070
     1
1071
      416
1005
127ABC
  0
LINE
  5
127ABD
  8
SLIM
 10
10500.0
 20
-256.82230050430388
 30
0.0
 11
10500.826575371369
 21
-255.99572513293049
 31
0.0
1001
ACAD
1010
0.0
1020
0.0
1030
0.0
1001
ACDBBLOCKREPETAG
1070
     1
1071
      417
1005
127ABD
  0
LINE
  5
127ABE
  8
SLIM
 10
10504.94661879974
 20
-260.85593782563058
 30
0.0
 11
10510.49379595447
 21
-255.3087606708975
 31
0.0
1001
ACAD
1010
0.0
1020
0.0
1030
0.0
1001
ACDBBLOCKREPETAG
1070
     1
1071
      418
1005
127ABE
  0
LINE
  5
127ABF
  8
SLIM
 10
10515.14248532513
 20
-259.64032742130519
 30
0.0
 11
10521.814448173471
 21
-252.9683645729709
 31
0.0
1001
ACAD
1010
0.0
1020
0.0
1030
0.0
1001
ACDBBLOCKREPETAG
1070
     1
1071
      419
1005
127ABF
  0
LINE
  5
127AC0
  8
SLIM
 10
10527.249225523659
 20
-256.51384334384568
 30
0.0
 11
10536.654232816631
 21
-247.10883605087631
 31
0.0
1001
ACAD
1010
0.0
1020
0.0
1030
0.0
1001
ACDBBLOCKREPETAG
1070
     1
1071
      420
1005
127AC0
  0
LINE
  5
127AC1
  8
SLIM
 10
10544.045159630419
 20
-248.6981653581594
 30
0.0
 11
10554.743329573899
 21
-237.99999541468151
 31
0.0
1001
ACAD
1010
0.0
1020
0.0
1030
0.0
1001
ACDBBLOCKREPETAG
1070
     1
1071
      421
1005
127AC1
  0
LINE
  5
127AC2
  8
CENTER
 10
10580.0
 20
-175.99999541468151
 30
0.0
 11
10400.0
 21
-175.99999541468151
 31
0.0
1001
ACDBBLOCKREPETAG
1070
     1
1071
      187
1005
127AC2
  0
LINE
  5
127AC3
  8
CENTER
 10
10500.0
 20
-275.99999541468162
 30
0.0
 11
10500.0
 21
-75.999995414681507
 31
0.0
1001
ACDBBLOCKREPETAG
1070
     1
1071
      188
1005
127AC3
  0
CIRCLE
  5
127AC4
  8
OBJECT
 10
10500.0
 20
-175.99999541468151
 30
0.0
 40
70.0
1001
ACDBBLOCKREPETAG
1070
     1
1071
      189
1005
127AC4
  0
CIRCLE
  5
127AC5
  8
OBJECT
 10
10500.0
 20
-175.99999541468151
 30
0.0
 40
77.0
1001
ACDBBLOCKREPETAG
1070
     1
1071
      190
1005
127AC5
  0
ARC
  5
127AC6
  8
OBJECT
 10
10500.0
 20
-175.99999541468151
 30
0.0
 40
80.0
 50
50.805032573897769
 51
309.19496742610232
1001
ACDBBLOCKREPETAG
1070
     1
1071
      191
1005
127AC6
  0
LINE
  5
127AC7
  8
OBJECT
 10
10545.661800227321
 20
-113.99999541468151
 30
0.0
 11
10580.0
 21
-113.99999541468151
 31
0.0
1001
ACDBBLOCKREPETAG
1070
     1
1071
      192
1005
127AC7
  0
LINE
  5
127AC8
  8
OBJECT
 10
10545.661800227321
 20
-237.99999541468151
 30
0.0
 11
10580.0
 21
-237.99999541468151
 31
0.0
1001
ACDBBLOCKREPETAG
1070
     1
1071
      193
1005
127AC8
  0
ARC
  5
127AC9
  8
OBJECT
 10
10500.0
 20
-175.99999541468151
 30
0.0
 40
85.0
 50
46.837102859853147
 51
313.16289714014681
1001
ACDBBLOCKREPETAG
1070
     1
1071
      202
1005
127AC9
  0
LINE
  5
127ACA
  8
OBJECT
 10
10524.1029330933
 20
-219.8069425383992
 30
0.0
 11
10520.659656999989
 21
-208.5546174146811
 31
0.0
1001
ACDBBLOCKREPETAG
1070
     1
1071
      321
1005
127ACA
  0
LINE
  5
127ACB
  8
OBJECT
 10
10486.792749901369
 20
-194.2255291567626
 30
0.0
 11
10520.659656999989
 21
-208.55461741467931
 31
0.0
1001
ACDBBLOCKREPETAG
1070
     1
1071
      323
1005
127ACB
  0
ARC
  5
127ACC
  8
OBJECT
 10
10482.8961697619
 20
-203.43512541373909
 30
0.0
 40
10.0
 50
67.066778292911366
 51
154.01473437031629
1001
ACDBBLOCKREPETAG
1070
     1
1071
      324
1005
127ACC
  0
ARC
  5
127ACD
  8
OBJECT
 10
10486.14883903812
 20
-201.55385798197401
 30
0.0
 40
7.0
 50
67.066778292911366
 51
154.0147337749826
1001
ACDBBLOCKREPETAG
1070
     1
1071
      325
1005
127ACD
  0
LINE
  5
127ACE
  8
OBJECT
 10
10469.4199755553
 20
-219.89888042286421
 30
0.0
 11
10479.856491823241
 21
-198.48687794825031
 31
0.0
1001
ACDBBLOCKREPETAG
1070
     1
1071
      353
1005
127ACE
  0
LINE
  5
127ACF
  8
OBJECT
 10
10465.29721690061
 20
-216.71813443350979
 30
0.0
 11
10473.90710226651
 21
-199.0537254589899
 31
0.0
1001
ACDBBLOCKREPETAG
1070
     1
1071
      354
1005
127ACF
  0
ARC
  5
127AD0
  8
OBJECT
 10
10476.57969530731
 20
-183.128932397526
 30
0.0
 40
60.031113246032611
 50
314.07020130422319
 51
322.33936106089681
1001
ACDBBLOCKREPETAG
1070
     1
1071
      355
1005
127AD0
  0
CIRCLE
  5
127AD1
  8
OBJECT
 10
10500.0
 20
-175.99999541468151
 30
0.0
 40
53.5
1001
ACDBBLOCKREPETAG
1070
     1
1071
      356
1005
127AD1
  0
POINT
  5
127AD2
  8
DOTS
 10
10500.0
 20
-175.99999541468151
 30
0.0
 50
270.0
1001
ACDBBLOCKREPETAG
1070
     1
1071
      365
1005
127AD2
  0
LINE
  5
127AD3
  8
OBJECT
 10
4524.1029330933043
 20
-219.8069425383992
 30
0.0
 11
4520.6596569999938
 21
-208.5546174146811
 31
0.0
1001
ACDBBLOCKREPETAG
1070
     1
1071
      300
1005
127AD3
  0
LINE
  5
127AD4
  8
OBJECT
 10
4486.7927499013749
 20
-194.2255291567626
 30
0.0
 11
4520.6596569999938
 21
-208.55461741467931
 31
0.0
1001
ACDBBLOCKREPETAG
1070
     1
1071
      302
1005
127AD4
  0
ARC
  5
127AD5
  8
OBJECT
 10
4482.8961697619006
 20
-203.43512541373909
 30
0.0
 40
10.0
 50
67.066778292911366
 51
154.0147343702935
1001
ACDBBLOCKREPETAG
1070
     1
1071
      303
1005
127AD5
  0
ARC
  5
127AD6
  8
OBJECT
 10
4486.1488390381273
 20
-201.55385798197401
 30
0.0
 40
7.0
 50
67.066778292911366
 51
154.0147337749826
1001
ACDBBLOCKREPETAG
1070
     1
1071
      304
1005
127AD6
  0
LINE
  5
127AD7
  8
OBJECT
 10
4469.4199755553018
 20
-219.89888042286421
 30
0.0
 11
4479.8564918232369
 21
-198.48687794825031
 31
0.0
1001
ACDBBLOCKREPETAG
1070
     1
1071
      341
1005
127AD7
  0
LINE
  5
127AD8
  8
OBJECT
 10
4465.2972169006089
 20
-216.71813443350979
 30
0.0
 11
4473.9071022665084
 21
-199.0537254589899
 31
0.0
1001
ACDBBLOCKREPETAG
1070
     1
1071
      342
1005
127AD8
  0
ARC
  5
127AD9
  8
OBJECT
 10
4476.5796953073141
 20
-183.128932397526
 30
0.0
 40
60.031113246032611
 50
314.07020130418567
 51
322.33936106089681
1001
ACDBBLOCKREPETAG
1070
     1
1071
      343
1005
127AD9
  0
CIRCLE
  5
127ADA
  8
OBJECT
 10
4500.0
 20
-175.99999541468151
 30
0.0
 40
53.5
1001
ACDBBLOCKREPETAG
1070
     1
1071
      344
1005
127ADA
  0
POINT
  5
127ADB
  8
DOTS
 10
4500.0
 20
-175.99999541468151
 30
0.0
 50
270.0
1001
ACDBBLOCKREPETAG
1070
     1
1071
      362
1005
127ADB
  0
ARC
  5
127ADC
  8
OBJECT
 10
4500.0
 20
-175.99999541468151
 30
0.0
 40
50.0
 50
298.81994300000417
 51
228.52376955965491
1001
ACDBBLOCKREPETAG
1070
     1
1071
        7
1005
127ADC
  0
LINE
  5
127ADD
  8
CENTER
 10
4580.0
 20
-175.99999541468151
 30
0.0
 11
4405.0
 21
-175.99999541468151
 31
0.0
1001
ACDBBLOCKREPETAG
1070
     1
1071
       14
1005
127ADD
  0
LINE
  5
127ADE
  8
CENTER
 10
4500.0
 20
-270.99999541468162
 30
0.0
 11
4500.0
 21
-80.999995414681507
 31
0.0
1001
ACDBBLOCKREPETAG
1070
     1
1071
       15
1005
127ADE
  0
CIRCLE
  5
127ADF
  8
OBJECT
 10
4500.0
 20
-175.99999541468151
 30
0.0
 40
70.0
1001
ACDBBLOCKREPETAG
1070
     1
1071
       16
1005
127ADF
  0
CIRCLE
  5
127AE0
  8
OBJECT
 10
4500.0
 20
-175.99999541468151
 30
0.0
 40
77.0
1001
ACDBBLOCKREPETAG
1070
     1
1071
       17
1005
127AE0
  0
ARC
  5
127AE1
  8
OBJECT
 10
4500.0
 20
-175.99999541468151
 30
0.0
 40
80.0
 50
50.80503257388439
 51
309.19496742611562
1001
ACDBBLOCKREPETAG
1070
     1
1071
       18
1005
127AE1
  0
LINE
  5
127AE2
  8
OBJECT
 10
4545.6618002273244
 20
-113.99999541468151
 30
0.0
 11
4580.0
 21
-113.99999541468151
 31
0.0
1001
ACDBBLOCKREPETAG
1070
     1
1071
       19
1005
127AE2
  0
LINE
  5
127AE3
  8
OBJECT
 10
4545.6618002273244
 20
-237.99999541468151
 30
0.0
 11
4580.0
 21
-237.99999541468151
 31
0.0
1001
ACDBBLOCKREPETAG
1070
     1
1071
       20
1005
127AE3
  0
LINE
  5
127AE4
  8
OBJECT
 10
10633.0
 20
-113.99999541468151
 30
0.0
 11
10640.0
 21
-113.99999541468151
 31
0.0
1001
ACDBBLOCKREPETAG
1070
     1
1071
       47
1005
127AE4
  0
LINE
  5
127AE5
  8
OBJECT
 10
10640.0
 20
-113.99999541468151
 30
0.0
 11
10640.0
 21
-237.99999541468151
 31
0.0
1001
ACDBBLOCKREPETAG
1070
     1
1071
       48
1005
127AE5
  0
LINE
  5
127AE6
  8
OBJECT
 10
10640.0
 20
-237.99999541468151
 30
0.0
 11
10633.0
 21
-237.99999541468151
 31
0.0
1001
ACDBBLOCKREPETAG
1070
     1
1071
       49
1005
127AE6
  0
LINE
  5
127AE7
  8
OBJECT
 10
10633.0
 20
-237.99999541468151
 30
0.0
 11
10633.0
 21
-113.99999541468151
 31
0.0
1001
ACDBBLOCKREPETAG
1070
     1
1071
       50
1005
127AE7
  0
LINE
  5
127AE8
  8
CENTER
 10
10655.0
 20
-175.99999541468151
 30
0.0
 11
10580.0
 21
-175.99999541468151
 31
0.0
1001
ACDBBLOCKREPETAG
1070
     1
1071
       51
1005
127AE8
  0
LINE
  5
127AE9
  8
OBJECT
 10
10633.0
 20
-116.99999541468151
 30
0.0
 11
10597.0
 21
-116.99999541468151
 31
0.0
1001
ACDBBLOCKREPETAG
1070
     1
1071
       52
1005
127AE9
  0
LINE
  5
127AEA
  8
OBJECT
 10
10597.0
 20
-116.99999541468151
 30
0.0
 11
10597.0
 21
-234.99999541468151
 31
0.0
1001
ACDBBLOCKREPETAG
1070
     1
1071
       53
1005
127AEA
  0
LINE
  5
127AEB
  8
OBJECT
 10
10597.0
 20
-234.99999541468151
 30
0.0
 11
10633.0
 21
-234.99999541468151
 31
0.0
1001
ACDBBLOCKREPETAG
1070
     1
1071
       54
1005
127AEB
  0
LINE
  5
127AEC
  8
OBJECT
 10
10593.0
 20
-121.49999541468151
 30
0.0
 11
10586.0
 21
-121.49999541468151
 31
0.0
1001
ACDBBLOCKREPETAG
1070
     1
1071
       55
1005
127AEC
  0
LINE
  5
127AED
  8
OBJECT
 10
10586.0
 20
-230.49999541468151
 30
0.0
 11
10593.0
 21
-230.49999541468151
 31
0.0
1001
ACDBBLOCKREPETAG
1070
     1
1071
       56
1005
127AED
  0
LINE
  5
127AEE
  8
OBJECT
 10
10593.0
 20
-230.49999541468151
 30
0.0
 11
10593.0
 21
-121.49999541468151
 31
0.0
1001
ACDBBLOCKREPETAG
1070
     1
1071
       57
1005
127AEE
  0
LINE
  5
127AEF
  8
OBJECT
 10
10597.0
 20
-116.99999541468151
 30
0.0
 11
10593.0
 21
-121.49999541468151
 31
0.0
1001
ACDBBLOCKREPETAG
1070
     1
1071
       58
1005
127AEF
  0
LINE
  5
127AF0
  8
OBJECT
 10
10597.0
 20
-234.99999541468151
 30
0.0
 11
10593.0
 21
-230.49999541468151
 31
0.0
1001
ACDBBLOCKREPETAG
1070
     1
1071
       59
1005
127AF0
  0
LINE
  5
127AF1
  8
OBJECT
 10
10583.0
 20
-113.99999541468151
 30
0.0
 11
10580.0
 21
-113.99999541468151
 31
0.0
1001
ACDBBLOCKREPETAG
1070
     1
1071
       60
1005
127AF1
  0
ARC
  5
127AF2
  8
OBJECT
 10
10583.0
 20
-116.99999541468151
 30
0.0
 40
3.0
 50
0.0
 51
90.0
1001
ACDBBLOCKREPETAG
1070
     1
1071
       61
1005
127AF2
  0
LINE
  5
127AF3
  8
OBJECT
 10
10580.0
 20
-237.99999541468151
 30
0.0
 11
10583.0
 21
-237.99999541468151
 31
0.0
1001
ACDBBLOCKREPETAG
1070
     1
1071
       62
1005
127AF3
  0
ARC
  5
127AF4
  8
OBJECT
 10
10583.0
 20
-234.99999541468151
 30
0.0
 40
3.0
 50
270.0
 51
0.0
1001
ACDBBLOCKREPETAG
1070
     1
1071
       63
1005
127AF4
  0
LINE
  5
127AF5
  8
OBJECT
 10
10586.0
 20
-234.99999541468151
 30
0.0
 11
10586.0
 21
-116.99999541468151
 31
0.0
1001
ACDBBLOCKREPETAG
1070
     1
1071
       64
1005
127AF5
  0
LINE
  5
127AF6
  8
HIDDEN
 10
10588.0
 20
-131.49999541468151
 30
0.0
 11
10588.0
 21
-220.49999541468151
 31
0.0
1001
ACDBBLOCKREPETAG
1070
     1
1071
       65
1005
127AF6
  0
LINE
  5
127AF7
  8
OBJECT
 10
4633.0
 20
-113.99999541468151
 30
0.0
 11
4640.0
 21
-113.99999541468151
 31
0.0
1001
ACDBBLOCKREPETAG
1070
     1
1071
       47
1005
127AF7
  0
LINE
  5
127AF8
  8
OBJECT
 10
4640.0
 20
-113.99999541468151
 30
0.0
 11
4640.0
 21
-237.99999541468151
 31
0.0
1001
ACDBBLOCKREPETAG
1070
     1
1071
       48
1005
127AF8
  0
LINE
  5
127AF9
  8
OBJECT
 10
4640.0
 20
-237.99999541468151
 30
0.0
 11
4633.0
 21
-237.99999541468151
 31
0.0
1001
ACDBBLOCKREPETAG
1070
     1
1071
       49
1005
127AF9
  0
LINE
  5
127AFA
  8
OBJECT
 10
4633.0
 20
-237.99999541468151
 30
0.0
 11
4633.0
 21
-113.99999541468151
 31
0.0
1001
ACDBBLOCKREPETAG
1070
     1
1071
       50
1005
127AFA
  0
LINE
  5
127AFB
  8
CENTER
 10
4655.0
 20
-175.99999541468151
 30
0.0
 11
4580.0
 21
-175.99999541468151
 31
0.0
1001
ACDBBLOCKREPETAG
1070
     1
1071
       51
1005
127AFB
  0
LINE
  5
127AFC
  8
OBJECT
 10
4633.0
 20
-116.99999541468151
 30
0.0
 11
4597.0
 21
-116.99999541468151
 31
0.0
1001
ACDBBLOCKREPETAG
1070
     1
1071
       52
1005
127AFC
  0
LINE
  5
127AFD
  8
OBJECT
 10
4597.0
 20
-116.99999541468151
 30
0.0
 11
4597.0
 21
-234.99999541468151
 31
0.0
1001
ACDBBLOCKREPETAG
1070
     1
1071
       53
1005
127AFD
  0
LINE
  5
127AFE
  8
OBJECT
 10
4597.0
 20
-234.99999541468151
 30
0.0
 11
4633.0
 21
-234.99999541468151
 31
0.0
1001
ACDBBLOCKREPETAG
1070
     1
1071
       54
1005
127AFE
  0
LINE
  5
127AFF
  8
OBJECT
 10
4593.0
 20
-121.49999541468151
 30
0.0
 11
4586.0
 21
-121.49999541468151
 31
0.0
1001
ACDBBLOCKREPETAG
1070
     1
1071
       55
1005
127AFF
  0
LINE
  5
127B00
  8
OBJECT
 10
4586.0
 20
-230.49999541468151
 30
0.0
 11
4593.0
 21
-230.49999541468151
 31
0.0
1001
ACDBBLOCKREPETAG
1070
     1
1071
       56
1005
127B00
  0
LINE
  5
127B01
  8
OBJECT
 10
4593.0
 20
-230.49999541468151
 30
0.0
 11
4593.0
 21
-121.49999541468151
 31
0.0
1001
ACDBBLOCKREPETAG
1070
     1
1071
       57
1005
127B01
  0
LINE
  5
127B02
  8
OBJECT
 10
4597.0
 20
-116.99999541468151
 30
0.0
 11
4593.0
 21
-121.49999541468151
 31
0.0
1001
ACDBBLOCKREPETAG
1070
     1
1071
       58
1005
127B02
  0
LINE
  5
127B03
  8
OBJECT
 10
4597.0
 20
-234.99999541468151
 30
0.0
 11
4593.0
 21
-230.49999541468151
 31
0.0
1001
ACDBBLOCKREPETAG
1070
     1
1071
       59
1005
127B03
  0
LINE
  5
127B04
  8
OBJECT
 10
4583.0
 20
-113.99999541468151
 30
0.0
 11
4580.0
 21
-113.99999541468151
 31
0.0
1001
ACDBBLOCKREPETAG
1070
     1
1071
       60
1005
127B04
  0
ARC
  5
127B05
  8
OBJECT
 10
4583.0
 20
-116.99999541468151
 30
0.0
 40
3.0
 50
0.0
 51
90.0
1001
ACDBBLOCKREPETAG
1070
     1
1071
       61
1005
127B05
  0
LINE
  5
127B06
  8
OBJECT
 10
4580.0
 20
-237.99999541468151
 30
0.0
 11
4583.0
 21
-237.99999541468151
 31
0.0
1001
ACDBBLOCKREPETAG
1070
     1
1071
       62
1005
127B06
  0
ARC
  5
127B07
  8
OBJECT
 10
4583.0
 20
-234.99999541468151
 30
0.0
 40
3.0
 50
270.0
 51
0.0
1001
ACDBBLOCKREPETAG
1070
     1
1071
       63
1005
127B07
  0
LINE
  5
127B08
  8
OBJECT
 10
4586.0
 20
-234.99999541468151
 30
0.0
 11
4586.0
 21
-116.99999541468151
 31
0.0
1001
ACDBBLOCKREPETAG
1070
     1
1071
       64
1005
127B08
  0
LINE
  5
127B09
  8
HIDDEN
 10
4588.0
 20
-131.49999541468151
 30
0.0
 11
4588.0
 21
-220.49999541468151
 31
0.0
1001
ACDBBLOCKREPETAG
1070
     1
1071
       65
1005
127B09
  0
ARC
  5
127B0A
  8
OBJECT
 10
8500.0
 20
-175.99999541468151
 30
0.0
 40
50.0
 50
298.81994300000417
 51
228.52376955964741
1001
ACDBBLOCKREPETAG
1070
     1
1071
      185
1005
127B0A
  0
LINE
  5
127B0B
  8
SLIM
 10
8427.3018300565236
 20
-131.95483578426081
 30
0.0
 11
8455.9548403695826
 21
-103.3018254712013
 31
0.0
1001
ACAD
1010
0.0
1020
0.0
1030
0.0
1001
ACDBBLOCKREPETAG
1070
     1
1071
      429
1005
127B0B
  0
LINE
  5
127B0C
  8
SLIM
 10
8419.4861520708346
 20
-148.75076989101481
 30
0.0
 11
8428.8911593638004
 21
-139.34576259805101
 31
0.0
1001
ACAD
1010
0.0
1020
0.0
1030
0.0
1001
ACDBBLOCKREPETAG
1070
     1
1071
      381
1005
127B0C
  0
LINE
  5
127B0D
  8
SLIM
 10
8463.3457671833712
 20
-104.8911547784803
 30
0.0
 11
8472.7507744763334
 21
-95.486147485516582
 31
0.0
1001
ACAD
1010
0.0
1020
0.0
1030
0.0
1001
ACDBBLOCKREPETAG
1070
     1
1071
      382
1005
127B0D
  0
LINE
  5
127B0E
  8
SLIM
 10
8416.3596679933762
 20
-160.85751008954301
 30
0.0
 11
8423.0316308417041
 21
-154.18554724121299
 31
0.0
1001
ACAD
1010
0.0
1020
0.0
1030
0.0
1001
ACDBBLOCKREPETAG
1070
     1
1071
      383
1005
127B0E
  0
LINE
  5
127B0F
  8
SLIM
 10
8478.1855518265329
 20
-99.031626256387483
 30
0.0
 11
8484.8575146748626
 21
-92.359663408057429
 31
0.0
1001
ACAD
1010
0.0
1020
0.0
1030
0.0
1001
ACDBBLOCKREPETAG
1070
     1
1071
      384
1005
127B0F
  0
LINE
  5
127B10
  8
SLIM
 10
8415.1440575890501
 20
-171.05337661493741
 30
0.0
 11
8420.691234743781
 21
-165.50619946020811
 31
0.0
1001
ACAD
1010
0.0
1020
0.0
1030
0.0
1001
ACDBBLOCKREPETAG
1070
     1
1071
      385
1005
127B10
  0
LINE
  5
127B11
  8
SLIM
 10
8489.5062040455286
 20
-96.69123015846148
 30
0.0
 11
8495.0533812002577
 21
-91.144053003732253
 31
0.0
1001
ACAD
1010
0.0
1020
0.0
1030
0.0
1001
ACDBBLOCKREPETAG
1070
     1
1071
      386
1005
127B11
  0
LINE
  5
127B12
  8
SLIM
 10
8415.0979635574658
 20
-180.07972676759269
 30
0.0
 11
8419.1776949103787
 21
-175.99999541468151
 31
0.0
1001
ACAD
1010
0.0
1020
0.0
1030
0.0
1001
ACDBBLOCKREPETAG
1070
     1
1071
      387
1005
127B12
  0
LINE
  5
127B13
  8
SLIM
 10
8500.0
 20
-95.177690325059132
 30
0.0
 11
8504.0797313529074
 21
-91.097958972153265
 31
0.0
1001
ACAD
1010
0.0
1020
0.0
1030
0.0
1001
ACDBBLOCKREPETAG
1070
     1
1071
      388
1005
127B13
  0
LINE
  5
127B14
  8
SLIM
 10
8419.1776949103787
 20
-175.99999541468151
 30
0.0
 11
8420.0042702817464
 21
-175.17342004330999
 31
0.0
1001
ACAD
1010
0.0
1020
0.0
1030
0.0
1001
ACDBBLOCKREPETAG
1070
     1
1071
      389
1005
127B14
  0
LINE
  5
127B15
  8
SLIM
 10
8499.1734246286305
 20
-96.004265696428789
 30
0.0
 11
8500.0
 21
-95.177690325059146
 31
0.0
1001
ACAD
1010
0.0
1020
0.0
1030
0.0
1001
ACDBBLOCKREPETAG
1070
     1
1071
      390
1005
127B15
  0
LINE
  5
127B16
  8
SLIM
 10
8415.8899726208656
 20
-188.2679738252624
 30
0.0
 11
8420.3790899323576
 21
-183.77885651377261
 31
0.0
1001
ACAD
1010
0.0
1020
0.0
1030
0.0
1001
ACDBBLOCKREPETAG
1070
     1
1071
      391
1005
127B16
  0
LINE
  5
127B17
  8
SLIM
 10
8507.7788610990974
 20
-96.379085347030724
 30
0.0
 11
8512.2679784105767
 21
-91.889968035552343
 31
0.0
1001
ACAD
1010
0.0
1020
0.0
1030
0.0
1001
ACDBBLOCKREPETAG
1070
     1
1071
      392
1005
127B17
  0
LINE
  5
127B18
  8
SLIM
 10
8417.3382656951471
 20
-195.7999368720495
 30
0.0
 11
8421.5361497034737
 21
-191.6020528637238
 31
0.0
1001
ACAD
1010
0.0
1020
0.0
1030
0.0
1001
ACDBBLOCKREPETAG
1070
     1
1071
      393
1005
127B18
  0
LINE
  5
127B19
  8
SLIM
 10
8515.6020574490485
 20
-97.536145118149506
 30
0.0
 11
8519.7999414573624
 21
-93.338261109834278
 31
0.0
1001
ACAD
1010
0.0
1020
0.0
1030
0.0
1001
ACDBBLOCKREPETAG
1070
     1
1071
      394
1005
127B19
  0
LINE
  5
127B1A
  8
SLIM
 10
8419.3312594063045
 20
-202.78719928196651
 30
0.0
 11
8423.3179509938545
 21
-198.80050769441161
 31
0.0
1001
ACAD
1010
0.0
1020
0.0
1030
0.0
1001
ACDBBLOCKREPETAG
1070
     1
1071
      395
1005
127B1A
  0
LINE
  5
127B1B
  8
SLIM
 10
8522.8005122797367
 20
-99.317946408531412
 30
0.0
 11
8526.7872038672776
 21
-95.331254820986345
 31
0.0
1001
ACAD
1010
0.0
1020
0.0
1030
0.0
1001
ACDBBLOCKREPETAG
1070
     1
1071
      396
1005
127B1B
  0
LINE
  5
127B1C
  8
SLIM
 10
8421.7957163186147
 20
-209.3029984907202
 30
0.0
 11
8425.6266406814684
 21
-205.47207412786429
 31
0.0
1001
ACAD
1010
0.0
1020
0.0
1030
0.0
1001
ACDBBLOCKREPETAG
1070
     1
1071
      397
1005
127B1C
  0
LINE
  5
127B1D
  8
SLIM
 10
8529.4720787131864
 20
-101.6266360961484
 30
0.0
 11
8533.3030030760347
 21
-97.795711733301616
 31
0.0
1001
ACAD
1010
0.0
1020
0.0
1030
0.0
1001
ACDBBLOCKREPETAG
1070
     1
1071
      398
1005
127B1D
  0
LINE
  5
127B1E
  8
SLIM
 10
8424.6816635313407
 20
-215.39730739906469
 30
0.0
 11
8428.3978994144927
 21
-211.68107151591281
 31
0.0
1001
ACAD
1010
0.0
1020
0.0
1030
0.0
1001
ACDBBLOCKREPETAG
1070
     1
1071
      399
1005
127B1E
  0
LINE
  5
127B1F
  8
SLIM
 10
8535.6810761012348
 20
-104.3978948291695
 30
0.0
 11
8539.3973119843777
 21
-100.6816589460261
 31
0.0
1001
ACAD
1010
0.0
1020
0.0
1030
0.0
1001
ACDBBLOCKREPETAG
1070
     1
1071
      400
1005
127B1F
  0
LINE
  5
127B20
  8
SLIM
 10
8427.9544611024212
 20
-221.1047659490537
 30
0.0
 11
8431.5882948477501
 21
-217.47093220372389
 31
0.0
1001
ACAD
1010
0.0
1020
0.0
1030
0.0
1001
ACDBBLOCKREPETAG
1070
     1
1071
      401
1005
127B20
  0
LINE
  5
127B21
  8
SLIM
 10
8541.4709367890428
 20
-107.588290262428
 30
0.0
 11
8545.1047705343717
 21
-103.9544565171061
 31
0.0
1001
ACAD
1010
0.0
1020
0.0
1030
0.0
1001
ACDBBLOCKREPETAG
1070
     1
1071
      402
1005
127B21
  0
LINE
  5
127B22
  8
SLIM
 10
8431.5903319686622
 20
-226.44915120388191
 30
0.0
 11
8435.1685576784603
 21
-222.8709254940826
 31
0.0
1001
ACAD
1010
0.0
1020
0.0
1030
0.0
1001
ACDBBLOCKREPETAG
1070
     1
1071
      403
1005
127B22
  0
LINE
  5
127B23
  8
SLIM
 10
8546.8709300794035
 20
-111.1685530931389
 30
0.0
 11
8550.4491557891979
 21
-107.5903273833469
 31
0.0
1001
ACAD
1010
0.0
1020
0.0
1030
0.0
1001
ACDBBLOCKREPETAG
1070
     1
1071
      404
1005
127B23
  0
LINE
  5
127B24
  8
SLIM
 10
8435.5737496925212
 20
-231.44598960108971
 30
0.0
 11
8439.1198129751447
 21
-227.89992631846809
 31
0.0
1001
ACAD
1010
0.0
1020
0.0
1030
0.0
1001
ACDBBLOCKREPETAG
1070
     1
1071
      405
1005
127B24
  0
LINE
  5
127B25
  8
SLIM
 10
8553.0197438789328
 20
-113.99999541468151
 30
0.0
 11
8555.4459941864025
 21
-111.5737451072081
 31
0.0
1001
ACAD
1010
0.0
1020
0.0
1030
0.0
1001
ACDBBLOCKREPETAG
1070
     1
1071
      406
1005
127B25
  0
LINE
  5
127B26
  8
SLIM
 10
8439.8959235991388
 20
-236.10407181554169
 30
0.0
 11
8443.4314575050776
 21
-232.5685379096023
 31
0.0
1001
ACAD
1010
0.0
1020
0.0
1030
0.0
1001
ACDBBLOCKREPETAG
1070
     1
1071
      407
1005
127B26
  0
LINE
  5
127B27
  8
SLIM
 10
8444.5540058135903
 20
-240.42624572215851
 30
0.0
 11
8448.1000690962137
 21
-236.88018243953789
 31
0.0
1001
ACAD
1010
0.0
1020
0.0
1030
0.0
1001
ACDBBLOCKREPETAG
1070
     1
1071
      408
1005
127B27
  0
LINE
  5
127B28
  8
SLIM
 10
8449.5508442108003
 20
-244.40966344601941
 30
0.0
 11
8453.1290699205965
 21
-240.831437736222
 31
0.0
1001
ACAD
1010
0.0
1020
0.0
1030
0.0
1001
ACDBBLOCKREPETAG
1070
     1
1071
      409
1005
127B28
  0
LINE
  5
127B29
  8
SLIM
 10
8454.8952294656283
 20
-248.04553431225989
 30
0.0
 11
8458.5290632109554
 21
-244.41170056693321
 31
0.0
1001
ACAD
1010
0.0
1020
0.0
1030
0.0
1001
ACDBBLOCKREPETAG
1070
     1
1071
      410
1005
127B29
  0
LINE
  5
127B2A
  8
SLIM
 10
8460.6026880156169
 20
-251.3183318833396
 30
0.0
 11
8464.318923898767
 21
-247.60209600019189
 31
0.0
1001
ACAD
1010
0.0
1020
0.0
1030
0.0
1001
ACDBBLOCKREPETAG
1070
     1
1071
      411
1005
127B2A
  0
LINE
  5
127B2B
  8
SLIM
 10
8466.6969969239617
 20
-254.2042790960638
 30
0.0
 11
8470.5279212868136
 21
-250.3733547332132
 31
0.0
1001
ACAD
1010
0.0
1020
0.0
1030
0.0
1001
ACDBBLOCKREPETAG
1070
     1
1071
      412
1005
127B2B
  0
LINE
  5
127B2C
  8
SLIM
 10
8473.2127961327187
 20
-256.66873600837869
 30
0.0
 11
8477.1994877202687
 21
-252.68204442083049
 31
0.0
1001
ACAD
1010
0.0
1020
0.0
1030
0.0
1001
ACDBBLOCKREPETAG
1070
     1
1071
      413
1005
127B2C
  0
LINE
  5
127B2D
  8
SLIM
 10
8480.2000585426358
 20
-258.66172971953029
 30
0.0
 11
8484.3979425509551
 21
-254.4638457112128
 31
0.0
1001
ACAD
1010
0.0
1020
0.0
1030
0.0
1001
ACDBBLOCKREPETAG
1070
     1
1071
      414
1005
127B2D
  0
LINE
  5
127B2E
  8
SLIM
 10
8487.7320215894215
 20
-260.11002279381171
 30
0.0
 11
8492.2211389009026
 21
-255.62090548233189
 31
0.0
1001
ACAD
1010
0.0
1020
0.0
1030
0.0
1001
ACDBBLOCKREPETAG
1070
     1
1071
      415
1005
127B2E
  0
LINE
  5
127B2F
  8
SLIM
 10
8495.9202686470908
 20
-260.90203185721009
 30
0.0
 11
8500.0
 21
-256.82230050430388
 31
0.0
1001
ACAD
1010
0.0
1020
0.0
1030
0.0
1001
ACDBBLOCKREPETAG
1070
     1
1071
      416
1005
127B2F
  0
LINE
  5
127B30
  8
SLIM
 10
8500.0
 20
-256.82230050430388
 30
0.0
 11
8500.8265753713731
 21
-255.99572513293049
 31
0.0
1001
ACAD
1010
0.0
1020
0.0
1030
0.0
1001
ACDBBLOCKREPETAG
1070
     1
1071
      417
1005
127B30
  0
LINE
  5
127B31
  8
SLIM
 10
8504.9466187997423
 20
-260.85593782563058
 30
0.0
 11
8510.493795954475
 21
-255.3087606708975
 31
0.0
1001
ACAD
1010
0.0
1020
0.0
1030
0.0
1001
ACDBBLOCKREPETAG
1070
     1
1071
      418
1005
127B31
  0
LINE
  5
127B32
  8
SLIM
 10
8515.1424853251374
 20
-259.64032742130519
 30
0.0
 11
8521.8144481734707
 21
-252.9683645729709
 31
0.0
1001
ACAD
1010
0.0
1020
0.0
1030
0.0
1001
ACDBBLOCKREPETAG
1070
     1
1071
      419
1005
127B32
  0
LINE
  5
127B33
  8
SLIM
 10
8527.2492255236666
 20
-256.51384334384568
 30
0.0
 11
8536.6542328166342
 21
-247.10883605087631
 31
0.0
1001
ACAD
1010
0.0
1020
0.0
1030
0.0
1001
ACDBBLOCKREPETAG
1070
     1
1071
      420
1005
127B33
  0
LINE
  5
127B34
  8
SLIM
 10
8544.045159630421
 20
-248.6981653581594
 30
0.0
 11
8554.7433295738992
 21
-237.99999541468151
 31
0.0
1001
ACAD
1010
0.0
1020
0.0
1030
0.0
1001
ACDBBLOCKREPETAG
1070
     1
1071
      421
1005
127B34
  0
LINE
  5
127B35
  8
CENTER
 10
8580.0
 20
-175.99999541468151
 30
0.0
 11
8400.0
 21
-175.99999541468151
 31
0.0
1001
ACDBBLOCKREPETAG
1070
     1
1071
      187
1005
127B35
  0
LINE
  5
127B36
  8
CENTER
 10
8500.0
 20
-275.99999541468162
 30
0.0
 11
8500.0
 21
-75.999995414681507
 31
0.0
1001
ACDBBLOCKREPETAG
1070
     1
1071
      188
1005
127B36
  0
CIRCLE
  5
127B37
  8
OBJECT
 10
8500.0
 20
-175.99999541468151
 30
0.0
 40
70.0
1001
ACDBBLOCKREPETAG
1070
     1
1071
      189
1005
127B37
  0
CIRCLE
  5
127B38
  8
OBJECT
 10
8500.0
 20
-175.99999541468151
 30
0.0
 40
77.0
1001
ACDBBLOCKREPETAG
1070
     1
1071
      190
1005
127B38
  0
ARC
  5
127B39
  8
OBJECT
 10
8500.0
 20
-175.99999541468151
 30
0.0
 40
80.0
 50
50.805032573897769
 51
309.19496742610232
1001
ACDBBLOCKREPETAG
1070
     1
1071
      191
1005
127B39
  0
LINE
  5
127B3A
  8
OBJECT
 10
8545.6618002273262
 20
-113.99999541468151
 30
0.0
 11
8580.0
 21
-113.99999541468151
 31
0.0
1001
ACDBBLOCKREPETAG
1070
     1
1071
      192
1005
127B3A
  0
LINE
  5
127B3B
  8
OBJECT
 10
8545.6618002273262
 20
-237.99999541468151
 30
0.0
 11
8580.0
 21
-237.99999541468151
 31
0.0
1001
ACDBBLOCKREPETAG
1070
     1
1071
      193
1005
127B3B
  0
ARC
  5
127B3C
  8
OBJECT
 10
8500.0
 20
-175.99999541468151
 30
0.0
 40
85.0
 50
46.837102859853147
 51
313.16289714014681
1001
ACDBBLOCKREPETAG
1070
     1
1071
      202
1005
127B3C
  0
LINE
  5
127B3D
  8
OBJECT
 10
8524.1029330933015
 20
-219.8069425383992
 30
0.0
 11
8520.6596569999983
 21
-208.5546174146811
 31
0.0
1001
ACDBBLOCKREPETAG
1070
     1
1071
      321
1005
127B3D
  0
LINE
  5
127B3E
  8
OBJECT
 10
8486.7927499013731
 20
-194.2255291567626
 30
0.0
 11
8520.6596569999983
 21
-208.55461741467931
 31
0.0
1001
ACDBBLOCKREPETAG
1070
     1
1071
      323
1005
127B3E
  0
ARC
  5
127B3F
  8
OBJECT
 10
8482.8961697618979
 20
-203.43512541373909
 30
0.0
 40
10.0
 50
67.066778292911366
 51
154.01473437031629
1001
ACDBBLOCKREPETAG
1070
     1
1071
      324
1005
127B3F
  0
ARC
  5
127B40
  8
OBJECT
 10
8486.1488390381255
 20
-201.55385798197401
 30
0.0
 40
7.0
 50
67.066778292911366
 51
154.0147337749826
1001
ACDBBLOCKREPETAG
1070
     1
1071
      325
1005
127B40
  0
LINE
  5
127B41
  8
OBJECT
 10
8469.4199755553018
 20
-219.89888042286421
 30
0.0
 11
8479.8564918232369
 21
-198.48687794825031
 31
0.0
1001
ACDBBLOCKREPETAG
1070
     1
1071
      353
1005
127B41
  0
LINE
  5
127B42
  8
OBJECT
 10
8465.2972169006116
 20
-216.71813443350979
 30
0.0
 11
8473.9071022665084
 21
-199.0537254589899
 31
0.0
1001
ACDBBLOCKREPETAG
1070
     1
1071
      354
1005
127B42
  0
ARC
  5
127B43
  8
OBJECT
 10
8476.5796953073132
 20
-183.128932397526
 30
0.0
 40
60.031113246032611
 50
314.07020130422319
 51
322.33936106089681
1001
ACDBBLOCKREPETAG
1070
     1
1071
      355
1005
127B43
  0
CIRCLE
  5
127B44
  8
OBJECT
 10
8500.0
 20
-175.99999541468151
 30
0.0
 40
53.5
1001
ACDBBLOCKREPETAG
1070
     1
1071
      356
1005
127B44
  0
POINT
  5
127B45
  8
DOTS
 10
8500.0
 20
-175.99999541468151
 30
0.0
 50
270.0
1001
ACDBBLOCKREPETAG
1070
     1
1071
      365
1005
127B45
  0
LINE
  5
127B46
  8
OBJECT
 10
2524.102933093302
 20
-219.8069425383992
 30
0.0
 11
2520.659656999997
 21
-208.5546174146811
 31
0.0
1001
ACDBBLOCKREPETAG
1070
     1
1071
      300
1005
127B46
  0
LINE
  5
127B47
  8
OBJECT
 10
2486.7927499013749
 20
-194.2255291567626
 30
0.0
 11
2520.659656999997
 21
-208.55461741467931
 31
0.0
1001
ACDBBLOCKREPETAG
1070
     1
1071
      302
1005
127B47
  0
ARC
  5
127B48
  8
OBJECT
 10
2482.896169761902
 20
-203.43512541373909
 30
0.0
 40
10.0
 50
67.066778292911366
 51
154.0147343702935
1001
ACDBBLOCKREPETAG
1070
     1
1071
      303
1005
127B48
  0
ARC
  5
127B49
  8
OBJECT
 10
2486.1488390381278
 20
-201.55385798197401
 30
0.0
 40
7.0
 50
67.066778292911366
 51
154.01473377497121
1001
ACDBBLOCKREPETAG
1070
     1
1071
      304
1005
127B49
  0
LINE
  5
127B4A
  8
OBJECT
 10
2469.4199755553018
 20
-219.89888042286421
 30
0.0
 11
2479.8564918232369
 21
-198.48687794825031
 31
0.0
1001
ACDBBLOCKREPETAG
1070
     1
1071
      341
1005
127B4A
  0
LINE
  5
127B4B
  8
OBJECT
 10
2465.2972169006089
 20
-216.71813443350979
 30
0.0
 11
2473.9071022665089
 21
-199.0537254589899
 31
0.0
1001
ACDBBLOCKREPETAG
1070
     1
1071
      342
1005
127B4B
  0
ARC
  5
127B4C
  8
OBJECT
 10
2476.579695307315
 20
-183.128932397526
 30
0.0
 40
60.031113246032611
 50
314.07020130418567
 51
322.33936106091278
1001
ACDBBLOCKREPETAG
1070
     1
1071
      343
1005
127B4C
  0
CIRCLE
  5
127B4D
  8
OBJECT
 10
2500.0
 20
-175.99999541468151
 30
0.0
 40
53.5
1001
ACDBBLOCKREPETAG
1070
     1
1071
      344
1005
127B4D
  0
POINT
  5
127B4E
  8
DOTS
 10
2500.0
 20
-175.99999541468151
 30
0.0
 50
270.0
1001
ACDBBLOCKREPETAG
1070
     1
1071
      362
1005
127B4E
  0
ARC
  5
127B4F
  8
OBJECT
 10
2500.0
 20
-175.99999541468151
 30
0.0
 40
50.0
 50
298.81994300000417
 51
228.52376955967449
1001
ACDBBLOCKREPETAG
1070
     1
1071
        7
1005
127B4F
  0
LINE
  5
127B50
  8
CENTER
 10
2580.0
 20
-175.99999541468151
 30
0.0
 11
2405.0
 21
-175.99999541468151
 31
0.0
1001
ACDBBLOCKREPETAG
1070
     1
1071
       14
1005
127B50
  0
LINE
  5
127B51
  8
CENTER
 10
2500.0
 20
-270.99999541468162
 30
0.0
 11
2500.0
 21
-80.999995414681507
 31
0.0
1001
ACDBBLOCKREPETAG
1070
     1
1071
       15
1005
127B51
  0
CIRCLE
  5
127B52
  8
OBJECT
 10
2500.0
 20
-175.99999541468151
 30
0.0
 40
70.0
1001
ACDBBLOCKREPETAG
1070
     1
1071
       16
1005
127B52
  0
CIRCLE
  5
127B53
  8
OBJECT
 10
2500.0
 20
-175.99999541468151
 30
0.0
 40
77.0
1001
ACDBBLOCKREPETAG
1070
     1
1071
       17
1005
127B53
  0
ARC
  5
127B54
  8
OBJECT
 10
2500.0
 20
-175.99999541468151
 30
0.0
 40
80.0
 50
50.805032573864182
 51
309.1949674261358
1001
ACDBBLOCKREPETAG
1070
     1
1071
       18
1005
127B54
  0
LINE
  5
127B55
  8
OBJECT
 10
2545.6618002273249
 20
-113.99999541468151
 30
0.0
 11
2580.0
 21
-113.99999541468151
 31
0.0
1001
ACDBBLOCKREPETAG
1070
     1
1071
       19
1005
127B55
  0
LINE
  5
127B56
  8
OBJECT
 10
2545.6618002273249
 20
-237.99999541468151
 30
0.0
 11
2580.0
 21
-237.99999541468151
 31
0.0
1001
ACDBBLOCKREPETAG
1070
     1
1071
       20
1005
127B56
  0
LINE
  5
127B57
  8
OBJECT
 10
8633.0
 20
-113.99999541468151
 30
0.0
 11
8640.0
 21
-113.99999541468151
 31
0.0
1001
ACDBBLOCKREPETAG
1070
     1
1071
       47
1005
127B57
  0
LINE
  5
127B58
  8
OBJECT
 10
8640.0
 20
-113.99999541468151
 30
0.0
 11
8640.0
 21
-237.99999541468151
 31
0.0
1001
ACDBBLOCKREPETAG
1070
     1
1071
       48
1005
127B58
  0
LINE
  5
127B59
  8
OBJECT
 10
8640.0
 20
-237.99999541468151
 30
0.0
 11
8633.0
 21
-237.99999541468151
 31
0.0
1001
ACDBBLOCKREPETAG
1070
     1
1071
       49
1005
127B59
  0
LINE
  5
127B5A
  8
OBJECT
 10
8633.0
 20
-237.99999541468151
 30
0.0
 11
8633.0
 21
-113.99999541468151
 31
0.0
1001
ACDBBLOCKREPETAG
1070
     1
1071
       50
1005
127B5A
  0
LINE
  5
127B5B
  8
CENTER
 10
8655.0
 20
-175.99999541468151
 30
0.0
 11
8580.0
 21
-175.99999541468151
 31
0.0
1001
ACDBBLOCKREPETAG
1070
     1
1071
       51
1005
127B5B
  0
LINE
  5
127B5C
  8
OBJECT
 10
8633.0
 20
-116.99999541468151
 30
0.0
 11
8597.0
 21
-116.99999541468151
 31
0.0
1001
ACDBBLOCKREPETAG
1070
     1
1071
       52
1005
127B5C
  0
LINE
  5
127B5D
  8
OBJECT
 10
8597.0
 20
-116.99999541468151
 30
0.0
 11
8597.0
 21
-234.99999541468151
 31
0.0
1001
ACDBBLOCKREPETAG
1070
     1
1071
       53
1005
127B5D
  0
LINE
  5
127B5E
  8
OBJECT
 10
8597.0
 20
-234.99999541468151
 30
0.0
 11
8633.0
 21
-234.99999541468151
 31
0.0
1001
ACDBBLOCKREPETAG
1070
     1
1071
       54
1005
127B5E
  0
LINE
  5
127B5F
  8
OBJECT
 10
8593.0
 20
-121.49999541468151
 30
0.0
 11
8586.0
 21
-121.49999541468151
 31
0.0
1001
ACDBBLOCKREPETAG
1070
     1
1071
       55
1005
127B5F
  0
LINE
  5
127B60
  8
OBJECT
 10
8586.0
 20
-230.49999541468151
 30
0.0
 11
8593.0
 21
-230.49999541468151
 31
0.0
1001
ACDBBLOCKREPETAG
1070
     1
1071
       56
1005
127B60
  0
LINE
  5
127B61
  8
OBJECT
 10
8593.0
 20
-230.49999541468151
 30
0.0
 11
8593.0
 21
-121.49999541468151
 31
0.0
1001
ACDBBLOCKREPETAG
1070
     1
1071
       57
1005
127B61
  0
LINE
  5
127B62
  8
OBJECT
 10
8597.0
 20
-116.99999541468151
 30
0.0
 11
8593.0
 21
-121.49999541468151
 31
0.0
1001
ACDBBLOCKREPETAG
1070
     1
1071
       58
1005
127B62
  0
LINE
  5
127B63
  8
OBJECT
 10
8597.0
 20
-234.99999541468151
 30
0.0
 11
8593.0
 21
-230.49999541468151
 31
0.0
1001
ACDBBLOCKREPETAG
1070
     1
1071
       59
1005
127B63
  0
LINE
  5
127B64
  8
OBJECT
 10
8583.0
 20
-113.99999541468151
 30
0.0
 11
8580.0
 21
-113.99999541468151
 31
0.0
1001
ACDBBLOCKREPETAG
1070
     1
1071
       60
1005
127B64
  0
ARC
  5
127B65
  8
OBJECT
 10
8583.0
 20
-116.99999541468151
 30
0.0
 40
3.0
 50
0.0
 51
90.0
1001
ACDBBLOCKREPETAG
1070
     1
1071
       61
1005
127B65
  0
LINE
  5
127B66
  8
OBJECT
 10
8580.0
 20
-237.99999541468151
 30
0.0
 11
8583.0
 21
-237.99999541468151
 31
0.0
1001
ACDBBLOCKREPETAG
1070
     1
1071
       62
1005
127B66
  0
ARC
  5
127B67
  8
OBJECT
 10
8583.0
 20
-234.99999541468151
 30
0.0
 40
3.0
 50
270.0
 51
0.0
1001
ACDBBLOCKREPETAG
1070
     1
1071
       63
1005
127B67
  0
LINE
  5
127B68
  8
OBJECT
 10
8586.0
 20
-234.99999541468151
 30
0.0
 11
8586.0
 21
-116.99999541468151
 31
0.0
1001
ACDBBLOCKREPETAG
1070
     1
1071
       64
1005
127B68
  0
LINE
  5
127B69
  8
HIDDEN
 10
8588.0
 20
-131.49999541468151
 30
0.0
 11
8588.0
 21
-220.49999541468151
 31
0.0
1001
ACDBBLOCKREPETAG
1070
     1
1071
       65
1005
127B69
  0
LINE
  5
127B6A
  8
OBJECT
 10
2633.0
 20
-113.99999541468151
 30
0.0
 11
2640.0
 21
-113.99999541468151
 31
0.0
1001
ACDBBLOCKREPETAG
1070
     1
1071
       47
1005
127B6A
  0
LINE
  5
127B6B
  8
OBJECT
 10
2640.0
 20
-113.99999541468151
 30
0.0
 11
2640.0
 21
-237.99999541468151
 31
0.0
1001
ACDBBLOCKREPETAG
1070
     1
1071
       48
1005
127B6B
  0
LINE
  5
127B6C
  8
OBJECT
 10
2640.0
 20
-237.99999541468151
 30
0.0
 11
2633.0
 21
-237.99999541468151
 31
0.0
1001
ACDBBLOCKREPETAG
1070
     1
1071
       49
1005
127B6C
  0
LINE
  5
127B6D
  8
OBJECT
 10
2633.0
 20
-237.99999541468151
 30
0.0
 11
2633.0
 21
-113.99999541468151
 31
0.0
1001
ACDBBLOCKREPETAG
1070
     1
1071
       50
1005
127B6D
  0
LINE
  5
127B6E
  8
CENTER
 10
2655.0
 20
-175.99999541468151
 30
0.0
 11
2580.0
 21
-175.99999541468151
 31
0.0
1001
ACDBBLOCKREPETAG
1070
     1
1071
       51
1005
127B6E
  0
LINE
  5
127B6F
  8
OBJECT
 10
2633.0
 20
-116.99999541468151
 30
0.0
 11
2597.0
 21
-116.99999541468151
 31
0.0
1001
ACDBBLOCKREPETAG
1070
     1
1071
       52
1005
127B6F
  0
LINE
  5
127B70
  8
OBJECT
 10
2597.0
 20
-116.99999541468151
 30
0.0
 11
2597.0
 21
-234.99999541468151
 31
0.0
1001
ACDBBLOCKREPETAG
1070
     1
1071
       53
1005
127B70
  0
LINE
  5
127B71
  8
OBJECT
 10
2597.0
 20
-234.99999541468151
 30
0.0
 11
2633.0
 21
-234.99999541468151
 31
0.0
1001
ACDBBLOCKREPETAG
1070
     1
1071
       54
1005
127B71
  0
LINE
  5
127B72
  8
OBJECT
 10
2593.0
 20
-121.49999541468151
 30
0.0
 11
2586.0
 21
-121.49999541468151
 31
0.0
1001
ACDBBLOCKREPETAG
1070
     1
1071
       55
1005
127B72
  0
LINE
  5
127B73
  8
OBJECT
 10
2586.0
 20
-230.49999541468151
 30
0.0
 11
2593.0
 21
-230.49999541468151
 31
0.0
1001
ACDBBLOCKREPETAG
1070
     1
1071
       56
1005
127B73
  0
LINE
  5
127B74
  8
OBJECT
 10
2593.0
 20
-230.49999541468151
 30
0.0
 11
2593.0
 21
-121.49999541468151
 31
0.0
1001
ACDBBLOCKREPETAG
1070
     1
1071
       57
1005
127B74
  0
LINE
  5
127B75
  8
OBJECT
 10
2597.0
 20
-116.99999541468151
 30
0.0
 11
2593.0
 21
-121.49999541468151
 31
0.0
1001
ACDBBLOCKREPETAG
1070
     1
1071
       58
1005
127B75
  0
LINE
  5
127B76
  8
OBJECT
 10
2597.0
 20
-234.99999541468151
 30
0.0
 11
2593.0
 21
-230.49999541468151
 31
0.0
1001
ACDBBLOCKREPETAG
1070
     1
1071
       59
1005
127B76
  0
LINE
  5
127B77
  8
OBJECT
 10
2583.0
 20
-113.99999541468151
 30
0.0
 11
2580.0
 21
-113.99999541468151
 31
0.0
1001
ACDBBLOCKREPETAG
1070
     1
1071
       60
1005
127B77
  0
ARC
  5
127B78
  8
OBJECT
 10
2583.0
 20
-116.99999541468151
 30
0.0
 40
3.0
 50
0.0
 51
90.0
1001
ACDBBLOCKREPETAG
1070
     1
1071
       61
1005
127B78
  0
LINE
  5
127B79
  8
OBJECT
 10
2580.0
 20
-237.99999541468151
 30
0.0
 11
2583.0
 21
-237.99999541468151
 31
0.0
1001
ACDBBLOCKREPETAG
1070
     1
1071
       62
1005
127B79
  0
ARC
  5
127B7A
  8
OBJECT
 10
2583.0
 20
-234.99999541468151
 30
0.0
 40
3.0
 50
270.0
 51
0.0
1001
ACDBBLOCKREPETAG
1070
     1
1071
       63
1005
127B7A
  0
LINE
  5
127B7B
  8
OBJECT
 10
2586.0
 20
-234.99999541468151
 30
0.0
 11
2586.0
 21
-116.99999541468151
 31
0.0
1001
ACDBBLOCKREPETAG
1070
     1
1071
       64
1005
127B7B
  0
LINE
  5
127B7C
  8
HIDDEN
 10
2588.0
 20
-131.49999541468151
 30
0.0
 11
2588.0
 21
-220.49999541468151
 31
0.0
1001
ACDBBLOCKREPETAG
1070
     1
1071
       65
1005
127B7C
  0
LINE
  5
127B7D
  8
OBJECT
 10
12575.0
 20
-890.0
 30
0.0
 11
12575.0
 21
-1027.500000000065
 31
0.0
1001
ACDBBLOCKREPETAG
1070
     1
1071
        1
1005
127B7D
  0
LINE
  5
127B7E
  8
OBJECT
 10
12425.0
 20
-889.99999999999409
 30
0.0
 11
12425.0
 21
-1163.0
 31
0.0
1001
ACDBBLOCKREPETAG
1070
     1
1071
        3
1005
127B7E
  0
LINE
  5
127B7F
  8
CENTER
 10
12500.0
 20
-890.0
 30
0.0
 11
12500.0
 21
-1175.0
 31
0.0
1001
ACDBBLOCKREPETAG
1070
     1
1071
        6
1005
127B7F
  0
LINE
  5
127B80
  8
OBJECT
 10
12419.999999999991
 20
-1175.0
 30
0.0
 11
12580.0
 21
-1175.0
 31
0.0
1001
ACDBBLOCKREPETAG
1070
     1
1071
        7
1005
127B80
  0
LINE
  5
127B81
  8
OBJECT
 10
12419.999999999991
 20
-1163.0
 30
0.0
 11
12580.0
 21
-1163.0
 31
0.0
1001
ACDBBLOCKREPETAG
1070
     1
1071
        8
1005
127B81
  0
LINE
  5
127B82
  8
OBJECT
 10
12419.999999999991
 20
-1163.0
 30
0.0
 11
12419.999999999991
 21
-1175.0
 31
0.0
1001
ACDBBLOCKREPETAG
1070
     1
1071
        9
1005
127B82
  0
LINE
  5
127B83
  8
OBJECT
 10
12580.0
 20
-1163.0
 30
0.0
 11
12580.0
 21
-1175.0
 31
0.0
1001
ACDBBLOCKREPETAG
1070
     1
1071
       10
1005
127B83
  0
LINE
  5
127B84
  8
OBJECT
 10
12633.0
 20
-1029.0
 30
0.0
 11
12640.0
 21
-1029.0
 31
0.0
1001
ACDBBLOCKREPETAG
1070
     1
1071
       23
1005
127B84
  0
LINE
  5
127B85
  8
OBJECT
 10
12640.0
 20
-1029.0
 30
0.0
 11
12640.0
 21
-1136.0
 31
0.0
1001
ACDBBLOCKREPETAG
1070
     1
1071
       24
1005
127B85
  0
LINE
  5
127B86
  8
OBJECT
 10
12584.5
 20
-1030.500000000065
 30
0.0
 11
12584.5
 21
-1133.5
 31
0.0
1001
ACDBBLOCKREPETAG
1070
     1
1071
       25
1005
127B86
  0
ARC
  5
127B87
  8
OBJECT
 10
12581.5
 20
-1030.500000000065
 30
0.0
 40
3.0
 50
0.0
 51
90.0
1001
ACDBBLOCKREPETAG
1070
     1
1071
       26
1005
127B87
  0
LINE
  5
127B88
  8
OBJECT
 10
12633.0
 20
-1136.0
 30
0.0
 11
12633.0
 21
-1029.0
 31
0.0
1001
ACDBBLOCKREPETAG
1070
     1
1071
       27
1005
127B88
  0
LINE
  5
127B89
  8
CENTER
 10
12655.0
 20
-1084.0
 30
0.0
 11
12541.344919912999
 21
-1084.000000000065
 31
0.0
1001
ACDBBLOCKREPETAG
1070
     1
1071
       28
1005
127B89
  0
LINE
  5
127B8A
  8
OBJECT
 10
12633.0
 20
-1032.0
 30
0.0
 11
12597.0
 21
-1032.0
 31
0.0
1001
ACDBBLOCKREPETAG
1070
     1
1071
       29
1005
127B8A
  0
LINE
  5
127B8B
  8
OBJECT
 10
12597.0
 20
-1032.0
 30
0.0
 11
12597.0
 21
-1136.0
 31
0.0
1001
ACDBBLOCKREPETAG
1070
     1
1071
       30
1005
127B8B
  0
LINE
  5
127B8C
  8
OBJECT
 10
12597.0
 20
-1136.0
 30
0.0
 11
12640.0
 21
-1136.0
 31
0.0
1001
ACDBBLOCKREPETAG
1070
     1
1071
       31
1005
127B8C
  0
LINE
  5
127B8D
  8
OBJECT
 10
12593.0
 20
-1036.5
 30
0.0
 11
12584.5
 21
-1036.5
 31
0.0
1001
ACDBBLOCKREPETAG
1070
     1
1071
       32
1005
127B8D
  0
LINE
  5
127B8E
  8
OBJECT
 10
12584.5
 20
-1131.5
 30
0.0
 11
12593.0
 21
-1131.5
 31
0.0
1001
ACDBBLOCKREPETAG
1070
     1
1071
       33
1005
127B8E
  0
LINE
  5
127B8F
  8
OBJECT
 10
12593.0
 20
-1131.5
 30
0.0
 11
12593.0
 21
-1036.5
 31
0.0
1001
ACDBBLOCKREPETAG
1070
     1
1071
       34
1005
127B8F
  0
LINE
  5
127B90
  8
OBJECT
 10
12597.0
 20
-1032.0
 30
0.0
 11
12593.0
 21
-1036.5
 31
0.0
1001
ACDBBLOCKREPETAG
1070
     1
1071
       35
1005
127B90
  0
LINE
  5
127B91
  8
OBJECT
 10
12597.0
 20
-1136.0
 30
0.0
 11
12593.0
 21
-1131.5
 31
0.0
1001
ACDBBLOCKREPETAG
1070
     1
1071
       36
1005
127B91
  0
LINE
  5
127B92
  8
HIDDEN
 10
12588.0
 20
-1046.0
 30
0.0
 11
12588.0
 21
-1122.0
 31
0.0
1001
ACDBBLOCKREPETAG
1070
     1
1071
       37
1005
127B92
  0
ARC
  5
127B93
  8
OBJECT
 10
12664.87827287877
 20
-1092.409507261229
 30
0.0
 40
110.86635228309
 50
144.1634274193047
 51
163.04035380434561
1001
ACDBBLOCKREPETAG
1070
     1
1071
       38
1005
127B93
  0
ARC
  5
127B94
  8
OBJECT
 10
12617.135988776899
 20
-1077.287749718449
 30
0.0
 40
60.791749880358971
 50
163.54720465221311
 51
179.72879698282691
1001
ACDBBLOCKREPETAG
1070
     1
1071
       39
1005
127B94
  0
ARC
  5
127B95
  8
OBJECT
 10
12617.13599565625
 20
-1083.7122497599
 30
0.0
 40
60.79175676209487
 50
180.2712034781452
 51
196.45277946052011
1001
ACDBBLOCKREPETAG
1070
     1
1071
       40
1005
127B95
  0
ARC
  5
127B96
  8
OBJECT
 10
12664.87827287877
 20
-1068.590492738836
 30
0.0
 40
110.8663522830916
 50
196.95964619565439
 51
215.8365725806953
1001
ACDBBLOCKREPETAG
1070
     1
1071
       41
1005
127B96
  0
LINE
  5
127B97
  8
OBJECT
 10
12556.344919912999
 20
-1077.0000000000359
 30
0.0
 11
12556.344919912999
 21
-1084.000000000033
 31
0.0
1001
ACDBBLOCKREPETAG
1070
     1
1071
       42
1005
127B97
  0
LINE
  5
127B98
  8
OBJECT
 10
12575.0
 20
-1027.500000000065
 30
0.0
 11
12581.5
 21
-1027.500000000065
 31
0.0
1001
ACDBBLOCKREPETAG
1070
     1
1071
       43
1005
127B98
  0
LINE
  5
127B99
  8
OBJECT
 10
12575.0
 20
-1133.5
 30
0.0
 11
12584.5
 21
-1133.5
 31
0.0
1001
ACDBBLOCKREPETAG
1070
     1
1071
       44
1005
127B99
  0
LINE
  5
127B9A
  8
OBJECT
 10
12575.0
 20
-1133.5
 30
0.0
 11
12575.0
 21
-1163.0
 31
0.0
1001
ACDBBLOCKREPETAG
1070
     1
1071
        1
1005
127B7D
  0
POINT
  5
127B9B
  8
DOTS
 10
12500.0
 20
-1136.0
 30
0.0
  0
LINE
  5
127B9C
  8
DIM
 10
12665.0
 20
-696.0
 30
0.0
 11
12719.424581672751
 21
-696.0
 31
0.0
  0
LINE
  5
127B9D
  8
DIM
 10
12650.0
 20
-1136.0
 30
0.0
 11
12719.424581672751
 21
-1136.0
 31
0.0
  0
LINE
  5
127B9E
  8
DIM
 10
12709.424581672751
 20
-716.0
 30
0.0
 11
12709.424581672751
 21
-1116.0
 31
0.0
  0
INSERT
  5
127B9F
  8
DIM
  2
_OPEN30
 10
12709.424581672751
 20
-696.0
 30
0.0
 41
20.0
 42
20.0
 43
20.0
 50
90.0
  0
INSERT
  5
127BA0
  8
DIM
  2
_OPEN30
 10
12709.424581672751
 20
-1136.0
 30
0.0
 41
20.0
 42
20.0
 43
20.0
 50
270.0
  0
INSERT
  5
127BA1
  8
SLIM
  2
*U6
 10
0.0
 20
0.0
 30
0.0
  0
LINE
  5
127BA2
  8
OBJECT
 10
10575.0
 20
-890.0
 30
0.0
 11
10575.0
 21
-1027.500000000065
 31
0.0
1001
ACDBBLOCKREPETAG
1070
     1
1071
        1
1005
127BA2
  0
LINE
  5
127BA3
  8
OBJECT
 10
10425.0
 20
-889.99999999999409
 30
0.0
 11
10425.0
 21
-1163.0
 31
0.0
1001
ACDBBLOCKREPETAG
1070
     1
1071
        3
1005
127BA3
  0
LINE
  5
127BA4
  8
CENTER
 10
10500.0
 20
-890.0
 30
0.0
 11
10500.0
 21
-1175.0
 31
0.0
1001
ACDBBLOCKREPETAG
1070
     1
1071
        6
1005
127BA4
  0
LINE
  5
127BA5
  8
OBJECT
 10
10420.0
 20
-1175.0
 30
0.0
 11
10580.0
 21
-1175.0
 31
0.0
1001
ACDBBLOCKREPETAG
1070
     1
1071
        7
1005
127BA5
  0
LINE
  5
127BA6
  8
OBJECT
 10
10420.0
 20
-1163.0
 30
0.0
 11
10580.0
 21
-1163.0
 31
0.0
1001
ACDBBLOCKREPETAG
1070
     1
1071
        8
1005
127BA6
  0
LINE
  5
127BA7
  8
OBJECT
 10
10420.0
 20
-1163.0
 30
0.0
 11
10420.0
 21
-1175.0
 31
0.0
1001
ACDBBLOCKREPETAG
1070
     1
1071
        9
1005
127BA7
  0
LINE
  5
127BA8
  8
OBJECT
 10
10580.0
 20
-1163.0
 30
0.0
 11
10580.0
 21
-1175.0
 31
0.0
1001
ACDBBLOCKREPETAG
1070
     1
1071
       10
1005
127BA8
  0
LINE
  5
127BA9
  8
OBJECT
 10
10633.0
 20
-1029.0
 30
0.0
 11
10640.0
 21
-1029.0
 31
0.0
1001
ACDBBLOCKREPETAG
1070
     1
1071
       23
1005
127BA9
  0
LINE
  5
127BAA
  8
OBJECT
 10
10640.0
 20
-1029.0
 30
0.0
 11
10640.0
 21
-1136.0
 31
0.0
1001
ACDBBLOCKREPETAG
1070
     1
1071
       24
1005
127BAA
  0
LINE
  5
127BAB
  8
OBJECT
 10
10584.5
 20
-1030.500000000065
 30
0.0
 11
10584.5
 21
-1133.5
 31
0.0
1001
ACDBBLOCKREPETAG
1070
     1
1071
       25
1005
127BAB
  0
ARC
  5
127BAC
  8
OBJECT
 10
10581.5
 20
-1030.500000000065
 30
0.0
 40
3.0
 50
0.0
 51
90.0
1001
ACDBBLOCKREPETAG
1070
     1
1071
       26
1005
127BAC
  0
LINE
  5
127BAD
  8
OBJECT
 10
10633.0
 20
-1136.0
 30
0.0
 11
10633.0
 21
-1029.0
 31
0.0
1001
ACDBBLOCKREPETAG
1070
     1
1071
       27
1005
127BAD
  0
LINE
  5
127BAE
  8
CENTER
 10
10655.0
 20
-1084.0
 30
0.0
 11
10541.344919912999
 21
-1084.000000000065
 31
0.0
1001
ACDBBLOCKREPETAG
1070
     1
1071
       28
1005
127BAE
  0
LINE
  5
127BAF
  8
OBJECT
 10
10633.0
 20
-1032.0
 30
0.0
 11
10597.0
 21
-1032.0
 31
0.0
1001
ACDBBLOCKREPETAG
1070
     1
1071
       29
1005
127BAF
  0
LINE
  5
127BB0
  8
OBJECT
 10
10597.0
 20
-1032.0
 30
0.0
 11
10597.0
 21
-1136.0
 31
0.0
1001
ACDBBLOCKREPETAG
1070
     1
1071
       30
1005
127BB0
  0
LINE
  5
127BB1
  8
OBJECT
 10
10597.0
 20
-1136.0
 30
0.0
 11
10640.0
 21
-1136.0
 31
0.0
1001
ACDBBLOCKREPETAG
1070
     1
1071
       31
1005
127BB1
  0
LINE
  5
127BB2
  8
OBJECT
 10
10593.0
 20
-1036.5
 30
0.0
 11
10584.5
 21
-1036.5
 31
0.0
1001
ACDBBLOCKREPETAG
1070
     1
1071
       32
1005
127BB2
  0
LINE
  5
127BB3
  8
OBJECT
 10
10584.5
 20
-1131.5
 30
0.0
 11
10593.0
 21
-1131.5
 31
0.0
1001
ACDBBLOCKREPETAG
1070
     1
1071
       33
1005
127BB3
  0
LINE
  5
127BB4
  8
OBJECT
 10
10593.0
 20
-1131.5
 30
0.0
 11
10593.0
 21
-1036.5
 31
0.0
1001
ACDBBLOCKREPETAG
1070
     1
1071
       34
1005
127BB4
  0
LINE
  5
127BB5
  8
OBJECT
 10
10597.0
 20
-1032.0
 30
0.0
 11
10593.0
 21
-1036.5
 31
0.0
1001
ACDBBLOCKREPETAG
1070
     1
1071
       35
1005
127BB5
  0
LINE
  5
127BB6
  8
OBJECT
 10
10597.0
 20
-1136.0
 30
0.0
 11
10593.0
 21
-1131.5
 31
0.0
1001
ACDBBLOCKREPETAG
1070
     1
1071
       36
1005
127BB6
  0
LINE
  5
127BB7
  8
HIDDEN
 10
10588.0
 20
-1046.0
 30
0.0
 11
10588.0
 21
-1122.0
 31
0.0
1001
ACDBBLOCKREPETAG
1070
     1
1071
       37
1005
127BB7
  0
ARC
  5
127BB8
  8
OBJECT
 10
10664.87827287877
 20
-1092.409507261229
 30
0.0
 40
110.86635228309
 50
144.1634274193047
 51
163.04035380434561
1001
ACDBBLOCKREPETAG
1070
     1
1071
       38
1005
127BB8
  0
ARC
  5
127BB9
  8
OBJECT
 10
10617.135988776899
 20
-1077.287749718449
 30
0.0
 40
60.791749880358971
 50
163.54720465221311
 51
179.72879698282691
1001
ACDBBLOCKREPETAG
1070
     1
1071
       39
1005
127BB9
  0
ARC
  5
127BBA
  8
OBJECT
 10
10617.13599565625
 20
-1083.7122497599
 30
0.0
 40
60.79175676209487
 50
180.2712034781452
 51
196.45277946052011
1001
ACDBBLOCKREPETAG
1070
     1
1071
       40
1005
127BBA
  0
ARC
  5
127BBB
  8
OBJECT
 10
10664.87827287877
 20
-1068.590492738836
 30
0.0
 40
110.8663522830916
 50
196.95964619565439
 51
215.8365725806953
1001
ACDBBLOCKREPETAG
1070
     1
1071
       41
1005
127BBB
  0
LINE
  5
127BBC
  8
OBJECT
 10
10556.344919912999
 20
-1077.0000000000359
 30
0.0
 11
10556.344919912999
 21
-1084.000000000033
 31
0.0
1001
ACDBBLOCKREPETAG
1070
     1
1071
       42
1005
127BBC
  0
LINE
  5
127BBD
  8
OBJECT
 10
10575.0
 20
-1027.500000000065
 30
0.0
 11
10581.5
 21
-1027.500000000065
 31
0.0
1001
ACDBBLOCKREPETAG
1070
     1
1071
       43
1005
127BBD
  0
LINE
  5
127BBE
  8
OBJECT
 10
10575.0
 20
-1133.5
 30
0.0
 11
10584.5
 21
-1133.5
 31
0.0
1001
ACDBBLOCKREPETAG
1070
     1
1071
       44
1005
127BBE
  0
LINE
  5
127BBF
  8
OBJECT
 10
10575.0
 20
-1133.5
 30
0.0
 11
10575.0
 21
-1163.0
 31
0.0
1001
ACDBBLOCKREPETAG
1070
     1
1071
        1
1005
127BA2
  0
POINT
  5
127BC0
  8
DOTS
 10
10500.0
 20
-1136.0
 30
0.0
  0
LINE
  5
127BC1
  8
DIM
 10
10665.0
 20
-696.0
 30
0.0
 11
10719.424581672751
 21
-696.0
 31
0.0
  0
LINE
  5
127BC2
  8
DIM
 10
10650.0
 20
-1136.0
 30
0.0
 11
10719.424581672751
 21
-1136.0
 31
0.0
  0
LINE
  5
127BC3
  8
DIM
 10
10709.424581672751
 20
-716.0
 30
0.0
 11
10709.424581672751
 21
-1116.0
 31
0.0
  0
INSERT
  5
127BC4
  8
DIM
  2
_OPEN30
 10
10709.424581672751
 20
-696.0
 30
0.0
 41
20.0
 42
20.0
 43
20.0
 50
90.0
  0
INSERT
  5
127BC5
  8
DIM
  2
_OPEN30
 10
10709.424581672751
 20
-1136.0
 30
0.0
 41
20.0
 42
20.0
 43
20.0
 50
270.0
  0
INSERT
  5
127BC6
  8
SLIM
  2
*U7
 10
0.0
 20
0.0
 30
0.0
  0
LINE
  5
127BC7
  8
OBJECT
 10
8575.0
 20
-890.0
 30
0.0
 11
8575.0
 21
-1027.500000000065
 31
0.0
1001
ACDBBLOCKREPETAG
1070
     1
1071
        1
1005
127BC7
  0
LINE
  5
127BC8
  8
OBJECT
 10
8425.0
 20
-889.99999999999409
 30
0.0
 11
8425.0
 21
-1163.0
 31
0.0
1001
ACDBBLOCKREPETAG
1070
     1
1071
        3
1005
127BC8
  0
LINE
  5
127BC9
  8
CENTER
 10
8500.0
 20
-890.0
 30
0.0
 11
8500.0
 21
-1175.0
 31
0.0
1001
ACDBBLOCKREPETAG
1070
     1
1071
        6
1005
127BC9
  0
LINE
  5
127BCA
  8
OBJECT
 10
8420.0
 20
-1175.0
 30
0.0
 11
8580.0
 21
-1175.0
 31
0.0
1001
ACDBBLOCKREPETAG
1070
     1
1071
        7
1005
127BCA
  0
LINE
  5
127BCB
  8
OBJECT
 10
8420.0
 20
-1163.0
 30
0.0
 11
8580.0
 21
-1163.0
 31
0.0
1001
ACDBBLOCKREPETAG
1070
     1
1071
        8
1005
127BCB
  0
LINE
  5
127BCC
  8
OBJECT
 10
8420.0
 20
-1163.0
 30
0.0
 11
8420.0
 21
-1175.0
 31
0.0
1001
ACDBBLOCKREPETAG
1070
     1
1071
        9
1005
127BCC
  0
LINE
  5
127BCD
  8
OBJECT
 10
8580.0
 20
-1163.0
 30
0.0
 11
8580.0
 21
-1175.0
 31
0.0
1001
ACDBBLOCKREPETAG
1070
     1
1071
       10
1005
127BCD
  0
LINE
  5
127BCE
  8
OBJECT
 10
8633.0
 20
-1029.0
 30
0.0
 11
8640.0
 21
-1029.0
 31
0.0
1001
ACDBBLOCKREPETAG
1070
     1
1071
       23
1005
127BCE
  0
LINE
  5
127BCF
  8
OBJECT
 10
8640.0
 20
-1029.0
 30
0.0
 11
8640.0
 21
-1136.0
 31
0.0
1001
ACDBBLOCKREPETAG
1070
     1
1071
       24
1005
127BCF
  0
LINE
  5
127BD0
  8
OBJECT
 10
8584.5
 20
-1030.500000000065
 30
0.0
 11
8584.5
 21
-1133.5
 31
0.0
1001
ACDBBLOCKREPETAG
1070
     1
1071
       25
1005
127BD0
  0
ARC
  5
127BD1
  8
OBJECT
 10
8581.5
 20
-1030.500000000065
 30
0.0
 40
3.0
 50
0.0
 51
90.0
1001
ACDBBLOCKREPETAG
1070
     1
1071
       26
1005
127BD1
  0
LINE
  5
127BD2
  8
OBJECT
 10
8633.0
 20
-1136.0
 30
0.0
 11
8633.0
 21
-1029.0
 31
0.0
1001
ACDBBLOCKREPETAG
1070
     1
1071
       27
1005
127BD2
  0
LINE
  5
127BD3
  8
CENTER
 10
8655.0
 20
-1084.0
 30
0.0
 11
8541.3449199130046
 21
-1084.000000000065
 31
0.0
1001
ACDBBLOCKREPETAG
1070
     1
1071
       28
1005
127BD3
  0
LINE
  5
127BD4
  8
OBJECT
 10
8633.0
 20
-1032.0
 30
0.0
 11
8597.0
 21
-1032.0
 31
0.0
1001
ACDBBLOCKREPETAG
1070
     1
1071
       29
1005
127BD4
  0
LINE
  5
127BD5
  8
OBJECT
 10
8597.0
 20
-1032.0
 30
0.0
 11
8597.0
 21
-1136.0
 31
0.0
1001
ACDBBLOCKREPETAG
1070
     1
1071
       30
1005
127BD5
  0
LINE
  5
127BD6
  8
OBJECT
 10
8597.0
 20
-1136.0
 30
0.0
 11
8640.0
 21
-1136.0
 31
0.0
1001
ACDBBLOCKREPETAG
1070
     1
1071
       31
1005
127BD6
  0
LINE
  5
127BD7
  8
OBJECT
 10
8593.0
 20
-1036.5
 30
0.0
 11
8584.5
 21
-1036.5
 31
0.0
1001
ACDBBLOCKREPETAG
1070
     1
1071
       32
1005
127BD7
  0
LINE
  5
127BD8
  8
OBJECT
 10
8584.5
 20
-1131.5
 30
0.0
 11
8593.0
 21
-1131.5
 31
0.0
1001
ACDBBLOCKREPETAG
1070
     1
1071
       33
1005
127BD8
  0
LINE
  5
127BD9
  8
OBJECT
 10
8593.0
 20
-1131.5
 30
0.0
 11
8593.0
 21
-1036.5
 31
0.0
1001
ACDBBLOCKREPETAG
1070
     1
1071
       34
1005
127BD9
  0
LINE
  5
127BDA
  8
OBJECT
 10
8597.0
 20
-1032.0
 30
0.0
 11
8593.0
 21
-1036.5
 31
0.0
1001
ACDBBLOCKREPETAG
1070
     1
1071
       35
1005
127BDA
  0
LINE
  5
127BDB
  8
OBJECT
 10
8597.0
 20
-1136.0
 30
0.0
 11
8593.0
 21
-1131.5
 31
0.0
1001
ACDBBLOCKREPETAG
1070
     1
1071
       36
1005
127BDB
  0
LINE
  5
127BDC
  8
HIDDEN
 10
8588.0
 20
-1046.0
 30
0.0
 11
8588.0
 21
-1122.0
 31
0.0
1001
ACDBBLOCKREPETAG
1070
     1
1071
       37
1005
127BDC
  0
ARC
  5
127BDD
  8
OBJECT
 10
8664.8782728787737
 20
-1092.409507261229
 30
0.0
 40
110.86635228309
 50
144.1634274193047
 51
163.04035380434561
1001
ACDBBLOCKREPETAG
1070
     1
1071
       38
1005
127BDD
  0
ARC
  5
127BDE
  8
OBJECT
 10
8617.1359887769067
 20
-1077.287749718449
 30
0.0
 40
60.791749880358971
 50
163.54720465221311
 51
179.72879698282691
1001
ACDBBLOCKREPETAG
1070
     1
1071
       39
1005
127BDE
  0
ARC
  5
127BDF
  8
OBJECT
 10
8617.1359956562483
 20
-1083.7122497599
 30
0.0
 40
60.79175676209487
 50
180.2712034781452
 51
196.45277946052011
1001
ACDBBLOCKREPETAG
1070
     1
1071
       40
1005
127BDF
  0
ARC
  5
127BE0
  8
OBJECT
 10
8664.8782728787737
 20
-1068.590492738836
 30
0.0
 40
110.8663522830916
 50
196.95964619565439
 51
215.8365725806953
1001
ACDBBLOCKREPETAG
1070
     1
1071
       41
1005
127BE0
  0
LINE
  5
127BE1
  8
OBJECT
 10
8556.3449199130046
 20
-1077.0000000000359
 30
0.0
 11
8556.3449199130046
 21
-1084.000000000033
 31
0.0
1001
ACDBBLOCKREPETAG
1070
     1
1071
       42
1005
127BE1
  0
LINE
  5
127BE2
  8
OBJECT
 10
8575.0
 20
-1027.500000000065
 30
0.0
 11
8581.5
 21
-1027.500000000065
 31
0.0
1001
ACDBBLOCKREPETAG
1070
     1
1071
       43
1005
127BE2
  0
LINE
  5
127BE3
  8
OBJECT
 10
8575.0
 20
-1133.5
 30
0.0
 11
8584.5
 21
-1133.5
 31
0.0
1001
ACDBBLOCKREPETAG
1070
     1
1071
       44
1005
127BE3
  0
LINE
  5
127BE4
  8
OBJECT
 10
8575.0
 20
-1133.5
 30
0.0
 11
8575.0
 21
-1163.0
 31
0.0
1001
ACDBBLOCKREPETAG
1070
     1
1071
        1
1005
127BC7
  0
POINT
  5
127BE5
  8
DOTS
 10
8500.0
 20
-1136.0
 30
0.0
  0
LINE
  5
127BE6
  8
DIM
 10
8665.0
 20
-696.0
 30
0.0
 11
8719.4245816727544
 21
-696.0
 31
0.0
  0
LINE
  5
127BE7
  8
DIM
 10
8650.0
 20
-1136.0
 30
0.0
 11
8719.4245816727544
 21
-1136.0
 31
0.0
  0
LINE
  5
127BE8
  8
DIM
 10
8709.4245816727544
 20
-716.0
 30
0.0
 11
8709.4245816727544
 21
-1116.0
 31
0.0
  0
INSERT
  5
127BE9
  8
DIM
  2
_OPEN30
 10
8709.4245816727544
 20
-696.0
 30
0.0
 41
20.0
 42
20.0
 43
20.0
 50
90.0
  0
INSERT
  5
127BEA
  8
DIM
  2
_OPEN30
 10
8709.4245816727544
 20
-1136.0
 30
0.0
 41
20.0
 42
20.0
 43
20.0
 50
270.0
  0
INSERT
  5
127BEB
  8
SLIM
  2
*U8
 10
0.0
 20
0.0
 30
0.0
  0
LINE
  5
127BEC
  8
OBJECT
 10
6575.0
 20
-890.0
 30
0.0
 11
6575.0
 21
-1027.500000000065
 31
0.0
1001
ACDBBLOCKREPETAG
1070
     1
1071
        1
1005
127BEC
  0
LINE
  5
127BED
  8
OBJECT
 10
6425.0
 20
-889.99999999999409
 30
0.0
 11
6425.0
 21
-1163.0
 31
0.0
1001
ACDBBLOCKREPETAG
1070
     1
1071
        3
1005
127BED
  0
LINE
  5
127BEE
  8
CENTER
 10
6500.0
 20
-890.0
 30
0.0
 11
6500.0
 21
-1175.0
 31
0.0
1001
ACDBBLOCKREPETAG
1070
     1
1071
        6
1005
127BEE
  0
LINE
  5
127BEF
  8
OBJECT
 10
6420.0
 20
-1175.0
 30
0.0
 11
6580.0
 21
-1175.0
 31
0.0
1001
ACDBBLOCKREPETAG
1070
     1
1071
        7
1005
127BEF
  0
LINE
  5
127BF0
  8
OBJECT
 10
6420.0
 20
-1163.0
 30
0.0
 11
6580.0
 21
-1163.0
 31
0.0
1001
ACDBBLOCKREPETAG
1070
     1
1071
        8
1005
127BF0
  0
LINE
  5
127BF1
  8
OBJECT
 10
6420.0
 20
-1163.0
 30
0.0
 11
6420.0
 21
-1175.0
 31
0.0
1001
ACDBBLOCKREPETAG
1070
     1
1071
        9
1005
127BF1
  0
LINE
  5
127BF2
  8
OBJECT
 10
6580.0
 20
-1163.0
 30
0.0
 11
6580.0
 21
-1175.0
 31
0.0
1001
ACDBBLOCKREPETAG
1070
     1
1071
       10
1005
127BF2
  0
LINE
  5
127BF3
  8
OBJECT
 10
6633.0
 20
-1029.0
 30
0.0
 11
6640.0
 21
-1029.0
 31
0.0
1001
ACDBBLOCKREPETAG
1070
     1
1071
       23
1005
127BF3
  0
LINE
  5
127BF4
  8
OBJECT
 10
6640.0
 20
-1029.0
 30
0.0
 11
6640.0
 21
-1136.0
 31
0.0
1001
ACDBBLOCKREPETAG
1070
     1
1071
       24
1005
127BF4
  0
LINE
  5
127BF5
  8
OBJECT
 10
6584.5
 20
-1030.500000000065
 30
0.0
 11
6584.5
 21
-1133.5
 31
0.0
1001
ACDBBLOCKREPETAG
1070
     1
1071
       25
1005
127BF5
  0
ARC
  5
127BF6
  8
OBJECT
 10
6581.5
 20
-1030.500000000065
 30
0.0
 40
3.0
 50
0.0
 51
90.0
1001
ACDBBLOCKREPETAG
1070
     1
1071
       26
1005
127BF6
  0
LINE
  5
127BF7
  8
OBJECT
 10
6633.0
 20
-1136.0
 30
0.0
 11
6633.0
 21
-1029.0
 31
0.0
1001
ACDBBLOCKREPETAG
1070
     1
1071
       27
1005
127BF7
  0
LINE
  5
127BF8
  8
CENTER
 10
6655.0
 20
-1084.0
 30
0.0
 11
6541.3449199130037
 21
-1084.000000000065
 31
0.0
1001
ACDBBLOCKREPETAG
1070
     1
1071
       28
1005
127BF8
  0
LINE
  5
127BF9
  8
OBJECT
 10
6633.0
 20
-1032.0
 30
0.0
 11
6597.0
 21
-1032.0
 31
0.0
1001
ACDBBLOCKREPETAG
1070
     1
1071
       29
1005
127BF9
  0
LINE
  5
127BFA
  8
OBJECT
 10
6597.0
 20
-1032.0
 30
0.0
 11
6597.0
 21
-1136.0
 31
0.0
1001
ACDBBLOCKREPETAG
1070
     1
1071
       30
1005
127BFA
  0
LINE
  5
127BFB
  8
OBJECT
 10
6597.0
 20
-1136.0
 30
0.0
 11
6640.0
 21
-1136.0
 31
0.0
1001
ACDBBLOCKREPETAG
1070
     1
1071
       31
1005
127BFB
  0
LINE
  5
127BFC
  8
OBJECT
 10
6593.0
 20
-1036.5
 30
0.0
 11
6584.5
 21
-1036.5
 31
0.0
1001
ACDBBLOCKREPETAG
1070
     1
1071
       32
1005
127BFC
  0
LINE
  5
127BFD
  8
OBJECT
 10
6584.5
 20
-1131.5
 30
0.0
 11
6593.0
 21
-1131.5
 31
0.0
1001
ACDBBLOCKREPETAG
1070
     1
1071
       33
1005
127BFD
  0
LINE
  5
127BFE
  8
OBJECT
 10
6593.0
 20
-1131.5
 30
0.0
 11
6593.0
 21
-1036.5
 31
0.0
1001
ACDBBLOCKREPETAG
1070
     1
1071
       34
1005
127BFE
  0
LINE
  5
127BFF
  8
OBJECT
 10
6597.0
 20
-1032.0
 30
0.0
 11
6593.0
 21
-1036.5
 31
0.0
1001
ACDBBLOCKREPETAG
1070
     1
1071
       35
1005
127BFF
  0
LINE
  5
127C00
  8
OBJECT
 10
6597.0
 20
-1136.0
 30
0.0
 11
6593.0
 21
-1131.5
 31
0.0
1001
ACDBBLOCKREPETAG
1070
     1
1071
       36
1005
127C00
  0
LINE
  5
127C01
  8
HIDDEN
 10
6588.0
 20
-1046.0
 30
0.0
 11
6588.0
 21
-1122.0
 31
0.0
1001
ACDBBLOCKREPETAG
1070
     1
1071
       37
1005
127C01
  0
ARC
  5
127C02
  8
OBJECT
 10
6664.8782728787719
 20
-1092.409507261229
 30
0.0
 40
110.86635228309
 50
144.1634274193047
 51
163.04035380434561
1001
ACDBBLOCKREPETAG
1070
     1
1071
       38
1005
127C02
  0
ARC
  5
127C03
  8
OBJECT
 10
6617.1359887769049
 20
-1077.287749718449
 30
0.0
 40
60.791749880358971
 50
163.54720465221311
 51
179.72879698282651
1001
ACDBBLOCKREPETAG
1070
     1
1071
       39
1005
127C03
  0
ARC
  5
127C04
  8
OBJECT
 10
6617.1359956562474
 20
-1083.7122497599
 30
0.0
 40
60.79175676209487
 50
180.2712034781452
 51
196.45277946052011
1001
ACDBBLOCKREPETAG
1070
     1
1071
       40
1005
127C04
  0
ARC
  5
127C05
  8
OBJECT
 10
6664.8782728787719
 20
-1068.590492738836
 30
0.0
 40
110.8663522830916
 50
196.95964619565439
 51
215.8365725806953
1001
ACDBBLOCKREPETAG
1070
     1
1071
       41
1005
127C05
  0
LINE
  5
127C06
  8
OBJECT
 10
6556.3449199130064
 20
-1077.0000000000359
 30
0.0
 11
6556.3449199130064
 21
-1084.000000000033
 31
0.0
1001
ACDBBLOCKREPETAG
1070
     1
1071
       42
1005
127C06
  0
LINE
  5
127C07
  8
OBJECT
 10
6575.0
 20
-1027.500000000065
 30
0.0
 11
6581.5
 21
-1027.500000000065
 31
0.0
1001
ACDBBLOCKREPETAG
1070
     1
1071
       43
1005
127C07
  0
LINE
  5
127C08
  8
OBJECT
 10
6575.0
 20
-1133.5
 30
0.0
 11
6584.5
 21
-1133.5
 31
0.0
1001
ACDBBLOCKREPETAG
1070
     1
1071
       44
1005
127C08
  0
LINE
  5
127C09
  8
OBJECT
 10
6575.0
 20
-1133.5
 30
0.0
 11
6575.0
 21
-1163.0
 31
0.0
1001
ACDBBLOCKREPETAG
1070
     1
1071
        1
1005
127BEC
  0
POINT
  5
127C0A
  8
DOTS
 10
6500.0
 20
-1136.0
 30
0.0
  0
LINE
  5
127C0B
  8
DIM
 10
6665.0
 20
-696.0
 30
0.0
 11
6719.4245816727562
 21
-696.0
 31
0.0
  0
LINE
  5
127C0C
  8
DIM
 10
6650.0
 20
-1136.0
 30
0.0
 11
6719.4245816727562
 21
-1136.0
 31
0.0
  0
LINE
  5
127C0D
  8
DIM
 10
6709.4245816727562
 20
-716.0
 30
0.0
 11
6709.4245816727562
 21
-1116.0
 31
0.0
  0
INSERT
  5
127C0E
  8
DIM
  2
_OPEN30
 10
6709.4245816727562
 20
-696.0
 30
0.0
 41
20.0
 42
20.0
 43
20.0
 50
90.0
  0
INSERT
  5
127C0F
  8
DIM
  2
_OPEN30
 10
6709.4245816727562
 20
-1136.0
 30
0.0
 41
20.0
 42
20.0
 43
20.0
 50
270.0
  0
INSERT
  5
127C10
  8
SLIM
  2
*U9
 10
0.0
 20
0.0
 30
0.0
  0
LINE
  5
127C11
  8
OBJECT
 10
4575.0
 20
-890.0
 30
0.0
 11
4575.0
 21
-1027.500000000065
 31
0.0
1001
ACDBBLOCKREPETAG
1070
     1
1071
        1
1005
127C11
  0
LINE
  5
127C12
  8
OBJECT
 10
4425.0
 20
-889.99999999999409
 30
0.0
 11
4425.0
 21
-1163.0
 31
0.0
1001
ACDBBLOCKREPETAG
1070
     1
1071
        3
1005
127C12
  0
LINE
  5
127C13
  8
CENTER
 10
4500.0
 20
-890.0
 30
0.0
 11
4500.0
 21
-1175.0
 31
0.0
1001
ACDBBLOCKREPETAG
1070
     1
1071
        6
1005
127C13
  0
LINE
  5
127C14
  8
OBJECT
 10
4420.0
 20
-1175.0
 30
0.0
 11
4580.0
 21
-1175.0
 31
0.0
1001
ACDBBLOCKREPETAG
1070
     1
1071
        7
1005
127C14
  0
LINE
  5
127C15
  8
OBJECT
 10
4420.0
 20
-1163.0
 30
0.0
 11
4580.0
 21
-1163.0
 31
0.0
1001
ACDBBLOCKREPETAG
1070
     1
1071
        8
1005
127C15
  0
LINE
  5
127C16
  8
OBJECT
 10
4420.0
 20
-1163.0
 30
0.0
 11
4420.0
 21
-1175.0
 31
0.0
1001
ACDBBLOCKREPETAG
1070
     1
1071
        9
1005
127C16
  0
LINE
  5
127C17
  8
OBJECT
 10
4580.0
 20
-1163.0
 30
0.0
 11
4580.0
 21
-1175.0
 31
0.0
1001
ACDBBLOCKREPETAG
1070
     1
1071
       10
1005
127C17
  0
LINE
  5
127C18
  8
OBJECT
 10
4633.0
 20
-1029.0
 30
0.0
 11
4640.0
 21
-1029.0
 31
0.0
1001
ACDBBLOCKREPETAG
1070
     1
1071
       23
1005
127C18
  0
LINE
  5
127C19
  8
OBJECT
 10
4640.0
 20
-1029.0
 30
0.0
 11
4640.0
 21
-1136.0
 31
0.0
1001
ACDBBLOCKREPETAG
1070
     1
1071
       24
1005
127C19
  0
LINE
  5
127C1A
  8
OBJECT
 10
4584.5
 20
-1030.500000000065
 30
0.0
 11
4584.5
 21
-1133.5
 31
0.0
1001
ACDBBLOCKREPETAG
1070
     1
1071
       25
1005
127C1A
  0
ARC
  5
127C1B
  8
OBJECT
 10
4581.5
 20
-1030.500000000065
 30
0.0
 40
3.0
 50
0.0
 51
90.0
1001
ACDBBLOCKREPETAG
1070
     1
1071
       26
1005
127C1B
  0
LINE
  5
127C1C
  8
OBJECT
 10
4633.0
 20
-1136.0
 30
0.0
 11
4633.0
 21
-1029.0
 31
0.0
1001
ACDBBLOCKREPETAG
1070
     1
1071
       27
1005
127C1C
  0
LINE
  5
127C1D
  8
CENTER
 10
4655.0
 20
-1084.0
 30
0.0
 11
4541.3449199130037
 21
-1084.000000000065
 31
0.0
1001
ACDBBLOCKREPETAG
1070
     1
1071
       28
1005
127C1D
  0
LINE
  5
127C1E
  8
OBJECT
 10
4633.0
 20
-1032.0
 30
0.0
 11
4597.0
 21
-1032.0
 31
0.0
1001
ACDBBLOCKREPETAG
1070
     1
1071
       29
1005
127C1E
  0
LINE
  5
127C1F
  8
OBJECT
 10
4597.0
 20
-1032.0
 30
0.0
 11
4597.0
 21
-1136.0
 31
0.0
1001
ACDBBLOCKREPETAG
1070
     1
1071
       30
1005
127C1F
  0
LINE
  5
127C20
  8
OBJECT
 10
4597.0
 20
-1136.0
 30
0.0
 11
4640.0
 21
-1136.0
 31
0.0
1001
ACDBBLOCKREPETAG
1070
     1
1071
       31
1005
127C20
  0
LINE
  5
127C21
  8
OBJECT
 10
4593.0
 20
-1036.5
 30
0.0
 11
4584.5
 21
-1036.5
 31
0.0
1001
ACDBBLOCKREPETAG
1070
     1
1071
       32
1005
127C21
  0
LINE
  5
127C22
  8
OBJECT
 10
4584.5
 20
-1131.5
 30
0.0
 11
4593.0
 21
-1131.5
 31
0.0
1001
ACDBBLOCKREPETAG
1070
     1
1071
       33
1005
127C22
  0
LINE
  5
127C23
  8
OBJECT
 10
4593.0
 20
-1131.5
 30
0.0
 11
4593.0
 21
-1036.5
 31
0.0
1001
ACDBBLOCKREPETAG
1070
     1
1071
       34
1005
127C23
  0
LINE
  5
127C24
  8
OBJECT
 10
4597.0
 20
-1032.0
 30
0.0
 11
4593.0
 21
-1036.5
 31
0.0
1001
ACDBBLOCKREPETAG
1070
     1
1071
       35
1005
127C24
  0
LINE
  5
127C25
  8
OBJECT
 10
4597.0
 20
-1136.0
 30
0.0
 11
4593.0
 21
-1131.5
 31
0.0
1001
ACDBBLOCKREPETAG
1070
     1
1071
       36
1005
127C25
  0
LINE
  5
127C26
  8
HIDDEN
 10
4588.0
 20
-1046.0
 30
0.0
 11
4588.0
 21
-1122.0
 31
0.0
1001
ACDBBLOCKREPETAG
1070
     1
1071
       37
1005
127C26
  0
ARC
  5
127C27
  8
OBJECT
 10
4664.8782728787719
 20
-1092.409507261229
 30
0.0
 40
110.86635228309
 50
144.1634274193047
 51
163.04035380434561
1001
ACDBBLOCKREPETAG
1070
     1
1071
       38
1005
127C27
  0
ARC
  5
127C28
  8
OBJECT
 10
4617.1359887769049
 20
-1077.287749718449
 30
0.0
 40
60.791749880358971
 50
163.54720465221311
 51
179.72879698282651
1001
ACDBBLOCKREPETAG
1070
     1
1071
       39
1005
127C28
  0
ARC
  5
127C29
  8
OBJECT
 10
4617.1359956562483
 20
-1083.7122497599
 30
0.0
 40
60.79175676209487
 50
180.2712034781452
 51
196.45277946052011
1001
ACDBBLOCKREPETAG
1070
     1
1071
       40
1005
127C29
  0
ARC
  5
127C2A
  8
OBJECT
 10
4664.8782728787719
 20
-1068.590492738836
 30
0.0
 40
110.8663522830916
 50
196.95964619565439
 51
215.8365725806953
1001
ACDBBLOCKREPETAG
1070
     1
1071
       41
1005
127C2A
  0
LINE
  5
127C2B
  8
OBJECT
 10
4556.3449199130037
 20
-1077.0000000000359
 30
0.0
 11
4556.3449199130037
 21
-1084.000000000033
 31
0.0
1001
ACDBBLOCKREPETAG
1070
     1
1071
       42
1005
127C2B
  0
LINE
  5
127C2C
  8
OBJECT
 10
4575.0
 20
-1027.500000000065
 30
0.0
 11
4581.5
 21
-1027.500000000065
 31
0.0
1001
ACDBBLOCKREPETAG
1070
     1
1071
       43
1005
127C2C
  0
LINE
  5
127C2D
  8
OBJECT
 10
4575.0
 20
-1133.5
 30
0.0
 11
4584.5
 21
-1133.5
 31
0.0
1001
ACDBBLOCKREPETAG
1070
     1
1071
       44
1005
127C2D
  0
LINE
  5
127C2E
  8
OBJECT
 10
4575.0
 20
-1133.5
 30
0.0
 11
4575.0
 21
-1163.0
 31
0.0
1001
ACDBBLOCKREPETAG
1070
     1
1071
        1
1005
127C11
  0
POINT
  5
127C2F
  8
DOTS
 10
4500.0
 20
-1136.0
 30
0.0
  0
LINE
  5
127C30
  8
DIM
 10
4665.0
 20
-696.0
 30
0.0
 11
4719.4245816727571
 21
-696.0
 31
0.0
  0
LINE
  5
127C31
  8
DIM
 10
4650.0
 20
-1136.0
 30
0.0
 11
4719.4245816727571
 21
-1136.0
 31
0.0
  0
LINE
  5
127C32
  8
DIM
 10
4709.4245816727562
 20
-716.0
 30
0.0
 11
4709.4245816727562
 21
-1116.0
 31
0.0
  0
INSERT
  5
127C33
  8
DIM
  2
_OPEN30
 10
4709.4245816727562
 20
-696.0
 30
0.0
 41
20.0
 42
20.0
 43
20.0
 50
90.0
  0
INSERT
  5
127C34
  8
DIM
  2
_OPEN30
 10
4709.4245816727562
 20
-1136.0
 30
0.0
 41
20.0
 42
20.0
 43
20.0
 50
270.0
  0
INSERT
  5
127C35
  8
SLIM
  2
*U10
 10
0.0
 20
0.0
 30
0.0
  0
POLYLINE
  5
127C36
  8
HIDDEN
 66
     1
 10
0.0
 20
0.0
 30
0.0
 70
     1
1001
ACDBBLOCKREPETAG
1070
     1
1071
      105
1005
0
  0
VERTEX
  5
1288F3
  8
HIDDEN
 10
359.99999999987779
 20
-799.99999999999818
 30
0.0
  0
VERTEX
  5
1288F4
  8
HIDDEN
 10
719.99999999975603
 20
-799.99999999999818
 30
0.0
  0
VERTEX
  5
1288F5
  8
HIDDEN
 10
719.99999999975603
 20
-1263.9999999998399
 30
0.0
  0
VERTEX
  5
1288F6
  8
HIDDEN
 10
359.99999999987779
 20
-1263.9999999998399
 30
0.0
  0
SEQEND
  5
1288F7
  8
HIDDEN
  0
POLYLINE
  5
127C37
  8
HIDDEN
 66
     1
 10
0.0
 20
0.0
 30
0.0
 70
     1
1001
ACDBBLOCKREPETAG
1070
     1
1071
      110
1005
0
  0
VERTEX
  5
1288F8
  8
HIDDEN
 10
-0.0000000000002274
 20
-799.99999999999818
 30
0.0
  0
VERTEX
  5
1288F9
  8
HIDDEN
 10
359.99999999987779
 20
-799.99999999999818
 30
0.0
  0
VERTEX
  5
1288FA
  8
HIDDEN
 10
359.99999999987779
 20
-1263.9999999998399
 30
0.0
  0
VERTEX
  5
1288FB
  8
HIDDEN
 10
-0.0000000000002274
 20
-1263.9999999998399
 30
0.0
  0
SEQEND
  5
1288FC
  8
HIDDEN
  0
POLYLINE
  5
127C38
  8
HIDDEN
 66
     1
 10
0.0
 20
0.0
 30
0.0
 70
     1
1001
ACDBBLOCKREPETAG
1070
     1
1071
      125
1005
0
  0
VERTEX
  5
1288FD
  8
HIDDEN
 10
-0.0000000000002274
 20
-1263.9999999998399
 30
0.0
  0
VERTEX
  5
1288FE
  8
HIDDEN
 10
359.99999999987779
 20
-1263.9999999998399
 30
0.0
  0
VERTEX
  5
1288FF
  8
HIDDEN
 10
359.99999999987779
 20
-1727.999999999681
 30
0.0
  0
VERTEX
  5
128900
  8
HIDDEN
 10
-0.0000000000002274
 20
-1727.999999999681
 30
0.0
  0
SEQEND
  5
128901
  8
HIDDEN
  0
POLYLINE
  5
127C39
  8
HIDDEN
 66
     1
 10
0.0
 20
0.0
 30
0.0
 70
     1
1001
ACDBBLOCKREPETAG
1070
     1
1071
      110
1005
0
  0
VERTEX
  5
128902
  8
HIDDEN
 10
-0.0000000000002274
 20
0.0000000000009095
 30
0.0
  0
VERTEX
  5
128903
  8
HIDDEN
 10
359.99999999987779
 20
0.0000000000009095
 30
0.0
  0
VERTEX
  5
128904
  8
HIDDEN
 10
359.99999999987779
 20
-463.99999999984078
 30
0.0
  0
VERTEX
  5
128905
  8
HIDDEN
 10
-0.0000000000002274
 20
-463.99999999984078
 30
0.0
  0
SEQEND
  5
128906
  8
HIDDEN
  0
INSERT
  5
127C3A
  8
SLIM
  2
*U11
 10
0.0
 20
0.0
 30
0.0
  0
LINE
  5
127C3B
  8
OBJECT
 10
118.00000000004179
 20
-99.000000000171866
 30
0.0
 11
118.00000000004179
 21
-92.000000000171852
 31
0.0
1001
ACDBBLOCKREPETAG
1070
     1
1071
       39
1005
127C3B
  0
LINE
  5
127C3C
  8
OBJECT
 10
118.00000000004179
 20
-92.000000000171852
 30
0.0
 11
242.00000000004181
 21
-92.000000000171852
 31
0.0
1001
ACDBBLOCKREPETAG
1070
     1
1071
       40
1005
127C3C
  0
LINE
  5
127C3D
  8
OBJECT
 10
242.00000000004181
 20
-92.000000000171852
 30
0.0
 11
242.00000000004181
 21
-99.000000000171866
 31
0.0
1001
ACDBBLOCKREPETAG
1070
     1
1071
       41
1005
127C3D
  0
LINE
  5
127C3E
  8
OBJECT
 10
242.00000000004181
 20
-99.000000000171866
 30
0.0
 11
118.00000000004179
 21
-99.000000000171866
 31
0.0
1001
ACDBBLOCKREPETAG
1070
     1
1071
       42
1005
127C3E
  0
LINE
  5
127C3F
  8
OBJECT
 10
121.00000000004179
 20
-99.000000000171866
 30
0.0
 11
121.00000000004179
 21
-135.00000000017181
 31
0.0
1001
ACDBBLOCKREPETAG
1070
     1
1071
       43
1005
127C3F
  0
LINE
  5
127C40
  8
OBJECT
 10
121.00000000004179
 20
-135.00000000017181
 30
0.0
 11
239.00000000004181
 21
-135.00000000017181
 31
0.0
1001
ACDBBLOCKREPETAG
1070
     1
1071
       44
1005
127C40
  0
LINE
  5
127C41
  8
OBJECT
 10
239.00000000004181
 20
-135.00000000017181
 30
0.0
 11
239.00000000004181
 21
-99.000000000171866
 31
0.0
1001
ACDBBLOCKREPETAG
1070
     1
1071
       45
1005
127C41
  0
LINE
  5
127C42
  8
OBJECT
 10
125.50000000004179
 20
-139.00000000017181
 30
0.0
 11
125.50000000004179
 21
-146.00000000017181
 31
0.0
1001
ACDBBLOCKREPETAG
1070
     1
1071
       46
1005
127C42
  0
LINE
  5
127C43
  8
OBJECT
 10
234.50000000004181
 20
-146.00000000017181
 30
0.0
 11
234.50000000004181
 21
-139.00000000017181
 31
0.0
1001
ACDBBLOCKREPETAG
1070
     1
1071
       47
1005
127C43
  0
LINE
  5
127C44
  8
OBJECT
 10
234.50000000004181
 20
-139.00000000017181
 30
0.0
 11
125.50000000004179
 21
-139.00000000017181
 31
0.0
1001
ACDBBLOCKREPETAG
1070
     1
1071
       48
1005
127C44
  0
LINE
  5
127C45
  8
OBJECT
 10
121.00000000004179
 20
-135.00000000017181
 30
0.0
 11
125.50000000004179
 21
-139.00000000017181
 31
0.0
1001
ACDBBLOCKREPETAG
1070
     1
1071
       49
1005
127C45
  0
LINE
  5
127C46
  8
OBJECT
 10
239.00000000004181
 20
-135.00000000017181
 30
0.0
 11
234.50000000004181
 21
-139.00000000017181
 31
0.0
1001
ACDBBLOCKREPETAG
1070
     1
1071
       50
1005
127C46
  0
LINE
  5
127C47
  8
OBJECT
 10
118.00000000004179
 20
-149.00000000017101
 30
0.0
 11
118.00000000004179
 21
-152.00000000017181
 31
0.0
1001
ACDBBLOCKREPETAG
1070
     1
1071
       51
1005
127C47
  0
ARC
  5
127C48
  8
OBJECT
 10
121.00000000004179
 20
-149.00000000017101
 30
0.0
 40
3.0
 50
90.0
 51
180.0
1001
ACDBBLOCKREPETAG
1070
     1
1071
       52
1005
127C48
  0
LINE
  5
127C49
  8
OBJECT
 10
242.00000000004181
 20
-152.00000000017181
 30
0.0
 11
242.00000000004181
 21
-149.0000000001728
 31
0.0
1001
ACDBBLOCKREPETAG
1070
     1
1071
       53
1005
127C49
  0
ARC
  5
127C4A
  8
OBJECT
 10
239.00000000004181
 20
-149.0000000001728
 30
0.0
 40
3.0
 50
0.0
 51
90.0
1001
ACDBBLOCKREPETAG
1070
     1
1071
       54
1005
127C4A
  0
LINE
  5
127C4B
  8
OBJECT
 10
239.00000000004181
 20
-146.0000000001728
 30
0.0
 11
121.00000000004179
 21
-146.00000000017101
 31
0.0
1001
ACDBBLOCKREPETAG
1070
     1
1071
       55
1005
127C4B
  0
LINE
  5
127C4C
  8
HIDDEN
 10
135.50000000004181
 20
-144.00000000017189
 30
0.0
 11
224.50000000004181
 21
-144.00000000017189
 31
0.0
1001
ACDBBLOCKREPETAG
1070
     1
1071
      426
1005
127C4C
  0
ARC
  5
127C4D
  8
OBJECT
 10
180.00000000004181
 20
-232.00000000017189
 30
0.0
 40
50.0
 50
28.819943000140022
 51
318.52376955951968
1001
ACDBBLOCKREPETAG
1070
     1
1071
       49
1005
127C4D
  0
CIRCLE
  5
127C4E
  8
OBJECT
 10
180.00000000004181
 20
-232.00000000017189
 30
0.0
 40
70.0
1001
ACDBBLOCKREPETAG
1070
     1
1071
       50
1005
127C4E
  0
CIRCLE
  5
127C4F
  8
OBJECT
 10
180.00000000004181
 20
-232.00000000017189
 30
0.0
 40
77.0
1001
ACDBBLOCKREPETAG
1070
     1
1071
       51
1005
127C4F
  0
ARC
  5
127C50
  8
OBJECT
 10
180.00000000004181
 20
-232.00000000017189
 30
0.0
 40
80.0
 50
140.80503257377961
 51
39.194967426220252
1001
ACDBBLOCKREPETAG
1070
     1
1071
       52
1005
127C50
  0
LINE
  5
127C51
  8
OBJECT
 10
118.00000000004179
 20
-186.3381997728473
 30
0.0
 11
118.00000000004179
 21
-152.00000000017181
 31
0.0
1001
ACDBBLOCKREPETAG
1070
     1
1071
       53
1005
127C51
  0
LINE
  5
127C52
  8
OBJECT
 10
242.00000000004181
 20
-186.3381997728473
 30
0.0
 11
242.00000000004181
 21
-152.00000000017181
 31
0.0
1001
ACDBBLOCKREPETAG
1070
     1
1071
       54
1005
127C52
  0
LINE
  5
127C53
  8
OBJECT
 10
223.8069471237595
 20
-207.89706690687029
 30
0.0
 11
212.55462200004149
 21
-211.34034300017541
 31
0.0
1001
ACDBBLOCKREPETAG
1070
     1
1071
      141
1005
127C53
  0
LINE
  5
127C54
  8
OBJECT
 10
198.22553374212291
 20
-245.207250098797
 30
0.0
 11
212.5546220000397
 21
-211.34034300017541
 31
0.0
1001
ACDBBLOCKREPETAG
1070
     1
1071
      143
1005
127C54
  0
ARC
  5
127C55
  8
OBJECT
 10
207.43512999909939
 20
-249.10383023827021
 30
0.0
 40
10.0
 50
157.066778292897
 51
244.01473437020459
1001
ACDBBLOCKREPETAG
1070
     1
1071
      144
1005
127C55
  0
ARC
  5
127C56
  8
OBJECT
 10
205.55386256733439
 20
-245.85116096204459
 30
0.0
 40
7.0
 50
157.066778292897
 51
244.0147337750746
1001
ACDBBLOCKREPETAG
1070
     1
1071
      145
1005
127C56
  0
LINE
  5
127C57
  8
OBJECT
 10
223.89888500822451
 20
-262.58002444487028
 30
0.0
 11
202.4868825336107
 21
-252.143508176935
 31
0.0
1001
ACDBBLOCKREPETAG
1070
     1
1071
      154
1005
127C57
  0
LINE
  5
127C58
  8
OBJECT
 10
220.71813901887009
 20
-266.70278309956279
 30
0.0
 11
203.0537300443502
 21
-258.09289773366339
 31
0.0
1001
ACDBBLOCKREPETAG
1070
     1
1071
      155
1005
127C58
  0
ARC
  5
127C59
  8
OBJECT
 10
187.12893698288639
 20
-255.42030469285689
 30
0.0
 40
60.031113246032611
 50
44.070201304186917
 51
52.339361060978852
1001
ACDBBLOCKREPETAG
1070
     1
1071
      156
1005
127C59
  0
CIRCLE
  5
127C5A
  8
OBJECT
 10
180.00000000004181
 20
-232.00000000017189
 30
0.0
 40
53.5
1001
ACDBBLOCKREPETAG
1070
     1
1071
      157
1005
127C5A
  0
POINT
  5
127C5B
  8
DOTS
 10
180.00000000004181
 20
-232.00000000017189
 30
0.0
1001
ACDBBLOCKREPETAG
1070
     1
1071
      162
1005
127C5B
  0
TEXT
  5
127C5C
  8
SLIM
 10
97.714285714225042
 20
-1707.9999999996919
 30
0.0
 40
48.0
  1
A3000
 41
0.75
1001
ACDBBLOCKREPETAG
1070
     1
1071
      119
1005
0
  0
TEXT
  5
127C5D
  8
SLIM
 10
457.71428571410308
 20
-1243.9999999998499
 30
0.0
 40
48.0
  1
A2000
 41
0.75
1001
ACDBBLOCKREPETAG
1070
     1
1071
      119
1005
0
  0
TEXT
  5
127C5E
  8
SLIM
 10
101.1428571427964
 20
-1243.9999999998499
 30
0.0
 40
48.0
  1
A1000
 41
0.75
1001
ACDBBLOCKREPETAG
1070
     1
1071
      119
1005
0
  0
TEXT
  5
127C5F
  8
SLIM
 10
0.000003566523219
 20
-775.9999954146823
 30
0.0
 40
79.999999999972701
  1
下部枝管バリエーション
 41
0.75
1001
ACDBBLOCKREPETAG
1070
     1
1071
      119
1005
120BCB
  0
LINE
  5
127C60
  8
DIM
 10
12404.999999999991
 20
-1135.9999999999991
 30
0.0
 11
12333.11645607577
 21
-1135.9999999999991
 31
0.0
  0
LINE
  5
127C61
  8
DIM
 10
12423.042232104959
 20
-1425.999999999997
 30
0.0
 11
12333.11645607577
 21
-1425.999999999997
 31
0.0
  0
LINE
  5
127C62
  8
DIM
 10
12343.11645607577
 20
-1155.9999999999991
 30
0.0
 11
12343.11645607577
 21
-1405.999999999997
 31
0.0
  0
INSERT
  5
127C63
  8
DIM
  2
_OPEN30
 10
12343.11645607577
 20
-1135.9999999999991
 30
0.0
 41
20.0
 42
20.0
 43
20.0
 50
90.0
  0
INSERT
  5
127C64
  8
DIM
  2
_OPEN30
 10
12343.11645607577
 20
-1425.999999999997
 30
0.0
 41
20.0
 42
20.0
 43
20.0
 50
270.0
  0
INSERT
  5
127C65
  8
SLIM
  2
*U12
 10
0.0
 20
0.0
 30
0.0
  0
LINE
  5
127C66
  8
DIM
 10
10404.999999999991
 20
-1135.9999999999991
 30
0.0
 11
10333.11645607577
 21
-1135.9999999999991
 31
0.0
  0
LINE
  5
127C67
  8
DIM
 10
10423.042232104959
 20
-1425.999999999997
 30
0.0
 11
10333.11645607577
 21
-1425.999999999997
 31
0.0
  0
LINE
  5
127C68
  8
DIM
 10
10343.11645607577
 20
-1155.9999999999991
 30
0.0
 11
10343.11645607577
 21
-1405.999999999997
 31
0.0
  0
INSERT
  5
127C69
  8
DIM
  2
_OPEN30
 10
10343.11645607577
 20
-1135.9999999999991
 30
0.0
 41
20.0
 42
20.0
 43
20.0
 50
90.0
  0
INSERT
  5
127C6A
  8
DIM
  2
_OPEN30
 10
10343.11645607577
 20
-1425.999999999997
 30
0.0
 41
20.0
 42
20.0
 43
20.0
 50
270.0
  0
INSERT
  5
127C6B
  8
SLIM
  2
*U13
 10
0.0
 20
0.0
 30
0.0
  0
LINE
  5
127C6C
  8
DIM
 10
8404.9999999999927
 20
-1135.9999999999991
 30
0.0
 11
8333.1164560757734
 21
-1135.9999999999991
 31
0.0
  0
LINE
  5
127C6D
  8
DIM
 10
8423.0422321049627
 20
-1385.9999999999991
 30
0.0
 11
8333.1164560757734
 21
-1385.9999999999991
 31
0.0
  0
LINE
  5
127C6E
  8
DIM
 10
8343.1164560757734
 20
-1155.9999999999991
 30
0.0
 11
8343.1164560757734
 21
-1365.9999999999991
 31
0.0
  0
INSERT
  5
127C6F
  8
DIM
  2
_OPEN30
 10
8343.1164560757734
 20
-1135.9999999999991
 30
0.0
 41
20.0
 42
20.0
 43
20.0
 50
90.0
  0
INSERT
  5
127C70
  8
DIM
  2
_OPEN30
 10
8343.1164560757734
 20
-1385.9999999999991
 30
0.0
 41
20.0
 42
20.0
 43
20.0
 50
270.0
  0
INSERT
  5
127C71
  8
SLIM
  2
*U14
 10
0.0
 20
0.0
 30
0.0
  0
LINE
  5
127C72
  8
OBJECT
 10
2575.0
 20
-890.0
 30
0.0
 11
2575.0
 21
-1027.500000000065
 31
0.0
1001
ACDBBLOCKREPETAG
1070
     1
1071
        1
1005
127C72
  0
LINE
  5
127C73
  8
OBJECT
 10
2425.0
 20
-889.99999999999409
 30
0.0
 11
2425.0
 21
-1163.0
 31
0.0
1001
ACDBBLOCKREPETAG
1070
     1
1071
        3
1005
127C73
  0
LINE
  5
127C74
  8
CENTER
 10
2500.0
 20
-890.0
 30
0.0
 11
2500.0
 21
-1175.0
 31
0.0
1001
ACDBBLOCKREPETAG
1070
     1
1071
        6
1005
127C74
  0
LINE
  5
127C75
  8
OBJECT
 10
2420.0
 20
-1175.0
 30
0.0
 11
2580.0
 21
-1175.0
 31
0.0
1001
ACDBBLOCKREPETAG
1070
     1
1071
        7
1005
127C75
  0
LINE
  5
127C76
  8
OBJECT
 10
2420.0
 20
-1163.0
 30
0.0
 11
2580.0
 21
-1163.0
 31
0.0
1001
ACDBBLOCKREPETAG
1070
     1
1071
        8
1005
127C76
  0
LINE
  5
127C77
  8
OBJECT
 10
2420.0
 20
-1163.0
 30
0.0
 11
2420.0
 21
-1175.0
 31
0.0
1001
ACDBBLOCKREPETAG
1070
     1
1071
        9
1005
127C77
  0
LINE
  5
127C78
  8
OBJECT
 10
2580.0
 20
-1163.0
 30
0.0
 11
2580.0
 21
-1175.0
 31
0.0
1001
ACDBBLOCKREPETAG
1070
     1
1071
       10
1005
127C78
  0
LINE
  5
127C79
  8
OBJECT
 10
2633.0
 20
-1029.0
 30
0.0
 11
2640.0
 21
-1029.0
 31
0.0
1001
ACDBBLOCKREPETAG
1070
     1
1071
       23
1005
127C79
  0
LINE
  5
127C7A
  8
OBJECT
 10
2640.0
 20
-1029.0
 30
0.0
 11
2640.0
 21
-1136.0
 31
0.0
1001
ACDBBLOCKREPETAG
1070
     1
1071
       24
1005
127C7A
  0
LINE
  5
127C7B
  8
OBJECT
 10
2584.5
 20
-1030.500000000065
 30
0.0
 11
2584.5
 21
-1133.5
 31
0.0
1001
ACDBBLOCKREPETAG
1070
     1
1071
       25
1005
127C7B
  0
ARC
  5
127C7C
  8
OBJECT
 10
2581.5
 20
-1030.500000000065
 30
0.0
 40
3.0
 50
0.0
 51
90.0
1001
ACDBBLOCKREPETAG
1070
     1
1071
       26
1005
127C7C
  0
LINE
  5
127C7D
  8
OBJECT
 10
2633.0
 20
-1136.0
 30
0.0
 11
2633.0
 21
-1029.0
 31
0.0
1001
ACDBBLOCKREPETAG
1070
     1
1071
       27
1005
127C7D
  0
LINE
  5
127C7E
  8
CENTER
 10
2655.0
 20
-1084.0
 30
0.0
 11
2541.344919913005
 21
-1084.000000000065
 31
0.0
1001
ACDBBLOCKREPETAG
1070
     1
1071
       28
1005
127C7E
  0
LINE
  5
127C7F
  8
OBJECT
 10
2633.0
 20
-1032.0
 30
0.0
 11
2597.0
 21
-1032.0
 31
0.0
1001
ACDBBLOCKREPETAG
1070
     1
1071
       29
1005
127C7F
  0
LINE
  5
127C80
  8
OBJECT
 10
2597.0
 20
-1032.0
 30
0.0
 11
2597.0
 21
-1136.0
 31
0.0
1001
ACDBBLOCKREPETAG
1070
     1
1071
       30
1005
127C80
  0
LINE
  5
127C81
  8
OBJECT
 10
2597.0
 20
-1136.0
 30
0.0
 11
2640.0
 21
-1136.0
 31
0.0
1001
ACDBBLOCKREPETAG
1070
     1
1071
       31
1005
127C81
  0
LINE
  5
127C82
  8
OBJECT
 10
2593.0
 20
-1036.5
 30
0.0
 11
2584.5
 21
-1036.5
 31
0.0
1001
ACDBBLOCKREPETAG
1070
     1
1071
       32
1005
127C82
  0
LINE
  5
127C83
  8
OBJECT
 10
2584.5
 20
-1131.5
 30
0.0
 11
2593.0
 21
-1131.5
 31
0.0
1001
ACDBBLOCKREPETAG
1070
     1
1071
       33
1005
127C83
  0
LINE
  5
127C84
  8
OBJECT
 10
2593.0
 20
-1131.5
 30
0.0
 11
2593.0
 21
-1036.5
 31
0.0
1001
ACDBBLOCKREPETAG
1070
     1
1071
       34
1005
127C84
  0
LINE
  5
127C85
  8
OBJECT
 10
2597.0
 20
-1032.0
 30
0.0
 11
2593.0
 21
-1036.5
 31
0.0
1001
ACDBBLOCKREPETAG
1070
     1
1071
       35
1005
127C85
  0
LINE
  5
127C86
  8
OBJECT
 10
2597.0
 20
-1136.0
 30
0.0
 11
2593.0
 21
-1131.5
 31
0.0
1001
ACDBBLOCKREPETAG
1070
     1
1071
       36
1005
127C86
  0
LINE
  5
127C87
  8
HIDDEN
 10
2588.0
 20
-1046.0
 30
0.0
 11
2588.0
 21
-1122.0
 31
0.0
1001
ACDBBLOCKREPETAG
1070
     1
1071
       37
1005
127C87
  0
ARC
  5
127C88
  8
OBJECT
 10
2664.8782728787751
 20
-1092.409507261229
 30
0.0
 40
110.86635228309
 50
144.1634274193047
 51
163.040353804338
1001
ACDBBLOCKREPETAG
1070
     1
1071
       38
1005
127C88
  0
ARC
  5
127C89
  8
OBJECT
 10
2617.1359887769072
 20
-1077.287749718449
 30
0.0
 40
60.791749880358971
 50
163.5472046522205
 51
179.72879698282679
1001
ACDBBLOCKREPETAG
1070
     1
1071
       39
1005
127C89
  0
ARC
  5
127C8A
  8
OBJECT
 10
2617.1359956562478
 20
-1083.7122497599
 30
0.0
 40
60.79175676209487
 50
180.2712034781452
 51
196.45277946052761
1001
ACDBBLOCKREPETAG
1070
     1
1071
       40
1005
127C8A
  0
ARC
  5
127C8B
  8
OBJECT
 10
2664.8782728787751
 20
-1068.590492738836
 30
0.0
 40
110.8663522830916
 50
196.95964619566189
 51
215.8365725806953
1001
ACDBBLOCKREPETAG
1070
     1
1071
       41
1005
127C8B
  0
LINE
  5
127C8C
  8
OBJECT
 10
2556.344919913005
 20
-1077.0000000000359
 30
0.0
 11
2556.344919913005
 21
-1084.000000000033
 31
0.0
1001
ACDBBLOCKREPETAG
1070
     1
1071
       42
1005
127C8C
  0
LINE
  5
127C8D
  8
OBJECT
 10
2575.0
 20
-1027.500000000065
 30
0.0
 11
2581.5
 21
-1027.500000000065
 31
0.0
1001
ACDBBLOCKREPETAG
1070
     1
1071
       43
1005
127C8D
  0
LINE
  5
127C8E
  8
OBJECT
 10
2575.0
 20
-1133.5
 30
0.0
 11
2584.5
 21
-1133.5
 31
0.0
1001
ACDBBLOCKREPETAG
1070
     1
1071
       44
1005
127C8E
  0
LINE
  5
127C8F
  8
OBJECT
 10
2575.0
 20
-1133.5
 30
0.0
 11
2575.0
 21
-1163.0
 31
0.0
1001
ACDBBLOCKREPETAG
1070
     1
1071
        1
1005
127C72
  0
POINT
  5
127C90
  8
DOTS
 10
2500.0
 20
-1136.0
 30
0.0
  0
LINE
  5
127C91
  8
DIM
 10
2665.0
 20
-696.0
 30
0.0
 11
2719.424581672758
 21
-696.0
 31
0.0
  0
LINE
  5
127C92
  8
DIM
 10
2650.0
 20
-1136.0
 30
0.0
 11
2719.4245816727562
 21
-1136.0
 31
0.0
  0
LINE
  5
127C93
  8
DIM
 10
2709.4245816727571
 20
-716.0
 30
0.0
 11
2709.4245816727562
 21
-1116.0
 31
0.0
  0
INSERT
  5
127C94
  8
DIM
  2
_OPEN30
 10
2709.4245816727571
 20
-696.0
 30
0.0
 41
20.0
 42
20.0
 43
20.0
 50
90.0
  0
INSERT
  5
127C95
  8
DIM
  2
_OPEN30
 10
2709.4245816727562
 20
-1136.0
 30
0.0
 41
20.0
 42
20.0
 43
20.0
 50
270.0
  0
INSERT
  5
127C96
  8
SLIM
  2
*U15
 10
0.0
 20
0.0
 30
0.0
  0
LINE
  5
127C97
  8
CENTER
 10
4977.0
 20
-3925.9999999999959
 30
0.0
 11
4823.0
 21
-3925.9999999999959
 31
0.0
1001
ACDBBLOCKREPETAG
1070
     1
1071
       17
1005
127C97
  0
CIRCLE
  5
127C98
  8
OBJECT
 10
4900.0
 20
-3925.9999999999959
 30
0.0
 40
41.5
1001
ACDBBLOCKREPETAG
1070
     1
1071
       18
1005
127C98
  0
CIRCLE
  5
127C99
  8
OBJECT
 10
4900.0
 20
-3925.9999999999959
 30
0.0
 40
54.0
1001
ACDBBLOCKREPETAG
1070
     1
1071
       19
1005
127C99
  0
ARC
  5
127C9A
  8
OBJECT
 10
4900.0
 20
-3925.9999999999959
 30
0.0
 40
62.0
 50
287.89655112921122
 51
252.1034488707887
1001
ACDBBLOCKREPETAG
1070
     1
1071
       20
1005
127C9A
  0
LINE
  5
127C9B
  8
OBJECT
 10
4880.947441116743
 20
-3984.9999999999968
 30
0.0
 11
4919.052558883257
 21
-3984.9999999999968
 31
0.0
1001
ACDBBLOCKREPETAG
1070
     1
1071
       21
1005
127C9B
  0
POINT
  5
127C9C
  8
DOTS
 10
4900.0
 20
-3984.9999999999968
 30
0.0
1001
ACDBBLOCKREPETAG
1070
     1
1071
       23
1005
127C9C
  0
LINE
  5
127C9D
  8
OBJECT
 10
4633.0
 20
-3863.9999999999968
 30
0.0
 11
4640.0
 21
-3863.9999999999968
 31
0.0
1001
ACDBBLOCKREPETAG
1070
     1
1071
       46
1005
127C9D
  0
LINE
  5
127C9E
  8
OBJECT
 10
4640.0
 20
-3863.9999999999968
 30
0.0
 11
4640.0
 21
-3984.9999999999968
 31
0.0
1001
ACDBBLOCKREPETAG
1070
     1
1071
       47
1005
127C9E
  0
LINE
  5
127C9F
  8
OBJECT
 10
4633.0
 20
-3984.9999999999968
 30
0.0
 11
4633.0
 21
-3863.9999999999968
 31
0.0
1001
ACDBBLOCKREPETAG
1070
     1
1071
       48
1005
127C9F
  0
LINE
  5
127CA0
  8
CENTER
 10
4655.0
 20
-3925.9999999999959
 30
0.0
 11
4541.3449199130037
 21
-3926.0000000000618
 31
0.0
1001
ACDBBLOCKREPETAG
1070
     1
1071
       49
1005
127CA0
  0
LINE
  5
127CA1
  8
OBJECT
 10
4633.0
 20
-3866.9999999999968
 30
0.0
 11
4597.0
 21
-3866.9999999999968
 31
0.0
1001
ACDBBLOCKREPETAG
1070
     1
1071
       50
1005
127CA1
  0
LINE
  5
127CA2
  8
OBJECT
 10
4597.0
 20
-3866.9999999999968
 30
0.0
 11
4597.0
 21
-3984.9999999999968
 31
0.0
1001
ACDBBLOCKREPETAG
1070
     1
1071
       51
1005
127CA2
  0
LINE
  5
127CA3
  8
OBJECT
 10
4597.0
 20
-3984.9999999999968
 30
0.0
 11
4640.0
 21
-3984.9999999999968
 31
0.0
1001
ACDBBLOCKREPETAG
1070
     1
1071
       52
1005
127CA3
  0
LINE
  5
127CA4
  8
OBJECT
 10
4593.0
 20
-3871.4999999999968
 30
0.0
 11
4582.5
 21
-3871.4999999999968
 31
0.0
1001
ACDBBLOCKREPETAG
1070
     1
1071
       53
1005
127CA4
  0
LINE
  5
127CA5
  8
OBJECT
 10
4582.5
 20
-3980.4999999999968
 30
0.0
 11
4593.0
 21
-3980.4999999999968
 31
0.0
1001
ACDBBLOCKREPETAG
1070
     1
1071
       54
1005
127CA5
  0
LINE
  5
127CA6
  8
OBJECT
 10
4593.0
 20
-3980.4999999999968
 30
0.0
 11
4593.0
 21
-3871.4999999999968
 31
0.0
1001
ACDBBLOCKREPETAG
1070
     1
1071
       55
1005
127CA6
  0
LINE
  5
127CA7
  8
OBJECT
 10
4597.0
 20
-3866.9999999999968
 30
0.0
 11
4593.0
 21
-3871.4999999999968
 31
0.0
1001
ACDBBLOCKREPETAG
1070
     1
1071
       56
1005
127CA7
  0
LINE
  5
127CA8
  8
OBJECT
 10
4597.0
 20
-3984.9999999999968
 30
0.0
 11
4593.0
 21
-3980.4999999999968
 31
0.0
1001
ACDBBLOCKREPETAG
1070
     1
1071
       57
1005
127CA8
  0
LINE
  5
127CA9
  8
HIDDEN
 10
4588.0
 20
-3881.4999999999959
 30
0.0
 11
4588.0
 21
-3970.4999999999959
 31
0.0
1001
ACDBBLOCKREPETAG
1070
     1
1071
       58
1005
127CA9
  0
ARC
  5
127CAA
  8
OBJECT
 10
4664.8782728787719
 20
-3941.4095072612258
 30
0.0
 40
110.86635228309
 50
144.16342741928889
 51
163.04035380433939
1001
ACDBBLOCKREPETAG
1070
     1
1071
       59
1005
127CAA
  0
ARC
  5
127CAB
  8
OBJECT
 10
4617.1359887769049
 20
-3926.2877497184459
 30
0.0
 40
60.791749880358971
 50
163.54720465221931
 51
179.72879698282651
1001
ACDBBLOCKREPETAG
1070
     1
1071
       60
1005
127CAB
  0
ARC
  5
127CAC
  8
OBJECT
 10
4617.1359956562483
 20
-3932.712249759898
 30
0.0
 40
60.79175676209487
 50
180.2712034781452
 51
196.4527794605265
1001
ACDBBLOCKREPETAG
1070
     1
1071
       61
1005
127CAC
  0
ARC
  5
127CAD
  8
OBJECT
 10
4664.8782728787719
 20
-3917.5904927388328
 30
0.0
 40
110.8663522830916
 50
196.9596461956605
 51
215.83657258071111
1001
ACDBBLOCKREPETAG
1070
     1
1071
       62
1005
127CAD
  0
LINE
  5
127CAE
  8
OBJECT
 10
4556.3449199130037
 20
-3926.0000000000332
 30
0.0
 11
4556.3449199130037
 21
-3933.0000000000291
 31
0.0
1001
ACDBBLOCKREPETAG
1070
     1
1071
       63
1005
127CAE
  0
LINE
  5
127CAF
  8
OBJECT
 10
4574.9999999998336
 20
-3876.500000000291
 30
0.0
 11
4577.4999999998363
 21
-3876.500000000291
 31
0.0
1001
ACDBBLOCKREPETAG
1070
     1
1071
       65
1005
127CAF
  0
LINE
  5
127CB0
  8
OBJECT
 10
4574.9999999998327
 20
-3982.4999999997672
 30
0.0
 11
4579.4999999998308
 21
-3982.4999999997672
 31
0.0
1001
ACDBBLOCKREPETAG
1070
     1
1071
       66
1005
127CB0
  0
LINE
  5
127CB1
  8
OBJECT
 10
4579.4999999998308
 20
-3982.4999999997672
 30
0.0
 11
4577.4999999998363
 21
-3876.500000000291
 31
0.0
1001
ACDBBLOCKREPETAG
1070
     1
1071
       67
1005
127CB1
  0
LINE
  5
127CB2
  8
OBJECT
 10
4579.4999999998308
 20
-3982.4999999997672
 30
0.0
 11
4582.5
 21
-3980.4999999999968
 31
0.0
1001
ACDBBLOCKREPETAG
1070
     1
1071
       68
1005
127CB2
  0
LINE
  5
127CB3
  8
OBJECT
 10
4582.5
 20
-3980.4999999999968
 30
0.0
 11
4582.5
 21
-3871.4999999999968
 31
0.0
1001
ACDBBLOCKREPETAG
1070
     1
1071
       69
1005
127CB3
  0
LINE
  5
127CB4
  8
OBJECT
 10
4582.5
 20
-3871.4999999999968
 30
0.0
 11
4577.4999999998363
 21
-3876.500000000291
 31
0.0
1001
ACDBBLOCKREPETAG
1070
     1
1071
       70
1005
127CB4
  0
LINE
  5
127CB5
  8
OBJECT
 10
4633.0000000000009
 20
-3517.9999999999968
 30
0.0
 11
4640.0000000000018
 21
-3517.9999999999968
 31
0.0
1001
ACDBBLOCKREPETAG
1070
     1
1071
       38
1005
127CB5
  0
LINE
  5
127CB6
  8
OBJECT
 10
4640.0000000000018
 20
-3517.9999999999968
 30
0.0
 11
4640.0
 21
-3641.9999999999968
 31
0.0
1001
ACDBBLOCKREPETAG
1070
     1
1071
       39
1005
127CB6
  0
LINE
  5
127CB7
  8
OBJECT
 10
4640.0
 20
-3641.9999999999968
 30
0.0
 11
4633.0
 21
-3641.9999999999968
 31
0.0
1001
ACDBBLOCKREPETAG
1070
     1
1071
       40
1005
127CB7
  0
LINE
  5
127CB8
  8
OBJECT
 10
4633.0
 20
-3641.9999999999968
 30
0.0
 11
4633.0000000000009
 21
-3517.9999999999968
 31
0.0
1001
ACDBBLOCKREPETAG
1070
     1
1071
       41
1005
127CB8
  0
LINE
  5
127CB9
  8
CENTER
 10
4655.0
 20
-3579.9999999999959
 30
0.0
 11
4580.0
 21
-3579.9999999999959
 31
0.0
1001
ACDBBLOCKREPETAG
1070
     1
1071
       42
1005
127CB9
  0
LINE
  5
127CBA
  8
OBJECT
 10
4633.0000000000009
 20
-3520.9999999999968
 30
0.0
 11
4597.0000000000018
 21
-3520.9999999999968
 31
0.0
1001
ACDBBLOCKREPETAG
1070
     1
1071
       43
1005
127CBA
  0
LINE
  5
127CBB
  8
OBJECT
 10
4597.0000000000018
 20
-3520.9999999999968
 30
0.0
 11
4597.0
 21
-3638.9999999999991
 31
0.0
1001
ACDBBLOCKREPETAG
1070
     1
1071
       44
1005
127CBB
  0
LINE
  5
127CBC
  8
OBJECT
 10
4597.0
 20
-3638.9999999999991
 30
0.0
 11
4633.0
 21
-3638.9999999999991
 31
0.0
1001
ACDBBLOCKREPETAG
1070
     1
1071
       45
1005
127CBC
  0
LINE
  5
127CBD
  8
OBJECT
 10
4593.0000000000018
 20
-3525.4999999999968
 30
0.0
 11
4582.5000000000018
 21
-3525.4999999999968
 31
0.0
1001
ACDBBLOCKREPETAG
1070
     1
1071
       46
1005
127CBD
  0
LINE
  5
127CBE
  8
OBJECT
 10
4582.5
 20
-3634.4999999999959
 30
0.0
 11
4593.0
 21
-3634.4999999999959
 31
0.0
1001
ACDBBLOCKREPETAG
1070
     1
1071
       47
1005
127CBE
  0
LINE
  5
127CBF
  8
OBJECT
 10
4593.0
 20
-3634.4999999999959
 30
0.0
 11
4593.0000000000018
 21
-3525.4999999999968
 31
0.0
1001
ACDBBLOCKREPETAG
1070
     1
1071
       48
1005
127CBF
  0
LINE
  5
127CC0
  8
OBJECT
 10
4597.0000000000018
 20
-3520.9999999999968
 30
0.0
 11
4593.0000000000018
 21
-3525.4999999999968
 31
0.0
1001
ACDBBLOCKREPETAG
1070
     1
1071
       49
1005
127CC0
  0
LINE
  5
127CC1
  8
OBJECT
 10
4597.0
 20
-3638.9999999999991
 30
0.0
 11
4593.0
 21
-3634.4999999999959
 31
0.0
1001
ACDBBLOCKREPETAG
1070
     1
1071
       50
1005
127CC1
  0
LINE
  5
127CC2
  8
HIDDEN
 10
4588.0
 20
-3535.4999999999959
 30
0.0
 11
4588.0
 21
-3624.4999999999959
 31
0.0
1001
ACDBBLOCKREPETAG
1070
     1
1071
       51
1005
127CC2
  0
LINE
  5
127CC3
  8
OBJECT
 10
4577.5000000000018
 20
-3530.4999999999959
 30
0.0
 11
4556.3449199129791
 21
-3530.4999999999959
 31
0.0
1001
ACDBBLOCKREPETAG
1070
     1
1071
       52
1005
127CC3
  0
LINE
  5
127CC4
  8
OBJECT
 10
4577.4999999999991
 20
-3629.4999999999968
 30
0.0
 11
4556.3449199129791
 21
-3629.4999999999968
 31
0.0
1001
ACDBBLOCKREPETAG
1070
     1
1071
       53
1005
127CC4
  0
LINE
  5
127CC5
  8
OBJECT
 10
4582.5000000000018
 20
-3525.4999999999968
 30
0.0
 11
4582.5
 21
-3634.4999999999959
 31
0.0
1001
ACDBBLOCKREPETAG
1070
     1
1071
       54
1005
127CC5
  0
LINE
  5
127CC6
  8
OBJECT
 10
4577.5000000000018
 20
-3530.4999999999959
 30
0.0
 11
4577.4999999999991
 21
-3629.4999999999968
 31
0.0
1001
ACDBBLOCKREPETAG
1070
     1
1071
       55
1005
127CC6
  0
LINE
  5
127CC7
  8
OBJECT
 10
4582.5000000000018
 20
-3525.4999999999968
 30
0.0
 11
4577.5000000000018
 21
-3530.4999999999959
 31
0.0
1001
ACDBBLOCKREPETAG
1070
     1
1071
       56
1005
127CC7
  0
LINE
  5
127CC8
  8
OBJECT
 10
4577.4999999999991
 20
-3629.4999999999968
 30
0.0
 11
4582.5
 21
-3634.4999999999941
 31
0.0
1001
ACDBBLOCKREPETAG
1070
     1
1071
       57
1005
127CC8
  0
CIRCLE
  5
127CC9
  8
OBJECT
 10
3900.0
 20
-3932.9999999999959
 30
0.0
 40
35.5
1001
ACDBBLOCKREPETAG
1070
     1
1071
       11
1005
127CC9
  0
LINE
  5
127CCA
  8
CENTER
 10
3830.0
 20
-3932.9999999999959
 30
0.0
 11
3970.0
 21
-3932.9999999999959
 31
0.0
1001
ACDBBLOCKREPETAG
1070
     1
1071
       12
1005
127CCA
  0
CIRCLE
  5
127CCB
  8
OBJECT
 10
3900.0
 20
-3932.9999999999959
 30
0.0
 40
47.0
1001
ACDBBLOCKREPETAG
1070
     1
1071
       14
1005
127CCB
  0
ARC
  5
127CCC
  8
OBJECT
 10
3900.0
 20
-3932.9999999999959
 30
0.0
 40
55.0
 50
289.01126526008892
 51
250.98873473991111
1001
ACDBBLOCKREPETAG
1070
     1
1071
       15
1005
127CCC
  0
LINE
  5
127CCD
  8
OBJECT
 10
3882.0835271328319
 20
-3984.9999999999968
 30
0.0
 11
3917.9164728671672
 21
-3984.9999999999968
 31
0.0
1001
ACDBBLOCKREPETAG
1070
     1
1071
       16
1005
127CCD
  0
POINT
  5
127CCE
  8
DOTS
 10
3900.0
 20
-3984.9999999999968
 30
0.0
1001
ACDBBLOCKREPETAG
1070
     1
1071
       24
1005
127CCE
  0
LINE
  5
127CCF
  8
OBJECT
 10
3633.0
 20
-3877.9999999999959
 30
0.0
 11
3640.0
 21
-3877.9999999999959
 31
0.0
1001
ACDBBLOCKREPETAG
1070
     1
1071
       23
1005
127CCF
  0
LINE
  5
127CD0
  8
OBJECT
 10
3640.0
 20
-3877.9999999999959
 30
0.0
 11
3640.0
 21
-3984.9999999999968
 31
0.0
1001
ACDBBLOCKREPETAG
1070
     1
1071
       24
1005
127CD0
  0
LINE
  5
127CD1
  8
OBJECT
 10
3584.5
 20
-3879.5000000000618
 30
0.0
 11
3584.5
 21
-3982.4999999999968
 31
0.0
1001
ACDBBLOCKREPETAG
1070
     1
1071
       25
1005
127CD1
  0
ARC
  5
127CD2
  8
OBJECT
 10
3581.5
 20
-3879.5000000000618
 30
0.0
 40
3.0
 50
0.0
 51
90.0
1001
ACDBBLOCKREPETAG
1070
     1
1071
       26
1005
127CD2
  0
LINE
  5
127CD3
  8
OBJECT
 10
3633.0
 20
-3984.9999999999968
 30
0.0
 11
3633.0
 21
-3877.9999999999959
 31
0.0
1001
ACDBBLOCKREPETAG
1070
     1
1071
       27
1005
127CD3
  0
LINE
  5
127CD4
  8
CENTER
 10
3655.0
 20
-3932.9999999999959
 30
0.0
 11
3541.3449199130041
 21
-3933.0000000000618
 31
0.0
1001
ACDBBLOCKREPETAG
1070
     1
1071
       28
1005
127CD4
  0
LINE
  5
127CD5
  8
OBJECT
 10
3633.0
 20
-3880.9999999999968
 30
0.0
 11
3597.0
 21
-3880.9999999999968
 31
0.0
1001
ACDBBLOCKREPETAG
1070
     1
1071
       29
1005
127CD5
  0
LINE
  5
127CD6
  8
OBJECT
 10
3597.0
 20
-3880.9999999999968
 30
0.0
 11
3597.0
 21
-3984.9999999999968
 31
0.0
1001
ACDBBLOCKREPETAG
1070
     1
1071
       30
1005
127CD6
  0
LINE
  5
127CD7
  8
OBJECT
 10
3597.0
 20
-3984.9999999999968
 30
0.0
 11
3640.0
 21
-3984.9999999999968
 31
0.0
1001
ACDBBLOCKREPETAG
1070
     1
1071
       31
1005
127CD7
  0
LINE
  5
127CD8
  8
OBJECT
 10
3593.0
 20
-3885.4999999999959
 30
0.0
 11
3584.5
 21
-3885.4999999999959
 31
0.0
1001
ACDBBLOCKREPETAG
1070
     1
1071
       32
1005
127CD8
  0
LINE
  5
127CD9
  8
OBJECT
 10
3584.5
 20
-3980.4999999999968
 30
0.0
 11
3593.0
 21
-3980.4999999999968
 31
0.0
1001
ACDBBLOCKREPETAG
1070
     1
1071
       33
1005
127CD9
  0
LINE
  5
127CDA
  8
OBJECT
 10
3593.0
 20
-3980.4999999999968
 30
0.0
 11
3593.0
 21
-3885.4999999999959
 31
0.0
1001
ACDBBLOCKREPETAG
1070
     1
1071
       34
1005
127CDA
  0
LINE
  5
127CDB
  8
OBJECT
 10
3597.0
 20
-3880.9999999999968
 30
0.0
 11
3593.0
 21
-3885.4999999999959
 31
0.0
1001
ACDBBLOCKREPETAG
1070
     1
1071
       35
1005
127CDB
  0
LINE
  5
127CDC
  8
OBJECT
 10
3597.0
 20
-3984.9999999999968
 30
0.0
 11
3593.0
 21
-3980.4999999999968
 31
0.0
1001
ACDBBLOCKREPETAG
1070
     1
1071
       36
1005
127CDC
  0
LINE
  5
127CDD
  8
HIDDEN
 10
3588.0
 20
-3894.9999999999968
 30
0.0
 11
3588.0
 21
-3970.9999999999959
 31
0.0
1001
ACDBBLOCKREPETAG
1070
     1
1071
       37
1005
127CDD
  0
ARC
  5
127CDE
  8
OBJECT
 10
3664.8782728787742
 20
-3941.4095072612258
 30
0.0
 40
110.86635228309
 50
144.16342741928889
 51
163.04035380433169
1001
ACDBBLOCKREPETAG
1070
     1
1071
       38
1005
127CDE
  0
ARC
  5
127CDF
  8
OBJECT
 10
3617.1359887769072
 20
-3926.2877497184459
 30
0.0
 40
60.791749880358971
 50
163.5472046522267
 51
179.72879698282679
1001
ACDBBLOCKREPETAG
1070
     1
1071
       39
1005
127CDF
  0
ARC
  5
127CE0
  8
OBJECT
 10
3617.1359956562478
 20
-3932.712249759898
 30
0.0
 40
60.79175676209487
 50
180.2712034781452
 51
196.4527794605338
1001
ACDBBLOCKREPETAG
1070
     1
1071
       40
1005
127CE0
  0
ARC
  5
127CE1
  8
OBJECT
 10
3664.8782728787742
 20
-3917.5904927388328
 30
0.0
 40
110.8663522830916
 50
196.95964619566811
 51
215.83657258071111
1001
ACDBBLOCKREPETAG
1070
     1
1071
       41
1005
127CE1
  0
LINE
  5
127CE2
  8
OBJECT
 10
3556.3449199130041
 20
-3926.0000000000332
 30
0.0
 11
3556.3449199130041
 21
-3933.0000000000291
 31
0.0
1001
ACDBBLOCKREPETAG
1070
     1
1071
       42
1005
127CE2
  0
LINE
  5
127CE3
  8
OBJECT
 10
3574.9999999999991
 20
-3876.5000000000618
 30
0.0
 11
3581.5
 21
-3876.5000000000618
 31
0.0
1001
ACDBBLOCKREPETAG
1070
     1
1071
       43
1005
127CE3
  0
LINE
  5
127CE4
  8
OBJECT
 10
3574.9999999999991
 20
-3982.4999999999968
 30
0.0
 11
3584.5
 21
-3982.4999999999968
 31
0.0
1001
ACDBBLOCKREPETAG
1070
     1
1071
       44
1005
127CE4
  0
LINE
  5
127CE5
  8
OBJECT
 10
3633.0
 20
-3524.9999999999968
 30
0.0
 11
3640.0
 21
-3524.9999999999968
 31
0.0
1001
ACDBBLOCKREPETAG
1070
     1
1071
       20
1005
127CE5
  0
LINE
  5
127CE6
  8
OBJECT
 10
3640.0
 20
-3524.9999999999968
 30
0.0
 11
3640.0
 21
-3634.9999999999968
 31
0.0
1001
ACDBBLOCKREPETAG
1070
     1
1071
       21
1005
127CE6
  0
LINE
  5
127CE7
  8
OBJECT
 10
3640.0
 20
-3634.9999999999968
 30
0.0
 11
3633.0
 21
-3634.9999999999968
 31
0.0
1001
ACDBBLOCKREPETAG
1070
     1
1071
       22
1005
127CE7
  0
LINE
  5
127CE8
  8
OBJECT
 10
3633.0
 20
-3634.9999999999968
 30
0.0
 11
3633.0
 21
-3524.9999999999968
 31
0.0
1001
ACDBBLOCKREPETAG
1070
     1
1071
       23
1005
127CE8
  0
LINE
  5
127CE9
  8
CENTER
 10
3655.0
 20
-3579.9999999999959
 30
0.0
 11
3580.0
 21
-3579.9999999999959
 31
0.0
1001
ACDBBLOCKREPETAG
1070
     1
1071
       24
1005
127CE9
  0
LINE
  5
127CEA
  8
OBJECT
 10
3633.0
 20
-3527.9999999999968
 30
0.0
 11
3597.0
 21
-3527.9999999999968
 31
0.0
1001
ACDBBLOCKREPETAG
1070
     1
1071
       25
1005
127CEA
  0
LINE
  5
127CEB
  8
OBJECT
 10
3597.0
 20
-3527.9999999999968
 30
0.0
 11
3597.0
 21
-3631.9999999999968
 31
0.0
1001
ACDBBLOCKREPETAG
1070
     1
1071
       26
1005
127CEB
  0
LINE
  5
127CEC
  8
OBJECT
 10
3597.0
 20
-3631.9999999999968
 30
0.0
 11
3633.0
 21
-3631.9999999999968
 31
0.0
1001
ACDBBLOCKREPETAG
1070
     1
1071
       27
1005
127CEC
  0
LINE
  5
127CED
  8
OBJECT
 10
3593.0
 20
-3532.4999999999968
 30
0.0
 11
3584.5
 21
-3532.4999999999968
 31
0.0
1001
ACDBBLOCKREPETAG
1070
     1
1071
       28
1005
127CED
  0
LINE
  5
127CEE
  8
OBJECT
 10
3584.5
 20
-3627.4999999999959
 30
0.0
 11
3593.0
 21
-3627.4999999999959
 31
0.0
1001
ACDBBLOCKREPETAG
1070
     1
1071
       29
1005
127CEE
  0
LINE
  5
127CEF
  8
OBJECT
 10
3593.0
 20
-3627.4999999999959
 30
0.0
 11
3593.0
 21
-3532.4999999999968
 31
0.0
1001
ACDBBLOCKREPETAG
1070
     1
1071
       30
1005
127CEF
  0
LINE
  5
127CF0
  8
OBJECT
 10
3597.0
 20
-3527.9999999999968
 30
0.0
 11
3593.0
 21
-3532.4999999999968
 31
0.0
1001
ACDBBLOCKREPETAG
1070
     1
1071
       31
1005
127CF0
  0
LINE
  5
127CF1
  8
OBJECT
 10
3597.0
 20
-3631.9999999999968
 30
0.0
 11
3593.0
 21
-3627.4999999999959
 31
0.0
1001
ACDBBLOCKREPETAG
1070
     1
1071
       32
1005
127CF1
  0
LINE
  5
127CF2
  8
OBJECT
 10
3584.4999999999982
 20
-3629.4999999999968
 30
0.0
 11
3584.5
 21
-3530.4999999999959
 31
0.0
1001
ACDBBLOCKREPETAG
1070
     1
1071
       33
1005
127CF2
  0
LINE
  5
127CF3
  8
HIDDEN
 10
3588.0
 20
-3541.9999999999968
 30
0.0
 11
3588.0
 21
-3617.9999999999968
 31
0.0
1001
ACDBBLOCKREPETAG
1070
     1
1071
       34
1005
127CF3
  0
LINE
  5
127CF4
  8
OBJECT
 10
3584.5
 20
-3530.4999999999959
 30
0.0
 11
3556.3449199129791
 21
-3530.4999999999959
 31
0.0
1001
ACDBBLOCKREPETAG
1070
     1
1071
       35
1005
127CF4
  0
LINE
  5
127CF5
  8
OBJECT
 10
3584.4999999999982
 20
-3629.4999999999968
 30
0.0
 11
3556.3449199129791
 21
-3629.4999999999968
 31
0.0
1001
ACDBBLOCKREPETAG
1070
     1
1071
       36
1005
127CF5
  0
LINE
  5
127CF6
  8
CENTER
 10
2838.0
 20
-3940.9999999999959
 30
0.0
 11
2962.0
 21
-3940.9999999999959
 31
0.0
1001
ACDBBLOCKREPETAG
1070
     1
1071
        0
1005
127CF6
  0
CIRCLE
  5
127CF7
  8
OBJECT
 10
2900.0
 20
-3940.9999999999959
 30
0.0
 40
28.0
1001
ACDBBLOCKREPETAG
1070
     1
1071
        2
1005
127CF7
  0
CIRCLE
  5
127CF8
  8
OBJECT
 10
2900.0
 20
-3940.9999999999959
 30
0.0
 40
39.0
1001
ACDBBLOCKREPETAG
1070
     1
1071
        3
1005
127CF8
  0
ARC
  5
127CF9
  8
OBJECT
 10
2900.0
 20
-3940.9999999999959
 30
0.0
 40
47.0
 50
290.58196921144412
 51
249.41803078855591
1001
ACDBBLOCKREPETAG
1070
     1
1071
        4
1005
127CF9
  0
LINE
  5
127CFA
  8
OBJECT
 10
2883.4772883581418
 20
-3984.9999999999968
 30
0.0
 11
2916.5227116418569
 21
-3984.9999999999968
 31
0.0
1001
ACDBBLOCKREPETAG
1070
     1
1071
        5
1005
127CFA
  0
ARC
  5
127CFB
  8
OBJECT
 10
2900.0
 20
-3925.9999999999932
 30
0.0
 40
49.5
 50
0.0
 51
180.0
1001
ACDBBLOCKREPETAG
1070
     1
1071
        6
1005
127CFB
  0
LINE
  5
127CFC
  8
OBJECT
 10
2850.5000000000032
 20
-3925.9999999999932
 30
0.0
 11
2850.5000000000032
 21
-3932.9999999999959
 31
0.0
1001
ACDBBLOCKREPETAG
1070
     1
1071
        7
1005
127CFC
  0
LINE
  5
127CFD
  8
OBJECT
 10
2949.5000000000068
 20
-3925.9999999999932
 30
0.0
 11
2949.5000000000068
 21
-3932.9999999999959
 31
0.0
1001
ACDBBLOCKREPETAG
1070
     1
1071
        8
1005
127CFD
  0
ARC
  5
127CFE
  8
OBJECT
 10
2900.0
 20
-3932.9999999999959
 30
0.0
 40
49.5
 50
180.0
 51
202.66956385104879
1001
ACDBBLOCKREPETAG
1070
     1
1071
        9
1005
127CFE
  0
ARC
  5
127CFF
  8
OBJECT
 10
2900.0
 20
-3932.9999999999959
 30
0.0
 40
49.5
 50
337.33043614895121
 51
0.0
1001
ACDBBLOCKREPETAG
1070
     1
1071
       10
1005
127CFF
  0
POINT
  5
127D00
  8
DOTS
 10
2900.0
 20
-3984.9999999999968
 30
0.0
1001
ACDBBLOCKREPETAG
1070
     1
1071
       25
1005
127D00
  0
LINE
  5
127D01
  8
OBJECT
 10
2633.0
 20
-3893.9999999999959
 30
0.0
 11
2640.0
 21
-3893.9999999999959
 31
0.0
1001
ACDBBLOCKREPETAG
1070
     1
1071
        0
1005
127D01
  0
LINE
  5
127D02
  8
OBJECT
 10
2640.0
 20
-3893.9999999999959
 30
0.0
 11
2640.0
 21
-3984.9999999999968
 31
0.0
1001
ACDBBLOCKREPETAG
1070
     1
1071
        1
1005
127D02
  0
LINE
  5
127D03
  8
OBJECT
 10
2584.5
 20
-3879.5000000000618
 30
0.0
 11
2584.5
 21
-3982.4999999999968
 31
0.0
1001
ACDBBLOCKREPETAG
1070
     1
1071
        2
1005
127D03
  0
ARC
  5
127D04
  8
OBJECT
 10
2581.5
 20
-3879.5000000000618
 30
0.0
 40
3.0
 50
0.0
 51
90.0
1001
ACDBBLOCKREPETAG
1070
     1
1071
        3
1005
127D04
  0
LINE
  5
127D05
  8
OBJECT
 10
2633.0
 20
-3984.9999999999968
 30
0.0
 11
2633.0
 21
-3893.9999999999959
 31
0.0
1001
ACDBBLOCKREPETAG
1070
     1
1071
        4
1005
127D05
  0
LINE
  5
127D06
  8
CENTER
 10
2655.0
 20
-3940.9999999999959
 30
0.0
 11
2541.911823713584
 21
-3940.9999999999959
 31
0.0
1001
ACDBBLOCKREPETAG
1070
     1
1071
        5
1005
127D06
  0
LINE
  5
127D07
  8
OBJECT
 10
2633.0
 20
-3896.9999999999968
 30
0.0
 11
2596.9999999999991
 21
-3896.9999999999968
 31
0.0
1001
ACDBBLOCKREPETAG
1070
     1
1071
        6
1005
127D07
  0
LINE
  5
127D08
  8
OBJECT
 10
2596.9999999999991
 20
-3896.9999999999968
 30
0.0
 11
2596.9999999999991
 21
-3984.9999999999968
 31
0.0
1001
ACDBBLOCKREPETAG
1070
     1
1071
        7
1005
127D08
  0
LINE
  5
127D09
  8
OBJECT
 10
2596.9999999999991
 20
-3984.9999999999968
 30
0.0
 11
2640.0
 21
-3984.9999999999968
 31
0.0
1001
ACDBBLOCKREPETAG
1070
     1
1071
        8
1005
127D09
  0
LINE
  5
127D0A
  8
OBJECT
 10
2593.0
 20
-3901.4999999999968
 30
0.0
 11
2584.5
 21
-3901.4999999999968
 31
0.0
1001
ACDBBLOCKREPETAG
1070
     1
1071
        9
1005
127D0A
  0
LINE
  5
127D0B
  8
OBJECT
 10
2584.5
 20
-3980.4999999999968
 30
0.0
 11
2593.0
 21
-3980.4999999999968
 31
0.0
1001
ACDBBLOCKREPETAG
1070
     1
1071
       10
1005
127D0B
  0
LINE
  5
127D0C
  8
OBJECT
 10
2593.0
 20
-3980.4999999999968
 30
0.0
 11
2593.0
 21
-3901.4999999999968
 31
0.0
1001
ACDBBLOCKREPETAG
1070
     1
1071
       11
1005
127D0C
  0
LINE
  5
127D0D
  8
OBJECT
 10
2596.9999999999991
 20
-3896.9999999999968
 30
0.0
 11
2593.0
 21
-3901.4999999999968
 31
0.0
1001
ACDBBLOCKREPETAG
1070
     1
1071
       12
1005
127D0D
  0
LINE
  5
127D0E
  8
OBJECT
 10
2596.9999999999991
 20
-3984.9999999999968
 30
0.0
 11
2593.0
 21
-3980.4999999999968
 31
0.0
1001
ACDBBLOCKREPETAG
1070
     1
1071
       13
1005
127D0E
  0
LINE
  5
127D0F
  8
HIDDEN
 10
2588.0
 20
-3910.9999999999959
 30
0.0
 11
2588.0
 21
-3970.9999999999959
 31
0.0
1001
ACDBBLOCKREPETAG
1070
     1
1071
       14
1005
127D0F
  0
ARC
  5
127D10
  8
OBJECT
 10
2664.8782728787751
 20
-3941.4095072612258
 30
0.0
 40
110.86635228309
 50
144.1634274191434
 51
163.04035380433169
1001
ACDBBLOCKREPETAG
1070
     1
1071
       15
1005
127D10
  0
ARC
  5
127D11
  8
OBJECT
 10
2617.1359887769072
 20
-3926.2877497184459
 30
0.0
 40
60.791749880358971
 50
163.5472046522267
 51
179.72879698282679
1001
ACDBBLOCKREPETAG
1070
     1
1071
       16
1005
127D11
  0
ARC
  5
127D12
  8
OBJECT
 10
2617.1359956562478
 20
-3932.712249759898
 30
0.0
 40
60.79175676209487
 50
180.2712034781452
 51
196.4527794605338
1001
ACDBBLOCKREPETAG
1070
     1
1071
       17
1005
127D12
  0
ARC
  5
127D13
  8
OBJECT
 10
2664.8782728787751
 20
-3917.5904927388328
 30
0.0
 40
110.8663522830916
 50
196.95964619566811
 51
215.8365725808566
1001
ACDBBLOCKREPETAG
1070
     1
1071
       18
1005
127D13
  0
LINE
  5
127D14
  8
OBJECT
 10
2556.3449199130041
 20
-3926.0000000000332
 30
0.0
 11
2556.3449199130041
 21
-3933.0000000000291
 31
0.0
1001
ACDBBLOCKREPETAG
1070
     1
1071
       19
1005
127D14
  0
LINE
  5
127D15
  8
OBJECT
 10
2575.0
 20
-3876.5000000000618
 30
0.0
 11
2581.5
 21
-3876.5000000000618
 31
0.0
1001
ACDBBLOCKREPETAG
1070
     1
1071
       20
1005
127D15
  0
LINE
  5
127D16
  8
OBJECT
 10
2575.0
 20
-3982.4999999999968
 30
0.0
 11
2584.5
 21
-3982.4999999999968
 31
0.0
1001
ACDBBLOCKREPETAG
1070
     1
1071
       21
1005
127D16
  0
LINE
  5
127D17
  8
OBJECT
 10
2633.0
 20
-3532.9999999999959
 30
0.0
 11
2640.0
 21
-3532.9999999999959
 31
0.0
1001
ACDBBLOCKREPETAG
1070
     1
1071
        0
1005
127D17
  0
LINE
  5
127D18
  8
OBJECT
 10
2640.0
 20
-3532.9999999999959
 30
0.0
 11
2640.0
 21
-3626.9999999999968
 31
0.0
1001
ACDBBLOCKREPETAG
1070
     1
1071
        1
1005
127D18
  0
LINE
  5
127D19
  8
OBJECT
 10
2640.0
 20
-3626.9999999999968
 30
0.0
 11
2633.0
 21
-3626.9999999999968
 31
0.0
1001
ACDBBLOCKREPETAG
1070
     1
1071
        2
1005
127D19
  0
LINE
  5
127D1A
  8
OBJECT
 10
2633.0
 20
-3626.9999999999968
 30
0.0
 11
2633.0
 21
-3532.9999999999959
 31
0.0
1001
ACDBBLOCKREPETAG
1070
     1
1071
        3
1005
127D1A
  0
LINE
  5
127D1B
  8
CENTER
 10
2655.0
 20
-3579.9999999999959
 30
0.0
 11
2580.0
 21
-3579.9999999999959
 31
0.0
1001
ACDBBLOCKREPETAG
1070
     1
1071
        4
1005
127D1B
  0
LINE
  5
127D1C
  8
OBJECT
 10
2633.0
 20
-3535.9999999999959
 30
0.0
 11
2596.9999999999991
 21
-3535.9999999999959
 31
0.0
1001
ACDBBLOCKREPETAG
1070
     1
1071
        5
1005
127D1C
  0
LINE
  5
127D1D
  8
OBJECT
 10
2596.9999999999991
 20
-3535.9999999999959
 30
0.0
 11
2596.9999999999991
 21
-3623.9999999999968
 31
0.0
1001
ACDBBLOCKREPETAG
1070
     1
1071
        6
1005
127D1D
  0
LINE
  5
127D1E
  8
OBJECT
 10
2596.9999999999991
 20
-3623.9999999999968
 30
0.0
 11
2633.0
 21
-3623.9999999999968
 31
0.0
1001
ACDBBLOCKREPETAG
1070
     1
1071
        7
1005
127D1E
  0
LINE
  5
127D1F
  8
OBJECT
 10
2593.0
 20
-3540.4999999999968
 30
0.0
 11
2584.5
 21
-3540.4999999999968
 31
0.0
1001
ACDBBLOCKREPETAG
1070
     1
1071
        8
1005
127D1F
  0
LINE
  5
127D20
  8
OBJECT
 10
2584.5
 20
-3619.4999999999968
 30
0.0
 11
2593.0
 21
-3619.4999999999968
 31
0.0
1001
ACDBBLOCKREPETAG
1070
     1
1071
        9
1005
127D20
  0
LINE
  5
127D21
  8
OBJECT
 10
2593.0
 20
-3619.4999999999968
 30
0.0
 11
2593.0
 21
-3540.4999999999968
 31
0.0
1001
ACDBBLOCKREPETAG
1070
     1
1071
       10
1005
127D21
  0
LINE
  5
127D22
  8
OBJECT
 10
2596.9999999999991
 20
-3535.9999999999959
 30
0.0
 11
2593.0
 21
-3540.4999999999968
 31
0.0
1001
ACDBBLOCKREPETAG
1070
     1
1071
       11
1005
127D22
  0
LINE
  5
127D23
  8
OBJECT
 10
2596.9999999999991
 20
-3623.9999999999968
 30
0.0
 11
2593.0
 21
-3619.4999999999968
 31
0.0
1001
ACDBBLOCKREPETAG
1070
     1
1071
       12
1005
127D23
  0
LINE
  5
127D24
  8
OBJECT
 10
2584.4999999999991
 20
-3626.4999999999959
 30
0.0
 11
2584.5
 21
-3533.4999999999959
 31
0.0
1001
ACDBBLOCKREPETAG
1070
     1
1071
       13
1005
127D24
  0
ARC
  5
127D25
  8
OBJECT
 10
2581.5
 20
-3533.4999999999959
 30
0.0
 40
3.0
 50
0.0
 51
90.0
1001
ACDBBLOCKREPETAG
1070
     1
1071
       14
1005
127D25
  0
LINE
  5
127D26
  8
HIDDEN
 10
2588.0
 20
-3549.9999999999968
 30
0.0
 11
2588.0
 21
-3609.9999999999968
 31
0.0
1001
ACDBBLOCKREPETAG
1070
     1
1071
       15
1005
127D26
  0
LINE
  5
127D27
  8
OBJECT
 10
2581.5
 20
-3530.4999999999959
 30
0.0
 11
2556.3449199129791
 21
-3530.4999999999959
 31
0.0
1001
ACDBBLOCKREPETAG
1070
     1
1071
       17
1005
127D27
  0
LINE
  5
127D28
  8
OBJECT
 10
2581.4999999999991
 20
-3629.4999999999968
 30
0.0
 11
2556.3449199129791
 21
-3629.4999999999968
 31
0.0
1001
ACDBBLOCKREPETAG
1070
     1
1071
       18
1005
127D28
  0
ARC
  5
127D29
  8
OBJECT
 10
2581.4999999999991
 20
-3626.4999999999959
 30
0.0
 40
3.0
 50
270.0
 51
0.0
1001
ACDBBLOCKREPETAG
1070
     1
1071
       19
1005
127D29
  0
LINE
  5
127D2A
  8
OBJECT
 10
12633.0
 20
-634.0
 30
0.0
 11
12640.0
 21
-634.0
 31
0.0
1001
ACDBBLOCKREPETAG
1070
     1
1071
       45
1005
127D2A
  0
LINE
  5
127D2B
  8
OBJECT
 10
12640.0
 20
-634.0
 30
0.0
 11
12640.0
 21
-755.0
 31
0.0
1001
ACDBBLOCKREPETAG
1070
     1
1071
       46
1005
127D2B
  0
LINE
  5
127D2C
  8
OBJECT
 10
12633.0
 20
-755.0
 30
0.0
 11
12633.0
 21
-634.0
 31
0.0
1001
ACDBBLOCKREPETAG
1070
     1
1071
       47
1005
127D2C
  0
LINE
  5
127D2D
  8
CENTER
 10
12655.0
 20
-696.0
 30
0.0
 11
12571.0
 21
-696.0
 31
0.0
1001
ACDBBLOCKREPETAG
1070
     1
1071
       48
1005
127D2D
  0
LINE
  5
127D2E
  8
OBJECT
 10
12633.0
 20
-637.0
 30
0.0
 11
12597.0
 21
-637.0
 31
0.0
1001
ACDBBLOCKREPETAG
1070
     1
1071
       49
1005
127D2E
  0
LINE
  5
127D2F
  8
OBJECT
 10
12597.0
 20
-637.0
 30
0.0
 11
12597.0
 21
-755.0
 31
0.0
1001
ACDBBLOCKREPETAG
1070
     1
1071
       50
1005
127D2F
  0
LINE
  5
127D30
  8
OBJECT
 10
12597.0
 20
-755.0
 30
0.0
 11
12640.0
 21
-755.0
 31
0.0
1001
ACDBBLOCKREPETAG
1070
     1
1071
       51
1005
127D30
  0
LINE
  5
127D31
  8
OBJECT
 10
12593.0
 20
-641.5
 30
0.0
 11
12586.0
 21
-641.5
 31
0.0
1001
ACDBBLOCKREPETAG
1070
     1
1071
       52
1005
127D31
  0
LINE
  5
127D32
  8
OBJECT
 10
12586.0
 20
-750.49999999999989
 30
0.0
 11
12593.0
 21
-750.49999999999989
 31
0.0
1001
ACDBBLOCKREPETAG
1070
     1
1071
       53
1005
127D32
  0
LINE
  5
127D33
  8
OBJECT
 10
12593.0
 20
-750.49999999999989
 30
0.0
 11
12593.0
 21
-641.5
 31
0.0
1001
ACDBBLOCKREPETAG
1070
     1
1071
       54
1005
127D33
  0
LINE
  5
127D34
  8
OBJECT
 10
12597.0
 20
-637.0
 30
0.0
 11
12593.0
 21
-641.5
 31
0.0
1001
ACDBBLOCKREPETAG
1070
     1
1071
       55
1005
127D34
  0
LINE
  5
127D35
  8
OBJECT
 10
12597.0
 20
-755.0
 30
0.0
 11
12593.0
 21
-750.49999999999989
 31
0.0
1001
ACDBBLOCKREPETAG
1070
     1
1071
       56
1005
127D35
  0
LINE
  5
127D36
  8
OBJECT
 10
12583.0
 20
-634.0
 30
0.0
 11
12580.0
 21
-634.0
 31
0.0
1001
ACDBBLOCKREPETAG
1070
     1
1071
       57
1005
127D36
  0
ARC
  5
127D37
  8
OBJECT
 10
12583.0
 20
-637.0
 30
0.0
 40
3.0
 50
0.0
 51
90.0
1001
ACDBBLOCKREPETAG
1070
     1
1071
       58
1005
127D37
  0
LINE
  5
127D38
  8
OBJECT
 10
12580.0
 20
-758.0
 30
0.0
 11
12583.0
 21
-758.0
 31
0.0
1001
ACDBBLOCKREPETAG
1070
     1
1071
       59
1005
127D38
  0
ARC
  5
127D39
  8
OBJECT
 10
12583.0
 20
-755.0
 30
0.0
 40
3.0
 50
270.0
 51
0.0
1001
ACDBBLOCKREPETAG
1070
     1
1071
       60
1005
127D39
  0
LINE
  5
127D3A
  8
OBJECT
 10
12586.0
 20
-755.0
 30
0.0
 11
12586.0
 21
-637.0
 31
0.0
1001
ACDBBLOCKREPETAG
1070
     1
1071
       61
1005
127D3A
  0
LINE
  5
127D3B
  8
HIDDEN
 10
12588.0
 20
-651.5
 30
0.0
 11
12588.0
 21
-740.5
 31
0.0
1001
ACDBBLOCKREPETAG
1070
     1
1071
       63
1005
127D3B
  0
LINE
  5
127D3C
  8
OBJECT
 10
10633.0
 20
-634.0
 30
0.0
 11
10640.0
 21
-634.0
 31
0.0
1001
ACDBBLOCKREPETAG
1070
     1
1071
       45
1005
127D3C
  0
LINE
  5
127D3D
  8
OBJECT
 10
10640.0
 20
-634.0
 30
0.0
 11
10640.0
 21
-755.0
 31
0.0
1001
ACDBBLOCKREPETAG
1070
     1
1071
       46
1005
127D3D
  0
LINE
  5
127D3E
  8
OBJECT
 10
10633.0
 20
-755.0
 30
0.0
 11
10633.0
 21
-634.0
 31
0.0
1001
ACDBBLOCKREPETAG
1070
     1
1071
       47
1005
127D3E
  0
LINE
  5
127D3F
  8
CENTER
 10
10655.0
 20
-696.0
 30
0.0
 11
10571.0
 21
-696.0
 31
0.0
1001
ACDBBLOCKREPETAG
1070
     1
1071
       48
1005
127D3F
  0
LINE
  5
127D40
  8
OBJECT
 10
10633.0
 20
-637.0
 30
0.0
 11
10597.0
 21
-637.0
 31
0.0
1001
ACDBBLOCKREPETAG
1070
     1
1071
       49
1005
127D40
  0
LINE
  5
127D41
  8
OBJECT
 10
10597.0
 20
-637.0
 30
0.0
 11
10597.0
 21
-755.0
 31
0.0
1001
ACDBBLOCKREPETAG
1070
     1
1071
       50
1005
127D41
  0
LINE
  5
127D42
  8
OBJECT
 10
10597.0
 20
-755.0
 30
0.0
 11
10640.0
 21
-755.0
 31
0.0
1001
ACDBBLOCKREPETAG
1070
     1
1071
       51
1005
127D42
  0
LINE
  5
127D43
  8
OBJECT
 10
10593.0
 20
-641.5
 30
0.0
 11
10586.0
 21
-641.5
 31
0.0
1001
ACDBBLOCKREPETAG
1070
     1
1071
       52
1005
127D43
  0
LINE
  5
127D44
  8
OBJECT
 10
10586.0
 20
-750.49999999999989
 30
0.0
 11
10593.0
 21
-750.49999999999989
 31
0.0
1001
ACDBBLOCKREPETAG
1070
     1
1071
       53
1005
127D44
  0
LINE
  5
127D45
  8
OBJECT
 10
10593.0
 20
-750.49999999999989
 30
0.0
 11
10593.0
 21
-641.5
 31
0.0
1001
ACDBBLOCKREPETAG
1070
     1
1071
       54
1005
127D45
  0
LINE
  5
127D46
  8
OBJECT
 10
10597.0
 20
-637.0
 30
0.0
 11
10593.0
 21
-641.5
 31
0.0
1001
ACDBBLOCKREPETAG
1070
     1
1071
       55
1005
127D46
  0
LINE
  5
127D47
  8
OBJECT
 10
10597.0
 20
-755.0
 30
0.0
 11
10593.0
 21
-750.49999999999989
 31
0.0
1001
ACDBBLOCKREPETAG
1070
     1
1071
       56
1005
127D47
  0
LINE
  5
127D48
  8
OBJECT
 10
10583.0
 20
-634.0
 30
0.0
 11
10580.0
 21
-634.0
 31
0.0
1001
ACDBBLOCKREPETAG
1070
     1
1071
       57
1005
127D48
  0
ARC
  5
127D49
  8
OBJECT
 10
10583.0
 20
-637.0
 30
0.0
 40
3.0
 50
0.0
 51
90.0
1001
ACDBBLOCKREPETAG
1070
     1
1071
       58
1005
127D49
  0
LINE
  5
127D4A
  8
OBJECT
 10
10580.0
 20
-758.0
 30
0.0
 11
10583.0
 21
-758.0
 31
0.0
1001
ACDBBLOCKREPETAG
1070
     1
1071
       59
1005
127D4A
  0
ARC
  5
127D4B
  8
OBJECT
 10
10583.0
 20
-755.0
 30
0.0
 40
3.0
 50
270.0
 51
0.0
1001
ACDBBLOCKREPETAG
1070
     1
1071
       60
1005
127D4B
  0
LINE
  5
127D4C
  8
OBJECT
 10
10586.0
 20
-755.0
 30
0.0
 11
10586.0
 21
-637.0
 31
0.0
1001
ACDBBLOCKREPETAG
1070
     1
1071
       61
1005
127D4C
  0
LINE
  5
127D4D
  8
HIDDEN
 10
10588.0
 20
-651.5
 30
0.0
 11
10588.0
 21
-740.5
 31
0.0
1001
ACDBBLOCKREPETAG
1070
     1
1071
       63
1005
127D4D
  0
LINE
  5
127D4E
  8
OBJECT
 10
8633.0
 20
-634.0
 30
0.0
 11
8640.0
 21
-634.0
 31
0.0
1001
ACDBBLOCKREPETAG
1070
     1
1071
       45
1005
127D4E
  0
LINE
  5
127D4F
  8
OBJECT
 10
8640.0
 20
-634.0
 30
0.0
 11
8640.0
 21
-755.0
 31
0.0
1001
ACDBBLOCKREPETAG
1070
     1
1071
       46
1005
127D4F
  0
LINE
  5
127D50
  8
OBJECT
 10
8633.0
 20
-755.0
 30
0.0
 11
8633.0
 21
-634.0
 31
0.0
1001
ACDBBLOCKREPETAG
1070
     1
1071
       47
1005
127D50
  0
LINE
  5
127D51
  8
CENTER
 10
8655.0
 20
-696.0
 30
0.0
 11
8571.0
 21
-696.0
 31
0.0
1001
ACDBBLOCKREPETAG
1070
     1
1071
       48
1005
127D51
  0
LINE
  5
127D52
  8
OBJECT
 10
8633.0
 20
-637.0
 30
0.0
 11
8597.0
 21
-637.0
 31
0.0
1001
ACDBBLOCKREPETAG
1070
     1
1071
       49
1005
127D52
  0
LINE
  5
127D53
  8
OBJECT
 10
8597.0
 20
-637.0
 30
0.0
 11
8597.0
 21
-755.0
 31
0.0
1001
ACDBBLOCKREPETAG
1070
     1
1071
       50
1005
127D53
  0
LINE
  5
127D54
  8
OBJECT
 10
8597.0
 20
-755.0
 30
0.0
 11
8640.0
 21
-755.0
 31
0.0
1001
ACDBBLOCKREPETAG
1070
     1
1071
       51
1005
127D54
  0
LINE
  5
127D55
  8
OBJECT
 10
8593.0
 20
-641.5
 30
0.0
 11
8586.0
 21
-641.5
 31
0.0
1001
ACDBBLOCKREPETAG
1070
     1
1071
       52
1005
127D55
  0
LINE
  5
127D56
  8
OBJECT
 10
8586.0
 20
-750.49999999999989
 30
0.0
 11
8593.0
 21
-750.49999999999989
 31
0.0
1001
ACDBBLOCKREPETAG
1070
     1
1071
       53
1005
127D56
  0
LINE
  5
127D57
  8
OBJECT
 10
8593.0
 20
-750.49999999999989
 30
0.0
 11
8593.0
 21
-641.5
 31
0.0
1001
ACDBBLOCKREPETAG
1070
     1
1071
       54
1005
127D57
  0
LINE
  5
127D58
  8
OBJECT
 10
8597.0
 20
-637.0
 30
0.0
 11
8593.0
 21
-641.5
 31
0.0
1001
ACDBBLOCKREPETAG
1070
     1
1071
       55
1005
127D58
  0
LINE
  5
127D59
  8
OBJECT
 10
8597.0
 20
-755.0
 30
0.0
 11
8593.0
 21
-750.49999999999989
 31
0.0
1001
ACDBBLOCKREPETAG
1070
     1
1071
       56
1005
127D59
  0
LINE
  5
127D5A
  8
OBJECT
 10
8583.0
 20
-634.0
 30
0.0
 11
8580.0
 21
-634.0
 31
0.0
1001
ACDBBLOCKREPETAG
1070
     1
1071
       57
1005
127D5A
  0
ARC
  5
127D5B
  8
OBJECT
 10
8583.0
 20
-637.0
 30
0.0
 40
3.0
 50
0.0
 51
90.0
1001
ACDBBLOCKREPETAG
1070
     1
1071
       58
1005
127D5B
  0
LINE
  5
127D5C
  8
OBJECT
 10
8580.0
 20
-758.0
 30
0.0
 11
8583.0
 21
-758.0
 31
0.0
1001
ACDBBLOCKREPETAG
1070
     1
1071
       59
1005
127D5C
  0
ARC
  5
127D5D
  8
OBJECT
 10
8583.0
 20
-755.0
 30
0.0
 40
3.0
 50
270.0
 51
0.0
1001
ACDBBLOCKREPETAG
1070
     1
1071
       60
1005
127D5D
  0
LINE
  5
127D5E
  8
OBJECT
 10
8586.0
 20
-755.0
 30
0.0
 11
8586.0
 21
-637.0
 31
0.0
1001
ACDBBLOCKREPETAG
1070
     1
1071
       61
1005
127D5E
  0
LINE
  5
127D5F
  8
HIDDEN
 10
8588.0
 20
-651.5
 30
0.0
 11
8588.0
 21
-740.5
 31
0.0
1001
ACDBBLOCKREPETAG
1070
     1
1071
       63
1005
127D5F
  0
LINE
  5
127D60
  8
OBJECT
 10
6633.0
 20
-634.0
 30
0.0
 11
6640.0
 21
-634.0
 31
0.0
1001
ACDBBLOCKREPETAG
1070
     1
1071
       45
1005
127D60
  0
LINE
  5
127D61
  8
OBJECT
 10
6640.0
 20
-634.0
 30
0.0
 11
6640.0
 21
-755.0
 31
0.0
1001
ACDBBLOCKREPETAG
1070
     1
1071
       46
1005
127D61
  0
LINE
  5
127D62
  8
OBJECT
 10
6633.0
 20
-755.0
 30
0.0
 11
6633.0
 21
-634.0
 31
0.0
1001
ACDBBLOCKREPETAG
1070
     1
1071
       47
1005
127D62
  0
LINE
  5
127D63
  8
CENTER
 10
6655.0
 20
-696.0
 30
0.0
 11
6571.0
 21
-696.0
 31
0.0
1001
ACDBBLOCKREPETAG
1070
     1
1071
       48
1005
127D63
  0
LINE
  5
127D64
  8
OBJECT
 10
6633.0
 20
-637.0
 30
0.0
 11
6597.0
 21
-637.0
 31
0.0
1001
ACDBBLOCKREPETAG
1070
     1
1071
       49
1005
127D64
  0
LINE
  5
127D65
  8
OBJECT
 10
6597.0
 20
-637.0
 30
0.0
 11
6597.0
 21
-755.0
 31
0.0
1001
ACDBBLOCKREPETAG
1070
     1
1071
       50
1005
127D65
  0
LINE
  5
127D66
  8
OBJECT
 10
6597.0
 20
-755.0
 30
0.0
 11
6640.0
 21
-755.0
 31
0.0
1001
ACDBBLOCKREPETAG
1070
     1
1071
       51
1005
127D66
  0
LINE
  5
127D67
  8
OBJECT
 10
6593.0
 20
-641.5
 30
0.0
 11
6586.0
 21
-641.5
 31
0.0
1001
ACDBBLOCKREPETAG
1070
     1
1071
       52
1005
127D67
  0
LINE
  5
127D68
  8
OBJECT
 10
6586.0
 20
-750.49999999999989
 30
0.0
 11
6593.0
 21
-750.49999999999989
 31
0.0
1001
ACDBBLOCKREPETAG
1070
     1
1071
       53
1005
127D68
  0
LINE
  5
127D69
  8
OBJECT
 10
6593.0
 20
-750.49999999999989
 30
0.0
 11
6593.0
 21
-641.5
 31
0.0
1001
ACDBBLOCKREPETAG
1070
     1
1071
       54
1005
127D69
  0
LINE
  5
127D6A
  8
OBJECT
 10
6597.0
 20
-637.0
 30
0.0
 11
6593.0
 21
-641.5
 31
0.0
1001
ACDBBLOCKREPETAG
1070
     1
1071
       55
1005
127D6A
  0
LINE
  5
127D6B
  8
OBJECT
 10
6597.0
 20
-755.0
 30
0.0
 11
6593.0
 21
-750.49999999999989
 31
0.0
1001
ACDBBLOCKREPETAG
1070
     1
1071
       56
1005
127D6B
  0
LINE
  5
127D6C
  8
OBJECT
 10
6583.0
 20
-634.0
 30
0.0
 11
6580.0
 21
-634.0
 31
0.0
1001
ACDBBLOCKREPETAG
1070
     1
1071
       57
1005
127D6C
  0
ARC
  5
127D6D
  8
OBJECT
 10
6583.0
 20
-637.0
 30
0.0
 40
3.0
 50
0.0
 51
90.0
1001
ACDBBLOCKREPETAG
1070
     1
1071
       58
1005
127D6D
  0
LINE
  5
127D6E
  8
OBJECT
 10
6580.0
 20
-758.0
 30
0.0
 11
6583.0
 21
-758.0
 31
0.0
1001
ACDBBLOCKREPETAG
1070
     1
1071
       59
1005
127D6E
  0
ARC
  5
127D6F
  8
OBJECT
 10
6583.0
 20
-755.0
 30
0.0
 40
3.0
 50
270.0
 51
0.0
1001
ACDBBLOCKREPETAG
1070
     1
1071
       60
1005
127D6F
  0
LINE
  5
127D70
  8
OBJECT
 10
6586.0
 20
-755.0
 30
0.0
 11
6586.0
 21
-637.0
 31
0.0
1001
ACDBBLOCKREPETAG
1070
     1
1071
       61
1005
127D70
  0
LINE
  5
127D71
  8
HIDDEN
 10
6588.0
 20
-651.5
 30
0.0
 11
6588.0
 21
-740.5
 31
0.0
1001
ACDBBLOCKREPETAG
1070
     1
1071
       63
1005
127D71
  0
LINE
  5
127D72
  8
OBJECT
 10
4633.0
 20
-634.0
 30
0.0
 11
4640.0
 21
-634.0
 31
0.0
1001
ACDBBLOCKREPETAG
1070
     1
1071
       45
1005
127D72
  0
LINE
  5
127D73
  8
OBJECT
 10
4640.0
 20
-634.0
 30
0.0
 11
4640.0
 21
-755.0
 31
0.0
1001
ACDBBLOCKREPETAG
1070
     1
1071
       46
1005
127D73
  0
LINE
  5
127D74
  8
OBJECT
 10
4633.0
 20
-755.0
 30
0.0
 11
4633.0
 21
-634.0
 31
0.0
1001
ACDBBLOCKREPETAG
1070
     1
1071
       47
1005
127D74
  0
LINE
  5
127D75
  8
CENTER
 10
4655.0
 20
-696.0
 30
0.0
 11
4571.0
 21
-696.0
 31
0.0
1001
ACDBBLOCKREPETAG
1070
     1
1071
       48
1005
127D75
  0
LINE
  5
127D76
  8
OBJECT
 10
4633.0
 20
-637.0
 30
0.0
 11
4597.0
 21
-637.0
 31
0.0
1001
ACDBBLOCKREPETAG
1070
     1
1071
       49
1005
127D76
  0
LINE
  5
127D77
  8
OBJECT
 10
4597.0
 20
-637.0
 30
0.0
 11
4597.0
 21
-755.0
 31
0.0
1001
ACDBBLOCKREPETAG
1070
     1
1071
       50
1005
127D77
  0
LINE
  5
127D78
  8
OBJECT
 10
4597.0
 20
-755.0
 30
0.0
 11
4640.0
 21
-755.0
 31
0.0
1001
ACDBBLOCKREPETAG
1070
     1
1071
       51
1005
127D78
  0
LINE
  5
127D79
  8
OBJECT
 10
4593.0
 20
-641.5
 30
0.0
 11
4586.0
 21
-641.5
 31
0.0
1001
ACDBBLOCKREPETAG
1070
     1
1071
       52
1005
127D79
  0
LINE
  5
127D7A
  8
OBJECT
 10
4586.0
 20
-750.49999999999989
 30
0.0
 11
4593.0
 21
-750.49999999999989
 31
0.0
1001
ACDBBLOCKREPETAG
1070
     1
1071
       53
1005
127D7A
  0
LINE
  5
127D7B
  8
OBJECT
 10
4593.0
 20
-750.49999999999989
 30
0.0
 11
4593.0
 21
-641.5
 31
0.0
1001
ACDBBLOCKREPETAG
1070
     1
1071
       54
1005
127D7B
  0
LINE
  5
127D7C
  8
OBJECT
 10
4597.0
 20
-637.0
 30
0.0
 11
4593.0
 21
-641.5
 31
0.0
1001
ACDBBLOCKREPETAG
1070
     1
1071
       55
1005
127D7C
  0
LINE
  5
127D7D
  8
OBJECT
 10
4597.0
 20
-755.0
 30
0.0
 11
4593.0
 21
-750.49999999999989
 31
0.0
1001
ACDBBLOCKREPETAG
1070
     1
1071
       56
1005
127D7D
  0
LINE
  5
127D7E
  8
OBJECT
 10
4583.0
 20
-634.0
 30
0.0
 11
4580.0
 21
-634.0
 31
0.0
1001
ACDBBLOCKREPETAG
1070
     1
1071
       57
1005
127D7E
  0
ARC
  5
127D7F
  8
OBJECT
 10
4583.0
 20
-637.0
 30
0.0
 40
3.0
 50
0.0
 51
90.0
1001
ACDBBLOCKREPETAG
1070
     1
1071
       58
1005
127D7F
  0
LINE
  5
127D80
  8
OBJECT
 10
4580.0
 20
-758.0
 30
0.0
 11
4583.0
 21
-758.0
 31
0.0
1001
ACDBBLOCKREPETAG
1070
     1
1071
       59
1005
127D80
  0
ARC
  5
127D81
  8
OBJECT
 10
4583.0
 20
-755.0
 30
0.0
 40
3.0
 50
270.0
 51
0.0
1001
ACDBBLOCKREPETAG
1070
     1
1071
       60
1005
127D81
  0
LINE
  5
127D82
  8
OBJECT
 10
4586.0
 20
-755.0
 30
0.0
 11
4586.0
 21
-637.0
 31
0.0
1001
ACDBBLOCKREPETAG
1070
     1
1071
       61
1005
127D82
  0
LINE
  5
127D83
  8
HIDDEN
 10
4588.0
 20
-651.5
 30
0.0
 11
4588.0
 21
-740.5
 31
0.0
1001
ACDBBLOCKREPETAG
1070
     1
1071
       63
1005
127D83
  0
LINE
  5
127D84
  8
SLIM
 10
10414.999999999991
 20
-1152.2369265471771
 30
0.0
 11
10431.23692654717
 21
-1136.0
 31
0.0
1001
ACAD
1010
0.0
1020
0.0
1030
0.0
  0
LINE
  5
127D85
  8
SLIM
 10
10414.999999999991
 20
-1170.197438789314
 30
0.0
 11
10449.19743878931
 21
-1136.0
 31
0.0
1001
ACAD
1010
0.0
1020
0.0
1030
0.0
  0
LINE
  5
127D86
  8
SLIM
 10
10414.999999999991
 20
-1188.1579510314509
 30
0.0
 11
10467.15795103144
 21
-1136.0
 31
0.0
1001
ACAD
1010
0.0
1020
0.0
1030
0.0
  0
LINE
  5
127D87
  8
SLIM
 10
10414.999999999991
 20
-1206.1184632735881
 30
0.0
 11
10485.11846327358
 21
-1136.0
 31
0.0
1001
ACAD
1010
0.0
1020
0.0
1030
0.0
  0
LINE
  5
127D88
  8
SLIM
 10
10415.0
 20
-1224.0789755157259
 30
0.0
 11
10503.07897551572
 21
-1136.0
 31
0.0
1001
ACAD
1010
0.0
1020
0.0
1030
0.0
  0
LINE
  5
127D89
  8
SLIM
 10
10415.0
 20
-1242.0394877578631
 30
0.0
 11
10521.03948775786
 21
-1136.0
 31
0.0
1001
ACAD
1010
0.0
1020
0.0
1030
0.0
  0
LINE
  5
127D8A
  8
SLIM
 10
10415.283600749561
 20
-1259.716399250442
 30
0.0
 11
10539.0
 21
-1136.0
 31
0.0
1001
ACAD
1010
0.0
1020
0.0
1030
0.0
  0
LINE
  5
127D8B
  8
SLIM
 10
10417.49791047804
 20
-1275.4626017640981
 30
0.0
 11
10556.96051224214
 21
-1136.0
 31
0.0
1001
ACAD
1010
0.0
1020
0.0
1030
0.0
  0
LINE
  5
127D8C
  8
SLIM
 10
10419.71222020652
 20
-1291.208804277753
 30
0.0
 11
10574.921024484271
 21
-1136.0
 31
0.0
1001
ACAD
1010
0.0
1020
0.0
1030
0.0
  0
LINE
  5
127D8D
  8
SLIM
 10
10421.926529935001
 20
-1306.9550067914081
 30
0.0
 11
10585.000000000009
 21
-1143.8815367264081
 31
0.0
1001
ACAD
1010
0.0
1020
0.0
1030
0.0
  0
LINE
  5
127D8E
  8
SLIM
 10
10424.140839663491
 20
-1322.7012093050639
 30
0.0
 11
10585.0
 21
-1161.8420489685479
 31
0.0
1001
ACAD
1010
0.0
1020
0.0
1030
0.0
  0
LINE
  5
127D8F
  8
SLIM
 10
10426.355149391969
 20
-1338.447411818719
 30
0.0
 11
10585.0
 21
-1179.8025612106869
 31
0.0
1001
ACAD
1010
0.0
1020
0.0
1030
0.0
  0
LINE
  5
127D90
  8
SLIM
 10
10428.56945912045
 20
-1354.193614332374
 30
0.0
 11
10585.0
 21
-1197.763073452827
 31
0.0
1001
ACAD
1010
0.0
1020
0.0
1030
0.0
  0
LINE
  5
127D91
  8
SLIM
 10
10430.78376884894
 20
-1369.93981684603
 30
0.0
 11
10585.0
 21
-1215.723585694966
 31
0.0
1001
ACAD
1010
0.0
1020
0.0
1030
0.0
  0
LINE
  5
127D92
  8
SLIM
 10
10432.998078577421
 20
-1385.686019359686
 30
0.0
 11
10585.0
 21
-1233.684097937105
 31
0.0
1001
ACAD
1010
0.0
1020
0.0
1030
0.0
  0
LINE
  5
127D93
  8
SLIM
 10
10432.999999999991
 20
-1403.6446101792519
 30
0.0
 11
10585.0
 21
-1251.6446101792451
 31
0.0
1001
ACAD
1010
0.0
1020
0.0
1030
0.0
  0
LINE
  5
127D94
  8
SLIM
 10
10432.999999999991
 20
-1421.60512242139
 30
0.0
 11
10583.05183715436
 21
-1271.5532852670169
 31
0.0
1001
ACAD
1010
0.0
1020
0.0
1030
0.0
  0
LINE
  5
127D95
  8
SLIM
 10
10446.565634663521
 20
-1425.999999999997
 30
0.0
 11
10580.112844242019
 21
-1292.4527904215049
 31
0.0
1001
ACAD
1010
0.0
1020
0.0
1030
0.0
  0
LINE
  5
127D96
  8
SLIM
 10
10464.52614690566
 20
-1425.999999999997
 30
0.0
 11
10577.17385132967
 21
-1313.352295575992
 31
0.0
1001
ACAD
1010
0.0
1020
0.0
1030
0.0
  0
LINE
  5
127D97
  8
SLIM
 10
10482.4866591478
 20
-1425.999999999998
 30
0.0
 11
10574.23485841732
 21
-1334.2518007304791
 31
0.0
1001
ACAD
1010
0.0
1020
0.0
1030
0.0
  0
LINE
  5
127D98
  8
SLIM
 10
10500.44717138994
 20
-1425.9999999999991
 30
0.0
 11
10571.29586550497
 21
-1355.151305884966
 31
0.0
1001
ACAD
1010
0.0
1020
0.0
1030
0.0
  0
LINE
  5
127D99
  8
SLIM
 10
10518.40768363206
 20
-1425.9999999999991
 30
0.0
 11
10568.35687259262
 21
-1376.0508110394539
 31
0.0
1001
ACAD
1010
0.0
1020
0.0
1030
0.0
  0
LINE
  5
127D9A
  8
SLIM
 10
10536.368195874211
 20
-1425.9999999999991
 30
0.0
 11
10567.000000000009
 21
-1395.368195874202
 31
0.0
1001
ACAD
1010
0.0
1020
0.0
1030
0.0
  0
LINE
  5
127D9B
  8
SLIM
 10
10554.328708116351
 20
-1426.0
 30
0.0
 11
10567.000000000009
 21
-1413.328708116341
 31
0.0
1001
ACAD
1010
0.0
1020
0.0
1030
0.0
  0
LINE
  5
127D9C
  8
OBJECT
 10
10432.999999999991
 20
-1425.999999999997
 30
0.0
 11
10567.000000000009
 21
-1426.0
 31
0.0
1001
ACDBBLOCKREPETAG
1070
     1
1071
        1
1005
127D9C
  0
LINE
  5
127D9D
  8
OBJECT
 10
10414.999999999991
 20
-1136.0
 30
0.0
 11
10415.0
 21
-1257.6996828091419
 31
0.0
1001
ACDBBLOCKREPETAG
1070
     1
1071
        2
1005
127D9D
  0
LINE
  5
127D9E
  8
OBJECT
 10
10585.000000000009
 20
-1136.0
 30
0.0
 11
10585.0
 21
-1257.6996828091731
 31
0.0
1001
ACDBBLOCKREPETAG
1070
     1
1071
        3
1005
127D9E
  0
LINE
  5
127D9F
  8
OBJECT
 10
10415.0
 20
-1257.6996828091419
 30
0.0
 11
10432.999999999991
 21
-1385.6996828090821
 31
0.0
1001
ACDBBLOCKREPETAG
1070
     1
1071
        4
1005
127D9F
  0
LINE
  5
127DA0
  8
OBJECT
 10
10567.000000000009
 20
-1385.6996828091289
 30
0.0
 11
10585.0
 21
-1257.6996828091731
 31
0.0
1001
ACDBBLOCKREPETAG
1070
     1
1071
        5
1005
127DA0
  0
LINE
  5
127DA1
  8
OBJECT
 10
10585.000000000009
 20
-1136.0
 30
0.0
 11
10414.999999999991
 21
-1136.0
 31
0.0
1001
ACDBBLOCKREPETAG
1070
     1
1071
        6
1005
127DA1
  0
LINE
  5
127DA2
  8
OBJECT
 10
10432.999999999991
 20
-1385.6996828090821
 30
0.0
 11
10432.999999999991
 21
-1425.999999999997
 31
0.0
1001
ACDBBLOCKREPETAG
1070
     1
1071
        8
1005
127DA2
  0
LINE
  5
127DA3
  8
OBJECT
 10
10567.000000000009
 20
-1385.6996828091289
 30
0.0
 11
10567.000000000009
 21
-1426.0
 31
0.0
1001
ACDBBLOCKREPETAG
1070
     1
1071
        9
1005
127DA3
  0
LINE
  5
127DA4
  8
SLIM
 10
8414.9999999999909
 20
-1152.2369265471759
 30
0.0
 11
8431.2369265471698
 21
-1135.9999999999991
 31
0.0
1001
GRADIENTCOLOR1ACI
1070
     5
1001
GRADIENTCOLOR2ACI
1070
     2
1001
ACAD
1010
0.0
1020
0.0
1030
0.0
  0
LINE
  5
127DA5
  8
SLIM
 10
8414.9999999999945
 20
-1170.1974387893131
 30
0.0
 11
8449.1974387893097
 21
-1135.9999999999991
 31
0.0
1001
GRADIENTCOLOR1ACI
1070
     5
1001
GRADIENTCOLOR2ACI
1070
     2
1001
ACAD
1010
0.0
1020
0.0
1030
0.0
  0
LINE
  5
127DA6
  8
SLIM
 10
8414.9999999999964
 20
-1188.15795103145
 30
0.0
 11
8467.1579510314441
 21
-1135.9999999999991
 31
0.0
1001
GRADIENTCOLOR1ACI
1070
     5
1001
GRADIENTCOLOR2ACI
1070
     2
1001
ACAD
1010
0.0
1020
0.0
1030
0.0
  0
LINE
  5
127DA7
  8
SLIM
 10
8414.9999999999964
 20
-1206.1184632735881
 30
0.0
 11
8485.1184632735858
 21
-1135.9999999999991
 31
0.0
1001
GRADIENTCOLOR1ACI
1070
     5
1001
GRADIENTCOLOR2ACI
1070
     2
1001
ACAD
1010
0.0
1020
0.0
1030
0.0
  0
LINE
  5
127DA8
  8
SLIM
 10
8414.9999999999964
 20
-1224.078975515725
 30
0.0
 11
8503.0789755157257
 21
-1135.9999999999991
 31
0.0
1001
GRADIENTCOLOR1ACI
1070
     5
1001
GRADIENTCOLOR2ACI
1070
     2
1001
ACAD
1010
0.0
1020
0.0
1030
0.0
  0
LINE
  5
127DA9
  8
SLIM
 10
8414.9999999999964
 20
-1242.0394877578619
 30
0.0
 11
8521.0394877578619
 21
-1135.9999999999991
 31
0.0
1001
GRADIENTCOLOR1ACI
1070
     5
1001
GRADIENTCOLOR2ACI
1070
     2
1001
ACAD
1010
0.0
1020
0.0
1030
0.0
  0
LINE
  5
127DAA
  8
SLIM
 10
8415.2836007495571
 20
-1259.716399250442
 30
0.0
 11
8539.0
 21
-1135.9999999999991
 31
0.0
1001
GRADIENTCOLOR1ACI
1070
     5
1001
GRADIENTCOLOR2ACI
1070
     2
1001
ACAD
1010
0.0
1020
0.0
1030
0.0
  0
LINE
  5
127DAB
  8
SLIM
 10
8417.4979104780377
 20
-1275.4626017640969
 30
0.0
 11
8556.9605122421381
 21
-1135.9999999999991
 31
0.0
1001
GRADIENTCOLOR1ACI
1070
     5
1001
GRADIENTCOLOR2ACI
1070
     2
1001
ACAD
1010
0.0
1020
0.0
1030
0.0
  0
LINE
  5
127DAC
  8
SLIM
 10
8419.7122202065257
 20
-1291.208804277753
 30
0.0
 11
8574.9210244842725
 21
-1135.9999999999991
 31
0.0
1001
GRADIENTCOLOR1ACI
1070
     5
1001
GRADIENTCOLOR2ACI
1070
     2
1001
ACAD
1010
0.0
1020
0.0
1030
0.0
  0
LINE
  5
127DAD
  8
SLIM
 10
8421.9265299350063
 20
-1306.955006791409
 30
0.0
 11
8585.0000000000055
 21
-1143.8815367264081
 31
0.0
1001
GRADIENTCOLOR1ACI
1070
     5
1001
GRADIENTCOLOR2ACI
1070
     2
1001
ACAD
1010
0.0
1020
0.0
1030
0.0
  0
LINE
  5
127DAE
  8
SLIM
 10
8424.1408396634924
 20
-1322.7012093050639
 30
0.0
 11
8585.0000000000055
 21
-1161.842048968547
 31
0.0
1001
GRADIENTCOLOR1ACI
1070
     5
1001
GRADIENTCOLOR2ACI
1070
     2
1001
ACAD
1010
0.0
1020
0.0
1030
0.0
  0
LINE
  5
127DAF
  8
SLIM
 10
8426.3551493919713
 20
-1338.44741181872
 30
0.0
 11
8585.0000000000055
 21
-1179.802561210686
 31
0.0
1001
GRADIENTCOLOR1ACI
1070
     5
1001
GRADIENTCOLOR2ACI
1070
     2
1001
ACAD
1010
0.0
1020
0.0
1030
0.0
  0
LINE
  5
127DB0
  8
SLIM
 10
8428.5694591204538
 20
-1354.193614332376
 30
0.0
 11
8585.0000000000018
 21
-1197.7630734528259
 31
0.0
1001
GRADIENTCOLOR1ACI
1070
     5
1001
GRADIENTCOLOR2ACI
1070
     2
1001
ACAD
1010
0.0
1020
0.0
1030
0.0
  0
LINE
  5
127DB1
  8
SLIM
 10
8430.7837688489362
 20
-1369.9398168460309
 30
0.0
 11
8585.0000000000018
 21
-1215.7235856949651
 31
0.0
1001
GRADIENTCOLOR1ACI
1070
     5
1001
GRADIENTCOLOR2ACI
1070
     2
1001
ACAD
1010
0.0
1020
0.0
1030
0.0
  0
LINE
  5
127DB2
  8
SLIM
 10
8432.9980785774169
 20
-1385.686019359687
 30
0.0
 11
8585.0000000000018
 21
-1233.6840979371041
 31
0.0
1001
GRADIENTCOLOR1ACI
1070
     5
1001
GRADIENTCOLOR2ACI
1070
     2
1001
ACAD
1010
0.0
1020
0.0
1030
0.0
  0
LINE
  5
127DB3
  8
SLIM
 10
8443.0
 20
-1393.644610179244
 30
0.0
 11
8450.6446101792462
 21
-1385.9999999999991
 31
0.0
1001
GRADIENTCOLOR1ACI
1070
     5
1001
GRADIENTCOLOR2ACI
1070
     2
1001
ACAD
1010
0.0
1020
0.0
1030
0.0
  0
LINE
  5
127DB4
  8
SLIM
 10
8450.6446101792462
 20
-1385.9999999999991
 30
0.0
 11
8585.0
 21
-1251.644610179244
 31
0.0
1001
GRADIENTCOLOR1ACI
1070
     5
1001
GRADIENTCOLOR2ACI
1070
     2
1001
ACAD
1010
0.0
1020
0.0
1030
0.0
  0
LINE
  5
127DB5
  8
SLIM
 10
8444.6051224213843
 20
-1409.9999999999991
 30
0.0
 11
8468.6051224213825
 21
-1385.9999999999991
 31
0.0
1001
GRADIENTCOLOR1ACI
1070
     5
1001
GRADIENTCOLOR2ACI
1070
     2
1001
ACAD
1010
0.0
1020
0.0
1030
0.0
  0
LINE
  5
127DB6
  8
SLIM
 10
8468.6051224213825
 20
-1385.9999999999991
 30
0.0
 11
8583.0518371543658
 21
-1271.5532852670169
 31
0.0
1001
GRADIENTCOLOR1ACI
1070
     5
1001
GRADIENTCOLOR2ACI
1070
     2
1001
ACAD
1010
0.0
1020
0.0
1030
0.0
  0
LINE
  5
127DB7
  8
SLIM
 10
8462.5656346635205
 20
-1409.9999999999991
 30
0.0
 11
8486.5656346635205
 21
-1385.9999999999991
 31
0.0
1001
GRADIENTCOLOR1ACI
1070
     5
1001
GRADIENTCOLOR2ACI
1070
     2
1001
ACAD
1010
0.0
1020
0.0
1030
0.0
  0
LINE
  5
127DB8
  8
SLIM
 10
8486.5656346635205
 20
-1385.9999999999991
 30
0.0
 11
8580.1128442420159
 21
-1292.4527904215049
 31
0.0
1001
GRADIENTCOLOR1ACI
1070
     5
1001
GRADIENTCOLOR2ACI
1070
     2
1001
ACAD
1010
0.0
1020
0.0
1030
0.0
  0
LINE
  5
127DB9
  8
SLIM
 10
8480.5261469056604
 20
-1409.9999999999991
 30
0.0
 11
8504.5261469056604
 21
-1385.9999999999991
 31
0.0
1001
GRADIENTCOLOR1ACI
1070
     5
1001
GRADIENTCOLOR2ACI
1070
     2
1001
ACAD
1010
0.0
1020
0.0
1030
0.0
  0
LINE
  5
127DBA
  8
SLIM
 10
8504.5261469056604
 20
-1385.9999999999991
 30
0.0
 11
8577.1738513296659
 21
-1313.3522955759929
 31
0.0
1001
GRADIENTCOLOR1ACI
1070
     5
1001
GRADIENTCOLOR2ACI
1070
     2
1001
ACAD
1010
0.0
1020
0.0
1030
0.0
  0
LINE
  5
127DBB
  8
SLIM
 10
8498.4866591477985
 20
-1409.9999999999991
 30
0.0
 11
8522.4866591478003
 21
-1385.9999999999991
 31
0.0
1001
GRADIENTCOLOR1ACI
1070
     5
1001
GRADIENTCOLOR2ACI
1070
     2
1001
ACAD
1010
0.0
1020
0.0
1030
0.0
  0
LINE
  5
127DBC
  8
SLIM
 10
8522.4866591478003
 20
-1385.9999999999991
 30
0.0
 11
8574.234858417316
 21
-1334.2518007304809
 31
0.0
1001
GRADIENTCOLOR1ACI
1070
     5
1001
GRADIENTCOLOR2ACI
1070
     2
1001
ACAD
1010
0.0
1020
0.0
1030
0.0
  0
LINE
  5
127DBD
  8
SLIM
 10
8516.4471713899384
 20
-1409.9999999999991
 30
0.0
 11
8540.4471713899366
 21
-1385.9999999999991
 31
0.0
1001
GRADIENTCOLOR1ACI
1070
     5
1001
GRADIENTCOLOR2ACI
1070
     2
1001
ACAD
1010
0.0
1020
0.0
1030
0.0
  0
LINE
  5
127DBE
  8
SLIM
 10
8540.4471713899366
 20
-1385.9999999999991
 30
0.0
 11
8571.2958655049661
 21
-1355.1513058849689
 31
0.0
1001
GRADIENTCOLOR1ACI
1070
     5
1001
GRADIENTCOLOR2ACI
1070
     2
1001
ACAD
1010
0.0
1020
0.0
1030
0.0
  0
LINE
  5
127DBF
  8
SLIM
 10
8534.4076836320746
 20
-1409.9999999999991
 30
0.0
 11
8557.0
 21
-1387.4076836320739
 31
0.0
1001
GRADIENTCOLOR1ACI
1070
     5
1001
GRADIENTCOLOR2ACI
1070
     2
1001
ACAD
1010
0.0
1020
0.0
1030
0.0
  0
LINE
  5
127DC0
  8
SLIM
 10
8558.4076836320746
 20
-1385.9999999999991
 30
0.0
 11
8568.3568725926179
 21
-1376.0508110394569
 31
0.0
1001
GRADIENTCOLOR1ACI
1070
     5
1001
GRADIENTCOLOR2ACI
1070
     2
1001
ACAD
1010
0.0
1020
0.0
1030
0.0
  0
LINE
  5
127DC1
  8
SLIM
 10
8552.3681958742145
 20
-1409.9999999999991
 30
0.0
 11
8557.0
 21
-1405.368195874212
 31
0.0
1001
GRADIENTCOLOR1ACI
1070
     5
1001
GRADIENTCOLOR2ACI
1070
     2
1001
ACAD
1010
0.0
1020
0.0
1030
0.0
  0
LINE
  5
127DC2
  8
OBJECT
 10
8443.0
 20
-1409.9999999999991
 30
0.0
 11
8557.0
 21
-1409.9999999999991
 31
0.0
1001
ACDBBLOCKREPETAG
1070
     1
1071
        1
1005
0
  0
LINE
  5
127DC3
  8
OBJECT
 10
8433.0422321049627
 20
-1385.9999999999991
 30
0.0
 11
8566.9577678950409
 21
-1385.9999999999991
 31
0.0
1001
ACDBBLOCKREPETAG
1070
     1
1071
        2
1005
0
  0
LINE
  5
127DC4
  8
OBJECT
 10
8443.0
 20
-1409.9999999999991
 30
0.0
 11
8443.0
 21
-1385.9999999999991
 31
0.0
1001
ACDBBLOCKREPETAG
1070
     1
1071
        3
1005
0
  0
LINE
  5
127DC5
  8
OBJECT
 10
8557.0
 20
-1409.9999999999991
 30
0.0
 11
8557.0
 21
-1385.9999999999991
 31
0.0
1001
ACDBBLOCKREPETAG
1070
     1
1071
        4
1005
0
  0
LINE
  5
127DC6
  8
OBJECT
 10
8414.9999999999909
 20
-1135.9999999999991
 30
0.0
 11
8415.0
 21
-1257.699682809143
 31
0.0
1001
ACDBBLOCKREPETAG
1070
     1
1071
        5
1005
0
  0
LINE
  5
127DC7
  8
OBJECT
 10
8585.0000000000055
 20
-1135.9999999999991
 30
0.0
 11
8585.0
 21
-1257.6996828091719
 31
0.0
1001
ACDBBLOCKREPETAG
1070
     1
1071
        6
1005
0
  0
LINE
  5
127DC8
  8
OBJECT
 10
8415.0
 20
-1257.699682809143
 30
0.0
 11
8433.0422321049627
 21
-1385.9999999999991
 31
0.0
1001
ACDBBLOCKREPETAG
1070
     1
1071
        7
1005
0
  0
LINE
  5
127DC9
  8
OBJECT
 10
8566.9577678950409
 20
-1385.9999999999991
 30
0.0
 11
8585.0
 21
-1257.6996828091719
 31
0.0
1001
ACDBBLOCKREPETAG
1070
     1
1071
        8
1005
0
  0
LINE
  5
127DCA
  8
OBJECT
 10
8585.0000000000055
 20
-1135.9999999999991
 30
0.0
 11
8414.9999999999909
 21
-1135.9999999999991
 31
0.0
1001
ACDBBLOCKREPETAG
1070
     1
1071
        9
1005
0
  0
LINE
  5
127DCB
  8
SLIM
 10
12414.999999999991
 20
-1152.2369265471771
 30
0.0
 11
12431.23692654717
 21
-1136.0
 31
0.0
1001
ACAD
1010
0.0
1020
0.0
1030
0.0
  0
LINE
  5
127DCC
  8
SLIM
 10
12414.999999999991
 20
-1170.197438789314
 30
0.0
 11
12449.19743878931
 21
-1136.0
 31
0.0
1001
ACAD
1010
0.0
1020
0.0
1030
0.0
  0
LINE
  5
127DCD
  8
SLIM
 10
12414.999999999991
 20
-1188.1579510314509
 30
0.0
 11
12467.15795103144
 21
-1136.0
 31
0.0
1001
ACAD
1010
0.0
1020
0.0
1030
0.0
  0
LINE
  5
127DCE
  8
SLIM
 10
12414.999999999991
 20
-1206.1184632735881
 30
0.0
 11
12485.11846327358
 21
-1136.0
 31
0.0
1001
ACAD
1010
0.0
1020
0.0
1030
0.0
  0
LINE
  5
127DCF
  8
SLIM
 10
12415.0
 20
-1224.0789755157259
 30
0.0
 11
12503.07897551572
 21
-1136.0
 31
0.0
1001
ACAD
1010
0.0
1020
0.0
1030
0.0
  0
LINE
  5
127DD0
  8
SLIM
 10
12415.0
 20
-1242.0394877578631
 30
0.0
 11
12521.03948775786
 21
-1136.0
 31
0.0
1001
ACAD
1010
0.0
1020
0.0
1030
0.0
  0
LINE
  5
127DD1
  8
SLIM
 10
12415.283600749561
 20
-1259.716399250442
 30
0.0
 11
12539.0
 21
-1136.0
 31
0.0
1001
ACAD
1010
0.0
1020
0.0
1030
0.0
  0
LINE
  5
127DD2
  8
SLIM
 10
12417.49791047804
 20
-1275.4626017640981
 30
0.0
 11
12556.96051224214
 21
-1136.0
 31
0.0
1001
ACAD
1010
0.0
1020
0.0
1030
0.0
  0
LINE
  5
127DD3
  8
SLIM
 10
12419.71222020652
 20
-1291.208804277753
 30
0.0
 11
12574.921024484271
 21
-1136.0
 31
0.0
1001
ACAD
1010
0.0
1020
0.0
1030
0.0
  0
LINE
  5
127DD4
  8
SLIM
 10
12421.92652993501
 20
-1306.9550067914081
 30
0.0
 11
12585.000000000009
 21
-1143.8815367264081
 31
0.0
1001
ACAD
1010
0.0
1020
0.0
1030
0.0
  0
LINE
  5
127DD5
  8
SLIM
 10
12424.140839663491
 20
-1322.7012093050639
 30
0.0
 11
12585.0
 21
-1161.8420489685479
 31
0.0
1001
ACAD
1010
0.0
1020
0.0
1030
0.0
  0
LINE
  5
127DD6
  8
SLIM
 10
12426.35514939196
 20
-1338.447411818719
 30
0.0
 11
12585.0
 21
-1179.8025612106869
 31
0.0
1001
ACAD
1010
0.0
1020
0.0
1030
0.0
  0
LINE
  5
127DD7
  8
SLIM
 10
12428.56945912045
 20
-1354.193614332374
 30
0.0
 11
12585.0
 21
-1197.763073452827
 31
0.0
1001
ACAD
1010
0.0
1020
0.0
1030
0.0
  0
LINE
  5
127DD8
  8
SLIM
 10
12430.78376884894
 20
-1369.93981684603
 30
0.0
 11
12585.0
 21
-1215.723585694966
 31
0.0
1001
ACAD
1010
0.0
1020
0.0
1030
0.0
  0
LINE
  5
127DD9
  8
SLIM
 10
12432.998078577421
 20
-1385.686019359686
 30
0.0
 11
12585.0
 21
-1233.684097937105
 31
0.0
1001
ACAD
1010
0.0
1020
0.0
1030
0.0
  0
LINE
  5
127DDA
  8
SLIM
 10
12432.999999999991
 20
-1403.6446101792519
 30
0.0
 11
12585.0
 21
-1251.6446101792451
 31
0.0
1001
ACAD
1010
0.0
1020
0.0
1030
0.0
  0
LINE
  5
127DDB
  8
SLIM
 10
12432.999999999991
 20
-1421.60512242139
 30
0.0
 11
12583.05183715436
 21
-1271.5532852670169
 31
0.0
1001
ACAD
1010
0.0
1020
0.0
1030
0.0
  0
LINE
  5
127DDC
  8
SLIM
 10
12446.565634663521
 20
-1425.999999999997
 30
0.0
 11
12580.11284424201
 21
-1292.4527904215049
 31
0.0
1001
ACAD
1010
0.0
1020
0.0
1030
0.0
  0
LINE
  5
127DDD
  8
SLIM
 10
12464.52614690566
 20
-1425.999999999997
 30
0.0
 11
12577.17385132967
 21
-1313.352295575992
 31
0.0
1001
ACAD
1010
0.0
1020
0.0
1030
0.0
  0
LINE
  5
127DDE
  8
SLIM
 10
12482.4866591478
 20
-1425.999999999998
 30
0.0
 11
12574.23485841732
 21
-1334.2518007304791
 31
0.0
1001
ACAD
1010
0.0
1020
0.0
1030
0.0
  0
LINE
  5
127DDF
  8
SLIM
 10
12500.44717138994
 20
-1425.9999999999991
 30
0.0
 11
12571.29586550497
 21
-1355.151305884966
 31
0.0
1001
ACAD
1010
0.0
1020
0.0
1030
0.0
  0
LINE
  5
127DE0
  8
SLIM
 10
12518.40768363208
 20
-1425.9999999999991
 30
0.0
 11
12568.35687259262
 21
-1376.0508110394539
 31
0.0
1001
ACAD
1010
0.0
1020
0.0
1030
0.0
  0
LINE
  5
127DE1
  8
SLIM
 10
12536.368195874211
 20
-1425.9999999999991
 30
0.0
 11
12567.000000000009
 21
-1395.368195874202
 31
0.0
1001
ACAD
1010
0.0
1020
0.0
1030
0.0
  0
LINE
  5
127DE2
  8
SLIM
 10
12554.328708116351
 20
-1426.0
 30
0.0
 11
12567.000000000009
 21
-1413.328708116341
 31
0.0
1001
ACAD
1010
0.0
1020
0.0
1030
0.0
  0
LINE
  5
127DE3
  8
OBJECT
 10
12432.999999999991
 20
-1425.999999999997
 30
0.0
 11
12567.000000000009
 21
-1426.0
 31
0.0
1001
ACDBBLOCKREPETAG
1070
     1
1071
        1
1005
127DE3
  0
LINE
  5
127DE4
  8
OBJECT
 10
12414.999999999991
 20
-1136.0
 30
0.0
 11
12415.0
 21
-1257.6996828091419
 31
0.0
1001
ACDBBLOCKREPETAG
1070
     1
1071
        2
1005
127DE4
  0
LINE
  5
127DE5
  8
OBJECT
 10
12585.000000000009
 20
-1136.0
 30
0.0
 11
12585.0
 21
-1257.6996828091731
 31
0.0
1001
ACDBBLOCKREPETAG
1070
     1
1071
        3
1005
127DE5
  0
LINE
  5
127DE6
  8
OBJECT
 10
12415.0
 20
-1257.6996828091419
 30
0.0
 11
12432.999999999991
 21
-1385.6996828090821
 31
0.0
1001
ACDBBLOCKREPETAG
1070
     1
1071
        4
1005
127DE6
  0
LINE
  5
127DE7
  8
OBJECT
 10
12567.000000000009
 20
-1385.6996828091289
 30
0.0
 11
12585.0
 21
-1257.6996828091731
 31
0.0
1001
ACDBBLOCKREPETAG
1070
     1
1071
        5
1005
127DE7
  0
LINE
  5
127DE8
  8
OBJECT
 10
12585.000000000009
 20
-1136.0
 30
0.0
 11
12414.999999999991
 21
-1136.0
 31
0.0
1001
ACDBBLOCKREPETAG
1070
     1
1071
        6
1005
127DE8
  0
LINE
  5
127DE9
  8
OBJECT
 10
12432.999999999991
 20
-1385.6996828090821
 30
0.0
 11
12432.999999999991
 21
-1425.999999999997
 31
0.0
1001
ACDBBLOCKREPETAG
1070
     1
1071
        8
1005
127DE9
  0
LINE
  5
127DEA
  8
OBJECT
 10
12567.000000000009
 20
-1385.6996828091289
 30
0.0
 11
12567.000000000009
 21
-1426.0
 31
0.0
1001
ACDBBLOCKREPETAG
1070
     1
1071
        9
1005
127DEA
  0
TEXT
  5
127DEB
  8
SLIM
 10
149.1428571427966
 20
-443.99999999984971
 30
0.0
 40
48.0
  1
A3
 41
0.75
1001
ACDBBLOCKREPETAG
1070
     1
1071
      119
1005
0
  0
LINE
  5
127DEC
  8
OBJECT
 10
2633.0
 20
-634.0
 30
0.0
 11
2640.0
 21
-634.0
 31
0.0
1001
ACDBBLOCKREPETAG
1070
     1
1071
       45
1005
127DEC
  0
LINE
  5
127DED
  8
OBJECT
 10
2640.0
 20
-634.0
 30
0.0
 11
2640.0
 21
-755.0
 31
0.0
1001
ACDBBLOCKREPETAG
1070
     1
1071
       46
1005
127DED
  0
LINE
  5
127DEE
  8
OBJECT
 10
2633.0
 20
-755.0
 30
0.0
 11
2633.0
 21
-634.0
 31
0.0
1001
ACDBBLOCKREPETAG
1070
     1
1071
       47
1005
127DEE
  0
LINE
  5
127DEF
  8
CENTER
 10
2655.0
 20
-696.0
 30
0.0
 11
2571.0
 21
-696.0
 31
0.0
1001
ACDBBLOCKREPETAG
1070
     1
1071
       48
1005
127DEF
  0
LINE
  5
127DF0
  8
OBJECT
 10
2633.0
 20
-637.0
 30
0.0
 11
2597.0
 21
-637.0
 31
0.0
1001
ACDBBLOCKREPETAG
1070
     1
1071
       49
1005
127DF0
  0
LINE
  5
127DF1
  8
OBJECT
 10
2597.0
 20
-637.0
 30
0.0
 11
2597.0
 21
-755.0
 31
0.0
1001
ACDBBLOCKREPETAG
1070
     1
1071
       50
1005
127DF1
  0
LINE
  5
127DF2
  8
OBJECT
 10
2597.0
 20
-755.0
 30
0.0
 11
2640.0
 21
-755.0
 31
0.0
1001
ACDBBLOCKREPETAG
1070
     1
1071
       51
1005
127DF2
  0
LINE
  5
127DF3
  8
OBJECT
 10
2593.0
 20
-641.5
 30
0.0
 11
2586.0
 21
-641.5
 31
0.0
1001
ACDBBLOCKREPETAG
1070
     1
1071
       52
1005
127DF3
  0
LINE
  5
127DF4
  8
OBJECT
 10
2586.0
 20
-750.49999999999989
 30
0.0
 11
2593.0
 21
-750.49999999999989
 31
0.0
1001
ACDBBLOCKREPETAG
1070
     1
1071
       53
1005
127DF4
  0
LINE
  5
127DF5
  8
OBJECT
 10
2593.0
 20
-750.49999999999989
 30
0.0
 11
2593.0
 21
-641.5
 31
0.0
1001
ACDBBLOCKREPETAG
1070
     1
1071
       54
1005
127DF5
  0
LINE
  5
127DF6
  8
OBJECT
 10
2597.0
 20
-637.0
 30
0.0
 11
2593.0
 21
-641.5
 31
0.0
1001
ACDBBLOCKREPETAG
1070
     1
1071
       55
1005
127DF6
  0
LINE
  5
127DF7
  8
OBJECT
 10
2597.0
 20
-755.0
 30
0.0
 11
2593.0
 21
-750.49999999999989
 31
0.0
1001
ACDBBLOCKREPETAG
1070
     1
1071
       56
1005
127DF7
  0
LINE
  5
127DF8
  8
OBJECT
 10
2583.0
 20
-634.0
 30
0.0
 11
2580.0
 21
-634.0
 31
0.0
1001
ACDBBLOCKREPETAG
1070
     1
1071
       57
1005
127DF8
  0
ARC
  5
127DF9
  8
OBJECT
 10
2583.0
 20
-637.0
 30
0.0
 40
3.0
 50
0.0
 51
90.0
1001
ACDBBLOCKREPETAG
1070
     1
1071
       58
1005
127DF9
  0
LINE
  5
127DFA
  8
OBJECT
 10
2580.0
 20
-758.0
 30
0.0
 11
2583.0
 21
-758.0
 31
0.0
1001
ACDBBLOCKREPETAG
1070
     1
1071
       59
1005
127DFA
  0
ARC
  5
127DFB
  8
OBJECT
 10
2583.0
 20
-755.0
 30
0.0
 40
3.0
 50
270.0
 51
0.0
1001
ACDBBLOCKREPETAG
1070
     1
1071
       60
1005
127DFB
  0
LINE
  5
127DFC
  8
OBJECT
 10
2586.0
 20
-755.0
 30
0.0
 11
2586.0
 21
-637.0
 31
0.0
1001
ACDBBLOCKREPETAG
1070
     1
1071
       61
1005
127DFC
  0
LINE
  5
127DFD
  8
HIDDEN
 10
2588.0
 20
-651.5
 30
0.0
 11
2588.0
 21
-740.5
 31
0.0
1001
ACDBBLOCKREPETAG
1070
     1
1071
       63
1005
127DFD
  0
TEXT
  5
127DFE
  8
SLIM
 10
0.0000035665234464
 20
24.000004585317608
 30
0.0
 40
79.999999999972701
  1
上部枝管
 41
0.75
1001
ACDBBLOCKREPETAG
1070
     1
1071
      119
1005
120BCB
  0
LINE
  5
127DFF
  8
DIM
 10
2650.0
 20
-3626.9999999999968
 30
0.0
 11
2728.479620594459
 21
-3626.9999999999968
 31
0.0
  0
LINE
  5
127E00
  8
DIM
 10
2650.0
 20
-3532.9999999999959
 30
0.0
 11
2728.479620594459
 21
-3532.9999999999959
 31
0.0
  0
LINE
  5
127E01
  8
DIM
 10
2718.479620594459
 20
-3606.9999999999968
 30
0.0
 11
2718.479620594459
 21
-3552.9999999999968
 31
0.0
  0
INSERT
  5
127E02
  8
DIM
  2
_OPEN30
 10
2718.479620594459
 20
-3626.9999999999968
 30
0.0
 41
20.0
 42
20.0
 43
20.0
 50
270.0
  0
INSERT
  5
127E03
  8
DIM
  2
_OPEN30
 10
2718.479620594459
 20
-3532.9999999999959
 30
0.0
 41
20.0
 42
20.0
 43
20.0
 50
90.0
  0
INSERT
  5
127E04
  8
SLIM
  2
*U16
 10
0.0
 20
0.0
 30
0.0
  0
LINE
  5
127E05
  8
DIM
 10
2650.0
 20
-3984.9999999999991
 30
0.0
 11
2726.8409284037339
 21
-3984.9999999999991
 31
0.0
  0
LINE
  5
127E06
  8
DIM
 10
2665.0
 20
-3940.9999999999991
 30
0.0
 11
2726.8409284037339
 21
-3940.9999999999991
 31
0.0
  0
LINE
  5
127E07
  8
DIM
 10
2716.8409284037339
 20
-4004.9999999999991
 30
0.0
 11
2716.8409284037339
 21
-4024.9999999999968
 31
0.0
  0
LINE
  5
127E08
  8
DIM
 10
2716.8409284037339
 20
-3920.9999999999968
 30
0.0
 11
2716.8409284037339
 21
-3900.9999999999982
 31
0.0
  0
LINE
  5
127E09
  8
DIM
 10
2716.8409284037339
 20
-3984.9999999999991
 30
0.0
 11
2716.8409284037339
 21
-3940.9999999999991
 31
0.0
  0
INSERT
  5
127E0A
  8
DIM
  2
_OPEN30
 10
2716.8409284037339
 20
-3984.9999999999991
 30
0.0
 41
20.0
 42
20.0
 43
20.0
 50
90.0
  0
INSERT
  5
127E0B
  8
DIM
  2
_OPEN30
 10
2716.8409284037339
 20
-3940.9999999999991
 30
0.0
 41
20.0
 42
20.0
 43
20.0
 50
270.0
  0
INSERT
  5
127E0C
  8
SLIM
  2
*U17
 10
0.0
 20
0.0
 30
0.0
  0
LINE
  5
127E0D
  8
DIM
 10
2500.0
 20
-3479.9999999999959
 30
0.0
 11
2500.0
 21
-3442.2081219844458
 31
0.0
  0
LINE
  5
127E0E
  8
DIM
 10
2640.0
 20
-3522.9999999999959
 30
0.0
 11
2640.0
 21
-3442.2081219844458
 31
0.0
  0
LINE
  5
127E0F
  8
DIM
 10
2520.0
 20
-3452.208121984444
 30
0.0
 11
2620.0
 21
-3452.208121984444
 31
0.0
  0
INSERT
  5
127E10
  8
DIM
  2
_OPEN30
 10
2500.0
 20
-3452.208121984444
 30
0.0
 41
20.0
 42
20.0
 43
20.0
 50
180.0
  0
INSERT
  5
127E11
  8
DIM
  2
_OPEN30
 10
2640.0
 20
-3452.208121984444
 30
0.0
 41
20.0
 42
20.0
 43
20.0
  0
INSERT
  5
127E12
  8
SLIM
  2
*U18
 10
0.0
 20
0.0
 30
0.0
  0
TEXT
  5
127E13
  8
SLIM
 10
3270.9999999999991
 20
-3357.50001604727
 30
0.0
 40
40.0
  1
C寸法
 41
0.75
  0
TEXT
  5
127E14
  8
SLIM
 10
3270.9999999999991
 20
-3287.5000160472709
 30
0.0
 40
40.0
  1
B寸法
 41
0.75
  0
TEXT
  5
127E15
  8
SLIM
 10
3270.2857142857151
 20
-3217.5000160472709
 30
0.0
 40
40.0
  1
A寸法
 41
0.75
  0
TEXT
  5
127E16
  8
SLIM
 10
3669.2857142857142
 20
-3357.50001604727
 30
0.0
 40
40.0
  1
140
 41
0.75
  0
TEXT
  5
127E17
  8
SLIM
 10
3409.2857142857151
 20
-3357.50001604727
 30
0.0
 40
40.0
  1
140
 41
0.75
  0
TEXT
  5
127E18
  8
SLIM
 10
3539.2857142857151
 20
-3357.50001604727
 30
0.0
 40
40.0
  1
140
 41
0.75
  0
TEXT
  5
127E19
  8
SLIM
 10
3681.4285714285711
 20
-3287.5000160472709
 30
0.0
 40
40.0
  1
59
 41
0.75
  0
TEXT
  5
127E1A
  8
SLIM
 10
3420.0
 20
-3287.5000160472709
 30
0.0
 40
40.0
  1
44
 41
0.75
  0
TEXT
  5
127E1B
  8
SLIM
 10
3550.7142857142849
 20
-3287.5000160472709
 30
0.0
 40
40.0
  1
52
 41
0.75
  0
TEXT
  5
127E1C
  8
SLIM
 10
3471.0
 20
-3092.5000160472709
 30
0.0
 40
40.0
  1
横枝管サイズ
 41
0.75
  0
TEXT
  5
127E1D
  8
SLIM
 10
3654.8571428571422
 20
-3147.5000160472709
 30
0.0
 40
30.0
  1
75（3）
 41
0.75
  0
TEXT
  5
127E1E
  8
SLIM
 10
3524.8571428571422
 20
-3147.5000160472709
 30
0.0
 40
30.0
  1
65（2）
 41
0.75
  0
TEXT
  5
127E1F
  8
SLIM
 10
3397.0
 20
-3147.5000160472709
 30
0.0
 40
30.0
  1
50（1）
 41
0.75
  0
TEXT
  5
127E20
  8
SLIM
 10
3668.5714285714289
 20
-3217.5000160472709
 30
0.0
 40
40.0
  1
124
 41
0.75
  0
TEXT
  5
127E21
  8
SLIM
 10
3420.0
 20
-3217.5000160472709
 30
0.0
 40
40.0
  1
94
 41
0.75
  0
TEXT
  5
127E22
  8
SLIM
 10
3542.142857142856
 20
-3217.5000160472709
 30
0.0
 40
40.0
  1
110
 41
0.75
  0
TEXT
  5
127E23
  8
SLIM
 10
2349.9999999999991
 20
-3117.5000000000009
 30
0.0
 40
75.0
  1
下部枝管サイズ毎の形状
 41
0.75
  0
TEXT
  5
127E24
  8
SLIM
 10
4394.25
 20
-4102.4999999999973
 30
0.0
 40
35.0
  1
通常枝75（3）
 41
0.75
  0
TEXT
  5
127E25
  8
SLIM
 10
3394.2499999999991
 20
-4102.4999999999973
 30
0.0
 40
35.0
  1
通常枝65（2）
 41
0.75
  0
TEXT
  5
127E26
  8
SLIM
 10
2396.75
 20
-4102.4999999999973
 30
0.0
 40
35.0
  1
通常枝50（1）
 41
0.75
  0
TEXT
  5
127E27
  8
SLIM
 10
2337.75
 20
282.50000000000011
 30
0.0
 40
35.0
  1
（枝管サイズ毎に寸法が異なります。管底の位置は全サイズで同じです）
 41
0.75
  0
TEXT
  5
127E28
  8
SLIM
 10
2350.0
 20
532.5
 30
0.0
 40
75.0
  1
側面図の代表機種
 41
0.75
  0
TEXT
  5
127E29
  8
SLIM
 10
2350.0
 20
369.99999999999989
 30
0.0
 40
100.0
  1
4SLT2-A3-A2000-P440
 41
0.75
  0
TEXT
  5
127E2A
  8
SLIM
 10
0.0
 20
670.0
 30
0.0
 40
100.0
  1
4SLT2-A3-AX000-PXXX-S
 41
0.75
  0
TEXT
  5
127E2B
  8
SLIM
 10
0.0
 20
520.0
 30
0.0
 40
100.0
  1
4SLT2-A3-AX000-PXXX-W
 41
0.75
  0
LINE
  5
127E2C
  8
OBJECT
 10
12585.999999999991
 20
-1508.9999999999991
 30
0.0
 11
12585.999999999991
 21
-1518.9999999999991
 31
0.0
1001
ACDBBLOCKREPETAG
1070
     1
1071
      121
1005
127E2C
  0
LINE
  5
127E2D
  8
OBJECT
 10
12569.999999999991
 20
-1508.9999999999991
 30
0.0
 11
12569.999999999991
 21
-1518.9999999999991
 31
0.0
1001
ACDBBLOCKREPETAG
1070
     1
1071
      122
1005
127E2D
  0
LINE
  5
127E2E
  8
OBJECT
 10
12585.999999999991
 20
-1518.9999999999991
 30
0.0
 11
12569.999999999991
 21
-1518.9999999999991
 31
0.0
1001
ACDBBLOCKREPETAG
1070
     1
1071
      123
1005
127E2E
  0
LINE
  5
127E2F
  8
OBJECT
 10
12590.0
 20
-1469.9999999999959
 30
0.0
 11
12424.0
 21
-1469.9999999999959
 31
0.0
1001
ACDBBLOCKREPETAG
1070
     1
1071
      124
1005
127E2F
  0
LINE
  5
127E30
  8
OBJECT
 10
12590.0
 20
-1484.9999999999991
 30
0.0
 11
12590.0
 21
-1469.9999999999959
 31
0.0
1001
ACDBBLOCKREPETAG
1070
     1
1071
      125
1005
127E30
  0
LINE
  5
127E31
  8
OBJECT
 10
12424.0
 20
-1484.9999999999991
 30
0.0
 11
12590.0
 21
-1484.9999999999991
 31
0.0
1001
ACDBBLOCKREPETAG
1070
     1
1071
      126
1005
127E31
  0
LINE
  5
127E32
  8
OBJECT
 10
12567.49999999998
 20
-1484.9999999999991
 30
0.0
 11
12567.49999999998
 21
-1494.9999999999991
 31
0.0
1001
ACDBBLOCKREPETAG
1070
     1
1071
      127
1005
127E32
  0
LINE
  5
127E33
  8
OBJECT
 10
12572.999999999991
 20
-1494.9999999999991
 30
0.0
 11
12572.999999999991
 21
-1484.9999999999991
 31
0.0
1001
ACDBBLOCKREPETAG
1070
     1
1071
      128
1005
127E33
  0
LINE
  5
127E34
  8
OBJECT
 10
12582.999999999991
 20
-1494.9999999999991
 30
0.0
 11
12582.999999999991
 21
-1484.9999999999991
 31
0.0
1001
ACDBBLOCKREPETAG
1070
     1
1071
      129
1005
127E34
  0
LINE
  5
127E35
  8
OBJECT
 10
12424.0
 20
-1494.9999999999991
 30
0.0
 11
12424.0
 21
-1508.9999999999959
 31
0.0
1001
ACDBBLOCKREPETAG
1070
     1
1071
      130
1005
127E35
  0
LINE
  5
127E36
  8
OBJECT
 10
12590.0
 20
-1494.9999999999991
 30
0.0
 11
12590.0
 21
-1508.9999999999959
 31
0.0
1001
ACDBBLOCKREPETAG
1070
     1
1071
      131
1005
127E36
  0
LINE
  5
127E37
  8
OBJECT
 10
12424.0
 20
-1508.9999999999959
 30
0.0
 11
12590.0
 21
-1508.9999999999959
 31
0.0
1001
ACDBBLOCKREPETAG
1070
     1
1071
      132
1005
127E37
  0
LINE
  5
127E38
  8
OBJECT
 10
12424.0
 20
-1494.9999999999991
 30
0.0
 11
12590.0
 21
-1494.9999999999991
 31
0.0
1001
ACDBBLOCKREPETAG
1070
     1
1071
      133
1005
127E38
  0
LINE
  5
127E39
  8
OBJECT
 10
12432.49999999998
 20
-1484.9999999999991
 30
0.0
 11
12432.49999999998
 21
-1494.9999999999991
 31
0.0
1001
ACDBBLOCKREPETAG
1070
     1
1071
      134
1005
127E39
  0
LINE
  5
127E3A
  8
OBJECT
 10
12434.0
 20
-1433.9999999999959
 30
0.0
 11
12565.999999999991
 21
-1433.9999999999959
 31
0.0
1001
ACDBBLOCKREPETAG
1070
     1
1071
      135
1005
127E3A
  0
LINE
  5
127E3B
  8
OBJECT
 10
12424.0
 20
-1484.9999999999991
 30
0.0
 11
12424.0
 21
-1469.9999999999959
 31
0.0
1001
ACDBBLOCKREPETAG
1070
     1
1071
      136
1005
127E3B
  0
LINE
  5
127E3C
  8
HIDDEN
 10
12443.0
 20
-1444.9999999999991
 30
0.0
 11
12557.0
 21
-1444.9999999999991
 31
0.0
1001
ACDBBLOCKREPETAG
1070
     1
1071
      137
1005
127E3C
  0
LINE
  5
127E3D
  8
OBJECT
 10
12586.999999999991
 20
-1468.2
 30
0.0
 11
12586.999999999991
 21
-1469.9999999999991
 31
0.0
1001
ACDBBLOCKREPETAG
1070
     1
1071
      138
1005
127E3D
  0
LINE
  5
127E3E
  8
OBJECT
 10
12568.999999999991
 20
-1468.2
 30
0.0
 11
12568.999999999991
 21
-1469.9999999999991
 31
0.0
1001
ACDBBLOCKREPETAG
1070
     1
1071
      139
1005
127E3E
  0
LINE
  5
127E3F
  8
OBJECT
 10
12572.249999999991
 20
-1458.4999999999991
 30
0.0
 11
12583.749999999991
 21
-1458.4999999999991
 31
0.0
1001
ACDBBLOCKREPETAG
1070
     1
1071
      140
1005
127E3F
  0
LINE
  5
127E40
  8
OBJECT
 10
12572.249999999991
 20
-1458.4999999999991
 30
0.0
 11
12572.249999999991
 21
-1468.2
 31
0.0
1001
ACDBBLOCKREPETAG
1070
     1
1071
      141
1005
127E40
  0
LINE
  5
127E41
  8
OBJECT
 10
12583.749999999991
 20
-1458.4999999999991
 30
0.0
 11
12583.749999999991
 21
-1468.2
 31
0.0
1001
ACDBBLOCKREPETAG
1070
     1
1071
      142
1005
127E41
  0
LINE
  5
127E42
  8
OBJECT
 10
12431.99999999998
 20
-1550.0
 30
0.0
 11
12567.99999999998
 21
-1550.0
 31
0.0
1001
ACDBBLOCKREPETAG
1070
     1
1071
      143
1005
127E42
  0
LINE
  5
127E43
  8
OBJECT
 10
12431.99999999998
 20
-1550.0
 30
0.0
 11
12431.99999999998
 21
-1508.9999999999991
 31
0.0
1001
ACDBBLOCKREPETAG
1070
     1
1071
      144
1005
127E43
  0
LINE
  5
127E44
  8
OBJECT
 10
12567.99999999998
 20
-1550.0
 30
0.0
 11
12567.99999999998
 21
-1508.9999999999991
 31
0.0
1001
ACDBBLOCKREPETAG
1070
     1
1071
      145
1005
127E44
  0
LINE
  5
127E45
  8
OBJECT
 10
12586.999999999991
 20
-1468.2
 30
0.0
 11
12568.999999999991
 21
-1468.2
 31
0.0
1001
ACDBBLOCKREPETAG
1070
     1
1071
      146
1005
127E45
  0
LINE
  5
127E46
  8
CENTER
 10
12500.0
 20
-1174.9999999999991
 30
0.0
 11
12500.0
 21
-1564.9999999999991
 31
0.0
1001
ACDBBLOCKREPETAG
1070
     1
1071
      147
1005
127E46
  0
LINE
  5
127E47
  8
OBJECT
 10
12425.0
 20
-1174.9999999999991
 30
0.0
 11
12425.0
 21
-1256.9999999999959
 31
0.0
1001
ACDBBLOCKREPETAG
1070
     1
1071
      148
1005
127E47
  0
LINE
  5
127E48
  8
OBJECT
 10
12575.0
 20
-1174.9999999999991
 30
0.0
 11
12575.0
 21
-1256.999999999992
 31
0.0
1001
ACDBBLOCKREPETAG
1070
     1
1071
      149
1005
127E48
  0
LINE
  5
127E49
  8
OBJECT
 10
12425.0
 20
-1256.9999999999959
 30
0.0
 11
12575.0
 21
-1256.999999999992
 31
0.0
1001
ACDBBLOCKREPETAG
1070
     1
1071
      150
1005
127E49
  0
LINE
  5
127E4A
  8
OBJECT
 10
12443.0
 20
-1433.9999999999959
 30
0.0
 11
12443.0
 21
-1384.999999999992
 31
0.0
1001
ACDBBLOCKREPETAG
1070
     1
1071
      151
1005
127E4A
  0
LINE
  5
127E4B
  8
OBJECT
 10
12557.0
 20
-1384.999999999992
 30
0.0
 11
12443.0
 21
-1384.999999999992
 31
0.0
1001
ACDBBLOCKREPETAG
1070
     1
1071
      152
1005
127E4B
  0
LINE
  5
127E4C
  8
OBJECT
 10
12557.0
 20
-1384.999999999992
 30
0.0
 11
12557.0
 21
-1433.9999999999959
 31
0.0
1001
ACDBBLOCKREPETAG
1070
     1
1071
      153
1005
127E4C
  0
LINE
  5
127E4D
  8
OBJECT
 10
12425.0
 20
-1256.9999999999959
 30
0.0
 11
12443.0
 21
-1384.999999999992
 31
0.0
1001
ACDBBLOCKREPETAG
1070
     1
1071
      154
1005
127E4D
  0
LINE
  5
127E4E
  8
OBJECT
 10
12557.0
 20
-1384.999999999992
 30
0.0
 11
12575.0
 21
-1256.999999999992
 31
0.0
1001
ACDBBLOCKREPETAG
1070
     1
1071
      155
1005
127E4E
  0
LINE
  5
127E4F
  8
OBJECT
 10
12434.0
 20
-1469.9999999999959
 30
0.0
 11
12434.0
 21
-1433.9999999999959
 31
0.0
1001
ACDBBLOCKREPETAG
1070
     1
1071
      156
1005
127E4F
  0
LINE
  5
127E50
  8
OBJECT
 10
12566.0
 20
-1469.9999999999959
 30
0.0
 11
12565.999999999991
 21
-1433.9999999999959
 31
0.0
1001
ACDBBLOCKREPETAG
1070
     1
1071
      157
1005
127E50
  0
LINE
  5
127E51
  8
OBJECT
 10
12454.75
 20
-1459.699999999993
 30
0.0
 11
12467.25
 21
-1459.699999999993
 31
0.0
1001
ACDBBLOCKREPETAG
1070
     1
1071
      158
1005
127E51
  0
LINE
  5
127E52
  8
OBJECT
 10
12446.0
 20
-1469.9999999999959
 30
0.0
 11
12446.0
 21
-1467.699999999996
 31
0.0
1001
ACDBBLOCKREPETAG
1070
     1
1071
      159
1005
127E52
  0
LINE
  5
127E53
  8
OBJECT
 10
12476.0
 20
-1469.9999999999959
 30
0.0
 11
12476.0
 21
-1467.699999999996
 31
0.0
1001
ACDBBLOCKREPETAG
1070
     1
1071
      160
1005
127E53
  0
LINE
  5
127E54
  8
OBJECT
 10
12454.75
 20
-1459.699999999993
 30
0.0
 11
12454.75
 21
-1467.699999999996
 31
0.0
1001
ACDBBLOCKREPETAG
1070
     1
1071
      161
1005
127E54
  0
LINE
  5
127E55
  8
OBJECT
 10
12467.25
 20
-1459.699999999993
 30
0.0
 11
12467.25
 21
-1467.699999999996
 31
0.0
1001
ACDBBLOCKREPETAG
1070
     1
1071
      162
1005
127E55
  0
LINE
  5
127E56
  8
OBJECT
 10
12446.0
 20
-1467.699999999996
 30
0.0
 11
12476.0
 21
-1467.699999999996
 31
0.0
1001
ACDBBLOCKREPETAG
1070
     1
1071
      163
1005
127E56
  0
LINE
  5
127E57
  8
OBJECT
 10
12453.0
 20
-1508.9999999999959
 30
0.0
 11
12453.0
 21
-1518.9999999999959
 31
0.0
1001
ACDBBLOCKREPETAG
1070
     1
1071
      164
1005
127E57
  0
LINE
  5
127E58
  8
OBJECT
 10
12469.0
 20
-1508.9999999999959
 30
0.0
 11
12469.0
 21
-1518.9999999999959
 31
0.0
1001
ACDBBLOCKREPETAG
1070
     1
1071
      165
1005
127E58
  0
LINE
  5
127E59
  8
OBJECT
 10
12453.0
 20
-1518.9999999999959
 30
0.0
 11
12469.0
 21
-1518.9999999999959
 31
0.0
1001
ACDBBLOCKREPETAG
1070
     1
1071
      166
1005
127E59
  0
LINE
  5
127E5A
  8
OBJECT
 10
12466.0
 20
-1494.9999999999959
 30
0.0
 11
12466.0
 21
-1484.9999999999959
 31
0.0
1001
ACDBBLOCKREPETAG
1070
     1
1071
      167
1005
127E5A
  0
LINE
  5
127E5B
  8
OBJECT
 10
12456.0
 20
-1494.9999999999959
 30
0.0
 11
12456.0
 21
-1484.9999999999959
 31
0.0
1001
ACDBBLOCKREPETAG
1070
     1
1071
      168
1005
127E5B
  0
LINE
  5
127E5C
  8
OBJECT
 10
10590.0
 20
-1469.9999999999959
 30
0.0
 11
10424.0
 21
-1469.9999999999959
 31
0.0
1001
ACDBBLOCKREPETAG
1070
     1
1071
       12
1005
127E5C
  0
LINE
  5
127E5D
  8
OBJECT
 10
10566.0
 20
-1433.9999999999959
 30
0.0
 11
10434.0
 21
-1433.9999999999959
 31
0.0
1001
ACDBBLOCKREPETAG
1070
     1
1071
       13
1005
127E5D
  0
LINE
  5
127E5E
  8
OBJECT
 10
10590.0
 20
-1485.0
 30
0.0
 11
10590.0
 21
-1469.9999999999959
 31
0.0
1001
ACDBBLOCKREPETAG
1070
     1
1071
       14
1005
127E5E
  0
LINE
  5
127E5F
  8
OBJECT
 10
10424.0
 20
-1485.0
 30
0.0
 11
10590.0
 21
-1485.0
 31
0.0
1001
ACDBBLOCKREPETAG
1070
     1
1071
       15
1005
127E5F
  0
LINE
  5
127E60
  8
OBJECT
 10
10567.49999999998
 20
-1485.0
 30
0.0
 11
10567.49999999998
 21
-1495.0
 31
0.0
1001
ACDBBLOCKREPETAG
1070
     1
1071
       16
1005
127E60
  0
LINE
  5
127E61
  8
OBJECT
 10
10424.0
 20
-1495.0
 30
0.0
 11
10424.0
 21
-1508.9999999999959
 31
0.0
1001
ACDBBLOCKREPETAG
1070
     1
1071
       17
1005
127E61
  0
LINE
  5
127E62
  8
OBJECT
 10
10590.0
 20
-1495.0
 30
0.0
 11
10590.0
 21
-1508.9999999999959
 31
0.0
1001
ACDBBLOCKREPETAG
1070
     1
1071
       18
1005
127E62
  0
LINE
  5
127E63
  8
OBJECT
 10
10424.0
 20
-1508.9999999999959
 30
0.0
 11
10590.0
 21
-1508.9999999999959
 31
0.0
1001
ACDBBLOCKREPETAG
1070
     1
1071
       19
1005
127E63
  0
LINE
  5
127E64
  8
OBJECT
 10
10424.0
 20
-1495.0
 30
0.0
 11
10590.0
 21
-1495.0
 31
0.0
1001
ACDBBLOCKREPETAG
1070
     1
1071
       20
1005
127E64
  0
LINE
  5
127E65
  8
OBJECT
 10
10432.49999999998
 20
-1485.0
 30
0.0
 11
10432.49999999998
 21
-1495.0
 31
0.0
1001
ACDBBLOCKREPETAG
1070
     1
1071
       21
1005
127E65
  0
LINE
  5
127E66
  8
OBJECT
 10
10424.0
 20
-1485.0
 30
0.0
 11
10424.0
 21
-1469.9999999999959
 31
0.0
1001
ACDBBLOCKREPETAG
1070
     1
1071
       22
1005
127E66
  0
LINE
  5
127E67
  8
HIDDEN
 10
10443.0
 20
-1445.0
 30
0.0
 11
10557.0
 21
-1445.0
 31
0.0
1001
ACDBBLOCKREPETAG
1070
     1
1071
       23
1005
127E67
  0
LINE
  5
127E68
  8
CENTER
 10
10500.0
 20
-1175.0
 30
0.0
 11
10500.0
 21
-1523.9999999999959
 31
0.0
1001
ACDBBLOCKREPETAG
1070
     1
1071
       24
1005
127E68
  0
LINE
  5
127E69
  8
OBJECT
 10
10425.0
 20
-1175.0
 30
0.0
 11
10425.0
 21
-1256.9999999999959
 31
0.0
1001
ACDBBLOCKREPETAG
1070
     1
1071
       25
1005
127E69
  0
LINE
  5
127E6A
  8
OBJECT
 10
10575.0
 20
-1175.0
 30
0.0
 11
10575.0
 21
-1256.999999999993
 31
0.0
1001
ACDBBLOCKREPETAG
1070
     1
1071
       26
1005
127E6A
  0
LINE
  5
127E6B
  8
OBJECT
 10
10425.0
 20
-1256.9999999999959
 30
0.0
 11
10575.0
 21
-1256.999999999993
 31
0.0
1001
ACDBBLOCKREPETAG
1070
     1
1071
       27
1005
127E6B
  0
LINE
  5
127E6C
  8
OBJECT
 10
10557.0
 20
-1433.9999999999959
 30
0.0
 11
10557.0
 21
-1384.999999999992
 31
0.0
1001
ACDBBLOCKREPETAG
1070
     1
1071
       28
1005
127E6C
  0
LINE
  5
127E6D
  8
OBJECT
 10
10443.0
 20
-1433.9999999999959
 30
0.0
 11
10443.0
 21
-1384.999999999992
 31
0.0
1001
ACDBBLOCKREPETAG
1070
     1
1071
       29
1005
127E6D
  0
LINE
  5
127E6E
  8
OBJECT
 10
10557.0
 20
-1384.999999999992
 30
0.0
 11
10443.0
 21
-1384.999999999992
 31
0.0
1001
ACDBBLOCKREPETAG
1070
     1
1071
       30
1005
127E6E
  0
LINE
  5
127E6F
  8
OBJECT
 10
10425.0
 20
-1256.9999999999959
 30
0.0
 11
10443.0
 21
-1384.999999999992
 31
0.0
1001
ACDBBLOCKREPETAG
1070
     1
1071
       31
1005
127E6F
  0
LINE
  5
127E70
  8
OBJECT
 10
10557.0
 20
-1384.999999999992
 30
0.0
 11
10575.0
 21
-1256.999999999993
 31
0.0
1001
ACDBBLOCKREPETAG
1070
     1
1071
       32
1005
127E70
  0
LINE
  5
127E71
  8
OBJECT
 10
10434.0
 20
-1433.9999999999959
 30
0.0
 11
10434.0
 21
-1469.9999999999959
 31
0.0
1001
ACDBBLOCKREPETAG
1070
     1
1071
       33
1005
127E71
  0
LINE
  5
127E72
  8
OBJECT
 10
10566.0
 20
-1433.9999999999959
 30
0.0
 11
10566.0
 21
-1469.9999999999959
 31
0.0
1001
ACDBBLOCKREPETAG
1070
     1
1071
       34
1005
127E72
  0
LINE
  5
127E73
  8
OBJECT
 10
10582.999999999991
 20
-1494.9999999999959
 30
0.0
 11
10582.999999999991
 21
-1484.9999999999959
 31
0.0
1001
ACDBBLOCKREPETAG
1070
     1
1071
       35
1005
127E73
  0
LINE
  5
127E74
  8
OBJECT
 10
10572.999999999991
 20
-1494.9999999999959
 30
0.0
 11
10572.999999999991
 21
-1484.9999999999959
 31
0.0
1001
ACDBBLOCKREPETAG
1070
     1
1071
       36
1005
127E74
  0
LINE
  5
127E75
  8
OBJECT
 10
10568.99999999998
 20
-1464.9999999999959
 30
0.0
 11
10568.99999999998
 21
-1469.9999999999959
 31
0.0
1001
ACDBBLOCKREPETAG
1070
     1
1071
       37
1005
127E75
  0
LINE
  5
127E76
  8
OBJECT
 10
10587.0
 20
-1464.9999999999959
 30
0.0
 11
10587.0
 21
-1469.9999999999959
 31
0.0
1001
ACDBBLOCKREPETAG
1070
     1
1071
       38
1005
127E76
  0
LINE
  5
127E77
  8
OBJECT
 10
10587.0
 20
-1464.9999999999959
 30
0.0
 11
10568.99999999998
 21
-1464.9999999999959
 31
0.0
1001
ACDBBLOCKREPETAG
1070
     1
1071
       39
1005
127E77
  0
LINE
  5
127E78
  8
OBJECT
 10
10573.0
 20
-1516.9999999999959
 30
0.0
 11
10573.0
 21
-1519.9999999999959
 31
0.0
1001
ACDBBLOCKREPETAG
1070
     1
1071
       40
1005
127E78
  0
LINE
  5
127E79
  8
OBJECT
 10
10573.0
 20
-1519.9999999999959
 30
0.0
 11
10583.0
 21
-1519.9999999999959
 31
0.0
1001
ACDBBLOCKREPETAG
1070
     1
1071
       41
1005
127E79
  0
LINE
  5
127E7A
  8
OBJECT
 10
10583.0
 20
-1519.9999999999959
 30
0.0
 11
10583.0
 21
-1516.9999999999959
 31
0.0
1001
ACDBBLOCKREPETAG
1070
     1
1071
       43
1005
127E7A
  0
LINE
  5
127E7B
  8
OBJECT
 10
10468.5
 20
-1464.9999999999959
 30
0.0
 11
10451.999999999991
 21
-1464.9999999999959
 31
0.0
1001
ACDBBLOCKREPETAG
1070
     1
1071
       48
1005
127E7B
  0
LINE
  5
127E7C
  8
OBJECT
 10
10476.0
 20
-1469.9999999999959
 30
0.0
 11
10476.0
 21
-1467.9999999999959
 31
0.0
1001
ACDBBLOCKREPETAG
1070
     1
1071
       49
1005
127E7C
  0
LINE
  5
127E7D
  8
OBJECT
 10
10466.0
 20
-1494.9999999999959
 30
0.0
 11
10466.0
 21
-1484.9999999999959
 31
0.0
1001
ACDBBLOCKREPETAG
1070
     1
1071
       50
1005
127E7D
  0
LINE
  5
127E7E
  8
OBJECT
 10
10456.0
 20
-1494.9999999999959
 30
0.0
 11
10456.0
 21
-1484.9999999999959
 31
0.0
1001
ACDBBLOCKREPETAG
1070
     1
1071
       51
1005
127E7E
  0
LINE
  5
127E7F
  8
OBJECT
 10
10451.999999999991
 20
-1464.9999999999959
 30
0.0
 11
10451.999999999991
 21
-1469.9999999999959
 31
0.0
1001
ACDBBLOCKREPETAG
1070
     1
1071
       52
1005
127E7F
  0
LINE
  5
127E80
  8
OBJECT
 10
10456.0
 20
-1516.9999999999959
 30
0.0
 11
10456.0
 21
-1519.9999999999959
 31
0.0
1001
ACDBBLOCKREPETAG
1070
     1
1071
       53
1005
127E80
  0
LINE
  5
127E81
  8
OBJECT
 10
10456.0
 20
-1519.9999999999959
 30
0.0
 11
10466.0
 21
-1519.9999999999959
 31
0.0
1001
ACDBBLOCKREPETAG
1070
     1
1071
       54
1005
127E81
  0
LINE
  5
127E82
  8
OBJECT
 10
10451.18504542377
 20
-1516.9999999999959
 30
0.0
 11
10470.814954576221
 21
-1516.9999999999959
 31
0.0
1001
ACDBBLOCKREPETAG
1070
     1
1071
       55
1005
127E82
  0
LINE
  5
127E83
  8
OBJECT
 10
10466.0
 20
-1519.9999999999959
 30
0.0
 11
10466.0
 21
-1516.9999999999959
 31
0.0
1001
ACDBBLOCKREPETAG
1070
     1
1071
       56
1005
127E83
  0
LINE
  5
127E84
  8
OBJECT
 10
10476.0
 20
-1467.9999999999959
 30
0.0
 11
10468.5
 21
-1464.9999999999959
 31
0.0
1001
ACDBBLOCKREPETAG
1070
     1
1071
       57
1005
127E84
  0
LINE
  5
127E85
  8
OBJECT
 10
10451.18504542377
 20
-1508.9999999999959
 30
0.0
 11
10451.18504542377
 21
-1516.9999999999959
 31
0.0
1001
ACDBBLOCKREPETAG
1070
     1
1071
      630
1005
127E85
  0
LINE
  5
127E86
  8
OBJECT
 10
10456.09252271189
 20
-1508.9999999999959
 30
0.0
 11
10456.09252271189
 21
-1516.9999999999959
 31
0.0
1001
ACDBBLOCKREPETAG
1070
     1
1071
      631
1005
127E86
  0
LINE
  5
127E87
  8
OBJECT
 10
10465.90747728811
 20
-1508.9999999999959
 30
0.0
 11
10465.90747728811
 21
-1516.9999999999959
 31
0.0
1001
ACDBBLOCKREPETAG
1070
     1
1071
      632
1005
127E87
  0
LINE
  5
127E88
  8
OBJECT
 10
10470.814954576221
 20
-1508.9999999999959
 30
0.0
 11
10470.814954576221
 21
-1516.9999999999959
 31
0.0
1001
ACDBBLOCKREPETAG
1070
     1
1071
      633
1005
127E88
  0
LINE
  5
127E89
  8
OBJECT
 10
10568.18504542377
 20
-1516.9999999999959
 30
0.0
 11
10587.814954576221
 21
-1516.9999999999959
 31
0.0
1001
ACDBBLOCKREPETAG
1070
     1
1071
      634
1005
127E89
  0
LINE
  5
127E8A
  8
OBJECT
 10
10568.18504542377
 20
-1508.9999999999959
 30
0.0
 11
10568.18504542377
 21
-1516.9999999999959
 31
0.0
1001
ACDBBLOCKREPETAG
1070
     1
1071
      635
1005
127E8A
  0
LINE
  5
127E8B
  8
OBJECT
 10
10573.09252271189
 20
-1508.9999999999959
 30
0.0
 11
10573.09252271189
 21
-1516.9999999999959
 31
0.0
1001
ACDBBLOCKREPETAG
1070
     1
1071
      636
1005
127E8B
  0
LINE
  5
127E8C
  8
OBJECT
 10
10582.90747728811
 20
-1508.9999999999959
 30
0.0
 11
10582.90747728811
 21
-1516.9999999999959
 31
0.0
1001
ACDBBLOCKREPETAG
1070
     1
1071
      637
1005
127E8C
  0
LINE
  5
127E8D
  8
OBJECT
 10
10587.814954576221
 20
-1508.9999999999959
 30
0.0
 11
10587.814954576221
 21
-1516.9999999999959
 31
0.0
1001
ACDBBLOCKREPETAG
1070
     1
1071
      638
1005
127E8D
  0
LINE
  5
127E8E
  8
OBJECT
 10
8443.0
 20
-1484.9999999999959
 30
0.0
 11
8557.0
 21
-1484.9999999999959
 31
0.0
1001
ACDBBLOCKREPETAG
1070
     1
1071
        0
1005
127E8E
  0
LINE
  5
127E8F
  8
OBJECT
 10
8443.0
 20
-1484.9999999999959
 30
0.0
 11
8443.0
 21
-1384.9999999999959
 31
0.0
1001
ACDBBLOCKREPETAG
1070
     1
1071
        1
1005
127E8F
  0
LINE
  5
127E90
  8
OBJECT
 10
8557.0
 20
-1484.9999999999959
 30
0.0
 11
8557.0
 21
-1384.9999999999959
 31
0.0
1001
ACDBBLOCKREPETAG
1070
     1
1071
        2
1005
127E90
  0
LINE
  5
127E91
  8
OBJECT
 10
8443.0
 20
-1384.9999999999959
 30
0.0
 11
8557.0
 21
-1384.9999999999959
 31
0.0
1001
ACDBBLOCKREPETAG
1070
     1
1071
        3
1005
127E91
  0
LINE
  5
127E92
  8
HIDDEN
 10
8450.0
 20
-1384.9999999999959
 30
0.0
 11
8450.0
 21
-1484.9999999999959
 31
0.0
1001
ACDBBLOCKREPETAG
1070
     1
1071
        4
1005
127E92
  0
LINE
  5
127E93
  8
HIDDEN
 10
8550.0
 20
-1384.9999999999959
 30
0.0
 11
8550.0
 21
-1484.9999999999959
 31
0.0
1001
ACDBBLOCKREPETAG
1070
     1
1071
        5
1005
127E93
  0
LINE
  5
127E94
  8
CENTER
 10
8500.0
 20
-1175.0
 30
0.0
 11
8500.0
 21
-1499.9999999999959
 31
0.0
1001
ACDBBLOCKREPETAG
1070
     1
1071
        6
1005
127E94
  0
LINE
  5
127E95
  8
OBJECT
 10
8425.0
 20
-1175.0
 30
0.0
 11
8425.0
 21
-1256.9999999999959
 31
0.0
1001
ACDBBLOCKREPETAG
1070
     1
1071
        7
1005
127E95
  0
LINE
  5
127E96
  8
OBJECT
 10
8575.0
 20
-1175.0
 30
0.0
 11
8575.0
 21
-1256.9999999999959
 31
0.0
1001
ACDBBLOCKREPETAG
1070
     1
1071
        8
1005
127E96
  0
LINE
  5
127E97
  8
OBJECT
 10
8425.0
 20
-1256.9999999999959
 30
0.0
 11
8575.0
 21
-1256.9999999999959
 31
0.0
1001
ACDBBLOCKREPETAG
1070
     1
1071
        9
1005
127E97
  0
LINE
  5
127E98
  8
OBJECT
 10
8425.0
 20
-1256.9999999999959
 30
0.0
 11
8443.0
 21
-1384.9999999999959
 31
0.0
1001
ACDBBLOCKREPETAG
1070
     1
1071
       10
1005
127E98
  0
LINE
  5
127E99
  8
OBJECT
 10
8557.0
 20
-1384.9999999999959
 30
0.0
 11
8575.0
 21
-1256.9999999999959
 31
0.0
1001
ACDBBLOCKREPETAG
1070
     1
1071
       11
1005
127E99
  0
LINE
  5
127E9A
  8
OBJECT
 10
6585.9999999999927
 20
-1508.9999999999991
 30
0.0
 11
6585.9999999999927
 21
-1518.9999999999991
 31
0.0
1001
ACDBBLOCKREPETAG
1070
     1
1071
      121
1005
127E9A
  0
LINE
  5
127E9B
  8
OBJECT
 10
6569.9999999999927
 20
-1508.9999999999991
 30
0.0
 11
6569.9999999999927
 21
-1518.9999999999991
 31
0.0
1001
ACDBBLOCKREPETAG
1070
     1
1071
      122
1005
127E9B
  0
LINE
  5
127E9C
  8
OBJECT
 10
6585.9999999999927
 20
-1518.9999999999991
 30
0.0
 11
6569.9999999999927
 21
-1518.9999999999991
 31
0.0
1001
ACDBBLOCKREPETAG
1070
     1
1071
      123
1005
127E9C
  0
LINE
  5
127E9D
  8
OBJECT
 10
6590.0
 20
-1469.9999999999959
 30
0.0
 11
6424.0
 21
-1469.9999999999959
 31
0.0
1001
ACDBBLOCKREPETAG
1070
     1
1071
      124
1005
127E9D
  0
LINE
  5
127E9E
  8
OBJECT
 10
6590.0
 20
-1484.9999999999991
 30
0.0
 11
6590.0
 21
-1469.9999999999959
 31
0.0
1001
ACDBBLOCKREPETAG
1070
     1
1071
      125
1005
127E9E
  0
LINE
  5
127E9F
  8
OBJECT
 10
6424.0
 20
-1484.9999999999991
 30
0.0
 11
6590.0
 21
-1484.9999999999991
 31
0.0
1001
ACDBBLOCKREPETAG
1070
     1
1071
      126
1005
127E9F
  0
LINE
  5
127EA0
  8
OBJECT
 10
6567.4999999999873
 20
-1484.9999999999991
 30
0.0
 11
6567.4999999999873
 21
-1494.9999999999991
 31
0.0
1001
ACDBBLOCKREPETAG
1070
     1
1071
      127
1005
127EA0
  0
LINE
  5
127EA1
  8
OBJECT
 10
6572.9999999999927
 20
-1494.9999999999991
 30
0.0
 11
6572.9999999999927
 21
-1484.9999999999991
 31
0.0
1001
ACDBBLOCKREPETAG
1070
     1
1071
      128
1005
127EA1
  0
LINE
  5
127EA2
  8
OBJECT
 10
6582.9999999999927
 20
-1494.9999999999991
 30
0.0
 11
6582.9999999999927
 21
-1484.9999999999991
 31
0.0
1001
ACDBBLOCKREPETAG
1070
     1
1071
      129
1005
127EA2
  0
LINE
  5
127EA3
  8
OBJECT
 10
6424.0
 20
-1494.9999999999991
 30
0.0
 11
6424.0
 21
-1508.9999999999959
 31
0.0
1001
ACDBBLOCKREPETAG
1070
     1
1071
      130
1005
127EA3
  0
LINE
  5
127EA4
  8
OBJECT
 10
6590.0
 20
-1494.9999999999991
 30
0.0
 11
6590.0
 21
-1508.9999999999959
 31
0.0
1001
ACDBBLOCKREPETAG
1070
     1
1071
      131
1005
127EA4
  0
LINE
  5
127EA5
  8
OBJECT
 10
6424.0
 20
-1508.9999999999959
 30
0.0
 11
6590.0
 21
-1508.9999999999959
 31
0.0
1001
ACDBBLOCKREPETAG
1070
     1
1071
      132
1005
127EA5
  0
LINE
  5
127EA6
  8
OBJECT
 10
6424.0
 20
-1494.9999999999991
 30
0.0
 11
6590.0
 21
-1494.9999999999991
 31
0.0
1001
ACDBBLOCKREPETAG
1070
     1
1071
      133
1005
127EA6
  0
LINE
  5
127EA7
  8
OBJECT
 10
6432.4999999999864
 20
-1484.9999999999991
 30
0.0
 11
6432.4999999999864
 21
-1494.9999999999991
 31
0.0
1001
ACDBBLOCKREPETAG
1070
     1
1071
      134
1005
127EA7
  0
LINE
  5
127EA8
  8
OBJECT
 10
6434.0
 20
-1433.9999999999959
 30
0.0
 11
6565.9999999999918
 21
-1433.9999999999959
 31
0.0
1001
ACDBBLOCKREPETAG
1070
     1
1071
      135
1005
127EA8
  0
LINE
  5
127EA9
  8
OBJECT
 10
6424.0
 20
-1484.9999999999991
 30
0.0
 11
6424.0
 21
-1469.9999999999959
 31
0.0
1001
ACDBBLOCKREPETAG
1070
     1
1071
      136
1005
127EA9
  0
LINE
  5
127EAA
  8
HIDDEN
 10
6443.0
 20
-1444.9999999999991
 30
0.0
 11
6557.0
 21
-1444.9999999999991
 31
0.0
1001
ACDBBLOCKREPETAG
1070
     1
1071
      137
1005
127EAA
  0
LINE
  5
127EAB
  8
OBJECT
 10
6586.9999999999927
 20
-1468.2
 30
0.0
 11
6586.9999999999927
 21
-1469.9999999999991
 31
0.0
1001
ACDBBLOCKREPETAG
1070
     1
1071
      138
1005
127EAB
  0
LINE
  5
127EAC
  8
OBJECT
 10
6568.9999999999909
 20
-1468.2
 30
0.0
 11
6568.9999999999909
 21
-1469.9999999999991
 31
0.0
1001
ACDBBLOCKREPETAG
1070
     1
1071
      139
1005
127EAC
  0
LINE
  5
127EAD
  8
OBJECT
 10
6572.2499999999927
 20
-1458.4999999999991
 30
0.0
 11
6583.7499999999927
 21
-1458.4999999999991
 31
0.0
1001
ACDBBLOCKREPETAG
1070
     1
1071
      140
1005
127EAD
  0
LINE
  5
127EAE
  8
OBJECT
 10
6572.2499999999927
 20
-1458.4999999999991
 30
0.0
 11
6572.2499999999927
 21
-1468.2
 31
0.0
1001
ACDBBLOCKREPETAG
1070
     1
1071
      141
1005
127EAE
  0
LINE
  5
127EAF
  8
OBJECT
 10
6583.7499999999927
 20
-1458.4999999999991
 30
0.0
 11
6583.7499999999927
 21
-1468.2
 31
0.0
1001
ACDBBLOCKREPETAG
1070
     1
1071
      142
1005
127EAF
  0
LINE
  5
127EB0
  8
OBJECT
 10
6431.9999999999873
 20
-1550.0
 30
0.0
 11
6567.9999999999873
 21
-1550.0
 31
0.0
1001
ACDBBLOCKREPETAG
1070
     1
1071
      143
1005
127EB0
  0
LINE
  5
127EB1
  8
OBJECT
 10
6431.9999999999873
 20
-1550.0
 30
0.0
 11
6431.9999999999873
 21
-1508.9999999999991
 31
0.0
1001
ACDBBLOCKREPETAG
1070
     1
1071
      144
1005
127EB1
  0
LINE
  5
127EB2
  8
OBJECT
 10
6567.9999999999873
 20
-1550.0
 30
0.0
 11
6567.9999999999873
 21
-1508.9999999999991
 31
0.0
1001
ACDBBLOCKREPETAG
1070
     1
1071
      145
1005
127EB2
  0
LINE
  5
127EB3
  8
OBJECT
 10
6586.9999999999927
 20
-1468.2
 30
0.0
 11
6568.9999999999909
 21
-1468.2
 31
0.0
1001
ACDBBLOCKREPETAG
1070
     1
1071
      146
1005
127EB3
  0
LINE
  5
127EB4
  8
CENTER
 10
6500.0
 20
-1174.9999999999991
 30
0.0
 11
6500.0
 21
-1564.9999999999991
 31
0.0
1001
ACDBBLOCKREPETAG
1070
     1
1071
      147
1005
127EB4
  0
LINE
  5
127EB5
  8
OBJECT
 10
6425.0
 20
-1174.9999999999991
 30
0.0
 11
6425.0
 21
-1256.9999999999959
 31
0.0
1001
ACDBBLOCKREPETAG
1070
     1
1071
      148
1005
127EB5
  0
LINE
  5
127EB6
  8
OBJECT
 10
6575.0
 20
-1174.9999999999991
 30
0.0
 11
6575.0
 21
-1256.999999999992
 31
0.0
1001
ACDBBLOCKREPETAG
1070
     1
1071
      149
1005
127EB6
  0
LINE
  5
127EB7
  8
OBJECT
 10
6425.0
 20
-1256.9999999999959
 30
0.0
 11
6575.0
 21
-1256.999999999992
 31
0.0
1001
ACDBBLOCKREPETAG
1070
     1
1071
      150
1005
127EB7
  0
LINE
  5
127EB8
  8
OBJECT
 10
6443.0
 20
-1433.9999999999959
 30
0.0
 11
6443.0
 21
-1384.999999999992
 31
0.0
1001
ACDBBLOCKREPETAG
1070
     1
1071
      151
1005
127EB8
  0
LINE
  5
127EB9
  8
OBJECT
 10
6557.0
 20
-1384.999999999992
 30
0.0
 11
6443.0
 21
-1384.999999999992
 31
0.0
1001
ACDBBLOCKREPETAG
1070
     1
1071
      152
1005
127EB9
  0
LINE
  5
127EBA
  8
OBJECT
 10
6557.0
 20
-1384.999999999992
 30
0.0
 11
6557.0
 21
-1433.9999999999959
 31
0.0
1001
ACDBBLOCKREPETAG
1070
     1
1071
      153
1005
127EBA
  0
LINE
  5
127EBB
  8
OBJECT
 10
6425.0
 20
-1256.9999999999959
 30
0.0
 11
6443.0
 21
-1384.999999999992
 31
0.0
1001
ACDBBLOCKREPETAG
1070
     1
1071
      154
1005
127EBB
  0
LINE
  5
127EBC
  8
OBJECT
 10
6557.0
 20
-1384.999999999992
 30
0.0
 11
6575.0
 21
-1256.999999999992
 31
0.0
1001
ACDBBLOCKREPETAG
1070
     1
1071
      155
1005
127EBC
  0
LINE
  5
127EBD
  8
OBJECT
 10
6434.0
 20
-1469.9999999999959
 30
0.0
 11
6434.0
 21
-1433.9999999999959
 31
0.0
1001
ACDBBLOCKREPETAG
1070
     1
1071
      156
1005
127EBD
  0
LINE
  5
127EBE
  8
OBJECT
 10
6566.0
 20
-1469.9999999999959
 30
0.0
 11
6565.9999999999918
 21
-1433.9999999999959
 31
0.0
1001
ACDBBLOCKREPETAG
1070
     1
1071
      157
1005
127EBE
  0
LINE
  5
127EBF
  8
OBJECT
 10
6454.75
 20
-1459.699999999993
 30
0.0
 11
6467.2499999999991
 21
-1459.699999999993
 31
0.0
1001
ACDBBLOCKREPETAG
1070
     1
1071
      158
1005
127EBF
  0
LINE
  5
127EC0
  8
OBJECT
 10
6446.0
 20
-1469.9999999999959
 30
0.0
 11
6446.0
 21
-1467.699999999996
 31
0.0
1001
ACDBBLOCKREPETAG
1070
     1
1071
      159
1005
127EC0
  0
LINE
  5
127EC1
  8
OBJECT
 10
6476.0
 20
-1469.9999999999959
 30
0.0
 11
6476.0
 21
-1467.699999999996
 31
0.0
1001
ACDBBLOCKREPETAG
1070
     1
1071
      160
1005
127EC1
  0
LINE
  5
127EC2
  8
OBJECT
 10
6454.75
 20
-1459.699999999993
 30
0.0
 11
6454.75
 21
-1467.699999999996
 31
0.0
1001
ACDBBLOCKREPETAG
1070
     1
1071
      161
1005
127EC2
  0
LINE
  5
127EC3
  8
OBJECT
 10
6467.2499999999991
 20
-1459.699999999993
 30
0.0
 11
6467.2499999999991
 21
-1467.699999999996
 31
0.0
1001
ACDBBLOCKREPETAG
1070
     1
1071
      162
1005
127EC3
  0
LINE
  5
127EC4
  8
OBJECT
 10
6446.0
 20
-1467.699999999996
 30
0.0
 11
6476.0
 21
-1467.699999999996
 31
0.0
1001
ACDBBLOCKREPETAG
1070
     1
1071
      163
1005
127EC4
  0
LINE
  5
127EC5
  8
OBJECT
 10
6453.0
 20
-1508.9999999999959
 30
0.0
 11
6453.0
 21
-1518.9999999999959
 31
0.0
1001
ACDBBLOCKREPETAG
1070
     1
1071
      164
1005
127EC5
  0
LINE
  5
127EC6
  8
OBJECT
 10
6469.0
 20
-1508.9999999999959
 30
0.0
 11
6469.0
 21
-1518.9999999999959
 31
0.0
1001
ACDBBLOCKREPETAG
1070
     1
1071
      165
1005
127EC6
  0
LINE
  5
127EC7
  8
OBJECT
 10
6453.0
 20
-1518.9999999999959
 30
0.0
 11
6469.0
 21
-1518.9999999999959
 31
0.0
1001
ACDBBLOCKREPETAG
1070
     1
1071
      166
1005
127EC7
  0
LINE
  5
127EC8
  8
OBJECT
 10
6466.0
 20
-1494.9999999999959
 30
0.0
 11
6466.0
 21
-1484.9999999999959
 31
0.0
1001
ACDBBLOCKREPETAG
1070
     1
1071
      167
1005
127EC8
  0
LINE
  5
127EC9
  8
OBJECT
 10
6456.0
 20
-1494.9999999999959
 30
0.0
 11
6456.0
 21
-1484.9999999999959
 31
0.0
1001
ACDBBLOCKREPETAG
1070
     1
1071
      168
1005
127EC9
  0
LINE
  5
127ECA
  8
OBJECT
 10
4590.0
 20
-1469.9999999999959
 30
0.0
 11
4424.0
 21
-1469.9999999999959
 31
0.0
1001
ACDBBLOCKREPETAG
1070
     1
1071
       12
1005
127ECA
  0
LINE
  5
127ECB
  8
OBJECT
 10
4566.0
 20
-1433.9999999999959
 30
0.0
 11
4434.0
 21
-1433.9999999999959
 31
0.0
1001
ACDBBLOCKREPETAG
1070
     1
1071
       13
1005
127ECB
  0
LINE
  5
127ECC
  8
OBJECT
 10
4590.0
 20
-1485.0
 30
0.0
 11
4590.0
 21
-1469.9999999999959
 31
0.0
1001
ACDBBLOCKREPETAG
1070
     1
1071
       14
1005
127ECC
  0
LINE
  5
127ECD
  8
OBJECT
 10
4424.0
 20
-1485.0
 30
0.0
 11
4590.0
 21
-1485.0
 31
0.0
1001
ACDBBLOCKREPETAG
1070
     1
1071
       15
1005
127ECD
  0
LINE
  5
127ECE
  8
OBJECT
 10
4567.4999999999864
 20
-1485.0
 30
0.0
 11
4567.4999999999864
 21
-1495.0
 31
0.0
1001
ACDBBLOCKREPETAG
1070
     1
1071
       16
1005
127ECE
  0
LINE
  5
127ECF
  8
OBJECT
 10
4424.0
 20
-1495.0
 30
0.0
 11
4424.0
 21
-1508.9999999999959
 31
0.0
1001
ACDBBLOCKREPETAG
1070
     1
1071
       17
1005
127ECF
  0
LINE
  5
127ED0
  8
OBJECT
 10
4590.0
 20
-1495.0
 30
0.0
 11
4590.0
 21
-1508.9999999999959
 31
0.0
1001
ACDBBLOCKREPETAG
1070
     1
1071
       18
1005
127ED0
  0
LINE
  5
127ED1
  8
OBJECT
 10
4424.0
 20
-1508.9999999999959
 30
0.0
 11
4590.0
 21
-1508.9999999999959
 31
0.0
1001
ACDBBLOCKREPETAG
1070
     1
1071
       19
1005
127ED1
  0
LINE
  5
127ED2
  8
OBJECT
 10
4424.0
 20
-1495.0
 30
0.0
 11
4590.0
 21
-1495.0
 31
0.0
1001
ACDBBLOCKREPETAG
1070
     1
1071
       20
1005
127ED2
  0
LINE
  5
127ED3
  8
OBJECT
 10
4432.4999999999854
 20
-1485.0
 30
0.0
 11
4432.4999999999854
 21
-1495.0
 31
0.0
1001
ACDBBLOCKREPETAG
1070
     1
1071
       21
1005
127ED3
  0
LINE
  5
127ED4
  8
OBJECT
 10
4424.0
 20
-1485.0
 30
0.0
 11
4424.0
 21
-1469.9999999999959
 31
0.0
1001
ACDBBLOCKREPETAG
1070
     1
1071
       22
1005
127ED4
  0
LINE
  5
127ED5
  8
HIDDEN
 10
4443.0
 20
-1445.0
 30
0.0
 11
4557.0
 21
-1445.0
 31
0.0
1001
ACDBBLOCKREPETAG
1070
     1
1071
       23
1005
127ED5
  0
LINE
  5
127ED6
  8
CENTER
 10
4500.0
 20
-1175.0
 30
0.0
 11
4500.0
 21
-1523.9999999999959
 31
0.0
1001
ACDBBLOCKREPETAG
1070
     1
1071
       24
1005
127ED6
  0
LINE
  5
127ED7
  8
OBJECT
 10
4425.0
 20
-1175.0
 30
0.0
 11
4425.0
 21
-1256.9999999999959
 31
0.0
1001
ACDBBLOCKREPETAG
1070
     1
1071
       25
1005
127ED7
  0
LINE
  5
127ED8
  8
OBJECT
 10
4575.0
 20
-1175.0
 30
0.0
 11
4575.0
 21
-1256.999999999993
 31
0.0
1001
ACDBBLOCKREPETAG
1070
     1
1071
       26
1005
127ED8
  0
LINE
  5
127ED9
  8
OBJECT
 10
4425.0
 20
-1256.9999999999959
 30
0.0
 11
4575.0
 21
-1256.999999999993
 31
0.0
1001
ACDBBLOCKREPETAG
1070
     1
1071
       27
1005
127ED9
  0
LINE
  5
127EDA
  8
OBJECT
 10
4557.0
 20
-1433.9999999999959
 30
0.0
 11
4557.0
 21
-1384.999999999992
 31
0.0
1001
ACDBBLOCKREPETAG
1070
     1
1071
       28
1005
127EDA
  0
LINE
  5
127EDB
  8
OBJECT
 10
4443.0
 20
-1433.9999999999959
 30
0.0
 11
4443.0
 21
-1384.999999999992
 31
0.0
1001
ACDBBLOCKREPETAG
1070
     1
1071
       29
1005
127EDB
  0
LINE
  5
127EDC
  8
OBJECT
 10
4557.0
 20
-1384.999999999992
 30
0.0
 11
4443.0
 21
-1384.999999999992
 31
0.0
1001
ACDBBLOCKREPETAG
1070
     1
1071
       30
1005
127EDC
  0
LINE
  5
127EDD
  8
OBJECT
 10
4425.0
 20
-1256.9999999999959
 30
0.0
 11
4443.0
 21
-1384.999999999992
 31
0.0
1001
ACDBBLOCKREPETAG
1070
     1
1071
       31
1005
127EDD
  0
LINE
  5
127EDE
  8
OBJECT
 10
4557.0
 20
-1384.999999999992
 30
0.0
 11
4575.0
 21
-1256.999999999993
 31
0.0
1001
ACDBBLOCKREPETAG
1070
     1
1071
       32
1005
127EDE
  0
LINE
  5
127EDF
  8
OBJECT
 10
4434.0
 20
-1433.9999999999959
 30
0.0
 11
4434.0
 21
-1469.9999999999959
 31
0.0
1001
ACDBBLOCKREPETAG
1070
     1
1071
       33
1005
127EDF
  0
LINE
  5
127EE0
  8
OBJECT
 10
4566.0
 20
-1433.9999999999959
 30
0.0
 11
4566.0
 21
-1469.9999999999959
 31
0.0
1001
ACDBBLOCKREPETAG
1070
     1
1071
       34
1005
127EE0
  0
LINE
  5
127EE1
  8
OBJECT
 10
4582.9999999999927
 20
-1494.9999999999959
 30
0.0
 11
4582.9999999999927
 21
-1484.9999999999959
 31
0.0
1001
ACDBBLOCKREPETAG
1070
     1
1071
       35
1005
127EE1
  0
LINE
  5
127EE2
  8
OBJECT
 10
4572.9999999999918
 20
-1494.9999999999959
 30
0.0
 11
4572.9999999999918
 21
-1484.9999999999959
 31
0.0
1001
ACDBBLOCKREPETAG
1070
     1
1071
       36
1005
127EE2
  0
LINE
  5
127EE3
  8
OBJECT
 10
4568.9999999999864
 20
-1464.9999999999959
 30
0.0
 11
4568.9999999999864
 21
-1469.9999999999959
 31
0.0
1001
ACDBBLOCKREPETAG
1070
     1
1071
       37
1005
127EE3
  0
LINE
  5
127EE4
  8
OBJECT
 10
4587.0
 20
-1464.9999999999959
 30
0.0
 11
4587.0
 21
-1469.9999999999959
 31
0.0
1001
ACDBBLOCKREPETAG
1070
     1
1071
       38
1005
127EE4
  0
LINE
  5
127EE5
  8
OBJECT
 10
4587.0
 20
-1464.9999999999959
 30
0.0
 11
4568.9999999999864
 21
-1464.9999999999959
 31
0.0
1001
ACDBBLOCKREPETAG
1070
     1
1071
       39
1005
127EE5
  0
LINE
  5
127EE6
  8
OBJECT
 10
4573.0
 20
-1516.9999999999959
 30
0.0
 11
4573.0
 21
-1519.9999999999959
 31
0.0
1001
ACDBBLOCKREPETAG
1070
     1
1071
       40
1005
127EE6
  0
LINE
  5
127EE7
  8
OBJECT
 10
4573.0
 20
-1519.9999999999959
 30
0.0
 11
4583.0
 21
-1519.9999999999959
 31
0.0
1001
ACDBBLOCKREPETAG
1070
     1
1071
       41
1005
127EE7
  0
LINE
  5
127EE8
  8
OBJECT
 10
4583.0
 20
-1519.9999999999959
 30
0.0
 11
4583.0
 21
-1516.9999999999959
 31
0.0
1001
ACDBBLOCKREPETAG
1070
     1
1071
       43
1005
127EE8
  0
LINE
  5
127EE9
  8
OBJECT
 10
4468.5
 20
-1464.9999999999959
 30
0.0
 11
4451.9999999999909
 21
-1464.9999999999959
 31
0.0
1001
ACDBBLOCKREPETAG
1070
     1
1071
       48
1005
127EE9
  0
LINE
  5
127EEA
  8
OBJECT
 10
4476.0
 20
-1469.9999999999959
 30
0.0
 11
4476.0
 21
-1467.9999999999959
 31
0.0
1001
ACDBBLOCKREPETAG
1070
     1
1071
       49
1005
127EEA
  0
LINE
  5
127EEB
  8
OBJECT
 10
4466.0
 20
-1494.9999999999959
 30
0.0
 11
4466.0
 21
-1484.9999999999959
 31
0.0
1001
ACDBBLOCKREPETAG
1070
     1
1071
       50
1005
127EEB
  0
LINE
  5
127EEC
  8
OBJECT
 10
4456.0
 20
-1494.9999999999959
 30
0.0
 11
4456.0
 21
-1484.9999999999959
 31
0.0
1001
ACDBBLOCKREPETAG
1070
     1
1071
       51
1005
127EEC
  0
LINE
  5
127EED
  8
OBJECT
 10
4451.9999999999909
 20
-1464.9999999999959
 30
0.0
 11
4451.9999999999909
 21
-1469.9999999999959
 31
0.0
1001
ACDBBLOCKREPETAG
1070
     1
1071
       52
1005
127EED
  0
LINE
  5
127EEE
  8
OBJECT
 10
4456.0
 20
-1516.9999999999959
 30
0.0
 11
4456.0
 21
-1519.9999999999959
 31
0.0
1001
ACDBBLOCKREPETAG
1070
     1
1071
       53
1005
127EEE
  0
LINE
  5
127EEF
  8
OBJECT
 10
4456.0
 20
-1519.9999999999959
 30
0.0
 11
4466.0
 21
-1519.9999999999959
 31
0.0
1001
ACDBBLOCKREPETAG
1070
     1
1071
       54
1005
127EEF
  0
LINE
  5
127EF0
  8
OBJECT
 10
4451.185045423772
 20
-1516.9999999999959
 30
0.0
 11
4470.8149545762208
 21
-1516.9999999999959
 31
0.0
1001
ACDBBLOCKREPETAG
1070
     1
1071
       55
1005
127EF0
  0
LINE
  5
127EF1
  8
OBJECT
 10
4466.0
 20
-1519.9999999999959
 30
0.0
 11
4466.0
 21
-1516.9999999999959
 31
0.0
1001
ACDBBLOCKREPETAG
1070
     1
1071
       56
1005
127EF1
  0
LINE
  5
127EF2
  8
OBJECT
 10
4476.0
 20
-1467.9999999999959
 30
0.0
 11
4468.5
 21
-1464.9999999999959
 31
0.0
1001
ACDBBLOCKREPETAG
1070
     1
1071
       57
1005
127EF2
  0
LINE
  5
127EF3
  8
OBJECT
 10
4451.1850454237756
 20
-1508.9999999999959
 30
0.0
 11
4451.1850454237756
 21
-1516.9999999999959
 31
0.0
1001
ACDBBLOCKREPETAG
1070
     1
1071
      630
1005
127EF3
  0
LINE
  5
127EF4
  8
OBJECT
 10
4456.0925227118869
 20
-1508.9999999999959
 30
0.0
 11
4456.0925227118869
 21
-1516.9999999999959
 31
0.0
1001
ACDBBLOCKREPETAG
1070
     1
1071
      631
1005
127EF4
  0
LINE
  5
127EF5
  8
OBJECT
 10
4465.9074772881113
 20
-1508.9999999999959
 30
0.0
 11
4465.9074772881113
 21
-1516.9999999999959
 31
0.0
1001
ACDBBLOCKREPETAG
1070
     1
1071
      632
1005
127EF5
  0
LINE
  5
127EF6
  8
OBJECT
 10
4470.8149545762226
 20
-1508.9999999999959
 30
0.0
 11
4470.8149545762226
 21
-1516.9999999999959
 31
0.0
1001
ACDBBLOCKREPETAG
1070
     1
1071
      633
1005
127EF6
  0
LINE
  5
127EF7
  8
OBJECT
 10
4568.185045423772
 20
-1516.9999999999959
 30
0.0
 11
4587.814954576219
 21
-1516.9999999999959
 31
0.0
1001
ACDBBLOCKREPETAG
1070
     1
1071
      634
1005
127EF7
  0
LINE
  5
127EF8
  8
OBJECT
 10
4568.1850454237783
 20
-1508.9999999999959
 30
0.0
 11
4568.1850454237783
 21
-1516.9999999999959
 31
0.0
1001
ACDBBLOCKREPETAG
1070
     1
1071
      635
1005
127EF8
  0
LINE
  5
127EF9
  8
OBJECT
 10
4573.0925227118869
 20
-1508.9999999999959
 30
0.0
 11
4573.0925227118869
 21
-1516.9999999999959
 31
0.0
1001
ACDBBLOCKREPETAG
1070
     1
1071
      636
1005
127EF9
  0
LINE
  5
127EFA
  8
OBJECT
 10
4582.9074772881122
 20
-1508.9999999999959
 30
0.0
 11
4582.9074772881122
 21
-1516.9999999999959
 31
0.0
1001
ACDBBLOCKREPETAG
1070
     1
1071
      637
1005
127EFA
  0
LINE
  5
127EFB
  8
OBJECT
 10
4587.8149545762226
 20
-1508.9999999999959
 30
0.0
 11
4587.8149545762226
 21
-1516.9999999999959
 31
0.0
1001
ACDBBLOCKREPETAG
1070
     1
1071
      638
1005
127EFB
  0
LINE
  5
127EFC
  8
CENTER
 10
12409.0
 20
-1758.9999999999959
 30
0.0
 11
12605.0
 21
-1758.9999999999959
 31
0.0
1001
ACDBBLOCKREPETAG
1070
     1
1071
       10
1005
127EFC
  0
LINE
  5
127EFD
  8
CENTER
 10
12500.0
 20
-1667.7253355707801
 30
0.0
 11
12500.0
 21
-1850.274664429212
 31
0.0
1001
ACDBBLOCKREPETAG
1070
     1
1071
       11
1005
127EFD
  0
CIRCLE
  5
127EFE
  8
OBJECT
 10
12500.0
 20
-1758.9999999999959
 30
0.0
 40
50.0
1001
ACDBBLOCKREPETAG
1070
     1
1071
       12
1005
127EFE
  0
CIRCLE
  5
127EFF
  8
OBJECT
 10
12500.0
 20
-1758.9999999999959
 30
0.0
 40
60.0
1001
ACDBBLOCKREPETAG
1070
     1
1071
       13
1005
127EFF
  0
CIRCLE
  5
127F00
  8
OBJECT
 10
12500.0
 20
-1758.9999999999959
 30
0.0
 40
68.0
1001
ACDBBLOCKREPETAG
1070
     1
1071
       14
1005
127F00
  0
ARC
  5
127F01
  8
OBJECT
 10
12577.5
 20
-1758.9999999999959
 30
0.0
 40
12.0
 50
272.10542627221611
 51
87.894573727783893
1001
ACDBBLOCKREPETAG
1070
     1
1071
       15
1005
127F01
  0
ARC
  5
127F02
  8
OBJECT
 10
12578.49193548386
 20
-1732.0182271895239
 30
0.0
 40
15.0
 50
198.97051877965251
 51
267.89457372778372
1001
ACDBBLOCKREPETAG
1070
     1
1071
       16
1005
127F02
  0
ARC
  5
127F03
  8
OBJECT
 10
12578.49193548386
 20
-1785.981772810464
 30
0.0
 40
15.0
 50
92.105426272216135
 51
161.02948122034729
1001
ACDBBLOCKREPETAG
1070
     1
1071
       17
1005
127F03
  0
CIRCLE
  5
127F04
  8
SLIM
 10
12578.0
 20
-1758.9999999999959
 30
0.0
 40
8.0
1001
ACDBBLOCKREPETAG
1070
     1
1071
       18
1005
127F04
  0
POLYLINE
  5
127F05
  8
SLIM
 66
     1
 10
0.0
 20
0.0
 30
0.0
 70
     1
1001
ACDBBLOCKREPETAG
1070
     1
1071
       19
1005
127F05
  0
VERTEX
  5
128907
  8
SLIM
 10
12575.690598923229
 20
-1754.9999999999959
 30
0.0
  0
VERTEX
  5
128908
  8
SLIM
 10
12573.38119784648
 20
-1758.9999999999959
 30
0.0
  0
VERTEX
  5
128909
  8
SLIM
 10
12575.690598923229
 20
-1762.9999999999959
 30
0.0
  0
VERTEX
  5
12890A
  8
SLIM
 10
12580.309401076751
 20
-1762.9999999999959
 30
0.0
  0
VERTEX
  5
12890B
  8
SLIM
 10
12582.618802153511
 20
-1758.9999999999959
 30
0.0
  0
VERTEX
  5
12890C
  8
SLIM
 10
12580.309401076751
 20
-1754.9999999999959
 30
0.0
  0
SEQEND
  5
12890D
  8
SLIM
  0
ARC
  5
127F06
  8
OBJECT
 10
12461.25
 20
-1691.8830312067
 30
0.0
 40
12.0
 50
32.105426272130188
 51
207.89457372768319
1001
ACDBBLOCKREPETAG
1070
     1
1071
       20
1005
127F06
  0
ARC
  5
127F07
  8
OBJECT
 10
12437.38713156505
 20
-1704.514876283989
 30
0.0
 40
15.0
 50
318.97051877944762
 51
27.89457372768311
1001
ACDBBLOCKREPETAG
1070
     1
1071
       21
1005
127F07
  0
ARC
  5
127F08
  8
OBJECT
 10
12484.120932951069
 20
-1677.533103473517
 30
0.0
 40
15.0
 50
212.10542627213019
 51
281.02948122044069
1001
ACDBBLOCKREPETAG
1070
     1
1071
       22
1005
127F08
  0
CIRCLE
  5
127F09
  8
SLIM
 10
12461.0
 20
-1691.4500185048089
 30
0.0
 40
7.9999999999999982
1001
ACDBBLOCKREPETAG
1070
     1
1071
       23
1005
127F09
  0
POLYLINE
  5
127F0A
  8
SLIM
 66
     1
 10
0.0
 20
0.0
 30
0.0
 70
     1
1001
ACDBBLOCKREPETAG
1070
     1
1071
       24
1005
127F0A
  0
VERTEX
  5
12890E
  8
SLIM
 10
12458.69059892324
 20
-1695.450018504808
 30
0.0
  0
VERTEX
  5
12890F
  8
SLIM
 10
12463.309401076751
 20
-1695.450018504808
 30
0.0
  0
VERTEX
  5
128910
  8
SLIM
 10
12465.618802153511
 20
-1691.4500185048089
 30
0.0
  0
VERTEX
  5
128911
  8
SLIM
 10
12463.309401076751
 20
-1687.4500185048089
 30
0.0
  0
VERTEX
  5
128912
  8
SLIM
 10
12458.69059892324
 20
-1687.4500185048089
 30
0.0
  0
VERTEX
  5
128913
  8
SLIM
 10
12456.38119784648
 20
-1691.4500185048089
 30
0.0
  0
SEQEND
  5
128914
  8
SLIM
  0
ARC
  5
127F0B
  8
OBJECT
 10
12461.25
 20
-1826.1169687932891
 30
0.0
 40
12.0
 50
152.10542627231681
 51
327.89457372786978
1001
ACDBBLOCKREPETAG
1070
     1
1071
       25
1005
127F0B
  0
ARC
  5
127F0C
  8
OBJECT
 10
12484.120932951069
 20
-1840.4668965264721
 30
0.0
 40
15.0
 50
78.970518779559228
 51
147.89457372786981
1001
ACDBBLOCKREPETAG
1070
     1
1071
       26
1005
127F0C
  0
ARC
  5
127F0D
  8
OBJECT
 10
12437.38713156505
 20
-1813.485123716004
 30
0.0
 40
15.0
 50
332.10542627231678
 51
41.029481220552412
1001
ACDBBLOCKREPETAG
1070
     1
1071
       27
1005
127F0D
  0
CIRCLE
  5
127F0E
  8
SLIM
 10
12461.0
 20
-1826.5499814951829
 30
0.0
 40
8.0
1001
ACDBBLOCKREPETAG
1070
     1
1071
       28
1005
127F0E
  0
POLYLINE
  5
127F0F
  8
SLIM
 66
     1
 10
0.0
 20
0.0
 30
0.0
 70
     1
1001
ACDBBLOCKREPETAG
1070
     1
1071
       29
1005
127F0F
  0
VERTEX
  5
128915
  8
SLIM
 10
12465.618802153511
 20
-1826.54998149518
 30
0.0
  0
VERTEX
  5
128916
  8
SLIM
 10
12463.309401076751
 20
-1822.5499814951829
 30
0.0
  0
VERTEX
  5
128917
  8
SLIM
 10
12458.69059892324
 20
-1822.54998149518
 30
0.0
  0
VERTEX
  5
128918
  8
SLIM
 10
12456.38119784648
 20
-1826.5499814951829
 30
0.0
  0
VERTEX
  5
128919
  8
SLIM
 10
12458.69059892322
 20
-1830.54998149518
 30
0.0
  0
VERTEX
  5
12891A
  8
SLIM
 10
12463.309401076751
 20
-1830.5499814951841
 30
0.0
  0
SEQEND
  5
12891B
  8
SLIM
  0
ARC
  5
127F10
  8
OBJECT
 10
12500.0
 20
-1758.9999999999959
 30
0.0
 40
76.0
 50
34.863837954171863
 51
85.136162045732945
1001
ACDBBLOCKREPETAG
1070
     1
1071
       42
1005
127F10
  0
ARC
  5
127F11
  8
OBJECT
 10
12500.0
 20
-1758.9999999999959
 30
0.0
 40
76.0
 50
154.86383795430939
 51
205.1361620456905
1001
ACDBBLOCKREPETAG
1070
     1
1071
       43
1005
127F11
  0
ARC
  5
127F12
  8
OBJECT
 10
12500.0
 20
-1758.9999999999959
 30
0.0
 40
76.0
 50
274.86383795426718
 51
325.13616204582797
1001
ACDBBLOCKREPETAG
1070
     1
1071
       44
1005
127F12
  0
ARC
  5
127F13
  8
OBJECT
 10
12578.0
 20
-1758.9999999999959
 30
0.0
 40
12.0
 50
325.13616204582797
 51
34.863837954171863
1001
ACDBBLOCKREPETAG
1070
     1
1071
       45
1005
127F13
  0
LINE
  5
127F14
  8
OBJECT
 10
12587.84615384616
 20
-1752.140462520134
 30
0.0
 11
12562.35897435904
 21
-1715.556262627535
 31
0.0
1001
ACDBBLOCKREPETAG
1070
     1
1071
       46
1005
127F14
  0
LINE
  5
127F15
  8
OBJECT
 10
12587.846153846171
 20
-1765.859537479857
 30
0.0
 11
12562.35897435904
 21
-1802.4437373724591
 31
0.0
1001
ACDBBLOCKREPETAG
1070
     1
1071
       47
1005
127F15
  0
ARC
  5
127F16
  8
OBJECT
 10
12461.0
 20
-1691.4500185048109
 30
0.0
 40
12.0
 50
85.136162045942811
 51
154.86383795410001
1001
ACDBBLOCKREPETAG
1070
     1
1071
       48
1005
127F16
  0
LINE
  5
127F17
  8
OBJECT
 10
12450.13638936114
 20
-1686.3527678843909
 30
0.0
 11
12431.19713262058
 21
-1726.7174127373471
 31
0.0
1001
ACDBBLOCKREPETAG
1070
     1
1071
       49
1005
127F17
  0
LINE
  5
127F18
  8
OBJECT
 10
12462.017456792681
 20
-1679.4932304045269
 30
0.0
 11
12506.443893020371
 21
-1683.273675364886
 31
0.0
1001
ACDBBLOCKREPETAG
1070
     1
1071
       50
1005
127F18
  0
ARC
  5
127F19
  8
OBJECT
 10
12461.0
 20
-1826.549981495182
 30
0.0
 40
12.0
 50
205.13616204589991
 51
274.8638379540572
1001
ACDBBLOCKREPETAG
1070
     1
1071
       51
1005
127F19
  0
LINE
  5
127F1A
  8
OBJECT
 10
12462.01745679269
 20
-1838.506769595464
 30
0.0
 11
12506.44389302036
 21
-1834.7263246351069
 31
0.0
1001
ACDBBLOCKREPETAG
1070
     1
1071
       52
1005
127F1A
  0
LINE
  5
127F1B
  8
OBJECT
 10
12450.13638936114
 20
-1831.647232115605
 30
0.0
 11
12431.19713262058
 21
-1791.282587262642
 31
0.0
1001
ACDBBLOCKREPETAG
1070
     1
1071
       53
1005
127F1B
  0
LINE
  5
127F1C
  8
CENTER
 10
10409.0
 20
-1758.9999999999959
 30
0.0
 11
10605.0
 21
-1758.9999999999959
 31
0.0
1001
ACDBBLOCKREPETAG
1070
     1
1071
        0
1005
127F1C
  0
LINE
  5
127F1D
  8
CENTER
 10
10500.0
 20
-1667.7253355707801
 30
0.0
 11
10500.0
 21
-1850.274664429212
 31
0.0
1001
ACDBBLOCKREPETAG
1070
     1
1071
        1
1005
127F1D
  0
CIRCLE
  5
127F1E
  8
OBJECT
 10
10500.0
 20
-1758.9999999999959
 30
0.0
 40
50.0
1001
ACDBBLOCKREPETAG
1070
     1
1071
        2
1005
127F1E
  0
CIRCLE
  5
127F1F
  8
OBJECT
 10
10500.0
 20
-1758.9999999999959
 30
0.0
 40
62.0
1001
ACDBBLOCKREPETAG
1070
     1
1071
        3
1005
127F1F
  0
CIRCLE
  5
127F20
  8
SLIM
 10
10578.0
 20
-1758.9999999999959
 30
0.0
 40
5.0
1001
ACDBBLOCKREPETAG
1070
     1
1071
        4
1005
127F20
  0
POLYLINE
  5
127F21
  8
SLIM
 66
     1
 10
0.0
 20
0.0
 30
0.0
 70
     1
1001
ACDBBLOCKREPETAG
1070
     1
1071
        5
1005
127F21
  0
VERTEX
  5
12891C
  8
SLIM
 10
10573.092522711881
 20
-1750.4999999999959
 30
0.0
  0
VERTEX
  5
12891D
  8
SLIM
 10
10568.18504542377
 20
-1758.9999999999959
 30
0.0
  0
VERTEX
  5
12891E
  8
SLIM
 10
10573.092522711881
 20
-1767.4999999999959
 30
0.0
  0
VERTEX
  5
12891F
  8
SLIM
 10
10582.90747728811
 20
-1767.4999999999959
 30
0.0
  0
VERTEX
  5
128920
  8
SLIM
 10
10587.814954576221
 20
-1758.9999999999959
 30
0.0
  0
VERTEX
  5
128921
  8
SLIM
 10
10582.90747728811
 20
-1750.4999999999959
 30
0.0
  0
SEQEND
  5
128922
  8
SLIM
  0
CIRCLE
  5
127F22
  8
SLIM
 10
10461.0
 20
-1691.4500185048089
 30
0.0
 40
4.9999999999999991
1001
ACDBBLOCKREPETAG
1070
     1
1071
        6
1005
127F22
  0
POLYLINE
  5
127F23
  8
SLIM
 66
     1
 10
0.0
 20
0.0
 30
0.0
 70
     1
1001
ACDBBLOCKREPETAG
1070
     1
1071
        7
1005
127F23
  0
VERTEX
  5
128923
  8
SLIM
 10
10456.092522711881
 20
-1699.9500185048089
 30
0.0
  0
VERTEX
  5
128924
  8
SLIM
 10
10465.90747728811
 20
-1699.9500185048089
 30
0.0
  0
VERTEX
  5
128925
  8
SLIM
 10
10470.814954576221
 20
-1691.4500185048089
 30
0.0
  0
VERTEX
  5
128926
  8
SLIM
 10
10465.90747728811
 20
-1682.9500185048089
 30
0.0
  0
VERTEX
  5
128927
  8
SLIM
 10
10456.092522711881
 20
-1682.9500185048089
 30
0.0
  0
VERTEX
  5
128928
  8
SLIM
 10
10451.18504542377
 20
-1691.4500185048089
 30
0.0
  0
SEQEND
  5
128929
  8
SLIM
  0
CIRCLE
  5
127F24
  8
SLIM
 10
10461.0
 20
-1826.5499814951829
 30
0.0
 40
5.0
1001
ACDBBLOCKREPETAG
1070
     1
1071
        8
1005
127F24
  0
POLYLINE
  5
127F25
  8
SLIM
 66
     1
 10
0.0
 20
0.0
 30
0.0
 70
     1
1001
ACDBBLOCKREPETAG
1070
     1
1071
        9
1005
127F25
  0
VERTEX
  5
12892A
  8
SLIM
 10
10470.814954576221
 20
-1826.5499814951829
 30
0.0
  0
VERTEX
  5
12892B
  8
SLIM
 10
10465.907477288099
 20
-1818.04998149518
 30
0.0
  0
VERTEX
  5
12892C
  8
SLIM
 10
10456.092522711881
 20
-1818.0499814951841
 30
0.0
  0
VERTEX
  5
12892D
  8
SLIM
 10
10451.18504542377
 20
-1826.54998149518
 30
0.0
  0
VERTEX
  5
12892E
  8
SLIM
 10
10456.092522711881
 20
-1835.0499814951829
 30
0.0
  0
VERTEX
  5
12892F
  8
SLIM
 10
10465.90747728811
 20
-1835.04998149518
 30
0.0
  0
SEQEND
  5
128930
  8
SLIM
  0
ARC
  5
127F26
  8
OBJECT
 10
10500.0
 20
-1758.9999999999959
 30
0.0
 40
76.0
 50
34.863837954171863
 51
85.136162045732945
1001
ACDBBLOCKREPETAG
1070
     1
1071
       30
1005
127F26
  0
ARC
  5
127F27
  8
OBJECT
 10
10500.0
 20
-1758.9999999999959
 30
0.0
 40
76.0
 50
154.86383795430939
 51
205.1361620456905
1001
ACDBBLOCKREPETAG
1070
     1
1071
       31
1005
127F27
  0
ARC
  5
127F28
  8
OBJECT
 10
10500.0
 20
-1758.9999999999959
 30
0.0
 40
76.0
 50
274.86383795426718
 51
325.13616204582797
1001
ACDBBLOCKREPETAG
1070
     1
1071
       32
1005
127F28
  0
ARC
  5
127F29
  8
OBJECT
 10
10578.0
 20
-1758.9999999999959
 30
0.0
 40
12.0
 50
325.13616204582797
 51
34.863837954171863
1001
ACDBBLOCKREPETAG
1070
     1
1071
       33
1005
127F29
  0
LINE
  5
127F2A
  8
OBJECT
 10
10587.84615384616
 20
-1752.140462520134
 30
0.0
 11
10562.35897435904
 21
-1715.556262627535
 31
0.0
1001
ACDBBLOCKREPETAG
1070
     1
1071
       34
1005
127F2A
  0
LINE
  5
127F2B
  8
OBJECT
 10
10587.846153846171
 20
-1765.859537479857
 30
0.0
 11
10562.35897435904
 21
-1802.4437373724591
 31
0.0
1001
ACDBBLOCKREPETAG
1070
     1
1071
       35
1005
127F2B
  0
ARC
  5
127F2C
  8
OBJECT
 10
10461.0
 20
-1691.4500185048109
 30
0.0
 40
12.0
 50
85.136162045942811
 51
154.86383795410001
1001
ACDBBLOCKREPETAG
1070
     1
1071
       36
1005
127F2C
  0
LINE
  5
127F2D
  8
OBJECT
 10
10450.13638936114
 20
-1686.3527678843909
 30
0.0
 11
10431.19713262058
 21
-1726.7174127373471
 31
0.0
1001
ACDBBLOCKREPETAG
1070
     1
1071
       37
1005
127F2D
  0
LINE
  5
127F2E
  8
OBJECT
 10
10462.017456792681
 20
-1679.4932304045269
 30
0.0
 11
10506.443893020371
 21
-1683.273675364886
 31
0.0
1001
ACDBBLOCKREPETAG
1070
     1
1071
       38
1005
127F2E
  0
ARC
  5
127F2F
  8
OBJECT
 10
10461.0
 20
-1826.549981495182
 30
0.0
 40
12.0
 50
205.13616204589991
 51
274.8638379540572
1001
ACDBBLOCKREPETAG
1070
     1
1071
       39
1005
127F2F
  0
LINE
  5
127F30
  8
OBJECT
 10
10462.01745679269
 20
-1838.506769595464
 30
0.0
 11
10506.44389302036
 21
-1834.7263246351069
 31
0.0
1001
ACDBBLOCKREPETAG
1070
     1
1071
       40
1005
127F30
  0
LINE
  5
127F31
  8
OBJECT
 10
10450.13638936114
 20
-1831.647232115605
 30
0.0
 11
10431.19713262058
 21
-1791.282587262642
 31
0.0
1001
ACDBBLOCKREPETAG
1070
     1
1071
       41
1005
127F31
  0
LINE
  5
127F32
  8
CENTER
 10
6409.0
 20
-1800.0
 30
0.0
 11
6605.0
 21
-1800.0
 31
0.0
1001
ACDBBLOCKREPETAG
1070
     1
1071
       10
1005
127F32
  0
LINE
  5
127F33
  8
CENTER
 10
6500.0
 20
-1708.725335570783
 30
0.0
 11
6500.0
 21
-1891.274664429216
 31
0.0
1001
ACDBBLOCKREPETAG
1070
     1
1071
       11
1005
127F33
  0
CIRCLE
  5
127F34
  8
OBJECT
 10
6500.0
 20
-1800.0
 30
0.0
 40
50.0
1001
ACDBBLOCKREPETAG
1070
     1
1071
       12
1005
127F34
  0
CIRCLE
  5
127F35
  8
OBJECT
 10
6500.0
 20
-1800.0
 30
0.0
 40
60.0
1001
ACDBBLOCKREPETAG
1070
     1
1071
       13
1005
127F35
  0
CIRCLE
  5
127F36
  8
OBJECT
 10
6500.0
 20
-1800.0
 30
0.0
 40
68.0
1001
ACDBBLOCKREPETAG
1070
     1
1071
       14
1005
127F36
  0
ARC
  5
127F37
  8
OBJECT
 10
6577.5
 20
-1800.0
 30
0.0
 40
12.0
 50
272.10542627221611
 51
87.894573727783893
1001
ACDBBLOCKREPETAG
1070
     1
1071
       15
1005
127F37
  0
ARC
  5
127F38
  8
OBJECT
 10
6578.4919354838639
 20
-1773.018227189528
 30
0.0
 40
15.0
 50
198.97051877963551
 51
267.89457372778372
1001
ACDBBLOCKREPETAG
1070
     1
1071
       16
1005
127F38
  0
ARC
  5
127F39
  8
OBJECT
 10
6578.4919354838639
 20
-1826.9817728104681
 30
0.0
 40
15.0
 50
92.105426272216135
 51
161.02948122036429
1001
ACDBBLOCKREPETAG
1070
     1
1071
       17
1005
127F39
  0
CIRCLE
  5
127F3A
  8
SLIM
 10
6578.0
 20
-1800.0
 30
0.0
 40
8.0
1001
ACDBBLOCKREPETAG
1070
     1
1071
       18
1005
127F3A
  0
POLYLINE
  5
127F3B
  8
SLIM
 66
     1
 10
0.0
 20
0.0
 30
0.0
 70
     1
1001
ACDBBLOCKREPETAG
1070
     1
1071
       19
1005
127F3B
  0
VERTEX
  5
128931
  8
SLIM
 10
6575.6905989232318
 20
-1796.0
 30
0.0
  0
VERTEX
  5
128932
  8
SLIM
 10
6573.3811978464792
 20
-1800.0
 30
0.0
  0
VERTEX
  5
128933
  8
SLIM
 10
6575.6905989232318
 20
-1803.9999999999991
 30
0.0
  0
VERTEX
  5
128934
  8
SLIM
 10
6580.3094010767518
 20
-1803.9999999999991
 30
0.0
  0
VERTEX
  5
128935
  8
SLIM
 10
6582.6188021535127
 20
-1800.0
 30
0.0
  0
VERTEX
  5
128936
  8
SLIM
 10
6580.3094010767518
 20
-1796.0
 30
0.0
  0
SEQEND
  5
128937
  8
SLIM
  0
ARC
  5
127F3C
  8
OBJECT
 10
6461.2499999999991
 20
-1732.883031206703
 30
0.0
 40
12.0
 50
32.105426272157878
 51
207.89457372770741
1001
ACDBBLOCKREPETAG
1070
     1
1071
       20
1005
127F3C
  0
ARC
  5
127F3D
  8
OBJECT
 10
6437.3871315650549
 20
-1745.514876283992
 30
0.0
 40
15.0
 50
318.97051877944762
 51
27.894573727707481
1001
ACDBBLOCKREPETAG
1070
     1
1071
       21
1005
127F3D
  0
ARC
  5
127F3E
  8
OBJECT
 10
6484.1209329510693
 20
-1718.53310347352
 30
0.0
 40
15.0
 50
212.1054262721579
 51
281.02948122044069
1001
ACDBBLOCKREPETAG
1070
     1
1071
       22
1005
127F3E
  0
CIRCLE
  5
127F3F
  8
SLIM
 10
6461.0
 20
-1732.4500185048121
 30
0.0
 40
7.9999999999999982
1001
ACDBBLOCKREPETAG
1070
     1
1071
       23
1005
127F3F
  0
POLYLINE
  5
127F40
  8
SLIM
 66
     1
 10
0.0
 20
0.0
 30
0.0
 70
     1
1001
ACDBBLOCKREPETAG
1070
     1
1071
       24
1005
127F40
  0
VERTEX
  5
128938
  8
SLIM
 10
6458.69059892324
 20
-1736.4500185048121
 30
0.0
  0
VERTEX
  5
128939
  8
SLIM
 10
6463.3094010767518
 20
-1736.4500185048121
 30
0.0
  0
VERTEX
  5
12893A
  8
SLIM
 10
6465.6188021535136
 20
-1732.4500185048121
 30
0.0
  0
VERTEX
  5
12893B
  8
SLIM
 10
6463.3094010767518
 20
-1728.4500185048121
 30
0.0
  0
VERTEX
  5
12893C
  8
SLIM
 10
6458.69059892324
 20
-1728.4500185048121
 30
0.0
  0
VERTEX
  5
12893D
  8
SLIM
 10
6456.3811978464801
 20
-1732.4500185048121
 30
0.0
  0
SEQEND
  5
12893E
  8
SLIM
  0
ARC
  5
127F41
  8
OBJECT
 10
6461.2499999999991
 20
-1867.116968793292
 30
0.0
 40
12.0
 50
152.1054262722925
 51
327.89457372784221
1001
ACDBBLOCKREPETAG
1070
     1
1071
       25
1005
127F41
  0
ARC
  5
127F42
  8
OBJECT
 10
6484.1209329510693
 20
-1881.466896526475
 30
0.0
 40
15.0
 50
78.970518779559228
 51
147.8945737278421
1001
ACDBBLOCKREPETAG
1070
     1
1071
       26
1005
127F42
  0
ARC
  5
127F43
  8
OBJECT
 10
6437.3871315650549
 20
-1854.485123716006
 30
0.0
 40
15.0
 50
332.1054262722925
 51
41.029481220552412
1001
ACDBBLOCKREPETAG
1070
     1
1071
       27
1005
127F43
  0
CIRCLE
  5
127F44
  8
SLIM
 10
6461.0
 20
-1867.549981495187
 30
0.0
 40
8.0
1001
ACDBBLOCKREPETAG
1070
     1
1071
       28
1005
127F44
  0
POLYLINE
  5
127F45
  8
SLIM
 66
     1
 10
0.0
 20
0.0
 30
0.0
 70
     1
1001
ACDBBLOCKREPETAG
1070
     1
1071
       29
1005
127F45
  0
VERTEX
  5
12893F
  8
SLIM
 10
6465.6188021535136
 20
-1867.5499814951829
 30
0.0
  0
VERTEX
  5
128940
  8
SLIM
 10
6463.3094010767518
 20
-1863.549981495187
 30
0.0
  0
VERTEX
  5
128941
  8
SLIM
 10
6458.69059892324
 20
-1863.549981495182
 30
0.0
  0
VERTEX
  5
128942
  8
SLIM
 10
6456.3811978464801
 20
-1867.549981495187
 30
0.0
  0
VERTEX
  5
128943
  8
SLIM
 10
6458.6905989232328
 20
-1871.549981495182
 30
0.0
  0
VERTEX
  5
128944
  8
SLIM
 10
6463.3094010767518
 20
-1871.549981495187
 30
0.0
  0
SEQEND
  5
128945
  8
SLIM
  0
ARC
  5
127F46
  8
OBJECT
 10
6500.0
 20
-1800.0
 30
0.0
 40
76.0
 50
34.863837954142063
 51
85.136162045732945
1001
ACDBBLOCKREPETAG
1070
     1
1071
       42
1005
127F46
  0
ARC
  5
127F47
  8
OBJECT
 10
6500.0
 20
-1800.0
 30
0.0
 40
76.0
 50
154.86383795430939
 51
205.1361620456905
1001
ACDBBLOCKREPETAG
1070
     1
1071
       43
1005
127F47
  0
ARC
  5
127F48
  8
OBJECT
 10
6500.0
 20
-1800.0
 30
0.0
 40
76.0
 50
274.86383795426718
 51
325.13616204585799
1001
ACDBBLOCKREPETAG
1070
     1
1071
       44
1005
127F48
  0
ARC
  5
127F49
  8
OBJECT
 10
6578.0
 20
-1800.0
 30
0.0
 40
12.0
 50
325.13616204585799
 51
34.863837954142063
1001
ACDBBLOCKREPETAG
1070
     1
1071
       45
1005
127F49
  0
LINE
  5
127F4A
  8
OBJECT
 10
6587.8461538461661
 20
-1793.1404625201369
 30
0.0
 11
6562.3589743590492
 21
-1756.556262627538
 31
0.0
1001
ACDBBLOCKREPETAG
1070
     1
1071
       46
1005
127F4A
  0
LINE
  5
127F4B
  8
OBJECT
 10
6587.8461538461688
 20
-1806.8595374798599
 30
0.0
 11
6562.3589743590492
 21
-1843.4437373724629
 31
0.0
1001
ACDBBLOCKREPETAG
1070
     1
1071
       47
1005
127F4B
  0
ARC
  5
127F4C
  8
OBJECT
 10
6461.0
 20
-1732.4500185048139
 30
0.0
 40
12.0
 50
85.136162045942811
 51
154.86383795410001
1001
ACDBBLOCKREPETAG
1070
     1
1071
       48
1005
127F4C
  0
LINE
  5
127F4D
  8
OBJECT
 10
6450.1363893611451
 20
-1727.3527678843941
 30
0.0
 11
6431.1971326205858
 21
-1767.7174127373501
 31
0.0
1001
ACDBBLOCKREPETAG
1070
     1
1071
       49
1005
127F4D
  0
LINE
  5
127F4E
  8
OBJECT
 10
6462.0174567926842
 20
-1720.4932304045301
 30
0.0
 11
6506.4438930203687
 21
-1724.273675364889
 31
0.0
1001
ACDBBLOCKREPETAG
1070
     1
1071
       50
1005
127F4E
  0
ARC
  5
127F4F
  8
OBJECT
 10
6461.0
 20
-1867.549981495185
 30
0.0
 40
12.0
 50
205.13616204589991
 51
274.8638379540572
1001
ACDBBLOCKREPETAG
1070
     1
1071
       51
1005
127F4F
  0
LINE
  5
127F50
  8
OBJECT
 10
6462.0174567926879
 20
-1879.5067695954669
 30
0.0
 11
6506.4438930203651
 21
-1875.726324635109
 31
0.0
1001
ACDBBLOCKREPETAG
1070
     1
1071
       52
1005
127F50
  0
LINE
  5
127F51
  8
OBJECT
 10
6450.1363893611451
 20
-1872.6472321156079
 30
0.0
 11
6431.1971326205821
 21
-1832.2825872626461
 31
0.0
1001
ACDBBLOCKREPETAG
1070
     1
1071
       53
1005
127F51
  0
LINE
  5
127F52
  8
CENTER
 10
4409.0
 20
-1758.9999999999959
 30
0.0
 11
4605.0
 21
-1758.9999999999959
 31
0.0
1001
ACDBBLOCKREPETAG
1070
     1
1071
        0
1005
127F52
  0
LINE
  5
127F53
  8
CENTER
 10
4500.0
 20
-1667.7253355707801
 30
0.0
 11
4500.0
 21
-1850.274664429212
 31
0.0
1001
ACDBBLOCKREPETAG
1070
     1
1071
        1
1005
127F53
  0
CIRCLE
  5
127F54
  8
OBJECT
 10
4500.0
 20
-1758.9999999999959
 30
0.0
 40
50.0
1001
ACDBBLOCKREPETAG
1070
     1
1071
        2
1005
127F54
  0
CIRCLE
  5
127F55
  8
OBJECT
 10
4500.0
 20
-1758.9999999999959
 30
0.0
 40
62.0
1001
ACDBBLOCKREPETAG
1070
     1
1071
        3
1005
127F55
  0
CIRCLE
  5
127F56
  8
SLIM
 10
4578.0
 20
-1758.9999999999959
 30
0.0
 40
5.0
1001
ACDBBLOCKREPETAG
1070
     1
1071
        4
1005
127F56
  0
POLYLINE
  5
127F57
  8
SLIM
 66
     1
 10
0.0
 20
0.0
 30
0.0
 70
     1
1001
ACDBBLOCKREPETAG
1070
     1
1071
        5
1005
127F57
  0
VERTEX
  5
128946
  8
SLIM
 10
4573.092522711886
 20
-1750.4999999999959
 30
0.0
  0
VERTEX
  5
128947
  8
SLIM
 10
4568.185045423772
 20
-1758.9999999999959
 30
0.0
  0
VERTEX
  5
128948
  8
SLIM
 10
4573.092522711886
 20
-1767.4999999999959
 30
0.0
  0
VERTEX
  5
128949
  8
SLIM
 10
4582.9074772881049
 20
-1767.4999999999959
 30
0.0
  0
VERTEX
  5
12894A
  8
SLIM
 10
4587.814954576219
 20
-1758.9999999999959
 30
0.0
  0
VERTEX
  5
12894B
  8
SLIM
 10
4582.9074772881049
 20
-1750.4999999999959
 30
0.0
  0
SEQEND
  5
12894C
  8
SLIM
  0
CIRCLE
  5
127F58
  8
SLIM
 10
4461.0
 20
-1691.4500185048089
 30
0.0
 40
4.9999999999999991
1001
ACDBBLOCKREPETAG
1070
     1
1071
        6
1005
127F58
  0
POLYLINE
  5
127F59
  8
SLIM
 66
     1
 10
0.0
 20
0.0
 30
0.0
 70
     1
1001
ACDBBLOCKREPETAG
1070
     1
1071
        7
1005
127F59
  0
VERTEX
  5
12894D
  8
SLIM
 10
4456.092522711886
 20
-1699.9500185048089
 30
0.0
  0
VERTEX
  5
12894E
  8
SLIM
 10
4465.907477288114
 20
-1699.9500185048089
 30
0.0
  0
VERTEX
  5
12894F
  8
SLIM
 10
4470.8149545762208
 20
-1691.4500185048089
 30
0.0
  0
VERTEX
  5
128950
  8
SLIM
 10
4465.907477288114
 20
-1682.9500185048089
 30
0.0
  0
VERTEX
  5
128951
  8
SLIM
 10
4456.092522711886
 20
-1682.9500185048089
 30
0.0
  0
VERTEX
  5
128952
  8
SLIM
 10
4451.185045423772
 20
-1691.4500185048089
 30
0.0
  0
SEQEND
  5
128953
  8
SLIM
  0
CIRCLE
  5
127F5A
  8
SLIM
 10
4461.0
 20
-1826.5499814951829
 30
0.0
 40
5.0
1001
ACDBBLOCKREPETAG
1070
     1
1071
        8
1005
127F5A
  0
POLYLINE
  5
127F5B
  8
SLIM
 66
     1
 10
0.0
 20
0.0
 30
0.0
 70
     1
1001
ACDBBLOCKREPETAG
1070
     1
1071
        9
1005
127F5B
  0
VERTEX
  5
128954
  8
SLIM
 10
4470.8149545762208
 20
-1826.5499814951829
 30
0.0
  0
VERTEX
  5
128955
  8
SLIM
 10
4465.9074772881067
 20
-1818.04998149518
 30
0.0
  0
VERTEX
  5
128956
  8
SLIM
 10
4456.092522711886
 20
-1818.0499814951841
 30
0.0
  0
VERTEX
  5
128957
  8
SLIM
 10
4451.185045423772
 20
-1826.54998149518
 30
0.0
  0
VERTEX
  5
128958
  8
SLIM
 10
4456.092522711886
 20
-1835.0499814951829
 30
0.0
  0
VERTEX
  5
128959
  8
SLIM
 10
4465.907477288114
 20
-1835.04998149518
 30
0.0
  0
SEQEND
  5
12895A
  8
SLIM
  0
ARC
  5
127F5C
  8
OBJECT
 10
4500.0
 20
-1758.9999999999959
 30
0.0
 40
76.0
 50
34.863837954142063
 51
85.136162045732945
1001
ACDBBLOCKREPETAG
1070
     1
1071
       30
1005
127F5C
  0
ARC
  5
127F5D
  8
OBJECT
 10
4500.0
 20
-1758.9999999999959
 30
0.0
 40
76.0
 50
154.86383795430939
 51
205.1361620456905
1001
ACDBBLOCKREPETAG
1070
     1
1071
       31
1005
127F5D
  0
ARC
  5
127F5E
  8
OBJECT
 10
4500.0
 20
-1758.9999999999959
 30
0.0
 40
76.0
 50
274.86383795426718
 51
325.13616204585799
1001
ACDBBLOCKREPETAG
1070
     1
1071
       32
1005
127F5E
  0
ARC
  5
127F5F
  8
OBJECT
 10
4578.0
 20
-1758.9999999999959
 30
0.0
 40
12.0
 50
325.13616204585799
 51
34.863837954142063
1001
ACDBBLOCKREPETAG
1070
     1
1071
       33
1005
127F5F
  0
LINE
  5
127F60
  8
OBJECT
 10
4587.846153846167
 20
-1752.140462520134
 30
0.0
 11
4562.3589743590492
 21
-1715.556262627535
 31
0.0
1001
ACDBBLOCKREPETAG
1070
     1
1071
       34
1005
127F60
  0
LINE
  5
127F61
  8
OBJECT
 10
4587.8461538461697
 20
-1765.859537479857
 30
0.0
 11
4562.3589743590492
 21
-1802.4437373724591
 31
0.0
1001
ACDBBLOCKREPETAG
1070
     1
1071
       35
1005
127F61
  0
ARC
  5
127F62
  8
OBJECT
 10
4461.0
 20
-1691.4500185048109
 30
0.0
 40
12.0
 50
85.136162045942811
 51
154.86383795410001
1001
ACDBBLOCKREPETAG
1070
     1
1071
       36
1005
127F62
  0
LINE
  5
127F63
  8
OBJECT
 10
4450.1363893611451
 20
-1686.3527678843909
 30
0.0
 11
4431.1971326205839
 21
-1726.7174127373471
 31
0.0
1001
ACDBBLOCKREPETAG
1070
     1
1071
       37
1005
127F63
  0
LINE
  5
127F64
  8
OBJECT
 10
4462.0174567926833
 20
-1679.4932304045269
 30
0.0
 11
4506.443893020366
 21
-1683.273675364886
 31
0.0
1001
ACDBBLOCKREPETAG
1070
     1
1071
       38
1005
127F64
  0
ARC
  5
127F65
  8
OBJECT
 10
4461.0
 20
-1826.549981495182
 30
0.0
 40
12.0
 50
205.13616204589991
 51
274.8638379540572
1001
ACDBBLOCKREPETAG
1070
     1
1071
       39
1005
127F65
  0
LINE
  5
127F66
  8
OBJECT
 10
4462.0174567926879
 20
-1838.506769595464
 30
0.0
 11
4506.4438930203651
 21
-1834.7263246351069
 31
0.0
1001
ACDBBLOCKREPETAG
1070
     1
1071
       40
1005
127F66
  0
LINE
  5
127F67
  8
OBJECT
 10
4450.1363893611451
 20
-1831.647232115605
 30
0.0
 11
4431.1971326205821
 21
-1791.282587262642
 31
0.0
1001
ACDBBLOCKREPETAG
1070
     1
1071
       41
1005
127F67
  0
LINE
  5
127F68
  8
OBJECT
 10
2443.0
 20
-1484.9999999999959
 30
0.0
 11
2557.0
 21
-1484.9999999999959
 31
0.0
1001
ACDBBLOCKREPETAG
1070
     1
1071
        0
1005
127F68
  0
LINE
  5
127F69
  8
OBJECT
 10
2443.0
 20
-1484.9999999999959
 30
0.0
 11
2443.0
 21
-1384.9999999999959
 31
0.0
1001
ACDBBLOCKREPETAG
1070
     1
1071
        1
1005
127F69
  0
LINE
  5
127F6A
  8
OBJECT
 10
2557.0
 20
-1484.9999999999959
 30
0.0
 11
2557.0
 21
-1384.9999999999959
 31
0.0
1001
ACDBBLOCKREPETAG
1070
     1
1071
        2
1005
127F6A
  0
LINE
  5
127F6B
  8
OBJECT
 10
2443.0
 20
-1384.9999999999959
 30
0.0
 11
2557.0
 21
-1384.9999999999959
 31
0.0
1001
ACDBBLOCKREPETAG
1070
     1
1071
        3
1005
127F6B
  0
LINE
  5
127F6C
  8
HIDDEN
 10
2450.0
 20
-1384.9999999999959
 30
0.0
 11
2450.0
 21
-1484.9999999999959
 31
0.0
1001
ACDBBLOCKREPETAG
1070
     1
1071
        4
1005
127F6C
  0
LINE
  5
127F6D
  8
HIDDEN
 10
2550.0
 20
-1384.9999999999959
 30
0.0
 11
2550.0
 21
-1484.9999999999959
 31
0.0
1001
ACDBBLOCKREPETAG
1070
     1
1071
        5
1005
127F6D
  0
LINE
  5
127F6E
  8
CENTER
 10
2500.0
 20
-1175.0
 30
0.0
 11
2500.0
 21
-1499.9999999999959
 31
0.0
1001
ACDBBLOCKREPETAG
1070
     1
1071
        6
1005
127F6E
  0
LINE
  5
127F6F
  8
OBJECT
 10
2425.0
 20
-1175.0
 30
0.0
 11
2425.0
 21
-1256.9999999999959
 31
0.0
1001
ACDBBLOCKREPETAG
1070
     1
1071
        7
1005
127F6F
  0
LINE
  5
127F70
  8
OBJECT
 10
2575.0
 20
-1175.0
 30
0.0
 11
2575.0
 21
-1256.9999999999959
 31
0.0
1001
ACDBBLOCKREPETAG
1070
     1
1071
        8
1005
127F70
  0
LINE
  5
127F71
  8
OBJECT
 10
2425.0
 20
-1256.9999999999959
 30
0.0
 11
2575.0
 21
-1256.9999999999959
 31
0.0
1001
ACDBBLOCKREPETAG
1070
     1
1071
        9
1005
127F71
  0
LINE
  5
127F72
  8
OBJECT
 10
2425.0
 20
-1256.9999999999959
 30
0.0
 11
2443.0
 21
-1384.9999999999959
 31
0.0
1001
ACDBBLOCKREPETAG
1070
     1
1071
       10
1005
127F72
  0
LINE
  5
127F73
  8
OBJECT
 10
2557.0
 20
-1384.9999999999959
 30
0.0
 11
2575.0
 21
-1256.9999999999959
 31
0.0
1001
ACDBBLOCKREPETAG
1070
     1
1071
       11
1005
127F73
  0
TEXT
  5
127F74
  8
SLIM
 10
0.0
 20
370.0
 30
0.0
 40
100.0
  1
4SLT2-A3-AX000-PXXX-WKP
 41
0.75
  0
VIEWPORT
  5
F6BA7
 67
     1
  8
0
 10
195.9179030619629
 20
101.8328354358673
 30
0.0
 40
435.17763301655981
 41
222.19657968139651
 68
     1
 69
     1
1001
ACAD
1000
MVIEW
1002
{
1070
    16
1010
0.0
1020
0.0
1030
0.0
1010
0.0
1020
0.0
1030
1.0
1040
0.0
1040
222.19657968139651
1040
195.9179030619629
1040
101.8328354358673
1040
50.0
1040
0.0
1040
0.0
1070
     0
1070
     0
1070
     1
1070
     1
1070
     0
1070
     0
1070
     0
1070
     0
1040
0.0
1040
0.0
1040
0.0
1040
10.0
1040
10.0
1040
10.0
1040
10.0
1070
     0
1002
{
1002
}
1002
}
  0
VIEWPORT
  5
F6BA9
 67
     1
  8
OBJECT
 10
145.3303314447403
 20
101.8328338861465
 30
0.0
 40
232.5285303115844
 41
162.93253421783439
 68
     2
 69
     2
1001
ACAD
1000
MVIEW
1002
{
1070
    16
1010
0.0
1020
0.0
1030
0.0
1010
0.0
1020
0.0
1030
1.0
1040
0.0
1040
25942.55904403147
1040
2377.604457077377
1040
-7591.5176687056619
1040
50.0
1040
0.0
1040
0.0
1070
     0
1070
   600
1070
     1
1070
     1
1070
     0
1070
     0
1070
     0
1070
     0
1040
0.0
1040
0.0
1040
0.0
1040
1.0
1040
1.0
1040
0.0
1040
0.0
1070
     0
1002
{
1002
}
1002
}
  0
ENDSEC
  0
EOF
