  0
SECTION
  2
HEADER
  9
$ACADVER
  1
AC1009
  9
$INSBASE
 10
0.0
 20
0.0
 30
0.0
  9
$EXTMIN
 10
0.0
 20
-3597.4999999999968
 30
0.0
  9
$EXTMAX
 10
5575.0
 20
607.5
 30
0.0
  9
$LIMMIN
 10
0.0
 20
0.0
  9
$LIMMAX
 10
210.0
 20
297.0
  9
$ORTHOMODE
 70
     0
  9
$REGENMODE
 70
     1
  9
$FILLMODE
 70
     1
  9
$QTEXTMODE
 70
     0
  9
$MIRRTEXT
 70
     0
  9
$DRAGMODE
 70
     2
  9
$LTSCALE
 40
1.0
  9
$OSMODE
 70
    37
  9
$ATTMODE
 70
     1
  9
$TEXTSIZE
 40
4.0
  9
$TRACEWID
 40
0.05
  9
$TEXTSTYLE
  7
STANDARD
  9
$CLAYER
  8
OBJECT
  9
$CELTYPE
  6
BYLAYER
  9
$CECOLOR
 62
   256
  9
$DIMSCALE
 40
10.0
  9
$DIMASZ
 40
2.0
  9
$DIMEXO
 40
1.0
  9
$DIMDLI
 40
10.0
  9
$DIMRND
 40
0.0
  9
$DIMDLE
 40
0.0
  9
$DIMEXE
 40
1.0
  9
$DIMTP
 40
0.0
  9
$DIMTM
 40
0.0
  9
$DIMTXT
 40
3.2000000000000002
  9
$DIMCEN
 40
0.0
  9
$DIMTSZ
 40
0.0
  9
$DIMTOL
 70
     0
  9
$DIMLIM
 70
     0
  9
$DIMTIH
 70
     0
  9
$DIMTOH
 70
     0
  9
$DIMSE1
 70
     0
  9
$DIMSE2
 70
     0
  9
$DIMTAD
 70
     1
  9
$DIMZIN
 70
     8
  9
$DIMBLK
  1
OPEN30
  9
$DIMASO
 70
     1
  9
$DIMSHO
 70
     1
  9
$DIMPOST
  1

  9
$DIMAPOST
  1

  9
$DIMALT
 70
     0
  9
$DIMALTD
 70
     2
  9
$DIMALTF
 40
25.399999999999999
  9
$DIMLFAC
 40
1.0
  9
$DIMTOFL
 70
     1
  9
$DIMTVP
 40
0.0
  9
$DIMTIX
 70
     0
  9
$DIMSOXD
 70
     0
  9
$DIMSAH
 70
     0
  9
$DIMBLK1
  1

  9
$DIMBLK2
  1

  9
$DIMSTYLE
  2
S10
  9
$DIMCLRD
 70
   256
  9
$DIMCLRE
 70
   256
  9
$DIMCLRT
 70
   256
  9
$DIMTFAC
 40
1.0
  9
$DIMGAP
 40
0.9
  9
$LUNITS
 70
     2
  9
$LUPREC
 70
     2
  9
$SKETCHINC
 40
0.1
  9
$FILLETRAD
 40
0.0
  9
$AUNITS
 70
     0
  9
$AUPREC
 70
     2
  9
$MENU
  1
ACAD
  9
$ELEVATION
 40
0.0
  9
$PELEVATION
 40
0.0
  9
$THICKNESS
 40
0.0
  9
$LIMCHECK
 70
     0
  9
$BLIPMODE
 70
     0
  9
$CHAMFERA
 40
2.0
  9
$CHAMFERB
 40
2.0
  9
$SKPOLY
 70
     0
  9
$TDCREATE
 40
2453095.4929404748
  9
$TDUPDATE
 40
2457598.63707978
  9
$TDINDWG
 40
18.3787476736
  9
$TDUSRTIMER
 40
18.378746979199999
  9
$USRTIMER
 70
     1
  9
$ANGBASE
 50
0.0
  9
$ANGDIR
 70
     0
  9
$PDMODE
 70
    35
  9
$PDSIZE
 40
2.0
  9
$PLINEWID
 40
0.0
  9
$COORDS
 70
     1
  9
$SPLFRAME
 70
     0
  9
$SPLINETYPE
 70
     6
  9
$SPLINESEGS
 70
     8
  9
$ATTDIA
 70
     0
  9
$ATTREQ
 70
     1
  9
$HANDLING
 70
     1
  9
$HANDSEED
  5
12B2CB
  9
$SURFTAB1
 70
     6
  9
$SURFTAB2
 70
     6
  9
$SURFTYPE
 70
     6
  9
$SURFU
 70
     6
  9
$SURFV
 70
     6
  9
$UCSNAME
  2

  9
$UCSORG
 10
0.0
 20
0.0
 30
0.0
  9
$UCSXDIR
 10
1.0
 20
0.0
 30
0.0
  9
$UCSYDIR
 10
0.0
 20
1.0
 30
0.0
  9
$PUCSNAME
  2

  9
$PUCSORG
 10
0.0
 20
0.0
 30
0.0
  9
$PUCSXDIR
 10
1.0
 20
0.0
 30
0.0
  9
$PUCSYDIR
 10
0.0
 20
1.0
 30
0.0
  9
$USERI1
 70
     0
  9
$USERI2
 70
     0
  9
$USERI3
 70
     0
  9
$USERI4
 70
     0
  9
$USERI5
 70
     0
  9
$USERR1
 40
0.0
  9
$USERR2
 40
0.0
  9
$USERR3
 40
0.0
  9
$USERR4
 40
0.0
  9
$USERR5
 40
0.0
  9
$WORLDVIEW
 70
     1
  9
$SHADEDGE
 70
     3
  9
$SHADEDIF
 70
    70
  9
$TILEMODE
 70
     1
  9
$MAXACTVP
 70
    64
  9
$PLIMCHECK
 70
     0
  9
$PEXTMIN
 10
29.066066288948051
 20
20.366566777229309
 30
0.0
  9
$PEXTMAX
 10
261.5945966005325
 20
183.29910099506381
 30
0.0
  9
$PLIMMIN
 10
-3.17498779296875
 20
-3.1749999523162842
  9
$PLIMMAX
 10
293.83566284179687
 20
206.8406708240509
  9
$UNITMODE
 70
     0
  9
$VISRETAIN
 70
     1
  9
$PLINEGEN
 70
     0
  9
$PSLTSCALE
 70
     1
  0
ENDSEC
  0
SECTION
  2
TABLES
  0
TABLE
  2
VPORT
 70
     1
  0
VPORT
  2
*ACTIVE
 70
     0
 10
0.0
 20
0.0
 11
1.0
 21
1.0
 12
3379.774057598092
 22
1060.0059656802009
 13
0.0
 23
0.0
 14
1.0
 24
1.0
 15
0.0
 25
0.0
 16
0.0
 26
0.0
 36
1.0
 17
0.0
 27
0.0
 37
0.0
 40
11319.702876842741
 41
1.6494178525226391
 42
50.0
 43
0.0
 44
0.0
 50
0.0
 51
0.0
 71
     0
 72
   600
 73
     1
 74
     1
 75
     0
 76
     0
 77
     0
 78
     0
  0
ENDTAB
  0
TABLE
  2
LTYPE
 70
     4
  0
LTYPE
  2
CONTINUOUS
 70
     0
  3
Solid line
 72
    65
 73
     0
 40
0.0
  0
LTYPE
  2
PHANTOM2
 70
     0
  3
___ _ _ ___ _ _ ___ _ _ ___ _ _
 72
    65
 73
     6
 40
1.25
 49
0.625
 49
-0.125
 49
0.125
 49
-0.125
 49
0.125
 49
-0.125
  0
LTYPE
  2
ACAD_ISO08W100
 70
     0
  3
ISO long-dash short-dash ____ __ ____ __ ____ _
 72
    65
 73
     4
 40
36.0
 49
24.0
 49
-3.0
 49
6.0
 49
-3.0
  0
LTYPE
  2
ACAD_ISO02W100
 70
     0
  3
ISO dash __ __ __ __ __ __ __ __ __ __ __ __ __
 72
    65
 73
     2
 40
15.0
 49
12.0
 49
-3.0
  0
ENDTAB
  0
TABLE
  2
LAYER
 70
     8
  0
LAYER
  2
0
 70
     0
 62
     7
  6
CONTINUOUS
  0
LAYER
  2
OBJECT
 70
     0
 62
     4
  6
CONTINUOUS
  0
LAYER
  2
DEFPOINTS
 70
     0
 62
     7
  6
CONTINUOUS
  0
LAYER
  2
DIM
 70
     0
 62
     7
  6
CONTINUOUS
  0
LAYER
  2
HIDDEN
 70
     0
 62
     2
  6
ACAD_ISO02W100
  0
LAYER
  2
CENTER
 70
     0
 62
     2
  6
ACAD_ISO08W100
  0
LAYER
  2
DOTS
 70
     0
 62
     1
  6
CONTINUOUS
  0
LAYER
  2
SLIM
 70
     0
 62
     2
  6
CONTINUOUS
  0
ENDTAB
  0
TABLE
  2
STYLE
 70
     2
  0
STYLE
  2
STANDARD
 70
     0
 40
0.0
 41
0.75
 50
0.0
 71
     0
 42
4.0
  3
simplex.shx
  4
bigfont.shx
  0
ENDTAB
  0
TABLE
  2
VIEW
 70
     0
  0
ENDTAB
  0
TABLE
  2
UCS
 70
     0
  0
ENDTAB
  0
TABLE
  2
APPID
 70
    18
  0
APPID
  2
ACAD
 70
     0
  0
APPID
  2
ACADANNOTATIVE
 70
     0
  0
APPID
  2
ACAD_PSEXT
 70
     0
  0
APPID
  2
ACAD_EXEMPT_FROM_CAD_STANDARDS
 70
     0
  0
APPID
  2
ACAECLAYERSTANDARD
 70
     0
  0
APPID
  2
ACAUTHENVIRON
 70
     0
  0
APPID
  2
ACDBDYNAMICBLOCKTRUENAME
 70
     0
  0
APPID
  2
ACDBDYNAMICBLOCKGUID
 70
     0
  0
APPID
  2
ACDBBLOCKREPETAG
 70
     0
  0
APPID
  2
ACDBBLOCKREPBTAG
 70
     0
  0
APPID
  2
ACAD_NAV_VCDISPLAY
 70
     0
  0
APPID
  2
ACAD_DSTYLE_DIMRADIAL_EXTENSION
 70
     0
  0
APPID
  2
ACAD_DSTYLE_DIMJAG
 70
     0
  0
APPID
  2
ACAD_DSTYLE_DIMTALN
 70
     0
  0
APPID
  2
ACADANNOPO
 70
     0
  0
APPID
  2
GRADIENTCOLOR1ACI
 70
     0
  0
APPID
  2
GRADIENTCOLOR2ACI
 70
     0
  0
APPID
  2
ACAD_MLEADERVER
 70
     0
  0
ENDTAB
  0
TABLE
  2
DIMSTYLE
 70
     3
  0
DIMSTYLE
  2
STANDARD
 70
     0
  3

  4

  5

  6

  7

 40
1.0
 41
0.18
 42
0.0625
 43
0.38
 44
0.18
 45
0.0
 46
0.0
 47
0.0
 48
0.0
140
0.18
141
0.09
142
0.0
143
25.399999999999999
144
1.0
145
0.0
146
1.0
147
0.09
 71
     0
 72
     0
 73
     1
 74
     1
 75
     0
 76
     0
 77
     0
 78
     0
170
     0
171
     2
172
     0
173
     0
174
     0
175
     0
176
     0
177
     0
178
     0
  0
DIMSTYLE
  2
S10
 70
     0
  3

  4

  5

  6

  7

 40
10.0
 41
2.0
 42
1.0
 43
10.0
 44
1.0
 45
0.0
 46
0.0
 47
0.0
 48
0.0
140
3.2000000000000002
141
0.0
142
0.0
143
25.399999999999999
144
1.0
145
0.0
146
1.0
147
0.9
 71
     0
 72
     0
 73
     0
 74
     0
 75
     0
 76
     0
 77
     1
 78
     8
170
     0
171
     2
172
     1
173
     0
174
     0
175
     0
176
   256
177
   256
178
   256
  0
ENDTAB
  0
ENDSEC
  0
SECTION
  2
BLOCKS
  0
BLOCK
  8
0
  2
$MODEL_SPACE
 70
     0
 10
0.0
 20
0.0
 30
0.0
  3
$MODEL_SPACE
  1

  0
ENDBLK
  5
12B21F
  8
0
  0
BLOCK
 67
     1
  8
0
  2
$PAPER_SPACE
 70
     0
 10
0.0
 20
0.0
 30
0.0
  3
$PAPER_SPACE
  1

  0
ENDBLK
  5
12B21B
 67
     1
  8
0
  0
BLOCK
  8
0
  2
_OPEN30
 70
     0
 10
0.0
 20
0.0
 30
0.0
  3
_OPEN30
  1

  0
LINE
  5
202
  8
0
  6
BYBLOCK
 62
     0
 10
-1.0
 20
0.26794919
 30
0.0
 11
0.0
 21
0.0
 31
0.0
  0
LINE
  5
203
  8
0
  6
BYBLOCK
 62
     0
 10
0.0
 20
0.0
 30
0.0
 11
-1.0
 21
-0.26794919
 31
0.0
  0
LINE
  5
204
  8
0
  6
BYBLOCK
 62
     0
 10
0.0
 20
0.0
 30
0.0
 11
-1.0
 21
0.0
 31
0.0
  0
ENDBLK
  5
206
  8
0
  0
BLOCK
  8
0
  2
*U4
 70
     1
 10
0.0
 20
0.0
 30
0.0
  3
*U4
  1

  0
TEXT
  5
12B17B
  8
DIM
 10
3840.6616440113212
 20
-882.74285714285645
 30
0.0
 40
32.0
  1
m（シンドカット）
 50
90.0
 41
0.75
  0
ENDBLK
  5
12B17D
  8
0
  0
BLOCK
  8
0
  2
*U5
 70
     1
 10
0.0
 20
0.0
 30
0.0
  3
*U5
  1

  0
TEXT
  5
12B17F
  8
DIM
 10
2209.479620594459
 20
-3084.1428571428528
 30
0.0
 40
32.0
  1
A
 50
90.0
 41
0.75
  0
ENDBLK
  5
12B181
  8
0
  0
BLOCK
  8
0
  2
*U6
 70
     1
 10
0.0
 20
0.0
 30
0.0
  3
*U6
  1

  0
TEXT
  5
12B183
  8
DIM
 10
2207.8409284037348
 20
-3465.9999999999959
 30
0.0
 40
32.0
  1
B
 50
90.0
 41
0.75
  0
ENDBLK
  5
12B185
  8
0
  0
BLOCK
  8
0
  2
*U7
 70
     1
 10
0.0
 20
0.0
 30
0.0
  3
*U7
  1

  0
TEXT
  5
12B187
  8
DIM
 10
2061.428571428572
 20
-2938.208121984444
 30
0.0
 40
32.0
  1
C
 41
0.75
  0
ENDBLK
  5
12B189
  8
0
  0
BLOCK
  8
0
  2
*U8
 70
     1
 10
0.0
 20
0.0
 30
0.0
  3
*U8
  1

  0
TEXT
  5
12B18B
  8
SLIM
 10
509.0476190477408
 20
-586.75000000000955
 30
0.0
 40
26.0
  1
100
  0
ENDBLK
  5
12B18D
  8
0
  0
BLOCK
  8
0
  2
*U9
 70
     1
 10
0.0
 20
0.0
 30
0.0
  3
*U9
  1

  0
TEXT
  5
12B18F
  8
SLIM
 10
158.9523809524228
 20
-594.00000000000955
 30
0.0
 40
26.0
  1
75
  0
ENDBLK
  5
12B191
  8
0
  0
BLOCK
  8
0
  2
*U10
 70
     1
 10
0.0
 20
0.0
 30
0.0
  3
*U10
  1

  0
TEXT
  5
12B193
  8
SLIM
 10
518.95238095250295
 20
-130.00000000000321
 30
0.0
 40
26.0
  1
65
  0
ENDBLK
  5
12B195
  8
0
  0
BLOCK
  8
0
  2
*U11
 70
     1
 10
0.0
 20
0.0
 30
0.0
  3
*U11
  1

  0
TEXT
  5
12B197
  8
SLIM
 10
158.9523809524228
 20
-130.00000000000321
 30
0.0
 40
26.0
  1
50
  0
ENDBLK
  5
12B199
  8
0
  0
ENDSEC
  0
SECTION
  2
ENTITIES
  0
LINE
  5
1295F8
  8
OBJECT
 10
1825.0
 20
-3479.9999999999959
 30
0.0
 11
5575.0
 21
-3479.9999999999959
 31
0.0
  0
LINE
  5
1295FA
  8
SLIM
 10
2616.0
 20
-2537.50001604727
 30
0.0
 11
2616.0
 21
-2867.50001604727
 31
0.0
  0
LINE
  5
1295FB
  8
SLIM
 10
2740.0
 20
-2537.50001604727
 30
0.0
 11
2740.0
 21
-2867.50001604727
 31
0.0
  0
LINE
  5
1295FC
  8
SLIM
 10
2870.0
 20
-2597.50001604727
 30
0.0
 11
2870.0
 21
-2867.50001604727
 31
0.0
  0
LINE
  5
1295FD
  8
SLIM
 10
3000.0
 20
-2597.50001604727
 30
0.0
 11
3000.0
 21
-2867.50001604727
 31
0.0
  0
LINE
  5
1295FE
  8
SLIM
 10
3130.0
 20
-2867.50001604727
 30
0.0
 11
3130.0
 21
-2597.50001604727
 31
0.0
  0
LINE
  5
1295FF
  8
SLIM
 10
3260.0
 20
-2867.50001604727
 30
0.0
 11
3260.0
 21
-2537.50001604727
 31
0.0
  0
LINE
  5
129600
  8
SLIM
 10
3260.0
 20
-2537.50001604727
 30
0.0
 11
2616.0
 21
-2537.50001604727
 31
0.0
  0
LINE
  5
129601
  8
SLIM
 10
3260.0
 20
-2597.50001604727
 30
0.0
 11
2740.0
 21
-2597.50001604727
 31
0.0
  0
LINE
  5
129602
  8
SLIM
 10
3260.0
 20
-2657.50001604727
 30
0.0
 11
2616.0
 21
-2657.50001604727
 31
0.0
  0
LINE
  5
129603
  8
SLIM
 10
3260.0
 20
-2727.50001604727
 30
0.0
 11
2616.0
 21
-2727.50001604727
 31
0.0
  0
LINE
  5
129604
  8
SLIM
 10
3260.0
 20
-2797.50001604727
 30
0.0
 11
2616.0
 21
-2797.50001604727
 31
0.0
  0
LINE
  5
129605
  8
SLIM
 10
3260.0
 20
-2867.50001604727
 30
0.0
 11
2616.0
 21
-2867.50001604727
 31
0.0
  0
LINE
  5
12961A
  8
SLIM
 10
2740.0
 20
-2657.50001604727
 30
0.0
 11
2615.9999722746579
 21
-2537.5
 31
0.0
  0
LINE
  5
12964F
  8
OBJECT
 10
5323.0
 20
-3295.9999999999968
 30
0.0
 11
5323.0
 21
-3274.9999999999968
 31
0.0
1001
ACDBBLOCKREPETAG
1070
     1
1071
       20
1005
12964F
  0
LINE
  5
129650
  8
OBJECT
 10
5323.0
 20
-3274.9999999999968
 30
0.0
 11
5477.0
 21
-3274.9999999999968
 31
0.0
1001
ACDBBLOCKREPETAG
1070
     1
1071
       21
1005
129650
  0
LINE
  5
129651
  8
HIDDEN
 10
5343.0
 20
-3344.9999999999968
 30
0.0
 11
5457.0
 21
-3344.9999999999968
 31
0.0
1001
ACDBBLOCKREPETAG
1070
     1
1071
       22
1005
129651
  0
LINE
  5
129652
  8
OBJECT
 10
5477.0
 20
-3274.9999999999968
 30
0.0
 11
5477.0
 21
-3295.9999999999968
 31
0.0
1001
ACDBBLOCKREPETAG
1070
     1
1071
       23
1005
129652
  0
LINE
  5
129653
  8
OBJECT
 10
5477.0
 20
-3295.9999999999968
 30
0.0
 11
5323.0
 21
-3295.9999999999968
 31
0.0
1001
ACDBBLOCKREPETAG
1070
     1
1071
       24
1005
129653
  0
LINE
  5
129654
  8
CENTER
 10
5400.0
 20
-3259.9999999999968
 30
0.0
 11
5400.0
 21
-3494.9999999999968
 31
0.0
1001
ACDBBLOCKREPETAG
1070
     1
1071
       25
1005
129654
  0
LINE
  5
129655
  8
OBJECT
 10
5325.0
 20
-3358.9999999999968
 30
0.0
 11
5325.0
 21
-3482.9999999999968
 31
0.0
1001
ACDBBLOCKREPETAG
1070
     1
1071
       26
1005
129655
  0
LINE
  5
129656
  8
OBJECT
 10
5328.0
 20
-3295.9999999999968
 30
0.0
 11
5328.0
 21
-3358.9999999999968
 31
0.0
1001
ACDBBLOCKREPETAG
1070
     1
1071
       27
1005
129656
  0
LINE
  5
129657
  8
OBJECT
 10
5472.0
 20
-3358.9999999999968
 30
0.0
 11
5472.0
 21
-3295.9999999999968
 31
0.0
1001
ACDBBLOCKREPETAG
1070
     1
1071
       28
1005
129657
  0
LINE
  5
129658
  8
OBJECT
 10
5475.0
 20
-3358.9999999999968
 30
0.0
 11
5456.7802782663139
 21
-3358.9999999999968
 31
0.0
1001
ACDBBLOCKREPETAG
1070
     1
1071
       30
1005
129658
  0
LINE
  5
129659
  8
OBJECT
 10
5475.0
 20
-3358.9999999999968
 30
0.0
 11
5475.0
 21
-3482.9999999999968
 31
0.0
1001
ACDBBLOCKREPETAG
1070
     1
1071
       34
1005
129659
  0
POINT
  5
12965A
  8
DOTS
 10
5400.0
 20
-3479.9999999999968
 30
0.0
1001
ACDBBLOCKREPETAG
1070
     1
1071
      187
1005
12965A
  0
LINE
  5
12965B
  8
CENTER
 10
5310.0
 20
-3407.9999999999968
 30
0.0
 11
5490.0
 21
-3407.9999999999968
 31
0.0
1001
ACDBBLOCKREPETAG
1070
     1
1071
       23
1005
12965B
  0
CIRCLE
  5
12965C
  8
OBJECT
 10
5400.0
 20
-3407.9999999999968
 30
0.0
 40
53.5
1001
ACDBBLOCKREPETAG
1070
     1
1071
       24
1005
12965C
  0
CIRCLE
  5
12965D
  8
OBJECT
 10
5400.0
 20
-3407.9999999999968
 30
0.0
 40
67.0
1001
ACDBBLOCKREPETAG
1070
     1
1071
       25
1005
12965D
  0
ARC
  5
12965E
  8
OBJECT
 10
5400.0
 20
-3407.9999999999968
 30
0.0
 40
75.0
 50
286.26020470824
 51
253.73979529175989
1001
ACDBBLOCKREPETAG
1070
     1
1071
       27
1005
12965E
  0
LINE
  5
12965F
  8
OBJECT
 10
5379.0
 20
-3479.9999999999968
 30
0.0
 11
5421.0
 21
-3479.9999999999968
 31
0.0
1001
ACDBBLOCKREPETAG
1070
     1
1071
       28
1005
12965F
  0
LINE
  5
129660
  8
OBJECT
 10
5343.2197217336861
 20
-3358.9999999999968
 30
0.0
 11
5325.0
 21
-3358.9999999999968
 31
0.0
1001
ACDBBLOCKREPETAG
1070
     1
1071
       30
1005
129658
  0
TEXT
  5
129661
  8
SLIM
 10
-0.0000000000000011
 20
282.5
 30
0.0
 40
35.0
  1
※ 100枝（4）がある場合、品名の最後に【管底】が付きます。
 41
0.9
 11
0.0
 21
300.0
 31
0.0
 73
     2
  0
LINE
  5
12AD9A
  8
SLIM
 10
4850.0
 20
-787.99999999999693
 30
0.0
 11
4850.0
 21
-979.99999999999682
 31
0.0
  0
LINE
  5
12AD9B
  8
SLIM
 10
4954.0
 20
-979.99999999999682
 30
0.0
 11
4954.0
 21
-787.99999999999693
 31
0.0
  0
LINE
  5
12AD9C
  8
SLIM
 10
5102.0
 20
-787.99999999999693
 30
0.0
 11
4850.0
 21
-787.99999999999693
 31
0.0
  0
LINE
  5
12AD9D
  8
SLIM
 10
5102.0
 20
-883.99999999999693
 30
0.0
 11
4850.0
 21
-883.99999999999693
 31
0.0
  0
LINE
  5
12AD9F
  8
SLIM
 10
5102.0
 20
-931.99999999999704
 30
0.0
 11
4850.0
 21
-931.99999999999704
 31
0.0
  0
LINE
  5
12ADA0
  8
SLIM
 10
5102.0
 20
-979.99999999999682
 30
0.0
 11
4850.0
 21
-979.99999999999682
 31
0.0
  0
LINE
  5
12ADA4
  8
SLIM
 10
5102.0
 20
-835.99999999999693
 30
0.0
 11
4850.0
 21
-835.99999999999693
 31
0.0
  0
LINE
  5
12ADA6
  8
SLIM
 10
5102.0
 20
-787.99999999999693
 30
0.0
 11
5102.0
 21
-979.99999999999682
 31
0.0
  0
LINE
  5
12ADDF
  8
DIM
 10
3904.9999999999941
 20
-655.0
 30
0.0
 11
3839.6616440113221
 21
-654.99999999999977
 31
0.0
  0
LINE
  5
12ADE0
  8
DIM
 10
3910.0
 20
-865.0
 30
0.0
 11
3839.6616440113221
 21
-864.99999999999955
 31
0.0
  0
LINE
  5
12ADE1
  8
DIM
 10
3849.6616440113221
 20
-675.0
 30
0.0
 11
3849.6616440113221
 21
-845.0
 31
0.0
  0
INSERT
  5
12ADE2
  8
DIM
  2
_OPEN30
 10
3849.6616440113221
 20
-655.0
 30
0.0
 41
20.0
 42
20.0
 43
20.0
 50
90.0
  0
INSERT
  5
12ADE3
  8
DIM
  2
_OPEN30
 10
3849.6616440113221
 20
-865.0
 30
0.0
 41
20.0
 42
20.0
 43
20.0
 50
270.0
  0
INSERT
  5
12ADE4
  8
OBJECT
  2
*U4
 10
0.0
 20
0.0
 30
0.0
  0
TEXT
  5
12ADE5
  8
SLIM
 10
3554.6000000000008
 20
-1315.666666666664
 30
0.0
 40
28.0
  1
※ 対応スラブ厚　180～（m-10）
 41
0.75
  0
TEXT
  5
12ADE6
  8
SLIM
 10
3554.6000000000008
 20
-1362.3333333333319
 30
0.0
 40
28.0
  1
※ 足切り可能寸法（最大）　210-m（コンパクトＬベンド使用なら+20）
 41
0.75
  0
TEXT
  5
12ADE7
  8
SLIM
 10
3598.9000000000001
 20
-1455.6666666666649
 30
0.0
 40
28.0
  1
国土交通大臣認定・（一財）日本消防設備安全センター性能評定取得品
 41
0.75
  0
TEXT
  5
12ADE8
  8
SLIM
 10
3631.1000000000022
 20
-1502.3333333333319
 30
0.0
 40
28.0
  1
注）ご採用にあたり、認定書及び評定書の内容をご確認ください。
 41
0.75
  0
TEXT
  5
12ADE9
  8
SLIM
 10
5006.5714285714294
 20
-871.99999999999682
 30
0.0
 40
24.0
  1
180
 41
0.75
  0
TEXT
  5
12ADEA
  8
SLIM
 10
4970.0571428571429
 20
-967.99999999999693
 30
0.0
 40
24.0
  1
180～200
 41
0.75
  0
TEXT
  5
12ADEB
  8
SLIM
 10
4971.7714285714292
 20
-919.99999999999693
 30
0.0
 40
24.0
  1
180～190
 41
0.75
  0
TEXT
  5
12ADEC
  8
SLIM
 10
4965.6000000000013
 20
-823.99999999999704
 30
0.0
 40
24.0
  1
対応スラブ厚
 41
0.75
  0
TEXT
  5
12ADED
  8
SLIM
 10
4898.1714285714288
 20
-1025.999999999997
 30
0.0
 40
24.0
  1
標準：m=210
 41
0.75
  0
TEXT
  5
12ADEE
  8
SLIM
 10
4880.5714285714284
 20
-871.99999999999682
 30
0.0
 40
24.0
  1
190
 41
0.75
  0
TEXT
  5
12ADEF
  8
SLIM
 10
4880.5714285714284
 20
-967.99999999999693
 30
0.0
 40
24.0
  1
210
 41
0.75
  0
TEXT
  5
12ADF0
  8
SLIM
 10
4869.9428571428571
 20
-823.99999999999704
 30
0.0
 40
24.0
  1
m寸法
 41
0.75
  0
TEXT
  5
12ADF1
  8
SLIM
 10
4878.8571428571431
 20
-919.99999999999693
 30
0.0
 40
24.0
  1
200
 41
0.75
  0
CIRCLE
  5
12ADF2
  8
OBJECT
 10
5000.0
 20
-3074.9999999999959
 30
0.0
 40
53.5
1001
ACDBBLOCKREPETAG
1070
     1
1071
      344
1005
12ADF2
  0
LINE
  5
12ADF3
  8
CENTER
 10
5080.0
 20
-3074.9999999999959
 30
0.0
 11
4905.0
 21
-3074.9999999999959
 31
0.0
1001
ACDBBLOCKREPETAG
1070
     1
1071
       14
1005
12ADF3
  0
LINE
  5
12ADF4
  8
CENTER
 10
5000.0
 20
-3169.9999999999959
 30
0.0
 11
5000.0
 21
-2979.9999999999959
 31
0.0
1001
ACDBBLOCKREPETAG
1070
     1
1071
       15
1005
12ADF4
  0
CIRCLE
  5
12ADF5
  8
OBJECT
 10
5000.0
 20
-3074.9999999999959
 30
0.0
 40
70.0
1001
ACDBBLOCKREPETAG
1070
     1
1071
       16
1005
12ADF5
  0
CIRCLE
  5
12ADF6
  8
OBJECT
 10
5000.0
 20
-3074.9999999999959
 30
0.0
 40
77.0
1001
ACDBBLOCKREPETAG
1070
     1
1071
       17
1005
12ADF6
  0
ARC
  5
12ADF7
  8
OBJECT
 10
5000.0
 20
-3074.9999999999959
 30
0.0
 40
80.0
 50
50.805032573882329
 51
309.19496742611773
1001
ACDBBLOCKREPETAG
1070
     1
1071
       18
1005
12ADF7
  0
LINE
  5
12ADF8
  8
OBJECT
 10
5045.6618002273253
 20
-3012.9999999999959
 30
0.0
 11
5080.0
 21
-3012.9999999999959
 31
0.0
1001
ACDBBLOCKREPETAG
1070
     1
1071
       19
1005
12ADF8
  0
LINE
  5
12ADF9
  8
OBJECT
 10
5045.6618002273253
 20
-3136.9999999999959
 30
0.0
 11
5080.0
 21
-3136.9999999999959
 31
0.0
1001
ACDBBLOCKREPETAG
1070
     1
1071
       20
1005
12ADF9
  0
POINT
  5
12ADFA
  8
DOTS
 10
5000.0
 20
-3074.9999999999959
 30
0.0
1001
ACDBBLOCKREPETAG
1070
     1
1071
       21
1005
12ADFA
  0
CIRCLE
  5
12ADFB
  8
OBJECT
 10
4000.0
 20
-3074.9999999999959
 30
0.0
 40
53.5
1001
ACDBBLOCKREPETAG
1070
     1
1071
      344
1005
12ADFB
  0
LINE
  5
12ADFC
  8
CENTER
 10
4080.0
 20
-3074.9999999999959
 30
0.0
 11
3905.0
 21
-3074.9999999999959
 31
0.0
1001
ACDBBLOCKREPETAG
1070
     1
1071
       14
1005
12ADFC
  0
LINE
  5
12ADFD
  8
CENTER
 10
4000.0
 20
-3169.9999999999959
 30
0.0
 11
4000.0
 21
-2979.9999999999959
 31
0.0
1001
ACDBBLOCKREPETAG
1070
     1
1071
       15
1005
12ADFD
  0
CIRCLE
  5
12ADFE
  8
OBJECT
 10
4000.0
 20
-3074.9999999999959
 30
0.0
 40
70.0
1001
ACDBBLOCKREPETAG
1070
     1
1071
       16
1005
12ADFE
  0
CIRCLE
  5
12ADFF
  8
OBJECT
 10
4000.0
 20
-3074.9999999999959
 30
0.0
 40
77.0
1001
ACDBBLOCKREPETAG
1070
     1
1071
       17
1005
12ADFF
  0
ARC
  5
12AE00
  8
OBJECT
 10
4000.0
 20
-3074.9999999999959
 30
0.0
 40
80.0
 50
50.805032573862128
 51
309.19496742613791
1001
ACDBBLOCKREPETAG
1070
     1
1071
       18
1005
12AE00
  0
LINE
  5
12AE01
  8
OBJECT
 10
4045.661800227324
 20
-3012.9999999999959
 30
0.0
 11
4080.0
 21
-3012.9999999999959
 31
0.0
1001
ACDBBLOCKREPETAG
1070
     1
1071
       19
1005
12AE01
  0
LINE
  5
12AE02
  8
OBJECT
 10
4045.661800227324
 20
-3136.9999999999959
 30
0.0
 11
4080.0
 21
-3136.9999999999959
 31
0.0
1001
ACDBBLOCKREPETAG
1070
     1
1071
       20
1005
12AE02
  0
POINT
  5
12AE03
  8
DOTS
 10
4000.0
 20
-3074.9999999999959
 30
0.0
1001
ACDBBLOCKREPETAG
1070
     1
1071
       21
1005
12AE03
  0
CIRCLE
  5
12AE04
  8
OBJECT
 10
3000.0
 20
-3074.9999999999959
 30
0.0
 40
53.5
1001
ACDBBLOCKREPETAG
1070
     1
1071
      344
1005
12AE04
  0
LINE
  5
12AE05
  8
CENTER
 10
3080.0
 20
-3074.9999999999959
 30
0.0
 11
2905.0
 21
-3074.9999999999959
 31
0.0
1001
ACDBBLOCKREPETAG
1070
     1
1071
       14
1005
12AE05
  0
LINE
  5
12AE06
  8
CENTER
 10
3000.0
 20
-3169.9999999999959
 30
0.0
 11
3000.0
 21
-2979.9999999999959
 31
0.0
1001
ACDBBLOCKREPETAG
1070
     1
1071
       15
1005
12AE06
  0
CIRCLE
  5
12AE07
  8
OBJECT
 10
3000.0
 20
-3074.9999999999959
 30
0.0
 40
70.0
1001
ACDBBLOCKREPETAG
1070
     1
1071
       16
1005
12AE07
  0
CIRCLE
  5
12AE08
  8
OBJECT
 10
3000.0
 20
-3074.9999999999959
 30
0.0
 40
77.0
1001
ACDBBLOCKREPETAG
1070
     1
1071
       17
1005
12AE08
  0
ARC
  5
12AE09
  8
OBJECT
 10
3000.0
 20
-3074.9999999999959
 30
0.0
 40
80.0
 50
50.805032573862128
 51
309.19496742613791
1001
ACDBBLOCKREPETAG
1070
     1
1071
       18
1005
12AE09
  0
LINE
  5
12AE0A
  8
OBJECT
 10
3045.6618002273249
 20
-3012.9999999999959
 30
0.0
 11
3080.0
 21
-3012.9999999999959
 31
0.0
1001
ACDBBLOCKREPETAG
1070
     1
1071
       19
1005
12AE0A
  0
LINE
  5
12AE0B
  8
OBJECT
 10
3045.6618002273249
 20
-3136.9999999999959
 30
0.0
 11
3080.0
 21
-3136.9999999999959
 31
0.0
1001
ACDBBLOCKREPETAG
1070
     1
1071
       20
1005
12AE0B
  0
POINT
  5
12AE0C
  8
DOTS
 10
3000.0
 20
-3074.9999999999959
 30
0.0
1001
ACDBBLOCKREPETAG
1070
     1
1071
       21
1005
12AE0C
  0
CIRCLE
  5
12AE0D
  8
OBJECT
 10
2000.0
 20
-3074.9999999999959
 30
0.0
 40
53.5
1001
ACDBBLOCKREPETAG
1070
     1
1071
      344
1005
12AE0D
  0
LINE
  5
12AE0E
  8
CENTER
 10
2080.0
 20
-3074.9999999999959
 30
0.0
 11
1905.0
 21
-3074.9999999999959
 31
0.0
1001
ACDBBLOCKREPETAG
1070
     1
1071
       14
1005
12AE0E
  0
LINE
  5
12AE0F
  8
CENTER
 10
2000.0
 20
-3169.9999999999959
 30
0.0
 11
2000.0
 21
-2979.9999999999959
 31
0.0
1001
ACDBBLOCKREPETAG
1070
     1
1071
       15
1005
12AE0F
  0
CIRCLE
  5
12AE10
  8
OBJECT
 10
2000.0
 20
-3074.9999999999959
 30
0.0
 40
70.0
1001
ACDBBLOCKREPETAG
1070
     1
1071
       16
1005
12AE10
  0
CIRCLE
  5
12AE11
  8
OBJECT
 10
2000.0
 20
-3074.9999999999959
 30
0.0
 40
77.0
1001
ACDBBLOCKREPETAG
1070
     1
1071
       17
1005
12AE11
  0
ARC
  5
12AE12
  8
OBJECT
 10
2000.0
 20
-3074.9999999999959
 30
0.0
 40
80.0
 50
50.805032573862128
 51
309.19496742613791
1001
ACDBBLOCKREPETAG
1070
     1
1071
       18
1005
12AE12
  0
LINE
  5
12AE13
  8
OBJECT
 10
2045.6618002273251
 20
-3012.9999999999959
 30
0.0
 11
2080.0
 21
-3012.9999999999959
 31
0.0
1001
ACDBBLOCKREPETAG
1070
     1
1071
       19
1005
12AE13
  0
LINE
  5
12AE14
  8
OBJECT
 10
2045.6618002273251
 20
-3136.9999999999959
 30
0.0
 11
2080.0
 21
-3136.9999999999959
 31
0.0
1001
ACDBBLOCKREPETAG
1070
     1
1071
       20
1005
12AE14
  0
POINT
  5
12AE15
  8
DOTS
 10
2000.0
 20
-3074.9999999999959
 30
0.0
1001
ACDBBLOCKREPETAG
1070
     1
1071
       21
1005
12AE15
  0
LINE
  5
12AE16
  8
SLIM
 10
3927.3018300565232
 20
-155.95484036957691
 30
0.0
 11
3955.9548403695781
 21
-127.30183005652231
 31
0.0
1001
GRADIENTCOLOR1ACI
1070
     5
1001
GRADIENTCOLOR2ACI
1070
     2
1001
ACAD
1010
0.0
1020
0.0
1030
0.0
1001
ACDBBLOCKREPETAG
1070
     1
1071
      436
1005
12AE16
  0
LINE
  5
12AE17
  8
SLIM
 10
3919.4861520708369
 20
-172.75077447633191
 30
0.0
 11
3938.2903089572728
 21
-153.94661758989659
 31
0.0
1001
GRADIENTCOLOR1ACI
1070
     5
1001
GRADIENTCOLOR2ACI
1070
     2
1001
ACAD
1010
0.0
1020
0.0
1030
0.0
1001
ACDBBLOCKREPETAG
1070
     1
1071
      437
1005
12AE17
  0
LINE
  5
12AE18
  8
SLIM
 10
3953.946617589897
 20
-138.29030895727169
 30
0.0
 11
3972.7507744763329
 21
-119.4861520708364
 31
0.0
1001
GRADIENTCOLOR1ACI
1070
     5
1001
GRADIENTCOLOR2ACI
1070
     2
1001
ACAD
1010
0.0
1020
0.0
1030
0.0
1001
ACDBBLOCKREPETAG
1070
     1
1071
      438
1005
12AE18
  0
LINE
  5
12AE19
  8
SLIM
 10
3916.359667993378
 20
-184.8575146748604
 30
0.0
 11
3927.6959583557841
 21
-173.5212243124561
 31
0.0
1001
GRADIENTCOLOR1ACI
1070
     5
1001
GRADIENTCOLOR2ACI
1070
     2
1001
ACAD
1010
0.0
1020
0.0
1030
0.0
1001
ACDBBLOCKREPETAG
1070
     1
1071
      439
1005
12AE19
  0
LINE
  5
12AE1A
  8
SLIM
 10
3973.521224312457
 20
-127.6959583557812
 30
0.0
 11
3984.8575146748631
 21
-116.359667993377
 31
0.0
1001
GRADIENTCOLOR1ACI
1070
     5
1001
GRADIENTCOLOR2ACI
1070
     2
1001
ACAD
1010
0.0
1020
0.0
1030
0.0
1001
ACDBBLOCKREPETAG
1070
     1
1071
      440
1005
12AE1A
  0
LINE
  5
12AE1B
  8
SLIM
 10
3915.1440575890529
 20
-195.0533812002549
 30
0.0
 11
3924.303021643183
 21
-185.89441714612491
 31
0.0
1001
GRADIENTCOLOR1ACI
1070
     5
1001
GRADIENTCOLOR2ACI
1070
     2
1001
ACAD
1010
0.0
1020
0.0
1030
0.0
1001
ACDBBLOCKREPETAG
1070
     1
1071
      441
1005
12AE1B
  0
LINE
  5
12AE1C
  8
SLIM
 10
3985.8944171461271
 20
-124.30302164318159
 30
0.0
 11
3995.0533812002559
 21
-115.1440575890517
 31
0.0
1001
GRADIENTCOLOR1ACI
1070
     5
1001
GRADIENTCOLOR2ACI
1070
     2
1001
ACAD
1010
0.0
1020
0.0
1030
0.0
1001
ACDBBLOCKREPETAG
1070
     1
1071
      442
1005
12AE1C
  0
LINE
  5
12AE1D
  8
SLIM
 10
3915.097963557474
 20
-204.07973135290339
 30
0.0
 11
3919.1776949103769
 21
-199.99999999999909
 31
0.0
1001
GRADIENTCOLOR1ACI
1070
     5
1001
GRADIENTCOLOR2ACI
1070
     2
1001
ACAD
1010
0.0
1020
0.0
1030
0.0
1001
ACDBBLOCKREPETAG
1070
     1
1071
      443
1005
12AE1D
  0
LINE
  5
12AE1E
  8
SLIM
 10
4000.0
 20
-119.1776949103767
 30
0.0
 11
4004.0797313529042
 21
-115.0979635574724
 31
0.0
1001
GRADIENTCOLOR1ACI
1070
     5
1001
GRADIENTCOLOR2ACI
1070
     2
1001
ACAD
1010
0.0
1020
0.0
1030
0.0
1001
ACDBBLOCKREPETAG
1070
     1
1071
      444
1005
12AE1E
  0
LINE
  5
12AE1F
  8
SLIM
 10
3919.1776949103769
 20
-199.99999999999909
 30
0.0
 11
3923.0999621611709
 21
-196.07773274920581
 31
0.0
1001
GRADIENTCOLOR1ACI
1070
     5
1001
GRADIENTCOLOR2ACI
1070
     2
1001
ACAD
1010
0.0
1020
0.0
1030
0.0
1001
ACDBBLOCKREPETAG
1070
     1
1071
      445
1005
12AE1F
  0
LINE
  5
12AE20
  8
SLIM
 10
3996.0777327492078
 20
-123.0999621611699
 30
0.0
 11
4000.0
 21
-119.1776949103767
 31
0.0
1001
GRADIENTCOLOR1ACI
1070
     5
1001
GRADIENTCOLOR2ACI
1070
     2
1001
ACAD
1010
0.0
1020
0.0
1030
0.0
1001
ACDBBLOCKREPETAG
1070
     1
1071
      446
1005
12AE20
  0
LINE
  5
12AE21
  8
SLIM
 10
3915.8899726208729
 20
-212.26797841057399
 30
0.0
 11
3923.162230777169
 21
-204.9957202542767
 31
0.0
1001
GRADIENTCOLOR1ACI
1070
     5
1001
GRADIENTCOLOR2ACI
1070
     2
1001
ACAD
1010
0.0
1020
0.0
1030
0.0
1001
ACDBBLOCKREPETAG
1070
     1
1071
      447
1005
12AE21
  0
LINE
  5
12AE22
  8
SLIM
 10
4004.9957202542769
 20
-123.1622307771683
 30
0.0
 11
4012.2679784105749
 21
-115.88997262087101
 31
0.0
1001
GRADIENTCOLOR1ACI
1070
     5
1001
GRADIENTCOLOR2ACI
1070
     2
1001
ACAD
1010
0.0
1020
0.0
1030
0.0
1001
ACDBBLOCKREPETAG
1070
     1
1071
      448
1005
12AE22
  0
LINE
  5
12AE23
  8
SLIM
 10
3917.338265695154
 20
-219.79994145736151
 30
0.0
 11
3924.1101477855509
 21
-213.02805936696359
 31
0.0
1001
GRADIENTCOLOR1ACI
1070
     5
1001
GRADIENTCOLOR2ACI
1070
     2
1001
ACAD
1010
0.0
1020
0.0
1030
0.0
1001
ACDBBLOCKREPETAG
1070
     1
1071
      449
1005
12AE23
  0
LINE
  5
12AE24
  8
SLIM
 10
4013.028059366964
 20
-124.1101477855505
 30
0.0
 11
4019.799941457361
 21
-117.3382656951526
 31
0.0
1001
GRADIENTCOLOR1ACI
1070
     5
1001
GRADIENTCOLOR2ACI
1070
     2
1001
ACAD
1010
0.0
1020
0.0
1030
0.0
1001
ACDBBLOCKREPETAG
1070
     1
1071
      450
1005
12AE24
  0
LINE
  5
12AE25
  8
SLIM
 10
3919.331259406305
 20
-226.78720386727881
 30
0.0
 11
3925.7443819593391
 21
-220.3740813142449
 31
0.0
1001
GRADIENTCOLOR1ACI
1070
     5
1001
GRADIENTCOLOR2ACI
1070
     2
1001
ACAD
1010
0.0
1020
0.0
1030
0.0
1001
ACDBBLOCKREPETAG
1070
     1
1071
      451
1005
12AE25
  0
LINE
  5
12AE26
  8
SLIM
 10
4020.3740813142458
 20
-125.7443819593384
 30
0.0
 11
4026.7872038672799
 21
-119.3312594063044
 31
0.0
1001
GRADIENTCOLOR1ACI
1070
     5
1001
GRADIENTCOLOR2ACI
1070
     2
1001
ACAD
1010
0.0
1020
0.0
1030
0.0
1001
ACDBBLOCKREPETAG
1070
     1
1071
      452
1005
12AE26
  0
LINE
  5
12AE27
  8
SLIM
 10
3921.795716318622
 20
-233.30300307603289
 30
0.0
 11
3927.9462473957792
 21
-227.1524719988744
 31
0.0
1001
GRADIENTCOLOR1ACI
1070
     5
1001
GRADIENTCOLOR2ACI
1070
     2
1001
ACAD
1010
0.0
1020
0.0
1030
0.0
1001
ACDBBLOCKREPETAG
1070
     1
1071
      453
1005
12AE27
  0
LINE
  5
12AE28
  8
SLIM
 10
4027.1524719988752
 20
-127.946247395778
 30
0.0
 11
4033.3030030760328
 21
-121.7957163186195
 31
0.0
1001
GRADIENTCOLOR1ACI
1070
     5
1001
GRADIENTCOLOR2ACI
1070
     2
1001
ACAD
1010
0.0
1020
0.0
1030
0.0
1001
ACDBBLOCKREPETAG
1070
     1
1071
      454
1005
12AE28
  0
LINE
  5
12AE29
  8
SLIM
 10
3924.6816635313448
 20
-239.39731198437769
 30
0.0
 11
3930.6398768643921
 21
-233.4390986513296
 31
0.0
1001
GRADIENTCOLOR1ACI
1070
     5
1001
GRADIENTCOLOR2ACI
1070
     2
1001
ACAD
1010
0.0
1020
0.0
1030
0.0
1001
ACDBBLOCKREPETAG
1070
     1
1071
      455
1005
12AE29
  0
LINE
  5
12AE2A
  8
SLIM
 10
4033.4390986513308
 20
-130.63987686439199
 30
0.0
 11
4039.3973119843781
 21
-124.6816635313439
 31
0.0
1001
GRADIENTCOLOR1ACI
1070
     5
1001
GRADIENTCOLOR2ACI
1070
     2
1001
ACAD
1010
0.0
1020
0.0
1030
0.0
1001
ACDBBLOCKREPETAG
1070
     1
1071
      456
1005
12AE2A
  0
LINE
  5
12AE2B
  8
SLIM
 10
3927.9544611024248
 20
-245.10477053436691
 30
0.0
 11
3933.775007014995
 21
-239.28422462179759
 31
0.0
1001
GRADIENTCOLOR1ACI
1070
     5
1001
GRADIENTCOLOR2ACI
1070
     2
1001
ACAD
1010
0.0
1020
0.0
1030
0.0
1001
ACDBBLOCKREPETAG
1070
     1
1071
      457
1005
12AE2B
  0
LINE
  5
12AE2C
  8
SLIM
 10
4039.284224621797
 20
-133.77500701499321
 30
0.0
 11
4045.1047705343681
 21
-127.95446110242381
 31
0.0
1001
GRADIENTCOLOR1ACI
1070
     5
1001
GRADIENTCOLOR2ACI
1070
     2
1001
ACAD
1010
0.0
1020
0.0
1030
0.0
1001
ACDBBLOCKREPETAG
1070
     1
1071
      458
1005
12AE2C
  0
LINE
  5
12AE2D
  8
SLIM
 10
3931.5903319686659
 20
-250.4491557891954
 30
0.0
 11
3937.3182075880568
 21
-244.72128016980341
 31
0.0
1001
GRADIENTCOLOR1ACI
1070
     5
1001
GRADIENTCOLOR2ACI
1070
     2
1001
ACAD
1010
0.0
1020
0.0
1030
0.0
1001
ACDBBLOCKREPETAG
1070
     1
1071
      459
1005
12AE2D
  0
LINE
  5
12AE2E
  8
SLIM
 10
4044.7212801698038
 20
-137.31820758805651
 30
0.0
 11
4050.4491557891961
 21
-131.59033196866449
 31
0.0
1001
GRADIENTCOLOR1ACI
1070
     5
1001
GRADIENTCOLOR2ACI
1070
     2
1001
ACAD
1010
0.0
1020
0.0
1030
0.0
1001
ACDBBLOCKREPETAG
1070
     1
1071
      460
1005
12AE2E
  0
LINE
  5
12AE2F
  8
SLIM
 10
3935.5737496925258
 20
-255.4459941864034
 30
0.0
 11
3941.24811054159
 21
-249.77163333734029
 31
0.0
1001
GRADIENTCOLOR1ACI
1070
     5
1001
GRADIENTCOLOR2ACI
1070
     2
1001
ACAD
1010
0.0
1020
0.0
1030
0.0
1001
ACDBBLOCKREPETAG
1070
     1
1071
      461
1005
12AE2F
  0
LINE
  5
12AE30
  8
SLIM
 10
4053.0197438789291
 20
-137.99999999999909
 30
0.0
 11
4055.4459941864038
 21
-135.57374969252561
 31
0.0
1001
GRADIENTCOLOR1ACI
1070
     5
1001
GRADIENTCOLOR2ACI
1070
     2
1001
ACAD
1010
0.0
1020
0.0
1030
0.0
1001
ACDBBLOCKREPETAG
1070
     1
1071
      462
1005
12AE30
  0
LINE
  5
12AE31
  8
SLIM
 10
3939.8959235991442
 20
-260.10407640085572
 30
0.0
 11
3945.5527778486362
 21
-254.44722215136329
 31
0.0
1001
GRADIENTCOLOR1ACI
1070
     5
1001
GRADIENTCOLOR2ACI
1070
     2
1001
ACAD
1010
0.0
1020
0.0
1030
0.0
1001
ACDBBLOCKREPETAG
1070
     1
1071
      463
1005
12AE31
  0
LINE
  5
12AE32
  8
SLIM
 10
3944.5540058135962
 20
-264.4262503074724
 30
0.0
 11
3950.2283666626599
 21
-258.75188945840949
 31
0.0
1001
GRADIENTCOLOR1ACI
1070
     5
1001
GRADIENTCOLOR2ACI
1070
     2
1001
ACAD
1010
0.0
1020
0.0
1030
0.0
1001
ACDBBLOCKREPETAG
1070
     1
1071
      464
1005
12AE32
  0
LINE
  5
12AE33
  8
SLIM
 10
3949.5508442108039
 20
-268.40966803133369
 30
0.0
 11
3955.2787198301962
 21
-262.68179241194167
 31
0.0
1001
GRADIENTCOLOR1ACI
1070
     5
1001
GRADIENTCOLOR2ACI
1070
     2
1001
ACAD
1010
0.0
1020
0.0
1030
0.0
1001
ACDBBLOCKREPETAG
1070
     1
1071
      465
1005
12AE33
  0
LINE
  5
12AE34
  8
SLIM
 10
3954.8952294656328
 20
-272.04553889757437
 30
0.0
 11
3960.7157753782012
 21
-266.22499298500497
 31
0.0
1001
GRADIENTCOLOR1ACI
1070
     5
1001
GRADIENTCOLOR2ACI
1070
     2
1001
ACAD
1010
0.0
1020
0.0
1030
0.0
1001
ACDBBLOCKREPETAG
1070
     1
1071
      466
1005
12AE34
  0
LINE
  5
12AE35
  8
SLIM
 10
3960.602688015621
 20
-275.31833646865431
 30
0.0
 11
3966.560901348671
 21
-269.36012313560622
 31
0.0
1001
GRADIENTCOLOR1ACI
1070
     5
1001
GRADIENTCOLOR2ACI
1070
     2
1001
ACAD
1010
0.0
1020
0.0
1030
0.0
1001
ACDBBLOCKREPETAG
1070
     1
1071
      467
1005
12AE35
  0
LINE
  5
12AE36
  8
SLIM
 10
3966.6969969239681
 20
-278.20428368137868
 30
0.0
 11
3972.8475280011248
 21
-272.05375260422022
 31
0.0
1001
GRADIENTCOLOR1ACI
1070
     5
1001
GRADIENTCOLOR2ACI
1070
     2
1001
ACAD
1010
0.0
1020
0.0
1030
0.0
1001
ACDBBLOCKREPETAG
1070
     1
1071
      468
1005
12AE36
  0
LINE
  5
12AE37
  8
SLIM
 10
3973.2127961327192
 20
-280.66874059369371
 30
0.0
 11
3979.6259186857542
 21
-274.25561804065973
 31
0.0
1001
GRADIENTCOLOR1ACI
1070
     5
1001
GRADIENTCOLOR2ACI
1070
     2
1001
ACAD
1010
0.0
1020
0.0
1030
0.0
1001
ACDBBLOCKREPETAG
1070
     1
1071
      469
1005
12AE37
  0
LINE
  5
12AE38
  8
SLIM
 10
3980.200058542639
 20
-282.6617343048456
 30
0.0
 11
3986.971940633035
 21
-275.88985221444773
 31
0.0
1001
GRADIENTCOLOR1ACI
1070
     5
1001
GRADIENTCOLOR2ACI
1070
     2
1001
ACAD
1010
0.0
1020
0.0
1030
0.0
1001
ACDBBLOCKREPETAG
1070
     1
1071
      470
1005
12AE38
  0
LINE
  5
12AE39
  8
SLIM
 10
3987.7320215894251
 20
-284.11002737912702
 30
0.0
 11
3995.0042797457209
 21
-276.83776922282988
 31
0.0
1001
GRADIENTCOLOR1ACI
1070
     5
1001
GRADIENTCOLOR2ACI
1070
     2
1001
ACAD
1010
0.0
1020
0.0
1030
0.0
1001
ACDBBLOCKREPETAG
1070
     1
1071
      471
1005
12AE39
  0
LINE
  5
12AE3A
  8
SLIM
 10
3995.9202686470958
 20
-284.9020364425258
 30
0.0
 11
4000.0
 21
-280.82230508962152
 31
0.0
1001
GRADIENTCOLOR1ACI
1070
     5
1001
GRADIENTCOLOR2ACI
1070
     2
1001
ACAD
1010
0.0
1020
0.0
1030
0.0
1001
ACDBBLOCKREPETAG
1070
     1
1071
      472
1005
12AE3A
  0
LINE
  5
12AE3B
  8
SLIM
 10
4000.0
 20
-280.82230508962152
 30
0.0
 11
4003.9222672507922
 21
-276.90003783882821
 31
0.0
1001
GRADIENTCOLOR1ACI
1070
     5
1001
GRADIENTCOLOR2ACI
1070
     2
1001
ACAD
1010
0.0
1020
0.0
1030
0.0
1001
ACDBBLOCKREPETAG
1070
     1
1071
      473
1005
12AE3B
  0
LINE
  5
12AE3C
  8
SLIM
 10
4004.9466187997441
 20
-284.85594241094651
 30
0.0
 11
4014.1055828538729
 21
-275.6969783568166
 31
0.0
1001
GRADIENTCOLOR1ACI
1070
     5
1001
GRADIENTCOLOR2ACI
1070
     2
1001
ACAD
1010
0.0
1020
0.0
1030
0.0
1001
ACDBBLOCKREPETAG
1070
     1
1071
      474
1005
12AE3C
  0
LINE
  5
12AE3D
  8
SLIM
 10
4015.1424853251392
 20
-283.64033200662118
 30
0.0
 11
4026.4787756875421
 21
-272.30404164421702
 31
0.0
1001
GRADIENTCOLOR1ACI
1070
     5
1001
GRADIENTCOLOR2ACI
1070
     2
1001
ACAD
1010
0.0
1020
0.0
1030
0.0
1001
ACDBBLOCKREPETAG
1070
     1
1071
      475
1005
12AE3D
  0
LINE
  5
12AE3E
  8
SLIM
 10
4027.2492255236671
 20
-280.51384792916173
 30
0.0
 11
4045.7630734528302
 21
-261.99999999999909
 31
0.0
1001
GRADIENTCOLOR1ACI
1070
     5
1001
GRADIENTCOLOR2ACI
1070
     2
1001
ACAD
1010
0.0
1020
0.0
1030
0.0
1001
ACDBBLOCKREPETAG
1070
     1
1071
      476
1005
12AE3E
  0
LINE
  5
12AE3F
  8
SLIM
 10
4044.0451596304219
 20
-272.69816994347582
 30
0.0
 11
4054.7433295738979
 21
-261.99999999999909
 31
0.0
1001
GRADIENTCOLOR1ACI
1070
     5
1001
GRADIENTCOLOR2ACI
1070
     2
1001
ACAD
1010
0.0
1020
0.0
1030
0.0
1001
ACDBBLOCKREPETAG
1070
     1
1071
      477
1005
12AE3F
  0
LINE
  5
12AE40
  8
CENTER
 10
4080.0
 20
-199.99999999999909
 30
0.0
 11
3900.0
 21
-199.99999999999909
 31
0.0
1001
ACDBBLOCKREPETAG
1070
     1
1071
      187
1005
12AE40
  0
LINE
  5
12AE41
  8
CENTER
 10
4000.0
 20
-299.99999999999898
 30
0.0
 11
4000.0
 21
-99.999999999999091
 31
0.0
1001
ACDBBLOCKREPETAG
1070
     1
1071
      188
1005
12AE41
  0
CIRCLE
  5
12AE42
  8
OBJECT
 10
4000.0
 20
-199.99999999999909
 30
0.0
 40
70.0
1001
ACDBBLOCKREPETAG
1070
     1
1071
      189
1005
12AE42
  0
CIRCLE
  5
12AE43
  8
OBJECT
 10
4000.0
 20
-199.99999999999909
 30
0.0
 40
77.0
1001
ACDBBLOCKREPETAG
1070
     1
1071
      190
1005
12AE43
  0
LINE
  5
12AE44
  8
OBJECT
 10
4045.661800227324
 20
-137.99999999999909
 30
0.0
 11
4080.0
 21
-137.99999999999909
 31
0.0
1001
ACDBBLOCKREPETAG
1070
     1
1071
      192
1005
12AE44
  0
LINE
  5
12AE45
  8
OBJECT
 10
4045.661800227324
 20
-261.99999999999909
 30
0.0
 11
4080.0
 21
-261.99999999999909
 31
0.0
1001
ACDBBLOCKREPETAG
1070
     1
1071
      193
1005
12AE45
  0
POINT
  5
12AE46
  8
DOTS
 10
4000.0
 20
-199.99999999999909
 30
0.0
1001
ACDBBLOCKREPETAG
1070
     1
1071
      194
1005
12AE46
  0
ARC
  5
12AE47
  8
OBJECT
 10
4000.0
 20
-199.99999999999909
 30
0.0
 40
85.0
 50
46.837102859834147
 51
313.16289714016602
1001
ACDBBLOCKREPETAG
1070
     1
1071
      202
1005
12AE47
  0
CIRCLE
  5
12AE48
  8
OBJECT
 10
4000.0
 20
-199.99999999999909
 30
0.0
 40
53.5
1001
ACDBBLOCKREPETAG
1070
     1
1071
      356
1005
12AE48
  0
CIRCLE
  5
12AE49
  8
OBJECT
 10
2000.0
 20
-199.99999999999909
 30
0.0
 40
53.5
1001
ACDBBLOCKREPETAG
1070
     1
1071
      344
1005
12AE49
  0
LINE
  5
12AE4A
  8
CENTER
 10
2080.0
 20
-199.99999999999909
 30
0.0
 11
1905.0
 21
-199.99999999999909
 31
0.0
1001
ACDBBLOCKREPETAG
1070
     1
1071
       14
1005
12AE4A
  0
LINE
  5
12AE4B
  8
CENTER
 10
2000.0
 20
-294.99999999999898
 30
0.0
 11
2000.0
 21
-104.9999999999991
 31
0.0
1001
ACDBBLOCKREPETAG
1070
     1
1071
       15
1005
12AE4B
  0
CIRCLE
  5
12AE4C
  8
OBJECT
 10
2000.0
 20
-199.99999999999909
 30
0.0
 40
70.0
1001
ACDBBLOCKREPETAG
1070
     1
1071
       16
1005
12AE4C
  0
CIRCLE
  5
12AE4D
  8
OBJECT
 10
2000.0
 20
-199.99999999999909
 30
0.0
 40
77.0
1001
ACDBBLOCKREPETAG
1070
     1
1071
       17
1005
12AE4D
  0
ARC
  5
12AE4E
  8
OBJECT
 10
2000.0
 20
-199.99999999999909
 30
0.0
 40
80.0
 50
50.805032573864182
 51
309.1949674261358
1001
ACDBBLOCKREPETAG
1070
     1
1071
       18
1005
12AE4E
  0
LINE
  5
12AE4F
  8
OBJECT
 10
2045.6618002273251
 20
-137.99999999999909
 30
0.0
 11
2080.0
 21
-137.99999999999909
 31
0.0
1001
ACDBBLOCKREPETAG
1070
     1
1071
       19
1005
12AE4F
  0
LINE
  5
12AE50
  8
OBJECT
 10
2045.6618002273251
 20
-261.99999999999909
 30
0.0
 11
2080.0
 21
-261.99999999999909
 31
0.0
1001
ACDBBLOCKREPETAG
1070
     1
1071
       20
1005
12AE50
  0
POINT
  5
12AE51
  8
DOTS
 10
2000.0
 20
-199.99999999999909
 30
0.0
1001
ACDBBLOCKREPETAG
1070
     1
1071
       21
1005
12AE51
  0
CIRCLE
  5
12AE52
  8
OBJECT
 10
539.99999999987813
 20
-695.99999999984175
 30
0.0
 40
70.0
1001
ACDBBLOCKREPETAG
1070
     1
1071
       50
1005
12AE52
  0
CIRCLE
  5
12AE53
  8
OBJECT
 10
539.99999999987813
 20
-695.99999999984175
 30
0.0
 40
77.0
1001
ACDBBLOCKREPETAG
1070
     1
1071
       51
1005
12AE53
  0
ARC
  5
12AE54
  8
OBJECT
 10
539.99999999987813
 20
-695.99999999984175
 30
0.0
 40
80.0
 50
140.8050325737787
 51
39.194967426221282
1001
ACDBBLOCKREPETAG
1070
     1
1071
       52
1005
12AE54
  0
LINE
  5
12AE55
  8
OBJECT
 10
477.99999999987801
 20
-650.3381997725171
 30
0.0
 11
477.99999999987801
 21
-615.99999999984175
 31
0.0
1001
ACDBBLOCKREPETAG
1070
     1
1071
       53
1005
12AE55
  0
LINE
  5
12AE56
  8
OBJECT
 10
601.99999999987801
 20
-650.3381997725171
 30
0.0
 11
601.99999999987801
 21
-615.99999999984175
 31
0.0
1001
ACDBBLOCKREPETAG
1070
     1
1071
       54
1005
12AE56
  0
POINT
  5
12AE57
  8
DOTS
 10
539.99999999987813
 20
-695.99999999984175
 30
0.0
1001
ACDBBLOCKREPETAG
1070
     1
1071
       63
1005
12AE57
  0
CIRCLE
  5
12AE58
  8
OBJECT
 10
539.99999999987813
 20
-695.99999999984175
 30
0.0
 40
53.5
1001
ACDBBLOCKREPETAG
1070
     1
1071
      157
1005
12AE58
  0
CIRCLE
  5
12AE59
  8
OBJECT
 10
180.0
 20
-695.99999999984175
 30
0.0
 40
70.0
1001
ACDBBLOCKREPETAG
1070
     1
1071
       50
1005
12AE59
  0
CIRCLE
  5
12AE5A
  8
OBJECT
 10
180.0
 20
-695.99999999984175
 30
0.0
 40
77.0
1001
ACDBBLOCKREPETAG
1070
     1
1071
       51
1005
12AE5A
  0
ARC
  5
12AE5B
  8
OBJECT
 10
180.0
 20
-695.99999999984175
 30
0.0
 40
80.0
 50
140.80503257377961
 51
39.194967426220252
1001
ACDBBLOCKREPETAG
1070
     1
1071
       52
1005
12AE5B
  0
LINE
  5
12AE5C
  8
OBJECT
 10
118.0
 20
-650.3381997725171
 30
0.0
 11
118.0
 21
-615.99999999984175
 31
0.0
1001
ACDBBLOCKREPETAG
1070
     1
1071
       53
1005
12AE5C
  0
LINE
  5
12AE5D
  8
OBJECT
 10
242.0
 20
-650.3381997725171
 30
0.0
 11
242.0
 21
-615.99999999984175
 31
0.0
1001
ACDBBLOCKREPETAG
1070
     1
1071
       54
1005
12AE5D
  0
POINT
  5
12AE5E
  8
DOTS
 10
180.0
 20
-695.99999999984175
 30
0.0
1001
ACDBBLOCKREPETAG
1070
     1
1071
       63
1005
12AE5E
  0
CIRCLE
  5
12AE5F
  8
OBJECT
 10
180.0
 20
-695.99999999984175
 30
0.0
 40
53.5
1001
ACDBBLOCKREPETAG
1070
     1
1071
      157
1005
12AE5F
  0
CIRCLE
  5
12AE60
  8
OBJECT
 10
539.99999999987813
 20
-232.0
 30
0.0
 40
70.0
1001
ACDBBLOCKREPETAG
1070
     1
1071
       50
1005
12AE60
  0
CIRCLE
  5
12AE61
  8
OBJECT
 10
539.99999999987813
 20
-232.0
 30
0.0
 40
77.0
1001
ACDBBLOCKREPETAG
1070
     1
1071
       51
1005
12AE61
  0
ARC
  5
12AE62
  8
OBJECT
 10
539.99999999987813
 20
-232.0
 30
0.0
 40
80.0
 50
140.8050325737787
 51
39.194967426221282
1001
ACDBBLOCKREPETAG
1070
     1
1071
       52
1005
12AE62
  0
LINE
  5
12AE63
  8
OBJECT
 10
477.99999999987801
 20
-186.33819977267561
 30
0.0
 11
477.99999999987801
 21
-152.0
 31
0.0
1001
ACDBBLOCKREPETAG
1070
     1
1071
       53
1005
12AE63
  0
LINE
  5
12AE64
  8
OBJECT
 10
601.99999999987801
 20
-186.33819977267561
 30
0.0
 11
601.99999999987801
 21
-152.0
 31
0.0
1001
ACDBBLOCKREPETAG
1070
     1
1071
       54
1005
12AE64
  0
POINT
  5
12AE65
  8
DOTS
 10
539.99999999987813
 20
-232.0
 30
0.0
1001
ACDBBLOCKREPETAG
1070
     1
1071
       63
1005
12AE65
  0
CIRCLE
  5
12AE66
  8
OBJECT
 10
539.99999999987813
 20
-232.0
 30
0.0
 40
53.5
1001
ACDBBLOCKREPETAG
1070
     1
1071
      157
1005
12AE66
  0
CIRCLE
  5
12AE67
  8
OBJECT
 10
180.0
 20
-232.0
 30
0.0
 40
70.0
1001
ACDBBLOCKREPETAG
1070
     1
1071
       50
1005
12AE67
  0
CIRCLE
  5
12AE68
  8
OBJECT
 10
180.0
 20
-232.0
 30
0.0
 40
77.0
1001
ACDBBLOCKREPETAG
1070
     1
1071
       51
1005
12AE68
  0
ARC
  5
12AE69
  8
OBJECT
 10
180.0
 20
-232.0
 30
0.0
 40
80.0
 50
140.80503257377961
 51
39.194967426220252
1001
ACDBBLOCKREPETAG
1070
     1
1071
       52
1005
12AE69
  0
LINE
  5
12AE6A
  8
OBJECT
 10
118.0
 20
-186.33819977267561
 30
0.0
 11
118.0
 21
-152.0
 31
0.0
1001
ACDBBLOCKREPETAG
1070
     1
1071
       53
1005
12AE6A
  0
LINE
  5
12AE6B
  8
OBJECT
 10
242.0
 20
-186.33819977267561
 30
0.0
 11
242.0
 21
-152.0
 31
0.0
1001
ACDBBLOCKREPETAG
1070
     1
1071
       54
1005
12AE6B
  0
POINT
  5
12AE6C
  8
DOTS
 10
180.0
 20
-232.0
 30
0.0
1001
ACDBBLOCKREPETAG
1070
     1
1071
       63
1005
12AE6C
  0
CIRCLE
  5
12AE6D
  8
OBJECT
 10
180.0
 20
-232.0
 30
0.0
 40
53.5
1001
ACDBBLOCKREPETAG
1070
     1
1071
      157
1005
12AE6D
  0
LINE
  5
12AE6E
  8
OBJECT
 10
4923.0
 20
-3295.9999999999968
 30
0.0
 11
4923.0
 21
-3274.9999999999968
 31
0.0
1001
ACDBBLOCKREPETAG
1070
     1
1071
        0
1005
12AE6E
  0
LINE
  5
12AE6F
  8
OBJECT
 10
4923.0
 20
-3274.9999999999968
 30
0.0
 11
5077.0
 21
-3274.9999999999968
 31
0.0
1001
ACDBBLOCKREPETAG
1070
     1
1071
        1
1005
12AE6F
  0
LINE
  5
12AE70
  8
HIDDEN
 10
4943.0
 20
-3344.9999999999968
 30
0.0
 11
5057.0
 21
-3344.9999999999968
 31
0.0
1001
ACDBBLOCKREPETAG
1070
     1
1071
        2
1005
12AE70
  0
LINE
  5
12AE71
  8
OBJECT
 10
5077.0
 20
-3274.9999999999968
 30
0.0
 11
5077.0
 21
-3295.9999999999968
 31
0.0
1001
ACDBBLOCKREPETAG
1070
     1
1071
        3
1005
12AE71
  0
LINE
  5
12AE72
  8
OBJECT
 10
5077.0
 20
-3295.9999999999968
 30
0.0
 11
4923.0
 21
-3295.9999999999968
 31
0.0
1001
ACDBBLOCKREPETAG
1070
     1
1071
        4
1005
12AE72
  0
LINE
  5
12AE73
  8
CENTER
 10
5000.0
 20
-3259.9999999999968
 30
0.0
 11
5000.0
 21
-3494.9999999999968
 31
0.0
1001
ACDBBLOCKREPETAG
1070
     1
1071
        5
1005
12AE73
  0
LINE
  5
12AE74
  8
OBJECT
 10
4925.0
 20
-3358.9999999999968
 30
0.0
 11
4925.0
 21
-3482.9999999999968
 31
0.0
1001
ACDBBLOCKREPETAG
1070
     1
1071
        6
1005
12AE74
  0
LINE
  5
12AE75
  8
OBJECT
 10
4928.0
 20
-3295.9999999999968
 30
0.0
 11
4928.0
 21
-3358.9999999999968
 31
0.0
1001
ACDBBLOCKREPETAG
1070
     1
1071
        7
1005
12AE75
  0
LINE
  5
12AE76
  8
OBJECT
 10
5072.0
 20
-3358.9999999999968
 30
0.0
 11
5072.0
 21
-3295.9999999999968
 31
0.0
1001
ACDBBLOCKREPETAG
1070
     1
1071
        8
1005
12AE76
  0
LINE
  5
12AE77
  8
OBJECT
 10
5074.9999999997999
 20
-3482.9999999997758
 30
0.0
 11
5080.0
 21
-3482.9999999999968
 31
0.0
1001
ACDBBLOCKREPETAG
1070
     1
1071
        9
1005
12AE77
  0
LINE
  5
12AE78
  8
OBJECT
 10
5080.0
 20
-3358.9999999999968
 30
0.0
 11
4925.0
 21
-3358.9999999999968
 31
0.0
1001
ACDBBLOCKREPETAG
1070
     1
1071
       10
1005
12AE78
  0
ARC
  5
12AE79
  8
OBJECT
 10
5200.6872746716726
 20
-3474.408099410105
 30
0.0
 40
170.6350503965856
 50
137.44134459184301
 51
149.9194958133665
1001
ACDBBLOCKREPETAG
1070
     1
1071
       15
1005
12AE79
  0
ARC
  5
12AE7A
  8
OBJECT
 10
5118.8455987040506
 20
-3430.8827266953631
 30
0.0
 40
78.072222021763665
 50
147.4551531037684
 51
164.66365997719291
1001
ACDBBLOCKREPETAG
1070
     1
1071
       16
1005
12AE7A
  0
ARC
  5
12AE7B
  8
OBJECT
 10
5085.7554349608727
 20
-3420.9999999999991
 30
0.0
 40
43.55353926885617
 50
165.6884523008477
 51
194.3115476991523
1001
ACDBBLOCKREPETAG
1070
     1
1071
       17
1005
12AE7B
  0
ARC
  5
12AE7C
  8
OBJECT
 10
5200.6872746716726
 20
-3367.5919005898891
 30
0.0
 40
170.6350503965856
 50
210.0805041866335
 51
222.55865540815699
1001
ACDBBLOCKREPETAG
1070
     1
1071
       18
1005
12AE7C
  0
ARC
  5
12AE7D
  8
OBJECT
 10
5118.8455987040506
 20
-3411.1172733046319
 30
0.0
 40
78.072222021763665
 50
195.33634002280701
 51
212.5448468962316
1001
ACDBBLOCKREPETAG
1070
     1
1071
       19
1005
12AE7D
  0
POINT
  5
12AE7E
  8
DOTS
 10
5000.0
 20
-3479.9999999999968
 30
0.0
1001
ACDBBLOCKREPETAG
1070
     1
1071
      186
1005
12AE7E
  0
LINE
  5
12AE7F
  8
OBJECT
 10
4323.0
 20
-3295.9999999999968
 30
0.0
 11
4323.0
 21
-3274.9999999999968
 31
0.0
1001
ACDBBLOCKREPETAG
1070
     1
1071
       20
1005
12AE7F
  0
LINE
  5
12AE80
  8
OBJECT
 10
4323.0
 20
-3274.9999999999968
 30
0.0
 11
4477.0
 21
-3274.9999999999968
 31
0.0
1001
ACDBBLOCKREPETAG
1070
     1
1071
       21
1005
12AE80
  0
LINE
  5
12AE81
  8
HIDDEN
 10
4343.0
 20
-3344.9999999999968
 30
0.0
 11
4457.0
 21
-3344.9999999999968
 31
0.0
1001
ACDBBLOCKREPETAG
1070
     1
1071
       22
1005
12AE81
  0
LINE
  5
12AE82
  8
OBJECT
 10
4477.0
 20
-3274.9999999999968
 30
0.0
 11
4477.0
 21
-3295.9999999999968
 31
0.0
1001
ACDBBLOCKREPETAG
1070
     1
1071
       23
1005
12AE82
  0
LINE
  5
12AE83
  8
OBJECT
 10
4477.0
 20
-3295.9999999999968
 30
0.0
 11
4323.0
 21
-3295.9999999999968
 31
0.0
1001
ACDBBLOCKREPETAG
1070
     1
1071
       24
1005
12AE83
  0
LINE
  5
12AE84
  8
CENTER
 10
4400.0
 20
-3259.9999999999968
 30
0.0
 11
4400.0
 21
-3494.9999999999968
 31
0.0
1001
ACDBBLOCKREPETAG
1070
     1
1071
       25
1005
12AE84
  0
LINE
  5
12AE85
  8
OBJECT
 10
4325.0
 20
-3358.9999999999968
 30
0.0
 11
4325.0
 21
-3482.9999999999968
 31
0.0
1001
ACDBBLOCKREPETAG
1070
     1
1071
       26
1005
12AE85
  0
LINE
  5
12AE86
  8
OBJECT
 10
4328.0
 20
-3295.9999999999968
 30
0.0
 11
4328.0
 21
-3358.9999999999968
 31
0.0
1001
ACDBBLOCKREPETAG
1070
     1
1071
       27
1005
12AE86
  0
LINE
  5
12AE87
  8
OBJECT
 10
4472.0
 20
-3358.9999999999968
 30
0.0
 11
4472.0
 21
-3295.9999999999968
 31
0.0
1001
ACDBBLOCKREPETAG
1070
     1
1071
       28
1005
12AE87
  0
LINE
  5
12AE88
  8
OBJECT
 10
4475.0
 20
-3358.9999999999968
 30
0.0
 11
4325.0
 21
-3358.9999999999968
 31
0.0
1001
ACDBBLOCKREPETAG
1070
     1
1071
       30
1005
12AE88
  0
LINE
  5
12AE89
  8
OBJECT
 10
4475.0
 20
-3358.9999999999968
 30
0.0
 11
4475.0
 21
-3482.9999999999968
 31
0.0
1001
ACDBBLOCKREPETAG
1070
     1
1071
       34
1005
12AE89
  0
POINT
  5
12AE8A
  8
DOTS
 10
4400.0
 20
-3479.9999999999968
 30
0.0
1001
ACDBBLOCKREPETAG
1070
     1
1071
      187
1005
12AE8A
  0
LINE
  5
12AE8B
  8
OBJECT
 10
3923.0
 20
-3295.9999999999968
 30
0.0
 11
3923.0
 21
-3274.9999999999968
 31
0.0
1001
ACDBBLOCKREPETAG
1070
     1
1071
        0
1005
12AE8B
  0
LINE
  5
12AE8C
  8
OBJECT
 10
3923.0
 20
-3274.9999999999968
 30
0.0
 11
4077.0
 21
-3274.9999999999968
 31
0.0
1001
ACDBBLOCKREPETAG
1070
     1
1071
        1
1005
12AE8C
  0
LINE
  5
12AE8D
  8
HIDDEN
 10
3943.0
 20
-3344.9999999999968
 30
0.0
 11
4057.0
 21
-3344.9999999999968
 31
0.0
1001
ACDBBLOCKREPETAG
1070
     1
1071
        2
1005
12AE8D
  0
LINE
  5
12AE8E
  8
OBJECT
 10
4077.0
 20
-3274.9999999999968
 30
0.0
 11
4077.0
 21
-3295.9999999999968
 31
0.0
1001
ACDBBLOCKREPETAG
1070
     1
1071
        3
1005
12AE8E
  0
LINE
  5
12AE8F
  8
OBJECT
 10
4077.0
 20
-3295.9999999999968
 30
0.0
 11
3923.0
 21
-3295.9999999999968
 31
0.0
1001
ACDBBLOCKREPETAG
1070
     1
1071
        4
1005
12AE8F
  0
LINE
  5
12AE90
  8
CENTER
 10
4000.0
 20
-3259.9999999999968
 30
0.0
 11
4000.0
 21
-3494.9999999999968
 31
0.0
1001
ACDBBLOCKREPETAG
1070
     1
1071
        5
1005
12AE90
  0
LINE
  5
12AE91
  8
OBJECT
 10
3925.0
 20
-3358.9999999999968
 30
0.0
 11
3925.0
 21
-3482.9999999999968
 31
0.0
1001
ACDBBLOCKREPETAG
1070
     1
1071
        6
1005
12AE91
  0
LINE
  5
12AE92
  8
OBJECT
 10
3928.0
 20
-3295.9999999999968
 30
0.0
 11
3928.0
 21
-3358.9999999999968
 31
0.0
1001
ACDBBLOCKREPETAG
1070
     1
1071
        7
1005
12AE92
  0
LINE
  5
12AE93
  8
OBJECT
 10
4072.0
 20
-3358.9999999999968
 30
0.0
 11
4072.0
 21
-3295.9999999999968
 31
0.0
1001
ACDBBLOCKREPETAG
1070
     1
1071
        8
1005
12AE93
  0
LINE
  5
12AE94
  8
OBJECT
 10
4074.999999999799
 20
-3482.9999999997758
 30
0.0
 11
4080.0
 21
-3482.9999999999968
 31
0.0
1001
ACDBBLOCKREPETAG
1070
     1
1071
        9
1005
12AE94
  0
LINE
  5
12AE95
  8
OBJECT
 10
4080.0
 20
-3358.9999999999968
 30
0.0
 11
3925.0
 21
-3358.9999999999968
 31
0.0
1001
ACDBBLOCKREPETAG
1070
     1
1071
       10
1005
12AE95
  0
ARC
  5
12AE96
  8
OBJECT
 10
4200.6872746716726
 20
-3474.408099410105
 30
0.0
 40
170.6350503965856
 50
137.44134459184301
 51
149.9194958133665
1001
ACDBBLOCKREPETAG
1070
     1
1071
       15
1005
12AE96
  0
ARC
  5
12AE97
  8
OBJECT
 10
4118.8455987040506
 20
-3430.8827266953631
 30
0.0
 40
78.072222021763665
 50
147.4551531037684
 51
164.663659977186
1001
ACDBBLOCKREPETAG
1070
     1
1071
       16
1005
12AE97
  0
ARC
  5
12AE98
  8
OBJECT
 10
4085.7554349608722
 20
-3420.9999999999991
 30
0.0
 40
43.55353926885617
 50
165.6884523008477
 51
194.3115476991523
1001
ACDBBLOCKREPETAG
1070
     1
1071
       17
1005
12AE98
  0
ARC
  5
12AE99
  8
OBJECT
 10
4200.6872746716726
 20
-3367.5919005898891
 30
0.0
 40
170.6350503965856
 50
210.0805041866335
 51
222.55865540815699
1001
ACDBBLOCKREPETAG
1070
     1
1071
       18
1005
12AE99
  0
ARC
  5
12AE9A
  8
OBJECT
 10
4118.8455987040506
 20
-3411.1172733046319
 30
0.0
 40
78.072222021763665
 50
195.33634002281391
 51
212.5448468962316
1001
ACDBBLOCKREPETAG
1070
     1
1071
       19
1005
12AE9A
  0
POINT
  5
12AE9B
  8
DOTS
 10
4000.0
 20
-3479.9999999999968
 30
0.0
1001
ACDBBLOCKREPETAG
1070
     1
1071
      186
1005
12AE9B
  0
LINE
  5
12AE9C
  8
OBJECT
 10
3323.0
 20
-3295.9999999999968
 30
0.0
 11
3323.0
 21
-3274.9999999999968
 31
0.0
1001
ACDBBLOCKREPETAG
1070
     1
1071
       20
1005
12AE9C
  0
LINE
  5
12AE9D
  8
OBJECT
 10
3323.0
 20
-3274.9999999999968
 30
0.0
 11
3477.0
 21
-3274.9999999999968
 31
0.0
1001
ACDBBLOCKREPETAG
1070
     1
1071
       21
1005
12AE9D
  0
LINE
  5
12AE9E
  8
HIDDEN
 10
3343.0
 20
-3344.9999999999968
 30
0.0
 11
3457.0
 21
-3344.9999999999968
 31
0.0
1001
ACDBBLOCKREPETAG
1070
     1
1071
       22
1005
12AE9E
  0
LINE
  5
12AE9F
  8
OBJECT
 10
3477.0
 20
-3274.9999999999968
 30
0.0
 11
3477.0
 21
-3295.9999999999968
 31
0.0
1001
ACDBBLOCKREPETAG
1070
     1
1071
       23
1005
12AE9F
  0
LINE
  5
12AEA0
  8
OBJECT
 10
3477.0
 20
-3295.9999999999968
 30
0.0
 11
3323.0
 21
-3295.9999999999968
 31
0.0
1001
ACDBBLOCKREPETAG
1070
     1
1071
       24
1005
12AEA0
  0
LINE
  5
12AEA1
  8
CENTER
 10
3400.0
 20
-3259.9999999999968
 30
0.0
 11
3400.0
 21
-3494.9999999999968
 31
0.0
1001
ACDBBLOCKREPETAG
1070
     1
1071
       25
1005
12AEA1
  0
LINE
  5
12AEA2
  8
OBJECT
 10
3325.0
 20
-3358.9999999999968
 30
0.0
 11
3325.0
 21
-3482.9999999999968
 31
0.0
1001
ACDBBLOCKREPETAG
1070
     1
1071
       26
1005
12AEA2
  0
LINE
  5
12AEA3
  8
OBJECT
 10
3328.0
 20
-3295.9999999999968
 30
0.0
 11
3328.0
 21
-3358.9999999999968
 31
0.0
1001
ACDBBLOCKREPETAG
1070
     1
1071
       27
1005
12AEA3
  0
LINE
  5
12AEA4
  8
OBJECT
 10
3472.0
 20
-3358.9999999999968
 30
0.0
 11
3472.0
 21
-3295.9999999999968
 31
0.0
1001
ACDBBLOCKREPETAG
1070
     1
1071
       28
1005
12AEA4
  0
LINE
  5
12AEA5
  8
OBJECT
 10
3475.0
 20
-3358.9999999999968
 30
0.0
 11
3325.0
 21
-3358.9999999999968
 31
0.0
1001
ACDBBLOCKREPETAG
1070
     1
1071
       30
1005
12AEA5
  0
LINE
  5
12AEA6
  8
OBJECT
 10
3475.0
 20
-3358.9999999999968
 30
0.0
 11
3475.0
 21
-3482.9999999999968
 31
0.0
1001
ACDBBLOCKREPETAG
1070
     1
1071
       34
1005
12AEA6
  0
POINT
  5
12AEA7
  8
DOTS
 10
3400.0
 20
-3479.9999999999968
 30
0.0
1001
ACDBBLOCKREPETAG
1070
     1
1071
      187
1005
12AEA7
  0
LINE
  5
12AEA8
  8
OBJECT
 10
2923.0
 20
-3295.9999999999968
 30
0.0
 11
2923.0
 21
-3274.9999999999968
 31
0.0
1001
ACDBBLOCKREPETAG
1070
     1
1071
        0
1005
12AEA8
  0
LINE
  5
12AEA9
  8
OBJECT
 10
2923.0
 20
-3274.9999999999968
 30
0.0
 11
3077.0
 21
-3274.9999999999968
 31
0.0
1001
ACDBBLOCKREPETAG
1070
     1
1071
        1
1005
12AEA9
  0
LINE
  5
12AEAA
  8
HIDDEN
 10
2943.0
 20
-3344.9999999999968
 30
0.0
 11
3057.0
 21
-3344.9999999999968
 31
0.0
1001
ACDBBLOCKREPETAG
1070
     1
1071
        2
1005
12AEAA
  0
LINE
  5
12AEAB
  8
OBJECT
 10
3077.0
 20
-3274.9999999999968
 30
0.0
 11
3077.0
 21
-3295.9999999999968
 31
0.0
1001
ACDBBLOCKREPETAG
1070
     1
1071
        3
1005
12AEAB
  0
LINE
  5
12AEAC
  8
OBJECT
 10
3077.0
 20
-3295.9999999999968
 30
0.0
 11
2923.0
 21
-3295.9999999999968
 31
0.0
1001
ACDBBLOCKREPETAG
1070
     1
1071
        4
1005
12AEAC
  0
LINE
  5
12AEAD
  8
CENTER
 10
3000.0
 20
-3259.9999999999968
 30
0.0
 11
3000.0
 21
-3494.9999999999968
 31
0.0
1001
ACDBBLOCKREPETAG
1070
     1
1071
        5
1005
12AEAD
  0
LINE
  5
12AEAE
  8
OBJECT
 10
2925.0
 20
-3358.9999999999968
 30
0.0
 11
2925.0
 21
-3482.9999999999968
 31
0.0
1001
ACDBBLOCKREPETAG
1070
     1
1071
        6
1005
12AEAE
  0
LINE
  5
12AEAF
  8
OBJECT
 10
2928.0
 20
-3295.9999999999968
 30
0.0
 11
2928.0
 21
-3358.9999999999968
 31
0.0
1001
ACDBBLOCKREPETAG
1070
     1
1071
        7
1005
12AEAF
  0
LINE
  5
12AEB0
  8
OBJECT
 10
3072.0
 20
-3358.9999999999968
 30
0.0
 11
3072.0
 21
-3295.9999999999968
 31
0.0
1001
ACDBBLOCKREPETAG
1070
     1
1071
        8
1005
12AEB0
  0
LINE
  5
12AEB1
  8
OBJECT
 10
3074.9999999997999
 20
-3482.9999999997758
 30
0.0
 11
3080.0
 21
-3482.9999999999968
 31
0.0
1001
ACDBBLOCKREPETAG
1070
     1
1071
        9
1005
12AEB1
  0
LINE
  5
12AEB2
  8
OBJECT
 10
3080.0
 20
-3358.9999999999968
 30
0.0
 11
2925.0
 21
-3358.9999999999968
 31
0.0
1001
ACDBBLOCKREPETAG
1070
     1
1071
       10
1005
12AEB2
  0
ARC
  5
12AEB3
  8
OBJECT
 10
3200.6872746716722
 20
-3474.408099410105
 30
0.0
 40
170.6350503965856
 50
137.44134459184301
 51
149.9194958133665
1001
ACDBBLOCKREPETAG
1070
     1
1071
       15
1005
12AEB3
  0
ARC
  5
12AEB4
  8
OBJECT
 10
3118.8455987040511
 20
-3430.8827266953631
 30
0.0
 40
78.072222021763665
 50
147.4551531037684
 51
164.663659977186
1001
ACDBBLOCKREPETAG
1070
     1
1071
       16
1005
12AEB4
  0
ARC
  5
12AEB5
  8
OBJECT
 10
3085.7554349608731
 20
-3420.9999999999991
 30
0.0
 40
43.55353926885617
 50
165.6884523008477
 51
194.3115476991523
1001
ACDBBLOCKREPETAG
1070
     1
1071
       17
1005
12AEB5
  0
ARC
  5
12AEB6
  8
OBJECT
 10
3200.6872746716722
 20
-3367.5919005898891
 30
0.0
 40
170.6350503965856
 50
210.0805041866335
 51
222.55865540815699
1001
ACDBBLOCKREPETAG
1070
     1
1071
       18
1005
12AEB6
  0
ARC
  5
12AEB7
  8
OBJECT
 10
3118.8455987040511
 20
-3411.1172733046319
 30
0.0
 40
78.072222021763665
 50
195.33634002281391
 51
212.5448468962316
1001
ACDBBLOCKREPETAG
1070
     1
1071
       19
1005
12AEB7
  0
POINT
  5
12AEB8
  8
DOTS
 10
3000.0
 20
-3479.9999999999968
 30
0.0
1001
ACDBBLOCKREPETAG
1070
     1
1071
      186
1005
12AEB8
  0
LINE
  5
12AEB9
  8
OBJECT
 10
2323.0
 20
-3295.9999999999968
 30
0.0
 11
2323.0
 21
-3274.9999999999968
 31
0.0
1001
ACDBBLOCKREPETAG
1070
     1
1071
       20
1005
12AEB9
  0
LINE
  5
12AEBA
  8
OBJECT
 10
2323.0
 20
-3274.9999999999968
 30
0.0
 11
2477.0
 21
-3274.9999999999968
 31
0.0
1001
ACDBBLOCKREPETAG
1070
     1
1071
       21
1005
12AEBA
  0
LINE
  5
12AEBB
  8
HIDDEN
 10
2343.0
 20
-3344.9999999999968
 30
0.0
 11
2457.0
 21
-3344.9999999999968
 31
0.0
1001
ACDBBLOCKREPETAG
1070
     1
1071
       22
1005
12AEBB
  0
LINE
  5
12AEBC
  8
OBJECT
 10
2477.0
 20
-3274.9999999999968
 30
0.0
 11
2477.0
 21
-3295.9999999999968
 31
0.0
1001
ACDBBLOCKREPETAG
1070
     1
1071
       23
1005
12AEBC
  0
LINE
  5
12AEBD
  8
OBJECT
 10
2477.0
 20
-3295.9999999999968
 30
0.0
 11
2323.0
 21
-3295.9999999999968
 31
0.0
1001
ACDBBLOCKREPETAG
1070
     1
1071
       24
1005
12AEBD
  0
LINE
  5
12AEBE
  8
CENTER
 10
2400.0
 20
-3259.9999999999968
 30
0.0
 11
2400.0
 21
-3494.9999999999968
 31
0.0
1001
ACDBBLOCKREPETAG
1070
     1
1071
       25
1005
12AEBE
  0
LINE
  5
12AEBF
  8
OBJECT
 10
2325.0
 20
-3358.9999999999968
 30
0.0
 11
2325.0
 21
-3482.9999999999968
 31
0.0
1001
ACDBBLOCKREPETAG
1070
     1
1071
       26
1005
12AEBF
  0
LINE
  5
12AEC0
  8
OBJECT
 10
2328.0
 20
-3295.9999999999968
 30
0.0
 11
2328.0
 21
-3358.9999999999968
 31
0.0
1001
ACDBBLOCKREPETAG
1070
     1
1071
       27
1005
12AEC0
  0
LINE
  5
12AEC1
  8
OBJECT
 10
2472.0
 20
-3358.9999999999968
 30
0.0
 11
2472.0
 21
-3295.9999999999968
 31
0.0
1001
ACDBBLOCKREPETAG
1070
     1
1071
       28
1005
12AEC1
  0
LINE
  5
12AEC2
  8
OBJECT
 10
2475.0
 20
-3358.9999999999968
 30
0.0
 11
2325.0
 21
-3358.9999999999968
 31
0.0
1001
ACDBBLOCKREPETAG
1070
     1
1071
       30
1005
12AEC2
  0
LINE
  5
12AEC3
  8
OBJECT
 10
2475.0
 20
-3358.9999999999968
 30
0.0
 11
2475.0
 21
-3482.9999999999968
 31
0.0
1001
ACDBBLOCKREPETAG
1070
     1
1071
       34
1005
12AEC3
  0
POINT
  5
12AEC4
  8
DOTS
 10
2400.0
 20
-3479.9999999999968
 30
0.0
1001
ACDBBLOCKREPETAG
1070
     1
1071
      187
1005
12AEC4
  0
LINE
  5
12AEC5
  8
OBJECT
 10
1923.0
 20
-3295.9999999999968
 30
0.0
 11
1923.0
 21
-3274.9999999999968
 31
0.0
1001
ACDBBLOCKREPETAG
1070
     1
1071
        0
1005
12AEC5
  0
LINE
  5
12AEC6
  8
OBJECT
 10
1923.0
 20
-3274.9999999999968
 30
0.0
 11
2077.0
 21
-3274.9999999999968
 31
0.0
1001
ACDBBLOCKREPETAG
1070
     1
1071
        1
1005
12AEC6
  0
LINE
  5
12AEC7
  8
HIDDEN
 10
1943.0
 20
-3344.9999999999968
 30
0.0
 11
2057.0
 21
-3344.9999999999968
 31
0.0
1001
ACDBBLOCKREPETAG
1070
     1
1071
        2
1005
12AEC7
  0
LINE
  5
12AEC8
  8
OBJECT
 10
2077.0
 20
-3274.9999999999968
 30
0.0
 11
2077.0
 21
-3295.9999999999968
 31
0.0
1001
ACDBBLOCKREPETAG
1070
     1
1071
        3
1005
12AEC8
  0
LINE
  5
12AEC9
  8
OBJECT
 10
2077.0
 20
-3295.9999999999968
 30
0.0
 11
1923.0
 21
-3295.9999999999968
 31
0.0
1001
ACDBBLOCKREPETAG
1070
     1
1071
        4
1005
12AEC9
  0
LINE
  5
12AECA
  8
CENTER
 10
2000.0
 20
-3259.9999999999968
 30
0.0
 11
2000.0
 21
-3494.9999999999968
 31
0.0
1001
ACDBBLOCKREPETAG
1070
     1
1071
        5
1005
12AECA
  0
LINE
  5
12AECB
  8
OBJECT
 10
1925.0
 20
-3358.9999999999968
 30
0.0
 11
1925.0
 21
-3482.9999999999968
 31
0.0
1001
ACDBBLOCKREPETAG
1070
     1
1071
        6
1005
12AECB
  0
LINE
  5
12AECC
  8
OBJECT
 10
1928.0
 20
-3295.9999999999968
 30
0.0
 11
1928.0
 21
-3358.9999999999968
 31
0.0
1001
ACDBBLOCKREPETAG
1070
     1
1071
        7
1005
12AECC
  0
LINE
  5
12AECD
  8
OBJECT
 10
2072.0
 20
-3358.9999999999968
 30
0.0
 11
2072.0
 21
-3295.9999999999968
 31
0.0
1001
ACDBBLOCKREPETAG
1070
     1
1071
        8
1005
12AECD
  0
LINE
  5
12AECE
  8
OBJECT
 10
2074.999999999799
 20
-3482.9999999997758
 30
0.0
 11
2080.0
 21
-3482.9999999999968
 31
0.0
1001
ACDBBLOCKREPETAG
1070
     1
1071
        9
1005
12AECE
  0
LINE
  5
12AECF
  8
OBJECT
 10
2080.0
 20
-3358.9999999999968
 30
0.0
 11
1925.0
 21
-3358.9999999999968
 31
0.0
1001
ACDBBLOCKREPETAG
1070
     1
1071
       10
1005
12AECF
  0
ARC
  5
12AED0
  8
OBJECT
 10
2200.6872746716731
 20
-3474.408099410105
 30
0.0
 40
170.6350503965856
 50
137.44134459184301
 51
149.91949581335999
1001
ACDBBLOCKREPETAG
1070
     1
1071
       15
1005
12AED0
  0
ARC
  5
12AED1
  8
OBJECT
 10
2118.8455987040511
 20
-3430.8827266953631
 30
0.0
 40
78.072222021763665
 50
147.45515310377539
 51
164.663659977186
1001
ACDBBLOCKREPETAG
1070
     1
1071
       16
1005
12AED1
  0
ARC
  5
12AED2
  8
OBJECT
 10
2085.7554349608731
 20
-3420.9999999999991
 30
0.0
 40
43.55353926885617
 50
165.6884523008477
 51
194.3115476991523
1001
ACDBBLOCKREPETAG
1070
     1
1071
       17
1005
12AED2
  0
ARC
  5
12AED3
  8
OBJECT
 10
2200.6872746716731
 20
-3367.5919005898891
 30
0.0
 40
170.6350503965856
 50
210.08050418664001
 51
222.55865540815699
1001
ACDBBLOCKREPETAG
1070
     1
1071
       18
1005
12AED3
  0
ARC
  5
12AED4
  8
OBJECT
 10
2118.8455987040511
 20
-3411.1172733046319
 30
0.0
 40
78.072222021763665
 50
195.33634002281391
 51
212.54484689622461
1001
ACDBBLOCKREPETAG
1070
     1
1071
       19
1005
12AED4
  0
POINT
  5
12AED5
  8
DOTS
 10
2000.0
 20
-3479.9999999999968
 30
0.0
1001
ACDBBLOCKREPETAG
1070
     1
1071
      186
1005
12AED5
  0
LINE
  5
12AED6
  8
DIM
 10
2150.0
 20
-3121.9999999999959
 30
0.0
 11
2228.4796205944581
 21
-3121.9999999999959
 31
0.0
  0
LINE
  5
12AED7
  8
DIM
 10
2150.0
 20
-3027.9999999999959
 30
0.0
 11
2228.479620594459
 21
-3027.9999999999959
 31
0.0
  0
LINE
  5
12AED8
  8
DIM
 10
2218.4796205944581
 20
-3101.9999999999959
 30
0.0
 11
2218.479620594459
 21
-3047.9999999999959
 31
0.0
  0
INSERT
  5
12AED9
  8
DIM
  2
_OPEN30
 10
2218.4796205944581
 20
-3121.9999999999959
 30
0.0
 41
20.0
 42
20.0
 43
20.0
 50
270.0
  0
INSERT
  5
12AEDA
  8
DIM
  2
_OPEN30
 10
2218.479620594459
 20
-3027.9999999999959
 30
0.0
 41
20.0
 42
20.0
 43
20.0
 50
90.0
  0
INSERT
  5
12AEDB
  8
OBJECT
  2
*U5
 10
0.0
 20
0.0
 30
0.0
  0
LINE
  5
12AEDC
  8
DIM
 10
2150.0
 20
-3479.9999999999968
 30
0.0
 11
2226.8409284037339
 21
-3479.9999999999968
 31
0.0
  0
LINE
  5
12AEDD
  8
DIM
 10
2165.0
 20
-3435.9999999999968
 30
0.0
 11
2226.8409284037339
 21
-3435.9999999999968
 31
0.0
  0
LINE
  5
12AEDE
  8
DIM
 10
2216.840928403733
 20
-3499.9999999999968
 30
0.0
 11
2216.840928403733
 21
-3519.9999999999968
 31
0.0
  0
LINE
  5
12AEDF
  8
DIM
 10
2216.840928403733
 20
-3415.9999999999968
 30
0.0
 11
2216.840928403733
 21
-3395.9999999999968
 31
0.0
  0
LINE
  5
12AEE0
  8
DIM
 10
2216.840928403733
 20
-3479.9999999999968
 30
0.0
 11
2216.840928403733
 21
-3435.9999999999968
 31
0.0
  0
INSERT
  5
12AEE1
  8
DIM
  2
_OPEN30
 10
2216.840928403733
 20
-3479.9999999999968
 30
0.0
 41
20.0
 42
20.0
 43
20.0
 50
90.0
  0
INSERT
  5
12AEE2
  8
DIM
  2
_OPEN30
 10
2216.840928403733
 20
-3435.9999999999968
 30
0.0
 41
20.0
 42
20.0
 43
20.0
 50
270.0
  0
INSERT
  5
12AEE3
  8
OBJECT
  2
*U6
 10
0.0
 20
0.0
 30
0.0
  0
LINE
  5
12AEE4
  8
DIM
 10
2000.0
 20
-2969.9999999999959
 30
0.0
 11
2000.0
 21
-2937.208121984444
 31
0.0
  0
LINE
  5
12AEE5
  8
DIM
 10
2140.0
 20
-3017.9999999999959
 30
0.0
 11
2140.0
 21
-2937.208121984444
 31
0.0
  0
LINE
  5
12AEE6
  8
DIM
 10
2020.0
 20
-2947.208121984444
 30
0.0
 11
2120.0
 21
-2947.208121984444
 31
0.0
  0
INSERT
  5
12AEE7
  8
DIM
  2
_OPEN30
 10
2000.0
 20
-2947.208121984444
 30
0.0
 41
20.0
 42
20.0
 43
20.0
 50
180.0
  0
INSERT
  5
12AEE8
  8
DIM
  2
_OPEN30
 10
2140.0
 20
-2947.208121984444
 30
0.0
 41
20.0
 42
20.0
 43
20.0
  0
INSERT
  5
12AEE9
  8
OBJECT
  2
*U7
 10
0.0
 20
0.0
 30
0.0
  0
TEXT
  5
12AEEA
  8
SLIM
 10
2631.0
 20
-2852.50001604727
 30
0.0
 40
40.0
  1
C寸法
 41
0.75
  0
TEXT
  5
12AEEB
  8
SLIM
 10
2631.0
 20
-2782.50001604727
 30
0.0
 40
40.0
  1
B寸法
 41
0.75
  0
TEXT
  5
12AEEC
  8
SLIM
 10
2630.2857142857142
 20
-2712.50001604727
 30
0.0
 40
40.0
  1
A寸法
 41
0.75
  0
TEXT
  5
12AEED
  8
SLIM
 10
3159.2857142857151
 20
-2852.50001604727
 30
0.0
 40
40.0
  1
150
 41
0.75
  0
TEXT
  5
12AEEE
  8
SLIM
 10
3029.2857142857151
 20
-2852.50001604727
 30
0.0
 40
40.0
  1
140
 41
0.75
  0
TEXT
  5
12AEEF
  8
SLIM
 10
2769.2857142857151
 20
-2852.50001604727
 30
0.0
 40
40.0
  1
140
 41
0.75
  0
TEXT
  5
12AEF0
  8
SLIM
 10
2899.2857142857151
 20
-2852.50001604727
 30
0.0
 40
40.0
  1
140
 41
0.75
  0
TEXT
  5
12AEF1
  8
SLIM
 10
3170.7142857142858
 20
-2782.50001604727
 30
0.0
 40
40.0
  1
72
 41
0.75
  0
TEXT
  5
12AEF2
  8
SLIM
 10
3041.4285714285711
 20
-2782.50001604727
 30
0.0
 40
40.0
  1
59
 41
0.75
  0
TEXT
  5
12AEF3
  8
SLIM
 10
2780.0
 20
-2782.50001604727
 30
0.0
 40
40.0
  1
44
 41
0.75
  0
TEXT
  5
12AEF4
  8
SLIM
 10
2910.7142857142858
 20
-2782.50001604727
 30
0.0
 40
40.0
  1
52
 41
0.75
  0
TEXT
  5
12AEF5
  8
SLIM
 10
2891.0
 20
-2587.50001604727
 30
0.0
 40
40.0
  1
横枝管サイズ
 41
0.75
  0
TEXT
  5
12AEF6
  8
SLIM
 10
3136.2857142857151
 20
-2642.50001604727
 30
0.0
 40
30.0
  1
100（4）
 41
0.75
  0
TEXT
  5
12AEF7
  8
SLIM
 10
3014.857142857144
 20
-2642.50001604727
 30
0.0
 40
30.0
  1
75（3）
 41
0.75
  0
TEXT
  5
12AEF8
  8
SLIM
 10
2884.8571428571431
 20
-2642.50001604727
 30
0.0
 40
30.0
  1
65（2）
 41
0.75
  0
TEXT
  5
12AEF9
  8
SLIM
 10
2757.0
 20
-2642.50001604727
 30
0.0
 40
30.0
  1
50（1）
 41
0.75
  0
TEXT
  5
12AEFA
  8
SLIM
 10
3159.2857142857151
 20
-2712.50001604727
 30
0.0
 40
40.0
  1
150
 41
0.75
  0
TEXT
  5
12AEFB
  8
SLIM
 10
3028.571428571428
 20
-2712.50001604727
 30
0.0
 40
40.0
  1
124
 41
0.75
  0
TEXT
  5
12AEFC
  8
SLIM
 10
2780.0
 20
-2712.50001604727
 30
0.0
 40
40.0
  1
94
 41
0.75
  0
TEXT
  5
12AEFD
  8
SLIM
 10
2902.1428571428569
 20
-2712.50001604727
 30
0.0
 40
40.0
  1
110
 41
0.75
  0
TEXT
  5
12AEFE
  8
SLIM
 10
1849.9999999999991
 20
-2612.5
 30
0.0
 40
75.0
  1
枝管サイズ毎の形状
 41
0.75
  0
LINE
  5
12AEFF
  8
OBJECT
 10
5150.0
 20
-3332.9999999999968
 30
0.0
 11
5143.0
 21
-3332.9999999999968
 31
0.0
1001
ACDBBLOCKREPETAG
1070
     1
1071
       64
1005
12AEFF
  0
LINE
  5
12AF00
  8
OBJECT
 10
5143.0
 20
-3332.9999999999968
 30
0.0
 11
5143.0
 21
-3479.9999999999968
 31
0.0
1001
ACDBBLOCKREPETAG
1070
     1
1071
       65
1005
12AF00
  0
LINE
  5
12AF01
  8
OBJECT
 10
5101.5
 20
-3335.9999999999968
 30
0.0
 11
5101.5
 21
-3479.9999999999968
 31
0.0
1001
ACDBBLOCKREPETAG
1070
     1
1071
       66
1005
12AF01
  0
LINE
  5
12AF02
  8
OBJECT
 10
5090.0
 20
-3342.4999999999968
 30
0.0
 11
5090.0
 21
-3473.4999999999968
 31
0.0
1001
ACDBBLOCKREPETAG
1070
     1
1071
       67
1005
12AF02
  0
LINE
  5
12AF03
  8
OBJECT
 10
5086.0
 20
-3414.5000000000041
 30
0.0
 11
5086.0
 21
-3479.9999999999968
 31
0.0
1001
ACDBBLOCKREPETAG
1070
     1
1071
       68
1005
12AF03
  0
LINE
  5
12AF04
  8
OBJECT
 10
5150.0
 20
-3479.9999999999968
 30
0.0
 11
5150.0
 21
-3332.9999999999968
 31
0.0
1001
ACDBBLOCKREPETAG
1070
     1
1071
       69
1005
12AF04
  0
LINE
  5
12AF05
  8
CENTER
 10
5165.0
 20
-3407.9999999999968
 30
0.0
 11
5070.4144144144157
 21
-3407.9999999999968
 31
0.0
1001
ACDBBLOCKREPETAG
1070
     1
1071
       70
1005
12AF05
  0
LINE
  5
12AF06
  8
OBJECT
 10
5083.0000000000045
 20
-3482.9999999999968
 30
0.0
 11
5080.0
 21
-3482.9999999999968
 31
0.0
1001
ACDBBLOCKREPETAG
1070
     1
1071
       71
1005
12AF06
  0
ARC
  5
12AF07
  8
OBJECT
 10
5091.8815171830656
 20
-3481.4555591801432
 30
0.0
 40
6.0
 50
60.52411099686767
 51
170.6927439126847
1001
ACDBBLOCKREPETAG
1070
     1
1071
       72
1005
12AF07
  0
ARC
  5
12AF08
  8
OBJECT
 10
5083.0
 20
-3479.9999999999968
 30
0.0
 40
3.0
 50
270.0
 51
350.69274391268482
1001
ACDBBLOCKREPETAG
1070
     1
1071
       73
1005
12AF08
  0
LINE
  5
12AF09
  8
OBJECT
 10
5081.0
 20
-3358.9999999999968
 30
0.0
 11
5080.0
 21
-3358.9999999999968
 31
0.0
1001
ACDBBLOCKREPETAG
1070
     1
1071
       74
1005
12AF09
  0
LINE
  5
12AF0A
  8
OBJECT
 10
5150.0
 20
-3479.9999999999968
 30
0.0
 11
5101.5
 21
-3479.9999999999968
 31
0.0
1001
ACDBBLOCKREPETAG
1070
     1
1071
       75
1005
12AF0A
  0
LINE
  5
12AF0B
  8
OBJECT
 10
5101.5
 20
-3335.9999999999968
 30
0.0
 11
5090.0
 21
-3342.4999999999968
 31
0.0
1001
ACDBBLOCKREPETAG
1070
     1
1071
       76
1005
12AF0B
  0
LINE
  5
12AF0C
  8
OBJECT
 10
5143.0
 20
-3335.9999999999968
 30
0.0
 11
5101.5
 21
-3335.9999999999968
 31
0.0
1001
ACDBBLOCKREPETAG
1070
     1
1071
       77
1005
12AF0C
  0
LINE
  5
12AF0D
  8
OBJECT
 10
5086.0
 20
-3414.5000000000041
 30
0.0
 11
5081.0
 21
-3358.9999999999968
 31
0.0
1001
ACDBBLOCKREPETAG
1070
     1
1071
       78
1005
12AF0D
  0
LINE
  5
12AF0E
  8
OBJECT
 10
5090.0
 20
-3342.4999999999968
 30
0.0
 11
5081.0
 21
-3358.9999999999968
 31
0.0
1001
ACDBBLOCKREPETAG
1070
     1
1071
       79
1005
12AF0E
  0
LINE
  5
12AF0F
  8
OBJECT
 10
5101.5
 20
-3479.9999999999968
 30
0.0
 11
5094.8338607230708
 21
-3476.232182147819
 31
0.0
1001
ACDBBLOCKREPETAG
1070
     1
1071
       80
1005
12AF0F
  0
LINE
  5
12AF10
  8
HIDDEN
 10
5098.0
 20
-3464.9999999999968
 30
0.0
 11
5098.0
 21
-3350.9999999999968
 31
0.0
1001
ACDBBLOCKREPETAG
1070
     1
1071
       81
1005
12AF10
  0
LINE
  5
12AF11
  8
OBJECT
 10
5150.0
 20
-2999.9999999999959
 30
0.0
 11
5143.0
 21
-2999.9999999999959
 31
0.0
1001
ACDBBLOCKREPETAG
1070
     1
1071
       67
1005
12AF11
  0
LINE
  5
12AF12
  8
OBJECT
 10
5143.0
 20
-2999.9999999999959
 30
0.0
 11
5143.0
 21
-3149.9999999999959
 31
0.0
1001
ACDBBLOCKREPETAG
1070
     1
1071
       68
1005
12AF12
  0
LINE
  5
12AF13
  8
OBJECT
 10
5101.5
 20
-3002.9999999999959
 30
0.0
 11
5101.5
 21
-3146.9999999999959
 31
0.0
1001
ACDBBLOCKREPETAG
1070
     1
1071
       69
1005
12AF13
  0
LINE
  5
12AF14
  8
OBJECT
 10
5090.0
 20
-3009.4999999999959
 30
0.0
 11
5090.0
 21
-3140.4999999999959
 31
0.0
1001
ACDBBLOCKREPETAG
1070
     1
1071
       70
1005
12AF14
  0
LINE
  5
12AF15
  8
OBJECT
 10
5143.0
 20
-3149.9999999999959
 30
0.0
 11
5150.0
 21
-3149.9999999999959
 31
0.0
1001
ACDBBLOCKREPETAG
1070
     1
1071
       71
1005
12AF15
  0
LINE
  5
12AF16
  8
OBJECT
 10
5150.0
 20
-3149.9999999999959
 30
0.0
 11
5150.0
 21
-2999.9999999999959
 31
0.0
1001
ACDBBLOCKREPETAG
1070
     1
1071
       72
1005
12AF16
  0
LINE
  5
12AF17
  8
HIDDEN
 10
5098.0
 20
-3131.9999999999959
 30
0.0
 11
5098.0
 21
-3017.9999999999959
 31
0.0
1001
ACDBBLOCKREPETAG
1070
     1
1071
       73
1005
12AF17
  0
LINE
  5
12AF18
  8
CENTER
 10
5165.0
 20
-3074.9999999999959
 30
0.0
 11
5080.0
 21
-3074.9999999999959
 31
0.0
1001
ACDBBLOCKREPETAG
1070
     1
1071
       74
1005
12AF18
  0
LINE
  5
12AF19
  8
OBJECT
 10
5086.0
 20
-3136.9999999999959
 30
0.0
 11
5080.0
 21
-3136.9999999999959
 31
0.0
1001
ACDBBLOCKREPETAG
1070
     1
1071
       75
1005
12AF19
  0
LINE
  5
12AF1A
  8
OBJECT
 10
5143.0
 20
-3146.9999999999959
 30
0.0
 11
5101.5
 21
-3146.9999999999959
 31
0.0
1001
ACDBBLOCKREPETAG
1070
     1
1071
       76
1005
12AF1A
  0
LINE
  5
12AF1B
  8
OBJECT
 10
5101.5
 20
-3146.9999999999959
 30
0.0
 11
5090.0
 21
-3140.4999999999959
 31
0.0
1001
ACDBBLOCKREPETAG
1070
     1
1071
       77
1005
12AF1B
  0
LINE
  5
12AF1C
  8
OBJECT
 10
5090.0
 20
-3140.4999999999959
 30
0.0
 11
5086.0
 21
-3136.9999999999959
 31
0.0
1001
ACDBBLOCKREPETAG
1070
     1
1071
       78
1005
12AF1C
  0
LINE
  5
12AF1D
  8
OBJECT
 10
5101.5
 20
-3002.9999999999959
 30
0.0
 11
5090.0
 21
-3009.4999999999959
 31
0.0
1001
ACDBBLOCKREPETAG
1070
     1
1071
       79
1005
12AF1D
  0
LINE
  5
12AF1E
  8
OBJECT
 10
5090.0
 20
-3009.4999999999959
 30
0.0
 11
5086.0
 21
-3012.9999999999959
 31
0.0
1001
ACDBBLOCKREPETAG
1070
     1
1071
       80
1005
12AF1E
  0
ARC
  5
12AF1F
  8
OBJECT
 10
5467.9000000000005
 20
-3074.9999999999959
 30
0.0
 40
386.89999999999998
 50
170.77870136260421
 51
189.22129863739571
1001
ACDBBLOCKREPETAG
1070
     1
1071
       81
1005
12AF1F
  0
LINE
  5
12AF20
  8
OBJECT
 10
5086.0
 20
-3012.9999999999959
 30
0.0
 11
5080.0
 21
-3012.9999999999959
 31
0.0
1001
ACDBBLOCKREPETAG
1070
     1
1071
       82
1005
12AF20
  0
LINE
  5
12AF21
  8
OBJECT
 10
5143.0
 20
-3002.9999999999959
 30
0.0
 11
5101.5
 21
-3002.9999999999959
 31
0.0
1001
ACDBBLOCKREPETAG
1070
     1
1071
       83
1005
12AF21
  0
TEXT
  5
12AF22
  8
SLIM
 10
4884.25
 20
-3597.4999999999959
 30
0.0
 40
35.0
  1
通常枝100（4）
 41
0.75
  0
LINE
  5
12AF23
  8
CENTER
 10
4477.0
 20
-3420.9999999999991
 30
0.0
 11
4323.0
 21
-3420.9999999999991
 31
0.0
1001
ACDBBLOCKREPETAG
1070
     1
1071
       17
1005
12AF23
  0
CIRCLE
  5
12AF24
  8
OBJECT
 10
4400.0
 20
-3420.9999999999991
 30
0.0
 40
41.5
1001
ACDBBLOCKREPETAG
1070
     1
1071
       19
1005
12AF24
  0
CIRCLE
  5
12AF25
  8
OBJECT
 10
4400.0
 20
-3420.9999999999991
 30
0.0
 40
54.0
1001
ACDBBLOCKREPETAG
1070
     1
1071
       20
1005
12AF25
  0
ARC
  5
12AF26
  8
OBJECT
 10
4400.0
 20
-3420.9999999999991
 30
0.0
 40
62.0
 50
287.89655112921122
 51
252.1034488707887
1001
ACDBBLOCKREPETAG
1070
     1
1071
       21
1005
12AF26
  0
LINE
  5
12AF27
  8
OBJECT
 10
4380.947441116743
 20
-3479.9999999999968
 30
0.0
 11
4419.052558883257
 21
-3479.9999999999968
 31
0.0
1001
ACDBBLOCKREPETAG
1070
     1
1071
       22
1005
12AF27
  0
LINE
  5
12AF28
  8
OBJECT
 10
4133.0
 20
-3358.9999999999968
 30
0.0
 11
4140.0
 21
-3358.9999999999968
 31
0.0
1001
ACDBBLOCKREPETAG
1070
     1
1071
       45
1005
12AF28
  0
LINE
  5
12AF29
  8
OBJECT
 10
4140.0
 20
-3358.9999999999968
 30
0.0
 11
4140.0
 21
-3479.9999999999968
 31
0.0
1001
ACDBBLOCKREPETAG
1070
     1
1071
       46
1005
12AF29
  0
LINE
  5
12AF2A
  8
OBJECT
 10
4133.0
 20
-3479.9999999999968
 30
0.0
 11
4133.0
 21
-3358.9999999999968
 31
0.0
1001
ACDBBLOCKREPETAG
1070
     1
1071
       47
1005
12AF2A
  0
LINE
  5
12AF2B
  8
CENTER
 10
4155.0
 20
-3420.9999999999991
 30
0.0
 11
4071.0
 21
-3420.9999999999991
 31
0.0
1001
ACDBBLOCKREPETAG
1070
     1
1071
       48
1005
12AF2B
  0
LINE
  5
12AF2C
  8
OBJECT
 10
4133.0
 20
-3361.9999999999968
 30
0.0
 11
4097.0
 21
-3361.9999999999968
 31
0.0
1001
ACDBBLOCKREPETAG
1070
     1
1071
       49
1005
12AF2C
  0
LINE
  5
12AF2D
  8
OBJECT
 10
4097.0
 20
-3361.9999999999968
 30
0.0
 11
4097.0
 21
-3479.9999999999968
 31
0.0
1001
ACDBBLOCKREPETAG
1070
     1
1071
       50
1005
12AF2D
  0
LINE
  5
12AF2E
  8
OBJECT
 10
4097.0
 20
-3479.9999999999968
 30
0.0
 11
4140.0
 21
-3479.9999999999968
 31
0.0
1001
ACDBBLOCKREPETAG
1070
     1
1071
       51
1005
12AF2E
  0
LINE
  5
12AF2F
  8
OBJECT
 10
4093.0
 20
-3366.4999999999968
 30
0.0
 11
4086.0
 21
-3366.4999999999968
 31
0.0
1001
ACDBBLOCKREPETAG
1070
     1
1071
       52
1005
12AF2F
  0
LINE
  5
12AF30
  8
OBJECT
 10
4086.0
 20
-3475.4999999999968
 30
0.0
 11
4093.0
 21
-3475.4999999999968
 31
0.0
1001
ACDBBLOCKREPETAG
1070
     1
1071
       53
1005
12AF30
  0
LINE
  5
12AF31
  8
OBJECT
 10
4093.0
 20
-3475.4999999999968
 30
0.0
 11
4093.0
 21
-3366.4999999999968
 31
0.0
1001
ACDBBLOCKREPETAG
1070
     1
1071
       54
1005
12AF31
  0
LINE
  5
12AF32
  8
OBJECT
 10
4097.0
 20
-3361.9999999999968
 30
0.0
 11
4093.0
 21
-3366.4999999999968
 31
0.0
1001
ACDBBLOCKREPETAG
1070
     1
1071
       55
1005
12AF32
  0
LINE
  5
12AF33
  8
OBJECT
 10
4097.0
 20
-3479.9999999999968
 30
0.0
 11
4093.0
 21
-3475.4999999999968
 31
0.0
1001
ACDBBLOCKREPETAG
1070
     1
1071
       56
1005
12AF33
  0
LINE
  5
12AF34
  8
OBJECT
 10
4083.0
 20
-3358.9999999999968
 30
0.0
 11
4080.0
 21
-3358.9999999999968
 31
0.0
1001
ACDBBLOCKREPETAG
1070
     1
1071
       57
1005
12AF34
  0
ARC
  5
12AF35
  8
OBJECT
 10
4083.0
 20
-3361.9999999999968
 30
0.0
 40
3.0
 50
0.0
 51
90.0
1001
ACDBBLOCKREPETAG
1070
     1
1071
       58
1005
12AF35
  0
LINE
  5
12AF36
  8
OBJECT
 10
4080.0
 20
-3482.9999999999968
 30
0.0
 11
4083.0
 21
-3482.9999999999968
 31
0.0
1001
ACDBBLOCKREPETAG
1070
     1
1071
       59
1005
12AF36
  0
ARC
  5
12AF37
  8
OBJECT
 10
4083.0
 20
-3479.9999999999968
 30
0.0
 40
3.0
 50
270.0
 51
0.0
1001
ACDBBLOCKREPETAG
1070
     1
1071
       60
1005
12AF37
  0
LINE
  5
12AF38
  8
OBJECT
 10
4086.0
 20
-3479.9999999999968
 30
0.0
 11
4086.0
 21
-3361.9999999999968
 31
0.0
1001
ACDBBLOCKREPETAG
1070
     1
1071
       61
1005
12AF38
  0
LINE
  5
12AF39
  8
HIDDEN
 10
4088.0
 20
-3376.4999999999968
 30
0.0
 11
4088.0
 21
-3465.4999999999968
 31
0.0
1001
ACDBBLOCKREPETAG
1070
     1
1071
       63
1005
12AF39
  0
LINE
  5
12AF3A
  8
OBJECT
 10
4133.0
 20
-3012.9999999999959
 30
0.0
 11
4140.0
 21
-3012.9999999999959
 31
0.0
1001
ACDBBLOCKREPETAG
1070
     1
1071
       47
1005
12AF3A
  0
LINE
  5
12AF3B
  8
OBJECT
 10
4140.0
 20
-3012.9999999999959
 30
0.0
 11
4140.0
 21
-3136.9999999999959
 31
0.0
1001
ACDBBLOCKREPETAG
1070
     1
1071
       48
1005
12AF3B
  0
LINE
  5
12AF3C
  8
OBJECT
 10
4140.0
 20
-3136.9999999999959
 30
0.0
 11
4133.0
 21
-3136.9999999999959
 31
0.0
1001
ACDBBLOCKREPETAG
1070
     1
1071
       49
1005
12AF3C
  0
LINE
  5
12AF3D
  8
OBJECT
 10
4133.0
 20
-3136.9999999999959
 30
0.0
 11
4133.0
 21
-3012.9999999999959
 31
0.0
1001
ACDBBLOCKREPETAG
1070
     1
1071
       50
1005
12AF3D
  0
LINE
  5
12AF3E
  8
CENTER
 10
4155.0
 20
-3074.9999999999959
 30
0.0
 11
4080.0
 21
-3074.9999999999959
 31
0.0
1001
ACDBBLOCKREPETAG
1070
     1
1071
       51
1005
12AF3E
  0
LINE
  5
12AF3F
  8
OBJECT
 10
4133.0
 20
-3015.9999999999959
 30
0.0
 11
4097.0
 21
-3015.9999999999959
 31
0.0
1001
ACDBBLOCKREPETAG
1070
     1
1071
       52
1005
12AF3F
  0
LINE
  5
12AF40
  8
OBJECT
 10
4097.0
 20
-3015.9999999999959
 30
0.0
 11
4097.0
 21
-3133.9999999999959
 31
0.0
1001
ACDBBLOCKREPETAG
1070
     1
1071
       53
1005
12AF40
  0
LINE
  5
12AF41
  8
OBJECT
 10
4097.0
 20
-3133.9999999999959
 30
0.0
 11
4133.0
 21
-3133.9999999999959
 31
0.0
1001
ACDBBLOCKREPETAG
1070
     1
1071
       54
1005
12AF41
  0
LINE
  5
12AF42
  8
OBJECT
 10
4093.0
 20
-3020.4999999999959
 30
0.0
 11
4086.0
 21
-3020.4999999999959
 31
0.0
1001
ACDBBLOCKREPETAG
1070
     1
1071
       55
1005
12AF42
  0
LINE
  5
12AF43
  8
OBJECT
 10
4086.0
 20
-3129.4999999999959
 30
0.0
 11
4093.0
 21
-3129.4999999999959
 31
0.0
1001
ACDBBLOCKREPETAG
1070
     1
1071
       56
1005
12AF43
  0
LINE
  5
12AF44
  8
OBJECT
 10
4093.0
 20
-3129.4999999999959
 30
0.0
 11
4093.0
 21
-3020.4999999999959
 31
0.0
1001
ACDBBLOCKREPETAG
1070
     1
1071
       57
1005
12AF44
  0
LINE
  5
12AF45
  8
OBJECT
 10
4097.0
 20
-3015.9999999999959
 30
0.0
 11
4093.0
 21
-3020.4999999999959
 31
0.0
1001
ACDBBLOCKREPETAG
1070
     1
1071
       58
1005
12AF45
  0
LINE
  5
12AF46
  8
OBJECT
 10
4097.0
 20
-3133.9999999999959
 30
0.0
 11
4093.0
 21
-3129.4999999999959
 31
0.0
1001
ACDBBLOCKREPETAG
1070
     1
1071
       59
1005
12AF46
  0
LINE
  5
12AF47
  8
OBJECT
 10
4083.0
 20
-3012.9999999999959
 30
0.0
 11
4080.0
 21
-3012.9999999999959
 31
0.0
1001
ACDBBLOCKREPETAG
1070
     1
1071
       60
1005
12AF47
  0
ARC
  5
12AF48
  8
OBJECT
 10
4083.0
 20
-3015.9999999999959
 30
0.0
 40
3.0
 50
0.0
 51
90.0
1001
ACDBBLOCKREPETAG
1070
     1
1071
       61
1005
12AF48
  0
LINE
  5
12AF49
  8
OBJECT
 10
4080.0
 20
-3136.9999999999959
 30
0.0
 11
4083.0
 21
-3136.9999999999959
 31
0.0
1001
ACDBBLOCKREPETAG
1070
     1
1071
       62
1005
12AF49
  0
ARC
  5
12AF4A
  8
OBJECT
 10
4083.0
 20
-3133.9999999999959
 30
0.0
 40
3.0
 50
270.0
 51
0.0
1001
ACDBBLOCKREPETAG
1070
     1
1071
       63
1005
12AF4A
  0
LINE
  5
12AF4B
  8
OBJECT
 10
4086.0
 20
-3133.9999999999959
 30
0.0
 11
4086.0
 21
-3015.9999999999959
 31
0.0
1001
ACDBBLOCKREPETAG
1070
     1
1071
       64
1005
12AF4B
  0
LINE
  5
12AF4C
  8
HIDDEN
 10
4088.0
 20
-3030.4999999999959
 30
0.0
 11
4088.0
 21
-3119.4999999999959
 31
0.0
1001
ACDBBLOCKREPETAG
1070
     1
1071
       65
1005
12AF4C
  0
TEXT
  5
12AF4D
  8
SLIM
 10
3894.25
 20
-3597.4999999999959
 30
0.0
 40
35.0
  1
通常枝75（3）
 41
0.75
  0
CIRCLE
  5
12AF4E
  8
OBJECT
 10
3400.0
 20
-3427.9999999999968
 30
0.0
 40
35.5
1001
ACDBBLOCKREPETAG
1070
     1
1071
       10
1005
12AF4E
  0
CIRCLE
  5
12AF4F
  8
OBJECT
 10
3400.0
 20
-3420.9999999999991
 30
0.0
 40
62.0
1001
ACDBBLOCKREPETAG
1070
     1
1071
       11
1005
12AF4F
  0
LINE
  5
12AF50
  8
CENTER
 10
3330.0
 20
-3427.9999999999968
 30
0.0
 11
3470.0
 21
-3427.9999999999968
 31
0.0
1001
ACDBBLOCKREPETAG
1070
     1
1071
       12
1005
12AF50
  0
CIRCLE
  5
12AF51
  8
OBJECT
 10
3400.0
 20
-3427.9999999999968
 30
0.0
 40
47.0
1001
ACDBBLOCKREPETAG
1070
     1
1071
       14
1005
12AF51
  0
ARC
  5
12AF52
  8
OBJECT
 10
3400.0
 20
-3427.9999999999968
 30
0.0
 40
55.0
 50
289.01126526011359
 51
250.98873473988641
1001
ACDBBLOCKREPETAG
1070
     1
1071
       15
1005
12AF52
  0
LINE
  5
12AF53
  8
OBJECT
 10
3382.0835271328328
 20
-3479.9999999999968
 30
0.0
 11
3417.9164728671681
 21
-3479.9999999999968
 31
0.0
1001
ACDBBLOCKREPETAG
1070
     1
1071
       16
1005
12AF53
  0
LINE
  5
12AF54
  8
OBJECT
 10
3133.0
 20
-3372.9999999999968
 30
0.0
 11
3140.0
 21
-3372.9999999999968
 31
0.0
1001
ACDBBLOCKREPETAG
1070
     1
1071
       26
1005
12AF54
  0
LINE
  5
12AF55
  8
OBJECT
 10
3140.0
 20
-3372.9999999999968
 30
0.0
 11
3140.0
 21
-3479.9999999999968
 31
0.0
1001
ACDBBLOCKREPETAG
1070
     1
1071
       27
1005
12AF55
  0
LINE
  5
12AF56
  8
OBJECT
 10
3133.0
 20
-3479.9999999999968
 30
0.0
 11
3133.0
 21
-3372.9999999999968
 31
0.0
1001
ACDBBLOCKREPETAG
1070
     1
1071
       28
1005
12AF56
  0
LINE
  5
12AF57
  8
CENTER
 10
3155.0
 20
-3427.9999999999968
 30
0.0
 11
3071.0
 21
-3427.9999999999968
 31
0.0
1001
ACDBBLOCKREPETAG
1070
     1
1071
       29
1005
12AF57
  0
LINE
  5
12AF58
  8
OBJECT
 10
3133.0
 20
-3375.9999999999968
 30
0.0
 11
3097.0
 21
-3375.9999999999968
 31
0.0
1001
ACDBBLOCKREPETAG
1070
     1
1071
       30
1005
12AF58
  0
LINE
  5
12AF59
  8
OBJECT
 10
3097.0
 20
-3375.9999999999968
 30
0.0
 11
3097.0
 21
-3479.9999999999968
 31
0.0
1001
ACDBBLOCKREPETAG
1070
     1
1071
       31
1005
12AF59
  0
LINE
  5
12AF5A
  8
OBJECT
 10
3097.0
 20
-3479.9999999999968
 30
0.0
 11
3140.0
 21
-3479.9999999999968
 31
0.0
1001
ACDBBLOCKREPETAG
1070
     1
1071
       32
1005
12AF5A
  0
LINE
  5
12AF5B
  8
OBJECT
 10
3093.0
 20
-3380.4999999999968
 30
0.0
 11
3086.0
 21
-3380.4999999999968
 31
0.0
1001
ACDBBLOCKREPETAG
1070
     1
1071
       33
1005
12AF5B
  0
LINE
  5
12AF5C
  8
OBJECT
 10
3086.0
 20
-3475.4999999999968
 30
0.0
 11
3093.0
 21
-3475.4999999999968
 31
0.0
1001
ACDBBLOCKREPETAG
1070
     1
1071
       34
1005
12AF5C
  0
LINE
  5
12AF5D
  8
OBJECT
 10
3093.0
 20
-3475.4999999999968
 30
0.0
 11
3093.0
 21
-3380.4999999999968
 31
0.0
1001
ACDBBLOCKREPETAG
1070
     1
1071
       35
1005
12AF5D
  0
LINE
  5
12AF5E
  8
OBJECT
 10
3097.0
 20
-3375.9999999999968
 30
0.0
 11
3093.0
 21
-3380.4999999999968
 31
0.0
1001
ACDBBLOCKREPETAG
1070
     1
1071
       36
1005
12AF5E
  0
LINE
  5
12AF5F
  8
OBJECT
 10
3097.0
 20
-3479.9999999999968
 30
0.0
 11
3093.0
 21
-3475.4999999999968
 31
0.0
1001
ACDBBLOCKREPETAG
1070
     1
1071
       37
1005
12AF5F
  0
LINE
  5
12AF60
  8
OBJECT
 10
3083.0
 20
-3358.9999999999968
 30
0.0
 11
3080.0
 21
-3358.9999999999968
 31
0.0
1001
ACDBBLOCKREPETAG
1070
     1
1071
       38
1005
12AF60
  0
ARC
  5
12AF61
  8
OBJECT
 10
3083.0
 20
-3361.9999999999968
 30
0.0
 40
3.0
 50
0.0
 51
90.0
1001
ACDBBLOCKREPETAG
1070
     1
1071
       39
1005
12AF61
  0
LINE
  5
12AF62
  8
OBJECT
 10
3080.0
 20
-3482.9999999999968
 30
0.0
 11
3083.0
 21
-3482.9999999999968
 31
0.0
1001
ACDBBLOCKREPETAG
1070
     1
1071
       40
1005
12AF62
  0
ARC
  5
12AF63
  8
OBJECT
 10
3083.0
 20
-3479.9999999999968
 30
0.0
 40
3.0
 50
270.0
 51
0.0
1001
ACDBBLOCKREPETAG
1070
     1
1071
       41
1005
12AF63
  0
LINE
  5
12AF64
  8
OBJECT
 10
3086.0
 20
-3479.9999999999968
 30
0.0
 11
3086.0
 21
-3361.9999999999968
 31
0.0
1001
ACDBBLOCKREPETAG
1070
     1
1071
       42
1005
12AF64
  0
LINE
  5
12AF65
  8
HIDDEN
 10
3088.0
 20
-3389.9999999999968
 30
0.0
 11
3088.0
 21
-3465.9999999999968
 31
0.0
1001
ACDBBLOCKREPETAG
1070
     1
1071
       43
1005
12AF65
  0
LINE
  5
12AF66
  8
OBJECT
 10
3133.0
 20
-3019.9999999999959
 30
0.0
 11
3140.0
 21
-3019.9999999999959
 31
0.0
1001
ACDBBLOCKREPETAG
1070
     1
1071
       27
1005
12AF66
  0
LINE
  5
12AF67
  8
OBJECT
 10
3140.0
 20
-3019.9999999999959
 30
0.0
 11
3140.0
 21
-3129.9999999999959
 31
0.0
1001
ACDBBLOCKREPETAG
1070
     1
1071
       28
1005
12AF67
  0
LINE
  5
12AF68
  8
OBJECT
 10
3140.0
 20
-3129.9999999999959
 30
0.0
 11
3133.0
 21
-3129.9999999999959
 31
0.0
1001
ACDBBLOCKREPETAG
1070
     1
1071
       29
1005
12AF68
  0
LINE
  5
12AF69
  8
OBJECT
 10
3133.0
 20
-3129.9999999999959
 30
0.0
 11
3133.0
 21
-3019.9999999999959
 31
0.0
1001
ACDBBLOCKREPETAG
1070
     1
1071
       30
1005
12AF69
  0
LINE
  5
12AF6A
  8
CENTER
 10
3155.0
 20
-3074.9999999999959
 30
0.0
 11
3080.0
 21
-3074.9999999999959
 31
0.0
1001
ACDBBLOCKREPETAG
1070
     1
1071
       31
1005
12AF6A
  0
LINE
  5
12AF6B
  8
OBJECT
 10
3133.0
 20
-3022.9999999999959
 30
0.0
 11
3097.0
 21
-3022.9999999999959
 31
0.0
1001
ACDBBLOCKREPETAG
1070
     1
1071
       32
1005
12AF6B
  0
LINE
  5
12AF6C
  8
OBJECT
 10
3097.0
 20
-3022.9999999999959
 30
0.0
 11
3097.0
 21
-3126.9999999999959
 31
0.0
1001
ACDBBLOCKREPETAG
1070
     1
1071
       33
1005
12AF6C
  0
LINE
  5
12AF6D
  8
OBJECT
 10
3097.0
 20
-3126.9999999999959
 30
0.0
 11
3133.0
 21
-3126.9999999999959
 31
0.0
1001
ACDBBLOCKREPETAG
1070
     1
1071
       34
1005
12AF6D
  0
LINE
  5
12AF6E
  8
OBJECT
 10
3093.0
 20
-3027.4999999999959
 30
0.0
 11
3086.0
 21
-3027.4999999999959
 31
0.0
1001
ACDBBLOCKREPETAG
1070
     1
1071
       35
1005
12AF6E
  0
LINE
  5
12AF6F
  8
OBJECT
 10
3086.0
 20
-3122.4999999999959
 30
0.0
 11
3093.0
 21
-3122.4999999999959
 31
0.0
1001
ACDBBLOCKREPETAG
1070
     1
1071
       36
1005
12AF6F
  0
LINE
  5
12AF70
  8
OBJECT
 10
3093.0
 20
-3122.4999999999959
 30
0.0
 11
3093.0
 21
-3027.4999999999959
 31
0.0
1001
ACDBBLOCKREPETAG
1070
     1
1071
       37
1005
12AF70
  0
LINE
  5
12AF71
  8
OBJECT
 10
3097.0
 20
-3022.9999999999959
 30
0.0
 11
3093.0
 21
-3027.4999999999959
 31
0.0
1001
ACDBBLOCKREPETAG
1070
     1
1071
       38
1005
12AF71
  0
LINE
  5
12AF72
  8
OBJECT
 10
3097.0
 20
-3126.9999999999959
 30
0.0
 11
3093.0
 21
-3122.4999999999959
 31
0.0
1001
ACDBBLOCKREPETAG
1070
     1
1071
       39
1005
12AF72
  0
LINE
  5
12AF73
  8
OBJECT
 10
3083.0
 20
-3012.9999999999959
 30
0.0
 11
3080.0
 21
-3012.9999999999959
 31
0.0
1001
ACDBBLOCKREPETAG
1070
     1
1071
       40
1005
12AF73
  0
ARC
  5
12AF74
  8
OBJECT
 10
3083.0
 20
-3015.9999999999959
 30
0.0
 40
3.0
 50
0.0
 51
90.0
1001
ACDBBLOCKREPETAG
1070
     1
1071
       41
1005
12AF74
  0
LINE
  5
12AF75
  8
OBJECT
 10
3080.0
 20
-3136.9999999999959
 30
0.0
 11
3083.0
 21
-3136.9999999999959
 31
0.0
1001
ACDBBLOCKREPETAG
1070
     1
1071
       42
1005
12AF75
  0
ARC
  5
12AF76
  8
OBJECT
 10
3083.0
 20
-3133.9999999999959
 30
0.0
 40
3.0
 50
270.0
 51
0.0
1001
ACDBBLOCKREPETAG
1070
     1
1071
       43
1005
12AF76
  0
LINE
  5
12AF77
  8
OBJECT
 10
3086.0
 20
-3133.9999999999959
 30
0.0
 11
3086.0
 21
-3015.9999999999959
 31
0.0
1001
ACDBBLOCKREPETAG
1070
     1
1071
       44
1005
12AF77
  0
LINE
  5
12AF78
  8
HIDDEN
 10
3088.0
 20
-3036.9999999999959
 30
0.0
 11
3088.0
 21
-3112.9999999999959
 31
0.0
1001
ACDBBLOCKREPETAG
1070
     1
1071
       45
1005
12AF78
  0
TEXT
  5
12AF79
  8
SLIM
 10
2894.25
 20
-3597.4999999999959
 30
0.0
 40
35.0
  1
通常枝65（2）
 41
0.75
  0
CIRCLE
  5
12AF7A
  8
OBJECT
 10
2400.0
 20
-3420.9999999999991
 30
0.0
 40
62.0
1001
ACDBBLOCKREPETAG
1070
     1
1071
        3
1005
12AF7A
  0
LINE
  5
12AF7B
  8
CENTER
 10
2338.0
 20
-3435.9999999999968
 30
0.0
 11
2462.0
 21
-3435.9999999999968
 31
0.0
1001
ACDBBLOCKREPETAG
1070
     1
1071
        4
1005
12AF7B
  0
CIRCLE
  5
12AF7C
  8
OBJECT
 10
2400.0
 20
-3435.9999999999968
 30
0.0
 40
28.0
1001
ACDBBLOCKREPETAG
1070
     1
1071
        6
1005
12AF7C
  0
CIRCLE
  5
12AF7D
  8
OBJECT
 10
2400.0
 20
-3435.9999999999968
 30
0.0
 40
39.0
1001
ACDBBLOCKREPETAG
1070
     1
1071
        7
1005
12AF7D
  0
ARC
  5
12AF7E
  8
OBJECT
 10
2400.0
 20
-3435.9999999999968
 30
0.0
 40
47.0
 50
290.58196921144412
 51
249.41803078855591
1001
ACDBBLOCKREPETAG
1070
     1
1071
        8
1005
12AF7E
  0
LINE
  5
12AF7F
  8
OBJECT
 10
2383.4772883581431
 20
-3479.9999999999968
 30
0.0
 11
2416.5227116418569
 21
-3479.9999999999968
 31
0.0
1001
ACDBBLOCKREPETAG
1070
     1
1071
        9
1005
12AF7F
  0
LINE
  5
12AF80
  8
OBJECT
 10
2133.0
 20
-3388.9999999999991
 30
0.0
 11
2140.0
 21
-3388.9999999999991
 31
0.0
1001
ACDBBLOCKREPETAG
1070
     1
1071
        7
1005
12AF80
  0
LINE
  5
12AF81
  8
OBJECT
 10
2140.0
 20
-3388.9999999999991
 30
0.0
 11
2140.0
 21
-3479.9999999999968
 31
0.0
1001
ACDBBLOCKREPETAG
1070
     1
1071
        8
1005
12AF81
  0
LINE
  5
12AF82
  8
OBJECT
 10
2133.0
 20
-3479.9999999999968
 30
0.0
 11
2133.0
 21
-3388.9999999999991
 31
0.0
1001
ACDBBLOCKREPETAG
1070
     1
1071
        9
1005
12AF82
  0
LINE
  5
12AF83
  8
CENTER
 10
2155.0
 20
-3435.9999999999968
 30
0.0
 11
2071.0
 21
-3435.9999999999968
 31
0.0
1001
ACDBBLOCKREPETAG
1070
     1
1071
       10
1005
12AF83
  0
LINE
  5
12AF84
  8
OBJECT
 10
2133.0
 20
-3391.9999999999968
 30
0.0
 11
2097.0
 21
-3391.9999999999968
 31
0.0
1001
ACDBBLOCKREPETAG
1070
     1
1071
       11
1005
12AF84
  0
LINE
  5
12AF85
  8
OBJECT
 10
2097.0
 20
-3391.9999999999968
 30
0.0
 11
2097.0
 21
-3479.9999999999968
 31
0.0
1001
ACDBBLOCKREPETAG
1070
     1
1071
       12
1005
12AF85
  0
LINE
  5
12AF86
  8
OBJECT
 10
2097.0
 20
-3479.9999999999968
 30
0.0
 11
2140.0
 21
-3479.9999999999968
 31
0.0
1001
ACDBBLOCKREPETAG
1070
     1
1071
       13
1005
12AF86
  0
LINE
  5
12AF87
  8
OBJECT
 10
2093.0
 20
-3396.4999999999968
 30
0.0
 11
2086.0
 21
-3396.4999999999968
 31
0.0
1001
ACDBBLOCKREPETAG
1070
     1
1071
       14
1005
12AF87
  0
LINE
  5
12AF88
  8
OBJECT
 10
2086.0
 20
-3475.4999999999968
 30
0.0
 11
2093.0
 21
-3475.4999999999968
 31
0.0
1001
ACDBBLOCKREPETAG
1070
     1
1071
       15
1005
12AF88
  0
LINE
  5
12AF89
  8
OBJECT
 10
2093.0
 20
-3475.4999999999968
 30
0.0
 11
2093.0
 21
-3396.4999999999968
 31
0.0
1001
ACDBBLOCKREPETAG
1070
     1
1071
       16
1005
12AF89
  0
LINE
  5
12AF8A
  8
OBJECT
 10
2097.0
 20
-3391.9999999999968
 30
0.0
 11
2093.0
 21
-3396.4999999999968
 31
0.0
1001
ACDBBLOCKREPETAG
1070
     1
1071
       17
1005
12AF8A
  0
LINE
  5
12AF8B
  8
OBJECT
 10
2097.0
 20
-3479.9999999999968
 30
0.0
 11
2093.0
 21
-3475.4999999999968
 31
0.0
1001
ACDBBLOCKREPETAG
1070
     1
1071
       18
1005
12AF8B
  0
LINE
  5
12AF8C
  8
OBJECT
 10
2083.0
 20
-3358.9999999999968
 30
0.0
 11
2080.0
 21
-3358.9999999999968
 31
0.0
1001
ACDBBLOCKREPETAG
1070
     1
1071
       19
1005
12AF8C
  0
ARC
  5
12AF8D
  8
OBJECT
 10
2083.0
 20
-3361.9999999999968
 30
0.0
 40
3.0
 50
0.0
 51
90.0
1001
ACDBBLOCKREPETAG
1070
     1
1071
       20
1005
12AF8D
  0
LINE
  5
12AF8E
  8
OBJECT
 10
2080.0
 20
-3482.9999999999968
 30
0.0
 11
2083.0
 21
-3482.9999999999968
 31
0.0
1001
ACDBBLOCKREPETAG
1070
     1
1071
       21
1005
12AF8E
  0
ARC
  5
12AF8F
  8
OBJECT
 10
2083.0
 20
-3479.9999999999968
 30
0.0
 40
3.0
 50
270.0
 51
0.0
1001
ACDBBLOCKREPETAG
1070
     1
1071
       22
1005
12AF8F
  0
LINE
  5
12AF90
  8
OBJECT
 10
2086.0
 20
-3479.9999999999968
 30
0.0
 11
2086.0
 21
-3361.9999999999968
 31
0.0
1001
ACDBBLOCKREPETAG
1070
     1
1071
       23
1005
12AF90
  0
LINE
  5
12AF91
  8
HIDDEN
 10
2088.0
 20
-3405.9999999999968
 30
0.0
 11
2088.0
 21
-3465.9999999999968
 31
0.0
1001
ACDBBLOCKREPETAG
1070
     1
1071
       24
1005
12AF91
  0
LINE
  5
12AF92
  8
OBJECT
 10
2133.0
 20
-3027.9999999999959
 30
0.0
 11
2140.0
 21
-3027.9999999999959
 31
0.0
1001
ACDBBLOCKREPETAG
1070
     1
1071
        7
1005
12AF92
  0
LINE
  5
12AF93
  8
OBJECT
 10
2140.0
 20
-3027.9999999999959
 30
0.0
 11
2140.0
 21
-3121.9999999999959
 31
0.0
1001
ACDBBLOCKREPETAG
1070
     1
1071
        8
1005
12AF93
  0
LINE
  5
12AF94
  8
OBJECT
 10
2140.0
 20
-3121.9999999999959
 30
0.0
 11
2133.0
 21
-3121.9999999999959
 31
0.0
1001
ACDBBLOCKREPETAG
1070
     1
1071
        9
1005
12AF94
  0
LINE
  5
12AF95
  8
OBJECT
 10
2133.0
 20
-3121.9999999999959
 30
0.0
 11
2133.0
 21
-3027.9999999999959
 31
0.0
1001
ACDBBLOCKREPETAG
1070
     1
1071
       10
1005
12AF95
  0
LINE
  5
12AF96
  8
CENTER
 10
2155.0
 20
-3074.9999999999959
 30
0.0
 11
2080.0
 21
-3074.9999999999959
 31
0.0
1001
ACDBBLOCKREPETAG
1070
     1
1071
       11
1005
12AF96
  0
LINE
  5
12AF97
  8
OBJECT
 10
2133.0
 20
-3030.9999999999959
 30
0.0
 11
2097.0
 21
-3030.9999999999959
 31
0.0
1001
ACDBBLOCKREPETAG
1070
     1
1071
       12
1005
12AF97
  0
LINE
  5
12AF98
  8
OBJECT
 10
2097.0
 20
-3030.9999999999959
 30
0.0
 11
2097.0
 21
-3118.9999999999959
 31
0.0
1001
ACDBBLOCKREPETAG
1070
     1
1071
       13
1005
12AF98
  0
LINE
  5
12AF99
  8
OBJECT
 10
2097.0
 20
-3118.9999999999959
 30
0.0
 11
2133.0
 21
-3118.9999999999959
 31
0.0
1001
ACDBBLOCKREPETAG
1070
     1
1071
       14
1005
12AF99
  0
LINE
  5
12AF9A
  8
OBJECT
 10
2093.0
 20
-3035.4999999999959
 30
0.0
 11
2086.0
 21
-3035.4999999999959
 31
0.0
1001
ACDBBLOCKREPETAG
1070
     1
1071
       15
1005
12AF9A
  0
LINE
  5
12AF9B
  8
OBJECT
 10
2086.0
 20
-3114.4999999999959
 30
0.0
 11
2093.0
 21
-3114.4999999999959
 31
0.0
1001
ACDBBLOCKREPETAG
1070
     1
1071
       16
1005
12AF9B
  0
LINE
  5
12AF9C
  8
OBJECT
 10
2093.0
 20
-3114.4999999999959
 30
0.0
 11
2093.0
 21
-3035.4999999999959
 31
0.0
1001
ACDBBLOCKREPETAG
1070
     1
1071
       17
1005
12AF9C
  0
LINE
  5
12AF9D
  8
OBJECT
 10
2097.0
 20
-3030.9999999999959
 30
0.0
 11
2093.0
 21
-3035.4999999999959
 31
0.0
1001
ACDBBLOCKREPETAG
1070
     1
1071
       18
1005
12AF9D
  0
LINE
  5
12AF9E
  8
OBJECT
 10
2097.0
 20
-3118.9999999999959
 30
0.0
 11
2093.0
 21
-3114.4999999999959
 31
0.0
1001
ACDBBLOCKREPETAG
1070
     1
1071
       19
1005
12AF9E
  0
LINE
  5
12AF9F
  8
OBJECT
 10
2083.0
 20
-3012.9999999999959
 30
0.0
 11
2080.0
 21
-3012.9999999999959
 31
0.0
1001
ACDBBLOCKREPETAG
1070
     1
1071
       20
1005
12AF9F
  0
ARC
  5
12AFA0
  8
OBJECT
 10
2083.0
 20
-3015.9999999999959
 30
0.0
 40
3.0
 50
0.0
 51
90.0
1001
ACDBBLOCKREPETAG
1070
     1
1071
       21
1005
12AFA0
  0
LINE
  5
12AFA1
  8
OBJECT
 10
2080.0
 20
-3136.9999999999959
 30
0.0
 11
2083.0
 21
-3136.9999999999959
 31
0.0
1001
ACDBBLOCKREPETAG
1070
     1
1071
       22
1005
12AFA1
  0
ARC
  5
12AFA2
  8
OBJECT
 10
2083.0
 20
-3133.9999999999959
 30
0.0
 40
3.0
 50
270.0
 51
0.0
1001
ACDBBLOCKREPETAG
1070
     1
1071
       23
1005
12AFA2
  0
LINE
  5
12AFA3
  8
OBJECT
 10
2086.0
 20
-3133.9999999999959
 30
0.0
 11
2086.0
 21
-3015.9999999999959
 31
0.0
1001
ACDBBLOCKREPETAG
1070
     1
1071
       24
1005
12AFA3
  0
LINE
  5
12AFA4
  8
HIDDEN
 10
2088.0
 20
-3044.9999999999959
 30
0.0
 11
2088.0
 21
-3104.9999999999959
 31
0.0
1001
ACDBBLOCKREPETAG
1070
     1
1071
       25
1005
12AFA4
  0
TEXT
  5
12AFA5
  8
SLIM
 10
1896.75
 20
-3597.4999999999959
 30
0.0
 40
35.0
  1
通常枝50（1）
 41
0.75
  0
LINE
  5
12AFA6
  8
OBJECT
 10
2423.0
 20
-470.99999999999937
 30
0.0
 11
2423.0
 21
-449.99999999999937
 31
0.0
1001
ACDBBLOCKREPETAG
1070
     1
1071
       20
1005
12AFA6
  0
LINE
  5
12AFA7
  8
OBJECT
 10
2423.0
 20
-449.99999999999937
 30
0.0
 11
2577.0
 21
-449.99999999999937
 31
0.0
1001
ACDBBLOCKREPETAG
1070
     1
1071
       21
1005
12AFA7
  0
LINE
  5
12AFA8
  8
HIDDEN
 10
2443.0
 20
-519.99999999999955
 30
0.0
 11
2557.0
 21
-519.99999999999955
 31
0.0
1001
ACDBBLOCKREPETAG
1070
     1
1071
       22
1005
12AFA8
  0
LINE
  5
12AFA9
  8
OBJECT
 10
2577.0
 20
-449.99999999999937
 30
0.0
 11
2577.0
 21
-470.99999999999937
 31
0.0
1001
ACDBBLOCKREPETAG
1070
     1
1071
       23
1005
12AFA9
  0
LINE
  5
12AFAA
  8
OBJECT
 10
2577.0
 20
-470.99999999999937
 30
0.0
 11
2423.0
 21
-470.99999999999937
 31
0.0
1001
ACDBBLOCKREPETAG
1070
     1
1071
       24
1005
12AFAA
  0
LINE
  5
12AFAB
  8
CENTER
 10
2500.0
 20
-434.99999999999949
 30
0.0
 11
2500.0
 21
-669.99999999999955
 31
0.0
1001
ACDBBLOCKREPETAG
1070
     1
1071
       25
1005
12AFAB
  0
LINE
  5
12AFAC
  8
OBJECT
 10
2425.0
 20
-533.99999999999955
 30
0.0
 11
2425.0
 21
-657.99999999999955
 31
0.0
1001
ACDBBLOCKREPETAG
1070
     1
1071
       26
1005
12AFAC
  0
LINE
  5
12AFAD
  8
OBJECT
 10
2428.0
 20
-470.99999999999937
 30
0.0
 11
2428.0
 21
-533.99999999999955
 31
0.0
1001
ACDBBLOCKREPETAG
1070
     1
1071
       27
1005
12AFAD
  0
LINE
  5
12AFAE
  8
OBJECT
 10
2572.0
 20
-533.99999999999955
 30
0.0
 11
2572.0
 21
-470.99999999999937
 31
0.0
1001
ACDBBLOCKREPETAG
1070
     1
1071
       28
1005
12AFAE
  0
LINE
  5
12AFAF
  8
OBJECT
 10
2420.0
 20
-657.99999999999955
 30
0.0
 11
2580.0
 21
-657.99999999999955
 31
0.0
1001
ACDBBLOCKREPETAG
1070
     1
1071
       29
1005
12AFAF
  0
LINE
  5
12AFB0
  8
OBJECT
 10
2575.0
 20
-533.99999999999955
 30
0.0
 11
2425.0
 21
-533.99999999999955
 31
0.0
1001
ACDBBLOCKREPETAG
1070
     1
1071
       30
1005
12AFB0
  0
LINE
  5
12AFB1
  8
OBJECT
 10
2420.0
 20
-657.99999999999955
 30
0.0
 11
2420.0
 21
-669.99999999999955
 31
0.0
1001
ACDBBLOCKREPETAG
1070
     1
1071
       31
1005
12AFB1
  0
LINE
  5
12AFB2
  8
OBJECT
 10
2420.0
 20
-669.99999999999955
 30
0.0
 11
2580.0
 21
-669.99999999999955
 31
0.0
1001
ACDBBLOCKREPETAG
1070
     1
1071
       32
1005
12AFB2
  0
LINE
  5
12AFB3
  8
OBJECT
 10
2580.0
 20
-669.99999999999955
 30
0.0
 11
2580.0
 21
-657.99999999999955
 31
0.0
1001
ACDBBLOCKREPETAG
1070
     1
1071
       33
1005
12AFB3
  0
LINE
  5
12AFB4
  8
OBJECT
 10
2575.0
 20
-533.99999999999955
 30
0.0
 11
2575.0
 21
-657.99999999999955
 31
0.0
1001
ACDBBLOCKREPETAG
1070
     1
1071
       34
1005
12AFB4
  0
POINT
  5
12AFB5
  8
DOTS
 10
2500.0
 20
-654.99999999999966
 30
0.0
1001
ACDBBLOCKREPETAG
1070
     1
1071
      187
1005
12AFB5
  0
LINE
  5
12AFB6
  8
OBJECT
 10
1923.0
 20
-470.99999999999937
 30
0.0
 11
1923.0
 21
-449.99999999999937
 31
0.0
1001
ACDBBLOCKREPETAG
1070
     1
1071
        0
1005
12AFB6
  0
LINE
  5
12AFB7
  8
OBJECT
 10
1923.0
 20
-449.99999999999937
 30
0.0
 11
2077.0
 21
-449.99999999999937
 31
0.0
1001
ACDBBLOCKREPETAG
1070
     1
1071
        1
1005
12AFB7
  0
LINE
  5
12AFB8
  8
HIDDEN
 10
1943.0
 20
-519.99999999999955
 30
0.0
 11
2057.0
 21
-519.99999999999955
 31
0.0
1001
ACDBBLOCKREPETAG
1070
     1
1071
        2
1005
12AFB8
  0
LINE
  5
12AFB9
  8
OBJECT
 10
2077.0
 20
-449.99999999999937
 30
0.0
 11
2077.0
 21
-470.99999999999937
 31
0.0
1001
ACDBBLOCKREPETAG
1070
     1
1071
        3
1005
12AFB9
  0
LINE
  5
12AFBA
  8
OBJECT
 10
2077.0
 20
-470.99999999999937
 30
0.0
 11
1923.0
 21
-470.99999999999937
 31
0.0
1001
ACDBBLOCKREPETAG
1070
     1
1071
        4
1005
12AFBA
  0
LINE
  5
12AFBB
  8
CENTER
 10
2000.0
 20
-434.99999999999949
 30
0.0
 11
2000.0
 21
-669.99999999999955
 31
0.0
1001
ACDBBLOCKREPETAG
1070
     1
1071
        5
1005
12AFBB
  0
LINE
  5
12AFBC
  8
OBJECT
 10
1925.0
 20
-533.99999999999955
 30
0.0
 11
1925.0
 21
-657.99999999999955
 31
0.0
1001
ACDBBLOCKREPETAG
1070
     1
1071
        6
1005
12AFBC
  0
LINE
  5
12AFBD
  8
OBJECT
 10
1928.0
 20
-470.99999999999937
 30
0.0
 11
1928.0
 21
-533.99999999999955
 31
0.0
1001
ACDBBLOCKREPETAG
1070
     1
1071
        7
1005
12AFBD
  0
LINE
  5
12AFBE
  8
OBJECT
 10
2072.0
 20
-533.99999999999955
 30
0.0
 11
2072.0
 21
-470.99999999999937
 31
0.0
1001
ACDBBLOCKREPETAG
1070
     1
1071
        8
1005
12AFBE
  0
LINE
  5
12AFBF
  8
OBJECT
 10
1920.0
 20
-657.99999999999955
 30
0.0
 11
2080.0
 21
-657.99999999999955
 31
0.0
1001
ACDBBLOCKREPETAG
1070
     1
1071
        9
1005
12AFBF
  0
LINE
  5
12AFC0
  8
OBJECT
 10
2080.0
 20
-533.99999999999955
 30
0.0
 11
1925.0
 21
-533.99999999999955
 31
0.0
1001
ACDBBLOCKREPETAG
1070
     1
1071
       10
1005
12AFC0
  0
LINE
  5
12AFC1
  8
OBJECT
 10
1920.0
 20
-657.99999999999955
 30
0.0
 11
1920.0
 21
-669.99999999999955
 31
0.0
1001
ACDBBLOCKREPETAG
1070
     1
1071
       11
1005
12AFC1
  0
LINE
  5
12AFC2
  8
OBJECT
 10
1920.0
 20
-669.99999999999955
 30
0.0
 11
2080.0
 21
-669.99999999999955
 31
0.0
1001
ACDBBLOCKREPETAG
1070
     1
1071
       12
1005
12AFC2
  0
LINE
  5
12AFC3
  8
OBJECT
 10
2080.0
 20
-669.99999999999955
 30
0.0
 11
2080.0
 21
-657.99999999999955
 31
0.0
1001
ACDBBLOCKREPETAG
1070
     1
1071
       13
1005
12AFC3
  0
ARC
  5
12AFC4
  8
OBJECT
 10
2200.6872746716731
 20
-649.40809941010718
 30
0.0
 40
170.6350503965856
 50
137.44134459184301
 51
149.91949581336559
1001
ACDBBLOCKREPETAG
1070
     1
1071
       15
1005
12AFC4
  0
ARC
  5
12AFC5
  8
OBJECT
 10
2118.8455987040511
 20
-605.88272669536445
 30
0.0
 40
78.072222021763665
 50
147.45515310377539
 51
164.6636599771798
1001
ACDBBLOCKREPETAG
1070
     1
1071
       16
1005
12AFC5
  0
ARC
  5
12AFC6
  8
OBJECT
 10
2085.7554349608731
 20
-595.99999999999955
 30
0.0
 40
43.55353926885617
 50
165.6884523008477
 51
194.3115476991523
1001
ACDBBLOCKREPETAG
1070
     1
1071
       17
1005
12AFC6
  0
ARC
  5
12AFC7
  8
OBJECT
 10
2200.6872746716731
 20
-542.59190058989179
 30
0.0
 40
170.6350503965856
 50
210.0805041866343
 51
222.55865540815699
1001
ACDBBLOCKREPETAG
1070
     1
1071
       18
1005
12AFC7
  0
ARC
  5
12AFC8
  8
OBJECT
 10
2118.8455987040511
 20
-586.11727330463452
 30
0.0
 40
78.072222021763665
 50
195.3363400228202
 51
212.54484689622461
1001
ACDBBLOCKREPETAG
1070
     1
1071
       19
1005
12AFC8
  0
POINT
  5
12AFC9
  8
DOTS
 10
2000.0
 20
-654.99999999999966
 30
0.0
1001
ACDBBLOCKREPETAG
1070
     1
1071
      186
1005
12AFC9
  0
LINE
  5
12AFCA
  8
OBJECT
 10
4423.0
 20
-470.99999999999937
 30
0.0
 11
4423.0
 21
-449.99999999999937
 31
0.0
1001
ACDBBLOCKREPETAG
1070
     1
1071
       20
1005
12AFCA
  0
LINE
  5
12AFCB
  8
OBJECT
 10
4423.0
 20
-449.99999999999937
 30
0.0
 11
4577.0
 21
-449.99999999999937
 31
0.0
1001
ACDBBLOCKREPETAG
1070
     1
1071
       21
1005
12AFCB
  0
LINE
  5
12AFCC
  8
HIDDEN
 10
4443.0
 20
-519.99999999999955
 30
0.0
 11
4557.0
 21
-519.99999999999955
 31
0.0
1001
ACDBBLOCKREPETAG
1070
     1
1071
       22
1005
12AFCC
  0
LINE
  5
12AFCD
  8
OBJECT
 10
4577.0
 20
-449.99999999999937
 30
0.0
 11
4577.0
 21
-470.99999999999937
 31
0.0
1001
ACDBBLOCKREPETAG
1070
     1
1071
       23
1005
12AFCD
  0
LINE
  5
12AFCE
  8
OBJECT
 10
4577.0
 20
-470.99999999999937
 30
0.0
 11
4423.0
 21
-470.99999999999937
 31
0.0
1001
ACDBBLOCKREPETAG
1070
     1
1071
       24
1005
12AFCE
  0
LINE
  5
12AFCF
  8
CENTER
 10
4500.0
 20
-434.99999999999949
 30
0.0
 11
4500.0
 21
-669.99999999999955
 31
0.0
1001
ACDBBLOCKREPETAG
1070
     1
1071
       25
1005
12AFCF
  0
LINE
  5
12AFD0
  8
OBJECT
 10
4425.0
 20
-533.99999999999955
 30
0.0
 11
4425.0
 21
-657.99999999999955
 31
0.0
1001
ACDBBLOCKREPETAG
1070
     1
1071
       26
1005
12AFD0
  0
LINE
  5
12AFD1
  8
OBJECT
 10
4428.0
 20
-470.99999999999937
 30
0.0
 11
4428.0
 21
-533.99999999999955
 31
0.0
1001
ACDBBLOCKREPETAG
1070
     1
1071
       27
1005
12AFD1
  0
LINE
  5
12AFD2
  8
OBJECT
 10
4572.0
 20
-533.99999999999955
 30
0.0
 11
4572.0
 21
-470.99999999999937
 31
0.0
1001
ACDBBLOCKREPETAG
1070
     1
1071
       28
1005
12AFD2
  0
LINE
  5
12AFD3
  8
OBJECT
 10
4420.0
 20
-657.99999999999955
 30
0.0
 11
4580.0
 21
-657.99999999999955
 31
0.0
1001
ACDBBLOCKREPETAG
1070
     1
1071
       29
1005
12AFD3
  0
LINE
  5
12AFD4
  8
OBJECT
 10
4575.0
 20
-533.99999999999955
 30
0.0
 11
4425.0
 21
-533.99999999999955
 31
0.0
1001
ACDBBLOCKREPETAG
1070
     1
1071
       30
1005
12AFD4
  0
LINE
  5
12AFD5
  8
OBJECT
 10
4420.0
 20
-657.99999999999955
 30
0.0
 11
4420.0
 21
-669.99999999999955
 31
0.0
1001
ACDBBLOCKREPETAG
1070
     1
1071
       31
1005
12AFD5
  0
LINE
  5
12AFD6
  8
OBJECT
 10
4420.0
 20
-669.99999999999955
 30
0.0
 11
4580.0
 21
-669.99999999999955
 31
0.0
1001
ACDBBLOCKREPETAG
1070
     1
1071
       32
1005
12AFD6
  0
LINE
  5
12AFD7
  8
OBJECT
 10
4580.0
 20
-669.99999999999955
 30
0.0
 11
4580.0
 21
-657.99999999999955
 31
0.0
1001
ACDBBLOCKREPETAG
1070
     1
1071
       33
1005
12AFD7
  0
LINE
  5
12AFD8
  8
OBJECT
 10
4575.0
 20
-533.99999999999955
 30
0.0
 11
4575.0
 21
-657.99999999999955
 31
0.0
1001
ACDBBLOCKREPETAG
1070
     1
1071
       34
1005
12AFD8
  0
POINT
  5
12AFD9
  8
DOTS
 10
4500.0
 20
-654.99999999999966
 30
0.0
1001
ACDBBLOCKREPETAG
1070
     1
1071
      187
1005
12AFD9
  0
LINE
  5
12AFDA
  8
OBJECT
 10
3923.0
 20
-470.99999999999937
 30
0.0
 11
3923.0
 21
-449.99999999999937
 31
0.0
1001
ACDBBLOCKREPETAG
1070
     1
1071
        0
1005
12AFDA
  0
LINE
  5
12AFDB
  8
OBJECT
 10
3923.0
 20
-449.99999999999937
 30
0.0
 11
4077.0
 21
-449.99999999999937
 31
0.0
1001
ACDBBLOCKREPETAG
1070
     1
1071
        1
1005
12AFDB
  0
LINE
  5
12AFDC
  8
HIDDEN
 10
3943.0
 20
-519.99999999999955
 30
0.0
 11
4057.0
 21
-519.99999999999955
 31
0.0
1001
ACDBBLOCKREPETAG
1070
     1
1071
        2
1005
12AFDC
  0
LINE
  5
12AFDD
  8
OBJECT
 10
4077.0
 20
-449.99999999999937
 30
0.0
 11
4077.0
 21
-470.99999999999937
 31
0.0
1001
ACDBBLOCKREPETAG
1070
     1
1071
        3
1005
12AFDD
  0
LINE
  5
12AFDE
  8
OBJECT
 10
4077.0
 20
-470.99999999999937
 30
0.0
 11
3923.0
 21
-470.99999999999937
 31
0.0
1001
ACDBBLOCKREPETAG
1070
     1
1071
        4
1005
12AFDE
  0
LINE
  5
12AFDF
  8
CENTER
 10
4000.0
 20
-434.99999999999949
 30
0.0
 11
4000.0
 21
-669.99999999999955
 31
0.0
1001
ACDBBLOCKREPETAG
1070
     1
1071
        5
1005
12AFDF
  0
LINE
  5
12AFE0
  8
OBJECT
 10
3925.0
 20
-533.99999999999955
 30
0.0
 11
3925.0
 21
-657.99999999999955
 31
0.0
1001
ACDBBLOCKREPETAG
1070
     1
1071
        6
1005
12AFE0
  0
LINE
  5
12AFE1
  8
OBJECT
 10
3928.0
 20
-470.99999999999937
 30
0.0
 11
3928.0
 21
-533.99999999999955
 31
0.0
1001
ACDBBLOCKREPETAG
1070
     1
1071
        7
1005
12AFE1
  0
LINE
  5
12AFE2
  8
OBJECT
 10
4072.0
 20
-533.99999999999955
 30
0.0
 11
4072.0
 21
-470.99999999999937
 31
0.0
1001
ACDBBLOCKREPETAG
1070
     1
1071
        8
1005
12AFE2
  0
LINE
  5
12AFE3
  8
OBJECT
 10
3920.0
 20
-657.99999999999955
 30
0.0
 11
4080.0
 21
-657.99999999999955
 31
0.0
1001
ACDBBLOCKREPETAG
1070
     1
1071
        9
1005
12AFE3
  0
LINE
  5
12AFE4
  8
OBJECT
 10
4080.0
 20
-533.99999999999955
 30
0.0
 11
3925.0
 21
-533.99999999999955
 31
0.0
1001
ACDBBLOCKREPETAG
1070
     1
1071
       10
1005
12AFE4
  0
LINE
  5
12AFE5
  8
OBJECT
 10
3920.0
 20
-657.99999999999955
 30
0.0
 11
3920.0
 21
-669.99999999999955
 31
0.0
1001
ACDBBLOCKREPETAG
1070
     1
1071
       11
1005
12AFE5
  0
LINE
  5
12AFE6
  8
OBJECT
 10
3920.0
 20
-669.99999999999955
 30
0.0
 11
4080.0
 21
-669.99999999999955
 31
0.0
1001
ACDBBLOCKREPETAG
1070
     1
1071
       12
1005
12AFE6
  0
LINE
  5
12AFE7
  8
OBJECT
 10
4080.0
 20
-669.99999999999955
 30
0.0
 11
4080.0
 21
-657.99999999999955
 31
0.0
1001
ACDBBLOCKREPETAG
1070
     1
1071
       13
1005
12AFE7
  0
ARC
  5
12AFE8
  8
OBJECT
 10
4200.6872746716726
 20
-649.40809941010718
 30
0.0
 40
170.6350503965856
 50
137.44134459184301
 51
149.91949581337221
1001
ACDBBLOCKREPETAG
1070
     1
1071
       15
1005
12AFE8
  0
ARC
  5
12AFE9
  8
OBJECT
 10
4118.8455987040506
 20
-605.88272669536445
 30
0.0
 40
78.072222021763665
 50
147.4551531037684
 51
164.6636599771798
1001
ACDBBLOCKREPETAG
1070
     1
1071
       16
1005
12AFE9
  0
ARC
  5
12AFEA
  8
OBJECT
 10
4085.7554349608722
 20
-595.99999999999955
 30
0.0
 40
43.55353926885617
 50
165.6884523008477
 51
194.3115476991523
1001
ACDBBLOCKREPETAG
1070
     1
1071
       17
1005
12AFEA
  0
ARC
  5
12AFEB
  8
OBJECT
 10
4200.6872746716726
 20
-542.59190058989179
 30
0.0
 40
170.6350503965856
 50
210.08050418662771
 51
222.55865540815699
1001
ACDBBLOCKREPETAG
1070
     1
1071
       18
1005
12AFEB
  0
ARC
  5
12AFEC
  8
OBJECT
 10
4118.8455987040506
 20
-586.11727330463452
 30
0.0
 40
78.072222021763665
 50
195.3363400228202
 51
212.5448468962316
1001
ACDBBLOCKREPETAG
1070
     1
1071
       19
1005
12AFEC
  0
POINT
  5
12AFED
  8
DOTS
 10
4000.0
 20
-654.99999999999966
 30
0.0
1001
ACDBBLOCKREPETAG
1070
     1
1071
      186
1005
12AFED
  0
TEXT
  5
12AFEE
  8
SLIM
 10
1837.75
 20
282.50000000000011
 30
0.0
 40
35.0
  1
（枝管サイズ毎に寸法が異なります。管底の位置は全サイズで同じです）
 41
0.75
  0
TEXT
  5
12AFEF
  8
SLIM
 10
1850.0
 20
532.5
 30
0.0
 40
75.0
  1
側面図の代表機種
 41
0.75
  0
TEXT
  5
12AFF0
  8
SLIM
 10
1850.0
 20
369.99999999999989
 30
0.0
 40
100.0
  1
4SR-A3
 41
0.75
  0
LINE
  5
12AFF1
  8
OBJECT
 10
4133.0
 20
-137.99999999999909
 30
0.0
 11
4140.0
 21
-137.99999999999909
 31
0.0
1001
ACDBBLOCKREPETAG
1070
     1
1071
       47
1005
12AFF1
  0
LINE
  5
12AFF2
  8
OBJECT
 10
4140.0
 20
-137.99999999999909
 30
0.0
 11
4140.0
 21
-261.99999999999909
 31
0.0
1001
ACDBBLOCKREPETAG
1070
     1
1071
       48
1005
12AFF2
  0
LINE
  5
12AFF3
  8
OBJECT
 10
4140.0
 20
-261.99999999999909
 30
0.0
 11
4133.0
 21
-261.99999999999909
 31
0.0
1001
ACDBBLOCKREPETAG
1070
     1
1071
       49
1005
12AFF3
  0
LINE
  5
12AFF4
  8
OBJECT
 10
4133.0
 20
-261.99999999999909
 30
0.0
 11
4133.0
 21
-137.99999999999909
 31
0.0
1001
ACDBBLOCKREPETAG
1070
     1
1071
       50
1005
12AFF4
  0
LINE
  5
12AFF5
  8
CENTER
 10
4155.0
 20
-199.99999999999909
 30
0.0
 11
4080.0
 21
-199.99999999999909
 31
0.0
1001
ACDBBLOCKREPETAG
1070
     1
1071
       51
1005
12AFF5
  0
LINE
  5
12AFF6
  8
OBJECT
 10
4133.0
 20
-140.99999999999909
 30
0.0
 11
4097.0
 21
-140.99999999999909
 31
0.0
1001
ACDBBLOCKREPETAG
1070
     1
1071
       52
1005
12AFF6
  0
LINE
  5
12AFF7
  8
OBJECT
 10
4097.0
 20
-140.99999999999909
 30
0.0
 11
4097.0
 21
-258.99999999999909
 31
0.0
1001
ACDBBLOCKREPETAG
1070
     1
1071
       53
1005
12AFF7
  0
LINE
  5
12AFF8
  8
OBJECT
 10
4097.0
 20
-258.99999999999909
 30
0.0
 11
4133.0
 21
-258.99999999999909
 31
0.0
1001
ACDBBLOCKREPETAG
1070
     1
1071
       54
1005
12AFF8
  0
LINE
  5
12AFF9
  8
OBJECT
 10
4093.0
 20
-145.49999999999909
 30
0.0
 11
4086.0
 21
-145.49999999999909
 31
0.0
1001
ACDBBLOCKREPETAG
1070
     1
1071
       55
1005
12AFF9
  0
LINE
  5
12AFFA
  8
OBJECT
 10
4086.0
 20
-254.49999999999909
 30
0.0
 11
4093.0
 21
-254.49999999999909
 31
0.0
1001
ACDBBLOCKREPETAG
1070
     1
1071
       56
1005
12AFFA
  0
LINE
  5
12AFFB
  8
OBJECT
 10
4093.0
 20
-254.49999999999909
 30
0.0
 11
4093.0
 21
-145.49999999999909
 31
0.0
1001
ACDBBLOCKREPETAG
1070
     1
1071
       57
1005
12AFFB
  0
LINE
  5
12AFFC
  8
OBJECT
 10
4097.0
 20
-140.99999999999909
 30
0.0
 11
4093.0
 21
-145.49999999999909
 31
0.0
1001
ACDBBLOCKREPETAG
1070
     1
1071
       58
1005
12AFFC
  0
LINE
  5
12AFFD
  8
OBJECT
 10
4097.0
 20
-258.99999999999909
 30
0.0
 11
4093.0
 21
-254.49999999999909
 31
0.0
1001
ACDBBLOCKREPETAG
1070
     1
1071
       59
1005
12AFFD
  0
LINE
  5
12AFFE
  8
OBJECT
 10
4083.0
 20
-137.99999999999909
 30
0.0
 11
4080.0
 21
-137.99999999999909
 31
0.0
1001
ACDBBLOCKREPETAG
1070
     1
1071
       60
1005
12AFFE
  0
ARC
  5
12AFFF
  8
OBJECT
 10
4083.0
 20
-140.99999999999909
 30
0.0
 40
3.0
 50
0.0
 51
90.0
1001
ACDBBLOCKREPETAG
1070
     1
1071
       61
1005
12AFFF
  0
LINE
  5
12B000
  8
OBJECT
 10
4080.0
 20
-261.99999999999909
 30
0.0
 11
4083.0
 21
-261.99999999999909
 31
0.0
1001
ACDBBLOCKREPETAG
1070
     1
1071
       62
1005
12B000
  0
ARC
  5
12B001
  8
OBJECT
 10
4083.0
 20
-258.99999999999909
 30
0.0
 40
3.0
 50
270.0
 51
0.0
1001
ACDBBLOCKREPETAG
1070
     1
1071
       63
1005
12B001
  0
LINE
  5
12B002
  8
OBJECT
 10
4086.0
 20
-258.99999999999909
 30
0.0
 11
4086.0
 21
-140.99999999999909
 31
0.0
1001
ACDBBLOCKREPETAG
1070
     1
1071
       64
1005
12B002
  0
LINE
  5
12B003
  8
HIDDEN
 10
4088.0
 20
-155.49999999999909
 30
0.0
 11
4088.0
 21
-244.49999999999909
 31
0.0
1001
ACDBBLOCKREPETAG
1070
     1
1071
       65
1005
12B003
  0
LINE
  5
12B004
  8
CENTER
 10
4577.0
 20
-596.0
 30
0.0
 11
4423.0
 21
-596.0
 31
0.0
1001
ACDBBLOCKREPETAG
1070
     1
1071
       17
1005
12B004
  0
CIRCLE
  5
12B005
  8
OBJECT
 10
4500.0
 20
-596.0
 30
0.0
 40
41.5
1001
ACDBBLOCKREPETAG
1070
     1
1071
       19
1005
12B005
  0
CIRCLE
  5
12B006
  8
OBJECT
 10
4500.0
 20
-596.0
 30
0.0
 40
54.0
1001
ACDBBLOCKREPETAG
1070
     1
1071
       20
1005
12B006
  0
ARC
  5
12B007
  8
OBJECT
 10
4500.0
 20
-596.0
 30
0.0
 40
62.0
 50
287.89655112920718
 51
252.10344887079279
1001
ACDBBLOCKREPETAG
1070
     1
1071
       21
1005
12B007
  0
LINE
  5
12B008
  8
OBJECT
 10
4480.9474411167421
 20
-655.0
 30
0.0
 11
4519.052558883257
 21
-655.0
 31
0.0
1001
ACDBBLOCKREPETAG
1070
     1
1071
       22
1005
12B008
  0
LINE
  5
12B009
  8
OBJECT
 10
4133.0
 20
-534.0
 30
0.0
 11
4140.0
 21
-534.0
 31
0.0
1001
ACDBBLOCKREPETAG
1070
     1
1071
       45
1005
12B009
  0
LINE
  5
12B00A
  8
OBJECT
 10
4140.0
 20
-534.0
 30
0.0
 11
4140.0
 21
-655.0
 31
0.0
1001
ACDBBLOCKREPETAG
1070
     1
1071
       46
1005
12B00A
  0
LINE
  5
12B00B
  8
OBJECT
 10
4133.0
 20
-655.0
 30
0.0
 11
4133.0
 21
-534.0
 31
0.0
1001
ACDBBLOCKREPETAG
1070
     1
1071
       47
1005
12B00B
  0
LINE
  5
12B00C
  8
CENTER
 10
4155.0
 20
-596.0
 30
0.0
 11
4071.0
 21
-596.0
 31
0.0
1001
ACDBBLOCKREPETAG
1070
     1
1071
       48
1005
12B00C
  0
LINE
  5
12B00D
  8
OBJECT
 10
4133.0
 20
-537.0
 30
0.0
 11
4097.0
 21
-537.0
 31
0.0
1001
ACDBBLOCKREPETAG
1070
     1
1071
       49
1005
12B00D
  0
LINE
  5
12B00E
  8
OBJECT
 10
4097.0
 20
-537.0
 30
0.0
 11
4097.0
 21
-655.0
 31
0.0
1001
ACDBBLOCKREPETAG
1070
     1
1071
       50
1005
12B00E
  0
LINE
  5
12B00F
  8
OBJECT
 10
4097.0
 20
-655.0
 30
0.0
 11
4140.0
 21
-655.0
 31
0.0
1001
ACDBBLOCKREPETAG
1070
     1
1071
       51
1005
12B00F
  0
LINE
  5
12B010
  8
OBJECT
 10
4093.0
 20
-541.5
 30
0.0
 11
4086.0
 21
-541.5
 31
0.0
1001
ACDBBLOCKREPETAG
1070
     1
1071
       52
1005
12B010
  0
LINE
  5
12B011
  8
OBJECT
 10
4086.0
 20
-650.49999999999989
 30
0.0
 11
4093.0
 21
-650.49999999999989
 31
0.0
1001
ACDBBLOCKREPETAG
1070
     1
1071
       53
1005
12B011
  0
LINE
  5
12B012
  8
OBJECT
 10
4093.0
 20
-650.49999999999989
 30
0.0
 11
4093.0
 21
-541.5
 31
0.0
1001
ACDBBLOCKREPETAG
1070
     1
1071
       54
1005
12B012
  0
LINE
  5
12B013
  8
OBJECT
 10
4097.0
 20
-537.0
 30
0.0
 11
4093.0
 21
-541.5
 31
0.0
1001
ACDBBLOCKREPETAG
1070
     1
1071
       55
1005
12B013
  0
LINE
  5
12B014
  8
OBJECT
 10
4097.0
 20
-655.0
 30
0.0
 11
4093.0
 21
-650.49999999999989
 31
0.0
1001
ACDBBLOCKREPETAG
1070
     1
1071
       56
1005
12B014
  0
LINE
  5
12B015
  8
OBJECT
 10
4083.0
 20
-534.0
 30
0.0
 11
4080.0
 21
-534.0
 31
0.0
1001
ACDBBLOCKREPETAG
1070
     1
1071
       57
1005
12B015
  0
ARC
  5
12B016
  8
OBJECT
 10
4083.0
 20
-537.0
 30
0.0
 40
3.0
 50
0.0
 51
90.0
1001
ACDBBLOCKREPETAG
1070
     1
1071
       58
1005
12B016
  0
LINE
  5
12B017
  8
OBJECT
 10
4080.0
 20
-658.0
 30
0.0
 11
4083.0
 21
-658.0
 31
0.0
1001
ACDBBLOCKREPETAG
1070
     1
1071
       59
1005
12B017
  0
ARC
  5
12B018
  8
OBJECT
 10
4083.0
 20
-655.0
 30
0.0
 40
3.0
 50
270.0
 51
0.0
1001
ACDBBLOCKREPETAG
1070
     1
1071
       60
1005
12B018
  0
LINE
  5
12B019
  8
OBJECT
 10
4086.0
 20
-655.0
 30
0.0
 11
4086.0
 21
-537.0
 31
0.0
1001
ACDBBLOCKREPETAG
1070
     1
1071
       61
1005
12B019
  0
LINE
  5
12B01A
  8
HIDDEN
 10
4088.0
 20
-551.49999999999977
 30
0.0
 11
4088.0
 21
-640.5
 31
0.0
1001
ACDBBLOCKREPETAG
1070
     1
1071
       63
1005
12B01A
  0
LINE
  5
12B01B
  8
CENTER
 10
2577.0
 20
-596.0
 30
0.0
 11
2423.0
 21
-596.0
 31
0.0
1001
ACDBBLOCKREPETAG
1070
     1
1071
       17
1005
12B01B
  0
CIRCLE
  5
12B01C
  8
OBJECT
 10
2500.0
 20
-596.0
 30
0.0
 40
41.5
1001
ACDBBLOCKREPETAG
1070
     1
1071
       19
1005
12B01C
  0
CIRCLE
  5
12B01D
  8
OBJECT
 10
2500.0
 20
-596.0
 30
0.0
 40
54.0
1001
ACDBBLOCKREPETAG
1070
     1
1071
       20
1005
12B01D
  0
ARC
  5
12B01E
  8
OBJECT
 10
2500.0
 20
-596.0
 30
0.0
 40
62.0
 50
287.89655112920718
 51
252.10344887079279
1001
ACDBBLOCKREPETAG
1070
     1
1071
       21
1005
12B01E
  0
LINE
  5
12B01F
  8
OBJECT
 10
2480.947441116743
 20
-655.0
 30
0.0
 11
2519.052558883257
 21
-655.0
 31
0.0
1001
ACDBBLOCKREPETAG
1070
     1
1071
       22
1005
12B01F
  0
LINE
  5
12B020
  8
OBJECT
 10
2133.0
 20
-534.0
 30
0.0
 11
2140.0
 21
-534.0
 31
0.0
1001
ACDBBLOCKREPETAG
1070
     1
1071
       45
1005
12B020
  0
LINE
  5
12B021
  8
OBJECT
 10
2140.0
 20
-534.0
 30
0.0
 11
2140.0
 21
-655.0
 31
0.0
1001
ACDBBLOCKREPETAG
1070
     1
1071
       46
1005
12B021
  0
LINE
  5
12B022
  8
OBJECT
 10
2133.0
 20
-655.0
 30
0.0
 11
2133.0
 21
-534.0
 31
0.0
1001
ACDBBLOCKREPETAG
1070
     1
1071
       47
1005
12B022
  0
LINE
  5
12B023
  8
CENTER
 10
2155.0
 20
-596.0
 30
0.0
 11
2071.0
 21
-596.0
 31
0.0
1001
ACDBBLOCKREPETAG
1070
     1
1071
       48
1005
12B023
  0
LINE
  5
12B024
  8
OBJECT
 10
2133.0
 20
-537.0
 30
0.0
 11
2097.0
 21
-537.0
 31
0.0
1001
ACDBBLOCKREPETAG
1070
     1
1071
       49
1005
12B024
  0
LINE
  5
12B025
  8
OBJECT
 10
2097.0
 20
-537.0
 30
0.0
 11
2097.0
 21
-655.0
 31
0.0
1001
ACDBBLOCKREPETAG
1070
     1
1071
       50
1005
12B025
  0
LINE
  5
12B026
  8
OBJECT
 10
2097.0
 20
-655.0
 30
0.0
 11
2140.0
 21
-655.0
 31
0.0
1001
ACDBBLOCKREPETAG
1070
     1
1071
       51
1005
12B026
  0
LINE
  5
12B027
  8
OBJECT
 10
2093.0
 20
-541.5
 30
0.0
 11
2086.0
 21
-541.5
 31
0.0
1001
ACDBBLOCKREPETAG
1070
     1
1071
       52
1005
12B027
  0
LINE
  5
12B028
  8
OBJECT
 10
2086.0
 20
-650.49999999999989
 30
0.0
 11
2093.0
 21
-650.49999999999989
 31
0.0
1001
ACDBBLOCKREPETAG
1070
     1
1071
       53
1005
12B028
  0
LINE
  5
12B029
  8
OBJECT
 10
2093.0
 20
-650.49999999999989
 30
0.0
 11
2093.0
 21
-541.5
 31
0.0
1001
ACDBBLOCKREPETAG
1070
     1
1071
       54
1005
12B029
  0
LINE
  5
12B02A
  8
OBJECT
 10
2097.0
 20
-537.0
 30
0.0
 11
2093.0
 21
-541.5
 31
0.0
1001
ACDBBLOCKREPETAG
1070
     1
1071
       55
1005
12B02A
  0
LINE
  5
12B02B
  8
OBJECT
 10
2097.0
 20
-655.0
 30
0.0
 11
2093.0
 21
-650.49999999999989
 31
0.0
1001
ACDBBLOCKREPETAG
1070
     1
1071
       56
1005
12B02B
  0
LINE
  5
12B02C
  8
OBJECT
 10
2083.0
 20
-534.0
 30
0.0
 11
2080.0
 21
-534.0
 31
0.0
1001
ACDBBLOCKREPETAG
1070
     1
1071
       57
1005
12B02C
  0
ARC
  5
12B02D
  8
OBJECT
 10
2083.0
 20
-537.0
 30
0.0
 40
3.0
 50
0.0
 51
90.0
1001
ACDBBLOCKREPETAG
1070
     1
1071
       58
1005
12B02D
  0
LINE
  5
12B02E
  8
OBJECT
 10
2080.0
 20
-658.0
 30
0.0
 11
2083.0
 21
-658.0
 31
0.0
1001
ACDBBLOCKREPETAG
1070
     1
1071
       59
1005
12B02E
  0
ARC
  5
12B02F
  8
OBJECT
 10
2083.0
 20
-655.0
 30
0.0
 40
3.0
 50
270.0
 51
0.0
1001
ACDBBLOCKREPETAG
1070
     1
1071
       60
1005
12B02F
  0
LINE
  5
12B030
  8
OBJECT
 10
2086.0
 20
-655.0
 30
0.0
 11
2086.0
 21
-537.0
 31
0.0
1001
ACDBBLOCKREPETAG
1070
     1
1071
       61
1005
12B030
  0
LINE
  5
12B031
  8
HIDDEN
 10
2088.0
 20
-551.49999999999977
 30
0.0
 11
2088.0
 21
-640.5
 31
0.0
1001
ACDBBLOCKREPETAG
1070
     1
1071
       63
1005
12B031
  0
LINE
  5
12B032
  8
OBJECT
 10
2133.0
 20
-137.99999999999909
 30
0.0
 11
2140.0
 21
-137.99999999999909
 31
0.0
1001
ACDBBLOCKREPETAG
1070
     1
1071
       47
1005
12B032
  0
LINE
  5
12B033
  8
OBJECT
 10
2140.0
 20
-137.99999999999909
 30
0.0
 11
2140.0
 21
-261.99999999999909
 31
0.0
1001
ACDBBLOCKREPETAG
1070
     1
1071
       48
1005
12B033
  0
LINE
  5
12B034
  8
OBJECT
 10
2140.0
 20
-261.99999999999909
 30
0.0
 11
2133.0
 21
-261.99999999999909
 31
0.0
1001
ACDBBLOCKREPETAG
1070
     1
1071
       49
1005
12B034
  0
LINE
  5
12B035
  8
OBJECT
 10
2133.0
 20
-261.99999999999909
 30
0.0
 11
2133.0
 21
-137.99999999999909
 31
0.0
1001
ACDBBLOCKREPETAG
1070
     1
1071
       50
1005
12B035
  0
LINE
  5
12B036
  8
CENTER
 10
2155.0
 20
-199.99999999999909
 30
0.0
 11
2080.0
 21
-199.99999999999909
 31
0.0
1001
ACDBBLOCKREPETAG
1070
     1
1071
       51
1005
12B036
  0
LINE
  5
12B037
  8
OBJECT
 10
2133.0
 20
-140.99999999999909
 30
0.0
 11
2097.0
 21
-140.99999999999909
 31
0.0
1001
ACDBBLOCKREPETAG
1070
     1
1071
       52
1005
12B037
  0
LINE
  5
12B038
  8
OBJECT
 10
2097.0
 20
-140.99999999999909
 30
0.0
 11
2097.0
 21
-258.99999999999909
 31
0.0
1001
ACDBBLOCKREPETAG
1070
     1
1071
       53
1005
12B038
  0
LINE
  5
12B039
  8
OBJECT
 10
2097.0
 20
-258.99999999999909
 30
0.0
 11
2133.0
 21
-258.99999999999909
 31
0.0
1001
ACDBBLOCKREPETAG
1070
     1
1071
       54
1005
12B039
  0
LINE
  5
12B03A
  8
OBJECT
 10
2093.0
 20
-145.49999999999909
 30
0.0
 11
2086.0
 21
-145.49999999999909
 31
0.0
1001
ACDBBLOCKREPETAG
1070
     1
1071
       55
1005
12B03A
  0
LINE
  5
12B03B
  8
OBJECT
 10
2086.0
 20
-254.49999999999909
 30
0.0
 11
2093.0
 21
-254.49999999999909
 31
0.0
1001
ACDBBLOCKREPETAG
1070
     1
1071
       56
1005
12B03B
  0
LINE
  5
12B03C
  8
OBJECT
 10
2093.0
 20
-254.49999999999909
 30
0.0
 11
2093.0
 21
-145.49999999999909
 31
0.0
1001
ACDBBLOCKREPETAG
1070
     1
1071
       57
1005
12B03C
  0
LINE
  5
12B03D
  8
OBJECT
 10
2097.0
 20
-140.99999999999909
 30
0.0
 11
2093.0
 21
-145.49999999999909
 31
0.0
1001
ACDBBLOCKREPETAG
1070
     1
1071
       58
1005
12B03D
  0
LINE
  5
12B03E
  8
OBJECT
 10
2097.0
 20
-258.99999999999909
 30
0.0
 11
2093.0
 21
-254.49999999999909
 31
0.0
1001
ACDBBLOCKREPETAG
1070
     1
1071
       59
1005
12B03E
  0
LINE
  5
12B03F
  8
OBJECT
 10
2083.0
 20
-137.99999999999909
 30
0.0
 11
2080.0
 21
-137.99999999999909
 31
0.0
1001
ACDBBLOCKREPETAG
1070
     1
1071
       60
1005
12B03F
  0
ARC
  5
12B040
  8
OBJECT
 10
2083.0
 20
-140.99999999999909
 30
0.0
 40
3.0
 50
0.0
 51
90.0
1001
ACDBBLOCKREPETAG
1070
     1
1071
       61
1005
12B040
  0
LINE
  5
12B041
  8
OBJECT
 10
2080.0
 20
-261.99999999999909
 30
0.0
 11
2083.0
 21
-261.99999999999909
 31
0.0
1001
ACDBBLOCKREPETAG
1070
     1
1071
       62
1005
12B041
  0
ARC
  5
12B042
  8
OBJECT
 10
2083.0
 20
-258.99999999999909
 30
0.0
 40
3.0
 50
270.0
 51
0.0
1001
ACDBBLOCKREPETAG
1070
     1
1071
       63
1005
12B042
  0
LINE
  5
12B043
  8
OBJECT
 10
2086.0
 20
-258.99999999999909
 30
0.0
 11
2086.0
 21
-140.99999999999909
 31
0.0
1001
ACDBBLOCKREPETAG
1070
     1
1071
       64
1005
12B043
  0
LINE
  5
12B044
  8
HIDDEN
 10
2088.0
 20
-155.49999999999909
 30
0.0
 11
2088.0
 21
-244.49999999999909
 31
0.0
1001
ACDBBLOCKREPETAG
1070
     1
1071
       65
1005
12B044
  0
LINE
  5
12B045
  8
OBJECT
 10
465.00000000012182
 20
-546.00000000000955
 30
0.0
 11
465.00000000012182
 21
-553.00000000000966
 31
0.0
1001
ACDBBLOCKREPETAG
1070
     1
1071
       57
1005
12B045
  0
LINE
  5
12B046
  8
OBJECT
 10
465.00000000012182
 20
-553.00000000000966
 30
0.0
 11
615.00000000012176
 21
-553.00000000000966
 31
0.0
1001
ACDBBLOCKREPETAG
1070
     1
1071
       58
1005
12B046
  0
LINE
  5
12B047
  8
OBJECT
 10
468.00000000012182
 20
-594.50000000000966
 30
0.0
 11
612.00000000012164
 21
-594.50000000000966
 31
0.0
1001
ACDBBLOCKREPETAG
1070
     1
1071
       59
1005
12B047
  0
LINE
  5
12B048
  8
OBJECT
 10
474.5000000001217
 20
-606.00000000000955
 30
0.0
 11
605.50000000012187
 21
-606.00000000000955
 31
0.0
1001
ACDBBLOCKREPETAG
1070
     1
1071
       60
1005
12B048
  0
LINE
  5
12B049
  8
OBJECT
 10
615.00000000012176
 20
-553.00000000000966
 30
0.0
 11
615.00000000012176
 21
-546.00000000000955
 31
0.0
1001
ACDBBLOCKREPETAG
1070
     1
1071
       61
1005
12B049
  0
LINE
  5
12B04A
  8
OBJECT
 10
615.00000000012176
 20
-546.00000000000955
 30
0.0
 11
465.00000000012182
 21
-546.00000000000955
 31
0.0
1001
ACDBBLOCKREPETAG
1070
     1
1071
       62
1005
12B04A
  0
LINE
  5
12B04B
  8
OBJECT
 10
602.00000000012187
 20
-610.00000000000955
 30
0.0
 11
602.00000000012187
 21
-616.00000000000955
 31
0.0
1001
ACDBBLOCKREPETAG
1070
     1
1071
       63
1005
12B04B
  0
LINE
  5
12B04C
  8
OBJECT
 10
612.00000000012164
 20
-553.00000000000966
 30
0.0
 11
612.00000000012164
 21
-594.50000000000966
 31
0.0
1001
ACDBBLOCKREPETAG
1070
     1
1071
       64
1005
12B04C
  0
LINE
  5
12B04D
  8
OBJECT
 10
612.00000000012164
 20
-594.50000000000966
 30
0.0
 11
605.50000000012187
 21
-606.00000000000955
 31
0.0
1001
ACDBBLOCKREPETAG
1070
     1
1071
       65
1005
12B04D
  0
LINE
  5
12B04E
  8
OBJECT
 10
605.50000000012187
 20
-606.00000000000955
 30
0.0
 11
602.00000000012187
 21
-610.00000000000955
 31
0.0
1001
ACDBBLOCKREPETAG
1070
     1
1071
       66
1005
12B04E
  0
LINE
  5
12B04F
  8
OBJECT
 10
468.00000000012182
 20
-594.50000000000966
 30
0.0
 11
474.5000000001217
 21
-606.00000000000955
 31
0.0
1001
ACDBBLOCKREPETAG
1070
     1
1071
       67
1005
12B04F
  0
LINE
  5
12B050
  8
OBJECT
 10
474.5000000001217
 20
-606.00000000000955
 30
0.0
 11
478.0000000001217
 21
-610.00000000000955
 31
0.0
1001
ACDBBLOCKREPETAG
1070
     1
1071
       68
1005
12B050
  0
ARC
  5
12B051
  8
OBJECT
 10
540.00000000012176
 20
-228.10000000000809
 30
0.0
 40
386.89999999999998
 50
260.77870136257951
 51
279.22129863742049
1001
ACDBBLOCKREPETAG
1070
     1
1071
       69
1005
12B051
  0
LINE
  5
12B052
  8
OBJECT
 10
478.0000000001217
 20
-610.00000000000955
 30
0.0
 11
478.0000000001217
 21
-616.00000000000955
 31
0.0
1001
ACDBBLOCKREPETAG
1070
     1
1071
       70
1005
12B052
  0
LINE
  5
12B053
  8
OBJECT
 10
468.00000000012182
 20
-553.00000000000966
 30
0.0
 11
468.00000000012182
 21
-594.50000000000966
 31
0.0
1001
ACDBBLOCKREPETAG
1070
     1
1071
       71
1005
12B053
  0
INSERT
  5
12B054
  8
OBJECT
  2
*U8
 10
0.0
 20
0.0
 30
0.0
  0
LINE
  5
12B055
  8
HIDDEN
 10
597.00000000012187
 20
-598.00000000000955
 30
0.0
 11
483.0000000001217
 21
-598.00000000000955
 31
0.0
1001
ACDBBLOCKREPETAG
1070
     1
1071
      431
1005
12B055
  0
INSERT
  5
12B056
  8
OBJECT
  2
*U9
 10
0.0
 20
0.0
 30
0.0
  0
LINE
  5
12B057
  8
OBJECT
 10
118.00000000004179
 20
-563.00000000000955
 30
0.0
 11
118.00000000004179
 21
-556.00000000000955
 31
0.0
1001
ACDBBLOCKREPETAG
1070
     1
1071
       39
1005
12B057
  0
LINE
  5
12B058
  8
OBJECT
 10
118.00000000004179
 20
-556.00000000000955
 30
0.0
 11
242.00000000004181
 21
-556.00000000000955
 31
0.0
1001
ACDBBLOCKREPETAG
1070
     1
1071
       40
1005
12B058
  0
LINE
  5
12B059
  8
OBJECT
 10
242.00000000004181
 20
-556.00000000000955
 30
0.0
 11
242.00000000004181
 21
-563.00000000000955
 31
0.0
1001
ACDBBLOCKREPETAG
1070
     1
1071
       41
1005
12B059
  0
LINE
  5
12B05A
  8
OBJECT
 10
242.00000000004181
 20
-563.00000000000955
 30
0.0
 11
118.00000000004179
 21
-563.00000000000955
 31
0.0
1001
ACDBBLOCKREPETAG
1070
     1
1071
       42
1005
12B05A
  0
LINE
  5
12B05B
  8
OBJECT
 10
121.00000000004179
 20
-563.00000000000955
 30
0.0
 11
121.00000000004179
 21
-599.00000000000966
 31
0.0
1001
ACDBBLOCKREPETAG
1070
     1
1071
       43
1005
12B05B
  0
LINE
  5
12B05C
  8
OBJECT
 10
121.00000000004179
 20
-599.00000000000966
 30
0.0
 11
239.00000000004181
 21
-599.00000000000966
 31
0.0
1001
ACDBBLOCKREPETAG
1070
     1
1071
       44
1005
12B05C
  0
LINE
  5
12B05D
  8
OBJECT
 10
239.00000000004181
 20
-599.00000000000966
 30
0.0
 11
239.00000000004181
 21
-563.00000000000955
 31
0.0
1001
ACDBBLOCKREPETAG
1070
     1
1071
       45
1005
12B05D
  0
LINE
  5
12B05E
  8
OBJECT
 10
125.50000000004179
 20
-603.00000000000966
 30
0.0
 11
125.50000000004179
 21
-610.00000000000955
 31
0.0
1001
ACDBBLOCKREPETAG
1070
     1
1071
       46
1005
12B05E
  0
LINE
  5
12B05F
  8
OBJECT
 10
234.50000000004181
 20
-610.00000000000955
 30
0.0
 11
234.50000000004181
 21
-603.00000000000966
 31
0.0
1001
ACDBBLOCKREPETAG
1070
     1
1071
       47
1005
12B05F
  0
LINE
  5
12B060
  8
OBJECT
 10
234.50000000004181
 20
-603.00000000000966
 30
0.0
 11
125.50000000004179
 21
-603.00000000000966
 31
0.0
1001
ACDBBLOCKREPETAG
1070
     1
1071
       48
1005
12B060
  0
LINE
  5
12B061
  8
OBJECT
 10
121.00000000004179
 20
-599.00000000000966
 30
0.0
 11
125.50000000004179
 21
-603.00000000000966
 31
0.0
1001
ACDBBLOCKREPETAG
1070
     1
1071
       49
1005
12B061
  0
LINE
  5
12B062
  8
OBJECT
 10
239.00000000004181
 20
-599.00000000000966
 30
0.0
 11
234.50000000004181
 21
-603.00000000000966
 31
0.0
1001
ACDBBLOCKREPETAG
1070
     1
1071
       50
1005
12B062
  0
LINE
  5
12B063
  8
OBJECT
 10
118.00000000004179
 20
-613.00000000000864
 30
0.0
 11
118.00000000004179
 21
-616.00000000000955
 31
0.0
1001
ACDBBLOCKREPETAG
1070
     1
1071
       51
1005
12B063
  0
ARC
  5
12B064
  8
OBJECT
 10
121.00000000004179
 20
-613.00000000000864
 30
0.0
 40
3.0
 50
90.0
 51
180.0
1001
ACDBBLOCKREPETAG
1070
     1
1071
       52
1005
12B064
  0
LINE
  5
12B065
  8
OBJECT
 10
242.00000000004181
 20
-616.00000000000955
 30
0.0
 11
242.00000000004181
 21
-613.00000000001035
 31
0.0
1001
ACDBBLOCKREPETAG
1070
     1
1071
       53
1005
12B065
  0
ARC
  5
12B066
  8
OBJECT
 10
239.00000000004181
 20
-613.00000000001035
 30
0.0
 40
3.0
 50
0.0
 51
90.0
1001
ACDBBLOCKREPETAG
1070
     1
1071
       54
1005
12B066
  0
LINE
  5
12B067
  8
OBJECT
 10
239.00000000004181
 20
-610.00000000001035
 30
0.0
 11
121.00000000004179
 21
-610.00000000000864
 31
0.0
1001
ACDBBLOCKREPETAG
1070
     1
1071
       55
1005
12B067
  0
LINE
  5
12B068
  8
HIDDEN
 10
135.50000000004181
 20
-608.00000000000955
 30
0.0
 11
224.50000000004181
 21
-608.00000000000955
 31
0.0
1001
ACDBBLOCKREPETAG
1070
     1
1071
      426
1005
12B068
  0
INSERT
  5
12B069
  8
OBJECT
  2
*U10
 10
0.0
 20
0.0
 30
0.0
  0
LINE
  5
12B06A
  8
OBJECT
 10
485.00000000012182
 20
-99.000000000003183
 30
0.0
 11
485.00000000012182
 21
-92.000000000003183
 31
0.0
1001
ACDBBLOCKREPETAG
1070
     1
1071
       20
1005
12B06A
  0
LINE
  5
12B06B
  8
OBJECT
 10
485.00000000012182
 20
-92.000000000003183
 30
0.0
 11
595.00000000012164
 21
-92.000000000003183
 31
0.0
1001
ACDBBLOCKREPETAG
1070
     1
1071
       21
1005
12B06B
  0
LINE
  5
12B06C
  8
OBJECT
 10
595.00000000012164
 20
-92.000000000003183
 30
0.0
 11
595.00000000012164
 21
-99.000000000003183
 31
0.0
1001
ACDBBLOCKREPETAG
1070
     1
1071
       22
1005
12B06C
  0
LINE
  5
12B06D
  8
OBJECT
 10
595.00000000012164
 20
-99.000000000003183
 30
0.0
 11
485.00000000012182
 21
-99.000000000003183
 31
0.0
1001
ACDBBLOCKREPETAG
1070
     1
1071
       23
1005
12B06D
  0
LINE
  5
12B06E
  8
OBJECT
 10
488.0000000001217
 20
-99.000000000003183
 30
0.0
 11
488.0000000001217
 21
-135.00000000000321
 31
0.0
1001
ACDBBLOCKREPETAG
1070
     1
1071
       24
1005
12B06E
  0
LINE
  5
12B06F
  8
OBJECT
 10
488.0000000001217
 20
-135.00000000000321
 30
0.0
 11
592.00000000012164
 21
-135.00000000000321
 31
0.0
1001
ACDBBLOCKREPETAG
1070
     1
1071
       25
1005
12B06F
  0
LINE
  5
12B070
  8
OBJECT
 10
592.00000000012164
 20
-135.00000000000321
 30
0.0
 11
592.00000000012164
 21
-99.000000000003183
 31
0.0
1001
ACDBBLOCKREPETAG
1070
     1
1071
       26
1005
12B070
  0
LINE
  5
12B071
  8
OBJECT
 10
492.5000000001217
 20
-139.00000000000321
 30
0.0
 11
492.5000000001217
 21
-146.00000000000321
 31
0.0
1001
ACDBBLOCKREPETAG
1070
     1
1071
       27
1005
12B071
  0
LINE
  5
12B072
  8
OBJECT
 10
587.50000000012164
 20
-146.00000000000321
 30
0.0
 11
587.50000000012164
 21
-139.00000000000321
 31
0.0
1001
ACDBBLOCKREPETAG
1070
     1
1071
       28
1005
12B072
  0
LINE
  5
12B073
  8
OBJECT
 10
587.50000000012164
 20
-139.00000000000321
 30
0.0
 11
492.5000000001217
 21
-139.00000000000321
 31
0.0
1001
ACDBBLOCKREPETAG
1070
     1
1071
       29
1005
12B073
  0
LINE
  5
12B074
  8
OBJECT
 10
488.0000000001217
 20
-135.00000000000321
 30
0.0
 11
492.5000000001217
 21
-139.00000000000321
 31
0.0
1001
ACDBBLOCKREPETAG
1070
     1
1071
       30
1005
12B074
  0
LINE
  5
12B075
  8
OBJECT
 10
592.00000000012164
 20
-135.00000000000321
 30
0.0
 11
587.50000000012164
 21
-139.00000000000321
 31
0.0
1001
ACDBBLOCKREPETAG
1070
     1
1071
       31
1005
12B075
  0
LINE
  5
12B076
  8
OBJECT
 10
478.0000000001217
 20
-149.0000000000023
 30
0.0
 11
478.0000000001217
 21
-152.0000000000031
 31
0.0
1001
ACDBBLOCKREPETAG
1070
     1
1071
       32
1005
12B076
  0
ARC
  5
12B077
  8
OBJECT
 10
481.00000000012182
 20
-149.0000000000023
 30
0.0
 40
3.0
 50
90.0
 51
180.0
1001
ACDBBLOCKREPETAG
1070
     1
1071
       33
1005
12B077
  0
LINE
  5
12B078
  8
OBJECT
 10
602.00000000012187
 20
-152.0000000000031
 30
0.0
 11
602.00000000012187
 21
-149.00000000000409
 31
0.0
1001
ACDBBLOCKREPETAG
1070
     1
1071
       34
1005
12B078
  0
ARC
  5
12B079
  8
OBJECT
 10
599.00000000012164
 20
-149.00000000000409
 30
0.0
 40
3.0
 50
0.0
 51
90.0
1001
ACDBBLOCKREPETAG
1070
     1
1071
       35
1005
12B079
  0
LINE
  5
12B07A
  8
OBJECT
 10
599.00000000012164
 20
-146.00000000000409
 30
0.0
 11
481.00000000012182
 21
-146.0000000000023
 31
0.0
1001
ACDBBLOCKREPETAG
1070
     1
1071
       36
1005
12B07A
  0
LINE
  5
12B07B
  8
HIDDEN
 10
502.00000000012182
 20
-144.00000000000321
 30
0.0
 11
578.00000000012164
 21
-144.00000000000321
 31
0.0
1001
ACDBBLOCKREPETAG
1070
     1
1071
      423
1005
12B07B
  0
INSERT
  5
12B07C
  8
OBJECT
  2
*U11
 10
0.0
 20
0.0
 30
0.0
  0
LINE
  5
12B07D
  8
OBJECT
 10
133.00000000004169
 20
-99.000000000003183
 30
0.0
 11
133.00000000004169
 21
-92.000000000003183
 31
0.0
1001
ACDBBLOCKREPETAG
1070
     1
1071
        1
1005
12B07D
  0
LINE
  5
12B07E
  8
OBJECT
 10
133.00000000004169
 20
-92.000000000003183
 30
0.0
 11
227.00000000004181
 21
-92.000000000003183
 31
0.0
1001
ACDBBLOCKREPETAG
1070
     1
1071
        2
1005
12B07E
  0
LINE
  5
12B07F
  8
OBJECT
 10
227.00000000004181
 20
-92.000000000003183
 30
0.0
 11
227.00000000004181
 21
-99.000000000003183
 31
0.0
1001
ACDBBLOCKREPETAG
1070
     1
1071
        3
1005
12B07F
  0
LINE
  5
12B080
  8
OBJECT
 10
227.00000000004181
 20
-99.000000000003183
 30
0.0
 11
133.00000000004169
 21
-99.000000000003183
 31
0.0
1001
ACDBBLOCKREPETAG
1070
     1
1071
        4
1005
12B080
  0
LINE
  5
12B081
  8
OBJECT
 10
136.00000000004169
 20
-99.000000000003183
 30
0.0
 11
136.00000000004169
 21
-135.00000000000321
 31
0.0
1001
ACDBBLOCKREPETAG
1070
     1
1071
        5
1005
12B081
  0
LINE
  5
12B082
  8
OBJECT
 10
136.00000000004169
 20
-135.00000000000321
 30
0.0
 11
224.00000000004181
 21
-135.00000000000321
 31
0.0
1001
ACDBBLOCKREPETAG
1070
     1
1071
        6
1005
12B082
  0
LINE
  5
12B083
  8
OBJECT
 10
224.00000000004181
 20
-135.00000000000321
 30
0.0
 11
224.00000000004181
 21
-99.000000000003183
 31
0.0
1001
ACDBBLOCKREPETAG
1070
     1
1071
        7
1005
12B083
  0
LINE
  5
12B084
  8
OBJECT
 10
140.50000000004181
 20
-139.00000000000321
 30
0.0
 11
140.50000000004181
 21
-146.00000000000321
 31
0.0
1001
ACDBBLOCKREPETAG
1070
     1
1071
        8
1005
12B084
  0
LINE
  5
12B085
  8
OBJECT
 10
219.50000000004189
 20
-146.00000000000321
 30
0.0
 11
219.50000000004189
 21
-139.00000000000321
 31
0.0
1001
ACDBBLOCKREPETAG
1070
     1
1071
        9
1005
12B085
  0
LINE
  5
12B086
  8
OBJECT
 10
219.50000000004189
 20
-139.00000000000321
 30
0.0
 11
140.50000000004181
 21
-139.00000000000321
 31
0.0
1001
ACDBBLOCKREPETAG
1070
     1
1071
       10
1005
12B086
  0
LINE
  5
12B087
  8
OBJECT
 10
136.00000000004169
 20
-135.00000000000321
 30
0.0
 11
140.50000000004181
 21
-139.00000000000321
 31
0.0
1001
ACDBBLOCKREPETAG
1070
     1
1071
       11
1005
12B087
  0
LINE
  5
12B088
  8
OBJECT
 10
224.00000000004181
 20
-135.00000000000321
 30
0.0
 11
219.50000000004189
 21
-139.00000000000321
 31
0.0
1001
ACDBBLOCKREPETAG
1070
     1
1071
       12
1005
12B088
  0
LINE
  5
12B089
  8
OBJECT
 10
118.00000000004179
 20
-149.0000000000023
 30
0.0
 11
118.00000000004179
 21
-152.0000000000031
 31
0.0
1001
ACDBBLOCKREPETAG
1070
     1
1071
       13
1005
12B089
  0
ARC
  5
12B08A
  8
OBJECT
 10
121.00000000004179
 20
-149.0000000000023
 30
0.0
 40
3.0
 50
90.0
 51
180.0
1001
ACDBBLOCKREPETAG
1070
     1
1071
       14
1005
12B08A
  0
LINE
  5
12B08B
  8
OBJECT
 10
242.00000000004181
 20
-152.0000000000031
 30
0.0
 11
242.00000000004181
 21
-149.00000000000409
 31
0.0
1001
ACDBBLOCKREPETAG
1070
     1
1071
       15
1005
12B08B
  0
ARC
  5
12B08C
  8
OBJECT
 10
239.00000000004181
 20
-149.00000000000409
 30
0.0
 40
3.0
 50
0.0
 51
90.0
1001
ACDBBLOCKREPETAG
1070
     1
1071
       16
1005
12B08C
  0
LINE
  5
12B08D
  8
OBJECT
 10
239.00000000004181
 20
-146.00000000000409
 30
0.0
 11
121.00000000004179
 21
-146.0000000000023
 31
0.0
1001
ACDBBLOCKREPETAG
1070
     1
1071
       17
1005
12B08D
  0
LINE
  5
12B08E
  8
HIDDEN
 10
150.00000000004181
 20
-144.00000000000321
 30
0.0
 11
210.00000000004181
 21
-144.00000000000321
 31
0.0
1001
ACDBBLOCKREPETAG
1070
     1
1071
      420
1005
12B08E
  0
POLYLINE
  5
12B08F
  8
HIDDEN
 66
     1
 10
0.0
 20
0.0
 30
0.0
 70
     1
1001
ACDBBLOCKREPETAG
1070
     1
1071
      105
1005
0
  0
VERTEX
  5
12B27B
  8
HIDDEN
 10
359.99999999987818
 20
0.0
 30
0.0
  0
VERTEX
  5
12B27C
  8
HIDDEN
 10
719.99999999975626
 20
0.0
 30
0.0
  0
VERTEX
  5
12B27D
  8
HIDDEN
 10
719.99999999975626
 20
-463.99999999984158
 30
0.0
  0
VERTEX
  5
12B27E
  8
HIDDEN
 10
359.99999999987818
 20
-463.99999999984158
 30
0.0
  0
SEQEND
  5
12B27F
  8
HIDDEN
  0
POLYLINE
  5
12B090
  8
HIDDEN
 66
     1
 10
0.0
 20
0.0
 30
0.0
 70
     1
1001
ACDBBLOCKREPETAG
1070
     1
1071
      110
1005
0
  0
VERTEX
  5
12B280
  8
HIDDEN
 10
0.0
 20
0.0
 30
0.0
  0
VERTEX
  5
12B281
  8
HIDDEN
 10
359.99999999987818
 20
0.0
 30
0.0
  0
VERTEX
  5
12B282
  8
HIDDEN
 10
359.99999999987818
 20
-463.99999999984158
 30
0.0
  0
VERTEX
  5
12B283
  8
HIDDEN
 10
0.0
 20
-463.99999999984158
 30
0.0
  0
SEQEND
  5
12B284
  8
HIDDEN
  0
POLYLINE
  5
12B091
  8
HIDDEN
 66
     1
 10
0.0
 20
0.0
 30
0.0
 70
     1
1001
ACDBBLOCKREPETAG
1070
     1
1071
      120
1005
0
  0
VERTEX
  5
12B285
  8
HIDDEN
 10
359.99999999987818
 20
-463.99999999984158
 30
0.0
  0
VERTEX
  5
12B286
  8
HIDDEN
 10
719.99999999975626
 20
-463.99999999984158
 30
0.0
  0
VERTEX
  5
12B287
  8
HIDDEN
 10
719.99999999975626
 20
-927.99999999968372
 30
0.0
  0
VERTEX
  5
12B288
  8
HIDDEN
 10
359.99999999987818
 20
-927.99999999968372
 30
0.0
  0
SEQEND
  5
12B289
  8
HIDDEN
  0
POLYLINE
  5
12B092
  8
HIDDEN
 66
     1
 10
0.0
 20
0.0
 30
0.0
 70
     1
1001
ACDBBLOCKREPETAG
1070
     1
1071
      125
1005
0
  0
VERTEX
  5
12B28A
  8
HIDDEN
 10
0.0
 20
-463.99999999984158
 30
0.0
  0
VERTEX
  5
12B28B
  8
HIDDEN
 10
359.99999999987818
 20
-463.99999999984158
 30
0.0
  0
VERTEX
  5
12B28C
  8
HIDDEN
 10
359.99999999987818
 20
-927.99999999968372
 30
0.0
  0
VERTEX
  5
12B28D
  8
HIDDEN
 10
0.0
 20
-927.99999999968372
 30
0.0
  0
SEQEND
  5
12B28E
  8
HIDDEN
  0
TEXT
  5
12B093
  8
SLIM
 10
508.28571428553232
 20
-907.999999999691
 30
0.0
 40
48.0
  1
A4
 41
0.75
1001
ACDBBLOCKREPETAG
1070
     1
1071
      119
1005
0
  0
TEXT
  5
12B094
  8
SLIM
 10
149.14285714279711
 20
-907.999999999691
 30
0.0
 40
48.0
  1
A3
 41
0.75
1001
ACDBBLOCKREPETAG
1070
     1
1071
      119
1005
0
  0
TEXT
  5
12B095
  8
SLIM
 10
509.1428571426751
 20
-443.99999999984919
 30
0.0
 40
48.0
  1
A2
 41
0.75
1001
ACDBBLOCKREPETAG
1070
     1
1071
      119
1005
0
  0
TEXT
  5
12B096
  8
SLIM
 10
156.85714285708281
 20
-443.99999999984919
 30
0.0
 40
48.0
  1
A1
 41
0.75
1001
ACDBBLOCKREPETAG
1070
     1
1071
      119
1005
0
  0
TEXT
  5
12B097
  8
SLIM
 10
0.0000035665234464
 20
24.000004585317601
 30
0.0
 40
79.999999999972701
  1
枝管バリエーション
 41
0.75
1001
ACDBBLOCKREPETAG
1070
     1
1071
      119
1005
1294F4
  0
TEXT
  5
12B098
  8
SLIM
 10
0.0
 20
369.99999999999989
 30
0.0
 40
100.0
  1
4SR-AX-S
 41
0.75
  0
LINE
  5
12B099
  8
SLIM
 10
4414.9999999999927
 20
-665.19743878931376
 30
0.0
 11
4425.1974387893069
 21
-654.99999999999886
 31
0.0
1001
ACDBBLOCKREPETAG
1070
     1
1071
        0
1005
0
1001
ACAD
1010
0.0
1020
0.0
1030
0.0
  0
LINE
  5
12B09A
  8
SLIM
 10
4414.9999999999927
 20
-683.15795103145035
 30
0.0
 11
4443.1579510314468
 21
-654.99999999999886
 31
0.0
1001
ACAD
1010
0.0
1020
0.0
1030
0.0
1001
ACDBBLOCKREPETAG
1070
     1
1071
       14
1005
12B09A
  0
LINE
  5
12B09B
  8
SLIM
 10
4415.1454972543161
 20
-700.97296601926814
 30
0.0
 11
4461.118463273584
 21
-654.99999999999886
 31
0.0
1001
ACAD
1010
0.0
1020
0.0
1030
0.0
1001
ACDBBLOCKREPETAG
1070
     1
1071
       15
1005
12B09B
  0
LINE
  5
12B09C
  8
SLIM
 10
4417.1046274952441
 20
-716.97434802047826
 30
0.0
 11
4479.0789755157211
 21
-654.99999999999886
 31
0.0
1001
ACAD
1010
0.0
1020
0.0
1030
0.0
1001
ACDBBLOCKREPETAG
1070
     1
1071
       16
1005
12B09C
  0
LINE
  5
12B09D
  8
SLIM
 10
4419.0637577361713
 20
-732.97573002168838
 30
0.0
 11
4497.039487757861
 21
-654.99999999999886
 31
0.0
1001
ACAD
1010
0.0
1020
0.0
1030
0.0
1001
ACDBBLOCKREPETAG
1070
     1
1071
       17
1005
12B09D
  0
LINE
  5
12B09E
  8
SLIM
 10
4420.0
 20
-749.99999999999875
 30
0.0
 11
4515.0
 21
-654.99999999999886
 31
0.0
1001
ACAD
1010
0.0
1020
0.0
1030
0.0
1001
ACDBBLOCKREPETAG
1070
     1
1071
       18
1005
12B09E
  0
LINE
  5
12B09F
  8
SLIM
 10
4420.0
 20
-767.96051224213716
 30
0.0
 11
4532.9605122421381
 21
-654.99999999999886
 31
0.0
1001
ACAD
1010
0.0
1020
0.0
1030
0.0
1001
ACDBBLOCKREPETAG
1070
     1
1071
       19
1005
12B09F
  0
LINE
  5
12B0A0
  8
SLIM
 10
4420.0
 20
-785.92102448427534
 30
0.0
 11
4550.921024484277
 21
-654.99999999999886
 31
0.0
1001
ACAD
1010
0.0
1020
0.0
1030
0.0
1001
ACDBBLOCKREPETAG
1070
     1
1071
       20
1005
12B0A0
  0
LINE
  5
12B0A1
  8
SLIM
 10
4420.0
 20
-803.88153672641363
 30
0.0
 11
4568.8815367264151
 21
-654.99999999999886
 31
0.0
1001
ACAD
1010
0.0
1020
0.0
1030
0.0
1001
ACDBBLOCKREPETAG
1070
     1
1071
       21
1005
12B0A1
  0
LINE
  5
12B0A2
  8
SLIM
 10
4420.0
 20
-821.84204896855181
 30
0.0
 11
4585.0000000000073
 21
-656.84204896854499
 31
0.0
1001
ACAD
1010
0.0
1020
0.0
1030
0.0
1001
ACDBBLOCKREPETAG
1070
     1
1071
       22
1005
12B0A2
  0
LINE
  5
12B0A3
  8
SLIM
 10
4420.0
 20
-839.80256121069021
 30
0.0
 11
4585.0000000000073
 21
-674.80256121068476
 31
0.0
1001
ACAD
1010
0.0
1020
0.0
1030
0.0
1001
ACDBBLOCKREPETAG
1070
     1
1071
       23
1005
12B0A3
  0
LINE
  5
12B0A4
  8
SLIM
 10
4420.0
 20
-857.76307345282862
 30
0.0
 11
4585.0000000000036
 21
-692.76307345282453
 31
0.0
1001
ACAD
1010
0.0
1020
0.0
1030
0.0
1001
ACDBBLOCKREPETAG
1070
     1
1071
       24
1005
12B0A4
  0
LINE
  5
12B0A5
  8
SLIM
 10
4430.0
 20
-865.72358569496657
 30
0.0
 11
4430.7235856949683
 21
-864.99999999999875
 31
0.0
1001
ACAD
1010
0.0
1020
0.0
1030
0.0
1001
ACDBBLOCKREPETAG
1070
     1
1071
       25
1005
12B0A5
  0
LINE
  5
12B0A6
  8
SLIM
 10
4430.7235856949683
 20
-864.99999999999875
 30
0.0
 11
4583.4738280308084
 21
-712.24975766415844
 31
0.0
1001
ACAD
1010
0.0
1020
0.0
1030
0.0
1001
ACDBBLOCKREPETAG
1070
     1
1071
       26
1005
12B0A6
  0
LINE
  5
12B0A7
  8
SLIM
 10
4430.0
 20
-883.68409793710521
 30
0.0
 11
4448.6840979371054
 21
-864.99999999999875
 31
0.0
1001
ACAD
1010
0.0
1020
0.0
1030
0.0
1001
ACDBBLOCKREPETAG
1070
     1
1071
       27
1005
12B0A7
  0
LINE
  5
12B0A8
  8
SLIM
 10
4448.6840979371054
 20
-864.99999999999875
 30
0.0
 11
4580.9680345671368
 21
-732.71606336996786
 31
0.0
1001
ACAD
1010
0.0
1020
0.0
1030
0.0
1001
ACDBBLOCKREPETAG
1070
     1
1071
       28
1005
12B0A8
  0
LINE
  5
12B0A9
  8
SLIM
 10
4446.6446101792453
 20
-884.99999999999875
 30
0.0
 11
4466.6446101792453
 21
-864.99999999999875
 31
0.0
1001
ACAD
1010
0.0
1020
0.0
1030
0.0
1001
ACDBBLOCKREPETAG
1070
     1
1071
       29
1005
12B0A9
  0
LINE
  5
12B0AA
  8
SLIM
 10
4466.6446101792453
 20
-864.99999999999875
 30
0.0
 11
4580.0
 21
-751.6446101792435
 31
0.0
1001
ACAD
1010
0.0
1020
0.0
1030
0.0
1001
ACDBBLOCKREPETAG
1070
     1
1071
       30
1005
12B0AA
  0
LINE
  5
12B0AB
  8
SLIM
 10
4464.6051224213843
 20
-884.99999999999875
 30
0.0
 11
4484.6051224213843
 21
-864.99999999999875
 31
0.0
1001
ACAD
1010
0.0
1020
0.0
1030
0.0
1001
ACDBBLOCKREPETAG
1070
     1
1071
       31
1005
12B0AB
  0
LINE
  5
12B0AC
  8
SLIM
 10
4484.6051224213843
 20
-864.99999999999875
 30
0.0
 11
4580.0
 21
-769.60512242138225
 31
0.0
1001
ACAD
1010
0.0
1020
0.0
1030
0.0
1001
ACDBBLOCKREPETAG
1070
     1
1071
       32
1005
12B0AC
  0
LINE
  5
12B0AD
  8
SLIM
 10
4482.5656346635215
 20
-884.99999999999875
 30
0.0
 11
4502.5656346635215
 21
-864.99999999999875
 31
0.0
1001
ACAD
1010
0.0
1020
0.0
1030
0.0
1001
ACDBBLOCKREPETAG
1070
     1
1071
       33
1005
12B0AD
  0
LINE
  5
12B0AE
  8
SLIM
 10
4502.5656346635215
 20
-864.99999999999875
 30
0.0
 11
4579.9999999999991
 21
-787.56563466352065
 31
0.0
1001
ACAD
1010
0.0
1020
0.0
1030
0.0
1001
ACDBBLOCKREPETAG
1070
     1
1071
       34
1005
12B0AE
  0
LINE
  5
12B0AF
  8
SLIM
 10
4500.5261469056577
 20
-884.99999999999875
 30
0.0
 11
4520.5261469056577
 21
-864.99999999999875
 31
0.0
1001
ACAD
1010
0.0
1020
0.0
1030
0.0
1001
ACDBBLOCKREPETAG
1070
     1
1071
       35
1005
12B0AF
  0
LINE
  5
12B0B0
  8
SLIM
 10
4520.5261469056577
 20
-864.99999999999875
 30
0.0
 11
4579.9999999999991
 21
-805.52614690565963
 31
0.0
1001
ACAD
1010
0.0
1020
0.0
1030
0.0
1001
ACDBBLOCKREPETAG
1070
     1
1071
       36
1005
12B0B0
  0
LINE
  5
12B0B1
  8
SLIM
 10
4518.4866591477967
 20
-884.99999999999875
 30
0.0
 11
4538.4866591478003
 21
-864.99999999999864
 31
0.0
1001
ACAD
1010
0.0
1020
0.0
1030
0.0
1001
ACDBBLOCKREPETAG
1070
     1
1071
       37
1005
12B0B1
  0
LINE
  5
12B0B2
  8
SLIM
 10
4538.4866591478003
 20
-864.99999999999864
 30
0.0
 11
4579.9999999999991
 21
-823.4866591477977
 31
0.0
1001
ACAD
1010
0.0
1020
0.0
1030
0.0
1001
ACDBBLOCKREPETAG
1070
     1
1071
       38
1005
12B0B2
  0
LINE
  5
12B0B3
  8
SLIM
 10
4536.4471713899347
 20
-884.99999999999875
 30
0.0
 11
4556.4471713899356
 21
-864.99999999999864
 31
0.0
1001
ACAD
1010
0.0
1020
0.0
1030
0.0
1001
ACDBBLOCKREPETAG
1070
     1
1071
       39
1005
12B0B3
  0
LINE
  5
12B0B4
  8
SLIM
 10
4556.4471713899356
 20
-864.99999999999864
 30
0.0
 11
4579.9999999999982
 21
-841.44717138993656
 31
0.0
1001
ACAD
1010
0.0
1020
0.0
1030
0.0
1001
ACDBBLOCKREPETAG
1070
     1
1071
       40
1005
12B0B4
  0
LINE
  5
12B0B5
  8
SLIM
 10
4554.4076836320728
 20
-884.99999999999875
 30
0.0
 11
4570.0
 21
-869.40768363207314
 31
0.0
1001
ACAD
1010
0.0
1020
0.0
1030
0.0
1001
ACDBBLOCKREPETAG
1070
     1
1071
       41
1005
12B0B5
  0
LINE
  5
12B0B6
  8
SLIM
 10
4574.4076836320728
 20
-864.99999999999864
 30
0.0
 11
4579.9999999999982
 21
-859.40768363207519
 31
0.0
1001
ACAD
1010
0.0
1020
0.0
1030
0.0
1001
ACDBBLOCKREPETAG
1070
     1
1071
       42
1005
12B0B6
  0
LINE
  5
12B0B7
  8
OBJECT
 10
4414.9999999999918
 20
-654.99999999999886
 30
0.0
 11
4414.9999999999973
 21
-699.78460339903359
 31
0.0
1001
ACDBBLOCKREPETAG
1070
     1
1071
        1
1005
12B0B7
  0
LINE
  5
12B0B8
  8
OBJECT
 10
4585.0000000000073
 20
-654.99999999999886
 30
0.0
 11
4585.0000000000009
 21
-699.78460339904063
 31
0.0
1001
ACDBBLOCKREPETAG
1070
     1
1071
        2
1005
12B0B8
  0
LINE
  5
12B0B9
  8
OBJECT
 10
4585.0000000000073
 20
-654.99999999999886
 30
0.0
 11
4414.9999999999918
 21
-654.99999999999886
 31
0.0
1001
ACDBBLOCKREPETAG
1070
     1
1071
        3
1005
12B0B9
  0
LINE
  5
12B0BA
  8
OBJECT
 10
4579.9999999999982
 20
-864.99999999999864
 30
0.0
 11
4420.0
 21
-864.99999999999875
 31
0.0
1001
ACDBBLOCKREPETAG
1070
     1
1071
        4
1005
12B0BA
  0
LINE
  5
12B0BB
  8
OBJECT
 10
4414.9999999999973
 20
-699.78460339903415
 30
0.0
 11
4420.0
 21
-740.62257748298555
 31
0.0
1001
ACDBBLOCKREPETAG
1070
     1
1071
        6
1005
12B0BB
  0
LINE
  5
12B0BC
  8
OBJECT
 10
4420.0
 20
-740.62257748298555
 30
0.0
 11
4420.0
 21
-864.99999999999875
 31
0.0
1001
ACDBBLOCKREPETAG
1070
     1
1071
        7
1005
12B0BC
  0
LINE
  5
12B0BD
  8
OBJECT
 10
4585.0000000000009
 20
-699.78460339904063
 30
0.0
 11
4580.0
 21
-740.62257748298555
 31
0.0
1001
ACDBBLOCKREPETAG
1070
     1
1071
        8
1005
12B0BD
  0
LINE
  5
12B0BE
  8
OBJECT
 10
4580.0
 20
-740.62257748298555
 30
0.0
 11
4579.9999999999982
 21
-864.99999999999864
 31
0.0
1001
ACDBBLOCKREPETAG
1070
     1
1071
        9
1005
12B0BE
  0
LINE
  5
12B0BF
  8
OBJECT
 10
4430.0
 20
-864.99999999999875
 30
0.0
 11
4430.0
 21
-884.99999999999875
 31
0.0
1001
ACDBBLOCKREPETAG
1070
     1
1071
       10
1005
12B0BF
  0
LINE
  5
12B0C0
  8
OBJECT
 10
4430.0
 20
-884.99999999999875
 30
0.0
 11
4570.0
 21
-884.99999999999875
 31
0.0
1001
ACDBBLOCKREPETAG
1070
     1
1071
       11
1005
12B0C0
  0
LINE
  5
12B0C1
  8
OBJECT
 10
4570.0
 20
-884.99999999999875
 30
0.0
 11
4570.0
 21
-864.99999999999864
 31
0.0
1001
ACDBBLOCKREPETAG
1070
     1
1071
       12
1005
12B0C1
  0
LINE
  5
12B0C2
  8
SLIM
 10
3914.9999999999941
 20
-665.19743878931376
 30
0.0
 11
3925.1974387893092
 21
-654.99999999999886
 31
0.0
1001
ACDBBLOCKREPETAG
1070
     1
1071
        0
1005
0
1001
ACAD
1010
0.0
1020
0.0
1030
0.0
  0
LINE
  5
12B0C3
  8
SLIM
 10
3914.999999999995
 20
-683.15795103145035
 30
0.0
 11
3943.1579510314468
 21
-654.99999999999886
 31
0.0
1001
ACAD
1010
0.0
1020
0.0
1030
0.0
1001
ACDBBLOCKREPETAG
1070
     1
1071
       14
1005
12B0C3
  0
LINE
  5
12B0C4
  8
SLIM
 10
3915.1454972543161
 20
-700.97296601926814
 30
0.0
 11
3961.1184632735849
 21
-654.99999999999886
 31
0.0
1001
ACAD
1010
0.0
1020
0.0
1030
0.0
1001
ACDBBLOCKREPETAG
1070
     1
1071
       15
1005
12B0C4
  0
LINE
  5
12B0C5
  8
SLIM
 10
3917.104627495245
 20
-716.97434802047826
 30
0.0
 11
3979.0789755157239
 21
-654.99999999999886
 31
0.0
1001
ACAD
1010
0.0
1020
0.0
1030
0.0
1001
ACDBBLOCKREPETAG
1070
     1
1071
       16
1005
12B0C5
  0
LINE
  5
12B0C6
  8
SLIM
 10
3919.0637577361722
 20
-732.97573002168838
 30
0.0
 11
3997.0394877578619
 21
-654.99999999999886
 31
0.0
1001
ACAD
1010
0.0
1020
0.0
1030
0.0
1001
ACDBBLOCKREPETAG
1070
     1
1071
       17
1005
12B0C6
  0
LINE
  5
12B0C7
  8
SLIM
 10
3920.0
 20
-749.99999999999875
 30
0.0
 11
4015.0
 21
-654.99999999999886
 31
0.0
1001
ACAD
1010
0.0
1020
0.0
1030
0.0
1001
ACDBBLOCKREPETAG
1070
     1
1071
       18
1005
12B0C7
  0
LINE
  5
12B0C8
  8
SLIM
 10
3920.0
 20
-767.96051224213716
 30
0.0
 11
4032.9605122421372
 21
-654.99999999999886
 31
0.0
1001
ACAD
1010
0.0
1020
0.0
1030
0.0
1001
ACDBBLOCKREPETAG
1070
     1
1071
       19
1005
12B0C8
  0
LINE
  5
12B0C9
  8
SLIM
 10
3920.0
 20
-785.92102448427534
 30
0.0
 11
4050.921024484277
 21
-654.99999999999886
 31
0.0
1001
ACAD
1010
0.0
1020
0.0
1030
0.0
1001
ACDBBLOCKREPETAG
1070
     1
1071
       20
1005
12B0C9
  0
LINE
  5
12B0CA
  8
SLIM
 10
3920.0
 20
-803.88153672641363
 30
0.0
 11
4068.8815367264142
 21
-654.99999999999886
 31
0.0
1001
ACAD
1010
0.0
1020
0.0
1030
0.0
1001
ACDBBLOCKREPETAG
1070
     1
1071
       21
1005
12B0CA
  0
LINE
  5
12B0CB
  8
SLIM
 10
3920.0
 20
-821.84204896855181
 30
0.0
 11
4085.0000000000068
 21
-656.84204896854499
 31
0.0
1001
ACAD
1010
0.0
1020
0.0
1030
0.0
1001
ACDBBLOCKREPETAG
1070
     1
1071
       22
1005
12B0CB
  0
LINE
  5
12B0CC
  8
SLIM
 10
3920.0
 20
-839.80256121069021
 30
0.0
 11
4085.0000000000059
 21
-674.80256121068476
 31
0.0
1001
ACAD
1010
0.0
1020
0.0
1030
0.0
1001
ACDBBLOCKREPETAG
1070
     1
1071
       23
1005
12B0CC
  0
LINE
  5
12B0CD
  8
SLIM
 10
3920.0
 20
-857.76307345282862
 30
0.0
 11
4085.0000000000041
 21
-692.76307345282453
 31
0.0
1001
ACAD
1010
0.0
1020
0.0
1030
0.0
1001
ACDBBLOCKREPETAG
1070
     1
1071
       24
1005
12B0CD
  0
LINE
  5
12B0CE
  8
SLIM
 10
3930.0
 20
-865.72358569496657
 30
0.0
 11
3930.7235856949678
 21
-864.99999999999875
 31
0.0
1001
ACAD
1010
0.0
1020
0.0
1030
0.0
1001
ACDBBLOCKREPETAG
1070
     1
1071
       25
1005
12B0CE
  0
LINE
  5
12B0CF
  8
SLIM
 10
3930.7235856949678
 20
-864.99999999999875
 30
0.0
 11
4083.4738280308079
 21
-712.24975766415844
 31
0.0
1001
ACAD
1010
0.0
1020
0.0
1030
0.0
1001
ACDBBLOCKREPETAG
1070
     1
1071
       26
1005
12B0CF
  0
LINE
  5
12B0D0
  8
SLIM
 10
3930.0
 20
-883.68409793710521
 30
0.0
 11
3948.6840979371068
 21
-864.99999999999875
 31
0.0
1001
ACAD
1010
0.0
1020
0.0
1030
0.0
1001
ACDBBLOCKREPETAG
1070
     1
1071
       27
1005
12B0D0
  0
LINE
  5
12B0D1
  8
SLIM
 10
3948.6840979371068
 20
-864.99999999999875
 30
0.0
 11
4080.9680345671368
 21
-732.71606336996786
 31
0.0
1001
ACAD
1010
0.0
1020
0.0
1030
0.0
1001
ACDBBLOCKREPETAG
1070
     1
1071
       28
1005
12B0D1
  0
LINE
  5
12B0D2
  8
SLIM
 10
3946.6446101792449
 20
-884.99999999999875
 30
0.0
 11
3966.6446101792449
 21
-864.99999999999875
 31
0.0
1001
ACAD
1010
0.0
1020
0.0
1030
0.0
1001
ACDBBLOCKREPETAG
1070
     1
1071
       29
1005
12B0D2
  0
LINE
  5
12B0D3
  8
SLIM
 10
3966.6446101792449
 20
-864.99999999999875
 30
0.0
 11
4080.0
 21
-751.6446101792435
 31
0.0
1001
ACAD
1010
0.0
1020
0.0
1030
0.0
1001
ACDBBLOCKREPETAG
1070
     1
1071
       30
1005
12B0D3
  0
LINE
  5
12B0D4
  8
SLIM
 10
3964.6051224213829
 20
-884.99999999999875
 30
0.0
 11
3984.6051224213829
 21
-864.99999999999875
 31
0.0
1001
ACAD
1010
0.0
1020
0.0
1030
0.0
1001
ACDBBLOCKREPETAG
1070
     1
1071
       31
1005
12B0D4
  0
LINE
  5
12B0D5
  8
SLIM
 10
3984.6051224213829
 20
-864.99999999999875
 30
0.0
 11
4080.0
 21
-769.60512242138225
 31
0.0
1001
ACAD
1010
0.0
1020
0.0
1030
0.0
1001
ACDBBLOCKREPETAG
1070
     1
1071
       32
1005
12B0D5
  0
LINE
  5
12B0D6
  8
SLIM
 10
3982.565634663521
 20
-884.99999999999875
 30
0.0
 11
4002.565634663521
 21
-864.99999999999875
 31
0.0
1001
ACAD
1010
0.0
1020
0.0
1030
0.0
1001
ACDBBLOCKREPETAG
1070
     1
1071
       33
1005
12B0D6
  0
LINE
  5
12B0D7
  8
SLIM
 10
4002.565634663521
 20
-864.99999999999875
 30
0.0
 11
4079.9999999999991
 21
-787.56563466352065
 31
0.0
1001
ACAD
1010
0.0
1020
0.0
1030
0.0
1001
ACDBBLOCKREPETAG
1070
     1
1071
       34
1005
12B0D7
  0
LINE
  5
12B0D8
  8
SLIM
 10
4000.5261469056582
 20
-884.99999999999875
 30
0.0
 11
4020.52614690566
 21
-864.99999999999875
 31
0.0
1001
ACAD
1010
0.0
1020
0.0
1030
0.0
1001
ACDBBLOCKREPETAG
1070
     1
1071
       35
1005
12B0D8
  0
LINE
  5
12B0D9
  8
SLIM
 10
4020.52614690566
 20
-864.99999999999875
 30
0.0
 11
4079.9999999999991
 21
-805.52614690565963
 31
0.0
1001
ACAD
1010
0.0
1020
0.0
1030
0.0
1001
ACDBBLOCKREPETAG
1070
     1
1071
       36
1005
12B0D9
  0
LINE
  5
12B0DA
  8
SLIM
 10
4018.486659147798
 20
-884.99999999999875
 30
0.0
 11
4038.486659147798
 21
-864.99999999999864
 31
0.0
1001
ACAD
1010
0.0
1020
0.0
1030
0.0
1001
ACDBBLOCKREPETAG
1070
     1
1071
       37
1005
12B0DA
  0
LINE
  5
12B0DB
  8
SLIM
 10
4038.486659147798
 20
-864.99999999999864
 30
0.0
 11
4079.9999999999991
 21
-823.4866591477977
 31
0.0
1001
ACAD
1010
0.0
1020
0.0
1030
0.0
1001
ACDBBLOCKREPETAG
1070
     1
1071
       38
1005
12B0DB
  0
LINE
  5
12B0DC
  8
SLIM
 10
4036.4471713899361
 20
-884.99999999999875
 30
0.0
 11
4056.4471713899361
 21
-864.99999999999864
 31
0.0
1001
ACAD
1010
0.0
1020
0.0
1030
0.0
1001
ACDBBLOCKREPETAG
1070
     1
1071
       39
1005
12B0DC
  0
LINE
  5
12B0DD
  8
SLIM
 10
4056.4471713899361
 20
-864.99999999999864
 30
0.0
 11
4079.9999999999991
 21
-841.44717138993656
 31
0.0
1001
ACAD
1010
0.0
1020
0.0
1030
0.0
1001
ACDBBLOCKREPETAG
1070
     1
1071
       40
1005
12B0DD
  0
LINE
  5
12B0DE
  8
SLIM
 10
4054.4076836320728
 20
-884.99999999999875
 30
0.0
 11
4070.0
 21
-869.40768363207314
 31
0.0
1001
ACAD
1010
0.0
1020
0.0
1030
0.0
1001
ACDBBLOCKREPETAG
1070
     1
1071
       41
1005
12B0DE
  0
LINE
  5
12B0DF
  8
SLIM
 10
4074.4076836320728
 20
-864.99999999999864
 30
0.0
 11
4079.9999999999991
 21
-859.40768363207519
 31
0.0
1001
ACAD
1010
0.0
1020
0.0
1030
0.0
1001
ACDBBLOCKREPETAG
1070
     1
1071
       42
1005
12B0DF
  0
LINE
  5
12B0E0
  8
OBJECT
 10
3914.9999999999941
 20
-654.99999999999886
 30
0.0
 11
3914.9999999999968
 21
-699.78460339903359
 31
0.0
1001
ACDBBLOCKREPETAG
1070
     1
1071
        1
1005
12B0E0
  0
LINE
  5
12B0E1
  8
OBJECT
 10
4085.0000000000068
 20
-654.99999999999886
 30
0.0
 11
4085.0000000000032
 21
-699.78460339904063
 31
0.0
1001
ACDBBLOCKREPETAG
1070
     1
1071
        2
1005
12B0E1
  0
LINE
  5
12B0E2
  8
OBJECT
 10
4085.0000000000068
 20
-654.99999999999886
 30
0.0
 11
3914.9999999999941
 21
-654.99999999999886
 31
0.0
1001
ACDBBLOCKREPETAG
1070
     1
1071
        3
1005
12B0E2
  0
LINE
  5
12B0E3
  8
OBJECT
 10
4079.9999999999991
 20
-864.99999999999864
 30
0.0
 11
3920.0
 21
-864.99999999999875
 31
0.0
1001
ACDBBLOCKREPETAG
1070
     1
1071
        4
1005
12B0E3
  0
LINE
  5
12B0E4
  8
OBJECT
 10
3914.9999999999968
 20
-699.78460339903415
 30
0.0
 11
3920.0
 21
-740.62257748298555
 31
0.0
1001
ACDBBLOCKREPETAG
1070
     1
1071
        6
1005
12B0E4
  0
LINE
  5
12B0E5
  8
OBJECT
 10
3920.0
 20
-740.62257748298555
 30
0.0
 11
3920.0
 21
-864.99999999999875
 31
0.0
1001
ACDBBLOCKREPETAG
1070
     1
1071
        7
1005
12B0E5
  0
LINE
  5
12B0E6
  8
OBJECT
 10
4085.0000000000032
 20
-699.78460339904063
 30
0.0
 11
4080.0
 21
-740.62257748298555
 31
0.0
1001
ACDBBLOCKREPETAG
1070
     1
1071
        8
1005
12B0E6
  0
LINE
  5
12B0E7
  8
OBJECT
 10
4080.0
 20
-740.62257748298555
 30
0.0
 11
4079.9999999999991
 21
-864.99999999999864
 31
0.0
1001
ACDBBLOCKREPETAG
1070
     1
1071
        9
1005
12B0E7
  0
LINE
  5
12B0E8
  8
OBJECT
 10
3930.0
 20
-864.99999999999875
 30
0.0
 11
3930.0
 21
-884.99999999999875
 31
0.0
1001
ACDBBLOCKREPETAG
1070
     1
1071
       10
1005
12B0E8
  0
LINE
  5
12B0E9
  8
OBJECT
 10
3930.0
 20
-884.99999999999875
 30
0.0
 11
4070.0
 21
-884.99999999999875
 31
0.0
1001
ACDBBLOCKREPETAG
1070
     1
1071
       11
1005
12B0E9
  0
LINE
  5
12B0EA
  8
OBJECT
 10
4070.0
 20
-884.99999999999875
 30
0.0
 11
4070.0
 21
-864.99999999999864
 31
0.0
1001
ACDBBLOCKREPETAG
1070
     1
1071
       12
1005
12B0EA
  0
LINE
  5
12B0EB
  8
OBJECT
 10
4430.0
 20
-979.99999999999682
 30
0.0
 11
4570.0
 21
-979.99999999999682
 31
0.0
1001
ACDBBLOCKREPETAG
1070
     1
1071
        0
1005
12B0EB
  0
LINE
  5
12B0EC
  8
OBJECT
 10
4430.0
 20
-979.99999999999682
 30
0.0
 11
4430.0
 21
-739.99999999999693
 31
0.0
1001
ACDBBLOCKREPETAG
1070
     1
1071
        1
1005
12B0EC
  0
LINE
  5
12B0ED
  8
OBJECT
 10
4570.0
 20
-979.99999999999682
 30
0.0
 11
4570.0
 21
-739.99999999999693
 31
0.0
1001
ACDBBLOCKREPETAG
1070
     1
1071
        2
1005
12B0ED
  0
LINE
  5
12B0EE
  8
OBJECT
 10
4430.0
 20
-739.99999999999693
 30
0.0
 11
4570.0
 21
-739.99999999999693
 31
0.0
1001
ACDBBLOCKREPETAG
1070
     1
1071
        3
1005
12B0EE
  0
LINE
  5
12B0EF
  8
HIDDEN
 10
4437.5
 20
-739.99999999999693
 30
0.0
 11
4437.5
 21
-979.99999999999682
 31
0.0
1001
ACDBBLOCKREPETAG
1070
     1
1071
        4
1005
12B0EF
  0
LINE
  5
12B0F0
  8
HIDDEN
 10
4562.5
 20
-739.99999999999693
 30
0.0
 11
4562.5
 21
-979.99999999999682
 31
0.0
1001
ACDBBLOCKREPETAG
1070
     1
1071
        5
1005
12B0F0
  0
LINE
  5
12B0F1
  8
CENTER
 10
4500.0
 20
-669.99999999999875
 30
0.0
 11
4500.0
 21
-994.99999999999693
 31
0.0
1001
ACDBBLOCKREPETAG
1070
     1
1071
        6
1005
12B0F1
  0
LINE
  5
12B0F2
  8
OBJECT
 10
4425.0
 20
-669.99999999999875
 30
0.0
 11
4425.0
 21
-699.99999999999693
 31
0.0
1001
ACDBBLOCKREPETAG
1070
     1
1071
        7
1005
12B0F2
  0
LINE
  5
12B0F3
  8
OBJECT
 10
4575.0000000000009
 20
-669.99999999999875
 30
0.0
 11
4575.0
 21
-699.99999999999693
 31
0.0
1001
ACDBBLOCKREPETAG
1070
     1
1071
        8
1005
12B0F3
  0
LINE
  5
12B0F4
  8
OBJECT
 10
4425.0
 20
-699.99999999999693
 30
0.0
 11
4575.0
 21
-699.99999999999693
 31
0.0
1001
ACDBBLOCKREPETAG
1070
     1
1071
        9
1005
12B0F4
  0
LINE
  5
12B0F5
  8
OBJECT
 10
4425.0
 20
-699.99999999999693
 30
0.0
 11
4430.0
 21
-739.99999999999693
 31
0.0
1001
ACDBBLOCKREPETAG
1070
     1
1071
       10
1005
12B0F5
  0
LINE
  5
12B0F6
  8
OBJECT
 10
4570.0
 20
-739.99999999999693
 30
0.0
 11
4575.0
 21
-699.99999999999693
 31
0.0
1001
ACDBBLOCKREPETAG
1070
     1
1071
       11
1005
12B0F6
  0
LINE
  5
12B0F7
  8
OBJECT
 10
3930.0
 20
-979.99999999999682
 30
0.0
 11
4070.0
 21
-979.99999999999682
 31
0.0
1001
ACDBBLOCKREPETAG
1070
     1
1071
        0
1005
12B0F7
  0
LINE
  5
12B0F8
  8
OBJECT
 10
3930.0
 20
-979.99999999999682
 30
0.0
 11
3930.0
 21
-739.99999999999693
 31
0.0
1001
ACDBBLOCKREPETAG
1070
     1
1071
        1
1005
12B0F8
  0
LINE
  5
12B0F9
  8
OBJECT
 10
4070.0
 20
-979.99999999999682
 30
0.0
 11
4070.0
 21
-739.99999999999693
 31
0.0
1001
ACDBBLOCKREPETAG
1070
     1
1071
        2
1005
12B0F9
  0
LINE
  5
12B0FA
  8
OBJECT
 10
3930.0
 20
-739.99999999999693
 30
0.0
 11
4070.0
 21
-739.99999999999693
 31
0.0
1001
ACDBBLOCKREPETAG
1070
     1
1071
        3
1005
12B0FA
  0
LINE
  5
12B0FB
  8
HIDDEN
 10
3937.5
 20
-739.99999999999693
 30
0.0
 11
3937.5
 21
-979.99999999999682
 31
0.0
1001
ACDBBLOCKREPETAG
1070
     1
1071
        4
1005
12B0FB
  0
LINE
  5
12B0FC
  8
HIDDEN
 10
4062.5
 20
-739.99999999999693
 30
0.0
 11
4062.5
 21
-979.99999999999682
 31
0.0
1001
ACDBBLOCKREPETAG
1070
     1
1071
        5
1005
12B0FC
  0
LINE
  5
12B0FD
  8
CENTER
 10
4000.0
 20
-669.99999999999875
 30
0.0
 11
4000.0
 21
-994.99999999999693
 31
0.0
1001
ACDBBLOCKREPETAG
1070
     1
1071
        6
1005
12B0FD
  0
LINE
  5
12B0FE
  8
OBJECT
 10
3925.0
 20
-669.99999999999875
 30
0.0
 11
3925.0
 21
-699.99999999999693
 31
0.0
1001
ACDBBLOCKREPETAG
1070
     1
1071
        7
1005
12B0FE
  0
LINE
  5
12B0FF
  8
OBJECT
 10
4075.0000000000032
 20
-669.99999999999875
 30
0.0
 11
4075.0
 21
-699.99999999999693
 31
0.0
1001
ACDBBLOCKREPETAG
1070
     1
1071
        8
1005
12B0FF
  0
LINE
  5
12B100
  8
OBJECT
 10
3925.0
 20
-699.99999999999693
 30
0.0
 11
4075.0
 21
-699.99999999999693
 31
0.0
1001
ACDBBLOCKREPETAG
1070
     1
1071
        9
1005
12B100
  0
LINE
  5
12B101
  8
OBJECT
 10
3925.0
 20
-699.99999999999693
 30
0.0
 11
3930.0
 21
-739.99999999999693
 31
0.0
1001
ACDBBLOCKREPETAG
1070
     1
1071
       10
1005
12B101
  0
LINE
  5
12B102
  8
OBJECT
 10
4070.0
 20
-739.99999999999693
 30
0.0
 11
4075.0
 21
-699.99999999999693
 31
0.0
1001
ACDBBLOCKREPETAG
1070
     1
1071
       11
1005
12B102
  0
LINE
  5
12B103
  8
OBJECT
 10
2430.0
 20
-979.9999999999975
 30
0.0
 11
2570.0
 21
-979.9999999999975
 31
0.0
1001
ACDBBLOCKREPETAG
1070
     1
1071
        0
1005
12B103
  0
LINE
  5
12B104
  8
OBJECT
 10
2430.0
 20
-979.9999999999975
 30
0.0
 11
2430.0
 21
-739.99999999999773
 31
0.0
1001
ACDBBLOCKREPETAG
1070
     1
1071
        1
1005
12B104
  0
LINE
  5
12B105
  8
OBJECT
 10
2570.0
 20
-979.9999999999975
 30
0.0
 11
2570.0
 21
-739.99999999999773
 31
0.0
1001
ACDBBLOCKREPETAG
1070
     1
1071
        2
1005
12B105
  0
LINE
  5
12B106
  8
OBJECT
 10
2430.0
 20
-739.99999999999773
 30
0.0
 11
2570.0
 21
-739.99999999999773
 31
0.0
1001
ACDBBLOCKREPETAG
1070
     1
1071
        3
1005
12B106
  0
LINE
  5
12B107
  8
HIDDEN
 10
2437.5
 20
-739.99999999999773
 30
0.0
 11
2437.5
 21
-979.9999999999975
 31
0.0
1001
ACDBBLOCKREPETAG
1070
     1
1071
        4
1005
12B107
  0
LINE
  5
12B108
  8
HIDDEN
 10
2562.5
 20
-739.99999999999773
 30
0.0
 11
2562.5
 21
-979.9999999999975
 31
0.0
1001
ACDBBLOCKREPETAG
1070
     1
1071
        5
1005
12B108
  0
LINE
  5
12B109
  8
CENTER
 10
2500.0
 20
-669.99999999999955
 30
0.0
 11
2500.0
 21
-994.99999999999761
 31
0.0
1001
ACDBBLOCKREPETAG
1070
     1
1071
        6
1005
12B109
  0
LINE
  5
12B10A
  8
OBJECT
 10
2425.0
 20
-669.99999999999955
 30
0.0
 11
2425.0
 21
-699.99999999999761
 31
0.0
1001
ACDBBLOCKREPETAG
1070
     1
1071
        7
1005
12B10A
  0
LINE
  5
12B10B
  8
OBJECT
 10
2575.000000000005
 20
-669.99999999999955
 30
0.0
 11
2575.0
 21
-699.99999999999761
 31
0.0
1001
ACDBBLOCKREPETAG
1070
     1
1071
        8
1005
12B10B
  0
LINE
  5
12B10C
  8
OBJECT
 10
2425.0
 20
-699.99999999999761
 30
0.0
 11
2575.0
 21
-699.99999999999761
 31
0.0
1001
ACDBBLOCKREPETAG
1070
     1
1071
        9
1005
12B10C
  0
LINE
  5
12B10D
  8
OBJECT
 10
2425.0
 20
-699.99999999999761
 30
0.0
 11
2430.0
 21
-739.99999999999773
 31
0.0
1001
ACDBBLOCKREPETAG
1070
     1
1071
       10
1005
12B10D
  0
LINE
  5
12B10E
  8
OBJECT
 10
2570.0
 20
-739.99999999999773
 30
0.0
 11
2575.0
 21
-699.99999999999761
 31
0.0
1001
ACDBBLOCKREPETAG
1070
     1
1071
       11
1005
12B10E
  0
LINE
  5
12B10F
  8
OBJECT
 10
1930.0
 20
-979.9999999999975
 30
0.0
 11
2070.0
 21
-979.9999999999975
 31
0.0
1001
ACDBBLOCKREPETAG
1070
     1
1071
        0
1005
12B10F
  0
LINE
  5
12B110
  8
OBJECT
 10
1930.0
 20
-979.9999999999975
 30
0.0
 11
1930.0
 21
-739.99999999999773
 31
0.0
1001
ACDBBLOCKREPETAG
1070
     1
1071
        1
1005
12B110
  0
LINE
  5
12B111
  8
OBJECT
 10
2070.0
 20
-979.9999999999975
 30
0.0
 11
2070.0
 21
-739.99999999999773
 31
0.0
1001
ACDBBLOCKREPETAG
1070
     1
1071
        2
1005
12B111
  0
LINE
  5
12B112
  8
OBJECT
 10
1930.0
 20
-739.99999999999773
 30
0.0
 11
2070.0
 21
-739.99999999999773
 31
0.0
1001
ACDBBLOCKREPETAG
1070
     1
1071
        3
1005
12B112
  0
LINE
  5
12B113
  8
HIDDEN
 10
1937.5
 20
-739.99999999999773
 30
0.0
 11
1937.5
 21
-979.9999999999975
 31
0.0
1001
ACDBBLOCKREPETAG
1070
     1
1071
        4
1005
12B113
  0
LINE
  5
12B114
  8
HIDDEN
 10
2062.5
 20
-739.99999999999773
 30
0.0
 11
2062.5
 21
-979.9999999999975
 31
0.0
1001
ACDBBLOCKREPETAG
1070
     1
1071
        5
1005
12B114
  0
LINE
  5
12B115
  8
CENTER
 10
2000.0
 20
-669.99999999999955
 30
0.0
 11
2000.0
 21
-994.99999999999761
 31
0.0
1001
ACDBBLOCKREPETAG
1070
     1
1071
        6
1005
12B115
  0
LINE
  5
12B116
  8
OBJECT
 10
1925.0
 20
-669.99999999999955
 30
0.0
 11
1925.0
 21
-699.99999999999761
 31
0.0
1001
ACDBBLOCKREPETAG
1070
     1
1071
        7
1005
12B116
  0
LINE
  5
12B117
  8
OBJECT
 10
2075.0000000000041
 20
-669.99999999999955
 30
0.0
 11
2075.0
 21
-699.99999999999761
 31
0.0
1001
ACDBBLOCKREPETAG
1070
     1
1071
        8
1005
12B117
  0
LINE
  5
12B118
  8
OBJECT
 10
1925.0
 20
-699.99999999999761
 30
0.0
 11
2075.0
 21
-699.99999999999761
 31
0.0
1001
ACDBBLOCKREPETAG
1070
     1
1071
        9
1005
12B118
  0
LINE
  5
12B119
  8
OBJECT
 10
1925.0
 20
-699.99999999999761
 30
0.0
 11
1930.0
 21
-739.99999999999773
 31
0.0
1001
ACDBBLOCKREPETAG
1070
     1
1071
       10
1005
12B119
  0
LINE
  5
12B11A
  8
OBJECT
 10
2070.0
 20
-739.99999999999773
 30
0.0
 11
2075.0
 21
-699.99999999999761
 31
0.0
1001
ACDBBLOCKREPETAG
1070
     1
1071
       11
1005
12B11A
  0
TEXT
  5
12B11B
  8
SLIM
 10
3741.6250000000009
 20
-1247.499999999997
 30
0.0
 40
35.0
  1
片受けスタイル（S）＋シンドカット
 41
0.75
  0
TEXT
  5
12B11C
  8
SLIM
 10
1856.25
 20
-1247.499999999998
 30
0.0
 40
35.0
  1
片受けスタイル（S）
 41
0.75
  0
VIEWPORT
  5
F6BA7
 67
     1
  8
0
 10
145.33033752441401
 20
101.8328354358673
 30
0.0
 40
334.0025019414623
 41
222.19657968139651
 68
     1
 69
     1
1001
ACAD
1000
MVIEW
1002
{
1070
    16
1010
0.0
1020
0.0
1030
0.0
1010
0.0
1020
0.0
1030
1.0
1040
0.0
1040
222.19657968139651
1040
145.33033752441401
1040
101.8328354358673
1040
50.0
1040
0.0
1040
0.0
1070
     0
1070
     0
1070
     1
1070
     1
1070
     0
1070
     0
1070
     0
1070
     0
1040
0.0
1040
0.0
1040
0.0
1040
10.0
1040
10.0
1040
10.0
1040
10.0
1070
     0
1002
{
1002
}
1002
}
  0
VIEWPORT
  5
F6BA9
 67
     1
  8
OBJECT
 10
145.3303314447403
 20
101.8328338861465
 30
0.0
 40
232.5285303115844
 41
162.93253421783439
 68
     2
 69
     2
1001
ACAD
1000
MVIEW
1002
{
1070
    16
1010
0.0
1020
0.0
1030
0.0
1010
0.0
1020
0.0
1030
1.0
1040
0.0
1040
25942.55904403147
1040
2377.604457077377
1040
-7591.5176687056619
1040
50.0
1040
0.0
1040
0.0
1070
     0
1070
   600
1070
     1
1070
     1
1070
     0
1070
     0
1070
     0
1070
     0
1040
0.0
1040
0.0
1040
0.0
1040
1.0
1040
1.0
1040
0.0
1040
0.0
1070
     0
1002
{
1002
}
1002
}
  0
ENDSEC
  0
EOF
