  0
SECTION
  2
HEADER
  9
$ACADVER
  1
AC1009
  9
$INSBASE
 10
0.0
 20
0.0
 30
0.0
  9
$EXTMIN
 10
0.0
 20
-3697.4999999999968
 30
0.0
  9
$EXTMAX
 10
5575.0
 20
607.5
 30
0.0
  9
$LIMMIN
 10
0.0
 20
0.0
  9
$LIMMAX
 10
210.0
 20
297.0
  9
$ORTHOMODE
 70
     0
  9
$REGENMODE
 70
     1
  9
$FILLMODE
 70
     1
  9
$QTEXTMODE
 70
     0
  9
$MIRRTEXT
 70
     0
  9
$DRAGMODE
 70
     2
  9
$LTSCALE
 40
1.0
  9
$OSMODE
 70
    37
  9
$ATTMODE
 70
     1
  9
$TEXTSIZE
 40
4.0
  9
$TRACEWID
 40
0.05
  9
$TEXTSTYLE
  7
STANDARD
  9
$CLAYER
  8
OBJECT
  9
$CELTYPE
  6
BYLAYER
  9
$CECOLOR
 62
   256
  9
$DIMSCALE
 40
10.0
  9
$DIMASZ
 40
2.0
  9
$DIMEXO
 40
1.0
  9
$DIMDLI
 40
10.0
  9
$DIMRND
 40
0.0
  9
$DIMDLE
 40
0.0
  9
$DIMEXE
 40
1.0
  9
$DIMTP
 40
0.0
  9
$DIMTM
 40
0.0
  9
$DIMTXT
 40
3.2000000000000002
  9
$DIMCEN
 40
0.0
  9
$DIMTSZ
 40
0.0
  9
$DIMTOL
 70
     0
  9
$DIMLIM
 70
     0
  9
$DIMTIH
 70
     0
  9
$DIMTOH
 70
     0
  9
$DIMSE1
 70
     0
  9
$DIMSE2
 70
     0
  9
$DIMTAD
 70
     1
  9
$DIMZIN
 70
     8
  9
$DIMBLK
  1
OPEN30
  9
$DIMASO
 70
     1
  9
$DIMSHO
 70
     1
  9
$DIMPOST
  1

  9
$DIMAPOST
  1

  9
$DIMALT
 70
     0
  9
$DIMALTD
 70
     2
  9
$DIMALTF
 40
25.399999999999999
  9
$DIMLFAC
 40
1.0
  9
$DIMTOFL
 70
     1
  9
$DIMTVP
 40
0.0
  9
$DIMTIX
 70
     0
  9
$DIMSOXD
 70
     0
  9
$DIMSAH
 70
     0
  9
$DIMBLK1
  1

  9
$DIMBLK2
  1

  9
$DIMSTYLE
  2
S10
  9
$DIMCLRD
 70
   256
  9
$DIMCLRE
 70
   256
  9
$DIMCLRT
 70
   256
  9
$DIMTFAC
 40
1.0
  9
$DIMGAP
 40
0.9
  9
$LUNITS
 70
     2
  9
$LUPREC
 70
     2
  9
$SKETCHINC
 40
0.1
  9
$FILLETRAD
 40
0.0
  9
$AUNITS
 70
     0
  9
$AUPREC
 70
     2
  9
$MENU
  1
ACAD
  9
$ELEVATION
 40
0.0
  9
$PELEVATION
 40
0.0
  9
$THICKNESS
 40
0.0
  9
$LIMCHECK
 70
     0
  9
$BLIPMODE
 70
     0
  9
$CHAMFERA
 40
2.0
  9
$CHAMFERB
 40
2.0
  9
$SKPOLY
 70
     0
  9
$TDCREATE
 40
2453095.4929404748
  9
$TDUPDATE
 40
2457598.641159514
  9
$TDINDWG
 40
18.372789131899999
  9
$TDUSRTIMER
 40
18.372788402800001
  9
$USRTIMER
 70
     1
  9
$ANGBASE
 50
0.0
  9
$ANGDIR
 70
     0
  9
$PDMODE
 70
    35
  9
$PDSIZE
 40
2.0
  9
$PLINEWID
 40
0.0
  9
$COORDS
 70
     1
  9
$SPLFRAME
 70
     0
  9
$SPLINETYPE
 70
     6
  9
$SPLINESEGS
 70
     8
  9
$ATTDIA
 70
     0
  9
$ATTREQ
 70
     1
  9
$HANDLING
 70
     1
  9
$HANDSEED
  5
1316C2
  9
$SURFTAB1
 70
     6
  9
$SURFTAB2
 70
     6
  9
$SURFTYPE
 70
     6
  9
$SURFU
 70
     6
  9
$SURFV
 70
     6
  9
$UCSNAME
  2

  9
$UCSORG
 10
0.0
 20
0.0
 30
0.0
  9
$UCSXDIR
 10
1.0
 20
0.0
 30
0.0
  9
$UCSYDIR
 10
0.0
 20
1.0
 30
0.0
  9
$PUCSNAME
  2

  9
$PUCSORG
 10
0.0
 20
0.0
 30
0.0
  9
$PUCSXDIR
 10
1.0
 20
0.0
 30
0.0
  9
$PUCSYDIR
 10
0.0
 20
1.0
 30
0.0
  9
$USERI1
 70
     0
  9
$USERI2
 70
     0
  9
$USERI3
 70
     0
  9
$USERI4
 70
     0
  9
$USERI5
 70
     0
  9
$USERR1
 40
0.0
  9
$USERR2
 40
0.0
  9
$USERR3
 40
0.0
  9
$USERR4
 40
0.0
  9
$USERR5
 40
0.0
  9
$WORLDVIEW
 70
     1
  9
$SHADEDGE
 70
     3
  9
$SHADEDIF
 70
    70
  9
$TILEMODE
 70
     1
  9
$MAXACTVP
 70
    64
  9
$PLIMCHECK
 70
     0
  9
$PEXTMIN
 10
29.066066288948051
 20
20.366566777229309
 30
0.0
  9
$PEXTMAX
 10
261.5945966005325
 20
183.29910099506381
 30
0.0
  9
$PLIMMIN
 10
-3.17498779296875
 20
-3.1749999523162842
  9
$PLIMMAX
 10
293.83566284179687
 20
206.8406708240509
  9
$UNITMODE
 70
     0
  9
$VISRETAIN
 70
     1
  9
$PLINEGEN
 70
     0
  9
$PSLTSCALE
 70
     1
  0
ENDSEC
  0
SECTION
  2
TABLES
  0
TABLE
  2
VPORT
 70
     1
  0
VPORT
  2
*ACTIVE
 70
     0
 10
0.0
 20
0.0
 11
1.0
 21
1.0
 12
4390.2132108024771
 22
-1240.4833643684899
 13
0.0
 23
0.0
 14
1.0
 24
1.0
 15
0.0
 25
0.0
 16
0.0
 26
0.0
 36
1.0
 17
0.0
 27
0.0
 37
0.0
 40
19066.86105942323
 41
1.6494178525226391
 42
50.0
 43
0.0
 44
0.0
 50
0.0
 51
0.0
 71
     0
 72
   600
 73
     1
 74
     1
 75
     0
 76
     0
 77
     0
 78
     0
  0
ENDTAB
  0
TABLE
  2
LTYPE
 70
     4
  0
LTYPE
  2
CONTINUOUS
 70
     0
  3
Solid line
 72
    65
 73
     0
 40
0.0
  0
LTYPE
  2
PHANTOM2
 70
     0
  3
___ _ _ ___ _ _ ___ _ _ ___ _ _
 72
    65
 73
     6
 40
1.25
 49
0.625
 49
-0.125
 49
0.125
 49
-0.125
 49
0.125
 49
-0.125
  0
LTYPE
  2
ACAD_ISO08W100
 70
     0
  3
ISO long-dash short-dash ____ __ ____ __ ____ _
 72
    65
 73
     4
 40
36.0
 49
24.0
 49
-3.0
 49
6.0
 49
-3.0
  0
LTYPE
  2
ACAD_ISO02W100
 70
     0
  3
ISO dash __ __ __ __ __ __ __ __ __ __ __ __ __
 72
    65
 73
     2
 40
15.0
 49
12.0
 49
-3.0
  0
ENDTAB
  0
TABLE
  2
LAYER
 70
     8
  0
LAYER
  2
0
 70
     0
 62
     7
  6
CONTINUOUS
  0
LAYER
  2
OBJECT
 70
     0
 62
     4
  6
CONTINUOUS
  0
LAYER
  2
DEFPOINTS
 70
     0
 62
     7
  6
CONTINUOUS
  0
LAYER
  2
DIM
 70
     0
 62
     7
  6
CONTINUOUS
  0
LAYER
  2
HIDDEN
 70
     0
 62
     2
  6
ACAD_ISO02W100
  0
LAYER
  2
CENTER
 70
     0
 62
     2
  6
ACAD_ISO08W100
  0
LAYER
  2
DOTS
 70
     0
 62
     1
  6
CONTINUOUS
  0
LAYER
  2
SLIM
 70
     0
 62
     2
  6
CONTINUOUS
  0
ENDTAB
  0
TABLE
  2
STYLE
 70
     2
  0
STYLE
  2
STANDARD
 70
     0
 40
0.0
 41
0.75
 50
0.0
 71
     0
 42
4.0
  3
simplex.shx
  4
bigfont.shx
  0
ENDTAB
  0
TABLE
  2
VIEW
 70
     0
  0
ENDTAB
  0
TABLE
  2
UCS
 70
     0
  0
ENDTAB
  0
TABLE
  2
APPID
 70
    18
  0
APPID
  2
ACAD
 70
     0
  0
APPID
  2
ACADANNOTATIVE
 70
     0
  0
APPID
  2
ACAD_PSEXT
 70
     0
  0
APPID
  2
ACAD_EXEMPT_FROM_CAD_STANDARDS
 70
     0
  0
APPID
  2
ACAECLAYERSTANDARD
 70
     0
  0
APPID
  2
ACAUTHENVIRON
 70
     0
  0
APPID
  2
ACDBDYNAMICBLOCKTRUENAME
 70
     0
  0
APPID
  2
ACDBDYNAMICBLOCKGUID
 70
     0
  0
APPID
  2
ACDBBLOCKREPETAG
 70
     0
  0
APPID
  2
ACDBBLOCKREPBTAG
 70
     0
  0
APPID
  2
ACAD_NAV_VCDISPLAY
 70
     0
  0
APPID
  2
ACAD_DSTYLE_DIMRADIAL_EXTENSION
 70
     0
  0
APPID
  2
ACAD_DSTYLE_DIMJAG
 70
     0
  0
APPID
  2
ACAD_DSTYLE_DIMTALN
 70
     0
  0
APPID
  2
ACADANNOPO
 70
     0
  0
APPID
  2
GRADIENTCOLOR1ACI
 70
     0
  0
APPID
  2
GRADIENTCOLOR2ACI
 70
     0
  0
APPID
  2
ACAD_MLEADERVER
 70
     0
  0
ENDTAB
  0
TABLE
  2
DIMSTYLE
 70
     3
  0
DIMSTYLE
  2
STANDARD
 70
     0
  3

  4

  5

  6

  7

 40
1.0
 41
0.18
 42
0.0625
 43
0.38
 44
0.18
 45
0.0
 46
0.0
 47
0.0
 48
0.0
140
0.18
141
0.09
142
0.0
143
25.399999999999999
144
1.0
145
0.0
146
1.0
147
0.09
 71
     0
 72
     0
 73
     1
 74
     1
 75
     0
 76
     0
 77
     0
 78
     0
170
     0
171
     2
172
     0
173
     0
174
     0
175
     0
176
     0
177
     0
178
     0
  0
DIMSTYLE
  2
S10
 70
     0
  3

  4

  5

  6

  7

 40
10.0
 41
2.0
 42
1.0
 43
10.0
 44
1.0
 45
0.0
 46
0.0
 47
0.0
 48
0.0
140
3.2000000000000002
141
0.0
142
0.0
143
25.399999999999999
144
1.0
145
0.0
146
1.0
147
0.9
 71
     0
 72
     0
 73
     0
 74
     0
 75
     0
 76
     0
 77
     1
 78
     8
170
     0
171
     2
172
     1
173
     0
174
     0
175
     0
176
   256
177
   256
178
   256
  0
ENDTAB
  0
ENDSEC
  0
SECTION
  2
BLOCKS
  0
BLOCK
  8
0
  2
$MODEL_SPACE
 70
     0
 10
0.0
 20
0.0
 30
0.0
  3
$MODEL_SPACE
  1

  0
ENDBLK
  5
1315D8
  8
0
  0
BLOCK
 67
     1
  8
0
  2
$PAPER_SPACE
 70
     0
 10
0.0
 20
0.0
 30
0.0
  3
$PAPER_SPACE
  1

  0
ENDBLK
  5
1315D4
 67
     1
  8
0
  0
BLOCK
  8
0
  2
_OPEN30
 70
     0
 10
0.0
 20
0.0
 30
0.0
  3
_OPEN30
  1

  0
LINE
  5
202
  8
0
  6
BYBLOCK
 62
     0
 10
-1.0
 20
0.26794919
 30
0.0
 11
0.0
 21
0.0
 31
0.0
  0
LINE
  5
203
  8
0
  6
BYBLOCK
 62
     0
 10
0.0
 20
0.0
 30
0.0
 11
-1.0
 21
-0.26794919
 31
0.0
  0
LINE
  5
204
  8
0
  6
BYBLOCK
 62
     0
 10
0.0
 20
0.0
 30
0.0
 11
-1.0
 21
0.0
 31
0.0
  0
ENDBLK
  5
206
  8
0
  0
BLOCK
  8
0
  2
*U4
 70
     1
 10
0.0
 20
0.0
 30
0.0
  3
*U4
  1

  0
TEXT
  5
1314D6
  8
DIM
 10
3840.6616440113212
 20
-982.74285714285406
 30
0.0
 40
32.0
  1
m（シンドカット）
 50
90.0
 41
0.75
  0
ENDBLK
  5
1314D8
  8
0
  0
BLOCK
  8
0
  2
*U5
 70
     1
 10
0.0
 20
0.0
 30
0.0
  3
*U5
  1

  0
TEXT
  5
13150C
  8
SLIM
 10
505.04761904610911
 20
-2187.2499999970728
 30
0.0
 40
26.0
  1
100
  0
ENDBLK
  5
13150E
  8
0
  0
BLOCK
  8
0
  2
*U6
 70
     1
 10
0.0
 20
0.0
 30
0.0
  3
*U6
  1

  0
TEXT
  5
131510
  8
SLIM
 10
505.04761904610911
 20
-1942.749999997073
 30
0.0
 40
26.0
  1
100
  0
ENDBLK
  5
131512
  8
0
  0
BLOCK
  8
0
  2
*U7
 70
     1
 10
0.0
 20
0.0
 30
0.0
  3
*U7
  1

  0
TEXT
  5
131514
  8
SLIM
 10
145.04761904623109
 20
-2187.2499999970728
 30
0.0
 40
26.0
  1
100
  0
ENDBLK
  5
131516
  8
0
  0
BLOCK
  8
0
  2
*U8
 70
     1
 10
0.0
 20
0.0
 30
0.0
  3
*U8
  1

  0
TEXT
  5
131518
  8
SLIM
 10
154.9523809509931
 20
-1949.999999997073
 30
0.0
 40
26.0
  1
75
  0
ENDBLK
  5
13151A
  8
0
  0
BLOCK
  8
0
  2
*U9
 70
     1
 10
0.0
 20
0.0
 30
0.0
  3
*U9
  1

  0
TEXT
  5
13151C
  8
SLIM
 10
514.95238095087109
 20
-1715.999999997231
 30
0.0
 40
26.0
  1
75
  0
ENDBLK
  5
13151E
  8
0
  0
BLOCK
  8
0
  2
*U10
 70
     1
 10
0.0
 20
0.0
 30
0.0
  3
*U10
  1

  0
TEXT
  5
131520
  8
SLIM
 10
514.95238095087109
 20
-1485.999999997231
 30
0.0
 40
26.0
  1
75
  0
ENDBLK
  5
131522
  8
0
  0
BLOCK
  8
0
  2
*U11
 70
     1
 10
0.0
 20
0.0
 30
0.0
  3
*U11
  1

  0
TEXT
  5
131524
  8
SLIM
 10
145.04761904623109
 20
-1723.249999997231
 30
0.0
 40
26.0
  1
100
  0
ENDBLK
  5
131526
  8
0
  0
BLOCK
  8
0
  2
*U12
 70
     1
 10
0.0
 20
0.0
 30
0.0
  3
*U12
  1

  0
TEXT
  5
131528
  8
SLIM
 10
154.9523809509931
 20
-1485.999999997231
 30
0.0
 40
26.0
  1
65
  0
ENDBLK
  5
13152A
  8
0
  0
BLOCK
  8
0
  2
*U13
 70
     1
 10
0.0
 20
0.0
 30
0.0
  3
*U13
  1

  0
TEXT
  5
13152C
  8
SLIM
 10
514.95238095087109
 20
-1251.99999999739
 30
0.0
 40
26.0
  1
75
  0
ENDBLK
  5
13152E
  8
0
  0
BLOCK
  8
0
  2
*U14
 70
     1
 10
0.0
 20
0.0
 30
0.0
  3
*U14
  1

  0
TEXT
  5
131530
  8
SLIM
 10
514.95238095087109
 20
-1021.999999997389
 30
0.0
 40
26.0
  1
65
  0
ENDBLK
  5
131532
  8
0
  0
BLOCK
  8
0
  2
*U15
 70
     1
 10
0.0
 20
0.0
 30
0.0
  3
*U15
  1

  0
TEXT
  5
131534
  8
SLIM
 10
154.9523809509929
 20
-1251.99999999739
 30
0.0
 40
26.0
  1
65
  0
ENDBLK
  5
131536
  8
0
  0
BLOCK
  8
0
  2
*U16
 70
     1
 10
0.0
 20
0.0
 30
0.0
  3
*U16
  1

  0
TEXT
  5
131538
  8
SLIM
 10
154.9523809509929
 20
-1021.999999997389
 30
0.0
 40
26.0
  1
65
  0
ENDBLK
  5
13153A
  8
0
  0
BLOCK
  8
0
  2
*U17
 70
     1
 10
0.0
 20
0.0
 30
0.0
  3
*U17
  1

  0
TEXT
  5
13153C
  8
SLIM
 10
505.04761904610911
 20
-795.24999999754812
 30
0.0
 40
26.0
  1
100
  0
ENDBLK
  5
13153E
  8
0
  0
BLOCK
  8
0
  2
*U18
 70
     1
 10
0.0
 20
0.0
 30
0.0
  3
*U18
  1

  0
TEXT
  5
131540
  8
SLIM
 10
514.95238095087109
 20
-557.999999997548
 30
0.0
 40
26.0
  1
50
  0
ENDBLK
  5
131542
  8
0
  0
BLOCK
  8
0
  2
*U19
 70
     1
 10
0.0
 20
0.0
 30
0.0
  3
*U19
  1

  0
TEXT
  5
131544
  8
SLIM
 10
154.95238095099299
 20
-787.99999999754812
 30
0.0
 40
26.0
  1
75
  0
ENDBLK
  5
131546
  8
0
  0
BLOCK
  8
0
  2
*U20
 70
     1
 10
0.0
 20
0.0
 30
0.0
  3
*U20
  1

  0
TEXT
  5
131548
  8
SLIM
 10
154.95238095099299
 20
-557.999999997548
 30
0.0
 40
26.0
  1
50
  0
ENDBLK
  5
13154A
  8
0
  0
BLOCK
  8
0
  2
*U21
 70
     1
 10
0.0
 20
0.0
 30
0.0
  3
*U21
  1

  0
TEXT
  5
13154C
  8
SLIM
 10
514.95238095087109
 20
-323.99999999770631
 30
0.0
 40
26.0
  1
65
  0
ENDBLK
  5
13154E
  8
0
  0
BLOCK
  8
0
  2
*U22
 70
     1
 10
0.0
 20
0.0
 30
0.0
  3
*U22
  1

  0
TEXT
  5
131550
  8
SLIM
 10
514.95238095087109
 20
-93.99999999770624
 30
0.0
 40
26.0
  1
50
  0
ENDBLK
  5
131552
  8
0
  0
BLOCK
  8
0
  2
*U23
 70
     1
 10
0.0
 20
0.0
 30
0.0
  3
*U23
  1

  0
TEXT
  5
131554
  8
SLIM
 10
154.9523809509931
 20
-323.99999999770631
 30
0.0
 40
26.0
  1
50
  0
ENDBLK
  5
131556
  8
0
  0
BLOCK
  8
0
  2
*U24
 70
     1
 10
0.0
 20
0.0
 30
0.0
  3
*U24
  1

  0
TEXT
  5
131558
  8
SLIM
 10
154.9523809509931
 20
-93.99999999770624
 30
0.0
 40
26.0
  1
50
  0
ENDBLK
  5
13155A
  8
0
  0
BLOCK
  8
0
  2
*U25
 70
     1
 10
0.0
 20
0.0
 30
0.0
  3
*U25
  1

  0
TEXT
  5
13155C
  8
DIM
 10
2209.479620594459
 20
-3184.1428571428528
 30
0.0
 40
32.0
  1
A
 50
90.0
 41
0.75
  0
ENDBLK
  5
13155E
  8
0
  0
BLOCK
  8
0
  2
*U26
 70
     1
 10
0.0
 20
0.0
 30
0.0
  3
*U26
  1

  0
TEXT
  5
131560
  8
DIM
 10
2207.8409284037348
 20
-3565.9999999999959
 30
0.0
 40
32.0
  1
B
 50
90.0
 41
0.75
  0
ENDBLK
  5
131562
  8
0
  0
BLOCK
  8
0
  2
*U27
 70
     1
 10
0.0
 20
0.0
 30
0.0
  3
*U27
  1

  0
TEXT
  5
131564
  8
DIM
 10
2061.428571428572
 20
-3038.208121984444
 30
0.0
 40
32.0
  1
C
 41
0.75
  0
ENDBLK
  5
131566
  8
0
  0
ENDSEC
  0
SECTION
  2
ENTITIES
  0
LINE
  5
1295F8
  8
OBJECT
 10
1825.0
 20
-3579.9999999999959
 30
0.0
 11
5575.0
 21
-3579.9999999999959
 31
0.0
  0
LINE
  5
1295FA
  8
SLIM
 10
2616.0
 20
-2637.50001604727
 30
0.0
 11
2616.0
 21
-2967.50001604727
 31
0.0
  0
LINE
  5
1295FB
  8
SLIM
 10
2740.0
 20
-2637.50001604727
 30
0.0
 11
2740.0
 21
-2967.50001604727
 31
0.0
  0
LINE
  5
1295FC
  8
SLIM
 10
2870.0
 20
-2697.50001604727
 30
0.0
 11
2870.0
 21
-2967.50001604727
 31
0.0
  0
LINE
  5
1295FD
  8
SLIM
 10
3000.0
 20
-2697.50001604727
 30
0.0
 11
3000.0
 21
-2967.50001604727
 31
0.0
  0
LINE
  5
1295FE
  8
SLIM
 10
3130.0
 20
-2967.50001604727
 30
0.0
 11
3130.0
 21
-2697.50001604727
 31
0.0
  0
LINE
  5
1295FF
  8
SLIM
 10
3260.0
 20
-2967.50001604727
 30
0.0
 11
3260.0
 21
-2637.50001604727
 31
0.0
  0
LINE
  5
129600
  8
SLIM
 10
3260.0
 20
-2637.50001604727
 30
0.0
 11
2616.0
 21
-2637.50001604727
 31
0.0
  0
LINE
  5
129601
  8
SLIM
 10
3260.0
 20
-2697.50001604727
 30
0.0
 11
2740.0
 21
-2697.50001604727
 31
0.0
  0
LINE
  5
129602
  8
SLIM
 10
3260.0
 20
-2757.50001604727
 30
0.0
 11
2616.0
 21
-2757.50001604727
 31
0.0
  0
LINE
  5
129603
  8
SLIM
 10
3260.0
 20
-2827.50001604727
 30
0.0
 11
2616.0
 21
-2827.50001604727
 31
0.0
  0
LINE
  5
129604
  8
SLIM
 10
3260.0
 20
-2897.50001604727
 30
0.0
 11
2616.0
 21
-2897.50001604727
 31
0.0
  0
LINE
  5
129605
  8
SLIM
 10
3260.0
 20
-2967.50001604727
 30
0.0
 11
2616.0
 21
-2967.50001604727
 31
0.0
  0
LINE
  5
12961A
  8
SLIM
 10
2740.0
 20
-2757.50001604727
 30
0.0
 11
2615.9999722746579
 21
-2637.5
 31
0.0
  0
LINE
  5
12964F
  8
OBJECT
 10
5323.0
 20
-3395.9999999999968
 30
0.0
 11
5323.0
 21
-3374.9999999999968
 31
0.0
1001
ACDBBLOCKREPETAG
1070
     1
1071
       20
1005
12964F
  0
LINE
  5
129650
  8
OBJECT
 10
5323.0
 20
-3374.9999999999968
 30
0.0
 11
5477.0
 21
-3374.9999999999968
 31
0.0
1001
ACDBBLOCKREPETAG
1070
     1
1071
       21
1005
129650
  0
LINE
  5
129651
  8
HIDDEN
 10
5343.0
 20
-3444.9999999999968
 30
0.0
 11
5457.0
 21
-3444.9999999999968
 31
0.0
1001
ACDBBLOCKREPETAG
1070
     1
1071
       22
1005
129651
  0
LINE
  5
129652
  8
OBJECT
 10
5477.0
 20
-3374.9999999999968
 30
0.0
 11
5477.0
 21
-3395.9999999999968
 31
0.0
1001
ACDBBLOCKREPETAG
1070
     1
1071
       23
1005
129652
  0
LINE
  5
129653
  8
OBJECT
 10
5477.0
 20
-3395.9999999999968
 30
0.0
 11
5323.0
 21
-3395.9999999999968
 31
0.0
1001
ACDBBLOCKREPETAG
1070
     1
1071
       24
1005
129653
  0
LINE
  5
129654
  8
CENTER
 10
5400.0
 20
-3359.9999999999968
 30
0.0
 11
5400.0
 21
-3594.9999999999968
 31
0.0
1001
ACDBBLOCKREPETAG
1070
     1
1071
       25
1005
129654
  0
LINE
  5
129655
  8
OBJECT
 10
5325.0
 20
-3458.9999999999968
 30
0.0
 11
5325.0
 21
-3582.9999999999968
 31
0.0
1001
ACDBBLOCKREPETAG
1070
     1
1071
       26
1005
129655
  0
LINE
  5
129656
  8
OBJECT
 10
5328.0
 20
-3395.9999999999968
 30
0.0
 11
5328.0
 21
-3458.9999999999968
 31
0.0
1001
ACDBBLOCKREPETAG
1070
     1
1071
       27
1005
129656
  0
LINE
  5
129657
  8
OBJECT
 10
5472.0
 20
-3458.9999999999968
 30
0.0
 11
5472.0
 21
-3395.9999999999968
 31
0.0
1001
ACDBBLOCKREPETAG
1070
     1
1071
       28
1005
129657
  0
LINE
  5
129658
  8
OBJECT
 10
5475.0
 20
-3458.9999999999968
 30
0.0
 11
5456.7802782663139
 21
-3458.9999999999968
 31
0.0
1001
ACDBBLOCKREPETAG
1070
     1
1071
       30
1005
129658
  0
LINE
  5
129659
  8
OBJECT
 10
5475.0
 20
-3458.9999999999968
 30
0.0
 11
5475.0
 21
-3582.9999999999968
 31
0.0
1001
ACDBBLOCKREPETAG
1070
     1
1071
       34
1005
129659
  0
POINT
  5
12965A
  8
DOTS
 10
5400.0
 20
-3579.9999999999968
 30
0.0
1001
ACDBBLOCKREPETAG
1070
     1
1071
      187
1005
12965A
  0
LINE
  5
12965B
  8
CENTER
 10
5310.0
 20
-3507.9999999999968
 30
0.0
 11
5490.0
 21
-3507.9999999999968
 31
0.0
1001
ACDBBLOCKREPETAG
1070
     1
1071
       23
1005
12965B
  0
CIRCLE
  5
12965C
  8
OBJECT
 10
5400.0
 20
-3507.9999999999968
 30
0.0
 40
53.5
1001
ACDBBLOCKREPETAG
1070
     1
1071
       24
1005
12965C
  0
CIRCLE
  5
12965D
  8
OBJECT
 10
5400.0
 20
-3507.9999999999968
 30
0.0
 40
67.0
1001
ACDBBLOCKREPETAG
1070
     1
1071
       25
1005
12965D
  0
ARC
  5
12965E
  8
OBJECT
 10
5400.0
 20
-3507.9999999999968
 30
0.0
 40
75.0
 50
286.26020470824
 51
253.73979529175989
1001
ACDBBLOCKREPETAG
1070
     1
1071
       27
1005
12965E
  0
LINE
  5
12965F
  8
OBJECT
 10
5379.0
 20
-3579.9999999999968
 30
0.0
 11
5421.0
 21
-3579.9999999999968
 31
0.0
1001
ACDBBLOCKREPETAG
1070
     1
1071
       28
1005
12965F
  0
LINE
  5
129660
  8
OBJECT
 10
5343.2197217336861
 20
-3458.9999999999968
 30
0.0
 11
5325.0
 21
-3458.9999999999968
 31
0.0
1001
ACDBBLOCKREPETAG
1070
     1
1071
       30
1005
129658
  0
TEXT
  5
12F934
  8
SLIM
 10
-0.0000000000000011
 20
282.5
 30
0.0
 40
35.0
  1
※ 100枝（4）がある場合、品名の最後に【管底】が付きます。
 41
0.9
 11
0.0
 21
300.0
 31
0.0
 73
     2
  0
LINE
  5
130F4E
  8
SLIM
 10
4350.0
 20
-887.99999999999454
 30
0.0
 11
4350.0
 21
-1079.9999999999941
 31
0.0
  0
LINE
  5
130F4F
  8
SLIM
 10
4454.0
 20
-1079.9999999999941
 30
0.0
 11
4454.0
 21
-887.99999999999454
 31
0.0
  0
LINE
  5
130F50
  8
SLIM
 10
4602.0
 20
-887.99999999999454
 30
0.0
 11
4350.0
 21
-887.99999999999454
 31
0.0
  0
LINE
  5
130F51
  8
SLIM
 10
4602.0
 20
-983.99999999999477
 30
0.0
 11
4350.0
 21
-983.99999999999477
 31
0.0
  0
LINE
  5
130F53
  8
SLIM
 10
4602.0
 20
-1031.999999999995
 30
0.0
 11
4350.0
 21
-1031.999999999995
 31
0.0
  0
LINE
  5
130F54
  8
SLIM
 10
4602.0
 20
-1079.9999999999941
 30
0.0
 11
4350.0
 21
-1079.9999999999941
 31
0.0
  0
LINE
  5
130F58
  8
SLIM
 10
4602.0
 20
-935.99999999999466
 30
0.0
 11
4350.0
 21
-935.99999999999466
 31
0.0
  0
LINE
  5
130F5A
  8
SLIM
 10
4602.0
 20
-887.99999999999454
 30
0.0
 11
4602.0
 21
-1079.9999999999941
 31
0.0
  0
LINE
  5
130F93
  8
DIM
 10
3904.9999999999941
 20
-754.99999999999773
 30
0.0
 11
3839.6616440113221
 21
-754.9999999999975
 31
0.0
  0
LINE
  5
130F94
  8
DIM
 10
3910.0
 20
-964.9999999999975
 30
0.0
 11
3839.6616440113221
 21
-964.9999999999975
 31
0.0
  0
LINE
  5
130F95
  8
DIM
 10
3849.6616440113221
 20
-774.99999999999773
 30
0.0
 11
3849.6616440113221
 21
-944.99999999999761
 31
0.0
  0
INSERT
  5
130F96
  8
DIM
  2
_OPEN30
 10
3849.6616440113221
 20
-754.99999999999773
 30
0.0
 41
20.0
 42
20.0
 43
20.0
 50
90.0
  0
INSERT
  5
130F97
  8
DIM
  2
_OPEN30
 10
3849.6616440113221
 20
-964.9999999999975
 30
0.0
 41
20.0
 42
20.0
 43
20.0
 50
270.0
  0
INSERT
  5
130F98
  8
OBJECT
  2
*U4
 10
0.0
 20
0.0
 30
0.0
  0
TEXT
  5
130F99
  8
SLIM
 10
3554.6000000000008
 20
-1415.6666666666631
 30
0.0
 40
28.0
  1
※ 対応スラブ厚　180～（m-10）
 41
0.75
  0
TEXT
  5
130F9A
  8
SLIM
 10
3554.6000000000008
 20
-1462.3333333333289
 30
0.0
 40
28.0
  1
※ 足切り可能寸法（最大）　210-m（コンパクトＬベンド使用なら+20）
 41
0.75
  0
TEXT
  5
130F9B
  8
SLIM
 10
3598.9000000000001
 20
-1555.6666666666631
 30
0.0
 40
28.0
  1
国土交通大臣認定・（一財）日本消防設備安全センター性能評定取得品
 41
0.75
  0
TEXT
  5
130F9C
  8
SLIM
 10
3631.1000000000022
 20
-1602.3333333333301
 30
0.0
 40
28.0
  1
注）ご採用にあたり、認定書及び評定書の内容をご確認ください。
 41
0.75
  0
TEXT
  5
130F9D
  8
SLIM
 10
4506.5714285714294
 20
-971.99999999999454
 30
0.0
 40
24.0
  1
180
 41
0.75
  0
TEXT
  5
130F9E
  8
SLIM
 10
4470.057142857142
 20
-1067.999999999995
 30
0.0
 40
24.0
  1
180～200
 41
0.75
  0
TEXT
  5
130F9F
  8
SLIM
 10
4471.7714285714283
 20
-1019.999999999995
 30
0.0
 40
24.0
  1
180～190
 41
0.75
  0
TEXT
  5
130FA0
  8
SLIM
 10
4465.6000000000013
 20
-923.99999999999477
 30
0.0
 40
24.0
  1
対応スラブ厚
 41
0.75
  0
TEXT
  5
130FA1
  8
SLIM
 10
4398.1714285714288
 20
-1125.999999999995
 30
0.0
 40
24.0
  1
標準：m=210
 41
0.75
  0
TEXT
  5
130FA2
  8
SLIM
 10
4380.5714285714284
 20
-971.99999999999454
 30
0.0
 40
24.0
  1
190
 41
0.75
  0
TEXT
  5
130FA3
  8
SLIM
 10
4380.5714285714284
 20
-1067.999999999995
 30
0.0
 40
24.0
  1
210
 41
0.75
  0
TEXT
  5
130FA4
  8
SLIM
 10
4369.9428571428571
 20
-923.99999999999477
 30
0.0
 40
24.0
  1
m寸法
 41
0.75
  0
TEXT
  5
130FA5
  8
SLIM
 10
4378.8571428571431
 20
-1019.999999999995
 30
0.0
 40
24.0
  1
200
 41
0.75
  0
CIRCLE
  5
130FA6
  8
OBJECT
 10
5000.0
 20
-3174.9999999999959
 30
0.0
 40
53.5
1001
ACDBBLOCKREPETAG
1070
     1
1071
      344
1005
130FA6
  0
LINE
  5
130FA7
  8
CENTER
 10
5080.0
 20
-3174.9999999999959
 30
0.0
 11
4905.0
 21
-3174.9999999999959
 31
0.0
1001
ACDBBLOCKREPETAG
1070
     1
1071
       14
1005
130FA7
  0
LINE
  5
130FA8
  8
CENTER
 10
5000.0
 20
-3269.9999999999959
 30
0.0
 11
5000.0
 21
-3079.9999999999959
 31
0.0
1001
ACDBBLOCKREPETAG
1070
     1
1071
       15
1005
130FA8
  0
CIRCLE
  5
130FA9
  8
OBJECT
 10
5000.0
 20
-3174.9999999999959
 30
0.0
 40
70.0
1001
ACDBBLOCKREPETAG
1070
     1
1071
       16
1005
130FA9
  0
CIRCLE
  5
130FAA
  8
OBJECT
 10
5000.0
 20
-3174.9999999999959
 30
0.0
 40
77.0
1001
ACDBBLOCKREPETAG
1070
     1
1071
       17
1005
130FAA
  0
ARC
  5
130FAB
  8
OBJECT
 10
5000.0
 20
-3174.9999999999959
 30
0.0
 40
80.0
 50
50.805032573882329
 51
309.19496742611773
1001
ACDBBLOCKREPETAG
1070
     1
1071
       18
1005
130FAB
  0
LINE
  5
130FAC
  8
OBJECT
 10
5045.6618002273253
 20
-3112.9999999999959
 30
0.0
 11
5080.0
 21
-3112.9999999999959
 31
0.0
1001
ACDBBLOCKREPETAG
1070
     1
1071
       19
1005
130FAC
  0
LINE
  5
130FAD
  8
OBJECT
 10
5045.6618002273253
 20
-3236.9999999999959
 30
0.0
 11
5080.0
 21
-3236.9999999999959
 31
0.0
1001
ACDBBLOCKREPETAG
1070
     1
1071
       20
1005
130FAD
  0
POINT
  5
130FAE
  8
DOTS
 10
5000.0
 20
-3174.9999999999959
 30
0.0
1001
ACDBBLOCKREPETAG
1070
     1
1071
       21
1005
130FAE
  0
CIRCLE
  5
130FAF
  8
OBJECT
 10
4000.0
 20
-3174.9999999999959
 30
0.0
 40
53.5
1001
ACDBBLOCKREPETAG
1070
     1
1071
      344
1005
130FAF
  0
LINE
  5
130FB0
  8
CENTER
 10
4080.0
 20
-3174.9999999999959
 30
0.0
 11
3905.0
 21
-3174.9999999999959
 31
0.0
1001
ACDBBLOCKREPETAG
1070
     1
1071
       14
1005
130FB0
  0
LINE
  5
130FB1
  8
CENTER
 10
4000.0
 20
-3269.9999999999959
 30
0.0
 11
4000.0
 21
-3079.9999999999959
 31
0.0
1001
ACDBBLOCKREPETAG
1070
     1
1071
       15
1005
130FB1
  0
CIRCLE
  5
130FB2
  8
OBJECT
 10
4000.0
 20
-3174.9999999999959
 30
0.0
 40
70.0
1001
ACDBBLOCKREPETAG
1070
     1
1071
       16
1005
130FB2
  0
CIRCLE
  5
130FB3
  8
OBJECT
 10
4000.0
 20
-3174.9999999999959
 30
0.0
 40
77.0
1001
ACDBBLOCKREPETAG
1070
     1
1071
       17
1005
130FB3
  0
ARC
  5
130FB4
  8
OBJECT
 10
4000.0
 20
-3174.9999999999959
 30
0.0
 40
80.0
 50
50.805032573862128
 51
309.19496742613791
1001
ACDBBLOCKREPETAG
1070
     1
1071
       18
1005
130FB4
  0
LINE
  5
130FB5
  8
OBJECT
 10
4045.661800227324
 20
-3112.9999999999959
 30
0.0
 11
4080.0
 21
-3112.9999999999959
 31
0.0
1001
ACDBBLOCKREPETAG
1070
     1
1071
       19
1005
130FB5
  0
LINE
  5
130FB6
  8
OBJECT
 10
4045.661800227324
 20
-3236.9999999999959
 30
0.0
 11
4080.0
 21
-3236.9999999999959
 31
0.0
1001
ACDBBLOCKREPETAG
1070
     1
1071
       20
1005
130FB6
  0
POINT
  5
130FB7
  8
DOTS
 10
4000.0
 20
-3174.9999999999959
 30
0.0
1001
ACDBBLOCKREPETAG
1070
     1
1071
       21
1005
130FB7
  0
CIRCLE
  5
130FB8
  8
OBJECT
 10
3000.0
 20
-3174.9999999999959
 30
0.0
 40
53.5
1001
ACDBBLOCKREPETAG
1070
     1
1071
      344
1005
130FB8
  0
LINE
  5
130FB9
  8
CENTER
 10
3080.0
 20
-3174.9999999999959
 30
0.0
 11
2905.0
 21
-3174.9999999999959
 31
0.0
1001
ACDBBLOCKREPETAG
1070
     1
1071
       14
1005
130FB9
  0
LINE
  5
130FBA
  8
CENTER
 10
3000.0
 20
-3269.9999999999959
 30
0.0
 11
3000.0
 21
-3079.9999999999959
 31
0.0
1001
ACDBBLOCKREPETAG
1070
     1
1071
       15
1005
130FBA
  0
CIRCLE
  5
130FBB
  8
OBJECT
 10
3000.0
 20
-3174.9999999999959
 30
0.0
 40
70.0
1001
ACDBBLOCKREPETAG
1070
     1
1071
       16
1005
130FBB
  0
CIRCLE
  5
130FBC
  8
OBJECT
 10
3000.0
 20
-3174.9999999999959
 30
0.0
 40
77.0
1001
ACDBBLOCKREPETAG
1070
     1
1071
       17
1005
130FBC
  0
ARC
  5
130FBD
  8
OBJECT
 10
3000.0
 20
-3174.9999999999959
 30
0.0
 40
80.0
 50
50.805032573862128
 51
309.19496742613791
1001
ACDBBLOCKREPETAG
1070
     1
1071
       18
1005
130FBD
  0
LINE
  5
130FBE
  8
OBJECT
 10
3045.6618002273249
 20
-3112.9999999999959
 30
0.0
 11
3080.0
 21
-3112.9999999999959
 31
0.0
1001
ACDBBLOCKREPETAG
1070
     1
1071
       19
1005
130FBE
  0
LINE
  5
130FBF
  8
OBJECT
 10
3045.6618002273249
 20
-3236.9999999999959
 30
0.0
 11
3080.0
 21
-3236.9999999999959
 31
0.0
1001
ACDBBLOCKREPETAG
1070
     1
1071
       20
1005
130FBF
  0
POINT
  5
130FC0
  8
DOTS
 10
3000.0
 20
-3174.9999999999959
 30
0.0
1001
ACDBBLOCKREPETAG
1070
     1
1071
       21
1005
130FC0
  0
CIRCLE
  5
130FC1
  8
OBJECT
 10
2000.0
 20
-3174.9999999999959
 30
0.0
 40
53.5
1001
ACDBBLOCKREPETAG
1070
     1
1071
      344
1005
130FC1
  0
LINE
  5
130FC2
  8
CENTER
 10
2080.0
 20
-3174.9999999999959
 30
0.0
 11
1905.0
 21
-3174.9999999999959
 31
0.0
1001
ACDBBLOCKREPETAG
1070
     1
1071
       14
1005
130FC2
  0
LINE
  5
130FC3
  8
CENTER
 10
2000.0
 20
-3269.9999999999959
 30
0.0
 11
2000.0
 21
-3079.9999999999959
 31
0.0
1001
ACDBBLOCKREPETAG
1070
     1
1071
       15
1005
130FC3
  0
CIRCLE
  5
130FC4
  8
OBJECT
 10
2000.0
 20
-3174.9999999999959
 30
0.0
 40
70.0
1001
ACDBBLOCKREPETAG
1070
     1
1071
       16
1005
130FC4
  0
CIRCLE
  5
130FC5
  8
OBJECT
 10
2000.0
 20
-3174.9999999999959
 30
0.0
 40
77.0
1001
ACDBBLOCKREPETAG
1070
     1
1071
       17
1005
130FC5
  0
ARC
  5
130FC6
  8
OBJECT
 10
2000.0
 20
-3174.9999999999959
 30
0.0
 40
80.0
 50
50.805032573862128
 51
309.19496742613791
1001
ACDBBLOCKREPETAG
1070
     1
1071
       18
1005
130FC6
  0
LINE
  5
130FC7
  8
OBJECT
 10
2045.6618002273251
 20
-3112.9999999999959
 30
0.0
 11
2080.0
 21
-3112.9999999999959
 31
0.0
1001
ACDBBLOCKREPETAG
1070
     1
1071
       19
1005
130FC7
  0
LINE
  5
130FC8
  8
OBJECT
 10
2045.6618002273251
 20
-3236.9999999999959
 30
0.0
 11
2080.0
 21
-3236.9999999999959
 31
0.0
1001
ACDBBLOCKREPETAG
1070
     1
1071
       20
1005
130FC8
  0
POINT
  5
130FC9
  8
DOTS
 10
2000.0
 20
-3174.9999999999959
 30
0.0
1001
ACDBBLOCKREPETAG
1070
     1
1071
       21
1005
130FC9
  0
LINE
  5
130FCA
  8
SLIM
 10
3945.2566704261012
 20
-137.99999999999909
 30
0.0
 11
3955.9548403695781
 21
-127.30183005652231
 31
0.0
1001
GRADIENTCOLOR1ACI
1070
     5
1001
GRADIENTCOLOR2ACI
1070
     2
1001
ACAD
1010
0.0
1020
0.0
1030
0.0
1001
ACDBBLOCKREPETAG
1070
     1
1071
      422
1005
130FCA
  0
LINE
  5
130FCB
  8
SLIM
 10
3954.2369265471712
 20
-137.99999999999909
 30
0.0
 11
3972.7507744763329
 21
-119.4861520708364
 31
0.0
1001
GRADIENTCOLOR1ACI
1070
     5
1001
GRADIENTCOLOR2ACI
1070
     2
1001
ACAD
1010
0.0
1020
0.0
1030
0.0
1001
ACDBBLOCKREPETAG
1070
     1
1071
      423
1005
130FCB
  0
LINE
  5
130FCC
  8
SLIM
 10
3973.521224312457
 20
-127.6959583557812
 30
0.0
 11
3984.8575146748631
 21
-116.359667993377
 31
0.0
1001
GRADIENTCOLOR1ACI
1070
     5
1001
GRADIENTCOLOR2ACI
1070
     2
1001
ACAD
1010
0.0
1020
0.0
1030
0.0
1001
ACDBBLOCKREPETAG
1070
     1
1071
      424
1005
130FCC
  0
LINE
  5
130FCD
  8
SLIM
 10
3985.8944171461271
 20
-124.30302164318159
 30
0.0
 11
3995.0533812002559
 21
-115.1440575890517
 31
0.0
1001
GRADIENTCOLOR1ACI
1070
     5
1001
GRADIENTCOLOR2ACI
1070
     2
1001
ACAD
1010
0.0
1020
0.0
1030
0.0
1001
ACDBBLOCKREPETAG
1070
     1
1071
      425
1005
130FCD
  0
LINE
  5
130FCE
  8
SLIM
 10
3996.0777327492078
 20
-123.0999621611699
 30
0.0
 11
4000.0
 21
-119.1776949103767
 31
0.0
1001
GRADIENTCOLOR1ACI
1070
     5
1001
GRADIENTCOLOR2ACI
1070
     2
1001
ACAD
1010
0.0
1020
0.0
1030
0.0
1001
ACDBBLOCKREPETAG
1070
     1
1071
      426
1005
130FCE
  0
LINE
  5
130FCF
  8
SLIM
 10
4000.0
 20
-119.1776949103767
 30
0.0
 11
4004.0797313529042
 21
-115.0979635574724
 31
0.0
1001
GRADIENTCOLOR1ACI
1070
     5
1001
GRADIENTCOLOR2ACI
1070
     2
1001
ACAD
1010
0.0
1020
0.0
1030
0.0
1001
ACDBBLOCKREPETAG
1070
     1
1071
      427
1005
130FCF
  0
LINE
  5
130FD0
  8
SLIM
 10
4004.9957202542769
 20
-123.1622307771683
 30
0.0
 11
4012.2679784105749
 21
-115.88997262087101
 31
0.0
1001
GRADIENTCOLOR1ACI
1070
     5
1001
GRADIENTCOLOR2ACI
1070
     2
1001
ACAD
1010
0.0
1020
0.0
1030
0.0
1001
ACDBBLOCKREPETAG
1070
     1
1071
      428
1005
130FD0
  0
LINE
  5
130FD1
  8
SLIM
 10
4013.028059366964
 20
-124.1101477855505
 30
0.0
 11
4019.799941457361
 21
-117.3382656951526
 31
0.0
1001
GRADIENTCOLOR1ACI
1070
     5
1001
GRADIENTCOLOR2ACI
1070
     2
1001
ACAD
1010
0.0
1020
0.0
1030
0.0
1001
ACDBBLOCKREPETAG
1070
     1
1071
      429
1005
130FD1
  0
LINE
  5
130FD2
  8
SLIM
 10
4020.3740813142458
 20
-125.7443819593383
 30
0.0
 11
4026.7872038672799
 21
-119.3312594063044
 31
0.0
1001
GRADIENTCOLOR1ACI
1070
     5
1001
GRADIENTCOLOR2ACI
1070
     2
1001
ACAD
1010
0.0
1020
0.0
1030
0.0
1001
ACDBBLOCKREPETAG
1070
     1
1071
      430
1005
130FD2
  0
LINE
  5
130FD3
  8
SLIM
 10
4027.1524719988752
 20
-127.946247395778
 30
0.0
 11
4033.3030030760328
 21
-121.7957163186195
 31
0.0
1001
GRADIENTCOLOR1ACI
1070
     5
1001
GRADIENTCOLOR2ACI
1070
     2
1001
ACAD
1010
0.0
1020
0.0
1030
0.0
1001
ACDBBLOCKREPETAG
1070
     1
1071
      431
1005
130FD3
  0
LINE
  5
130FD4
  8
SLIM
 10
4033.4390986513308
 20
-130.63987686439191
 30
0.0
 11
4039.3973119843781
 21
-124.6816635313439
 31
0.0
1001
GRADIENTCOLOR1ACI
1070
     5
1001
GRADIENTCOLOR2ACI
1070
     2
1001
ACAD
1010
0.0
1020
0.0
1030
0.0
1001
ACDBBLOCKREPETAG
1070
     1
1071
      432
1005
130FD4
  0
LINE
  5
130FD5
  8
SLIM
 10
4039.284224621797
 20
-133.77500701499321
 30
0.0
 11
4045.1047705343681
 21
-127.95446110242381
 31
0.0
1001
GRADIENTCOLOR1ACI
1070
     5
1001
GRADIENTCOLOR2ACI
1070
     2
1001
ACAD
1010
0.0
1020
0.0
1030
0.0
1001
ACDBBLOCKREPETAG
1070
     1
1071
      433
1005
130FD5
  0
LINE
  5
130FD6
  8
SLIM
 10
4044.7212801698038
 20
-137.31820758805651
 30
0.0
 11
4050.4491557891961
 21
-131.59033196866449
 31
0.0
1001
GRADIENTCOLOR1ACI
1070
     5
1001
GRADIENTCOLOR2ACI
1070
     2
1001
ACAD
1010
0.0
1020
0.0
1030
0.0
1001
ACDBBLOCKREPETAG
1070
     1
1071
      434
1005
130FD6
  0
LINE
  5
130FD7
  8
SLIM
 10
4053.0197438789291
 20
-137.99999999999909
 30
0.0
 11
4055.4459941864038
 21
-135.57374969252561
 31
0.0
1001
GRADIENTCOLOR1ACI
1070
     5
1001
GRADIENTCOLOR2ACI
1070
     2
1001
ACAD
1010
0.0
1020
0.0
1030
0.0
1001
ACDBBLOCKREPETAG
1070
     1
1071
      435
1005
130FD7
  0
LINE
  5
130FD8
  8
CENTER
 10
4000.0
 20
-279.99999999999909
 30
0.0
 11
4000.0
 21
-99.999999999999091
 31
0.0
1001
ACDBBLOCKREPETAG
1070
     1
1071
      160
1005
130FD8
  0
CIRCLE
  5
130FD9
  8
OBJECT
 10
4000.0
 20
-199.99999999999909
 30
0.0
 40
70.0
1001
ACDBBLOCKREPETAG
1070
     1
1071
      161
1005
130FD9
  0
CIRCLE
  5
130FDA
  8
OBJECT
 10
4000.0
 20
-199.99999999999909
 30
0.0
 40
77.0
1001
ACDBBLOCKREPETAG
1070
     1
1071
      162
1005
130FDA
  0
LINE
  5
130FDB
  8
OBJECT
 10
4045.661800227324
 20
-137.99999999999909
 30
0.0
 11
4080.0
 21
-137.99999999999909
 31
0.0
1001
ACDBBLOCKREPETAG
1070
     1
1071
      164
1005
130FDB
  0
LINE
  5
130FDC
  8
OBJECT
 10
4062.0
 20
-261.99999999999909
 30
0.0
 11
4080.0
 21
-261.99999999999909
 31
0.0
1001
ACDBBLOCKREPETAG
1070
     1
1071
      165
1005
130FDC
  0
LINE
  5
130FDD
  8
OBJECT
 10
4062.0
 20
-261.99999999999909
 30
0.0
 11
4062.0
 21
-279.99999999999909
 31
0.0
1001
ACDBBLOCKREPETAG
1070
     1
1071
      167
1005
130FDD
  0
LINE
  5
130FDE
  8
OBJECT
 10
3938.0
 20
-261.99999999999909
 30
0.0
 11
3938.0
 21
-279.99999999999909
 31
0.0
1001
ACDBBLOCKREPETAG
1070
     1
1071
      168
1005
130FDE
  0
LINE
  5
130FDF
  8
OBJECT
 10
3938.0
 20
-261.99999999999909
 30
0.0
 11
3920.0
 21
-261.99999999999909
 31
0.0
1001
ACDBBLOCKREPETAG
1070
     1
1071
      170
1005
130FDF
  0
LINE
  5
130FE0
  8
OBJECT
 10
3954.338199772676
 20
-137.99999999999909
 30
0.0
 11
3920.0
 21
-137.99999999999909
 31
0.0
1001
ACDBBLOCKREPETAG
1070
     1
1071
      171
1005
130FE0
  0
LINE
  5
130FE1
  8
OBJECT
 10
3945.5527778486362
 20
-254.44722215136329
 30
0.0
 11
3938.0
 21
-261.99999999999909
 31
0.0
1001
ACDBBLOCKREPETAG
1070
     1
1071
      180
1005
130FE1
  0
LINE
  5
130FE2
  8
OBJECT
 10
4054.4472221513638
 20
-254.44722215136329
 30
0.0
 11
4062.0
 21
-261.99999999999909
 31
0.0
1001
ACDBBLOCKREPETAG
1070
     1
1071
      181
1005
130FE2
  0
POINT
  5
130FE3
  8
DOTS
 10
4000.0
 20
-199.99999999999909
 30
0.0
 50
270.0
1001
ACDBBLOCKREPETAG
1070
     1
1071
      182
1005
130FE3
  0
ARC
  5
130FE4
  8
OBJECT
 10
4000.0
 20
-199.99999999999909
 30
0.0
 40
85.0
 50
46.837102859806208
 51
133.16289714019371
1001
ACDBBLOCKREPETAG
1070
     1
1071
      183
1005
130FE4
  0
CIRCLE
  5
130FE5
  8
OBJECT
 10
4000.0
 20
-199.99999999999909
 30
0.0
 40
53.5
1001
ACDBBLOCKREPETAG
1070
     1
1071
      352
1005
130FE5
  0
LINE
  5
130FE6
  8
CENTER
 10
4080.0
 20
-199.99999999999909
 30
0.0
 11
3920.0
 21
-199.99999999999909
 31
0.0
1001
ACDBBLOCKREPETAG
1070
     1
1071
      158
1005
130FE6
  0
CIRCLE
  5
130FE7
  8
OBJECT
 10
2000.0
 20
-199.99999999999909
 30
0.0
 40
53.5
1001
ACDBBLOCKREPETAG
1070
     1
1071
      340
1005
130FE7
  0
LINE
  5
130FE8
  8
CENTER
 10
2080.0
 20
-199.99999999999909
 30
0.0
 11
1920.0
 21
-199.99999999999909
 31
0.0
1001
ACDBBLOCKREPETAG
1070
     1
1071
       49
1005
130FE8
  0
LINE
  5
130FE9
  8
CENTER
 10
2000.0
 20
-279.99999999999909
 30
0.0
 11
2000.0
 21
-104.9999999999991
 31
0.0
1001
ACDBBLOCKREPETAG
1070
     1
1071
       50
1005
130FE9
  0
CIRCLE
  5
130FEA
  8
OBJECT
 10
2000.0
 20
-199.99999999999909
 30
0.0
 40
70.0
1001
ACDBBLOCKREPETAG
1070
     1
1071
       51
1005
130FEA
  0
CIRCLE
  5
130FEB
  8
OBJECT
 10
2000.0
 20
-199.99999999999909
 30
0.0
 40
77.0
1001
ACDBBLOCKREPETAG
1070
     1
1071
       52
1005
130FEB
  0
ARC
  5
130FEC
  8
OBJECT
 10
2000.0
 20
-199.99999999999909
 30
0.0
 40
80.0
 50
50.805032573864182
 51
129.1949674261358
1001
ACDBBLOCKREPETAG
1070
     1
1071
       53
1005
130FEC
  0
LINE
  5
130FED
  8
OBJECT
 10
2045.6618002273251
 20
-137.99999999999909
 30
0.0
 11
2080.0
 21
-137.99999999999909
 31
0.0
1001
ACDBBLOCKREPETAG
1070
     1
1071
       54
1005
130FED
  0
LINE
  5
130FEE
  8
OBJECT
 10
2062.0
 20
-261.99999999999909
 30
0.0
 11
2080.0
 21
-261.99999999999909
 31
0.0
1001
ACDBBLOCKREPETAG
1070
     1
1071
       55
1005
130FEE
  0
LINE
  5
130FEF
  8
OBJECT
 10
2062.0
 20
-261.99999999999909
 30
0.0
 11
2062.0
 21
-279.99999999999909
 31
0.0
1001
ACDBBLOCKREPETAG
1070
     1
1071
       57
1005
130FEF
  0
LINE
  5
130FF0
  8
OBJECT
 10
1938.0
 20
-261.99999999999909
 30
0.0
 11
1938.0
 21
-279.99999999999909
 31
0.0
1001
ACDBBLOCKREPETAG
1070
     1
1071
       58
1005
130FF0
  0
POINT
  5
130FF1
  8
DOTS
 10
2000.0
 20
-199.99999999999909
 30
0.0
 50
90.0
1001
ACDBBLOCKREPETAG
1070
     1
1071
       59
1005
130FF1
  0
LINE
  5
130FF2
  8
OBJECT
 10
1938.0
 20
-261.99999999999909
 30
0.0
 11
1920.0
 21
-261.99999999999909
 31
0.0
1001
ACDBBLOCKREPETAG
1070
     1
1071
       60
1005
130FF2
  0
LINE
  5
130FF3
  8
OBJECT
 10
1954.3381997726749
 20
-137.99999999999909
 30
0.0
 11
1920.0
 21
-137.99999999999909
 31
0.0
1001
ACDBBLOCKREPETAG
1070
     1
1071
       61
1005
130FF3
  0
LINE
  5
130FF4
  8
OBJECT
 10
1945.5527778486351
 20
-254.44722215136329
 30
0.0
 11
1938.0
 21
-261.99999999999909
 31
0.0
1001
ACDBBLOCKREPETAG
1070
     1
1071
       42
1005
130FF4
  0
LINE
  5
130FF5
  8
OBJECT
 10
2054.4472221513638
 20
-254.44722215136329
 30
0.0
 11
2062.0
 21
-261.99999999999909
 31
0.0
1001
ACDBBLOCKREPETAG
1070
     1
1071
       43
1005
130FF5
  0
CIRCLE
  5
130FF6
  8
OBJECT
 10
535.99999999987813
 20
-2051.999999999367
 30
0.0
 40
70.0
1001
ACDBBLOCKREPETAG
1070
     1
1071
       43
1005
130FF6
  0
CIRCLE
  5
130FF7
  8
OBJECT
 10
535.99999999987813
 20
-2051.999999999367
 30
0.0
 40
77.0
1001
ACDBBLOCKREPETAG
1070
     1
1071
       44
1005
130FF7
  0
ARC
  5
130FF8
  8
OBJECT
 10
535.99999999987813
 20
-2051.999999999367
 30
0.0
 40
80.0
 50
140.80503257378879
 51
219.19496742621121
1001
ACDBBLOCKREPETAG
1070
     1
1071
       45
1005
130FF8
  0
LINE
  5
130FF9
  8
OBJECT
 10
473.99999999987801
 20
-2006.338199772043
 30
0.0
 11
473.99999999987801
 21
-1971.999999999367
 31
0.0
1001
ACDBBLOCKREPETAG
1070
     1
1071
       46
1005
130FF9
  0
LINE
  5
130FFA
  8
OBJECT
 10
597.99999999987813
 20
-1989.999999999367
 30
0.0
 11
597.99999999987813
 21
-1971.999999999367
 31
0.0
1001
ACDBBLOCKREPETAG
1070
     1
1071
       22
1005
130FFA
  0
LINE
  5
130FFB
  8
OBJECT
 10
597.99999999987813
 20
-1989.999999999367
 30
0.0
 11
615.99999999987813
 21
-1989.999999999367
 31
0.0
1001
ACDBBLOCKREPETAG
1070
     1
1071
       24
1005
130FFB
  0
LINE
  5
130FFC
  8
OBJECT
 10
597.99999999987813
 20
-2113.999999999367
 30
0.0
 11
615.99999999987813
 21
-2113.999999999367
 31
0.0
1001
ACDBBLOCKREPETAG
1070
     1
1071
       25
1005
130FFC
  0
LINE
  5
130FFD
  8
OBJECT
 10
597.99999999987813
 20
-2113.999999999367
 30
0.0
 11
597.99999999987813
 21
-2131.999999999367
 31
0.0
1001
ACDBBLOCKREPETAG
1070
     1
1071
       27
1005
130FFD
  0
LINE
  5
130FFE
  8
OBJECT
 10
473.99999999987801
 20
-2097.6618002266919
 30
0.0
 11
473.99999999987801
 21
-2131.999999999367
 31
0.0
1001
ACDBBLOCKREPETAG
1070
     1
1071
       28
1005
130FFE
  0
LINE
  5
130FFF
  8
OBJECT
 10
590.44722215124227
 20
-2106.4472221507308
 30
0.0
 11
597.99999999987813
 21
-2113.999999999367
 31
0.0
1001
ACDBBLOCKREPETAG
1070
     1
1071
       37
1005
130FFF
  0
LINE
  5
131000
  8
OBJECT
 10
590.44722215124227
 20
-1997.552777848003
 30
0.0
 11
597.99999999987813
 21
-1989.999999999367
 31
0.0
1001
ACDBBLOCKREPETAG
1070
     1
1071
       38
1005
131000
  0
POINT
  5
131001
  8
DOTS
 10
535.99999999987813
 20
-2051.999999999367
 30
0.0
1001
ACDBBLOCKREPETAG
1070
     1
1071
       39
1005
131001
  0
CIRCLE
  5
131002
  8
OBJECT
 10
535.99999999987813
 20
-2051.999999999367
 30
0.0
 40
53.5
1001
ACDBBLOCKREPETAG
1070
     1
1071
      153
1005
131002
  0
CIRCLE
  5
131003
  8
OBJECT
 10
176.0
 20
-2051.999999999367
 30
0.0
 40
70.0
1001
ACDBBLOCKREPETAG
1070
     1
1071
       43
1005
131003
  0
CIRCLE
  5
131004
  8
OBJECT
 10
176.0
 20
-2051.999999999367
 30
0.0
 40
77.0
1001
ACDBBLOCKREPETAG
1070
     1
1071
       44
1005
131004
  0
ARC
  5
131005
  8
OBJECT
 10
176.0
 20
-2051.999999999367
 30
0.0
 40
80.0
 50
140.80503257378979
 51
219.1949674262101
1001
ACDBBLOCKREPETAG
1070
     1
1071
       45
1005
131005
  0
LINE
  5
131006
  8
OBJECT
 10
114.0
 20
-2006.338199772043
 30
0.0
 11
114.0
 21
-1971.999999999367
 31
0.0
1001
ACDBBLOCKREPETAG
1070
     1
1071
       46
1005
131006
  0
LINE
  5
131007
  8
OBJECT
 10
238.0
 20
-1989.999999999367
 30
0.0
 11
238.0
 21
-1971.999999999367
 31
0.0
1001
ACDBBLOCKREPETAG
1070
     1
1071
       22
1005
131007
  0
LINE
  5
131008
  8
OBJECT
 10
238.0
 20
-1989.999999999367
 30
0.0
 11
256.0
 21
-1989.999999999367
 31
0.0
1001
ACDBBLOCKREPETAG
1070
     1
1071
       24
1005
131008
  0
LINE
  5
131009
  8
OBJECT
 10
238.0
 20
-2113.999999999367
 30
0.0
 11
256.0
 21
-2113.999999999367
 31
0.0
1001
ACDBBLOCKREPETAG
1070
     1
1071
       25
1005
131009
  0
LINE
  5
13100A
  8
OBJECT
 10
238.0
 20
-2113.999999999367
 30
0.0
 11
238.0
 21
-2131.999999999367
 31
0.0
1001
ACDBBLOCKREPETAG
1070
     1
1071
       27
1005
13100A
  0
LINE
  5
13100B
  8
OBJECT
 10
114.0
 20
-2097.6618002266919
 30
0.0
 11
114.0
 21
-2131.999999999367
 31
0.0
1001
ACDBBLOCKREPETAG
1070
     1
1071
       28
1005
13100B
  0
LINE
  5
13100C
  8
OBJECT
 10
230.44722215136429
 20
-2106.4472221507308
 30
0.0
 11
238.0
 21
-2113.999999999367
 31
0.0
1001
ACDBBLOCKREPETAG
1070
     1
1071
       37
1005
13100C
  0
LINE
  5
13100D
  8
OBJECT
 10
230.44722215136429
 20
-1997.552777848003
 30
0.0
 11
238.0
 21
-1989.999999999367
 31
0.0
1001
ACDBBLOCKREPETAG
1070
     1
1071
       38
1005
13100D
  0
POINT
  5
13100E
  8
DOTS
 10
176.0
 20
-2051.999999999367
 30
0.0
1001
ACDBBLOCKREPETAG
1070
     1
1071
       39
1005
13100E
  0
CIRCLE
  5
13100F
  8
OBJECT
 10
176.0
 20
-2051.999999999367
 30
0.0
 40
53.5
1001
ACDBBLOCKREPETAG
1070
     1
1071
      153
1005
13100F
  0
CIRCLE
  5
131010
  8
OBJECT
 10
535.99999999987813
 20
-1587.999999999525
 30
0.0
 40
70.0
1001
ACDBBLOCKREPETAG
1070
     1
1071
       43
1005
131010
  0
CIRCLE
  5
131011
  8
OBJECT
 10
535.99999999987813
 20
-1587.999999999525
 30
0.0
 40
77.0
1001
ACDBBLOCKREPETAG
1070
     1
1071
       44
1005
131011
  0
ARC
  5
131012
  8
OBJECT
 10
535.99999999987813
 20
-1587.999999999525
 30
0.0
 40
80.0
 50
140.8050325737787
 51
219.1949674262213
1001
ACDBBLOCKREPETAG
1070
     1
1071
       45
1005
131012
  0
LINE
  5
131013
  8
OBJECT
 10
473.99999999987801
 20
-1542.3381997722011
 30
0.0
 11
473.99999999987801
 21
-1507.999999999525
 31
0.0
1001
ACDBBLOCKREPETAG
1070
     1
1071
       46
1005
131013
  0
LINE
  5
131014
  8
OBJECT
 10
597.99999999987813
 20
-1525.999999999525
 30
0.0
 11
597.99999999987813
 21
-1507.999999999525
 31
0.0
1001
ACDBBLOCKREPETAG
1070
     1
1071
       22
1005
131014
  0
LINE
  5
131015
  8
OBJECT
 10
597.99999999987813
 20
-1525.999999999525
 30
0.0
 11
615.99999999987813
 21
-1525.999999999525
 31
0.0
1001
ACDBBLOCKREPETAG
1070
     1
1071
       24
1005
131015
  0
LINE
  5
131016
  8
OBJECT
 10
597.99999999987813
 20
-1649.999999999525
 30
0.0
 11
615.99999999987813
 21
-1649.999999999525
 31
0.0
1001
ACDBBLOCKREPETAG
1070
     1
1071
       25
1005
131016
  0
LINE
  5
131017
  8
OBJECT
 10
597.99999999987813
 20
-1649.999999999525
 30
0.0
 11
597.99999999987813
 21
-1667.999999999525
 31
0.0
1001
ACDBBLOCKREPETAG
1070
     1
1071
       27
1005
131017
  0
LINE
  5
131018
  8
OBJECT
 10
473.99999999987801
 20
-1633.6618002268499
 30
0.0
 11
473.99999999987801
 21
-1667.999999999525
 31
0.0
1001
ACDBBLOCKREPETAG
1070
     1
1071
       28
1005
131018
  0
LINE
  5
131019
  8
OBJECT
 10
590.44722215124227
 20
-1642.447222150889
 30
0.0
 11
597.99999999987813
 21
-1649.999999999525
 31
0.0
1001
ACDBBLOCKREPETAG
1070
     1
1071
       37
1005
131019
  0
LINE
  5
13101A
  8
OBJECT
 10
590.44722215124227
 20
-1533.552777848161
 30
0.0
 11
597.99999999987813
 21
-1525.999999999525
 31
0.0
1001
ACDBBLOCKREPETAG
1070
     1
1071
       38
1005
13101A
  0
POINT
  5
13101B
  8
DOTS
 10
535.99999999987813
 20
-1587.999999999525
 30
0.0
1001
ACDBBLOCKREPETAG
1070
     1
1071
       39
1005
13101B
  0
CIRCLE
  5
13101C
  8
OBJECT
 10
535.99999999987813
 20
-1587.999999999525
 30
0.0
 40
53.5
1001
ACDBBLOCKREPETAG
1070
     1
1071
      153
1005
13101C
  0
CIRCLE
  5
13101D
  8
OBJECT
 10
176.0
 20
-1587.999999999525
 30
0.0
 40
70.0
1001
ACDBBLOCKREPETAG
1070
     1
1071
       43
1005
13101D
  0
CIRCLE
  5
13101E
  8
OBJECT
 10
176.0
 20
-1587.999999999525
 30
0.0
 40
77.0
1001
ACDBBLOCKREPETAG
1070
     1
1071
       44
1005
13101E
  0
ARC
  5
13101F
  8
OBJECT
 10
176.0
 20
-1587.999999999525
 30
0.0
 40
80.0
 50
140.80503257377961
 51
219.1949674262203
1001
ACDBBLOCKREPETAG
1070
     1
1071
       45
1005
13101F
  0
LINE
  5
131020
  8
OBJECT
 10
114.0
 20
-1542.3381997722011
 30
0.0
 11
114.0
 21
-1507.999999999525
 31
0.0
1001
ACDBBLOCKREPETAG
1070
     1
1071
       46
1005
131020
  0
LINE
  5
131021
  8
OBJECT
 10
238.0
 20
-1525.999999999525
 30
0.0
 11
238.0
 21
-1507.999999999525
 31
0.0
1001
ACDBBLOCKREPETAG
1070
     1
1071
       22
1005
131021
  0
LINE
  5
131022
  8
OBJECT
 10
238.0
 20
-1525.999999999525
 30
0.0
 11
256.0
 21
-1525.999999999525
 31
0.0
1001
ACDBBLOCKREPETAG
1070
     1
1071
       24
1005
131022
  0
LINE
  5
131023
  8
OBJECT
 10
238.0
 20
-1649.999999999525
 30
0.0
 11
256.0
 21
-1649.999999999525
 31
0.0
1001
ACDBBLOCKREPETAG
1070
     1
1071
       25
1005
131023
  0
LINE
  5
131024
  8
OBJECT
 10
238.0
 20
-1649.999999999525
 30
0.0
 11
238.0
 21
-1667.999999999525
 31
0.0
1001
ACDBBLOCKREPETAG
1070
     1
1071
       27
1005
131024
  0
LINE
  5
131025
  8
OBJECT
 10
114.0
 20
-1633.6618002268499
 30
0.0
 11
114.0
 21
-1667.999999999525
 31
0.0
1001
ACDBBLOCKREPETAG
1070
     1
1071
       28
1005
131025
  0
LINE
  5
131026
  8
OBJECT
 10
230.44722215136429
 20
-1642.447222150889
 30
0.0
 11
238.0
 21
-1649.999999999525
 31
0.0
1001
ACDBBLOCKREPETAG
1070
     1
1071
       37
1005
131026
  0
LINE
  5
131027
  8
OBJECT
 10
230.44722215136429
 20
-1533.552777848161
 30
0.0
 11
238.0
 21
-1525.999999999525
 31
0.0
1001
ACDBBLOCKREPETAG
1070
     1
1071
       38
1005
131027
  0
POINT
  5
131028
  8
DOTS
 10
176.0
 20
-1587.999999999525
 30
0.0
1001
ACDBBLOCKREPETAG
1070
     1
1071
       39
1005
131028
  0
CIRCLE
  5
131029
  8
OBJECT
 10
176.0
 20
-1587.999999999525
 30
0.0
 40
53.5
1001
ACDBBLOCKREPETAG
1070
     1
1071
      153
1005
131029
  0
CIRCLE
  5
13102A
  8
OBJECT
 10
535.99999999987813
 20
-1123.999999999684
 30
0.0
 40
70.0
1001
ACDBBLOCKREPETAG
1070
     1
1071
       43
1005
13102A
  0
CIRCLE
  5
13102B
  8
OBJECT
 10
535.99999999987813
 20
-1123.999999999684
 30
0.0
 40
77.0
1001
ACDBBLOCKREPETAG
1070
     1
1071
       44
1005
13102B
  0
ARC
  5
13102C
  8
OBJECT
 10
535.99999999987813
 20
-1123.999999999684
 30
0.0
 40
80.0
 50
140.8050325737787
 51
219.1949674262213
1001
ACDBBLOCKREPETAG
1070
     1
1071
       45
1005
13102C
  0
LINE
  5
13102D
  8
OBJECT
 10
473.99999999987801
 20
-1078.3381997723591
 30
0.0
 11
473.99999999987801
 21
-1043.999999999684
 31
0.0
1001
ACDBBLOCKREPETAG
1070
     1
1071
       46
1005
13102D
  0
LINE
  5
13102E
  8
OBJECT
 10
597.99999999987813
 20
-1061.999999999684
 30
0.0
 11
597.99999999987813
 21
-1043.999999999684
 31
0.0
1001
ACDBBLOCKREPETAG
1070
     1
1071
       22
1005
13102E
  0
LINE
  5
13102F
  8
OBJECT
 10
597.99999999987813
 20
-1061.999999999684
 30
0.0
 11
615.99999999987813
 21
-1061.999999999684
 31
0.0
1001
ACDBBLOCKREPETAG
1070
     1
1071
       24
1005
13102F
  0
LINE
  5
131030
  8
OBJECT
 10
597.99999999987813
 20
-1185.999999999683
 30
0.0
 11
615.99999999987813
 21
-1185.999999999683
 31
0.0
1001
ACDBBLOCKREPETAG
1070
     1
1071
       25
1005
131030
  0
LINE
  5
131031
  8
OBJECT
 10
597.99999999987813
 20
-1185.999999999683
 30
0.0
 11
597.99999999987813
 21
-1203.999999999683
 31
0.0
1001
ACDBBLOCKREPETAG
1070
     1
1071
       27
1005
131031
  0
LINE
  5
131032
  8
OBJECT
 10
473.99999999987801
 20
-1169.6618002270079
 30
0.0
 11
473.99999999987801
 21
-1203.999999999683
 31
0.0
1001
ACDBBLOCKREPETAG
1070
     1
1071
       28
1005
131032
  0
LINE
  5
131033
  8
OBJECT
 10
590.44722215124227
 20
-1178.447222151048
 30
0.0
 11
597.99999999987813
 21
-1185.999999999683
 31
0.0
1001
ACDBBLOCKREPETAG
1070
     1
1071
       37
1005
131033
  0
LINE
  5
131034
  8
OBJECT
 10
590.44722215124227
 20
-1069.552777848319
 30
0.0
 11
597.99999999987813
 21
-1061.999999999684
 31
0.0
1001
ACDBBLOCKREPETAG
1070
     1
1071
       38
1005
131034
  0
POINT
  5
131035
  8
DOTS
 10
535.99999999987813
 20
-1123.999999999684
 30
0.0
1001
ACDBBLOCKREPETAG
1070
     1
1071
       39
1005
131035
  0
CIRCLE
  5
131036
  8
OBJECT
 10
535.99999999987813
 20
-1123.999999999684
 30
0.0
 40
53.5
1001
ACDBBLOCKREPETAG
1070
     1
1071
      153
1005
131036
  0
CIRCLE
  5
131037
  8
OBJECT
 10
175.9999999999998
 20
-1123.999999999684
 30
0.0
 40
70.0
1001
ACDBBLOCKREPETAG
1070
     1
1071
       43
1005
131037
  0
CIRCLE
  5
131038
  8
OBJECT
 10
175.9999999999998
 20
-1123.999999999684
 30
0.0
 40
77.0
1001
ACDBBLOCKREPETAG
1070
     1
1071
       44
1005
131038
  0
ARC
  5
131039
  8
OBJECT
 10
175.9999999999998
 20
-1123.999999999684
 30
0.0
 40
80.0
 50
140.80503257377961
 51
219.1949674262203
1001
ACDBBLOCKREPETAG
1070
     1
1071
       45
1005
131039
  0
LINE
  5
13103A
  8
OBJECT
 10
113.9999999999998
 20
-1078.3381997723591
 30
0.0
 11
113.9999999999998
 21
-1043.999999999684
 31
0.0
1001
ACDBBLOCKREPETAG
1070
     1
1071
       46
1005
13103A
  0
LINE
  5
13103B
  8
OBJECT
 10
237.99999999999989
 20
-1061.999999999684
 30
0.0
 11
237.99999999999989
 21
-1043.999999999684
 31
0.0
1001
ACDBBLOCKREPETAG
1070
     1
1071
       22
1005
13103B
  0
LINE
  5
13103C
  8
OBJECT
 10
237.99999999999989
 20
-1061.999999999684
 30
0.0
 11
255.9999999999998
 21
-1061.999999999684
 31
0.0
1001
ACDBBLOCKREPETAG
1070
     1
1071
       24
1005
13103C
  0
LINE
  5
13103D
  8
OBJECT
 10
237.99999999999989
 20
-1185.999999999684
 30
0.0
 11
255.9999999999998
 21
-1185.999999999684
 31
0.0
1001
ACDBBLOCKREPETAG
1070
     1
1071
       25
1005
13103D
  0
LINE
  5
13103E
  8
OBJECT
 10
237.99999999999989
 20
-1185.999999999684
 30
0.0
 11
237.99999999999989
 21
-1203.999999999684
 31
0.0
1001
ACDBBLOCKREPETAG
1070
     1
1071
       27
1005
13103E
  0
LINE
  5
13103F
  8
OBJECT
 10
113.9999999999998
 20
-1169.6618002270079
 30
0.0
 11
113.9999999999998
 21
-1203.999999999684
 31
0.0
1001
ACDBBLOCKREPETAG
1070
     1
1071
       28
1005
13103F
  0
LINE
  5
131040
  8
OBJECT
 10
230.44722215136409
 20
-1178.447222151048
 30
0.0
 11
237.99999999999989
 21
-1185.999999999684
 31
0.0
1001
ACDBBLOCKREPETAG
1070
     1
1071
       37
1005
131040
  0
LINE
  5
131041
  8
OBJECT
 10
230.44722215136409
 20
-1069.552777848319
 30
0.0
 11
237.99999999999989
 21
-1061.999999999684
 31
0.0
1001
ACDBBLOCKREPETAG
1070
     1
1071
       38
1005
131041
  0
POINT
  5
131042
  8
DOTS
 10
175.9999999999998
 20
-1123.999999999684
 30
0.0
1001
ACDBBLOCKREPETAG
1070
     1
1071
       39
1005
131042
  0
CIRCLE
  5
131043
  8
OBJECT
 10
175.9999999999998
 20
-1123.999999999684
 30
0.0
 40
53.5
1001
ACDBBLOCKREPETAG
1070
     1
1071
      153
1005
131043
  0
CIRCLE
  5
131044
  8
OBJECT
 10
535.99999999987813
 20
-659.99999999984175
 30
0.0
 40
70.0
1001
ACDBBLOCKREPETAG
1070
     1
1071
       43
1005
131044
  0
CIRCLE
  5
131045
  8
OBJECT
 10
535.99999999987813
 20
-659.99999999984175
 30
0.0
 40
77.0
1001
ACDBBLOCKREPETAG
1070
     1
1071
       44
1005
131045
  0
ARC
  5
131046
  8
OBJECT
 10
535.99999999987813
 20
-659.99999999984175
 30
0.0
 40
80.0
 50
140.8050325737787
 51
219.1949674262213
1001
ACDBBLOCKREPETAG
1070
     1
1071
       45
1005
131046
  0
LINE
  5
131047
  8
OBJECT
 10
473.99999999987801
 20
-614.33819977251721
 30
0.0
 11
473.99999999987801
 21
-579.99999999984175
 31
0.0
1001
ACDBBLOCKREPETAG
1070
     1
1071
       46
1005
131047
  0
LINE
  5
131048
  8
OBJECT
 10
597.99999999987813
 20
-597.99999999984175
 30
0.0
 11
597.99999999987813
 21
-579.99999999984175
 31
0.0
1001
ACDBBLOCKREPETAG
1070
     1
1071
       22
1005
131048
  0
LINE
  5
131049
  8
OBJECT
 10
597.99999999987813
 20
-597.99999999984175
 30
0.0
 11
615.99999999987813
 21
-597.99999999984175
 31
0.0
1001
ACDBBLOCKREPETAG
1070
     1
1071
       24
1005
131049
  0
LINE
  5
13104A
  8
OBJECT
 10
597.99999999987813
 20
-721.99999999984175
 30
0.0
 11
615.99999999987813
 21
-721.99999999984175
 31
0.0
1001
ACDBBLOCKREPETAG
1070
     1
1071
       25
1005
13104A
  0
LINE
  5
13104B
  8
OBJECT
 10
597.99999999987813
 20
-721.99999999984175
 30
0.0
 11
597.99999999987813
 21
-739.99999999984175
 31
0.0
1001
ACDBBLOCKREPETAG
1070
     1
1071
       27
1005
13104B
  0
LINE
  5
13104C
  8
OBJECT
 10
473.99999999987801
 20
-705.66180022716617
 30
0.0
 11
473.99999999987801
 21
-739.99999999984175
 31
0.0
1001
ACDBBLOCKREPETAG
1070
     1
1071
       28
1005
13104C
  0
LINE
  5
13104D
  8
OBJECT
 10
590.44722215124227
 20
-714.44722215120601
 30
0.0
 11
597.99999999987813
 21
-721.99999999984175
 31
0.0
1001
ACDBBLOCKREPETAG
1070
     1
1071
       37
1005
13104D
  0
LINE
  5
13104E
  8
OBJECT
 10
590.44722215124227
 20
-605.55277784847738
 30
0.0
 11
597.99999999987813
 21
-597.99999999984175
 31
0.0
1001
ACDBBLOCKREPETAG
1070
     1
1071
       38
1005
13104E
  0
POINT
  5
13104F
  8
DOTS
 10
535.99999999987813
 20
-659.99999999984175
 30
0.0
1001
ACDBBLOCKREPETAG
1070
     1
1071
       39
1005
13104F
  0
CIRCLE
  5
131050
  8
OBJECT
 10
535.99999999987813
 20
-659.99999999984175
 30
0.0
 40
53.5
1001
ACDBBLOCKREPETAG
1070
     1
1071
      153
1005
131050
  0
CIRCLE
  5
131051
  8
OBJECT
 10
176.0
 20
-659.99999999984175
 30
0.0
 40
70.0
1001
ACDBBLOCKREPETAG
1070
     1
1071
       43
1005
131051
  0
CIRCLE
  5
131052
  8
OBJECT
 10
176.0
 20
-659.99999999984175
 30
0.0
 40
77.0
1001
ACDBBLOCKREPETAG
1070
     1
1071
       44
1005
131052
  0
ARC
  5
131053
  8
OBJECT
 10
176.0
 20
-659.99999999984175
 30
0.0
 40
80.0
 50
140.80503257377961
 51
219.1949674262203
1001
ACDBBLOCKREPETAG
1070
     1
1071
       45
1005
131053
  0
LINE
  5
131054
  8
OBJECT
 10
114.0
 20
-614.33819977251721
 30
0.0
 11
114.0
 21
-579.99999999984175
 31
0.0
1001
ACDBBLOCKREPETAG
1070
     1
1071
       46
1005
131054
  0
LINE
  5
131055
  8
OBJECT
 10
238.0
 20
-597.99999999984175
 30
0.0
 11
238.0
 21
-579.99999999984175
 31
0.0
1001
ACDBBLOCKREPETAG
1070
     1
1071
       22
1005
131055
  0
LINE
  5
131056
  8
OBJECT
 10
238.0
 20
-597.99999999984175
 30
0.0
 11
256.0
 21
-597.99999999984175
 31
0.0
1001
ACDBBLOCKREPETAG
1070
     1
1071
       24
1005
131056
  0
LINE
  5
131057
  8
OBJECT
 10
238.0
 20
-721.99999999984175
 30
0.0
 11
256.0
 21
-721.99999999984175
 31
0.0
1001
ACDBBLOCKREPETAG
1070
     1
1071
       25
1005
131057
  0
LINE
  5
131058
  8
OBJECT
 10
238.0
 20
-721.99999999984175
 30
0.0
 11
238.0
 21
-739.99999999984175
 31
0.0
1001
ACDBBLOCKREPETAG
1070
     1
1071
       27
1005
131058
  0
LINE
  5
131059
  8
OBJECT
 10
114.0
 20
-705.66180022716617
 30
0.0
 11
114.0
 21
-739.99999999984175
 31
0.0
1001
ACDBBLOCKREPETAG
1070
     1
1071
       28
1005
131059
  0
LINE
  5
13105A
  8
OBJECT
 10
230.44722215136429
 20
-714.44722215120601
 30
0.0
 11
238.0
 21
-721.99999999984175
 31
0.0
1001
ACDBBLOCKREPETAG
1070
     1
1071
       37
1005
13105A
  0
LINE
  5
13105B
  8
OBJECT
 10
230.44722215136429
 20
-605.55277784847738
 30
0.0
 11
238.0
 21
-597.99999999984175
 31
0.0
1001
ACDBBLOCKREPETAG
1070
     1
1071
       38
1005
13105B
  0
POINT
  5
13105C
  8
DOTS
 10
176.0
 20
-659.99999999984175
 30
0.0
1001
ACDBBLOCKREPETAG
1070
     1
1071
       39
1005
13105C
  0
CIRCLE
  5
13105D
  8
OBJECT
 10
176.0
 20
-659.99999999984175
 30
0.0
 40
53.5
1001
ACDBBLOCKREPETAG
1070
     1
1071
      153
1005
13105D
  0
CIRCLE
  5
13105E
  8
OBJECT
 10
535.99999999987813
 20
-196.0
 30
0.0
 40
70.0
1001
ACDBBLOCKREPETAG
1070
     1
1071
       43
1005
13105E
  0
CIRCLE
  5
13105F
  8
OBJECT
 10
535.99999999987813
 20
-196.0
 30
0.0
 40
77.0
1001
ACDBBLOCKREPETAG
1070
     1
1071
       44
1005
13105F
  0
ARC
  5
131060
  8
OBJECT
 10
535.99999999987813
 20
-196.0
 30
0.0
 40
80.0
 50
140.80503257378001
 51
219.19496742621999
1001
ACDBBLOCKREPETAG
1070
     1
1071
       45
1005
131060
  0
LINE
  5
131061
  8
OBJECT
 10
473.99999999987801
 20
-150.33819977267541
 30
0.0
 11
473.99999999987801
 21
-116.0
 31
0.0
1001
ACDBBLOCKREPETAG
1070
     1
1071
       46
1005
131061
  0
LINE
  5
131062
  8
OBJECT
 10
597.99999999987813
 20
-134.0
 30
0.0
 11
597.99999999987813
 21
-116.0
 31
0.0
1001
ACDBBLOCKREPETAG
1070
     1
1071
       22
1005
131062
  0
LINE
  5
131063
  8
OBJECT
 10
597.99999999987813
 20
-134.0
 30
0.0
 11
615.99999999987813
 21
-134.0
 31
0.0
1001
ACDBBLOCKREPETAG
1070
     1
1071
       24
1005
131063
  0
LINE
  5
131064
  8
OBJECT
 10
597.99999999987813
 20
-258.0
 30
0.0
 11
615.99999999987813
 21
-258.0
 31
0.0
1001
ACDBBLOCKREPETAG
1070
     1
1071
       25
1005
131064
  0
LINE
  5
131065
  8
OBJECT
 10
597.99999999987813
 20
-258.0
 30
0.0
 11
597.99999999987813
 21
-276.0
 31
0.0
1001
ACDBBLOCKREPETAG
1070
     1
1071
       27
1005
131065
  0
LINE
  5
131066
  8
OBJECT
 10
473.99999999987801
 20
-241.66180022732439
 30
0.0
 11
473.99999999987801
 21
-276.0
 31
0.0
1001
ACDBBLOCKREPETAG
1070
     1
1071
       28
1005
131066
  0
LINE
  5
131067
  8
OBJECT
 10
590.44722215124227
 20
-250.44722215136429
 30
0.0
 11
597.99999999987813
 21
-258.0
 31
0.0
1001
ACDBBLOCKREPETAG
1070
     1
1071
       37
1005
131067
  0
LINE
  5
131068
  8
OBJECT
 10
590.44722215124227
 20
-141.55277784863571
 30
0.0
 11
597.99999999987813
 21
-134.0
 31
0.0
1001
ACDBBLOCKREPETAG
1070
     1
1071
       38
1005
131068
  0
POINT
  5
131069
  8
DOTS
 10
535.99999999987813
 20
-196.0
 30
0.0
1001
ACDBBLOCKREPETAG
1070
     1
1071
       39
1005
131069
  0
CIRCLE
  5
13106A
  8
OBJECT
 10
535.99999999987813
 20
-196.0
 30
0.0
 40
53.5
1001
ACDBBLOCKREPETAG
1070
     1
1071
      153
1005
13106A
  0
CIRCLE
  5
13106B
  8
OBJECT
 10
176.0
 20
-196.0
 30
0.0
 40
70.0
1001
ACDBBLOCKREPETAG
1070
     1
1071
       43
1005
13106B
  0
CIRCLE
  5
13106C
  8
OBJECT
 10
176.0
 20
-196.0
 30
0.0
 40
77.0
1001
ACDBBLOCKREPETAG
1070
     1
1071
       44
1005
13106C
  0
ARC
  5
13106D
  8
OBJECT
 10
176.0
 20
-196.0
 30
0.0
 40
80.0
 50
140.80503257378101
 51
219.19496742621899
1001
ACDBBLOCKREPETAG
1070
     1
1071
       45
1005
13106D
  0
LINE
  5
13106E
  8
OBJECT
 10
114.0
 20
-150.33819977267541
 30
0.0
 11
114.0
 21
-116.0
 31
0.0
1001
ACDBBLOCKREPETAG
1070
     1
1071
       46
1005
13106E
  0
LINE
  5
13106F
  8
OBJECT
 10
238.0
 20
-134.0
 30
0.0
 11
238.0
 21
-116.0
 31
0.0
1001
ACDBBLOCKREPETAG
1070
     1
1071
       22
1005
13106F
  0
LINE
  5
131070
  8
OBJECT
 10
238.0
 20
-134.0
 30
0.0
 11
256.0
 21
-134.0
 31
0.0
1001
ACDBBLOCKREPETAG
1070
     1
1071
       24
1005
131070
  0
LINE
  5
131071
  8
OBJECT
 10
238.0
 20
-258.0
 30
0.0
 11
256.0
 21
-258.0
 31
0.0
1001
ACDBBLOCKREPETAG
1070
     1
1071
       25
1005
131071
  0
LINE
  5
131072
  8
OBJECT
 10
238.0
 20
-258.0
 30
0.0
 11
238.0
 21
-276.0
 31
0.0
1001
ACDBBLOCKREPETAG
1070
     1
1071
       27
1005
131072
  0
LINE
  5
131073
  8
OBJECT
 10
114.0
 20
-241.66180022732439
 30
0.0
 11
114.0
 21
-276.0
 31
0.0
1001
ACDBBLOCKREPETAG
1070
     1
1071
       28
1005
131073
  0
LINE
  5
131074
  8
OBJECT
 10
230.44722215136429
 20
-250.44722215136429
 30
0.0
 11
238.0
 21
-258.0
 31
0.0
1001
ACDBBLOCKREPETAG
1070
     1
1071
       37
1005
131074
  0
LINE
  5
131075
  8
OBJECT
 10
230.44722215136429
 20
-141.55277784863571
 30
0.0
 11
238.0
 21
-134.0
 31
0.0
1001
ACDBBLOCKREPETAG
1070
     1
1071
       38
1005
131075
  0
POINT
  5
131076
  8
DOTS
 10
176.0
 20
-196.0
 30
0.0
1001
ACDBBLOCKREPETAG
1070
     1
1071
       39
1005
131076
  0
CIRCLE
  5
131077
  8
OBJECT
 10
176.0
 20
-196.0
 30
0.0
 40
53.5
1001
ACDBBLOCKREPETAG
1070
     1
1071
      153
1005
131077
  0
LINE
  5
131078
  8
OBJECT
 10
3923.0
 20
-570.99999999999432
 30
0.0
 11
3923.0
 21
-549.99999999999432
 31
0.0
1001
ACDBBLOCKREPETAG
1070
     1
1071
       36
1005
131078
  0
LINE
  5
131079
  8
OBJECT
 10
3923.0
 20
-549.99999999999432
 30
0.0
 11
4077.0
 21
-549.99999999999432
 31
0.0
1001
ACDBBLOCKREPETAG
1070
     1
1071
       37
1005
131079
  0
LINE
  5
13107A
  8
HIDDEN
 10
3943.0
 20
-619.99999999999432
 30
0.0
 11
4057.0
 21
-619.99999999999432
 31
0.0
1001
ACDBBLOCKREPETAG
1070
     1
1071
       38
1005
13107A
  0
LINE
  5
13107B
  8
OBJECT
 10
4077.0
 20
-549.99999999999432
 30
0.0
 11
4077.0
 21
-570.99999999999432
 31
0.0
1001
ACDBBLOCKREPETAG
1070
     1
1071
       39
1005
13107B
  0
LINE
  5
13107C
  8
OBJECT
 10
4077.0
 20
-570.99999999999432
 30
0.0
 11
3923.0
 21
-570.99999999999432
 31
0.0
1001
ACDBBLOCKREPETAG
1070
     1
1071
       40
1005
13107C
  0
LINE
  5
13107D
  8
CENTER
 10
4000.0
 20
-534.99999999999432
 30
0.0
 11
4000.0
 21
-769.9999999999942
 31
0.0
1001
ACDBBLOCKREPETAG
1070
     1
1071
       41
1005
13107D
  0
LINE
  5
13107E
  8
OBJECT
 10
3928.0
 20
-570.99999999999432
 30
0.0
 11
3928.0
 21
-633.99999999999432
 31
0.0
1001
ACDBBLOCKREPETAG
1070
     1
1071
       42
1005
13107E
  0
LINE
  5
13107F
  8
OBJECT
 10
4072.0
 20
-633.99999999999432
 30
0.0
 11
4072.0
 21
-570.99999999999432
 31
0.0
1001
ACDBBLOCKREPETAG
1070
     1
1071
       43
1005
13107F
  0
LINE
  5
131080
  8
OBJECT
 10
3920.0
 20
-757.9999999999942
 30
0.0
 11
4080.0
 21
-757.9999999999942
 31
0.0
1001
ACDBBLOCKREPETAG
1070
     1
1071
       44
1005
131080
  0
LINE
  5
131081
  8
OBJECT
 10
4080.0
 20
-633.99999999999432
 30
0.0
 11
3920.0
 21
-633.99999999999432
 31
0.0
1001
ACDBBLOCKREPETAG
1070
     1
1071
       45
1005
131081
  0
LINE
  5
131082
  8
OBJECT
 10
3920.0
 20
-757.9999999999942
 30
0.0
 11
3920.0
 21
-769.9999999999942
 31
0.0
1001
ACDBBLOCKREPETAG
1070
     1
1071
       46
1005
131082
  0
LINE
  5
131083
  8
OBJECT
 10
3920.0
 20
-769.9999999999942
 30
0.0
 11
4080.0
 21
-769.9999999999942
 31
0.0
1001
ACDBBLOCKREPETAG
1070
     1
1071
       47
1005
131083
  0
LINE
  5
131084
  8
OBJECT
 10
4080.0
 20
-769.9999999999942
 30
0.0
 11
4080.0
 21
-757.9999999999942
 31
0.0
1001
ACDBBLOCKREPETAG
1070
     1
1071
       48
1005
131084
  0
ARC
  5
131085
  8
OBJECT
 10
4200.6872746716726
 20
-749.40809941010195
 30
0.0
 40
170.6350503965856
 50
137.44134459184301
 51
149.91949581337221
1001
ACDBBLOCKREPETAG
1070
     1
1071
       52
1005
131085
  0
ARC
  5
131086
  8
OBJECT
 10
4200.6872746716726
 20
-642.59190058988645
 30
0.0
 40
170.6350503965856
 50
210.08050418662771
 51
222.55865540815699
1001
ACDBBLOCKREPETAG
1070
     1
1071
       53
1005
131086
  0
ARC
  5
131087
  8
OBJECT
 10
3799.3127253283278
 20
-749.40809941010195
 30
0.0
 40
170.6350503965856
 50
30.080504186774089
 51
42.558655408456282
1001
ACDBBLOCKREPETAG
1070
     1
1071
       54
1005
131087
  0
ARC
  5
131088
  8
OBJECT
 10
3799.3127253283278
 20
-642.59190058988645
 30
0.0
 40
170.6350503965856
 50
317.44134459154373
 51
329.91949581322592
1001
ACDBBLOCKREPETAG
1070
     1
1071
       55
1005
131088
  0
POINT
  5
131089
  8
DOTS
 10
4000.0
 20
-754.9999999999942
 30
0.0
1001
ACDBBLOCKREPETAG
1070
     1
1071
      184
1005
131089
  0
LINE
  5
13108A
  8
OBJECT
 10
3867.0
 20
-261.99999999999909
 30
0.0
 11
3860.0
 21
-261.99999999999909
 31
0.0
1001
ACDBBLOCKREPETAG
1070
     1
1071
       47
1005
13108A
  0
LINE
  5
13108B
  8
OBJECT
 10
3860.0
 20
-261.99999999999909
 30
0.0
 11
3860.0
 21
-137.99999999999909
 31
0.0
1001
ACDBBLOCKREPETAG
1070
     1
1071
       48
1005
13108B
  0
LINE
  5
13108C
  8
OBJECT
 10
3860.0
 20
-137.99999999999909
 30
0.0
 11
3867.0
 21
-137.99999999999909
 31
0.0
1001
ACDBBLOCKREPETAG
1070
     1
1071
       49
1005
13108C
  0
LINE
  5
13108D
  8
OBJECT
 10
3867.0
 20
-137.99999999999909
 30
0.0
 11
3867.0
 21
-261.99999999999909
 31
0.0
1001
ACDBBLOCKREPETAG
1070
     1
1071
       50
1005
13108D
  0
LINE
  5
13108E
  8
CENTER
 10
3845.0
 20
-199.99999999999909
 30
0.0
 11
3920.0
 21
-199.99999999999909
 31
0.0
1001
ACDBBLOCKREPETAG
1070
     1
1071
       51
1005
13108E
  0
LINE
  5
13108F
  8
OBJECT
 10
3867.0
 20
-258.99999999999909
 30
0.0
 11
3903.0
 21
-258.99999999999909
 31
0.0
1001
ACDBBLOCKREPETAG
1070
     1
1071
       52
1005
13108F
  0
LINE
  5
131090
  8
OBJECT
 10
3903.0
 20
-258.99999999999909
 30
0.0
 11
3903.0
 21
-140.99999999999909
 31
0.0
1001
ACDBBLOCKREPETAG
1070
     1
1071
       53
1005
131090
  0
LINE
  5
131091
  8
OBJECT
 10
3903.0
 20
-140.99999999999909
 30
0.0
 11
3867.0
 21
-140.99999999999909
 31
0.0
1001
ACDBBLOCKREPETAG
1070
     1
1071
       54
1005
131091
  0
LINE
  5
131092
  8
OBJECT
 10
3907.0
 20
-254.49999999999909
 30
0.0
 11
3914.0
 21
-254.49999999999909
 31
0.0
1001
ACDBBLOCKREPETAG
1070
     1
1071
       55
1005
131092
  0
LINE
  5
131093
  8
OBJECT
 10
3914.0
 20
-145.49999999999909
 30
0.0
 11
3907.0
 21
-145.49999999999909
 31
0.0
1001
ACDBBLOCKREPETAG
1070
     1
1071
       56
1005
131093
  0
LINE
  5
131094
  8
OBJECT
 10
3907.0
 20
-145.49999999999909
 30
0.0
 11
3907.0
 21
-254.49999999999909
 31
0.0
1001
ACDBBLOCKREPETAG
1070
     1
1071
       57
1005
131094
  0
LINE
  5
131095
  8
OBJECT
 10
3903.0
 20
-258.99999999999909
 30
0.0
 11
3907.0
 21
-254.49999999999909
 31
0.0
1001
ACDBBLOCKREPETAG
1070
     1
1071
       58
1005
131095
  0
LINE
  5
131096
  8
OBJECT
 10
3903.0
 20
-140.99999999999909
 30
0.0
 11
3907.0
 21
-145.49999999999909
 31
0.0
1001
ACDBBLOCKREPETAG
1070
     1
1071
       59
1005
131096
  0
LINE
  5
131097
  8
OBJECT
 10
3917.0
 20
-261.99999999999909
 30
0.0
 11
3920.0
 21
-261.99999999999909
 31
0.0
1001
ACDBBLOCKREPETAG
1070
     1
1071
       60
1005
131097
  0
ARC
  5
131098
  8
OBJECT
 10
3917.0
 20
-258.99999999999909
 30
0.0
 40
3.0
 50
180.0
 51
270.0
1001
ACDBBLOCKREPETAG
1070
     1
1071
       61
1005
131098
  0
LINE
  5
131099
  8
OBJECT
 10
3920.0
 20
-137.99999999999909
 30
0.0
 11
3917.0
 21
-137.99999999999909
 31
0.0
1001
ACDBBLOCKREPETAG
1070
     1
1071
       62
1005
131099
  0
ARC
  5
13109A
  8
OBJECT
 10
3917.0
 20
-140.99999999999909
 30
0.0
 40
3.0
 50
90.0
 51
180.0
1001
ACDBBLOCKREPETAG
1070
     1
1071
       63
1005
13109A
  0
LINE
  5
13109B
  8
OBJECT
 10
3914.0
 20
-140.99999999999909
 30
0.0
 11
3914.0
 21
-258.99999999999909
 31
0.0
1001
ACDBBLOCKREPETAG
1070
     1
1071
       64
1005
13109B
  0
LINE
  5
13109C
  8
HIDDEN
 10
3912.0
 20
-244.49999999999909
 30
0.0
 11
3912.0
 21
-155.49999999999909
 31
0.0
1001
ACDBBLOCKREPETAG
1070
     1
1071
       65
1005
13109C
  0
LINE
  5
13109D
  8
CENTER
 10
4000.0
 20
-300.99999999999898
 30
0.0
 11
4000.0
 21
-279.99999999999909
 31
0.0
1001
ACDBBLOCKREPETAG
1070
     1
1071
        0
1005
13109D
  0
LINE
  5
13109E
  8
OBJECT
 10
4062.0
 20
-283.0
 30
0.0
 11
4062.0
 21
-279.99999999999909
 31
0.0
1001
ACDBBLOCKREPETAG
1070
     1
1071
        1
1005
13109E
  0
ARC
  5
13109F
  8
OBJECT
 10
4059.0
 20
-283.0
 30
0.0
 40
3.0
 50
270.0
 51
0.0
1001
ACDBBLOCKREPETAG
1070
     1
1071
        2
1005
13109F
  0
LINE
  5
1310A0
  8
OBJECT
 10
3938.0
 20
-279.99999999999909
 30
0.0
 11
3938.0
 21
-282.99999999999818
 31
0.0
1001
ACDBBLOCKREPETAG
1070
     1
1071
        3
1005
1310A0
  0
ARC
  5
1310A1
  8
OBJECT
 10
3941.0
 20
-282.99999999999818
 30
0.0
 40
3.0
 50
180.0
 51
270.0
1001
ACDBBLOCKREPETAG
1070
     1
1071
        4
1005
1310A1
  0
LINE
  5
1310A2
  8
OBJECT
 10
3941.0
 20
-285.99999999999818
 30
0.0
 11
4059.0
 21
-286.0
 31
0.0
1001
ACDBBLOCKREPETAG
1070
     1
1071
        5
1005
1310A2
  0
LINE
  5
1310A3
  8
OBJECT
 10
4133.0
 20
-137.99999999999909
 30
0.0
 11
4140.0
 21
-137.99999999999909
 31
0.0
1001
ACDBBLOCKREPETAG
1070
     1
1071
       47
1005
1310A3
  0
LINE
  5
1310A4
  8
OBJECT
 10
4140.0
 20
-137.99999999999909
 30
0.0
 11
4140.0
 21
-261.99999999999909
 31
0.0
1001
ACDBBLOCKREPETAG
1070
     1
1071
       48
1005
1310A4
  0
LINE
  5
1310A5
  8
OBJECT
 10
4140.0
 20
-261.99999999999909
 30
0.0
 11
4133.0
 21
-261.99999999999909
 31
0.0
1001
ACDBBLOCKREPETAG
1070
     1
1071
       49
1005
1310A5
  0
LINE
  5
1310A6
  8
OBJECT
 10
4133.0
 20
-261.99999999999909
 30
0.0
 11
4133.0
 21
-137.99999999999909
 31
0.0
1001
ACDBBLOCKREPETAG
1070
     1
1071
       50
1005
1310A6
  0
LINE
  5
1310A7
  8
CENTER
 10
4155.0
 20
-199.99999999999909
 30
0.0
 11
4080.0
 21
-199.99999999999909
 31
0.0
1001
ACDBBLOCKREPETAG
1070
     1
1071
       51
1005
1310A7
  0
LINE
  5
1310A8
  8
OBJECT
 10
4133.0
 20
-140.99999999999909
 30
0.0
 11
4097.0
 21
-140.99999999999909
 31
0.0
1001
ACDBBLOCKREPETAG
1070
     1
1071
       52
1005
1310A8
  0
LINE
  5
1310A9
  8
OBJECT
 10
4097.0
 20
-140.99999999999909
 30
0.0
 11
4097.0
 21
-258.99999999999909
 31
0.0
1001
ACDBBLOCKREPETAG
1070
     1
1071
       53
1005
1310A9
  0
LINE
  5
1310AA
  8
OBJECT
 10
4097.0
 20
-258.99999999999909
 30
0.0
 11
4133.0
 21
-258.99999999999909
 31
0.0
1001
ACDBBLOCKREPETAG
1070
     1
1071
       54
1005
1310AA
  0
LINE
  5
1310AB
  8
OBJECT
 10
4093.0
 20
-145.49999999999909
 30
0.0
 11
4086.0
 21
-145.49999999999909
 31
0.0
1001
ACDBBLOCKREPETAG
1070
     1
1071
       55
1005
1310AB
  0
LINE
  5
1310AC
  8
OBJECT
 10
4086.0
 20
-254.49999999999909
 30
0.0
 11
4093.0
 21
-254.49999999999909
 31
0.0
1001
ACDBBLOCKREPETAG
1070
     1
1071
       56
1005
1310AC
  0
LINE
  5
1310AD
  8
OBJECT
 10
4093.0
 20
-254.49999999999909
 30
0.0
 11
4093.0
 21
-145.49999999999909
 31
0.0
1001
ACDBBLOCKREPETAG
1070
     1
1071
       57
1005
1310AD
  0
LINE
  5
1310AE
  8
OBJECT
 10
4097.0
 20
-140.99999999999909
 30
0.0
 11
4093.0
 21
-145.49999999999909
 31
0.0
1001
ACDBBLOCKREPETAG
1070
     1
1071
       58
1005
1310AE
  0
LINE
  5
1310AF
  8
OBJECT
 10
4097.0
 20
-258.99999999999909
 30
0.0
 11
4093.0
 21
-254.49999999999909
 31
0.0
1001
ACDBBLOCKREPETAG
1070
     1
1071
       59
1005
1310AF
  0
LINE
  5
1310B0
  8
OBJECT
 10
4083.0
 20
-137.99999999999909
 30
0.0
 11
4080.0
 21
-137.99999999999909
 31
0.0
1001
ACDBBLOCKREPETAG
1070
     1
1071
       60
1005
1310B0
  0
ARC
  5
1310B1
  8
OBJECT
 10
4083.0
 20
-140.99999999999909
 30
0.0
 40
3.0
 50
0.0
 51
90.0
1001
ACDBBLOCKREPETAG
1070
     1
1071
       61
1005
1310B1
  0
LINE
  5
1310B2
  8
OBJECT
 10
4080.0
 20
-261.99999999999909
 30
0.0
 11
4083.0
 21
-261.99999999999909
 31
0.0
1001
ACDBBLOCKREPETAG
1070
     1
1071
       62
1005
1310B2
  0
ARC
  5
1310B3
  8
OBJECT
 10
4083.0
 20
-258.99999999999909
 30
0.0
 40
3.0
 50
270.0
 51
0.0
1001
ACDBBLOCKREPETAG
1070
     1
1071
       63
1005
1310B3
  0
LINE
  5
1310B4
  8
OBJECT
 10
4086.0
 20
-258.99999999999909
 30
0.0
 11
4086.0
 21
-140.99999999999909
 31
0.0
1001
ACDBBLOCKREPETAG
1070
     1
1071
       64
1005
1310B4
  0
LINE
  5
1310B5
  8
HIDDEN
 10
4088.0
 20
-155.49999999999909
 30
0.0
 11
4088.0
 21
-244.49999999999909
 31
0.0
1001
ACDBBLOCKREPETAG
1070
     1
1071
       65
1005
1310B5
  0
LINE
  5
1310B6
  8
OBJECT
 10
3867.0
 20
-634.0
 30
0.0
 11
3860.0
 21
-634.0
 31
0.0
1001
ACDBBLOCKREPETAG
1070
     1
1071
       45
1005
1310B6
  0
LINE
  5
1310B7
  8
OBJECT
 10
3860.0
 20
-634.0
 30
0.0
 11
3860.0
 21
-755.0
 31
0.0
1001
ACDBBLOCKREPETAG
1070
     1
1071
       46
1005
1310B7
  0
LINE
  5
1310B8
  8
OBJECT
 10
3867.0
 20
-755.0
 30
0.0
 11
3867.0
 21
-634.0
 31
0.0
1001
ACDBBLOCKREPETAG
1070
     1
1071
       47
1005
1310B8
  0
LINE
  5
1310B9
  8
CENTER
 10
3845.0
 20
-696.0
 30
0.0
 11
3929.0
 21
-696.0
 31
0.0
1001
ACDBBLOCKREPETAG
1070
     1
1071
       48
1005
1310B9
  0
LINE
  5
1310BA
  8
OBJECT
 10
3867.0
 20
-637.0
 30
0.0
 11
3903.0
 21
-637.0
 31
0.0
1001
ACDBBLOCKREPETAG
1070
     1
1071
       49
1005
1310BA
  0
LINE
  5
1310BB
  8
OBJECT
 10
3903.0
 20
-637.0
 30
0.0
 11
3903.0
 21
-755.0
 31
0.0
1001
ACDBBLOCKREPETAG
1070
     1
1071
       50
1005
1310BB
  0
LINE
  5
1310BC
  8
OBJECT
 10
3903.0
 20
-755.0
 30
0.0
 11
3860.0
 21
-755.0
 31
0.0
1001
ACDBBLOCKREPETAG
1070
     1
1071
       51
1005
1310BC
  0
LINE
  5
1310BD
  8
OBJECT
 10
3907.0
 20
-641.5
 30
0.0
 11
3914.0
 21
-641.5
 31
0.0
1001
ACDBBLOCKREPETAG
1070
     1
1071
       52
1005
1310BD
  0
LINE
  5
1310BE
  8
OBJECT
 10
3914.0
 20
-750.49999999999989
 30
0.0
 11
3907.0
 21
-750.49999999999989
 31
0.0
1001
ACDBBLOCKREPETAG
1070
     1
1071
       53
1005
1310BE
  0
LINE
  5
1310BF
  8
OBJECT
 10
3907.0
 20
-750.49999999999989
 30
0.0
 11
3907.0
 21
-641.5
 31
0.0
1001
ACDBBLOCKREPETAG
1070
     1
1071
       54
1005
1310BF
  0
LINE
  5
1310C0
  8
OBJECT
 10
3903.0
 20
-637.0
 30
0.0
 11
3907.0
 21
-641.5
 31
0.0
1001
ACDBBLOCKREPETAG
1070
     1
1071
       55
1005
1310C0
  0
LINE
  5
1310C1
  8
OBJECT
 10
3903.0
 20
-755.0
 30
0.0
 11
3907.0
 21
-750.49999999999989
 31
0.0
1001
ACDBBLOCKREPETAG
1070
     1
1071
       56
1005
1310C1
  0
LINE
  5
1310C2
  8
OBJECT
 10
3917.0
 20
-634.0
 30
0.0
 11
3920.0
 21
-634.0
 31
0.0
1001
ACDBBLOCKREPETAG
1070
     1
1071
       57
1005
1310C2
  0
ARC
  5
1310C3
  8
OBJECT
 10
3917.0
 20
-637.0
 30
0.0
 40
3.0
 50
90.0
 51
180.0
1001
ACDBBLOCKREPETAG
1070
     1
1071
       58
1005
1310C3
  0
LINE
  5
1310C4
  8
OBJECT
 10
3920.0
 20
-758.0
 30
0.0
 11
3917.0
 21
-758.0
 31
0.0
1001
ACDBBLOCKREPETAG
1070
     1
1071
       59
1005
1310C4
  0
ARC
  5
1310C5
  8
OBJECT
 10
3917.0
 20
-755.0
 30
0.0
 40
3.0
 50
180.0
 51
270.0
1001
ACDBBLOCKREPETAG
1070
     1
1071
       60
1005
1310C5
  0
LINE
  5
1310C6
  8
OBJECT
 10
3914.0
 20
-755.0
 30
0.0
 11
3914.0
 21
-637.0
 31
0.0
1001
ACDBBLOCKREPETAG
1070
     1
1071
       61
1005
1310C6
  0
LINE
  5
1310C7
  8
HIDDEN
 10
3912.0
 20
-651.5
 30
0.0
 11
3912.0
 21
-740.5
 31
0.0
1001
ACDBBLOCKREPETAG
1070
     1
1071
       63
1005
1310C7
  0
CIRCLE
  5
1310C8
  8
OBJECT
 10
4000.0
 20
-696.0
 30
0.0
 40
62.0
1001
ACDBBLOCKREPETAG
1070
     1
1071
        0
1005
1310C8
  0
LINE
  5
1310C9
  8
OBJECT
 10
4133.0
 20
-634.0
 30
0.0
 11
4140.0
 21
-634.0
 31
0.0
1001
ACDBBLOCKREPETAG
1070
     1
1071
       45
1005
1310C9
  0
LINE
  5
1310CA
  8
OBJECT
 10
4140.0
 20
-634.0
 30
0.0
 11
4140.0
 21
-755.0
 31
0.0
1001
ACDBBLOCKREPETAG
1070
     1
1071
       46
1005
1310CA
  0
LINE
  5
1310CB
  8
OBJECT
 10
4133.0
 20
-755.0
 30
0.0
 11
4133.0
 21
-634.0
 31
0.0
1001
ACDBBLOCKREPETAG
1070
     1
1071
       47
1005
1310CB
  0
LINE
  5
1310CC
  8
CENTER
 10
4155.0
 20
-696.0
 30
0.0
 11
4071.0
 21
-696.0
 31
0.0
1001
ACDBBLOCKREPETAG
1070
     1
1071
       48
1005
1310CC
  0
LINE
  5
1310CD
  8
OBJECT
 10
4133.0
 20
-637.0
 30
0.0
 11
4097.0
 21
-637.0
 31
0.0
1001
ACDBBLOCKREPETAG
1070
     1
1071
       49
1005
1310CD
  0
LINE
  5
1310CE
  8
OBJECT
 10
4097.0
 20
-637.0
 30
0.0
 11
4097.0
 21
-755.0
 31
0.0
1001
ACDBBLOCKREPETAG
1070
     1
1071
       50
1005
1310CE
  0
LINE
  5
1310CF
  8
OBJECT
 10
4097.0
 20
-755.0
 30
0.0
 11
4140.0
 21
-755.0
 31
0.0
1001
ACDBBLOCKREPETAG
1070
     1
1071
       51
1005
1310CF
  0
LINE
  5
1310D0
  8
OBJECT
 10
4093.0
 20
-641.5
 30
0.0
 11
4086.0
 21
-641.5
 31
0.0
1001
ACDBBLOCKREPETAG
1070
     1
1071
       52
1005
1310D0
  0
LINE
  5
1310D1
  8
OBJECT
 10
4086.0
 20
-750.49999999999989
 30
0.0
 11
4093.0
 21
-750.49999999999989
 31
0.0
1001
ACDBBLOCKREPETAG
1070
     1
1071
       53
1005
1310D1
  0
LINE
  5
1310D2
  8
OBJECT
 10
4093.0
 20
-750.49999999999989
 30
0.0
 11
4093.0
 21
-641.5
 31
0.0
1001
ACDBBLOCKREPETAG
1070
     1
1071
       54
1005
1310D2
  0
LINE
  5
1310D3
  8
OBJECT
 10
4097.0
 20
-637.0
 30
0.0
 11
4093.0
 21
-641.5
 31
0.0
1001
ACDBBLOCKREPETAG
1070
     1
1071
       55
1005
1310D3
  0
LINE
  5
1310D4
  8
OBJECT
 10
4097.0
 20
-755.0
 30
0.0
 11
4093.0
 21
-750.49999999999989
 31
0.0
1001
ACDBBLOCKREPETAG
1070
     1
1071
       56
1005
1310D4
  0
LINE
  5
1310D5
  8
OBJECT
 10
4083.0
 20
-634.0
 30
0.0
 11
4080.0
 21
-634.0
 31
0.0
1001
ACDBBLOCKREPETAG
1070
     1
1071
       57
1005
1310D5
  0
ARC
  5
1310D6
  8
OBJECT
 10
4083.0
 20
-637.0
 30
0.0
 40
3.0
 50
0.0
 51
90.0
1001
ACDBBLOCKREPETAG
1070
     1
1071
       58
1005
1310D6
  0
LINE
  5
1310D7
  8
OBJECT
 10
4080.0
 20
-758.0
 30
0.0
 11
4083.0
 21
-758.0
 31
0.0
1001
ACDBBLOCKREPETAG
1070
     1
1071
       59
1005
1310D7
  0
ARC
  5
1310D8
  8
OBJECT
 10
4083.0
 20
-755.0
 30
0.0
 40
3.0
 50
270.0
 51
0.0
1001
ACDBBLOCKREPETAG
1070
     1
1071
       60
1005
1310D8
  0
LINE
  5
1310D9
  8
OBJECT
 10
4086.0
 20
-755.0
 30
0.0
 11
4086.0
 21
-637.0
 31
0.0
1001
ACDBBLOCKREPETAG
1070
     1
1071
       61
1005
1310D9
  0
LINE
  5
1310DA
  8
HIDDEN
 10
4088.0
 20
-651.5
 30
0.0
 11
4088.0
 21
-740.5
 31
0.0
1001
ACDBBLOCKREPETAG
1070
     1
1071
       63
1005
1310DA
  0
POLYLINE
  5
1310DB
  8
HIDDEN
 66
     1
 10
0.0
 20
0.0
 30
0.0
 70
     1
1001
ACDBBLOCKREPETAG
1070
     1
1071
      105
1005
0
  0
VERTEX
  5
131654
  8
HIDDEN
 10
359.99999999987818
 20
0.0
 30
0.0
  0
VERTEX
  5
131655
  8
HIDDEN
 10
719.99999999975626
 20
0.0
 30
0.0
  0
VERTEX
  5
131656
  8
HIDDEN
 10
719.99999999975626
 20
-463.99999999984158
 30
0.0
  0
VERTEX
  5
131657
  8
HIDDEN
 10
359.99999999987818
 20
-463.99999999984158
 30
0.0
  0
SEQEND
  5
131658
  8
HIDDEN
  0
POLYLINE
  5
1310DC
  8
HIDDEN
 66
     1
 10
0.0
 20
0.0
 30
0.0
 70
     1
1001
ACDBBLOCKREPETAG
1070
     1
1071
      110
1005
0
  0
VERTEX
  5
131659
  8
HIDDEN
 10
0.0
 20
0.0
 30
0.0
  0
VERTEX
  5
13165A
  8
HIDDEN
 10
359.99999999987818
 20
0.0
 30
0.0
  0
VERTEX
  5
13165B
  8
HIDDEN
 10
359.99999999987818
 20
-463.99999999984158
 30
0.0
  0
VERTEX
  5
13165C
  8
HIDDEN
 10
0.0
 20
-463.99999999984158
 30
0.0
  0
SEQEND
  5
13165D
  8
HIDDEN
  0
POLYLINE
  5
1310DD
  8
HIDDEN
 66
     1
 10
0.0
 20
0.0
 30
0.0
 70
     1
1001
ACDBBLOCKREPETAG
1070
     1
1071
      120
1005
0
  0
VERTEX
  5
13165E
  8
HIDDEN
 10
359.99999999987818
 20
-463.99999999984158
 30
0.0
  0
VERTEX
  5
13165F
  8
HIDDEN
 10
719.99999999975626
 20
-463.99999999984158
 30
0.0
  0
VERTEX
  5
131660
  8
HIDDEN
 10
719.99999999975626
 20
-927.9999999996835
 30
0.0
  0
VERTEX
  5
131661
  8
HIDDEN
 10
359.99999999987818
 20
-927.9999999996835
 30
0.0
  0
SEQEND
  5
131662
  8
HIDDEN
  0
POLYLINE
  5
1310DE
  8
HIDDEN
 66
     1
 10
0.0
 20
0.0
 30
0.0
 70
     1
1001
ACDBBLOCKREPETAG
1070
     1
1071
      125
1005
0
  0
VERTEX
  5
131663
  8
HIDDEN
 10
0.0
 20
-463.99999999984158
 30
0.0
  0
VERTEX
  5
131664
  8
HIDDEN
 10
359.99999999987818
 20
-463.99999999984158
 30
0.0
  0
VERTEX
  5
131665
  8
HIDDEN
 10
359.99999999987818
 20
-927.9999999996835
 30
0.0
  0
VERTEX
  5
131666
  8
HIDDEN
 10
0.0
 20
-927.9999999996835
 30
0.0
  0
SEQEND
  5
131667
  8
HIDDEN
  0
POLYLINE
  5
1310DF
  8
HIDDEN
 66
     1
 10
0.0
 20
0.0
 30
0.0
 70
     1
1001
ACDBBLOCKREPETAG
1070
     1
1071
      130
1005
0
  0
VERTEX
  5
131668
  8
HIDDEN
 10
359.99999999987818
 20
-927.9999999996835
 30
0.0
  0
VERTEX
  5
131669
  8
HIDDEN
 10
719.99999999975626
 20
-927.9999999996835
 30
0.0
  0
VERTEX
  5
13166A
  8
HIDDEN
 10
719.99999999975626
 20
-1391.999999999525
 30
0.0
  0
VERTEX
  5
13166B
  8
HIDDEN
 10
359.99999999987818
 20
-1391.999999999525
 30
0.0
  0
SEQEND
  5
13166C
  8
HIDDEN
  0
POLYLINE
  5
1310E0
  8
HIDDEN
 66
     1
 10
0.0
 20
0.0
 30
0.0
 70
     1
1001
ACDBBLOCKREPETAG
1070
     1
1071
      135
1005
0
  0
VERTEX
  5
13166D
  8
HIDDEN
 10
0.0
 20
-927.9999999996835
 30
0.0
  0
VERTEX
  5
13166E
  8
HIDDEN
 10
359.99999999987818
 20
-927.9999999996835
 30
0.0
  0
VERTEX
  5
13166F
  8
HIDDEN
 10
359.99999999987818
 20
-1391.999999999525
 30
0.0
  0
VERTEX
  5
131670
  8
HIDDEN
 10
0.0
 20
-1391.999999999525
 30
0.0
  0
SEQEND
  5
131671
  8
HIDDEN
  0
POLYLINE
  5
1310E1
  8
HIDDEN
 66
     1
 10
0.0
 20
0.0
 30
0.0
 70
     1
1001
ACDBBLOCKREPETAG
1070
     1
1071
      160
1005
0
  0
VERTEX
  5
131672
  8
HIDDEN
 10
359.99999999987818
 20
-1391.999999999525
 30
0.0
  0
VERTEX
  5
131673
  8
HIDDEN
 10
719.99999999975626
 20
-1391.999999999525
 30
0.0
  0
VERTEX
  5
131674
  8
HIDDEN
 10
719.99999999975626
 20
-1855.999999999367
 30
0.0
  0
VERTEX
  5
131675
  8
HIDDEN
 10
359.99999999987818
 20
-1855.999999999367
 30
0.0
  0
SEQEND
  5
131676
  8
HIDDEN
  0
POLYLINE
  5
1310E2
  8
HIDDEN
 66
     1
 10
0.0
 20
0.0
 30
0.0
 70
     1
1001
ACDBBLOCKREPETAG
1070
     1
1071
      165
1005
0
  0
VERTEX
  5
131677
  8
HIDDEN
 10
0.0
 20
-1391.999999999525
 30
0.0
  0
VERTEX
  5
131678
  8
HIDDEN
 10
359.99999999987818
 20
-1391.999999999525
 30
0.0
  0
VERTEX
  5
131679
  8
HIDDEN
 10
359.99999999987818
 20
-1855.999999999367
 30
0.0
  0
VERTEX
  5
13167A
  8
HIDDEN
 10
0.0
 20
-1855.999999999367
 30
0.0
  0
SEQEND
  5
13167B
  8
HIDDEN
  0
POLYLINE
  5
1310E3
  8
HIDDEN
 66
     1
 10
0.0
 20
0.0
 30
0.0
 70
     1
1001
ACDBBLOCKREPETAG
1070
     1
1071
      170
1005
0
  0
VERTEX
  5
13167C
  8
HIDDEN
 10
359.99999999987818
 20
-1855.999999999367
 30
0.0
  0
VERTEX
  5
13167D
  8
HIDDEN
 10
719.99999999975626
 20
-1855.999999999367
 30
0.0
  0
VERTEX
  5
13167E
  8
HIDDEN
 10
719.99999999975626
 20
-2319.9999999992092
 30
0.0
  0
VERTEX
  5
13167F
  8
HIDDEN
 10
359.99999999987818
 20
-2319.9999999992092
 30
0.0
  0
SEQEND
  5
131680
  8
HIDDEN
  0
POLYLINE
  5
1310E4
  8
HIDDEN
 66
     1
 10
0.0
 20
0.0
 30
0.0
 70
     1
1001
ACDBBLOCKREPETAG
1070
     1
1071
      175
1005
0
  0
VERTEX
  5
131681
  8
HIDDEN
 10
0.0
 20
-1855.999999999367
 30
0.0
  0
VERTEX
  5
131682
  8
HIDDEN
 10
359.99999999987818
 20
-1855.999999999367
 30
0.0
  0
VERTEX
  5
131683
  8
HIDDEN
 10
359.99999999987818
 20
-2319.9999999992092
 30
0.0
  0
VERTEX
  5
131684
  8
HIDDEN
 10
0.0
 20
-2319.9999999992092
 30
0.0
  0
SEQEND
  5
131685
  8
HIDDEN
  0
TEXT
  5
1310E5
  8
SLIM
 10
420.17142857124622
 20
-2299.999999999216
 30
0.0
 40
48.0
  1
B404（特）
 41
0.75
1001
ACDBBLOCKREPETAG
1070
     1
1071
      119
1005
12F953
  0
LINE
  5
1310E6
  8
OBJECT
 10
610.99999999849024
 20
-2201.9999999970728
 30
0.0
 11
610.99999999849024
 21
-2194.9999999970728
 31
0.0
1001
ACDBBLOCKREPETAG
1070
     1
1071
       57
1005
1310E6
  0
LINE
  5
1310E7
  8
OBJECT
 10
610.99999999849024
 20
-2194.9999999970728
 30
0.0
 11
460.99999999849018
 21
-2194.9999999970728
 31
0.0
1001
ACDBBLOCKREPETAG
1070
     1
1071
       58
1005
1310E7
  0
LINE
  5
1310E8
  8
OBJECT
 10
607.99999999849024
 20
-2153.4999999970728
 30
0.0
 11
463.99999999849018
 21
-2153.4999999970728
 31
0.0
1001
ACDBBLOCKREPETAG
1070
     1
1071
       59
1005
1310E8
  0
LINE
  5
1310E9
  8
OBJECT
 10
601.49999999849024
 20
-2141.9999999970728
 30
0.0
 11
470.49999999849018
 21
-2141.9999999970728
 31
0.0
1001
ACDBBLOCKREPETAG
1070
     1
1071
       60
1005
1310E9
  0
LINE
  5
1310EA
  8
OBJECT
 10
460.99999999849018
 20
-2194.9999999970728
 30
0.0
 11
460.99999999849018
 21
-2201.9999999970728
 31
0.0
1001
ACDBBLOCKREPETAG
1070
     1
1071
       61
1005
1310EA
  0
LINE
  5
1310EB
  8
OBJECT
 10
460.99999999849018
 20
-2201.9999999970728
 30
0.0
 11
610.99999999849024
 21
-2201.9999999970728
 31
0.0
1001
ACDBBLOCKREPETAG
1070
     1
1071
       62
1005
1310EB
  0
LINE
  5
1310EC
  8
OBJECT
 10
473.99999999849018
 20
-2137.9999999970728
 30
0.0
 11
473.99999999849018
 21
-2131.9999999970751
 31
0.0
1001
ACDBBLOCKREPETAG
1070
     1
1071
       63
1005
1310EC
  0
LINE
  5
1310ED
  8
OBJECT
 10
463.99999999849018
 20
-2194.9999999970728
 30
0.0
 11
463.99999999849018
 21
-2153.4999999970728
 31
0.0
1001
ACDBBLOCKREPETAG
1070
     1
1071
       64
1005
1310ED
  0
LINE
  5
1310EE
  8
OBJECT
 10
463.99999999849018
 20
-2153.4999999970728
 30
0.0
 11
470.49999999849018
 21
-2141.9999999970728
 31
0.0
1001
ACDBBLOCKREPETAG
1070
     1
1071
       65
1005
1310EE
  0
LINE
  5
1310EF
  8
OBJECT
 10
470.49999999849018
 20
-2141.9999999970728
 30
0.0
 11
473.99999999849018
 21
-2137.9999999970728
 31
0.0
1001
ACDBBLOCKREPETAG
1070
     1
1071
       66
1005
1310EF
  0
LINE
  5
1310F0
  8
OBJECT
 10
607.99999999849024
 20
-2153.4999999970728
 30
0.0
 11
601.49999999849024
 21
-2141.9999999970728
 31
0.0
1001
ACDBBLOCKREPETAG
1070
     1
1071
       67
1005
1310F0
  0
LINE
  5
1310F1
  8
OBJECT
 10
601.49999999849024
 20
-2141.9999999970728
 30
0.0
 11
597.99999999849024
 21
-2137.9999999970728
 31
0.0
1001
ACDBBLOCKREPETAG
1070
     1
1071
       68
1005
1310F1
  0
ARC
  5
1310F2
  8
OBJECT
 10
535.99999999849024
 20
-2519.8999999970752
 30
0.0
 40
386.89999999999998
 50
80.778701362368551
 51
99.221298637631435
1001
ACDBBLOCKREPETAG
1070
     1
1071
       69
1005
1310F2
  0
LINE
  5
1310F3
  8
OBJECT
 10
597.99999999849024
 20
-2137.9999999970728
 30
0.0
 11
597.99999999849024
 21
-2131.9999999970751
 31
0.0
1001
ACDBBLOCKREPETAG
1070
     1
1071
       70
1005
1310F3
  0
LINE
  5
1310F4
  8
OBJECT
 10
607.99999999849024
 20
-2194.9999999970728
 30
0.0
 11
607.99999999849024
 21
-2153.4999999970728
 31
0.0
1001
ACDBBLOCKREPETAG
1070
     1
1071
       71
1005
1310F4
  0
INSERT
  5
1310F5
  8
OBJECT
  2
*U5
 10
0.0
 20
0.0
 30
0.0
  0
LINE
  5
1310F6
  8
HIDDEN
 10
478.99999999849018
 20
-2149.9999999970728
 30
0.0
 11
592.99999999849024
 21
-2149.9999999970728
 31
0.0
1001
ACDBBLOCKREPETAG
1070
     1
1071
      437
1005
1310F6
  0
LINE
  5
1310F7
  8
OBJECT
 10
618.99999999849024
 20
-2113.9999999970728
 30
0.0
 11
615.99999999849024
 21
-2113.9999999970728
 31
0.0
1001
ACDBBLOCKREPETAG
1070
     1
1071
      418
1005
1310F7
  0
ARC
  5
1310F8
  8
OBJECT
 10
618.99999999849024
 20
-2110.9999999970728
 30
0.0
 40
3.0
 50
270.0
 51
0.0
1001
ACDBBLOCKREPETAG
1070
     1
1071
      419
1005
1310F8
  0
LINE
  5
1310F9
  8
OBJECT
 10
615.99999999849024
 20
-1989.999999997073
 30
0.0
 11
618.99999999849024
 21
-1989.999999997073
 31
0.0
1001
ACDBBLOCKREPETAG
1070
     1
1071
      420
1005
1310F9
  0
ARC
  5
1310FA
  8
OBJECT
 10
618.99999999849024
 20
-1992.999999997073
 30
0.0
 40
3.0
 50
0.0
 51
90.0
1001
ACDBBLOCKREPETAG
1070
     1
1071
      421
1005
1310FA
  0
LINE
  5
1310FB
  8
OBJECT
 10
621.99999999849024
 20
-1992.999999997073
 30
0.0
 11
621.99999999849024
 21
-2110.9999999970728
 31
0.0
1001
ACDBBLOCKREPETAG
1070
     1
1071
      422
1005
1310FB
  0
LINE
  5
1310FC
  8
OBJECT
 10
460.99999999849018
 20
-1901.999999997073
 30
0.0
 11
460.99999999849018
 21
-1908.999999997073
 31
0.0
1001
ACDBBLOCKREPETAG
1070
     1
1071
       57
1005
1310FC
  0
LINE
  5
1310FD
  8
OBJECT
 10
460.99999999849018
 20
-1908.999999997073
 30
0.0
 11
610.99999999849024
 21
-1908.999999997073
 31
0.0
1001
ACDBBLOCKREPETAG
1070
     1
1071
       58
1005
1310FD
  0
LINE
  5
1310FE
  8
OBJECT
 10
463.99999999849018
 20
-1950.499999997073
 30
0.0
 11
607.99999999849024
 21
-1950.499999997073
 31
0.0
1001
ACDBBLOCKREPETAG
1070
     1
1071
       59
1005
1310FE
  0
LINE
  5
1310FF
  8
OBJECT
 10
470.49999999849018
 20
-1961.999999997073
 30
0.0
 11
601.49999999849024
 21
-1961.999999997073
 31
0.0
1001
ACDBBLOCKREPETAG
1070
     1
1071
       60
1005
1310FF
  0
LINE
  5
131100
  8
OBJECT
 10
610.99999999849024
 20
-1908.999999997073
 30
0.0
 11
610.99999999849024
 21
-1901.999999997073
 31
0.0
1001
ACDBBLOCKREPETAG
1070
     1
1071
       61
1005
131100
  0
LINE
  5
131101
  8
OBJECT
 10
610.99999999849024
 20
-1901.999999997073
 30
0.0
 11
460.99999999849018
 21
-1901.999999997073
 31
0.0
1001
ACDBBLOCKREPETAG
1070
     1
1071
       62
1005
131101
  0
LINE
  5
131102
  8
OBJECT
 10
597.99999999849024
 20
-1965.999999997073
 30
0.0
 11
597.99999999849024
 21
-1971.999999997073
 31
0.0
1001
ACDBBLOCKREPETAG
1070
     1
1071
       63
1005
131102
  0
LINE
  5
131103
  8
OBJECT
 10
607.99999999849024
 20
-1908.999999997073
 30
0.0
 11
607.99999999849024
 21
-1950.499999997073
 31
0.0
1001
ACDBBLOCKREPETAG
1070
     1
1071
       64
1005
131103
  0
LINE
  5
131104
  8
OBJECT
 10
607.99999999849024
 20
-1950.499999997073
 30
0.0
 11
601.49999999849024
 21
-1961.999999997073
 31
0.0
1001
ACDBBLOCKREPETAG
1070
     1
1071
       65
1005
131104
  0
LINE
  5
131105
  8
OBJECT
 10
601.49999999849024
 20
-1961.999999997073
 30
0.0
 11
597.99999999849024
 21
-1965.999999997073
 31
0.0
1001
ACDBBLOCKREPETAG
1070
     1
1071
       66
1005
131105
  0
LINE
  5
131106
  8
OBJECT
 10
463.99999999849018
 20
-1950.499999997073
 30
0.0
 11
470.49999999849018
 21
-1961.999999997073
 31
0.0
1001
ACDBBLOCKREPETAG
1070
     1
1071
       67
1005
131106
  0
LINE
  5
131107
  8
OBJECT
 10
470.49999999849018
 20
-1961.999999997073
 30
0.0
 11
473.99999999849018
 21
-1965.999999997073
 31
0.0
1001
ACDBBLOCKREPETAG
1070
     1
1071
       68
1005
131107
  0
ARC
  5
131108
  8
OBJECT
 10
535.99999999849024
 20
-1584.099999997072
 30
0.0
 40
386.89999999999998
 50
260.77870136257849
 51
279.22129863742163
1001
ACDBBLOCKREPETAG
1070
     1
1071
       69
1005
131108
  0
LINE
  5
131109
  8
OBJECT
 10
473.99999999849018
 20
-1965.999999997073
 30
0.0
 11
473.99999999849018
 21
-1971.999999997073
 31
0.0
1001
ACDBBLOCKREPETAG
1070
     1
1071
       70
1005
131109
  0
LINE
  5
13110A
  8
OBJECT
 10
463.99999999849018
 20
-1908.999999997073
 30
0.0
 11
463.99999999849018
 21
-1950.499999997073
 31
0.0
1001
ACDBBLOCKREPETAG
1070
     1
1071
       71
1005
13110A
  0
INSERT
  5
13110B
  8
OBJECT
  2
*U6
 10
0.0
 20
0.0
 30
0.0
  0
LINE
  5
13110C
  8
HIDDEN
 10
592.99999999849024
 20
-1953.999999997073
 30
0.0
 11
478.99999999849018
 21
-1953.999999997073
 31
0.0
1001
ACDBBLOCKREPETAG
1070
     1
1071
      431
1005
13110C
  0
TEXT
  5
13110D
  8
SLIM
 10
60.171428571368068
 20
-2299.999999999216
 30
0.0
 40
48.0
  1
B304（特）
 41
0.75
1001
ACDBBLOCKREPETAG
1070
     1
1071
      119
1005
12F953
  0
LINE
  5
13110E
  8
OBJECT
 10
250.99999999861211
 20
-2201.9999999970728
 30
0.0
 11
250.99999999861211
 21
-2194.9999999970728
 31
0.0
1001
ACDBBLOCKREPETAG
1070
     1
1071
       57
1005
13110E
  0
LINE
  5
13110F
  8
OBJECT
 10
250.99999999861211
 20
-2194.9999999970728
 30
0.0
 11
100.9999999986121
 21
-2194.9999999970728
 31
0.0
1001
ACDBBLOCKREPETAG
1070
     1
1071
       58
1005
13110F
  0
LINE
  5
131110
  8
OBJECT
 10
247.99999999861211
 20
-2153.4999999970728
 30
0.0
 11
103.9999999986121
 21
-2153.4999999970728
 31
0.0
1001
ACDBBLOCKREPETAG
1070
     1
1071
       59
1005
131110
  0
LINE
  5
131111
  8
OBJECT
 10
241.49999999861211
 20
-2141.9999999970728
 30
0.0
 11
110.4999999986121
 21
-2141.9999999970728
 31
0.0
1001
ACDBBLOCKREPETAG
1070
     1
1071
       60
1005
131111
  0
LINE
  5
131112
  8
OBJECT
 10
100.9999999986121
 20
-2194.9999999970728
 30
0.0
 11
100.9999999986121
 21
-2201.9999999970728
 31
0.0
1001
ACDBBLOCKREPETAG
1070
     1
1071
       61
1005
131112
  0
LINE
  5
131113
  8
OBJECT
 10
100.9999999986121
 20
-2201.9999999970728
 30
0.0
 11
250.99999999861211
 21
-2201.9999999970728
 31
0.0
1001
ACDBBLOCKREPETAG
1070
     1
1071
       62
1005
131113
  0
LINE
  5
131114
  8
OBJECT
 10
113.9999999986121
 20
-2137.9999999970728
 30
0.0
 11
113.9999999986121
 21
-2131.9999999970751
 31
0.0
1001
ACDBBLOCKREPETAG
1070
     1
1071
       63
1005
131114
  0
LINE
  5
131115
  8
OBJECT
 10
103.9999999986121
 20
-2194.9999999970728
 30
0.0
 11
103.9999999986121
 21
-2153.4999999970728
 31
0.0
1001
ACDBBLOCKREPETAG
1070
     1
1071
       64
1005
131115
  0
LINE
  5
131116
  8
OBJECT
 10
103.9999999986121
 20
-2153.4999999970728
 30
0.0
 11
110.4999999986121
 21
-2141.9999999970728
 31
0.0
1001
ACDBBLOCKREPETAG
1070
     1
1071
       65
1005
131116
  0
LINE
  5
131117
  8
OBJECT
 10
110.4999999986121
 20
-2141.9999999970728
 30
0.0
 11
113.9999999986121
 21
-2137.9999999970728
 31
0.0
1001
ACDBBLOCKREPETAG
1070
     1
1071
       66
1005
131117
  0
LINE
  5
131118
  8
OBJECT
 10
247.99999999861211
 20
-2153.4999999970728
 30
0.0
 11
241.49999999861211
 21
-2141.9999999970728
 31
0.0
1001
ACDBBLOCKREPETAG
1070
     1
1071
       67
1005
131118
  0
LINE
  5
131119
  8
OBJECT
 10
241.49999999861211
 20
-2141.9999999970728
 30
0.0
 11
237.99999999861211
 21
-2137.9999999970728
 31
0.0
1001
ACDBBLOCKREPETAG
1070
     1
1071
       68
1005
131119
  0
ARC
  5
13111A
  8
OBJECT
 10
175.99999999861211
 20
-2519.8999999970752
 30
0.0
 40
386.89999999999998
 50
80.778701362368551
 51
99.221298637631435
1001
ACDBBLOCKREPETAG
1070
     1
1071
       69
1005
13111A
  0
LINE
  5
13111B
  8
OBJECT
 10
237.99999999861211
 20
-2137.9999999970728
 30
0.0
 11
237.99999999861211
 21
-2131.9999999970751
 31
0.0
1001
ACDBBLOCKREPETAG
1070
     1
1071
       70
1005
13111B
  0
LINE
  5
13111C
  8
OBJECT
 10
247.99999999861211
 20
-2194.9999999970728
 30
0.0
 11
247.99999999861211
 21
-2153.4999999970728
 31
0.0
1001
ACDBBLOCKREPETAG
1070
     1
1071
       71
1005
13111C
  0
INSERT
  5
13111D
  8
OBJECT
  2
*U7
 10
0.0
 20
0.0
 30
0.0
  0
LINE
  5
13111E
  8
HIDDEN
 10
118.9999999986121
 20
-2149.9999999970728
 30
0.0
 11
232.99999999861211
 21
-2149.9999999970728
 31
0.0
1001
ACDBBLOCKREPETAG
1070
     1
1071
      437
1005
13111E
  0
LINE
  5
13111F
  8
OBJECT
 10
258.99999999861211
 20
-2113.9999999970728
 30
0.0
 11
255.99999999861211
 21
-2113.9999999970728
 31
0.0
1001
ACDBBLOCKREPETAG
1070
     1
1071
      418
1005
13111F
  0
ARC
  5
131120
  8
OBJECT
 10
258.99999999861211
 20
-2110.9999999970728
 30
0.0
 40
3.0
 50
270.0
 51
0.0
1001
ACDBBLOCKREPETAG
1070
     1
1071
      419
1005
131120
  0
LINE
  5
131121
  8
OBJECT
 10
255.99999999861211
 20
-1989.999999997073
 30
0.0
 11
258.99999999861211
 21
-1989.999999997073
 31
0.0
1001
ACDBBLOCKREPETAG
1070
     1
1071
      420
1005
131121
  0
ARC
  5
131122
  8
OBJECT
 10
258.99999999861211
 20
-1992.999999997073
 30
0.0
 40
3.0
 50
0.0
 51
90.0
1001
ACDBBLOCKREPETAG
1070
     1
1071
      421
1005
131122
  0
LINE
  5
131123
  8
OBJECT
 10
261.99999999861211
 20
-1992.999999997073
 30
0.0
 11
261.99999999861211
 21
-2110.9999999970728
 31
0.0
1001
ACDBBLOCKREPETAG
1070
     1
1071
      422
1005
131123
  0
INSERT
  5
131124
  8
OBJECT
  2
*U8
 10
0.0
 20
0.0
 30
0.0
  0
LINE
  5
131125
  8
OBJECT
 10
113.9999999986121
 20
-1918.999999997073
 30
0.0
 11
113.9999999986121
 21
-1911.999999997073
 31
0.0
1001
ACDBBLOCKREPETAG
1070
     1
1071
       39
1005
131125
  0
LINE
  5
131126
  8
OBJECT
 10
113.9999999986121
 20
-1911.999999997073
 30
0.0
 11
237.99999999861211
 21
-1911.999999997073
 31
0.0
1001
ACDBBLOCKREPETAG
1070
     1
1071
       40
1005
131126
  0
LINE
  5
131127
  8
OBJECT
 10
237.99999999861211
 20
-1911.999999997073
 30
0.0
 11
237.99999999861211
 21
-1918.999999997073
 31
0.0
1001
ACDBBLOCKREPETAG
1070
     1
1071
       41
1005
131127
  0
LINE
  5
131128
  8
OBJECT
 10
237.99999999861211
 20
-1918.999999997073
 30
0.0
 11
113.9999999986121
 21
-1918.999999997073
 31
0.0
1001
ACDBBLOCKREPETAG
1070
     1
1071
       42
1005
131128
  0
LINE
  5
131129
  8
OBJECT
 10
116.9999999986121
 20
-1918.999999997073
 30
0.0
 11
116.9999999986121
 21
-1954.999999997073
 31
0.0
1001
ACDBBLOCKREPETAG
1070
     1
1071
       43
1005
131129
  0
LINE
  5
13112A
  8
OBJECT
 10
116.9999999986121
 20
-1954.999999997073
 30
0.0
 11
234.99999999861211
 21
-1954.999999997073
 31
0.0
1001
ACDBBLOCKREPETAG
1070
     1
1071
       44
1005
13112A
  0
LINE
  5
13112B
  8
OBJECT
 10
234.99999999861211
 20
-1954.999999997073
 30
0.0
 11
234.99999999861211
 21
-1918.999999997073
 31
0.0
1001
ACDBBLOCKREPETAG
1070
     1
1071
       45
1005
13112B
  0
LINE
  5
13112C
  8
OBJECT
 10
121.4999999986121
 20
-1958.999999997073
 30
0.0
 11
121.4999999986121
 21
-1965.999999997073
 31
0.0
1001
ACDBBLOCKREPETAG
1070
     1
1071
       46
1005
13112C
  0
LINE
  5
13112D
  8
OBJECT
 10
230.49999999861211
 20
-1965.999999997073
 30
0.0
 11
230.49999999861211
 21
-1958.999999997073
 31
0.0
1001
ACDBBLOCKREPETAG
1070
     1
1071
       47
1005
13112D
  0
LINE
  5
13112E
  8
OBJECT
 10
230.49999999861211
 20
-1958.999999997073
 30
0.0
 11
121.4999999986121
 21
-1958.999999997073
 31
0.0
1001
ACDBBLOCKREPETAG
1070
     1
1071
       48
1005
13112E
  0
LINE
  5
13112F
  8
OBJECT
 10
116.9999999986121
 20
-1954.999999997073
 30
0.0
 11
121.4999999986121
 21
-1958.999999997073
 31
0.0
1001
ACDBBLOCKREPETAG
1070
     1
1071
       49
1005
13112F
  0
LINE
  5
131130
  8
OBJECT
 10
234.99999999861211
 20
-1954.999999997073
 30
0.0
 11
230.49999999861211
 21
-1958.999999997073
 31
0.0
1001
ACDBBLOCKREPETAG
1070
     1
1071
       50
1005
131130
  0
LINE
  5
131131
  8
OBJECT
 10
113.9999999986121
 20
-1968.9999999970721
 30
0.0
 11
113.9999999986121
 21
-1971.999999997073
 31
0.0
1001
ACDBBLOCKREPETAG
1070
     1
1071
       51
1005
131131
  0
ARC
  5
131132
  8
OBJECT
 10
116.9999999986121
 20
-1968.9999999970721
 30
0.0
 40
3.0
 50
90.0
 51
180.0
1001
ACDBBLOCKREPETAG
1070
     1
1071
       52
1005
131132
  0
LINE
  5
131133
  8
OBJECT
 10
237.99999999861211
 20
-1971.999999997073
 30
0.0
 11
237.99999999861211
 21
-1968.999999997073
 31
0.0
1001
ACDBBLOCKREPETAG
1070
     1
1071
       53
1005
131133
  0
ARC
  5
131134
  8
OBJECT
 10
234.99999999861211
 20
-1968.999999997073
 30
0.0
 40
3.0
 50
0.0
 51
90.0
1001
ACDBBLOCKREPETAG
1070
     1
1071
       54
1005
131134
  0
LINE
  5
131135
  8
OBJECT
 10
234.99999999861211
 20
-1965.999999997073
 30
0.0
 11
116.9999999986121
 21
-1965.9999999970721
 31
0.0
1001
ACDBBLOCKREPETAG
1070
     1
1071
       55
1005
131135
  0
LINE
  5
131136
  8
HIDDEN
 10
131.49999999861211
 20
-1963.999999997073
 30
0.0
 11
220.49999999861211
 21
-1963.999999997073
 31
0.0
1001
ACDBBLOCKREPETAG
1070
     1
1071
      426
1005
131136
  0
TEXT
  5
131137
  8
SLIM
 10
420.17142857124622
 20
-1835.9999999993749
 30
0.0
 40
48.0
  1
B303（特）
 41
0.75
1001
ACDBBLOCKREPETAG
1070
     1
1071
      119
1005
12F953
  0
LINE
  5
131138
  8
OBJECT
 10
597.99999999849024
 20
-1720.999999997231
 30
0.0
 11
597.99999999849024
 21
-1727.999999997231
 31
0.0
1001
ACDBBLOCKREPETAG
1070
     1
1071
       38
1005
131138
  0
LINE
  5
131139
  8
OBJECT
 10
597.99999999849024
 20
-1727.999999997231
 30
0.0
 11
473.99999999849018
 21
-1727.999999997231
 31
0.0
1001
ACDBBLOCKREPETAG
1070
     1
1071
       39
1005
131139
  0
LINE
  5
13113A
  8
OBJECT
 10
473.99999999849018
 20
-1727.999999997231
 30
0.0
 11
473.99999999849018
 21
-1720.999999997231
 31
0.0
1001
ACDBBLOCKREPETAG
1070
     1
1071
       40
1005
13113A
  0
LINE
  5
13113B
  8
OBJECT
 10
473.99999999849018
 20
-1720.999999997231
 30
0.0
 11
597.99999999849024
 21
-1720.999999997231
 31
0.0
1001
ACDBBLOCKREPETAG
1070
     1
1071
       41
1005
13113B
  0
LINE
  5
13113C
  8
OBJECT
 10
594.99999999849024
 20
-1720.999999997231
 30
0.0
 11
594.99999999849024
 21
-1684.999999997231
 31
0.0
1001
ACDBBLOCKREPETAG
1070
     1
1071
       42
1005
13113C
  0
LINE
  5
13113D
  8
OBJECT
 10
594.99999999849024
 20
-1684.999999997231
 30
0.0
 11
476.99999999849018
 21
-1684.999999997231
 31
0.0
1001
ACDBBLOCKREPETAG
1070
     1
1071
       43
1005
13113D
  0
LINE
  5
13113E
  8
OBJECT
 10
476.99999999849018
 20
-1684.999999997231
 30
0.0
 11
476.99999999849018
 21
-1720.999999997231
 31
0.0
1001
ACDBBLOCKREPETAG
1070
     1
1071
       44
1005
13113E
  0
LINE
  5
13113F
  8
OBJECT
 10
590.49999999849024
 20
-1680.999999997231
 30
0.0
 11
590.49999999849024
 21
-1673.999999997231
 31
0.0
1001
ACDBBLOCKREPETAG
1070
     1
1071
       45
1005
13113F
  0
LINE
  5
131140
  8
OBJECT
 10
481.49999999849018
 20
-1673.999999997231
 30
0.0
 11
481.49999999849018
 21
-1680.999999997231
 31
0.0
1001
ACDBBLOCKREPETAG
1070
     1
1071
       46
1005
131140
  0
LINE
  5
131141
  8
OBJECT
 10
481.49999999849018
 20
-1680.999999997231
 30
0.0
 11
590.49999999849024
 21
-1680.999999997231
 31
0.0
1001
ACDBBLOCKREPETAG
1070
     1
1071
       47
1005
131141
  0
LINE
  5
131142
  8
OBJECT
 10
594.99999999849024
 20
-1684.999999997231
 30
0.0
 11
590.49999999849024
 21
-1680.999999997231
 31
0.0
1001
ACDBBLOCKREPETAG
1070
     1
1071
       48
1005
131142
  0
LINE
  5
131143
  8
OBJECT
 10
476.99999999849018
 20
-1684.999999997231
 30
0.0
 11
481.49999999849018
 21
-1680.999999997231
 31
0.0
1001
ACDBBLOCKREPETAG
1070
     1
1071
       49
1005
131143
  0
LINE
  5
131144
  8
OBJECT
 10
597.99999999849024
 20
-1670.999999997231
 30
0.0
 11
597.99999999849024
 21
-1667.999999997231
 31
0.0
1001
ACDBBLOCKREPETAG
1070
     1
1071
       50
1005
131144
  0
ARC
  5
131145
  8
OBJECT
 10
594.99999999849024
 20
-1670.999999997231
 30
0.0
 40
3.0
 50
270.0
 51
0.0
1001
ACDBBLOCKREPETAG
1070
     1
1071
       51
1005
131145
  0
LINE
  5
131146
  8
OBJECT
 10
473.99999999849018
 20
-1667.999999997231
 30
0.0
 11
473.99999999849018
 21
-1670.999999997231
 31
0.0
1001
ACDBBLOCKREPETAG
1070
     1
1071
       52
1005
131146
  0
ARC
  5
131147
  8
OBJECT
 10
476.99999999849018
 20
-1670.999999997231
 30
0.0
 40
3.0
 50
180.0
 51
270.0
1001
ACDBBLOCKREPETAG
1070
     1
1071
       53
1005
131147
  0
LINE
  5
131148
  8
OBJECT
 10
476.99999999849018
 20
-1673.9999999972299
 30
0.0
 11
594.99999999849024
 21
-1673.999999997232
 31
0.0
1001
ACDBBLOCKREPETAG
1070
     1
1071
       54
1005
131148
  0
INSERT
  5
131149
  8
OBJECT
  2
*U9
 10
0.0
 20
0.0
 30
0.0
  0
LINE
  5
13114A
  8
HIDDEN
 10
580.49999999849024
 20
-1675.999999997231
 30
0.0
 11
491.49999999849018
 21
-1675.999999997231
 31
0.0
1001
ACDBBLOCKREPETAG
1070
     1
1071
      430
1005
13114A
  0
LINE
  5
13114B
  8
OBJECT
 10
618.99999999849024
 20
-1649.999999997231
 30
0.0
 11
615.99999999849024
 21
-1649.999999997231
 31
0.0
1001
ACDBBLOCKREPETAG
1070
     1
1071
      418
1005
13114B
  0
ARC
  5
13114C
  8
OBJECT
 10
618.99999999849024
 20
-1646.999999997231
 30
0.0
 40
3.0
 50
270.0
 51
0.0
1001
ACDBBLOCKREPETAG
1070
     1
1071
      419
1005
13114C
  0
LINE
  5
13114D
  8
OBJECT
 10
615.99999999849024
 20
-1525.999999997231
 30
0.0
 11
618.99999999849024
 21
-1525.999999997231
 31
0.0
1001
ACDBBLOCKREPETAG
1070
     1
1071
      420
1005
13114D
  0
ARC
  5
13114E
  8
OBJECT
 10
618.99999999849024
 20
-1528.999999997231
 30
0.0
 40
3.0
 50
0.0
 51
90.0
1001
ACDBBLOCKREPETAG
1070
     1
1071
      421
1005
13114E
  0
LINE
  5
13114F
  8
OBJECT
 10
621.99999999849024
 20
-1528.999999997231
 30
0.0
 11
621.99999999849024
 21
-1646.999999997231
 31
0.0
1001
ACDBBLOCKREPETAG
1070
     1
1071
      422
1005
13114F
  0
INSERT
  5
131150
  8
OBJECT
  2
*U10
 10
0.0
 20
0.0
 30
0.0
  0
LINE
  5
131151
  8
OBJECT
 10
473.99999999849018
 20
-1454.999999997231
 30
0.0
 11
473.99999999849018
 21
-1447.999999997231
 31
0.0
1001
ACDBBLOCKREPETAG
1070
     1
1071
       39
1005
131151
  0
LINE
  5
131152
  8
OBJECT
 10
473.99999999849018
 20
-1447.999999997231
 30
0.0
 11
597.99999999849024
 21
-1447.999999997231
 31
0.0
1001
ACDBBLOCKREPETAG
1070
     1
1071
       40
1005
131152
  0
LINE
  5
131153
  8
OBJECT
 10
597.99999999849024
 20
-1447.999999997231
 30
0.0
 11
597.99999999849024
 21
-1454.999999997231
 31
0.0
1001
ACDBBLOCKREPETAG
1070
     1
1071
       41
1005
131153
  0
LINE
  5
131154
  8
OBJECT
 10
597.99999999849024
 20
-1454.999999997231
 30
0.0
 11
473.99999999849018
 21
-1454.999999997231
 31
0.0
1001
ACDBBLOCKREPETAG
1070
     1
1071
       42
1005
131154
  0
LINE
  5
131155
  8
OBJECT
 10
476.99999999849018
 20
-1454.999999997231
 30
0.0
 11
476.99999999849018
 21
-1490.999999997231
 31
0.0
1001
ACDBBLOCKREPETAG
1070
     1
1071
       43
1005
131155
  0
LINE
  5
131156
  8
OBJECT
 10
476.99999999849018
 20
-1490.999999997231
 30
0.0
 11
594.99999999849024
 21
-1490.999999997231
 31
0.0
1001
ACDBBLOCKREPETAG
1070
     1
1071
       44
1005
131156
  0
LINE
  5
131157
  8
OBJECT
 10
594.99999999849024
 20
-1490.999999997231
 30
0.0
 11
594.99999999849024
 21
-1454.999999997231
 31
0.0
1001
ACDBBLOCKREPETAG
1070
     1
1071
       45
1005
131157
  0
LINE
  5
131158
  8
OBJECT
 10
481.49999999849018
 20
-1494.999999997231
 30
0.0
 11
481.49999999849018
 21
-1501.999999997231
 31
0.0
1001
ACDBBLOCKREPETAG
1070
     1
1071
       46
1005
131158
  0
LINE
  5
131159
  8
OBJECT
 10
590.49999999849024
 20
-1501.999999997231
 30
0.0
 11
590.49999999849024
 21
-1494.999999997231
 31
0.0
1001
ACDBBLOCKREPETAG
1070
     1
1071
       47
1005
131159
  0
LINE
  5
13115A
  8
OBJECT
 10
590.49999999849024
 20
-1494.999999997231
 30
0.0
 11
481.49999999849018
 21
-1494.999999997231
 31
0.0
1001
ACDBBLOCKREPETAG
1070
     1
1071
       48
1005
13115A
  0
LINE
  5
13115B
  8
OBJECT
 10
476.99999999849018
 20
-1490.999999997231
 30
0.0
 11
481.49999999849018
 21
-1494.999999997231
 31
0.0
1001
ACDBBLOCKREPETAG
1070
     1
1071
       49
1005
13115B
  0
LINE
  5
13115C
  8
OBJECT
 10
594.99999999849024
 20
-1490.999999997231
 30
0.0
 11
590.49999999849024
 21
-1494.999999997231
 31
0.0
1001
ACDBBLOCKREPETAG
1070
     1
1071
       50
1005
13115C
  0
LINE
  5
13115D
  8
OBJECT
 10
473.99999999849018
 20
-1504.9999999972299
 30
0.0
 11
473.99999999849018
 21
-1507.999999997231
 31
0.0
1001
ACDBBLOCKREPETAG
1070
     1
1071
       51
1005
13115D
  0
ARC
  5
13115E
  8
OBJECT
 10
476.99999999849018
 20
-1504.9999999972299
 30
0.0
 40
3.0
 50
90.0
 51
180.0
1001
ACDBBLOCKREPETAG
1070
     1
1071
       52
1005
13115E
  0
LINE
  5
13115F
  8
OBJECT
 10
597.99999999849024
 20
-1507.999999997231
 30
0.0
 11
597.99999999849024
 21
-1504.999999997232
 31
0.0
1001
ACDBBLOCKREPETAG
1070
     1
1071
       53
1005
13115F
  0
ARC
  5
131160
  8
OBJECT
 10
594.99999999849024
 20
-1504.999999997232
 30
0.0
 40
3.0
 50
0.0
 51
90.0
1001
ACDBBLOCKREPETAG
1070
     1
1071
       54
1005
131160
  0
LINE
  5
131161
  8
OBJECT
 10
594.99999999849024
 20
-1501.999999997232
 30
0.0
 11
476.99999999849018
 21
-1501.9999999972299
 31
0.0
1001
ACDBBLOCKREPETAG
1070
     1
1071
       55
1005
131161
  0
LINE
  5
131162
  8
HIDDEN
 10
491.49999999849018
 20
-1499.999999997231
 30
0.0
 11
580.49999999849024
 21
-1499.999999997231
 31
0.0
1001
ACDBBLOCKREPETAG
1070
     1
1071
      426
1005
131162
  0
TEXT
  5
131163
  8
SLIM
 10
60.171428571368068
 20
-1835.9999999993749
 30
0.0
 40
48.0
  1
B204（特）
 41
0.75
1001
ACDBBLOCKREPETAG
1070
     1
1071
      119
1005
12F953
  0
LINE
  5
131164
  8
OBJECT
 10
250.99999999861211
 20
-1737.999999997231
 30
0.0
 11
250.99999999861211
 21
-1730.999999997231
 31
0.0
1001
ACDBBLOCKREPETAG
1070
     1
1071
       57
1005
131164
  0
LINE
  5
131165
  8
OBJECT
 10
250.99999999861211
 20
-1730.999999997231
 30
0.0
 11
100.9999999986121
 21
-1730.999999997231
 31
0.0
1001
ACDBBLOCKREPETAG
1070
     1
1071
       58
1005
131165
  0
LINE
  5
131166
  8
OBJECT
 10
247.99999999861211
 20
-1689.499999997232
 30
0.0
 11
103.9999999986121
 21
-1689.499999997232
 31
0.0
1001
ACDBBLOCKREPETAG
1070
     1
1071
       59
1005
131166
  0
LINE
  5
131167
  8
OBJECT
 10
241.49999999861211
 20
-1677.999999997231
 30
0.0
 11
110.4999999986121
 21
-1677.999999997231
 31
0.0
1001
ACDBBLOCKREPETAG
1070
     1
1071
       60
1005
131167
  0
LINE
  5
131168
  8
OBJECT
 10
100.9999999986121
 20
-1730.999999997231
 30
0.0
 11
100.9999999986121
 21
-1737.999999997231
 31
0.0
1001
ACDBBLOCKREPETAG
1070
     1
1071
       61
1005
131168
  0
LINE
  5
131169
  8
OBJECT
 10
100.9999999986121
 20
-1737.999999997231
 30
0.0
 11
250.99999999861211
 21
-1737.999999997231
 31
0.0
1001
ACDBBLOCKREPETAG
1070
     1
1071
       62
1005
131169
  0
LINE
  5
13116A
  8
OBJECT
 10
113.9999999986121
 20
-1673.999999997231
 30
0.0
 11
113.9999999986121
 21
-1667.999999997231
 31
0.0
1001
ACDBBLOCKREPETAG
1070
     1
1071
       63
1005
13116A
  0
LINE
  5
13116B
  8
OBJECT
 10
103.9999999986121
 20
-1730.999999997231
 30
0.0
 11
103.9999999986121
 21
-1689.499999997232
 31
0.0
1001
ACDBBLOCKREPETAG
1070
     1
1071
       64
1005
13116B
  0
LINE
  5
13116C
  8
OBJECT
 10
103.9999999986121
 20
-1689.499999997232
 30
0.0
 11
110.4999999986121
 21
-1677.999999997231
 31
0.0
1001
ACDBBLOCKREPETAG
1070
     1
1071
       65
1005
13116C
  0
LINE
  5
13116D
  8
OBJECT
 10
110.4999999986121
 20
-1677.999999997231
 30
0.0
 11
113.9999999986121
 21
-1673.999999997231
 31
0.0
1001
ACDBBLOCKREPETAG
1070
     1
1071
       66
1005
13116D
  0
LINE
  5
13116E
  8
OBJECT
 10
247.99999999861211
 20
-1689.499999997232
 30
0.0
 11
241.49999999861211
 21
-1677.999999997231
 31
0.0
1001
ACDBBLOCKREPETAG
1070
     1
1071
       67
1005
13116E
  0
LINE
  5
13116F
  8
OBJECT
 10
241.49999999861211
 20
-1677.999999997231
 30
0.0
 11
237.99999999861211
 21
-1673.999999997231
 31
0.0
1001
ACDBBLOCKREPETAG
1070
     1
1071
       68
1005
13116F
  0
ARC
  5
131170
  8
OBJECT
 10
175.99999999861211
 20
-2055.899999997233
 30
0.0
 40
386.89999999999998
 50
80.778701362368551
 51
99.221298637631435
1001
ACDBBLOCKREPETAG
1070
     1
1071
       69
1005
131170
  0
LINE
  5
131171
  8
OBJECT
 10
237.99999999861211
 20
-1673.999999997231
 30
0.0
 11
237.99999999861211
 21
-1667.999999997231
 31
0.0
1001
ACDBBLOCKREPETAG
1070
     1
1071
       70
1005
131171
  0
LINE
  5
131172
  8
OBJECT
 10
247.99999999861211
 20
-1730.999999997231
 30
0.0
 11
247.99999999861211
 21
-1689.499999997232
 31
0.0
1001
ACDBBLOCKREPETAG
1070
     1
1071
       71
1005
131172
  0
INSERT
  5
131173
  8
OBJECT
  2
*U11
 10
0.0
 20
0.0
 30
0.0
  0
LINE
  5
131174
  8
HIDDEN
 10
118.9999999986121
 20
-1685.999999997231
 30
0.0
 11
232.99999999861211
 21
-1685.999999997231
 31
0.0
1001
ACDBBLOCKREPETAG
1070
     1
1071
      437
1005
131174
  0
LINE
  5
131175
  8
OBJECT
 10
258.99999999861211
 20
-1649.999999997231
 30
0.0
 11
255.99999999861211
 21
-1649.999999997231
 31
0.0
1001
ACDBBLOCKREPETAG
1070
     1
1071
      418
1005
131175
  0
ARC
  5
131176
  8
OBJECT
 10
258.99999999861211
 20
-1646.999999997231
 30
0.0
 40
3.0
 50
270.0
 51
0.0
1001
ACDBBLOCKREPETAG
1070
     1
1071
      419
1005
131176
  0
LINE
  5
131177
  8
OBJECT
 10
255.99999999861211
 20
-1525.999999997231
 30
0.0
 11
258.99999999861211
 21
-1525.999999997231
 31
0.0
1001
ACDBBLOCKREPETAG
1070
     1
1071
      420
1005
131177
  0
ARC
  5
131178
  8
OBJECT
 10
258.99999999861211
 20
-1528.999999997231
 30
0.0
 40
3.0
 50
0.0
 51
90.0
1001
ACDBBLOCKREPETAG
1070
     1
1071
      421
1005
131178
  0
LINE
  5
131179
  8
OBJECT
 10
261.99999999861211
 20
-1528.999999997231
 30
0.0
 11
261.99999999861211
 21
-1646.999999997231
 31
0.0
1001
ACDBBLOCKREPETAG
1070
     1
1071
      422
1005
131179
  0
INSERT
  5
13117A
  8
OBJECT
  2
*U12
 10
0.0
 20
0.0
 30
0.0
  0
LINE
  5
13117B
  8
OBJECT
 10
120.9999999986121
 20
-1454.999999997231
 30
0.0
 11
120.9999999986121
 21
-1447.999999997231
 31
0.0
1001
ACDBBLOCKREPETAG
1070
     1
1071
       20
1005
13117B
  0
LINE
  5
13117C
  8
OBJECT
 10
120.9999999986121
 20
-1447.999999997231
 30
0.0
 11
230.99999999861211
 21
-1447.999999997231
 31
0.0
1001
ACDBBLOCKREPETAG
1070
     1
1071
       21
1005
13117C
  0
LINE
  5
13117D
  8
OBJECT
 10
230.99999999861211
 20
-1447.999999997231
 30
0.0
 11
230.99999999861211
 21
-1454.999999997231
 31
0.0
1001
ACDBBLOCKREPETAG
1070
     1
1071
       22
1005
13117D
  0
LINE
  5
13117E
  8
OBJECT
 10
230.99999999861211
 20
-1454.999999997231
 30
0.0
 11
120.9999999986121
 21
-1454.999999997231
 31
0.0
1001
ACDBBLOCKREPETAG
1070
     1
1071
       23
1005
13117E
  0
LINE
  5
13117F
  8
OBJECT
 10
123.9999999986121
 20
-1454.999999997231
 30
0.0
 11
123.9999999986121
 21
-1490.999999997231
 31
0.0
1001
ACDBBLOCKREPETAG
1070
     1
1071
       24
1005
13117F
  0
LINE
  5
131180
  8
OBJECT
 10
123.9999999986121
 20
-1490.999999997231
 30
0.0
 11
227.99999999861211
 21
-1490.999999997231
 31
0.0
1001
ACDBBLOCKREPETAG
1070
     1
1071
       25
1005
131180
  0
LINE
  5
131181
  8
OBJECT
 10
227.99999999861211
 20
-1490.999999997231
 30
0.0
 11
227.99999999861211
 21
-1454.999999997231
 31
0.0
1001
ACDBBLOCKREPETAG
1070
     1
1071
       26
1005
131181
  0
LINE
  5
131182
  8
OBJECT
 10
128.49999999861211
 20
-1494.999999997231
 30
0.0
 11
128.49999999861211
 21
-1501.999999997231
 31
0.0
1001
ACDBBLOCKREPETAG
1070
     1
1071
       27
1005
131182
  0
LINE
  5
131183
  8
OBJECT
 10
223.49999999861211
 20
-1501.999999997231
 30
0.0
 11
223.49999999861211
 21
-1494.999999997231
 31
0.0
1001
ACDBBLOCKREPETAG
1070
     1
1071
       28
1005
131183
  0
LINE
  5
131184
  8
OBJECT
 10
223.49999999861211
 20
-1494.999999997231
 30
0.0
 11
128.49999999861211
 21
-1494.999999997231
 31
0.0
1001
ACDBBLOCKREPETAG
1070
     1
1071
       29
1005
131184
  0
LINE
  5
131185
  8
OBJECT
 10
123.9999999986121
 20
-1490.999999997231
 30
0.0
 11
128.49999999861211
 21
-1494.999999997231
 31
0.0
1001
ACDBBLOCKREPETAG
1070
     1
1071
       30
1005
131185
  0
LINE
  5
131186
  8
OBJECT
 10
227.99999999861211
 20
-1490.999999997231
 30
0.0
 11
223.49999999861211
 21
-1494.999999997231
 31
0.0
1001
ACDBBLOCKREPETAG
1070
     1
1071
       31
1005
131186
  0
LINE
  5
131187
  8
OBJECT
 10
113.9999999986121
 20
-1504.9999999972299
 30
0.0
 11
113.9999999986121
 21
-1507.999999997231
 31
0.0
1001
ACDBBLOCKREPETAG
1070
     1
1071
       32
1005
131187
  0
ARC
  5
131188
  8
OBJECT
 10
116.9999999986121
 20
-1504.9999999972299
 30
0.0
 40
3.0
 50
90.0
 51
180.0
1001
ACDBBLOCKREPETAG
1070
     1
1071
       33
1005
131188
  0
LINE
  5
131189
  8
OBJECT
 10
237.99999999861211
 20
-1507.999999997231
 30
0.0
 11
237.99999999861211
 21
-1504.999999997232
 31
0.0
1001
ACDBBLOCKREPETAG
1070
     1
1071
       34
1005
131189
  0
ARC
  5
13118A
  8
OBJECT
 10
234.99999999861211
 20
-1504.999999997232
 30
0.0
 40
3.0
 50
0.0
 51
90.0
1001
ACDBBLOCKREPETAG
1070
     1
1071
       35
1005
13118A
  0
LINE
  5
13118B
  8
OBJECT
 10
234.99999999861211
 20
-1501.999999997232
 30
0.0
 11
116.9999999986121
 21
-1501.9999999972299
 31
0.0
1001
ACDBBLOCKREPETAG
1070
     1
1071
       36
1005
13118B
  0
LINE
  5
13118C
  8
HIDDEN
 10
137.99999999861211
 20
-1499.999999997231
 30
0.0
 11
213.99999999861211
 21
-1499.999999997231
 31
0.0
1001
ACDBBLOCKREPETAG
1070
     1
1071
      423
1005
13118C
  0
TEXT
  5
13118D
  8
SLIM
 10
420.17142857124622
 20
-1371.9999999995321
 30
0.0
 40
48.0
  1
B203（特）
 41
0.75
1001
ACDBBLOCKREPETAG
1070
     1
1071
      119
1005
12F953
  0
LINE
  5
13118E
  8
OBJECT
 10
597.99999999849024
 20
-1256.99999999739
 30
0.0
 11
597.99999999849024
 21
-1263.99999999739
 31
0.0
1001
ACDBBLOCKREPETAG
1070
     1
1071
       38
1005
13118E
  0
LINE
  5
13118F
  8
OBJECT
 10
597.99999999849024
 20
-1263.99999999739
 30
0.0
 11
473.99999999849018
 21
-1263.99999999739
 31
0.0
1001
ACDBBLOCKREPETAG
1070
     1
1071
       39
1005
13118F
  0
LINE
  5
131190
  8
OBJECT
 10
473.99999999849018
 20
-1263.99999999739
 30
0.0
 11
473.99999999849018
 21
-1256.99999999739
 31
0.0
1001
ACDBBLOCKREPETAG
1070
     1
1071
       40
1005
131190
  0
LINE
  5
131191
  8
OBJECT
 10
473.99999999849018
 20
-1256.99999999739
 30
0.0
 11
597.99999999849024
 21
-1256.99999999739
 31
0.0
1001
ACDBBLOCKREPETAG
1070
     1
1071
       41
1005
131191
  0
LINE
  5
131192
  8
OBJECT
 10
594.99999999849024
 20
-1256.99999999739
 30
0.0
 11
594.99999999849024
 21
-1220.9999999973891
 31
0.0
1001
ACDBBLOCKREPETAG
1070
     1
1071
       42
1005
131192
  0
LINE
  5
131193
  8
OBJECT
 10
594.99999999849024
 20
-1220.9999999973891
 30
0.0
 11
476.99999999849018
 21
-1220.9999999973891
 31
0.0
1001
ACDBBLOCKREPETAG
1070
     1
1071
       43
1005
131193
  0
LINE
  5
131194
  8
OBJECT
 10
476.99999999849018
 20
-1220.9999999973891
 30
0.0
 11
476.99999999849018
 21
-1256.99999999739
 31
0.0
1001
ACDBBLOCKREPETAG
1070
     1
1071
       44
1005
131194
  0
LINE
  5
131195
  8
OBJECT
 10
590.49999999849024
 20
-1216.99999999739
 30
0.0
 11
590.49999999849024
 21
-1209.99999999739
 31
0.0
1001
ACDBBLOCKREPETAG
1070
     1
1071
       45
1005
131195
  0
LINE
  5
131196
  8
OBJECT
 10
481.49999999849018
 20
-1209.99999999739
 30
0.0
 11
481.49999999849018
 21
-1216.99999999739
 31
0.0
1001
ACDBBLOCKREPETAG
1070
     1
1071
       46
1005
131196
  0
LINE
  5
131197
  8
OBJECT
 10
481.49999999849018
 20
-1216.99999999739
 30
0.0
 11
590.49999999849024
 21
-1216.99999999739
 31
0.0
1001
ACDBBLOCKREPETAG
1070
     1
1071
       47
1005
131197
  0
LINE
  5
131198
  8
OBJECT
 10
594.99999999849024
 20
-1220.9999999973891
 30
0.0
 11
590.49999999849024
 21
-1216.99999999739
 31
0.0
1001
ACDBBLOCKREPETAG
1070
     1
1071
       48
1005
131198
  0
LINE
  5
131199
  8
OBJECT
 10
476.99999999849018
 20
-1220.9999999973891
 30
0.0
 11
481.49999999849018
 21
-1216.99999999739
 31
0.0
1001
ACDBBLOCKREPETAG
1070
     1
1071
       49
1005
131199
  0
LINE
  5
13119A
  8
OBJECT
 10
597.99999999849024
 20
-1206.9999999973909
 30
0.0
 11
597.99999999849024
 21
-1203.99999999739
 31
0.0
1001
ACDBBLOCKREPETAG
1070
     1
1071
       50
1005
13119A
  0
ARC
  5
13119B
  8
OBJECT
 10
594.99999999849024
 20
-1206.9999999973909
 30
0.0
 40
3.0
 50
270.0
 51
0.0
1001
ACDBBLOCKREPETAG
1070
     1
1071
       51
1005
13119B
  0
LINE
  5
13119C
  8
OBJECT
 10
473.99999999849018
 20
-1203.99999999739
 30
0.0
 11
473.99999999849018
 21
-1206.9999999973891
 31
0.0
1001
ACDBBLOCKREPETAG
1070
     1
1071
       52
1005
13119C
  0
ARC
  5
13119D
  8
OBJECT
 10
476.99999999849018
 20
-1206.9999999973891
 30
0.0
 40
3.0
 50
180.0
 51
270.0
1001
ACDBBLOCKREPETAG
1070
     1
1071
       53
1005
13119D
  0
LINE
  5
13119E
  8
OBJECT
 10
476.99999999849018
 20
-1209.9999999973891
 30
0.0
 11
594.99999999849024
 21
-1209.99999999739
 31
0.0
1001
ACDBBLOCKREPETAG
1070
     1
1071
       54
1005
13119E
  0
INSERT
  5
13119F
  8
OBJECT
  2
*U13
 10
0.0
 20
0.0
 30
0.0
  0
LINE
  5
1311A0
  8
HIDDEN
 10
580.49999999849024
 20
-1211.99999999739
 30
0.0
 11
491.49999999849018
 21
-1211.99999999739
 31
0.0
1001
ACDBBLOCKREPETAG
1070
     1
1071
      430
1005
1311A0
  0
LINE
  5
1311A1
  8
OBJECT
 10
618.99999999849024
 20
-1185.99999999739
 30
0.0
 11
615.99999999849024
 21
-1185.99999999739
 31
0.0
1001
ACDBBLOCKREPETAG
1070
     1
1071
      418
1005
1311A1
  0
ARC
  5
1311A2
  8
OBJECT
 10
618.99999999849024
 20
-1182.99999999739
 30
0.0
 40
3.0
 50
270.0
 51
0.0
1001
ACDBBLOCKREPETAG
1070
     1
1071
      419
1005
1311A2
  0
LINE
  5
1311A3
  8
OBJECT
 10
615.99999999849024
 20
-1061.9999999973891
 30
0.0
 11
618.99999999849024
 21
-1061.9999999973891
 31
0.0
1001
ACDBBLOCKREPETAG
1070
     1
1071
      420
1005
1311A3
  0
ARC
  5
1311A4
  8
OBJECT
 10
618.99999999849024
 20
-1064.99999999739
 30
0.0
 40
3.0
 50
0.0
 51
90.0
1001
ACDBBLOCKREPETAG
1070
     1
1071
      421
1005
1311A4
  0
LINE
  5
1311A5
  8
OBJECT
 10
621.99999999849024
 20
-1064.99999999739
 30
0.0
 11
621.99999999849024
 21
-1182.99999999739
 31
0.0
1001
ACDBBLOCKREPETAG
1070
     1
1071
      422
1005
1311A5
  0
INSERT
  5
1311A6
  8
OBJECT
  2
*U14
 10
0.0
 20
0.0
 30
0.0
  0
LINE
  5
1311A7
  8
OBJECT
 10
480.99999999849018
 20
-990.99999999738964
 30
0.0
 11
480.99999999849018
 21
-983.99999999738964
 31
0.0
1001
ACDBBLOCKREPETAG
1070
     1
1071
       20
1005
1311A7
  0
LINE
  5
1311A8
  8
OBJECT
 10
480.99999999849018
 20
-983.99999999738964
 30
0.0
 11
590.99999999849024
 21
-983.99999999738964
 31
0.0
1001
ACDBBLOCKREPETAG
1070
     1
1071
       21
1005
1311A8
  0
LINE
  5
1311A9
  8
OBJECT
 10
590.99999999849024
 20
-983.99999999738964
 30
0.0
 11
590.99999999849024
 21
-990.99999999738964
 31
0.0
1001
ACDBBLOCKREPETAG
1070
     1
1071
       22
1005
1311A9
  0
LINE
  5
1311AA
  8
OBJECT
 10
590.99999999849024
 20
-990.99999999738964
 30
0.0
 11
480.99999999849018
 21
-990.99999999738964
 31
0.0
1001
ACDBBLOCKREPETAG
1070
     1
1071
       23
1005
1311AA
  0
LINE
  5
1311AB
  8
OBJECT
 10
483.99999999849018
 20
-990.99999999738964
 30
0.0
 11
483.99999999849018
 21
-1026.99999999739
 31
0.0
1001
ACDBBLOCKREPETAG
1070
     1
1071
       24
1005
1311AB
  0
LINE
  5
1311AC
  8
OBJECT
 10
483.99999999849018
 20
-1026.99999999739
 30
0.0
 11
587.99999999849024
 21
-1026.99999999739
 31
0.0
1001
ACDBBLOCKREPETAG
1070
     1
1071
       25
1005
1311AC
  0
LINE
  5
1311AD
  8
OBJECT
 10
587.99999999849024
 20
-1026.99999999739
 30
0.0
 11
587.99999999849024
 21
-990.99999999738964
 31
0.0
1001
ACDBBLOCKREPETAG
1070
     1
1071
       26
1005
1311AD
  0
LINE
  5
1311AE
  8
OBJECT
 10
488.49999999849018
 20
-1030.99999999739
 30
0.0
 11
488.49999999849018
 21
-1037.9999999973891
 31
0.0
1001
ACDBBLOCKREPETAG
1070
     1
1071
       27
1005
1311AE
  0
LINE
  5
1311AF
  8
OBJECT
 10
583.49999999849024
 20
-1037.9999999973891
 30
0.0
 11
583.49999999849024
 21
-1030.99999999739
 31
0.0
1001
ACDBBLOCKREPETAG
1070
     1
1071
       28
1005
1311AF
  0
LINE
  5
1311B0
  8
OBJECT
 10
583.49999999849024
 20
-1030.99999999739
 30
0.0
 11
488.49999999849018
 21
-1030.99999999739
 31
0.0
1001
ACDBBLOCKREPETAG
1070
     1
1071
       29
1005
1311B0
  0
LINE
  5
1311B1
  8
OBJECT
 10
483.99999999849018
 20
-1026.99999999739
 30
0.0
 11
488.49999999849018
 21
-1030.99999999739
 31
0.0
1001
ACDBBLOCKREPETAG
1070
     1
1071
       30
1005
1311B1
  0
LINE
  5
1311B2
  8
OBJECT
 10
587.99999999849024
 20
-1026.99999999739
 30
0.0
 11
583.49999999849024
 21
-1030.99999999739
 31
0.0
1001
ACDBBLOCKREPETAG
1070
     1
1071
       31
1005
1311B2
  0
LINE
  5
1311B3
  8
OBJECT
 10
473.99999999849018
 20
-1040.9999999973891
 30
0.0
 11
473.99999999849018
 21
-1043.99999999739
 31
0.0
1001
ACDBBLOCKREPETAG
1070
     1
1071
       32
1005
1311B3
  0
ARC
  5
1311B4
  8
OBJECT
 10
476.99999999849018
 20
-1040.9999999973891
 30
0.0
 40
3.0
 50
90.0
 51
180.0
1001
ACDBBLOCKREPETAG
1070
     1
1071
       33
1005
1311B4
  0
LINE
  5
1311B5
  8
OBJECT
 10
597.99999999849024
 20
-1043.99999999739
 30
0.0
 11
597.99999999849024
 21
-1040.99999999739
 31
0.0
1001
ACDBBLOCKREPETAG
1070
     1
1071
       34
1005
1311B5
  0
ARC
  5
1311B6
  8
OBJECT
 10
594.99999999849024
 20
-1040.99999999739
 30
0.0
 40
3.0
 50
0.0
 51
90.0
1001
ACDBBLOCKREPETAG
1070
     1
1071
       35
1005
1311B6
  0
LINE
  5
1311B7
  8
OBJECT
 10
594.99999999849024
 20
-1037.99999999739
 30
0.0
 11
476.99999999849018
 21
-1037.9999999973891
 31
0.0
1001
ACDBBLOCKREPETAG
1070
     1
1071
       36
1005
1311B7
  0
LINE
  5
1311B8
  8
HIDDEN
 10
497.99999999849018
 20
-1035.99999999739
 30
0.0
 11
573.99999999849024
 21
-1035.99999999739
 31
0.0
1001
ACDBBLOCKREPETAG
1070
     1
1071
      423
1005
1311B8
  0
TEXT
  5
1311B9
  8
SLIM
 10
115.714285714225
 20
-1371.9999999995321
 30
0.0
 40
48.0
  1
B202
 41
0.75
1001
ACDBBLOCKREPETAG
1070
     1
1071
      119
1005
12F953
  0
LINE
  5
1311BA
  8
OBJECT
 10
230.999999998612
 20
-1256.99999999739
 30
0.0
 11
230.999999998612
 21
-1263.99999999739
 31
0.0
1001
ACDBBLOCKREPETAG
1070
     1
1071
       19
1005
1311BA
  0
LINE
  5
1311BB
  8
OBJECT
 10
230.999999998612
 20
-1263.99999999739
 30
0.0
 11
120.9999999986119
 21
-1263.99999999739
 31
0.0
1001
ACDBBLOCKREPETAG
1070
     1
1071
       20
1005
1311BB
  0
LINE
  5
1311BC
  8
OBJECT
 10
120.9999999986119
 20
-1263.99999999739
 30
0.0
 11
120.9999999986119
 21
-1256.99999999739
 31
0.0
1001
ACDBBLOCKREPETAG
1070
     1
1071
       21
1005
1311BC
  0
LINE
  5
1311BD
  8
OBJECT
 10
120.9999999986119
 20
-1256.99999999739
 30
0.0
 11
230.999999998612
 21
-1256.99999999739
 31
0.0
1001
ACDBBLOCKREPETAG
1070
     1
1071
       22
1005
1311BD
  0
LINE
  5
1311BE
  8
OBJECT
 10
227.99999999861191
 20
-1256.99999999739
 30
0.0
 11
227.99999999861191
 21
-1220.9999999973891
 31
0.0
1001
ACDBBLOCKREPETAG
1070
     1
1071
       23
1005
1311BE
  0
LINE
  5
1311BF
  8
OBJECT
 10
227.99999999861191
 20
-1220.9999999973891
 30
0.0
 11
123.9999999986119
 21
-1220.9999999973891
 31
0.0
1001
ACDBBLOCKREPETAG
1070
     1
1071
       24
1005
1311BF
  0
LINE
  5
1311C0
  8
OBJECT
 10
123.9999999986119
 20
-1220.9999999973891
 30
0.0
 11
123.9999999986119
 21
-1256.99999999739
 31
0.0
1001
ACDBBLOCKREPETAG
1070
     1
1071
       25
1005
1311C0
  0
LINE
  5
1311C1
  8
OBJECT
 10
223.49999999861191
 20
-1216.99999999739
 30
0.0
 11
223.49999999861191
 21
-1209.99999999739
 31
0.0
1001
ACDBBLOCKREPETAG
1070
     1
1071
       26
1005
1311C1
  0
LINE
  5
1311C2
  8
OBJECT
 10
128.49999999861191
 20
-1209.99999999739
 30
0.0
 11
128.49999999861191
 21
-1216.99999999739
 31
0.0
1001
ACDBBLOCKREPETAG
1070
     1
1071
       27
1005
1311C2
  0
LINE
  5
1311C3
  8
OBJECT
 10
128.49999999861191
 20
-1216.99999999739
 30
0.0
 11
223.49999999861191
 21
-1216.99999999739
 31
0.0
1001
ACDBBLOCKREPETAG
1070
     1
1071
       28
1005
1311C3
  0
LINE
  5
1311C4
  8
OBJECT
 10
227.99999999861191
 20
-1220.9999999973891
 30
0.0
 11
223.49999999861191
 21
-1216.99999999739
 31
0.0
1001
ACDBBLOCKREPETAG
1070
     1
1071
       29
1005
1311C4
  0
LINE
  5
1311C5
  8
OBJECT
 10
123.9999999986119
 20
-1220.9999999973891
 30
0.0
 11
128.49999999861191
 21
-1216.99999999739
 31
0.0
1001
ACDBBLOCKREPETAG
1070
     1
1071
       30
1005
1311C5
  0
LINE
  5
1311C6
  8
OBJECT
 10
237.99999999861191
 20
-1206.9999999973909
 30
0.0
 11
237.99999999861191
 21
-1203.99999999739
 31
0.0
1001
ACDBBLOCKREPETAG
1070
     1
1071
       31
1005
1311C6
  0
ARC
  5
1311C7
  8
OBJECT
 10
234.999999998612
 20
-1206.9999999973909
 30
0.0
 40
3.0
 50
270.0
 51
0.0
1001
ACDBBLOCKREPETAG
1070
     1
1071
       32
1005
1311C7
  0
LINE
  5
1311C8
  8
OBJECT
 10
113.9999999986119
 20
-1203.99999999739
 30
0.0
 11
113.9999999986119
 21
-1206.9999999973891
 31
0.0
1001
ACDBBLOCKREPETAG
1070
     1
1071
       33
1005
1311C8
  0
ARC
  5
1311C9
  8
OBJECT
 10
116.9999999986119
 20
-1206.9999999973891
 30
0.0
 40
3.0
 50
180.0
 51
270.0
1001
ACDBBLOCKREPETAG
1070
     1
1071
       34
1005
1311C9
  0
LINE
  5
1311CA
  8
OBJECT
 10
116.9999999986119
 20
-1209.9999999973891
 30
0.0
 11
234.999999998612
 21
-1209.99999999739
 31
0.0
1001
ACDBBLOCKREPETAG
1070
     1
1071
       35
1005
1311CA
  0
INSERT
  5
1311CB
  8
OBJECT
  2
*U15
 10
0.0
 20
0.0
 30
0.0
  0
LINE
  5
1311CC
  8
HIDDEN
 10
213.999999998612
 20
-1211.99999999739
 30
0.0
 11
137.99999999861191
 21
-1211.99999999739
 31
0.0
1001
ACDBBLOCKREPETAG
1070
     1
1071
      427
1005
1311CC
  0
LINE
  5
1311CD
  8
OBJECT
 10
258.99999999861188
 20
-1185.99999999739
 30
0.0
 11
255.999999998612
 21
-1185.99999999739
 31
0.0
1001
ACDBBLOCKREPETAG
1070
     1
1071
      418
1005
1311CD
  0
ARC
  5
1311CE
  8
OBJECT
 10
258.99999999861188
 20
-1182.99999999739
 30
0.0
 40
3.0
 50
270.0
 51
0.0
1001
ACDBBLOCKREPETAG
1070
     1
1071
      419
1005
1311CE
  0
LINE
  5
1311CF
  8
OBJECT
 10
255.999999998612
 20
-1061.9999999973891
 30
0.0
 11
258.99999999861188
 21
-1061.9999999973891
 31
0.0
1001
ACDBBLOCKREPETAG
1070
     1
1071
      420
1005
1311CF
  0
ARC
  5
1311D0
  8
OBJECT
 10
258.99999999861188
 20
-1064.99999999739
 30
0.0
 40
3.0
 50
0.0
 51
90.0
1001
ACDBBLOCKREPETAG
1070
     1
1071
      421
1005
1311D0
  0
LINE
  5
1311D1
  8
OBJECT
 10
261.999999998612
 20
-1064.99999999739
 30
0.0
 11
261.999999998612
 21
-1182.99999999739
 31
0.0
1001
ACDBBLOCKREPETAG
1070
     1
1071
      422
1005
1311D1
  0
INSERT
  5
1311D2
  8
OBJECT
  2
*U16
 10
0.0
 20
0.0
 30
0.0
  0
LINE
  5
1311D3
  8
OBJECT
 10
120.9999999986119
 20
-990.99999999738964
 30
0.0
 11
120.9999999986119
 21
-983.99999999738964
 31
0.0
1001
ACDBBLOCKREPETAG
1070
     1
1071
       20
1005
1311D3
  0
LINE
  5
1311D4
  8
OBJECT
 10
120.9999999986119
 20
-983.99999999738964
 30
0.0
 11
230.999999998612
 21
-983.99999999738964
 31
0.0
1001
ACDBBLOCKREPETAG
1070
     1
1071
       21
1005
1311D4
  0
LINE
  5
1311D5
  8
OBJECT
 10
230.999999998612
 20
-983.99999999738964
 30
0.0
 11
230.999999998612
 21
-990.99999999738964
 31
0.0
1001
ACDBBLOCKREPETAG
1070
     1
1071
       22
1005
1311D5
  0
LINE
  5
1311D6
  8
OBJECT
 10
230.999999998612
 20
-990.99999999738964
 30
0.0
 11
120.9999999986119
 21
-990.99999999738964
 31
0.0
1001
ACDBBLOCKREPETAG
1070
     1
1071
       23
1005
1311D6
  0
LINE
  5
1311D7
  8
OBJECT
 10
123.9999999986119
 20
-990.99999999738964
 30
0.0
 11
123.9999999986119
 21
-1026.99999999739
 31
0.0
1001
ACDBBLOCKREPETAG
1070
     1
1071
       24
1005
1311D7
  0
LINE
  5
1311D8
  8
OBJECT
 10
123.9999999986119
 20
-1026.99999999739
 30
0.0
 11
227.99999999861191
 21
-1026.99999999739
 31
0.0
1001
ACDBBLOCKREPETAG
1070
     1
1071
       25
1005
1311D8
  0
LINE
  5
1311D9
  8
OBJECT
 10
227.99999999861191
 20
-1026.99999999739
 30
0.0
 11
227.99999999861191
 21
-990.99999999738964
 31
0.0
1001
ACDBBLOCKREPETAG
1070
     1
1071
       26
1005
1311D9
  0
LINE
  5
1311DA
  8
OBJECT
 10
128.49999999861191
 20
-1030.99999999739
 30
0.0
 11
128.49999999861191
 21
-1037.9999999973891
 31
0.0
1001
ACDBBLOCKREPETAG
1070
     1
1071
       27
1005
1311DA
  0
LINE
  5
1311DB
  8
OBJECT
 10
223.49999999861191
 20
-1037.9999999973891
 30
0.0
 11
223.49999999861191
 21
-1030.99999999739
 31
0.0
1001
ACDBBLOCKREPETAG
1070
     1
1071
       28
1005
1311DB
  0
LINE
  5
1311DC
  8
OBJECT
 10
223.49999999861191
 20
-1030.99999999739
 30
0.0
 11
128.49999999861191
 21
-1030.99999999739
 31
0.0
1001
ACDBBLOCKREPETAG
1070
     1
1071
       29
1005
1311DC
  0
LINE
  5
1311DD
  8
OBJECT
 10
123.9999999986119
 20
-1026.99999999739
 30
0.0
 11
128.49999999861191
 21
-1030.99999999739
 31
0.0
1001
ACDBBLOCKREPETAG
1070
     1
1071
       30
1005
1311DD
  0
LINE
  5
1311DE
  8
OBJECT
 10
227.99999999861191
 20
-1026.99999999739
 30
0.0
 11
223.49999999861191
 21
-1030.99999999739
 31
0.0
1001
ACDBBLOCKREPETAG
1070
     1
1071
       31
1005
1311DE
  0
LINE
  5
1311DF
  8
OBJECT
 10
113.9999999986119
 20
-1040.9999999973891
 30
0.0
 11
113.9999999986119
 21
-1043.99999999739
 31
0.0
1001
ACDBBLOCKREPETAG
1070
     1
1071
       32
1005
1311DF
  0
ARC
  5
1311E0
  8
OBJECT
 10
116.9999999986119
 20
-1040.9999999973891
 30
0.0
 40
3.0
 50
90.0
 51
180.0
1001
ACDBBLOCKREPETAG
1070
     1
1071
       33
1005
1311E0
  0
LINE
  5
1311E1
  8
OBJECT
 10
237.99999999861191
 20
-1043.99999999739
 30
0.0
 11
237.99999999861191
 21
-1040.99999999739
 31
0.0
1001
ACDBBLOCKREPETAG
1070
     1
1071
       34
1005
1311E1
  0
ARC
  5
1311E2
  8
OBJECT
 10
234.999999998612
 20
-1040.99999999739
 30
0.0
 40
3.0
 50
0.0
 51
90.0
1001
ACDBBLOCKREPETAG
1070
     1
1071
       35
1005
1311E2
  0
LINE
  5
1311E3
  8
OBJECT
 10
234.999999998612
 20
-1037.99999999739
 30
0.0
 11
116.9999999986119
 21
-1037.9999999973891
 31
0.0
1001
ACDBBLOCKREPETAG
1070
     1
1071
       36
1005
1311E3
  0
LINE
  5
1311E4
  8
HIDDEN
 10
137.99999999861191
 20
-1035.99999999739
 30
0.0
 11
213.999999998612
 21
-1035.99999999739
 31
0.0
1001
ACDBBLOCKREPETAG
1070
     1
1071
      423
1005
1311E4
  0
TEXT
  5
1311E5
  8
SLIM
 10
423.59999999981761
 20
-907.999999999691
 30
0.0
 40
48.0
  1
B104（特）
 41
0.75
1001
ACDBBLOCKREPETAG
1070
     1
1071
      119
1005
12F953
  0
LINE
  5
1311E6
  8
OBJECT
 10
610.99999999849024
 20
-809.999999997548
 30
0.0
 11
610.99999999849024
 21
-802.99999999754823
 31
0.0
1001
ACDBBLOCKREPETAG
1070
     1
1071
       57
1005
1311E6
  0
LINE
  5
1311E7
  8
OBJECT
 10
610.99999999849024
 20
-802.99999999754823
 30
0.0
 11
460.99999999849018
 21
-802.99999999754823
 31
0.0
1001
ACDBBLOCKREPETAG
1070
     1
1071
       58
1005
1311E7
  0
LINE
  5
1311E8
  8
OBJECT
 10
607.99999999849024
 20
-761.49999999754812
 30
0.0
 11
463.99999999849018
 21
-761.49999999754812
 31
0.0
1001
ACDBBLOCKREPETAG
1070
     1
1071
       59
1005
1311E8
  0
LINE
  5
1311E9
  8
OBJECT
 10
601.49999999849024
 20
-749.999999997548
 30
0.0
 11
470.49999999849018
 21
-749.999999997548
 31
0.0
1001
ACDBBLOCKREPETAG
1070
     1
1071
       60
1005
1311E9
  0
LINE
  5
1311EA
  8
OBJECT
 10
460.99999999849018
 20
-802.99999999754823
 30
0.0
 11
460.99999999849018
 21
-809.999999997548
 31
0.0
1001
ACDBBLOCKREPETAG
1070
     1
1071
       61
1005
1311EA
  0
LINE
  5
1311EB
  8
OBJECT
 10
460.99999999849018
 20
-809.999999997548
 30
0.0
 11
610.99999999849024
 21
-809.999999997548
 31
0.0
1001
ACDBBLOCKREPETAG
1070
     1
1071
       62
1005
1311EB
  0
LINE
  5
1311EC
  8
OBJECT
 10
473.99999999849018
 20
-745.999999997548
 30
0.0
 11
473.99999999849018
 21
-739.99999999754812
 31
0.0
1001
ACDBBLOCKREPETAG
1070
     1
1071
       63
1005
1311EC
  0
LINE
  5
1311ED
  8
OBJECT
 10
463.99999999849018
 20
-802.99999999754823
 30
0.0
 11
463.99999999849018
 21
-761.49999999754812
 31
0.0
1001
ACDBBLOCKREPETAG
1070
     1
1071
       64
1005
1311ED
  0
LINE
  5
1311EE
  8
OBJECT
 10
463.99999999849018
 20
-761.49999999754812
 30
0.0
 11
470.49999999849018
 21
-749.999999997548
 31
0.0
1001
ACDBBLOCKREPETAG
1070
     1
1071
       65
1005
1311EE
  0
LINE
  5
1311EF
  8
OBJECT
 10
470.49999999849018
 20
-749.999999997548
 30
0.0
 11
473.99999999849018
 21
-745.999999997548
 31
0.0
1001
ACDBBLOCKREPETAG
1070
     1
1071
       66
1005
1311EF
  0
LINE
  5
1311F0
  8
OBJECT
 10
607.99999999849024
 20
-761.49999999754812
 30
0.0
 11
601.49999999849024
 21
-749.999999997548
 31
0.0
1001
ACDBBLOCKREPETAG
1070
     1
1071
       67
1005
1311F0
  0
LINE
  5
1311F1
  8
OBJECT
 10
601.49999999849024
 20
-749.999999997548
 30
0.0
 11
597.99999999849024
 21
-745.999999997548
 31
0.0
1001
ACDBBLOCKREPETAG
1070
     1
1071
       68
1005
1311F1
  0
ARC
  5
1311F2
  8
OBJECT
 10
535.99999999849024
 20
-1127.899999997549
 30
0.0
 40
386.89999999999998
 50
80.778701362367499
 51
99.221298637632543
1001
ACDBBLOCKREPETAG
1070
     1
1071
       69
1005
1311F2
  0
LINE
  5
1311F3
  8
OBJECT
 10
597.99999999849024
 20
-745.999999997548
 30
0.0
 11
597.99999999849024
 21
-739.99999999754812
 31
0.0
1001
ACDBBLOCKREPETAG
1070
     1
1071
       70
1005
1311F3
  0
LINE
  5
1311F4
  8
OBJECT
 10
607.99999999849024
 20
-802.99999999754823
 30
0.0
 11
607.99999999849024
 21
-761.49999999754812
 31
0.0
1001
ACDBBLOCKREPETAG
1070
     1
1071
       71
1005
1311F4
  0
INSERT
  5
1311F5
  8
OBJECT
  2
*U17
 10
0.0
 20
0.0
 30
0.0
  0
LINE
  5
1311F6
  8
HIDDEN
 10
478.99999999849018
 20
-757.99999999754812
 30
0.0
 11
592.99999999849024
 21
-757.99999999754812
 31
0.0
1001
ACDBBLOCKREPETAG
1070
     1
1071
      437
1005
1311F6
  0
LINE
  5
1311F7
  8
OBJECT
 10
618.99999999849024
 20
-721.99999999754812
 30
0.0
 11
615.99999999849024
 21
-721.99999999754812
 31
0.0
1001
ACDBBLOCKREPETAG
1070
     1
1071
      418
1005
1311F7
  0
ARC
  5
1311F8
  8
OBJECT
 10
618.99999999849024
 20
-718.99999999754812
 30
0.0
 40
3.0
 50
270.0
 51
0.0
1001
ACDBBLOCKREPETAG
1070
     1
1071
      419
1005
1311F8
  0
LINE
  5
1311F9
  8
OBJECT
 10
615.99999999849024
 20
-597.999999997548
 30
0.0
 11
618.99999999849024
 21
-597.999999997548
 31
0.0
1001
ACDBBLOCKREPETAG
1070
     1
1071
      420
1005
1311F9
  0
ARC
  5
1311FA
  8
OBJECT
 10
618.99999999849024
 20
-600.99999999754777
 30
0.0
 40
3.0
 50
0.0
 51
90.0
1001
ACDBBLOCKREPETAG
1070
     1
1071
      421
1005
1311FA
  0
LINE
  5
1311FB
  8
OBJECT
 10
621.99999999849024
 20
-600.99999999754777
 30
0.0
 11
621.99999999849024
 21
-718.99999999754812
 31
0.0
1001
ACDBBLOCKREPETAG
1070
     1
1071
      422
1005
1311FB
  0
INSERT
  5
1311FC
  8
OBJECT
  2
*U18
 10
0.0
 20
0.0
 30
0.0
  0
LINE
  5
1311FD
  8
OBJECT
 10
488.99999999849018
 20
-526.999999997548
 30
0.0
 11
488.99999999849018
 21
-519.999999997548
 31
0.0
1001
ACDBBLOCKREPETAG
1070
     1
1071
        1
1005
1311FD
  0
LINE
  5
1311FE
  8
OBJECT
 10
488.99999999849018
 20
-519.999999997548
 30
0.0
 11
582.99999999849024
 21
-519.999999997548
 31
0.0
1001
ACDBBLOCKREPETAG
1070
     1
1071
        2
1005
1311FE
  0
LINE
  5
1311FF
  8
OBJECT
 10
582.99999999849024
 20
-519.999999997548
 30
0.0
 11
582.99999999849024
 21
-526.999999997548
 31
0.0
1001
ACDBBLOCKREPETAG
1070
     1
1071
        3
1005
1311FF
  0
LINE
  5
131200
  8
OBJECT
 10
582.99999999849024
 20
-526.999999997548
 30
0.0
 11
488.99999999849018
 21
-526.999999997548
 31
0.0
1001
ACDBBLOCKREPETAG
1070
     1
1071
        4
1005
131200
  0
LINE
  5
131201
  8
OBJECT
 10
491.99999999849018
 20
-526.999999997548
 30
0.0
 11
491.99999999849018
 21
-562.99999999754789
 31
0.0
1001
ACDBBLOCKREPETAG
1070
     1
1071
        5
1005
131201
  0
LINE
  5
131202
  8
OBJECT
 10
491.99999999849018
 20
-562.99999999754789
 30
0.0
 11
579.99999999849024
 21
-562.99999999754789
 31
0.0
1001
ACDBBLOCKREPETAG
1070
     1
1071
        6
1005
131202
  0
LINE
  5
131203
  8
OBJECT
 10
579.99999999849024
 20
-562.99999999754789
 30
0.0
 11
579.99999999849024
 21
-526.999999997548
 31
0.0
1001
ACDBBLOCKREPETAG
1070
     1
1071
        7
1005
131203
  0
LINE
  5
131204
  8
OBJECT
 10
496.49999999849018
 20
-566.99999999754789
 30
0.0
 11
496.49999999849018
 21
-573.999999997548
 31
0.0
1001
ACDBBLOCKREPETAG
1070
     1
1071
        8
1005
131204
  0
LINE
  5
131205
  8
OBJECT
 10
575.49999999849024
 20
-573.999999997548
 30
0.0
 11
575.49999999849024
 21
-566.99999999754789
 31
0.0
1001
ACDBBLOCKREPETAG
1070
     1
1071
        9
1005
131205
  0
LINE
  5
131206
  8
OBJECT
 10
575.49999999849024
 20
-566.99999999754789
 30
0.0
 11
496.49999999849018
 21
-566.99999999754789
 31
0.0
1001
ACDBBLOCKREPETAG
1070
     1
1071
       10
1005
131206
  0
LINE
  5
131207
  8
OBJECT
 10
491.99999999849018
 20
-562.99999999754789
 30
0.0
 11
496.49999999849018
 21
-566.99999999754789
 31
0.0
1001
ACDBBLOCKREPETAG
1070
     1
1071
       11
1005
131207
  0
LINE
  5
131208
  8
OBJECT
 10
579.99999999849024
 20
-562.99999999754789
 30
0.0
 11
575.49999999849024
 21
-566.99999999754789
 31
0.0
1001
ACDBBLOCKREPETAG
1070
     1
1071
       12
1005
131208
  0
LINE
  5
131209
  8
OBJECT
 10
473.99999999849018
 20
-576.99999999754687
 30
0.0
 11
473.99999999849018
 21
-579.99999999754777
 31
0.0
1001
ACDBBLOCKREPETAG
1070
     1
1071
       13
1005
131209
  0
ARC
  5
13120A
  8
OBJECT
 10
476.99999999849018
 20
-576.99999999754687
 30
0.0
 40
3.0
 50
90.0
 51
180.0
1001
ACDBBLOCKREPETAG
1070
     1
1071
       14
1005
13120A
  0
LINE
  5
13120B
  8
OBJECT
 10
597.99999999849024
 20
-579.99999999754777
 30
0.0
 11
597.99999999849024
 21
-576.99999999754891
 31
0.0
1001
ACDBBLOCKREPETAG
1070
     1
1071
       15
1005
13120B
  0
ARC
  5
13120C
  8
OBJECT
 10
594.99999999849024
 20
-576.99999999754891
 30
0.0
 40
3.0
 50
0.0
 51
90.0
1001
ACDBBLOCKREPETAG
1070
     1
1071
       16
1005
13120C
  0
LINE
  5
13120D
  8
OBJECT
 10
594.99999999849024
 20
-573.99999999754891
 30
0.0
 11
476.99999999849018
 21
-573.99999999754721
 31
0.0
1001
ACDBBLOCKREPETAG
1070
     1
1071
       17
1005
13120D
  0
LINE
  5
13120E
  8
HIDDEN
 10
505.99999999849018
 20
-571.99999999754777
 30
0.0
 11
565.99999999849024
 21
-571.99999999754777
 31
0.0
1001
ACDBBLOCKREPETAG
1070
     1
1071
      420
1005
13120E
  0
TEXT
  5
13120F
  8
SLIM
 10
63.599999999939421
 20
-907.999999999691
 30
0.0
 40
48.0
  1
B103（特）
 41
0.75
1001
ACDBBLOCKREPETAG
1070
     1
1071
      119
1005
12F953
  0
LINE
  5
131210
  8
OBJECT
 10
237.99999999861211
 20
-792.99999999754812
 30
0.0
 11
237.99999999861211
 21
-799.999999997548
 31
0.0
1001
ACDBBLOCKREPETAG
1070
     1
1071
       38
1005
131210
  0
LINE
  5
131211
  8
OBJECT
 10
237.99999999861211
 20
-799.999999997548
 30
0.0
 11
113.999999998612
 21
-799.999999997548
 31
0.0
1001
ACDBBLOCKREPETAG
1070
     1
1071
       39
1005
131211
  0
LINE
  5
131212
  8
OBJECT
 10
113.999999998612
 20
-799.999999997548
 30
0.0
 11
113.999999998612
 21
-792.99999999754812
 31
0.0
1001
ACDBBLOCKREPETAG
1070
     1
1071
       40
1005
131212
  0
LINE
  5
131213
  8
OBJECT
 10
113.999999998612
 20
-792.99999999754812
 30
0.0
 11
237.99999999861211
 21
-792.99999999754812
 31
0.0
1001
ACDBBLOCKREPETAG
1070
     1
1071
       41
1005
131213
  0
LINE
  5
131214
  8
OBJECT
 10
234.999999998612
 20
-792.99999999754812
 30
0.0
 11
234.999999998612
 21
-756.99999999754812
 31
0.0
1001
ACDBBLOCKREPETAG
1070
     1
1071
       42
1005
131214
  0
LINE
  5
131215
  8
OBJECT
 10
234.999999998612
 20
-756.99999999754812
 30
0.0
 11
116.999999998612
 21
-756.99999999754812
 31
0.0
1001
ACDBBLOCKREPETAG
1070
     1
1071
       43
1005
131215
  0
LINE
  5
131216
  8
OBJECT
 10
116.999999998612
 20
-756.99999999754812
 30
0.0
 11
116.999999998612
 21
-792.99999999754812
 31
0.0
1001
ACDBBLOCKREPETAG
1070
     1
1071
       44
1005
131216
  0
LINE
  5
131217
  8
OBJECT
 10
230.49999999861211
 20
-752.99999999754812
 30
0.0
 11
230.49999999861211
 21
-745.999999997548
 31
0.0
1001
ACDBBLOCKREPETAG
1070
     1
1071
       45
1005
131217
  0
LINE
  5
131218
  8
OBJECT
 10
121.499999998612
 20
-745.999999997548
 30
0.0
 11
121.499999998612
 21
-752.99999999754812
 31
0.0
1001
ACDBBLOCKREPETAG
1070
     1
1071
       46
1005
131218
  0
LINE
  5
131219
  8
OBJECT
 10
121.499999998612
 20
-752.99999999754812
 30
0.0
 11
230.49999999861211
 21
-752.99999999754812
 31
0.0
1001
ACDBBLOCKREPETAG
1070
     1
1071
       47
1005
131219
  0
LINE
  5
13121A
  8
OBJECT
 10
234.999999998612
 20
-756.99999999754812
 30
0.0
 11
230.49999999861211
 21
-752.99999999754812
 31
0.0
1001
ACDBBLOCKREPETAG
1070
     1
1071
       48
1005
13121A
  0
LINE
  5
13121B
  8
OBJECT
 10
116.999999998612
 20
-756.99999999754812
 30
0.0
 11
121.499999998612
 21
-752.99999999754812
 31
0.0
1001
ACDBBLOCKREPETAG
1070
     1
1071
       49
1005
13121B
  0
LINE
  5
13121C
  8
OBJECT
 10
237.99999999861211
 20
-742.99999999754903
 30
0.0
 11
237.99999999861211
 21
-739.99999999754812
 31
0.0
1001
ACDBBLOCKREPETAG
1070
     1
1071
       50
1005
13121C
  0
ARC
  5
13121D
  8
OBJECT
 10
234.999999998612
 20
-742.99999999754903
 30
0.0
 40
3.0
 50
270.0
 51
0.0
1001
ACDBBLOCKREPETAG
1070
     1
1071
       51
1005
13121D
  0
LINE
  5
13121E
  8
OBJECT
 10
113.999999998612
 20
-739.99999999754812
 30
0.0
 11
113.999999998612
 21
-742.99999999754687
 31
0.0
1001
ACDBBLOCKREPETAG
1070
     1
1071
       52
1005
13121E
  0
ARC
  5
13121F
  8
OBJECT
 10
116.999999998612
 20
-742.99999999754687
 30
0.0
 40
3.0
 50
180.0
 51
270.0
1001
ACDBBLOCKREPETAG
1070
     1
1071
       53
1005
13121F
  0
LINE
  5
131220
  8
OBJECT
 10
116.999999998612
 20
-745.99999999754721
 30
0.0
 11
234.999999998612
 21
-745.99999999754868
 31
0.0
1001
ACDBBLOCKREPETAG
1070
     1
1071
       54
1005
131220
  0
INSERT
  5
131221
  8
OBJECT
  2
*U19
 10
0.0
 20
0.0
 30
0.0
  0
LINE
  5
131222
  8
HIDDEN
 10
220.499999998612
 20
-747.99999999754812
 30
0.0
 11
131.499999998612
 21
-747.99999999754812
 31
0.0
1001
ACDBBLOCKREPETAG
1070
     1
1071
      430
1005
131222
  0
LINE
  5
131223
  8
OBJECT
 10
258.99999999861211
 20
-721.99999999754812
 30
0.0
 11
255.999999998612
 21
-721.99999999754812
 31
0.0
1001
ACDBBLOCKREPETAG
1070
     1
1071
      418
1005
131223
  0
ARC
  5
131224
  8
OBJECT
 10
258.99999999861211
 20
-718.99999999754812
 30
0.0
 40
3.0
 50
270.0
 51
0.0
1001
ACDBBLOCKREPETAG
1070
     1
1071
      419
1005
131224
  0
LINE
  5
131225
  8
OBJECT
 10
255.999999998612
 20
-597.999999997548
 30
0.0
 11
258.99999999861211
 21
-597.999999997548
 31
0.0
1001
ACDBBLOCKREPETAG
1070
     1
1071
      420
1005
131225
  0
ARC
  5
131226
  8
OBJECT
 10
258.99999999861211
 20
-600.99999999754777
 30
0.0
 40
3.0
 50
0.0
 51
90.0
1001
ACDBBLOCKREPETAG
1070
     1
1071
      421
1005
131226
  0
LINE
  5
131227
  8
OBJECT
 10
261.999999998612
 20
-600.99999999754777
 30
0.0
 11
261.999999998612
 21
-718.99999999754812
 31
0.0
1001
ACDBBLOCKREPETAG
1070
     1
1071
      422
1005
131227
  0
INSERT
  5
131228
  8
OBJECT
  2
*U20
 10
0.0
 20
0.0
 30
0.0
  0
LINE
  5
131229
  8
OBJECT
 10
128.999999998612
 20
-526.999999997548
 30
0.0
 11
128.999999998612
 21
-519.999999997548
 31
0.0
1001
ACDBBLOCKREPETAG
1070
     1
1071
        1
1005
131229
  0
LINE
  5
13122A
  8
OBJECT
 10
128.999999998612
 20
-519.999999997548
 30
0.0
 11
222.999999998612
 21
-519.999999997548
 31
0.0
1001
ACDBBLOCKREPETAG
1070
     1
1071
        2
1005
13122A
  0
LINE
  5
13122B
  8
OBJECT
 10
222.999999998612
 20
-519.999999997548
 30
0.0
 11
222.999999998612
 21
-526.999999997548
 31
0.0
1001
ACDBBLOCKREPETAG
1070
     1
1071
        3
1005
13122B
  0
LINE
  5
13122C
  8
OBJECT
 10
222.999999998612
 20
-526.999999997548
 30
0.0
 11
128.999999998612
 21
-526.999999997548
 31
0.0
1001
ACDBBLOCKREPETAG
1070
     1
1071
        4
1005
13122C
  0
LINE
  5
13122D
  8
OBJECT
 10
131.999999998612
 20
-526.999999997548
 30
0.0
 11
131.999999998612
 21
-562.99999999754789
 31
0.0
1001
ACDBBLOCKREPETAG
1070
     1
1071
        5
1005
13122D
  0
LINE
  5
13122E
  8
OBJECT
 10
131.999999998612
 20
-562.99999999754789
 30
0.0
 11
219.99999999861211
 21
-562.99999999754789
 31
0.0
1001
ACDBBLOCKREPETAG
1070
     1
1071
        6
1005
13122E
  0
LINE
  5
13122F
  8
OBJECT
 10
219.99999999861211
 20
-562.99999999754789
 30
0.0
 11
219.99999999861211
 21
-526.999999997548
 31
0.0
1001
ACDBBLOCKREPETAG
1070
     1
1071
        7
1005
13122F
  0
LINE
  5
131230
  8
OBJECT
 10
136.499999998612
 20
-566.99999999754789
 30
0.0
 11
136.499999998612
 21
-573.999999997548
 31
0.0
1001
ACDBBLOCKREPETAG
1070
     1
1071
        8
1005
131230
  0
LINE
  5
131231
  8
OBJECT
 10
215.49999999861211
 20
-573.999999997548
 30
0.0
 11
215.49999999861211
 21
-566.99999999754789
 31
0.0
1001
ACDBBLOCKREPETAG
1070
     1
1071
        9
1005
131231
  0
LINE
  5
131232
  8
OBJECT
 10
215.49999999861211
 20
-566.99999999754789
 30
0.0
 11
136.499999998612
 21
-566.99999999754789
 31
0.0
1001
ACDBBLOCKREPETAG
1070
     1
1071
       10
1005
131232
  0
LINE
  5
131233
  8
OBJECT
 10
131.999999998612
 20
-562.99999999754789
 30
0.0
 11
136.499999998612
 21
-566.99999999754789
 31
0.0
1001
ACDBBLOCKREPETAG
1070
     1
1071
       11
1005
131233
  0
LINE
  5
131234
  8
OBJECT
 10
219.99999999861211
 20
-562.99999999754789
 30
0.0
 11
215.49999999861211
 21
-566.99999999754789
 31
0.0
1001
ACDBBLOCKREPETAG
1070
     1
1071
       12
1005
131234
  0
LINE
  5
131235
  8
OBJECT
 10
113.999999998612
 20
-576.99999999754687
 30
0.0
 11
113.999999998612
 21
-579.99999999754777
 31
0.0
1001
ACDBBLOCKREPETAG
1070
     1
1071
       13
1005
131235
  0
ARC
  5
131236
  8
OBJECT
 10
116.999999998612
 20
-576.99999999754687
 30
0.0
 40
3.0
 50
90.0
 51
180.0
1001
ACDBBLOCKREPETAG
1070
     1
1071
       14
1005
131236
  0
LINE
  5
131237
  8
OBJECT
 10
237.99999999861211
 20
-579.99999999754777
 30
0.0
 11
237.99999999861211
 21
-576.99999999754891
 31
0.0
1001
ACDBBLOCKREPETAG
1070
     1
1071
       15
1005
131237
  0
ARC
  5
131238
  8
OBJECT
 10
234.999999998612
 20
-576.99999999754891
 30
0.0
 40
3.0
 50
0.0
 51
90.0
1001
ACDBBLOCKREPETAG
1070
     1
1071
       16
1005
131238
  0
LINE
  5
131239
  8
OBJECT
 10
234.999999998612
 20
-573.99999999754891
 30
0.0
 11
116.999999998612
 21
-573.99999999754721
 31
0.0
1001
ACDBBLOCKREPETAG
1070
     1
1071
       17
1005
131239
  0
LINE
  5
13123A
  8
HIDDEN
 10
145.999999998612
 20
-571.99999999754777
 30
0.0
 11
205.999999998612
 21
-571.99999999754777
 31
0.0
1001
ACDBBLOCKREPETAG
1070
     1
1071
      420
1005
13123A
  0
TEXT
  5
13123B
  8
SLIM
 10
479.14285714267481
 20
-443.99999999984919
 30
0.0
 40
48.0
  1
B102
 41
0.75
1001
ACDBBLOCKREPETAG
1070
     1
1071
      119
1005
12F953
  0
LINE
  5
13123C
  8
OBJECT
 10
590.99999999849024
 20
-328.99999999770631
 30
0.0
 11
590.99999999849024
 21
-335.99999999770631
 31
0.0
1001
ACDBBLOCKREPETAG
1070
     1
1071
       19
1005
13123C
  0
LINE
  5
13123D
  8
OBJECT
 10
590.99999999849024
 20
-335.99999999770631
 30
0.0
 11
480.99999999849018
 21
-335.99999999770631
 31
0.0
1001
ACDBBLOCKREPETAG
1070
     1
1071
       20
1005
13123D
  0
LINE
  5
13123E
  8
OBJECT
 10
480.99999999849018
 20
-335.99999999770631
 30
0.0
 11
480.99999999849018
 21
-328.99999999770631
 31
0.0
1001
ACDBBLOCKREPETAG
1070
     1
1071
       21
1005
13123E
  0
LINE
  5
13123F
  8
OBJECT
 10
480.99999999849018
 20
-328.99999999770631
 30
0.0
 11
590.99999999849024
 21
-328.99999999770631
 31
0.0
1001
ACDBBLOCKREPETAG
1070
     1
1071
       22
1005
13123F
  0
LINE
  5
131240
  8
OBJECT
 10
587.99999999849024
 20
-328.99999999770631
 30
0.0
 11
587.99999999849024
 21
-292.99999999770631
 31
0.0
1001
ACDBBLOCKREPETAG
1070
     1
1071
       23
1005
131240
  0
LINE
  5
131241
  8
OBJECT
 10
587.99999999849024
 20
-292.99999999770631
 30
0.0
 11
483.99999999849018
 21
-292.99999999770631
 31
0.0
1001
ACDBBLOCKREPETAG
1070
     1
1071
       24
1005
131241
  0
LINE
  5
131242
  8
OBJECT
 10
483.99999999849018
 20
-292.99999999770631
 30
0.0
 11
483.99999999849018
 21
-328.99999999770631
 31
0.0
1001
ACDBBLOCKREPETAG
1070
     1
1071
       25
1005
131242
  0
LINE
  5
131243
  8
OBJECT
 10
583.49999999849024
 20
-288.9999999977062
 30
0.0
 11
583.49999999849024
 21
-281.99999999770631
 31
0.0
1001
ACDBBLOCKREPETAG
1070
     1
1071
       26
1005
131243
  0
LINE
  5
131244
  8
OBJECT
 10
488.49999999849018
 20
-281.99999999770631
 30
0.0
 11
488.49999999849018
 21
-288.9999999977062
 31
0.0
1001
ACDBBLOCKREPETAG
1070
     1
1071
       27
1005
131244
  0
LINE
  5
131245
  8
OBJECT
 10
488.49999999849018
 20
-288.9999999977062
 30
0.0
 11
583.49999999849024
 21
-288.9999999977062
 31
0.0
1001
ACDBBLOCKREPETAG
1070
     1
1071
       28
1005
131245
  0
LINE
  5
131246
  8
OBJECT
 10
587.99999999849024
 20
-292.99999999770631
 30
0.0
 11
583.49999999849024
 21
-288.9999999977062
 31
0.0
1001
ACDBBLOCKREPETAG
1070
     1
1071
       29
1005
131246
  0
LINE
  5
131247
  8
OBJECT
 10
483.99999999849018
 20
-292.99999999770631
 30
0.0
 11
488.49999999849018
 21
-288.9999999977062
 31
0.0
1001
ACDBBLOCKREPETAG
1070
     1
1071
       30
1005
131247
  0
LINE
  5
131248
  8
OBJECT
 10
597.99999999849024
 20
-278.99999999770722
 30
0.0
 11
597.99999999849024
 21
-275.99999999770631
 31
0.0
1001
ACDBBLOCKREPETAG
1070
     1
1071
       31
1005
131248
  0
ARC
  5
131249
  8
OBJECT
 10
594.99999999849024
 20
-278.99999999770722
 30
0.0
 40
3.0
 50
270.0
 51
0.0
1001
ACDBBLOCKREPETAG
1070
     1
1071
       32
1005
131249
  0
LINE
  5
13124A
  8
OBJECT
 10
473.99999999849018
 20
-275.99999999770631
 30
0.0
 11
473.99999999849018
 21
-278.99999999770529
 31
0.0
1001
ACDBBLOCKREPETAG
1070
     1
1071
       33
1005
13124A
  0
ARC
  5
13124B
  8
OBJECT
 10
476.99999999849018
 20
-278.99999999770529
 30
0.0
 40
3.0
 50
180.0
 51
270.0
1001
ACDBBLOCKREPETAG
1070
     1
1071
       34
1005
13124B
  0
LINE
  5
13124C
  8
OBJECT
 10
476.99999999849018
 20
-281.99999999770529
 30
0.0
 11
594.99999999849024
 21
-281.99999999770711
 31
0.0
1001
ACDBBLOCKREPETAG
1070
     1
1071
       35
1005
13124C
  0
INSERT
  5
13124D
  8
OBJECT
  2
*U21
 10
0.0
 20
0.0
 30
0.0
  0
LINE
  5
13124E
  8
HIDDEN
 10
573.99999999849024
 20
-283.99999999770631
 30
0.0
 11
497.99999999849018
 21
-283.99999999770631
 31
0.0
1001
ACDBBLOCKREPETAG
1070
     1
1071
      427
1005
13124E
  0
LINE
  5
13124F
  8
OBJECT
 10
618.99999999849024
 20
-257.9999999977062
 30
0.0
 11
615.99999999849024
 21
-257.9999999977062
 31
0.0
1001
ACDBBLOCKREPETAG
1070
     1
1071
      418
1005
13124F
  0
ARC
  5
131250
  8
OBJECT
 10
618.99999999849024
 20
-254.99999999770631
 30
0.0
 40
3.0
 50
270.0
 51
0.0
1001
ACDBBLOCKREPETAG
1070
     1
1071
      419
1005
131250
  0
LINE
  5
131251
  8
OBJECT
 10
615.99999999849024
 20
-133.9999999977062
 30
0.0
 11
618.99999999849024
 21
-133.9999999977062
 31
0.0
1001
ACDBBLOCKREPETAG
1070
     1
1071
      420
1005
131251
  0
ARC
  5
131252
  8
OBJECT
 10
618.99999999849024
 20
-136.9999999977062
 30
0.0
 40
3.0
 50
0.0
 51
90.0
1001
ACDBBLOCKREPETAG
1070
     1
1071
      421
1005
131252
  0
LINE
  5
131253
  8
OBJECT
 10
621.99999999849024
 20
-136.9999999977062
 30
0.0
 11
621.99999999849024
 21
-254.99999999770631
 31
0.0
1001
ACDBBLOCKREPETAG
1070
     1
1071
      422
1005
131253
  0
INSERT
  5
131254
  8
OBJECT
  2
*U22
 10
0.0
 20
0.0
 30
0.0
  0
LINE
  5
131255
  8
OBJECT
 10
488.99999999849018
 20
-62.999999997706247
 30
0.0
 11
488.99999999849018
 21
-55.999999997706247
 31
0.0
1001
ACDBBLOCKREPETAG
1070
     1
1071
        1
1005
131255
  0
LINE
  5
131256
  8
OBJECT
 10
488.99999999849018
 20
-55.999999997706247
 30
0.0
 11
582.99999999849024
 21
-55.999999997706247
 31
0.0
1001
ACDBBLOCKREPETAG
1070
     1
1071
        2
1005
131256
  0
LINE
  5
131257
  8
OBJECT
 10
582.99999999849024
 20
-55.999999997706247
 30
0.0
 11
582.99999999849024
 21
-62.999999997706247
 31
0.0
1001
ACDBBLOCKREPETAG
1070
     1
1071
        3
1005
131257
  0
LINE
  5
131258
  8
OBJECT
 10
582.99999999849024
 20
-62.999999997706247
 30
0.0
 11
488.99999999849018
 21
-62.999999997706247
 31
0.0
1001
ACDBBLOCKREPETAG
1070
     1
1071
        4
1005
131258
  0
LINE
  5
131259
  8
OBJECT
 10
491.99999999849018
 20
-62.999999997706247
 30
0.0
 11
491.99999999849018
 21
-98.99999999770624
 31
0.0
1001
ACDBBLOCKREPETAG
1070
     1
1071
        5
1005
131259
  0
LINE
  5
13125A
  8
OBJECT
 10
491.99999999849018
 20
-98.99999999770624
 30
0.0
 11
579.99999999849024
 21
-98.99999999770624
 31
0.0
1001
ACDBBLOCKREPETAG
1070
     1
1071
        6
1005
13125A
  0
LINE
  5
13125B
  8
OBJECT
 10
579.99999999849024
 20
-98.99999999770624
 30
0.0
 11
579.99999999849024
 21
-62.999999997706247
 31
0.0
1001
ACDBBLOCKREPETAG
1070
     1
1071
        7
1005
13125B
  0
LINE
  5
13125C
  8
OBJECT
 10
496.49999999849018
 20
-102.9999999977062
 30
0.0
 11
496.49999999849018
 21
-109.9999999977062
 31
0.0
1001
ACDBBLOCKREPETAG
1070
     1
1071
        8
1005
13125C
  0
LINE
  5
13125D
  8
OBJECT
 10
575.49999999849024
 20
-109.9999999977062
 30
0.0
 11
575.49999999849024
 21
-102.9999999977062
 31
0.0
1001
ACDBBLOCKREPETAG
1070
     1
1071
        9
1005
13125D
  0
LINE
  5
13125E
  8
OBJECT
 10
575.49999999849024
 20
-102.9999999977062
 30
0.0
 11
496.49999999849018
 21
-102.9999999977062
 31
0.0
1001
ACDBBLOCKREPETAG
1070
     1
1071
       10
1005
13125E
  0
LINE
  5
13125F
  8
OBJECT
 10
491.99999999849018
 20
-98.99999999770624
 30
0.0
 11
496.49999999849018
 21
-102.9999999977062
 31
0.0
1001
ACDBBLOCKREPETAG
1070
     1
1071
       11
1005
13125F
  0
LINE
  5
131260
  8
OBJECT
 10
579.99999999849024
 20
-98.99999999770624
 30
0.0
 11
575.49999999849024
 21
-102.9999999977062
 31
0.0
1001
ACDBBLOCKREPETAG
1070
     1
1071
       12
1005
131260
  0
LINE
  5
131261
  8
OBJECT
 10
473.99999999849018
 20
-112.9999999977053
 30
0.0
 11
473.99999999849018
 21
-115.9999999977062
 31
0.0
1001
ACDBBLOCKREPETAG
1070
     1
1071
       13
1005
131261
  0
ARC
  5
131262
  8
OBJECT
 10
476.99999999849018
 20
-112.9999999977053
 30
0.0
 40
3.0
 50
90.0
 51
180.0
1001
ACDBBLOCKREPETAG
1070
     1
1071
       14
1005
131262
  0
LINE
  5
131263
  8
OBJECT
 10
597.99999999849024
 20
-115.9999999977062
 30
0.0
 11
597.99999999849024
 21
-112.99999999770711
 31
0.0
1001
ACDBBLOCKREPETAG
1070
     1
1071
       15
1005
131263
  0
ARC
  5
131264
  8
OBJECT
 10
594.99999999849024
 20
-112.99999999770711
 30
0.0
 40
3.0
 50
0.0
 51
90.0
1001
ACDBBLOCKREPETAG
1070
     1
1071
       16
1005
131264
  0
LINE
  5
131265
  8
OBJECT
 10
594.99999999849024
 20
-109.99999999770711
 30
0.0
 11
476.99999999849018
 21
-109.9999999977053
 31
0.0
1001
ACDBBLOCKREPETAG
1070
     1
1071
       17
1005
131265
  0
LINE
  5
131266
  8
HIDDEN
 10
505.99999999849018
 20
-107.9999999977062
 30
0.0
 11
565.99999999849024
 21
-107.9999999977062
 31
0.0
1001
ACDBBLOCKREPETAG
1070
     1
1071
      420
1005
131266
  0
LINE
  5
131267
  8
OBJECT
 10
1923.0
 20
-570.99999999999432
 30
0.0
 11
1923.0
 21
-549.99999999999432
 31
0.0
1001
ACDBBLOCKREPETAG
1070
     1
1071
       36
1005
131267
  0
LINE
  5
131268
  8
OBJECT
 10
1923.0
 20
-549.99999999999432
 30
0.0
 11
2077.0
 21
-549.99999999999432
 31
0.0
1001
ACDBBLOCKREPETAG
1070
     1
1071
       37
1005
131268
  0
LINE
  5
131269
  8
HIDDEN
 10
1943.0
 20
-619.99999999999432
 30
0.0
 11
2057.0
 21
-619.99999999999432
 31
0.0
1001
ACDBBLOCKREPETAG
1070
     1
1071
       38
1005
131269
  0
LINE
  5
13126A
  8
OBJECT
 10
2077.0
 20
-549.99999999999432
 30
0.0
 11
2077.0
 21
-570.99999999999432
 31
0.0
1001
ACDBBLOCKREPETAG
1070
     1
1071
       39
1005
13126A
  0
LINE
  5
13126B
  8
OBJECT
 10
2077.0
 20
-570.99999999999432
 30
0.0
 11
1923.0
 21
-570.99999999999432
 31
0.0
1001
ACDBBLOCKREPETAG
1070
     1
1071
       40
1005
13126B
  0
LINE
  5
13126C
  8
CENTER
 10
2000.0
 20
-534.99999999999432
 30
0.0
 11
2000.0
 21
-769.9999999999942
 31
0.0
1001
ACDBBLOCKREPETAG
1070
     1
1071
       41
1005
13126C
  0
LINE
  5
13126D
  8
OBJECT
 10
1928.0
 20
-570.99999999999432
 30
0.0
 11
1928.0
 21
-633.99999999999432
 31
0.0
1001
ACDBBLOCKREPETAG
1070
     1
1071
       42
1005
13126D
  0
LINE
  5
13126E
  8
OBJECT
 10
2072.0
 20
-633.99999999999432
 30
0.0
 11
2072.0
 21
-570.99999999999432
 31
0.0
1001
ACDBBLOCKREPETAG
1070
     1
1071
       43
1005
13126E
  0
LINE
  5
13126F
  8
OBJECT
 10
1920.0
 20
-757.9999999999942
 30
0.0
 11
2080.0
 21
-757.9999999999942
 31
0.0
1001
ACDBBLOCKREPETAG
1070
     1
1071
       44
1005
13126F
  0
LINE
  5
131270
  8
OBJECT
 10
2080.0
 20
-633.99999999999432
 30
0.0
 11
1920.0
 21
-633.99999999999432
 31
0.0
1001
ACDBBLOCKREPETAG
1070
     1
1071
       45
1005
131270
  0
LINE
  5
131271
  8
OBJECT
 10
1920.0
 20
-757.9999999999942
 30
0.0
 11
1920.0
 21
-769.9999999999942
 31
0.0
1001
ACDBBLOCKREPETAG
1070
     1
1071
       46
1005
131271
  0
LINE
  5
131272
  8
OBJECT
 10
1920.0
 20
-769.9999999999942
 30
0.0
 11
2080.0
 21
-769.9999999999942
 31
0.0
1001
ACDBBLOCKREPETAG
1070
     1
1071
       47
1005
131272
  0
LINE
  5
131273
  8
OBJECT
 10
2080.0
 20
-769.9999999999942
 30
0.0
 11
2080.0
 21
-757.9999999999942
 31
0.0
1001
ACDBBLOCKREPETAG
1070
     1
1071
       48
1005
131273
  0
ARC
  5
131274
  8
OBJECT
 10
2200.6872746716731
 20
-749.40809941010195
 30
0.0
 40
170.6350503965856
 50
137.44134459184301
 51
149.91949581336559
1001
ACDBBLOCKREPETAG
1070
     1
1071
       52
1005
131274
  0
ARC
  5
131275
  8
OBJECT
 10
2200.6872746716731
 20
-642.59190058988645
 30
0.0
 40
170.6350503965856
 50
210.0805041866343
 51
222.55865540815699
1001
ACDBBLOCKREPETAG
1070
     1
1071
       53
1005
131275
  0
ARC
  5
131276
  8
OBJECT
 10
1799.312725328326
 20
-749.40809941010195
 30
0.0
 40
170.6350503965856
 50
30.080504186774089
 51
42.558655408447443
1001
ACDBBLOCKREPETAG
1070
     1
1071
       54
1005
131276
  0
ARC
  5
131277
  8
OBJECT
 10
1799.312725328326
 20
-642.59190058988645
 30
0.0
 40
170.6350503965856
 50
317.44134459155248
 51
329.91949581322592
1001
ACDBBLOCKREPETAG
1070
     1
1071
       55
1005
131277
  0
POINT
  5
131278
  8
DOTS
 10
2000.0
 20
-754.9999999999942
 30
0.0
1001
ACDBBLOCKREPETAG
1070
     1
1071
      184
1005
131278
  0
LINE
  5
131279
  8
OBJECT
 10
1867.0
 20
-261.99999999999909
 30
0.0
 11
1860.0
 21
-261.99999999999909
 31
0.0
1001
ACDBBLOCKREPETAG
1070
     1
1071
       47
1005
131279
  0
LINE
  5
13127A
  8
OBJECT
 10
1860.0
 20
-261.99999999999909
 30
0.0
 11
1860.0
 21
-137.99999999999909
 31
0.0
1001
ACDBBLOCKREPETAG
1070
     1
1071
       48
1005
13127A
  0
LINE
  5
13127B
  8
OBJECT
 10
1860.0
 20
-137.99999999999909
 30
0.0
 11
1867.0
 21
-137.99999999999909
 31
0.0
1001
ACDBBLOCKREPETAG
1070
     1
1071
       49
1005
13127B
  0
LINE
  5
13127C
  8
OBJECT
 10
1867.0
 20
-137.99999999999909
 30
0.0
 11
1867.0
 21
-261.99999999999909
 31
0.0
1001
ACDBBLOCKREPETAG
1070
     1
1071
       50
1005
13127C
  0
LINE
  5
13127D
  8
CENTER
 10
1845.0
 20
-199.99999999999909
 30
0.0
 11
1920.0
 21
-199.99999999999909
 31
0.0
1001
ACDBBLOCKREPETAG
1070
     1
1071
       51
1005
13127D
  0
LINE
  5
13127E
  8
OBJECT
 10
1867.0
 20
-258.99999999999909
 30
0.0
 11
1903.0
 21
-258.99999999999909
 31
0.0
1001
ACDBBLOCKREPETAG
1070
     1
1071
       52
1005
13127E
  0
LINE
  5
13127F
  8
OBJECT
 10
1903.0
 20
-258.99999999999909
 30
0.0
 11
1903.0
 21
-140.99999999999909
 31
0.0
1001
ACDBBLOCKREPETAG
1070
     1
1071
       53
1005
13127F
  0
LINE
  5
131280
  8
OBJECT
 10
1903.0
 20
-140.99999999999909
 30
0.0
 11
1867.0
 21
-140.99999999999909
 31
0.0
1001
ACDBBLOCKREPETAG
1070
     1
1071
       54
1005
131280
  0
LINE
  5
131281
  8
OBJECT
 10
1907.0
 20
-254.49999999999909
 30
0.0
 11
1914.0
 21
-254.49999999999909
 31
0.0
1001
ACDBBLOCKREPETAG
1070
     1
1071
       55
1005
131281
  0
LINE
  5
131282
  8
OBJECT
 10
1914.0
 20
-145.49999999999909
 30
0.0
 11
1907.0
 21
-145.49999999999909
 31
0.0
1001
ACDBBLOCKREPETAG
1070
     1
1071
       56
1005
131282
  0
LINE
  5
131283
  8
OBJECT
 10
1907.0
 20
-145.49999999999909
 30
0.0
 11
1907.0
 21
-254.49999999999909
 31
0.0
1001
ACDBBLOCKREPETAG
1070
     1
1071
       57
1005
131283
  0
LINE
  5
131284
  8
OBJECT
 10
1903.0
 20
-258.99999999999909
 30
0.0
 11
1907.0
 21
-254.49999999999909
 31
0.0
1001
ACDBBLOCKREPETAG
1070
     1
1071
       58
1005
131284
  0
LINE
  5
131285
  8
OBJECT
 10
1903.0
 20
-140.99999999999909
 30
0.0
 11
1907.0
 21
-145.49999999999909
 31
0.0
1001
ACDBBLOCKREPETAG
1070
     1
1071
       59
1005
131285
  0
LINE
  5
131286
  8
OBJECT
 10
1917.0
 20
-261.99999999999909
 30
0.0
 11
1920.0
 21
-261.99999999999909
 31
0.0
1001
ACDBBLOCKREPETAG
1070
     1
1071
       60
1005
131286
  0
ARC
  5
131287
  8
OBJECT
 10
1917.0
 20
-258.99999999999909
 30
0.0
 40
3.0
 50
180.0
 51
270.0
1001
ACDBBLOCKREPETAG
1070
     1
1071
       61
1005
131287
  0
LINE
  5
131288
  8
OBJECT
 10
1920.0
 20
-137.99999999999909
 30
0.0
 11
1917.0
 21
-137.99999999999909
 31
0.0
1001
ACDBBLOCKREPETAG
1070
     1
1071
       62
1005
131288
  0
ARC
  5
131289
  8
OBJECT
 10
1917.0
 20
-140.99999999999909
 30
0.0
 40
3.0
 50
90.0
 51
180.0
1001
ACDBBLOCKREPETAG
1070
     1
1071
       63
1005
131289
  0
LINE
  5
13128A
  8
OBJECT
 10
1914.0
 20
-140.99999999999909
 30
0.0
 11
1914.0
 21
-258.99999999999909
 31
0.0
1001
ACDBBLOCKREPETAG
1070
     1
1071
       64
1005
13128A
  0
LINE
  5
13128B
  8
HIDDEN
 10
1912.0
 20
-244.49999999999909
 30
0.0
 11
1912.0
 21
-155.49999999999909
 31
0.0
1001
ACDBBLOCKREPETAG
1070
     1
1071
       65
1005
13128B
  0
LINE
  5
13128C
  8
CENTER
 10
2000.0
 20
-300.99999999999898
 30
0.0
 11
2000.0
 21
-279.99999999999909
 31
0.0
1001
ACDBBLOCKREPETAG
1070
     1
1071
        0
1005
13128C
  0
LINE
  5
13128D
  8
OBJECT
 10
2062.0
 20
-283.0
 30
0.0
 11
2062.0
 21
-279.99999999999909
 31
0.0
1001
ACDBBLOCKREPETAG
1070
     1
1071
        1
1005
13128D
  0
ARC
  5
13128E
  8
OBJECT
 10
2059.0
 20
-283.0
 30
0.0
 40
3.0
 50
270.0
 51
0.0
1001
ACDBBLOCKREPETAG
1070
     1
1071
        2
1005
13128E
  0
LINE
  5
13128F
  8
OBJECT
 10
1938.0
 20
-279.99999999999909
 30
0.0
 11
1938.0
 21
-282.99999999999818
 31
0.0
1001
ACDBBLOCKREPETAG
1070
     1
1071
        3
1005
13128F
  0
ARC
  5
131290
  8
OBJECT
 10
1941.0
 20
-282.99999999999818
 30
0.0
 40
3.0
 50
180.0
 51
270.0
1001
ACDBBLOCKREPETAG
1070
     1
1071
        4
1005
131290
  0
LINE
  5
131291
  8
OBJECT
 10
1941.0
 20
-285.99999999999818
 30
0.0
 11
2059.0
 21
-286.0
 31
0.0
1001
ACDBBLOCKREPETAG
1070
     1
1071
        5
1005
131291
  0
LINE
  5
131292
  8
OBJECT
 10
2133.0
 20
-137.99999999999909
 30
0.0
 11
2140.0
 21
-137.99999999999909
 31
0.0
1001
ACDBBLOCKREPETAG
1070
     1
1071
       47
1005
131292
  0
LINE
  5
131293
  8
OBJECT
 10
2140.0
 20
-137.99999999999909
 30
0.0
 11
2140.0
 21
-261.99999999999909
 31
0.0
1001
ACDBBLOCKREPETAG
1070
     1
1071
       48
1005
131293
  0
LINE
  5
131294
  8
OBJECT
 10
2140.0
 20
-261.99999999999909
 30
0.0
 11
2133.0
 21
-261.99999999999909
 31
0.0
1001
ACDBBLOCKREPETAG
1070
     1
1071
       49
1005
131294
  0
LINE
  5
131295
  8
OBJECT
 10
2133.0
 20
-261.99999999999909
 30
0.0
 11
2133.0
 21
-137.99999999999909
 31
0.0
1001
ACDBBLOCKREPETAG
1070
     1
1071
       50
1005
131295
  0
LINE
  5
131296
  8
CENTER
 10
2155.0
 20
-199.99999999999909
 30
0.0
 11
2080.0
 21
-199.99999999999909
 31
0.0
1001
ACDBBLOCKREPETAG
1070
     1
1071
       51
1005
131296
  0
LINE
  5
131297
  8
OBJECT
 10
2133.0
 20
-140.99999999999909
 30
0.0
 11
2097.0
 21
-140.99999999999909
 31
0.0
1001
ACDBBLOCKREPETAG
1070
     1
1071
       52
1005
131297
  0
LINE
  5
131298
  8
OBJECT
 10
2097.0
 20
-140.99999999999909
 30
0.0
 11
2097.0
 21
-258.99999999999909
 31
0.0
1001
ACDBBLOCKREPETAG
1070
     1
1071
       53
1005
131298
  0
LINE
  5
131299
  8
OBJECT
 10
2097.0
 20
-258.99999999999909
 30
0.0
 11
2133.0
 21
-258.99999999999909
 31
0.0
1001
ACDBBLOCKREPETAG
1070
     1
1071
       54
1005
131299
  0
LINE
  5
13129A
  8
OBJECT
 10
2093.0
 20
-145.49999999999909
 30
0.0
 11
2086.0
 21
-145.49999999999909
 31
0.0
1001
ACDBBLOCKREPETAG
1070
     1
1071
       55
1005
13129A
  0
LINE
  5
13129B
  8
OBJECT
 10
2086.0
 20
-254.49999999999909
 30
0.0
 11
2093.0
 21
-254.49999999999909
 31
0.0
1001
ACDBBLOCKREPETAG
1070
     1
1071
       56
1005
13129B
  0
LINE
  5
13129C
  8
OBJECT
 10
2093.0
 20
-254.49999999999909
 30
0.0
 11
2093.0
 21
-145.49999999999909
 31
0.0
1001
ACDBBLOCKREPETAG
1070
     1
1071
       57
1005
13129C
  0
LINE
  5
13129D
  8
OBJECT
 10
2097.0
 20
-140.99999999999909
 30
0.0
 11
2093.0
 21
-145.49999999999909
 31
0.0
1001
ACDBBLOCKREPETAG
1070
     1
1071
       58
1005
13129D
  0
LINE
  5
13129E
  8
OBJECT
 10
2097.0
 20
-258.99999999999909
 30
0.0
 11
2093.0
 21
-254.49999999999909
 31
0.0
1001
ACDBBLOCKREPETAG
1070
     1
1071
       59
1005
13129E
  0
LINE
  5
13129F
  8
OBJECT
 10
2083.0
 20
-137.99999999999909
 30
0.0
 11
2080.0
 21
-137.99999999999909
 31
0.0
1001
ACDBBLOCKREPETAG
1070
     1
1071
       60
1005
13129F
  0
ARC
  5
1312A0
  8
OBJECT
 10
2083.0
 20
-140.99999999999909
 30
0.0
 40
3.0
 50
0.0
 51
90.0
1001
ACDBBLOCKREPETAG
1070
     1
1071
       61
1005
1312A0
  0
LINE
  5
1312A1
  8
OBJECT
 10
2080.0
 20
-261.99999999999909
 30
0.0
 11
2083.0
 21
-261.99999999999909
 31
0.0
1001
ACDBBLOCKREPETAG
1070
     1
1071
       62
1005
1312A1
  0
ARC
  5
1312A2
  8
OBJECT
 10
2083.0
 20
-258.99999999999909
 30
0.0
 40
3.0
 50
270.0
 51
0.0
1001
ACDBBLOCKREPETAG
1070
     1
1071
       63
1005
1312A2
  0
LINE
  5
1312A3
  8
OBJECT
 10
2086.0
 20
-258.99999999999909
 30
0.0
 11
2086.0
 21
-140.99999999999909
 31
0.0
1001
ACDBBLOCKREPETAG
1070
     1
1071
       64
1005
1312A3
  0
LINE
  5
1312A4
  8
HIDDEN
 10
2088.0
 20
-155.49999999999909
 30
0.0
 11
2088.0
 21
-244.49999999999909
 31
0.0
1001
ACDBBLOCKREPETAG
1070
     1
1071
       65
1005
1312A4
  0
LINE
  5
1312A5
  8
OBJECT
 10
1867.0
 20
-634.0
 30
0.0
 11
1860.0
 21
-634.0
 31
0.0
1001
ACDBBLOCKREPETAG
1070
     1
1071
       45
1005
1312A5
  0
LINE
  5
1312A6
  8
OBJECT
 10
1860.0
 20
-634.0
 30
0.0
 11
1860.0
 21
-755.0
 31
0.0
1001
ACDBBLOCKREPETAG
1070
     1
1071
       46
1005
1312A6
  0
LINE
  5
1312A7
  8
OBJECT
 10
1867.0
 20
-755.0
 30
0.0
 11
1867.0
 21
-634.0
 31
0.0
1001
ACDBBLOCKREPETAG
1070
     1
1071
       47
1005
1312A7
  0
LINE
  5
1312A8
  8
CENTER
 10
1845.0
 20
-696.0
 30
0.0
 11
1929.0
 21
-696.0
 31
0.0
1001
ACDBBLOCKREPETAG
1070
     1
1071
       48
1005
1312A8
  0
LINE
  5
1312A9
  8
OBJECT
 10
1867.0
 20
-637.0
 30
0.0
 11
1903.0
 21
-637.0
 31
0.0
1001
ACDBBLOCKREPETAG
1070
     1
1071
       49
1005
1312A9
  0
LINE
  5
1312AA
  8
OBJECT
 10
1903.0
 20
-637.0
 30
0.0
 11
1903.0
 21
-755.0
 31
0.0
1001
ACDBBLOCKREPETAG
1070
     1
1071
       50
1005
1312AA
  0
LINE
  5
1312AB
  8
OBJECT
 10
1903.0
 20
-755.0
 30
0.0
 11
1860.0
 21
-755.0
 31
0.0
1001
ACDBBLOCKREPETAG
1070
     1
1071
       51
1005
1312AB
  0
LINE
  5
1312AC
  8
OBJECT
 10
1907.0
 20
-641.5
 30
0.0
 11
1914.0
 21
-641.5
 31
0.0
1001
ACDBBLOCKREPETAG
1070
     1
1071
       52
1005
1312AC
  0
LINE
  5
1312AD
  8
OBJECT
 10
1914.0
 20
-750.49999999999989
 30
0.0
 11
1907.0
 21
-750.49999999999989
 31
0.0
1001
ACDBBLOCKREPETAG
1070
     1
1071
       53
1005
1312AD
  0
LINE
  5
1312AE
  8
OBJECT
 10
1907.0
 20
-750.49999999999989
 30
0.0
 11
1907.0
 21
-641.5
 31
0.0
1001
ACDBBLOCKREPETAG
1070
     1
1071
       54
1005
1312AE
  0
LINE
  5
1312AF
  8
OBJECT
 10
1903.0
 20
-637.0
 30
0.0
 11
1907.0
 21
-641.5
 31
0.0
1001
ACDBBLOCKREPETAG
1070
     1
1071
       55
1005
1312AF
  0
LINE
  5
1312B0
  8
OBJECT
 10
1903.0
 20
-755.0
 30
0.0
 11
1907.0
 21
-750.49999999999989
 31
0.0
1001
ACDBBLOCKREPETAG
1070
     1
1071
       56
1005
1312B0
  0
LINE
  5
1312B1
  8
OBJECT
 10
1917.0
 20
-634.0
 30
0.0
 11
1920.0
 21
-634.0
 31
0.0
1001
ACDBBLOCKREPETAG
1070
     1
1071
       57
1005
1312B1
  0
ARC
  5
1312B2
  8
OBJECT
 10
1917.0
 20
-637.0
 30
0.0
 40
3.0
 50
90.0
 51
180.0
1001
ACDBBLOCKREPETAG
1070
     1
1071
       58
1005
1312B2
  0
LINE
  5
1312B3
  8
OBJECT
 10
1920.0
 20
-758.0
 30
0.0
 11
1917.0
 21
-758.0
 31
0.0
1001
ACDBBLOCKREPETAG
1070
     1
1071
       59
1005
1312B3
  0
ARC
  5
1312B4
  8
OBJECT
 10
1917.0
 20
-755.0
 30
0.0
 40
3.0
 50
180.0
 51
270.0
1001
ACDBBLOCKREPETAG
1070
     1
1071
       60
1005
1312B4
  0
LINE
  5
1312B5
  8
OBJECT
 10
1914.0
 20
-755.0
 30
0.0
 11
1914.0
 21
-637.0
 31
0.0
1001
ACDBBLOCKREPETAG
1070
     1
1071
       61
1005
1312B5
  0
LINE
  5
1312B6
  8
HIDDEN
 10
1912.0
 20
-651.5
 30
0.0
 11
1912.0
 21
-740.5
 31
0.0
1001
ACDBBLOCKREPETAG
1070
     1
1071
       63
1005
1312B6
  0
CIRCLE
  5
1312B7
  8
OBJECT
 10
2000.0
 20
-696.0
 30
0.0
 40
62.0
1001
ACDBBLOCKREPETAG
1070
     1
1071
        0
1005
1312B7
  0
LINE
  5
1312B8
  8
OBJECT
 10
2133.0
 20
-634.0
 30
0.0
 11
2140.0
 21
-634.0
 31
0.0
1001
ACDBBLOCKREPETAG
1070
     1
1071
       45
1005
1312B8
  0
LINE
  5
1312B9
  8
OBJECT
 10
2140.0
 20
-634.0
 30
0.0
 11
2140.0
 21
-755.0
 31
0.0
1001
ACDBBLOCKREPETAG
1070
     1
1071
       46
1005
1312B9
  0
LINE
  5
1312BA
  8
OBJECT
 10
2133.0
 20
-755.0
 30
0.0
 11
2133.0
 21
-634.0
 31
0.0
1001
ACDBBLOCKREPETAG
1070
     1
1071
       47
1005
1312BA
  0
LINE
  5
1312BB
  8
CENTER
 10
2155.0
 20
-696.0
 30
0.0
 11
2071.0
 21
-696.0
 31
0.0
1001
ACDBBLOCKREPETAG
1070
     1
1071
       48
1005
1312BB
  0
LINE
  5
1312BC
  8
OBJECT
 10
2133.0
 20
-637.0
 30
0.0
 11
2097.0
 21
-637.0
 31
0.0
1001
ACDBBLOCKREPETAG
1070
     1
1071
       49
1005
1312BC
  0
LINE
  5
1312BD
  8
OBJECT
 10
2097.0
 20
-637.0
 30
0.0
 11
2097.0
 21
-755.0
 31
0.0
1001
ACDBBLOCKREPETAG
1070
     1
1071
       50
1005
1312BD
  0
LINE
  5
1312BE
  8
OBJECT
 10
2097.0
 20
-755.0
 30
0.0
 11
2140.0
 21
-755.0
 31
0.0
1001
ACDBBLOCKREPETAG
1070
     1
1071
       51
1005
1312BE
  0
LINE
  5
1312BF
  8
OBJECT
 10
2093.0
 20
-641.5
 30
0.0
 11
2086.0
 21
-641.5
 31
0.0
1001
ACDBBLOCKREPETAG
1070
     1
1071
       52
1005
1312BF
  0
LINE
  5
1312C0
  8
OBJECT
 10
2086.0
 20
-750.49999999999989
 30
0.0
 11
2093.0
 21
-750.49999999999989
 31
0.0
1001
ACDBBLOCKREPETAG
1070
     1
1071
       53
1005
1312C0
  0
LINE
  5
1312C1
  8
OBJECT
 10
2093.0
 20
-750.49999999999989
 30
0.0
 11
2093.0
 21
-641.5
 31
0.0
1001
ACDBBLOCKREPETAG
1070
     1
1071
       54
1005
1312C1
  0
LINE
  5
1312C2
  8
OBJECT
 10
2097.0
 20
-637.0
 30
0.0
 11
2093.0
 21
-641.5
 31
0.0
1001
ACDBBLOCKREPETAG
1070
     1
1071
       55
1005
1312C2
  0
LINE
  5
1312C3
  8
OBJECT
 10
2097.0
 20
-755.0
 30
0.0
 11
2093.0
 21
-750.49999999999989
 31
0.0
1001
ACDBBLOCKREPETAG
1070
     1
1071
       56
1005
1312C3
  0
LINE
  5
1312C4
  8
OBJECT
 10
2083.0
 20
-634.0
 30
0.0
 11
2080.0
 21
-634.0
 31
0.0
1001
ACDBBLOCKREPETAG
1070
     1
1071
       57
1005
1312C4
  0
ARC
  5
1312C5
  8
OBJECT
 10
2083.0
 20
-637.0
 30
0.0
 40
3.0
 50
0.0
 51
90.0
1001
ACDBBLOCKREPETAG
1070
     1
1071
       58
1005
1312C5
  0
LINE
  5
1312C6
  8
OBJECT
 10
2080.0
 20
-758.0
 30
0.0
 11
2083.0
 21
-758.0
 31
0.0
1001
ACDBBLOCKREPETAG
1070
     1
1071
       59
1005
1312C6
  0
ARC
  5
1312C7
  8
OBJECT
 10
2083.0
 20
-755.0
 30
0.0
 40
3.0
 50
270.0
 51
0.0
1001
ACDBBLOCKREPETAG
1070
     1
1071
       60
1005
1312C7
  0
LINE
  5
1312C8
  8
OBJECT
 10
2086.0
 20
-755.0
 30
0.0
 11
2086.0
 21
-637.0
 31
0.0
1001
ACDBBLOCKREPETAG
1070
     1
1071
       61
1005
1312C8
  0
LINE
  5
1312C9
  8
HIDDEN
 10
2088.0
 20
-651.5
 30
0.0
 11
2088.0
 21
-740.5
 31
0.0
1001
ACDBBLOCKREPETAG
1070
     1
1071
       63
1005
1312C9
  0
TEXT
  5
1312CA
  8
SLIM
 10
126.85714285708239
 20
-443.99999999984919
 30
0.0
 40
48.0
  1
B101
 41
0.75
1001
ACDBBLOCKREPETAG
1070
     1
1071
      119
1005
12F953
  0
TEXT
  5
1312CB
  8
SLIM
 10
0.0000035665234464
 20
24.000004585317601
 30
0.0
 40
79.999999999972701
  1
枝管バリエーション
 41
0.75
1001
ACDBBLOCKREPETAG
1070
     1
1071
      119
1005
12F952
  0
TEXT
  5
1312CC
  8
SLIM
 10
-18.199999999993789
 20
-2395.9999999991828
 30
0.0
 40
51.999999999982258
  1
（特）：特注品。対向枝への排水の流入
 41
0.75
1001
ACDBBLOCKREPETAG
1070
     1
1071
      118
1005
12F951
  0
TEXT
  5
1312CD
  8
SLIM
 10
0.0
 20
-2465.3333333324931
 30
0.0
 40
51.999999999982258
  1
が無いことを確認した場合のみ製作。
 41
0.75
1001
ACDBBLOCKREPETAG
1070
     1
1071
      118
1005
12F951
  0
LINE
  5
1312CE
  8
OBJECT
 10
222.99999999861211
 20
-328.99999999770631
 30
0.0
 11
222.99999999861211
 21
-335.99999999770631
 31
0.0
1001
ACDBBLOCKREPETAG
1070
     1
1071
        0
1005
1312CE
  0
LINE
  5
1312CF
  8
OBJECT
 10
222.99999999861211
 20
-335.99999999770631
 30
0.0
 11
128.99999999861211
 21
-335.99999999770631
 31
0.0
1001
ACDBBLOCKREPETAG
1070
     1
1071
        1
1005
1312CF
  0
LINE
  5
1312D0
  8
OBJECT
 10
128.99999999861211
 20
-335.99999999770631
 30
0.0
 11
128.99999999861211
 21
-328.99999999770631
 31
0.0
1001
ACDBBLOCKREPETAG
1070
     1
1071
        2
1005
1312D0
  0
LINE
  5
1312D1
  8
OBJECT
 10
128.99999999861211
 20
-328.99999999770631
 30
0.0
 11
222.99999999861211
 21
-328.99999999770631
 31
0.0
1001
ACDBBLOCKREPETAG
1070
     1
1071
        3
1005
1312D1
  0
LINE
  5
1312D2
  8
OBJECT
 10
219.99999999861211
 20
-328.99999999770631
 30
0.0
 11
219.99999999861211
 21
-292.99999999770631
 31
0.0
1001
ACDBBLOCKREPETAG
1070
     1
1071
        4
1005
1312D2
  0
LINE
  5
1312D3
  8
OBJECT
 10
219.99999999861211
 20
-292.99999999770631
 30
0.0
 11
131.99999999861211
 21
-292.99999999770631
 31
0.0
1001
ACDBBLOCKREPETAG
1070
     1
1071
        5
1005
1312D3
  0
LINE
  5
1312D4
  8
OBJECT
 10
131.99999999861211
 20
-292.99999999770631
 30
0.0
 11
131.99999999861211
 21
-328.99999999770631
 31
0.0
1001
ACDBBLOCKREPETAG
1070
     1
1071
        6
1005
1312D4
  0
LINE
  5
1312D5
  8
OBJECT
 10
215.49999999861211
 20
-288.9999999977062
 30
0.0
 11
215.49999999861211
 21
-281.99999999770631
 31
0.0
1001
ACDBBLOCKREPETAG
1070
     1
1071
        7
1005
1312D5
  0
LINE
  5
1312D6
  8
OBJECT
 10
136.49999999861211
 20
-281.99999999770631
 30
0.0
 11
136.49999999861211
 21
-288.9999999977062
 31
0.0
1001
ACDBBLOCKREPETAG
1070
     1
1071
        8
1005
1312D6
  0
LINE
  5
1312D7
  8
OBJECT
 10
136.49999999861211
 20
-288.9999999977062
 30
0.0
 11
215.49999999861211
 21
-288.9999999977062
 31
0.0
1001
ACDBBLOCKREPETAG
1070
     1
1071
        9
1005
1312D7
  0
LINE
  5
1312D8
  8
OBJECT
 10
219.99999999861211
 20
-292.99999999770631
 30
0.0
 11
215.49999999861211
 21
-288.9999999977062
 31
0.0
1001
ACDBBLOCKREPETAG
1070
     1
1071
       10
1005
1312D8
  0
LINE
  5
1312D9
  8
OBJECT
 10
131.99999999861211
 20
-292.99999999770631
 30
0.0
 11
136.49999999861211
 21
-288.9999999977062
 31
0.0
1001
ACDBBLOCKREPETAG
1070
     1
1071
       11
1005
1312D9
  0
LINE
  5
1312DA
  8
OBJECT
 10
237.99999999861211
 20
-278.99999999770722
 30
0.0
 11
237.99999999861211
 21
-275.99999999770631
 31
0.0
1001
ACDBBLOCKREPETAG
1070
     1
1071
       12
1005
1312DA
  0
ARC
  5
1312DB
  8
OBJECT
 10
234.99999999861211
 20
-278.99999999770722
 30
0.0
 40
3.0
 50
270.0
 51
0.0
1001
ACDBBLOCKREPETAG
1070
     1
1071
       13
1005
1312DB
  0
LINE
  5
1312DC
  8
OBJECT
 10
113.9999999986121
 20
-275.99999999770631
 30
0.0
 11
113.9999999986121
 21
-278.99999999770529
 31
0.0
1001
ACDBBLOCKREPETAG
1070
     1
1071
       14
1005
1312DC
  0
ARC
  5
1312DD
  8
OBJECT
 10
116.9999999986121
 20
-278.99999999770529
 30
0.0
 40
3.0
 50
180.0
 51
270.0
1001
ACDBBLOCKREPETAG
1070
     1
1071
       15
1005
1312DD
  0
LINE
  5
1312DE
  8
OBJECT
 10
116.9999999986121
 20
-281.99999999770529
 30
0.0
 11
234.99999999861211
 21
-281.99999999770711
 31
0.0
1001
ACDBBLOCKREPETAG
1070
     1
1071
       16
1005
1312DE
  0
INSERT
  5
1312DF
  8
OBJECT
  2
*U23
 10
0.0
 20
0.0
 30
0.0
  0
LINE
  5
1312E0
  8
HIDDEN
 10
205.99999999861211
 20
-283.99999999770631
 30
0.0
 11
145.99999999861211
 21
-283.99999999770631
 31
0.0
1001
ACDBBLOCKREPETAG
1070
     1
1071
      424
1005
1312E0
  0
LINE
  5
1312E1
  8
OBJECT
 10
258.99999999861211
 20
-257.9999999977062
 30
0.0
 11
255.99999999861211
 21
-257.9999999977062
 31
0.0
1001
ACDBBLOCKREPETAG
1070
     1
1071
      418
1005
1312E1
  0
ARC
  5
1312E2
  8
OBJECT
 10
258.99999999861211
 20
-254.99999999770631
 30
0.0
 40
3.0
 50
270.0
 51
0.0
1001
ACDBBLOCKREPETAG
1070
     1
1071
      419
1005
1312E2
  0
LINE
  5
1312E3
  8
OBJECT
 10
255.99999999861211
 20
-133.9999999977062
 30
0.0
 11
258.99999999861211
 21
-133.9999999977062
 31
0.0
1001
ACDBBLOCKREPETAG
1070
     1
1071
      420
1005
1312E3
  0
ARC
  5
1312E4
  8
OBJECT
 10
258.99999999861211
 20
-136.9999999977062
 30
0.0
 40
3.0
 50
0.0
 51
90.0
1001
ACDBBLOCKREPETAG
1070
     1
1071
      421
1005
1312E4
  0
LINE
  5
1312E5
  8
OBJECT
 10
261.99999999861211
 20
-136.9999999977062
 30
0.0
 11
261.99999999861211
 21
-254.99999999770631
 31
0.0
1001
ACDBBLOCKREPETAG
1070
     1
1071
      422
1005
1312E5
  0
INSERT
  5
1312E6
  8
OBJECT
  2
*U24
 10
0.0
 20
0.0
 30
0.0
  0
LINE
  5
1312E7
  8
OBJECT
 10
128.99999999861211
 20
-62.999999997706247
 30
0.0
 11
128.99999999861211
 21
-55.999999997706247
 31
0.0
1001
ACDBBLOCKREPETAG
1070
     1
1071
        1
1005
1312E7
  0
LINE
  5
1312E8
  8
OBJECT
 10
128.99999999861211
 20
-55.999999997706247
 30
0.0
 11
222.99999999861211
 21
-55.999999997706247
 31
0.0
1001
ACDBBLOCKREPETAG
1070
     1
1071
        2
1005
1312E8
  0
LINE
  5
1312E9
  8
OBJECT
 10
222.99999999861211
 20
-55.999999997706247
 30
0.0
 11
222.99999999861211
 21
-62.999999997706247
 31
0.0
1001
ACDBBLOCKREPETAG
1070
     1
1071
        3
1005
1312E9
  0
LINE
  5
1312EA
  8
OBJECT
 10
222.99999999861211
 20
-62.999999997706247
 30
0.0
 11
128.99999999861211
 21
-62.999999997706247
 31
0.0
1001
ACDBBLOCKREPETAG
1070
     1
1071
        4
1005
1312EA
  0
LINE
  5
1312EB
  8
OBJECT
 10
131.99999999861211
 20
-62.999999997706247
 30
0.0
 11
131.99999999861211
 21
-98.99999999770624
 31
0.0
1001
ACDBBLOCKREPETAG
1070
     1
1071
        5
1005
1312EB
  0
LINE
  5
1312EC
  8
OBJECT
 10
131.99999999861211
 20
-98.99999999770624
 30
0.0
 11
219.99999999861211
 21
-98.99999999770624
 31
0.0
1001
ACDBBLOCKREPETAG
1070
     1
1071
        6
1005
1312EC
  0
LINE
  5
1312ED
  8
OBJECT
 10
219.99999999861211
 20
-98.99999999770624
 30
0.0
 11
219.99999999861211
 21
-62.999999997706247
 31
0.0
1001
ACDBBLOCKREPETAG
1070
     1
1071
        7
1005
1312ED
  0
LINE
  5
1312EE
  8
OBJECT
 10
136.49999999861211
 20
-102.9999999977062
 30
0.0
 11
136.49999999861211
 21
-109.9999999977062
 31
0.0
1001
ACDBBLOCKREPETAG
1070
     1
1071
        8
1005
1312EE
  0
LINE
  5
1312EF
  8
OBJECT
 10
215.49999999861211
 20
-109.9999999977062
 30
0.0
 11
215.49999999861211
 21
-102.9999999977062
 31
0.0
1001
ACDBBLOCKREPETAG
1070
     1
1071
        9
1005
1312EF
  0
LINE
  5
1312F0
  8
OBJECT
 10
215.49999999861211
 20
-102.9999999977062
 30
0.0
 11
136.49999999861211
 21
-102.9999999977062
 31
0.0
1001
ACDBBLOCKREPETAG
1070
     1
1071
       10
1005
1312F0
  0
LINE
  5
1312F1
  8
OBJECT
 10
131.99999999861211
 20
-98.99999999770624
 30
0.0
 11
136.49999999861211
 21
-102.9999999977062
 31
0.0
1001
ACDBBLOCKREPETAG
1070
     1
1071
       11
1005
1312F1
  0
LINE
  5
1312F2
  8
OBJECT
 10
219.99999999861211
 20
-98.99999999770624
 30
0.0
 11
215.49999999861211
 21
-102.9999999977062
 31
0.0
1001
ACDBBLOCKREPETAG
1070
     1
1071
       12
1005
1312F2
  0
LINE
  5
1312F3
  8
OBJECT
 10
113.9999999986121
 20
-112.9999999977053
 30
0.0
 11
113.9999999986121
 21
-115.9999999977062
 31
0.0
1001
ACDBBLOCKREPETAG
1070
     1
1071
       13
1005
1312F3
  0
ARC
  5
1312F4
  8
OBJECT
 10
116.9999999986121
 20
-112.9999999977053
 30
0.0
 40
3.0
 50
90.0
 51
180.0
1001
ACDBBLOCKREPETAG
1070
     1
1071
       14
1005
1312F4
  0
LINE
  5
1312F5
  8
OBJECT
 10
237.99999999861211
 20
-115.9999999977062
 30
0.0
 11
237.99999999861211
 21
-112.99999999770711
 31
0.0
1001
ACDBBLOCKREPETAG
1070
     1
1071
       15
1005
1312F5
  0
ARC
  5
1312F6
  8
OBJECT
 10
234.99999999861211
 20
-112.99999999770711
 30
0.0
 40
3.0
 50
0.0
 51
90.0
1001
ACDBBLOCKREPETAG
1070
     1
1071
       16
1005
1312F6
  0
LINE
  5
1312F7
  8
OBJECT
 10
234.99999999861211
 20
-109.99999999770711
 30
0.0
 11
116.9999999986121
 21
-109.9999999977053
 31
0.0
1001
ACDBBLOCKREPETAG
1070
     1
1071
       17
1005
1312F7
  0
LINE
  5
1312F8
  8
HIDDEN
 10
145.99999999861211
 20
-107.9999999977062
 30
0.0
 11
205.99999999861211
 21
-107.9999999977062
 31
0.0
1001
ACDBBLOCKREPETAG
1070
     1
1071
      420
1005
1312F8
  0
TEXT
  5
1312F9
  8
SLIM
 10
1837.75
 20
282.50000000000011
 30
0.0
 40
35.0
  1
（枝管サイズ毎に寸法が異なります。管底の位置は全サイズで同じです）
 41
0.75
  0
TEXT
  5
1312FA
  8
SLIM
 10
1850.0
 20
532.5
 30
0.0
 40
75.0
  1
側面図の代表機種
 41
0.75
  0
TEXT
  5
1312FB
  8
SLIM
 10
1850.0
 20
369.99999999999989
 30
0.0
 40
100.0
  1
4SR-B303（特注品）
 41
0.75
  0
TEXT
  5
1312FC
  8
SLIM
 10
0.0
 20
370.0
 30
0.0
 40
100.0
  1
4SR-BX0X-S
 41
0.75
  0
LINE
  5
1312FD
  8
OBJECT
 10
4923.0
 20
-3395.9999999999968
 30
0.0
 11
4923.0
 21
-3374.9999999999968
 31
0.0
1001
ACDBBLOCKREPETAG
1070
     1
1071
        0
1005
1312FD
  0
LINE
  5
1312FE
  8
OBJECT
 10
4923.0
 20
-3374.9999999999968
 30
0.0
 11
5077.0
 21
-3374.9999999999968
 31
0.0
1001
ACDBBLOCKREPETAG
1070
     1
1071
        1
1005
1312FE
  0
LINE
  5
1312FF
  8
HIDDEN
 10
4943.0
 20
-3444.9999999999968
 30
0.0
 11
5057.0
 21
-3444.9999999999968
 31
0.0
1001
ACDBBLOCKREPETAG
1070
     1
1071
        2
1005
1312FF
  0
LINE
  5
131300
  8
OBJECT
 10
5077.0
 20
-3374.9999999999968
 30
0.0
 11
5077.0
 21
-3395.9999999999968
 31
0.0
1001
ACDBBLOCKREPETAG
1070
     1
1071
        3
1005
131300
  0
LINE
  5
131301
  8
OBJECT
 10
5077.0
 20
-3395.9999999999968
 30
0.0
 11
4923.0
 21
-3395.9999999999968
 31
0.0
1001
ACDBBLOCKREPETAG
1070
     1
1071
        4
1005
131301
  0
LINE
  5
131302
  8
CENTER
 10
5000.0
 20
-3359.9999999999968
 30
0.0
 11
5000.0
 21
-3594.9999999999968
 31
0.0
1001
ACDBBLOCKREPETAG
1070
     1
1071
        5
1005
131302
  0
LINE
  5
131303
  8
OBJECT
 10
4925.0
 20
-3458.9999999999968
 30
0.0
 11
4925.0
 21
-3582.9999999999968
 31
0.0
1001
ACDBBLOCKREPETAG
1070
     1
1071
        6
1005
131303
  0
LINE
  5
131304
  8
OBJECT
 10
4928.0
 20
-3395.9999999999968
 30
0.0
 11
4928.0
 21
-3458.9999999999968
 31
0.0
1001
ACDBBLOCKREPETAG
1070
     1
1071
        7
1005
131304
  0
LINE
  5
131305
  8
OBJECT
 10
5072.0
 20
-3458.9999999999968
 30
0.0
 11
5072.0
 21
-3395.9999999999968
 31
0.0
1001
ACDBBLOCKREPETAG
1070
     1
1071
        8
1005
131305
  0
LINE
  5
131306
  8
OBJECT
 10
5074.9999999997999
 20
-3582.9999999997758
 30
0.0
 11
5080.0
 21
-3582.9999999999968
 31
0.0
1001
ACDBBLOCKREPETAG
1070
     1
1071
        9
1005
131306
  0
LINE
  5
131307
  8
OBJECT
 10
5080.0
 20
-3458.9999999999968
 30
0.0
 11
4925.0
 21
-3458.9999999999968
 31
0.0
1001
ACDBBLOCKREPETAG
1070
     1
1071
       10
1005
131307
  0
ARC
  5
131308
  8
OBJECT
 10
5200.6872746716726
 20
-3574.408099410105
 30
0.0
 40
170.6350503965856
 50
137.44134459184301
 51
149.9194958133665
1001
ACDBBLOCKREPETAG
1070
     1
1071
       15
1005
131308
  0
ARC
  5
131309
  8
OBJECT
 10
5118.8455987040506
 20
-3530.8827266953631
 30
0.0
 40
78.072222021763665
 50
147.4551531037684
 51
164.66365997719291
1001
ACDBBLOCKREPETAG
1070
     1
1071
       16
1005
131309
  0
ARC
  5
13130A
  8
OBJECT
 10
5085.7554349608727
 20
-3520.9999999999968
 30
0.0
 40
43.55353926885617
 50
165.6884523008477
 51
194.3115476991523
1001
ACDBBLOCKREPETAG
1070
     1
1071
       17
1005
13130A
  0
ARC
  5
13130B
  8
OBJECT
 10
5200.6872746716726
 20
-3467.5919005898891
 30
0.0
 40
170.6350503965856
 50
210.0805041866335
 51
222.55865540815699
1001
ACDBBLOCKREPETAG
1070
     1
1071
       18
1005
13130B
  0
ARC
  5
13130C
  8
OBJECT
 10
5118.8455987040506
 20
-3511.1172733046319
 30
0.0
 40
78.072222021763665
 50
195.33634002280701
 51
212.5448468962316
1001
ACDBBLOCKREPETAG
1070
     1
1071
       19
1005
13130C
  0
POINT
  5
13130D
  8
DOTS
 10
5000.0
 20
-3579.9999999999968
 30
0.0
1001
ACDBBLOCKREPETAG
1070
     1
1071
      186
1005
13130D
  0
LINE
  5
13130E
  8
OBJECT
 10
4323.0
 20
-3395.9999999999968
 30
0.0
 11
4323.0
 21
-3374.9999999999968
 31
0.0
1001
ACDBBLOCKREPETAG
1070
     1
1071
       20
1005
13130E
  0
LINE
  5
13130F
  8
OBJECT
 10
4323.0
 20
-3374.9999999999968
 30
0.0
 11
4477.0
 21
-3374.9999999999968
 31
0.0
1001
ACDBBLOCKREPETAG
1070
     1
1071
       21
1005
13130F
  0
LINE
  5
131310
  8
HIDDEN
 10
4343.0
 20
-3444.9999999999968
 30
0.0
 11
4457.0
 21
-3444.9999999999968
 31
0.0
1001
ACDBBLOCKREPETAG
1070
     1
1071
       22
1005
131310
  0
LINE
  5
131311
  8
OBJECT
 10
4477.0
 20
-3374.9999999999968
 30
0.0
 11
4477.0
 21
-3395.9999999999968
 31
0.0
1001
ACDBBLOCKREPETAG
1070
     1
1071
       23
1005
131311
  0
LINE
  5
131312
  8
OBJECT
 10
4477.0
 20
-3395.9999999999968
 30
0.0
 11
4323.0
 21
-3395.9999999999968
 31
0.0
1001
ACDBBLOCKREPETAG
1070
     1
1071
       24
1005
131312
  0
LINE
  5
131313
  8
CENTER
 10
4400.0
 20
-3359.9999999999968
 30
0.0
 11
4400.0
 21
-3594.9999999999968
 31
0.0
1001
ACDBBLOCKREPETAG
1070
     1
1071
       25
1005
131313
  0
LINE
  5
131314
  8
OBJECT
 10
4325.0
 20
-3458.9999999999968
 30
0.0
 11
4325.0
 21
-3582.9999999999968
 31
0.0
1001
ACDBBLOCKREPETAG
1070
     1
1071
       26
1005
131314
  0
LINE
  5
131315
  8
OBJECT
 10
4328.0
 20
-3395.9999999999968
 30
0.0
 11
4328.0
 21
-3458.9999999999968
 31
0.0
1001
ACDBBLOCKREPETAG
1070
     1
1071
       27
1005
131315
  0
LINE
  5
131316
  8
OBJECT
 10
4472.0
 20
-3458.9999999999968
 30
0.0
 11
4472.0
 21
-3395.9999999999968
 31
0.0
1001
ACDBBLOCKREPETAG
1070
     1
1071
       28
1005
131316
  0
LINE
  5
131317
  8
OBJECT
 10
4475.0
 20
-3458.9999999999968
 30
0.0
 11
4325.0
 21
-3458.9999999999968
 31
0.0
1001
ACDBBLOCKREPETAG
1070
     1
1071
       30
1005
131317
  0
LINE
  5
131318
  8
OBJECT
 10
4475.0
 20
-3458.9999999999968
 30
0.0
 11
4475.0
 21
-3582.9999999999968
 31
0.0
1001
ACDBBLOCKREPETAG
1070
     1
1071
       34
1005
131318
  0
POINT
  5
131319
  8
DOTS
 10
4400.0
 20
-3579.9999999999968
 30
0.0
1001
ACDBBLOCKREPETAG
1070
     1
1071
      187
1005
131319
  0
LINE
  5
13131A
  8
OBJECT
 10
3923.0
 20
-3395.9999999999968
 30
0.0
 11
3923.0
 21
-3374.9999999999968
 31
0.0
1001
ACDBBLOCKREPETAG
1070
     1
1071
        0
1005
13131A
  0
LINE
  5
13131B
  8
OBJECT
 10
3923.0
 20
-3374.9999999999968
 30
0.0
 11
4077.0
 21
-3374.9999999999968
 31
0.0
1001
ACDBBLOCKREPETAG
1070
     1
1071
        1
1005
13131B
  0
LINE
  5
13131C
  8
HIDDEN
 10
3943.0
 20
-3444.9999999999968
 30
0.0
 11
4057.0
 21
-3444.9999999999968
 31
0.0
1001
ACDBBLOCKREPETAG
1070
     1
1071
        2
1005
13131C
  0
LINE
  5
13131D
  8
OBJECT
 10
4077.0
 20
-3374.9999999999968
 30
0.0
 11
4077.0
 21
-3395.9999999999968
 31
0.0
1001
ACDBBLOCKREPETAG
1070
     1
1071
        3
1005
13131D
  0
LINE
  5
13131E
  8
OBJECT
 10
4077.0
 20
-3395.9999999999968
 30
0.0
 11
3923.0
 21
-3395.9999999999968
 31
0.0
1001
ACDBBLOCKREPETAG
1070
     1
1071
        4
1005
13131E
  0
LINE
  5
13131F
  8
CENTER
 10
4000.0
 20
-3359.9999999999968
 30
0.0
 11
4000.0
 21
-3594.9999999999968
 31
0.0
1001
ACDBBLOCKREPETAG
1070
     1
1071
        5
1005
13131F
  0
LINE
  5
131320
  8
OBJECT
 10
3925.0
 20
-3458.9999999999968
 30
0.0
 11
3925.0
 21
-3582.9999999999968
 31
0.0
1001
ACDBBLOCKREPETAG
1070
     1
1071
        6
1005
131320
  0
LINE
  5
131321
  8
OBJECT
 10
3928.0
 20
-3395.9999999999968
 30
0.0
 11
3928.0
 21
-3458.9999999999968
 31
0.0
1001
ACDBBLOCKREPETAG
1070
     1
1071
        7
1005
131321
  0
LINE
  5
131322
  8
OBJECT
 10
4072.0
 20
-3458.9999999999968
 30
0.0
 11
4072.0
 21
-3395.9999999999968
 31
0.0
1001
ACDBBLOCKREPETAG
1070
     1
1071
        8
1005
131322
  0
LINE
  5
131323
  8
OBJECT
 10
4074.999999999799
 20
-3582.9999999997758
 30
0.0
 11
4080.0
 21
-3582.9999999999968
 31
0.0
1001
ACDBBLOCKREPETAG
1070
     1
1071
        9
1005
131323
  0
LINE
  5
131324
  8
OBJECT
 10
4080.0
 20
-3458.9999999999968
 30
0.0
 11
3925.0
 21
-3458.9999999999968
 31
0.0
1001
ACDBBLOCKREPETAG
1070
     1
1071
       10
1005
131324
  0
ARC
  5
131325
  8
OBJECT
 10
4200.6872746716726
 20
-3574.408099410105
 30
0.0
 40
170.6350503965856
 50
137.44134459184301
 51
149.9194958133665
1001
ACDBBLOCKREPETAG
1070
     1
1071
       15
1005
131325
  0
ARC
  5
131326
  8
OBJECT
 10
4118.8455987040506
 20
-3530.8827266953631
 30
0.0
 40
78.072222021763665
 50
147.4551531037684
 51
164.663659977186
1001
ACDBBLOCKREPETAG
1070
     1
1071
       16
1005
131326
  0
ARC
  5
131327
  8
OBJECT
 10
4085.7554349608722
 20
-3520.9999999999968
 30
0.0
 40
43.55353926885617
 50
165.6884523008477
 51
194.3115476991523
1001
ACDBBLOCKREPETAG
1070
     1
1071
       17
1005
131327
  0
ARC
  5
131328
  8
OBJECT
 10
4200.6872746716726
 20
-3467.5919005898891
 30
0.0
 40
170.6350503965856
 50
210.0805041866335
 51
222.55865540815699
1001
ACDBBLOCKREPETAG
1070
     1
1071
       18
1005
131328
  0
ARC
  5
131329
  8
OBJECT
 10
4118.8455987040506
 20
-3511.1172733046319
 30
0.0
 40
78.072222021763665
 50
195.33634002281391
 51
212.5448468962316
1001
ACDBBLOCKREPETAG
1070
     1
1071
       19
1005
131329
  0
POINT
  5
13132A
  8
DOTS
 10
4000.0
 20
-3579.9999999999968
 30
0.0
1001
ACDBBLOCKREPETAG
1070
     1
1071
      186
1005
13132A
  0
LINE
  5
13132B
  8
OBJECT
 10
3323.0
 20
-3395.9999999999968
 30
0.0
 11
3323.0
 21
-3374.9999999999968
 31
0.0
1001
ACDBBLOCKREPETAG
1070
     1
1071
       20
1005
13132B
  0
LINE
  5
13132C
  8
OBJECT
 10
3323.0
 20
-3374.9999999999968
 30
0.0
 11
3477.0
 21
-3374.9999999999968
 31
0.0
1001
ACDBBLOCKREPETAG
1070
     1
1071
       21
1005
13132C
  0
LINE
  5
13132D
  8
HIDDEN
 10
3343.0
 20
-3444.9999999999968
 30
0.0
 11
3457.0
 21
-3444.9999999999968
 31
0.0
1001
ACDBBLOCKREPETAG
1070
     1
1071
       22
1005
13132D
  0
LINE
  5
13132E
  8
OBJECT
 10
3477.0
 20
-3374.9999999999968
 30
0.0
 11
3477.0
 21
-3395.9999999999968
 31
0.0
1001
ACDBBLOCKREPETAG
1070
     1
1071
       23
1005
13132E
  0
LINE
  5
13132F
  8
OBJECT
 10
3477.0
 20
-3395.9999999999968
 30
0.0
 11
3323.0
 21
-3395.9999999999968
 31
0.0
1001
ACDBBLOCKREPETAG
1070
     1
1071
       24
1005
13132F
  0
LINE
  5
131330
  8
CENTER
 10
3400.0
 20
-3359.9999999999968
 30
0.0
 11
3400.0
 21
-3594.9999999999968
 31
0.0
1001
ACDBBLOCKREPETAG
1070
     1
1071
       25
1005
131330
  0
LINE
  5
131331
  8
OBJECT
 10
3325.0
 20
-3458.9999999999968
 30
0.0
 11
3325.0
 21
-3582.9999999999968
 31
0.0
1001
ACDBBLOCKREPETAG
1070
     1
1071
       26
1005
131331
  0
LINE
  5
131332
  8
OBJECT
 10
3328.0
 20
-3395.9999999999968
 30
0.0
 11
3328.0
 21
-3458.9999999999968
 31
0.0
1001
ACDBBLOCKREPETAG
1070
     1
1071
       27
1005
131332
  0
LINE
  5
131333
  8
OBJECT
 10
3472.0
 20
-3458.9999999999968
 30
0.0
 11
3472.0
 21
-3395.9999999999968
 31
0.0
1001
ACDBBLOCKREPETAG
1070
     1
1071
       28
1005
131333
  0
LINE
  5
131334
  8
OBJECT
 10
3475.0
 20
-3458.9999999999968
 30
0.0
 11
3325.0
 21
-3458.9999999999968
 31
0.0
1001
ACDBBLOCKREPETAG
1070
     1
1071
       30
1005
131334
  0
LINE
  5
131335
  8
OBJECT
 10
3475.0
 20
-3458.9999999999968
 30
0.0
 11
3475.0
 21
-3582.9999999999968
 31
0.0
1001
ACDBBLOCKREPETAG
1070
     1
1071
       34
1005
131335
  0
POINT
  5
131336
  8
DOTS
 10
3400.0
 20
-3579.9999999999968
 30
0.0
1001
ACDBBLOCKREPETAG
1070
     1
1071
      187
1005
131336
  0
LINE
  5
131337
  8
OBJECT
 10
2923.0
 20
-3395.9999999999968
 30
0.0
 11
2923.0
 21
-3374.9999999999968
 31
0.0
1001
ACDBBLOCKREPETAG
1070
     1
1071
        0
1005
131337
  0
LINE
  5
131338
  8
OBJECT
 10
2923.0
 20
-3374.9999999999968
 30
0.0
 11
3077.0
 21
-3374.9999999999968
 31
0.0
1001
ACDBBLOCKREPETAG
1070
     1
1071
        1
1005
131338
  0
LINE
  5
131339
  8
HIDDEN
 10
2943.0
 20
-3444.9999999999968
 30
0.0
 11
3057.0
 21
-3444.9999999999968
 31
0.0
1001
ACDBBLOCKREPETAG
1070
     1
1071
        2
1005
131339
  0
LINE
  5
13133A
  8
OBJECT
 10
3077.0
 20
-3374.9999999999968
 30
0.0
 11
3077.0
 21
-3395.9999999999968
 31
0.0
1001
ACDBBLOCKREPETAG
1070
     1
1071
        3
1005
13133A
  0
LINE
  5
13133B
  8
OBJECT
 10
3077.0
 20
-3395.9999999999968
 30
0.0
 11
2923.0
 21
-3395.9999999999968
 31
0.0
1001
ACDBBLOCKREPETAG
1070
     1
1071
        4
1005
13133B
  0
LINE
  5
13133C
  8
CENTER
 10
3000.0
 20
-3359.9999999999968
 30
0.0
 11
3000.0
 21
-3594.9999999999968
 31
0.0
1001
ACDBBLOCKREPETAG
1070
     1
1071
        5
1005
13133C
  0
LINE
  5
13133D
  8
OBJECT
 10
2925.0
 20
-3458.9999999999968
 30
0.0
 11
2925.0
 21
-3582.9999999999968
 31
0.0
1001
ACDBBLOCKREPETAG
1070
     1
1071
        6
1005
13133D
  0
LINE
  5
13133E
  8
OBJECT
 10
2928.0
 20
-3395.9999999999968
 30
0.0
 11
2928.0
 21
-3458.9999999999968
 31
0.0
1001
ACDBBLOCKREPETAG
1070
     1
1071
        7
1005
13133E
  0
LINE
  5
13133F
  8
OBJECT
 10
3072.0
 20
-3458.9999999999968
 30
0.0
 11
3072.0
 21
-3395.9999999999968
 31
0.0
1001
ACDBBLOCKREPETAG
1070
     1
1071
        8
1005
13133F
  0
LINE
  5
131340
  8
OBJECT
 10
3074.9999999997999
 20
-3582.9999999997758
 30
0.0
 11
3080.0
 21
-3582.9999999999968
 31
0.0
1001
ACDBBLOCKREPETAG
1070
     1
1071
        9
1005
131340
  0
LINE
  5
131341
  8
OBJECT
 10
3080.0
 20
-3458.9999999999968
 30
0.0
 11
2925.0
 21
-3458.9999999999968
 31
0.0
1001
ACDBBLOCKREPETAG
1070
     1
1071
       10
1005
131341
  0
ARC
  5
131342
  8
OBJECT
 10
3200.6872746716722
 20
-3574.408099410105
 30
0.0
 40
170.6350503965856
 50
137.44134459184301
 51
149.9194958133665
1001
ACDBBLOCKREPETAG
1070
     1
1071
       15
1005
131342
  0
ARC
  5
131343
  8
OBJECT
 10
3118.8455987040511
 20
-3530.8827266953631
 30
0.0
 40
78.072222021763665
 50
147.4551531037684
 51
164.663659977186
1001
ACDBBLOCKREPETAG
1070
     1
1071
       16
1005
131343
  0
ARC
  5
131344
  8
OBJECT
 10
3085.7554349608731
 20
-3520.9999999999968
 30
0.0
 40
43.55353926885617
 50
165.6884523008477
 51
194.3115476991523
1001
ACDBBLOCKREPETAG
1070
     1
1071
       17
1005
131344
  0
ARC
  5
131345
  8
OBJECT
 10
3200.6872746716722
 20
-3467.5919005898891
 30
0.0
 40
170.6350503965856
 50
210.0805041866335
 51
222.55865540815699
1001
ACDBBLOCKREPETAG
1070
     1
1071
       18
1005
131345
  0
ARC
  5
131346
  8
OBJECT
 10
3118.8455987040511
 20
-3511.1172733046319
 30
0.0
 40
78.072222021763665
 50
195.33634002281391
 51
212.5448468962316
1001
ACDBBLOCKREPETAG
1070
     1
1071
       19
1005
131346
  0
POINT
  5
131347
  8
DOTS
 10
3000.0
 20
-3579.9999999999968
 30
0.0
1001
ACDBBLOCKREPETAG
1070
     1
1071
      186
1005
131347
  0
LINE
  5
131348
  8
OBJECT
 10
2323.0
 20
-3395.9999999999968
 30
0.0
 11
2323.0
 21
-3374.9999999999968
 31
0.0
1001
ACDBBLOCKREPETAG
1070
     1
1071
       20
1005
131348
  0
LINE
  5
131349
  8
OBJECT
 10
2323.0
 20
-3374.9999999999968
 30
0.0
 11
2477.0
 21
-3374.9999999999968
 31
0.0
1001
ACDBBLOCKREPETAG
1070
     1
1071
       21
1005
131349
  0
LINE
  5
13134A
  8
HIDDEN
 10
2343.0
 20
-3444.9999999999968
 30
0.0
 11
2457.0
 21
-3444.9999999999968
 31
0.0
1001
ACDBBLOCKREPETAG
1070
     1
1071
       22
1005
13134A
  0
LINE
  5
13134B
  8
OBJECT
 10
2477.0
 20
-3374.9999999999968
 30
0.0
 11
2477.0
 21
-3395.9999999999968
 31
0.0
1001
ACDBBLOCKREPETAG
1070
     1
1071
       23
1005
13134B
  0
LINE
  5
13134C
  8
OBJECT
 10
2477.0
 20
-3395.9999999999968
 30
0.0
 11
2323.0
 21
-3395.9999999999968
 31
0.0
1001
ACDBBLOCKREPETAG
1070
     1
1071
       24
1005
13134C
  0
LINE
  5
13134D
  8
CENTER
 10
2400.0
 20
-3359.9999999999968
 30
0.0
 11
2400.0
 21
-3594.9999999999968
 31
0.0
1001
ACDBBLOCKREPETAG
1070
     1
1071
       25
1005
13134D
  0
LINE
  5
13134E
  8
OBJECT
 10
2325.0
 20
-3458.9999999999968
 30
0.0
 11
2325.0
 21
-3582.9999999999968
 31
0.0
1001
ACDBBLOCKREPETAG
1070
     1
1071
       26
1005
13134E
  0
LINE
  5
13134F
  8
OBJECT
 10
2328.0
 20
-3395.9999999999968
 30
0.0
 11
2328.0
 21
-3458.9999999999968
 31
0.0
1001
ACDBBLOCKREPETAG
1070
     1
1071
       27
1005
13134F
  0
LINE
  5
131350
  8
OBJECT
 10
2472.0
 20
-3458.9999999999968
 30
0.0
 11
2472.0
 21
-3395.9999999999968
 31
0.0
1001
ACDBBLOCKREPETAG
1070
     1
1071
       28
1005
131350
  0
LINE
  5
131351
  8
OBJECT
 10
2475.0
 20
-3458.9999999999968
 30
0.0
 11
2325.0
 21
-3458.9999999999968
 31
0.0
1001
ACDBBLOCKREPETAG
1070
     1
1071
       30
1005
131351
  0
LINE
  5
131352
  8
OBJECT
 10
2475.0
 20
-3458.9999999999968
 30
0.0
 11
2475.0
 21
-3582.9999999999968
 31
0.0
1001
ACDBBLOCKREPETAG
1070
     1
1071
       34
1005
131352
  0
POINT
  5
131353
  8
DOTS
 10
2400.0
 20
-3579.9999999999968
 30
0.0
1001
ACDBBLOCKREPETAG
1070
     1
1071
      187
1005
131353
  0
LINE
  5
131354
  8
OBJECT
 10
1923.0
 20
-3395.9999999999968
 30
0.0
 11
1923.0
 21
-3374.9999999999968
 31
0.0
1001
ACDBBLOCKREPETAG
1070
     1
1071
        0
1005
131354
  0
LINE
  5
131355
  8
OBJECT
 10
1923.0
 20
-3374.9999999999968
 30
0.0
 11
2077.0
 21
-3374.9999999999968
 31
0.0
1001
ACDBBLOCKREPETAG
1070
     1
1071
        1
1005
131355
  0
LINE
  5
131356
  8
HIDDEN
 10
1943.0
 20
-3444.9999999999968
 30
0.0
 11
2057.0
 21
-3444.9999999999968
 31
0.0
1001
ACDBBLOCKREPETAG
1070
     1
1071
        2
1005
131356
  0
LINE
  5
131357
  8
OBJECT
 10
2077.0
 20
-3374.9999999999968
 30
0.0
 11
2077.0
 21
-3395.9999999999968
 31
0.0
1001
ACDBBLOCKREPETAG
1070
     1
1071
        3
1005
131357
  0
LINE
  5
131358
  8
OBJECT
 10
2077.0
 20
-3395.9999999999968
 30
0.0
 11
1923.0
 21
-3395.9999999999968
 31
0.0
1001
ACDBBLOCKREPETAG
1070
     1
1071
        4
1005
131358
  0
LINE
  5
131359
  8
CENTER
 10
2000.0
 20
-3359.9999999999968
 30
0.0
 11
2000.0
 21
-3594.9999999999968
 31
0.0
1001
ACDBBLOCKREPETAG
1070
     1
1071
        5
1005
131359
  0
LINE
  5
13135A
  8
OBJECT
 10
1925.0
 20
-3458.9999999999968
 30
0.0
 11
1925.0
 21
-3582.9999999999968
 31
0.0
1001
ACDBBLOCKREPETAG
1070
     1
1071
        6
1005
13135A
  0
LINE
  5
13135B
  8
OBJECT
 10
1928.0
 20
-3395.9999999999968
 30
0.0
 11
1928.0
 21
-3458.9999999999968
 31
0.0
1001
ACDBBLOCKREPETAG
1070
     1
1071
        7
1005
13135B
  0
LINE
  5
13135C
  8
OBJECT
 10
2072.0
 20
-3458.9999999999968
 30
0.0
 11
2072.0
 21
-3395.9999999999968
 31
0.0
1001
ACDBBLOCKREPETAG
1070
     1
1071
        8
1005
13135C
  0
LINE
  5
13135D
  8
OBJECT
 10
2074.999999999799
 20
-3582.9999999997758
 30
0.0
 11
2080.0
 21
-3582.9999999999968
 31
0.0
1001
ACDBBLOCKREPETAG
1070
     1
1071
        9
1005
13135D
  0
LINE
  5
13135E
  8
OBJECT
 10
2080.0
 20
-3458.9999999999968
 30
0.0
 11
1925.0
 21
-3458.9999999999968
 31
0.0
1001
ACDBBLOCKREPETAG
1070
     1
1071
       10
1005
13135E
  0
ARC
  5
13135F
  8
OBJECT
 10
2200.6872746716731
 20
-3574.408099410105
 30
0.0
 40
170.6350503965856
 50
137.44134459184301
 51
149.91949581335999
1001
ACDBBLOCKREPETAG
1070
     1
1071
       15
1005
13135F
  0
ARC
  5
131360
  8
OBJECT
 10
2118.8455987040511
 20
-3530.8827266953631
 30
0.0
 40
78.072222021763665
 50
147.45515310377539
 51
164.663659977186
1001
ACDBBLOCKREPETAG
1070
     1
1071
       16
1005
131360
  0
ARC
  5
131361
  8
OBJECT
 10
2085.7554349608731
 20
-3520.9999999999968
 30
0.0
 40
43.55353926885617
 50
165.6884523008477
 51
194.3115476991523
1001
ACDBBLOCKREPETAG
1070
     1
1071
       17
1005
131361
  0
ARC
  5
131362
  8
OBJECT
 10
2200.6872746716731
 20
-3467.5919005898891
 30
0.0
 40
170.6350503965856
 50
210.08050418664001
 51
222.55865540815699
1001
ACDBBLOCKREPETAG
1070
     1
1071
       18
1005
131362
  0
ARC
  5
131363
  8
OBJECT
 10
2118.8455987040511
 20
-3511.1172733046319
 30
0.0
 40
78.072222021763665
 50
195.33634002281391
 51
212.54484689622461
1001
ACDBBLOCKREPETAG
1070
     1
1071
       19
1005
131363
  0
POINT
  5
131364
  8
DOTS
 10
2000.0
 20
-3579.9999999999968
 30
0.0
1001
ACDBBLOCKREPETAG
1070
     1
1071
      186
1005
131364
  0
LINE
  5
131365
  8
DIM
 10
2150.0
 20
-3221.9999999999959
 30
0.0
 11
2228.479620594459
 21
-3221.9999999999959
 31
0.0
  0
LINE
  5
131366
  8
DIM
 10
2150.0
 20
-3127.9999999999959
 30
0.0
 11
2228.479620594459
 21
-3127.9999999999959
 31
0.0
  0
LINE
  5
131367
  8
DIM
 10
2218.479620594459
 20
-3201.9999999999959
 30
0.0
 11
2218.479620594459
 21
-3147.9999999999959
 31
0.0
  0
INSERT
  5
131368
  8
DIM
  2
_OPEN30
 10
2218.479620594459
 20
-3221.9999999999959
 30
0.0
 41
20.0
 42
20.0
 43
20.0
 50
270.0
  0
INSERT
  5
131369
  8
DIM
  2
_OPEN30
 10
2218.479620594459
 20
-3127.9999999999959
 30
0.0
 41
20.0
 42
20.0
 43
20.0
 50
90.0
  0
INSERT
  5
13136A
  8
OBJECT
  2
*U25
 10
0.0
 20
0.0
 30
0.0
  0
LINE
  5
13136B
  8
DIM
 10
2150.0
 20
-3579.9999999999968
 30
0.0
 11
2226.8409284037339
 21
-3579.9999999999968
 31
0.0
  0
LINE
  5
13136C
  8
DIM
 10
2165.0
 20
-3535.9999999999968
 30
0.0
 11
2226.8409284037339
 21
-3535.9999999999968
 31
0.0
  0
LINE
  5
13136D
  8
DIM
 10
2216.840928403733
 20
-3599.9999999999968
 30
0.0
 11
2216.840928403733
 21
-3619.9999999999968
 31
0.0
  0
LINE
  5
13136E
  8
DIM
 10
2216.840928403733
 20
-3515.9999999999968
 30
0.0
 11
2216.840928403733
 21
-3495.9999999999968
 31
0.0
  0
LINE
  5
13136F
  8
DIM
 10
2216.840928403733
 20
-3579.9999999999968
 30
0.0
 11
2216.840928403733
 21
-3535.9999999999968
 31
0.0
  0
INSERT
  5
131370
  8
DIM
  2
_OPEN30
 10
2216.840928403733
 20
-3579.9999999999968
 30
0.0
 41
20.0
 42
20.0
 43
20.0
 50
90.0
  0
INSERT
  5
131371
  8
DIM
  2
_OPEN30
 10
2216.840928403733
 20
-3535.9999999999968
 30
0.0
 41
20.0
 42
20.0
 43
20.0
 50
270.0
  0
INSERT
  5
131372
  8
OBJECT
  2
*U26
 10
0.0
 20
0.0
 30
0.0
  0
LINE
  5
131373
  8
DIM
 10
2000.0
 20
-3069.9999999999959
 30
0.0
 11
2000.0
 21
-3037.208121984444
 31
0.0
  0
LINE
  5
131374
  8
DIM
 10
2140.0
 20
-3117.9999999999959
 30
0.0
 11
2140.0
 21
-3037.208121984444
 31
0.0
  0
LINE
  5
131375
  8
DIM
 10
2020.0
 20
-3047.208121984444
 30
0.0
 11
2120.0
 21
-3047.208121984444
 31
0.0
  0
INSERT
  5
131376
  8
DIM
  2
_OPEN30
 10
2000.0
 20
-3047.208121984444
 30
0.0
 41
20.0
 42
20.0
 43
20.0
 50
180.0
  0
INSERT
  5
131377
  8
DIM
  2
_OPEN30
 10
2140.0
 20
-3047.208121984444
 30
0.0
 41
20.0
 42
20.0
 43
20.0
  0
INSERT
  5
131378
  8
OBJECT
  2
*U27
 10
0.0
 20
0.0
 30
0.0
  0
TEXT
  5
131379
  8
SLIM
 10
2631.0
 20
-2952.50001604727
 30
0.0
 40
40.0
  1
C寸法
 41
0.75
  0
TEXT
  5
13137A
  8
SLIM
 10
2631.0
 20
-2882.50001604727
 30
0.0
 40
40.0
  1
B寸法
 41
0.75
  0
TEXT
  5
13137B
  8
SLIM
 10
2630.2857142857142
 20
-2812.50001604727
 30
0.0
 40
40.0
  1
A寸法
 41
0.75
  0
TEXT
  5
13137C
  8
SLIM
 10
3159.2857142857151
 20
-2952.50001604727
 30
0.0
 40
40.0
  1
150
 41
0.75
  0
TEXT
  5
13137D
  8
SLIM
 10
3029.2857142857151
 20
-2952.50001604727
 30
0.0
 40
40.0
  1
140
 41
0.75
  0
TEXT
  5
13137E
  8
SLIM
 10
2769.2857142857151
 20
-2952.50001604727
 30
0.0
 40
40.0
  1
140
 41
0.75
  0
TEXT
  5
13137F
  8
SLIM
 10
2899.2857142857151
 20
-2952.50001604727
 30
0.0
 40
40.0
  1
140
 41
0.75
  0
TEXT
  5
131380
  8
SLIM
 10
3170.7142857142858
 20
-2882.50001604727
 30
0.0
 40
40.0
  1
72
 41
0.75
  0
TEXT
  5
131381
  8
SLIM
 10
3041.4285714285711
 20
-2882.50001604727
 30
0.0
 40
40.0
  1
59
 41
0.75
  0
TEXT
  5
131382
  8
SLIM
 10
2780.0
 20
-2882.50001604727
 30
0.0
 40
40.0
  1
44
 41
0.75
  0
TEXT
  5
131383
  8
SLIM
 10
2910.7142857142858
 20
-2882.50001604727
 30
0.0
 40
40.0
  1
52
 41
0.75
  0
TEXT
  5
131384
  8
SLIM
 10
2891.0
 20
-2687.50001604727
 30
0.0
 40
40.0
  1
横枝管サイズ
 41
0.75
  0
TEXT
  5
131385
  8
SLIM
 10
3136.2857142857151
 20
-2742.50001604727
 30
0.0
 40
30.0
  1
100（4）
 41
0.75
  0
TEXT
  5
131386
  8
SLIM
 10
3014.857142857144
 20
-2742.50001604727
 30
0.0
 40
30.0
  1
75（3）
 41
0.75
  0
TEXT
  5
131387
  8
SLIM
 10
2884.8571428571431
 20
-2742.50001604727
 30
0.0
 40
30.0
  1
65（2）
 41
0.75
  0
TEXT
  5
131388
  8
SLIM
 10
2757.0
 20
-2742.50001604727
 30
0.0
 40
30.0
  1
50（1）
 41
0.75
  0
TEXT
  5
131389
  8
SLIM
 10
3159.2857142857151
 20
-2812.50001604727
 30
0.0
 40
40.0
  1
150
 41
0.75
  0
TEXT
  5
13138A
  8
SLIM
 10
3028.571428571428
 20
-2812.50001604727
 30
0.0
 40
40.0
  1
124
 41
0.75
  0
TEXT
  5
13138B
  8
SLIM
 10
2780.0
 20
-2812.50001604727
 30
0.0
 40
40.0
  1
94
 41
0.75
  0
TEXT
  5
13138C
  8
SLIM
 10
2902.1428571428569
 20
-2812.50001604727
 30
0.0
 40
40.0
  1
110
 41
0.75
  0
TEXT
  5
13138D
  8
SLIM
 10
1849.9999999999991
 20
-2712.5
 30
0.0
 40
75.0
  1
枝管サイズ毎の形状
 41
0.75
  0
LINE
  5
13138E
  8
OBJECT
 10
5150.0
 20
-3432.9999999999968
 30
0.0
 11
5143.0
 21
-3432.9999999999968
 31
0.0
1001
ACDBBLOCKREPETAG
1070
     1
1071
       64
1005
13138E
  0
LINE
  5
13138F
  8
OBJECT
 10
5143.0
 20
-3432.9999999999968
 30
0.0
 11
5143.0
 21
-3579.9999999999968
 31
0.0
1001
ACDBBLOCKREPETAG
1070
     1
1071
       65
1005
13138F
  0
LINE
  5
131390
  8
OBJECT
 10
5101.5
 20
-3435.9999999999968
 30
0.0
 11
5101.5
 21
-3579.9999999999968
 31
0.0
1001
ACDBBLOCKREPETAG
1070
     1
1071
       66
1005
131390
  0
LINE
  5
131391
  8
OBJECT
 10
5090.0
 20
-3442.4999999999968
 30
0.0
 11
5090.0
 21
-3573.4999999999968
 31
0.0
1001
ACDBBLOCKREPETAG
1070
     1
1071
       67
1005
131391
  0
LINE
  5
131392
  8
OBJECT
 10
5086.0
 20
-3514.5000000000041
 30
0.0
 11
5086.0
 21
-3579.9999999999968
 31
0.0
1001
ACDBBLOCKREPETAG
1070
     1
1071
       68
1005
131392
  0
LINE
  5
131393
  8
OBJECT
 10
5150.0
 20
-3579.9999999999968
 30
0.0
 11
5150.0
 21
-3432.9999999999968
 31
0.0
1001
ACDBBLOCKREPETAG
1070
     1
1071
       69
1005
131393
  0
LINE
  5
131394
  8
CENTER
 10
5165.0
 20
-3507.9999999999968
 30
0.0
 11
5070.4144144144157
 21
-3507.9999999999968
 31
0.0
1001
ACDBBLOCKREPETAG
1070
     1
1071
       70
1005
131394
  0
LINE
  5
131395
  8
OBJECT
 10
5083.0000000000045
 20
-3582.9999999999968
 30
0.0
 11
5080.0
 21
-3582.9999999999968
 31
0.0
1001
ACDBBLOCKREPETAG
1070
     1
1071
       71
1005
131395
  0
ARC
  5
131396
  8
OBJECT
 10
5091.8815171830656
 20
-3581.4555591801418
 30
0.0
 40
6.0
 50
60.52411099686767
 51
170.6927439126847
1001
ACDBBLOCKREPETAG
1070
     1
1071
       72
1005
131396
  0
ARC
  5
131397
  8
OBJECT
 10
5083.0
 20
-3579.9999999999968
 30
0.0
 40
3.0
 50
270.0
 51
350.69274391268482
1001
ACDBBLOCKREPETAG
1070
     1
1071
       73
1005
131397
  0
LINE
  5
131398
  8
OBJECT
 10
5081.0
 20
-3458.9999999999968
 30
0.0
 11
5080.0
 21
-3458.9999999999968
 31
0.0
1001
ACDBBLOCKREPETAG
1070
     1
1071
       74
1005
131398
  0
LINE
  5
131399
  8
OBJECT
 10
5150.0
 20
-3579.9999999999968
 30
0.0
 11
5101.5
 21
-3579.9999999999968
 31
0.0
1001
ACDBBLOCKREPETAG
1070
     1
1071
       75
1005
131399
  0
LINE
  5
13139A
  8
OBJECT
 10
5101.5
 20
-3435.9999999999968
 30
0.0
 11
5090.0
 21
-3442.4999999999968
 31
0.0
1001
ACDBBLOCKREPETAG
1070
     1
1071
       76
1005
13139A
  0
LINE
  5
13139B
  8
OBJECT
 10
5143.0
 20
-3435.9999999999968
 30
0.0
 11
5101.5
 21
-3435.9999999999968
 31
0.0
1001
ACDBBLOCKREPETAG
1070
     1
1071
       77
1005
13139B
  0
LINE
  5
13139C
  8
OBJECT
 10
5086.0
 20
-3514.5000000000041
 30
0.0
 11
5081.0
 21
-3458.9999999999968
 31
0.0
1001
ACDBBLOCKREPETAG
1070
     1
1071
       78
1005
13139C
  0
LINE
  5
13139D
  8
OBJECT
 10
5090.0
 20
-3442.4999999999968
 30
0.0
 11
5081.0
 21
-3458.9999999999968
 31
0.0
1001
ACDBBLOCKREPETAG
1070
     1
1071
       79
1005
13139D
  0
LINE
  5
13139E
  8
OBJECT
 10
5101.5
 20
-3579.9999999999968
 30
0.0
 11
5094.8338607230708
 21
-3576.232182147819
 31
0.0
1001
ACDBBLOCKREPETAG
1070
     1
1071
       80
1005
13139E
  0
LINE
  5
13139F
  8
HIDDEN
 10
5098.0
 20
-3564.9999999999968
 30
0.0
 11
5098.0
 21
-3450.9999999999968
 31
0.0
1001
ACDBBLOCKREPETAG
1070
     1
1071
       81
1005
13139F
  0
LINE
  5
1313A0
  8
OBJECT
 10
5150.0
 20
-3099.9999999999959
 30
0.0
 11
5143.0
 21
-3099.9999999999959
 31
0.0
1001
ACDBBLOCKREPETAG
1070
     1
1071
       67
1005
1313A0
  0
LINE
  5
1313A1
  8
OBJECT
 10
5143.0
 20
-3099.9999999999959
 30
0.0
 11
5143.0
 21
-3249.9999999999959
 31
0.0
1001
ACDBBLOCKREPETAG
1070
     1
1071
       68
1005
1313A1
  0
LINE
  5
1313A2
  8
OBJECT
 10
5101.5
 20
-3102.9999999999959
 30
0.0
 11
5101.5
 21
-3246.9999999999959
 31
0.0
1001
ACDBBLOCKREPETAG
1070
     1
1071
       69
1005
1313A2
  0
LINE
  5
1313A3
  8
OBJECT
 10
5090.0
 20
-3109.4999999999959
 30
0.0
 11
5090.0
 21
-3240.4999999999959
 31
0.0
1001
ACDBBLOCKREPETAG
1070
     1
1071
       70
1005
1313A3
  0
LINE
  5
1313A4
  8
OBJECT
 10
5143.0
 20
-3249.9999999999959
 30
0.0
 11
5150.0
 21
-3249.9999999999959
 31
0.0
1001
ACDBBLOCKREPETAG
1070
     1
1071
       71
1005
1313A4
  0
LINE
  5
1313A5
  8
OBJECT
 10
5150.0
 20
-3249.9999999999959
 30
0.0
 11
5150.0
 21
-3099.9999999999959
 31
0.0
1001
ACDBBLOCKREPETAG
1070
     1
1071
       72
1005
1313A5
  0
LINE
  5
1313A6
  8
HIDDEN
 10
5098.0
 20
-3231.9999999999959
 30
0.0
 11
5098.0
 21
-3117.9999999999959
 31
0.0
1001
ACDBBLOCKREPETAG
1070
     1
1071
       73
1005
1313A6
  0
LINE
  5
1313A7
  8
CENTER
 10
5165.0
 20
-3174.9999999999959
 30
0.0
 11
5080.0
 21
-3174.9999999999959
 31
0.0
1001
ACDBBLOCKREPETAG
1070
     1
1071
       74
1005
1313A7
  0
LINE
  5
1313A8
  8
OBJECT
 10
5086.0
 20
-3236.9999999999959
 30
0.0
 11
5080.0
 21
-3236.9999999999959
 31
0.0
1001
ACDBBLOCKREPETAG
1070
     1
1071
       75
1005
1313A8
  0
LINE
  5
1313A9
  8
OBJECT
 10
5143.0
 20
-3246.9999999999959
 30
0.0
 11
5101.5
 21
-3246.9999999999959
 31
0.0
1001
ACDBBLOCKREPETAG
1070
     1
1071
       76
1005
1313A9
  0
LINE
  5
1313AA
  8
OBJECT
 10
5101.5
 20
-3246.9999999999959
 30
0.0
 11
5090.0
 21
-3240.4999999999959
 31
0.0
1001
ACDBBLOCKREPETAG
1070
     1
1071
       77
1005
1313AA
  0
LINE
  5
1313AB
  8
OBJECT
 10
5090.0
 20
-3240.4999999999959
 30
0.0
 11
5086.0
 21
-3236.9999999999959
 31
0.0
1001
ACDBBLOCKREPETAG
1070
     1
1071
       78
1005
1313AB
  0
LINE
  5
1313AC
  8
OBJECT
 10
5101.5
 20
-3102.9999999999959
 30
0.0
 11
5090.0
 21
-3109.4999999999959
 31
0.0
1001
ACDBBLOCKREPETAG
1070
     1
1071
       79
1005
1313AC
  0
LINE
  5
1313AD
  8
OBJECT
 10
5090.0
 20
-3109.4999999999959
 30
0.0
 11
5086.0
 21
-3112.9999999999959
 31
0.0
1001
ACDBBLOCKREPETAG
1070
     1
1071
       80
1005
1313AD
  0
ARC
  5
1313AE
  8
OBJECT
 10
5467.9000000000005
 20
-3174.9999999999959
 30
0.0
 40
386.89999999999998
 50
170.77870136260421
 51
189.22129863739571
1001
ACDBBLOCKREPETAG
1070
     1
1071
       81
1005
1313AE
  0
LINE
  5
1313AF
  8
OBJECT
 10
5086.0
 20
-3112.9999999999959
 30
0.0
 11
5080.0
 21
-3112.9999999999959
 31
0.0
1001
ACDBBLOCKREPETAG
1070
     1
1071
       82
1005
1313AF
  0
LINE
  5
1313B0
  8
OBJECT
 10
5143.0
 20
-3102.9999999999959
 30
0.0
 11
5101.5
 21
-3102.9999999999959
 31
0.0
1001
ACDBBLOCKREPETAG
1070
     1
1071
       83
1005
1313B0
  0
TEXT
  5
1313B1
  8
SLIM
 10
4884.25
 20
-3697.4999999999959
 30
0.0
 40
35.0
  1
通常枝100（4）
 41
0.75
  0
LINE
  5
1313B2
  8
CENTER
 10
4477.0
 20
-3520.9999999999968
 30
0.0
 11
4323.0
 21
-3520.9999999999968
 31
0.0
1001
ACDBBLOCKREPETAG
1070
     1
1071
       17
1005
1313B2
  0
CIRCLE
  5
1313B3
  8
OBJECT
 10
4400.0
 20
-3520.9999999999968
 30
0.0
 40
41.5
1001
ACDBBLOCKREPETAG
1070
     1
1071
       19
1005
1313B3
  0
CIRCLE
  5
1313B4
  8
OBJECT
 10
4400.0
 20
-3520.9999999999968
 30
0.0
 40
54.0
1001
ACDBBLOCKREPETAG
1070
     1
1071
       20
1005
1313B4
  0
ARC
  5
1313B5
  8
OBJECT
 10
4400.0
 20
-3520.9999999999968
 30
0.0
 40
62.0
 50
287.89655112921122
 51
252.1034488707887
1001
ACDBBLOCKREPETAG
1070
     1
1071
       21
1005
1313B5
  0
LINE
  5
1313B6
  8
OBJECT
 10
4380.947441116743
 20
-3579.9999999999968
 30
0.0
 11
4419.052558883257
 21
-3579.9999999999968
 31
0.0
1001
ACDBBLOCKREPETAG
1070
     1
1071
       22
1005
1313B6
  0
LINE
  5
1313B7
  8
OBJECT
 10
4133.0
 20
-3458.9999999999968
 30
0.0
 11
4140.0
 21
-3458.9999999999968
 31
0.0
1001
ACDBBLOCKREPETAG
1070
     1
1071
       45
1005
1313B7
  0
LINE
  5
1313B8
  8
OBJECT
 10
4140.0
 20
-3458.9999999999968
 30
0.0
 11
4140.0
 21
-3579.9999999999968
 31
0.0
1001
ACDBBLOCKREPETAG
1070
     1
1071
       46
1005
1313B8
  0
LINE
  5
1313B9
  8
OBJECT
 10
4133.0
 20
-3579.9999999999968
 30
0.0
 11
4133.0
 21
-3458.9999999999968
 31
0.0
1001
ACDBBLOCKREPETAG
1070
     1
1071
       47
1005
1313B9
  0
LINE
  5
1313BA
  8
CENTER
 10
4155.0
 20
-3520.9999999999968
 30
0.0
 11
4071.0
 21
-3520.9999999999968
 31
0.0
1001
ACDBBLOCKREPETAG
1070
     1
1071
       48
1005
1313BA
  0
LINE
  5
1313BB
  8
OBJECT
 10
4133.0
 20
-3461.9999999999968
 30
0.0
 11
4097.0
 21
-3461.9999999999968
 31
0.0
1001
ACDBBLOCKREPETAG
1070
     1
1071
       49
1005
1313BB
  0
LINE
  5
1313BC
  8
OBJECT
 10
4097.0
 20
-3461.9999999999968
 30
0.0
 11
4097.0
 21
-3579.9999999999968
 31
0.0
1001
ACDBBLOCKREPETAG
1070
     1
1071
       50
1005
1313BC
  0
LINE
  5
1313BD
  8
OBJECT
 10
4097.0
 20
-3579.9999999999968
 30
0.0
 11
4140.0
 21
-3579.9999999999968
 31
0.0
1001
ACDBBLOCKREPETAG
1070
     1
1071
       51
1005
1313BD
  0
LINE
  5
1313BE
  8
OBJECT
 10
4093.0
 20
-3466.4999999999968
 30
0.0
 11
4086.0
 21
-3466.4999999999968
 31
0.0
1001
ACDBBLOCKREPETAG
1070
     1
1071
       52
1005
1313BE
  0
LINE
  5
1313BF
  8
OBJECT
 10
4086.0
 20
-3575.4999999999968
 30
0.0
 11
4093.0
 21
-3575.4999999999968
 31
0.0
1001
ACDBBLOCKREPETAG
1070
     1
1071
       53
1005
1313BF
  0
LINE
  5
1313C0
  8
OBJECT
 10
4093.0
 20
-3575.4999999999968
 30
0.0
 11
4093.0
 21
-3466.4999999999968
 31
0.0
1001
ACDBBLOCKREPETAG
1070
     1
1071
       54
1005
1313C0
  0
LINE
  5
1313C1
  8
OBJECT
 10
4097.0
 20
-3461.9999999999968
 30
0.0
 11
4093.0
 21
-3466.4999999999968
 31
0.0
1001
ACDBBLOCKREPETAG
1070
     1
1071
       55
1005
1313C1
  0
LINE
  5
1313C2
  8
OBJECT
 10
4097.0
 20
-3579.9999999999968
 30
0.0
 11
4093.0
 21
-3575.4999999999968
 31
0.0
1001
ACDBBLOCKREPETAG
1070
     1
1071
       56
1005
1313C2
  0
LINE
  5
1313C3
  8
OBJECT
 10
4083.0
 20
-3458.9999999999968
 30
0.0
 11
4080.0
 21
-3458.9999999999968
 31
0.0
1001
ACDBBLOCKREPETAG
1070
     1
1071
       57
1005
1313C3
  0
ARC
  5
1313C4
  8
OBJECT
 10
4083.0
 20
-3461.9999999999968
 30
0.0
 40
3.0
 50
0.0
 51
90.0
1001
ACDBBLOCKREPETAG
1070
     1
1071
       58
1005
1313C4
  0
LINE
  5
1313C5
  8
OBJECT
 10
4080.0
 20
-3582.9999999999968
 30
0.0
 11
4083.0
 21
-3582.9999999999968
 31
0.0
1001
ACDBBLOCKREPETAG
1070
     1
1071
       59
1005
1313C5
  0
ARC
  5
1313C6
  8
OBJECT
 10
4083.0
 20
-3579.9999999999968
 30
0.0
 40
3.0
 50
270.0
 51
0.0
1001
ACDBBLOCKREPETAG
1070
     1
1071
       60
1005
1313C6
  0
LINE
  5
1313C7
  8
OBJECT
 10
4086.0
 20
-3579.9999999999968
 30
0.0
 11
4086.0
 21
-3461.9999999999968
 31
0.0
1001
ACDBBLOCKREPETAG
1070
     1
1071
       61
1005
1313C7
  0
LINE
  5
1313C8
  8
HIDDEN
 10
4088.0
 20
-3476.4999999999968
 30
0.0
 11
4088.0
 21
-3565.4999999999968
 31
0.0
1001
ACDBBLOCKREPETAG
1070
     1
1071
       63
1005
1313C8
  0
LINE
  5
1313C9
  8
OBJECT
 10
4133.0
 20
-3112.9999999999959
 30
0.0
 11
4140.0
 21
-3112.9999999999959
 31
0.0
1001
ACDBBLOCKREPETAG
1070
     1
1071
       47
1005
1313C9
  0
LINE
  5
1313CA
  8
OBJECT
 10
4140.0
 20
-3112.9999999999959
 30
0.0
 11
4140.0
 21
-3236.9999999999959
 31
0.0
1001
ACDBBLOCKREPETAG
1070
     1
1071
       48
1005
1313CA
  0
LINE
  5
1313CB
  8
OBJECT
 10
4140.0
 20
-3236.9999999999959
 30
0.0
 11
4133.0
 21
-3236.9999999999959
 31
0.0
1001
ACDBBLOCKREPETAG
1070
     1
1071
       49
1005
1313CB
  0
LINE
  5
1313CC
  8
OBJECT
 10
4133.0
 20
-3236.9999999999959
 30
0.0
 11
4133.0
 21
-3112.9999999999959
 31
0.0
1001
ACDBBLOCKREPETAG
1070
     1
1071
       50
1005
1313CC
  0
LINE
  5
1313CD
  8
CENTER
 10
4155.0
 20
-3174.9999999999959
 30
0.0
 11
4080.0
 21
-3174.9999999999959
 31
0.0
1001
ACDBBLOCKREPETAG
1070
     1
1071
       51
1005
1313CD
  0
LINE
  5
1313CE
  8
OBJECT
 10
4133.0
 20
-3115.9999999999959
 30
0.0
 11
4097.0
 21
-3115.9999999999959
 31
0.0
1001
ACDBBLOCKREPETAG
1070
     1
1071
       52
1005
1313CE
  0
LINE
  5
1313CF
  8
OBJECT
 10
4097.0
 20
-3115.9999999999959
 30
0.0
 11
4097.0
 21
-3233.9999999999959
 31
0.0
1001
ACDBBLOCKREPETAG
1070
     1
1071
       53
1005
1313CF
  0
LINE
  5
1313D0
  8
OBJECT
 10
4097.0
 20
-3233.9999999999959
 30
0.0
 11
4133.0
 21
-3233.9999999999959
 31
0.0
1001
ACDBBLOCKREPETAG
1070
     1
1071
       54
1005
1313D0
  0
LINE
  5
1313D1
  8
OBJECT
 10
4093.0
 20
-3120.4999999999959
 30
0.0
 11
4086.0
 21
-3120.4999999999959
 31
0.0
1001
ACDBBLOCKREPETAG
1070
     1
1071
       55
1005
1313D1
  0
LINE
  5
1313D2
  8
OBJECT
 10
4086.0
 20
-3229.4999999999959
 30
0.0
 11
4093.0
 21
-3229.4999999999959
 31
0.0
1001
ACDBBLOCKREPETAG
1070
     1
1071
       56
1005
1313D2
  0
LINE
  5
1313D3
  8
OBJECT
 10
4093.0
 20
-3229.4999999999959
 30
0.0
 11
4093.0
 21
-3120.4999999999959
 31
0.0
1001
ACDBBLOCKREPETAG
1070
     1
1071
       57
1005
1313D3
  0
LINE
  5
1313D4
  8
OBJECT
 10
4097.0
 20
-3115.9999999999959
 30
0.0
 11
4093.0
 21
-3120.4999999999959
 31
0.0
1001
ACDBBLOCKREPETAG
1070
     1
1071
       58
1005
1313D4
  0
LINE
  5
1313D5
  8
OBJECT
 10
4097.0
 20
-3233.9999999999959
 30
0.0
 11
4093.0
 21
-3229.4999999999959
 31
0.0
1001
ACDBBLOCKREPETAG
1070
     1
1071
       59
1005
1313D5
  0
LINE
  5
1313D6
  8
OBJECT
 10
4083.0
 20
-3112.9999999999959
 30
0.0
 11
4080.0
 21
-3112.9999999999959
 31
0.0
1001
ACDBBLOCKREPETAG
1070
     1
1071
       60
1005
1313D6
  0
ARC
  5
1313D7
  8
OBJECT
 10
4083.0
 20
-3115.9999999999959
 30
0.0
 40
3.0
 50
0.0
 51
90.0
1001
ACDBBLOCKREPETAG
1070
     1
1071
       61
1005
1313D7
  0
LINE
  5
1313D8
  8
OBJECT
 10
4080.0
 20
-3236.9999999999959
 30
0.0
 11
4083.0
 21
-3236.9999999999959
 31
0.0
1001
ACDBBLOCKREPETAG
1070
     1
1071
       62
1005
1313D8
  0
ARC
  5
1313D9
  8
OBJECT
 10
4083.0
 20
-3233.9999999999959
 30
0.0
 40
3.0
 50
270.0
 51
0.0
1001
ACDBBLOCKREPETAG
1070
     1
1071
       63
1005
1313D9
  0
LINE
  5
1313DA
  8
OBJECT
 10
4086.0
 20
-3233.9999999999959
 30
0.0
 11
4086.0
 21
-3115.9999999999959
 31
0.0
1001
ACDBBLOCKREPETAG
1070
     1
1071
       64
1005
1313DA
  0
LINE
  5
1313DB
  8
HIDDEN
 10
4088.0
 20
-3130.4999999999959
 30
0.0
 11
4088.0
 21
-3219.4999999999959
 31
0.0
1001
ACDBBLOCKREPETAG
1070
     1
1071
       65
1005
1313DB
  0
TEXT
  5
1313DC
  8
SLIM
 10
3894.25
 20
-3697.4999999999959
 30
0.0
 40
35.0
  1
通常枝75（3）
 41
0.75
  0
CIRCLE
  5
1313DD
  8
OBJECT
 10
3400.0
 20
-3527.9999999999968
 30
0.0
 40
35.5
1001
ACDBBLOCKREPETAG
1070
     1
1071
       10
1005
1313DD
  0
CIRCLE
  5
1313DE
  8
OBJECT
 10
3400.0
 20
-3520.9999999999968
 30
0.0
 40
62.0
1001
ACDBBLOCKREPETAG
1070
     1
1071
       11
1005
1313DE
  0
LINE
  5
1313DF
  8
CENTER
 10
3330.0
 20
-3527.9999999999968
 30
0.0
 11
3470.0
 21
-3527.9999999999968
 31
0.0
1001
ACDBBLOCKREPETAG
1070
     1
1071
       12
1005
1313DF
  0
CIRCLE
  5
1313E0
  8
OBJECT
 10
3400.0
 20
-3527.9999999999968
 30
0.0
 40
47.0
1001
ACDBBLOCKREPETAG
1070
     1
1071
       14
1005
1313E0
  0
ARC
  5
1313E1
  8
OBJECT
 10
3400.0
 20
-3527.9999999999968
 30
0.0
 40
55.0
 50
289.01126526011359
 51
250.98873473988641
1001
ACDBBLOCKREPETAG
1070
     1
1071
       15
1005
1313E1
  0
LINE
  5
1313E2
  8
OBJECT
 10
3382.0835271328328
 20
-3579.9999999999968
 30
0.0
 11
3417.9164728671681
 21
-3579.9999999999968
 31
0.0
1001
ACDBBLOCKREPETAG
1070
     1
1071
       16
1005
1313E2
  0
LINE
  5
1313E3
  8
OBJECT
 10
3133.0
 20
-3472.9999999999968
 30
0.0
 11
3140.0
 21
-3472.9999999999968
 31
0.0
1001
ACDBBLOCKREPETAG
1070
     1
1071
       26
1005
1313E3
  0
LINE
  5
1313E4
  8
OBJECT
 10
3140.0
 20
-3472.9999999999968
 30
0.0
 11
3140.0
 21
-3579.9999999999968
 31
0.0
1001
ACDBBLOCKREPETAG
1070
     1
1071
       27
1005
1313E4
  0
LINE
  5
1313E5
  8
OBJECT
 10
3133.0
 20
-3579.9999999999968
 30
0.0
 11
3133.0
 21
-3472.9999999999968
 31
0.0
1001
ACDBBLOCKREPETAG
1070
     1
1071
       28
1005
1313E5
  0
LINE
  5
1313E6
  8
CENTER
 10
3155.0
 20
-3527.9999999999968
 30
0.0
 11
3071.0
 21
-3527.9999999999968
 31
0.0
1001
ACDBBLOCKREPETAG
1070
     1
1071
       29
1005
1313E6
  0
LINE
  5
1313E7
  8
OBJECT
 10
3133.0
 20
-3475.9999999999968
 30
0.0
 11
3097.0
 21
-3475.9999999999968
 31
0.0
1001
ACDBBLOCKREPETAG
1070
     1
1071
       30
1005
1313E7
  0
LINE
  5
1313E8
  8
OBJECT
 10
3097.0
 20
-3475.9999999999968
 30
0.0
 11
3097.0
 21
-3579.9999999999968
 31
0.0
1001
ACDBBLOCKREPETAG
1070
     1
1071
       31
1005
1313E8
  0
LINE
  5
1313E9
  8
OBJECT
 10
3097.0
 20
-3579.9999999999968
 30
0.0
 11
3140.0
 21
-3579.9999999999968
 31
0.0
1001
ACDBBLOCKREPETAG
1070
     1
1071
       32
1005
1313E9
  0
LINE
  5
1313EA
  8
OBJECT
 10
3093.0
 20
-3480.4999999999968
 30
0.0
 11
3086.0
 21
-3480.4999999999968
 31
0.0
1001
ACDBBLOCKREPETAG
1070
     1
1071
       33
1005
1313EA
  0
LINE
  5
1313EB
  8
OBJECT
 10
3086.0
 20
-3575.4999999999968
 30
0.0
 11
3093.0
 21
-3575.4999999999968
 31
0.0
1001
ACDBBLOCKREPETAG
1070
     1
1071
       34
1005
1313EB
  0
LINE
  5
1313EC
  8
OBJECT
 10
3093.0
 20
-3575.4999999999968
 30
0.0
 11
3093.0
 21
-3480.4999999999968
 31
0.0
1001
ACDBBLOCKREPETAG
1070
     1
1071
       35
1005
1313EC
  0
LINE
  5
1313ED
  8
OBJECT
 10
3097.0
 20
-3475.9999999999968
 30
0.0
 11
3093.0
 21
-3480.4999999999968
 31
0.0
1001
ACDBBLOCKREPETAG
1070
     1
1071
       36
1005
1313ED
  0
LINE
  5
1313EE
  8
OBJECT
 10
3097.0
 20
-3579.9999999999968
 30
0.0
 11
3093.0
 21
-3575.4999999999968
 31
0.0
1001
ACDBBLOCKREPETAG
1070
     1
1071
       37
1005
1313EE
  0
LINE
  5
1313EF
  8
OBJECT
 10
3083.0
 20
-3458.9999999999968
 30
0.0
 11
3080.0
 21
-3458.9999999999968
 31
0.0
1001
ACDBBLOCKREPETAG
1070
     1
1071
       38
1005
1313EF
  0
ARC
  5
1313F0
  8
OBJECT
 10
3083.0
 20
-3461.9999999999968
 30
0.0
 40
3.0
 50
0.0
 51
90.0
1001
ACDBBLOCKREPETAG
1070
     1
1071
       39
1005
1313F0
  0
LINE
  5
1313F1
  8
OBJECT
 10
3080.0
 20
-3582.9999999999968
 30
0.0
 11
3083.0
 21
-3582.9999999999968
 31
0.0
1001
ACDBBLOCKREPETAG
1070
     1
1071
       40
1005
1313F1
  0
ARC
  5
1313F2
  8
OBJECT
 10
3083.0
 20
-3579.9999999999968
 30
0.0
 40
3.0
 50
270.0
 51
0.0
1001
ACDBBLOCKREPETAG
1070
     1
1071
       41
1005
1313F2
  0
LINE
  5
1313F3
  8
OBJECT
 10
3086.0
 20
-3579.9999999999968
 30
0.0
 11
3086.0
 21
-3461.9999999999968
 31
0.0
1001
ACDBBLOCKREPETAG
1070
     1
1071
       42
1005
1313F3
  0
LINE
  5
1313F4
  8
HIDDEN
 10
3088.0
 20
-3489.9999999999968
 30
0.0
 11
3088.0
 21
-3565.9999999999968
 31
0.0
1001
ACDBBLOCKREPETAG
1070
     1
1071
       43
1005
1313F4
  0
LINE
  5
1313F5
  8
OBJECT
 10
3133.0
 20
-3119.9999999999959
 30
0.0
 11
3140.0
 21
-3119.9999999999959
 31
0.0
1001
ACDBBLOCKREPETAG
1070
     1
1071
       27
1005
1313F5
  0
LINE
  5
1313F6
  8
OBJECT
 10
3140.0
 20
-3119.9999999999959
 30
0.0
 11
3140.0
 21
-3229.9999999999959
 31
0.0
1001
ACDBBLOCKREPETAG
1070
     1
1071
       28
1005
1313F6
  0
LINE
  5
1313F7
  8
OBJECT
 10
3140.0
 20
-3229.9999999999959
 30
0.0
 11
3133.0
 21
-3229.9999999999959
 31
0.0
1001
ACDBBLOCKREPETAG
1070
     1
1071
       29
1005
1313F7
  0
LINE
  5
1313F8
  8
OBJECT
 10
3133.0
 20
-3229.9999999999959
 30
0.0
 11
3133.0
 21
-3119.9999999999959
 31
0.0
1001
ACDBBLOCKREPETAG
1070
     1
1071
       30
1005
1313F8
  0
LINE
  5
1313F9
  8
CENTER
 10
3155.0
 20
-3174.9999999999959
 30
0.0
 11
3080.0
 21
-3174.9999999999959
 31
0.0
1001
ACDBBLOCKREPETAG
1070
     1
1071
       31
1005
1313F9
  0
LINE
  5
1313FA
  8
OBJECT
 10
3133.0
 20
-3122.9999999999959
 30
0.0
 11
3097.0
 21
-3122.9999999999959
 31
0.0
1001
ACDBBLOCKREPETAG
1070
     1
1071
       32
1005
1313FA
  0
LINE
  5
1313FB
  8
OBJECT
 10
3097.0
 20
-3122.9999999999959
 30
0.0
 11
3097.0
 21
-3226.9999999999959
 31
0.0
1001
ACDBBLOCKREPETAG
1070
     1
1071
       33
1005
1313FB
  0
LINE
  5
1313FC
  8
OBJECT
 10
3097.0
 20
-3226.9999999999959
 30
0.0
 11
3133.0
 21
-3226.9999999999959
 31
0.0
1001
ACDBBLOCKREPETAG
1070
     1
1071
       34
1005
1313FC
  0
LINE
  5
1313FD
  8
OBJECT
 10
3093.0
 20
-3127.4999999999959
 30
0.0
 11
3086.0
 21
-3127.4999999999959
 31
0.0
1001
ACDBBLOCKREPETAG
1070
     1
1071
       35
1005
1313FD
  0
LINE
  5
1313FE
  8
OBJECT
 10
3086.0
 20
-3222.4999999999959
 30
0.0
 11
3093.0
 21
-3222.4999999999959
 31
0.0
1001
ACDBBLOCKREPETAG
1070
     1
1071
       36
1005
1313FE
  0
LINE
  5
1313FF
  8
OBJECT
 10
3093.0
 20
-3222.4999999999959
 30
0.0
 11
3093.0
 21
-3127.4999999999959
 31
0.0
1001
ACDBBLOCKREPETAG
1070
     1
1071
       37
1005
1313FF
  0
LINE
  5
131400
  8
OBJECT
 10
3097.0
 20
-3122.9999999999959
 30
0.0
 11
3093.0
 21
-3127.4999999999959
 31
0.0
1001
ACDBBLOCKREPETAG
1070
     1
1071
       38
1005
131400
  0
LINE
  5
131401
  8
OBJECT
 10
3097.0
 20
-3226.9999999999959
 30
0.0
 11
3093.0
 21
-3222.4999999999959
 31
0.0
1001
ACDBBLOCKREPETAG
1070
     1
1071
       39
1005
131401
  0
LINE
  5
131402
  8
OBJECT
 10
3083.0
 20
-3112.9999999999959
 30
0.0
 11
3080.0
 21
-3112.9999999999959
 31
0.0
1001
ACDBBLOCKREPETAG
1070
     1
1071
       40
1005
131402
  0
ARC
  5
131403
  8
OBJECT
 10
3083.0
 20
-3115.9999999999959
 30
0.0
 40
3.0
 50
0.0
 51
90.0
1001
ACDBBLOCKREPETAG
1070
     1
1071
       41
1005
131403
  0
LINE
  5
131404
  8
OBJECT
 10
3080.0
 20
-3236.9999999999959
 30
0.0
 11
3083.0
 21
-3236.9999999999959
 31
0.0
1001
ACDBBLOCKREPETAG
1070
     1
1071
       42
1005
131404
  0
ARC
  5
131405
  8
OBJECT
 10
3083.0
 20
-3233.9999999999959
 30
0.0
 40
3.0
 50
270.0
 51
0.0
1001
ACDBBLOCKREPETAG
1070
     1
1071
       43
1005
131405
  0
LINE
  5
131406
  8
OBJECT
 10
3086.0
 20
-3233.9999999999959
 30
0.0
 11
3086.0
 21
-3115.9999999999959
 31
0.0
1001
ACDBBLOCKREPETAG
1070
     1
1071
       44
1005
131406
  0
LINE
  5
131407
  8
HIDDEN
 10
3088.0
 20
-3136.9999999999959
 30
0.0
 11
3088.0
 21
-3212.9999999999959
 31
0.0
1001
ACDBBLOCKREPETAG
1070
     1
1071
       45
1005
131407
  0
TEXT
  5
131408
  8
SLIM
 10
2894.25
 20
-3697.4999999999959
 30
0.0
 40
35.0
  1
通常枝65（2）
 41
0.75
  0
CIRCLE
  5
131409
  8
OBJECT
 10
2400.0
 20
-3520.9999999999968
 30
0.0
 40
62.0
1001
ACDBBLOCKREPETAG
1070
     1
1071
        3
1005
131409
  0
LINE
  5
13140A
  8
CENTER
 10
2338.0
 20
-3535.9999999999968
 30
0.0
 11
2462.0
 21
-3535.9999999999968
 31
0.0
1001
ACDBBLOCKREPETAG
1070
     1
1071
        4
1005
13140A
  0
CIRCLE
  5
13140B
  8
OBJECT
 10
2400.0
 20
-3535.9999999999968
 30
0.0
 40
28.0
1001
ACDBBLOCKREPETAG
1070
     1
1071
        6
1005
13140B
  0
CIRCLE
  5
13140C
  8
OBJECT
 10
2400.0
 20
-3535.9999999999968
 30
0.0
 40
39.0
1001
ACDBBLOCKREPETAG
1070
     1
1071
        7
1005
13140C
  0
ARC
  5
13140D
  8
OBJECT
 10
2400.0
 20
-3535.9999999999968
 30
0.0
 40
47.0
 50
290.58196921144412
 51
249.41803078855591
1001
ACDBBLOCKREPETAG
1070
     1
1071
        8
1005
13140D
  0
LINE
  5
13140E
  8
OBJECT
 10
2383.4772883581431
 20
-3579.9999999999968
 30
0.0
 11
2416.5227116418569
 21
-3579.9999999999968
 31
0.0
1001
ACDBBLOCKREPETAG
1070
     1
1071
        9
1005
13140E
  0
LINE
  5
13140F
  8
OBJECT
 10
2133.0
 20
-3488.9999999999968
 30
0.0
 11
2140.0
 21
-3488.9999999999968
 31
0.0
1001
ACDBBLOCKREPETAG
1070
     1
1071
        7
1005
13140F
  0
LINE
  5
131410
  8
OBJECT
 10
2140.0
 20
-3488.9999999999968
 30
0.0
 11
2140.0
 21
-3579.9999999999968
 31
0.0
1001
ACDBBLOCKREPETAG
1070
     1
1071
        8
1005
131410
  0
LINE
  5
131411
  8
OBJECT
 10
2133.0
 20
-3579.9999999999968
 30
0.0
 11
2133.0
 21
-3488.9999999999968
 31
0.0
1001
ACDBBLOCKREPETAG
1070
     1
1071
        9
1005
131411
  0
LINE
  5
131412
  8
CENTER
 10
2155.0
 20
-3535.9999999999968
 30
0.0
 11
2071.0
 21
-3535.9999999999968
 31
0.0
1001
ACDBBLOCKREPETAG
1070
     1
1071
       10
1005
131412
  0
LINE
  5
131413
  8
OBJECT
 10
2133.0
 20
-3491.9999999999968
 30
0.0
 11
2097.0
 21
-3491.9999999999968
 31
0.0
1001
ACDBBLOCKREPETAG
1070
     1
1071
       11
1005
131413
  0
LINE
  5
131414
  8
OBJECT
 10
2097.0
 20
-3491.9999999999968
 30
0.0
 11
2097.0
 21
-3579.9999999999968
 31
0.0
1001
ACDBBLOCKREPETAG
1070
     1
1071
       12
1005
131414
  0
LINE
  5
131415
  8
OBJECT
 10
2097.0
 20
-3579.9999999999968
 30
0.0
 11
2140.0
 21
-3579.9999999999968
 31
0.0
1001
ACDBBLOCKREPETAG
1070
     1
1071
       13
1005
131415
  0
LINE
  5
131416
  8
OBJECT
 10
2093.0
 20
-3496.4999999999968
 30
0.0
 11
2086.0
 21
-3496.4999999999968
 31
0.0
1001
ACDBBLOCKREPETAG
1070
     1
1071
       14
1005
131416
  0
LINE
  5
131417
  8
OBJECT
 10
2086.0
 20
-3575.4999999999968
 30
0.0
 11
2093.0
 21
-3575.4999999999968
 31
0.0
1001
ACDBBLOCKREPETAG
1070
     1
1071
       15
1005
131417
  0
LINE
  5
131418
  8
OBJECT
 10
2093.0
 20
-3575.4999999999968
 30
0.0
 11
2093.0
 21
-3496.4999999999968
 31
0.0
1001
ACDBBLOCKREPETAG
1070
     1
1071
       16
1005
131418
  0
LINE
  5
131419
  8
OBJECT
 10
2097.0
 20
-3491.9999999999968
 30
0.0
 11
2093.0
 21
-3496.4999999999968
 31
0.0
1001
ACDBBLOCKREPETAG
1070
     1
1071
       17
1005
131419
  0
LINE
  5
13141A
  8
OBJECT
 10
2097.0
 20
-3579.9999999999968
 30
0.0
 11
2093.0
 21
-3575.4999999999968
 31
0.0
1001
ACDBBLOCKREPETAG
1070
     1
1071
       18
1005
13141A
  0
LINE
  5
13141B
  8
OBJECT
 10
2083.0
 20
-3458.9999999999968
 30
0.0
 11
2080.0
 21
-3458.9999999999968
 31
0.0
1001
ACDBBLOCKREPETAG
1070
     1
1071
       19
1005
13141B
  0
ARC
  5
13141C
  8
OBJECT
 10
2083.0
 20
-3461.9999999999968
 30
0.0
 40
3.0
 50
0.0
 51
90.0
1001
ACDBBLOCKREPETAG
1070
     1
1071
       20
1005
13141C
  0
LINE
  5
13141D
  8
OBJECT
 10
2080.0
 20
-3582.9999999999968
 30
0.0
 11
2083.0
 21
-3582.9999999999968
 31
0.0
1001
ACDBBLOCKREPETAG
1070
     1
1071
       21
1005
13141D
  0
ARC
  5
13141E
  8
OBJECT
 10
2083.0
 20
-3579.9999999999968
 30
0.0
 40
3.0
 50
270.0
 51
0.0
1001
ACDBBLOCKREPETAG
1070
     1
1071
       22
1005
13141E
  0
LINE
  5
13141F
  8
OBJECT
 10
2086.0
 20
-3579.9999999999968
 30
0.0
 11
2086.0
 21
-3461.9999999999968
 31
0.0
1001
ACDBBLOCKREPETAG
1070
     1
1071
       23
1005
13141F
  0
LINE
  5
131420
  8
HIDDEN
 10
2088.0
 20
-3505.9999999999968
 30
0.0
 11
2088.0
 21
-3565.9999999999968
 31
0.0
1001
ACDBBLOCKREPETAG
1070
     1
1071
       24
1005
131420
  0
LINE
  5
131421
  8
OBJECT
 10
2133.0
 20
-3127.9999999999959
 30
0.0
 11
2140.0
 21
-3127.9999999999959
 31
0.0
1001
ACDBBLOCKREPETAG
1070
     1
1071
        7
1005
131421
  0
LINE
  5
131422
  8
OBJECT
 10
2140.0
 20
-3127.9999999999959
 30
0.0
 11
2140.0
 21
-3221.9999999999959
 31
0.0
1001
ACDBBLOCKREPETAG
1070
     1
1071
        8
1005
131422
  0
LINE
  5
131423
  8
OBJECT
 10
2140.0
 20
-3221.9999999999959
 30
0.0
 11
2133.0
 21
-3221.9999999999959
 31
0.0
1001
ACDBBLOCKREPETAG
1070
     1
1071
        9
1005
131423
  0
LINE
  5
131424
  8
OBJECT
 10
2133.0
 20
-3221.9999999999959
 30
0.0
 11
2133.0
 21
-3127.9999999999959
 31
0.0
1001
ACDBBLOCKREPETAG
1070
     1
1071
       10
1005
131424
  0
LINE
  5
131425
  8
CENTER
 10
2155.0
 20
-3174.9999999999959
 30
0.0
 11
2080.0
 21
-3174.9999999999959
 31
0.0
1001
ACDBBLOCKREPETAG
1070
     1
1071
       11
1005
131425
  0
LINE
  5
131426
  8
OBJECT
 10
2133.0
 20
-3130.9999999999959
 30
0.0
 11
2097.0
 21
-3130.9999999999959
 31
0.0
1001
ACDBBLOCKREPETAG
1070
     1
1071
       12
1005
131426
  0
LINE
  5
131427
  8
OBJECT
 10
2097.0
 20
-3130.9999999999959
 30
0.0
 11
2097.0
 21
-3218.9999999999959
 31
0.0
1001
ACDBBLOCKREPETAG
1070
     1
1071
       13
1005
131427
  0
LINE
  5
131428
  8
OBJECT
 10
2097.0
 20
-3218.9999999999959
 30
0.0
 11
2133.0
 21
-3218.9999999999959
 31
0.0
1001
ACDBBLOCKREPETAG
1070
     1
1071
       14
1005
131428
  0
LINE
  5
131429
  8
OBJECT
 10
2093.0
 20
-3135.4999999999959
 30
0.0
 11
2086.0
 21
-3135.4999999999959
 31
0.0
1001
ACDBBLOCKREPETAG
1070
     1
1071
       15
1005
131429
  0
LINE
  5
13142A
  8
OBJECT
 10
2086.0
 20
-3214.4999999999959
 30
0.0
 11
2093.0
 21
-3214.4999999999959
 31
0.0
1001
ACDBBLOCKREPETAG
1070
     1
1071
       16
1005
13142A
  0
LINE
  5
13142B
  8
OBJECT
 10
2093.0
 20
-3214.4999999999959
 30
0.0
 11
2093.0
 21
-3135.4999999999959
 31
0.0
1001
ACDBBLOCKREPETAG
1070
     1
1071
       17
1005
13142B
  0
LINE
  5
13142C
  8
OBJECT
 10
2097.0
 20
-3130.9999999999959
 30
0.0
 11
2093.0
 21
-3135.4999999999959
 31
0.0
1001
ACDBBLOCKREPETAG
1070
     1
1071
       18
1005
13142C
  0
LINE
  5
13142D
  8
OBJECT
 10
2097.0
 20
-3218.9999999999959
 30
0.0
 11
2093.0
 21
-3214.4999999999959
 31
0.0
1001
ACDBBLOCKREPETAG
1070
     1
1071
       19
1005
13142D
  0
LINE
  5
13142E
  8
OBJECT
 10
2083.0
 20
-3112.9999999999959
 30
0.0
 11
2080.0
 21
-3112.9999999999959
 31
0.0
1001
ACDBBLOCKREPETAG
1070
     1
1071
       20
1005
13142E
  0
ARC
  5
13142F
  8
OBJECT
 10
2083.0
 20
-3115.9999999999959
 30
0.0
 40
3.0
 50
0.0
 51
90.0
1001
ACDBBLOCKREPETAG
1070
     1
1071
       21
1005
13142F
  0
LINE
  5
131430
  8
OBJECT
 10
2080.0
 20
-3236.9999999999959
 30
0.0
 11
2083.0
 21
-3236.9999999999959
 31
0.0
1001
ACDBBLOCKREPETAG
1070
     1
1071
       22
1005
131430
  0
ARC
  5
131431
  8
OBJECT
 10
2083.0
 20
-3233.9999999999959
 30
0.0
 40
3.0
 50
270.0
 51
0.0
1001
ACDBBLOCKREPETAG
1070
     1
1071
       23
1005
131431
  0
LINE
  5
131432
  8
OBJECT
 10
2086.0
 20
-3233.9999999999959
 30
0.0
 11
2086.0
 21
-3115.9999999999959
 31
0.0
1001
ACDBBLOCKREPETAG
1070
     1
1071
       24
1005
131432
  0
LINE
  5
131433
  8
HIDDEN
 10
2088.0
 20
-3144.9999999999959
 30
0.0
 11
2088.0
 21
-3204.9999999999959
 31
0.0
1001
ACDBBLOCKREPETAG
1070
     1
1071
       25
1005
131433
  0
TEXT
  5
131434
  8
SLIM
 10
1896.75
 20
-3697.4999999999959
 30
0.0
 40
35.0
  1
通常枝50（1）
 41
0.75
  0
LINE
  5
131435
  8
SLIM
 10
3914.9999999999941
 20
-765.19743878931376
 30
0.0
 11
3925.1974387893092
 21
-754.99999999999875
 31
0.0
1001
ACDBBLOCKREPETAG
1070
     1
1071
        0
1005
0
1001
ACAD
1010
0.0
1020
0.0
1030
0.0
  0
LINE
  5
131436
  8
SLIM
 10
3914.999999999995
 20
-783.15795103145035
 30
0.0
 11
3943.1579510314468
 21
-754.99999999999875
 31
0.0
1001
ACAD
1010
0.0
1020
0.0
1030
0.0
1001
ACDBBLOCKREPETAG
1070
     1
1071
       14
1005
131436
  0
LINE
  5
131437
  8
SLIM
 10
3915.1454972543161
 20
-800.97296601926837
 30
0.0
 11
3961.1184632735849
 21
-754.99999999999875
 31
0.0
1001
ACAD
1010
0.0
1020
0.0
1030
0.0
1001
ACDBBLOCKREPETAG
1070
     1
1071
       15
1005
131437
  0
LINE
  5
131438
  8
SLIM
 10
3917.104627495245
 20
-816.97434802047826
 30
0.0
 11
3979.0789755157239
 21
-754.99999999999875
 31
0.0
1001
ACAD
1010
0.0
1020
0.0
1030
0.0
1001
ACDBBLOCKREPETAG
1070
     1
1071
       16
1005
131438
  0
LINE
  5
131439
  8
SLIM
 10
3919.0637577361722
 20
-832.97573002168861
 30
0.0
 11
3997.0394877578619
 21
-754.99999999999875
 31
0.0
1001
ACAD
1010
0.0
1020
0.0
1030
0.0
1001
ACDBBLOCKREPETAG
1070
     1
1071
       17
1005
131439
  0
LINE
  5
13143A
  8
SLIM
 10
3920.0
 20
-849.99999999999875
 30
0.0
 11
4015.0
 21
-754.99999999999875
 31
0.0
1001
ACAD
1010
0.0
1020
0.0
1030
0.0
1001
ACDBBLOCKREPETAG
1070
     1
1071
       18
1005
13143A
  0
LINE
  5
13143B
  8
SLIM
 10
3920.0
 20
-867.96051224213716
 30
0.0
 11
4032.9605122421372
 21
-754.99999999999875
 31
0.0
1001
ACAD
1010
0.0
1020
0.0
1030
0.0
1001
ACDBBLOCKREPETAG
1070
     1
1071
       19
1005
13143B
  0
LINE
  5
13143C
  8
SLIM
 10
3920.0
 20
-885.92102448427534
 30
0.0
 11
4050.921024484277
 21
-754.99999999999875
 31
0.0
1001
ACAD
1010
0.0
1020
0.0
1030
0.0
1001
ACDBBLOCKREPETAG
1070
     1
1071
       20
1005
13143C
  0
LINE
  5
13143D
  8
SLIM
 10
3920.0
 20
-903.88153672641363
 30
0.0
 11
4068.8815367264142
 21
-754.99999999999875
 31
0.0
1001
ACAD
1010
0.0
1020
0.0
1030
0.0
1001
ACDBBLOCKREPETAG
1070
     1
1071
       21
1005
13143D
  0
LINE
  5
13143E
  8
SLIM
 10
3920.0
 20
-921.84204896855181
 30
0.0
 11
4085.0000000000068
 21
-756.8420489685451
 31
0.0
1001
ACAD
1010
0.0
1020
0.0
1030
0.0
1001
ACDBBLOCKREPETAG
1070
     1
1071
       22
1005
13143E
  0
LINE
  5
13143F
  8
SLIM
 10
3920.0
 20
-939.80256121069044
 30
0.0
 11
4085.0000000000059
 21
-774.80256121068464
 31
0.0
1001
ACAD
1010
0.0
1020
0.0
1030
0.0
1001
ACDBBLOCKREPETAG
1070
     1
1071
       23
1005
13143F
  0
LINE
  5
131440
  8
SLIM
 10
3920.0
 20
-957.76307345282862
 30
0.0
 11
4085.0000000000041
 21
-792.76307345282453
 31
0.0
1001
ACAD
1010
0.0
1020
0.0
1030
0.0
1001
ACDBBLOCKREPETAG
1070
     1
1071
       24
1005
131440
  0
LINE
  5
131441
  8
SLIM
 10
3930.0
 20
-965.72358569496657
 30
0.0
 11
3930.7235856949678
 21
-964.99999999999875
 31
0.0
1001
ACAD
1010
0.0
1020
0.0
1030
0.0
1001
ACDBBLOCKREPETAG
1070
     1
1071
       25
1005
131441
  0
LINE
  5
131442
  8
SLIM
 10
3930.7235856949678
 20
-964.99999999999875
 30
0.0
 11
4083.4738280308079
 21
-812.24975766415855
 31
0.0
1001
ACAD
1010
0.0
1020
0.0
1030
0.0
1001
ACDBBLOCKREPETAG
1070
     1
1071
       26
1005
131442
  0
LINE
  5
131443
  8
SLIM
 10
3930.0
 20
-983.68409793710521
 30
0.0
 11
3948.6840979371068
 21
-964.99999999999875
 31
0.0
1001
ACAD
1010
0.0
1020
0.0
1030
0.0
1001
ACDBBLOCKREPETAG
1070
     1
1071
       27
1005
131443
  0
LINE
  5
131444
  8
SLIM
 10
3948.6840979371068
 20
-964.99999999999875
 30
0.0
 11
4080.9680345671368
 21
-832.71606336996786
 31
0.0
1001
ACAD
1010
0.0
1020
0.0
1030
0.0
1001
ACDBBLOCKREPETAG
1070
     1
1071
       28
1005
131444
  0
LINE
  5
131445
  8
SLIM
 10
3946.6446101792449
 20
-984.99999999999875
 30
0.0
 11
3966.6446101792449
 21
-964.99999999999875
 31
0.0
1001
ACAD
1010
0.0
1020
0.0
1030
0.0
1001
ACDBBLOCKREPETAG
1070
     1
1071
       29
1005
131445
  0
LINE
  5
131446
  8
SLIM
 10
3966.6446101792449
 20
-964.99999999999875
 30
0.0
 11
4080.0
 21
-851.6446101792435
 31
0.0
1001
ACAD
1010
0.0
1020
0.0
1030
0.0
1001
ACDBBLOCKREPETAG
1070
     1
1071
       30
1005
131446
  0
LINE
  5
131447
  8
SLIM
 10
3964.6051224213829
 20
-984.99999999999875
 30
0.0
 11
3984.6051224213829
 21
-964.99999999999875
 31
0.0
1001
ACAD
1010
0.0
1020
0.0
1030
0.0
1001
ACDBBLOCKREPETAG
1070
     1
1071
       31
1005
131447
  0
LINE
  5
131448
  8
SLIM
 10
3984.6051224213829
 20
-964.99999999999875
 30
0.0
 11
4080.0
 21
-869.60512242138225
 31
0.0
1001
ACAD
1010
0.0
1020
0.0
1030
0.0
1001
ACDBBLOCKREPETAG
1070
     1
1071
       32
1005
131448
  0
LINE
  5
131449
  8
SLIM
 10
3982.565634663521
 20
-984.99999999999875
 30
0.0
 11
4002.565634663521
 21
-964.99999999999875
 31
0.0
1001
ACAD
1010
0.0
1020
0.0
1030
0.0
1001
ACDBBLOCKREPETAG
1070
     1
1071
       33
1005
131449
  0
LINE
  5
13144A
  8
SLIM
 10
4002.565634663521
 20
-964.99999999999875
 30
0.0
 11
4079.9999999999991
 21
-887.56563466352065
 31
0.0
1001
ACAD
1010
0.0
1020
0.0
1030
0.0
1001
ACDBBLOCKREPETAG
1070
     1
1071
       34
1005
13144A
  0
LINE
  5
13144B
  8
SLIM
 10
4000.5261469056582
 20
-984.99999999999875
 30
0.0
 11
4020.52614690566
 21
-964.99999999999875
 31
0.0
1001
ACAD
1010
0.0
1020
0.0
1030
0.0
1001
ACDBBLOCKREPETAG
1070
     1
1071
       35
1005
13144B
  0
LINE
  5
13144C
  8
SLIM
 10
4020.52614690566
 20
-964.99999999999875
 30
0.0
 11
4079.9999999999991
 21
-905.52614690565963
 31
0.0
1001
ACAD
1010
0.0
1020
0.0
1030
0.0
1001
ACDBBLOCKREPETAG
1070
     1
1071
       36
1005
13144C
  0
LINE
  5
13144D
  8
SLIM
 10
4018.486659147798
 20
-984.99999999999875
 30
0.0
 11
4038.486659147798
 21
-964.99999999999864
 31
0.0
1001
ACAD
1010
0.0
1020
0.0
1030
0.0
1001
ACDBBLOCKREPETAG
1070
     1
1071
       37
1005
13144D
  0
LINE
  5
13144E
  8
SLIM
 10
4038.486659147798
 20
-964.99999999999864
 30
0.0
 11
4079.9999999999991
 21
-923.48665914779815
 31
0.0
1001
ACAD
1010
0.0
1020
0.0
1030
0.0
1001
ACDBBLOCKREPETAG
1070
     1
1071
       38
1005
13144E
  0
LINE
  5
13144F
  8
SLIM
 10
4036.4471713899361
 20
-984.99999999999875
 30
0.0
 11
4056.4471713899361
 21
-964.99999999999864
 31
0.0
1001
ACAD
1010
0.0
1020
0.0
1030
0.0
1001
ACDBBLOCKREPETAG
1070
     1
1071
       39
1005
13144F
  0
LINE
  5
131450
  8
SLIM
 10
4056.4471713899361
 20
-964.99999999999864
 30
0.0
 11
4079.9999999999991
 21
-941.44717138993633
 31
0.0
1001
ACAD
1010
0.0
1020
0.0
1030
0.0
1001
ACDBBLOCKREPETAG
1070
     1
1071
       40
1005
131450
  0
LINE
  5
131451
  8
SLIM
 10
4054.4076836320728
 20
-984.99999999999875
 30
0.0
 11
4070.0
 21
-969.40768363207314
 31
0.0
1001
ACAD
1010
0.0
1020
0.0
1030
0.0
1001
ACDBBLOCKREPETAG
1070
     1
1071
       41
1005
131451
  0
LINE
  5
131452
  8
SLIM
 10
4074.4076836320728
 20
-964.99999999999864
 30
0.0
 11
4079.9999999999991
 21
-959.40768363207519
 31
0.0
1001
ACAD
1010
0.0
1020
0.0
1030
0.0
1001
ACDBBLOCKREPETAG
1070
     1
1071
       42
1005
131452
  0
LINE
  5
131453
  8
OBJECT
 10
3914.9999999999941
 20
-754.99999999999875
 30
0.0
 11
3914.9999999999968
 21
-799.78460339903359
 31
0.0
1001
ACDBBLOCKREPETAG
1070
     1
1071
        1
1005
131453
  0
LINE
  5
131454
  8
OBJECT
 10
4085.0000000000068
 20
-754.99999999999875
 30
0.0
 11
4085.0000000000032
 21
-799.78460339904063
 31
0.0
1001
ACDBBLOCKREPETAG
1070
     1
1071
        2
1005
131454
  0
LINE
  5
131455
  8
OBJECT
 10
4085.0000000000068
 20
-754.99999999999875
 30
0.0
 11
3914.9999999999941
 21
-754.99999999999875
 31
0.0
1001
ACDBBLOCKREPETAG
1070
     1
1071
        3
1005
131455
  0
LINE
  5
131456
  8
OBJECT
 10
4079.9999999999991
 20
-964.99999999999864
 30
0.0
 11
3920.0
 21
-964.99999999999875
 31
0.0
1001
ACDBBLOCKREPETAG
1070
     1
1071
        4
1005
131456
  0
LINE
  5
131457
  8
OBJECT
 10
3914.9999999999968
 20
-799.78460339903415
 30
0.0
 11
3920.0
 21
-840.62257748298555
 31
0.0
1001
ACDBBLOCKREPETAG
1070
     1
1071
        6
1005
131457
  0
LINE
  5
131458
  8
OBJECT
 10
3920.0
 20
-840.62257748298555
 30
0.0
 11
3920.0
 21
-964.99999999999875
 31
0.0
1001
ACDBBLOCKREPETAG
1070
     1
1071
        7
1005
131458
  0
LINE
  5
131459
  8
OBJECT
 10
4085.0000000000032
 20
-799.78460339904063
 30
0.0
 11
4080.0
 21
-840.62257748298555
 31
0.0
1001
ACDBBLOCKREPETAG
1070
     1
1071
        8
1005
131459
  0
LINE
  5
13145A
  8
OBJECT
 10
4080.0
 20
-840.62257748298555
 30
0.0
 11
4079.9999999999991
 21
-964.99999999999864
 31
0.0
1001
ACDBBLOCKREPETAG
1070
     1
1071
        9
1005
13145A
  0
LINE
  5
13145B
  8
OBJECT
 10
3930.0
 20
-964.99999999999875
 30
0.0
 11
3930.0
 21
-984.99999999999875
 31
0.0
1001
ACDBBLOCKREPETAG
1070
     1
1071
       10
1005
13145B
  0
LINE
  5
13145C
  8
OBJECT
 10
3930.0
 20
-984.99999999999875
 30
0.0
 11
4070.0
 21
-984.99999999999875
 31
0.0
1001
ACDBBLOCKREPETAG
1070
     1
1071
       11
1005
13145C
  0
LINE
  5
13145D
  8
OBJECT
 10
4070.0
 20
-984.99999999999875
 30
0.0
 11
4070.0
 21
-964.99999999999864
 31
0.0
1001
ACDBBLOCKREPETAG
1070
     1
1071
       12
1005
13145D
  0
LINE
  5
13145E
  8
OBJECT
 10
3930.0
 20
-1079.999999999997
 30
0.0
 11
4070.0
 21
-1079.999999999997
 31
0.0
1001
ACDBBLOCKREPETAG
1070
     1
1071
        0
1005
13145E
  0
LINE
  5
13145F
  8
OBJECT
 10
3930.0
 20
-1079.999999999997
 30
0.0
 11
3930.0
 21
-839.99999999999704
 31
0.0
1001
ACDBBLOCKREPETAG
1070
     1
1071
        1
1005
13145F
  0
LINE
  5
131460
  8
OBJECT
 10
4070.0
 20
-1079.999999999997
 30
0.0
 11
4070.0
 21
-839.99999999999704
 31
0.0
1001
ACDBBLOCKREPETAG
1070
     1
1071
        2
1005
131460
  0
LINE
  5
131461
  8
OBJECT
 10
3930.0
 20
-839.99999999999704
 30
0.0
 11
4070.0
 21
-839.99999999999704
 31
0.0
1001
ACDBBLOCKREPETAG
1070
     1
1071
        3
1005
131461
  0
LINE
  5
131462
  8
HIDDEN
 10
3937.5
 20
-839.99999999999704
 30
0.0
 11
3937.5
 21
-1079.999999999997
 31
0.0
1001
ACDBBLOCKREPETAG
1070
     1
1071
        4
1005
131462
  0
LINE
  5
131463
  8
HIDDEN
 10
4062.5
 20
-839.99999999999704
 30
0.0
 11
4062.5
 21
-1079.999999999997
 31
0.0
1001
ACDBBLOCKREPETAG
1070
     1
1071
        5
1005
131463
  0
LINE
  5
131464
  8
CENTER
 10
4000.0
 20
-769.99999999999875
 30
0.0
 11
4000.0
 21
-1094.999999999997
 31
0.0
1001
ACDBBLOCKREPETAG
1070
     1
1071
        6
1005
131464
  0
LINE
  5
131465
  8
OBJECT
 10
3925.0
 20
-769.99999999999875
 30
0.0
 11
3925.0
 21
-799.99999999999693
 31
0.0
1001
ACDBBLOCKREPETAG
1070
     1
1071
        7
1005
131465
  0
LINE
  5
131466
  8
OBJECT
 10
4075.0000000000032
 20
-769.99999999999875
 30
0.0
 11
4075.0
 21
-799.99999999999693
 31
0.0
1001
ACDBBLOCKREPETAG
1070
     1
1071
        8
1005
131466
  0
LINE
  5
131467
  8
OBJECT
 10
3925.0
 20
-799.99999999999693
 30
0.0
 11
4075.0
 21
-799.99999999999693
 31
0.0
1001
ACDBBLOCKREPETAG
1070
     1
1071
        9
1005
131467
  0
LINE
  5
131468
  8
OBJECT
 10
3925.0
 20
-799.99999999999693
 30
0.0
 11
3930.0
 21
-839.99999999999704
 31
0.0
1001
ACDBBLOCKREPETAG
1070
     1
1071
       10
1005
131468
  0
LINE
  5
131469
  8
OBJECT
 10
4070.0
 20
-839.99999999999704
 30
0.0
 11
4075.0
 21
-799.99999999999693
 31
0.0
1001
ACDBBLOCKREPETAG
1070
     1
1071
       11
1005
131469
  0
LINE
  5
13146A
  8
OBJECT
 10
1930.0
 20
-1079.999999999998
 30
0.0
 11
2070.0
 21
-1079.999999999998
 31
0.0
1001
ACDBBLOCKREPETAG
1070
     1
1071
        0
1005
13146A
  0
LINE
  5
13146B
  8
OBJECT
 10
1930.0
 20
-1079.999999999998
 30
0.0
 11
1930.0
 21
-839.99999999999795
 31
0.0
1001
ACDBBLOCKREPETAG
1070
     1
1071
        1
1005
13146B
  0
LINE
  5
13146C
  8
OBJECT
 10
2070.0
 20
-1079.999999999998
 30
0.0
 11
2070.0
 21
-839.99999999999795
 31
0.0
1001
ACDBBLOCKREPETAG
1070
     1
1071
        2
1005
13146C
  0
LINE
  5
13146D
  8
OBJECT
 10
1930.0
 20
-839.99999999999795
 30
0.0
 11
2070.0
 21
-839.99999999999795
 31
0.0
1001
ACDBBLOCKREPETAG
1070
     1
1071
        3
1005
13146D
  0
LINE
  5
13146E
  8
HIDDEN
 10
1937.5
 20
-839.99999999999795
 30
0.0
 11
1937.5
 21
-1079.999999999998
 31
0.0
1001
ACDBBLOCKREPETAG
1070
     1
1071
        4
1005
13146E
  0
LINE
  5
13146F
  8
HIDDEN
 10
2062.5
 20
-839.99999999999795
 30
0.0
 11
2062.5
 21
-1079.999999999998
 31
0.0
1001
ACDBBLOCKREPETAG
1070
     1
1071
        5
1005
13146F
  0
LINE
  5
131470
  8
CENTER
 10
2000.0
 20
-769.99999999999955
 30
0.0
 11
2000.0
 21
-1094.999999999997
 31
0.0
1001
ACDBBLOCKREPETAG
1070
     1
1071
        6
1005
131470
  0
LINE
  5
131471
  8
OBJECT
 10
1925.0
 20
-769.99999999999955
 30
0.0
 11
1925.0
 21
-799.99999999999773
 31
0.0
1001
ACDBBLOCKREPETAG
1070
     1
1071
        7
1005
131471
  0
LINE
  5
131472
  8
OBJECT
 10
2075.0000000000041
 20
-769.99999999999955
 30
0.0
 11
2075.0
 21
-799.99999999999773
 31
0.0
1001
ACDBBLOCKREPETAG
1070
     1
1071
        8
1005
131472
  0
LINE
  5
131473
  8
OBJECT
 10
1925.0
 20
-799.99999999999773
 30
0.0
 11
2075.0
 21
-799.99999999999773
 31
0.0
1001
ACDBBLOCKREPETAG
1070
     1
1071
        9
1005
131473
  0
LINE
  5
131474
  8
OBJECT
 10
1925.0
 20
-799.99999999999773
 30
0.0
 11
1930.0
 21
-839.99999999999795
 31
0.0
1001
ACDBBLOCKREPETAG
1070
     1
1071
       10
1005
131474
  0
LINE
  5
131475
  8
OBJECT
 10
2070.0
 20
-839.99999999999795
 30
0.0
 11
2075.0
 21
-799.99999999999773
 31
0.0
1001
ACDBBLOCKREPETAG
1070
     1
1071
       11
1005
131475
  0
TEXT
  5
131476
  8
SLIM
 10
3741.6250000000009
 20
-1347.499999999997
 30
0.0
 40
35.0
  1
片受けスタイル（S）＋シンドカット
 41
0.75
  0
TEXT
  5
131477
  8
SLIM
 10
1856.25
 20
-1347.499999999998
 30
0.0
 40
35.0
  1
片受けスタイル（S）
 41
0.75
  0
VIEWPORT
  5
F6BA7
 67
     1
  8
0
 10
145.33033752441401
 20
101.8328354358673
 30
0.0
 40
334.0025019414623
 41
222.19657968139651
 68
     1
 69
     1
1001
ACAD
1000
MVIEW
1002
{
1070
    16
1010
0.0
1020
0.0
1030
0.0
1010
0.0
1020
0.0
1030
1.0
1040
0.0
1040
222.19657968139651
1040
145.33033752441401
1040
101.8328354358673
1040
50.0
1040
0.0
1040
0.0
1070
     0
1070
     0
1070
     1
1070
     1
1070
     0
1070
     0
1070
     0
1070
     0
1040
0.0
1040
0.0
1040
0.0
1040
10.0
1040
10.0
1040
10.0
1040
10.0
1070
     0
1002
{
1002
}
1002
}
  0
VIEWPORT
  5
F6BA9
 67
     1
  8
OBJECT
 10
145.3303314447403
 20
101.8328338861465
 30
0.0
 40
232.5285303115844
 41
162.93253421783439
 68
     2
 69
     2
1001
ACAD
1000
MVIEW
1002
{
1070
    16
1010
0.0
1020
0.0
1030
0.0
1010
0.0
1020
0.0
1030
1.0
1040
0.0
1040
25942.55904403147
1040
2377.604457077377
1040
-7591.5176687056619
1040
50.0
1040
0.0
1040
0.0
1070
     0
1070
   600
1070
     1
1070
     1
1070
     0
1070
     0
1070
     0
1070
     0
1040
0.0
1040
0.0
1040
0.0
1040
1.0
1040
1.0
1040
0.0
1040
0.0
1070
     0
1002
{
1002
}
1002
}
  0
ENDSEC
  0
EOF
