  0
SECTION
  2
HEADER
  9
$ACADVER
  1
AC1009
  9
$INSBASE
 10
0.0
 20
0.0
 30
0.0
  9
$EXTMIN
 10
0.0
 20
-3697.4999999999968
 30
0.0
  9
$EXTMAX
 10
5575.0
 20
607.5
 30
0.0
  9
$LIMMIN
 10
0.0
 20
0.0
  9
$LIMMAX
 10
210.0
 20
297.0
  9
$ORTHOMODE
 70
     0
  9
$REGENMODE
 70
     1
  9
$FILLMODE
 70
     1
  9
$QTEXTMODE
 70
     0
  9
$MIRRTEXT
 70
     0
  9
$DRAGMODE
 70
     2
  9
$LTSCALE
 40
1.0
  9
$OSMODE
 70
    37
  9
$ATTMODE
 70
     1
  9
$TEXTSIZE
 40
4.0
  9
$TRACEWID
 40
0.05
  9
$TEXTSTYLE
  7
STANDARD
  9
$CLAYER
  8
OBJECT
  9
$CELTYPE
  6
BYLAYER
  9
$CECOLOR
 62
   256
  9
$DIMSCALE
 40
10.0
  9
$DIMASZ
 40
2.0
  9
$DIMEXO
 40
1.0
  9
$DIMDLI
 40
10.0
  9
$DIMRND
 40
0.0
  9
$DIMDLE
 40
0.0
  9
$DIMEXE
 40
1.0
  9
$DIMTP
 40
0.0
  9
$DIMTM
 40
0.0
  9
$DIMTXT
 40
3.2000000000000002
  9
$DIMCEN
 40
0.0
  9
$DIMTSZ
 40
0.0
  9
$DIMTOL
 70
     0
  9
$DIMLIM
 70
     0
  9
$DIMTIH
 70
     0
  9
$DIMTOH
 70
     0
  9
$DIMSE1
 70
     0
  9
$DIMSE2
 70
     0
  9
$DIMTAD
 70
     1
  9
$DIMZIN
 70
     8
  9
$DIMBLK
  1
OPEN30
  9
$DIMASO
 70
     1
  9
$DIMSHO
 70
     1
  9
$DIMPOST
  1

  9
$DIMAPOST
  1

  9
$DIMALT
 70
     0
  9
$DIMALTD
 70
     2
  9
$DIMALTF
 40
25.399999999999999
  9
$DIMLFAC
 40
1.0
  9
$DIMTOFL
 70
     1
  9
$DIMTVP
 40
0.0
  9
$DIMTIX
 70
     0
  9
$DIMSOXD
 70
     0
  9
$DIMSAH
 70
     0
  9
$DIMBLK1
  1

  9
$DIMBLK2
  1

  9
$DIMSTYLE
  2
S10
  9
$DIMCLRD
 70
   256
  9
$DIMCLRE
 70
   256
  9
$DIMCLRT
 70
   256
  9
$DIMTFAC
 40
1.0
  9
$DIMGAP
 40
0.9
  9
$LUNITS
 70
     2
  9
$LUPREC
 70
     2
  9
$SKETCHINC
 40
0.1
  9
$FILLETRAD
 40
0.0
  9
$AUNITS
 70
     0
  9
$AUPREC
 70
     2
  9
$MENU
  1
ACAD
  9
$ELEVATION
 40
0.0
  9
$PELEVATION
 40
0.0
  9
$THICKNESS
 40
0.0
  9
$LIMCHECK
 70
     0
  9
$BLIPMODE
 70
     0
  9
$CHAMFERA
 40
2.0
  9
$CHAMFERB
 40
2.0
  9
$SKPOLY
 70
     0
  9
$TDCREATE
 40
2453095.4929404748
  9
$TDUPDATE
 40
2457598.6463578008
  9
$TDINDWG
 40
18.361930763899998
  9
$TDUSRTIMER
 40
18.361930011599998
  9
$USRTIMER
 70
     1
  9
$ANGBASE
 50
0.0
  9
$ANGDIR
 70
     0
  9
$PDMODE
 70
    35
  9
$PDSIZE
 40
2.0
  9
$PLINEWID
 40
0.0
  9
$COORDS
 70
     1
  9
$SPLFRAME
 70
     0
  9
$SPLINETYPE
 70
     6
  9
$SPLINESEGS
 70
     8
  9
$ATTDIA
 70
     0
  9
$ATTREQ
 70
     1
  9
$HANDLING
 70
     1
  9
$HANDSEED
  5
130DAB
  9
$SURFTAB1
 70
     6
  9
$SURFTAB2
 70
     6
  9
$SURFTYPE
 70
     6
  9
$SURFU
 70
     6
  9
$SURFV
 70
     6
  9
$UCSNAME
  2

  9
$UCSORG
 10
0.0
 20
0.0
 30
0.0
  9
$UCSXDIR
 10
1.0
 20
0.0
 30
0.0
  9
$UCSYDIR
 10
0.0
 20
1.0
 30
0.0
  9
$PUCSNAME
  2

  9
$PUCSORG
 10
0.0
 20
0.0
 30
0.0
  9
$PUCSXDIR
 10
1.0
 20
0.0
 30
0.0
  9
$PUCSYDIR
 10
0.0
 20
1.0
 30
0.0
  9
$USERI1
 70
     0
  9
$USERI2
 70
     0
  9
$USERI3
 70
     0
  9
$USERI4
 70
     0
  9
$USERI5
 70
     0
  9
$USERR1
 40
0.0
  9
$USERR2
 40
0.0
  9
$USERR3
 40
0.0
  9
$USERR4
 40
0.0
  9
$USERR5
 40
0.0
  9
$WORLDVIEW
 70
     1
  9
$SHADEDGE
 70
     3
  9
$SHADEDIF
 70
    70
  9
$TILEMODE
 70
     1
  9
$MAXACTVP
 70
    64
  9
$PLIMCHECK
 70
     0
  9
$PEXTMIN
 10
29.066066288948051
 20
20.366566777229309
 30
0.0
  9
$PEXTMAX
 10
261.5945966005325
 20
183.29910099506381
 30
0.0
  9
$PLIMMIN
 10
-3.17498779296875
 20
-3.1749999523162842
  9
$PLIMMAX
 10
293.83566284179687
 20
206.8406708240509
  9
$UNITMODE
 70
     0
  9
$VISRETAIN
 70
     1
  9
$PLINEGEN
 70
     0
  9
$PSLTSCALE
 70
     1
  0
ENDSEC
  0
SECTION
  2
TABLES
  0
TABLE
  2
VPORT
 70
     1
  0
VPORT
  2
*ACTIVE
 70
     0
 10
0.0
 20
0.0
 11
1.0
 21
1.0
 12
2572.464497452715
 22
580.16697973670853
 13
0.0
 23
0.0
 14
1.0
 24
1.0
 15
0.0
 25
0.0
 16
0.0
 26
0.0
 36
1.0
 17
0.0
 27
0.0
 37
0.0
 40
7909.0302008838053
 41
1.6494178525226391
 42
50.0
 43
0.0
 44
0.0
 50
0.0
 51
0.0
 71
     0
 72
   600
 73
     1
 74
     1
 75
     0
 76
     0
 77
     0
 78
     0
  0
ENDTAB
  0
TABLE
  2
LTYPE
 70
     4
  0
LTYPE
  2
CONTINUOUS
 70
     0
  3
Solid line
 72
    65
 73
     0
 40
0.0
  0
LTYPE
  2
PHANTOM2
 70
     0
  3
___ _ _ ___ _ _ ___ _ _ ___ _ _
 72
    65
 73
     6
 40
1.25
 49
0.625
 49
-0.125
 49
0.125
 49
-0.125
 49
0.125
 49
-0.125
  0
LTYPE
  2
ACAD_ISO08W100
 70
     0
  3
ISO long-dash short-dash ____ __ ____ __ ____ _
 72
    65
 73
     4
 40
36.0
 49
24.0
 49
-3.0
 49
6.0
 49
-3.0
  0
LTYPE
  2
ACAD_ISO02W100
 70
     0
  3
ISO dash __ __ __ __ __ __ __ __ __ __ __ __ __
 72
    65
 73
     2
 40
15.0
 49
12.0
 49
-3.0
  0
ENDTAB
  0
TABLE
  2
LAYER
 70
     8
  0
LAYER
  2
0
 70
     0
 62
     7
  6
CONTINUOUS
  0
LAYER
  2
OBJECT
 70
     0
 62
     4
  6
CONTINUOUS
  0
LAYER
  2
DEFPOINTS
 70
     0
 62
     7
  6
CONTINUOUS
  0
LAYER
  2
DIM
 70
     0
 62
     7
  6
CONTINUOUS
  0
LAYER
  2
HIDDEN
 70
     0
 62
     2
  6
ACAD_ISO02W100
  0
LAYER
  2
CENTER
 70
     0
 62
     2
  6
ACAD_ISO08W100
  0
LAYER
  2
DOTS
 70
     0
 62
     1
  6
CONTINUOUS
  0
LAYER
  2
SLIM
 70
     0
 62
     2
  6
CONTINUOUS
  0
ENDTAB
  0
TABLE
  2
STYLE
 70
     2
  0
STYLE
  2
STANDARD
 70
     0
 40
0.0
 41
0.75
 50
0.0
 71
     0
 42
4.0
  3
simplex.shx
  4
bigfont.shx
  0
ENDTAB
  0
TABLE
  2
VIEW
 70
     0
  0
ENDTAB
  0
TABLE
  2
UCS
 70
     0
  0
ENDTAB
  0
TABLE
  2
APPID
 70
    18
  0
APPID
  2
ACAD
 70
     0
  0
APPID
  2
ACADANNOTATIVE
 70
     0
  0
APPID
  2
ACAD_PSEXT
 70
     0
  0
APPID
  2
ACAD_EXEMPT_FROM_CAD_STANDARDS
 70
     0
  0
APPID
  2
ACAECLAYERSTANDARD
 70
     0
  0
APPID
  2
ACAUTHENVIRON
 70
     0
  0
APPID
  2
ACDBDYNAMICBLOCKTRUENAME
 70
     0
  0
APPID
  2
ACDBDYNAMICBLOCKGUID
 70
     0
  0
APPID
  2
ACDBBLOCKREPETAG
 70
     0
  0
APPID
  2
ACDBBLOCKREPBTAG
 70
     0
  0
APPID
  2
ACAD_NAV_VCDISPLAY
 70
     0
  0
APPID
  2
ACAD_DSTYLE_DIMRADIAL_EXTENSION
 70
     0
  0
APPID
  2
ACAD_DSTYLE_DIMJAG
 70
     0
  0
APPID
  2
ACAD_DSTYLE_DIMTALN
 70
     0
  0
APPID
  2
ACADANNOPO
 70
     0
  0
APPID
  2
GRADIENTCOLOR1ACI
 70
     0
  0
APPID
  2
GRADIENTCOLOR2ACI
 70
     0
  0
APPID
  2
ACAD_MLEADERVER
 70
     0
  0
ENDTAB
  0
TABLE
  2
DIMSTYLE
 70
     3
  0
DIMSTYLE
  2
STANDARD
 70
     0
  3

  4

  5

  6

  7

 40
1.0
 41
0.18
 42
0.0625
 43
0.38
 44
0.18
 45
0.0
 46
0.0
 47
0.0
 48
0.0
140
0.18
141
0.09
142
0.0
143
25.399999999999999
144
1.0
145
0.0
146
1.0
147
0.09
 71
     0
 72
     0
 73
     1
 74
     1
 75
     0
 76
     0
 77
     0
 78
     0
170
     0
171
     2
172
     0
173
     0
174
     0
175
     0
176
     0
177
     0
178
     0
  0
DIMSTYLE
  2
S10
 70
     0
  3

  4

  5

  6

  7

 40
10.0
 41
2.0
 42
1.0
 43
10.0
 44
1.0
 45
0.0
 46
0.0
 47
0.0
 48
0.0
140
3.2000000000000002
141
0.0
142
0.0
143
25.399999999999999
144
1.0
145
0.0
146
1.0
147
0.9
 71
     0
 72
     0
 73
     0
 74
     0
 75
     0
 76
     0
 77
     1
 78
     8
170
     0
171
     2
172
     1
173
     0
174
     0
175
     0
176
   256
177
   256
178
   256
  0
ENDTAB
  0
ENDSEC
  0
SECTION
  2
BLOCKS
  0
BLOCK
  8
0
  2
$MODEL_SPACE
 70
     0
 10
0.0
 20
0.0
 30
0.0
  3
$MODEL_SPACE
  1

  0
ENDBLK
  5
130CF7
  8
0
  0
BLOCK
 67
     1
  8
0
  2
$PAPER_SPACE
 70
     0
 10
0.0
 20
0.0
 30
0.0
  3
$PAPER_SPACE
  1

  0
ENDBLK
  5
130CF3
 67
     1
  8
0
  0
BLOCK
  8
0
  2
_OPEN30
 70
     0
 10
0.0
 20
0.0
 30
0.0
  3
_OPEN30
  1

  0
LINE
  5
202
  8
0
  6
BYBLOCK
 62
     0
 10
-1.0
 20
0.26794919
 30
0.0
 11
0.0
 21
0.0
 31
0.0
  0
LINE
  5
203
  8
0
  6
BYBLOCK
 62
     0
 10
0.0
 20
0.0
 30
0.0
 11
-1.0
 21
-0.26794919
 31
0.0
  0
LINE
  5
204
  8
0
  6
BYBLOCK
 62
     0
 10
0.0
 20
0.0
 30
0.0
 11
-1.0
 21
0.0
 31
0.0
  0
ENDBLK
  5
206
  8
0
  0
BLOCK
  8
0
  2
*U4
 70
     1
 10
0.0
 20
0.0
 30
0.0
  3
*U4
  1

  0
TEXT
  5
130C43
  8
DIM
 10
3840.6616440113212
 20
-982.74285714285509
 30
0.0
 40
32.0
  1
m（シンドカット）
 50
90.0
 41
0.75
  0
ENDBLK
  5
130C45
  8
0
  0
BLOCK
  8
0
  2
*U5
 70
     1
 10
0.0
 20
0.0
 30
0.0
  3
*U5
  1

  0
TEXT
  5
130C47
  8
SLIM
 10
505.04761904761767
 20
-545.75000000000364
 30
0.0
 40
26.0
  1
100
  0
ENDBLK
  5
130C49
  8
0
  0
BLOCK
  8
0
  2
*U6
 70
     1
 10
0.0
 20
0.0
 30
0.0
  3
*U6
  1

  0
TEXT
  5
130C4B
  8
SLIM
 10
513.09523809523682
 20
-818.00000000000375
 30
0.0
 40
26.0
  1
CO
  0
ENDBLK
  5
130C4D
  8
0
  0
BLOCK
  8
0
  2
*U7
 70
     1
 10
0.0
 20
0.0
 30
0.0
  3
*U7
  1

  0
TEXT
  5
130C4F
  8
SLIM
 10
154.95238095237971
 20
-553.00000000000364
 30
0.0
 40
26.0
  1
75
  0
ENDBLK
  5
130C51
  8
0
  0
BLOCK
  8
0
  2
*U8
 70
     1
 10
0.0
 20
0.0
 30
0.0
  3
*U8
  1

  0
TEXT
  5
130C53
  8
SLIM
 10
153.09523809523691
 20
-818.00000000000375
 30
0.0
 40
26.0
  1
CO
  0
ENDBLK
  5
130C55
  8
0
  0
BLOCK
  8
0
  2
*U9
 70
     1
 10
0.0
 20
0.0
 30
0.0
  3
*U9
  1

  0
TEXT
  5
130C57
  8
SLIM
 10
514.95238095237971
 20
-89.000000000003666
 30
0.0
 40
26.0
  1
65
  0
ENDBLK
  5
130C59
  8
0
  0
BLOCK
  8
0
  2
*U10
 70
     1
 10
0.0
 20
0.0
 30
0.0
  3
*U10
  1

  0
TEXT
  5
130C5B
  8
SLIM
 10
513.09523809523682
 20
-354.00000000000358
 30
0.0
 40
26.0
  1
CO
  0
ENDBLK
  5
130C5D
  8
0
  0
BLOCK
  8
0
  2
*U11
 70
     1
 10
0.0
 20
0.0
 30
0.0
  3
*U11
  1

  0
TEXT
  5
130C5F
  8
SLIM
 10
154.95238095237971
 20
-89.000000000003666
 30
0.0
 40
26.0
  1
50
  0
ENDBLK
  5
130C61
  8
0
  0
BLOCK
  8
0
  2
*U12
 70
     1
 10
0.0
 20
0.0
 30
0.0
  3
*U12
  1

  0
TEXT
  5
130C63
  8
SLIM
 10
153.09523809523691
 20
-354.00000000000358
 30
0.0
 40
26.0
  1
CO
  0
ENDBLK
  5
130C65
  8
0
  0
BLOCK
  8
0
  2
*U13
 70
     1
 10
0.0
 20
0.0
 30
0.0
  3
*U13
  1

  0
TEXT
  5
130C7B
  8
DIM
 10
2209.479620594459
 20
-3184.1428571428528
 30
0.0
 40
32.0
  1
A
 50
90.0
 41
0.75
  0
ENDBLK
  5
130C7D
  8
0
  0
BLOCK
  8
0
  2
*U14
 70
     1
 10
0.0
 20
0.0
 30
0.0
  3
*U14
  1

  0
TEXT
  5
130C7F
  8
DIM
 10
2207.8409284037348
 20
-3565.9999999999959
 30
0.0
 40
32.0
  1
B
 50
90.0
 41
0.75
  0
ENDBLK
  5
130C81
  8
0
  0
BLOCK
  8
0
  2
*U15
 70
     1
 10
0.0
 20
0.0
 30
0.0
  3
*U15
  1

  0
TEXT
  5
130C83
  8
DIM
 10
2061.428571428572
 20
-3038.208121984444
 30
0.0
 40
32.0
  1
C
 41
0.75
  0
ENDBLK
  5
130C85
  8
0
  0
ENDSEC
  0
SECTION
  2
ENTITIES
  0
LINE
  5
12515F
  8
OBJECT
 10
1825.0
 20
-3579.9999999999959
 30
0.0
 11
5575.0
 21
-3579.9999999999959
 31
0.0
  0
LINE
  5
125161
  8
SLIM
 10
2616.0
 20
-2637.50001604727
 30
0.0
 11
2616.0
 21
-2967.50001604727
 31
0.0
  0
LINE
  5
125162
  8
SLIM
 10
2740.0
 20
-2637.50001604727
 30
0.0
 11
2740.0
 21
-2967.50001604727
 31
0.0
  0
LINE
  5
125163
  8
SLIM
 10
2870.0
 20
-2697.50001604727
 30
0.0
 11
2870.0
 21
-2967.50001604727
 31
0.0
  0
LINE
  5
125164
  8
SLIM
 10
3000.0
 20
-2697.50001604727
 30
0.0
 11
3000.0
 21
-2967.50001604727
 31
0.0
  0
LINE
  5
125165
  8
SLIM
 10
3130.0
 20
-2967.50001604727
 30
0.0
 11
3130.0
 21
-2697.50001604727
 31
0.0
  0
LINE
  5
125166
  8
SLIM
 10
3260.0
 20
-2967.50001604727
 30
0.0
 11
3260.0
 21
-2637.50001604727
 31
0.0
  0
LINE
  5
125167
  8
SLIM
 10
3260.0
 20
-2637.50001604727
 30
0.0
 11
2616.0
 21
-2637.50001604727
 31
0.0
  0
LINE
  5
125168
  8
SLIM
 10
3260.0
 20
-2697.50001604727
 30
0.0
 11
2740.0
 21
-2697.50001604727
 31
0.0
  0
LINE
  5
125169
  8
SLIM
 10
3260.0
 20
-2757.50001604727
 30
0.0
 11
2616.0
 21
-2757.50001604727
 31
0.0
  0
LINE
  5
12516A
  8
SLIM
 10
3260.0
 20
-2827.50001604727
 30
0.0
 11
2616.0
 21
-2827.50001604727
 31
0.0
  0
LINE
  5
12516B
  8
SLIM
 10
3260.0
 20
-2897.50001604727
 30
0.0
 11
2616.0
 21
-2897.50001604727
 31
0.0
  0
LINE
  5
12516C
  8
SLIM
 10
3260.0
 20
-2967.50001604727
 30
0.0
 11
2616.0
 21
-2967.50001604727
 31
0.0
  0
LINE
  5
125181
  8
SLIM
 10
2740.0
 20
-2757.50001604727
 30
0.0
 11
2615.9999722746579
 21
-2637.5
 31
0.0
  0
LINE
  5
1251B6
  8
OBJECT
 10
5323.0
 20
-3395.9999999999968
 30
0.0
 11
5323.0
 21
-3374.9999999999968
 31
0.0
1001
ACDBBLOCKREPETAG
1070
     1
1071
       20
1005
1251B6
  0
LINE
  5
1251B7
  8
OBJECT
 10
5323.0
 20
-3374.9999999999968
 30
0.0
 11
5477.0
 21
-3374.9999999999968
 31
0.0
1001
ACDBBLOCKREPETAG
1070
     1
1071
       21
1005
1251B7
  0
LINE
  5
1251B8
  8
HIDDEN
 10
5343.0
 20
-3444.9999999999968
 30
0.0
 11
5457.0
 21
-3444.9999999999968
 31
0.0
1001
ACDBBLOCKREPETAG
1070
     1
1071
       22
1005
1251B8
  0
LINE
  5
1251B9
  8
OBJECT
 10
5477.0
 20
-3374.9999999999968
 30
0.0
 11
5477.0
 21
-3395.9999999999968
 31
0.0
1001
ACDBBLOCKREPETAG
1070
     1
1071
       23
1005
1251B9
  0
LINE
  5
1251BA
  8
OBJECT
 10
5477.0
 20
-3395.9999999999968
 30
0.0
 11
5323.0
 21
-3395.9999999999968
 31
0.0
1001
ACDBBLOCKREPETAG
1070
     1
1071
       24
1005
1251BA
  0
LINE
  5
1251BB
  8
CENTER
 10
5400.0
 20
-3359.9999999999968
 30
0.0
 11
5400.0
 21
-3594.9999999999968
 31
0.0
1001
ACDBBLOCKREPETAG
1070
     1
1071
       25
1005
1251BB
  0
LINE
  5
1251BC
  8
OBJECT
 10
5325.0
 20
-3458.9999999999968
 30
0.0
 11
5325.0
 21
-3582.9999999999968
 31
0.0
1001
ACDBBLOCKREPETAG
1070
     1
1071
       26
1005
1251BC
  0
LINE
  5
1251BD
  8
OBJECT
 10
5328.0
 20
-3395.9999999999968
 30
0.0
 11
5328.0
 21
-3458.9999999999968
 31
0.0
1001
ACDBBLOCKREPETAG
1070
     1
1071
       27
1005
1251BD
  0
LINE
  5
1251BE
  8
OBJECT
 10
5472.0
 20
-3458.9999999999968
 30
0.0
 11
5472.0
 21
-3395.9999999999968
 31
0.0
1001
ACDBBLOCKREPETAG
1070
     1
1071
       28
1005
1251BE
  0
LINE
  5
1251BF
  8
OBJECT
 10
5475.0
 20
-3458.9999999999968
 30
0.0
 11
5456.7802782663139
 21
-3458.9999999999968
 31
0.0
1001
ACDBBLOCKREPETAG
1070
     1
1071
       30
1005
1251BF
  0
LINE
  5
1251C0
  8
OBJECT
 10
5475.0
 20
-3458.9999999999968
 30
0.0
 11
5475.0
 21
-3582.9999999999968
 31
0.0
1001
ACDBBLOCKREPETAG
1070
     1
1071
       34
1005
1251C0
  0
POINT
  5
1251C1
  8
DOTS
 10
5400.0
 20
-3579.9999999999968
 30
0.0
1001
ACDBBLOCKREPETAG
1070
     1
1071
      187
1005
1251C1
  0
LINE
  5
1251C2
  8
CENTER
 10
5310.0
 20
-3507.9999999999968
 30
0.0
 11
5490.0
 21
-3507.9999999999968
 31
0.0
1001
ACDBBLOCKREPETAG
1070
     1
1071
       23
1005
1251C2
  0
CIRCLE
  5
1251C3
  8
OBJECT
 10
5400.0
 20
-3507.9999999999968
 30
0.0
 40
53.5
1001
ACDBBLOCKREPETAG
1070
     1
1071
       24
1005
1251C3
  0
CIRCLE
  5
1251C4
  8
OBJECT
 10
5400.0
 20
-3507.9999999999968
 30
0.0
 40
67.0
1001
ACDBBLOCKREPETAG
1070
     1
1071
       25
1005
1251C4
  0
ARC
  5
1251C5
  8
OBJECT
 10
5400.0
 20
-3507.9999999999968
 30
0.0
 40
75.0
 50
286.26020470824369
 51
253.73979529175631
1001
ACDBBLOCKREPETAG
1070
     1
1071
       27
1005
1251C5
  0
LINE
  5
1251C6
  8
OBJECT
 10
5379.0
 20
-3579.9999999999968
 30
0.0
 11
5421.0
 21
-3579.9999999999968
 31
0.0
1001
ACDBBLOCKREPETAG
1070
     1
1071
       28
1005
1251C6
  0
LINE
  5
1251C7
  8
OBJECT
 10
5343.2197217336861
 20
-3458.9999999999968
 30
0.0
 11
5325.0
 21
-3458.9999999999968
 31
0.0
1001
ACDBBLOCKREPETAG
1070
     1
1071
       30
1005
1251BF
  0
TEXT
  5
12CC49
  8
SLIM
 10
-0.0000000000000011
 20
282.5
 30
0.0
 40
35.0
  1
※ 100枝（4）がある場合、品名の最後に【管底】が付きます。
 41
0.9
 11
0.0
 21
300.0
 31
0.0
 73
     2
  0
TEXT
  5
13038B
  8
SLIM
 10
415.71428571428447
 20
-444.00000000000358
 30
0.0
 40
48.0
  1
CO-A20P
 41
0.75
 72
     4
 11
539.99999999999875
 21
-420.00000000000358
 31
0.0
  0
TEXT
  5
13038C
  8
SLIM
 10
55.714285714284543
 20
-908.00000000000375
 30
0.0
 40
48.0
  1
CO-A30P
 41
0.75
 72
     4
 11
179.99999999999881
 21
-884.00000000000375
 31
0.0
  0
TEXT
  5
13038D
  8
SLIM
 10
415.71428571428447
 20
-908.00000000000375
 30
0.0
 40
48.0
  1
CO-A40P
 41
0.75
 72
     4
 11
539.99999999999875
 21
-884.00000000000375
 31
0.0
  0
TEXT
  5
1303A3
  8
SLIM
 10
59.142857142855974
 20
-444.00000000000358
 30
0.0
 40
48.0
  1
CO-A10P
 41
0.75
 72
     4
 11
179.99999999999881
 21
-420.00000000000358
 31
0.0
  0
LINE
  5
130436
  8
SLIM
 10
4350.0
 20
-887.99999999999591
 30
0.0
 11
4350.0
 21
-1079.9999999999959
 31
0.0
  0
LINE
  5
130437
  8
SLIM
 10
4454.0
 20
-1079.9999999999959
 30
0.0
 11
4454.0
 21
-887.99999999999591
 31
0.0
  0
LINE
  5
130438
  8
SLIM
 10
4602.0
 20
-887.99999999999591
 30
0.0
 11
4350.0
 21
-887.99999999999591
 31
0.0
  0
LINE
  5
130439
  8
SLIM
 10
4602.0
 20
-983.99999999999602
 30
0.0
 11
4350.0
 21
-983.99999999999602
 31
0.0
  0
LINE
  5
13043B
  8
SLIM
 10
4602.0
 20
-1031.9999999999959
 30
0.0
 11
4350.0
 21
-1031.9999999999959
 31
0.0
  0
LINE
  5
13043C
  8
SLIM
 10
4602.0
 20
-1079.9999999999959
 30
0.0
 11
4350.0
 21
-1079.9999999999959
 31
0.0
  0
LINE
  5
130440
  8
SLIM
 10
4602.0
 20
-935.99999999999545
 30
0.0
 11
4350.0
 21
-935.99999999999545
 31
0.0
  0
LINE
  5
130442
  8
SLIM
 10
4602.0
 20
-887.99999999999591
 30
0.0
 11
4602.0
 21
-1079.9999999999959
 31
0.0
  0
LINE
  5
13083A
  8
DIM
 10
3904.9999999999941
 20
-754.99999999999875
 30
0.0
 11
3839.6616440113221
 21
-754.99999999999875
 31
0.0
  0
LINE
  5
13083B
  8
DIM
 10
3910.0
 20
-964.99999999999875
 30
0.0
 11
3839.6616440113221
 21
-964.99999999999875
 31
0.0
  0
LINE
  5
13083C
  8
DIM
 10
3849.6616440113221
 20
-774.99999999999875
 30
0.0
 11
3849.6616440113221
 21
-944.99999999999864
 31
0.0
  0
INSERT
  5
13083D
  8
DIM
  2
_OPEN30
 10
3849.6616440113221
 20
-754.99999999999875
 30
0.0
 41
20.0
 42
20.0
 43
20.0
 50
90.0
  0
INSERT
  5
13083E
  8
DIM
  2
_OPEN30
 10
3849.6616440113221
 20
-964.99999999999875
 30
0.0
 41
20.0
 42
20.0
 43
20.0
 50
270.0
  0
INSERT
  5
13083F
  8
OBJECT
  2
*U4
 10
0.0
 20
0.0
 30
0.0
  0
TEXT
  5
130840
  8
SLIM
 10
3554.6000000000008
 20
-1415.666666666664
 30
0.0
 40
28.0
  1
※ 対応スラブ厚　180～（m-10）
 41
0.75
  0
TEXT
  5
130841
  8
SLIM
 10
3554.6000000000008
 20
-1462.3333333333301
 30
0.0
 40
28.0
  1
※ 足切り可能寸法（最大）　210-m（コンパクトＬベンド使用なら+20）
 41
0.75
  0
TEXT
  5
130842
  8
SLIM
 10
3598.9000000000001
 20
-1555.666666666664
 30
0.0
 40
28.0
  1
国土交通大臣認定・（一財）日本消防設備安全センター性能評定取得品
 41
0.75
  0
TEXT
  5
130843
  8
SLIM
 10
3631.1000000000022
 20
-1602.333333333331
 30
0.0
 40
28.0
  1
注）ご採用にあたり、認定書及び評定書の内容をご確認ください。
 41
0.75
  0
TEXT
  5
130844
  8
SLIM
 10
4506.5714285714294
 20
-971.99999999999591
 30
0.0
 40
24.0
  1
180
 41
0.75
  0
TEXT
  5
130845
  8
SLIM
 10
4470.057142857142
 20
-1067.9999999999959
 30
0.0
 40
24.0
  1
180～200
 41
0.75
  0
TEXT
  5
130846
  8
SLIM
 10
4471.7714285714283
 20
-1019.999999999996
 30
0.0
 40
24.0
  1
180～190
 41
0.75
  0
TEXT
  5
130847
  8
SLIM
 10
4465.6000000000013
 20
-923.99999999999613
 30
0.0
 40
24.0
  1
対応スラブ厚
 41
0.75
  0
TEXT
  5
130848
  8
SLIM
 10
4398.1714285714288
 20
-1125.9999999999959
 30
0.0
 40
24.0
  1
標準：m=210
 41
0.75
  0
TEXT
  5
130849
  8
SLIM
 10
4380.5714285714284
 20
-971.99999999999591
 30
0.0
 40
24.0
  1
190
 41
0.75
  0
TEXT
  5
13084A
  8
SLIM
 10
4380.5714285714284
 20
-1067.9999999999959
 30
0.0
 40
24.0
  1
210
 41
0.75
  0
TEXT
  5
13084B
  8
SLIM
 10
4369.9428571428571
 20
-923.99999999999613
 30
0.0
 40
24.0
  1
m寸法
 41
0.75
  0
TEXT
  5
13084C
  8
SLIM
 10
4378.8571428571431
 20
-1019.999999999996
 30
0.0
 40
24.0
  1
200
 41
0.75
  0
TEXT
  5
13084D
  8
SLIM
 10
1850.0
 20
532.5
 30
0.0
 40
75.0
  1
側面図の代表機種
 41
0.75
  0
CIRCLE
  5
13084E
  8
OBJECT
 10
535.99999999999875
 20
-655.00000000000364
 30
0.0
 40
70.0
1001
ACDBBLOCKREPETAG
1070
     1
1071
       43
1005
13084E
  0
CIRCLE
  5
13084F
  8
OBJECT
 10
535.99999999999875
 20
-655.00000000000364
 30
0.0
 40
77.0
1001
ACDBBLOCKREPETAG
1070
     1
1071
       44
1005
13084F
  0
ARC
  5
130850
  8
OBJECT
 10
535.99999999999875
 20
-655.00000000000364
 30
0.0
 40
80.0
 50
140.8050325737787
 51
219.1949674262213
1001
ACDBBLOCKREPETAG
1070
     1
1071
       45
1005
130850
  0
LINE
  5
130851
  8
OBJECT
 10
473.99999999999858
 20
-609.33819977267922
 30
0.0
 11
473.99999999999858
 21
-575.00000000000364
 31
0.0
1001
ACDBBLOCKREPETAG
1070
     1
1071
       46
1005
130851
  0
LINE
  5
130852
  8
OBJECT
 10
597.99999999999875
 20
-593.00000000000364
 30
0.0
 11
597.99999999999875
 21
-575.00000000000364
 31
0.0
1001
ACDBBLOCKREPETAG
1070
     1
1071
       22
1005
130852
  0
LINE
  5
130853
  8
OBJECT
 10
597.99999999999875
 20
-593.00000000000364
 30
0.0
 11
615.99999999999875
 21
-593.00000000000364
 31
0.0
1001
ACDBBLOCKREPETAG
1070
     1
1071
       24
1005
130853
  0
LINE
  5
130854
  8
OBJECT
 10
597.99999999999875
 20
-717.00000000000364
 30
0.0
 11
615.99999999999875
 21
-717.00000000000364
 31
0.0
1001
ACDBBLOCKREPETAG
1070
     1
1071
       25
1005
130854
  0
LINE
  5
130855
  8
OBJECT
 10
597.99999999999875
 20
-717.00000000000364
 30
0.0
 11
597.99999999999875
 21
-735.00000000000352
 31
0.0
1001
ACDBBLOCKREPETAG
1070
     1
1071
       27
1005
130855
  0
LINE
  5
130856
  8
OBJECT
 10
473.99999999999858
 20
-700.66180022732794
 30
0.0
 11
473.99999999999858
 21
-735.00000000000352
 31
0.0
1001
ACDBBLOCKREPETAG
1070
     1
1071
       28
1005
130856
  0
LINE
  5
130857
  8
OBJECT
 10
590.44722215136278
 20
-709.4472221513679
 30
0.0
 11
597.99999999999875
 21
-717.00000000000364
 31
0.0
1001
ACDBBLOCKREPETAG
1070
     1
1071
       37
1005
130857
  0
LINE
  5
130858
  8
OBJECT
 10
590.44722215136278
 20
-600.55277784863938
 30
0.0
 11
597.99999999999875
 21
-593.00000000000364
 31
0.0
1001
ACDBBLOCKREPETAG
1070
     1
1071
       38
1005
130858
  0
POINT
  5
130859
  8
DOTS
 10
535.99999999999875
 20
-655.00000000000364
 30
0.0
1001
ACDBBLOCKREPETAG
1070
     1
1071
       39
1005
130859
  0
CIRCLE
  5
13085A
  8
OBJECT
 10
535.99999999999875
 20
-655.00000000000364
 30
0.0
 40
53.5
1001
ACDBBLOCKREPETAG
1070
     1
1071
      153
1005
13085A
  0
CIRCLE
  5
13085B
  8
OBJECT
 10
175.99999999999881
 20
-655.00000000000364
 30
0.0
 40
70.0
1001
ACDBBLOCKREPETAG
1070
     1
1071
       43
1005
13085B
  0
CIRCLE
  5
13085C
  8
OBJECT
 10
175.99999999999881
 20
-655.00000000000364
 30
0.0
 40
77.0
1001
ACDBBLOCKREPETAG
1070
     1
1071
       44
1005
13085C
  0
ARC
  5
13085D
  8
OBJECT
 10
175.99999999999881
 20
-655.00000000000364
 30
0.0
 40
80.0
 50
140.80503257377961
 51
219.1949674262203
1001
ACDBBLOCKREPETAG
1070
     1
1071
       45
1005
13085D
  0
LINE
  5
13085E
  8
OBJECT
 10
113.99999999999881
 20
-609.33819977267922
 30
0.0
 11
113.99999999999881
 21
-575.00000000000364
 31
0.0
1001
ACDBBLOCKREPETAG
1070
     1
1071
       46
1005
13085E
  0
LINE
  5
13085F
  8
OBJECT
 10
237.99999999999881
 20
-593.00000000000364
 30
0.0
 11
237.99999999999881
 21
-575.00000000000364
 31
0.0
1001
ACDBBLOCKREPETAG
1070
     1
1071
       22
1005
13085F
  0
LINE
  5
130860
  8
OBJECT
 10
237.99999999999881
 20
-593.00000000000364
 30
0.0
 11
255.99999999999881
 21
-593.00000000000364
 31
0.0
1001
ACDBBLOCKREPETAG
1070
     1
1071
       24
1005
130860
  0
LINE
  5
130861
  8
OBJECT
 10
237.99999999999881
 20
-717.00000000000364
 30
0.0
 11
255.99999999999881
 21
-717.00000000000364
 31
0.0
1001
ACDBBLOCKREPETAG
1070
     1
1071
       25
1005
130861
  0
LINE
  5
130862
  8
OBJECT
 10
237.99999999999881
 20
-717.00000000000364
 30
0.0
 11
237.99999999999881
 21
-735.00000000000352
 31
0.0
1001
ACDBBLOCKREPETAG
1070
     1
1071
       27
1005
130862
  0
LINE
  5
130863
  8
OBJECT
 10
113.99999999999881
 20
-700.66180022732794
 30
0.0
 11
113.99999999999881
 21
-735.00000000000352
 31
0.0
1001
ACDBBLOCKREPETAG
1070
     1
1071
       28
1005
130863
  0
LINE
  5
130864
  8
OBJECT
 10
230.44722215136309
 20
-709.4472221513679
 30
0.0
 11
237.99999999999881
 21
-717.00000000000364
 31
0.0
1001
ACDBBLOCKREPETAG
1070
     1
1071
       37
1005
130864
  0
LINE
  5
130865
  8
OBJECT
 10
230.44722215136309
 20
-600.55277784863938
 30
0.0
 11
237.99999999999881
 21
-593.00000000000364
 31
0.0
1001
ACDBBLOCKREPETAG
1070
     1
1071
       38
1005
130865
  0
POINT
  5
130866
  8
DOTS
 10
175.99999999999881
 20
-655.00000000000364
 30
0.0
1001
ACDBBLOCKREPETAG
1070
     1
1071
       39
1005
130866
  0
CIRCLE
  5
130867
  8
OBJECT
 10
175.99999999999881
 20
-655.00000000000364
 30
0.0
 40
53.5
1001
ACDBBLOCKREPETAG
1070
     1
1071
      153
1005
130867
  0
CIRCLE
  5
130868
  8
OBJECT
 10
535.99999999999875
 20
-191.00000000000361
 30
0.0
 40
70.0
1001
ACDBBLOCKREPETAG
1070
     1
1071
       43
1005
130868
  0
CIRCLE
  5
130869
  8
OBJECT
 10
535.99999999999875
 20
-191.00000000000361
 30
0.0
 40
77.0
1001
ACDBBLOCKREPETAG
1070
     1
1071
       44
1005
130869
  0
ARC
  5
13086A
  8
OBJECT
 10
535.99999999999875
 20
-191.00000000000361
 30
0.0
 40
80.0
 50
140.80503257378001
 51
219.19496742621999
1001
ACDBBLOCKREPETAG
1070
     1
1071
       45
1005
13086A
  0
LINE
  5
13086B
  8
OBJECT
 10
473.99999999999858
 20
-145.33819977267919
 30
0.0
 11
473.99999999999858
 21
-111.0000000000036
 31
0.0
1001
ACDBBLOCKREPETAG
1070
     1
1071
       46
1005
13086B
  0
LINE
  5
13086C
  8
OBJECT
 10
597.99999999999875
 20
-129.00000000000361
 30
0.0
 11
597.99999999999875
 21
-111.0000000000036
 31
0.0
1001
ACDBBLOCKREPETAG
1070
     1
1071
       22
1005
13086C
  0
LINE
  5
13086D
  8
OBJECT
 10
597.99999999999875
 20
-129.00000000000361
 30
0.0
 11
615.99999999999875
 21
-129.00000000000361
 31
0.0
1001
ACDBBLOCKREPETAG
1070
     1
1071
       24
1005
13086D
  0
LINE
  5
13086E
  8
OBJECT
 10
597.99999999999875
 20
-253.00000000000361
 30
0.0
 11
615.99999999999875
 21
-253.00000000000361
 31
0.0
1001
ACDBBLOCKREPETAG
1070
     1
1071
       25
1005
13086E
  0
LINE
  5
13086F
  8
OBJECT
 10
597.99999999999875
 20
-253.00000000000361
 30
0.0
 11
597.99999999999875
 21
-271.00000000000358
 31
0.0
1001
ACDBBLOCKREPETAG
1070
     1
1071
       27
1005
13086F
  0
LINE
  5
130870
  8
OBJECT
 10
473.99999999999858
 20
-236.66180022732809
 30
0.0
 11
473.99999999999858
 21
-271.00000000000358
 31
0.0
1001
ACDBBLOCKREPETAG
1070
     1
1071
       28
1005
130870
  0
LINE
  5
130871
  8
OBJECT
 10
590.44722215136278
 20
-245.4472221513679
 30
0.0
 11
597.99999999999875
 21
-253.00000000000361
 31
0.0
1001
ACDBBLOCKREPETAG
1070
     1
1071
       37
1005
130871
  0
LINE
  5
130872
  8
OBJECT
 10
590.44722215136278
 20
-136.55277784863921
 30
0.0
 11
597.99999999999875
 21
-129.00000000000361
 31
0.0
1001
ACDBBLOCKREPETAG
1070
     1
1071
       38
1005
130872
  0
POINT
  5
130873
  8
DOTS
 10
535.99999999999875
 20
-191.00000000000361
 30
0.0
1001
ACDBBLOCKREPETAG
1070
     1
1071
       39
1005
130873
  0
CIRCLE
  5
130874
  8
OBJECT
 10
535.99999999999875
 20
-191.00000000000361
 30
0.0
 40
53.5
1001
ACDBBLOCKREPETAG
1070
     1
1071
      153
1005
130874
  0
CIRCLE
  5
130875
  8
OBJECT
 10
175.99999999999881
 20
-191.00000000000361
 30
0.0
 40
70.0
1001
ACDBBLOCKREPETAG
1070
     1
1071
       43
1005
130875
  0
CIRCLE
  5
130876
  8
OBJECT
 10
175.99999999999881
 20
-191.00000000000361
 30
0.0
 40
77.0
1001
ACDBBLOCKREPETAG
1070
     1
1071
       44
1005
130876
  0
ARC
  5
130877
  8
OBJECT
 10
175.99999999999881
 20
-191.00000000000361
 30
0.0
 40
80.0
 50
140.80503257378101
 51
219.19496742621899
1001
ACDBBLOCKREPETAG
1070
     1
1071
       45
1005
130877
  0
LINE
  5
130878
  8
OBJECT
 10
113.99999999999881
 20
-145.33819977267919
 30
0.0
 11
113.99999999999881
 21
-111.0000000000036
 31
0.0
1001
ACDBBLOCKREPETAG
1070
     1
1071
       46
1005
130878
  0
LINE
  5
130879
  8
OBJECT
 10
237.99999999999881
 20
-129.00000000000361
 30
0.0
 11
237.99999999999881
 21
-111.0000000000036
 31
0.0
1001
ACDBBLOCKREPETAG
1070
     1
1071
       22
1005
130879
  0
LINE
  5
13087A
  8
OBJECT
 10
237.99999999999881
 20
-129.00000000000361
 30
0.0
 11
255.99999999999881
 21
-129.00000000000361
 31
0.0
1001
ACDBBLOCKREPETAG
1070
     1
1071
       24
1005
13087A
  0
LINE
  5
13087B
  8
OBJECT
 10
237.99999999999881
 20
-253.00000000000361
 30
0.0
 11
255.99999999999881
 21
-253.00000000000361
 31
0.0
1001
ACDBBLOCKREPETAG
1070
     1
1071
       25
1005
13087B
  0
LINE
  5
13087C
  8
OBJECT
 10
237.99999999999881
 20
-253.00000000000361
 30
0.0
 11
237.99999999999881
 21
-271.00000000000358
 31
0.0
1001
ACDBBLOCKREPETAG
1070
     1
1071
       27
1005
13087C
  0
LINE
  5
13087D
  8
OBJECT
 10
113.99999999999881
 20
-236.66180022732809
 30
0.0
 11
113.99999999999881
 21
-271.00000000000358
 31
0.0
1001
ACDBBLOCKREPETAG
1070
     1
1071
       28
1005
13087D
  0
LINE
  5
13087E
  8
OBJECT
 10
230.44722215136309
 20
-245.4472221513679
 30
0.0
 11
237.99999999999881
 21
-253.00000000000361
 31
0.0
1001
ACDBBLOCKREPETAG
1070
     1
1071
       37
1005
13087E
  0
LINE
  5
13087F
  8
OBJECT
 10
230.44722215136309
 20
-136.55277784863921
 30
0.0
 11
237.99999999999881
 21
-129.00000000000361
 31
0.0
1001
ACDBBLOCKREPETAG
1070
     1
1071
       38
1005
13087F
  0
POINT
  5
130880
  8
DOTS
 10
175.99999999999881
 20
-191.00000000000361
 30
0.0
1001
ACDBBLOCKREPETAG
1070
     1
1071
       39
1005
130880
  0
CIRCLE
  5
130881
  8
OBJECT
 10
175.99999999999881
 20
-191.00000000000361
 30
0.0
 40
53.5
1001
ACDBBLOCKREPETAG
1070
     1
1071
      153
1005
130881
  0
LINE
  5
130882
  8
OBJECT
 10
460.99999999999858
 20
-505.00000000000358
 30
0.0
 11
460.99999999999858
 21
-512.00000000000364
 31
0.0
1001
ACDBBLOCKREPETAG
1070
     1
1071
       57
1005
130882
  0
LINE
  5
130883
  8
OBJECT
 10
460.99999999999858
 20
-512.00000000000364
 30
0.0
 11
610.99999999999875
 21
-512.00000000000364
 31
0.0
1001
ACDBBLOCKREPETAG
1070
     1
1071
       58
1005
130883
  0
LINE
  5
130884
  8
OBJECT
 10
463.99999999999858
 20
-553.50000000000364
 30
0.0
 11
607.99999999999875
 21
-553.50000000000364
 31
0.0
1001
ACDBBLOCKREPETAG
1070
     1
1071
       59
1005
130884
  0
LINE
  5
130885
  8
OBJECT
 10
470.49999999999858
 20
-565.00000000000364
 30
0.0
 11
601.49999999999875
 21
-565.00000000000364
 31
0.0
1001
ACDBBLOCKREPETAG
1070
     1
1071
       60
1005
130885
  0
LINE
  5
130886
  8
OBJECT
 10
610.99999999999875
 20
-512.00000000000364
 30
0.0
 11
610.99999999999875
 21
-505.00000000000358
 31
0.0
1001
ACDBBLOCKREPETAG
1070
     1
1071
       61
1005
130886
  0
LINE
  5
130887
  8
OBJECT
 10
610.99999999999875
 20
-505.00000000000358
 30
0.0
 11
460.99999999999858
 21
-505.00000000000358
 31
0.0
1001
ACDBBLOCKREPETAG
1070
     1
1071
       62
1005
130887
  0
LINE
  5
130888
  8
OBJECT
 10
597.99999999999875
 20
-569.00000000000364
 30
0.0
 11
597.99999999999875
 21
-575.00000000000364
 31
0.0
1001
ACDBBLOCKREPETAG
1070
     1
1071
       63
1005
130888
  0
LINE
  5
130889
  8
OBJECT
 10
607.99999999999875
 20
-512.00000000000364
 30
0.0
 11
607.99999999999875
 21
-553.50000000000364
 31
0.0
1001
ACDBBLOCKREPETAG
1070
     1
1071
       64
1005
130889
  0
LINE
  5
13088A
  8
OBJECT
 10
607.99999999999875
 20
-553.50000000000364
 30
0.0
 11
601.49999999999875
 21
-565.00000000000364
 31
0.0
1001
ACDBBLOCKREPETAG
1070
     1
1071
       65
1005
13088A
  0
LINE
  5
13088B
  8
OBJECT
 10
601.49999999999875
 20
-565.00000000000364
 30
0.0
 11
597.99999999999875
 21
-569.00000000000364
 31
0.0
1001
ACDBBLOCKREPETAG
1070
     1
1071
       66
1005
13088B
  0
LINE
  5
13088C
  8
OBJECT
 10
463.99999999999858
 20
-553.50000000000364
 30
0.0
 11
470.49999999999858
 21
-565.00000000000364
 31
0.0
1001
ACDBBLOCKREPETAG
1070
     1
1071
       67
1005
13088C
  0
LINE
  5
13088D
  8
OBJECT
 10
470.49999999999858
 20
-565.00000000000364
 30
0.0
 11
473.99999999999858
 21
-569.00000000000364
 31
0.0
1001
ACDBBLOCKREPETAG
1070
     1
1071
       68
1005
13088D
  0
ARC
  5
13088E
  8
OBJECT
 10
535.99999999999875
 20
-187.1000000000021
 30
0.0
 40
386.89999999999998
 50
260.77870136257951
 51
279.22129863742049
1001
ACDBBLOCKREPETAG
1070
     1
1071
       69
1005
13088E
  0
LINE
  5
13088F
  8
OBJECT
 10
473.99999999999858
 20
-569.00000000000364
 30
0.0
 11
473.99999999999858
 21
-575.00000000000364
 31
0.0
1001
ACDBBLOCKREPETAG
1070
     1
1071
       70
1005
13088F
  0
LINE
  5
130890
  8
OBJECT
 10
463.99999999999858
 20
-512.00000000000364
 30
0.0
 11
463.99999999999858
 21
-553.50000000000364
 31
0.0
1001
ACDBBLOCKREPETAG
1070
     1
1071
       71
1005
130890
  0
INSERT
  5
130891
  8
OBJECT
  2
*U5
 10
0.0
 20
0.0
 30
0.0
  0
LINE
  5
130892
  8
HIDDEN
 10
592.99999999999875
 20
-557.00000000000364
 30
0.0
 11
478.99999999999858
 21
-557.00000000000364
 31
0.0
1001
ACDBBLOCKREPETAG
1070
     1
1071
      431
1005
130892
  0
LINE
  5
130893
  8
OBJECT
 10
594.99999999999875
 20
-741.00000000000352
 30
0.0
 11
476.99999999999881
 21
-741.00000000000352
 31
0.0
1001
ACDBBLOCKREPETAG
1070
     1
1071
      323
1005
130893
  0
LINE
  5
130894
  8
OBJECT
 10
491.49999999999858
 20
-765.00000000000341
 30
0.0
 11
580.49999999999875
 21
-765.00000000000341
 31
0.0
1001
ACDBBLOCKREPETAG
1070
     1
1071
      324
1005
130894
  0
LINE
  5
130895
  8
OBJECT
 10
491.49999999999858
 20
-765.00000000000341
 30
0.0
 11
491.49999999999858
 21
-741.00000000000352
 31
0.0
1001
ACDBBLOCKREPETAG
1070
     1
1071
      325
1005
130895
  0
LINE
  5
130896
  8
OBJECT
 10
473.99999999999858
 20
-735.00000000000352
 30
0.0
 11
473.99999999999858
 21
-738.00000000000352
 31
0.0
1001
ACDBBLOCKREPETAG
1070
     1
1071
      326
1005
130896
  0
ARC
  5
130897
  8
OBJECT
 10
476.99999999999881
 20
-738.00000000000352
 30
0.0
 40
3.0
 50
180.0
 51
270.0
1001
ACDBBLOCKREPETAG
1070
     1
1071
      327
1005
130897
  0
LINE
  5
130898
  8
OBJECT
 10
553.82206599999938
 20
-765.00000000000341
 30
0.0
 11
558.10318199999756
 21
-768.83118900000409
 31
0.0
1001
ACDBBLOCKREPETAG
1070
     1
1071
      328
1005
130898
  0
ARC
  5
130899
  8
OBJECT
 10
552.99999999999875
 20
-775.00000000000352
 30
0.0
 40
8.0
 50
251.8416470000376
 51
50.402247000016089
1001
ACDBBLOCKREPETAG
1070
     1
1071
      329
1005
130899
  0
ARC
  5
13089A
  8
OBJECT
 10
552.06506699999829
 20
-777.8505970000042
 30
0.0
 40
5.0
 50
198.4848690000708
 51
251.8416470000376
1001
ACDBBLOCKREPETAG
1070
     1
1071
      330
1005
13089A
  0
LINE
  5
13089B
  8
OBJECT
 10
540.99999999999875
 20
-775.00000000000352
 30
0.0
 11
540.99999999999875
 21
-768.00000000000352
 31
0.0
1001
ACDBBLOCKREPETAG
1070
     1
1071
      331
1005
13089B
  0
LINE
  5
13089C
  8
OBJECT
 10
530.99999999999875
 20
-775.00000000000352
 30
0.0
 11
530.99999999999875
 21
-768.00000000000352
 31
0.0
1001
ACDBBLOCKREPETAG
1070
     1
1071
      332
1005
13089C
  0
LINE
  5
13089D
  8
OBJECT
 10
540.99999999999875
 20
-775.00000000000352
 30
0.0
 11
530.99999999999875
 21
-775.00000000000352
 31
0.0
1001
ACDBBLOCKREPETAG
1070
     1
1071
      333
1005
13089D
  0
LINE
  5
13089E
  8
OBJECT
 10
543.49999999999875
 20
-768.00000000000352
 30
0.0
 11
528.49999999999875
 21
-768.00000000000352
 31
0.0
1001
ACDBBLOCKREPETAG
1070
     1
1071
      334
1005
13089E
  0
LINE
  5
13089F
  8
OBJECT
 10
527.74999999999875
 20
-765.00000000000341
 30
0.0
 11
528.49999999999875
 21
-768.00000000000352
 31
0.0
1001
ACDBBLOCKREPETAG
1070
     1
1071
      335
1005
13089F
  0
LINE
  5
1308A0
  8
OBJECT
 10
518.17793299999778
 20
-765.00000000000341
 30
0.0
 11
513.89681799999801
 21
-768.83118900000409
 31
0.0
1001
ACDBBLOCKREPETAG
1070
     1
1071
      336
1005
1308A0
  0
LINE
  5
1308A1
  8
OBJECT
 10
544.24999999999875
 20
-765.00000000000341
 30
0.0
 11
543.49999999999875
 21
-768.00000000000352
 31
0.0
1001
ACDBBLOCKREPETAG
1070
     1
1071
      337
1005
1308A1
  0
ARC
  5
1308A2
  8
OBJECT
 10
518.99999999999875
 20
-775.00000000000352
 30
0.0
 40
8.0
 50
129.5977529999839
 51
288.1583529999624
1001
ACDBBLOCKREPETAG
1070
     1
1071
      338
1005
1308A2
  0
ARC
  5
1308A3
  8
OBJECT
 10
519.93493299999921
 20
-777.8505970000042
 30
0.0
 40
5.0
 50
288.1583529999624
 51
341.51513099992923
1001
ACDBBLOCKREPETAG
1070
     1
1071
      339
1005
1308A3
  0
LINE
  5
1308A4
  8
OBJECT
 10
524.67696999999907
 20
-779.43586800000412
 30
0.0
 11
528.49999999999875
 21
-768.00000000000352
 31
0.0
1001
ACDBBLOCKREPETAG
1070
     1
1071
      340
1005
1308A4
  0
LINE
  5
1308A5
  8
OBJECT
 10
547.32302999999831
 20
-779.43586800000412
 30
0.0
 11
543.49999999999875
 21
-768.00000000000352
 31
0.0
1001
ACDBBLOCKREPETAG
1070
     1
1071
      341
1005
1308A5
  0
ARC
  5
1308A6
  8
OBJECT
 10
594.99999999999875
 20
-738.00000000000352
 30
0.0
 40
3.0
 50
270.0
 51
0.0
1001
ACDBBLOCKREPETAG
1070
     1
1071
      342
1005
1308A6
  0
LINE
  5
1308A7
  8
OBJECT
 10
597.99999999999875
 20
-735.00000000000352
 30
0.0
 11
597.99999999999875
 21
-738.00000000000352
 31
0.0
1001
ACDBBLOCKREPETAG
1070
     1
1071
      343
1005
1308A7
  0
LINE
  5
1308A8
  8
OBJECT
 10
580.49999999999875
 20
-765.00000000000341
 30
0.0
 11
580.49999999999875
 21
-741.00000000000352
 31
0.0
1001
ACDBBLOCKREPETAG
1070
     1
1071
      344
1005
1308A8
  0
INSERT
  5
1308A9
  8
OBJECT
  2
*U6
 10
0.0
 20
0.0
 30
0.0
  0
LINE
  5
1308AA
  8
OBJECT
 10
618.99999999999875
 20
-717.00000000000364
 30
0.0
 11
615.99999999999875
 21
-717.00000000000364
 31
0.0
1001
ACDBBLOCKREPETAG
1070
     1
1071
      418
1005
1308AA
  0
ARC
  5
1308AB
  8
OBJECT
 10
618.99999999999875
 20
-714.00000000000364
 30
0.0
 40
3.0
 50
270.0
 51
0.0
1001
ACDBBLOCKREPETAG
1070
     1
1071
      419
1005
1308AB
  0
LINE
  5
1308AC
  8
OBJECT
 10
615.99999999999875
 20
-593.00000000000364
 30
0.0
 11
618.99999999999875
 21
-593.00000000000364
 31
0.0
1001
ACDBBLOCKREPETAG
1070
     1
1071
      420
1005
1308AC
  0
ARC
  5
1308AD
  8
OBJECT
 10
618.99999999999875
 20
-596.00000000000364
 30
0.0
 40
3.0
 50
0.0
 51
90.0
1001
ACDBBLOCKREPETAG
1070
     1
1071
      421
1005
1308AD
  0
LINE
  5
1308AE
  8
OBJECT
 10
621.99999999999875
 20
-596.00000000000364
 30
0.0
 11
621.99999999999875
 21
-714.00000000000364
 31
0.0
1001
ACDBBLOCKREPETAG
1070
     1
1071
      422
1005
1308AE
  0
INSERT
  5
1308AF
  8
OBJECT
  2
*U7
 10
0.0
 20
0.0
 30
0.0
  0
LINE
  5
1308B0
  8
OBJECT
 10
113.99999999999881
 20
-522.00000000000364
 30
0.0
 11
113.99999999999881
 21
-515.00000000000364
 31
0.0
1001
ACDBBLOCKREPETAG
1070
     1
1071
       39
1005
1308B0
  0
LINE
  5
1308B1
  8
OBJECT
 10
113.99999999999881
 20
-515.00000000000364
 30
0.0
 11
237.99999999999881
 21
-515.00000000000364
 31
0.0
1001
ACDBBLOCKREPETAG
1070
     1
1071
       40
1005
1308B1
  0
LINE
  5
1308B2
  8
OBJECT
 10
237.99999999999881
 20
-515.00000000000364
 30
0.0
 11
237.99999999999881
 21
-522.00000000000364
 31
0.0
1001
ACDBBLOCKREPETAG
1070
     1
1071
       41
1005
1308B2
  0
LINE
  5
1308B3
  8
OBJECT
 10
237.99999999999881
 20
-522.00000000000364
 30
0.0
 11
113.99999999999881
 21
-522.00000000000364
 31
0.0
1001
ACDBBLOCKREPETAG
1070
     1
1071
       42
1005
1308B3
  0
LINE
  5
1308B4
  8
OBJECT
 10
116.99999999999871
 20
-522.00000000000364
 30
0.0
 11
116.99999999999871
 21
-558.00000000000364
 31
0.0
1001
ACDBBLOCKREPETAG
1070
     1
1071
       43
1005
1308B4
  0
LINE
  5
1308B5
  8
OBJECT
 10
116.99999999999871
 20
-558.00000000000364
 30
0.0
 11
234.99999999999881
 21
-558.00000000000364
 31
0.0
1001
ACDBBLOCKREPETAG
1070
     1
1071
       44
1005
1308B5
  0
LINE
  5
1308B6
  8
OBJECT
 10
234.99999999999881
 20
-558.00000000000364
 30
0.0
 11
234.99999999999881
 21
-522.00000000000364
 31
0.0
1001
ACDBBLOCKREPETAG
1070
     1
1071
       45
1005
1308B6
  0
LINE
  5
1308B7
  8
OBJECT
 10
121.49999999999881
 20
-562.00000000000364
 30
0.0
 11
121.49999999999881
 21
-569.00000000000364
 31
0.0
1001
ACDBBLOCKREPETAG
1070
     1
1071
       46
1005
1308B7
  0
LINE
  5
1308B8
  8
OBJECT
 10
230.49999999999881
 20
-569.00000000000364
 30
0.0
 11
230.49999999999881
 21
-562.00000000000364
 31
0.0
1001
ACDBBLOCKREPETAG
1070
     1
1071
       47
1005
1308B8
  0
LINE
  5
1308B9
  8
OBJECT
 10
230.49999999999881
 20
-562.00000000000364
 30
0.0
 11
121.49999999999881
 21
-562.00000000000364
 31
0.0
1001
ACDBBLOCKREPETAG
1070
     1
1071
       48
1005
1308B9
  0
LINE
  5
1308BA
  8
OBJECT
 10
116.99999999999871
 20
-558.00000000000364
 30
0.0
 11
121.49999999999881
 21
-562.00000000000364
 31
0.0
1001
ACDBBLOCKREPETAG
1070
     1
1071
       49
1005
1308BA
  0
LINE
  5
1308BB
  8
OBJECT
 10
234.99999999999881
 20
-558.00000000000364
 30
0.0
 11
230.49999999999881
 21
-562.00000000000364
 31
0.0
1001
ACDBBLOCKREPETAG
1070
     1
1071
       50
1005
1308BB
  0
LINE
  5
1308BC
  8
OBJECT
 10
113.99999999999881
 20
-572.00000000000273
 30
0.0
 11
113.99999999999881
 21
-575.00000000000364
 31
0.0
1001
ACDBBLOCKREPETAG
1070
     1
1071
       51
1005
1308BC
  0
ARC
  5
1308BD
  8
OBJECT
 10
116.99999999999871
 20
-572.00000000000273
 30
0.0
 40
3.0
 50
90.0
 51
180.0
1001
ACDBBLOCKREPETAG
1070
     1
1071
       52
1005
1308BD
  0
LINE
  5
1308BE
  8
OBJECT
 10
237.99999999999881
 20
-575.00000000000364
 30
0.0
 11
237.99999999999881
 21
-572.00000000000455
 31
0.0
1001
ACDBBLOCKREPETAG
1070
     1
1071
       53
1005
1308BE
  0
ARC
  5
1308BF
  8
OBJECT
 10
234.99999999999881
 20
-572.00000000000455
 30
0.0
 40
3.0
 50
0.0
 51
90.0
1001
ACDBBLOCKREPETAG
1070
     1
1071
       54
1005
1308BF
  0
LINE
  5
1308C0
  8
OBJECT
 10
234.99999999999881
 20
-569.00000000000455
 30
0.0
 11
116.99999999999871
 21
-569.00000000000273
 31
0.0
1001
ACDBBLOCKREPETAG
1070
     1
1071
       55
1005
1308C0
  0
LINE
  5
1308C1
  8
HIDDEN
 10
131.49999999999869
 20
-567.00000000000364
 30
0.0
 11
220.49999999999881
 21
-567.00000000000364
 31
0.0
1001
ACDBBLOCKREPETAG
1070
     1
1071
      426
1005
1308C1
  0
LINE
  5
1308C2
  8
OBJECT
 10
234.99999999999881
 20
-741.00000000000352
 30
0.0
 11
116.99999999999871
 21
-741.00000000000352
 31
0.0
1001
ACDBBLOCKREPETAG
1070
     1
1071
      323
1005
1308C2
  0
LINE
  5
1308C3
  8
OBJECT
 10
131.49999999999869
 20
-765.00000000000341
 30
0.0
 11
220.49999999999881
 21
-765.00000000000341
 31
0.0
1001
ACDBBLOCKREPETAG
1070
     1
1071
      324
1005
1308C3
  0
LINE
  5
1308C4
  8
OBJECT
 10
131.49999999999869
 20
-765.00000000000341
 30
0.0
 11
131.49999999999869
 21
-741.00000000000352
 31
0.0
1001
ACDBBLOCKREPETAG
1070
     1
1071
      325
1005
1308C4
  0
LINE
  5
1308C5
  8
OBJECT
 10
113.99999999999881
 20
-735.00000000000352
 30
0.0
 11
113.99999999999881
 21
-738.00000000000352
 31
0.0
1001
ACDBBLOCKREPETAG
1070
     1
1071
      326
1005
1308C5
  0
ARC
  5
1308C6
  8
OBJECT
 10
116.99999999999871
 20
-738.00000000000352
 30
0.0
 40
3.0
 50
180.0
 51
270.0
1001
ACDBBLOCKREPETAG
1070
     1
1071
      327
1005
1308C6
  0
LINE
  5
1308C7
  8
OBJECT
 10
193.8220659999993
 20
-765.00000000000341
 30
0.0
 11
198.1031819999977
 21
-768.83118900000409
 31
0.0
1001
ACDBBLOCKREPETAG
1070
     1
1071
      328
1005
1308C7
  0
ARC
  5
1308C8
  8
OBJECT
 10
192.99999999999869
 20
-775.00000000000352
 30
0.0
 40
8.0
 50
251.8416470000376
 51
50.402247000018619
1001
ACDBBLOCKREPETAG
1070
     1
1071
      329
1005
1308C8
  0
ARC
  5
1308C9
  8
OBJECT
 10
192.06506699999829
 20
-777.8505970000042
 30
0.0
 40
5.0
 50
198.48486900007191
 51
251.8416470000376
1001
ACDBBLOCKREPETAG
1070
     1
1071
      330
1005
1308C9
  0
LINE
  5
1308CA
  8
OBJECT
 10
180.99999999999881
 20
-775.00000000000352
 30
0.0
 11
180.99999999999881
 21
-768.00000000000352
 31
0.0
1001
ACDBBLOCKREPETAG
1070
     1
1071
      331
1005
1308CA
  0
LINE
  5
1308CB
  8
OBJECT
 10
170.99999999999869
 20
-775.00000000000352
 30
0.0
 11
170.99999999999869
 21
-768.00000000000352
 31
0.0
1001
ACDBBLOCKREPETAG
1070
     1
1071
      332
1005
1308CB
  0
LINE
  5
1308CC
  8
OBJECT
 10
180.99999999999881
 20
-775.00000000000352
 30
0.0
 11
170.99999999999869
 21
-775.00000000000352
 31
0.0
1001
ACDBBLOCKREPETAG
1070
     1
1071
      333
1005
1308CC
  0
LINE
  5
1308CD
  8
OBJECT
 10
183.49999999999881
 20
-768.00000000000352
 30
0.0
 11
168.49999999999881
 21
-768.00000000000352
 31
0.0
1001
ACDBBLOCKREPETAG
1070
     1
1071
      334
1005
1308CD
  0
LINE
  5
1308CE
  8
OBJECT
 10
167.74999999999869
 20
-765.00000000000341
 30
0.0
 11
168.49999999999881
 21
-768.00000000000352
 31
0.0
1001
ACDBBLOCKREPETAG
1070
     1
1071
      335
1005
1308CE
  0
LINE
  5
1308CF
  8
OBJECT
 10
158.17793299999781
 20
-765.00000000000341
 30
0.0
 11
153.89681799999801
 21
-768.83118900000409
 31
0.0
1001
ACDBBLOCKREPETAG
1070
     1
1071
      336
1005
1308CF
  0
LINE
  5
1308D0
  8
OBJECT
 10
184.24999999999869
 20
-765.00000000000341
 30
0.0
 11
183.49999999999881
 21
-768.00000000000352
 31
0.0
1001
ACDBBLOCKREPETAG
1070
     1
1071
      337
1005
1308D0
  0
ARC
  5
1308D1
  8
OBJECT
 10
158.99999999999881
 20
-775.00000000000352
 30
0.0
 40
8.0
 50
129.5977529999814
 51
288.1583529999624
1001
ACDBBLOCKREPETAG
1070
     1
1071
      338
1005
1308D1
  0
ARC
  5
1308D2
  8
OBJECT
 10
159.93493299999921
 20
-777.8505970000042
 30
0.0
 40
5.0
 50
288.1583529999624
 51
341.51513099992798
1001
ACDBBLOCKREPETAG
1070
     1
1071
      339
1005
1308D2
  0
LINE
  5
1308D3
  8
OBJECT
 10
164.67696999999919
 20
-779.43586800000412
 30
0.0
 11
168.49999999999881
 21
-768.00000000000352
 31
0.0
1001
ACDBBLOCKREPETAG
1070
     1
1071
      340
1005
1308D3
  0
LINE
  5
1308D4
  8
OBJECT
 10
187.32302999999831
 20
-779.43586800000412
 30
0.0
 11
183.49999999999881
 21
-768.00000000000352
 31
0.0
1001
ACDBBLOCKREPETAG
1070
     1
1071
      341
1005
1308D4
  0
ARC
  5
1308D5
  8
OBJECT
 10
234.99999999999881
 20
-738.00000000000352
 30
0.0
 40
3.0
 50
270.0
 51
0.0
1001
ACDBBLOCKREPETAG
1070
     1
1071
      342
1005
1308D5
  0
LINE
  5
1308D6
  8
OBJECT
 10
237.99999999999881
 20
-735.00000000000352
 30
0.0
 11
237.99999999999881
 21
-738.00000000000352
 31
0.0
1001
ACDBBLOCKREPETAG
1070
     1
1071
      343
1005
1308D6
  0
LINE
  5
1308D7
  8
OBJECT
 10
220.49999999999881
 20
-765.00000000000341
 30
0.0
 11
220.49999999999881
 21
-741.00000000000352
 31
0.0
1001
ACDBBLOCKREPETAG
1070
     1
1071
      344
1005
1308D7
  0
INSERT
  5
1308D8
  8
OBJECT
  2
*U8
 10
0.0
 20
0.0
 30
0.0
  0
LINE
  5
1308D9
  8
OBJECT
 10
258.99999999999869
 20
-717.00000000000364
 30
0.0
 11
255.99999999999881
 21
-717.00000000000364
 31
0.0
1001
ACDBBLOCKREPETAG
1070
     1
1071
      418
1005
1308D9
  0
ARC
  5
1308DA
  8
OBJECT
 10
258.99999999999869
 20
-714.00000000000364
 30
0.0
 40
3.0
 50
270.0
 51
0.0
1001
ACDBBLOCKREPETAG
1070
     1
1071
      419
1005
1308DA
  0
LINE
  5
1308DB
  8
OBJECT
 10
255.99999999999881
 20
-593.00000000000364
 30
0.0
 11
258.99999999999869
 21
-593.00000000000364
 31
0.0
1001
ACDBBLOCKREPETAG
1070
     1
1071
      420
1005
1308DB
  0
ARC
  5
1308DC
  8
OBJECT
 10
258.99999999999869
 20
-596.00000000000364
 30
0.0
 40
3.0
 50
0.0
 51
90.0
1001
ACDBBLOCKREPETAG
1070
     1
1071
      421
1005
1308DC
  0
LINE
  5
1308DD
  8
OBJECT
 10
261.99999999999881
 20
-596.00000000000364
 30
0.0
 11
261.99999999999881
 21
-714.00000000000364
 31
0.0
1001
ACDBBLOCKREPETAG
1070
     1
1071
      422
1005
1308DD
  0
INSERT
  5
1308DE
  8
OBJECT
  2
*U9
 10
0.0
 20
0.0
 30
0.0
  0
LINE
  5
1308DF
  8
OBJECT
 10
480.99999999999858
 20
-58.000000000003631
 30
0.0
 11
480.99999999999858
 21
-51.000000000003631
 31
0.0
1001
ACDBBLOCKREPETAG
1070
     1
1071
       20
1005
1308DF
  0
LINE
  5
1308E0
  8
OBJECT
 10
480.99999999999858
 20
-51.000000000003631
 30
0.0
 11
590.99999999999875
 21
-51.000000000003631
 31
0.0
1001
ACDBBLOCKREPETAG
1070
     1
1071
       21
1005
1308E0
  0
LINE
  5
1308E1
  8
OBJECT
 10
590.99999999999875
 20
-51.000000000003631
 30
0.0
 11
590.99999999999875
 21
-58.000000000003631
 31
0.0
1001
ACDBBLOCKREPETAG
1070
     1
1071
       22
1005
1308E1
  0
LINE
  5
1308E2
  8
OBJECT
 10
590.99999999999875
 20
-58.000000000003631
 30
0.0
 11
480.99999999999858
 21
-58.000000000003631
 31
0.0
1001
ACDBBLOCKREPETAG
1070
     1
1071
       23
1005
1308E2
  0
LINE
  5
1308E3
  8
OBJECT
 10
483.99999999999858
 20
-58.000000000003631
 30
0.0
 11
483.99999999999858
 21
-94.000000000003638
 31
0.0
1001
ACDBBLOCKREPETAG
1070
     1
1071
       24
1005
1308E3
  0
LINE
  5
1308E4
  8
OBJECT
 10
483.99999999999858
 20
-94.000000000003638
 30
0.0
 11
587.99999999999875
 21
-94.000000000003638
 31
0.0
1001
ACDBBLOCKREPETAG
1070
     1
1071
       25
1005
1308E4
  0
LINE
  5
1308E5
  8
OBJECT
 10
587.99999999999875
 20
-94.000000000003638
 30
0.0
 11
587.99999999999875
 21
-58.000000000003631
 31
0.0
1001
ACDBBLOCKREPETAG
1070
     1
1071
       26
1005
1308E5
  0
LINE
  5
1308E6
  8
OBJECT
 10
488.49999999999858
 20
-98.000000000003638
 30
0.0
 11
488.49999999999858
 21
-105.0000000000036
 31
0.0
1001
ACDBBLOCKREPETAG
1070
     1
1071
       27
1005
1308E6
  0
LINE
  5
1308E7
  8
OBJECT
 10
583.49999999999875
 20
-105.0000000000036
 30
0.0
 11
583.49999999999875
 21
-98.000000000003638
 31
0.0
1001
ACDBBLOCKREPETAG
1070
     1
1071
       28
1005
1308E7
  0
LINE
  5
1308E8
  8
OBJECT
 10
583.49999999999875
 20
-98.000000000003638
 30
0.0
 11
488.49999999999858
 21
-98.000000000003638
 31
0.0
1001
ACDBBLOCKREPETAG
1070
     1
1071
       29
1005
1308E8
  0
LINE
  5
1308E9
  8
OBJECT
 10
483.99999999999858
 20
-94.000000000003638
 30
0.0
 11
488.49999999999858
 21
-98.000000000003638
 31
0.0
1001
ACDBBLOCKREPETAG
1070
     1
1071
       30
1005
1308E9
  0
LINE
  5
1308EA
  8
OBJECT
 10
587.99999999999875
 20
-94.000000000003638
 30
0.0
 11
583.49999999999875
 21
-98.000000000003638
 31
0.0
1001
ACDBBLOCKREPETAG
1070
     1
1071
       31
1005
1308EA
  0
LINE
  5
1308EB
  8
OBJECT
 10
473.99999999999858
 20
-108.0000000000027
 30
0.0
 11
473.99999999999858
 21
-111.0000000000036
 31
0.0
1001
ACDBBLOCKREPETAG
1070
     1
1071
       32
1005
1308EB
  0
ARC
  5
1308EC
  8
OBJECT
 10
476.99999999999881
 20
-108.0000000000027
 30
0.0
 40
3.0
 50
90.0
 51
180.0
1001
ACDBBLOCKREPETAG
1070
     1
1071
       33
1005
1308EC
  0
LINE
  5
1308ED
  8
OBJECT
 10
597.99999999999875
 20
-111.0000000000036
 30
0.0
 11
597.99999999999875
 21
-108.0000000000045
 31
0.0
1001
ACDBBLOCKREPETAG
1070
     1
1071
       34
1005
1308ED
  0
ARC
  5
1308EE
  8
OBJECT
 10
594.99999999999875
 20
-108.0000000000045
 30
0.0
 40
3.0
 50
0.0
 51
90.0
1001
ACDBBLOCKREPETAG
1070
     1
1071
       35
1005
1308EE
  0
LINE
  5
1308EF
  8
OBJECT
 10
594.99999999999875
 20
-105.0000000000045
 30
0.0
 11
476.99999999999881
 21
-105.0000000000027
 31
0.0
1001
ACDBBLOCKREPETAG
1070
     1
1071
       36
1005
1308EF
  0
LINE
  5
1308F0
  8
HIDDEN
 10
497.99999999999858
 20
-103.0000000000035
 30
0.0
 11
573.99999999999875
 21
-103.0000000000035
 31
0.0
1001
ACDBBLOCKREPETAG
1070
     1
1071
      423
1005
1308F0
  0
LINE
  5
1308F1
  8
OBJECT
 10
594.99999999999875
 20
-277.00000000000358
 30
0.0
 11
476.99999999999881
 21
-277.00000000000358
 31
0.0
1001
ACDBBLOCKREPETAG
1070
     1
1071
      323
1005
1308F1
  0
LINE
  5
1308F2
  8
OBJECT
 10
491.49999999999858
 20
-301.00000000000369
 30
0.0
 11
580.49999999999875
 21
-301.00000000000369
 31
0.0
1001
ACDBBLOCKREPETAG
1070
     1
1071
      324
1005
1308F2
  0
LINE
  5
1308F3
  8
OBJECT
 10
491.49999999999858
 20
-301.00000000000369
 30
0.0
 11
491.49999999999858
 21
-277.00000000000358
 31
0.0
1001
ACDBBLOCKREPETAG
1070
     1
1071
      325
1005
1308F3
  0
LINE
  5
1308F4
  8
OBJECT
 10
473.99999999999858
 20
-271.00000000000358
 30
0.0
 11
473.99999999999858
 21
-274.00000000000369
 31
0.0
1001
ACDBBLOCKREPETAG
1070
     1
1071
      326
1005
1308F4
  0
ARC
  5
1308F5
  8
OBJECT
 10
476.99999999999881
 20
-274.00000000000369
 30
0.0
 40
3.0
 50
180.0
 51
270.0
1001
ACDBBLOCKREPETAG
1070
     1
1071
      327
1005
1308F5
  0
LINE
  5
1308F6
  8
OBJECT
 10
553.82206599999938
 20
-301.00000000000369
 30
0.0
 11
558.10318199999756
 21
-304.83118900000397
 31
0.0
1001
ACDBBLOCKREPETAG
1070
     1
1071
      328
1005
1308F6
  0
ARC
  5
1308F7
  8
OBJECT
 10
552.99999999999875
 20
-311.00000000000358
 30
0.0
 40
8.0
 50
251.8416470000376
 51
50.402247000016089
1001
ACDBBLOCKREPETAG
1070
     1
1071
      329
1005
1308F7
  0
ARC
  5
1308F8
  8
OBJECT
 10
552.06506699999829
 20
-313.8505970000042
 30
0.0
 40
5.0
 50
198.4848690000708
 51
251.8416470000376
1001
ACDBBLOCKREPETAG
1070
     1
1071
      330
1005
1308F8
  0
LINE
  5
1308F9
  8
OBJECT
 10
540.99999999999875
 20
-311.00000000000358
 30
0.0
 11
540.99999999999875
 21
-304.00000000000358
 31
0.0
1001
ACDBBLOCKREPETAG
1070
     1
1071
      331
1005
1308F9
  0
LINE
  5
1308FA
  8
OBJECT
 10
530.99999999999875
 20
-311.00000000000358
 30
0.0
 11
530.99999999999875
 21
-304.00000000000358
 31
0.0
1001
ACDBBLOCKREPETAG
1070
     1
1071
      332
1005
1308FA
  0
LINE
  5
1308FB
  8
OBJECT
 10
540.99999999999875
 20
-311.00000000000358
 30
0.0
 11
530.99999999999875
 21
-311.00000000000358
 31
0.0
1001
ACDBBLOCKREPETAG
1070
     1
1071
      333
1005
1308FB
  0
LINE
  5
1308FC
  8
OBJECT
 10
543.49999999999875
 20
-304.00000000000358
 30
0.0
 11
528.49999999999875
 21
-304.00000000000358
 31
0.0
1001
ACDBBLOCKREPETAG
1070
     1
1071
      334
1005
1308FC
  0
LINE
  5
1308FD
  8
OBJECT
 10
527.74999999999875
 20
-301.00000000000369
 30
0.0
 11
528.49999999999875
 21
-304.00000000000358
 31
0.0
1001
ACDBBLOCKREPETAG
1070
     1
1071
      335
1005
1308FD
  0
LINE
  5
1308FE
  8
OBJECT
 10
518.17793299999778
 20
-301.00000000000369
 30
0.0
 11
513.89681799999801
 21
-304.83118900000397
 31
0.0
1001
ACDBBLOCKREPETAG
1070
     1
1071
      336
1005
1308FE
  0
LINE
  5
1308FF
  8
OBJECT
 10
544.24999999999875
 20
-301.00000000000369
 30
0.0
 11
543.49999999999875
 21
-304.00000000000358
 31
0.0
1001
ACDBBLOCKREPETAG
1070
     1
1071
      337
1005
1308FF
  0
ARC
  5
130900
  8
OBJECT
 10
518.99999999999875
 20
-311.00000000000358
 30
0.0
 40
8.0
 50
129.5977529999839
 51
288.1583529999624
1001
ACDBBLOCKREPETAG
1070
     1
1071
      338
1005
130900
  0
ARC
  5
130901
  8
OBJECT
 10
519.93493299999921
 20
-313.8505970000042
 30
0.0
 40
5.0
 50
288.1583529999624
 51
341.51513099992923
1001
ACDBBLOCKREPETAG
1070
     1
1071
      339
1005
130901
  0
LINE
  5
130902
  8
OBJECT
 10
524.67696999999907
 20
-315.43586800000401
 30
0.0
 11
528.49999999999875
 21
-304.00000000000358
 31
0.0
1001
ACDBBLOCKREPETAG
1070
     1
1071
      340
1005
130902
  0
LINE
  5
130903
  8
OBJECT
 10
547.32302999999831
 20
-315.43586800000401
 30
0.0
 11
543.49999999999875
 21
-304.00000000000358
 31
0.0
1001
ACDBBLOCKREPETAG
1070
     1
1071
      341
1005
130903
  0
ARC
  5
130904
  8
OBJECT
 10
594.99999999999875
 20
-274.00000000000369
 30
0.0
 40
3.0
 50
270.0
 51
0.0
1001
ACDBBLOCKREPETAG
1070
     1
1071
      342
1005
130904
  0
LINE
  5
130905
  8
OBJECT
 10
597.99999999999875
 20
-271.00000000000358
 30
0.0
 11
597.99999999999875
 21
-274.00000000000369
 31
0.0
1001
ACDBBLOCKREPETAG
1070
     1
1071
      343
1005
130905
  0
LINE
  5
130906
  8
OBJECT
 10
580.49999999999875
 20
-301.00000000000369
 30
0.0
 11
580.49999999999875
 21
-277.00000000000358
 31
0.0
1001
ACDBBLOCKREPETAG
1070
     1
1071
      344
1005
130906
  0
INSERT
  5
130907
  8
OBJECT
  2
*U10
 10
0.0
 20
0.0
 30
0.0
  0
LINE
  5
130908
  8
OBJECT
 10
618.99999999999875
 20
-253.00000000000361
 30
0.0
 11
615.99999999999875
 21
-253.00000000000361
 31
0.0
1001
ACDBBLOCKREPETAG
1070
     1
1071
      418
1005
130908
  0
ARC
  5
130909
  8
OBJECT
 10
618.99999999999875
 20
-250.00000000000361
 30
0.0
 40
3.0
 50
270.0
 51
0.0
1001
ACDBBLOCKREPETAG
1070
     1
1071
      419
1005
130909
  0
LINE
  5
13090A
  8
OBJECT
 10
615.99999999999875
 20
-129.00000000000361
 30
0.0
 11
618.99999999999875
 21
-129.00000000000361
 31
0.0
1001
ACDBBLOCKREPETAG
1070
     1
1071
      420
1005
13090A
  0
ARC
  5
13090B
  8
OBJECT
 10
618.99999999999875
 20
-132.00000000000361
 30
0.0
 40
3.0
 50
0.0
 51
90.0
1001
ACDBBLOCKREPETAG
1070
     1
1071
      421
1005
13090B
  0
LINE
  5
13090C
  8
OBJECT
 10
621.99999999999875
 20
-132.00000000000361
 30
0.0
 11
621.99999999999875
 21
-250.00000000000361
 31
0.0
1001
ACDBBLOCKREPETAG
1070
     1
1071
      422
1005
13090C
  0
INSERT
  5
13090D
  8
OBJECT
  2
*U11
 10
0.0
 20
0.0
 30
0.0
  0
LINE
  5
13090E
  8
OBJECT
 10
128.99999999999881
 20
-58.000000000003631
 30
0.0
 11
128.99999999999881
 21
-51.000000000003631
 31
0.0
1001
ACDBBLOCKREPETAG
1070
     1
1071
        1
1005
13090E
  0
LINE
  5
13090F
  8
OBJECT
 10
128.99999999999881
 20
-51.000000000003631
 30
0.0
 11
222.99999999999881
 21
-51.000000000003631
 31
0.0
1001
ACDBBLOCKREPETAG
1070
     1
1071
        2
1005
13090F
  0
LINE
  5
130910
  8
OBJECT
 10
222.99999999999881
 20
-51.000000000003631
 30
0.0
 11
222.99999999999881
 21
-58.000000000003631
 31
0.0
1001
ACDBBLOCKREPETAG
1070
     1
1071
        3
1005
130910
  0
LINE
  5
130911
  8
OBJECT
 10
222.99999999999881
 20
-58.000000000003631
 30
0.0
 11
128.99999999999881
 21
-58.000000000003631
 31
0.0
1001
ACDBBLOCKREPETAG
1070
     1
1071
        4
1005
130911
  0
LINE
  5
130912
  8
OBJECT
 10
131.99999999999881
 20
-58.000000000003631
 30
0.0
 11
131.99999999999881
 21
-94.000000000003638
 31
0.0
1001
ACDBBLOCKREPETAG
1070
     1
1071
        5
1005
130912
  0
LINE
  5
130913
  8
OBJECT
 10
131.99999999999881
 20
-94.000000000003638
 30
0.0
 11
219.99999999999881
 21
-94.000000000003638
 31
0.0
1001
ACDBBLOCKREPETAG
1070
     1
1071
        6
1005
130913
  0
LINE
  5
130914
  8
OBJECT
 10
219.99999999999881
 20
-94.000000000003638
 30
0.0
 11
219.99999999999881
 21
-58.000000000003631
 31
0.0
1001
ACDBBLOCKREPETAG
1070
     1
1071
        7
1005
130914
  0
LINE
  5
130915
  8
OBJECT
 10
136.49999999999881
 20
-98.000000000003638
 30
0.0
 11
136.49999999999881
 21
-105.0000000000036
 31
0.0
1001
ACDBBLOCKREPETAG
1070
     1
1071
        8
1005
130915
  0
LINE
  5
130916
  8
OBJECT
 10
215.49999999999881
 20
-105.0000000000036
 30
0.0
 11
215.49999999999881
 21
-98.000000000003638
 31
0.0
1001
ACDBBLOCKREPETAG
1070
     1
1071
        9
1005
130916
  0
LINE
  5
130917
  8
OBJECT
 10
215.49999999999881
 20
-98.000000000003638
 30
0.0
 11
136.49999999999881
 21
-98.000000000003638
 31
0.0
1001
ACDBBLOCKREPETAG
1070
     1
1071
       10
1005
130917
  0
LINE
  5
130918
  8
OBJECT
 10
131.99999999999881
 20
-94.000000000003638
 30
0.0
 11
136.49999999999881
 21
-98.000000000003638
 31
0.0
1001
ACDBBLOCKREPETAG
1070
     1
1071
       11
1005
130918
  0
LINE
  5
130919
  8
OBJECT
 10
219.99999999999881
 20
-94.000000000003638
 30
0.0
 11
215.49999999999881
 21
-98.000000000003638
 31
0.0
1001
ACDBBLOCKREPETAG
1070
     1
1071
       12
1005
130919
  0
LINE
  5
13091A
  8
OBJECT
 10
113.99999999999881
 20
-108.0000000000027
 30
0.0
 11
113.99999999999881
 21
-111.0000000000036
 31
0.0
1001
ACDBBLOCKREPETAG
1070
     1
1071
       13
1005
13091A
  0
ARC
  5
13091B
  8
OBJECT
 10
116.99999999999871
 20
-108.0000000000027
 30
0.0
 40
3.0
 50
90.0
 51
180.0
1001
ACDBBLOCKREPETAG
1070
     1
1071
       14
1005
13091B
  0
LINE
  5
13091C
  8
OBJECT
 10
237.99999999999881
 20
-111.0000000000036
 30
0.0
 11
237.99999999999881
 21
-108.0000000000045
 31
0.0
1001
ACDBBLOCKREPETAG
1070
     1
1071
       15
1005
13091C
  0
ARC
  5
13091D
  8
OBJECT
 10
234.99999999999881
 20
-108.0000000000045
 30
0.0
 40
3.0
 50
0.0
 51
90.0
1001
ACDBBLOCKREPETAG
1070
     1
1071
       16
1005
13091D
  0
LINE
  5
13091E
  8
OBJECT
 10
234.99999999999881
 20
-105.0000000000045
 30
0.0
 11
116.99999999999871
 21
-105.0000000000027
 31
0.0
1001
ACDBBLOCKREPETAG
1070
     1
1071
       17
1005
13091E
  0
LINE
  5
13091F
  8
HIDDEN
 10
145.99999999999869
 20
-103.0000000000035
 30
0.0
 11
205.99999999999881
 21
-103.0000000000035
 31
0.0
1001
ACDBBLOCKREPETAG
1070
     1
1071
      420
1005
13091F
  0
LINE
  5
130920
  8
OBJECT
 10
234.99999999999881
 20
-277.00000000000358
 30
0.0
 11
116.99999999999871
 21
-277.00000000000358
 31
0.0
1001
ACDBBLOCKREPETAG
1070
     1
1071
      323
1005
130920
  0
LINE
  5
130921
  8
OBJECT
 10
131.49999999999869
 20
-301.00000000000369
 30
0.0
 11
220.49999999999881
 21
-301.00000000000369
 31
0.0
1001
ACDBBLOCKREPETAG
1070
     1
1071
      324
1005
130921
  0
LINE
  5
130922
  8
OBJECT
 10
131.49999999999869
 20
-301.00000000000369
 30
0.0
 11
131.49999999999869
 21
-277.00000000000358
 31
0.0
1001
ACDBBLOCKREPETAG
1070
     1
1071
      325
1005
130922
  0
LINE
  5
130923
  8
OBJECT
 10
113.99999999999881
 20
-271.00000000000358
 30
0.0
 11
113.99999999999881
 21
-274.00000000000369
 31
0.0
1001
ACDBBLOCKREPETAG
1070
     1
1071
      326
1005
130923
  0
ARC
  5
130924
  8
OBJECT
 10
116.99999999999871
 20
-274.00000000000369
 30
0.0
 40
3.0
 50
180.0
 51
270.0
1001
ACDBBLOCKREPETAG
1070
     1
1071
      327
1005
130924
  0
LINE
  5
130925
  8
OBJECT
 10
193.8220659999993
 20
-301.00000000000369
 30
0.0
 11
198.1031819999977
 21
-304.83118900000397
 31
0.0
1001
ACDBBLOCKREPETAG
1070
     1
1071
      328
1005
130925
  0
ARC
  5
130926
  8
OBJECT
 10
192.99999999999869
 20
-311.00000000000358
 30
0.0
 40
8.0
 50
251.8416470000376
 51
50.402247000018619
1001
ACDBBLOCKREPETAG
1070
     1
1071
      329
1005
130926
  0
ARC
  5
130927
  8
OBJECT
 10
192.06506699999829
 20
-313.8505970000042
 30
0.0
 40
5.0
 50
198.48486900007191
 51
251.8416470000376
1001
ACDBBLOCKREPETAG
1070
     1
1071
      330
1005
130927
  0
LINE
  5
130928
  8
OBJECT
 10
180.99999999999881
 20
-311.00000000000358
 30
0.0
 11
180.99999999999881
 21
-304.00000000000358
 31
0.0
1001
ACDBBLOCKREPETAG
1070
     1
1071
      331
1005
130928
  0
LINE
  5
130929
  8
OBJECT
 10
170.99999999999869
 20
-311.00000000000358
 30
0.0
 11
170.99999999999869
 21
-304.00000000000358
 31
0.0
1001
ACDBBLOCKREPETAG
1070
     1
1071
      332
1005
130929
  0
LINE
  5
13092A
  8
OBJECT
 10
180.99999999999881
 20
-311.00000000000358
 30
0.0
 11
170.99999999999869
 21
-311.00000000000358
 31
0.0
1001
ACDBBLOCKREPETAG
1070
     1
1071
      333
1005
13092A
  0
LINE
  5
13092B
  8
OBJECT
 10
183.49999999999881
 20
-304.00000000000358
 30
0.0
 11
168.49999999999881
 21
-304.00000000000358
 31
0.0
1001
ACDBBLOCKREPETAG
1070
     1
1071
      334
1005
13092B
  0
LINE
  5
13092C
  8
OBJECT
 10
167.74999999999869
 20
-301.00000000000369
 30
0.0
 11
168.49999999999881
 21
-304.00000000000358
 31
0.0
1001
ACDBBLOCKREPETAG
1070
     1
1071
      335
1005
13092C
  0
LINE
  5
13092D
  8
OBJECT
 10
158.17793299999781
 20
-301.00000000000369
 30
0.0
 11
153.89681799999801
 21
-304.83118900000397
 31
0.0
1001
ACDBBLOCKREPETAG
1070
     1
1071
      336
1005
13092D
  0
LINE
  5
13092E
  8
OBJECT
 10
184.24999999999869
 20
-301.00000000000369
 30
0.0
 11
183.49999999999881
 21
-304.00000000000358
 31
0.0
1001
ACDBBLOCKREPETAG
1070
     1
1071
      337
1005
13092E
  0
ARC
  5
13092F
  8
OBJECT
 10
158.99999999999881
 20
-311.00000000000358
 30
0.0
 40
8.0
 50
129.5977529999814
 51
288.1583529999624
1001
ACDBBLOCKREPETAG
1070
     1
1071
      338
1005
13092F
  0
ARC
  5
130930
  8
OBJECT
 10
159.93493299999921
 20
-313.8505970000042
 30
0.0
 40
5.0
 50
288.1583529999624
 51
341.51513099992798
1001
ACDBBLOCKREPETAG
1070
     1
1071
      339
1005
130930
  0
LINE
  5
130931
  8
OBJECT
 10
164.67696999999919
 20
-315.43586800000401
 30
0.0
 11
168.49999999999881
 21
-304.00000000000358
 31
0.0
1001
ACDBBLOCKREPETAG
1070
     1
1071
      340
1005
130931
  0
LINE
  5
130932
  8
OBJECT
 10
187.32302999999831
 20
-315.43586800000401
 30
0.0
 11
183.49999999999881
 21
-304.00000000000358
 31
0.0
1001
ACDBBLOCKREPETAG
1070
     1
1071
      341
1005
130932
  0
ARC
  5
130933
  8
OBJECT
 10
234.99999999999881
 20
-274.00000000000369
 30
0.0
 40
3.0
 50
270.0
 51
0.0
1001
ACDBBLOCKREPETAG
1070
     1
1071
      342
1005
130933
  0
LINE
  5
130934
  8
OBJECT
 10
237.99999999999881
 20
-271.00000000000358
 30
0.0
 11
237.99999999999881
 21
-274.00000000000369
 31
0.0
1001
ACDBBLOCKREPETAG
1070
     1
1071
      343
1005
130934
  0
LINE
  5
130935
  8
OBJECT
 10
220.49999999999881
 20
-301.00000000000369
 30
0.0
 11
220.49999999999881
 21
-277.00000000000358
 31
0.0
1001
ACDBBLOCKREPETAG
1070
     1
1071
      344
1005
130935
  0
INSERT
  5
130936
  8
OBJECT
  2
*U12
 10
0.0
 20
0.0
 30
0.0
  0
LINE
  5
130937
  8
OBJECT
 10
258.99999999999869
 20
-253.00000000000361
 30
0.0
 11
255.99999999999881
 21
-253.00000000000361
 31
0.0
1001
ACDBBLOCKREPETAG
1070
     1
1071
      418
1005
130937
  0
ARC
  5
130938
  8
OBJECT
 10
258.99999999999869
 20
-250.00000000000361
 30
0.0
 40
3.0
 50
270.0
 51
0.0
1001
ACDBBLOCKREPETAG
1070
     1
1071
      419
1005
130938
  0
LINE
  5
130939
  8
OBJECT
 10
255.99999999999881
 20
-129.00000000000361
 30
0.0
 11
258.99999999999869
 21
-129.00000000000361
 31
0.0
1001
ACDBBLOCKREPETAG
1070
     1
1071
      420
1005
130939
  0
ARC
  5
13093A
  8
OBJECT
 10
258.99999999999869
 20
-132.00000000000361
 30
0.0
 40
3.0
 50
0.0
 51
90.0
1001
ACDBBLOCKREPETAG
1070
     1
1071
      421
1005
13093A
  0
LINE
  5
13093B
  8
OBJECT
 10
261.99999999999881
 20
-132.00000000000361
 30
0.0
 11
261.99999999999881
 21
-250.00000000000361
 31
0.0
1001
ACDBBLOCKREPETAG
1070
     1
1071
      422
1005
13093B
  0
POLYLINE
  5
13093C
  8
HIDDEN
 66
     1
 10
0.0
 20
0.0
 30
0.0
 70
     1
  0
VERTEX
  5
130D5B
  8
HIDDEN
 10
0.0
 20
0.0
 30
0.0
  0
VERTEX
  5
130D5C
  8
HIDDEN
 10
360.0
 20
0.0
 30
0.0
  0
VERTEX
  5
130D5D
  8
HIDDEN
 10
360.0
 20
-464.0
 30
0.0
  0
VERTEX
  5
130D5E
  8
HIDDEN
 10
0.0
 20
-464.0
 30
0.0
  0
SEQEND
  5
130D5F
  8
HIDDEN
  0
POLYLINE
  5
13093D
  8
HIDDEN
 66
     1
 10
0.0
 20
0.0
 30
0.0
 70
     1
  0
VERTEX
  5
130D60
  8
HIDDEN
 10
360.0
 20
0.0
 30
0.0
  0
VERTEX
  5
130D61
  8
HIDDEN
 10
720.0
 20
0.0
 30
0.0
  0
VERTEX
  5
130D62
  8
HIDDEN
 10
720.0
 20
-464.0
 30
0.0
  0
VERTEX
  5
130D63
  8
HIDDEN
 10
360.0
 20
-464.0
 30
0.0
  0
SEQEND
  5
130D64
  8
HIDDEN
  0
POLYLINE
  5
13093E
  8
HIDDEN
 66
     1
 10
0.0
 20
0.0
 30
0.0
 70
     1
  0
VERTEX
  5
130D65
  8
HIDDEN
 10
0.0
 20
-464.0
 30
0.0
  0
VERTEX
  5
130D66
  8
HIDDEN
 10
360.0
 20
-464.0
 30
0.0
  0
VERTEX
  5
130D67
  8
HIDDEN
 10
360.0
 20
-928.0
 30
0.0
  0
VERTEX
  5
130D68
  8
HIDDEN
 10
0.0
 20
-928.0
 30
0.0
  0
SEQEND
  5
130D69
  8
HIDDEN
  0
POLYLINE
  5
13093F
  8
HIDDEN
 66
     1
 10
0.0
 20
0.0
 30
0.0
 70
     1
  0
VERTEX
  5
130D6A
  8
HIDDEN
 10
360.0
 20
-464.0
 30
0.0
  0
VERTEX
  5
130D6B
  8
HIDDEN
 10
720.0
 20
-464.0
 30
0.0
  0
VERTEX
  5
130D6C
  8
HIDDEN
 10
720.0
 20
-928.0
 30
0.0
  0
VERTEX
  5
130D6D
  8
HIDDEN
 10
360.0
 20
-928.0
 30
0.0
  0
SEQEND
  5
130D6E
  8
HIDDEN
  0
LINE
  5
130940
  8
OBJECT
 10
3923.0
 20
-570.99999999999955
 30
0.0
 11
3923.0
 21
-549.99999999999955
 31
0.0
1001
ACDBBLOCKREPETAG
1070
     1
1071
       36
1005
130940
  0
LINE
  5
130941
  8
OBJECT
 10
3923.0
 20
-549.99999999999955
 30
0.0
 11
4077.0
 21
-549.99999999999955
 31
0.0
1001
ACDBBLOCKREPETAG
1070
     1
1071
       37
1005
130941
  0
LINE
  5
130942
  8
HIDDEN
 10
3943.0
 20
-619.99999999999955
 30
0.0
 11
4057.0
 21
-619.99999999999955
 31
0.0
1001
ACDBBLOCKREPETAG
1070
     1
1071
       38
1005
130942
  0
LINE
  5
130943
  8
OBJECT
 10
4077.0
 20
-549.99999999999955
 30
0.0
 11
4077.0
 21
-570.99999999999955
 31
0.0
1001
ACDBBLOCKREPETAG
1070
     1
1071
       39
1005
130943
  0
LINE
  5
130944
  8
OBJECT
 10
4077.0
 20
-570.99999999999955
 30
0.0
 11
3923.0
 21
-570.99999999999955
 31
0.0
1001
ACDBBLOCKREPETAG
1070
     1
1071
       40
1005
130944
  0
LINE
  5
130945
  8
CENTER
 10
4000.0
 20
-534.99999999999955
 30
0.0
 11
4000.0
 21
-769.99999999999955
 31
0.0
1001
ACDBBLOCKREPETAG
1070
     1
1071
       41
1005
130945
  0
LINE
  5
130946
  8
OBJECT
 10
3928.0
 20
-570.99999999999955
 30
0.0
 11
3928.0
 21
-633.99999999999955
 31
0.0
1001
ACDBBLOCKREPETAG
1070
     1
1071
       42
1005
130946
  0
LINE
  5
130947
  8
OBJECT
 10
4072.0
 20
-633.99999999999955
 30
0.0
 11
4072.0
 21
-570.99999999999955
 31
0.0
1001
ACDBBLOCKREPETAG
1070
     1
1071
       43
1005
130947
  0
LINE
  5
130948
  8
OBJECT
 10
3920.0
 20
-757.99999999999955
 30
0.0
 11
4080.0
 21
-757.99999999999955
 31
0.0
1001
ACDBBLOCKREPETAG
1070
     1
1071
       44
1005
130948
  0
LINE
  5
130949
  8
OBJECT
 10
4080.0
 20
-633.99999999999955
 30
0.0
 11
3920.0
 21
-633.99999999999955
 31
0.0
1001
ACDBBLOCKREPETAG
1070
     1
1071
       45
1005
130949
  0
LINE
  5
13094A
  8
OBJECT
 10
3920.0
 20
-757.99999999999955
 30
0.0
 11
3920.0
 21
-769.99999999999955
 31
0.0
1001
ACDBBLOCKREPETAG
1070
     1
1071
       46
1005
13094A
  0
LINE
  5
13094B
  8
OBJECT
 10
3920.0
 20
-769.99999999999955
 30
0.0
 11
4080.0
 21
-769.99999999999955
 31
0.0
1001
ACDBBLOCKREPETAG
1070
     1
1071
       47
1005
13094B
  0
LINE
  5
13094C
  8
OBJECT
 10
4080.0
 20
-769.99999999999955
 30
0.0
 11
4080.0
 21
-757.99999999999955
 31
0.0
1001
ACDBBLOCKREPETAG
1070
     1
1071
       48
1005
13094C
  0
ARC
  5
13094D
  8
OBJECT
 10
4200.6872746716726
 20
-749.40809941010718
 30
0.0
 40
170.6350503965856
 50
137.44134459184301
 51
149.91949581337221
1001
ACDBBLOCKREPETAG
1070
     1
1071
       52
1005
13094D
  0
ARC
  5
13094E
  8
OBJECT
 10
4200.6872746716726
 20
-642.59190058989179
 30
0.0
 40
170.6350503965856
 50
210.08050418662771
 51
222.55865540815699
1001
ACDBBLOCKREPETAG
1070
     1
1071
       53
1005
13094E
  0
ARC
  5
13094F
  8
OBJECT
 10
3799.3127253283278
 20
-749.40809941010718
 30
0.0
 40
170.6350503965856
 50
30.080504186774089
 51
42.558655408456282
1001
ACDBBLOCKREPETAG
1070
     1
1071
       54
1005
13094F
  0
ARC
  5
130950
  8
OBJECT
 10
3799.3127253283278
 20
-642.59190058989179
 30
0.0
 40
170.6350503965856
 50
317.44134459154373
 51
329.91949581322592
1001
ACDBBLOCKREPETAG
1070
     1
1071
       55
1005
130950
  0
POINT
  5
130951
  8
DOTS
 10
4000.0
 20
-754.99999999999955
 30
0.0
1001
ACDBBLOCKREPETAG
1070
     1
1071
      184
1005
130951
  0
LINE
  5
130952
  8
SLIM
 10
3945.2566704261012
 20
-137.99999999999909
 30
0.0
 11
3955.9548403695781
 21
-127.30183005652231
 31
0.0
1001
GRADIENTCOLOR1ACI
1070
     5
1001
GRADIENTCOLOR2ACI
1070
     2
1001
ACAD
1010
0.0
1020
0.0
1030
0.0
1001
ACDBBLOCKREPETAG
1070
     1
1071
      422
1005
130952
  0
LINE
  5
130953
  8
SLIM
 10
3954.2369265471712
 20
-137.99999999999909
 30
0.0
 11
3972.7507744763329
 21
-119.4861520708364
 31
0.0
1001
GRADIENTCOLOR1ACI
1070
     5
1001
GRADIENTCOLOR2ACI
1070
     2
1001
ACAD
1010
0.0
1020
0.0
1030
0.0
1001
ACDBBLOCKREPETAG
1070
     1
1071
      423
1005
130953
  0
LINE
  5
130954
  8
SLIM
 10
3973.521224312457
 20
-127.6959583557812
 30
0.0
 11
3984.8575146748631
 21
-116.359667993377
 31
0.0
1001
GRADIENTCOLOR1ACI
1070
     5
1001
GRADIENTCOLOR2ACI
1070
     2
1001
ACAD
1010
0.0
1020
0.0
1030
0.0
1001
ACDBBLOCKREPETAG
1070
     1
1071
      424
1005
130954
  0
LINE
  5
130955
  8
SLIM
 10
3985.8944171461271
 20
-124.30302164318159
 30
0.0
 11
3995.0533812002559
 21
-115.1440575890517
 31
0.0
1001
GRADIENTCOLOR1ACI
1070
     5
1001
GRADIENTCOLOR2ACI
1070
     2
1001
ACAD
1010
0.0
1020
0.0
1030
0.0
1001
ACDBBLOCKREPETAG
1070
     1
1071
      425
1005
130955
  0
LINE
  5
130956
  8
SLIM
 10
3996.0777327492078
 20
-123.0999621611699
 30
0.0
 11
4000.0
 21
-119.1776949103767
 31
0.0
1001
GRADIENTCOLOR1ACI
1070
     5
1001
GRADIENTCOLOR2ACI
1070
     2
1001
ACAD
1010
0.0
1020
0.0
1030
0.0
1001
ACDBBLOCKREPETAG
1070
     1
1071
      426
1005
130956
  0
LINE
  5
130957
  8
SLIM
 10
4000.0
 20
-119.1776949103767
 30
0.0
 11
4004.0797313529042
 21
-115.0979635574724
 31
0.0
1001
GRADIENTCOLOR1ACI
1070
     5
1001
GRADIENTCOLOR2ACI
1070
     2
1001
ACAD
1010
0.0
1020
0.0
1030
0.0
1001
ACDBBLOCKREPETAG
1070
     1
1071
      427
1005
130957
  0
LINE
  5
130958
  8
SLIM
 10
4004.9957202542769
 20
-123.1622307771683
 30
0.0
 11
4012.2679784105749
 21
-115.88997262087101
 31
0.0
1001
GRADIENTCOLOR1ACI
1070
     5
1001
GRADIENTCOLOR2ACI
1070
     2
1001
ACAD
1010
0.0
1020
0.0
1030
0.0
1001
ACDBBLOCKREPETAG
1070
     1
1071
      428
1005
130958
  0
LINE
  5
130959
  8
SLIM
 10
4013.028059366964
 20
-124.1101477855505
 30
0.0
 11
4019.799941457361
 21
-117.3382656951526
 31
0.0
1001
GRADIENTCOLOR1ACI
1070
     5
1001
GRADIENTCOLOR2ACI
1070
     2
1001
ACAD
1010
0.0
1020
0.0
1030
0.0
1001
ACDBBLOCKREPETAG
1070
     1
1071
      429
1005
130959
  0
LINE
  5
13095A
  8
SLIM
 10
4020.3740813142458
 20
-125.7443819593383
 30
0.0
 11
4026.7872038672799
 21
-119.3312594063044
 31
0.0
1001
GRADIENTCOLOR1ACI
1070
     5
1001
GRADIENTCOLOR2ACI
1070
     2
1001
ACAD
1010
0.0
1020
0.0
1030
0.0
1001
ACDBBLOCKREPETAG
1070
     1
1071
      430
1005
13095A
  0
LINE
  5
13095B
  8
SLIM
 10
4027.1524719988752
 20
-127.946247395778
 30
0.0
 11
4033.3030030760328
 21
-121.7957163186195
 31
0.0
1001
GRADIENTCOLOR1ACI
1070
     5
1001
GRADIENTCOLOR2ACI
1070
     2
1001
ACAD
1010
0.0
1020
0.0
1030
0.0
1001
ACDBBLOCKREPETAG
1070
     1
1071
      431
1005
13095B
  0
LINE
  5
13095C
  8
SLIM
 10
4033.4390986513308
 20
-130.63987686439191
 30
0.0
 11
4039.3973119843781
 21
-124.6816635313439
 31
0.0
1001
GRADIENTCOLOR1ACI
1070
     5
1001
GRADIENTCOLOR2ACI
1070
     2
1001
ACAD
1010
0.0
1020
0.0
1030
0.0
1001
ACDBBLOCKREPETAG
1070
     1
1071
      432
1005
13095C
  0
LINE
  5
13095D
  8
SLIM
 10
4039.284224621797
 20
-133.77500701499321
 30
0.0
 11
4045.1047705343681
 21
-127.95446110242381
 31
0.0
1001
GRADIENTCOLOR1ACI
1070
     5
1001
GRADIENTCOLOR2ACI
1070
     2
1001
ACAD
1010
0.0
1020
0.0
1030
0.0
1001
ACDBBLOCKREPETAG
1070
     1
1071
      433
1005
13095D
  0
LINE
  5
13095E
  8
SLIM
 10
4044.7212801698038
 20
-137.31820758805651
 30
0.0
 11
4050.4491557891961
 21
-131.59033196866449
 31
0.0
1001
GRADIENTCOLOR1ACI
1070
     5
1001
GRADIENTCOLOR2ACI
1070
     2
1001
ACAD
1010
0.0
1020
0.0
1030
0.0
1001
ACDBBLOCKREPETAG
1070
     1
1071
      434
1005
13095E
  0
LINE
  5
13095F
  8
SLIM
 10
4053.0197438789291
 20
-137.99999999999909
 30
0.0
 11
4055.4459941864038
 21
-135.57374969252561
 31
0.0
1001
GRADIENTCOLOR1ACI
1070
     5
1001
GRADIENTCOLOR2ACI
1070
     2
1001
ACAD
1010
0.0
1020
0.0
1030
0.0
1001
ACDBBLOCKREPETAG
1070
     1
1071
      435
1005
13095F
  0
LINE
  5
130960
  8
CENTER
 10
4000.0
 20
-279.99999999999909
 30
0.0
 11
4000.0
 21
-99.999999999999091
 31
0.0
1001
ACDBBLOCKREPETAG
1070
     1
1071
      160
1005
130960
  0
CIRCLE
  5
130961
  8
OBJECT
 10
4000.0
 20
-199.99999999999909
 30
0.0
 40
70.0
1001
ACDBBLOCKREPETAG
1070
     1
1071
      161
1005
130961
  0
CIRCLE
  5
130962
  8
OBJECT
 10
4000.0
 20
-199.99999999999909
 30
0.0
 40
77.0
1001
ACDBBLOCKREPETAG
1070
     1
1071
      162
1005
130962
  0
LINE
  5
130963
  8
OBJECT
 10
4045.661800227324
 20
-137.99999999999909
 30
0.0
 11
4080.0
 21
-137.99999999999909
 31
0.0
1001
ACDBBLOCKREPETAG
1070
     1
1071
      164
1005
130963
  0
LINE
  5
130964
  8
OBJECT
 10
4062.0
 20
-261.99999999999909
 30
0.0
 11
4080.0
 21
-261.99999999999909
 31
0.0
1001
ACDBBLOCKREPETAG
1070
     1
1071
      165
1005
130964
  0
LINE
  5
130965
  8
OBJECT
 10
4062.0
 20
-261.99999999999909
 30
0.0
 11
4062.0
 21
-279.99999999999909
 31
0.0
1001
ACDBBLOCKREPETAG
1070
     1
1071
      167
1005
130965
  0
LINE
  5
130966
  8
OBJECT
 10
3938.0
 20
-261.99999999999909
 30
0.0
 11
3938.0
 21
-279.99999999999909
 31
0.0
1001
ACDBBLOCKREPETAG
1070
     1
1071
      168
1005
130966
  0
LINE
  5
130967
  8
OBJECT
 10
3938.0
 20
-261.99999999999909
 30
0.0
 11
3920.0
 21
-261.99999999999909
 31
0.0
1001
ACDBBLOCKREPETAG
1070
     1
1071
      170
1005
130967
  0
LINE
  5
130968
  8
OBJECT
 10
3954.338199772676
 20
-137.99999999999909
 30
0.0
 11
3920.0
 21
-137.99999999999909
 31
0.0
1001
ACDBBLOCKREPETAG
1070
     1
1071
      171
1005
130968
  0
LINE
  5
130969
  8
OBJECT
 10
3945.5527778486362
 20
-254.44722215136329
 30
0.0
 11
3938.0
 21
-261.99999999999909
 31
0.0
1001
ACDBBLOCKREPETAG
1070
     1
1071
      180
1005
130969
  0
LINE
  5
13096A
  8
OBJECT
 10
4054.4472221513638
 20
-254.44722215136329
 30
0.0
 11
4062.0
 21
-261.99999999999909
 31
0.0
1001
ACDBBLOCKREPETAG
1070
     1
1071
      181
1005
13096A
  0
POINT
  5
13096B
  8
DOTS
 10
4000.0
 20
-199.99999999999909
 30
0.0
 50
270.0
1001
ACDBBLOCKREPETAG
1070
     1
1071
      182
1005
13096B
  0
ARC
  5
13096C
  8
OBJECT
 10
4000.0
 20
-199.99999999999909
 30
0.0
 40
85.0
 50
46.837102859806208
 51
133.16289714019371
1001
ACDBBLOCKREPETAG
1070
     1
1071
      183
1005
13096C
  0
CIRCLE
  5
13096D
  8
OBJECT
 10
4000.0
 20
-199.99999999999909
 30
0.0
 40
53.5
1001
ACDBBLOCKREPETAG
1070
     1
1071
      352
1005
13096D
  0
LINE
  5
13096E
  8
CENTER
 10
4080.0
 20
-199.99999999999909
 30
0.0
 11
3920.0
 21
-199.99999999999909
 31
0.0
1001
ACDBBLOCKREPETAG
1070
     1
1071
      158
1005
13096E
  0
LINE
  5
13096F
  8
CENTER
 10
3920.0
 20
-199.99999999999909
 30
0.0
 11
3865.0
 21
-199.99999999999909
 31
0.0
1001
ACDBBLOCKREPETAG
1070
     1
1071
      352
1005
13096F
  0
LINE
  5
130970
  8
OBJECT
 10
3914.0
 20
-140.99999999999821
 30
0.0
 11
3914.0
 21
-258.99999999999818
 31
0.0
1001
ACDBBLOCKREPETAG
1070
     1
1071
      353
1005
130970
  0
LINE
  5
130971
  8
OBJECT
 10
3890.0
 20
-244.49999999999909
 30
0.0
 11
3890.0
 21
-155.49999999999909
 31
0.0
1001
ACDBBLOCKREPETAG
1070
     1
1071
      354
1005
130971
  0
LINE
  5
130972
  8
OBJECT
 10
3890.0
 20
-244.49999999999909
 30
0.0
 11
3914.0
 21
-244.49999999999909
 31
0.0
1001
ACDBBLOCKREPETAG
1070
     1
1071
      355
1005
130972
  0
LINE
  5
130973
  8
OBJECT
 10
3920.0
 20
-261.99999999999818
 30
0.0
 11
3917.0
 21
-261.99999999999818
 31
0.0
1001
ACDBBLOCKREPETAG
1070
     1
1071
      356
1005
130973
  0
ARC
  5
130974
  8
OBJECT
 10
3917.0
 20
-258.99999999999818
 30
0.0
 40
3.0
 50
180.0
 51
270.0
1001
ACDBBLOCKREPETAG
1070
     1
1071
      357
1005
130974
  0
LINE
  5
130975
  8
OBJECT
 10
3890.0
 20
-182.17793399999931
 30
0.0
 11
3886.168811
 21
-177.8968179999992
 31
0.0
1001
ACDBBLOCKREPETAG
1070
     1
1071
      358
1005
130975
  0
ARC
  5
130976
  8
OBJECT
 10
3880.0
 20
-182.99999999999821
 30
0.0
 40
8.0
 50
39.597752999855899
 51
198.1583529999063
1001
ACDBBLOCKREPETAG
1070
     1
1071
      359
1005
130976
  0
ARC
  5
130977
  8
OBJECT
 10
3877.149402999999
 20
-183.93493299999861
 30
0.0
 40
5.0
 50
198.1583529999063
 51
251.5151310000939
1001
ACDBBLOCKREPETAG
1070
     1
1071
      360
1005
130977
  0
LINE
  5
130978
  8
OBJECT
 10
3880.0
 20
-194.99999999999909
 30
0.0
 11
3887.0
 21
-194.99999999999909
 31
0.0
1001
ACDBBLOCKREPETAG
1070
     1
1071
      361
1005
130978
  0
LINE
  5
130979
  8
OBJECT
 10
3880.0
 20
-204.99999999999909
 30
0.0
 11
3887.0
 21
-204.99999999999909
 31
0.0
1001
ACDBBLOCKREPETAG
1070
     1
1071
      362
1005
130979
  0
LINE
  5
13097A
  8
OBJECT
 10
3880.0
 20
-194.99999999999909
 30
0.0
 11
3880.0
 21
-204.99999999999909
 31
0.0
1001
ACDBBLOCKREPETAG
1070
     1
1071
      363
1005
13097A
  0
LINE
  5
13097B
  8
OBJECT
 10
3887.0
 20
-192.49999999999909
 30
0.0
 11
3887.0
 21
-207.49999999999909
 31
0.0
1001
ACDBBLOCKREPETAG
1070
     1
1071
      364
1005
13097B
  0
LINE
  5
13097C
  8
OBJECT
 10
3890.0
 20
-208.24999999999909
 30
0.0
 11
3887.0
 21
-207.49999999999909
 31
0.0
1001
ACDBBLOCKREPETAG
1070
     1
1071
      365
1005
13097C
  0
LINE
  5
13097D
  8
OBJECT
 10
3890.0
 20
-217.82206699999909
 30
0.0
 11
3886.168811
 21
-222.1031819999998
 31
0.0
1001
ACDBBLOCKREPETAG
1070
     1
1071
      366
1005
13097D
  0
LINE
  5
13097E
  8
OBJECT
 10
3890.0
 20
-191.74999999999909
 30
0.0
 11
3887.0
 21
-192.49999999999909
 31
0.0
1001
ACDBBLOCKREPETAG
1070
     1
1071
      367
1005
13097E
  0
ARC
  5
13097F
  8
OBJECT
 10
3880.0
 20
-216.99999999999821
 30
0.0
 40
8.0
 50
161.8416470000935
 51
320.40224700014409
1001
ACDBBLOCKREPETAG
1070
     1
1071
      368
1005
13097F
  0
ARC
  5
130980
  8
OBJECT
 10
3877.149402999999
 20
-216.0650669999994
 30
0.0
 40
5.0
 50
108.484868999906
 51
161.8416470000935
1001
ACDBBLOCKREPETAG
1070
     1
1071
      369
1005
130980
  0
LINE
  5
130981
  8
OBJECT
 10
3875.564132
 20
-211.32302999999959
 30
0.0
 11
3887.0
 21
-207.49999999999909
 31
0.0
1001
ACDBBLOCKREPETAG
1070
     1
1071
      370
1005
130981
  0
LINE
  5
130982
  8
OBJECT
 10
3875.564132
 20
-188.67696999999851
 30
0.0
 11
3887.0
 21
-192.49999999999909
 31
0.0
1001
ACDBBLOCKREPETAG
1070
     1
1071
      371
1005
130982
  0
ARC
  5
130983
  8
OBJECT
 10
3917.0
 20
-140.99999999999821
 30
0.0
 40
3.0
 50
90.0
 51
180.0
1001
ACDBBLOCKREPETAG
1070
     1
1071
      372
1005
130983
  0
LINE
  5
130984
  8
OBJECT
 10
3920.0
 20
-137.99999999999821
 30
0.0
 11
3917.0
 21
-137.99999999999821
 31
0.0
1001
ACDBBLOCKREPETAG
1070
     1
1071
      373
1005
130984
  0
LINE
  5
130985
  8
OBJECT
 10
3890.0
 20
-155.49999999999909
 30
0.0
 11
3914.0
 21
-155.49999999999909
 31
0.0
1001
ACDBBLOCKREPETAG
1070
     1
1071
      374
1005
130985
  0
LINE
  5
130986
  8
CENTER
 10
4000.0
 20
-300.99999999999898
 30
0.0
 11
4000.0
 21
-279.99999999999909
 31
0.0
1001
ACDBBLOCKREPETAG
1070
     1
1071
        0
1005
130986
  0
LINE
  5
130987
  8
OBJECT
 10
4062.0
 20
-283.0
 30
0.0
 11
4062.0
 21
-279.99999999999909
 31
0.0
1001
ACDBBLOCKREPETAG
1070
     1
1071
        1
1005
130987
  0
ARC
  5
130988
  8
OBJECT
 10
4059.0
 20
-283.0
 30
0.0
 40
3.0
 50
270.0
 51
0.0
1001
ACDBBLOCKREPETAG
1070
     1
1071
        2
1005
130988
  0
LINE
  5
130989
  8
OBJECT
 10
3938.0
 20
-279.99999999999909
 30
0.0
 11
3938.0
 21
-282.99999999999818
 31
0.0
1001
ACDBBLOCKREPETAG
1070
     1
1071
        3
1005
130989
  0
ARC
  5
13098A
  8
OBJECT
 10
3941.0
 20
-282.99999999999818
 30
0.0
 40
3.0
 50
180.0
 51
270.0
1001
ACDBBLOCKREPETAG
1070
     1
1071
        4
1005
13098A
  0
LINE
  5
13098B
  8
OBJECT
 10
3941.0
 20
-285.99999999999818
 30
0.0
 11
4059.0
 21
-286.0
 31
0.0
1001
ACDBBLOCKREPETAG
1070
     1
1071
        5
1005
13098B
  0
LINE
  5
13098C
  8
OBJECT
 10
4133.0
 20
-137.99999999999909
 30
0.0
 11
4140.0
 21
-137.99999999999909
 31
0.0
1001
ACDBBLOCKREPETAG
1070
     1
1071
       47
1005
13098C
  0
LINE
  5
13098D
  8
OBJECT
 10
4140.0
 20
-137.99999999999909
 30
0.0
 11
4140.0
 21
-261.99999999999909
 31
0.0
1001
ACDBBLOCKREPETAG
1070
     1
1071
       48
1005
13098D
  0
LINE
  5
13098E
  8
OBJECT
 10
4140.0
 20
-261.99999999999909
 30
0.0
 11
4133.0
 21
-261.99999999999909
 31
0.0
1001
ACDBBLOCKREPETAG
1070
     1
1071
       49
1005
13098E
  0
LINE
  5
13098F
  8
OBJECT
 10
4133.0
 20
-261.99999999999909
 30
0.0
 11
4133.0
 21
-137.99999999999909
 31
0.0
1001
ACDBBLOCKREPETAG
1070
     1
1071
       50
1005
13098F
  0
LINE
  5
130990
  8
CENTER
 10
4155.0
 20
-199.99999999999909
 30
0.0
 11
4080.0
 21
-199.99999999999909
 31
0.0
1001
ACDBBLOCKREPETAG
1070
     1
1071
       51
1005
130990
  0
LINE
  5
130991
  8
OBJECT
 10
4133.0
 20
-140.99999999999909
 30
0.0
 11
4097.0
 21
-140.99999999999909
 31
0.0
1001
ACDBBLOCKREPETAG
1070
     1
1071
       52
1005
130991
  0
LINE
  5
130992
  8
OBJECT
 10
4097.0
 20
-140.99999999999909
 30
0.0
 11
4097.0
 21
-258.99999999999909
 31
0.0
1001
ACDBBLOCKREPETAG
1070
     1
1071
       53
1005
130992
  0
LINE
  5
130993
  8
OBJECT
 10
4097.0
 20
-258.99999999999909
 30
0.0
 11
4133.0
 21
-258.99999999999909
 31
0.0
1001
ACDBBLOCKREPETAG
1070
     1
1071
       54
1005
130993
  0
LINE
  5
130994
  8
OBJECT
 10
4093.0
 20
-145.49999999999909
 30
0.0
 11
4086.0
 21
-145.49999999999909
 31
0.0
1001
ACDBBLOCKREPETAG
1070
     1
1071
       55
1005
130994
  0
LINE
  5
130995
  8
OBJECT
 10
4086.0
 20
-254.49999999999909
 30
0.0
 11
4093.0
 21
-254.49999999999909
 31
0.0
1001
ACDBBLOCKREPETAG
1070
     1
1071
       56
1005
130995
  0
LINE
  5
130996
  8
OBJECT
 10
4093.0
 20
-254.49999999999909
 30
0.0
 11
4093.0
 21
-145.49999999999909
 31
0.0
1001
ACDBBLOCKREPETAG
1070
     1
1071
       57
1005
130996
  0
LINE
  5
130997
  8
OBJECT
 10
4097.0
 20
-140.99999999999909
 30
0.0
 11
4093.0
 21
-145.49999999999909
 31
0.0
1001
ACDBBLOCKREPETAG
1070
     1
1071
       58
1005
130997
  0
LINE
  5
130998
  8
OBJECT
 10
4097.0
 20
-258.99999999999909
 30
0.0
 11
4093.0
 21
-254.49999999999909
 31
0.0
1001
ACDBBLOCKREPETAG
1070
     1
1071
       59
1005
130998
  0
LINE
  5
130999
  8
OBJECT
 10
4083.0
 20
-137.99999999999909
 30
0.0
 11
4080.0
 21
-137.99999999999909
 31
0.0
1001
ACDBBLOCKREPETAG
1070
     1
1071
       60
1005
130999
  0
ARC
  5
13099A
  8
OBJECT
 10
4083.0
 20
-140.99999999999909
 30
0.0
 40
3.0
 50
0.0
 51
90.0
1001
ACDBBLOCKREPETAG
1070
     1
1071
       61
1005
13099A
  0
LINE
  5
13099B
  8
OBJECT
 10
4080.0
 20
-261.99999999999909
 30
0.0
 11
4083.0
 21
-261.99999999999909
 31
0.0
1001
ACDBBLOCKREPETAG
1070
     1
1071
       62
1005
13099B
  0
ARC
  5
13099C
  8
OBJECT
 10
4083.0
 20
-258.99999999999909
 30
0.0
 40
3.0
 50
270.0
 51
0.0
1001
ACDBBLOCKREPETAG
1070
     1
1071
       63
1005
13099C
  0
LINE
  5
13099D
  8
OBJECT
 10
4086.0
 20
-258.99999999999909
 30
0.0
 11
4086.0
 21
-140.99999999999909
 31
0.0
1001
ACDBBLOCKREPETAG
1070
     1
1071
       64
1005
13099D
  0
LINE
  5
13099E
  8
HIDDEN
 10
4088.0
 20
-155.49999999999909
 30
0.0
 11
4088.0
 21
-244.49999999999909
 31
0.0
1001
ACDBBLOCKREPETAG
1070
     1
1071
       65
1005
13099E
  0
LINE
  5
13099F
  8
OBJECT
 10
3880.0
 20
-691.0
 30
0.0
 11
3887.0
 21
-691.0
 31
0.0
1001
ACDBBLOCKREPETAG
1070
     1
1071
      303
1005
13099F
  0
LINE
  5
1309A0
  8
OBJECT
 10
3880.0
 20
-701.0
 30
0.0
 11
3887.0
 21
-701.0
 31
0.0
1001
ACDBBLOCKREPETAG
1070
     1
1071
      304
1005
1309A0
  0
LINE
  5
1309A1
  8
OBJECT
 10
3880.0
 20
-691.0
 30
0.0
 11
3880.0
 21
-693.76802120323453
 31
0.0
1001
ACDBBLOCKREPETAG
1070
     1
1071
      305
1005
1309A1
  0
LINE
  5
1309A2
  8
OBJECT
 10
3880.0
 20
-698.23197871206878
 30
0.0
 11
3880.0
 21
-701.0
 31
0.0
1001
ACDBBLOCKREPETAG
1070
     1
1071
      306
1005
1309A2
  0
LINE
  5
1309A3
  8
OBJECT
 10
3887.0
 20
-688.49999999999977
 30
0.0
 11
3887.0
 21
-693.49910050411825
 31
0.0
1001
ACDBBLOCKREPETAG
1070
     1
1071
      307
1005
1309A3
  0
LINE
  5
1309A4
  8
OBJECT
 10
3887.0
 20
-698.50089931361958
 30
0.0
 11
3887.0
 21
-703.5
 31
0.0
1001
ACDBBLOCKREPETAG
1070
     1
1071
      308
1005
1309A4
  0
LINE
  5
1309A5
  8
OBJECT
 10
3890.0
 20
-704.25
 30
0.0
 11
3887.0
 21
-703.5
 31
0.0
1001
ACDBBLOCKREPETAG
1070
     1
1071
      309
1005
1309A5
  0
LINE
  5
1309A6
  8
OBJECT
 10
3890.0
 20
-687.75
 30
0.0
 11
3887.0
 21
-688.49999999999977
 31
0.0
1001
ACDBBLOCKREPETAG
1070
     1
1071
      310
1005
1309A6
  0
ARC
  5
1309A7
  8
OBJECT
 10
3874.0
 20
-696.0
 30
0.0
 40
2.0
 50
92.200063947769905
 51
267.79993684947868
1001
ACDBBLOCKREPETAG
1070
     1
1071
      311
1005
1309A7
  0
LINE
  5
1309A8
  8
OBJECT
 10
3890.0
 20
-698.61615099999835
 30
0.0
 11
3873.9232221790849
 21
-697.99852574819931
 31
0.0
1001
ACDBBLOCKREPETAG
1070
     1
1071
      312
1005
1309A8
  0
LINE
  5
1309A9
  8
OBJECT
 10
3890.0
 20
-693.3838487759258
 30
0.0
 11
3873.9232221512689
 21
-694.00147425286923
 31
0.0
1001
ACDBBLOCKREPETAG
1070
     1
1071
      313
1005
1309A9
  0
LINE
  5
1309AA
  8
CENTER
 10
3929.0
 20
-696.0
 30
0.0
 11
3857.0
 21
-696.0
 31
0.0
1001
ACDBBLOCKREPETAG
1070
     1
1071
      314
1005
1309AA
  0
LINE
  5
1309AB
  8
OBJECT
 10
3914.0
 20
-636.9999999999992
 30
0.0
 11
3914.0
 21
-754.99999999999898
 31
0.0
1001
ACDBBLOCKREPETAG
1070
     1
1071
      315
1005
1309AB
  0
LINE
  5
1309AC
  8
OBJECT
 10
3890.0
 20
-740.5
 30
0.0
 11
3890.0
 21
-651.5
 31
0.0
1001
ACDBBLOCKREPETAG
1070
     1
1071
      316
1005
1309AC
  0
LINE
  5
1309AD
  8
OBJECT
 10
3890.0
 20
-740.5
 30
0.0
 11
3914.0
 21
-740.5
 31
0.0
1001
ACDBBLOCKREPETAG
1070
     1
1071
      317
1005
1309AD
  0
LINE
  5
1309AE
  8
OBJECT
 10
3920.0
 20
-757.9999999999992
 30
0.0
 11
3917.0
 21
-757.9999999999992
 31
0.0
1001
ACDBBLOCKREPETAG
1070
     1
1071
      318
1005
1309AE
  0
ARC
  5
1309AF
  8
OBJECT
 10
3917.0
 20
-754.99999999999898
 30
0.0
 40
3.0
 50
180.0
 51
270.0
1001
ACDBBLOCKREPETAG
1070
     1
1071
      319
1005
1309AF
  0
ARC
  5
1309B0
  8
OBJECT
 10
3917.0
 20
-636.9999999999992
 30
0.0
 40
3.0
 50
90.0
 51
180.0
1001
ACDBBLOCKREPETAG
1070
     1
1071
      320
1005
1309B0
  0
LINE
  5
1309B1
  8
OBJECT
 10
3920.0
 20
-633.99999999999898
 30
0.0
 11
3917.0
 21
-633.99999999999898
 31
0.0
1001
ACDBBLOCKREPETAG
1070
     1
1071
      321
1005
1309B1
  0
LINE
  5
1309B2
  8
OBJECT
 10
3890.0
 20
-651.5
 30
0.0
 11
3914.0
 21
-651.5
 31
0.0
1001
ACDBBLOCKREPETAG
1070
     1
1071
      322
1005
1309B2
  0
CIRCLE
  5
1309B3
  8
OBJECT
 10
4000.0
 20
-696.0
 30
0.0
 40
62.0
1001
ACDBBLOCKREPETAG
1070
     1
1071
        0
1005
1309B3
  0
LINE
  5
1309B4
  8
OBJECT
 10
4133.0
 20
-634.0
 30
0.0
 11
4140.0
 21
-634.0
 31
0.0
1001
ACDBBLOCKREPETAG
1070
     1
1071
       45
1005
1309B4
  0
LINE
  5
1309B5
  8
OBJECT
 10
4140.0
 20
-634.0
 30
0.0
 11
4140.0
 21
-755.0
 31
0.0
1001
ACDBBLOCKREPETAG
1070
     1
1071
       46
1005
1309B5
  0
LINE
  5
1309B6
  8
OBJECT
 10
4133.0
 20
-755.0
 30
0.0
 11
4133.0
 21
-634.0
 31
0.0
1001
ACDBBLOCKREPETAG
1070
     1
1071
       47
1005
1309B6
  0
LINE
  5
1309B7
  8
CENTER
 10
4155.0
 20
-696.0
 30
0.0
 11
4071.0
 21
-696.0
 31
0.0
1001
ACDBBLOCKREPETAG
1070
     1
1071
       48
1005
1309B7
  0
LINE
  5
1309B8
  8
OBJECT
 10
4133.0
 20
-637.0
 30
0.0
 11
4097.0
 21
-637.0
 31
0.0
1001
ACDBBLOCKREPETAG
1070
     1
1071
       49
1005
1309B8
  0
LINE
  5
1309B9
  8
OBJECT
 10
4097.0
 20
-637.0
 30
0.0
 11
4097.0
 21
-755.0
 31
0.0
1001
ACDBBLOCKREPETAG
1070
     1
1071
       50
1005
1309B9
  0
LINE
  5
1309BA
  8
OBJECT
 10
4097.0
 20
-755.0
 30
0.0
 11
4140.0
 21
-755.0
 31
0.0
1001
ACDBBLOCKREPETAG
1070
     1
1071
       51
1005
1309BA
  0
LINE
  5
1309BB
  8
OBJECT
 10
4093.0
 20
-641.5
 30
0.0
 11
4086.0
 21
-641.5
 31
0.0
1001
ACDBBLOCKREPETAG
1070
     1
1071
       52
1005
1309BB
  0
LINE
  5
1309BC
  8
OBJECT
 10
4086.0
 20
-750.49999999999989
 30
0.0
 11
4093.0
 21
-750.49999999999989
 31
0.0
1001
ACDBBLOCKREPETAG
1070
     1
1071
       53
1005
1309BC
  0
LINE
  5
1309BD
  8
OBJECT
 10
4093.0
 20
-750.49999999999989
 30
0.0
 11
4093.0
 21
-641.5
 31
0.0
1001
ACDBBLOCKREPETAG
1070
     1
1071
       54
1005
1309BD
  0
LINE
  5
1309BE
  8
OBJECT
 10
4097.0
 20
-637.0
 30
0.0
 11
4093.0
 21
-641.5
 31
0.0
1001
ACDBBLOCKREPETAG
1070
     1
1071
       55
1005
1309BE
  0
LINE
  5
1309BF
  8
OBJECT
 10
4097.0
 20
-755.0
 30
0.0
 11
4093.0
 21
-750.49999999999989
 31
0.0
1001
ACDBBLOCKREPETAG
1070
     1
1071
       56
1005
1309BF
  0
LINE
  5
1309C0
  8
OBJECT
 10
4083.0
 20
-634.0
 30
0.0
 11
4080.0
 21
-634.0
 31
0.0
1001
ACDBBLOCKREPETAG
1070
     1
1071
       57
1005
1309C0
  0
ARC
  5
1309C1
  8
OBJECT
 10
4083.0
 20
-637.0
 30
0.0
 40
3.0
 50
0.0
 51
90.0
1001
ACDBBLOCKREPETAG
1070
     1
1071
       58
1005
1309C1
  0
LINE
  5
1309C2
  8
OBJECT
 10
4080.0
 20
-758.0
 30
0.0
 11
4083.0
 21
-758.0
 31
0.0
1001
ACDBBLOCKREPETAG
1070
     1
1071
       59
1005
1309C2
  0
ARC
  5
1309C3
  8
OBJECT
 10
4083.0
 20
-755.0
 30
0.0
 40
3.0
 50
270.0
 51
0.0
1001
ACDBBLOCKREPETAG
1070
     1
1071
       60
1005
1309C3
  0
LINE
  5
1309C4
  8
OBJECT
 10
4086.0
 20
-755.0
 30
0.0
 11
4086.0
 21
-637.0
 31
0.0
1001
ACDBBLOCKREPETAG
1070
     1
1071
       61
1005
1309C4
  0
LINE
  5
1309C5
  8
HIDDEN
 10
4088.0
 20
-651.5
 30
0.0
 11
4088.0
 21
-740.5
 31
0.0
1001
ACDBBLOCKREPETAG
1070
     1
1071
       63
1005
1309C5
  0
TEXT
  5
1309C6
  8
SLIM
 10
3698.5
 20
-1689.666666666664
 30
0.0
 40
28.0
  1
　※ 掃除口（CO）の正面にはメンテナンススペース
 41
0.75
1001
ACDBBLOCKREPETAG
1070
     1
1071
      103
1005
0
  0
TEXT
  5
1309C7
  8
SLIM
 10
3707.0999999999999
 20
-1736.3333333333301
 30
0.0
 40
28.0
  1
　　（参考値：80mm以上）を確保してください。
 41
0.75
1001
ACDBBLOCKREPETAG
1070
     1
1071
      103
1005
0
  0
TEXT
  5
1309C8
  8
SLIM
 10
1698.5
 20
-1438.166666666664
 30
0.0
 40
28.0
  1
　※ 掃除口（CO）の正面にはメンテナンススペース
 41
0.75
1001
ACDBBLOCKREPETAG
1070
     1
1071
      103
1005
0
  0
TEXT
  5
1309C9
  8
SLIM
 10
1707.0999999999999
 20
-1484.833333333331
 30
0.0
 40
28.0
  1
　　（参考値：80mm以上）を確保してください。
 41
0.75
1001
ACDBBLOCKREPETAG
1070
     1
1071
      103
1005
0
  0
LINE
  5
1309CA
  8
SLIM
 10
3914.9999999999941
 20
-765.19743878931376
 30
0.0
 11
3925.1974387893092
 21
-754.99999999999875
 31
0.0
1001
ACDBBLOCKREPETAG
1070
     1
1071
        0
1005
0
1001
ACAD
1010
0.0
1020
0.0
1030
0.0
  0
LINE
  5
1309CB
  8
SLIM
 10
3914.999999999995
 20
-783.15795103145035
 30
0.0
 11
3943.1579510314468
 21
-754.99999999999875
 31
0.0
1001
ACAD
1010
0.0
1020
0.0
1030
0.0
1001
ACDBBLOCKREPETAG
1070
     1
1071
       14
1005
1309CB
  0
LINE
  5
1309CC
  8
SLIM
 10
3915.1454972543161
 20
-800.97296601926837
 30
0.0
 11
3961.1184632735849
 21
-754.99999999999875
 31
0.0
1001
ACAD
1010
0.0
1020
0.0
1030
0.0
1001
ACDBBLOCKREPETAG
1070
     1
1071
       15
1005
1309CC
  0
LINE
  5
1309CD
  8
SLIM
 10
3917.104627495245
 20
-816.97434802047826
 30
0.0
 11
3979.0789755157239
 21
-754.99999999999875
 31
0.0
1001
ACAD
1010
0.0
1020
0.0
1030
0.0
1001
ACDBBLOCKREPETAG
1070
     1
1071
       16
1005
1309CD
  0
LINE
  5
1309CE
  8
SLIM
 10
3919.0637577361722
 20
-832.97573002168861
 30
0.0
 11
3997.0394877578619
 21
-754.99999999999875
 31
0.0
1001
ACAD
1010
0.0
1020
0.0
1030
0.0
1001
ACDBBLOCKREPETAG
1070
     1
1071
       17
1005
1309CE
  0
LINE
  5
1309CF
  8
SLIM
 10
3920.0
 20
-849.99999999999875
 30
0.0
 11
4015.0
 21
-754.99999999999875
 31
0.0
1001
ACAD
1010
0.0
1020
0.0
1030
0.0
1001
ACDBBLOCKREPETAG
1070
     1
1071
       18
1005
1309CF
  0
LINE
  5
1309D0
  8
SLIM
 10
3920.0
 20
-867.96051224213716
 30
0.0
 11
4032.9605122421372
 21
-754.99999999999875
 31
0.0
1001
ACAD
1010
0.0
1020
0.0
1030
0.0
1001
ACDBBLOCKREPETAG
1070
     1
1071
       19
1005
1309D0
  0
LINE
  5
1309D1
  8
SLIM
 10
3920.0
 20
-885.92102448427534
 30
0.0
 11
4050.921024484277
 21
-754.99999999999875
 31
0.0
1001
ACAD
1010
0.0
1020
0.0
1030
0.0
1001
ACDBBLOCKREPETAG
1070
     1
1071
       20
1005
1309D1
  0
LINE
  5
1309D2
  8
SLIM
 10
3920.0
 20
-903.88153672641363
 30
0.0
 11
4068.8815367264142
 21
-754.99999999999875
 31
0.0
1001
ACAD
1010
0.0
1020
0.0
1030
0.0
1001
ACDBBLOCKREPETAG
1070
     1
1071
       21
1005
1309D2
  0
LINE
  5
1309D3
  8
SLIM
 10
3920.0
 20
-921.84204896855181
 30
0.0
 11
4085.0000000000068
 21
-756.8420489685451
 31
0.0
1001
ACAD
1010
0.0
1020
0.0
1030
0.0
1001
ACDBBLOCKREPETAG
1070
     1
1071
       22
1005
1309D3
  0
LINE
  5
1309D4
  8
SLIM
 10
3920.0
 20
-939.80256121069044
 30
0.0
 11
4085.0000000000059
 21
-774.80256121068464
 31
0.0
1001
ACAD
1010
0.0
1020
0.0
1030
0.0
1001
ACDBBLOCKREPETAG
1070
     1
1071
       23
1005
1309D4
  0
LINE
  5
1309D5
  8
SLIM
 10
3920.0
 20
-957.76307345282862
 30
0.0
 11
4085.0000000000041
 21
-792.76307345282453
 31
0.0
1001
ACAD
1010
0.0
1020
0.0
1030
0.0
1001
ACDBBLOCKREPETAG
1070
     1
1071
       24
1005
1309D5
  0
LINE
  5
1309D6
  8
SLIM
 10
3930.0
 20
-965.72358569496657
 30
0.0
 11
3930.7235856949678
 21
-964.99999999999875
 31
0.0
1001
ACAD
1010
0.0
1020
0.0
1030
0.0
1001
ACDBBLOCKREPETAG
1070
     1
1071
       25
1005
1309D6
  0
LINE
  5
1309D7
  8
SLIM
 10
3930.7235856949678
 20
-964.99999999999875
 30
0.0
 11
4083.4738280308079
 21
-812.24975766415855
 31
0.0
1001
ACAD
1010
0.0
1020
0.0
1030
0.0
1001
ACDBBLOCKREPETAG
1070
     1
1071
       26
1005
1309D7
  0
LINE
  5
1309D8
  8
SLIM
 10
3930.0
 20
-983.68409793710521
 30
0.0
 11
3948.6840979371068
 21
-964.99999999999875
 31
0.0
1001
ACAD
1010
0.0
1020
0.0
1030
0.0
1001
ACDBBLOCKREPETAG
1070
     1
1071
       27
1005
1309D8
  0
LINE
  5
1309D9
  8
SLIM
 10
3948.6840979371068
 20
-964.99999999999875
 30
0.0
 11
4080.9680345671368
 21
-832.71606336996786
 31
0.0
1001
ACAD
1010
0.0
1020
0.0
1030
0.0
1001
ACDBBLOCKREPETAG
1070
     1
1071
       28
1005
1309D9
  0
LINE
  5
1309DA
  8
SLIM
 10
3946.6446101792449
 20
-984.99999999999875
 30
0.0
 11
3966.6446101792449
 21
-964.99999999999875
 31
0.0
1001
ACAD
1010
0.0
1020
0.0
1030
0.0
1001
ACDBBLOCKREPETAG
1070
     1
1071
       29
1005
1309DA
  0
LINE
  5
1309DB
  8
SLIM
 10
3966.6446101792449
 20
-964.99999999999875
 30
0.0
 11
4080.0
 21
-851.6446101792435
 31
0.0
1001
ACAD
1010
0.0
1020
0.0
1030
0.0
1001
ACDBBLOCKREPETAG
1070
     1
1071
       30
1005
1309DB
  0
LINE
  5
1309DC
  8
SLIM
 10
3964.6051224213829
 20
-984.99999999999875
 30
0.0
 11
3984.6051224213829
 21
-964.99999999999875
 31
0.0
1001
ACAD
1010
0.0
1020
0.0
1030
0.0
1001
ACDBBLOCKREPETAG
1070
     1
1071
       31
1005
1309DC
  0
LINE
  5
1309DD
  8
SLIM
 10
3984.6051224213829
 20
-964.99999999999875
 30
0.0
 11
4080.0
 21
-869.60512242138225
 31
0.0
1001
ACAD
1010
0.0
1020
0.0
1030
0.0
1001
ACDBBLOCKREPETAG
1070
     1
1071
       32
1005
1309DD
  0
LINE
  5
1309DE
  8
SLIM
 10
3982.565634663521
 20
-984.99999999999875
 30
0.0
 11
4002.565634663521
 21
-964.99999999999875
 31
0.0
1001
ACAD
1010
0.0
1020
0.0
1030
0.0
1001
ACDBBLOCKREPETAG
1070
     1
1071
       33
1005
1309DE
  0
LINE
  5
1309DF
  8
SLIM
 10
4002.565634663521
 20
-964.99999999999875
 30
0.0
 11
4079.9999999999991
 21
-887.56563466352065
 31
0.0
1001
ACAD
1010
0.0
1020
0.0
1030
0.0
1001
ACDBBLOCKREPETAG
1070
     1
1071
       34
1005
1309DF
  0
LINE
  5
1309E0
  8
SLIM
 10
4000.5261469056582
 20
-984.99999999999875
 30
0.0
 11
4020.52614690566
 21
-964.99999999999875
 31
0.0
1001
ACAD
1010
0.0
1020
0.0
1030
0.0
1001
ACDBBLOCKREPETAG
1070
     1
1071
       35
1005
1309E0
  0
LINE
  5
1309E1
  8
SLIM
 10
4020.52614690566
 20
-964.99999999999875
 30
0.0
 11
4079.9999999999991
 21
-905.52614690565963
 31
0.0
1001
ACAD
1010
0.0
1020
0.0
1030
0.0
1001
ACDBBLOCKREPETAG
1070
     1
1071
       36
1005
1309E1
  0
LINE
  5
1309E2
  8
SLIM
 10
4018.486659147798
 20
-984.99999999999875
 30
0.0
 11
4038.486659147798
 21
-964.99999999999864
 31
0.0
1001
ACAD
1010
0.0
1020
0.0
1030
0.0
1001
ACDBBLOCKREPETAG
1070
     1
1071
       37
1005
1309E2
  0
LINE
  5
1309E3
  8
SLIM
 10
4038.486659147798
 20
-964.99999999999864
 30
0.0
 11
4079.9999999999991
 21
-923.48665914779815
 31
0.0
1001
ACAD
1010
0.0
1020
0.0
1030
0.0
1001
ACDBBLOCKREPETAG
1070
     1
1071
       38
1005
1309E3
  0
LINE
  5
1309E4
  8
SLIM
 10
4036.4471713899361
 20
-984.99999999999875
 30
0.0
 11
4056.4471713899361
 21
-964.99999999999864
 31
0.0
1001
ACAD
1010
0.0
1020
0.0
1030
0.0
1001
ACDBBLOCKREPETAG
1070
     1
1071
       39
1005
1309E4
  0
LINE
  5
1309E5
  8
SLIM
 10
4056.4471713899361
 20
-964.99999999999864
 30
0.0
 11
4079.9999999999991
 21
-941.44717138993633
 31
0.0
1001
ACAD
1010
0.0
1020
0.0
1030
0.0
1001
ACDBBLOCKREPETAG
1070
     1
1071
       40
1005
1309E5
  0
LINE
  5
1309E6
  8
SLIM
 10
4054.4076836320728
 20
-984.99999999999875
 30
0.0
 11
4070.0
 21
-969.40768363207314
 31
0.0
1001
ACAD
1010
0.0
1020
0.0
1030
0.0
1001
ACDBBLOCKREPETAG
1070
     1
1071
       41
1005
1309E6
  0
LINE
  5
1309E7
  8
SLIM
 10
4074.4076836320728
 20
-964.99999999999864
 30
0.0
 11
4079.9999999999991
 21
-959.40768363207519
 31
0.0
1001
ACAD
1010
0.0
1020
0.0
1030
0.0
1001
ACDBBLOCKREPETAG
1070
     1
1071
       42
1005
1309E7
  0
LINE
  5
1309E8
  8
OBJECT
 10
3914.9999999999941
 20
-754.99999999999875
 30
0.0
 11
3914.9999999999968
 21
-799.78460339903359
 31
0.0
1001
ACDBBLOCKREPETAG
1070
     1
1071
        1
1005
1309E8
  0
LINE
  5
1309E9
  8
OBJECT
 10
4085.0000000000068
 20
-754.99999999999875
 30
0.0
 11
4085.0000000000032
 21
-799.78460339904063
 31
0.0
1001
ACDBBLOCKREPETAG
1070
     1
1071
        2
1005
1309E9
  0
LINE
  5
1309EA
  8
OBJECT
 10
4085.0000000000068
 20
-754.99999999999875
 30
0.0
 11
3914.9999999999941
 21
-754.99999999999875
 31
0.0
1001
ACDBBLOCKREPETAG
1070
     1
1071
        3
1005
1309EA
  0
LINE
  5
1309EB
  8
OBJECT
 10
4079.9999999999991
 20
-964.99999999999864
 30
0.0
 11
3920.0
 21
-964.99999999999875
 31
0.0
1001
ACDBBLOCKREPETAG
1070
     1
1071
        4
1005
1309EB
  0
LINE
  5
1309EC
  8
OBJECT
 10
3914.9999999999968
 20
-799.78460339903415
 30
0.0
 11
3920.0
 21
-840.62257748298555
 31
0.0
1001
ACDBBLOCKREPETAG
1070
     1
1071
        6
1005
1309EC
  0
LINE
  5
1309ED
  8
OBJECT
 10
3920.0
 20
-840.62257748298555
 30
0.0
 11
3920.0
 21
-964.99999999999875
 31
0.0
1001
ACDBBLOCKREPETAG
1070
     1
1071
        7
1005
1309ED
  0
LINE
  5
1309EE
  8
OBJECT
 10
4085.0000000000032
 20
-799.78460339904063
 30
0.0
 11
4080.0
 21
-840.62257748298555
 31
0.0
1001
ACDBBLOCKREPETAG
1070
     1
1071
        8
1005
1309EE
  0
LINE
  5
1309EF
  8
OBJECT
 10
4080.0
 20
-840.62257748298555
 30
0.0
 11
4079.9999999999991
 21
-964.99999999999864
 31
0.0
1001
ACDBBLOCKREPETAG
1070
     1
1071
        9
1005
1309EF
  0
LINE
  5
1309F0
  8
OBJECT
 10
3930.0
 20
-964.99999999999875
 30
0.0
 11
3930.0
 21
-984.99999999999875
 31
0.0
1001
ACDBBLOCKREPETAG
1070
     1
1071
       10
1005
1309F0
  0
LINE
  5
1309F1
  8
OBJECT
 10
3930.0
 20
-984.99999999999875
 30
0.0
 11
4070.0
 21
-984.99999999999875
 31
0.0
1001
ACDBBLOCKREPETAG
1070
     1
1071
       11
1005
1309F1
  0
LINE
  5
1309F2
  8
OBJECT
 10
4070.0
 20
-984.99999999999875
 30
0.0
 11
4070.0
 21
-964.99999999999864
 31
0.0
1001
ACDBBLOCKREPETAG
1070
     1
1071
       12
1005
1309F2
  0
LINE
  5
1309F3
  8
OBJECT
 10
1923.0
 20
-570.99999999999955
 30
0.0
 11
1923.0
 21
-549.99999999999955
 31
0.0
1001
ACDBBLOCKREPETAG
1070
     1
1071
       36
1005
1309F3
  0
LINE
  5
1309F4
  8
OBJECT
 10
1923.0
 20
-549.99999999999955
 30
0.0
 11
2077.0
 21
-549.99999999999955
 31
0.0
1001
ACDBBLOCKREPETAG
1070
     1
1071
       37
1005
1309F4
  0
LINE
  5
1309F5
  8
HIDDEN
 10
1943.0
 20
-619.99999999999955
 30
0.0
 11
2057.0
 21
-619.99999999999955
 31
0.0
1001
ACDBBLOCKREPETAG
1070
     1
1071
       38
1005
1309F5
  0
LINE
  5
1309F6
  8
OBJECT
 10
2077.0
 20
-549.99999999999955
 30
0.0
 11
2077.0
 21
-570.99999999999955
 31
0.0
1001
ACDBBLOCKREPETAG
1070
     1
1071
       39
1005
1309F6
  0
LINE
  5
1309F7
  8
OBJECT
 10
2077.0
 20
-570.99999999999955
 30
0.0
 11
1923.0
 21
-570.99999999999955
 31
0.0
1001
ACDBBLOCKREPETAG
1070
     1
1071
       40
1005
1309F7
  0
LINE
  5
1309F8
  8
CENTER
 10
2000.0
 20
-534.99999999999955
 30
0.0
 11
2000.0
 21
-769.99999999999955
 31
0.0
1001
ACDBBLOCKREPETAG
1070
     1
1071
       41
1005
1309F8
  0
LINE
  5
1309F9
  8
OBJECT
 10
1928.0
 20
-570.99999999999955
 30
0.0
 11
1928.0
 21
-633.99999999999955
 31
0.0
1001
ACDBBLOCKREPETAG
1070
     1
1071
       42
1005
1309F9
  0
LINE
  5
1309FA
  8
OBJECT
 10
2072.0
 20
-633.99999999999955
 30
0.0
 11
2072.0
 21
-570.99999999999955
 31
0.0
1001
ACDBBLOCKREPETAG
1070
     1
1071
       43
1005
1309FA
  0
LINE
  5
1309FB
  8
OBJECT
 10
1920.0
 20
-757.99999999999955
 30
0.0
 11
2080.0
 21
-757.99999999999955
 31
0.0
1001
ACDBBLOCKREPETAG
1070
     1
1071
       44
1005
1309FB
  0
LINE
  5
1309FC
  8
OBJECT
 10
2080.0
 20
-633.99999999999955
 30
0.0
 11
1920.0
 21
-633.99999999999955
 31
0.0
1001
ACDBBLOCKREPETAG
1070
     1
1071
       45
1005
1309FC
  0
LINE
  5
1309FD
  8
OBJECT
 10
1920.0
 20
-757.99999999999955
 30
0.0
 11
1920.0
 21
-769.99999999999955
 31
0.0
1001
ACDBBLOCKREPETAG
1070
     1
1071
       46
1005
1309FD
  0
LINE
  5
1309FE
  8
OBJECT
 10
1920.0
 20
-769.99999999999955
 30
0.0
 11
2080.0
 21
-769.99999999999955
 31
0.0
1001
ACDBBLOCKREPETAG
1070
     1
1071
       47
1005
1309FE
  0
LINE
  5
1309FF
  8
OBJECT
 10
2080.0
 20
-769.99999999999955
 30
0.0
 11
2080.0
 21
-757.99999999999955
 31
0.0
1001
ACDBBLOCKREPETAG
1070
     1
1071
       48
1005
1309FF
  0
ARC
  5
130A00
  8
OBJECT
 10
2200.6872746716731
 20
-749.40809941010718
 30
0.0
 40
170.6350503965856
 50
137.44134459184301
 51
149.91949581336559
1001
ACDBBLOCKREPETAG
1070
     1
1071
       52
1005
130A00
  0
ARC
  5
130A01
  8
OBJECT
 10
2200.6872746716731
 20
-642.59190058989179
 30
0.0
 40
170.6350503965856
 50
210.0805041866343
 51
222.55865540815699
1001
ACDBBLOCKREPETAG
1070
     1
1071
       53
1005
130A01
  0
ARC
  5
130A02
  8
OBJECT
 10
1799.312725328326
 20
-749.40809941010718
 30
0.0
 40
170.6350503965856
 50
30.080504186774089
 51
42.558655408447443
1001
ACDBBLOCKREPETAG
1070
     1
1071
       54
1005
130A02
  0
ARC
  5
130A03
  8
OBJECT
 10
1799.312725328326
 20
-642.59190058989179
 30
0.0
 40
170.6350503965856
 50
317.44134459155248
 51
329.91949581322592
1001
ACDBBLOCKREPETAG
1070
     1
1071
       55
1005
130A03
  0
POINT
  5
130A04
  8
DOTS
 10
2000.0
 20
-754.99999999999955
 30
0.0
1001
ACDBBLOCKREPETAG
1070
     1
1071
      184
1005
130A04
  0
CIRCLE
  5
130A05
  8
OBJECT
 10
5000.0
 20
-3174.9999999999959
 30
0.0
 40
53.5
1001
ACDBBLOCKREPETAG
1070
     1
1071
      344
1005
130A05
  0
LINE
  5
130A06
  8
CENTER
 10
5080.0
 20
-3174.9999999999959
 30
0.0
 11
4905.0
 21
-3174.9999999999959
 31
0.0
1001
ACDBBLOCKREPETAG
1070
     1
1071
       14
1005
130A06
  0
LINE
  5
130A07
  8
CENTER
 10
5000.0
 20
-3269.9999999999959
 30
0.0
 11
5000.0
 21
-3079.9999999999959
 31
0.0
1001
ACDBBLOCKREPETAG
1070
     1
1071
       15
1005
130A07
  0
CIRCLE
  5
130A08
  8
OBJECT
 10
5000.0
 20
-3174.9999999999959
 30
0.0
 40
70.0
1001
ACDBBLOCKREPETAG
1070
     1
1071
       16
1005
130A08
  0
CIRCLE
  5
130A09
  8
OBJECT
 10
5000.0
 20
-3174.9999999999959
 30
0.0
 40
77.0
1001
ACDBBLOCKREPETAG
1070
     1
1071
       17
1005
130A09
  0
ARC
  5
130A0A
  8
OBJECT
 10
5000.0
 20
-3174.9999999999959
 30
0.0
 40
80.0
 50
50.805032573882329
 51
309.19496742611773
1001
ACDBBLOCKREPETAG
1070
     1
1071
       18
1005
130A0A
  0
LINE
  5
130A0B
  8
OBJECT
 10
5045.6618002273253
 20
-3112.9999999999959
 30
0.0
 11
5080.0
 21
-3112.9999999999959
 31
0.0
1001
ACDBBLOCKREPETAG
1070
     1
1071
       19
1005
130A0B
  0
LINE
  5
130A0C
  8
OBJECT
 10
5045.6618002273253
 20
-3236.9999999999959
 30
0.0
 11
5080.0
 21
-3236.9999999999959
 31
0.0
1001
ACDBBLOCKREPETAG
1070
     1
1071
       20
1005
130A0C
  0
POINT
  5
130A0D
  8
DOTS
 10
5000.0
 20
-3174.9999999999959
 30
0.0
1001
ACDBBLOCKREPETAG
1070
     1
1071
       21
1005
130A0D
  0
CIRCLE
  5
130A0E
  8
OBJECT
 10
4000.0
 20
-3174.9999999999959
 30
0.0
 40
53.5
1001
ACDBBLOCKREPETAG
1070
     1
1071
      344
1005
130A0E
  0
LINE
  5
130A0F
  8
CENTER
 10
4080.0
 20
-3174.9999999999959
 30
0.0
 11
3905.0
 21
-3174.9999999999959
 31
0.0
1001
ACDBBLOCKREPETAG
1070
     1
1071
       14
1005
130A0F
  0
LINE
  5
130A10
  8
CENTER
 10
4000.0
 20
-3269.9999999999959
 30
0.0
 11
4000.0
 21
-3079.9999999999959
 31
0.0
1001
ACDBBLOCKREPETAG
1070
     1
1071
       15
1005
130A10
  0
CIRCLE
  5
130A11
  8
OBJECT
 10
4000.0
 20
-3174.9999999999959
 30
0.0
 40
70.0
1001
ACDBBLOCKREPETAG
1070
     1
1071
       16
1005
130A11
  0
CIRCLE
  5
130A12
  8
OBJECT
 10
4000.0
 20
-3174.9999999999959
 30
0.0
 40
77.0
1001
ACDBBLOCKREPETAG
1070
     1
1071
       17
1005
130A12
  0
ARC
  5
130A13
  8
OBJECT
 10
4000.0
 20
-3174.9999999999959
 30
0.0
 40
80.0
 50
50.805032573862128
 51
309.19496742613791
1001
ACDBBLOCKREPETAG
1070
     1
1071
       18
1005
130A13
  0
LINE
  5
130A14
  8
OBJECT
 10
4045.661800227324
 20
-3112.9999999999959
 30
0.0
 11
4080.0
 21
-3112.9999999999959
 31
0.0
1001
ACDBBLOCKREPETAG
1070
     1
1071
       19
1005
130A14
  0
LINE
  5
130A15
  8
OBJECT
 10
4045.661800227324
 20
-3236.9999999999959
 30
0.0
 11
4080.0
 21
-3236.9999999999959
 31
0.0
1001
ACDBBLOCKREPETAG
1070
     1
1071
       20
1005
130A15
  0
POINT
  5
130A16
  8
DOTS
 10
4000.0
 20
-3174.9999999999959
 30
0.0
1001
ACDBBLOCKREPETAG
1070
     1
1071
       21
1005
130A16
  0
CIRCLE
  5
130A17
  8
OBJECT
 10
3000.0
 20
-3174.9999999999959
 30
0.0
 40
53.5
1001
ACDBBLOCKREPETAG
1070
     1
1071
      344
1005
130A17
  0
LINE
  5
130A18
  8
CENTER
 10
3080.0
 20
-3174.9999999999959
 30
0.0
 11
2905.0
 21
-3174.9999999999959
 31
0.0
1001
ACDBBLOCKREPETAG
1070
     1
1071
       14
1005
130A18
  0
LINE
  5
130A19
  8
CENTER
 10
3000.0
 20
-3269.9999999999959
 30
0.0
 11
3000.0
 21
-3079.9999999999959
 31
0.0
1001
ACDBBLOCKREPETAG
1070
     1
1071
       15
1005
130A19
  0
CIRCLE
  5
130A1A
  8
OBJECT
 10
3000.0
 20
-3174.9999999999959
 30
0.0
 40
70.0
1001
ACDBBLOCKREPETAG
1070
     1
1071
       16
1005
130A1A
  0
CIRCLE
  5
130A1B
  8
OBJECT
 10
3000.0
 20
-3174.9999999999959
 30
0.0
 40
77.0
1001
ACDBBLOCKREPETAG
1070
     1
1071
       17
1005
130A1B
  0
ARC
  5
130A1C
  8
OBJECT
 10
3000.0
 20
-3174.9999999999959
 30
0.0
 40
80.0
 50
50.805032573862128
 51
309.19496742613791
1001
ACDBBLOCKREPETAG
1070
     1
1071
       18
1005
130A1C
  0
LINE
  5
130A1D
  8
OBJECT
 10
3045.6618002273249
 20
-3112.9999999999959
 30
0.0
 11
3080.0
 21
-3112.9999999999959
 31
0.0
1001
ACDBBLOCKREPETAG
1070
     1
1071
       19
1005
130A1D
  0
LINE
  5
130A1E
  8
OBJECT
 10
3045.6618002273249
 20
-3236.9999999999959
 30
0.0
 11
3080.0
 21
-3236.9999999999959
 31
0.0
1001
ACDBBLOCKREPETAG
1070
     1
1071
       20
1005
130A1E
  0
POINT
  5
130A1F
  8
DOTS
 10
3000.0
 20
-3174.9999999999959
 30
0.0
1001
ACDBBLOCKREPETAG
1070
     1
1071
       21
1005
130A1F
  0
CIRCLE
  5
130A20
  8
OBJECT
 10
2000.0
 20
-3174.9999999999959
 30
0.0
 40
53.5
1001
ACDBBLOCKREPETAG
1070
     1
1071
      344
1005
130A20
  0
LINE
  5
130A21
  8
CENTER
 10
2080.0
 20
-3174.9999999999959
 30
0.0
 11
1905.0
 21
-3174.9999999999959
 31
0.0
1001
ACDBBLOCKREPETAG
1070
     1
1071
       14
1005
130A21
  0
LINE
  5
130A22
  8
CENTER
 10
2000.0
 20
-3269.9999999999959
 30
0.0
 11
2000.0
 21
-3079.9999999999959
 31
0.0
1001
ACDBBLOCKREPETAG
1070
     1
1071
       15
1005
130A22
  0
CIRCLE
  5
130A23
  8
OBJECT
 10
2000.0
 20
-3174.9999999999959
 30
0.0
 40
70.0
1001
ACDBBLOCKREPETAG
1070
     1
1071
       16
1005
130A23
  0
CIRCLE
  5
130A24
  8
OBJECT
 10
2000.0
 20
-3174.9999999999959
 30
0.0
 40
77.0
1001
ACDBBLOCKREPETAG
1070
     1
1071
       17
1005
130A24
  0
ARC
  5
130A25
  8
OBJECT
 10
2000.0
 20
-3174.9999999999959
 30
0.0
 40
80.0
 50
50.805032573862128
 51
309.19496742613791
1001
ACDBBLOCKREPETAG
1070
     1
1071
       18
1005
130A25
  0
LINE
  5
130A26
  8
OBJECT
 10
2045.6618002273251
 20
-3112.9999999999959
 30
0.0
 11
2080.0
 21
-3112.9999999999959
 31
0.0
1001
ACDBBLOCKREPETAG
1070
     1
1071
       19
1005
130A26
  0
LINE
  5
130A27
  8
OBJECT
 10
2045.6618002273251
 20
-3236.9999999999959
 30
0.0
 11
2080.0
 21
-3236.9999999999959
 31
0.0
1001
ACDBBLOCKREPETAG
1070
     1
1071
       20
1005
130A27
  0
POINT
  5
130A28
  8
DOTS
 10
2000.0
 20
-3174.9999999999959
 30
0.0
1001
ACDBBLOCKREPETAG
1070
     1
1071
       21
1005
130A28
  0
CIRCLE
  5
130A29
  8
OBJECT
 10
2000.0
 20
-199.99999999999909
 30
0.0
 40
53.5
1001
ACDBBLOCKREPETAG
1070
     1
1071
      340
1005
130A29
  0
LINE
  5
130A2A
  8
CENTER
 10
2080.0
 20
-199.99999999999909
 30
0.0
 11
1920.0
 21
-199.99999999999909
 31
0.0
1001
ACDBBLOCKREPETAG
1070
     1
1071
       49
1005
130A2A
  0
LINE
  5
130A2B
  8
CENTER
 10
2000.0
 20
-279.99999999999909
 30
0.0
 11
2000.0
 21
-104.9999999999991
 31
0.0
1001
ACDBBLOCKREPETAG
1070
     1
1071
       50
1005
130A2B
  0
CIRCLE
  5
130A2C
  8
OBJECT
 10
2000.0
 20
-199.99999999999909
 30
0.0
 40
70.0
1001
ACDBBLOCKREPETAG
1070
     1
1071
       51
1005
130A2C
  0
CIRCLE
  5
130A2D
  8
OBJECT
 10
2000.0
 20
-199.99999999999909
 30
0.0
 40
77.0
1001
ACDBBLOCKREPETAG
1070
     1
1071
       52
1005
130A2D
  0
ARC
  5
130A2E
  8
OBJECT
 10
2000.0
 20
-199.99999999999909
 30
0.0
 40
80.0
 50
50.805032573864182
 51
129.1949674261358
1001
ACDBBLOCKREPETAG
1070
     1
1071
       53
1005
130A2E
  0
LINE
  5
130A2F
  8
OBJECT
 10
2045.6618002273251
 20
-137.99999999999909
 30
0.0
 11
2080.0
 21
-137.99999999999909
 31
0.0
1001
ACDBBLOCKREPETAG
1070
     1
1071
       54
1005
130A2F
  0
LINE
  5
130A30
  8
OBJECT
 10
2062.0
 20
-261.99999999999909
 30
0.0
 11
2080.0
 21
-261.99999999999909
 31
0.0
1001
ACDBBLOCKREPETAG
1070
     1
1071
       55
1005
130A30
  0
LINE
  5
130A31
  8
OBJECT
 10
2062.0
 20
-261.99999999999909
 30
0.0
 11
2062.0
 21
-279.99999999999909
 31
0.0
1001
ACDBBLOCKREPETAG
1070
     1
1071
       57
1005
130A31
  0
LINE
  5
130A32
  8
OBJECT
 10
1938.0
 20
-261.99999999999909
 30
0.0
 11
1938.0
 21
-279.99999999999909
 31
0.0
1001
ACDBBLOCKREPETAG
1070
     1
1071
       58
1005
130A32
  0
POINT
  5
130A33
  8
DOTS
 10
2000.0
 20
-199.99999999999909
 30
0.0
 50
90.0
1001
ACDBBLOCKREPETAG
1070
     1
1071
       59
1005
130A33
  0
LINE
  5
130A34
  8
OBJECT
 10
1938.0
 20
-261.99999999999909
 30
0.0
 11
1920.0
 21
-261.99999999999909
 31
0.0
1001
ACDBBLOCKREPETAG
1070
     1
1071
       60
1005
130A34
  0
LINE
  5
130A35
  8
OBJECT
 10
1954.3381997726749
 20
-137.99999999999909
 30
0.0
 11
1920.0
 21
-137.99999999999909
 31
0.0
1001
ACDBBLOCKREPETAG
1070
     1
1071
       61
1005
130A35
  0
LINE
  5
130A36
  8
OBJECT
 10
1945.5527778486351
 20
-254.44722215136329
 30
0.0
 11
1938.0
 21
-261.99999999999909
 31
0.0
1001
ACDBBLOCKREPETAG
1070
     1
1071
       42
1005
130A36
  0
LINE
  5
130A37
  8
OBJECT
 10
2054.4472221513638
 20
-254.44722215136329
 30
0.0
 11
2062.0
 21
-261.99999999999909
 31
0.0
1001
ACDBBLOCKREPETAG
1070
     1
1071
       43
1005
130A37
  0
LINE
  5
130A38
  8
CENTER
 10
1920.0
 20
-199.99999999999909
 30
0.0
 11
1865.0
 21
-199.99999999999909
 31
0.0
1001
ACDBBLOCKREPETAG
1070
     1
1071
      352
1005
130A38
  0
LINE
  5
130A39
  8
OBJECT
 10
1914.0
 20
-140.99999999999821
 30
0.0
 11
1914.0
 21
-258.99999999999818
 31
0.0
1001
ACDBBLOCKREPETAG
1070
     1
1071
      353
1005
130A39
  0
LINE
  5
130A3A
  8
OBJECT
 10
1890.0
 20
-244.49999999999909
 30
0.0
 11
1890.0
 21
-155.49999999999909
 31
0.0
1001
ACDBBLOCKREPETAG
1070
     1
1071
      354
1005
130A3A
  0
LINE
  5
130A3B
  8
OBJECT
 10
1890.0
 20
-244.49999999999909
 30
0.0
 11
1914.0
 21
-244.49999999999909
 31
0.0
1001
ACDBBLOCKREPETAG
1070
     1
1071
      355
1005
130A3B
  0
LINE
  5
130A3C
  8
OBJECT
 10
1920.0
 20
-261.99999999999818
 30
0.0
 11
1917.0
 21
-261.99999999999818
 31
0.0
1001
ACDBBLOCKREPETAG
1070
     1
1071
      356
1005
130A3C
  0
ARC
  5
130A3D
  8
OBJECT
 10
1917.0
 20
-258.99999999999818
 30
0.0
 40
3.0
 50
180.0
 51
270.0
1001
ACDBBLOCKREPETAG
1070
     1
1071
      357
1005
130A3D
  0
LINE
  5
130A3E
  8
OBJECT
 10
1890.0
 20
-182.17793399999931
 30
0.0
 11
1886.1688109999991
 21
-177.8968179999992
 31
0.0
1001
ACDBBLOCKREPETAG
1070
     1
1071
      358
1005
130A3E
  0
ARC
  5
130A3F
  8
OBJECT
 10
1880.0
 20
-182.99999999999821
 30
0.0
 40
8.0
 50
39.597752999864198
 51
198.15835299991039
1001
ACDBBLOCKREPETAG
1070
     1
1071
      359
1005
130A3F
  0
ARC
  5
130A40
  8
OBJECT
 10
1877.149402999999
 20
-183.93493299999861
 30
0.0
 40
5.0
 50
198.15835299991039
 51
251.51513100010621
1001
ACDBBLOCKREPETAG
1070
     1
1071
      360
1005
130A40
  0
LINE
  5
130A41
  8
OBJECT
 10
1880.0
 20
-194.99999999999909
 30
0.0
 11
1887.0
 21
-194.99999999999909
 31
0.0
1001
ACDBBLOCKREPETAG
1070
     1
1071
      361
1005
130A41
  0
LINE
  5
130A42
  8
OBJECT
 10
1880.0
 20
-204.99999999999909
 30
0.0
 11
1887.0
 21
-204.99999999999909
 31
0.0
1001
ACDBBLOCKREPETAG
1070
     1
1071
      362
1005
130A42
  0
LINE
  5
130A43
  8
OBJECT
 10
1880.0
 20
-194.99999999999909
 30
0.0
 11
1880.0
 21
-204.99999999999909
 31
0.0
1001
ACDBBLOCKREPETAG
1070
     1
1071
      363
1005
130A43
  0
LINE
  5
130A44
  8
OBJECT
 10
1887.0
 20
-192.49999999999909
 30
0.0
 11
1887.0
 21
-207.49999999999909
 31
0.0
1001
ACDBBLOCKREPETAG
1070
     1
1071
      364
1005
130A44
  0
LINE
  5
130A45
  8
OBJECT
 10
1890.0
 20
-208.24999999999909
 30
0.0
 11
1887.0
 21
-207.49999999999909
 31
0.0
1001
ACDBBLOCKREPETAG
1070
     1
1071
      365
1005
130A45
  0
LINE
  5
130A46
  8
OBJECT
 10
1890.0
 20
-217.82206699999909
 30
0.0
 11
1886.1688109999991
 21
-222.1031819999998
 31
0.0
1001
ACDBBLOCKREPETAG
1070
     1
1071
      366
1005
130A46
  0
LINE
  5
130A47
  8
OBJECT
 10
1890.0
 20
-191.74999999999909
 30
0.0
 11
1887.0
 21
-192.49999999999909
 31
0.0
1001
ACDBBLOCKREPETAG
1070
     1
1071
      367
1005
130A47
  0
ARC
  5
130A48
  8
OBJECT
 10
1880.0
 20
-216.99999999999821
 30
0.0
 40
8.0
 50
161.84164700008961
 51
320.40224700013579
1001
ACDBBLOCKREPETAG
1070
     1
1071
      368
1005
130A48
  0
ARC
  5
130A49
  8
OBJECT
 10
1877.149402999999
 20
-216.0650669999994
 30
0.0
 40
5.0
 50
108.48486899989371
 51
161.84164700008961
1001
ACDBBLOCKREPETAG
1070
     1
1071
      369
1005
130A49
  0
LINE
  5
130A4A
  8
OBJECT
 10
1875.5641319999991
 20
-211.32302999999959
 30
0.0
 11
1887.0
 21
-207.49999999999909
 31
0.0
1001
ACDBBLOCKREPETAG
1070
     1
1071
      370
1005
130A4A
  0
LINE
  5
130A4B
  8
OBJECT
 10
1875.5641319999991
 20
-188.67696999999851
 30
0.0
 11
1887.0
 21
-192.49999999999909
 31
0.0
1001
ACDBBLOCKREPETAG
1070
     1
1071
      371
1005
130A4B
  0
ARC
  5
130A4C
  8
OBJECT
 10
1917.0
 20
-140.99999999999821
 30
0.0
 40
3.0
 50
90.0
 51
180.0
1001
ACDBBLOCKREPETAG
1070
     1
1071
      372
1005
130A4C
  0
LINE
  5
130A4D
  8
OBJECT
 10
1920.0
 20
-137.99999999999821
 30
0.0
 11
1917.0
 21
-137.99999999999821
 31
0.0
1001
ACDBBLOCKREPETAG
1070
     1
1071
      373
1005
130A4D
  0
LINE
  5
130A4E
  8
OBJECT
 10
1890.0
 20
-155.49999999999909
 30
0.0
 11
1914.0
 21
-155.49999999999909
 31
0.0
1001
ACDBBLOCKREPETAG
1070
     1
1071
      374
1005
130A4E
  0
LINE
  5
130A4F
  8
CENTER
 10
2000.0
 20
-300.99999999999898
 30
0.0
 11
2000.0
 21
-279.99999999999909
 31
0.0
1001
ACDBBLOCKREPETAG
1070
     1
1071
        0
1005
130A4F
  0
LINE
  5
130A50
  8
OBJECT
 10
2062.0
 20
-283.0
 30
0.0
 11
2062.0
 21
-279.99999999999909
 31
0.0
1001
ACDBBLOCKREPETAG
1070
     1
1071
        1
1005
130A50
  0
ARC
  5
130A51
  8
OBJECT
 10
2059.0
 20
-283.0
 30
0.0
 40
3.0
 50
270.0
 51
0.0
1001
ACDBBLOCKREPETAG
1070
     1
1071
        2
1005
130A51
  0
LINE
  5
130A52
  8
OBJECT
 10
1938.0
 20
-279.99999999999909
 30
0.0
 11
1938.0
 21
-282.99999999999818
 31
0.0
1001
ACDBBLOCKREPETAG
1070
     1
1071
        3
1005
130A52
  0
ARC
  5
130A53
  8
OBJECT
 10
1941.0
 20
-282.99999999999818
 30
0.0
 40
3.0
 50
180.0
 51
270.0
1001
ACDBBLOCKREPETAG
1070
     1
1071
        4
1005
130A53
  0
LINE
  5
130A54
  8
OBJECT
 10
1941.0
 20
-285.99999999999818
 30
0.0
 11
2059.0
 21
-286.0
 31
0.0
1001
ACDBBLOCKREPETAG
1070
     1
1071
        5
1005
130A54
  0
LINE
  5
130A55
  8
OBJECT
 10
2133.0
 20
-137.99999999999909
 30
0.0
 11
2140.0
 21
-137.99999999999909
 31
0.0
1001
ACDBBLOCKREPETAG
1070
     1
1071
       47
1005
130A55
  0
LINE
  5
130A56
  8
OBJECT
 10
2140.0
 20
-137.99999999999909
 30
0.0
 11
2140.0
 21
-261.99999999999909
 31
0.0
1001
ACDBBLOCKREPETAG
1070
     1
1071
       48
1005
130A56
  0
LINE
  5
130A57
  8
OBJECT
 10
2140.0
 20
-261.99999999999909
 30
0.0
 11
2133.0
 21
-261.99999999999909
 31
0.0
1001
ACDBBLOCKREPETAG
1070
     1
1071
       49
1005
130A57
  0
LINE
  5
130A58
  8
OBJECT
 10
2133.0
 20
-261.99999999999909
 30
0.0
 11
2133.0
 21
-137.99999999999909
 31
0.0
1001
ACDBBLOCKREPETAG
1070
     1
1071
       50
1005
130A58
  0
LINE
  5
130A59
  8
CENTER
 10
2155.0
 20
-199.99999999999909
 30
0.0
 11
2080.0
 21
-199.99999999999909
 31
0.0
1001
ACDBBLOCKREPETAG
1070
     1
1071
       51
1005
130A59
  0
LINE
  5
130A5A
  8
OBJECT
 10
2133.0
 20
-140.99999999999909
 30
0.0
 11
2097.0
 21
-140.99999999999909
 31
0.0
1001
ACDBBLOCKREPETAG
1070
     1
1071
       52
1005
130A5A
  0
LINE
  5
130A5B
  8
OBJECT
 10
2097.0
 20
-140.99999999999909
 30
0.0
 11
2097.0
 21
-258.99999999999909
 31
0.0
1001
ACDBBLOCKREPETAG
1070
     1
1071
       53
1005
130A5B
  0
LINE
  5
130A5C
  8
OBJECT
 10
2097.0
 20
-258.99999999999909
 30
0.0
 11
2133.0
 21
-258.99999999999909
 31
0.0
1001
ACDBBLOCKREPETAG
1070
     1
1071
       54
1005
130A5C
  0
LINE
  5
130A5D
  8
OBJECT
 10
2093.0
 20
-145.49999999999909
 30
0.0
 11
2086.0
 21
-145.49999999999909
 31
0.0
1001
ACDBBLOCKREPETAG
1070
     1
1071
       55
1005
130A5D
  0
LINE
  5
130A5E
  8
OBJECT
 10
2086.0
 20
-254.49999999999909
 30
0.0
 11
2093.0
 21
-254.49999999999909
 31
0.0
1001
ACDBBLOCKREPETAG
1070
     1
1071
       56
1005
130A5E
  0
LINE
  5
130A5F
  8
OBJECT
 10
2093.0
 20
-254.49999999999909
 30
0.0
 11
2093.0
 21
-145.49999999999909
 31
0.0
1001
ACDBBLOCKREPETAG
1070
     1
1071
       57
1005
130A5F
  0
LINE
  5
130A60
  8
OBJECT
 10
2097.0
 20
-140.99999999999909
 30
0.0
 11
2093.0
 21
-145.49999999999909
 31
0.0
1001
ACDBBLOCKREPETAG
1070
     1
1071
       58
1005
130A60
  0
LINE
  5
130A61
  8
OBJECT
 10
2097.0
 20
-258.99999999999909
 30
0.0
 11
2093.0
 21
-254.49999999999909
 31
0.0
1001
ACDBBLOCKREPETAG
1070
     1
1071
       59
1005
130A61
  0
LINE
  5
130A62
  8
OBJECT
 10
2083.0
 20
-137.99999999999909
 30
0.0
 11
2080.0
 21
-137.99999999999909
 31
0.0
1001
ACDBBLOCKREPETAG
1070
     1
1071
       60
1005
130A62
  0
ARC
  5
130A63
  8
OBJECT
 10
2083.0
 20
-140.99999999999909
 30
0.0
 40
3.0
 50
0.0
 51
90.0
1001
ACDBBLOCKREPETAG
1070
     1
1071
       61
1005
130A63
  0
LINE
  5
130A64
  8
OBJECT
 10
2080.0
 20
-261.99999999999909
 30
0.0
 11
2083.0
 21
-261.99999999999909
 31
0.0
1001
ACDBBLOCKREPETAG
1070
     1
1071
       62
1005
130A64
  0
ARC
  5
130A65
  8
OBJECT
 10
2083.0
 20
-258.99999999999909
 30
0.0
 40
3.0
 50
270.0
 51
0.0
1001
ACDBBLOCKREPETAG
1070
     1
1071
       63
1005
130A65
  0
LINE
  5
130A66
  8
OBJECT
 10
2086.0
 20
-258.99999999999909
 30
0.0
 11
2086.0
 21
-140.99999999999909
 31
0.0
1001
ACDBBLOCKREPETAG
1070
     1
1071
       64
1005
130A66
  0
LINE
  5
130A67
  8
HIDDEN
 10
2088.0
 20
-155.49999999999909
 30
0.0
 11
2088.0
 21
-244.49999999999909
 31
0.0
1001
ACDBBLOCKREPETAG
1070
     1
1071
       65
1005
130A67
  0
LINE
  5
130A68
  8
OBJECT
 10
1880.0
 20
-691.0
 30
0.0
 11
1887.0
 21
-691.0
 31
0.0
1001
ACDBBLOCKREPETAG
1070
     1
1071
      303
1005
130A68
  0
LINE
  5
130A69
  8
OBJECT
 10
1880.0
 20
-701.0
 30
0.0
 11
1887.0
 21
-701.0
 31
0.0
1001
ACDBBLOCKREPETAG
1070
     1
1071
      304
1005
130A69
  0
LINE
  5
130A6A
  8
OBJECT
 10
1880.0
 20
-691.0
 30
0.0
 11
1880.0
 21
-693.76802120323453
 31
0.0
1001
ACDBBLOCKREPETAG
1070
     1
1071
      305
1005
130A6A
  0
LINE
  5
130A6B
  8
OBJECT
 10
1880.0
 20
-698.23197871206878
 30
0.0
 11
1880.0
 21
-701.0
 31
0.0
1001
ACDBBLOCKREPETAG
1070
     1
1071
      306
1005
130A6B
  0
LINE
  5
130A6C
  8
OBJECT
 10
1887.0
 20
-688.49999999999977
 30
0.0
 11
1887.0
 21
-693.49910050411825
 31
0.0
1001
ACDBBLOCKREPETAG
1070
     1
1071
      307
1005
130A6C
  0
LINE
  5
130A6D
  8
OBJECT
 10
1887.0
 20
-698.50089931361958
 30
0.0
 11
1887.0
 21
-703.5
 31
0.0
1001
ACDBBLOCKREPETAG
1070
     1
1071
      308
1005
130A6D
  0
LINE
  5
130A6E
  8
OBJECT
 10
1890.0
 20
-704.25
 30
0.0
 11
1887.0
 21
-703.5
 31
0.0
1001
ACDBBLOCKREPETAG
1070
     1
1071
      309
1005
130A6E
  0
LINE
  5
130A6F
  8
OBJECT
 10
1890.0
 20
-687.75
 30
0.0
 11
1887.0
 21
-688.49999999999977
 31
0.0
1001
ACDBBLOCKREPETAG
1070
     1
1071
      310
1005
130A6F
  0
ARC
  5
130A70
  8
OBJECT
 10
1874.0
 20
-696.0
 30
0.0
 40
2.0
 50
92.200063947769905
 51
267.79993684947868
1001
ACDBBLOCKREPETAG
1070
     1
1071
      311
1005
130A70
  0
LINE
  5
130A71
  8
OBJECT
 10
1890.0
 20
-698.61615099999835
 30
0.0
 11
1873.923222179084
 21
-697.99852574819931
 31
0.0
1001
ACDBBLOCKREPETAG
1070
     1
1071
      312
1005
130A71
  0
LINE
  5
130A72
  8
OBJECT
 10
1890.0
 20
-693.3838487759258
 30
0.0
 11
1873.923222151268
 21
-694.00147425286923
 31
0.0
1001
ACDBBLOCKREPETAG
1070
     1
1071
      313
1005
130A72
  0
LINE
  5
130A73
  8
CENTER
 10
1929.0
 20
-696.0
 30
0.0
 11
1857.0
 21
-696.0
 31
0.0
1001
ACDBBLOCKREPETAG
1070
     1
1071
      314
1005
130A73
  0
LINE
  5
130A74
  8
OBJECT
 10
1914.0
 20
-636.9999999999992
 30
0.0
 11
1914.0
 21
-754.99999999999898
 31
0.0
1001
ACDBBLOCKREPETAG
1070
     1
1071
      315
1005
130A74
  0
LINE
  5
130A75
  8
OBJECT
 10
1890.0
 20
-740.5
 30
0.0
 11
1890.0
 21
-651.5
 31
0.0
1001
ACDBBLOCKREPETAG
1070
     1
1071
      316
1005
130A75
  0
LINE
  5
130A76
  8
OBJECT
 10
1890.0
 20
-740.5
 30
0.0
 11
1914.0
 21
-740.5
 31
0.0
1001
ACDBBLOCKREPETAG
1070
     1
1071
      317
1005
130A76
  0
LINE
  5
130A77
  8
OBJECT
 10
1920.0
 20
-757.9999999999992
 30
0.0
 11
1917.0
 21
-757.9999999999992
 31
0.0
1001
ACDBBLOCKREPETAG
1070
     1
1071
      318
1005
130A77
  0
ARC
  5
130A78
  8
OBJECT
 10
1917.0
 20
-754.99999999999898
 30
0.0
 40
3.0
 50
180.0
 51
270.0
1001
ACDBBLOCKREPETAG
1070
     1
1071
      319
1005
130A78
  0
ARC
  5
130A79
  8
OBJECT
 10
1917.0
 20
-636.9999999999992
 30
0.0
 40
3.0
 50
90.0
 51
180.0
1001
ACDBBLOCKREPETAG
1070
     1
1071
      320
1005
130A79
  0
LINE
  5
130A7A
  8
OBJECT
 10
1920.0
 20
-633.99999999999898
 30
0.0
 11
1917.0
 21
-633.99999999999898
 31
0.0
1001
ACDBBLOCKREPETAG
1070
     1
1071
      321
1005
130A7A
  0
LINE
  5
130A7B
  8
OBJECT
 10
1890.0
 20
-651.5
 30
0.0
 11
1914.0
 21
-651.5
 31
0.0
1001
ACDBBLOCKREPETAG
1070
     1
1071
      322
1005
130A7B
  0
CIRCLE
  5
130A7C
  8
OBJECT
 10
2000.0
 20
-696.0
 30
0.0
 40
62.0
1001
ACDBBLOCKREPETAG
1070
     1
1071
        0
1005
130A7C
  0
LINE
  5
130A7D
  8
OBJECT
 10
2133.0
 20
-634.0
 30
0.0
 11
2140.0
 21
-634.0
 31
0.0
1001
ACDBBLOCKREPETAG
1070
     1
1071
       45
1005
130A7D
  0
LINE
  5
130A7E
  8
OBJECT
 10
2140.0
 20
-634.0
 30
0.0
 11
2140.0
 21
-755.0
 31
0.0
1001
ACDBBLOCKREPETAG
1070
     1
1071
       46
1005
130A7E
  0
LINE
  5
130A7F
  8
OBJECT
 10
2133.0
 20
-755.0
 30
0.0
 11
2133.0
 21
-634.0
 31
0.0
1001
ACDBBLOCKREPETAG
1070
     1
1071
       47
1005
130A7F
  0
LINE
  5
130A80
  8
CENTER
 10
2155.0
 20
-696.0
 30
0.0
 11
2071.0
 21
-696.0
 31
0.0
1001
ACDBBLOCKREPETAG
1070
     1
1071
       48
1005
130A80
  0
LINE
  5
130A81
  8
OBJECT
 10
2133.0
 20
-637.0
 30
0.0
 11
2097.0
 21
-637.0
 31
0.0
1001
ACDBBLOCKREPETAG
1070
     1
1071
       49
1005
130A81
  0
LINE
  5
130A82
  8
OBJECT
 10
2097.0
 20
-637.0
 30
0.0
 11
2097.0
 21
-755.0
 31
0.0
1001
ACDBBLOCKREPETAG
1070
     1
1071
       50
1005
130A82
  0
LINE
  5
130A83
  8
OBJECT
 10
2097.0
 20
-755.0
 30
0.0
 11
2140.0
 21
-755.0
 31
0.0
1001
ACDBBLOCKREPETAG
1070
     1
1071
       51
1005
130A83
  0
LINE
  5
130A84
  8
OBJECT
 10
2093.0
 20
-641.5
 30
0.0
 11
2086.0
 21
-641.5
 31
0.0
1001
ACDBBLOCKREPETAG
1070
     1
1071
       52
1005
130A84
  0
LINE
  5
130A85
  8
OBJECT
 10
2086.0
 20
-750.49999999999989
 30
0.0
 11
2093.0
 21
-750.49999999999989
 31
0.0
1001
ACDBBLOCKREPETAG
1070
     1
1071
       53
1005
130A85
  0
LINE
  5
130A86
  8
OBJECT
 10
2093.0
 20
-750.49999999999989
 30
0.0
 11
2093.0
 21
-641.5
 31
0.0
1001
ACDBBLOCKREPETAG
1070
     1
1071
       54
1005
130A86
  0
LINE
  5
130A87
  8
OBJECT
 10
2097.0
 20
-637.0
 30
0.0
 11
2093.0
 21
-641.5
 31
0.0
1001
ACDBBLOCKREPETAG
1070
     1
1071
       55
1005
130A87
  0
LINE
  5
130A88
  8
OBJECT
 10
2097.0
 20
-755.0
 30
0.0
 11
2093.0
 21
-750.49999999999989
 31
0.0
1001
ACDBBLOCKREPETAG
1070
     1
1071
       56
1005
130A88
  0
LINE
  5
130A89
  8
OBJECT
 10
2083.0
 20
-634.0
 30
0.0
 11
2080.0
 21
-634.0
 31
0.0
1001
ACDBBLOCKREPETAG
1070
     1
1071
       57
1005
130A89
  0
ARC
  5
130A8A
  8
OBJECT
 10
2083.0
 20
-637.0
 30
0.0
 40
3.0
 50
0.0
 51
90.0
1001
ACDBBLOCKREPETAG
1070
     1
1071
       58
1005
130A8A
  0
LINE
  5
130A8B
  8
OBJECT
 10
2080.0
 20
-758.0
 30
0.0
 11
2083.0
 21
-758.0
 31
0.0
1001
ACDBBLOCKREPETAG
1070
     1
1071
       59
1005
130A8B
  0
ARC
  5
130A8C
  8
OBJECT
 10
2083.0
 20
-755.0
 30
0.0
 40
3.0
 50
270.0
 51
0.0
1001
ACDBBLOCKREPETAG
1070
     1
1071
       60
1005
130A8C
  0
LINE
  5
130A8D
  8
OBJECT
 10
2086.0
 20
-755.0
 30
0.0
 11
2086.0
 21
-637.0
 31
0.0
1001
ACDBBLOCKREPETAG
1070
     1
1071
       61
1005
130A8D
  0
LINE
  5
130A8E
  8
HIDDEN
 10
2088.0
 20
-651.5
 30
0.0
 11
2088.0
 21
-740.5
 31
0.0
1001
ACDBBLOCKREPETAG
1070
     1
1071
       63
1005
130A8E
  0
TEXT
  5
130A8F
  8
SLIM
 10
0.0000035665234464
 20
24.000004585317601
 30
0.0
 40
79.999999999972701
  1
枝管バリエーション
 41
0.75
1001
ACDBBLOCKREPETAG
1070
     1
1071
      119
1005
12CC4A
  0
TEXT
  5
130A90
  8
SLIM
 10
1837.75
 20
282.50000000000011
 30
0.0
 40
35.0
  1
（枝管サイズ毎に寸法が異なります。管底の位置は50～100で同じです）
 41
0.75
  0
TEXT
  5
130A91
  8
SLIM
 10
1850.0
 20
369.99999999999989
 30
0.0
 40
100.0
  1
4SR-CO-A30P
 41
0.75
  0
TEXT
  5
130A92
  8
SLIM
 10
0.0
 20
370.0
 30
0.0
 40
100.0
  1
4SR-CO-AX0P-S
 41
0.75
  0
LINE
  5
130A93
  8
OBJECT
 10
4923.0
 20
-3395.9999999999968
 30
0.0
 11
4923.0
 21
-3374.9999999999968
 31
0.0
1001
ACDBBLOCKREPETAG
1070
     1
1071
        0
1005
130A93
  0
LINE
  5
130A94
  8
OBJECT
 10
4923.0
 20
-3374.9999999999968
 30
0.0
 11
5077.0
 21
-3374.9999999999968
 31
0.0
1001
ACDBBLOCKREPETAG
1070
     1
1071
        1
1005
130A94
  0
LINE
  5
130A95
  8
HIDDEN
 10
4943.0
 20
-3444.9999999999968
 30
0.0
 11
5057.0
 21
-3444.9999999999968
 31
0.0
1001
ACDBBLOCKREPETAG
1070
     1
1071
        2
1005
130A95
  0
LINE
  5
130A96
  8
OBJECT
 10
5077.0
 20
-3374.9999999999968
 30
0.0
 11
5077.0
 21
-3395.9999999999968
 31
0.0
1001
ACDBBLOCKREPETAG
1070
     1
1071
        3
1005
130A96
  0
LINE
  5
130A97
  8
OBJECT
 10
5077.0
 20
-3395.9999999999968
 30
0.0
 11
4923.0
 21
-3395.9999999999968
 31
0.0
1001
ACDBBLOCKREPETAG
1070
     1
1071
        4
1005
130A97
  0
LINE
  5
130A98
  8
CENTER
 10
5000.0
 20
-3359.9999999999968
 30
0.0
 11
5000.0
 21
-3594.9999999999968
 31
0.0
1001
ACDBBLOCKREPETAG
1070
     1
1071
        5
1005
130A98
  0
LINE
  5
130A99
  8
OBJECT
 10
4925.0
 20
-3458.9999999999968
 30
0.0
 11
4925.0
 21
-3582.9999999999968
 31
0.0
1001
ACDBBLOCKREPETAG
1070
     1
1071
        6
1005
130A99
  0
LINE
  5
130A9A
  8
OBJECT
 10
4928.0
 20
-3395.9999999999968
 30
0.0
 11
4928.0
 21
-3458.9999999999968
 31
0.0
1001
ACDBBLOCKREPETAG
1070
     1
1071
        7
1005
130A9A
  0
LINE
  5
130A9B
  8
OBJECT
 10
5072.0
 20
-3458.9999999999968
 30
0.0
 11
5072.0
 21
-3395.9999999999968
 31
0.0
1001
ACDBBLOCKREPETAG
1070
     1
1071
        8
1005
130A9B
  0
LINE
  5
130A9C
  8
OBJECT
 10
5074.9999999997999
 20
-3582.9999999997758
 30
0.0
 11
5080.0
 21
-3582.9999999999968
 31
0.0
1001
ACDBBLOCKREPETAG
1070
     1
1071
        9
1005
130A9C
  0
LINE
  5
130A9D
  8
OBJECT
 10
5080.0
 20
-3458.9999999999968
 30
0.0
 11
4925.0
 21
-3458.9999999999968
 31
0.0
1001
ACDBBLOCKREPETAG
1070
     1
1071
       10
1005
130A9D
  0
ARC
  5
130A9E
  8
OBJECT
 10
5200.6872746716726
 20
-3574.408099410105
 30
0.0
 40
170.6350503965856
 50
137.44134459184301
 51
149.9194958133665
1001
ACDBBLOCKREPETAG
1070
     1
1071
       15
1005
130A9E
  0
ARC
  5
130A9F
  8
OBJECT
 10
5118.8455987040506
 20
-3530.8827266953631
 30
0.0
 40
78.072222021763665
 50
147.4551531037684
 51
164.66365997719291
1001
ACDBBLOCKREPETAG
1070
     1
1071
       16
1005
130A9F
  0
ARC
  5
130AA0
  8
OBJECT
 10
5085.7554349608727
 20
-3520.9999999999968
 30
0.0
 40
43.55353926885617
 50
165.6884523008477
 51
194.3115476991523
1001
ACDBBLOCKREPETAG
1070
     1
1071
       17
1005
130AA0
  0
ARC
  5
130AA1
  8
OBJECT
 10
5200.6872746716726
 20
-3467.5919005898891
 30
0.0
 40
170.6350503965856
 50
210.0805041866335
 51
222.55865540815699
1001
ACDBBLOCKREPETAG
1070
     1
1071
       18
1005
130AA1
  0
ARC
  5
130AA2
  8
OBJECT
 10
5118.8455987040506
 20
-3511.1172733046319
 30
0.0
 40
78.072222021763665
 50
195.33634002280701
 51
212.5448468962316
1001
ACDBBLOCKREPETAG
1070
     1
1071
       19
1005
130AA2
  0
POINT
  5
130AA3
  8
DOTS
 10
5000.0
 20
-3579.9999999999968
 30
0.0
1001
ACDBBLOCKREPETAG
1070
     1
1071
      186
1005
130AA3
  0
LINE
  5
130AA4
  8
OBJECT
 10
4323.0
 20
-3395.9999999999968
 30
0.0
 11
4323.0
 21
-3374.9999999999968
 31
0.0
1001
ACDBBLOCKREPETAG
1070
     1
1071
       20
1005
130AA4
  0
LINE
  5
130AA5
  8
OBJECT
 10
4323.0
 20
-3374.9999999999968
 30
0.0
 11
4477.0
 21
-3374.9999999999968
 31
0.0
1001
ACDBBLOCKREPETAG
1070
     1
1071
       21
1005
130AA5
  0
LINE
  5
130AA6
  8
HIDDEN
 10
4343.0
 20
-3444.9999999999968
 30
0.0
 11
4457.0
 21
-3444.9999999999968
 31
0.0
1001
ACDBBLOCKREPETAG
1070
     1
1071
       22
1005
130AA6
  0
LINE
  5
130AA7
  8
OBJECT
 10
4477.0
 20
-3374.9999999999968
 30
0.0
 11
4477.0
 21
-3395.9999999999968
 31
0.0
1001
ACDBBLOCKREPETAG
1070
     1
1071
       23
1005
130AA7
  0
LINE
  5
130AA8
  8
OBJECT
 10
4477.0
 20
-3395.9999999999968
 30
0.0
 11
4323.0
 21
-3395.9999999999968
 31
0.0
1001
ACDBBLOCKREPETAG
1070
     1
1071
       24
1005
130AA8
  0
LINE
  5
130AA9
  8
CENTER
 10
4400.0
 20
-3359.9999999999968
 30
0.0
 11
4400.0
 21
-3594.9999999999968
 31
0.0
1001
ACDBBLOCKREPETAG
1070
     1
1071
       25
1005
130AA9
  0
LINE
  5
130AAA
  8
OBJECT
 10
4325.0
 20
-3458.9999999999968
 30
0.0
 11
4325.0
 21
-3582.9999999999968
 31
0.0
1001
ACDBBLOCKREPETAG
1070
     1
1071
       26
1005
130AAA
  0
LINE
  5
130AAB
  8
OBJECT
 10
4328.0
 20
-3395.9999999999968
 30
0.0
 11
4328.0
 21
-3458.9999999999968
 31
0.0
1001
ACDBBLOCKREPETAG
1070
     1
1071
       27
1005
130AAB
  0
LINE
  5
130AAC
  8
OBJECT
 10
4472.0
 20
-3458.9999999999968
 30
0.0
 11
4472.0
 21
-3395.9999999999968
 31
0.0
1001
ACDBBLOCKREPETAG
1070
     1
1071
       28
1005
130AAC
  0
LINE
  5
130AAD
  8
OBJECT
 10
4475.0
 20
-3458.9999999999968
 30
0.0
 11
4325.0
 21
-3458.9999999999968
 31
0.0
1001
ACDBBLOCKREPETAG
1070
     1
1071
       30
1005
130AAD
  0
LINE
  5
130AAE
  8
OBJECT
 10
4475.0
 20
-3458.9999999999968
 30
0.0
 11
4475.0
 21
-3582.9999999999968
 31
0.0
1001
ACDBBLOCKREPETAG
1070
     1
1071
       34
1005
130AAE
  0
POINT
  5
130AAF
  8
DOTS
 10
4400.0
 20
-3579.9999999999968
 30
0.0
1001
ACDBBLOCKREPETAG
1070
     1
1071
      187
1005
130AAF
  0
LINE
  5
130AB0
  8
OBJECT
 10
3923.0
 20
-3395.9999999999968
 30
0.0
 11
3923.0
 21
-3374.9999999999968
 31
0.0
1001
ACDBBLOCKREPETAG
1070
     1
1071
        0
1005
130AB0
  0
LINE
  5
130AB1
  8
OBJECT
 10
3923.0
 20
-3374.9999999999968
 30
0.0
 11
4077.0
 21
-3374.9999999999968
 31
0.0
1001
ACDBBLOCKREPETAG
1070
     1
1071
        1
1005
130AB1
  0
LINE
  5
130AB2
  8
HIDDEN
 10
3943.0
 20
-3444.9999999999968
 30
0.0
 11
4057.0
 21
-3444.9999999999968
 31
0.0
1001
ACDBBLOCKREPETAG
1070
     1
1071
        2
1005
130AB2
  0
LINE
  5
130AB3
  8
OBJECT
 10
4077.0
 20
-3374.9999999999968
 30
0.0
 11
4077.0
 21
-3395.9999999999968
 31
0.0
1001
ACDBBLOCKREPETAG
1070
     1
1071
        3
1005
130AB3
  0
LINE
  5
130AB4
  8
OBJECT
 10
4077.0
 20
-3395.9999999999968
 30
0.0
 11
3923.0
 21
-3395.9999999999968
 31
0.0
1001
ACDBBLOCKREPETAG
1070
     1
1071
        4
1005
130AB4
  0
LINE
  5
130AB5
  8
CENTER
 10
4000.0
 20
-3359.9999999999968
 30
0.0
 11
4000.0
 21
-3594.9999999999968
 31
0.0
1001
ACDBBLOCKREPETAG
1070
     1
1071
        5
1005
130AB5
  0
LINE
  5
130AB6
  8
OBJECT
 10
3925.0
 20
-3458.9999999999968
 30
0.0
 11
3925.0
 21
-3582.9999999999968
 31
0.0
1001
ACDBBLOCKREPETAG
1070
     1
1071
        6
1005
130AB6
  0
LINE
  5
130AB7
  8
OBJECT
 10
3928.0
 20
-3395.9999999999968
 30
0.0
 11
3928.0
 21
-3458.9999999999968
 31
0.0
1001
ACDBBLOCKREPETAG
1070
     1
1071
        7
1005
130AB7
  0
LINE
  5
130AB8
  8
OBJECT
 10
4072.0
 20
-3458.9999999999968
 30
0.0
 11
4072.0
 21
-3395.9999999999968
 31
0.0
1001
ACDBBLOCKREPETAG
1070
     1
1071
        8
1005
130AB8
  0
LINE
  5
130AB9
  8
OBJECT
 10
4074.999999999799
 20
-3582.9999999997758
 30
0.0
 11
4080.0
 21
-3582.9999999999968
 31
0.0
1001
ACDBBLOCKREPETAG
1070
     1
1071
        9
1005
130AB9
  0
LINE
  5
130ABA
  8
OBJECT
 10
4080.0
 20
-3458.9999999999968
 30
0.0
 11
3925.0
 21
-3458.9999999999968
 31
0.0
1001
ACDBBLOCKREPETAG
1070
     1
1071
       10
1005
130ABA
  0
ARC
  5
130ABB
  8
OBJECT
 10
4200.6872746716726
 20
-3574.408099410105
 30
0.0
 40
170.6350503965856
 50
137.44134459184301
 51
149.9194958133665
1001
ACDBBLOCKREPETAG
1070
     1
1071
       15
1005
130ABB
  0
ARC
  5
130ABC
  8
OBJECT
 10
4118.8455987040506
 20
-3530.8827266953631
 30
0.0
 40
78.072222021763665
 50
147.4551531037684
 51
164.663659977186
1001
ACDBBLOCKREPETAG
1070
     1
1071
       16
1005
130ABC
  0
ARC
  5
130ABD
  8
OBJECT
 10
4085.7554349608722
 20
-3520.9999999999968
 30
0.0
 40
43.55353926885617
 50
165.6884523008477
 51
194.3115476991523
1001
ACDBBLOCKREPETAG
1070
     1
1071
       17
1005
130ABD
  0
ARC
  5
130ABE
  8
OBJECT
 10
4200.6872746716726
 20
-3467.5919005898891
 30
0.0
 40
170.6350503965856
 50
210.0805041866335
 51
222.55865540815699
1001
ACDBBLOCKREPETAG
1070
     1
1071
       18
1005
130ABE
  0
ARC
  5
130ABF
  8
OBJECT
 10
4118.8455987040506
 20
-3511.1172733046319
 30
0.0
 40
78.072222021763665
 50
195.33634002281391
 51
212.5448468962316
1001
ACDBBLOCKREPETAG
1070
     1
1071
       19
1005
130ABF
  0
POINT
  5
130AC0
  8
DOTS
 10
4000.0
 20
-3579.9999999999968
 30
0.0
1001
ACDBBLOCKREPETAG
1070
     1
1071
      186
1005
130AC0
  0
LINE
  5
130AC1
  8
OBJECT
 10
3323.0
 20
-3395.9999999999968
 30
0.0
 11
3323.0
 21
-3374.9999999999968
 31
0.0
1001
ACDBBLOCKREPETAG
1070
     1
1071
       20
1005
130AC1
  0
LINE
  5
130AC2
  8
OBJECT
 10
3323.0
 20
-3374.9999999999968
 30
0.0
 11
3477.0
 21
-3374.9999999999968
 31
0.0
1001
ACDBBLOCKREPETAG
1070
     1
1071
       21
1005
130AC2
  0
LINE
  5
130AC3
  8
HIDDEN
 10
3343.0
 20
-3444.9999999999968
 30
0.0
 11
3457.0
 21
-3444.9999999999968
 31
0.0
1001
ACDBBLOCKREPETAG
1070
     1
1071
       22
1005
130AC3
  0
LINE
  5
130AC4
  8
OBJECT
 10
3477.0
 20
-3374.9999999999968
 30
0.0
 11
3477.0
 21
-3395.9999999999968
 31
0.0
1001
ACDBBLOCKREPETAG
1070
     1
1071
       23
1005
130AC4
  0
LINE
  5
130AC5
  8
OBJECT
 10
3477.0
 20
-3395.9999999999968
 30
0.0
 11
3323.0
 21
-3395.9999999999968
 31
0.0
1001
ACDBBLOCKREPETAG
1070
     1
1071
       24
1005
130AC5
  0
LINE
  5
130AC6
  8
CENTER
 10
3400.0
 20
-3359.9999999999968
 30
0.0
 11
3400.0
 21
-3594.9999999999968
 31
0.0
1001
ACDBBLOCKREPETAG
1070
     1
1071
       25
1005
130AC6
  0
LINE
  5
130AC7
  8
OBJECT
 10
3325.0
 20
-3458.9999999999968
 30
0.0
 11
3325.0
 21
-3582.9999999999968
 31
0.0
1001
ACDBBLOCKREPETAG
1070
     1
1071
       26
1005
130AC7
  0
LINE
  5
130AC8
  8
OBJECT
 10
3328.0
 20
-3395.9999999999968
 30
0.0
 11
3328.0
 21
-3458.9999999999968
 31
0.0
1001
ACDBBLOCKREPETAG
1070
     1
1071
       27
1005
130AC8
  0
LINE
  5
130AC9
  8
OBJECT
 10
3472.0
 20
-3458.9999999999968
 30
0.0
 11
3472.0
 21
-3395.9999999999968
 31
0.0
1001
ACDBBLOCKREPETAG
1070
     1
1071
       28
1005
130AC9
  0
LINE
  5
130ACA
  8
OBJECT
 10
3475.0
 20
-3458.9999999999968
 30
0.0
 11
3325.0
 21
-3458.9999999999968
 31
0.0
1001
ACDBBLOCKREPETAG
1070
     1
1071
       30
1005
130ACA
  0
LINE
  5
130ACB
  8
OBJECT
 10
3475.0
 20
-3458.9999999999968
 30
0.0
 11
3475.0
 21
-3582.9999999999968
 31
0.0
1001
ACDBBLOCKREPETAG
1070
     1
1071
       34
1005
130ACB
  0
POINT
  5
130ACC
  8
DOTS
 10
3400.0
 20
-3579.9999999999968
 30
0.0
1001
ACDBBLOCKREPETAG
1070
     1
1071
      187
1005
130ACC
  0
LINE
  5
130ACD
  8
OBJECT
 10
2923.0
 20
-3395.9999999999968
 30
0.0
 11
2923.0
 21
-3374.9999999999968
 31
0.0
1001
ACDBBLOCKREPETAG
1070
     1
1071
        0
1005
130ACD
  0
LINE
  5
130ACE
  8
OBJECT
 10
2923.0
 20
-3374.9999999999968
 30
0.0
 11
3077.0
 21
-3374.9999999999968
 31
0.0
1001
ACDBBLOCKREPETAG
1070
     1
1071
        1
1005
130ACE
  0
LINE
  5
130ACF
  8
HIDDEN
 10
2943.0
 20
-3444.9999999999968
 30
0.0
 11
3057.0
 21
-3444.9999999999968
 31
0.0
1001
ACDBBLOCKREPETAG
1070
     1
1071
        2
1005
130ACF
  0
LINE
  5
130AD0
  8
OBJECT
 10
3077.0
 20
-3374.9999999999968
 30
0.0
 11
3077.0
 21
-3395.9999999999968
 31
0.0
1001
ACDBBLOCKREPETAG
1070
     1
1071
        3
1005
130AD0
  0
LINE
  5
130AD1
  8
OBJECT
 10
3077.0
 20
-3395.9999999999968
 30
0.0
 11
2923.0
 21
-3395.9999999999968
 31
0.0
1001
ACDBBLOCKREPETAG
1070
     1
1071
        4
1005
130AD1
  0
LINE
  5
130AD2
  8
CENTER
 10
3000.0
 20
-3359.9999999999968
 30
0.0
 11
3000.0
 21
-3594.9999999999968
 31
0.0
1001
ACDBBLOCKREPETAG
1070
     1
1071
        5
1005
130AD2
  0
LINE
  5
130AD3
  8
OBJECT
 10
2925.0
 20
-3458.9999999999968
 30
0.0
 11
2925.0
 21
-3582.9999999999968
 31
0.0
1001
ACDBBLOCKREPETAG
1070
     1
1071
        6
1005
130AD3
  0
LINE
  5
130AD4
  8
OBJECT
 10
2928.0
 20
-3395.9999999999968
 30
0.0
 11
2928.0
 21
-3458.9999999999968
 31
0.0
1001
ACDBBLOCKREPETAG
1070
     1
1071
        7
1005
130AD4
  0
LINE
  5
130AD5
  8
OBJECT
 10
3072.0
 20
-3458.9999999999968
 30
0.0
 11
3072.0
 21
-3395.9999999999968
 31
0.0
1001
ACDBBLOCKREPETAG
1070
     1
1071
        8
1005
130AD5
  0
LINE
  5
130AD6
  8
OBJECT
 10
3074.9999999997999
 20
-3582.9999999997758
 30
0.0
 11
3080.0
 21
-3582.9999999999968
 31
0.0
1001
ACDBBLOCKREPETAG
1070
     1
1071
        9
1005
130AD6
  0
LINE
  5
130AD7
  8
OBJECT
 10
3080.0
 20
-3458.9999999999968
 30
0.0
 11
2925.0
 21
-3458.9999999999968
 31
0.0
1001
ACDBBLOCKREPETAG
1070
     1
1071
       10
1005
130AD7
  0
ARC
  5
130AD8
  8
OBJECT
 10
3200.6872746716722
 20
-3574.408099410105
 30
0.0
 40
170.6350503965856
 50
137.44134459184301
 51
149.9194958133665
1001
ACDBBLOCKREPETAG
1070
     1
1071
       15
1005
130AD8
  0
ARC
  5
130AD9
  8
OBJECT
 10
3118.8455987040511
 20
-3530.8827266953631
 30
0.0
 40
78.072222021763665
 50
147.4551531037684
 51
164.663659977186
1001
ACDBBLOCKREPETAG
1070
     1
1071
       16
1005
130AD9
  0
ARC
  5
130ADA
  8
OBJECT
 10
3085.7554349608731
 20
-3520.9999999999968
 30
0.0
 40
43.55353926885617
 50
165.6884523008477
 51
194.3115476991523
1001
ACDBBLOCKREPETAG
1070
     1
1071
       17
1005
130ADA
  0
ARC
  5
130ADB
  8
OBJECT
 10
3200.6872746716722
 20
-3467.5919005898891
 30
0.0
 40
170.6350503965856
 50
210.0805041866335
 51
222.55865540815699
1001
ACDBBLOCKREPETAG
1070
     1
1071
       18
1005
130ADB
  0
ARC
  5
130ADC
  8
OBJECT
 10
3118.8455987040511
 20
-3511.1172733046319
 30
0.0
 40
78.072222021763665
 50
195.33634002281391
 51
212.5448468962316
1001
ACDBBLOCKREPETAG
1070
     1
1071
       19
1005
130ADC
  0
POINT
  5
130ADD
  8
DOTS
 10
3000.0
 20
-3579.9999999999968
 30
0.0
1001
ACDBBLOCKREPETAG
1070
     1
1071
      186
1005
130ADD
  0
LINE
  5
130ADE
  8
OBJECT
 10
2323.0
 20
-3395.9999999999968
 30
0.0
 11
2323.0
 21
-3374.9999999999968
 31
0.0
1001
ACDBBLOCKREPETAG
1070
     1
1071
       20
1005
130ADE
  0
LINE
  5
130ADF
  8
OBJECT
 10
2323.0
 20
-3374.9999999999968
 30
0.0
 11
2477.0
 21
-3374.9999999999968
 31
0.0
1001
ACDBBLOCKREPETAG
1070
     1
1071
       21
1005
130ADF
  0
LINE
  5
130AE0
  8
HIDDEN
 10
2343.0
 20
-3444.9999999999968
 30
0.0
 11
2457.0
 21
-3444.9999999999968
 31
0.0
1001
ACDBBLOCKREPETAG
1070
     1
1071
       22
1005
130AE0
  0
LINE
  5
130AE1
  8
OBJECT
 10
2477.0
 20
-3374.9999999999968
 30
0.0
 11
2477.0
 21
-3395.9999999999968
 31
0.0
1001
ACDBBLOCKREPETAG
1070
     1
1071
       23
1005
130AE1
  0
LINE
  5
130AE2
  8
OBJECT
 10
2477.0
 20
-3395.9999999999968
 30
0.0
 11
2323.0
 21
-3395.9999999999968
 31
0.0
1001
ACDBBLOCKREPETAG
1070
     1
1071
       24
1005
130AE2
  0
LINE
  5
130AE3
  8
CENTER
 10
2400.0
 20
-3359.9999999999968
 30
0.0
 11
2400.0
 21
-3594.9999999999968
 31
0.0
1001
ACDBBLOCKREPETAG
1070
     1
1071
       25
1005
130AE3
  0
LINE
  5
130AE4
  8
OBJECT
 10
2325.0
 20
-3458.9999999999968
 30
0.0
 11
2325.0
 21
-3582.9999999999968
 31
0.0
1001
ACDBBLOCKREPETAG
1070
     1
1071
       26
1005
130AE4
  0
LINE
  5
130AE5
  8
OBJECT
 10
2328.0
 20
-3395.9999999999968
 30
0.0
 11
2328.0
 21
-3458.9999999999968
 31
0.0
1001
ACDBBLOCKREPETAG
1070
     1
1071
       27
1005
130AE5
  0
LINE
  5
130AE6
  8
OBJECT
 10
2472.0
 20
-3458.9999999999968
 30
0.0
 11
2472.0
 21
-3395.9999999999968
 31
0.0
1001
ACDBBLOCKREPETAG
1070
     1
1071
       28
1005
130AE6
  0
LINE
  5
130AE7
  8
OBJECT
 10
2475.0
 20
-3458.9999999999968
 30
0.0
 11
2325.0
 21
-3458.9999999999968
 31
0.0
1001
ACDBBLOCKREPETAG
1070
     1
1071
       30
1005
130AE7
  0
LINE
  5
130AE8
  8
OBJECT
 10
2475.0
 20
-3458.9999999999968
 30
0.0
 11
2475.0
 21
-3582.9999999999968
 31
0.0
1001
ACDBBLOCKREPETAG
1070
     1
1071
       34
1005
130AE8
  0
POINT
  5
130AE9
  8
DOTS
 10
2400.0
 20
-3579.9999999999968
 30
0.0
1001
ACDBBLOCKREPETAG
1070
     1
1071
      187
1005
130AE9
  0
LINE
  5
130AEA
  8
OBJECT
 10
1923.0
 20
-3395.9999999999968
 30
0.0
 11
1923.0
 21
-3374.9999999999968
 31
0.0
1001
ACDBBLOCKREPETAG
1070
     1
1071
        0
1005
130AEA
  0
LINE
  5
130AEB
  8
OBJECT
 10
1923.0
 20
-3374.9999999999968
 30
0.0
 11
2077.0
 21
-3374.9999999999968
 31
0.0
1001
ACDBBLOCKREPETAG
1070
     1
1071
        1
1005
130AEB
  0
LINE
  5
130AEC
  8
HIDDEN
 10
1943.0
 20
-3444.9999999999968
 30
0.0
 11
2057.0
 21
-3444.9999999999968
 31
0.0
1001
ACDBBLOCKREPETAG
1070
     1
1071
        2
1005
130AEC
  0
LINE
  5
130AED
  8
OBJECT
 10
2077.0
 20
-3374.9999999999968
 30
0.0
 11
2077.0
 21
-3395.9999999999968
 31
0.0
1001
ACDBBLOCKREPETAG
1070
     1
1071
        3
1005
130AED
  0
LINE
  5
130AEE
  8
OBJECT
 10
2077.0
 20
-3395.9999999999968
 30
0.0
 11
1923.0
 21
-3395.9999999999968
 31
0.0
1001
ACDBBLOCKREPETAG
1070
     1
1071
        4
1005
130AEE
  0
LINE
  5
130AEF
  8
CENTER
 10
2000.0
 20
-3359.9999999999968
 30
0.0
 11
2000.0
 21
-3594.9999999999968
 31
0.0
1001
ACDBBLOCKREPETAG
1070
     1
1071
        5
1005
130AEF
  0
LINE
  5
130AF0
  8
OBJECT
 10
1925.0
 20
-3458.9999999999968
 30
0.0
 11
1925.0
 21
-3582.9999999999968
 31
0.0
1001
ACDBBLOCKREPETAG
1070
     1
1071
        6
1005
130AF0
  0
LINE
  5
130AF1
  8
OBJECT
 10
1928.0
 20
-3395.9999999999968
 30
0.0
 11
1928.0
 21
-3458.9999999999968
 31
0.0
1001
ACDBBLOCKREPETAG
1070
     1
1071
        7
1005
130AF1
  0
LINE
  5
130AF2
  8
OBJECT
 10
2072.0
 20
-3458.9999999999968
 30
0.0
 11
2072.0
 21
-3395.9999999999968
 31
0.0
1001
ACDBBLOCKREPETAG
1070
     1
1071
        8
1005
130AF2
  0
LINE
  5
130AF3
  8
OBJECT
 10
2074.999999999799
 20
-3582.9999999997758
 30
0.0
 11
2080.0
 21
-3582.9999999999968
 31
0.0
1001
ACDBBLOCKREPETAG
1070
     1
1071
        9
1005
130AF3
  0
LINE
  5
130AF4
  8
OBJECT
 10
2080.0
 20
-3458.9999999999968
 30
0.0
 11
1925.0
 21
-3458.9999999999968
 31
0.0
1001
ACDBBLOCKREPETAG
1070
     1
1071
       10
1005
130AF4
  0
ARC
  5
130AF5
  8
OBJECT
 10
2200.6872746716731
 20
-3574.408099410105
 30
0.0
 40
170.6350503965856
 50
137.44134459184301
 51
149.91949581335999
1001
ACDBBLOCKREPETAG
1070
     1
1071
       15
1005
130AF5
  0
ARC
  5
130AF6
  8
OBJECT
 10
2118.8455987040511
 20
-3530.8827266953631
 30
0.0
 40
78.072222021763665
 50
147.45515310377539
 51
164.663659977186
1001
ACDBBLOCKREPETAG
1070
     1
1071
       16
1005
130AF6
  0
ARC
  5
130AF7
  8
OBJECT
 10
2085.7554349608731
 20
-3520.9999999999968
 30
0.0
 40
43.55353926885617
 50
165.6884523008477
 51
194.3115476991523
1001
ACDBBLOCKREPETAG
1070
     1
1071
       17
1005
130AF7
  0
ARC
  5
130AF8
  8
OBJECT
 10
2200.6872746716731
 20
-3467.5919005898891
 30
0.0
 40
170.6350503965856
 50
210.08050418664001
 51
222.55865540815699
1001
ACDBBLOCKREPETAG
1070
     1
1071
       18
1005
130AF8
  0
ARC
  5
130AF9
  8
OBJECT
 10
2118.8455987040511
 20
-3511.1172733046319
 30
0.0
 40
78.072222021763665
 50
195.33634002281391
 51
212.54484689622461
1001
ACDBBLOCKREPETAG
1070
     1
1071
       19
1005
130AF9
  0
POINT
  5
130AFA
  8
DOTS
 10
2000.0
 20
-3579.9999999999968
 30
0.0
1001
ACDBBLOCKREPETAG
1070
     1
1071
      186
1005
130AFA
  0
LINE
  5
130AFB
  8
DIM
 10
2150.0
 20
-3221.9999999999959
 30
0.0
 11
2228.479620594459
 21
-3221.9999999999959
 31
0.0
  0
LINE
  5
130AFC
  8
DIM
 10
2150.0
 20
-3127.9999999999959
 30
0.0
 11
2228.479620594459
 21
-3127.9999999999959
 31
0.0
  0
LINE
  5
130AFD
  8
DIM
 10
2218.479620594459
 20
-3201.9999999999959
 30
0.0
 11
2218.479620594459
 21
-3147.9999999999959
 31
0.0
  0
INSERT
  5
130AFE
  8
DIM
  2
_OPEN30
 10
2218.479620594459
 20
-3221.9999999999959
 30
0.0
 41
20.0
 42
20.0
 43
20.0
 50
270.0
  0
INSERT
  5
130AFF
  8
DIM
  2
_OPEN30
 10
2218.479620594459
 20
-3127.9999999999959
 30
0.0
 41
20.0
 42
20.0
 43
20.0
 50
90.0
  0
INSERT
  5
130B00
  8
OBJECT
  2
*U13
 10
0.0
 20
0.0
 30
0.0
  0
LINE
  5
130B01
  8
DIM
 10
2150.0
 20
-3579.9999999999968
 30
0.0
 11
2226.8409284037339
 21
-3579.9999999999968
 31
0.0
  0
LINE
  5
130B02
  8
DIM
 10
2165.0
 20
-3535.9999999999968
 30
0.0
 11
2226.8409284037339
 21
-3535.9999999999968
 31
0.0
  0
LINE
  5
130B03
  8
DIM
 10
2216.840928403733
 20
-3599.9999999999968
 30
0.0
 11
2216.840928403733
 21
-3619.9999999999968
 31
0.0
  0
LINE
  5
130B04
  8
DIM
 10
2216.840928403733
 20
-3515.9999999999968
 30
0.0
 11
2216.840928403733
 21
-3495.9999999999968
 31
0.0
  0
LINE
  5
130B05
  8
DIM
 10
2216.840928403733
 20
-3579.9999999999968
 30
0.0
 11
2216.840928403733
 21
-3535.9999999999968
 31
0.0
  0
INSERT
  5
130B06
  8
DIM
  2
_OPEN30
 10
2216.840928403733
 20
-3579.9999999999968
 30
0.0
 41
20.0
 42
20.0
 43
20.0
 50
90.0
  0
INSERT
  5
130B07
  8
DIM
  2
_OPEN30
 10
2216.840928403733
 20
-3535.9999999999968
 30
0.0
 41
20.0
 42
20.0
 43
20.0
 50
270.0
  0
INSERT
  5
130B08
  8
OBJECT
  2
*U14
 10
0.0
 20
0.0
 30
0.0
  0
LINE
  5
130B09
  8
DIM
 10
2000.0
 20
-3069.9999999999959
 30
0.0
 11
2000.0
 21
-3037.208121984444
 31
0.0
  0
LINE
  5
130B0A
  8
DIM
 10
2140.0
 20
-3117.9999999999959
 30
0.0
 11
2140.0
 21
-3037.208121984444
 31
0.0
  0
LINE
  5
130B0B
  8
DIM
 10
2020.0
 20
-3047.208121984444
 30
0.0
 11
2120.0
 21
-3047.208121984444
 31
0.0
  0
INSERT
  5
130B0C
  8
DIM
  2
_OPEN30
 10
2000.0
 20
-3047.208121984444
 30
0.0
 41
20.0
 42
20.0
 43
20.0
 50
180.0
  0
INSERT
  5
130B0D
  8
DIM
  2
_OPEN30
 10
2140.0
 20
-3047.208121984444
 30
0.0
 41
20.0
 42
20.0
 43
20.0
  0
INSERT
  5
130B0E
  8
OBJECT
  2
*U15
 10
0.0
 20
0.0
 30
0.0
  0
TEXT
  5
130B0F
  8
SLIM
 10
2631.0
 20
-2952.50001604727
 30
0.0
 40
40.0
  1
C寸法
 41
0.75
  0
TEXT
  5
130B10
  8
SLIM
 10
2631.0
 20
-2882.50001604727
 30
0.0
 40
40.0
  1
B寸法
 41
0.75
  0
TEXT
  5
130B11
  8
SLIM
 10
2630.2857142857142
 20
-2812.50001604727
 30
0.0
 40
40.0
  1
A寸法
 41
0.75
  0
TEXT
  5
130B12
  8
SLIM
 10
3159.2857142857151
 20
-2952.50001604727
 30
0.0
 40
40.0
  1
150
 41
0.75
  0
TEXT
  5
130B13
  8
SLIM
 10
3029.2857142857151
 20
-2952.50001604727
 30
0.0
 40
40.0
  1
140
 41
0.75
  0
TEXT
  5
130B14
  8
SLIM
 10
2769.2857142857151
 20
-2952.50001604727
 30
0.0
 40
40.0
  1
140
 41
0.75
  0
TEXT
  5
130B15
  8
SLIM
 10
2899.2857142857151
 20
-2952.50001604727
 30
0.0
 40
40.0
  1
140
 41
0.75
  0
TEXT
  5
130B16
  8
SLIM
 10
3170.7142857142858
 20
-2882.50001604727
 30
0.0
 40
40.0
  1
72
 41
0.75
  0
TEXT
  5
130B17
  8
SLIM
 10
3041.4285714285711
 20
-2882.50001604727
 30
0.0
 40
40.0
  1
59
 41
0.75
  0
TEXT
  5
130B18
  8
SLIM
 10
2780.0
 20
-2882.50001604727
 30
0.0
 40
40.0
  1
44
 41
0.75
  0
TEXT
  5
130B19
  8
SLIM
 10
2910.7142857142858
 20
-2882.50001604727
 30
0.0
 40
40.0
  1
52
 41
0.75
  0
TEXT
  5
130B1A
  8
SLIM
 10
2891.0
 20
-2687.50001604727
 30
0.0
 40
40.0
  1
横枝管サイズ
 41
0.75
  0
TEXT
  5
130B1B
  8
SLIM
 10
3136.2857142857151
 20
-2742.50001604727
 30
0.0
 40
30.0
  1
100（4）
 41
0.75
  0
TEXT
  5
130B1C
  8
SLIM
 10
3014.857142857144
 20
-2742.50001604727
 30
0.0
 40
30.0
  1
75（3）
 41
0.75
  0
TEXT
  5
130B1D
  8
SLIM
 10
2884.8571428571431
 20
-2742.50001604727
 30
0.0
 40
30.0
  1
65（2）
 41
0.75
  0
TEXT
  5
130B1E
  8
SLIM
 10
2757.0
 20
-2742.50001604727
 30
0.0
 40
30.0
  1
50（1）
 41
0.75
  0
TEXT
  5
130B1F
  8
SLIM
 10
3159.2857142857151
 20
-2812.50001604727
 30
0.0
 40
40.0
  1
150
 41
0.75
  0
TEXT
  5
130B20
  8
SLIM
 10
3028.571428571428
 20
-2812.50001604727
 30
0.0
 40
40.0
  1
124
 41
0.75
  0
TEXT
  5
130B21
  8
SLIM
 10
2780.0
 20
-2812.50001604727
 30
0.0
 40
40.0
  1
94
 41
0.75
  0
TEXT
  5
130B22
  8
SLIM
 10
2902.1428571428569
 20
-2812.50001604727
 30
0.0
 40
40.0
  1
110
 41
0.75
  0
TEXT
  5
130B23
  8
SLIM
 10
1849.9999999999991
 20
-2712.5
 30
0.0
 40
75.0
  1
枝管サイズ毎の形状
 41
0.75
  0
LINE
  5
130B24
  8
OBJECT
 10
5150.0
 20
-3432.9999999999968
 30
0.0
 11
5143.0
 21
-3432.9999999999968
 31
0.0
1001
ACDBBLOCKREPETAG
1070
     1
1071
       64
1005
130B24
  0
LINE
  5
130B25
  8
OBJECT
 10
5143.0
 20
-3432.9999999999968
 30
0.0
 11
5143.0
 21
-3579.9999999999968
 31
0.0
1001
ACDBBLOCKREPETAG
1070
     1
1071
       65
1005
130B25
  0
LINE
  5
130B26
  8
OBJECT
 10
5101.5
 20
-3435.9999999999968
 30
0.0
 11
5101.5
 21
-3579.9999999999968
 31
0.0
1001
ACDBBLOCKREPETAG
1070
     1
1071
       66
1005
130B26
  0
LINE
  5
130B27
  8
OBJECT
 10
5090.0
 20
-3442.4999999999968
 30
0.0
 11
5090.0
 21
-3573.4999999999968
 31
0.0
1001
ACDBBLOCKREPETAG
1070
     1
1071
       67
1005
130B27
  0
LINE
  5
130B28
  8
OBJECT
 10
5086.0
 20
-3514.5000000000041
 30
0.0
 11
5086.0
 21
-3579.9999999999968
 31
0.0
1001
ACDBBLOCKREPETAG
1070
     1
1071
       68
1005
130B28
  0
LINE
  5
130B29
  8
OBJECT
 10
5150.0
 20
-3579.9999999999968
 30
0.0
 11
5150.0
 21
-3432.9999999999968
 31
0.0
1001
ACDBBLOCKREPETAG
1070
     1
1071
       69
1005
130B29
  0
LINE
  5
130B2A
  8
CENTER
 10
5165.0
 20
-3507.9999999999968
 30
0.0
 11
5070.4144144144157
 21
-3507.9999999999968
 31
0.0
1001
ACDBBLOCKREPETAG
1070
     1
1071
       70
1005
130B2A
  0
LINE
  5
130B2B
  8
OBJECT
 10
5083.0000000000045
 20
-3582.9999999999968
 30
0.0
 11
5080.0
 21
-3582.9999999999968
 31
0.0
1001
ACDBBLOCKREPETAG
1070
     1
1071
       71
1005
130B2B
  0
ARC
  5
130B2C
  8
OBJECT
 10
5091.8815171830656
 20
-3581.4555591801418
 30
0.0
 40
6.0
 50
60.52411099686767
 51
170.6927439126847
1001
ACDBBLOCKREPETAG
1070
     1
1071
       72
1005
130B2C
  0
ARC
  5
130B2D
  8
OBJECT
 10
5083.0
 20
-3579.9999999999968
 30
0.0
 40
3.0
 50
270.0
 51
350.69274391268482
1001
ACDBBLOCKREPETAG
1070
     1
1071
       73
1005
130B2D
  0
LINE
  5
130B2E
  8
OBJECT
 10
5081.0
 20
-3458.9999999999968
 30
0.0
 11
5080.0
 21
-3458.9999999999968
 31
0.0
1001
ACDBBLOCKREPETAG
1070
     1
1071
       74
1005
130B2E
  0
LINE
  5
130B2F
  8
OBJECT
 10
5150.0
 20
-3579.9999999999968
 30
0.0
 11
5101.5
 21
-3579.9999999999968
 31
0.0
1001
ACDBBLOCKREPETAG
1070
     1
1071
       75
1005
130B2F
  0
LINE
  5
130B30
  8
OBJECT
 10
5101.5
 20
-3435.9999999999968
 30
0.0
 11
5090.0
 21
-3442.4999999999968
 31
0.0
1001
ACDBBLOCKREPETAG
1070
     1
1071
       76
1005
130B30
  0
LINE
  5
130B31
  8
OBJECT
 10
5143.0
 20
-3435.9999999999968
 30
0.0
 11
5101.5
 21
-3435.9999999999968
 31
0.0
1001
ACDBBLOCKREPETAG
1070
     1
1071
       77
1005
130B31
  0
LINE
  5
130B32
  8
OBJECT
 10
5086.0
 20
-3514.5000000000041
 30
0.0
 11
5081.0
 21
-3458.9999999999968
 31
0.0
1001
ACDBBLOCKREPETAG
1070
     1
1071
       78
1005
130B32
  0
LINE
  5
130B33
  8
OBJECT
 10
5090.0
 20
-3442.4999999999968
 30
0.0
 11
5081.0
 21
-3458.9999999999968
 31
0.0
1001
ACDBBLOCKREPETAG
1070
     1
1071
       79
1005
130B33
  0
LINE
  5
130B34
  8
OBJECT
 10
5101.5
 20
-3579.9999999999968
 30
0.0
 11
5094.8338607230708
 21
-3576.232182147819
 31
0.0
1001
ACDBBLOCKREPETAG
1070
     1
1071
       80
1005
130B34
  0
LINE
  5
130B35
  8
HIDDEN
 10
5098.0
 20
-3564.9999999999968
 30
0.0
 11
5098.0
 21
-3450.9999999999968
 31
0.0
1001
ACDBBLOCKREPETAG
1070
     1
1071
       81
1005
130B35
  0
LINE
  5
130B36
  8
OBJECT
 10
5150.0
 20
-3099.9999999999959
 30
0.0
 11
5143.0
 21
-3099.9999999999959
 31
0.0
1001
ACDBBLOCKREPETAG
1070
     1
1071
       67
1005
130B36
  0
LINE
  5
130B37
  8
OBJECT
 10
5143.0
 20
-3099.9999999999959
 30
0.0
 11
5143.0
 21
-3249.9999999999959
 31
0.0
1001
ACDBBLOCKREPETAG
1070
     1
1071
       68
1005
130B37
  0
LINE
  5
130B38
  8
OBJECT
 10
5101.5
 20
-3102.9999999999959
 30
0.0
 11
5101.5
 21
-3246.9999999999959
 31
0.0
1001
ACDBBLOCKREPETAG
1070
     1
1071
       69
1005
130B38
  0
LINE
  5
130B39
  8
OBJECT
 10
5090.0
 20
-3109.4999999999959
 30
0.0
 11
5090.0
 21
-3240.4999999999959
 31
0.0
1001
ACDBBLOCKREPETAG
1070
     1
1071
       70
1005
130B39
  0
LINE
  5
130B3A
  8
OBJECT
 10
5143.0
 20
-3249.9999999999959
 30
0.0
 11
5150.0
 21
-3249.9999999999959
 31
0.0
1001
ACDBBLOCKREPETAG
1070
     1
1071
       71
1005
130B3A
  0
LINE
  5
130B3B
  8
OBJECT
 10
5150.0
 20
-3249.9999999999959
 30
0.0
 11
5150.0
 21
-3099.9999999999959
 31
0.0
1001
ACDBBLOCKREPETAG
1070
     1
1071
       72
1005
130B3B
  0
LINE
  5
130B3C
  8
HIDDEN
 10
5098.0
 20
-3231.9999999999959
 30
0.0
 11
5098.0
 21
-3117.9999999999959
 31
0.0
1001
ACDBBLOCKREPETAG
1070
     1
1071
       73
1005
130B3C
  0
LINE
  5
130B3D
  8
CENTER
 10
5165.0
 20
-3174.9999999999959
 30
0.0
 11
5080.0
 21
-3174.9999999999959
 31
0.0
1001
ACDBBLOCKREPETAG
1070
     1
1071
       74
1005
130B3D
  0
LINE
  5
130B3E
  8
OBJECT
 10
5086.0
 20
-3236.9999999999959
 30
0.0
 11
5080.0
 21
-3236.9999999999959
 31
0.0
1001
ACDBBLOCKREPETAG
1070
     1
1071
       75
1005
130B3E
  0
LINE
  5
130B3F
  8
OBJECT
 10
5143.0
 20
-3246.9999999999959
 30
0.0
 11
5101.5
 21
-3246.9999999999959
 31
0.0
1001
ACDBBLOCKREPETAG
1070
     1
1071
       76
1005
130B3F
  0
LINE
  5
130B40
  8
OBJECT
 10
5101.5
 20
-3246.9999999999959
 30
0.0
 11
5090.0
 21
-3240.4999999999959
 31
0.0
1001
ACDBBLOCKREPETAG
1070
     1
1071
       77
1005
130B40
  0
LINE
  5
130B41
  8
OBJECT
 10
5090.0
 20
-3240.4999999999959
 30
0.0
 11
5086.0
 21
-3236.9999999999959
 31
0.0
1001
ACDBBLOCKREPETAG
1070
     1
1071
       78
1005
130B41
  0
LINE
  5
130B42
  8
OBJECT
 10
5101.5
 20
-3102.9999999999959
 30
0.0
 11
5090.0
 21
-3109.4999999999959
 31
0.0
1001
ACDBBLOCKREPETAG
1070
     1
1071
       79
1005
130B42
  0
LINE
  5
130B43
  8
OBJECT
 10
5090.0
 20
-3109.4999999999959
 30
0.0
 11
5086.0
 21
-3112.9999999999959
 31
0.0
1001
ACDBBLOCKREPETAG
1070
     1
1071
       80
1005
130B43
  0
ARC
  5
130B44
  8
OBJECT
 10
5467.9000000000005
 20
-3174.9999999999959
 30
0.0
 40
386.89999999999998
 50
170.77870136260421
 51
189.22129863739571
1001
ACDBBLOCKREPETAG
1070
     1
1071
       81
1005
130B44
  0
LINE
  5
130B45
  8
OBJECT
 10
5086.0
 20
-3112.9999999999959
 30
0.0
 11
5080.0
 21
-3112.9999999999959
 31
0.0
1001
ACDBBLOCKREPETAG
1070
     1
1071
       82
1005
130B45
  0
LINE
  5
130B46
  8
OBJECT
 10
5143.0
 20
-3102.9999999999959
 30
0.0
 11
5101.5
 21
-3102.9999999999959
 31
0.0
1001
ACDBBLOCKREPETAG
1070
     1
1071
       83
1005
130B46
  0
TEXT
  5
130B47
  8
SLIM
 10
4884.25
 20
-3697.4999999999959
 30
0.0
 40
35.0
  1
通常枝100（4）
 41
0.75
  0
LINE
  5
130B48
  8
CENTER
 10
4477.0
 20
-3520.9999999999968
 30
0.0
 11
4323.0
 21
-3520.9999999999968
 31
0.0
1001
ACDBBLOCKREPETAG
1070
     1
1071
       17
1005
130B48
  0
CIRCLE
  5
130B49
  8
OBJECT
 10
4400.0
 20
-3520.9999999999968
 30
0.0
 40
41.5
1001
ACDBBLOCKREPETAG
1070
     1
1071
       19
1005
130B49
  0
CIRCLE
  5
130B4A
  8
OBJECT
 10
4400.0
 20
-3520.9999999999968
 30
0.0
 40
54.0
1001
ACDBBLOCKREPETAG
1070
     1
1071
       20
1005
130B4A
  0
ARC
  5
130B4B
  8
OBJECT
 10
4400.0
 20
-3520.9999999999968
 30
0.0
 40
62.0
 50
287.89655112921122
 51
252.1034488707887
1001
ACDBBLOCKREPETAG
1070
     1
1071
       21
1005
130B4B
  0
LINE
  5
130B4C
  8
OBJECT
 10
4380.947441116743
 20
-3579.9999999999968
 30
0.0
 11
4419.052558883257
 21
-3579.9999999999968
 31
0.0
1001
ACDBBLOCKREPETAG
1070
     1
1071
       22
1005
130B4C
  0
LINE
  5
130B4D
  8
OBJECT
 10
4133.0
 20
-3458.9999999999968
 30
0.0
 11
4140.0
 21
-3458.9999999999968
 31
0.0
1001
ACDBBLOCKREPETAG
1070
     1
1071
       45
1005
130B4D
  0
LINE
  5
130B4E
  8
OBJECT
 10
4140.0
 20
-3458.9999999999968
 30
0.0
 11
4140.0
 21
-3579.9999999999968
 31
0.0
1001
ACDBBLOCKREPETAG
1070
     1
1071
       46
1005
130B4E
  0
LINE
  5
130B4F
  8
OBJECT
 10
4133.0
 20
-3579.9999999999968
 30
0.0
 11
4133.0
 21
-3458.9999999999968
 31
0.0
1001
ACDBBLOCKREPETAG
1070
     1
1071
       47
1005
130B4F
  0
LINE
  5
130B50
  8
CENTER
 10
4155.0
 20
-3520.9999999999968
 30
0.0
 11
4071.0
 21
-3520.9999999999968
 31
0.0
1001
ACDBBLOCKREPETAG
1070
     1
1071
       48
1005
130B50
  0
LINE
  5
130B51
  8
OBJECT
 10
4133.0
 20
-3461.9999999999968
 30
0.0
 11
4097.0
 21
-3461.9999999999968
 31
0.0
1001
ACDBBLOCKREPETAG
1070
     1
1071
       49
1005
130B51
  0
LINE
  5
130B52
  8
OBJECT
 10
4097.0
 20
-3461.9999999999968
 30
0.0
 11
4097.0
 21
-3579.9999999999968
 31
0.0
1001
ACDBBLOCKREPETAG
1070
     1
1071
       50
1005
130B52
  0
LINE
  5
130B53
  8
OBJECT
 10
4097.0
 20
-3579.9999999999968
 30
0.0
 11
4140.0
 21
-3579.9999999999968
 31
0.0
1001
ACDBBLOCKREPETAG
1070
     1
1071
       51
1005
130B53
  0
LINE
  5
130B54
  8
OBJECT
 10
4093.0
 20
-3466.4999999999968
 30
0.0
 11
4086.0
 21
-3466.4999999999968
 31
0.0
1001
ACDBBLOCKREPETAG
1070
     1
1071
       52
1005
130B54
  0
LINE
  5
130B55
  8
OBJECT
 10
4086.0
 20
-3575.4999999999968
 30
0.0
 11
4093.0
 21
-3575.4999999999968
 31
0.0
1001
ACDBBLOCKREPETAG
1070
     1
1071
       53
1005
130B55
  0
LINE
  5
130B56
  8
OBJECT
 10
4093.0
 20
-3575.4999999999968
 30
0.0
 11
4093.0
 21
-3466.4999999999968
 31
0.0
1001
ACDBBLOCKREPETAG
1070
     1
1071
       54
1005
130B56
  0
LINE
  5
130B57
  8
OBJECT
 10
4097.0
 20
-3461.9999999999968
 30
0.0
 11
4093.0
 21
-3466.4999999999968
 31
0.0
1001
ACDBBLOCKREPETAG
1070
     1
1071
       55
1005
130B57
  0
LINE
  5
130B58
  8
OBJECT
 10
4097.0
 20
-3579.9999999999968
 30
0.0
 11
4093.0
 21
-3575.4999999999968
 31
0.0
1001
ACDBBLOCKREPETAG
1070
     1
1071
       56
1005
130B58
  0
LINE
  5
130B59
  8
OBJECT
 10
4083.0
 20
-3458.9999999999968
 30
0.0
 11
4080.0
 21
-3458.9999999999968
 31
0.0
1001
ACDBBLOCKREPETAG
1070
     1
1071
       57
1005
130B59
  0
ARC
  5
130B5A
  8
OBJECT
 10
4083.0
 20
-3461.9999999999968
 30
0.0
 40
3.0
 50
0.0
 51
90.0
1001
ACDBBLOCKREPETAG
1070
     1
1071
       58
1005
130B5A
  0
LINE
  5
130B5B
  8
OBJECT
 10
4080.0
 20
-3582.9999999999968
 30
0.0
 11
4083.0
 21
-3582.9999999999968
 31
0.0
1001
ACDBBLOCKREPETAG
1070
     1
1071
       59
1005
130B5B
  0
ARC
  5
130B5C
  8
OBJECT
 10
4083.0
 20
-3579.9999999999968
 30
0.0
 40
3.0
 50
270.0
 51
0.0
1001
ACDBBLOCKREPETAG
1070
     1
1071
       60
1005
130B5C
  0
LINE
  5
130B5D
  8
OBJECT
 10
4086.0
 20
-3579.9999999999968
 30
0.0
 11
4086.0
 21
-3461.9999999999968
 31
0.0
1001
ACDBBLOCKREPETAG
1070
     1
1071
       61
1005
130B5D
  0
LINE
  5
130B5E
  8
HIDDEN
 10
4088.0
 20
-3476.4999999999968
 30
0.0
 11
4088.0
 21
-3565.4999999999968
 31
0.0
1001
ACDBBLOCKREPETAG
1070
     1
1071
       63
1005
130B5E
  0
LINE
  5
130B5F
  8
OBJECT
 10
4133.0
 20
-3112.9999999999959
 30
0.0
 11
4140.0
 21
-3112.9999999999959
 31
0.0
1001
ACDBBLOCKREPETAG
1070
     1
1071
       47
1005
130B5F
  0
LINE
  5
130B60
  8
OBJECT
 10
4140.0
 20
-3112.9999999999959
 30
0.0
 11
4140.0
 21
-3236.9999999999959
 31
0.0
1001
ACDBBLOCKREPETAG
1070
     1
1071
       48
1005
130B60
  0
LINE
  5
130B61
  8
OBJECT
 10
4140.0
 20
-3236.9999999999959
 30
0.0
 11
4133.0
 21
-3236.9999999999959
 31
0.0
1001
ACDBBLOCKREPETAG
1070
     1
1071
       49
1005
130B61
  0
LINE
  5
130B62
  8
OBJECT
 10
4133.0
 20
-3236.9999999999959
 30
0.0
 11
4133.0
 21
-3112.9999999999959
 31
0.0
1001
ACDBBLOCKREPETAG
1070
     1
1071
       50
1005
130B62
  0
LINE
  5
130B63
  8
CENTER
 10
4155.0
 20
-3174.9999999999959
 30
0.0
 11
4080.0
 21
-3174.9999999999959
 31
0.0
1001
ACDBBLOCKREPETAG
1070
     1
1071
       51
1005
130B63
  0
LINE
  5
130B64
  8
OBJECT
 10
4133.0
 20
-3115.9999999999959
 30
0.0
 11
4097.0
 21
-3115.9999999999959
 31
0.0
1001
ACDBBLOCKREPETAG
1070
     1
1071
       52
1005
130B64
  0
LINE
  5
130B65
  8
OBJECT
 10
4097.0
 20
-3115.9999999999959
 30
0.0
 11
4097.0
 21
-3233.9999999999959
 31
0.0
1001
ACDBBLOCKREPETAG
1070
     1
1071
       53
1005
130B65
  0
LINE
  5
130B66
  8
OBJECT
 10
4097.0
 20
-3233.9999999999959
 30
0.0
 11
4133.0
 21
-3233.9999999999959
 31
0.0
1001
ACDBBLOCKREPETAG
1070
     1
1071
       54
1005
130B66
  0
LINE
  5
130B67
  8
OBJECT
 10
4093.0
 20
-3120.4999999999959
 30
0.0
 11
4086.0
 21
-3120.4999999999959
 31
0.0
1001
ACDBBLOCKREPETAG
1070
     1
1071
       55
1005
130B67
  0
LINE
  5
130B68
  8
OBJECT
 10
4086.0
 20
-3229.4999999999959
 30
0.0
 11
4093.0
 21
-3229.4999999999959
 31
0.0
1001
ACDBBLOCKREPETAG
1070
     1
1071
       56
1005
130B68
  0
LINE
  5
130B69
  8
OBJECT
 10
4093.0
 20
-3229.4999999999959
 30
0.0
 11
4093.0
 21
-3120.4999999999959
 31
0.0
1001
ACDBBLOCKREPETAG
1070
     1
1071
       57
1005
130B69
  0
LINE
  5
130B6A
  8
OBJECT
 10
4097.0
 20
-3115.9999999999959
 30
0.0
 11
4093.0
 21
-3120.4999999999959
 31
0.0
1001
ACDBBLOCKREPETAG
1070
     1
1071
       58
1005
130B6A
  0
LINE
  5
130B6B
  8
OBJECT
 10
4097.0
 20
-3233.9999999999959
 30
0.0
 11
4093.0
 21
-3229.4999999999959
 31
0.0
1001
ACDBBLOCKREPETAG
1070
     1
1071
       59
1005
130B6B
  0
LINE
  5
130B6C
  8
OBJECT
 10
4083.0
 20
-3112.9999999999959
 30
0.0
 11
4080.0
 21
-3112.9999999999959
 31
0.0
1001
ACDBBLOCKREPETAG
1070
     1
1071
       60
1005
130B6C
  0
ARC
  5
130B6D
  8
OBJECT
 10
4083.0
 20
-3115.9999999999959
 30
0.0
 40
3.0
 50
0.0
 51
90.0
1001
ACDBBLOCKREPETAG
1070
     1
1071
       61
1005
130B6D
  0
LINE
  5
130B6E
  8
OBJECT
 10
4080.0
 20
-3236.9999999999959
 30
0.0
 11
4083.0
 21
-3236.9999999999959
 31
0.0
1001
ACDBBLOCKREPETAG
1070
     1
1071
       62
1005
130B6E
  0
ARC
  5
130B6F
  8
OBJECT
 10
4083.0
 20
-3233.9999999999959
 30
0.0
 40
3.0
 50
270.0
 51
0.0
1001
ACDBBLOCKREPETAG
1070
     1
1071
       63
1005
130B6F
  0
LINE
  5
130B70
  8
OBJECT
 10
4086.0
 20
-3233.9999999999959
 30
0.0
 11
4086.0
 21
-3115.9999999999959
 31
0.0
1001
ACDBBLOCKREPETAG
1070
     1
1071
       64
1005
130B70
  0
LINE
  5
130B71
  8
HIDDEN
 10
4088.0
 20
-3130.4999999999959
 30
0.0
 11
4088.0
 21
-3219.4999999999959
 31
0.0
1001
ACDBBLOCKREPETAG
1070
     1
1071
       65
1005
130B71
  0
TEXT
  5
130B72
  8
SLIM
 10
3894.25
 20
-3697.4999999999959
 30
0.0
 40
35.0
  1
通常枝75（3）
 41
0.75
  0
CIRCLE
  5
130B73
  8
OBJECT
 10
3400.0
 20
-3527.9999999999968
 30
0.0
 40
35.5
1001
ACDBBLOCKREPETAG
1070
     1
1071
       10
1005
130B73
  0
CIRCLE
  5
130B74
  8
OBJECT
 10
3400.0
 20
-3520.9999999999968
 30
0.0
 40
62.0
1001
ACDBBLOCKREPETAG
1070
     1
1071
       11
1005
130B74
  0
LINE
  5
130B75
  8
CENTER
 10
3330.0
 20
-3527.9999999999968
 30
0.0
 11
3470.0
 21
-3527.9999999999968
 31
0.0
1001
ACDBBLOCKREPETAG
1070
     1
1071
       12
1005
130B75
  0
CIRCLE
  5
130B76
  8
OBJECT
 10
3400.0
 20
-3527.9999999999968
 30
0.0
 40
47.0
1001
ACDBBLOCKREPETAG
1070
     1
1071
       14
1005
130B76
  0
ARC
  5
130B77
  8
OBJECT
 10
3400.0
 20
-3527.9999999999968
 30
0.0
 40
55.0
 50
289.01126526011359
 51
250.98873473988641
1001
ACDBBLOCKREPETAG
1070
     1
1071
       15
1005
130B77
  0
LINE
  5
130B78
  8
OBJECT
 10
3382.0835271328328
 20
-3579.9999999999968
 30
0.0
 11
3417.9164728671681
 21
-3579.9999999999968
 31
0.0
1001
ACDBBLOCKREPETAG
1070
     1
1071
       16
1005
130B78
  0
LINE
  5
130B79
  8
OBJECT
 10
3133.0
 20
-3472.9999999999968
 30
0.0
 11
3140.0
 21
-3472.9999999999968
 31
0.0
1001
ACDBBLOCKREPETAG
1070
     1
1071
       26
1005
130B79
  0
LINE
  5
130B7A
  8
OBJECT
 10
3140.0
 20
-3472.9999999999968
 30
0.0
 11
3140.0
 21
-3579.9999999999968
 31
0.0
1001
ACDBBLOCKREPETAG
1070
     1
1071
       27
1005
130B7A
  0
LINE
  5
130B7B
  8
OBJECT
 10
3133.0
 20
-3579.9999999999968
 30
0.0
 11
3133.0
 21
-3472.9999999999968
 31
0.0
1001
ACDBBLOCKREPETAG
1070
     1
1071
       28
1005
130B7B
  0
LINE
  5
130B7C
  8
CENTER
 10
3155.0
 20
-3527.9999999999968
 30
0.0
 11
3071.0
 21
-3527.9999999999968
 31
0.0
1001
ACDBBLOCKREPETAG
1070
     1
1071
       29
1005
130B7C
  0
LINE
  5
130B7D
  8
OBJECT
 10
3133.0
 20
-3475.9999999999968
 30
0.0
 11
3097.0
 21
-3475.9999999999968
 31
0.0
1001
ACDBBLOCKREPETAG
1070
     1
1071
       30
1005
130B7D
  0
LINE
  5
130B7E
  8
OBJECT
 10
3097.0
 20
-3475.9999999999968
 30
0.0
 11
3097.0
 21
-3579.9999999999968
 31
0.0
1001
ACDBBLOCKREPETAG
1070
     1
1071
       31
1005
130B7E
  0
LINE
  5
130B7F
  8
OBJECT
 10
3097.0
 20
-3579.9999999999968
 30
0.0
 11
3140.0
 21
-3579.9999999999968
 31
0.0
1001
ACDBBLOCKREPETAG
1070
     1
1071
       32
1005
130B7F
  0
LINE
  5
130B80
  8
OBJECT
 10
3093.0
 20
-3480.4999999999968
 30
0.0
 11
3086.0
 21
-3480.4999999999968
 31
0.0
1001
ACDBBLOCKREPETAG
1070
     1
1071
       33
1005
130B80
  0
LINE
  5
130B81
  8
OBJECT
 10
3086.0
 20
-3575.4999999999968
 30
0.0
 11
3093.0
 21
-3575.4999999999968
 31
0.0
1001
ACDBBLOCKREPETAG
1070
     1
1071
       34
1005
130B81
  0
LINE
  5
130B82
  8
OBJECT
 10
3093.0
 20
-3575.4999999999968
 30
0.0
 11
3093.0
 21
-3480.4999999999968
 31
0.0
1001
ACDBBLOCKREPETAG
1070
     1
1071
       35
1005
130B82
  0
LINE
  5
130B83
  8
OBJECT
 10
3097.0
 20
-3475.9999999999968
 30
0.0
 11
3093.0
 21
-3480.4999999999968
 31
0.0
1001
ACDBBLOCKREPETAG
1070
     1
1071
       36
1005
130B83
  0
LINE
  5
130B84
  8
OBJECT
 10
3097.0
 20
-3579.9999999999968
 30
0.0
 11
3093.0
 21
-3575.4999999999968
 31
0.0
1001
ACDBBLOCKREPETAG
1070
     1
1071
       37
1005
130B84
  0
LINE
  5
130B85
  8
OBJECT
 10
3083.0
 20
-3458.9999999999968
 30
0.0
 11
3080.0
 21
-3458.9999999999968
 31
0.0
1001
ACDBBLOCKREPETAG
1070
     1
1071
       38
1005
130B85
  0
ARC
  5
130B86
  8
OBJECT
 10
3083.0
 20
-3461.9999999999968
 30
0.0
 40
3.0
 50
0.0
 51
90.0
1001
ACDBBLOCKREPETAG
1070
     1
1071
       39
1005
130B86
  0
LINE
  5
130B87
  8
OBJECT
 10
3080.0
 20
-3582.9999999999968
 30
0.0
 11
3083.0
 21
-3582.9999999999968
 31
0.0
1001
ACDBBLOCKREPETAG
1070
     1
1071
       40
1005
130B87
  0
ARC
  5
130B88
  8
OBJECT
 10
3083.0
 20
-3579.9999999999968
 30
0.0
 40
3.0
 50
270.0
 51
0.0
1001
ACDBBLOCKREPETAG
1070
     1
1071
       41
1005
130B88
  0
LINE
  5
130B89
  8
OBJECT
 10
3086.0
 20
-3579.9999999999968
 30
0.0
 11
3086.0
 21
-3461.9999999999968
 31
0.0
1001
ACDBBLOCKREPETAG
1070
     1
1071
       42
1005
130B89
  0
LINE
  5
130B8A
  8
HIDDEN
 10
3088.0
 20
-3489.9999999999968
 30
0.0
 11
3088.0
 21
-3565.9999999999968
 31
0.0
1001
ACDBBLOCKREPETAG
1070
     1
1071
       43
1005
130B8A
  0
LINE
  5
130B8B
  8
OBJECT
 10
3133.0
 20
-3119.9999999999959
 30
0.0
 11
3140.0
 21
-3119.9999999999959
 31
0.0
1001
ACDBBLOCKREPETAG
1070
     1
1071
       27
1005
130B8B
  0
LINE
  5
130B8C
  8
OBJECT
 10
3140.0
 20
-3119.9999999999959
 30
0.0
 11
3140.0
 21
-3229.9999999999959
 31
0.0
1001
ACDBBLOCKREPETAG
1070
     1
1071
       28
1005
130B8C
  0
LINE
  5
130B8D
  8
OBJECT
 10
3140.0
 20
-3229.9999999999959
 30
0.0
 11
3133.0
 21
-3229.9999999999959
 31
0.0
1001
ACDBBLOCKREPETAG
1070
     1
1071
       29
1005
130B8D
  0
LINE
  5
130B8E
  8
OBJECT
 10
3133.0
 20
-3229.9999999999959
 30
0.0
 11
3133.0
 21
-3119.9999999999959
 31
0.0
1001
ACDBBLOCKREPETAG
1070
     1
1071
       30
1005
130B8E
  0
LINE
  5
130B8F
  8
CENTER
 10
3155.0
 20
-3174.9999999999959
 30
0.0
 11
3080.0
 21
-3174.9999999999959
 31
0.0
1001
ACDBBLOCKREPETAG
1070
     1
1071
       31
1005
130B8F
  0
LINE
  5
130B90
  8
OBJECT
 10
3133.0
 20
-3122.9999999999959
 30
0.0
 11
3097.0
 21
-3122.9999999999959
 31
0.0
1001
ACDBBLOCKREPETAG
1070
     1
1071
       32
1005
130B90
  0
LINE
  5
130B91
  8
OBJECT
 10
3097.0
 20
-3122.9999999999959
 30
0.0
 11
3097.0
 21
-3226.9999999999959
 31
0.0
1001
ACDBBLOCKREPETAG
1070
     1
1071
       33
1005
130B91
  0
LINE
  5
130B92
  8
OBJECT
 10
3097.0
 20
-3226.9999999999959
 30
0.0
 11
3133.0
 21
-3226.9999999999959
 31
0.0
1001
ACDBBLOCKREPETAG
1070
     1
1071
       34
1005
130B92
  0
LINE
  5
130B93
  8
OBJECT
 10
3093.0
 20
-3127.4999999999959
 30
0.0
 11
3086.0
 21
-3127.4999999999959
 31
0.0
1001
ACDBBLOCKREPETAG
1070
     1
1071
       35
1005
130B93
  0
LINE
  5
130B94
  8
OBJECT
 10
3086.0
 20
-3222.4999999999959
 30
0.0
 11
3093.0
 21
-3222.4999999999959
 31
0.0
1001
ACDBBLOCKREPETAG
1070
     1
1071
       36
1005
130B94
  0
LINE
  5
130B95
  8
OBJECT
 10
3093.0
 20
-3222.4999999999959
 30
0.0
 11
3093.0
 21
-3127.4999999999959
 31
0.0
1001
ACDBBLOCKREPETAG
1070
     1
1071
       37
1005
130B95
  0
LINE
  5
130B96
  8
OBJECT
 10
3097.0
 20
-3122.9999999999959
 30
0.0
 11
3093.0
 21
-3127.4999999999959
 31
0.0
1001
ACDBBLOCKREPETAG
1070
     1
1071
       38
1005
130B96
  0
LINE
  5
130B97
  8
OBJECT
 10
3097.0
 20
-3226.9999999999959
 30
0.0
 11
3093.0
 21
-3222.4999999999959
 31
0.0
1001
ACDBBLOCKREPETAG
1070
     1
1071
       39
1005
130B97
  0
LINE
  5
130B98
  8
OBJECT
 10
3083.0
 20
-3112.9999999999959
 30
0.0
 11
3080.0
 21
-3112.9999999999959
 31
0.0
1001
ACDBBLOCKREPETAG
1070
     1
1071
       40
1005
130B98
  0
ARC
  5
130B99
  8
OBJECT
 10
3083.0
 20
-3115.9999999999959
 30
0.0
 40
3.0
 50
0.0
 51
90.0
1001
ACDBBLOCKREPETAG
1070
     1
1071
       41
1005
130B99
  0
LINE
  5
130B9A
  8
OBJECT
 10
3080.0
 20
-3236.9999999999959
 30
0.0
 11
3083.0
 21
-3236.9999999999959
 31
0.0
1001
ACDBBLOCKREPETAG
1070
     1
1071
       42
1005
130B9A
  0
ARC
  5
130B9B
  8
OBJECT
 10
3083.0
 20
-3233.9999999999959
 30
0.0
 40
3.0
 50
270.0
 51
0.0
1001
ACDBBLOCKREPETAG
1070
     1
1071
       43
1005
130B9B
  0
LINE
  5
130B9C
  8
OBJECT
 10
3086.0
 20
-3233.9999999999959
 30
0.0
 11
3086.0
 21
-3115.9999999999959
 31
0.0
1001
ACDBBLOCKREPETAG
1070
     1
1071
       44
1005
130B9C
  0
LINE
  5
130B9D
  8
HIDDEN
 10
3088.0
 20
-3136.9999999999959
 30
0.0
 11
3088.0
 21
-3212.9999999999959
 31
0.0
1001
ACDBBLOCKREPETAG
1070
     1
1071
       45
1005
130B9D
  0
TEXT
  5
130B9E
  8
SLIM
 10
2894.25
 20
-3697.4999999999959
 30
0.0
 40
35.0
  1
通常枝65（2）
 41
0.75
  0
CIRCLE
  5
130B9F
  8
OBJECT
 10
2400.0
 20
-3520.9999999999968
 30
0.0
 40
62.0
1001
ACDBBLOCKREPETAG
1070
     1
1071
        3
1005
130B9F
  0
LINE
  5
130BA0
  8
CENTER
 10
2338.0
 20
-3535.9999999999968
 30
0.0
 11
2462.0
 21
-3535.9999999999968
 31
0.0
1001
ACDBBLOCKREPETAG
1070
     1
1071
        4
1005
130BA0
  0
CIRCLE
  5
130BA1
  8
OBJECT
 10
2400.0
 20
-3535.9999999999968
 30
0.0
 40
28.0
1001
ACDBBLOCKREPETAG
1070
     1
1071
        6
1005
130BA1
  0
CIRCLE
  5
130BA2
  8
OBJECT
 10
2400.0
 20
-3535.9999999999968
 30
0.0
 40
39.0
1001
ACDBBLOCKREPETAG
1070
     1
1071
        7
1005
130BA2
  0
ARC
  5
130BA3
  8
OBJECT
 10
2400.0
 20
-3535.9999999999968
 30
0.0
 40
47.0
 50
290.58196921144412
 51
249.41803078855591
1001
ACDBBLOCKREPETAG
1070
     1
1071
        8
1005
130BA3
  0
LINE
  5
130BA4
  8
OBJECT
 10
2383.4772883581431
 20
-3579.9999999999968
 30
0.0
 11
2416.5227116418569
 21
-3579.9999999999968
 31
0.0
1001
ACDBBLOCKREPETAG
1070
     1
1071
        9
1005
130BA4
  0
LINE
  5
130BA5
  8
OBJECT
 10
2133.0
 20
-3488.9999999999968
 30
0.0
 11
2140.0
 21
-3488.9999999999968
 31
0.0
1001
ACDBBLOCKREPETAG
1070
     1
1071
        7
1005
130BA5
  0
LINE
  5
130BA6
  8
OBJECT
 10
2140.0
 20
-3488.9999999999968
 30
0.0
 11
2140.0
 21
-3579.9999999999968
 31
0.0
1001
ACDBBLOCKREPETAG
1070
     1
1071
        8
1005
130BA6
  0
LINE
  5
130BA7
  8
OBJECT
 10
2133.0
 20
-3579.9999999999968
 30
0.0
 11
2133.0
 21
-3488.9999999999968
 31
0.0
1001
ACDBBLOCKREPETAG
1070
     1
1071
        9
1005
130BA7
  0
LINE
  5
130BA8
  8
CENTER
 10
2155.0
 20
-3535.9999999999968
 30
0.0
 11
2071.0
 21
-3535.9999999999968
 31
0.0
1001
ACDBBLOCKREPETAG
1070
     1
1071
       10
1005
130BA8
  0
LINE
  5
130BA9
  8
OBJECT
 10
2133.0
 20
-3491.9999999999968
 30
0.0
 11
2097.0
 21
-3491.9999999999968
 31
0.0
1001
ACDBBLOCKREPETAG
1070
     1
1071
       11
1005
130BA9
  0
LINE
  5
130BAA
  8
OBJECT
 10
2097.0
 20
-3491.9999999999968
 30
0.0
 11
2097.0
 21
-3579.9999999999968
 31
0.0
1001
ACDBBLOCKREPETAG
1070
     1
1071
       12
1005
130BAA
  0
LINE
  5
130BAB
  8
OBJECT
 10
2097.0
 20
-3579.9999999999968
 30
0.0
 11
2140.0
 21
-3579.9999999999968
 31
0.0
1001
ACDBBLOCKREPETAG
1070
     1
1071
       13
1005
130BAB
  0
LINE
  5
130BAC
  8
OBJECT
 10
2093.0
 20
-3496.4999999999968
 30
0.0
 11
2086.0
 21
-3496.4999999999968
 31
0.0
1001
ACDBBLOCKREPETAG
1070
     1
1071
       14
1005
130BAC
  0
LINE
  5
130BAD
  8
OBJECT
 10
2086.0
 20
-3575.4999999999968
 30
0.0
 11
2093.0
 21
-3575.4999999999968
 31
0.0
1001
ACDBBLOCKREPETAG
1070
     1
1071
       15
1005
130BAD
  0
LINE
  5
130BAE
  8
OBJECT
 10
2093.0
 20
-3575.4999999999968
 30
0.0
 11
2093.0
 21
-3496.4999999999968
 31
0.0
1001
ACDBBLOCKREPETAG
1070
     1
1071
       16
1005
130BAE
  0
LINE
  5
130BAF
  8
OBJECT
 10
2097.0
 20
-3491.9999999999968
 30
0.0
 11
2093.0
 21
-3496.4999999999968
 31
0.0
1001
ACDBBLOCKREPETAG
1070
     1
1071
       17
1005
130BAF
  0
LINE
  5
130BB0
  8
OBJECT
 10
2097.0
 20
-3579.9999999999968
 30
0.0
 11
2093.0
 21
-3575.4999999999968
 31
0.0
1001
ACDBBLOCKREPETAG
1070
     1
1071
       18
1005
130BB0
  0
LINE
  5
130BB1
  8
OBJECT
 10
2083.0
 20
-3458.9999999999968
 30
0.0
 11
2080.0
 21
-3458.9999999999968
 31
0.0
1001
ACDBBLOCKREPETAG
1070
     1
1071
       19
1005
130BB1
  0
ARC
  5
130BB2
  8
OBJECT
 10
2083.0
 20
-3461.9999999999968
 30
0.0
 40
3.0
 50
0.0
 51
90.0
1001
ACDBBLOCKREPETAG
1070
     1
1071
       20
1005
130BB2
  0
LINE
  5
130BB3
  8
OBJECT
 10
2080.0
 20
-3582.9999999999968
 30
0.0
 11
2083.0
 21
-3582.9999999999968
 31
0.0
1001
ACDBBLOCKREPETAG
1070
     1
1071
       21
1005
130BB3
  0
ARC
  5
130BB4
  8
OBJECT
 10
2083.0
 20
-3579.9999999999968
 30
0.0
 40
3.0
 50
270.0
 51
0.0
1001
ACDBBLOCKREPETAG
1070
     1
1071
       22
1005
130BB4
  0
LINE
  5
130BB5
  8
OBJECT
 10
2086.0
 20
-3579.9999999999968
 30
0.0
 11
2086.0
 21
-3461.9999999999968
 31
0.0
1001
ACDBBLOCKREPETAG
1070
     1
1071
       23
1005
130BB5
  0
LINE
  5
130BB6
  8
HIDDEN
 10
2088.0
 20
-3505.9999999999968
 30
0.0
 11
2088.0
 21
-3565.9999999999968
 31
0.0
1001
ACDBBLOCKREPETAG
1070
     1
1071
       24
1005
130BB6
  0
LINE
  5
130BB7
  8
OBJECT
 10
2133.0
 20
-3127.9999999999959
 30
0.0
 11
2140.0
 21
-3127.9999999999959
 31
0.0
1001
ACDBBLOCKREPETAG
1070
     1
1071
        7
1005
130BB7
  0
LINE
  5
130BB8
  8
OBJECT
 10
2140.0
 20
-3127.9999999999959
 30
0.0
 11
2140.0
 21
-3221.9999999999959
 31
0.0
1001
ACDBBLOCKREPETAG
1070
     1
1071
        8
1005
130BB8
  0
LINE
  5
130BB9
  8
OBJECT
 10
2140.0
 20
-3221.9999999999959
 30
0.0
 11
2133.0
 21
-3221.9999999999959
 31
0.0
1001
ACDBBLOCKREPETAG
1070
     1
1071
        9
1005
130BB9
  0
LINE
  5
130BBA
  8
OBJECT
 10
2133.0
 20
-3221.9999999999959
 30
0.0
 11
2133.0
 21
-3127.9999999999959
 31
0.0
1001
ACDBBLOCKREPETAG
1070
     1
1071
       10
1005
130BBA
  0
LINE
  5
130BBB
  8
CENTER
 10
2155.0
 20
-3174.9999999999959
 30
0.0
 11
2080.0
 21
-3174.9999999999959
 31
0.0
1001
ACDBBLOCKREPETAG
1070
     1
1071
       11
1005
130BBB
  0
LINE
  5
130BBC
  8
OBJECT
 10
2133.0
 20
-3130.9999999999959
 30
0.0
 11
2097.0
 21
-3130.9999999999959
 31
0.0
1001
ACDBBLOCKREPETAG
1070
     1
1071
       12
1005
130BBC
  0
LINE
  5
130BBD
  8
OBJECT
 10
2097.0
 20
-3130.9999999999959
 30
0.0
 11
2097.0
 21
-3218.9999999999959
 31
0.0
1001
ACDBBLOCKREPETAG
1070
     1
1071
       13
1005
130BBD
  0
LINE
  5
130BBE
  8
OBJECT
 10
2097.0
 20
-3218.9999999999959
 30
0.0
 11
2133.0
 21
-3218.9999999999959
 31
0.0
1001
ACDBBLOCKREPETAG
1070
     1
1071
       14
1005
130BBE
  0
LINE
  5
130BBF
  8
OBJECT
 10
2093.0
 20
-3135.4999999999959
 30
0.0
 11
2086.0
 21
-3135.4999999999959
 31
0.0
1001
ACDBBLOCKREPETAG
1070
     1
1071
       15
1005
130BBF
  0
LINE
  5
130BC0
  8
OBJECT
 10
2086.0
 20
-3214.4999999999959
 30
0.0
 11
2093.0
 21
-3214.4999999999959
 31
0.0
1001
ACDBBLOCKREPETAG
1070
     1
1071
       16
1005
130BC0
  0
LINE
  5
130BC1
  8
OBJECT
 10
2093.0
 20
-3214.4999999999959
 30
0.0
 11
2093.0
 21
-3135.4999999999959
 31
0.0
1001
ACDBBLOCKREPETAG
1070
     1
1071
       17
1005
130BC1
  0
LINE
  5
130BC2
  8
OBJECT
 10
2097.0
 20
-3130.9999999999959
 30
0.0
 11
2093.0
 21
-3135.4999999999959
 31
0.0
1001
ACDBBLOCKREPETAG
1070
     1
1071
       18
1005
130BC2
  0
LINE
  5
130BC3
  8
OBJECT
 10
2097.0
 20
-3218.9999999999959
 30
0.0
 11
2093.0
 21
-3214.4999999999959
 31
0.0
1001
ACDBBLOCKREPETAG
1070
     1
1071
       19
1005
130BC3
  0
LINE
  5
130BC4
  8
OBJECT
 10
2083.0
 20
-3112.9999999999959
 30
0.0
 11
2080.0
 21
-3112.9999999999959
 31
0.0
1001
ACDBBLOCKREPETAG
1070
     1
1071
       20
1005
130BC4
  0
ARC
  5
130BC5
  8
OBJECT
 10
2083.0
 20
-3115.9999999999959
 30
0.0
 40
3.0
 50
0.0
 51
90.0
1001
ACDBBLOCKREPETAG
1070
     1
1071
       21
1005
130BC5
  0
LINE
  5
130BC6
  8
OBJECT
 10
2080.0
 20
-3236.9999999999959
 30
0.0
 11
2083.0
 21
-3236.9999999999959
 31
0.0
1001
ACDBBLOCKREPETAG
1070
     1
1071
       22
1005
130BC6
  0
ARC
  5
130BC7
  8
OBJECT
 10
2083.0
 20
-3233.9999999999959
 30
0.0
 40
3.0
 50
270.0
 51
0.0
1001
ACDBBLOCKREPETAG
1070
     1
1071
       23
1005
130BC7
  0
LINE
  5
130BC8
  8
OBJECT
 10
2086.0
 20
-3233.9999999999959
 30
0.0
 11
2086.0
 21
-3115.9999999999959
 31
0.0
1001
ACDBBLOCKREPETAG
1070
     1
1071
       24
1005
130BC8
  0
LINE
  5
130BC9
  8
HIDDEN
 10
2088.0
 20
-3144.9999999999959
 30
0.0
 11
2088.0
 21
-3204.9999999999959
 31
0.0
1001
ACDBBLOCKREPETAG
1070
     1
1071
       25
1005
130BC9
  0
TEXT
  5
130BCA
  8
SLIM
 10
1896.75
 20
-3697.4999999999959
 30
0.0
 40
35.0
  1
通常枝50（1）
 41
0.75
  0
LINE
  5
130BCB
  8
OBJECT
 10
3930.0
 20
-1079.999999999997
 30
0.0
 11
4070.0
 21
-1079.999999999997
 31
0.0
1001
ACDBBLOCKREPETAG
1070
     1
1071
        0
1005
130BCB
  0
LINE
  5
130BCC
  8
OBJECT
 10
3930.0
 20
-1079.999999999997
 30
0.0
 11
3930.0
 21
-839.99999999999704
 31
0.0
1001
ACDBBLOCKREPETAG
1070
     1
1071
        1
1005
130BCC
  0
LINE
  5
130BCD
  8
OBJECT
 10
4070.0
 20
-1079.999999999997
 30
0.0
 11
4070.0
 21
-839.99999999999704
 31
0.0
1001
ACDBBLOCKREPETAG
1070
     1
1071
        2
1005
130BCD
  0
LINE
  5
130BCE
  8
OBJECT
 10
3930.0
 20
-839.99999999999704
 30
0.0
 11
4070.0
 21
-839.99999999999704
 31
0.0
1001
ACDBBLOCKREPETAG
1070
     1
1071
        3
1005
130BCE
  0
LINE
  5
130BCF
  8
HIDDEN
 10
3937.5
 20
-839.99999999999704
 30
0.0
 11
3937.5
 21
-1079.999999999997
 31
0.0
1001
ACDBBLOCKREPETAG
1070
     1
1071
        4
1005
130BCF
  0
LINE
  5
130BD0
  8
HIDDEN
 10
4062.5
 20
-839.99999999999704
 30
0.0
 11
4062.5
 21
-1079.999999999997
 31
0.0
1001
ACDBBLOCKREPETAG
1070
     1
1071
        5
1005
130BD0
  0
LINE
  5
130BD1
  8
CENTER
 10
4000.0
 20
-769.99999999999875
 30
0.0
 11
4000.0
 21
-1094.999999999997
 31
0.0
1001
ACDBBLOCKREPETAG
1070
     1
1071
        6
1005
130BD1
  0
LINE
  5
130BD2
  8
OBJECT
 10
3925.0
 20
-769.99999999999875
 30
0.0
 11
3925.0
 21
-799.99999999999693
 31
0.0
1001
ACDBBLOCKREPETAG
1070
     1
1071
        7
1005
130BD2
  0
LINE
  5
130BD3
  8
OBJECT
 10
4075.0000000000032
 20
-769.99999999999875
 30
0.0
 11
4075.0
 21
-799.99999999999693
 31
0.0
1001
ACDBBLOCKREPETAG
1070
     1
1071
        8
1005
130BD3
  0
LINE
  5
130BD4
  8
OBJECT
 10
3925.0
 20
-799.99999999999693
 30
0.0
 11
4075.0
 21
-799.99999999999693
 31
0.0
1001
ACDBBLOCKREPETAG
1070
     1
1071
        9
1005
130BD4
  0
LINE
  5
130BD5
  8
OBJECT
 10
3925.0
 20
-799.99999999999693
 30
0.0
 11
3930.0
 21
-839.99999999999704
 31
0.0
1001
ACDBBLOCKREPETAG
1070
     1
1071
       10
1005
130BD5
  0
LINE
  5
130BD6
  8
OBJECT
 10
4070.0
 20
-839.99999999999704
 30
0.0
 11
4075.0
 21
-799.99999999999693
 31
0.0
1001
ACDBBLOCKREPETAG
1070
     1
1071
       11
1005
130BD6
  0
LINE
  5
130BD7
  8
OBJECT
 10
1930.0
 20
-1079.999999999998
 30
0.0
 11
2070.0
 21
-1079.999999999998
 31
0.0
1001
ACDBBLOCKREPETAG
1070
     1
1071
        0
1005
130BD7
  0
LINE
  5
130BD8
  8
OBJECT
 10
1930.0
 20
-1079.999999999998
 30
0.0
 11
1930.0
 21
-839.99999999999795
 31
0.0
1001
ACDBBLOCKREPETAG
1070
     1
1071
        1
1005
130BD8
  0
LINE
  5
130BD9
  8
OBJECT
 10
2070.0
 20
-1079.999999999998
 30
0.0
 11
2070.0
 21
-839.99999999999795
 31
0.0
1001
ACDBBLOCKREPETAG
1070
     1
1071
        2
1005
130BD9
  0
LINE
  5
130BDA
  8
OBJECT
 10
1930.0
 20
-839.99999999999795
 30
0.0
 11
2070.0
 21
-839.99999999999795
 31
0.0
1001
ACDBBLOCKREPETAG
1070
     1
1071
        3
1005
130BDA
  0
LINE
  5
130BDB
  8
HIDDEN
 10
1937.5
 20
-839.99999999999795
 30
0.0
 11
1937.5
 21
-1079.999999999998
 31
0.0
1001
ACDBBLOCKREPETAG
1070
     1
1071
        4
1005
130BDB
  0
LINE
  5
130BDC
  8
HIDDEN
 10
2062.5
 20
-839.99999999999795
 30
0.0
 11
2062.5
 21
-1079.999999999998
 31
0.0
1001
ACDBBLOCKREPETAG
1070
     1
1071
        5
1005
130BDC
  0
LINE
  5
130BDD
  8
CENTER
 10
2000.0
 20
-769.99999999999955
 30
0.0
 11
2000.0
 21
-1094.999999999997
 31
0.0
1001
ACDBBLOCKREPETAG
1070
     1
1071
        6
1005
130BDD
  0
LINE
  5
130BDE
  8
OBJECT
 10
1925.0
 20
-769.99999999999955
 30
0.0
 11
1925.0
 21
-799.99999999999773
 31
0.0
1001
ACDBBLOCKREPETAG
1070
     1
1071
        7
1005
130BDE
  0
LINE
  5
130BDF
  8
OBJECT
 10
2075.0000000000041
 20
-769.99999999999955
 30
0.0
 11
2075.0
 21
-799.99999999999773
 31
0.0
1001
ACDBBLOCKREPETAG
1070
     1
1071
        8
1005
130BDF
  0
LINE
  5
130BE0
  8
OBJECT
 10
1925.0
 20
-799.99999999999773
 30
0.0
 11
2075.0
 21
-799.99999999999773
 31
0.0
1001
ACDBBLOCKREPETAG
1070
     1
1071
        9
1005
130BE0
  0
LINE
  5
130BE1
  8
OBJECT
 10
1925.0
 20
-799.99999999999773
 30
0.0
 11
1930.0
 21
-839.99999999999795
 31
0.0
1001
ACDBBLOCKREPETAG
1070
     1
1071
       10
1005
130BE1
  0
LINE
  5
130BE2
  8
OBJECT
 10
2070.0
 20
-839.99999999999795
 30
0.0
 11
2075.0
 21
-799.99999999999773
 31
0.0
1001
ACDBBLOCKREPETAG
1070
     1
1071
       11
1005
130BE2
  0
TEXT
  5
130BE3
  8
SLIM
 10
3741.6250000000009
 20
-1347.499999999997
 30
0.0
 40
35.0
  1
片受けスタイル（S）＋シンドカット
 41
0.75
  0
TEXT
  5
130BE4
  8
SLIM
 10
1856.25
 20
-1347.499999999998
 30
0.0
 40
35.0
  1
片受けスタイル（S）
 41
0.75
  0
VIEWPORT
  5
F6BA7
 67
     1
  8
0
 10
145.33033752441401
 20
101.8328354358673
 30
0.0
 40
334.0025019414623
 41
222.19657968139651
 68
     1
 69
     1
1001
ACAD
1000
MVIEW
1002
{
1070
    16
1010
0.0
1020
0.0
1030
0.0
1010
0.0
1020
0.0
1030
1.0
1040
0.0
1040
222.19657968139651
1040
145.33033752441401
1040
101.8328354358673
1040
50.0
1040
0.0
1040
0.0
1070
     0
1070
     0
1070
     1
1070
     1
1070
     0
1070
     0
1070
     0
1070
     0
1040
0.0
1040
0.0
1040
0.0
1040
10.0
1040
10.0
1040
10.0
1040
10.0
1070
     0
1002
{
1002
}
1002
}
  0
VIEWPORT
  5
F6BA9
 67
     1
  8
OBJECT
 10
145.3303314447403
 20
101.8328338861465
 30
0.0
 40
232.5285303115844
 41
162.93253421783439
 68
     2
 69
     2
1001
ACAD
1000
MVIEW
1002
{
1070
    16
1010
0.0
1020
0.0
1030
0.0
1010
0.0
1020
0.0
1030
1.0
1040
0.0
1040
25942.55904403147
1040
2377.604457077377
1040
-7591.5176687056619
1040
50.0
1040
0.0
1040
0.0
1070
     0
1070
   600
1070
     1
1070
     1
1070
     0
1070
     0
1070
     0
1070
     0
1040
0.0
1040
0.0
1040
0.0
1040
1.0
1040
1.0
1040
0.0
1040
0.0
1070
     0
1002
{
1002
}
1002
}
  0
ENDSEC
  0
EOF
