  0
SECTION
  2
HEADER
  9
$ACADVER
  1
AC1009
  9
$INSBASE
 10
0.0
 20
0.0
 30
0.0
  9
$EXTMIN
 10
0.0
 20
-1502.333333333331
 30
0.0
  9
$EXTMAX
 10
4602.0
 20
470.00000000000011
 30
0.0
  9
$LIMMIN
 10
0.0
 20
0.0
  9
$LIMMAX
 10
210.0
 20
297.0
  9
$ORTHOMODE
 70
     0
  9
$REGENMODE
 70
     1
  9
$FILLMODE
 70
     1
  9
$QTEXTMODE
 70
     0
  9
$MIRRTEXT
 70
     0
  9
$DRAGMODE
 70
     2
  9
$LTSCALE
 40
1.0
  9
$OSMODE
 70
    37
  9
$ATTMODE
 70
     1
  9
$TEXTSIZE
 40
4.0
  9
$TRACEWID
 40
0.05
  9
$TEXTSTYLE
  7
STANDARD
  9
$CLAYER
  8
OBJECT
  9
$CELTYPE
  6
BYLAYER
  9
$CECOLOR
 62
   256
  9
$DIMSCALE
 40
10.0
  9
$DIMASZ
 40
2.0
  9
$DIMEXO
 40
1.0
  9
$DIMDLI
 40
10.0
  9
$DIMRND
 40
0.0
  9
$DIMDLE
 40
0.0
  9
$DIMEXE
 40
1.0
  9
$DIMTP
 40
0.0
  9
$DIMTM
 40
0.0
  9
$DIMTXT
 40
3.2000000000000002
  9
$DIMCEN
 40
0.0
  9
$DIMTSZ
 40
0.0
  9
$DIMTOL
 70
     0
  9
$DIMLIM
 70
     0
  9
$DIMTIH
 70
     0
  9
$DIMTOH
 70
     0
  9
$DIMSE1
 70
     0
  9
$DIMSE2
 70
     0
  9
$DIMTAD
 70
     1
  9
$DIMZIN
 70
     8
  9
$DIMBLK
  1
OPEN30
  9
$DIMASO
 70
     1
  9
$DIMSHO
 70
     1
  9
$DIMPOST
  1

  9
$DIMAPOST
  1

  9
$DIMALT
 70
     0
  9
$DIMALTD
 70
     2
  9
$DIMALTF
 40
25.399999999999999
  9
$DIMLFAC
 40
1.0
  9
$DIMTOFL
 70
     1
  9
$DIMTVP
 40
0.0
  9
$DIMTIX
 70
     0
  9
$DIMSOXD
 70
     0
  9
$DIMSAH
 70
     0
  9
$DIMBLK1
  1

  9
$DIMBLK2
  1

  9
$DIMSTYLE
  2
S10
  9
$DIMCLRD
 70
   256
  9
$DIMCLRE
 70
   256
  9
$DIMCLRT
 70
   256
  9
$DIMTFAC
 40
1.0
  9
$DIMGAP
 40
0.9
  9
$LUNITS
 70
     2
  9
$LUPREC
 70
     2
  9
$SKETCHINC
 40
0.1
  9
$FILLETRAD
 40
0.0
  9
$AUNITS
 70
     0
  9
$AUPREC
 70
     2
  9
$MENU
  1
ACAD
  9
$ELEVATION
 40
0.0
  9
$PELEVATION
 40
0.0
  9
$THICKNESS
 40
0.0
  9
$LIMCHECK
 70
     0
  9
$BLIPMODE
 70
     0
  9
$CHAMFERA
 40
2.0
  9
$CHAMFERB
 40
2.0
  9
$SKPOLY
 70
     0
  9
$TDCREATE
 40
2453095.4929404748
  9
$TDUPDATE
 40
2457598.6596849998
  9
$TDINDWG
 40
18.381276168999999
  9
$TDUSRTIMER
 40
18.381275428199999
  9
$USRTIMER
 70
     1
  9
$ANGBASE
 50
0.0
  9
$ANGDIR
 70
     0
  9
$PDMODE
 70
    35
  9
$PDSIZE
 40
2.0
  9
$PLINEWID
 40
0.0
  9
$COORDS
 70
     1
  9
$SPLFRAME
 70
     0
  9
$SPLINETYPE
 70
     6
  9
$SPLINESEGS
 70
     8
  9
$ATTDIA
 70
     0
  9
$ATTREQ
 70
     1
  9
$HANDLING
 70
     1
  9
$HANDSEED
  5
1225BB
  9
$SURFTAB1
 70
     6
  9
$SURFTAB2
 70
     6
  9
$SURFTYPE
 70
     6
  9
$SURFU
 70
     6
  9
$SURFV
 70
     6
  9
$UCSNAME
  2

  9
$UCSORG
 10
0.0
 20
0.0
 30
0.0
  9
$UCSXDIR
 10
1.0
 20
0.0
 30
0.0
  9
$UCSYDIR
 10
0.0
 20
1.0
 30
0.0
  9
$PUCSNAME
  2

  9
$PUCSORG
 10
0.0
 20
0.0
 30
0.0
  9
$PUCSXDIR
 10
1.0
 20
0.0
 30
0.0
  9
$PUCSYDIR
 10
0.0
 20
1.0
 30
0.0
  9
$USERI1
 70
     0
  9
$USERI2
 70
     0
  9
$USERI3
 70
     0
  9
$USERI4
 70
     0
  9
$USERI5
 70
     0
  9
$USERR1
 40
0.0
  9
$USERR2
 40
0.0
  9
$USERR3
 40
0.0
  9
$USERR4
 40
0.0
  9
$USERR5
 40
0.0
  9
$WORLDVIEW
 70
     1
  9
$SHADEDGE
 70
     3
  9
$SHADEDIF
 70
    70
  9
$TILEMODE
 70
     1
  9
$MAXACTVP
 70
    64
  9
$PLIMCHECK
 70
     0
  9
$PEXTMIN
 10
29.066066288948051
 20
20.366566777229309
 30
0.0
  9
$PEXTMAX
 10
261.5945966005325
 20
183.29910099506381
 30
0.0
  9
$PLIMMIN
 10
-3.17498779296875
 20
-3.1749999523162842
  9
$PLIMMAX
 10
293.83566284179687
 20
206.8406708240509
  9
$UNITMODE
 70
     0
  9
$VISRETAIN
 70
     1
  9
$PLINEGEN
 70
     0
  9
$PSLTSCALE
 70
     1
  0
ENDSEC
  0
SECTION
  2
TABLES
  0
TABLE
  2
VPORT
 70
     1
  0
VPORT
  2
*ACTIVE
 70
     0
 10
0.0
 20
0.0
 11
1.0
 21
1.0
 12
3174.7334590414071
 22
-456.21944245291309
 13
0.0
 23
0.0
 14
1.0
 24
1.0
 15
0.0
 25
0.0
 16
0.0
 26
0.0
 36
1.0
 17
0.0
 27
0.0
 37
0.0
 40
2587.7051868530139
 41
1.6494178525226391
 42
50.0
 43
0.0
 44
0.0
 50
0.0
 51
0.0
 71
     0
 72
   600
 73
     1
 74
     1
 75
     0
 76
     0
 77
     0
 78
     0
  0
ENDTAB
  0
TABLE
  2
LTYPE
 70
     4
  0
LTYPE
  2
CONTINUOUS
 70
     0
  3
Solid line
 72
    65
 73
     0
 40
0.0
  0
LTYPE
  2
PHANTOM2
 70
     0
  3
___ _ _ ___ _ _ ___ _ _ ___ _ _
 72
    65
 73
     6
 40
1.25
 49
0.625
 49
-0.125
 49
0.125
 49
-0.125
 49
0.125
 49
-0.125
  0
LTYPE
  2
ACAD_ISO08W100
 70
     0
  3
ISO long-dash short-dash ____ __ ____ __ ____ _
 72
    65
 73
     4
 40
36.0
 49
24.0
 49
-3.0
 49
6.0
 49
-3.0
  0
LTYPE
  2
ACAD_ISO02W100
 70
     0
  3
ISO dash __ __ __ __ __ __ __ __ __ __ __ __ __
 72
    65
 73
     2
 40
15.0
 49
12.0
 49
-3.0
  0
ENDTAB
  0
TABLE
  2
LAYER
 70
     8
  0
LAYER
  2
0
 70
     0
 62
     7
  6
CONTINUOUS
  0
LAYER
  2
OBJECT
 70
     0
 62
     4
  6
CONTINUOUS
  0
LAYER
  2
DEFPOINTS
 70
     0
 62
     7
  6
CONTINUOUS
  0
LAYER
  2
DIM
 70
     0
 62
     7
  6
CONTINUOUS
  0
LAYER
  2
HIDDEN
 70
     0
 62
     2
  6
ACAD_ISO02W100
  0
LAYER
  2
CENTER
 70
     0
 62
     2
  6
ACAD_ISO08W100
  0
LAYER
  2
DOTS
 70
     0
 62
     1
  6
CONTINUOUS
  0
LAYER
  2
SLIM
 70
     0
 62
     2
  6
CONTINUOUS
  0
ENDTAB
  0
TABLE
  2
STYLE
 70
     2
  0
STYLE
  2
STANDARD
 70
     0
 40
0.0
 41
0.75
 50
0.0
 71
     0
 42
4.0
  3
simplex.shx
  4
bigfont.shx
  0
ENDTAB
  0
TABLE
  2
VIEW
 70
     0
  0
ENDTAB
  0
TABLE
  2
UCS
 70
     0
  0
ENDTAB
  0
TABLE
  2
APPID
 70
    18
  0
APPID
  2
ACAD
 70
     0
  0
APPID
  2
ACADANNOTATIVE
 70
     0
  0
APPID
  2
ACAD_PSEXT
 70
     0
  0
APPID
  2
ACAD_EXEMPT_FROM_CAD_STANDARDS
 70
     0
  0
APPID
  2
ACAECLAYERSTANDARD
 70
     0
  0
APPID
  2
ACAUTHENVIRON
 70
     0
  0
APPID
  2
ACDBDYNAMICBLOCKTRUENAME
 70
     0
  0
APPID
  2
ACDBDYNAMICBLOCKGUID
 70
     0
  0
APPID
  2
ACDBBLOCKREPETAG
 70
     0
  0
APPID
  2
ACDBBLOCKREPBTAG
 70
     0
  0
APPID
  2
ACAD_NAV_VCDISPLAY
 70
     0
  0
APPID
  2
ACAD_DSTYLE_DIMRADIAL_EXTENSION
 70
     0
  0
APPID
  2
ACAD_DSTYLE_DIMJAG
 70
     0
  0
APPID
  2
ACAD_DSTYLE_DIMTALN
 70
     0
  0
APPID
  2
ACADANNOPO
 70
     0
  0
APPID
  2
GRADIENTCOLOR1ACI
 70
     0
  0
APPID
  2
GRADIENTCOLOR2ACI
 70
     0
  0
APPID
  2
ACAD_MLEADERVER
 70
     0
  0
ENDTAB
  0
TABLE
  2
DIMSTYLE
 70
     3
  0
DIMSTYLE
  2
STANDARD
 70
     0
  3

  4

  5

  6

  7

 40
1.0
 41
0.18
 42
0.0625
 43
0.38
 44
0.18
 45
0.0
 46
0.0
 47
0.0
 48
0.0
140
0.18
141
0.09
142
0.0
143
25.399999999999999
144
1.0
145
0.0
146
1.0
147
0.09
 71
     0
 72
     0
 73
     1
 74
     1
 75
     0
 76
     0
 77
     0
 78
     0
170
     0
171
     2
172
     0
173
     0
174
     0
175
     0
176
     0
177
     0
178
     0
  0
DIMSTYLE
  2
S10
 70
     0
  3

  4

  5

  6

  7

 40
10.0
 41
2.0
 42
1.0
 43
10.0
 44
1.0
 45
0.0
 46
0.0
 47
0.0
 48
0.0
140
3.2000000000000002
141
0.0
142
0.0
143
25.399999999999999
144
1.0
145
0.0
146
1.0
147
0.9
 71
     0
 72
     0
 73
     0
 74
     0
 75
     0
 76
     0
 77
     1
 78
     8
170
     0
171
     2
172
     1
173
     0
174
     0
175
     0
176
   256
177
   256
178
   256
  0
ENDTAB
  0
ENDSEC
  0
SECTION
  2
BLOCKS
  0
BLOCK
  8
0
  2
$MODEL_SPACE
 70
     0
 10
0.0
 20
0.0
 30
0.0
  3
$MODEL_SPACE
  1

  0
ENDBLK
  5
122531
  8
0
  0
BLOCK
 67
     1
  8
0
  2
$PAPER_SPACE
 70
     0
 10
0.0
 20
0.0
 30
0.0
  3
$PAPER_SPACE
  1

  0
ENDBLK
  5
12252D
 67
     1
  8
0
  0
BLOCK
  8
0
  2
_OPEN30
 70
     0
 10
0.0
 20
0.0
 30
0.0
  3
_OPEN30
  1

  0
LINE
  5
202
  8
0
  6
BYBLOCK
 62
     0
 10
-1.0
 20
0.26794919
 30
0.0
 11
0.0
 21
0.0
 31
0.0
  0
LINE
  5
203
  8
0
  6
BYBLOCK
 62
     0
 10
0.0
 20
0.0
 30
0.0
 11
-1.0
 21
-0.26794919
 31
0.0
  0
LINE
  5
204
  8
0
  6
BYBLOCK
 62
     0
 10
0.0
 20
0.0
 30
0.0
 11
-1.0
 21
0.0
 31
0.0
  0
ENDBLK
  5
206
  8
0
  0
BLOCK
  8
0
  2
*U4
 70
     1
 10
0.0
 20
0.0
 30
0.0
  3
*U4
  1

  0
TEXT
  5
1224BD
  8
DIM
 10
3840.6616440113212
 20
-882.74285714285531
 30
0.0
 40
32.0
  1
m（シンドカット）
 50
90.0
 41
0.75
  0
ENDBLK
  5
1224BF
  8
0
  0
ENDSEC
  0
SECTION
  2
ENTITIES
  0
LINE
  5
122309
  8
SLIM
 10
4350.0
 20
-787.99999999999591
 30
0.0
 11
4350.0
 21
-979.99999999999591
 31
0.0
  0
LINE
  5
12230A
  8
SLIM
 10
4454.0
 20
-979.99999999999591
 30
0.0
 11
4454.0
 21
-787.99999999999591
 31
0.0
  0
LINE
  5
12230B
  8
SLIM
 10
4602.0
 20
-787.99999999999591
 30
0.0
 11
4350.0
 21
-787.99999999999591
 31
0.0
  0
LINE
  5
12230C
  8
SLIM
 10
4602.0
 20
-883.99999999999591
 30
0.0
 11
4350.0
 21
-883.99999999999591
 31
0.0
  0
LINE
  5
12230E
  8
SLIM
 10
4602.0
 20
-931.99999999999613
 30
0.0
 11
4350.0
 21
-931.99999999999613
 31
0.0
  0
LINE
  5
12230F
  8
SLIM
 10
4602.0
 20
-979.99999999999591
 30
0.0
 11
4350.0
 21
-979.99999999999591
 31
0.0
  0
LINE
  5
122313
  8
SLIM
 10
4602.0
 20
-835.99999999999579
 30
0.0
 11
4350.0
 21
-835.99999999999579
 31
0.0
  0
LINE
  5
122315
  8
SLIM
 10
4602.0
 20
-787.99999999999591
 30
0.0
 11
4602.0
 21
-979.99999999999591
 31
0.0
  0
LINE
  5
12234E
  8
DIM
 10
3904.9999999999941
 20
-654.99999999999886
 30
0.0
 11
3839.6616440113221
 21
-654.99999999999875
 31
0.0
  0
LINE
  5
12234F
  8
DIM
 10
3910.0
 20
-864.99999999999875
 30
0.0
 11
3839.6616440113221
 21
-864.99999999999875
 31
0.0
  0
LINE
  5
122350
  8
DIM
 10
3849.6616440113221
 20
-674.99999999999875
 30
0.0
 11
3849.6616440113221
 21
-844.99999999999864
 31
0.0
  0
INSERT
  5
122351
  8
DIM
  2
_OPEN30
 10
3849.6616440113221
 20
-654.99999999999886
 30
0.0
 41
20.0
 42
20.0
 43
20.0
 50
90.0
  0
INSERT
  5
122352
  8
DIM
  2
_OPEN30
 10
3849.6616440113221
 20
-864.99999999999875
 30
0.0
 41
20.0
 42
20.0
 43
20.0
 50
270.0
  0
INSERT
  5
122353
  8
OBJECT
  2
*U4
 10
0.0
 20
0.0
 30
0.0
  0
TEXT
  5
122354
  8
SLIM
 10
3554.6000000000008
 20
-1315.666666666664
 30
0.0
 40
28.0
  1
※ 対応スラブ厚　180～（m-10）
 41
0.75
  0
TEXT
  5
122355
  8
SLIM
 10
3554.6000000000008
 20
-1362.333333333331
 30
0.0
 40
28.0
  1
※ 足切り可能寸法（最大）　210-m（コンパクトＬベンド使用なら+20）
 41
0.75
  0
TEXT
  5
122356
  8
SLIM
 10
3598.9000000000001
 20
-1455.666666666664
 30
0.0
 40
28.0
  1
国土交通大臣認定・（一財）日本消防設備安全センター性能評定取得品
 41
0.75
  0
TEXT
  5
122357
  8
SLIM
 10
3631.1000000000022
 20
-1502.333333333331
 30
0.0
 40
28.0
  1
注）ご採用にあたり、認定書及び評定書の内容をご確認ください。
 41
0.75
  0
TEXT
  5
122358
  8
SLIM
 10
4506.5714285714294
 20
-871.99999999999591
 30
0.0
 40
24.0
  1
180
 41
0.75
  0
TEXT
  5
122359
  8
SLIM
 10
4470.057142857142
 20
-967.99999999999545
 30
0.0
 40
24.0
  1
180～200
 41
0.75
  0
TEXT
  5
12235A
  8
SLIM
 10
4471.7714285714283
 20
-919.99999999999557
 30
0.0
 40
24.0
  1
180～190
 41
0.75
  0
TEXT
  5
12235B
  8
SLIM
 10
4465.6000000000013
 20
-823.99999999999591
 30
0.0
 40
24.0
  1
対応スラブ厚
 41
0.75
  0
TEXT
  5
12235C
  8
SLIM
 10
4398.1714285714288
 20
-1025.9999999999959
 30
0.0
 40
24.0
  1
標準：m=210
 41
0.75
  0
TEXT
  5
12235D
  8
SLIM
 10
4380.5714285714284
 20
-871.99999999999591
 30
0.0
 40
24.0
  1
190
 41
0.75
  0
TEXT
  5
12235E
  8
SLIM
 10
4380.5714285714284
 20
-967.99999999999545
 30
0.0
 40
24.0
  1
210
 41
0.75
  0
TEXT
  5
12235F
  8
SLIM
 10
4369.9428571428571
 20
-823.99999999999591
 30
0.0
 40
24.0
  1
m寸法
 41
0.75
  0
TEXT
  5
122360
  8
SLIM
 10
4378.8571428571431
 20
-919.99999999999557
 30
0.0
 40
24.0
  1
200
 41
0.75
  0
LINE
  5
122361
  8
SLIM
 10
3927.3018300565232
 20
-155.95484036957691
 30
0.0
 11
3955.9548403695781
 21
-127.30183005652231
 31
0.0
1001
GRADIENTCOLOR1ACI
1070
     5
1001
GRADIENTCOLOR2ACI
1070
     2
1001
ACAD
1010
0.0
1020
0.0
1030
0.0
1001
ACDBBLOCKREPETAG
1070
     1
1071
      436
1005
122361
  0
LINE
  5
122362
  8
SLIM
 10
3919.4861520708369
 20
-172.75077447633191
 30
0.0
 11
3938.2903089572728
 21
-153.94661758989659
 31
0.0
1001
GRADIENTCOLOR1ACI
1070
     5
1001
GRADIENTCOLOR2ACI
1070
     2
1001
ACAD
1010
0.0
1020
0.0
1030
0.0
1001
ACDBBLOCKREPETAG
1070
     1
1071
      437
1005
122362
  0
LINE
  5
122363
  8
SLIM
 10
3953.946617589897
 20
-138.29030895727169
 30
0.0
 11
3972.7507744763329
 21
-119.4861520708364
 31
0.0
1001
GRADIENTCOLOR1ACI
1070
     5
1001
GRADIENTCOLOR2ACI
1070
     2
1001
ACAD
1010
0.0
1020
0.0
1030
0.0
1001
ACDBBLOCKREPETAG
1070
     1
1071
      438
1005
122363
  0
LINE
  5
122364
  8
SLIM
 10
3916.359667993378
 20
-184.8575146748604
 30
0.0
 11
3927.6959583557841
 21
-173.5212243124561
 31
0.0
1001
GRADIENTCOLOR1ACI
1070
     5
1001
GRADIENTCOLOR2ACI
1070
     2
1001
ACAD
1010
0.0
1020
0.0
1030
0.0
1001
ACDBBLOCKREPETAG
1070
     1
1071
      439
1005
122364
  0
LINE
  5
122365
  8
SLIM
 10
3973.521224312457
 20
-127.6959583557812
 30
0.0
 11
3984.8575146748631
 21
-116.359667993377
 31
0.0
1001
GRADIENTCOLOR1ACI
1070
     5
1001
GRADIENTCOLOR2ACI
1070
     2
1001
ACAD
1010
0.0
1020
0.0
1030
0.0
1001
ACDBBLOCKREPETAG
1070
     1
1071
      440
1005
122365
  0
LINE
  5
122366
  8
SLIM
 10
3915.1440575890529
 20
-195.0533812002549
 30
0.0
 11
3924.303021643183
 21
-185.89441714612491
 31
0.0
1001
GRADIENTCOLOR1ACI
1070
     5
1001
GRADIENTCOLOR2ACI
1070
     2
1001
ACAD
1010
0.0
1020
0.0
1030
0.0
1001
ACDBBLOCKREPETAG
1070
     1
1071
      441
1005
122366
  0
LINE
  5
122367
  8
SLIM
 10
3985.8944171461271
 20
-124.30302164318159
 30
0.0
 11
3995.0533812002559
 21
-115.1440575890517
 31
0.0
1001
GRADIENTCOLOR1ACI
1070
     5
1001
GRADIENTCOLOR2ACI
1070
     2
1001
ACAD
1010
0.0
1020
0.0
1030
0.0
1001
ACDBBLOCKREPETAG
1070
     1
1071
      442
1005
122367
  0
LINE
  5
122368
  8
SLIM
 10
3915.097963557474
 20
-204.07973135290339
 30
0.0
 11
3919.1776949103769
 21
-199.99999999999909
 31
0.0
1001
GRADIENTCOLOR1ACI
1070
     5
1001
GRADIENTCOLOR2ACI
1070
     2
1001
ACAD
1010
0.0
1020
0.0
1030
0.0
1001
ACDBBLOCKREPETAG
1070
     1
1071
      443
1005
122368
  0
LINE
  5
122369
  8
SLIM
 10
4000.0
 20
-119.1776949103767
 30
0.0
 11
4004.0797313529042
 21
-115.0979635574724
 31
0.0
1001
GRADIENTCOLOR1ACI
1070
     5
1001
GRADIENTCOLOR2ACI
1070
     2
1001
ACAD
1010
0.0
1020
0.0
1030
0.0
1001
ACDBBLOCKREPETAG
1070
     1
1071
      444
1005
122369
  0
LINE
  5
12236A
  8
SLIM
 10
3919.1776949103769
 20
-199.99999999999909
 30
0.0
 11
3923.0999621611709
 21
-196.07773274920581
 31
0.0
1001
GRADIENTCOLOR1ACI
1070
     5
1001
GRADIENTCOLOR2ACI
1070
     2
1001
ACAD
1010
0.0
1020
0.0
1030
0.0
1001
ACDBBLOCKREPETAG
1070
     1
1071
      445
1005
12236A
  0
LINE
  5
12236B
  8
SLIM
 10
3996.0777327492078
 20
-123.0999621611699
 30
0.0
 11
4000.0
 21
-119.1776949103767
 31
0.0
1001
GRADIENTCOLOR1ACI
1070
     5
1001
GRADIENTCOLOR2ACI
1070
     2
1001
ACAD
1010
0.0
1020
0.0
1030
0.0
1001
ACDBBLOCKREPETAG
1070
     1
1071
      446
1005
12236B
  0
LINE
  5
12236C
  8
SLIM
 10
3915.8899726208729
 20
-212.26797841057399
 30
0.0
 11
3923.162230777169
 21
-204.9957202542767
 31
0.0
1001
GRADIENTCOLOR1ACI
1070
     5
1001
GRADIENTCOLOR2ACI
1070
     2
1001
ACAD
1010
0.0
1020
0.0
1030
0.0
1001
ACDBBLOCKREPETAG
1070
     1
1071
      447
1005
12236C
  0
LINE
  5
12236D
  8
SLIM
 10
4004.9957202542769
 20
-123.1622307771683
 30
0.0
 11
4012.2679784105749
 21
-115.88997262087101
 31
0.0
1001
GRADIENTCOLOR1ACI
1070
     5
1001
GRADIENTCOLOR2ACI
1070
     2
1001
ACAD
1010
0.0
1020
0.0
1030
0.0
1001
ACDBBLOCKREPETAG
1070
     1
1071
      448
1005
12236D
  0
LINE
  5
12236E
  8
SLIM
 10
3917.338265695154
 20
-219.79994145736151
 30
0.0
 11
3924.1101477855509
 21
-213.02805936696359
 31
0.0
1001
GRADIENTCOLOR1ACI
1070
     5
1001
GRADIENTCOLOR2ACI
1070
     2
1001
ACAD
1010
0.0
1020
0.0
1030
0.0
1001
ACDBBLOCKREPETAG
1070
     1
1071
      449
1005
12236E
  0
LINE
  5
12236F
  8
SLIM
 10
4013.028059366964
 20
-124.1101477855505
 30
0.0
 11
4019.799941457361
 21
-117.3382656951526
 31
0.0
1001
GRADIENTCOLOR1ACI
1070
     5
1001
GRADIENTCOLOR2ACI
1070
     2
1001
ACAD
1010
0.0
1020
0.0
1030
0.0
1001
ACDBBLOCKREPETAG
1070
     1
1071
      450
1005
12236F
  0
LINE
  5
122370
  8
SLIM
 10
3919.331259406305
 20
-226.78720386727881
 30
0.0
 11
3925.7443819593391
 21
-220.3740813142449
 31
0.0
1001
GRADIENTCOLOR1ACI
1070
     5
1001
GRADIENTCOLOR2ACI
1070
     2
1001
ACAD
1010
0.0
1020
0.0
1030
0.0
1001
ACDBBLOCKREPETAG
1070
     1
1071
      451
1005
122370
  0
LINE
  5
122371
  8
SLIM
 10
4020.3740813142458
 20
-125.7443819593384
 30
0.0
 11
4026.7872038672799
 21
-119.3312594063044
 31
0.0
1001
GRADIENTCOLOR1ACI
1070
     5
1001
GRADIENTCOLOR2ACI
1070
     2
1001
ACAD
1010
0.0
1020
0.0
1030
0.0
1001
ACDBBLOCKREPETAG
1070
     1
1071
      452
1005
122371
  0
LINE
  5
122372
  8
SLIM
 10
3921.795716318622
 20
-233.30300307603289
 30
0.0
 11
3927.9462473957792
 21
-227.1524719988744
 31
0.0
1001
GRADIENTCOLOR1ACI
1070
     5
1001
GRADIENTCOLOR2ACI
1070
     2
1001
ACAD
1010
0.0
1020
0.0
1030
0.0
1001
ACDBBLOCKREPETAG
1070
     1
1071
      453
1005
122372
  0
LINE
  5
122373
  8
SLIM
 10
4027.1524719988752
 20
-127.946247395778
 30
0.0
 11
4033.3030030760328
 21
-121.7957163186195
 31
0.0
1001
GRADIENTCOLOR1ACI
1070
     5
1001
GRADIENTCOLOR2ACI
1070
     2
1001
ACAD
1010
0.0
1020
0.0
1030
0.0
1001
ACDBBLOCKREPETAG
1070
     1
1071
      454
1005
122373
  0
LINE
  5
122374
  8
SLIM
 10
3924.6816635313448
 20
-239.39731198437769
 30
0.0
 11
3930.6398768643921
 21
-233.4390986513296
 31
0.0
1001
GRADIENTCOLOR1ACI
1070
     5
1001
GRADIENTCOLOR2ACI
1070
     2
1001
ACAD
1010
0.0
1020
0.0
1030
0.0
1001
ACDBBLOCKREPETAG
1070
     1
1071
      455
1005
122374
  0
LINE
  5
122375
  8
SLIM
 10
4033.4390986513308
 20
-130.63987686439199
 30
0.0
 11
4039.3973119843781
 21
-124.6816635313439
 31
0.0
1001
GRADIENTCOLOR1ACI
1070
     5
1001
GRADIENTCOLOR2ACI
1070
     2
1001
ACAD
1010
0.0
1020
0.0
1030
0.0
1001
ACDBBLOCKREPETAG
1070
     1
1071
      456
1005
122375
  0
LINE
  5
122376
  8
SLIM
 10
3927.9544611024248
 20
-245.10477053436691
 30
0.0
 11
3933.775007014995
 21
-239.28422462179759
 31
0.0
1001
GRADIENTCOLOR1ACI
1070
     5
1001
GRADIENTCOLOR2ACI
1070
     2
1001
ACAD
1010
0.0
1020
0.0
1030
0.0
1001
ACDBBLOCKREPETAG
1070
     1
1071
      457
1005
122376
  0
LINE
  5
122377
  8
SLIM
 10
4039.284224621797
 20
-133.77500701499321
 30
0.0
 11
4045.1047705343681
 21
-127.95446110242381
 31
0.0
1001
GRADIENTCOLOR1ACI
1070
     5
1001
GRADIENTCOLOR2ACI
1070
     2
1001
ACAD
1010
0.0
1020
0.0
1030
0.0
1001
ACDBBLOCKREPETAG
1070
     1
1071
      458
1005
122377
  0
LINE
  5
122378
  8
SLIM
 10
3931.5903319686659
 20
-250.4491557891954
 30
0.0
 11
3937.3182075880568
 21
-244.72128016980341
 31
0.0
1001
GRADIENTCOLOR1ACI
1070
     5
1001
GRADIENTCOLOR2ACI
1070
     2
1001
ACAD
1010
0.0
1020
0.0
1030
0.0
1001
ACDBBLOCKREPETAG
1070
     1
1071
      459
1005
122378
  0
LINE
  5
122379
  8
SLIM
 10
4044.7212801698038
 20
-137.31820758805651
 30
0.0
 11
4050.4491557891961
 21
-131.59033196866449
 31
0.0
1001
GRADIENTCOLOR1ACI
1070
     5
1001
GRADIENTCOLOR2ACI
1070
     2
1001
ACAD
1010
0.0
1020
0.0
1030
0.0
1001
ACDBBLOCKREPETAG
1070
     1
1071
      460
1005
122379
  0
LINE
  5
12237A
  8
SLIM
 10
3935.5737496925258
 20
-255.4459941864034
 30
0.0
 11
3941.24811054159
 21
-249.77163333734029
 31
0.0
1001
GRADIENTCOLOR1ACI
1070
     5
1001
GRADIENTCOLOR2ACI
1070
     2
1001
ACAD
1010
0.0
1020
0.0
1030
0.0
1001
ACDBBLOCKREPETAG
1070
     1
1071
      461
1005
12237A
  0
LINE
  5
12237B
  8
SLIM
 10
4053.0197438789291
 20
-137.99999999999909
 30
0.0
 11
4055.4459941864038
 21
-135.57374969252561
 31
0.0
1001
GRADIENTCOLOR1ACI
1070
     5
1001
GRADIENTCOLOR2ACI
1070
     2
1001
ACAD
1010
0.0
1020
0.0
1030
0.0
1001
ACDBBLOCKREPETAG
1070
     1
1071
      462
1005
12237B
  0
LINE
  5
12237C
  8
SLIM
 10
3939.8959235991442
 20
-260.10407640085572
 30
0.0
 11
3945.5527778486362
 21
-254.44722215136329
 31
0.0
1001
GRADIENTCOLOR1ACI
1070
     5
1001
GRADIENTCOLOR2ACI
1070
     2
1001
ACAD
1010
0.0
1020
0.0
1030
0.0
1001
ACDBBLOCKREPETAG
1070
     1
1071
      463
1005
12237C
  0
LINE
  5
12237D
  8
SLIM
 10
3944.5540058135962
 20
-264.4262503074724
 30
0.0
 11
3950.2283666626599
 21
-258.75188945840949
 31
0.0
1001
GRADIENTCOLOR1ACI
1070
     5
1001
GRADIENTCOLOR2ACI
1070
     2
1001
ACAD
1010
0.0
1020
0.0
1030
0.0
1001
ACDBBLOCKREPETAG
1070
     1
1071
      464
1005
12237D
  0
LINE
  5
12237E
  8
SLIM
 10
3949.5508442108039
 20
-268.40966803133369
 30
0.0
 11
3955.2787198301962
 21
-262.68179241194167
 31
0.0
1001
GRADIENTCOLOR1ACI
1070
     5
1001
GRADIENTCOLOR2ACI
1070
     2
1001
ACAD
1010
0.0
1020
0.0
1030
0.0
1001
ACDBBLOCKREPETAG
1070
     1
1071
      465
1005
12237E
  0
LINE
  5
12237F
  8
SLIM
 10
3954.8952294656328
 20
-272.04553889757437
 30
0.0
 11
3960.7157753782012
 21
-266.22499298500497
 31
0.0
1001
GRADIENTCOLOR1ACI
1070
     5
1001
GRADIENTCOLOR2ACI
1070
     2
1001
ACAD
1010
0.0
1020
0.0
1030
0.0
1001
ACDBBLOCKREPETAG
1070
     1
1071
      466
1005
12237F
  0
LINE
  5
122380
  8
SLIM
 10
3960.602688015621
 20
-275.31833646865431
 30
0.0
 11
3966.560901348671
 21
-269.36012313560622
 31
0.0
1001
GRADIENTCOLOR1ACI
1070
     5
1001
GRADIENTCOLOR2ACI
1070
     2
1001
ACAD
1010
0.0
1020
0.0
1030
0.0
1001
ACDBBLOCKREPETAG
1070
     1
1071
      467
1005
122380
  0
LINE
  5
122381
  8
SLIM
 10
3966.6969969239681
 20
-278.20428368137868
 30
0.0
 11
3972.8475280011248
 21
-272.05375260422022
 31
0.0
1001
GRADIENTCOLOR1ACI
1070
     5
1001
GRADIENTCOLOR2ACI
1070
     2
1001
ACAD
1010
0.0
1020
0.0
1030
0.0
1001
ACDBBLOCKREPETAG
1070
     1
1071
      468
1005
122381
  0
LINE
  5
122382
  8
SLIM
 10
3973.2127961327192
 20
-280.66874059369371
 30
0.0
 11
3979.6259186857542
 21
-274.25561804065973
 31
0.0
1001
GRADIENTCOLOR1ACI
1070
     5
1001
GRADIENTCOLOR2ACI
1070
     2
1001
ACAD
1010
0.0
1020
0.0
1030
0.0
1001
ACDBBLOCKREPETAG
1070
     1
1071
      469
1005
122382
  0
LINE
  5
122383
  8
SLIM
 10
3980.200058542639
 20
-282.6617343048456
 30
0.0
 11
3986.971940633035
 21
-275.88985221444773
 31
0.0
1001
GRADIENTCOLOR1ACI
1070
     5
1001
GRADIENTCOLOR2ACI
1070
     2
1001
ACAD
1010
0.0
1020
0.0
1030
0.0
1001
ACDBBLOCKREPETAG
1070
     1
1071
      470
1005
122383
  0
LINE
  5
122384
  8
SLIM
 10
3987.7320215894251
 20
-284.11002737912702
 30
0.0
 11
3995.0042797457209
 21
-276.83776922282988
 31
0.0
1001
GRADIENTCOLOR1ACI
1070
     5
1001
GRADIENTCOLOR2ACI
1070
     2
1001
ACAD
1010
0.0
1020
0.0
1030
0.0
1001
ACDBBLOCKREPETAG
1070
     1
1071
      471
1005
122384
  0
LINE
  5
122385
  8
SLIM
 10
3995.9202686470958
 20
-284.9020364425258
 30
0.0
 11
4000.0
 21
-280.82230508962152
 31
0.0
1001
GRADIENTCOLOR1ACI
1070
     5
1001
GRADIENTCOLOR2ACI
1070
     2
1001
ACAD
1010
0.0
1020
0.0
1030
0.0
1001
ACDBBLOCKREPETAG
1070
     1
1071
      472
1005
122385
  0
LINE
  5
122386
  8
SLIM
 10
4000.0
 20
-280.82230508962152
 30
0.0
 11
4003.9222672507922
 21
-276.90003783882821
 31
0.0
1001
GRADIENTCOLOR1ACI
1070
     5
1001
GRADIENTCOLOR2ACI
1070
     2
1001
ACAD
1010
0.0
1020
0.0
1030
0.0
1001
ACDBBLOCKREPETAG
1070
     1
1071
      473
1005
122386
  0
LINE
  5
122387
  8
SLIM
 10
4004.9466187997441
 20
-284.85594241094651
 30
0.0
 11
4014.1055828538729
 21
-275.6969783568166
 31
0.0
1001
GRADIENTCOLOR1ACI
1070
     5
1001
GRADIENTCOLOR2ACI
1070
     2
1001
ACAD
1010
0.0
1020
0.0
1030
0.0
1001
ACDBBLOCKREPETAG
1070
     1
1071
      474
1005
122387
  0
LINE
  5
122388
  8
SLIM
 10
4015.1424853251392
 20
-283.64033200662118
 30
0.0
 11
4026.4787756875421
 21
-272.30404164421702
 31
0.0
1001
GRADIENTCOLOR1ACI
1070
     5
1001
GRADIENTCOLOR2ACI
1070
     2
1001
ACAD
1010
0.0
1020
0.0
1030
0.0
1001
ACDBBLOCKREPETAG
1070
     1
1071
      475
1005
122388
  0
LINE
  5
122389
  8
SLIM
 10
4027.2492255236671
 20
-280.51384792916173
 30
0.0
 11
4045.7630734528302
 21
-261.99999999999909
 31
0.0
1001
GRADIENTCOLOR1ACI
1070
     5
1001
GRADIENTCOLOR2ACI
1070
     2
1001
ACAD
1010
0.0
1020
0.0
1030
0.0
1001
ACDBBLOCKREPETAG
1070
     1
1071
      476
1005
122389
  0
LINE
  5
12238A
  8
SLIM
 10
4044.0451596304219
 20
-272.69816994347582
 30
0.0
 11
4054.7433295738979
 21
-261.99999999999909
 31
0.0
1001
GRADIENTCOLOR1ACI
1070
     5
1001
GRADIENTCOLOR2ACI
1070
     2
1001
ACAD
1010
0.0
1020
0.0
1030
0.0
1001
ACDBBLOCKREPETAG
1070
     1
1071
      477
1005
12238A
  0
LINE
  5
12238B
  8
CENTER
 10
4080.0
 20
-199.99999999999909
 30
0.0
 11
3900.0
 21
-199.99999999999909
 31
0.0
1001
ACDBBLOCKREPETAG
1070
     1
1071
      187
1005
12238B
  0
LINE
  5
12238C
  8
CENTER
 10
4000.0
 20
-299.99999999999898
 30
0.0
 11
4000.0
 21
-99.999999999999091
 31
0.0
1001
ACDBBLOCKREPETAG
1070
     1
1071
      188
1005
12238C
  0
CIRCLE
  5
12238D
  8
OBJECT
 10
4000.0
 20
-199.99999999999909
 30
0.0
 40
70.0
1001
ACDBBLOCKREPETAG
1070
     1
1071
      189
1005
12238D
  0
CIRCLE
  5
12238E
  8
OBJECT
 10
4000.0
 20
-199.99999999999909
 30
0.0
 40
77.0
1001
ACDBBLOCKREPETAG
1070
     1
1071
      190
1005
12238E
  0
LINE
  5
12238F
  8
OBJECT
 10
4045.661800227324
 20
-137.99999999999909
 30
0.0
 11
4080.0
 21
-137.99999999999909
 31
0.0
1001
ACDBBLOCKREPETAG
1070
     1
1071
      192
1005
12238F
  0
LINE
  5
122390
  8
OBJECT
 10
4045.661800227324
 20
-261.99999999999909
 30
0.0
 11
4080.0
 21
-261.99999999999909
 31
0.0
1001
ACDBBLOCKREPETAG
1070
     1
1071
      193
1005
122390
  0
POINT
  5
122391
  8
DOTS
 10
4000.0
 20
-199.99999999999909
 30
0.0
1001
ACDBBLOCKREPETAG
1070
     1
1071
      194
1005
122391
  0
ARC
  5
122392
  8
OBJECT
 10
4000.0
 20
-199.99999999999909
 30
0.0
 40
85.0
 50
46.837102859834147
 51
313.16289714016602
1001
ACDBBLOCKREPETAG
1070
     1
1071
      202
1005
122392
  0
CIRCLE
  5
122393
  8
OBJECT
 10
4000.0
 20
-199.99999999999909
 30
0.0
 40
53.5
1001
ACDBBLOCKREPETAG
1070
     1
1071
      356
1005
122393
  0
CIRCLE
  5
122394
  8
OBJECT
 10
2000.0
 20
-199.99999999999909
 30
0.0
 40
53.5
1001
ACDBBLOCKREPETAG
1070
     1
1071
      344
1005
122394
  0
LINE
  5
122395
  8
CENTER
 10
2080.0
 20
-199.99999999999909
 30
0.0
 11
1905.0
 21
-199.99999999999909
 31
0.0
1001
ACDBBLOCKREPETAG
1070
     1
1071
       14
1005
122395
  0
LINE
  5
122396
  8
CENTER
 10
2000.0
 20
-294.99999999999898
 30
0.0
 11
2000.0
 21
-104.9999999999991
 31
0.0
1001
ACDBBLOCKREPETAG
1070
     1
1071
       15
1005
122396
  0
CIRCLE
  5
122397
  8
OBJECT
 10
2000.0
 20
-199.99999999999909
 30
0.0
 40
70.0
1001
ACDBBLOCKREPETAG
1070
     1
1071
       16
1005
122397
  0
CIRCLE
  5
122398
  8
OBJECT
 10
2000.0
 20
-199.99999999999909
 30
0.0
 40
77.0
1001
ACDBBLOCKREPETAG
1070
     1
1071
       17
1005
122398
  0
ARC
  5
122399
  8
OBJECT
 10
2000.0
 20
-199.99999999999909
 30
0.0
 40
80.0
 50
50.805032573864182
 51
309.1949674261358
1001
ACDBBLOCKREPETAG
1070
     1
1071
       18
1005
122399
  0
LINE
  5
12239A
  8
OBJECT
 10
2045.6618002273251
 20
-137.99999999999909
 30
0.0
 11
2080.0
 21
-137.99999999999909
 31
0.0
1001
ACDBBLOCKREPETAG
1070
     1
1071
       19
1005
12239A
  0
LINE
  5
12239B
  8
OBJECT
 10
2045.6618002273251
 20
-261.99999999999909
 30
0.0
 11
2080.0
 21
-261.99999999999909
 31
0.0
1001
ACDBBLOCKREPETAG
1070
     1
1071
       20
1005
12239B
  0
POINT
  5
12239C
  8
DOTS
 10
2000.0
 20
-199.99999999999909
 30
0.0
1001
ACDBBLOCKREPETAG
1070
     1
1071
       21
1005
12239C
  0
LINE
  5
12239D
  8
SLIM
 10
3914.9999999999941
 20
-665.19743878931376
 30
0.0
 11
3925.1974387893092
 21
-654.99999999999886
 31
0.0
1001
ACDBBLOCKREPETAG
1070
     1
1071
        0
1005
0
1001
ACAD
1010
0.0
1020
0.0
1030
0.0
  0
LINE
  5
12239E
  8
SLIM
 10
3914.999999999995
 20
-683.15795103145035
 30
0.0
 11
3943.1579510314468
 21
-654.99999999999886
 31
0.0
1001
ACAD
1010
0.0
1020
0.0
1030
0.0
1001
ACDBBLOCKREPETAG
1070
     1
1071
       14
1005
12239E
  0
LINE
  5
12239F
  8
SLIM
 10
3915.1454972543161
 20
-700.97296601926814
 30
0.0
 11
3961.1184632735849
 21
-654.99999999999886
 31
0.0
1001
ACAD
1010
0.0
1020
0.0
1030
0.0
1001
ACDBBLOCKREPETAG
1070
     1
1071
       15
1005
12239F
  0
LINE
  5
1223A0
  8
SLIM
 10
3917.104627495245
 20
-716.97434802047826
 30
0.0
 11
3979.0789755157239
 21
-654.99999999999886
 31
0.0
1001
ACAD
1010
0.0
1020
0.0
1030
0.0
1001
ACDBBLOCKREPETAG
1070
     1
1071
       16
1005
1223A0
  0
LINE
  5
1223A1
  8
SLIM
 10
3919.0637577361722
 20
-732.97573002168838
 30
0.0
 11
3997.0394877578619
 21
-654.99999999999886
 31
0.0
1001
ACAD
1010
0.0
1020
0.0
1030
0.0
1001
ACDBBLOCKREPETAG
1070
     1
1071
       17
1005
1223A1
  0
LINE
  5
1223A2
  8
SLIM
 10
3920.0
 20
-749.99999999999875
 30
0.0
 11
4015.0
 21
-654.99999999999886
 31
0.0
1001
ACAD
1010
0.0
1020
0.0
1030
0.0
1001
ACDBBLOCKREPETAG
1070
     1
1071
       18
1005
1223A2
  0
LINE
  5
1223A3
  8
SLIM
 10
3920.0
 20
-767.96051224213716
 30
0.0
 11
4032.9605122421372
 21
-654.99999999999886
 31
0.0
1001
ACAD
1010
0.0
1020
0.0
1030
0.0
1001
ACDBBLOCKREPETAG
1070
     1
1071
       19
1005
1223A3
  0
LINE
  5
1223A4
  8
SLIM
 10
3920.0
 20
-785.92102448427534
 30
0.0
 11
4050.921024484277
 21
-654.99999999999886
 31
0.0
1001
ACAD
1010
0.0
1020
0.0
1030
0.0
1001
ACDBBLOCKREPETAG
1070
     1
1071
       20
1005
1223A4
  0
LINE
  5
1223A5
  8
SLIM
 10
3920.0
 20
-803.88153672641363
 30
0.0
 11
4068.8815367264142
 21
-654.99999999999886
 31
0.0
1001
ACAD
1010
0.0
1020
0.0
1030
0.0
1001
ACDBBLOCKREPETAG
1070
     1
1071
       21
1005
1223A5
  0
LINE
  5
1223A6
  8
SLIM
 10
3920.0
 20
-821.84204896855181
 30
0.0
 11
4085.0000000000068
 21
-656.84204896854499
 31
0.0
1001
ACAD
1010
0.0
1020
0.0
1030
0.0
1001
ACDBBLOCKREPETAG
1070
     1
1071
       22
1005
1223A6
  0
LINE
  5
1223A7
  8
SLIM
 10
3920.0
 20
-839.80256121069021
 30
0.0
 11
4085.0000000000059
 21
-674.80256121068476
 31
0.0
1001
ACAD
1010
0.0
1020
0.0
1030
0.0
1001
ACDBBLOCKREPETAG
1070
     1
1071
       23
1005
1223A7
  0
LINE
  5
1223A8
  8
SLIM
 10
3920.0
 20
-857.76307345282862
 30
0.0
 11
4085.0000000000041
 21
-692.76307345282453
 31
0.0
1001
ACAD
1010
0.0
1020
0.0
1030
0.0
1001
ACDBBLOCKREPETAG
1070
     1
1071
       24
1005
1223A8
  0
LINE
  5
1223A9
  8
SLIM
 10
3930.0
 20
-865.72358569496657
 30
0.0
 11
3930.7235856949678
 21
-864.99999999999875
 31
0.0
1001
ACAD
1010
0.0
1020
0.0
1030
0.0
1001
ACDBBLOCKREPETAG
1070
     1
1071
       25
1005
1223A9
  0
LINE
  5
1223AA
  8
SLIM
 10
3930.7235856949678
 20
-864.99999999999875
 30
0.0
 11
4083.4738280308079
 21
-712.24975766415844
 31
0.0
1001
ACAD
1010
0.0
1020
0.0
1030
0.0
1001
ACDBBLOCKREPETAG
1070
     1
1071
       26
1005
1223AA
  0
LINE
  5
1223AB
  8
SLIM
 10
3930.0
 20
-883.68409793710521
 30
0.0
 11
3948.6840979371068
 21
-864.99999999999875
 31
0.0
1001
ACAD
1010
0.0
1020
0.0
1030
0.0
1001
ACDBBLOCKREPETAG
1070
     1
1071
       27
1005
1223AB
  0
LINE
  5
1223AC
  8
SLIM
 10
3948.6840979371068
 20
-864.99999999999875
 30
0.0
 11
4080.9680345671368
 21
-732.71606336996786
 31
0.0
1001
ACAD
1010
0.0
1020
0.0
1030
0.0
1001
ACDBBLOCKREPETAG
1070
     1
1071
       28
1005
1223AC
  0
LINE
  5
1223AD
  8
SLIM
 10
3946.6446101792449
 20
-884.99999999999875
 30
0.0
 11
3966.6446101792449
 21
-864.99999999999875
 31
0.0
1001
ACAD
1010
0.0
1020
0.0
1030
0.0
1001
ACDBBLOCKREPETAG
1070
     1
1071
       29
1005
1223AD
  0
LINE
  5
1223AE
  8
SLIM
 10
3966.6446101792449
 20
-864.99999999999875
 30
0.0
 11
4080.0
 21
-751.6446101792435
 31
0.0
1001
ACAD
1010
0.0
1020
0.0
1030
0.0
1001
ACDBBLOCKREPETAG
1070
     1
1071
       30
1005
1223AE
  0
LINE
  5
1223AF
  8
SLIM
 10
3964.6051224213829
 20
-884.99999999999875
 30
0.0
 11
3984.6051224213829
 21
-864.99999999999875
 31
0.0
1001
ACAD
1010
0.0
1020
0.0
1030
0.0
1001
ACDBBLOCKREPETAG
1070
     1
1071
       31
1005
1223AF
  0
LINE
  5
1223B0
  8
SLIM
 10
3984.6051224213829
 20
-864.99999999999875
 30
0.0
 11
4080.0
 21
-769.60512242138225
 31
0.0
1001
ACAD
1010
0.0
1020
0.0
1030
0.0
1001
ACDBBLOCKREPETAG
1070
     1
1071
       32
1005
1223B0
  0
LINE
  5
1223B1
  8
SLIM
 10
3982.565634663521
 20
-884.99999999999875
 30
0.0
 11
4002.565634663521
 21
-864.99999999999875
 31
0.0
1001
ACAD
1010
0.0
1020
0.0
1030
0.0
1001
ACDBBLOCKREPETAG
1070
     1
1071
       33
1005
1223B1
  0
LINE
  5
1223B2
  8
SLIM
 10
4002.565634663521
 20
-864.99999999999875
 30
0.0
 11
4079.9999999999991
 21
-787.56563466352065
 31
0.0
1001
ACAD
1010
0.0
1020
0.0
1030
0.0
1001
ACDBBLOCKREPETAG
1070
     1
1071
       34
1005
1223B2
  0
LINE
  5
1223B3
  8
SLIM
 10
4000.5261469056582
 20
-884.99999999999875
 30
0.0
 11
4020.52614690566
 21
-864.99999999999875
 31
0.0
1001
ACAD
1010
0.0
1020
0.0
1030
0.0
1001
ACDBBLOCKREPETAG
1070
     1
1071
       35
1005
1223B3
  0
LINE
  5
1223B4
  8
SLIM
 10
4020.52614690566
 20
-864.99999999999875
 30
0.0
 11
4079.9999999999991
 21
-805.52614690565963
 31
0.0
1001
ACAD
1010
0.0
1020
0.0
1030
0.0
1001
ACDBBLOCKREPETAG
1070
     1
1071
       36
1005
1223B4
  0
LINE
  5
1223B5
  8
SLIM
 10
4018.486659147798
 20
-884.99999999999875
 30
0.0
 11
4038.486659147798
 21
-864.99999999999864
 31
0.0
1001
ACAD
1010
0.0
1020
0.0
1030
0.0
1001
ACDBBLOCKREPETAG
1070
     1
1071
       37
1005
1223B5
  0
LINE
  5
1223B6
  8
SLIM
 10
4038.486659147798
 20
-864.99999999999864
 30
0.0
 11
4079.9999999999991
 21
-823.4866591477977
 31
0.0
1001
ACAD
1010
0.0
1020
0.0
1030
0.0
1001
ACDBBLOCKREPETAG
1070
     1
1071
       38
1005
1223B6
  0
LINE
  5
1223B7
  8
SLIM
 10
4036.4471713899361
 20
-884.99999999999875
 30
0.0
 11
4056.4471713899361
 21
-864.99999999999864
 31
0.0
1001
ACAD
1010
0.0
1020
0.0
1030
0.0
1001
ACDBBLOCKREPETAG
1070
     1
1071
       39
1005
1223B7
  0
LINE
  5
1223B8
  8
SLIM
 10
4056.4471713899361
 20
-864.99999999999864
 30
0.0
 11
4079.9999999999991
 21
-841.44717138993656
 31
0.0
1001
ACAD
1010
0.0
1020
0.0
1030
0.0
1001
ACDBBLOCKREPETAG
1070
     1
1071
       40
1005
1223B8
  0
LINE
  5
1223B9
  8
SLIM
 10
4054.4076836320728
 20
-884.99999999999875
 30
0.0
 11
4070.0
 21
-869.40768363207314
 31
0.0
1001
ACAD
1010
0.0
1020
0.0
1030
0.0
1001
ACDBBLOCKREPETAG
1070
     1
1071
       41
1005
1223B9
  0
LINE
  5
1223BA
  8
SLIM
 10
4074.4076836320728
 20
-864.99999999999864
 30
0.0
 11
4079.9999999999991
 21
-859.40768363207519
 31
0.0
1001
ACAD
1010
0.0
1020
0.0
1030
0.0
1001
ACDBBLOCKREPETAG
1070
     1
1071
       42
1005
1223BA
  0
LINE
  5
1223BB
  8
OBJECT
 10
3914.9999999999941
 20
-654.99999999999886
 30
0.0
 11
3914.9999999999968
 21
-699.78460339903359
 31
0.0
1001
ACDBBLOCKREPETAG
1070
     1
1071
        1
1005
1223BB
  0
LINE
  5
1223BC
  8
OBJECT
 10
4085.0000000000068
 20
-654.99999999999886
 30
0.0
 11
4085.0000000000032
 21
-699.78460339904063
 31
0.0
1001
ACDBBLOCKREPETAG
1070
     1
1071
        2
1005
1223BC
  0
LINE
  5
1223BD
  8
OBJECT
 10
4085.0000000000068
 20
-654.99999999999886
 30
0.0
 11
3914.9999999999941
 21
-654.99999999999886
 31
0.0
1001
ACDBBLOCKREPETAG
1070
     1
1071
        3
1005
1223BD
  0
LINE
  5
1223BE
  8
OBJECT
 10
4079.9999999999991
 20
-864.99999999999864
 30
0.0
 11
3920.0
 21
-864.99999999999875
 31
0.0
1001
ACDBBLOCKREPETAG
1070
     1
1071
        4
1005
1223BE
  0
LINE
  5
1223BF
  8
OBJECT
 10
3914.9999999999968
 20
-699.78460339903415
 30
0.0
 11
3920.0
 21
-740.62257748298555
 31
0.0
1001
ACDBBLOCKREPETAG
1070
     1
1071
        6
1005
1223BF
  0
LINE
  5
1223C0
  8
OBJECT
 10
3920.0
 20
-740.62257748298555
 30
0.0
 11
3920.0
 21
-864.99999999999875
 31
0.0
1001
ACDBBLOCKREPETAG
1070
     1
1071
        7
1005
1223C0
  0
LINE
  5
1223C1
  8
OBJECT
 10
4085.0000000000032
 20
-699.78460339904063
 30
0.0
 11
4080.0
 21
-740.62257748298555
 31
0.0
1001
ACDBBLOCKREPETAG
1070
     1
1071
        8
1005
1223C1
  0
LINE
  5
1223C2
  8
OBJECT
 10
4080.0
 20
-740.62257748298555
 30
0.0
 11
4079.9999999999991
 21
-864.99999999999864
 31
0.0
1001
ACDBBLOCKREPETAG
1070
     1
1071
        9
1005
1223C2
  0
LINE
  5
1223C3
  8
OBJECT
 10
3930.0
 20
-864.99999999999875
 30
0.0
 11
3930.0
 21
-884.99999999999875
 31
0.0
1001
ACDBBLOCKREPETAG
1070
     1
1071
       10
1005
1223C3
  0
LINE
  5
1223C4
  8
OBJECT
 10
3930.0
 20
-884.99999999999875
 30
0.0
 11
4070.0
 21
-884.99999999999875
 31
0.0
1001
ACDBBLOCKREPETAG
1070
     1
1071
       11
1005
1223C4
  0
LINE
  5
1223C5
  8
OBJECT
 10
4070.0
 20
-884.99999999999875
 30
0.0
 11
4070.0
 21
-864.99999999999864
 31
0.0
1001
ACDBBLOCKREPETAG
1070
     1
1071
       12
1005
1223C5
  0
LINE
  5
1223C6
  8
OBJECT
 10
3930.0
 20
-979.99999999999682
 30
0.0
 11
4070.0
 21
-979.99999999999682
 31
0.0
1001
ACDBBLOCKREPETAG
1070
     1
1071
        0
1005
1223C6
  0
LINE
  5
1223C7
  8
OBJECT
 10
3930.0
 20
-979.99999999999682
 30
0.0
 11
3930.0
 21
-739.99999999999693
 31
0.0
1001
ACDBBLOCKREPETAG
1070
     1
1071
        1
1005
1223C7
  0
LINE
  5
1223C8
  8
OBJECT
 10
4070.0
 20
-979.99999999999682
 30
0.0
 11
4070.0
 21
-739.99999999999693
 31
0.0
1001
ACDBBLOCKREPETAG
1070
     1
1071
        2
1005
1223C8
  0
LINE
  5
1223C9
  8
OBJECT
 10
3930.0
 20
-739.99999999999693
 30
0.0
 11
4070.0
 21
-739.99999999999693
 31
0.0
1001
ACDBBLOCKREPETAG
1070
     1
1071
        3
1005
1223C9
  0
LINE
  5
1223CA
  8
HIDDEN
 10
3937.5
 20
-739.99999999999693
 30
0.0
 11
3937.5
 21
-979.99999999999682
 31
0.0
1001
ACDBBLOCKREPETAG
1070
     1
1071
        4
1005
1223CA
  0
LINE
  5
1223CB
  8
HIDDEN
 10
4062.5
 20
-739.99999999999693
 30
0.0
 11
4062.5
 21
-979.99999999999682
 31
0.0
1001
ACDBBLOCKREPETAG
1070
     1
1071
        5
1005
1223CB
  0
LINE
  5
1223CC
  8
CENTER
 10
4000.0
 20
-669.99999999999875
 30
0.0
 11
4000.0
 21
-994.99999999999693
 31
0.0
1001
ACDBBLOCKREPETAG
1070
     1
1071
        6
1005
1223CC
  0
LINE
  5
1223CD
  8
OBJECT
 10
3925.0
 20
-669.99999999999875
 30
0.0
 11
3925.0
 21
-699.99999999999693
 31
0.0
1001
ACDBBLOCKREPETAG
1070
     1
1071
        7
1005
1223CD
  0
LINE
  5
1223CE
  8
OBJECT
 10
4075.0000000000032
 20
-669.99999999999875
 30
0.0
 11
4075.0
 21
-699.99999999999693
 31
0.0
1001
ACDBBLOCKREPETAG
1070
     1
1071
        8
1005
1223CE
  0
LINE
  5
1223CF
  8
OBJECT
 10
3925.0
 20
-699.99999999999693
 30
0.0
 11
4075.0
 21
-699.99999999999693
 31
0.0
1001
ACDBBLOCKREPETAG
1070
     1
1071
        9
1005
1223CF
  0
LINE
  5
1223D0
  8
OBJECT
 10
3925.0
 20
-699.99999999999693
 30
0.0
 11
3930.0
 21
-739.99999999999693
 31
0.0
1001
ACDBBLOCKREPETAG
1070
     1
1071
       10
1005
1223D0
  0
LINE
  5
1223D1
  8
OBJECT
 10
4070.0
 20
-739.99999999999693
 30
0.0
 11
4075.0
 21
-699.99999999999693
 31
0.0
1001
ACDBBLOCKREPETAG
1070
     1
1071
       11
1005
1223D1
  0
LINE
  5
1223D2
  8
OBJECT
 10
1930.0
 20
-979.9999999999975
 30
0.0
 11
2070.0
 21
-979.9999999999975
 31
0.0
1001
ACDBBLOCKREPETAG
1070
     1
1071
        0
1005
1223D2
  0
LINE
  5
1223D3
  8
OBJECT
 10
1930.0
 20
-979.9999999999975
 30
0.0
 11
1930.0
 21
-739.99999999999773
 31
0.0
1001
ACDBBLOCKREPETAG
1070
     1
1071
        1
1005
1223D3
  0
LINE
  5
1223D4
  8
OBJECT
 10
2070.0
 20
-979.9999999999975
 30
0.0
 11
2070.0
 21
-739.99999999999773
 31
0.0
1001
ACDBBLOCKREPETAG
1070
     1
1071
        2
1005
1223D4
  0
LINE
  5
1223D5
  8
OBJECT
 10
1930.0
 20
-739.99999999999773
 30
0.0
 11
2070.0
 21
-739.99999999999773
 31
0.0
1001
ACDBBLOCKREPETAG
1070
     1
1071
        3
1005
1223D5
  0
LINE
  5
1223D6
  8
HIDDEN
 10
1937.5
 20
-739.99999999999773
 30
0.0
 11
1937.5
 21
-979.9999999999975
 31
0.0
1001
ACDBBLOCKREPETAG
1070
     1
1071
        4
1005
1223D6
  0
LINE
  5
1223D7
  8
HIDDEN
 10
2062.5
 20
-739.99999999999773
 30
0.0
 11
2062.5
 21
-979.9999999999975
 31
0.0
1001
ACDBBLOCKREPETAG
1070
     1
1071
        5
1005
1223D7
  0
LINE
  5
1223D8
  8
CENTER
 10
2000.0
 20
-669.99999999999955
 30
0.0
 11
2000.0
 21
-994.99999999999761
 31
0.0
1001
ACDBBLOCKREPETAG
1070
     1
1071
        6
1005
1223D8
  0
LINE
  5
1223D9
  8
OBJECT
 10
1925.0
 20
-669.99999999999955
 30
0.0
 11
1925.0
 21
-699.99999999999761
 31
0.0
1001
ACDBBLOCKREPETAG
1070
     1
1071
        7
1005
1223D9
  0
LINE
  5
1223DA
  8
OBJECT
 10
2075.0000000000041
 20
-669.99999999999955
 30
0.0
 11
2075.0
 21
-699.99999999999761
 31
0.0
1001
ACDBBLOCKREPETAG
1070
     1
1071
        8
1005
1223DA
  0
LINE
  5
1223DB
  8
OBJECT
 10
1925.0
 20
-699.99999999999761
 30
0.0
 11
2075.0
 21
-699.99999999999761
 31
0.0
1001
ACDBBLOCKREPETAG
1070
     1
1071
        9
1005
1223DB
  0
LINE
  5
1223DC
  8
OBJECT
 10
1925.0
 20
-699.99999999999761
 30
0.0
 11
1930.0
 21
-739.99999999999773
 31
0.0
1001
ACDBBLOCKREPETAG
1070
     1
1071
       10
1005
1223DC
  0
LINE
  5
1223DD
  8
OBJECT
 10
2070.0
 20
-739.99999999999773
 30
0.0
 11
2075.0
 21
-699.99999999999761
 31
0.0
1001
ACDBBLOCKREPETAG
1070
     1
1071
       11
1005
1223DD
  0
LINE
  5
1223DE
  8
OBJECT
 10
3923.0
 20
-470.99999999999881
 30
0.0
 11
3923.0
 21
-449.99999999999881
 31
0.0
1001
ACDBBLOCKREPETAG
1070
     1
1071
        0
1005
1223DE
  0
LINE
  5
1223DF
  8
OBJECT
 10
3923.0
 20
-449.99999999999881
 30
0.0
 11
4077.0
 21
-449.99999999999881
 31
0.0
1001
ACDBBLOCKREPETAG
1070
     1
1071
        1
1005
1223DF
  0
LINE
  5
1223E0
  8
HIDDEN
 10
3943.0000000000009
 20
-519.99999999999875
 30
0.0
 11
4057.0000000000009
 21
-519.99999999999875
 31
0.0
1001
ACDBBLOCKREPETAG
1070
     1
1071
        2
1005
1223E0
  0
LINE
  5
1223E1
  8
OBJECT
 10
4077.0
 20
-449.99999999999881
 30
0.0
 11
4077.0
 21
-470.99999999999881
 31
0.0
1001
ACDBBLOCKREPETAG
1070
     1
1071
        3
1005
1223E1
  0
LINE
  5
1223E2
  8
OBJECT
 10
4077.0
 20
-470.99999999999881
 30
0.0
 11
3923.0
 21
-470.99999999999881
 31
0.0
1001
ACDBBLOCKREPETAG
1070
     1
1071
        4
1005
1223E2
  0
LINE
  5
1223E3
  8
CENTER
 10
4000.0
 20
-434.99999999999881
 30
0.0
 11
4000.0
 21
-669.99999999999875
 31
0.0
1001
ACDBBLOCKREPETAG
1070
     1
1071
        5
1005
1223E3
  0
LINE
  5
1223E4
  8
OBJECT
 10
3925.0000000000018
 20
-533.99999999999875
 30
0.0
 11
3925.0000000000018
 21
-657.99999999999875
 31
0.0
1001
ACDBBLOCKREPETAG
1070
     1
1071
        6
1005
1223E4
  0
LINE
  5
1223E5
  8
OBJECT
 10
3928.0000000000018
 20
-470.99999999999881
 30
0.0
 11
3928.0000000000018
 21
-533.99999999999875
 31
0.0
1001
ACDBBLOCKREPETAG
1070
     1
1071
        7
1005
1223E5
  0
LINE
  5
1223E6
  8
OBJECT
 10
4072.0
 20
-533.99999999999875
 30
0.0
 11
4072.0
 21
-470.99999999999881
 31
0.0
1001
ACDBBLOCKREPETAG
1070
     1
1071
        8
1005
1223E6
  0
LINE
  5
1223E7
  8
OBJECT
 10
3920.0
 20
-657.99999999999875
 30
0.0
 11
4080.0
 21
-657.99999999999875
 31
0.0
1001
ACDBBLOCKREPETAG
1070
     1
1071
        9
1005
1223E7
  0
LINE
  5
1223E8
  8
OBJECT
 10
4080.0
 20
-533.99999999999875
 30
0.0
 11
3925.0000000000018
 21
-533.99999999999875
 31
0.0
1001
ACDBBLOCKREPETAG
1070
     1
1071
       10
1005
1223E8
  0
LINE
  5
1223E9
  8
OBJECT
 10
3920.0
 20
-657.99999999999875
 30
0.0
 11
3920.0
 21
-669.99999999999875
 31
0.0
1001
ACDBBLOCKREPETAG
1070
     1
1071
       11
1005
1223E9
  0
LINE
  5
1223EA
  8
OBJECT
 10
3920.0
 20
-669.99999999999875
 30
0.0
 11
4080.0
 21
-669.99999999999875
 31
0.0
1001
ACDBBLOCKREPETAG
1070
     1
1071
       12
1005
1223EA
  0
LINE
  5
1223EB
  8
OBJECT
 10
4080.0
 20
-669.99999999999875
 30
0.0
 11
4080.0
 21
-657.99999999999875
 31
0.0
1001
ACDBBLOCKREPETAG
1070
     1
1071
       13
1005
1223EB
  0
ARC
  5
1223EC
  8
OBJECT
 10
4200.6872746716726
 20
-649.40809941010639
 30
0.0
 40
170.6350503965856
 50
137.44134459184301
 51
149.91949581337221
1001
ACDBBLOCKREPETAG
1070
     1
1071
       15
1005
1223EC
  0
ARC
  5
1223ED
  8
OBJECT
 10
4118.8455987040506
 20
-605.88272669536354
 30
0.0
 40
78.072222021763665
 50
147.4551531037684
 51
164.6636599771798
1001
ACDBBLOCKREPETAG
1070
     1
1071
       16
1005
1223ED
  0
ARC
  5
1223EE
  8
OBJECT
 10
4085.7554349608722
 20
-595.99999999999875
 30
0.0
 40
43.55353926885617
 50
165.6884523008477
 51
194.3115476991523
1001
ACDBBLOCKREPETAG
1070
     1
1071
       17
1005
1223EE
  0
ARC
  5
1223EF
  8
OBJECT
 10
4200.6872746716726
 20
-542.59190058989111
 30
0.0
 40
170.6350503965856
 50
210.08050418662771
 51
222.55865540815699
1001
ACDBBLOCKREPETAG
1070
     1
1071
       18
1005
1223EF
  0
ARC
  5
1223F0
  8
OBJECT
 10
4118.8455987040506
 20
-586.11727330463395
 30
0.0
 40
78.072222021763665
 50
195.3363400228202
 51
212.5448468962316
1001
ACDBBLOCKREPETAG
1070
     1
1071
       19
1005
1223F0
  0
POINT
  5
1223F1
  8
DOTS
 10
4000.0
 20
-654.99999999999886
 30
0.0
1001
ACDBBLOCKREPETAG
1070
     1
1071
      186
1005
1223F1
  0
LINE
  5
1223F2
  8
OBJECT
 10
1923.0
 20
-470.99999999999937
 30
0.0
 11
1923.0
 21
-449.99999999999937
 31
0.0
1001
ACDBBLOCKREPETAG
1070
     1
1071
        0
1005
1223F2
  0
LINE
  5
1223F3
  8
OBJECT
 10
1923.0
 20
-449.99999999999937
 30
0.0
 11
2077.0
 21
-449.99999999999937
 31
0.0
1001
ACDBBLOCKREPETAG
1070
     1
1071
        1
1005
1223F3
  0
LINE
  5
1223F4
  8
HIDDEN
 10
1943.0
 20
-519.99999999999955
 30
0.0
 11
2057.0
 21
-519.99999999999955
 31
0.0
1001
ACDBBLOCKREPETAG
1070
     1
1071
        2
1005
1223F4
  0
LINE
  5
1223F5
  8
OBJECT
 10
2077.0
 20
-449.99999999999937
 30
0.0
 11
2077.0
 21
-470.99999999999937
 31
0.0
1001
ACDBBLOCKREPETAG
1070
     1
1071
        3
1005
1223F5
  0
LINE
  5
1223F6
  8
OBJECT
 10
2077.0
 20
-470.99999999999937
 30
0.0
 11
1923.0
 21
-470.99999999999937
 31
0.0
1001
ACDBBLOCKREPETAG
1070
     1
1071
        4
1005
1223F6
  0
LINE
  5
1223F7
  8
CENTER
 10
2000.0
 20
-434.99999999999949
 30
0.0
 11
2000.0
 21
-669.99999999999955
 31
0.0
1001
ACDBBLOCKREPETAG
1070
     1
1071
        5
1005
1223F7
  0
LINE
  5
1223F8
  8
OBJECT
 10
1925.0
 20
-533.99999999999955
 30
0.0
 11
1925.0
 21
-657.99999999999955
 31
0.0
1001
ACDBBLOCKREPETAG
1070
     1
1071
        6
1005
1223F8
  0
LINE
  5
1223F9
  8
OBJECT
 10
1928.0
 20
-470.99999999999937
 30
0.0
 11
1928.0
 21
-533.99999999999955
 31
0.0
1001
ACDBBLOCKREPETAG
1070
     1
1071
        7
1005
1223F9
  0
LINE
  5
1223FA
  8
OBJECT
 10
2072.0
 20
-533.99999999999955
 30
0.0
 11
2072.0
 21
-470.99999999999937
 31
0.0
1001
ACDBBLOCKREPETAG
1070
     1
1071
        8
1005
1223FA
  0
LINE
  5
1223FB
  8
OBJECT
 10
1920.0
 20
-657.99999999999955
 30
0.0
 11
2080.0
 21
-657.99999999999955
 31
0.0
1001
ACDBBLOCKREPETAG
1070
     1
1071
        9
1005
1223FB
  0
LINE
  5
1223FC
  8
OBJECT
 10
2080.0
 20
-533.99999999999955
 30
0.0
 11
1925.0
 21
-533.99999999999955
 31
0.0
1001
ACDBBLOCKREPETAG
1070
     1
1071
       10
1005
1223FC
  0
LINE
  5
1223FD
  8
OBJECT
 10
1920.0
 20
-657.99999999999955
 30
0.0
 11
1920.0
 21
-669.99999999999955
 31
0.0
1001
ACDBBLOCKREPETAG
1070
     1
1071
       11
1005
1223FD
  0
LINE
  5
1223FE
  8
OBJECT
 10
1920.0
 20
-669.99999999999955
 30
0.0
 11
2080.0
 21
-669.99999999999955
 31
0.0
1001
ACDBBLOCKREPETAG
1070
     1
1071
       12
1005
1223FE
  0
LINE
  5
1223FF
  8
OBJECT
 10
2080.0
 20
-669.99999999999955
 30
0.0
 11
2080.0
 21
-657.99999999999955
 31
0.0
1001
ACDBBLOCKREPETAG
1070
     1
1071
       13
1005
1223FF
  0
ARC
  5
122400
  8
OBJECT
 10
2200.6872746716731
 20
-649.40809941010718
 30
0.0
 40
170.6350503965856
 50
137.44134459184301
 51
149.91949581336559
1001
ACDBBLOCKREPETAG
1070
     1
1071
       15
1005
122400
  0
ARC
  5
122401
  8
OBJECT
 10
2118.8455987040511
 20
-605.88272669536445
 30
0.0
 40
78.072222021763665
 50
147.45515310377539
 51
164.6636599771798
1001
ACDBBLOCKREPETAG
1070
     1
1071
       16
1005
122401
  0
ARC
  5
122402
  8
OBJECT
 10
2085.7554349608731
 20
-595.99999999999955
 30
0.0
 40
43.55353926885617
 50
165.6884523008477
 51
194.3115476991523
1001
ACDBBLOCKREPETAG
1070
     1
1071
       17
1005
122402
  0
ARC
  5
122403
  8
OBJECT
 10
2200.6872746716731
 20
-542.59190058989179
 30
0.0
 40
170.6350503965856
 50
210.0805041866343
 51
222.55865540815699
1001
ACDBBLOCKREPETAG
1070
     1
1071
       18
1005
122403
  0
ARC
  5
122404
  8
OBJECT
 10
2118.8455987040511
 20
-586.11727330463452
 30
0.0
 40
78.072222021763665
 50
195.3363400228202
 51
212.54484689622461
1001
ACDBBLOCKREPETAG
1070
     1
1071
       19
1005
122404
  0
POINT
  5
122405
  8
DOTS
 10
2000.0
 20
-654.99999999999966
 30
0.0
1001
ACDBBLOCKREPETAG
1070
     1
1071
      186
1005
122405
  0
LINE
  5
122406
  8
CENTER
 10
4080.0
 20
-199.99999999999841
 30
0.0
 11
4135.0
 21
-199.99999999999841
 31
0.0
1001
ACDBBLOCKREPETAG
1070
     1
1071
      352
1005
122406
  0
LINE
  5
122407
  8
OBJECT
 10
4086.0000000000009
 20
-140.9999999999975
 30
0.0
 11
4086.0000000000009
 21
-258.9999999999975
 31
0.0
1001
ACDBBLOCKREPETAG
1070
     1
1071
      353
1005
122407
  0
LINE
  5
122408
  8
OBJECT
 10
4110.0
 20
-244.49999999999841
 30
0.0
 11
4110.0
 21
-155.49999999999841
 31
0.0
1001
ACDBBLOCKREPETAG
1070
     1
1071
      354
1005
122408
  0
LINE
  5
122409
  8
OBJECT
 10
4110.0
 20
-244.49999999999841
 30
0.0
 11
4086.0000000000009
 21
-244.49999999999841
 31
0.0
1001
ACDBBLOCKREPETAG
1070
     1
1071
      355
1005
122409
  0
LINE
  5
12240A
  8
OBJECT
 10
4080.0
 20
-261.9999999999975
 30
0.0
 11
4083.0000000000009
 21
-261.9999999999975
 31
0.0
1001
ACDBBLOCKREPETAG
1070
     1
1071
      356
1005
12240A
  0
ARC
  5
12240B
  8
OBJECT
 10
4083.0000000000009
 20
-258.9999999999975
 30
0.0
 40
3.0
 50
270.0
 51
0.0
1001
ACDBBLOCKREPETAG
1070
     1
1071
      357
1005
12240B
  0
LINE
  5
12240C
  8
OBJECT
 10
4110.0
 20
-182.17793399999869
 30
0.0
 11
4113.8311890000004
 21
-177.8968179999984
 31
0.0
1001
ACDBBLOCKREPETAG
1070
     1
1071
      358
1005
12240C
  0
ARC
  5
12240D
  8
OBJECT
 10
4120.0
 20
-182.9999999999975
 30
0.0
 40
8.0
 50
341.84164700009359
 51
140.40224700014781
1001
ACDBBLOCKREPETAG
1070
     1
1071
      359
1005
12240D
  0
ARC
  5
12240E
  8
OBJECT
 10
4122.8505970000024
 20
-183.9349329999979
 30
0.0
 40
5.0
 50
288.48486899990661
 51
341.84164700009359
1001
ACDBBLOCKREPETAG
1070
     1
1071
      360
1005
12240E
  0
LINE
  5
12240F
  8
OBJECT
 10
4120.0
 20
-194.99999999999841
 30
0.0
 11
4113.0
 21
-194.99999999999841
 31
0.0
1001
ACDBBLOCKREPETAG
1070
     1
1071
      361
1005
12240F
  0
LINE
  5
122410
  8
OBJECT
 10
4120.0
 20
-204.99999999999841
 30
0.0
 11
4113.0
 21
-204.99999999999841
 31
0.0
1001
ACDBBLOCKREPETAG
1070
     1
1071
      362
1005
122410
  0
LINE
  5
122411
  8
OBJECT
 10
4120.0
 20
-194.99999999999841
 30
0.0
 11
4120.0
 21
-204.99999999999841
 31
0.0
1001
ACDBBLOCKREPETAG
1070
     1
1071
      363
1005
122411
  0
LINE
  5
122412
  8
OBJECT
 10
4113.0
 20
-192.49999999999841
 30
0.0
 11
4113.0
 21
-207.49999999999841
 31
0.0
1001
ACDBBLOCKREPETAG
1070
     1
1071
      364
1005
122412
  0
LINE
  5
122413
  8
OBJECT
 10
4110.0
 20
-208.24999999999841
 30
0.0
 11
4113.0
 21
-207.49999999999841
 31
0.0
1001
ACDBBLOCKREPETAG
1070
     1
1071
      365
1005
122413
  0
LINE
  5
122414
  8
OBJECT
 10
4110.0
 20
-217.8220669999985
 30
0.0
 11
4113.8311890000004
 21
-222.10318199999909
 31
0.0
1001
ACDBBLOCKREPETAG
1070
     1
1071
      366
1005
122414
  0
LINE
  5
122415
  8
OBJECT
 10
4110.0
 20
-191.74999999999841
 30
0.0
 11
4113.0
 21
-192.49999999999841
 31
0.0
1001
ACDBBLOCKREPETAG
1070
     1
1071
      367
1005
122415
  0
ARC
  5
122416
  8
OBJECT
 10
4120.0
 20
-216.9999999999975
 30
0.0
 40
8.0
 50
219.5977529998521
 51
18.158352999906342
1001
ACDBBLOCKREPETAG
1070
     1
1071
      368
1005
122416
  0
ARC
  5
122417
  8
OBJECT
 10
4122.8505970000024
 20
-216.06506699999889
 30
0.0
 40
5.0
 50
18.158352999906342
 51
71.515131000093419
1001
ACDBBLOCKREPETAG
1070
     1
1071
      369
1005
122417
  0
LINE
  5
122418
  8
OBJECT
 10
4124.4358679999987
 20
-211.32302999999891
 30
0.0
 11
4113.0
 21
-207.49999999999841
 31
0.0
1001
ACDBBLOCKREPETAG
1070
     1
1071
      370
1005
122418
  0
LINE
  5
122419
  8
OBJECT
 10
4124.4358679999987
 20
-188.67696999999791
 30
0.0
 11
4113.0
 21
-192.49999999999841
 31
0.0
1001
ACDBBLOCKREPETAG
1070
     1
1071
      371
1005
122419
  0
ARC
  5
12241A
  8
OBJECT
 10
4083.0000000000009
 20
-140.9999999999975
 30
0.0
 40
3.0
 50
0.0
 51
90.0
1001
ACDBBLOCKREPETAG
1070
     1
1071
      372
1005
12241A
  0
LINE
  5
12241B
  8
OBJECT
 10
4080.0
 20
-137.9999999999975
 30
0.0
 11
4083.0000000000009
 21
-137.9999999999975
 31
0.0
1001
ACDBBLOCKREPETAG
1070
     1
1071
      373
1005
12241B
  0
LINE
  5
12241C
  8
OBJECT
 10
4110.0
 20
-155.49999999999841
 30
0.0
 11
4086.0000000000009
 21
-155.49999999999841
 31
0.0
1001
ACDBBLOCKREPETAG
1070
     1
1071
      374
1005
12241C
  0
LINE
  5
12241D
  8
OBJECT
 10
4120.0
 20
-590.9999999999992
 30
0.0
 11
4113.0
 21
-590.9999999999992
 31
0.0
1001
ACDBBLOCKREPETAG
1070
     1
1071
      303
1005
12241D
  0
LINE
  5
12241E
  8
OBJECT
 10
4120.0
 20
-600.99999999999909
 30
0.0
 11
4113.0
 21
-600.99999999999909
 31
0.0
1001
ACDBBLOCKREPETAG
1070
     1
1071
      304
1005
12241E
  0
LINE
  5
12241F
  8
OBJECT
 10
4120.0
 20
-590.9999999999992
 30
0.0
 11
4120.0
 21
-593.76802120323396
 31
0.0
1001
ACDBBLOCKREPETAG
1070
     1
1071
      305
1005
12241F
  0
LINE
  5
122420
  8
OBJECT
 10
4120.0
 20
-598.23197871206798
 30
0.0
 11
4120.0
 21
-600.99999999999909
 31
0.0
1001
ACDBBLOCKREPETAG
1070
     1
1071
      306
1005
122420
  0
LINE
  5
122421
  8
OBJECT
 10
4113.0
 20
-588.49999999999909
 30
0.0
 11
4113.0
 21
-593.49910050411756
 31
0.0
1001
ACDBBLOCKREPETAG
1070
     1
1071
      307
1005
122421
  0
LINE
  5
122422
  8
OBJECT
 10
4113.0
 20
-598.50089931361913
 30
0.0
 11
4113.0
 21
-603.4999999999992
 31
0.0
1001
ACDBBLOCKREPETAG
1070
     1
1071
      308
1005
122422
  0
LINE
  5
122423
  8
OBJECT
 10
4110.0
 20
-604.2499999999992
 30
0.0
 11
4113.0
 21
-603.4999999999992
 31
0.0
1001
ACDBBLOCKREPETAG
1070
     1
1071
      309
1005
122423
  0
LINE
  5
122424
  8
OBJECT
 10
4110.0
 20
-587.7499999999992
 30
0.0
 11
4113.0
 21
-588.49999999999909
 31
0.0
1001
ACDBBLOCKREPETAG
1070
     1
1071
      310
1005
122424
  0
ARC
  5
122425
  8
OBJECT
 10
4126.0
 20
-595.99999999999909
 30
0.0
 40
2.0
 50
272.2000631505212
 51
87.799936052230066
1001
ACDBBLOCKREPETAG
1070
     1
1071
      311
1005
122425
  0
LINE
  5
122426
  8
OBJECT
 10
4110.0
 20
-598.61615099999756
 30
0.0
 11
4126.0767778209147
 21
-597.99852574819874
 31
0.0
1001
ACDBBLOCKREPETAG
1070
     1
1071
      312
1005
122426
  0
LINE
  5
122427
  8
OBJECT
 10
4110.0
 20
-593.38384877592512
 30
0.0
 11
4126.0767778487298
 21
-594.00147425286855
 31
0.0
1001
ACDBBLOCKREPETAG
1070
     1
1071
      313
1005
122427
  0
LINE
  5
122428
  8
CENTER
 10
4071.0
 20
-595.99999999999909
 30
0.0
 11
4143.0
 21
-595.99999999999909
 31
0.0
1001
ACDBBLOCKREPETAG
1070
     1
1071
      314
1005
122428
  0
LINE
  5
122429
  8
OBJECT
 10
4086.0000000000009
 20
-536.99999999999841
 30
0.0
 11
4086.0000000000009
 21
-654.99999999999829
 31
0.0
1001
ACDBBLOCKREPETAG
1070
     1
1071
      315
1005
122429
  0
LINE
  5
12242A
  8
OBJECT
 10
4110.0
 20
-640.4999999999992
 30
0.0
 11
4110.0
 21
-551.4999999999992
 31
0.0
1001
ACDBBLOCKREPETAG
1070
     1
1071
      316
1005
12242A
  0
LINE
  5
12242B
  8
OBJECT
 10
4110.0
 20
-640.4999999999992
 30
0.0
 11
4086.0000000000009
 21
-640.4999999999992
 31
0.0
1001
ACDBBLOCKREPETAG
1070
     1
1071
      317
1005
12242B
  0
LINE
  5
12242C
  8
OBJECT
 10
4080.0
 20
-657.99999999999841
 30
0.0
 11
4083.0000000000009
 21
-657.99999999999841
 31
0.0
1001
ACDBBLOCKREPETAG
1070
     1
1071
      318
1005
12242C
  0
ARC
  5
12242D
  8
OBJECT
 10
4083.0000000000009
 20
-654.99999999999829
 30
0.0
 40
3.0
 50
270.0
 51
0.0
1001
ACDBBLOCKREPETAG
1070
     1
1071
      319
1005
12242D
  0
ARC
  5
12242E
  8
OBJECT
 10
4083.0000000000009
 20
-536.99999999999841
 30
0.0
 40
3.0
 50
0.0
 51
90.0
1001
ACDBBLOCKREPETAG
1070
     1
1071
      320
1005
12242E
  0
LINE
  5
12242F
  8
OBJECT
 10
4080.0
 20
-533.99999999999818
 30
0.0
 11
4083.0000000000009
 21
-533.99999999999818
 31
0.0
1001
ACDBBLOCKREPETAG
1070
     1
1071
      321
1005
12242F
  0
LINE
  5
122430
  8
OBJECT
 10
4110.0
 20
-551.4999999999992
 30
0.0
 11
4086.0000000000009
 21
-551.4999999999992
 31
0.0
1001
ACDBBLOCKREPETAG
1070
     1
1071
      322
1005
122430
  0
LINE
  5
122431
  8
OBJECT
 10
2120.0
 20
-591.0
 30
0.0
 11
2113.0
 21
-591.0
 31
0.0
1001
ACDBBLOCKREPETAG
1070
     1
1071
      303
1005
122431
  0
LINE
  5
122432
  8
OBJECT
 10
2120.0
 20
-601.0
 30
0.0
 11
2113.0
 21
-601.0
 31
0.0
1001
ACDBBLOCKREPETAG
1070
     1
1071
      304
1005
122432
  0
LINE
  5
122433
  8
OBJECT
 10
2120.0
 20
-591.0
 30
0.0
 11
2120.0
 21
-593.76802120323453
 31
0.0
1001
ACDBBLOCKREPETAG
1070
     1
1071
      305
1005
122433
  0
LINE
  5
122434
  8
OBJECT
 10
2120.0
 20
-598.23197871206878
 30
0.0
 11
2120.0
 21
-601.0
 31
0.0
1001
ACDBBLOCKREPETAG
1070
     1
1071
      306
1005
122434
  0
LINE
  5
122435
  8
OBJECT
 10
2113.0
 20
-588.49999999999977
 30
0.0
 11
2113.0
 21
-593.49910050411825
 31
0.0
1001
ACDBBLOCKREPETAG
1070
     1
1071
      307
1005
122435
  0
LINE
  5
122436
  8
OBJECT
 10
2113.0
 20
-598.5008993136197
 30
0.0
 11
2113.0
 21
-603.5
 31
0.0
1001
ACDBBLOCKREPETAG
1070
     1
1071
      308
1005
122436
  0
LINE
  5
122437
  8
OBJECT
 10
2110.0
 20
-604.25
 30
0.0
 11
2113.0
 21
-603.5
 31
0.0
1001
ACDBBLOCKREPETAG
1070
     1
1071
      309
1005
122437
  0
LINE
  5
122438
  8
OBJECT
 10
2110.0
 20
-587.75
 30
0.0
 11
2113.0
 21
-588.49999999999977
 31
0.0
1001
ACDBBLOCKREPETAG
1070
     1
1071
      310
1005
122438
  0
ARC
  5
122439
  8
OBJECT
 10
2126.0
 20
-596.0
 30
0.0
 40
2.0
 50
272.2000631505212
 51
87.799936052230066
1001
ACDBBLOCKREPETAG
1070
     1
1071
      311
1005
122439
  0
LINE
  5
12243A
  8
OBJECT
 10
2110.0
 20
-598.61615099999835
 30
0.0
 11
2126.076777820916
 21
-597.99852574819943
 31
0.0
1001
ACDBBLOCKREPETAG
1070
     1
1071
      312
1005
12243A
  0
LINE
  5
12243B
  8
OBJECT
 10
2110.0
 20
-593.3838487759258
 30
0.0
 11
2126.076777848732
 21
-594.00147425286923
 31
0.0
1001
ACDBBLOCKREPETAG
1070
     1
1071
      313
1005
12243B
  0
LINE
  5
12243C
  8
CENTER
 10
2071.0
 20
-596.0
 30
0.0
 11
2143.0
 21
-596.0
 31
0.0
1001
ACDBBLOCKREPETAG
1070
     1
1071
      314
1005
12243C
  0
LINE
  5
12243D
  8
OBJECT
 10
2086.0
 20
-536.9999999999992
 30
0.0
 11
2086.0
 21
-654.99999999999898
 31
0.0
1001
ACDBBLOCKREPETAG
1070
     1
1071
      315
1005
12243D
  0
LINE
  5
12243E
  8
OBJECT
 10
2110.0
 20
-640.5
 30
0.0
 11
2110.0
 21
-551.49999999999977
 31
0.0
1001
ACDBBLOCKREPETAG
1070
     1
1071
      316
1005
12243E
  0
LINE
  5
12243F
  8
OBJECT
 10
2110.0
 20
-640.5
 30
0.0
 11
2086.0
 21
-640.5
 31
0.0
1001
ACDBBLOCKREPETAG
1070
     1
1071
      317
1005
12243F
  0
LINE
  5
122440
  8
OBJECT
 10
2080.0
 20
-657.9999999999992
 30
0.0
 11
2083.0
 21
-657.9999999999992
 31
0.0
1001
ACDBBLOCKREPETAG
1070
     1
1071
      318
1005
122440
  0
ARC
  5
122441
  8
OBJECT
 10
2083.0
 20
-654.99999999999898
 30
0.0
 40
3.0
 50
270.0
 51
0.0
1001
ACDBBLOCKREPETAG
1070
     1
1071
      319
1005
122441
  0
ARC
  5
122442
  8
OBJECT
 10
2083.0
 20
-536.9999999999992
 30
0.0
 40
3.0
 50
0.0
 51
90.0
1001
ACDBBLOCKREPETAG
1070
     1
1071
      320
1005
122442
  0
LINE
  5
122443
  8
OBJECT
 10
2080.0
 20
-533.99999999999898
 30
0.0
 11
2083.0
 21
-533.99999999999898
 31
0.0
1001
ACDBBLOCKREPETAG
1070
     1
1071
      321
1005
122443
  0
LINE
  5
122444
  8
OBJECT
 10
2110.0
 20
-551.49999999999977
 30
0.0
 11
2086.0
 21
-551.49999999999977
 31
0.0
1001
ACDBBLOCKREPETAG
1070
     1
1071
      322
1005
122444
  0
LINE
  5
122445
  8
CENTER
 10
2080.0
 20
-199.99999999999909
 30
0.0
 11
2135.0
 21
-199.99999999999909
 31
0.0
1001
ACDBBLOCKREPETAG
1070
     1
1071
      352
1005
122445
  0
LINE
  5
122446
  8
OBJECT
 10
2086.0
 20
-140.99999999999821
 30
0.0
 11
2086.0
 21
-258.99999999999818
 31
0.0
1001
ACDBBLOCKREPETAG
1070
     1
1071
      353
1005
122446
  0
LINE
  5
122447
  8
OBJECT
 10
2110.0
 20
-244.49999999999909
 30
0.0
 11
2110.0
 21
-155.49999999999909
 31
0.0
1001
ACDBBLOCKREPETAG
1070
     1
1071
      354
1005
122447
  0
LINE
  5
122448
  8
OBJECT
 10
2110.0
 20
-244.49999999999909
 30
0.0
 11
2086.0
 21
-244.49999999999909
 31
0.0
1001
ACDBBLOCKREPETAG
1070
     1
1071
      355
1005
122448
  0
LINE
  5
122449
  8
OBJECT
 10
2080.0
 20
-261.99999999999818
 30
0.0
 11
2083.0
 21
-261.99999999999818
 31
0.0
1001
ACDBBLOCKREPETAG
1070
     1
1071
      356
1005
122449
  0
ARC
  5
12244A
  8
OBJECT
 10
2083.0
 20
-258.99999999999818
 30
0.0
 40
3.0
 50
270.0
 51
0.0
1001
ACDBBLOCKREPETAG
1070
     1
1071
      357
1005
12244A
  0
LINE
  5
12244B
  8
OBJECT
 10
2110.0
 20
-182.17793399999931
 30
0.0
 11
2113.831189
 21
-177.8968179999992
 31
0.0
1001
ACDBBLOCKREPETAG
1070
     1
1071
      358
1005
12244B
  0
ARC
  5
12244C
  8
OBJECT
 10
2120.0
 20
-182.99999999999821
 30
0.0
 40
8.0
 50
341.84164700009359
 51
140.40224700014781
1001
ACDBBLOCKREPETAG
1070
     1
1071
      359
1005
12244C
  0
ARC
  5
12244D
  8
OBJECT
 10
2122.850597000001
 20
-183.93493299999861
 30
0.0
 40
5.0
 50
288.48486899990661
 51
341.84164700009359
1001
ACDBBLOCKREPETAG
1070
     1
1071
      360
1005
12244D
  0
LINE
  5
12244E
  8
OBJECT
 10
2120.0
 20
-194.99999999999909
 30
0.0
 11
2113.0
 21
-194.99999999999909
 31
0.0
1001
ACDBBLOCKREPETAG
1070
     1
1071
      361
1005
12244E
  0
LINE
  5
12244F
  8
OBJECT
 10
2120.0
 20
-204.99999999999909
 30
0.0
 11
2113.0
 21
-204.99999999999909
 31
0.0
1001
ACDBBLOCKREPETAG
1070
     1
1071
      362
1005
12244F
  0
LINE
  5
122450
  8
OBJECT
 10
2120.0
 20
-194.99999999999909
 30
0.0
 11
2120.0
 21
-204.99999999999909
 31
0.0
1001
ACDBBLOCKREPETAG
1070
     1
1071
      363
1005
122450
  0
LINE
  5
122451
  8
OBJECT
 10
2113.0
 20
-192.49999999999909
 30
0.0
 11
2113.0
 21
-207.49999999999909
 31
0.0
1001
ACDBBLOCKREPETAG
1070
     1
1071
      364
1005
122451
  0
LINE
  5
122452
  8
OBJECT
 10
2110.0
 20
-208.24999999999909
 30
0.0
 11
2113.0
 21
-207.49999999999909
 31
0.0
1001
ACDBBLOCKREPETAG
1070
     1
1071
      365
1005
122452
  0
LINE
  5
122453
  8
OBJECT
 10
2110.0
 20
-217.82206699999909
 30
0.0
 11
2113.831189
 21
-222.1031819999998
 31
0.0
1001
ACDBBLOCKREPETAG
1070
     1
1071
      366
1005
122453
  0
LINE
  5
122454
  8
OBJECT
 10
2110.0
 20
-191.74999999999909
 30
0.0
 11
2113.0
 21
-192.49999999999909
 31
0.0
1001
ACDBBLOCKREPETAG
1070
     1
1071
      367
1005
122454
  0
ARC
  5
122455
  8
OBJECT
 10
2120.0
 20
-216.99999999999821
 30
0.0
 40
8.0
 50
219.5977529998521
 51
18.158352999906342
1001
ACDBBLOCKREPETAG
1070
     1
1071
      368
1005
122455
  0
ARC
  5
122456
  8
OBJECT
 10
2122.850597000001
 20
-216.0650669999994
 30
0.0
 40
5.0
 50
18.158352999906342
 51
71.515131000093419
1001
ACDBBLOCKREPETAG
1070
     1
1071
      369
1005
122456
  0
LINE
  5
122457
  8
OBJECT
 10
2124.435868
 20
-211.32302999999959
 30
0.0
 11
2113.0
 21
-207.49999999999909
 31
0.0
1001
ACDBBLOCKREPETAG
1070
     1
1071
      370
1005
122457
  0
LINE
  5
122458
  8
OBJECT
 10
2124.435868
 20
-188.67696999999851
 30
0.0
 11
2113.0
 21
-192.49999999999909
 31
0.0
1001
ACDBBLOCKREPETAG
1070
     1
1071
      371
1005
122458
  0
ARC
  5
122459
  8
OBJECT
 10
2083.0
 20
-140.99999999999821
 30
0.0
 40
3.0
 50
0.0
 51
90.0
1001
ACDBBLOCKREPETAG
1070
     1
1071
      372
1005
122459
  0
LINE
  5
12245A
  8
OBJECT
 10
2080.0
 20
-137.99999999999821
 30
0.0
 11
2083.0
 21
-137.99999999999821
 31
0.0
1001
ACDBBLOCKREPETAG
1070
     1
1071
      373
1005
12245A
  0
LINE
  5
12245B
  8
OBJECT
 10
2110.0
 20
-155.49999999999909
 30
0.0
 11
2086.0
 21
-155.49999999999909
 31
0.0
1001
ACDBBLOCKREPETAG
1070
     1
1071
      374
1005
12245B
  0
TEXT
  5
12245C
  8
SLIM
 10
3741.6250000000009
 20
-1247.499999999997
 30
0.0
 40
35.0
  1
片受けスタイル（S）＋シンドカット
 41
0.75
  0
TEXT
  5
12245D
  8
SLIM
 10
1856.25
 20
-1247.499999999998
 30
0.0
 40
35.0
  1
片受けスタイル（S）
 41
0.75
  0
TEXT
  5
12245E
  8
SLIM
 10
0.0
 20
370.0
 30
0.0
 40
100.0
  1
4SR-CO-P-S
 41
0.75
  0
VIEWPORT
  5
F6BA7
 67
     1
  8
0
 10
145.33033752441401
 20
101.8328354358673
 30
0.0
 40
334.0025019414623
 41
222.19657968139651
 68
     1
 69
     1
1001
ACAD
1000
MVIEW
1002
{
1070
    16
1010
0.0
1020
0.0
1030
0.0
1010
0.0
1020
0.0
1030
1.0
1040
0.0
1040
222.19657968139651
1040
145.33033752441401
1040
101.8328354358673
1040
50.0
1040
0.0
1040
0.0
1070
     0
1070
     0
1070
     1
1070
     1
1070
     0
1070
     0
1070
     0
1070
     0
1040
0.0
1040
0.0
1040
0.0
1040
10.0
1040
10.0
1040
10.0
1040
10.0
1070
     0
1002
{
1002
}
1002
}
  0
VIEWPORT
  5
F6BA9
 67
     1
  8
OBJECT
 10
145.3303314447403
 20
101.8328338861465
 30
0.0
 40
232.5285303115844
 41
162.93253421783439
 68
     2
 69
     2
1001
ACAD
1000
MVIEW
1002
{
1070
    16
1010
0.0
1020
0.0
1030
0.0
1010
0.0
1020
0.0
1030
1.0
1040
0.0
1040
25942.55904403147
1040
2377.604457077377
1040
-7591.5176687056619
1040
50.0
1040
0.0
1040
0.0
1070
     0
1070
   600
1070
     1
1070
     1
1070
     0
1070
     0
1070
     0
1070
     0
1040
0.0
1040
0.0
1040
0.0
1040
1.0
1040
1.0
1040
0.0
1040
0.0
1070
     0
1002
{
1002
}
1002
}
  0
ENDSEC
  0
EOF
