  0
SECTION
  2
HEADER
  9
$ACADVER
  1
AC1009
  9
$INSBASE
 10
0.0
 20
0.0
 30
0.0
  9
$EXTMIN
 10
0.0
 20
-3697.4999999999968
 30
0.0
  9
$EXTMAX
 10
5575.0
 20
607.5
 30
0.0
  9
$LIMMIN
 10
0.0
 20
0.0
  9
$LIMMAX
 10
210.0
 20
297.0
  9
$ORTHOMODE
 70
     0
  9
$REGENMODE
 70
     1
  9
$FILLMODE
 70
     1
  9
$QTEXTMODE
 70
     0
  9
$MIRRTEXT
 70
     0
  9
$DRAGMODE
 70
     2
  9
$LTSCALE
 40
1.0
  9
$OSMODE
 70
    37
  9
$ATTMODE
 70
     1
  9
$TEXTSIZE
 40
4.0
  9
$TRACEWID
 40
0.05
  9
$TEXTSTYLE
  7
STANDARD
  9
$CLAYER
  8
OBJECT
  9
$CELTYPE
  6
BYLAYER
  9
$CECOLOR
 62
   256
  9
$DIMSCALE
 40
10.0
  9
$DIMASZ
 40
2.0
  9
$DIMEXO
 40
1.0
  9
$DIMDLI
 40
10.0
  9
$DIMRND
 40
0.0
  9
$DIMDLE
 40
0.0
  9
$DIMEXE
 40
1.0
  9
$DIMTP
 40
0.0
  9
$DIMTM
 40
0.0
  9
$DIMTXT
 40
3.2000000000000002
  9
$DIMCEN
 40
0.0
  9
$DIMTSZ
 40
0.0
  9
$DIMTOL
 70
     0
  9
$DIMLIM
 70
     0
  9
$DIMTIH
 70
     0
  9
$DIMTOH
 70
     0
  9
$DIMSE1
 70
     0
  9
$DIMSE2
 70
     0
  9
$DIMTAD
 70
     1
  9
$DIMZIN
 70
     8
  9
$DIMBLK
  1
OPEN30
  9
$DIMASO
 70
     1
  9
$DIMSHO
 70
     1
  9
$DIMPOST
  1

  9
$DIMAPOST
  1

  9
$DIMALT
 70
     0
  9
$DIMALTD
 70
     2
  9
$DIMALTF
 40
25.399999999999999
  9
$DIMLFAC
 40
1.0
  9
$DIMTOFL
 70
     1
  9
$DIMTVP
 40
0.0
  9
$DIMTIX
 70
     0
  9
$DIMSOXD
 70
     0
  9
$DIMSAH
 70
     0
  9
$DIMBLK1
  1

  9
$DIMBLK2
  1

  9
$DIMSTYLE
  2
S10
  9
$DIMCLRD
 70
   256
  9
$DIMCLRE
 70
   256
  9
$DIMCLRT
 70
   256
  9
$DIMTFAC
 40
1.0
  9
$DIMGAP
 40
0.9
  9
$LUNITS
 70
     2
  9
$LUPREC
 70
     2
  9
$SKETCHINC
 40
0.1
  9
$FILLETRAD
 40
0.0
  9
$AUNITS
 70
     0
  9
$AUPREC
 70
     2
  9
$MENU
  1
ACAD
  9
$ELEVATION
 40
0.0
  9
$PELEVATION
 40
0.0
  9
$THICKNESS
 40
0.0
  9
$LIMCHECK
 70
     0
  9
$BLIPMODE
 70
     0
  9
$CHAMFERA
 40
2.0
  9
$CHAMFERB
 40
2.0
  9
$SKPOLY
 70
     0
  9
$TDCREATE
 40
2453095.4929404748
  9
$TDUPDATE
 40
2457603.719511284
  9
$TDINDWG
 40
18.3499419792
  9
$TDUSRTIMER
 40
18.349941273100001
  9
$USRTIMER
 70
     1
  9
$ANGBASE
 50
0.0
  9
$ANGDIR
 70
     0
  9
$PDMODE
 70
    35
  9
$PDSIZE
 40
2.0
  9
$PLINEWID
 40
0.0
  9
$COORDS
 70
     1
  9
$SPLFRAME
 70
     0
  9
$SPLINETYPE
 70
     6
  9
$SPLINESEGS
 70
     8
  9
$ATTDIA
 70
     0
  9
$ATTREQ
 70
     1
  9
$HANDLING
 70
     1
  9
$HANDSEED
  5
131276
  9
$SURFTAB1
 70
     6
  9
$SURFTAB2
 70
     6
  9
$SURFTYPE
 70
     6
  9
$SURFU
 70
     6
  9
$SURFV
 70
     6
  9
$UCSNAME
  2

  9
$UCSORG
 10
0.0
 20
0.0
 30
0.0
  9
$UCSXDIR
 10
1.0
 20
0.0
 30
0.0
  9
$UCSYDIR
 10
0.0
 20
1.0
 30
0.0
  9
$PUCSNAME
  2

  9
$PUCSORG
 10
0.0
 20
0.0
 30
0.0
  9
$PUCSXDIR
 10
1.0
 20
0.0
 30
0.0
  9
$PUCSYDIR
 10
0.0
 20
1.0
 30
0.0
  9
$USERI1
 70
     0
  9
$USERI2
 70
     0
  9
$USERI3
 70
     0
  9
$USERI4
 70
     0
  9
$USERI5
 70
     0
  9
$USERR1
 40
0.0
  9
$USERR2
 40
0.0
  9
$USERR3
 40
0.0
  9
$USERR4
 40
0.0
  9
$USERR5
 40
0.0
  9
$WORLDVIEW
 70
     1
  9
$SHADEDGE
 70
     3
  9
$SHADEDIF
 70
    70
  9
$TILEMODE
 70
     1
  9
$MAXACTVP
 70
    64
  9
$PLIMCHECK
 70
     0
  9
$PEXTMIN
 10
29.066066288948051
 20
20.366566777229309
 30
0.0
  9
$PEXTMAX
 10
261.5945966005325
 20
183.29910099506381
 30
0.0
  9
$PLIMMIN
 10
-3.17498779296875
 20
-3.1749999523162842
  9
$PLIMMAX
 10
293.83566284179687
 20
206.8406708240509
  9
$UNITMODE
 70
     0
  9
$VISRETAIN
 70
     1
  9
$PLINEGEN
 70
     0
  9
$PSLTSCALE
 70
     1
  0
ENDSEC
  0
SECTION
  2
TABLES
  0
TABLE
  2
VPORT
 70
     1
  0
VPORT
  2
*ACTIVE
 70
     0
 10
0.0
 20
0.0
 11
1.0
 21
1.0
 12
3011.9871004601491
 22
-961.26366027399001
 13
0.0
 23
0.0
 14
1.0
 24
1.0
 15
0.0
 25
0.0
 16
0.0
 26
0.0
 36
1.0
 17
0.0
 27
0.0
 37
0.0
 40
3311.329327481475
 41
1.6494178525226391
 42
50.0
 43
0.0
 44
0.0
 50
0.0
 51
0.0
 71
     0
 72
   600
 73
     1
 74
     1
 75
     0
 76
     0
 77
     0
 78
     0
  0
ENDTAB
  0
TABLE
  2
LTYPE
 70
     4
  0
LTYPE
  2
CONTINUOUS
 70
     0
  3
Solid line
 72
    65
 73
     0
 40
0.0
  0
LTYPE
  2
PHANTOM2
 70
     0
  3
___ _ _ ___ _ _ ___ _ _ ___ _ _
 72
    65
 73
     6
 40
1.25
 49
0.625
 49
-0.125
 49
0.125
 49
-0.125
 49
0.125
 49
-0.125
  0
LTYPE
  2
ACAD_ISO08W100
 70
     0
  3
ISO long-dash short-dash ____ __ ____ __ ____ _
 72
    65
 73
     4
 40
36.0
 49
24.0
 49
-3.0
 49
6.0
 49
-3.0
  0
LTYPE
  2
ACAD_ISO02W100
 70
     0
  3
ISO dash __ __ __ __ __ __ __ __ __ __ __ __ __
 72
    65
 73
     2
 40
15.0
 49
12.0
 49
-3.0
  0
ENDTAB
  0
TABLE
  2
LAYER
 70
     8
  0
LAYER
  2
0
 70
     0
 62
     7
  6
CONTINUOUS
  0
LAYER
  2
OBJECT
 70
     0
 62
     4
  6
CONTINUOUS
  0
LAYER
  2
DEFPOINTS
 70
     0
 62
     7
  6
CONTINUOUS
  0
LAYER
  2
DIM
 70
     0
 62
     7
  6
CONTINUOUS
  0
LAYER
  2
HIDDEN
 70
     0
 62
     2
  6
ACAD_ISO02W100
  0
LAYER
  2
CENTER
 70
     0
 62
     2
  6
ACAD_ISO08W100
  0
LAYER
  2
DOTS
 70
     0
 62
     1
  6
CONTINUOUS
  0
LAYER
  2
SLIM
 70
     0
 62
     2
  6
CONTINUOUS
  0
ENDTAB
  0
TABLE
  2
STYLE
 70
     2
  0
STYLE
  2
STANDARD
 70
     0
 40
0.0
 41
0.75
 50
0.0
 71
     0
 42
4.0
  3
simplex.shx
  4
bigfont.shx
  0
ENDTAB
  0
TABLE
  2
VIEW
 70
     0
  0
ENDTAB
  0
TABLE
  2
UCS
 70
     0
  0
ENDTAB
  0
TABLE
  2
APPID
 70
    18
  0
APPID
  2
ACAD
 70
     0
  0
APPID
  2
ACADANNOTATIVE
 70
     0
  0
APPID
  2
ACAD_PSEXT
 70
     0
  0
APPID
  2
ACAD_EXEMPT_FROM_CAD_STANDARDS
 70
     0
  0
APPID
  2
ACAECLAYERSTANDARD
 70
     0
  0
APPID
  2
ACAUTHENVIRON
 70
     0
  0
APPID
  2
ACDBDYNAMICBLOCKTRUENAME
 70
     0
  0
APPID
  2
ACDBDYNAMICBLOCKGUID
 70
     0
  0
APPID
  2
ACDBBLOCKREPETAG
 70
     0
  0
APPID
  2
ACDBBLOCKREPBTAG
 70
     0
  0
APPID
  2
ACAD_NAV_VCDISPLAY
 70
     0
  0
APPID
  2
ACAD_DSTYLE_DIMRADIAL_EXTENSION
 70
     0
  0
APPID
  2
ACAD_DSTYLE_DIMJAG
 70
     0
  0
APPID
  2
ACAD_DSTYLE_DIMTALN
 70
     0
  0
APPID
  2
ACADANNOPO
 70
     0
  0
APPID
  2
GRADIENTCOLOR1ACI
 70
     0
  0
APPID
  2
GRADIENTCOLOR2ACI
 70
     0
  0
APPID
  2
ACAD_MLEADERVER
 70
     0
  0
ENDTAB
  0
TABLE
  2
DIMSTYLE
 70
     3
  0
DIMSTYLE
  2
STANDARD
 70
     0
  3

  4

  5

  6

  7

 40
1.0
 41
0.18
 42
0.0625
 43
0.38
 44
0.18
 45
0.0
 46
0.0
 47
0.0
 48
0.0
140
0.18
141
0.09
142
0.0
143
25.399999999999999
144
1.0
145
0.0
146
1.0
147
0.09
 71
     0
 72
     0
 73
     1
 74
     1
 75
     0
 76
     0
 77
     0
 78
     0
170
     0
171
     2
172
     0
173
     0
174
     0
175
     0
176
     0
177
     0
178
     0
  0
DIMSTYLE
  2
S10
 70
     0
  3

  4

  5

  6

  7

 40
10.0
 41
2.0
 42
1.0
 43
10.0
 44
1.0
 45
0.0
 46
0.0
 47
0.0
 48
0.0
140
3.2000000000000002
141
0.0
142
0.0
143
25.399999999999999
144
1.0
145
0.0
146
1.0
147
0.9
 71
     0
 72
     0
 73
     0
 74
     0
 75
     0
 76
     0
 77
     1
 78
     8
170
     0
171
     2
172
     1
173
     0
174
     0
175
     0
176
   256
177
   256
178
   256
  0
ENDTAB
  0
ENDSEC
  0
SECTION
  2
BLOCKS
  0
BLOCK
  8
0
  2
$MODEL_SPACE
 70
     0
 10
0.0
 20
0.0
 30
0.0
  3
$MODEL_SPACE
  1

  0
ENDBLK
  5
131144
  8
0
  0
BLOCK
 67
     1
  8
0
  2
$PAPER_SPACE
 70
     0
 10
0.0
 20
0.0
 30
0.0
  3
$PAPER_SPACE
  1

  0
ENDBLK
  5
131140
 67
     1
  8
0
  0
BLOCK
  8
0
  2
_OPEN30
 70
     0
 10
0.0
 20
0.0
 30
0.0
  3
_OPEN30
  1

  0
LINE
  5
202
  8
0
  6
BYBLOCK
 62
     0
 10
-1.0
 20
0.26794919
 30
0.0
 11
0.0
 21
0.0
 31
0.0
  0
LINE
  5
203
  8
0
  6
BYBLOCK
 62
     0
 10
0.0
 20
0.0
 30
0.0
 11
-1.0
 21
-0.26794919
 31
0.0
  0
LINE
  5
204
  8
0
  6
BYBLOCK
 62
     0
 10
0.0
 20
0.0
 30
0.0
 11
-1.0
 21
0.0
 31
0.0
  0
ENDBLK
  5
206
  8
0
  0
BLOCK
  8
0
  2
*U4
 70
     1
 10
0.0
 20
0.0
 30
0.0
  3
*U4
  1

  0
TEXT
  5
131012
  8
DIM
 10
3840.6616440113212
 20
-982.74285714285509
 30
0.0
 40
32.0
  1
m（シンドカット）
 50
90.0
 41
0.75
  0
ENDBLK
  5
131014
  8
0
  0
BLOCK
  8
0
  2
*U5
 70
     1
 10
0.0
 20
0.0
 30
0.0
  3
*U5
  1

  0
TEXT
  5
13102B
  8
SLIM
 10
122.5714285686164
 20
-583.00000000000716
 30
0.0
 40
26.0
  1
75U
  0
ENDBLK
  5
13102D
  8
0
  0
BLOCK
  8
0
  2
*U6
 70
     1
 10
0.0
 20
0.0
 30
0.0
  3
*U6
  1

  0
TEXT
  5
131044
  8
SLIM
 10
482.57142856869831
 20
-583.00000000000716
 30
0.0
 40
26.0
  1
75U
  0
ENDBLK
  5
131046
  8
0
  0
BLOCK
  8
0
  2
*U7
 70
     1
 10
0.0
 20
0.0
 30
0.0
  3
*U7
  1

  0
TEXT
  5
13105D
  8
SLIM
 10
482.57142856869831
 20
-119.0000000000036
 30
0.0
 40
26.0
  1
75U
  0
ENDBLK
  5
13105F
  8
0
  0
BLOCK
  8
0
  2
*U8
 70
     1
 10
0.0
 20
0.0
 30
0.0
  3
*U8
  1

  0
TEXT
  5
131076
  8
SLIM
 10
122.5714285686164
 20
-119.0000000000036
 30
0.0
 40
26.0
  1
75U
  0
ENDBLK
  5
131078
  8
0
  0
BLOCK
  8
0
  2
*U9
 70
     1
 10
0.0
 20
0.0
 30
0.0
  3
*U9
  1

  0
TEXT
  5
13107A
  8
SLIM
 10
257.9999999971879
 20
-698.95238095179525
 30
0.0
 40
26.0
  1
75
 50
270.0
  0
ENDBLK
  5
13107C
  8
0
  0
BLOCK
  8
0
  2
*U10
 70
     1
 10
0.0
 20
0.0
 30
0.0
  3
*U10
  1

  0
TEXT
  5
13107E
  8
SLIM
 10
625.24999999726958
 20
-689.04761904703321
 30
0.0
 40
26.0
  1
100
 50
270.0
  0
ENDBLK
  5
131080
  8
0
  0
BLOCK
  8
0
  2
*U11
 70
     1
 10
0.0
 20
0.0
 30
0.0
  3
*U11
  1

  0
TEXT
  5
131082
  8
SLIM
 10
617.9999999972697
 20
-234.95238095179161
 30
0.0
 40
26.0
  1
65
 50
270.0
  0
ENDBLK
  5
131084
  8
0
  0
BLOCK
  8
0
  2
*U12
 70
     1
 10
0.0
 20
0.0
 30
0.0
  3
*U12
  1

  0
TEXT
  5
131086
  8
SLIM
 10
257.9999999971879
 20
-234.95238095179161
 30
0.0
 40
26.0
  1
50
 50
270.0
  0
ENDBLK
  5
131088
  8
0
  0
BLOCK
  8
0
  2
*U13
 70
     1
 10
0.0
 20
0.0
 30
0.0
  3
*U13
  1

  0
TEXT
  5
1310C8
  8
DIM
 10
2209.479620594459
 20
-3184.1428571428528
 30
0.0
 40
32.0
  1
A
 50
90.0
 41
0.75
  0
ENDBLK
  5
1310CA
  8
0
  0
BLOCK
  8
0
  2
*U14
 70
     1
 10
0.0
 20
0.0
 30
0.0
  3
*U14
  1

  0
TEXT
  5
1310CC
  8
DIM
 10
2207.8409284037348
 20
-3565.9999999999959
 30
0.0
 40
32.0
  1
B
 50
90.0
 41
0.75
  0
ENDBLK
  5
1310CE
  8
0
  0
BLOCK
  8
0
  2
*U15
 70
     1
 10
0.0
 20
0.0
 30
0.0
  3
*U15
  1

  0
TEXT
  5
1310D0
  8
DIM
 10
2061.428571428572
 20
-3038.208121984444
 30
0.0
 40
32.0
  1
C
 41
0.75
  0
ENDBLK
  5
1310D2
  8
0
  0
ENDSEC
  0
SECTION
  2
ENTITIES
  0
LINE
  5
12515F
  8
OBJECT
 10
1825.0
 20
-3579.9999999999959
 30
0.0
 11
5575.0
 21
-3579.9999999999959
 31
0.0
  0
LINE
  5
125161
  8
SLIM
 10
2616.0
 20
-2637.50001604727
 30
0.0
 11
2616.0
 21
-2967.50001604727
 31
0.0
  0
LINE
  5
125162
  8
SLIM
 10
2740.0
 20
-2637.50001604727
 30
0.0
 11
2740.0
 21
-2967.50001604727
 31
0.0
  0
LINE
  5
125163
  8
SLIM
 10
2870.0
 20
-2697.50001604727
 30
0.0
 11
2870.0
 21
-2967.50001604727
 31
0.0
  0
LINE
  5
125164
  8
SLIM
 10
3000.0
 20
-2697.50001604727
 30
0.0
 11
3000.0
 21
-2967.50001604727
 31
0.0
  0
LINE
  5
125165
  8
SLIM
 10
3130.0
 20
-2967.50001604727
 30
0.0
 11
3130.0
 21
-2697.50001604727
 31
0.0
  0
LINE
  5
125166
  8
SLIM
 10
3260.0
 20
-2967.50001604727
 30
0.0
 11
3260.0
 21
-2637.50001604727
 31
0.0
  0
LINE
  5
125167
  8
SLIM
 10
3260.0
 20
-2637.50001604727
 30
0.0
 11
2616.0
 21
-2637.50001604727
 31
0.0
  0
LINE
  5
125168
  8
SLIM
 10
3260.0
 20
-2697.50001604727
 30
0.0
 11
2740.0
 21
-2697.50001604727
 31
0.0
  0
LINE
  5
125169
  8
SLIM
 10
3260.0
 20
-2757.50001604727
 30
0.0
 11
2616.0
 21
-2757.50001604727
 31
0.0
  0
LINE
  5
12516A
  8
SLIM
 10
3260.0
 20
-2827.50001604727
 30
0.0
 11
2616.0
 21
-2827.50001604727
 31
0.0
  0
LINE
  5
12516B
  8
SLIM
 10
3260.0
 20
-2897.50001604727
 30
0.0
 11
2616.0
 21
-2897.50001604727
 31
0.0
  0
LINE
  5
12516C
  8
SLIM
 10
3260.0
 20
-2967.50001604727
 30
0.0
 11
2616.0
 21
-2967.50001604727
 31
0.0
  0
LINE
  5
125181
  8
SLIM
 10
2740.0
 20
-2757.50001604727
 30
0.0
 11
2615.9999722746579
 21
-2637.5
 31
0.0
  0
LINE
  5
1251B6
  8
OBJECT
 10
5323.0
 20
-3395.9999999999968
 30
0.0
 11
5323.0
 21
-3374.9999999999968
 31
0.0
1001
ACDBBLOCKREPETAG
1070
     1
1071
       20
1005
1251B6
  0
LINE
  5
1251B7
  8
OBJECT
 10
5323.0
 20
-3374.9999999999968
 30
0.0
 11
5477.0
 21
-3374.9999999999968
 31
0.0
1001
ACDBBLOCKREPETAG
1070
     1
1071
       21
1005
1251B7
  0
LINE
  5
1251B8
  8
HIDDEN
 10
5343.0
 20
-3444.9999999999968
 30
0.0
 11
5457.0
 21
-3444.9999999999968
 31
0.0
1001
ACDBBLOCKREPETAG
1070
     1
1071
       22
1005
1251B8
  0
LINE
  5
1251B9
  8
OBJECT
 10
5477.0
 20
-3374.9999999999968
 30
0.0
 11
5477.0
 21
-3395.9999999999968
 31
0.0
1001
ACDBBLOCKREPETAG
1070
     1
1071
       23
1005
1251B9
  0
LINE
  5
1251BA
  8
OBJECT
 10
5477.0
 20
-3395.9999999999968
 30
0.0
 11
5323.0
 21
-3395.9999999999968
 31
0.0
1001
ACDBBLOCKREPETAG
1070
     1
1071
       24
1005
1251BA
  0
LINE
  5
1251BB
  8
CENTER
 10
5400.0
 20
-3359.9999999999968
 30
0.0
 11
5400.0
 21
-3594.9999999999968
 31
0.0
1001
ACDBBLOCKREPETAG
1070
     1
1071
       25
1005
1251BB
  0
LINE
  5
1251BC
  8
OBJECT
 10
5325.0
 20
-3458.9999999999968
 30
0.0
 11
5325.0
 21
-3582.9999999999968
 31
0.0
1001
ACDBBLOCKREPETAG
1070
     1
1071
       26
1005
1251BC
  0
LINE
  5
1251BD
  8
OBJECT
 10
5328.0
 20
-3395.9999999999968
 30
0.0
 11
5328.0
 21
-3458.9999999999968
 31
0.0
1001
ACDBBLOCKREPETAG
1070
     1
1071
       27
1005
1251BD
  0
LINE
  5
1251BE
  8
OBJECT
 10
5472.0
 20
-3458.9999999999968
 30
0.0
 11
5472.0
 21
-3395.9999999999968
 31
0.0
1001
ACDBBLOCKREPETAG
1070
     1
1071
       28
1005
1251BE
  0
LINE
  5
1251BF
  8
OBJECT
 10
5475.0
 20
-3458.9999999999968
 30
0.0
 11
5456.7802782663139
 21
-3458.9999999999968
 31
0.0
1001
ACDBBLOCKREPETAG
1070
     1
1071
       30
1005
1251BF
  0
LINE
  5
1251C0
  8
OBJECT
 10
5475.0
 20
-3458.9999999999968
 30
0.0
 11
5475.0
 21
-3582.9999999999968
 31
0.0
1001
ACDBBLOCKREPETAG
1070
     1
1071
       34
1005
1251C0
  0
POINT
  5
1251C1
  8
DOTS
 10
5400.0
 20
-3579.9999999999968
 30
0.0
1001
ACDBBLOCKREPETAG
1070
     1
1071
      187
1005
1251C1
  0
LINE
  5
1251C2
  8
CENTER
 10
5310.0
 20
-3507.9999999999968
 30
0.0
 11
5490.0
 21
-3507.9999999999968
 31
0.0
1001
ACDBBLOCKREPETAG
1070
     1
1071
       23
1005
1251C2
  0
CIRCLE
  5
1251C3
  8
OBJECT
 10
5400.0
 20
-3507.9999999999968
 30
0.0
 40
53.5
1001
ACDBBLOCKREPETAG
1070
     1
1071
       24
1005
1251C3
  0
CIRCLE
  5
1251C4
  8
OBJECT
 10
5400.0
 20
-3507.9999999999968
 30
0.0
 40
67.0
1001
ACDBBLOCKREPETAG
1070
     1
1071
       25
1005
1251C4
  0
ARC
  5
1251C5
  8
OBJECT
 10
5400.0
 20
-3507.9999999999968
 30
0.0
 40
75.0
 50
286.26020470824369
 51
253.73979529175631
1001
ACDBBLOCKREPETAG
1070
     1
1071
       27
1005
1251C5
  0
LINE
  5
1251C6
  8
OBJECT
 10
5379.0
 20
-3579.9999999999968
 30
0.0
 11
5421.0
 21
-3579.9999999999968
 31
0.0
1001
ACDBBLOCKREPETAG
1070
     1
1071
       28
1005
1251C6
  0
LINE
  5
1251C7
  8
OBJECT
 10
5343.2197217336861
 20
-3458.9999999999968
 30
0.0
 11
5325.0
 21
-3458.9999999999968
 31
0.0
1001
ACDBBLOCKREPETAG
1070
     1
1071
       30
1005
1251BF
  0
TEXT
  5
12CC49
  8
SLIM
 10
-0.0000000000000011
 20
282.5
 30
0.0
 40
35.0
  1
※ 100枝（4）がある場合、品名の最後に【管底】が付きます。
 41
0.9
 11
0.0
 21
300.0
 31
0.0
 73
     2
  0
TEXT
  5
13016D
  8
SLIM
 10
139.7142857142874
 20
-444.0
 30
0.0
 40
48.0
  1
U71
 41
0.75
 72
     4
 11
180.00000000000171
 21
-420.0
 31
0.0
  0
TEXT
  5
13016E
  8
SLIM
 10
132.00000000000131
 20
-908.0
 30
0.0
 40
48.0
  1
U73
 41
0.75
 72
     4
 11
180.00000000000131
 21
-884.0
 31
0.0
  0
TEXT
  5
13016F
  8
SLIM
 10
492.00000000000119
 20
-444.0
 30
0.0
 40
48.0
  1
U72
 41
0.75
 72
     4
 11
540.00000000000125
 21
-420.0
 31
0.0
  0
TEXT
  5
130170
  8
SLIM
 10
491.14285714285842
 20
-908.0
 30
0.0
 40
48.0
  1
U74
 41
0.75
 72
     4
 11
540.00000000000125
 21
-884.0
 31
0.0
  0
LINE
  5
130B7B
  8
SLIM
 10
4350.0
 20
-887.99999999999591
 30
0.0
 11
4350.0
 21
-1079.9999999999959
 31
0.0
  0
LINE
  5
130B7C
  8
SLIM
 10
4454.0
 20
-1079.9999999999959
 30
0.0
 11
4454.0
 21
-887.99999999999591
 31
0.0
  0
LINE
  5
130B7D
  8
SLIM
 10
4602.0
 20
-887.99999999999591
 30
0.0
 11
4350.0
 21
-887.99999999999591
 31
0.0
  0
LINE
  5
130B7E
  8
SLIM
 10
4602.0
 20
-983.99999999999602
 30
0.0
 11
4350.0
 21
-983.99999999999602
 31
0.0
  0
LINE
  5
130B80
  8
SLIM
 10
4602.0
 20
-1031.9999999999959
 30
0.0
 11
4350.0
 21
-1031.9999999999959
 31
0.0
  0
LINE
  5
130B81
  8
SLIM
 10
4602.0
 20
-1079.9999999999959
 30
0.0
 11
4350.0
 21
-1079.9999999999959
 31
0.0
  0
LINE
  5
130B85
  8
SLIM
 10
4602.0
 20
-935.99999999999545
 30
0.0
 11
4350.0
 21
-935.99999999999545
 31
0.0
  0
LINE
  5
130B87
  8
SLIM
 10
4602.0
 20
-887.99999999999591
 30
0.0
 11
4602.0
 21
-1079.9999999999959
 31
0.0
  0
LINE
  5
130BC1
  8
DIM
 10
3904.9999999999941
 20
-754.99999999999875
 30
0.0
 11
3839.6616440113221
 21
-754.99999999999875
 31
0.0
  0
LINE
  5
130BC2
  8
DIM
 10
3910.0
 20
-964.99999999999875
 30
0.0
 11
3839.6616440113221
 21
-964.99999999999875
 31
0.0
  0
LINE
  5
130BC3
  8
DIM
 10
3849.6616440113221
 20
-774.99999999999875
 30
0.0
 11
3849.6616440113221
 21
-944.99999999999864
 31
0.0
  0
INSERT
  5
130BC4
  8
DIM
  2
_OPEN30
 10
3849.6616440113221
 20
-754.99999999999875
 30
0.0
 41
20.0
 42
20.0
 43
20.0
 50
90.0
  0
INSERT
  5
130BC5
  8
DIM
  2
_OPEN30
 10
3849.6616440113221
 20
-964.99999999999875
 30
0.0
 41
20.0
 42
20.0
 43
20.0
 50
270.0
  0
INSERT
  5
130BC6
  8
OBJECT
  2
*U4
 10
0.0
 20
0.0
 30
0.0
  0
TEXT
  5
130BC7
  8
SLIM
 10
3554.6000000000008
 20
-1415.666666666664
 30
0.0
 40
28.0
  1
※ 対応スラブ厚　180～（m-10）
 41
0.75
  0
TEXT
  5
130BC8
  8
SLIM
 10
3554.6000000000008
 20
-1462.3333333333301
 30
0.0
 40
28.0
  1
※ 足切り可能寸法（最大）　210-m（コンパクトＬベンド使用なら+20）
 41
0.75
  0
TEXT
  5
130BC9
  8
SLIM
 10
3598.9000000000001
 20
-1555.666666666664
 30
0.0
 40
28.0
  1
国土交通大臣認定・（一財）日本消防設備安全センター性能評定取得品
 41
0.75
  0
TEXT
  5
130BCA
  8
SLIM
 10
3631.1000000000022
 20
-1602.333333333331
 30
0.0
 40
28.0
  1
注）ご採用にあたり、認定書及び評定書の内容をご確認ください。
 41
0.75
  0
TEXT
  5
130BCB
  8
SLIM
 10
4506.5714285714294
 20
-971.99999999999591
 30
0.0
 40
24.0
  1
180
 41
0.75
  0
TEXT
  5
130BCC
  8
SLIM
 10
4470.057142857142
 20
-1067.9999999999959
 30
0.0
 40
24.0
  1
180～200
 41
0.75
  0
TEXT
  5
130BCD
  8
SLIM
 10
4471.7714285714283
 20
-1019.999999999996
 30
0.0
 40
24.0
  1
180～190
 41
0.75
  0
TEXT
  5
130BCE
  8
SLIM
 10
4465.6000000000013
 20
-923.99999999999613
 30
0.0
 40
24.0
  1
対応スラブ厚
 41
0.75
  0
TEXT
  5
130BCF
  8
SLIM
 10
4398.1714285714288
 20
-1125.9999999999959
 30
0.0
 40
24.0
  1
標準：m=210
 41
0.75
  0
TEXT
  5
130BD0
  8
SLIM
 10
4380.5714285714284
 20
-971.99999999999591
 30
0.0
 40
24.0
  1
190
 41
0.75
  0
TEXT
  5
130BD1
  8
SLIM
 10
4380.5714285714284
 20
-1067.9999999999959
 30
0.0
 40
24.0
  1
210
 41
0.75
  0
TEXT
  5
130BD2
  8
SLIM
 10
4369.9428571428571
 20
-923.99999999999613
 30
0.0
 40
24.0
  1
m寸法
 41
0.75
  0
TEXT
  5
130BD3
  8
SLIM
 10
4378.8571428571431
 20
-1019.999999999996
 30
0.0
 40
24.0
  1
200
 41
0.75
  0
TEXT
  5
130BD4
  8
SLIM
 10
1850.0
 20
532.5
 30
0.0
 40
75.0
  1
側面図の代表機種
 41
0.75
  0
CIRCLE
  5
130BD5
  8
OBJECT
 10
515.99999999668398
 20
-720.00000000014893
 30
0.0
 40
70.0
1001
ACDBBLOCKREPETAG
1070
     1
1071
       43
1005
130BD5
  0
CIRCLE
  5
130BD6
  8
OBJECT
 10
515.99999999668398
 20
-720.00000000014893
 30
0.0
 40
77.0
1001
ACDBBLOCKREPETAG
1070
     1
1071
       44
1005
130BD6
  0
ARC
  5
130BD7
  8
OBJECT
 10
515.99999999668398
 20
-720.00000000014893
 30
0.0
 40
80.0
 50
140.8050325737787
 51
219.1949674262213
1001
ACDBBLOCKREPETAG
1070
     1
1071
       45
1005
130BD7
  0
LINE
  5
130BD8
  8
OBJECT
 10
453.99999999668393
 20
-674.33819977282474
 30
0.0
 11
453.99999999668393
 21
-640.00000000014904
 31
0.0
1001
ACDBBLOCKREPETAG
1070
     1
1071
       46
1005
130BD8
  0
LINE
  5
130BD9
  8
OBJECT
 10
577.99999999668398
 20
-658.00000000014904
 30
0.0
 11
577.99999999668398
 21
-640.00000000014904
 31
0.0
1001
ACDBBLOCKREPETAG
1070
     1
1071
       22
1005
130BD9
  0
LINE
  5
130BDA
  8
OBJECT
 10
577.99999999668398
 20
-658.00000000014904
 30
0.0
 11
595.99999999668375
 21
-658.00000000014904
 31
0.0
1001
ACDBBLOCKREPETAG
1070
     1
1071
       24
1005
130BDA
  0
LINE
  5
130BDB
  8
OBJECT
 10
577.99999999668398
 20
-782.00000000014893
 30
0.0
 11
595.99999999668375
 21
-782.00000000014893
 31
0.0
1001
ACDBBLOCKREPETAG
1070
     1
1071
       25
1005
130BDB
  0
LINE
  5
130BDC
  8
OBJECT
 10
577.99999999668398
 20
-782.00000000014893
 30
0.0
 11
577.99999999668398
 21
-800.00000000014904
 31
0.0
1001
ACDBBLOCKREPETAG
1070
     1
1071
       27
1005
130BDC
  0
LINE
  5
130BDD
  8
OBJECT
 10
453.99999999668393
 20
-765.66180022747335
 30
0.0
 11
453.99999999668393
 21
-800.00000000014904
 31
0.0
1001
ACDBBLOCKREPETAG
1070
     1
1071
       28
1005
130BDD
  0
LINE
  5
130BDE
  8
OBJECT
 10
570.44722214804813
 20
-774.44722215151353
 30
0.0
 11
577.99999999668398
 21
-782.00000000014893
 31
0.0
1001
ACDBBLOCKREPETAG
1070
     1
1071
       37
1005
130BDE
  0
LINE
  5
130BDF
  8
OBJECT
 10
570.44722214804813
 20
-665.5527778487849
 30
0.0
 11
577.99999999668398
 21
-658.00000000014904
 31
0.0
1001
ACDBBLOCKREPETAG
1070
     1
1071
       38
1005
130BDF
  0
POINT
  5
130BE0
  8
DOTS
 10
515.99999999668398
 20
-720.00000000014893
 30
0.0
1001
ACDBBLOCKREPETAG
1070
     1
1071
       39
1005
130BE0
  0
CIRCLE
  5
130BE1
  8
OBJECT
 10
515.99999999668398
 20
-720.00000000014893
 30
0.0
 40
53.5
1001
ACDBBLOCKREPETAG
1070
     1
1071
      153
1005
130BE1
  0
CIRCLE
  5
130BE2
  8
OBJECT
 10
155.9999999970114
 20
-720.00000000014893
 30
0.0
 40
70.0
1001
ACDBBLOCKREPETAG
1070
     1
1071
       43
1005
130BE2
  0
CIRCLE
  5
130BE3
  8
OBJECT
 10
155.9999999970114
 20
-720.00000000014893
 30
0.0
 40
77.0
1001
ACDBBLOCKREPETAG
1070
     1
1071
       44
1005
130BE3
  0
ARC
  5
130BE4
  8
OBJECT
 10
155.9999999970114
 20
-720.00000000014893
 30
0.0
 40
80.0
 50
140.80503257377961
 51
219.1949674262203
1001
ACDBBLOCKREPETAG
1070
     1
1071
       45
1005
130BE4
  0
LINE
  5
130BE5
  8
OBJECT
 10
93.999999997011415
 20
-674.33819977282474
 30
0.0
 11
93.999999997011415
 21
-640.00000000014904
 31
0.0
1001
ACDBBLOCKREPETAG
1070
     1
1071
       46
1005
130BE5
  0
LINE
  5
130BE6
  8
OBJECT
 10
217.9999999970114
 20
-658.00000000014904
 30
0.0
 11
217.9999999970114
 21
-640.00000000014904
 31
0.0
1001
ACDBBLOCKREPETAG
1070
     1
1071
       22
1005
130BE6
  0
LINE
  5
130BE7
  8
OBJECT
 10
217.9999999970114
 20
-658.00000000014904
 30
0.0
 11
235.9999999970114
 21
-658.00000000014904
 31
0.0
1001
ACDBBLOCKREPETAG
1070
     1
1071
       24
1005
130BE7
  0
LINE
  5
130BE8
  8
OBJECT
 10
217.9999999970114
 20
-782.00000000014893
 30
0.0
 11
235.9999999970114
 21
-782.00000000014893
 31
0.0
1001
ACDBBLOCKREPETAG
1070
     1
1071
       25
1005
130BE8
  0
LINE
  5
130BE9
  8
OBJECT
 10
217.9999999970114
 20
-782.00000000014893
 30
0.0
 11
217.9999999970114
 21
-800.00000000014904
 31
0.0
1001
ACDBBLOCKREPETAG
1070
     1
1071
       27
1005
130BE9
  0
LINE
  5
130BEA
  8
OBJECT
 10
93.999999997011415
 20
-765.66180022747335
 30
0.0
 11
93.999999997011415
 21
-800.00000000014904
 31
0.0
1001
ACDBBLOCKREPETAG
1070
     1
1071
       28
1005
130BEA
  0
LINE
  5
130BEB
  8
OBJECT
 10
210.44722214837569
 20
-774.44722215151353
 30
0.0
 11
217.9999999970114
 21
-782.00000000014893
 31
0.0
1001
ACDBBLOCKREPETAG
1070
     1
1071
       37
1005
130BEB
  0
LINE
  5
130BEC
  8
OBJECT
 10
210.44722214837569
 20
-665.5527778487849
 30
0.0
 11
217.9999999970114
 21
-658.00000000014904
 31
0.0
1001
ACDBBLOCKREPETAG
1070
     1
1071
       38
1005
130BEC
  0
POINT
  5
130BED
  8
DOTS
 10
155.9999999970114
 20
-720.00000000014893
 30
0.0
1001
ACDBBLOCKREPETAG
1070
     1
1071
       39
1005
130BED
  0
CIRCLE
  5
130BEE
  8
OBJECT
 10
155.9999999970114
 20
-720.00000000014893
 30
0.0
 40
53.5
1001
ACDBBLOCKREPETAG
1070
     1
1071
      153
1005
130BEE
  0
CIRCLE
  5
130BEF
  8
OBJECT
 10
515.99999999668398
 20
-256.00000000004371
 30
0.0
 40
70.0
1001
ACDBBLOCKREPETAG
1070
     1
1071
       43
1005
130BEF
  0
CIRCLE
  5
130BF0
  8
OBJECT
 10
515.99999999668398
 20
-256.00000000004371
 30
0.0
 40
77.0
1001
ACDBBLOCKREPETAG
1070
     1
1071
       44
1005
130BF0
  0
ARC
  5
130BF1
  8
OBJECT
 10
515.99999999668398
 20
-256.00000000004371
 30
0.0
 40
80.0
 50
140.80503257378001
 51
219.1949674262213
1001
ACDBBLOCKREPETAG
1070
     1
1071
       45
1005
130BF1
  0
LINE
  5
130BF2
  8
OBJECT
 10
453.99999999668393
 20
-210.33819977271929
 30
0.0
 11
453.99999999668393
 21
-176.0000000000436
 31
0.0
1001
ACDBBLOCKREPETAG
1070
     1
1071
       46
1005
130BF2
  0
LINE
  5
130BF3
  8
OBJECT
 10
577.99999999668398
 20
-194.0000000000436
 30
0.0
 11
577.99999999668398
 21
-176.0000000000436
 31
0.0
1001
ACDBBLOCKREPETAG
1070
     1
1071
       22
1005
130BF3
  0
LINE
  5
130BF4
  8
OBJECT
 10
577.99999999668398
 20
-194.0000000000436
 30
0.0
 11
595.99999999668375
 21
-194.0000000000436
 31
0.0
1001
ACDBBLOCKREPETAG
1070
     1
1071
       24
1005
130BF4
  0
LINE
  5
130BF5
  8
OBJECT
 10
577.99999999668398
 20
-318.00000000004371
 30
0.0
 11
595.99999999668375
 21
-318.00000000004371
 31
0.0
1001
ACDBBLOCKREPETAG
1070
     1
1071
       25
1005
130BF5
  0
LINE
  5
130BF6
  8
OBJECT
 10
577.99999999668398
 20
-318.00000000004371
 30
0.0
 11
577.99999999668398
 21
-336.0000000000436
 31
0.0
1001
ACDBBLOCKREPETAG
1070
     1
1071
       27
1005
130BF6
  0
LINE
  5
130BF7
  8
OBJECT
 10
453.99999999668393
 20
-301.66180022736808
 30
0.0
 11
453.99999999668393
 21
-336.0000000000436
 31
0.0
1001
ACDBBLOCKREPETAG
1070
     1
1071
       28
1005
130BF7
  0
LINE
  5
130BF8
  8
OBJECT
 10
570.44722214804813
 20
-310.44722215140791
 30
0.0
 11
577.99999999668398
 21
-318.00000000004371
 31
0.0
1001
ACDBBLOCKREPETAG
1070
     1
1071
       37
1005
130BF8
  0
LINE
  5
130BF9
  8
OBJECT
 10
570.44722214804813
 20
-201.5527778486794
 30
0.0
 11
577.99999999668398
 21
-194.0000000000436
 31
0.0
1001
ACDBBLOCKREPETAG
1070
     1
1071
       38
1005
130BF9
  0
POINT
  5
130BFA
  8
DOTS
 10
515.99999999668398
 20
-256.00000000004371
 30
0.0
1001
ACDBBLOCKREPETAG
1070
     1
1071
       39
1005
130BFA
  0
CIRCLE
  5
130BFB
  8
OBJECT
 10
515.99999999668398
 20
-256.00000000004371
 30
0.0
 40
53.5
1001
ACDBBLOCKREPETAG
1070
     1
1071
      153
1005
130BFB
  0
CIRCLE
  5
130BFC
  8
OBJECT
 10
155.9999999970114
 20
-256.00000000004371
 30
0.0
 40
70.0
1001
ACDBBLOCKREPETAG
1070
     1
1071
       43
1005
130BFC
  0
CIRCLE
  5
130BFD
  8
OBJECT
 10
155.9999999970114
 20
-256.00000000004371
 30
0.0
 40
77.0
1001
ACDBBLOCKREPETAG
1070
     1
1071
       44
1005
130BFD
  0
ARC
  5
130BFE
  8
OBJECT
 10
155.9999999970114
 20
-256.00000000004371
 30
0.0
 40
80.0
 50
140.80503257378101
 51
219.1949674262203
1001
ACDBBLOCKREPETAG
1070
     1
1071
       45
1005
130BFE
  0
LINE
  5
130BFF
  8
OBJECT
 10
93.999999997011415
 20
-210.33819977271929
 30
0.0
 11
93.999999997011415
 21
-176.0000000000436
 31
0.0
1001
ACDBBLOCKREPETAG
1070
     1
1071
       46
1005
130BFF
  0
LINE
  5
130C00
  8
OBJECT
 10
217.9999999970114
 20
-194.0000000000436
 30
0.0
 11
217.9999999970114
 21
-176.0000000000436
 31
0.0
1001
ACDBBLOCKREPETAG
1070
     1
1071
       22
1005
130C00
  0
LINE
  5
130C01
  8
OBJECT
 10
217.9999999970114
 20
-194.0000000000436
 30
0.0
 11
235.9999999970114
 21
-194.0000000000436
 31
0.0
1001
ACDBBLOCKREPETAG
1070
     1
1071
       24
1005
130C01
  0
LINE
  5
130C02
  8
OBJECT
 10
217.9999999970114
 20
-318.00000000004371
 30
0.0
 11
235.9999999970114
 21
-318.00000000004371
 31
0.0
1001
ACDBBLOCKREPETAG
1070
     1
1071
       25
1005
130C02
  0
LINE
  5
130C03
  8
OBJECT
 10
217.9999999970114
 20
-318.00000000004371
 30
0.0
 11
217.9999999970114
 21
-336.0000000000436
 31
0.0
1001
ACDBBLOCKREPETAG
1070
     1
1071
       27
1005
130C03
  0
LINE
  5
130C04
  8
OBJECT
 10
93.999999997011415
 20
-301.66180022736808
 30
0.0
 11
93.999999997011415
 21
-336.0000000000436
 31
0.0
1001
ACDBBLOCKREPETAG
1070
     1
1071
       28
1005
130C04
  0
LINE
  5
130C05
  8
OBJECT
 10
210.44722214837569
 20
-310.44722215140791
 30
0.0
 11
217.9999999970114
 21
-318.00000000004371
 31
0.0
1001
ACDBBLOCKREPETAG
1070
     1
1071
       37
1005
130C05
  0
LINE
  5
130C06
  8
OBJECT
 10
210.44722214837569
 20
-201.5527778486794
 30
0.0
 11
217.9999999970114
 21
-194.0000000000436
 31
0.0
1001
ACDBBLOCKREPETAG
1070
     1
1071
       38
1005
130C06
  0
POINT
  5
130C07
  8
DOTS
 10
155.9999999970114
 20
-256.00000000004371
 30
0.0
1001
ACDBBLOCKREPETAG
1070
     1
1071
       39
1005
130C07
  0
CIRCLE
  5
130C08
  8
OBJECT
 10
155.9999999970114
 20
-256.00000000004371
 30
0.0
 40
53.5
1001
ACDBBLOCKREPETAG
1070
     1
1071
      153
1005
130C08
  0
LINE
  5
130C09
  8
OBJECT
 10
217.9999999971879
 20
-640.00000000000728
 30
0.0
 11
217.9999999971879
 21
-637.00000000000716
 31
0.0
1001
ACDBBLOCKREPETAG
1070
     1
1071
      141
1005
130C09
  0
ARC
  5
130C0A
  8
OBJECT
 10
214.99999999718781
 20
-637.00000000000716
 30
0.0
 40
3.0
 50
0.0
 51
90.0
1001
ACDBBLOCKREPETAG
1070
     1
1071
      142
1005
130C0A
  0
LINE
  5
130C0B
  8
OBJECT
 10
93.999999997191452
 20
-640.00000000000728
 30
0.0
 11
93.999999997191452
 21
-637.00000000000716
 31
0.0
1001
ACDBBLOCKREPETAG
1070
     1
1071
      143
1005
130C0B
  0
LINE
  5
130C0C
  8
OBJECT
 10
96.999999997187842
 20
-634.00000000000716
 30
0.0
 11
96.999999997184204
 21
-611.34527240647412
 31
0.0
1001
ACDBBLOCKREPETAG
1070
     1
1071
      144
1005
130C0C
  0
LINE
  5
130C0D
  8
OBJECT
 10
214.99999999719151
 20
-634.00000000000716
 30
0.0
 11
214.99999999718781
 21
-611.34527240647446
 31
0.0
1001
ACDBBLOCKREPETAG
1070
     1
1071
      145
1005
130C0D
  0
LINE
  5
130C0E
  8
OBJECT
 10
96.99999999719148
 20
-634.00000000000716
 30
0.0
 11
214.99999999718781
 21
-634.00000000000716
 31
0.0
1001
ACDBBLOCKREPETAG
1070
     1
1071
      146
1005
130C0E
  0
ARC
  5
130C0F
  8
OBJECT
 10
96.99999999719148
 20
-637.00000000000716
 30
0.0
 40
3.0
 50
90.0
 51
180.0
1001
ACDBBLOCKREPETAG
1070
     1
1071
      147
1005
130C0F
  0
ARC
  5
130C10
  8
OBJECT
 10
155.99999999718781
 20
-570.00000000000728
 30
0.0
 40
61.0
 50
127.1672854612744
 51
172.83271453873201
1001
ACDBBLOCKREPETAG
1070
     1
1071
      149
1005
130C10
  0
ARC
  5
130C11
  8
OBJECT
 10
155.99999999718781
 20
-570.00000000000728
 30
0.0
 40
61.0
 50
247.16728546121581
 51
292.83271453878172
1001
ACDBBLOCKREPETAG
1070
     1
1071
      150
1005
130C11
  0
ARC
  5
130C12
  8
OBJECT
 10
155.99999999718781
 20
-570.00000000000728
 30
0.0
 40
61.0
 50
7.1672854612680084
 51
52.832714538725519
1001
ACDBBLOCKREPETAG
1070
     1
1071
      151
1005
130C12
  0
CIRCLE
  5
130C13
  8
SLIM
 10
155.99999999718781
 20
-506.00000000000711
 30
0.0
 40
4.0
1001
ACDBBLOCKREPETAG
1070
     1
1071
      152
1005
130C13
  0
ARC
  5
130C14
  8
OBJECT
 10
155.99999999718781
 20
-506.00000000000711
 30
0.0
 40
10.0
 50
52.832714538725519
 51
127.1672854612744
1001
ACDBBLOCKREPETAG
1070
     1
1071
      153
1005
130C14
  0
LINE
  5
130C15
  8
OBJECT
 10
119.1472027884338
 20
-521.39062500000955
 30
0.0
 11
149.9585578318183
 21
-498.03125000000722
 31
0.0
1001
ACDBBLOCKREPETAG
1070
     1
1071
      154
1005
130C15
  0
LINE
  5
130C16
  8
OBJECT
 10
192.8527972059419
 20
-521.39062500000955
 30
0.0
 11
162.0414421625573
 21
-498.03125000000722
 31
0.0
1001
ACDBBLOCKREPETAG
1070
     1
1071
      155
1005
130C16
  0
CIRCLE
  5
130C17
  8
SLIM
 10
100.57437415498499
 20
-602.00000000000728
 30
0.0
 40
3.9999999999999991
1001
ACDBBLOCKREPETAG
1070
     1
1071
      156
1005
130C17
  0
ARC
  5
130C18
  8
OBJECT
 10
100.57437415498499
 20
-602.00000000000728
 30
0.0
 40
9.9999999999999982
 50
172.8327145387714
 51
247.16728546121581
1001
ACDBBLOCKREPETAG
1070
     1
1071
      157
1005
130C18
  0
LINE
  5
130C19
  8
OBJECT
 10
132.329444989482
 20
-626.22014608330301
 30
0.0
 11
96.693955301259848
 21
-611.21641739071163
 31
0.0
1001
ACDBBLOCKREPETAG
1070
     1
1071
      158
1005
130C19
  0
LINE
  5
130C1A
  8
OBJECT
 10
95.476647780727944
 20
-562.38922891670882
 30
0.0
 11
90.652513135890317
 21
-600.7523326093027
 31
0.0
1001
ACDBBLOCKREPETAG
1070
     1
1071
      159
1005
130C1A
  0
CIRCLE
  5
130C1B
  8
SLIM
 10
211.4256258393907
 20
-602.00000000000728
 30
0.0
 40
4.0
1001
ACDBBLOCKREPETAG
1070
     1
1071
      160
1005
130C1B
  0
ARC
  5
130C1C
  8
OBJECT
 10
211.4256258393907
 20
-602.00000000000728
 30
0.0
 40
10.0
 50
292.83271453878172
 51
7.1672854612286221
1001
ACDBBLOCKREPETAG
1070
     1
1071
      161
1005
130C1C
  0
LINE
  5
130C1D
  8
OBJECT
 10
216.52335221364771
 20
-562.38922891670882
 30
0.0
 11
221.3474868584853
 21
-600.7523326093027
 31
0.0
1001
ACDBBLOCKREPETAG
1070
     1
1071
      162
1005
130C1D
  0
LINE
  5
130C1E
  8
OBJECT
 10
179.67055500489371
 20
-626.22014608330301
 30
0.0
 11
215.30604469311581
 21
-611.21641739071163
 31
0.0
1001
ACDBBLOCKREPETAG
1070
     1
1071
      163
1005
130C1E
  0
CIRCLE
  5
130C1F
  8
OBJECT
 10
155.99999999718781
 20
-570.00000000000728
 30
0.0
 40
46.0
1001
ACDBBLOCKREPETAG
1070
     1
1071
      164
1005
130C1F
  0
POLYLINE
  5
130C20
  8
SLIM
 66
     1
 10
0.0
 20
0.0
 30
0.0
 70
     1
1001
ACDBBLOCKREPETAG
1070
     1
1071
      165
1005
130C20
  0
VERTEX
  5
1311A8
  8
SLIM
 10
149.49999999718781
 20
-509.75277674974132
 30
0.0
  0
VERTEX
  5
1311A9
  8
SLIM
 10
155.99999999718781
 20
-513.50555349947172
 30
0.0
  0
VERTEX
  5
1311AA
  8
SLIM
 10
162.49999999718781
 20
-509.75277674974132
 30
0.0
  0
VERTEX
  5
1311AB
  8
SLIM
 10
162.49999999718781
 20
-502.24722325027318
 30
0.0
  0
VERTEX
  5
1311AC
  8
SLIM
 10
155.99999999718781
 20
-498.49444650054278
 30
0.0
  0
VERTEX
  5
1311AD
  8
SLIM
 10
149.49999999718781
 20
-502.24722325027318
 30
0.0
  0
SEQEND
  5
1311AE
  8
SLIM
  0
POLYLINE
  5
130C21
  8
SLIM
 66
     1
 10
0.0
 20
0.0
 30
0.0
 70
     1
1001
ACDBBLOCKREPETAG
1070
     1
1071
      166
1005
130C21
  0
VERTEX
  5
1311AF
  8
SLIM
 10
107.07437415498489
 20
-605.75277674973904
 30
0.0
  0
VERTEX
  5
1311B0
  8
SLIM
 10
107.07437415498489
 20
-598.24722325027506
 30
0.0
  0
VERTEX
  5
1311B1
  8
SLIM
 10
100.57437415498499
 20
-594.49444650054147
 30
0.0
  0
VERTEX
  5
1311B2
  8
SLIM
 10
94.074374154981371
 20
-598.24722325027551
 30
0.0
  0
VERTEX
  5
1311B3
  8
SLIM
 10
94.074374154984952
 20
-605.75277674973927
 30
0.0
  0
VERTEX
  5
1311B4
  8
SLIM
 10
100.5743741549813
 20
-609.50555349947297
 30
0.0
  0
SEQEND
  5
1311B5
  8
SLIM
  0
POLYLINE
  5
130C22
  8
SLIM
 66
     1
 10
0.0
 20
0.0
 30
0.0
 70
     1
1001
ACDBBLOCKREPETAG
1070
     1
1071
      167
1005
130C22
  0
VERTEX
  5
1311B6
  8
SLIM
 10
211.4256258393907
 20
-594.49444650054147
 30
0.0
  0
VERTEX
  5
1311B7
  8
SLIM
 10
204.9256258393907
 20
-598.24722325027506
 30
0.0
  0
VERTEX
  5
1311B8
  8
SLIM
 10
204.9256258393907
 20
-605.75277674973904
 30
0.0
  0
VERTEX
  5
1311B9
  8
SLIM
 10
211.42562583939431
 20
-609.50555349947297
 30
0.0
  0
VERTEX
  5
1311BA
  8
SLIM
 10
217.9256258393907
 20
-605.75277674973927
 30
0.0
  0
VERTEX
  5
1311BB
  8
SLIM
 10
217.9256258393944
 20
-598.24722325027551
 30
0.0
  0
SEQEND
  5
1311BC
  8
SLIM
  0
INSERT
  5
130C23
  8
OBJECT
  2
*U5
 10
0.0
 20
0.0
 30
0.0
  0
LINE
  5
130C24
  8
OBJECT
 10
577.99999999726947
 20
-640.00000000000728
 30
0.0
 11
577.99999999726947
 21
-637.00000000000716
 31
0.0
1001
ACDBBLOCKREPETAG
1070
     1
1071
      141
1005
130C24
  0
ARC
  5
130C25
  8
OBJECT
 10
574.9999999972697
 20
-637.00000000000716
 30
0.0
 40
3.0
 50
0.0
 51
90.0
1001
ACDBBLOCKREPETAG
1070
     1
1071
      142
1005
130C25
  0
LINE
  5
130C26
  8
OBJECT
 10
453.99999999727322
 20
-640.00000000000728
 30
0.0
 11
453.99999999727322
 21
-637.00000000000716
 31
0.0
1001
ACDBBLOCKREPETAG
1070
     1
1071
      143
1005
130C26
  0
LINE
  5
130C27
  8
OBJECT
 10
456.99999999726953
 20
-634.00000000000716
 30
0.0
 11
456.999999997266
 21
-611.34527240647412
 31
0.0
1001
ACDBBLOCKREPETAG
1070
     1
1071
      144
1005
130C27
  0
LINE
  5
130C28
  8
OBJECT
 10
574.99999999727322
 20
-634.00000000000716
 30
0.0
 11
574.9999999972697
 21
-611.34527240647446
 31
0.0
1001
ACDBBLOCKREPETAG
1070
     1
1071
      145
1005
130C28
  0
LINE
  5
130C29
  8
OBJECT
 10
456.99999999727328
 20
-634.00000000000716
 30
0.0
 11
574.9999999972697
 21
-634.00000000000716
 31
0.0
1001
ACDBBLOCKREPETAG
1070
     1
1071
      146
1005
130C29
  0
ARC
  5
130C2A
  8
OBJECT
 10
456.99999999727328
 20
-637.00000000000716
 30
0.0
 40
3.0
 50
90.0
 51
180.0
1001
ACDBBLOCKREPETAG
1070
     1
1071
      147
1005
130C2A
  0
ARC
  5
130C2B
  8
OBJECT
 10
515.99999999726947
 20
-570.00000000000728
 30
0.0
 40
61.0
 50
127.1672854612758
 51
172.83271453873181
1001
ACDBBLOCKREPETAG
1070
     1
1071
      149
1005
130C2B
  0
ARC
  5
130C2C
  8
OBJECT
 10
515.99999999726947
 20
-570.00000000000728
 30
0.0
 40
61.0
 50
247.1672854612128
 51
292.83271453878461
1001
ACDBBLOCKREPETAG
1070
     1
1071
      150
1005
130C2C
  0
ARC
  5
130C2D
  8
OBJECT
 10
515.99999999726947
 20
-570.00000000000728
 30
0.0
 40
61.0
 50
7.1672854612682118
 51
52.832714538724233
1001
ACDBBLOCKREPETAG
1070
     1
1071
      151
1005
130C2D
  0
CIRCLE
  5
130C2E
  8
SLIM
 10
515.99999999726947
 20
-506.00000000000711
 30
0.0
 40
4.0
1001
ACDBBLOCKREPETAG
1070
     1
1071
      152
1005
130C2E
  0
ARC
  5
130C2F
  8
OBJECT
 10
515.99999999726947
 20
-506.00000000000711
 30
0.0
 40
10.0
 50
52.832714538724233
 51
127.1672854612758
1001
ACDBBLOCKREPETAG
1070
     1
1071
      153
1005
130C2F
  0
LINE
  5
130C30
  8
OBJECT
 10
479.14720278851559
 20
-521.39062500000955
 30
0.0
 11
509.95855783190001
 21
-498.03125000000722
 31
0.0
1001
ACDBBLOCKREPETAG
1070
     1
1071
      154
1005
130C30
  0
LINE
  5
130C31
  8
OBJECT
 10
552.85279720602375
 20
-521.39062500000955
 30
0.0
 11
522.04144216263921
 21
-498.03125000000722
 31
0.0
1001
ACDBBLOCKREPETAG
1070
     1
1071
      155
1005
130C31
  0
CIRCLE
  5
130C32
  8
SLIM
 10
460.57437415506678
 20
-602.00000000000728
 30
0.0
 40
3.9999999999999991
1001
ACDBBLOCKREPETAG
1070
     1
1071
      156
1005
130C32
  0
ARC
  5
130C33
  8
OBJECT
 10
460.57437415506678
 20
-602.00000000000728
 30
0.0
 40
9.9999999999999982
 50
172.8327145387714
 51
247.1672854612128
1001
ACDBBLOCKREPETAG
1070
     1
1071
      157
1005
130C33
  0
LINE
  5
130C34
  8
OBJECT
 10
492.3294449895638
 20
-626.22014608330301
 30
0.0
 11
456.69395530134159
 21
-611.21641739071163
 31
0.0
1001
ACDBBLOCKREPETAG
1070
     1
1071
      158
1005
130C34
  0
LINE
  5
130C35
  8
OBJECT
 10
455.47664778080963
 20
-562.38922891670882
 30
0.0
 11
450.65251313597219
 21
-600.7523326093027
 31
0.0
1001
ACDBBLOCKREPETAG
1070
     1
1071
      159
1005
130C35
  0
CIRCLE
  5
130C36
  8
SLIM
 10
571.42562583947245
 20
-602.00000000000728
 30
0.0
 40
4.0
1001
ACDBBLOCKREPETAG
1070
     1
1071
      160
1005
130C36
  0
ARC
  5
130C37
  8
OBJECT
 10
571.42562583947245
 20
-602.00000000000728
 30
0.0
 40
10.0
 50
292.83271453878461
 51
7.1672854612286221
1001
ACDBBLOCKREPETAG
1070
     1
1071
      161
1005
130C37
  0
LINE
  5
130C38
  8
OBJECT
 10
576.52335221372959
 20
-562.38922891670882
 30
0.0
 11
581.34748685856721
 21
-600.7523326093027
 31
0.0
1001
ACDBBLOCKREPETAG
1070
     1
1071
      162
1005
130C38
  0
LINE
  5
130C39
  8
OBJECT
 10
539.67055500497554
 20
-626.22014608330301
 30
0.0
 11
575.30604469319746
 21
-611.21641739071163
 31
0.0
1001
ACDBBLOCKREPETAG
1070
     1
1071
      163
1005
130C39
  0
CIRCLE
  5
130C3A
  8
OBJECT
 10
515.99999999726947
 20
-570.00000000000728
 30
0.0
 40
46.0
1001
ACDBBLOCKREPETAG
1070
     1
1071
      164
1005
130C3A
  0
POLYLINE
  5
130C3B
  8
SLIM
 66
     1
 10
0.0
 20
0.0
 30
0.0
 70
     1
1001
ACDBBLOCKREPETAG
1070
     1
1071
      165
1005
130C3B
  0
VERTEX
  5
1311BD
  8
SLIM
 10
509.4999999972697
 20
-509.75277674974132
 30
0.0
  0
VERTEX
  5
1311BE
  8
SLIM
 10
515.99999999726947
 20
-513.50555349947172
 30
0.0
  0
VERTEX
  5
1311BF
  8
SLIM
 10
522.4999999972697
 20
-509.75277674974132
 30
0.0
  0
VERTEX
  5
1311C0
  8
SLIM
 10
522.4999999972697
 20
-502.24722325027318
 30
0.0
  0
VERTEX
  5
1311C1
  8
SLIM
 10
515.99999999726947
 20
-498.49444650054278
 30
0.0
  0
VERTEX
  5
1311C2
  8
SLIM
 10
509.4999999972697
 20
-502.24722325027318
 30
0.0
  0
SEQEND
  5
1311C3
  8
SLIM
  0
POLYLINE
  5
130C3C
  8
SLIM
 66
     1
 10
0.0
 20
0.0
 30
0.0
 70
     1
1001
ACDBBLOCKREPETAG
1070
     1
1071
      166
1005
130C3C
  0
VERTEX
  5
1311C4
  8
SLIM
 10
467.07437415506678
 20
-605.75277674973904
 30
0.0
  0
VERTEX
  5
1311C5
  8
SLIM
 10
467.07437415506678
 20
-598.24722325027506
 30
0.0
  0
VERTEX
  5
1311C6
  8
SLIM
 10
460.57437415506678
 20
-594.49444650054147
 30
0.0
  0
VERTEX
  5
1311C7
  8
SLIM
 10
454.0743741550632
 20
-598.24722325027551
 30
0.0
  0
VERTEX
  5
1311C8
  8
SLIM
 10
454.07437415506678
 20
-605.75277674973927
 30
0.0
  0
VERTEX
  5
1311C9
  8
SLIM
 10
460.57437415506308
 20
-609.50555349947297
 30
0.0
  0
SEQEND
  5
1311CA
  8
SLIM
  0
POLYLINE
  5
130C3D
  8
SLIM
 66
     1
 10
0.0
 20
0.0
 30
0.0
 70
     1
1001
ACDBBLOCKREPETAG
1070
     1
1071
      167
1005
130C3D
  0
VERTEX
  5
1311CB
  8
SLIM
 10
571.42562583947245
 20
-594.49444650054147
 30
0.0
  0
VERTEX
  5
1311CC
  8
SLIM
 10
564.92562583947245
 20
-598.24722325027506
 30
0.0
  0
VERTEX
  5
1311CD
  8
SLIM
 10
564.92562583947245
 20
-605.75277674973904
 30
0.0
  0
VERTEX
  5
1311CE
  8
SLIM
 10
571.4256258394762
 20
-609.50555349947297
 30
0.0
  0
VERTEX
  5
1311CF
  8
SLIM
 10
577.92562583947245
 20
-605.75277674973927
 30
0.0
  0
VERTEX
  5
1311D0
  8
SLIM
 10
577.92562583947597
 20
-598.24722325027551
 30
0.0
  0
SEQEND
  5
1311D1
  8
SLIM
  0
INSERT
  5
130C3E
  8
OBJECT
  2
*U6
 10
0.0
 20
0.0
 30
0.0
  0
LINE
  5
130C3F
  8
OBJECT
 10
577.99999999726947
 20
-176.00000000000361
 30
0.0
 11
577.99999999726947
 21
-173.00000000000361
 31
0.0
1001
ACDBBLOCKREPETAG
1070
     1
1071
      141
1005
130C3F
  0
ARC
  5
130C40
  8
OBJECT
 10
574.9999999972697
 20
-173.00000000000361
 30
0.0
 40
3.0
 50
0.0
 51
90.0
1001
ACDBBLOCKREPETAG
1070
     1
1071
      142
1005
130C40
  0
LINE
  5
130C41
  8
OBJECT
 10
453.99999999727322
 20
-176.00000000000361
 30
0.0
 11
453.99999999727322
 21
-173.00000000000361
 31
0.0
1001
ACDBBLOCKREPETAG
1070
     1
1071
      143
1005
130C41
  0
LINE
  5
130C42
  8
OBJECT
 10
456.99999999726953
 20
-170.00000000000361
 30
0.0
 11
456.999999997266
 21
-147.34527240647051
 31
0.0
1001
ACDBBLOCKREPETAG
1070
     1
1071
      144
1005
130C42
  0
LINE
  5
130C43
  8
OBJECT
 10
574.99999999727322
 20
-170.00000000000361
 30
0.0
 11
574.9999999972697
 21
-147.34527240647091
 31
0.0
1001
ACDBBLOCKREPETAG
1070
     1
1071
      145
1005
130C43
  0
LINE
  5
130C44
  8
OBJECT
 10
456.99999999727328
 20
-170.00000000000361
 30
0.0
 11
574.9999999972697
 21
-170.00000000000361
 31
0.0
1001
ACDBBLOCKREPETAG
1070
     1
1071
      146
1005
130C44
  0
ARC
  5
130C45
  8
OBJECT
 10
456.99999999727328
 20
-173.00000000000361
 30
0.0
 40
3.0
 50
90.0
 51
180.0
1001
ACDBBLOCKREPETAG
1070
     1
1071
      147
1005
130C45
  0
ARC
  5
130C46
  8
OBJECT
 10
515.99999999726947
 20
-106.0000000000036
 30
0.0
 40
61.0
 50
127.1672854612758
 51
172.83271453873181
1001
ACDBBLOCKREPETAG
1070
     1
1071
      149
1005
130C46
  0
ARC
  5
130C47
  8
OBJECT
 10
515.99999999726947
 20
-106.0000000000036
 30
0.0
 40
61.0
 50
247.16728546121399
 51
292.83271453878598
1001
ACDBBLOCKREPETAG
1070
     1
1071
      150
1005
130C47
  0
ARC
  5
130C48
  8
OBJECT
 10
515.99999999726947
 20
-106.0000000000036
 30
0.0
 40
61.0
 50
7.1672854612682118
 51
52.832714538724233
1001
ACDBBLOCKREPETAG
1070
     1
1071
      151
1005
130C48
  0
CIRCLE
  5
130C49
  8
SLIM
 10
515.99999999726947
 20
-42.000000000003638
 30
0.0
 40
4.0
1001
ACDBBLOCKREPETAG
1070
     1
1071
      152
1005
130C49
  0
ARC
  5
130C4A
  8
OBJECT
 10
515.99999999726947
 20
-42.000000000003638
 30
0.0
 40
10.0
 50
52.832714538724233
 51
127.1672854612758
1001
ACDBBLOCKREPETAG
1070
     1
1071
      153
1005
130C4A
  0
LINE
  5
130C4B
  8
OBJECT
 10
479.14720278851559
 20
-57.390625000005898
 30
0.0
 11
509.95855783190001
 21
-34.031250000003638
 31
0.0
1001
ACDBBLOCKREPETAG
1070
     1
1071
      154
1005
130C4B
  0
LINE
  5
130C4C
  8
OBJECT
 10
552.85279720602375
 20
-57.390625000005898
 30
0.0
 11
522.04144216263921
 21
-34.031250000003638
 31
0.0
1001
ACDBBLOCKREPETAG
1070
     1
1071
      155
1005
130C4C
  0
CIRCLE
  5
130C4D
  8
SLIM
 10
460.57437415506678
 20
-138.00000000000361
 30
0.0
 40
3.9999999999999991
1001
ACDBBLOCKREPETAG
1070
     1
1071
      156
1005
130C4D
  0
ARC
  5
130C4E
  8
OBJECT
 10
460.57437415506678
 20
-138.00000000000361
 30
0.0
 40
9.9999999999999982
 50
172.8327145387714
 51
247.16728546121399
1001
ACDBBLOCKREPETAG
1070
     1
1071
      157
1005
130C4E
  0
LINE
  5
130C4F
  8
OBJECT
 10
492.3294449895638
 20
-162.22014608329931
 30
0.0
 11
456.69395530134159
 21
-147.2164173907081
 31
0.0
1001
ACDBBLOCKREPETAG
1070
     1
1071
      158
1005
130C4F
  0
LINE
  5
130C50
  8
OBJECT
 10
455.47664778080963
 20
-98.38922891670515
 30
0.0
 11
450.65251313597219
 21
-136.75233260929909
 31
0.0
1001
ACDBBLOCKREPETAG
1070
     1
1071
      159
1005
130C50
  0
CIRCLE
  5
130C51
  8
SLIM
 10
571.42562583947245
 20
-138.00000000000361
 30
0.0
 40
4.0
1001
ACDBBLOCKREPETAG
1070
     1
1071
      160
1005
130C51
  0
ARC
  5
130C52
  8
OBJECT
 10
571.42562583947245
 20
-138.00000000000361
 30
0.0
 40
10.0
 50
292.83271453878598
 51
7.1672854612286221
1001
ACDBBLOCKREPETAG
1070
     1
1071
      161
1005
130C52
  0
LINE
  5
130C53
  8
OBJECT
 10
576.52335221372959
 20
-98.38922891670515
 30
0.0
 11
581.34748685856721
 21
-136.75233260929909
 31
0.0
1001
ACDBBLOCKREPETAG
1070
     1
1071
      162
1005
130C53
  0
LINE
  5
130C54
  8
OBJECT
 10
539.67055500497554
 20
-162.22014608329931
 30
0.0
 11
575.30604469319746
 21
-147.2164173907081
 31
0.0
1001
ACDBBLOCKREPETAG
1070
     1
1071
      163
1005
130C54
  0
CIRCLE
  5
130C55
  8
OBJECT
 10
515.99999999726947
 20
-106.0000000000036
 30
0.0
 40
46.0
1001
ACDBBLOCKREPETAG
1070
     1
1071
      164
1005
130C55
  0
POLYLINE
  5
130C56
  8
SLIM
 66
     1
 10
0.0
 20
0.0
 30
0.0
 70
     1
1001
ACDBBLOCKREPETAG
1070
     1
1071
      165
1005
130C56
  0
VERTEX
  5
1311D2
  8
SLIM
 10
509.4999999972697
 20
-45.752776749737677
 30
0.0
  0
VERTEX
  5
1311D3
  8
SLIM
 10
515.99999999726947
 20
-49.505553499468078
 30
0.0
  0
VERTEX
  5
1311D4
  8
SLIM
 10
522.4999999972697
 20
-45.752776749737677
 30
0.0
  0
VERTEX
  5
1311D5
  8
SLIM
 10
522.4999999972697
 20
-38.247223250269613
 30
0.0
  0
VERTEX
  5
1311D6
  8
SLIM
 10
515.99999999726947
 20
-34.494446500539198
 30
0.0
  0
VERTEX
  5
1311D7
  8
SLIM
 10
509.4999999972697
 20
-38.247223250269613
 30
0.0
  0
SEQEND
  5
1311D8
  8
SLIM
  0
POLYLINE
  5
130C57
  8
SLIM
 66
     1
 10
0.0
 20
0.0
 30
0.0
 70
     1
1001
ACDBBLOCKREPETAG
1070
     1
1071
      166
1005
130C57
  0
VERTEX
  5
1311D9
  8
SLIM
 10
467.07437415506678
 20
-141.7527767497354
 30
0.0
  0
VERTEX
  5
1311DA
  8
SLIM
 10
467.07437415506678
 20
-134.24722325027139
 30
0.0
  0
VERTEX
  5
1311DB
  8
SLIM
 10
460.57437415506678
 20
-130.4944465005378
 30
0.0
  0
VERTEX
  5
1311DC
  8
SLIM
 10
454.0743741550632
 20
-134.24722325027179
 30
0.0
  0
VERTEX
  5
1311DD
  8
SLIM
 10
454.07437415506678
 20
-141.7527767497358
 30
0.0
  0
VERTEX
  5
1311DE
  8
SLIM
 10
460.57437415506308
 20
-145.50555349946941
 30
0.0
  0
SEQEND
  5
1311DF
  8
SLIM
  0
POLYLINE
  5
130C58
  8
SLIM
 66
     1
 10
0.0
 20
0.0
 30
0.0
 70
     1
1001
ACDBBLOCKREPETAG
1070
     1
1071
      167
1005
130C58
  0
VERTEX
  5
1311E0
  8
SLIM
 10
571.42562583947245
 20
-130.4944465005378
 30
0.0
  0
VERTEX
  5
1311E1
  8
SLIM
 10
564.92562583947245
 20
-134.24722325027139
 30
0.0
  0
VERTEX
  5
1311E2
  8
SLIM
 10
564.92562583947245
 20
-141.7527767497354
 30
0.0
  0
VERTEX
  5
1311E3
  8
SLIM
 10
571.4256258394762
 20
-145.50555349946941
 30
0.0
  0
VERTEX
  5
1311E4
  8
SLIM
 10
577.92562583947245
 20
-141.7527767497358
 30
0.0
  0
VERTEX
  5
1311E5
  8
SLIM
 10
577.92562583947597
 20
-134.24722325027179
 30
0.0
  0
SEQEND
  5
1311E6
  8
SLIM
  0
INSERT
  5
130C59
  8
OBJECT
  2
*U7
 10
0.0
 20
0.0
 30
0.0
  0
LINE
  5
130C5A
  8
OBJECT
 10
217.9999999971879
 20
-176.00000000000361
 30
0.0
 11
217.9999999971879
 21
-173.00000000000361
 31
0.0
1001
ACDBBLOCKREPETAG
1070
     1
1071
      141
1005
130C5A
  0
ARC
  5
130C5B
  8
OBJECT
 10
214.99999999718781
 20
-173.00000000000361
 30
0.0
 40
3.0
 50
0.0
 51
90.0
1001
ACDBBLOCKREPETAG
1070
     1
1071
      142
1005
130C5B
  0
LINE
  5
130C5C
  8
OBJECT
 10
93.999999997191452
 20
-176.00000000000361
 30
0.0
 11
93.999999997191452
 21
-173.00000000000361
 31
0.0
1001
ACDBBLOCKREPETAG
1070
     1
1071
      143
1005
130C5C
  0
LINE
  5
130C5D
  8
OBJECT
 10
96.999999997187842
 20
-170.00000000000361
 30
0.0
 11
96.999999997184204
 21
-147.34527240647051
 31
0.0
1001
ACDBBLOCKREPETAG
1070
     1
1071
      144
1005
130C5D
  0
LINE
  5
130C5E
  8
OBJECT
 10
214.99999999719151
 20
-170.00000000000361
 30
0.0
 11
214.99999999718781
 21
-147.34527240647091
 31
0.0
1001
ACDBBLOCKREPETAG
1070
     1
1071
      145
1005
130C5E
  0
LINE
  5
130C5F
  8
OBJECT
 10
96.99999999719148
 20
-170.00000000000361
 30
0.0
 11
214.99999999718781
 21
-170.00000000000361
 31
0.0
1001
ACDBBLOCKREPETAG
1070
     1
1071
      146
1005
130C5F
  0
ARC
  5
130C60
  8
OBJECT
 10
96.99999999719148
 20
-173.00000000000361
 30
0.0
 40
3.0
 50
90.0
 51
180.0
1001
ACDBBLOCKREPETAG
1070
     1
1071
      147
1005
130C60
  0
ARC
  5
130C61
  8
OBJECT
 10
155.99999999718781
 20
-106.0000000000036
 30
0.0
 40
61.0
 50
127.1672854612744
 51
172.83271453873201
1001
ACDBBLOCKREPETAG
1070
     1
1071
      149
1005
130C61
  0
ARC
  5
130C62
  8
OBJECT
 10
155.99999999718781
 20
-106.0000000000036
 30
0.0
 40
61.0
 50
247.16728546121701
 51
292.83271453878308
1001
ACDBBLOCKREPETAG
1070
     1
1071
      150
1005
130C62
  0
ARC
  5
130C63
  8
OBJECT
 10
155.99999999718781
 20
-106.0000000000036
 30
0.0
 40
61.0
 50
7.1672854612680084
 51
52.832714538725519
1001
ACDBBLOCKREPETAG
1070
     1
1071
      151
1005
130C63
  0
CIRCLE
  5
130C64
  8
SLIM
 10
155.99999999718781
 20
-42.000000000003638
 30
0.0
 40
4.0
1001
ACDBBLOCKREPETAG
1070
     1
1071
      152
1005
130C64
  0
ARC
  5
130C65
  8
OBJECT
 10
155.99999999718781
 20
-42.000000000003638
 30
0.0
 40
10.0
 50
52.832714538725519
 51
127.1672854612744
1001
ACDBBLOCKREPETAG
1070
     1
1071
      153
1005
130C65
  0
LINE
  5
130C66
  8
OBJECT
 10
119.1472027884338
 20
-57.390625000005898
 30
0.0
 11
149.9585578318183
 21
-34.031250000003638
 31
0.0
1001
ACDBBLOCKREPETAG
1070
     1
1071
      154
1005
130C66
  0
LINE
  5
130C67
  8
OBJECT
 10
192.8527972059419
 20
-57.390625000005898
 30
0.0
 11
162.0414421625573
 21
-34.031250000003638
 31
0.0
1001
ACDBBLOCKREPETAG
1070
     1
1071
      155
1005
130C67
  0
CIRCLE
  5
130C68
  8
SLIM
 10
100.57437415498499
 20
-138.00000000000361
 30
0.0
 40
3.9999999999999991
1001
ACDBBLOCKREPETAG
1070
     1
1071
      156
1005
130C68
  0
ARC
  5
130C69
  8
OBJECT
 10
100.57437415498499
 20
-138.00000000000361
 30
0.0
 40
9.9999999999999982
 50
172.8327145387714
 51
247.16728546121701
1001
ACDBBLOCKREPETAG
1070
     1
1071
      157
1005
130C69
  0
LINE
  5
130C6A
  8
OBJECT
 10
132.329444989482
 20
-162.22014608329931
 30
0.0
 11
96.693955301259848
 21
-147.2164173907081
 31
0.0
1001
ACDBBLOCKREPETAG
1070
     1
1071
      158
1005
130C6A
  0
LINE
  5
130C6B
  8
OBJECT
 10
95.476647780727944
 20
-98.38922891670515
 30
0.0
 11
90.652513135890317
 21
-136.75233260929909
 31
0.0
1001
ACDBBLOCKREPETAG
1070
     1
1071
      159
1005
130C6B
  0
CIRCLE
  5
130C6C
  8
SLIM
 10
211.4256258393907
 20
-138.00000000000361
 30
0.0
 40
4.0
1001
ACDBBLOCKREPETAG
1070
     1
1071
      160
1005
130C6C
  0
ARC
  5
130C6D
  8
OBJECT
 10
211.4256258393907
 20
-138.00000000000361
 30
0.0
 40
10.0
 50
292.83271453878308
 51
7.1672854612286221
1001
ACDBBLOCKREPETAG
1070
     1
1071
      161
1005
130C6D
  0
LINE
  5
130C6E
  8
OBJECT
 10
216.52335221364771
 20
-98.38922891670515
 30
0.0
 11
221.3474868584853
 21
-136.75233260929909
 31
0.0
1001
ACDBBLOCKREPETAG
1070
     1
1071
      162
1005
130C6E
  0
LINE
  5
130C6F
  8
OBJECT
 10
179.67055500489371
 20
-162.22014608329931
 30
0.0
 11
215.30604469311581
 21
-147.2164173907081
 31
0.0
1001
ACDBBLOCKREPETAG
1070
     1
1071
      163
1005
130C6F
  0
CIRCLE
  5
130C70
  8
OBJECT
 10
155.99999999718781
 20
-106.0000000000036
 30
0.0
 40
46.0
1001
ACDBBLOCKREPETAG
1070
     1
1071
      164
1005
130C70
  0
POLYLINE
  5
130C71
  8
SLIM
 66
     1
 10
0.0
 20
0.0
 30
0.0
 70
     1
1001
ACDBBLOCKREPETAG
1070
     1
1071
      165
1005
130C71
  0
VERTEX
  5
1311E7
  8
SLIM
 10
149.49999999718781
 20
-45.752776749737677
 30
0.0
  0
VERTEX
  5
1311E8
  8
SLIM
 10
155.99999999718781
 20
-49.505553499468078
 30
0.0
  0
VERTEX
  5
1311E9
  8
SLIM
 10
162.49999999718781
 20
-45.752776749737677
 30
0.0
  0
VERTEX
  5
1311EA
  8
SLIM
 10
162.49999999718781
 20
-38.247223250269613
 30
0.0
  0
VERTEX
  5
1311EB
  8
SLIM
 10
155.99999999718781
 20
-34.494446500539198
 30
0.0
  0
VERTEX
  5
1311EC
  8
SLIM
 10
149.49999999718781
 20
-38.247223250269613
 30
0.0
  0
SEQEND
  5
1311ED
  8
SLIM
  0
POLYLINE
  5
130C72
  8
SLIM
 66
     1
 10
0.0
 20
0.0
 30
0.0
 70
     1
1001
ACDBBLOCKREPETAG
1070
     1
1071
      166
1005
130C72
  0
VERTEX
  5
1311EE
  8
SLIM
 10
107.07437415498489
 20
-141.7527767497354
 30
0.0
  0
VERTEX
  5
1311EF
  8
SLIM
 10
107.07437415498489
 20
-134.24722325027139
 30
0.0
  0
VERTEX
  5
1311F0
  8
SLIM
 10
100.57437415498499
 20
-130.4944465005378
 30
0.0
  0
VERTEX
  5
1311F1
  8
SLIM
 10
94.074374154981371
 20
-134.24722325027179
 30
0.0
  0
VERTEX
  5
1311F2
  8
SLIM
 10
94.074374154984952
 20
-141.7527767497358
 30
0.0
  0
VERTEX
  5
1311F3
  8
SLIM
 10
100.5743741549813
 20
-145.50555349946941
 30
0.0
  0
SEQEND
  5
1311F4
  8
SLIM
  0
POLYLINE
  5
130C73
  8
SLIM
 66
     1
 10
0.0
 20
0.0
 30
0.0
 70
     1
1001
ACDBBLOCKREPETAG
1070
     1
1071
      167
1005
130C73
  0
VERTEX
  5
1311F5
  8
SLIM
 10
211.4256258393907
 20
-130.4944465005378
 30
0.0
  0
VERTEX
  5
1311F6
  8
SLIM
 10
204.9256258393907
 20
-134.24722325027139
 30
0.0
  0
VERTEX
  5
1311F7
  8
SLIM
 10
204.9256258393907
 20
-141.7527767497354
 30
0.0
  0
VERTEX
  5
1311F8
  8
SLIM
 10
211.42562583939431
 20
-145.50555349946941
 30
0.0
  0
VERTEX
  5
1311F9
  8
SLIM
 10
217.9256258393907
 20
-141.7527767497358
 30
0.0
  0
VERTEX
  5
1311FA
  8
SLIM
 10
217.9256258393944
 20
-134.24722325027179
 30
0.0
  0
SEQEND
  5
1311FB
  8
SLIM
  0
INSERT
  5
130C74
  8
OBJECT
  2
*U8
 10
0.0
 20
0.0
 30
0.0
  0
LINE
  5
130C75
  8
OBJECT
 10
93.999999997187857
 20
-802.99999999941394
 30
0.0
 11
93.999999997187857
 21
-799.9999999994144
 31
0.0
1001
ACDBBLOCKREPETAG
1070
     1
1071
      418
1005
130C75
  0
ARC
  5
130C76
  8
OBJECT
 10
96.999999997187842
 20
-802.99999999941394
 30
0.0
 40
3.0
 50
180.0
 51
270.0
1001
ACDBBLOCKREPETAG
1070
     1
1071
      419
1005
130C76
  0
LINE
  5
130C77
  8
OBJECT
 10
217.9999999971879
 20
-799.9999999994144
 30
0.0
 11
217.9999999971879
 21
-802.99999999941394
 31
0.0
1001
ACDBBLOCKREPETAG
1070
     1
1071
      420
1005
130C77
  0
ARC
  5
130C78
  8
OBJECT
 10
214.99999999718781
 20
-802.99999999941394
 30
0.0
 40
3.0
 50
270.0
 51
0.0
1001
ACDBBLOCKREPETAG
1070
     1
1071
      421
1005
130C78
  0
LINE
  5
130C79
  8
OBJECT
 10
214.99999999718781
 20
-805.99999999941429
 30
0.0
 11
96.999999997187842
 21
-805.99999999941429
 31
0.0
1001
ACDBBLOCKREPETAG
1070
     1
1071
      422
1005
130C79
  0
INSERT
  5
130C7A
  8
OBJECT
  2
*U9
 10
0.0
 20
0.0
 30
0.0
  0
LINE
  5
130C7B
  8
OBJECT
 10
288.9999999971879
 20
-657.9999999994144
 30
0.0
 11
295.99999999718779
 21
-657.9999999994144
 31
0.0
1001
ACDBBLOCKREPETAG
1070
     1
1071
       39
1005
130C7B
  0
LINE
  5
130C7C
  8
OBJECT
 10
295.99999999718779
 20
-657.9999999994144
 30
0.0
 11
295.99999999718779
 21
-781.99999999941394
 31
0.0
1001
ACDBBLOCKREPETAG
1070
     1
1071
       40
1005
130C7C
  0
LINE
  5
130C7D
  8
OBJECT
 10
295.99999999718779
 20
-781.99999999941394
 30
0.0
 11
288.9999999971879
 21
-781.99999999941394
 31
0.0
1001
ACDBBLOCKREPETAG
1070
     1
1071
       41
1005
130C7D
  0
LINE
  5
130C7E
  8
OBJECT
 10
288.9999999971879
 20
-781.99999999941394
 30
0.0
 11
288.9999999971879
 21
-657.9999999994144
 31
0.0
1001
ACDBBLOCKREPETAG
1070
     1
1071
       42
1005
130C7E
  0
LINE
  5
130C7F
  8
OBJECT
 10
288.9999999971879
 20
-660.99999999941406
 30
0.0
 11
252.99999999718781
 21
-660.99999999941406
 31
0.0
1001
ACDBBLOCKREPETAG
1070
     1
1071
       43
1005
130C7F
  0
LINE
  5
130C80
  8
OBJECT
 10
252.99999999718781
 20
-660.99999999941406
 30
0.0
 11
252.99999999718781
 21
-778.9999999994144
 31
0.0
1001
ACDBBLOCKREPETAG
1070
     1
1071
       44
1005
130C80
  0
LINE
  5
130C81
  8
OBJECT
 10
252.99999999718781
 20
-778.9999999994144
 30
0.0
 11
288.9999999971879
 21
-778.9999999994144
 31
0.0
1001
ACDBBLOCKREPETAG
1070
     1
1071
       45
1005
130C81
  0
LINE
  5
130C82
  8
OBJECT
 10
248.99999999718781
 20
-665.49999999941406
 30
0.0
 11
241.99999999718781
 21
-665.49999999941406
 31
0.0
1001
ACDBBLOCKREPETAG
1070
     1
1071
       46
1005
130C82
  0
LINE
  5
130C83
  8
OBJECT
 10
241.99999999718781
 20
-774.4999999994144
 30
0.0
 11
248.99999999718781
 21
-774.4999999994144
 31
0.0
1001
ACDBBLOCKREPETAG
1070
     1
1071
       47
1005
130C83
  0
LINE
  5
130C84
  8
OBJECT
 10
248.99999999718781
 20
-774.4999999994144
 30
0.0
 11
248.99999999718781
 21
-665.49999999941406
 31
0.0
1001
ACDBBLOCKREPETAG
1070
     1
1071
       48
1005
130C84
  0
LINE
  5
130C85
  8
OBJECT
 10
252.99999999718781
 20
-660.99999999941406
 30
0.0
 11
248.99999999718781
 21
-665.49999999941406
 31
0.0
1001
ACDBBLOCKREPETAG
1070
     1
1071
       49
1005
130C85
  0
LINE
  5
130C86
  8
OBJECT
 10
252.99999999718781
 20
-778.9999999994144
 30
0.0
 11
248.99999999718781
 21
-774.4999999994144
 31
0.0
1001
ACDBBLOCKREPETAG
1070
     1
1071
       50
1005
130C86
  0
LINE
  5
130C87
  8
OBJECT
 10
238.99999999718969
 20
-657.9999999994144
 30
0.0
 11
235.99999999718781
 21
-657.9999999994144
 31
0.0
1001
ACDBBLOCKREPETAG
1070
     1
1071
       51
1005
130C87
  0
ARC
  5
130C88
  8
OBJECT
 10
238.99999999718969
 20
-660.99999999941406
 30
0.0
 40
3.0
 50
0.0
 51
90.0
1001
ACDBBLOCKREPETAG
1070
     1
1071
       52
1005
130C88
  0
LINE
  5
130C89
  8
OBJECT
 10
235.99999999718781
 20
-781.99999999941394
 30
0.0
 11
238.99999999718599
 21
-781.99999999941394
 31
0.0
1001
ACDBBLOCKREPETAG
1070
     1
1071
       53
1005
130C89
  0
ARC
  5
130C8A
  8
OBJECT
 10
238.99999999718599
 20
-778.9999999994144
 30
0.0
 40
3.0
 50
270.0
 51
0.0
1001
ACDBBLOCKREPETAG
1070
     1
1071
       54
1005
130C8A
  0
LINE
  5
130C8B
  8
OBJECT
 10
241.99999999718599
 20
-778.9999999994144
 30
0.0
 11
241.99999999718969
 21
-660.99999999941406
 31
0.0
1001
ACDBBLOCKREPETAG
1070
     1
1071
       55
1005
130C8B
  0
LINE
  5
130C8C
  8
HIDDEN
 10
243.99999999718781
 20
-675.4999999994144
 30
0.0
 11
243.99999999718781
 21
-764.49999999941406
 31
0.0
1001
ACDBBLOCKREPETAG
1070
     1
1071
      430
1005
130C8C
  0
LINE
  5
130C8D
  8
OBJECT
 10
453.9999999972697
 20
-802.99999999941394
 30
0.0
 11
453.9999999972697
 21
-799.9999999994144
 31
0.0
1001
ACDBBLOCKREPETAG
1070
     1
1071
      418
1005
130C8D
  0
ARC
  5
130C8E
  8
OBJECT
 10
456.99999999726953
 20
-802.99999999941394
 30
0.0
 40
3.0
 50
180.0
 51
270.0
1001
ACDBBLOCKREPETAG
1070
     1
1071
      419
1005
130C8E
  0
LINE
  5
130C8F
  8
OBJECT
 10
577.99999999726947
 20
-799.9999999994144
 30
0.0
 11
577.99999999726947
 21
-802.99999999941394
 31
0.0
1001
ACDBBLOCKREPETAG
1070
     1
1071
      420
1005
130C8F
  0
ARC
  5
130C90
  8
OBJECT
 10
574.9999999972697
 20
-802.99999999941394
 30
0.0
 40
3.0
 50
270.0
 51
0.0
1001
ACDBBLOCKREPETAG
1070
     1
1071
      421
1005
130C90
  0
LINE
  5
130C91
  8
OBJECT
 10
574.9999999972697
 20
-805.99999999941429
 30
0.0
 11
456.99999999726953
 21
-805.99999999941429
 31
0.0
1001
ACDBBLOCKREPETAG
1070
     1
1071
      422
1005
130C91
  0
LINE
  5
130C92
  8
OBJECT
 10
665.9999999972697
 20
-644.99999999941406
 30
0.0
 11
658.9999999972697
 21
-644.99999999941406
 31
0.0
1001
ACDBBLOCKREPETAG
1070
     1
1071
       57
1005
130C92
  0
LINE
  5
130C93
  8
OBJECT
 10
658.9999999972697
 20
-644.99999999941406
 30
0.0
 11
658.9999999972697
 21
-794.99999999941394
 31
0.0
1001
ACDBBLOCKREPETAG
1070
     1
1071
       58
1005
130C93
  0
LINE
  5
130C94
  8
OBJECT
 10
617.4999999972697
 20
-647.99999999941417
 30
0.0
 11
617.4999999972697
 21
-791.9999999994144
 31
0.0
1001
ACDBBLOCKREPETAG
1070
     1
1071
       59
1005
130C94
  0
LINE
  5
130C95
  8
OBJECT
 10
605.9999999972697
 20
-654.4999999994144
 30
0.0
 11
605.9999999972697
 21
-785.49999999941406
 31
0.0
1001
ACDBBLOCKREPETAG
1070
     1
1071
       60
1005
130C95
  0
LINE
  5
130C96
  8
OBJECT
 10
658.9999999972697
 20
-794.99999999941394
 30
0.0
 11
665.9999999972697
 21
-794.99999999941394
 31
0.0
1001
ACDBBLOCKREPETAG
1070
     1
1071
       61
1005
130C96
  0
LINE
  5
130C97
  8
OBJECT
 10
665.9999999972697
 20
-794.99999999941394
 30
0.0
 11
665.9999999972697
 21
-644.99999999941406
 31
0.0
1001
ACDBBLOCKREPETAG
1070
     1
1071
       62
1005
130C97
  0
LINE
  5
130C98
  8
OBJECT
 10
601.99999999726958
 20
-781.99999999941394
 30
0.0
 11
595.9999999972697
 21
-781.99999999941394
 31
0.0
1001
ACDBBLOCKREPETAG
1070
     1
1071
       63
1005
130C98
  0
LINE
  5
130C99
  8
OBJECT
 10
658.9999999972697
 20
-791.9999999994144
 30
0.0
 11
617.4999999972697
 21
-791.9999999994144
 31
0.0
1001
ACDBBLOCKREPETAG
1070
     1
1071
       64
1005
130C99
  0
LINE
  5
130C9A
  8
OBJECT
 10
617.4999999972697
 20
-791.9999999994144
 30
0.0
 11
605.9999999972697
 21
-785.49999999941406
 31
0.0
1001
ACDBBLOCKREPETAG
1070
     1
1071
       65
1005
130C9A
  0
LINE
  5
130C9B
  8
OBJECT
 10
605.9999999972697
 20
-785.49999999941406
 30
0.0
 11
601.99999999726958
 21
-781.99999999941394
 31
0.0
1001
ACDBBLOCKREPETAG
1070
     1
1071
       66
1005
130C9B
  0
LINE
  5
130C9C
  8
OBJECT
 10
617.4999999972697
 20
-647.99999999941417
 30
0.0
 11
605.9999999972697
 21
-654.4999999994144
 31
0.0
1001
ACDBBLOCKREPETAG
1070
     1
1071
       67
1005
130C9C
  0
LINE
  5
130C9D
  8
OBJECT
 10
605.9999999972697
 20
-654.4999999994144
 30
0.0
 11
601.99999999726958
 21
-657.9999999994144
 31
0.0
1001
ACDBBLOCKREPETAG
1070
     1
1071
       68
1005
130C9D
  0
ARC
  5
130C9E
  8
OBJECT
 10
983.89999999727115
 20
-719.99999999941394
 30
0.0
 40
386.89999999999998
 50
170.7787013626384
 51
189.22129863736151
1001
ACDBBLOCKREPETAG
1070
     1
1071
       69
1005
130C9E
  0
LINE
  5
130C9F
  8
OBJECT
 10
601.99999999726958
 20
-657.9999999994144
 30
0.0
 11
595.9999999972697
 21
-657.9999999994144
 31
0.0
1001
ACDBBLOCKREPETAG
1070
     1
1071
       70
1005
130C9F
  0
LINE
  5
130CA0
  8
OBJECT
 10
658.9999999972697
 20
-647.99999999941417
 30
0.0
 11
617.4999999972697
 21
-647.99999999941417
 31
0.0
1001
ACDBBLOCKREPETAG
1070
     1
1071
       71
1005
130CA0
  0
INSERT
  5
130CA1
  8
OBJECT
  2
*U10
 10
0.0
 20
0.0
 30
0.0
  0
LINE
  5
130CA2
  8
HIDDEN
 10
613.9999999972697
 20
-776.99999999941406
 30
0.0
 11
613.9999999972697
 21
-662.9999999994144
 31
0.0
1001
ACDBBLOCKREPETAG
1070
     1
1071
      437
1005
130CA2
  0
LINE
  5
130CA3
  8
OBJECT
 10
453.9999999972697
 20
-338.9999999994107
 30
0.0
 11
453.9999999972697
 21
-335.99999999941048
 31
0.0
1001
ACDBBLOCKREPETAG
1070
     1
1071
      418
1005
130CA3
  0
ARC
  5
130CA4
  8
OBJECT
 10
456.99999999726953
 20
-338.9999999994107
 30
0.0
 40
3.0
 50
180.0
 51
270.0
1001
ACDBBLOCKREPETAG
1070
     1
1071
      419
1005
130CA4
  0
LINE
  5
130CA5
  8
OBJECT
 10
577.99999999726947
 20
-335.99999999941048
 30
0.0
 11
577.99999999726947
 21
-338.9999999994107
 31
0.0
1001
ACDBBLOCKREPETAG
1070
     1
1071
      420
1005
130CA5
  0
ARC
  5
130CA6
  8
OBJECT
 10
574.9999999972697
 20
-338.9999999994107
 30
0.0
 40
3.0
 50
270.0
 51
0.0
1001
ACDBBLOCKREPETAG
1070
     1
1071
      421
1005
130CA6
  0
LINE
  5
130CA7
  8
OBJECT
 10
574.9999999972697
 20
-341.99999999941048
 30
0.0
 11
456.99999999726953
 21
-341.99999999941048
 31
0.0
1001
ACDBBLOCKREPETAG
1070
     1
1071
      422
1005
130CA7
  0
INSERT
  5
130CA8
  8
OBJECT
  2
*U11
 10
0.0
 20
0.0
 30
0.0
  0
LINE
  5
130CA9
  8
OBJECT
 10
648.99999999726947
 20
-200.9999999994107
 30
0.0
 11
655.9999999972697
 21
-200.9999999994107
 31
0.0
1001
ACDBBLOCKREPETAG
1070
     1
1071
       20
1005
130CA9
  0
LINE
  5
130CAA
  8
OBJECT
 10
655.9999999972697
 20
-200.9999999994107
 30
0.0
 11
655.9999999972697
 21
-310.99999999941048
 31
0.0
1001
ACDBBLOCKREPETAG
1070
     1
1071
       21
1005
130CAA
  0
LINE
  5
130CAB
  8
OBJECT
 10
655.9999999972697
 20
-310.99999999941048
 30
0.0
 11
648.99999999726947
 21
-310.99999999941048
 31
0.0
1001
ACDBBLOCKREPETAG
1070
     1
1071
       22
1005
130CAB
  0
LINE
  5
130CAC
  8
OBJECT
 10
648.99999999726947
 20
-310.99999999941048
 30
0.0
 11
648.99999999726947
 21
-200.9999999994107
 31
0.0
1001
ACDBBLOCKREPETAG
1070
     1
1071
       23
1005
130CAC
  0
LINE
  5
130CAD
  8
OBJECT
 10
648.99999999726947
 20
-203.99999999941059
 30
0.0
 11
612.9999999972697
 21
-203.99999999941059
 31
0.0
1001
ACDBBLOCKREPETAG
1070
     1
1071
       24
1005
130CAD
  0
LINE
  5
130CAE
  8
OBJECT
 10
612.9999999972697
 20
-203.99999999941059
 30
0.0
 11
612.9999999972697
 21
-307.9999999994107
 31
0.0
1001
ACDBBLOCKREPETAG
1070
     1
1071
       25
1005
130CAE
  0
LINE
  5
130CAF
  8
OBJECT
 10
612.9999999972697
 20
-307.9999999994107
 30
0.0
 11
648.99999999726947
 21
-307.9999999994107
 31
0.0
1001
ACDBBLOCKREPETAG
1070
     1
1071
       26
1005
130CAF
  0
LINE
  5
130CB0
  8
OBJECT
 10
608.9999999972697
 20
-208.49999999941059
 30
0.0
 11
601.99999999726958
 21
-208.49999999941059
 31
0.0
1001
ACDBBLOCKREPETAG
1070
     1
1071
       27
1005
130CB0
  0
LINE
  5
130CB1
  8
OBJECT
 10
601.99999999726958
 20
-303.4999999994107
 30
0.0
 11
608.9999999972697
 21
-303.4999999994107
 31
0.0
1001
ACDBBLOCKREPETAG
1070
     1
1071
       28
1005
130CB1
  0
LINE
  5
130CB2
  8
OBJECT
 10
608.9999999972697
 20
-303.4999999994107
 30
0.0
 11
608.9999999972697
 21
-208.49999999941059
 31
0.0
1001
ACDBBLOCKREPETAG
1070
     1
1071
       29
1005
130CB2
  0
LINE
  5
130CB3
  8
OBJECT
 10
612.9999999972697
 20
-203.99999999941059
 30
0.0
 11
608.9999999972697
 21
-208.49999999941059
 31
0.0
1001
ACDBBLOCKREPETAG
1070
     1
1071
       30
1005
130CB3
  0
LINE
  5
130CB4
  8
OBJECT
 10
612.9999999972697
 20
-307.9999999994107
 30
0.0
 11
608.9999999972697
 21
-303.4999999994107
 31
0.0
1001
ACDBBLOCKREPETAG
1070
     1
1071
       31
1005
130CB4
  0
LINE
  5
130CB5
  8
OBJECT
 10
598.99999999727152
 20
-193.99999999941051
 30
0.0
 11
595.9999999972697
 21
-193.99999999941051
 31
0.0
1001
ACDBBLOCKREPETAG
1070
     1
1071
       32
1005
130CB5
  0
ARC
  5
130CB6
  8
OBJECT
 10
598.99999999727152
 20
-196.99999999941051
 30
0.0
 40
3.0
 50
0.0
 51
90.0
1001
ACDBBLOCKREPETAG
1070
     1
1071
       33
1005
130CB6
  0
LINE
  5
130CB7
  8
OBJECT
 10
595.9999999972697
 20
-317.9999999994107
 30
0.0
 11
598.99999999726776
 21
-317.9999999994107
 31
0.0
1001
ACDBBLOCKREPETAG
1070
     1
1071
       34
1005
130CB7
  0
ARC
  5
130CB8
  8
OBJECT
 10
598.99999999726776
 20
-314.99999999941048
 30
0.0
 40
3.0
 50
270.0
 51
0.0
1001
ACDBBLOCKREPETAG
1070
     1
1071
       35
1005
130CB8
  0
LINE
  5
130CB9
  8
OBJECT
 10
601.99999999726788
 20
-314.99999999941048
 30
0.0
 11
601.99999999727152
 21
-196.99999999941051
 31
0.0
1001
ACDBBLOCKREPETAG
1070
     1
1071
       36
1005
130CB9
  0
LINE
  5
130CBA
  8
HIDDEN
 10
603.9999999972697
 20
-217.9999999994107
 30
0.0
 11
603.9999999972697
 21
-293.99999999941048
 31
0.0
1001
ACDBBLOCKREPETAG
1070
     1
1071
      427
1005
130CBA
  0
LINE
  5
130CBB
  8
OBJECT
 10
93.999999997187857
 20
-338.9999999994107
 30
0.0
 11
93.999999997187857
 21
-335.99999999941048
 31
0.0
1001
ACDBBLOCKREPETAG
1070
     1
1071
      418
1005
130CBB
  0
ARC
  5
130CBC
  8
OBJECT
 10
96.999999997187842
 20
-338.9999999994107
 30
0.0
 40
3.0
 50
180.0
 51
270.0
1001
ACDBBLOCKREPETAG
1070
     1
1071
      419
1005
130CBC
  0
LINE
  5
130CBD
  8
OBJECT
 10
217.9999999971879
 20
-335.99999999941048
 30
0.0
 11
217.9999999971879
 21
-338.9999999994107
 31
0.0
1001
ACDBBLOCKREPETAG
1070
     1
1071
      420
1005
130CBD
  0
ARC
  5
130CBE
  8
OBJECT
 10
214.99999999718781
 20
-338.9999999994107
 30
0.0
 40
3.0
 50
270.0
 51
0.0
1001
ACDBBLOCKREPETAG
1070
     1
1071
      421
1005
130CBE
  0
LINE
  5
130CBF
  8
OBJECT
 10
214.99999999718781
 20
-341.99999999941048
 30
0.0
 11
96.999999997187842
 21
-341.99999999941048
 31
0.0
1001
ACDBBLOCKREPETAG
1070
     1
1071
      422
1005
130CBF
  0
INSERT
  5
130CC0
  8
OBJECT
  2
*U12
 10
0.0
 20
0.0
 30
0.0
  0
LINE
  5
130CC1
  8
OBJECT
 10
288.9999999971879
 20
-208.99999999941051
 30
0.0
 11
295.99999999718779
 21
-208.99999999941051
 31
0.0
1001
ACDBBLOCKREPETAG
1070
     1
1071
        1
1005
130CC1
  0
LINE
  5
130CC2
  8
OBJECT
 10
295.99999999718779
 20
-208.99999999941051
 30
0.0
 11
295.99999999718779
 21
-302.9999999994107
 31
0.0
1001
ACDBBLOCKREPETAG
1070
     1
1071
        2
1005
130CC2
  0
LINE
  5
130CC3
  8
OBJECT
 10
295.99999999718779
 20
-302.9999999994107
 30
0.0
 11
288.9999999971879
 21
-302.9999999994107
 31
0.0
1001
ACDBBLOCKREPETAG
1070
     1
1071
        3
1005
130CC3
  0
LINE
  5
130CC4
  8
OBJECT
 10
288.9999999971879
 20
-302.9999999994107
 30
0.0
 11
288.9999999971879
 21
-208.99999999941051
 31
0.0
1001
ACDBBLOCKREPETAG
1070
     1
1071
        4
1005
130CC4
  0
LINE
  5
130CC5
  8
OBJECT
 10
288.9999999971879
 20
-211.9999999994107
 30
0.0
 11
252.99999999718781
 21
-211.9999999994107
 31
0.0
1001
ACDBBLOCKREPETAG
1070
     1
1071
        5
1005
130CC5
  0
LINE
  5
130CC6
  8
OBJECT
 10
252.99999999718781
 20
-211.9999999994107
 30
0.0
 11
252.99999999718781
 21
-299.99999999941059
 31
0.0
1001
ACDBBLOCKREPETAG
1070
     1
1071
        6
1005
130CC6
  0
LINE
  5
130CC7
  8
OBJECT
 10
252.99999999718781
 20
-299.99999999941059
 30
0.0
 11
288.9999999971879
 21
-299.99999999941059
 31
0.0
1001
ACDBBLOCKREPETAG
1070
     1
1071
        7
1005
130CC7
  0
LINE
  5
130CC8
  8
OBJECT
 10
248.99999999718781
 20
-216.49999999941059
 30
0.0
 11
241.99999999718781
 21
-216.49999999941059
 31
0.0
1001
ACDBBLOCKREPETAG
1070
     1
1071
        8
1005
130CC8
  0
LINE
  5
130CC9
  8
OBJECT
 10
241.99999999718781
 20
-295.4999999994107
 30
0.0
 11
248.99999999718781
 21
-295.4999999994107
 31
0.0
1001
ACDBBLOCKREPETAG
1070
     1
1071
        9
1005
130CC9
  0
LINE
  5
130CCA
  8
OBJECT
 10
248.99999999718781
 20
-295.4999999994107
 30
0.0
 11
248.99999999718781
 21
-216.49999999941059
 31
0.0
1001
ACDBBLOCKREPETAG
1070
     1
1071
       10
1005
130CCA
  0
LINE
  5
130CCB
  8
OBJECT
 10
252.99999999718781
 20
-211.9999999994107
 30
0.0
 11
248.99999999718781
 21
-216.49999999941059
 31
0.0
1001
ACDBBLOCKREPETAG
1070
     1
1071
       11
1005
130CCB
  0
LINE
  5
130CCC
  8
OBJECT
 10
252.99999999718781
 20
-299.99999999941059
 30
0.0
 11
248.99999999718781
 21
-295.4999999994107
 31
0.0
1001
ACDBBLOCKREPETAG
1070
     1
1071
       12
1005
130CCC
  0
LINE
  5
130CCD
  8
OBJECT
 10
238.99999999718969
 20
-193.99999999941051
 30
0.0
 11
235.99999999718781
 21
-193.99999999941051
 31
0.0
1001
ACDBBLOCKREPETAG
1070
     1
1071
       13
1005
130CCD
  0
ARC
  5
130CCE
  8
OBJECT
 10
238.99999999718969
 20
-196.99999999941051
 30
0.0
 40
3.0
 50
0.0
 51
90.0
1001
ACDBBLOCKREPETAG
1070
     1
1071
       14
1005
130CCE
  0
LINE
  5
130CCF
  8
OBJECT
 10
235.99999999718781
 20
-317.9999999994107
 30
0.0
 11
238.99999999718599
 21
-317.9999999994107
 31
0.0
1001
ACDBBLOCKREPETAG
1070
     1
1071
       15
1005
130CCF
  0
ARC
  5
130CD0
  8
OBJECT
 10
238.99999999718599
 20
-314.99999999941048
 30
0.0
 40
3.0
 50
270.0
 51
0.0
1001
ACDBBLOCKREPETAG
1070
     1
1071
       16
1005
130CD0
  0
LINE
  5
130CD1
  8
OBJECT
 10
241.99999999718599
 20
-314.99999999941048
 30
0.0
 11
241.99999999718969
 21
-196.99999999941051
 31
0.0
1001
ACDBBLOCKREPETAG
1070
     1
1071
       17
1005
130CD1
  0
LINE
  5
130CD2
  8
HIDDEN
 10
243.99999999718781
 20
-225.9999999994107
 30
0.0
 11
243.99999999718781
 21
-285.99999999941048
 31
0.0
1001
ACDBBLOCKREPETAG
1070
     1
1071
      424
1005
130CD2
  0
POLYLINE
  5
130CD3
  8
HIDDEN
 66
     1
 10
0.0
 20
0.0
 30
0.0
 70
     1
  0
VERTEX
  5
1311FC
  8
HIDDEN
 10
0.0
 20
0.0
 30
0.0
  0
VERTEX
  5
1311FD
  8
HIDDEN
 10
360.0
 20
0.0
 30
0.0
  0
VERTEX
  5
1311FE
  8
HIDDEN
 10
360.0
 20
-464.0
 30
0.0
  0
VERTEX
  5
1311FF
  8
HIDDEN
 10
0.0
 20
-464.0
 30
0.0
  0
SEQEND
  5
131200
  8
HIDDEN
  0
POLYLINE
  5
130CD4
  8
HIDDEN
 66
     1
 10
0.0
 20
0.0
 30
0.0
 70
     1
  0
VERTEX
  5
131201
  8
HIDDEN
 10
360.0
 20
0.0
 30
0.0
  0
VERTEX
  5
131202
  8
HIDDEN
 10
720.0
 20
0.0
 30
0.0
  0
VERTEX
  5
131203
  8
HIDDEN
 10
720.0
 20
-464.0
 30
0.0
  0
VERTEX
  5
131204
  8
HIDDEN
 10
360.0
 20
-464.0
 30
0.0
  0
SEQEND
  5
131205
  8
HIDDEN
  0
POLYLINE
  5
130CD5
  8
HIDDEN
 66
     1
 10
0.0
 20
0.0
 30
0.0
 70
     1
  0
VERTEX
  5
131206
  8
HIDDEN
 10
0.0
 20
-464.0
 30
0.0
  0
VERTEX
  5
131207
  8
HIDDEN
 10
360.0
 20
-464.0
 30
0.0
  0
VERTEX
  5
131208
  8
HIDDEN
 10
360.0
 20
-928.0
 30
0.0
  0
VERTEX
  5
131209
  8
HIDDEN
 10
0.0
 20
-928.0
 30
0.0
  0
SEQEND
  5
13120A
  8
HIDDEN
  0
POLYLINE
  5
130CD6
  8
HIDDEN
 66
     1
 10
0.0
 20
0.0
 30
0.0
 70
     1
  0
VERTEX
  5
13120B
  8
HIDDEN
 10
360.0
 20
-464.0
 30
0.0
  0
VERTEX
  5
13120C
  8
HIDDEN
 10
720.0
 20
-464.0
 30
0.0
  0
VERTEX
  5
13120D
  8
HIDDEN
 10
720.0
 20
-928.0
 30
0.0
  0
VERTEX
  5
13120E
  8
HIDDEN
 10
360.0
 20
-928.0
 30
0.0
  0
SEQEND
  5
13120F
  8
HIDDEN
  0
LINE
  5
130CD7
  8
SLIM
 10
3914.9999999999941
 20
-765.19743878931376
 30
0.0
 11
3925.1974387893092
 21
-754.99999999999875
 31
0.0
1001
ACDBBLOCKREPETAG
1070
     1
1071
        0
1005
0
1001
ACAD
1010
0.0
1020
0.0
1030
0.0
  0
LINE
  5
130CD8
  8
SLIM
 10
3914.999999999995
 20
-783.15795103145035
 30
0.0
 11
3943.1579510314468
 21
-754.99999999999875
 31
0.0
1001
ACAD
1010
0.0
1020
0.0
1030
0.0
1001
ACDBBLOCKREPETAG
1070
     1
1071
       14
1005
130CD8
  0
LINE
  5
130CD9
  8
SLIM
 10
3915.1454972543161
 20
-800.97296601926837
 30
0.0
 11
3961.1184632735849
 21
-754.99999999999875
 31
0.0
1001
ACAD
1010
0.0
1020
0.0
1030
0.0
1001
ACDBBLOCKREPETAG
1070
     1
1071
       15
1005
130CD9
  0
LINE
  5
130CDA
  8
SLIM
 10
3917.104627495245
 20
-816.97434802047826
 30
0.0
 11
3979.0789755157239
 21
-754.99999999999875
 31
0.0
1001
ACAD
1010
0.0
1020
0.0
1030
0.0
1001
ACDBBLOCKREPETAG
1070
     1
1071
       16
1005
130CDA
  0
LINE
  5
130CDB
  8
SLIM
 10
3919.0637577361722
 20
-832.97573002168861
 30
0.0
 11
3997.0394877578619
 21
-754.99999999999875
 31
0.0
1001
ACAD
1010
0.0
1020
0.0
1030
0.0
1001
ACDBBLOCKREPETAG
1070
     1
1071
       17
1005
130CDB
  0
LINE
  5
130CDC
  8
SLIM
 10
3920.0
 20
-849.99999999999875
 30
0.0
 11
4015.0
 21
-754.99999999999875
 31
0.0
1001
ACAD
1010
0.0
1020
0.0
1030
0.0
1001
ACDBBLOCKREPETAG
1070
     1
1071
       18
1005
130CDC
  0
LINE
  5
130CDD
  8
SLIM
 10
3920.0
 20
-867.96051224213716
 30
0.0
 11
4032.9605122421372
 21
-754.99999999999875
 31
0.0
1001
ACAD
1010
0.0
1020
0.0
1030
0.0
1001
ACDBBLOCKREPETAG
1070
     1
1071
       19
1005
130CDD
  0
LINE
  5
130CDE
  8
SLIM
 10
3920.0
 20
-885.92102448427534
 30
0.0
 11
4050.921024484277
 21
-754.99999999999875
 31
0.0
1001
ACAD
1010
0.0
1020
0.0
1030
0.0
1001
ACDBBLOCKREPETAG
1070
     1
1071
       20
1005
130CDE
  0
LINE
  5
130CDF
  8
SLIM
 10
3920.0
 20
-903.88153672641363
 30
0.0
 11
4068.8815367264142
 21
-754.99999999999875
 31
0.0
1001
ACAD
1010
0.0
1020
0.0
1030
0.0
1001
ACDBBLOCKREPETAG
1070
     1
1071
       21
1005
130CDF
  0
LINE
  5
130CE0
  8
SLIM
 10
3920.0
 20
-921.84204896855181
 30
0.0
 11
4085.0000000000068
 21
-756.8420489685451
 31
0.0
1001
ACAD
1010
0.0
1020
0.0
1030
0.0
1001
ACDBBLOCKREPETAG
1070
     1
1071
       22
1005
130CE0
  0
LINE
  5
130CE1
  8
SLIM
 10
3920.0
 20
-939.80256121069044
 30
0.0
 11
4085.0000000000059
 21
-774.80256121068464
 31
0.0
1001
ACAD
1010
0.0
1020
0.0
1030
0.0
1001
ACDBBLOCKREPETAG
1070
     1
1071
       23
1005
130CE1
  0
LINE
  5
130CE2
  8
SLIM
 10
3920.0
 20
-957.76307345282862
 30
0.0
 11
4085.0000000000041
 21
-792.76307345282453
 31
0.0
1001
ACAD
1010
0.0
1020
0.0
1030
0.0
1001
ACDBBLOCKREPETAG
1070
     1
1071
       24
1005
130CE2
  0
LINE
  5
130CE3
  8
SLIM
 10
3930.0
 20
-965.72358569496657
 30
0.0
 11
3930.7235856949678
 21
-964.99999999999875
 31
0.0
1001
ACAD
1010
0.0
1020
0.0
1030
0.0
1001
ACDBBLOCKREPETAG
1070
     1
1071
       25
1005
130CE3
  0
LINE
  5
130CE4
  8
SLIM
 10
3930.7235856949678
 20
-964.99999999999875
 30
0.0
 11
4083.4738280308079
 21
-812.24975766415855
 31
0.0
1001
ACAD
1010
0.0
1020
0.0
1030
0.0
1001
ACDBBLOCKREPETAG
1070
     1
1071
       26
1005
130CE4
  0
LINE
  5
130CE5
  8
SLIM
 10
3930.0
 20
-983.68409793710521
 30
0.0
 11
3948.6840979371068
 21
-964.99999999999875
 31
0.0
1001
ACAD
1010
0.0
1020
0.0
1030
0.0
1001
ACDBBLOCKREPETAG
1070
     1
1071
       27
1005
130CE5
  0
LINE
  5
130CE6
  8
SLIM
 10
3948.6840979371068
 20
-964.99999999999875
 30
0.0
 11
4080.9680345671368
 21
-832.71606336996786
 31
0.0
1001
ACAD
1010
0.0
1020
0.0
1030
0.0
1001
ACDBBLOCKREPETAG
1070
     1
1071
       28
1005
130CE6
  0
LINE
  5
130CE7
  8
SLIM
 10
3946.6446101792449
 20
-984.99999999999875
 30
0.0
 11
3966.6446101792449
 21
-964.99999999999875
 31
0.0
1001
ACAD
1010
0.0
1020
0.0
1030
0.0
1001
ACDBBLOCKREPETAG
1070
     1
1071
       29
1005
130CE7
  0
LINE
  5
130CE8
  8
SLIM
 10
3966.6446101792449
 20
-964.99999999999875
 30
0.0
 11
4080.0
 21
-851.6446101792435
 31
0.0
1001
ACAD
1010
0.0
1020
0.0
1030
0.0
1001
ACDBBLOCKREPETAG
1070
     1
1071
       30
1005
130CE8
  0
LINE
  5
130CE9
  8
SLIM
 10
3964.6051224213829
 20
-984.99999999999875
 30
0.0
 11
3984.6051224213829
 21
-964.99999999999875
 31
0.0
1001
ACAD
1010
0.0
1020
0.0
1030
0.0
1001
ACDBBLOCKREPETAG
1070
     1
1071
       31
1005
130CE9
  0
LINE
  5
130CEA
  8
SLIM
 10
3984.6051224213829
 20
-964.99999999999875
 30
0.0
 11
4080.0
 21
-869.60512242138225
 31
0.0
1001
ACAD
1010
0.0
1020
0.0
1030
0.0
1001
ACDBBLOCKREPETAG
1070
     1
1071
       32
1005
130CEA
  0
LINE
  5
130CEB
  8
SLIM
 10
3982.565634663521
 20
-984.99999999999875
 30
0.0
 11
4002.565634663521
 21
-964.99999999999875
 31
0.0
1001
ACAD
1010
0.0
1020
0.0
1030
0.0
1001
ACDBBLOCKREPETAG
1070
     1
1071
       33
1005
130CEB
  0
LINE
  5
130CEC
  8
SLIM
 10
4002.565634663521
 20
-964.99999999999875
 30
0.0
 11
4079.9999999999991
 21
-887.56563466352065
 31
0.0
1001
ACAD
1010
0.0
1020
0.0
1030
0.0
1001
ACDBBLOCKREPETAG
1070
     1
1071
       34
1005
130CEC
  0
LINE
  5
130CED
  8
SLIM
 10
4000.5261469056582
 20
-984.99999999999875
 30
0.0
 11
4020.52614690566
 21
-964.99999999999875
 31
0.0
1001
ACAD
1010
0.0
1020
0.0
1030
0.0
1001
ACDBBLOCKREPETAG
1070
     1
1071
       35
1005
130CED
  0
LINE
  5
130CEE
  8
SLIM
 10
4020.52614690566
 20
-964.99999999999875
 30
0.0
 11
4079.9999999999991
 21
-905.52614690565963
 31
0.0
1001
ACAD
1010
0.0
1020
0.0
1030
0.0
1001
ACDBBLOCKREPETAG
1070
     1
1071
       36
1005
130CEE
  0
LINE
  5
130CEF
  8
SLIM
 10
4018.486659147798
 20
-984.99999999999875
 30
0.0
 11
4038.486659147798
 21
-964.99999999999864
 31
0.0
1001
ACAD
1010
0.0
1020
0.0
1030
0.0
1001
ACDBBLOCKREPETAG
1070
     1
1071
       37
1005
130CEF
  0
LINE
  5
130CF0
  8
SLIM
 10
4038.486659147798
 20
-964.99999999999864
 30
0.0
 11
4079.9999999999991
 21
-923.48665914779815
 31
0.0
1001
ACAD
1010
0.0
1020
0.0
1030
0.0
1001
ACDBBLOCKREPETAG
1070
     1
1071
       38
1005
130CF0
  0
LINE
  5
130CF1
  8
SLIM
 10
4036.4471713899361
 20
-984.99999999999875
 30
0.0
 11
4056.4471713899361
 21
-964.99999999999864
 31
0.0
1001
ACAD
1010
0.0
1020
0.0
1030
0.0
1001
ACDBBLOCKREPETAG
1070
     1
1071
       39
1005
130CF1
  0
LINE
  5
130CF2
  8
SLIM
 10
4056.4471713899361
 20
-964.99999999999864
 30
0.0
 11
4079.9999999999991
 21
-941.44717138993633
 31
0.0
1001
ACAD
1010
0.0
1020
0.0
1030
0.0
1001
ACDBBLOCKREPETAG
1070
     1
1071
       40
1005
130CF2
  0
LINE
  5
130CF3
  8
SLIM
 10
4054.4076836320728
 20
-984.99999999999875
 30
0.0
 11
4070.0
 21
-969.40768363207314
 31
0.0
1001
ACAD
1010
0.0
1020
0.0
1030
0.0
1001
ACDBBLOCKREPETAG
1070
     1
1071
       41
1005
130CF3
  0
LINE
  5
130CF4
  8
SLIM
 10
4074.4076836320728
 20
-964.99999999999864
 30
0.0
 11
4079.9999999999991
 21
-959.40768363207519
 31
0.0
1001
ACAD
1010
0.0
1020
0.0
1030
0.0
1001
ACDBBLOCKREPETAG
1070
     1
1071
       42
1005
130CF4
  0
LINE
  5
130CF5
  8
OBJECT
 10
3914.9999999999941
 20
-754.99999999999875
 30
0.0
 11
3914.9999999999968
 21
-799.78460339903359
 31
0.0
1001
ACDBBLOCKREPETAG
1070
     1
1071
        1
1005
130CF5
  0
LINE
  5
130CF6
  8
OBJECT
 10
4085.0000000000068
 20
-754.99999999999875
 30
0.0
 11
4085.0000000000032
 21
-799.78460339904063
 31
0.0
1001
ACDBBLOCKREPETAG
1070
     1
1071
        2
1005
130CF6
  0
LINE
  5
130CF7
  8
OBJECT
 10
4085.0000000000068
 20
-754.99999999999875
 30
0.0
 11
3914.9999999999941
 21
-754.99999999999875
 31
0.0
1001
ACDBBLOCKREPETAG
1070
     1
1071
        3
1005
130CF7
  0
LINE
  5
130CF8
  8
OBJECT
 10
4079.9999999999991
 20
-964.99999999999864
 30
0.0
 11
3920.0
 21
-964.99999999999875
 31
0.0
1001
ACDBBLOCKREPETAG
1070
     1
1071
        4
1005
130CF8
  0
LINE
  5
130CF9
  8
OBJECT
 10
3914.9999999999968
 20
-799.78460339903415
 30
0.0
 11
3920.0
 21
-840.62257748298555
 31
0.0
1001
ACDBBLOCKREPETAG
1070
     1
1071
        6
1005
130CF9
  0
LINE
  5
130CFA
  8
OBJECT
 10
3920.0
 20
-840.62257748298555
 30
0.0
 11
3920.0
 21
-964.99999999999875
 31
0.0
1001
ACDBBLOCKREPETAG
1070
     1
1071
        7
1005
130CFA
  0
LINE
  5
130CFB
  8
OBJECT
 10
4085.0000000000032
 20
-799.78460339904063
 30
0.0
 11
4080.0
 21
-840.62257748298555
 31
0.0
1001
ACDBBLOCKREPETAG
1070
     1
1071
        8
1005
130CFB
  0
LINE
  5
130CFC
  8
OBJECT
 10
4080.0
 20
-840.62257748298555
 30
0.0
 11
4079.9999999999991
 21
-964.99999999999864
 31
0.0
1001
ACDBBLOCKREPETAG
1070
     1
1071
        9
1005
130CFC
  0
LINE
  5
130CFD
  8
OBJECT
 10
3930.0
 20
-964.99999999999875
 30
0.0
 11
3930.0
 21
-984.99999999999875
 31
0.0
1001
ACDBBLOCKREPETAG
1070
     1
1071
       10
1005
130CFD
  0
LINE
  5
130CFE
  8
OBJECT
 10
3930.0
 20
-984.99999999999875
 30
0.0
 11
4070.0
 21
-984.99999999999875
 31
0.0
1001
ACDBBLOCKREPETAG
1070
     1
1071
       11
1005
130CFE
  0
LINE
  5
130CFF
  8
OBJECT
 10
4070.0
 20
-984.99999999999875
 30
0.0
 11
4070.0
 21
-964.99999999999864
 31
0.0
1001
ACDBBLOCKREPETAG
1070
     1
1071
       12
1005
130CFF
  0
LINE
  5
130D00
  8
OBJECT
 10
3923.0
 20
-570.99999999999955
 30
0.0
 11
3923.0
 21
-549.99999999999955
 31
0.0
1001
ACDBBLOCKREPETAG
1070
     1
1071
       36
1005
130D00
  0
LINE
  5
130D01
  8
OBJECT
 10
3923.0
 20
-549.99999999999955
 30
0.0
 11
4077.0
 21
-549.99999999999955
 31
0.0
1001
ACDBBLOCKREPETAG
1070
     1
1071
       37
1005
130D01
  0
LINE
  5
130D02
  8
HIDDEN
 10
3943.0
 20
-619.99999999999955
 30
0.0
 11
4057.0
 21
-619.99999999999955
 31
0.0
1001
ACDBBLOCKREPETAG
1070
     1
1071
       38
1005
130D02
  0
LINE
  5
130D03
  8
OBJECT
 10
4077.0
 20
-549.99999999999955
 30
0.0
 11
4077.0
 21
-570.99999999999955
 31
0.0
1001
ACDBBLOCKREPETAG
1070
     1
1071
       39
1005
130D03
  0
LINE
  5
130D04
  8
OBJECT
 10
4077.0
 20
-570.99999999999955
 30
0.0
 11
3923.0
 21
-570.99999999999955
 31
0.0
1001
ACDBBLOCKREPETAG
1070
     1
1071
       40
1005
130D04
  0
LINE
  5
130D05
  8
CENTER
 10
4000.0
 20
-534.99999999999955
 30
0.0
 11
4000.0
 21
-769.99999999999955
 31
0.0
1001
ACDBBLOCKREPETAG
1070
     1
1071
       41
1005
130D05
  0
LINE
  5
130D06
  8
OBJECT
 10
3928.0
 20
-570.99999999999955
 30
0.0
 11
3928.0
 21
-633.99999999999955
 31
0.0
1001
ACDBBLOCKREPETAG
1070
     1
1071
       42
1005
130D06
  0
LINE
  5
130D07
  8
OBJECT
 10
4072.0
 20
-633.99999999999955
 30
0.0
 11
4072.0
 21
-570.99999999999955
 31
0.0
1001
ACDBBLOCKREPETAG
1070
     1
1071
       43
1005
130D07
  0
LINE
  5
130D08
  8
OBJECT
 10
3920.0
 20
-757.99999999999955
 30
0.0
 11
4080.0
 21
-757.99999999999955
 31
0.0
1001
ACDBBLOCKREPETAG
1070
     1
1071
       44
1005
130D08
  0
LINE
  5
130D09
  8
OBJECT
 10
4080.0
 20
-633.99999999999955
 30
0.0
 11
3920.0
 21
-633.99999999999955
 31
0.0
1001
ACDBBLOCKREPETAG
1070
     1
1071
       45
1005
130D09
  0
LINE
  5
130D0A
  8
OBJECT
 10
3920.0
 20
-757.99999999999955
 30
0.0
 11
3920.0
 21
-769.99999999999955
 31
0.0
1001
ACDBBLOCKREPETAG
1070
     1
1071
       46
1005
130D0A
  0
LINE
  5
130D0B
  8
OBJECT
 10
3920.0
 20
-769.99999999999955
 30
0.0
 11
4080.0
 21
-769.99999999999955
 31
0.0
1001
ACDBBLOCKREPETAG
1070
     1
1071
       47
1005
130D0B
  0
LINE
  5
130D0C
  8
OBJECT
 10
4080.0
 20
-769.99999999999955
 30
0.0
 11
4080.0
 21
-757.99999999999955
 31
0.0
1001
ACDBBLOCKREPETAG
1070
     1
1071
       48
1005
130D0C
  0
ARC
  5
130D0D
  8
OBJECT
 10
4200.6872746716726
 20
-749.40809941010718
 30
0.0
 40
170.6350503965856
 50
137.44134459184301
 51
149.91949581337221
1001
ACDBBLOCKREPETAG
1070
     1
1071
       52
1005
130D0D
  0
ARC
  5
130D0E
  8
OBJECT
 10
4200.6872746716726
 20
-642.59190058989179
 30
0.0
 40
170.6350503965856
 50
210.08050418662771
 51
222.55865540815699
1001
ACDBBLOCKREPETAG
1070
     1
1071
       53
1005
130D0E
  0
ARC
  5
130D0F
  8
OBJECT
 10
3799.3127253283278
 20
-749.40809941010718
 30
0.0
 40
170.6350503965856
 50
30.080504186774089
 51
42.558655408456282
1001
ACDBBLOCKREPETAG
1070
     1
1071
       54
1005
130D0F
  0
ARC
  5
130D10
  8
OBJECT
 10
3799.3127253283278
 20
-642.59190058989179
 30
0.0
 40
170.6350503965856
 50
317.44134459154373
 51
329.91949581322592
1001
ACDBBLOCKREPETAG
1070
     1
1071
       55
1005
130D10
  0
POINT
  5
130D11
  8
DOTS
 10
4000.0
 20
-754.99999999999955
 30
0.0
1001
ACDBBLOCKREPETAG
1070
     1
1071
      184
1005
130D11
  0
LINE
  5
130D12
  8
OBJECT
 10
1923.0
 20
-570.99999999999955
 30
0.0
 11
1923.0
 21
-549.99999999999955
 31
0.0
1001
ACDBBLOCKREPETAG
1070
     1
1071
       36
1005
130D12
  0
LINE
  5
130D13
  8
OBJECT
 10
1923.0
 20
-549.99999999999955
 30
0.0
 11
2077.0
 21
-549.99999999999955
 31
0.0
1001
ACDBBLOCKREPETAG
1070
     1
1071
       37
1005
130D13
  0
LINE
  5
130D14
  8
HIDDEN
 10
1943.0
 20
-619.99999999999955
 30
0.0
 11
2057.0
 21
-619.99999999999955
 31
0.0
1001
ACDBBLOCKREPETAG
1070
     1
1071
       38
1005
130D14
  0
LINE
  5
130D15
  8
OBJECT
 10
2077.0
 20
-549.99999999999955
 30
0.0
 11
2077.0
 21
-570.99999999999955
 31
0.0
1001
ACDBBLOCKREPETAG
1070
     1
1071
       39
1005
130D15
  0
LINE
  5
130D16
  8
OBJECT
 10
2077.0
 20
-570.99999999999955
 30
0.0
 11
1923.0
 21
-570.99999999999955
 31
0.0
1001
ACDBBLOCKREPETAG
1070
     1
1071
       40
1005
130D16
  0
LINE
  5
130D17
  8
CENTER
 10
2000.0
 20
-534.99999999999955
 30
0.0
 11
2000.0
 21
-769.99999999999955
 31
0.0
1001
ACDBBLOCKREPETAG
1070
     1
1071
       41
1005
130D17
  0
LINE
  5
130D18
  8
OBJECT
 10
1928.0
 20
-570.99999999999955
 30
0.0
 11
1928.0
 21
-633.99999999999955
 31
0.0
1001
ACDBBLOCKREPETAG
1070
     1
1071
       42
1005
130D18
  0
LINE
  5
130D19
  8
OBJECT
 10
2072.0
 20
-633.99999999999955
 30
0.0
 11
2072.0
 21
-570.99999999999955
 31
0.0
1001
ACDBBLOCKREPETAG
1070
     1
1071
       43
1005
130D19
  0
LINE
  5
130D1A
  8
OBJECT
 10
1920.0
 20
-757.99999999999955
 30
0.0
 11
2080.0
 21
-757.99999999999955
 31
0.0
1001
ACDBBLOCKREPETAG
1070
     1
1071
       44
1005
130D1A
  0
LINE
  5
130D1B
  8
OBJECT
 10
2080.0
 20
-633.99999999999955
 30
0.0
 11
1920.0
 21
-633.99999999999955
 31
0.0
1001
ACDBBLOCKREPETAG
1070
     1
1071
       45
1005
130D1B
  0
LINE
  5
130D1C
  8
OBJECT
 10
1920.0
 20
-757.99999999999955
 30
0.0
 11
1920.0
 21
-769.99999999999955
 31
0.0
1001
ACDBBLOCKREPETAG
1070
     1
1071
       46
1005
130D1C
  0
LINE
  5
130D1D
  8
OBJECT
 10
1920.0
 20
-769.99999999999955
 30
0.0
 11
2080.0
 21
-769.99999999999955
 31
0.0
1001
ACDBBLOCKREPETAG
1070
     1
1071
       47
1005
130D1D
  0
LINE
  5
130D1E
  8
OBJECT
 10
2080.0
 20
-769.99999999999955
 30
0.0
 11
2080.0
 21
-757.99999999999955
 31
0.0
1001
ACDBBLOCKREPETAG
1070
     1
1071
       48
1005
130D1E
  0
ARC
  5
130D1F
  8
OBJECT
 10
2200.6872746716731
 20
-749.40809941010718
 30
0.0
 40
170.6350503965856
 50
137.44134459184301
 51
149.91949581336559
1001
ACDBBLOCKREPETAG
1070
     1
1071
       52
1005
130D1F
  0
ARC
  5
130D20
  8
OBJECT
 10
2200.6872746716731
 20
-642.59190058989179
 30
0.0
 40
170.6350503965856
 50
210.0805041866343
 51
222.55865540815699
1001
ACDBBLOCKREPETAG
1070
     1
1071
       53
1005
130D20
  0
ARC
  5
130D21
  8
OBJECT
 10
1799.312725328326
 20
-749.40809941010718
 30
0.0
 40
170.6350503965856
 50
30.080504186774089
 51
42.558655408447443
1001
ACDBBLOCKREPETAG
1070
     1
1071
       54
1005
130D21
  0
ARC
  5
130D22
  8
OBJECT
 10
1799.312725328326
 20
-642.59190058989179
 30
0.0
 40
170.6350503965856
 50
317.44134459155248
 51
329.91949581322592
1001
ACDBBLOCKREPETAG
1070
     1
1071
       55
1005
130D22
  0
POINT
  5
130D23
  8
DOTS
 10
2000.0
 20
-754.99999999999955
 30
0.0
1001
ACDBBLOCKREPETAG
1070
     1
1071
      184
1005
130D23
  0
CIRCLE
  5
130D24
  8
OBJECT
 10
5000.0
 20
-3174.9999999999959
 30
0.0
 40
53.5
1001
ACDBBLOCKREPETAG
1070
     1
1071
      344
1005
130D24
  0
LINE
  5
130D25
  8
CENTER
 10
5080.0
 20
-3174.9999999999959
 30
0.0
 11
4905.0
 21
-3174.9999999999959
 31
0.0
1001
ACDBBLOCKREPETAG
1070
     1
1071
       14
1005
130D25
  0
LINE
  5
130D26
  8
CENTER
 10
5000.0
 20
-3269.9999999999959
 30
0.0
 11
5000.0
 21
-3079.9999999999959
 31
0.0
1001
ACDBBLOCKREPETAG
1070
     1
1071
       15
1005
130D26
  0
CIRCLE
  5
130D27
  8
OBJECT
 10
5000.0
 20
-3174.9999999999959
 30
0.0
 40
70.0
1001
ACDBBLOCKREPETAG
1070
     1
1071
       16
1005
130D27
  0
CIRCLE
  5
130D28
  8
OBJECT
 10
5000.0
 20
-3174.9999999999959
 30
0.0
 40
77.0
1001
ACDBBLOCKREPETAG
1070
     1
1071
       17
1005
130D28
  0
ARC
  5
130D29
  8
OBJECT
 10
5000.0
 20
-3174.9999999999959
 30
0.0
 40
80.0
 50
50.805032573882329
 51
309.19496742611773
1001
ACDBBLOCKREPETAG
1070
     1
1071
       18
1005
130D29
  0
LINE
  5
130D2A
  8
OBJECT
 10
5045.6618002273253
 20
-3112.9999999999959
 30
0.0
 11
5080.0
 21
-3112.9999999999959
 31
0.0
1001
ACDBBLOCKREPETAG
1070
     1
1071
       19
1005
130D2A
  0
LINE
  5
130D2B
  8
OBJECT
 10
5045.6618002273253
 20
-3236.9999999999959
 30
0.0
 11
5080.0
 21
-3236.9999999999959
 31
0.0
1001
ACDBBLOCKREPETAG
1070
     1
1071
       20
1005
130D2B
  0
POINT
  5
130D2C
  8
DOTS
 10
5000.0
 20
-3174.9999999999959
 30
0.0
1001
ACDBBLOCKREPETAG
1070
     1
1071
       21
1005
130D2C
  0
CIRCLE
  5
130D2D
  8
OBJECT
 10
4000.0
 20
-3174.9999999999959
 30
0.0
 40
53.5
1001
ACDBBLOCKREPETAG
1070
     1
1071
      344
1005
130D2D
  0
LINE
  5
130D2E
  8
CENTER
 10
4080.0
 20
-3174.9999999999959
 30
0.0
 11
3905.0
 21
-3174.9999999999959
 31
0.0
1001
ACDBBLOCKREPETAG
1070
     1
1071
       14
1005
130D2E
  0
LINE
  5
130D2F
  8
CENTER
 10
4000.0
 20
-3269.9999999999959
 30
0.0
 11
4000.0
 21
-3079.9999999999959
 31
0.0
1001
ACDBBLOCKREPETAG
1070
     1
1071
       15
1005
130D2F
  0
CIRCLE
  5
130D30
  8
OBJECT
 10
4000.0
 20
-3174.9999999999959
 30
0.0
 40
70.0
1001
ACDBBLOCKREPETAG
1070
     1
1071
       16
1005
130D30
  0
CIRCLE
  5
130D31
  8
OBJECT
 10
4000.0
 20
-3174.9999999999959
 30
0.0
 40
77.0
1001
ACDBBLOCKREPETAG
1070
     1
1071
       17
1005
130D31
  0
ARC
  5
130D32
  8
OBJECT
 10
4000.0
 20
-3174.9999999999959
 30
0.0
 40
80.0
 50
50.805032573862128
 51
309.19496742613791
1001
ACDBBLOCKREPETAG
1070
     1
1071
       18
1005
130D32
  0
LINE
  5
130D33
  8
OBJECT
 10
4045.661800227324
 20
-3112.9999999999959
 30
0.0
 11
4080.0
 21
-3112.9999999999959
 31
0.0
1001
ACDBBLOCKREPETAG
1070
     1
1071
       19
1005
130D33
  0
LINE
  5
130D34
  8
OBJECT
 10
4045.661800227324
 20
-3236.9999999999959
 30
0.0
 11
4080.0
 21
-3236.9999999999959
 31
0.0
1001
ACDBBLOCKREPETAG
1070
     1
1071
       20
1005
130D34
  0
POINT
  5
130D35
  8
DOTS
 10
4000.0
 20
-3174.9999999999959
 30
0.0
1001
ACDBBLOCKREPETAG
1070
     1
1071
       21
1005
130D35
  0
CIRCLE
  5
130D36
  8
OBJECT
 10
3000.0
 20
-3174.9999999999959
 30
0.0
 40
53.5
1001
ACDBBLOCKREPETAG
1070
     1
1071
      344
1005
130D36
  0
LINE
  5
130D37
  8
CENTER
 10
3080.0
 20
-3174.9999999999959
 30
0.0
 11
2905.0
 21
-3174.9999999999959
 31
0.0
1001
ACDBBLOCKREPETAG
1070
     1
1071
       14
1005
130D37
  0
LINE
  5
130D38
  8
CENTER
 10
3000.0
 20
-3269.9999999999959
 30
0.0
 11
3000.0
 21
-3079.9999999999959
 31
0.0
1001
ACDBBLOCKREPETAG
1070
     1
1071
       15
1005
130D38
  0
CIRCLE
  5
130D39
  8
OBJECT
 10
3000.0
 20
-3174.9999999999959
 30
0.0
 40
70.0
1001
ACDBBLOCKREPETAG
1070
     1
1071
       16
1005
130D39
  0
CIRCLE
  5
130D3A
  8
OBJECT
 10
3000.0
 20
-3174.9999999999959
 30
0.0
 40
77.0
1001
ACDBBLOCKREPETAG
1070
     1
1071
       17
1005
130D3A
  0
ARC
  5
130D3B
  8
OBJECT
 10
3000.0
 20
-3174.9999999999959
 30
0.0
 40
80.0
 50
50.805032573862128
 51
309.19496742613791
1001
ACDBBLOCKREPETAG
1070
     1
1071
       18
1005
130D3B
  0
LINE
  5
130D3C
  8
OBJECT
 10
3045.6618002273249
 20
-3112.9999999999959
 30
0.0
 11
3080.0
 21
-3112.9999999999959
 31
0.0
1001
ACDBBLOCKREPETAG
1070
     1
1071
       19
1005
130D3C
  0
LINE
  5
130D3D
  8
OBJECT
 10
3045.6618002273249
 20
-3236.9999999999959
 30
0.0
 11
3080.0
 21
-3236.9999999999959
 31
0.0
1001
ACDBBLOCKREPETAG
1070
     1
1071
       20
1005
130D3D
  0
POINT
  5
130D3E
  8
DOTS
 10
3000.0
 20
-3174.9999999999959
 30
0.0
1001
ACDBBLOCKREPETAG
1070
     1
1071
       21
1005
130D3E
  0
CIRCLE
  5
130D3F
  8
OBJECT
 10
2000.0
 20
-3174.9999999999959
 30
0.0
 40
53.5
1001
ACDBBLOCKREPETAG
1070
     1
1071
      344
1005
130D3F
  0
LINE
  5
130D40
  8
CENTER
 10
2080.0
 20
-3174.9999999999959
 30
0.0
 11
1905.0
 21
-3174.9999999999959
 31
0.0
1001
ACDBBLOCKREPETAG
1070
     1
1071
       14
1005
130D40
  0
LINE
  5
130D41
  8
CENTER
 10
2000.0
 20
-3269.9999999999959
 30
0.0
 11
2000.0
 21
-3079.9999999999959
 31
0.0
1001
ACDBBLOCKREPETAG
1070
     1
1071
       15
1005
130D41
  0
CIRCLE
  5
130D42
  8
OBJECT
 10
2000.0
 20
-3174.9999999999959
 30
0.0
 40
70.0
1001
ACDBBLOCKREPETAG
1070
     1
1071
       16
1005
130D42
  0
CIRCLE
  5
130D43
  8
OBJECT
 10
2000.0
 20
-3174.9999999999959
 30
0.0
 40
77.0
1001
ACDBBLOCKREPETAG
1070
     1
1071
       17
1005
130D43
  0
ARC
  5
130D44
  8
OBJECT
 10
2000.0
 20
-3174.9999999999959
 30
0.0
 40
80.0
 50
50.805032573862128
 51
309.19496742613791
1001
ACDBBLOCKREPETAG
1070
     1
1071
       18
1005
130D44
  0
LINE
  5
130D45
  8
OBJECT
 10
2045.6618002273251
 20
-3112.9999999999959
 30
0.0
 11
2080.0
 21
-3112.9999999999959
 31
0.0
1001
ACDBBLOCKREPETAG
1070
     1
1071
       19
1005
130D45
  0
LINE
  5
130D46
  8
OBJECT
 10
2045.6618002273251
 20
-3236.9999999999959
 30
0.0
 11
2080.0
 21
-3236.9999999999959
 31
0.0
1001
ACDBBLOCKREPETAG
1070
     1
1071
       20
1005
130D46
  0
POINT
  5
130D47
  8
DOTS
 10
2000.0
 20
-3174.9999999999959
 30
0.0
1001
ACDBBLOCKREPETAG
1070
     1
1071
       21
1005
130D47
  0
LINE
  5
130D48
  8
SLIM
 10
3945.2566704261012
 20
-137.99999999999909
 30
0.0
 11
3955.9548403695781
 21
-127.30183005652231
 31
0.0
1001
GRADIENTCOLOR1ACI
1070
     5
1001
GRADIENTCOLOR2ACI
1070
     2
1001
ACAD
1010
0.0
1020
0.0
1030
0.0
1001
ACDBBLOCKREPETAG
1070
     1
1071
      422
1005
130D48
  0
LINE
  5
130D49
  8
SLIM
 10
3954.2369265471712
 20
-137.99999999999909
 30
0.0
 11
3972.7507744763329
 21
-119.4861520708364
 31
0.0
1001
GRADIENTCOLOR1ACI
1070
     5
1001
GRADIENTCOLOR2ACI
1070
     2
1001
ACAD
1010
0.0
1020
0.0
1030
0.0
1001
ACDBBLOCKREPETAG
1070
     1
1071
      423
1005
130D49
  0
LINE
  5
130D4A
  8
SLIM
 10
3973.521224312457
 20
-127.6959583557812
 30
0.0
 11
3984.8575146748631
 21
-116.359667993377
 31
0.0
1001
GRADIENTCOLOR1ACI
1070
     5
1001
GRADIENTCOLOR2ACI
1070
     2
1001
ACAD
1010
0.0
1020
0.0
1030
0.0
1001
ACDBBLOCKREPETAG
1070
     1
1071
      424
1005
130D4A
  0
LINE
  5
130D4B
  8
SLIM
 10
3985.8944171461271
 20
-124.30302164318159
 30
0.0
 11
3995.0533812002559
 21
-115.1440575890517
 31
0.0
1001
GRADIENTCOLOR1ACI
1070
     5
1001
GRADIENTCOLOR2ACI
1070
     2
1001
ACAD
1010
0.0
1020
0.0
1030
0.0
1001
ACDBBLOCKREPETAG
1070
     1
1071
      425
1005
130D4B
  0
LINE
  5
130D4C
  8
SLIM
 10
3996.0777327492078
 20
-123.0999621611699
 30
0.0
 11
4000.0
 21
-119.1776949103767
 31
0.0
1001
GRADIENTCOLOR1ACI
1070
     5
1001
GRADIENTCOLOR2ACI
1070
     2
1001
ACAD
1010
0.0
1020
0.0
1030
0.0
1001
ACDBBLOCKREPETAG
1070
     1
1071
      426
1005
130D4C
  0
LINE
  5
130D4D
  8
SLIM
 10
4000.0
 20
-119.1776949103767
 30
0.0
 11
4004.0797313529042
 21
-115.0979635574724
 31
0.0
1001
GRADIENTCOLOR1ACI
1070
     5
1001
GRADIENTCOLOR2ACI
1070
     2
1001
ACAD
1010
0.0
1020
0.0
1030
0.0
1001
ACDBBLOCKREPETAG
1070
     1
1071
      427
1005
130D4D
  0
LINE
  5
130D4E
  8
SLIM
 10
4004.9957202542769
 20
-123.1622307771683
 30
0.0
 11
4012.2679784105749
 21
-115.88997262087101
 31
0.0
1001
GRADIENTCOLOR1ACI
1070
     5
1001
GRADIENTCOLOR2ACI
1070
     2
1001
ACAD
1010
0.0
1020
0.0
1030
0.0
1001
ACDBBLOCKREPETAG
1070
     1
1071
      428
1005
130D4E
  0
LINE
  5
130D4F
  8
SLIM
 10
4013.028059366964
 20
-124.1101477855505
 30
0.0
 11
4019.799941457361
 21
-117.3382656951526
 31
0.0
1001
GRADIENTCOLOR1ACI
1070
     5
1001
GRADIENTCOLOR2ACI
1070
     2
1001
ACAD
1010
0.0
1020
0.0
1030
0.0
1001
ACDBBLOCKREPETAG
1070
     1
1071
      429
1005
130D4F
  0
LINE
  5
130D50
  8
SLIM
 10
4020.3740813142458
 20
-125.7443819593383
 30
0.0
 11
4026.7872038672799
 21
-119.3312594063044
 31
0.0
1001
GRADIENTCOLOR1ACI
1070
     5
1001
GRADIENTCOLOR2ACI
1070
     2
1001
ACAD
1010
0.0
1020
0.0
1030
0.0
1001
ACDBBLOCKREPETAG
1070
     1
1071
      430
1005
130D50
  0
LINE
  5
130D51
  8
SLIM
 10
4027.1524719988752
 20
-127.946247395778
 30
0.0
 11
4033.3030030760328
 21
-121.7957163186195
 31
0.0
1001
GRADIENTCOLOR1ACI
1070
     5
1001
GRADIENTCOLOR2ACI
1070
     2
1001
ACAD
1010
0.0
1020
0.0
1030
0.0
1001
ACDBBLOCKREPETAG
1070
     1
1071
      431
1005
130D51
  0
LINE
  5
130D52
  8
SLIM
 10
4033.4390986513308
 20
-130.63987686439191
 30
0.0
 11
4039.3973119843781
 21
-124.6816635313439
 31
0.0
1001
GRADIENTCOLOR1ACI
1070
     5
1001
GRADIENTCOLOR2ACI
1070
     2
1001
ACAD
1010
0.0
1020
0.0
1030
0.0
1001
ACDBBLOCKREPETAG
1070
     1
1071
      432
1005
130D52
  0
LINE
  5
130D53
  8
SLIM
 10
4039.284224621797
 20
-133.77500701499321
 30
0.0
 11
4045.1047705343681
 21
-127.95446110242381
 31
0.0
1001
GRADIENTCOLOR1ACI
1070
     5
1001
GRADIENTCOLOR2ACI
1070
     2
1001
ACAD
1010
0.0
1020
0.0
1030
0.0
1001
ACDBBLOCKREPETAG
1070
     1
1071
      433
1005
130D53
  0
LINE
  5
130D54
  8
SLIM
 10
4044.7212801698038
 20
-137.31820758805651
 30
0.0
 11
4050.4491557891961
 21
-131.59033196866449
 31
0.0
1001
GRADIENTCOLOR1ACI
1070
     5
1001
GRADIENTCOLOR2ACI
1070
     2
1001
ACAD
1010
0.0
1020
0.0
1030
0.0
1001
ACDBBLOCKREPETAG
1070
     1
1071
      434
1005
130D54
  0
LINE
  5
130D55
  8
SLIM
 10
4053.0197438789291
 20
-137.99999999999909
 30
0.0
 11
4055.4459941864038
 21
-135.57374969252561
 31
0.0
1001
GRADIENTCOLOR1ACI
1070
     5
1001
GRADIENTCOLOR2ACI
1070
     2
1001
ACAD
1010
0.0
1020
0.0
1030
0.0
1001
ACDBBLOCKREPETAG
1070
     1
1071
      435
1005
130D55
  0
LINE
  5
130D56
  8
CENTER
 10
4000.0
 20
-279.99999999999909
 30
0.0
 11
4000.0
 21
-99.999999999999091
 31
0.0
1001
ACDBBLOCKREPETAG
1070
     1
1071
      160
1005
130D56
  0
CIRCLE
  5
130D57
  8
OBJECT
 10
4000.0
 20
-199.99999999999909
 30
0.0
 40
70.0
1001
ACDBBLOCKREPETAG
1070
     1
1071
      161
1005
130D57
  0
CIRCLE
  5
130D58
  8
OBJECT
 10
4000.0
 20
-199.99999999999909
 30
0.0
 40
77.0
1001
ACDBBLOCKREPETAG
1070
     1
1071
      162
1005
130D58
  0
LINE
  5
130D59
  8
OBJECT
 10
4045.661800227324
 20
-137.99999999999909
 30
0.0
 11
4080.0
 21
-137.99999999999909
 31
0.0
1001
ACDBBLOCKREPETAG
1070
     1
1071
      164
1005
130D59
  0
LINE
  5
130D5A
  8
OBJECT
 10
4062.0
 20
-261.99999999999909
 30
0.0
 11
4080.0
 21
-261.99999999999909
 31
0.0
1001
ACDBBLOCKREPETAG
1070
     1
1071
      165
1005
130D5A
  0
LINE
  5
130D5B
  8
OBJECT
 10
4062.0
 20
-261.99999999999909
 30
0.0
 11
4062.0
 21
-279.99999999999909
 31
0.0
1001
ACDBBLOCKREPETAG
1070
     1
1071
      167
1005
130D5B
  0
LINE
  5
130D5C
  8
OBJECT
 10
3938.0
 20
-261.99999999999909
 30
0.0
 11
3938.0
 21
-279.99999999999909
 31
0.0
1001
ACDBBLOCKREPETAG
1070
     1
1071
      168
1005
130D5C
  0
LINE
  5
130D5D
  8
OBJECT
 10
3938.0
 20
-261.99999999999909
 30
0.0
 11
3920.0
 21
-261.99999999999909
 31
0.0
1001
ACDBBLOCKREPETAG
1070
     1
1071
      170
1005
130D5D
  0
LINE
  5
130D5E
  8
OBJECT
 10
3954.338199772676
 20
-137.99999999999909
 30
0.0
 11
3920.0
 21
-137.99999999999909
 31
0.0
1001
ACDBBLOCKREPETAG
1070
     1
1071
      171
1005
130D5E
  0
LINE
  5
130D5F
  8
OBJECT
 10
3945.5527778486362
 20
-254.44722215136329
 30
0.0
 11
3938.0
 21
-261.99999999999909
 31
0.0
1001
ACDBBLOCKREPETAG
1070
     1
1071
      180
1005
130D5F
  0
LINE
  5
130D60
  8
OBJECT
 10
4054.4472221513638
 20
-254.44722215136329
 30
0.0
 11
4062.0
 21
-261.99999999999909
 31
0.0
1001
ACDBBLOCKREPETAG
1070
     1
1071
      181
1005
130D60
  0
POINT
  5
130D61
  8
DOTS
 10
4000.0
 20
-199.99999999999909
 30
0.0
 50
270.0
1001
ACDBBLOCKREPETAG
1070
     1
1071
      182
1005
130D61
  0
ARC
  5
130D62
  8
OBJECT
 10
4000.0
 20
-199.99999999999909
 30
0.0
 40
85.0
 50
46.837102859806208
 51
133.16289714019371
1001
ACDBBLOCKREPETAG
1070
     1
1071
      183
1005
130D62
  0
CIRCLE
  5
130D63
  8
OBJECT
 10
4000.0
 20
-199.99999999999909
 30
0.0
 40
53.5
1001
ACDBBLOCKREPETAG
1070
     1
1071
      352
1005
130D63
  0
LINE
  5
130D64
  8
CENTER
 10
4080.0
 20
-199.99999999999909
 30
0.0
 11
3920.0
 21
-199.99999999999909
 31
0.0
1001
ACDBBLOCKREPETAG
1070
     1
1071
      158
1005
130D64
  0
CIRCLE
  5
130D65
  8
OBJECT
 10
2000.0
 20
-199.99999999999909
 30
0.0
 40
53.5
1001
ACDBBLOCKREPETAG
1070
     1
1071
      340
1005
130D65
  0
LINE
  5
130D66
  8
CENTER
 10
2080.0
 20
-199.99999999999909
 30
0.0
 11
1920.0
 21
-199.99999999999909
 31
0.0
1001
ACDBBLOCKREPETAG
1070
     1
1071
       49
1005
130D66
  0
LINE
  5
130D67
  8
CENTER
 10
2000.0
 20
-279.99999999999909
 30
0.0
 11
2000.0
 21
-104.9999999999991
 31
0.0
1001
ACDBBLOCKREPETAG
1070
     1
1071
       50
1005
130D67
  0
CIRCLE
  5
130D68
  8
OBJECT
 10
2000.0
 20
-199.99999999999909
 30
0.0
 40
70.0
1001
ACDBBLOCKREPETAG
1070
     1
1071
       51
1005
130D68
  0
CIRCLE
  5
130D69
  8
OBJECT
 10
2000.0
 20
-199.99999999999909
 30
0.0
 40
77.0
1001
ACDBBLOCKREPETAG
1070
     1
1071
       52
1005
130D69
  0
ARC
  5
130D6A
  8
OBJECT
 10
2000.0
 20
-199.99999999999909
 30
0.0
 40
80.0
 50
50.805032573864182
 51
129.1949674261358
1001
ACDBBLOCKREPETAG
1070
     1
1071
       53
1005
130D6A
  0
LINE
  5
130D6B
  8
OBJECT
 10
2045.6618002273251
 20
-137.99999999999909
 30
0.0
 11
2080.0
 21
-137.99999999999909
 31
0.0
1001
ACDBBLOCKREPETAG
1070
     1
1071
       54
1005
130D6B
  0
LINE
  5
130D6C
  8
OBJECT
 10
2062.0
 20
-261.99999999999909
 30
0.0
 11
2080.0
 21
-261.99999999999909
 31
0.0
1001
ACDBBLOCKREPETAG
1070
     1
1071
       55
1005
130D6C
  0
LINE
  5
130D6D
  8
OBJECT
 10
2062.0
 20
-261.99999999999909
 30
0.0
 11
2062.0
 21
-279.99999999999909
 31
0.0
1001
ACDBBLOCKREPETAG
1070
     1
1071
       57
1005
130D6D
  0
LINE
  5
130D6E
  8
OBJECT
 10
1938.0
 20
-261.99999999999909
 30
0.0
 11
1938.0
 21
-279.99999999999909
 31
0.0
1001
ACDBBLOCKREPETAG
1070
     1
1071
       58
1005
130D6E
  0
POINT
  5
130D6F
  8
DOTS
 10
2000.0
 20
-199.99999999999909
 30
0.0
 50
90.0
1001
ACDBBLOCKREPETAG
1070
     1
1071
       59
1005
130D6F
  0
LINE
  5
130D70
  8
OBJECT
 10
1938.0
 20
-261.99999999999909
 30
0.0
 11
1920.0
 21
-261.99999999999909
 31
0.0
1001
ACDBBLOCKREPETAG
1070
     1
1071
       60
1005
130D70
  0
LINE
  5
130D71
  8
OBJECT
 10
1954.3381997726749
 20
-137.99999999999909
 30
0.0
 11
1920.0
 21
-137.99999999999909
 31
0.0
1001
ACDBBLOCKREPETAG
1070
     1
1071
       61
1005
130D71
  0
LINE
  5
130D72
  8
OBJECT
 10
1945.5527778486351
 20
-254.44722215136329
 30
0.0
 11
1938.0
 21
-261.99999999999909
 31
0.0
1001
ACDBBLOCKREPETAG
1070
     1
1071
       42
1005
130D72
  0
LINE
  5
130D73
  8
OBJECT
 10
2054.4472221513638
 20
-254.44722215136329
 30
0.0
 11
2062.0
 21
-261.99999999999909
 31
0.0
1001
ACDBBLOCKREPETAG
1070
     1
1071
       43
1005
130D73
  0
LINE
  5
130D74
  8
CENTER
 10
3899.0
 20
-199.99999999999909
 30
0.0
 11
3920.0
 21
-199.99999999999909
 31
0.0
1001
ACDBBLOCKREPETAG
1070
     1
1071
        0
1005
130D74
  0
LINE
  5
130D75
  8
OBJECT
 10
3917.0
 20
-261.99999999999909
 30
0.0
 11
3920.0
 21
-261.99999999999909
 31
0.0
1001
ACDBBLOCKREPETAG
1070
     1
1071
        1
1005
130D75
  0
ARC
  5
130D76
  8
OBJECT
 10
3917.0
 20
-258.99999999999909
 30
0.0
 40
3.0
 50
180.0
 51
270.0
1001
ACDBBLOCKREPETAG
1070
     1
1071
        2
1005
130D76
  0
LINE
  5
130D77
  8
OBJECT
 10
3920.0
 20
-137.99999999999909
 30
0.0
 11
3917.0
 21
-137.99999999999909
 31
0.0
1001
ACDBBLOCKREPETAG
1070
     1
1071
        3
1005
130D77
  0
ARC
  5
130D78
  8
OBJECT
 10
3917.0
 20
-140.99999999999909
 30
0.0
 40
3.0
 50
90.0
 51
180.0
1001
ACDBBLOCKREPETAG
1070
     1
1071
        4
1005
130D78
  0
LINE
  5
130D79
  8
OBJECT
 10
3914.0
 20
-140.99999999999909
 30
0.0
 11
3914.0
 21
-258.99999999999909
 31
0.0
1001
ACDBBLOCKREPETAG
1070
     1
1071
        5
1005
130D79
  0
LINE
  5
130D7A
  8
OBJECT
 10
4062.0
 20
-332.99999999999898
 30
0.0
 11
4062.0
 21
-339.99999999999909
 31
0.0
1001
ACDBBLOCKREPETAG
1070
     1
1071
       47
1005
130D7A
  0
LINE
  5
130D7B
  8
OBJECT
 10
4062.0
 20
-339.99999999999909
 30
0.0
 11
3938.0
 21
-339.99999999999909
 31
0.0
1001
ACDBBLOCKREPETAG
1070
     1
1071
       48
1005
130D7B
  0
LINE
  5
130D7C
  8
OBJECT
 10
3938.0
 20
-339.99999999999909
 30
0.0
 11
3938.0
 21
-332.99999999999898
 31
0.0
1001
ACDBBLOCKREPETAG
1070
     1
1071
       49
1005
130D7C
  0
LINE
  5
130D7D
  8
OBJECT
 10
3938.0
 20
-332.99999999999898
 30
0.0
 11
4062.0
 21
-332.99999999999898
 31
0.0
1001
ACDBBLOCKREPETAG
1070
     1
1071
       50
1005
130D7D
  0
LINE
  5
130D7E
  8
CENTER
 10
4000.0
 20
-354.99999999999909
 30
0.0
 11
4000.0
 21
-279.99999999999909
 31
0.0
1001
ACDBBLOCKREPETAG
1070
     1
1071
       51
1005
130D7E
  0
LINE
  5
130D7F
  8
OBJECT
 10
4059.0
 20
-332.99999999999898
 30
0.0
 11
4059.0
 21
-296.99999999999898
 31
0.0
1001
ACDBBLOCKREPETAG
1070
     1
1071
       52
1005
130D7F
  0
LINE
  5
130D80
  8
OBJECT
 10
4059.0
 20
-296.99999999999898
 30
0.0
 11
3941.0
 21
-296.99999999999898
 31
0.0
1001
ACDBBLOCKREPETAG
1070
     1
1071
       53
1005
130D80
  0
LINE
  5
130D81
  8
OBJECT
 10
3941.0
 20
-296.99999999999898
 30
0.0
 11
3941.0
 21
-332.99999999999898
 31
0.0
1001
ACDBBLOCKREPETAG
1070
     1
1071
       54
1005
130D81
  0
LINE
  5
130D82
  8
OBJECT
 10
4054.4999999999991
 20
-292.99999999999898
 30
0.0
 11
4054.4999999999991
 21
-285.99999999999898
 31
0.0
1001
ACDBBLOCKREPETAG
1070
     1
1071
       55
1005
130D82
  0
LINE
  5
130D83
  8
OBJECT
 10
3945.5
 20
-285.99999999999898
 30
0.0
 11
3945.5
 21
-292.99999999999898
 31
0.0
1001
ACDBBLOCKREPETAG
1070
     1
1071
       56
1005
130D83
  0
LINE
  5
130D84
  8
OBJECT
 10
3945.5
 20
-292.99999999999898
 30
0.0
 11
4054.4999999999991
 21
-292.99999999999898
 31
0.0
1001
ACDBBLOCKREPETAG
1070
     1
1071
       57
1005
130D84
  0
LINE
  5
130D85
  8
OBJECT
 10
4059.0
 20
-296.99999999999898
 30
0.0
 11
4054.4999999999991
 21
-292.99999999999898
 31
0.0
1001
ACDBBLOCKREPETAG
1070
     1
1071
       58
1005
130D85
  0
LINE
  5
130D86
  8
OBJECT
 10
3941.0
 20
-296.99999999999898
 30
0.0
 11
3945.5
 21
-292.99999999999898
 31
0.0
1001
ACDBBLOCKREPETAG
1070
     1
1071
       59
1005
130D86
  0
LINE
  5
130D87
  8
OBJECT
 10
4062.0
 20
-283.0
 30
0.0
 11
4062.0
 21
-279.99999999999909
 31
0.0
1001
ACDBBLOCKREPETAG
1070
     1
1071
       60
1005
130D87
  0
ARC
  5
130D88
  8
OBJECT
 10
4059.0
 20
-283.0
 30
0.0
 40
3.0
 50
270.0
 51
0.0
1001
ACDBBLOCKREPETAG
1070
     1
1071
       61
1005
130D88
  0
LINE
  5
130D89
  8
OBJECT
 10
3938.0
 20
-279.99999999999909
 30
0.0
 11
3938.0
 21
-282.99999999999818
 31
0.0
1001
ACDBBLOCKREPETAG
1070
     1
1071
       62
1005
130D89
  0
ARC
  5
130D8A
  8
OBJECT
 10
3941.0
 20
-282.99999999999818
 30
0.0
 40
3.0
 50
180.0
 51
270.0
1001
ACDBBLOCKREPETAG
1070
     1
1071
       63
1005
130D8A
  0
LINE
  5
130D8B
  8
OBJECT
 10
3941.0
 20
-285.99999999999818
 30
0.0
 11
4059.0
 21
-286.0
 31
0.0
1001
ACDBBLOCKREPETAG
1070
     1
1071
       64
1005
130D8B
  0
LINE
  5
130D8C
  8
HIDDEN
 10
4044.5
 20
-287.99999999999909
 30
0.0
 11
3955.5
 21
-287.99999999999909
 31
0.0
1001
ACDBBLOCKREPETAG
1070
     1
1071
       65
1005
130D8C
  0
LINE
  5
130D8D
  8
CENTER
 10
4080.0
 20
-199.99999999999909
 30
0.0
 11
4239.0
 21
-199.99999999999909
 31
0.0
1001
ACDBBLOCKREPETAG
1070
     1
1071
      155
1005
130D8D
  0
LINE
  5
130D8E
  8
OBJECT
 10
4080.0
 20
-261.99999999999909
 30
0.0
 11
4083.0
 21
-261.99999999999909
 31
0.0
1001
ACDBBLOCKREPETAG
1070
     1
1071
      156
1005
130D8E
  0
ARC
  5
130D8F
  8
OBJECT
 10
4083.0
 20
-258.99999999999909
 30
0.0
 40
3.0
 50
270.0
 51
0.0
1001
ACDBBLOCKREPETAG
1070
     1
1071
      157
1005
130D8F
  0
LINE
  5
130D90
  8
OBJECT
 10
4080.0
 20
-138.0000000000027
 30
0.0
 11
4083.0
 21
-138.0000000000027
 31
0.0
1001
ACDBBLOCKREPETAG
1070
     1
1071
      158
1005
130D90
  0
LINE
  5
130D91
  8
OBJECT
 10
4086.0
 20
-140.99999999999909
 30
0.0
 11
4108.6547275935336
 21
-140.9999999999954
 31
0.0
1001
ACDBBLOCKREPETAG
1070
     1
1071
      159
1005
130D91
  0
LINE
  5
130D92
  8
OBJECT
 10
4086.0
 20
-259.00000000000267
 30
0.0
 11
4108.6547275935336
 21
-258.99999999999909
 31
0.0
1001
ACDBBLOCKREPETAG
1070
     1
1071
      160
1005
130D92
  0
LINE
  5
130D93
  8
CENTER
 10
4150.0
 20
-123.5195984073716
 30
0.0
 11
4150.0
 21
-276.48040159262649
 31
0.0
1001
ACDBBLOCKREPETAG
1070
     1
1071
      161
1005
130D93
  0
LINE
  5
130D94
  8
OBJECT
 10
4086.0
 20
-141.0000000000027
 30
0.0
 11
4086.0
 21
-258.99999999999909
 31
0.0
1001
ACDBBLOCKREPETAG
1070
     1
1071
      162
1005
130D94
  0
ARC
  5
130D95
  8
OBJECT
 10
4083.0
 20
-141.0000000000027
 30
0.0
 40
3.0
 50
0.0
 51
90.0
1001
ACDBBLOCKREPETAG
1070
     1
1071
      163
1005
130D95
  0
ARC
  5
130D96
  8
OBJECT
 10
4150.0
 20
-199.99999999999909
 30
0.0
 40
61.0
 50
37.167285461274467
 51
82.832714538705744
1001
ACDBBLOCKREPETAG
1070
     1
1071
      165
1005
130D96
  0
ARC
  5
130D97
  8
OBJECT
 10
4150.0
 20
-199.99999999999909
 30
0.0
 40
61.0
 50
157.16728546126831
 51
202.83271453873161
1001
ACDBBLOCKREPETAG
1070
     1
1071
      166
1005
130D97
  0
ARC
  5
130D98
  8
OBJECT
 10
4150.0
 20
-199.99999999999909
 30
0.0
 40
61.0
 50
277.16728546129423
 51
322.83271453872419
1001
ACDBBLOCKREPETAG
1070
     1
1071
      167
1005
130D98
  0
CIRCLE
  5
130D99
  8
SLIM
 10
4214.0
 20
-199.99999999999909
 30
0.0
 40
4.0
1001
ACDBBLOCKREPETAG
1070
     1
1071
      168
1005
130D99
  0
ARC
  5
130D9A
  8
OBJECT
 10
4214.0
 20
-199.99999999999909
 30
0.0
 40
10.0
 50
322.83271453872419
 51
37.167285461274467
1001
ACDBBLOCKREPETAG
1070
     1
1071
      169
1005
130D9A
  0
LINE
  5
130D9B
  8
OBJECT
 10
4198.6093749999973
 20
-163.14720279124501
 30
0.0
 11
4221.96875
 21
-193.9585578346296
 31
0.0
1001
ACDBBLOCKREPETAG
1070
     1
1071
      170
1005
130D9B
  0
LINE
  5
130D9C
  8
OBJECT
 10
4198.6093749999973
 20
-236.8527972087532
 30
0.0
 11
4221.96875
 21
-206.04144216536861
 31
0.0
1001
ACDBBLOCKREPETAG
1070
     1
1071
      171
1005
130D9C
  0
CIRCLE
  5
130D9D
  8
SLIM
 10
4118.0
 20
-144.5743741577962
 30
0.0
 40
3.9999999999999991
1001
ACDBBLOCKREPETAG
1070
     1
1071
      172
1005
130D9D
  0
ARC
  5
130D9E
  8
OBJECT
 10
4118.0
 20
-144.5743741577962
 30
0.0
 40
9.9999999999999982
 50
82.832714538705744
 51
157.16728546126831
1001
ACDBBLOCKREPETAG
1070
     1
1071
      173
1005
130D9E
  0
LINE
  5
130D9F
  8
OBJECT
 10
4093.7798539167038
 20
-176.32944499229319
 30
0.0
 11
4108.783582609296
 21
-140.6939553040711
 31
0.0
1001
ACDBBLOCKREPETAG
1070
     1
1071
      174
1005
130D9F
  0
LINE
  5
130DA0
  8
OBJECT
 10
4157.6107710832966
 20
-139.47664778353919
 30
0.0
 11
4119.247667390704
 21
-134.65251313870161
 31
0.0
1001
ACDBBLOCKREPETAG
1070
     1
1071
      175
1005
130DA0
  0
CIRCLE
  5
130DA1
  8
SLIM
 10
4118.0
 20
-255.4256258422019
 30
0.0
 40
4.0
1001
ACDBBLOCKREPETAG
1070
     1
1071
      176
1005
130DA1
  0
ARC
  5
130DA2
  8
OBJECT
 10
4118.0
 20
-255.4256258422019
 30
0.0
 40
10.0
 50
202.83271453873161
 51
277.16728546129423
1001
ACDBBLOCKREPETAG
1070
     1
1071
      177
1005
130DA2
  0
LINE
  5
130DA3
  8
OBJECT
 10
4157.6107710832966
 20
-260.52335221645899
 30
0.0
 11
4119.247667390704
 21
-265.3474868612966
 31
0.0
1001
ACDBBLOCKREPETAG
1070
     1
1071
      178
1005
130DA3
  0
LINE
  5
130DA4
  8
OBJECT
 10
4093.7798539167038
 20
-223.67055500770491
 30
0.0
 11
4108.783582609296
 21
-259.30604469592708
 31
0.0
1001
ACDBBLOCKREPETAG
1070
     1
1071
      179
1005
130DA4
  0
CIRCLE
  5
130DA5
  8
OBJECT
 10
4150.0
 20
-199.99999999999909
 30
0.0
 40
46.0
1001
ACDBBLOCKREPETAG
1070
     1
1071
      180
1005
130DA5
  0
POLYLINE
  5
130DA6
  8
SLIM
 66
     1
 10
0.0
 20
0.0
 30
0.0
 70
     1
1001
ACDBBLOCKREPETAG
1070
     1
1071
      181
1005
130DA6
  0
VERTEX
  5
131210
  8
SLIM
 10
4210.247223250266
 20
-193.49999999999909
 30
0.0
  0
VERTEX
  5
131211
  8
SLIM
 10
4206.4944465005347
 20
-199.99999999999909
 30
0.0
  0
VERTEX
  5
131212
  8
SLIM
 10
4210.247223250266
 20
-206.49999999999909
 30
0.0
  0
VERTEX
  5
131213
  8
SLIM
 10
4217.7527767497322
 20
-206.49999999999909
 30
0.0
  0
VERTEX
  5
131214
  8
SLIM
 10
4221.5055534994644
 20
-199.99999999999909
 30
0.0
  0
VERTEX
  5
131215
  8
SLIM
 10
4217.7527767497322
 20
-193.49999999999909
 30
0.0
  0
SEQEND
  5
131216
  8
SLIM
  0
POLYLINE
  5
130DA7
  8
SLIM
 66
     1
 10
0.0
 20
0.0
 30
0.0
 70
     1
1001
ACDBBLOCKREPETAG
1070
     1
1071
      182
1005
130DA7
  0
VERTEX
  5
131217
  8
SLIM
 10
4114.2472232502687
 20
-151.0743741577962
 30
0.0
  0
VERTEX
  5
131218
  8
SLIM
 10
4121.752776749734
 20
-151.0743741577962
 30
0.0
  0
VERTEX
  5
131219
  8
SLIM
 10
4125.5055534994644
 20
-144.5743741577962
 30
0.0
  0
VERTEX
  5
13121A
  8
SLIM
 10
4121.7527767497286
 20
-138.07437415779259
 30
0.0
  0
VERTEX
  5
13121B
  8
SLIM
 10
4114.2472232502687
 20
-138.0743741577962
 30
0.0
  0
VERTEX
  5
13121C
  8
SLIM
 10
4110.4944465005347
 20
-144.57437415779259
 30
0.0
  0
SEQEND
  5
13121D
  8
SLIM
  0
POLYLINE
  5
130DA8
  8
SLIM
 66
     1
 10
0.0
 20
0.0
 30
0.0
 70
     1
1001
ACDBBLOCKREPETAG
1070
     1
1071
      183
1005
130DA8
  0
VERTEX
  5
13121E
  8
SLIM
 10
4125.5055534994644
 20
-255.4256258422019
 30
0.0
  0
VERTEX
  5
13121F
  8
SLIM
 10
4121.7527767497286
 20
-248.9256258422019
 30
0.0
  0
VERTEX
  5
131220
  8
SLIM
 10
4114.2472232502687
 20
-248.9256258422019
 30
0.0
  0
VERTEX
  5
131221
  8
SLIM
 10
4110.4944465005347
 20
-255.42562584220559
 30
0.0
  0
VERTEX
  5
131222
  8
SLIM
 10
4114.247223250266
 20
-261.9256258422019
 30
0.0
  0
VERTEX
  5
131223
  8
SLIM
 10
4121.7527767497286
 20
-261.92562584220559
 30
0.0
  0
SEQEND
  5
131224
  8
SLIM
  0
LINE
  5
130DA9
  8
OBJECT
 10
3917.0
 20
-634.0
 30
0.0
 11
3920.0
 21
-634.0
 31
0.0
1001
ACDBBLOCKREPETAG
1070
     1
1071
        1
1005
130DA9
  0
ARC
  5
130DAA
  8
OBJECT
 10
3917.0
 20
-637.0
 30
0.0
 40
3.0
 50
90.0
 51
180.0
1001
ACDBBLOCKREPETAG
1070
     1
1071
        2
1005
130DAA
  0
LINE
  5
130DAB
  8
OBJECT
 10
3920.0
 20
-758.0
 30
0.0
 11
3917.0
 21
-758.0
 31
0.0
1001
ACDBBLOCKREPETAG
1070
     1
1071
        3
1005
130DAB
  0
ARC
  5
130DAC
  8
OBJECT
 10
3917.0
 20
-755.0
 30
0.0
 40
3.0
 50
180.0
 51
270.0
1001
ACDBBLOCKREPETAG
1070
     1
1071
        4
1005
130DAC
  0
LINE
  5
130DAD
  8
OBJECT
 10
3914.0
 20
-755.0
 30
0.0
 11
3914.0
 21
-637.0
 31
0.0
1001
ACDBBLOCKREPETAG
1070
     1
1071
        5
1005
130DAD
  0
LINE
  5
130DAE
  8
CENTER
 10
4077.0
 20
-696.0
 30
0.0
 11
3923.0
 21
-696.0
 31
0.0
1001
ACDBBLOCKREPETAG
1070
     1
1071
       17
1005
130DAE
  0
CIRCLE
  5
130DAF
  8
OBJECT
 10
4000.0
 20
-696.0
 30
0.0
 40
41.5
1001
ACDBBLOCKREPETAG
1070
     1
1071
       19
1005
130DAF
  0
CIRCLE
  5
130DB0
  8
OBJECT
 10
4000.0
 20
-696.0
 30
0.0
 40
54.0
1001
ACDBBLOCKREPETAG
1070
     1
1071
       20
1005
130DB0
  0
ARC
  5
130DB1
  8
OBJECT
 10
4000.0
 20
-696.0
 30
0.0
 40
62.0
 50
287.89655112920718
 51
252.10344887079279
1001
ACDBBLOCKREPETAG
1070
     1
1071
       21
1005
130DB1
  0
LINE
  5
130DB2
  8
OBJECT
 10
3980.947441116743
 20
-755.0
 30
0.0
 11
4019.052558883257
 21
-755.0
 31
0.0
1001
ACDBBLOCKREPETAG
1070
     1
1071
       22
1005
130DB2
  0
LINE
  5
130DB3
  8
OBJECT
 10
4114.0
 20
-588.0
 30
0.0
 11
4114.0
 21
-586.0
 31
0.0
1001
ACDBBLOCKREPETAG
1070
     1
1071
      157
1005
130DB3
  0
ARC
  5
130DB4
  8
OBJECT
 10
4155.1865574982548
 20
-606.0
 30
0.0
 40
59.0
 50
229.20276883323919
 51
270.0
1001
ACDBBLOCKREPETAG
1070
     1
1071
      158
1005
130DB4
  0
LINE
  5
130DB5
  8
OBJECT
 10
4224.0
 20
-594.5
 30
0.0
 11
4089.0
 21
-594.5
 31
0.0
1001
ACDBBLOCKREPETAG
1070
     1
1071
      159
1005
130DB5
  0
LINE
  5
130DB6
  8
OBJECT
 10
4089.0
 20
-607.5
 30
0.0
 11
4224.0
 21
-607.5
 31
0.0
1001
ACDBBLOCKREPETAG
1070
     1
1071
      160
1005
130DB6
  0
LINE
  5
130DB7
  8
OBJECT
 10
4089.0
 20
-594.5
 30
0.0
 11
4089.0
 21
-607.5
 31
0.0
1001
ACDBBLOCKREPETAG
1070
     1
1071
      161
1005
130DB7
  0
LINE
  5
130DB8
  8
OBJECT
 10
4096.0
 20
-616.5
 30
0.0
 11
4096.0
 21
-607.5
 31
0.0
1001
ACDBBLOCKREPETAG
1070
     1
1071
      162
1005
130DB8
  0
LINE
  5
130DB9
  8
OBJECT
 10
4114.0
 20
-620.0
 30
0.0
 11
4114.0
 21
-607.5
 31
0.0
1001
ACDBBLOCKREPETAG
1070
     1
1071
      163
1005
130DB9
  0
LINE
  5
130DBA
  8
OBJECT
 10
4204.0
 20
-616.5
 30
0.0
 11
4204.0
 21
-607.5
 31
0.0
1001
ACDBBLOCKREPETAG
1070
     1
1071
      164
1005
130DBA
  0
LINE
  5
130DBB
  8
OBJECT
 10
4224.0
 20
-594.5
 30
0.0
 11
4224.0
 21
-607.5
 31
0.0
1001
ACDBBLOCKREPETAG
1070
     1
1071
      165
1005
130DBB
  0
LINE
  5
130DBC
  8
OBJECT
 10
4122.0
 20
-620.0
 30
0.0
 11
4122.0
 21
-607.5
 31
0.0
1001
ACDBBLOCKREPETAG
1070
     1
1071
      166
1005
130DBC
  0
LINE
  5
130DBD
  8
OBJECT
 10
4114.0
 20
-616.5
 30
0.0
 11
4095.0
 21
-616.5
 31
0.0
1001
ACDBBLOCKREPETAG
1070
     1
1071
      167
1005
130DBD
  0
LINE
  5
130DBE
  8
OBJECT
 10
4095.0
 20
-620.0
 30
0.0
 11
4095.0
 21
-616.5
 31
0.0
1001
ACDBBLOCKREPETAG
1070
     1
1071
      168
1005
130DBE
  0
LINE
  5
130DBF
  8
OBJECT
 10
4122.0
 20
-616.5
 30
0.0
 11
4205.0
 21
-616.5
 31
0.0
1001
ACDBBLOCKREPETAG
1070
     1
1071
      169
1005
130DBF
  0
LINE
  5
130DC0
  8
OBJECT
 10
4205.0
 20
-616.5
 30
0.0
 11
4205.0
 21
-620.0
 31
0.0
1001
ACDBBLOCKREPETAG
1070
     1
1071
      170
1005
130DC0
  0
LINE
  5
130DC1
  8
OBJECT
 10
4110.4944465005347
 20
-594.5
 30
0.0
 11
4110.4944465005347
 21
-588.0
 31
0.0
1001
ACDBBLOCKREPETAG
1070
     1
1071
      171
1005
130DC1
  0
LINE
  5
130DC2
  8
OBJECT
 10
4109.0
 20
-633.0
 30
0.0
 11
4109.0
 21
-638.0
 31
0.0
1001
ACDBBLOCKREPETAG
1070
     1
1071
      172
1005
130DC2
  0
LINE
  5
130DC3
  8
OBJECT
 10
4109.0
 20
-638.0
 30
0.0
 11
4127.0
 21
-638.0
 31
0.0
1001
ACDBBLOCKREPETAG
1070
     1
1071
      173
1005
130DC3
  0
LINE
  5
130DC4
  8
OBJECT
 10
4127.0
 20
-633.0
 30
0.0
 11
4127.0
 21
-638.0
 31
0.0
1001
ACDBBLOCKREPETAG
1070
     1
1071
      174
1005
130DC4
  0
LINE
  5
130DC5
  8
OBJECT
 10
4089.0000000000032
 20
-620.0
 30
0.0
 11
4224.0
 21
-620.0
 31
0.0
1001
ACDBBLOCKREPETAG
1070
     1
1071
      175
1005
130DC5
  0
LINE
  5
130DC6
  8
OBJECT
 10
4224.0
 20
-620.0
 30
0.0
 11
4224.0
 21
-633.0
 31
0.0
1001
ACDBBLOCKREPETAG
1070
     1
1071
      176
1005
130DC6
  0
LINE
  5
130DC7
  8
OBJECT
 10
4116.6369002447627
 20
-650.6645712577473
 30
0.0
 11
4096.1702980000009
 21
-633.0
 31
0.0
1001
ACDBBLOCKREPETAG
1070
     1
1071
      177
1005
130DC7
  0
LINE
  5
130DC8
  8
OBJECT
 10
4201.0000000000036
 20
-640.65708264965724
 30
0.0
 11
4201.0000000000036
 21
-665.0
 31
0.0
1001
ACDBBLOCKREPETAG
1070
     1
1071
      178
1005
130DC8
  0
LINE
  5
130DC9
  8
OBJECT
 10
4155.1865574982548
 20
-665.0
 30
0.0
 11
4201.0000000000036
 21
-665.0
 31
0.0
1001
ACDBBLOCKREPETAG
1070
     1
1071
      179
1005
130DC9
  0
ARC
  5
130DCA
  8
OBJECT
 10
4110.5
 20
-666.5
 30
0.0
 40
84.0
 50
277.05348487097029
 51
1.023193303671255
1001
ACDBBLOCKREPETAG
1070
     1
1071
      180
1005
130DCA
  0
LINE
  5
130DCB
  8
OBJECT
 10
4086.0
 20
-754.1720031702107
 30
0.0
 11
4120.8148488128827
 21
-749.86428428270381
 31
0.0
1001
ACDBBLOCKREPETAG
1070
     1
1071
      181
1005
130DCB
  0
LINE
  5
130DCC
  8
OBJECT
 10
4086.0000000000032
 20
-755.00000000000102
 30
0.0
 11
4086.0000000000032
 21
-634.0
 31
0.0
1001
ACDBBLOCKREPETAG
1070
     1
1071
      182
1005
130DCC
  0
ARC
  5
130DCD
  8
OBJECT
 10
4083.0000000000032
 20
-755.00000000000102
 30
0.0
 40
3.0
 50
270.0
 51
0.0
1001
ACDBBLOCKREPETAG
1070
     1
1071
      183
1005
130DCD
  0
LINE
  5
130DCE
  8
OBJECT
 10
4096.1702980000009
 20
-633.0
 30
0.0
 11
4224.0
 21
-633.0
 31
0.0
1001
ACDBBLOCKREPETAG
1070
     1
1071
      184
1005
130DCE
  0
LINE
  5
130DCF
  8
OBJECT
 10
4105.0539138517233
 20
-640.65708264965724
 30
0.0
 11
4201.0000000000036
 21
-640.65708264965724
 31
0.0
1001
ACDBBLOCKREPETAG
1070
     1
1071
      185
1005
130DCF
  0
LINE
  5
130DD0
  8
OBJECT
 10
4205.0
 20
-635.89006764214901
 30
0.0
 11
4201.0000000000036
 21
-640.65708264965724
 31
0.0
1001
ACDBBLOCKREPETAG
1070
     1
1071
      186
1005
130DD0
  0
LINE
  5
130DD1
  8
OBJECT
 10
4089.0000000000032
 20
-620.0
 30
0.0
 11
4089.0000000000068
 21
-634.0
 31
0.0
1001
ACDBBLOCKREPETAG
1070
     1
1071
      187
1005
130DD1
  0
LINE
  5
130DD2
  8
HIDDEN
 10
4105.5
 20
-660.0
 30
0.0
 11
4194.5
 21
-660.0
 31
0.0
1001
ACDBBLOCKREPETAG
1070
     1
1071
      188
1005
130DD2
  0
LINE
  5
130DD3
  8
OBJECT
 10
4114.0
 20
-586.0
 30
0.0
 11
4122.0
 21
-586.0
 31
0.0
1001
ACDBBLOCKREPETAG
1070
     1
1071
      189
1005
130DD3
  0
LINE
  5
130DD4
  8
OBJECT
 10
4122.0
 20
-588.0
 30
0.0
 11
4122.0
 21
-586.0
 31
0.0
1001
ACDBBLOCKREPETAG
1070
     1
1071
      190
1005
130DD4
  0
LINE
  5
130DD5
  8
OBJECT
 10
4110.4944465005347
 20
-588.0
 30
0.0
 11
4125.5055534994644
 21
-588.0
 31
0.0
1001
ACDBBLOCKREPETAG
1070
     1
1071
      191
1005
130DD5
  0
LINE
  5
130DD6
  8
CENTER
 10
4150.0
 20
-679.77158855533253
 30
0.0
 11
4150.0
 21
-579.49999999999989
 31
0.0
1001
ACDBBLOCKREPETAG
1070
     1
1071
      193
1005
130DD6
  0
LINE
  5
130DD7
  8
OBJECT
 10
4080.0
 20
-758.0
 30
0.0
 11
4083.0000000000032
 21
-758.0000000000008
 31
0.0
1001
ACDBBLOCKREPETAG
1070
     1
1071
      194
1005
130DD7
  0
LINE
  5
130DD8
  8
OBJECT
 10
4080.0
 20
-634.0
 30
0.0
 11
4089.0000000000068
 21
-634.0
 31
0.0
1001
ACDBBLOCKREPETAG
1070
     1
1071
      195
1005
130DD8
  0
LINE
  5
130DD9
  8
OBJECT
 10
4114.2471969783946
 20
-594.49998110541117
 30
0.0
 11
4114.2471969783946
 21
-587.99998110541117
 31
0.0
1001
ACDBBLOCKREPETAG
1070
     1
1071
      196
1005
130DD9
  0
LINE
  5
130DDA
  8
OBJECT
 10
4125.5055534994644
 20
-594.5
 30
0.0
 11
4125.5055534994644
 21
-588.0
 31
0.0
1001
ACDBBLOCKREPETAG
1070
     1
1071
      197
1005
130DDA
  0
LINE
  5
130DDB
  8
OBJECT
 10
4121.7528030216054
 20
-594.49998110541117
 30
0.0
 11
4121.7528030216054
 21
-587.99998110541117
 31
0.0
1001
ACDBBLOCKREPETAG
1070
     1
1071
      198
1005
130DDB
  0
LINE
  5
130DDC
  8
OBJECT
 10
4210.0
 20
-588.0
 30
0.0
 11
4210.0
 21
-586.0
 31
0.0
1001
ACDBBLOCKREPETAG
1070
     1
1071
      199
1005
130DDC
  0
LINE
  5
130DDD
  8
OBJECT
 10
4210.0
 20
-620.0
 30
0.0
 11
4210.0
 21
-607.5
 31
0.0
1001
ACDBBLOCKREPETAG
1070
     1
1071
      200
1005
130DDD
  0
LINE
  5
130DDE
  8
OBJECT
 10
4218.0
 20
-620.0
 30
0.0
 11
4218.0
 21
-607.5
 31
0.0
1001
ACDBBLOCKREPETAG
1070
     1
1071
      201
1005
130DDE
  0
LINE
  5
130DDF
  8
OBJECT
 10
4206.4944465005347
 20
-594.5
 30
0.0
 11
4206.4944465005347
 21
-588.0
 31
0.0
1001
ACDBBLOCKREPETAG
1070
     1
1071
      202
1005
130DDF
  0
LINE
  5
130DE0
  8
OBJECT
 10
4205.0
 20
-633.0
 30
0.0
 11
4205.0
 21
-638.0
 31
0.0
1001
ACDBBLOCKREPETAG
1070
     1
1071
      203
1005
130DE0
  0
LINE
  5
130DE1
  8
OBJECT
 10
4205.0
 20
-638.0
 30
0.0
 11
4223.0
 21
-638.0
 31
0.0
1001
ACDBBLOCKREPETAG
1070
     1
1071
      204
1005
130DE1
  0
LINE
  5
130DE2
  8
OBJECT
 10
4223.0
 20
-633.0
 30
0.0
 11
4223.0
 21
-638.0
 31
0.0
1001
ACDBBLOCKREPETAG
1070
     1
1071
      205
1005
130DE2
  0
LINE
  5
130DE3
  8
OBJECT
 10
4210.0
 20
-586.0
 30
0.0
 11
4218.0
 21
-586.0
 31
0.0
1001
ACDBBLOCKREPETAG
1070
     1
1071
      206
1005
130DE3
  0
LINE
  5
130DE4
  8
OBJECT
 10
4218.0
 20
-588.0
 30
0.0
 11
4218.0
 21
-586.0
 31
0.0
1001
ACDBBLOCKREPETAG
1070
     1
1071
      207
1005
130DE4
  0
LINE
  5
130DE5
  8
OBJECT
 10
4206.4944465005347
 20
-588.0
 30
0.0
 11
4221.5055534994644
 21
-588.0
 31
0.0
1001
ACDBBLOCKREPETAG
1070
     1
1071
      208
1005
130DE5
  0
LINE
  5
130DE6
  8
OBJECT
 10
4210.2471969783946
 20
-594.49998110541117
 30
0.0
 11
4210.2471969783946
 21
-587.99998110541117
 31
0.0
1001
ACDBBLOCKREPETAG
1070
     1
1071
      209
1005
130DE6
  0
LINE
  5
130DE7
  8
OBJECT
 10
4221.5055534994644
 20
-594.5
 30
0.0
 11
4221.5055534994644
 21
-588.0
 31
0.0
1001
ACDBBLOCKREPETAG
1070
     1
1071
      210
1005
130DE7
  0
LINE
  5
130DE8
  8
OBJECT
 10
4217.7528030216054
 20
-594.49998110541117
 30
0.0
 11
4217.7528030216054
 21
-587.99998110541117
 31
0.0
1001
ACDBBLOCKREPETAG
1070
     1
1071
      211
1005
130DE8
  0
LINE
  5
130DE9
  8
CENTER
 10
1899.0
 20
-199.99999999999909
 30
0.0
 11
1920.0
 21
-199.99999999999909
 31
0.0
1001
ACDBBLOCKREPETAG
1070
     1
1071
        0
1005
130DE9
  0
LINE
  5
130DEA
  8
OBJECT
 10
1917.0
 20
-261.99999999999909
 30
0.0
 11
1920.0
 21
-261.99999999999909
 31
0.0
1001
ACDBBLOCKREPETAG
1070
     1
1071
        1
1005
130DEA
  0
ARC
  5
130DEB
  8
OBJECT
 10
1917.0
 20
-258.99999999999909
 30
0.0
 40
3.0
 50
180.0
 51
270.0
1001
ACDBBLOCKREPETAG
1070
     1
1071
        2
1005
130DEB
  0
LINE
  5
130DEC
  8
OBJECT
 10
1920.0
 20
-137.99999999999909
 30
0.0
 11
1917.0
 21
-137.99999999999909
 31
0.0
1001
ACDBBLOCKREPETAG
1070
     1
1071
        3
1005
130DEC
  0
ARC
  5
130DED
  8
OBJECT
 10
1917.0
 20
-140.99999999999909
 30
0.0
 40
3.0
 50
90.0
 51
180.0
1001
ACDBBLOCKREPETAG
1070
     1
1071
        4
1005
130DED
  0
LINE
  5
130DEE
  8
OBJECT
 10
1914.0
 20
-140.99999999999909
 30
0.0
 11
1914.0
 21
-258.99999999999909
 31
0.0
1001
ACDBBLOCKREPETAG
1070
     1
1071
        5
1005
130DEE
  0
LINE
  5
130DEF
  8
OBJECT
 10
2062.0
 20
-332.99999999999898
 30
0.0
 11
2062.0
 21
-339.99999999999909
 31
0.0
1001
ACDBBLOCKREPETAG
1070
     1
1071
       47
1005
130DEF
  0
LINE
  5
130DF0
  8
OBJECT
 10
2062.0
 20
-339.99999999999909
 30
0.0
 11
1938.0
 21
-339.99999999999909
 31
0.0
1001
ACDBBLOCKREPETAG
1070
     1
1071
       48
1005
130DF0
  0
LINE
  5
130DF1
  8
OBJECT
 10
1938.0
 20
-339.99999999999909
 30
0.0
 11
1938.0
 21
-332.99999999999898
 31
0.0
1001
ACDBBLOCKREPETAG
1070
     1
1071
       49
1005
130DF1
  0
LINE
  5
130DF2
  8
OBJECT
 10
1938.0
 20
-332.99999999999898
 30
0.0
 11
2062.0
 21
-332.99999999999898
 31
0.0
1001
ACDBBLOCKREPETAG
1070
     1
1071
       50
1005
130DF2
  0
LINE
  5
130DF3
  8
CENTER
 10
2000.0
 20
-354.99999999999909
 30
0.0
 11
2000.0
 21
-279.99999999999909
 31
0.0
1001
ACDBBLOCKREPETAG
1070
     1
1071
       51
1005
130DF3
  0
LINE
  5
130DF4
  8
OBJECT
 10
2059.0
 20
-332.99999999999898
 30
0.0
 11
2059.0
 21
-296.99999999999898
 31
0.0
1001
ACDBBLOCKREPETAG
1070
     1
1071
       52
1005
130DF4
  0
LINE
  5
130DF5
  8
OBJECT
 10
2059.0
 20
-296.99999999999898
 30
0.0
 11
1941.0
 21
-296.99999999999898
 31
0.0
1001
ACDBBLOCKREPETAG
1070
     1
1071
       53
1005
130DF5
  0
LINE
  5
130DF6
  8
OBJECT
 10
1941.0
 20
-296.99999999999898
 30
0.0
 11
1941.0
 21
-332.99999999999898
 31
0.0
1001
ACDBBLOCKREPETAG
1070
     1
1071
       54
1005
130DF6
  0
LINE
  5
130DF7
  8
OBJECT
 10
2054.5
 20
-292.99999999999898
 30
0.0
 11
2054.5
 21
-285.99999999999898
 31
0.0
1001
ACDBBLOCKREPETAG
1070
     1
1071
       55
1005
130DF7
  0
LINE
  5
130DF8
  8
OBJECT
 10
1945.5
 20
-285.99999999999898
 30
0.0
 11
1945.5
 21
-292.99999999999898
 31
0.0
1001
ACDBBLOCKREPETAG
1070
     1
1071
       56
1005
130DF8
  0
LINE
  5
130DF9
  8
OBJECT
 10
1945.5
 20
-292.99999999999898
 30
0.0
 11
2054.5
 21
-292.99999999999898
 31
0.0
1001
ACDBBLOCKREPETAG
1070
     1
1071
       57
1005
130DF9
  0
LINE
  5
130DFA
  8
OBJECT
 10
2059.0
 20
-296.99999999999898
 30
0.0
 11
2054.5
 21
-292.99999999999898
 31
0.0
1001
ACDBBLOCKREPETAG
1070
     1
1071
       58
1005
130DFA
  0
LINE
  5
130DFB
  8
OBJECT
 10
1941.0
 20
-296.99999999999898
 30
0.0
 11
1945.5
 21
-292.99999999999898
 31
0.0
1001
ACDBBLOCKREPETAG
1070
     1
1071
       59
1005
130DFB
  0
LINE
  5
130DFC
  8
OBJECT
 10
2062.0
 20
-283.0
 30
0.0
 11
2062.0
 21
-279.99999999999909
 31
0.0
1001
ACDBBLOCKREPETAG
1070
     1
1071
       60
1005
130DFC
  0
ARC
  5
130DFD
  8
OBJECT
 10
2059.0
 20
-283.0
 30
0.0
 40
3.0
 50
270.0
 51
0.0
1001
ACDBBLOCKREPETAG
1070
     1
1071
       61
1005
130DFD
  0
LINE
  5
130DFE
  8
OBJECT
 10
1938.0
 20
-279.99999999999909
 30
0.0
 11
1938.0
 21
-282.99999999999818
 31
0.0
1001
ACDBBLOCKREPETAG
1070
     1
1071
       62
1005
130DFE
  0
ARC
  5
130DFF
  8
OBJECT
 10
1941.0
 20
-282.99999999999818
 30
0.0
 40
3.0
 50
180.0
 51
270.0
1001
ACDBBLOCKREPETAG
1070
     1
1071
       63
1005
130DFF
  0
LINE
  5
130E00
  8
OBJECT
 10
1941.0
 20
-285.99999999999818
 30
0.0
 11
2059.0
 21
-286.0
 31
0.0
1001
ACDBBLOCKREPETAG
1070
     1
1071
       64
1005
130E00
  0
LINE
  5
130E01
  8
HIDDEN
 10
2044.5
 20
-287.99999999999909
 30
0.0
 11
1955.5
 21
-287.99999999999909
 31
0.0
1001
ACDBBLOCKREPETAG
1070
     1
1071
       65
1005
130E01
  0
LINE
  5
130E02
  8
CENTER
 10
2080.0
 20
-199.99999999999909
 30
0.0
 11
2239.0
 21
-199.99999999999909
 31
0.0
1001
ACDBBLOCKREPETAG
1070
     1
1071
      155
1005
130E02
  0
LINE
  5
130E03
  8
OBJECT
 10
2080.0
 20
-261.99999999999909
 30
0.0
 11
2083.0
 21
-261.99999999999909
 31
0.0
1001
ACDBBLOCKREPETAG
1070
     1
1071
      156
1005
130E03
  0
ARC
  5
130E04
  8
OBJECT
 10
2083.0
 20
-258.99999999999909
 30
0.0
 40
3.0
 50
270.0
 51
0.0
1001
ACDBBLOCKREPETAG
1070
     1
1071
      157
1005
130E04
  0
LINE
  5
130E05
  8
OBJECT
 10
2080.0
 20
-138.0000000000027
 30
0.0
 11
2083.0
 21
-138.0000000000027
 31
0.0
1001
ACDBBLOCKREPETAG
1070
     1
1071
      158
1005
130E05
  0
LINE
  5
130E06
  8
OBJECT
 10
2086.0
 20
-140.99999999999909
 30
0.0
 11
2108.6547275935341
 21
-140.9999999999954
 31
0.0
1001
ACDBBLOCKREPETAG
1070
     1
1071
      159
1005
130E06
  0
LINE
  5
130E07
  8
OBJECT
 10
2086.0
 20
-259.00000000000267
 30
0.0
 11
2108.6547275935341
 21
-258.99999999999909
 31
0.0
1001
ACDBBLOCKREPETAG
1070
     1
1071
      160
1005
130E07
  0
LINE
  5
130E08
  8
CENTER
 10
2150.0
 20
-123.5195984073716
 30
0.0
 11
2150.0
 21
-276.48040159262649
 31
0.0
1001
ACDBBLOCKREPETAG
1070
     1
1071
      161
1005
130E08
  0
LINE
  5
130E09
  8
OBJECT
 10
2086.0
 20
-141.0000000000027
 30
0.0
 11
2086.0
 21
-258.99999999999909
 31
0.0
1001
ACDBBLOCKREPETAG
1070
     1
1071
      162
1005
130E09
  0
ARC
  5
130E0A
  8
OBJECT
 10
2083.0
 20
-141.0000000000027
 30
0.0
 40
3.0
 50
0.0
 51
90.0
1001
ACDBBLOCKREPETAG
1070
     1
1071
      163
1005
130E0A
  0
ARC
  5
130E0B
  8
OBJECT
 10
2150.0
 20
-199.99999999999909
 30
0.0
 40
61.0
 50
37.167285461274467
 51
82.832714538705744
1001
ACDBBLOCKREPETAG
1070
     1
1071
      165
1005
130E0B
  0
ARC
  5
130E0C
  8
OBJECT
 10
2150.0
 20
-199.99999999999909
 30
0.0
 40
61.0
 50
157.16728546126831
 51
202.83271453873161
1001
ACDBBLOCKREPETAG
1070
     1
1071
      166
1005
130E0C
  0
ARC
  5
130E0D
  8
OBJECT
 10
2150.0
 20
-199.99999999999909
 30
0.0
 40
61.0
 50
277.16728546129423
 51
322.83271453872419
1001
ACDBBLOCKREPETAG
1070
     1
1071
      167
1005
130E0D
  0
CIRCLE
  5
130E0E
  8
SLIM
 10
2214.0
 20
-199.99999999999909
 30
0.0
 40
4.0
1001
ACDBBLOCKREPETAG
1070
     1
1071
      168
1005
130E0E
  0
ARC
  5
130E0F
  8
OBJECT
 10
2214.0
 20
-199.99999999999909
 30
0.0
 40
10.0
 50
322.83271453872419
 51
37.167285461274467
1001
ACDBBLOCKREPETAG
1070
     1
1071
      169
1005
130E0F
  0
LINE
  5
130E10
  8
OBJECT
 10
2198.6093749999959
 20
-163.14720279124501
 30
0.0
 11
2221.96875
 21
-193.9585578346296
 31
0.0
1001
ACDBBLOCKREPETAG
1070
     1
1071
      170
1005
130E10
  0
LINE
  5
130E11
  8
OBJECT
 10
2198.6093749999959
 20
-236.8527972087532
 30
0.0
 11
2221.96875
 21
-206.04144216536861
 31
0.0
1001
ACDBBLOCKREPETAG
1070
     1
1071
      171
1005
130E11
  0
CIRCLE
  5
130E12
  8
SLIM
 10
2118.0
 20
-144.5743741577962
 30
0.0
 40
3.9999999999999991
1001
ACDBBLOCKREPETAG
1070
     1
1071
      172
1005
130E12
  0
ARC
  5
130E13
  8
OBJECT
 10
2118.0
 20
-144.5743741577962
 30
0.0
 40
9.9999999999999982
 50
82.832714538705744
 51
157.16728546126831
1001
ACDBBLOCKREPETAG
1070
     1
1071
      173
1005
130E13
  0
LINE
  5
130E14
  8
OBJECT
 10
2093.7798539167052
 20
-176.32944499229319
 30
0.0
 11
2108.783582609296
 21
-140.6939553040711
 31
0.0
1001
ACDBBLOCKREPETAG
1070
     1
1071
      174
1005
130E14
  0
LINE
  5
130E15
  8
OBJECT
 10
2157.6107710832989
 20
-139.47664778353919
 30
0.0
 11
2119.247667390704
 21
-134.65251313870161
 31
0.0
1001
ACDBBLOCKREPETAG
1070
     1
1071
      175
1005
130E15
  0
CIRCLE
  5
130E16
  8
SLIM
 10
2118.0
 20
-255.4256258422019
 30
0.0
 40
4.0
1001
ACDBBLOCKREPETAG
1070
     1
1071
      176
1005
130E16
  0
ARC
  5
130E17
  8
OBJECT
 10
2118.0
 20
-255.4256258422019
 30
0.0
 40
10.0
 50
202.83271453873161
 51
277.16728546129423
1001
ACDBBLOCKREPETAG
1070
     1
1071
      177
1005
130E17
  0
LINE
  5
130E18
  8
OBJECT
 10
2157.6107710832989
 20
-260.52335221645899
 30
0.0
 11
2119.247667390704
 21
-265.3474868612966
 31
0.0
1001
ACDBBLOCKREPETAG
1070
     1
1071
      178
1005
130E18
  0
LINE
  5
130E19
  8
OBJECT
 10
2093.7798539167052
 20
-223.67055500770491
 30
0.0
 11
2108.783582609296
 21
-259.30604469592708
 31
0.0
1001
ACDBBLOCKREPETAG
1070
     1
1071
      179
1005
130E19
  0
CIRCLE
  5
130E1A
  8
OBJECT
 10
2150.0
 20
-199.99999999999909
 30
0.0
 40
46.0
1001
ACDBBLOCKREPETAG
1070
     1
1071
      180
1005
130E1A
  0
POLYLINE
  5
130E1B
  8
SLIM
 66
     1
 10
0.0
 20
0.0
 30
0.0
 70
     1
1001
ACDBBLOCKREPETAG
1070
     1
1071
      181
1005
130E1B
  0
VERTEX
  5
131225
  8
SLIM
 10
2210.247223250266
 20
-193.49999999999909
 30
0.0
  0
VERTEX
  5
131226
  8
SLIM
 10
2206.494446500536
 20
-199.99999999999909
 30
0.0
  0
VERTEX
  5
131227
  8
SLIM
 10
2210.247223250266
 20
-206.49999999999909
 30
0.0
  0
VERTEX
  5
131228
  8
SLIM
 10
2217.752776749734
 20
-206.49999999999909
 30
0.0
  0
VERTEX
  5
131229
  8
SLIM
 10
2221.505553499464
 20
-199.99999999999909
 30
0.0
  0
VERTEX
  5
13122A
  8
SLIM
 10
2217.752776749734
 20
-193.49999999999909
 30
0.0
  0
SEQEND
  5
13122B
  8
SLIM
  0
POLYLINE
  5
130E1C
  8
SLIM
 66
     1
 10
0.0
 20
0.0
 30
0.0
 70
     1
1001
ACDBBLOCKREPETAG
1070
     1
1071
      182
1005
130E1C
  0
VERTEX
  5
13122C
  8
SLIM
 10
2114.2472232502701
 20
-151.0743741577962
 30
0.0
  0
VERTEX
  5
13122D
  8
SLIM
 10
2121.752776749734
 20
-151.0743741577962
 30
0.0
  0
VERTEX
  5
13122E
  8
SLIM
 10
2125.5055534994649
 20
-144.5743741577962
 30
0.0
  0
VERTEX
  5
13122F
  8
SLIM
 10
2121.7527767497309
 20
-138.07437415779259
 30
0.0
  0
VERTEX
  5
131230
  8
SLIM
 10
2114.2472232502701
 20
-138.0743741577962
 30
0.0
  0
VERTEX
  5
131231
  8
SLIM
 10
2110.494446500536
 20
-144.57437415779259
 30
0.0
  0
SEQEND
  5
131232
  8
SLIM
  0
POLYLINE
  5
130E1D
  8
SLIM
 66
     1
 10
0.0
 20
0.0
 30
0.0
 70
     1
1001
ACDBBLOCKREPETAG
1070
     1
1071
      183
1005
130E1D
  0
VERTEX
  5
131233
  8
SLIM
 10
2125.5055534994649
 20
-255.4256258422019
 30
0.0
  0
VERTEX
  5
131234
  8
SLIM
 10
2121.7527767497309
 20
-248.9256258422019
 30
0.0
  0
VERTEX
  5
131235
  8
SLIM
 10
2114.2472232502701
 20
-248.9256258422019
 30
0.0
  0
VERTEX
  5
131236
  8
SLIM
 10
2110.494446500536
 20
-255.42562584220559
 30
0.0
  0
VERTEX
  5
131237
  8
SLIM
 10
2114.247223250266
 20
-261.9256258422019
 30
0.0
  0
VERTEX
  5
131238
  8
SLIM
 10
2121.7527767497309
 20
-261.92562584220559
 30
0.0
  0
SEQEND
  5
131239
  8
SLIM
  0
LINE
  5
130E1E
  8
OBJECT
 10
1917.0
 20
-634.0
 30
0.0
 11
1920.0
 21
-634.0
 31
0.0
1001
ACDBBLOCKREPETAG
1070
     1
1071
        1
1005
130E1E
  0
ARC
  5
130E1F
  8
OBJECT
 10
1917.0
 20
-637.0
 30
0.0
 40
3.0
 50
90.0
 51
180.0
1001
ACDBBLOCKREPETAG
1070
     1
1071
        2
1005
130E1F
  0
LINE
  5
130E20
  8
OBJECT
 10
1920.0
 20
-758.0
 30
0.0
 11
1917.0
 21
-758.0
 31
0.0
1001
ACDBBLOCKREPETAG
1070
     1
1071
        3
1005
130E20
  0
ARC
  5
130E21
  8
OBJECT
 10
1917.0
 20
-755.0
 30
0.0
 40
3.0
 50
180.0
 51
270.0
1001
ACDBBLOCKREPETAG
1070
     1
1071
        4
1005
130E21
  0
LINE
  5
130E22
  8
OBJECT
 10
1914.0
 20
-755.0
 30
0.0
 11
1914.0
 21
-637.0
 31
0.0
1001
ACDBBLOCKREPETAG
1070
     1
1071
        5
1005
130E22
  0
LINE
  5
130E23
  8
CENTER
 10
2077.0
 20
-696.0
 30
0.0
 11
1923.0
 21
-696.0
 31
0.0
1001
ACDBBLOCKREPETAG
1070
     1
1071
       17
1005
130E23
  0
CIRCLE
  5
130E24
  8
OBJECT
 10
2000.0
 20
-696.0
 30
0.0
 40
41.5
1001
ACDBBLOCKREPETAG
1070
     1
1071
       19
1005
130E24
  0
CIRCLE
  5
130E25
  8
OBJECT
 10
2000.0
 20
-696.0
 30
0.0
 40
54.0
1001
ACDBBLOCKREPETAG
1070
     1
1071
       20
1005
130E25
  0
ARC
  5
130E26
  8
OBJECT
 10
2000.0
 20
-696.0
 30
0.0
 40
62.0
 50
287.89655112920718
 51
252.10344887079279
1001
ACDBBLOCKREPETAG
1070
     1
1071
       21
1005
130E26
  0
LINE
  5
130E27
  8
OBJECT
 10
1980.947441116743
 20
-755.0
 30
0.0
 11
2019.052558883257
 21
-755.0
 31
0.0
1001
ACDBBLOCKREPETAG
1070
     1
1071
       22
1005
130E27
  0
LINE
  5
130E28
  8
OBJECT
 10
2114.0
 20
-588.0
 30
0.0
 11
2114.0
 21
-586.0
 31
0.0
1001
ACDBBLOCKREPETAG
1070
     1
1071
      157
1005
130E28
  0
ARC
  5
130E29
  8
OBJECT
 10
2155.1865574982548
 20
-606.0
 30
0.0
 40
59.0
 50
229.20276883323919
 51
270.0
1001
ACDBBLOCKREPETAG
1070
     1
1071
      158
1005
130E29
  0
LINE
  5
130E2A
  8
OBJECT
 10
2224.0
 20
-594.5
 30
0.0
 11
2089.0
 21
-594.5
 31
0.0
1001
ACDBBLOCKREPETAG
1070
     1
1071
      159
1005
130E2A
  0
LINE
  5
130E2B
  8
OBJECT
 10
2089.0
 20
-607.5
 30
0.0
 11
2224.0
 21
-607.5
 31
0.0
1001
ACDBBLOCKREPETAG
1070
     1
1071
      160
1005
130E2B
  0
LINE
  5
130E2C
  8
OBJECT
 10
2089.0
 20
-594.5
 30
0.0
 11
2089.0
 21
-607.5
 31
0.0
1001
ACDBBLOCKREPETAG
1070
     1
1071
      161
1005
130E2C
  0
LINE
  5
130E2D
  8
OBJECT
 10
2096.0
 20
-616.5
 30
0.0
 11
2096.0
 21
-607.5
 31
0.0
1001
ACDBBLOCKREPETAG
1070
     1
1071
      162
1005
130E2D
  0
LINE
  5
130E2E
  8
OBJECT
 10
2114.0
 20
-620.0
 30
0.0
 11
2114.0
 21
-607.5
 31
0.0
1001
ACDBBLOCKREPETAG
1070
     1
1071
      163
1005
130E2E
  0
LINE
  5
130E2F
  8
OBJECT
 10
2204.0
 20
-616.5
 30
0.0
 11
2204.0
 21
-607.5
 31
0.0
1001
ACDBBLOCKREPETAG
1070
     1
1071
      164
1005
130E2F
  0
LINE
  5
130E30
  8
OBJECT
 10
2224.0
 20
-594.5
 30
0.0
 11
2224.0
 21
-607.5
 31
0.0
1001
ACDBBLOCKREPETAG
1070
     1
1071
      165
1005
130E30
  0
LINE
  5
130E31
  8
OBJECT
 10
2122.0
 20
-620.0
 30
0.0
 11
2122.0
 21
-607.5
 31
0.0
1001
ACDBBLOCKREPETAG
1070
     1
1071
      166
1005
130E31
  0
LINE
  5
130E32
  8
OBJECT
 10
2114.0
 20
-616.5
 30
0.0
 11
2095.0
 21
-616.5
 31
0.0
1001
ACDBBLOCKREPETAG
1070
     1
1071
      167
1005
130E32
  0
LINE
  5
130E33
  8
OBJECT
 10
2095.0
 20
-620.0
 30
0.0
 11
2095.0
 21
-616.5
 31
0.0
1001
ACDBBLOCKREPETAG
1070
     1
1071
      168
1005
130E33
  0
LINE
  5
130E34
  8
OBJECT
 10
2122.0
 20
-616.5
 30
0.0
 11
2205.0
 21
-616.5
 31
0.0
1001
ACDBBLOCKREPETAG
1070
     1
1071
      169
1005
130E34
  0
LINE
  5
130E35
  8
OBJECT
 10
2205.0
 20
-616.5
 30
0.0
 11
2205.0
 21
-620.0
 31
0.0
1001
ACDBBLOCKREPETAG
1070
     1
1071
      170
1005
130E35
  0
LINE
  5
130E36
  8
OBJECT
 10
2110.494446500536
 20
-594.5
 30
0.0
 11
2110.494446500536
 21
-588.0
 31
0.0
1001
ACDBBLOCKREPETAG
1070
     1
1071
      171
1005
130E36
  0
LINE
  5
130E37
  8
OBJECT
 10
2109.0
 20
-633.0
 30
0.0
 11
2109.0
 21
-638.0
 31
0.0
1001
ACDBBLOCKREPETAG
1070
     1
1071
      172
1005
130E37
  0
LINE
  5
130E38
  8
OBJECT
 10
2109.0
 20
-638.0
 30
0.0
 11
2127.0
 21
-638.0
 31
0.0
1001
ACDBBLOCKREPETAG
1070
     1
1071
      173
1005
130E38
  0
LINE
  5
130E39
  8
OBJECT
 10
2127.0
 20
-633.0
 30
0.0
 11
2127.0
 21
-638.0
 31
0.0
1001
ACDBBLOCKREPETAG
1070
     1
1071
      174
1005
130E39
  0
LINE
  5
130E3A
  8
OBJECT
 10
2089.0000000000032
 20
-620.0
 30
0.0
 11
2224.0
 21
-620.0
 31
0.0
1001
ACDBBLOCKREPETAG
1070
     1
1071
      175
1005
130E3A
  0
LINE
  5
130E3B
  8
OBJECT
 10
2224.0
 20
-620.0
 30
0.0
 11
2224.0
 21
-633.0
 31
0.0
1001
ACDBBLOCKREPETAG
1070
     1
1071
      176
1005
130E3B
  0
LINE
  5
130E3C
  8
OBJECT
 10
2116.636900244765
 20
-650.6645712577473
 30
0.0
 11
2096.170298
 21
-633.0
 31
0.0
1001
ACDBBLOCKREPETAG
1070
     1
1071
      177
1005
130E3C
  0
LINE
  5
130E3D
  8
OBJECT
 10
2201.0000000000041
 20
-640.65708264965724
 30
0.0
 11
2201.0000000000041
 21
-665.0
 31
0.0
1001
ACDBBLOCKREPETAG
1070
     1
1071
      178
1005
130E3D
  0
LINE
  5
130E3E
  8
OBJECT
 10
2155.1865574982548
 20
-665.0
 30
0.0
 11
2201.0000000000041
 21
-665.0
 31
0.0
1001
ACDBBLOCKREPETAG
1070
     1
1071
      179
1005
130E3E
  0
ARC
  5
130E3F
  8
OBJECT
 10
2110.5
 20
-666.5
 30
0.0
 40
84.0
 50
277.05348487097029
 51
1.023193303671255
1001
ACDBBLOCKREPETAG
1070
     1
1071
      180
1005
130E3F
  0
LINE
  5
130E40
  8
OBJECT
 10
2086.0
 20
-754.1720031702107
 30
0.0
 11
2120.8148488128832
 21
-749.86428428270381
 31
0.0
1001
ACDBBLOCKREPETAG
1070
     1
1071
      181
1005
130E40
  0
LINE
  5
130E41
  8
OBJECT
 10
2086.0000000000041
 20
-755.00000000000102
 30
0.0
 11
2086.0000000000041
 21
-634.0
 31
0.0
1001
ACDBBLOCKREPETAG
1070
     1
1071
      182
1005
130E41
  0
ARC
  5
130E42
  8
OBJECT
 10
2083.0000000000041
 20
-755.00000000000102
 30
0.0
 40
3.0
 50
270.0
 51
0.0
1001
ACDBBLOCKREPETAG
1070
     1
1071
      183
1005
130E42
  0
LINE
  5
130E43
  8
OBJECT
 10
2096.170298
 20
-633.0
 30
0.0
 11
2224.0
 21
-633.0
 31
0.0
1001
ACDBBLOCKREPETAG
1070
     1
1071
      184
1005
130E43
  0
LINE
  5
130E44
  8
OBJECT
 10
2105.0539138517229
 20
-640.65708264965724
 30
0.0
 11
2201.0000000000041
 21
-640.65708264965724
 31
0.0
1001
ACDBBLOCKREPETAG
1070
     1
1071
      185
1005
130E44
  0
LINE
  5
130E45
  8
OBJECT
 10
2205.0
 20
-635.89006764214901
 30
0.0
 11
2201.0000000000041
 21
-640.65708264965724
 31
0.0
1001
ACDBBLOCKREPETAG
1070
     1
1071
      186
1005
130E45
  0
LINE
  5
130E46
  8
OBJECT
 10
2089.0000000000032
 20
-620.0
 30
0.0
 11
2089.0000000000068
 21
-634.0
 31
0.0
1001
ACDBBLOCKREPETAG
1070
     1
1071
      187
1005
130E46
  0
LINE
  5
130E47
  8
HIDDEN
 10
2105.5
 20
-660.0
 30
0.0
 11
2194.5
 21
-660.0
 31
0.0
1001
ACDBBLOCKREPETAG
1070
     1
1071
      188
1005
130E47
  0
LINE
  5
130E48
  8
OBJECT
 10
2114.0
 20
-586.0
 30
0.0
 11
2122.0
 21
-586.0
 31
0.0
1001
ACDBBLOCKREPETAG
1070
     1
1071
      189
1005
130E48
  0
LINE
  5
130E49
  8
OBJECT
 10
2122.0
 20
-588.0
 30
0.0
 11
2122.0
 21
-586.0
 31
0.0
1001
ACDBBLOCKREPETAG
1070
     1
1071
      190
1005
130E49
  0
LINE
  5
130E4A
  8
OBJECT
 10
2110.494446500536
 20
-588.0
 30
0.0
 11
2125.5055534994649
 21
-588.0
 31
0.0
1001
ACDBBLOCKREPETAG
1070
     1
1071
      191
1005
130E4A
  0
LINE
  5
130E4B
  8
CENTER
 10
2150.0
 20
-679.77158855533253
 30
0.0
 11
2150.0
 21
-579.49999999999989
 31
0.0
1001
ACDBBLOCKREPETAG
1070
     1
1071
      193
1005
130E4B
  0
LINE
  5
130E4C
  8
OBJECT
 10
2080.0
 20
-758.0
 30
0.0
 11
2083.0000000000041
 21
-758.0000000000008
 31
0.0
1001
ACDBBLOCKREPETAG
1070
     1
1071
      194
1005
130E4C
  0
LINE
  5
130E4D
  8
OBJECT
 10
2080.0
 20
-634.0
 30
0.0
 11
2089.0000000000068
 21
-634.0
 31
0.0
1001
ACDBBLOCKREPETAG
1070
     1
1071
      195
1005
130E4D
  0
LINE
  5
130E4E
  8
OBJECT
 10
2114.247196978396
 20
-594.49998110541117
 30
0.0
 11
2114.247196978396
 21
-587.99998110541117
 31
0.0
1001
ACDBBLOCKREPETAG
1070
     1
1071
      196
1005
130E4E
  0
LINE
  5
130E4F
  8
OBJECT
 10
2125.5055534994649
 20
-594.5
 30
0.0
 11
2125.5055534994649
 21
-588.0
 31
0.0
1001
ACDBBLOCKREPETAG
1070
     1
1071
      197
1005
130E4F
  0
LINE
  5
130E50
  8
OBJECT
 10
2121.7528030216049
 20
-594.49998110541117
 30
0.0
 11
2121.7528030216049
 21
-587.99998110541117
 31
0.0
1001
ACDBBLOCKREPETAG
1070
     1
1071
      198
1005
130E50
  0
LINE
  5
130E51
  8
OBJECT
 10
2210.0
 20
-588.0
 30
0.0
 11
2210.0
 21
-586.0
 31
0.0
1001
ACDBBLOCKREPETAG
1070
     1
1071
      199
1005
130E51
  0
LINE
  5
130E52
  8
OBJECT
 10
2210.0
 20
-620.0
 30
0.0
 11
2210.0
 21
-607.5
 31
0.0
1001
ACDBBLOCKREPETAG
1070
     1
1071
      200
1005
130E52
  0
LINE
  5
130E53
  8
OBJECT
 10
2218.0
 20
-620.0
 30
0.0
 11
2218.0
 21
-607.5
 31
0.0
1001
ACDBBLOCKREPETAG
1070
     1
1071
      201
1005
130E53
  0
LINE
  5
130E54
  8
OBJECT
 10
2206.494446500536
 20
-594.5
 30
0.0
 11
2206.494446500536
 21
-588.0
 31
0.0
1001
ACDBBLOCKREPETAG
1070
     1
1071
      202
1005
130E54
  0
LINE
  5
130E55
  8
OBJECT
 10
2205.0
 20
-633.0
 30
0.0
 11
2205.0
 21
-638.0
 31
0.0
1001
ACDBBLOCKREPETAG
1070
     1
1071
      203
1005
130E55
  0
LINE
  5
130E56
  8
OBJECT
 10
2205.0
 20
-638.0
 30
0.0
 11
2223.0
 21
-638.0
 31
0.0
1001
ACDBBLOCKREPETAG
1070
     1
1071
      204
1005
130E56
  0
LINE
  5
130E57
  8
OBJECT
 10
2223.0
 20
-633.0
 30
0.0
 11
2223.0
 21
-638.0
 31
0.0
1001
ACDBBLOCKREPETAG
1070
     1
1071
      205
1005
130E57
  0
LINE
  5
130E58
  8
OBJECT
 10
2210.0
 20
-586.0
 30
0.0
 11
2218.0
 21
-586.0
 31
0.0
1001
ACDBBLOCKREPETAG
1070
     1
1071
      206
1005
130E58
  0
LINE
  5
130E59
  8
OBJECT
 10
2218.0
 20
-588.0
 30
0.0
 11
2218.0
 21
-586.0
 31
0.0
1001
ACDBBLOCKREPETAG
1070
     1
1071
      207
1005
130E59
  0
LINE
  5
130E5A
  8
OBJECT
 10
2206.494446500536
 20
-588.0
 30
0.0
 11
2221.505553499464
 21
-588.0
 31
0.0
1001
ACDBBLOCKREPETAG
1070
     1
1071
      208
1005
130E5A
  0
LINE
  5
130E5B
  8
OBJECT
 10
2210.247196978396
 20
-594.49998110541117
 30
0.0
 11
2210.247196978396
 21
-587.99998110541117
 31
0.0
1001
ACDBBLOCKREPETAG
1070
     1
1071
      209
1005
130E5B
  0
LINE
  5
130E5C
  8
OBJECT
 10
2221.505553499464
 20
-594.5
 30
0.0
 11
2221.505553499464
 21
-588.0
 31
0.0
1001
ACDBBLOCKREPETAG
1070
     1
1071
      210
1005
130E5C
  0
LINE
  5
130E5D
  8
OBJECT
 10
2217.7528030216049
 20
-594.49998110541117
 30
0.0
 11
2217.7528030216049
 21
-587.99998110541117
 31
0.0
1001
ACDBBLOCKREPETAG
1070
     1
1071
      211
1005
130E5D
  0
TEXT
  5
130E5E
  8
SLIM
 10
0.0000035665234464
 20
24.000004585317601
 30
0.0
 40
79.999999999972701
  1
枝管バリエーション
 41
0.75
1001
ACDBBLOCKREPETAG
1070
     1
1071
      119
1005
12CC4A
  0
TEXT
  5
130E5F
  8
SLIM
 10
1837.75
 20
282.50000000000011
 30
0.0
 40
35.0
  1
（枝管サイズ毎に寸法が異なります。管底の位置は50～100で同じです）
 41
0.75
  0
TEXT
  5
130E60
  8
SLIM
 10
1850.0
 20
369.99999999999989
 30
0.0
 40
100.0
  1
4SR-U73
 41
0.75
  0
TEXT
  5
130E61
  8
SLIM
 10
0.0
 20
369.99999999999989
 30
0.0
 40
100.0
  1
4SR-U7X-S
 41
0.75
  0
LINE
  5
130E62
  8
OBJECT
 10
4923.0
 20
-3395.9999999999968
 30
0.0
 11
4923.0
 21
-3374.9999999999968
 31
0.0
1001
ACDBBLOCKREPETAG
1070
     1
1071
        0
1005
130E62
  0
LINE
  5
130E63
  8
OBJECT
 10
4923.0
 20
-3374.9999999999968
 30
0.0
 11
5077.0
 21
-3374.9999999999968
 31
0.0
1001
ACDBBLOCKREPETAG
1070
     1
1071
        1
1005
130E63
  0
LINE
  5
130E64
  8
HIDDEN
 10
4943.0
 20
-3444.9999999999968
 30
0.0
 11
5057.0
 21
-3444.9999999999968
 31
0.0
1001
ACDBBLOCKREPETAG
1070
     1
1071
        2
1005
130E64
  0
LINE
  5
130E65
  8
OBJECT
 10
5077.0
 20
-3374.9999999999968
 30
0.0
 11
5077.0
 21
-3395.9999999999968
 31
0.0
1001
ACDBBLOCKREPETAG
1070
     1
1071
        3
1005
130E65
  0
LINE
  5
130E66
  8
OBJECT
 10
5077.0
 20
-3395.9999999999968
 30
0.0
 11
4923.0
 21
-3395.9999999999968
 31
0.0
1001
ACDBBLOCKREPETAG
1070
     1
1071
        4
1005
130E66
  0
LINE
  5
130E67
  8
CENTER
 10
5000.0
 20
-3359.9999999999968
 30
0.0
 11
5000.0
 21
-3594.9999999999968
 31
0.0
1001
ACDBBLOCKREPETAG
1070
     1
1071
        5
1005
130E67
  0
LINE
  5
130E68
  8
OBJECT
 10
4925.0
 20
-3458.9999999999968
 30
0.0
 11
4925.0
 21
-3582.9999999999968
 31
0.0
1001
ACDBBLOCKREPETAG
1070
     1
1071
        6
1005
130E68
  0
LINE
  5
130E69
  8
OBJECT
 10
4928.0
 20
-3395.9999999999968
 30
0.0
 11
4928.0
 21
-3458.9999999999968
 31
0.0
1001
ACDBBLOCKREPETAG
1070
     1
1071
        7
1005
130E69
  0
LINE
  5
130E6A
  8
OBJECT
 10
5072.0
 20
-3458.9999999999968
 30
0.0
 11
5072.0
 21
-3395.9999999999968
 31
0.0
1001
ACDBBLOCKREPETAG
1070
     1
1071
        8
1005
130E6A
  0
LINE
  5
130E6B
  8
OBJECT
 10
5074.9999999997999
 20
-3582.9999999997758
 30
0.0
 11
5080.0
 21
-3582.9999999999968
 31
0.0
1001
ACDBBLOCKREPETAG
1070
     1
1071
        9
1005
130E6B
  0
LINE
  5
130E6C
  8
OBJECT
 10
5080.0
 20
-3458.9999999999968
 30
0.0
 11
4925.0
 21
-3458.9999999999968
 31
0.0
1001
ACDBBLOCKREPETAG
1070
     1
1071
       10
1005
130E6C
  0
ARC
  5
130E6D
  8
OBJECT
 10
5200.6872746716726
 20
-3574.408099410105
 30
0.0
 40
170.6350503965856
 50
137.44134459184301
 51
149.9194958133665
1001
ACDBBLOCKREPETAG
1070
     1
1071
       15
1005
130E6D
  0
ARC
  5
130E6E
  8
OBJECT
 10
5118.8455987040506
 20
-3530.8827266953631
 30
0.0
 40
78.072222021763665
 50
147.4551531037684
 51
164.66365997719291
1001
ACDBBLOCKREPETAG
1070
     1
1071
       16
1005
130E6E
  0
ARC
  5
130E6F
  8
OBJECT
 10
5085.7554349608727
 20
-3520.9999999999968
 30
0.0
 40
43.55353926885617
 50
165.6884523008477
 51
194.3115476991523
1001
ACDBBLOCKREPETAG
1070
     1
1071
       17
1005
130E6F
  0
ARC
  5
130E70
  8
OBJECT
 10
5200.6872746716726
 20
-3467.5919005898891
 30
0.0
 40
170.6350503965856
 50
210.0805041866335
 51
222.55865540815699
1001
ACDBBLOCKREPETAG
1070
     1
1071
       18
1005
130E70
  0
ARC
  5
130E71
  8
OBJECT
 10
5118.8455987040506
 20
-3511.1172733046319
 30
0.0
 40
78.072222021763665
 50
195.33634002280701
 51
212.5448468962316
1001
ACDBBLOCKREPETAG
1070
     1
1071
       19
1005
130E71
  0
POINT
  5
130E72
  8
DOTS
 10
5000.0
 20
-3579.9999999999968
 30
0.0
1001
ACDBBLOCKREPETAG
1070
     1
1071
      186
1005
130E72
  0
LINE
  5
130E73
  8
OBJECT
 10
4323.0
 20
-3395.9999999999968
 30
0.0
 11
4323.0
 21
-3374.9999999999968
 31
0.0
1001
ACDBBLOCKREPETAG
1070
     1
1071
       20
1005
130E73
  0
LINE
  5
130E74
  8
OBJECT
 10
4323.0
 20
-3374.9999999999968
 30
0.0
 11
4477.0
 21
-3374.9999999999968
 31
0.0
1001
ACDBBLOCKREPETAG
1070
     1
1071
       21
1005
130E74
  0
LINE
  5
130E75
  8
HIDDEN
 10
4343.0
 20
-3444.9999999999968
 30
0.0
 11
4457.0
 21
-3444.9999999999968
 31
0.0
1001
ACDBBLOCKREPETAG
1070
     1
1071
       22
1005
130E75
  0
LINE
  5
130E76
  8
OBJECT
 10
4477.0
 20
-3374.9999999999968
 30
0.0
 11
4477.0
 21
-3395.9999999999968
 31
0.0
1001
ACDBBLOCKREPETAG
1070
     1
1071
       23
1005
130E76
  0
LINE
  5
130E77
  8
OBJECT
 10
4477.0
 20
-3395.9999999999968
 30
0.0
 11
4323.0
 21
-3395.9999999999968
 31
0.0
1001
ACDBBLOCKREPETAG
1070
     1
1071
       24
1005
130E77
  0
LINE
  5
130E78
  8
CENTER
 10
4400.0
 20
-3359.9999999999968
 30
0.0
 11
4400.0
 21
-3594.9999999999968
 31
0.0
1001
ACDBBLOCKREPETAG
1070
     1
1071
       25
1005
130E78
  0
LINE
  5
130E79
  8
OBJECT
 10
4325.0
 20
-3458.9999999999968
 30
0.0
 11
4325.0
 21
-3582.9999999999968
 31
0.0
1001
ACDBBLOCKREPETAG
1070
     1
1071
       26
1005
130E79
  0
LINE
  5
130E7A
  8
OBJECT
 10
4328.0
 20
-3395.9999999999968
 30
0.0
 11
4328.0
 21
-3458.9999999999968
 31
0.0
1001
ACDBBLOCKREPETAG
1070
     1
1071
       27
1005
130E7A
  0
LINE
  5
130E7B
  8
OBJECT
 10
4472.0
 20
-3458.9999999999968
 30
0.0
 11
4472.0
 21
-3395.9999999999968
 31
0.0
1001
ACDBBLOCKREPETAG
1070
     1
1071
       28
1005
130E7B
  0
LINE
  5
130E7C
  8
OBJECT
 10
4475.0
 20
-3458.9999999999968
 30
0.0
 11
4325.0
 21
-3458.9999999999968
 31
0.0
1001
ACDBBLOCKREPETAG
1070
     1
1071
       30
1005
130E7C
  0
LINE
  5
130E7D
  8
OBJECT
 10
4475.0
 20
-3458.9999999999968
 30
0.0
 11
4475.0
 21
-3582.9999999999968
 31
0.0
1001
ACDBBLOCKREPETAG
1070
     1
1071
       34
1005
130E7D
  0
POINT
  5
130E7E
  8
DOTS
 10
4400.0
 20
-3579.9999999999968
 30
0.0
1001
ACDBBLOCKREPETAG
1070
     1
1071
      187
1005
130E7E
  0
LINE
  5
130E7F
  8
OBJECT
 10
3923.0
 20
-3395.9999999999968
 30
0.0
 11
3923.0
 21
-3374.9999999999968
 31
0.0
1001
ACDBBLOCKREPETAG
1070
     1
1071
        0
1005
130E7F
  0
LINE
  5
130E80
  8
OBJECT
 10
3923.0
 20
-3374.9999999999968
 30
0.0
 11
4077.0
 21
-3374.9999999999968
 31
0.0
1001
ACDBBLOCKREPETAG
1070
     1
1071
        1
1005
130E80
  0
LINE
  5
130E81
  8
HIDDEN
 10
3943.0
 20
-3444.9999999999968
 30
0.0
 11
4057.0
 21
-3444.9999999999968
 31
0.0
1001
ACDBBLOCKREPETAG
1070
     1
1071
        2
1005
130E81
  0
LINE
  5
130E82
  8
OBJECT
 10
4077.0
 20
-3374.9999999999968
 30
0.0
 11
4077.0
 21
-3395.9999999999968
 31
0.0
1001
ACDBBLOCKREPETAG
1070
     1
1071
        3
1005
130E82
  0
LINE
  5
130E83
  8
OBJECT
 10
4077.0
 20
-3395.9999999999968
 30
0.0
 11
3923.0
 21
-3395.9999999999968
 31
0.0
1001
ACDBBLOCKREPETAG
1070
     1
1071
        4
1005
130E83
  0
LINE
  5
130E84
  8
CENTER
 10
4000.0
 20
-3359.9999999999968
 30
0.0
 11
4000.0
 21
-3594.9999999999968
 31
0.0
1001
ACDBBLOCKREPETAG
1070
     1
1071
        5
1005
130E84
  0
LINE
  5
130E85
  8
OBJECT
 10
3925.0
 20
-3458.9999999999968
 30
0.0
 11
3925.0
 21
-3582.9999999999968
 31
0.0
1001
ACDBBLOCKREPETAG
1070
     1
1071
        6
1005
130E85
  0
LINE
  5
130E86
  8
OBJECT
 10
3928.0
 20
-3395.9999999999968
 30
0.0
 11
3928.0
 21
-3458.9999999999968
 31
0.0
1001
ACDBBLOCKREPETAG
1070
     1
1071
        7
1005
130E86
  0
LINE
  5
130E87
  8
OBJECT
 10
4072.0
 20
-3458.9999999999968
 30
0.0
 11
4072.0
 21
-3395.9999999999968
 31
0.0
1001
ACDBBLOCKREPETAG
1070
     1
1071
        8
1005
130E87
  0
LINE
  5
130E88
  8
OBJECT
 10
4074.999999999799
 20
-3582.9999999997758
 30
0.0
 11
4080.0
 21
-3582.9999999999968
 31
0.0
1001
ACDBBLOCKREPETAG
1070
     1
1071
        9
1005
130E88
  0
LINE
  5
130E89
  8
OBJECT
 10
4080.0
 20
-3458.9999999999968
 30
0.0
 11
3925.0
 21
-3458.9999999999968
 31
0.0
1001
ACDBBLOCKREPETAG
1070
     1
1071
       10
1005
130E89
  0
ARC
  5
130E8A
  8
OBJECT
 10
4200.6872746716726
 20
-3574.408099410105
 30
0.0
 40
170.6350503965856
 50
137.44134459184301
 51
149.9194958133665
1001
ACDBBLOCKREPETAG
1070
     1
1071
       15
1005
130E8A
  0
ARC
  5
130E8B
  8
OBJECT
 10
4118.8455987040506
 20
-3530.8827266953631
 30
0.0
 40
78.072222021763665
 50
147.4551531037684
 51
164.663659977186
1001
ACDBBLOCKREPETAG
1070
     1
1071
       16
1005
130E8B
  0
ARC
  5
130E8C
  8
OBJECT
 10
4085.7554349608722
 20
-3520.9999999999968
 30
0.0
 40
43.55353926885617
 50
165.6884523008477
 51
194.3115476991523
1001
ACDBBLOCKREPETAG
1070
     1
1071
       17
1005
130E8C
  0
ARC
  5
130E8D
  8
OBJECT
 10
4200.6872746716726
 20
-3467.5919005898891
 30
0.0
 40
170.6350503965856
 50
210.0805041866335
 51
222.55865540815699
1001
ACDBBLOCKREPETAG
1070
     1
1071
       18
1005
130E8D
  0
ARC
  5
130E8E
  8
OBJECT
 10
4118.8455987040506
 20
-3511.1172733046319
 30
0.0
 40
78.072222021763665
 50
195.33634002281391
 51
212.5448468962316
1001
ACDBBLOCKREPETAG
1070
     1
1071
       19
1005
130E8E
  0
POINT
  5
130E8F
  8
DOTS
 10
4000.0
 20
-3579.9999999999968
 30
0.0
1001
ACDBBLOCKREPETAG
1070
     1
1071
      186
1005
130E8F
  0
LINE
  5
130E90
  8
OBJECT
 10
3323.0
 20
-3395.9999999999968
 30
0.0
 11
3323.0
 21
-3374.9999999999968
 31
0.0
1001
ACDBBLOCKREPETAG
1070
     1
1071
       20
1005
130E90
  0
LINE
  5
130E91
  8
OBJECT
 10
3323.0
 20
-3374.9999999999968
 30
0.0
 11
3477.0
 21
-3374.9999999999968
 31
0.0
1001
ACDBBLOCKREPETAG
1070
     1
1071
       21
1005
130E91
  0
LINE
  5
130E92
  8
HIDDEN
 10
3343.0
 20
-3444.9999999999968
 30
0.0
 11
3457.0
 21
-3444.9999999999968
 31
0.0
1001
ACDBBLOCKREPETAG
1070
     1
1071
       22
1005
130E92
  0
LINE
  5
130E93
  8
OBJECT
 10
3477.0
 20
-3374.9999999999968
 30
0.0
 11
3477.0
 21
-3395.9999999999968
 31
0.0
1001
ACDBBLOCKREPETAG
1070
     1
1071
       23
1005
130E93
  0
LINE
  5
130E94
  8
OBJECT
 10
3477.0
 20
-3395.9999999999968
 30
0.0
 11
3323.0
 21
-3395.9999999999968
 31
0.0
1001
ACDBBLOCKREPETAG
1070
     1
1071
       24
1005
130E94
  0
LINE
  5
130E95
  8
CENTER
 10
3400.0
 20
-3359.9999999999968
 30
0.0
 11
3400.0
 21
-3594.9999999999968
 31
0.0
1001
ACDBBLOCKREPETAG
1070
     1
1071
       25
1005
130E95
  0
LINE
  5
130E96
  8
OBJECT
 10
3325.0
 20
-3458.9999999999968
 30
0.0
 11
3325.0
 21
-3582.9999999999968
 31
0.0
1001
ACDBBLOCKREPETAG
1070
     1
1071
       26
1005
130E96
  0
LINE
  5
130E97
  8
OBJECT
 10
3328.0
 20
-3395.9999999999968
 30
0.0
 11
3328.0
 21
-3458.9999999999968
 31
0.0
1001
ACDBBLOCKREPETAG
1070
     1
1071
       27
1005
130E97
  0
LINE
  5
130E98
  8
OBJECT
 10
3472.0
 20
-3458.9999999999968
 30
0.0
 11
3472.0
 21
-3395.9999999999968
 31
0.0
1001
ACDBBLOCKREPETAG
1070
     1
1071
       28
1005
130E98
  0
LINE
  5
130E99
  8
OBJECT
 10
3475.0
 20
-3458.9999999999968
 30
0.0
 11
3325.0
 21
-3458.9999999999968
 31
0.0
1001
ACDBBLOCKREPETAG
1070
     1
1071
       30
1005
130E99
  0
LINE
  5
130E9A
  8
OBJECT
 10
3475.0
 20
-3458.9999999999968
 30
0.0
 11
3475.0
 21
-3582.9999999999968
 31
0.0
1001
ACDBBLOCKREPETAG
1070
     1
1071
       34
1005
130E9A
  0
POINT
  5
130E9B
  8
DOTS
 10
3400.0
 20
-3579.9999999999968
 30
0.0
1001
ACDBBLOCKREPETAG
1070
     1
1071
      187
1005
130E9B
  0
LINE
  5
130E9C
  8
OBJECT
 10
2923.0
 20
-3395.9999999999968
 30
0.0
 11
2923.0
 21
-3374.9999999999968
 31
0.0
1001
ACDBBLOCKREPETAG
1070
     1
1071
        0
1005
130E9C
  0
LINE
  5
130E9D
  8
OBJECT
 10
2923.0
 20
-3374.9999999999968
 30
0.0
 11
3077.0
 21
-3374.9999999999968
 31
0.0
1001
ACDBBLOCKREPETAG
1070
     1
1071
        1
1005
130E9D
  0
LINE
  5
130E9E
  8
HIDDEN
 10
2943.0
 20
-3444.9999999999968
 30
0.0
 11
3057.0
 21
-3444.9999999999968
 31
0.0
1001
ACDBBLOCKREPETAG
1070
     1
1071
        2
1005
130E9E
  0
LINE
  5
130E9F
  8
OBJECT
 10
3077.0
 20
-3374.9999999999968
 30
0.0
 11
3077.0
 21
-3395.9999999999968
 31
0.0
1001
ACDBBLOCKREPETAG
1070
     1
1071
        3
1005
130E9F
  0
LINE
  5
130EA0
  8
OBJECT
 10
3077.0
 20
-3395.9999999999968
 30
0.0
 11
2923.0
 21
-3395.9999999999968
 31
0.0
1001
ACDBBLOCKREPETAG
1070
     1
1071
        4
1005
130EA0
  0
LINE
  5
130EA1
  8
CENTER
 10
3000.0
 20
-3359.9999999999968
 30
0.0
 11
3000.0
 21
-3594.9999999999968
 31
0.0
1001
ACDBBLOCKREPETAG
1070
     1
1071
        5
1005
130EA1
  0
LINE
  5
130EA2
  8
OBJECT
 10
2925.0
 20
-3458.9999999999968
 30
0.0
 11
2925.0
 21
-3582.9999999999968
 31
0.0
1001
ACDBBLOCKREPETAG
1070
     1
1071
        6
1005
130EA2
  0
LINE
  5
130EA3
  8
OBJECT
 10
2928.0
 20
-3395.9999999999968
 30
0.0
 11
2928.0
 21
-3458.9999999999968
 31
0.0
1001
ACDBBLOCKREPETAG
1070
     1
1071
        7
1005
130EA3
  0
LINE
  5
130EA4
  8
OBJECT
 10
3072.0
 20
-3458.9999999999968
 30
0.0
 11
3072.0
 21
-3395.9999999999968
 31
0.0
1001
ACDBBLOCKREPETAG
1070
     1
1071
        8
1005
130EA4
  0
LINE
  5
130EA5
  8
OBJECT
 10
3074.9999999997999
 20
-3582.9999999997758
 30
0.0
 11
3080.0
 21
-3582.9999999999968
 31
0.0
1001
ACDBBLOCKREPETAG
1070
     1
1071
        9
1005
130EA5
  0
LINE
  5
130EA6
  8
OBJECT
 10
3080.0
 20
-3458.9999999999968
 30
0.0
 11
2925.0
 21
-3458.9999999999968
 31
0.0
1001
ACDBBLOCKREPETAG
1070
     1
1071
       10
1005
130EA6
  0
ARC
  5
130EA7
  8
OBJECT
 10
3200.6872746716722
 20
-3574.408099410105
 30
0.0
 40
170.6350503965856
 50
137.44134459184301
 51
149.9194958133665
1001
ACDBBLOCKREPETAG
1070
     1
1071
       15
1005
130EA7
  0
ARC
  5
130EA8
  8
OBJECT
 10
3118.8455987040511
 20
-3530.8827266953631
 30
0.0
 40
78.072222021763665
 50
147.4551531037684
 51
164.663659977186
1001
ACDBBLOCKREPETAG
1070
     1
1071
       16
1005
130EA8
  0
ARC
  5
130EA9
  8
OBJECT
 10
3085.7554349608731
 20
-3520.9999999999968
 30
0.0
 40
43.55353926885617
 50
165.6884523008477
 51
194.3115476991523
1001
ACDBBLOCKREPETAG
1070
     1
1071
       17
1005
130EA9
  0
ARC
  5
130EAA
  8
OBJECT
 10
3200.6872746716722
 20
-3467.5919005898891
 30
0.0
 40
170.6350503965856
 50
210.0805041866335
 51
222.55865540815699
1001
ACDBBLOCKREPETAG
1070
     1
1071
       18
1005
130EAA
  0
ARC
  5
130EAB
  8
OBJECT
 10
3118.8455987040511
 20
-3511.1172733046319
 30
0.0
 40
78.072222021763665
 50
195.33634002281391
 51
212.5448468962316
1001
ACDBBLOCKREPETAG
1070
     1
1071
       19
1005
130EAB
  0
POINT
  5
130EAC
  8
DOTS
 10
3000.0
 20
-3579.9999999999968
 30
0.0
1001
ACDBBLOCKREPETAG
1070
     1
1071
      186
1005
130EAC
  0
LINE
  5
130EAD
  8
OBJECT
 10
2323.0
 20
-3395.9999999999968
 30
0.0
 11
2323.0
 21
-3374.9999999999968
 31
0.0
1001
ACDBBLOCKREPETAG
1070
     1
1071
       20
1005
130EAD
  0
LINE
  5
130EAE
  8
OBJECT
 10
2323.0
 20
-3374.9999999999968
 30
0.0
 11
2477.0
 21
-3374.9999999999968
 31
0.0
1001
ACDBBLOCKREPETAG
1070
     1
1071
       21
1005
130EAE
  0
LINE
  5
130EAF
  8
HIDDEN
 10
2343.0
 20
-3444.9999999999968
 30
0.0
 11
2457.0
 21
-3444.9999999999968
 31
0.0
1001
ACDBBLOCKREPETAG
1070
     1
1071
       22
1005
130EAF
  0
LINE
  5
130EB0
  8
OBJECT
 10
2477.0
 20
-3374.9999999999968
 30
0.0
 11
2477.0
 21
-3395.9999999999968
 31
0.0
1001
ACDBBLOCKREPETAG
1070
     1
1071
       23
1005
130EB0
  0
LINE
  5
130EB1
  8
OBJECT
 10
2477.0
 20
-3395.9999999999968
 30
0.0
 11
2323.0
 21
-3395.9999999999968
 31
0.0
1001
ACDBBLOCKREPETAG
1070
     1
1071
       24
1005
130EB1
  0
LINE
  5
130EB2
  8
CENTER
 10
2400.0
 20
-3359.9999999999968
 30
0.0
 11
2400.0
 21
-3594.9999999999968
 31
0.0
1001
ACDBBLOCKREPETAG
1070
     1
1071
       25
1005
130EB2
  0
LINE
  5
130EB3
  8
OBJECT
 10
2325.0
 20
-3458.9999999999968
 30
0.0
 11
2325.0
 21
-3582.9999999999968
 31
0.0
1001
ACDBBLOCKREPETAG
1070
     1
1071
       26
1005
130EB3
  0
LINE
  5
130EB4
  8
OBJECT
 10
2328.0
 20
-3395.9999999999968
 30
0.0
 11
2328.0
 21
-3458.9999999999968
 31
0.0
1001
ACDBBLOCKREPETAG
1070
     1
1071
       27
1005
130EB4
  0
LINE
  5
130EB5
  8
OBJECT
 10
2472.0
 20
-3458.9999999999968
 30
0.0
 11
2472.0
 21
-3395.9999999999968
 31
0.0
1001
ACDBBLOCKREPETAG
1070
     1
1071
       28
1005
130EB5
  0
LINE
  5
130EB6
  8
OBJECT
 10
2475.0
 20
-3458.9999999999968
 30
0.0
 11
2325.0
 21
-3458.9999999999968
 31
0.0
1001
ACDBBLOCKREPETAG
1070
     1
1071
       30
1005
130EB6
  0
LINE
  5
130EB7
  8
OBJECT
 10
2475.0
 20
-3458.9999999999968
 30
0.0
 11
2475.0
 21
-3582.9999999999968
 31
0.0
1001
ACDBBLOCKREPETAG
1070
     1
1071
       34
1005
130EB7
  0
POINT
  5
130EB8
  8
DOTS
 10
2400.0
 20
-3579.9999999999968
 30
0.0
1001
ACDBBLOCKREPETAG
1070
     1
1071
      187
1005
130EB8
  0
LINE
  5
130EB9
  8
OBJECT
 10
1923.0
 20
-3395.9999999999968
 30
0.0
 11
1923.0
 21
-3374.9999999999968
 31
0.0
1001
ACDBBLOCKREPETAG
1070
     1
1071
        0
1005
130EB9
  0
LINE
  5
130EBA
  8
OBJECT
 10
1923.0
 20
-3374.9999999999968
 30
0.0
 11
2077.0
 21
-3374.9999999999968
 31
0.0
1001
ACDBBLOCKREPETAG
1070
     1
1071
        1
1005
130EBA
  0
LINE
  5
130EBB
  8
HIDDEN
 10
1943.0
 20
-3444.9999999999968
 30
0.0
 11
2057.0
 21
-3444.9999999999968
 31
0.0
1001
ACDBBLOCKREPETAG
1070
     1
1071
        2
1005
130EBB
  0
LINE
  5
130EBC
  8
OBJECT
 10
2077.0
 20
-3374.9999999999968
 30
0.0
 11
2077.0
 21
-3395.9999999999968
 31
0.0
1001
ACDBBLOCKREPETAG
1070
     1
1071
        3
1005
130EBC
  0
LINE
  5
130EBD
  8
OBJECT
 10
2077.0
 20
-3395.9999999999968
 30
0.0
 11
1923.0
 21
-3395.9999999999968
 31
0.0
1001
ACDBBLOCKREPETAG
1070
     1
1071
        4
1005
130EBD
  0
LINE
  5
130EBE
  8
CENTER
 10
2000.0
 20
-3359.9999999999968
 30
0.0
 11
2000.0
 21
-3594.9999999999968
 31
0.0
1001
ACDBBLOCKREPETAG
1070
     1
1071
        5
1005
130EBE
  0
LINE
  5
130EBF
  8
OBJECT
 10
1925.0
 20
-3458.9999999999968
 30
0.0
 11
1925.0
 21
-3582.9999999999968
 31
0.0
1001
ACDBBLOCKREPETAG
1070
     1
1071
        6
1005
130EBF
  0
LINE
  5
130EC0
  8
OBJECT
 10
1928.0
 20
-3395.9999999999968
 30
0.0
 11
1928.0
 21
-3458.9999999999968
 31
0.0
1001
ACDBBLOCKREPETAG
1070
     1
1071
        7
1005
130EC0
  0
LINE
  5
130EC1
  8
OBJECT
 10
2072.0
 20
-3458.9999999999968
 30
0.0
 11
2072.0
 21
-3395.9999999999968
 31
0.0
1001
ACDBBLOCKREPETAG
1070
     1
1071
        8
1005
130EC1
  0
LINE
  5
130EC2
  8
OBJECT
 10
2074.999999999799
 20
-3582.9999999997758
 30
0.0
 11
2080.0
 21
-3582.9999999999968
 31
0.0
1001
ACDBBLOCKREPETAG
1070
     1
1071
        9
1005
130EC2
  0
LINE
  5
130EC3
  8
OBJECT
 10
2080.0
 20
-3458.9999999999968
 30
0.0
 11
1925.0
 21
-3458.9999999999968
 31
0.0
1001
ACDBBLOCKREPETAG
1070
     1
1071
       10
1005
130EC3
  0
ARC
  5
130EC4
  8
OBJECT
 10
2200.6872746716731
 20
-3574.408099410105
 30
0.0
 40
170.6350503965856
 50
137.44134459184301
 51
149.91949581335999
1001
ACDBBLOCKREPETAG
1070
     1
1071
       15
1005
130EC4
  0
ARC
  5
130EC5
  8
OBJECT
 10
2118.8455987040511
 20
-3530.8827266953631
 30
0.0
 40
78.072222021763665
 50
147.45515310377539
 51
164.663659977186
1001
ACDBBLOCKREPETAG
1070
     1
1071
       16
1005
130EC5
  0
ARC
  5
130EC6
  8
OBJECT
 10
2085.7554349608731
 20
-3520.9999999999968
 30
0.0
 40
43.55353926885617
 50
165.6884523008477
 51
194.3115476991523
1001
ACDBBLOCKREPETAG
1070
     1
1071
       17
1005
130EC6
  0
ARC
  5
130EC7
  8
OBJECT
 10
2200.6872746716731
 20
-3467.5919005898891
 30
0.0
 40
170.6350503965856
 50
210.08050418664001
 51
222.55865540815699
1001
ACDBBLOCKREPETAG
1070
     1
1071
       18
1005
130EC7
  0
ARC
  5
130EC8
  8
OBJECT
 10
2118.8455987040511
 20
-3511.1172733046319
 30
0.0
 40
78.072222021763665
 50
195.33634002281391
 51
212.54484689622461
1001
ACDBBLOCKREPETAG
1070
     1
1071
       19
1005
130EC8
  0
POINT
  5
130EC9
  8
DOTS
 10
2000.0
 20
-3579.9999999999968
 30
0.0
1001
ACDBBLOCKREPETAG
1070
     1
1071
      186
1005
130EC9
  0
LINE
  5
130ECA
  8
DIM
 10
2150.0
 20
-3221.9999999999959
 30
0.0
 11
2228.479620594459
 21
-3221.9999999999959
 31
0.0
  0
LINE
  5
130ECB
  8
DIM
 10
2150.0
 20
-3127.9999999999959
 30
0.0
 11
2228.479620594459
 21
-3127.9999999999959
 31
0.0
  0
LINE
  5
130ECC
  8
DIM
 10
2218.479620594459
 20
-3201.9999999999959
 30
0.0
 11
2218.479620594459
 21
-3147.9999999999959
 31
0.0
  0
INSERT
  5
130ECD
  8
DIM
  2
_OPEN30
 10
2218.479620594459
 20
-3221.9999999999959
 30
0.0
 41
20.0
 42
20.0
 43
20.0
 50
270.0
  0
INSERT
  5
130ECE
  8
DIM
  2
_OPEN30
 10
2218.479620594459
 20
-3127.9999999999959
 30
0.0
 41
20.0
 42
20.0
 43
20.0
 50
90.0
  0
INSERT
  5
130ECF
  8
OBJECT
  2
*U13
 10
0.0
 20
0.0
 30
0.0
  0
LINE
  5
130ED0
  8
DIM
 10
2150.0
 20
-3579.9999999999968
 30
0.0
 11
2226.8409284037339
 21
-3579.9999999999968
 31
0.0
  0
LINE
  5
130ED1
  8
DIM
 10
2165.0
 20
-3535.9999999999968
 30
0.0
 11
2226.8409284037339
 21
-3535.9999999999968
 31
0.0
  0
LINE
  5
130ED2
  8
DIM
 10
2216.840928403733
 20
-3599.9999999999968
 30
0.0
 11
2216.840928403733
 21
-3619.9999999999968
 31
0.0
  0
LINE
  5
130ED3
  8
DIM
 10
2216.840928403733
 20
-3515.9999999999968
 30
0.0
 11
2216.840928403733
 21
-3495.9999999999968
 31
0.0
  0
LINE
  5
130ED4
  8
DIM
 10
2216.840928403733
 20
-3579.9999999999968
 30
0.0
 11
2216.840928403733
 21
-3535.9999999999968
 31
0.0
  0
INSERT
  5
130ED5
  8
DIM
  2
_OPEN30
 10
2216.840928403733
 20
-3579.9999999999968
 30
0.0
 41
20.0
 42
20.0
 43
20.0
 50
90.0
  0
INSERT
  5
130ED6
  8
DIM
  2
_OPEN30
 10
2216.840928403733
 20
-3535.9999999999968
 30
0.0
 41
20.0
 42
20.0
 43
20.0
 50
270.0
  0
INSERT
  5
130ED7
  8
OBJECT
  2
*U14
 10
0.0
 20
0.0
 30
0.0
  0
LINE
  5
130ED8
  8
DIM
 10
2000.0
 20
-3069.9999999999959
 30
0.0
 11
2000.0
 21
-3037.208121984444
 31
0.0
  0
LINE
  5
130ED9
  8
DIM
 10
2140.0
 20
-3117.9999999999959
 30
0.0
 11
2140.0
 21
-3037.208121984444
 31
0.0
  0
LINE
  5
130EDA
  8
DIM
 10
2020.0
 20
-3047.208121984444
 30
0.0
 11
2120.0
 21
-3047.208121984444
 31
0.0
  0
INSERT
  5
130EDB
  8
DIM
  2
_OPEN30
 10
2000.0
 20
-3047.208121984444
 30
0.0
 41
20.0
 42
20.0
 43
20.0
 50
180.0
  0
INSERT
  5
130EDC
  8
DIM
  2
_OPEN30
 10
2140.0
 20
-3047.208121984444
 30
0.0
 41
20.0
 42
20.0
 43
20.0
  0
INSERT
  5
130EDD
  8
OBJECT
  2
*U15
 10
0.0
 20
0.0
 30
0.0
  0
TEXT
  5
130EDE
  8
SLIM
 10
2631.0
 20
-2952.50001604727
 30
0.0
 40
40.0
  1
C寸法
 41
0.75
  0
TEXT
  5
130EDF
  8
SLIM
 10
2631.0
 20
-2882.50001604727
 30
0.0
 40
40.0
  1
B寸法
 41
0.75
  0
TEXT
  5
130EE0
  8
SLIM
 10
2630.2857142857142
 20
-2812.50001604727
 30
0.0
 40
40.0
  1
A寸法
 41
0.75
  0
TEXT
  5
130EE1
  8
SLIM
 10
3159.2857142857151
 20
-2952.50001604727
 30
0.0
 40
40.0
  1
150
 41
0.75
  0
TEXT
  5
130EE2
  8
SLIM
 10
3029.2857142857151
 20
-2952.50001604727
 30
0.0
 40
40.0
  1
140
 41
0.75
  0
TEXT
  5
130EE3
  8
SLIM
 10
2769.2857142857151
 20
-2952.50001604727
 30
0.0
 40
40.0
  1
140
 41
0.75
  0
TEXT
  5
130EE4
  8
SLIM
 10
2899.2857142857151
 20
-2952.50001604727
 30
0.0
 40
40.0
  1
140
 41
0.75
  0
TEXT
  5
130EE5
  8
SLIM
 10
3170.7142857142858
 20
-2882.50001604727
 30
0.0
 40
40.0
  1
72
 41
0.75
  0
TEXT
  5
130EE6
  8
SLIM
 10
3041.4285714285711
 20
-2882.50001604727
 30
0.0
 40
40.0
  1
59
 41
0.75
  0
TEXT
  5
130EE7
  8
SLIM
 10
2780.0
 20
-2882.50001604727
 30
0.0
 40
40.0
  1
44
 41
0.75
  0
TEXT
  5
130EE8
  8
SLIM
 10
2910.7142857142858
 20
-2882.50001604727
 30
0.0
 40
40.0
  1
52
 41
0.75
  0
TEXT
  5
130EE9
  8
SLIM
 10
2891.0
 20
-2687.50001604727
 30
0.0
 40
40.0
  1
横枝管サイズ
 41
0.75
  0
TEXT
  5
130EEA
  8
SLIM
 10
3136.2857142857151
 20
-2742.50001604727
 30
0.0
 40
30.0
  1
100（4）
 41
0.75
  0
TEXT
  5
130EEB
  8
SLIM
 10
3014.857142857144
 20
-2742.50001604727
 30
0.0
 40
30.0
  1
75（3）
 41
0.75
  0
TEXT
  5
130EEC
  8
SLIM
 10
2884.8571428571431
 20
-2742.50001604727
 30
0.0
 40
30.0
  1
65（2）
 41
0.75
  0
TEXT
  5
130EED
  8
SLIM
 10
2757.0
 20
-2742.50001604727
 30
0.0
 40
30.0
  1
50（1）
 41
0.75
  0
TEXT
  5
130EEE
  8
SLIM
 10
3159.2857142857151
 20
-2812.50001604727
 30
0.0
 40
40.0
  1
150
 41
0.75
  0
TEXT
  5
130EEF
  8
SLIM
 10
3028.571428571428
 20
-2812.50001604727
 30
0.0
 40
40.0
  1
124
 41
0.75
  0
TEXT
  5
130EF0
  8
SLIM
 10
2780.0
 20
-2812.50001604727
 30
0.0
 40
40.0
  1
94
 41
0.75
  0
TEXT
  5
130EF1
  8
SLIM
 10
2902.1428571428569
 20
-2812.50001604727
 30
0.0
 40
40.0
  1
110
 41
0.75
  0
TEXT
  5
130EF2
  8
SLIM
 10
1849.9999999999991
 20
-2712.5
 30
0.0
 40
75.0
  1
枝管サイズ毎の形状
 41
0.75
  0
LINE
  5
130EF3
  8
OBJECT
 10
5150.0
 20
-3432.9999999999968
 30
0.0
 11
5143.0
 21
-3432.9999999999968
 31
0.0
1001
ACDBBLOCKREPETAG
1070
     1
1071
       64
1005
130EF3
  0
LINE
  5
130EF4
  8
OBJECT
 10
5143.0
 20
-3432.9999999999968
 30
0.0
 11
5143.0
 21
-3579.9999999999968
 31
0.0
1001
ACDBBLOCKREPETAG
1070
     1
1071
       65
1005
130EF4
  0
LINE
  5
130EF5
  8
OBJECT
 10
5101.5
 20
-3435.9999999999968
 30
0.0
 11
5101.5
 21
-3579.9999999999968
 31
0.0
1001
ACDBBLOCKREPETAG
1070
     1
1071
       66
1005
130EF5
  0
LINE
  5
130EF6
  8
OBJECT
 10
5090.0
 20
-3442.4999999999968
 30
0.0
 11
5090.0
 21
-3573.4999999999968
 31
0.0
1001
ACDBBLOCKREPETAG
1070
     1
1071
       67
1005
130EF6
  0
LINE
  5
130EF7
  8
OBJECT
 10
5086.0
 20
-3514.5000000000041
 30
0.0
 11
5086.0
 21
-3579.9999999999968
 31
0.0
1001
ACDBBLOCKREPETAG
1070
     1
1071
       68
1005
130EF7
  0
LINE
  5
130EF8
  8
OBJECT
 10
5150.0
 20
-3579.9999999999968
 30
0.0
 11
5150.0
 21
-3432.9999999999968
 31
0.0
1001
ACDBBLOCKREPETAG
1070
     1
1071
       69
1005
130EF8
  0
LINE
  5
130EF9
  8
CENTER
 10
5165.0
 20
-3507.9999999999968
 30
0.0
 11
5070.4144144144157
 21
-3507.9999999999968
 31
0.0
1001
ACDBBLOCKREPETAG
1070
     1
1071
       70
1005
130EF9
  0
LINE
  5
130EFA
  8
OBJECT
 10
5083.0000000000045
 20
-3582.9999999999968
 30
0.0
 11
5080.0
 21
-3582.9999999999968
 31
0.0
1001
ACDBBLOCKREPETAG
1070
     1
1071
       71
1005
130EFA
  0
ARC
  5
130EFB
  8
OBJECT
 10
5091.8815171830656
 20
-3581.4555591801418
 30
0.0
 40
6.0
 50
60.52411099686767
 51
170.6927439126847
1001
ACDBBLOCKREPETAG
1070
     1
1071
       72
1005
130EFB
  0
ARC
  5
130EFC
  8
OBJECT
 10
5083.0
 20
-3579.9999999999968
 30
0.0
 40
3.0
 50
270.0
 51
350.69274391268482
1001
ACDBBLOCKREPETAG
1070
     1
1071
       73
1005
130EFC
  0
LINE
  5
130EFD
  8
OBJECT
 10
5081.0
 20
-3458.9999999999968
 30
0.0
 11
5080.0
 21
-3458.9999999999968
 31
0.0
1001
ACDBBLOCKREPETAG
1070
     1
1071
       74
1005
130EFD
  0
LINE
  5
130EFE
  8
OBJECT
 10
5150.0
 20
-3579.9999999999968
 30
0.0
 11
5101.5
 21
-3579.9999999999968
 31
0.0
1001
ACDBBLOCKREPETAG
1070
     1
1071
       75
1005
130EFE
  0
LINE
  5
130EFF
  8
OBJECT
 10
5101.5
 20
-3435.9999999999968
 30
0.0
 11
5090.0
 21
-3442.4999999999968
 31
0.0
1001
ACDBBLOCKREPETAG
1070
     1
1071
       76
1005
130EFF
  0
LINE
  5
130F00
  8
OBJECT
 10
5143.0
 20
-3435.9999999999968
 30
0.0
 11
5101.5
 21
-3435.9999999999968
 31
0.0
1001
ACDBBLOCKREPETAG
1070
     1
1071
       77
1005
130F00
  0
LINE
  5
130F01
  8
OBJECT
 10
5086.0
 20
-3514.5000000000041
 30
0.0
 11
5081.0
 21
-3458.9999999999968
 31
0.0
1001
ACDBBLOCKREPETAG
1070
     1
1071
       78
1005
130F01
  0
LINE
  5
130F02
  8
OBJECT
 10
5090.0
 20
-3442.4999999999968
 30
0.0
 11
5081.0
 21
-3458.9999999999968
 31
0.0
1001
ACDBBLOCKREPETAG
1070
     1
1071
       79
1005
130F02
  0
LINE
  5
130F03
  8
OBJECT
 10
5101.5
 20
-3579.9999999999968
 30
0.0
 11
5094.8338607230708
 21
-3576.232182147819
 31
0.0
1001
ACDBBLOCKREPETAG
1070
     1
1071
       80
1005
130F03
  0
LINE
  5
130F04
  8
HIDDEN
 10
5098.0
 20
-3564.9999999999968
 30
0.0
 11
5098.0
 21
-3450.9999999999968
 31
0.0
1001
ACDBBLOCKREPETAG
1070
     1
1071
       81
1005
130F04
  0
LINE
  5
130F05
  8
OBJECT
 10
5150.0
 20
-3099.9999999999959
 30
0.0
 11
5143.0
 21
-3099.9999999999959
 31
0.0
1001
ACDBBLOCKREPETAG
1070
     1
1071
       67
1005
130F05
  0
LINE
  5
130F06
  8
OBJECT
 10
5143.0
 20
-3099.9999999999959
 30
0.0
 11
5143.0
 21
-3249.9999999999959
 31
0.0
1001
ACDBBLOCKREPETAG
1070
     1
1071
       68
1005
130F06
  0
LINE
  5
130F07
  8
OBJECT
 10
5101.5
 20
-3102.9999999999959
 30
0.0
 11
5101.5
 21
-3246.9999999999959
 31
0.0
1001
ACDBBLOCKREPETAG
1070
     1
1071
       69
1005
130F07
  0
LINE
  5
130F08
  8
OBJECT
 10
5090.0
 20
-3109.4999999999959
 30
0.0
 11
5090.0
 21
-3240.4999999999959
 31
0.0
1001
ACDBBLOCKREPETAG
1070
     1
1071
       70
1005
130F08
  0
LINE
  5
130F09
  8
OBJECT
 10
5143.0
 20
-3249.9999999999959
 30
0.0
 11
5150.0
 21
-3249.9999999999959
 31
0.0
1001
ACDBBLOCKREPETAG
1070
     1
1071
       71
1005
130F09
  0
LINE
  5
130F0A
  8
OBJECT
 10
5150.0
 20
-3249.9999999999959
 30
0.0
 11
5150.0
 21
-3099.9999999999959
 31
0.0
1001
ACDBBLOCKREPETAG
1070
     1
1071
       72
1005
130F0A
  0
LINE
  5
130F0B
  8
HIDDEN
 10
5098.0
 20
-3231.9999999999959
 30
0.0
 11
5098.0
 21
-3117.9999999999959
 31
0.0
1001
ACDBBLOCKREPETAG
1070
     1
1071
       73
1005
130F0B
  0
LINE
  5
130F0C
  8
CENTER
 10
5165.0
 20
-3174.9999999999959
 30
0.0
 11
5080.0
 21
-3174.9999999999959
 31
0.0
1001
ACDBBLOCKREPETAG
1070
     1
1071
       74
1005
130F0C
  0
LINE
  5
130F0D
  8
OBJECT
 10
5086.0
 20
-3236.9999999999959
 30
0.0
 11
5080.0
 21
-3236.9999999999959
 31
0.0
1001
ACDBBLOCKREPETAG
1070
     1
1071
       75
1005
130F0D
  0
LINE
  5
130F0E
  8
OBJECT
 10
5143.0
 20
-3246.9999999999959
 30
0.0
 11
5101.5
 21
-3246.9999999999959
 31
0.0
1001
ACDBBLOCKREPETAG
1070
     1
1071
       76
1005
130F0E
  0
LINE
  5
130F0F
  8
OBJECT
 10
5101.5
 20
-3246.9999999999959
 30
0.0
 11
5090.0
 21
-3240.4999999999959
 31
0.0
1001
ACDBBLOCKREPETAG
1070
     1
1071
       77
1005
130F0F
  0
LINE
  5
130F10
  8
OBJECT
 10
5090.0
 20
-3240.4999999999959
 30
0.0
 11
5086.0
 21
-3236.9999999999959
 31
0.0
1001
ACDBBLOCKREPETAG
1070
     1
1071
       78
1005
130F10
  0
LINE
  5
130F11
  8
OBJECT
 10
5101.5
 20
-3102.9999999999959
 30
0.0
 11
5090.0
 21
-3109.4999999999959
 31
0.0
1001
ACDBBLOCKREPETAG
1070
     1
1071
       79
1005
130F11
  0
LINE
  5
130F12
  8
OBJECT
 10
5090.0
 20
-3109.4999999999959
 30
0.0
 11
5086.0
 21
-3112.9999999999959
 31
0.0
1001
ACDBBLOCKREPETAG
1070
     1
1071
       80
1005
130F12
  0
ARC
  5
130F13
  8
OBJECT
 10
5467.9000000000005
 20
-3174.9999999999959
 30
0.0
 40
386.89999999999998
 50
170.77870136260421
 51
189.22129863739571
1001
ACDBBLOCKREPETAG
1070
     1
1071
       81
1005
130F13
  0
LINE
  5
130F14
  8
OBJECT
 10
5086.0
 20
-3112.9999999999959
 30
0.0
 11
5080.0
 21
-3112.9999999999959
 31
0.0
1001
ACDBBLOCKREPETAG
1070
     1
1071
       82
1005
130F14
  0
LINE
  5
130F15
  8
OBJECT
 10
5143.0
 20
-3102.9999999999959
 30
0.0
 11
5101.5
 21
-3102.9999999999959
 31
0.0
1001
ACDBBLOCKREPETAG
1070
     1
1071
       83
1005
130F15
  0
TEXT
  5
130F16
  8
SLIM
 10
4884.25
 20
-3697.4999999999959
 30
0.0
 40
35.0
  1
通常枝100（4）
 41
0.75
  0
LINE
  5
130F17
  8
CENTER
 10
4477.0
 20
-3520.9999999999968
 30
0.0
 11
4323.0
 21
-3520.9999999999968
 31
0.0
1001
ACDBBLOCKREPETAG
1070
     1
1071
       17
1005
130F17
  0
CIRCLE
  5
130F18
  8
OBJECT
 10
4400.0
 20
-3520.9999999999968
 30
0.0
 40
41.5
1001
ACDBBLOCKREPETAG
1070
     1
1071
       19
1005
130F18
  0
CIRCLE
  5
130F19
  8
OBJECT
 10
4400.0
 20
-3520.9999999999968
 30
0.0
 40
54.0
1001
ACDBBLOCKREPETAG
1070
     1
1071
       20
1005
130F19
  0
ARC
  5
130F1A
  8
OBJECT
 10
4400.0
 20
-3520.9999999999968
 30
0.0
 40
62.0
 50
287.89655112921122
 51
252.1034488707887
1001
ACDBBLOCKREPETAG
1070
     1
1071
       21
1005
130F1A
  0
LINE
  5
130F1B
  8
OBJECT
 10
4380.947441116743
 20
-3579.9999999999968
 30
0.0
 11
4419.052558883257
 21
-3579.9999999999968
 31
0.0
1001
ACDBBLOCKREPETAG
1070
     1
1071
       22
1005
130F1B
  0
LINE
  5
130F1C
  8
OBJECT
 10
4133.0
 20
-3458.9999999999968
 30
0.0
 11
4140.0
 21
-3458.9999999999968
 31
0.0
1001
ACDBBLOCKREPETAG
1070
     1
1071
       45
1005
130F1C
  0
LINE
  5
130F1D
  8
OBJECT
 10
4140.0
 20
-3458.9999999999968
 30
0.0
 11
4140.0
 21
-3579.9999999999968
 31
0.0
1001
ACDBBLOCKREPETAG
1070
     1
1071
       46
1005
130F1D
  0
LINE
  5
130F1E
  8
OBJECT
 10
4133.0
 20
-3579.9999999999968
 30
0.0
 11
4133.0
 21
-3458.9999999999968
 31
0.0
1001
ACDBBLOCKREPETAG
1070
     1
1071
       47
1005
130F1E
  0
LINE
  5
130F1F
  8
CENTER
 10
4155.0
 20
-3520.9999999999968
 30
0.0
 11
4071.0
 21
-3520.9999999999968
 31
0.0
1001
ACDBBLOCKREPETAG
1070
     1
1071
       48
1005
130F1F
  0
LINE
  5
130F20
  8
OBJECT
 10
4133.0
 20
-3461.9999999999968
 30
0.0
 11
4097.0
 21
-3461.9999999999968
 31
0.0
1001
ACDBBLOCKREPETAG
1070
     1
1071
       49
1005
130F20
  0
LINE
  5
130F21
  8
OBJECT
 10
4097.0
 20
-3461.9999999999968
 30
0.0
 11
4097.0
 21
-3579.9999999999968
 31
0.0
1001
ACDBBLOCKREPETAG
1070
     1
1071
       50
1005
130F21
  0
LINE
  5
130F22
  8
OBJECT
 10
4097.0
 20
-3579.9999999999968
 30
0.0
 11
4140.0
 21
-3579.9999999999968
 31
0.0
1001
ACDBBLOCKREPETAG
1070
     1
1071
       51
1005
130F22
  0
LINE
  5
130F23
  8
OBJECT
 10
4093.0
 20
-3466.4999999999968
 30
0.0
 11
4086.0
 21
-3466.4999999999968
 31
0.0
1001
ACDBBLOCKREPETAG
1070
     1
1071
       52
1005
130F23
  0
LINE
  5
130F24
  8
OBJECT
 10
4086.0
 20
-3575.4999999999968
 30
0.0
 11
4093.0
 21
-3575.4999999999968
 31
0.0
1001
ACDBBLOCKREPETAG
1070
     1
1071
       53
1005
130F24
  0
LINE
  5
130F25
  8
OBJECT
 10
4093.0
 20
-3575.4999999999968
 30
0.0
 11
4093.0
 21
-3466.4999999999968
 31
0.0
1001
ACDBBLOCKREPETAG
1070
     1
1071
       54
1005
130F25
  0
LINE
  5
130F26
  8
OBJECT
 10
4097.0
 20
-3461.9999999999968
 30
0.0
 11
4093.0
 21
-3466.4999999999968
 31
0.0
1001
ACDBBLOCKREPETAG
1070
     1
1071
       55
1005
130F26
  0
LINE
  5
130F27
  8
OBJECT
 10
4097.0
 20
-3579.9999999999968
 30
0.0
 11
4093.0
 21
-3575.4999999999968
 31
0.0
1001
ACDBBLOCKREPETAG
1070
     1
1071
       56
1005
130F27
  0
LINE
  5
130F28
  8
OBJECT
 10
4083.0
 20
-3458.9999999999968
 30
0.0
 11
4080.0
 21
-3458.9999999999968
 31
0.0
1001
ACDBBLOCKREPETAG
1070
     1
1071
       57
1005
130F28
  0
ARC
  5
130F29
  8
OBJECT
 10
4083.0
 20
-3461.9999999999968
 30
0.0
 40
3.0
 50
0.0
 51
90.0
1001
ACDBBLOCKREPETAG
1070
     1
1071
       58
1005
130F29
  0
LINE
  5
130F2A
  8
OBJECT
 10
4080.0
 20
-3582.9999999999968
 30
0.0
 11
4083.0
 21
-3582.9999999999968
 31
0.0
1001
ACDBBLOCKREPETAG
1070
     1
1071
       59
1005
130F2A
  0
ARC
  5
130F2B
  8
OBJECT
 10
4083.0
 20
-3579.9999999999968
 30
0.0
 40
3.0
 50
270.0
 51
0.0
1001
ACDBBLOCKREPETAG
1070
     1
1071
       60
1005
130F2B
  0
LINE
  5
130F2C
  8
OBJECT
 10
4086.0
 20
-3579.9999999999968
 30
0.0
 11
4086.0
 21
-3461.9999999999968
 31
0.0
1001
ACDBBLOCKREPETAG
1070
     1
1071
       61
1005
130F2C
  0
LINE
  5
130F2D
  8
HIDDEN
 10
4088.0
 20
-3476.4999999999968
 30
0.0
 11
4088.0
 21
-3565.4999999999968
 31
0.0
1001
ACDBBLOCKREPETAG
1070
     1
1071
       63
1005
130F2D
  0
LINE
  5
130F2E
  8
OBJECT
 10
4133.0
 20
-3112.9999999999959
 30
0.0
 11
4140.0
 21
-3112.9999999999959
 31
0.0
1001
ACDBBLOCKREPETAG
1070
     1
1071
       47
1005
130F2E
  0
LINE
  5
130F2F
  8
OBJECT
 10
4140.0
 20
-3112.9999999999959
 30
0.0
 11
4140.0
 21
-3236.9999999999959
 31
0.0
1001
ACDBBLOCKREPETAG
1070
     1
1071
       48
1005
130F2F
  0
LINE
  5
130F30
  8
OBJECT
 10
4140.0
 20
-3236.9999999999959
 30
0.0
 11
4133.0
 21
-3236.9999999999959
 31
0.0
1001
ACDBBLOCKREPETAG
1070
     1
1071
       49
1005
130F30
  0
LINE
  5
130F31
  8
OBJECT
 10
4133.0
 20
-3236.9999999999959
 30
0.0
 11
4133.0
 21
-3112.9999999999959
 31
0.0
1001
ACDBBLOCKREPETAG
1070
     1
1071
       50
1005
130F31
  0
LINE
  5
130F32
  8
CENTER
 10
4155.0
 20
-3174.9999999999959
 30
0.0
 11
4080.0
 21
-3174.9999999999959
 31
0.0
1001
ACDBBLOCKREPETAG
1070
     1
1071
       51
1005
130F32
  0
LINE
  5
130F33
  8
OBJECT
 10
4133.0
 20
-3115.9999999999959
 30
0.0
 11
4097.0
 21
-3115.9999999999959
 31
0.0
1001
ACDBBLOCKREPETAG
1070
     1
1071
       52
1005
130F33
  0
LINE
  5
130F34
  8
OBJECT
 10
4097.0
 20
-3115.9999999999959
 30
0.0
 11
4097.0
 21
-3233.9999999999959
 31
0.0
1001
ACDBBLOCKREPETAG
1070
     1
1071
       53
1005
130F34
  0
LINE
  5
130F35
  8
OBJECT
 10
4097.0
 20
-3233.9999999999959
 30
0.0
 11
4133.0
 21
-3233.9999999999959
 31
0.0
1001
ACDBBLOCKREPETAG
1070
     1
1071
       54
1005
130F35
  0
LINE
  5
130F36
  8
OBJECT
 10
4093.0
 20
-3120.4999999999959
 30
0.0
 11
4086.0
 21
-3120.4999999999959
 31
0.0
1001
ACDBBLOCKREPETAG
1070
     1
1071
       55
1005
130F36
  0
LINE
  5
130F37
  8
OBJECT
 10
4086.0
 20
-3229.4999999999959
 30
0.0
 11
4093.0
 21
-3229.4999999999959
 31
0.0
1001
ACDBBLOCKREPETAG
1070
     1
1071
       56
1005
130F37
  0
LINE
  5
130F38
  8
OBJECT
 10
4093.0
 20
-3229.4999999999959
 30
0.0
 11
4093.0
 21
-3120.4999999999959
 31
0.0
1001
ACDBBLOCKREPETAG
1070
     1
1071
       57
1005
130F38
  0
LINE
  5
130F39
  8
OBJECT
 10
4097.0
 20
-3115.9999999999959
 30
0.0
 11
4093.0
 21
-3120.4999999999959
 31
0.0
1001
ACDBBLOCKREPETAG
1070
     1
1071
       58
1005
130F39
  0
LINE
  5
130F3A
  8
OBJECT
 10
4097.0
 20
-3233.9999999999959
 30
0.0
 11
4093.0
 21
-3229.4999999999959
 31
0.0
1001
ACDBBLOCKREPETAG
1070
     1
1071
       59
1005
130F3A
  0
LINE
  5
130F3B
  8
OBJECT
 10
4083.0
 20
-3112.9999999999959
 30
0.0
 11
4080.0
 21
-3112.9999999999959
 31
0.0
1001
ACDBBLOCKREPETAG
1070
     1
1071
       60
1005
130F3B
  0
ARC
  5
130F3C
  8
OBJECT
 10
4083.0
 20
-3115.9999999999959
 30
0.0
 40
3.0
 50
0.0
 51
90.0
1001
ACDBBLOCKREPETAG
1070
     1
1071
       61
1005
130F3C
  0
LINE
  5
130F3D
  8
OBJECT
 10
4080.0
 20
-3236.9999999999959
 30
0.0
 11
4083.0
 21
-3236.9999999999959
 31
0.0
1001
ACDBBLOCKREPETAG
1070
     1
1071
       62
1005
130F3D
  0
ARC
  5
130F3E
  8
OBJECT
 10
4083.0
 20
-3233.9999999999959
 30
0.0
 40
3.0
 50
270.0
 51
0.0
1001
ACDBBLOCKREPETAG
1070
     1
1071
       63
1005
130F3E
  0
LINE
  5
130F3F
  8
OBJECT
 10
4086.0
 20
-3233.9999999999959
 30
0.0
 11
4086.0
 21
-3115.9999999999959
 31
0.0
1001
ACDBBLOCKREPETAG
1070
     1
1071
       64
1005
130F3F
  0
LINE
  5
130F40
  8
HIDDEN
 10
4088.0
 20
-3130.4999999999959
 30
0.0
 11
4088.0
 21
-3219.4999999999959
 31
0.0
1001
ACDBBLOCKREPETAG
1070
     1
1071
       65
1005
130F40
  0
TEXT
  5
130F41
  8
SLIM
 10
3894.25
 20
-3697.4999999999959
 30
0.0
 40
35.0
  1
通常枝75（3）
 41
0.75
  0
CIRCLE
  5
130F42
  8
OBJECT
 10
3400.0
 20
-3527.9999999999968
 30
0.0
 40
35.5
1001
ACDBBLOCKREPETAG
1070
     1
1071
       10
1005
130F42
  0
CIRCLE
  5
130F43
  8
OBJECT
 10
3400.0
 20
-3520.9999999999968
 30
0.0
 40
62.0
1001
ACDBBLOCKREPETAG
1070
     1
1071
       11
1005
130F43
  0
LINE
  5
130F44
  8
CENTER
 10
3330.0
 20
-3527.9999999999968
 30
0.0
 11
3470.0
 21
-3527.9999999999968
 31
0.0
1001
ACDBBLOCKREPETAG
1070
     1
1071
       12
1005
130F44
  0
CIRCLE
  5
130F45
  8
OBJECT
 10
3400.0
 20
-3527.9999999999968
 30
0.0
 40
47.0
1001
ACDBBLOCKREPETAG
1070
     1
1071
       14
1005
130F45
  0
ARC
  5
130F46
  8
OBJECT
 10
3400.0
 20
-3527.9999999999968
 30
0.0
 40
55.0
 50
289.01126526011359
 51
250.98873473988641
1001
ACDBBLOCKREPETAG
1070
     1
1071
       15
1005
130F46
  0
LINE
  5
130F47
  8
OBJECT
 10
3382.0835271328328
 20
-3579.9999999999968
 30
0.0
 11
3417.9164728671681
 21
-3579.9999999999968
 31
0.0
1001
ACDBBLOCKREPETAG
1070
     1
1071
       16
1005
130F47
  0
LINE
  5
130F48
  8
OBJECT
 10
3133.0
 20
-3472.9999999999968
 30
0.0
 11
3140.0
 21
-3472.9999999999968
 31
0.0
1001
ACDBBLOCKREPETAG
1070
     1
1071
       26
1005
130F48
  0
LINE
  5
130F49
  8
OBJECT
 10
3140.0
 20
-3472.9999999999968
 30
0.0
 11
3140.0
 21
-3579.9999999999968
 31
0.0
1001
ACDBBLOCKREPETAG
1070
     1
1071
       27
1005
130F49
  0
LINE
  5
130F4A
  8
OBJECT
 10
3133.0
 20
-3579.9999999999968
 30
0.0
 11
3133.0
 21
-3472.9999999999968
 31
0.0
1001
ACDBBLOCKREPETAG
1070
     1
1071
       28
1005
130F4A
  0
LINE
  5
130F4B
  8
CENTER
 10
3155.0
 20
-3527.9999999999968
 30
0.0
 11
3071.0
 21
-3527.9999999999968
 31
0.0
1001
ACDBBLOCKREPETAG
1070
     1
1071
       29
1005
130F4B
  0
LINE
  5
130F4C
  8
OBJECT
 10
3133.0
 20
-3475.9999999999968
 30
0.0
 11
3097.0
 21
-3475.9999999999968
 31
0.0
1001
ACDBBLOCKREPETAG
1070
     1
1071
       30
1005
130F4C
  0
LINE
  5
130F4D
  8
OBJECT
 10
3097.0
 20
-3475.9999999999968
 30
0.0
 11
3097.0
 21
-3579.9999999999968
 31
0.0
1001
ACDBBLOCKREPETAG
1070
     1
1071
       31
1005
130F4D
  0
LINE
  5
130F4E
  8
OBJECT
 10
3097.0
 20
-3579.9999999999968
 30
0.0
 11
3140.0
 21
-3579.9999999999968
 31
0.0
1001
ACDBBLOCKREPETAG
1070
     1
1071
       32
1005
130F4E
  0
LINE
  5
130F4F
  8
OBJECT
 10
3093.0
 20
-3480.4999999999968
 30
0.0
 11
3086.0
 21
-3480.4999999999968
 31
0.0
1001
ACDBBLOCKREPETAG
1070
     1
1071
       33
1005
130F4F
  0
LINE
  5
130F50
  8
OBJECT
 10
3086.0
 20
-3575.4999999999968
 30
0.0
 11
3093.0
 21
-3575.4999999999968
 31
0.0
1001
ACDBBLOCKREPETAG
1070
     1
1071
       34
1005
130F50
  0
LINE
  5
130F51
  8
OBJECT
 10
3093.0
 20
-3575.4999999999968
 30
0.0
 11
3093.0
 21
-3480.4999999999968
 31
0.0
1001
ACDBBLOCKREPETAG
1070
     1
1071
       35
1005
130F51
  0
LINE
  5
130F52
  8
OBJECT
 10
3097.0
 20
-3475.9999999999968
 30
0.0
 11
3093.0
 21
-3480.4999999999968
 31
0.0
1001
ACDBBLOCKREPETAG
1070
     1
1071
       36
1005
130F52
  0
LINE
  5
130F53
  8
OBJECT
 10
3097.0
 20
-3579.9999999999968
 30
0.0
 11
3093.0
 21
-3575.4999999999968
 31
0.0
1001
ACDBBLOCKREPETAG
1070
     1
1071
       37
1005
130F53
  0
LINE
  5
130F54
  8
OBJECT
 10
3083.0
 20
-3458.9999999999968
 30
0.0
 11
3080.0
 21
-3458.9999999999968
 31
0.0
1001
ACDBBLOCKREPETAG
1070
     1
1071
       38
1005
130F54
  0
ARC
  5
130F55
  8
OBJECT
 10
3083.0
 20
-3461.9999999999968
 30
0.0
 40
3.0
 50
0.0
 51
90.0
1001
ACDBBLOCKREPETAG
1070
     1
1071
       39
1005
130F55
  0
LINE
  5
130F56
  8
OBJECT
 10
3080.0
 20
-3582.9999999999968
 30
0.0
 11
3083.0
 21
-3582.9999999999968
 31
0.0
1001
ACDBBLOCKREPETAG
1070
     1
1071
       40
1005
130F56
  0
ARC
  5
130F57
  8
OBJECT
 10
3083.0
 20
-3579.9999999999968
 30
0.0
 40
3.0
 50
270.0
 51
0.0
1001
ACDBBLOCKREPETAG
1070
     1
1071
       41
1005
130F57
  0
LINE
  5
130F58
  8
OBJECT
 10
3086.0
 20
-3579.9999999999968
 30
0.0
 11
3086.0
 21
-3461.9999999999968
 31
0.0
1001
ACDBBLOCKREPETAG
1070
     1
1071
       42
1005
130F58
  0
LINE
  5
130F59
  8
HIDDEN
 10
3088.0
 20
-3489.9999999999968
 30
0.0
 11
3088.0
 21
-3565.9999999999968
 31
0.0
1001
ACDBBLOCKREPETAG
1070
     1
1071
       43
1005
130F59
  0
LINE
  5
130F5A
  8
OBJECT
 10
3133.0
 20
-3119.9999999999959
 30
0.0
 11
3140.0
 21
-3119.9999999999959
 31
0.0
1001
ACDBBLOCKREPETAG
1070
     1
1071
       27
1005
130F5A
  0
LINE
  5
130F5B
  8
OBJECT
 10
3140.0
 20
-3119.9999999999959
 30
0.0
 11
3140.0
 21
-3229.9999999999959
 31
0.0
1001
ACDBBLOCKREPETAG
1070
     1
1071
       28
1005
130F5B
  0
LINE
  5
130F5C
  8
OBJECT
 10
3140.0
 20
-3229.9999999999959
 30
0.0
 11
3133.0
 21
-3229.9999999999959
 31
0.0
1001
ACDBBLOCKREPETAG
1070
     1
1071
       29
1005
130F5C
  0
LINE
  5
130F5D
  8
OBJECT
 10
3133.0
 20
-3229.9999999999959
 30
0.0
 11
3133.0
 21
-3119.9999999999959
 31
0.0
1001
ACDBBLOCKREPETAG
1070
     1
1071
       30
1005
130F5D
  0
LINE
  5
130F5E
  8
CENTER
 10
3155.0
 20
-3174.9999999999959
 30
0.0
 11
3080.0
 21
-3174.9999999999959
 31
0.0
1001
ACDBBLOCKREPETAG
1070
     1
1071
       31
1005
130F5E
  0
LINE
  5
130F5F
  8
OBJECT
 10
3133.0
 20
-3122.9999999999959
 30
0.0
 11
3097.0
 21
-3122.9999999999959
 31
0.0
1001
ACDBBLOCKREPETAG
1070
     1
1071
       32
1005
130F5F
  0
LINE
  5
130F60
  8
OBJECT
 10
3097.0
 20
-3122.9999999999959
 30
0.0
 11
3097.0
 21
-3226.9999999999959
 31
0.0
1001
ACDBBLOCKREPETAG
1070
     1
1071
       33
1005
130F60
  0
LINE
  5
130F61
  8
OBJECT
 10
3097.0
 20
-3226.9999999999959
 30
0.0
 11
3133.0
 21
-3226.9999999999959
 31
0.0
1001
ACDBBLOCKREPETAG
1070
     1
1071
       34
1005
130F61
  0
LINE
  5
130F62
  8
OBJECT
 10
3093.0
 20
-3127.4999999999959
 30
0.0
 11
3086.0
 21
-3127.4999999999959
 31
0.0
1001
ACDBBLOCKREPETAG
1070
     1
1071
       35
1005
130F62
  0
LINE
  5
130F63
  8
OBJECT
 10
3086.0
 20
-3222.4999999999959
 30
0.0
 11
3093.0
 21
-3222.4999999999959
 31
0.0
1001
ACDBBLOCKREPETAG
1070
     1
1071
       36
1005
130F63
  0
LINE
  5
130F64
  8
OBJECT
 10
3093.0
 20
-3222.4999999999959
 30
0.0
 11
3093.0
 21
-3127.4999999999959
 31
0.0
1001
ACDBBLOCKREPETAG
1070
     1
1071
       37
1005
130F64
  0
LINE
  5
130F65
  8
OBJECT
 10
3097.0
 20
-3122.9999999999959
 30
0.0
 11
3093.0
 21
-3127.4999999999959
 31
0.0
1001
ACDBBLOCKREPETAG
1070
     1
1071
       38
1005
130F65
  0
LINE
  5
130F66
  8
OBJECT
 10
3097.0
 20
-3226.9999999999959
 30
0.0
 11
3093.0
 21
-3222.4999999999959
 31
0.0
1001
ACDBBLOCKREPETAG
1070
     1
1071
       39
1005
130F66
  0
LINE
  5
130F67
  8
OBJECT
 10
3083.0
 20
-3112.9999999999959
 30
0.0
 11
3080.0
 21
-3112.9999999999959
 31
0.0
1001
ACDBBLOCKREPETAG
1070
     1
1071
       40
1005
130F67
  0
ARC
  5
130F68
  8
OBJECT
 10
3083.0
 20
-3115.9999999999959
 30
0.0
 40
3.0
 50
0.0
 51
90.0
1001
ACDBBLOCKREPETAG
1070
     1
1071
       41
1005
130F68
  0
LINE
  5
130F69
  8
OBJECT
 10
3080.0
 20
-3236.9999999999959
 30
0.0
 11
3083.0
 21
-3236.9999999999959
 31
0.0
1001
ACDBBLOCKREPETAG
1070
     1
1071
       42
1005
130F69
  0
ARC
  5
130F6A
  8
OBJECT
 10
3083.0
 20
-3233.9999999999959
 30
0.0
 40
3.0
 50
270.0
 51
0.0
1001
ACDBBLOCKREPETAG
1070
     1
1071
       43
1005
130F6A
  0
LINE
  5
130F6B
  8
OBJECT
 10
3086.0
 20
-3233.9999999999959
 30
0.0
 11
3086.0
 21
-3115.9999999999959
 31
0.0
1001
ACDBBLOCKREPETAG
1070
     1
1071
       44
1005
130F6B
  0
LINE
  5
130F6C
  8
HIDDEN
 10
3088.0
 20
-3136.9999999999959
 30
0.0
 11
3088.0
 21
-3212.9999999999959
 31
0.0
1001
ACDBBLOCKREPETAG
1070
     1
1071
       45
1005
130F6C
  0
TEXT
  5
130F6D
  8
SLIM
 10
2894.25
 20
-3697.4999999999959
 30
0.0
 40
35.0
  1
通常枝65（2）
 41
0.75
  0
CIRCLE
  5
130F6E
  8
OBJECT
 10
2400.0
 20
-3520.9999999999968
 30
0.0
 40
62.0
1001
ACDBBLOCKREPETAG
1070
     1
1071
        3
1005
130F6E
  0
LINE
  5
130F6F
  8
CENTER
 10
2338.0
 20
-3535.9999999999968
 30
0.0
 11
2462.0
 21
-3535.9999999999968
 31
0.0
1001
ACDBBLOCKREPETAG
1070
     1
1071
        4
1005
130F6F
  0
CIRCLE
  5
130F70
  8
OBJECT
 10
2400.0
 20
-3535.9999999999968
 30
0.0
 40
28.0
1001
ACDBBLOCKREPETAG
1070
     1
1071
        6
1005
130F70
  0
CIRCLE
  5
130F71
  8
OBJECT
 10
2400.0
 20
-3535.9999999999968
 30
0.0
 40
39.0
1001
ACDBBLOCKREPETAG
1070
     1
1071
        7
1005
130F71
  0
ARC
  5
130F72
  8
OBJECT
 10
2400.0
 20
-3535.9999999999968
 30
0.0
 40
47.0
 50
290.58196921144412
 51
249.41803078855591
1001
ACDBBLOCKREPETAG
1070
     1
1071
        8
1005
130F72
  0
LINE
  5
130F73
  8
OBJECT
 10
2383.4772883581431
 20
-3579.9999999999968
 30
0.0
 11
2416.5227116418569
 21
-3579.9999999999968
 31
0.0
1001
ACDBBLOCKREPETAG
1070
     1
1071
        9
1005
130F73
  0
LINE
  5
130F74
  8
OBJECT
 10
2133.0
 20
-3488.9999999999968
 30
0.0
 11
2140.0
 21
-3488.9999999999968
 31
0.0
1001
ACDBBLOCKREPETAG
1070
     1
1071
        7
1005
130F74
  0
LINE
  5
130F75
  8
OBJECT
 10
2140.0
 20
-3488.9999999999968
 30
0.0
 11
2140.0
 21
-3579.9999999999968
 31
0.0
1001
ACDBBLOCKREPETAG
1070
     1
1071
        8
1005
130F75
  0
LINE
  5
130F76
  8
OBJECT
 10
2133.0
 20
-3579.9999999999968
 30
0.0
 11
2133.0
 21
-3488.9999999999968
 31
0.0
1001
ACDBBLOCKREPETAG
1070
     1
1071
        9
1005
130F76
  0
LINE
  5
130F77
  8
CENTER
 10
2155.0
 20
-3535.9999999999968
 30
0.0
 11
2071.0
 21
-3535.9999999999968
 31
0.0
1001
ACDBBLOCKREPETAG
1070
     1
1071
       10
1005
130F77
  0
LINE
  5
130F78
  8
OBJECT
 10
2133.0
 20
-3491.9999999999968
 30
0.0
 11
2097.0
 21
-3491.9999999999968
 31
0.0
1001
ACDBBLOCKREPETAG
1070
     1
1071
       11
1005
130F78
  0
LINE
  5
130F79
  8
OBJECT
 10
2097.0
 20
-3491.9999999999968
 30
0.0
 11
2097.0
 21
-3579.9999999999968
 31
0.0
1001
ACDBBLOCKREPETAG
1070
     1
1071
       12
1005
130F79
  0
LINE
  5
130F7A
  8
OBJECT
 10
2097.0
 20
-3579.9999999999968
 30
0.0
 11
2140.0
 21
-3579.9999999999968
 31
0.0
1001
ACDBBLOCKREPETAG
1070
     1
1071
       13
1005
130F7A
  0
LINE
  5
130F7B
  8
OBJECT
 10
2093.0
 20
-3496.4999999999968
 30
0.0
 11
2086.0
 21
-3496.4999999999968
 31
0.0
1001
ACDBBLOCKREPETAG
1070
     1
1071
       14
1005
130F7B
  0
LINE
  5
130F7C
  8
OBJECT
 10
2086.0
 20
-3575.4999999999968
 30
0.0
 11
2093.0
 21
-3575.4999999999968
 31
0.0
1001
ACDBBLOCKREPETAG
1070
     1
1071
       15
1005
130F7C
  0
LINE
  5
130F7D
  8
OBJECT
 10
2093.0
 20
-3575.4999999999968
 30
0.0
 11
2093.0
 21
-3496.4999999999968
 31
0.0
1001
ACDBBLOCKREPETAG
1070
     1
1071
       16
1005
130F7D
  0
LINE
  5
130F7E
  8
OBJECT
 10
2097.0
 20
-3491.9999999999968
 30
0.0
 11
2093.0
 21
-3496.4999999999968
 31
0.0
1001
ACDBBLOCKREPETAG
1070
     1
1071
       17
1005
130F7E
  0
LINE
  5
130F7F
  8
OBJECT
 10
2097.0
 20
-3579.9999999999968
 30
0.0
 11
2093.0
 21
-3575.4999999999968
 31
0.0
1001
ACDBBLOCKREPETAG
1070
     1
1071
       18
1005
130F7F
  0
LINE
  5
130F80
  8
OBJECT
 10
2083.0
 20
-3458.9999999999968
 30
0.0
 11
2080.0
 21
-3458.9999999999968
 31
0.0
1001
ACDBBLOCKREPETAG
1070
     1
1071
       19
1005
130F80
  0
ARC
  5
130F81
  8
OBJECT
 10
2083.0
 20
-3461.9999999999968
 30
0.0
 40
3.0
 50
0.0
 51
90.0
1001
ACDBBLOCKREPETAG
1070
     1
1071
       20
1005
130F81
  0
LINE
  5
130F82
  8
OBJECT
 10
2080.0
 20
-3582.9999999999968
 30
0.0
 11
2083.0
 21
-3582.9999999999968
 31
0.0
1001
ACDBBLOCKREPETAG
1070
     1
1071
       21
1005
130F82
  0
ARC
  5
130F83
  8
OBJECT
 10
2083.0
 20
-3579.9999999999968
 30
0.0
 40
3.0
 50
270.0
 51
0.0
1001
ACDBBLOCKREPETAG
1070
     1
1071
       22
1005
130F83
  0
LINE
  5
130F84
  8
OBJECT
 10
2086.0
 20
-3579.9999999999968
 30
0.0
 11
2086.0
 21
-3461.9999999999968
 31
0.0
1001
ACDBBLOCKREPETAG
1070
     1
1071
       23
1005
130F84
  0
LINE
  5
130F85
  8
HIDDEN
 10
2088.0
 20
-3505.9999999999968
 30
0.0
 11
2088.0
 21
-3565.9999999999968
 31
0.0
1001
ACDBBLOCKREPETAG
1070
     1
1071
       24
1005
130F85
  0
LINE
  5
130F86
  8
OBJECT
 10
2133.0
 20
-3127.9999999999959
 30
0.0
 11
2140.0
 21
-3127.9999999999959
 31
0.0
1001
ACDBBLOCKREPETAG
1070
     1
1071
        7
1005
130F86
  0
LINE
  5
130F87
  8
OBJECT
 10
2140.0
 20
-3127.9999999999959
 30
0.0
 11
2140.0
 21
-3221.9999999999959
 31
0.0
1001
ACDBBLOCKREPETAG
1070
     1
1071
        8
1005
130F87
  0
LINE
  5
130F88
  8
OBJECT
 10
2140.0
 20
-3221.9999999999959
 30
0.0
 11
2133.0
 21
-3221.9999999999959
 31
0.0
1001
ACDBBLOCKREPETAG
1070
     1
1071
        9
1005
130F88
  0
LINE
  5
130F89
  8
OBJECT
 10
2133.0
 20
-3221.9999999999959
 30
0.0
 11
2133.0
 21
-3127.9999999999959
 31
0.0
1001
ACDBBLOCKREPETAG
1070
     1
1071
       10
1005
130F89
  0
LINE
  5
130F8A
  8
CENTER
 10
2155.0
 20
-3174.9999999999959
 30
0.0
 11
2080.0
 21
-3174.9999999999959
 31
0.0
1001
ACDBBLOCKREPETAG
1070
     1
1071
       11
1005
130F8A
  0
LINE
  5
130F8B
  8
OBJECT
 10
2133.0
 20
-3130.9999999999959
 30
0.0
 11
2097.0
 21
-3130.9999999999959
 31
0.0
1001
ACDBBLOCKREPETAG
1070
     1
1071
       12
1005
130F8B
  0
LINE
  5
130F8C
  8
OBJECT
 10
2097.0
 20
-3130.9999999999959
 30
0.0
 11
2097.0
 21
-3218.9999999999959
 31
0.0
1001
ACDBBLOCKREPETAG
1070
     1
1071
       13
1005
130F8C
  0
LINE
  5
130F8D
  8
OBJECT
 10
2097.0
 20
-3218.9999999999959
 30
0.0
 11
2133.0
 21
-3218.9999999999959
 31
0.0
1001
ACDBBLOCKREPETAG
1070
     1
1071
       14
1005
130F8D
  0
LINE
  5
130F8E
  8
OBJECT
 10
2093.0
 20
-3135.4999999999959
 30
0.0
 11
2086.0
 21
-3135.4999999999959
 31
0.0
1001
ACDBBLOCKREPETAG
1070
     1
1071
       15
1005
130F8E
  0
LINE
  5
130F8F
  8
OBJECT
 10
2086.0
 20
-3214.4999999999959
 30
0.0
 11
2093.0
 21
-3214.4999999999959
 31
0.0
1001
ACDBBLOCKREPETAG
1070
     1
1071
       16
1005
130F8F
  0
LINE
  5
130F90
  8
OBJECT
 10
2093.0
 20
-3214.4999999999959
 30
0.0
 11
2093.0
 21
-3135.4999999999959
 31
0.0
1001
ACDBBLOCKREPETAG
1070
     1
1071
       17
1005
130F90
  0
LINE
  5
130F91
  8
OBJECT
 10
2097.0
 20
-3130.9999999999959
 30
0.0
 11
2093.0
 21
-3135.4999999999959
 31
0.0
1001
ACDBBLOCKREPETAG
1070
     1
1071
       18
1005
130F91
  0
LINE
  5
130F92
  8
OBJECT
 10
2097.0
 20
-3218.9999999999959
 30
0.0
 11
2093.0
 21
-3214.4999999999959
 31
0.0
1001
ACDBBLOCKREPETAG
1070
     1
1071
       19
1005
130F92
  0
LINE
  5
130F93
  8
OBJECT
 10
2083.0
 20
-3112.9999999999959
 30
0.0
 11
2080.0
 21
-3112.9999999999959
 31
0.0
1001
ACDBBLOCKREPETAG
1070
     1
1071
       20
1005
130F93
  0
ARC
  5
130F94
  8
OBJECT
 10
2083.0
 20
-3115.9999999999959
 30
0.0
 40
3.0
 50
0.0
 51
90.0
1001
ACDBBLOCKREPETAG
1070
     1
1071
       21
1005
130F94
  0
LINE
  5
130F95
  8
OBJECT
 10
2080.0
 20
-3236.9999999999959
 30
0.0
 11
2083.0
 21
-3236.9999999999959
 31
0.0
1001
ACDBBLOCKREPETAG
1070
     1
1071
       22
1005
130F95
  0
ARC
  5
130F96
  8
OBJECT
 10
2083.0
 20
-3233.9999999999959
 30
0.0
 40
3.0
 50
270.0
 51
0.0
1001
ACDBBLOCKREPETAG
1070
     1
1071
       23
1005
130F96
  0
LINE
  5
130F97
  8
OBJECT
 10
2086.0
 20
-3233.9999999999959
 30
0.0
 11
2086.0
 21
-3115.9999999999959
 31
0.0
1001
ACDBBLOCKREPETAG
1070
     1
1071
       24
1005
130F97
  0
LINE
  5
130F98
  8
HIDDEN
 10
2088.0
 20
-3144.9999999999959
 30
0.0
 11
2088.0
 21
-3204.9999999999959
 31
0.0
1001
ACDBBLOCKREPETAG
1070
     1
1071
       25
1005
130F98
  0
TEXT
  5
130F99
  8
SLIM
 10
1896.75
 20
-3697.4999999999959
 30
0.0
 40
35.0
  1
通常枝50（1）
 41
0.75
  0
LINE
  5
130F9A
  8
OBJECT
 10
3930.0
 20
-1079.999999999997
 30
0.0
 11
4070.0
 21
-1079.999999999997
 31
0.0
1001
ACDBBLOCKREPETAG
1070
     1
1071
        0
1005
130F9A
  0
LINE
  5
130F9B
  8
OBJECT
 10
3930.0
 20
-1079.999999999997
 30
0.0
 11
3930.0
 21
-839.99999999999704
 31
0.0
1001
ACDBBLOCKREPETAG
1070
     1
1071
        1
1005
130F9B
  0
LINE
  5
130F9C
  8
OBJECT
 10
4070.0
 20
-1079.999999999997
 30
0.0
 11
4070.0
 21
-839.99999999999704
 31
0.0
1001
ACDBBLOCKREPETAG
1070
     1
1071
        2
1005
130F9C
  0
LINE
  5
130F9D
  8
OBJECT
 10
3930.0
 20
-839.99999999999704
 30
0.0
 11
4070.0
 21
-839.99999999999704
 31
0.0
1001
ACDBBLOCKREPETAG
1070
     1
1071
        3
1005
130F9D
  0
LINE
  5
130F9E
  8
HIDDEN
 10
3937.5
 20
-839.99999999999704
 30
0.0
 11
3937.5
 21
-1079.999999999997
 31
0.0
1001
ACDBBLOCKREPETAG
1070
     1
1071
        4
1005
130F9E
  0
LINE
  5
130F9F
  8
HIDDEN
 10
4062.5
 20
-839.99999999999704
 30
0.0
 11
4062.5
 21
-1079.999999999997
 31
0.0
1001
ACDBBLOCKREPETAG
1070
     1
1071
        5
1005
130F9F
  0
LINE
  5
130FA0
  8
CENTER
 10
4000.0
 20
-769.99999999999875
 30
0.0
 11
4000.0
 21
-1094.999999999997
 31
0.0
1001
ACDBBLOCKREPETAG
1070
     1
1071
        6
1005
130FA0
  0
LINE
  5
130FA1
  8
OBJECT
 10
3925.0
 20
-769.99999999999875
 30
0.0
 11
3925.0
 21
-799.99999999999693
 31
0.0
1001
ACDBBLOCKREPETAG
1070
     1
1071
        7
1005
130FA1
  0
LINE
  5
130FA2
  8
OBJECT
 10
4075.0000000000032
 20
-769.99999999999875
 30
0.0
 11
4075.0
 21
-799.99999999999693
 31
0.0
1001
ACDBBLOCKREPETAG
1070
     1
1071
        8
1005
130FA2
  0
LINE
  5
130FA3
  8
OBJECT
 10
3925.0
 20
-799.99999999999693
 30
0.0
 11
4075.0
 21
-799.99999999999693
 31
0.0
1001
ACDBBLOCKREPETAG
1070
     1
1071
        9
1005
130FA3
  0
LINE
  5
130FA4
  8
OBJECT
 10
3925.0
 20
-799.99999999999693
 30
0.0
 11
3930.0
 21
-839.99999999999704
 31
0.0
1001
ACDBBLOCKREPETAG
1070
     1
1071
       10
1005
130FA4
  0
LINE
  5
130FA5
  8
OBJECT
 10
4070.0
 20
-839.99999999999704
 30
0.0
 11
4075.0
 21
-799.99999999999693
 31
0.0
1001
ACDBBLOCKREPETAG
1070
     1
1071
       11
1005
130FA5
  0
LINE
  5
130FA6
  8
OBJECT
 10
1930.0
 20
-1079.999999999998
 30
0.0
 11
2070.0
 21
-1079.999999999998
 31
0.0
1001
ACDBBLOCKREPETAG
1070
     1
1071
        0
1005
130FA6
  0
LINE
  5
130FA7
  8
OBJECT
 10
1930.0
 20
-1079.999999999998
 30
0.0
 11
1930.0
 21
-839.99999999999795
 31
0.0
1001
ACDBBLOCKREPETAG
1070
     1
1071
        1
1005
130FA7
  0
LINE
  5
130FA8
  8
OBJECT
 10
2070.0
 20
-1079.999999999998
 30
0.0
 11
2070.0
 21
-839.99999999999795
 31
0.0
1001
ACDBBLOCKREPETAG
1070
     1
1071
        2
1005
130FA8
  0
LINE
  5
130FA9
  8
OBJECT
 10
1930.0
 20
-839.99999999999795
 30
0.0
 11
2070.0
 21
-839.99999999999795
 31
0.0
1001
ACDBBLOCKREPETAG
1070
     1
1071
        3
1005
130FA9
  0
LINE
  5
130FAA
  8
HIDDEN
 10
1937.5
 20
-839.99999999999795
 30
0.0
 11
1937.5
 21
-1079.999999999998
 31
0.0
1001
ACDBBLOCKREPETAG
1070
     1
1071
        4
1005
130FAA
  0
LINE
  5
130FAB
  8
HIDDEN
 10
2062.5
 20
-839.99999999999795
 30
0.0
 11
2062.5
 21
-1079.999999999998
 31
0.0
1001
ACDBBLOCKREPETAG
1070
     1
1071
        5
1005
130FAB
  0
LINE
  5
130FAC
  8
CENTER
 10
2000.0
 20
-769.99999999999955
 30
0.0
 11
2000.0
 21
-1094.999999999997
 31
0.0
1001
ACDBBLOCKREPETAG
1070
     1
1071
        6
1005
130FAC
  0
LINE
  5
130FAD
  8
OBJECT
 10
1925.0
 20
-769.99999999999955
 30
0.0
 11
1925.0
 21
-799.99999999999773
 31
0.0
1001
ACDBBLOCKREPETAG
1070
     1
1071
        7
1005
130FAD
  0
LINE
  5
130FAE
  8
OBJECT
 10
2075.0000000000041
 20
-769.99999999999955
 30
0.0
 11
2075.0
 21
-799.99999999999773
 31
0.0
1001
ACDBBLOCKREPETAG
1070
     1
1071
        8
1005
130FAE
  0
LINE
  5
130FAF
  8
OBJECT
 10
1925.0
 20
-799.99999999999773
 30
0.0
 11
2075.0
 21
-799.99999999999773
 31
0.0
1001
ACDBBLOCKREPETAG
1070
     1
1071
        9
1005
130FAF
  0
LINE
  5
130FB0
  8
OBJECT
 10
1925.0
 20
-799.99999999999773
 30
0.0
 11
1930.0
 21
-839.99999999999795
 31
0.0
1001
ACDBBLOCKREPETAG
1070
     1
1071
       10
1005
130FB0
  0
LINE
  5
130FB1
  8
OBJECT
 10
2070.0
 20
-839.99999999999795
 30
0.0
 11
2075.0
 21
-799.99999999999773
 31
0.0
1001
ACDBBLOCKREPETAG
1070
     1
1071
       11
1005
130FB1
  0
TEXT
  5
130FB2
  8
SLIM
 10
3741.6250000000009
 20
-1347.499999999997
 30
0.0
 40
35.0
  1
片受けスタイル（S）＋シンドカット
 41
0.75
  0
TEXT
  5
130FB3
  8
SLIM
 10
1856.25
 20
-1347.499999999998
 30
0.0
 40
35.0
  1
片受けスタイル（S）
 41
0.75
  0
VIEWPORT
  5
F6BA7
 67
     1
  8
0
 10
145.33033752441401
 20
101.8328354358673
 30
0.0
 40
334.0025019414623
 41
222.19657968139651
 68
     1
 69
     1
1001
ACAD
1000
MVIEW
1002
{
1070
    16
1010
0.0
1020
0.0
1030
0.0
1010
0.0
1020
0.0
1030
1.0
1040
0.0
1040
222.19657968139651
1040
145.33033752441401
1040
101.8328354358673
1040
50.0
1040
0.0
1040
0.0
1070
     0
1070
     0
1070
     1
1070
     1
1070
     0
1070
     0
1070
     0
1070
     0
1040
0.0
1040
0.0
1040
0.0
1040
10.0
1040
10.0
1040
10.0
1040
10.0
1070
     0
1002
{
1002
}
1002
}
  0
VIEWPORT
  5
F6BA9
 67
     1
  8
OBJECT
 10
145.3303314447403
 20
101.8328338861465
 30
0.0
 40
232.5285303115844
 41
162.93253421783439
 68
     2
 69
     2
1001
ACAD
1000
MVIEW
1002
{
1070
    16
1010
0.0
1020
0.0
1030
0.0
1010
0.0
1020
0.0
1030
1.0
1040
0.0
1040
25942.55904403147
1040
2377.604457077377
1040
-7591.5176687056619
1040
50.0
1040
0.0
1040
0.0
1070
     0
1070
   600
1070
     1
1070
     1
1070
     0
1070
     0
1070
     0
1070
     0
1040
0.0
1040
0.0
1040
0.0
1040
1.0
1040
1.0
1040
0.0
1040
0.0
1070
     0
1002
{
1002
}
1002
}
  0
ENDSEC
  0
EOF
