  0
SECTION
  2
HEADER
  9
$ACADVER
  1
AC1009
  9
$INSBASE
 10
0.0
 20
0.0
 30
0.0
  9
$EXTMIN
 10
0.0
 20
-3697.4999999999968
 30
0.0
  9
$EXTMAX
 10
5575.0
 20
607.5
 30
0.0
  9
$LIMMIN
 10
0.0
 20
0.0
  9
$LIMMAX
 10
210.0
 20
297.0
  9
$ORTHOMODE
 70
     0
  9
$REGENMODE
 70
     1
  9
$FILLMODE
 70
     1
  9
$QTEXTMODE
 70
     0
  9
$MIRRTEXT
 70
     0
  9
$DRAGMODE
 70
     2
  9
$LTSCALE
 40
1.0
  9
$OSMODE
 70
    37
  9
$ATTMODE
 70
     1
  9
$TEXTSIZE
 40
4.0
  9
$TRACEWID
 40
0.05
  9
$TEXTSTYLE
  7
STANDARD
  9
$CLAYER
  8
OBJECT
  9
$CELTYPE
  6
BYLAYER
  9
$CECOLOR
 62
   256
  9
$DIMSCALE
 40
10.0
  9
$DIMASZ
 40
2.0
  9
$DIMEXO
 40
1.0
  9
$DIMDLI
 40
10.0
  9
$DIMRND
 40
0.0
  9
$DIMDLE
 40
0.0
  9
$DIMEXE
 40
1.0
  9
$DIMTP
 40
0.0
  9
$DIMTM
 40
0.0
  9
$DIMTXT
 40
3.2000000000000002
  9
$DIMCEN
 40
0.0
  9
$DIMTSZ
 40
0.0
  9
$DIMTOL
 70
     0
  9
$DIMLIM
 70
     0
  9
$DIMTIH
 70
     0
  9
$DIMTOH
 70
     0
  9
$DIMSE1
 70
     0
  9
$DIMSE2
 70
     0
  9
$DIMTAD
 70
     1
  9
$DIMZIN
 70
     8
  9
$DIMBLK
  1
OPEN30
  9
$DIMASO
 70
     1
  9
$DIMSHO
 70
     1
  9
$DIMPOST
  1

  9
$DIMAPOST
  1

  9
$DIMALT
 70
     0
  9
$DIMALTD
 70
     2
  9
$DIMALTF
 40
25.399999999999999
  9
$DIMLFAC
 40
1.0
  9
$DIMTOFL
 70
     1
  9
$DIMTVP
 40
0.0
  9
$DIMTIX
 70
     0
  9
$DIMSOXD
 70
     0
  9
$DIMSAH
 70
     0
  9
$DIMBLK1
  1

  9
$DIMBLK2
  1

  9
$DIMSTYLE
  2
S10
  9
$DIMCLRD
 70
   256
  9
$DIMCLRE
 70
   256
  9
$DIMCLRT
 70
   256
  9
$DIMTFAC
 40
1.0
  9
$DIMGAP
 40
0.9
  9
$LUNITS
 70
     2
  9
$LUPREC
 70
     2
  9
$SKETCHINC
 40
0.1
  9
$FILLETRAD
 40
0.0
  9
$AUNITS
 70
     0
  9
$AUPREC
 70
     2
  9
$MENU
  1
ACAD
  9
$ELEVATION
 40
0.0
  9
$PELEVATION
 40
0.0
  9
$THICKNESS
 40
0.0
  9
$LIMCHECK
 70
     0
  9
$BLIPMODE
 70
     0
  9
$CHAMFERA
 40
2.0
  9
$CHAMFERB
 40
2.0
  9
$SKPOLY
 70
     0
  9
$TDCREATE
 40
2453095.4929404748
  9
$TDUPDATE
 40
2457603.7322125109
  9
$TDINDWG
 40
18.349981354200001
  9
$TDUSRTIMER
 40
18.349980636600002
  9
$USRTIMER
 70
     1
  9
$ANGBASE
 50
0.0
  9
$ANGDIR
 70
     0
  9
$PDMODE
 70
    35
  9
$PDSIZE
 40
2.0
  9
$PLINEWID
 40
0.0
  9
$COORDS
 70
     1
  9
$SPLFRAME
 70
     0
  9
$SPLINETYPE
 70
     6
  9
$SPLINESEGS
 70
     8
  9
$ATTDIA
 70
     0
  9
$ATTREQ
 70
     1
  9
$HANDLING
 70
     1
  9
$HANDSEED
  5
131662
  9
$SURFTAB1
 70
     6
  9
$SURFTAB2
 70
     6
  9
$SURFTYPE
 70
     6
  9
$SURFU
 70
     6
  9
$SURFV
 70
     6
  9
$UCSNAME
  2

  9
$UCSORG
 10
0.0
 20
0.0
 30
0.0
  9
$UCSXDIR
 10
1.0
 20
0.0
 30
0.0
  9
$UCSYDIR
 10
0.0
 20
1.0
 30
0.0
  9
$PUCSNAME
  2

  9
$PUCSORG
 10
0.0
 20
0.0
 30
0.0
  9
$PUCSXDIR
 10
1.0
 20
0.0
 30
0.0
  9
$PUCSYDIR
 10
0.0
 20
1.0
 30
0.0
  9
$USERI1
 70
     0
  9
$USERI2
 70
     0
  9
$USERI3
 70
     0
  9
$USERI4
 70
     0
  9
$USERI5
 70
     0
  9
$USERR1
 40
0.0
  9
$USERR2
 40
0.0
  9
$USERR3
 40
0.0
  9
$USERR4
 40
0.0
  9
$USERR5
 40
0.0
  9
$WORLDVIEW
 70
     1
  9
$SHADEDGE
 70
     3
  9
$SHADEDIF
 70
    70
  9
$TILEMODE
 70
     1
  9
$MAXACTVP
 70
    64
  9
$PLIMCHECK
 70
     0
  9
$PEXTMIN
 10
29.066066288948051
 20
20.366566777229309
 30
0.0
  9
$PEXTMAX
 10
261.5945966005325
 20
183.29910099506381
 30
0.0
  9
$PLIMMIN
 10
-3.17498779296875
 20
-3.1749999523162842
  9
$PLIMMAX
 10
293.83566284179687
 20
206.8406708240509
  9
$UNITMODE
 70
     0
  9
$VISRETAIN
 70
     1
  9
$PLINEGEN
 70
     0
  9
$PSLTSCALE
 70
     1
  0
ENDSEC
  0
SECTION
  2
TABLES
  0
TABLE
  2
VPORT
 70
     1
  0
VPORT
  2
*ACTIVE
 70
     0
 10
0.0
 20
0.0
 11
1.0
 21
1.0
 12
2977.3300490264678
 22
-2311.1750892269661
 13
0.0
 23
0.0
 14
1.0
 24
1.0
 15
0.0
 25
0.0
 16
0.0
 26
0.0
 36
1.0
 17
0.0
 27
0.0
 37
0.0
 40
5186.8538498410744
 41
1.6494178525226391
 42
50.0
 43
0.0
 44
0.0
 50
0.0
 51
0.0
 71
     0
 72
   600
 73
     1
 74
     1
 75
     0
 76
     0
 77
     0
 78
     0
  0
ENDTAB
  0
TABLE
  2
LTYPE
 70
     4
  0
LTYPE
  2
CONTINUOUS
 70
     0
  3
Solid line
 72
    65
 73
     0
 40
0.0
  0
LTYPE
  2
PHANTOM2
 70
     0
  3
___ _ _ ___ _ _ ___ _ _ ___ _ _
 72
    65
 73
     6
 40
1.25
 49
0.625
 49
-0.125
 49
0.125
 49
-0.125
 49
0.125
 49
-0.125
  0
LTYPE
  2
ACAD_ISO08W100
 70
     0
  3
ISO long-dash short-dash ____ __ ____ __ ____ _
 72
    65
 73
     4
 40
36.0
 49
24.0
 49
-3.0
 49
6.0
 49
-3.0
  0
LTYPE
  2
ACAD_ISO02W100
 70
     0
  3
ISO dash __ __ __ __ __ __ __ __ __ __ __ __ __
 72
    65
 73
     2
 40
15.0
 49
12.0
 49
-3.0
  0
ENDTAB
  0
TABLE
  2
LAYER
 70
     8
  0
LAYER
  2
0
 70
     0
 62
     7
  6
CONTINUOUS
  0
LAYER
  2
OBJECT
 70
     0
 62
     4
  6
CONTINUOUS
  0
LAYER
  2
DEFPOINTS
 70
     0
 62
     7
  6
CONTINUOUS
  0
LAYER
  2
DIM
 70
     0
 62
     7
  6
CONTINUOUS
  0
LAYER
  2
HIDDEN
 70
     0
 62
     2
  6
ACAD_ISO02W100
  0
LAYER
  2
CENTER
 70
     0
 62
     2
  6
ACAD_ISO08W100
  0
LAYER
  2
DOTS
 70
     0
 62
     1
  6
CONTINUOUS
  0
LAYER
  2
SLIM
 70
     0
 62
     2
  6
CONTINUOUS
  0
ENDTAB
  0
TABLE
  2
STYLE
 70
     2
  0
STYLE
  2
STANDARD
 70
     0
 40
0.0
 41
0.75
 50
0.0
 71
     0
 42
4.0
  3
simplex.shx
  4
bigfont.shx
  0
ENDTAB
  0
TABLE
  2
VIEW
 70
     0
  0
ENDTAB
  0
TABLE
  2
UCS
 70
     0
  0
ENDTAB
  0
TABLE
  2
APPID
 70
    18
  0
APPID
  2
ACAD
 70
     0
  0
APPID
  2
ACADANNOTATIVE
 70
     0
  0
APPID
  2
ACAD_PSEXT
 70
     0
  0
APPID
  2
ACAD_EXEMPT_FROM_CAD_STANDARDS
 70
     0
  0
APPID
  2
ACAECLAYERSTANDARD
 70
     0
  0
APPID
  2
ACAUTHENVIRON
 70
     0
  0
APPID
  2
ACDBDYNAMICBLOCKTRUENAME
 70
     0
  0
APPID
  2
ACDBDYNAMICBLOCKGUID
 70
     0
  0
APPID
  2
ACDBBLOCKREPETAG
 70
     0
  0
APPID
  2
ACDBBLOCKREPBTAG
 70
     0
  0
APPID
  2
ACAD_NAV_VCDISPLAY
 70
     0
  0
APPID
  2
ACAD_DSTYLE_DIMRADIAL_EXTENSION
 70
     0
  0
APPID
  2
ACAD_DSTYLE_DIMJAG
 70
     0
  0
APPID
  2
ACAD_DSTYLE_DIMTALN
 70
     0
  0
APPID
  2
ACADANNOPO
 70
     0
  0
APPID
  2
GRADIENTCOLOR1ACI
 70
     0
  0
APPID
  2
GRADIENTCOLOR2ACI
 70
     0
  0
APPID
  2
ACAD_MLEADERVER
 70
     0
  0
ENDTAB
  0
TABLE
  2
DIMSTYLE
 70
     3
  0
DIMSTYLE
  2
STANDARD
 70
     0
  3

  4

  5

  6

  7

 40
1.0
 41
0.18
 42
0.0625
 43
0.38
 44
0.18
 45
0.0
 46
0.0
 47
0.0
 48
0.0
140
0.18
141
0.09
142
0.0
143
25.399999999999999
144
1.0
145
0.0
146
1.0
147
0.09
 71
     0
 72
     0
 73
     1
 74
     1
 75
     0
 76
     0
 77
     0
 78
     0
170
     0
171
     2
172
     0
173
     0
174
     0
175
     0
176
     0
177
     0
178
     0
  0
DIMSTYLE
  2
S10
 70
     0
  3

  4

  5

  6

  7

 40
10.0
 41
2.0
 42
1.0
 43
10.0
 44
1.0
 45
0.0
 46
0.0
 47
0.0
 48
0.0
140
3.2000000000000002
141
0.0
142
0.0
143
25.399999999999999
144
1.0
145
0.0
146
1.0
147
0.9
 71
     0
 72
     0
 73
     0
 74
     0
 75
     0
 76
     0
 77
     1
 78
     8
170
     0
171
     2
172
     1
173
     0
174
     0
175
     0
176
   256
177
   256
178
   256
  0
ENDTAB
  0
ENDSEC
  0
SECTION
  2
BLOCKS
  0
BLOCK
  8
0
  2
$MODEL_SPACE
 70
     0
 10
0.0
 20
0.0
 30
0.0
  3
$MODEL_SPACE
  1

  0
ENDBLK
  5
1313B2
  8
0
  0
BLOCK
 67
     1
  8
0
  2
$PAPER_SPACE
 70
     0
 10
0.0
 20
0.0
 30
0.0
  3
$PAPER_SPACE
  1

  0
ENDBLK
  5
1313AE
 67
     1
  8
0
  0
BLOCK
  8
0
  2
_OPEN30
 70
     0
 10
0.0
 20
0.0
 30
0.0
  3
_OPEN30
  1

  0
LINE
  5
202
  8
0
  6
BYBLOCK
 62
     0
 10
-1.0
 20
0.26794919
 30
0.0
 11
0.0
 21
0.0
 31
0.0
  0
LINE
  5
203
  8
0
  6
BYBLOCK
 62
     0
 10
0.0
 20
0.0
 30
0.0
 11
-1.0
 21
-0.26794919
 31
0.0
  0
LINE
  5
204
  8
0
  6
BYBLOCK
 62
     0
 10
0.0
 20
0.0
 30
0.0
 11
-1.0
 21
0.0
 31
0.0
  0
ENDBLK
  5
206
  8
0
  0
BLOCK
  8
0
  2
*U268
 70
     1
 10
0.0
 20
0.0
 30
0.0
  3
*U268
  1

  0
TEXT
  5
131312
  8
DIM
 10
3840.6616440113212
 20
-982.74285714285645
 30
0.0
 40
32.0
  1
m（シンドカット）
 50
90.0
 41
0.75
  0
ENDBLK
  5
131314
  8
0
  0
BLOCK
  8
0
  2
*U269
 70
     1
 10
0.0
 20
0.0
 30
0.0
  3
*U269
  1

  0
TEXT
  5
131316
  8
SLIM
 10
258.0000000006039
 20
-697.95238095237005
 30
0.0
 40
26.0
  1
75
 50
270.0
  0
ENDBLK
  5
131318
  8
0
  0
BLOCK
  8
0
  2
*U270
 70
     1
 10
0.0
 20
0.0
 30
0.0
  3
*U270
  1

  0
TEXT
  5
13131A
  8
SLIM
 10
122.5714285720324
 20
-547.00000000000364
 30
0.0
 40
26.0
  1
75Z
  0
ENDBLK
  5
13131C
  8
0
  0
BLOCK
  8
0
  2
*U271
 70
     1
 10
0.0
 20
0.0
 30
0.0
  3
*U271
  1

  0
TEXT
  5
13131E
  8
SLIM
 10
625.25000000068394
 20
-688.04761904760801
 30
0.0
 40
26.0
  1
100
 50
270.0
  0
ENDBLK
  5
131320
  8
0
  0
BLOCK
  8
0
  2
*U272
 70
     1
 10
0.0
 20
0.0
 30
0.0
  3
*U272
  1

  0
TEXT
  5
131322
  8
SLIM
 10
482.5714285721125
 20
-547.00000000000364
 30
0.0
 40
26.0
  1
75Z
  0
ENDBLK
  5
131324
  8
0
  0
BLOCK
  8
0
  2
*U273
 70
     1
 10
0.0
 20
0.0
 30
0.0
  3
*U273
  1

  0
TEXT
  5
131326
  8
SLIM
 10
618.00000000068394
 20
-233.9523809523628
 30
0.0
 40
26.0
  1
65
 50
270.0
  0
ENDBLK
  5
131328
  8
0
  0
BLOCK
  8
0
  2
*U274
 70
     1
 10
0.0
 20
0.0
 30
0.0
  3
*U274
  1

  0
TEXT
  5
13132A
  8
SLIM
 10
482.5714285721125
 20
-82.999999999996334
 30
0.0
 40
26.0
  1
75Z
  0
ENDBLK
  5
13132C
  8
0
  0
BLOCK
  8
0
  2
*U275
 70
     1
 10
0.0
 20
0.0
 30
0.0
  3
*U275
  1

  0
TEXT
  5
13132E
  8
SLIM
 10
258.0000000006039
 20
-233.9523809523628
 30
0.0
 40
26.0
  1
50
 50
270.0
  0
ENDBLK
  5
131330
  8
0
  0
BLOCK
  8
0
  2
*U276
 70
     1
 10
0.0
 20
0.0
 30
0.0
  3
*U276
  1

  0
TEXT
  5
131332
  8
SLIM
 10
122.5714285720324
 20
-82.999999999996334
 30
0.0
 40
26.0
  1
75Z
  0
ENDBLK
  5
131334
  8
0
  0
BLOCK
  8
0
  2
*U277
 70
     1
 10
0.0
 20
0.0
 30
0.0
  3
*U277
  1

  0
TEXT
  5
131336
  8
DIM
 10
2209.479620594459
 20
-3184.1428571428528
 30
0.0
 40
32.0
  1
A
 50
90.0
 41
0.75
  0
ENDBLK
  5
131338
  8
0
  0
BLOCK
  8
0
  2
*U278
 70
     1
 10
0.0
 20
0.0
 30
0.0
  3
*U278
  1

  0
TEXT
  5
13133A
  8
DIM
 10
2207.8409284037348
 20
-3565.9999999999959
 30
0.0
 40
32.0
  1
B
 50
90.0
 41
0.75
  0
ENDBLK
  5
13133C
  8
0
  0
BLOCK
  8
0
  2
*U279
 70
     1
 10
0.0
 20
0.0
 30
0.0
  3
*U279
  1

  0
TEXT
  5
13133E
  8
DIM
 10
2061.428571428572
 20
-3038.208121984444
 30
0.0
 40
32.0
  1
C
 41
0.75
  0
ENDBLK
  5
131340
  8
0
  0
ENDSEC
  0
SECTION
  2
ENTITIES
  0
LINE
  5
12515F
  8
OBJECT
 10
1825.0
 20
-3579.9999999999959
 30
0.0
 11
5575.0
 21
-3579.9999999999959
 31
0.0
  0
LINE
  5
125161
  8
SLIM
 10
2616.0
 20
-2637.50001604727
 30
0.0
 11
2616.0
 21
-2967.50001604727
 31
0.0
  0
LINE
  5
125162
  8
SLIM
 10
2740.0
 20
-2637.50001604727
 30
0.0
 11
2740.0
 21
-2967.50001604727
 31
0.0
  0
LINE
  5
125163
  8
SLIM
 10
2870.0
 20
-2697.50001604727
 30
0.0
 11
2870.0
 21
-2967.50001604727
 31
0.0
  0
LINE
  5
125164
  8
SLIM
 10
3000.0
 20
-2697.50001604727
 30
0.0
 11
3000.0
 21
-2967.50001604727
 31
0.0
  0
LINE
  5
125165
  8
SLIM
 10
3130.0
 20
-2967.50001604727
 30
0.0
 11
3130.0
 21
-2697.50001604727
 31
0.0
  0
LINE
  5
125166
  8
SLIM
 10
3260.0
 20
-2967.50001604727
 30
0.0
 11
3260.0
 21
-2637.50001604727
 31
0.0
  0
LINE
  5
125167
  8
SLIM
 10
3260.0
 20
-2637.50001604727
 30
0.0
 11
2616.0
 21
-2637.50001604727
 31
0.0
  0
LINE
  5
125168
  8
SLIM
 10
3260.0
 20
-2697.50001604727
 30
0.0
 11
2740.0
 21
-2697.50001604727
 31
0.0
  0
LINE
  5
125169
  8
SLIM
 10
3260.0
 20
-2757.50001604727
 30
0.0
 11
2616.0
 21
-2757.50001604727
 31
0.0
  0
LINE
  5
12516A
  8
SLIM
 10
3260.0
 20
-2827.50001604727
 30
0.0
 11
2616.0
 21
-2827.50001604727
 31
0.0
  0
LINE
  5
12516B
  8
SLIM
 10
3260.0
 20
-2897.50001604727
 30
0.0
 11
2616.0
 21
-2897.50001604727
 31
0.0
  0
LINE
  5
12516C
  8
SLIM
 10
3260.0
 20
-2967.50001604727
 30
0.0
 11
2616.0
 21
-2967.50001604727
 31
0.0
  0
LINE
  5
125181
  8
SLIM
 10
2740.0
 20
-2757.50001604727
 30
0.0
 11
2615.9999722746579
 21
-2637.5
 31
0.0
  0
LINE
  5
1251B6
  8
OBJECT
 10
5323.0
 20
-3395.9999999999968
 30
0.0
 11
5323.0
 21
-3374.9999999999968
 31
0.0
1001
ACDBBLOCKREPETAG
1070
     1
1071
       20
1005
1251B6
  0
LINE
  5
1251B7
  8
OBJECT
 10
5323.0
 20
-3374.9999999999968
 30
0.0
 11
5477.0
 21
-3374.9999999999968
 31
0.0
1001
ACDBBLOCKREPETAG
1070
     1
1071
       21
1005
1251B7
  0
LINE
  5
1251B8
  8
HIDDEN
 10
5343.0
 20
-3444.9999999999968
 30
0.0
 11
5457.0
 21
-3444.9999999999968
 31
0.0
1001
ACDBBLOCKREPETAG
1070
     1
1071
       22
1005
1251B8
  0
LINE
  5
1251B9
  8
OBJECT
 10
5477.0
 20
-3374.9999999999968
 30
0.0
 11
5477.0
 21
-3395.9999999999968
 31
0.0
1001
ACDBBLOCKREPETAG
1070
     1
1071
       23
1005
1251B9
  0
LINE
  5
1251BA
  8
OBJECT
 10
5477.0
 20
-3395.9999999999968
 30
0.0
 11
5323.0
 21
-3395.9999999999968
 31
0.0
1001
ACDBBLOCKREPETAG
1070
     1
1071
       24
1005
1251BA
  0
LINE
  5
1251BB
  8
CENTER
 10
5400.0
 20
-3359.9999999999968
 30
0.0
 11
5400.0
 21
-3594.9999999999968
 31
0.0
1001
ACDBBLOCKREPETAG
1070
     1
1071
       25
1005
1251BB
  0
LINE
  5
1251BC
  8
OBJECT
 10
5325.0
 20
-3458.9999999999968
 30
0.0
 11
5325.0
 21
-3582.9999999999968
 31
0.0
1001
ACDBBLOCKREPETAG
1070
     1
1071
       26
1005
1251BC
  0
LINE
  5
1251BD
  8
OBJECT
 10
5328.0
 20
-3395.9999999999968
 30
0.0
 11
5328.0
 21
-3458.9999999999968
 31
0.0
1001
ACDBBLOCKREPETAG
1070
     1
1071
       27
1005
1251BD
  0
LINE
  5
1251BE
  8
OBJECT
 10
5472.0
 20
-3458.9999999999968
 30
0.0
 11
5472.0
 21
-3395.9999999999968
 31
0.0
1001
ACDBBLOCKREPETAG
1070
     1
1071
       28
1005
1251BE
  0
LINE
  5
1251BF
  8
OBJECT
 10
5475.0
 20
-3458.9999999999968
 30
0.0
 11
5456.7802782663139
 21
-3458.9999999999968
 31
0.0
1001
ACDBBLOCKREPETAG
1070
     1
1071
       30
1005
1251BF
  0
LINE
  5
1251C0
  8
OBJECT
 10
5475.0
 20
-3458.9999999999968
 30
0.0
 11
5475.0
 21
-3582.9999999999968
 31
0.0
1001
ACDBBLOCKREPETAG
1070
     1
1071
       34
1005
1251C0
  0
POINT
  5
1251C1
  8
DOTS
 10
5400.0
 20
-3579.9999999999968
 30
0.0
1001
ACDBBLOCKREPETAG
1070
     1
1071
      187
1005
1251C1
  0
LINE
  5
1251C2
  8
CENTER
 10
5310.0
 20
-3507.9999999999968
 30
0.0
 11
5490.0
 21
-3507.9999999999968
 31
0.0
1001
ACDBBLOCKREPETAG
1070
     1
1071
       23
1005
1251C2
  0
CIRCLE
  5
1251C3
  8
OBJECT
 10
5400.0
 20
-3507.9999999999968
 30
0.0
 40
53.5
1001
ACDBBLOCKREPETAG
1070
     1
1071
       24
1005
1251C3
  0
CIRCLE
  5
1251C4
  8
OBJECT
 10
5400.0
 20
-3507.9999999999968
 30
0.0
 40
67.0
1001
ACDBBLOCKREPETAG
1070
     1
1071
       25
1005
1251C4
  0
ARC
  5
1251C5
  8
OBJECT
 10
5400.0
 20
-3507.9999999999968
 30
0.0
 40
75.0
 50
286.26020470824369
 51
253.73979529175631
1001
ACDBBLOCKREPETAG
1070
     1
1071
       27
1005
1251C5
  0
LINE
  5
1251C6
  8
OBJECT
 10
5379.0
 20
-3579.9999999999968
 30
0.0
 11
5421.0
 21
-3579.9999999999968
 31
0.0
1001
ACDBBLOCKREPETAG
1070
     1
1071
       28
1005
1251C6
  0
LINE
  5
1251C7
  8
OBJECT
 10
5343.2197217336861
 20
-3458.9999999999968
 30
0.0
 11
5325.0
 21
-3458.9999999999968
 31
0.0
1001
ACDBBLOCKREPETAG
1070
     1
1071
       30
1005
1251BF
  0
TEXT
  5
12CC49
  8
SLIM
 10
-0.0000000000000011
 20
282.5
 30
0.0
 40
35.0
  1
※ 100枝（4）がある場合、品名の最後に【管底】が付きます。
 41
0.9
 11
0.0
 21
300.0
 31
0.0
 73
     2
  0
TEXT
  5
130557
  8
SLIM
 10
52.285714285714313
 20
-444.0
 30
0.0
 40
48.0
  1
Z61-P110
 41
0.75
 72
     4
 11
180.0
 21
-420.0
 31
0.0
  0
TEXT
  5
130558
  8
SLIM
 10
408.85714285714278
 20
-444.0
 30
0.0
 40
48.0
  1
Z62-P110
 41
0.75
 72
     4
 11
540.0
 21
-420.0
 31
0.0
  0
TEXT
  5
130559
  8
SLIM
 10
48.857142857142833
 20
-908.0
 30
0.0
 40
48.0
  1
Z63-P110
 41
0.75
 72
     4
 11
180.0
 21
-884.0
 31
0.0
  0
TEXT
  5
13055A
  8
SLIM
 10
408.85714285714278
 20
-908.0
 30
0.0
 40
48.0
  1
Z64-P110
 41
0.75
 72
     4
 11
540.0
 21
-884.0
 31
0.0
  0
LINE
  5
13099E
  8
SLIM
 10
4350.0
 20
-887.99999999999682
 30
0.0
 11
4350.0
 21
-1079.999999999997
 31
0.0
  0
LINE
  5
13099F
  8
SLIM
 10
4454.0
 20
-1079.999999999997
 30
0.0
 11
4454.0
 21
-887.99999999999682
 31
0.0
  0
LINE
  5
1309A0
  8
SLIM
 10
4602.0
 20
-887.99999999999682
 30
0.0
 11
4350.0
 21
-887.99999999999682
 31
0.0
  0
LINE
  5
1309A1
  8
SLIM
 10
4602.0
 20
-983.99999999999693
 30
0.0
 11
4350.0
 21
-983.99999999999693
 31
0.0
  0
LINE
  5
1309A3
  8
SLIM
 10
4602.0
 20
-1031.999999999997
 30
0.0
 11
4350.0
 21
-1031.999999999997
 31
0.0
  0
LINE
  5
1309A4
  8
SLIM
 10
4602.0
 20
-1079.999999999997
 30
0.0
 11
4350.0
 21
-1079.999999999997
 31
0.0
  0
LINE
  5
1309A8
  8
SLIM
 10
4602.0
 20
-935.99999999999693
 30
0.0
 11
4350.0
 21
-935.99999999999693
 31
0.0
  0
LINE
  5
1309AA
  8
SLIM
 10
4602.0
 20
-887.99999999999682
 30
0.0
 11
4602.0
 21
-1079.999999999997
 31
0.0
  0
LINE
  5
1309ED
  8
DIM
 10
3904.9999999999941
 20
-755.0
 30
0.0
 11
3839.6616440113221
 21
-754.99999999999966
 31
0.0
  0
LINE
  5
1309EE
  8
DIM
 10
3910.0
 20
-965.0
 30
0.0
 11
3839.6616440113221
 21
-964.99999999999955
 31
0.0
  0
LINE
  5
1309EF
  8
DIM
 10
3849.6616440113221
 20
-775.0
 30
0.0
 11
3849.6616440113221
 21
-945.0
 31
0.0
  0
INSERT
  5
1309F0
  8
DIM
  2
_OPEN30
 10
3849.6616440113221
 20
-755.0
 30
0.0
 41
20.0
 42
20.0
 43
20.0
 50
90.0
  0
INSERT
  5
1309F1
  8
DIM
  2
_OPEN30
 10
3849.6616440113221
 20
-965.0
 30
0.0
 41
20.0
 42
20.0
 43
20.0
 50
270.0
  0
INSERT
  5
1309F2
  8
OBJECT
  2
*U268
 10
0.0
 20
0.0
 30
0.0
  0
TEXT
  5
1309F3
  8
SLIM
 10
3554.6000000000008
 20
-1415.6666666666649
 30
0.0
 40
28.0
  1
※ 対応スラブ厚　180～（m-10）
 41
0.75
  0
TEXT
  5
1309F4
  8
SLIM
 10
3554.6000000000008
 20
-1462.3333333333319
 30
0.0
 40
28.0
  1
※ 足切り可能寸法（最大）　210-m（コンパクトＬベンド使用なら+20）
 41
0.75
  0
TEXT
  5
1309F5
  8
SLIM
 10
3598.9000000000001
 20
-1555.666666666664
 30
0.0
 40
28.0
  1
国土交通大臣認定・（一財）日本消防設備安全センター性能評定取得品
 41
0.75
  0
TEXT
  5
1309F6
  8
SLIM
 10
3631.1000000000022
 20
-1602.3333333333319
 30
0.0
 40
28.0
  1
注）ご採用にあたり、認定書及び評定書の内容をご確認ください。
 41
0.75
  0
TEXT
  5
1309F7
  8
SLIM
 10
4506.5714285714294
 20
-971.99999999999682
 30
0.0
 40
24.0
  1
180
 41
0.75
  0
TEXT
  5
1309F8
  8
SLIM
 10
4470.057142857142
 20
-1067.999999999997
 30
0.0
 40
24.0
  1
180～200
 41
0.75
  0
TEXT
  5
1309F9
  8
SLIM
 10
4471.7714285714283
 20
-1019.999999999997
 30
0.0
 40
24.0
  1
180～190
 41
0.75
  0
TEXT
  5
1309FA
  8
SLIM
 10
4465.6000000000013
 20
-923.99999999999704
 30
0.0
 40
24.0
  1
対応スラブ厚
 41
0.75
  0
TEXT
  5
1309FB
  8
SLIM
 10
4398.1714285714288
 20
-1125.999999999997
 30
0.0
 40
24.0
  1
標準：m=210
 41
0.75
  0
TEXT
  5
1309FC
  8
SLIM
 10
4380.5714285714284
 20
-971.99999999999682
 30
0.0
 40
24.0
  1
190
 41
0.75
  0
TEXT
  5
1309FD
  8
SLIM
 10
4380.5714285714284
 20
-1067.999999999997
 30
0.0
 40
24.0
  1
210
 41
0.75
  0
TEXT
  5
1309FE
  8
SLIM
 10
4369.9428571428571
 20
-923.99999999999704
 30
0.0
 40
24.0
  1
m寸法
 41
0.75
  0
TEXT
  5
1309FF
  8
SLIM
 10
4378.8571428571431
 20
-1019.999999999997
 30
0.0
 40
24.0
  1
200
 41
0.75
  0
CIRCLE
  5
130A00
  8
OBJECT
 10
516.00000000060368
 20
-718.9999999999817
 30
0.0
 40
70.0
1001
ACDBBLOCKREPETAG
1070
     1
1071
       43
1005
130A00
  0
CIRCLE
  5
130A01
  8
OBJECT
 10
516.00000000060368
 20
-718.9999999999817
 30
0.0
 40
77.0
1001
ACDBBLOCKREPETAG
1070
     1
1071
       44
1005
130A01
  0
ARC
  5
130A02
  8
OBJECT
 10
516.00000000060368
 20
-718.9999999999817
 30
0.0
 40
80.0
 50
140.8050325737787
 51
219.1949674262213
1001
ACDBBLOCKREPETAG
1070
     1
1071
       45
1005
130A02
  0
LINE
  5
130A03
  8
OBJECT
 10
454.00000000060368
 20
-673.33819977265716
 30
0.0
 11
454.00000000060368
 21
-638.99999999998181
 31
0.0
1001
ACDBBLOCKREPETAG
1070
     1
1071
       46
1005
130A03
  0
LINE
  5
130A04
  8
OBJECT
 10
578.00000000060368
 20
-656.99999999998181
 30
0.0
 11
578.00000000060368
 21
-638.99999999998181
 31
0.0
1001
ACDBBLOCKREPETAG
1070
     1
1071
       22
1005
130A04
  0
LINE
  5
130A05
  8
OBJECT
 10
578.00000000060368
 20
-656.99999999998181
 30
0.0
 11
596.0000000006039
 21
-656.99999999998181
 31
0.0
1001
ACDBBLOCKREPETAG
1070
     1
1071
       24
1005
130A05
  0
LINE
  5
130A06
  8
OBJECT
 10
578.00000000060368
 20
-780.9999999999817
 30
0.0
 11
596.0000000006039
 21
-780.9999999999817
 31
0.0
1001
ACDBBLOCKREPETAG
1070
     1
1071
       25
1005
130A06
  0
LINE
  5
130A07
  8
OBJECT
 10
578.00000000060368
 20
-780.9999999999817
 30
0.0
 11
578.00000000060368
 21
-798.9999999999817
 31
0.0
1001
ACDBBLOCKREPETAG
1070
     1
1071
       27
1005
130A07
  0
LINE
  5
130A08
  8
OBJECT
 10
454.00000000060368
 20
-764.66180022730623
 30
0.0
 11
454.00000000060368
 21
-798.9999999999817
 31
0.0
1001
ACDBBLOCKREPETAG
1070
     1
1071
       28
1005
130A08
  0
LINE
  5
130A09
  8
OBJECT
 10
570.44722215196805
 20
-773.44722215134584
 30
0.0
 11
578.00000000060368
 21
-780.9999999999817
 31
0.0
1001
ACDBBLOCKREPETAG
1070
     1
1071
       37
1005
130A09
  0
LINE
  5
130A0A
  8
OBJECT
 10
570.44722215196805
 20
-664.55277784861755
 30
0.0
 11
578.00000000060368
 21
-656.99999999998181
 31
0.0
1001
ACDBBLOCKREPETAG
1070
     1
1071
       38
1005
130A0A
  0
POINT
  5
130A0B
  8
DOTS
 10
516.00000000060368
 20
-718.9999999999817
 30
0.0
1001
ACDBBLOCKREPETAG
1070
     1
1071
       39
1005
130A0B
  0
CIRCLE
  5
130A0C
  8
OBJECT
 10
516.00000000060368
 20
-718.9999999999817
 30
0.0
 40
53.5
1001
ACDBBLOCKREPETAG
1070
     1
1071
      153
1005
130A0C
  0
CIRCLE
  5
130A0D
  8
OBJECT
 10
156.0000000006039
 20
-718.9999999999817
 30
0.0
 40
70.0
1001
ACDBBLOCKREPETAG
1070
     1
1071
       43
1005
130A0D
  0
CIRCLE
  5
130A0E
  8
OBJECT
 10
156.0000000006039
 20
-718.9999999999817
 30
0.0
 40
77.0
1001
ACDBBLOCKREPETAG
1070
     1
1071
       44
1005
130A0E
  0
ARC
  5
130A0F
  8
OBJECT
 10
156.0000000006039
 20
-718.9999999999817
 30
0.0
 40
80.0
 50
140.80503257377961
 51
219.1949674262203
1001
ACDBBLOCKREPETAG
1070
     1
1071
       45
1005
130A0F
  0
LINE
  5
130A10
  8
OBJECT
 10
94.000000000603904
 20
-673.33819977265716
 30
0.0
 11
94.000000000603904
 21
-638.99999999998181
 31
0.0
1001
ACDBBLOCKREPETAG
1070
     1
1071
       46
1005
130A10
  0
LINE
  5
130A11
  8
OBJECT
 10
218.0000000006039
 20
-656.99999999998181
 30
0.0
 11
218.0000000006039
 21
-638.99999999998181
 31
0.0
1001
ACDBBLOCKREPETAG
1070
     1
1071
       22
1005
130A11
  0
LINE
  5
130A12
  8
OBJECT
 10
218.0000000006039
 20
-656.99999999998181
 30
0.0
 11
236.0000000006039
 21
-656.99999999998181
 31
0.0
1001
ACDBBLOCKREPETAG
1070
     1
1071
       24
1005
130A12
  0
LINE
  5
130A13
  8
OBJECT
 10
218.0000000006039
 20
-780.9999999999817
 30
0.0
 11
236.0000000006039
 21
-780.9999999999817
 31
0.0
1001
ACDBBLOCKREPETAG
1070
     1
1071
       25
1005
130A13
  0
LINE
  5
130A14
  8
OBJECT
 10
218.0000000006039
 20
-780.9999999999817
 30
0.0
 11
218.0000000006039
 21
-798.9999999999817
 31
0.0
1001
ACDBBLOCKREPETAG
1070
     1
1071
       27
1005
130A14
  0
LINE
  5
130A15
  8
OBJECT
 10
94.000000000603904
 20
-764.66180022730623
 30
0.0
 11
94.000000000603904
 21
-798.9999999999817
 31
0.0
1001
ACDBBLOCKREPETAG
1070
     1
1071
       28
1005
130A15
  0
LINE
  5
130A16
  8
OBJECT
 10
210.44722215196819
 20
-773.44722215134584
 30
0.0
 11
218.0000000006039
 21
-780.9999999999817
 31
0.0
1001
ACDBBLOCKREPETAG
1070
     1
1071
       37
1005
130A16
  0
LINE
  5
130A17
  8
OBJECT
 10
210.44722215196819
 20
-664.55277784861755
 30
0.0
 11
218.0000000006039
 21
-656.99999999998181
 31
0.0
1001
ACDBBLOCKREPETAG
1070
     1
1071
       38
1005
130A17
  0
POINT
  5
130A18
  8
DOTS
 10
156.0000000006039
 20
-718.9999999999817
 30
0.0
1001
ACDBBLOCKREPETAG
1070
     1
1071
       39
1005
130A18
  0
CIRCLE
  5
130A19
  8
OBJECT
 10
156.0000000006039
 20
-718.9999999999817
 30
0.0
 40
53.5
1001
ACDBBLOCKREPETAG
1070
     1
1071
      153
1005
130A19
  0
CIRCLE
  5
130A1A
  8
OBJECT
 10
516.00000000060368
 20
-254.99999999998181
 30
0.0
 40
70.0
1001
ACDBBLOCKREPETAG
1070
     1
1071
       43
1005
130A1A
  0
CIRCLE
  5
130A1B
  8
OBJECT
 10
516.00000000060368
 20
-254.99999999998181
 30
0.0
 40
77.0
1001
ACDBBLOCKREPETAG
1070
     1
1071
       44
1005
130A1B
  0
ARC
  5
130A1C
  8
OBJECT
 10
516.00000000060368
 20
-254.99999999998181
 30
0.0
 40
80.0
 50
140.80503257378001
 51
219.19496742621999
1001
ACDBBLOCKREPETAG
1070
     1
1071
       45
1005
130A1C
  0
LINE
  5
130A1D
  8
OBJECT
 10
454.00000000060368
 20
-209.33819977265739
 30
0.0
 11
454.00000000060368
 21
-174.99999999998181
 31
0.0
1001
ACDBBLOCKREPETAG
1070
     1
1071
       46
1005
130A1D
  0
LINE
  5
130A1E
  8
OBJECT
 10
578.00000000060368
 20
-192.99999999998181
 30
0.0
 11
578.00000000060368
 21
-174.99999999998181
 31
0.0
1001
ACDBBLOCKREPETAG
1070
     1
1071
       22
1005
130A1E
  0
LINE
  5
130A1F
  8
OBJECT
 10
578.00000000060368
 20
-192.99999999998181
 30
0.0
 11
596.0000000006039
 21
-192.99999999998181
 31
0.0
1001
ACDBBLOCKREPETAG
1070
     1
1071
       24
1005
130A1F
  0
LINE
  5
130A20
  8
OBJECT
 10
578.00000000060368
 20
-316.99999999998181
 30
0.0
 11
596.0000000006039
 21
-316.99999999998181
 31
0.0
1001
ACDBBLOCKREPETAG
1070
     1
1071
       25
1005
130A20
  0
LINE
  5
130A21
  8
OBJECT
 10
578.00000000060368
 20
-316.99999999998181
 30
0.0
 11
578.00000000060368
 21
-334.99999999998181
 31
0.0
1001
ACDBBLOCKREPETAG
1070
     1
1071
       27
1005
130A21
  0
LINE
  5
130A22
  8
OBJECT
 10
454.00000000060368
 20
-300.66180022730617
 30
0.0
 11
454.00000000060368
 21
-334.99999999998181
 31
0.0
1001
ACDBBLOCKREPETAG
1070
     1
1071
       28
1005
130A22
  0
LINE
  5
130A23
  8
OBJECT
 10
570.44722215196805
 20
-309.44722215134612
 30
0.0
 11
578.00000000060368
 21
-316.99999999998181
 31
0.0
1001
ACDBBLOCKREPETAG
1070
     1
1071
       37
1005
130A23
  0
LINE
  5
130A24
  8
OBJECT
 10
570.44722215196805
 20
-200.5527778486175
 30
0.0
 11
578.00000000060368
 21
-192.99999999998181
 31
0.0
1001
ACDBBLOCKREPETAG
1070
     1
1071
       38
1005
130A24
  0
POINT
  5
130A25
  8
DOTS
 10
516.00000000060368
 20
-254.99999999998181
 30
0.0
1001
ACDBBLOCKREPETAG
1070
     1
1071
       39
1005
130A25
  0
CIRCLE
  5
130A26
  8
OBJECT
 10
516.00000000060368
 20
-254.99999999998181
 30
0.0
 40
53.5
1001
ACDBBLOCKREPETAG
1070
     1
1071
      153
1005
130A26
  0
CIRCLE
  5
130A27
  8
OBJECT
 10
156.0000000006039
 20
-254.99999999998181
 30
0.0
 40
70.0
1001
ACDBBLOCKREPETAG
1070
     1
1071
       43
1005
130A27
  0
CIRCLE
  5
130A28
  8
OBJECT
 10
156.0000000006039
 20
-254.99999999998181
 30
0.0
 40
77.0
1001
ACDBBLOCKREPETAG
1070
     1
1071
       44
1005
130A28
  0
ARC
  5
130A29
  8
OBJECT
 10
156.0000000006039
 20
-254.99999999998181
 30
0.0
 40
80.0
 50
140.80503257378101
 51
219.19496742621899
1001
ACDBBLOCKREPETAG
1070
     1
1071
       45
1005
130A29
  0
LINE
  5
130A2A
  8
OBJECT
 10
94.000000000603904
 20
-209.33819977265739
 30
0.0
 11
94.000000000603904
 21
-174.99999999998181
 31
0.0
1001
ACDBBLOCKREPETAG
1070
     1
1071
       46
1005
130A2A
  0
LINE
  5
130A2B
  8
OBJECT
 10
218.0000000006039
 20
-192.99999999998181
 30
0.0
 11
218.0000000006039
 21
-174.99999999998181
 31
0.0
1001
ACDBBLOCKREPETAG
1070
     1
1071
       22
1005
130A2B
  0
LINE
  5
130A2C
  8
OBJECT
 10
218.0000000006039
 20
-192.99999999998181
 30
0.0
 11
236.0000000006039
 21
-192.99999999998181
 31
0.0
1001
ACDBBLOCKREPETAG
1070
     1
1071
       24
1005
130A2C
  0
LINE
  5
130A2D
  8
OBJECT
 10
218.0000000006039
 20
-316.99999999998181
 30
0.0
 11
236.0000000006039
 21
-316.99999999998181
 31
0.0
1001
ACDBBLOCKREPETAG
1070
     1
1071
       25
1005
130A2D
  0
LINE
  5
130A2E
  8
OBJECT
 10
218.0000000006039
 20
-316.99999999998181
 30
0.0
 11
218.0000000006039
 21
-334.99999999998181
 31
0.0
1001
ACDBBLOCKREPETAG
1070
     1
1071
       27
1005
130A2E
  0
LINE
  5
130A2F
  8
OBJECT
 10
94.000000000603904
 20
-300.66180022730617
 30
0.0
 11
94.000000000603904
 21
-334.99999999998181
 31
0.0
1001
ACDBBLOCKREPETAG
1070
     1
1071
       28
1005
130A2F
  0
LINE
  5
130A30
  8
OBJECT
 10
210.44722215196819
 20
-309.44722215134612
 30
0.0
 11
218.0000000006039
 21
-316.99999999998181
 31
0.0
1001
ACDBBLOCKREPETAG
1070
     1
1071
       37
1005
130A30
  0
LINE
  5
130A31
  8
OBJECT
 10
210.44722215196819
 20
-200.5527778486175
 30
0.0
 11
218.0000000006039
 21
-192.99999999998181
 31
0.0
1001
ACDBBLOCKREPETAG
1070
     1
1071
       38
1005
130A31
  0
POINT
  5
130A32
  8
DOTS
 10
156.0000000006039
 20
-254.99999999998181
 30
0.0
1001
ACDBBLOCKREPETAG
1070
     1
1071
       39
1005
130A32
  0
CIRCLE
  5
130A33
  8
OBJECT
 10
156.0000000006039
 20
-254.99999999998181
 30
0.0
 40
53.5
1001
ACDBBLOCKREPETAG
1070
     1
1071
      153
1005
130A33
  0
LINE
  5
130A34
  8
OBJECT
 10
94.000000000603904
 20
-801.9999999999892
 30
0.0
 11
94.000000000603904
 21
-798.99999999998897
 31
0.0
1001
ACDBBLOCKREPETAG
1070
     1
1071
      418
1005
130A34
  0
ARC
  5
130A35
  8
OBJECT
 10
97.000000000603904
 20
-801.9999999999892
 30
0.0
 40
3.0
 50
180.0
 51
270.0
1001
ACDBBLOCKREPETAG
1070
     1
1071
      419
1005
130A35
  0
LINE
  5
130A36
  8
OBJECT
 10
218.0000000006039
 20
-798.99999999998897
 30
0.0
 11
218.0000000006039
 21
-801.9999999999892
 31
0.0
1001
ACDBBLOCKREPETAG
1070
     1
1071
      420
1005
130A36
  0
ARC
  5
130A37
  8
OBJECT
 10
215.0000000006039
 20
-801.9999999999892
 30
0.0
 40
3.0
 50
270.0
 51
0.0
1001
ACDBBLOCKREPETAG
1070
     1
1071
      421
1005
130A37
  0
LINE
  5
130A38
  8
OBJECT
 10
215.0000000006039
 20
-804.99999999998897
 30
0.0
 11
97.000000000603904
 21
-804.99999999998897
 31
0.0
1001
ACDBBLOCKREPETAG
1070
     1
1071
      422
1005
130A38
  0
INSERT
  5
130A39
  8
OBJECT
  2
*U269
 10
0.0
 20
0.0
 30
0.0
  0
LINE
  5
130A3A
  8
OBJECT
 10
289.00000000060379
 20
-656.99999999998897
 30
0.0
 11
296.0000000006039
 21
-656.99999999998897
 31
0.0
1001
ACDBBLOCKREPETAG
1070
     1
1071
       39
1005
130A3A
  0
LINE
  5
130A3B
  8
OBJECT
 10
296.0000000006039
 20
-656.99999999998897
 30
0.0
 11
296.0000000006039
 21
-780.9999999999892
 31
0.0
1001
ACDBBLOCKREPETAG
1070
     1
1071
       40
1005
130A3B
  0
LINE
  5
130A3C
  8
OBJECT
 10
296.0000000006039
 20
-780.9999999999892
 30
0.0
 11
289.00000000060379
 21
-780.9999999999892
 31
0.0
1001
ACDBBLOCKREPETAG
1070
     1
1071
       41
1005
130A3C
  0
LINE
  5
130A3D
  8
OBJECT
 10
289.00000000060379
 20
-780.9999999999892
 30
0.0
 11
289.00000000060379
 21
-656.99999999998897
 31
0.0
1001
ACDBBLOCKREPETAG
1070
     1
1071
       42
1005
130A3D
  0
LINE
  5
130A3E
  8
OBJECT
 10
289.00000000060379
 20
-659.99999999998886
 30
0.0
 11
253.0000000006039
 21
-659.99999999998886
 31
0.0
1001
ACDBBLOCKREPETAG
1070
     1
1071
       43
1005
130A3E
  0
LINE
  5
130A3F
  8
OBJECT
 10
253.0000000006039
 20
-659.99999999998886
 30
0.0
 11
253.0000000006039
 21
-777.99999999998909
 31
0.0
1001
ACDBBLOCKREPETAG
1070
     1
1071
       44
1005
130A3F
  0
LINE
  5
130A40
  8
OBJECT
 10
253.0000000006039
 20
-777.99999999998909
 30
0.0
 11
289.00000000060379
 21
-777.99999999998909
 31
0.0
1001
ACDBBLOCKREPETAG
1070
     1
1071
       45
1005
130A40
  0
LINE
  5
130A41
  8
OBJECT
 10
249.0000000006039
 20
-664.49999999998886
 30
0.0
 11
242.0000000006039
 21
-664.49999999998886
 31
0.0
1001
ACDBBLOCKREPETAG
1070
     1
1071
       46
1005
130A41
  0
LINE
  5
130A42
  8
OBJECT
 10
242.0000000006039
 20
-773.49999999998909
 30
0.0
 11
249.0000000006039
 21
-773.49999999998909
 31
0.0
1001
ACDBBLOCKREPETAG
1070
     1
1071
       47
1005
130A42
  0
LINE
  5
130A43
  8
OBJECT
 10
249.0000000006039
 20
-773.49999999998909
 30
0.0
 11
249.0000000006039
 21
-664.49999999998886
 31
0.0
1001
ACDBBLOCKREPETAG
1070
     1
1071
       48
1005
130A43
  0
LINE
  5
130A44
  8
OBJECT
 10
253.0000000006039
 20
-659.99999999998886
 30
0.0
 11
249.0000000006039
 21
-664.49999999998886
 31
0.0
1001
ACDBBLOCKREPETAG
1070
     1
1071
       49
1005
130A44
  0
LINE
  5
130A45
  8
OBJECT
 10
253.0000000006039
 20
-777.99999999998909
 30
0.0
 11
249.0000000006039
 21
-773.49999999998909
 31
0.0
1001
ACDBBLOCKREPETAG
1070
     1
1071
       50
1005
130A45
  0
LINE
  5
130A46
  8
OBJECT
 10
239.0000000006057
 20
-656.99999999998897
 30
0.0
 11
236.0000000006039
 21
-656.99999999998897
 31
0.0
1001
ACDBBLOCKREPETAG
1070
     1
1071
       51
1005
130A46
  0
ARC
  5
130A47
  8
OBJECT
 10
239.0000000006057
 20
-659.99999999998886
 30
0.0
 40
3.0
 50
0.0
 51
90.0
1001
ACDBBLOCKREPETAG
1070
     1
1071
       52
1005
130A47
  0
LINE
  5
130A48
  8
OBJECT
 10
236.0000000006039
 20
-780.9999999999892
 30
0.0
 11
239.00000000060211
 21
-780.9999999999892
 31
0.0
1001
ACDBBLOCKREPETAG
1070
     1
1071
       53
1005
130A48
  0
ARC
  5
130A49
  8
OBJECT
 10
239.00000000060211
 20
-777.99999999998909
 30
0.0
 40
3.0
 50
270.0
 51
0.0
1001
ACDBBLOCKREPETAG
1070
     1
1071
       54
1005
130A49
  0
LINE
  5
130A4A
  8
OBJECT
 10
242.00000000060211
 20
-777.99999999998909
 30
0.0
 11
242.0000000006057
 21
-659.99999999998886
 31
0.0
1001
ACDBBLOCKREPETAG
1070
     1
1071
       55
1005
130A4A
  0
LINE
  5
130A4B
  8
HIDDEN
 10
244.0000000006039
 20
-674.49999999998886
 30
0.0
 11
244.0000000006039
 21
-763.4999999999892
 31
0.0
1001
ACDBBLOCKREPETAG
1070
     1
1071
      430
1005
130A4B
  0
LINE
  5
130A4C
  8
OBJECT
 10
94.000000000603904
 20
-516.00000000000364
 30
0.0
 11
94.000000000603904
 21
-509.00000000000358
 31
0.0
1001
ACDBBLOCKREPETAG
1070
     1
1071
       74
1005
130A4C
  0
LINE
  5
130A4D
  8
OBJECT
 10
94.000000000603904
 20
-509.00000000000358
 30
0.0
 11
218.0000000006039
 21
-509.00000000000358
 31
0.0
1001
ACDBBLOCKREPETAG
1070
     1
1071
       75
1005
130A4D
  0
LINE
  5
130A4E
  8
OBJECT
 10
218.0000000006039
 20
-509.00000000000358
 30
0.0
 11
218.0000000006039
 21
-516.00000000000364
 31
0.0
1001
ACDBBLOCKREPETAG
1070
     1
1071
       76
1005
130A4E
  0
LINE
  5
130A4F
  8
OBJECT
 10
218.0000000006039
 20
-516.00000000000364
 30
0.0
 11
94.000000000603904
 21
-516.00000000000364
 31
0.0
1001
ACDBBLOCKREPETAG
1070
     1
1071
       77
1005
130A4F
  0
LINE
  5
130A50
  8
OBJECT
 10
201.00000000060751
 20
-569.00002503580254
 30
0.0
 11
201.0000000006039
 21
-632.99999999998977
 31
0.0
1001
ACDBBLOCKREPETAG
1070
     1
1071
       78
1005
130A50
  0
LINE
  5
130A51
  8
OBJECT
 10
111.0000000006039
 20
-569.00002503580254
 30
0.0
 11
111.0000000006039
 21
-632.99999999998806
 31
0.0
1001
ACDBBLOCKREPETAG
1070
     1
1071
       79
1005
130A51
  0
LINE
  5
130A52
  8
OBJECT
 10
97.000000000603904
 20
-516.00000000000364
 30
0.0
 11
97.000000000603904
 21
-552.00000000000364
 31
0.0
1001
ACDBBLOCKREPETAG
1070
     1
1071
       80
1005
130A52
  0
LINE
  5
130A53
  8
OBJECT
 10
97.000000000603904
 20
-552.00000000000364
 30
0.0
 11
215.0000000006039
 21
-552.00000000000364
 31
0.0
1001
ACDBBLOCKREPETAG
1070
     1
1071
       81
1005
130A53
  0
LINE
  5
130A54
  8
OBJECT
 10
215.0000000006039
 20
-552.00000000000364
 30
0.0
 11
215.0000000006039
 21
-516.00000000000364
 31
0.0
1001
ACDBBLOCKREPETAG
1070
     1
1071
       82
1005
130A54
  0
LINE
  5
130A55
  8
OBJECT
 10
101.5000000006039
 20
-556.00000000000364
 30
0.0
 11
101.5000000006039
 21
-569.00000000000364
 31
0.0
1001
ACDBBLOCKREPETAG
1070
     1
1071
       83
1005
130A55
  0
LINE
  5
130A56
  8
OBJECT
 10
210.5000000006039
 20
-569.00000000000364
 30
0.0
 11
210.5000000006039
 21
-556.00000000000364
 31
0.0
1001
ACDBBLOCKREPETAG
1070
     1
1071
       84
1005
130A56
  0
LINE
  5
130A57
  8
OBJECT
 10
210.5000000006039
 20
-556.00000000000364
 30
0.0
 11
101.5000000006039
 21
-556.00000000000364
 31
0.0
1001
ACDBBLOCKREPETAG
1070
     1
1071
       85
1005
130A57
  0
LINE
  5
130A58
  8
OBJECT
 10
97.000000000603904
 20
-552.00000000000364
 30
0.0
 11
101.5000000006039
 21
-556.00000000000364
 31
0.0
1001
ACDBBLOCKREPETAG
1070
     1
1071
       86
1005
130A58
  0
LINE
  5
130A59
  8
OBJECT
 10
215.0000000006039
 20
-552.00000000000364
 30
0.0
 11
210.5000000006039
 21
-556.00000000000364
 31
0.0
1001
ACDBBLOCKREPETAG
1070
     1
1071
       87
1005
130A59
  0
LINE
  5
130A5A
  8
OBJECT
 10
94.000000000603904
 20
-635.99999999998795
 30
0.0
 11
94.000000000603904
 21
-638.99999999998886
 31
0.0
1001
ACDBBLOCKREPETAG
1070
     1
1071
       88
1005
130A5A
  0
ARC
  5
130A5B
  8
OBJECT
 10
97.000000000603904
 20
-635.99999999998795
 30
0.0
 40
3.0
 50
90.0
 51
180.0
1001
ACDBBLOCKREPETAG
1070
     1
1071
       89
1005
130A5B
  0
LINE
  5
130A5C
  8
OBJECT
 10
218.0000000006039
 20
-638.99999999998886
 30
0.0
 11
218.0000000006039
 21
-635.99999999998988
 31
0.0
1001
ACDBBLOCKREPETAG
1070
     1
1071
       90
1005
130A5C
  0
ARC
  5
130A5D
  8
OBJECT
 10
215.0000000006039
 20
-635.99999999998988
 30
0.0
 40
3.0
 50
0.0
 51
90.0
1001
ACDBBLOCKREPETAG
1070
     1
1071
       91
1005
130A5D
  0
LINE
  5
130A5E
  8
OBJECT
 10
215.0000000006039
 20
-632.99999999998977
 30
0.0
 11
166.32279032096261
 21
-632.99999999998806
 31
0.0
1001
ACDBBLOCKREPETAG
1070
     1
1071
       92
1005
130A5E
  0
LINE
  5
130A5F
  8
OBJECT
 10
145.67720968024511
 20
-632.99999999998886
 30
0.0
 11
97.000000000603904
 21
-632.99999999998806
 31
0.0
1001
ACDBBLOCKREPETAG
1070
     1
1071
       93
1005
130A5F
  0
LINE
  5
130A60
  8
OBJECT
 10
210.49995092441529
 20
-569.00002503580254
 30
0.0
 11
101.4999509244153
 21
-569.00002503580254
 31
0.0
1001
ACDBBLOCKREPETAG
1070
     1
1071
       95
1005
130A60
  0
ARC
  5
130A61
  8
OBJECT
 10
156.0000000006039
 20
-589.19999999996605
 30
0.0
 40
45.000000000000547
 50
180.0
 51
0.0
1001
ACDBBLOCKREPETAG
1070
     1
1071
       96
1005
130A61
  0
INSERT
  5
130A62
  8
OBJECT
  2
*U270
 10
0.0
 20
0.0
 30
0.0
  0
LINE
  5
130A63
  8
HIDDEN
 10
111.5000000006039
 20
-561.00000000000364
 30
0.0
 11
200.5000000006039
 21
-561.00000000000364
 31
0.0
1001
ACDBBLOCKREPETAG
1070
     1
1071
      429
1005
130A63
  0
LINE
  5
130A64
  8
OBJECT
 10
454.00000000068388
 20
-801.9999999999892
 30
0.0
 11
454.00000000068388
 21
-798.99999999998897
 31
0.0
1001
ACDBBLOCKREPETAG
1070
     1
1071
      418
1005
130A64
  0
ARC
  5
130A65
  8
OBJECT
 10
457.000000000684
 20
-801.9999999999892
 30
0.0
 40
3.0
 50
180.0
 51
270.0
1001
ACDBBLOCKREPETAG
1070
     1
1071
      419
1005
130A65
  0
LINE
  5
130A66
  8
OBJECT
 10
578.00000000068394
 20
-798.99999999998897
 30
0.0
 11
578.00000000068394
 21
-801.9999999999892
 31
0.0
1001
ACDBBLOCKREPETAG
1070
     1
1071
      420
1005
130A66
  0
ARC
  5
130A67
  8
OBJECT
 10
575.00000000068394
 20
-801.9999999999892
 30
0.0
 40
3.0
 50
270.0
 51
0.0
1001
ACDBBLOCKREPETAG
1070
     1
1071
      421
1005
130A67
  0
LINE
  5
130A68
  8
OBJECT
 10
575.00000000068394
 20
-804.99999999998897
 30
0.0
 11
457.000000000684
 21
-804.99999999998897
 31
0.0
1001
ACDBBLOCKREPETAG
1070
     1
1071
      422
1005
130A68
  0
LINE
  5
130A69
  8
OBJECT
 10
666.00000000068394
 20
-643.99999999998897
 30
0.0
 11
659.00000000068394
 21
-643.99999999998897
 31
0.0
1001
ACDBBLOCKREPETAG
1070
     1
1071
       57
1005
130A69
  0
LINE
  5
130A6A
  8
OBJECT
 10
659.00000000068394
 20
-643.99999999998897
 30
0.0
 11
659.00000000068394
 21
-793.9999999999892
 31
0.0
1001
ACDBBLOCKREPETAG
1070
     1
1071
       58
1005
130A6A
  0
LINE
  5
130A6B
  8
OBJECT
 10
617.50000000068394
 20
-646.99999999998886
 30
0.0
 11
617.50000000068394
 21
-790.99999999998897
 31
0.0
1001
ACDBBLOCKREPETAG
1070
     1
1071
       59
1005
130A6B
  0
LINE
  5
130A6C
  8
OBJECT
 10
606.00000000068394
 20
-653.49999999998897
 30
0.0
 11
606.00000000068394
 21
-784.4999999999892
 31
0.0
1001
ACDBBLOCKREPETAG
1070
     1
1071
       60
1005
130A6C
  0
LINE
  5
130A6D
  8
OBJECT
 10
659.00000000068394
 20
-793.9999999999892
 30
0.0
 11
666.00000000068394
 21
-793.9999999999892
 31
0.0
1001
ACDBBLOCKREPETAG
1070
     1
1071
       61
1005
130A6D
  0
LINE
  5
130A6E
  8
OBJECT
 10
666.00000000068394
 20
-793.9999999999892
 30
0.0
 11
666.00000000068394
 21
-643.99999999998897
 31
0.0
1001
ACDBBLOCKREPETAG
1070
     1
1071
       62
1005
130A6E
  0
LINE
  5
130A6F
  8
OBJECT
 10
602.00000000068394
 20
-780.9999999999892
 30
0.0
 11
596.00000000068394
 21
-780.9999999999892
 31
0.0
1001
ACDBBLOCKREPETAG
1070
     1
1071
       63
1005
130A6F
  0
LINE
  5
130A70
  8
OBJECT
 10
659.00000000068394
 20
-790.99999999998897
 30
0.0
 11
617.50000000068394
 21
-790.99999999998897
 31
0.0
1001
ACDBBLOCKREPETAG
1070
     1
1071
       64
1005
130A70
  0
LINE
  5
130A71
  8
OBJECT
 10
617.50000000068394
 20
-790.99999999998897
 30
0.0
 11
606.00000000068394
 21
-784.4999999999892
 31
0.0
1001
ACDBBLOCKREPETAG
1070
     1
1071
       65
1005
130A71
  0
LINE
  5
130A72
  8
OBJECT
 10
606.00000000068394
 20
-784.4999999999892
 30
0.0
 11
602.00000000068394
 21
-780.9999999999892
 31
0.0
1001
ACDBBLOCKREPETAG
1070
     1
1071
       66
1005
130A72
  0
LINE
  5
130A73
  8
OBJECT
 10
617.50000000068394
 20
-646.99999999998886
 30
0.0
 11
606.00000000068394
 21
-653.49999999998897
 31
0.0
1001
ACDBBLOCKREPETAG
1070
     1
1071
       67
1005
130A73
  0
LINE
  5
130A74
  8
OBJECT
 10
606.00000000068394
 20
-653.49999999998897
 30
0.0
 11
602.00000000068394
 21
-656.99999999998897
 31
0.0
1001
ACDBBLOCKREPETAG
1070
     1
1071
       68
1005
130A74
  0
ARC
  5
130A75
  8
OBJECT
 10
983.90000000068505
 20
-718.99999999998897
 30
0.0
 40
386.89999999999998
 50
170.7787013626384
 51
189.22129863736151
1001
ACDBBLOCKREPETAG
1070
     1
1071
       69
1005
130A75
  0
LINE
  5
130A76
  8
OBJECT
 10
602.00000000068394
 20
-656.99999999998897
 30
0.0
 11
596.00000000068394
 21
-656.99999999998897
 31
0.0
1001
ACDBBLOCKREPETAG
1070
     1
1071
       70
1005
130A76
  0
LINE
  5
130A77
  8
OBJECT
 10
659.00000000068394
 20
-646.99999999998886
 30
0.0
 11
617.50000000068394
 21
-646.99999999998886
 31
0.0
1001
ACDBBLOCKREPETAG
1070
     1
1071
       71
1005
130A77
  0
INSERT
  5
130A78
  8
OBJECT
  2
*U271
 10
0.0
 20
0.0
 30
0.0
  0
LINE
  5
130A79
  8
HIDDEN
 10
614.00000000068394
 20
-775.9999999999892
 30
0.0
 11
614.00000000068394
 21
-661.99999999998886
 31
0.0
1001
ACDBBLOCKREPETAG
1070
     1
1071
      437
1005
130A79
  0
LINE
  5
130A7A
  8
OBJECT
 10
454.00000000068388
 20
-516.00000000000364
 30
0.0
 11
454.00000000068388
 21
-509.00000000000358
 31
0.0
1001
ACDBBLOCKREPETAG
1070
     1
1071
       74
1005
130A7A
  0
LINE
  5
130A7B
  8
OBJECT
 10
454.00000000068388
 20
-509.00000000000358
 30
0.0
 11
578.00000000068394
 21
-509.00000000000358
 31
0.0
1001
ACDBBLOCKREPETAG
1070
     1
1071
       75
1005
130A7B
  0
LINE
  5
130A7C
  8
OBJECT
 10
578.00000000068394
 20
-509.00000000000358
 30
0.0
 11
578.00000000068394
 21
-516.00000000000364
 31
0.0
1001
ACDBBLOCKREPETAG
1070
     1
1071
       76
1005
130A7C
  0
LINE
  5
130A7D
  8
OBJECT
 10
578.00000000068394
 20
-516.00000000000364
 30
0.0
 11
454.00000000068388
 21
-516.00000000000364
 31
0.0
1001
ACDBBLOCKREPETAG
1070
     1
1071
       77
1005
130A7D
  0
LINE
  5
130A7E
  8
OBJECT
 10
561.00000000068735
 20
-569.00002503580254
 30
0.0
 11
561.00000000068394
 21
-632.99999999998977
 31
0.0
1001
ACDBBLOCKREPETAG
1070
     1
1071
       78
1005
130A7E
  0
LINE
  5
130A7F
  8
OBJECT
 10
471.00000000068388
 20
-569.00002503580254
 30
0.0
 11
471.00000000068388
 21
-632.99999999998806
 31
0.0
1001
ACDBBLOCKREPETAG
1070
     1
1071
       79
1005
130A7F
  0
LINE
  5
130A80
  8
OBJECT
 10
457.000000000684
 20
-516.00000000000364
 30
0.0
 11
457.000000000684
 21
-552.00000000000364
 31
0.0
1001
ACDBBLOCKREPETAG
1070
     1
1071
       80
1005
130A80
  0
LINE
  5
130A81
  8
OBJECT
 10
457.000000000684
 20
-552.00000000000364
 30
0.0
 11
575.00000000068394
 21
-552.00000000000364
 31
0.0
1001
ACDBBLOCKREPETAG
1070
     1
1071
       81
1005
130A81
  0
LINE
  5
130A82
  8
OBJECT
 10
575.00000000068394
 20
-552.00000000000364
 30
0.0
 11
575.00000000068394
 21
-516.00000000000364
 31
0.0
1001
ACDBBLOCKREPETAG
1070
     1
1071
       82
1005
130A82
  0
LINE
  5
130A83
  8
OBJECT
 10
461.500000000684
 20
-556.00000000000364
 30
0.0
 11
461.500000000684
 21
-569.00000000000364
 31
0.0
1001
ACDBBLOCKREPETAG
1070
     1
1071
       83
1005
130A83
  0
LINE
  5
130A84
  8
OBJECT
 10
570.50000000068394
 20
-569.00000000000364
 30
0.0
 11
570.50000000068394
 21
-556.00000000000364
 31
0.0
1001
ACDBBLOCKREPETAG
1070
     1
1071
       84
1005
130A84
  0
LINE
  5
130A85
  8
OBJECT
 10
570.50000000068394
 20
-556.00000000000364
 30
0.0
 11
461.500000000684
 21
-556.00000000000364
 31
0.0
1001
ACDBBLOCKREPETAG
1070
     1
1071
       85
1005
130A85
  0
LINE
  5
130A86
  8
OBJECT
 10
457.000000000684
 20
-552.00000000000364
 30
0.0
 11
461.500000000684
 21
-556.00000000000364
 31
0.0
1001
ACDBBLOCKREPETAG
1070
     1
1071
       86
1005
130A86
  0
LINE
  5
130A87
  8
OBJECT
 10
575.00000000068394
 20
-552.00000000000364
 30
0.0
 11
570.50000000068394
 21
-556.00000000000364
 31
0.0
1001
ACDBBLOCKREPETAG
1070
     1
1071
       87
1005
130A87
  0
LINE
  5
130A88
  8
OBJECT
 10
454.00000000068388
 20
-635.99999999998795
 30
0.0
 11
454.00000000068388
 21
-638.99999999998886
 31
0.0
1001
ACDBBLOCKREPETAG
1070
     1
1071
       88
1005
130A88
  0
ARC
  5
130A89
  8
OBJECT
 10
457.000000000684
 20
-635.99999999998795
 30
0.0
 40
3.0
 50
90.0
 51
180.0
1001
ACDBBLOCKREPETAG
1070
     1
1071
       89
1005
130A89
  0
LINE
  5
130A8A
  8
OBJECT
 10
578.00000000068394
 20
-638.99999999998886
 30
0.0
 11
578.00000000068394
 21
-635.99999999998988
 31
0.0
1001
ACDBBLOCKREPETAG
1070
     1
1071
       90
1005
130A8A
  0
ARC
  5
130A8B
  8
OBJECT
 10
575.00000000068394
 20
-635.99999999998988
 30
0.0
 40
3.0
 50
0.0
 51
90.0
1001
ACDBBLOCKREPETAG
1070
     1
1071
       91
1005
130A8B
  0
LINE
  5
130A8C
  8
OBJECT
 10
575.00000000068394
 20
-632.99999999998977
 30
0.0
 11
526.32279032104259
 21
-632.99999999998806
 31
0.0
1001
ACDBBLOCKREPETAG
1070
     1
1071
       92
1005
130A8C
  0
LINE
  5
130A8D
  8
OBJECT
 10
505.67720968032518
 20
-632.99999999998886
 30
0.0
 11
457.000000000684
 21
-632.99999999998806
 31
0.0
1001
ACDBBLOCKREPETAG
1070
     1
1071
       93
1005
130A8D
  0
LINE
  5
130A8E
  8
OBJECT
 10
570.49995092449535
 20
-569.00002503580254
 30
0.0
 11
461.49995092449518
 21
-569.00002503580254
 31
0.0
1001
ACDBBLOCKREPETAG
1070
     1
1071
       95
1005
130A8E
  0
ARC
  5
130A8F
  8
OBJECT
 10
516.00000000068394
 20
-589.19999999996605
 30
0.0
 40
45.000000000000547
 50
180.0
 51
0.0
1001
ACDBBLOCKREPETAG
1070
     1
1071
       96
1005
130A8F
  0
INSERT
  5
130A90
  8
OBJECT
  2
*U272
 10
0.0
 20
0.0
 30
0.0
  0
LINE
  5
130A91
  8
HIDDEN
 10
471.50000000068388
 20
-561.00000000000364
 30
0.0
 11
560.50000000068394
 21
-561.00000000000364
 31
0.0
1001
ACDBBLOCKREPETAG
1070
     1
1071
      429
1005
130A91
  0
LINE
  5
130A92
  8
OBJECT
 10
454.00000000068388
 20
-337.99999999998181
 30
0.0
 11
454.00000000068388
 21
-334.99999999998181
 31
0.0
1001
ACDBBLOCKREPETAG
1070
     1
1071
      418
1005
130A92
  0
ARC
  5
130A93
  8
OBJECT
 10
457.000000000684
 20
-337.99999999998181
 30
0.0
 40
3.0
 50
180.0
 51
270.0
1001
ACDBBLOCKREPETAG
1070
     1
1071
      419
1005
130A93
  0
LINE
  5
130A94
  8
OBJECT
 10
578.00000000068394
 20
-334.99999999998181
 30
0.0
 11
578.00000000068394
 21
-337.99999999998181
 31
0.0
1001
ACDBBLOCKREPETAG
1070
     1
1071
      420
1005
130A94
  0
ARC
  5
130A95
  8
OBJECT
 10
575.00000000068394
 20
-337.99999999998181
 30
0.0
 40
3.0
 50
270.0
 51
0.0
1001
ACDBBLOCKREPETAG
1070
     1
1071
      421
1005
130A95
  0
LINE
  5
130A96
  8
OBJECT
 10
575.00000000068394
 20
-340.99999999998181
 30
0.0
 11
457.000000000684
 21
-340.99999999998181
 31
0.0
1001
ACDBBLOCKREPETAG
1070
     1
1071
      422
1005
130A96
  0
INSERT
  5
130A97
  8
OBJECT
  2
*U273
 10
0.0
 20
0.0
 30
0.0
  0
LINE
  5
130A98
  8
OBJECT
 10
649.00000000068394
 20
-199.99999999998181
 30
0.0
 11
656.00000000068394
 21
-199.99999999998181
 31
0.0
1001
ACDBBLOCKREPETAG
1070
     1
1071
       20
1005
130A98
  0
LINE
  5
130A99
  8
OBJECT
 10
656.00000000068394
 20
-199.99999999998181
 30
0.0
 11
656.00000000068394
 21
-309.99999999998181
 31
0.0
1001
ACDBBLOCKREPETAG
1070
     1
1071
       21
1005
130A99
  0
LINE
  5
130A9A
  8
OBJECT
 10
656.00000000068394
 20
-309.99999999998181
 30
0.0
 11
649.00000000068394
 21
-309.99999999998181
 31
0.0
1001
ACDBBLOCKREPETAG
1070
     1
1071
       22
1005
130A9A
  0
LINE
  5
130A9B
  8
OBJECT
 10
649.00000000068394
 20
-309.99999999998181
 30
0.0
 11
649.00000000068394
 21
-199.99999999998181
 31
0.0
1001
ACDBBLOCKREPETAG
1070
     1
1071
       23
1005
130A9B
  0
LINE
  5
130A9C
  8
OBJECT
 10
649.00000000068394
 20
-202.99999999998181
 30
0.0
 11
613.00000000068394
 21
-202.99999999998181
 31
0.0
1001
ACDBBLOCKREPETAG
1070
     1
1071
       24
1005
130A9C
  0
LINE
  5
130A9D
  8
OBJECT
 10
613.00000000068394
 20
-202.99999999998181
 30
0.0
 11
613.00000000068394
 21
-306.99999999998181
 31
0.0
1001
ACDBBLOCKREPETAG
1070
     1
1071
       25
1005
130A9D
  0
LINE
  5
130A9E
  8
OBJECT
 10
613.00000000068394
 20
-306.99999999998181
 30
0.0
 11
649.00000000068394
 21
-306.99999999998181
 31
0.0
1001
ACDBBLOCKREPETAG
1070
     1
1071
       26
1005
130A9E
  0
LINE
  5
130A9F
  8
OBJECT
 10
609.00000000068394
 20
-207.49999999998181
 30
0.0
 11
602.00000000068394
 21
-207.49999999998181
 31
0.0
1001
ACDBBLOCKREPETAG
1070
     1
1071
       27
1005
130A9F
  0
LINE
  5
130AA0
  8
OBJECT
 10
602.00000000068394
 20
-302.49999999998181
 30
0.0
 11
609.00000000068394
 21
-302.49999999998181
 31
0.0
1001
ACDBBLOCKREPETAG
1070
     1
1071
       28
1005
130AA0
  0
LINE
  5
130AA1
  8
OBJECT
 10
609.00000000068394
 20
-302.49999999998181
 30
0.0
 11
609.00000000068394
 21
-207.49999999998181
 31
0.0
1001
ACDBBLOCKREPETAG
1070
     1
1071
       29
1005
130AA1
  0
LINE
  5
130AA2
  8
OBJECT
 10
613.00000000068394
 20
-202.99999999998181
 30
0.0
 11
609.00000000068394
 21
-207.49999999998181
 31
0.0
1001
ACDBBLOCKREPETAG
1070
     1
1071
       30
1005
130AA2
  0
LINE
  5
130AA3
  8
OBJECT
 10
613.00000000068394
 20
-306.99999999998181
 30
0.0
 11
609.00000000068394
 21
-302.49999999998181
 31
0.0
1001
ACDBBLOCKREPETAG
1070
     1
1071
       31
1005
130AA3
  0
LINE
  5
130AA4
  8
OBJECT
 10
599.00000000068565
 20
-192.99999999998181
 30
0.0
 11
596.00000000068394
 21
-192.99999999998181
 31
0.0
1001
ACDBBLOCKREPETAG
1070
     1
1071
       32
1005
130AA4
  0
ARC
  5
130AA5
  8
OBJECT
 10
599.00000000068565
 20
-195.99999999998181
 30
0.0
 40
3.0
 50
0.0
 51
90.0
1001
ACDBBLOCKREPETAG
1070
     1
1071
       33
1005
130AA5
  0
LINE
  5
130AA6
  8
OBJECT
 10
596.00000000068394
 20
-316.99999999998181
 30
0.0
 11
599.00000000068212
 21
-316.99999999998181
 31
0.0
1001
ACDBBLOCKREPETAG
1070
     1
1071
       34
1005
130AA6
  0
ARC
  5
130AA7
  8
OBJECT
 10
599.00000000068212
 20
-313.99999999998181
 30
0.0
 40
3.0
 50
270.0
 51
0.0
1001
ACDBBLOCKREPETAG
1070
     1
1071
       35
1005
130AA7
  0
LINE
  5
130AA8
  8
OBJECT
 10
602.00000000068212
 20
-313.99999999998181
 30
0.0
 11
602.00000000068576
 21
-195.99999999998181
 31
0.0
1001
ACDBBLOCKREPETAG
1070
     1
1071
       36
1005
130AA8
  0
LINE
  5
130AA9
  8
HIDDEN
 10
604.00000000068394
 20
-216.99999999998181
 30
0.0
 11
604.00000000068394
 21
-292.99999999998181
 31
0.0
1001
ACDBBLOCKREPETAG
1070
     1
1071
      427
1005
130AA9
  0
LINE
  5
130AAA
  8
OBJECT
 10
454.00000000068388
 20
-51.999999999996362
 30
0.0
 11
454.00000000068388
 21
-44.999999999996348
 31
0.0
1001
ACDBBLOCKREPETAG
1070
     1
1071
       74
1005
130AAA
  0
LINE
  5
130AAB
  8
OBJECT
 10
454.00000000068388
 20
-44.999999999996348
 30
0.0
 11
578.00000000068394
 21
-44.999999999996348
 31
0.0
1001
ACDBBLOCKREPETAG
1070
     1
1071
       75
1005
130AAB
  0
LINE
  5
130AAC
  8
OBJECT
 10
578.00000000068394
 20
-44.999999999996348
 30
0.0
 11
578.00000000068394
 21
-51.999999999996362
 31
0.0
1001
ACDBBLOCKREPETAG
1070
     1
1071
       76
1005
130AAC
  0
LINE
  5
130AAD
  8
OBJECT
 10
578.00000000068394
 20
-51.999999999996362
 30
0.0
 11
454.00000000068388
 21
-51.999999999996362
 31
0.0
1001
ACDBBLOCKREPETAG
1070
     1
1071
       77
1005
130AAD
  0
LINE
  5
130AAE
  8
OBJECT
 10
561.00000000068735
 20
-105.0000250357952
 30
0.0
 11
561.00000000068394
 21
-168.99999999998269
 31
0.0
1001
ACDBBLOCKREPETAG
1070
     1
1071
       78
1005
130AAE
  0
LINE
  5
130AAF
  8
OBJECT
 10
471.00000000068388
 20
-105.0000250357952
 30
0.0
 11
471.00000000068388
 21
-168.9999999999809
 31
0.0
1001
ACDBBLOCKREPETAG
1070
     1
1071
       79
1005
130AAF
  0
LINE
  5
130AB0
  8
OBJECT
 10
457.000000000684
 20
-51.999999999996362
 30
0.0
 11
457.000000000684
 21
-87.999999999996334
 31
0.0
1001
ACDBBLOCKREPETAG
1070
     1
1071
       80
1005
130AB0
  0
LINE
  5
130AB1
  8
OBJECT
 10
457.000000000684
 20
-87.999999999996334
 30
0.0
 11
575.00000000068394
 21
-87.999999999996334
 31
0.0
1001
ACDBBLOCKREPETAG
1070
     1
1071
       81
1005
130AB1
  0
LINE
  5
130AB2
  8
OBJECT
 10
575.00000000068394
 20
-87.999999999996334
 30
0.0
 11
575.00000000068394
 21
-51.999999999996362
 31
0.0
1001
ACDBBLOCKREPETAG
1070
     1
1071
       82
1005
130AB2
  0
LINE
  5
130AB3
  8
OBJECT
 10
461.500000000684
 20
-91.999999999996362
 30
0.0
 11
461.500000000684
 21
-104.99999999999631
 31
0.0
1001
ACDBBLOCKREPETAG
1070
     1
1071
       83
1005
130AB3
  0
LINE
  5
130AB4
  8
OBJECT
 10
570.50000000068394
 20
-104.99999999999631
 30
0.0
 11
570.50000000068394
 21
-91.999999999996362
 31
0.0
1001
ACDBBLOCKREPETAG
1070
     1
1071
       84
1005
130AB4
  0
LINE
  5
130AB5
  8
OBJECT
 10
570.50000000068394
 20
-91.999999999996362
 30
0.0
 11
461.500000000684
 21
-91.999999999996362
 31
0.0
1001
ACDBBLOCKREPETAG
1070
     1
1071
       85
1005
130AB5
  0
LINE
  5
130AB6
  8
OBJECT
 10
457.000000000684
 20
-87.999999999996334
 30
0.0
 11
461.500000000684
 21
-91.999999999996362
 31
0.0
1001
ACDBBLOCKREPETAG
1070
     1
1071
       86
1005
130AB6
  0
LINE
  5
130AB7
  8
OBJECT
 10
575.00000000068394
 20
-87.999999999996334
 30
0.0
 11
570.50000000068394
 21
-91.999999999996362
 31
0.0
1001
ACDBBLOCKREPETAG
1070
     1
1071
       87
1005
130AB7
  0
LINE
  5
130AB8
  8
OBJECT
 10
454.00000000068388
 20
-171.9999999999809
 30
0.0
 11
454.00000000068388
 21
-174.99999999998181
 31
0.0
1001
ACDBBLOCKREPETAG
1070
     1
1071
       88
1005
130AB8
  0
ARC
  5
130AB9
  8
OBJECT
 10
457.000000000684
 20
-171.9999999999809
 30
0.0
 40
3.0
 50
90.0
 51
180.0
1001
ACDBBLOCKREPETAG
1070
     1
1071
       89
1005
130AB9
  0
LINE
  5
130ABA
  8
OBJECT
 10
578.00000000068394
 20
-174.99999999998181
 30
0.0
 11
578.00000000068394
 21
-171.99999999998269
 31
0.0
1001
ACDBBLOCKREPETAG
1070
     1
1071
       90
1005
130ABA
  0
ARC
  5
130ABB
  8
OBJECT
 10
575.00000000068394
 20
-171.99999999998269
 30
0.0
 40
3.0
 50
0.0
 51
90.0
1001
ACDBBLOCKREPETAG
1070
     1
1071
       91
1005
130ABB
  0
LINE
  5
130ABC
  8
OBJECT
 10
575.00000000068394
 20
-168.99999999998269
 30
0.0
 11
526.32279032104259
 21
-168.9999999999809
 31
0.0
1001
ACDBBLOCKREPETAG
1070
     1
1071
       92
1005
130ABC
  0
LINE
  5
130ABD
  8
OBJECT
 10
505.67720968032518
 20
-168.99999999998181
 30
0.0
 11
457.000000000684
 21
-168.9999999999809
 31
0.0
1001
ACDBBLOCKREPETAG
1070
     1
1071
       93
1005
130ABD
  0
LINE
  5
130ABE
  8
OBJECT
 10
570.49995092449535
 20
-105.0000250357952
 30
0.0
 11
461.49995092449518
 21
-105.0000250357952
 31
0.0
1001
ACDBBLOCKREPETAG
1070
     1
1071
       95
1005
130ABE
  0
ARC
  5
130ABF
  8
OBJECT
 10
516.00000000068394
 20
-125.19999999995891
 30
0.0
 40
45.000000000000547
 50
180.0
 51
0.0
1001
ACDBBLOCKREPETAG
1070
     1
1071
       96
1005
130ABF
  0
INSERT
  5
130AC0
  8
OBJECT
  2
*U274
 10
0.0
 20
0.0
 30
0.0
  0
LINE
  5
130AC1
  8
HIDDEN
 10
471.50000000068388
 20
-96.999999999996362
 30
0.0
 11
560.50000000068394
 21
-96.999999999996362
 31
0.0
1001
ACDBBLOCKREPETAG
1070
     1
1071
      429
1005
130AC1
  0
LINE
  5
130AC2
  8
OBJECT
 10
94.000000000603904
 20
-337.99999999998181
 30
0.0
 11
94.000000000603904
 21
-334.99999999998181
 31
0.0
1001
ACDBBLOCKREPETAG
1070
     1
1071
      418
1005
130AC2
  0
ARC
  5
130AC3
  8
OBJECT
 10
97.000000000603904
 20
-337.99999999998181
 30
0.0
 40
3.0
 50
180.0
 51
270.0
1001
ACDBBLOCKREPETAG
1070
     1
1071
      419
1005
130AC3
  0
LINE
  5
130AC4
  8
OBJECT
 10
218.0000000006039
 20
-334.99999999998181
 30
0.0
 11
218.0000000006039
 21
-337.99999999998181
 31
0.0
1001
ACDBBLOCKREPETAG
1070
     1
1071
      420
1005
130AC4
  0
ARC
  5
130AC5
  8
OBJECT
 10
215.0000000006039
 20
-337.99999999998181
 30
0.0
 40
3.0
 50
270.0
 51
0.0
1001
ACDBBLOCKREPETAG
1070
     1
1071
      421
1005
130AC5
  0
LINE
  5
130AC6
  8
OBJECT
 10
215.0000000006039
 20
-340.99999999998181
 30
0.0
 11
97.000000000603904
 21
-340.99999999998181
 31
0.0
1001
ACDBBLOCKREPETAG
1070
     1
1071
      422
1005
130AC6
  0
INSERT
  5
130AC7
  8
OBJECT
  2
*U275
 10
0.0
 20
0.0
 30
0.0
  0
LINE
  5
130AC8
  8
OBJECT
 10
289.00000000060379
 20
-207.99999999998181
 30
0.0
 11
296.0000000006039
 21
-207.99999999998181
 31
0.0
1001
ACDBBLOCKREPETAG
1070
     1
1071
        1
1005
130AC8
  0
LINE
  5
130AC9
  8
OBJECT
 10
296.0000000006039
 20
-207.99999999998181
 30
0.0
 11
296.0000000006039
 21
-301.99999999998181
 31
0.0
1001
ACDBBLOCKREPETAG
1070
     1
1071
        2
1005
130AC9
  0
LINE
  5
130ACA
  8
OBJECT
 10
296.0000000006039
 20
-301.99999999998181
 30
0.0
 11
289.00000000060379
 21
-301.99999999998181
 31
0.0
1001
ACDBBLOCKREPETAG
1070
     1
1071
        3
1005
130ACA
  0
LINE
  5
130ACB
  8
OBJECT
 10
289.00000000060379
 20
-301.99999999998181
 30
0.0
 11
289.00000000060379
 21
-207.99999999998181
 31
0.0
1001
ACDBBLOCKREPETAG
1070
     1
1071
        4
1005
130ACB
  0
LINE
  5
130ACC
  8
OBJECT
 10
289.00000000060379
 20
-210.99999999998181
 30
0.0
 11
253.0000000006039
 21
-210.99999999998181
 31
0.0
1001
ACDBBLOCKREPETAG
1070
     1
1071
        5
1005
130ACC
  0
LINE
  5
130ACD
  8
OBJECT
 10
253.0000000006039
 20
-210.99999999998181
 30
0.0
 11
253.0000000006039
 21
-298.99999999998181
 31
0.0
1001
ACDBBLOCKREPETAG
1070
     1
1071
        6
1005
130ACD
  0
LINE
  5
130ACE
  8
OBJECT
 10
253.0000000006039
 20
-298.99999999998181
 30
0.0
 11
289.00000000060379
 21
-298.99999999998181
 31
0.0
1001
ACDBBLOCKREPETAG
1070
     1
1071
        7
1005
130ACE
  0
LINE
  5
130ACF
  8
OBJECT
 10
249.0000000006039
 20
-215.49999999998181
 30
0.0
 11
242.0000000006039
 21
-215.49999999998181
 31
0.0
1001
ACDBBLOCKREPETAG
1070
     1
1071
        8
1005
130ACF
  0
LINE
  5
130AD0
  8
OBJECT
 10
242.0000000006039
 20
-294.49999999998181
 30
0.0
 11
249.0000000006039
 21
-294.49999999998181
 31
0.0
1001
ACDBBLOCKREPETAG
1070
     1
1071
        9
1005
130AD0
  0
LINE
  5
130AD1
  8
OBJECT
 10
249.0000000006039
 20
-294.49999999998181
 30
0.0
 11
249.0000000006039
 21
-215.49999999998181
 31
0.0
1001
ACDBBLOCKREPETAG
1070
     1
1071
       10
1005
130AD1
  0
LINE
  5
130AD2
  8
OBJECT
 10
253.0000000006039
 20
-210.99999999998181
 30
0.0
 11
249.0000000006039
 21
-215.49999999998181
 31
0.0
1001
ACDBBLOCKREPETAG
1070
     1
1071
       11
1005
130AD2
  0
LINE
  5
130AD3
  8
OBJECT
 10
253.0000000006039
 20
-298.99999999998181
 30
0.0
 11
249.0000000006039
 21
-294.49999999998181
 31
0.0
1001
ACDBBLOCKREPETAG
1070
     1
1071
       12
1005
130AD3
  0
LINE
  5
130AD4
  8
OBJECT
 10
239.0000000006057
 20
-192.99999999998181
 30
0.0
 11
236.0000000006039
 21
-192.99999999998181
 31
0.0
1001
ACDBBLOCKREPETAG
1070
     1
1071
       13
1005
130AD4
  0
ARC
  5
130AD5
  8
OBJECT
 10
239.0000000006057
 20
-195.99999999998181
 30
0.0
 40
3.0
 50
0.0
 51
90.0
1001
ACDBBLOCKREPETAG
1070
     1
1071
       14
1005
130AD5
  0
LINE
  5
130AD6
  8
OBJECT
 10
236.0000000006039
 20
-316.99999999998181
 30
0.0
 11
239.00000000060211
 21
-316.99999999998181
 31
0.0
1001
ACDBBLOCKREPETAG
1070
     1
1071
       15
1005
130AD6
  0
ARC
  5
130AD7
  8
OBJECT
 10
239.00000000060211
 20
-313.99999999998181
 30
0.0
 40
3.0
 50
270.0
 51
0.0
1001
ACDBBLOCKREPETAG
1070
     1
1071
       16
1005
130AD7
  0
LINE
  5
130AD8
  8
OBJECT
 10
242.00000000060211
 20
-313.99999999998181
 30
0.0
 11
242.0000000006057
 21
-195.99999999998181
 31
0.0
1001
ACDBBLOCKREPETAG
1070
     1
1071
       17
1005
130AD8
  0
LINE
  5
130AD9
  8
HIDDEN
 10
244.0000000006039
 20
-224.99999999998181
 30
0.0
 11
244.0000000006039
 21
-284.99999999998181
 31
0.0
1001
ACDBBLOCKREPETAG
1070
     1
1071
      424
1005
130AD9
  0
LINE
  5
130ADA
  8
OBJECT
 10
94.000000000603904
 20
-51.999999999996362
 30
0.0
 11
94.000000000603904
 21
-44.999999999996348
 31
0.0
1001
ACDBBLOCKREPETAG
1070
     1
1071
       74
1005
130ADA
  0
LINE
  5
130ADB
  8
OBJECT
 10
94.000000000603904
 20
-44.999999999996348
 30
0.0
 11
218.0000000006039
 21
-44.999999999996348
 31
0.0
1001
ACDBBLOCKREPETAG
1070
     1
1071
       75
1005
130ADB
  0
LINE
  5
130ADC
  8
OBJECT
 10
218.0000000006039
 20
-44.999999999996348
 30
0.0
 11
218.0000000006039
 21
-51.999999999996362
 31
0.0
1001
ACDBBLOCKREPETAG
1070
     1
1071
       76
1005
130ADC
  0
LINE
  5
130ADD
  8
OBJECT
 10
218.0000000006039
 20
-51.999999999996362
 30
0.0
 11
94.000000000603904
 21
-51.999999999996362
 31
0.0
1001
ACDBBLOCKREPETAG
1070
     1
1071
       77
1005
130ADD
  0
LINE
  5
130ADE
  8
OBJECT
 10
201.00000000060751
 20
-105.0000250357952
 30
0.0
 11
201.0000000006039
 21
-168.99999999998269
 31
0.0
1001
ACDBBLOCKREPETAG
1070
     1
1071
       78
1005
130ADE
  0
LINE
  5
130ADF
  8
OBJECT
 10
111.0000000006039
 20
-105.0000250357952
 30
0.0
 11
111.0000000006039
 21
-168.9999999999809
 31
0.0
1001
ACDBBLOCKREPETAG
1070
     1
1071
       79
1005
130ADF
  0
LINE
  5
130AE0
  8
OBJECT
 10
97.000000000603904
 20
-51.999999999996362
 30
0.0
 11
97.000000000603904
 21
-87.999999999996334
 31
0.0
1001
ACDBBLOCKREPETAG
1070
     1
1071
       80
1005
130AE0
  0
LINE
  5
130AE1
  8
OBJECT
 10
97.000000000603904
 20
-87.999999999996334
 30
0.0
 11
215.0000000006039
 21
-87.999999999996334
 31
0.0
1001
ACDBBLOCKREPETAG
1070
     1
1071
       81
1005
130AE1
  0
LINE
  5
130AE2
  8
OBJECT
 10
215.0000000006039
 20
-87.999999999996334
 30
0.0
 11
215.0000000006039
 21
-51.999999999996362
 31
0.0
1001
ACDBBLOCKREPETAG
1070
     1
1071
       82
1005
130AE2
  0
LINE
  5
130AE3
  8
OBJECT
 10
101.5000000006039
 20
-91.999999999996362
 30
0.0
 11
101.5000000006039
 21
-104.99999999999631
 31
0.0
1001
ACDBBLOCKREPETAG
1070
     1
1071
       83
1005
130AE3
  0
LINE
  5
130AE4
  8
OBJECT
 10
210.5000000006039
 20
-104.99999999999631
 30
0.0
 11
210.5000000006039
 21
-91.999999999996362
 31
0.0
1001
ACDBBLOCKREPETAG
1070
     1
1071
       84
1005
130AE4
  0
LINE
  5
130AE5
  8
OBJECT
 10
210.5000000006039
 20
-91.999999999996362
 30
0.0
 11
101.5000000006039
 21
-91.999999999996362
 31
0.0
1001
ACDBBLOCKREPETAG
1070
     1
1071
       85
1005
130AE5
  0
LINE
  5
130AE6
  8
OBJECT
 10
97.000000000603904
 20
-87.999999999996334
 30
0.0
 11
101.5000000006039
 21
-91.999999999996362
 31
0.0
1001
ACDBBLOCKREPETAG
1070
     1
1071
       86
1005
130AE6
  0
LINE
  5
130AE7
  8
OBJECT
 10
215.0000000006039
 20
-87.999999999996334
 30
0.0
 11
210.5000000006039
 21
-91.999999999996362
 31
0.0
1001
ACDBBLOCKREPETAG
1070
     1
1071
       87
1005
130AE7
  0
LINE
  5
130AE8
  8
OBJECT
 10
94.000000000603904
 20
-171.9999999999809
 30
0.0
 11
94.000000000603904
 21
-174.99999999998181
 31
0.0
1001
ACDBBLOCKREPETAG
1070
     1
1071
       88
1005
130AE8
  0
ARC
  5
130AE9
  8
OBJECT
 10
97.000000000603904
 20
-171.9999999999809
 30
0.0
 40
3.0
 50
90.0
 51
180.0
1001
ACDBBLOCKREPETAG
1070
     1
1071
       89
1005
130AE9
  0
LINE
  5
130AEA
  8
OBJECT
 10
218.0000000006039
 20
-174.99999999998181
 30
0.0
 11
218.0000000006039
 21
-171.99999999998269
 31
0.0
1001
ACDBBLOCKREPETAG
1070
     1
1071
       90
1005
130AEA
  0
ARC
  5
130AEB
  8
OBJECT
 10
215.0000000006039
 20
-171.99999999998269
 30
0.0
 40
3.0
 50
0.0
 51
90.0
1001
ACDBBLOCKREPETAG
1070
     1
1071
       91
1005
130AEB
  0
LINE
  5
130AEC
  8
OBJECT
 10
215.0000000006039
 20
-168.99999999998269
 30
0.0
 11
166.32279032096261
 21
-168.9999999999809
 31
0.0
1001
ACDBBLOCKREPETAG
1070
     1
1071
       92
1005
130AEC
  0
LINE
  5
130AED
  8
OBJECT
 10
145.67720968024511
 20
-168.99999999998181
 30
0.0
 11
97.000000000603904
 21
-168.9999999999809
 31
0.0
1001
ACDBBLOCKREPETAG
1070
     1
1071
       93
1005
130AED
  0
LINE
  5
130AEE
  8
OBJECT
 10
210.49995092441529
 20
-105.0000250357952
 30
0.0
 11
101.4999509244153
 21
-105.0000250357952
 31
0.0
1001
ACDBBLOCKREPETAG
1070
     1
1071
       95
1005
130AEE
  0
ARC
  5
130AEF
  8
OBJECT
 10
156.0000000006039
 20
-125.19999999995891
 30
0.0
 40
45.000000000000547
 50
180.0
 51
0.0
1001
ACDBBLOCKREPETAG
1070
     1
1071
       96
1005
130AEF
  0
INSERT
  5
130AF0
  8
OBJECT
  2
*U276
 10
0.0
 20
0.0
 30
0.0
  0
LINE
  5
130AF1
  8
HIDDEN
 10
111.5000000006039
 20
-96.999999999996362
 30
0.0
 11
200.5000000006039
 21
-96.999999999996362
 31
0.0
1001
ACDBBLOCKREPETAG
1070
     1
1071
      429
1005
130AF1
  0
LINE
  5
130AF2
  8
HIDDEN
 10
0.0
 20
0.0
 30
0.0
 11
360.0
 21
0.0
 31
0.0
1001
ACDBBLOCKREPETAG
1070
     1
1071
       49
1005
0
  0
LINE
  5
130AF3
  8
HIDDEN
 10
360.0
 20
0.0
 30
0.0
 11
360.0
 21
-464.0
 31
0.0
1001
ACDBBLOCKREPETAG
1070
     1
1071
       49
1005
0
  0
LINE
  5
130AF4
  8
HIDDEN
 10
360.0
 20
-464.0
 30
0.0
 11
0.0
 21
-464.0
 31
0.0
1001
ACDBBLOCKREPETAG
1070
     1
1071
       49
1005
0
  0
LINE
  5
130AF5
  8
HIDDEN
 10
0.0
 20
-464.0
 30
0.0
 11
0.0
 21
0.0
 31
0.0
1001
ACDBBLOCKREPETAG
1070
     1
1071
       49
1005
0
  0
LINE
  5
130AF6
  8
HIDDEN
 10
0.0
 20
-464.0
 30
0.0
 11
360.0
 21
-464.0
 31
0.0
1001
ACDBBLOCKREPETAG
1070
     1
1071
       36
1005
0
  0
LINE
  5
130AF7
  8
HIDDEN
 10
360.0
 20
-464.0
 30
0.0
 11
360.0
 21
-928.0
 31
0.0
1001
ACDBBLOCKREPETAG
1070
     1
1071
       36
1005
0
  0
LINE
  5
130AF8
  8
HIDDEN
 10
360.0
 20
-928.0
 30
0.0
 11
0.0
 21
-928.0
 31
0.0
1001
ACDBBLOCKREPETAG
1070
     1
1071
       36
1005
0
  0
LINE
  5
130AF9
  8
HIDDEN
 10
0.0
 20
-928.0
 30
0.0
 11
0.0
 21
-464.0
 31
0.0
1001
ACDBBLOCKREPETAG
1070
     1
1071
       36
1005
0
  0
LINE
  5
130AFA
  8
HIDDEN
 10
360.0
 20
0.0
 30
0.0
 11
720.0
 21
0.0
 31
0.0
1001
ACDBBLOCKREPETAG
1070
     1
1071
       35
1005
0
  0
LINE
  5
130AFB
  8
HIDDEN
 10
720.0
 20
0.0
 30
0.0
 11
720.0
 21
-464.0
 31
0.0
1001
ACDBBLOCKREPETAG
1070
     1
1071
       35
1005
0
  0
LINE
  5
130AFC
  8
HIDDEN
 10
720.0
 20
-464.0
 30
0.0
 11
360.0
 21
-464.0
 31
0.0
1001
ACDBBLOCKREPETAG
1070
     1
1071
       35
1005
0
  0
LINE
  5
130AFD
  8
HIDDEN
 10
360.0
 20
-464.0
 30
0.0
 11
360.0
 21
0.0
 31
0.0
1001
ACDBBLOCKREPETAG
1070
     1
1071
       35
1005
0
  0
LINE
  5
130AFE
  8
HIDDEN
 10
360.0
 20
-464.0
 30
0.0
 11
720.0
 21
-464.0
 31
0.0
1001
ACDBBLOCKREPETAG
1070
     1
1071
       34
1005
0
  0
LINE
  5
130AFF
  8
HIDDEN
 10
720.0
 20
-464.0
 30
0.0
 11
720.0
 21
-928.0
 31
0.0
1001
ACDBBLOCKREPETAG
1070
     1
1071
       34
1005
0
  0
LINE
  5
130B00
  8
HIDDEN
 10
720.0
 20
-928.0
 30
0.0
 11
360.0
 21
-928.0
 31
0.0
1001
ACDBBLOCKREPETAG
1070
     1
1071
       34
1005
0
  0
LINE
  5
130B01
  8
HIDDEN
 10
360.0
 20
-928.0
 30
0.0
 11
360.0
 21
-464.0
 31
0.0
1001
ACDBBLOCKREPETAG
1070
     1
1071
       34
1005
0
  0
LINE
  5
130B02
  8
OBJECT
 10
3923.0
 20
-570.99999999999955
 30
0.0
 11
3923.0
 21
-549.99999999999955
 31
0.0
1001
ACDBBLOCKREPETAG
1070
     1
1071
       36
1005
130B02
  0
LINE
  5
130B03
  8
OBJECT
 10
3923.0
 20
-549.99999999999955
 30
0.0
 11
4077.0
 21
-549.99999999999955
 31
0.0
1001
ACDBBLOCKREPETAG
1070
     1
1071
       37
1005
130B03
  0
LINE
  5
130B04
  8
HIDDEN
 10
3943.0
 20
-619.99999999999955
 30
0.0
 11
4057.0
 21
-619.99999999999955
 31
0.0
1001
ACDBBLOCKREPETAG
1070
     1
1071
       38
1005
130B04
  0
LINE
  5
130B05
  8
OBJECT
 10
4077.0
 20
-549.99999999999955
 30
0.0
 11
4077.0
 21
-570.99999999999955
 31
0.0
1001
ACDBBLOCKREPETAG
1070
     1
1071
       39
1005
130B05
  0
LINE
  5
130B06
  8
OBJECT
 10
4077.0
 20
-570.99999999999955
 30
0.0
 11
3923.0
 21
-570.99999999999955
 31
0.0
1001
ACDBBLOCKREPETAG
1070
     1
1071
       40
1005
130B06
  0
LINE
  5
130B07
  8
CENTER
 10
4000.0
 20
-534.99999999999955
 30
0.0
 11
4000.0
 21
-769.99999999999955
 31
0.0
1001
ACDBBLOCKREPETAG
1070
     1
1071
       41
1005
130B07
  0
LINE
  5
130B08
  8
OBJECT
 10
3928.0
 20
-570.99999999999955
 30
0.0
 11
3928.0
 21
-633.99999999999955
 31
0.0
1001
ACDBBLOCKREPETAG
1070
     1
1071
       42
1005
130B08
  0
LINE
  5
130B09
  8
OBJECT
 10
4072.0
 20
-633.99999999999955
 30
0.0
 11
4072.0
 21
-570.99999999999955
 31
0.0
1001
ACDBBLOCKREPETAG
1070
     1
1071
       43
1005
130B09
  0
LINE
  5
130B0A
  8
OBJECT
 10
3920.0
 20
-757.99999999999955
 30
0.0
 11
4080.0
 21
-757.99999999999955
 31
0.0
1001
ACDBBLOCKREPETAG
1070
     1
1071
       44
1005
130B0A
  0
LINE
  5
130B0B
  8
OBJECT
 10
4080.0
 20
-633.99999999999955
 30
0.0
 11
3920.0
 21
-633.99999999999955
 31
0.0
1001
ACDBBLOCKREPETAG
1070
     1
1071
       45
1005
130B0B
  0
LINE
  5
130B0C
  8
OBJECT
 10
3920.0
 20
-757.99999999999955
 30
0.0
 11
3920.0
 21
-769.99999999999955
 31
0.0
1001
ACDBBLOCKREPETAG
1070
     1
1071
       46
1005
130B0C
  0
LINE
  5
130B0D
  8
OBJECT
 10
3920.0
 20
-769.99999999999955
 30
0.0
 11
4080.0
 21
-769.99999999999955
 31
0.0
1001
ACDBBLOCKREPETAG
1070
     1
1071
       47
1005
130B0D
  0
LINE
  5
130B0E
  8
OBJECT
 10
4080.0
 20
-769.99999999999955
 30
0.0
 11
4080.0
 21
-757.99999999999955
 31
0.0
1001
ACDBBLOCKREPETAG
1070
     1
1071
       48
1005
130B0E
  0
ARC
  5
130B0F
  8
OBJECT
 10
4200.6872746716726
 20
-749.40809941010718
 30
0.0
 40
170.6350503965856
 50
137.44134459184301
 51
149.91949581337221
1001
ACDBBLOCKREPETAG
1070
     1
1071
       52
1005
130B0F
  0
ARC
  5
130B10
  8
OBJECT
 10
4200.6872746716726
 20
-642.59190058989179
 30
0.0
 40
170.6350503965856
 50
210.08050418662771
 51
222.55865540815699
1001
ACDBBLOCKREPETAG
1070
     1
1071
       53
1005
130B10
  0
ARC
  5
130B11
  8
OBJECT
 10
3799.3127253283278
 20
-749.40809941010718
 30
0.0
 40
170.6350503965856
 50
30.080504186774089
 51
42.558655408456282
1001
ACDBBLOCKREPETAG
1070
     1
1071
       54
1005
130B11
  0
ARC
  5
130B12
  8
OBJECT
 10
3799.3127253283278
 20
-642.59190058989179
 30
0.0
 40
170.6350503965856
 50
317.44134459154373
 51
329.91949581322592
1001
ACDBBLOCKREPETAG
1070
     1
1071
       55
1005
130B12
  0
POINT
  5
130B13
  8
DOTS
 10
4000.0
 20
-754.99999999999955
 30
0.0
1001
ACDBBLOCKREPETAG
1070
     1
1071
      184
1005
130B13
  0
LINE
  5
130B14
  8
SLIM
 10
3945.2566704261012
 20
-137.99999999999909
 30
0.0
 11
3955.9548403695781
 21
-127.30183005652231
 31
0.0
1001
GRADIENTCOLOR1ACI
1070
     5
1001
GRADIENTCOLOR2ACI
1070
     2
1001
ACAD
1010
0.0
1020
0.0
1030
0.0
1001
ACDBBLOCKREPETAG
1070
     1
1071
      422
1005
130B14
  0
LINE
  5
130B15
  8
SLIM
 10
3954.2369265471712
 20
-137.99999999999909
 30
0.0
 11
3972.7507744763329
 21
-119.4861520708364
 31
0.0
1001
GRADIENTCOLOR1ACI
1070
     5
1001
GRADIENTCOLOR2ACI
1070
     2
1001
ACAD
1010
0.0
1020
0.0
1030
0.0
1001
ACDBBLOCKREPETAG
1070
     1
1071
      423
1005
130B15
  0
LINE
  5
130B16
  8
SLIM
 10
3973.521224312457
 20
-127.6959583557812
 30
0.0
 11
3984.8575146748631
 21
-116.359667993377
 31
0.0
1001
GRADIENTCOLOR1ACI
1070
     5
1001
GRADIENTCOLOR2ACI
1070
     2
1001
ACAD
1010
0.0
1020
0.0
1030
0.0
1001
ACDBBLOCKREPETAG
1070
     1
1071
      424
1005
130B16
  0
LINE
  5
130B17
  8
SLIM
 10
3985.8944171461271
 20
-124.30302164318159
 30
0.0
 11
3995.0533812002559
 21
-115.1440575890517
 31
0.0
1001
GRADIENTCOLOR1ACI
1070
     5
1001
GRADIENTCOLOR2ACI
1070
     2
1001
ACAD
1010
0.0
1020
0.0
1030
0.0
1001
ACDBBLOCKREPETAG
1070
     1
1071
      425
1005
130B17
  0
LINE
  5
130B18
  8
SLIM
 10
3996.0777327492078
 20
-123.0999621611699
 30
0.0
 11
4000.0
 21
-119.1776949103767
 31
0.0
1001
GRADIENTCOLOR1ACI
1070
     5
1001
GRADIENTCOLOR2ACI
1070
     2
1001
ACAD
1010
0.0
1020
0.0
1030
0.0
1001
ACDBBLOCKREPETAG
1070
     1
1071
      426
1005
130B18
  0
LINE
  5
130B19
  8
SLIM
 10
4000.0
 20
-119.1776949103767
 30
0.0
 11
4004.0797313529042
 21
-115.0979635574724
 31
0.0
1001
GRADIENTCOLOR1ACI
1070
     5
1001
GRADIENTCOLOR2ACI
1070
     2
1001
ACAD
1010
0.0
1020
0.0
1030
0.0
1001
ACDBBLOCKREPETAG
1070
     1
1071
      427
1005
130B19
  0
LINE
  5
130B1A
  8
SLIM
 10
4004.9957202542769
 20
-123.1622307771683
 30
0.0
 11
4012.2679784105749
 21
-115.88997262087101
 31
0.0
1001
GRADIENTCOLOR1ACI
1070
     5
1001
GRADIENTCOLOR2ACI
1070
     2
1001
ACAD
1010
0.0
1020
0.0
1030
0.0
1001
ACDBBLOCKREPETAG
1070
     1
1071
      428
1005
130B1A
  0
LINE
  5
130B1B
  8
SLIM
 10
4013.028059366964
 20
-124.1101477855505
 30
0.0
 11
4019.799941457361
 21
-117.3382656951526
 31
0.0
1001
GRADIENTCOLOR1ACI
1070
     5
1001
GRADIENTCOLOR2ACI
1070
     2
1001
ACAD
1010
0.0
1020
0.0
1030
0.0
1001
ACDBBLOCKREPETAG
1070
     1
1071
      429
1005
130B1B
  0
LINE
  5
130B1C
  8
SLIM
 10
4020.3740813142458
 20
-125.7443819593383
 30
0.0
 11
4026.7872038672799
 21
-119.3312594063044
 31
0.0
1001
GRADIENTCOLOR1ACI
1070
     5
1001
GRADIENTCOLOR2ACI
1070
     2
1001
ACAD
1010
0.0
1020
0.0
1030
0.0
1001
ACDBBLOCKREPETAG
1070
     1
1071
      430
1005
130B1C
  0
LINE
  5
130B1D
  8
SLIM
 10
4027.1524719988752
 20
-127.946247395778
 30
0.0
 11
4033.3030030760328
 21
-121.7957163186195
 31
0.0
1001
GRADIENTCOLOR1ACI
1070
     5
1001
GRADIENTCOLOR2ACI
1070
     2
1001
ACAD
1010
0.0
1020
0.0
1030
0.0
1001
ACDBBLOCKREPETAG
1070
     1
1071
      431
1005
130B1D
  0
LINE
  5
130B1E
  8
SLIM
 10
4033.4390986513308
 20
-130.63987686439191
 30
0.0
 11
4039.3973119843781
 21
-124.6816635313439
 31
0.0
1001
GRADIENTCOLOR1ACI
1070
     5
1001
GRADIENTCOLOR2ACI
1070
     2
1001
ACAD
1010
0.0
1020
0.0
1030
0.0
1001
ACDBBLOCKREPETAG
1070
     1
1071
      432
1005
130B1E
  0
LINE
  5
130B1F
  8
SLIM
 10
4039.284224621797
 20
-133.77500701499321
 30
0.0
 11
4045.1047705343681
 21
-127.95446110242381
 31
0.0
1001
GRADIENTCOLOR1ACI
1070
     5
1001
GRADIENTCOLOR2ACI
1070
     2
1001
ACAD
1010
0.0
1020
0.0
1030
0.0
1001
ACDBBLOCKREPETAG
1070
     1
1071
      433
1005
130B1F
  0
LINE
  5
130B20
  8
SLIM
 10
4044.7212801698038
 20
-137.31820758805651
 30
0.0
 11
4050.4491557891961
 21
-131.59033196866449
 31
0.0
1001
GRADIENTCOLOR1ACI
1070
     5
1001
GRADIENTCOLOR2ACI
1070
     2
1001
ACAD
1010
0.0
1020
0.0
1030
0.0
1001
ACDBBLOCKREPETAG
1070
     1
1071
      434
1005
130B20
  0
LINE
  5
130B21
  8
SLIM
 10
4053.0197438789291
 20
-137.99999999999909
 30
0.0
 11
4055.4459941864038
 21
-135.57374969252561
 31
0.0
1001
GRADIENTCOLOR1ACI
1070
     5
1001
GRADIENTCOLOR2ACI
1070
     2
1001
ACAD
1010
0.0
1020
0.0
1030
0.0
1001
ACDBBLOCKREPETAG
1070
     1
1071
      435
1005
130B21
  0
LINE
  5
130B22
  8
CENTER
 10
4000.0
 20
-279.99999999999909
 30
0.0
 11
4000.0
 21
-99.999999999999091
 31
0.0
1001
ACDBBLOCKREPETAG
1070
     1
1071
      160
1005
130B22
  0
CIRCLE
  5
130B23
  8
OBJECT
 10
4000.0
 20
-199.99999999999909
 30
0.0
 40
70.0
1001
ACDBBLOCKREPETAG
1070
     1
1071
      161
1005
130B23
  0
CIRCLE
  5
130B24
  8
OBJECT
 10
4000.0
 20
-199.99999999999909
 30
0.0
 40
77.0
1001
ACDBBLOCKREPETAG
1070
     1
1071
      162
1005
130B24
  0
LINE
  5
130B25
  8
OBJECT
 10
4045.661800227324
 20
-137.99999999999909
 30
0.0
 11
4080.0
 21
-137.99999999999909
 31
0.0
1001
ACDBBLOCKREPETAG
1070
     1
1071
      164
1005
130B25
  0
LINE
  5
130B26
  8
OBJECT
 10
4062.0
 20
-261.99999999999909
 30
0.0
 11
4080.0
 21
-261.99999999999909
 31
0.0
1001
ACDBBLOCKREPETAG
1070
     1
1071
      165
1005
130B26
  0
LINE
  5
130B27
  8
OBJECT
 10
4062.0
 20
-261.99999999999909
 30
0.0
 11
4062.0
 21
-279.99999999999909
 31
0.0
1001
ACDBBLOCKREPETAG
1070
     1
1071
      167
1005
130B27
  0
LINE
  5
130B28
  8
OBJECT
 10
3938.0
 20
-261.99999999999909
 30
0.0
 11
3938.0
 21
-279.99999999999909
 31
0.0
1001
ACDBBLOCKREPETAG
1070
     1
1071
      168
1005
130B28
  0
LINE
  5
130B29
  8
OBJECT
 10
3938.0
 20
-261.99999999999909
 30
0.0
 11
3920.0
 21
-261.99999999999909
 31
0.0
1001
ACDBBLOCKREPETAG
1070
     1
1071
      170
1005
130B29
  0
LINE
  5
130B2A
  8
OBJECT
 10
3954.338199772676
 20
-137.99999999999909
 30
0.0
 11
3920.0
 21
-137.99999999999909
 31
0.0
1001
ACDBBLOCKREPETAG
1070
     1
1071
      171
1005
130B2A
  0
LINE
  5
130B2B
  8
OBJECT
 10
3945.5527778486362
 20
-254.44722215136329
 30
0.0
 11
3938.0
 21
-261.99999999999909
 31
0.0
1001
ACDBBLOCKREPETAG
1070
     1
1071
      180
1005
130B2B
  0
LINE
  5
130B2C
  8
OBJECT
 10
4054.4472221513638
 20
-254.44722215136329
 30
0.0
 11
4062.0
 21
-261.99999999999909
 31
0.0
1001
ACDBBLOCKREPETAG
1070
     1
1071
      181
1005
130B2C
  0
POINT
  5
130B2D
  8
DOTS
 10
4000.0
 20
-199.99999999999909
 30
0.0
 50
270.0
1001
ACDBBLOCKREPETAG
1070
     1
1071
      182
1005
130B2D
  0
ARC
  5
130B2E
  8
OBJECT
 10
4000.0
 20
-199.99999999999909
 30
0.0
 40
85.0
 50
46.837102859806208
 51
133.16289714019371
1001
ACDBBLOCKREPETAG
1070
     1
1071
      183
1005
130B2E
  0
CIRCLE
  5
130B2F
  8
OBJECT
 10
4000.0
 20
-199.99999999999909
 30
0.0
 40
53.5
1001
ACDBBLOCKREPETAG
1070
     1
1071
      352
1005
130B2F
  0
LINE
  5
130B30
  8
CENTER
 10
4080.0
 20
-199.99999999999909
 30
0.0
 11
3920.0
 21
-199.99999999999909
 31
0.0
1001
ACDBBLOCKREPETAG
1070
     1
1071
      158
1005
130B30
  0
LINE
  5
130B31
  8
CENTER
 10
3899.0
 20
-199.99999999999909
 30
0.0
 11
3920.0
 21
-199.99999999999909
 31
0.0
1001
ACDBBLOCKREPETAG
1070
     1
1071
        0
1005
130B31
  0
LINE
  5
130B32
  8
OBJECT
 10
3917.0
 20
-261.99999999999909
 30
0.0
 11
3920.0
 21
-261.99999999999909
 31
0.0
1001
ACDBBLOCKREPETAG
1070
     1
1071
        1
1005
130B32
  0
ARC
  5
130B33
  8
OBJECT
 10
3917.0
 20
-258.99999999999909
 30
0.0
 40
3.0
 50
180.0
 51
270.0
1001
ACDBBLOCKREPETAG
1070
     1
1071
        2
1005
130B33
  0
LINE
  5
130B34
  8
OBJECT
 10
3920.0
 20
-137.99999999999909
 30
0.0
 11
3917.0
 21
-137.99999999999909
 31
0.0
1001
ACDBBLOCKREPETAG
1070
     1
1071
        3
1005
130B34
  0
ARC
  5
130B35
  8
OBJECT
 10
3917.0
 20
-140.99999999999909
 30
0.0
 40
3.0
 50
90.0
 51
180.0
1001
ACDBBLOCKREPETAG
1070
     1
1071
        4
1005
130B35
  0
LINE
  5
130B36
  8
OBJECT
 10
3914.0
 20
-140.99999999999909
 30
0.0
 11
3914.0
 21
-258.99999999999909
 31
0.0
1001
ACDBBLOCKREPETAG
1070
     1
1071
        5
1005
130B36
  0
LINE
  5
130B37
  8
OBJECT
 10
4062.0
 20
-332.99999999999898
 30
0.0
 11
4062.0
 21
-339.99999999999909
 31
0.0
1001
ACDBBLOCKREPETAG
1070
     1
1071
       47
1005
130B37
  0
LINE
  5
130B38
  8
OBJECT
 10
4062.0
 20
-339.99999999999909
 30
0.0
 11
3938.0
 21
-339.99999999999909
 31
0.0
1001
ACDBBLOCKREPETAG
1070
     1
1071
       48
1005
130B38
  0
LINE
  5
130B39
  8
OBJECT
 10
3938.0
 20
-339.99999999999909
 30
0.0
 11
3938.0
 21
-332.99999999999898
 31
0.0
1001
ACDBBLOCKREPETAG
1070
     1
1071
       49
1005
130B39
  0
LINE
  5
130B3A
  8
OBJECT
 10
3938.0
 20
-332.99999999999898
 30
0.0
 11
4062.0
 21
-332.99999999999898
 31
0.0
1001
ACDBBLOCKREPETAG
1070
     1
1071
       50
1005
130B3A
  0
LINE
  5
130B3B
  8
CENTER
 10
4000.0
 20
-354.99999999999909
 30
0.0
 11
4000.0
 21
-279.99999999999909
 31
0.0
1001
ACDBBLOCKREPETAG
1070
     1
1071
       51
1005
130B3B
  0
LINE
  5
130B3C
  8
OBJECT
 10
4059.0
 20
-332.99999999999898
 30
0.0
 11
4059.0
 21
-296.99999999999898
 31
0.0
1001
ACDBBLOCKREPETAG
1070
     1
1071
       52
1005
130B3C
  0
LINE
  5
130B3D
  8
OBJECT
 10
4059.0
 20
-296.99999999999898
 30
0.0
 11
3941.0
 21
-296.99999999999898
 31
0.0
1001
ACDBBLOCKREPETAG
1070
     1
1071
       53
1005
130B3D
  0
LINE
  5
130B3E
  8
OBJECT
 10
3941.0
 20
-296.99999999999898
 30
0.0
 11
3941.0
 21
-332.99999999999898
 31
0.0
1001
ACDBBLOCKREPETAG
1070
     1
1071
       54
1005
130B3E
  0
LINE
  5
130B3F
  8
OBJECT
 10
4054.4999999999991
 20
-292.99999999999898
 30
0.0
 11
4054.4999999999991
 21
-285.99999999999898
 31
0.0
1001
ACDBBLOCKREPETAG
1070
     1
1071
       55
1005
130B3F
  0
LINE
  5
130B40
  8
OBJECT
 10
3945.5
 20
-285.99999999999898
 30
0.0
 11
3945.5
 21
-292.99999999999898
 31
0.0
1001
ACDBBLOCKREPETAG
1070
     1
1071
       56
1005
130B40
  0
LINE
  5
130B41
  8
OBJECT
 10
3945.5
 20
-292.99999999999898
 30
0.0
 11
4054.4999999999991
 21
-292.99999999999898
 31
0.0
1001
ACDBBLOCKREPETAG
1070
     1
1071
       57
1005
130B41
  0
LINE
  5
130B42
  8
OBJECT
 10
4059.0
 20
-296.99999999999898
 30
0.0
 11
4054.4999999999991
 21
-292.99999999999898
 31
0.0
1001
ACDBBLOCKREPETAG
1070
     1
1071
       58
1005
130B42
  0
LINE
  5
130B43
  8
OBJECT
 10
3941.0
 20
-296.99999999999898
 30
0.0
 11
3945.5
 21
-292.99999999999898
 31
0.0
1001
ACDBBLOCKREPETAG
1070
     1
1071
       59
1005
130B43
  0
LINE
  5
130B44
  8
OBJECT
 10
4062.0
 20
-283.0
 30
0.0
 11
4062.0
 21
-279.99999999999909
 31
0.0
1001
ACDBBLOCKREPETAG
1070
     1
1071
       60
1005
130B44
  0
ARC
  5
130B45
  8
OBJECT
 10
4059.0
 20
-283.0
 30
0.0
 40
3.0
 50
270.0
 51
0.0
1001
ACDBBLOCKREPETAG
1070
     1
1071
       61
1005
130B45
  0
LINE
  5
130B46
  8
OBJECT
 10
3938.0
 20
-279.99999999999909
 30
0.0
 11
3938.0
 21
-282.99999999999818
 31
0.0
1001
ACDBBLOCKREPETAG
1070
     1
1071
       62
1005
130B46
  0
ARC
  5
130B47
  8
OBJECT
 10
3941.0
 20
-282.99999999999818
 30
0.0
 40
3.0
 50
180.0
 51
270.0
1001
ACDBBLOCKREPETAG
1070
     1
1071
       63
1005
130B47
  0
LINE
  5
130B48
  8
OBJECT
 10
3941.0
 20
-285.99999999999818
 30
0.0
 11
4059.0
 21
-286.0
 31
0.0
1001
ACDBBLOCKREPETAG
1070
     1
1071
       64
1005
130B48
  0
LINE
  5
130B49
  8
HIDDEN
 10
4044.5
 20
-287.99999999999909
 30
0.0
 11
3955.5
 21
-287.99999999999909
 31
0.0
1001
ACDBBLOCKREPETAG
1070
     1
1071
       65
1005
130B49
  0
LINE
  5
130B4A
  8
OBJECT
 10
4202.9999999999854
 20
-137.99999999999909
 30
0.0
 11
4209.9999999999854
 21
-137.99999999999909
 31
0.0
1001
ACDBBLOCKREPETAG
1070
     1
1071
       85
1005
130B4A
  0
LINE
  5
130B4B
  8
OBJECT
 10
4209.9999999999854
 20
-137.99999999999909
 30
0.0
 11
4209.9999999999854
 21
-261.99999999999909
 31
0.0
1001
ACDBBLOCKREPETAG
1070
     1
1071
       86
1005
130B4B
  0
LINE
  5
130B4C
  8
OBJECT
 10
4209.9999999999854
 20
-261.99999999999909
 30
0.0
 11
4202.9999999999854
 21
-261.99999999999909
 31
0.0
1001
ACDBBLOCKREPETAG
1070
     1
1071
       87
1005
130B4C
  0
LINE
  5
130B4D
  8
OBJECT
 10
4202.9999999999854
 20
-261.99999999999909
 30
0.0
 11
4202.9999999999854
 21
-137.99999999999909
 31
0.0
1001
ACDBBLOCKREPETAG
1070
     1
1071
       88
1005
130B4D
  0
LINE
  5
130B4E
  8
CENTER
 10
4224.9999999999864
 20
-199.99999999999909
 30
0.0
 11
4080.0
 21
-199.99999999999909
 31
0.0
1001
ACDBBLOCKREPETAG
1070
     1
1071
       89
1005
130B4E
  0
LINE
  5
130B4F
  8
OBJECT
 10
4149.9999749641856
 20
-245.0000000000027
 30
0.0
 11
4086.0
 21
-244.99999999999909
 31
0.0
1001
ACDBBLOCKREPETAG
1070
     1
1071
       90
1005
130B4F
  0
LINE
  5
130B50
  8
OBJECT
 10
4149.9999749641856
 20
-154.99999999999909
 30
0.0
 11
4086.0
 21
-154.99999999999909
 31
0.0
1001
ACDBBLOCKREPETAG
1070
     1
1071
       91
1005
130B50
  0
LINE
  5
130B51
  8
OBJECT
 10
4202.9999999999854
 20
-140.99999999999909
 30
0.0
 11
4166.9999999999854
 21
-140.99999999999909
 31
0.0
1001
ACDBBLOCKREPETAG
1070
     1
1071
       92
1005
130B51
  0
LINE
  5
130B52
  8
OBJECT
 10
4166.9999999999854
 20
-140.99999999999909
 30
0.0
 11
4166.9999999999854
 21
-258.99999999999909
 31
0.0
1001
ACDBBLOCKREPETAG
1070
     1
1071
       93
1005
130B52
  0
LINE
  5
130B53
  8
OBJECT
 10
4166.9999999999854
 20
-258.99999999999909
 30
0.0
 11
4202.9999999999854
 21
-258.99999999999909
 31
0.0
1001
ACDBBLOCKREPETAG
1070
     1
1071
       94
1005
130B53
  0
LINE
  5
130B54
  8
OBJECT
 10
4162.9999999999854
 20
-145.49999999999909
 30
0.0
 11
4149.9999999999864
 21
-145.49999999999909
 31
0.0
1001
ACDBBLOCKREPETAG
1070
     1
1071
       95
1005
130B54
  0
LINE
  5
130B55
  8
OBJECT
 10
4149.9999999999864
 20
-254.49999999999909
 30
0.0
 11
4162.9999999999854
 21
-254.49999999999909
 31
0.0
1001
ACDBBLOCKREPETAG
1070
     1
1071
       96
1005
130B55
  0
LINE
  5
130B56
  8
OBJECT
 10
4162.9999999999854
 20
-254.49999999999909
 30
0.0
 11
4162.9999999999854
 21
-145.49999999999909
 31
0.0
1001
ACDBBLOCKREPETAG
1070
     1
1071
       97
1005
130B56
  0
LINE
  5
130B57
  8
OBJECT
 10
4166.9999999999854
 20
-140.99999999999909
 30
0.0
 11
4162.9999999999854
 21
-145.49999999999909
 31
0.0
1001
ACDBBLOCKREPETAG
1070
     1
1071
       98
1005
130B57
  0
LINE
  5
130B58
  8
OBJECT
 10
4166.9999999999854
 20
-258.99999999999909
 30
0.0
 11
4162.9999999999854
 21
-254.49999999999909
 31
0.0
1001
ACDBBLOCKREPETAG
1070
     1
1071
       99
1005
130B58
  0
LINE
  5
130B59
  8
OBJECT
 10
4083.0
 20
-137.99999999999909
 30
0.0
 11
4080.0
 21
-137.99999999999909
 31
0.0
1001
ACDBBLOCKREPETAG
1070
     1
1071
      100
1005
130B59
  0
ARC
  5
130B5A
  8
OBJECT
 10
4083.0
 20
-140.99999999999909
 30
0.0
 40
3.0
 50
0.0
 51
90.0
1001
ACDBBLOCKREPETAG
1070
     1
1071
      101
1005
130B5A
  0
LINE
  5
130B5B
  8
OBJECT
 10
4080.0
 20
-261.99999999999909
 30
0.0
 11
4083.0
 21
-261.99999999999909
 31
0.0
1001
ACDBBLOCKREPETAG
1070
     1
1071
      102
1005
130B5B
  0
ARC
  5
130B5C
  8
OBJECT
 10
4083.0
 20
-258.99999999999909
 30
0.0
 40
3.0
 50
270.0
 51
0.0
1001
ACDBBLOCKREPETAG
1070
     1
1071
      103
1005
130B5C
  0
LINE
  5
130B5D
  8
OBJECT
 10
4086.0
 20
-258.99999999999909
 30
0.0
 11
4086.0
 21
-210.3227903203578
 31
0.0
1001
ACDBBLOCKREPETAG
1070
     1
1071
      104
1005
130B5D
  0
LINE
  5
130B5E
  8
OBJECT
 10
4086.0
 20
-189.6772096796403
 30
0.0
 11
4086.0
 21
-140.99999999999909
 31
0.0
1001
ACDBBLOCKREPETAG
1070
     1
1071
      105
1005
130B5E
  0
LINE
  5
130B5F
  8
HIDDEN
 10
4157.9999999999864
 20
-155.49999999999909
 30
0.0
 11
4157.9999999999864
 21
-244.49999999999909
 31
0.0
1001
ACDBBLOCKREPETAG
1070
     1
1071
      106
1005
130B5F
  0
LINE
  5
130B60
  8
OBJECT
 10
4149.9999749641856
 20
-254.4999509238105
 30
0.0
 11
4149.9999749641856
 21
-145.4999509238105
 31
0.0
1001
ACDBBLOCKREPETAG
1070
     1
1071
      108
1005
130B60
  0
ARC
  5
130B61
  8
OBJECT
 10
4129.8000000000247
 20
-199.99999999999909
 30
0.0
 40
45.000000000000547
 50
90.0
 51
270.0
1001
ACDBBLOCKREPETAG
1070
     1
1071
      109
1005
130B61
  0
LINE
  5
130B62
  8
OBJECT
 10
3917.0
 20
-634.0
 30
0.0
 11
3920.0
 21
-634.0
 31
0.0
1001
ACDBBLOCKREPETAG
1070
     1
1071
        1
1005
130B62
  0
ARC
  5
130B63
  8
OBJECT
 10
3917.0
 20
-637.0
 30
0.0
 40
3.0
 50
90.0
 51
180.0
1001
ACDBBLOCKREPETAG
1070
     1
1071
        2
1005
130B63
  0
LINE
  5
130B64
  8
OBJECT
 10
3920.0
 20
-758.0
 30
0.0
 11
3917.0
 21
-758.0
 31
0.0
1001
ACDBBLOCKREPETAG
1070
     1
1071
        3
1005
130B64
  0
ARC
  5
130B65
  8
OBJECT
 10
3917.0
 20
-755.0
 30
0.0
 40
3.0
 50
180.0
 51
270.0
1001
ACDBBLOCKREPETAG
1070
     1
1071
        4
1005
130B65
  0
LINE
  5
130B66
  8
OBJECT
 10
3914.0
 20
-755.0
 30
0.0
 11
3914.0
 21
-637.0
 31
0.0
1001
ACDBBLOCKREPETAG
1070
     1
1071
        5
1005
130B66
  0
LINE
  5
130B67
  8
CENTER
 10
4077.0
 20
-696.0
 30
0.0
 11
3923.0
 21
-696.0
 31
0.0
1001
ACDBBLOCKREPETAG
1070
     1
1071
       17
1005
130B67
  0
CIRCLE
  5
130B68
  8
OBJECT
 10
4000.0
 20
-696.0
 30
0.0
 40
41.5
1001
ACDBBLOCKREPETAG
1070
     1
1071
       19
1005
130B68
  0
CIRCLE
  5
130B69
  8
OBJECT
 10
4000.0
 20
-696.0
 30
0.0
 40
54.0
1001
ACDBBLOCKREPETAG
1070
     1
1071
       20
1005
130B69
  0
ARC
  5
130B6A
  8
OBJECT
 10
4000.0
 20
-696.0
 30
0.0
 40
62.0
 50
287.89655112920718
 51
252.10344887079279
1001
ACDBBLOCKREPETAG
1070
     1
1071
       21
1005
130B6A
  0
LINE
  5
130B6B
  8
OBJECT
 10
3980.947441116743
 20
-755.0
 30
0.0
 11
4019.052558883257
 21
-755.0
 31
0.0
1001
ACDBBLOCKREPETAG
1070
     1
1071
       22
1005
130B6B
  0
LINE
  5
130B6C
  8
OBJECT
 10
4202.9999999999854
 20
-583.0000000000008
 30
0.0
 11
4209.9999999999854
 21
-583.0000000000008
 31
0.0
1001
ACDBBLOCKREPETAG
1070
     1
1071
       83
1005
130B6C
  0
LINE
  5
130B6D
  8
OBJECT
 10
4209.9999999999854
 20
-583.0000000000008
 30
0.0
 11
4209.9999999999854
 21
-707.00000000000091
 31
0.0
1001
ACDBBLOCKREPETAG
1070
     1
1071
       84
1005
130B6D
  0
LINE
  5
130B6E
  8
OBJECT
 10
4085.9999999999859
 20
-653.3502637757274
 30
0.0
 11
4085.9999999999859
 21
-755.00000000000102
 31
0.0
1001
ACDBBLOCKREPETAG
1070
     1
1071
       85
1005
130B6E
  0
LINE
  5
130B6F
  8
OBJECT
 10
4209.9999999999854
 20
-707.00000000000091
 30
0.0
 11
4202.9999999999854
 21
-707.00000000000091
 31
0.0
1001
ACDBBLOCKREPETAG
1070
     1
1071
       86
1005
130B6F
  0
LINE
  5
130B70
  8
OBJECT
 10
4202.9999999999854
 20
-707.00000000000091
 30
0.0
 11
4202.9999999999854
 21
-583.0000000000008
 31
0.0
1001
ACDBBLOCKREPETAG
1070
     1
1071
       87
1005
130B70
  0
LINE
  5
130B71
  8
CENTER
 10
4134.9999999999854
 20
-645.0000000000008
 30
0.0
 11
4224.9999999999864
 21
-645.0000000000008
 31
0.0
1001
ACDBBLOCKREPETAG
1070
     1
1071
       88
1005
130B71
  0
LINE
  5
130B72
  8
OBJECT
 10
4079.9999999999818
 20
-758.0
 30
0.0
 11
4082.999999999985
 21
-758.0000000000008
 31
0.0
1001
ACDBBLOCKREPETAG
1070
     1
1071
       89
1005
130B72
  0
ARC
  5
130B73
  8
OBJECT
 10
4082.999999999985
 20
-755.00000000000102
 30
0.0
 40
3.0
 50
270.0
 51
0.0
1001
ACDBBLOCKREPETAG
1070
     1
1071
       90
1005
130B73
  0
LINE
  5
130B74
  8
OBJECT
 10
4202.9999999999854
 20
-586.0000000000008
 30
0.0
 11
4166.9999999999854
 21
-586.0000000000008
 31
0.0
1001
ACDBBLOCKREPETAG
1070
     1
1071
       91
1005
130B74
  0
LINE
  5
130B75
  8
OBJECT
 10
4166.9999999999854
 20
-586.0000000000008
 30
0.0
 11
4166.9999999999854
 21
-704.0000000000008
 31
0.0
1001
ACDBBLOCKREPETAG
1070
     1
1071
       92
1005
130B75
  0
LINE
  5
130B76
  8
OBJECT
 10
4162.9999999999854
 20
-590.5000000000008
 30
0.0
 11
4162.9999999999854
 21
-699.5000000000008
 31
0.0
1001
ACDBBLOCKREPETAG
1070
     1
1071
       93
1005
130B76
  0
LINE
  5
130B77
  8
OBJECT
 10
4162.9999999999854
 20
-590.5000000000008
 30
0.0
 11
4149.9999999999864
 21
-590.5000000000008
 31
0.0
1001
ACDBBLOCKREPETAG
1070
     1
1071
       94
1005
130B77
  0
LINE
  5
130B78
  8
OBJECT
 10
4166.9999999999854
 20
-704.0000000000008
 30
0.0
 11
4202.9999999999854
 21
-704.0000000000008
 31
0.0
1001
ACDBBLOCKREPETAG
1070
     1
1071
       95
1005
130B78
  0
LINE
  5
130B79
  8
OBJECT
 10
4166.9999999999854
 20
-586.0000000000008
 30
0.0
 11
4162.9999999999854
 21
-590.5000000000008
 31
0.0
1001
ACDBBLOCKREPETAG
1070
     1
1071
       96
1005
130B79
  0
LINE
  5
130B7A
  8
OBJECT
 10
4149.9999999999864
 20
-590.5000000000008
 30
0.0
 11
4149.9999999999864
 21
-675.74491827928784
 31
0.0
1001
ACDBBLOCKREPETAG
1070
     1
1071
       97
1005
130B7A
  0
ARC
  5
130B7B
  8
OBJECT
 10
4152.7999999999838
 20
-685.0000000000008
 30
0.0
 40
85.0
 50
91.887731891831123
 51
143.1301023540934
1001
ACDBBLOCKREPETAG
1070
     1
1071
       98
1005
130B7B
  0
LINE
  5
130B7C
  8
HIDDEN
 10
4157.9999999999864
 20
-600.50000000000068
 30
0.0
 11
4157.9999999999864
 21
-689.50000000000091
 31
0.0
1001
ACDBBLOCKREPETAG
1070
     1
1071
      100
1005
130B7C
  0
LINE
  5
130B7D
  8
OBJECT
 10
4085.9999999999859
 20
-751.07945073181781
 30
0.0
 11
4156.6313199210299
 21
-699.5000000000008
 31
0.0
1001
ACDBBLOCKREPETAG
1070
     1
1071
      101
1005
130B7D
  0
LINE
  5
130B7E
  8
OBJECT
 10
4079.9999999999818
 20
-634.0
 30
0.0
 11
4084.7999999999852
 21
-634.0
 31
0.0
1001
ACDBBLOCKREPETAG
1070
     1
1071
      102
1005
130B7E
  0
LINE
  5
130B7F
  8
OBJECT
 10
4085.9999999999859
 20
-653.35026377573013
 30
0.0
 11
4084.7999999999852
 21
-634.0
 31
0.0
1001
ACDBBLOCKREPETAG
1070
     1
1071
      103
1005
130B7F
  0
LINE
  5
130B80
  8
OBJECT
 10
4162.9999999999854
 20
-699.5000000000008
 30
0.0
 11
4156.6313199210299
 21
-699.5000000000008
 31
0.0
1001
ACDBBLOCKREPETAG
1070
     1
1071
      104
1005
130B80
  0
LINE
  5
130B81
  8
OBJECT
 10
4166.9999999999854
 20
-704.0000000000008
 30
0.0
 11
4162.9999999999854
 21
-699.5000000000008
 31
0.0
1001
ACDBBLOCKREPETAG
1070
     1
1071
      105
1005
130B81
  0
TEXT
  5
130B82
  8
SLIM
 10
1850.0
 20
532.5
 30
0.0
 40
75.0
  1
側面図の代表機種
 41
0.75
  0
LINE
  5
130B83
  8
SLIM
 10
3914.9999999999941
 20
-765.19743878931376
 30
0.0
 11
3925.1974387893092
 21
-754.99999999999875
 31
0.0
1001
ACDBBLOCKREPETAG
1070
     1
1071
        0
1005
0
1001
ACAD
1010
0.0
1020
0.0
1030
0.0
  0
LINE
  5
130B84
  8
SLIM
 10
3914.999999999995
 20
-783.15795103145035
 30
0.0
 11
3943.1579510314468
 21
-754.99999999999875
 31
0.0
1001
ACAD
1010
0.0
1020
0.0
1030
0.0
1001
ACDBBLOCKREPETAG
1070
     1
1071
       14
1005
130B84
  0
LINE
  5
130B85
  8
SLIM
 10
3915.1454972543161
 20
-800.97296601926837
 30
0.0
 11
3961.1184632735849
 21
-754.99999999999875
 31
0.0
1001
ACAD
1010
0.0
1020
0.0
1030
0.0
1001
ACDBBLOCKREPETAG
1070
     1
1071
       15
1005
130B85
  0
LINE
  5
130B86
  8
SLIM
 10
3917.104627495245
 20
-816.97434802047826
 30
0.0
 11
3979.0789755157239
 21
-754.99999999999875
 31
0.0
1001
ACAD
1010
0.0
1020
0.0
1030
0.0
1001
ACDBBLOCKREPETAG
1070
     1
1071
       16
1005
130B86
  0
LINE
  5
130B87
  8
SLIM
 10
3919.0637577361722
 20
-832.97573002168861
 30
0.0
 11
3997.0394877578619
 21
-754.99999999999875
 31
0.0
1001
ACAD
1010
0.0
1020
0.0
1030
0.0
1001
ACDBBLOCKREPETAG
1070
     1
1071
       17
1005
130B87
  0
LINE
  5
130B88
  8
SLIM
 10
3920.0
 20
-849.99999999999875
 30
0.0
 11
4015.0
 21
-754.99999999999875
 31
0.0
1001
ACAD
1010
0.0
1020
0.0
1030
0.0
1001
ACDBBLOCKREPETAG
1070
     1
1071
       18
1005
130B88
  0
LINE
  5
130B89
  8
SLIM
 10
3920.0
 20
-867.96051224213716
 30
0.0
 11
4032.9605122421372
 21
-754.99999999999875
 31
0.0
1001
ACAD
1010
0.0
1020
0.0
1030
0.0
1001
ACDBBLOCKREPETAG
1070
     1
1071
       19
1005
130B89
  0
LINE
  5
130B8A
  8
SLIM
 10
3920.0
 20
-885.92102448427534
 30
0.0
 11
4050.921024484277
 21
-754.99999999999875
 31
0.0
1001
ACAD
1010
0.0
1020
0.0
1030
0.0
1001
ACDBBLOCKREPETAG
1070
     1
1071
       20
1005
130B8A
  0
LINE
  5
130B8B
  8
SLIM
 10
3920.0
 20
-903.88153672641363
 30
0.0
 11
4068.8815367264142
 21
-754.99999999999875
 31
0.0
1001
ACAD
1010
0.0
1020
0.0
1030
0.0
1001
ACDBBLOCKREPETAG
1070
     1
1071
       21
1005
130B8B
  0
LINE
  5
130B8C
  8
SLIM
 10
3920.0
 20
-921.84204896855181
 30
0.0
 11
4085.0000000000068
 21
-756.8420489685451
 31
0.0
1001
ACAD
1010
0.0
1020
0.0
1030
0.0
1001
ACDBBLOCKREPETAG
1070
     1
1071
       22
1005
130B8C
  0
LINE
  5
130B8D
  8
SLIM
 10
3920.0
 20
-939.80256121069044
 30
0.0
 11
4085.0000000000059
 21
-774.80256121068464
 31
0.0
1001
ACAD
1010
0.0
1020
0.0
1030
0.0
1001
ACDBBLOCKREPETAG
1070
     1
1071
       23
1005
130B8D
  0
LINE
  5
130B8E
  8
SLIM
 10
3920.0
 20
-957.76307345282862
 30
0.0
 11
4085.0000000000041
 21
-792.76307345282453
 31
0.0
1001
ACAD
1010
0.0
1020
0.0
1030
0.0
1001
ACDBBLOCKREPETAG
1070
     1
1071
       24
1005
130B8E
  0
LINE
  5
130B8F
  8
SLIM
 10
3930.0
 20
-965.72358569496657
 30
0.0
 11
3930.7235856949678
 21
-964.99999999999875
 31
0.0
1001
ACAD
1010
0.0
1020
0.0
1030
0.0
1001
ACDBBLOCKREPETAG
1070
     1
1071
       25
1005
130B8F
  0
LINE
  5
130B90
  8
SLIM
 10
3930.7235856949678
 20
-964.99999999999875
 30
0.0
 11
4083.4738280308079
 21
-812.24975766415855
 31
0.0
1001
ACAD
1010
0.0
1020
0.0
1030
0.0
1001
ACDBBLOCKREPETAG
1070
     1
1071
       26
1005
130B90
  0
LINE
  5
130B91
  8
SLIM
 10
3930.0
 20
-983.68409793710521
 30
0.0
 11
3948.6840979371068
 21
-964.99999999999875
 31
0.0
1001
ACAD
1010
0.0
1020
0.0
1030
0.0
1001
ACDBBLOCKREPETAG
1070
     1
1071
       27
1005
130B91
  0
LINE
  5
130B92
  8
SLIM
 10
3948.6840979371068
 20
-964.99999999999875
 30
0.0
 11
4080.9680345671368
 21
-832.71606336996786
 31
0.0
1001
ACAD
1010
0.0
1020
0.0
1030
0.0
1001
ACDBBLOCKREPETAG
1070
     1
1071
       28
1005
130B92
  0
LINE
  5
130B93
  8
SLIM
 10
3946.6446101792449
 20
-984.99999999999875
 30
0.0
 11
3966.6446101792449
 21
-964.99999999999875
 31
0.0
1001
ACAD
1010
0.0
1020
0.0
1030
0.0
1001
ACDBBLOCKREPETAG
1070
     1
1071
       29
1005
130B93
  0
LINE
  5
130B94
  8
SLIM
 10
3966.6446101792449
 20
-964.99999999999875
 30
0.0
 11
4080.0
 21
-851.6446101792435
 31
0.0
1001
ACAD
1010
0.0
1020
0.0
1030
0.0
1001
ACDBBLOCKREPETAG
1070
     1
1071
       30
1005
130B94
  0
LINE
  5
130B95
  8
SLIM
 10
3964.6051224213829
 20
-984.99999999999875
 30
0.0
 11
3984.6051224213829
 21
-964.99999999999875
 31
0.0
1001
ACAD
1010
0.0
1020
0.0
1030
0.0
1001
ACDBBLOCKREPETAG
1070
     1
1071
       31
1005
130B95
  0
LINE
  5
130B96
  8
SLIM
 10
3984.6051224213829
 20
-964.99999999999875
 30
0.0
 11
4080.0
 21
-869.60512242138225
 31
0.0
1001
ACAD
1010
0.0
1020
0.0
1030
0.0
1001
ACDBBLOCKREPETAG
1070
     1
1071
       32
1005
130B96
  0
LINE
  5
130B97
  8
SLIM
 10
3982.565634663521
 20
-984.99999999999875
 30
0.0
 11
4002.565634663521
 21
-964.99999999999875
 31
0.0
1001
ACAD
1010
0.0
1020
0.0
1030
0.0
1001
ACDBBLOCKREPETAG
1070
     1
1071
       33
1005
130B97
  0
LINE
  5
130B98
  8
SLIM
 10
4002.565634663521
 20
-964.99999999999875
 30
0.0
 11
4079.9999999999991
 21
-887.56563466352065
 31
0.0
1001
ACAD
1010
0.0
1020
0.0
1030
0.0
1001
ACDBBLOCKREPETAG
1070
     1
1071
       34
1005
130B98
  0
LINE
  5
130B99
  8
SLIM
 10
4000.5261469056582
 20
-984.99999999999875
 30
0.0
 11
4020.52614690566
 21
-964.99999999999875
 31
0.0
1001
ACAD
1010
0.0
1020
0.0
1030
0.0
1001
ACDBBLOCKREPETAG
1070
     1
1071
       35
1005
130B99
  0
LINE
  5
130B9A
  8
SLIM
 10
4020.52614690566
 20
-964.99999999999875
 30
0.0
 11
4079.9999999999991
 21
-905.52614690565963
 31
0.0
1001
ACAD
1010
0.0
1020
0.0
1030
0.0
1001
ACDBBLOCKREPETAG
1070
     1
1071
       36
1005
130B9A
  0
LINE
  5
130B9B
  8
SLIM
 10
4018.486659147798
 20
-984.99999999999875
 30
0.0
 11
4038.486659147798
 21
-964.99999999999864
 31
0.0
1001
ACAD
1010
0.0
1020
0.0
1030
0.0
1001
ACDBBLOCKREPETAG
1070
     1
1071
       37
1005
130B9B
  0
LINE
  5
130B9C
  8
SLIM
 10
4038.486659147798
 20
-964.99999999999864
 30
0.0
 11
4079.9999999999991
 21
-923.48665914779815
 31
0.0
1001
ACAD
1010
0.0
1020
0.0
1030
0.0
1001
ACDBBLOCKREPETAG
1070
     1
1071
       38
1005
130B9C
  0
LINE
  5
130B9D
  8
SLIM
 10
4036.4471713899361
 20
-984.99999999999875
 30
0.0
 11
4056.4471713899361
 21
-964.99999999999864
 31
0.0
1001
ACAD
1010
0.0
1020
0.0
1030
0.0
1001
ACDBBLOCKREPETAG
1070
     1
1071
       39
1005
130B9D
  0
LINE
  5
130B9E
  8
SLIM
 10
4056.4471713899361
 20
-964.99999999999864
 30
0.0
 11
4079.9999999999991
 21
-941.44717138993633
 31
0.0
1001
ACAD
1010
0.0
1020
0.0
1030
0.0
1001
ACDBBLOCKREPETAG
1070
     1
1071
       40
1005
130B9E
  0
LINE
  5
130B9F
  8
SLIM
 10
4054.4076836320728
 20
-984.99999999999875
 30
0.0
 11
4070.0
 21
-969.40768363207314
 31
0.0
1001
ACAD
1010
0.0
1020
0.0
1030
0.0
1001
ACDBBLOCKREPETAG
1070
     1
1071
       41
1005
130B9F
  0
LINE
  5
130BA0
  8
SLIM
 10
4074.4076836320728
 20
-964.99999999999864
 30
0.0
 11
4079.9999999999991
 21
-959.40768363207519
 31
0.0
1001
ACAD
1010
0.0
1020
0.0
1030
0.0
1001
ACDBBLOCKREPETAG
1070
     1
1071
       42
1005
130BA0
  0
LINE
  5
130BA1
  8
OBJECT
 10
3914.9999999999941
 20
-754.99999999999875
 30
0.0
 11
3914.9999999999968
 21
-799.78460339903359
 31
0.0
1001
ACDBBLOCKREPETAG
1070
     1
1071
        1
1005
130BA1
  0
LINE
  5
130BA2
  8
OBJECT
 10
4085.0000000000068
 20
-754.99999999999875
 30
0.0
 11
4085.0000000000032
 21
-799.78460339904063
 31
0.0
1001
ACDBBLOCKREPETAG
1070
     1
1071
        2
1005
130BA2
  0
LINE
  5
130BA3
  8
OBJECT
 10
4085.0000000000068
 20
-754.99999999999875
 30
0.0
 11
3914.9999999999941
 21
-754.99999999999875
 31
0.0
1001
ACDBBLOCKREPETAG
1070
     1
1071
        3
1005
130BA3
  0
LINE
  5
130BA4
  8
OBJECT
 10
4079.9999999999991
 20
-964.99999999999864
 30
0.0
 11
3920.0
 21
-964.99999999999875
 31
0.0
1001
ACDBBLOCKREPETAG
1070
     1
1071
        4
1005
130BA4
  0
LINE
  5
130BA5
  8
OBJECT
 10
3914.9999999999968
 20
-799.78460339903415
 30
0.0
 11
3920.0
 21
-840.62257748298555
 31
0.0
1001
ACDBBLOCKREPETAG
1070
     1
1071
        6
1005
130BA5
  0
LINE
  5
130BA6
  8
OBJECT
 10
3920.0
 20
-840.62257748298555
 30
0.0
 11
3920.0
 21
-964.99999999999875
 31
0.0
1001
ACDBBLOCKREPETAG
1070
     1
1071
        7
1005
130BA6
  0
LINE
  5
130BA7
  8
OBJECT
 10
4085.0000000000032
 20
-799.78460339904063
 30
0.0
 11
4080.0
 21
-840.62257748298555
 31
0.0
1001
ACDBBLOCKREPETAG
1070
     1
1071
        8
1005
130BA7
  0
LINE
  5
130BA8
  8
OBJECT
 10
4080.0
 20
-840.62257748298555
 30
0.0
 11
4079.9999999999991
 21
-964.99999999999864
 31
0.0
1001
ACDBBLOCKREPETAG
1070
     1
1071
        9
1005
130BA8
  0
LINE
  5
130BA9
  8
OBJECT
 10
3930.0
 20
-964.99999999999875
 30
0.0
 11
3930.0
 21
-984.99999999999875
 31
0.0
1001
ACDBBLOCKREPETAG
1070
     1
1071
       10
1005
130BA9
  0
LINE
  5
130BAA
  8
OBJECT
 10
3930.0
 20
-984.99999999999875
 30
0.0
 11
4070.0
 21
-984.99999999999875
 31
0.0
1001
ACDBBLOCKREPETAG
1070
     1
1071
       11
1005
130BAA
  0
LINE
  5
130BAB
  8
OBJECT
 10
4070.0
 20
-984.99999999999875
 30
0.0
 11
4070.0
 21
-964.99999999999864
 31
0.0
1001
ACDBBLOCKREPETAG
1070
     1
1071
       12
1005
130BAB
  0
LINE
  5
130BAC
  8
OBJECT
 10
1923.0
 20
-570.99999999999955
 30
0.0
 11
1923.0
 21
-549.99999999999955
 31
0.0
1001
ACDBBLOCKREPETAG
1070
     1
1071
       36
1005
130BAC
  0
LINE
  5
130BAD
  8
OBJECT
 10
1923.0
 20
-549.99999999999955
 30
0.0
 11
2077.0
 21
-549.99999999999955
 31
0.0
1001
ACDBBLOCKREPETAG
1070
     1
1071
       37
1005
130BAD
  0
LINE
  5
130BAE
  8
HIDDEN
 10
1943.0
 20
-619.99999999999955
 30
0.0
 11
2057.0
 21
-619.99999999999955
 31
0.0
1001
ACDBBLOCKREPETAG
1070
     1
1071
       38
1005
130BAE
  0
LINE
  5
130BAF
  8
OBJECT
 10
2077.0
 20
-549.99999999999955
 30
0.0
 11
2077.0
 21
-570.99999999999955
 31
0.0
1001
ACDBBLOCKREPETAG
1070
     1
1071
       39
1005
130BAF
  0
LINE
  5
130BB0
  8
OBJECT
 10
2077.0
 20
-570.99999999999955
 30
0.0
 11
1923.0
 21
-570.99999999999955
 31
0.0
1001
ACDBBLOCKREPETAG
1070
     1
1071
       40
1005
130BB0
  0
LINE
  5
130BB1
  8
CENTER
 10
2000.0
 20
-534.99999999999955
 30
0.0
 11
2000.0
 21
-769.99999999999955
 31
0.0
1001
ACDBBLOCKREPETAG
1070
     1
1071
       41
1005
130BB1
  0
LINE
  5
130BB2
  8
OBJECT
 10
1928.0
 20
-570.99999999999955
 30
0.0
 11
1928.0
 21
-633.99999999999955
 31
0.0
1001
ACDBBLOCKREPETAG
1070
     1
1071
       42
1005
130BB2
  0
LINE
  5
130BB3
  8
OBJECT
 10
2072.0
 20
-633.99999999999955
 30
0.0
 11
2072.0
 21
-570.99999999999955
 31
0.0
1001
ACDBBLOCKREPETAG
1070
     1
1071
       43
1005
130BB3
  0
LINE
  5
130BB4
  8
OBJECT
 10
1920.0
 20
-757.99999999999955
 30
0.0
 11
2080.0
 21
-757.99999999999955
 31
0.0
1001
ACDBBLOCKREPETAG
1070
     1
1071
       44
1005
130BB4
  0
LINE
  5
130BB5
  8
OBJECT
 10
2080.0
 20
-633.99999999999955
 30
0.0
 11
1920.0
 21
-633.99999999999955
 31
0.0
1001
ACDBBLOCKREPETAG
1070
     1
1071
       45
1005
130BB5
  0
LINE
  5
130BB6
  8
OBJECT
 10
1920.0
 20
-757.99999999999955
 30
0.0
 11
1920.0
 21
-769.99999999999955
 31
0.0
1001
ACDBBLOCKREPETAG
1070
     1
1071
       46
1005
130BB6
  0
LINE
  5
130BB7
  8
OBJECT
 10
1920.0
 20
-769.99999999999955
 30
0.0
 11
2080.0
 21
-769.99999999999955
 31
0.0
1001
ACDBBLOCKREPETAG
1070
     1
1071
       47
1005
130BB7
  0
LINE
  5
130BB8
  8
OBJECT
 10
2080.0
 20
-769.99999999999955
 30
0.0
 11
2080.0
 21
-757.99999999999955
 31
0.0
1001
ACDBBLOCKREPETAG
1070
     1
1071
       48
1005
130BB8
  0
ARC
  5
130BB9
  8
OBJECT
 10
2200.6872746716731
 20
-749.40809941010718
 30
0.0
 40
170.6350503965856
 50
137.44134459184301
 51
149.91949581336559
1001
ACDBBLOCKREPETAG
1070
     1
1071
       52
1005
130BB9
  0
ARC
  5
130BBA
  8
OBJECT
 10
2200.6872746716731
 20
-642.59190058989179
 30
0.0
 40
170.6350503965856
 50
210.0805041866343
 51
222.55865540815699
1001
ACDBBLOCKREPETAG
1070
     1
1071
       53
1005
130BBA
  0
ARC
  5
130BBB
  8
OBJECT
 10
1799.312725328326
 20
-749.40809941010718
 30
0.0
 40
170.6350503965856
 50
30.080504186774089
 51
42.558655408447443
1001
ACDBBLOCKREPETAG
1070
     1
1071
       54
1005
130BBB
  0
ARC
  5
130BBC
  8
OBJECT
 10
1799.312725328326
 20
-642.59190058989179
 30
0.0
 40
170.6350503965856
 50
317.44134459155248
 51
329.91949581322592
1001
ACDBBLOCKREPETAG
1070
     1
1071
       55
1005
130BBC
  0
POINT
  5
130BBD
  8
DOTS
 10
2000.0
 20
-754.99999999999955
 30
0.0
1001
ACDBBLOCKREPETAG
1070
     1
1071
      184
1005
130BBD
  0
CIRCLE
  5
130BBE
  8
OBJECT
 10
5000.0
 20
-3174.9999999999959
 30
0.0
 40
53.5
1001
ACDBBLOCKREPETAG
1070
     1
1071
      344
1005
130BBE
  0
LINE
  5
130BBF
  8
CENTER
 10
5080.0
 20
-3174.9999999999959
 30
0.0
 11
4905.0
 21
-3174.9999999999959
 31
0.0
1001
ACDBBLOCKREPETAG
1070
     1
1071
       14
1005
130BBF
  0
LINE
  5
130BC0
  8
CENTER
 10
5000.0
 20
-3269.9999999999959
 30
0.0
 11
5000.0
 21
-3079.9999999999959
 31
0.0
1001
ACDBBLOCKREPETAG
1070
     1
1071
       15
1005
130BC0
  0
CIRCLE
  5
130BC1
  8
OBJECT
 10
5000.0
 20
-3174.9999999999959
 30
0.0
 40
70.0
1001
ACDBBLOCKREPETAG
1070
     1
1071
       16
1005
130BC1
  0
CIRCLE
  5
130BC2
  8
OBJECT
 10
5000.0
 20
-3174.9999999999959
 30
0.0
 40
77.0
1001
ACDBBLOCKREPETAG
1070
     1
1071
       17
1005
130BC2
  0
ARC
  5
130BC3
  8
OBJECT
 10
5000.0
 20
-3174.9999999999959
 30
0.0
 40
80.0
 50
50.805032573882329
 51
309.19496742611773
1001
ACDBBLOCKREPETAG
1070
     1
1071
       18
1005
130BC3
  0
LINE
  5
130BC4
  8
OBJECT
 10
5045.6618002273253
 20
-3112.9999999999959
 30
0.0
 11
5080.0
 21
-3112.9999999999959
 31
0.0
1001
ACDBBLOCKREPETAG
1070
     1
1071
       19
1005
130BC4
  0
LINE
  5
130BC5
  8
OBJECT
 10
5045.6618002273253
 20
-3236.9999999999959
 30
0.0
 11
5080.0
 21
-3236.9999999999959
 31
0.0
1001
ACDBBLOCKREPETAG
1070
     1
1071
       20
1005
130BC5
  0
POINT
  5
130BC6
  8
DOTS
 10
5000.0
 20
-3174.9999999999959
 30
0.0
1001
ACDBBLOCKREPETAG
1070
     1
1071
       21
1005
130BC6
  0
CIRCLE
  5
130BC7
  8
OBJECT
 10
4000.0
 20
-3174.9999999999959
 30
0.0
 40
53.5
1001
ACDBBLOCKREPETAG
1070
     1
1071
      344
1005
130BC7
  0
LINE
  5
130BC8
  8
CENTER
 10
4080.0
 20
-3174.9999999999959
 30
0.0
 11
3905.0
 21
-3174.9999999999959
 31
0.0
1001
ACDBBLOCKREPETAG
1070
     1
1071
       14
1005
130BC8
  0
LINE
  5
130BC9
  8
CENTER
 10
4000.0
 20
-3269.9999999999959
 30
0.0
 11
4000.0
 21
-3079.9999999999959
 31
0.0
1001
ACDBBLOCKREPETAG
1070
     1
1071
       15
1005
130BC9
  0
CIRCLE
  5
130BCA
  8
OBJECT
 10
4000.0
 20
-3174.9999999999959
 30
0.0
 40
70.0
1001
ACDBBLOCKREPETAG
1070
     1
1071
       16
1005
130BCA
  0
CIRCLE
  5
130BCB
  8
OBJECT
 10
4000.0
 20
-3174.9999999999959
 30
0.0
 40
77.0
1001
ACDBBLOCKREPETAG
1070
     1
1071
       17
1005
130BCB
  0
ARC
  5
130BCC
  8
OBJECT
 10
4000.0
 20
-3174.9999999999959
 30
0.0
 40
80.0
 50
50.805032573862128
 51
309.19496742613791
1001
ACDBBLOCKREPETAG
1070
     1
1071
       18
1005
130BCC
  0
LINE
  5
130BCD
  8
OBJECT
 10
4045.661800227324
 20
-3112.9999999999959
 30
0.0
 11
4080.0
 21
-3112.9999999999959
 31
0.0
1001
ACDBBLOCKREPETAG
1070
     1
1071
       19
1005
130BCD
  0
LINE
  5
130BCE
  8
OBJECT
 10
4045.661800227324
 20
-3236.9999999999959
 30
0.0
 11
4080.0
 21
-3236.9999999999959
 31
0.0
1001
ACDBBLOCKREPETAG
1070
     1
1071
       20
1005
130BCE
  0
POINT
  5
130BCF
  8
DOTS
 10
4000.0
 20
-3174.9999999999959
 30
0.0
1001
ACDBBLOCKREPETAG
1070
     1
1071
       21
1005
130BCF
  0
CIRCLE
  5
130BD0
  8
OBJECT
 10
3000.0
 20
-3174.9999999999959
 30
0.0
 40
53.5
1001
ACDBBLOCKREPETAG
1070
     1
1071
      344
1005
130BD0
  0
LINE
  5
130BD1
  8
CENTER
 10
3080.0
 20
-3174.9999999999959
 30
0.0
 11
2905.0
 21
-3174.9999999999959
 31
0.0
1001
ACDBBLOCKREPETAG
1070
     1
1071
       14
1005
130BD1
  0
LINE
  5
130BD2
  8
CENTER
 10
3000.0
 20
-3269.9999999999959
 30
0.0
 11
3000.0
 21
-3079.9999999999959
 31
0.0
1001
ACDBBLOCKREPETAG
1070
     1
1071
       15
1005
130BD2
  0
CIRCLE
  5
130BD3
  8
OBJECT
 10
3000.0
 20
-3174.9999999999959
 30
0.0
 40
70.0
1001
ACDBBLOCKREPETAG
1070
     1
1071
       16
1005
130BD3
  0
CIRCLE
  5
130BD4
  8
OBJECT
 10
3000.0
 20
-3174.9999999999959
 30
0.0
 40
77.0
1001
ACDBBLOCKREPETAG
1070
     1
1071
       17
1005
130BD4
  0
ARC
  5
130BD5
  8
OBJECT
 10
3000.0
 20
-3174.9999999999959
 30
0.0
 40
80.0
 50
50.805032573862128
 51
309.19496742613791
1001
ACDBBLOCKREPETAG
1070
     1
1071
       18
1005
130BD5
  0
LINE
  5
130BD6
  8
OBJECT
 10
3045.6618002273249
 20
-3112.9999999999959
 30
0.0
 11
3080.0
 21
-3112.9999999999959
 31
0.0
1001
ACDBBLOCKREPETAG
1070
     1
1071
       19
1005
130BD6
  0
LINE
  5
130BD7
  8
OBJECT
 10
3045.6618002273249
 20
-3236.9999999999959
 30
0.0
 11
3080.0
 21
-3236.9999999999959
 31
0.0
1001
ACDBBLOCKREPETAG
1070
     1
1071
       20
1005
130BD7
  0
POINT
  5
130BD8
  8
DOTS
 10
3000.0
 20
-3174.9999999999959
 30
0.0
1001
ACDBBLOCKREPETAG
1070
     1
1071
       21
1005
130BD8
  0
CIRCLE
  5
130BD9
  8
OBJECT
 10
2000.0
 20
-3174.9999999999959
 30
0.0
 40
53.5
1001
ACDBBLOCKREPETAG
1070
     1
1071
      344
1005
130BD9
  0
LINE
  5
130BDA
  8
CENTER
 10
2080.0
 20
-3174.9999999999959
 30
0.0
 11
1905.0
 21
-3174.9999999999959
 31
0.0
1001
ACDBBLOCKREPETAG
1070
     1
1071
       14
1005
130BDA
  0
LINE
  5
130BDB
  8
CENTER
 10
2000.0
 20
-3269.9999999999959
 30
0.0
 11
2000.0
 21
-3079.9999999999959
 31
0.0
1001
ACDBBLOCKREPETAG
1070
     1
1071
       15
1005
130BDB
  0
CIRCLE
  5
130BDC
  8
OBJECT
 10
2000.0
 20
-3174.9999999999959
 30
0.0
 40
70.0
1001
ACDBBLOCKREPETAG
1070
     1
1071
       16
1005
130BDC
  0
CIRCLE
  5
130BDD
  8
OBJECT
 10
2000.0
 20
-3174.9999999999959
 30
0.0
 40
77.0
1001
ACDBBLOCKREPETAG
1070
     1
1071
       17
1005
130BDD
  0
ARC
  5
130BDE
  8
OBJECT
 10
2000.0
 20
-3174.9999999999959
 30
0.0
 40
80.0
 50
50.805032573862128
 51
309.19496742613791
1001
ACDBBLOCKREPETAG
1070
     1
1071
       18
1005
130BDE
  0
LINE
  5
130BDF
  8
OBJECT
 10
2045.6618002273251
 20
-3112.9999999999959
 30
0.0
 11
2080.0
 21
-3112.9999999999959
 31
0.0
1001
ACDBBLOCKREPETAG
1070
     1
1071
       19
1005
130BDF
  0
LINE
  5
130BE0
  8
OBJECT
 10
2045.6618002273251
 20
-3236.9999999999959
 30
0.0
 11
2080.0
 21
-3236.9999999999959
 31
0.0
1001
ACDBBLOCKREPETAG
1070
     1
1071
       20
1005
130BE0
  0
POINT
  5
130BE1
  8
DOTS
 10
2000.0
 20
-3174.9999999999959
 30
0.0
1001
ACDBBLOCKREPETAG
1070
     1
1071
       21
1005
130BE1
  0
CIRCLE
  5
130BE2
  8
OBJECT
 10
2000.0
 20
-199.99999999999909
 30
0.0
 40
53.5
1001
ACDBBLOCKREPETAG
1070
     1
1071
      340
1005
130BE2
  0
LINE
  5
130BE3
  8
CENTER
 10
2080.0
 20
-199.99999999999909
 30
0.0
 11
1920.0
 21
-199.99999999999909
 31
0.0
1001
ACDBBLOCKREPETAG
1070
     1
1071
       49
1005
130BE3
  0
LINE
  5
130BE4
  8
CENTER
 10
2000.0
 20
-279.99999999999909
 30
0.0
 11
2000.0
 21
-104.9999999999991
 31
0.0
1001
ACDBBLOCKREPETAG
1070
     1
1071
       50
1005
130BE4
  0
CIRCLE
  5
130BE5
  8
OBJECT
 10
2000.0
 20
-199.99999999999909
 30
0.0
 40
70.0
1001
ACDBBLOCKREPETAG
1070
     1
1071
       51
1005
130BE5
  0
CIRCLE
  5
130BE6
  8
OBJECT
 10
2000.0
 20
-199.99999999999909
 30
0.0
 40
77.0
1001
ACDBBLOCKREPETAG
1070
     1
1071
       52
1005
130BE6
  0
ARC
  5
130BE7
  8
OBJECT
 10
2000.0
 20
-199.99999999999909
 30
0.0
 40
80.0
 50
50.805032573864182
 51
129.1949674261358
1001
ACDBBLOCKREPETAG
1070
     1
1071
       53
1005
130BE7
  0
LINE
  5
130BE8
  8
OBJECT
 10
2045.6618002273251
 20
-137.99999999999909
 30
0.0
 11
2080.0
 21
-137.99999999999909
 31
0.0
1001
ACDBBLOCKREPETAG
1070
     1
1071
       54
1005
130BE8
  0
LINE
  5
130BE9
  8
OBJECT
 10
2062.0
 20
-261.99999999999909
 30
0.0
 11
2080.0
 21
-261.99999999999909
 31
0.0
1001
ACDBBLOCKREPETAG
1070
     1
1071
       55
1005
130BE9
  0
LINE
  5
130BEA
  8
OBJECT
 10
2062.0
 20
-261.99999999999909
 30
0.0
 11
2062.0
 21
-279.99999999999909
 31
0.0
1001
ACDBBLOCKREPETAG
1070
     1
1071
       57
1005
130BEA
  0
LINE
  5
130BEB
  8
OBJECT
 10
1938.0
 20
-261.99999999999909
 30
0.0
 11
1938.0
 21
-279.99999999999909
 31
0.0
1001
ACDBBLOCKREPETAG
1070
     1
1071
       58
1005
130BEB
  0
POINT
  5
130BEC
  8
DOTS
 10
2000.0
 20
-199.99999999999909
 30
0.0
 50
90.0
1001
ACDBBLOCKREPETAG
1070
     1
1071
       59
1005
130BEC
  0
LINE
  5
130BED
  8
OBJECT
 10
1938.0
 20
-261.99999999999909
 30
0.0
 11
1920.0
 21
-261.99999999999909
 31
0.0
1001
ACDBBLOCKREPETAG
1070
     1
1071
       60
1005
130BED
  0
LINE
  5
130BEE
  8
OBJECT
 10
1954.3381997726749
 20
-137.99999999999909
 30
0.0
 11
1920.0
 21
-137.99999999999909
 31
0.0
1001
ACDBBLOCKREPETAG
1070
     1
1071
       61
1005
130BEE
  0
LINE
  5
130BEF
  8
OBJECT
 10
1945.5527778486351
 20
-254.44722215136329
 30
0.0
 11
1938.0
 21
-261.99999999999909
 31
0.0
1001
ACDBBLOCKREPETAG
1070
     1
1071
       42
1005
130BEF
  0
LINE
  5
130BF0
  8
OBJECT
 10
2054.4472221513638
 20
-254.44722215136329
 30
0.0
 11
2062.0
 21
-261.99999999999909
 31
0.0
1001
ACDBBLOCKREPETAG
1070
     1
1071
       43
1005
130BF0
  0
LINE
  5
130BF1
  8
CENTER
 10
1899.0
 20
-199.99999999999909
 30
0.0
 11
1920.0
 21
-199.99999999999909
 31
0.0
1001
ACDBBLOCKREPETAG
1070
     1
1071
        0
1005
130BF1
  0
LINE
  5
130BF2
  8
OBJECT
 10
1917.0
 20
-261.99999999999909
 30
0.0
 11
1920.0
 21
-261.99999999999909
 31
0.0
1001
ACDBBLOCKREPETAG
1070
     1
1071
        1
1005
130BF2
  0
ARC
  5
130BF3
  8
OBJECT
 10
1917.0
 20
-258.99999999999909
 30
0.0
 40
3.0
 50
180.0
 51
270.0
1001
ACDBBLOCKREPETAG
1070
     1
1071
        2
1005
130BF3
  0
LINE
  5
130BF4
  8
OBJECT
 10
1920.0
 20
-137.99999999999909
 30
0.0
 11
1917.0
 21
-137.99999999999909
 31
0.0
1001
ACDBBLOCKREPETAG
1070
     1
1071
        3
1005
130BF4
  0
ARC
  5
130BF5
  8
OBJECT
 10
1917.0
 20
-140.99999999999909
 30
0.0
 40
3.0
 50
90.0
 51
180.0
1001
ACDBBLOCKREPETAG
1070
     1
1071
        4
1005
130BF5
  0
LINE
  5
130BF6
  8
OBJECT
 10
1914.0
 20
-140.99999999999909
 30
0.0
 11
1914.0
 21
-258.99999999999909
 31
0.0
1001
ACDBBLOCKREPETAG
1070
     1
1071
        5
1005
130BF6
  0
LINE
  5
130BF7
  8
OBJECT
 10
2062.0
 20
-332.99999999999898
 30
0.0
 11
2062.0
 21
-339.99999999999909
 31
0.0
1001
ACDBBLOCKREPETAG
1070
     1
1071
       47
1005
130BF7
  0
LINE
  5
130BF8
  8
OBJECT
 10
2062.0
 20
-339.99999999999909
 30
0.0
 11
1938.0
 21
-339.99999999999909
 31
0.0
1001
ACDBBLOCKREPETAG
1070
     1
1071
       48
1005
130BF8
  0
LINE
  5
130BF9
  8
OBJECT
 10
1938.0
 20
-339.99999999999909
 30
0.0
 11
1938.0
 21
-332.99999999999898
 31
0.0
1001
ACDBBLOCKREPETAG
1070
     1
1071
       49
1005
130BF9
  0
LINE
  5
130BFA
  8
OBJECT
 10
1938.0
 20
-332.99999999999898
 30
0.0
 11
2062.0
 21
-332.99999999999898
 31
0.0
1001
ACDBBLOCKREPETAG
1070
     1
1071
       50
1005
130BFA
  0
LINE
  5
130BFB
  8
CENTER
 10
2000.0
 20
-354.99999999999909
 30
0.0
 11
2000.0
 21
-279.99999999999909
 31
0.0
1001
ACDBBLOCKREPETAG
1070
     1
1071
       51
1005
130BFB
  0
LINE
  5
130BFC
  8
OBJECT
 10
2059.0
 20
-332.99999999999898
 30
0.0
 11
2059.0
 21
-296.99999999999898
 31
0.0
1001
ACDBBLOCKREPETAG
1070
     1
1071
       52
1005
130BFC
  0
LINE
  5
130BFD
  8
OBJECT
 10
2059.0
 20
-296.99999999999898
 30
0.0
 11
1941.0
 21
-296.99999999999898
 31
0.0
1001
ACDBBLOCKREPETAG
1070
     1
1071
       53
1005
130BFD
  0
LINE
  5
130BFE
  8
OBJECT
 10
1941.0
 20
-296.99999999999898
 30
0.0
 11
1941.0
 21
-332.99999999999898
 31
0.0
1001
ACDBBLOCKREPETAG
1070
     1
1071
       54
1005
130BFE
  0
LINE
  5
130BFF
  8
OBJECT
 10
2054.5
 20
-292.99999999999898
 30
0.0
 11
2054.5
 21
-285.99999999999898
 31
0.0
1001
ACDBBLOCKREPETAG
1070
     1
1071
       55
1005
130BFF
  0
LINE
  5
130C00
  8
OBJECT
 10
1945.5
 20
-285.99999999999898
 30
0.0
 11
1945.5
 21
-292.99999999999898
 31
0.0
1001
ACDBBLOCKREPETAG
1070
     1
1071
       56
1005
130C00
  0
LINE
  5
130C01
  8
OBJECT
 10
1945.5
 20
-292.99999999999898
 30
0.0
 11
2054.5
 21
-292.99999999999898
 31
0.0
1001
ACDBBLOCKREPETAG
1070
     1
1071
       57
1005
130C01
  0
LINE
  5
130C02
  8
OBJECT
 10
2059.0
 20
-296.99999999999898
 30
0.0
 11
2054.5
 21
-292.99999999999898
 31
0.0
1001
ACDBBLOCKREPETAG
1070
     1
1071
       58
1005
130C02
  0
LINE
  5
130C03
  8
OBJECT
 10
1941.0
 20
-296.99999999999898
 30
0.0
 11
1945.5
 21
-292.99999999999898
 31
0.0
1001
ACDBBLOCKREPETAG
1070
     1
1071
       59
1005
130C03
  0
LINE
  5
130C04
  8
OBJECT
 10
2062.0
 20
-283.0
 30
0.0
 11
2062.0
 21
-279.99999999999909
 31
0.0
1001
ACDBBLOCKREPETAG
1070
     1
1071
       60
1005
130C04
  0
ARC
  5
130C05
  8
OBJECT
 10
2059.0
 20
-283.0
 30
0.0
 40
3.0
 50
270.0
 51
0.0
1001
ACDBBLOCKREPETAG
1070
     1
1071
       61
1005
130C05
  0
LINE
  5
130C06
  8
OBJECT
 10
1938.0
 20
-279.99999999999909
 30
0.0
 11
1938.0
 21
-282.99999999999818
 31
0.0
1001
ACDBBLOCKREPETAG
1070
     1
1071
       62
1005
130C06
  0
ARC
  5
130C07
  8
OBJECT
 10
1941.0
 20
-282.99999999999818
 30
0.0
 40
3.0
 50
180.0
 51
270.0
1001
ACDBBLOCKREPETAG
1070
     1
1071
       63
1005
130C07
  0
LINE
  5
130C08
  8
OBJECT
 10
1941.0
 20
-285.99999999999818
 30
0.0
 11
2059.0
 21
-286.0
 31
0.0
1001
ACDBBLOCKREPETAG
1070
     1
1071
       64
1005
130C08
  0
LINE
  5
130C09
  8
HIDDEN
 10
2044.5
 20
-287.99999999999909
 30
0.0
 11
1955.5
 21
-287.99999999999909
 31
0.0
1001
ACDBBLOCKREPETAG
1070
     1
1071
       65
1005
130C09
  0
LINE
  5
130C0A
  8
OBJECT
 10
2202.9999999999859
 20
-137.99999999999909
 30
0.0
 11
2209.9999999999859
 21
-137.99999999999909
 31
0.0
1001
ACDBBLOCKREPETAG
1070
     1
1071
       85
1005
130C0A
  0
LINE
  5
130C0B
  8
OBJECT
 10
2209.9999999999859
 20
-137.99999999999909
 30
0.0
 11
2209.9999999999859
 21
-261.99999999999909
 31
0.0
1001
ACDBBLOCKREPETAG
1070
     1
1071
       86
1005
130C0B
  0
LINE
  5
130C0C
  8
OBJECT
 10
2209.9999999999859
 20
-261.99999999999909
 30
0.0
 11
2202.9999999999859
 21
-261.99999999999909
 31
0.0
1001
ACDBBLOCKREPETAG
1070
     1
1071
       87
1005
130C0C
  0
LINE
  5
130C0D
  8
OBJECT
 10
2202.9999999999859
 20
-261.99999999999909
 30
0.0
 11
2202.9999999999859
 21
-137.99999999999909
 31
0.0
1001
ACDBBLOCKREPETAG
1070
     1
1071
       88
1005
130C0D
  0
LINE
  5
130C0E
  8
CENTER
 10
2224.999999999985
 20
-199.99999999999909
 30
0.0
 11
2080.0
 21
-199.99999999999909
 31
0.0
1001
ACDBBLOCKREPETAG
1070
     1
1071
       89
1005
130C0E
  0
LINE
  5
130C0F
  8
OBJECT
 10
2149.9999749641861
 20
-245.0000000000027
 30
0.0
 11
2086.0
 21
-244.99999999999909
 31
0.0
1001
ACDBBLOCKREPETAG
1070
     1
1071
       90
1005
130C0F
  0
LINE
  5
130C10
  8
OBJECT
 10
2149.9999749641861
 20
-154.99999999999909
 30
0.0
 11
2086.0
 21
-154.99999999999909
 31
0.0
1001
ACDBBLOCKREPETAG
1070
     1
1071
       91
1005
130C10
  0
LINE
  5
130C11
  8
OBJECT
 10
2202.9999999999859
 20
-140.99999999999909
 30
0.0
 11
2166.9999999999859
 21
-140.99999999999909
 31
0.0
1001
ACDBBLOCKREPETAG
1070
     1
1071
       92
1005
130C11
  0
LINE
  5
130C12
  8
OBJECT
 10
2166.9999999999859
 20
-140.99999999999909
 30
0.0
 11
2166.9999999999859
 21
-258.99999999999909
 31
0.0
1001
ACDBBLOCKREPETAG
1070
     1
1071
       93
1005
130C12
  0
LINE
  5
130C13
  8
OBJECT
 10
2166.9999999999859
 20
-258.99999999999909
 30
0.0
 11
2202.9999999999859
 21
-258.99999999999909
 31
0.0
1001
ACDBBLOCKREPETAG
1070
     1
1071
       94
1005
130C13
  0
LINE
  5
130C14
  8
OBJECT
 10
2162.9999999999859
 20
-145.49999999999909
 30
0.0
 11
2149.9999999999859
 21
-145.49999999999909
 31
0.0
1001
ACDBBLOCKREPETAG
1070
     1
1071
       95
1005
130C14
  0
LINE
  5
130C15
  8
OBJECT
 10
2149.9999999999859
 20
-254.49999999999909
 30
0.0
 11
2162.9999999999859
 21
-254.49999999999909
 31
0.0
1001
ACDBBLOCKREPETAG
1070
     1
1071
       96
1005
130C15
  0
LINE
  5
130C16
  8
OBJECT
 10
2162.9999999999859
 20
-254.49999999999909
 30
0.0
 11
2162.9999999999859
 21
-145.49999999999909
 31
0.0
1001
ACDBBLOCKREPETAG
1070
     1
1071
       97
1005
130C16
  0
LINE
  5
130C17
  8
OBJECT
 10
2166.9999999999859
 20
-140.99999999999909
 30
0.0
 11
2162.9999999999859
 21
-145.49999999999909
 31
0.0
1001
ACDBBLOCKREPETAG
1070
     1
1071
       98
1005
130C17
  0
LINE
  5
130C18
  8
OBJECT
 10
2166.9999999999859
 20
-258.99999999999909
 30
0.0
 11
2162.9999999999859
 21
-254.49999999999909
 31
0.0
1001
ACDBBLOCKREPETAG
1070
     1
1071
       99
1005
130C18
  0
LINE
  5
130C19
  8
OBJECT
 10
2083.0
 20
-137.99999999999909
 30
0.0
 11
2080.0
 21
-137.99999999999909
 31
0.0
1001
ACDBBLOCKREPETAG
1070
     1
1071
      100
1005
130C19
  0
ARC
  5
130C1A
  8
OBJECT
 10
2083.0
 20
-140.99999999999909
 30
0.0
 40
3.0
 50
0.0
 51
90.0
1001
ACDBBLOCKREPETAG
1070
     1
1071
      101
1005
130C1A
  0
LINE
  5
130C1B
  8
OBJECT
 10
2080.0
 20
-261.99999999999909
 30
0.0
 11
2083.0
 21
-261.99999999999909
 31
0.0
1001
ACDBBLOCKREPETAG
1070
     1
1071
      102
1005
130C1B
  0
ARC
  5
130C1C
  8
OBJECT
 10
2083.0
 20
-258.99999999999909
 30
0.0
 40
3.0
 50
270.0
 51
0.0
1001
ACDBBLOCKREPETAG
1070
     1
1071
      103
1005
130C1C
  0
LINE
  5
130C1D
  8
OBJECT
 10
2086.0
 20
-258.99999999999909
 30
0.0
 11
2086.0
 21
-210.3227903203578
 31
0.0
1001
ACDBBLOCKREPETAG
1070
     1
1071
      104
1005
130C1D
  0
LINE
  5
130C1E
  8
OBJECT
 10
2086.0
 20
-189.6772096796403
 30
0.0
 11
2086.0
 21
-140.99999999999909
 31
0.0
1001
ACDBBLOCKREPETAG
1070
     1
1071
      105
1005
130C1E
  0
LINE
  5
130C1F
  8
HIDDEN
 10
2157.9999999999859
 20
-155.49999999999909
 30
0.0
 11
2157.9999999999859
 21
-244.49999999999909
 31
0.0
1001
ACDBBLOCKREPETAG
1070
     1
1071
      106
1005
130C1F
  0
LINE
  5
130C20
  8
OBJECT
 10
2149.9999749641861
 20
-254.4999509238105
 30
0.0
 11
2149.9999749641861
 21
-145.4999509238105
 31
0.0
1001
ACDBBLOCKREPETAG
1070
     1
1071
      108
1005
130C20
  0
ARC
  5
130C21
  8
OBJECT
 10
2129.8000000000252
 20
-199.99999999999909
 30
0.0
 40
45.000000000000547
 50
90.0
 51
270.0
1001
ACDBBLOCKREPETAG
1070
     1
1071
      109
1005
130C21
  0
LINE
  5
130C22
  8
OBJECT
 10
1917.0
 20
-634.0
 30
0.0
 11
1920.0
 21
-634.0
 31
0.0
1001
ACDBBLOCKREPETAG
1070
     1
1071
        1
1005
130C22
  0
ARC
  5
130C23
  8
OBJECT
 10
1917.0
 20
-637.0
 30
0.0
 40
3.0
 50
90.0
 51
180.0
1001
ACDBBLOCKREPETAG
1070
     1
1071
        2
1005
130C23
  0
LINE
  5
130C24
  8
OBJECT
 10
1920.0
 20
-758.0
 30
0.0
 11
1917.0
 21
-758.0
 31
0.0
1001
ACDBBLOCKREPETAG
1070
     1
1071
        3
1005
130C24
  0
ARC
  5
130C25
  8
OBJECT
 10
1917.0
 20
-755.0
 30
0.0
 40
3.0
 50
180.0
 51
270.0
1001
ACDBBLOCKREPETAG
1070
     1
1071
        4
1005
130C25
  0
LINE
  5
130C26
  8
OBJECT
 10
1914.0
 20
-755.0
 30
0.0
 11
1914.0
 21
-637.0
 31
0.0
1001
ACDBBLOCKREPETAG
1070
     1
1071
        5
1005
130C26
  0
LINE
  5
130C27
  8
CENTER
 10
2077.0
 20
-696.0
 30
0.0
 11
1923.0
 21
-696.0
 31
0.0
1001
ACDBBLOCKREPETAG
1070
     1
1071
       17
1005
130C27
  0
CIRCLE
  5
130C28
  8
OBJECT
 10
2000.0
 20
-696.0
 30
0.0
 40
41.5
1001
ACDBBLOCKREPETAG
1070
     1
1071
       19
1005
130C28
  0
CIRCLE
  5
130C29
  8
OBJECT
 10
2000.0
 20
-696.0
 30
0.0
 40
54.0
1001
ACDBBLOCKREPETAG
1070
     1
1071
       20
1005
130C29
  0
ARC
  5
130C2A
  8
OBJECT
 10
2000.0
 20
-696.0
 30
0.0
 40
62.0
 50
287.89655112920718
 51
252.10344887079279
1001
ACDBBLOCKREPETAG
1070
     1
1071
       21
1005
130C2A
  0
LINE
  5
130C2B
  8
OBJECT
 10
1980.947441116743
 20
-755.0
 30
0.0
 11
2019.052558883257
 21
-755.0
 31
0.0
1001
ACDBBLOCKREPETAG
1070
     1
1071
       22
1005
130C2B
  0
LINE
  5
130C2C
  8
OBJECT
 10
2202.9999999999859
 20
-583.0000000000008
 30
0.0
 11
2209.9999999999859
 21
-583.0000000000008
 31
0.0
1001
ACDBBLOCKREPETAG
1070
     1
1071
       83
1005
130C2C
  0
LINE
  5
130C2D
  8
OBJECT
 10
2209.9999999999859
 20
-583.0000000000008
 30
0.0
 11
2209.9999999999859
 21
-707.00000000000091
 31
0.0
1001
ACDBBLOCKREPETAG
1070
     1
1071
       84
1005
130C2D
  0
LINE
  5
130C2E
  8
OBJECT
 10
2085.9999999999859
 20
-653.3502637757274
 30
0.0
 11
2085.9999999999859
 21
-755.00000000000102
 31
0.0
1001
ACDBBLOCKREPETAG
1070
     1
1071
       85
1005
130C2E
  0
LINE
  5
130C2F
  8
OBJECT
 10
2209.9999999999859
 20
-707.00000000000091
 30
0.0
 11
2202.9999999999859
 21
-707.00000000000091
 31
0.0
1001
ACDBBLOCKREPETAG
1070
     1
1071
       86
1005
130C2F
  0
LINE
  5
130C30
  8
OBJECT
 10
2202.9999999999859
 20
-707.00000000000091
 30
0.0
 11
2202.9999999999859
 21
-583.0000000000008
 31
0.0
1001
ACDBBLOCKREPETAG
1070
     1
1071
       87
1005
130C30
  0
LINE
  5
130C31
  8
CENTER
 10
2134.9999999999859
 20
-645.0000000000008
 30
0.0
 11
2224.999999999985
 21
-645.0000000000008
 31
0.0
1001
ACDBBLOCKREPETAG
1070
     1
1071
       88
1005
130C31
  0
LINE
  5
130C32
  8
OBJECT
 10
2079.9999999999809
 20
-758.0
 30
0.0
 11
2082.999999999985
 21
-758.0000000000008
 31
0.0
1001
ACDBBLOCKREPETAG
1070
     1
1071
       89
1005
130C32
  0
ARC
  5
130C33
  8
OBJECT
 10
2082.999999999985
 20
-755.00000000000102
 30
0.0
 40
3.0
 50
270.0
 51
0.0
1001
ACDBBLOCKREPETAG
1070
     1
1071
       90
1005
130C33
  0
LINE
  5
130C34
  8
OBJECT
 10
2202.9999999999859
 20
-586.0000000000008
 30
0.0
 11
2166.9999999999859
 21
-586.0000000000008
 31
0.0
1001
ACDBBLOCKREPETAG
1070
     1
1071
       91
1005
130C34
  0
LINE
  5
130C35
  8
OBJECT
 10
2166.9999999999859
 20
-586.0000000000008
 30
0.0
 11
2166.9999999999859
 21
-704.0000000000008
 31
0.0
1001
ACDBBLOCKREPETAG
1070
     1
1071
       92
1005
130C35
  0
LINE
  5
130C36
  8
OBJECT
 10
2162.9999999999859
 20
-590.5000000000008
 30
0.0
 11
2162.9999999999859
 21
-699.5000000000008
 31
0.0
1001
ACDBBLOCKREPETAG
1070
     1
1071
       93
1005
130C36
  0
LINE
  5
130C37
  8
OBJECT
 10
2162.9999999999859
 20
-590.5000000000008
 30
0.0
 11
2149.9999999999859
 21
-590.5000000000008
 31
0.0
1001
ACDBBLOCKREPETAG
1070
     1
1071
       94
1005
130C37
  0
LINE
  5
130C38
  8
OBJECT
 10
2166.9999999999859
 20
-704.0000000000008
 30
0.0
 11
2202.9999999999859
 21
-704.0000000000008
 31
0.0
1001
ACDBBLOCKREPETAG
1070
     1
1071
       95
1005
130C38
  0
LINE
  5
130C39
  8
OBJECT
 10
2166.9999999999859
 20
-586.0000000000008
 30
0.0
 11
2162.9999999999859
 21
-590.5000000000008
 31
0.0
1001
ACDBBLOCKREPETAG
1070
     1
1071
       96
1005
130C39
  0
LINE
  5
130C3A
  8
OBJECT
 10
2149.9999999999859
 20
-590.5000000000008
 30
0.0
 11
2149.9999999999859
 21
-675.74491827928784
 31
0.0
1001
ACDBBLOCKREPETAG
1070
     1
1071
       97
1005
130C3A
  0
ARC
  5
130C3B
  8
OBJECT
 10
2152.7999999999838
 20
-685.0000000000008
 30
0.0
 40
85.0
 50
91.887731891831123
 51
143.1301023540934
1001
ACDBBLOCKREPETAG
1070
     1
1071
       98
1005
130C3B
  0
LINE
  5
130C3C
  8
HIDDEN
 10
2157.9999999999859
 20
-600.50000000000068
 30
0.0
 11
2157.9999999999859
 21
-689.50000000000091
 31
0.0
1001
ACDBBLOCKREPETAG
1070
     1
1071
      100
1005
130C3C
  0
LINE
  5
130C3D
  8
OBJECT
 10
2085.9999999999859
 20
-751.07945073181781
 30
0.0
 11
2156.6313199210308
 21
-699.5000000000008
 31
0.0
1001
ACDBBLOCKREPETAG
1070
     1
1071
      101
1005
130C3D
  0
LINE
  5
130C3E
  8
OBJECT
 10
2079.9999999999809
 20
-634.0
 30
0.0
 11
2084.7999999999852
 21
-634.0
 31
0.0
1001
ACDBBLOCKREPETAG
1070
     1
1071
      102
1005
130C3E
  0
LINE
  5
130C3F
  8
OBJECT
 10
2085.9999999999859
 20
-653.35026377573013
 30
0.0
 11
2084.7999999999852
 21
-634.0
 31
0.0
1001
ACDBBLOCKREPETAG
1070
     1
1071
      103
1005
130C3F
  0
LINE
  5
130C40
  8
OBJECT
 10
2162.9999999999859
 20
-699.5000000000008
 30
0.0
 11
2156.6313199210308
 21
-699.5000000000008
 31
0.0
1001
ACDBBLOCKREPETAG
1070
     1
1071
      104
1005
130C40
  0
LINE
  5
130C41
  8
OBJECT
 10
2166.9999999999859
 20
-704.0000000000008
 30
0.0
 11
2162.9999999999859
 21
-699.5000000000008
 31
0.0
1001
ACDBBLOCKREPETAG
1070
     1
1071
      105
1005
130C41
  0
TEXT
  5
130C42
  8
SLIM
 10
0.0000035665234464
 20
24.000004585317601
 30
0.0
 40
79.999999999972701
  1
枝管バリエーション
 41
0.75
1001
ACDBBLOCKREPETAG
1070
     1
1071
      119
1005
12CC4A
  0
TEXT
  5
130C43
  8
SLIM
 10
1837.75
 20
282.50000000000011
 30
0.0
 40
35.0
  1
（枝管サイズ毎に寸法が異なります。管底の位置は50～100で同じです）
 41
0.75
  0
TEXT
  5
130C44
  8
SLIM
 10
1850.0
 20
369.99999999999989
 30
0.0
 40
100.0
  1
4SR-Z63-P110
 41
0.75
  0
TEXT
  5
130C45
  8
SLIM
 10
0.0
 20
369.99999999999989
 30
0.0
 40
100.0
  1
4SR-Z6X-P110-S
 41
0.75
  0
LINE
  5
130C46
  8
OBJECT
 10
4923.0
 20
-3395.9999999999968
 30
0.0
 11
4923.0
 21
-3374.9999999999968
 31
0.0
1001
ACDBBLOCKREPETAG
1070
     1
1071
        0
1005
130C46
  0
LINE
  5
130C47
  8
OBJECT
 10
4923.0
 20
-3374.9999999999968
 30
0.0
 11
5077.0
 21
-3374.9999999999968
 31
0.0
1001
ACDBBLOCKREPETAG
1070
     1
1071
        1
1005
130C47
  0
LINE
  5
130C48
  8
HIDDEN
 10
4943.0
 20
-3444.9999999999968
 30
0.0
 11
5057.0
 21
-3444.9999999999968
 31
0.0
1001
ACDBBLOCKREPETAG
1070
     1
1071
        2
1005
130C48
  0
LINE
  5
130C49
  8
OBJECT
 10
5077.0
 20
-3374.9999999999968
 30
0.0
 11
5077.0
 21
-3395.9999999999968
 31
0.0
1001
ACDBBLOCKREPETAG
1070
     1
1071
        3
1005
130C49
  0
LINE
  5
130C4A
  8
OBJECT
 10
5077.0
 20
-3395.9999999999968
 30
0.0
 11
4923.0
 21
-3395.9999999999968
 31
0.0
1001
ACDBBLOCKREPETAG
1070
     1
1071
        4
1005
130C4A
  0
LINE
  5
130C4B
  8
CENTER
 10
5000.0
 20
-3359.9999999999968
 30
0.0
 11
5000.0
 21
-3594.9999999999968
 31
0.0
1001
ACDBBLOCKREPETAG
1070
     1
1071
        5
1005
130C4B
  0
LINE
  5
130C4C
  8
OBJECT
 10
4925.0
 20
-3458.9999999999968
 30
0.0
 11
4925.0
 21
-3582.9999999999968
 31
0.0
1001
ACDBBLOCKREPETAG
1070
     1
1071
        6
1005
130C4C
  0
LINE
  5
130C4D
  8
OBJECT
 10
4928.0
 20
-3395.9999999999968
 30
0.0
 11
4928.0
 21
-3458.9999999999968
 31
0.0
1001
ACDBBLOCKREPETAG
1070
     1
1071
        7
1005
130C4D
  0
LINE
  5
130C4E
  8
OBJECT
 10
5072.0
 20
-3458.9999999999968
 30
0.0
 11
5072.0
 21
-3395.9999999999968
 31
0.0
1001
ACDBBLOCKREPETAG
1070
     1
1071
        8
1005
130C4E
  0
LINE
  5
130C4F
  8
OBJECT
 10
5074.9999999997999
 20
-3582.9999999997758
 30
0.0
 11
5080.0
 21
-3582.9999999999968
 31
0.0
1001
ACDBBLOCKREPETAG
1070
     1
1071
        9
1005
130C4F
  0
LINE
  5
130C50
  8
OBJECT
 10
5080.0
 20
-3458.9999999999968
 30
0.0
 11
4925.0
 21
-3458.9999999999968
 31
0.0
1001
ACDBBLOCKREPETAG
1070
     1
1071
       10
1005
130C50
  0
ARC
  5
130C51
  8
OBJECT
 10
5200.6872746716726
 20
-3574.408099410105
 30
0.0
 40
170.6350503965856
 50
137.44134459184301
 51
149.9194958133665
1001
ACDBBLOCKREPETAG
1070
     1
1071
       15
1005
130C51
  0
ARC
  5
130C52
  8
OBJECT
 10
5118.8455987040506
 20
-3530.8827266953631
 30
0.0
 40
78.072222021763665
 50
147.4551531037684
 51
164.66365997719291
1001
ACDBBLOCKREPETAG
1070
     1
1071
       16
1005
130C52
  0
ARC
  5
130C53
  8
OBJECT
 10
5085.7554349608727
 20
-3520.9999999999968
 30
0.0
 40
43.55353926885617
 50
165.6884523008477
 51
194.3115476991523
1001
ACDBBLOCKREPETAG
1070
     1
1071
       17
1005
130C53
  0
ARC
  5
130C54
  8
OBJECT
 10
5200.6872746716726
 20
-3467.5919005898891
 30
0.0
 40
170.6350503965856
 50
210.0805041866335
 51
222.55865540815699
1001
ACDBBLOCKREPETAG
1070
     1
1071
       18
1005
130C54
  0
ARC
  5
130C55
  8
OBJECT
 10
5118.8455987040506
 20
-3511.1172733046319
 30
0.0
 40
78.072222021763665
 50
195.33634002280701
 51
212.5448468962316
1001
ACDBBLOCKREPETAG
1070
     1
1071
       19
1005
130C55
  0
POINT
  5
130C56
  8
DOTS
 10
5000.0
 20
-3579.9999999999968
 30
0.0
1001
ACDBBLOCKREPETAG
1070
     1
1071
      186
1005
130C56
  0
LINE
  5
130C57
  8
OBJECT
 10
4323.0
 20
-3395.9999999999968
 30
0.0
 11
4323.0
 21
-3374.9999999999968
 31
0.0
1001
ACDBBLOCKREPETAG
1070
     1
1071
       20
1005
130C57
  0
LINE
  5
130C58
  8
OBJECT
 10
4323.0
 20
-3374.9999999999968
 30
0.0
 11
4477.0
 21
-3374.9999999999968
 31
0.0
1001
ACDBBLOCKREPETAG
1070
     1
1071
       21
1005
130C58
  0
LINE
  5
130C59
  8
HIDDEN
 10
4343.0
 20
-3444.9999999999968
 30
0.0
 11
4457.0
 21
-3444.9999999999968
 31
0.0
1001
ACDBBLOCKREPETAG
1070
     1
1071
       22
1005
130C59
  0
LINE
  5
130C5A
  8
OBJECT
 10
4477.0
 20
-3374.9999999999968
 30
0.0
 11
4477.0
 21
-3395.9999999999968
 31
0.0
1001
ACDBBLOCKREPETAG
1070
     1
1071
       23
1005
130C5A
  0
LINE
  5
130C5B
  8
OBJECT
 10
4477.0
 20
-3395.9999999999968
 30
0.0
 11
4323.0
 21
-3395.9999999999968
 31
0.0
1001
ACDBBLOCKREPETAG
1070
     1
1071
       24
1005
130C5B
  0
LINE
  5
130C5C
  8
CENTER
 10
4400.0
 20
-3359.9999999999968
 30
0.0
 11
4400.0
 21
-3594.9999999999968
 31
0.0
1001
ACDBBLOCKREPETAG
1070
     1
1071
       25
1005
130C5C
  0
LINE
  5
130C5D
  8
OBJECT
 10
4325.0
 20
-3458.9999999999968
 30
0.0
 11
4325.0
 21
-3582.9999999999968
 31
0.0
1001
ACDBBLOCKREPETAG
1070
     1
1071
       26
1005
130C5D
  0
LINE
  5
130C5E
  8
OBJECT
 10
4328.0
 20
-3395.9999999999968
 30
0.0
 11
4328.0
 21
-3458.9999999999968
 31
0.0
1001
ACDBBLOCKREPETAG
1070
     1
1071
       27
1005
130C5E
  0
LINE
  5
130C5F
  8
OBJECT
 10
4472.0
 20
-3458.9999999999968
 30
0.0
 11
4472.0
 21
-3395.9999999999968
 31
0.0
1001
ACDBBLOCKREPETAG
1070
     1
1071
       28
1005
130C5F
  0
LINE
  5
130C60
  8
OBJECT
 10
4475.0
 20
-3458.9999999999968
 30
0.0
 11
4325.0
 21
-3458.9999999999968
 31
0.0
1001
ACDBBLOCKREPETAG
1070
     1
1071
       30
1005
130C60
  0
LINE
  5
130C61
  8
OBJECT
 10
4475.0
 20
-3458.9999999999968
 30
0.0
 11
4475.0
 21
-3582.9999999999968
 31
0.0
1001
ACDBBLOCKREPETAG
1070
     1
1071
       34
1005
130C61
  0
POINT
  5
130C62
  8
DOTS
 10
4400.0
 20
-3579.9999999999968
 30
0.0
1001
ACDBBLOCKREPETAG
1070
     1
1071
      187
1005
130C62
  0
LINE
  5
130C63
  8
OBJECT
 10
3923.0
 20
-3395.9999999999968
 30
0.0
 11
3923.0
 21
-3374.9999999999968
 31
0.0
1001
ACDBBLOCKREPETAG
1070
     1
1071
        0
1005
130C63
  0
LINE
  5
130C64
  8
OBJECT
 10
3923.0
 20
-3374.9999999999968
 30
0.0
 11
4077.0
 21
-3374.9999999999968
 31
0.0
1001
ACDBBLOCKREPETAG
1070
     1
1071
        1
1005
130C64
  0
LINE
  5
130C65
  8
HIDDEN
 10
3943.0
 20
-3444.9999999999968
 30
0.0
 11
4057.0
 21
-3444.9999999999968
 31
0.0
1001
ACDBBLOCKREPETAG
1070
     1
1071
        2
1005
130C65
  0
LINE
  5
130C66
  8
OBJECT
 10
4077.0
 20
-3374.9999999999968
 30
0.0
 11
4077.0
 21
-3395.9999999999968
 31
0.0
1001
ACDBBLOCKREPETAG
1070
     1
1071
        3
1005
130C66
  0
LINE
  5
130C67
  8
OBJECT
 10
4077.0
 20
-3395.9999999999968
 30
0.0
 11
3923.0
 21
-3395.9999999999968
 31
0.0
1001
ACDBBLOCKREPETAG
1070
     1
1071
        4
1005
130C67
  0
LINE
  5
130C68
  8
CENTER
 10
4000.0
 20
-3359.9999999999968
 30
0.0
 11
4000.0
 21
-3594.9999999999968
 31
0.0
1001
ACDBBLOCKREPETAG
1070
     1
1071
        5
1005
130C68
  0
LINE
  5
130C69
  8
OBJECT
 10
3925.0
 20
-3458.9999999999968
 30
0.0
 11
3925.0
 21
-3582.9999999999968
 31
0.0
1001
ACDBBLOCKREPETAG
1070
     1
1071
        6
1005
130C69
  0
LINE
  5
130C6A
  8
OBJECT
 10
3928.0
 20
-3395.9999999999968
 30
0.0
 11
3928.0
 21
-3458.9999999999968
 31
0.0
1001
ACDBBLOCKREPETAG
1070
     1
1071
        7
1005
130C6A
  0
LINE
  5
130C6B
  8
OBJECT
 10
4072.0
 20
-3458.9999999999968
 30
0.0
 11
4072.0
 21
-3395.9999999999968
 31
0.0
1001
ACDBBLOCKREPETAG
1070
     1
1071
        8
1005
130C6B
  0
LINE
  5
130C6C
  8
OBJECT
 10
4074.999999999799
 20
-3582.9999999997758
 30
0.0
 11
4080.0
 21
-3582.9999999999968
 31
0.0
1001
ACDBBLOCKREPETAG
1070
     1
1071
        9
1005
130C6C
  0
LINE
  5
130C6D
  8
OBJECT
 10
4080.0
 20
-3458.9999999999968
 30
0.0
 11
3925.0
 21
-3458.9999999999968
 31
0.0
1001
ACDBBLOCKREPETAG
1070
     1
1071
       10
1005
130C6D
  0
ARC
  5
130C6E
  8
OBJECT
 10
4200.6872746716726
 20
-3574.408099410105
 30
0.0
 40
170.6350503965856
 50
137.44134459184301
 51
149.9194958133665
1001
ACDBBLOCKREPETAG
1070
     1
1071
       15
1005
130C6E
  0
ARC
  5
130C6F
  8
OBJECT
 10
4118.8455987040506
 20
-3530.8827266953631
 30
0.0
 40
78.072222021763665
 50
147.4551531037684
 51
164.663659977186
1001
ACDBBLOCKREPETAG
1070
     1
1071
       16
1005
130C6F
  0
ARC
  5
130C70
  8
OBJECT
 10
4085.7554349608722
 20
-3520.9999999999968
 30
0.0
 40
43.55353926885617
 50
165.6884523008477
 51
194.3115476991523
1001
ACDBBLOCKREPETAG
1070
     1
1071
       17
1005
130C70
  0
ARC
  5
130C71
  8
OBJECT
 10
4200.6872746716726
 20
-3467.5919005898891
 30
0.0
 40
170.6350503965856
 50
210.0805041866335
 51
222.55865540815699
1001
ACDBBLOCKREPETAG
1070
     1
1071
       18
1005
130C71
  0
ARC
  5
130C72
  8
OBJECT
 10
4118.8455987040506
 20
-3511.1172733046319
 30
0.0
 40
78.072222021763665
 50
195.33634002281391
 51
212.5448468962316
1001
ACDBBLOCKREPETAG
1070
     1
1071
       19
1005
130C72
  0
POINT
  5
130C73
  8
DOTS
 10
4000.0
 20
-3579.9999999999968
 30
0.0
1001
ACDBBLOCKREPETAG
1070
     1
1071
      186
1005
130C73
  0
LINE
  5
130C74
  8
OBJECT
 10
3323.0
 20
-3395.9999999999968
 30
0.0
 11
3323.0
 21
-3374.9999999999968
 31
0.0
1001
ACDBBLOCKREPETAG
1070
     1
1071
       20
1005
130C74
  0
LINE
  5
130C75
  8
OBJECT
 10
3323.0
 20
-3374.9999999999968
 30
0.0
 11
3477.0
 21
-3374.9999999999968
 31
0.0
1001
ACDBBLOCKREPETAG
1070
     1
1071
       21
1005
130C75
  0
LINE
  5
130C76
  8
HIDDEN
 10
3343.0
 20
-3444.9999999999968
 30
0.0
 11
3457.0
 21
-3444.9999999999968
 31
0.0
1001
ACDBBLOCKREPETAG
1070
     1
1071
       22
1005
130C76
  0
LINE
  5
130C77
  8
OBJECT
 10
3477.0
 20
-3374.9999999999968
 30
0.0
 11
3477.0
 21
-3395.9999999999968
 31
0.0
1001
ACDBBLOCKREPETAG
1070
     1
1071
       23
1005
130C77
  0
LINE
  5
130C78
  8
OBJECT
 10
3477.0
 20
-3395.9999999999968
 30
0.0
 11
3323.0
 21
-3395.9999999999968
 31
0.0
1001
ACDBBLOCKREPETAG
1070
     1
1071
       24
1005
130C78
  0
LINE
  5
130C79
  8
CENTER
 10
3400.0
 20
-3359.9999999999968
 30
0.0
 11
3400.0
 21
-3594.9999999999968
 31
0.0
1001
ACDBBLOCKREPETAG
1070
     1
1071
       25
1005
130C79
  0
LINE
  5
130C7A
  8
OBJECT
 10
3325.0
 20
-3458.9999999999968
 30
0.0
 11
3325.0
 21
-3582.9999999999968
 31
0.0
1001
ACDBBLOCKREPETAG
1070
     1
1071
       26
1005
130C7A
  0
LINE
  5
130C7B
  8
OBJECT
 10
3328.0
 20
-3395.9999999999968
 30
0.0
 11
3328.0
 21
-3458.9999999999968
 31
0.0
1001
ACDBBLOCKREPETAG
1070
     1
1071
       27
1005
130C7B
  0
LINE
  5
130C7C
  8
OBJECT
 10
3472.0
 20
-3458.9999999999968
 30
0.0
 11
3472.0
 21
-3395.9999999999968
 31
0.0
1001
ACDBBLOCKREPETAG
1070
     1
1071
       28
1005
130C7C
  0
LINE
  5
130C7D
  8
OBJECT
 10
3475.0
 20
-3458.9999999999968
 30
0.0
 11
3325.0
 21
-3458.9999999999968
 31
0.0
1001
ACDBBLOCKREPETAG
1070
     1
1071
       30
1005
130C7D
  0
LINE
  5
130C7E
  8
OBJECT
 10
3475.0
 20
-3458.9999999999968
 30
0.0
 11
3475.0
 21
-3582.9999999999968
 31
0.0
1001
ACDBBLOCKREPETAG
1070
     1
1071
       34
1005
130C7E
  0
POINT
  5
130C7F
  8
DOTS
 10
3400.0
 20
-3579.9999999999968
 30
0.0
1001
ACDBBLOCKREPETAG
1070
     1
1071
      187
1005
130C7F
  0
LINE
  5
130C80
  8
OBJECT
 10
2923.0
 20
-3395.9999999999968
 30
0.0
 11
2923.0
 21
-3374.9999999999968
 31
0.0
1001
ACDBBLOCKREPETAG
1070
     1
1071
        0
1005
130C80
  0
LINE
  5
130C81
  8
OBJECT
 10
2923.0
 20
-3374.9999999999968
 30
0.0
 11
3077.0
 21
-3374.9999999999968
 31
0.0
1001
ACDBBLOCKREPETAG
1070
     1
1071
        1
1005
130C81
  0
LINE
  5
130C82
  8
HIDDEN
 10
2943.0
 20
-3444.9999999999968
 30
0.0
 11
3057.0
 21
-3444.9999999999968
 31
0.0
1001
ACDBBLOCKREPETAG
1070
     1
1071
        2
1005
130C82
  0
LINE
  5
130C83
  8
OBJECT
 10
3077.0
 20
-3374.9999999999968
 30
0.0
 11
3077.0
 21
-3395.9999999999968
 31
0.0
1001
ACDBBLOCKREPETAG
1070
     1
1071
        3
1005
130C83
  0
LINE
  5
130C84
  8
OBJECT
 10
3077.0
 20
-3395.9999999999968
 30
0.0
 11
2923.0
 21
-3395.9999999999968
 31
0.0
1001
ACDBBLOCKREPETAG
1070
     1
1071
        4
1005
130C84
  0
LINE
  5
130C85
  8
CENTER
 10
3000.0
 20
-3359.9999999999968
 30
0.0
 11
3000.0
 21
-3594.9999999999968
 31
0.0
1001
ACDBBLOCKREPETAG
1070
     1
1071
        5
1005
130C85
  0
LINE
  5
130C86
  8
OBJECT
 10
2925.0
 20
-3458.9999999999968
 30
0.0
 11
2925.0
 21
-3582.9999999999968
 31
0.0
1001
ACDBBLOCKREPETAG
1070
     1
1071
        6
1005
130C86
  0
LINE
  5
130C87
  8
OBJECT
 10
2928.0
 20
-3395.9999999999968
 30
0.0
 11
2928.0
 21
-3458.9999999999968
 31
0.0
1001
ACDBBLOCKREPETAG
1070
     1
1071
        7
1005
130C87
  0
LINE
  5
130C88
  8
OBJECT
 10
3072.0
 20
-3458.9999999999968
 30
0.0
 11
3072.0
 21
-3395.9999999999968
 31
0.0
1001
ACDBBLOCKREPETAG
1070
     1
1071
        8
1005
130C88
  0
LINE
  5
130C89
  8
OBJECT
 10
3074.9999999997999
 20
-3582.9999999997758
 30
0.0
 11
3080.0
 21
-3582.9999999999968
 31
0.0
1001
ACDBBLOCKREPETAG
1070
     1
1071
        9
1005
130C89
  0
LINE
  5
130C8A
  8
OBJECT
 10
3080.0
 20
-3458.9999999999968
 30
0.0
 11
2925.0
 21
-3458.9999999999968
 31
0.0
1001
ACDBBLOCKREPETAG
1070
     1
1071
       10
1005
130C8A
  0
ARC
  5
130C8B
  8
OBJECT
 10
3200.6872746716722
 20
-3574.408099410105
 30
0.0
 40
170.6350503965856
 50
137.44134459184301
 51
149.9194958133665
1001
ACDBBLOCKREPETAG
1070
     1
1071
       15
1005
130C8B
  0
ARC
  5
130C8C
  8
OBJECT
 10
3118.8455987040511
 20
-3530.8827266953631
 30
0.0
 40
78.072222021763665
 50
147.4551531037684
 51
164.663659977186
1001
ACDBBLOCKREPETAG
1070
     1
1071
       16
1005
130C8C
  0
ARC
  5
130C8D
  8
OBJECT
 10
3085.7554349608731
 20
-3520.9999999999968
 30
0.0
 40
43.55353926885617
 50
165.6884523008477
 51
194.3115476991523
1001
ACDBBLOCKREPETAG
1070
     1
1071
       17
1005
130C8D
  0
ARC
  5
130C8E
  8
OBJECT
 10
3200.6872746716722
 20
-3467.5919005898891
 30
0.0
 40
170.6350503965856
 50
210.0805041866335
 51
222.55865540815699
1001
ACDBBLOCKREPETAG
1070
     1
1071
       18
1005
130C8E
  0
ARC
  5
130C8F
  8
OBJECT
 10
3118.8455987040511
 20
-3511.1172733046319
 30
0.0
 40
78.072222021763665
 50
195.33634002281391
 51
212.5448468962316
1001
ACDBBLOCKREPETAG
1070
     1
1071
       19
1005
130C8F
  0
POINT
  5
130C90
  8
DOTS
 10
3000.0
 20
-3579.9999999999968
 30
0.0
1001
ACDBBLOCKREPETAG
1070
     1
1071
      186
1005
130C90
  0
LINE
  5
130C91
  8
OBJECT
 10
2323.0
 20
-3395.9999999999968
 30
0.0
 11
2323.0
 21
-3374.9999999999968
 31
0.0
1001
ACDBBLOCKREPETAG
1070
     1
1071
       20
1005
130C91
  0
LINE
  5
130C92
  8
OBJECT
 10
2323.0
 20
-3374.9999999999968
 30
0.0
 11
2477.0
 21
-3374.9999999999968
 31
0.0
1001
ACDBBLOCKREPETAG
1070
     1
1071
       21
1005
130C92
  0
LINE
  5
130C93
  8
HIDDEN
 10
2343.0
 20
-3444.9999999999968
 30
0.0
 11
2457.0
 21
-3444.9999999999968
 31
0.0
1001
ACDBBLOCKREPETAG
1070
     1
1071
       22
1005
130C93
  0
LINE
  5
130C94
  8
OBJECT
 10
2477.0
 20
-3374.9999999999968
 30
0.0
 11
2477.0
 21
-3395.9999999999968
 31
0.0
1001
ACDBBLOCKREPETAG
1070
     1
1071
       23
1005
130C94
  0
LINE
  5
130C95
  8
OBJECT
 10
2477.0
 20
-3395.9999999999968
 30
0.0
 11
2323.0
 21
-3395.9999999999968
 31
0.0
1001
ACDBBLOCKREPETAG
1070
     1
1071
       24
1005
130C95
  0
LINE
  5
130C96
  8
CENTER
 10
2400.0
 20
-3359.9999999999968
 30
0.0
 11
2400.0
 21
-3594.9999999999968
 31
0.0
1001
ACDBBLOCKREPETAG
1070
     1
1071
       25
1005
130C96
  0
LINE
  5
130C97
  8
OBJECT
 10
2325.0
 20
-3458.9999999999968
 30
0.0
 11
2325.0
 21
-3582.9999999999968
 31
0.0
1001
ACDBBLOCKREPETAG
1070
     1
1071
       26
1005
130C97
  0
LINE
  5
130C98
  8
OBJECT
 10
2328.0
 20
-3395.9999999999968
 30
0.0
 11
2328.0
 21
-3458.9999999999968
 31
0.0
1001
ACDBBLOCKREPETAG
1070
     1
1071
       27
1005
130C98
  0
LINE
  5
130C99
  8
OBJECT
 10
2472.0
 20
-3458.9999999999968
 30
0.0
 11
2472.0
 21
-3395.9999999999968
 31
0.0
1001
ACDBBLOCKREPETAG
1070
     1
1071
       28
1005
130C99
  0
LINE
  5
130C9A
  8
OBJECT
 10
2475.0
 20
-3458.9999999999968
 30
0.0
 11
2325.0
 21
-3458.9999999999968
 31
0.0
1001
ACDBBLOCKREPETAG
1070
     1
1071
       30
1005
130C9A
  0
LINE
  5
130C9B
  8
OBJECT
 10
2475.0
 20
-3458.9999999999968
 30
0.0
 11
2475.0
 21
-3582.9999999999968
 31
0.0
1001
ACDBBLOCKREPETAG
1070
     1
1071
       34
1005
130C9B
  0
POINT
  5
130C9C
  8
DOTS
 10
2400.0
 20
-3579.9999999999968
 30
0.0
1001
ACDBBLOCKREPETAG
1070
     1
1071
      187
1005
130C9C
  0
LINE
  5
130C9D
  8
OBJECT
 10
1923.0
 20
-3395.9999999999968
 30
0.0
 11
1923.0
 21
-3374.9999999999968
 31
0.0
1001
ACDBBLOCKREPETAG
1070
     1
1071
        0
1005
130C9D
  0
LINE
  5
130C9E
  8
OBJECT
 10
1923.0
 20
-3374.9999999999968
 30
0.0
 11
2077.0
 21
-3374.9999999999968
 31
0.0
1001
ACDBBLOCKREPETAG
1070
     1
1071
        1
1005
130C9E
  0
LINE
  5
130C9F
  8
HIDDEN
 10
1943.0
 20
-3444.9999999999968
 30
0.0
 11
2057.0
 21
-3444.9999999999968
 31
0.0
1001
ACDBBLOCKREPETAG
1070
     1
1071
        2
1005
130C9F
  0
LINE
  5
130CA0
  8
OBJECT
 10
2077.0
 20
-3374.9999999999968
 30
0.0
 11
2077.0
 21
-3395.9999999999968
 31
0.0
1001
ACDBBLOCKREPETAG
1070
     1
1071
        3
1005
130CA0
  0
LINE
  5
130CA1
  8
OBJECT
 10
2077.0
 20
-3395.9999999999968
 30
0.0
 11
1923.0
 21
-3395.9999999999968
 31
0.0
1001
ACDBBLOCKREPETAG
1070
     1
1071
        4
1005
130CA1
  0
LINE
  5
130CA2
  8
CENTER
 10
2000.0
 20
-3359.9999999999968
 30
0.0
 11
2000.0
 21
-3594.9999999999968
 31
0.0
1001
ACDBBLOCKREPETAG
1070
     1
1071
        5
1005
130CA2
  0
LINE
  5
130CA3
  8
OBJECT
 10
1925.0
 20
-3458.9999999999968
 30
0.0
 11
1925.0
 21
-3582.9999999999968
 31
0.0
1001
ACDBBLOCKREPETAG
1070
     1
1071
        6
1005
130CA3
  0
LINE
  5
130CA4
  8
OBJECT
 10
1928.0
 20
-3395.9999999999968
 30
0.0
 11
1928.0
 21
-3458.9999999999968
 31
0.0
1001
ACDBBLOCKREPETAG
1070
     1
1071
        7
1005
130CA4
  0
LINE
  5
130CA5
  8
OBJECT
 10
2072.0
 20
-3458.9999999999968
 30
0.0
 11
2072.0
 21
-3395.9999999999968
 31
0.0
1001
ACDBBLOCKREPETAG
1070
     1
1071
        8
1005
130CA5
  0
LINE
  5
130CA6
  8
OBJECT
 10
2074.999999999799
 20
-3582.9999999997758
 30
0.0
 11
2080.0
 21
-3582.9999999999968
 31
0.0
1001
ACDBBLOCKREPETAG
1070
     1
1071
        9
1005
130CA6
  0
LINE
  5
130CA7
  8
OBJECT
 10
2080.0
 20
-3458.9999999999968
 30
0.0
 11
1925.0
 21
-3458.9999999999968
 31
0.0
1001
ACDBBLOCKREPETAG
1070
     1
1071
       10
1005
130CA7
  0
ARC
  5
130CA8
  8
OBJECT
 10
2200.6872746716731
 20
-3574.408099410105
 30
0.0
 40
170.6350503965856
 50
137.44134459184301
 51
149.91949581335999
1001
ACDBBLOCKREPETAG
1070
     1
1071
       15
1005
130CA8
  0
ARC
  5
130CA9
  8
OBJECT
 10
2118.8455987040511
 20
-3530.8827266953631
 30
0.0
 40
78.072222021763665
 50
147.45515310377539
 51
164.663659977186
1001
ACDBBLOCKREPETAG
1070
     1
1071
       16
1005
130CA9
  0
ARC
  5
130CAA
  8
OBJECT
 10
2085.7554349608731
 20
-3520.9999999999968
 30
0.0
 40
43.55353926885617
 50
165.6884523008477
 51
194.3115476991523
1001
ACDBBLOCKREPETAG
1070
     1
1071
       17
1005
130CAA
  0
ARC
  5
130CAB
  8
OBJECT
 10
2200.6872746716731
 20
-3467.5919005898891
 30
0.0
 40
170.6350503965856
 50
210.08050418664001
 51
222.55865540815699
1001
ACDBBLOCKREPETAG
1070
     1
1071
       18
1005
130CAB
  0
ARC
  5
130CAC
  8
OBJECT
 10
2118.8455987040511
 20
-3511.1172733046319
 30
0.0
 40
78.072222021763665
 50
195.33634002281391
 51
212.54484689622461
1001
ACDBBLOCKREPETAG
1070
     1
1071
       19
1005
130CAC
  0
POINT
  5
130CAD
  8
DOTS
 10
2000.0
 20
-3579.9999999999968
 30
0.0
1001
ACDBBLOCKREPETAG
1070
     1
1071
      186
1005
130CAD
  0
LINE
  5
130CAE
  8
DIM
 10
2150.0
 20
-3221.9999999999959
 30
0.0
 11
2228.479620594459
 21
-3221.9999999999959
 31
0.0
  0
LINE
  5
130CAF
  8
DIM
 10
2150.0
 20
-3127.9999999999959
 30
0.0
 11
2228.479620594459
 21
-3127.9999999999959
 31
0.0
  0
LINE
  5
130CB0
  8
DIM
 10
2218.479620594459
 20
-3201.9999999999959
 30
0.0
 11
2218.479620594459
 21
-3147.9999999999959
 31
0.0
  0
INSERT
  5
130CB1
  8
DIM
  2
_OPEN30
 10
2218.479620594459
 20
-3221.9999999999959
 30
0.0
 41
20.0
 42
20.0
 43
20.0
 50
270.0
  0
INSERT
  5
130CB2
  8
DIM
  2
_OPEN30
 10
2218.479620594459
 20
-3127.9999999999959
 30
0.0
 41
20.0
 42
20.0
 43
20.0
 50
90.0
  0
INSERT
  5
130CB3
  8
OBJECT
  2
*U277
 10
0.0
 20
0.0
 30
0.0
  0
LINE
  5
130CB4
  8
DIM
 10
2150.0
 20
-3579.9999999999968
 30
0.0
 11
2226.8409284037339
 21
-3579.9999999999968
 31
0.0
  0
LINE
  5
130CB5
  8
DIM
 10
2165.0
 20
-3535.9999999999968
 30
0.0
 11
2226.8409284037339
 21
-3535.9999999999968
 31
0.0
  0
LINE
  5
130CB6
  8
DIM
 10
2216.840928403733
 20
-3599.9999999999968
 30
0.0
 11
2216.840928403733
 21
-3619.9999999999968
 31
0.0
  0
LINE
  5
130CB7
  8
DIM
 10
2216.840928403733
 20
-3515.9999999999968
 30
0.0
 11
2216.840928403733
 21
-3495.9999999999968
 31
0.0
  0
LINE
  5
130CB8
  8
DIM
 10
2216.840928403733
 20
-3579.9999999999968
 30
0.0
 11
2216.840928403733
 21
-3535.9999999999968
 31
0.0
  0
INSERT
  5
130CB9
  8
DIM
  2
_OPEN30
 10
2216.840928403733
 20
-3579.9999999999968
 30
0.0
 41
20.0
 42
20.0
 43
20.0
 50
90.0
  0
INSERT
  5
130CBA
  8
DIM
  2
_OPEN30
 10
2216.840928403733
 20
-3535.9999999999968
 30
0.0
 41
20.0
 42
20.0
 43
20.0
 50
270.0
  0
INSERT
  5
130CBB
  8
OBJECT
  2
*U278
 10
0.0
 20
0.0
 30
0.0
  0
LINE
  5
130CBC
  8
DIM
 10
2000.0
 20
-3069.9999999999959
 30
0.0
 11
2000.0
 21
-3037.208121984444
 31
0.0
  0
LINE
  5
130CBD
  8
DIM
 10
2140.0
 20
-3117.9999999999959
 30
0.0
 11
2140.0
 21
-3037.208121984444
 31
0.0
  0
LINE
  5
130CBE
  8
DIM
 10
2020.0
 20
-3047.208121984444
 30
0.0
 11
2120.0
 21
-3047.208121984444
 31
0.0
  0
INSERT
  5
130CBF
  8
DIM
  2
_OPEN30
 10
2000.0
 20
-3047.208121984444
 30
0.0
 41
20.0
 42
20.0
 43
20.0
 50
180.0
  0
INSERT
  5
130CC0
  8
DIM
  2
_OPEN30
 10
2140.0
 20
-3047.208121984444
 30
0.0
 41
20.0
 42
20.0
 43
20.0
  0
INSERT
  5
130CC1
  8
OBJECT
  2
*U279
 10
0.0
 20
0.0
 30
0.0
  0
TEXT
  5
130CC2
  8
SLIM
 10
2631.0
 20
-2952.50001604727
 30
0.0
 40
40.0
  1
C寸法
 41
0.75
  0
TEXT
  5
130CC3
  8
SLIM
 10
2631.0
 20
-2882.50001604727
 30
0.0
 40
40.0
  1
B寸法
 41
0.75
  0
TEXT
  5
130CC4
  8
SLIM
 10
2630.2857142857142
 20
-2812.50001604727
 30
0.0
 40
40.0
  1
A寸法
 41
0.75
  0
TEXT
  5
130CC5
  8
SLIM
 10
3159.2857142857151
 20
-2952.50001604727
 30
0.0
 40
40.0
  1
150
 41
0.75
  0
TEXT
  5
130CC6
  8
SLIM
 10
3029.2857142857151
 20
-2952.50001604727
 30
0.0
 40
40.0
  1
140
 41
0.75
  0
TEXT
  5
130CC7
  8
SLIM
 10
2769.2857142857151
 20
-2952.50001604727
 30
0.0
 40
40.0
  1
140
 41
0.75
  0
TEXT
  5
130CC8
  8
SLIM
 10
2899.2857142857151
 20
-2952.50001604727
 30
0.0
 40
40.0
  1
140
 41
0.75
  0
TEXT
  5
130CC9
  8
SLIM
 10
3170.7142857142858
 20
-2882.50001604727
 30
0.0
 40
40.0
  1
72
 41
0.75
  0
TEXT
  5
130CCA
  8
SLIM
 10
3041.4285714285711
 20
-2882.50001604727
 30
0.0
 40
40.0
  1
59
 41
0.75
  0
TEXT
  5
130CCB
  8
SLIM
 10
2780.0
 20
-2882.50001604727
 30
0.0
 40
40.0
  1
44
 41
0.75
  0
TEXT
  5
130CCC
  8
SLIM
 10
2910.7142857142858
 20
-2882.50001604727
 30
0.0
 40
40.0
  1
52
 41
0.75
  0
TEXT
  5
130CCD
  8
SLIM
 10
2891.0
 20
-2687.50001604727
 30
0.0
 40
40.0
  1
横枝管サイズ
 41
0.75
  0
TEXT
  5
130CCE
  8
SLIM
 10
3136.2857142857151
 20
-2742.50001604727
 30
0.0
 40
30.0
  1
100（4）
 41
0.75
  0
TEXT
  5
130CCF
  8
SLIM
 10
3014.857142857144
 20
-2742.50001604727
 30
0.0
 40
30.0
  1
75（3）
 41
0.75
  0
TEXT
  5
130CD0
  8
SLIM
 10
2884.8571428571431
 20
-2742.50001604727
 30
0.0
 40
30.0
  1
65（2）
 41
0.75
  0
TEXT
  5
130CD1
  8
SLIM
 10
2757.0
 20
-2742.50001604727
 30
0.0
 40
30.0
  1
50（1）
 41
0.75
  0
TEXT
  5
130CD2
  8
SLIM
 10
3159.2857142857151
 20
-2812.50001604727
 30
0.0
 40
40.0
  1
150
 41
0.75
  0
TEXT
  5
130CD3
  8
SLIM
 10
3028.571428571428
 20
-2812.50001604727
 30
0.0
 40
40.0
  1
124
 41
0.75
  0
TEXT
  5
130CD4
  8
SLIM
 10
2780.0
 20
-2812.50001604727
 30
0.0
 40
40.0
  1
94
 41
0.75
  0
TEXT
  5
130CD5
  8
SLIM
 10
2902.1428571428569
 20
-2812.50001604727
 30
0.0
 40
40.0
  1
110
 41
0.75
  0
TEXT
  5
130CD6
  8
SLIM
 10
1849.9999999999991
 20
-2712.5
 30
0.0
 40
75.0
  1
枝管サイズ毎の形状
 41
0.75
  0
LINE
  5
130CD7
  8
OBJECT
 10
5150.0
 20
-3432.9999999999968
 30
0.0
 11
5143.0
 21
-3432.9999999999968
 31
0.0
1001
ACDBBLOCKREPETAG
1070
     1
1071
       64
1005
130CD7
  0
LINE
  5
130CD8
  8
OBJECT
 10
5143.0
 20
-3432.9999999999968
 30
0.0
 11
5143.0
 21
-3579.9999999999968
 31
0.0
1001
ACDBBLOCKREPETAG
1070
     1
1071
       65
1005
130CD8
  0
LINE
  5
130CD9
  8
OBJECT
 10
5101.5
 20
-3435.9999999999968
 30
0.0
 11
5101.5
 21
-3579.9999999999968
 31
0.0
1001
ACDBBLOCKREPETAG
1070
     1
1071
       66
1005
130CD9
  0
LINE
  5
130CDA
  8
OBJECT
 10
5090.0
 20
-3442.4999999999968
 30
0.0
 11
5090.0
 21
-3573.4999999999968
 31
0.0
1001
ACDBBLOCKREPETAG
1070
     1
1071
       67
1005
130CDA
  0
LINE
  5
130CDB
  8
OBJECT
 10
5086.0
 20
-3514.5000000000041
 30
0.0
 11
5086.0
 21
-3579.9999999999968
 31
0.0
1001
ACDBBLOCKREPETAG
1070
     1
1071
       68
1005
130CDB
  0
LINE
  5
130CDC
  8
OBJECT
 10
5150.0
 20
-3579.9999999999968
 30
0.0
 11
5150.0
 21
-3432.9999999999968
 31
0.0
1001
ACDBBLOCKREPETAG
1070
     1
1071
       69
1005
130CDC
  0
LINE
  5
130CDD
  8
CENTER
 10
5165.0
 20
-3507.9999999999968
 30
0.0
 11
5070.4144144144157
 21
-3507.9999999999968
 31
0.0
1001
ACDBBLOCKREPETAG
1070
     1
1071
       70
1005
130CDD
  0
LINE
  5
130CDE
  8
OBJECT
 10
5083.0000000000045
 20
-3582.9999999999968
 30
0.0
 11
5080.0
 21
-3582.9999999999968
 31
0.0
1001
ACDBBLOCKREPETAG
1070
     1
1071
       71
1005
130CDE
  0
ARC
  5
130CDF
  8
OBJECT
 10
5091.8815171830656
 20
-3581.4555591801418
 30
0.0
 40
6.0
 50
60.52411099686767
 51
170.6927439126847
1001
ACDBBLOCKREPETAG
1070
     1
1071
       72
1005
130CDF
  0
ARC
  5
130CE0
  8
OBJECT
 10
5083.0
 20
-3579.9999999999968
 30
0.0
 40
3.0
 50
270.0
 51
350.69274391268482
1001
ACDBBLOCKREPETAG
1070
     1
1071
       73
1005
130CE0
  0
LINE
  5
130CE1
  8
OBJECT
 10
5081.0
 20
-3458.9999999999968
 30
0.0
 11
5080.0
 21
-3458.9999999999968
 31
0.0
1001
ACDBBLOCKREPETAG
1070
     1
1071
       74
1005
130CE1
  0
LINE
  5
130CE2
  8
OBJECT
 10
5150.0
 20
-3579.9999999999968
 30
0.0
 11
5101.5
 21
-3579.9999999999968
 31
0.0
1001
ACDBBLOCKREPETAG
1070
     1
1071
       75
1005
130CE2
  0
LINE
  5
130CE3
  8
OBJECT
 10
5101.5
 20
-3435.9999999999968
 30
0.0
 11
5090.0
 21
-3442.4999999999968
 31
0.0
1001
ACDBBLOCKREPETAG
1070
     1
1071
       76
1005
130CE3
  0
LINE
  5
130CE4
  8
OBJECT
 10
5143.0
 20
-3435.9999999999968
 30
0.0
 11
5101.5
 21
-3435.9999999999968
 31
0.0
1001
ACDBBLOCKREPETAG
1070
     1
1071
       77
1005
130CE4
  0
LINE
  5
130CE5
  8
OBJECT
 10
5086.0
 20
-3514.5000000000041
 30
0.0
 11
5081.0
 21
-3458.9999999999968
 31
0.0
1001
ACDBBLOCKREPETAG
1070
     1
1071
       78
1005
130CE5
  0
LINE
  5
130CE6
  8
OBJECT
 10
5090.0
 20
-3442.4999999999968
 30
0.0
 11
5081.0
 21
-3458.9999999999968
 31
0.0
1001
ACDBBLOCKREPETAG
1070
     1
1071
       79
1005
130CE6
  0
LINE
  5
130CE7
  8
OBJECT
 10
5101.5
 20
-3579.9999999999968
 30
0.0
 11
5094.8338607230708
 21
-3576.232182147819
 31
0.0
1001
ACDBBLOCKREPETAG
1070
     1
1071
       80
1005
130CE7
  0
LINE
  5
130CE8
  8
HIDDEN
 10
5098.0
 20
-3564.9999999999968
 30
0.0
 11
5098.0
 21
-3450.9999999999968
 31
0.0
1001
ACDBBLOCKREPETAG
1070
     1
1071
       81
1005
130CE8
  0
LINE
  5
130CE9
  8
OBJECT
 10
5150.0
 20
-3099.9999999999959
 30
0.0
 11
5143.0
 21
-3099.9999999999959
 31
0.0
1001
ACDBBLOCKREPETAG
1070
     1
1071
       67
1005
130CE9
  0
LINE
  5
130CEA
  8
OBJECT
 10
5143.0
 20
-3099.9999999999959
 30
0.0
 11
5143.0
 21
-3249.9999999999959
 31
0.0
1001
ACDBBLOCKREPETAG
1070
     1
1071
       68
1005
130CEA
  0
LINE
  5
130CEB
  8
OBJECT
 10
5101.5
 20
-3102.9999999999959
 30
0.0
 11
5101.5
 21
-3246.9999999999959
 31
0.0
1001
ACDBBLOCKREPETAG
1070
     1
1071
       69
1005
130CEB
  0
LINE
  5
130CEC
  8
OBJECT
 10
5090.0
 20
-3109.4999999999959
 30
0.0
 11
5090.0
 21
-3240.4999999999959
 31
0.0
1001
ACDBBLOCKREPETAG
1070
     1
1071
       70
1005
130CEC
  0
LINE
  5
130CED
  8
OBJECT
 10
5143.0
 20
-3249.9999999999959
 30
0.0
 11
5150.0
 21
-3249.9999999999959
 31
0.0
1001
ACDBBLOCKREPETAG
1070
     1
1071
       71
1005
130CED
  0
LINE
  5
130CEE
  8
OBJECT
 10
5150.0
 20
-3249.9999999999959
 30
0.0
 11
5150.0
 21
-3099.9999999999959
 31
0.0
1001
ACDBBLOCKREPETAG
1070
     1
1071
       72
1005
130CEE
  0
LINE
  5
130CEF
  8
HIDDEN
 10
5098.0
 20
-3231.9999999999959
 30
0.0
 11
5098.0
 21
-3117.9999999999959
 31
0.0
1001
ACDBBLOCKREPETAG
1070
     1
1071
       73
1005
130CEF
  0
LINE
  5
130CF0
  8
CENTER
 10
5165.0
 20
-3174.9999999999959
 30
0.0
 11
5080.0
 21
-3174.9999999999959
 31
0.0
1001
ACDBBLOCKREPETAG
1070
     1
1071
       74
1005
130CF0
  0
LINE
  5
130CF1
  8
OBJECT
 10
5086.0
 20
-3236.9999999999959
 30
0.0
 11
5080.0
 21
-3236.9999999999959
 31
0.0
1001
ACDBBLOCKREPETAG
1070
     1
1071
       75
1005
130CF1
  0
LINE
  5
130CF2
  8
OBJECT
 10
5143.0
 20
-3246.9999999999959
 30
0.0
 11
5101.5
 21
-3246.9999999999959
 31
0.0
1001
ACDBBLOCKREPETAG
1070
     1
1071
       76
1005
130CF2
  0
LINE
  5
130CF3
  8
OBJECT
 10
5101.5
 20
-3246.9999999999959
 30
0.0
 11
5090.0
 21
-3240.4999999999959
 31
0.0
1001
ACDBBLOCKREPETAG
1070
     1
1071
       77
1005
130CF3
  0
LINE
  5
130CF4
  8
OBJECT
 10
5090.0
 20
-3240.4999999999959
 30
0.0
 11
5086.0
 21
-3236.9999999999959
 31
0.0
1001
ACDBBLOCKREPETAG
1070
     1
1071
       78
1005
130CF4
  0
LINE
  5
130CF5
  8
OBJECT
 10
5101.5
 20
-3102.9999999999959
 30
0.0
 11
5090.0
 21
-3109.4999999999959
 31
0.0
1001
ACDBBLOCKREPETAG
1070
     1
1071
       79
1005
130CF5
  0
LINE
  5
130CF6
  8
OBJECT
 10
5090.0
 20
-3109.4999999999959
 30
0.0
 11
5086.0
 21
-3112.9999999999959
 31
0.0
1001
ACDBBLOCKREPETAG
1070
     1
1071
       80
1005
130CF6
  0
ARC
  5
130CF7
  8
OBJECT
 10
5467.9000000000005
 20
-3174.9999999999959
 30
0.0
 40
386.89999999999998
 50
170.77870136260421
 51
189.22129863739571
1001
ACDBBLOCKREPETAG
1070
     1
1071
       81
1005
130CF7
  0
LINE
  5
130CF8
  8
OBJECT
 10
5086.0
 20
-3112.9999999999959
 30
0.0
 11
5080.0
 21
-3112.9999999999959
 31
0.0
1001
ACDBBLOCKREPETAG
1070
     1
1071
       82
1005
130CF8
  0
LINE
  5
130CF9
  8
OBJECT
 10
5143.0
 20
-3102.9999999999959
 30
0.0
 11
5101.5
 21
-3102.9999999999959
 31
0.0
1001
ACDBBLOCKREPETAG
1070
     1
1071
       83
1005
130CF9
  0
TEXT
  5
130CFA
  8
SLIM
 10
4884.25
 20
-3697.4999999999959
 30
0.0
 40
35.0
  1
通常枝100（4）
 41
0.75
  0
LINE
  5
130CFB
  8
CENTER
 10
4477.0
 20
-3520.9999999999968
 30
0.0
 11
4323.0
 21
-3520.9999999999968
 31
0.0
1001
ACDBBLOCKREPETAG
1070
     1
1071
       17
1005
130CFB
  0
CIRCLE
  5
130CFC
  8
OBJECT
 10
4400.0
 20
-3520.9999999999968
 30
0.0
 40
41.5
1001
ACDBBLOCKREPETAG
1070
     1
1071
       19
1005
130CFC
  0
CIRCLE
  5
130CFD
  8
OBJECT
 10
4400.0
 20
-3520.9999999999968
 30
0.0
 40
54.0
1001
ACDBBLOCKREPETAG
1070
     1
1071
       20
1005
130CFD
  0
ARC
  5
130CFE
  8
OBJECT
 10
4400.0
 20
-3520.9999999999968
 30
0.0
 40
62.0
 50
287.89655112921122
 51
252.1034488707887
1001
ACDBBLOCKREPETAG
1070
     1
1071
       21
1005
130CFE
  0
LINE
  5
130CFF
  8
OBJECT
 10
4380.947441116743
 20
-3579.9999999999968
 30
0.0
 11
4419.052558883257
 21
-3579.9999999999968
 31
0.0
1001
ACDBBLOCKREPETAG
1070
     1
1071
       22
1005
130CFF
  0
LINE
  5
130D00
  8
OBJECT
 10
4133.0
 20
-3458.9999999999968
 30
0.0
 11
4140.0
 21
-3458.9999999999968
 31
0.0
1001
ACDBBLOCKREPETAG
1070
     1
1071
       45
1005
130D00
  0
LINE
  5
130D01
  8
OBJECT
 10
4140.0
 20
-3458.9999999999968
 30
0.0
 11
4140.0
 21
-3579.9999999999968
 31
0.0
1001
ACDBBLOCKREPETAG
1070
     1
1071
       46
1005
130D01
  0
LINE
  5
130D02
  8
OBJECT
 10
4133.0
 20
-3579.9999999999968
 30
0.0
 11
4133.0
 21
-3458.9999999999968
 31
0.0
1001
ACDBBLOCKREPETAG
1070
     1
1071
       47
1005
130D02
  0
LINE
  5
130D03
  8
CENTER
 10
4155.0
 20
-3520.9999999999968
 30
0.0
 11
4071.0
 21
-3520.9999999999968
 31
0.0
1001
ACDBBLOCKREPETAG
1070
     1
1071
       48
1005
130D03
  0
LINE
  5
130D04
  8
OBJECT
 10
4133.0
 20
-3461.9999999999968
 30
0.0
 11
4097.0
 21
-3461.9999999999968
 31
0.0
1001
ACDBBLOCKREPETAG
1070
     1
1071
       49
1005
130D04
  0
LINE
  5
130D05
  8
OBJECT
 10
4097.0
 20
-3461.9999999999968
 30
0.0
 11
4097.0
 21
-3579.9999999999968
 31
0.0
1001
ACDBBLOCKREPETAG
1070
     1
1071
       50
1005
130D05
  0
LINE
  5
130D06
  8
OBJECT
 10
4097.0
 20
-3579.9999999999968
 30
0.0
 11
4140.0
 21
-3579.9999999999968
 31
0.0
1001
ACDBBLOCKREPETAG
1070
     1
1071
       51
1005
130D06
  0
LINE
  5
130D07
  8
OBJECT
 10
4093.0
 20
-3466.4999999999968
 30
0.0
 11
4086.0
 21
-3466.4999999999968
 31
0.0
1001
ACDBBLOCKREPETAG
1070
     1
1071
       52
1005
130D07
  0
LINE
  5
130D08
  8
OBJECT
 10
4086.0
 20
-3575.4999999999968
 30
0.0
 11
4093.0
 21
-3575.4999999999968
 31
0.0
1001
ACDBBLOCKREPETAG
1070
     1
1071
       53
1005
130D08
  0
LINE
  5
130D09
  8
OBJECT
 10
4093.0
 20
-3575.4999999999968
 30
0.0
 11
4093.0
 21
-3466.4999999999968
 31
0.0
1001
ACDBBLOCKREPETAG
1070
     1
1071
       54
1005
130D09
  0
LINE
  5
130D0A
  8
OBJECT
 10
4097.0
 20
-3461.9999999999968
 30
0.0
 11
4093.0
 21
-3466.4999999999968
 31
0.0
1001
ACDBBLOCKREPETAG
1070
     1
1071
       55
1005
130D0A
  0
LINE
  5
130D0B
  8
OBJECT
 10
4097.0
 20
-3579.9999999999968
 30
0.0
 11
4093.0
 21
-3575.4999999999968
 31
0.0
1001
ACDBBLOCKREPETAG
1070
     1
1071
       56
1005
130D0B
  0
LINE
  5
130D0C
  8
OBJECT
 10
4083.0
 20
-3458.9999999999968
 30
0.0
 11
4080.0
 21
-3458.9999999999968
 31
0.0
1001
ACDBBLOCKREPETAG
1070
     1
1071
       57
1005
130D0C
  0
ARC
  5
130D0D
  8
OBJECT
 10
4083.0
 20
-3461.9999999999968
 30
0.0
 40
3.0
 50
0.0
 51
90.0
1001
ACDBBLOCKREPETAG
1070
     1
1071
       58
1005
130D0D
  0
LINE
  5
130D0E
  8
OBJECT
 10
4080.0
 20
-3582.9999999999968
 30
0.0
 11
4083.0
 21
-3582.9999999999968
 31
0.0
1001
ACDBBLOCKREPETAG
1070
     1
1071
       59
1005
130D0E
  0
ARC
  5
130D0F
  8
OBJECT
 10
4083.0
 20
-3579.9999999999968
 30
0.0
 40
3.0
 50
270.0
 51
0.0
1001
ACDBBLOCKREPETAG
1070
     1
1071
       60
1005
130D0F
  0
LINE
  5
130D10
  8
OBJECT
 10
4086.0
 20
-3579.9999999999968
 30
0.0
 11
4086.0
 21
-3461.9999999999968
 31
0.0
1001
ACDBBLOCKREPETAG
1070
     1
1071
       61
1005
130D10
  0
LINE
  5
130D11
  8
HIDDEN
 10
4088.0
 20
-3476.4999999999968
 30
0.0
 11
4088.0
 21
-3565.4999999999968
 31
0.0
1001
ACDBBLOCKREPETAG
1070
     1
1071
       63
1005
130D11
  0
LINE
  5
130D12
  8
OBJECT
 10
4133.0
 20
-3112.9999999999959
 30
0.0
 11
4140.0
 21
-3112.9999999999959
 31
0.0
1001
ACDBBLOCKREPETAG
1070
     1
1071
       47
1005
130D12
  0
LINE
  5
130D13
  8
OBJECT
 10
4140.0
 20
-3112.9999999999959
 30
0.0
 11
4140.0
 21
-3236.9999999999959
 31
0.0
1001
ACDBBLOCKREPETAG
1070
     1
1071
       48
1005
130D13
  0
LINE
  5
130D14
  8
OBJECT
 10
4140.0
 20
-3236.9999999999959
 30
0.0
 11
4133.0
 21
-3236.9999999999959
 31
0.0
1001
ACDBBLOCKREPETAG
1070
     1
1071
       49
1005
130D14
  0
LINE
  5
130D15
  8
OBJECT
 10
4133.0
 20
-3236.9999999999959
 30
0.0
 11
4133.0
 21
-3112.9999999999959
 31
0.0
1001
ACDBBLOCKREPETAG
1070
     1
1071
       50
1005
130D15
  0
LINE
  5
130D16
  8
CENTER
 10
4155.0
 20
-3174.9999999999959
 30
0.0
 11
4080.0
 21
-3174.9999999999959
 31
0.0
1001
ACDBBLOCKREPETAG
1070
     1
1071
       51
1005
130D16
  0
LINE
  5
130D17
  8
OBJECT
 10
4133.0
 20
-3115.9999999999959
 30
0.0
 11
4097.0
 21
-3115.9999999999959
 31
0.0
1001
ACDBBLOCKREPETAG
1070
     1
1071
       52
1005
130D17
  0
LINE
  5
130D18
  8
OBJECT
 10
4097.0
 20
-3115.9999999999959
 30
0.0
 11
4097.0
 21
-3233.9999999999959
 31
0.0
1001
ACDBBLOCKREPETAG
1070
     1
1071
       53
1005
130D18
  0
LINE
  5
130D19
  8
OBJECT
 10
4097.0
 20
-3233.9999999999959
 30
0.0
 11
4133.0
 21
-3233.9999999999959
 31
0.0
1001
ACDBBLOCKREPETAG
1070
     1
1071
       54
1005
130D19
  0
LINE
  5
130D1A
  8
OBJECT
 10
4093.0
 20
-3120.4999999999959
 30
0.0
 11
4086.0
 21
-3120.4999999999959
 31
0.0
1001
ACDBBLOCKREPETAG
1070
     1
1071
       55
1005
130D1A
  0
LINE
  5
130D1B
  8
OBJECT
 10
4086.0
 20
-3229.4999999999959
 30
0.0
 11
4093.0
 21
-3229.4999999999959
 31
0.0
1001
ACDBBLOCKREPETAG
1070
     1
1071
       56
1005
130D1B
  0
LINE
  5
130D1C
  8
OBJECT
 10
4093.0
 20
-3229.4999999999959
 30
0.0
 11
4093.0
 21
-3120.4999999999959
 31
0.0
1001
ACDBBLOCKREPETAG
1070
     1
1071
       57
1005
130D1C
  0
LINE
  5
130D1D
  8
OBJECT
 10
4097.0
 20
-3115.9999999999959
 30
0.0
 11
4093.0
 21
-3120.4999999999959
 31
0.0
1001
ACDBBLOCKREPETAG
1070
     1
1071
       58
1005
130D1D
  0
LINE
  5
130D1E
  8
OBJECT
 10
4097.0
 20
-3233.9999999999959
 30
0.0
 11
4093.0
 21
-3229.4999999999959
 31
0.0
1001
ACDBBLOCKREPETAG
1070
     1
1071
       59
1005
130D1E
  0
LINE
  5
130D1F
  8
OBJECT
 10
4083.0
 20
-3112.9999999999959
 30
0.0
 11
4080.0
 21
-3112.9999999999959
 31
0.0
1001
ACDBBLOCKREPETAG
1070
     1
1071
       60
1005
130D1F
  0
ARC
  5
130D20
  8
OBJECT
 10
4083.0
 20
-3115.9999999999959
 30
0.0
 40
3.0
 50
0.0
 51
90.0
1001
ACDBBLOCKREPETAG
1070
     1
1071
       61
1005
130D20
  0
LINE
  5
130D21
  8
OBJECT
 10
4080.0
 20
-3236.9999999999959
 30
0.0
 11
4083.0
 21
-3236.9999999999959
 31
0.0
1001
ACDBBLOCKREPETAG
1070
     1
1071
       62
1005
130D21
  0
ARC
  5
130D22
  8
OBJECT
 10
4083.0
 20
-3233.9999999999959
 30
0.0
 40
3.0
 50
270.0
 51
0.0
1001
ACDBBLOCKREPETAG
1070
     1
1071
       63
1005
130D22
  0
LINE
  5
130D23
  8
OBJECT
 10
4086.0
 20
-3233.9999999999959
 30
0.0
 11
4086.0
 21
-3115.9999999999959
 31
0.0
1001
ACDBBLOCKREPETAG
1070
     1
1071
       64
1005
130D23
  0
LINE
  5
130D24
  8
HIDDEN
 10
4088.0
 20
-3130.4999999999959
 30
0.0
 11
4088.0
 21
-3219.4999999999959
 31
0.0
1001
ACDBBLOCKREPETAG
1070
     1
1071
       65
1005
130D24
  0
TEXT
  5
130D25
  8
SLIM
 10
3894.25
 20
-3697.4999999999959
 30
0.0
 40
35.0
  1
通常枝75（3）
 41
0.75
  0
CIRCLE
  5
130D26
  8
OBJECT
 10
3400.0
 20
-3527.9999999999968
 30
0.0
 40
35.5
1001
ACDBBLOCKREPETAG
1070
     1
1071
       10
1005
130D26
  0
CIRCLE
  5
130D27
  8
OBJECT
 10
3400.0
 20
-3520.9999999999968
 30
0.0
 40
62.0
1001
ACDBBLOCKREPETAG
1070
     1
1071
       11
1005
130D27
  0
LINE
  5
130D28
  8
CENTER
 10
3330.0
 20
-3527.9999999999968
 30
0.0
 11
3470.0
 21
-3527.9999999999968
 31
0.0
1001
ACDBBLOCKREPETAG
1070
     1
1071
       12
1005
130D28
  0
CIRCLE
  5
130D29
  8
OBJECT
 10
3400.0
 20
-3527.9999999999968
 30
0.0
 40
47.0
1001
ACDBBLOCKREPETAG
1070
     1
1071
       14
1005
130D29
  0
ARC
  5
130D2A
  8
OBJECT
 10
3400.0
 20
-3527.9999999999968
 30
0.0
 40
55.0
 50
289.01126526011359
 51
250.98873473988641
1001
ACDBBLOCKREPETAG
1070
     1
1071
       15
1005
130D2A
  0
LINE
  5
130D2B
  8
OBJECT
 10
3382.0835271328328
 20
-3579.9999999999968
 30
0.0
 11
3417.9164728671681
 21
-3579.9999999999968
 31
0.0
1001
ACDBBLOCKREPETAG
1070
     1
1071
       16
1005
130D2B
  0
LINE
  5
130D2C
  8
OBJECT
 10
3133.0
 20
-3472.9999999999968
 30
0.0
 11
3140.0
 21
-3472.9999999999968
 31
0.0
1001
ACDBBLOCKREPETAG
1070
     1
1071
       26
1005
130D2C
  0
LINE
  5
130D2D
  8
OBJECT
 10
3140.0
 20
-3472.9999999999968
 30
0.0
 11
3140.0
 21
-3579.9999999999968
 31
0.0
1001
ACDBBLOCKREPETAG
1070
     1
1071
       27
1005
130D2D
  0
LINE
  5
130D2E
  8
OBJECT
 10
3133.0
 20
-3579.9999999999968
 30
0.0
 11
3133.0
 21
-3472.9999999999968
 31
0.0
1001
ACDBBLOCKREPETAG
1070
     1
1071
       28
1005
130D2E
  0
LINE
  5
130D2F
  8
CENTER
 10
3155.0
 20
-3527.9999999999968
 30
0.0
 11
3071.0
 21
-3527.9999999999968
 31
0.0
1001
ACDBBLOCKREPETAG
1070
     1
1071
       29
1005
130D2F
  0
LINE
  5
130D30
  8
OBJECT
 10
3133.0
 20
-3475.9999999999968
 30
0.0
 11
3097.0
 21
-3475.9999999999968
 31
0.0
1001
ACDBBLOCKREPETAG
1070
     1
1071
       30
1005
130D30
  0
LINE
  5
130D31
  8
OBJECT
 10
3097.0
 20
-3475.9999999999968
 30
0.0
 11
3097.0
 21
-3579.9999999999968
 31
0.0
1001
ACDBBLOCKREPETAG
1070
     1
1071
       31
1005
130D31
  0
LINE
  5
130D32
  8
OBJECT
 10
3097.0
 20
-3579.9999999999968
 30
0.0
 11
3140.0
 21
-3579.9999999999968
 31
0.0
1001
ACDBBLOCKREPETAG
1070
     1
1071
       32
1005
130D32
  0
LINE
  5
130D33
  8
OBJECT
 10
3093.0
 20
-3480.4999999999968
 30
0.0
 11
3086.0
 21
-3480.4999999999968
 31
0.0
1001
ACDBBLOCKREPETAG
1070
     1
1071
       33
1005
130D33
  0
LINE
  5
130D34
  8
OBJECT
 10
3086.0
 20
-3575.4999999999968
 30
0.0
 11
3093.0
 21
-3575.4999999999968
 31
0.0
1001
ACDBBLOCKREPETAG
1070
     1
1071
       34
1005
130D34
  0
LINE
  5
130D35
  8
OBJECT
 10
3093.0
 20
-3575.4999999999968
 30
0.0
 11
3093.0
 21
-3480.4999999999968
 31
0.0
1001
ACDBBLOCKREPETAG
1070
     1
1071
       35
1005
130D35
  0
LINE
  5
130D36
  8
OBJECT
 10
3097.0
 20
-3475.9999999999968
 30
0.0
 11
3093.0
 21
-3480.4999999999968
 31
0.0
1001
ACDBBLOCKREPETAG
1070
     1
1071
       36
1005
130D36
  0
LINE
  5
130D37
  8
OBJECT
 10
3097.0
 20
-3579.9999999999968
 30
0.0
 11
3093.0
 21
-3575.4999999999968
 31
0.0
1001
ACDBBLOCKREPETAG
1070
     1
1071
       37
1005
130D37
  0
LINE
  5
130D38
  8
OBJECT
 10
3083.0
 20
-3458.9999999999968
 30
0.0
 11
3080.0
 21
-3458.9999999999968
 31
0.0
1001
ACDBBLOCKREPETAG
1070
     1
1071
       38
1005
130D38
  0
ARC
  5
130D39
  8
OBJECT
 10
3083.0
 20
-3461.9999999999968
 30
0.0
 40
3.0
 50
0.0
 51
90.0
1001
ACDBBLOCKREPETAG
1070
     1
1071
       39
1005
130D39
  0
LINE
  5
130D3A
  8
OBJECT
 10
3080.0
 20
-3582.9999999999968
 30
0.0
 11
3083.0
 21
-3582.9999999999968
 31
0.0
1001
ACDBBLOCKREPETAG
1070
     1
1071
       40
1005
130D3A
  0
ARC
  5
130D3B
  8
OBJECT
 10
3083.0
 20
-3579.9999999999968
 30
0.0
 40
3.0
 50
270.0
 51
0.0
1001
ACDBBLOCKREPETAG
1070
     1
1071
       41
1005
130D3B
  0
LINE
  5
130D3C
  8
OBJECT
 10
3086.0
 20
-3579.9999999999968
 30
0.0
 11
3086.0
 21
-3461.9999999999968
 31
0.0
1001
ACDBBLOCKREPETAG
1070
     1
1071
       42
1005
130D3C
  0
LINE
  5
130D3D
  8
HIDDEN
 10
3088.0
 20
-3489.9999999999968
 30
0.0
 11
3088.0
 21
-3565.9999999999968
 31
0.0
1001
ACDBBLOCKREPETAG
1070
     1
1071
       43
1005
130D3D
  0
LINE
  5
130D3E
  8
OBJECT
 10
3133.0
 20
-3119.9999999999959
 30
0.0
 11
3140.0
 21
-3119.9999999999959
 31
0.0
1001
ACDBBLOCKREPETAG
1070
     1
1071
       27
1005
130D3E
  0
LINE
  5
130D3F
  8
OBJECT
 10
3140.0
 20
-3119.9999999999959
 30
0.0
 11
3140.0
 21
-3229.9999999999959
 31
0.0
1001
ACDBBLOCKREPETAG
1070
     1
1071
       28
1005
130D3F
  0
LINE
  5
130D40
  8
OBJECT
 10
3140.0
 20
-3229.9999999999959
 30
0.0
 11
3133.0
 21
-3229.9999999999959
 31
0.0
1001
ACDBBLOCKREPETAG
1070
     1
1071
       29
1005
130D40
  0
LINE
  5
130D41
  8
OBJECT
 10
3133.0
 20
-3229.9999999999959
 30
0.0
 11
3133.0
 21
-3119.9999999999959
 31
0.0
1001
ACDBBLOCKREPETAG
1070
     1
1071
       30
1005
130D41
  0
LINE
  5
130D42
  8
CENTER
 10
3155.0
 20
-3174.9999999999959
 30
0.0
 11
3080.0
 21
-3174.9999999999959
 31
0.0
1001
ACDBBLOCKREPETAG
1070
     1
1071
       31
1005
130D42
  0
LINE
  5
130D43
  8
OBJECT
 10
3133.0
 20
-3122.9999999999959
 30
0.0
 11
3097.0
 21
-3122.9999999999959
 31
0.0
1001
ACDBBLOCKREPETAG
1070
     1
1071
       32
1005
130D43
  0
LINE
  5
130D44
  8
OBJECT
 10
3097.0
 20
-3122.9999999999959
 30
0.0
 11
3097.0
 21
-3226.9999999999959
 31
0.0
1001
ACDBBLOCKREPETAG
1070
     1
1071
       33
1005
130D44
  0
LINE
  5
130D45
  8
OBJECT
 10
3097.0
 20
-3226.9999999999959
 30
0.0
 11
3133.0
 21
-3226.9999999999959
 31
0.0
1001
ACDBBLOCKREPETAG
1070
     1
1071
       34
1005
130D45
  0
LINE
  5
130D46
  8
OBJECT
 10
3093.0
 20
-3127.4999999999959
 30
0.0
 11
3086.0
 21
-3127.4999999999959
 31
0.0
1001
ACDBBLOCKREPETAG
1070
     1
1071
       35
1005
130D46
  0
LINE
  5
130D47
  8
OBJECT
 10
3086.0
 20
-3222.4999999999959
 30
0.0
 11
3093.0
 21
-3222.4999999999959
 31
0.0
1001
ACDBBLOCKREPETAG
1070
     1
1071
       36
1005
130D47
  0
LINE
  5
130D48
  8
OBJECT
 10
3093.0
 20
-3222.4999999999959
 30
0.0
 11
3093.0
 21
-3127.4999999999959
 31
0.0
1001
ACDBBLOCKREPETAG
1070
     1
1071
       37
1005
130D48
  0
LINE
  5
130D49
  8
OBJECT
 10
3097.0
 20
-3122.9999999999959
 30
0.0
 11
3093.0
 21
-3127.4999999999959
 31
0.0
1001
ACDBBLOCKREPETAG
1070
     1
1071
       38
1005
130D49
  0
LINE
  5
130D4A
  8
OBJECT
 10
3097.0
 20
-3226.9999999999959
 30
0.0
 11
3093.0
 21
-3222.4999999999959
 31
0.0
1001
ACDBBLOCKREPETAG
1070
     1
1071
       39
1005
130D4A
  0
LINE
  5
130D4B
  8
OBJECT
 10
3083.0
 20
-3112.9999999999959
 30
0.0
 11
3080.0
 21
-3112.9999999999959
 31
0.0
1001
ACDBBLOCKREPETAG
1070
     1
1071
       40
1005
130D4B
  0
ARC
  5
130D4C
  8
OBJECT
 10
3083.0
 20
-3115.9999999999959
 30
0.0
 40
3.0
 50
0.0
 51
90.0
1001
ACDBBLOCKREPETAG
1070
     1
1071
       41
1005
130D4C
  0
LINE
  5
130D4D
  8
OBJECT
 10
3080.0
 20
-3236.9999999999959
 30
0.0
 11
3083.0
 21
-3236.9999999999959
 31
0.0
1001
ACDBBLOCKREPETAG
1070
     1
1071
       42
1005
130D4D
  0
ARC
  5
130D4E
  8
OBJECT
 10
3083.0
 20
-3233.9999999999959
 30
0.0
 40
3.0
 50
270.0
 51
0.0
1001
ACDBBLOCKREPETAG
1070
     1
1071
       43
1005
130D4E
  0
LINE
  5
130D4F
  8
OBJECT
 10
3086.0
 20
-3233.9999999999959
 30
0.0
 11
3086.0
 21
-3115.9999999999959
 31
0.0
1001
ACDBBLOCKREPETAG
1070
     1
1071
       44
1005
130D4F
  0
LINE
  5
130D50
  8
HIDDEN
 10
3088.0
 20
-3136.9999999999959
 30
0.0
 11
3088.0
 21
-3212.9999999999959
 31
0.0
1001
ACDBBLOCKREPETAG
1070
     1
1071
       45
1005
130D50
  0
TEXT
  5
130D51
  8
SLIM
 10
2894.25
 20
-3697.4999999999959
 30
0.0
 40
35.0
  1
通常枝65（2）
 41
0.75
  0
CIRCLE
  5
130D52
  8
OBJECT
 10
2400.0
 20
-3520.9999999999968
 30
0.0
 40
62.0
1001
ACDBBLOCKREPETAG
1070
     1
1071
        3
1005
130D52
  0
LINE
  5
130D53
  8
CENTER
 10
2338.0
 20
-3535.9999999999968
 30
0.0
 11
2462.0
 21
-3535.9999999999968
 31
0.0
1001
ACDBBLOCKREPETAG
1070
     1
1071
        4
1005
130D53
  0
CIRCLE
  5
130D54
  8
OBJECT
 10
2400.0
 20
-3535.9999999999968
 30
0.0
 40
28.0
1001
ACDBBLOCKREPETAG
1070
     1
1071
        6
1005
130D54
  0
CIRCLE
  5
130D55
  8
OBJECT
 10
2400.0
 20
-3535.9999999999968
 30
0.0
 40
39.0
1001
ACDBBLOCKREPETAG
1070
     1
1071
        7
1005
130D55
  0
ARC
  5
130D56
  8
OBJECT
 10
2400.0
 20
-3535.9999999999968
 30
0.0
 40
47.0
 50
290.58196921144412
 51
249.41803078855591
1001
ACDBBLOCKREPETAG
1070
     1
1071
        8
1005
130D56
  0
LINE
  5
130D57
  8
OBJECT
 10
2383.4772883581431
 20
-3579.9999999999968
 30
0.0
 11
2416.5227116418569
 21
-3579.9999999999968
 31
0.0
1001
ACDBBLOCKREPETAG
1070
     1
1071
        9
1005
130D57
  0
LINE
  5
130D58
  8
OBJECT
 10
2133.0
 20
-3488.9999999999968
 30
0.0
 11
2140.0
 21
-3488.9999999999968
 31
0.0
1001
ACDBBLOCKREPETAG
1070
     1
1071
        7
1005
130D58
  0
LINE
  5
130D59
  8
OBJECT
 10
2140.0
 20
-3488.9999999999968
 30
0.0
 11
2140.0
 21
-3579.9999999999968
 31
0.0
1001
ACDBBLOCKREPETAG
1070
     1
1071
        8
1005
130D59
  0
LINE
  5
130D5A
  8
OBJECT
 10
2133.0
 20
-3579.9999999999968
 30
0.0
 11
2133.0
 21
-3488.9999999999968
 31
0.0
1001
ACDBBLOCKREPETAG
1070
     1
1071
        9
1005
130D5A
  0
LINE
  5
130D5B
  8
CENTER
 10
2155.0
 20
-3535.9999999999968
 30
0.0
 11
2071.0
 21
-3535.9999999999968
 31
0.0
1001
ACDBBLOCKREPETAG
1070
     1
1071
       10
1005
130D5B
  0
LINE
  5
130D5C
  8
OBJECT
 10
2133.0
 20
-3491.9999999999968
 30
0.0
 11
2097.0
 21
-3491.9999999999968
 31
0.0
1001
ACDBBLOCKREPETAG
1070
     1
1071
       11
1005
130D5C
  0
LINE
  5
130D5D
  8
OBJECT
 10
2097.0
 20
-3491.9999999999968
 30
0.0
 11
2097.0
 21
-3579.9999999999968
 31
0.0
1001
ACDBBLOCKREPETAG
1070
     1
1071
       12
1005
130D5D
  0
LINE
  5
130D5E
  8
OBJECT
 10
2097.0
 20
-3579.9999999999968
 30
0.0
 11
2140.0
 21
-3579.9999999999968
 31
0.0
1001
ACDBBLOCKREPETAG
1070
     1
1071
       13
1005
130D5E
  0
LINE
  5
130D5F
  8
OBJECT
 10
2093.0
 20
-3496.4999999999968
 30
0.0
 11
2086.0
 21
-3496.4999999999968
 31
0.0
1001
ACDBBLOCKREPETAG
1070
     1
1071
       14
1005
130D5F
  0
LINE
  5
130D60
  8
OBJECT
 10
2086.0
 20
-3575.4999999999968
 30
0.0
 11
2093.0
 21
-3575.4999999999968
 31
0.0
1001
ACDBBLOCKREPETAG
1070
     1
1071
       15
1005
130D60
  0
LINE
  5
130D61
  8
OBJECT
 10
2093.0
 20
-3575.4999999999968
 30
0.0
 11
2093.0
 21
-3496.4999999999968
 31
0.0
1001
ACDBBLOCKREPETAG
1070
     1
1071
       16
1005
130D61
  0
LINE
  5
130D62
  8
OBJECT
 10
2097.0
 20
-3491.9999999999968
 30
0.0
 11
2093.0
 21
-3496.4999999999968
 31
0.0
1001
ACDBBLOCKREPETAG
1070
     1
1071
       17
1005
130D62
  0
LINE
  5
130D63
  8
OBJECT
 10
2097.0
 20
-3579.9999999999968
 30
0.0
 11
2093.0
 21
-3575.4999999999968
 31
0.0
1001
ACDBBLOCKREPETAG
1070
     1
1071
       18
1005
130D63
  0
LINE
  5
130D64
  8
OBJECT
 10
2083.0
 20
-3458.9999999999968
 30
0.0
 11
2080.0
 21
-3458.9999999999968
 31
0.0
1001
ACDBBLOCKREPETAG
1070
     1
1071
       19
1005
130D64
  0
ARC
  5
130D65
  8
OBJECT
 10
2083.0
 20
-3461.9999999999968
 30
0.0
 40
3.0
 50
0.0
 51
90.0
1001
ACDBBLOCKREPETAG
1070
     1
1071
       20
1005
130D65
  0
LINE
  5
130D66
  8
OBJECT
 10
2080.0
 20
-3582.9999999999968
 30
0.0
 11
2083.0
 21
-3582.9999999999968
 31
0.0
1001
ACDBBLOCKREPETAG
1070
     1
1071
       21
1005
130D66
  0
ARC
  5
130D67
  8
OBJECT
 10
2083.0
 20
-3579.9999999999968
 30
0.0
 40
3.0
 50
270.0
 51
0.0
1001
ACDBBLOCKREPETAG
1070
     1
1071
       22
1005
130D67
  0
LINE
  5
130D68
  8
OBJECT
 10
2086.0
 20
-3579.9999999999968
 30
0.0
 11
2086.0
 21
-3461.9999999999968
 31
0.0
1001
ACDBBLOCKREPETAG
1070
     1
1071
       23
1005
130D68
  0
LINE
  5
130D69
  8
HIDDEN
 10
2088.0
 20
-3505.9999999999968
 30
0.0
 11
2088.0
 21
-3565.9999999999968
 31
0.0
1001
ACDBBLOCKREPETAG
1070
     1
1071
       24
1005
130D69
  0
LINE
  5
130D6A
  8
OBJECT
 10
2133.0
 20
-3127.9999999999959
 30
0.0
 11
2140.0
 21
-3127.9999999999959
 31
0.0
1001
ACDBBLOCKREPETAG
1070
     1
1071
        7
1005
130D6A
  0
LINE
  5
130D6B
  8
OBJECT
 10
2140.0
 20
-3127.9999999999959
 30
0.0
 11
2140.0
 21
-3221.9999999999959
 31
0.0
1001
ACDBBLOCKREPETAG
1070
     1
1071
        8
1005
130D6B
  0
LINE
  5
130D6C
  8
OBJECT
 10
2140.0
 20
-3221.9999999999959
 30
0.0
 11
2133.0
 21
-3221.9999999999959
 31
0.0
1001
ACDBBLOCKREPETAG
1070
     1
1071
        9
1005
130D6C
  0
LINE
  5
130D6D
  8
OBJECT
 10
2133.0
 20
-3221.9999999999959
 30
0.0
 11
2133.0
 21
-3127.9999999999959
 31
0.0
1001
ACDBBLOCKREPETAG
1070
     1
1071
       10
1005
130D6D
  0
LINE
  5
130D6E
  8
CENTER
 10
2155.0
 20
-3174.9999999999959
 30
0.0
 11
2080.0
 21
-3174.9999999999959
 31
0.0
1001
ACDBBLOCKREPETAG
1070
     1
1071
       11
1005
130D6E
  0
LINE
  5
130D6F
  8
OBJECT
 10
2133.0
 20
-3130.9999999999959
 30
0.0
 11
2097.0
 21
-3130.9999999999959
 31
0.0
1001
ACDBBLOCKREPETAG
1070
     1
1071
       12
1005
130D6F
  0
LINE
  5
130D70
  8
OBJECT
 10
2097.0
 20
-3130.9999999999959
 30
0.0
 11
2097.0
 21
-3218.9999999999959
 31
0.0
1001
ACDBBLOCKREPETAG
1070
     1
1071
       13
1005
130D70
  0
LINE
  5
130D71
  8
OBJECT
 10
2097.0
 20
-3218.9999999999959
 30
0.0
 11
2133.0
 21
-3218.9999999999959
 31
0.0
1001
ACDBBLOCKREPETAG
1070
     1
1071
       14
1005
130D71
  0
LINE
  5
130D72
  8
OBJECT
 10
2093.0
 20
-3135.4999999999959
 30
0.0
 11
2086.0
 21
-3135.4999999999959
 31
0.0
1001
ACDBBLOCKREPETAG
1070
     1
1071
       15
1005
130D72
  0
LINE
  5
130D73
  8
OBJECT
 10
2086.0
 20
-3214.4999999999959
 30
0.0
 11
2093.0
 21
-3214.4999999999959
 31
0.0
1001
ACDBBLOCKREPETAG
1070
     1
1071
       16
1005
130D73
  0
LINE
  5
130D74
  8
OBJECT
 10
2093.0
 20
-3214.4999999999959
 30
0.0
 11
2093.0
 21
-3135.4999999999959
 31
0.0
1001
ACDBBLOCKREPETAG
1070
     1
1071
       17
1005
130D74
  0
LINE
  5
130D75
  8
OBJECT
 10
2097.0
 20
-3130.9999999999959
 30
0.0
 11
2093.0
 21
-3135.4999999999959
 31
0.0
1001
ACDBBLOCKREPETAG
1070
     1
1071
       18
1005
130D75
  0
LINE
  5
130D76
  8
OBJECT
 10
2097.0
 20
-3218.9999999999959
 30
0.0
 11
2093.0
 21
-3214.4999999999959
 31
0.0
1001
ACDBBLOCKREPETAG
1070
     1
1071
       19
1005
130D76
  0
LINE
  5
130D77
  8
OBJECT
 10
2083.0
 20
-3112.9999999999959
 30
0.0
 11
2080.0
 21
-3112.9999999999959
 31
0.0
1001
ACDBBLOCKREPETAG
1070
     1
1071
       20
1005
130D77
  0
ARC
  5
130D78
  8
OBJECT
 10
2083.0
 20
-3115.9999999999959
 30
0.0
 40
3.0
 50
0.0
 51
90.0
1001
ACDBBLOCKREPETAG
1070
     1
1071
       21
1005
130D78
  0
LINE
  5
130D79
  8
OBJECT
 10
2080.0
 20
-3236.9999999999959
 30
0.0
 11
2083.0
 21
-3236.9999999999959
 31
0.0
1001
ACDBBLOCKREPETAG
1070
     1
1071
       22
1005
130D79
  0
ARC
  5
130D7A
  8
OBJECT
 10
2083.0
 20
-3233.9999999999959
 30
0.0
 40
3.0
 50
270.0
 51
0.0
1001
ACDBBLOCKREPETAG
1070
     1
1071
       23
1005
130D7A
  0
LINE
  5
130D7B
  8
OBJECT
 10
2086.0
 20
-3233.9999999999959
 30
0.0
 11
2086.0
 21
-3115.9999999999959
 31
0.0
1001
ACDBBLOCKREPETAG
1070
     1
1071
       24
1005
130D7B
  0
LINE
  5
130D7C
  8
HIDDEN
 10
2088.0
 20
-3144.9999999999959
 30
0.0
 11
2088.0
 21
-3204.9999999999959
 31
0.0
1001
ACDBBLOCKREPETAG
1070
     1
1071
       25
1005
130D7C
  0
TEXT
  5
130D7D
  8
SLIM
 10
1896.75
 20
-3697.4999999999959
 30
0.0
 40
35.0
  1
通常枝50（1）
 41
0.75
  0
LINE
  5
130D7E
  8
OBJECT
 10
3930.0
 20
-1079.999999999997
 30
0.0
 11
4070.0
 21
-1079.999999999997
 31
0.0
1001
ACDBBLOCKREPETAG
1070
     1
1071
        0
1005
130D7E
  0
LINE
  5
130D7F
  8
OBJECT
 10
3930.0
 20
-1079.999999999997
 30
0.0
 11
3930.0
 21
-839.99999999999704
 31
0.0
1001
ACDBBLOCKREPETAG
1070
     1
1071
        1
1005
130D7F
  0
LINE
  5
130D80
  8
OBJECT
 10
4070.0
 20
-1079.999999999997
 30
0.0
 11
4070.0
 21
-839.99999999999704
 31
0.0
1001
ACDBBLOCKREPETAG
1070
     1
1071
        2
1005
130D80
  0
LINE
  5
130D81
  8
OBJECT
 10
3930.0
 20
-839.99999999999704
 30
0.0
 11
4070.0
 21
-839.99999999999704
 31
0.0
1001
ACDBBLOCKREPETAG
1070
     1
1071
        3
1005
130D81
  0
LINE
  5
130D82
  8
HIDDEN
 10
3937.5
 20
-839.99999999999704
 30
0.0
 11
3937.5
 21
-1079.999999999997
 31
0.0
1001
ACDBBLOCKREPETAG
1070
     1
1071
        4
1005
130D82
  0
LINE
  5
130D83
  8
HIDDEN
 10
4062.5
 20
-839.99999999999704
 30
0.0
 11
4062.5
 21
-1079.999999999997
 31
0.0
1001
ACDBBLOCKREPETAG
1070
     1
1071
        5
1005
130D83
  0
LINE
  5
130D84
  8
CENTER
 10
4000.0
 20
-769.99999999999875
 30
0.0
 11
4000.0
 21
-1094.999999999997
 31
0.0
1001
ACDBBLOCKREPETAG
1070
     1
1071
        6
1005
130D84
  0
LINE
  5
130D85
  8
OBJECT
 10
3925.0
 20
-769.99999999999875
 30
0.0
 11
3925.0
 21
-799.99999999999693
 31
0.0
1001
ACDBBLOCKREPETAG
1070
     1
1071
        7
1005
130D85
  0
LINE
  5
130D86
  8
OBJECT
 10
4075.0000000000032
 20
-769.99999999999875
 30
0.0
 11
4075.0
 21
-799.99999999999693
 31
0.0
1001
ACDBBLOCKREPETAG
1070
     1
1071
        8
1005
130D86
  0
LINE
  5
130D87
  8
OBJECT
 10
3925.0
 20
-799.99999999999693
 30
0.0
 11
4075.0
 21
-799.99999999999693
 31
0.0
1001
ACDBBLOCKREPETAG
1070
     1
1071
        9
1005
130D87
  0
LINE
  5
130D88
  8
OBJECT
 10
3925.0
 20
-799.99999999999693
 30
0.0
 11
3930.0
 21
-839.99999999999704
 31
0.0
1001
ACDBBLOCKREPETAG
1070
     1
1071
       10
1005
130D88
  0
LINE
  5
130D89
  8
OBJECT
 10
4070.0
 20
-839.99999999999704
 30
0.0
 11
4075.0
 21
-799.99999999999693
 31
0.0
1001
ACDBBLOCKREPETAG
1070
     1
1071
       11
1005
130D89
  0
LINE
  5
130D8A
  8
OBJECT
 10
1930.0
 20
-1079.999999999998
 30
0.0
 11
2070.0
 21
-1079.999999999998
 31
0.0
1001
ACDBBLOCKREPETAG
1070
     1
1071
        0
1005
130D8A
  0
LINE
  5
130D8B
  8
OBJECT
 10
1930.0
 20
-1079.999999999998
 30
0.0
 11
1930.0
 21
-839.99999999999795
 31
0.0
1001
ACDBBLOCKREPETAG
1070
     1
1071
        1
1005
130D8B
  0
LINE
  5
130D8C
  8
OBJECT
 10
2070.0
 20
-1079.999999999998
 30
0.0
 11
2070.0
 21
-839.99999999999795
 31
0.0
1001
ACDBBLOCKREPETAG
1070
     1
1071
        2
1005
130D8C
  0
LINE
  5
130D8D
  8
OBJECT
 10
1930.0
 20
-839.99999999999795
 30
0.0
 11
2070.0
 21
-839.99999999999795
 31
0.0
1001
ACDBBLOCKREPETAG
1070
     1
1071
        3
1005
130D8D
  0
LINE
  5
130D8E
  8
HIDDEN
 10
1937.5
 20
-839.99999999999795
 30
0.0
 11
1937.5
 21
-1079.999999999998
 31
0.0
1001
ACDBBLOCKREPETAG
1070
     1
1071
        4
1005
130D8E
  0
LINE
  5
130D8F
  8
HIDDEN
 10
2062.5
 20
-839.99999999999795
 30
0.0
 11
2062.5
 21
-1079.999999999998
 31
0.0
1001
ACDBBLOCKREPETAG
1070
     1
1071
        5
1005
130D8F
  0
LINE
  5
130D90
  8
CENTER
 10
2000.0
 20
-769.99999999999955
 30
0.0
 11
2000.0
 21
-1094.999999999997
 31
0.0
1001
ACDBBLOCKREPETAG
1070
     1
1071
        6
1005
130D90
  0
LINE
  5
130D91
  8
OBJECT
 10
1925.0
 20
-769.99999999999955
 30
0.0
 11
1925.0
 21
-799.99999999999773
 31
0.0
1001
ACDBBLOCKREPETAG
1070
     1
1071
        7
1005
130D91
  0
LINE
  5
130D92
  8
OBJECT
 10
2075.0000000000041
 20
-769.99999999999955
 30
0.0
 11
2075.0
 21
-799.99999999999773
 31
0.0
1001
ACDBBLOCKREPETAG
1070
     1
1071
        8
1005
130D92
  0
LINE
  5
130D93
  8
OBJECT
 10
1925.0
 20
-799.99999999999773
 30
0.0
 11
2075.0
 21
-799.99999999999773
 31
0.0
1001
ACDBBLOCKREPETAG
1070
     1
1071
        9
1005
130D93
  0
LINE
  5
130D94
  8
OBJECT
 10
1925.0
 20
-799.99999999999773
 30
0.0
 11
1930.0
 21
-839.99999999999795
 31
0.0
1001
ACDBBLOCKREPETAG
1070
     1
1071
       10
1005
130D94
  0
LINE
  5
130D95
  8
OBJECT
 10
2070.0
 20
-839.99999999999795
 30
0.0
 11
2075.0
 21
-799.99999999999773
 31
0.0
1001
ACDBBLOCKREPETAG
1070
     1
1071
       11
1005
130D95
  0
TEXT
  5
130D96
  8
SLIM
 10
3741.6250000000009
 20
-1347.499999999997
 30
0.0
 40
35.0
  1
片受けスタイル（S）＋シンドカット
 41
0.75
  0
TEXT
  5
130D97
  8
SLIM
 10
1856.25
 20
-1347.499999999998
 30
0.0
 40
35.0
  1
片受けスタイル（S）
 41
0.75
  0
VIEWPORT
  5
F6BA7
 67
     1
  8
0
 10
145.33033752441401
 20
101.8328354358673
 30
0.0
 40
334.0025019414623
 41
222.19657968139651
 68
     1
 69
     1
1001
ACAD
1000
MVIEW
1002
{
1070
    16
1010
0.0
1020
0.0
1030
0.0
1010
0.0
1020
0.0
1030
1.0
1040
0.0
1040
222.19657968139651
1040
145.33033752441401
1040
101.8328354358673
1040
50.0
1040
0.0
1040
0.0
1070
     0
1070
     0
1070
     1
1070
     1
1070
     0
1070
     0
1070
     0
1070
     0
1040
0.0
1040
0.0
1040
0.0
1040
10.0
1040
10.0
1040
10.0
1040
10.0
1070
     0
1002
{
1002
}
1002
}
  0
VIEWPORT
  5
F6BA9
 67
     1
  8
OBJECT
 10
145.3303314447403
 20
101.8328338861465
 30
0.0
 40
232.5285303115844
 41
162.93253421783439
 68
     2
 69
     2
1001
ACAD
1000
MVIEW
1002
{
1070
    16
1010
0.0
1020
0.0
1030
0.0
1010
0.0
1020
0.0
1030
1.0
1040
0.0
1040
25942.55904403147
1040
2377.604457077377
1040
-7591.5176687056619
1040
50.0
1040
0.0
1040
0.0
1070
     0
1070
   600
1070
     1
1070
     1
1070
     0
1070
     0
1070
     0
1070
     0
1040
0.0
1040
0.0
1040
0.0
1040
1.0
1040
1.0
1040
0.0
1040
0.0
1070
     0
1002
{
1002
}
1002
}
  0
ENDSEC
  0
EOF
