  0
SECTION
  2
HEADER
  9
$ACADVER
  1
AC1009
  9
$INSBASE
 10
0.0
 20
0.0
 30
0.0
  9
$EXTMIN
 10
0.0
 20
-3697.4999999999968
 30
0.0
  9
$EXTMAX
 10
5575.0
 20
607.5
 30
0.0
  9
$LIMMIN
 10
0.0
 20
0.0
  9
$LIMMAX
 10
210.0
 20
297.0
  9
$ORTHOMODE
 70
     0
  9
$REGENMODE
 70
     1
  9
$FILLMODE
 70
     1
  9
$QTEXTMODE
 70
     0
  9
$MIRRTEXT
 70
     0
  9
$DRAGMODE
 70
     2
  9
$LTSCALE
 40
1.0
  9
$OSMODE
 70
    37
  9
$ATTMODE
 70
     1
  9
$TEXTSIZE
 40
4.0
  9
$TRACEWID
 40
0.05
  9
$TEXTSTYLE
  7
STANDARD
  9
$CLAYER
  8
OBJECT
  9
$CELTYPE
  6
BYLAYER
  9
$CECOLOR
 62
   256
  9
$DIMSCALE
 40
10.0
  9
$DIMASZ
 40
2.0
  9
$DIMEXO
 40
1.0
  9
$DIMDLI
 40
10.0
  9
$DIMRND
 40
0.0
  9
$DIMDLE
 40
0.0
  9
$DIMEXE
 40
1.0
  9
$DIMTP
 40
0.0
  9
$DIMTM
 40
0.0
  9
$DIMTXT
 40
3.2000000000000002
  9
$DIMCEN
 40
0.0
  9
$DIMTSZ
 40
0.0
  9
$DIMTOL
 70
     0
  9
$DIMLIM
 70
     0
  9
$DIMTIH
 70
     0
  9
$DIMTOH
 70
     0
  9
$DIMSE1
 70
     0
  9
$DIMSE2
 70
     0
  9
$DIMTAD
 70
     1
  9
$DIMZIN
 70
     8
  9
$DIMBLK
  1
OPEN30
  9
$DIMASO
 70
     1
  9
$DIMSHO
 70
     1
  9
$DIMPOST
  1

  9
$DIMAPOST
  1

  9
$DIMALT
 70
     0
  9
$DIMALTD
 70
     2
  9
$DIMALTF
 40
25.399999999999999
  9
$DIMLFAC
 40
1.0
  9
$DIMTOFL
 70
     1
  9
$DIMTVP
 40
0.0
  9
$DIMTIX
 70
     0
  9
$DIMSOXD
 70
     0
  9
$DIMSAH
 70
     0
  9
$DIMBLK1
  1

  9
$DIMBLK2
  1

  9
$DIMSTYLE
  2
S10
  9
$DIMCLRD
 70
   256
  9
$DIMCLRE
 70
   256
  9
$DIMCLRT
 70
   256
  9
$DIMTFAC
 40
1.0
  9
$DIMGAP
 40
0.9
  9
$LUNITS
 70
     2
  9
$LUPREC
 70
     2
  9
$SKETCHINC
 40
0.1
  9
$FILLETRAD
 40
0.0
  9
$AUNITS
 70
     0
  9
$AUPREC
 70
     2
  9
$MENU
  1
ACAD
  9
$ELEVATION
 40
0.0
  9
$PELEVATION
 40
0.0
  9
$THICKNESS
 40
0.0
  9
$LIMCHECK
 70
     0
  9
$BLIPMODE
 70
     0
  9
$CHAMFERA
 40
2.0
  9
$CHAMFERB
 40
2.0
  9
$SKPOLY
 70
     0
  9
$TDCREATE
 40
2453095.4929404748
  9
$TDUPDATE
 40
2457603.7428046879
  9
$TDINDWG
 40
18.350972419000001
  9
$TDUSRTIMER
 40
18.350971724499999
  9
$USRTIMER
 70
     1
  9
$ANGBASE
 50
0.0
  9
$ANGDIR
 70
     0
  9
$PDMODE
 70
    35
  9
$PDSIZE
 40
2.0
  9
$PLINEWID
 40
0.0
  9
$COORDS
 70
     1
  9
$SPLFRAME
 70
     0
  9
$SPLINETYPE
 70
     6
  9
$SPLINESEGS
 70
     8
  9
$ATTDIA
 70
     0
  9
$ATTREQ
 70
     1
  9
$HANDLING
 70
     1
  9
$HANDSEED
  5
12F050
  9
$SURFTAB1
 70
     6
  9
$SURFTAB2
 70
     6
  9
$SURFTYPE
 70
     6
  9
$SURFU
 70
     6
  9
$SURFV
 70
     6
  9
$UCSNAME
  2

  9
$UCSORG
 10
0.0
 20
0.0
 30
0.0
  9
$UCSXDIR
 10
1.0
 20
0.0
 30
0.0
  9
$UCSYDIR
 10
0.0
 20
1.0
 30
0.0
  9
$PUCSNAME
  2

  9
$PUCSORG
 10
0.0
 20
0.0
 30
0.0
  9
$PUCSXDIR
 10
1.0
 20
0.0
 30
0.0
  9
$PUCSYDIR
 10
0.0
 20
1.0
 30
0.0
  9
$USERI1
 70
     0
  9
$USERI2
 70
     0
  9
$USERI3
 70
     0
  9
$USERI4
 70
     0
  9
$USERI5
 70
     0
  9
$USERR1
 40
0.0
  9
$USERR2
 40
0.0
  9
$USERR3
 40
0.0
  9
$USERR4
 40
0.0
  9
$USERR5
 40
0.0
  9
$WORLDVIEW
 70
     1
  9
$SHADEDGE
 70
     3
  9
$SHADEDIF
 70
    70
  9
$TILEMODE
 70
     1
  9
$MAXACTVP
 70
    64
  9
$PLIMCHECK
 70
     0
  9
$PEXTMIN
 10
29.066066288948051
 20
20.366566777229309
 30
0.0
  9
$PEXTMAX
 10
261.5945966005325
 20
183.29910099506381
 30
0.0
  9
$PLIMMIN
 10
-3.17498779296875
 20
-3.1749999523162842
  9
$PLIMMAX
 10
293.83566284179687
 20
206.8406708240509
  9
$UNITMODE
 70
     0
  9
$VISRETAIN
 70
     1
  9
$PLINEGEN
 70
     0
  9
$PSLTSCALE
 70
     1
  0
ENDSEC
  0
SECTION
  2
TABLES
  0
TABLE
  2
VPORT
 70
     1
  0
VPORT
  2
*ACTIVE
 70
     0
 10
0.0
 20
0.0
 11
1.0
 21
1.0
 12
4612.4736112730552
 22
-578.98391382621912
 13
0.0
 23
0.0
 14
1.0
 24
1.0
 15
0.0
 25
0.0
 16
0.0
 26
0.0
 36
1.0
 17
0.0
 27
0.0
 37
0.0
 40
5675.008231975874
 41
1.6494178525226391
 42
50.0
 43
0.0
 44
0.0
 50
0.0
 51
0.0
 71
     0
 72
   600
 73
     1
 74
     1
 75
     0
 76
     0
 77
     0
 78
     0
  0
ENDTAB
  0
TABLE
  2
LTYPE
 70
     4
  0
LTYPE
  2
CONTINUOUS
 70
     0
  3
Solid line
 72
    65
 73
     0
 40
0.0
  0
LTYPE
  2
PHANTOM2
 70
     0
  3
___ _ _ ___ _ _ ___ _ _ ___ _ _
 72
    65
 73
     6
 40
1.25
 49
0.625
 49
-0.125
 49
0.125
 49
-0.125
 49
0.125
 49
-0.125
  0
LTYPE
  2
ACAD_ISO08W100
 70
     0
  3
ISO long-dash short-dash ____ __ ____ __ ____ _
 72
    65
 73
     4
 40
36.0
 49
24.0
 49
-3.0
 49
6.0
 49
-3.0
  0
LTYPE
  2
ACAD_ISO02W100
 70
     0
  3
ISO dash __ __ __ __ __ __ __ __ __ __ __ __ __
 72
    65
 73
     2
 40
15.0
 49
12.0
 49
-3.0
  0
ENDTAB
  0
TABLE
  2
LAYER
 70
     8
  0
LAYER
  2
0
 70
     0
 62
     7
  6
CONTINUOUS
  0
LAYER
  2
OBJECT
 70
     0
 62
     4
  6
CONTINUOUS
  0
LAYER
  2
DEFPOINTS
 70
     0
 62
     7
  6
CONTINUOUS
  0
LAYER
  2
DIM
 70
     0
 62
     7
  6
CONTINUOUS
  0
LAYER
  2
HIDDEN
 70
     0
 62
     2
  6
ACAD_ISO02W100
  0
LAYER
  2
CENTER
 70
     0
 62
     2
  6
ACAD_ISO08W100
  0
LAYER
  2
DOTS
 70
     0
 62
     1
  6
CONTINUOUS
  0
LAYER
  2
SLIM
 70
     0
 62
     2
  6
CONTINUOUS
  0
ENDTAB
  0
TABLE
  2
STYLE
 70
     2
  0
STYLE
  2
STANDARD
 70
     0
 40
0.0
 41
0.75
 50
0.0
 71
     0
 42
4.0
  3
simplex.shx
  4
bigfont.shx
  0
ENDTAB
  0
TABLE
  2
VIEW
 70
     0
  0
ENDTAB
  0
TABLE
  2
UCS
 70
     0
  0
ENDTAB
  0
TABLE
  2
APPID
 70
    18
  0
APPID
  2
ACAD
 70
     0
  0
APPID
  2
ACADANNOTATIVE
 70
     0
  0
APPID
  2
ACAD_PSEXT
 70
     0
  0
APPID
  2
ACAD_EXEMPT_FROM_CAD_STANDARDS
 70
     0
  0
APPID
  2
ACAECLAYERSTANDARD
 70
     0
  0
APPID
  2
ACAUTHENVIRON
 70
     0
  0
APPID
  2
ACDBDYNAMICBLOCKTRUENAME
 70
     0
  0
APPID
  2
ACDBDYNAMICBLOCKGUID
 70
     0
  0
APPID
  2
ACDBBLOCKREPETAG
 70
     0
  0
APPID
  2
ACDBBLOCKREPBTAG
 70
     0
  0
APPID
  2
ACAD_NAV_VCDISPLAY
 70
     0
  0
APPID
  2
ACAD_DSTYLE_DIMRADIAL_EXTENSION
 70
     0
  0
APPID
  2
ACAD_DSTYLE_DIMJAG
 70
     0
  0
APPID
  2
ACAD_DSTYLE_DIMTALN
 70
     0
  0
APPID
  2
ACADANNOPO
 70
     0
  0
APPID
  2
GRADIENTCOLOR1ACI
 70
     0
  0
APPID
  2
GRADIENTCOLOR2ACI
 70
     0
  0
APPID
  2
ACAD_MLEADERVER
 70
     0
  0
ENDTAB
  0
TABLE
  2
DIMSTYLE
 70
     3
  0
DIMSTYLE
  2
STANDARD
 70
     0
  3

  4

  5

  6

  7

 40
1.0
 41
0.18
 42
0.0625
 43
0.38
 44
0.18
 45
0.0
 46
0.0
 47
0.0
 48
0.0
140
0.18
141
0.09
142
0.0
143
25.399999999999999
144
1.0
145
0.0
146
1.0
147
0.09
 71
     0
 72
     0
 73
     1
 74
     1
 75
     0
 76
     0
 77
     0
 78
     0
170
     0
171
     2
172
     0
173
     0
174
     0
175
     0
176
     0
177
     0
178
     0
  0
DIMSTYLE
  2
S10
 70
     0
  3

  4

  5

  6

  7

 40
10.0
 41
2.0
 42
1.0
 43
10.0
 44
1.0
 45
0.0
 46
0.0
 47
0.0
 48
0.0
140
3.2000000000000002
141
0.0
142
0.0
143
25.399999999999999
144
1.0
145
0.0
146
1.0
147
0.9
 71
     0
 72
     0
 73
     0
 74
     0
 75
     0
 76
     0
 77
     1
 78
     8
170
     0
171
     2
172
     1
173
     0
174
     0
175
     0
176
   256
177
   256
178
   256
  0
ENDTAB
  0
ENDSEC
  0
SECTION
  2
BLOCKS
  0
BLOCK
  8
0
  2
$MODEL_SPACE
 70
     0
 10
0.0
 20
0.0
 30
0.0
  3
$MODEL_SPACE
  1

  0
ENDBLK
  5
12EF9C
  8
0
  0
BLOCK
 67
     1
  8
0
  2
$PAPER_SPACE
 70
     0
 10
0.0
 20
0.0
 30
0.0
  3
$PAPER_SPACE
  1

  0
ENDBLK
  5
12EF98
 67
     1
  8
0
  0
BLOCK
  8
0
  2
_OPEN30
 70
     0
 10
0.0
 20
0.0
 30
0.0
  3
_OPEN30
  1

  0
LINE
  5
202
  8
0
  6
BYBLOCK
 62
     0
 10
-1.0
 20
0.26794919
 30
0.0
 11
0.0
 21
0.0
 31
0.0
  0
LINE
  5
203
  8
0
  6
BYBLOCK
 62
     0
 10
0.0
 20
0.0
 30
0.0
 11
-1.0
 21
-0.26794919
 31
0.0
  0
LINE
  5
204
  8
0
  6
BYBLOCK
 62
     0
 10
0.0
 20
0.0
 30
0.0
 11
-1.0
 21
0.0
 31
0.0
  0
ENDBLK
  5
206
  8
0
  0
BLOCK
  8
0
  2
*U4
 70
     1
 10
0.0
 20
0.0
 30
0.0
  3
*U4
  1

  0
TEXT
  5
12EEE8
  8
DIM
 10
3840.6616440113212
 20
-982.74285714285509
 30
0.0
 40
32.0
  1
m（シンドカット）
 50
90.0
 41
0.75
  0
ENDBLK
  5
12EEEA
  8
0
  0
BLOCK
  8
0
  2
*U5
 70
     1
 10
0.0
 20
0.0
 30
0.0
  3
*U5
  1

  0
TEXT
  5
12EEEC
  8
SLIM
 10
198.9523809523825
 20
-688.0
 30
0.0
 40
26.0
  1
75
  0
ENDBLK
  5
12EEEE
  8
0
  0
BLOCK
  8
0
  2
*U6
 70
     1
 10
0.0
 20
0.0
 30
0.0
  3
*U6
  1

  0
TEXT
  5
12EEF0
  8
SLIM
 10
186.5714285714302
 20
-987.99999999998545
 30
0.0
 40
26.0
  1
75Z
  0
ENDBLK
  5
12EEF2
  8
0
  0
BLOCK
  8
0
  2
*U7
 70
     1
 10
0.0
 20
0.0
 30
0.0
  3
*U7
  1

  0
TEXT
  5
12EEF4
  8
SLIM
 10
198.95238095238261
 20
-108.0
 30
0.0
 40
26.0
  1
50
  0
ENDBLK
  5
12EEF6
  8
0
  0
BLOCK
  8
0
  2
*U8
 70
     1
 10
0.0
 20
0.0
 30
0.0
  3
*U8
  1

  0
TEXT
  5
12EEF8
  8
SLIM
 10
186.5714285714302
 20
-407.99999999998528
 30
0.0
 40
26.0
  1
75Z
  0
ENDBLK
  5
12EEFA
  8
0
  0
BLOCK
  8
0
  2
*U9
 70
     1
 10
0.0
 20
0.0
 30
0.0
  3
*U9
  1

  0
TEXT
  5
12EEFC
  8
SLIM
 10
648.95238095238255
 20
-108.0
 30
0.0
 40
26.0
  1
65
  0
ENDBLK
  5
12EEFE
  8
0
  0
BLOCK
  8
0
  2
*U10
 70
     1
 10
0.0
 20
0.0
 30
0.0
  3
*U10
  1

  0
TEXT
  5
12EF00
  8
SLIM
 10
636.57142857143015
 20
-407.99999999998528
 30
0.0
 40
26.0
  1
75Z
  0
ENDBLK
  5
12EF02
  8
0
  0
BLOCK
  8
0
  2
*U11
 70
     1
 10
0.0
 20
0.0
 30
0.0
  3
*U11
  1

  0
TEXT
  5
12EF04
  8
SLIM
 10
639.04761904762063
 20
-680.75
 30
0.0
 40
26.0
  1
100
  0
ENDBLK
  5
12EF06
  8
0
  0
BLOCK
  8
0
  2
*U12
 70
     1
 10
0.0
 20
0.0
 30
0.0
  3
*U12
  1

  0
TEXT
  5
12EF08
  8
SLIM
 10
636.57142857143015
 20
-987.99999999998545
 30
0.0
 40
26.0
  1
75Z
  0
ENDBLK
  5
12EF0A
  8
0
  0
BLOCK
  8
0
  2
*U13
 70
     1
 10
0.0
 20
0.0
 30
0.0
  3
*U13
  1

  0
TEXT
  5
12EF20
  8
DIM
 10
2209.479620594459
 20
-3184.1428571428528
 30
0.0
 40
32.0
  1
A
 50
90.0
 41
0.75
  0
ENDBLK
  5
12EF22
  8
0
  0
BLOCK
  8
0
  2
*U14
 70
     1
 10
0.0
 20
0.0
 30
0.0
  3
*U14
  1

  0
TEXT
  5
12EF24
  8
DIM
 10
2207.8409284037348
 20
-3565.9999999999959
 30
0.0
 40
32.0
  1
B
 50
90.0
 41
0.75
  0
ENDBLK
  5
12EF26
  8
0
  0
BLOCK
  8
0
  2
*U15
 70
     1
 10
0.0
 20
0.0
 30
0.0
  3
*U15
  1

  0
TEXT
  5
12EF28
  8
DIM
 10
2061.428571428572
 20
-3038.208121984444
 30
0.0
 40
32.0
  1
C
 41
0.75
  0
ENDBLK
  5
12EF2A
  8
0
  0
ENDSEC
  0
SECTION
  2
ENTITIES
  0
LINE
  5
12515F
  8
OBJECT
 10
1825.0
 20
-3579.9999999999959
 30
0.0
 11
5575.0
 21
-3579.9999999999959
 31
0.0
  0
LINE
  5
125161
  8
SLIM
 10
2616.0
 20
-2637.50001604727
 30
0.0
 11
2616.0
 21
-2967.50001604727
 31
0.0
  0
LINE
  5
125162
  8
SLIM
 10
2740.0
 20
-2637.50001604727
 30
0.0
 11
2740.0
 21
-2967.50001604727
 31
0.0
  0
LINE
  5
125163
  8
SLIM
 10
2870.0
 20
-2697.50001604727
 30
0.0
 11
2870.0
 21
-2967.50001604727
 31
0.0
  0
LINE
  5
125164
  8
SLIM
 10
3000.0
 20
-2697.50001604727
 30
0.0
 11
3000.0
 21
-2967.50001604727
 31
0.0
  0
LINE
  5
125165
  8
SLIM
 10
3130.0
 20
-2967.50001604727
 30
0.0
 11
3130.0
 21
-2697.50001604727
 31
0.0
  0
LINE
  5
125166
  8
SLIM
 10
3260.0
 20
-2967.50001604727
 30
0.0
 11
3260.0
 21
-2637.50001604727
 31
0.0
  0
LINE
  5
125167
  8
SLIM
 10
3260.0
 20
-2637.50001604727
 30
0.0
 11
2616.0
 21
-2637.50001604727
 31
0.0
  0
LINE
  5
125168
  8
SLIM
 10
3260.0
 20
-2697.50001604727
 30
0.0
 11
2740.0
 21
-2697.50001604727
 31
0.0
  0
LINE
  5
125169
  8
SLIM
 10
3260.0
 20
-2757.50001604727
 30
0.0
 11
2616.0
 21
-2757.50001604727
 31
0.0
  0
LINE
  5
12516A
  8
SLIM
 10
3260.0
 20
-2827.50001604727
 30
0.0
 11
2616.0
 21
-2827.50001604727
 31
0.0
  0
LINE
  5
12516B
  8
SLIM
 10
3260.0
 20
-2897.50001604727
 30
0.0
 11
2616.0
 21
-2897.50001604727
 31
0.0
  0
LINE
  5
12516C
  8
SLIM
 10
3260.0
 20
-2967.50001604727
 30
0.0
 11
2616.0
 21
-2967.50001604727
 31
0.0
  0
LINE
  5
125181
  8
SLIM
 10
2740.0
 20
-2757.50001604727
 30
0.0
 11
2615.9999722746579
 21
-2637.5
 31
0.0
  0
LINE
  5
1251B6
  8
OBJECT
 10
5323.0
 20
-3395.9999999999968
 30
0.0
 11
5323.0
 21
-3374.9999999999968
 31
0.0
1001
ACDBBLOCKREPETAG
1070
     1
1071
       20
1005
1251B6
  0
LINE
  5
1251B7
  8
OBJECT
 10
5323.0
 20
-3374.9999999999968
 30
0.0
 11
5477.0
 21
-3374.9999999999968
 31
0.0
1001
ACDBBLOCKREPETAG
1070
     1
1071
       21
1005
1251B7
  0
LINE
  5
1251B8
  8
HIDDEN
 10
5343.0
 20
-3444.9999999999968
 30
0.0
 11
5457.0
 21
-3444.9999999999968
 31
0.0
1001
ACDBBLOCKREPETAG
1070
     1
1071
       22
1005
1251B8
  0
LINE
  5
1251B9
  8
OBJECT
 10
5477.0
 20
-3374.9999999999968
 30
0.0
 11
5477.0
 21
-3395.9999999999968
 31
0.0
1001
ACDBBLOCKREPETAG
1070
     1
1071
       23
1005
1251B9
  0
LINE
  5
1251BA
  8
OBJECT
 10
5477.0
 20
-3395.9999999999968
 30
0.0
 11
5323.0
 21
-3395.9999999999968
 31
0.0
1001
ACDBBLOCKREPETAG
1070
     1
1071
       24
1005
1251BA
  0
LINE
  5
1251BB
  8
CENTER
 10
5400.0
 20
-3359.9999999999968
 30
0.0
 11
5400.0
 21
-3594.9999999999968
 31
0.0
1001
ACDBBLOCKREPETAG
1070
     1
1071
       25
1005
1251BB
  0
LINE
  5
1251BC
  8
OBJECT
 10
5325.0
 20
-3458.9999999999968
 30
0.0
 11
5325.0
 21
-3582.9999999999968
 31
0.0
1001
ACDBBLOCKREPETAG
1070
     1
1071
       26
1005
1251BC
  0
LINE
  5
1251BD
  8
OBJECT
 10
5328.0
 20
-3395.9999999999968
 30
0.0
 11
5328.0
 21
-3458.9999999999968
 31
0.0
1001
ACDBBLOCKREPETAG
1070
     1
1071
       27
1005
1251BD
  0
LINE
  5
1251BE
  8
OBJECT
 10
5472.0
 20
-3458.9999999999968
 30
0.0
 11
5472.0
 21
-3395.9999999999968
 31
0.0
1001
ACDBBLOCKREPETAG
1070
     1
1071
       28
1005
1251BE
  0
LINE
  5
1251BF
  8
OBJECT
 10
5475.0
 20
-3458.9999999999968
 30
0.0
 11
5456.7802782663139
 21
-3458.9999999999968
 31
0.0
1001
ACDBBLOCKREPETAG
1070
     1
1071
       30
1005
1251BF
  0
LINE
  5
1251C0
  8
OBJECT
 10
5475.0
 20
-3458.9999999999968
 30
0.0
 11
5475.0
 21
-3582.9999999999968
 31
0.0
1001
ACDBBLOCKREPETAG
1070
     1
1071
       34
1005
1251C0
  0
POINT
  5
1251C1
  8
DOTS
 10
5400.0
 20
-3579.9999999999968
 30
0.0
1001
ACDBBLOCKREPETAG
1070
     1
1071
      187
1005
1251C1
  0
LINE
  5
1251C2
  8
CENTER
 10
5310.0
 20
-3507.9999999999968
 30
0.0
 11
5490.0
 21
-3507.9999999999968
 31
0.0
1001
ACDBBLOCKREPETAG
1070
     1
1071
       23
1005
1251C2
  0
CIRCLE
  5
1251C3
  8
OBJECT
 10
5400.0
 20
-3507.9999999999968
 30
0.0
 40
53.5
1001
ACDBBLOCKREPETAG
1070
     1
1071
       24
1005
1251C3
  0
CIRCLE
  5
1251C4
  8
OBJECT
 10
5400.0
 20
-3507.9999999999968
 30
0.0
 40
67.0
1001
ACDBBLOCKREPETAG
1070
     1
1071
       25
1005
1251C4
  0
ARC
  5
1251C5
  8
OBJECT
 10
5400.0
 20
-3507.9999999999968
 30
0.0
 40
75.0
 50
286.26020470824369
 51
253.73979529175631
1001
ACDBBLOCKREPETAG
1070
     1
1071
       27
1005
1251C5
  0
LINE
  5
1251C6
  8
OBJECT
 10
5379.0
 20
-3579.9999999999968
 30
0.0
 11
5421.0
 21
-3579.9999999999968
 31
0.0
1001
ACDBBLOCKREPETAG
1070
     1
1071
       28
1005
1251C6
  0
LINE
  5
1251C7
  8
OBJECT
 10
5343.2197217336861
 20
-3458.9999999999968
 30
0.0
 11
5325.0
 21
-3458.9999999999968
 31
0.0
1001
ACDBBLOCKREPETAG
1070
     1
1071
       30
1005
1251BF
  0
TEXT
  5
12AED7
  8
SLIM
 10
-0.0000000000000011
 20
282.5
 30
0.0
 40
35.0
  1
※ 100枝（4）がある場合、品名の最後に【管底】が付きます。
 41
0.9
 11
0.0
 21
300.0
 31
0.0
 73
     2
  0
TEXT
  5
12E3D0
  8
SLIM
 10
43.928571428572042
 20
-555.0
 30
0.0
 40
60.0
  1
Z106-P110
 41
0.75
 72
     4
 11
225.0000000000006
 21
-525.0
 31
0.0
  0
TEXT
  5
12E3D1
  8
SLIM
 10
39.64285714285711
 20
-1135.0
 30
0.0
 40
60.0
  1
Z306-P110
 41
0.75
 72
     4
 11
225.0
 21
-1105.0
 31
0.0
  0
TEXT
  5
12E3D2
  8
SLIM
 10
489.64285714285711
 20
-555.0
 30
0.0
 40
60.0
  1
Z206-P110
 41
0.75
 72
     4
 11
675.0
 21
-525.0
 31
0.0
  0
TEXT
  5
12E3D3
  8
SLIM
 10
489.64285714285711
 20
-1135.0
 30
0.0
 40
60.0
  1
Z406-P110
 41
0.75
 72
     4
 11
675.0
 21
-1105.0
 31
0.0
  0
LINE
  5
12EA93
  8
SLIM
 10
4350.0
 20
-887.99999999999591
 30
0.0
 11
4350.0
 21
-1079.9999999999959
 31
0.0
  0
LINE
  5
12EA94
  8
SLIM
 10
4454.0
 20
-1079.9999999999959
 30
0.0
 11
4454.0
 21
-887.99999999999591
 31
0.0
  0
LINE
  5
12EA95
  8
SLIM
 10
4602.0
 20
-887.99999999999591
 30
0.0
 11
4350.0
 21
-887.99999999999591
 31
0.0
  0
LINE
  5
12EA96
  8
SLIM
 10
4602.0
 20
-983.99999999999602
 30
0.0
 11
4350.0
 21
-983.99999999999602
 31
0.0
  0
LINE
  5
12EA98
  8
SLIM
 10
4602.0
 20
-1031.9999999999959
 30
0.0
 11
4350.0
 21
-1031.9999999999959
 31
0.0
  0
LINE
  5
12EA99
  8
SLIM
 10
4602.0
 20
-1079.9999999999959
 30
0.0
 11
4350.0
 21
-1079.9999999999959
 31
0.0
  0
LINE
  5
12EA9D
  8
SLIM
 10
4602.0
 20
-935.99999999999545
 30
0.0
 11
4350.0
 21
-935.99999999999545
 31
0.0
  0
LINE
  5
12EA9F
  8
SLIM
 10
4602.0
 20
-887.99999999999591
 30
0.0
 11
4602.0
 21
-1079.9999999999959
 31
0.0
  0
LINE
  5
12EAD9
  8
DIM
 10
3904.9999999999941
 20
-754.99999999999875
 30
0.0
 11
3839.6616440113221
 21
-754.99999999999875
 31
0.0
  0
LINE
  5
12EADA
  8
DIM
 10
3910.0
 20
-964.99999999999875
 30
0.0
 11
3839.6616440113221
 21
-964.99999999999875
 31
0.0
  0
LINE
  5
12EADB
  8
DIM
 10
3849.6616440113221
 20
-774.99999999999875
 30
0.0
 11
3849.6616440113221
 21
-944.99999999999864
 31
0.0
  0
INSERT
  5
12EADC
  8
DIM
  2
_OPEN30
 10
3849.6616440113221
 20
-754.99999999999875
 30
0.0
 41
20.0
 42
20.0
 43
20.0
 50
90.0
  0
INSERT
  5
12EADD
  8
DIM
  2
_OPEN30
 10
3849.6616440113221
 20
-964.99999999999875
 30
0.0
 41
20.0
 42
20.0
 43
20.0
 50
270.0
  0
INSERT
  5
12EADE
  8
OBJECT
  2
*U4
 10
0.0
 20
0.0
 30
0.0
  0
TEXT
  5
12EADF
  8
SLIM
 10
3554.6000000000008
 20
-1415.666666666664
 30
0.0
 40
28.0
  1
※ 対応スラブ厚　180～（m-10）
 41
0.75
  0
TEXT
  5
12EAE0
  8
SLIM
 10
3554.6000000000008
 20
-1462.3333333333301
 30
0.0
 40
28.0
  1
※ 足切り可能寸法（最大）　210-m（コンパクトＬベンド使用なら+20）
 41
0.75
  0
TEXT
  5
12EAE1
  8
SLIM
 10
3598.9000000000001
 20
-1555.666666666664
 30
0.0
 40
28.0
  1
国土交通大臣認定・（一財）日本消防設備安全センター性能評定取得品
 41
0.75
  0
TEXT
  5
12EAE2
  8
SLIM
 10
3631.1000000000022
 20
-1602.333333333331
 30
0.0
 40
28.0
  1
注）ご採用にあたり、認定書及び評定書の内容をご確認ください。
 41
0.75
  0
TEXT
  5
12EAE3
  8
SLIM
 10
4506.5714285714294
 20
-971.99999999999591
 30
0.0
 40
24.0
  1
180
 41
0.75
  0
TEXT
  5
12EAE4
  8
SLIM
 10
4470.057142857142
 20
-1067.9999999999959
 30
0.0
 40
24.0
  1
180～200
 41
0.75
  0
TEXT
  5
12EAE5
  8
SLIM
 10
4471.7714285714283
 20
-1019.999999999996
 30
0.0
 40
24.0
  1
180～190
 41
0.75
  0
TEXT
  5
12EAE6
  8
SLIM
 10
4465.6000000000013
 20
-923.99999999999613
 30
0.0
 40
24.0
  1
対応スラブ厚
 41
0.75
  0
TEXT
  5
12EAE7
  8
SLIM
 10
4398.1714285714288
 20
-1125.9999999999959
 30
0.0
 40
24.0
  1
標準：m=210
 41
0.75
  0
TEXT
  5
12EAE8
  8
SLIM
 10
4380.5714285714284
 20
-971.99999999999591
 30
0.0
 40
24.0
  1
190
 41
0.75
  0
TEXT
  5
12EAE9
  8
SLIM
 10
4380.5714285714284
 20
-1067.9999999999959
 30
0.0
 40
24.0
  1
210
 41
0.75
  0
TEXT
  5
12EAEA
  8
SLIM
 10
4369.9428571428571
 20
-923.99999999999613
 30
0.0
 40
24.0
  1
m寸法
 41
0.75
  0
TEXT
  5
12EAEB
  8
SLIM
 10
4378.8571428571431
 20
-1019.999999999996
 30
0.0
 40
24.0
  1
200
 41
0.75
  0
LINE
  5
12EAEC
  8
OBJECT
 10
3923.0
 20
-570.9999999999925
 30
0.0
 11
3923.0
 21
-549.9999999999925
 31
0.0
1001
ACDBBLOCKREPETAG
1070
     1
1071
       36
1005
12EAEC
  0
LINE
  5
12EAED
  8
OBJECT
 10
3923.0
 20
-549.9999999999925
 30
0.0
 11
4077.0
 21
-549.9999999999925
 31
0.0
1001
ACDBBLOCKREPETAG
1070
     1
1071
       37
1005
12EAED
  0
LINE
  5
12EAEE
  8
HIDDEN
 10
3943.0
 20
-619.99999999999227
 30
0.0
 11
4057.0
 21
-619.99999999999227
 31
0.0
1001
ACDBBLOCKREPETAG
1070
     1
1071
       38
1005
12EAEE
  0
LINE
  5
12EAEF
  8
OBJECT
 10
4077.0
 20
-549.9999999999925
 30
0.0
 11
4077.0
 21
-570.9999999999925
 31
0.0
1001
ACDBBLOCKREPETAG
1070
     1
1071
       39
1005
12EAEF
  0
LINE
  5
12EAF0
  8
OBJECT
 10
4077.0
 20
-570.9999999999925
 30
0.0
 11
3923.0
 21
-570.9999999999925
 31
0.0
1001
ACDBBLOCKREPETAG
1070
     1
1071
       40
1005
12EAF0
  0
LINE
  5
12EAF1
  8
CENTER
 10
4000.0
 20
-534.9999999999925
 30
0.0
 11
4000.0
 21
-769.9999999999925
 31
0.0
1001
ACDBBLOCKREPETAG
1070
     1
1071
       41
1005
12EAF1
  0
LINE
  5
12EAF2
  8
OBJECT
 10
3928.0
 20
-570.9999999999925
 30
0.0
 11
3928.0
 21
-633.9999999999925
 31
0.0
1001
ACDBBLOCKREPETAG
1070
     1
1071
       42
1005
12EAF2
  0
LINE
  5
12EAF3
  8
OBJECT
 10
4072.0
 20
-633.9999999999925
 30
0.0
 11
4072.0
 21
-570.9999999999925
 31
0.0
1001
ACDBBLOCKREPETAG
1070
     1
1071
       43
1005
12EAF3
  0
LINE
  5
12EAF4
  8
OBJECT
 10
3920.0
 20
-757.9999999999925
 30
0.0
 11
4080.0
 21
-757.9999999999925
 31
0.0
1001
ACDBBLOCKREPETAG
1070
     1
1071
       44
1005
12EAF4
  0
LINE
  5
12EAF5
  8
OBJECT
 10
4080.0
 20
-633.9999999999925
 30
0.0
 11
3920.0
 21
-633.9999999999925
 31
0.0
1001
ACDBBLOCKREPETAG
1070
     1
1071
       45
1005
12EAF5
  0
LINE
  5
12EAF6
  8
OBJECT
 10
3920.0
 20
-757.9999999999925
 30
0.0
 11
3920.0
 21
-769.9999999999925
 31
0.0
1001
ACDBBLOCKREPETAG
1070
     1
1071
       46
1005
12EAF6
  0
LINE
  5
12EAF7
  8
OBJECT
 10
3920.0
 20
-769.9999999999925
 30
0.0
 11
4080.0
 21
-769.9999999999925
 31
0.0
1001
ACDBBLOCKREPETAG
1070
     1
1071
       47
1005
12EAF7
  0
LINE
  5
12EAF8
  8
OBJECT
 10
4080.0
 20
-769.9999999999925
 30
0.0
 11
4080.0
 21
-757.9999999999925
 31
0.0
1001
ACDBBLOCKREPETAG
1070
     1
1071
       48
1005
12EAF8
  0
ARC
  5
12EAF9
  8
OBJECT
 10
4200.6872746716726
 20
-749.40809941010014
 30
0.0
 40
170.6350503965856
 50
137.44134459184301
 51
149.91949581337221
1001
ACDBBLOCKREPETAG
1070
     1
1071
       52
1005
12EAF9
  0
ARC
  5
12EAFA
  8
OBJECT
 10
4200.6872746716726
 20
-642.59190058988474
 30
0.0
 40
170.6350503965856
 50
210.08050418662771
 51
222.55865540815699
1001
ACDBBLOCKREPETAG
1070
     1
1071
       53
1005
12EAFA
  0
ARC
  5
12EAFB
  8
OBJECT
 10
3799.3127253283278
 20
-749.40809941010014
 30
0.0
 40
170.6350503965856
 50
30.080504186774089
 51
42.558655408456282
1001
ACDBBLOCKREPETAG
1070
     1
1071
       54
1005
12EAFB
  0
ARC
  5
12EAFC
  8
OBJECT
 10
3799.3127253283278
 20
-642.59190058988474
 30
0.0
 40
170.6350503965856
 50
317.44134459154373
 51
329.91949581322592
1001
ACDBBLOCKREPETAG
1070
     1
1071
       55
1005
12EAFC
  0
POINT
  5
12EAFD
  8
DOTS
 10
4000.0
 20
-754.9999999999925
 30
0.0
1001
ACDBBLOCKREPETAG
1070
     1
1071
      184
1005
12EAFD
  0
LINE
  5
12EAFE
  8
OBJECT
 10
1923.0
 20
-570.9999999999925
 30
0.0
 11
1923.0
 21
-549.9999999999925
 31
0.0
1001
ACDBBLOCKREPETAG
1070
     1
1071
       36
1005
12EAFE
  0
LINE
  5
12EAFF
  8
OBJECT
 10
1923.0
 20
-549.9999999999925
 30
0.0
 11
2077.0
 21
-549.9999999999925
 31
0.0
1001
ACDBBLOCKREPETAG
1070
     1
1071
       37
1005
12EAFF
  0
LINE
  5
12EB00
  8
HIDDEN
 10
1943.0
 20
-619.99999999999227
 30
0.0
 11
2057.0
 21
-619.99999999999227
 31
0.0
1001
ACDBBLOCKREPETAG
1070
     1
1071
       38
1005
12EB00
  0
LINE
  5
12EB01
  8
OBJECT
 10
2077.0
 20
-549.9999999999925
 30
0.0
 11
2077.0
 21
-570.9999999999925
 31
0.0
1001
ACDBBLOCKREPETAG
1070
     1
1071
       39
1005
12EB01
  0
LINE
  5
12EB02
  8
OBJECT
 10
2077.0
 20
-570.9999999999925
 30
0.0
 11
1923.0
 21
-570.9999999999925
 31
0.0
1001
ACDBBLOCKREPETAG
1070
     1
1071
       40
1005
12EB02
  0
LINE
  5
12EB03
  8
CENTER
 10
2000.0
 20
-534.9999999999925
 30
0.0
 11
2000.0
 21
-769.9999999999925
 31
0.0
1001
ACDBBLOCKREPETAG
1070
     1
1071
       41
1005
12EB03
  0
LINE
  5
12EB04
  8
OBJECT
 10
1928.0
 20
-570.9999999999925
 30
0.0
 11
1928.0
 21
-633.9999999999925
 31
0.0
1001
ACDBBLOCKREPETAG
1070
     1
1071
       42
1005
12EB04
  0
LINE
  5
12EB05
  8
OBJECT
 10
2072.0
 20
-633.9999999999925
 30
0.0
 11
2072.0
 21
-570.9999999999925
 31
0.0
1001
ACDBBLOCKREPETAG
1070
     1
1071
       43
1005
12EB05
  0
LINE
  5
12EB06
  8
OBJECT
 10
1920.0
 20
-757.9999999999925
 30
0.0
 11
2080.0
 21
-757.9999999999925
 31
0.0
1001
ACDBBLOCKREPETAG
1070
     1
1071
       44
1005
12EB06
  0
LINE
  5
12EB07
  8
OBJECT
 10
2080.0
 20
-633.9999999999925
 30
0.0
 11
1920.0
 21
-633.9999999999925
 31
0.0
1001
ACDBBLOCKREPETAG
1070
     1
1071
       45
1005
12EB07
  0
LINE
  5
12EB08
  8
OBJECT
 10
1920.0
 20
-757.9999999999925
 30
0.0
 11
1920.0
 21
-769.9999999999925
 31
0.0
1001
ACDBBLOCKREPETAG
1070
     1
1071
       46
1005
12EB08
  0
LINE
  5
12EB09
  8
OBJECT
 10
1920.0
 20
-769.9999999999925
 30
0.0
 11
2080.0
 21
-769.9999999999925
 31
0.0
1001
ACDBBLOCKREPETAG
1070
     1
1071
       47
1005
12EB09
  0
LINE
  5
12EB0A
  8
OBJECT
 10
2080.0
 20
-769.9999999999925
 30
0.0
 11
2080.0
 21
-757.9999999999925
 31
0.0
1001
ACDBBLOCKREPETAG
1070
     1
1071
       48
1005
12EB0A
  0
ARC
  5
12EB0B
  8
OBJECT
 10
2200.6872746716731
 20
-749.40809941010014
 30
0.0
 40
170.6350503965856
 50
137.44134459184301
 51
149.91949581336559
1001
ACDBBLOCKREPETAG
1070
     1
1071
       52
1005
12EB0B
  0
ARC
  5
12EB0C
  8
OBJECT
 10
2200.6872746716731
 20
-642.59190058988474
 30
0.0
 40
170.6350503965856
 50
210.0805041866343
 51
222.55865540815699
1001
ACDBBLOCKREPETAG
1070
     1
1071
       53
1005
12EB0C
  0
ARC
  5
12EB0D
  8
OBJECT
 10
1799.312725328326
 20
-749.40809941010014
 30
0.0
 40
170.6350503965856
 50
30.080504186774089
 51
42.558655408447443
1001
ACDBBLOCKREPETAG
1070
     1
1071
       54
1005
12EB0D
  0
ARC
  5
12EB0E
  8
OBJECT
 10
1799.312725328326
 20
-642.59190058988474
 30
0.0
 40
170.6350503965856
 50
317.44134459155248
 51
329.91949581322592
1001
ACDBBLOCKREPETAG
1070
     1
1071
       55
1005
12EB0E
  0
POINT
  5
12EB0F
  8
DOTS
 10
2000.0
 20
-754.9999999999925
 30
0.0
1001
ACDBBLOCKREPETAG
1070
     1
1071
      184
1005
12EB0F
  0
LINE
  5
12EB10
  8
SLIM
 10
3914.9999999999941
 20
-765.19743878931183
 30
0.0
 11
3925.1974387893092
 21
-754.99999999999693
 31
0.0
1001
ACDBBLOCKREPETAG
1070
     1
1071
        0
1005
0
1001
ACAD
1010
0.0
1020
0.0
1030
0.0
  0
LINE
  5
12EB11
  8
SLIM
 10
3914.999999999995
 20
-783.15795103144865
 30
0.0
 11
3943.1579510314468
 21
-754.99999999999693
 31
0.0
1001
ACAD
1010
0.0
1020
0.0
1030
0.0
1001
ACDBBLOCKREPETAG
1070
     1
1071
       14
1005
12EB11
  0
LINE
  5
12EB12
  8
SLIM
 10
3915.1454972543161
 20
-800.97296601926655
 30
0.0
 11
3961.1184632735849
 21
-754.99999999999693
 31
0.0
1001
ACAD
1010
0.0
1020
0.0
1030
0.0
1001
ACDBBLOCKREPETAG
1070
     1
1071
       15
1005
12EB12
  0
LINE
  5
12EB13
  8
SLIM
 10
3917.104627495245
 20
-816.97434802047667
 30
0.0
 11
3979.0789755157239
 21
-754.99999999999693
 31
0.0
1001
ACAD
1010
0.0
1020
0.0
1030
0.0
1001
ACDBBLOCKREPETAG
1070
     1
1071
       16
1005
12EB13
  0
LINE
  5
12EB14
  8
SLIM
 10
3919.0637577361722
 20
-832.97573002168645
 30
0.0
 11
3997.0394877578619
 21
-754.99999999999693
 31
0.0
1001
ACAD
1010
0.0
1020
0.0
1030
0.0
1001
ACDBBLOCKREPETAG
1070
     1
1071
       17
1005
12EB14
  0
LINE
  5
12EB15
  8
SLIM
 10
3920.0
 20
-849.99999999999693
 30
0.0
 11
4015.0
 21
-754.99999999999693
 31
0.0
1001
ACAD
1010
0.0
1020
0.0
1030
0.0
1001
ACDBBLOCKREPETAG
1070
     1
1071
       18
1005
12EB15
  0
LINE
  5
12EB16
  8
SLIM
 10
3920.0
 20
-867.96051224213534
 30
0.0
 11
4032.9605122421372
 21
-754.99999999999693
 31
0.0
1001
ACAD
1010
0.0
1020
0.0
1030
0.0
1001
ACDBBLOCKREPETAG
1070
     1
1071
       19
1005
12EB16
  0
LINE
  5
12EB17
  8
SLIM
 10
3920.0
 20
-885.92102448427374
 30
0.0
 11
4050.921024484277
 21
-754.99999999999693
 31
0.0
1001
ACAD
1010
0.0
1020
0.0
1030
0.0
1001
ACDBBLOCKREPETAG
1070
     1
1071
       20
1005
12EB17
  0
LINE
  5
12EB18
  8
SLIM
 10
3920.0
 20
-903.88153672641204
 30
0.0
 11
4068.8815367264142
 21
-754.99999999999693
 31
0.0
1001
ACAD
1010
0.0
1020
0.0
1030
0.0
1001
ACDBBLOCKREPETAG
1070
     1
1071
       21
1005
12EB18
  0
LINE
  5
12EB19
  8
SLIM
 10
3920.0
 20
-921.84204896855022
 30
0.0
 11
4085.0000000000068
 21
-756.84204896854294
 31
0.0
1001
ACAD
1010
0.0
1020
0.0
1030
0.0
1001
ACDBBLOCKREPETAG
1070
     1
1071
       22
1005
12EB19
  0
LINE
  5
12EB1A
  8
SLIM
 10
3920.0
 20
-939.80256121068828
 30
0.0
 11
4085.0000000000059
 21
-774.80256121068282
 31
0.0
1001
ACAD
1010
0.0
1020
0.0
1030
0.0
1001
ACDBBLOCKREPETAG
1070
     1
1071
       23
1005
12EB1A
  0
LINE
  5
12EB1B
  8
SLIM
 10
3920.0
 20
-957.76307345282657
 30
0.0
 11
4085.0000000000041
 21
-792.76307345282271
 31
0.0
1001
ACAD
1010
0.0
1020
0.0
1030
0.0
1001
ACDBBLOCKREPETAG
1070
     1
1071
       24
1005
12EB1B
  0
LINE
  5
12EB1C
  8
SLIM
 10
3930.0
 20
-965.72358569496475
 30
0.0
 11
3930.7235856949678
 21
-964.99999999999704
 31
0.0
1001
ACAD
1010
0.0
1020
0.0
1030
0.0
1001
ACDBBLOCKREPETAG
1070
     1
1071
       25
1005
12EB1C
  0
LINE
  5
12EB1D
  8
SLIM
 10
3930.7235856949678
 20
-964.99999999999704
 30
0.0
 11
4083.4738280308079
 21
-812.2497576641565
 31
0.0
1001
ACAD
1010
0.0
1020
0.0
1030
0.0
1001
ACDBBLOCKREPETAG
1070
     1
1071
       26
1005
12EB1D
  0
LINE
  5
12EB1E
  8
SLIM
 10
3930.0
 20
-983.68409793710339
 30
0.0
 11
3948.6840979371068
 21
-964.99999999999704
 31
0.0
1001
ACAD
1010
0.0
1020
0.0
1030
0.0
1001
ACDBBLOCKREPETAG
1070
     1
1071
       27
1005
12EB1E
  0
LINE
  5
12EB1F
  8
SLIM
 10
3948.6840979371068
 20
-964.99999999999704
 30
0.0
 11
4080.9680345671368
 21
-832.71606336996604
 31
0.0
1001
ACAD
1010
0.0
1020
0.0
1030
0.0
1001
ACDBBLOCKREPETAG
1070
     1
1071
       28
1005
12EB1F
  0
LINE
  5
12EB20
  8
SLIM
 10
3946.6446101792449
 20
-984.99999999999693
 30
0.0
 11
3966.6446101792449
 21
-964.99999999999704
 31
0.0
1001
ACAD
1010
0.0
1020
0.0
1030
0.0
1001
ACDBBLOCKREPETAG
1070
     1
1071
       29
1005
12EB20
  0
LINE
  5
12EB21
  8
SLIM
 10
3966.6446101792449
 20
-964.99999999999704
 30
0.0
 11
4080.0
 21
-851.64461017924202
 31
0.0
1001
ACAD
1010
0.0
1020
0.0
1030
0.0
1001
ACDBBLOCKREPETAG
1070
     1
1071
       30
1005
12EB21
  0
LINE
  5
12EB22
  8
SLIM
 10
3964.6051224213829
 20
-984.99999999999693
 30
0.0
 11
3984.6051224213829
 21
-964.99999999999704
 31
0.0
1001
ACAD
1010
0.0
1020
0.0
1030
0.0
1001
ACDBBLOCKREPETAG
1070
     1
1071
       31
1005
12EB22
  0
LINE
  5
12EB23
  8
SLIM
 10
3984.6051224213829
 20
-964.99999999999704
 30
0.0
 11
4080.0
 21
-869.60512242138032
 31
0.0
1001
ACAD
1010
0.0
1020
0.0
1030
0.0
1001
ACDBBLOCKREPETAG
1070
     1
1071
       32
1005
12EB23
  0
LINE
  5
12EB24
  8
SLIM
 10
3982.565634663521
 20
-984.99999999999693
 30
0.0
 11
4002.565634663521
 21
-964.99999999999704
 31
0.0
1001
ACAD
1010
0.0
1020
0.0
1030
0.0
1001
ACDBBLOCKREPETAG
1070
     1
1071
       33
1005
12EB24
  0
LINE
  5
12EB25
  8
SLIM
 10
4002.565634663521
 20
-964.99999999999704
 30
0.0
 11
4079.9999999999991
 21
-887.56563466351895
 31
0.0
1001
ACAD
1010
0.0
1020
0.0
1030
0.0
1001
ACDBBLOCKREPETAG
1070
     1
1071
       34
1005
12EB25
  0
LINE
  5
12EB26
  8
SLIM
 10
4000.5261469056582
 20
-984.99999999999693
 30
0.0
 11
4020.52614690566
 21
-964.99999999999704
 31
0.0
1001
ACAD
1010
0.0
1020
0.0
1030
0.0
1001
ACDBBLOCKREPETAG
1070
     1
1071
       35
1005
12EB26
  0
LINE
  5
12EB27
  8
SLIM
 10
4020.52614690566
 20
-964.99999999999704
 30
0.0
 11
4079.9999999999991
 21
-905.52614690565758
 31
0.0
1001
ACAD
1010
0.0
1020
0.0
1030
0.0
1001
ACDBBLOCKREPETAG
1070
     1
1071
       36
1005
12EB27
  0
LINE
  5
12EB28
  8
SLIM
 10
4018.486659147798
 20
-984.99999999999693
 30
0.0
 11
4038.486659147798
 21
-964.99999999999682
 31
0.0
1001
ACAD
1010
0.0
1020
0.0
1030
0.0
1001
ACDBBLOCKREPETAG
1070
     1
1071
       37
1005
12EB28
  0
LINE
  5
12EB29
  8
SLIM
 10
4038.486659147798
 20
-964.99999999999682
 30
0.0
 11
4079.9999999999991
 21
-923.48665914779599
 31
0.0
1001
ACAD
1010
0.0
1020
0.0
1030
0.0
1001
ACDBBLOCKREPETAG
1070
     1
1071
       38
1005
12EB29
  0
LINE
  5
12EB2A
  8
SLIM
 10
4036.4471713899361
 20
-984.99999999999693
 30
0.0
 11
4056.4471713899361
 21
-964.99999999999682
 31
0.0
1001
ACAD
1010
0.0
1020
0.0
1030
0.0
1001
ACDBBLOCKREPETAG
1070
     1
1071
       39
1005
12EB2A
  0
LINE
  5
12EB2B
  8
SLIM
 10
4056.4471713899361
 20
-964.99999999999682
 30
0.0
 11
4079.9999999999991
 21
-941.44717138993474
 31
0.0
1001
ACAD
1010
0.0
1020
0.0
1030
0.0
1001
ACDBBLOCKREPETAG
1070
     1
1071
       40
1005
12EB2B
  0
LINE
  5
12EB2C
  8
SLIM
 10
4054.4076836320728
 20
-984.99999999999693
 30
0.0
 11
4070.0
 21
-969.40768363207155
 31
0.0
1001
ACAD
1010
0.0
1020
0.0
1030
0.0
1001
ACDBBLOCKREPETAG
1070
     1
1071
       41
1005
12EB2C
  0
LINE
  5
12EB2D
  8
SLIM
 10
4074.4076836320728
 20
-964.99999999999682
 30
0.0
 11
4079.9999999999991
 21
-959.40768363207314
 31
0.0
1001
ACAD
1010
0.0
1020
0.0
1030
0.0
1001
ACDBBLOCKREPETAG
1070
     1
1071
       42
1005
12EB2D
  0
LINE
  5
12EB2E
  8
OBJECT
 10
3914.9999999999941
 20
-754.99999999999693
 30
0.0
 11
3914.9999999999968
 21
-799.78460339903188
 31
0.0
1001
ACDBBLOCKREPETAG
1070
     1
1071
        1
1005
12EB2E
  0
LINE
  5
12EB2F
  8
OBJECT
 10
4085.0000000000068
 20
-754.99999999999693
 30
0.0
 11
4085.0000000000032
 21
-799.78460339903904
 31
0.0
1001
ACDBBLOCKREPETAG
1070
     1
1071
        2
1005
12EB2F
  0
LINE
  5
12EB30
  8
OBJECT
 10
4085.0000000000068
 20
-754.99999999999693
 30
0.0
 11
3914.9999999999941
 21
-754.99999999999693
 31
0.0
1001
ACDBBLOCKREPETAG
1070
     1
1071
        3
1005
12EB30
  0
LINE
  5
12EB31
  8
OBJECT
 10
4079.9999999999991
 20
-964.99999999999682
 30
0.0
 11
3920.0
 21
-964.99999999999704
 31
0.0
1001
ACDBBLOCKREPETAG
1070
     1
1071
        4
1005
12EB31
  0
LINE
  5
12EB32
  8
OBJECT
 10
3914.9999999999968
 20
-799.78460339903245
 30
0.0
 11
3920.0
 21
-840.62257748298384
 31
0.0
1001
ACDBBLOCKREPETAG
1070
     1
1071
        6
1005
12EB32
  0
LINE
  5
12EB33
  8
OBJECT
 10
3920.0
 20
-840.62257748298384
 30
0.0
 11
3920.0
 21
-964.99999999999704
 31
0.0
1001
ACDBBLOCKREPETAG
1070
     1
1071
        7
1005
12EB33
  0
LINE
  5
12EB34
  8
OBJECT
 10
4085.0000000000032
 20
-799.78460339903904
 30
0.0
 11
4080.0
 21
-840.62257748298384
 31
0.0
1001
ACDBBLOCKREPETAG
1070
     1
1071
        8
1005
12EB34
  0
LINE
  5
12EB35
  8
OBJECT
 10
4080.0
 20
-840.62257748298384
 30
0.0
 11
4079.9999999999991
 21
-964.99999999999682
 31
0.0
1001
ACDBBLOCKREPETAG
1070
     1
1071
        9
1005
12EB35
  0
LINE
  5
12EB36
  8
OBJECT
 10
3930.0
 20
-964.99999999999704
 30
0.0
 11
3930.0
 21
-984.99999999999693
 31
0.0
1001
ACDBBLOCKREPETAG
1070
     1
1071
       10
1005
12EB36
  0
LINE
  5
12EB37
  8
OBJECT
 10
3930.0
 20
-984.99999999999693
 30
0.0
 11
4070.0
 21
-984.99999999999693
 31
0.0
1001
ACDBBLOCKREPETAG
1070
     1
1071
       11
1005
12EB37
  0
LINE
  5
12EB38
  8
OBJECT
 10
4070.0
 20
-984.99999999999693
 30
0.0
 11
4070.0
 21
-964.99999999999682
 31
0.0
1001
ACDBBLOCKREPETAG
1070
     1
1071
       12
1005
12EB38
  0
CIRCLE
  5
12EB39
  8
OBJECT
 10
220.00000000000159
 20
-790.0
 30
0.0
 40
70.0
1001
ACDBBLOCKREPETAG
1070
     1
1071
       43
1005
12EB39
  0
CIRCLE
  5
12EB3A
  8
OBJECT
 10
220.00000000000159
 20
-790.0
 30
0.0
 40
77.0
1001
ACDBBLOCKREPETAG
1070
     1
1071
       44
1005
12EB3A
  0
ARC
  5
12EB3B
  8
OBJECT
 10
220.00000000000159
 20
-790.0
 30
0.0
 40
80.0
 50
140.80503257377961
 51
219.1949674262203
1001
ACDBBLOCKREPETAG
1070
     1
1071
       45
1005
12EB3B
  0
LINE
  5
12EB3C
  8
OBJECT
 10
158.00000000000159
 20
-744.33819977267535
 30
0.0
 11
158.00000000000159
 21
-710.0
 31
0.0
1001
ACDBBLOCKREPETAG
1070
     1
1071
       46
1005
12EB3C
  0
LINE
  5
12EB3D
  8
OBJECT
 10
282.00000000000171
 20
-728.0
 30
0.0
 11
282.00000000000171
 21
-710.0
 31
0.0
1001
ACDBBLOCKREPETAG
1070
     1
1071
       22
1005
12EB3D
  0
LINE
  5
12EB3E
  8
OBJECT
 10
282.00000000000171
 20
-728.0
 30
0.0
 11
300.00000000000159
 21
-728.0
 31
0.0
1001
ACDBBLOCKREPETAG
1070
     1
1071
       24
1005
12EB3E
  0
LINE
  5
12EB3F
  8
OBJECT
 10
282.00000000000171
 20
-852.0
 30
0.0
 11
300.00000000000159
 21
-852.0
 31
0.0
1001
ACDBBLOCKREPETAG
1070
     1
1071
       25
1005
12EB3F
  0
LINE
  5
12EB40
  8
OBJECT
 10
282.00000000000171
 20
-852.0
 30
0.0
 11
282.00000000000171
 21
-870.0
 31
0.0
1001
ACDBBLOCKREPETAG
1070
     1
1071
       27
1005
12EB40
  0
LINE
  5
12EB41
  8
OBJECT
 10
158.00000000000159
 20
-835.66180022732431
 30
0.0
 11
158.00000000000159
 21
-870.0
 31
0.0
1001
ACDBBLOCKREPETAG
1070
     1
1071
       28
1005
12EB41
  0
LINE
  5
12EB42
  8
OBJECT
 10
274.44722215136568
 20
-844.44722215136414
 30
0.0
 11
282.00000000000171
 21
-852.0
 31
0.0
1001
ACDBBLOCKREPETAG
1070
     1
1071
       37
1005
12EB42
  0
LINE
  5
12EB43
  8
OBJECT
 10
274.44722215136568
 20
-735.5527778486354
 30
0.0
 11
282.00000000000171
 21
-728.0
 31
0.0
1001
ACDBBLOCKREPETAG
1070
     1
1071
       38
1005
12EB43
  0
POINT
  5
12EB44
  8
DOTS
 10
220.00000000000159
 20
-790.0
 30
0.0
1001
ACDBBLOCKREPETAG
1070
     1
1071
       39
1005
12EB44
  0
CIRCLE
  5
12EB45
  8
OBJECT
 10
220.00000000000159
 20
-790.0
 30
0.0
 40
53.5
1001
ACDBBLOCKREPETAG
1070
     1
1071
      153
1005
12EB45
  0
CIRCLE
  5
12EB46
  8
OBJECT
 10
220.00000000000159
 20
-210.0
 30
0.0
 40
70.0
1001
ACDBBLOCKREPETAG
1070
     1
1071
       43
1005
12EB46
  0
CIRCLE
  5
12EB47
  8
OBJECT
 10
220.00000000000159
 20
-210.0
 30
0.0
 40
77.0
1001
ACDBBLOCKREPETAG
1070
     1
1071
       44
1005
12EB47
  0
ARC
  5
12EB48
  8
OBJECT
 10
220.00000000000159
 20
-210.0
 30
0.0
 40
80.0
 50
140.80503257378101
 51
219.19496742621899
1001
ACDBBLOCKREPETAG
1070
     1
1071
       45
1005
12EB48
  0
LINE
  5
12EB49
  8
OBJECT
 10
158.00000000000159
 20
-164.33819977267561
 30
0.0
 11
158.00000000000159
 21
-130.0
 31
0.0
1001
ACDBBLOCKREPETAG
1070
     1
1071
       46
1005
12EB49
  0
LINE
  5
12EB4A
  8
OBJECT
 10
282.00000000000171
 20
-148.0
 30
0.0
 11
282.00000000000171
 21
-130.0
 31
0.0
1001
ACDBBLOCKREPETAG
1070
     1
1071
       22
1005
12EB4A
  0
LINE
  5
12EB4B
  8
OBJECT
 10
282.00000000000171
 20
-148.0
 30
0.0
 11
300.00000000000159
 21
-148.0
 31
0.0
1001
ACDBBLOCKREPETAG
1070
     1
1071
       24
1005
12EB4B
  0
LINE
  5
12EB4C
  8
OBJECT
 10
282.00000000000171
 20
-272.0
 30
0.0
 11
300.00000000000159
 21
-272.0
 31
0.0
1001
ACDBBLOCKREPETAG
1070
     1
1071
       25
1005
12EB4C
  0
LINE
  5
12EB4D
  8
OBJECT
 10
282.00000000000171
 20
-272.0
 30
0.0
 11
282.00000000000171
 21
-290.0
 31
0.0
1001
ACDBBLOCKREPETAG
1070
     1
1071
       27
1005
12EB4D
  0
LINE
  5
12EB4E
  8
OBJECT
 10
158.00000000000159
 20
-255.66180022732439
 30
0.0
 11
158.00000000000159
 21
-290.0
 31
0.0
1001
ACDBBLOCKREPETAG
1070
     1
1071
       28
1005
12EB4E
  0
LINE
  5
12EB4F
  8
OBJECT
 10
274.44722215136568
 20
-264.4472221513642
 30
0.0
 11
282.00000000000171
 21
-272.0
 31
0.0
1001
ACDBBLOCKREPETAG
1070
     1
1071
       37
1005
12EB4F
  0
LINE
  5
12EB50
  8
OBJECT
 10
274.44722215136568
 20
-155.55277784863571
 30
0.0
 11
282.00000000000171
 21
-148.0
 31
0.0
1001
ACDBBLOCKREPETAG
1070
     1
1071
       38
1005
12EB50
  0
POINT
  5
12EB51
  8
DOTS
 10
220.00000000000159
 20
-210.0
 30
0.0
1001
ACDBBLOCKREPETAG
1070
     1
1071
       39
1005
12EB51
  0
CIRCLE
  5
12EB52
  8
OBJECT
 10
220.00000000000159
 20
-210.0
 30
0.0
 40
53.5
1001
ACDBBLOCKREPETAG
1070
     1
1071
      153
1005
12EB52
  0
CIRCLE
  5
12EB53
  8
OBJECT
 10
670.00000000000159
 20
-210.0
 30
0.0
 40
70.0
1001
ACDBBLOCKREPETAG
1070
     1
1071
       43
1005
12EB53
  0
CIRCLE
  5
12EB54
  8
OBJECT
 10
670.00000000000159
 20
-210.0
 30
0.0
 40
77.0
1001
ACDBBLOCKREPETAG
1070
     1
1071
       44
1005
12EB54
  0
ARC
  5
12EB55
  8
OBJECT
 10
670.00000000000159
 20
-210.0
 30
0.0
 40
80.0
 50
140.80503257378001
 51
219.19496742621999
1001
ACDBBLOCKREPETAG
1070
     1
1071
       45
1005
12EB55
  0
LINE
  5
12EB56
  8
OBJECT
 10
608.00000000000159
 20
-164.33819977267561
 30
0.0
 11
608.00000000000159
 21
-130.0
 31
0.0
1001
ACDBBLOCKREPETAG
1070
     1
1071
       46
1005
12EB56
  0
LINE
  5
12EB57
  8
OBJECT
 10
732.00000000000171
 20
-148.0
 30
0.0
 11
732.00000000000171
 21
-130.0
 31
0.0
1001
ACDBBLOCKREPETAG
1070
     1
1071
       22
1005
12EB57
  0
LINE
  5
12EB58
  8
OBJECT
 10
732.00000000000171
 20
-148.0
 30
0.0
 11
750.00000000000159
 21
-148.0
 31
0.0
1001
ACDBBLOCKREPETAG
1070
     1
1071
       24
1005
12EB58
  0
LINE
  5
12EB59
  8
OBJECT
 10
732.00000000000171
 20
-272.0
 30
0.0
 11
750.00000000000159
 21
-272.0
 31
0.0
1001
ACDBBLOCKREPETAG
1070
     1
1071
       25
1005
12EB59
  0
LINE
  5
12EB5A
  8
OBJECT
 10
732.00000000000171
 20
-272.0
 30
0.0
 11
732.00000000000171
 21
-290.0
 31
0.0
1001
ACDBBLOCKREPETAG
1070
     1
1071
       27
1005
12EB5A
  0
LINE
  5
12EB5B
  8
OBJECT
 10
608.00000000000159
 20
-255.66180022732439
 30
0.0
 11
608.00000000000159
 21
-290.0
 31
0.0
1001
ACDBBLOCKREPETAG
1070
     1
1071
       28
1005
12EB5B
  0
LINE
  5
12EB5C
  8
OBJECT
 10
724.44722215136585
 20
-264.4472221513642
 30
0.0
 11
732.00000000000171
 21
-272.0
 31
0.0
1001
ACDBBLOCKREPETAG
1070
     1
1071
       37
1005
12EB5C
  0
LINE
  5
12EB5D
  8
OBJECT
 10
724.44722215136585
 20
-155.55277784863571
 30
0.0
 11
732.00000000000171
 21
-148.0
 31
0.0
1001
ACDBBLOCKREPETAG
1070
     1
1071
       38
1005
12EB5D
  0
POINT
  5
12EB5E
  8
DOTS
 10
670.00000000000159
 20
-210.0
 30
0.0
1001
ACDBBLOCKREPETAG
1070
     1
1071
       39
1005
12EB5E
  0
CIRCLE
  5
12EB5F
  8
OBJECT
 10
670.00000000000159
 20
-210.0
 30
0.0
 40
53.5
1001
ACDBBLOCKREPETAG
1070
     1
1071
      153
1005
12EB5F
  0
CIRCLE
  5
12EB60
  8
OBJECT
 10
670.00000000000159
 20
-790.0
 30
0.0
 40
70.0
1001
ACDBBLOCKREPETAG
1070
     1
1071
       43
1005
12EB60
  0
CIRCLE
  5
12EB61
  8
OBJECT
 10
670.00000000000159
 20
-790.0
 30
0.0
 40
77.0
1001
ACDBBLOCKREPETAG
1070
     1
1071
       44
1005
12EB61
  0
ARC
  5
12EB62
  8
OBJECT
 10
670.00000000000159
 20
-790.0
 30
0.0
 40
80.0
 50
140.8050325737787
 51
219.1949674262213
1001
ACDBBLOCKREPETAG
1070
     1
1071
       45
1005
12EB62
  0
LINE
  5
12EB63
  8
OBJECT
 10
608.00000000000159
 20
-744.33819977267535
 30
0.0
 11
608.00000000000159
 21
-710.0
 31
0.0
1001
ACDBBLOCKREPETAG
1070
     1
1071
       46
1005
12EB63
  0
LINE
  5
12EB64
  8
OBJECT
 10
732.00000000000171
 20
-728.0
 30
0.0
 11
732.00000000000171
 21
-710.0
 31
0.0
1001
ACDBBLOCKREPETAG
1070
     1
1071
       22
1005
12EB64
  0
LINE
  5
12EB65
  8
OBJECT
 10
732.00000000000171
 20
-728.0
 30
0.0
 11
750.00000000000159
 21
-728.0
 31
0.0
1001
ACDBBLOCKREPETAG
1070
     1
1071
       24
1005
12EB65
  0
LINE
  5
12EB66
  8
OBJECT
 10
732.00000000000171
 20
-852.0
 30
0.0
 11
750.00000000000159
 21
-852.0
 31
0.0
1001
ACDBBLOCKREPETAG
1070
     1
1071
       25
1005
12EB66
  0
LINE
  5
12EB67
  8
OBJECT
 10
732.00000000000171
 20
-852.0
 30
0.0
 11
732.00000000000171
 21
-870.0
 31
0.0
1001
ACDBBLOCKREPETAG
1070
     1
1071
       27
1005
12EB67
  0
LINE
  5
12EB68
  8
OBJECT
 10
608.00000000000159
 20
-835.66180022732431
 30
0.0
 11
608.00000000000159
 21
-870.0
 31
0.0
1001
ACDBBLOCKREPETAG
1070
     1
1071
       28
1005
12EB68
  0
LINE
  5
12EB69
  8
OBJECT
 10
724.44722215136585
 20
-844.44722215136414
 30
0.0
 11
732.00000000000171
 21
-852.0
 31
0.0
1001
ACDBBLOCKREPETAG
1070
     1
1071
       37
1005
12EB69
  0
LINE
  5
12EB6A
  8
OBJECT
 10
724.44722215136585
 20
-735.5527778486354
 30
0.0
 11
732.00000000000171
 21
-728.0
 31
0.0
1001
ACDBBLOCKREPETAG
1070
     1
1071
       38
1005
12EB6A
  0
POINT
  5
12EB6B
  8
DOTS
 10
670.00000000000159
 20
-790.0
 30
0.0
1001
ACDBBLOCKREPETAG
1070
     1
1071
       39
1005
12EB6B
  0
CIRCLE
  5
12EB6C
  8
OBJECT
 10
670.00000000000159
 20
-790.0
 30
0.0
 40
53.5
1001
ACDBBLOCKREPETAG
1070
     1
1071
      153
1005
12EB6C
  0
INSERT
  5
12EB6D
  8
OBJECT
  2
*U5
 10
0.0
 20
0.0
 30
0.0
  0
LINE
  5
12EB6E
  8
OBJECT
 10
158.00000000000159
 20
-657.0
 30
0.0
 11
158.00000000000159
 21
-650.0
 31
0.0
1001
ACDBBLOCKREPETAG
1070
     1
1071
       39
1005
12EB6E
  0
LINE
  5
12EB6F
  8
OBJECT
 10
158.00000000000159
 20
-650.0
 30
0.0
 11
282.00000000000171
 21
-650.0
 31
0.0
1001
ACDBBLOCKREPETAG
1070
     1
1071
       40
1005
12EB6F
  0
LINE
  5
12EB70
  8
OBJECT
 10
282.00000000000171
 20
-650.0
 30
0.0
 11
282.00000000000171
 21
-657.0
 31
0.0
1001
ACDBBLOCKREPETAG
1070
     1
1071
       41
1005
12EB70
  0
LINE
  5
12EB71
  8
OBJECT
 10
282.00000000000171
 20
-657.0
 30
0.0
 11
158.00000000000159
 21
-657.0
 31
0.0
1001
ACDBBLOCKREPETAG
1070
     1
1071
       42
1005
12EB71
  0
LINE
  5
12EB72
  8
OBJECT
 10
161.00000000000159
 20
-657.0
 30
0.0
 11
161.00000000000159
 21
-693.0
 31
0.0
1001
ACDBBLOCKREPETAG
1070
     1
1071
       43
1005
12EB72
  0
LINE
  5
12EB73
  8
OBJECT
 10
161.00000000000159
 20
-693.0
 30
0.0
 11
279.00000000000159
 21
-693.0
 31
0.0
1001
ACDBBLOCKREPETAG
1070
     1
1071
       44
1005
12EB73
  0
LINE
  5
12EB74
  8
OBJECT
 10
279.00000000000159
 20
-693.0
 30
0.0
 11
279.00000000000159
 21
-657.0
 31
0.0
1001
ACDBBLOCKREPETAG
1070
     1
1071
       45
1005
12EB74
  0
LINE
  5
12EB75
  8
OBJECT
 10
165.50000000000159
 20
-697.0
 30
0.0
 11
165.50000000000159
 21
-704.0
 31
0.0
1001
ACDBBLOCKREPETAG
1070
     1
1071
       46
1005
12EB75
  0
LINE
  5
12EB76
  8
OBJECT
 10
274.50000000000159
 20
-704.0
 30
0.0
 11
274.50000000000159
 21
-697.0
 31
0.0
1001
ACDBBLOCKREPETAG
1070
     1
1071
       47
1005
12EB76
  0
LINE
  5
12EB77
  8
OBJECT
 10
274.50000000000159
 20
-697.0
 30
0.0
 11
165.50000000000159
 21
-697.0
 31
0.0
1001
ACDBBLOCKREPETAG
1070
     1
1071
       48
1005
12EB77
  0
LINE
  5
12EB78
  8
OBJECT
 10
161.00000000000159
 20
-693.0
 30
0.0
 11
165.50000000000159
 21
-697.0
 31
0.0
1001
ACDBBLOCKREPETAG
1070
     1
1071
       49
1005
12EB78
  0
LINE
  5
12EB79
  8
OBJECT
 10
279.00000000000159
 20
-693.0
 30
0.0
 11
274.50000000000159
 21
-697.0
 31
0.0
1001
ACDBBLOCKREPETAG
1070
     1
1071
       50
1005
12EB79
  0
LINE
  5
12EB7A
  8
OBJECT
 10
158.00000000000159
 20
-706.99999999999909
 30
0.0
 11
158.00000000000159
 21
-710.0
 31
0.0
1001
ACDBBLOCKREPETAG
1070
     1
1071
       51
1005
12EB7A
  0
ARC
  5
12EB7B
  8
OBJECT
 10
161.00000000000159
 20
-706.99999999999909
 30
0.0
 40
3.0
 50
90.0
 51
180.0
1001
ACDBBLOCKREPETAG
1070
     1
1071
       52
1005
12EB7B
  0
LINE
  5
12EB7C
  8
OBJECT
 10
282.00000000000171
 20
-710.0
 30
0.0
 11
282.00000000000171
 21
-707.00000000000091
 31
0.0
1001
ACDBBLOCKREPETAG
1070
     1
1071
       53
1005
12EB7C
  0
ARC
  5
12EB7D
  8
OBJECT
 10
279.00000000000159
 20
-707.00000000000091
 30
0.0
 40
3.0
 50
0.0
 51
90.0
1001
ACDBBLOCKREPETAG
1070
     1
1071
       54
1005
12EB7D
  0
LINE
  5
12EB7E
  8
OBJECT
 10
279.00000000000159
 20
-704.0000000000008
 30
0.0
 11
161.00000000000159
 21
-703.99999999999909
 31
0.0
1001
ACDBBLOCKREPETAG
1070
     1
1071
       55
1005
12EB7E
  0
LINE
  5
12EB7F
  8
HIDDEN
 10
175.50000000000159
 20
-702.0
 30
0.0
 11
264.50000000000159
 21
-702.0
 31
0.0
1001
ACDBBLOCKREPETAG
1070
     1
1071
      426
1005
12EB7F
  0
LINE
  5
12EB80
  8
OBJECT
 10
282.00000000000171
 20
-992.99999999998545
 30
0.0
 11
282.00000000000171
 21
-999.99999999998545
 31
0.0
1001
ACDBBLOCKREPETAG
1070
     1
1071
       74
1005
12EB80
  0
LINE
  5
12EB81
  8
OBJECT
 10
282.00000000000171
 20
-999.99999999998545
 30
0.0
 11
158.00000000000159
 21
-999.99999999998545
 31
0.0
1001
ACDBBLOCKREPETAG
1070
     1
1071
       75
1005
12EB81
  0
LINE
  5
12EB82
  8
OBJECT
 10
158.00000000000159
 20
-999.99999999998545
 30
0.0
 11
158.00000000000159
 21
-992.99999999998545
 31
0.0
1001
ACDBBLOCKREPETAG
1070
     1
1071
       76
1005
12EB82
  0
LINE
  5
12EB83
  8
OBJECT
 10
158.00000000000159
 20
-992.99999999998545
 30
0.0
 11
282.00000000000171
 21
-992.99999999998545
 31
0.0
1001
ACDBBLOCKREPETAG
1070
     1
1071
       77
1005
12EB83
  0
LINE
  5
12EB84
  8
OBJECT
 10
174.99999999999801
 20
-939.99997496418644
 30
0.0
 11
175.00000000000159
 21
-875.99999999999886
 31
0.0
1001
ACDBBLOCKREPETAG
1070
     1
1071
       78
1005
12EB84
  0
LINE
  5
12EB85
  8
OBJECT
 10
265.00000000000159
 20
-939.99997496418644
 30
0.0
 11
265.00000000000159
 21
-876.0000000000008
 31
0.0
1001
ACDBBLOCKREPETAG
1070
     1
1071
       79
1005
12EB85
  0
LINE
  5
12EB86
  8
OBJECT
 10
279.00000000000159
 20
-992.99999999998545
 30
0.0
 11
279.00000000000159
 21
-956.99999999998545
 31
0.0
1001
ACDBBLOCKREPETAG
1070
     1
1071
       80
1005
12EB86
  0
LINE
  5
12EB87
  8
OBJECT
 10
279.00000000000159
 20
-956.99999999998545
 30
0.0
 11
161.00000000000159
 21
-956.99999999998545
 31
0.0
1001
ACDBBLOCKREPETAG
1070
     1
1071
       81
1005
12EB87
  0
LINE
  5
12EB88
  8
OBJECT
 10
161.00000000000159
 20
-956.99999999998545
 30
0.0
 11
161.00000000000159
 21
-992.99999999998545
 31
0.0
1001
ACDBBLOCKREPETAG
1070
     1
1071
       82
1005
12EB88
  0
LINE
  5
12EB89
  8
OBJECT
 10
274.50000000000159
 20
-952.99999999998545
 30
0.0
 11
274.50000000000159
 21
-939.99999999998545
 31
0.0
1001
ACDBBLOCKREPETAG
1070
     1
1071
       83
1005
12EB89
  0
LINE
  5
12EB8A
  8
OBJECT
 10
165.50000000000159
 20
-939.99999999998545
 30
0.0
 11
165.50000000000159
 21
-952.99999999998545
 31
0.0
1001
ACDBBLOCKREPETAG
1070
     1
1071
       84
1005
12EB8A
  0
LINE
  5
12EB8B
  8
OBJECT
 10
165.50000000000159
 20
-952.99999999998545
 30
0.0
 11
274.50000000000159
 21
-952.99999999998545
 31
0.0
1001
ACDBBLOCKREPETAG
1070
     1
1071
       85
1005
12EB8B
  0
LINE
  5
12EB8C
  8
OBJECT
 10
279.00000000000159
 20
-956.99999999998545
 30
0.0
 11
274.50000000000159
 21
-952.99999999998545
 31
0.0
1001
ACDBBLOCKREPETAG
1070
     1
1071
       86
1005
12EB8C
  0
LINE
  5
12EB8D
  8
OBJECT
 10
161.00000000000159
 20
-956.99999999998545
 30
0.0
 11
165.50000000000159
 21
-952.99999999998545
 31
0.0
1001
ACDBBLOCKREPETAG
1070
     1
1071
       87
1005
12EB8D
  0
LINE
  5
12EB8E
  8
OBJECT
 10
282.00000000000171
 20
-873.00000000000114
 30
0.0
 11
282.00000000000171
 21
-870.0
 31
0.0
1001
ACDBBLOCKREPETAG
1070
     1
1071
       88
1005
12EB8E
  0
ARC
  5
12EB8F
  8
OBJECT
 10
279.00000000000159
 20
-873.00000000000114
 30
0.0
 40
3.0
 50
270.0
 51
0.0
1001
ACDBBLOCKREPETAG
1070
     1
1071
       89
1005
12EB8F
  0
LINE
  5
12EB90
  8
OBJECT
 10
158.00000000000159
 20
-870.0
 30
0.0
 11
158.00000000000159
 21
-872.99999999999909
 31
0.0
1001
ACDBBLOCKREPETAG
1070
     1
1071
       90
1005
12EB90
  0
ARC
  5
12EB91
  8
OBJECT
 10
161.00000000000159
 20
-872.99999999999909
 30
0.0
 40
3.0
 50
180.0
 51
270.0
1001
ACDBBLOCKREPETAG
1070
     1
1071
       91
1005
12EB91
  0
LINE
  5
12EB92
  8
OBJECT
 10
161.00000000000159
 20
-875.99999999999886
 30
0.0
 11
209.67720967964291
 21
-876.0000000000008
 31
0.0
1001
ACDBBLOCKREPETAG
1070
     1
1071
       92
1005
12EB92
  0
LINE
  5
12EB93
  8
OBJECT
 10
230.32279032036041
 20
-876.0
 30
0.0
 11
279.00000000000159
 21
-876.0000000000008
 31
0.0
1001
ACDBBLOCKREPETAG
1070
     1
1071
       93
1005
12EB93
  0
LINE
  5
12EB94
  8
OBJECT
 10
165.50004907619021
 20
-939.99997496418644
 30
0.0
 11
274.50004907619012
 21
-939.99997496418644
 31
0.0
1001
ACDBBLOCKREPETAG
1070
     1
1071
       95
1005
12EB94
  0
ARC
  5
12EB95
  8
OBJECT
 10
220.00000000000159
 20
-919.80000000002269
 30
0.0
 40
45.000000000000547
 50
0.0
 51
180.0
1001
ACDBBLOCKREPETAG
1070
     1
1071
       96
1005
12EB95
  0
INSERT
  5
12EB96
  8
OBJECT
  2
*U6
 10
0.0
 20
0.0
 30
0.0
  0
LINE
  5
12EB97
  8
HIDDEN
 10
264.50000000000159
 20
-947.99999999998545
 30
0.0
 11
175.50000000000159
 21
-947.99999999998545
 31
0.0
1001
ACDBBLOCKREPETAG
1070
     1
1071
      431
1005
12EB97
  0
LINE
  5
12EB98
  8
OBJECT
 10
303.00000000000171
 20
-852.0
 30
0.0
 11
300.00000000000159
 21
-852.0
 31
0.0
1001
ACDBBLOCKREPETAG
1070
     1
1071
      418
1005
12EB98
  0
ARC
  5
12EB99
  8
OBJECT
 10
303.00000000000171
 20
-849.0
 30
0.0
 40
3.0
 50
270.0
 51
0.0
1001
ACDBBLOCKREPETAG
1070
     1
1071
      419
1005
12EB99
  0
LINE
  5
12EB9A
  8
OBJECT
 10
300.00000000000159
 20
-728.0
 30
0.0
 11
303.00000000000171
 21
-728.0
 31
0.0
1001
ACDBBLOCKREPETAG
1070
     1
1071
      420
1005
12EB9A
  0
ARC
  5
12EB9B
  8
OBJECT
 10
303.00000000000171
 20
-731.0
 30
0.0
 40
3.0
 50
0.0
 51
90.0
1001
ACDBBLOCKREPETAG
1070
     1
1071
      421
1005
12EB9B
  0
LINE
  5
12EB9C
  8
OBJECT
 10
306.00000000000159
 20
-731.0
 30
0.0
 11
306.00000000000159
 21
-849.0
 31
0.0
1001
ACDBBLOCKREPETAG
1070
     1
1071
      422
1005
12EB9C
  0
INSERT
  5
12EB9D
  8
OBJECT
  2
*U7
 10
0.0
 20
0.0
 30
0.0
  0
LINE
  5
12EB9E
  8
OBJECT
 10
173.00000000000159
 20
-77.0
 30
0.0
 11
173.00000000000159
 21
-70.0
 31
0.0
1001
ACDBBLOCKREPETAG
1070
     1
1071
        1
1005
12EB9E
  0
LINE
  5
12EB9F
  8
OBJECT
 10
173.00000000000159
 20
-70.0
 30
0.0
 11
267.00000000000159
 21
-70.0
 31
0.0
1001
ACDBBLOCKREPETAG
1070
     1
1071
        2
1005
12EB9F
  0
LINE
  5
12EBA0
  8
OBJECT
 10
267.00000000000159
 20
-70.0
 30
0.0
 11
267.00000000000159
 21
-77.0
 31
0.0
1001
ACDBBLOCKREPETAG
1070
     1
1071
        3
1005
12EBA0
  0
LINE
  5
12EBA1
  8
OBJECT
 10
267.00000000000159
 20
-77.0
 30
0.0
 11
173.00000000000159
 21
-77.0
 31
0.0
1001
ACDBBLOCKREPETAG
1070
     1
1071
        4
1005
12EBA1
  0
LINE
  5
12EBA2
  8
OBJECT
 10
176.00000000000159
 20
-77.0
 30
0.0
 11
176.00000000000159
 21
-113.0
 31
0.0
1001
ACDBBLOCKREPETAG
1070
     1
1071
        5
1005
12EBA2
  0
LINE
  5
12EBA3
  8
OBJECT
 10
176.00000000000159
 20
-113.0
 30
0.0
 11
264.00000000000159
 21
-113.0
 31
0.0
1001
ACDBBLOCKREPETAG
1070
     1
1071
        6
1005
12EBA3
  0
LINE
  5
12EBA4
  8
OBJECT
 10
264.00000000000159
 20
-113.0
 30
0.0
 11
264.00000000000159
 21
-77.0
 31
0.0
1001
ACDBBLOCKREPETAG
1070
     1
1071
        7
1005
12EBA4
  0
LINE
  5
12EBA5
  8
OBJECT
 10
180.50000000000159
 20
-117.0
 30
0.0
 11
180.50000000000159
 21
-124.0
 31
0.0
1001
ACDBBLOCKREPETAG
1070
     1
1071
        8
1005
12EBA5
  0
LINE
  5
12EBA6
  8
OBJECT
 10
259.50000000000159
 20
-124.0
 30
0.0
 11
259.50000000000159
 21
-117.0
 31
0.0
1001
ACDBBLOCKREPETAG
1070
     1
1071
        9
1005
12EBA6
  0
LINE
  5
12EBA7
  8
OBJECT
 10
259.50000000000159
 20
-117.0
 30
0.0
 11
180.50000000000159
 21
-117.0
 31
0.0
1001
ACDBBLOCKREPETAG
1070
     1
1071
       10
1005
12EBA7
  0
LINE
  5
12EBA8
  8
OBJECT
 10
176.00000000000159
 20
-113.0
 30
0.0
 11
180.50000000000159
 21
-117.0
 31
0.0
1001
ACDBBLOCKREPETAG
1070
     1
1071
       11
1005
12EBA8
  0
LINE
  5
12EBA9
  8
OBJECT
 10
264.00000000000159
 20
-113.0
 30
0.0
 11
259.50000000000159
 21
-117.0
 31
0.0
1001
ACDBBLOCKREPETAG
1070
     1
1071
       12
1005
12EBA9
  0
LINE
  5
12EBAA
  8
OBJECT
 10
158.00000000000159
 20
-126.9999999999991
 30
0.0
 11
158.00000000000159
 21
-130.0
 31
0.0
1001
ACDBBLOCKREPETAG
1070
     1
1071
       13
1005
12EBAA
  0
ARC
  5
12EBAB
  8
OBJECT
 10
161.00000000000159
 20
-126.9999999999991
 30
0.0
 40
3.0
 50
90.0
 51
180.0
1001
ACDBBLOCKREPETAG
1070
     1
1071
       14
1005
12EBAB
  0
LINE
  5
12EBAC
  8
OBJECT
 10
282.00000000000171
 20
-130.0
 30
0.0
 11
282.00000000000171
 21
-127.0000000000009
 31
0.0
1001
ACDBBLOCKREPETAG
1070
     1
1071
       15
1005
12EBAC
  0
ARC
  5
12EBAD
  8
OBJECT
 10
279.00000000000159
 20
-127.0000000000009
 30
0.0
 40
3.0
 50
0.0
 51
90.0
1001
ACDBBLOCKREPETAG
1070
     1
1071
       16
1005
12EBAD
  0
LINE
  5
12EBAE
  8
OBJECT
 10
279.00000000000159
 20
-124.0000000000009
 30
0.0
 11
161.00000000000159
 21
-123.9999999999991
 31
0.0
1001
ACDBBLOCKREPETAG
1070
     1
1071
       17
1005
12EBAE
  0
LINE
  5
12EBAF
  8
HIDDEN
 10
190.00000000000159
 20
-122.0
 30
0.0
 11
250.00000000000159
 21
-122.0
 31
0.0
1001
ACDBBLOCKREPETAG
1070
     1
1071
      420
1005
12EBAF
  0
LINE
  5
12EBB0
  8
OBJECT
 10
282.00000000000171
 20
-412.99999999998528
 30
0.0
 11
282.00000000000171
 21
-419.99999999998528
 31
0.0
1001
ACDBBLOCKREPETAG
1070
     1
1071
       74
1005
12EBB0
  0
LINE
  5
12EBB1
  8
OBJECT
 10
282.00000000000171
 20
-419.99999999998528
 30
0.0
 11
158.00000000000159
 21
-419.99999999998528
 31
0.0
1001
ACDBBLOCKREPETAG
1070
     1
1071
       75
1005
12EBB1
  0
LINE
  5
12EBB2
  8
OBJECT
 10
158.00000000000159
 20
-419.99999999998528
 30
0.0
 11
158.00000000000159
 21
-412.99999999998528
 31
0.0
1001
ACDBBLOCKREPETAG
1070
     1
1071
       76
1005
12EBB2
  0
LINE
  5
12EBB3
  8
OBJECT
 10
158.00000000000159
 20
-412.99999999998528
 30
0.0
 11
282.00000000000171
 21
-412.99999999998528
 31
0.0
1001
ACDBBLOCKREPETAG
1070
     1
1071
       77
1005
12EBB3
  0
LINE
  5
12EBB4
  8
OBJECT
 10
174.99999999999801
 20
-359.99997496418649
 30
0.0
 11
175.00000000000159
 21
-295.99999999999898
 31
0.0
1001
ACDBBLOCKREPETAG
1070
     1
1071
       78
1005
12EBB4
  0
LINE
  5
12EBB5
  8
OBJECT
 10
265.00000000000159
 20
-359.99997496418649
 30
0.0
 11
265.00000000000159
 21
-296.0000000000008
 31
0.0
1001
ACDBBLOCKREPETAG
1070
     1
1071
       79
1005
12EBB5
  0
LINE
  5
12EBB6
  8
OBJECT
 10
279.00000000000159
 20
-412.99999999998528
 30
0.0
 11
279.00000000000159
 21
-376.99999999998528
 31
0.0
1001
ACDBBLOCKREPETAG
1070
     1
1071
       80
1005
12EBB6
  0
LINE
  5
12EBB7
  8
OBJECT
 10
279.00000000000159
 20
-376.99999999998528
 30
0.0
 11
161.00000000000159
 21
-376.99999999998528
 31
0.0
1001
ACDBBLOCKREPETAG
1070
     1
1071
       81
1005
12EBB7
  0
LINE
  5
12EBB8
  8
OBJECT
 10
161.00000000000159
 20
-376.99999999998528
 30
0.0
 11
161.00000000000159
 21
-412.99999999998528
 31
0.0
1001
ACDBBLOCKREPETAG
1070
     1
1071
       82
1005
12EBB8
  0
LINE
  5
12EBB9
  8
OBJECT
 10
274.50000000000159
 20
-372.9999999999855
 30
0.0
 11
274.50000000000159
 21
-359.99999999998528
 31
0.0
1001
ACDBBLOCKREPETAG
1070
     1
1071
       83
1005
12EBB9
  0
LINE
  5
12EBBA
  8
OBJECT
 10
165.50000000000159
 20
-359.99999999998528
 30
0.0
 11
165.50000000000159
 21
-372.9999999999855
 31
0.0
1001
ACDBBLOCKREPETAG
1070
     1
1071
       84
1005
12EBBA
  0
LINE
  5
12EBBB
  8
OBJECT
 10
165.50000000000159
 20
-372.9999999999855
 30
0.0
 11
274.50000000000159
 21
-372.9999999999855
 31
0.0
1001
ACDBBLOCKREPETAG
1070
     1
1071
       85
1005
12EBBB
  0
LINE
  5
12EBBC
  8
OBJECT
 10
279.00000000000159
 20
-376.99999999998528
 30
0.0
 11
274.50000000000159
 21
-372.9999999999855
 31
0.0
1001
ACDBBLOCKREPETAG
1070
     1
1071
       86
1005
12EBBC
  0
LINE
  5
12EBBD
  8
OBJECT
 10
161.00000000000159
 20
-376.99999999998528
 30
0.0
 11
165.50000000000159
 21
-372.9999999999855
 31
0.0
1001
ACDBBLOCKREPETAG
1070
     1
1071
       87
1005
12EBBD
  0
LINE
  5
12EBBE
  8
OBJECT
 10
282.00000000000171
 20
-293.0000000000008
 30
0.0
 11
282.00000000000171
 21
-290.0
 31
0.0
1001
ACDBBLOCKREPETAG
1070
     1
1071
       88
1005
12EBBE
  0
ARC
  5
12EBBF
  8
OBJECT
 10
279.00000000000159
 20
-293.0000000000008
 30
0.0
 40
3.0
 50
270.0
 51
0.0
1001
ACDBBLOCKREPETAG
1070
     1
1071
       89
1005
12EBBF
  0
LINE
  5
12EBC0
  8
OBJECT
 10
158.00000000000159
 20
-290.0
 30
0.0
 11
158.00000000000159
 21
-292.99999999999898
 31
0.0
1001
ACDBBLOCKREPETAG
1070
     1
1071
       90
1005
12EBC0
  0
ARC
  5
12EBC1
  8
OBJECT
 10
161.00000000000159
 20
-292.99999999999898
 30
0.0
 40
3.0
 50
180.0
 51
270.0
1001
ACDBBLOCKREPETAG
1070
     1
1071
       91
1005
12EBC1
  0
LINE
  5
12EBC2
  8
OBJECT
 10
161.00000000000159
 20
-295.99999999999898
 30
0.0
 11
209.67720967964291
 21
-296.0000000000008
 31
0.0
1001
ACDBBLOCKREPETAG
1070
     1
1071
       92
1005
12EBC2
  0
LINE
  5
12EBC3
  8
OBJECT
 10
230.32279032036041
 20
-296.0
 30
0.0
 11
279.00000000000159
 21
-296.0000000000008
 31
0.0
1001
ACDBBLOCKREPETAG
1070
     1
1071
       93
1005
12EBC3
  0
LINE
  5
12EBC4
  8
OBJECT
 10
165.50004907619021
 20
-359.99997496418649
 30
0.0
 11
274.50004907619012
 21
-359.99997496418649
 31
0.0
1001
ACDBBLOCKREPETAG
1070
     1
1071
       95
1005
12EBC4
  0
ARC
  5
12EBC5
  8
OBJECT
 10
220.00000000000159
 20
-339.80000000002292
 30
0.0
 40
45.000000000000547
 50
0.0
 51
180.0
1001
ACDBBLOCKREPETAG
1070
     1
1071
       96
1005
12EBC5
  0
INSERT
  5
12EBC6
  8
OBJECT
  2
*U8
 10
0.0
 20
0.0
 30
0.0
  0
LINE
  5
12EBC7
  8
HIDDEN
 10
264.50000000000159
 20
-367.99999999998539
 30
0.0
 11
175.50000000000159
 21
-367.99999999998539
 31
0.0
1001
ACDBBLOCKREPETAG
1070
     1
1071
      431
1005
12EBC7
  0
LINE
  5
12EBC8
  8
OBJECT
 10
303.00000000000171
 20
-272.0
 30
0.0
 11
300.00000000000159
 21
-272.0
 31
0.0
1001
ACDBBLOCKREPETAG
1070
     1
1071
      418
1005
12EBC8
  0
ARC
  5
12EBC9
  8
OBJECT
 10
303.00000000000171
 20
-269.0
 30
0.0
 40
3.0
 50
270.0
 51
0.0
1001
ACDBBLOCKREPETAG
1070
     1
1071
      419
1005
12EBC9
  0
LINE
  5
12EBCA
  8
OBJECT
 10
300.00000000000159
 20
-148.0
 30
0.0
 11
303.00000000000171
 21
-148.0
 31
0.0
1001
ACDBBLOCKREPETAG
1070
     1
1071
      420
1005
12EBCA
  0
ARC
  5
12EBCB
  8
OBJECT
 10
303.00000000000171
 20
-151.0
 30
0.0
 40
3.0
 50
0.0
 51
90.0
1001
ACDBBLOCKREPETAG
1070
     1
1071
      421
1005
12EBCB
  0
LINE
  5
12EBCC
  8
OBJECT
 10
306.00000000000159
 20
-151.0
 30
0.0
 11
306.00000000000159
 21
-269.0
 31
0.0
1001
ACDBBLOCKREPETAG
1070
     1
1071
      422
1005
12EBCC
  0
INSERT
  5
12EBCD
  8
OBJECT
  2
*U9
 10
0.0
 20
0.0
 30
0.0
  0
LINE
  5
12EBCE
  8
OBJECT
 10
615.00000000000159
 20
-77.0
 30
0.0
 11
615.00000000000159
 21
-70.0
 31
0.0
1001
ACDBBLOCKREPETAG
1070
     1
1071
       20
1005
12EBCE
  0
LINE
  5
12EBCF
  8
OBJECT
 10
615.00000000000159
 20
-70.0
 30
0.0
 11
725.00000000000159
 21
-70.0
 31
0.0
1001
ACDBBLOCKREPETAG
1070
     1
1071
       21
1005
12EBCF
  0
LINE
  5
12EBD0
  8
OBJECT
 10
725.00000000000159
 20
-70.0
 30
0.0
 11
725.00000000000159
 21
-77.0
 31
0.0
1001
ACDBBLOCKREPETAG
1070
     1
1071
       22
1005
12EBD0
  0
LINE
  5
12EBD1
  8
OBJECT
 10
725.00000000000159
 20
-77.0
 30
0.0
 11
615.00000000000159
 21
-77.0
 31
0.0
1001
ACDBBLOCKREPETAG
1070
     1
1071
       23
1005
12EBD1
  0
LINE
  5
12EBD2
  8
OBJECT
 10
618.00000000000136
 20
-77.0
 30
0.0
 11
618.00000000000136
 21
-113.0
 31
0.0
1001
ACDBBLOCKREPETAG
1070
     1
1071
       24
1005
12EBD2
  0
LINE
  5
12EBD3
  8
OBJECT
 10
618.00000000000136
 20
-113.0
 30
0.0
 11
722.00000000000171
 21
-113.0
 31
0.0
1001
ACDBBLOCKREPETAG
1070
     1
1071
       25
1005
12EBD3
  0
LINE
  5
12EBD4
  8
OBJECT
 10
722.00000000000171
 20
-113.0
 30
0.0
 11
722.00000000000171
 21
-77.0
 31
0.0
1001
ACDBBLOCKREPETAG
1070
     1
1071
       26
1005
12EBD4
  0
LINE
  5
12EBD5
  8
OBJECT
 10
622.50000000000136
 20
-117.0
 30
0.0
 11
622.50000000000136
 21
-124.0
 31
0.0
1001
ACDBBLOCKREPETAG
1070
     1
1071
       27
1005
12EBD5
  0
LINE
  5
12EBD6
  8
OBJECT
 10
717.50000000000136
 20
-124.0
 30
0.0
 11
717.50000000000136
 21
-117.0
 31
0.0
1001
ACDBBLOCKREPETAG
1070
     1
1071
       28
1005
12EBD6
  0
LINE
  5
12EBD7
  8
OBJECT
 10
717.50000000000136
 20
-117.0
 30
0.0
 11
622.50000000000136
 21
-117.0
 31
0.0
1001
ACDBBLOCKREPETAG
1070
     1
1071
       29
1005
12EBD7
  0
LINE
  5
12EBD8
  8
OBJECT
 10
618.00000000000136
 20
-113.0
 30
0.0
 11
622.50000000000136
 21
-117.0
 31
0.0
1001
ACDBBLOCKREPETAG
1070
     1
1071
       30
1005
12EBD8
  0
LINE
  5
12EBD9
  8
OBJECT
 10
722.00000000000171
 20
-113.0
 30
0.0
 11
717.50000000000136
 21
-117.0
 31
0.0
1001
ACDBBLOCKREPETAG
1070
     1
1071
       31
1005
12EBD9
  0
LINE
  5
12EBDA
  8
OBJECT
 10
608.00000000000159
 20
-126.9999999999991
 30
0.0
 11
608.00000000000159
 21
-130.0
 31
0.0
1001
ACDBBLOCKREPETAG
1070
     1
1071
       32
1005
12EBDA
  0
ARC
  5
12EBDB
  8
OBJECT
 10
611.00000000000159
 20
-126.9999999999991
 30
0.0
 40
3.0
 50
90.0
 51
180.0
1001
ACDBBLOCKREPETAG
1070
     1
1071
       33
1005
12EBDB
  0
LINE
  5
12EBDC
  8
OBJECT
 10
732.00000000000171
 20
-130.0
 30
0.0
 11
732.00000000000171
 21
-127.0000000000009
 31
0.0
1001
ACDBBLOCKREPETAG
1070
     1
1071
       34
1005
12EBDC
  0
ARC
  5
12EBDD
  8
OBJECT
 10
729.00000000000159
 20
-127.0000000000009
 30
0.0
 40
3.0
 50
0.0
 51
90.0
1001
ACDBBLOCKREPETAG
1070
     1
1071
       35
1005
12EBDD
  0
LINE
  5
12EBDE
  8
OBJECT
 10
729.00000000000159
 20
-124.0000000000009
 30
0.0
 11
611.00000000000159
 21
-123.9999999999991
 31
0.0
1001
ACDBBLOCKREPETAG
1070
     1
1071
       36
1005
12EBDE
  0
LINE
  5
12EBDF
  8
HIDDEN
 10
632.00000000000159
 20
-122.0
 30
0.0
 11
708.00000000000159
 21
-122.0
 31
0.0
1001
ACDBBLOCKREPETAG
1070
     1
1071
      423
1005
12EBDF
  0
LINE
  5
12EBE0
  8
OBJECT
 10
732.00000000000171
 20
-412.99999999998528
 30
0.0
 11
732.00000000000171
 21
-419.99999999998528
 31
0.0
1001
ACDBBLOCKREPETAG
1070
     1
1071
       74
1005
12EBE0
  0
LINE
  5
12EBE1
  8
OBJECT
 10
732.00000000000171
 20
-419.99999999998528
 30
0.0
 11
608.00000000000159
 21
-419.99999999998528
 31
0.0
1001
ACDBBLOCKREPETAG
1070
     1
1071
       75
1005
12EBE1
  0
LINE
  5
12EBE2
  8
OBJECT
 10
608.00000000000159
 20
-419.99999999998528
 30
0.0
 11
608.00000000000159
 21
-412.99999999998528
 31
0.0
1001
ACDBBLOCKREPETAG
1070
     1
1071
       76
1005
12EBE2
  0
LINE
  5
12EBE3
  8
OBJECT
 10
608.00000000000159
 20
-412.99999999998528
 30
0.0
 11
732.00000000000171
 21
-412.99999999998528
 31
0.0
1001
ACDBBLOCKREPETAG
1070
     1
1071
       77
1005
12EBE3
  0
LINE
  5
12EBE4
  8
OBJECT
 10
624.99999999999795
 20
-359.99997496418649
 30
0.0
 11
625.00000000000148
 21
-295.99999999999898
 31
0.0
1001
ACDBBLOCKREPETAG
1070
     1
1071
       78
1005
12EBE4
  0
LINE
  5
12EBE5
  8
OBJECT
 10
715.00000000000171
 20
-359.99997496418649
 30
0.0
 11
715.00000000000171
 21
-296.0000000000008
 31
0.0
1001
ACDBBLOCKREPETAG
1070
     1
1071
       79
1005
12EBE5
  0
LINE
  5
12EBE6
  8
OBJECT
 10
729.00000000000159
 20
-412.99999999998528
 30
0.0
 11
729.00000000000159
 21
-376.99999999998528
 31
0.0
1001
ACDBBLOCKREPETAG
1070
     1
1071
       80
1005
12EBE6
  0
LINE
  5
12EBE7
  8
OBJECT
 10
729.00000000000159
 20
-376.99999999998528
 30
0.0
 11
611.00000000000159
 21
-376.99999999998528
 31
0.0
1001
ACDBBLOCKREPETAG
1070
     1
1071
       81
1005
12EBE7
  0
LINE
  5
12EBE8
  8
OBJECT
 10
611.00000000000159
 20
-376.99999999998528
 30
0.0
 11
611.00000000000159
 21
-412.99999999998528
 31
0.0
1001
ACDBBLOCKREPETAG
1070
     1
1071
       82
1005
12EBE8
  0
LINE
  5
12EBE9
  8
OBJECT
 10
724.50000000000159
 20
-372.9999999999855
 30
0.0
 11
724.50000000000159
 21
-359.99999999998528
 31
0.0
1001
ACDBBLOCKREPETAG
1070
     1
1071
       83
1005
12EBE9
  0
LINE
  5
12EBEA
  8
OBJECT
 10
615.50000000000159
 20
-359.99999999998528
 30
0.0
 11
615.50000000000159
 21
-372.9999999999855
 31
0.0
1001
ACDBBLOCKREPETAG
1070
     1
1071
       84
1005
12EBEA
  0
LINE
  5
12EBEB
  8
OBJECT
 10
615.50000000000159
 20
-372.9999999999855
 30
0.0
 11
724.50000000000159
 21
-372.9999999999855
 31
0.0
1001
ACDBBLOCKREPETAG
1070
     1
1071
       85
1005
12EBEB
  0
LINE
  5
12EBEC
  8
OBJECT
 10
729.00000000000159
 20
-376.99999999998528
 30
0.0
 11
724.50000000000159
 21
-372.9999999999855
 31
0.0
1001
ACDBBLOCKREPETAG
1070
     1
1071
       86
1005
12EBEC
  0
LINE
  5
12EBED
  8
OBJECT
 10
611.00000000000159
 20
-376.99999999998528
 30
0.0
 11
615.50000000000159
 21
-372.9999999999855
 31
0.0
1001
ACDBBLOCKREPETAG
1070
     1
1071
       87
1005
12EBED
  0
LINE
  5
12EBEE
  8
OBJECT
 10
732.00000000000171
 20
-293.0000000000008
 30
0.0
 11
732.00000000000171
 21
-290.0
 31
0.0
1001
ACDBBLOCKREPETAG
1070
     1
1071
       88
1005
12EBEE
  0
ARC
  5
12EBEF
  8
OBJECT
 10
729.00000000000159
 20
-293.0000000000008
 30
0.0
 40
3.0
 50
270.0
 51
0.0
1001
ACDBBLOCKREPETAG
1070
     1
1071
       89
1005
12EBEF
  0
LINE
  5
12EBF0
  8
OBJECT
 10
608.00000000000159
 20
-290.0
 30
0.0
 11
608.00000000000159
 21
-292.99999999999898
 31
0.0
1001
ACDBBLOCKREPETAG
1070
     1
1071
       90
1005
12EBF0
  0
ARC
  5
12EBF1
  8
OBJECT
 10
611.00000000000159
 20
-292.99999999999898
 30
0.0
 40
3.0
 50
180.0
 51
270.0
1001
ACDBBLOCKREPETAG
1070
     1
1071
       91
1005
12EBF1
  0
LINE
  5
12EBF2
  8
OBJECT
 10
611.00000000000159
 20
-295.99999999999898
 30
0.0
 11
659.67720967964271
 21
-296.0000000000008
 31
0.0
1001
ACDBBLOCKREPETAG
1070
     1
1071
       92
1005
12EBF2
  0
LINE
  5
12EBF3
  8
OBJECT
 10
680.32279032036035
 20
-296.0
 30
0.0
 11
729.00000000000159
 21
-296.0000000000008
 31
0.0
1001
ACDBBLOCKREPETAG
1070
     1
1071
       93
1005
12EBF3
  0
LINE
  5
12EBF4
  8
OBJECT
 10
615.50004907618995
 20
-359.99997496418649
 30
0.0
 11
724.50004907619018
 21
-359.99997496418649
 31
0.0
1001
ACDBBLOCKREPETAG
1070
     1
1071
       95
1005
12EBF4
  0
ARC
  5
12EBF5
  8
OBJECT
 10
670.00000000000159
 20
-339.80000000002292
 30
0.0
 40
45.000000000000547
 50
0.0
 51
180.0
1001
ACDBBLOCKREPETAG
1070
     1
1071
       96
1005
12EBF5
  0
INSERT
  5
12EBF6
  8
OBJECT
  2
*U10
 10
0.0
 20
0.0
 30
0.0
  0
LINE
  5
12EBF7
  8
HIDDEN
 10
714.50000000000171
 20
-367.99999999998539
 30
0.0
 11
625.50000000000136
 21
-367.99999999998539
 31
0.0
1001
ACDBBLOCKREPETAG
1070
     1
1071
      431
1005
12EBF7
  0
LINE
  5
12EBF8
  8
OBJECT
 10
753.00000000000171
 20
-272.0
 30
0.0
 11
750.00000000000159
 21
-272.0
 31
0.0
1001
ACDBBLOCKREPETAG
1070
     1
1071
      418
1005
12EBF8
  0
ARC
  5
12EBF9
  8
OBJECT
 10
753.00000000000171
 20
-269.0
 30
0.0
 40
3.0
 50
270.0
 51
0.0
1001
ACDBBLOCKREPETAG
1070
     1
1071
      419
1005
12EBF9
  0
LINE
  5
12EBFA
  8
OBJECT
 10
750.00000000000159
 20
-148.0
 30
0.0
 11
753.00000000000171
 21
-148.0
 31
0.0
1001
ACDBBLOCKREPETAG
1070
     1
1071
      420
1005
12EBFA
  0
ARC
  5
12EBFB
  8
OBJECT
 10
753.00000000000171
 20
-151.0
 30
0.0
 40
3.0
 50
0.0
 51
90.0
1001
ACDBBLOCKREPETAG
1070
     1
1071
      421
1005
12EBFB
  0
LINE
  5
12EBFC
  8
OBJECT
 10
756.00000000000171
 20
-151.0
 30
0.0
 11
756.00000000000171
 21
-269.0
 31
0.0
1001
ACDBBLOCKREPETAG
1070
     1
1071
      422
1005
12EBFC
  0
LINE
  5
12EBFD
  8
OBJECT
 10
595.00000000000159
 20
-640.0
 30
0.0
 11
595.00000000000159
 21
-647.0
 31
0.0
1001
ACDBBLOCKREPETAG
1070
     1
1071
       57
1005
12EBFD
  0
LINE
  5
12EBFE
  8
OBJECT
 10
595.00000000000159
 20
-647.0
 30
0.0
 11
745.00000000000171
 21
-647.0
 31
0.0
1001
ACDBBLOCKREPETAG
1070
     1
1071
       58
1005
12EBFE
  0
LINE
  5
12EBFF
  8
OBJECT
 10
598.00000000000159
 20
-688.49999999999977
 30
0.0
 11
742.00000000000159
 21
-688.49999999999977
 31
0.0
1001
ACDBBLOCKREPETAG
1070
     1
1071
       59
1005
12EBFF
  0
LINE
  5
12EC00
  8
OBJECT
 10
604.50000000000148
 20
-700.0
 30
0.0
 11
735.50000000000171
 21
-700.0
 31
0.0
1001
ACDBBLOCKREPETAG
1070
     1
1071
       60
1005
12EC00
  0
LINE
  5
12EC01
  8
OBJECT
 10
745.00000000000171
 20
-647.0
 30
0.0
 11
745.00000000000171
 21
-640.0
 31
0.0
1001
ACDBBLOCKREPETAG
1070
     1
1071
       61
1005
12EC01
  0
LINE
  5
12EC02
  8
OBJECT
 10
745.00000000000171
 20
-640.0
 30
0.0
 11
595.00000000000159
 21
-640.0
 31
0.0
1001
ACDBBLOCKREPETAG
1070
     1
1071
       62
1005
12EC02
  0
LINE
  5
12EC03
  8
OBJECT
 10
732.00000000000171
 20
-704.0
 30
0.0
 11
732.00000000000171
 21
-710.0
 31
0.0
1001
ACDBBLOCKREPETAG
1070
     1
1071
       63
1005
12EC03
  0
LINE
  5
12EC04
  8
OBJECT
 10
742.00000000000159
 20
-647.0
 30
0.0
 11
742.00000000000159
 21
-688.49999999999977
 31
0.0
1001
ACDBBLOCKREPETAG
1070
     1
1071
       64
1005
12EC04
  0
LINE
  5
12EC05
  8
OBJECT
 10
742.00000000000159
 20
-688.49999999999977
 30
0.0
 11
735.50000000000171
 21
-700.0
 31
0.0
1001
ACDBBLOCKREPETAG
1070
     1
1071
       65
1005
12EC05
  0
LINE
  5
12EC06
  8
OBJECT
 10
735.50000000000171
 20
-700.0
 30
0.0
 11
732.00000000000171
 21
-704.0
 31
0.0
1001
ACDBBLOCKREPETAG
1070
     1
1071
       66
1005
12EC06
  0
LINE
  5
12EC07
  8
OBJECT
 10
598.00000000000159
 20
-688.49999999999977
 30
0.0
 11
604.50000000000148
 21
-700.0
 31
0.0
1001
ACDBBLOCKREPETAG
1070
     1
1071
       67
1005
12EC07
  0
LINE
  5
12EC08
  8
OBJECT
 10
604.50000000000148
 20
-700.0
 30
0.0
 11
608.00000000000159
 21
-704.0
 31
0.0
1001
ACDBBLOCKREPETAG
1070
     1
1071
       68
1005
12EC08
  0
ARC
  5
12EC09
  8
OBJECT
 10
670.00000000000159
 20
-322.09999999999849
 30
0.0
 40
386.89999999999998
 50
260.77870136257951
 51
279.22129863742049
1001
ACDBBLOCKREPETAG
1070
     1
1071
       69
1005
12EC09
  0
LINE
  5
12EC0A
  8
OBJECT
 10
608.00000000000159
 20
-704.0
 30
0.0
 11
608.00000000000159
 21
-710.0
 31
0.0
1001
ACDBBLOCKREPETAG
1070
     1
1071
       70
1005
12EC0A
  0
LINE
  5
12EC0B
  8
OBJECT
 10
598.00000000000159
 20
-647.0
 30
0.0
 11
598.00000000000159
 21
-688.49999999999977
 31
0.0
1001
ACDBBLOCKREPETAG
1070
     1
1071
       71
1005
12EC0B
  0
INSERT
  5
12EC0C
  8
OBJECT
  2
*U11
 10
0.0
 20
0.0
 30
0.0
  0
LINE
  5
12EC0D
  8
HIDDEN
 10
727.00000000000171
 20
-692.0
 30
0.0
 11
613.00000000000136
 21
-692.0
 31
0.0
1001
ACDBBLOCKREPETAG
1070
     1
1071
      431
1005
12EC0D
  0
LINE
  5
12EC0E
  8
OBJECT
 10
732.00000000000171
 20
-992.99999999998545
 30
0.0
 11
732.00000000000171
 21
-999.99999999998545
 31
0.0
1001
ACDBBLOCKREPETAG
1070
     1
1071
       74
1005
12EC0E
  0
LINE
  5
12EC0F
  8
OBJECT
 10
732.00000000000171
 20
-999.99999999998545
 30
0.0
 11
608.00000000000159
 21
-999.99999999998545
 31
0.0
1001
ACDBBLOCKREPETAG
1070
     1
1071
       75
1005
12EC0F
  0
LINE
  5
12EC10
  8
OBJECT
 10
608.00000000000159
 20
-999.99999999998545
 30
0.0
 11
608.00000000000159
 21
-992.99999999998545
 31
0.0
1001
ACDBBLOCKREPETAG
1070
     1
1071
       76
1005
12EC10
  0
LINE
  5
12EC11
  8
OBJECT
 10
608.00000000000159
 20
-992.99999999998545
 30
0.0
 11
732.00000000000171
 21
-992.99999999998545
 31
0.0
1001
ACDBBLOCKREPETAG
1070
     1
1071
       77
1005
12EC11
  0
LINE
  5
12EC12
  8
OBJECT
 10
624.99999999999795
 20
-939.99997496418644
 30
0.0
 11
625.00000000000148
 21
-875.99999999999886
 31
0.0
1001
ACDBBLOCKREPETAG
1070
     1
1071
       78
1005
12EC12
  0
LINE
  5
12EC13
  8
OBJECT
 10
715.00000000000171
 20
-939.99997496418644
 30
0.0
 11
715.00000000000171
 21
-876.0000000000008
 31
0.0
1001
ACDBBLOCKREPETAG
1070
     1
1071
       79
1005
12EC13
  0
LINE
  5
12EC14
  8
OBJECT
 10
729.00000000000159
 20
-992.99999999998545
 30
0.0
 11
729.00000000000159
 21
-956.99999999998545
 31
0.0
1001
ACDBBLOCKREPETAG
1070
     1
1071
       80
1005
12EC14
  0
LINE
  5
12EC15
  8
OBJECT
 10
729.00000000000159
 20
-956.99999999998545
 30
0.0
 11
611.00000000000159
 21
-956.99999999998545
 31
0.0
1001
ACDBBLOCKREPETAG
1070
     1
1071
       81
1005
12EC15
  0
LINE
  5
12EC16
  8
OBJECT
 10
611.00000000000159
 20
-956.99999999998545
 30
0.0
 11
611.00000000000159
 21
-992.99999999998545
 31
0.0
1001
ACDBBLOCKREPETAG
1070
     1
1071
       82
1005
12EC16
  0
LINE
  5
12EC17
  8
OBJECT
 10
724.50000000000159
 20
-952.99999999998545
 30
0.0
 11
724.50000000000159
 21
-939.99999999998545
 31
0.0
1001
ACDBBLOCKREPETAG
1070
     1
1071
       83
1005
12EC17
  0
LINE
  5
12EC18
  8
OBJECT
 10
615.50000000000159
 20
-939.99999999998545
 30
0.0
 11
615.50000000000159
 21
-952.99999999998545
 31
0.0
1001
ACDBBLOCKREPETAG
1070
     1
1071
       84
1005
12EC18
  0
LINE
  5
12EC19
  8
OBJECT
 10
615.50000000000159
 20
-952.99999999998545
 30
0.0
 11
724.50000000000159
 21
-952.99999999998545
 31
0.0
1001
ACDBBLOCKREPETAG
1070
     1
1071
       85
1005
12EC19
  0
LINE
  5
12EC1A
  8
OBJECT
 10
729.00000000000159
 20
-956.99999999998545
 30
0.0
 11
724.50000000000159
 21
-952.99999999998545
 31
0.0
1001
ACDBBLOCKREPETAG
1070
     1
1071
       86
1005
12EC1A
  0
LINE
  5
12EC1B
  8
OBJECT
 10
611.00000000000159
 20
-956.99999999998545
 30
0.0
 11
615.50000000000159
 21
-952.99999999998545
 31
0.0
1001
ACDBBLOCKREPETAG
1070
     1
1071
       87
1005
12EC1B
  0
LINE
  5
12EC1C
  8
OBJECT
 10
732.00000000000171
 20
-873.00000000000114
 30
0.0
 11
732.00000000000171
 21
-870.0
 31
0.0
1001
ACDBBLOCKREPETAG
1070
     1
1071
       88
1005
12EC1C
  0
ARC
  5
12EC1D
  8
OBJECT
 10
729.00000000000159
 20
-873.00000000000114
 30
0.0
 40
3.0
 50
270.0
 51
0.0
1001
ACDBBLOCKREPETAG
1070
     1
1071
       89
1005
12EC1D
  0
LINE
  5
12EC1E
  8
OBJECT
 10
608.00000000000159
 20
-870.0
 30
0.0
 11
608.00000000000159
 21
-872.99999999999909
 31
0.0
1001
ACDBBLOCKREPETAG
1070
     1
1071
       90
1005
12EC1E
  0
ARC
  5
12EC1F
  8
OBJECT
 10
611.00000000000159
 20
-872.99999999999909
 30
0.0
 40
3.0
 50
180.0
 51
270.0
1001
ACDBBLOCKREPETAG
1070
     1
1071
       91
1005
12EC1F
  0
LINE
  5
12EC20
  8
OBJECT
 10
611.00000000000159
 20
-875.99999999999886
 30
0.0
 11
659.67720967964271
 21
-876.0000000000008
 31
0.0
1001
ACDBBLOCKREPETAG
1070
     1
1071
       92
1005
12EC20
  0
LINE
  5
12EC21
  8
OBJECT
 10
680.32279032036035
 20
-876.0
 30
0.0
 11
729.00000000000159
 21
-876.0000000000008
 31
0.0
1001
ACDBBLOCKREPETAG
1070
     1
1071
       93
1005
12EC21
  0
LINE
  5
12EC22
  8
OBJECT
 10
615.50004907618995
 20
-939.99997496418644
 30
0.0
 11
724.50004907619018
 21
-939.99997496418644
 31
0.0
1001
ACDBBLOCKREPETAG
1070
     1
1071
       95
1005
12EC22
  0
ARC
  5
12EC23
  8
OBJECT
 10
670.00000000000159
 20
-919.80000000002269
 30
0.0
 40
45.000000000000547
 50
0.0
 51
180.0
1001
ACDBBLOCKREPETAG
1070
     1
1071
       96
1005
12EC23
  0
INSERT
  5
12EC24
  8
OBJECT
  2
*U12
 10
0.0
 20
0.0
 30
0.0
  0
LINE
  5
12EC25
  8
HIDDEN
 10
714.50000000000171
 20
-947.99999999998545
 30
0.0
 11
625.50000000000136
 21
-947.99999999998545
 31
0.0
1001
ACDBBLOCKREPETAG
1070
     1
1071
      431
1005
12EC25
  0
LINE
  5
12EC26
  8
OBJECT
 10
753.00000000000171
 20
-852.0
 30
0.0
 11
750.00000000000159
 21
-852.0
 31
0.0
1001
ACDBBLOCKREPETAG
1070
     1
1071
      418
1005
12EC26
  0
ARC
  5
12EC27
  8
OBJECT
 10
753.00000000000171
 20
-849.0
 30
0.0
 40
3.0
 50
270.0
 51
0.0
1001
ACDBBLOCKREPETAG
1070
     1
1071
      419
1005
12EC27
  0
LINE
  5
12EC28
  8
OBJECT
 10
750.00000000000159
 20
-728.0
 30
0.0
 11
753.00000000000171
 21
-728.0
 31
0.0
1001
ACDBBLOCKREPETAG
1070
     1
1071
      420
1005
12EC28
  0
ARC
  5
12EC29
  8
OBJECT
 10
753.00000000000171
 20
-731.0
 30
0.0
 40
3.0
 50
0.0
 51
90.0
1001
ACDBBLOCKREPETAG
1070
     1
1071
      421
1005
12EC29
  0
LINE
  5
12EC2A
  8
OBJECT
 10
756.00000000000171
 20
-731.0
 30
0.0
 11
756.00000000000171
 21
-849.0
 31
0.0
1001
ACDBBLOCKREPETAG
1070
     1
1071
      422
1005
12EC2A
  0
POLYLINE
  5
12EC2B
  8
HIDDEN
 66
     1
 10
0.0
 20
0.0
 30
0.0
 70
     1
  0
VERTEX
  5
12F000
  8
HIDDEN
 10
0.0
 20
0.0
 30
0.0
  0
VERTEX
  5
12F001
  8
HIDDEN
 10
450.0
 20
0.0
 30
0.0
  0
VERTEX
  5
12F002
  8
HIDDEN
 10
450.0
 20
-580.0
 30
0.0
  0
VERTEX
  5
12F003
  8
HIDDEN
 10
0.0
 20
-580.0
 30
0.0
  0
SEQEND
  5
12F004
  8
HIDDEN
  0
POLYLINE
  5
12EC2C
  8
HIDDEN
 66
     1
 10
0.0
 20
0.0
 30
0.0
 70
     1
  0
VERTEX
  5
12F005
  8
HIDDEN
 10
450.0
 20
0.0
 30
0.0
  0
VERTEX
  5
12F006
  8
HIDDEN
 10
900.0
 20
0.0
 30
0.0
  0
VERTEX
  5
12F007
  8
HIDDEN
 10
900.0
 20
-580.0
 30
0.0
  0
VERTEX
  5
12F008
  8
HIDDEN
 10
450.0
 20
-580.0
 30
0.0
  0
SEQEND
  5
12F009
  8
HIDDEN
  0
POLYLINE
  5
12EC2D
  8
HIDDEN
 66
     1
 10
0.0
 20
0.0
 30
0.0
 70
     1
  0
VERTEX
  5
12F00A
  8
HIDDEN
 10
0.0
 20
-580.0
 30
0.0
  0
VERTEX
  5
12F00B
  8
HIDDEN
 10
450.0
 20
-580.0
 30
0.0
  0
VERTEX
  5
12F00C
  8
HIDDEN
 10
450.0
 20
-1160.0
 30
0.0
  0
VERTEX
  5
12F00D
  8
HIDDEN
 10
0.0
 20
-1160.0
 30
0.0
  0
SEQEND
  5
12F00E
  8
HIDDEN
  0
POLYLINE
  5
12EC2E
  8
HIDDEN
 66
     1
 10
0.0
 20
0.0
 30
0.0
 70
     1
  0
VERTEX
  5
12F00F
  8
HIDDEN
 10
450.0
 20
-580.0
 30
0.0
  0
VERTEX
  5
12F010
  8
HIDDEN
 10
900.0
 20
-580.0
 30
0.0
  0
VERTEX
  5
12F011
  8
HIDDEN
 10
900.0
 20
-1160.0
 30
0.0
  0
VERTEX
  5
12F012
  8
HIDDEN
 10
450.0
 20
-1160.0
 30
0.0
  0
SEQEND
  5
12F013
  8
HIDDEN
  0
CIRCLE
  5
12EC2F
  8
OBJECT
 10
5000.0
 20
-3174.9999999999959
 30
0.0
 40
53.5
1001
ACDBBLOCKREPETAG
1070
     1
1071
      344
1005
12EC2F
  0
LINE
  5
12EC30
  8
CENTER
 10
5080.0
 20
-3174.9999999999959
 30
0.0
 11
4905.0
 21
-3174.9999999999959
 31
0.0
1001
ACDBBLOCKREPETAG
1070
     1
1071
       14
1005
12EC30
  0
LINE
  5
12EC31
  8
CENTER
 10
5000.0
 20
-3269.9999999999959
 30
0.0
 11
5000.0
 21
-3079.9999999999959
 31
0.0
1001
ACDBBLOCKREPETAG
1070
     1
1071
       15
1005
12EC31
  0
CIRCLE
  5
12EC32
  8
OBJECT
 10
5000.0
 20
-3174.9999999999959
 30
0.0
 40
70.0
1001
ACDBBLOCKREPETAG
1070
     1
1071
       16
1005
12EC32
  0
CIRCLE
  5
12EC33
  8
OBJECT
 10
5000.0
 20
-3174.9999999999959
 30
0.0
 40
77.0
1001
ACDBBLOCKREPETAG
1070
     1
1071
       17
1005
12EC33
  0
ARC
  5
12EC34
  8
OBJECT
 10
5000.0
 20
-3174.9999999999959
 30
0.0
 40
80.0
 50
50.805032573882329
 51
309.19496742611773
1001
ACDBBLOCKREPETAG
1070
     1
1071
       18
1005
12EC34
  0
LINE
  5
12EC35
  8
OBJECT
 10
5045.6618002273253
 20
-3112.9999999999959
 30
0.0
 11
5080.0
 21
-3112.9999999999959
 31
0.0
1001
ACDBBLOCKREPETAG
1070
     1
1071
       19
1005
12EC35
  0
LINE
  5
12EC36
  8
OBJECT
 10
5045.6618002273253
 20
-3236.9999999999959
 30
0.0
 11
5080.0
 21
-3236.9999999999959
 31
0.0
1001
ACDBBLOCKREPETAG
1070
     1
1071
       20
1005
12EC36
  0
POINT
  5
12EC37
  8
DOTS
 10
5000.0
 20
-3174.9999999999959
 30
0.0
1001
ACDBBLOCKREPETAG
1070
     1
1071
       21
1005
12EC37
  0
CIRCLE
  5
12EC38
  8
OBJECT
 10
4000.0
 20
-3174.9999999999959
 30
0.0
 40
53.5
1001
ACDBBLOCKREPETAG
1070
     1
1071
      344
1005
12EC38
  0
LINE
  5
12EC39
  8
CENTER
 10
4080.0
 20
-3174.9999999999959
 30
0.0
 11
3905.0
 21
-3174.9999999999959
 31
0.0
1001
ACDBBLOCKREPETAG
1070
     1
1071
       14
1005
12EC39
  0
LINE
  5
12EC3A
  8
CENTER
 10
4000.0
 20
-3269.9999999999959
 30
0.0
 11
4000.0
 21
-3079.9999999999959
 31
0.0
1001
ACDBBLOCKREPETAG
1070
     1
1071
       15
1005
12EC3A
  0
CIRCLE
  5
12EC3B
  8
OBJECT
 10
4000.0
 20
-3174.9999999999959
 30
0.0
 40
70.0
1001
ACDBBLOCKREPETAG
1070
     1
1071
       16
1005
12EC3B
  0
CIRCLE
  5
12EC3C
  8
OBJECT
 10
4000.0
 20
-3174.9999999999959
 30
0.0
 40
77.0
1001
ACDBBLOCKREPETAG
1070
     1
1071
       17
1005
12EC3C
  0
ARC
  5
12EC3D
  8
OBJECT
 10
4000.0
 20
-3174.9999999999959
 30
0.0
 40
80.0
 50
50.805032573862128
 51
309.19496742613791
1001
ACDBBLOCKREPETAG
1070
     1
1071
       18
1005
12EC3D
  0
LINE
  5
12EC3E
  8
OBJECT
 10
4045.661800227324
 20
-3112.9999999999959
 30
0.0
 11
4080.0
 21
-3112.9999999999959
 31
0.0
1001
ACDBBLOCKREPETAG
1070
     1
1071
       19
1005
12EC3E
  0
LINE
  5
12EC3F
  8
OBJECT
 10
4045.661800227324
 20
-3236.9999999999959
 30
0.0
 11
4080.0
 21
-3236.9999999999959
 31
0.0
1001
ACDBBLOCKREPETAG
1070
     1
1071
       20
1005
12EC3F
  0
POINT
  5
12EC40
  8
DOTS
 10
4000.0
 20
-3174.9999999999959
 30
0.0
1001
ACDBBLOCKREPETAG
1070
     1
1071
       21
1005
12EC40
  0
CIRCLE
  5
12EC41
  8
OBJECT
 10
3000.0
 20
-3174.9999999999959
 30
0.0
 40
53.5
1001
ACDBBLOCKREPETAG
1070
     1
1071
      344
1005
12EC41
  0
LINE
  5
12EC42
  8
CENTER
 10
3080.0
 20
-3174.9999999999959
 30
0.0
 11
2905.0
 21
-3174.9999999999959
 31
0.0
1001
ACDBBLOCKREPETAG
1070
     1
1071
       14
1005
12EC42
  0
LINE
  5
12EC43
  8
CENTER
 10
3000.0
 20
-3269.9999999999959
 30
0.0
 11
3000.0
 21
-3079.9999999999959
 31
0.0
1001
ACDBBLOCKREPETAG
1070
     1
1071
       15
1005
12EC43
  0
CIRCLE
  5
12EC44
  8
OBJECT
 10
3000.0
 20
-3174.9999999999959
 30
0.0
 40
70.0
1001
ACDBBLOCKREPETAG
1070
     1
1071
       16
1005
12EC44
  0
CIRCLE
  5
12EC45
  8
OBJECT
 10
3000.0
 20
-3174.9999999999959
 30
0.0
 40
77.0
1001
ACDBBLOCKREPETAG
1070
     1
1071
       17
1005
12EC45
  0
ARC
  5
12EC46
  8
OBJECT
 10
3000.0
 20
-3174.9999999999959
 30
0.0
 40
80.0
 50
50.805032573862128
 51
309.19496742613791
1001
ACDBBLOCKREPETAG
1070
     1
1071
       18
1005
12EC46
  0
LINE
  5
12EC47
  8
OBJECT
 10
3045.6618002273249
 20
-3112.9999999999959
 30
0.0
 11
3080.0
 21
-3112.9999999999959
 31
0.0
1001
ACDBBLOCKREPETAG
1070
     1
1071
       19
1005
12EC47
  0
LINE
  5
12EC48
  8
OBJECT
 10
3045.6618002273249
 20
-3236.9999999999959
 30
0.0
 11
3080.0
 21
-3236.9999999999959
 31
0.0
1001
ACDBBLOCKREPETAG
1070
     1
1071
       20
1005
12EC48
  0
POINT
  5
12EC49
  8
DOTS
 10
3000.0
 20
-3174.9999999999959
 30
0.0
1001
ACDBBLOCKREPETAG
1070
     1
1071
       21
1005
12EC49
  0
CIRCLE
  5
12EC4A
  8
OBJECT
 10
2000.0
 20
-3174.9999999999959
 30
0.0
 40
53.5
1001
ACDBBLOCKREPETAG
1070
     1
1071
      344
1005
12EC4A
  0
LINE
  5
12EC4B
  8
CENTER
 10
2080.0
 20
-3174.9999999999959
 30
0.0
 11
1905.0
 21
-3174.9999999999959
 31
0.0
1001
ACDBBLOCKREPETAG
1070
     1
1071
       14
1005
12EC4B
  0
LINE
  5
12EC4C
  8
CENTER
 10
2000.0
 20
-3269.9999999999959
 30
0.0
 11
2000.0
 21
-3079.9999999999959
 31
0.0
1001
ACDBBLOCKREPETAG
1070
     1
1071
       15
1005
12EC4C
  0
CIRCLE
  5
12EC4D
  8
OBJECT
 10
2000.0
 20
-3174.9999999999959
 30
0.0
 40
70.0
1001
ACDBBLOCKREPETAG
1070
     1
1071
       16
1005
12EC4D
  0
CIRCLE
  5
12EC4E
  8
OBJECT
 10
2000.0
 20
-3174.9999999999959
 30
0.0
 40
77.0
1001
ACDBBLOCKREPETAG
1070
     1
1071
       17
1005
12EC4E
  0
ARC
  5
12EC4F
  8
OBJECT
 10
2000.0
 20
-3174.9999999999959
 30
0.0
 40
80.0
 50
50.805032573862128
 51
309.19496742613791
1001
ACDBBLOCKREPETAG
1070
     1
1071
       18
1005
12EC4F
  0
LINE
  5
12EC50
  8
OBJECT
 10
2045.6618002273251
 20
-3112.9999999999959
 30
0.0
 11
2080.0
 21
-3112.9999999999959
 31
0.0
1001
ACDBBLOCKREPETAG
1070
     1
1071
       19
1005
12EC50
  0
LINE
  5
12EC51
  8
OBJECT
 10
2045.6618002273251
 20
-3236.9999999999959
 30
0.0
 11
2080.0
 21
-3236.9999999999959
 31
0.0
1001
ACDBBLOCKREPETAG
1070
     1
1071
       20
1005
12EC51
  0
POINT
  5
12EC52
  8
DOTS
 10
2000.0
 20
-3174.9999999999959
 30
0.0
1001
ACDBBLOCKREPETAG
1070
     1
1071
       21
1005
12EC52
  0
LINE
  5
12EC53
  8
SLIM
 10
3945.2566704261012
 20
-137.99999999999909
 30
0.0
 11
3955.9548403695781
 21
-127.30183005652231
 31
0.0
1001
GRADIENTCOLOR1ACI
1070
     5
1001
GRADIENTCOLOR2ACI
1070
     2
1001
ACAD
1010
0.0
1020
0.0
1030
0.0
1001
ACDBBLOCKREPETAG
1070
     1
1071
      422
1005
12EC53
  0
LINE
  5
12EC54
  8
SLIM
 10
3954.2369265471712
 20
-137.99999999999909
 30
0.0
 11
3972.7507744763329
 21
-119.4861520708364
 31
0.0
1001
GRADIENTCOLOR1ACI
1070
     5
1001
GRADIENTCOLOR2ACI
1070
     2
1001
ACAD
1010
0.0
1020
0.0
1030
0.0
1001
ACDBBLOCKREPETAG
1070
     1
1071
      423
1005
12EC54
  0
LINE
  5
12EC55
  8
SLIM
 10
3973.521224312457
 20
-127.6959583557812
 30
0.0
 11
3984.8575146748631
 21
-116.359667993377
 31
0.0
1001
GRADIENTCOLOR1ACI
1070
     5
1001
GRADIENTCOLOR2ACI
1070
     2
1001
ACAD
1010
0.0
1020
0.0
1030
0.0
1001
ACDBBLOCKREPETAG
1070
     1
1071
      424
1005
12EC55
  0
LINE
  5
12EC56
  8
SLIM
 10
3985.8944171461271
 20
-124.30302164318159
 30
0.0
 11
3995.0533812002559
 21
-115.1440575890517
 31
0.0
1001
GRADIENTCOLOR1ACI
1070
     5
1001
GRADIENTCOLOR2ACI
1070
     2
1001
ACAD
1010
0.0
1020
0.0
1030
0.0
1001
ACDBBLOCKREPETAG
1070
     1
1071
      425
1005
12EC56
  0
LINE
  5
12EC57
  8
SLIM
 10
3996.0777327492078
 20
-123.0999621611699
 30
0.0
 11
4000.0
 21
-119.1776949103767
 31
0.0
1001
GRADIENTCOLOR1ACI
1070
     5
1001
GRADIENTCOLOR2ACI
1070
     2
1001
ACAD
1010
0.0
1020
0.0
1030
0.0
1001
ACDBBLOCKREPETAG
1070
     1
1071
      426
1005
12EC57
  0
LINE
  5
12EC58
  8
SLIM
 10
4000.0
 20
-119.1776949103767
 30
0.0
 11
4004.0797313529042
 21
-115.0979635574724
 31
0.0
1001
GRADIENTCOLOR1ACI
1070
     5
1001
GRADIENTCOLOR2ACI
1070
     2
1001
ACAD
1010
0.0
1020
0.0
1030
0.0
1001
ACDBBLOCKREPETAG
1070
     1
1071
      427
1005
12EC58
  0
LINE
  5
12EC59
  8
SLIM
 10
4004.9957202542769
 20
-123.1622307771683
 30
0.0
 11
4012.2679784105749
 21
-115.88997262087101
 31
0.0
1001
GRADIENTCOLOR1ACI
1070
     5
1001
GRADIENTCOLOR2ACI
1070
     2
1001
ACAD
1010
0.0
1020
0.0
1030
0.0
1001
ACDBBLOCKREPETAG
1070
     1
1071
      428
1005
12EC59
  0
LINE
  5
12EC5A
  8
SLIM
 10
4013.028059366964
 20
-124.1101477855505
 30
0.0
 11
4019.799941457361
 21
-117.3382656951526
 31
0.0
1001
GRADIENTCOLOR1ACI
1070
     5
1001
GRADIENTCOLOR2ACI
1070
     2
1001
ACAD
1010
0.0
1020
0.0
1030
0.0
1001
ACDBBLOCKREPETAG
1070
     1
1071
      429
1005
12EC5A
  0
LINE
  5
12EC5B
  8
SLIM
 10
4020.3740813142458
 20
-125.7443819593383
 30
0.0
 11
4026.7872038672799
 21
-119.3312594063044
 31
0.0
1001
GRADIENTCOLOR1ACI
1070
     5
1001
GRADIENTCOLOR2ACI
1070
     2
1001
ACAD
1010
0.0
1020
0.0
1030
0.0
1001
ACDBBLOCKREPETAG
1070
     1
1071
      430
1005
12EC5B
  0
LINE
  5
12EC5C
  8
SLIM
 10
4027.1524719988752
 20
-127.946247395778
 30
0.0
 11
4033.3030030760328
 21
-121.7957163186195
 31
0.0
1001
GRADIENTCOLOR1ACI
1070
     5
1001
GRADIENTCOLOR2ACI
1070
     2
1001
ACAD
1010
0.0
1020
0.0
1030
0.0
1001
ACDBBLOCKREPETAG
1070
     1
1071
      431
1005
12EC5C
  0
LINE
  5
12EC5D
  8
SLIM
 10
4033.4390986513308
 20
-130.63987686439191
 30
0.0
 11
4039.3973119843781
 21
-124.6816635313439
 31
0.0
1001
GRADIENTCOLOR1ACI
1070
     5
1001
GRADIENTCOLOR2ACI
1070
     2
1001
ACAD
1010
0.0
1020
0.0
1030
0.0
1001
ACDBBLOCKREPETAG
1070
     1
1071
      432
1005
12EC5D
  0
LINE
  5
12EC5E
  8
SLIM
 10
4039.284224621797
 20
-133.77500701499321
 30
0.0
 11
4045.1047705343681
 21
-127.95446110242381
 31
0.0
1001
GRADIENTCOLOR1ACI
1070
     5
1001
GRADIENTCOLOR2ACI
1070
     2
1001
ACAD
1010
0.0
1020
0.0
1030
0.0
1001
ACDBBLOCKREPETAG
1070
     1
1071
      433
1005
12EC5E
  0
LINE
  5
12EC5F
  8
SLIM
 10
4044.7212801698038
 20
-137.31820758805651
 30
0.0
 11
4050.4491557891961
 21
-131.59033196866449
 31
0.0
1001
GRADIENTCOLOR1ACI
1070
     5
1001
GRADIENTCOLOR2ACI
1070
     2
1001
ACAD
1010
0.0
1020
0.0
1030
0.0
1001
ACDBBLOCKREPETAG
1070
     1
1071
      434
1005
12EC5F
  0
LINE
  5
12EC60
  8
SLIM
 10
4053.0197438789291
 20
-137.99999999999909
 30
0.0
 11
4055.4459941864038
 21
-135.57374969252561
 31
0.0
1001
GRADIENTCOLOR1ACI
1070
     5
1001
GRADIENTCOLOR2ACI
1070
     2
1001
ACAD
1010
0.0
1020
0.0
1030
0.0
1001
ACDBBLOCKREPETAG
1070
     1
1071
      435
1005
12EC60
  0
LINE
  5
12EC61
  8
CENTER
 10
4000.0
 20
-279.99999999999909
 30
0.0
 11
4000.0
 21
-99.999999999999091
 31
0.0
1001
ACDBBLOCKREPETAG
1070
     1
1071
      160
1005
12EC61
  0
CIRCLE
  5
12EC62
  8
OBJECT
 10
4000.0
 20
-199.99999999999909
 30
0.0
 40
70.0
1001
ACDBBLOCKREPETAG
1070
     1
1071
      161
1005
12EC62
  0
CIRCLE
  5
12EC63
  8
OBJECT
 10
4000.0
 20
-199.99999999999909
 30
0.0
 40
77.0
1001
ACDBBLOCKREPETAG
1070
     1
1071
      162
1005
12EC63
  0
LINE
  5
12EC64
  8
OBJECT
 10
4045.661800227324
 20
-137.99999999999909
 30
0.0
 11
4080.0
 21
-137.99999999999909
 31
0.0
1001
ACDBBLOCKREPETAG
1070
     1
1071
      164
1005
12EC64
  0
LINE
  5
12EC65
  8
OBJECT
 10
4062.0
 20
-261.99999999999909
 30
0.0
 11
4080.0
 21
-261.99999999999909
 31
0.0
1001
ACDBBLOCKREPETAG
1070
     1
1071
      165
1005
12EC65
  0
LINE
  5
12EC66
  8
OBJECT
 10
4062.0
 20
-261.99999999999909
 30
0.0
 11
4062.0
 21
-279.99999999999909
 31
0.0
1001
ACDBBLOCKREPETAG
1070
     1
1071
      167
1005
12EC66
  0
LINE
  5
12EC67
  8
OBJECT
 10
3938.0
 20
-261.99999999999909
 30
0.0
 11
3938.0
 21
-279.99999999999909
 31
0.0
1001
ACDBBLOCKREPETAG
1070
     1
1071
      168
1005
12EC67
  0
LINE
  5
12EC68
  8
OBJECT
 10
3938.0
 20
-261.99999999999909
 30
0.0
 11
3920.0
 21
-261.99999999999909
 31
0.0
1001
ACDBBLOCKREPETAG
1070
     1
1071
      170
1005
12EC68
  0
LINE
  5
12EC69
  8
OBJECT
 10
3954.338199772676
 20
-137.99999999999909
 30
0.0
 11
3920.0
 21
-137.99999999999909
 31
0.0
1001
ACDBBLOCKREPETAG
1070
     1
1071
      171
1005
12EC69
  0
LINE
  5
12EC6A
  8
OBJECT
 10
3945.5527778486362
 20
-254.44722215136329
 30
0.0
 11
3938.0
 21
-261.99999999999909
 31
0.0
1001
ACDBBLOCKREPETAG
1070
     1
1071
      180
1005
12EC6A
  0
LINE
  5
12EC6B
  8
OBJECT
 10
4054.4472221513638
 20
-254.44722215136329
 30
0.0
 11
4062.0
 21
-261.99999999999909
 31
0.0
1001
ACDBBLOCKREPETAG
1070
     1
1071
      181
1005
12EC6B
  0
POINT
  5
12EC6C
  8
DOTS
 10
4000.0
 20
-199.99999999999909
 30
0.0
 50
270.0
1001
ACDBBLOCKREPETAG
1070
     1
1071
      182
1005
12EC6C
  0
ARC
  5
12EC6D
  8
OBJECT
 10
4000.0
 20
-199.99999999999909
 30
0.0
 40
85.0
 50
46.837102859806208
 51
133.16289714019371
1001
ACDBBLOCKREPETAG
1070
     1
1071
      183
1005
12EC6D
  0
CIRCLE
  5
12EC6E
  8
OBJECT
 10
4000.0
 20
-199.99999999999909
 30
0.0
 40
53.5
1001
ACDBBLOCKREPETAG
1070
     1
1071
      352
1005
12EC6E
  0
LINE
  5
12EC6F
  8
CENTER
 10
4080.0
 20
-199.99999999999909
 30
0.0
 11
3920.0
 21
-199.99999999999909
 31
0.0
1001
ACDBBLOCKREPETAG
1070
     1
1071
      158
1005
12EC6F
  0
CIRCLE
  5
12EC70
  8
OBJECT
 10
2000.0
 20
-199.99999999999909
 30
0.0
 40
53.5
1001
ACDBBLOCKREPETAG
1070
     1
1071
      340
1005
12EC70
  0
LINE
  5
12EC71
  8
CENTER
 10
2080.0
 20
-199.99999999999909
 30
0.0
 11
1920.0
 21
-199.99999999999909
 31
0.0
1001
ACDBBLOCKREPETAG
1070
     1
1071
       49
1005
12EC71
  0
LINE
  5
12EC72
  8
CENTER
 10
2000.0
 20
-279.99999999999909
 30
0.0
 11
2000.0
 21
-104.9999999999991
 31
0.0
1001
ACDBBLOCKREPETAG
1070
     1
1071
       50
1005
12EC72
  0
CIRCLE
  5
12EC73
  8
OBJECT
 10
2000.0
 20
-199.99999999999909
 30
0.0
 40
70.0
1001
ACDBBLOCKREPETAG
1070
     1
1071
       51
1005
12EC73
  0
CIRCLE
  5
12EC74
  8
OBJECT
 10
2000.0
 20
-199.99999999999909
 30
0.0
 40
77.0
1001
ACDBBLOCKREPETAG
1070
     1
1071
       52
1005
12EC74
  0
ARC
  5
12EC75
  8
OBJECT
 10
2000.0
 20
-199.99999999999909
 30
0.0
 40
80.0
 50
50.805032573864182
 51
129.1949674261358
1001
ACDBBLOCKREPETAG
1070
     1
1071
       53
1005
12EC75
  0
LINE
  5
12EC76
  8
OBJECT
 10
2045.6618002273251
 20
-137.99999999999909
 30
0.0
 11
2080.0
 21
-137.99999999999909
 31
0.0
1001
ACDBBLOCKREPETAG
1070
     1
1071
       54
1005
12EC76
  0
LINE
  5
12EC77
  8
OBJECT
 10
2062.0
 20
-261.99999999999909
 30
0.0
 11
2080.0
 21
-261.99999999999909
 31
0.0
1001
ACDBBLOCKREPETAG
1070
     1
1071
       55
1005
12EC77
  0
LINE
  5
12EC78
  8
OBJECT
 10
2062.0
 20
-261.99999999999909
 30
0.0
 11
2062.0
 21
-279.99999999999909
 31
0.0
1001
ACDBBLOCKREPETAG
1070
     1
1071
       57
1005
12EC78
  0
LINE
  5
12EC79
  8
OBJECT
 10
1938.0
 20
-261.99999999999909
 30
0.0
 11
1938.0
 21
-279.99999999999909
 31
0.0
1001
ACDBBLOCKREPETAG
1070
     1
1071
       58
1005
12EC79
  0
POINT
  5
12EC7A
  8
DOTS
 10
2000.0
 20
-199.99999999999909
 30
0.0
 50
90.0
1001
ACDBBLOCKREPETAG
1070
     1
1071
       59
1005
12EC7A
  0
LINE
  5
12EC7B
  8
OBJECT
 10
1938.0
 20
-261.99999999999909
 30
0.0
 11
1920.0
 21
-261.99999999999909
 31
0.0
1001
ACDBBLOCKREPETAG
1070
     1
1071
       60
1005
12EC7B
  0
LINE
  5
12EC7C
  8
OBJECT
 10
1954.3381997726749
 20
-137.99999999999909
 30
0.0
 11
1920.0
 21
-137.99999999999909
 31
0.0
1001
ACDBBLOCKREPETAG
1070
     1
1071
       61
1005
12EC7C
  0
LINE
  5
12EC7D
  8
OBJECT
 10
1945.5527778486351
 20
-254.44722215136329
 30
0.0
 11
1938.0
 21
-261.99999999999909
 31
0.0
1001
ACDBBLOCKREPETAG
1070
     1
1071
       42
1005
12EC7D
  0
LINE
  5
12EC7E
  8
OBJECT
 10
2054.4472221513638
 20
-254.44722215136329
 30
0.0
 11
2062.0
 21
-261.99999999999909
 31
0.0
1001
ACDBBLOCKREPETAG
1070
     1
1071
       43
1005
12EC7E
  0
TEXT
  5
12EC7F
  8
SLIM
 10
1837.75
 20
282.50000000000011
 30
0.0
 40
35.0
  1
（枝管サイズ毎に寸法が異なります。管底の位置は50～100で同じです）
 41
0.75
  0
TEXT
  5
12EC80
  8
SLIM
 10
1850.0
 20
532.5
 30
0.0
 40
75.0
  1
側面図の代表機種
 41
0.75
  0
TEXT
  5
12EC81
  8
SLIM
 10
1850.0
 20
369.99999999999989
 30
0.0
 40
100.0
  1
4SR-Z306-P110
 41
0.75
  0
LINE
  5
12EC82
  8
OBJECT
 10
3797.0000000000159
 20
-261.99999999999909
 30
0.0
 11
3790.0000000000159
 21
-261.99999999999909
 31
0.0
1001
ACDBBLOCKREPETAG
1070
     1
1071
       85
1005
12EC82
  0
LINE
  5
12EC83
  8
OBJECT
 10
3790.0000000000159
 20
-261.99999999999909
 30
0.0
 11
3790.0000000000159
 21
-137.99999999999909
 31
0.0
1001
ACDBBLOCKREPETAG
1070
     1
1071
       86
1005
12EC83
  0
LINE
  5
12EC84
  8
OBJECT
 10
3790.0000000000159
 20
-137.99999999999909
 30
0.0
 11
3797.0000000000159
 21
-137.99999999999909
 31
0.0
1001
ACDBBLOCKREPETAG
1070
     1
1071
       87
1005
12EC84
  0
LINE
  5
12EC85
  8
OBJECT
 10
3797.0000000000159
 20
-137.99999999999909
 30
0.0
 11
3797.0000000000159
 21
-261.99999999999909
 31
0.0
1001
ACDBBLOCKREPETAG
1070
     1
1071
       88
1005
12EC85
  0
LINE
  5
12EC86
  8
CENTER
 10
3775.0000000000159
 20
-199.99999999999909
 30
0.0
 11
3920.0
 21
-199.99999999999909
 31
0.0
1001
ACDBBLOCKREPETAG
1070
     1
1071
       89
1005
12EC86
  0
LINE
  5
12EC87
  8
OBJECT
 10
3850.000025035813
 20
-154.9999999999954
 30
0.0
 11
3914.0
 21
-154.99999999999909
 31
0.0
1001
ACDBBLOCKREPETAG
1070
     1
1071
       90
1005
12EC87
  0
LINE
  5
12EC88
  8
OBJECT
 10
3850.000025035813
 20
-244.99999999999909
 30
0.0
 11
3914.0
 21
-244.99999999999909
 31
0.0
1001
ACDBBLOCKREPETAG
1070
     1
1071
       91
1005
12EC88
  0
LINE
  5
12EC89
  8
OBJECT
 10
3797.0000000000159
 20
-258.99999999999909
 30
0.0
 11
3833.0000000000159
 21
-258.99999999999909
 31
0.0
1001
ACDBBLOCKREPETAG
1070
     1
1071
       92
1005
12EC89
  0
LINE
  5
12EC8A
  8
OBJECT
 10
3833.0000000000159
 20
-258.99999999999909
 30
0.0
 11
3833.0000000000159
 21
-140.99999999999909
 31
0.0
1001
ACDBBLOCKREPETAG
1070
     1
1071
       93
1005
12EC8A
  0
LINE
  5
12EC8B
  8
OBJECT
 10
3833.0000000000159
 20
-140.99999999999909
 30
0.0
 11
3797.0000000000159
 21
-140.99999999999909
 31
0.0
1001
ACDBBLOCKREPETAG
1070
     1
1071
       94
1005
12EC8B
  0
LINE
  5
12EC8C
  8
OBJECT
 10
3837.0000000000159
 20
-254.49999999999909
 30
0.0
 11
3850.000000000015
 21
-254.49999999999909
 31
0.0
1001
ACDBBLOCKREPETAG
1070
     1
1071
       95
1005
12EC8C
  0
LINE
  5
12EC8D
  8
OBJECT
 10
3850.000000000015
 20
-145.49999999999909
 30
0.0
 11
3837.0000000000159
 21
-145.49999999999909
 31
0.0
1001
ACDBBLOCKREPETAG
1070
     1
1071
       96
1005
12EC8D
  0
LINE
  5
12EC8E
  8
OBJECT
 10
3837.0000000000159
 20
-145.49999999999909
 30
0.0
 11
3837.0000000000159
 21
-254.49999999999909
 31
0.0
1001
ACDBBLOCKREPETAG
1070
     1
1071
       97
1005
12EC8E
  0
LINE
  5
12EC8F
  8
OBJECT
 10
3833.0000000000159
 20
-258.99999999999909
 30
0.0
 11
3837.0000000000159
 21
-254.49999999999909
 31
0.0
1001
ACDBBLOCKREPETAG
1070
     1
1071
       98
1005
12EC8F
  0
LINE
  5
12EC90
  8
OBJECT
 10
3833.0000000000159
 20
-140.99999999999909
 30
0.0
 11
3837.0000000000159
 21
-145.49999999999909
 31
0.0
1001
ACDBBLOCKREPETAG
1070
     1
1071
       99
1005
12EC90
  0
LINE
  5
12EC91
  8
OBJECT
 10
3917.0
 20
-261.99999999999909
 30
0.0
 11
3920.0
 21
-261.99999999999909
 31
0.0
1001
ACDBBLOCKREPETAG
1070
     1
1071
      100
1005
12EC91
  0
ARC
  5
12EC92
  8
OBJECT
 10
3917.0
 20
-258.99999999999909
 30
0.0
 40
3.0
 50
180.0
 51
270.0
1001
ACDBBLOCKREPETAG
1070
     1
1071
      101
1005
12EC92
  0
LINE
  5
12EC93
  8
OBJECT
 10
3920.0
 20
-137.99999999999909
 30
0.0
 11
3917.0
 21
-137.99999999999909
 31
0.0
1001
ACDBBLOCKREPETAG
1070
     1
1071
      102
1005
12EC93
  0
ARC
  5
12EC94
  8
OBJECT
 10
3917.0
 20
-140.99999999999909
 30
0.0
 40
3.0
 50
90.0
 51
180.0
1001
ACDBBLOCKREPETAG
1070
     1
1071
      103
1005
12EC94
  0
LINE
  5
12EC95
  8
OBJECT
 10
3914.0
 20
-140.99999999999909
 30
0.0
 11
3914.0
 21
-189.6772096796403
 31
0.0
1001
ACDBBLOCKREPETAG
1070
     1
1071
      104
1005
12EC95
  0
LINE
  5
12EC96
  8
OBJECT
 10
3914.0
 20
-210.3227903203578
 30
0.0
 11
3914.0
 21
-258.99999999999909
 31
0.0
1001
ACDBBLOCKREPETAG
1070
     1
1071
      105
1005
12EC96
  0
LINE
  5
12EC97
  8
HIDDEN
 10
3842.0000000000159
 20
-244.49999999999909
 30
0.0
 11
3842.0000000000159
 21
-155.49999999999909
 31
0.0
1001
ACDBBLOCKREPETAG
1070
     1
1071
      106
1005
12EC97
  0
LINE
  5
12EC98
  8
OBJECT
 10
3850.000025035813
 20
-145.50004907618759
 30
0.0
 11
3850.000025035813
 21
-254.50004907618771
 31
0.0
1001
ACDBBLOCKREPETAG
1070
     1
1071
      108
1005
12EC98
  0
ARC
  5
12EC99
  8
OBJECT
 10
3870.1999999999771
 20
-199.99999999999909
 30
0.0
 40
45.000000000000547
 50
270.0
 51
90.0
1001
ACDBBLOCKREPETAG
1070
     1
1071
      109
1005
12EC99
  0
LINE
  5
12EC9A
  8
CENTER
 10
4000.0
 20
-300.99999999999898
 30
0.0
 11
4000.0
 21
-279.99999999999909
 31
0.0
1001
ACDBBLOCKREPETAG
1070
     1
1071
        0
1005
12EC9A
  0
LINE
  5
12EC9B
  8
OBJECT
 10
4062.0
 20
-283.0
 30
0.0
 11
4062.0
 21
-279.99999999999909
 31
0.0
1001
ACDBBLOCKREPETAG
1070
     1
1071
        1
1005
12EC9B
  0
ARC
  5
12EC9C
  8
OBJECT
 10
4059.0
 20
-283.0
 30
0.0
 40
3.0
 50
270.0
 51
0.0
1001
ACDBBLOCKREPETAG
1070
     1
1071
        2
1005
12EC9C
  0
LINE
  5
12EC9D
  8
OBJECT
 10
3938.0
 20
-279.99999999999909
 30
0.0
 11
3938.0
 21
-282.99999999999818
 31
0.0
1001
ACDBBLOCKREPETAG
1070
     1
1071
        3
1005
12EC9D
  0
ARC
  5
12EC9E
  8
OBJECT
 10
3941.0
 20
-282.99999999999818
 30
0.0
 40
3.0
 50
180.0
 51
270.0
1001
ACDBBLOCKREPETAG
1070
     1
1071
        4
1005
12EC9E
  0
LINE
  5
12EC9F
  8
OBJECT
 10
3941.0
 20
-285.99999999999818
 30
0.0
 11
4059.0
 21
-286.0
 31
0.0
1001
ACDBBLOCKREPETAG
1070
     1
1071
        5
1005
12EC9F
  0
LINE
  5
12ECA0
  8
OBJECT
 10
4133.0
 20
-137.99999999999909
 30
0.0
 11
4140.0
 21
-137.99999999999909
 31
0.0
1001
ACDBBLOCKREPETAG
1070
     1
1071
       47
1005
12ECA0
  0
LINE
  5
12ECA1
  8
OBJECT
 10
4140.0
 20
-137.99999999999909
 30
0.0
 11
4140.0
 21
-261.99999999999909
 31
0.0
1001
ACDBBLOCKREPETAG
1070
     1
1071
       48
1005
12ECA1
  0
LINE
  5
12ECA2
  8
OBJECT
 10
4140.0
 20
-261.99999999999909
 30
0.0
 11
4133.0
 21
-261.99999999999909
 31
0.0
1001
ACDBBLOCKREPETAG
1070
     1
1071
       49
1005
12ECA2
  0
LINE
  5
12ECA3
  8
OBJECT
 10
4133.0
 20
-261.99999999999909
 30
0.0
 11
4133.0
 21
-137.99999999999909
 31
0.0
1001
ACDBBLOCKREPETAG
1070
     1
1071
       50
1005
12ECA3
  0
LINE
  5
12ECA4
  8
CENTER
 10
4155.0
 20
-199.99999999999909
 30
0.0
 11
4080.0
 21
-199.99999999999909
 31
0.0
1001
ACDBBLOCKREPETAG
1070
     1
1071
       51
1005
12ECA4
  0
LINE
  5
12ECA5
  8
OBJECT
 10
4133.0
 20
-140.99999999999909
 30
0.0
 11
4097.0
 21
-140.99999999999909
 31
0.0
1001
ACDBBLOCKREPETAG
1070
     1
1071
       52
1005
12ECA5
  0
LINE
  5
12ECA6
  8
OBJECT
 10
4097.0
 20
-140.99999999999909
 30
0.0
 11
4097.0
 21
-258.99999999999909
 31
0.0
1001
ACDBBLOCKREPETAG
1070
     1
1071
       53
1005
12ECA6
  0
LINE
  5
12ECA7
  8
OBJECT
 10
4097.0
 20
-258.99999999999909
 30
0.0
 11
4133.0
 21
-258.99999999999909
 31
0.0
1001
ACDBBLOCKREPETAG
1070
     1
1071
       54
1005
12ECA7
  0
LINE
  5
12ECA8
  8
OBJECT
 10
4093.0
 20
-145.49999999999909
 30
0.0
 11
4086.0
 21
-145.49999999999909
 31
0.0
1001
ACDBBLOCKREPETAG
1070
     1
1071
       55
1005
12ECA8
  0
LINE
  5
12ECA9
  8
OBJECT
 10
4086.0
 20
-254.49999999999909
 30
0.0
 11
4093.0
 21
-254.49999999999909
 31
0.0
1001
ACDBBLOCKREPETAG
1070
     1
1071
       56
1005
12ECA9
  0
LINE
  5
12ECAA
  8
OBJECT
 10
4093.0
 20
-254.49999999999909
 30
0.0
 11
4093.0
 21
-145.49999999999909
 31
0.0
1001
ACDBBLOCKREPETAG
1070
     1
1071
       57
1005
12ECAA
  0
LINE
  5
12ECAB
  8
OBJECT
 10
4097.0
 20
-140.99999999999909
 30
0.0
 11
4093.0
 21
-145.49999999999909
 31
0.0
1001
ACDBBLOCKREPETAG
1070
     1
1071
       58
1005
12ECAB
  0
LINE
  5
12ECAC
  8
OBJECT
 10
4097.0
 20
-258.99999999999909
 30
0.0
 11
4093.0
 21
-254.49999999999909
 31
0.0
1001
ACDBBLOCKREPETAG
1070
     1
1071
       59
1005
12ECAC
  0
LINE
  5
12ECAD
  8
OBJECT
 10
4083.0
 20
-137.99999999999909
 30
0.0
 11
4080.0
 21
-137.99999999999909
 31
0.0
1001
ACDBBLOCKREPETAG
1070
     1
1071
       60
1005
12ECAD
  0
ARC
  5
12ECAE
  8
OBJECT
 10
4083.0
 20
-140.99999999999909
 30
0.0
 40
3.0
 50
0.0
 51
90.0
1001
ACDBBLOCKREPETAG
1070
     1
1071
       61
1005
12ECAE
  0
LINE
  5
12ECAF
  8
OBJECT
 10
4080.0
 20
-261.99999999999909
 30
0.0
 11
4083.0
 21
-261.99999999999909
 31
0.0
1001
ACDBBLOCKREPETAG
1070
     1
1071
       62
1005
12ECAF
  0
ARC
  5
12ECB0
  8
OBJECT
 10
4083.0
 20
-258.99999999999909
 30
0.0
 40
3.0
 50
270.0
 51
0.0
1001
ACDBBLOCKREPETAG
1070
     1
1071
       63
1005
12ECB0
  0
LINE
  5
12ECB1
  8
OBJECT
 10
4086.0
 20
-258.99999999999909
 30
0.0
 11
4086.0
 21
-140.99999999999909
 31
0.0
1001
ACDBBLOCKREPETAG
1070
     1
1071
       64
1005
12ECB1
  0
LINE
  5
12ECB2
  8
HIDDEN
 10
4088.0
 20
-155.49999999999909
 30
0.0
 11
4088.0
 21
-244.49999999999909
 31
0.0
1001
ACDBBLOCKREPETAG
1070
     1
1071
       65
1005
12ECB2
  0
LINE
  5
12ECB3
  8
OBJECT
 10
3797.0000000000159
 20
-583.0
 30
0.0
 11
3790.0000000000159
 21
-583.0
 31
0.0
1001
ACDBBLOCKREPETAG
1070
     1
1071
       83
1005
12ECB3
  0
LINE
  5
12ECB4
  8
OBJECT
 10
3790.0000000000159
 20
-583.0
 30
0.0
 11
3790.0000000000159
 21
-707.0
 31
0.0
1001
ACDBBLOCKREPETAG
1070
     1
1071
       84
1005
12ECB4
  0
LINE
  5
12ECB5
  8
OBJECT
 10
3914.0000000000159
 20
-653.3502637757274
 30
0.0
 11
3914.0000000000159
 21
-755.00000000000102
 31
0.0
1001
ACDBBLOCKREPETAG
1070
     1
1071
       85
1005
12ECB5
  0
LINE
  5
12ECB6
  8
OBJECT
 10
3790.0000000000159
 20
-707.0
 30
0.0
 11
3797.0000000000159
 21
-707.0
 31
0.0
1001
ACDBBLOCKREPETAG
1070
     1
1071
       86
1005
12ECB6
  0
LINE
  5
12ECB7
  8
OBJECT
 10
3797.0000000000159
 20
-707.0
 30
0.0
 11
3797.0000000000159
 21
-583.0
 31
0.0
1001
ACDBBLOCKREPETAG
1070
     1
1071
       87
1005
12ECB7
  0
LINE
  5
12ECB8
  8
CENTER
 10
3865.0000000000159
 20
-645.0000000000008
 30
0.0
 11
3775.0000000000159
 21
-645.0
 31
0.0
1001
ACDBBLOCKREPETAG
1070
     1
1071
       88
1005
12ECB8
  0
LINE
  5
12ECB9
  8
OBJECT
 10
3920.0000000000182
 20
-758.0
 30
0.0
 11
3917.0000000000141
 21
-758.0000000000008
 31
0.0
1001
ACDBBLOCKREPETAG
1070
     1
1071
       89
1005
12ECB9
  0
ARC
  5
12ECBA
  8
OBJECT
 10
3917.0000000000141
 20
-755.00000000000102
 30
0.0
 40
3.0
 50
180.0
 51
270.0
1001
ACDBBLOCKREPETAG
1070
     1
1071
       90
1005
12ECBA
  0
LINE
  5
12ECBB
  8
OBJECT
 10
3797.0000000000159
 20
-586.0
 30
0.0
 11
3833.0000000000159
 21
-586.0000000000008
 31
0.0
1001
ACDBBLOCKREPETAG
1070
     1
1071
       91
1005
12ECBB
  0
LINE
  5
12ECBC
  8
OBJECT
 10
3833.0000000000159
 20
-586.0000000000008
 30
0.0
 11
3833.0000000000159
 21
-704.0000000000008
 31
0.0
1001
ACDBBLOCKREPETAG
1070
     1
1071
       92
1005
12ECBC
  0
LINE
  5
12ECBD
  8
OBJECT
 10
3837.0000000000159
 20
-590.5000000000008
 30
0.0
 11
3837.0000000000159
 21
-699.5000000000008
 31
0.0
1001
ACDBBLOCKREPETAG
1070
     1
1071
       93
1005
12ECBD
  0
LINE
  5
12ECBE
  8
OBJECT
 10
3837.0000000000159
 20
-590.5000000000008
 30
0.0
 11
3850.000000000015
 21
-590.5000000000008
 31
0.0
1001
ACDBBLOCKREPETAG
1070
     1
1071
       94
1005
12ECBE
  0
LINE
  5
12ECBF
  8
OBJECT
 10
3833.0000000000159
 20
-704.0000000000008
 30
0.0
 11
3797.0000000000159
 21
-704.0
 31
0.0
1001
ACDBBLOCKREPETAG
1070
     1
1071
       95
1005
12ECBF
  0
LINE
  5
12ECC0
  8
OBJECT
 10
3833.0000000000159
 20
-586.0000000000008
 30
0.0
 11
3837.0000000000159
 21
-590.5000000000008
 31
0.0
1001
ACDBBLOCKREPETAG
1070
     1
1071
       96
1005
12ECC0
  0
LINE
  5
12ECC1
  8
OBJECT
 10
3850.000000000015
 20
-590.5000000000008
 30
0.0
 11
3850.000000000015
 21
-675.74491827928784
 31
0.0
1001
ACDBBLOCKREPETAG
1070
     1
1071
       97
1005
12ECC1
  0
ARC
  5
12ECC2
  8
OBJECT
 10
3847.2000000000148
 20
-685.0000000000008
 30
0.0
 40
85.0
 50
36.869897645906562
 51
88.112268108168848
1001
ACDBBLOCKREPETAG
1070
     1
1071
       98
1005
12ECC2
  0
LINE
  5
12ECC3
  8
HIDDEN
 10
3842.0000000000159
 20
-600.50000000000068
 30
0.0
 11
3842.0000000000159
 21
-689.50000000000091
 31
0.0
1001
ACDBBLOCKREPETAG
1070
     1
1071
      100
1005
12ECC3
  0
LINE
  5
12ECC4
  8
OBJECT
 10
3914.0000000000159
 20
-751.07945073181781
 30
0.0
 11
3843.3686800789692
 21
-699.5000000000008
 31
0.0
1001
ACDBBLOCKREPETAG
1070
     1
1071
      101
1005
12ECC4
  0
LINE
  5
12ECC5
  8
OBJECT
 10
3920.0000000000182
 20
-634.0
 30
0.0
 11
3915.2000000000148
 21
-634.0
 31
0.0
1001
ACDBBLOCKREPETAG
1070
     1
1071
      102
1005
12ECC5
  0
LINE
  5
12ECC6
  8
OBJECT
 10
3914.0000000000159
 20
-653.35026377573013
 30
0.0
 11
3915.2000000000148
 21
-634.0
 31
0.0
1001
ACDBBLOCKREPETAG
1070
     1
1071
      103
1005
12ECC6
  0
LINE
  5
12ECC7
  8
OBJECT
 10
3837.0000000000159
 20
-699.5000000000008
 30
0.0
 11
3843.3686800789692
 21
-699.5000000000008
 31
0.0
1001
ACDBBLOCKREPETAG
1070
     1
1071
      104
1005
12ECC7
  0
LINE
  5
12ECC8
  8
OBJECT
 10
3833.0000000000159
 20
-704.0000000000008
 30
0.0
 11
3837.0000000000159
 21
-699.5000000000008
 31
0.0
1001
ACDBBLOCKREPETAG
1070
     1
1071
      105
1005
12ECC8
  0
CIRCLE
  5
12ECC9
  8
OBJECT
 10
4000.0
 20
-696.0
 30
0.0
 40
62.0
1001
ACDBBLOCKREPETAG
1070
     1
1071
        0
1005
12ECC9
  0
LINE
  5
12ECCA
  8
OBJECT
 10
4133.0
 20
-634.0
 30
0.0
 11
4140.0
 21
-634.0
 31
0.0
1001
ACDBBLOCKREPETAG
1070
     1
1071
       45
1005
12ECCA
  0
LINE
  5
12ECCB
  8
OBJECT
 10
4140.0
 20
-634.0
 30
0.0
 11
4140.0
 21
-755.0
 31
0.0
1001
ACDBBLOCKREPETAG
1070
     1
1071
       46
1005
12ECCB
  0
LINE
  5
12ECCC
  8
OBJECT
 10
4133.0
 20
-755.0
 30
0.0
 11
4133.0
 21
-634.0
 31
0.0
1001
ACDBBLOCKREPETAG
1070
     1
1071
       47
1005
12ECCC
  0
LINE
  5
12ECCD
  8
CENTER
 10
4155.0
 20
-696.0
 30
0.0
 11
4071.0
 21
-696.0
 31
0.0
1001
ACDBBLOCKREPETAG
1070
     1
1071
       48
1005
12ECCD
  0
LINE
  5
12ECCE
  8
OBJECT
 10
4133.0
 20
-637.0
 30
0.0
 11
4097.0
 21
-637.0
 31
0.0
1001
ACDBBLOCKREPETAG
1070
     1
1071
       49
1005
12ECCE
  0
LINE
  5
12ECCF
  8
OBJECT
 10
4097.0
 20
-637.0
 30
0.0
 11
4097.0
 21
-755.0
 31
0.0
1001
ACDBBLOCKREPETAG
1070
     1
1071
       50
1005
12ECCF
  0
LINE
  5
12ECD0
  8
OBJECT
 10
4097.0
 20
-755.0
 30
0.0
 11
4140.0
 21
-755.0
 31
0.0
1001
ACDBBLOCKREPETAG
1070
     1
1071
       51
1005
12ECD0
  0
LINE
  5
12ECD1
  8
OBJECT
 10
4093.0
 20
-641.5
 30
0.0
 11
4086.0
 21
-641.5
 31
0.0
1001
ACDBBLOCKREPETAG
1070
     1
1071
       52
1005
12ECD1
  0
LINE
  5
12ECD2
  8
OBJECT
 10
4086.0
 20
-750.49999999999989
 30
0.0
 11
4093.0
 21
-750.49999999999989
 31
0.0
1001
ACDBBLOCKREPETAG
1070
     1
1071
       53
1005
12ECD2
  0
LINE
  5
12ECD3
  8
OBJECT
 10
4093.0
 20
-750.49999999999989
 30
0.0
 11
4093.0
 21
-641.5
 31
0.0
1001
ACDBBLOCKREPETAG
1070
     1
1071
       54
1005
12ECD3
  0
LINE
  5
12ECD4
  8
OBJECT
 10
4097.0
 20
-637.0
 30
0.0
 11
4093.0
 21
-641.5
 31
0.0
1001
ACDBBLOCKREPETAG
1070
     1
1071
       55
1005
12ECD4
  0
LINE
  5
12ECD5
  8
OBJECT
 10
4097.0
 20
-755.0
 30
0.0
 11
4093.0
 21
-750.49999999999989
 31
0.0
1001
ACDBBLOCKREPETAG
1070
     1
1071
       56
1005
12ECD5
  0
LINE
  5
12ECD6
  8
OBJECT
 10
4083.0
 20
-634.0
 30
0.0
 11
4080.0
 21
-634.0
 31
0.0
1001
ACDBBLOCKREPETAG
1070
     1
1071
       57
1005
12ECD6
  0
ARC
  5
12ECD7
  8
OBJECT
 10
4083.0
 20
-637.0
 30
0.0
 40
3.0
 50
0.0
 51
90.0
1001
ACDBBLOCKREPETAG
1070
     1
1071
       58
1005
12ECD7
  0
LINE
  5
12ECD8
  8
OBJECT
 10
4080.0
 20
-758.0
 30
0.0
 11
4083.0
 21
-758.0
 31
0.0
1001
ACDBBLOCKREPETAG
1070
     1
1071
       59
1005
12ECD8
  0
ARC
  5
12ECD9
  8
OBJECT
 10
4083.0
 20
-755.0
 30
0.0
 40
3.0
 50
270.0
 51
0.0
1001
ACDBBLOCKREPETAG
1070
     1
1071
       60
1005
12ECD9
  0
LINE
  5
12ECDA
  8
OBJECT
 10
4086.0
 20
-755.0
 30
0.0
 11
4086.0
 21
-637.0
 31
0.0
1001
ACDBBLOCKREPETAG
1070
     1
1071
       61
1005
12ECDA
  0
LINE
  5
12ECDB
  8
HIDDEN
 10
4088.0
 20
-651.5
 30
0.0
 11
4088.0
 21
-740.5
 31
0.0
1001
ACDBBLOCKREPETAG
1070
     1
1071
       63
1005
12ECDB
  0
LINE
  5
12ECDC
  8
OBJECT
 10
1797.0000000000141
 20
-261.99999999999909
 30
0.0
 11
1790.0000000000141
 21
-261.99999999999909
 31
0.0
1001
ACDBBLOCKREPETAG
1070
     1
1071
       85
1005
12ECDC
  0
LINE
  5
12ECDD
  8
OBJECT
 10
1790.0000000000141
 20
-261.99999999999909
 30
0.0
 11
1790.0000000000141
 21
-137.99999999999909
 31
0.0
1001
ACDBBLOCKREPETAG
1070
     1
1071
       86
1005
12ECDD
  0
LINE
  5
12ECDE
  8
OBJECT
 10
1790.0000000000141
 20
-137.99999999999909
 30
0.0
 11
1797.0000000000141
 21
-137.99999999999909
 31
0.0
1001
ACDBBLOCKREPETAG
1070
     1
1071
       87
1005
12ECDE
  0
LINE
  5
12ECDF
  8
OBJECT
 10
1797.0000000000141
 20
-137.99999999999909
 30
0.0
 11
1797.0000000000141
 21
-261.99999999999909
 31
0.0
1001
ACDBBLOCKREPETAG
1070
     1
1071
       88
1005
12ECDF
  0
LINE
  5
12ECE0
  8
CENTER
 10
1775.0000000000141
 20
-199.99999999999909
 30
0.0
 11
1920.0
 21
-199.99999999999909
 31
0.0
1001
ACDBBLOCKREPETAG
1070
     1
1071
       89
1005
12ECE0
  0
LINE
  5
12ECE1
  8
OBJECT
 10
1850.000025035813
 20
-154.9999999999954
 30
0.0
 11
1914.0
 21
-154.99999999999909
 31
0.0
1001
ACDBBLOCKREPETAG
1070
     1
1071
       90
1005
12ECE1
  0
LINE
  5
12ECE2
  8
OBJECT
 10
1850.000025035813
 20
-244.99999999999909
 30
0.0
 11
1914.0
 21
-244.99999999999909
 31
0.0
1001
ACDBBLOCKREPETAG
1070
     1
1071
       91
1005
12ECE2
  0
LINE
  5
12ECE3
  8
OBJECT
 10
1797.0000000000141
 20
-258.99999999999909
 30
0.0
 11
1833.000000000015
 21
-258.99999999999909
 31
0.0
1001
ACDBBLOCKREPETAG
1070
     1
1071
       92
1005
12ECE3
  0
LINE
  5
12ECE4
  8
OBJECT
 10
1833.000000000015
 20
-258.99999999999909
 30
0.0
 11
1833.000000000015
 21
-140.99999999999909
 31
0.0
1001
ACDBBLOCKREPETAG
1070
     1
1071
       93
1005
12ECE4
  0
LINE
  5
12ECE5
  8
OBJECT
 10
1833.000000000015
 20
-140.99999999999909
 30
0.0
 11
1797.0000000000141
 21
-140.99999999999909
 31
0.0
1001
ACDBBLOCKREPETAG
1070
     1
1071
       94
1005
12ECE5
  0
LINE
  5
12ECE6
  8
OBJECT
 10
1837.000000000015
 20
-254.49999999999909
 30
0.0
 11
1850.0000000000141
 21
-254.49999999999909
 31
0.0
1001
ACDBBLOCKREPETAG
1070
     1
1071
       95
1005
12ECE6
  0
LINE
  5
12ECE7
  8
OBJECT
 10
1850.0000000000141
 20
-145.49999999999909
 30
0.0
 11
1837.000000000015
 21
-145.49999999999909
 31
0.0
1001
ACDBBLOCKREPETAG
1070
     1
1071
       96
1005
12ECE7
  0
LINE
  5
12ECE8
  8
OBJECT
 10
1837.000000000015
 20
-145.49999999999909
 30
0.0
 11
1837.000000000015
 21
-254.49999999999909
 31
0.0
1001
ACDBBLOCKREPETAG
1070
     1
1071
       97
1005
12ECE8
  0
LINE
  5
12ECE9
  8
OBJECT
 10
1833.000000000015
 20
-258.99999999999909
 30
0.0
 11
1837.000000000015
 21
-254.49999999999909
 31
0.0
1001
ACDBBLOCKREPETAG
1070
     1
1071
       98
1005
12ECE9
  0
LINE
  5
12ECEA
  8
OBJECT
 10
1833.000000000015
 20
-140.99999999999909
 30
0.0
 11
1837.000000000015
 21
-145.49999999999909
 31
0.0
1001
ACDBBLOCKREPETAG
1070
     1
1071
       99
1005
12ECEA
  0
LINE
  5
12ECEB
  8
OBJECT
 10
1917.0
 20
-261.99999999999909
 30
0.0
 11
1920.0
 21
-261.99999999999909
 31
0.0
1001
ACDBBLOCKREPETAG
1070
     1
1071
      100
1005
12ECEB
  0
ARC
  5
12ECEC
  8
OBJECT
 10
1917.0
 20
-258.99999999999909
 30
0.0
 40
3.0
 50
180.0
 51
270.0
1001
ACDBBLOCKREPETAG
1070
     1
1071
      101
1005
12ECEC
  0
LINE
  5
12ECED
  8
OBJECT
 10
1920.0
 20
-137.99999999999909
 30
0.0
 11
1917.0
 21
-137.99999999999909
 31
0.0
1001
ACDBBLOCKREPETAG
1070
     1
1071
      102
1005
12ECED
  0
ARC
  5
12ECEE
  8
OBJECT
 10
1917.0
 20
-140.99999999999909
 30
0.0
 40
3.0
 50
90.0
 51
180.0
1001
ACDBBLOCKREPETAG
1070
     1
1071
      103
1005
12ECEE
  0
LINE
  5
12ECEF
  8
OBJECT
 10
1914.0
 20
-140.99999999999909
 30
0.0
 11
1914.0
 21
-189.6772096796403
 31
0.0
1001
ACDBBLOCKREPETAG
1070
     1
1071
      104
1005
12ECEF
  0
LINE
  5
12ECF0
  8
OBJECT
 10
1914.0
 20
-210.3227903203578
 30
0.0
 11
1914.0
 21
-258.99999999999909
 31
0.0
1001
ACDBBLOCKREPETAG
1070
     1
1071
      105
1005
12ECF0
  0
LINE
  5
12ECF1
  8
HIDDEN
 10
1842.0000000000141
 20
-244.49999999999909
 30
0.0
 11
1842.0000000000141
 21
-155.49999999999909
 31
0.0
1001
ACDBBLOCKREPETAG
1070
     1
1071
      106
1005
12ECF1
  0
LINE
  5
12ECF2
  8
OBJECT
 10
1850.000025035813
 20
-145.50004907618759
 30
0.0
 11
1850.000025035813
 21
-254.50004907618771
 31
0.0
1001
ACDBBLOCKREPETAG
1070
     1
1071
      108
1005
12ECF2
  0
ARC
  5
12ECF3
  8
OBJECT
 10
1870.199999999975
 20
-199.99999999999909
 30
0.0
 40
45.000000000000547
 50
270.0
 51
90.0
1001
ACDBBLOCKREPETAG
1070
     1
1071
      109
1005
12ECF3
  0
LINE
  5
12ECF4
  8
CENTER
 10
2000.0
 20
-300.99999999999898
 30
0.0
 11
2000.0
 21
-279.99999999999909
 31
0.0
1001
ACDBBLOCKREPETAG
1070
     1
1071
        0
1005
12ECF4
  0
LINE
  5
12ECF5
  8
OBJECT
 10
2062.0
 20
-283.0
 30
0.0
 11
2062.0
 21
-279.99999999999909
 31
0.0
1001
ACDBBLOCKREPETAG
1070
     1
1071
        1
1005
12ECF5
  0
ARC
  5
12ECF6
  8
OBJECT
 10
2059.0
 20
-283.0
 30
0.0
 40
3.0
 50
270.0
 51
0.0
1001
ACDBBLOCKREPETAG
1070
     1
1071
        2
1005
12ECF6
  0
LINE
  5
12ECF7
  8
OBJECT
 10
1938.0
 20
-279.99999999999909
 30
0.0
 11
1938.0
 21
-282.99999999999818
 31
0.0
1001
ACDBBLOCKREPETAG
1070
     1
1071
        3
1005
12ECF7
  0
ARC
  5
12ECF8
  8
OBJECT
 10
1941.0
 20
-282.99999999999818
 30
0.0
 40
3.0
 50
180.0
 51
270.0
1001
ACDBBLOCKREPETAG
1070
     1
1071
        4
1005
12ECF8
  0
LINE
  5
12ECF9
  8
OBJECT
 10
1941.0
 20
-285.99999999999818
 30
0.0
 11
2059.0
 21
-286.0
 31
0.0
1001
ACDBBLOCKREPETAG
1070
     1
1071
        5
1005
12ECF9
  0
LINE
  5
12ECFA
  8
OBJECT
 10
2133.0
 20
-137.99999999999909
 30
0.0
 11
2140.0
 21
-137.99999999999909
 31
0.0
1001
ACDBBLOCKREPETAG
1070
     1
1071
       47
1005
12ECFA
  0
LINE
  5
12ECFB
  8
OBJECT
 10
2140.0
 20
-137.99999999999909
 30
0.0
 11
2140.0
 21
-261.99999999999909
 31
0.0
1001
ACDBBLOCKREPETAG
1070
     1
1071
       48
1005
12ECFB
  0
LINE
  5
12ECFC
  8
OBJECT
 10
2140.0
 20
-261.99999999999909
 30
0.0
 11
2133.0
 21
-261.99999999999909
 31
0.0
1001
ACDBBLOCKREPETAG
1070
     1
1071
       49
1005
12ECFC
  0
LINE
  5
12ECFD
  8
OBJECT
 10
2133.0
 20
-261.99999999999909
 30
0.0
 11
2133.0
 21
-137.99999999999909
 31
0.0
1001
ACDBBLOCKREPETAG
1070
     1
1071
       50
1005
12ECFD
  0
LINE
  5
12ECFE
  8
CENTER
 10
2155.0
 20
-199.99999999999909
 30
0.0
 11
2080.0
 21
-199.99999999999909
 31
0.0
1001
ACDBBLOCKREPETAG
1070
     1
1071
       51
1005
12ECFE
  0
LINE
  5
12ECFF
  8
OBJECT
 10
2133.0
 20
-140.99999999999909
 30
0.0
 11
2097.0
 21
-140.99999999999909
 31
0.0
1001
ACDBBLOCKREPETAG
1070
     1
1071
       52
1005
12ECFF
  0
LINE
  5
12ED00
  8
OBJECT
 10
2097.0
 20
-140.99999999999909
 30
0.0
 11
2097.0
 21
-258.99999999999909
 31
0.0
1001
ACDBBLOCKREPETAG
1070
     1
1071
       53
1005
12ED00
  0
LINE
  5
12ED01
  8
OBJECT
 10
2097.0
 20
-258.99999999999909
 30
0.0
 11
2133.0
 21
-258.99999999999909
 31
0.0
1001
ACDBBLOCKREPETAG
1070
     1
1071
       54
1005
12ED01
  0
LINE
  5
12ED02
  8
OBJECT
 10
2093.0
 20
-145.49999999999909
 30
0.0
 11
2086.0
 21
-145.49999999999909
 31
0.0
1001
ACDBBLOCKREPETAG
1070
     1
1071
       55
1005
12ED02
  0
LINE
  5
12ED03
  8
OBJECT
 10
2086.0
 20
-254.49999999999909
 30
0.0
 11
2093.0
 21
-254.49999999999909
 31
0.0
1001
ACDBBLOCKREPETAG
1070
     1
1071
       56
1005
12ED03
  0
LINE
  5
12ED04
  8
OBJECT
 10
2093.0
 20
-254.49999999999909
 30
0.0
 11
2093.0
 21
-145.49999999999909
 31
0.0
1001
ACDBBLOCKREPETAG
1070
     1
1071
       57
1005
12ED04
  0
LINE
  5
12ED05
  8
OBJECT
 10
2097.0
 20
-140.99999999999909
 30
0.0
 11
2093.0
 21
-145.49999999999909
 31
0.0
1001
ACDBBLOCKREPETAG
1070
     1
1071
       58
1005
12ED05
  0
LINE
  5
12ED06
  8
OBJECT
 10
2097.0
 20
-258.99999999999909
 30
0.0
 11
2093.0
 21
-254.49999999999909
 31
0.0
1001
ACDBBLOCKREPETAG
1070
     1
1071
       59
1005
12ED06
  0
LINE
  5
12ED07
  8
OBJECT
 10
2083.0
 20
-137.99999999999909
 30
0.0
 11
2080.0
 21
-137.99999999999909
 31
0.0
1001
ACDBBLOCKREPETAG
1070
     1
1071
       60
1005
12ED07
  0
ARC
  5
12ED08
  8
OBJECT
 10
2083.0
 20
-140.99999999999909
 30
0.0
 40
3.0
 50
0.0
 51
90.0
1001
ACDBBLOCKREPETAG
1070
     1
1071
       61
1005
12ED08
  0
LINE
  5
12ED09
  8
OBJECT
 10
2080.0
 20
-261.99999999999909
 30
0.0
 11
2083.0
 21
-261.99999999999909
 31
0.0
1001
ACDBBLOCKREPETAG
1070
     1
1071
       62
1005
12ED09
  0
ARC
  5
12ED0A
  8
OBJECT
 10
2083.0
 20
-258.99999999999909
 30
0.0
 40
3.0
 50
270.0
 51
0.0
1001
ACDBBLOCKREPETAG
1070
     1
1071
       63
1005
12ED0A
  0
LINE
  5
12ED0B
  8
OBJECT
 10
2086.0
 20
-258.99999999999909
 30
0.0
 11
2086.0
 21
-140.99999999999909
 31
0.0
1001
ACDBBLOCKREPETAG
1070
     1
1071
       64
1005
12ED0B
  0
LINE
  5
12ED0C
  8
HIDDEN
 10
2088.0
 20
-155.49999999999909
 30
0.0
 11
2088.0
 21
-244.49999999999909
 31
0.0
1001
ACDBBLOCKREPETAG
1070
     1
1071
       65
1005
12ED0C
  0
LINE
  5
12ED0D
  8
OBJECT
 10
1797.0000000000141
 20
-583.0
 30
0.0
 11
1790.0000000000141
 21
-583.0
 31
0.0
1001
ACDBBLOCKREPETAG
1070
     1
1071
       83
1005
12ED0D
  0
LINE
  5
12ED0E
  8
OBJECT
 10
1790.0000000000141
 20
-583.0
 30
0.0
 11
1790.0000000000141
 21
-707.0
 31
0.0
1001
ACDBBLOCKREPETAG
1070
     1
1071
       84
1005
12ED0E
  0
LINE
  5
12ED0F
  8
OBJECT
 10
1914.0000000000141
 20
-653.3502637757274
 30
0.0
 11
1914.0000000000141
 21
-755.00000000000102
 31
0.0
1001
ACDBBLOCKREPETAG
1070
     1
1071
       85
1005
12ED0F
  0
LINE
  5
12ED10
  8
OBJECT
 10
1790.0000000000141
 20
-707.0
 30
0.0
 11
1797.0000000000141
 21
-707.0
 31
0.0
1001
ACDBBLOCKREPETAG
1070
     1
1071
       86
1005
12ED10
  0
LINE
  5
12ED11
  8
OBJECT
 10
1797.0000000000141
 20
-707.0
 30
0.0
 11
1797.0000000000141
 21
-583.0
 31
0.0
1001
ACDBBLOCKREPETAG
1070
     1
1071
       87
1005
12ED11
  0
LINE
  5
12ED12
  8
CENTER
 10
1865.0000000000141
 20
-645.0000000000008
 30
0.0
 11
1775.0000000000141
 21
-645.0
 31
0.0
1001
ACDBBLOCKREPETAG
1070
     1
1071
       88
1005
12ED12
  0
LINE
  5
12ED13
  8
OBJECT
 10
1920.000000000018
 20
-758.0
 30
0.0
 11
1917.000000000015
 21
-758.0000000000008
 31
0.0
1001
ACDBBLOCKREPETAG
1070
     1
1071
       89
1005
12ED13
  0
ARC
  5
12ED14
  8
OBJECT
 10
1917.000000000015
 20
-755.00000000000102
 30
0.0
 40
3.0
 50
180.0
 51
270.0
1001
ACDBBLOCKREPETAG
1070
     1
1071
       90
1005
12ED14
  0
LINE
  5
12ED15
  8
OBJECT
 10
1797.0000000000141
 20
-586.0
 30
0.0
 11
1833.000000000015
 21
-586.0000000000008
 31
0.0
1001
ACDBBLOCKREPETAG
1070
     1
1071
       91
1005
12ED15
  0
LINE
  5
12ED16
  8
OBJECT
 10
1833.000000000015
 20
-586.0000000000008
 30
0.0
 11
1833.000000000015
 21
-704.0000000000008
 31
0.0
1001
ACDBBLOCKREPETAG
1070
     1
1071
       92
1005
12ED16
  0
LINE
  5
12ED17
  8
OBJECT
 10
1837.000000000015
 20
-590.5000000000008
 30
0.0
 11
1837.000000000015
 21
-699.5000000000008
 31
0.0
1001
ACDBBLOCKREPETAG
1070
     1
1071
       93
1005
12ED17
  0
LINE
  5
12ED18
  8
OBJECT
 10
1837.000000000015
 20
-590.5000000000008
 30
0.0
 11
1850.0000000000141
 21
-590.5000000000008
 31
0.0
1001
ACDBBLOCKREPETAG
1070
     1
1071
       94
1005
12ED18
  0
LINE
  5
12ED19
  8
OBJECT
 10
1833.000000000015
 20
-704.0000000000008
 30
0.0
 11
1797.0000000000141
 21
-704.0
 31
0.0
1001
ACDBBLOCKREPETAG
1070
     1
1071
       95
1005
12ED19
  0
LINE
  5
12ED1A
  8
OBJECT
 10
1833.000000000015
 20
-586.0000000000008
 30
0.0
 11
1837.000000000015
 21
-590.5000000000008
 31
0.0
1001
ACDBBLOCKREPETAG
1070
     1
1071
       96
1005
12ED1A
  0
LINE
  5
12ED1B
  8
OBJECT
 10
1850.0000000000141
 20
-590.5000000000008
 30
0.0
 11
1850.0000000000141
 21
-675.74491827928784
 31
0.0
1001
ACDBBLOCKREPETAG
1070
     1
1071
       97
1005
12ED1B
  0
ARC
  5
12ED1C
  8
OBJECT
 10
1847.2000000000151
 20
-685.0000000000008
 30
0.0
 40
85.0
 50
36.869897645898732
 51
88.112268108168848
1001
ACDBBLOCKREPETAG
1070
     1
1071
       98
1005
12ED1C
  0
LINE
  5
12ED1D
  8
HIDDEN
 10
1842.0000000000141
 20
-600.50000000000068
 30
0.0
 11
1842.0000000000141
 21
-689.50000000000091
 31
0.0
1001
ACDBBLOCKREPETAG
1070
     1
1071
      100
1005
12ED1D
  0
LINE
  5
12ED1E
  8
OBJECT
 10
1914.0000000000141
 20
-751.07945073181781
 30
0.0
 11
1843.368680078969
 21
-699.5000000000008
 31
0.0
1001
ACDBBLOCKREPETAG
1070
     1
1071
      101
1005
12ED1E
  0
LINE
  5
12ED1F
  8
OBJECT
 10
1920.000000000018
 20
-634.0
 30
0.0
 11
1915.2000000000151
 21
-634.0
 31
0.0
1001
ACDBBLOCKREPETAG
1070
     1
1071
      102
1005
12ED1F
  0
LINE
  5
12ED20
  8
OBJECT
 10
1914.0000000000141
 20
-653.35026377573013
 30
0.0
 11
1915.2000000000151
 21
-634.0
 31
0.0
1001
ACDBBLOCKREPETAG
1070
     1
1071
      103
1005
12ED20
  0
LINE
  5
12ED21
  8
OBJECT
 10
1837.000000000015
 20
-699.5000000000008
 30
0.0
 11
1843.368680078969
 21
-699.5000000000008
 31
0.0
1001
ACDBBLOCKREPETAG
1070
     1
1071
      104
1005
12ED21
  0
LINE
  5
12ED22
  8
OBJECT
 10
1833.000000000015
 20
-704.0000000000008
 30
0.0
 11
1837.000000000015
 21
-699.5000000000008
 31
0.0
1001
ACDBBLOCKREPETAG
1070
     1
1071
      105
1005
12ED22
  0
CIRCLE
  5
12ED23
  8
OBJECT
 10
2000.0
 20
-696.0
 30
0.0
 40
62.0
1001
ACDBBLOCKREPETAG
1070
     1
1071
        0
1005
12ED23
  0
LINE
  5
12ED24
  8
OBJECT
 10
2133.0
 20
-634.0
 30
0.0
 11
2140.0
 21
-634.0
 31
0.0
1001
ACDBBLOCKREPETAG
1070
     1
1071
       45
1005
12ED24
  0
LINE
  5
12ED25
  8
OBJECT
 10
2140.0
 20
-634.0
 30
0.0
 11
2140.0
 21
-755.0
 31
0.0
1001
ACDBBLOCKREPETAG
1070
     1
1071
       46
1005
12ED25
  0
LINE
  5
12ED26
  8
OBJECT
 10
2133.0
 20
-755.0
 30
0.0
 11
2133.0
 21
-634.0
 31
0.0
1001
ACDBBLOCKREPETAG
1070
     1
1071
       47
1005
12ED26
  0
LINE
  5
12ED27
  8
CENTER
 10
2155.0
 20
-696.0
 30
0.0
 11
2071.0
 21
-696.0
 31
0.0
1001
ACDBBLOCKREPETAG
1070
     1
1071
       48
1005
12ED27
  0
LINE
  5
12ED28
  8
OBJECT
 10
2133.0
 20
-637.0
 30
0.0
 11
2097.0
 21
-637.0
 31
0.0
1001
ACDBBLOCKREPETAG
1070
     1
1071
       49
1005
12ED28
  0
LINE
  5
12ED29
  8
OBJECT
 10
2097.0
 20
-637.0
 30
0.0
 11
2097.0
 21
-755.0
 31
0.0
1001
ACDBBLOCKREPETAG
1070
     1
1071
       50
1005
12ED29
  0
LINE
  5
12ED2A
  8
OBJECT
 10
2097.0
 20
-755.0
 30
0.0
 11
2140.0
 21
-755.0
 31
0.0
1001
ACDBBLOCKREPETAG
1070
     1
1071
       51
1005
12ED2A
  0
LINE
  5
12ED2B
  8
OBJECT
 10
2093.0
 20
-641.5
 30
0.0
 11
2086.0
 21
-641.5
 31
0.0
1001
ACDBBLOCKREPETAG
1070
     1
1071
       52
1005
12ED2B
  0
LINE
  5
12ED2C
  8
OBJECT
 10
2086.0
 20
-750.49999999999989
 30
0.0
 11
2093.0
 21
-750.49999999999989
 31
0.0
1001
ACDBBLOCKREPETAG
1070
     1
1071
       53
1005
12ED2C
  0
LINE
  5
12ED2D
  8
OBJECT
 10
2093.0
 20
-750.49999999999989
 30
0.0
 11
2093.0
 21
-641.5
 31
0.0
1001
ACDBBLOCKREPETAG
1070
     1
1071
       54
1005
12ED2D
  0
LINE
  5
12ED2E
  8
OBJECT
 10
2097.0
 20
-637.0
 30
0.0
 11
2093.0
 21
-641.5
 31
0.0
1001
ACDBBLOCKREPETAG
1070
     1
1071
       55
1005
12ED2E
  0
LINE
  5
12ED2F
  8
OBJECT
 10
2097.0
 20
-755.0
 30
0.0
 11
2093.0
 21
-750.49999999999989
 31
0.0
1001
ACDBBLOCKREPETAG
1070
     1
1071
       56
1005
12ED2F
  0
LINE
  5
12ED30
  8
OBJECT
 10
2083.0
 20
-634.0
 30
0.0
 11
2080.0
 21
-634.0
 31
0.0
1001
ACDBBLOCKREPETAG
1070
     1
1071
       57
1005
12ED30
  0
ARC
  5
12ED31
  8
OBJECT
 10
2083.0
 20
-637.0
 30
0.0
 40
3.0
 50
0.0
 51
90.0
1001
ACDBBLOCKREPETAG
1070
     1
1071
       58
1005
12ED31
  0
LINE
  5
12ED32
  8
OBJECT
 10
2080.0
 20
-758.0
 30
0.0
 11
2083.0
 21
-758.0
 31
0.0
1001
ACDBBLOCKREPETAG
1070
     1
1071
       59
1005
12ED32
  0
ARC
  5
12ED33
  8
OBJECT
 10
2083.0
 20
-755.0
 30
0.0
 40
3.0
 50
270.0
 51
0.0
1001
ACDBBLOCKREPETAG
1070
     1
1071
       60
1005
12ED33
  0
LINE
  5
12ED34
  8
OBJECT
 10
2086.0
 20
-755.0
 30
0.0
 11
2086.0
 21
-637.0
 31
0.0
1001
ACDBBLOCKREPETAG
1070
     1
1071
       61
1005
12ED34
  0
LINE
  5
12ED35
  8
HIDDEN
 10
2088.0
 20
-651.5
 30
0.0
 11
2088.0
 21
-740.5
 31
0.0
1001
ACDBBLOCKREPETAG
1070
     1
1071
       63
1005
12ED35
  0
TEXT
  5
12ED36
  8
SLIM
 10
0.0000035665234464
 20
24.000004585317601
 30
0.0
 40
79.999999999972701
  1
枝管バリエーション
 41
0.75
1001
ACDBBLOCKREPETAG
1070
     1
1071
      119
1005
12AEEE
  0
TEXT
  5
12ED37
  8
SLIM
 10
0.0
 20
369.99999999999989
 30
0.0
 40
100.0
  1
4SR-ZX06-P110-S
 41
0.75
  0
LINE
  5
12ED38
  8
OBJECT
 10
4923.0
 20
-3395.9999999999968
 30
0.0
 11
4923.0
 21
-3374.9999999999968
 31
0.0
1001
ACDBBLOCKREPETAG
1070
     1
1071
        0
1005
12ED38
  0
LINE
  5
12ED39
  8
OBJECT
 10
4923.0
 20
-3374.9999999999968
 30
0.0
 11
5077.0
 21
-3374.9999999999968
 31
0.0
1001
ACDBBLOCKREPETAG
1070
     1
1071
        1
1005
12ED39
  0
LINE
  5
12ED3A
  8
HIDDEN
 10
4943.0
 20
-3444.9999999999968
 30
0.0
 11
5057.0
 21
-3444.9999999999968
 31
0.0
1001
ACDBBLOCKREPETAG
1070
     1
1071
        2
1005
12ED3A
  0
LINE
  5
12ED3B
  8
OBJECT
 10
5077.0
 20
-3374.9999999999968
 30
0.0
 11
5077.0
 21
-3395.9999999999968
 31
0.0
1001
ACDBBLOCKREPETAG
1070
     1
1071
        3
1005
12ED3B
  0
LINE
  5
12ED3C
  8
OBJECT
 10
5077.0
 20
-3395.9999999999968
 30
0.0
 11
4923.0
 21
-3395.9999999999968
 31
0.0
1001
ACDBBLOCKREPETAG
1070
     1
1071
        4
1005
12ED3C
  0
LINE
  5
12ED3D
  8
CENTER
 10
5000.0
 20
-3359.9999999999968
 30
0.0
 11
5000.0
 21
-3594.9999999999968
 31
0.0
1001
ACDBBLOCKREPETAG
1070
     1
1071
        5
1005
12ED3D
  0
LINE
  5
12ED3E
  8
OBJECT
 10
4925.0
 20
-3458.9999999999968
 30
0.0
 11
4925.0
 21
-3582.9999999999968
 31
0.0
1001
ACDBBLOCKREPETAG
1070
     1
1071
        6
1005
12ED3E
  0
LINE
  5
12ED3F
  8
OBJECT
 10
4928.0
 20
-3395.9999999999968
 30
0.0
 11
4928.0
 21
-3458.9999999999968
 31
0.0
1001
ACDBBLOCKREPETAG
1070
     1
1071
        7
1005
12ED3F
  0
LINE
  5
12ED40
  8
OBJECT
 10
5072.0
 20
-3458.9999999999968
 30
0.0
 11
5072.0
 21
-3395.9999999999968
 31
0.0
1001
ACDBBLOCKREPETAG
1070
     1
1071
        8
1005
12ED40
  0
LINE
  5
12ED41
  8
OBJECT
 10
5074.9999999997999
 20
-3582.9999999997758
 30
0.0
 11
5080.0
 21
-3582.9999999999968
 31
0.0
1001
ACDBBLOCKREPETAG
1070
     1
1071
        9
1005
12ED41
  0
LINE
  5
12ED42
  8
OBJECT
 10
5080.0
 20
-3458.9999999999968
 30
0.0
 11
4925.0
 21
-3458.9999999999968
 31
0.0
1001
ACDBBLOCKREPETAG
1070
     1
1071
       10
1005
12ED42
  0
ARC
  5
12ED43
  8
OBJECT
 10
5200.6872746716726
 20
-3574.408099410105
 30
0.0
 40
170.6350503965856
 50
137.44134459184301
 51
149.9194958133665
1001
ACDBBLOCKREPETAG
1070
     1
1071
       15
1005
12ED43
  0
ARC
  5
12ED44
  8
OBJECT
 10
5118.8455987040506
 20
-3530.8827266953631
 30
0.0
 40
78.072222021763665
 50
147.4551531037684
 51
164.66365997719291
1001
ACDBBLOCKREPETAG
1070
     1
1071
       16
1005
12ED44
  0
ARC
  5
12ED45
  8
OBJECT
 10
5085.7554349608727
 20
-3520.9999999999968
 30
0.0
 40
43.55353926885617
 50
165.6884523008477
 51
194.3115476991523
1001
ACDBBLOCKREPETAG
1070
     1
1071
       17
1005
12ED45
  0
ARC
  5
12ED46
  8
OBJECT
 10
5200.6872746716726
 20
-3467.5919005898891
 30
0.0
 40
170.6350503965856
 50
210.0805041866335
 51
222.55865540815699
1001
ACDBBLOCKREPETAG
1070
     1
1071
       18
1005
12ED46
  0
ARC
  5
12ED47
  8
OBJECT
 10
5118.8455987040506
 20
-3511.1172733046319
 30
0.0
 40
78.072222021763665
 50
195.33634002280701
 51
212.5448468962316
1001
ACDBBLOCKREPETAG
1070
     1
1071
       19
1005
12ED47
  0
POINT
  5
12ED48
  8
DOTS
 10
5000.0
 20
-3579.9999999999968
 30
0.0
1001
ACDBBLOCKREPETAG
1070
     1
1071
      186
1005
12ED48
  0
LINE
  5
12ED49
  8
OBJECT
 10
4323.0
 20
-3395.9999999999968
 30
0.0
 11
4323.0
 21
-3374.9999999999968
 31
0.0
1001
ACDBBLOCKREPETAG
1070
     1
1071
       20
1005
12ED49
  0
LINE
  5
12ED4A
  8
OBJECT
 10
4323.0
 20
-3374.9999999999968
 30
0.0
 11
4477.0
 21
-3374.9999999999968
 31
0.0
1001
ACDBBLOCKREPETAG
1070
     1
1071
       21
1005
12ED4A
  0
LINE
  5
12ED4B
  8
HIDDEN
 10
4343.0
 20
-3444.9999999999968
 30
0.0
 11
4457.0
 21
-3444.9999999999968
 31
0.0
1001
ACDBBLOCKREPETAG
1070
     1
1071
       22
1005
12ED4B
  0
LINE
  5
12ED4C
  8
OBJECT
 10
4477.0
 20
-3374.9999999999968
 30
0.0
 11
4477.0
 21
-3395.9999999999968
 31
0.0
1001
ACDBBLOCKREPETAG
1070
     1
1071
       23
1005
12ED4C
  0
LINE
  5
12ED4D
  8
OBJECT
 10
4477.0
 20
-3395.9999999999968
 30
0.0
 11
4323.0
 21
-3395.9999999999968
 31
0.0
1001
ACDBBLOCKREPETAG
1070
     1
1071
       24
1005
12ED4D
  0
LINE
  5
12ED4E
  8
CENTER
 10
4400.0
 20
-3359.9999999999968
 30
0.0
 11
4400.0
 21
-3594.9999999999968
 31
0.0
1001
ACDBBLOCKREPETAG
1070
     1
1071
       25
1005
12ED4E
  0
LINE
  5
12ED4F
  8
OBJECT
 10
4325.0
 20
-3458.9999999999968
 30
0.0
 11
4325.0
 21
-3582.9999999999968
 31
0.0
1001
ACDBBLOCKREPETAG
1070
     1
1071
       26
1005
12ED4F
  0
LINE
  5
12ED50
  8
OBJECT
 10
4328.0
 20
-3395.9999999999968
 30
0.0
 11
4328.0
 21
-3458.9999999999968
 31
0.0
1001
ACDBBLOCKREPETAG
1070
     1
1071
       27
1005
12ED50
  0
LINE
  5
12ED51
  8
OBJECT
 10
4472.0
 20
-3458.9999999999968
 30
0.0
 11
4472.0
 21
-3395.9999999999968
 31
0.0
1001
ACDBBLOCKREPETAG
1070
     1
1071
       28
1005
12ED51
  0
LINE
  5
12ED52
  8
OBJECT
 10
4475.0
 20
-3458.9999999999968
 30
0.0
 11
4325.0
 21
-3458.9999999999968
 31
0.0
1001
ACDBBLOCKREPETAG
1070
     1
1071
       30
1005
12ED52
  0
LINE
  5
12ED53
  8
OBJECT
 10
4475.0
 20
-3458.9999999999968
 30
0.0
 11
4475.0
 21
-3582.9999999999968
 31
0.0
1001
ACDBBLOCKREPETAG
1070
     1
1071
       34
1005
12ED53
  0
POINT
  5
12ED54
  8
DOTS
 10
4400.0
 20
-3579.9999999999968
 30
0.0
1001
ACDBBLOCKREPETAG
1070
     1
1071
      187
1005
12ED54
  0
LINE
  5
12ED55
  8
OBJECT
 10
3923.0
 20
-3395.9999999999968
 30
0.0
 11
3923.0
 21
-3374.9999999999968
 31
0.0
1001
ACDBBLOCKREPETAG
1070
     1
1071
        0
1005
12ED55
  0
LINE
  5
12ED56
  8
OBJECT
 10
3923.0
 20
-3374.9999999999968
 30
0.0
 11
4077.0
 21
-3374.9999999999968
 31
0.0
1001
ACDBBLOCKREPETAG
1070
     1
1071
        1
1005
12ED56
  0
LINE
  5
12ED57
  8
HIDDEN
 10
3943.0
 20
-3444.9999999999968
 30
0.0
 11
4057.0
 21
-3444.9999999999968
 31
0.0
1001
ACDBBLOCKREPETAG
1070
     1
1071
        2
1005
12ED57
  0
LINE
  5
12ED58
  8
OBJECT
 10
4077.0
 20
-3374.9999999999968
 30
0.0
 11
4077.0
 21
-3395.9999999999968
 31
0.0
1001
ACDBBLOCKREPETAG
1070
     1
1071
        3
1005
12ED58
  0
LINE
  5
12ED59
  8
OBJECT
 10
4077.0
 20
-3395.9999999999968
 30
0.0
 11
3923.0
 21
-3395.9999999999968
 31
0.0
1001
ACDBBLOCKREPETAG
1070
     1
1071
        4
1005
12ED59
  0
LINE
  5
12ED5A
  8
CENTER
 10
4000.0
 20
-3359.9999999999968
 30
0.0
 11
4000.0
 21
-3594.9999999999968
 31
0.0
1001
ACDBBLOCKREPETAG
1070
     1
1071
        5
1005
12ED5A
  0
LINE
  5
12ED5B
  8
OBJECT
 10
3925.0
 20
-3458.9999999999968
 30
0.0
 11
3925.0
 21
-3582.9999999999968
 31
0.0
1001
ACDBBLOCKREPETAG
1070
     1
1071
        6
1005
12ED5B
  0
LINE
  5
12ED5C
  8
OBJECT
 10
3928.0
 20
-3395.9999999999968
 30
0.0
 11
3928.0
 21
-3458.9999999999968
 31
0.0
1001
ACDBBLOCKREPETAG
1070
     1
1071
        7
1005
12ED5C
  0
LINE
  5
12ED5D
  8
OBJECT
 10
4072.0
 20
-3458.9999999999968
 30
0.0
 11
4072.0
 21
-3395.9999999999968
 31
0.0
1001
ACDBBLOCKREPETAG
1070
     1
1071
        8
1005
12ED5D
  0
LINE
  5
12ED5E
  8
OBJECT
 10
4074.999999999799
 20
-3582.9999999997758
 30
0.0
 11
4080.0
 21
-3582.9999999999968
 31
0.0
1001
ACDBBLOCKREPETAG
1070
     1
1071
        9
1005
12ED5E
  0
LINE
  5
12ED5F
  8
OBJECT
 10
4080.0
 20
-3458.9999999999968
 30
0.0
 11
3925.0
 21
-3458.9999999999968
 31
0.0
1001
ACDBBLOCKREPETAG
1070
     1
1071
       10
1005
12ED5F
  0
ARC
  5
12ED60
  8
OBJECT
 10
4200.6872746716726
 20
-3574.408099410105
 30
0.0
 40
170.6350503965856
 50
137.44134459184301
 51
149.9194958133665
1001
ACDBBLOCKREPETAG
1070
     1
1071
       15
1005
12ED60
  0
ARC
  5
12ED61
  8
OBJECT
 10
4118.8455987040506
 20
-3530.8827266953631
 30
0.0
 40
78.072222021763665
 50
147.4551531037684
 51
164.663659977186
1001
ACDBBLOCKREPETAG
1070
     1
1071
       16
1005
12ED61
  0
ARC
  5
12ED62
  8
OBJECT
 10
4085.7554349608722
 20
-3520.9999999999968
 30
0.0
 40
43.55353926885617
 50
165.6884523008477
 51
194.3115476991523
1001
ACDBBLOCKREPETAG
1070
     1
1071
       17
1005
12ED62
  0
ARC
  5
12ED63
  8
OBJECT
 10
4200.6872746716726
 20
-3467.5919005898891
 30
0.0
 40
170.6350503965856
 50
210.0805041866335
 51
222.55865540815699
1001
ACDBBLOCKREPETAG
1070
     1
1071
       18
1005
12ED63
  0
ARC
  5
12ED64
  8
OBJECT
 10
4118.8455987040506
 20
-3511.1172733046319
 30
0.0
 40
78.072222021763665
 50
195.33634002281391
 51
212.5448468962316
1001
ACDBBLOCKREPETAG
1070
     1
1071
       19
1005
12ED64
  0
POINT
  5
12ED65
  8
DOTS
 10
4000.0
 20
-3579.9999999999968
 30
0.0
1001
ACDBBLOCKREPETAG
1070
     1
1071
      186
1005
12ED65
  0
LINE
  5
12ED66
  8
OBJECT
 10
3323.0
 20
-3395.9999999999968
 30
0.0
 11
3323.0
 21
-3374.9999999999968
 31
0.0
1001
ACDBBLOCKREPETAG
1070
     1
1071
       20
1005
12ED66
  0
LINE
  5
12ED67
  8
OBJECT
 10
3323.0
 20
-3374.9999999999968
 30
0.0
 11
3477.0
 21
-3374.9999999999968
 31
0.0
1001
ACDBBLOCKREPETAG
1070
     1
1071
       21
1005
12ED67
  0
LINE
  5
12ED68
  8
HIDDEN
 10
3343.0
 20
-3444.9999999999968
 30
0.0
 11
3457.0
 21
-3444.9999999999968
 31
0.0
1001
ACDBBLOCKREPETAG
1070
     1
1071
       22
1005
12ED68
  0
LINE
  5
12ED69
  8
OBJECT
 10
3477.0
 20
-3374.9999999999968
 30
0.0
 11
3477.0
 21
-3395.9999999999968
 31
0.0
1001
ACDBBLOCKREPETAG
1070
     1
1071
       23
1005
12ED69
  0
LINE
  5
12ED6A
  8
OBJECT
 10
3477.0
 20
-3395.9999999999968
 30
0.0
 11
3323.0
 21
-3395.9999999999968
 31
0.0
1001
ACDBBLOCKREPETAG
1070
     1
1071
       24
1005
12ED6A
  0
LINE
  5
12ED6B
  8
CENTER
 10
3400.0
 20
-3359.9999999999968
 30
0.0
 11
3400.0
 21
-3594.9999999999968
 31
0.0
1001
ACDBBLOCKREPETAG
1070
     1
1071
       25
1005
12ED6B
  0
LINE
  5
12ED6C
  8
OBJECT
 10
3325.0
 20
-3458.9999999999968
 30
0.0
 11
3325.0
 21
-3582.9999999999968
 31
0.0
1001
ACDBBLOCKREPETAG
1070
     1
1071
       26
1005
12ED6C
  0
LINE
  5
12ED6D
  8
OBJECT
 10
3328.0
 20
-3395.9999999999968
 30
0.0
 11
3328.0
 21
-3458.9999999999968
 31
0.0
1001
ACDBBLOCKREPETAG
1070
     1
1071
       27
1005
12ED6D
  0
LINE
  5
12ED6E
  8
OBJECT
 10
3472.0
 20
-3458.9999999999968
 30
0.0
 11
3472.0
 21
-3395.9999999999968
 31
0.0
1001
ACDBBLOCKREPETAG
1070
     1
1071
       28
1005
12ED6E
  0
LINE
  5
12ED6F
  8
OBJECT
 10
3475.0
 20
-3458.9999999999968
 30
0.0
 11
3325.0
 21
-3458.9999999999968
 31
0.0
1001
ACDBBLOCKREPETAG
1070
     1
1071
       30
1005
12ED6F
  0
LINE
  5
12ED70
  8
OBJECT
 10
3475.0
 20
-3458.9999999999968
 30
0.0
 11
3475.0
 21
-3582.9999999999968
 31
0.0
1001
ACDBBLOCKREPETAG
1070
     1
1071
       34
1005
12ED70
  0
POINT
  5
12ED71
  8
DOTS
 10
3400.0
 20
-3579.9999999999968
 30
0.0
1001
ACDBBLOCKREPETAG
1070
     1
1071
      187
1005
12ED71
  0
LINE
  5
12ED72
  8
OBJECT
 10
2923.0
 20
-3395.9999999999968
 30
0.0
 11
2923.0
 21
-3374.9999999999968
 31
0.0
1001
ACDBBLOCKREPETAG
1070
     1
1071
        0
1005
12ED72
  0
LINE
  5
12ED73
  8
OBJECT
 10
2923.0
 20
-3374.9999999999968
 30
0.0
 11
3077.0
 21
-3374.9999999999968
 31
0.0
1001
ACDBBLOCKREPETAG
1070
     1
1071
        1
1005
12ED73
  0
LINE
  5
12ED74
  8
HIDDEN
 10
2943.0
 20
-3444.9999999999968
 30
0.0
 11
3057.0
 21
-3444.9999999999968
 31
0.0
1001
ACDBBLOCKREPETAG
1070
     1
1071
        2
1005
12ED74
  0
LINE
  5
12ED75
  8
OBJECT
 10
3077.0
 20
-3374.9999999999968
 30
0.0
 11
3077.0
 21
-3395.9999999999968
 31
0.0
1001
ACDBBLOCKREPETAG
1070
     1
1071
        3
1005
12ED75
  0
LINE
  5
12ED76
  8
OBJECT
 10
3077.0
 20
-3395.9999999999968
 30
0.0
 11
2923.0
 21
-3395.9999999999968
 31
0.0
1001
ACDBBLOCKREPETAG
1070
     1
1071
        4
1005
12ED76
  0
LINE
  5
12ED77
  8
CENTER
 10
3000.0
 20
-3359.9999999999968
 30
0.0
 11
3000.0
 21
-3594.9999999999968
 31
0.0
1001
ACDBBLOCKREPETAG
1070
     1
1071
        5
1005
12ED77
  0
LINE
  5
12ED78
  8
OBJECT
 10
2925.0
 20
-3458.9999999999968
 30
0.0
 11
2925.0
 21
-3582.9999999999968
 31
0.0
1001
ACDBBLOCKREPETAG
1070
     1
1071
        6
1005
12ED78
  0
LINE
  5
12ED79
  8
OBJECT
 10
2928.0
 20
-3395.9999999999968
 30
0.0
 11
2928.0
 21
-3458.9999999999968
 31
0.0
1001
ACDBBLOCKREPETAG
1070
     1
1071
        7
1005
12ED79
  0
LINE
  5
12ED7A
  8
OBJECT
 10
3072.0
 20
-3458.9999999999968
 30
0.0
 11
3072.0
 21
-3395.9999999999968
 31
0.0
1001
ACDBBLOCKREPETAG
1070
     1
1071
        8
1005
12ED7A
  0
LINE
  5
12ED7B
  8
OBJECT
 10
3074.9999999997999
 20
-3582.9999999997758
 30
0.0
 11
3080.0
 21
-3582.9999999999968
 31
0.0
1001
ACDBBLOCKREPETAG
1070
     1
1071
        9
1005
12ED7B
  0
LINE
  5
12ED7C
  8
OBJECT
 10
3080.0
 20
-3458.9999999999968
 30
0.0
 11
2925.0
 21
-3458.9999999999968
 31
0.0
1001
ACDBBLOCKREPETAG
1070
     1
1071
       10
1005
12ED7C
  0
ARC
  5
12ED7D
  8
OBJECT
 10
3200.6872746716722
 20
-3574.408099410105
 30
0.0
 40
170.6350503965856
 50
137.44134459184301
 51
149.9194958133665
1001
ACDBBLOCKREPETAG
1070
     1
1071
       15
1005
12ED7D
  0
ARC
  5
12ED7E
  8
OBJECT
 10
3118.8455987040511
 20
-3530.8827266953631
 30
0.0
 40
78.072222021763665
 50
147.4551531037684
 51
164.663659977186
1001
ACDBBLOCKREPETAG
1070
     1
1071
       16
1005
12ED7E
  0
ARC
  5
12ED7F
  8
OBJECT
 10
3085.7554349608731
 20
-3520.9999999999968
 30
0.0
 40
43.55353926885617
 50
165.6884523008477
 51
194.3115476991523
1001
ACDBBLOCKREPETAG
1070
     1
1071
       17
1005
12ED7F
  0
ARC
  5
12ED80
  8
OBJECT
 10
3200.6872746716722
 20
-3467.5919005898891
 30
0.0
 40
170.6350503965856
 50
210.0805041866335
 51
222.55865540815699
1001
ACDBBLOCKREPETAG
1070
     1
1071
       18
1005
12ED80
  0
ARC
  5
12ED81
  8
OBJECT
 10
3118.8455987040511
 20
-3511.1172733046319
 30
0.0
 40
78.072222021763665
 50
195.33634002281391
 51
212.5448468962316
1001
ACDBBLOCKREPETAG
1070
     1
1071
       19
1005
12ED81
  0
POINT
  5
12ED82
  8
DOTS
 10
3000.0
 20
-3579.9999999999968
 30
0.0
1001
ACDBBLOCKREPETAG
1070
     1
1071
      186
1005
12ED82
  0
LINE
  5
12ED83
  8
OBJECT
 10
2323.0
 20
-3395.9999999999968
 30
0.0
 11
2323.0
 21
-3374.9999999999968
 31
0.0
1001
ACDBBLOCKREPETAG
1070
     1
1071
       20
1005
12ED83
  0
LINE
  5
12ED84
  8
OBJECT
 10
2323.0
 20
-3374.9999999999968
 30
0.0
 11
2477.0
 21
-3374.9999999999968
 31
0.0
1001
ACDBBLOCKREPETAG
1070
     1
1071
       21
1005
12ED84
  0
LINE
  5
12ED85
  8
HIDDEN
 10
2343.0
 20
-3444.9999999999968
 30
0.0
 11
2457.0
 21
-3444.9999999999968
 31
0.0
1001
ACDBBLOCKREPETAG
1070
     1
1071
       22
1005
12ED85
  0
LINE
  5
12ED86
  8
OBJECT
 10
2477.0
 20
-3374.9999999999968
 30
0.0
 11
2477.0
 21
-3395.9999999999968
 31
0.0
1001
ACDBBLOCKREPETAG
1070
     1
1071
       23
1005
12ED86
  0
LINE
  5
12ED87
  8
OBJECT
 10
2477.0
 20
-3395.9999999999968
 30
0.0
 11
2323.0
 21
-3395.9999999999968
 31
0.0
1001
ACDBBLOCKREPETAG
1070
     1
1071
       24
1005
12ED87
  0
LINE
  5
12ED88
  8
CENTER
 10
2400.0
 20
-3359.9999999999968
 30
0.0
 11
2400.0
 21
-3594.9999999999968
 31
0.0
1001
ACDBBLOCKREPETAG
1070
     1
1071
       25
1005
12ED88
  0
LINE
  5
12ED89
  8
OBJECT
 10
2325.0
 20
-3458.9999999999968
 30
0.0
 11
2325.0
 21
-3582.9999999999968
 31
0.0
1001
ACDBBLOCKREPETAG
1070
     1
1071
       26
1005
12ED89
  0
LINE
  5
12ED8A
  8
OBJECT
 10
2328.0
 20
-3395.9999999999968
 30
0.0
 11
2328.0
 21
-3458.9999999999968
 31
0.0
1001
ACDBBLOCKREPETAG
1070
     1
1071
       27
1005
12ED8A
  0
LINE
  5
12ED8B
  8
OBJECT
 10
2472.0
 20
-3458.9999999999968
 30
0.0
 11
2472.0
 21
-3395.9999999999968
 31
0.0
1001
ACDBBLOCKREPETAG
1070
     1
1071
       28
1005
12ED8B
  0
LINE
  5
12ED8C
  8
OBJECT
 10
2475.0
 20
-3458.9999999999968
 30
0.0
 11
2325.0
 21
-3458.9999999999968
 31
0.0
1001
ACDBBLOCKREPETAG
1070
     1
1071
       30
1005
12ED8C
  0
LINE
  5
12ED8D
  8
OBJECT
 10
2475.0
 20
-3458.9999999999968
 30
0.0
 11
2475.0
 21
-3582.9999999999968
 31
0.0
1001
ACDBBLOCKREPETAG
1070
     1
1071
       34
1005
12ED8D
  0
POINT
  5
12ED8E
  8
DOTS
 10
2400.0
 20
-3579.9999999999968
 30
0.0
1001
ACDBBLOCKREPETAG
1070
     1
1071
      187
1005
12ED8E
  0
LINE
  5
12ED8F
  8
OBJECT
 10
1923.0
 20
-3395.9999999999968
 30
0.0
 11
1923.0
 21
-3374.9999999999968
 31
0.0
1001
ACDBBLOCKREPETAG
1070
     1
1071
        0
1005
12ED8F
  0
LINE
  5
12ED90
  8
OBJECT
 10
1923.0
 20
-3374.9999999999968
 30
0.0
 11
2077.0
 21
-3374.9999999999968
 31
0.0
1001
ACDBBLOCKREPETAG
1070
     1
1071
        1
1005
12ED90
  0
LINE
  5
12ED91
  8
HIDDEN
 10
1943.0
 20
-3444.9999999999968
 30
0.0
 11
2057.0
 21
-3444.9999999999968
 31
0.0
1001
ACDBBLOCKREPETAG
1070
     1
1071
        2
1005
12ED91
  0
LINE
  5
12ED92
  8
OBJECT
 10
2077.0
 20
-3374.9999999999968
 30
0.0
 11
2077.0
 21
-3395.9999999999968
 31
0.0
1001
ACDBBLOCKREPETAG
1070
     1
1071
        3
1005
12ED92
  0
LINE
  5
12ED93
  8
OBJECT
 10
2077.0
 20
-3395.9999999999968
 30
0.0
 11
1923.0
 21
-3395.9999999999968
 31
0.0
1001
ACDBBLOCKREPETAG
1070
     1
1071
        4
1005
12ED93
  0
LINE
  5
12ED94
  8
CENTER
 10
2000.0
 20
-3359.9999999999968
 30
0.0
 11
2000.0
 21
-3594.9999999999968
 31
0.0
1001
ACDBBLOCKREPETAG
1070
     1
1071
        5
1005
12ED94
  0
LINE
  5
12ED95
  8
OBJECT
 10
1925.0
 20
-3458.9999999999968
 30
0.0
 11
1925.0
 21
-3582.9999999999968
 31
0.0
1001
ACDBBLOCKREPETAG
1070
     1
1071
        6
1005
12ED95
  0
LINE
  5
12ED96
  8
OBJECT
 10
1928.0
 20
-3395.9999999999968
 30
0.0
 11
1928.0
 21
-3458.9999999999968
 31
0.0
1001
ACDBBLOCKREPETAG
1070
     1
1071
        7
1005
12ED96
  0
LINE
  5
12ED97
  8
OBJECT
 10
2072.0
 20
-3458.9999999999968
 30
0.0
 11
2072.0
 21
-3395.9999999999968
 31
0.0
1001
ACDBBLOCKREPETAG
1070
     1
1071
        8
1005
12ED97
  0
LINE
  5
12ED98
  8
OBJECT
 10
2074.999999999799
 20
-3582.9999999997758
 30
0.0
 11
2080.0
 21
-3582.9999999999968
 31
0.0
1001
ACDBBLOCKREPETAG
1070
     1
1071
        9
1005
12ED98
  0
LINE
  5
12ED99
  8
OBJECT
 10
2080.0
 20
-3458.9999999999968
 30
0.0
 11
1925.0
 21
-3458.9999999999968
 31
0.0
1001
ACDBBLOCKREPETAG
1070
     1
1071
       10
1005
12ED99
  0
ARC
  5
12ED9A
  8
OBJECT
 10
2200.6872746716731
 20
-3574.408099410105
 30
0.0
 40
170.6350503965856
 50
137.44134459184301
 51
149.91949581335999
1001
ACDBBLOCKREPETAG
1070
     1
1071
       15
1005
12ED9A
  0
ARC
  5
12ED9B
  8
OBJECT
 10
2118.8455987040511
 20
-3530.8827266953631
 30
0.0
 40
78.072222021763665
 50
147.45515310377539
 51
164.663659977186
1001
ACDBBLOCKREPETAG
1070
     1
1071
       16
1005
12ED9B
  0
ARC
  5
12ED9C
  8
OBJECT
 10
2085.7554349608731
 20
-3520.9999999999968
 30
0.0
 40
43.55353926885617
 50
165.6884523008477
 51
194.3115476991523
1001
ACDBBLOCKREPETAG
1070
     1
1071
       17
1005
12ED9C
  0
ARC
  5
12ED9D
  8
OBJECT
 10
2200.6872746716731
 20
-3467.5919005898891
 30
0.0
 40
170.6350503965856
 50
210.08050418664001
 51
222.55865540815699
1001
ACDBBLOCKREPETAG
1070
     1
1071
       18
1005
12ED9D
  0
ARC
  5
12ED9E
  8
OBJECT
 10
2118.8455987040511
 20
-3511.1172733046319
 30
0.0
 40
78.072222021763665
 50
195.33634002281391
 51
212.54484689622461
1001
ACDBBLOCKREPETAG
1070
     1
1071
       19
1005
12ED9E
  0
POINT
  5
12ED9F
  8
DOTS
 10
2000.0
 20
-3579.9999999999968
 30
0.0
1001
ACDBBLOCKREPETAG
1070
     1
1071
      186
1005
12ED9F
  0
LINE
  5
12EDA0
  8
DIM
 10
2150.0
 20
-3221.9999999999959
 30
0.0
 11
2228.479620594459
 21
-3221.9999999999959
 31
0.0
  0
LINE
  5
12EDA1
  8
DIM
 10
2150.0
 20
-3127.9999999999959
 30
0.0
 11
2228.479620594459
 21
-3127.9999999999959
 31
0.0
  0
LINE
  5
12EDA2
  8
DIM
 10
2218.479620594459
 20
-3201.9999999999959
 30
0.0
 11
2218.479620594459
 21
-3147.9999999999959
 31
0.0
  0
INSERT
  5
12EDA3
  8
DIM
  2
_OPEN30
 10
2218.479620594459
 20
-3221.9999999999959
 30
0.0
 41
20.0
 42
20.0
 43
20.0
 50
270.0
  0
INSERT
  5
12EDA4
  8
DIM
  2
_OPEN30
 10
2218.479620594459
 20
-3127.9999999999959
 30
0.0
 41
20.0
 42
20.0
 43
20.0
 50
90.0
  0
INSERT
  5
12EDA5
  8
OBJECT
  2
*U13
 10
0.0
 20
0.0
 30
0.0
  0
LINE
  5
12EDA6
  8
DIM
 10
2150.0
 20
-3579.9999999999968
 30
0.0
 11
2226.8409284037339
 21
-3579.9999999999968
 31
0.0
  0
LINE
  5
12EDA7
  8
DIM
 10
2165.0
 20
-3535.9999999999968
 30
0.0
 11
2226.8409284037339
 21
-3535.9999999999968
 31
0.0
  0
LINE
  5
12EDA8
  8
DIM
 10
2216.840928403733
 20
-3599.9999999999968
 30
0.0
 11
2216.840928403733
 21
-3619.9999999999968
 31
0.0
  0
LINE
  5
12EDA9
  8
DIM
 10
2216.840928403733
 20
-3515.9999999999968
 30
0.0
 11
2216.840928403733
 21
-3495.9999999999968
 31
0.0
  0
LINE
  5
12EDAA
  8
DIM
 10
2216.840928403733
 20
-3579.9999999999968
 30
0.0
 11
2216.840928403733
 21
-3535.9999999999968
 31
0.0
  0
INSERT
  5
12EDAB
  8
DIM
  2
_OPEN30
 10
2216.840928403733
 20
-3579.9999999999968
 30
0.0
 41
20.0
 42
20.0
 43
20.0
 50
90.0
  0
INSERT
  5
12EDAC
  8
DIM
  2
_OPEN30
 10
2216.840928403733
 20
-3535.9999999999968
 30
0.0
 41
20.0
 42
20.0
 43
20.0
 50
270.0
  0
INSERT
  5
12EDAD
  8
OBJECT
  2
*U14
 10
0.0
 20
0.0
 30
0.0
  0
LINE
  5
12EDAE
  8
DIM
 10
2000.0
 20
-3069.9999999999959
 30
0.0
 11
2000.0
 21
-3037.208121984444
 31
0.0
  0
LINE
  5
12EDAF
  8
DIM
 10
2140.0
 20
-3117.9999999999959
 30
0.0
 11
2140.0
 21
-3037.208121984444
 31
0.0
  0
LINE
  5
12EDB0
  8
DIM
 10
2020.0
 20
-3047.208121984444
 30
0.0
 11
2120.0
 21
-3047.208121984444
 31
0.0
  0
INSERT
  5
12EDB1
  8
DIM
  2
_OPEN30
 10
2000.0
 20
-3047.208121984444
 30
0.0
 41
20.0
 42
20.0
 43
20.0
 50
180.0
  0
INSERT
  5
12EDB2
  8
DIM
  2
_OPEN30
 10
2140.0
 20
-3047.208121984444
 30
0.0
 41
20.0
 42
20.0
 43
20.0
  0
INSERT
  5
12EDB3
  8
OBJECT
  2
*U15
 10
0.0
 20
0.0
 30
0.0
  0
TEXT
  5
12EDB4
  8
SLIM
 10
2631.0
 20
-2952.50001604727
 30
0.0
 40
40.0
  1
C寸法
 41
0.75
  0
TEXT
  5
12EDB5
  8
SLIM
 10
2631.0
 20
-2882.50001604727
 30
0.0
 40
40.0
  1
B寸法
 41
0.75
  0
TEXT
  5
12EDB6
  8
SLIM
 10
2630.2857142857142
 20
-2812.50001604727
 30
0.0
 40
40.0
  1
A寸法
 41
0.75
  0
TEXT
  5
12EDB7
  8
SLIM
 10
3159.2857142857151
 20
-2952.50001604727
 30
0.0
 40
40.0
  1
150
 41
0.75
  0
TEXT
  5
12EDB8
  8
SLIM
 10
3029.2857142857151
 20
-2952.50001604727
 30
0.0
 40
40.0
  1
140
 41
0.75
  0
TEXT
  5
12EDB9
  8
SLIM
 10
2769.2857142857151
 20
-2952.50001604727
 30
0.0
 40
40.0
  1
140
 41
0.75
  0
TEXT
  5
12EDBA
  8
SLIM
 10
2899.2857142857151
 20
-2952.50001604727
 30
0.0
 40
40.0
  1
140
 41
0.75
  0
TEXT
  5
12EDBB
  8
SLIM
 10
3170.7142857142858
 20
-2882.50001604727
 30
0.0
 40
40.0
  1
72
 41
0.75
  0
TEXT
  5
12EDBC
  8
SLIM
 10
3041.4285714285711
 20
-2882.50001604727
 30
0.0
 40
40.0
  1
59
 41
0.75
  0
TEXT
  5
12EDBD
  8
SLIM
 10
2780.0
 20
-2882.50001604727
 30
0.0
 40
40.0
  1
44
 41
0.75
  0
TEXT
  5
12EDBE
  8
SLIM
 10
2910.7142857142858
 20
-2882.50001604727
 30
0.0
 40
40.0
  1
52
 41
0.75
  0
TEXT
  5
12EDBF
  8
SLIM
 10
2891.0
 20
-2687.50001604727
 30
0.0
 40
40.0
  1
横枝管サイズ
 41
0.75
  0
TEXT
  5
12EDC0
  8
SLIM
 10
3136.2857142857151
 20
-2742.50001604727
 30
0.0
 40
30.0
  1
100（4）
 41
0.75
  0
TEXT
  5
12EDC1
  8
SLIM
 10
3014.857142857144
 20
-2742.50001604727
 30
0.0
 40
30.0
  1
75（3）
 41
0.75
  0
TEXT
  5
12EDC2
  8
SLIM
 10
2884.8571428571431
 20
-2742.50001604727
 30
0.0
 40
30.0
  1
65（2）
 41
0.75
  0
TEXT
  5
12EDC3
  8
SLIM
 10
2757.0
 20
-2742.50001604727
 30
0.0
 40
30.0
  1
50（1）
 41
0.75
  0
TEXT
  5
12EDC4
  8
SLIM
 10
3159.2857142857151
 20
-2812.50001604727
 30
0.0
 40
40.0
  1
150
 41
0.75
  0
TEXT
  5
12EDC5
  8
SLIM
 10
3028.571428571428
 20
-2812.50001604727
 30
0.0
 40
40.0
  1
124
 41
0.75
  0
TEXT
  5
12EDC6
  8
SLIM
 10
2780.0
 20
-2812.50001604727
 30
0.0
 40
40.0
  1
94
 41
0.75
  0
TEXT
  5
12EDC7
  8
SLIM
 10
2902.1428571428569
 20
-2812.50001604727
 30
0.0
 40
40.0
  1
110
 41
0.75
  0
TEXT
  5
12EDC8
  8
SLIM
 10
1849.9999999999991
 20
-2712.5
 30
0.0
 40
75.0
  1
枝管サイズ毎の形状
 41
0.75
  0
LINE
  5
12EDC9
  8
OBJECT
 10
5150.0
 20
-3432.9999999999968
 30
0.0
 11
5143.0
 21
-3432.9999999999968
 31
0.0
1001
ACDBBLOCKREPETAG
1070
     1
1071
       64
1005
12EDC9
  0
LINE
  5
12EDCA
  8
OBJECT
 10
5143.0
 20
-3432.9999999999968
 30
0.0
 11
5143.0
 21
-3579.9999999999968
 31
0.0
1001
ACDBBLOCKREPETAG
1070
     1
1071
       65
1005
12EDCA
  0
LINE
  5
12EDCB
  8
OBJECT
 10
5101.5
 20
-3435.9999999999968
 30
0.0
 11
5101.5
 21
-3579.9999999999968
 31
0.0
1001
ACDBBLOCKREPETAG
1070
     1
1071
       66
1005
12EDCB
  0
LINE
  5
12EDCC
  8
OBJECT
 10
5090.0
 20
-3442.4999999999968
 30
0.0
 11
5090.0
 21
-3573.4999999999968
 31
0.0
1001
ACDBBLOCKREPETAG
1070
     1
1071
       67
1005
12EDCC
  0
LINE
  5
12EDCD
  8
OBJECT
 10
5086.0
 20
-3514.5000000000041
 30
0.0
 11
5086.0
 21
-3579.9999999999968
 31
0.0
1001
ACDBBLOCKREPETAG
1070
     1
1071
       68
1005
12EDCD
  0
LINE
  5
12EDCE
  8
OBJECT
 10
5150.0
 20
-3579.9999999999968
 30
0.0
 11
5150.0
 21
-3432.9999999999968
 31
0.0
1001
ACDBBLOCKREPETAG
1070
     1
1071
       69
1005
12EDCE
  0
LINE
  5
12EDCF
  8
CENTER
 10
5165.0
 20
-3507.9999999999968
 30
0.0
 11
5070.4144144144157
 21
-3507.9999999999968
 31
0.0
1001
ACDBBLOCKREPETAG
1070
     1
1071
       70
1005
12EDCF
  0
LINE
  5
12EDD0
  8
OBJECT
 10
5083.0000000000045
 20
-3582.9999999999968
 30
0.0
 11
5080.0
 21
-3582.9999999999968
 31
0.0
1001
ACDBBLOCKREPETAG
1070
     1
1071
       71
1005
12EDD0
  0
ARC
  5
12EDD1
  8
OBJECT
 10
5091.8815171830656
 20
-3581.4555591801418
 30
0.0
 40
6.0
 50
60.52411099686767
 51
170.6927439126847
1001
ACDBBLOCKREPETAG
1070
     1
1071
       72
1005
12EDD1
  0
ARC
  5
12EDD2
  8
OBJECT
 10
5083.0
 20
-3579.9999999999968
 30
0.0
 40
3.0
 50
270.0
 51
350.69274391268482
1001
ACDBBLOCKREPETAG
1070
     1
1071
       73
1005
12EDD2
  0
LINE
  5
12EDD3
  8
OBJECT
 10
5081.0
 20
-3458.9999999999968
 30
0.0
 11
5080.0
 21
-3458.9999999999968
 31
0.0
1001
ACDBBLOCKREPETAG
1070
     1
1071
       74
1005
12EDD3
  0
LINE
  5
12EDD4
  8
OBJECT
 10
5150.0
 20
-3579.9999999999968
 30
0.0
 11
5101.5
 21
-3579.9999999999968
 31
0.0
1001
ACDBBLOCKREPETAG
1070
     1
1071
       75
1005
12EDD4
  0
LINE
  5
12EDD5
  8
OBJECT
 10
5101.5
 20
-3435.9999999999968
 30
0.0
 11
5090.0
 21
-3442.4999999999968
 31
0.0
1001
ACDBBLOCKREPETAG
1070
     1
1071
       76
1005
12EDD5
  0
LINE
  5
12EDD6
  8
OBJECT
 10
5143.0
 20
-3435.9999999999968
 30
0.0
 11
5101.5
 21
-3435.9999999999968
 31
0.0
1001
ACDBBLOCKREPETAG
1070
     1
1071
       77
1005
12EDD6
  0
LINE
  5
12EDD7
  8
OBJECT
 10
5086.0
 20
-3514.5000000000041
 30
0.0
 11
5081.0
 21
-3458.9999999999968
 31
0.0
1001
ACDBBLOCKREPETAG
1070
     1
1071
       78
1005
12EDD7
  0
LINE
  5
12EDD8
  8
OBJECT
 10
5090.0
 20
-3442.4999999999968
 30
0.0
 11
5081.0
 21
-3458.9999999999968
 31
0.0
1001
ACDBBLOCKREPETAG
1070
     1
1071
       79
1005
12EDD8
  0
LINE
  5
12EDD9
  8
OBJECT
 10
5101.5
 20
-3579.9999999999968
 30
0.0
 11
5094.8338607230708
 21
-3576.232182147819
 31
0.0
1001
ACDBBLOCKREPETAG
1070
     1
1071
       80
1005
12EDD9
  0
LINE
  5
12EDDA
  8
HIDDEN
 10
5098.0
 20
-3564.9999999999968
 30
0.0
 11
5098.0
 21
-3450.9999999999968
 31
0.0
1001
ACDBBLOCKREPETAG
1070
     1
1071
       81
1005
12EDDA
  0
LINE
  5
12EDDB
  8
OBJECT
 10
5150.0
 20
-3099.9999999999959
 30
0.0
 11
5143.0
 21
-3099.9999999999959
 31
0.0
1001
ACDBBLOCKREPETAG
1070
     1
1071
       67
1005
12EDDB
  0
LINE
  5
12EDDC
  8
OBJECT
 10
5143.0
 20
-3099.9999999999959
 30
0.0
 11
5143.0
 21
-3249.9999999999959
 31
0.0
1001
ACDBBLOCKREPETAG
1070
     1
1071
       68
1005
12EDDC
  0
LINE
  5
12EDDD
  8
OBJECT
 10
5101.5
 20
-3102.9999999999959
 30
0.0
 11
5101.5
 21
-3246.9999999999959
 31
0.0
1001
ACDBBLOCKREPETAG
1070
     1
1071
       69
1005
12EDDD
  0
LINE
  5
12EDDE
  8
OBJECT
 10
5090.0
 20
-3109.4999999999959
 30
0.0
 11
5090.0
 21
-3240.4999999999959
 31
0.0
1001
ACDBBLOCKREPETAG
1070
     1
1071
       70
1005
12EDDE
  0
LINE
  5
12EDDF
  8
OBJECT
 10
5143.0
 20
-3249.9999999999959
 30
0.0
 11
5150.0
 21
-3249.9999999999959
 31
0.0
1001
ACDBBLOCKREPETAG
1070
     1
1071
       71
1005
12EDDF
  0
LINE
  5
12EDE0
  8
OBJECT
 10
5150.0
 20
-3249.9999999999959
 30
0.0
 11
5150.0
 21
-3099.9999999999959
 31
0.0
1001
ACDBBLOCKREPETAG
1070
     1
1071
       72
1005
12EDE0
  0
LINE
  5
12EDE1
  8
HIDDEN
 10
5098.0
 20
-3231.9999999999959
 30
0.0
 11
5098.0
 21
-3117.9999999999959
 31
0.0
1001
ACDBBLOCKREPETAG
1070
     1
1071
       73
1005
12EDE1
  0
LINE
  5
12EDE2
  8
CENTER
 10
5165.0
 20
-3174.9999999999959
 30
0.0
 11
5080.0
 21
-3174.9999999999959
 31
0.0
1001
ACDBBLOCKREPETAG
1070
     1
1071
       74
1005
12EDE2
  0
LINE
  5
12EDE3
  8
OBJECT
 10
5086.0
 20
-3236.9999999999959
 30
0.0
 11
5080.0
 21
-3236.9999999999959
 31
0.0
1001
ACDBBLOCKREPETAG
1070
     1
1071
       75
1005
12EDE3
  0
LINE
  5
12EDE4
  8
OBJECT
 10
5143.0
 20
-3246.9999999999959
 30
0.0
 11
5101.5
 21
-3246.9999999999959
 31
0.0
1001
ACDBBLOCKREPETAG
1070
     1
1071
       76
1005
12EDE4
  0
LINE
  5
12EDE5
  8
OBJECT
 10
5101.5
 20
-3246.9999999999959
 30
0.0
 11
5090.0
 21
-3240.4999999999959
 31
0.0
1001
ACDBBLOCKREPETAG
1070
     1
1071
       77
1005
12EDE5
  0
LINE
  5
12EDE6
  8
OBJECT
 10
5090.0
 20
-3240.4999999999959
 30
0.0
 11
5086.0
 21
-3236.9999999999959
 31
0.0
1001
ACDBBLOCKREPETAG
1070
     1
1071
       78
1005
12EDE6
  0
LINE
  5
12EDE7
  8
OBJECT
 10
5101.5
 20
-3102.9999999999959
 30
0.0
 11
5090.0
 21
-3109.4999999999959
 31
0.0
1001
ACDBBLOCKREPETAG
1070
     1
1071
       79
1005
12EDE7
  0
LINE
  5
12EDE8
  8
OBJECT
 10
5090.0
 20
-3109.4999999999959
 30
0.0
 11
5086.0
 21
-3112.9999999999959
 31
0.0
1001
ACDBBLOCKREPETAG
1070
     1
1071
       80
1005
12EDE8
  0
ARC
  5
12EDE9
  8
OBJECT
 10
5467.9000000000005
 20
-3174.9999999999959
 30
0.0
 40
386.89999999999998
 50
170.77870136260421
 51
189.22129863739571
1001
ACDBBLOCKREPETAG
1070
     1
1071
       81
1005
12EDE9
  0
LINE
  5
12EDEA
  8
OBJECT
 10
5086.0
 20
-3112.9999999999959
 30
0.0
 11
5080.0
 21
-3112.9999999999959
 31
0.0
1001
ACDBBLOCKREPETAG
1070
     1
1071
       82
1005
12EDEA
  0
LINE
  5
12EDEB
  8
OBJECT
 10
5143.0
 20
-3102.9999999999959
 30
0.0
 11
5101.5
 21
-3102.9999999999959
 31
0.0
1001
ACDBBLOCKREPETAG
1070
     1
1071
       83
1005
12EDEB
  0
TEXT
  5
12EDEC
  8
SLIM
 10
4884.25
 20
-3697.4999999999959
 30
0.0
 40
35.0
  1
通常枝100（4）
 41
0.75
  0
LINE
  5
12EDED
  8
CENTER
 10
4477.0
 20
-3520.9999999999968
 30
0.0
 11
4323.0
 21
-3520.9999999999968
 31
0.0
1001
ACDBBLOCKREPETAG
1070
     1
1071
       17
1005
12EDED
  0
CIRCLE
  5
12EDEE
  8
OBJECT
 10
4400.0
 20
-3520.9999999999968
 30
0.0
 40
41.5
1001
ACDBBLOCKREPETAG
1070
     1
1071
       19
1005
12EDEE
  0
CIRCLE
  5
12EDEF
  8
OBJECT
 10
4400.0
 20
-3520.9999999999968
 30
0.0
 40
54.0
1001
ACDBBLOCKREPETAG
1070
     1
1071
       20
1005
12EDEF
  0
ARC
  5
12EDF0
  8
OBJECT
 10
4400.0
 20
-3520.9999999999968
 30
0.0
 40
62.0
 50
287.89655112921122
 51
252.1034488707887
1001
ACDBBLOCKREPETAG
1070
     1
1071
       21
1005
12EDF0
  0
LINE
  5
12EDF1
  8
OBJECT
 10
4380.947441116743
 20
-3579.9999999999968
 30
0.0
 11
4419.052558883257
 21
-3579.9999999999968
 31
0.0
1001
ACDBBLOCKREPETAG
1070
     1
1071
       22
1005
12EDF1
  0
LINE
  5
12EDF2
  8
OBJECT
 10
4133.0
 20
-3458.9999999999968
 30
0.0
 11
4140.0
 21
-3458.9999999999968
 31
0.0
1001
ACDBBLOCKREPETAG
1070
     1
1071
       45
1005
12EDF2
  0
LINE
  5
12EDF3
  8
OBJECT
 10
4140.0
 20
-3458.9999999999968
 30
0.0
 11
4140.0
 21
-3579.9999999999968
 31
0.0
1001
ACDBBLOCKREPETAG
1070
     1
1071
       46
1005
12EDF3
  0
LINE
  5
12EDF4
  8
OBJECT
 10
4133.0
 20
-3579.9999999999968
 30
0.0
 11
4133.0
 21
-3458.9999999999968
 31
0.0
1001
ACDBBLOCKREPETAG
1070
     1
1071
       47
1005
12EDF4
  0
LINE
  5
12EDF5
  8
CENTER
 10
4155.0
 20
-3520.9999999999968
 30
0.0
 11
4071.0
 21
-3520.9999999999968
 31
0.0
1001
ACDBBLOCKREPETAG
1070
     1
1071
       48
1005
12EDF5
  0
LINE
  5
12EDF6
  8
OBJECT
 10
4133.0
 20
-3461.9999999999968
 30
0.0
 11
4097.0
 21
-3461.9999999999968
 31
0.0
1001
ACDBBLOCKREPETAG
1070
     1
1071
       49
1005
12EDF6
  0
LINE
  5
12EDF7
  8
OBJECT
 10
4097.0
 20
-3461.9999999999968
 30
0.0
 11
4097.0
 21
-3579.9999999999968
 31
0.0
1001
ACDBBLOCKREPETAG
1070
     1
1071
       50
1005
12EDF7
  0
LINE
  5
12EDF8
  8
OBJECT
 10
4097.0
 20
-3579.9999999999968
 30
0.0
 11
4140.0
 21
-3579.9999999999968
 31
0.0
1001
ACDBBLOCKREPETAG
1070
     1
1071
       51
1005
12EDF8
  0
LINE
  5
12EDF9
  8
OBJECT
 10
4093.0
 20
-3466.4999999999968
 30
0.0
 11
4086.0
 21
-3466.4999999999968
 31
0.0
1001
ACDBBLOCKREPETAG
1070
     1
1071
       52
1005
12EDF9
  0
LINE
  5
12EDFA
  8
OBJECT
 10
4086.0
 20
-3575.4999999999968
 30
0.0
 11
4093.0
 21
-3575.4999999999968
 31
0.0
1001
ACDBBLOCKREPETAG
1070
     1
1071
       53
1005
12EDFA
  0
LINE
  5
12EDFB
  8
OBJECT
 10
4093.0
 20
-3575.4999999999968
 30
0.0
 11
4093.0
 21
-3466.4999999999968
 31
0.0
1001
ACDBBLOCKREPETAG
1070
     1
1071
       54
1005
12EDFB
  0
LINE
  5
12EDFC
  8
OBJECT
 10
4097.0
 20
-3461.9999999999968
 30
0.0
 11
4093.0
 21
-3466.4999999999968
 31
0.0
1001
ACDBBLOCKREPETAG
1070
     1
1071
       55
1005
12EDFC
  0
LINE
  5
12EDFD
  8
OBJECT
 10
4097.0
 20
-3579.9999999999968
 30
0.0
 11
4093.0
 21
-3575.4999999999968
 31
0.0
1001
ACDBBLOCKREPETAG
1070
     1
1071
       56
1005
12EDFD
  0
LINE
  5
12EDFE
  8
OBJECT
 10
4083.0
 20
-3458.9999999999968
 30
0.0
 11
4080.0
 21
-3458.9999999999968
 31
0.0
1001
ACDBBLOCKREPETAG
1070
     1
1071
       57
1005
12EDFE
  0
ARC
  5
12EDFF
  8
OBJECT
 10
4083.0
 20
-3461.9999999999968
 30
0.0
 40
3.0
 50
0.0
 51
90.0
1001
ACDBBLOCKREPETAG
1070
     1
1071
       58
1005
12EDFF
  0
LINE
  5
12EE00
  8
OBJECT
 10
4080.0
 20
-3582.9999999999968
 30
0.0
 11
4083.0
 21
-3582.9999999999968
 31
0.0
1001
ACDBBLOCKREPETAG
1070
     1
1071
       59
1005
12EE00
  0
ARC
  5
12EE01
  8
OBJECT
 10
4083.0
 20
-3579.9999999999968
 30
0.0
 40
3.0
 50
270.0
 51
0.0
1001
ACDBBLOCKREPETAG
1070
     1
1071
       60
1005
12EE01
  0
LINE
  5
12EE02
  8
OBJECT
 10
4086.0
 20
-3579.9999999999968
 30
0.0
 11
4086.0
 21
-3461.9999999999968
 31
0.0
1001
ACDBBLOCKREPETAG
1070
     1
1071
       61
1005
12EE02
  0
LINE
  5
12EE03
  8
HIDDEN
 10
4088.0
 20
-3476.4999999999968
 30
0.0
 11
4088.0
 21
-3565.4999999999968
 31
0.0
1001
ACDBBLOCKREPETAG
1070
     1
1071
       63
1005
12EE03
  0
LINE
  5
12EE04
  8
OBJECT
 10
4133.0
 20
-3112.9999999999959
 30
0.0
 11
4140.0
 21
-3112.9999999999959
 31
0.0
1001
ACDBBLOCKREPETAG
1070
     1
1071
       47
1005
12EE04
  0
LINE
  5
12EE05
  8
OBJECT
 10
4140.0
 20
-3112.9999999999959
 30
0.0
 11
4140.0
 21
-3236.9999999999959
 31
0.0
1001
ACDBBLOCKREPETAG
1070
     1
1071
       48
1005
12EE05
  0
LINE
  5
12EE06
  8
OBJECT
 10
4140.0
 20
-3236.9999999999959
 30
0.0
 11
4133.0
 21
-3236.9999999999959
 31
0.0
1001
ACDBBLOCKREPETAG
1070
     1
1071
       49
1005
12EE06
  0
LINE
  5
12EE07
  8
OBJECT
 10
4133.0
 20
-3236.9999999999959
 30
0.0
 11
4133.0
 21
-3112.9999999999959
 31
0.0
1001
ACDBBLOCKREPETAG
1070
     1
1071
       50
1005
12EE07
  0
LINE
  5
12EE08
  8
CENTER
 10
4155.0
 20
-3174.9999999999959
 30
0.0
 11
4080.0
 21
-3174.9999999999959
 31
0.0
1001
ACDBBLOCKREPETAG
1070
     1
1071
       51
1005
12EE08
  0
LINE
  5
12EE09
  8
OBJECT
 10
4133.0
 20
-3115.9999999999959
 30
0.0
 11
4097.0
 21
-3115.9999999999959
 31
0.0
1001
ACDBBLOCKREPETAG
1070
     1
1071
       52
1005
12EE09
  0
LINE
  5
12EE0A
  8
OBJECT
 10
4097.0
 20
-3115.9999999999959
 30
0.0
 11
4097.0
 21
-3233.9999999999959
 31
0.0
1001
ACDBBLOCKREPETAG
1070
     1
1071
       53
1005
12EE0A
  0
LINE
  5
12EE0B
  8
OBJECT
 10
4097.0
 20
-3233.9999999999959
 30
0.0
 11
4133.0
 21
-3233.9999999999959
 31
0.0
1001
ACDBBLOCKREPETAG
1070
     1
1071
       54
1005
12EE0B
  0
LINE
  5
12EE0C
  8
OBJECT
 10
4093.0
 20
-3120.4999999999959
 30
0.0
 11
4086.0
 21
-3120.4999999999959
 31
0.0
1001
ACDBBLOCKREPETAG
1070
     1
1071
       55
1005
12EE0C
  0
LINE
  5
12EE0D
  8
OBJECT
 10
4086.0
 20
-3229.4999999999959
 30
0.0
 11
4093.0
 21
-3229.4999999999959
 31
0.0
1001
ACDBBLOCKREPETAG
1070
     1
1071
       56
1005
12EE0D
  0
LINE
  5
12EE0E
  8
OBJECT
 10
4093.0
 20
-3229.4999999999959
 30
0.0
 11
4093.0
 21
-3120.4999999999959
 31
0.0
1001
ACDBBLOCKREPETAG
1070
     1
1071
       57
1005
12EE0E
  0
LINE
  5
12EE0F
  8
OBJECT
 10
4097.0
 20
-3115.9999999999959
 30
0.0
 11
4093.0
 21
-3120.4999999999959
 31
0.0
1001
ACDBBLOCKREPETAG
1070
     1
1071
       58
1005
12EE0F
  0
LINE
  5
12EE10
  8
OBJECT
 10
4097.0
 20
-3233.9999999999959
 30
0.0
 11
4093.0
 21
-3229.4999999999959
 31
0.0
1001
ACDBBLOCKREPETAG
1070
     1
1071
       59
1005
12EE10
  0
LINE
  5
12EE11
  8
OBJECT
 10
4083.0
 20
-3112.9999999999959
 30
0.0
 11
4080.0
 21
-3112.9999999999959
 31
0.0
1001
ACDBBLOCKREPETAG
1070
     1
1071
       60
1005
12EE11
  0
ARC
  5
12EE12
  8
OBJECT
 10
4083.0
 20
-3115.9999999999959
 30
0.0
 40
3.0
 50
0.0
 51
90.0
1001
ACDBBLOCKREPETAG
1070
     1
1071
       61
1005
12EE12
  0
LINE
  5
12EE13
  8
OBJECT
 10
4080.0
 20
-3236.9999999999959
 30
0.0
 11
4083.0
 21
-3236.9999999999959
 31
0.0
1001
ACDBBLOCKREPETAG
1070
     1
1071
       62
1005
12EE13
  0
ARC
  5
12EE14
  8
OBJECT
 10
4083.0
 20
-3233.9999999999959
 30
0.0
 40
3.0
 50
270.0
 51
0.0
1001
ACDBBLOCKREPETAG
1070
     1
1071
       63
1005
12EE14
  0
LINE
  5
12EE15
  8
OBJECT
 10
4086.0
 20
-3233.9999999999959
 30
0.0
 11
4086.0
 21
-3115.9999999999959
 31
0.0
1001
ACDBBLOCKREPETAG
1070
     1
1071
       64
1005
12EE15
  0
LINE
  5
12EE16
  8
HIDDEN
 10
4088.0
 20
-3130.4999999999959
 30
0.0
 11
4088.0
 21
-3219.4999999999959
 31
0.0
1001
ACDBBLOCKREPETAG
1070
     1
1071
       65
1005
12EE16
  0
TEXT
  5
12EE17
  8
SLIM
 10
3894.25
 20
-3697.4999999999959
 30
0.0
 40
35.0
  1
通常枝75（3）
 41
0.75
  0
CIRCLE
  5
12EE18
  8
OBJECT
 10
3400.0
 20
-3527.9999999999968
 30
0.0
 40
35.5
1001
ACDBBLOCKREPETAG
1070
     1
1071
       10
1005
12EE18
  0
CIRCLE
  5
12EE19
  8
OBJECT
 10
3400.0
 20
-3520.9999999999968
 30
0.0
 40
62.0
1001
ACDBBLOCKREPETAG
1070
     1
1071
       11
1005
12EE19
  0
LINE
  5
12EE1A
  8
CENTER
 10
3330.0
 20
-3527.9999999999968
 30
0.0
 11
3470.0
 21
-3527.9999999999968
 31
0.0
1001
ACDBBLOCKREPETAG
1070
     1
1071
       12
1005
12EE1A
  0
CIRCLE
  5
12EE1B
  8
OBJECT
 10
3400.0
 20
-3527.9999999999968
 30
0.0
 40
47.0
1001
ACDBBLOCKREPETAG
1070
     1
1071
       14
1005
12EE1B
  0
ARC
  5
12EE1C
  8
OBJECT
 10
3400.0
 20
-3527.9999999999968
 30
0.0
 40
55.0
 50
289.01126526011359
 51
250.98873473988641
1001
ACDBBLOCKREPETAG
1070
     1
1071
       15
1005
12EE1C
  0
LINE
  5
12EE1D
  8
OBJECT
 10
3382.0835271328328
 20
-3579.9999999999968
 30
0.0
 11
3417.9164728671681
 21
-3579.9999999999968
 31
0.0
1001
ACDBBLOCKREPETAG
1070
     1
1071
       16
1005
12EE1D
  0
LINE
  5
12EE1E
  8
OBJECT
 10
3133.0
 20
-3472.9999999999968
 30
0.0
 11
3140.0
 21
-3472.9999999999968
 31
0.0
1001
ACDBBLOCKREPETAG
1070
     1
1071
       26
1005
12EE1E
  0
LINE
  5
12EE1F
  8
OBJECT
 10
3140.0
 20
-3472.9999999999968
 30
0.0
 11
3140.0
 21
-3579.9999999999968
 31
0.0
1001
ACDBBLOCKREPETAG
1070
     1
1071
       27
1005
12EE1F
  0
LINE
  5
12EE20
  8
OBJECT
 10
3133.0
 20
-3579.9999999999968
 30
0.0
 11
3133.0
 21
-3472.9999999999968
 31
0.0
1001
ACDBBLOCKREPETAG
1070
     1
1071
       28
1005
12EE20
  0
LINE
  5
12EE21
  8
CENTER
 10
3155.0
 20
-3527.9999999999968
 30
0.0
 11
3071.0
 21
-3527.9999999999968
 31
0.0
1001
ACDBBLOCKREPETAG
1070
     1
1071
       29
1005
12EE21
  0
LINE
  5
12EE22
  8
OBJECT
 10
3133.0
 20
-3475.9999999999968
 30
0.0
 11
3097.0
 21
-3475.9999999999968
 31
0.0
1001
ACDBBLOCKREPETAG
1070
     1
1071
       30
1005
12EE22
  0
LINE
  5
12EE23
  8
OBJECT
 10
3097.0
 20
-3475.9999999999968
 30
0.0
 11
3097.0
 21
-3579.9999999999968
 31
0.0
1001
ACDBBLOCKREPETAG
1070
     1
1071
       31
1005
12EE23
  0
LINE
  5
12EE24
  8
OBJECT
 10
3097.0
 20
-3579.9999999999968
 30
0.0
 11
3140.0
 21
-3579.9999999999968
 31
0.0
1001
ACDBBLOCKREPETAG
1070
     1
1071
       32
1005
12EE24
  0
LINE
  5
12EE25
  8
OBJECT
 10
3093.0
 20
-3480.4999999999968
 30
0.0
 11
3086.0
 21
-3480.4999999999968
 31
0.0
1001
ACDBBLOCKREPETAG
1070
     1
1071
       33
1005
12EE25
  0
LINE
  5
12EE26
  8
OBJECT
 10
3086.0
 20
-3575.4999999999968
 30
0.0
 11
3093.0
 21
-3575.4999999999968
 31
0.0
1001
ACDBBLOCKREPETAG
1070
     1
1071
       34
1005
12EE26
  0
LINE
  5
12EE27
  8
OBJECT
 10
3093.0
 20
-3575.4999999999968
 30
0.0
 11
3093.0
 21
-3480.4999999999968
 31
0.0
1001
ACDBBLOCKREPETAG
1070
     1
1071
       35
1005
12EE27
  0
LINE
  5
12EE28
  8
OBJECT
 10
3097.0
 20
-3475.9999999999968
 30
0.0
 11
3093.0
 21
-3480.4999999999968
 31
0.0
1001
ACDBBLOCKREPETAG
1070
     1
1071
       36
1005
12EE28
  0
LINE
  5
12EE29
  8
OBJECT
 10
3097.0
 20
-3579.9999999999968
 30
0.0
 11
3093.0
 21
-3575.4999999999968
 31
0.0
1001
ACDBBLOCKREPETAG
1070
     1
1071
       37
1005
12EE29
  0
LINE
  5
12EE2A
  8
OBJECT
 10
3083.0
 20
-3458.9999999999968
 30
0.0
 11
3080.0
 21
-3458.9999999999968
 31
0.0
1001
ACDBBLOCKREPETAG
1070
     1
1071
       38
1005
12EE2A
  0
ARC
  5
12EE2B
  8
OBJECT
 10
3083.0
 20
-3461.9999999999968
 30
0.0
 40
3.0
 50
0.0
 51
90.0
1001
ACDBBLOCKREPETAG
1070
     1
1071
       39
1005
12EE2B
  0
LINE
  5
12EE2C
  8
OBJECT
 10
3080.0
 20
-3582.9999999999968
 30
0.0
 11
3083.0
 21
-3582.9999999999968
 31
0.0
1001
ACDBBLOCKREPETAG
1070
     1
1071
       40
1005
12EE2C
  0
ARC
  5
12EE2D
  8
OBJECT
 10
3083.0
 20
-3579.9999999999968
 30
0.0
 40
3.0
 50
270.0
 51
0.0
1001
ACDBBLOCKREPETAG
1070
     1
1071
       41
1005
12EE2D
  0
LINE
  5
12EE2E
  8
OBJECT
 10
3086.0
 20
-3579.9999999999968
 30
0.0
 11
3086.0
 21
-3461.9999999999968
 31
0.0
1001
ACDBBLOCKREPETAG
1070
     1
1071
       42
1005
12EE2E
  0
LINE
  5
12EE2F
  8
HIDDEN
 10
3088.0
 20
-3489.9999999999968
 30
0.0
 11
3088.0
 21
-3565.9999999999968
 31
0.0
1001
ACDBBLOCKREPETAG
1070
     1
1071
       43
1005
12EE2F
  0
LINE
  5
12EE30
  8
OBJECT
 10
3133.0
 20
-3119.9999999999959
 30
0.0
 11
3140.0
 21
-3119.9999999999959
 31
0.0
1001
ACDBBLOCKREPETAG
1070
     1
1071
       27
1005
12EE30
  0
LINE
  5
12EE31
  8
OBJECT
 10
3140.0
 20
-3119.9999999999959
 30
0.0
 11
3140.0
 21
-3229.9999999999959
 31
0.0
1001
ACDBBLOCKREPETAG
1070
     1
1071
       28
1005
12EE31
  0
LINE
  5
12EE32
  8
OBJECT
 10
3140.0
 20
-3229.9999999999959
 30
0.0
 11
3133.0
 21
-3229.9999999999959
 31
0.0
1001
ACDBBLOCKREPETAG
1070
     1
1071
       29
1005
12EE32
  0
LINE
  5
12EE33
  8
OBJECT
 10
3133.0
 20
-3229.9999999999959
 30
0.0
 11
3133.0
 21
-3119.9999999999959
 31
0.0
1001
ACDBBLOCKREPETAG
1070
     1
1071
       30
1005
12EE33
  0
LINE
  5
12EE34
  8
CENTER
 10
3155.0
 20
-3174.9999999999959
 30
0.0
 11
3080.0
 21
-3174.9999999999959
 31
0.0
1001
ACDBBLOCKREPETAG
1070
     1
1071
       31
1005
12EE34
  0
LINE
  5
12EE35
  8
OBJECT
 10
3133.0
 20
-3122.9999999999959
 30
0.0
 11
3097.0
 21
-3122.9999999999959
 31
0.0
1001
ACDBBLOCKREPETAG
1070
     1
1071
       32
1005
12EE35
  0
LINE
  5
12EE36
  8
OBJECT
 10
3097.0
 20
-3122.9999999999959
 30
0.0
 11
3097.0
 21
-3226.9999999999959
 31
0.0
1001
ACDBBLOCKREPETAG
1070
     1
1071
       33
1005
12EE36
  0
LINE
  5
12EE37
  8
OBJECT
 10
3097.0
 20
-3226.9999999999959
 30
0.0
 11
3133.0
 21
-3226.9999999999959
 31
0.0
1001
ACDBBLOCKREPETAG
1070
     1
1071
       34
1005
12EE37
  0
LINE
  5
12EE38
  8
OBJECT
 10
3093.0
 20
-3127.4999999999959
 30
0.0
 11
3086.0
 21
-3127.4999999999959
 31
0.0
1001
ACDBBLOCKREPETAG
1070
     1
1071
       35
1005
12EE38
  0
LINE
  5
12EE39
  8
OBJECT
 10
3086.0
 20
-3222.4999999999959
 30
0.0
 11
3093.0
 21
-3222.4999999999959
 31
0.0
1001
ACDBBLOCKREPETAG
1070
     1
1071
       36
1005
12EE39
  0
LINE
  5
12EE3A
  8
OBJECT
 10
3093.0
 20
-3222.4999999999959
 30
0.0
 11
3093.0
 21
-3127.4999999999959
 31
0.0
1001
ACDBBLOCKREPETAG
1070
     1
1071
       37
1005
12EE3A
  0
LINE
  5
12EE3B
  8
OBJECT
 10
3097.0
 20
-3122.9999999999959
 30
0.0
 11
3093.0
 21
-3127.4999999999959
 31
0.0
1001
ACDBBLOCKREPETAG
1070
     1
1071
       38
1005
12EE3B
  0
LINE
  5
12EE3C
  8
OBJECT
 10
3097.0
 20
-3226.9999999999959
 30
0.0
 11
3093.0
 21
-3222.4999999999959
 31
0.0
1001
ACDBBLOCKREPETAG
1070
     1
1071
       39
1005
12EE3C
  0
LINE
  5
12EE3D
  8
OBJECT
 10
3083.0
 20
-3112.9999999999959
 30
0.0
 11
3080.0
 21
-3112.9999999999959
 31
0.0
1001
ACDBBLOCKREPETAG
1070
     1
1071
       40
1005
12EE3D
  0
ARC
  5
12EE3E
  8
OBJECT
 10
3083.0
 20
-3115.9999999999959
 30
0.0
 40
3.0
 50
0.0
 51
90.0
1001
ACDBBLOCKREPETAG
1070
     1
1071
       41
1005
12EE3E
  0
LINE
  5
12EE3F
  8
OBJECT
 10
3080.0
 20
-3236.9999999999959
 30
0.0
 11
3083.0
 21
-3236.9999999999959
 31
0.0
1001
ACDBBLOCKREPETAG
1070
     1
1071
       42
1005
12EE3F
  0
ARC
  5
12EE40
  8
OBJECT
 10
3083.0
 20
-3233.9999999999959
 30
0.0
 40
3.0
 50
270.0
 51
0.0
1001
ACDBBLOCKREPETAG
1070
     1
1071
       43
1005
12EE40
  0
LINE
  5
12EE41
  8
OBJECT
 10
3086.0
 20
-3233.9999999999959
 30
0.0
 11
3086.0
 21
-3115.9999999999959
 31
0.0
1001
ACDBBLOCKREPETAG
1070
     1
1071
       44
1005
12EE41
  0
LINE
  5
12EE42
  8
HIDDEN
 10
3088.0
 20
-3136.9999999999959
 30
0.0
 11
3088.0
 21
-3212.9999999999959
 31
0.0
1001
ACDBBLOCKREPETAG
1070
     1
1071
       45
1005
12EE42
  0
TEXT
  5
12EE43
  8
SLIM
 10
2894.25
 20
-3697.4999999999959
 30
0.0
 40
35.0
  1
通常枝65（2）
 41
0.75
  0
CIRCLE
  5
12EE44
  8
OBJECT
 10
2400.0
 20
-3520.9999999999968
 30
0.0
 40
62.0
1001
ACDBBLOCKREPETAG
1070
     1
1071
        3
1005
12EE44
  0
LINE
  5
12EE45
  8
CENTER
 10
2338.0
 20
-3535.9999999999968
 30
0.0
 11
2462.0
 21
-3535.9999999999968
 31
0.0
1001
ACDBBLOCKREPETAG
1070
     1
1071
        4
1005
12EE45
  0
CIRCLE
  5
12EE46
  8
OBJECT
 10
2400.0
 20
-3535.9999999999968
 30
0.0
 40
28.0
1001
ACDBBLOCKREPETAG
1070
     1
1071
        6
1005
12EE46
  0
CIRCLE
  5
12EE47
  8
OBJECT
 10
2400.0
 20
-3535.9999999999968
 30
0.0
 40
39.0
1001
ACDBBLOCKREPETAG
1070
     1
1071
        7
1005
12EE47
  0
ARC
  5
12EE48
  8
OBJECT
 10
2400.0
 20
-3535.9999999999968
 30
0.0
 40
47.0
 50
290.58196921144412
 51
249.41803078855591
1001
ACDBBLOCKREPETAG
1070
     1
1071
        8
1005
12EE48
  0
LINE
  5
12EE49
  8
OBJECT
 10
2383.4772883581431
 20
-3579.9999999999968
 30
0.0
 11
2416.5227116418569
 21
-3579.9999999999968
 31
0.0
1001
ACDBBLOCKREPETAG
1070
     1
1071
        9
1005
12EE49
  0
LINE
  5
12EE4A
  8
OBJECT
 10
2133.0
 20
-3488.9999999999968
 30
0.0
 11
2140.0
 21
-3488.9999999999968
 31
0.0
1001
ACDBBLOCKREPETAG
1070
     1
1071
        7
1005
12EE4A
  0
LINE
  5
12EE4B
  8
OBJECT
 10
2140.0
 20
-3488.9999999999968
 30
0.0
 11
2140.0
 21
-3579.9999999999968
 31
0.0
1001
ACDBBLOCKREPETAG
1070
     1
1071
        8
1005
12EE4B
  0
LINE
  5
12EE4C
  8
OBJECT
 10
2133.0
 20
-3579.9999999999968
 30
0.0
 11
2133.0
 21
-3488.9999999999968
 31
0.0
1001
ACDBBLOCKREPETAG
1070
     1
1071
        9
1005
12EE4C
  0
LINE
  5
12EE4D
  8
CENTER
 10
2155.0
 20
-3535.9999999999968
 30
0.0
 11
2071.0
 21
-3535.9999999999968
 31
0.0
1001
ACDBBLOCKREPETAG
1070
     1
1071
       10
1005
12EE4D
  0
LINE
  5
12EE4E
  8
OBJECT
 10
2133.0
 20
-3491.9999999999968
 30
0.0
 11
2097.0
 21
-3491.9999999999968
 31
0.0
1001
ACDBBLOCKREPETAG
1070
     1
1071
       11
1005
12EE4E
  0
LINE
  5
12EE4F
  8
OBJECT
 10
2097.0
 20
-3491.9999999999968
 30
0.0
 11
2097.0
 21
-3579.9999999999968
 31
0.0
1001
ACDBBLOCKREPETAG
1070
     1
1071
       12
1005
12EE4F
  0
LINE
  5
12EE50
  8
OBJECT
 10
2097.0
 20
-3579.9999999999968
 30
0.0
 11
2140.0
 21
-3579.9999999999968
 31
0.0
1001
ACDBBLOCKREPETAG
1070
     1
1071
       13
1005
12EE50
  0
LINE
  5
12EE51
  8
OBJECT
 10
2093.0
 20
-3496.4999999999968
 30
0.0
 11
2086.0
 21
-3496.4999999999968
 31
0.0
1001
ACDBBLOCKREPETAG
1070
     1
1071
       14
1005
12EE51
  0
LINE
  5
12EE52
  8
OBJECT
 10
2086.0
 20
-3575.4999999999968
 30
0.0
 11
2093.0
 21
-3575.4999999999968
 31
0.0
1001
ACDBBLOCKREPETAG
1070
     1
1071
       15
1005
12EE52
  0
LINE
  5
12EE53
  8
OBJECT
 10
2093.0
 20
-3575.4999999999968
 30
0.0
 11
2093.0
 21
-3496.4999999999968
 31
0.0
1001
ACDBBLOCKREPETAG
1070
     1
1071
       16
1005
12EE53
  0
LINE
  5
12EE54
  8
OBJECT
 10
2097.0
 20
-3491.9999999999968
 30
0.0
 11
2093.0
 21
-3496.4999999999968
 31
0.0
1001
ACDBBLOCKREPETAG
1070
     1
1071
       17
1005
12EE54
  0
LINE
  5
12EE55
  8
OBJECT
 10
2097.0
 20
-3579.9999999999968
 30
0.0
 11
2093.0
 21
-3575.4999999999968
 31
0.0
1001
ACDBBLOCKREPETAG
1070
     1
1071
       18
1005
12EE55
  0
LINE
  5
12EE56
  8
OBJECT
 10
2083.0
 20
-3458.9999999999968
 30
0.0
 11
2080.0
 21
-3458.9999999999968
 31
0.0
1001
ACDBBLOCKREPETAG
1070
     1
1071
       19
1005
12EE56
  0
ARC
  5
12EE57
  8
OBJECT
 10
2083.0
 20
-3461.9999999999968
 30
0.0
 40
3.0
 50
0.0
 51
90.0
1001
ACDBBLOCKREPETAG
1070
     1
1071
       20
1005
12EE57
  0
LINE
  5
12EE58
  8
OBJECT
 10
2080.0
 20
-3582.9999999999968
 30
0.0
 11
2083.0
 21
-3582.9999999999968
 31
0.0
1001
ACDBBLOCKREPETAG
1070
     1
1071
       21
1005
12EE58
  0
ARC
  5
12EE59
  8
OBJECT
 10
2083.0
 20
-3579.9999999999968
 30
0.0
 40
3.0
 50
270.0
 51
0.0
1001
ACDBBLOCKREPETAG
1070
     1
1071
       22
1005
12EE59
  0
LINE
  5
12EE5A
  8
OBJECT
 10
2086.0
 20
-3579.9999999999968
 30
0.0
 11
2086.0
 21
-3461.9999999999968
 31
0.0
1001
ACDBBLOCKREPETAG
1070
     1
1071
       23
1005
12EE5A
  0
LINE
  5
12EE5B
  8
HIDDEN
 10
2088.0
 20
-3505.9999999999968
 30
0.0
 11
2088.0
 21
-3565.9999999999968
 31
0.0
1001
ACDBBLOCKREPETAG
1070
     1
1071
       24
1005
12EE5B
  0
LINE
  5
12EE5C
  8
OBJECT
 10
2133.0
 20
-3127.9999999999959
 30
0.0
 11
2140.0
 21
-3127.9999999999959
 31
0.0
1001
ACDBBLOCKREPETAG
1070
     1
1071
        7
1005
12EE5C
  0
LINE
  5
12EE5D
  8
OBJECT
 10
2140.0
 20
-3127.9999999999959
 30
0.0
 11
2140.0
 21
-3221.9999999999959
 31
0.0
1001
ACDBBLOCKREPETAG
1070
     1
1071
        8
1005
12EE5D
  0
LINE
  5
12EE5E
  8
OBJECT
 10
2140.0
 20
-3221.9999999999959
 30
0.0
 11
2133.0
 21
-3221.9999999999959
 31
0.0
1001
ACDBBLOCKREPETAG
1070
     1
1071
        9
1005
12EE5E
  0
LINE
  5
12EE5F
  8
OBJECT
 10
2133.0
 20
-3221.9999999999959
 30
0.0
 11
2133.0
 21
-3127.9999999999959
 31
0.0
1001
ACDBBLOCKREPETAG
1070
     1
1071
       10
1005
12EE5F
  0
LINE
  5
12EE60
  8
CENTER
 10
2155.0
 20
-3174.9999999999959
 30
0.0
 11
2080.0
 21
-3174.9999999999959
 31
0.0
1001
ACDBBLOCKREPETAG
1070
     1
1071
       11
1005
12EE60
  0
LINE
  5
12EE61
  8
OBJECT
 10
2133.0
 20
-3130.9999999999959
 30
0.0
 11
2097.0
 21
-3130.9999999999959
 31
0.0
1001
ACDBBLOCKREPETAG
1070
     1
1071
       12
1005
12EE61
  0
LINE
  5
12EE62
  8
OBJECT
 10
2097.0
 20
-3130.9999999999959
 30
0.0
 11
2097.0
 21
-3218.9999999999959
 31
0.0
1001
ACDBBLOCKREPETAG
1070
     1
1071
       13
1005
12EE62
  0
LINE
  5
12EE63
  8
OBJECT
 10
2097.0
 20
-3218.9999999999959
 30
0.0
 11
2133.0
 21
-3218.9999999999959
 31
0.0
1001
ACDBBLOCKREPETAG
1070
     1
1071
       14
1005
12EE63
  0
LINE
  5
12EE64
  8
OBJECT
 10
2093.0
 20
-3135.4999999999959
 30
0.0
 11
2086.0
 21
-3135.4999999999959
 31
0.0
1001
ACDBBLOCKREPETAG
1070
     1
1071
       15
1005
12EE64
  0
LINE
  5
12EE65
  8
OBJECT
 10
2086.0
 20
-3214.4999999999959
 30
0.0
 11
2093.0
 21
-3214.4999999999959
 31
0.0
1001
ACDBBLOCKREPETAG
1070
     1
1071
       16
1005
12EE65
  0
LINE
  5
12EE66
  8
OBJECT
 10
2093.0
 20
-3214.4999999999959
 30
0.0
 11
2093.0
 21
-3135.4999999999959
 31
0.0
1001
ACDBBLOCKREPETAG
1070
     1
1071
       17
1005
12EE66
  0
LINE
  5
12EE67
  8
OBJECT
 10
2097.0
 20
-3130.9999999999959
 30
0.0
 11
2093.0
 21
-3135.4999999999959
 31
0.0
1001
ACDBBLOCKREPETAG
1070
     1
1071
       18
1005
12EE67
  0
LINE
  5
12EE68
  8
OBJECT
 10
2097.0
 20
-3218.9999999999959
 30
0.0
 11
2093.0
 21
-3214.4999999999959
 31
0.0
1001
ACDBBLOCKREPETAG
1070
     1
1071
       19
1005
12EE68
  0
LINE
  5
12EE69
  8
OBJECT
 10
2083.0
 20
-3112.9999999999959
 30
0.0
 11
2080.0
 21
-3112.9999999999959
 31
0.0
1001
ACDBBLOCKREPETAG
1070
     1
1071
       20
1005
12EE69
  0
ARC
  5
12EE6A
  8
OBJECT
 10
2083.0
 20
-3115.9999999999959
 30
0.0
 40
3.0
 50
0.0
 51
90.0
1001
ACDBBLOCKREPETAG
1070
     1
1071
       21
1005
12EE6A
  0
LINE
  5
12EE6B
  8
OBJECT
 10
2080.0
 20
-3236.9999999999959
 30
0.0
 11
2083.0
 21
-3236.9999999999959
 31
0.0
1001
ACDBBLOCKREPETAG
1070
     1
1071
       22
1005
12EE6B
  0
ARC
  5
12EE6C
  8
OBJECT
 10
2083.0
 20
-3233.9999999999959
 30
0.0
 40
3.0
 50
270.0
 51
0.0
1001
ACDBBLOCKREPETAG
1070
     1
1071
       23
1005
12EE6C
  0
LINE
  5
12EE6D
  8
OBJECT
 10
2086.0
 20
-3233.9999999999959
 30
0.0
 11
2086.0
 21
-3115.9999999999959
 31
0.0
1001
ACDBBLOCKREPETAG
1070
     1
1071
       24
1005
12EE6D
  0
LINE
  5
12EE6E
  8
HIDDEN
 10
2088.0
 20
-3144.9999999999959
 30
0.0
 11
2088.0
 21
-3204.9999999999959
 31
0.0
1001
ACDBBLOCKREPETAG
1070
     1
1071
       25
1005
12EE6E
  0
TEXT
  5
12EE6F
  8
SLIM
 10
1896.75
 20
-3697.4999999999959
 30
0.0
 40
35.0
  1
通常枝50（1）
 41
0.75
  0
LINE
  5
12EE70
  8
OBJECT
 10
3930.0
 20
-1079.999999999997
 30
0.0
 11
4070.0
 21
-1079.999999999997
 31
0.0
1001
ACDBBLOCKREPETAG
1070
     1
1071
        0
1005
12EE70
  0
LINE
  5
12EE71
  8
OBJECT
 10
3930.0
 20
-1079.999999999997
 30
0.0
 11
3930.0
 21
-839.99999999999704
 31
0.0
1001
ACDBBLOCKREPETAG
1070
     1
1071
        1
1005
12EE71
  0
LINE
  5
12EE72
  8
OBJECT
 10
4070.0
 20
-1079.999999999997
 30
0.0
 11
4070.0
 21
-839.99999999999704
 31
0.0
1001
ACDBBLOCKREPETAG
1070
     1
1071
        2
1005
12EE72
  0
LINE
  5
12EE73
  8
OBJECT
 10
3930.0
 20
-839.99999999999704
 30
0.0
 11
4070.0
 21
-839.99999999999704
 31
0.0
1001
ACDBBLOCKREPETAG
1070
     1
1071
        3
1005
12EE73
  0
LINE
  5
12EE74
  8
HIDDEN
 10
3937.5
 20
-839.99999999999704
 30
0.0
 11
3937.5
 21
-1079.999999999997
 31
0.0
1001
ACDBBLOCKREPETAG
1070
     1
1071
        4
1005
12EE74
  0
LINE
  5
12EE75
  8
HIDDEN
 10
4062.5
 20
-839.99999999999704
 30
0.0
 11
4062.5
 21
-1079.999999999997
 31
0.0
1001
ACDBBLOCKREPETAG
1070
     1
1071
        5
1005
12EE75
  0
LINE
  5
12EE76
  8
CENTER
 10
4000.0
 20
-769.99999999999875
 30
0.0
 11
4000.0
 21
-1094.999999999997
 31
0.0
1001
ACDBBLOCKREPETAG
1070
     1
1071
        6
1005
12EE76
  0
LINE
  5
12EE77
  8
OBJECT
 10
3925.0
 20
-769.99999999999875
 30
0.0
 11
3925.0
 21
-799.99999999999693
 31
0.0
1001
ACDBBLOCKREPETAG
1070
     1
1071
        7
1005
12EE77
  0
LINE
  5
12EE78
  8
OBJECT
 10
4075.0000000000032
 20
-769.99999999999875
 30
0.0
 11
4075.0
 21
-799.99999999999693
 31
0.0
1001
ACDBBLOCKREPETAG
1070
     1
1071
        8
1005
12EE78
  0
LINE
  5
12EE79
  8
OBJECT
 10
3925.0
 20
-799.99999999999693
 30
0.0
 11
4075.0
 21
-799.99999999999693
 31
0.0
1001
ACDBBLOCKREPETAG
1070
     1
1071
        9
1005
12EE79
  0
LINE
  5
12EE7A
  8
OBJECT
 10
3925.0
 20
-799.99999999999693
 30
0.0
 11
3930.0
 21
-839.99999999999704
 31
0.0
1001
ACDBBLOCKREPETAG
1070
     1
1071
       10
1005
12EE7A
  0
LINE
  5
12EE7B
  8
OBJECT
 10
4070.0
 20
-839.99999999999704
 30
0.0
 11
4075.0
 21
-799.99999999999693
 31
0.0
1001
ACDBBLOCKREPETAG
1070
     1
1071
       11
1005
12EE7B
  0
LINE
  5
12EE7C
  8
OBJECT
 10
1930.0
 20
-1079.999999999998
 30
0.0
 11
2070.0
 21
-1079.999999999998
 31
0.0
1001
ACDBBLOCKREPETAG
1070
     1
1071
        0
1005
12EE7C
  0
LINE
  5
12EE7D
  8
OBJECT
 10
1930.0
 20
-1079.999999999998
 30
0.0
 11
1930.0
 21
-839.99999999999795
 31
0.0
1001
ACDBBLOCKREPETAG
1070
     1
1071
        1
1005
12EE7D
  0
LINE
  5
12EE7E
  8
OBJECT
 10
2070.0
 20
-1079.999999999998
 30
0.0
 11
2070.0
 21
-839.99999999999795
 31
0.0
1001
ACDBBLOCKREPETAG
1070
     1
1071
        2
1005
12EE7E
  0
LINE
  5
12EE7F
  8
OBJECT
 10
1930.0
 20
-839.99999999999795
 30
0.0
 11
2070.0
 21
-839.99999999999795
 31
0.0
1001
ACDBBLOCKREPETAG
1070
     1
1071
        3
1005
12EE7F
  0
LINE
  5
12EE80
  8
HIDDEN
 10
1937.5
 20
-839.99999999999795
 30
0.0
 11
1937.5
 21
-1079.999999999998
 31
0.0
1001
ACDBBLOCKREPETAG
1070
     1
1071
        4
1005
12EE80
  0
LINE
  5
12EE81
  8
HIDDEN
 10
2062.5
 20
-839.99999999999795
 30
0.0
 11
2062.5
 21
-1079.999999999998
 31
0.0
1001
ACDBBLOCKREPETAG
1070
     1
1071
        5
1005
12EE81
  0
LINE
  5
12EE82
  8
CENTER
 10
2000.0
 20
-769.99999999999955
 30
0.0
 11
2000.0
 21
-1094.999999999997
 31
0.0
1001
ACDBBLOCKREPETAG
1070
     1
1071
        6
1005
12EE82
  0
LINE
  5
12EE83
  8
OBJECT
 10
1925.0
 20
-769.99999999999955
 30
0.0
 11
1925.0
 21
-799.99999999999773
 31
0.0
1001
ACDBBLOCKREPETAG
1070
     1
1071
        7
1005
12EE83
  0
LINE
  5
12EE84
  8
OBJECT
 10
2075.0000000000041
 20
-769.99999999999955
 30
0.0
 11
2075.0
 21
-799.99999999999773
 31
0.0
1001
ACDBBLOCKREPETAG
1070
     1
1071
        8
1005
12EE84
  0
LINE
  5
12EE85
  8
OBJECT
 10
1925.0
 20
-799.99999999999773
 30
0.0
 11
2075.0
 21
-799.99999999999773
 31
0.0
1001
ACDBBLOCKREPETAG
1070
     1
1071
        9
1005
12EE85
  0
LINE
  5
12EE86
  8
OBJECT
 10
1925.0
 20
-799.99999999999773
 30
0.0
 11
1930.0
 21
-839.99999999999795
 31
0.0
1001
ACDBBLOCKREPETAG
1070
     1
1071
       10
1005
12EE86
  0
LINE
  5
12EE87
  8
OBJECT
 10
2070.0
 20
-839.99999999999795
 30
0.0
 11
2075.0
 21
-799.99999999999773
 31
0.0
1001
ACDBBLOCKREPETAG
1070
     1
1071
       11
1005
12EE87
  0
TEXT
  5
12EE88
  8
SLIM
 10
3741.6250000000009
 20
-1347.499999999997
 30
0.0
 40
35.0
  1
片受けスタイル（S）＋シンドカット
 41
0.75
  0
TEXT
  5
12EE89
  8
SLIM
 10
1856.25
 20
-1347.499999999998
 30
0.0
 40
35.0
  1
片受けスタイル（S）
 41
0.75
  0
VIEWPORT
  5
F6BA7
 67
     1
  8
0
 10
145.33033752441401
 20
101.8328354358673
 30
0.0
 40
334.0025019414623
 41
222.19657968139651
 68
     1
 69
     1
1001
ACAD
1000
MVIEW
1002
{
1070
    16
1010
0.0
1020
0.0
1030
0.0
1010
0.0
1020
0.0
1030
1.0
1040
0.0
1040
222.19657968139651
1040
145.33033752441401
1040
101.8328354358673
1040
50.0
1040
0.0
1040
0.0
1070
     0
1070
     0
1070
     1
1070
     1
1070
     0
1070
     0
1070
     0
1070
     0
1040
0.0
1040
0.0
1040
0.0
1040
10.0
1040
10.0
1040
10.0
1040
10.0
1070
     0
1002
{
1002
}
1002
}
  0
VIEWPORT
  5
F6BA9
 67
     1
  8
OBJECT
 10
145.3303314447403
 20
101.8328338861465
 30
0.0
 40
232.5285303115844
 41
162.93253421783439
 68
     2
 69
     2
1001
ACAD
1000
MVIEW
1002
{
1070
    16
1010
0.0
1020
0.0
1030
0.0
1010
0.0
1020
0.0
1030
1.0
1040
0.0
1040
25942.55904403147
1040
2377.604457077377
1040
-7591.5176687056619
1040
50.0
1040
0.0
1040
0.0
1070
     0
1070
   600
1070
     1
1070
     1
1070
     0
1070
     0
1070
     0
1070
     0
1040
0.0
1040
0.0
1040
0.0
1040
1.0
1040
1.0
1040
0.0
1040
0.0
1070
     0
1002
{
1002
}
1002
}
  0
ENDSEC
  0
EOF
