  0
SECTION
  2
HEADER
  9
$ACADVER
  1
AC1009
  9
$INSBASE
 10
0.0
 20
0.0
 30
0.0
  9
$EXTMIN
 10
0.0
 20
-3697.4999999999968
 30
0.0
  9
$EXTMAX
 10
5575.0
 20
607.5
 30
0.0
  9
$LIMMIN
 10
0.0
 20
0.0
  9
$LIMMAX
 10
210.0
 20
297.0
  9
$ORTHOMODE
 70
     0
  9
$REGENMODE
 70
     1
  9
$FILLMODE
 70
     1
  9
$QTEXTMODE
 70
     0
  9
$MIRRTEXT
 70
     0
  9
$DRAGMODE
 70
     2
  9
$LTSCALE
 40
1.0
  9
$OSMODE
 70
    37
  9
$ATTMODE
 70
     1
  9
$TEXTSIZE
 40
4.0
  9
$TRACEWID
 40
0.05
  9
$TEXTSTYLE
  7
STANDARD
  9
$CLAYER
  8
OBJECT
  9
$CELTYPE
  6
BYLAYER
  9
$CECOLOR
 62
   256
  9
$DIMSCALE
 40
10.0
  9
$DIMASZ
 40
2.0
  9
$DIMEXO
 40
1.0
  9
$DIMDLI
 40
10.0
  9
$DIMRND
 40
0.0
  9
$DIMDLE
 40
0.0
  9
$DIMEXE
 40
1.0
  9
$DIMTP
 40
0.0
  9
$DIMTM
 40
0.0
  9
$DIMTXT
 40
3.2000000000000002
  9
$DIMCEN
 40
0.0
  9
$DIMTSZ
 40
0.0
  9
$DIMTOL
 70
     0
  9
$DIMLIM
 70
     0
  9
$DIMTIH
 70
     0
  9
$DIMTOH
 70
     0
  9
$DIMSE1
 70
     0
  9
$DIMSE2
 70
     0
  9
$DIMTAD
 70
     1
  9
$DIMZIN
 70
     8
  9
$DIMBLK
  1
OPEN30
  9
$DIMASO
 70
     1
  9
$DIMSHO
 70
     1
  9
$DIMPOST
  1

  9
$DIMAPOST
  1

  9
$DIMALT
 70
     0
  9
$DIMALTD
 70
     2
  9
$DIMALTF
 40
25.399999999999999
  9
$DIMLFAC
 40
1.0
  9
$DIMTOFL
 70
     1
  9
$DIMTVP
 40
0.0
  9
$DIMTIX
 70
     0
  9
$DIMSOXD
 70
     0
  9
$DIMSAH
 70
     0
  9
$DIMBLK1
  1

  9
$DIMBLK2
  1

  9
$DIMSTYLE
  2
S10
  9
$DIMCLRD
 70
   256
  9
$DIMCLRE
 70
   256
  9
$DIMCLRT
 70
   256
  9
$DIMTFAC
 40
1.0
  9
$DIMGAP
 40
0.9
  9
$LUNITS
 70
     2
  9
$LUPREC
 70
     2
  9
$SKETCHINC
 40
0.1
  9
$FILLETRAD
 40
0.0
  9
$AUNITS
 70
     0
  9
$AUPREC
 70
     2
  9
$MENU
  1
ACAD
  9
$ELEVATION
 40
0.0
  9
$PELEVATION
 40
0.0
  9
$THICKNESS
 40
0.0
  9
$LIMCHECK
 70
     0
  9
$BLIPMODE
 70
     0
  9
$CHAMFERA
 40
2.0
  9
$CHAMFERB
 40
2.0
  9
$SKPOLY
 70
     0
  9
$TDCREATE
 40
2453095.4929404748
  9
$TDUPDATE
 40
2457603.7442412041
  9
$TDINDWG
 40
18.3535397801
  9
$TDUSRTIMER
 40
18.3535390278
  9
$USRTIMER
 70
     1
  9
$ANGBASE
 50
0.0
  9
$ANGDIR
 70
     0
  9
$PDMODE
 70
    35
  9
$PDSIZE
 40
2.0
  9
$PLINEWID
 40
0.0
  9
$COORDS
 70
     1
  9
$SPLFRAME
 70
     0
  9
$SPLINETYPE
 70
     6
  9
$SPLINESEGS
 70
     8
  9
$ATTDIA
 70
     0
  9
$ATTREQ
 70
     1
  9
$HANDLING
 70
     1
  9
$HANDSEED
  5
132C27
  9
$SURFTAB1
 70
     6
  9
$SURFTAB2
 70
     6
  9
$SURFTYPE
 70
     6
  9
$SURFU
 70
     6
  9
$SURFV
 70
     6
  9
$UCSNAME
  2

  9
$UCSORG
 10
0.0
 20
0.0
 30
0.0
  9
$UCSXDIR
 10
1.0
 20
0.0
 30
0.0
  9
$UCSYDIR
 10
0.0
 20
1.0
 30
0.0
  9
$PUCSNAME
  2

  9
$PUCSORG
 10
0.0
 20
0.0
 30
0.0
  9
$PUCSXDIR
 10
1.0
 20
0.0
 30
0.0
  9
$PUCSYDIR
 10
0.0
 20
1.0
 30
0.0
  9
$USERI1
 70
     0
  9
$USERI2
 70
     0
  9
$USERI3
 70
     0
  9
$USERI4
 70
     0
  9
$USERI5
 70
     0
  9
$USERR1
 40
0.0
  9
$USERR2
 40
0.0
  9
$USERR3
 40
0.0
  9
$USERR4
 40
0.0
  9
$USERR5
 40
0.0
  9
$WORLDVIEW
 70
     1
  9
$SHADEDGE
 70
     3
  9
$SHADEDIF
 70
    70
  9
$TILEMODE
 70
     1
  9
$MAXACTVP
 70
    64
  9
$PLIMCHECK
 70
     0
  9
$PEXTMIN
 10
29.066066288948051
 20
20.366566777229309
 30
0.0
  9
$PEXTMAX
 10
261.5945966005325
 20
183.29910099506381
 30
0.0
  9
$PLIMMIN
 10
-3.17498779296875
 20
-3.1749999523162842
  9
$PLIMMAX
 10
293.83566284179687
 20
206.8406708240509
  9
$UNITMODE
 70
     0
  9
$VISRETAIN
 70
     1
  9
$PLINEGEN
 70
     0
  9
$PSLTSCALE
 70
     1
  0
ENDSEC
  0
SECTION
  2
TABLES
  0
TABLE
  2
VPORT
 70
     1
  0
VPORT
  2
*ACTIVE
 70
     0
 10
0.0
 20
0.0
 11
1.0
 21
1.0
 12
1288.392333017495
 22
-1376.3906872409559
 13
0.0
 23
0.0
 14
1.0
 24
1.0
 15
0.0
 25
0.0
 16
0.0
 26
0.0
 36
1.0
 17
0.0
 27
0.0
 37
0.0
 40
6954.3891419465563
 41
1.6494178525226391
 42
50.0
 43
0.0
 44
0.0
 50
0.0
 51
0.0
 71
     0
 72
   600
 73
     1
 74
     1
 75
     0
 76
     0
 77
     0
 78
     0
  0
ENDTAB
  0
TABLE
  2
LTYPE
 70
     4
  0
LTYPE
  2
CONTINUOUS
 70
     0
  3
Solid line
 72
    65
 73
     0
 40
0.0
  0
LTYPE
  2
PHANTOM2
 70
     0
  3
___ _ _ ___ _ _ ___ _ _ ___ _ _
 72
    65
 73
     6
 40
1.25
 49
0.625
 49
-0.125
 49
0.125
 49
-0.125
 49
0.125
 49
-0.125
  0
LTYPE
  2
ACAD_ISO08W100
 70
     0
  3
ISO long-dash short-dash ____ __ ____ __ ____ _
 72
    65
 73
     4
 40
36.0
 49
24.0
 49
-3.0
 49
6.0
 49
-3.0
  0
LTYPE
  2
ACAD_ISO02W100
 70
     0
  3
ISO dash __ __ __ __ __ __ __ __ __ __ __ __ __
 72
    65
 73
     2
 40
15.0
 49
12.0
 49
-3.0
  0
ENDTAB
  0
TABLE
  2
LAYER
 70
     8
  0
LAYER
  2
0
 70
     0
 62
     7
  6
CONTINUOUS
  0
LAYER
  2
OBJECT
 70
     0
 62
     4
  6
CONTINUOUS
  0
LAYER
  2
DEFPOINTS
 70
     0
 62
     7
  6
CONTINUOUS
  0
LAYER
  2
DIM
 70
     0
 62
     7
  6
CONTINUOUS
  0
LAYER
  2
HIDDEN
 70
     0
 62
     2
  6
ACAD_ISO02W100
  0
LAYER
  2
CENTER
 70
     0
 62
     2
  6
ACAD_ISO08W100
  0
LAYER
  2
DOTS
 70
     0
 62
     1
  6
CONTINUOUS
  0
LAYER
  2
SLIM
 70
     0
 62
     2
  6
CONTINUOUS
  0
ENDTAB
  0
TABLE
  2
STYLE
 70
     2
  0
STYLE
  2
STANDARD
 70
     0
 40
0.0
 41
0.75
 50
0.0
 71
     0
 42
4.0
  3
simplex.shx
  4
bigfont.shx
  0
ENDTAB
  0
TABLE
  2
VIEW
 70
     0
  0
ENDTAB
  0
TABLE
  2
UCS
 70
     0
  0
ENDTAB
  0
TABLE
  2
APPID
 70
    18
  0
APPID
  2
ACAD
 70
     0
  0
APPID
  2
ACADANNOTATIVE
 70
     0
  0
APPID
  2
ACAD_PSEXT
 70
     0
  0
APPID
  2
ACAD_EXEMPT_FROM_CAD_STANDARDS
 70
     0
  0
APPID
  2
ACAECLAYERSTANDARD
 70
     0
  0
APPID
  2
ACAUTHENVIRON
 70
     0
  0
APPID
  2
ACDBDYNAMICBLOCKTRUENAME
 70
     0
  0
APPID
  2
ACDBDYNAMICBLOCKGUID
 70
     0
  0
APPID
  2
ACDBBLOCKREPETAG
 70
     0
  0
APPID
  2
ACDBBLOCKREPBTAG
 70
     0
  0
APPID
  2
ACAD_NAV_VCDISPLAY
 70
     0
  0
APPID
  2
ACAD_DSTYLE_DIMRADIAL_EXTENSION
 70
     0
  0
APPID
  2
ACAD_DSTYLE_DIMJAG
 70
     0
  0
APPID
  2
ACAD_DSTYLE_DIMTALN
 70
     0
  0
APPID
  2
ACADANNOPO
 70
     0
  0
APPID
  2
GRADIENTCOLOR1ACI
 70
     0
  0
APPID
  2
GRADIENTCOLOR2ACI
 70
     0
  0
APPID
  2
ACAD_MLEADERVER
 70
     0
  0
ENDTAB
  0
TABLE
  2
DIMSTYLE
 70
     3
  0
DIMSTYLE
  2
STANDARD
 70
     0
  3

  4

  5

  6

  7

 40
1.0
 41
0.18
 42
0.0625
 43
0.38
 44
0.18
 45
0.0
 46
0.0
 47
0.0
 48
0.0
140
0.18
141
0.09
142
0.0
143
25.399999999999999
144
1.0
145
0.0
146
1.0
147
0.09
 71
     0
 72
     0
 73
     1
 74
     1
 75
     0
 76
     0
 77
     0
 78
     0
170
     0
171
     2
172
     0
173
     0
174
     0
175
     0
176
     0
177
     0
178
     0
  0
DIMSTYLE
  2
S10
 70
     0
  3

  4

  5

  6

  7

 40
10.0
 41
2.0
 42
1.0
 43
10.0
 44
1.0
 45
0.0
 46
0.0
 47
0.0
 48
0.0
140
3.2000000000000002
141
0.0
142
0.0
143
25.399999999999999
144
1.0
145
0.0
146
1.0
147
0.9
 71
     0
 72
     0
 73
     0
 74
     0
 75
     0
 76
     0
 77
     1
 78
     8
170
     0
171
     2
172
     1
173
     0
174
     0
175
     0
176
   256
177
   256
178
   256
  0
ENDTAB
  0
ENDSEC
  0
SECTION
  2
BLOCKS
  0
BLOCK
  8
0
  2
$MODEL_SPACE
 70
     0
 10
0.0
 20
0.0
 30
0.0
  3
$MODEL_SPACE
  1

  0
ENDBLK
  5
132B73
  8
0
  0
BLOCK
 67
     1
  8
0
  2
$PAPER_SPACE
 70
     0
 10
0.0
 20
0.0
 30
0.0
  3
$PAPER_SPACE
  1

  0
ENDBLK
  5
132B6F
 67
     1
  8
0
  0
BLOCK
  8
0
  2
_OPEN30
 70
     0
 10
0.0
 20
0.0
 30
0.0
  3
_OPEN30
  1

  0
LINE
  5
202
  8
0
  6
BYBLOCK
 62
     0
 10
-1.0
 20
0.26794919
 30
0.0
 11
0.0
 21
0.0
 31
0.0
  0
LINE
  5
203
  8
0
  6
BYBLOCK
 62
     0
 10
0.0
 20
0.0
 30
0.0
 11
-1.0
 21
-0.26794919
 31
0.0
  0
LINE
  5
204
  8
0
  6
BYBLOCK
 62
     0
 10
0.0
 20
0.0
 30
0.0
 11
-1.0
 21
0.0
 31
0.0
  0
ENDBLK
  5
206
  8
0
  0
BLOCK
  8
0
  2
*U4
 70
     1
 10
0.0
 20
0.0
 30
0.0
  3
*U4
  1

  0
TEXT
  5
132ABF
  8
DIM
 10
3840.6616440113212
 20
-982.74285714285406
 30
0.0
 40
32.0
  1
m（シンドカット）
 50
90.0
 41
0.75
  0
ENDBLK
  5
132AC1
  8
0
  0
BLOCK
  8
0
  2
*U5
 70
     1
 10
0.0
 20
0.0
 30
0.0
  3
*U5
  1

  0
TEXT
  5
132AC3
  8
SLIM
 10
198.9523809523825
 20
-683.0
 30
0.0
 40
26.0
  1
75
  0
ENDBLK
  5
132AC5
  8
0
  0
BLOCK
  8
0
  2
*U6
 70
     1
 10
0.0
 20
0.0
 30
0.0
  3
*U6
  1

  0
TEXT
  5
132AC7
  8
SLIM
 10
186.5714285714302
 20
-992.99999999998545
 30
0.0
 40
26.0
  1
75Z
  0
ENDBLK
  5
132AC9
  8
0
  0
BLOCK
  8
0
  2
*U7
 70
     1
 10
0.0
 20
0.0
 30
0.0
  3
*U7
  1

  0
TEXT
  5
132ACB
  8
SLIM
 10
198.95238095238261
 20
-103.0
 30
0.0
 40
26.0
  1
50
  0
ENDBLK
  5
132ACD
  8
0
  0
BLOCK
  8
0
  2
*U8
 70
     1
 10
0.0
 20
0.0
 30
0.0
  3
*U8
  1

  0
TEXT
  5
132ACF
  8
SLIM
 10
186.5714285714302
 20
-412.99999999998528
 30
0.0
 40
26.0
  1
75Z
  0
ENDBLK
  5
132AD1
  8
0
  0
BLOCK
  8
0
  2
*U9
 70
     1
 10
0.0
 20
0.0
 30
0.0
  3
*U9
  1

  0
TEXT
  5
132AD3
  8
SLIM
 10
648.95238095238255
 20
-103.0
 30
0.0
 40
26.0
  1
65
  0
ENDBLK
  5
132AD5
  8
0
  0
BLOCK
  8
0
  2
*U10
 70
     1
 10
0.0
 20
0.0
 30
0.0
  3
*U10
  1

  0
TEXT
  5
132AD7
  8
SLIM
 10
636.57142857143015
 20
-412.99999999998528
 30
0.0
 40
26.0
  1
75Z
  0
ENDBLK
  5
132AD9
  8
0
  0
BLOCK
  8
0
  2
*U11
 70
     1
 10
0.0
 20
0.0
 30
0.0
  3
*U11
  1

  0
TEXT
  5
132ADB
  8
SLIM
 10
639.04761904762063
 20
-675.75
 30
0.0
 40
26.0
  1
100
  0
ENDBLK
  5
132ADD
  8
0
  0
BLOCK
  8
0
  2
*U12
 70
     1
 10
0.0
 20
0.0
 30
0.0
  3
*U12
  1

  0
TEXT
  5
132ADF
  8
SLIM
 10
636.57142857143015
 20
-992.99999999998545
 30
0.0
 40
26.0
  1
75Z
  0
ENDBLK
  5
132AE1
  8
0
  0
BLOCK
  8
0
  2
*U13
 70
     1
 10
0.0
 20
0.0
 30
0.0
  3
*U13
  1

  0
TEXT
  5
132AF7
  8
DIM
 10
2209.479620594459
 20
-3184.1428571428528
 30
0.0
 40
32.0
  1
A
 50
90.0
 41
0.75
  0
ENDBLK
  5
132AF9
  8
0
  0
BLOCK
  8
0
  2
*U14
 70
     1
 10
0.0
 20
0.0
 30
0.0
  3
*U14
  1

  0
TEXT
  5
132AFB
  8
DIM
 10
2207.8409284037348
 20
-3565.9999999999959
 30
0.0
 40
32.0
  1
B
 50
90.0
 41
0.75
  0
ENDBLK
  5
132AFD
  8
0
  0
BLOCK
  8
0
  2
*U15
 70
     1
 10
0.0
 20
0.0
 30
0.0
  3
*U15
  1

  0
TEXT
  5
132AFF
  8
DIM
 10
2061.428571428572
 20
-3038.208121984444
 30
0.0
 40
32.0
  1
C
 41
0.75
  0
ENDBLK
  5
132B01
  8
0
  0
ENDSEC
  0
SECTION
  2
ENTITIES
  0
LINE
  5
12515F
  8
OBJECT
 10
1825.0
 20
-3579.9999999999959
 30
0.0
 11
5575.0
 21
-3579.9999999999959
 31
0.0
  0
LINE
  5
125161
  8
SLIM
 10
2616.0
 20
-2637.50001604727
 30
0.0
 11
2616.0
 21
-2967.50001604727
 31
0.0
  0
LINE
  5
125162
  8
SLIM
 10
2740.0
 20
-2637.50001604727
 30
0.0
 11
2740.0
 21
-2967.50001604727
 31
0.0
  0
LINE
  5
125163
  8
SLIM
 10
2870.0
 20
-2697.50001604727
 30
0.0
 11
2870.0
 21
-2967.50001604727
 31
0.0
  0
LINE
  5
125164
  8
SLIM
 10
3000.0
 20
-2697.50001604727
 30
0.0
 11
3000.0
 21
-2967.50001604727
 31
0.0
  0
LINE
  5
125165
  8
SLIM
 10
3130.0
 20
-2967.50001604727
 30
0.0
 11
3130.0
 21
-2697.50001604727
 31
0.0
  0
LINE
  5
125166
  8
SLIM
 10
3260.0
 20
-2967.50001604727
 30
0.0
 11
3260.0
 21
-2637.50001604727
 31
0.0
  0
LINE
  5
125167
  8
SLIM
 10
3260.0
 20
-2637.50001604727
 30
0.0
 11
2616.0
 21
-2637.50001604727
 31
0.0
  0
LINE
  5
125168
  8
SLIM
 10
3260.0
 20
-2697.50001604727
 30
0.0
 11
2740.0
 21
-2697.50001604727
 31
0.0
  0
LINE
  5
125169
  8
SLIM
 10
3260.0
 20
-2757.50001604727
 30
0.0
 11
2616.0
 21
-2757.50001604727
 31
0.0
  0
LINE
  5
12516A
  8
SLIM
 10
3260.0
 20
-2827.50001604727
 30
0.0
 11
2616.0
 21
-2827.50001604727
 31
0.0
  0
LINE
  5
12516B
  8
SLIM
 10
3260.0
 20
-2897.50001604727
 30
0.0
 11
2616.0
 21
-2897.50001604727
 31
0.0
  0
LINE
  5
12516C
  8
SLIM
 10
3260.0
 20
-2967.50001604727
 30
0.0
 11
2616.0
 21
-2967.50001604727
 31
0.0
  0
LINE
  5
125181
  8
SLIM
 10
2740.0
 20
-2757.50001604727
 30
0.0
 11
2615.9999722746579
 21
-2637.5
 31
0.0
  0
LINE
  5
1251B6
  8
OBJECT
 10
5323.0
 20
-3395.9999999999968
 30
0.0
 11
5323.0
 21
-3374.9999999999968
 31
0.0
1001
ACDBBLOCKREPETAG
1070
     1
1071
       20
1005
1251B6
  0
LINE
  5
1251B7
  8
OBJECT
 10
5323.0
 20
-3374.9999999999968
 30
0.0
 11
5477.0
 21
-3374.9999999999968
 31
0.0
1001
ACDBBLOCKREPETAG
1070
     1
1071
       21
1005
1251B7
  0
LINE
  5
1251B8
  8
HIDDEN
 10
5343.0
 20
-3444.9999999999968
 30
0.0
 11
5457.0
 21
-3444.9999999999968
 31
0.0
1001
ACDBBLOCKREPETAG
1070
     1
1071
       22
1005
1251B8
  0
LINE
  5
1251B9
  8
OBJECT
 10
5477.0
 20
-3374.9999999999968
 30
0.0
 11
5477.0
 21
-3395.9999999999968
 31
0.0
1001
ACDBBLOCKREPETAG
1070
     1
1071
       23
1005
1251B9
  0
LINE
  5
1251BA
  8
OBJECT
 10
5477.0
 20
-3395.9999999999968
 30
0.0
 11
5323.0
 21
-3395.9999999999968
 31
0.0
1001
ACDBBLOCKREPETAG
1070
     1
1071
       24
1005
1251BA
  0
LINE
  5
1251BB
  8
CENTER
 10
5400.0
 20
-3359.9999999999968
 30
0.0
 11
5400.0
 21
-3594.9999999999968
 31
0.0
1001
ACDBBLOCKREPETAG
1070
     1
1071
       25
1005
1251BB
  0
LINE
  5
1251BC
  8
OBJECT
 10
5325.0
 20
-3458.9999999999968
 30
0.0
 11
5325.0
 21
-3582.9999999999968
 31
0.0
1001
ACDBBLOCKREPETAG
1070
     1
1071
       26
1005
1251BC
  0
LINE
  5
1251BD
  8
OBJECT
 10
5328.0
 20
-3395.9999999999968
 30
0.0
 11
5328.0
 21
-3458.9999999999968
 31
0.0
1001
ACDBBLOCKREPETAG
1070
     1
1071
       27
1005
1251BD
  0
LINE
  5
1251BE
  8
OBJECT
 10
5472.0
 20
-3458.9999999999968
 30
0.0
 11
5472.0
 21
-3395.9999999999968
 31
0.0
1001
ACDBBLOCKREPETAG
1070
     1
1071
       28
1005
1251BE
  0
LINE
  5
1251BF
  8
OBJECT
 10
5475.0
 20
-3458.9999999999968
 30
0.0
 11
5456.7802782663139
 21
-3458.9999999999968
 31
0.0
1001
ACDBBLOCKREPETAG
1070
     1
1071
       30
1005
1251BF
  0
LINE
  5
1251C0
  8
OBJECT
 10
5475.0
 20
-3458.9999999999968
 30
0.0
 11
5475.0
 21
-3582.9999999999968
 31
0.0
1001
ACDBBLOCKREPETAG
1070
     1
1071
       34
1005
1251C0
  0
POINT
  5
1251C1
  8
DOTS
 10
5400.0
 20
-3579.9999999999968
 30
0.0
1001
ACDBBLOCKREPETAG
1070
     1
1071
      187
1005
1251C1
  0
LINE
  5
1251C2
  8
CENTER
 10
5310.0
 20
-3507.9999999999968
 30
0.0
 11
5490.0
 21
-3507.9999999999968
 31
0.0
1001
ACDBBLOCKREPETAG
1070
     1
1071
       23
1005
1251C2
  0
CIRCLE
  5
1251C3
  8
OBJECT
 10
5400.0
 20
-3507.9999999999968
 30
0.0
 40
53.5
1001
ACDBBLOCKREPETAG
1070
     1
1071
       24
1005
1251C3
  0
CIRCLE
  5
1251C4
  8
OBJECT
 10
5400.0
 20
-3507.9999999999968
 30
0.0
 40
67.0
1001
ACDBBLOCKREPETAG
1070
     1
1071
       25
1005
1251C4
  0
ARC
  5
1251C5
  8
OBJECT
 10
5400.0
 20
-3507.9999999999968
 30
0.0
 40
75.0
 50
286.26020470824369
 51
253.73979529175631
1001
ACDBBLOCKREPETAG
1070
     1
1071
       27
1005
1251C5
  0
LINE
  5
1251C6
  8
OBJECT
 10
5379.0
 20
-3579.9999999999968
 30
0.0
 11
5421.0
 21
-3579.9999999999968
 31
0.0
1001
ACDBBLOCKREPETAG
1070
     1
1071
       28
1005
1251C6
  0
LINE
  5
1251C7
  8
OBJECT
 10
5343.2197217336861
 20
-3458.9999999999968
 30
0.0
 11
5325.0
 21
-3458.9999999999968
 31
0.0
1001
ACDBBLOCKREPETAG
1070
     1
1071
       30
1005
1251BF
  0
TEXT
  5
12AED7
  8
SLIM
 10
-0.0000000000000011
 20
282.5
 30
0.0
 40
35.0
  1
※ 100枝（4）がある場合、品名の最後に【管底】が付きます。
 41
0.9
 11
0.0
 21
300.0
 31
0.0
 73
     2
  0
TEXT
  5
1325D6
  8
SLIM
 10
39.642857142857743
 20
-555.0
 30
0.0
 40
60.0
  1
Z106-P140
 41
0.75
 72
     4
 11
225.0000000000006
 21
-525.0
 31
0.0
  0
TEXT
  5
1325D7
  8
SLIM
 10
35.357142857142811
 20
-1135.0
 30
0.0
 40
60.0
  1
Z306-P140
 41
0.75
 72
     4
 11
225.0
 21
-1105.0
 31
0.0
  0
TEXT
  5
1325D8
  8
SLIM
 10
485.35714285714272
 20
-555.0
 30
0.0
 40
60.0
  1
Z206-P140
 41
0.75
 72
     4
 11
675.0
 21
-525.0
 31
0.0
  0
TEXT
  5
1325D9
  8
SLIM
 10
485.35714285714272
 20
-1135.0
 30
0.0
 40
60.0
  1
Z406-P140
 41
0.75
 72
     4
 11
675.0
 21
-1105.0
 31
0.0
  0
LINE
  5
132668
  8
SLIM
 10
4350.0
 20
-887.99999999999454
 30
0.0
 11
4350.0
 21
-1079.9999999999941
 31
0.0
  0
LINE
  5
132669
  8
SLIM
 10
4454.0
 20
-1079.9999999999941
 30
0.0
 11
4454.0
 21
-887.99999999999454
 31
0.0
  0
LINE
  5
13266A
  8
SLIM
 10
4602.0
 20
-887.99999999999454
 30
0.0
 11
4350.0
 21
-887.99999999999454
 31
0.0
  0
LINE
  5
13266B
  8
SLIM
 10
4602.0
 20
-983.99999999999477
 30
0.0
 11
4350.0
 21
-983.99999999999477
 31
0.0
  0
LINE
  5
13266D
  8
SLIM
 10
4602.0
 20
-1031.999999999995
 30
0.0
 11
4350.0
 21
-1031.999999999995
 31
0.0
  0
LINE
  5
13266E
  8
SLIM
 10
4602.0
 20
-1079.9999999999941
 30
0.0
 11
4350.0
 21
-1079.9999999999941
 31
0.0
  0
LINE
  5
132672
  8
SLIM
 10
4602.0
 20
-935.99999999999466
 30
0.0
 11
4350.0
 21
-935.99999999999466
 31
0.0
  0
LINE
  5
132674
  8
SLIM
 10
4602.0
 20
-887.99999999999454
 30
0.0
 11
4602.0
 21
-1079.9999999999941
 31
0.0
  0
LINE
  5
1326AE
  8
DIM
 10
3904.9999999999941
 20
-754.99999999999773
 30
0.0
 11
3839.6616440113221
 21
-754.9999999999975
 31
0.0
  0
LINE
  5
1326AF
  8
DIM
 10
3910.0
 20
-964.9999999999975
 30
0.0
 11
3839.6616440113221
 21
-964.9999999999975
 31
0.0
  0
LINE
  5
1326B0
  8
DIM
 10
3849.6616440113221
 20
-774.99999999999773
 30
0.0
 11
3849.6616440113221
 21
-944.99999999999761
 31
0.0
  0
INSERT
  5
1326B1
  8
DIM
  2
_OPEN30
 10
3849.6616440113221
 20
-754.99999999999773
 30
0.0
 41
20.0
 42
20.0
 43
20.0
 50
90.0
  0
INSERT
  5
1326B2
  8
DIM
  2
_OPEN30
 10
3849.6616440113221
 20
-964.9999999999975
 30
0.0
 41
20.0
 42
20.0
 43
20.0
 50
270.0
  0
INSERT
  5
1326B3
  8
OBJECT
  2
*U4
 10
0.0
 20
0.0
 30
0.0
  0
TEXT
  5
1326B4
  8
SLIM
 10
3554.6000000000008
 20
-1415.6666666666631
 30
0.0
 40
28.0
  1
※ 対応スラブ厚　180～（m-10）
 41
0.75
  0
TEXT
  5
1326B5
  8
SLIM
 10
3554.6000000000008
 20
-1462.3333333333289
 30
0.0
 40
28.0
  1
※ 足切り可能寸法（最大）　210-m（コンパクトＬベンド使用なら+20）
 41
0.75
  0
TEXT
  5
1326B6
  8
SLIM
 10
3598.9000000000001
 20
-1555.6666666666631
 30
0.0
 40
28.0
  1
国土交通大臣認定・（一財）日本消防設備安全センター性能評定取得品
 41
0.75
  0
TEXT
  5
1326B7
  8
SLIM
 10
3631.1000000000022
 20
-1602.3333333333301
 30
0.0
 40
28.0
  1
注）ご採用にあたり、認定書及び評定書の内容をご確認ください。
 41
0.75
  0
TEXT
  5
1326B8
  8
SLIM
 10
4506.5714285714294
 20
-971.99999999999454
 30
0.0
 40
24.0
  1
180
 41
0.75
  0
TEXT
  5
1326B9
  8
SLIM
 10
4470.057142857142
 20
-1067.999999999995
 30
0.0
 40
24.0
  1
180～200
 41
0.75
  0
TEXT
  5
1326BA
  8
SLIM
 10
4471.7714285714283
 20
-1019.999999999995
 30
0.0
 40
24.0
  1
180～190
 41
0.75
  0
TEXT
  5
1326BB
  8
SLIM
 10
4465.6000000000013
 20
-923.99999999999477
 30
0.0
 40
24.0
  1
対応スラブ厚
 41
0.75
  0
TEXT
  5
1326BC
  8
SLIM
 10
4398.1714285714288
 20
-1125.999999999995
 30
0.0
 40
24.0
  1
標準：m=210
 41
0.75
  0
TEXT
  5
1326BD
  8
SLIM
 10
4380.5714285714284
 20
-971.99999999999454
 30
0.0
 40
24.0
  1
190
 41
0.75
  0
TEXT
  5
1326BE
  8
SLIM
 10
4380.5714285714284
 20
-1067.999999999995
 30
0.0
 40
24.0
  1
210
 41
0.75
  0
TEXT
  5
1326BF
  8
SLIM
 10
4369.9428571428571
 20
-923.99999999999477
 30
0.0
 40
24.0
  1
m寸法
 41
0.75
  0
TEXT
  5
1326C0
  8
SLIM
 10
4378.8571428571431
 20
-1019.999999999995
 30
0.0
 40
24.0
  1
200
 41
0.75
  0
CIRCLE
  5
1326C1
  8
OBJECT
 10
220.00000000000159
 20
-785.0
 30
0.0
 40
70.0
1001
ACDBBLOCKREPETAG
1070
     1
1071
       43
1005
1326C1
  0
CIRCLE
  5
1326C2
  8
OBJECT
 10
220.00000000000159
 20
-785.0
 30
0.0
 40
77.0
1001
ACDBBLOCKREPETAG
1070
     1
1071
       44
1005
1326C2
  0
ARC
  5
1326C3
  8
OBJECT
 10
220.00000000000159
 20
-785.0
 30
0.0
 40
80.0
 50
140.80503257377961
 51
219.1949674262203
1001
ACDBBLOCKREPETAG
1070
     1
1071
       45
1005
1326C3
  0
LINE
  5
1326C4
  8
OBJECT
 10
158.00000000000159
 20
-739.33819977267547
 30
0.0
 11
158.00000000000159
 21
-705.0
 31
0.0
1001
ACDBBLOCKREPETAG
1070
     1
1071
       46
1005
1326C4
  0
LINE
  5
1326C5
  8
OBJECT
 10
282.00000000000171
 20
-723.0
 30
0.0
 11
282.00000000000171
 21
-705.0
 31
0.0
1001
ACDBBLOCKREPETAG
1070
     1
1071
       22
1005
1326C5
  0
LINE
  5
1326C6
  8
OBJECT
 10
282.00000000000171
 20
-723.0
 30
0.0
 11
300.00000000000159
 21
-723.0
 31
0.0
1001
ACDBBLOCKREPETAG
1070
     1
1071
       24
1005
1326C6
  0
LINE
  5
1326C7
  8
OBJECT
 10
282.00000000000171
 20
-847.0
 30
0.0
 11
300.00000000000159
 21
-847.0
 31
0.0
1001
ACDBBLOCKREPETAG
1070
     1
1071
       25
1005
1326C7
  0
LINE
  5
1326C8
  8
OBJECT
 10
282.00000000000171
 20
-847.0
 30
0.0
 11
282.00000000000171
 21
-865.0
 31
0.0
1001
ACDBBLOCKREPETAG
1070
     1
1071
       27
1005
1326C8
  0
LINE
  5
1326C9
  8
OBJECT
 10
158.00000000000159
 20
-830.66180022732442
 30
0.0
 11
158.00000000000159
 21
-865.0
 31
0.0
1001
ACDBBLOCKREPETAG
1070
     1
1071
       28
1005
1326C9
  0
LINE
  5
1326CA
  8
OBJECT
 10
274.44722215136568
 20
-839.44722215136414
 30
0.0
 11
282.00000000000171
 21
-847.0
 31
0.0
1001
ACDBBLOCKREPETAG
1070
     1
1071
       37
1005
1326CA
  0
LINE
  5
1326CB
  8
OBJECT
 10
274.44722215136568
 20
-730.55277784863551
 30
0.0
 11
282.00000000000171
 21
-723.0
 31
0.0
1001
ACDBBLOCKREPETAG
1070
     1
1071
       38
1005
1326CB
  0
POINT
  5
1326CC
  8
DOTS
 10
220.00000000000159
 20
-785.0
 30
0.0
1001
ACDBBLOCKREPETAG
1070
     1
1071
       39
1005
1326CC
  0
CIRCLE
  5
1326CD
  8
OBJECT
 10
220.00000000000159
 20
-785.0
 30
0.0
 40
53.5
1001
ACDBBLOCKREPETAG
1070
     1
1071
      153
1005
1326CD
  0
CIRCLE
  5
1326CE
  8
OBJECT
 10
220.00000000000159
 20
-205.0
 30
0.0
 40
70.0
1001
ACDBBLOCKREPETAG
1070
     1
1071
       43
1005
1326CE
  0
CIRCLE
  5
1326CF
  8
OBJECT
 10
220.00000000000159
 20
-205.0
 30
0.0
 40
77.0
1001
ACDBBLOCKREPETAG
1070
     1
1071
       44
1005
1326CF
  0
ARC
  5
1326D0
  8
OBJECT
 10
220.00000000000159
 20
-205.0
 30
0.0
 40
80.0
 50
140.80503257378101
 51
219.19496742621899
1001
ACDBBLOCKREPETAG
1070
     1
1071
       45
1005
1326D0
  0
LINE
  5
1326D1
  8
OBJECT
 10
158.00000000000159
 20
-159.33819977267561
 30
0.0
 11
158.00000000000159
 21
-125.0
 31
0.0
1001
ACDBBLOCKREPETAG
1070
     1
1071
       46
1005
1326D1
  0
LINE
  5
1326D2
  8
OBJECT
 10
282.00000000000171
 20
-143.0
 30
0.0
 11
282.00000000000171
 21
-125.0
 31
0.0
1001
ACDBBLOCKREPETAG
1070
     1
1071
       22
1005
1326D2
  0
LINE
  5
1326D3
  8
OBJECT
 10
282.00000000000171
 20
-143.0
 30
0.0
 11
300.00000000000159
 21
-143.0
 31
0.0
1001
ACDBBLOCKREPETAG
1070
     1
1071
       24
1005
1326D3
  0
LINE
  5
1326D4
  8
OBJECT
 10
282.00000000000171
 20
-267.0
 30
0.0
 11
300.00000000000159
 21
-267.0
 31
0.0
1001
ACDBBLOCKREPETAG
1070
     1
1071
       25
1005
1326D4
  0
LINE
  5
1326D5
  8
OBJECT
 10
282.00000000000171
 20
-267.0
 30
0.0
 11
282.00000000000171
 21
-285.0
 31
0.0
1001
ACDBBLOCKREPETAG
1070
     1
1071
       27
1005
1326D5
  0
LINE
  5
1326D6
  8
OBJECT
 10
158.00000000000159
 20
-250.66180022732439
 30
0.0
 11
158.00000000000159
 21
-285.0
 31
0.0
1001
ACDBBLOCKREPETAG
1070
     1
1071
       28
1005
1326D6
  0
LINE
  5
1326D7
  8
OBJECT
 10
274.44722215136568
 20
-259.44722215136431
 30
0.0
 11
282.00000000000171
 21
-267.0
 31
0.0
1001
ACDBBLOCKREPETAG
1070
     1
1071
       37
1005
1326D7
  0
LINE
  5
1326D8
  8
OBJECT
 10
274.44722215136568
 20
-150.55277784863571
 30
0.0
 11
282.00000000000171
 21
-143.0
 31
0.0
1001
ACDBBLOCKREPETAG
1070
     1
1071
       38
1005
1326D8
  0
POINT
  5
1326D9
  8
DOTS
 10
220.00000000000159
 20
-205.0
 30
0.0
1001
ACDBBLOCKREPETAG
1070
     1
1071
       39
1005
1326D9
  0
CIRCLE
  5
1326DA
  8
OBJECT
 10
220.00000000000159
 20
-205.0
 30
0.0
 40
53.5
1001
ACDBBLOCKREPETAG
1070
     1
1071
      153
1005
1326DA
  0
CIRCLE
  5
1326DB
  8
OBJECT
 10
670.00000000000159
 20
-205.0
 30
0.0
 40
70.0
1001
ACDBBLOCKREPETAG
1070
     1
1071
       43
1005
1326DB
  0
CIRCLE
  5
1326DC
  8
OBJECT
 10
670.00000000000159
 20
-205.0
 30
0.0
 40
77.0
1001
ACDBBLOCKREPETAG
1070
     1
1071
       44
1005
1326DC
  0
ARC
  5
1326DD
  8
OBJECT
 10
670.00000000000159
 20
-205.0
 30
0.0
 40
80.0
 50
140.80503257378001
 51
219.19496742621999
1001
ACDBBLOCKREPETAG
1070
     1
1071
       45
1005
1326DD
  0
LINE
  5
1326DE
  8
OBJECT
 10
608.00000000000159
 20
-159.33819977267561
 30
0.0
 11
608.00000000000159
 21
-125.0
 31
0.0
1001
ACDBBLOCKREPETAG
1070
     1
1071
       46
1005
1326DE
  0
LINE
  5
1326DF
  8
OBJECT
 10
732.00000000000171
 20
-143.0
 30
0.0
 11
732.00000000000171
 21
-125.0
 31
0.0
1001
ACDBBLOCKREPETAG
1070
     1
1071
       22
1005
1326DF
  0
LINE
  5
1326E0
  8
OBJECT
 10
732.00000000000171
 20
-143.0
 30
0.0
 11
750.00000000000159
 21
-143.0
 31
0.0
1001
ACDBBLOCKREPETAG
1070
     1
1071
       24
1005
1326E0
  0
LINE
  5
1326E1
  8
OBJECT
 10
732.00000000000171
 20
-267.0
 30
0.0
 11
750.00000000000159
 21
-267.0
 31
0.0
1001
ACDBBLOCKREPETAG
1070
     1
1071
       25
1005
1326E1
  0
LINE
  5
1326E2
  8
OBJECT
 10
732.00000000000171
 20
-267.0
 30
0.0
 11
732.00000000000171
 21
-285.0
 31
0.0
1001
ACDBBLOCKREPETAG
1070
     1
1071
       27
1005
1326E2
  0
LINE
  5
1326E3
  8
OBJECT
 10
608.00000000000159
 20
-250.66180022732439
 30
0.0
 11
608.00000000000159
 21
-285.0
 31
0.0
1001
ACDBBLOCKREPETAG
1070
     1
1071
       28
1005
1326E3
  0
LINE
  5
1326E4
  8
OBJECT
 10
724.44722215136585
 20
-259.44722215136431
 30
0.0
 11
732.00000000000171
 21
-267.0
 31
0.0
1001
ACDBBLOCKREPETAG
1070
     1
1071
       37
1005
1326E4
  0
LINE
  5
1326E5
  8
OBJECT
 10
724.44722215136585
 20
-150.55277784863571
 30
0.0
 11
732.00000000000171
 21
-143.0
 31
0.0
1001
ACDBBLOCKREPETAG
1070
     1
1071
       38
1005
1326E5
  0
POINT
  5
1326E6
  8
DOTS
 10
670.00000000000159
 20
-205.0
 30
0.0
1001
ACDBBLOCKREPETAG
1070
     1
1071
       39
1005
1326E6
  0
CIRCLE
  5
1326E7
  8
OBJECT
 10
670.00000000000159
 20
-205.0
 30
0.0
 40
53.5
1001
ACDBBLOCKREPETAG
1070
     1
1071
      153
1005
1326E7
  0
CIRCLE
  5
1326E8
  8
OBJECT
 10
670.00000000000159
 20
-785.0
 30
0.0
 40
70.0
1001
ACDBBLOCKREPETAG
1070
     1
1071
       43
1005
1326E8
  0
CIRCLE
  5
1326E9
  8
OBJECT
 10
670.00000000000159
 20
-785.0
 30
0.0
 40
77.0
1001
ACDBBLOCKREPETAG
1070
     1
1071
       44
1005
1326E9
  0
ARC
  5
1326EA
  8
OBJECT
 10
670.00000000000159
 20
-785.0
 30
0.0
 40
80.0
 50
140.8050325737787
 51
219.1949674262213
1001
ACDBBLOCKREPETAG
1070
     1
1071
       45
1005
1326EA
  0
LINE
  5
1326EB
  8
OBJECT
 10
608.00000000000159
 20
-739.33819977267547
 30
0.0
 11
608.00000000000159
 21
-705.0
 31
0.0
1001
ACDBBLOCKREPETAG
1070
     1
1071
       46
1005
1326EB
  0
LINE
  5
1326EC
  8
OBJECT
 10
732.00000000000171
 20
-723.0
 30
0.0
 11
732.00000000000171
 21
-705.0
 31
0.0
1001
ACDBBLOCKREPETAG
1070
     1
1071
       22
1005
1326EC
  0
LINE
  5
1326ED
  8
OBJECT
 10
732.00000000000171
 20
-723.0
 30
0.0
 11
750.00000000000159
 21
-723.0
 31
0.0
1001
ACDBBLOCKREPETAG
1070
     1
1071
       24
1005
1326ED
  0
LINE
  5
1326EE
  8
OBJECT
 10
732.00000000000171
 20
-847.0
 30
0.0
 11
750.00000000000159
 21
-847.0
 31
0.0
1001
ACDBBLOCKREPETAG
1070
     1
1071
       25
1005
1326EE
  0
LINE
  5
1326EF
  8
OBJECT
 10
732.00000000000171
 20
-847.0
 30
0.0
 11
732.00000000000171
 21
-865.0
 31
0.0
1001
ACDBBLOCKREPETAG
1070
     1
1071
       27
1005
1326EF
  0
LINE
  5
1326F0
  8
OBJECT
 10
608.00000000000159
 20
-830.66180022732442
 30
0.0
 11
608.00000000000159
 21
-865.0
 31
0.0
1001
ACDBBLOCKREPETAG
1070
     1
1071
       28
1005
1326F0
  0
LINE
  5
1326F1
  8
OBJECT
 10
724.44722215136585
 20
-839.44722215136414
 30
0.0
 11
732.00000000000171
 21
-847.0
 31
0.0
1001
ACDBBLOCKREPETAG
1070
     1
1071
       37
1005
1326F1
  0
LINE
  5
1326F2
  8
OBJECT
 10
724.44722215136585
 20
-730.55277784863551
 30
0.0
 11
732.00000000000171
 21
-723.0
 31
0.0
1001
ACDBBLOCKREPETAG
1070
     1
1071
       38
1005
1326F2
  0
POINT
  5
1326F3
  8
DOTS
 10
670.00000000000159
 20
-785.0
 30
0.0
1001
ACDBBLOCKREPETAG
1070
     1
1071
       39
1005
1326F3
  0
CIRCLE
  5
1326F4
  8
OBJECT
 10
670.00000000000159
 20
-785.0
 30
0.0
 40
53.5
1001
ACDBBLOCKREPETAG
1070
     1
1071
      153
1005
1326F4
  0
INSERT
  5
1326F5
  8
OBJECT
  2
*U5
 10
0.0
 20
0.0
 30
0.0
  0
LINE
  5
1326F6
  8
OBJECT
 10
158.00000000000159
 20
-652.0
 30
0.0
 11
158.00000000000159
 21
-645.0
 31
0.0
1001
ACDBBLOCKREPETAG
1070
     1
1071
       39
1005
1326F6
  0
LINE
  5
1326F7
  8
OBJECT
 10
158.00000000000159
 20
-645.0
 30
0.0
 11
282.00000000000171
 21
-645.0
 31
0.0
1001
ACDBBLOCKREPETAG
1070
     1
1071
       40
1005
1326F7
  0
LINE
  5
1326F8
  8
OBJECT
 10
282.00000000000171
 20
-645.0
 30
0.0
 11
282.00000000000171
 21
-652.0
 31
0.0
1001
ACDBBLOCKREPETAG
1070
     1
1071
       41
1005
1326F8
  0
LINE
  5
1326F9
  8
OBJECT
 10
282.00000000000171
 20
-652.0
 30
0.0
 11
158.00000000000159
 21
-652.0
 31
0.0
1001
ACDBBLOCKREPETAG
1070
     1
1071
       42
1005
1326F9
  0
LINE
  5
1326FA
  8
OBJECT
 10
161.00000000000159
 20
-652.0
 30
0.0
 11
161.00000000000159
 21
-688.0
 31
0.0
1001
ACDBBLOCKREPETAG
1070
     1
1071
       43
1005
1326FA
  0
LINE
  5
1326FB
  8
OBJECT
 10
161.00000000000159
 20
-688.0
 30
0.0
 11
279.00000000000159
 21
-688.0
 31
0.0
1001
ACDBBLOCKREPETAG
1070
     1
1071
       44
1005
1326FB
  0
LINE
  5
1326FC
  8
OBJECT
 10
279.00000000000159
 20
-688.0
 30
0.0
 11
279.00000000000159
 21
-652.0
 31
0.0
1001
ACDBBLOCKREPETAG
1070
     1
1071
       45
1005
1326FC
  0
LINE
  5
1326FD
  8
OBJECT
 10
165.50000000000159
 20
-692.0
 30
0.0
 11
165.50000000000159
 21
-699.0
 31
0.0
1001
ACDBBLOCKREPETAG
1070
     1
1071
       46
1005
1326FD
  0
LINE
  5
1326FE
  8
OBJECT
 10
274.50000000000159
 20
-699.0
 30
0.0
 11
274.50000000000159
 21
-692.0
 31
0.0
1001
ACDBBLOCKREPETAG
1070
     1
1071
       47
1005
1326FE
  0
LINE
  5
1326FF
  8
OBJECT
 10
274.50000000000159
 20
-692.0
 30
0.0
 11
165.50000000000159
 21
-692.0
 31
0.0
1001
ACDBBLOCKREPETAG
1070
     1
1071
       48
1005
1326FF
  0
LINE
  5
132700
  8
OBJECT
 10
161.00000000000159
 20
-688.0
 30
0.0
 11
165.50000000000159
 21
-692.0
 31
0.0
1001
ACDBBLOCKREPETAG
1070
     1
1071
       49
1005
132700
  0
LINE
  5
132701
  8
OBJECT
 10
279.00000000000159
 20
-688.0
 30
0.0
 11
274.50000000000159
 21
-692.0
 31
0.0
1001
ACDBBLOCKREPETAG
1070
     1
1071
       50
1005
132701
  0
LINE
  5
132702
  8
OBJECT
 10
158.00000000000159
 20
-701.99999999999886
 30
0.0
 11
158.00000000000159
 21
-705.0
 31
0.0
1001
ACDBBLOCKREPETAG
1070
     1
1071
       51
1005
132702
  0
ARC
  5
132703
  8
OBJECT
 10
161.00000000000159
 20
-701.99999999999886
 30
0.0
 40
3.0
 50
90.0
 51
180.0
1001
ACDBBLOCKREPETAG
1070
     1
1071
       52
1005
132703
  0
LINE
  5
132704
  8
OBJECT
 10
282.00000000000171
 20
-705.0
 30
0.0
 11
282.00000000000171
 21
-702.00000000000091
 31
0.0
1001
ACDBBLOCKREPETAG
1070
     1
1071
       53
1005
132704
  0
ARC
  5
132705
  8
OBJECT
 10
279.00000000000159
 20
-702.00000000000091
 30
0.0
 40
3.0
 50
0.0
 51
90.0
1001
ACDBBLOCKREPETAG
1070
     1
1071
       54
1005
132705
  0
LINE
  5
132706
  8
OBJECT
 10
279.00000000000159
 20
-699.00000000000091
 30
0.0
 11
161.00000000000159
 21
-698.99999999999909
 31
0.0
1001
ACDBBLOCKREPETAG
1070
     1
1071
       55
1005
132706
  0
LINE
  5
132707
  8
HIDDEN
 10
175.50000000000159
 20
-697.0
 30
0.0
 11
264.50000000000159
 21
-697.0
 31
0.0
1001
ACDBBLOCKREPETAG
1070
     1
1071
      426
1005
132707
  0
LINE
  5
132708
  8
OBJECT
 10
282.00000000000171
 20
-997.99999999998545
 30
0.0
 11
282.00000000000171
 21
-1004.999999999985
 31
0.0
1001
ACDBBLOCKREPETAG
1070
     1
1071
       98
1005
132708
  0
LINE
  5
132709
  8
OBJECT
 10
282.00000000000171
 20
-1004.999999999985
 30
0.0
 11
158.00000000000159
 21
-1004.999999999985
 31
0.0
1001
ACDBBLOCKREPETAG
1070
     1
1071
       99
1005
132709
  0
LINE
  5
13270A
  8
OBJECT
 10
158.00000000000159
 20
-1004.999999999985
 30
0.0
 11
158.00000000000159
 21
-997.99999999998545
 31
0.0
1001
ACDBBLOCKREPETAG
1070
     1
1071
      100
1005
13270A
  0
LINE
  5
13270B
  8
OBJECT
 10
158.00000000000159
 20
-997.99999999998545
 30
0.0
 11
282.00000000000171
 21
-997.99999999998545
 31
0.0
1001
ACDBBLOCKREPETAG
1070
     1
1071
      101
1005
13270B
  0
LINE
  5
13270C
  8
OBJECT
 10
174.99999999999801
 20
-944.99997496418655
 30
0.0
 11
175.00000000000159
 21
-870.99999999999909
 31
0.0
1001
ACDBBLOCKREPETAG
1070
     1
1071
      102
1005
13270C
  0
LINE
  5
13270D
  8
OBJECT
 10
265.00000000000159
 20
-944.99997496418655
 30
0.0
 11
265.00000000000159
 21
-871.00000000000091
 31
0.0
1001
ACDBBLOCKREPETAG
1070
     1
1071
      103
1005
13270D
  0
LINE
  5
13270E
  8
OBJECT
 10
279.00000000000159
 20
-997.99999999998545
 30
0.0
 11
279.00000000000159
 21
-961.99999999998545
 31
0.0
1001
ACDBBLOCKREPETAG
1070
     1
1071
      104
1005
13270E
  0
LINE
  5
13270F
  8
OBJECT
 10
279.00000000000159
 20
-961.99999999998545
 30
0.0
 11
161.00000000000159
 21
-961.99999999998545
 31
0.0
1001
ACDBBLOCKREPETAG
1070
     1
1071
      105
1005
13270F
  0
LINE
  5
132710
  8
OBJECT
 10
161.00000000000159
 20
-961.99999999998545
 30
0.0
 11
161.00000000000159
 21
-997.99999999998545
 31
0.0
1001
ACDBBLOCKREPETAG
1070
     1
1071
      106
1005
132710
  0
LINE
  5
132711
  8
OBJECT
 10
274.50000000000159
 20
-957.99999999998545
 30
0.0
 11
274.50000000000159
 21
-944.99999999998545
 31
0.0
1001
ACDBBLOCKREPETAG
1070
     1
1071
      107
1005
132711
  0
LINE
  5
132712
  8
OBJECT
 10
165.50000000000159
 20
-944.99999999998545
 30
0.0
 11
165.50000000000159
 21
-957.99999999998545
 31
0.0
1001
ACDBBLOCKREPETAG
1070
     1
1071
      108
1005
132712
  0
LINE
  5
132713
  8
OBJECT
 10
165.50000000000159
 20
-957.99999999998545
 30
0.0
 11
274.50000000000159
 21
-957.99999999998545
 31
0.0
1001
ACDBBLOCKREPETAG
1070
     1
1071
      109
1005
132713
  0
LINE
  5
132714
  8
OBJECT
 10
279.00000000000159
 20
-961.99999999998545
 30
0.0
 11
274.50000000000159
 21
-957.99999999998545
 31
0.0
1001
ACDBBLOCKREPETAG
1070
     1
1071
      110
1005
132714
  0
LINE
  5
132715
  8
OBJECT
 10
161.00000000000159
 20
-961.99999999998545
 30
0.0
 11
165.50000000000159
 21
-957.99999999998545
 31
0.0
1001
ACDBBLOCKREPETAG
1070
     1
1071
      111
1005
132715
  0
LINE
  5
132716
  8
OBJECT
 10
282.00000000000171
 20
-868.0000000000008
 30
0.0
 11
282.00000000000171
 21
-865.0
 31
0.0
1001
ACDBBLOCKREPETAG
1070
     1
1071
      112
1005
132716
  0
ARC
  5
132717
  8
OBJECT
 10
279.00000000000159
 20
-868.0000000000008
 30
0.0
 40
3.0
 50
270.0
 51
0.0
1001
ACDBBLOCKREPETAG
1070
     1
1071
      113
1005
132717
  0
LINE
  5
132718
  8
OBJECT
 10
158.00000000000159
 20
-865.0
 30
0.0
 11
158.00000000000159
 21
-867.99999999999898
 31
0.0
1001
ACDBBLOCKREPETAG
1070
     1
1071
      114
1005
132718
  0
ARC
  5
132719
  8
OBJECT
 10
161.00000000000159
 20
-867.99999999999898
 30
0.0
 40
3.0
 50
180.0
 51
270.0
1001
ACDBBLOCKREPETAG
1070
     1
1071
      115
1005
132719
  0
LINE
  5
13271A
  8
OBJECT
 10
161.00000000000159
 20
-870.99999999999909
 30
0.0
 11
197.5500556793647
 21
-871.0
 31
0.0
1001
ACDBBLOCKREPETAG
1070
     1
1071
      116
1005
13271A
  0
LINE
  5
13271B
  8
OBJECT
 10
242.44994432064209
 20
-871.00000000000091
 30
0.0
 11
279.00000000000159
 21
-871.00000000000091
 31
0.0
1001
ACDBBLOCKREPETAG
1070
     1
1071
      117
1005
13271B
  0
LINE
  5
13271C
  8
OBJECT
 10
165.50004907619021
 20
-944.99997496418655
 30
0.0
 11
274.50004907619012
 21
-944.99997496418655
 31
0.0
1001
ACDBBLOCKREPETAG
1070
     1
1071
      119
1005
13271C
  0
ARC
  5
13271D
  8
OBJECT
 10
220.00000000000159
 20
-910.00000000000352
 30
0.0
 40
45.000000000000547
 50
0.0
 51
180.0
1001
ACDBBLOCKREPETAG
1070
     1
1071
      120
1005
13271D
  0
INSERT
  5
13271E
  8
OBJECT
  2
*U6
 10
0.0
 20
0.0
 30
0.0
  0
LINE
  5
13271F
  8
HIDDEN
 10
261.4214656426355
 20
-952.99999999998545
 30
0.0
 11
172.4214656426355
 21
-952.99999999998545
 31
0.0
1001
ACDBBLOCKREPETAG
1070
     1
1071
      432
1005
13271F
  0
LINE
  5
132720
  8
OBJECT
 10
303.00000000000171
 20
-847.0
 30
0.0
 11
300.00000000000159
 21
-847.0
 31
0.0
1001
ACDBBLOCKREPETAG
1070
     1
1071
      418
1005
132720
  0
ARC
  5
132721
  8
OBJECT
 10
303.00000000000171
 20
-844.0
 30
0.0
 40
3.0
 50
270.0
 51
0.0
1001
ACDBBLOCKREPETAG
1070
     1
1071
      419
1005
132721
  0
LINE
  5
132722
  8
OBJECT
 10
300.00000000000159
 20
-723.0
 30
0.0
 11
303.00000000000171
 21
-723.0
 31
0.0
1001
ACDBBLOCKREPETAG
1070
     1
1071
      420
1005
132722
  0
ARC
  5
132723
  8
OBJECT
 10
303.00000000000171
 20
-726.0
 30
0.0
 40
3.0
 50
0.0
 51
90.0
1001
ACDBBLOCKREPETAG
1070
     1
1071
      421
1005
132723
  0
LINE
  5
132724
  8
OBJECT
 10
306.00000000000159
 20
-726.0
 30
0.0
 11
306.00000000000159
 21
-844.0
 31
0.0
1001
ACDBBLOCKREPETAG
1070
     1
1071
      422
1005
132724
  0
INSERT
  5
132725
  8
OBJECT
  2
*U7
 10
0.0
 20
0.0
 30
0.0
  0
LINE
  5
132726
  8
OBJECT
 10
173.00000000000159
 20
-72.0
 30
0.0
 11
173.00000000000159
 21
-65.0
 31
0.0
1001
ACDBBLOCKREPETAG
1070
     1
1071
        1
1005
132726
  0
LINE
  5
132727
  8
OBJECT
 10
173.00000000000159
 20
-65.0
 30
0.0
 11
267.00000000000159
 21
-65.0
 31
0.0
1001
ACDBBLOCKREPETAG
1070
     1
1071
        2
1005
132727
  0
LINE
  5
132728
  8
OBJECT
 10
267.00000000000159
 20
-65.0
 30
0.0
 11
267.00000000000159
 21
-72.0
 31
0.0
1001
ACDBBLOCKREPETAG
1070
     1
1071
        3
1005
132728
  0
LINE
  5
132729
  8
OBJECT
 10
267.00000000000159
 20
-72.0
 30
0.0
 11
173.00000000000159
 21
-72.0
 31
0.0
1001
ACDBBLOCKREPETAG
1070
     1
1071
        4
1005
132729
  0
LINE
  5
13272A
  8
OBJECT
 10
176.00000000000159
 20
-72.0
 30
0.0
 11
176.00000000000159
 21
-108.0
 31
0.0
1001
ACDBBLOCKREPETAG
1070
     1
1071
        5
1005
13272A
  0
LINE
  5
13272B
  8
OBJECT
 10
176.00000000000159
 20
-108.0
 30
0.0
 11
264.00000000000159
 21
-108.0
 31
0.0
1001
ACDBBLOCKREPETAG
1070
     1
1071
        6
1005
13272B
  0
LINE
  5
13272C
  8
OBJECT
 10
264.00000000000159
 20
-108.0
 30
0.0
 11
264.00000000000159
 21
-72.0
 31
0.0
1001
ACDBBLOCKREPETAG
1070
     1
1071
        7
1005
13272C
  0
LINE
  5
13272D
  8
OBJECT
 10
180.50000000000159
 20
-112.0
 30
0.0
 11
180.50000000000159
 21
-119.0
 31
0.0
1001
ACDBBLOCKREPETAG
1070
     1
1071
        8
1005
13272D
  0
LINE
  5
13272E
  8
OBJECT
 10
259.50000000000159
 20
-119.0
 30
0.0
 11
259.50000000000159
 21
-112.0
 31
0.0
1001
ACDBBLOCKREPETAG
1070
     1
1071
        9
1005
13272E
  0
LINE
  5
13272F
  8
OBJECT
 10
259.50000000000159
 20
-112.0
 30
0.0
 11
180.50000000000159
 21
-112.0
 31
0.0
1001
ACDBBLOCKREPETAG
1070
     1
1071
       10
1005
13272F
  0
LINE
  5
132730
  8
OBJECT
 10
176.00000000000159
 20
-108.0
 30
0.0
 11
180.50000000000159
 21
-112.0
 31
0.0
1001
ACDBBLOCKREPETAG
1070
     1
1071
       11
1005
132730
  0
LINE
  5
132731
  8
OBJECT
 10
264.00000000000159
 20
-108.0
 30
0.0
 11
259.50000000000159
 21
-112.0
 31
0.0
1001
ACDBBLOCKREPETAG
1070
     1
1071
       12
1005
132731
  0
LINE
  5
132732
  8
OBJECT
 10
158.00000000000159
 20
-121.9999999999991
 30
0.0
 11
158.00000000000159
 21
-125.0
 31
0.0
1001
ACDBBLOCKREPETAG
1070
     1
1071
       13
1005
132732
  0
ARC
  5
132733
  8
OBJECT
 10
161.00000000000159
 20
-121.9999999999991
 30
0.0
 40
3.0
 50
90.0
 51
180.0
1001
ACDBBLOCKREPETAG
1070
     1
1071
       14
1005
132733
  0
LINE
  5
132734
  8
OBJECT
 10
282.00000000000171
 20
-125.0
 30
0.0
 11
282.00000000000171
 21
-122.0000000000009
 31
0.0
1001
ACDBBLOCKREPETAG
1070
     1
1071
       15
1005
132734
  0
ARC
  5
132735
  8
OBJECT
 10
279.00000000000159
 20
-122.0000000000009
 30
0.0
 40
3.0
 50
0.0
 51
90.0
1001
ACDBBLOCKREPETAG
1070
     1
1071
       16
1005
132735
  0
LINE
  5
132736
  8
OBJECT
 10
279.00000000000159
 20
-119.0000000000009
 30
0.0
 11
161.00000000000159
 21
-118.9999999999991
 31
0.0
1001
ACDBBLOCKREPETAG
1070
     1
1071
       17
1005
132736
  0
LINE
  5
132737
  8
HIDDEN
 10
190.00000000000159
 20
-117.0
 30
0.0
 11
250.00000000000159
 21
-117.0
 31
0.0
1001
ACDBBLOCKREPETAG
1070
     1
1071
      420
1005
132737
  0
LINE
  5
132738
  8
OBJECT
 10
282.00000000000171
 20
-417.99999999998528
 30
0.0
 11
282.00000000000171
 21
-424.99999999998528
 31
0.0
1001
ACDBBLOCKREPETAG
1070
     1
1071
       98
1005
132738
  0
LINE
  5
132739
  8
OBJECT
 10
282.00000000000171
 20
-424.99999999998528
 30
0.0
 11
158.00000000000159
 21
-424.99999999998528
 31
0.0
1001
ACDBBLOCKREPETAG
1070
     1
1071
       99
1005
132739
  0
LINE
  5
13273A
  8
OBJECT
 10
158.00000000000159
 20
-424.99999999998528
 30
0.0
 11
158.00000000000159
 21
-417.99999999998528
 31
0.0
1001
ACDBBLOCKREPETAG
1070
     1
1071
      100
1005
13273A
  0
LINE
  5
13273B
  8
OBJECT
 10
158.00000000000159
 20
-417.99999999998528
 30
0.0
 11
282.00000000000171
 21
-417.99999999998528
 31
0.0
1001
ACDBBLOCKREPETAG
1070
     1
1071
      101
1005
13273B
  0
LINE
  5
13273C
  8
OBJECT
 10
174.99999999999801
 20
-364.99997496418661
 30
0.0
 11
175.00000000000159
 21
-290.99999999999898
 31
0.0
1001
ACDBBLOCKREPETAG
1070
     1
1071
      102
1005
13273C
  0
LINE
  5
13273D
  8
OBJECT
 10
265.00000000000159
 20
-364.99997496418661
 30
0.0
 11
265.00000000000159
 21
-291.00000000000091
 31
0.0
1001
ACDBBLOCKREPETAG
1070
     1
1071
      103
1005
13273D
  0
LINE
  5
13273E
  8
OBJECT
 10
279.00000000000159
 20
-417.99999999998528
 30
0.0
 11
279.00000000000159
 21
-381.99999999998528
 31
0.0
1001
ACDBBLOCKREPETAG
1070
     1
1071
      104
1005
13273E
  0
LINE
  5
13273F
  8
OBJECT
 10
279.00000000000159
 20
-381.99999999998528
 30
0.0
 11
161.00000000000159
 21
-381.99999999998528
 31
0.0
1001
ACDBBLOCKREPETAG
1070
     1
1071
      105
1005
13273F
  0
LINE
  5
132740
  8
OBJECT
 10
161.00000000000159
 20
-381.99999999998528
 30
0.0
 11
161.00000000000159
 21
-417.99999999998528
 31
0.0
1001
ACDBBLOCKREPETAG
1070
     1
1071
      106
1005
132740
  0
LINE
  5
132741
  8
OBJECT
 10
274.50000000000159
 20
-377.9999999999855
 30
0.0
 11
274.50000000000159
 21
-364.9999999999855
 31
0.0
1001
ACDBBLOCKREPETAG
1070
     1
1071
      107
1005
132741
  0
LINE
  5
132742
  8
OBJECT
 10
165.50000000000159
 20
-364.9999999999855
 30
0.0
 11
165.50000000000159
 21
-377.9999999999855
 31
0.0
1001
ACDBBLOCKREPETAG
1070
     1
1071
      108
1005
132742
  0
LINE
  5
132743
  8
OBJECT
 10
165.50000000000159
 20
-377.9999999999855
 30
0.0
 11
274.50000000000159
 21
-377.9999999999855
 31
0.0
1001
ACDBBLOCKREPETAG
1070
     1
1071
      109
1005
132743
  0
LINE
  5
132744
  8
OBJECT
 10
279.00000000000159
 20
-381.99999999998528
 30
0.0
 11
274.50000000000159
 21
-377.9999999999855
 31
0.0
1001
ACDBBLOCKREPETAG
1070
     1
1071
      110
1005
132744
  0
LINE
  5
132745
  8
OBJECT
 10
161.00000000000159
 20
-381.99999999998528
 30
0.0
 11
165.50000000000159
 21
-377.9999999999855
 31
0.0
1001
ACDBBLOCKREPETAG
1070
     1
1071
      111
1005
132745
  0
LINE
  5
132746
  8
OBJECT
 10
282.00000000000171
 20
-288.00000000000091
 30
0.0
 11
282.00000000000171
 21
-285.0
 31
0.0
1001
ACDBBLOCKREPETAG
1070
     1
1071
      112
1005
132746
  0
ARC
  5
132747
  8
OBJECT
 10
279.00000000000159
 20
-288.00000000000091
 30
0.0
 40
3.0
 50
270.0
 51
0.0
1001
ACDBBLOCKREPETAG
1070
     1
1071
      113
1005
132747
  0
LINE
  5
132748
  8
OBJECT
 10
158.00000000000159
 20
-285.0
 30
0.0
 11
158.00000000000159
 21
-287.99999999999909
 31
0.0
1001
ACDBBLOCKREPETAG
1070
     1
1071
      114
1005
132748
  0
ARC
  5
132749
  8
OBJECT
 10
161.00000000000159
 20
-287.99999999999909
 30
0.0
 40
3.0
 50
180.0
 51
270.0
1001
ACDBBLOCKREPETAG
1070
     1
1071
      115
1005
132749
  0
LINE
  5
13274A
  8
OBJECT
 10
161.00000000000159
 20
-290.99999999999898
 30
0.0
 11
197.5500556793647
 21
-291.0
 31
0.0
1001
ACDBBLOCKREPETAG
1070
     1
1071
      116
1005
13274A
  0
LINE
  5
13274B
  8
OBJECT
 10
242.44994432064209
 20
-291.00000000000091
 30
0.0
 11
279.00000000000159
 21
-291.00000000000091
 31
0.0
1001
ACDBBLOCKREPETAG
1070
     1
1071
      117
1005
13274B
  0
LINE
  5
13274C
  8
OBJECT
 10
165.50004907619021
 20
-364.99997496418661
 30
0.0
 11
274.50004907619012
 21
-364.99997496418661
 31
0.0
1001
ACDBBLOCKREPETAG
1070
     1
1071
      119
1005
13274C
  0
ARC
  5
13274D
  8
OBJECT
 10
220.00000000000159
 20
-330.00000000000358
 30
0.0
 40
45.000000000000547
 50
0.0
 51
180.0
1001
ACDBBLOCKREPETAG
1070
     1
1071
      120
1005
13274D
  0
INSERT
  5
13274E
  8
OBJECT
  2
*U8
 10
0.0
 20
0.0
 30
0.0
  0
LINE
  5
13274F
  8
HIDDEN
 10
261.4214656426355
 20
-372.9999999999855
 30
0.0
 11
172.4214656426355
 21
-372.9999999999855
 31
0.0
1001
ACDBBLOCKREPETAG
1070
     1
1071
      432
1005
13274F
  0
LINE
  5
132750
  8
OBJECT
 10
303.00000000000171
 20
-267.0
 30
0.0
 11
300.00000000000159
 21
-267.0
 31
0.0
1001
ACDBBLOCKREPETAG
1070
     1
1071
      418
1005
132750
  0
ARC
  5
132751
  8
OBJECT
 10
303.00000000000171
 20
-264.0
 30
0.0
 40
3.0
 50
270.0
 51
0.0
1001
ACDBBLOCKREPETAG
1070
     1
1071
      419
1005
132751
  0
LINE
  5
132752
  8
OBJECT
 10
300.00000000000159
 20
-143.0
 30
0.0
 11
303.00000000000171
 21
-143.0
 31
0.0
1001
ACDBBLOCKREPETAG
1070
     1
1071
      420
1005
132752
  0
ARC
  5
132753
  8
OBJECT
 10
303.00000000000171
 20
-146.0
 30
0.0
 40
3.0
 50
0.0
 51
90.0
1001
ACDBBLOCKREPETAG
1070
     1
1071
      421
1005
132753
  0
LINE
  5
132754
  8
OBJECT
 10
306.00000000000159
 20
-146.0
 30
0.0
 11
306.00000000000159
 21
-264.0
 31
0.0
1001
ACDBBLOCKREPETAG
1070
     1
1071
      422
1005
132754
  0
INSERT
  5
132755
  8
OBJECT
  2
*U9
 10
0.0
 20
0.0
 30
0.0
  0
LINE
  5
132756
  8
OBJECT
 10
615.00000000000159
 20
-72.0
 30
0.0
 11
615.00000000000159
 21
-65.0
 31
0.0
1001
ACDBBLOCKREPETAG
1070
     1
1071
       20
1005
132756
  0
LINE
  5
132757
  8
OBJECT
 10
615.00000000000159
 20
-65.0
 30
0.0
 11
725.00000000000159
 21
-65.0
 31
0.0
1001
ACDBBLOCKREPETAG
1070
     1
1071
       21
1005
132757
  0
LINE
  5
132758
  8
OBJECT
 10
725.00000000000159
 20
-65.0
 30
0.0
 11
725.00000000000159
 21
-72.0
 31
0.0
1001
ACDBBLOCKREPETAG
1070
     1
1071
       22
1005
132758
  0
LINE
  5
132759
  8
OBJECT
 10
725.00000000000159
 20
-72.0
 30
0.0
 11
615.00000000000159
 21
-72.0
 31
0.0
1001
ACDBBLOCKREPETAG
1070
     1
1071
       23
1005
132759
  0
LINE
  5
13275A
  8
OBJECT
 10
618.00000000000136
 20
-72.0
 30
0.0
 11
618.00000000000136
 21
-108.0
 31
0.0
1001
ACDBBLOCKREPETAG
1070
     1
1071
       24
1005
13275A
  0
LINE
  5
13275B
  8
OBJECT
 10
618.00000000000136
 20
-108.0
 30
0.0
 11
722.00000000000171
 21
-108.0
 31
0.0
1001
ACDBBLOCKREPETAG
1070
     1
1071
       25
1005
13275B
  0
LINE
  5
13275C
  8
OBJECT
 10
722.00000000000171
 20
-108.0
 30
0.0
 11
722.00000000000171
 21
-72.0
 31
0.0
1001
ACDBBLOCKREPETAG
1070
     1
1071
       26
1005
13275C
  0
LINE
  5
13275D
  8
OBJECT
 10
622.50000000000136
 20
-112.0
 30
0.0
 11
622.50000000000136
 21
-119.0
 31
0.0
1001
ACDBBLOCKREPETAG
1070
     1
1071
       27
1005
13275D
  0
LINE
  5
13275E
  8
OBJECT
 10
717.50000000000136
 20
-119.0
 30
0.0
 11
717.50000000000136
 21
-112.0
 31
0.0
1001
ACDBBLOCKREPETAG
1070
     1
1071
       28
1005
13275E
  0
LINE
  5
13275F
  8
OBJECT
 10
717.50000000000136
 20
-112.0
 30
0.0
 11
622.50000000000136
 21
-112.0
 31
0.0
1001
ACDBBLOCKREPETAG
1070
     1
1071
       29
1005
13275F
  0
LINE
  5
132760
  8
OBJECT
 10
618.00000000000136
 20
-108.0
 30
0.0
 11
622.50000000000136
 21
-112.0
 31
0.0
1001
ACDBBLOCKREPETAG
1070
     1
1071
       30
1005
132760
  0
LINE
  5
132761
  8
OBJECT
 10
722.00000000000171
 20
-108.0
 30
0.0
 11
717.50000000000136
 21
-112.0
 31
0.0
1001
ACDBBLOCKREPETAG
1070
     1
1071
       31
1005
132761
  0
LINE
  5
132762
  8
OBJECT
 10
608.00000000000159
 20
-121.9999999999991
 30
0.0
 11
608.00000000000159
 21
-125.0
 31
0.0
1001
ACDBBLOCKREPETAG
1070
     1
1071
       32
1005
132762
  0
ARC
  5
132763
  8
OBJECT
 10
611.00000000000159
 20
-121.9999999999991
 30
0.0
 40
3.0
 50
90.0
 51
180.0
1001
ACDBBLOCKREPETAG
1070
     1
1071
       33
1005
132763
  0
LINE
  5
132764
  8
OBJECT
 10
732.00000000000171
 20
-125.0
 30
0.0
 11
732.00000000000171
 21
-122.0000000000009
 31
0.0
1001
ACDBBLOCKREPETAG
1070
     1
1071
       34
1005
132764
  0
ARC
  5
132765
  8
OBJECT
 10
729.00000000000159
 20
-122.0000000000009
 30
0.0
 40
3.0
 50
0.0
 51
90.0
1001
ACDBBLOCKREPETAG
1070
     1
1071
       35
1005
132765
  0
LINE
  5
132766
  8
OBJECT
 10
729.00000000000159
 20
-119.0000000000009
 30
0.0
 11
611.00000000000159
 21
-118.9999999999991
 31
0.0
1001
ACDBBLOCKREPETAG
1070
     1
1071
       36
1005
132766
  0
LINE
  5
132767
  8
HIDDEN
 10
632.00000000000159
 20
-117.0
 30
0.0
 11
708.00000000000159
 21
-117.0
 31
0.0
1001
ACDBBLOCKREPETAG
1070
     1
1071
      423
1005
132767
  0
LINE
  5
132768
  8
OBJECT
 10
732.00000000000171
 20
-417.99999999998528
 30
0.0
 11
732.00000000000171
 21
-424.99999999998528
 31
0.0
1001
ACDBBLOCKREPETAG
1070
     1
1071
       98
1005
132768
  0
LINE
  5
132769
  8
OBJECT
 10
732.00000000000171
 20
-424.99999999998528
 30
0.0
 11
608.00000000000159
 21
-424.99999999998528
 31
0.0
1001
ACDBBLOCKREPETAG
1070
     1
1071
       99
1005
132769
  0
LINE
  5
13276A
  8
OBJECT
 10
608.00000000000159
 20
-424.99999999998528
 30
0.0
 11
608.00000000000159
 21
-417.99999999998528
 31
0.0
1001
ACDBBLOCKREPETAG
1070
     1
1071
      100
1005
13276A
  0
LINE
  5
13276B
  8
OBJECT
 10
608.00000000000159
 20
-417.99999999998528
 30
0.0
 11
732.00000000000171
 21
-417.99999999998528
 31
0.0
1001
ACDBBLOCKREPETAG
1070
     1
1071
      101
1005
13276B
  0
LINE
  5
13276C
  8
OBJECT
 10
624.99999999999795
 20
-364.99997496418661
 30
0.0
 11
625.00000000000148
 21
-290.99999999999898
 31
0.0
1001
ACDBBLOCKREPETAG
1070
     1
1071
      102
1005
13276C
  0
LINE
  5
13276D
  8
OBJECT
 10
715.00000000000171
 20
-364.99997496418661
 30
0.0
 11
715.00000000000171
 21
-291.00000000000091
 31
0.0
1001
ACDBBLOCKREPETAG
1070
     1
1071
      103
1005
13276D
  0
LINE
  5
13276E
  8
OBJECT
 10
729.00000000000159
 20
-417.99999999998528
 30
0.0
 11
729.00000000000159
 21
-381.99999999998528
 31
0.0
1001
ACDBBLOCKREPETAG
1070
     1
1071
      104
1005
13276E
  0
LINE
  5
13276F
  8
OBJECT
 10
729.00000000000159
 20
-381.99999999998528
 30
0.0
 11
611.00000000000159
 21
-381.99999999998528
 31
0.0
1001
ACDBBLOCKREPETAG
1070
     1
1071
      105
1005
13276F
  0
LINE
  5
132770
  8
OBJECT
 10
611.00000000000159
 20
-381.99999999998528
 30
0.0
 11
611.00000000000159
 21
-417.99999999998528
 31
0.0
1001
ACDBBLOCKREPETAG
1070
     1
1071
      106
1005
132770
  0
LINE
  5
132771
  8
OBJECT
 10
724.50000000000159
 20
-377.9999999999855
 30
0.0
 11
724.50000000000159
 21
-364.9999999999855
 31
0.0
1001
ACDBBLOCKREPETAG
1070
     1
1071
      107
1005
132771
  0
LINE
  5
132772
  8
OBJECT
 10
615.50000000000159
 20
-364.9999999999855
 30
0.0
 11
615.50000000000159
 21
-377.9999999999855
 31
0.0
1001
ACDBBLOCKREPETAG
1070
     1
1071
      108
1005
132772
  0
LINE
  5
132773
  8
OBJECT
 10
615.50000000000159
 20
-377.9999999999855
 30
0.0
 11
724.50000000000159
 21
-377.9999999999855
 31
0.0
1001
ACDBBLOCKREPETAG
1070
     1
1071
      109
1005
132773
  0
LINE
  5
132774
  8
OBJECT
 10
729.00000000000159
 20
-381.99999999998528
 30
0.0
 11
724.50000000000159
 21
-377.9999999999855
 31
0.0
1001
ACDBBLOCKREPETAG
1070
     1
1071
      110
1005
132774
  0
LINE
  5
132775
  8
OBJECT
 10
611.00000000000159
 20
-381.99999999998528
 30
0.0
 11
615.50000000000159
 21
-377.9999999999855
 31
0.0
1001
ACDBBLOCKREPETAG
1070
     1
1071
      111
1005
132775
  0
LINE
  5
132776
  8
OBJECT
 10
732.00000000000171
 20
-288.00000000000091
 30
0.0
 11
732.00000000000171
 21
-285.0
 31
0.0
1001
ACDBBLOCKREPETAG
1070
     1
1071
      112
1005
132776
  0
ARC
  5
132777
  8
OBJECT
 10
729.00000000000159
 20
-288.00000000000091
 30
0.0
 40
3.0
 50
270.0
 51
0.0
1001
ACDBBLOCKREPETAG
1070
     1
1071
      113
1005
132777
  0
LINE
  5
132778
  8
OBJECT
 10
608.00000000000159
 20
-285.0
 30
0.0
 11
608.00000000000159
 21
-287.99999999999909
 31
0.0
1001
ACDBBLOCKREPETAG
1070
     1
1071
      114
1005
132778
  0
ARC
  5
132779
  8
OBJECT
 10
611.00000000000159
 20
-287.99999999999909
 30
0.0
 40
3.0
 50
180.0
 51
270.0
1001
ACDBBLOCKREPETAG
1070
     1
1071
      115
1005
132779
  0
LINE
  5
13277A
  8
OBJECT
 10
611.00000000000159
 20
-290.99999999999898
 30
0.0
 11
647.55005567936473
 21
-291.0
 31
0.0
1001
ACDBBLOCKREPETAG
1070
     1
1071
      116
1005
13277A
  0
LINE
  5
13277B
  8
OBJECT
 10
692.44994432064186
 20
-291.00000000000091
 30
0.0
 11
729.00000000000159
 21
-291.00000000000091
 31
0.0
1001
ACDBBLOCKREPETAG
1070
     1
1071
      117
1005
13277B
  0
LINE
  5
13277C
  8
OBJECT
 10
615.50004907618995
 20
-364.99997496418661
 30
0.0
 11
724.50004907619018
 21
-364.99997496418661
 31
0.0
1001
ACDBBLOCKREPETAG
1070
     1
1071
      119
1005
13277C
  0
ARC
  5
13277D
  8
OBJECT
 10
670.00000000000159
 20
-330.00000000000358
 30
0.0
 40
45.000000000000547
 50
0.0
 51
180.0
1001
ACDBBLOCKREPETAG
1070
     1
1071
      120
1005
13277D
  0
INSERT
  5
13277E
  8
OBJECT
  2
*U10
 10
0.0
 20
0.0
 30
0.0
  0
LINE
  5
13277F
  8
HIDDEN
 10
711.42146564263533
 20
-372.9999999999855
 30
0.0
 11
622.42146564263533
 21
-372.9999999999855
 31
0.0
1001
ACDBBLOCKREPETAG
1070
     1
1071
      432
1005
13277F
  0
LINE
  5
132780
  8
OBJECT
 10
753.00000000000171
 20
-267.0
 30
0.0
 11
750.00000000000159
 21
-267.0
 31
0.0
1001
ACDBBLOCKREPETAG
1070
     1
1071
      418
1005
132780
  0
ARC
  5
132781
  8
OBJECT
 10
753.00000000000171
 20
-264.0
 30
0.0
 40
3.0
 50
270.0
 51
0.0
1001
ACDBBLOCKREPETAG
1070
     1
1071
      419
1005
132781
  0
LINE
  5
132782
  8
OBJECT
 10
750.00000000000159
 20
-143.0
 30
0.0
 11
753.00000000000171
 21
-143.0
 31
0.0
1001
ACDBBLOCKREPETAG
1070
     1
1071
      420
1005
132782
  0
ARC
  5
132783
  8
OBJECT
 10
753.00000000000171
 20
-146.0
 30
0.0
 40
3.0
 50
0.0
 51
90.0
1001
ACDBBLOCKREPETAG
1070
     1
1071
      421
1005
132783
  0
LINE
  5
132784
  8
OBJECT
 10
756.00000000000171
 20
-146.0
 30
0.0
 11
756.00000000000171
 21
-264.0
 31
0.0
1001
ACDBBLOCKREPETAG
1070
     1
1071
      422
1005
132784
  0
LINE
  5
132785
  8
OBJECT
 10
595.00000000000159
 20
-635.0
 30
0.0
 11
595.00000000000159
 21
-642.0
 31
0.0
1001
ACDBBLOCKREPETAG
1070
     1
1071
       57
1005
132785
  0
LINE
  5
132786
  8
OBJECT
 10
595.00000000000159
 20
-642.0
 30
0.0
 11
745.00000000000171
 21
-642.0
 31
0.0
1001
ACDBBLOCKREPETAG
1070
     1
1071
       58
1005
132786
  0
LINE
  5
132787
  8
OBJECT
 10
598.00000000000159
 20
-683.49999999999989
 30
0.0
 11
742.00000000000159
 21
-683.49999999999989
 31
0.0
1001
ACDBBLOCKREPETAG
1070
     1
1071
       59
1005
132787
  0
LINE
  5
132788
  8
OBJECT
 10
604.50000000000148
 20
-695.0
 30
0.0
 11
735.50000000000171
 21
-695.0
 31
0.0
1001
ACDBBLOCKREPETAG
1070
     1
1071
       60
1005
132788
  0
LINE
  5
132789
  8
OBJECT
 10
745.00000000000171
 20
-642.0
 30
0.0
 11
745.00000000000171
 21
-635.0
 31
0.0
1001
ACDBBLOCKREPETAG
1070
     1
1071
       61
1005
132789
  0
LINE
  5
13278A
  8
OBJECT
 10
745.00000000000171
 20
-635.0
 30
0.0
 11
595.00000000000159
 21
-635.0
 31
0.0
1001
ACDBBLOCKREPETAG
1070
     1
1071
       62
1005
13278A
  0
LINE
  5
13278B
  8
OBJECT
 10
732.00000000000171
 20
-699.0
 30
0.0
 11
732.00000000000171
 21
-705.0
 31
0.0
1001
ACDBBLOCKREPETAG
1070
     1
1071
       63
1005
13278B
  0
LINE
  5
13278C
  8
OBJECT
 10
742.00000000000159
 20
-642.0
 30
0.0
 11
742.00000000000159
 21
-683.49999999999989
 31
0.0
1001
ACDBBLOCKREPETAG
1070
     1
1071
       64
1005
13278C
  0
LINE
  5
13278D
  8
OBJECT
 10
742.00000000000159
 20
-683.49999999999989
 30
0.0
 11
735.50000000000171
 21
-695.0
 31
0.0
1001
ACDBBLOCKREPETAG
1070
     1
1071
       65
1005
13278D
  0
LINE
  5
13278E
  8
OBJECT
 10
735.50000000000171
 20
-695.0
 30
0.0
 11
732.00000000000171
 21
-699.0
 31
0.0
1001
ACDBBLOCKREPETAG
1070
     1
1071
       66
1005
13278E
  0
LINE
  5
13278F
  8
OBJECT
 10
598.00000000000159
 20
-683.49999999999989
 30
0.0
 11
604.50000000000148
 21
-695.0
 31
0.0
1001
ACDBBLOCKREPETAG
1070
     1
1071
       67
1005
13278F
  0
LINE
  5
132790
  8
OBJECT
 10
604.50000000000148
 20
-695.0
 30
0.0
 11
608.00000000000159
 21
-699.0
 31
0.0
1001
ACDBBLOCKREPETAG
1070
     1
1071
       68
1005
132790
  0
ARC
  5
132791
  8
OBJECT
 10
670.00000000000159
 20
-317.0999999999986
 30
0.0
 40
386.89999999999998
 50
260.77870136257951
 51
279.22129863742049
1001
ACDBBLOCKREPETAG
1070
     1
1071
       69
1005
132791
  0
LINE
  5
132792
  8
OBJECT
 10
608.00000000000159
 20
-699.0
 30
0.0
 11
608.00000000000159
 21
-705.0
 31
0.0
1001
ACDBBLOCKREPETAG
1070
     1
1071
       70
1005
132792
  0
LINE
  5
132793
  8
OBJECT
 10
598.00000000000159
 20
-642.0
 30
0.0
 11
598.00000000000159
 21
-683.49999999999989
 31
0.0
1001
ACDBBLOCKREPETAG
1070
     1
1071
       71
1005
132793
  0
INSERT
  5
132794
  8
OBJECT
  2
*U11
 10
0.0
 20
0.0
 30
0.0
  0
LINE
  5
132795
  8
HIDDEN
 10
727.00000000000171
 20
-687.0
 30
0.0
 11
613.00000000000136
 21
-687.0
 31
0.0
1001
ACDBBLOCKREPETAG
1070
     1
1071
      431
1005
132795
  0
LINE
  5
132796
  8
OBJECT
 10
732.00000000000171
 20
-997.99999999998545
 30
0.0
 11
732.00000000000171
 21
-1004.999999999985
 31
0.0
1001
ACDBBLOCKREPETAG
1070
     1
1071
       98
1005
132796
  0
LINE
  5
132797
  8
OBJECT
 10
732.00000000000171
 20
-1004.999999999985
 30
0.0
 11
608.00000000000159
 21
-1004.999999999985
 31
0.0
1001
ACDBBLOCKREPETAG
1070
     1
1071
       99
1005
132797
  0
LINE
  5
132798
  8
OBJECT
 10
608.00000000000159
 20
-1004.999999999985
 30
0.0
 11
608.00000000000159
 21
-997.99999999998545
 31
0.0
1001
ACDBBLOCKREPETAG
1070
     1
1071
      100
1005
132798
  0
LINE
  5
132799
  8
OBJECT
 10
608.00000000000159
 20
-997.99999999998545
 30
0.0
 11
732.00000000000171
 21
-997.99999999998545
 31
0.0
1001
ACDBBLOCKREPETAG
1070
     1
1071
      101
1005
132799
  0
LINE
  5
13279A
  8
OBJECT
 10
624.99999999999795
 20
-944.99997496418655
 30
0.0
 11
625.00000000000148
 21
-870.99999999999909
 31
0.0
1001
ACDBBLOCKREPETAG
1070
     1
1071
      102
1005
13279A
  0
LINE
  5
13279B
  8
OBJECT
 10
715.00000000000171
 20
-944.99997496418655
 30
0.0
 11
715.00000000000171
 21
-871.00000000000091
 31
0.0
1001
ACDBBLOCKREPETAG
1070
     1
1071
      103
1005
13279B
  0
LINE
  5
13279C
  8
OBJECT
 10
729.00000000000159
 20
-997.99999999998545
 30
0.0
 11
729.00000000000159
 21
-961.99999999998545
 31
0.0
1001
ACDBBLOCKREPETAG
1070
     1
1071
      104
1005
13279C
  0
LINE
  5
13279D
  8
OBJECT
 10
729.00000000000159
 20
-961.99999999998545
 30
0.0
 11
611.00000000000159
 21
-961.99999999998545
 31
0.0
1001
ACDBBLOCKREPETAG
1070
     1
1071
      105
1005
13279D
  0
LINE
  5
13279E
  8
OBJECT
 10
611.00000000000159
 20
-961.99999999998545
 30
0.0
 11
611.00000000000159
 21
-997.99999999998545
 31
0.0
1001
ACDBBLOCKREPETAG
1070
     1
1071
      106
1005
13279E
  0
LINE
  5
13279F
  8
OBJECT
 10
724.50000000000159
 20
-957.99999999998545
 30
0.0
 11
724.50000000000159
 21
-944.99999999998545
 31
0.0
1001
ACDBBLOCKREPETAG
1070
     1
1071
      107
1005
13279F
  0
LINE
  5
1327A0
  8
OBJECT
 10
615.50000000000159
 20
-944.99999999998545
 30
0.0
 11
615.50000000000159
 21
-957.99999999998545
 31
0.0
1001
ACDBBLOCKREPETAG
1070
     1
1071
      108
1005
1327A0
  0
LINE
  5
1327A1
  8
OBJECT
 10
615.50000000000159
 20
-957.99999999998545
 30
0.0
 11
724.50000000000159
 21
-957.99999999998545
 31
0.0
1001
ACDBBLOCKREPETAG
1070
     1
1071
      109
1005
1327A1
  0
LINE
  5
1327A2
  8
OBJECT
 10
729.00000000000159
 20
-961.99999999998545
 30
0.0
 11
724.50000000000159
 21
-957.99999999998545
 31
0.0
1001
ACDBBLOCKREPETAG
1070
     1
1071
      110
1005
1327A2
  0
LINE
  5
1327A3
  8
OBJECT
 10
611.00000000000159
 20
-961.99999999998545
 30
0.0
 11
615.50000000000159
 21
-957.99999999998545
 31
0.0
1001
ACDBBLOCKREPETAG
1070
     1
1071
      111
1005
1327A3
  0
LINE
  5
1327A4
  8
OBJECT
 10
732.00000000000171
 20
-868.0000000000008
 30
0.0
 11
732.00000000000171
 21
-865.0
 31
0.0
1001
ACDBBLOCKREPETAG
1070
     1
1071
      112
1005
1327A4
  0
ARC
  5
1327A5
  8
OBJECT
 10
729.00000000000159
 20
-868.0000000000008
 30
0.0
 40
3.0
 50
270.0
 51
0.0
1001
ACDBBLOCKREPETAG
1070
     1
1071
      113
1005
1327A5
  0
LINE
  5
1327A6
  8
OBJECT
 10
608.00000000000159
 20
-865.0
 30
0.0
 11
608.00000000000159
 21
-867.99999999999898
 31
0.0
1001
ACDBBLOCKREPETAG
1070
     1
1071
      114
1005
1327A6
  0
ARC
  5
1327A7
  8
OBJECT
 10
611.00000000000159
 20
-867.99999999999898
 30
0.0
 40
3.0
 50
180.0
 51
270.0
1001
ACDBBLOCKREPETAG
1070
     1
1071
      115
1005
1327A7
  0
LINE
  5
1327A8
  8
OBJECT
 10
611.00000000000159
 20
-870.99999999999909
 30
0.0
 11
647.55005567936473
 21
-871.0
 31
0.0
1001
ACDBBLOCKREPETAG
1070
     1
1071
      116
1005
1327A8
  0
LINE
  5
1327A9
  8
OBJECT
 10
692.44994432064186
 20
-871.00000000000091
 30
0.0
 11
729.00000000000159
 21
-871.00000000000091
 31
0.0
1001
ACDBBLOCKREPETAG
1070
     1
1071
      117
1005
1327A9
  0
LINE
  5
1327AA
  8
OBJECT
 10
615.50004907618995
 20
-944.99997496418655
 30
0.0
 11
724.50004907619018
 21
-944.99997496418655
 31
0.0
1001
ACDBBLOCKREPETAG
1070
     1
1071
      119
1005
1327AA
  0
ARC
  5
1327AB
  8
OBJECT
 10
670.00000000000159
 20
-910.00000000000352
 30
0.0
 40
45.000000000000547
 50
0.0
 51
180.0
1001
ACDBBLOCKREPETAG
1070
     1
1071
      120
1005
1327AB
  0
INSERT
  5
1327AC
  8
OBJECT
  2
*U12
 10
0.0
 20
0.0
 30
0.0
  0
LINE
  5
1327AD
  8
HIDDEN
 10
711.42146564263533
 20
-952.99999999998545
 30
0.0
 11
622.42146564263533
 21
-952.99999999998545
 31
0.0
1001
ACDBBLOCKREPETAG
1070
     1
1071
      432
1005
1327AD
  0
LINE
  5
1327AE
  8
OBJECT
 10
753.00000000000171
 20
-847.0
 30
0.0
 11
750.00000000000159
 21
-847.0
 31
0.0
1001
ACDBBLOCKREPETAG
1070
     1
1071
      418
1005
1327AE
  0
ARC
  5
1327AF
  8
OBJECT
 10
753.00000000000171
 20
-844.0
 30
0.0
 40
3.0
 50
270.0
 51
0.0
1001
ACDBBLOCKREPETAG
1070
     1
1071
      419
1005
1327AF
  0
LINE
  5
1327B0
  8
OBJECT
 10
750.00000000000159
 20
-723.0
 30
0.0
 11
753.00000000000171
 21
-723.0
 31
0.0
1001
ACDBBLOCKREPETAG
1070
     1
1071
      420
1005
1327B0
  0
ARC
  5
1327B1
  8
OBJECT
 10
753.00000000000171
 20
-726.0
 30
0.0
 40
3.0
 50
0.0
 51
90.0
1001
ACDBBLOCKREPETAG
1070
     1
1071
      421
1005
1327B1
  0
LINE
  5
1327B2
  8
OBJECT
 10
756.00000000000171
 20
-726.0
 30
0.0
 11
756.00000000000171
 21
-844.0
 31
0.0
1001
ACDBBLOCKREPETAG
1070
     1
1071
      422
1005
1327B2
  0
POLYLINE
  5
1327B3
  8
HIDDEN
 66
     1
 10
0.0
 20
0.0
 30
0.0
 70
     1
  0
VERTEX
  5
132BD7
  8
HIDDEN
 10
0.0
 20
0.0
 30
0.0
  0
VERTEX
  5
132BD8
  8
HIDDEN
 10
450.0
 20
0.0
 30
0.0
  0
VERTEX
  5
132BD9
  8
HIDDEN
 10
450.0
 20
-580.0
 30
0.0
  0
VERTEX
  5
132BDA
  8
HIDDEN
 10
0.0
 20
-580.0
 30
0.0
  0
SEQEND
  5
132BDB
  8
HIDDEN
  0
POLYLINE
  5
1327B4
  8
HIDDEN
 66
     1
 10
0.0
 20
0.0
 30
0.0
 70
     1
  0
VERTEX
  5
132BDC
  8
HIDDEN
 10
450.0
 20
0.0
 30
0.0
  0
VERTEX
  5
132BDD
  8
HIDDEN
 10
900.0
 20
0.0
 30
0.0
  0
VERTEX
  5
132BDE
  8
HIDDEN
 10
900.0
 20
-580.0
 30
0.0
  0
VERTEX
  5
132BDF
  8
HIDDEN
 10
450.0
 20
-580.0
 30
0.0
  0
SEQEND
  5
132BE0
  8
HIDDEN
  0
POLYLINE
  5
1327B5
  8
HIDDEN
 66
     1
 10
0.0
 20
0.0
 30
0.0
 70
     1
  0
VERTEX
  5
132BE1
  8
HIDDEN
 10
0.0
 20
-580.0
 30
0.0
  0
VERTEX
  5
132BE2
  8
HIDDEN
 10
450.0
 20
-580.0
 30
0.0
  0
VERTEX
  5
132BE3
  8
HIDDEN
 10
450.0
 20
-1160.0
 30
0.0
  0
VERTEX
  5
132BE4
  8
HIDDEN
 10
0.0
 20
-1160.0
 30
0.0
  0
SEQEND
  5
132BE5
  8
HIDDEN
  0
POLYLINE
  5
1327B6
  8
HIDDEN
 66
     1
 10
0.0
 20
0.0
 30
0.0
 70
     1
  0
VERTEX
  5
132BE6
  8
HIDDEN
 10
450.0
 20
-580.0
 30
0.0
  0
VERTEX
  5
132BE7
  8
HIDDEN
 10
900.0
 20
-580.0
 30
0.0
  0
VERTEX
  5
132BE8
  8
HIDDEN
 10
900.0
 20
-1160.0
 30
0.0
  0
VERTEX
  5
132BE9
  8
HIDDEN
 10
450.0
 20
-1160.0
 30
0.0
  0
SEQEND
  5
132BEA
  8
HIDDEN
  0
LINE
  5
1327B7
  8
OBJECT
 10
3923.0
 20
-570.9999999999925
 30
0.0
 11
3923.0
 21
-549.9999999999925
 31
0.0
1001
ACDBBLOCKREPETAG
1070
     1
1071
       36
1005
1327B7
  0
LINE
  5
1327B8
  8
OBJECT
 10
3923.0
 20
-549.9999999999925
 30
0.0
 11
4077.0
 21
-549.9999999999925
 31
0.0
1001
ACDBBLOCKREPETAG
1070
     1
1071
       37
1005
1327B8
  0
LINE
  5
1327B9
  8
HIDDEN
 10
3943.0
 20
-619.99999999999227
 30
0.0
 11
4057.0
 21
-619.99999999999227
 31
0.0
1001
ACDBBLOCKREPETAG
1070
     1
1071
       38
1005
1327B9
  0
LINE
  5
1327BA
  8
OBJECT
 10
4077.0
 20
-549.9999999999925
 30
0.0
 11
4077.0
 21
-570.9999999999925
 31
0.0
1001
ACDBBLOCKREPETAG
1070
     1
1071
       39
1005
1327BA
  0
LINE
  5
1327BB
  8
OBJECT
 10
4077.0
 20
-570.9999999999925
 30
0.0
 11
3923.0
 21
-570.9999999999925
 31
0.0
1001
ACDBBLOCKREPETAG
1070
     1
1071
       40
1005
1327BB
  0
LINE
  5
1327BC
  8
CENTER
 10
4000.0
 20
-534.9999999999925
 30
0.0
 11
4000.0
 21
-769.9999999999925
 31
0.0
1001
ACDBBLOCKREPETAG
1070
     1
1071
       41
1005
1327BC
  0
LINE
  5
1327BD
  8
OBJECT
 10
3928.0
 20
-570.9999999999925
 30
0.0
 11
3928.0
 21
-633.9999999999925
 31
0.0
1001
ACDBBLOCKREPETAG
1070
     1
1071
       42
1005
1327BD
  0
LINE
  5
1327BE
  8
OBJECT
 10
4072.0
 20
-633.9999999999925
 30
0.0
 11
4072.0
 21
-570.9999999999925
 31
0.0
1001
ACDBBLOCKREPETAG
1070
     1
1071
       43
1005
1327BE
  0
LINE
  5
1327BF
  8
OBJECT
 10
3920.0
 20
-757.9999999999925
 30
0.0
 11
4080.0
 21
-757.9999999999925
 31
0.0
1001
ACDBBLOCKREPETAG
1070
     1
1071
       44
1005
1327BF
  0
LINE
  5
1327C0
  8
OBJECT
 10
4080.0
 20
-633.9999999999925
 30
0.0
 11
3920.0
 21
-633.9999999999925
 31
0.0
1001
ACDBBLOCKREPETAG
1070
     1
1071
       45
1005
1327C0
  0
LINE
  5
1327C1
  8
OBJECT
 10
3920.0
 20
-757.9999999999925
 30
0.0
 11
3920.0
 21
-769.9999999999925
 31
0.0
1001
ACDBBLOCKREPETAG
1070
     1
1071
       46
1005
1327C1
  0
LINE
  5
1327C2
  8
OBJECT
 10
3920.0
 20
-769.9999999999925
 30
0.0
 11
4080.0
 21
-769.9999999999925
 31
0.0
1001
ACDBBLOCKREPETAG
1070
     1
1071
       47
1005
1327C2
  0
LINE
  5
1327C3
  8
OBJECT
 10
4080.0
 20
-769.9999999999925
 30
0.0
 11
4080.0
 21
-757.9999999999925
 31
0.0
1001
ACDBBLOCKREPETAG
1070
     1
1071
       48
1005
1327C3
  0
ARC
  5
1327C4
  8
OBJECT
 10
4200.6872746716726
 20
-749.40809941010014
 30
0.0
 40
170.6350503965856
 50
137.44134459184301
 51
149.91949581337221
1001
ACDBBLOCKREPETAG
1070
     1
1071
       52
1005
1327C4
  0
ARC
  5
1327C5
  8
OBJECT
 10
4200.6872746716726
 20
-642.59190058988474
 30
0.0
 40
170.6350503965856
 50
210.08050418662771
 51
222.55865540815699
1001
ACDBBLOCKREPETAG
1070
     1
1071
       53
1005
1327C5
  0
ARC
  5
1327C6
  8
OBJECT
 10
3799.3127253283278
 20
-749.40809941010014
 30
0.0
 40
170.6350503965856
 50
30.080504186774089
 51
42.558655408456282
1001
ACDBBLOCKREPETAG
1070
     1
1071
       54
1005
1327C6
  0
ARC
  5
1327C7
  8
OBJECT
 10
3799.3127253283278
 20
-642.59190058988474
 30
0.0
 40
170.6350503965856
 50
317.44134459154373
 51
329.91949581322592
1001
ACDBBLOCKREPETAG
1070
     1
1071
       55
1005
1327C7
  0
POINT
  5
1327C8
  8
DOTS
 10
4000.0
 20
-754.9999999999925
 30
0.0
1001
ACDBBLOCKREPETAG
1070
     1
1071
      184
1005
1327C8
  0
LINE
  5
1327C9
  8
SLIM
 10
3945.2566704261012
 20
-137.99999999999909
 30
0.0
 11
3955.9548403695781
 21
-127.30183005652231
 31
0.0
1001
GRADIENTCOLOR1ACI
1070
     5
1001
GRADIENTCOLOR2ACI
1070
     2
1001
ACAD
1010
0.0
1020
0.0
1030
0.0
1001
ACDBBLOCKREPETAG
1070
     1
1071
      422
1005
1327C9
  0
LINE
  5
1327CA
  8
SLIM
 10
3954.2369265471712
 20
-137.99999999999909
 30
0.0
 11
3972.7507744763329
 21
-119.4861520708364
 31
0.0
1001
GRADIENTCOLOR1ACI
1070
     5
1001
GRADIENTCOLOR2ACI
1070
     2
1001
ACAD
1010
0.0
1020
0.0
1030
0.0
1001
ACDBBLOCKREPETAG
1070
     1
1071
      423
1005
1327CA
  0
LINE
  5
1327CB
  8
SLIM
 10
3973.521224312457
 20
-127.6959583557812
 30
0.0
 11
3984.8575146748631
 21
-116.359667993377
 31
0.0
1001
GRADIENTCOLOR1ACI
1070
     5
1001
GRADIENTCOLOR2ACI
1070
     2
1001
ACAD
1010
0.0
1020
0.0
1030
0.0
1001
ACDBBLOCKREPETAG
1070
     1
1071
      424
1005
1327CB
  0
LINE
  5
1327CC
  8
SLIM
 10
3985.8944171461271
 20
-124.30302164318159
 30
0.0
 11
3995.0533812002559
 21
-115.1440575890517
 31
0.0
1001
GRADIENTCOLOR1ACI
1070
     5
1001
GRADIENTCOLOR2ACI
1070
     2
1001
ACAD
1010
0.0
1020
0.0
1030
0.0
1001
ACDBBLOCKREPETAG
1070
     1
1071
      425
1005
1327CC
  0
LINE
  5
1327CD
  8
SLIM
 10
3996.0777327492078
 20
-123.0999621611699
 30
0.0
 11
4000.0
 21
-119.1776949103767
 31
0.0
1001
GRADIENTCOLOR1ACI
1070
     5
1001
GRADIENTCOLOR2ACI
1070
     2
1001
ACAD
1010
0.0
1020
0.0
1030
0.0
1001
ACDBBLOCKREPETAG
1070
     1
1071
      426
1005
1327CD
  0
LINE
  5
1327CE
  8
SLIM
 10
4000.0
 20
-119.1776949103767
 30
0.0
 11
4004.0797313529042
 21
-115.0979635574724
 31
0.0
1001
GRADIENTCOLOR1ACI
1070
     5
1001
GRADIENTCOLOR2ACI
1070
     2
1001
ACAD
1010
0.0
1020
0.0
1030
0.0
1001
ACDBBLOCKREPETAG
1070
     1
1071
      427
1005
1327CE
  0
LINE
  5
1327CF
  8
SLIM
 10
4004.9957202542769
 20
-123.1622307771683
 30
0.0
 11
4012.2679784105749
 21
-115.88997262087101
 31
0.0
1001
GRADIENTCOLOR1ACI
1070
     5
1001
GRADIENTCOLOR2ACI
1070
     2
1001
ACAD
1010
0.0
1020
0.0
1030
0.0
1001
ACDBBLOCKREPETAG
1070
     1
1071
      428
1005
1327CF
  0
LINE
  5
1327D0
  8
SLIM
 10
4013.028059366964
 20
-124.1101477855505
 30
0.0
 11
4019.799941457361
 21
-117.3382656951526
 31
0.0
1001
GRADIENTCOLOR1ACI
1070
     5
1001
GRADIENTCOLOR2ACI
1070
     2
1001
ACAD
1010
0.0
1020
0.0
1030
0.0
1001
ACDBBLOCKREPETAG
1070
     1
1071
      429
1005
1327D0
  0
LINE
  5
1327D1
  8
SLIM
 10
4020.3740813142458
 20
-125.7443819593383
 30
0.0
 11
4026.7872038672799
 21
-119.3312594063044
 31
0.0
1001
GRADIENTCOLOR1ACI
1070
     5
1001
GRADIENTCOLOR2ACI
1070
     2
1001
ACAD
1010
0.0
1020
0.0
1030
0.0
1001
ACDBBLOCKREPETAG
1070
     1
1071
      430
1005
1327D1
  0
LINE
  5
1327D2
  8
SLIM
 10
4027.1524719988752
 20
-127.946247395778
 30
0.0
 11
4033.3030030760328
 21
-121.7957163186195
 31
0.0
1001
GRADIENTCOLOR1ACI
1070
     5
1001
GRADIENTCOLOR2ACI
1070
     2
1001
ACAD
1010
0.0
1020
0.0
1030
0.0
1001
ACDBBLOCKREPETAG
1070
     1
1071
      431
1005
1327D2
  0
LINE
  5
1327D3
  8
SLIM
 10
4033.4390986513308
 20
-130.63987686439191
 30
0.0
 11
4039.3973119843781
 21
-124.6816635313439
 31
0.0
1001
GRADIENTCOLOR1ACI
1070
     5
1001
GRADIENTCOLOR2ACI
1070
     2
1001
ACAD
1010
0.0
1020
0.0
1030
0.0
1001
ACDBBLOCKREPETAG
1070
     1
1071
      432
1005
1327D3
  0
LINE
  5
1327D4
  8
SLIM
 10
4039.284224621797
 20
-133.77500701499321
 30
0.0
 11
4045.1047705343681
 21
-127.95446110242381
 31
0.0
1001
GRADIENTCOLOR1ACI
1070
     5
1001
GRADIENTCOLOR2ACI
1070
     2
1001
ACAD
1010
0.0
1020
0.0
1030
0.0
1001
ACDBBLOCKREPETAG
1070
     1
1071
      433
1005
1327D4
  0
LINE
  5
1327D5
  8
SLIM
 10
4044.7212801698038
 20
-137.31820758805651
 30
0.0
 11
4050.4491557891961
 21
-131.59033196866449
 31
0.0
1001
GRADIENTCOLOR1ACI
1070
     5
1001
GRADIENTCOLOR2ACI
1070
     2
1001
ACAD
1010
0.0
1020
0.0
1030
0.0
1001
ACDBBLOCKREPETAG
1070
     1
1071
      434
1005
1327D5
  0
LINE
  5
1327D6
  8
SLIM
 10
4053.0197438789291
 20
-137.99999999999909
 30
0.0
 11
4055.4459941864038
 21
-135.57374969252561
 31
0.0
1001
GRADIENTCOLOR1ACI
1070
     5
1001
GRADIENTCOLOR2ACI
1070
     2
1001
ACAD
1010
0.0
1020
0.0
1030
0.0
1001
ACDBBLOCKREPETAG
1070
     1
1071
      435
1005
1327D6
  0
LINE
  5
1327D7
  8
CENTER
 10
4000.0
 20
-279.99999999999909
 30
0.0
 11
4000.0
 21
-99.999999999999091
 31
0.0
1001
ACDBBLOCKREPETAG
1070
     1
1071
      160
1005
1327D7
  0
CIRCLE
  5
1327D8
  8
OBJECT
 10
4000.0
 20
-199.99999999999909
 30
0.0
 40
70.0
1001
ACDBBLOCKREPETAG
1070
     1
1071
      161
1005
1327D8
  0
CIRCLE
  5
1327D9
  8
OBJECT
 10
4000.0
 20
-199.99999999999909
 30
0.0
 40
77.0
1001
ACDBBLOCKREPETAG
1070
     1
1071
      162
1005
1327D9
  0
LINE
  5
1327DA
  8
OBJECT
 10
4045.661800227324
 20
-137.99999999999909
 30
0.0
 11
4080.0
 21
-137.99999999999909
 31
0.0
1001
ACDBBLOCKREPETAG
1070
     1
1071
      164
1005
1327DA
  0
LINE
  5
1327DB
  8
OBJECT
 10
4062.0
 20
-261.99999999999909
 30
0.0
 11
4080.0
 21
-261.99999999999909
 31
0.0
1001
ACDBBLOCKREPETAG
1070
     1
1071
      165
1005
1327DB
  0
LINE
  5
1327DC
  8
OBJECT
 10
4062.0
 20
-261.99999999999909
 30
0.0
 11
4062.0
 21
-279.99999999999909
 31
0.0
1001
ACDBBLOCKREPETAG
1070
     1
1071
      167
1005
1327DC
  0
LINE
  5
1327DD
  8
OBJECT
 10
3938.0
 20
-261.99999999999909
 30
0.0
 11
3938.0
 21
-279.99999999999909
 31
0.0
1001
ACDBBLOCKREPETAG
1070
     1
1071
      168
1005
1327DD
  0
LINE
  5
1327DE
  8
OBJECT
 10
3938.0
 20
-261.99999999999909
 30
0.0
 11
3920.0
 21
-261.99999999999909
 31
0.0
1001
ACDBBLOCKREPETAG
1070
     1
1071
      170
1005
1327DE
  0
LINE
  5
1327DF
  8
OBJECT
 10
3954.338199772676
 20
-137.99999999999909
 30
0.0
 11
3920.0
 21
-137.99999999999909
 31
0.0
1001
ACDBBLOCKREPETAG
1070
     1
1071
      171
1005
1327DF
  0
LINE
  5
1327E0
  8
OBJECT
 10
3945.5527778486362
 20
-254.44722215136329
 30
0.0
 11
3938.0
 21
-261.99999999999909
 31
0.0
1001
ACDBBLOCKREPETAG
1070
     1
1071
      180
1005
1327E0
  0
LINE
  5
1327E1
  8
OBJECT
 10
4054.4472221513638
 20
-254.44722215136329
 30
0.0
 11
4062.0
 21
-261.99999999999909
 31
0.0
1001
ACDBBLOCKREPETAG
1070
     1
1071
      181
1005
1327E1
  0
POINT
  5
1327E2
  8
DOTS
 10
4000.0
 20
-199.99999999999909
 30
0.0
 50
270.0
1001
ACDBBLOCKREPETAG
1070
     1
1071
      182
1005
1327E2
  0
ARC
  5
1327E3
  8
OBJECT
 10
4000.0
 20
-199.99999999999909
 30
0.0
 40
85.0
 50
46.837102859806208
 51
133.16289714019371
1001
ACDBBLOCKREPETAG
1070
     1
1071
      183
1005
1327E3
  0
CIRCLE
  5
1327E4
  8
OBJECT
 10
4000.0
 20
-199.99999999999909
 30
0.0
 40
53.5
1001
ACDBBLOCKREPETAG
1070
     1
1071
      352
1005
1327E4
  0
LINE
  5
1327E5
  8
CENTER
 10
4080.0
 20
-199.99999999999909
 30
0.0
 11
3920.0
 21
-199.99999999999909
 31
0.0
1001
ACDBBLOCKREPETAG
1070
     1
1071
      158
1005
1327E5
  0
LINE
  5
1327E6
  8
OBJECT
 10
3787.0000000000191
 20
-137.99999999999909
 30
0.0
 11
3780.0000000000182
 21
-137.99999999999909
 31
0.0
1001
ACDBBLOCKREPETAG
1070
     1
1071
      110
1005
1327E6
  0
LINE
  5
1327E7
  8
OBJECT
 10
3780.0000000000182
 20
-137.99999999999909
 30
0.0
 11
3780.0000000000182
 21
-261.99999999999909
 31
0.0
1001
ACDBBLOCKREPETAG
1070
     1
1071
      111
1005
1327E7
  0
LINE
  5
1327E8
  8
OBJECT
 10
3780.0000000000182
 20
-261.99999999999909
 30
0.0
 11
3787.0000000000191
 21
-261.99999999999909
 31
0.0
1001
ACDBBLOCKREPETAG
1070
     1
1071
      112
1005
1327E8
  0
LINE
  5
1327E9
  8
OBJECT
 10
3787.0000000000191
 20
-261.99999999999909
 30
0.0
 11
3787.0000000000191
 21
-137.99999999999909
 31
0.0
1001
ACDBBLOCKREPETAG
1070
     1
1071
      113
1005
1327E9
  0
LINE
  5
1327EA
  8
CENTER
 10
3765.0000000000182
 20
-199.99999999999909
 30
0.0
 11
3920.0
 21
-199.99999999999909
 31
0.0
1001
ACDBBLOCKREPETAG
1070
     1
1071
      114
1005
1327EA
  0
LINE
  5
1327EB
  8
OBJECT
 10
3840.0000250358171
 20
-245.0000000000027
 30
0.0
 11
3914.000000000005
 21
-244.99999999999909
 31
0.0
1001
ACDBBLOCKREPETAG
1070
     1
1071
      115
1005
1327EB
  0
LINE
  5
1327EC
  8
OBJECT
 10
3840.0000250358171
 20
-154.99999999999909
 30
0.0
 11
3914.000000000005
 21
-154.99999999999909
 31
0.0
1001
ACDBBLOCKREPETAG
1070
     1
1071
      116
1005
1327EC
  0
LINE
  5
1327ED
  8
OBJECT
 10
3787.0000000000191
 20
-140.99999999999909
 30
0.0
 11
3823.0000000000182
 21
-140.99999999999909
 31
0.0
1001
ACDBBLOCKREPETAG
1070
     1
1071
      117
1005
1327ED
  0
LINE
  5
1327EE
  8
OBJECT
 10
3823.0000000000182
 20
-140.99999999999909
 30
0.0
 11
3823.0000000000182
 21
-258.99999999999909
 31
0.0
1001
ACDBBLOCKREPETAG
1070
     1
1071
      118
1005
1327EE
  0
LINE
  5
1327EF
  8
OBJECT
 10
3823.0000000000182
 20
-258.99999999999909
 30
0.0
 11
3787.0000000000191
 21
-258.99999999999909
 31
0.0
1001
ACDBBLOCKREPETAG
1070
     1
1071
      119
1005
1327EF
  0
LINE
  5
1327F0
  8
OBJECT
 10
3827.0000000000182
 20
-145.49999999999909
 30
0.0
 11
3840.0000000000191
 21
-145.49999999999909
 31
0.0
1001
ACDBBLOCKREPETAG
1070
     1
1071
      120
1005
1327F0
  0
LINE
  5
1327F1
  8
OBJECT
 10
3840.0000000000191
 20
-254.49999999999909
 30
0.0
 11
3827.0000000000182
 21
-254.49999999999909
 31
0.0
1001
ACDBBLOCKREPETAG
1070
     1
1071
      121
1005
1327F1
  0
LINE
  5
1327F2
  8
OBJECT
 10
3827.0000000000182
 20
-254.49999999999909
 30
0.0
 11
3827.0000000000182
 21
-145.49999999999909
 31
0.0
1001
ACDBBLOCKREPETAG
1070
     1
1071
      122
1005
1327F2
  0
LINE
  5
1327F3
  8
OBJECT
 10
3823.0000000000182
 20
-140.99999999999909
 30
0.0
 11
3827.0000000000182
 21
-145.49999999999909
 31
0.0
1001
ACDBBLOCKREPETAG
1070
     1
1071
      123
1005
1327F3
  0
LINE
  5
1327F4
  8
OBJECT
 10
3823.0000000000182
 20
-258.99999999999909
 30
0.0
 11
3827.0000000000182
 21
-254.49999999999909
 31
0.0
1001
ACDBBLOCKREPETAG
1070
     1
1071
      124
1005
1327F4
  0
LINE
  5
1327F5
  8
OBJECT
 10
3917.000000000005
 20
-137.99999999999909
 30
0.0
 11
3920.0000000000041
 21
-137.99999999999909
 31
0.0
1001
ACDBBLOCKREPETAG
1070
     1
1071
      125
1005
1327F5
  0
ARC
  5
1327F6
  8
OBJECT
 10
3917.000000000005
 20
-140.99999999999909
 30
0.0
 40
3.0
 50
90.0
 51
180.0
1001
ACDBBLOCKREPETAG
1070
     1
1071
      126
1005
1327F6
  0
LINE
  5
1327F7
  8
OBJECT
 10
3920.0000000000041
 20
-261.99999999999909
 30
0.0
 11
3917.000000000005
 21
-261.99999999999909
 31
0.0
1001
ACDBBLOCKREPETAG
1070
     1
1071
      127
1005
1327F7
  0
ARC
  5
1327F8
  8
OBJECT
 10
3917.000000000005
 20
-258.99999999999909
 30
0.0
 40
3.0
 50
180.0
 51
270.0
1001
ACDBBLOCKREPETAG
1070
     1
1071
      128
1005
1327F8
  0
LINE
  5
1327F9
  8
OBJECT
 10
3914.000000000005
 20
-258.99999999999909
 30
0.0
 11
3914.000000000005
 21
-222.44994432063581
 31
0.0
1001
ACDBBLOCKREPETAG
1070
     1
1071
      129
1005
1327F9
  0
LINE
  5
1327FA
  8
OBJECT
 10
3914.000000000005
 20
-177.55005567935859
 30
0.0
 11
3914.000000000005
 21
-140.99999999999909
 31
0.0
1001
ACDBBLOCKREPETAG
1070
     1
1071
      130
1005
1327FA
  0
LINE
  5
1327FB
  8
HIDDEN
 10
3832.0000000000182
 20
-155.49999999999909
 30
0.0
 11
3832.0000000000182
 21
-244.49999999999909
 31
0.0
1001
ACDBBLOCKREPETAG
1070
     1
1071
      131
1005
1327FB
  0
LINE
  5
1327FC
  8
OBJECT
 10
3840.0000250358171
 20
-254.4999509238105
 30
0.0
 11
3840.0000250358171
 21
-145.4999509238105
 31
0.0
1001
ACDBBLOCKREPETAG
1070
     1
1071
      133
1005
1327FC
  0
ARC
  5
1327FD
  8
OBJECT
 10
3875.0
 20
-199.99999999999909
 30
0.0
 40
45.000000000000547
 50
270.0
 51
90.0
1001
ACDBBLOCKREPETAG
1070
     1
1071
      134
1005
1327FD
  0
LINE
  5
1327FE
  8
CENTER
 10
4000.0
 20
-300.99999999999898
 30
0.0
 11
4000.0
 21
-279.99999999999909
 31
0.0
1001
ACDBBLOCKREPETAG
1070
     1
1071
        0
1005
1327FE
  0
LINE
  5
1327FF
  8
OBJECT
 10
4062.0
 20
-283.0
 30
0.0
 11
4062.0
 21
-279.99999999999909
 31
0.0
1001
ACDBBLOCKREPETAG
1070
     1
1071
        1
1005
1327FF
  0
ARC
  5
132800
  8
OBJECT
 10
4059.0
 20
-283.0
 30
0.0
 40
3.0
 50
270.0
 51
0.0
1001
ACDBBLOCKREPETAG
1070
     1
1071
        2
1005
132800
  0
LINE
  5
132801
  8
OBJECT
 10
3938.0
 20
-279.99999999999909
 30
0.0
 11
3938.0
 21
-282.99999999999818
 31
0.0
1001
ACDBBLOCKREPETAG
1070
     1
1071
        3
1005
132801
  0
ARC
  5
132802
  8
OBJECT
 10
3941.0
 20
-282.99999999999818
 30
0.0
 40
3.0
 50
180.0
 51
270.0
1001
ACDBBLOCKREPETAG
1070
     1
1071
        4
1005
132802
  0
LINE
  5
132803
  8
OBJECT
 10
3941.0
 20
-285.99999999999818
 30
0.0
 11
4059.0
 21
-286.0
 31
0.0
1001
ACDBBLOCKREPETAG
1070
     1
1071
        5
1005
132803
  0
LINE
  5
132804
  8
OBJECT
 10
4133.0
 20
-137.99999999999909
 30
0.0
 11
4140.0
 21
-137.99999999999909
 31
0.0
1001
ACDBBLOCKREPETAG
1070
     1
1071
       47
1005
132804
  0
LINE
  5
132805
  8
OBJECT
 10
4140.0
 20
-137.99999999999909
 30
0.0
 11
4140.0
 21
-261.99999999999909
 31
0.0
1001
ACDBBLOCKREPETAG
1070
     1
1071
       48
1005
132805
  0
LINE
  5
132806
  8
OBJECT
 10
4140.0
 20
-261.99999999999909
 30
0.0
 11
4133.0
 21
-261.99999999999909
 31
0.0
1001
ACDBBLOCKREPETAG
1070
     1
1071
       49
1005
132806
  0
LINE
  5
132807
  8
OBJECT
 10
4133.0
 20
-261.99999999999909
 30
0.0
 11
4133.0
 21
-137.99999999999909
 31
0.0
1001
ACDBBLOCKREPETAG
1070
     1
1071
       50
1005
132807
  0
LINE
  5
132808
  8
CENTER
 10
4155.0
 20
-199.99999999999909
 30
0.0
 11
4080.0
 21
-199.99999999999909
 31
0.0
1001
ACDBBLOCKREPETAG
1070
     1
1071
       51
1005
132808
  0
LINE
  5
132809
  8
OBJECT
 10
4133.0
 20
-140.99999999999909
 30
0.0
 11
4097.0
 21
-140.99999999999909
 31
0.0
1001
ACDBBLOCKREPETAG
1070
     1
1071
       52
1005
132809
  0
LINE
  5
13280A
  8
OBJECT
 10
4097.0
 20
-140.99999999999909
 30
0.0
 11
4097.0
 21
-258.99999999999909
 31
0.0
1001
ACDBBLOCKREPETAG
1070
     1
1071
       53
1005
13280A
  0
LINE
  5
13280B
  8
OBJECT
 10
4097.0
 20
-258.99999999999909
 30
0.0
 11
4133.0
 21
-258.99999999999909
 31
0.0
1001
ACDBBLOCKREPETAG
1070
     1
1071
       54
1005
13280B
  0
LINE
  5
13280C
  8
OBJECT
 10
4093.0
 20
-145.49999999999909
 30
0.0
 11
4086.0
 21
-145.49999999999909
 31
0.0
1001
ACDBBLOCKREPETAG
1070
     1
1071
       55
1005
13280C
  0
LINE
  5
13280D
  8
OBJECT
 10
4086.0
 20
-254.49999999999909
 30
0.0
 11
4093.0
 21
-254.49999999999909
 31
0.0
1001
ACDBBLOCKREPETAG
1070
     1
1071
       56
1005
13280D
  0
LINE
  5
13280E
  8
OBJECT
 10
4093.0
 20
-254.49999999999909
 30
0.0
 11
4093.0
 21
-145.49999999999909
 31
0.0
1001
ACDBBLOCKREPETAG
1070
     1
1071
       57
1005
13280E
  0
LINE
  5
13280F
  8
OBJECT
 10
4097.0
 20
-140.99999999999909
 30
0.0
 11
4093.0
 21
-145.49999999999909
 31
0.0
1001
ACDBBLOCKREPETAG
1070
     1
1071
       58
1005
13280F
  0
LINE
  5
132810
  8
OBJECT
 10
4097.0
 20
-258.99999999999909
 30
0.0
 11
4093.0
 21
-254.49999999999909
 31
0.0
1001
ACDBBLOCKREPETAG
1070
     1
1071
       59
1005
132810
  0
LINE
  5
132811
  8
OBJECT
 10
4083.0
 20
-137.99999999999909
 30
0.0
 11
4080.0
 21
-137.99999999999909
 31
0.0
1001
ACDBBLOCKREPETAG
1070
     1
1071
       60
1005
132811
  0
ARC
  5
132812
  8
OBJECT
 10
4083.0
 20
-140.99999999999909
 30
0.0
 40
3.0
 50
0.0
 51
90.0
1001
ACDBBLOCKREPETAG
1070
     1
1071
       61
1005
132812
  0
LINE
  5
132813
  8
OBJECT
 10
4080.0
 20
-261.99999999999909
 30
0.0
 11
4083.0
 21
-261.99999999999909
 31
0.0
1001
ACDBBLOCKREPETAG
1070
     1
1071
       62
1005
132813
  0
ARC
  5
132814
  8
OBJECT
 10
4083.0
 20
-258.99999999999909
 30
0.0
 40
3.0
 50
270.0
 51
0.0
1001
ACDBBLOCKREPETAG
1070
     1
1071
       63
1005
132814
  0
LINE
  5
132815
  8
OBJECT
 10
4086.0
 20
-258.99999999999909
 30
0.0
 11
4086.0
 21
-140.99999999999909
 31
0.0
1001
ACDBBLOCKREPETAG
1070
     1
1071
       64
1005
132815
  0
LINE
  5
132816
  8
HIDDEN
 10
4088.0
 20
-155.49999999999909
 30
0.0
 11
4088.0
 21
-244.49999999999909
 31
0.0
1001
ACDBBLOCKREPETAG
1070
     1
1071
       65
1005
132816
  0
LINE
  5
132817
  8
OBJECT
 10
3787.000000000015
 20
-553.0
 30
0.0
 11
3780.000000000015
 21
-553.0
 31
0.0
1001
ACDBBLOCKREPETAG
1070
     1
1071
      106
1005
132817
  0
LINE
  5
132818
  8
OBJECT
 10
3780.000000000015
 20
-553.0
 30
0.0
 11
3780.000000000015
 21
-677.0
 31
0.0
1001
ACDBBLOCKREPETAG
1070
     1
1071
      107
1005
132818
  0
LINE
  5
132819
  8
OBJECT
 10
3914.0000000000159
 20
-653.3502637757274
 30
0.0
 11
3914.0000000000159
 21
-755.00000000000102
 31
0.0
1001
ACDBBLOCKREPETAG
1070
     1
1071
      108
1005
132819
  0
LINE
  5
13281A
  8
OBJECT
 10
3780.000000000015
 20
-677.0
 30
0.0
 11
3787.000000000015
 21
-677.0
 31
0.0
1001
ACDBBLOCKREPETAG
1070
     1
1071
      109
1005
13281A
  0
LINE
  5
13281B
  8
OBJECT
 10
3787.000000000015
 20
-677.0
 30
0.0
 11
3787.000000000015
 21
-553.0
 31
0.0
1001
ACDBBLOCKREPETAG
1070
     1
1071
      110
1005
13281B
  0
LINE
  5
13281C
  8
CENTER
 10
3855.0000000000141
 20
-615.0000000000008
 30
0.0
 11
3765.0000000000159
 21
-615.0
 31
0.0
1001
ACDBBLOCKREPETAG
1070
     1
1071
      111
1005
13281C
  0
LINE
  5
13281D
  8
OBJECT
 10
3920.0000000000182
 20
-758.0
 30
0.0
 11
3917.0000000000141
 21
-758.0000000000008
 31
0.0
1001
ACDBBLOCKREPETAG
1070
     1
1071
      112
1005
13281D
  0
ARC
  5
13281E
  8
OBJECT
 10
3917.0000000000141
 20
-755.00000000000102
 30
0.0
 40
3.0
 50
180.0
 51
270.0
1001
ACDBBLOCKREPETAG
1070
     1
1071
      113
1005
13281E
  0
LINE
  5
13281F
  8
OBJECT
 10
3787.000000000015
 20
-556.0
 30
0.0
 11
3823.0000000000141
 21
-556.0000000000008
 31
0.0
1001
ACDBBLOCKREPETAG
1070
     1
1071
      114
1005
13281F
  0
LINE
  5
132820
  8
OBJECT
 10
3823.0000000000141
 20
-556.0000000000008
 30
0.0
 11
3823.0000000000141
 21
-653.15756805667843
 31
0.0
1001
ACDBBLOCKREPETAG
1070
     1
1071
      115
1005
132820
  0
LINE
  5
132821
  8
OBJECT
 10
3827.000000000015
 20
-560.5000000000008
 30
0.0
 11
3827.0000000000182
 21
-645.74491827928705
 31
0.0
1001
ACDBBLOCKREPETAG
1070
     1
1071
      116
1005
132821
  0
LINE
  5
132822
  8
OBJECT
 10
3827.000000000015
 20
-560.5000000000008
 30
0.0
 11
3840.0000000000159
 21
-560.5000000000008
 31
0.0
1001
ACDBBLOCKREPETAG
1070
     1
1071
      117
1005
132822
  0
LINE
  5
132823
  8
OBJECT
 10
3831.3436831745321
 20
-674.0000000000008
 30
0.0
 11
3787.000000000015
 21
-674.0
 31
0.0
1001
ACDBBLOCKREPETAG
1070
     1
1071
      118
1005
132823
  0
LINE
  5
132824
  8
OBJECT
 10
3823.0000000000141
 20
-556.0000000000008
 30
0.0
 11
3827.000000000015
 21
-560.5000000000008
 31
0.0
1001
ACDBBLOCKREPETAG
1070
     1
1071
      119
1005
132824
  0
LINE
  5
132825
  8
OBJECT
 10
3840.0000000000159
 20
-560.5000000000008
 30
0.0
 11
3840.0000000000159
 21
-645.74491827928784
 31
0.0
1001
ACDBBLOCKREPETAG
1070
     1
1071
      120
1005
132825
  0
ARC
  5
132826
  8
OBJECT
 10
3908.000000000015
 20
-637.27386365609345
 30
0.0
 40
85.0
 50
205.59913872187661
 51
231.40900676279119
1001
ACDBBLOCKREPETAG
1070
     1
1071
      121
1005
132826
  0
ARC
  5
132827
  8
OBJECT
 10
3837.2000000000162
 20
-655.00000000000068
 30
0.0
 40
85.0
 50
19.925932125430649
 51
88.112268108168848
1001
ACDBBLOCKREPETAG
1070
     1
1071
      122
1005
132827
  0
LINE
  5
132828
  8
OBJECT
 10
3914.0000000000159
 20
-750.81075719270905
 30
0.0
 11
3854.9806774563981
 21
-703.71143914629454
 31
0.0
1001
ACDBBLOCKREPETAG
1070
     1
1071
      123
1005
132828
  0
LINE
  5
132829
  8
OBJECT
 10
3827.0000000000182
 20
-645.74491827928705
 30
0.0
 11
3840.0000000000159
 21
-645.74491827928784
 31
0.0
1001
ACDBBLOCKREPETAG
1070
     1
1071
      124
1005
132829
  0
LINE
  5
13282A
  8
OBJECT
 10
3823.0000000000141
 20
-653.15756805667843
 30
0.0
 11
3827.0000000000182
 21
-645.74491827928705
 31
0.0
1001
ACDBBLOCKREPETAG
1070
     1
1071
      125
1005
13282A
  0
LINE
  5
13282B
  8
OBJECT
 10
3919.9999999999818
 20
-634.0
 30
0.0
 11
3917.111387840378
 21
-626.03156729425325
 31
0.0
1001
ACDBBLOCKREPETAG
1070
     1
1071
      126
1005
13282B
  0
LINE
  5
13282C
  8
OBJECT
 10
3919.9999999999818
 20
-634.0
 30
0.0
 11
3914.0000000000159
 21
-653.3502637757274
 31
0.0
1001
ACDBBLOCKREPETAG
1070
     1
1071
      127
1005
13282C
  0
LINE
  5
13282D
  8
HIDDEN
 10
3832.0000000000159
 20
-570.5000000000008
 30
0.0
 11
3832.0000000000159
 21
-659.50000000000068
 31
0.0
1001
ACDBBLOCKREPETAG
1070
     1
1071
      129
1005
13282D
  0
CIRCLE
  5
13282E
  8
OBJECT
 10
4000.0
 20
-696.0
 30
0.0
 40
62.0
1001
ACDBBLOCKREPETAG
1070
     1
1071
        0
1005
13282E
  0
LINE
  5
13282F
  8
OBJECT
 10
4133.0
 20
-634.0
 30
0.0
 11
4140.0
 21
-634.0
 31
0.0
1001
ACDBBLOCKREPETAG
1070
     1
1071
       45
1005
13282F
  0
LINE
  5
132830
  8
OBJECT
 10
4140.0
 20
-634.0
 30
0.0
 11
4140.0
 21
-755.0
 31
0.0
1001
ACDBBLOCKREPETAG
1070
     1
1071
       46
1005
132830
  0
LINE
  5
132831
  8
OBJECT
 10
4133.0
 20
-755.0
 30
0.0
 11
4133.0
 21
-634.0
 31
0.0
1001
ACDBBLOCKREPETAG
1070
     1
1071
       47
1005
132831
  0
LINE
  5
132832
  8
CENTER
 10
4155.0
 20
-696.0
 30
0.0
 11
4071.0
 21
-696.0
 31
0.0
1001
ACDBBLOCKREPETAG
1070
     1
1071
       48
1005
132832
  0
LINE
  5
132833
  8
OBJECT
 10
4133.0
 20
-637.0
 30
0.0
 11
4097.0
 21
-637.0
 31
0.0
1001
ACDBBLOCKREPETAG
1070
     1
1071
       49
1005
132833
  0
LINE
  5
132834
  8
OBJECT
 10
4097.0
 20
-637.0
 30
0.0
 11
4097.0
 21
-755.0
 31
0.0
1001
ACDBBLOCKREPETAG
1070
     1
1071
       50
1005
132834
  0
LINE
  5
132835
  8
OBJECT
 10
4097.0
 20
-755.0
 30
0.0
 11
4140.0
 21
-755.0
 31
0.0
1001
ACDBBLOCKREPETAG
1070
     1
1071
       51
1005
132835
  0
LINE
  5
132836
  8
OBJECT
 10
4093.0
 20
-641.5
 30
0.0
 11
4086.0
 21
-641.5
 31
0.0
1001
ACDBBLOCKREPETAG
1070
     1
1071
       52
1005
132836
  0
LINE
  5
132837
  8
OBJECT
 10
4086.0
 20
-750.49999999999989
 30
0.0
 11
4093.0
 21
-750.49999999999989
 31
0.0
1001
ACDBBLOCKREPETAG
1070
     1
1071
       53
1005
132837
  0
LINE
  5
132838
  8
OBJECT
 10
4093.0
 20
-750.49999999999989
 30
0.0
 11
4093.0
 21
-641.5
 31
0.0
1001
ACDBBLOCKREPETAG
1070
     1
1071
       54
1005
132838
  0
LINE
  5
132839
  8
OBJECT
 10
4097.0
 20
-637.0
 30
0.0
 11
4093.0
 21
-641.5
 31
0.0
1001
ACDBBLOCKREPETAG
1070
     1
1071
       55
1005
132839
  0
LINE
  5
13283A
  8
OBJECT
 10
4097.0
 20
-755.0
 30
0.0
 11
4093.0
 21
-750.49999999999989
 31
0.0
1001
ACDBBLOCKREPETAG
1070
     1
1071
       56
1005
13283A
  0
LINE
  5
13283B
  8
OBJECT
 10
4083.0
 20
-634.0
 30
0.0
 11
4080.0
 21
-634.0
 31
0.0
1001
ACDBBLOCKREPETAG
1070
     1
1071
       57
1005
13283B
  0
ARC
  5
13283C
  8
OBJECT
 10
4083.0
 20
-637.0
 30
0.0
 40
3.0
 50
0.0
 51
90.0
1001
ACDBBLOCKREPETAG
1070
     1
1071
       58
1005
13283C
  0
LINE
  5
13283D
  8
OBJECT
 10
4080.0
 20
-758.0
 30
0.0
 11
4083.0
 21
-758.0
 31
0.0
1001
ACDBBLOCKREPETAG
1070
     1
1071
       59
1005
13283D
  0
ARC
  5
13283E
  8
OBJECT
 10
4083.0
 20
-755.0
 30
0.0
 40
3.0
 50
270.0
 51
0.0
1001
ACDBBLOCKREPETAG
1070
     1
1071
       60
1005
13283E
  0
LINE
  5
13283F
  8
OBJECT
 10
4086.0
 20
-755.0
 30
0.0
 11
4086.0
 21
-637.0
 31
0.0
1001
ACDBBLOCKREPETAG
1070
     1
1071
       61
1005
13283F
  0
LINE
  5
132840
  8
HIDDEN
 10
4088.0
 20
-651.5
 30
0.0
 11
4088.0
 21
-740.5
 31
0.0
1001
ACDBBLOCKREPETAG
1070
     1
1071
       63
1005
132840
  0
LINE
  5
132841
  8
OBJECT
 10
1923.0
 20
-570.9999999999925
 30
0.0
 11
1923.0
 21
-549.9999999999925
 31
0.0
1001
ACDBBLOCKREPETAG
1070
     1
1071
       36
1005
132841
  0
LINE
  5
132842
  8
OBJECT
 10
1923.0
 20
-549.9999999999925
 30
0.0
 11
2077.0
 21
-549.9999999999925
 31
0.0
1001
ACDBBLOCKREPETAG
1070
     1
1071
       37
1005
132842
  0
LINE
  5
132843
  8
HIDDEN
 10
1943.0
 20
-619.99999999999227
 30
0.0
 11
2057.0
 21
-619.99999999999227
 31
0.0
1001
ACDBBLOCKREPETAG
1070
     1
1071
       38
1005
132843
  0
LINE
  5
132844
  8
OBJECT
 10
2077.0
 20
-549.9999999999925
 30
0.0
 11
2077.0
 21
-570.9999999999925
 31
0.0
1001
ACDBBLOCKREPETAG
1070
     1
1071
       39
1005
132844
  0
LINE
  5
132845
  8
OBJECT
 10
2077.0
 20
-570.9999999999925
 30
0.0
 11
1923.0
 21
-570.9999999999925
 31
0.0
1001
ACDBBLOCKREPETAG
1070
     1
1071
       40
1005
132845
  0
LINE
  5
132846
  8
CENTER
 10
2000.0
 20
-534.9999999999925
 30
0.0
 11
2000.0
 21
-769.9999999999925
 31
0.0
1001
ACDBBLOCKREPETAG
1070
     1
1071
       41
1005
132846
  0
LINE
  5
132847
  8
OBJECT
 10
1928.0
 20
-570.9999999999925
 30
0.0
 11
1928.0
 21
-633.9999999999925
 31
0.0
1001
ACDBBLOCKREPETAG
1070
     1
1071
       42
1005
132847
  0
LINE
  5
132848
  8
OBJECT
 10
2072.0
 20
-633.9999999999925
 30
0.0
 11
2072.0
 21
-570.9999999999925
 31
0.0
1001
ACDBBLOCKREPETAG
1070
     1
1071
       43
1005
132848
  0
LINE
  5
132849
  8
OBJECT
 10
1920.0
 20
-757.9999999999925
 30
0.0
 11
2080.0
 21
-757.9999999999925
 31
0.0
1001
ACDBBLOCKREPETAG
1070
     1
1071
       44
1005
132849
  0
LINE
  5
13284A
  8
OBJECT
 10
2080.0
 20
-633.9999999999925
 30
0.0
 11
1920.0
 21
-633.9999999999925
 31
0.0
1001
ACDBBLOCKREPETAG
1070
     1
1071
       45
1005
13284A
  0
LINE
  5
13284B
  8
OBJECT
 10
1920.0
 20
-757.9999999999925
 30
0.0
 11
1920.0
 21
-769.9999999999925
 31
0.0
1001
ACDBBLOCKREPETAG
1070
     1
1071
       46
1005
13284B
  0
LINE
  5
13284C
  8
OBJECT
 10
1920.0
 20
-769.9999999999925
 30
0.0
 11
2080.0
 21
-769.9999999999925
 31
0.0
1001
ACDBBLOCKREPETAG
1070
     1
1071
       47
1005
13284C
  0
LINE
  5
13284D
  8
OBJECT
 10
2080.0
 20
-769.9999999999925
 30
0.0
 11
2080.0
 21
-757.9999999999925
 31
0.0
1001
ACDBBLOCKREPETAG
1070
     1
1071
       48
1005
13284D
  0
ARC
  5
13284E
  8
OBJECT
 10
2200.6872746716731
 20
-749.40809941010014
 30
0.0
 40
170.6350503965856
 50
137.44134459184301
 51
149.91949581336559
1001
ACDBBLOCKREPETAG
1070
     1
1071
       52
1005
13284E
  0
ARC
  5
13284F
  8
OBJECT
 10
2200.6872746716731
 20
-642.59190058988474
 30
0.0
 40
170.6350503965856
 50
210.0805041866343
 51
222.55865540815699
1001
ACDBBLOCKREPETAG
1070
     1
1071
       53
1005
13284F
  0
ARC
  5
132850
  8
OBJECT
 10
1799.312725328326
 20
-749.40809941010014
 30
0.0
 40
170.6350503965856
 50
30.080504186774089
 51
42.558655408447443
1001
ACDBBLOCKREPETAG
1070
     1
1071
       54
1005
132850
  0
ARC
  5
132851
  8
OBJECT
 10
1799.312725328326
 20
-642.59190058988474
 30
0.0
 40
170.6350503965856
 50
317.44134459155248
 51
329.91949581322592
1001
ACDBBLOCKREPETAG
1070
     1
1071
       55
1005
132851
  0
POINT
  5
132852
  8
DOTS
 10
2000.0
 20
-754.9999999999925
 30
0.0
1001
ACDBBLOCKREPETAG
1070
     1
1071
      184
1005
132852
  0
LINE
  5
132853
  8
SLIM
 10
3914.9999999999941
 20
-765.19743878931183
 30
0.0
 11
3925.1974387893092
 21
-754.99999999999693
 31
0.0
1001
ACDBBLOCKREPETAG
1070
     1
1071
        0
1005
0
1001
ACAD
1010
0.0
1020
0.0
1030
0.0
  0
LINE
  5
132854
  8
SLIM
 10
3914.999999999995
 20
-783.15795103144865
 30
0.0
 11
3943.1579510314468
 21
-754.99999999999693
 31
0.0
1001
ACAD
1010
0.0
1020
0.0
1030
0.0
1001
ACDBBLOCKREPETAG
1070
     1
1071
       14
1005
132854
  0
LINE
  5
132855
  8
SLIM
 10
3915.1454972543161
 20
-800.97296601926655
 30
0.0
 11
3961.1184632735849
 21
-754.99999999999693
 31
0.0
1001
ACAD
1010
0.0
1020
0.0
1030
0.0
1001
ACDBBLOCKREPETAG
1070
     1
1071
       15
1005
132855
  0
LINE
  5
132856
  8
SLIM
 10
3917.104627495245
 20
-816.97434802047667
 30
0.0
 11
3979.0789755157239
 21
-754.99999999999693
 31
0.0
1001
ACAD
1010
0.0
1020
0.0
1030
0.0
1001
ACDBBLOCKREPETAG
1070
     1
1071
       16
1005
132856
  0
LINE
  5
132857
  8
SLIM
 10
3919.0637577361722
 20
-832.97573002168645
 30
0.0
 11
3997.0394877578619
 21
-754.99999999999693
 31
0.0
1001
ACAD
1010
0.0
1020
0.0
1030
0.0
1001
ACDBBLOCKREPETAG
1070
     1
1071
       17
1005
132857
  0
LINE
  5
132858
  8
SLIM
 10
3920.0
 20
-849.99999999999693
 30
0.0
 11
4015.0
 21
-754.99999999999693
 31
0.0
1001
ACAD
1010
0.0
1020
0.0
1030
0.0
1001
ACDBBLOCKREPETAG
1070
     1
1071
       18
1005
132858
  0
LINE
  5
132859
  8
SLIM
 10
3920.0
 20
-867.96051224213534
 30
0.0
 11
4032.9605122421372
 21
-754.99999999999693
 31
0.0
1001
ACAD
1010
0.0
1020
0.0
1030
0.0
1001
ACDBBLOCKREPETAG
1070
     1
1071
       19
1005
132859
  0
LINE
  5
13285A
  8
SLIM
 10
3920.0
 20
-885.92102448427374
 30
0.0
 11
4050.921024484277
 21
-754.99999999999693
 31
0.0
1001
ACAD
1010
0.0
1020
0.0
1030
0.0
1001
ACDBBLOCKREPETAG
1070
     1
1071
       20
1005
13285A
  0
LINE
  5
13285B
  8
SLIM
 10
3920.0
 20
-903.88153672641204
 30
0.0
 11
4068.8815367264142
 21
-754.99999999999693
 31
0.0
1001
ACAD
1010
0.0
1020
0.0
1030
0.0
1001
ACDBBLOCKREPETAG
1070
     1
1071
       21
1005
13285B
  0
LINE
  5
13285C
  8
SLIM
 10
3920.0
 20
-921.84204896855022
 30
0.0
 11
4085.0000000000068
 21
-756.84204896854294
 31
0.0
1001
ACAD
1010
0.0
1020
0.0
1030
0.0
1001
ACDBBLOCKREPETAG
1070
     1
1071
       22
1005
13285C
  0
LINE
  5
13285D
  8
SLIM
 10
3920.0
 20
-939.80256121068828
 30
0.0
 11
4085.0000000000059
 21
-774.80256121068282
 31
0.0
1001
ACAD
1010
0.0
1020
0.0
1030
0.0
1001
ACDBBLOCKREPETAG
1070
     1
1071
       23
1005
13285D
  0
LINE
  5
13285E
  8
SLIM
 10
3920.0
 20
-957.76307345282657
 30
0.0
 11
4085.0000000000041
 21
-792.76307345282271
 31
0.0
1001
ACAD
1010
0.0
1020
0.0
1030
0.0
1001
ACDBBLOCKREPETAG
1070
     1
1071
       24
1005
13285E
  0
LINE
  5
13285F
  8
SLIM
 10
3930.0
 20
-965.72358569496475
 30
0.0
 11
3930.7235856949678
 21
-964.99999999999704
 31
0.0
1001
ACAD
1010
0.0
1020
0.0
1030
0.0
1001
ACDBBLOCKREPETAG
1070
     1
1071
       25
1005
13285F
  0
LINE
  5
132860
  8
SLIM
 10
3930.7235856949678
 20
-964.99999999999704
 30
0.0
 11
4083.4738280308079
 21
-812.2497576641565
 31
0.0
1001
ACAD
1010
0.0
1020
0.0
1030
0.0
1001
ACDBBLOCKREPETAG
1070
     1
1071
       26
1005
132860
  0
LINE
  5
132861
  8
SLIM
 10
3930.0
 20
-983.68409793710339
 30
0.0
 11
3948.6840979371068
 21
-964.99999999999704
 31
0.0
1001
ACAD
1010
0.0
1020
0.0
1030
0.0
1001
ACDBBLOCKREPETAG
1070
     1
1071
       27
1005
132861
  0
LINE
  5
132862
  8
SLIM
 10
3948.6840979371068
 20
-964.99999999999704
 30
0.0
 11
4080.9680345671368
 21
-832.71606336996604
 31
0.0
1001
ACAD
1010
0.0
1020
0.0
1030
0.0
1001
ACDBBLOCKREPETAG
1070
     1
1071
       28
1005
132862
  0
LINE
  5
132863
  8
SLIM
 10
3946.6446101792449
 20
-984.99999999999693
 30
0.0
 11
3966.6446101792449
 21
-964.99999999999704
 31
0.0
1001
ACAD
1010
0.0
1020
0.0
1030
0.0
1001
ACDBBLOCKREPETAG
1070
     1
1071
       29
1005
132863
  0
LINE
  5
132864
  8
SLIM
 10
3966.6446101792449
 20
-964.99999999999704
 30
0.0
 11
4080.0
 21
-851.64461017924202
 31
0.0
1001
ACAD
1010
0.0
1020
0.0
1030
0.0
1001
ACDBBLOCKREPETAG
1070
     1
1071
       30
1005
132864
  0
LINE
  5
132865
  8
SLIM
 10
3964.6051224213829
 20
-984.99999999999693
 30
0.0
 11
3984.6051224213829
 21
-964.99999999999704
 31
0.0
1001
ACAD
1010
0.0
1020
0.0
1030
0.0
1001
ACDBBLOCKREPETAG
1070
     1
1071
       31
1005
132865
  0
LINE
  5
132866
  8
SLIM
 10
3984.6051224213829
 20
-964.99999999999704
 30
0.0
 11
4080.0
 21
-869.60512242138032
 31
0.0
1001
ACAD
1010
0.0
1020
0.0
1030
0.0
1001
ACDBBLOCKREPETAG
1070
     1
1071
       32
1005
132866
  0
LINE
  5
132867
  8
SLIM
 10
3982.565634663521
 20
-984.99999999999693
 30
0.0
 11
4002.565634663521
 21
-964.99999999999704
 31
0.0
1001
ACAD
1010
0.0
1020
0.0
1030
0.0
1001
ACDBBLOCKREPETAG
1070
     1
1071
       33
1005
132867
  0
LINE
  5
132868
  8
SLIM
 10
4002.565634663521
 20
-964.99999999999704
 30
0.0
 11
4079.9999999999991
 21
-887.56563466351895
 31
0.0
1001
ACAD
1010
0.0
1020
0.0
1030
0.0
1001
ACDBBLOCKREPETAG
1070
     1
1071
       34
1005
132868
  0
LINE
  5
132869
  8
SLIM
 10
4000.5261469056582
 20
-984.99999999999693
 30
0.0
 11
4020.52614690566
 21
-964.99999999999704
 31
0.0
1001
ACAD
1010
0.0
1020
0.0
1030
0.0
1001
ACDBBLOCKREPETAG
1070
     1
1071
       35
1005
132869
  0
LINE
  5
13286A
  8
SLIM
 10
4020.52614690566
 20
-964.99999999999704
 30
0.0
 11
4079.9999999999991
 21
-905.52614690565758
 31
0.0
1001
ACAD
1010
0.0
1020
0.0
1030
0.0
1001
ACDBBLOCKREPETAG
1070
     1
1071
       36
1005
13286A
  0
LINE
  5
13286B
  8
SLIM
 10
4018.486659147798
 20
-984.99999999999693
 30
0.0
 11
4038.486659147798
 21
-964.99999999999682
 31
0.0
1001
ACAD
1010
0.0
1020
0.0
1030
0.0
1001
ACDBBLOCKREPETAG
1070
     1
1071
       37
1005
13286B
  0
LINE
  5
13286C
  8
SLIM
 10
4038.486659147798
 20
-964.99999999999682
 30
0.0
 11
4079.9999999999991
 21
-923.48665914779599
 31
0.0
1001
ACAD
1010
0.0
1020
0.0
1030
0.0
1001
ACDBBLOCKREPETAG
1070
     1
1071
       38
1005
13286C
  0
LINE
  5
13286D
  8
SLIM
 10
4036.4471713899361
 20
-984.99999999999693
 30
0.0
 11
4056.4471713899361
 21
-964.99999999999682
 31
0.0
1001
ACAD
1010
0.0
1020
0.0
1030
0.0
1001
ACDBBLOCKREPETAG
1070
     1
1071
       39
1005
13286D
  0
LINE
  5
13286E
  8
SLIM
 10
4056.4471713899361
 20
-964.99999999999682
 30
0.0
 11
4079.9999999999991
 21
-941.44717138993474
 31
0.0
1001
ACAD
1010
0.0
1020
0.0
1030
0.0
1001
ACDBBLOCKREPETAG
1070
     1
1071
       40
1005
13286E
  0
LINE
  5
13286F
  8
SLIM
 10
4054.4076836320728
 20
-984.99999999999693
 30
0.0
 11
4070.0
 21
-969.40768363207155
 31
0.0
1001
ACAD
1010
0.0
1020
0.0
1030
0.0
1001
ACDBBLOCKREPETAG
1070
     1
1071
       41
1005
13286F
  0
LINE
  5
132870
  8
SLIM
 10
4074.4076836320728
 20
-964.99999999999682
 30
0.0
 11
4079.9999999999991
 21
-959.40768363207314
 31
0.0
1001
ACAD
1010
0.0
1020
0.0
1030
0.0
1001
ACDBBLOCKREPETAG
1070
     1
1071
       42
1005
132870
  0
LINE
  5
132871
  8
OBJECT
 10
3914.9999999999941
 20
-754.99999999999693
 30
0.0
 11
3914.9999999999968
 21
-799.78460339903188
 31
0.0
1001
ACDBBLOCKREPETAG
1070
     1
1071
        1
1005
132871
  0
LINE
  5
132872
  8
OBJECT
 10
4085.0000000000068
 20
-754.99999999999693
 30
0.0
 11
4085.0000000000032
 21
-799.78460339903904
 31
0.0
1001
ACDBBLOCKREPETAG
1070
     1
1071
        2
1005
132872
  0
LINE
  5
132873
  8
OBJECT
 10
4085.0000000000068
 20
-754.99999999999693
 30
0.0
 11
3914.9999999999941
 21
-754.99999999999693
 31
0.0
1001
ACDBBLOCKREPETAG
1070
     1
1071
        3
1005
132873
  0
LINE
  5
132874
  8
OBJECT
 10
4079.9999999999991
 20
-964.99999999999682
 30
0.0
 11
3920.0
 21
-964.99999999999704
 31
0.0
1001
ACDBBLOCKREPETAG
1070
     1
1071
        4
1005
132874
  0
LINE
  5
132875
  8
OBJECT
 10
3914.9999999999968
 20
-799.78460339903245
 30
0.0
 11
3920.0
 21
-840.62257748298384
 31
0.0
1001
ACDBBLOCKREPETAG
1070
     1
1071
        6
1005
132875
  0
LINE
  5
132876
  8
OBJECT
 10
3920.0
 20
-840.62257748298384
 30
0.0
 11
3920.0
 21
-964.99999999999704
 31
0.0
1001
ACDBBLOCKREPETAG
1070
     1
1071
        7
1005
132876
  0
LINE
  5
132877
  8
OBJECT
 10
4085.0000000000032
 20
-799.78460339903904
 30
0.0
 11
4080.0
 21
-840.62257748298384
 31
0.0
1001
ACDBBLOCKREPETAG
1070
     1
1071
        8
1005
132877
  0
LINE
  5
132878
  8
OBJECT
 10
4080.0
 20
-840.62257748298384
 30
0.0
 11
4079.9999999999991
 21
-964.99999999999682
 31
0.0
1001
ACDBBLOCKREPETAG
1070
     1
1071
        9
1005
132878
  0
LINE
  5
132879
  8
OBJECT
 10
3930.0
 20
-964.99999999999704
 30
0.0
 11
3930.0
 21
-984.99999999999693
 31
0.0
1001
ACDBBLOCKREPETAG
1070
     1
1071
       10
1005
132879
  0
LINE
  5
13287A
  8
OBJECT
 10
3930.0
 20
-984.99999999999693
 30
0.0
 11
4070.0
 21
-984.99999999999693
 31
0.0
1001
ACDBBLOCKREPETAG
1070
     1
1071
       11
1005
13287A
  0
LINE
  5
13287B
  8
OBJECT
 10
4070.0
 20
-984.99999999999693
 30
0.0
 11
4070.0
 21
-964.99999999999682
 31
0.0
1001
ACDBBLOCKREPETAG
1070
     1
1071
       12
1005
13287B
  0
CIRCLE
  5
13287C
  8
OBJECT
 10
5000.0
 20
-3174.9999999999959
 30
0.0
 40
53.5
1001
ACDBBLOCKREPETAG
1070
     1
1071
      344
1005
13287C
  0
LINE
  5
13287D
  8
CENTER
 10
5080.0
 20
-3174.9999999999959
 30
0.0
 11
4905.0
 21
-3174.9999999999959
 31
0.0
1001
ACDBBLOCKREPETAG
1070
     1
1071
       14
1005
13287D
  0
LINE
  5
13287E
  8
CENTER
 10
5000.0
 20
-3269.9999999999959
 30
0.0
 11
5000.0
 21
-3079.9999999999959
 31
0.0
1001
ACDBBLOCKREPETAG
1070
     1
1071
       15
1005
13287E
  0
CIRCLE
  5
13287F
  8
OBJECT
 10
5000.0
 20
-3174.9999999999959
 30
0.0
 40
70.0
1001
ACDBBLOCKREPETAG
1070
     1
1071
       16
1005
13287F
  0
CIRCLE
  5
132880
  8
OBJECT
 10
5000.0
 20
-3174.9999999999959
 30
0.0
 40
77.0
1001
ACDBBLOCKREPETAG
1070
     1
1071
       17
1005
132880
  0
ARC
  5
132881
  8
OBJECT
 10
5000.0
 20
-3174.9999999999959
 30
0.0
 40
80.0
 50
50.805032573882329
 51
309.19496742611773
1001
ACDBBLOCKREPETAG
1070
     1
1071
       18
1005
132881
  0
LINE
  5
132882
  8
OBJECT
 10
5045.6618002273253
 20
-3112.9999999999959
 30
0.0
 11
5080.0
 21
-3112.9999999999959
 31
0.0
1001
ACDBBLOCKREPETAG
1070
     1
1071
       19
1005
132882
  0
LINE
  5
132883
  8
OBJECT
 10
5045.6618002273253
 20
-3236.9999999999959
 30
0.0
 11
5080.0
 21
-3236.9999999999959
 31
0.0
1001
ACDBBLOCKREPETAG
1070
     1
1071
       20
1005
132883
  0
POINT
  5
132884
  8
DOTS
 10
5000.0
 20
-3174.9999999999959
 30
0.0
1001
ACDBBLOCKREPETAG
1070
     1
1071
       21
1005
132884
  0
CIRCLE
  5
132885
  8
OBJECT
 10
4000.0
 20
-3174.9999999999959
 30
0.0
 40
53.5
1001
ACDBBLOCKREPETAG
1070
     1
1071
      344
1005
132885
  0
LINE
  5
132886
  8
CENTER
 10
4080.0
 20
-3174.9999999999959
 30
0.0
 11
3905.0
 21
-3174.9999999999959
 31
0.0
1001
ACDBBLOCKREPETAG
1070
     1
1071
       14
1005
132886
  0
LINE
  5
132887
  8
CENTER
 10
4000.0
 20
-3269.9999999999959
 30
0.0
 11
4000.0
 21
-3079.9999999999959
 31
0.0
1001
ACDBBLOCKREPETAG
1070
     1
1071
       15
1005
132887
  0
CIRCLE
  5
132888
  8
OBJECT
 10
4000.0
 20
-3174.9999999999959
 30
0.0
 40
70.0
1001
ACDBBLOCKREPETAG
1070
     1
1071
       16
1005
132888
  0
CIRCLE
  5
132889
  8
OBJECT
 10
4000.0
 20
-3174.9999999999959
 30
0.0
 40
77.0
1001
ACDBBLOCKREPETAG
1070
     1
1071
       17
1005
132889
  0
ARC
  5
13288A
  8
OBJECT
 10
4000.0
 20
-3174.9999999999959
 30
0.0
 40
80.0
 50
50.805032573862128
 51
309.19496742613791
1001
ACDBBLOCKREPETAG
1070
     1
1071
       18
1005
13288A
  0
LINE
  5
13288B
  8
OBJECT
 10
4045.661800227324
 20
-3112.9999999999959
 30
0.0
 11
4080.0
 21
-3112.9999999999959
 31
0.0
1001
ACDBBLOCKREPETAG
1070
     1
1071
       19
1005
13288B
  0
LINE
  5
13288C
  8
OBJECT
 10
4045.661800227324
 20
-3236.9999999999959
 30
0.0
 11
4080.0
 21
-3236.9999999999959
 31
0.0
1001
ACDBBLOCKREPETAG
1070
     1
1071
       20
1005
13288C
  0
POINT
  5
13288D
  8
DOTS
 10
4000.0
 20
-3174.9999999999959
 30
0.0
1001
ACDBBLOCKREPETAG
1070
     1
1071
       21
1005
13288D
  0
CIRCLE
  5
13288E
  8
OBJECT
 10
3000.0
 20
-3174.9999999999959
 30
0.0
 40
53.5
1001
ACDBBLOCKREPETAG
1070
     1
1071
      344
1005
13288E
  0
LINE
  5
13288F
  8
CENTER
 10
3080.0
 20
-3174.9999999999959
 30
0.0
 11
2905.0
 21
-3174.9999999999959
 31
0.0
1001
ACDBBLOCKREPETAG
1070
     1
1071
       14
1005
13288F
  0
LINE
  5
132890
  8
CENTER
 10
3000.0
 20
-3269.9999999999959
 30
0.0
 11
3000.0
 21
-3079.9999999999959
 31
0.0
1001
ACDBBLOCKREPETAG
1070
     1
1071
       15
1005
132890
  0
CIRCLE
  5
132891
  8
OBJECT
 10
3000.0
 20
-3174.9999999999959
 30
0.0
 40
70.0
1001
ACDBBLOCKREPETAG
1070
     1
1071
       16
1005
132891
  0
CIRCLE
  5
132892
  8
OBJECT
 10
3000.0
 20
-3174.9999999999959
 30
0.0
 40
77.0
1001
ACDBBLOCKREPETAG
1070
     1
1071
       17
1005
132892
  0
ARC
  5
132893
  8
OBJECT
 10
3000.0
 20
-3174.9999999999959
 30
0.0
 40
80.0
 50
50.805032573862128
 51
309.19496742613791
1001
ACDBBLOCKREPETAG
1070
     1
1071
       18
1005
132893
  0
LINE
  5
132894
  8
OBJECT
 10
3045.6618002273249
 20
-3112.9999999999959
 30
0.0
 11
3080.0
 21
-3112.9999999999959
 31
0.0
1001
ACDBBLOCKREPETAG
1070
     1
1071
       19
1005
132894
  0
LINE
  5
132895
  8
OBJECT
 10
3045.6618002273249
 20
-3236.9999999999959
 30
0.0
 11
3080.0
 21
-3236.9999999999959
 31
0.0
1001
ACDBBLOCKREPETAG
1070
     1
1071
       20
1005
132895
  0
POINT
  5
132896
  8
DOTS
 10
3000.0
 20
-3174.9999999999959
 30
0.0
1001
ACDBBLOCKREPETAG
1070
     1
1071
       21
1005
132896
  0
CIRCLE
  5
132897
  8
OBJECT
 10
2000.0
 20
-3174.9999999999959
 30
0.0
 40
53.5
1001
ACDBBLOCKREPETAG
1070
     1
1071
      344
1005
132897
  0
LINE
  5
132898
  8
CENTER
 10
2080.0
 20
-3174.9999999999959
 30
0.0
 11
1905.0
 21
-3174.9999999999959
 31
0.0
1001
ACDBBLOCKREPETAG
1070
     1
1071
       14
1005
132898
  0
LINE
  5
132899
  8
CENTER
 10
2000.0
 20
-3269.9999999999959
 30
0.0
 11
2000.0
 21
-3079.9999999999959
 31
0.0
1001
ACDBBLOCKREPETAG
1070
     1
1071
       15
1005
132899
  0
CIRCLE
  5
13289A
  8
OBJECT
 10
2000.0
 20
-3174.9999999999959
 30
0.0
 40
70.0
1001
ACDBBLOCKREPETAG
1070
     1
1071
       16
1005
13289A
  0
CIRCLE
  5
13289B
  8
OBJECT
 10
2000.0
 20
-3174.9999999999959
 30
0.0
 40
77.0
1001
ACDBBLOCKREPETAG
1070
     1
1071
       17
1005
13289B
  0
ARC
  5
13289C
  8
OBJECT
 10
2000.0
 20
-3174.9999999999959
 30
0.0
 40
80.0
 50
50.805032573862128
 51
309.19496742613791
1001
ACDBBLOCKREPETAG
1070
     1
1071
       18
1005
13289C
  0
LINE
  5
13289D
  8
OBJECT
 10
2045.6618002273251
 20
-3112.9999999999959
 30
0.0
 11
2080.0
 21
-3112.9999999999959
 31
0.0
1001
ACDBBLOCKREPETAG
1070
     1
1071
       19
1005
13289D
  0
LINE
  5
13289E
  8
OBJECT
 10
2045.6618002273251
 20
-3236.9999999999959
 30
0.0
 11
2080.0
 21
-3236.9999999999959
 31
0.0
1001
ACDBBLOCKREPETAG
1070
     1
1071
       20
1005
13289E
  0
POINT
  5
13289F
  8
DOTS
 10
2000.0
 20
-3174.9999999999959
 30
0.0
1001
ACDBBLOCKREPETAG
1070
     1
1071
       21
1005
13289F
  0
CIRCLE
  5
1328A0
  8
OBJECT
 10
2000.0
 20
-199.99999999999909
 30
0.0
 40
53.5
1001
ACDBBLOCKREPETAG
1070
     1
1071
      340
1005
1328A0
  0
LINE
  5
1328A1
  8
CENTER
 10
2080.0
 20
-199.99999999999909
 30
0.0
 11
1920.0
 21
-199.99999999999909
 31
0.0
1001
ACDBBLOCKREPETAG
1070
     1
1071
       49
1005
1328A1
  0
LINE
  5
1328A2
  8
CENTER
 10
2000.0
 20
-279.99999999999909
 30
0.0
 11
2000.0
 21
-104.9999999999991
 31
0.0
1001
ACDBBLOCKREPETAG
1070
     1
1071
       50
1005
1328A2
  0
CIRCLE
  5
1328A3
  8
OBJECT
 10
2000.0
 20
-199.99999999999909
 30
0.0
 40
70.0
1001
ACDBBLOCKREPETAG
1070
     1
1071
       51
1005
1328A3
  0
CIRCLE
  5
1328A4
  8
OBJECT
 10
2000.0
 20
-199.99999999999909
 30
0.0
 40
77.0
1001
ACDBBLOCKREPETAG
1070
     1
1071
       52
1005
1328A4
  0
ARC
  5
1328A5
  8
OBJECT
 10
2000.0
 20
-199.99999999999909
 30
0.0
 40
80.0
 50
50.805032573864182
 51
129.1949674261358
1001
ACDBBLOCKREPETAG
1070
     1
1071
       53
1005
1328A5
  0
LINE
  5
1328A6
  8
OBJECT
 10
2045.6618002273251
 20
-137.99999999999909
 30
0.0
 11
2080.0
 21
-137.99999999999909
 31
0.0
1001
ACDBBLOCKREPETAG
1070
     1
1071
       54
1005
1328A6
  0
LINE
  5
1328A7
  8
OBJECT
 10
2062.0
 20
-261.99999999999909
 30
0.0
 11
2080.0
 21
-261.99999999999909
 31
0.0
1001
ACDBBLOCKREPETAG
1070
     1
1071
       55
1005
1328A7
  0
LINE
  5
1328A8
  8
OBJECT
 10
2062.0
 20
-261.99999999999909
 30
0.0
 11
2062.0
 21
-279.99999999999909
 31
0.0
1001
ACDBBLOCKREPETAG
1070
     1
1071
       57
1005
1328A8
  0
LINE
  5
1328A9
  8
OBJECT
 10
1938.0
 20
-261.99999999999909
 30
0.0
 11
1938.0
 21
-279.99999999999909
 31
0.0
1001
ACDBBLOCKREPETAG
1070
     1
1071
       58
1005
1328A9
  0
POINT
  5
1328AA
  8
DOTS
 10
2000.0
 20
-199.99999999999909
 30
0.0
 50
90.0
1001
ACDBBLOCKREPETAG
1070
     1
1071
       59
1005
1328AA
  0
LINE
  5
1328AB
  8
OBJECT
 10
1938.0
 20
-261.99999999999909
 30
0.0
 11
1920.0
 21
-261.99999999999909
 31
0.0
1001
ACDBBLOCKREPETAG
1070
     1
1071
       60
1005
1328AB
  0
LINE
  5
1328AC
  8
OBJECT
 10
1954.3381997726749
 20
-137.99999999999909
 30
0.0
 11
1920.0
 21
-137.99999999999909
 31
0.0
1001
ACDBBLOCKREPETAG
1070
     1
1071
       61
1005
1328AC
  0
LINE
  5
1328AD
  8
OBJECT
 10
1945.5527778486351
 20
-254.44722215136329
 30
0.0
 11
1938.0
 21
-261.99999999999909
 31
0.0
1001
ACDBBLOCKREPETAG
1070
     1
1071
       42
1005
1328AD
  0
LINE
  5
1328AE
  8
OBJECT
 10
2054.4472221513638
 20
-254.44722215136329
 30
0.0
 11
2062.0
 21
-261.99999999999909
 31
0.0
1001
ACDBBLOCKREPETAG
1070
     1
1071
       43
1005
1328AE
  0
TEXT
  5
1328AF
  8
SLIM
 10
1837.75
 20
282.50000000000011
 30
0.0
 40
35.0
  1
（枝管サイズ毎に寸法が異なります。管底の位置は50～100で同じです）
 41
0.75
  0
TEXT
  5
1328B0
  8
SLIM
 10
1850.0
 20
532.5
 30
0.0
 40
75.0
  1
側面図の代表機種
 41
0.75
  0
TEXT
  5
1328B1
  8
SLIM
 10
1850.0
 20
369.99999999999989
 30
0.0
 40
100.0
  1
4SR-Z306-P140
 41
0.75
  0
LINE
  5
1328B2
  8
OBJECT
 10
1787.000000000018
 20
-137.99999999999909
 30
0.0
 11
1780.000000000018
 21
-137.99999999999909
 31
0.0
1001
ACDBBLOCKREPETAG
1070
     1
1071
      110
1005
1328B2
  0
LINE
  5
1328B3
  8
OBJECT
 10
1780.000000000018
 20
-137.99999999999909
 30
0.0
 11
1780.000000000018
 21
-261.99999999999909
 31
0.0
1001
ACDBBLOCKREPETAG
1070
     1
1071
      111
1005
1328B3
  0
LINE
  5
1328B4
  8
OBJECT
 10
1780.000000000018
 20
-261.99999999999909
 30
0.0
 11
1787.000000000018
 21
-261.99999999999909
 31
0.0
1001
ACDBBLOCKREPETAG
1070
     1
1071
      112
1005
1328B4
  0
LINE
  5
1328B5
  8
OBJECT
 10
1787.000000000018
 20
-261.99999999999909
 30
0.0
 11
1787.000000000018
 21
-137.99999999999909
 31
0.0
1001
ACDBBLOCKREPETAG
1070
     1
1071
      113
1005
1328B5
  0
LINE
  5
1328B6
  8
CENTER
 10
1765.000000000018
 20
-199.99999999999909
 30
0.0
 11
1920.0
 21
-199.99999999999909
 31
0.0
1001
ACDBBLOCKREPETAG
1070
     1
1071
      114
1005
1328B6
  0
LINE
  5
1328B7
  8
OBJECT
 10
1840.0000250358171
 20
-245.0000000000027
 30
0.0
 11
1914.000000000003
 21
-244.99999999999909
 31
0.0
1001
ACDBBLOCKREPETAG
1070
     1
1071
      115
1005
1328B7
  0
LINE
  5
1328B8
  8
OBJECT
 10
1840.0000250358171
 20
-154.99999999999909
 30
0.0
 11
1914.000000000003
 21
-154.99999999999909
 31
0.0
1001
ACDBBLOCKREPETAG
1070
     1
1071
      116
1005
1328B8
  0
LINE
  5
1328B9
  8
OBJECT
 10
1787.000000000018
 20
-140.99999999999909
 30
0.0
 11
1823.000000000018
 21
-140.99999999999909
 31
0.0
1001
ACDBBLOCKREPETAG
1070
     1
1071
      117
1005
1328B9
  0
LINE
  5
1328BA
  8
OBJECT
 10
1823.000000000018
 20
-140.99999999999909
 30
0.0
 11
1823.000000000018
 21
-258.99999999999909
 31
0.0
1001
ACDBBLOCKREPETAG
1070
     1
1071
      118
1005
1328BA
  0
LINE
  5
1328BB
  8
OBJECT
 10
1823.000000000018
 20
-258.99999999999909
 30
0.0
 11
1787.000000000018
 21
-258.99999999999909
 31
0.0
1001
ACDBBLOCKREPETAG
1070
     1
1071
      119
1005
1328BB
  0
LINE
  5
1328BC
  8
OBJECT
 10
1827.000000000018
 20
-145.49999999999909
 30
0.0
 11
1840.000000000018
 21
-145.49999999999909
 31
0.0
1001
ACDBBLOCKREPETAG
1070
     1
1071
      120
1005
1328BC
  0
LINE
  5
1328BD
  8
OBJECT
 10
1840.000000000018
 20
-254.49999999999909
 30
0.0
 11
1827.000000000018
 21
-254.49999999999909
 31
0.0
1001
ACDBBLOCKREPETAG
1070
     1
1071
      121
1005
1328BD
  0
LINE
  5
1328BE
  8
OBJECT
 10
1827.000000000018
 20
-254.49999999999909
 30
0.0
 11
1827.000000000018
 21
-145.49999999999909
 31
0.0
1001
ACDBBLOCKREPETAG
1070
     1
1071
      122
1005
1328BE
  0
LINE
  5
1328BF
  8
OBJECT
 10
1823.000000000018
 20
-140.99999999999909
 30
0.0
 11
1827.000000000018
 21
-145.49999999999909
 31
0.0
1001
ACDBBLOCKREPETAG
1070
     1
1071
      123
1005
1328BF
  0
LINE
  5
1328C0
  8
OBJECT
 10
1823.000000000018
 20
-258.99999999999909
 30
0.0
 11
1827.000000000018
 21
-254.49999999999909
 31
0.0
1001
ACDBBLOCKREPETAG
1070
     1
1071
      124
1005
1328C0
  0
LINE
  5
1328C1
  8
OBJECT
 10
1917.0000000000041
 20
-137.99999999999909
 30
0.0
 11
1920.0000000000041
 21
-137.99999999999909
 31
0.0
1001
ACDBBLOCKREPETAG
1070
     1
1071
      125
1005
1328C1
  0
ARC
  5
1328C2
  8
OBJECT
 10
1917.0000000000041
 20
-140.99999999999909
 30
0.0
 40
3.0
 50
90.0
 51
180.0
1001
ACDBBLOCKREPETAG
1070
     1
1071
      126
1005
1328C2
  0
LINE
  5
1328C3
  8
OBJECT
 10
1920.0000000000041
 20
-261.99999999999909
 30
0.0
 11
1917.0000000000041
 21
-261.99999999999909
 31
0.0
1001
ACDBBLOCKREPETAG
1070
     1
1071
      127
1005
1328C3
  0
ARC
  5
1328C4
  8
OBJECT
 10
1917.0000000000041
 20
-258.99999999999909
 30
0.0
 40
3.0
 50
180.0
 51
270.0
1001
ACDBBLOCKREPETAG
1070
     1
1071
      128
1005
1328C4
  0
LINE
  5
1328C5
  8
OBJECT
 10
1914.000000000003
 20
-258.99999999999909
 30
0.0
 11
1914.000000000003
 21
-222.44994432063581
 31
0.0
1001
ACDBBLOCKREPETAG
1070
     1
1071
      129
1005
1328C5
  0
LINE
  5
1328C6
  8
OBJECT
 10
1914.000000000003
 20
-177.55005567935859
 30
0.0
 11
1914.000000000003
 21
-140.99999999999909
 31
0.0
1001
ACDBBLOCKREPETAG
1070
     1
1071
      130
1005
1328C6
  0
LINE
  5
1328C7
  8
HIDDEN
 10
1832.000000000018
 20
-155.49999999999909
 30
0.0
 11
1832.000000000018
 21
-244.49999999999909
 31
0.0
1001
ACDBBLOCKREPETAG
1070
     1
1071
      131
1005
1328C7
  0
LINE
  5
1328C8
  8
OBJECT
 10
1840.0000250358171
 20
-254.4999509238105
 30
0.0
 11
1840.0000250358171
 21
-145.4999509238105
 31
0.0
1001
ACDBBLOCKREPETAG
1070
     1
1071
      133
1005
1328C8
  0
ARC
  5
1328C9
  8
OBJECT
 10
1875.0
 20
-199.99999999999909
 30
0.0
 40
45.000000000000547
 50
270.0
 51
90.0
1001
ACDBBLOCKREPETAG
1070
     1
1071
      134
1005
1328C9
  0
LINE
  5
1328CA
  8
CENTER
 10
2000.0
 20
-300.99999999999898
 30
0.0
 11
2000.0
 21
-279.99999999999909
 31
0.0
1001
ACDBBLOCKREPETAG
1070
     1
1071
        0
1005
1328CA
  0
LINE
  5
1328CB
  8
OBJECT
 10
2062.0
 20
-283.0
 30
0.0
 11
2062.0
 21
-279.99999999999909
 31
0.0
1001
ACDBBLOCKREPETAG
1070
     1
1071
        1
1005
1328CB
  0
ARC
  5
1328CC
  8
OBJECT
 10
2059.0
 20
-283.0
 30
0.0
 40
3.0
 50
270.0
 51
0.0
1001
ACDBBLOCKREPETAG
1070
     1
1071
        2
1005
1328CC
  0
LINE
  5
1328CD
  8
OBJECT
 10
1938.0
 20
-279.99999999999909
 30
0.0
 11
1938.0
 21
-282.99999999999818
 31
0.0
1001
ACDBBLOCKREPETAG
1070
     1
1071
        3
1005
1328CD
  0
ARC
  5
1328CE
  8
OBJECT
 10
1941.0
 20
-282.99999999999818
 30
0.0
 40
3.0
 50
180.0
 51
270.0
1001
ACDBBLOCKREPETAG
1070
     1
1071
        4
1005
1328CE
  0
LINE
  5
1328CF
  8
OBJECT
 10
1941.0
 20
-285.99999999999818
 30
0.0
 11
2059.0
 21
-286.0
 31
0.0
1001
ACDBBLOCKREPETAG
1070
     1
1071
        5
1005
1328CF
  0
LINE
  5
1328D0
  8
OBJECT
 10
2133.0
 20
-137.99999999999909
 30
0.0
 11
2140.0
 21
-137.99999999999909
 31
0.0
1001
ACDBBLOCKREPETAG
1070
     1
1071
       47
1005
1328D0
  0
LINE
  5
1328D1
  8
OBJECT
 10
2140.0
 20
-137.99999999999909
 30
0.0
 11
2140.0
 21
-261.99999999999909
 31
0.0
1001
ACDBBLOCKREPETAG
1070
     1
1071
       48
1005
1328D1
  0
LINE
  5
1328D2
  8
OBJECT
 10
2140.0
 20
-261.99999999999909
 30
0.0
 11
2133.0
 21
-261.99999999999909
 31
0.0
1001
ACDBBLOCKREPETAG
1070
     1
1071
       49
1005
1328D2
  0
LINE
  5
1328D3
  8
OBJECT
 10
2133.0
 20
-261.99999999999909
 30
0.0
 11
2133.0
 21
-137.99999999999909
 31
0.0
1001
ACDBBLOCKREPETAG
1070
     1
1071
       50
1005
1328D3
  0
LINE
  5
1328D4
  8
CENTER
 10
2155.0
 20
-199.99999999999909
 30
0.0
 11
2080.0
 21
-199.99999999999909
 31
0.0
1001
ACDBBLOCKREPETAG
1070
     1
1071
       51
1005
1328D4
  0
LINE
  5
1328D5
  8
OBJECT
 10
2133.0
 20
-140.99999999999909
 30
0.0
 11
2097.0
 21
-140.99999999999909
 31
0.0
1001
ACDBBLOCKREPETAG
1070
     1
1071
       52
1005
1328D5
  0
LINE
  5
1328D6
  8
OBJECT
 10
2097.0
 20
-140.99999999999909
 30
0.0
 11
2097.0
 21
-258.99999999999909
 31
0.0
1001
ACDBBLOCKREPETAG
1070
     1
1071
       53
1005
1328D6
  0
LINE
  5
1328D7
  8
OBJECT
 10
2097.0
 20
-258.99999999999909
 30
0.0
 11
2133.0
 21
-258.99999999999909
 31
0.0
1001
ACDBBLOCKREPETAG
1070
     1
1071
       54
1005
1328D7
  0
LINE
  5
1328D8
  8
OBJECT
 10
2093.0
 20
-145.49999999999909
 30
0.0
 11
2086.0
 21
-145.49999999999909
 31
0.0
1001
ACDBBLOCKREPETAG
1070
     1
1071
       55
1005
1328D8
  0
LINE
  5
1328D9
  8
OBJECT
 10
2086.0
 20
-254.49999999999909
 30
0.0
 11
2093.0
 21
-254.49999999999909
 31
0.0
1001
ACDBBLOCKREPETAG
1070
     1
1071
       56
1005
1328D9
  0
LINE
  5
1328DA
  8
OBJECT
 10
2093.0
 20
-254.49999999999909
 30
0.0
 11
2093.0
 21
-145.49999999999909
 31
0.0
1001
ACDBBLOCKREPETAG
1070
     1
1071
       57
1005
1328DA
  0
LINE
  5
1328DB
  8
OBJECT
 10
2097.0
 20
-140.99999999999909
 30
0.0
 11
2093.0
 21
-145.49999999999909
 31
0.0
1001
ACDBBLOCKREPETAG
1070
     1
1071
       58
1005
1328DB
  0
LINE
  5
1328DC
  8
OBJECT
 10
2097.0
 20
-258.99999999999909
 30
0.0
 11
2093.0
 21
-254.49999999999909
 31
0.0
1001
ACDBBLOCKREPETAG
1070
     1
1071
       59
1005
1328DC
  0
LINE
  5
1328DD
  8
OBJECT
 10
2083.0
 20
-137.99999999999909
 30
0.0
 11
2080.0
 21
-137.99999999999909
 31
0.0
1001
ACDBBLOCKREPETAG
1070
     1
1071
       60
1005
1328DD
  0
ARC
  5
1328DE
  8
OBJECT
 10
2083.0
 20
-140.99999999999909
 30
0.0
 40
3.0
 50
0.0
 51
90.0
1001
ACDBBLOCKREPETAG
1070
     1
1071
       61
1005
1328DE
  0
LINE
  5
1328DF
  8
OBJECT
 10
2080.0
 20
-261.99999999999909
 30
0.0
 11
2083.0
 21
-261.99999999999909
 31
0.0
1001
ACDBBLOCKREPETAG
1070
     1
1071
       62
1005
1328DF
  0
ARC
  5
1328E0
  8
OBJECT
 10
2083.0
 20
-258.99999999999909
 30
0.0
 40
3.0
 50
270.0
 51
0.0
1001
ACDBBLOCKREPETAG
1070
     1
1071
       63
1005
1328E0
  0
LINE
  5
1328E1
  8
OBJECT
 10
2086.0
 20
-258.99999999999909
 30
0.0
 11
2086.0
 21
-140.99999999999909
 31
0.0
1001
ACDBBLOCKREPETAG
1070
     1
1071
       64
1005
1328E1
  0
LINE
  5
1328E2
  8
HIDDEN
 10
2088.0
 20
-155.49999999999909
 30
0.0
 11
2088.0
 21
-244.49999999999909
 31
0.0
1001
ACDBBLOCKREPETAG
1070
     1
1071
       65
1005
1328E2
  0
LINE
  5
1328E3
  8
OBJECT
 10
1787.000000000015
 20
-553.0
 30
0.0
 11
1780.0000000000141
 21
-553.0
 31
0.0
1001
ACDBBLOCKREPETAG
1070
     1
1071
      106
1005
1328E3
  0
LINE
  5
1328E4
  8
OBJECT
 10
1780.0000000000141
 20
-553.0
 30
0.0
 11
1780.0000000000141
 21
-677.0
 31
0.0
1001
ACDBBLOCKREPETAG
1070
     1
1071
      107
1005
1328E4
  0
LINE
  5
1328E5
  8
OBJECT
 10
1914.0000000000141
 20
-653.3502637757274
 30
0.0
 11
1914.0000000000141
 21
-755.00000000000102
 31
0.0
1001
ACDBBLOCKREPETAG
1070
     1
1071
      108
1005
1328E5
  0
LINE
  5
1328E6
  8
OBJECT
 10
1780.0000000000141
 20
-677.0
 30
0.0
 11
1787.000000000015
 21
-677.0
 31
0.0
1001
ACDBBLOCKREPETAG
1070
     1
1071
      109
1005
1328E6
  0
LINE
  5
1328E7
  8
OBJECT
 10
1787.000000000015
 20
-677.0
 30
0.0
 11
1787.000000000015
 21
-553.0
 31
0.0
1001
ACDBBLOCKREPETAG
1070
     1
1071
      110
1005
1328E7
  0
LINE
  5
1328E8
  8
CENTER
 10
1855.0000000000141
 20
-615.0000000000008
 30
0.0
 11
1765.0000000000141
 21
-615.0
 31
0.0
1001
ACDBBLOCKREPETAG
1070
     1
1071
      111
1005
1328E8
  0
LINE
  5
1328E9
  8
OBJECT
 10
1920.000000000018
 20
-758.0
 30
0.0
 11
1917.000000000015
 21
-758.0000000000008
 31
0.0
1001
ACDBBLOCKREPETAG
1070
     1
1071
      112
1005
1328E9
  0
ARC
  5
1328EA
  8
OBJECT
 10
1917.000000000015
 20
-755.00000000000102
 30
0.0
 40
3.0
 50
180.0
 51
270.0
1001
ACDBBLOCKREPETAG
1070
     1
1071
      113
1005
1328EA
  0
LINE
  5
1328EB
  8
OBJECT
 10
1787.000000000015
 20
-556.0
 30
0.0
 11
1823.0000000000141
 21
-556.0000000000008
 31
0.0
1001
ACDBBLOCKREPETAG
1070
     1
1071
      114
1005
1328EB
  0
LINE
  5
1328EC
  8
OBJECT
 10
1823.0000000000141
 20
-556.0000000000008
 30
0.0
 11
1823.0000000000141
 21
-653.15756805667843
 31
0.0
1001
ACDBBLOCKREPETAG
1070
     1
1071
      115
1005
1328EC
  0
LINE
  5
1328ED
  8
OBJECT
 10
1827.0000000000141
 20
-560.5000000000008
 30
0.0
 11
1827.000000000018
 21
-645.74491827928705
 31
0.0
1001
ACDBBLOCKREPETAG
1070
     1
1071
      116
1005
1328ED
  0
LINE
  5
1328EE
  8
OBJECT
 10
1827.0000000000141
 20
-560.5000000000008
 30
0.0
 11
1840.0000000000141
 21
-560.5000000000008
 31
0.0
1001
ACDBBLOCKREPETAG
1070
     1
1071
      117
1005
1328EE
  0
LINE
  5
1328EF
  8
OBJECT
 10
1831.343683174531
 20
-674.0000000000008
 30
0.0
 11
1787.000000000015
 21
-674.0
 31
0.0
1001
ACDBBLOCKREPETAG
1070
     1
1071
      118
1005
1328EF
  0
LINE
  5
1328F0
  8
OBJECT
 10
1823.0000000000141
 20
-556.0000000000008
 30
0.0
 11
1827.0000000000141
 21
-560.5000000000008
 31
0.0
1001
ACDBBLOCKREPETAG
1070
     1
1071
      119
1005
1328F0
  0
LINE
  5
1328F1
  8
OBJECT
 10
1840.0000000000141
 20
-560.5000000000008
 30
0.0
 11
1840.0000000000141
 21
-645.74491827928784
 31
0.0
1001
ACDBBLOCKREPETAG
1070
     1
1071
      120
1005
1328F1
  0
ARC
  5
1328F2
  8
OBJECT
 10
1908.000000000015
 20
-637.27386365609345
 30
0.0
 40
85.0
 50
205.59913872188221
 51
231.40900676279119
1001
ACDBBLOCKREPETAG
1070
     1
1071
      121
1005
1328F2
  0
ARC
  5
1328F3
  8
OBJECT
 10
1837.2000000000151
 20
-655.00000000000068
 30
0.0
 40
85.0
 50
19.925932125426211
 51
88.112268108168848
1001
ACDBBLOCKREPETAG
1070
     1
1071
      122
1005
1328F3
  0
LINE
  5
1328F4
  8
OBJECT
 10
1914.0000000000141
 20
-750.81075719270905
 30
0.0
 11
1854.980677456399
 21
-703.71143914629454
 31
0.0
1001
ACDBBLOCKREPETAG
1070
     1
1071
      123
1005
1328F4
  0
LINE
  5
1328F5
  8
OBJECT
 10
1827.000000000018
 20
-645.74491827928705
 30
0.0
 11
1840.0000000000141
 21
-645.74491827928784
 31
0.0
1001
ACDBBLOCKREPETAG
1070
     1
1071
      124
1005
1328F5
  0
LINE
  5
1328F6
  8
OBJECT
 10
1823.0000000000141
 20
-653.15756805667843
 30
0.0
 11
1827.000000000018
 21
-645.74491827928705
 31
0.0
1001
ACDBBLOCKREPETAG
1070
     1
1071
      125
1005
1328F6
  0
LINE
  5
1328F7
  8
OBJECT
 10
1919.999999999982
 20
-634.0
 30
0.0
 11
1917.111387840378
 21
-626.03156729425325
 31
0.0
1001
ACDBBLOCKREPETAG
1070
     1
1071
      126
1005
1328F7
  0
LINE
  5
1328F8
  8
OBJECT
 10
1919.999999999982
 20
-634.0
 30
0.0
 11
1914.0000000000141
 21
-653.3502637757274
 31
0.0
1001
ACDBBLOCKREPETAG
1070
     1
1071
      127
1005
1328F8
  0
LINE
  5
1328F9
  8
HIDDEN
 10
1832.0000000000141
 20
-570.5000000000008
 30
0.0
 11
1832.0000000000141
 21
-659.50000000000068
 31
0.0
1001
ACDBBLOCKREPETAG
1070
     1
1071
      129
1005
1328F9
  0
CIRCLE
  5
1328FA
  8
OBJECT
 10
2000.0
 20
-696.0
 30
0.0
 40
62.0
1001
ACDBBLOCKREPETAG
1070
     1
1071
        0
1005
1328FA
  0
LINE
  5
1328FB
  8
OBJECT
 10
2133.0
 20
-634.0
 30
0.0
 11
2140.0
 21
-634.0
 31
0.0
1001
ACDBBLOCKREPETAG
1070
     1
1071
       45
1005
1328FB
  0
LINE
  5
1328FC
  8
OBJECT
 10
2140.0
 20
-634.0
 30
0.0
 11
2140.0
 21
-755.0
 31
0.0
1001
ACDBBLOCKREPETAG
1070
     1
1071
       46
1005
1328FC
  0
LINE
  5
1328FD
  8
OBJECT
 10
2133.0
 20
-755.0
 30
0.0
 11
2133.0
 21
-634.0
 31
0.0
1001
ACDBBLOCKREPETAG
1070
     1
1071
       47
1005
1328FD
  0
LINE
  5
1328FE
  8
CENTER
 10
2155.0
 20
-696.0
 30
0.0
 11
2071.0
 21
-696.0
 31
0.0
1001
ACDBBLOCKREPETAG
1070
     1
1071
       48
1005
1328FE
  0
LINE
  5
1328FF
  8
OBJECT
 10
2133.0
 20
-637.0
 30
0.0
 11
2097.0
 21
-637.0
 31
0.0
1001
ACDBBLOCKREPETAG
1070
     1
1071
       49
1005
1328FF
  0
LINE
  5
132900
  8
OBJECT
 10
2097.0
 20
-637.0
 30
0.0
 11
2097.0
 21
-755.0
 31
0.0
1001
ACDBBLOCKREPETAG
1070
     1
1071
       50
1005
132900
  0
LINE
  5
132901
  8
OBJECT
 10
2097.0
 20
-755.0
 30
0.0
 11
2140.0
 21
-755.0
 31
0.0
1001
ACDBBLOCKREPETAG
1070
     1
1071
       51
1005
132901
  0
LINE
  5
132902
  8
OBJECT
 10
2093.0
 20
-641.5
 30
0.0
 11
2086.0
 21
-641.5
 31
0.0
1001
ACDBBLOCKREPETAG
1070
     1
1071
       52
1005
132902
  0
LINE
  5
132903
  8
OBJECT
 10
2086.0
 20
-750.49999999999989
 30
0.0
 11
2093.0
 21
-750.49999999999989
 31
0.0
1001
ACDBBLOCKREPETAG
1070
     1
1071
       53
1005
132903
  0
LINE
  5
132904
  8
OBJECT
 10
2093.0
 20
-750.49999999999989
 30
0.0
 11
2093.0
 21
-641.5
 31
0.0
1001
ACDBBLOCKREPETAG
1070
     1
1071
       54
1005
132904
  0
LINE
  5
132905
  8
OBJECT
 10
2097.0
 20
-637.0
 30
0.0
 11
2093.0
 21
-641.5
 31
0.0
1001
ACDBBLOCKREPETAG
1070
     1
1071
       55
1005
132905
  0
LINE
  5
132906
  8
OBJECT
 10
2097.0
 20
-755.0
 30
0.0
 11
2093.0
 21
-750.49999999999989
 31
0.0
1001
ACDBBLOCKREPETAG
1070
     1
1071
       56
1005
132906
  0
LINE
  5
132907
  8
OBJECT
 10
2083.0
 20
-634.0
 30
0.0
 11
2080.0
 21
-634.0
 31
0.0
1001
ACDBBLOCKREPETAG
1070
     1
1071
       57
1005
132907
  0
ARC
  5
132908
  8
OBJECT
 10
2083.0
 20
-637.0
 30
0.0
 40
3.0
 50
0.0
 51
90.0
1001
ACDBBLOCKREPETAG
1070
     1
1071
       58
1005
132908
  0
LINE
  5
132909
  8
OBJECT
 10
2080.0
 20
-758.0
 30
0.0
 11
2083.0
 21
-758.0
 31
0.0
1001
ACDBBLOCKREPETAG
1070
     1
1071
       59
1005
132909
  0
ARC
  5
13290A
  8
OBJECT
 10
2083.0
 20
-755.0
 30
0.0
 40
3.0
 50
270.0
 51
0.0
1001
ACDBBLOCKREPETAG
1070
     1
1071
       60
1005
13290A
  0
LINE
  5
13290B
  8
OBJECT
 10
2086.0
 20
-755.0
 30
0.0
 11
2086.0
 21
-637.0
 31
0.0
1001
ACDBBLOCKREPETAG
1070
     1
1071
       61
1005
13290B
  0
LINE
  5
13290C
  8
HIDDEN
 10
2088.0
 20
-651.5
 30
0.0
 11
2088.0
 21
-740.5
 31
0.0
1001
ACDBBLOCKREPETAG
1070
     1
1071
       63
1005
13290C
  0
TEXT
  5
13290D
  8
SLIM
 10
0.0000035665234464
 20
24.000004585317601
 30
0.0
 40
79.999999999972701
  1
枝管バリエーション
 41
0.75
1001
ACDBBLOCKREPETAG
1070
     1
1071
      119
1005
12AEEE
  0
TEXT
  5
13290E
  8
SLIM
 10
0.0
 20
369.99999999999989
 30
0.0
 40
100.0
  1
4SR-ZX06-P140-S
 41
0.75
  0
LINE
  5
13290F
  8
OBJECT
 10
4923.0
 20
-3395.9999999999968
 30
0.0
 11
4923.0
 21
-3374.9999999999968
 31
0.0
1001
ACDBBLOCKREPETAG
1070
     1
1071
        0
1005
13290F
  0
LINE
  5
132910
  8
OBJECT
 10
4923.0
 20
-3374.9999999999968
 30
0.0
 11
5077.0
 21
-3374.9999999999968
 31
0.0
1001
ACDBBLOCKREPETAG
1070
     1
1071
        1
1005
132910
  0
LINE
  5
132911
  8
HIDDEN
 10
4943.0
 20
-3444.9999999999968
 30
0.0
 11
5057.0
 21
-3444.9999999999968
 31
0.0
1001
ACDBBLOCKREPETAG
1070
     1
1071
        2
1005
132911
  0
LINE
  5
132912
  8
OBJECT
 10
5077.0
 20
-3374.9999999999968
 30
0.0
 11
5077.0
 21
-3395.9999999999968
 31
0.0
1001
ACDBBLOCKREPETAG
1070
     1
1071
        3
1005
132912
  0
LINE
  5
132913
  8
OBJECT
 10
5077.0
 20
-3395.9999999999968
 30
0.0
 11
4923.0
 21
-3395.9999999999968
 31
0.0
1001
ACDBBLOCKREPETAG
1070
     1
1071
        4
1005
132913
  0
LINE
  5
132914
  8
CENTER
 10
5000.0
 20
-3359.9999999999968
 30
0.0
 11
5000.0
 21
-3594.9999999999968
 31
0.0
1001
ACDBBLOCKREPETAG
1070
     1
1071
        5
1005
132914
  0
LINE
  5
132915
  8
OBJECT
 10
4925.0
 20
-3458.9999999999968
 30
0.0
 11
4925.0
 21
-3582.9999999999968
 31
0.0
1001
ACDBBLOCKREPETAG
1070
     1
1071
        6
1005
132915
  0
LINE
  5
132916
  8
OBJECT
 10
4928.0
 20
-3395.9999999999968
 30
0.0
 11
4928.0
 21
-3458.9999999999968
 31
0.0
1001
ACDBBLOCKREPETAG
1070
     1
1071
        7
1005
132916
  0
LINE
  5
132917
  8
OBJECT
 10
5072.0
 20
-3458.9999999999968
 30
0.0
 11
5072.0
 21
-3395.9999999999968
 31
0.0
1001
ACDBBLOCKREPETAG
1070
     1
1071
        8
1005
132917
  0
LINE
  5
132918
  8
OBJECT
 10
5074.9999999997999
 20
-3582.9999999997758
 30
0.0
 11
5080.0
 21
-3582.9999999999968
 31
0.0
1001
ACDBBLOCKREPETAG
1070
     1
1071
        9
1005
132918
  0
LINE
  5
132919
  8
OBJECT
 10
5080.0
 20
-3458.9999999999968
 30
0.0
 11
4925.0
 21
-3458.9999999999968
 31
0.0
1001
ACDBBLOCKREPETAG
1070
     1
1071
       10
1005
132919
  0
ARC
  5
13291A
  8
OBJECT
 10
5200.6872746716726
 20
-3574.408099410105
 30
0.0
 40
170.6350503965856
 50
137.44134459184301
 51
149.9194958133665
1001
ACDBBLOCKREPETAG
1070
     1
1071
       15
1005
13291A
  0
ARC
  5
13291B
  8
OBJECT
 10
5118.8455987040506
 20
-3530.8827266953631
 30
0.0
 40
78.072222021763665
 50
147.4551531037684
 51
164.66365997719291
1001
ACDBBLOCKREPETAG
1070
     1
1071
       16
1005
13291B
  0
ARC
  5
13291C
  8
OBJECT
 10
5085.7554349608727
 20
-3520.9999999999968
 30
0.0
 40
43.55353926885617
 50
165.6884523008477
 51
194.3115476991523
1001
ACDBBLOCKREPETAG
1070
     1
1071
       17
1005
13291C
  0
ARC
  5
13291D
  8
OBJECT
 10
5200.6872746716726
 20
-3467.5919005898891
 30
0.0
 40
170.6350503965856
 50
210.0805041866335
 51
222.55865540815699
1001
ACDBBLOCKREPETAG
1070
     1
1071
       18
1005
13291D
  0
ARC
  5
13291E
  8
OBJECT
 10
5118.8455987040506
 20
-3511.1172733046319
 30
0.0
 40
78.072222021763665
 50
195.33634002280701
 51
212.5448468962316
1001
ACDBBLOCKREPETAG
1070
     1
1071
       19
1005
13291E
  0
POINT
  5
13291F
  8
DOTS
 10
5000.0
 20
-3579.9999999999968
 30
0.0
1001
ACDBBLOCKREPETAG
1070
     1
1071
      186
1005
13291F
  0
LINE
  5
132920
  8
OBJECT
 10
4323.0
 20
-3395.9999999999968
 30
0.0
 11
4323.0
 21
-3374.9999999999968
 31
0.0
1001
ACDBBLOCKREPETAG
1070
     1
1071
       20
1005
132920
  0
LINE
  5
132921
  8
OBJECT
 10
4323.0
 20
-3374.9999999999968
 30
0.0
 11
4477.0
 21
-3374.9999999999968
 31
0.0
1001
ACDBBLOCKREPETAG
1070
     1
1071
       21
1005
132921
  0
LINE
  5
132922
  8
HIDDEN
 10
4343.0
 20
-3444.9999999999968
 30
0.0
 11
4457.0
 21
-3444.9999999999968
 31
0.0
1001
ACDBBLOCKREPETAG
1070
     1
1071
       22
1005
132922
  0
LINE
  5
132923
  8
OBJECT
 10
4477.0
 20
-3374.9999999999968
 30
0.0
 11
4477.0
 21
-3395.9999999999968
 31
0.0
1001
ACDBBLOCKREPETAG
1070
     1
1071
       23
1005
132923
  0
LINE
  5
132924
  8
OBJECT
 10
4477.0
 20
-3395.9999999999968
 30
0.0
 11
4323.0
 21
-3395.9999999999968
 31
0.0
1001
ACDBBLOCKREPETAG
1070
     1
1071
       24
1005
132924
  0
LINE
  5
132925
  8
CENTER
 10
4400.0
 20
-3359.9999999999968
 30
0.0
 11
4400.0
 21
-3594.9999999999968
 31
0.0
1001
ACDBBLOCKREPETAG
1070
     1
1071
       25
1005
132925
  0
LINE
  5
132926
  8
OBJECT
 10
4325.0
 20
-3458.9999999999968
 30
0.0
 11
4325.0
 21
-3582.9999999999968
 31
0.0
1001
ACDBBLOCKREPETAG
1070
     1
1071
       26
1005
132926
  0
LINE
  5
132927
  8
OBJECT
 10
4328.0
 20
-3395.9999999999968
 30
0.0
 11
4328.0
 21
-3458.9999999999968
 31
0.0
1001
ACDBBLOCKREPETAG
1070
     1
1071
       27
1005
132927
  0
LINE
  5
132928
  8
OBJECT
 10
4472.0
 20
-3458.9999999999968
 30
0.0
 11
4472.0
 21
-3395.9999999999968
 31
0.0
1001
ACDBBLOCKREPETAG
1070
     1
1071
       28
1005
132928
  0
LINE
  5
132929
  8
OBJECT
 10
4475.0
 20
-3458.9999999999968
 30
0.0
 11
4325.0
 21
-3458.9999999999968
 31
0.0
1001
ACDBBLOCKREPETAG
1070
     1
1071
       30
1005
132929
  0
LINE
  5
13292A
  8
OBJECT
 10
4475.0
 20
-3458.9999999999968
 30
0.0
 11
4475.0
 21
-3582.9999999999968
 31
0.0
1001
ACDBBLOCKREPETAG
1070
     1
1071
       34
1005
13292A
  0
POINT
  5
13292B
  8
DOTS
 10
4400.0
 20
-3579.9999999999968
 30
0.0
1001
ACDBBLOCKREPETAG
1070
     1
1071
      187
1005
13292B
  0
LINE
  5
13292C
  8
OBJECT
 10
3923.0
 20
-3395.9999999999968
 30
0.0
 11
3923.0
 21
-3374.9999999999968
 31
0.0
1001
ACDBBLOCKREPETAG
1070
     1
1071
        0
1005
13292C
  0
LINE
  5
13292D
  8
OBJECT
 10
3923.0
 20
-3374.9999999999968
 30
0.0
 11
4077.0
 21
-3374.9999999999968
 31
0.0
1001
ACDBBLOCKREPETAG
1070
     1
1071
        1
1005
13292D
  0
LINE
  5
13292E
  8
HIDDEN
 10
3943.0
 20
-3444.9999999999968
 30
0.0
 11
4057.0
 21
-3444.9999999999968
 31
0.0
1001
ACDBBLOCKREPETAG
1070
     1
1071
        2
1005
13292E
  0
LINE
  5
13292F
  8
OBJECT
 10
4077.0
 20
-3374.9999999999968
 30
0.0
 11
4077.0
 21
-3395.9999999999968
 31
0.0
1001
ACDBBLOCKREPETAG
1070
     1
1071
        3
1005
13292F
  0
LINE
  5
132930
  8
OBJECT
 10
4077.0
 20
-3395.9999999999968
 30
0.0
 11
3923.0
 21
-3395.9999999999968
 31
0.0
1001
ACDBBLOCKREPETAG
1070
     1
1071
        4
1005
132930
  0
LINE
  5
132931
  8
CENTER
 10
4000.0
 20
-3359.9999999999968
 30
0.0
 11
4000.0
 21
-3594.9999999999968
 31
0.0
1001
ACDBBLOCKREPETAG
1070
     1
1071
        5
1005
132931
  0
LINE
  5
132932
  8
OBJECT
 10
3925.0
 20
-3458.9999999999968
 30
0.0
 11
3925.0
 21
-3582.9999999999968
 31
0.0
1001
ACDBBLOCKREPETAG
1070
     1
1071
        6
1005
132932
  0
LINE
  5
132933
  8
OBJECT
 10
3928.0
 20
-3395.9999999999968
 30
0.0
 11
3928.0
 21
-3458.9999999999968
 31
0.0
1001
ACDBBLOCKREPETAG
1070
     1
1071
        7
1005
132933
  0
LINE
  5
132934
  8
OBJECT
 10
4072.0
 20
-3458.9999999999968
 30
0.0
 11
4072.0
 21
-3395.9999999999968
 31
0.0
1001
ACDBBLOCKREPETAG
1070
     1
1071
        8
1005
132934
  0
LINE
  5
132935
  8
OBJECT
 10
4074.999999999799
 20
-3582.9999999997758
 30
0.0
 11
4080.0
 21
-3582.9999999999968
 31
0.0
1001
ACDBBLOCKREPETAG
1070
     1
1071
        9
1005
132935
  0
LINE
  5
132936
  8
OBJECT
 10
4080.0
 20
-3458.9999999999968
 30
0.0
 11
3925.0
 21
-3458.9999999999968
 31
0.0
1001
ACDBBLOCKREPETAG
1070
     1
1071
       10
1005
132936
  0
ARC
  5
132937
  8
OBJECT
 10
4200.6872746716726
 20
-3574.408099410105
 30
0.0
 40
170.6350503965856
 50
137.44134459184301
 51
149.9194958133665
1001
ACDBBLOCKREPETAG
1070
     1
1071
       15
1005
132937
  0
ARC
  5
132938
  8
OBJECT
 10
4118.8455987040506
 20
-3530.8827266953631
 30
0.0
 40
78.072222021763665
 50
147.4551531037684
 51
164.663659977186
1001
ACDBBLOCKREPETAG
1070
     1
1071
       16
1005
132938
  0
ARC
  5
132939
  8
OBJECT
 10
4085.7554349608722
 20
-3520.9999999999968
 30
0.0
 40
43.55353926885617
 50
165.6884523008477
 51
194.3115476991523
1001
ACDBBLOCKREPETAG
1070
     1
1071
       17
1005
132939
  0
ARC
  5
13293A
  8
OBJECT
 10
4200.6872746716726
 20
-3467.5919005898891
 30
0.0
 40
170.6350503965856
 50
210.0805041866335
 51
222.55865540815699
1001
ACDBBLOCKREPETAG
1070
     1
1071
       18
1005
13293A
  0
ARC
  5
13293B
  8
OBJECT
 10
4118.8455987040506
 20
-3511.1172733046319
 30
0.0
 40
78.072222021763665
 50
195.33634002281391
 51
212.5448468962316
1001
ACDBBLOCKREPETAG
1070
     1
1071
       19
1005
13293B
  0
POINT
  5
13293C
  8
DOTS
 10
4000.0
 20
-3579.9999999999968
 30
0.0
1001
ACDBBLOCKREPETAG
1070
     1
1071
      186
1005
13293C
  0
LINE
  5
13293D
  8
OBJECT
 10
3323.0
 20
-3395.9999999999968
 30
0.0
 11
3323.0
 21
-3374.9999999999968
 31
0.0
1001
ACDBBLOCKREPETAG
1070
     1
1071
       20
1005
13293D
  0
LINE
  5
13293E
  8
OBJECT
 10
3323.0
 20
-3374.9999999999968
 30
0.0
 11
3477.0
 21
-3374.9999999999968
 31
0.0
1001
ACDBBLOCKREPETAG
1070
     1
1071
       21
1005
13293E
  0
LINE
  5
13293F
  8
HIDDEN
 10
3343.0
 20
-3444.9999999999968
 30
0.0
 11
3457.0
 21
-3444.9999999999968
 31
0.0
1001
ACDBBLOCKREPETAG
1070
     1
1071
       22
1005
13293F
  0
LINE
  5
132940
  8
OBJECT
 10
3477.0
 20
-3374.9999999999968
 30
0.0
 11
3477.0
 21
-3395.9999999999968
 31
0.0
1001
ACDBBLOCKREPETAG
1070
     1
1071
       23
1005
132940
  0
LINE
  5
132941
  8
OBJECT
 10
3477.0
 20
-3395.9999999999968
 30
0.0
 11
3323.0
 21
-3395.9999999999968
 31
0.0
1001
ACDBBLOCKREPETAG
1070
     1
1071
       24
1005
132941
  0
LINE
  5
132942
  8
CENTER
 10
3400.0
 20
-3359.9999999999968
 30
0.0
 11
3400.0
 21
-3594.9999999999968
 31
0.0
1001
ACDBBLOCKREPETAG
1070
     1
1071
       25
1005
132942
  0
LINE
  5
132943
  8
OBJECT
 10
3325.0
 20
-3458.9999999999968
 30
0.0
 11
3325.0
 21
-3582.9999999999968
 31
0.0
1001
ACDBBLOCKREPETAG
1070
     1
1071
       26
1005
132943
  0
LINE
  5
132944
  8
OBJECT
 10
3328.0
 20
-3395.9999999999968
 30
0.0
 11
3328.0
 21
-3458.9999999999968
 31
0.0
1001
ACDBBLOCKREPETAG
1070
     1
1071
       27
1005
132944
  0
LINE
  5
132945
  8
OBJECT
 10
3472.0
 20
-3458.9999999999968
 30
0.0
 11
3472.0
 21
-3395.9999999999968
 31
0.0
1001
ACDBBLOCKREPETAG
1070
     1
1071
       28
1005
132945
  0
LINE
  5
132946
  8
OBJECT
 10
3475.0
 20
-3458.9999999999968
 30
0.0
 11
3325.0
 21
-3458.9999999999968
 31
0.0
1001
ACDBBLOCKREPETAG
1070
     1
1071
       30
1005
132946
  0
LINE
  5
132947
  8
OBJECT
 10
3475.0
 20
-3458.9999999999968
 30
0.0
 11
3475.0
 21
-3582.9999999999968
 31
0.0
1001
ACDBBLOCKREPETAG
1070
     1
1071
       34
1005
132947
  0
POINT
  5
132948
  8
DOTS
 10
3400.0
 20
-3579.9999999999968
 30
0.0
1001
ACDBBLOCKREPETAG
1070
     1
1071
      187
1005
132948
  0
LINE
  5
132949
  8
OBJECT
 10
2923.0
 20
-3395.9999999999968
 30
0.0
 11
2923.0
 21
-3374.9999999999968
 31
0.0
1001
ACDBBLOCKREPETAG
1070
     1
1071
        0
1005
132949
  0
LINE
  5
13294A
  8
OBJECT
 10
2923.0
 20
-3374.9999999999968
 30
0.0
 11
3077.0
 21
-3374.9999999999968
 31
0.0
1001
ACDBBLOCKREPETAG
1070
     1
1071
        1
1005
13294A
  0
LINE
  5
13294B
  8
HIDDEN
 10
2943.0
 20
-3444.9999999999968
 30
0.0
 11
3057.0
 21
-3444.9999999999968
 31
0.0
1001
ACDBBLOCKREPETAG
1070
     1
1071
        2
1005
13294B
  0
LINE
  5
13294C
  8
OBJECT
 10
3077.0
 20
-3374.9999999999968
 30
0.0
 11
3077.0
 21
-3395.9999999999968
 31
0.0
1001
ACDBBLOCKREPETAG
1070
     1
1071
        3
1005
13294C
  0
LINE
  5
13294D
  8
OBJECT
 10
3077.0
 20
-3395.9999999999968
 30
0.0
 11
2923.0
 21
-3395.9999999999968
 31
0.0
1001
ACDBBLOCKREPETAG
1070
     1
1071
        4
1005
13294D
  0
LINE
  5
13294E
  8
CENTER
 10
3000.0
 20
-3359.9999999999968
 30
0.0
 11
3000.0
 21
-3594.9999999999968
 31
0.0
1001
ACDBBLOCKREPETAG
1070
     1
1071
        5
1005
13294E
  0
LINE
  5
13294F
  8
OBJECT
 10
2925.0
 20
-3458.9999999999968
 30
0.0
 11
2925.0
 21
-3582.9999999999968
 31
0.0
1001
ACDBBLOCKREPETAG
1070
     1
1071
        6
1005
13294F
  0
LINE
  5
132950
  8
OBJECT
 10
2928.0
 20
-3395.9999999999968
 30
0.0
 11
2928.0
 21
-3458.9999999999968
 31
0.0
1001
ACDBBLOCKREPETAG
1070
     1
1071
        7
1005
132950
  0
LINE
  5
132951
  8
OBJECT
 10
3072.0
 20
-3458.9999999999968
 30
0.0
 11
3072.0
 21
-3395.9999999999968
 31
0.0
1001
ACDBBLOCKREPETAG
1070
     1
1071
        8
1005
132951
  0
LINE
  5
132952
  8
OBJECT
 10
3074.9999999997999
 20
-3582.9999999997758
 30
0.0
 11
3080.0
 21
-3582.9999999999968
 31
0.0
1001
ACDBBLOCKREPETAG
1070
     1
1071
        9
1005
132952
  0
LINE
  5
132953
  8
OBJECT
 10
3080.0
 20
-3458.9999999999968
 30
0.0
 11
2925.0
 21
-3458.9999999999968
 31
0.0
1001
ACDBBLOCKREPETAG
1070
     1
1071
       10
1005
132953
  0
ARC
  5
132954
  8
OBJECT
 10
3200.6872746716722
 20
-3574.408099410105
 30
0.0
 40
170.6350503965856
 50
137.44134459184301
 51
149.9194958133665
1001
ACDBBLOCKREPETAG
1070
     1
1071
       15
1005
132954
  0
ARC
  5
132955
  8
OBJECT
 10
3118.8455987040511
 20
-3530.8827266953631
 30
0.0
 40
78.072222021763665
 50
147.4551531037684
 51
164.663659977186
1001
ACDBBLOCKREPETAG
1070
     1
1071
       16
1005
132955
  0
ARC
  5
132956
  8
OBJECT
 10
3085.7554349608731
 20
-3520.9999999999968
 30
0.0
 40
43.55353926885617
 50
165.6884523008477
 51
194.3115476991523
1001
ACDBBLOCKREPETAG
1070
     1
1071
       17
1005
132956
  0
ARC
  5
132957
  8
OBJECT
 10
3200.6872746716722
 20
-3467.5919005898891
 30
0.0
 40
170.6350503965856
 50
210.0805041866335
 51
222.55865540815699
1001
ACDBBLOCKREPETAG
1070
     1
1071
       18
1005
132957
  0
ARC
  5
132958
  8
OBJECT
 10
3118.8455987040511
 20
-3511.1172733046319
 30
0.0
 40
78.072222021763665
 50
195.33634002281391
 51
212.5448468962316
1001
ACDBBLOCKREPETAG
1070
     1
1071
       19
1005
132958
  0
POINT
  5
132959
  8
DOTS
 10
3000.0
 20
-3579.9999999999968
 30
0.0
1001
ACDBBLOCKREPETAG
1070
     1
1071
      186
1005
132959
  0
LINE
  5
13295A
  8
OBJECT
 10
2323.0
 20
-3395.9999999999968
 30
0.0
 11
2323.0
 21
-3374.9999999999968
 31
0.0
1001
ACDBBLOCKREPETAG
1070
     1
1071
       20
1005
13295A
  0
LINE
  5
13295B
  8
OBJECT
 10
2323.0
 20
-3374.9999999999968
 30
0.0
 11
2477.0
 21
-3374.9999999999968
 31
0.0
1001
ACDBBLOCKREPETAG
1070
     1
1071
       21
1005
13295B
  0
LINE
  5
13295C
  8
HIDDEN
 10
2343.0
 20
-3444.9999999999968
 30
0.0
 11
2457.0
 21
-3444.9999999999968
 31
0.0
1001
ACDBBLOCKREPETAG
1070
     1
1071
       22
1005
13295C
  0
LINE
  5
13295D
  8
OBJECT
 10
2477.0
 20
-3374.9999999999968
 30
0.0
 11
2477.0
 21
-3395.9999999999968
 31
0.0
1001
ACDBBLOCKREPETAG
1070
     1
1071
       23
1005
13295D
  0
LINE
  5
13295E
  8
OBJECT
 10
2477.0
 20
-3395.9999999999968
 30
0.0
 11
2323.0
 21
-3395.9999999999968
 31
0.0
1001
ACDBBLOCKREPETAG
1070
     1
1071
       24
1005
13295E
  0
LINE
  5
13295F
  8
CENTER
 10
2400.0
 20
-3359.9999999999968
 30
0.0
 11
2400.0
 21
-3594.9999999999968
 31
0.0
1001
ACDBBLOCKREPETAG
1070
     1
1071
       25
1005
13295F
  0
LINE
  5
132960
  8
OBJECT
 10
2325.0
 20
-3458.9999999999968
 30
0.0
 11
2325.0
 21
-3582.9999999999968
 31
0.0
1001
ACDBBLOCKREPETAG
1070
     1
1071
       26
1005
132960
  0
LINE
  5
132961
  8
OBJECT
 10
2328.0
 20
-3395.9999999999968
 30
0.0
 11
2328.0
 21
-3458.9999999999968
 31
0.0
1001
ACDBBLOCKREPETAG
1070
     1
1071
       27
1005
132961
  0
LINE
  5
132962
  8
OBJECT
 10
2472.0
 20
-3458.9999999999968
 30
0.0
 11
2472.0
 21
-3395.9999999999968
 31
0.0
1001
ACDBBLOCKREPETAG
1070
     1
1071
       28
1005
132962
  0
LINE
  5
132963
  8
OBJECT
 10
2475.0
 20
-3458.9999999999968
 30
0.0
 11
2325.0
 21
-3458.9999999999968
 31
0.0
1001
ACDBBLOCKREPETAG
1070
     1
1071
       30
1005
132963
  0
LINE
  5
132964
  8
OBJECT
 10
2475.0
 20
-3458.9999999999968
 30
0.0
 11
2475.0
 21
-3582.9999999999968
 31
0.0
1001
ACDBBLOCKREPETAG
1070
     1
1071
       34
1005
132964
  0
POINT
  5
132965
  8
DOTS
 10
2400.0
 20
-3579.9999999999968
 30
0.0
1001
ACDBBLOCKREPETAG
1070
     1
1071
      187
1005
132965
  0
LINE
  5
132966
  8
OBJECT
 10
1923.0
 20
-3395.9999999999968
 30
0.0
 11
1923.0
 21
-3374.9999999999968
 31
0.0
1001
ACDBBLOCKREPETAG
1070
     1
1071
        0
1005
132966
  0
LINE
  5
132967
  8
OBJECT
 10
1923.0
 20
-3374.9999999999968
 30
0.0
 11
2077.0
 21
-3374.9999999999968
 31
0.0
1001
ACDBBLOCKREPETAG
1070
     1
1071
        1
1005
132967
  0
LINE
  5
132968
  8
HIDDEN
 10
1943.0
 20
-3444.9999999999968
 30
0.0
 11
2057.0
 21
-3444.9999999999968
 31
0.0
1001
ACDBBLOCKREPETAG
1070
     1
1071
        2
1005
132968
  0
LINE
  5
132969
  8
OBJECT
 10
2077.0
 20
-3374.9999999999968
 30
0.0
 11
2077.0
 21
-3395.9999999999968
 31
0.0
1001
ACDBBLOCKREPETAG
1070
     1
1071
        3
1005
132969
  0
LINE
  5
13296A
  8
OBJECT
 10
2077.0
 20
-3395.9999999999968
 30
0.0
 11
1923.0
 21
-3395.9999999999968
 31
0.0
1001
ACDBBLOCKREPETAG
1070
     1
1071
        4
1005
13296A
  0
LINE
  5
13296B
  8
CENTER
 10
2000.0
 20
-3359.9999999999968
 30
0.0
 11
2000.0
 21
-3594.9999999999968
 31
0.0
1001
ACDBBLOCKREPETAG
1070
     1
1071
        5
1005
13296B
  0
LINE
  5
13296C
  8
OBJECT
 10
1925.0
 20
-3458.9999999999968
 30
0.0
 11
1925.0
 21
-3582.9999999999968
 31
0.0
1001
ACDBBLOCKREPETAG
1070
     1
1071
        6
1005
13296C
  0
LINE
  5
13296D
  8
OBJECT
 10
1928.0
 20
-3395.9999999999968
 30
0.0
 11
1928.0
 21
-3458.9999999999968
 31
0.0
1001
ACDBBLOCKREPETAG
1070
     1
1071
        7
1005
13296D
  0
LINE
  5
13296E
  8
OBJECT
 10
2072.0
 20
-3458.9999999999968
 30
0.0
 11
2072.0
 21
-3395.9999999999968
 31
0.0
1001
ACDBBLOCKREPETAG
1070
     1
1071
        8
1005
13296E
  0
LINE
  5
13296F
  8
OBJECT
 10
2074.999999999799
 20
-3582.9999999997758
 30
0.0
 11
2080.0
 21
-3582.9999999999968
 31
0.0
1001
ACDBBLOCKREPETAG
1070
     1
1071
        9
1005
13296F
  0
LINE
  5
132970
  8
OBJECT
 10
2080.0
 20
-3458.9999999999968
 30
0.0
 11
1925.0
 21
-3458.9999999999968
 31
0.0
1001
ACDBBLOCKREPETAG
1070
     1
1071
       10
1005
132970
  0
ARC
  5
132971
  8
OBJECT
 10
2200.6872746716731
 20
-3574.408099410105
 30
0.0
 40
170.6350503965856
 50
137.44134459184301
 51
149.91949581335999
1001
ACDBBLOCKREPETAG
1070
     1
1071
       15
1005
132971
  0
ARC
  5
132972
  8
OBJECT
 10
2118.8455987040511
 20
-3530.8827266953631
 30
0.0
 40
78.072222021763665
 50
147.45515310377539
 51
164.663659977186
1001
ACDBBLOCKREPETAG
1070
     1
1071
       16
1005
132972
  0
ARC
  5
132973
  8
OBJECT
 10
2085.7554349608731
 20
-3520.9999999999968
 30
0.0
 40
43.55353926885617
 50
165.6884523008477
 51
194.3115476991523
1001
ACDBBLOCKREPETAG
1070
     1
1071
       17
1005
132973
  0
ARC
  5
132974
  8
OBJECT
 10
2200.6872746716731
 20
-3467.5919005898891
 30
0.0
 40
170.6350503965856
 50
210.08050418664001
 51
222.55865540815699
1001
ACDBBLOCKREPETAG
1070
     1
1071
       18
1005
132974
  0
ARC
  5
132975
  8
OBJECT
 10
2118.8455987040511
 20
-3511.1172733046319
 30
0.0
 40
78.072222021763665
 50
195.33634002281391
 51
212.54484689622461
1001
ACDBBLOCKREPETAG
1070
     1
1071
       19
1005
132975
  0
POINT
  5
132976
  8
DOTS
 10
2000.0
 20
-3579.9999999999968
 30
0.0
1001
ACDBBLOCKREPETAG
1070
     1
1071
      186
1005
132976
  0
LINE
  5
132977
  8
DIM
 10
2150.0
 20
-3221.9999999999959
 30
0.0
 11
2228.479620594459
 21
-3221.9999999999959
 31
0.0
  0
LINE
  5
132978
  8
DIM
 10
2150.0
 20
-3127.9999999999959
 30
0.0
 11
2228.479620594459
 21
-3127.9999999999959
 31
0.0
  0
LINE
  5
132979
  8
DIM
 10
2218.479620594459
 20
-3201.9999999999959
 30
0.0
 11
2218.479620594459
 21
-3147.9999999999959
 31
0.0
  0
INSERT
  5
13297A
  8
DIM
  2
_OPEN30
 10
2218.479620594459
 20
-3221.9999999999959
 30
0.0
 41
20.0
 42
20.0
 43
20.0
 50
270.0
  0
INSERT
  5
13297B
  8
DIM
  2
_OPEN30
 10
2218.479620594459
 20
-3127.9999999999959
 30
0.0
 41
20.0
 42
20.0
 43
20.0
 50
90.0
  0
INSERT
  5
13297C
  8
OBJECT
  2
*U13
 10
0.0
 20
0.0
 30
0.0
  0
LINE
  5
13297D
  8
DIM
 10
2150.0
 20
-3579.9999999999968
 30
0.0
 11
2226.8409284037339
 21
-3579.9999999999968
 31
0.0
  0
LINE
  5
13297E
  8
DIM
 10
2165.0
 20
-3535.9999999999968
 30
0.0
 11
2226.8409284037339
 21
-3535.9999999999968
 31
0.0
  0
LINE
  5
13297F
  8
DIM
 10
2216.840928403733
 20
-3599.9999999999968
 30
0.0
 11
2216.840928403733
 21
-3619.9999999999968
 31
0.0
  0
LINE
  5
132980
  8
DIM
 10
2216.840928403733
 20
-3515.9999999999968
 30
0.0
 11
2216.840928403733
 21
-3495.9999999999968
 31
0.0
  0
LINE
  5
132981
  8
DIM
 10
2216.840928403733
 20
-3579.9999999999968
 30
0.0
 11
2216.840928403733
 21
-3535.9999999999968
 31
0.0
  0
INSERT
  5
132982
  8
DIM
  2
_OPEN30
 10
2216.840928403733
 20
-3579.9999999999968
 30
0.0
 41
20.0
 42
20.0
 43
20.0
 50
90.0
  0
INSERT
  5
132983
  8
DIM
  2
_OPEN30
 10
2216.840928403733
 20
-3535.9999999999968
 30
0.0
 41
20.0
 42
20.0
 43
20.0
 50
270.0
  0
INSERT
  5
132984
  8
OBJECT
  2
*U14
 10
0.0
 20
0.0
 30
0.0
  0
LINE
  5
132985
  8
DIM
 10
2000.0
 20
-3069.9999999999959
 30
0.0
 11
2000.0
 21
-3037.208121984444
 31
0.0
  0
LINE
  5
132986
  8
DIM
 10
2140.0
 20
-3117.9999999999959
 30
0.0
 11
2140.0
 21
-3037.208121984444
 31
0.0
  0
LINE
  5
132987
  8
DIM
 10
2020.0
 20
-3047.208121984444
 30
0.0
 11
2120.0
 21
-3047.208121984444
 31
0.0
  0
INSERT
  5
132988
  8
DIM
  2
_OPEN30
 10
2000.0
 20
-3047.208121984444
 30
0.0
 41
20.0
 42
20.0
 43
20.0
 50
180.0
  0
INSERT
  5
132989
  8
DIM
  2
_OPEN30
 10
2140.0
 20
-3047.208121984444
 30
0.0
 41
20.0
 42
20.0
 43
20.0
  0
INSERT
  5
13298A
  8
OBJECT
  2
*U15
 10
0.0
 20
0.0
 30
0.0
  0
TEXT
  5
13298B
  8
SLIM
 10
2631.0
 20
-2952.50001604727
 30
0.0
 40
40.0
  1
C寸法
 41
0.75
  0
TEXT
  5
13298C
  8
SLIM
 10
2631.0
 20
-2882.50001604727
 30
0.0
 40
40.0
  1
B寸法
 41
0.75
  0
TEXT
  5
13298D
  8
SLIM
 10
2630.2857142857142
 20
-2812.50001604727
 30
0.0
 40
40.0
  1
A寸法
 41
0.75
  0
TEXT
  5
13298E
  8
SLIM
 10
3159.2857142857151
 20
-2952.50001604727
 30
0.0
 40
40.0
  1
150
 41
0.75
  0
TEXT
  5
13298F
  8
SLIM
 10
3029.2857142857151
 20
-2952.50001604727
 30
0.0
 40
40.0
  1
140
 41
0.75
  0
TEXT
  5
132990
  8
SLIM
 10
2769.2857142857151
 20
-2952.50001604727
 30
0.0
 40
40.0
  1
140
 41
0.75
  0
TEXT
  5
132991
  8
SLIM
 10
2899.2857142857151
 20
-2952.50001604727
 30
0.0
 40
40.0
  1
140
 41
0.75
  0
TEXT
  5
132992
  8
SLIM
 10
3170.7142857142858
 20
-2882.50001604727
 30
0.0
 40
40.0
  1
72
 41
0.75
  0
TEXT
  5
132993
  8
SLIM
 10
3041.4285714285711
 20
-2882.50001604727
 30
0.0
 40
40.0
  1
59
 41
0.75
  0
TEXT
  5
132994
  8
SLIM
 10
2780.0
 20
-2882.50001604727
 30
0.0
 40
40.0
  1
44
 41
0.75
  0
TEXT
  5
132995
  8
SLIM
 10
2910.7142857142858
 20
-2882.50001604727
 30
0.0
 40
40.0
  1
52
 41
0.75
  0
TEXT
  5
132996
  8
SLIM
 10
2891.0
 20
-2687.50001604727
 30
0.0
 40
40.0
  1
横枝管サイズ
 41
0.75
  0
TEXT
  5
132997
  8
SLIM
 10
3136.2857142857151
 20
-2742.50001604727
 30
0.0
 40
30.0
  1
100（4）
 41
0.75
  0
TEXT
  5
132998
  8
SLIM
 10
3014.857142857144
 20
-2742.50001604727
 30
0.0
 40
30.0
  1
75（3）
 41
0.75
  0
TEXT
  5
132999
  8
SLIM
 10
2884.8571428571431
 20
-2742.50001604727
 30
0.0
 40
30.0
  1
65（2）
 41
0.75
  0
TEXT
  5
13299A
  8
SLIM
 10
2757.0
 20
-2742.50001604727
 30
0.0
 40
30.0
  1
50（1）
 41
0.75
  0
TEXT
  5
13299B
  8
SLIM
 10
3159.2857142857151
 20
-2812.50001604727
 30
0.0
 40
40.0
  1
150
 41
0.75
  0
TEXT
  5
13299C
  8
SLIM
 10
3028.571428571428
 20
-2812.50001604727
 30
0.0
 40
40.0
  1
124
 41
0.75
  0
TEXT
  5
13299D
  8
SLIM
 10
2780.0
 20
-2812.50001604727
 30
0.0
 40
40.0
  1
94
 41
0.75
  0
TEXT
  5
13299E
  8
SLIM
 10
2902.1428571428569
 20
-2812.50001604727
 30
0.0
 40
40.0
  1
110
 41
0.75
  0
TEXT
  5
13299F
  8
SLIM
 10
1849.9999999999991
 20
-2712.5
 30
0.0
 40
75.0
  1
枝管サイズ毎の形状
 41
0.75
  0
LINE
  5
1329A0
  8
OBJECT
 10
5150.0
 20
-3432.9999999999968
 30
0.0
 11
5143.0
 21
-3432.9999999999968
 31
0.0
1001
ACDBBLOCKREPETAG
1070
     1
1071
       64
1005
1329A0
  0
LINE
  5
1329A1
  8
OBJECT
 10
5143.0
 20
-3432.9999999999968
 30
0.0
 11
5143.0
 21
-3579.9999999999968
 31
0.0
1001
ACDBBLOCKREPETAG
1070
     1
1071
       65
1005
1329A1
  0
LINE
  5
1329A2
  8
OBJECT
 10
5101.5
 20
-3435.9999999999968
 30
0.0
 11
5101.5
 21
-3579.9999999999968
 31
0.0
1001
ACDBBLOCKREPETAG
1070
     1
1071
       66
1005
1329A2
  0
LINE
  5
1329A3
  8
OBJECT
 10
5090.0
 20
-3442.4999999999968
 30
0.0
 11
5090.0
 21
-3573.4999999999968
 31
0.0
1001
ACDBBLOCKREPETAG
1070
     1
1071
       67
1005
1329A3
  0
LINE
  5
1329A4
  8
OBJECT
 10
5086.0
 20
-3514.5000000000041
 30
0.0
 11
5086.0
 21
-3579.9999999999968
 31
0.0
1001
ACDBBLOCKREPETAG
1070
     1
1071
       68
1005
1329A4
  0
LINE
  5
1329A5
  8
OBJECT
 10
5150.0
 20
-3579.9999999999968
 30
0.0
 11
5150.0
 21
-3432.9999999999968
 31
0.0
1001
ACDBBLOCKREPETAG
1070
     1
1071
       69
1005
1329A5
  0
LINE
  5
1329A6
  8
CENTER
 10
5165.0
 20
-3507.9999999999968
 30
0.0
 11
5070.4144144144157
 21
-3507.9999999999968
 31
0.0
1001
ACDBBLOCKREPETAG
1070
     1
1071
       70
1005
1329A6
  0
LINE
  5
1329A7
  8
OBJECT
 10
5083.0000000000045
 20
-3582.9999999999968
 30
0.0
 11
5080.0
 21
-3582.9999999999968
 31
0.0
1001
ACDBBLOCKREPETAG
1070
     1
1071
       71
1005
1329A7
  0
ARC
  5
1329A8
  8
OBJECT
 10
5091.8815171830656
 20
-3581.4555591801418
 30
0.0
 40
6.0
 50
60.52411099686767
 51
170.6927439126847
1001
ACDBBLOCKREPETAG
1070
     1
1071
       72
1005
1329A8
  0
ARC
  5
1329A9
  8
OBJECT
 10
5083.0
 20
-3579.9999999999968
 30
0.0
 40
3.0
 50
270.0
 51
350.69274391268482
1001
ACDBBLOCKREPETAG
1070
     1
1071
       73
1005
1329A9
  0
LINE
  5
1329AA
  8
OBJECT
 10
5081.0
 20
-3458.9999999999968
 30
0.0
 11
5080.0
 21
-3458.9999999999968
 31
0.0
1001
ACDBBLOCKREPETAG
1070
     1
1071
       74
1005
1329AA
  0
LINE
  5
1329AB
  8
OBJECT
 10
5150.0
 20
-3579.9999999999968
 30
0.0
 11
5101.5
 21
-3579.9999999999968
 31
0.0
1001
ACDBBLOCKREPETAG
1070
     1
1071
       75
1005
1329AB
  0
LINE
  5
1329AC
  8
OBJECT
 10
5101.5
 20
-3435.9999999999968
 30
0.0
 11
5090.0
 21
-3442.4999999999968
 31
0.0
1001
ACDBBLOCKREPETAG
1070
     1
1071
       76
1005
1329AC
  0
LINE
  5
1329AD
  8
OBJECT
 10
5143.0
 20
-3435.9999999999968
 30
0.0
 11
5101.5
 21
-3435.9999999999968
 31
0.0
1001
ACDBBLOCKREPETAG
1070
     1
1071
       77
1005
1329AD
  0
LINE
  5
1329AE
  8
OBJECT
 10
5086.0
 20
-3514.5000000000041
 30
0.0
 11
5081.0
 21
-3458.9999999999968
 31
0.0
1001
ACDBBLOCKREPETAG
1070
     1
1071
       78
1005
1329AE
  0
LINE
  5
1329AF
  8
OBJECT
 10
5090.0
 20
-3442.4999999999968
 30
0.0
 11
5081.0
 21
-3458.9999999999968
 31
0.0
1001
ACDBBLOCKREPETAG
1070
     1
1071
       79
1005
1329AF
  0
LINE
  5
1329B0
  8
OBJECT
 10
5101.5
 20
-3579.9999999999968
 30
0.0
 11
5094.8338607230708
 21
-3576.232182147819
 31
0.0
1001
ACDBBLOCKREPETAG
1070
     1
1071
       80
1005
1329B0
  0
LINE
  5
1329B1
  8
HIDDEN
 10
5098.0
 20
-3564.9999999999968
 30
0.0
 11
5098.0
 21
-3450.9999999999968
 31
0.0
1001
ACDBBLOCKREPETAG
1070
     1
1071
       81
1005
1329B1
  0
LINE
  5
1329B2
  8
OBJECT
 10
5150.0
 20
-3099.9999999999959
 30
0.0
 11
5143.0
 21
-3099.9999999999959
 31
0.0
1001
ACDBBLOCKREPETAG
1070
     1
1071
       67
1005
1329B2
  0
LINE
  5
1329B3
  8
OBJECT
 10
5143.0
 20
-3099.9999999999959
 30
0.0
 11
5143.0
 21
-3249.9999999999959
 31
0.0
1001
ACDBBLOCKREPETAG
1070
     1
1071
       68
1005
1329B3
  0
LINE
  5
1329B4
  8
OBJECT
 10
5101.5
 20
-3102.9999999999959
 30
0.0
 11
5101.5
 21
-3246.9999999999959
 31
0.0
1001
ACDBBLOCKREPETAG
1070
     1
1071
       69
1005
1329B4
  0
LINE
  5
1329B5
  8
OBJECT
 10
5090.0
 20
-3109.4999999999959
 30
0.0
 11
5090.0
 21
-3240.4999999999959
 31
0.0
1001
ACDBBLOCKREPETAG
1070
     1
1071
       70
1005
1329B5
  0
LINE
  5
1329B6
  8
OBJECT
 10
5143.0
 20
-3249.9999999999959
 30
0.0
 11
5150.0
 21
-3249.9999999999959
 31
0.0
1001
ACDBBLOCKREPETAG
1070
     1
1071
       71
1005
1329B6
  0
LINE
  5
1329B7
  8
OBJECT
 10
5150.0
 20
-3249.9999999999959
 30
0.0
 11
5150.0
 21
-3099.9999999999959
 31
0.0
1001
ACDBBLOCKREPETAG
1070
     1
1071
       72
1005
1329B7
  0
LINE
  5
1329B8
  8
HIDDEN
 10
5098.0
 20
-3231.9999999999959
 30
0.0
 11
5098.0
 21
-3117.9999999999959
 31
0.0
1001
ACDBBLOCKREPETAG
1070
     1
1071
       73
1005
1329B8
  0
LINE
  5
1329B9
  8
CENTER
 10
5165.0
 20
-3174.9999999999959
 30
0.0
 11
5080.0
 21
-3174.9999999999959
 31
0.0
1001
ACDBBLOCKREPETAG
1070
     1
1071
       74
1005
1329B9
  0
LINE
  5
1329BA
  8
OBJECT
 10
5086.0
 20
-3236.9999999999959
 30
0.0
 11
5080.0
 21
-3236.9999999999959
 31
0.0
1001
ACDBBLOCKREPETAG
1070
     1
1071
       75
1005
1329BA
  0
LINE
  5
1329BB
  8
OBJECT
 10
5143.0
 20
-3246.9999999999959
 30
0.0
 11
5101.5
 21
-3246.9999999999959
 31
0.0
1001
ACDBBLOCKREPETAG
1070
     1
1071
       76
1005
1329BB
  0
LINE
  5
1329BC
  8
OBJECT
 10
5101.5
 20
-3246.9999999999959
 30
0.0
 11
5090.0
 21
-3240.4999999999959
 31
0.0
1001
ACDBBLOCKREPETAG
1070
     1
1071
       77
1005
1329BC
  0
LINE
  5
1329BD
  8
OBJECT
 10
5090.0
 20
-3240.4999999999959
 30
0.0
 11
5086.0
 21
-3236.9999999999959
 31
0.0
1001
ACDBBLOCKREPETAG
1070
     1
1071
       78
1005
1329BD
  0
LINE
  5
1329BE
  8
OBJECT
 10
5101.5
 20
-3102.9999999999959
 30
0.0
 11
5090.0
 21
-3109.4999999999959
 31
0.0
1001
ACDBBLOCKREPETAG
1070
     1
1071
       79
1005
1329BE
  0
LINE
  5
1329BF
  8
OBJECT
 10
5090.0
 20
-3109.4999999999959
 30
0.0
 11
5086.0
 21
-3112.9999999999959
 31
0.0
1001
ACDBBLOCKREPETAG
1070
     1
1071
       80
1005
1329BF
  0
ARC
  5
1329C0
  8
OBJECT
 10
5467.9000000000005
 20
-3174.9999999999959
 30
0.0
 40
386.89999999999998
 50
170.77870136260421
 51
189.22129863739571
1001
ACDBBLOCKREPETAG
1070
     1
1071
       81
1005
1329C0
  0
LINE
  5
1329C1
  8
OBJECT
 10
5086.0
 20
-3112.9999999999959
 30
0.0
 11
5080.0
 21
-3112.9999999999959
 31
0.0
1001
ACDBBLOCKREPETAG
1070
     1
1071
       82
1005
1329C1
  0
LINE
  5
1329C2
  8
OBJECT
 10
5143.0
 20
-3102.9999999999959
 30
0.0
 11
5101.5
 21
-3102.9999999999959
 31
0.0
1001
ACDBBLOCKREPETAG
1070
     1
1071
       83
1005
1329C2
  0
TEXT
  5
1329C3
  8
SLIM
 10
4884.25
 20
-3697.4999999999959
 30
0.0
 40
35.0
  1
通常枝100（4）
 41
0.75
  0
LINE
  5
1329C4
  8
CENTER
 10
4477.0
 20
-3520.9999999999968
 30
0.0
 11
4323.0
 21
-3520.9999999999968
 31
0.0
1001
ACDBBLOCKREPETAG
1070
     1
1071
       17
1005
1329C4
  0
CIRCLE
  5
1329C5
  8
OBJECT
 10
4400.0
 20
-3520.9999999999968
 30
0.0
 40
41.5
1001
ACDBBLOCKREPETAG
1070
     1
1071
       19
1005
1329C5
  0
CIRCLE
  5
1329C6
  8
OBJECT
 10
4400.0
 20
-3520.9999999999968
 30
0.0
 40
54.0
1001
ACDBBLOCKREPETAG
1070
     1
1071
       20
1005
1329C6
  0
ARC
  5
1329C7
  8
OBJECT
 10
4400.0
 20
-3520.9999999999968
 30
0.0
 40
62.0
 50
287.89655112921122
 51
252.1034488707887
1001
ACDBBLOCKREPETAG
1070
     1
1071
       21
1005
1329C7
  0
LINE
  5
1329C8
  8
OBJECT
 10
4380.947441116743
 20
-3579.9999999999968
 30
0.0
 11
4419.052558883257
 21
-3579.9999999999968
 31
0.0
1001
ACDBBLOCKREPETAG
1070
     1
1071
       22
1005
1329C8
  0
LINE
  5
1329C9
  8
OBJECT
 10
4133.0
 20
-3458.9999999999968
 30
0.0
 11
4140.0
 21
-3458.9999999999968
 31
0.0
1001
ACDBBLOCKREPETAG
1070
     1
1071
       45
1005
1329C9
  0
LINE
  5
1329CA
  8
OBJECT
 10
4140.0
 20
-3458.9999999999968
 30
0.0
 11
4140.0
 21
-3579.9999999999968
 31
0.0
1001
ACDBBLOCKREPETAG
1070
     1
1071
       46
1005
1329CA
  0
LINE
  5
1329CB
  8
OBJECT
 10
4133.0
 20
-3579.9999999999968
 30
0.0
 11
4133.0
 21
-3458.9999999999968
 31
0.0
1001
ACDBBLOCKREPETAG
1070
     1
1071
       47
1005
1329CB
  0
LINE
  5
1329CC
  8
CENTER
 10
4155.0
 20
-3520.9999999999968
 30
0.0
 11
4071.0
 21
-3520.9999999999968
 31
0.0
1001
ACDBBLOCKREPETAG
1070
     1
1071
       48
1005
1329CC
  0
LINE
  5
1329CD
  8
OBJECT
 10
4133.0
 20
-3461.9999999999968
 30
0.0
 11
4097.0
 21
-3461.9999999999968
 31
0.0
1001
ACDBBLOCKREPETAG
1070
     1
1071
       49
1005
1329CD
  0
LINE
  5
1329CE
  8
OBJECT
 10
4097.0
 20
-3461.9999999999968
 30
0.0
 11
4097.0
 21
-3579.9999999999968
 31
0.0
1001
ACDBBLOCKREPETAG
1070
     1
1071
       50
1005
1329CE
  0
LINE
  5
1329CF
  8
OBJECT
 10
4097.0
 20
-3579.9999999999968
 30
0.0
 11
4140.0
 21
-3579.9999999999968
 31
0.0
1001
ACDBBLOCKREPETAG
1070
     1
1071
       51
1005
1329CF
  0
LINE
  5
1329D0
  8
OBJECT
 10
4093.0
 20
-3466.4999999999968
 30
0.0
 11
4086.0
 21
-3466.4999999999968
 31
0.0
1001
ACDBBLOCKREPETAG
1070
     1
1071
       52
1005
1329D0
  0
LINE
  5
1329D1
  8
OBJECT
 10
4086.0
 20
-3575.4999999999968
 30
0.0
 11
4093.0
 21
-3575.4999999999968
 31
0.0
1001
ACDBBLOCKREPETAG
1070
     1
1071
       53
1005
1329D1
  0
LINE
  5
1329D2
  8
OBJECT
 10
4093.0
 20
-3575.4999999999968
 30
0.0
 11
4093.0
 21
-3466.4999999999968
 31
0.0
1001
ACDBBLOCKREPETAG
1070
     1
1071
       54
1005
1329D2
  0
LINE
  5
1329D3
  8
OBJECT
 10
4097.0
 20
-3461.9999999999968
 30
0.0
 11
4093.0
 21
-3466.4999999999968
 31
0.0
1001
ACDBBLOCKREPETAG
1070
     1
1071
       55
1005
1329D3
  0
LINE
  5
1329D4
  8
OBJECT
 10
4097.0
 20
-3579.9999999999968
 30
0.0
 11
4093.0
 21
-3575.4999999999968
 31
0.0
1001
ACDBBLOCKREPETAG
1070
     1
1071
       56
1005
1329D4
  0
LINE
  5
1329D5
  8
OBJECT
 10
4083.0
 20
-3458.9999999999968
 30
0.0
 11
4080.0
 21
-3458.9999999999968
 31
0.0
1001
ACDBBLOCKREPETAG
1070
     1
1071
       57
1005
1329D5
  0
ARC
  5
1329D6
  8
OBJECT
 10
4083.0
 20
-3461.9999999999968
 30
0.0
 40
3.0
 50
0.0
 51
90.0
1001
ACDBBLOCKREPETAG
1070
     1
1071
       58
1005
1329D6
  0
LINE
  5
1329D7
  8
OBJECT
 10
4080.0
 20
-3582.9999999999968
 30
0.0
 11
4083.0
 21
-3582.9999999999968
 31
0.0
1001
ACDBBLOCKREPETAG
1070
     1
1071
       59
1005
1329D7
  0
ARC
  5
1329D8
  8
OBJECT
 10
4083.0
 20
-3579.9999999999968
 30
0.0
 40
3.0
 50
270.0
 51
0.0
1001
ACDBBLOCKREPETAG
1070
     1
1071
       60
1005
1329D8
  0
LINE
  5
1329D9
  8
OBJECT
 10
4086.0
 20
-3579.9999999999968
 30
0.0
 11
4086.0
 21
-3461.9999999999968
 31
0.0
1001
ACDBBLOCKREPETAG
1070
     1
1071
       61
1005
1329D9
  0
LINE
  5
1329DA
  8
HIDDEN
 10
4088.0
 20
-3476.4999999999968
 30
0.0
 11
4088.0
 21
-3565.4999999999968
 31
0.0
1001
ACDBBLOCKREPETAG
1070
     1
1071
       63
1005
1329DA
  0
LINE
  5
1329DB
  8
OBJECT
 10
4133.0
 20
-3112.9999999999959
 30
0.0
 11
4140.0
 21
-3112.9999999999959
 31
0.0
1001
ACDBBLOCKREPETAG
1070
     1
1071
       47
1005
1329DB
  0
LINE
  5
1329DC
  8
OBJECT
 10
4140.0
 20
-3112.9999999999959
 30
0.0
 11
4140.0
 21
-3236.9999999999959
 31
0.0
1001
ACDBBLOCKREPETAG
1070
     1
1071
       48
1005
1329DC
  0
LINE
  5
1329DD
  8
OBJECT
 10
4140.0
 20
-3236.9999999999959
 30
0.0
 11
4133.0
 21
-3236.9999999999959
 31
0.0
1001
ACDBBLOCKREPETAG
1070
     1
1071
       49
1005
1329DD
  0
LINE
  5
1329DE
  8
OBJECT
 10
4133.0
 20
-3236.9999999999959
 30
0.0
 11
4133.0
 21
-3112.9999999999959
 31
0.0
1001
ACDBBLOCKREPETAG
1070
     1
1071
       50
1005
1329DE
  0
LINE
  5
1329DF
  8
CENTER
 10
4155.0
 20
-3174.9999999999959
 30
0.0
 11
4080.0
 21
-3174.9999999999959
 31
0.0
1001
ACDBBLOCKREPETAG
1070
     1
1071
       51
1005
1329DF
  0
LINE
  5
1329E0
  8
OBJECT
 10
4133.0
 20
-3115.9999999999959
 30
0.0
 11
4097.0
 21
-3115.9999999999959
 31
0.0
1001
ACDBBLOCKREPETAG
1070
     1
1071
       52
1005
1329E0
  0
LINE
  5
1329E1
  8
OBJECT
 10
4097.0
 20
-3115.9999999999959
 30
0.0
 11
4097.0
 21
-3233.9999999999959
 31
0.0
1001
ACDBBLOCKREPETAG
1070
     1
1071
       53
1005
1329E1
  0
LINE
  5
1329E2
  8
OBJECT
 10
4097.0
 20
-3233.9999999999959
 30
0.0
 11
4133.0
 21
-3233.9999999999959
 31
0.0
1001
ACDBBLOCKREPETAG
1070
     1
1071
       54
1005
1329E2
  0
LINE
  5
1329E3
  8
OBJECT
 10
4093.0
 20
-3120.4999999999959
 30
0.0
 11
4086.0
 21
-3120.4999999999959
 31
0.0
1001
ACDBBLOCKREPETAG
1070
     1
1071
       55
1005
1329E3
  0
LINE
  5
1329E4
  8
OBJECT
 10
4086.0
 20
-3229.4999999999959
 30
0.0
 11
4093.0
 21
-3229.4999999999959
 31
0.0
1001
ACDBBLOCKREPETAG
1070
     1
1071
       56
1005
1329E4
  0
LINE
  5
1329E5
  8
OBJECT
 10
4093.0
 20
-3229.4999999999959
 30
0.0
 11
4093.0
 21
-3120.4999999999959
 31
0.0
1001
ACDBBLOCKREPETAG
1070
     1
1071
       57
1005
1329E5
  0
LINE
  5
1329E6
  8
OBJECT
 10
4097.0
 20
-3115.9999999999959
 30
0.0
 11
4093.0
 21
-3120.4999999999959
 31
0.0
1001
ACDBBLOCKREPETAG
1070
     1
1071
       58
1005
1329E6
  0
LINE
  5
1329E7
  8
OBJECT
 10
4097.0
 20
-3233.9999999999959
 30
0.0
 11
4093.0
 21
-3229.4999999999959
 31
0.0
1001
ACDBBLOCKREPETAG
1070
     1
1071
       59
1005
1329E7
  0
LINE
  5
1329E8
  8
OBJECT
 10
4083.0
 20
-3112.9999999999959
 30
0.0
 11
4080.0
 21
-3112.9999999999959
 31
0.0
1001
ACDBBLOCKREPETAG
1070
     1
1071
       60
1005
1329E8
  0
ARC
  5
1329E9
  8
OBJECT
 10
4083.0
 20
-3115.9999999999959
 30
0.0
 40
3.0
 50
0.0
 51
90.0
1001
ACDBBLOCKREPETAG
1070
     1
1071
       61
1005
1329E9
  0
LINE
  5
1329EA
  8
OBJECT
 10
4080.0
 20
-3236.9999999999959
 30
0.0
 11
4083.0
 21
-3236.9999999999959
 31
0.0
1001
ACDBBLOCKREPETAG
1070
     1
1071
       62
1005
1329EA
  0
ARC
  5
1329EB
  8
OBJECT
 10
4083.0
 20
-3233.9999999999959
 30
0.0
 40
3.0
 50
270.0
 51
0.0
1001
ACDBBLOCKREPETAG
1070
     1
1071
       63
1005
1329EB
  0
LINE
  5
1329EC
  8
OBJECT
 10
4086.0
 20
-3233.9999999999959
 30
0.0
 11
4086.0
 21
-3115.9999999999959
 31
0.0
1001
ACDBBLOCKREPETAG
1070
     1
1071
       64
1005
1329EC
  0
LINE
  5
1329ED
  8
HIDDEN
 10
4088.0
 20
-3130.4999999999959
 30
0.0
 11
4088.0
 21
-3219.4999999999959
 31
0.0
1001
ACDBBLOCKREPETAG
1070
     1
1071
       65
1005
1329ED
  0
TEXT
  5
1329EE
  8
SLIM
 10
3894.25
 20
-3697.4999999999959
 30
0.0
 40
35.0
  1
通常枝75（3）
 41
0.75
  0
CIRCLE
  5
1329EF
  8
OBJECT
 10
3400.0
 20
-3527.9999999999968
 30
0.0
 40
35.5
1001
ACDBBLOCKREPETAG
1070
     1
1071
       10
1005
1329EF
  0
CIRCLE
  5
1329F0
  8
OBJECT
 10
3400.0
 20
-3520.9999999999968
 30
0.0
 40
62.0
1001
ACDBBLOCKREPETAG
1070
     1
1071
       11
1005
1329F0
  0
LINE
  5
1329F1
  8
CENTER
 10
3330.0
 20
-3527.9999999999968
 30
0.0
 11
3470.0
 21
-3527.9999999999968
 31
0.0
1001
ACDBBLOCKREPETAG
1070
     1
1071
       12
1005
1329F1
  0
CIRCLE
  5
1329F2
  8
OBJECT
 10
3400.0
 20
-3527.9999999999968
 30
0.0
 40
47.0
1001
ACDBBLOCKREPETAG
1070
     1
1071
       14
1005
1329F2
  0
ARC
  5
1329F3
  8
OBJECT
 10
3400.0
 20
-3527.9999999999968
 30
0.0
 40
55.0
 50
289.01126526011359
 51
250.98873473988641
1001
ACDBBLOCKREPETAG
1070
     1
1071
       15
1005
1329F3
  0
LINE
  5
1329F4
  8
OBJECT
 10
3382.0835271328328
 20
-3579.9999999999968
 30
0.0
 11
3417.9164728671681
 21
-3579.9999999999968
 31
0.0
1001
ACDBBLOCKREPETAG
1070
     1
1071
       16
1005
1329F4
  0
LINE
  5
1329F5
  8
OBJECT
 10
3133.0
 20
-3472.9999999999968
 30
0.0
 11
3140.0
 21
-3472.9999999999968
 31
0.0
1001
ACDBBLOCKREPETAG
1070
     1
1071
       26
1005
1329F5
  0
LINE
  5
1329F6
  8
OBJECT
 10
3140.0
 20
-3472.9999999999968
 30
0.0
 11
3140.0
 21
-3579.9999999999968
 31
0.0
1001
ACDBBLOCKREPETAG
1070
     1
1071
       27
1005
1329F6
  0
LINE
  5
1329F7
  8
OBJECT
 10
3133.0
 20
-3579.9999999999968
 30
0.0
 11
3133.0
 21
-3472.9999999999968
 31
0.0
1001
ACDBBLOCKREPETAG
1070
     1
1071
       28
1005
1329F7
  0
LINE
  5
1329F8
  8
CENTER
 10
3155.0
 20
-3527.9999999999968
 30
0.0
 11
3071.0
 21
-3527.9999999999968
 31
0.0
1001
ACDBBLOCKREPETAG
1070
     1
1071
       29
1005
1329F8
  0
LINE
  5
1329F9
  8
OBJECT
 10
3133.0
 20
-3475.9999999999968
 30
0.0
 11
3097.0
 21
-3475.9999999999968
 31
0.0
1001
ACDBBLOCKREPETAG
1070
     1
1071
       30
1005
1329F9
  0
LINE
  5
1329FA
  8
OBJECT
 10
3097.0
 20
-3475.9999999999968
 30
0.0
 11
3097.0
 21
-3579.9999999999968
 31
0.0
1001
ACDBBLOCKREPETAG
1070
     1
1071
       31
1005
1329FA
  0
LINE
  5
1329FB
  8
OBJECT
 10
3097.0
 20
-3579.9999999999968
 30
0.0
 11
3140.0
 21
-3579.9999999999968
 31
0.0
1001
ACDBBLOCKREPETAG
1070
     1
1071
       32
1005
1329FB
  0
LINE
  5
1329FC
  8
OBJECT
 10
3093.0
 20
-3480.4999999999968
 30
0.0
 11
3086.0
 21
-3480.4999999999968
 31
0.0
1001
ACDBBLOCKREPETAG
1070
     1
1071
       33
1005
1329FC
  0
LINE
  5
1329FD
  8
OBJECT
 10
3086.0
 20
-3575.4999999999968
 30
0.0
 11
3093.0
 21
-3575.4999999999968
 31
0.0
1001
ACDBBLOCKREPETAG
1070
     1
1071
       34
1005
1329FD
  0
LINE
  5
1329FE
  8
OBJECT
 10
3093.0
 20
-3575.4999999999968
 30
0.0
 11
3093.0
 21
-3480.4999999999968
 31
0.0
1001
ACDBBLOCKREPETAG
1070
     1
1071
       35
1005
1329FE
  0
LINE
  5
1329FF
  8
OBJECT
 10
3097.0
 20
-3475.9999999999968
 30
0.0
 11
3093.0
 21
-3480.4999999999968
 31
0.0
1001
ACDBBLOCKREPETAG
1070
     1
1071
       36
1005
1329FF
  0
LINE
  5
132A00
  8
OBJECT
 10
3097.0
 20
-3579.9999999999968
 30
0.0
 11
3093.0
 21
-3575.4999999999968
 31
0.0
1001
ACDBBLOCKREPETAG
1070
     1
1071
       37
1005
132A00
  0
LINE
  5
132A01
  8
OBJECT
 10
3083.0
 20
-3458.9999999999968
 30
0.0
 11
3080.0
 21
-3458.9999999999968
 31
0.0
1001
ACDBBLOCKREPETAG
1070
     1
1071
       38
1005
132A01
  0
ARC
  5
132A02
  8
OBJECT
 10
3083.0
 20
-3461.9999999999968
 30
0.0
 40
3.0
 50
0.0
 51
90.0
1001
ACDBBLOCKREPETAG
1070
     1
1071
       39
1005
132A02
  0
LINE
  5
132A03
  8
OBJECT
 10
3080.0
 20
-3582.9999999999968
 30
0.0
 11
3083.0
 21
-3582.9999999999968
 31
0.0
1001
ACDBBLOCKREPETAG
1070
     1
1071
       40
1005
132A03
  0
ARC
  5
132A04
  8
OBJECT
 10
3083.0
 20
-3579.9999999999968
 30
0.0
 40
3.0
 50
270.0
 51
0.0
1001
ACDBBLOCKREPETAG
1070
     1
1071
       41
1005
132A04
  0
LINE
  5
132A05
  8
OBJECT
 10
3086.0
 20
-3579.9999999999968
 30
0.0
 11
3086.0
 21
-3461.9999999999968
 31
0.0
1001
ACDBBLOCKREPETAG
1070
     1
1071
       42
1005
132A05
  0
LINE
  5
132A06
  8
HIDDEN
 10
3088.0
 20
-3489.9999999999968
 30
0.0
 11
3088.0
 21
-3565.9999999999968
 31
0.0
1001
ACDBBLOCKREPETAG
1070
     1
1071
       43
1005
132A06
  0
LINE
  5
132A07
  8
OBJECT
 10
3133.0
 20
-3119.9999999999959
 30
0.0
 11
3140.0
 21
-3119.9999999999959
 31
0.0
1001
ACDBBLOCKREPETAG
1070
     1
1071
       27
1005
132A07
  0
LINE
  5
132A08
  8
OBJECT
 10
3140.0
 20
-3119.9999999999959
 30
0.0
 11
3140.0
 21
-3229.9999999999959
 31
0.0
1001
ACDBBLOCKREPETAG
1070
     1
1071
       28
1005
132A08
  0
LINE
  5
132A09
  8
OBJECT
 10
3140.0
 20
-3229.9999999999959
 30
0.0
 11
3133.0
 21
-3229.9999999999959
 31
0.0
1001
ACDBBLOCKREPETAG
1070
     1
1071
       29
1005
132A09
  0
LINE
  5
132A0A
  8
OBJECT
 10
3133.0
 20
-3229.9999999999959
 30
0.0
 11
3133.0
 21
-3119.9999999999959
 31
0.0
1001
ACDBBLOCKREPETAG
1070
     1
1071
       30
1005
132A0A
  0
LINE
  5
132A0B
  8
CENTER
 10
3155.0
 20
-3174.9999999999959
 30
0.0
 11
3080.0
 21
-3174.9999999999959
 31
0.0
1001
ACDBBLOCKREPETAG
1070
     1
1071
       31
1005
132A0B
  0
LINE
  5
132A0C
  8
OBJECT
 10
3133.0
 20
-3122.9999999999959
 30
0.0
 11
3097.0
 21
-3122.9999999999959
 31
0.0
1001
ACDBBLOCKREPETAG
1070
     1
1071
       32
1005
132A0C
  0
LINE
  5
132A0D
  8
OBJECT
 10
3097.0
 20
-3122.9999999999959
 30
0.0
 11
3097.0
 21
-3226.9999999999959
 31
0.0
1001
ACDBBLOCKREPETAG
1070
     1
1071
       33
1005
132A0D
  0
LINE
  5
132A0E
  8
OBJECT
 10
3097.0
 20
-3226.9999999999959
 30
0.0
 11
3133.0
 21
-3226.9999999999959
 31
0.0
1001
ACDBBLOCKREPETAG
1070
     1
1071
       34
1005
132A0E
  0
LINE
  5
132A0F
  8
OBJECT
 10
3093.0
 20
-3127.4999999999959
 30
0.0
 11
3086.0
 21
-3127.4999999999959
 31
0.0
1001
ACDBBLOCKREPETAG
1070
     1
1071
       35
1005
132A0F
  0
LINE
  5
132A10
  8
OBJECT
 10
3086.0
 20
-3222.4999999999959
 30
0.0
 11
3093.0
 21
-3222.4999999999959
 31
0.0
1001
ACDBBLOCKREPETAG
1070
     1
1071
       36
1005
132A10
  0
LINE
  5
132A11
  8
OBJECT
 10
3093.0
 20
-3222.4999999999959
 30
0.0
 11
3093.0
 21
-3127.4999999999959
 31
0.0
1001
ACDBBLOCKREPETAG
1070
     1
1071
       37
1005
132A11
  0
LINE
  5
132A12
  8
OBJECT
 10
3097.0
 20
-3122.9999999999959
 30
0.0
 11
3093.0
 21
-3127.4999999999959
 31
0.0
1001
ACDBBLOCKREPETAG
1070
     1
1071
       38
1005
132A12
  0
LINE
  5
132A13
  8
OBJECT
 10
3097.0
 20
-3226.9999999999959
 30
0.0
 11
3093.0
 21
-3222.4999999999959
 31
0.0
1001
ACDBBLOCKREPETAG
1070
     1
1071
       39
1005
132A13
  0
LINE
  5
132A14
  8
OBJECT
 10
3083.0
 20
-3112.9999999999959
 30
0.0
 11
3080.0
 21
-3112.9999999999959
 31
0.0
1001
ACDBBLOCKREPETAG
1070
     1
1071
       40
1005
132A14
  0
ARC
  5
132A15
  8
OBJECT
 10
3083.0
 20
-3115.9999999999959
 30
0.0
 40
3.0
 50
0.0
 51
90.0
1001
ACDBBLOCKREPETAG
1070
     1
1071
       41
1005
132A15
  0
LINE
  5
132A16
  8
OBJECT
 10
3080.0
 20
-3236.9999999999959
 30
0.0
 11
3083.0
 21
-3236.9999999999959
 31
0.0
1001
ACDBBLOCKREPETAG
1070
     1
1071
       42
1005
132A16
  0
ARC
  5
132A17
  8
OBJECT
 10
3083.0
 20
-3233.9999999999959
 30
0.0
 40
3.0
 50
270.0
 51
0.0
1001
ACDBBLOCKREPETAG
1070
     1
1071
       43
1005
132A17
  0
LINE
  5
132A18
  8
OBJECT
 10
3086.0
 20
-3233.9999999999959
 30
0.0
 11
3086.0
 21
-3115.9999999999959
 31
0.0
1001
ACDBBLOCKREPETAG
1070
     1
1071
       44
1005
132A18
  0
LINE
  5
132A19
  8
HIDDEN
 10
3088.0
 20
-3136.9999999999959
 30
0.0
 11
3088.0
 21
-3212.9999999999959
 31
0.0
1001
ACDBBLOCKREPETAG
1070
     1
1071
       45
1005
132A19
  0
TEXT
  5
132A1A
  8
SLIM
 10
2894.25
 20
-3697.4999999999959
 30
0.0
 40
35.0
  1
通常枝65（2）
 41
0.75
  0
CIRCLE
  5
132A1B
  8
OBJECT
 10
2400.0
 20
-3520.9999999999968
 30
0.0
 40
62.0
1001
ACDBBLOCKREPETAG
1070
     1
1071
        3
1005
132A1B
  0
LINE
  5
132A1C
  8
CENTER
 10
2338.0
 20
-3535.9999999999968
 30
0.0
 11
2462.0
 21
-3535.9999999999968
 31
0.0
1001
ACDBBLOCKREPETAG
1070
     1
1071
        4
1005
132A1C
  0
CIRCLE
  5
132A1D
  8
OBJECT
 10
2400.0
 20
-3535.9999999999968
 30
0.0
 40
28.0
1001
ACDBBLOCKREPETAG
1070
     1
1071
        6
1005
132A1D
  0
CIRCLE
  5
132A1E
  8
OBJECT
 10
2400.0
 20
-3535.9999999999968
 30
0.0
 40
39.0
1001
ACDBBLOCKREPETAG
1070
     1
1071
        7
1005
132A1E
  0
ARC
  5
132A1F
  8
OBJECT
 10
2400.0
 20
-3535.9999999999968
 30
0.0
 40
47.0
 50
290.58196921144412
 51
249.41803078855591
1001
ACDBBLOCKREPETAG
1070
     1
1071
        8
1005
132A1F
  0
LINE
  5
132A20
  8
OBJECT
 10
2383.4772883581431
 20
-3579.9999999999968
 30
0.0
 11
2416.5227116418569
 21
-3579.9999999999968
 31
0.0
1001
ACDBBLOCKREPETAG
1070
     1
1071
        9
1005
132A20
  0
LINE
  5
132A21
  8
OBJECT
 10
2133.0
 20
-3488.9999999999968
 30
0.0
 11
2140.0
 21
-3488.9999999999968
 31
0.0
1001
ACDBBLOCKREPETAG
1070
     1
1071
        7
1005
132A21
  0
LINE
  5
132A22
  8
OBJECT
 10
2140.0
 20
-3488.9999999999968
 30
0.0
 11
2140.0
 21
-3579.9999999999968
 31
0.0
1001
ACDBBLOCKREPETAG
1070
     1
1071
        8
1005
132A22
  0
LINE
  5
132A23
  8
OBJECT
 10
2133.0
 20
-3579.9999999999968
 30
0.0
 11
2133.0
 21
-3488.9999999999968
 31
0.0
1001
ACDBBLOCKREPETAG
1070
     1
1071
        9
1005
132A23
  0
LINE
  5
132A24
  8
CENTER
 10
2155.0
 20
-3535.9999999999968
 30
0.0
 11
2071.0
 21
-3535.9999999999968
 31
0.0
1001
ACDBBLOCKREPETAG
1070
     1
1071
       10
1005
132A24
  0
LINE
  5
132A25
  8
OBJECT
 10
2133.0
 20
-3491.9999999999968
 30
0.0
 11
2097.0
 21
-3491.9999999999968
 31
0.0
1001
ACDBBLOCKREPETAG
1070
     1
1071
       11
1005
132A25
  0
LINE
  5
132A26
  8
OBJECT
 10
2097.0
 20
-3491.9999999999968
 30
0.0
 11
2097.0
 21
-3579.9999999999968
 31
0.0
1001
ACDBBLOCKREPETAG
1070
     1
1071
       12
1005
132A26
  0
LINE
  5
132A27
  8
OBJECT
 10
2097.0
 20
-3579.9999999999968
 30
0.0
 11
2140.0
 21
-3579.9999999999968
 31
0.0
1001
ACDBBLOCKREPETAG
1070
     1
1071
       13
1005
132A27
  0
LINE
  5
132A28
  8
OBJECT
 10
2093.0
 20
-3496.4999999999968
 30
0.0
 11
2086.0
 21
-3496.4999999999968
 31
0.0
1001
ACDBBLOCKREPETAG
1070
     1
1071
       14
1005
132A28
  0
LINE
  5
132A29
  8
OBJECT
 10
2086.0
 20
-3575.4999999999968
 30
0.0
 11
2093.0
 21
-3575.4999999999968
 31
0.0
1001
ACDBBLOCKREPETAG
1070
     1
1071
       15
1005
132A29
  0
LINE
  5
132A2A
  8
OBJECT
 10
2093.0
 20
-3575.4999999999968
 30
0.0
 11
2093.0
 21
-3496.4999999999968
 31
0.0
1001
ACDBBLOCKREPETAG
1070
     1
1071
       16
1005
132A2A
  0
LINE
  5
132A2B
  8
OBJECT
 10
2097.0
 20
-3491.9999999999968
 30
0.0
 11
2093.0
 21
-3496.4999999999968
 31
0.0
1001
ACDBBLOCKREPETAG
1070
     1
1071
       17
1005
132A2B
  0
LINE
  5
132A2C
  8
OBJECT
 10
2097.0
 20
-3579.9999999999968
 30
0.0
 11
2093.0
 21
-3575.4999999999968
 31
0.0
1001
ACDBBLOCKREPETAG
1070
     1
1071
       18
1005
132A2C
  0
LINE
  5
132A2D
  8
OBJECT
 10
2083.0
 20
-3458.9999999999968
 30
0.0
 11
2080.0
 21
-3458.9999999999968
 31
0.0
1001
ACDBBLOCKREPETAG
1070
     1
1071
       19
1005
132A2D
  0
ARC
  5
132A2E
  8
OBJECT
 10
2083.0
 20
-3461.9999999999968
 30
0.0
 40
3.0
 50
0.0
 51
90.0
1001
ACDBBLOCKREPETAG
1070
     1
1071
       20
1005
132A2E
  0
LINE
  5
132A2F
  8
OBJECT
 10
2080.0
 20
-3582.9999999999968
 30
0.0
 11
2083.0
 21
-3582.9999999999968
 31
0.0
1001
ACDBBLOCKREPETAG
1070
     1
1071
       21
1005
132A2F
  0
ARC
  5
132A30
  8
OBJECT
 10
2083.0
 20
-3579.9999999999968
 30
0.0
 40
3.0
 50
270.0
 51
0.0
1001
ACDBBLOCKREPETAG
1070
     1
1071
       22
1005
132A30
  0
LINE
  5
132A31
  8
OBJECT
 10
2086.0
 20
-3579.9999999999968
 30
0.0
 11
2086.0
 21
-3461.9999999999968
 31
0.0
1001
ACDBBLOCKREPETAG
1070
     1
1071
       23
1005
132A31
  0
LINE
  5
132A32
  8
HIDDEN
 10
2088.0
 20
-3505.9999999999968
 30
0.0
 11
2088.0
 21
-3565.9999999999968
 31
0.0
1001
ACDBBLOCKREPETAG
1070
     1
1071
       24
1005
132A32
  0
LINE
  5
132A33
  8
OBJECT
 10
2133.0
 20
-3127.9999999999959
 30
0.0
 11
2140.0
 21
-3127.9999999999959
 31
0.0
1001
ACDBBLOCKREPETAG
1070
     1
1071
        7
1005
132A33
  0
LINE
  5
132A34
  8
OBJECT
 10
2140.0
 20
-3127.9999999999959
 30
0.0
 11
2140.0
 21
-3221.9999999999959
 31
0.0
1001
ACDBBLOCKREPETAG
1070
     1
1071
        8
1005
132A34
  0
LINE
  5
132A35
  8
OBJECT
 10
2140.0
 20
-3221.9999999999959
 30
0.0
 11
2133.0
 21
-3221.9999999999959
 31
0.0
1001
ACDBBLOCKREPETAG
1070
     1
1071
        9
1005
132A35
  0
LINE
  5
132A36
  8
OBJECT
 10
2133.0
 20
-3221.9999999999959
 30
0.0
 11
2133.0
 21
-3127.9999999999959
 31
0.0
1001
ACDBBLOCKREPETAG
1070
     1
1071
       10
1005
132A36
  0
LINE
  5
132A37
  8
CENTER
 10
2155.0
 20
-3174.9999999999959
 30
0.0
 11
2080.0
 21
-3174.9999999999959
 31
0.0
1001
ACDBBLOCKREPETAG
1070
     1
1071
       11
1005
132A37
  0
LINE
  5
132A38
  8
OBJECT
 10
2133.0
 20
-3130.9999999999959
 30
0.0
 11
2097.0
 21
-3130.9999999999959
 31
0.0
1001
ACDBBLOCKREPETAG
1070
     1
1071
       12
1005
132A38
  0
LINE
  5
132A39
  8
OBJECT
 10
2097.0
 20
-3130.9999999999959
 30
0.0
 11
2097.0
 21
-3218.9999999999959
 31
0.0
1001
ACDBBLOCKREPETAG
1070
     1
1071
       13
1005
132A39
  0
LINE
  5
132A3A
  8
OBJECT
 10
2097.0
 20
-3218.9999999999959
 30
0.0
 11
2133.0
 21
-3218.9999999999959
 31
0.0
1001
ACDBBLOCKREPETAG
1070
     1
1071
       14
1005
132A3A
  0
LINE
  5
132A3B
  8
OBJECT
 10
2093.0
 20
-3135.4999999999959
 30
0.0
 11
2086.0
 21
-3135.4999999999959
 31
0.0
1001
ACDBBLOCKREPETAG
1070
     1
1071
       15
1005
132A3B
  0
LINE
  5
132A3C
  8
OBJECT
 10
2086.0
 20
-3214.4999999999959
 30
0.0
 11
2093.0
 21
-3214.4999999999959
 31
0.0
1001
ACDBBLOCKREPETAG
1070
     1
1071
       16
1005
132A3C
  0
LINE
  5
132A3D
  8
OBJECT
 10
2093.0
 20
-3214.4999999999959
 30
0.0
 11
2093.0
 21
-3135.4999999999959
 31
0.0
1001
ACDBBLOCKREPETAG
1070
     1
1071
       17
1005
132A3D
  0
LINE
  5
132A3E
  8
OBJECT
 10
2097.0
 20
-3130.9999999999959
 30
0.0
 11
2093.0
 21
-3135.4999999999959
 31
0.0
1001
ACDBBLOCKREPETAG
1070
     1
1071
       18
1005
132A3E
  0
LINE
  5
132A3F
  8
OBJECT
 10
2097.0
 20
-3218.9999999999959
 30
0.0
 11
2093.0
 21
-3214.4999999999959
 31
0.0
1001
ACDBBLOCKREPETAG
1070
     1
1071
       19
1005
132A3F
  0
LINE
  5
132A40
  8
OBJECT
 10
2083.0
 20
-3112.9999999999959
 30
0.0
 11
2080.0
 21
-3112.9999999999959
 31
0.0
1001
ACDBBLOCKREPETAG
1070
     1
1071
       20
1005
132A40
  0
ARC
  5
132A41
  8
OBJECT
 10
2083.0
 20
-3115.9999999999959
 30
0.0
 40
3.0
 50
0.0
 51
90.0
1001
ACDBBLOCKREPETAG
1070
     1
1071
       21
1005
132A41
  0
LINE
  5
132A42
  8
OBJECT
 10
2080.0
 20
-3236.9999999999959
 30
0.0
 11
2083.0
 21
-3236.9999999999959
 31
0.0
1001
ACDBBLOCKREPETAG
1070
     1
1071
       22
1005
132A42
  0
ARC
  5
132A43
  8
OBJECT
 10
2083.0
 20
-3233.9999999999959
 30
0.0
 40
3.0
 50
270.0
 51
0.0
1001
ACDBBLOCKREPETAG
1070
     1
1071
       23
1005
132A43
  0
LINE
  5
132A44
  8
OBJECT
 10
2086.0
 20
-3233.9999999999959
 30
0.0
 11
2086.0
 21
-3115.9999999999959
 31
0.0
1001
ACDBBLOCKREPETAG
1070
     1
1071
       24
1005
132A44
  0
LINE
  5
132A45
  8
HIDDEN
 10
2088.0
 20
-3144.9999999999959
 30
0.0
 11
2088.0
 21
-3204.9999999999959
 31
0.0
1001
ACDBBLOCKREPETAG
1070
     1
1071
       25
1005
132A45
  0
TEXT
  5
132A46
  8
SLIM
 10
1896.75
 20
-3697.4999999999959
 30
0.0
 40
35.0
  1
通常枝50（1）
 41
0.75
  0
LINE
  5
132A47
  8
OBJECT
 10
3930.0
 20
-1079.999999999997
 30
0.0
 11
4070.0
 21
-1079.999999999997
 31
0.0
1001
ACDBBLOCKREPETAG
1070
     1
1071
        0
1005
132A47
  0
LINE
  5
132A48
  8
OBJECT
 10
3930.0
 20
-1079.999999999997
 30
0.0
 11
3930.0
 21
-839.99999999999704
 31
0.0
1001
ACDBBLOCKREPETAG
1070
     1
1071
        1
1005
132A48
  0
LINE
  5
132A49
  8
OBJECT
 10
4070.0
 20
-1079.999999999997
 30
0.0
 11
4070.0
 21
-839.99999999999704
 31
0.0
1001
ACDBBLOCKREPETAG
1070
     1
1071
        2
1005
132A49
  0
LINE
  5
132A4A
  8
OBJECT
 10
3930.0
 20
-839.99999999999704
 30
0.0
 11
4070.0
 21
-839.99999999999704
 31
0.0
1001
ACDBBLOCKREPETAG
1070
     1
1071
        3
1005
132A4A
  0
LINE
  5
132A4B
  8
HIDDEN
 10
3937.5
 20
-839.99999999999704
 30
0.0
 11
3937.5
 21
-1079.999999999997
 31
0.0
1001
ACDBBLOCKREPETAG
1070
     1
1071
        4
1005
132A4B
  0
LINE
  5
132A4C
  8
HIDDEN
 10
4062.5
 20
-839.99999999999704
 30
0.0
 11
4062.5
 21
-1079.999999999997
 31
0.0
1001
ACDBBLOCKREPETAG
1070
     1
1071
        5
1005
132A4C
  0
LINE
  5
132A4D
  8
CENTER
 10
4000.0
 20
-769.99999999999875
 30
0.0
 11
4000.0
 21
-1094.999999999997
 31
0.0
1001
ACDBBLOCKREPETAG
1070
     1
1071
        6
1005
132A4D
  0
LINE
  5
132A4E
  8
OBJECT
 10
3925.0
 20
-769.99999999999875
 30
0.0
 11
3925.0
 21
-799.99999999999693
 31
0.0
1001
ACDBBLOCKREPETAG
1070
     1
1071
        7
1005
132A4E
  0
LINE
  5
132A4F
  8
OBJECT
 10
4075.0000000000032
 20
-769.99999999999875
 30
0.0
 11
4075.0
 21
-799.99999999999693
 31
0.0
1001
ACDBBLOCKREPETAG
1070
     1
1071
        8
1005
132A4F
  0
LINE
  5
132A50
  8
OBJECT
 10
3925.0
 20
-799.99999999999693
 30
0.0
 11
4075.0
 21
-799.99999999999693
 31
0.0
1001
ACDBBLOCKREPETAG
1070
     1
1071
        9
1005
132A50
  0
LINE
  5
132A51
  8
OBJECT
 10
3925.0
 20
-799.99999999999693
 30
0.0
 11
3930.0
 21
-839.99999999999704
 31
0.0
1001
ACDBBLOCKREPETAG
1070
     1
1071
       10
1005
132A51
  0
LINE
  5
132A52
  8
OBJECT
 10
4070.0
 20
-839.99999999999704
 30
0.0
 11
4075.0
 21
-799.99999999999693
 31
0.0
1001
ACDBBLOCKREPETAG
1070
     1
1071
       11
1005
132A52
  0
LINE
  5
132A53
  8
OBJECT
 10
1930.0
 20
-1079.999999999998
 30
0.0
 11
2070.0
 21
-1079.999999999998
 31
0.0
1001
ACDBBLOCKREPETAG
1070
     1
1071
        0
1005
132A53
  0
LINE
  5
132A54
  8
OBJECT
 10
1930.0
 20
-1079.999999999998
 30
0.0
 11
1930.0
 21
-839.99999999999795
 31
0.0
1001
ACDBBLOCKREPETAG
1070
     1
1071
        1
1005
132A54
  0
LINE
  5
132A55
  8
OBJECT
 10
2070.0
 20
-1079.999999999998
 30
0.0
 11
2070.0
 21
-839.99999999999795
 31
0.0
1001
ACDBBLOCKREPETAG
1070
     1
1071
        2
1005
132A55
  0
LINE
  5
132A56
  8
OBJECT
 10
1930.0
 20
-839.99999999999795
 30
0.0
 11
2070.0
 21
-839.99999999999795
 31
0.0
1001
ACDBBLOCKREPETAG
1070
     1
1071
        3
1005
132A56
  0
LINE
  5
132A57
  8
HIDDEN
 10
1937.5
 20
-839.99999999999795
 30
0.0
 11
1937.5
 21
-1079.999999999998
 31
0.0
1001
ACDBBLOCKREPETAG
1070
     1
1071
        4
1005
132A57
  0
LINE
  5
132A58
  8
HIDDEN
 10
2062.5
 20
-839.99999999999795
 30
0.0
 11
2062.5
 21
-1079.999999999998
 31
0.0
1001
ACDBBLOCKREPETAG
1070
     1
1071
        5
1005
132A58
  0
LINE
  5
132A59
  8
CENTER
 10
2000.0
 20
-769.99999999999955
 30
0.0
 11
2000.0
 21
-1094.999999999997
 31
0.0
1001
ACDBBLOCKREPETAG
1070
     1
1071
        6
1005
132A59
  0
LINE
  5
132A5A
  8
OBJECT
 10
1925.0
 20
-769.99999999999955
 30
0.0
 11
1925.0
 21
-799.99999999999773
 31
0.0
1001
ACDBBLOCKREPETAG
1070
     1
1071
        7
1005
132A5A
  0
LINE
  5
132A5B
  8
OBJECT
 10
2075.0000000000041
 20
-769.99999999999955
 30
0.0
 11
2075.0
 21
-799.99999999999773
 31
0.0
1001
ACDBBLOCKREPETAG
1070
     1
1071
        8
1005
132A5B
  0
LINE
  5
132A5C
  8
OBJECT
 10
1925.0
 20
-799.99999999999773
 30
0.0
 11
2075.0
 21
-799.99999999999773
 31
0.0
1001
ACDBBLOCKREPETAG
1070
     1
1071
        9
1005
132A5C
  0
LINE
  5
132A5D
  8
OBJECT
 10
1925.0
 20
-799.99999999999773
 30
0.0
 11
1930.0
 21
-839.99999999999795
 31
0.0
1001
ACDBBLOCKREPETAG
1070
     1
1071
       10
1005
132A5D
  0
LINE
  5
132A5E
  8
OBJECT
 10
2070.0
 20
-839.99999999999795
 30
0.0
 11
2075.0
 21
-799.99999999999773
 31
0.0
1001
ACDBBLOCKREPETAG
1070
     1
1071
       11
1005
132A5E
  0
TEXT
  5
132A5F
  8
SLIM
 10
3741.6250000000009
 20
-1347.499999999997
 30
0.0
 40
35.0
  1
片受けスタイル（S）＋シンドカット
 41
0.75
  0
TEXT
  5
132A60
  8
SLIM
 10
1856.25
 20
-1347.499999999998
 30
0.0
 40
35.0
  1
片受けスタイル（S）
 41
0.75
  0
VIEWPORT
  5
F6BA7
 67
     1
  8
0
 10
145.33033752441401
 20
101.8328354358673
 30
0.0
 40
334.0025019414623
 41
222.19657968139651
 68
     1
 69
     1
1001
ACAD
1000
MVIEW
1002
{
1070
    16
1010
0.0
1020
0.0
1030
0.0
1010
0.0
1020
0.0
1030
1.0
1040
0.0
1040
222.19657968139651
1040
145.33033752441401
1040
101.8328354358673
1040
50.0
1040
0.0
1040
0.0
1070
     0
1070
     0
1070
     1
1070
     1
1070
     0
1070
     0
1070
     0
1070
     0
1040
0.0
1040
0.0
1040
0.0
1040
10.0
1040
10.0
1040
10.0
1040
10.0
1070
     0
1002
{
1002
}
1002
}
  0
VIEWPORT
  5
F6BA9
 67
     1
  8
OBJECT
 10
145.3303314447403
 20
101.8328338861465
 30
0.0
 40
232.5285303115844
 41
162.93253421783439
 68
     2
 69
     2
1001
ACAD
1000
MVIEW
1002
{
1070
    16
1010
0.0
1020
0.0
1030
0.0
1010
0.0
1020
0.0
1030
1.0
1040
0.0
1040
25942.55904403147
1040
2377.604457077377
1040
-7591.5176687056619
1040
50.0
1040
0.0
1040
0.0
1070
     0
1070
   600
1070
     1
1070
     1
1070
     0
1070
     0
1070
     0
1070
     0
1040
0.0
1040
0.0
1040
0.0
1040
1.0
1040
1.0
1040
0.0
1040
0.0
1070
     0
1002
{
1002
}
1002
}
  0
ENDSEC
  0
EOF
