  0
SECTION
  2
HEADER
  9
$ACADVER
  1
AC1009
  9
$INSBASE
 10
0.0
 20
0.0
 30
0.0
  9
$EXTMIN
 10
0.0
 20
-3697.4999999999968
 30
0.0
  9
$EXTMAX
 10
5575.0
 20
607.5
 30
0.0
  9
$LIMMIN
 10
0.0
 20
0.0
  9
$LIMMAX
 10
210.0
 20
297.0
  9
$ORTHOMODE
 70
     0
  9
$REGENMODE
 70
     1
  9
$FILLMODE
 70
     1
  9
$QTEXTMODE
 70
     0
  9
$MIRRTEXT
 70
     0
  9
$DRAGMODE
 70
     2
  9
$LTSCALE
 40
1.0
  9
$OSMODE
 70
    37
  9
$ATTMODE
 70
     1
  9
$TEXTSIZE
 40
4.0
  9
$TRACEWID
 40
0.05
  9
$TEXTSTYLE
  7
STANDARD
  9
$CLAYER
  8
OBJECT
  9
$CELTYPE
  6
BYLAYER
  9
$CECOLOR
 62
   256
  9
$DIMSCALE
 40
10.0
  9
$DIMASZ
 40
2.0
  9
$DIMEXO
 40
1.0
  9
$DIMDLI
 40
10.0
  9
$DIMRND
 40
0.0
  9
$DIMDLE
 40
0.0
  9
$DIMEXE
 40
1.0
  9
$DIMTP
 40
0.0
  9
$DIMTM
 40
0.0
  9
$DIMTXT
 40
3.2000000000000002
  9
$DIMCEN
 40
0.0
  9
$DIMTSZ
 40
0.0
  9
$DIMTOL
 70
     0
  9
$DIMLIM
 70
     0
  9
$DIMTIH
 70
     0
  9
$DIMTOH
 70
     0
  9
$DIMSE1
 70
     0
  9
$DIMSE2
 70
     0
  9
$DIMTAD
 70
     1
  9
$DIMZIN
 70
     8
  9
$DIMBLK
  1
OPEN30
  9
$DIMASO
 70
     1
  9
$DIMSHO
 70
     1
  9
$DIMPOST
  1

  9
$DIMAPOST
  1

  9
$DIMALT
 70
     0
  9
$DIMALTD
 70
     2
  9
$DIMALTF
 40
25.399999999999999
  9
$DIMLFAC
 40
1.0
  9
$DIMTOFL
 70
     1
  9
$DIMTVP
 40
0.0
  9
$DIMTIX
 70
     0
  9
$DIMSOXD
 70
     0
  9
$DIMSAH
 70
     0
  9
$DIMBLK1
  1

  9
$DIMBLK2
  1

  9
$DIMSTYLE
  2
S10
  9
$DIMCLRD
 70
   256
  9
$DIMCLRE
 70
   256
  9
$DIMCLRT
 70
   256
  9
$DIMTFAC
 40
1.0
  9
$DIMGAP
 40
0.9
  9
$LUNITS
 70
     2
  9
$LUPREC
 70
     2
  9
$SKETCHINC
 40
0.1
  9
$FILLETRAD
 40
0.0
  9
$AUNITS
 70
     0
  9
$AUPREC
 70
     2
  9
$MENU
  1
ACAD
  9
$ELEVATION
 40
0.0
  9
$PELEVATION
 40
0.0
  9
$THICKNESS
 40
0.0
  9
$LIMCHECK
 70
     0
  9
$BLIPMODE
 70
     0
  9
$CHAMFERA
 40
2.0
  9
$CHAMFERB
 40
2.0
  9
$SKPOLY
 70
     0
  9
$TDCREATE
 40
2453095.4929404748
  9
$TDUPDATE
 40
2457921.6658118288
  9
$TDINDWG
 40
18.358397847199999
  9
$TDUSRTIMER
 40
18.358397094899999
  9
$USRTIMER
 70
     1
  9
$ANGBASE
 50
0.0
  9
$ANGDIR
 70
     0
  9
$PDMODE
 70
    35
  9
$PDSIZE
 40
2.0
  9
$PLINEWID
 40
0.0
  9
$COORDS
 70
     1
  9
$SPLFRAME
 70
     0
  9
$SPLINETYPE
 70
     6
  9
$SPLINESEGS
 70
     8
  9
$ATTDIA
 70
     0
  9
$ATTREQ
 70
     1
  9
$HANDLING
 70
     1
  9
$HANDSEED
  5
1329F9
  9
$SURFTAB1
 70
     6
  9
$SURFTAB2
 70
     6
  9
$SURFTYPE
 70
     6
  9
$SURFU
 70
     6
  9
$SURFV
 70
     6
  9
$UCSNAME
  2

  9
$UCSORG
 10
0.0
 20
0.0
 30
0.0
  9
$UCSXDIR
 10
1.0
 20
0.0
 30
0.0
  9
$UCSYDIR
 10
0.0
 20
1.0
 30
0.0
  9
$PUCSNAME
  2

  9
$PUCSORG
 10
0.0
 20
0.0
 30
0.0
  9
$PUCSXDIR
 10
1.0
 20
0.0
 30
0.0
  9
$PUCSYDIR
 10
0.0
 20
1.0
 30
0.0
  9
$USERI1
 70
     0
  9
$USERI2
 70
     0
  9
$USERI3
 70
     0
  9
$USERI4
 70
     0
  9
$USERI5
 70
     0
  9
$USERR1
 40
0.0
  9
$USERR2
 40
0.0
  9
$USERR3
 40
0.0
  9
$USERR4
 40
0.0
  9
$USERR5
 40
0.0
  9
$WORLDVIEW
 70
     1
  9
$SHADEDGE
 70
     3
  9
$SHADEDIF
 70
    70
  9
$TILEMODE
 70
     1
  9
$MAXACTVP
 70
    64
  9
$PLIMCHECK
 70
     0
  9
$PEXTMIN
 10
29.066066288948051
 20
20.366566777229309
 30
0.0
  9
$PEXTMAX
 10
261.5945966005325
 20
183.29910099506381
 30
0.0
  9
$PLIMMIN
 10
-3.17498779296875
 20
-3.1749999523162842
  9
$PLIMMAX
 10
293.83566284179687
 20
206.8406708240509
  9
$UNITMODE
 70
     0
  9
$VISRETAIN
 70
     1
  9
$PLINEGEN
 70
     0
  9
$PSLTSCALE
 70
     1
  0
ENDSEC
  0
SECTION
  2
TABLES
  0
TABLE
  2
VPORT
 70
     1
  0
VPORT
  2
*ACTIVE
 70
     0
 10
0.0
 20
0.0
 11
1.0
 21
1.0
 12
2046.163697966957
 22
723.72243434983102
 13
0.0
 23
0.0
 14
1.0
 24
1.0
 15
0.0
 25
0.0
 16
0.0
 26
0.0
 36
1.0
 17
0.0
 27
0.0
 37
0.0
 40
9335.8856632707539
 41
1.6553079947575351
 42
50.0
 43
0.0
 44
0.0
 50
0.0
 51
0.0
 71
     0
 72
   600
 73
     1
 74
     1
 75
     0
 76
     0
 77
     0
 78
     0
  0
ENDTAB
  0
TABLE
  2
LTYPE
 70
     4
  0
LTYPE
  2
CONTINUOUS
 70
     0
  3
Solid line
 72
    65
 73
     0
 40
0.0
  0
LTYPE
  2
PHANTOM2
 70
     0
  3
___ _ _ ___ _ _ ___ _ _ ___ _ _
 72
    65
 73
     6
 40
1.25
 49
0.625
 49
-0.125
 49
0.125
 49
-0.125
 49
0.125
 49
-0.125
  0
LTYPE
  2
ACAD_ISO08W100
 70
     0
  3
ISO long-dash short-dash ____ __ ____ __ ____ _
 72
    65
 73
     4
 40
36.0
 49
24.0
 49
-3.0
 49
6.0
 49
-3.0
  0
LTYPE
  2
ACAD_ISO02W100
 70
     0
  3
ISO dash __ __ __ __ __ __ __ __ __ __ __ __ __
 72
    65
 73
     2
 40
15.0
 49
12.0
 49
-3.0
  0
ENDTAB
  0
TABLE
  2
LAYER
 70
     8
  0
LAYER
  2
0
 70
     0
 62
     7
  6
CONTINUOUS
  0
LAYER
  2
OBJECT
 70
     0
 62
     4
  6
CONTINUOUS
  0
LAYER
  2
DEFPOINTS
 70
     0
 62
     7
  6
CONTINUOUS
  0
LAYER
  2
DIM
 70
     0
 62
     7
  6
CONTINUOUS
  0
LAYER
  2
HIDDEN
 70
     0
 62
     2
  6
ACAD_ISO02W100
  0
LAYER
  2
CENTER
 70
     0
 62
     2
  6
ACAD_ISO08W100
  0
LAYER
  2
DOTS
 70
     0
 62
     1
  6
CONTINUOUS
  0
LAYER
  2
SLIM
 70
     0
 62
     2
  6
CONTINUOUS
  0
ENDTAB
  0
TABLE
  2
STYLE
 70
     2
  0
STYLE
  2
STANDARD
 70
     0
 40
0.0
 41
0.75
 50
0.0
 71
     0
 42
4.0
  3
simplex.shx
  4
bigfont.shx
  0
ENDTAB
  0
TABLE
  2
VIEW
 70
     0
  0
ENDTAB
  0
TABLE
  2
UCS
 70
     0
  0
ENDTAB
  0
TABLE
  2
APPID
 70
    18
  0
APPID
  2
ACAD
 70
     0
  0
APPID
  2
ACADANNOTATIVE
 70
     0
  0
APPID
  2
ACAD_PSEXT
 70
     0
  0
APPID
  2
ACAD_EXEMPT_FROM_CAD_STANDARDS
 70
     0
  0
APPID
  2
ACAECLAYERSTANDARD
 70
     0
  0
APPID
  2
ACAUTHENVIRON
 70
     0
  0
APPID
  2
ACDBDYNAMICBLOCKTRUENAME
 70
     0
  0
APPID
  2
ACDBDYNAMICBLOCKGUID
 70
     0
  0
APPID
  2
ACDBBLOCKREPETAG
 70
     0
  0
APPID
  2
ACDBBLOCKREPBTAG
 70
     0
  0
APPID
  2
ACAD_NAV_VCDISPLAY
 70
     0
  0
APPID
  2
ACAD_DSTYLE_DIMRADIAL_EXTENSION
 70
     0
  0
APPID
  2
ACAD_DSTYLE_DIMJAG
 70
     0
  0
APPID
  2
ACAD_DSTYLE_DIMTALN
 70
     0
  0
APPID
  2
ACADANNOPO
 70
     0
  0
APPID
  2
GRADIENTCOLOR1ACI
 70
     0
  0
APPID
  2
GRADIENTCOLOR2ACI
 70
     0
  0
APPID
  2
ACAD_MLEADERVER
 70
     0
  0
ENDTAB
  0
TABLE
  2
DIMSTYLE
 70
     3
  0
DIMSTYLE
  2
STANDARD
 70
     0
  3

  4

  5

  6

  7

 40
1.0
 41
0.18
 42
0.0625
 43
0.38
 44
0.18
 45
0.0
 46
0.0
 47
0.0
 48
0.0
140
0.18
141
0.09
142
0.0
143
25.399999999999999
144
1.0
145
0.0
146
1.0
147
0.09
 71
     0
 72
     0
 73
     1
 74
     1
 75
     0
 76
     0
 77
     0
 78
     0
170
     0
171
     2
172
     0
173
     0
174
     0
175
     0
176
     0
177
     0
178
     0
  0
DIMSTYLE
  2
S10
 70
     0
  3

  4

  5

  6

  7

 40
10.0
 41
2.0
 42
1.0
 43
10.0
 44
1.0
 45
0.0
 46
0.0
 47
0.0
 48
0.0
140
3.2000000000000002
141
0.0
142
0.0
143
25.399999999999999
144
1.0
145
0.0
146
1.0
147
0.9
 71
     0
 72
     0
 73
     0
 74
     0
 75
     0
 76
     0
 77
     1
 78
     8
170
     0
171
     2
172
     1
173
     0
174
     0
175
     0
176
   256
177
   256
178
   256
  0
ENDTAB
  0
ENDSEC
  0
SECTION
  2
BLOCKS
  0
BLOCK
  8
0
  2
$MODEL_SPACE
 70
     0
 10
0.0
 20
0.0
 30
0.0
  3
$MODEL_SPACE
  1

  0
ENDBLK
  5
13295D
  8
0
  0
BLOCK
 67
     1
  8
0
  2
$PAPER_SPACE
 70
     0
 10
0.0
 20
0.0
 30
0.0
  3
$PAPER_SPACE
  1

  0
ENDBLK
  5
132959
 67
     1
  8
0
  0
BLOCK
  8
0
  2
_OPEN30
 70
     0
 10
0.0
 20
0.0
 30
0.0
  3
_OPEN30
  1

  0
LINE
  5
202
  8
0
  6
BYBLOCK
 62
     0
 10
-1.0
 20
0.26794919
 30
0.0
 11
0.0
 21
0.0
 31
0.0
  0
LINE
  5
203
  8
0
  6
BYBLOCK
 62
     0
 10
0.0
 20
0.0
 30
0.0
 11
-1.0
 21
-0.26794919
 31
0.0
  0
LINE
  5
204
  8
0
  6
BYBLOCK
 62
     0
 10
0.0
 20
0.0
 30
0.0
 11
-1.0
 21
0.0
 31
0.0
  0
ENDBLK
  5
206
  8
0
  0
BLOCK
  8
0
  2
*U3
 70
     1
 10
0.0
 20
0.0
 30
0.0
  3
*U3
  1

  0
TEXT
  5
1328C1
  8
SLIM
 10
652.99999999998226
 20
-650.57142857142856
 30
0.0
 40
26.0
  1
75Z
 50
270.0
  0
ENDBLK
  5
1328C3
  8
0
  0
BLOCK
  8
0
  2
*U4
 70
     1
 10
0.0
 20
0.0
 30
0.0
  3
*U4
  1

  0
TEXT
  5
1328C5
  8
SLIM
 10
440.04761904761892
 20
-574.75
 30
0.0
 40
26.0
  1
100
  0
ENDBLK
  5
1328C7
  8
0
  0
BLOCK
  8
0
  2
*U5
 70
     1
 10
0.0
 20
0.0
 30
0.0
  3
*U5
  1

  0
TEXT
  5
1328C9
  8
SLIM
 10
292.99999999998238
 20
-650.57142857142856
 30
0.0
 40
26.0
  1
75Z
 50
270.0
  0
ENDBLK
  5
1328CB
  8
0
  0
BLOCK
  8
0
  2
*U6
 70
     1
 10
0.0
 20
0.0
 30
0.0
  3
*U6
  1

  0
TEXT
  5
1328CD
  8
SLIM
 10
89.952380952380963
 20
-582.0
 30
0.0
 40
26.0
  1
75
  0
ENDBLK
  5
1328CF
  8
0
  0
BLOCK
  8
0
  2
*U7
 70
     1
 10
0.0
 20
0.0
 30
0.0
  3
*U7
  1

  0
TEXT
  5
1328D1
  8
SLIM
 10
652.99999999998226
 20
-186.5714285714285
 30
0.0
 40
26.0
  1
75Z
 50
270.0
  0
ENDBLK
  5
1328D3
  8
0
  0
BLOCK
  8
0
  2
*U8
 70
     1
 10
0.0
 20
0.0
 30
0.0
  3
*U8
  1

  0
TEXT
  5
1328D5
  8
SLIM
 10
449.95238095238079
 20
-118.0
 30
0.0
 40
26.0
  1
65
  0
ENDBLK
  5
1328D7
  8
0
  0
BLOCK
  8
0
  2
*U9
 70
     1
 10
0.0
 20
0.0
 30
0.0
  3
*U9
  1

  0
TEXT
  5
1328D9
  8
SLIM
 10
292.99999999998238
 20
-186.5714285714285
 30
0.0
 40
26.0
  1
75Z
 50
270.0
  0
ENDBLK
  5
1328DB
  8
0
  0
BLOCK
  8
0
  2
*U10
 70
     1
 10
0.0
 20
0.0
 30
0.0
  3
*U10
  1

  0
TEXT
  5
1328DD
  8
SLIM
 10
89.952380952380963
 20
-118.0
 30
0.0
 40
26.0
  1
50
  0
ENDBLK
  5
1328DF
  8
0
  0
BLOCK
  8
0
  2
*U11
 70
     1
 10
0.0
 20
0.0
 30
0.0
  3
*U11
  1

  0
TEXT
  5
1328E1
  8
DIM
 10
2209.479620594459
 20
-3184.1428571428528
 30
0.0
 40
32.0
  1
A
 50
90.0
 41
0.75
  0
ENDBLK
  5
1328E3
  8
0
  0
BLOCK
  8
0
  2
*U12
 70
     1
 10
0.0
 20
0.0
 30
0.0
  3
*U12
  1

  0
TEXT
  5
1328E5
  8
DIM
 10
2207.8409284037348
 20
-3565.9999999999959
 30
0.0
 40
32.0
  1
B
 50
90.0
 41
0.75
  0
ENDBLK
  5
1328E7
  8
0
  0
BLOCK
  8
0
  2
*U13
 70
     1
 10
0.0
 20
0.0
 30
0.0
  3
*U13
  1

  0
TEXT
  5
1328E9
  8
DIM
 10
2061.428571428572
 20
-3038.208121984444
 30
0.0
 40
32.0
  1
C
 41
0.75
  0
ENDBLK
  5
1328EB
  8
0
  0
ENDSEC
  0
SECTION
  2
ENTITIES
  0
LINE
  5
12515F
  8
OBJECT
 10
1825.0
 20
-3579.9999999999959
 30
0.0
 11
5575.0
 21
-3579.9999999999959
 31
0.0
  0
LINE
  5
125161
  8
SLIM
 10
2616.0
 20
-2637.50001604727
 30
0.0
 11
2616.0
 21
-2967.50001604727
 31
0.0
  0
LINE
  5
125162
  8
SLIM
 10
2740.0
 20
-2637.50001604727
 30
0.0
 11
2740.0
 21
-2967.50001604727
 31
0.0
  0
LINE
  5
125163
  8
SLIM
 10
2870.0
 20
-2697.50001604727
 30
0.0
 11
2870.0
 21
-2967.50001604727
 31
0.0
  0
LINE
  5
125164
  8
SLIM
 10
3000.0
 20
-2697.50001604727
 30
0.0
 11
3000.0
 21
-2967.50001604727
 31
0.0
  0
LINE
  5
125165
  8
SLIM
 10
3130.0
 20
-2967.50001604727
 30
0.0
 11
3130.0
 21
-2697.50001604727
 31
0.0
  0
LINE
  5
125166
  8
SLIM
 10
3260.0
 20
-2967.50001604727
 30
0.0
 11
3260.0
 21
-2637.50001604727
 31
0.0
  0
LINE
  5
125167
  8
SLIM
 10
3260.0
 20
-2637.50001604727
 30
0.0
 11
2616.0
 21
-2637.50001604727
 31
0.0
  0
LINE
  5
125168
  8
SLIM
 10
3260.0
 20
-2697.50001604727
 30
0.0
 11
2740.0
 21
-2697.50001604727
 31
0.0
  0
LINE
  5
125169
  8
SLIM
 10
3260.0
 20
-2757.50001604727
 30
0.0
 11
2616.0
 21
-2757.50001604727
 31
0.0
  0
LINE
  5
12516A
  8
SLIM
 10
3260.0
 20
-2827.50001604727
 30
0.0
 11
2616.0
 21
-2827.50001604727
 31
0.0
  0
LINE
  5
12516B
  8
SLIM
 10
3260.0
 20
-2897.50001604727
 30
0.0
 11
2616.0
 21
-2897.50001604727
 31
0.0
  0
LINE
  5
12516C
  8
SLIM
 10
3260.0
 20
-2967.50001604727
 30
0.0
 11
2616.0
 21
-2967.50001604727
 31
0.0
  0
LINE
  5
125181
  8
SLIM
 10
2740.0
 20
-2757.50001604727
 30
0.0
 11
2615.9999722746579
 21
-2637.5
 31
0.0
  0
LINE
  5
1251B6
  8
OBJECT
 10
5323.0
 20
-3395.9999999999968
 30
0.0
 11
5323.0
 21
-3374.9999999999968
 31
0.0
1001
ACDBBLOCKREPETAG
1070
     1
1071
       20
1005
1251B6
  0
LINE
  5
1251B7
  8
OBJECT
 10
5323.0
 20
-3374.9999999999968
 30
0.0
 11
5477.0
 21
-3374.9999999999968
 31
0.0
1001
ACDBBLOCKREPETAG
1070
     1
1071
       21
1005
1251B7
  0
LINE
  5
1251B8
  8
HIDDEN
 10
5343.0
 20
-3444.9999999999968
 30
0.0
 11
5457.0
 21
-3444.9999999999968
 31
0.0
1001
ACDBBLOCKREPETAG
1070
     1
1071
       22
1005
1251B8
  0
LINE
  5
1251B9
  8
OBJECT
 10
5477.0
 20
-3374.9999999999968
 30
0.0
 11
5477.0
 21
-3395.9999999999968
 31
0.0
1001
ACDBBLOCKREPETAG
1070
     1
1071
       23
1005
1251B9
  0
LINE
  5
1251BA
  8
OBJECT
 10
5477.0
 20
-3395.9999999999968
 30
0.0
 11
5323.0
 21
-3395.9999999999968
 31
0.0
1001
ACDBBLOCKREPETAG
1070
     1
1071
       24
1005
1251BA
  0
LINE
  5
1251BB
  8
CENTER
 10
5400.0
 20
-3359.9999999999968
 30
0.0
 11
5400.0
 21
-3594.9999999999968
 31
0.0
1001
ACDBBLOCKREPETAG
1070
     1
1071
       25
1005
1251BB
  0
LINE
  5
1251BC
  8
OBJECT
 10
5325.0
 20
-3458.9999999999968
 30
0.0
 11
5325.0
 21
-3582.9999999999968
 31
0.0
1001
ACDBBLOCKREPETAG
1070
     1
1071
       26
1005
1251BC
  0
LINE
  5
1251BD
  8
OBJECT
 10
5328.0
 20
-3395.9999999999968
 30
0.0
 11
5328.0
 21
-3458.9999999999968
 31
0.0
1001
ACDBBLOCKREPETAG
1070
     1
1071
       27
1005
1251BD
  0
LINE
  5
1251BE
  8
OBJECT
 10
5472.0
 20
-3458.9999999999968
 30
0.0
 11
5472.0
 21
-3395.9999999999968
 31
0.0
1001
ACDBBLOCKREPETAG
1070
     1
1071
       28
1005
1251BE
  0
LINE
  5
1251BF
  8
OBJECT
 10
5475.0
 20
-3458.9999999999968
 30
0.0
 11
5456.7802782663139
 21
-3458.9999999999968
 31
0.0
1001
ACDBBLOCKREPETAG
1070
     1
1071
       30
1005
1251BF
  0
LINE
  5
1251C0
  8
OBJECT
 10
5475.0
 20
-3458.9999999999968
 30
0.0
 11
5475.0
 21
-3582.9999999999968
 31
0.0
1001
ACDBBLOCKREPETAG
1070
     1
1071
       34
1005
1251C0
  0
POINT
  5
1251C1
  8
DOTS
 10
5400.0
 20
-3579.9999999999968
 30
0.0
1001
ACDBBLOCKREPETAG
1070
     1
1071
      187
1005
1251C1
  0
LINE
  5
1251C2
  8
CENTER
 10
5310.0
 20
-3507.9999999999968
 30
0.0
 11
5490.0
 21
-3507.9999999999968
 31
0.0
1001
ACDBBLOCKREPETAG
1070
     1
1071
       23
1005
1251C2
  0
CIRCLE
  5
1251C3
  8
OBJECT
 10
5400.0
 20
-3507.9999999999968
 30
0.0
 40
53.5
1001
ACDBBLOCKREPETAG
1070
     1
1071
       24
1005
1251C3
  0
CIRCLE
  5
1251C4
  8
OBJECT
 10
5400.0
 20
-3507.9999999999968
 30
0.0
 40
67.0
1001
ACDBBLOCKREPETAG
1070
     1
1071
       25
1005
1251C4
  0
ARC
  5
1251C5
  8
OBJECT
 10
5400.0
 20
-3507.9999999999968
 30
0.0
 40
75.0
 50
286.26020470824369
 51
253.73979529175631
1001
ACDBBLOCKREPETAG
1070
     1
1071
       27
1005
1251C5
  0
LINE
  5
1251C6
  8
OBJECT
 10
5379.0
 20
-3579.9999999999968
 30
0.0
 11
5421.0
 21
-3579.9999999999968
 31
0.0
1001
ACDBBLOCKREPETAG
1070
     1
1071
       28
1005
1251C6
  0
LINE
  5
1251C7
  8
OBJECT
 10
5343.2197217336861
 20
-3458.9999999999968
 30
0.0
 11
5325.0
 21
-3458.9999999999968
 31
0.0
1001
ACDBBLOCKREPETAG
1070
     1
1071
       30
1005
1251BF
  0
TEXT
  5
12CC49
  8
SLIM
 10
-0.0000000000000011
 20
282.5
 30
0.0
 40
35.0
  1
※ 100枝（4）がある場合、品名の最後に【管底】が付きます。
 41
0.9
 11
0.0
 21
300.0
 31
0.0
 73
     2
  0
TEXT
  5
130736
  8
SLIM
 10
48.857142857142861
 20
-444.0
 30
0.0
 40
48.0
  1
Z16-P140
 41
0.75
 72
     4
 11
180.0
 21
-420.0
 31
0.0
  0
TEXT
  5
130737
  8
SLIM
 10
405.42857142857139
 20
-444.0
 30
0.0
 40
48.0
  1
Z26-P140
 41
0.75
 72
     4
 11
540.0
 21
-420.0
 31
0.0
  0
TEXT
  5
130738
  8
SLIM
 10
45.428571428571388
 20
-908.0
 30
0.0
 40
48.0
  1
Z36-P140
 41
0.75
 72
     4
 11
180.0
 21
-884.0
 31
0.0
  0
TEXT
  5
130739
  8
SLIM
 10
405.42857142857139
 20
-908.0
 30
0.0
 40
48.0
  1
Z46-P140
 41
0.75
 72
     4
 11
540.0
 21
-884.0
 31
0.0
  0
LINE
  5
132431
  8
CENTER
 10
4577.0
 20
-695.94605089973322
 30
0.0
 11
4423.0
 21
-695.94605089973322
 31
0.0
1001
ACDBBLOCKREPETAG
1070
     1
1071
       17
1005
132431
  0
CIRCLE
  5
132432
  8
OBJECT
 10
4500.0
 20
-695.94605089973322
 30
0.0
 40
41.5
1001
ACDBBLOCKREPETAG
1070
     1
1071
       19
1005
132432
  0
CIRCLE
  5
132433
  8
OBJECT
 10
4500.0
 20
-695.94605089973322
 30
0.0
 40
54.0
1001
ACDBBLOCKREPETAG
1070
     1
1071
       20
1005
132433
  0
ARC
  5
132434
  8
OBJECT
 10
4500.0
 20
-695.94605089973322
 30
0.0
 40
62.0
 50
287.89655112920718
 51
252.10344887079279
1001
ACDBBLOCKREPETAG
1070
     1
1071
       21
1005
132434
  0
LINE
  5
132435
  8
OBJECT
 10
4480.9474411167421
 20
-754.94605089973311
 30
0.0
 11
4519.052558883257
 21
-754.94605089973311
 31
0.0
1001
ACDBBLOCKREPETAG
1070
     1
1071
       22
1005
132435
  0
LINE
  5
132436
  8
CENTER
 10
2577.0
 20
-695.94605089973322
 30
0.0
 11
2423.0
 21
-695.94605089973322
 31
0.0
1001
ACDBBLOCKREPETAG
1070
     1
1071
       17
1005
132436
  0
CIRCLE
  5
132437
  8
OBJECT
 10
2500.0
 20
-695.94605089973322
 30
0.0
 40
41.5
1001
ACDBBLOCKREPETAG
1070
     1
1071
       19
1005
132437
  0
CIRCLE
  5
132438
  8
OBJECT
 10
2500.0
 20
-695.94605089973322
 30
0.0
 40
54.0
1001
ACDBBLOCKREPETAG
1070
     1
1071
       20
1005
132438
  0
ARC
  5
132439
  8
OBJECT
 10
2500.0
 20
-695.94605089973322
 30
0.0
 40
62.0
 50
287.89655112920718
 51
252.10344887079279
1001
ACDBBLOCKREPETAG
1070
     1
1071
       21
1005
132439
  0
LINE
  5
13243A
  8
OBJECT
 10
2480.947441116743
 20
-754.94605089973311
 30
0.0
 11
2519.052558883257
 21
-754.94605089973311
 31
0.0
1001
ACDBBLOCKREPETAG
1070
     1
1071
       22
1005
13243A
  0
LINE
  5
13243B
  8
SLIM
 10
4414.9999999999927
 20
-765.19743878931376
 30
0.0
 11
4425.1974387893069
 21
-754.99999999999875
 31
0.0
1001
ACDBBLOCKREPETAG
1070
     1
1071
        0
1005
0
1001
ACAD
1010
0.0
1020
0.0
1030
0.0
  0
LINE
  5
13243C
  8
SLIM
 10
4414.9999999999927
 20
-783.15795103145035
 30
0.0
 11
4443.1579510314468
 21
-754.99999999999875
 31
0.0
1001
ACAD
1010
0.0
1020
0.0
1030
0.0
1001
ACDBBLOCKREPETAG
1070
     1
1071
       14
1005
13243C
  0
LINE
  5
13243D
  8
SLIM
 10
4415.1454972543161
 20
-800.97296601926837
 30
0.0
 11
4461.118463273584
 21
-754.99999999999875
 31
0.0
1001
ACAD
1010
0.0
1020
0.0
1030
0.0
1001
ACDBBLOCKREPETAG
1070
     1
1071
       15
1005
13243D
  0
LINE
  5
13243E
  8
SLIM
 10
4417.1046274952441
 20
-816.97434802047826
 30
0.0
 11
4479.0789755157211
 21
-754.99999999999875
 31
0.0
1001
ACAD
1010
0.0
1020
0.0
1030
0.0
1001
ACDBBLOCKREPETAG
1070
     1
1071
       16
1005
13243E
  0
LINE
  5
13243F
  8
SLIM
 10
4419.0637577361713
 20
-832.97573002168861
 30
0.0
 11
4497.039487757861
 21
-754.99999999999875
 31
0.0
1001
ACAD
1010
0.0
1020
0.0
1030
0.0
1001
ACDBBLOCKREPETAG
1070
     1
1071
       17
1005
13243F
  0
LINE
  5
132440
  8
SLIM
 10
4420.0
 20
-849.99999999999875
 30
0.0
 11
4515.0
 21
-754.99999999999875
 31
0.0
1001
ACAD
1010
0.0
1020
0.0
1030
0.0
1001
ACDBBLOCKREPETAG
1070
     1
1071
       18
1005
132440
  0
LINE
  5
132441
  8
SLIM
 10
4420.0
 20
-867.96051224213716
 30
0.0
 11
4532.9605122421381
 21
-754.99999999999875
 31
0.0
1001
ACAD
1010
0.0
1020
0.0
1030
0.0
1001
ACDBBLOCKREPETAG
1070
     1
1071
       19
1005
132441
  0
LINE
  5
132442
  8
SLIM
 10
4420.0
 20
-885.92102448427534
 30
0.0
 11
4550.921024484277
 21
-754.99999999999875
 31
0.0
1001
ACAD
1010
0.0
1020
0.0
1030
0.0
1001
ACDBBLOCKREPETAG
1070
     1
1071
       20
1005
132442
  0
LINE
  5
132443
  8
SLIM
 10
4420.0
 20
-903.88153672641363
 30
0.0
 11
4568.8815367264151
 21
-754.99999999999875
 31
0.0
1001
ACAD
1010
0.0
1020
0.0
1030
0.0
1001
ACDBBLOCKREPETAG
1070
     1
1071
       21
1005
132443
  0
LINE
  5
132444
  8
SLIM
 10
4420.0
 20
-921.84204896855181
 30
0.0
 11
4585.0000000000073
 21
-756.8420489685451
 31
0.0
1001
ACAD
1010
0.0
1020
0.0
1030
0.0
1001
ACDBBLOCKREPETAG
1070
     1
1071
       22
1005
132444
  0
LINE
  5
132445
  8
SLIM
 10
4420.0
 20
-939.80256121069044
 30
0.0
 11
4585.0000000000073
 21
-774.80256121068464
 31
0.0
1001
ACAD
1010
0.0
1020
0.0
1030
0.0
1001
ACDBBLOCKREPETAG
1070
     1
1071
       23
1005
132445
  0
LINE
  5
132446
  8
SLIM
 10
4420.0
 20
-957.76307345282862
 30
0.0
 11
4585.0000000000036
 21
-792.76307345282453
 31
0.0
1001
ACAD
1010
0.0
1020
0.0
1030
0.0
1001
ACDBBLOCKREPETAG
1070
     1
1071
       24
1005
132446
  0
LINE
  5
132447
  8
SLIM
 10
4430.0
 20
-965.72358569496657
 30
0.0
 11
4430.7235856949683
 21
-964.99999999999875
 31
0.0
1001
ACAD
1010
0.0
1020
0.0
1030
0.0
1001
ACDBBLOCKREPETAG
1070
     1
1071
       25
1005
132447
  0
LINE
  5
132448
  8
SLIM
 10
4430.7235856949683
 20
-964.99999999999875
 30
0.0
 11
4583.4738280308084
 21
-812.24975766415855
 31
0.0
1001
ACAD
1010
0.0
1020
0.0
1030
0.0
1001
ACDBBLOCKREPETAG
1070
     1
1071
       26
1005
132448
  0
LINE
  5
132449
  8
SLIM
 10
4430.0
 20
-983.68409793710521
 30
0.0
 11
4448.6840979371054
 21
-964.99999999999875
 31
0.0
1001
ACAD
1010
0.0
1020
0.0
1030
0.0
1001
ACDBBLOCKREPETAG
1070
     1
1071
       27
1005
132449
  0
LINE
  5
13244A
  8
SLIM
 10
4448.6840979371054
 20
-964.99999999999875
 30
0.0
 11
4580.9680345671368
 21
-832.71606336996786
 31
0.0
1001
ACAD
1010
0.0
1020
0.0
1030
0.0
1001
ACDBBLOCKREPETAG
1070
     1
1071
       28
1005
13244A
  0
LINE
  5
13244B
  8
SLIM
 10
4446.6446101792453
 20
-984.99999999999875
 30
0.0
 11
4466.6446101792453
 21
-964.99999999999875
 31
0.0
1001
ACAD
1010
0.0
1020
0.0
1030
0.0
1001
ACDBBLOCKREPETAG
1070
     1
1071
       29
1005
13244B
  0
LINE
  5
13244C
  8
SLIM
 10
4466.6446101792453
 20
-964.99999999999875
 30
0.0
 11
4580.0
 21
-851.6446101792435
 31
0.0
1001
ACAD
1010
0.0
1020
0.0
1030
0.0
1001
ACDBBLOCKREPETAG
1070
     1
1071
       30
1005
13244C
  0
LINE
  5
13244D
  8
SLIM
 10
4464.6051224213843
 20
-984.99999999999875
 30
0.0
 11
4484.6051224213843
 21
-964.99999999999875
 31
0.0
1001
ACAD
1010
0.0
1020
0.0
1030
0.0
1001
ACDBBLOCKREPETAG
1070
     1
1071
       31
1005
13244D
  0
LINE
  5
13244E
  8
SLIM
 10
4484.6051224213843
 20
-964.99999999999875
 30
0.0
 11
4580.0
 21
-869.60512242138225
 31
0.0
1001
ACAD
1010
0.0
1020
0.0
1030
0.0
1001
ACDBBLOCKREPETAG
1070
     1
1071
       32
1005
13244E
  0
LINE
  5
13244F
  8
SLIM
 10
4482.5656346635215
 20
-984.99999999999875
 30
0.0
 11
4502.5656346635215
 21
-964.99999999999875
 31
0.0
1001
ACAD
1010
0.0
1020
0.0
1030
0.0
1001
ACDBBLOCKREPETAG
1070
     1
1071
       33
1005
13244F
  0
LINE
  5
132450
  8
SLIM
 10
4502.5656346635215
 20
-964.99999999999875
 30
0.0
 11
4579.9999999999991
 21
-887.56563466352065
 31
0.0
1001
ACAD
1010
0.0
1020
0.0
1030
0.0
1001
ACDBBLOCKREPETAG
1070
     1
1071
       34
1005
132450
  0
LINE
  5
132451
  8
SLIM
 10
4500.5261469056577
 20
-984.99999999999875
 30
0.0
 11
4520.5261469056577
 21
-964.99999999999875
 31
0.0
1001
ACAD
1010
0.0
1020
0.0
1030
0.0
1001
ACDBBLOCKREPETAG
1070
     1
1071
       35
1005
132451
  0
LINE
  5
132452
  8
SLIM
 10
4520.5261469056577
 20
-964.99999999999875
 30
0.0
 11
4579.9999999999991
 21
-905.52614690565963
 31
0.0
1001
ACAD
1010
0.0
1020
0.0
1030
0.0
1001
ACDBBLOCKREPETAG
1070
     1
1071
       36
1005
132452
  0
LINE
  5
132453
  8
SLIM
 10
4518.4866591477967
 20
-984.99999999999875
 30
0.0
 11
4538.4866591478003
 21
-964.99999999999864
 31
0.0
1001
ACAD
1010
0.0
1020
0.0
1030
0.0
1001
ACDBBLOCKREPETAG
1070
     1
1071
       37
1005
132453
  0
LINE
  5
132454
  8
SLIM
 10
4538.4866591478003
 20
-964.99999999999864
 30
0.0
 11
4579.9999999999991
 21
-923.48665914779815
 31
0.0
1001
ACAD
1010
0.0
1020
0.0
1030
0.0
1001
ACDBBLOCKREPETAG
1070
     1
1071
       38
1005
132454
  0
LINE
  5
132455
  8
SLIM
 10
4536.4471713899347
 20
-984.99999999999875
 30
0.0
 11
4556.4471713899356
 21
-964.99999999999864
 31
0.0
1001
ACAD
1010
0.0
1020
0.0
1030
0.0
1001
ACDBBLOCKREPETAG
1070
     1
1071
       39
1005
132455
  0
LINE
  5
132456
  8
SLIM
 10
4556.4471713899356
 20
-964.99999999999864
 30
0.0
 11
4579.9999999999982
 21
-941.44717138993633
 31
0.0
1001
ACAD
1010
0.0
1020
0.0
1030
0.0
1001
ACDBBLOCKREPETAG
1070
     1
1071
       40
1005
132456
  0
LINE
  5
132457
  8
SLIM
 10
4554.4076836320728
 20
-984.99999999999875
 30
0.0
 11
4570.0
 21
-969.40768363207314
 31
0.0
1001
ACAD
1010
0.0
1020
0.0
1030
0.0
1001
ACDBBLOCKREPETAG
1070
     1
1071
       41
1005
132457
  0
LINE
  5
132458
  8
SLIM
 10
4574.4076836320728
 20
-964.99999999999864
 30
0.0
 11
4579.9999999999982
 21
-959.40768363207519
 31
0.0
1001
ACAD
1010
0.0
1020
0.0
1030
0.0
1001
ACDBBLOCKREPETAG
1070
     1
1071
       42
1005
132458
  0
LINE
  5
132459
  8
OBJECT
 10
4414.9999999999918
 20
-754.99999999999875
 30
0.0
 11
4414.9999999999973
 21
-799.78460339903359
 31
0.0
1001
ACDBBLOCKREPETAG
1070
     1
1071
        1
1005
132459
  0
LINE
  5
13245A
  8
OBJECT
 10
4585.0000000000073
 20
-754.99999999999875
 30
0.0
 11
4585.0000000000009
 21
-799.78460339904063
 31
0.0
1001
ACDBBLOCKREPETAG
1070
     1
1071
        2
1005
13245A
  0
LINE
  5
13245B
  8
OBJECT
 10
4585.0000000000073
 20
-754.99999999999875
 30
0.0
 11
4414.9999999999918
 21
-754.99999999999875
 31
0.0
1001
ACDBBLOCKREPETAG
1070
     1
1071
        3
1005
13245B
  0
LINE
  5
13245C
  8
OBJECT
 10
4579.9999999999982
 20
-964.99999999999864
 30
0.0
 11
4420.0
 21
-964.99999999999875
 31
0.0
1001
ACDBBLOCKREPETAG
1070
     1
1071
        4
1005
13245C
  0
LINE
  5
13245D
  8
OBJECT
 10
4414.9999999999973
 20
-799.78460339903415
 30
0.0
 11
4420.0
 21
-840.62257748298555
 31
0.0
1001
ACDBBLOCKREPETAG
1070
     1
1071
        6
1005
13245D
  0
LINE
  5
13245E
  8
OBJECT
 10
4420.0
 20
-840.62257748298555
 30
0.0
 11
4420.0
 21
-964.99999999999875
 31
0.0
1001
ACDBBLOCKREPETAG
1070
     1
1071
        7
1005
13245E
  0
LINE
  5
13245F
  8
OBJECT
 10
4585.0000000000009
 20
-799.78460339904063
 30
0.0
 11
4580.0
 21
-840.62257748298555
 31
0.0
1001
ACDBBLOCKREPETAG
1070
     1
1071
        8
1005
13245F
  0
LINE
  5
132460
  8
OBJECT
 10
4580.0
 20
-840.62257748298555
 30
0.0
 11
4579.9999999999982
 21
-964.99999999999864
 31
0.0
1001
ACDBBLOCKREPETAG
1070
     1
1071
        9
1005
132460
  0
LINE
  5
132461
  8
OBJECT
 10
4430.0
 20
-964.99999999999875
 30
0.0
 11
4430.0
 21
-984.99999999999875
 31
0.0
1001
ACDBBLOCKREPETAG
1070
     1
1071
       10
1005
132461
  0
LINE
  5
132462
  8
OBJECT
 10
4430.0
 20
-984.99999999999875
 30
0.0
 11
4570.0
 21
-984.99999999999875
 31
0.0
1001
ACDBBLOCKREPETAG
1070
     1
1071
       11
1005
132462
  0
LINE
  5
132463
  8
OBJECT
 10
4570.0
 20
-984.99999999999875
 30
0.0
 11
4570.0
 21
-964.99999999999864
 31
0.0
1001
ACDBBLOCKREPETAG
1070
     1
1071
       12
1005
132463
  0
LINE
  5
132464
  8
OBJECT
 10
4423.0
 20
-570.99999999999955
 30
0.0
 11
4423.0
 21
-549.99999999999955
 31
0.0
1001
ACDBBLOCKREPETAG
1070
     1
1071
       56
1005
132464
  0
LINE
  5
132465
  8
OBJECT
 10
4423.0
 20
-549.99999999999955
 30
0.0
 11
4577.0
 21
-549.99999999999955
 31
0.0
1001
ACDBBLOCKREPETAG
1070
     1
1071
       57
1005
132465
  0
LINE
  5
132466
  8
HIDDEN
 10
4443.0
 20
-619.99999999999955
 30
0.0
 11
4557.0
 21
-619.99999999999955
 31
0.0
1001
ACDBBLOCKREPETAG
1070
     1
1071
       58
1005
132466
  0
LINE
  5
132467
  8
OBJECT
 10
4577.0
 20
-549.99999999999955
 30
0.0
 11
4577.0
 21
-570.99999999999955
 31
0.0
1001
ACDBBLOCKREPETAG
1070
     1
1071
       59
1005
132467
  0
LINE
  5
132468
  8
OBJECT
 10
4577.0
 20
-570.99999999999955
 30
0.0
 11
4423.0
 21
-570.99999999999955
 31
0.0
1001
ACDBBLOCKREPETAG
1070
     1
1071
       60
1005
132468
  0
LINE
  5
132469
  8
CENTER
 10
4500.0
 20
-534.99999999999955
 30
0.0
 11
4500.0
 21
-769.99999999999955
 31
0.0
1001
ACDBBLOCKREPETAG
1070
     1
1071
       61
1005
132469
  0
LINE
  5
13246A
  8
OBJECT
 10
4428.0
 20
-570.99999999999955
 30
0.0
 11
4428.0
 21
-633.99999999999955
 31
0.0
1001
ACDBBLOCKREPETAG
1070
     1
1071
       62
1005
13246A
  0
LINE
  5
13246B
  8
OBJECT
 10
4572.0
 20
-633.99999999999955
 30
0.0
 11
4572.0
 21
-570.99999999999955
 31
0.0
1001
ACDBBLOCKREPETAG
1070
     1
1071
       63
1005
13246B
  0
LINE
  5
13246C
  8
OBJECT
 10
4420.0
 20
-757.99999999999955
 30
0.0
 11
4580.0
 21
-757.99999999999955
 31
0.0
1001
ACDBBLOCKREPETAG
1070
     1
1071
       64
1005
13246C
  0
LINE
  5
13246D
  8
OBJECT
 10
4574.9999999999973
 20
-633.99999999999955
 30
0.0
 11
4420.0
 21
-633.99999999999955
 31
0.0
1001
ACDBBLOCKREPETAG
1070
     1
1071
       65
1005
13246D
  0
LINE
  5
13246E
  8
OBJECT
 10
4420.0
 20
-757.99999999999955
 30
0.0
 11
4420.0
 21
-769.99999999999955
 31
0.0
1001
ACDBBLOCKREPETAG
1070
     1
1071
       66
1005
13246E
  0
LINE
  5
13246F
  8
OBJECT
 10
4420.0
 20
-769.99999999999955
 30
0.0
 11
4580.0
 21
-769.99999999999955
 31
0.0
1001
ACDBBLOCKREPETAG
1070
     1
1071
       67
1005
13246F
  0
LINE
  5
132470
  8
OBJECT
 10
4580.0
 20
-769.99999999999955
 30
0.0
 11
4580.0
 21
-757.99999999999955
 31
0.0
1001
ACDBBLOCKREPETAG
1070
     1
1071
       68
1005
132470
  0
ARC
  5
132471
  8
OBJECT
 10
4299.3127253283283
 20
-749.40809941010718
 30
0.0
 40
170.6350503965856
 50
30.08050418662782
 51
42.558655408456282
1001
ACDBBLOCKREPETAG
1070
     1
1071
       71
1005
132471
  0
ARC
  5
132472
  8
OBJECT
 10
4299.3127253283283
 20
-642.59190058989179
 30
0.0
 40
170.6350503965856
 50
317.44134459154373
 51
329.91949581337218
1001
ACDBBLOCKREPETAG
1070
     1
1071
       72
1005
132472
  0
LINE
  5
132473
  8
OBJECT
 10
4574.9999999999973
 20
-633.99999999999955
 30
0.0
 11
4575.0
 21
-757.99999999999955
 31
0.0
1001
ACDBBLOCKREPETAG
1070
     1
1071
       73
1005
132473
  0
POINT
  5
132474
  8
DOTS
 10
4500.0
 20
-754.99999999999955
 30
0.0
1001
ACDBBLOCKREPETAG
1070
     1
1071
      185
1005
132474
  0
LINE
  5
132475
  8
OBJECT
 10
2423.0
 20
-570.99999999999955
 30
0.0
 11
2423.0
 21
-549.99999999999955
 31
0.0
1001
ACDBBLOCKREPETAG
1070
     1
1071
       56
1005
132475
  0
LINE
  5
132476
  8
OBJECT
 10
2423.0
 20
-549.99999999999955
 30
0.0
 11
2577.0
 21
-549.99999999999955
 31
0.0
1001
ACDBBLOCKREPETAG
1070
     1
1071
       57
1005
132476
  0
LINE
  5
132477
  8
HIDDEN
 10
2443.0
 20
-619.99999999999955
 30
0.0
 11
2557.0
 21
-619.99999999999955
 31
0.0
1001
ACDBBLOCKREPETAG
1070
     1
1071
       58
1005
132477
  0
LINE
  5
132478
  8
OBJECT
 10
2577.0
 20
-549.99999999999955
 30
0.0
 11
2577.0
 21
-570.99999999999955
 31
0.0
1001
ACDBBLOCKREPETAG
1070
     1
1071
       59
1005
132478
  0
LINE
  5
132479
  8
OBJECT
 10
2577.0
 20
-570.99999999999955
 30
0.0
 11
2423.0
 21
-570.99999999999955
 31
0.0
1001
ACDBBLOCKREPETAG
1070
     1
1071
       60
1005
132479
  0
LINE
  5
13247A
  8
CENTER
 10
2500.0
 20
-534.99999999999955
 30
0.0
 11
2500.0
 21
-769.99999999999955
 31
0.0
1001
ACDBBLOCKREPETAG
1070
     1
1071
       61
1005
13247A
  0
LINE
  5
13247B
  8
OBJECT
 10
2428.0
 20
-570.99999999999955
 30
0.0
 11
2428.0
 21
-633.99999999999955
 31
0.0
1001
ACDBBLOCKREPETAG
1070
     1
1071
       62
1005
13247B
  0
LINE
  5
13247C
  8
OBJECT
 10
2572.0
 20
-633.99999999999955
 30
0.0
 11
2572.0
 21
-570.99999999999955
 31
0.0
1001
ACDBBLOCKREPETAG
1070
     1
1071
       63
1005
13247C
  0
LINE
  5
13247D
  8
OBJECT
 10
2420.0
 20
-757.99999999999955
 30
0.0
 11
2580.0
 21
-757.99999999999955
 31
0.0
1001
ACDBBLOCKREPETAG
1070
     1
1071
       64
1005
13247D
  0
LINE
  5
13247E
  8
OBJECT
 10
2574.9999999999968
 20
-633.99999999999955
 30
0.0
 11
2420.0
 21
-633.99999999999955
 31
0.0
1001
ACDBBLOCKREPETAG
1070
     1
1071
       65
1005
13247E
  0
LINE
  5
13247F
  8
OBJECT
 10
2420.0
 20
-757.99999999999955
 30
0.0
 11
2420.0
 21
-769.99999999999955
 31
0.0
1001
ACDBBLOCKREPETAG
1070
     1
1071
       66
1005
13247F
  0
LINE
  5
132480
  8
OBJECT
 10
2420.0
 20
-769.99999999999955
 30
0.0
 11
2580.0
 21
-769.99999999999955
 31
0.0
1001
ACDBBLOCKREPETAG
1070
     1
1071
       67
1005
132480
  0
LINE
  5
132481
  8
OBJECT
 10
2580.0
 20
-769.99999999999955
 30
0.0
 11
2580.0
 21
-757.99999999999955
 31
0.0
1001
ACDBBLOCKREPETAG
1070
     1
1071
       68
1005
132481
  0
ARC
  5
132482
  8
OBJECT
 10
2299.3127253283269
 20
-749.40809941010718
 30
0.0
 40
170.6350503965856
 50
30.08050418662782
 51
42.558655408456282
1001
ACDBBLOCKREPETAG
1070
     1
1071
       71
1005
132482
  0
ARC
  5
132483
  8
OBJECT
 10
2299.3127253283269
 20
-642.59190058989179
 30
0.0
 40
170.6350503965856
 50
317.44134459154373
 51
329.91949581337218
1001
ACDBBLOCKREPETAG
1070
     1
1071
       72
1005
132483
  0
LINE
  5
132484
  8
OBJECT
 10
2574.9999999999968
 20
-633.99999999999955
 30
0.0
 11
2575.0
 21
-757.99999999999955
 31
0.0
1001
ACDBBLOCKREPETAG
1070
     1
1071
       73
1005
132484
  0
POINT
  5
132485
  8
DOTS
 10
2500.0
 20
-754.99999999999955
 30
0.0
1001
ACDBBLOCKREPETAG
1070
     1
1071
      185
1005
132485
  0
LINE
  5
132486
  8
OBJECT
 10
4287.0000000000146
 20
-553.0
 30
0.0
 11
4280.0000000000136
 21
-553.0
 31
0.0
1001
ACDBBLOCKREPETAG
1070
     1
1071
      106
1005
132486
  0
LINE
  5
132487
  8
OBJECT
 10
4280.0000000000136
 20
-553.0
 30
0.0
 11
4280.0000000000136
 21
-677.0
 31
0.0
1001
ACDBBLOCKREPETAG
1070
     1
1071
      107
1005
132487
  0
LINE
  5
132488
  8
OBJECT
 10
4414.0000000000127
 20
-653.3502637757274
 30
0.0
 11
4414.0000000000127
 21
-755.00000000000102
 31
0.0
1001
ACDBBLOCKREPETAG
1070
     1
1071
      108
1005
132488
  0
LINE
  5
132489
  8
OBJECT
 10
4280.0000000000136
 20
-677.0
 30
0.0
 11
4287.0000000000146
 21
-677.0
 31
0.0
1001
ACDBBLOCKREPETAG
1070
     1
1071
      109
1005
132489
  0
LINE
  5
13248A
  8
OBJECT
 10
4287.0000000000146
 20
-677.0
 30
0.0
 11
4287.0000000000146
 21
-553.0
 31
0.0
1001
ACDBBLOCKREPETAG
1070
     1
1071
      110
1005
13248A
  0
LINE
  5
13248B
  8
CENTER
 10
4355.0000000000127
 20
-615.0000000000008
 30
0.0
 11
4265.0000000000127
 21
-615.0
 31
0.0
1001
ACDBBLOCKREPETAG
1070
     1
1071
      111
1005
13248B
  0
LINE
  5
13248C
  8
OBJECT
 10
4420.0000000000173
 20
-758.0
 30
0.0
 11
4417.0000000000136
 21
-758.0000000000008
 31
0.0
1001
ACDBBLOCKREPETAG
1070
     1
1071
      112
1005
13248C
  0
ARC
  5
13248D
  8
OBJECT
 10
4417.0000000000136
 20
-755.00000000000102
 30
0.0
 40
3.0
 50
180.0
 51
270.0
1001
ACDBBLOCKREPETAG
1070
     1
1071
      113
1005
13248D
  0
LINE
  5
13248E
  8
OBJECT
 10
4287.0000000000146
 20
-556.0
 30
0.0
 11
4323.0000000000127
 21
-556.0000000000008
 31
0.0
1001
ACDBBLOCKREPETAG
1070
     1
1071
      114
1005
13248E
  0
LINE
  5
13248F
  8
OBJECT
 10
4323.0000000000127
 20
-556.0000000000008
 30
0.0
 11
4323.0000000000127
 21
-653.15756805667843
 31
0.0
1001
ACDBBLOCKREPETAG
1070
     1
1071
      115
1005
13248F
  0
LINE
  5
132490
  8
OBJECT
 10
4327.0000000000146
 20
-560.5000000000008
 30
0.0
 11
4327.0000000000173
 21
-645.74491827928705
 31
0.0
1001
ACDBBLOCKREPETAG
1070
     1
1071
      116
1005
132490
  0
LINE
  5
132491
  8
OBJECT
 10
4327.0000000000146
 20
-560.5000000000008
 30
0.0
 11
4340.0000000000136
 21
-560.5000000000008
 31
0.0
1001
ACDBBLOCKREPETAG
1070
     1
1071
      117
1005
132491
  0
LINE
  5
132492
  8
OBJECT
 10
4331.3436831745312
 20
-674.0000000000008
 30
0.0
 11
4287.0000000000146
 21
-674.0
 31
0.0
1001
ACDBBLOCKREPETAG
1070
     1
1071
      118
1005
132492
  0
LINE
  5
132493
  8
OBJECT
 10
4323.0000000000127
 20
-556.0000000000008
 30
0.0
 11
4327.0000000000146
 21
-560.5000000000008
 31
0.0
1001
ACDBBLOCKREPETAG
1070
     1
1071
      119
1005
132493
  0
LINE
  5
132494
  8
OBJECT
 10
4340.0000000000136
 20
-560.5000000000008
 30
0.0
 11
4340.0000000000136
 21
-645.74491827928784
 31
0.0
1001
ACDBBLOCKREPETAG
1070
     1
1071
      120
1005
132494
  0
ARC
  5
132495
  8
OBJECT
 10
4408.0000000000136
 20
-637.27386365609345
 30
0.0
 40
85.0
 50
205.5991387218879
 51
231.40900676279119
1001
ACDBBLOCKREPETAG
1070
     1
1071
      121
1005
132495
  0
ARC
  5
132496
  8
OBJECT
 10
4337.2000000000162
 20
-655.00000000000068
 30
0.0
 40
85.0
 50
19.925932125430649
 51
88.112268108168848
1001
ACDBBLOCKREPETAG
1070
     1
1071
      122
1005
132496
  0
LINE
  5
132497
  8
OBJECT
 10
4414.0000000000127
 20
-750.81075719270905
 30
0.0
 11
4354.9806774563967
 21
-703.71143914629454
 31
0.0
1001
ACDBBLOCKREPETAG
1070
     1
1071
      123
1005
132497
  0
LINE
  5
132498
  8
OBJECT
 10
4327.0000000000173
 20
-645.74491827928705
 30
0.0
 11
4340.0000000000136
 21
-645.74491827928784
 31
0.0
1001
ACDBBLOCKREPETAG
1070
     1
1071
      124
1005
132498
  0
LINE
  5
132499
  8
OBJECT
 10
4323.0000000000127
 20
-653.15756805667843
 30
0.0
 11
4327.0000000000173
 21
-645.74491827928705
 31
0.0
1001
ACDBBLOCKREPETAG
1070
     1
1071
      125
1005
132499
  0
LINE
  5
13249A
  8
OBJECT
 10
4419.9999999999818
 20
-634.0
 30
0.0
 11
4417.1113878403767
 21
-626.03156729425325
 31
0.0
1001
ACDBBLOCKREPETAG
1070
     1
1071
      126
1005
13249A
  0
LINE
  5
13249B
  8
OBJECT
 10
4419.9999999999818
 20
-634.0
 30
0.0
 11
4414.0000000000127
 21
-653.3502637757274
 31
0.0
1001
ACDBBLOCKREPETAG
1070
     1
1071
      127
1005
13249B
  0
LINE
  5
13249C
  8
HIDDEN
 10
4332.0000000000136
 20
-570.5000000000008
 30
0.0
 11
4332.0000000000136
 21
-659.50000000000068
 31
0.0
1001
ACDBBLOCKREPETAG
1070
     1
1071
      129
1005
13249C
  0
LINE
  5
13249D
  8
OBJECT
 10
2287.000000000015
 20
-553.0
 30
0.0
 11
2280.000000000015
 21
-553.0
 31
0.0
1001
ACDBBLOCKREPETAG
1070
     1
1071
      106
1005
13249D
  0
LINE
  5
13249E
  8
OBJECT
 10
2280.000000000015
 20
-553.0
 30
0.0
 11
2280.000000000015
 21
-677.0
 31
0.0
1001
ACDBBLOCKREPETAG
1070
     1
1071
      107
1005
13249E
  0
LINE
  5
13249F
  8
OBJECT
 10
2414.000000000015
 20
-653.3502637757274
 30
0.0
 11
2414.000000000015
 21
-755.00000000000102
 31
0.0
1001
ACDBBLOCKREPETAG
1070
     1
1071
      108
1005
13249F
  0
LINE
  5
1324A0
  8
OBJECT
 10
2280.000000000015
 20
-677.0
 30
0.0
 11
2287.000000000015
 21
-677.0
 31
0.0
1001
ACDBBLOCKREPETAG
1070
     1
1071
      109
1005
1324A0
  0
LINE
  5
1324A1
  8
OBJECT
 10
2287.000000000015
 20
-677.0
 30
0.0
 11
2287.000000000015
 21
-553.0
 31
0.0
1001
ACDBBLOCKREPETAG
1070
     1
1071
      110
1005
1324A1
  0
LINE
  5
1324A2
  8
CENTER
 10
2355.000000000015
 20
-615.0000000000008
 30
0.0
 11
2265.0000000000141
 21
-615.0
 31
0.0
1001
ACDBBLOCKREPETAG
1070
     1
1071
      111
1005
1324A2
  0
LINE
  5
1324A3
  8
OBJECT
 10
2420.0000000000191
 20
-758.0
 30
0.0
 11
2417.000000000015
 21
-758.0000000000008
 31
0.0
1001
ACDBBLOCKREPETAG
1070
     1
1071
      112
1005
1324A3
  0
ARC
  5
1324A4
  8
OBJECT
 10
2417.000000000015
 20
-755.00000000000102
 30
0.0
 40
3.0
 50
180.0
 51
270.0
1001
ACDBBLOCKREPETAG
1070
     1
1071
      113
1005
1324A4
  0
LINE
  5
1324A5
  8
OBJECT
 10
2287.000000000015
 20
-556.0
 30
0.0
 11
2323.000000000015
 21
-556.0000000000008
 31
0.0
1001
ACDBBLOCKREPETAG
1070
     1
1071
      114
1005
1324A5
  0
LINE
  5
1324A6
  8
OBJECT
 10
2323.000000000015
 20
-556.0000000000008
 30
0.0
 11
2323.000000000015
 21
-653.15756805667843
 31
0.0
1001
ACDBBLOCKREPETAG
1070
     1
1071
      115
1005
1324A6
  0
LINE
  5
1324A7
  8
OBJECT
 10
2327.000000000015
 20
-560.5000000000008
 30
0.0
 11
2327.0000000000191
 21
-645.74491827928705
 31
0.0
1001
ACDBBLOCKREPETAG
1070
     1
1071
      116
1005
1324A7
  0
LINE
  5
1324A8
  8
OBJECT
 10
2327.000000000015
 20
-560.5000000000008
 30
0.0
 11
2340.0000000000141
 21
-560.5000000000008
 31
0.0
1001
ACDBBLOCKREPETAG
1070
     1
1071
      117
1005
1324A8
  0
LINE
  5
1324A9
  8
OBJECT
 10
2331.3436831745312
 20
-674.0000000000008
 30
0.0
 11
2287.000000000015
 21
-674.0
 31
0.0
1001
ACDBBLOCKREPETAG
1070
     1
1071
      118
1005
1324A9
  0
LINE
  5
1324AA
  8
OBJECT
 10
2323.000000000015
 20
-556.0000000000008
 30
0.0
 11
2327.000000000015
 21
-560.5000000000008
 31
0.0
1001
ACDBBLOCKREPETAG
1070
     1
1071
      119
1005
1324AA
  0
LINE
  5
1324AB
  8
OBJECT
 10
2340.0000000000141
 20
-560.5000000000008
 30
0.0
 11
2340.0000000000141
 21
-645.74491827928784
 31
0.0
1001
ACDBBLOCKREPETAG
1070
     1
1071
      120
1005
1324AB
  0
ARC
  5
1324AC
  8
OBJECT
 10
2408.000000000015
 20
-637.27386365609345
 30
0.0
 40
85.0
 50
205.59913872187661
 51
231.40900676279119
1001
ACDBBLOCKREPETAG
1070
     1
1071
      121
1005
1324AC
  0
ARC
  5
1324AD
  8
OBJECT
 10
2337.2000000000148
 20
-655.00000000000068
 30
0.0
 40
85.0
 50
19.925932125430649
 51
88.112268108168848
1001
ACDBBLOCKREPETAG
1070
     1
1071
      122
1005
1324AD
  0
LINE
  5
1324AE
  8
OBJECT
 10
2414.000000000015
 20
-750.81075719270905
 30
0.0
 11
2354.980677456399
 21
-703.71143914629454
 31
0.0
1001
ACDBBLOCKREPETAG
1070
     1
1071
      123
1005
1324AE
  0
LINE
  5
1324AF
  8
OBJECT
 10
2327.0000000000191
 20
-645.74491827928705
 30
0.0
 11
2340.0000000000141
 21
-645.74491827928784
 31
0.0
1001
ACDBBLOCKREPETAG
1070
     1
1071
      124
1005
1324AF
  0
LINE
  5
1324B0
  8
OBJECT
 10
2323.000000000015
 20
-653.15756805667843
 30
0.0
 11
2327.0000000000191
 21
-645.74491827928705
 31
0.0
1001
ACDBBLOCKREPETAG
1070
     1
1071
      125
1005
1324B0
  0
LINE
  5
1324B1
  8
OBJECT
 10
2419.9999999999818
 20
-634.0
 30
0.0
 11
2417.111387840378
 21
-626.03156729425325
 31
0.0
1001
ACDBBLOCKREPETAG
1070
     1
1071
      126
1005
1324B1
  0
LINE
  5
1324B2
  8
OBJECT
 10
2419.9999999999818
 20
-634.0
 30
0.0
 11
2414.000000000015
 21
-653.3502637757274
 31
0.0
1001
ACDBBLOCKREPETAG
1070
     1
1071
      127
1005
1324B2
  0
LINE
  5
1324B3
  8
HIDDEN
 10
2332.0000000000141
 20
-570.5000000000008
 30
0.0
 11
2332.0000000000141
 21
-659.50000000000068
 31
0.0
1001
ACDBBLOCKREPETAG
1070
     1
1071
      129
1005
1324B3
  0
LINE
  5
1324B4
  8
OBJECT
 10
4430.0
 20
-1079.999999999997
 30
0.0
 11
4570.0
 21
-1079.999999999997
 31
0.0
1001
ACDBBLOCKREPETAG
1070
     1
1071
        0
1005
1324B4
  0
LINE
  5
1324B5
  8
OBJECT
 10
4430.0
 20
-1079.999999999997
 30
0.0
 11
4430.0
 21
-839.99999999999704
 31
0.0
1001
ACDBBLOCKREPETAG
1070
     1
1071
        1
1005
1324B5
  0
LINE
  5
1324B6
  8
OBJECT
 10
4570.0
 20
-1079.999999999997
 30
0.0
 11
4570.0
 21
-839.99999999999704
 31
0.0
1001
ACDBBLOCKREPETAG
1070
     1
1071
        2
1005
1324B6
  0
LINE
  5
1324B7
  8
OBJECT
 10
4430.0
 20
-839.99999999999704
 30
0.0
 11
4570.0
 21
-839.99999999999704
 31
0.0
1001
ACDBBLOCKREPETAG
1070
     1
1071
        3
1005
1324B7
  0
LINE
  5
1324B8
  8
HIDDEN
 10
4437.5
 20
-839.99999999999704
 30
0.0
 11
4437.5
 21
-1079.999999999997
 31
0.0
1001
ACDBBLOCKREPETAG
1070
     1
1071
        4
1005
1324B8
  0
LINE
  5
1324B9
  8
HIDDEN
 10
4562.5
 20
-839.99999999999704
 30
0.0
 11
4562.5
 21
-1079.999999999997
 31
0.0
1001
ACDBBLOCKREPETAG
1070
     1
1071
        5
1005
1324B9
  0
LINE
  5
1324BA
  8
CENTER
 10
4500.0
 20
-769.99999999999875
 30
0.0
 11
4500.0
 21
-1094.999999999997
 31
0.0
1001
ACDBBLOCKREPETAG
1070
     1
1071
        6
1005
1324BA
  0
LINE
  5
1324BB
  8
OBJECT
 10
4425.0
 20
-769.99999999999875
 30
0.0
 11
4425.0
 21
-799.99999999999693
 31
0.0
1001
ACDBBLOCKREPETAG
1070
     1
1071
        7
1005
1324BB
  0
LINE
  5
1324BC
  8
OBJECT
 10
4575.0000000000009
 20
-769.99999999999875
 30
0.0
 11
4575.0
 21
-799.99999999999693
 31
0.0
1001
ACDBBLOCKREPETAG
1070
     1
1071
        8
1005
1324BC
  0
LINE
  5
1324BD
  8
OBJECT
 10
4425.0
 20
-799.99999999999693
 30
0.0
 11
4575.0
 21
-799.99999999999693
 31
0.0
1001
ACDBBLOCKREPETAG
1070
     1
1071
        9
1005
1324BD
  0
LINE
  5
1324BE
  8
OBJECT
 10
4425.0
 20
-799.99999999999693
 30
0.0
 11
4430.0
 21
-839.99999999999704
 31
0.0
1001
ACDBBLOCKREPETAG
1070
     1
1071
       10
1005
1324BE
  0
LINE
  5
1324BF
  8
OBJECT
 10
4570.0
 20
-839.99999999999704
 30
0.0
 11
4575.0
 21
-799.99999999999693
 31
0.0
1001
ACDBBLOCKREPETAG
1070
     1
1071
       11
1005
1324BF
  0
LINE
  5
1324C0
  8
OBJECT
 10
2430.0
 20
-1079.999999999998
 30
0.0
 11
2570.0
 21
-1079.999999999998
 31
0.0
1001
ACDBBLOCKREPETAG
1070
     1
1071
        0
1005
1324C0
  0
LINE
  5
1324C1
  8
OBJECT
 10
2430.0
 20
-1079.999999999998
 30
0.0
 11
2430.0
 21
-839.99999999999795
 31
0.0
1001
ACDBBLOCKREPETAG
1070
     1
1071
        1
1005
1324C1
  0
LINE
  5
1324C2
  8
OBJECT
 10
2570.0
 20
-1079.999999999998
 30
0.0
 11
2570.0
 21
-839.99999999999795
 31
0.0
1001
ACDBBLOCKREPETAG
1070
     1
1071
        2
1005
1324C2
  0
LINE
  5
1324C3
  8
OBJECT
 10
2430.0
 20
-839.99999999999795
 30
0.0
 11
2570.0
 21
-839.99999999999795
 31
0.0
1001
ACDBBLOCKREPETAG
1070
     1
1071
        3
1005
1324C3
  0
LINE
  5
1324C4
  8
HIDDEN
 10
2437.5
 20
-839.99999999999795
 30
0.0
 11
2437.5
 21
-1079.999999999998
 31
0.0
1001
ACDBBLOCKREPETAG
1070
     1
1071
        4
1005
1324C4
  0
LINE
  5
1324C5
  8
HIDDEN
 10
2562.5
 20
-839.99999999999795
 30
0.0
 11
2562.5
 21
-1079.999999999998
 31
0.0
1001
ACDBBLOCKREPETAG
1070
     1
1071
        5
1005
1324C5
  0
LINE
  5
1324C6
  8
CENTER
 10
2500.0
 20
-769.99999999999955
 30
0.0
 11
2500.0
 21
-1094.999999999997
 31
0.0
1001
ACDBBLOCKREPETAG
1070
     1
1071
        6
1005
1324C6
  0
LINE
  5
1324C7
  8
OBJECT
 10
2425.0
 20
-769.99999999999955
 30
0.0
 11
2425.0
 21
-799.99999999999773
 31
0.0
1001
ACDBBLOCKREPETAG
1070
     1
1071
        7
1005
1324C7
  0
LINE
  5
1324C8
  8
OBJECT
 10
2575.000000000005
 20
-769.99999999999955
 30
0.0
 11
2575.0
 21
-799.99999999999773
 31
0.0
1001
ACDBBLOCKREPETAG
1070
     1
1071
        8
1005
1324C8
  0
LINE
  5
1324C9
  8
OBJECT
 10
2425.0
 20
-799.99999999999773
 30
0.0
 11
2575.0
 21
-799.99999999999773
 31
0.0
1001
ACDBBLOCKREPETAG
1070
     1
1071
        9
1005
1324C9
  0
LINE
  5
1324CA
  8
OBJECT
 10
2425.0
 20
-799.99999999999773
 30
0.0
 11
2430.0
 21
-839.99999999999795
 31
0.0
1001
ACDBBLOCKREPETAG
1070
     1
1071
       10
1005
1324CA
  0
LINE
  5
1324CB
  8
OBJECT
 10
2570.0
 20
-839.99999999999795
 30
0.0
 11
2575.0
 21
-799.99999999999773
 31
0.0
1001
ACDBBLOCKREPETAG
1070
     1
1071
       11
1005
1324CB
  0
CIRCLE
  5
1324CC
  8
OBJECT
 10
471.0
 20
-684.0
 30
0.0
 40
70.0
1001
ACDBBLOCKREPETAG
1070
     1
1071
       43
1005
1324CC
  0
CIRCLE
  5
1324CD
  8
OBJECT
 10
471.0
 20
-684.0
 30
0.0
 40
77.0
1001
ACDBBLOCKREPETAG
1070
     1
1071
       44
1005
1324CD
  0
ARC
  5
1324CE
  8
OBJECT
 10
471.0
 20
-684.0
 30
0.0
 40
80.0
 50
140.8050325737787
 51
219.19496742621919
1001
ACDBBLOCKREPETAG
1070
     1
1071
       45
1005
1324CE
  0
LINE
  5
1324CF
  8
OBJECT
 10
409.0
 20
-638.33819977267558
 30
0.0
 11
409.0
 21
-604.0
 31
0.0
1001
ACDBBLOCKREPETAG
1070
     1
1071
       46
1005
1324CF
  0
LINE
  5
1324D0
  8
OBJECT
 10
533.0
 20
-622.0
 30
0.0
 11
533.0
 21
-604.0
 31
0.0
1001
ACDBBLOCKREPETAG
1070
     1
1071
       22
1005
1324D0
  0
LINE
  5
1324D1
  8
OBJECT
 10
533.0
 20
-622.0
 30
0.0
 11
551.0
 21
-622.0
 31
0.0
1001
ACDBBLOCKREPETAG
1070
     1
1071
       24
1005
1324D1
  0
LINE
  5
1324D2
  8
OBJECT
 10
533.0
 20
-746.0
 30
0.0
 11
551.0
 21
-746.0
 31
0.0
1001
ACDBBLOCKREPETAG
1070
     1
1071
       25
1005
1324D2
  0
LINE
  5
1324D3
  8
OBJECT
 10
533.0
 20
-746.0
 30
0.0
 11
533.0
 21
-764.0
 31
0.0
1001
ACDBBLOCKREPETAG
1070
     1
1071
       27
1005
1324D3
  0
LINE
  5
1324D4
  8
OBJECT
 10
409.0
 20
-729.66180022732453
 30
0.0
 11
409.0
 21
-764.0
 31
0.0
1001
ACDBBLOCKREPETAG
1070
     1
1071
       28
1005
1324D4
  0
LINE
  5
1324D5
  8
OBJECT
 10
525.44722215136414
 20
-738.44722215136414
 30
0.0
 11
533.0
 21
-746.0
 31
0.0
1001
ACDBBLOCKREPETAG
1070
     1
1071
       37
1005
1324D5
  0
LINE
  5
1324D6
  8
OBJECT
 10
525.44722215136414
 20
-629.55277784863563
 30
0.0
 11
533.0
 21
-622.0
 31
0.0
1001
ACDBBLOCKREPETAG
1070
     1
1071
       38
1005
1324D6
  0
POINT
  5
1324D7
  8
DOTS
 10
471.0
 20
-684.0
 30
0.0
1001
ACDBBLOCKREPETAG
1070
     1
1071
       39
1005
1324D7
  0
CIRCLE
  5
1324D8
  8
OBJECT
 10
471.0
 20
-684.0
 30
0.0
 40
53.5
1001
ACDBBLOCKREPETAG
1070
     1
1071
      153
1005
1324D8
  0
LINE
  5
1324D9
  8
OBJECT
 10
409.0
 20
-767.0
 30
0.0
 11
409.0
 21
-764.0
 31
0.0
1001
ACDBBLOCKREPETAG
1070
     1
1071
      418
1005
1324D9
  0
ARC
  5
1324DA
  8
OBJECT
 10
412.0
 20
-767.0
 30
0.0
 40
3.0
 50
180.0
 51
270.0
1001
ACDBBLOCKREPETAG
1070
     1
1071
      419
1005
1324DA
  0
LINE
  5
1324DB
  8
OBJECT
 10
533.0
 20
-764.0
 30
0.0
 11
533.0
 21
-767.0
 31
0.0
1001
ACDBBLOCKREPETAG
1070
     1
1071
      420
1005
1324DB
  0
ARC
  5
1324DC
  8
OBJECT
 10
530.0
 20
-767.0
 30
0.0
 40
3.0
 50
270.0
 51
0.0
1001
ACDBBLOCKREPETAG
1070
     1
1071
      421
1005
1324DC
  0
LINE
  5
1324DD
  8
OBJECT
 10
530.0
 20
-770.0
 30
0.0
 11
412.0
 21
-770.0
 31
0.0
1001
ACDBBLOCKREPETAG
1070
     1
1071
      422
1005
1324DD
  0
LINE
  5
1324DE
  8
OBJECT
 10
683.99999999998226
 20
-622.0
 30
0.0
 11
690.99999999998215
 21
-622.0
 31
0.0
1001
ACDBBLOCKREPETAG
1070
     1
1071
       98
1005
1324DE
  0
LINE
  5
1324DF
  8
OBJECT
 10
690.99999999998215
 20
-622.0
 30
0.0
 11
690.99999999998215
 21
-746.0
 31
0.0
1001
ACDBBLOCKREPETAG
1070
     1
1071
       99
1005
1324DF
  0
LINE
  5
1324E0
  8
OBJECT
 10
690.99999999998215
 20
-746.0
 30
0.0
 11
683.99999999998226
 21
-746.0
 31
0.0
1001
ACDBBLOCKREPETAG
1070
     1
1071
      100
1005
1324E0
  0
LINE
  5
1324E1
  8
OBJECT
 10
683.99999999998226
 20
-746.0
 30
0.0
 11
683.99999999998226
 21
-622.0
 31
0.0
1001
ACDBBLOCKREPETAG
1070
     1
1071
      101
1005
1324E1
  0
LINE
  5
1324E2
  8
OBJECT
 10
630.99997496418348
 20
-729.00000000000352
 30
0.0
 11
556.99999999999682
 21
-729.0
 31
0.0
1001
ACDBBLOCKREPETAG
1070
     1
1071
      102
1005
1324E2
  0
LINE
  5
1324E3
  8
OBJECT
 10
630.99997496418348
 20
-639.0
 30
0.0
 11
556.99999999999682
 21
-639.0
 31
0.0
1001
ACDBBLOCKREPETAG
1070
     1
1071
      103
1005
1324E3
  0
LINE
  5
1324E4
  8
OBJECT
 10
683.99999999998226
 20
-625.0
 30
0.0
 11
647.99999999998226
 21
-625.0
 31
0.0
1001
ACDBBLOCKREPETAG
1070
     1
1071
      104
1005
1324E4
  0
LINE
  5
1324E5
  8
OBJECT
 10
647.99999999998226
 20
-625.0
 30
0.0
 11
647.99999999998226
 21
-743.0
 31
0.0
1001
ACDBBLOCKREPETAG
1070
     1
1071
      105
1005
1324E5
  0
LINE
  5
1324E6
  8
OBJECT
 10
647.99999999998226
 20
-743.0
 30
0.0
 11
683.99999999998226
 21
-743.0
 31
0.0
1001
ACDBBLOCKREPETAG
1070
     1
1071
      106
1005
1324E6
  0
LINE
  5
1324E7
  8
OBJECT
 10
643.99999999998226
 20
-629.49999999999989
 30
0.0
 11
630.99999999998226
 21
-629.49999999999989
 31
0.0
1001
ACDBBLOCKREPETAG
1070
     1
1071
      107
1005
1324E7
  0
LINE
  5
1324E8
  8
OBJECT
 10
630.99999999998226
 20
-738.49999999999989
 30
0.0
 11
643.99999999998226
 21
-738.49999999999989
 31
0.0
1001
ACDBBLOCKREPETAG
1070
     1
1071
      108
1005
1324E8
  0
LINE
  5
1324E9
  8
OBJECT
 10
643.99999999998226
 20
-738.49999999999989
 30
0.0
 11
643.99999999998226
 21
-629.49999999999989
 31
0.0
1001
ACDBBLOCKREPETAG
1070
     1
1071
      109
1005
1324E9
  0
LINE
  5
1324EA
  8
OBJECT
 10
647.99999999998226
 20
-625.0
 30
0.0
 11
643.99999999998226
 21
-629.49999999999989
 31
0.0
1001
ACDBBLOCKREPETAG
1070
     1
1071
      110
1005
1324EA
  0
LINE
  5
1324EB
  8
OBJECT
 10
647.99999999998226
 20
-743.0
 30
0.0
 11
643.99999999998226
 21
-738.49999999999989
 31
0.0
1001
ACDBBLOCKREPETAG
1070
     1
1071
      111
1005
1324EB
  0
LINE
  5
1324EC
  8
OBJECT
 10
553.99999999999682
 20
-622.0
 30
0.0
 11
550.99999999999682
 21
-622.0
 31
0.0
1001
ACDBBLOCKREPETAG
1070
     1
1071
      112
1005
1324EC
  0
ARC
  5
1324ED
  8
OBJECT
 10
553.99999999999682
 20
-625.0
 30
0.0
 40
3.0
 50
0.0
 51
90.0
1001
ACDBBLOCKREPETAG
1070
     1
1071
      113
1005
1324ED
  0
LINE
  5
1324EE
  8
OBJECT
 10
550.99999999999682
 20
-746.0
 30
0.0
 11
553.99999999999682
 21
-746.0
 31
0.0
1001
ACDBBLOCKREPETAG
1070
     1
1071
      114
1005
1324EE
  0
ARC
  5
1324EF
  8
OBJECT
 10
553.99999999999682
 20
-743.0
 30
0.0
 40
3.0
 50
270.0
 51
0.0
1001
ACDBBLOCKREPETAG
1070
     1
1071
      115
1005
1324EF
  0
LINE
  5
1324F0
  8
OBJECT
 10
556.99999999999682
 20
-743.0
 30
0.0
 11
556.99999999999682
 21
-706.44994432063686
 31
0.0
1001
ACDBBLOCKREPETAG
1070
     1
1071
      116
1005
1324F0
  0
LINE
  5
1324F1
  8
OBJECT
 10
556.99999999999682
 20
-661.5500556793595
 30
0.0
 11
556.99999999999682
 21
-625.0
 31
0.0
1001
ACDBBLOCKREPETAG
1070
     1
1071
      117
1005
1324F1
  0
LINE
  5
1324F2
  8
OBJECT
 10
630.99997496418348
 20
-738.4999509238113
 30
0.0
 11
630.99997496418348
 21
-629.49995092381118
 31
0.0
1001
ACDBBLOCKREPETAG
1070
     1
1071
      119
1005
1324F2
  0
ARC
  5
1324F3
  8
OBJECT
 10
596.00000000000057
 20
-684.0
 30
0.0
 40
45.000000000000547
 50
90.0
 51
270.0
1001
ACDBBLOCKREPETAG
1070
     1
1071
      120
1005
1324F3
  0
INSERT
  5
1324F4
  8
OBJECT
  2
*U3
 10
0.0
 20
0.0
 30
0.0
  0
LINE
  5
1324F5
  8
HIDDEN
 10
638.99999999998226
 20
-639.5
 30
0.0
 11
638.99999999998226
 21
-728.5
 31
0.0
1001
ACDBBLOCKREPETAG
1070
     1
1071
      432
1005
1324F5
  0
LINE
  5
1324F6
  8
OBJECT
 10
396.0
 20
-534.0
 30
0.0
 11
396.0
 21
-541.0
 31
0.0
1001
ACDBBLOCKREPETAG
1070
     1
1071
       57
1005
1324F6
  0
LINE
  5
1324F7
  8
OBJECT
 10
396.0
 20
-541.0
 30
0.0
 11
546.0
 21
-541.0
 31
0.0
1001
ACDBBLOCKREPETAG
1070
     1
1071
       58
1005
1324F7
  0
LINE
  5
1324F8
  8
OBJECT
 10
399.0
 20
-582.5
 30
0.0
 11
543.0
 21
-582.5
 31
0.0
1001
ACDBBLOCKREPETAG
1070
     1
1071
       59
1005
1324F8
  0
LINE
  5
1324F9
  8
OBJECT
 10
405.49999999999989
 20
-594.0
 30
0.0
 11
536.5
 21
-594.0
 31
0.0
1001
ACDBBLOCKREPETAG
1070
     1
1071
       60
1005
1324F9
  0
LINE
  5
1324FA
  8
OBJECT
 10
546.0
 20
-541.0
 30
0.0
 11
546.0
 21
-534.0
 31
0.0
1001
ACDBBLOCKREPETAG
1070
     1
1071
       61
1005
1324FA
  0
LINE
  5
1324FB
  8
OBJECT
 10
546.0
 20
-534.0
 30
0.0
 11
396.0
 21
-534.0
 31
0.0
1001
ACDBBLOCKREPETAG
1070
     1
1071
       62
1005
1324FB
  0
LINE
  5
1324FC
  8
OBJECT
 10
533.0
 20
-598.0
 30
0.0
 11
533.0
 21
-604.0
 31
0.0
1001
ACDBBLOCKREPETAG
1070
     1
1071
       63
1005
1324FC
  0
LINE
  5
1324FD
  8
OBJECT
 10
543.0
 20
-541.0
 30
0.0
 11
543.0
 21
-582.5
 31
0.0
1001
ACDBBLOCKREPETAG
1070
     1
1071
       64
1005
1324FD
  0
LINE
  5
1324FE
  8
OBJECT
 10
543.0
 20
-582.5
 30
0.0
 11
536.5
 21
-594.0
 31
0.0
1001
ACDBBLOCKREPETAG
1070
     1
1071
       65
1005
1324FE
  0
LINE
  5
1324FF
  8
OBJECT
 10
536.5
 20
-594.0
 30
0.0
 11
533.0
 21
-598.0
 31
0.0
1001
ACDBBLOCKREPETAG
1070
     1
1071
       66
1005
1324FF
  0
LINE
  5
132500
  8
OBJECT
 10
399.0
 20
-582.5
 30
0.0
 11
405.49999999999989
 21
-594.0
 31
0.0
1001
ACDBBLOCKREPETAG
1070
     1
1071
       67
1005
132500
  0
LINE
  5
132501
  8
OBJECT
 10
405.49999999999989
 20
-594.0
 30
0.0
 11
409.0
 21
-598.0
 31
0.0
1001
ACDBBLOCKREPETAG
1070
     1
1071
       68
1005
132501
  0
ARC
  5
132502
  8
OBJECT
 10
471.0
 20
-216.09999999999849
 30
0.0
 40
386.89999999999998
 50
260.77870136257951
 51
279.22129863742049
1001
ACDBBLOCKREPETAG
1070
     1
1071
       69
1005
132502
  0
LINE
  5
132503
  8
OBJECT
 10
409.0
 20
-598.0
 30
0.0
 11
409.0
 21
-604.0
 31
0.0
1001
ACDBBLOCKREPETAG
1070
     1
1071
       70
1005
132503
  0
LINE
  5
132504
  8
OBJECT
 10
399.0
 20
-541.0
 30
0.0
 11
399.0
 21
-582.5
 31
0.0
1001
ACDBBLOCKREPETAG
1070
     1
1071
       71
1005
132504
  0
INSERT
  5
132505
  8
OBJECT
  2
*U4
 10
0.0
 20
0.0
 30
0.0
  0
LINE
  5
132506
  8
HIDDEN
 10
528.0
 20
-586.0
 30
0.0
 11
414.0
 21
-586.0
 31
0.0
1001
ACDBBLOCKREPETAG
1070
     1
1071
      431
1005
132506
  0
CIRCLE
  5
132507
  8
OBJECT
 10
111.0
 20
-684.0
 30
0.0
 40
70.0
1001
ACDBBLOCKREPETAG
1070
     1
1071
       43
1005
132507
  0
CIRCLE
  5
132508
  8
OBJECT
 10
111.0
 20
-684.0
 30
0.0
 40
77.0
1001
ACDBBLOCKREPETAG
1070
     1
1071
       44
1005
132508
  0
ARC
  5
132509
  8
OBJECT
 10
111.0
 20
-684.0
 30
0.0
 40
80.0
 50
140.80503257377961
 51
219.1949674262203
1001
ACDBBLOCKREPETAG
1070
     1
1071
       45
1005
132509
  0
LINE
  5
13250A
  8
OBJECT
 10
49.0
 20
-638.33819977267558
 30
0.0
 11
49.0
 21
-604.0
 31
0.0
1001
ACDBBLOCKREPETAG
1070
     1
1071
       46
1005
13250A
  0
LINE
  5
13250B
  8
OBJECT
 10
173.0
 20
-622.0
 30
0.0
 11
173.0
 21
-604.0
 31
0.0
1001
ACDBBLOCKREPETAG
1070
     1
1071
       22
1005
13250B
  0
LINE
  5
13250C
  8
OBJECT
 10
173.0
 20
-622.0
 30
0.0
 11
191.0
 21
-622.0
 31
0.0
1001
ACDBBLOCKREPETAG
1070
     1
1071
       24
1005
13250C
  0
LINE
  5
13250D
  8
OBJECT
 10
173.0
 20
-746.0
 30
0.0
 11
191.0
 21
-746.0
 31
0.0
1001
ACDBBLOCKREPETAG
1070
     1
1071
       25
1005
13250D
  0
LINE
  5
13250E
  8
OBJECT
 10
173.0
 20
-746.0
 30
0.0
 11
173.0
 21
-764.0
 31
0.0
1001
ACDBBLOCKREPETAG
1070
     1
1071
       27
1005
13250E
  0
LINE
  5
13250F
  8
OBJECT
 10
49.0
 20
-729.66180022732453
 30
0.0
 11
49.0
 21
-764.0
 31
0.0
1001
ACDBBLOCKREPETAG
1070
     1
1071
       28
1005
13250F
  0
LINE
  5
132510
  8
OBJECT
 10
165.4472221513642
 20
-738.44722215136414
 30
0.0
 11
173.0
 21
-746.0
 31
0.0
1001
ACDBBLOCKREPETAG
1070
     1
1071
       37
1005
132510
  0
LINE
  5
132511
  8
OBJECT
 10
165.4472221513642
 20
-629.55277784863563
 30
0.0
 11
173.0
 21
-622.0
 31
0.0
1001
ACDBBLOCKREPETAG
1070
     1
1071
       38
1005
132511
  0
POINT
  5
132512
  8
DOTS
 10
111.0
 20
-684.0
 30
0.0
1001
ACDBBLOCKREPETAG
1070
     1
1071
       39
1005
132512
  0
CIRCLE
  5
132513
  8
OBJECT
 10
111.0
 20
-684.0
 30
0.0
 40
53.5
1001
ACDBBLOCKREPETAG
1070
     1
1071
      153
1005
132513
  0
LINE
  5
132514
  8
OBJECT
 10
49.0
 20
-767.0
 30
0.0
 11
49.0
 21
-764.0
 31
0.0
1001
ACDBBLOCKREPETAG
1070
     1
1071
      418
1005
132514
  0
ARC
  5
132515
  8
OBJECT
 10
52.0
 20
-767.0
 30
0.0
 40
3.0
 50
180.0
 51
270.0
1001
ACDBBLOCKREPETAG
1070
     1
1071
      419
1005
132515
  0
LINE
  5
132516
  8
OBJECT
 10
173.0
 20
-764.0
 30
0.0
 11
173.0
 21
-767.0
 31
0.0
1001
ACDBBLOCKREPETAG
1070
     1
1071
      420
1005
132516
  0
ARC
  5
132517
  8
OBJECT
 10
170.0
 20
-767.0
 30
0.0
 40
3.0
 50
270.0
 51
0.0
1001
ACDBBLOCKREPETAG
1070
     1
1071
      421
1005
132517
  0
LINE
  5
132518
  8
OBJECT
 10
170.0
 20
-770.0
 30
0.0
 11
52.0
 21
-770.0
 31
0.0
1001
ACDBBLOCKREPETAG
1070
     1
1071
      422
1005
132518
  0
LINE
  5
132519
  8
OBJECT
 10
323.99999999998238
 20
-622.0
 30
0.0
 11
330.99999999998238
 21
-622.0
 31
0.0
1001
ACDBBLOCKREPETAG
1070
     1
1071
       98
1005
132519
  0
LINE
  5
13251A
  8
OBJECT
 10
330.99999999998238
 20
-622.0
 30
0.0
 11
330.99999999998238
 21
-746.0
 31
0.0
1001
ACDBBLOCKREPETAG
1070
     1
1071
       99
1005
13251A
  0
LINE
  5
13251B
  8
OBJECT
 10
330.99999999998238
 20
-746.0
 30
0.0
 11
323.99999999998238
 21
-746.0
 31
0.0
1001
ACDBBLOCKREPETAG
1070
     1
1071
      100
1005
13251B
  0
LINE
  5
13251C
  8
OBJECT
 10
323.99999999998238
 20
-746.0
 30
0.0
 11
323.99999999998238
 21
-622.0
 31
0.0
1001
ACDBBLOCKREPETAG
1070
     1
1071
      101
1005
13251C
  0
LINE
  5
13251D
  8
OBJECT
 10
270.99997496418348
 20
-729.00000000000352
 30
0.0
 11
196.9999999999969
 21
-729.0
 31
0.0
1001
ACDBBLOCKREPETAG
1070
     1
1071
      102
1005
13251D
  0
LINE
  5
13251E
  8
OBJECT
 10
270.99997496418348
 20
-639.0
 30
0.0
 11
196.9999999999969
 21
-639.0
 31
0.0
1001
ACDBBLOCKREPETAG
1070
     1
1071
      103
1005
13251E
  0
LINE
  5
13251F
  8
OBJECT
 10
323.99999999998238
 20
-625.0
 30
0.0
 11
287.99999999998238
 21
-625.0
 31
0.0
1001
ACDBBLOCKREPETAG
1070
     1
1071
      104
1005
13251F
  0
LINE
  5
132520
  8
OBJECT
 10
287.99999999998238
 20
-625.0
 30
0.0
 11
287.99999999998238
 21
-743.0
 31
0.0
1001
ACDBBLOCKREPETAG
1070
     1
1071
      105
1005
132520
  0
LINE
  5
132521
  8
OBJECT
 10
287.99999999998238
 20
-743.0
 30
0.0
 11
323.99999999998238
 21
-743.0
 31
0.0
1001
ACDBBLOCKREPETAG
1070
     1
1071
      106
1005
132521
  0
LINE
  5
132522
  8
OBJECT
 10
283.99999999998238
 20
-629.49999999999989
 30
0.0
 11
270.99999999998238
 21
-629.49999999999989
 31
0.0
1001
ACDBBLOCKREPETAG
1070
     1
1071
      107
1005
132522
  0
LINE
  5
132523
  8
OBJECT
 10
270.99999999998238
 20
-738.49999999999989
 30
0.0
 11
283.99999999998238
 21
-738.49999999999989
 31
0.0
1001
ACDBBLOCKREPETAG
1070
     1
1071
      108
1005
132523
  0
LINE
  5
132524
  8
OBJECT
 10
283.99999999998238
 20
-738.49999999999989
 30
0.0
 11
283.99999999998238
 21
-629.49999999999989
 31
0.0
1001
ACDBBLOCKREPETAG
1070
     1
1071
      109
1005
132524
  0
LINE
  5
132525
  8
OBJECT
 10
287.99999999998238
 20
-625.0
 30
0.0
 11
283.99999999998238
 21
-629.49999999999989
 31
0.0
1001
ACDBBLOCKREPETAG
1070
     1
1071
      110
1005
132525
  0
LINE
  5
132526
  8
OBJECT
 10
287.99999999998238
 20
-743.0
 30
0.0
 11
283.99999999998238
 21
-738.49999999999989
 31
0.0
1001
ACDBBLOCKREPETAG
1070
     1
1071
      111
1005
132526
  0
LINE
  5
132527
  8
OBJECT
 10
193.9999999999969
 20
-622.0
 30
0.0
 11
190.9999999999969
 21
-622.0
 31
0.0
1001
ACDBBLOCKREPETAG
1070
     1
1071
      112
1005
132527
  0
ARC
  5
132528
  8
OBJECT
 10
193.9999999999969
 20
-625.0
 30
0.0
 40
3.0
 50
0.0
 51
90.0
1001
ACDBBLOCKREPETAG
1070
     1
1071
      113
1005
132528
  0
LINE
  5
132529
  8
OBJECT
 10
190.9999999999969
 20
-746.0
 30
0.0
 11
193.9999999999969
 21
-746.0
 31
0.0
1001
ACDBBLOCKREPETAG
1070
     1
1071
      114
1005
132529
  0
ARC
  5
13252A
  8
OBJECT
 10
193.9999999999969
 20
-743.0
 30
0.0
 40
3.0
 50
270.0
 51
0.0
1001
ACDBBLOCKREPETAG
1070
     1
1071
      115
1005
13252A
  0
LINE
  5
13252B
  8
OBJECT
 10
196.9999999999969
 20
-743.0
 30
0.0
 11
196.9999999999969
 21
-706.44994432063686
 31
0.0
1001
ACDBBLOCKREPETAG
1070
     1
1071
      116
1005
13252B
  0
LINE
  5
13252C
  8
OBJECT
 10
196.9999999999969
 20
-661.5500556793595
 30
0.0
 11
196.9999999999969
 21
-625.0
 31
0.0
1001
ACDBBLOCKREPETAG
1070
     1
1071
      117
1005
13252C
  0
LINE
  5
13252D
  8
OBJECT
 10
270.99997496418348
 20
-738.4999509238113
 30
0.0
 11
270.99997496418348
 21
-629.49995092381118
 31
0.0
1001
ACDBBLOCKREPETAG
1070
     1
1071
      119
1005
13252D
  0
ARC
  5
13252E
  8
OBJECT
 10
236.0000000000006
 20
-684.0
 30
0.0
 40
45.000000000000547
 50
90.0
 51
270.0
1001
ACDBBLOCKREPETAG
1070
     1
1071
      120
1005
13252E
  0
INSERT
  5
13252F
  8
OBJECT
  2
*U5
 10
0.0
 20
0.0
 30
0.0
  0
LINE
  5
132530
  8
HIDDEN
 10
278.99999999998249
 20
-639.5
 30
0.0
 11
278.99999999998249
 21
-728.5
 31
0.0
1001
ACDBBLOCKREPETAG
1070
     1
1071
      432
1005
132530
  0
INSERT
  5
132531
  8
OBJECT
  2
*U6
 10
0.0
 20
0.0
 30
0.0
  0
LINE
  5
132532
  8
OBJECT
 10
49.0
 20
-551.0
 30
0.0
 11
49.0
 21
-544.0
 31
0.0
1001
ACDBBLOCKREPETAG
1070
     1
1071
       39
1005
132532
  0
LINE
  5
132533
  8
OBJECT
 10
49.0
 20
-544.0
 30
0.0
 11
173.0
 21
-544.0
 31
0.0
1001
ACDBBLOCKREPETAG
1070
     1
1071
       40
1005
132533
  0
LINE
  5
132534
  8
OBJECT
 10
173.0
 20
-544.0
 30
0.0
 11
173.0
 21
-551.0
 31
0.0
1001
ACDBBLOCKREPETAG
1070
     1
1071
       41
1005
132534
  0
LINE
  5
132535
  8
OBJECT
 10
173.0
 20
-551.0
 30
0.0
 11
49.0
 21
-551.0
 31
0.0
1001
ACDBBLOCKREPETAG
1070
     1
1071
       42
1005
132535
  0
LINE
  5
132536
  8
OBJECT
 10
52.0
 20
-551.0
 30
0.0
 11
52.0
 21
-587.0
 31
0.0
1001
ACDBBLOCKREPETAG
1070
     1
1071
       43
1005
132536
  0
LINE
  5
132537
  8
OBJECT
 10
52.0
 20
-587.0
 30
0.0
 11
170.0
 21
-587.0
 31
0.0
1001
ACDBBLOCKREPETAG
1070
     1
1071
       44
1005
132537
  0
LINE
  5
132538
  8
OBJECT
 10
170.0
 20
-587.0
 30
0.0
 11
170.0
 21
-551.0
 31
0.0
1001
ACDBBLOCKREPETAG
1070
     1
1071
       45
1005
132538
  0
LINE
  5
132539
  8
OBJECT
 10
56.5
 20
-591.0
 30
0.0
 11
56.5
 21
-598.0
 31
0.0
1001
ACDBBLOCKREPETAG
1070
     1
1071
       46
1005
132539
  0
LINE
  5
13253A
  8
OBJECT
 10
165.5
 20
-598.0
 30
0.0
 11
165.5
 21
-591.0
 31
0.0
1001
ACDBBLOCKREPETAG
1070
     1
1071
       47
1005
13253A
  0
LINE
  5
13253B
  8
OBJECT
 10
165.5
 20
-591.0
 30
0.0
 11
56.5
 21
-591.0
 31
0.0
1001
ACDBBLOCKREPETAG
1070
     1
1071
       48
1005
13253B
  0
LINE
  5
13253C
  8
OBJECT
 10
52.0
 20
-587.0
 30
0.0
 11
56.5
 21
-591.0
 31
0.0
1001
ACDBBLOCKREPETAG
1070
     1
1071
       49
1005
13253C
  0
LINE
  5
13253D
  8
OBJECT
 10
170.0
 20
-587.0
 30
0.0
 11
165.5
 21
-591.0
 31
0.0
1001
ACDBBLOCKREPETAG
1070
     1
1071
       50
1005
13253D
  0
LINE
  5
13253E
  8
OBJECT
 10
49.0
 20
-600.99999999999898
 30
0.0
 11
49.0
 21
-604.0
 31
0.0
1001
ACDBBLOCKREPETAG
1070
     1
1071
       51
1005
13253E
  0
ARC
  5
13253F
  8
OBJECT
 10
52.0
 20
-600.99999999999898
 30
0.0
 40
3.0
 50
90.0
 51
180.0
1001
ACDBBLOCKREPETAG
1070
     1
1071
       52
1005
13253F
  0
LINE
  5
132540
  8
OBJECT
 10
173.0
 20
-604.0
 30
0.0
 11
173.0
 21
-601.00000000000068
 31
0.0
1001
ACDBBLOCKREPETAG
1070
     1
1071
       53
1005
132540
  0
ARC
  5
132541
  8
OBJECT
 10
170.0
 20
-601.00000000000068
 30
0.0
 40
3.0
 50
0.0
 51
90.0
1001
ACDBBLOCKREPETAG
1070
     1
1071
       54
1005
132541
  0
LINE
  5
132542
  8
OBJECT
 10
170.0
 20
-598.0000000000008
 30
0.0
 11
52.0
 21
-597.99999999999886
 31
0.0
1001
ACDBBLOCKREPETAG
1070
     1
1071
       55
1005
132542
  0
LINE
  5
132543
  8
HIDDEN
 10
66.5
 20
-596.0
 30
0.0
 11
155.5
 21
-596.0
 31
0.0
1001
ACDBBLOCKREPETAG
1070
     1
1071
      426
1005
132543
  0
CIRCLE
  5
132544
  8
OBJECT
 10
471.0
 20
-220.0
 30
0.0
 40
70.0
1001
ACDBBLOCKREPETAG
1070
     1
1071
       43
1005
132544
  0
CIRCLE
  5
132545
  8
OBJECT
 10
471.0
 20
-220.0
 30
0.0
 40
77.0
1001
ACDBBLOCKREPETAG
1070
     1
1071
       44
1005
132545
  0
ARC
  5
132546
  8
OBJECT
 10
471.0
 20
-220.0
 30
0.0
 40
80.0
 50
140.80503257378001
 51
219.194967426218
1001
ACDBBLOCKREPETAG
1070
     1
1071
       45
1005
132546
  0
LINE
  5
132547
  8
OBJECT
 10
409.0
 20
-174.33819977267541
 30
0.0
 11
409.0
 21
-140.0
 31
0.0
1001
ACDBBLOCKREPETAG
1070
     1
1071
       46
1005
132547
  0
LINE
  5
132548
  8
OBJECT
 10
533.0
 20
-158.0
 30
0.0
 11
533.0
 21
-140.0
 31
0.0
1001
ACDBBLOCKREPETAG
1070
     1
1071
       22
1005
132548
  0
LINE
  5
132549
  8
OBJECT
 10
533.0
 20
-158.0
 30
0.0
 11
551.0
 21
-158.0
 31
0.0
1001
ACDBBLOCKREPETAG
1070
     1
1071
       24
1005
132549
  0
LINE
  5
13254A
  8
OBJECT
 10
533.0
 20
-282.0
 30
0.0
 11
551.0
 21
-282.0
 31
0.0
1001
ACDBBLOCKREPETAG
1070
     1
1071
       25
1005
13254A
  0
LINE
  5
13254B
  8
OBJECT
 10
533.0
 20
-282.0
 30
0.0
 11
533.0
 21
-300.0
 31
0.0
1001
ACDBBLOCKREPETAG
1070
     1
1071
       27
1005
13254B
  0
LINE
  5
13254C
  8
OBJECT
 10
409.0
 20
-265.66180022732442
 30
0.0
 11
409.0
 21
-300.0
 31
0.0
1001
ACDBBLOCKREPETAG
1070
     1
1071
       28
1005
13254C
  0
LINE
  5
13254D
  8
OBJECT
 10
525.44722215136414
 20
-274.44722215136431
 30
0.0
 11
533.0
 21
-282.0
 31
0.0
1001
ACDBBLOCKREPETAG
1070
     1
1071
       37
1005
13254D
  0
LINE
  5
13254E
  8
OBJECT
 10
525.44722215136414
 20
-165.55277784863571
 30
0.0
 11
533.0
 21
-158.0
 31
0.0
1001
ACDBBLOCKREPETAG
1070
     1
1071
       38
1005
13254E
  0
POINT
  5
13254F
  8
DOTS
 10
471.0
 20
-220.0
 30
0.0
1001
ACDBBLOCKREPETAG
1070
     1
1071
       39
1005
13254F
  0
CIRCLE
  5
132550
  8
OBJECT
 10
471.0
 20
-220.0
 30
0.0
 40
53.5
1001
ACDBBLOCKREPETAG
1070
     1
1071
      153
1005
132550
  0
LINE
  5
132551
  8
OBJECT
 10
409.0
 20
-303.0
 30
0.0
 11
409.0
 21
-300.0
 31
0.0
1001
ACDBBLOCKREPETAG
1070
     1
1071
      418
1005
132551
  0
ARC
  5
132552
  8
OBJECT
 10
412.0
 20
-303.0
 30
0.0
 40
3.0
 50
180.0
 51
270.0
1001
ACDBBLOCKREPETAG
1070
     1
1071
      419
1005
132552
  0
LINE
  5
132553
  8
OBJECT
 10
533.0
 20
-300.0
 30
0.0
 11
533.0
 21
-303.0
 31
0.0
1001
ACDBBLOCKREPETAG
1070
     1
1071
      420
1005
132553
  0
ARC
  5
132554
  8
OBJECT
 10
530.0
 20
-303.0
 30
0.0
 40
3.0
 50
270.0
 51
0.0
1001
ACDBBLOCKREPETAG
1070
     1
1071
      421
1005
132554
  0
LINE
  5
132555
  8
OBJECT
 10
530.0
 20
-306.0
 30
0.0
 11
412.0
 21
-306.0
 31
0.0
1001
ACDBBLOCKREPETAG
1070
     1
1071
      422
1005
132555
  0
LINE
  5
132556
  8
OBJECT
 10
683.99999999998226
 20
-158.0
 30
0.0
 11
690.99999999998215
 21
-158.0
 31
0.0
1001
ACDBBLOCKREPETAG
1070
     1
1071
       98
1005
132556
  0
LINE
  5
132557
  8
OBJECT
 10
690.99999999998215
 20
-158.0
 30
0.0
 11
690.99999999998215
 21
-282.0
 31
0.0
1001
ACDBBLOCKREPETAG
1070
     1
1071
       99
1005
132557
  0
LINE
  5
132558
  8
OBJECT
 10
690.99999999998215
 20
-282.0
 30
0.0
 11
683.99999999998226
 21
-282.0
 31
0.0
1001
ACDBBLOCKREPETAG
1070
     1
1071
      100
1005
132558
  0
LINE
  5
132559
  8
OBJECT
 10
683.99999999998226
 20
-282.0
 30
0.0
 11
683.99999999998226
 21
-158.0
 31
0.0
1001
ACDBBLOCKREPETAG
1070
     1
1071
      101
1005
132559
  0
LINE
  5
13255A
  8
OBJECT
 10
630.99997496418348
 20
-265.00000000000358
 30
0.0
 11
556.99999999999682
 21
-265.0
 31
0.0
1001
ACDBBLOCKREPETAG
1070
     1
1071
      102
1005
13255A
  0
LINE
  5
13255B
  8
OBJECT
 10
630.99997496418348
 20
-175.0
 30
0.0
 11
556.99999999999682
 21
-175.0
 31
0.0
1001
ACDBBLOCKREPETAG
1070
     1
1071
      103
1005
13255B
  0
LINE
  5
13255C
  8
OBJECT
 10
683.99999999998226
 20
-161.0
 30
0.0
 11
647.99999999998226
 21
-161.0
 31
0.0
1001
ACDBBLOCKREPETAG
1070
     1
1071
      104
1005
13255C
  0
LINE
  5
13255D
  8
OBJECT
 10
647.99999999998226
 20
-161.0
 30
0.0
 11
647.99999999998226
 21
-279.0
 31
0.0
1001
ACDBBLOCKREPETAG
1070
     1
1071
      105
1005
13255D
  0
LINE
  5
13255E
  8
OBJECT
 10
647.99999999998226
 20
-279.0
 30
0.0
 11
683.99999999998226
 21
-279.0
 31
0.0
1001
ACDBBLOCKREPETAG
1070
     1
1071
      106
1005
13255E
  0
LINE
  5
13255F
  8
OBJECT
 10
643.99999999998226
 20
-165.5
 30
0.0
 11
630.99999999998226
 21
-165.5
 31
0.0
1001
ACDBBLOCKREPETAG
1070
     1
1071
      107
1005
13255F
  0
LINE
  5
132560
  8
OBJECT
 10
630.99999999998226
 20
-274.5
 30
0.0
 11
643.99999999998226
 21
-274.5
 31
0.0
1001
ACDBBLOCKREPETAG
1070
     1
1071
      108
1005
132560
  0
LINE
  5
132561
  8
OBJECT
 10
643.99999999998226
 20
-274.5
 30
0.0
 11
643.99999999998226
 21
-165.5
 31
0.0
1001
ACDBBLOCKREPETAG
1070
     1
1071
      109
1005
132561
  0
LINE
  5
132562
  8
OBJECT
 10
647.99999999998226
 20
-161.0
 30
0.0
 11
643.99999999998226
 21
-165.5
 31
0.0
1001
ACDBBLOCKREPETAG
1070
     1
1071
      110
1005
132562
  0
LINE
  5
132563
  8
OBJECT
 10
647.99999999998226
 20
-279.0
 30
0.0
 11
643.99999999998226
 21
-274.5
 31
0.0
1001
ACDBBLOCKREPETAG
1070
     1
1071
      111
1005
132563
  0
LINE
  5
132564
  8
OBJECT
 10
553.99999999999682
 20
-158.0
 30
0.0
 11
550.99999999999682
 21
-158.0
 31
0.0
1001
ACDBBLOCKREPETAG
1070
     1
1071
      112
1005
132564
  0
ARC
  5
132565
  8
OBJECT
 10
553.99999999999682
 20
-161.0
 30
0.0
 40
3.0
 50
0.0
 51
90.0
1001
ACDBBLOCKREPETAG
1070
     1
1071
      113
1005
132565
  0
LINE
  5
132566
  8
OBJECT
 10
550.99999999999682
 20
-282.0
 30
0.0
 11
553.99999999999682
 21
-282.0
 31
0.0
1001
ACDBBLOCKREPETAG
1070
     1
1071
      114
1005
132566
  0
ARC
  5
132567
  8
OBJECT
 10
553.99999999999682
 20
-279.0
 30
0.0
 40
3.0
 50
270.0
 51
0.0
1001
ACDBBLOCKREPETAG
1070
     1
1071
      115
1005
132567
  0
LINE
  5
132568
  8
OBJECT
 10
556.99999999999682
 20
-279.0
 30
0.0
 11
556.99999999999682
 21
-242.4499443206368
 31
0.0
1001
ACDBBLOCKREPETAG
1070
     1
1071
      116
1005
132568
  0
LINE
  5
132569
  8
OBJECT
 10
556.99999999999682
 20
-197.5500556793595
 30
0.0
 11
556.99999999999682
 21
-161.0
 31
0.0
1001
ACDBBLOCKREPETAG
1070
     1
1071
      117
1005
132569
  0
LINE
  5
13256A
  8
OBJECT
 10
630.99997496418348
 20
-274.49995092381141
 30
0.0
 11
630.99997496418348
 21
-165.49995092381141
 31
0.0
1001
ACDBBLOCKREPETAG
1070
     1
1071
      119
1005
13256A
  0
ARC
  5
13256B
  8
OBJECT
 10
596.00000000000057
 20
-220.0
 30
0.0
 40
45.000000000000547
 50
90.0
 51
270.0
1001
ACDBBLOCKREPETAG
1070
     1
1071
      120
1005
13256B
  0
INSERT
  5
13256C
  8
OBJECT
  2
*U7
 10
0.0
 20
0.0
 30
0.0
  0
LINE
  5
13256D
  8
HIDDEN
 10
638.99999999998226
 20
-175.5
 30
0.0
 11
638.99999999998226
 21
-264.5
 31
0.0
1001
ACDBBLOCKREPETAG
1070
     1
1071
      432
1005
13256D
  0
INSERT
  5
13256E
  8
OBJECT
  2
*U8
 10
0.0
 20
0.0
 30
0.0
  0
LINE
  5
13256F
  8
OBJECT
 10
416.0
 20
-87.0
 30
0.0
 11
416.0
 21
-80.0
 31
0.0
1001
ACDBBLOCKREPETAG
1070
     1
1071
       20
1005
13256F
  0
LINE
  5
132570
  8
OBJECT
 10
416.0
 20
-80.0
 30
0.0
 11
526.0
 21
-80.0
 31
0.0
1001
ACDBBLOCKREPETAG
1070
     1
1071
       21
1005
132570
  0
LINE
  5
132571
  8
OBJECT
 10
526.0
 20
-80.0
 30
0.0
 11
526.0
 21
-87.0
 31
0.0
1001
ACDBBLOCKREPETAG
1070
     1
1071
       22
1005
132571
  0
LINE
  5
132572
  8
OBJECT
 10
526.0
 20
-87.0
 30
0.0
 11
416.0
 21
-87.0
 31
0.0
1001
ACDBBLOCKREPETAG
1070
     1
1071
       23
1005
132572
  0
LINE
  5
132573
  8
OBJECT
 10
419.0
 20
-87.0
 30
0.0
 11
419.0
 21
-123.0
 31
0.0
1001
ACDBBLOCKREPETAG
1070
     1
1071
       24
1005
132573
  0
LINE
  5
132574
  8
OBJECT
 10
419.0
 20
-123.0
 30
0.0
 11
523.0
 21
-123.0
 31
0.0
1001
ACDBBLOCKREPETAG
1070
     1
1071
       25
1005
132574
  0
LINE
  5
132575
  8
OBJECT
 10
523.0
 20
-123.0
 30
0.0
 11
523.0
 21
-87.0
 31
0.0
1001
ACDBBLOCKREPETAG
1070
     1
1071
       26
1005
132575
  0
LINE
  5
132576
  8
OBJECT
 10
423.5
 20
-127.0
 30
0.0
 11
423.5
 21
-134.0
 31
0.0
1001
ACDBBLOCKREPETAG
1070
     1
1071
       27
1005
132576
  0
LINE
  5
132577
  8
OBJECT
 10
518.5
 20
-134.0
 30
0.0
 11
518.5
 21
-127.0
 31
0.0
1001
ACDBBLOCKREPETAG
1070
     1
1071
       28
1005
132577
  0
LINE
  5
132578
  8
OBJECT
 10
518.5
 20
-127.0
 30
0.0
 11
423.5
 21
-127.0
 31
0.0
1001
ACDBBLOCKREPETAG
1070
     1
1071
       29
1005
132578
  0
LINE
  5
132579
  8
OBJECT
 10
419.0
 20
-123.0
 30
0.0
 11
423.5
 21
-127.0
 31
0.0
1001
ACDBBLOCKREPETAG
1070
     1
1071
       30
1005
132579
  0
LINE
  5
13257A
  8
OBJECT
 10
523.0
 20
-123.0
 30
0.0
 11
518.5
 21
-127.0
 31
0.0
1001
ACDBBLOCKREPETAG
1070
     1
1071
       31
1005
13257A
  0
LINE
  5
13257B
  8
OBJECT
 10
409.0
 20
-136.99999999999909
 30
0.0
 11
409.0
 21
-140.0
 31
0.0
1001
ACDBBLOCKREPETAG
1070
     1
1071
       32
1005
13257B
  0
ARC
  5
13257C
  8
OBJECT
 10
412.0
 20
-136.99999999999909
 30
0.0
 40
3.0
 50
90.0
 51
180.0
1001
ACDBBLOCKREPETAG
1070
     1
1071
       33
1005
13257C
  0
LINE
  5
13257D
  8
OBJECT
 10
533.0
 20
-140.0
 30
0.0
 11
533.0
 21
-137.00000000000091
 31
0.0
1001
ACDBBLOCKREPETAG
1070
     1
1071
       34
1005
13257D
  0
ARC
  5
13257E
  8
OBJECT
 10
530.0
 20
-137.00000000000091
 30
0.0
 40
3.0
 50
0.0
 51
90.0
1001
ACDBBLOCKREPETAG
1070
     1
1071
       35
1005
13257E
  0
LINE
  5
13257F
  8
OBJECT
 10
530.0
 20
-134.00000000000091
 30
0.0
 11
412.0
 21
-133.99999999999909
 31
0.0
1001
ACDBBLOCKREPETAG
1070
     1
1071
       36
1005
13257F
  0
LINE
  5
132580
  8
HIDDEN
 10
433.0
 20
-132.0
 30
0.0
 11
509.0
 21
-132.0
 31
0.0
1001
ACDBBLOCKREPETAG
1070
     1
1071
      423
1005
132580
  0
CIRCLE
  5
132581
  8
OBJECT
 10
111.0
 20
-220.0
 30
0.0
 40
70.0
1001
ACDBBLOCKREPETAG
1070
     1
1071
       43
1005
132581
  0
CIRCLE
  5
132582
  8
OBJECT
 10
111.0
 20
-220.0
 30
0.0
 40
77.0
1001
ACDBBLOCKREPETAG
1070
     1
1071
       44
1005
132582
  0
ARC
  5
132583
  8
OBJECT
 10
111.0
 20
-220.0
 30
0.0
 40
80.0
 50
140.80503257378101
 51
219.19496742621899
1001
ACDBBLOCKREPETAG
1070
     1
1071
       45
1005
132583
  0
LINE
  5
132584
  8
OBJECT
 10
49.0
 20
-174.33819977267541
 30
0.0
 11
49.0
 21
-140.0
 31
0.0
1001
ACDBBLOCKREPETAG
1070
     1
1071
       46
1005
132584
  0
LINE
  5
132585
  8
OBJECT
 10
173.0
 20
-158.0
 30
0.0
 11
173.0
 21
-140.0
 31
0.0
1001
ACDBBLOCKREPETAG
1070
     1
1071
       22
1005
132585
  0
LINE
  5
132586
  8
OBJECT
 10
173.0
 20
-158.0
 30
0.0
 11
191.0
 21
-158.0
 31
0.0
1001
ACDBBLOCKREPETAG
1070
     1
1071
       24
1005
132586
  0
LINE
  5
132587
  8
OBJECT
 10
173.0
 20
-282.0
 30
0.0
 11
191.0
 21
-282.0
 31
0.0
1001
ACDBBLOCKREPETAG
1070
     1
1071
       25
1005
132587
  0
LINE
  5
132588
  8
OBJECT
 10
173.0
 20
-282.0
 30
0.0
 11
173.0
 21
-300.0
 31
0.0
1001
ACDBBLOCKREPETAG
1070
     1
1071
       27
1005
132588
  0
LINE
  5
132589
  8
OBJECT
 10
49.0
 20
-265.66180022732442
 30
0.0
 11
49.0
 21
-300.0
 31
0.0
1001
ACDBBLOCKREPETAG
1070
     1
1071
       28
1005
132589
  0
LINE
  5
13258A
  8
OBJECT
 10
165.4472221513642
 20
-274.44722215136431
 30
0.0
 11
173.0
 21
-282.0
 31
0.0
1001
ACDBBLOCKREPETAG
1070
     1
1071
       37
1005
13258A
  0
LINE
  5
13258B
  8
OBJECT
 10
165.4472221513642
 20
-165.55277784863571
 30
0.0
 11
173.0
 21
-158.0
 31
0.0
1001
ACDBBLOCKREPETAG
1070
     1
1071
       38
1005
13258B
  0
POINT
  5
13258C
  8
DOTS
 10
111.0
 20
-220.0
 30
0.0
1001
ACDBBLOCKREPETAG
1070
     1
1071
       39
1005
13258C
  0
CIRCLE
  5
13258D
  8
OBJECT
 10
111.0
 20
-220.0
 30
0.0
 40
53.5
1001
ACDBBLOCKREPETAG
1070
     1
1071
      153
1005
13258D
  0
LINE
  5
13258E
  8
OBJECT
 10
49.0
 20
-303.0
 30
0.0
 11
49.0
 21
-300.0
 31
0.0
1001
ACDBBLOCKREPETAG
1070
     1
1071
      418
1005
13258E
  0
ARC
  5
13258F
  8
OBJECT
 10
52.0
 20
-303.0
 30
0.0
 40
3.0
 50
180.0
 51
270.0
1001
ACDBBLOCKREPETAG
1070
     1
1071
      419
1005
13258F
  0
LINE
  5
132590
  8
OBJECT
 10
173.0
 20
-300.0
 30
0.0
 11
173.0
 21
-303.0
 31
0.0
1001
ACDBBLOCKREPETAG
1070
     1
1071
      420
1005
132590
  0
ARC
  5
132591
  8
OBJECT
 10
170.0
 20
-303.0
 30
0.0
 40
3.0
 50
270.0
 51
0.0
1001
ACDBBLOCKREPETAG
1070
     1
1071
      421
1005
132591
  0
LINE
  5
132592
  8
OBJECT
 10
170.0
 20
-306.0
 30
0.0
 11
52.0
 21
-306.0
 31
0.0
1001
ACDBBLOCKREPETAG
1070
     1
1071
      422
1005
132592
  0
LINE
  5
132593
  8
OBJECT
 10
323.99999999998238
 20
-158.0
 30
0.0
 11
330.99999999998238
 21
-158.0
 31
0.0
1001
ACDBBLOCKREPETAG
1070
     1
1071
       98
1005
132593
  0
LINE
  5
132594
  8
OBJECT
 10
330.99999999998238
 20
-158.0
 30
0.0
 11
330.99999999998238
 21
-282.0
 31
0.0
1001
ACDBBLOCKREPETAG
1070
     1
1071
       99
1005
132594
  0
LINE
  5
132595
  8
OBJECT
 10
330.99999999998238
 20
-282.0
 30
0.0
 11
323.99999999998238
 21
-282.0
 31
0.0
1001
ACDBBLOCKREPETAG
1070
     1
1071
      100
1005
132595
  0
LINE
  5
132596
  8
OBJECT
 10
323.99999999998238
 20
-282.0
 30
0.0
 11
323.99999999998238
 21
-158.0
 31
0.0
1001
ACDBBLOCKREPETAG
1070
     1
1071
      101
1005
132596
  0
LINE
  5
132597
  8
OBJECT
 10
270.99997496418348
 20
-265.00000000000358
 30
0.0
 11
196.9999999999969
 21
-265.0
 31
0.0
1001
ACDBBLOCKREPETAG
1070
     1
1071
      102
1005
132597
  0
LINE
  5
132598
  8
OBJECT
 10
270.99997496418348
 20
-175.0
 30
0.0
 11
196.9999999999969
 21
-175.0
 31
0.0
1001
ACDBBLOCKREPETAG
1070
     1
1071
      103
1005
132598
  0
LINE
  5
132599
  8
OBJECT
 10
323.99999999998238
 20
-161.0
 30
0.0
 11
287.99999999998238
 21
-161.0
 31
0.0
1001
ACDBBLOCKREPETAG
1070
     1
1071
      104
1005
132599
  0
LINE
  5
13259A
  8
OBJECT
 10
287.99999999998238
 20
-161.0
 30
0.0
 11
287.99999999998238
 21
-279.0
 31
0.0
1001
ACDBBLOCKREPETAG
1070
     1
1071
      105
1005
13259A
  0
LINE
  5
13259B
  8
OBJECT
 10
287.99999999998238
 20
-279.0
 30
0.0
 11
323.99999999998238
 21
-279.0
 31
0.0
1001
ACDBBLOCKREPETAG
1070
     1
1071
      106
1005
13259B
  0
LINE
  5
13259C
  8
OBJECT
 10
283.99999999998238
 20
-165.5
 30
0.0
 11
270.99999999998238
 21
-165.5
 31
0.0
1001
ACDBBLOCKREPETAG
1070
     1
1071
      107
1005
13259C
  0
LINE
  5
13259D
  8
OBJECT
 10
270.99999999998238
 20
-274.5
 30
0.0
 11
283.99999999998238
 21
-274.5
 31
0.0
1001
ACDBBLOCKREPETAG
1070
     1
1071
      108
1005
13259D
  0
LINE
  5
13259E
  8
OBJECT
 10
283.99999999998238
 20
-274.5
 30
0.0
 11
283.99999999998238
 21
-165.5
 31
0.0
1001
ACDBBLOCKREPETAG
1070
     1
1071
      109
1005
13259E
  0
LINE
  5
13259F
  8
OBJECT
 10
287.99999999998238
 20
-161.0
 30
0.0
 11
283.99999999998238
 21
-165.5
 31
0.0
1001
ACDBBLOCKREPETAG
1070
     1
1071
      110
1005
13259F
  0
LINE
  5
1325A0
  8
OBJECT
 10
287.99999999998238
 20
-279.0
 30
0.0
 11
283.99999999998238
 21
-274.5
 31
0.0
1001
ACDBBLOCKREPETAG
1070
     1
1071
      111
1005
1325A0
  0
LINE
  5
1325A1
  8
OBJECT
 10
193.9999999999969
 20
-158.0
 30
0.0
 11
190.9999999999969
 21
-158.0
 31
0.0
1001
ACDBBLOCKREPETAG
1070
     1
1071
      112
1005
1325A1
  0
ARC
  5
1325A2
  8
OBJECT
 10
193.9999999999969
 20
-161.0
 30
0.0
 40
3.0
 50
0.0
 51
90.0
1001
ACDBBLOCKREPETAG
1070
     1
1071
      113
1005
1325A2
  0
LINE
  5
1325A3
  8
OBJECT
 10
190.9999999999969
 20
-282.0
 30
0.0
 11
193.9999999999969
 21
-282.0
 31
0.0
1001
ACDBBLOCKREPETAG
1070
     1
1071
      114
1005
1325A3
  0
ARC
  5
1325A4
  8
OBJECT
 10
193.9999999999969
 20
-279.0
 30
0.0
 40
3.0
 50
270.0
 51
0.0
1001
ACDBBLOCKREPETAG
1070
     1
1071
      115
1005
1325A4
  0
LINE
  5
1325A5
  8
OBJECT
 10
196.9999999999969
 20
-279.0
 30
0.0
 11
196.9999999999969
 21
-242.4499443206368
 31
0.0
1001
ACDBBLOCKREPETAG
1070
     1
1071
      116
1005
1325A5
  0
LINE
  5
1325A6
  8
OBJECT
 10
196.9999999999969
 20
-197.5500556793595
 30
0.0
 11
196.9999999999969
 21
-161.0
 31
0.0
1001
ACDBBLOCKREPETAG
1070
     1
1071
      117
1005
1325A6
  0
LINE
  5
1325A7
  8
OBJECT
 10
270.99997496418348
 20
-274.49995092381141
 30
0.0
 11
270.99997496418348
 21
-165.49995092381141
 31
0.0
1001
ACDBBLOCKREPETAG
1070
     1
1071
      119
1005
1325A7
  0
ARC
  5
1325A8
  8
OBJECT
 10
236.0000000000006
 20
-220.0
 30
0.0
 40
45.000000000000547
 50
90.0
 51
270.0
1001
ACDBBLOCKREPETAG
1070
     1
1071
      120
1005
1325A8
  0
INSERT
  5
1325A9
  8
OBJECT
  2
*U9
 10
0.0
 20
0.0
 30
0.0
  0
LINE
  5
1325AA
  8
HIDDEN
 10
278.99999999998249
 20
-175.5
 30
0.0
 11
278.99999999998249
 21
-264.5
 31
0.0
1001
ACDBBLOCKREPETAG
1070
     1
1071
      432
1005
1325AA
  0
INSERT
  5
1325AB
  8
OBJECT
  2
*U10
 10
0.0
 20
0.0
 30
0.0
  0
LINE
  5
1325AC
  8
OBJECT
 10
64.0
 20
-87.0
 30
0.0
 11
64.0
 21
-80.0
 31
0.0
1001
ACDBBLOCKREPETAG
1070
     1
1071
        1
1005
1325AC
  0
LINE
  5
1325AD
  8
OBJECT
 10
64.0
 20
-80.0
 30
0.0
 11
158.0
 21
-80.0
 31
0.0
1001
ACDBBLOCKREPETAG
1070
     1
1071
        2
1005
1325AD
  0
LINE
  5
1325AE
  8
OBJECT
 10
158.0
 20
-80.0
 30
0.0
 11
158.0
 21
-87.0
 31
0.0
1001
ACDBBLOCKREPETAG
1070
     1
1071
        3
1005
1325AE
  0
LINE
  5
1325AF
  8
OBJECT
 10
158.0
 20
-87.0
 30
0.0
 11
64.0
 21
-87.0
 31
0.0
1001
ACDBBLOCKREPETAG
1070
     1
1071
        4
1005
1325AF
  0
LINE
  5
1325B0
  8
OBJECT
 10
67.0
 20
-87.0
 30
0.0
 11
67.0
 21
-123.0
 31
0.0
1001
ACDBBLOCKREPETAG
1070
     1
1071
        5
1005
1325B0
  0
LINE
  5
1325B1
  8
OBJECT
 10
67.0
 20
-123.0
 30
0.0
 11
155.0
 21
-123.0
 31
0.0
1001
ACDBBLOCKREPETAG
1070
     1
1071
        6
1005
1325B1
  0
LINE
  5
1325B2
  8
OBJECT
 10
155.0
 20
-123.0
 30
0.0
 11
155.0
 21
-87.0
 31
0.0
1001
ACDBBLOCKREPETAG
1070
     1
1071
        7
1005
1325B2
  0
LINE
  5
1325B3
  8
OBJECT
 10
71.5
 20
-127.0
 30
0.0
 11
71.5
 21
-134.0
 31
0.0
1001
ACDBBLOCKREPETAG
1070
     1
1071
        8
1005
1325B3
  0
LINE
  5
1325B4
  8
OBJECT
 10
150.5
 20
-134.0
 30
0.0
 11
150.5
 21
-127.0
 31
0.0
1001
ACDBBLOCKREPETAG
1070
     1
1071
        9
1005
1325B4
  0
LINE
  5
1325B5
  8
OBJECT
 10
150.5
 20
-127.0
 30
0.0
 11
71.5
 21
-127.0
 31
0.0
1001
ACDBBLOCKREPETAG
1070
     1
1071
       10
1005
1325B5
  0
LINE
  5
1325B6
  8
OBJECT
 10
67.0
 20
-123.0
 30
0.0
 11
71.5
 21
-127.0
 31
0.0
1001
ACDBBLOCKREPETAG
1070
     1
1071
       11
1005
1325B6
  0
LINE
  5
1325B7
  8
OBJECT
 10
155.0
 20
-123.0
 30
0.0
 11
150.5
 21
-127.0
 31
0.0
1001
ACDBBLOCKREPETAG
1070
     1
1071
       12
1005
1325B7
  0
LINE
  5
1325B8
  8
OBJECT
 10
49.0
 20
-136.99999999999909
 30
0.0
 11
49.0
 21
-140.0
 31
0.0
1001
ACDBBLOCKREPETAG
1070
     1
1071
       13
1005
1325B8
  0
ARC
  5
1325B9
  8
OBJECT
 10
52.0
 20
-136.99999999999909
 30
0.0
 40
3.0
 50
90.0
 51
180.0
1001
ACDBBLOCKREPETAG
1070
     1
1071
       14
1005
1325B9
  0
LINE
  5
1325BA
  8
OBJECT
 10
173.0
 20
-140.0
 30
0.0
 11
173.0
 21
-137.00000000000091
 31
0.0
1001
ACDBBLOCKREPETAG
1070
     1
1071
       15
1005
1325BA
  0
ARC
  5
1325BB
  8
OBJECT
 10
170.0
 20
-137.00000000000091
 30
0.0
 40
3.0
 50
0.0
 51
90.0
1001
ACDBBLOCKREPETAG
1070
     1
1071
       16
1005
1325BB
  0
LINE
  5
1325BC
  8
OBJECT
 10
170.0
 20
-134.00000000000091
 30
0.0
 11
52.0
 21
-133.99999999999909
 31
0.0
1001
ACDBBLOCKREPETAG
1070
     1
1071
       17
1005
1325BC
  0
LINE
  5
1325BD
  8
HIDDEN
 10
81.0
 20
-132.0
 30
0.0
 11
141.0
 21
-132.0
 31
0.0
1001
ACDBBLOCKREPETAG
1070
     1
1071
      420
1005
1325BD
  0
LINE
  5
1325BE
  8
HIDDEN
 10
0.0
 20
0.0
 30
0.0
 11
360.0
 21
0.0
 31
0.0
1001
ACDBBLOCKREPETAG
1070
     1
1071
       49
1005
0
  0
LINE
  5
1325BF
  8
HIDDEN
 10
360.0
 20
0.0
 30
0.0
 11
360.0
 21
-464.0
 31
0.0
1001
ACDBBLOCKREPETAG
1070
     1
1071
       49
1005
0
  0
LINE
  5
1325C0
  8
HIDDEN
 10
360.0
 20
-464.0
 30
0.0
 11
0.0
 21
-464.0
 31
0.0
1001
ACDBBLOCKREPETAG
1070
     1
1071
       49
1005
0
  0
LINE
  5
1325C1
  8
HIDDEN
 10
0.0
 20
-464.0
 30
0.0
 11
0.0
 21
0.0
 31
0.0
1001
ACDBBLOCKREPETAG
1070
     1
1071
       49
1005
0
  0
LINE
  5
1325C2
  8
HIDDEN
 10
0.0
 20
-464.0
 30
0.0
 11
360.0
 21
-464.0
 31
0.0
1001
ACDBBLOCKREPETAG
1070
     1
1071
       36
1005
0
  0
LINE
  5
1325C3
  8
HIDDEN
 10
360.0
 20
-464.0
 30
0.0
 11
360.0
 21
-928.0
 31
0.0
1001
ACDBBLOCKREPETAG
1070
     1
1071
       36
1005
0
  0
LINE
  5
1325C4
  8
HIDDEN
 10
360.0
 20
-928.0
 30
0.0
 11
0.0
 21
-928.0
 31
0.0
1001
ACDBBLOCKREPETAG
1070
     1
1071
       36
1005
0
  0
LINE
  5
1325C5
  8
HIDDEN
 10
0.0
 20
-928.0
 30
0.0
 11
0.0
 21
-464.0
 31
0.0
1001
ACDBBLOCKREPETAG
1070
     1
1071
       36
1005
0
  0
LINE
  5
1325C6
  8
HIDDEN
 10
360.0
 20
0.0
 30
0.0
 11
720.0
 21
0.0
 31
0.0
1001
ACDBBLOCKREPETAG
1070
     1
1071
       35
1005
0
  0
LINE
  5
1325C7
  8
HIDDEN
 10
720.0
 20
0.0
 30
0.0
 11
720.0
 21
-464.0
 31
0.0
1001
ACDBBLOCKREPETAG
1070
     1
1071
       35
1005
0
  0
LINE
  5
1325C8
  8
HIDDEN
 10
720.0
 20
-464.0
 30
0.0
 11
360.0
 21
-464.0
 31
0.0
1001
ACDBBLOCKREPETAG
1070
     1
1071
       35
1005
0
  0
LINE
  5
1325C9
  8
HIDDEN
 10
360.0
 20
-464.0
 30
0.0
 11
360.0
 21
0.0
 31
0.0
1001
ACDBBLOCKREPETAG
1070
     1
1071
       35
1005
0
  0
LINE
  5
1325CA
  8
HIDDEN
 10
360.0
 20
-464.0
 30
0.0
 11
720.0
 21
-464.0
 31
0.0
1001
ACDBBLOCKREPETAG
1070
     1
1071
       34
1005
0
  0
LINE
  5
1325CB
  8
HIDDEN
 10
720.0
 20
-464.0
 30
0.0
 11
720.0
 21
-928.0
 31
0.0
1001
ACDBBLOCKREPETAG
1070
     1
1071
       34
1005
0
  0
LINE
  5
1325CC
  8
HIDDEN
 10
720.0
 20
-928.0
 30
0.0
 11
360.0
 21
-928.0
 31
0.0
1001
ACDBBLOCKREPETAG
1070
     1
1071
       34
1005
0
  0
LINE
  5
1325CD
  8
HIDDEN
 10
360.0
 20
-928.0
 30
0.0
 11
360.0
 21
-464.0
 31
0.0
1001
ACDBBLOCKREPETAG
1070
     1
1071
       34
1005
0
  0
TEXT
  5
1325CE
  8
SLIM
 10
1850.0
 20
532.5
 30
0.0
 40
75.0
  1
側面図の代表機種
 41
0.75
  0
LINE
  5
1325CF
  8
SLIM
 10
3914.9999999999941
 20
-765.19743878931376
 30
0.0
 11
3925.1974387893092
 21
-754.99999999999875
 31
0.0
1001
ACDBBLOCKREPETAG
1070
     1
1071
        0
1005
0
1001
ACAD
1010
0.0
1020
0.0
1030
0.0
  0
LINE
  5
1325D0
  8
SLIM
 10
3914.999999999995
 20
-783.15795103145035
 30
0.0
 11
3943.1579510314468
 21
-754.99999999999875
 31
0.0
1001
ACAD
1010
0.0
1020
0.0
1030
0.0
1001
ACDBBLOCKREPETAG
1070
     1
1071
       14
1005
1325D0
  0
LINE
  5
1325D1
  8
SLIM
 10
3915.1454972543161
 20
-800.97296601926837
 30
0.0
 11
3961.1184632735849
 21
-754.99999999999875
 31
0.0
1001
ACAD
1010
0.0
1020
0.0
1030
0.0
1001
ACDBBLOCKREPETAG
1070
     1
1071
       15
1005
1325D1
  0
LINE
  5
1325D2
  8
SLIM
 10
3917.104627495245
 20
-816.97434802047826
 30
0.0
 11
3979.0789755157239
 21
-754.99999999999875
 31
0.0
1001
ACAD
1010
0.0
1020
0.0
1030
0.0
1001
ACDBBLOCKREPETAG
1070
     1
1071
       16
1005
1325D2
  0
LINE
  5
1325D3
  8
SLIM
 10
3919.0637577361722
 20
-832.97573002168861
 30
0.0
 11
3997.0394877578619
 21
-754.99999999999875
 31
0.0
1001
ACAD
1010
0.0
1020
0.0
1030
0.0
1001
ACDBBLOCKREPETAG
1070
     1
1071
       17
1005
1325D3
  0
LINE
  5
1325D4
  8
SLIM
 10
3920.0
 20
-849.99999999999875
 30
0.0
 11
4015.0
 21
-754.99999999999875
 31
0.0
1001
ACAD
1010
0.0
1020
0.0
1030
0.0
1001
ACDBBLOCKREPETAG
1070
     1
1071
       18
1005
1325D4
  0
LINE
  5
1325D5
  8
SLIM
 10
3920.0
 20
-867.96051224213716
 30
0.0
 11
4032.9605122421372
 21
-754.99999999999875
 31
0.0
1001
ACAD
1010
0.0
1020
0.0
1030
0.0
1001
ACDBBLOCKREPETAG
1070
     1
1071
       19
1005
1325D5
  0
LINE
  5
1325D6
  8
SLIM
 10
3920.0
 20
-885.92102448427534
 30
0.0
 11
4050.921024484277
 21
-754.99999999999875
 31
0.0
1001
ACAD
1010
0.0
1020
0.0
1030
0.0
1001
ACDBBLOCKREPETAG
1070
     1
1071
       20
1005
1325D6
  0
LINE
  5
1325D7
  8
SLIM
 10
3920.0
 20
-903.88153672641363
 30
0.0
 11
4068.8815367264142
 21
-754.99999999999875
 31
0.0
1001
ACAD
1010
0.0
1020
0.0
1030
0.0
1001
ACDBBLOCKREPETAG
1070
     1
1071
       21
1005
1325D7
  0
LINE
  5
1325D8
  8
SLIM
 10
3920.0
 20
-921.84204896855181
 30
0.0
 11
4085.0000000000068
 21
-756.8420489685451
 31
0.0
1001
ACAD
1010
0.0
1020
0.0
1030
0.0
1001
ACDBBLOCKREPETAG
1070
     1
1071
       22
1005
1325D8
  0
LINE
  5
1325D9
  8
SLIM
 10
3920.0
 20
-939.80256121069044
 30
0.0
 11
4085.0000000000059
 21
-774.80256121068464
 31
0.0
1001
ACAD
1010
0.0
1020
0.0
1030
0.0
1001
ACDBBLOCKREPETAG
1070
     1
1071
       23
1005
1325D9
  0
LINE
  5
1325DA
  8
SLIM
 10
3920.0
 20
-957.76307345282862
 30
0.0
 11
4085.0000000000041
 21
-792.76307345282453
 31
0.0
1001
ACAD
1010
0.0
1020
0.0
1030
0.0
1001
ACDBBLOCKREPETAG
1070
     1
1071
       24
1005
1325DA
  0
LINE
  5
1325DB
  8
SLIM
 10
3930.0
 20
-965.72358569496657
 30
0.0
 11
3930.7235856949678
 21
-964.99999999999875
 31
0.0
1001
ACAD
1010
0.0
1020
0.0
1030
0.0
1001
ACDBBLOCKREPETAG
1070
     1
1071
       25
1005
1325DB
  0
LINE
  5
1325DC
  8
SLIM
 10
3930.7235856949678
 20
-964.99999999999875
 30
0.0
 11
4083.4738280308079
 21
-812.24975766415855
 31
0.0
1001
ACAD
1010
0.0
1020
0.0
1030
0.0
1001
ACDBBLOCKREPETAG
1070
     1
1071
       26
1005
1325DC
  0
LINE
  5
1325DD
  8
SLIM
 10
3930.0
 20
-983.68409793710521
 30
0.0
 11
3948.6840979371068
 21
-964.99999999999875
 31
0.0
1001
ACAD
1010
0.0
1020
0.0
1030
0.0
1001
ACDBBLOCKREPETAG
1070
     1
1071
       27
1005
1325DD
  0
LINE
  5
1325DE
  8
SLIM
 10
3948.6840979371068
 20
-964.99999999999875
 30
0.0
 11
4080.9680345671368
 21
-832.71606336996786
 31
0.0
1001
ACAD
1010
0.0
1020
0.0
1030
0.0
1001
ACDBBLOCKREPETAG
1070
     1
1071
       28
1005
1325DE
  0
LINE
  5
1325DF
  8
SLIM
 10
3946.6446101792449
 20
-984.99999999999875
 30
0.0
 11
3966.6446101792449
 21
-964.99999999999875
 31
0.0
1001
ACAD
1010
0.0
1020
0.0
1030
0.0
1001
ACDBBLOCKREPETAG
1070
     1
1071
       29
1005
1325DF
  0
LINE
  5
1325E0
  8
SLIM
 10
3966.6446101792449
 20
-964.99999999999875
 30
0.0
 11
4080.0
 21
-851.6446101792435
 31
0.0
1001
ACAD
1010
0.0
1020
0.0
1030
0.0
1001
ACDBBLOCKREPETAG
1070
     1
1071
       30
1005
1325E0
  0
LINE
  5
1325E1
  8
SLIM
 10
3964.6051224213829
 20
-984.99999999999875
 30
0.0
 11
3984.6051224213829
 21
-964.99999999999875
 31
0.0
1001
ACAD
1010
0.0
1020
0.0
1030
0.0
1001
ACDBBLOCKREPETAG
1070
     1
1071
       31
1005
1325E1
  0
LINE
  5
1325E2
  8
SLIM
 10
3984.6051224213829
 20
-964.99999999999875
 30
0.0
 11
4080.0
 21
-869.60512242138225
 31
0.0
1001
ACAD
1010
0.0
1020
0.0
1030
0.0
1001
ACDBBLOCKREPETAG
1070
     1
1071
       32
1005
1325E2
  0
LINE
  5
1325E3
  8
SLIM
 10
3982.565634663521
 20
-984.99999999999875
 30
0.0
 11
4002.565634663521
 21
-964.99999999999875
 31
0.0
1001
ACAD
1010
0.0
1020
0.0
1030
0.0
1001
ACDBBLOCKREPETAG
1070
     1
1071
       33
1005
1325E3
  0
LINE
  5
1325E4
  8
SLIM
 10
4002.565634663521
 20
-964.99999999999875
 30
0.0
 11
4079.9999999999991
 21
-887.56563466352065
 31
0.0
1001
ACAD
1010
0.0
1020
0.0
1030
0.0
1001
ACDBBLOCKREPETAG
1070
     1
1071
       34
1005
1325E4
  0
LINE
  5
1325E5
  8
SLIM
 10
4000.5261469056582
 20
-984.99999999999875
 30
0.0
 11
4020.52614690566
 21
-964.99999999999875
 31
0.0
1001
ACAD
1010
0.0
1020
0.0
1030
0.0
1001
ACDBBLOCKREPETAG
1070
     1
1071
       35
1005
1325E5
  0
LINE
  5
1325E6
  8
SLIM
 10
4020.52614690566
 20
-964.99999999999875
 30
0.0
 11
4079.9999999999991
 21
-905.52614690565963
 31
0.0
1001
ACAD
1010
0.0
1020
0.0
1030
0.0
1001
ACDBBLOCKREPETAG
1070
     1
1071
       36
1005
1325E6
  0
LINE
  5
1325E7
  8
SLIM
 10
4018.486659147798
 20
-984.99999999999875
 30
0.0
 11
4038.486659147798
 21
-964.99999999999864
 31
0.0
1001
ACAD
1010
0.0
1020
0.0
1030
0.0
1001
ACDBBLOCKREPETAG
1070
     1
1071
       37
1005
1325E7
  0
LINE
  5
1325E8
  8
SLIM
 10
4038.486659147798
 20
-964.99999999999864
 30
0.0
 11
4079.9999999999991
 21
-923.48665914779815
 31
0.0
1001
ACAD
1010
0.0
1020
0.0
1030
0.0
1001
ACDBBLOCKREPETAG
1070
     1
1071
       38
1005
1325E8
  0
LINE
  5
1325E9
  8
SLIM
 10
4036.4471713899361
 20
-984.99999999999875
 30
0.0
 11
4056.4471713899361
 21
-964.99999999999864
 31
0.0
1001
ACAD
1010
0.0
1020
0.0
1030
0.0
1001
ACDBBLOCKREPETAG
1070
     1
1071
       39
1005
1325E9
  0
LINE
  5
1325EA
  8
SLIM
 10
4056.4471713899361
 20
-964.99999999999864
 30
0.0
 11
4079.9999999999991
 21
-941.44717138993633
 31
0.0
1001
ACAD
1010
0.0
1020
0.0
1030
0.0
1001
ACDBBLOCKREPETAG
1070
     1
1071
       40
1005
1325EA
  0
LINE
  5
1325EB
  8
SLIM
 10
4054.4076836320728
 20
-984.99999999999875
 30
0.0
 11
4070.0
 21
-969.40768363207314
 31
0.0
1001
ACAD
1010
0.0
1020
0.0
1030
0.0
1001
ACDBBLOCKREPETAG
1070
     1
1071
       41
1005
1325EB
  0
LINE
  5
1325EC
  8
SLIM
 10
4074.4076836320728
 20
-964.99999999999864
 30
0.0
 11
4079.9999999999991
 21
-959.40768363207519
 31
0.0
1001
ACAD
1010
0.0
1020
0.0
1030
0.0
1001
ACDBBLOCKREPETAG
1070
     1
1071
       42
1005
1325EC
  0
LINE
  5
1325ED
  8
OBJECT
 10
3914.9999999999941
 20
-754.99999999999875
 30
0.0
 11
3914.9999999999968
 21
-799.78460339903359
 31
0.0
1001
ACDBBLOCKREPETAG
1070
     1
1071
        1
1005
1325ED
  0
LINE
  5
1325EE
  8
OBJECT
 10
4085.0000000000068
 20
-754.99999999999875
 30
0.0
 11
4085.0000000000032
 21
-799.78460339904063
 31
0.0
1001
ACDBBLOCKREPETAG
1070
     1
1071
        2
1005
1325EE
  0
LINE
  5
1325EF
  8
OBJECT
 10
4085.0000000000068
 20
-754.99999999999875
 30
0.0
 11
3914.9999999999941
 21
-754.99999999999875
 31
0.0
1001
ACDBBLOCKREPETAG
1070
     1
1071
        3
1005
1325EF
  0
LINE
  5
1325F0
  8
OBJECT
 10
4079.9999999999991
 20
-964.99999999999864
 30
0.0
 11
3920.0
 21
-964.99999999999875
 31
0.0
1001
ACDBBLOCKREPETAG
1070
     1
1071
        4
1005
1325F0
  0
LINE
  5
1325F1
  8
OBJECT
 10
3914.9999999999968
 20
-799.78460339903415
 30
0.0
 11
3920.0
 21
-840.62257748298555
 31
0.0
1001
ACDBBLOCKREPETAG
1070
     1
1071
        6
1005
1325F1
  0
LINE
  5
1325F2
  8
OBJECT
 10
3920.0
 20
-840.62257748298555
 30
0.0
 11
3920.0
 21
-964.99999999999875
 31
0.0
1001
ACDBBLOCKREPETAG
1070
     1
1071
        7
1005
1325F2
  0
LINE
  5
1325F3
  8
OBJECT
 10
4085.0000000000032
 20
-799.78460339904063
 30
0.0
 11
4080.0
 21
-840.62257748298555
 31
0.0
1001
ACDBBLOCKREPETAG
1070
     1
1071
        8
1005
1325F3
  0
LINE
  5
1325F4
  8
OBJECT
 10
4080.0
 20
-840.62257748298555
 30
0.0
 11
4079.9999999999991
 21
-964.99999999999864
 31
0.0
1001
ACDBBLOCKREPETAG
1070
     1
1071
        9
1005
1325F4
  0
LINE
  5
1325F5
  8
OBJECT
 10
3930.0
 20
-964.99999999999875
 30
0.0
 11
3930.0
 21
-984.99999999999875
 31
0.0
1001
ACDBBLOCKREPETAG
1070
     1
1071
       10
1005
1325F5
  0
LINE
  5
1325F6
  8
OBJECT
 10
3930.0
 20
-984.99999999999875
 30
0.0
 11
4070.0
 21
-984.99999999999875
 31
0.0
1001
ACDBBLOCKREPETAG
1070
     1
1071
       11
1005
1325F6
  0
LINE
  5
1325F7
  8
OBJECT
 10
4070.0
 20
-984.99999999999875
 30
0.0
 11
4070.0
 21
-964.99999999999864
 31
0.0
1001
ACDBBLOCKREPETAG
1070
     1
1071
       12
1005
1325F7
  0
LINE
  5
1325F8
  8
OBJECT
 10
3923.0
 20
-570.99999999999955
 30
0.0
 11
3923.0
 21
-549.99999999999955
 31
0.0
1001
ACDBBLOCKREPETAG
1070
     1
1071
       36
1005
1325F8
  0
LINE
  5
1325F9
  8
OBJECT
 10
3923.0
 20
-549.99999999999955
 30
0.0
 11
4077.0
 21
-549.99999999999955
 31
0.0
1001
ACDBBLOCKREPETAG
1070
     1
1071
       37
1005
1325F9
  0
LINE
  5
1325FA
  8
OBJECT
 10
4077.0
 20
-549.99999999999955
 30
0.0
 11
4077.0
 21
-570.99999999999955
 31
0.0
1001
ACDBBLOCKREPETAG
1070
     1
1071
       39
1005
1325FA
  0
LINE
  5
1325FB
  8
OBJECT
 10
4077.0
 20
-570.99999999999955
 30
0.0
 11
4043.6806593356828
 21
-570.99999999999955
 31
0.0
1001
ACDBBLOCKREPETAG
1070
     1
1071
       40
1005
1325FB
  0
LINE
  5
1325FC
  8
OBJECT
 10
3956.3193406643181
 20
-570.99999999999955
 30
0.0
 11
3923.0
 21
-570.99999999999955
 31
0.0
1001
ACDBBLOCKREPETAG
1070
     1
1071
      199
1005
1325FC
  0
LINE
  5
1325FD
  8
CENTER
 10
4000.0
 20
-534.99999999999955
 30
0.0
 11
4000.0
 21
-769.99999999999955
 31
0.0
1001
ACDBBLOCKREPETAG
1070
     1
1071
       41
1005
1325FD
  0
LINE
  5
1325FE
  8
OBJECT
 10
3928.0
 20
-570.99999999999955
 30
0.0
 11
3928.0
 21
-633.99999999999955
 31
0.0
1001
ACDBBLOCKREPETAG
1070
     1
1071
       42
1005
1325FE
  0
LINE
  5
1325FF
  8
OBJECT
 10
4072.0
 20
-633.99999999999955
 30
0.0
 11
4072.0
 21
-570.99999999999955
 31
0.0
1001
ACDBBLOCKREPETAG
1070
     1
1071
       43
1005
1325FF
  0
LINE
  5
132600
  8
OBJECT
 10
3920.0
 20
-757.99999999999955
 30
0.0
 11
4080.0
 21
-757.99999999999955
 31
0.0
1001
ACDBBLOCKREPETAG
1070
     1
1071
       44
1005
132600
  0
LINE
  5
132601
  8
OBJECT
 10
4080.0
 20
-633.99999999999955
 30
0.0
 11
4059.0169467187188
 21
-633.99999999999955
 31
0.0
1001
ACDBBLOCKREPETAG
1070
     1
1071
       45
1005
132601
  0
LINE
  5
132602
  8
OBJECT
 10
3940.9830532812821
 20
-633.99999999999955
 30
0.0
 11
3920.0
 21
-633.99999999999955
 31
0.0
1001
ACDBBLOCKREPETAG
1070
     1
1071
      200
1005
132602
  0
LINE
  5
132603
  8
OBJECT
 10
3920.0
 20
-757.99999999999955
 30
0.0
 11
3920.0
 21
-769.99999999999955
 31
0.0
1001
ACDBBLOCKREPETAG
1070
     1
1071
       46
1005
132603
  0
LINE
  5
132604
  8
OBJECT
 10
3920.0
 20
-769.99999999999955
 30
0.0
 11
4080.0
 21
-769.99999999999955
 31
0.0
1001
ACDBBLOCKREPETAG
1070
     1
1071
       47
1005
132604
  0
LINE
  5
132605
  8
OBJECT
 10
4080.0
 20
-769.99999999999955
 30
0.0
 11
4080.0
 21
-757.99999999999955
 31
0.0
1001
ACDBBLOCKREPETAG
1070
     1
1071
       48
1005
132605
  0
ARC
  5
132606
  8
OBJECT
 10
4200.6872746716726
 20
-749.40809941010718
 30
0.0
 40
170.6350503965856
 50
137.44134459184301
 51
149.91949581337221
1001
ACDBBLOCKREPETAG
1070
     1
1071
       52
1005
132606
  0
ARC
  5
132607
  8
OBJECT
 10
4200.6872746716726
 20
-642.59190058989179
 30
0.0
 40
170.6350503965856
 50
210.08050418662771
 51
222.55865540815699
1001
ACDBBLOCKREPETAG
1070
     1
1071
       53
1005
132607
  0
ARC
  5
132608
  8
OBJECT
 10
3799.3127253283278
 20
-749.40809941010718
 30
0.0
 40
170.6350503965856
 50
30.080504186774089
 51
42.558655408456282
1001
ACDBBLOCKREPETAG
1070
     1
1071
       54
1005
132608
  0
ARC
  5
132609
  8
OBJECT
 10
3799.3127253283278
 20
-642.59190058989179
 30
0.0
 40
170.6350503965856
 50
317.44134459154373
 51
329.91949581322592
1001
ACDBBLOCKREPETAG
1070
     1
1071
       55
1005
132609
  0
POINT
  5
13260A
  8
DOTS
 10
4000.0
 20
-754.99999999999955
 30
0.0
1001
ACDBBLOCKREPETAG
1070
     1
1071
      184
1005
13260A
  0
LINE
  5
13260B
  8
OBJECT
 10
3955.0
 20
-657.64973622427294
 30
0.0
 11
3955.0
 21
-705.81075719270893
 31
0.0
1001
ACDBBLOCKREPETAG
1070
     1
1071
       38
1005
13260B
  0
LINE
  5
13260C
  8
OBJECT
 10
4045.0
 20
-657.64973622427215
 30
0.0
 11
4045.0
 21
-705.81075719270893
 31
0.0
1001
ACDBBLOCKREPETAG
1070
     1
1071
      192
1005
13260C
  0
LINE
  5
13260D
  8
CENTER
 10
3923.0
 20
-615.00000000000045
 30
0.0
 11
4077.0
 21
-615.00000000000045
 31
0.0
1001
ACDBBLOCKREPETAG
1070
     1
1071
      193
1005
13260D
  0
CIRCLE
  5
13260E
  8
OBJECT
 10
4000.0
 20
-615.00000000000045
 30
0.0
 40
62.0
1001
ACDBBLOCKREPETAG
1070
     1
1071
      194
1005
13260E
  0
CIRCLE
  5
13260F
  8
OBJECT
 10
4000.0
 20
-615.00000000000045
 30
0.0
 40
54.0
1001
ACDBBLOCKREPETAG
1070
     1
1071
      195
1005
13260F
  0
CIRCLE
  5
132610
  8
OBJECT
 10
4000.0
 20
-615.00000000000045
 30
0.0
 40
41.5
1001
ACDBBLOCKREPETAG
1070
     1
1071
      196
1005
132610
  0
ARC
  5
132611
  8
OBJECT
 10
4000.0
 20
-695.99999999999955
 30
0.0
 40
62.0
 50
139.21474228615361
 51
40.785257713846391
1001
ACDBBLOCKREPETAG
1070
     1
1071
      197
1005
132611
  0
ARC
  5
132612
  8
OBJECT
 10
4000.0
 20
-705.81075719270893
 30
0.0
 40
45.0
 50
180.0
 51
0.0
1001
ACDBBLOCKREPETAG
1070
     1
1071
      198
1005
132612
  0
LINE
  5
132613
  8
OBJECT
 10
1923.0
 20
-570.99999999999955
 30
0.0
 11
1923.0
 21
-549.99999999999955
 31
0.0
1001
ACDBBLOCKREPETAG
1070
     1
1071
       36
1005
132613
  0
LINE
  5
132614
  8
OBJECT
 10
1923.0
 20
-549.99999999999955
 30
0.0
 11
2077.0
 21
-549.99999999999955
 31
0.0
1001
ACDBBLOCKREPETAG
1070
     1
1071
       37
1005
132614
  0
LINE
  5
132615
  8
OBJECT
 10
2077.0
 20
-549.99999999999955
 30
0.0
 11
2077.0
 21
-570.99999999999955
 31
0.0
1001
ACDBBLOCKREPETAG
1070
     1
1071
       39
1005
132615
  0
LINE
  5
132616
  8
OBJECT
 10
2077.0
 20
-570.99999999999955
 30
0.0
 11
2043.680659335683
 21
-570.99999999999955
 31
0.0
1001
ACDBBLOCKREPETAG
1070
     1
1071
       40
1005
132616
  0
LINE
  5
132617
  8
OBJECT
 10
1956.319340664317
 20
-570.99999999999955
 30
0.0
 11
1923.0
 21
-570.99999999999955
 31
0.0
1001
ACDBBLOCKREPETAG
1070
     1
1071
      199
1005
132617
  0
LINE
  5
132618
  8
CENTER
 10
2000.0
 20
-534.99999999999955
 30
0.0
 11
2000.0
 21
-769.99999999999955
 31
0.0
1001
ACDBBLOCKREPETAG
1070
     1
1071
       41
1005
132618
  0
LINE
  5
132619
  8
OBJECT
 10
1928.0
 20
-570.99999999999955
 30
0.0
 11
1928.0
 21
-633.99999999999955
 31
0.0
1001
ACDBBLOCKREPETAG
1070
     1
1071
       42
1005
132619
  0
LINE
  5
13261A
  8
OBJECT
 10
2072.0
 20
-633.99999999999955
 30
0.0
 11
2072.0
 21
-570.99999999999955
 31
0.0
1001
ACDBBLOCKREPETAG
1070
     1
1071
       43
1005
13261A
  0
LINE
  5
13261B
  8
OBJECT
 10
1920.0
 20
-757.99999999999955
 30
0.0
 11
2080.0
 21
-757.99999999999955
 31
0.0
1001
ACDBBLOCKREPETAG
1070
     1
1071
       44
1005
13261B
  0
LINE
  5
13261C
  8
OBJECT
 10
2080.0
 20
-633.99999999999955
 30
0.0
 11
2059.0169467187188
 21
-633.99999999999955
 31
0.0
1001
ACDBBLOCKREPETAG
1070
     1
1071
       45
1005
13261C
  0
LINE
  5
13261D
  8
OBJECT
 10
1940.9830532812809
 20
-633.99999999999955
 30
0.0
 11
1920.0
 21
-633.99999999999955
 31
0.0
1001
ACDBBLOCKREPETAG
1070
     1
1071
      200
1005
13261D
  0
LINE
  5
13261E
  8
OBJECT
 10
1920.0
 20
-757.99999999999955
 30
0.0
 11
1920.0
 21
-769.99999999999955
 31
0.0
1001
ACDBBLOCKREPETAG
1070
     1
1071
       46
1005
13261E
  0
LINE
  5
13261F
  8
OBJECT
 10
1920.0
 20
-769.99999999999955
 30
0.0
 11
2080.0
 21
-769.99999999999955
 31
0.0
1001
ACDBBLOCKREPETAG
1070
     1
1071
       47
1005
13261F
  0
LINE
  5
132620
  8
OBJECT
 10
2080.0
 20
-769.99999999999955
 30
0.0
 11
2080.0
 21
-757.99999999999955
 31
0.0
1001
ACDBBLOCKREPETAG
1070
     1
1071
       48
1005
132620
  0
ARC
  5
132621
  8
OBJECT
 10
2200.6872746716731
 20
-749.40809941010718
 30
0.0
 40
170.6350503965856
 50
137.44134459184301
 51
149.91949581336559
1001
ACDBBLOCKREPETAG
1070
     1
1071
       52
1005
132621
  0
ARC
  5
132622
  8
OBJECT
 10
2200.6872746716731
 20
-642.59190058989179
 30
0.0
 40
170.6350503965856
 50
210.0805041866343
 51
222.55865540815699
1001
ACDBBLOCKREPETAG
1070
     1
1071
       53
1005
132622
  0
ARC
  5
132623
  8
OBJECT
 10
1799.312725328326
 20
-749.40809941010718
 30
0.0
 40
170.6350503965856
 50
30.080504186774089
 51
42.558655408447443
1001
ACDBBLOCKREPETAG
1070
     1
1071
       54
1005
132623
  0
ARC
  5
132624
  8
OBJECT
 10
1799.312725328326
 20
-642.59190058989179
 30
0.0
 40
170.6350503965856
 50
317.44134459155248
 51
329.91949581322592
1001
ACDBBLOCKREPETAG
1070
     1
1071
       55
1005
132624
  0
POINT
  5
132625
  8
DOTS
 10
2000.0
 20
-754.99999999999955
 30
0.0
1001
ACDBBLOCKREPETAG
1070
     1
1071
      184
1005
132625
  0
LINE
  5
132626
  8
OBJECT
 10
1955.0
 20
-657.64973622427294
 30
0.0
 11
1955.0
 21
-705.81075719270893
 31
0.0
1001
ACDBBLOCKREPETAG
1070
     1
1071
       38
1005
132626
  0
LINE
  5
132627
  8
OBJECT
 10
2045.0
 20
-657.64973622427215
 30
0.0
 11
2045.0
 21
-705.81075719270893
 31
0.0
1001
ACDBBLOCKREPETAG
1070
     1
1071
      192
1005
132627
  0
LINE
  5
132628
  8
CENTER
 10
1923.0
 20
-615.00000000000045
 30
0.0
 11
2077.0
 21
-615.00000000000045
 31
0.0
1001
ACDBBLOCKREPETAG
1070
     1
1071
      193
1005
132628
  0
CIRCLE
  5
132629
  8
OBJECT
 10
2000.0
 20
-615.00000000000045
 30
0.0
 40
62.0
1001
ACDBBLOCKREPETAG
1070
     1
1071
      194
1005
132629
  0
CIRCLE
  5
13262A
  8
OBJECT
 10
2000.0
 20
-615.00000000000045
 30
0.0
 40
54.0
1001
ACDBBLOCKREPETAG
1070
     1
1071
      195
1005
13262A
  0
CIRCLE
  5
13262B
  8
OBJECT
 10
2000.0
 20
-615.00000000000045
 30
0.0
 40
41.5
1001
ACDBBLOCKREPETAG
1070
     1
1071
      196
1005
13262B
  0
ARC
  5
13262C
  8
OBJECT
 10
2000.0
 20
-695.99999999999955
 30
0.0
 40
62.0
 50
139.21474228616211
 51
40.785257713837893
1001
ACDBBLOCKREPETAG
1070
     1
1071
      197
1005
13262C
  0
ARC
  5
13262D
  8
OBJECT
 10
2000.0
 20
-705.81075719270893
 30
0.0
 40
45.0
 50
180.0
 51
0.0
1001
ACDBBLOCKREPETAG
1070
     1
1071
      198
1005
13262D
  0
CIRCLE
  5
13262E
  8
OBJECT
 10
5000.0
 20
-3174.9999999999959
 30
0.0
 40
53.5
1001
ACDBBLOCKREPETAG
1070
     1
1071
      344
1005
13262E
  0
LINE
  5
13262F
  8
CENTER
 10
5080.0
 20
-3174.9999999999959
 30
0.0
 11
4905.0
 21
-3174.9999999999959
 31
0.0
1001
ACDBBLOCKREPETAG
1070
     1
1071
       14
1005
13262F
  0
LINE
  5
132630
  8
CENTER
 10
5000.0
 20
-3269.9999999999959
 30
0.0
 11
5000.0
 21
-3079.9999999999959
 31
0.0
1001
ACDBBLOCKREPETAG
1070
     1
1071
       15
1005
132630
  0
CIRCLE
  5
132631
  8
OBJECT
 10
5000.0
 20
-3174.9999999999959
 30
0.0
 40
70.0
1001
ACDBBLOCKREPETAG
1070
     1
1071
       16
1005
132631
  0
CIRCLE
  5
132632
  8
OBJECT
 10
5000.0
 20
-3174.9999999999959
 30
0.0
 40
77.0
1001
ACDBBLOCKREPETAG
1070
     1
1071
       17
1005
132632
  0
ARC
  5
132633
  8
OBJECT
 10
5000.0
 20
-3174.9999999999959
 30
0.0
 40
80.0
 50
50.805032573882329
 51
309.19496742611773
1001
ACDBBLOCKREPETAG
1070
     1
1071
       18
1005
132633
  0
LINE
  5
132634
  8
OBJECT
 10
5045.6618002273253
 20
-3112.9999999999959
 30
0.0
 11
5080.0
 21
-3112.9999999999959
 31
0.0
1001
ACDBBLOCKREPETAG
1070
     1
1071
       19
1005
132634
  0
LINE
  5
132635
  8
OBJECT
 10
5045.6618002273253
 20
-3236.9999999999959
 30
0.0
 11
5080.0
 21
-3236.9999999999959
 31
0.0
1001
ACDBBLOCKREPETAG
1070
     1
1071
       20
1005
132635
  0
POINT
  5
132636
  8
DOTS
 10
5000.0
 20
-3174.9999999999959
 30
0.0
1001
ACDBBLOCKREPETAG
1070
     1
1071
       21
1005
132636
  0
CIRCLE
  5
132637
  8
OBJECT
 10
4000.0
 20
-3174.9999999999959
 30
0.0
 40
53.5
1001
ACDBBLOCKREPETAG
1070
     1
1071
      344
1005
132637
  0
LINE
  5
132638
  8
CENTER
 10
4080.0
 20
-3174.9999999999959
 30
0.0
 11
3905.0
 21
-3174.9999999999959
 31
0.0
1001
ACDBBLOCKREPETAG
1070
     1
1071
       14
1005
132638
  0
LINE
  5
132639
  8
CENTER
 10
4000.0
 20
-3269.9999999999959
 30
0.0
 11
4000.0
 21
-3079.9999999999959
 31
0.0
1001
ACDBBLOCKREPETAG
1070
     1
1071
       15
1005
132639
  0
CIRCLE
  5
13263A
  8
OBJECT
 10
4000.0
 20
-3174.9999999999959
 30
0.0
 40
70.0
1001
ACDBBLOCKREPETAG
1070
     1
1071
       16
1005
13263A
  0
CIRCLE
  5
13263B
  8
OBJECT
 10
4000.0
 20
-3174.9999999999959
 30
0.0
 40
77.0
1001
ACDBBLOCKREPETAG
1070
     1
1071
       17
1005
13263B
  0
ARC
  5
13263C
  8
OBJECT
 10
4000.0
 20
-3174.9999999999959
 30
0.0
 40
80.0
 50
50.805032573862128
 51
309.19496742613791
1001
ACDBBLOCKREPETAG
1070
     1
1071
       18
1005
13263C
  0
LINE
  5
13263D
  8
OBJECT
 10
4045.661800227324
 20
-3112.9999999999959
 30
0.0
 11
4080.0
 21
-3112.9999999999959
 31
0.0
1001
ACDBBLOCKREPETAG
1070
     1
1071
       19
1005
13263D
  0
LINE
  5
13263E
  8
OBJECT
 10
4045.661800227324
 20
-3236.9999999999959
 30
0.0
 11
4080.0
 21
-3236.9999999999959
 31
0.0
1001
ACDBBLOCKREPETAG
1070
     1
1071
       20
1005
13263E
  0
POINT
  5
13263F
  8
DOTS
 10
4000.0
 20
-3174.9999999999959
 30
0.0
1001
ACDBBLOCKREPETAG
1070
     1
1071
       21
1005
13263F
  0
CIRCLE
  5
132640
  8
OBJECT
 10
3000.0
 20
-3174.9999999999959
 30
0.0
 40
53.5
1001
ACDBBLOCKREPETAG
1070
     1
1071
      344
1005
132640
  0
LINE
  5
132641
  8
CENTER
 10
3080.0
 20
-3174.9999999999959
 30
0.0
 11
2905.0
 21
-3174.9999999999959
 31
0.0
1001
ACDBBLOCKREPETAG
1070
     1
1071
       14
1005
132641
  0
LINE
  5
132642
  8
CENTER
 10
3000.0
 20
-3269.9999999999959
 30
0.0
 11
3000.0
 21
-3079.9999999999959
 31
0.0
1001
ACDBBLOCKREPETAG
1070
     1
1071
       15
1005
132642
  0
CIRCLE
  5
132643
  8
OBJECT
 10
3000.0
 20
-3174.9999999999959
 30
0.0
 40
70.0
1001
ACDBBLOCKREPETAG
1070
     1
1071
       16
1005
132643
  0
CIRCLE
  5
132644
  8
OBJECT
 10
3000.0
 20
-3174.9999999999959
 30
0.0
 40
77.0
1001
ACDBBLOCKREPETAG
1070
     1
1071
       17
1005
132644
  0
ARC
  5
132645
  8
OBJECT
 10
3000.0
 20
-3174.9999999999959
 30
0.0
 40
80.0
 50
50.805032573862128
 51
309.19496742613791
1001
ACDBBLOCKREPETAG
1070
     1
1071
       18
1005
132645
  0
LINE
  5
132646
  8
OBJECT
 10
3045.6618002273249
 20
-3112.9999999999959
 30
0.0
 11
3080.0
 21
-3112.9999999999959
 31
0.0
1001
ACDBBLOCKREPETAG
1070
     1
1071
       19
1005
132646
  0
LINE
  5
132647
  8
OBJECT
 10
3045.6618002273249
 20
-3236.9999999999959
 30
0.0
 11
3080.0
 21
-3236.9999999999959
 31
0.0
1001
ACDBBLOCKREPETAG
1070
     1
1071
       20
1005
132647
  0
POINT
  5
132648
  8
DOTS
 10
3000.0
 20
-3174.9999999999959
 30
0.0
1001
ACDBBLOCKREPETAG
1070
     1
1071
       21
1005
132648
  0
CIRCLE
  5
132649
  8
OBJECT
 10
2000.0
 20
-3174.9999999999959
 30
0.0
 40
53.5
1001
ACDBBLOCKREPETAG
1070
     1
1071
      344
1005
132649
  0
LINE
  5
13264A
  8
CENTER
 10
2080.0
 20
-3174.9999999999959
 30
0.0
 11
1905.0
 21
-3174.9999999999959
 31
0.0
1001
ACDBBLOCKREPETAG
1070
     1
1071
       14
1005
13264A
  0
LINE
  5
13264B
  8
CENTER
 10
2000.0
 20
-3269.9999999999959
 30
0.0
 11
2000.0
 21
-3079.9999999999959
 31
0.0
1001
ACDBBLOCKREPETAG
1070
     1
1071
       15
1005
13264B
  0
CIRCLE
  5
13264C
  8
OBJECT
 10
2000.0
 20
-3174.9999999999959
 30
0.0
 40
70.0
1001
ACDBBLOCKREPETAG
1070
     1
1071
       16
1005
13264C
  0
CIRCLE
  5
13264D
  8
OBJECT
 10
2000.0
 20
-3174.9999999999959
 30
0.0
 40
77.0
1001
ACDBBLOCKREPETAG
1070
     1
1071
       17
1005
13264D
  0
ARC
  5
13264E
  8
OBJECT
 10
2000.0
 20
-3174.9999999999959
 30
0.0
 40
80.0
 50
50.805032573862128
 51
309.19496742613791
1001
ACDBBLOCKREPETAG
1070
     1
1071
       18
1005
13264E
  0
LINE
  5
13264F
  8
OBJECT
 10
2045.6618002273251
 20
-3112.9999999999959
 30
0.0
 11
2080.0
 21
-3112.9999999999959
 31
0.0
1001
ACDBBLOCKREPETAG
1070
     1
1071
       19
1005
13264F
  0
LINE
  5
132650
  8
OBJECT
 10
2045.6618002273251
 20
-3236.9999999999959
 30
0.0
 11
2080.0
 21
-3236.9999999999959
 31
0.0
1001
ACDBBLOCKREPETAG
1070
     1
1071
       20
1005
132650
  0
POINT
  5
132651
  8
DOTS
 10
2000.0
 20
-3174.9999999999959
 30
0.0
1001
ACDBBLOCKREPETAG
1070
     1
1071
       21
1005
132651
  0
LINE
  5
132652
  8
SLIM
 10
3945.2566704261012
 20
-137.99999999999909
 30
0.0
 11
3955.9548403695781
 21
-127.30183005652231
 31
0.0
1001
GRADIENTCOLOR1ACI
1070
     5
1001
GRADIENTCOLOR2ACI
1070
     2
1001
ACAD
1010
0.0
1020
0.0
1030
0.0
1001
ACDBBLOCKREPETAG
1070
     1
1071
      422
1005
132652
  0
LINE
  5
132653
  8
SLIM
 10
3954.2369265471712
 20
-137.99999999999909
 30
0.0
 11
3972.7507744763329
 21
-119.4861520708364
 31
0.0
1001
GRADIENTCOLOR1ACI
1070
     5
1001
GRADIENTCOLOR2ACI
1070
     2
1001
ACAD
1010
0.0
1020
0.0
1030
0.0
1001
ACDBBLOCKREPETAG
1070
     1
1071
      423
1005
132653
  0
LINE
  5
132654
  8
SLIM
 10
3973.521224312457
 20
-127.6959583557812
 30
0.0
 11
3984.8575146748631
 21
-116.359667993377
 31
0.0
1001
GRADIENTCOLOR1ACI
1070
     5
1001
GRADIENTCOLOR2ACI
1070
     2
1001
ACAD
1010
0.0
1020
0.0
1030
0.0
1001
ACDBBLOCKREPETAG
1070
     1
1071
      424
1005
132654
  0
LINE
  5
132655
  8
SLIM
 10
3985.8944171461271
 20
-124.30302164318159
 30
0.0
 11
3995.0533812002559
 21
-115.1440575890517
 31
0.0
1001
GRADIENTCOLOR1ACI
1070
     5
1001
GRADIENTCOLOR2ACI
1070
     2
1001
ACAD
1010
0.0
1020
0.0
1030
0.0
1001
ACDBBLOCKREPETAG
1070
     1
1071
      425
1005
132655
  0
LINE
  5
132656
  8
SLIM
 10
3996.0777327492078
 20
-123.0999621611699
 30
0.0
 11
4000.0
 21
-119.1776949103767
 31
0.0
1001
GRADIENTCOLOR1ACI
1070
     5
1001
GRADIENTCOLOR2ACI
1070
     2
1001
ACAD
1010
0.0
1020
0.0
1030
0.0
1001
ACDBBLOCKREPETAG
1070
     1
1071
      426
1005
132656
  0
LINE
  5
132657
  8
SLIM
 10
4000.0
 20
-119.1776949103767
 30
0.0
 11
4004.0797313529042
 21
-115.0979635574724
 31
0.0
1001
GRADIENTCOLOR1ACI
1070
     5
1001
GRADIENTCOLOR2ACI
1070
     2
1001
ACAD
1010
0.0
1020
0.0
1030
0.0
1001
ACDBBLOCKREPETAG
1070
     1
1071
      427
1005
132657
  0
LINE
  5
132658
  8
SLIM
 10
4004.9957202542769
 20
-123.1622307771683
 30
0.0
 11
4012.2679784105749
 21
-115.88997262087101
 31
0.0
1001
GRADIENTCOLOR1ACI
1070
     5
1001
GRADIENTCOLOR2ACI
1070
     2
1001
ACAD
1010
0.0
1020
0.0
1030
0.0
1001
ACDBBLOCKREPETAG
1070
     1
1071
      428
1005
132658
  0
LINE
  5
132659
  8
SLIM
 10
4013.028059366964
 20
-124.1101477855505
 30
0.0
 11
4019.799941457361
 21
-117.3382656951526
 31
0.0
1001
GRADIENTCOLOR1ACI
1070
     5
1001
GRADIENTCOLOR2ACI
1070
     2
1001
ACAD
1010
0.0
1020
0.0
1030
0.0
1001
ACDBBLOCKREPETAG
1070
     1
1071
      429
1005
132659
  0
LINE
  5
13265A
  8
SLIM
 10
4020.3740813142458
 20
-125.7443819593383
 30
0.0
 11
4026.7872038672799
 21
-119.3312594063044
 31
0.0
1001
GRADIENTCOLOR1ACI
1070
     5
1001
GRADIENTCOLOR2ACI
1070
     2
1001
ACAD
1010
0.0
1020
0.0
1030
0.0
1001
ACDBBLOCKREPETAG
1070
     1
1071
      430
1005
13265A
  0
LINE
  5
13265B
  8
SLIM
 10
4027.1524719988752
 20
-127.946247395778
 30
0.0
 11
4033.3030030760328
 21
-121.7957163186195
 31
0.0
1001
GRADIENTCOLOR1ACI
1070
     5
1001
GRADIENTCOLOR2ACI
1070
     2
1001
ACAD
1010
0.0
1020
0.0
1030
0.0
1001
ACDBBLOCKREPETAG
1070
     1
1071
      431
1005
13265B
  0
LINE
  5
13265C
  8
SLIM
 10
4033.4390986513308
 20
-130.63987686439191
 30
0.0
 11
4039.3973119843781
 21
-124.6816635313439
 31
0.0
1001
GRADIENTCOLOR1ACI
1070
     5
1001
GRADIENTCOLOR2ACI
1070
     2
1001
ACAD
1010
0.0
1020
0.0
1030
0.0
1001
ACDBBLOCKREPETAG
1070
     1
1071
      432
1005
13265C
  0
LINE
  5
13265D
  8
SLIM
 10
4039.284224621797
 20
-133.77500701499321
 30
0.0
 11
4045.1047705343681
 21
-127.95446110242381
 31
0.0
1001
GRADIENTCOLOR1ACI
1070
     5
1001
GRADIENTCOLOR2ACI
1070
     2
1001
ACAD
1010
0.0
1020
0.0
1030
0.0
1001
ACDBBLOCKREPETAG
1070
     1
1071
      433
1005
13265D
  0
LINE
  5
13265E
  8
SLIM
 10
4044.7212801698038
 20
-137.31820758805651
 30
0.0
 11
4050.4491557891961
 21
-131.59033196866449
 31
0.0
1001
GRADIENTCOLOR1ACI
1070
     5
1001
GRADIENTCOLOR2ACI
1070
     2
1001
ACAD
1010
0.0
1020
0.0
1030
0.0
1001
ACDBBLOCKREPETAG
1070
     1
1071
      434
1005
13265E
  0
LINE
  5
13265F
  8
SLIM
 10
4053.0197438789291
 20
-137.99999999999909
 30
0.0
 11
4055.4459941864038
 21
-135.57374969252561
 31
0.0
1001
GRADIENTCOLOR1ACI
1070
     5
1001
GRADIENTCOLOR2ACI
1070
     2
1001
ACAD
1010
0.0
1020
0.0
1030
0.0
1001
ACDBBLOCKREPETAG
1070
     1
1071
      435
1005
13265F
  0
LINE
  5
132660
  8
CENTER
 10
4000.0
 20
-279.99999999999909
 30
0.0
 11
4000.0
 21
-99.999999999999091
 31
0.0
1001
ACDBBLOCKREPETAG
1070
     1
1071
      160
1005
132660
  0
CIRCLE
  5
132661
  8
OBJECT
 10
4000.0
 20
-199.99999999999909
 30
0.0
 40
70.0
1001
ACDBBLOCKREPETAG
1070
     1
1071
      161
1005
132661
  0
CIRCLE
  5
132662
  8
OBJECT
 10
4000.0
 20
-199.99999999999909
 30
0.0
 40
77.0
1001
ACDBBLOCKREPETAG
1070
     1
1071
      162
1005
132662
  0
LINE
  5
132663
  8
OBJECT
 10
4045.661800227324
 20
-137.99999999999909
 30
0.0
 11
4080.0
 21
-137.99999999999909
 31
0.0
1001
ACDBBLOCKREPETAG
1070
     1
1071
      164
1005
132663
  0
LINE
  5
132664
  8
OBJECT
 10
4062.0
 20
-261.99999999999909
 30
0.0
 11
4080.0
 21
-261.99999999999909
 31
0.0
1001
ACDBBLOCKREPETAG
1070
     1
1071
      165
1005
132664
  0
LINE
  5
132665
  8
OBJECT
 10
4062.0
 20
-261.99999999999909
 30
0.0
 11
4062.0
 21
-279.99999999999909
 31
0.0
1001
ACDBBLOCKREPETAG
1070
     1
1071
      167
1005
132665
  0
LINE
  5
132666
  8
OBJECT
 10
3938.0
 20
-261.99999999999909
 30
0.0
 11
3938.0
 21
-279.99999999999909
 31
0.0
1001
ACDBBLOCKREPETAG
1070
     1
1071
      168
1005
132666
  0
LINE
  5
132667
  8
OBJECT
 10
3938.0
 20
-261.99999999999909
 30
0.0
 11
3920.0
 21
-261.99999999999909
 31
0.0
1001
ACDBBLOCKREPETAG
1070
     1
1071
      170
1005
132667
  0
LINE
  5
132668
  8
OBJECT
 10
3954.338199772676
 20
-137.99999999999909
 30
0.0
 11
3920.0
 21
-137.99999999999909
 31
0.0
1001
ACDBBLOCKREPETAG
1070
     1
1071
      171
1005
132668
  0
LINE
  5
132669
  8
OBJECT
 10
3945.5527778486362
 20
-254.44722215136329
 30
0.0
 11
3938.0
 21
-261.99999999999909
 31
0.0
1001
ACDBBLOCKREPETAG
1070
     1
1071
      180
1005
132669
  0
LINE
  5
13266A
  8
OBJECT
 10
4054.4472221513638
 20
-254.44722215136329
 30
0.0
 11
4062.0
 21
-261.99999999999909
 31
0.0
1001
ACDBBLOCKREPETAG
1070
     1
1071
      181
1005
13266A
  0
POINT
  5
13266B
  8
DOTS
 10
4000.0
 20
-199.99999999999909
 30
0.0
 50
270.0
1001
ACDBBLOCKREPETAG
1070
     1
1071
      182
1005
13266B
  0
ARC
  5
13266C
  8
OBJECT
 10
4000.0
 20
-199.99999999999909
 30
0.0
 40
85.0
 50
46.837102859806208
 51
133.16289714019371
1001
ACDBBLOCKREPETAG
1070
     1
1071
      183
1005
13266C
  0
CIRCLE
  5
13266D
  8
OBJECT
 10
4000.0
 20
-199.99999999999909
 30
0.0
 40
53.5
1001
ACDBBLOCKREPETAG
1070
     1
1071
      352
1005
13266D
  0
LINE
  5
13266E
  8
CENTER
 10
4080.0
 20
-199.99999999999909
 30
0.0
 11
3920.0
 21
-199.99999999999909
 31
0.0
1001
ACDBBLOCKREPETAG
1070
     1
1071
      158
1005
13266E
  0
CIRCLE
  5
13266F
  8
OBJECT
 10
2000.0
 20
-199.99999999999909
 30
0.0
 40
53.5
1001
ACDBBLOCKREPETAG
1070
     1
1071
      340
1005
13266F
  0
LINE
  5
132670
  8
CENTER
 10
2080.0
 20
-199.99999999999909
 30
0.0
 11
1920.0
 21
-199.99999999999909
 31
0.0
1001
ACDBBLOCKREPETAG
1070
     1
1071
       49
1005
132670
  0
LINE
  5
132671
  8
CENTER
 10
2000.0
 20
-279.99999999999909
 30
0.0
 11
2000.0
 21
-104.9999999999991
 31
0.0
1001
ACDBBLOCKREPETAG
1070
     1
1071
       50
1005
132671
  0
CIRCLE
  5
132672
  8
OBJECT
 10
2000.0
 20
-199.99999999999909
 30
0.0
 40
70.0
1001
ACDBBLOCKREPETAG
1070
     1
1071
       51
1005
132672
  0
CIRCLE
  5
132673
  8
OBJECT
 10
2000.0
 20
-199.99999999999909
 30
0.0
 40
77.0
1001
ACDBBLOCKREPETAG
1070
     1
1071
       52
1005
132673
  0
ARC
  5
132674
  8
OBJECT
 10
2000.0
 20
-199.99999999999909
 30
0.0
 40
80.0
 50
50.805032573864182
 51
129.1949674261358
1001
ACDBBLOCKREPETAG
1070
     1
1071
       53
1005
132674
  0
LINE
  5
132675
  8
OBJECT
 10
2045.6618002273251
 20
-137.99999999999909
 30
0.0
 11
2080.0
 21
-137.99999999999909
 31
0.0
1001
ACDBBLOCKREPETAG
1070
     1
1071
       54
1005
132675
  0
LINE
  5
132676
  8
OBJECT
 10
2062.0
 20
-261.99999999999909
 30
0.0
 11
2080.0
 21
-261.99999999999909
 31
0.0
1001
ACDBBLOCKREPETAG
1070
     1
1071
       55
1005
132676
  0
LINE
  5
132677
  8
OBJECT
 10
2062.0
 20
-261.99999999999909
 30
0.0
 11
2062.0
 21
-279.99999999999909
 31
0.0
1001
ACDBBLOCKREPETAG
1070
     1
1071
       57
1005
132677
  0
LINE
  5
132678
  8
OBJECT
 10
1938.0
 20
-261.99999999999909
 30
0.0
 11
1938.0
 21
-279.99999999999909
 31
0.0
1001
ACDBBLOCKREPETAG
1070
     1
1071
       58
1005
132678
  0
POINT
  5
132679
  8
DOTS
 10
2000.0
 20
-199.99999999999909
 30
0.0
 50
90.0
1001
ACDBBLOCKREPETAG
1070
     1
1071
       59
1005
132679
  0
LINE
  5
13267A
  8
OBJECT
 10
1938.0
 20
-261.99999999999909
 30
0.0
 11
1920.0
 21
-261.99999999999909
 31
0.0
1001
ACDBBLOCKREPETAG
1070
     1
1071
       60
1005
13267A
  0
LINE
  5
13267B
  8
OBJECT
 10
1954.3381997726749
 20
-137.99999999999909
 30
0.0
 11
1920.0
 21
-137.99999999999909
 31
0.0
1001
ACDBBLOCKREPETAG
1070
     1
1071
       61
1005
13267B
  0
LINE
  5
13267C
  8
OBJECT
 10
1945.5527778486351
 20
-254.44722215136329
 30
0.0
 11
1938.0
 21
-261.99999999999909
 31
0.0
1001
ACDBBLOCKREPETAG
1070
     1
1071
       42
1005
13267C
  0
LINE
  5
13267D
  8
OBJECT
 10
2054.4472221513638
 20
-254.44722215136329
 30
0.0
 11
2062.0
 21
-261.99999999999909
 31
0.0
1001
ACDBBLOCKREPETAG
1070
     1
1071
       43
1005
13267D
  0
LINE
  5
13267E
  8
CENTER
 10
3899.0
 20
-199.99999999999909
 30
0.0
 11
3920.0
 21
-199.99999999999909
 31
0.0
1001
ACDBBLOCKREPETAG
1070
     1
1071
        0
1005
13267E
  0
LINE
  5
13267F
  8
OBJECT
 10
3917.0
 20
-261.99999999999909
 30
0.0
 11
3920.0
 21
-261.99999999999909
 31
0.0
1001
ACDBBLOCKREPETAG
1070
     1
1071
        1
1005
13267F
  0
ARC
  5
132680
  8
OBJECT
 10
3917.0
 20
-258.99999999999909
 30
0.0
 40
3.0
 50
180.0
 51
270.0
1001
ACDBBLOCKREPETAG
1070
     1
1071
        2
1005
132680
  0
LINE
  5
132681
  8
OBJECT
 10
3920.0
 20
-137.99999999999909
 30
0.0
 11
3917.0
 21
-137.99999999999909
 31
0.0
1001
ACDBBLOCKREPETAG
1070
     1
1071
        3
1005
132681
  0
ARC
  5
132682
  8
OBJECT
 10
3917.0
 20
-140.99999999999909
 30
0.0
 40
3.0
 50
90.0
 51
180.0
1001
ACDBBLOCKREPETAG
1070
     1
1071
        4
1005
132682
  0
LINE
  5
132683
  8
OBJECT
 10
3914.0
 20
-140.99999999999909
 30
0.0
 11
3914.0
 21
-258.99999999999909
 31
0.0
1001
ACDBBLOCKREPETAG
1070
     1
1071
        5
1005
132683
  0
LINE
  5
132684
  8
OBJECT
 10
4061.9999999999959
 20
-412.99999999998641
 30
0.0
 11
4061.9999999999959
 21
-419.9999999999863
 31
0.0
1001
ACDBBLOCKREPETAG
1070
     1
1071
      110
1005
132684
  0
LINE
  5
132685
  8
OBJECT
 10
4061.9999999999959
 20
-419.9999999999863
 30
0.0
 11
3937.9999999999968
 21
-419.99999999998448
 31
0.0
1001
ACDBBLOCKREPETAG
1070
     1
1071
      111
1005
132685
  0
LINE
  5
132686
  8
OBJECT
 10
3937.9999999999968
 20
-419.99999999998448
 30
0.0
 11
3937.9999999999968
 21
-412.99999999998448
 31
0.0
1001
ACDBBLOCKREPETAG
1070
     1
1071
      112
1005
132686
  0
LINE
  5
132687
  8
OBJECT
 10
3937.9999999999968
 20
-412.99999999998448
 30
0.0
 11
4061.9999999999959
 21
-412.99999999998641
 31
0.0
1001
ACDBBLOCKREPETAG
1070
     1
1071
      113
1005
132687
  0
LINE
  5
132688
  8
CENTER
 10
3999.9999999999959
 20
-434.99999999998448
 30
0.0
 11
4000.0
 21
-280.00000000000267
 31
0.0
1001
ACDBBLOCKREPETAG
1070
     1
1071
      114
1005
132688
  0
LINE
  5
132689
  8
OBJECT
 10
3954.9999999999932
 20
-359.99997496418558
 30
0.0
 11
3955.0
 21
-285.99999999999733
 31
0.0
1001
ACDBBLOCKREPETAG
1070
     1
1071
      115
1005
132689
  0
LINE
  5
13268A
  8
OBJECT
 10
4044.9999999999968
 20
-359.99997496418752
 30
0.0
 11
4045.0
 21
-286.00000000000091
 31
0.0
1001
ACDBBLOCKREPETAG
1070
     1
1071
      116
1005
13268A
  0
LINE
  5
13268B
  8
OBJECT
 10
4058.9999999999959
 20
-412.99999999998641
 30
0.0
 11
4058.9999999999959
 21
-376.99999999998641
 31
0.0
1001
ACDBBLOCKREPETAG
1070
     1
1071
      117
1005
13268B
  0
LINE
  5
13268C
  8
OBJECT
 10
4058.9999999999959
 20
-376.99999999998641
 30
0.0
 11
3940.9999999999959
 21
-376.99999999998448
 31
0.0
1001
ACDBBLOCKREPETAG
1070
     1
1071
      118
1005
13268C
  0
LINE
  5
13268D
  8
OBJECT
 10
3940.9999999999959
 20
-376.99999999998448
 30
0.0
 11
3940.9999999999959
 21
-412.99999999998448
 31
0.0
1001
ACDBBLOCKREPETAG
1070
     1
1071
      119
1005
13268D
  0
LINE
  5
13268E
  8
OBJECT
 10
4054.4999999999959
 20
-372.99999999998641
 30
0.0
 11
4054.4999999999959
 21
-359.99999999998641
 31
0.0
1001
ACDBBLOCKREPETAG
1070
     1
1071
      120
1005
13268E
  0
LINE
  5
13268F
  8
OBJECT
 10
3945.4999999999959
 20
-359.99999999998448
 30
0.0
 11
3945.4999999999959
 21
-372.99999999998448
 31
0.0
1001
ACDBBLOCKREPETAG
1070
     1
1071
      121
1005
13268F
  0
LINE
  5
132690
  8
OBJECT
 10
3945.4999999999959
 20
-372.99999999998448
 30
0.0
 11
4054.4999999999959
 21
-372.99999999998641
 31
0.0
1001
ACDBBLOCKREPETAG
1070
     1
1071
      122
1005
132690
  0
LINE
  5
132691
  8
OBJECT
 10
4058.9999999999959
 20
-376.99999999998641
 30
0.0
 11
4054.4999999999959
 21
-372.99999999998641
 31
0.0
1001
ACDBBLOCKREPETAG
1070
     1
1071
      123
1005
132691
  0
LINE
  5
132692
  8
OBJECT
 10
3940.9999999999959
 20
-376.99999999998448
 30
0.0
 11
3945.4999999999959
 21
-372.99999999998448
 31
0.0
1001
ACDBBLOCKREPETAG
1070
     1
1071
      124
1005
132692
  0
LINE
  5
132693
  8
OBJECT
 10
4062.0
 20
-283.00000000000182
 30
0.0
 11
4062.0
 21
-280.00000000000091
 31
0.0
1001
ACDBBLOCKREPETAG
1070
     1
1071
      125
1005
132693
  0
ARC
  5
132694
  8
OBJECT
 10
4059.0
 20
-283.0000000000008
 30
0.0
 40
3.0
 50
270.0
 51
0.0
1001
ACDBBLOCKREPETAG
1070
     1
1071
      126
1005
132694
  0
LINE
  5
132695
  8
OBJECT
 10
3938.0
 20
-279.99999999999909
 30
0.0
 11
3938.0
 21
-282.99999999999733
 31
0.0
1001
ACDBBLOCKREPETAG
1070
     1
1071
      127
1005
132695
  0
ARC
  5
132696
  8
OBJECT
 10
3941.0
 20
-282.99999999999733
 30
0.0
 40
3.0
 50
180.0
 51
270.0
1001
ACDBBLOCKREPETAG
1070
     1
1071
      128
1005
132696
  0
LINE
  5
132697
  8
OBJECT
 10
3941.0
 20
-285.99999999999733
 30
0.0
 11
3977.5500556793631
 21
-285.99999999999898
 31
0.0
1001
ACDBBLOCKREPETAG
1070
     1
1071
      129
1005
132697
  0
LINE
  5
132698
  8
OBJECT
 10
4022.44994432064
 20
-286.00000000000091
 30
0.0
 11
4059.0
 21
-286.00000000000091
 31
0.0
1001
ACDBBLOCKREPETAG
1070
     1
1071
      130
1005
132698
  0
LINE
  5
132699
  8
HIDDEN
 10
4044.499999999995
 20
-367.99999999998641
 30
0.0
 11
3955.4999999999968
 21
-367.9999999999846
 31
0.0
1001
ACDBBLOCKREPETAG
1070
     1
1071
      131
1005
132699
  0
LINE
  5
13269A
  8
OBJECT
 10
3945.5000490761859
 20
-359.99997496418558
 30
0.0
 11
4054.500049076184
 21
-359.99997496418752
 31
0.0
1001
ACDBBLOCKREPETAG
1070
     1
1071
      133
1005
13269A
  0
ARC
  5
13269B
  8
OBJECT
 10
4000.0
 20
-325.00000000000267
 30
0.0
 40
45.000000000000547
 50
0.0
 51
180.0
1001
ACDBBLOCKREPETAG
1070
     1
1071
      134
1005
13269B
  0
LINE
  5
13269C
  8
OBJECT
 10
4133.0
 20
-137.99999999999909
 30
0.0
 11
4140.0
 21
-137.99999999999909
 31
0.0
1001
ACDBBLOCKREPETAG
1070
     1
1071
       47
1005
13269C
  0
LINE
  5
13269D
  8
OBJECT
 10
4140.0
 20
-137.99999999999909
 30
0.0
 11
4140.0
 21
-261.99999999999909
 31
0.0
1001
ACDBBLOCKREPETAG
1070
     1
1071
       48
1005
13269D
  0
LINE
  5
13269E
  8
OBJECT
 10
4140.0
 20
-261.99999999999909
 30
0.0
 11
4133.0
 21
-261.99999999999909
 31
0.0
1001
ACDBBLOCKREPETAG
1070
     1
1071
       49
1005
13269E
  0
LINE
  5
13269F
  8
OBJECT
 10
4133.0
 20
-261.99999999999909
 30
0.0
 11
4133.0
 21
-137.99999999999909
 31
0.0
1001
ACDBBLOCKREPETAG
1070
     1
1071
       50
1005
13269F
  0
LINE
  5
1326A0
  8
CENTER
 10
4155.0
 20
-199.99999999999909
 30
0.0
 11
4080.0
 21
-199.99999999999909
 31
0.0
1001
ACDBBLOCKREPETAG
1070
     1
1071
       51
1005
1326A0
  0
LINE
  5
1326A1
  8
OBJECT
 10
4133.0
 20
-140.99999999999909
 30
0.0
 11
4097.0
 21
-140.99999999999909
 31
0.0
1001
ACDBBLOCKREPETAG
1070
     1
1071
       52
1005
1326A1
  0
LINE
  5
1326A2
  8
OBJECT
 10
4097.0
 20
-140.99999999999909
 30
0.0
 11
4097.0
 21
-258.99999999999909
 31
0.0
1001
ACDBBLOCKREPETAG
1070
     1
1071
       53
1005
1326A2
  0
LINE
  5
1326A3
  8
OBJECT
 10
4097.0
 20
-258.99999999999909
 30
0.0
 11
4133.0
 21
-258.99999999999909
 31
0.0
1001
ACDBBLOCKREPETAG
1070
     1
1071
       54
1005
1326A3
  0
LINE
  5
1326A4
  8
OBJECT
 10
4093.0
 20
-145.49999999999909
 30
0.0
 11
4086.0
 21
-145.49999999999909
 31
0.0
1001
ACDBBLOCKREPETAG
1070
     1
1071
       55
1005
1326A4
  0
LINE
  5
1326A5
  8
OBJECT
 10
4086.0
 20
-254.49999999999909
 30
0.0
 11
4093.0
 21
-254.49999999999909
 31
0.0
1001
ACDBBLOCKREPETAG
1070
     1
1071
       56
1005
1326A5
  0
LINE
  5
1326A6
  8
OBJECT
 10
4093.0
 20
-254.49999999999909
 30
0.0
 11
4093.0
 21
-145.49999999999909
 31
0.0
1001
ACDBBLOCKREPETAG
1070
     1
1071
       57
1005
1326A6
  0
LINE
  5
1326A7
  8
OBJECT
 10
4097.0
 20
-140.99999999999909
 30
0.0
 11
4093.0
 21
-145.49999999999909
 31
0.0
1001
ACDBBLOCKREPETAG
1070
     1
1071
       58
1005
1326A7
  0
LINE
  5
1326A8
  8
OBJECT
 10
4097.0
 20
-258.99999999999909
 30
0.0
 11
4093.0
 21
-254.49999999999909
 31
0.0
1001
ACDBBLOCKREPETAG
1070
     1
1071
       59
1005
1326A8
  0
LINE
  5
1326A9
  8
OBJECT
 10
4083.0
 20
-137.99999999999909
 30
0.0
 11
4080.0
 21
-137.99999999999909
 31
0.0
1001
ACDBBLOCKREPETAG
1070
     1
1071
       60
1005
1326A9
  0
ARC
  5
1326AA
  8
OBJECT
 10
4083.0
 20
-140.99999999999909
 30
0.0
 40
3.0
 50
0.0
 51
90.0
1001
ACDBBLOCKREPETAG
1070
     1
1071
       61
1005
1326AA
  0
LINE
  5
1326AB
  8
OBJECT
 10
4080.0
 20
-261.99999999999909
 30
0.0
 11
4083.0
 21
-261.99999999999909
 31
0.0
1001
ACDBBLOCKREPETAG
1070
     1
1071
       62
1005
1326AB
  0
ARC
  5
1326AC
  8
OBJECT
 10
4083.0
 20
-258.99999999999909
 30
0.0
 40
3.0
 50
270.0
 51
0.0
1001
ACDBBLOCKREPETAG
1070
     1
1071
       63
1005
1326AC
  0
LINE
  5
1326AD
  8
OBJECT
 10
4086.0
 20
-258.99999999999909
 30
0.0
 11
4086.0
 21
-140.99999999999909
 31
0.0
1001
ACDBBLOCKREPETAG
1070
     1
1071
       64
1005
1326AD
  0
LINE
  5
1326AE
  8
HIDDEN
 10
4088.0
 20
-155.49999999999909
 30
0.0
 11
4088.0
 21
-244.49999999999909
 31
0.0
1001
ACDBBLOCKREPETAG
1070
     1
1071
       65
1005
1326AE
  0
LINE
  5
1326AF
  8
OBJECT
 10
3917.0
 20
-634.0
 30
0.0
 11
3920.0
 21
-634.0
 31
0.0
1001
ACDBBLOCKREPETAG
1070
     1
1071
        1
1005
1326AF
  0
ARC
  5
1326B0
  8
OBJECT
 10
3917.0
 20
-637.0
 30
0.0
 40
3.0
 50
90.0
 51
180.0
1001
ACDBBLOCKREPETAG
1070
     1
1071
        2
1005
1326B0
  0
LINE
  5
1326B1
  8
OBJECT
 10
3920.0
 20
-758.0
 30
0.0
 11
3917.0
 21
-758.0
 31
0.0
1001
ACDBBLOCKREPETAG
1070
     1
1071
        3
1005
1326B1
  0
ARC
  5
1326B2
  8
OBJECT
 10
3917.0
 20
-755.0
 30
0.0
 40
3.0
 50
180.0
 51
270.0
1001
ACDBBLOCKREPETAG
1070
     1
1071
        4
1005
1326B2
  0
LINE
  5
1326B3
  8
OBJECT
 10
3914.0
 20
-755.0
 30
0.0
 11
3914.0
 21
-637.0
 31
0.0
1001
ACDBBLOCKREPETAG
1070
     1
1071
        5
1005
1326B3
  0
LINE
  5
1326B4
  8
OBJECT
 10
4133.0
 20
-634.0
 30
0.0
 11
4140.0
 21
-634.0
 31
0.0
1001
ACDBBLOCKREPETAG
1070
     1
1071
       45
1005
1326B4
  0
LINE
  5
1326B5
  8
OBJECT
 10
4140.0
 20
-634.0
 30
0.0
 11
4140.0
 21
-755.0
 31
0.0
1001
ACDBBLOCKREPETAG
1070
     1
1071
       46
1005
1326B5
  0
LINE
  5
1326B6
  8
OBJECT
 10
4133.0
 20
-755.0
 30
0.0
 11
4133.0
 21
-634.0
 31
0.0
1001
ACDBBLOCKREPETAG
1070
     1
1071
       47
1005
1326B6
  0
LINE
  5
1326B7
  8
CENTER
 10
4155.0
 20
-696.0
 30
0.0
 11
4071.0
 21
-696.0
 31
0.0
1001
ACDBBLOCKREPETAG
1070
     1
1071
       48
1005
1326B7
  0
LINE
  5
1326B8
  8
OBJECT
 10
4133.0
 20
-637.0
 30
0.0
 11
4097.0
 21
-637.0
 31
0.0
1001
ACDBBLOCKREPETAG
1070
     1
1071
       49
1005
1326B8
  0
LINE
  5
1326B9
  8
OBJECT
 10
4097.0
 20
-637.0
 30
0.0
 11
4097.0
 21
-755.0
 31
0.0
1001
ACDBBLOCKREPETAG
1070
     1
1071
       50
1005
1326B9
  0
LINE
  5
1326BA
  8
OBJECT
 10
4097.0
 20
-755.0
 30
0.0
 11
4140.0
 21
-755.0
 31
0.0
1001
ACDBBLOCKREPETAG
1070
     1
1071
       51
1005
1326BA
  0
LINE
  5
1326BB
  8
OBJECT
 10
4093.0
 20
-641.5
 30
0.0
 11
4086.0
 21
-641.5
 31
0.0
1001
ACDBBLOCKREPETAG
1070
     1
1071
       52
1005
1326BB
  0
LINE
  5
1326BC
  8
OBJECT
 10
4086.0
 20
-750.49999999999989
 30
0.0
 11
4093.0
 21
-750.49999999999989
 31
0.0
1001
ACDBBLOCKREPETAG
1070
     1
1071
       53
1005
1326BC
  0
LINE
  5
1326BD
  8
OBJECT
 10
4093.0
 20
-750.49999999999989
 30
0.0
 11
4093.0
 21
-641.5
 31
0.0
1001
ACDBBLOCKREPETAG
1070
     1
1071
       54
1005
1326BD
  0
LINE
  5
1326BE
  8
OBJECT
 10
4097.0
 20
-637.0
 30
0.0
 11
4093.0
 21
-641.5
 31
0.0
1001
ACDBBLOCKREPETAG
1070
     1
1071
       55
1005
1326BE
  0
LINE
  5
1326BF
  8
OBJECT
 10
4097.0
 20
-755.0
 30
0.0
 11
4093.0
 21
-750.49999999999989
 31
0.0
1001
ACDBBLOCKREPETAG
1070
     1
1071
       56
1005
1326BF
  0
LINE
  5
1326C0
  8
OBJECT
 10
4083.0
 20
-634.0
 30
0.0
 11
4080.0
 21
-634.0
 31
0.0
1001
ACDBBLOCKREPETAG
1070
     1
1071
       57
1005
1326C0
  0
ARC
  5
1326C1
  8
OBJECT
 10
4083.0
 20
-637.0
 30
0.0
 40
3.0
 50
0.0
 51
90.0
1001
ACDBBLOCKREPETAG
1070
     1
1071
       58
1005
1326C1
  0
LINE
  5
1326C2
  8
OBJECT
 10
4080.0
 20
-758.0
 30
0.0
 11
4083.0
 21
-758.0
 31
0.0
1001
ACDBBLOCKREPETAG
1070
     1
1071
       59
1005
1326C2
  0
ARC
  5
1326C3
  8
OBJECT
 10
4083.0
 20
-755.0
 30
0.0
 40
3.0
 50
270.0
 51
0.0
1001
ACDBBLOCKREPETAG
1070
     1
1071
       60
1005
1326C3
  0
LINE
  5
1326C4
  8
OBJECT
 10
4086.0
 20
-755.0
 30
0.0
 11
4086.0
 21
-637.0
 31
0.0
1001
ACDBBLOCKREPETAG
1070
     1
1071
       61
1005
1326C4
  0
LINE
  5
1326C5
  8
HIDDEN
 10
4088.0
 20
-651.5
 30
0.0
 11
4088.0
 21
-740.5
 31
0.0
1001
ACDBBLOCKREPETAG
1070
     1
1071
       63
1005
1326C5
  0
LINE
  5
1326C6
  8
CENTER
 10
1899.0
 20
-199.99999999999909
 30
0.0
 11
1920.0
 21
-199.99999999999909
 31
0.0
1001
ACDBBLOCKREPETAG
1070
     1
1071
        0
1005
1326C6
  0
LINE
  5
1326C7
  8
OBJECT
 10
1917.0
 20
-261.99999999999909
 30
0.0
 11
1920.0
 21
-261.99999999999909
 31
0.0
1001
ACDBBLOCKREPETAG
1070
     1
1071
        1
1005
1326C7
  0
ARC
  5
1326C8
  8
OBJECT
 10
1917.0
 20
-258.99999999999909
 30
0.0
 40
3.0
 50
180.0
 51
270.0
1001
ACDBBLOCKREPETAG
1070
     1
1071
        2
1005
1326C8
  0
LINE
  5
1326C9
  8
OBJECT
 10
1920.0
 20
-137.99999999999909
 30
0.0
 11
1917.0
 21
-137.99999999999909
 31
0.0
1001
ACDBBLOCKREPETAG
1070
     1
1071
        3
1005
1326C9
  0
ARC
  5
1326CA
  8
OBJECT
 10
1917.0
 20
-140.99999999999909
 30
0.0
 40
3.0
 50
90.0
 51
180.0
1001
ACDBBLOCKREPETAG
1070
     1
1071
        4
1005
1326CA
  0
LINE
  5
1326CB
  8
OBJECT
 10
1914.0
 20
-140.99999999999909
 30
0.0
 11
1914.0
 21
-258.99999999999909
 31
0.0
1001
ACDBBLOCKREPETAG
1070
     1
1071
        5
1005
1326CB
  0
LINE
  5
1326CC
  8
OBJECT
 10
2061.9999999999968
 20
-412.99999999998641
 30
0.0
 11
2061.9999999999968
 21
-419.9999999999863
 31
0.0
1001
ACDBBLOCKREPETAG
1070
     1
1071
      110
1005
1326CC
  0
LINE
  5
1326CD
  8
OBJECT
 10
2061.9999999999968
 20
-419.9999999999863
 30
0.0
 11
1937.9999999999959
 21
-419.99999999998448
 31
0.0
1001
ACDBBLOCKREPETAG
1070
     1
1071
      111
1005
1326CD
  0
LINE
  5
1326CE
  8
OBJECT
 10
1937.9999999999959
 20
-419.99999999998448
 30
0.0
 11
1937.9999999999959
 21
-412.99999999998448
 31
0.0
1001
ACDBBLOCKREPETAG
1070
     1
1071
      112
1005
1326CE
  0
LINE
  5
1326CF
  8
OBJECT
 10
1937.9999999999959
 20
-412.99999999998448
 30
0.0
 11
2061.9999999999968
 21
-412.99999999998641
 31
0.0
1001
ACDBBLOCKREPETAG
1070
     1
1071
      113
1005
1326CF
  0
LINE
  5
1326D0
  8
CENTER
 10
1999.9999999999959
 20
-434.99999999998448
 30
0.0
 11
2000.0
 21
-280.00000000000267
 31
0.0
1001
ACDBBLOCKREPETAG
1070
     1
1071
      114
1005
1326D0
  0
LINE
  5
1326D1
  8
OBJECT
 10
1954.999999999992
 20
-359.99997496418558
 30
0.0
 11
1955.0
 21
-285.99999999999733
 31
0.0
1001
ACDBBLOCKREPETAG
1070
     1
1071
      115
1005
1326D1
  0
LINE
  5
1326D2
  8
OBJECT
 10
2044.9999999999959
 20
-359.99997496418752
 30
0.0
 11
2045.0
 21
-286.00000000000091
 31
0.0
1001
ACDBBLOCKREPETAG
1070
     1
1071
      116
1005
1326D2
  0
LINE
  5
1326D3
  8
OBJECT
 10
2058.9999999999968
 20
-412.99999999998641
 30
0.0
 11
2058.9999999999968
 21
-376.99999999998641
 31
0.0
1001
ACDBBLOCKREPETAG
1070
     1
1071
      117
1005
1326D3
  0
LINE
  5
1326D4
  8
OBJECT
 10
2058.9999999999968
 20
-376.99999999998641
 30
0.0
 11
1940.9999999999959
 21
-376.99999999998448
 31
0.0
1001
ACDBBLOCKREPETAG
1070
     1
1071
      118
1005
1326D4
  0
LINE
  5
1326D5
  8
OBJECT
 10
1940.9999999999959
 20
-376.99999999998448
 30
0.0
 11
1940.9999999999959
 21
-412.99999999998448
 31
0.0
1001
ACDBBLOCKREPETAG
1070
     1
1071
      119
1005
1326D5
  0
LINE
  5
1326D6
  8
OBJECT
 10
2054.4999999999959
 20
-372.99999999998641
 30
0.0
 11
2054.4999999999959
 21
-359.99999999998641
 31
0.0
1001
ACDBBLOCKREPETAG
1070
     1
1071
      120
1005
1326D6
  0
LINE
  5
1326D7
  8
OBJECT
 10
1945.4999999999959
 20
-359.99999999998448
 30
0.0
 11
1945.4999999999959
 21
-372.99999999998448
 31
0.0
1001
ACDBBLOCKREPETAG
1070
     1
1071
      121
1005
1326D7
  0
LINE
  5
1326D8
  8
OBJECT
 10
1945.4999999999959
 20
-372.99999999998448
 30
0.0
 11
2054.4999999999959
 21
-372.99999999998641
 31
0.0
1001
ACDBBLOCKREPETAG
1070
     1
1071
      122
1005
1326D8
  0
LINE
  5
1326D9
  8
OBJECT
 10
2058.9999999999968
 20
-376.99999999998641
 30
0.0
 11
2054.4999999999959
 21
-372.99999999998641
 31
0.0
1001
ACDBBLOCKREPETAG
1070
     1
1071
      123
1005
1326D9
  0
LINE
  5
1326DA
  8
OBJECT
 10
1940.9999999999959
 20
-376.99999999998448
 30
0.0
 11
1945.4999999999959
 21
-372.99999999998448
 31
0.0
1001
ACDBBLOCKREPETAG
1070
     1
1071
      124
1005
1326DA
  0
LINE
  5
1326DB
  8
OBJECT
 10
2062.0
 20
-283.00000000000182
 30
0.0
 11
2062.0
 21
-280.00000000000091
 31
0.0
1001
ACDBBLOCKREPETAG
1070
     1
1071
      125
1005
1326DB
  0
ARC
  5
1326DC
  8
OBJECT
 10
2059.0
 20
-283.0000000000008
 30
0.0
 40
3.0
 50
270.0
 51
0.0
1001
ACDBBLOCKREPETAG
1070
     1
1071
      126
1005
1326DC
  0
LINE
  5
1326DD
  8
OBJECT
 10
1938.0
 20
-279.99999999999909
 30
0.0
 11
1938.0
 21
-282.99999999999733
 31
0.0
1001
ACDBBLOCKREPETAG
1070
     1
1071
      127
1005
1326DD
  0
ARC
  5
1326DE
  8
OBJECT
 10
1941.0
 20
-282.99999999999733
 30
0.0
 40
3.0
 50
180.0
 51
270.0
1001
ACDBBLOCKREPETAG
1070
     1
1071
      128
1005
1326DE
  0
LINE
  5
1326DF
  8
OBJECT
 10
1941.0
 20
-285.99999999999733
 30
0.0
 11
1977.5500556793629
 21
-285.99999999999898
 31
0.0
1001
ACDBBLOCKREPETAG
1070
     1
1071
      129
1005
1326DF
  0
LINE
  5
1326E0
  8
OBJECT
 10
2022.449944320641
 20
-286.00000000000091
 30
0.0
 11
2059.0
 21
-286.00000000000091
 31
0.0
1001
ACDBBLOCKREPETAG
1070
     1
1071
      130
1005
1326E0
  0
LINE
  5
1326E1
  8
HIDDEN
 10
2044.499999999997
 20
-367.99999999998641
 30
0.0
 11
1955.4999999999959
 21
-367.9999999999846
 31
0.0
1001
ACDBBLOCKREPETAG
1070
     1
1071
      131
1005
1326E1
  0
LINE
  5
1326E2
  8
OBJECT
 10
1945.500049076185
 20
-359.99997496418558
 30
0.0
 11
2054.500049076185
 21
-359.99997496418752
 31
0.0
1001
ACDBBLOCKREPETAG
1070
     1
1071
      133
1005
1326E2
  0
ARC
  5
1326E3
  8
OBJECT
 10
2000.0
 20
-325.00000000000267
 30
0.0
 40
45.000000000000547
 50
0.0
 51
180.0
1001
ACDBBLOCKREPETAG
1070
     1
1071
      134
1005
1326E3
  0
LINE
  5
1326E4
  8
OBJECT
 10
2133.0
 20
-137.99999999999909
 30
0.0
 11
2140.0
 21
-137.99999999999909
 31
0.0
1001
ACDBBLOCKREPETAG
1070
     1
1071
       47
1005
1326E4
  0
LINE
  5
1326E5
  8
OBJECT
 10
2140.0
 20
-137.99999999999909
 30
0.0
 11
2140.0
 21
-261.99999999999909
 31
0.0
1001
ACDBBLOCKREPETAG
1070
     1
1071
       48
1005
1326E5
  0
LINE
  5
1326E6
  8
OBJECT
 10
2140.0
 20
-261.99999999999909
 30
0.0
 11
2133.0
 21
-261.99999999999909
 31
0.0
1001
ACDBBLOCKREPETAG
1070
     1
1071
       49
1005
1326E6
  0
LINE
  5
1326E7
  8
OBJECT
 10
2133.0
 20
-261.99999999999909
 30
0.0
 11
2133.0
 21
-137.99999999999909
 31
0.0
1001
ACDBBLOCKREPETAG
1070
     1
1071
       50
1005
1326E7
  0
LINE
  5
1326E8
  8
CENTER
 10
2155.0
 20
-199.99999999999909
 30
0.0
 11
2080.0
 21
-199.99999999999909
 31
0.0
1001
ACDBBLOCKREPETAG
1070
     1
1071
       51
1005
1326E8
  0
LINE
  5
1326E9
  8
OBJECT
 10
2133.0
 20
-140.99999999999909
 30
0.0
 11
2097.0
 21
-140.99999999999909
 31
0.0
1001
ACDBBLOCKREPETAG
1070
     1
1071
       52
1005
1326E9
  0
LINE
  5
1326EA
  8
OBJECT
 10
2097.0
 20
-140.99999999999909
 30
0.0
 11
2097.0
 21
-258.99999999999909
 31
0.0
1001
ACDBBLOCKREPETAG
1070
     1
1071
       53
1005
1326EA
  0
LINE
  5
1326EB
  8
OBJECT
 10
2097.0
 20
-258.99999999999909
 30
0.0
 11
2133.0
 21
-258.99999999999909
 31
0.0
1001
ACDBBLOCKREPETAG
1070
     1
1071
       54
1005
1326EB
  0
LINE
  5
1326EC
  8
OBJECT
 10
2093.0
 20
-145.49999999999909
 30
0.0
 11
2086.0
 21
-145.49999999999909
 31
0.0
1001
ACDBBLOCKREPETAG
1070
     1
1071
       55
1005
1326EC
  0
LINE
  5
1326ED
  8
OBJECT
 10
2086.0
 20
-254.49999999999909
 30
0.0
 11
2093.0
 21
-254.49999999999909
 31
0.0
1001
ACDBBLOCKREPETAG
1070
     1
1071
       56
1005
1326ED
  0
LINE
  5
1326EE
  8
OBJECT
 10
2093.0
 20
-254.49999999999909
 30
0.0
 11
2093.0
 21
-145.49999999999909
 31
0.0
1001
ACDBBLOCKREPETAG
1070
     1
1071
       57
1005
1326EE
  0
LINE
  5
1326EF
  8
OBJECT
 10
2097.0
 20
-140.99999999999909
 30
0.0
 11
2093.0
 21
-145.49999999999909
 31
0.0
1001
ACDBBLOCKREPETAG
1070
     1
1071
       58
1005
1326EF
  0
LINE
  5
1326F0
  8
OBJECT
 10
2097.0
 20
-258.99999999999909
 30
0.0
 11
2093.0
 21
-254.49999999999909
 31
0.0
1001
ACDBBLOCKREPETAG
1070
     1
1071
       59
1005
1326F0
  0
LINE
  5
1326F1
  8
OBJECT
 10
2083.0
 20
-137.99999999999909
 30
0.0
 11
2080.0
 21
-137.99999999999909
 31
0.0
1001
ACDBBLOCKREPETAG
1070
     1
1071
       60
1005
1326F1
  0
ARC
  5
1326F2
  8
OBJECT
 10
2083.0
 20
-140.99999999999909
 30
0.0
 40
3.0
 50
0.0
 51
90.0
1001
ACDBBLOCKREPETAG
1070
     1
1071
       61
1005
1326F2
  0
LINE
  5
1326F3
  8
OBJECT
 10
2080.0
 20
-261.99999999999909
 30
0.0
 11
2083.0
 21
-261.99999999999909
 31
0.0
1001
ACDBBLOCKREPETAG
1070
     1
1071
       62
1005
1326F3
  0
ARC
  5
1326F4
  8
OBJECT
 10
2083.0
 20
-258.99999999999909
 30
0.0
 40
3.0
 50
270.0
 51
0.0
1001
ACDBBLOCKREPETAG
1070
     1
1071
       63
1005
1326F4
  0
LINE
  5
1326F5
  8
OBJECT
 10
2086.0
 20
-258.99999999999909
 30
0.0
 11
2086.0
 21
-140.99999999999909
 31
0.0
1001
ACDBBLOCKREPETAG
1070
     1
1071
       64
1005
1326F5
  0
LINE
  5
1326F6
  8
HIDDEN
 10
2088.0
 20
-155.49999999999909
 30
0.0
 11
2088.0
 21
-244.49999999999909
 31
0.0
1001
ACDBBLOCKREPETAG
1070
     1
1071
       65
1005
1326F6
  0
LINE
  5
1326F7
  8
OBJECT
 10
1917.0
 20
-634.0
 30
0.0
 11
1920.0
 21
-634.0
 31
0.0
1001
ACDBBLOCKREPETAG
1070
     1
1071
        1
1005
1326F7
  0
ARC
  5
1326F8
  8
OBJECT
 10
1917.0
 20
-637.0
 30
0.0
 40
3.0
 50
90.0
 51
180.0
1001
ACDBBLOCKREPETAG
1070
     1
1071
        2
1005
1326F8
  0
LINE
  5
1326F9
  8
OBJECT
 10
1920.0
 20
-758.0
 30
0.0
 11
1917.0
 21
-758.0
 31
0.0
1001
ACDBBLOCKREPETAG
1070
     1
1071
        3
1005
1326F9
  0
ARC
  5
1326FA
  8
OBJECT
 10
1917.0
 20
-755.0
 30
0.0
 40
3.0
 50
180.0
 51
270.0
1001
ACDBBLOCKREPETAG
1070
     1
1071
        4
1005
1326FA
  0
LINE
  5
1326FB
  8
OBJECT
 10
1914.0
 20
-755.0
 30
0.0
 11
1914.0
 21
-637.0
 31
0.0
1001
ACDBBLOCKREPETAG
1070
     1
1071
        5
1005
1326FB
  0
LINE
  5
1326FC
  8
OBJECT
 10
2133.0
 20
-634.0
 30
0.0
 11
2140.0
 21
-634.0
 31
0.0
1001
ACDBBLOCKREPETAG
1070
     1
1071
       45
1005
1326FC
  0
LINE
  5
1326FD
  8
OBJECT
 10
2140.0
 20
-634.0
 30
0.0
 11
2140.0
 21
-755.0
 31
0.0
1001
ACDBBLOCKREPETAG
1070
     1
1071
       46
1005
1326FD
  0
LINE
  5
1326FE
  8
OBJECT
 10
2133.0
 20
-755.0
 30
0.0
 11
2133.0
 21
-634.0
 31
0.0
1001
ACDBBLOCKREPETAG
1070
     1
1071
       47
1005
1326FE
  0
LINE
  5
1326FF
  8
CENTER
 10
2155.0
 20
-696.0
 30
0.0
 11
2071.0
 21
-696.0
 31
0.0
1001
ACDBBLOCKREPETAG
1070
     1
1071
       48
1005
1326FF
  0
LINE
  5
132700
  8
OBJECT
 10
2133.0
 20
-637.0
 30
0.0
 11
2097.0
 21
-637.0
 31
0.0
1001
ACDBBLOCKREPETAG
1070
     1
1071
       49
1005
132700
  0
LINE
  5
132701
  8
OBJECT
 10
2097.0
 20
-637.0
 30
0.0
 11
2097.0
 21
-755.0
 31
0.0
1001
ACDBBLOCKREPETAG
1070
     1
1071
       50
1005
132701
  0
LINE
  5
132702
  8
OBJECT
 10
2097.0
 20
-755.0
 30
0.0
 11
2140.0
 21
-755.0
 31
0.0
1001
ACDBBLOCKREPETAG
1070
     1
1071
       51
1005
132702
  0
LINE
  5
132703
  8
OBJECT
 10
2093.0
 20
-641.5
 30
0.0
 11
2086.0
 21
-641.5
 31
0.0
1001
ACDBBLOCKREPETAG
1070
     1
1071
       52
1005
132703
  0
LINE
  5
132704
  8
OBJECT
 10
2086.0
 20
-750.49999999999989
 30
0.0
 11
2093.0
 21
-750.49999999999989
 31
0.0
1001
ACDBBLOCKREPETAG
1070
     1
1071
       53
1005
132704
  0
LINE
  5
132705
  8
OBJECT
 10
2093.0
 20
-750.49999999999989
 30
0.0
 11
2093.0
 21
-641.5
 31
0.0
1001
ACDBBLOCKREPETAG
1070
     1
1071
       54
1005
132705
  0
LINE
  5
132706
  8
OBJECT
 10
2097.0
 20
-637.0
 30
0.0
 11
2093.0
 21
-641.5
 31
0.0
1001
ACDBBLOCKREPETAG
1070
     1
1071
       55
1005
132706
  0
LINE
  5
132707
  8
OBJECT
 10
2097.0
 20
-755.0
 30
0.0
 11
2093.0
 21
-750.49999999999989
 31
0.0
1001
ACDBBLOCKREPETAG
1070
     1
1071
       56
1005
132707
  0
LINE
  5
132708
  8
OBJECT
 10
2083.0
 20
-634.0
 30
0.0
 11
2080.0
 21
-634.0
 31
0.0
1001
ACDBBLOCKREPETAG
1070
     1
1071
       57
1005
132708
  0
ARC
  5
132709
  8
OBJECT
 10
2083.0
 20
-637.0
 30
0.0
 40
3.0
 50
0.0
 51
90.0
1001
ACDBBLOCKREPETAG
1070
     1
1071
       58
1005
132709
  0
LINE
  5
13270A
  8
OBJECT
 10
2080.0
 20
-758.0
 30
0.0
 11
2083.0
 21
-758.0
 31
0.0
1001
ACDBBLOCKREPETAG
1070
     1
1071
       59
1005
13270A
  0
ARC
  5
13270B
  8
OBJECT
 10
2083.0
 20
-755.0
 30
0.0
 40
3.0
 50
270.0
 51
0.0
1001
ACDBBLOCKREPETAG
1070
     1
1071
       60
1005
13270B
  0
LINE
  5
13270C
  8
OBJECT
 10
2086.0
 20
-755.0
 30
0.0
 11
2086.0
 21
-637.0
 31
0.0
1001
ACDBBLOCKREPETAG
1070
     1
1071
       61
1005
13270C
  0
LINE
  5
13270D
  8
HIDDEN
 10
2088.0
 20
-651.5
 30
0.0
 11
2088.0
 21
-740.5
 31
0.0
1001
ACDBBLOCKREPETAG
1070
     1
1071
       63
1005
13270D
  0
TEXT
  5
13270E
  8
SLIM
 10
0.0000035665234464
 20
24.000004585317601
 30
0.0
 40
79.999999999972701
  1
枝管バリエーション
 41
0.75
1001
ACDBBLOCKREPETAG
1070
     1
1071
      119
1005
12CC4A
  0
TEXT
  5
13270F
  8
SLIM
 10
1837.75
 20
282.50000000000011
 30
0.0
 40
35.0
  1
（枝管サイズ毎に寸法が異なります。管底の位置は50～100で同じです）
 41
0.75
  0
TEXT
  5
132710
  8
SLIM
 10
1850.0
 20
369.99999999999989
 30
0.0
 40
100.0
  1
4SR-Z36-P140
 41
0.75
  0
TEXT
  5
132711
  8
SLIM
 10
0.0
 20
369.99999999999989
 30
0.0
 40
100.0
  1
4SR-ZX6-P140-S
 41
0.75
  0
LINE
  5
132712
  8
OBJECT
 10
4923.0
 20
-3395.9999999999968
 30
0.0
 11
4923.0
 21
-3374.9999999999968
 31
0.0
1001
ACDBBLOCKREPETAG
1070
     1
1071
        0
1005
132712
  0
LINE
  5
132713
  8
OBJECT
 10
4923.0
 20
-3374.9999999999968
 30
0.0
 11
5077.0
 21
-3374.9999999999968
 31
0.0
1001
ACDBBLOCKREPETAG
1070
     1
1071
        1
1005
132713
  0
LINE
  5
132714
  8
HIDDEN
 10
4943.0
 20
-3444.9999999999968
 30
0.0
 11
5057.0
 21
-3444.9999999999968
 31
0.0
1001
ACDBBLOCKREPETAG
1070
     1
1071
        2
1005
132714
  0
LINE
  5
132715
  8
OBJECT
 10
5077.0
 20
-3374.9999999999968
 30
0.0
 11
5077.0
 21
-3395.9999999999968
 31
0.0
1001
ACDBBLOCKREPETAG
1070
     1
1071
        3
1005
132715
  0
LINE
  5
132716
  8
OBJECT
 10
5077.0
 20
-3395.9999999999968
 30
0.0
 11
4923.0
 21
-3395.9999999999968
 31
0.0
1001
ACDBBLOCKREPETAG
1070
     1
1071
        4
1005
132716
  0
LINE
  5
132717
  8
CENTER
 10
5000.0
 20
-3359.9999999999968
 30
0.0
 11
5000.0
 21
-3594.9999999999968
 31
0.0
1001
ACDBBLOCKREPETAG
1070
     1
1071
        5
1005
132717
  0
LINE
  5
132718
  8
OBJECT
 10
4925.0
 20
-3458.9999999999968
 30
0.0
 11
4925.0
 21
-3582.9999999999968
 31
0.0
1001
ACDBBLOCKREPETAG
1070
     1
1071
        6
1005
132718
  0
LINE
  5
132719
  8
OBJECT
 10
4928.0
 20
-3395.9999999999968
 30
0.0
 11
4928.0
 21
-3458.9999999999968
 31
0.0
1001
ACDBBLOCKREPETAG
1070
     1
1071
        7
1005
132719
  0
LINE
  5
13271A
  8
OBJECT
 10
5072.0
 20
-3458.9999999999968
 30
0.0
 11
5072.0
 21
-3395.9999999999968
 31
0.0
1001
ACDBBLOCKREPETAG
1070
     1
1071
        8
1005
13271A
  0
LINE
  5
13271B
  8
OBJECT
 10
5074.9999999997999
 20
-3582.9999999997758
 30
0.0
 11
5080.0
 21
-3582.9999999999968
 31
0.0
1001
ACDBBLOCKREPETAG
1070
     1
1071
        9
1005
13271B
  0
LINE
  5
13271C
  8
OBJECT
 10
5080.0
 20
-3458.9999999999968
 30
0.0
 11
4925.0
 21
-3458.9999999999968
 31
0.0
1001
ACDBBLOCKREPETAG
1070
     1
1071
       10
1005
13271C
  0
ARC
  5
13271D
  8
OBJECT
 10
5200.6872746716726
 20
-3574.408099410105
 30
0.0
 40
170.6350503965856
 50
137.44134459184301
 51
149.9194958133665
1001
ACDBBLOCKREPETAG
1070
     1
1071
       15
1005
13271D
  0
ARC
  5
13271E
  8
OBJECT
 10
5118.8455987040506
 20
-3530.8827266953631
 30
0.0
 40
78.072222021763665
 50
147.4551531037684
 51
164.66365997719291
1001
ACDBBLOCKREPETAG
1070
     1
1071
       16
1005
13271E
  0
ARC
  5
13271F
  8
OBJECT
 10
5085.7554349608727
 20
-3520.9999999999968
 30
0.0
 40
43.55353926885617
 50
165.6884523008477
 51
194.3115476991523
1001
ACDBBLOCKREPETAG
1070
     1
1071
       17
1005
13271F
  0
ARC
  5
132720
  8
OBJECT
 10
5200.6872746716726
 20
-3467.5919005898891
 30
0.0
 40
170.6350503965856
 50
210.0805041866335
 51
222.55865540815699
1001
ACDBBLOCKREPETAG
1070
     1
1071
       18
1005
132720
  0
ARC
  5
132721
  8
OBJECT
 10
5118.8455987040506
 20
-3511.1172733046319
 30
0.0
 40
78.072222021763665
 50
195.33634002280701
 51
212.5448468962316
1001
ACDBBLOCKREPETAG
1070
     1
1071
       19
1005
132721
  0
POINT
  5
132722
  8
DOTS
 10
5000.0
 20
-3579.9999999999968
 30
0.0
1001
ACDBBLOCKREPETAG
1070
     1
1071
      186
1005
132722
  0
LINE
  5
132723
  8
OBJECT
 10
4323.0
 20
-3395.9999999999968
 30
0.0
 11
4323.0
 21
-3374.9999999999968
 31
0.0
1001
ACDBBLOCKREPETAG
1070
     1
1071
       20
1005
132723
  0
LINE
  5
132724
  8
OBJECT
 10
4323.0
 20
-3374.9999999999968
 30
0.0
 11
4477.0
 21
-3374.9999999999968
 31
0.0
1001
ACDBBLOCKREPETAG
1070
     1
1071
       21
1005
132724
  0
LINE
  5
132725
  8
HIDDEN
 10
4343.0
 20
-3444.9999999999968
 30
0.0
 11
4457.0
 21
-3444.9999999999968
 31
0.0
1001
ACDBBLOCKREPETAG
1070
     1
1071
       22
1005
132725
  0
LINE
  5
132726
  8
OBJECT
 10
4477.0
 20
-3374.9999999999968
 30
0.0
 11
4477.0
 21
-3395.9999999999968
 31
0.0
1001
ACDBBLOCKREPETAG
1070
     1
1071
       23
1005
132726
  0
LINE
  5
132727
  8
OBJECT
 10
4477.0
 20
-3395.9999999999968
 30
0.0
 11
4323.0
 21
-3395.9999999999968
 31
0.0
1001
ACDBBLOCKREPETAG
1070
     1
1071
       24
1005
132727
  0
LINE
  5
132728
  8
CENTER
 10
4400.0
 20
-3359.9999999999968
 30
0.0
 11
4400.0
 21
-3594.9999999999968
 31
0.0
1001
ACDBBLOCKREPETAG
1070
     1
1071
       25
1005
132728
  0
LINE
  5
132729
  8
OBJECT
 10
4325.0
 20
-3458.9999999999968
 30
0.0
 11
4325.0
 21
-3582.9999999999968
 31
0.0
1001
ACDBBLOCKREPETAG
1070
     1
1071
       26
1005
132729
  0
LINE
  5
13272A
  8
OBJECT
 10
4328.0
 20
-3395.9999999999968
 30
0.0
 11
4328.0
 21
-3458.9999999999968
 31
0.0
1001
ACDBBLOCKREPETAG
1070
     1
1071
       27
1005
13272A
  0
LINE
  5
13272B
  8
OBJECT
 10
4472.0
 20
-3458.9999999999968
 30
0.0
 11
4472.0
 21
-3395.9999999999968
 31
0.0
1001
ACDBBLOCKREPETAG
1070
     1
1071
       28
1005
13272B
  0
LINE
  5
13272C
  8
OBJECT
 10
4475.0
 20
-3458.9999999999968
 30
0.0
 11
4325.0
 21
-3458.9999999999968
 31
0.0
1001
ACDBBLOCKREPETAG
1070
     1
1071
       30
1005
13272C
  0
LINE
  5
13272D
  8
OBJECT
 10
4475.0
 20
-3458.9999999999968
 30
0.0
 11
4475.0
 21
-3582.9999999999968
 31
0.0
1001
ACDBBLOCKREPETAG
1070
     1
1071
       34
1005
13272D
  0
POINT
  5
13272E
  8
DOTS
 10
4400.0
 20
-3579.9999999999968
 30
0.0
1001
ACDBBLOCKREPETAG
1070
     1
1071
      187
1005
13272E
  0
LINE
  5
13272F
  8
OBJECT
 10
3923.0
 20
-3395.9999999999968
 30
0.0
 11
3923.0
 21
-3374.9999999999968
 31
0.0
1001
ACDBBLOCKREPETAG
1070
     1
1071
        0
1005
13272F
  0
LINE
  5
132730
  8
OBJECT
 10
3923.0
 20
-3374.9999999999968
 30
0.0
 11
4077.0
 21
-3374.9999999999968
 31
0.0
1001
ACDBBLOCKREPETAG
1070
     1
1071
        1
1005
132730
  0
LINE
  5
132731
  8
HIDDEN
 10
3943.0
 20
-3444.9999999999968
 30
0.0
 11
4057.0
 21
-3444.9999999999968
 31
0.0
1001
ACDBBLOCKREPETAG
1070
     1
1071
        2
1005
132731
  0
LINE
  5
132732
  8
OBJECT
 10
4077.0
 20
-3374.9999999999968
 30
0.0
 11
4077.0
 21
-3395.9999999999968
 31
0.0
1001
ACDBBLOCKREPETAG
1070
     1
1071
        3
1005
132732
  0
LINE
  5
132733
  8
OBJECT
 10
4077.0
 20
-3395.9999999999968
 30
0.0
 11
3923.0
 21
-3395.9999999999968
 31
0.0
1001
ACDBBLOCKREPETAG
1070
     1
1071
        4
1005
132733
  0
LINE
  5
132734
  8
CENTER
 10
4000.0
 20
-3359.9999999999968
 30
0.0
 11
4000.0
 21
-3594.9999999999968
 31
0.0
1001
ACDBBLOCKREPETAG
1070
     1
1071
        5
1005
132734
  0
LINE
  5
132735
  8
OBJECT
 10
3925.0
 20
-3458.9999999999968
 30
0.0
 11
3925.0
 21
-3582.9999999999968
 31
0.0
1001
ACDBBLOCKREPETAG
1070
     1
1071
        6
1005
132735
  0
LINE
  5
132736
  8
OBJECT
 10
3928.0
 20
-3395.9999999999968
 30
0.0
 11
3928.0
 21
-3458.9999999999968
 31
0.0
1001
ACDBBLOCKREPETAG
1070
     1
1071
        7
1005
132736
  0
LINE
  5
132737
  8
OBJECT
 10
4072.0
 20
-3458.9999999999968
 30
0.0
 11
4072.0
 21
-3395.9999999999968
 31
0.0
1001
ACDBBLOCKREPETAG
1070
     1
1071
        8
1005
132737
  0
LINE
  5
132738
  8
OBJECT
 10
4074.999999999799
 20
-3582.9999999997758
 30
0.0
 11
4080.0
 21
-3582.9999999999968
 31
0.0
1001
ACDBBLOCKREPETAG
1070
     1
1071
        9
1005
132738
  0
LINE
  5
132739
  8
OBJECT
 10
4080.0
 20
-3458.9999999999968
 30
0.0
 11
3925.0
 21
-3458.9999999999968
 31
0.0
1001
ACDBBLOCKREPETAG
1070
     1
1071
       10
1005
132739
  0
ARC
  5
13273A
  8
OBJECT
 10
4200.6872746716726
 20
-3574.408099410105
 30
0.0
 40
170.6350503965856
 50
137.44134459184301
 51
149.9194958133665
1001
ACDBBLOCKREPETAG
1070
     1
1071
       15
1005
13273A
  0
ARC
  5
13273B
  8
OBJECT
 10
4118.8455987040506
 20
-3530.8827266953631
 30
0.0
 40
78.072222021763665
 50
147.4551531037684
 51
164.663659977186
1001
ACDBBLOCKREPETAG
1070
     1
1071
       16
1005
13273B
  0
ARC
  5
13273C
  8
OBJECT
 10
4085.7554349608722
 20
-3520.9999999999968
 30
0.0
 40
43.55353926885617
 50
165.6884523008477
 51
194.3115476991523
1001
ACDBBLOCKREPETAG
1070
     1
1071
       17
1005
13273C
  0
ARC
  5
13273D
  8
OBJECT
 10
4200.6872746716726
 20
-3467.5919005898891
 30
0.0
 40
170.6350503965856
 50
210.0805041866335
 51
222.55865540815699
1001
ACDBBLOCKREPETAG
1070
     1
1071
       18
1005
13273D
  0
ARC
  5
13273E
  8
OBJECT
 10
4118.8455987040506
 20
-3511.1172733046319
 30
0.0
 40
78.072222021763665
 50
195.33634002281391
 51
212.5448468962316
1001
ACDBBLOCKREPETAG
1070
     1
1071
       19
1005
13273E
  0
POINT
  5
13273F
  8
DOTS
 10
4000.0
 20
-3579.9999999999968
 30
0.0
1001
ACDBBLOCKREPETAG
1070
     1
1071
      186
1005
13273F
  0
LINE
  5
132740
  8
OBJECT
 10
3323.0
 20
-3395.9999999999968
 30
0.0
 11
3323.0
 21
-3374.9999999999968
 31
0.0
1001
ACDBBLOCKREPETAG
1070
     1
1071
       20
1005
132740
  0
LINE
  5
132741
  8
OBJECT
 10
3323.0
 20
-3374.9999999999968
 30
0.0
 11
3477.0
 21
-3374.9999999999968
 31
0.0
1001
ACDBBLOCKREPETAG
1070
     1
1071
       21
1005
132741
  0
LINE
  5
132742
  8
HIDDEN
 10
3343.0
 20
-3444.9999999999968
 30
0.0
 11
3457.0
 21
-3444.9999999999968
 31
0.0
1001
ACDBBLOCKREPETAG
1070
     1
1071
       22
1005
132742
  0
LINE
  5
132743
  8
OBJECT
 10
3477.0
 20
-3374.9999999999968
 30
0.0
 11
3477.0
 21
-3395.9999999999968
 31
0.0
1001
ACDBBLOCKREPETAG
1070
     1
1071
       23
1005
132743
  0
LINE
  5
132744
  8
OBJECT
 10
3477.0
 20
-3395.9999999999968
 30
0.0
 11
3323.0
 21
-3395.9999999999968
 31
0.0
1001
ACDBBLOCKREPETAG
1070
     1
1071
       24
1005
132744
  0
LINE
  5
132745
  8
CENTER
 10
3400.0
 20
-3359.9999999999968
 30
0.0
 11
3400.0
 21
-3594.9999999999968
 31
0.0
1001
ACDBBLOCKREPETAG
1070
     1
1071
       25
1005
132745
  0
LINE
  5
132746
  8
OBJECT
 10
3325.0
 20
-3458.9999999999968
 30
0.0
 11
3325.0
 21
-3582.9999999999968
 31
0.0
1001
ACDBBLOCKREPETAG
1070
     1
1071
       26
1005
132746
  0
LINE
  5
132747
  8
OBJECT
 10
3328.0
 20
-3395.9999999999968
 30
0.0
 11
3328.0
 21
-3458.9999999999968
 31
0.0
1001
ACDBBLOCKREPETAG
1070
     1
1071
       27
1005
132747
  0
LINE
  5
132748
  8
OBJECT
 10
3472.0
 20
-3458.9999999999968
 30
0.0
 11
3472.0
 21
-3395.9999999999968
 31
0.0
1001
ACDBBLOCKREPETAG
1070
     1
1071
       28
1005
132748
  0
LINE
  5
132749
  8
OBJECT
 10
3475.0
 20
-3458.9999999999968
 30
0.0
 11
3325.0
 21
-3458.9999999999968
 31
0.0
1001
ACDBBLOCKREPETAG
1070
     1
1071
       30
1005
132749
  0
LINE
  5
13274A
  8
OBJECT
 10
3475.0
 20
-3458.9999999999968
 30
0.0
 11
3475.0
 21
-3582.9999999999968
 31
0.0
1001
ACDBBLOCKREPETAG
1070
     1
1071
       34
1005
13274A
  0
POINT
  5
13274B
  8
DOTS
 10
3400.0
 20
-3579.9999999999968
 30
0.0
1001
ACDBBLOCKREPETAG
1070
     1
1071
      187
1005
13274B
  0
LINE
  5
13274C
  8
OBJECT
 10
2923.0
 20
-3395.9999999999968
 30
0.0
 11
2923.0
 21
-3374.9999999999968
 31
0.0
1001
ACDBBLOCKREPETAG
1070
     1
1071
        0
1005
13274C
  0
LINE
  5
13274D
  8
OBJECT
 10
2923.0
 20
-3374.9999999999968
 30
0.0
 11
3077.0
 21
-3374.9999999999968
 31
0.0
1001
ACDBBLOCKREPETAG
1070
     1
1071
        1
1005
13274D
  0
LINE
  5
13274E
  8
HIDDEN
 10
2943.0
 20
-3444.9999999999968
 30
0.0
 11
3057.0
 21
-3444.9999999999968
 31
0.0
1001
ACDBBLOCKREPETAG
1070
     1
1071
        2
1005
13274E
  0
LINE
  5
13274F
  8
OBJECT
 10
3077.0
 20
-3374.9999999999968
 30
0.0
 11
3077.0
 21
-3395.9999999999968
 31
0.0
1001
ACDBBLOCKREPETAG
1070
     1
1071
        3
1005
13274F
  0
LINE
  5
132750
  8
OBJECT
 10
3077.0
 20
-3395.9999999999968
 30
0.0
 11
2923.0
 21
-3395.9999999999968
 31
0.0
1001
ACDBBLOCKREPETAG
1070
     1
1071
        4
1005
132750
  0
LINE
  5
132751
  8
CENTER
 10
3000.0
 20
-3359.9999999999968
 30
0.0
 11
3000.0
 21
-3594.9999999999968
 31
0.0
1001
ACDBBLOCKREPETAG
1070
     1
1071
        5
1005
132751
  0
LINE
  5
132752
  8
OBJECT
 10
2925.0
 20
-3458.9999999999968
 30
0.0
 11
2925.0
 21
-3582.9999999999968
 31
0.0
1001
ACDBBLOCKREPETAG
1070
     1
1071
        6
1005
132752
  0
LINE
  5
132753
  8
OBJECT
 10
2928.0
 20
-3395.9999999999968
 30
0.0
 11
2928.0
 21
-3458.9999999999968
 31
0.0
1001
ACDBBLOCKREPETAG
1070
     1
1071
        7
1005
132753
  0
LINE
  5
132754
  8
OBJECT
 10
3072.0
 20
-3458.9999999999968
 30
0.0
 11
3072.0
 21
-3395.9999999999968
 31
0.0
1001
ACDBBLOCKREPETAG
1070
     1
1071
        8
1005
132754
  0
LINE
  5
132755
  8
OBJECT
 10
3074.9999999997999
 20
-3582.9999999997758
 30
0.0
 11
3080.0
 21
-3582.9999999999968
 31
0.0
1001
ACDBBLOCKREPETAG
1070
     1
1071
        9
1005
132755
  0
LINE
  5
132756
  8
OBJECT
 10
3080.0
 20
-3458.9999999999968
 30
0.0
 11
2925.0
 21
-3458.9999999999968
 31
0.0
1001
ACDBBLOCKREPETAG
1070
     1
1071
       10
1005
132756
  0
ARC
  5
132757
  8
OBJECT
 10
3200.6872746716722
 20
-3574.408099410105
 30
0.0
 40
170.6350503965856
 50
137.44134459184301
 51
149.9194958133665
1001
ACDBBLOCKREPETAG
1070
     1
1071
       15
1005
132757
  0
ARC
  5
132758
  8
OBJECT
 10
3118.8455987040511
 20
-3530.8827266953631
 30
0.0
 40
78.072222021763665
 50
147.4551531037684
 51
164.663659977186
1001
ACDBBLOCKREPETAG
1070
     1
1071
       16
1005
132758
  0
ARC
  5
132759
  8
OBJECT
 10
3085.7554349608731
 20
-3520.9999999999968
 30
0.0
 40
43.55353926885617
 50
165.6884523008477
 51
194.3115476991523
1001
ACDBBLOCKREPETAG
1070
     1
1071
       17
1005
132759
  0
ARC
  5
13275A
  8
OBJECT
 10
3200.6872746716722
 20
-3467.5919005898891
 30
0.0
 40
170.6350503965856
 50
210.0805041866335
 51
222.55865540815699
1001
ACDBBLOCKREPETAG
1070
     1
1071
       18
1005
13275A
  0
ARC
  5
13275B
  8
OBJECT
 10
3118.8455987040511
 20
-3511.1172733046319
 30
0.0
 40
78.072222021763665
 50
195.33634002281391
 51
212.5448468962316
1001
ACDBBLOCKREPETAG
1070
     1
1071
       19
1005
13275B
  0
POINT
  5
13275C
  8
DOTS
 10
3000.0
 20
-3579.9999999999968
 30
0.0
1001
ACDBBLOCKREPETAG
1070
     1
1071
      186
1005
13275C
  0
LINE
  5
13275D
  8
OBJECT
 10
2323.0
 20
-3395.9999999999968
 30
0.0
 11
2323.0
 21
-3374.9999999999968
 31
0.0
1001
ACDBBLOCKREPETAG
1070
     1
1071
       20
1005
13275D
  0
LINE
  5
13275E
  8
OBJECT
 10
2323.0
 20
-3374.9999999999968
 30
0.0
 11
2477.0
 21
-3374.9999999999968
 31
0.0
1001
ACDBBLOCKREPETAG
1070
     1
1071
       21
1005
13275E
  0
LINE
  5
13275F
  8
HIDDEN
 10
2343.0
 20
-3444.9999999999968
 30
0.0
 11
2457.0
 21
-3444.9999999999968
 31
0.0
1001
ACDBBLOCKREPETAG
1070
     1
1071
       22
1005
13275F
  0
LINE
  5
132760
  8
OBJECT
 10
2477.0
 20
-3374.9999999999968
 30
0.0
 11
2477.0
 21
-3395.9999999999968
 31
0.0
1001
ACDBBLOCKREPETAG
1070
     1
1071
       23
1005
132760
  0
LINE
  5
132761
  8
OBJECT
 10
2477.0
 20
-3395.9999999999968
 30
0.0
 11
2323.0
 21
-3395.9999999999968
 31
0.0
1001
ACDBBLOCKREPETAG
1070
     1
1071
       24
1005
132761
  0
LINE
  5
132762
  8
CENTER
 10
2400.0
 20
-3359.9999999999968
 30
0.0
 11
2400.0
 21
-3594.9999999999968
 31
0.0
1001
ACDBBLOCKREPETAG
1070
     1
1071
       25
1005
132762
  0
LINE
  5
132763
  8
OBJECT
 10
2325.0
 20
-3458.9999999999968
 30
0.0
 11
2325.0
 21
-3582.9999999999968
 31
0.0
1001
ACDBBLOCKREPETAG
1070
     1
1071
       26
1005
132763
  0
LINE
  5
132764
  8
OBJECT
 10
2328.0
 20
-3395.9999999999968
 30
0.0
 11
2328.0
 21
-3458.9999999999968
 31
0.0
1001
ACDBBLOCKREPETAG
1070
     1
1071
       27
1005
132764
  0
LINE
  5
132765
  8
OBJECT
 10
2472.0
 20
-3458.9999999999968
 30
0.0
 11
2472.0
 21
-3395.9999999999968
 31
0.0
1001
ACDBBLOCKREPETAG
1070
     1
1071
       28
1005
132765
  0
LINE
  5
132766
  8
OBJECT
 10
2475.0
 20
-3458.9999999999968
 30
0.0
 11
2325.0
 21
-3458.9999999999968
 31
0.0
1001
ACDBBLOCKREPETAG
1070
     1
1071
       30
1005
132766
  0
LINE
  5
132767
  8
OBJECT
 10
2475.0
 20
-3458.9999999999968
 30
0.0
 11
2475.0
 21
-3582.9999999999968
 31
0.0
1001
ACDBBLOCKREPETAG
1070
     1
1071
       34
1005
132767
  0
POINT
  5
132768
  8
DOTS
 10
2400.0
 20
-3579.9999999999968
 30
0.0
1001
ACDBBLOCKREPETAG
1070
     1
1071
      187
1005
132768
  0
LINE
  5
132769
  8
OBJECT
 10
1923.0
 20
-3395.9999999999968
 30
0.0
 11
1923.0
 21
-3374.9999999999968
 31
0.0
1001
ACDBBLOCKREPETAG
1070
     1
1071
        0
1005
132769
  0
LINE
  5
13276A
  8
OBJECT
 10
1923.0
 20
-3374.9999999999968
 30
0.0
 11
2077.0
 21
-3374.9999999999968
 31
0.0
1001
ACDBBLOCKREPETAG
1070
     1
1071
        1
1005
13276A
  0
LINE
  5
13276B
  8
HIDDEN
 10
1943.0
 20
-3444.9999999999968
 30
0.0
 11
2057.0
 21
-3444.9999999999968
 31
0.0
1001
ACDBBLOCKREPETAG
1070
     1
1071
        2
1005
13276B
  0
LINE
  5
13276C
  8
OBJECT
 10
2077.0
 20
-3374.9999999999968
 30
0.0
 11
2077.0
 21
-3395.9999999999968
 31
0.0
1001
ACDBBLOCKREPETAG
1070
     1
1071
        3
1005
13276C
  0
LINE
  5
13276D
  8
OBJECT
 10
2077.0
 20
-3395.9999999999968
 30
0.0
 11
1923.0
 21
-3395.9999999999968
 31
0.0
1001
ACDBBLOCKREPETAG
1070
     1
1071
        4
1005
13276D
  0
LINE
  5
13276E
  8
CENTER
 10
2000.0
 20
-3359.9999999999968
 30
0.0
 11
2000.0
 21
-3594.9999999999968
 31
0.0
1001
ACDBBLOCKREPETAG
1070
     1
1071
        5
1005
13276E
  0
LINE
  5
13276F
  8
OBJECT
 10
1925.0
 20
-3458.9999999999968
 30
0.0
 11
1925.0
 21
-3582.9999999999968
 31
0.0
1001
ACDBBLOCKREPETAG
1070
     1
1071
        6
1005
13276F
  0
LINE
  5
132770
  8
OBJECT
 10
1928.0
 20
-3395.9999999999968
 30
0.0
 11
1928.0
 21
-3458.9999999999968
 31
0.0
1001
ACDBBLOCKREPETAG
1070
     1
1071
        7
1005
132770
  0
LINE
  5
132771
  8
OBJECT
 10
2072.0
 20
-3458.9999999999968
 30
0.0
 11
2072.0
 21
-3395.9999999999968
 31
0.0
1001
ACDBBLOCKREPETAG
1070
     1
1071
        8
1005
132771
  0
LINE
  5
132772
  8
OBJECT
 10
2074.999999999799
 20
-3582.9999999997758
 30
0.0
 11
2080.0
 21
-3582.9999999999968
 31
0.0
1001
ACDBBLOCKREPETAG
1070
     1
1071
        9
1005
132772
  0
LINE
  5
132773
  8
OBJECT
 10
2080.0
 20
-3458.9999999999968
 30
0.0
 11
1925.0
 21
-3458.9999999999968
 31
0.0
1001
ACDBBLOCKREPETAG
1070
     1
1071
       10
1005
132773
  0
ARC
  5
132774
  8
OBJECT
 10
2200.6872746716731
 20
-3574.408099410105
 30
0.0
 40
170.6350503965856
 50
137.44134459184301
 51
149.91949581335999
1001
ACDBBLOCKREPETAG
1070
     1
1071
       15
1005
132774
  0
ARC
  5
132775
  8
OBJECT
 10
2118.8455987040511
 20
-3530.8827266953631
 30
0.0
 40
78.072222021763665
 50
147.45515310377539
 51
164.663659977186
1001
ACDBBLOCKREPETAG
1070
     1
1071
       16
1005
132775
  0
ARC
  5
132776
  8
OBJECT
 10
2085.7554349608731
 20
-3520.9999999999968
 30
0.0
 40
43.55353926885617
 50
165.6884523008477
 51
194.3115476991523
1001
ACDBBLOCKREPETAG
1070
     1
1071
       17
1005
132776
  0
ARC
  5
132777
  8
OBJECT
 10
2200.6872746716731
 20
-3467.5919005898891
 30
0.0
 40
170.6350503965856
 50
210.08050418664001
 51
222.55865540815699
1001
ACDBBLOCKREPETAG
1070
     1
1071
       18
1005
132777
  0
ARC
  5
132778
  8
OBJECT
 10
2118.8455987040511
 20
-3511.1172733046319
 30
0.0
 40
78.072222021763665
 50
195.33634002281391
 51
212.54484689622461
1001
ACDBBLOCKREPETAG
1070
     1
1071
       19
1005
132778
  0
POINT
  5
132779
  8
DOTS
 10
2000.0
 20
-3579.9999999999968
 30
0.0
1001
ACDBBLOCKREPETAG
1070
     1
1071
      186
1005
132779
  0
LINE
  5
13277A
  8
DIM
 10
2150.0
 20
-3221.9999999999959
 30
0.0
 11
2228.479620594459
 21
-3221.9999999999959
 31
0.0
  0
LINE
  5
13277B
  8
DIM
 10
2150.0
 20
-3127.9999999999959
 30
0.0
 11
2228.479620594459
 21
-3127.9999999999959
 31
0.0
  0
LINE
  5
13277C
  8
DIM
 10
2218.479620594459
 20
-3201.9999999999959
 30
0.0
 11
2218.479620594459
 21
-3147.9999999999959
 31
0.0
  0
INSERT
  5
13277D
  8
DIM
  2
_OPEN30
 10
2218.479620594459
 20
-3221.9999999999959
 30
0.0
 41
20.0
 42
20.0
 43
20.0
 50
270.0
  0
INSERT
  5
13277E
  8
DIM
  2
_OPEN30
 10
2218.479620594459
 20
-3127.9999999999959
 30
0.0
 41
20.0
 42
20.0
 43
20.0
 50
90.0
  0
INSERT
  5
13277F
  8
OBJECT
  2
*U11
 10
0.0
 20
0.0
 30
0.0
  0
LINE
  5
132780
  8
DIM
 10
2150.0
 20
-3579.9999999999968
 30
0.0
 11
2226.8409284037339
 21
-3579.9999999999968
 31
0.0
  0
LINE
  5
132781
  8
DIM
 10
2165.0
 20
-3535.9999999999968
 30
0.0
 11
2226.8409284037339
 21
-3535.9999999999968
 31
0.0
  0
LINE
  5
132782
  8
DIM
 10
2216.840928403733
 20
-3599.9999999999968
 30
0.0
 11
2216.840928403733
 21
-3619.9999999999968
 31
0.0
  0
LINE
  5
132783
  8
DIM
 10
2216.840928403733
 20
-3515.9999999999968
 30
0.0
 11
2216.840928403733
 21
-3495.9999999999968
 31
0.0
  0
LINE
  5
132784
  8
DIM
 10
2216.840928403733
 20
-3579.9999999999968
 30
0.0
 11
2216.840928403733
 21
-3535.9999999999968
 31
0.0
  0
INSERT
  5
132785
  8
DIM
  2
_OPEN30
 10
2216.840928403733
 20
-3579.9999999999968
 30
0.0
 41
20.0
 42
20.0
 43
20.0
 50
90.0
  0
INSERT
  5
132786
  8
DIM
  2
_OPEN30
 10
2216.840928403733
 20
-3535.9999999999968
 30
0.0
 41
20.0
 42
20.0
 43
20.0
 50
270.0
  0
INSERT
  5
132787
  8
OBJECT
  2
*U12
 10
0.0
 20
0.0
 30
0.0
  0
LINE
  5
132788
  8
DIM
 10
2000.0
 20
-3069.9999999999959
 30
0.0
 11
2000.0
 21
-3037.208121984444
 31
0.0
  0
LINE
  5
132789
  8
DIM
 10
2140.0
 20
-3117.9999999999959
 30
0.0
 11
2140.0
 21
-3037.208121984444
 31
0.0
  0
LINE
  5
13278A
  8
DIM
 10
2020.0
 20
-3047.208121984444
 30
0.0
 11
2120.0
 21
-3047.208121984444
 31
0.0
  0
INSERT
  5
13278B
  8
DIM
  2
_OPEN30
 10
2000.0
 20
-3047.208121984444
 30
0.0
 41
20.0
 42
20.0
 43
20.0
 50
180.0
  0
INSERT
  5
13278C
  8
DIM
  2
_OPEN30
 10
2140.0
 20
-3047.208121984444
 30
0.0
 41
20.0
 42
20.0
 43
20.0
  0
INSERT
  5
13278D
  8
OBJECT
  2
*U13
 10
0.0
 20
0.0
 30
0.0
  0
TEXT
  5
13278E
  8
SLIM
 10
2631.0
 20
-2952.50001604727
 30
0.0
 40
40.0
  1
C寸法
 41
0.75
  0
TEXT
  5
13278F
  8
SLIM
 10
2631.0
 20
-2882.50001604727
 30
0.0
 40
40.0
  1
B寸法
 41
0.75
  0
TEXT
  5
132790
  8
SLIM
 10
2630.2857142857142
 20
-2812.50001604727
 30
0.0
 40
40.0
  1
A寸法
 41
0.75
  0
TEXT
  5
132791
  8
SLIM
 10
3159.2857142857151
 20
-2952.50001604727
 30
0.0
 40
40.0
  1
150
 41
0.75
  0
TEXT
  5
132792
  8
SLIM
 10
3029.2857142857151
 20
-2952.50001604727
 30
0.0
 40
40.0
  1
140
 41
0.75
  0
TEXT
  5
132793
  8
SLIM
 10
2769.2857142857151
 20
-2952.50001604727
 30
0.0
 40
40.0
  1
140
 41
0.75
  0
TEXT
  5
132794
  8
SLIM
 10
2899.2857142857151
 20
-2952.50001604727
 30
0.0
 40
40.0
  1
140
 41
0.75
  0
TEXT
  5
132795
  8
SLIM
 10
3170.7142857142858
 20
-2882.50001604727
 30
0.0
 40
40.0
  1
72
 41
0.75
  0
TEXT
  5
132796
  8
SLIM
 10
3041.4285714285711
 20
-2882.50001604727
 30
0.0
 40
40.0
  1
59
 41
0.75
  0
TEXT
  5
132797
  8
SLIM
 10
2780.0
 20
-2882.50001604727
 30
0.0
 40
40.0
  1
44
 41
0.75
  0
TEXT
  5
132798
  8
SLIM
 10
2910.7142857142858
 20
-2882.50001604727
 30
0.0
 40
40.0
  1
52
 41
0.75
  0
TEXT
  5
132799
  8
SLIM
 10
2891.0
 20
-2687.50001604727
 30
0.0
 40
40.0
  1
横枝管サイズ
 41
0.75
  0
TEXT
  5
13279A
  8
SLIM
 10
3136.2857142857151
 20
-2742.50001604727
 30
0.0
 40
30.0
  1
100（4）
 41
0.75
  0
TEXT
  5
13279B
  8
SLIM
 10
3014.857142857144
 20
-2742.50001604727
 30
0.0
 40
30.0
  1
75（3）
 41
0.75
  0
TEXT
  5
13279C
  8
SLIM
 10
2884.8571428571431
 20
-2742.50001604727
 30
0.0
 40
30.0
  1
65（2）
 41
0.75
  0
TEXT
  5
13279D
  8
SLIM
 10
2757.0
 20
-2742.50001604727
 30
0.0
 40
30.0
  1
50（1）
 41
0.75
  0
TEXT
  5
13279E
  8
SLIM
 10
3159.2857142857151
 20
-2812.50001604727
 30
0.0
 40
40.0
  1
150
 41
0.75
  0
TEXT
  5
13279F
  8
SLIM
 10
3028.571428571428
 20
-2812.50001604727
 30
0.0
 40
40.0
  1
124
 41
0.75
  0
TEXT
  5
1327A0
  8
SLIM
 10
2780.0
 20
-2812.50001604727
 30
0.0
 40
40.0
  1
94
 41
0.75
  0
TEXT
  5
1327A1
  8
SLIM
 10
2902.1428571428569
 20
-2812.50001604727
 30
0.0
 40
40.0
  1
110
 41
0.75
  0
TEXT
  5
1327A2
  8
SLIM
 10
1849.9999999999991
 20
-2712.5
 30
0.0
 40
75.0
  1
枝管サイズ毎の形状
 41
0.75
  0
LINE
  5
1327A3
  8
OBJECT
 10
5150.0
 20
-3432.9999999999968
 30
0.0
 11
5143.0
 21
-3432.9999999999968
 31
0.0
1001
ACDBBLOCKREPETAG
1070
     1
1071
       64
1005
1327A3
  0
LINE
  5
1327A4
  8
OBJECT
 10
5143.0
 20
-3432.9999999999968
 30
0.0
 11
5143.0
 21
-3579.9999999999968
 31
0.0
1001
ACDBBLOCKREPETAG
1070
     1
1071
       65
1005
1327A4
  0
LINE
  5
1327A5
  8
OBJECT
 10
5101.5
 20
-3435.9999999999968
 30
0.0
 11
5101.5
 21
-3579.9999999999968
 31
0.0
1001
ACDBBLOCKREPETAG
1070
     1
1071
       66
1005
1327A5
  0
LINE
  5
1327A6
  8
OBJECT
 10
5090.0
 20
-3442.4999999999968
 30
0.0
 11
5090.0
 21
-3573.4999999999968
 31
0.0
1001
ACDBBLOCKREPETAG
1070
     1
1071
       67
1005
1327A6
  0
LINE
  5
1327A7
  8
OBJECT
 10
5086.0
 20
-3514.5000000000041
 30
0.0
 11
5086.0
 21
-3579.9999999999968
 31
0.0
1001
ACDBBLOCKREPETAG
1070
     1
1071
       68
1005
1327A7
  0
LINE
  5
1327A8
  8
OBJECT
 10
5150.0
 20
-3579.9999999999968
 30
0.0
 11
5150.0
 21
-3432.9999999999968
 31
0.0
1001
ACDBBLOCKREPETAG
1070
     1
1071
       69
1005
1327A8
  0
LINE
  5
1327A9
  8
CENTER
 10
5165.0
 20
-3507.9999999999968
 30
0.0
 11
5070.4144144144157
 21
-3507.9999999999968
 31
0.0
1001
ACDBBLOCKREPETAG
1070
     1
1071
       70
1005
1327A9
  0
LINE
  5
1327AA
  8
OBJECT
 10
5083.0000000000045
 20
-3582.9999999999968
 30
0.0
 11
5080.0
 21
-3582.9999999999968
 31
0.0
1001
ACDBBLOCKREPETAG
1070
     1
1071
       71
1005
1327AA
  0
ARC
  5
1327AB
  8
OBJECT
 10
5091.8815171830656
 20
-3581.4555591801418
 30
0.0
 40
6.0
 50
60.52411099686767
 51
170.6927439126847
1001
ACDBBLOCKREPETAG
1070
     1
1071
       72
1005
1327AB
  0
ARC
  5
1327AC
  8
OBJECT
 10
5083.0
 20
-3579.9999999999968
 30
0.0
 40
3.0
 50
270.0
 51
350.69274391268482
1001
ACDBBLOCKREPETAG
1070
     1
1071
       73
1005
1327AC
  0
LINE
  5
1327AD
  8
OBJECT
 10
5081.0
 20
-3458.9999999999968
 30
0.0
 11
5080.0
 21
-3458.9999999999968
 31
0.0
1001
ACDBBLOCKREPETAG
1070
     1
1071
       74
1005
1327AD
  0
LINE
  5
1327AE
  8
OBJECT
 10
5150.0
 20
-3579.9999999999968
 30
0.0
 11
5101.5
 21
-3579.9999999999968
 31
0.0
1001
ACDBBLOCKREPETAG
1070
     1
1071
       75
1005
1327AE
  0
LINE
  5
1327AF
  8
OBJECT
 10
5101.5
 20
-3435.9999999999968
 30
0.0
 11
5090.0
 21
-3442.4999999999968
 31
0.0
1001
ACDBBLOCKREPETAG
1070
     1
1071
       76
1005
1327AF
  0
LINE
  5
1327B0
  8
OBJECT
 10
5143.0
 20
-3435.9999999999968
 30
0.0
 11
5101.5
 21
-3435.9999999999968
 31
0.0
1001
ACDBBLOCKREPETAG
1070
     1
1071
       77
1005
1327B0
  0
LINE
  5
1327B1
  8
OBJECT
 10
5086.0
 20
-3514.5000000000041
 30
0.0
 11
5081.0
 21
-3458.9999999999968
 31
0.0
1001
ACDBBLOCKREPETAG
1070
     1
1071
       78
1005
1327B1
  0
LINE
  5
1327B2
  8
OBJECT
 10
5090.0
 20
-3442.4999999999968
 30
0.0
 11
5081.0
 21
-3458.9999999999968
 31
0.0
1001
ACDBBLOCKREPETAG
1070
     1
1071
       79
1005
1327B2
  0
LINE
  5
1327B3
  8
OBJECT
 10
5101.5
 20
-3579.9999999999968
 30
0.0
 11
5094.8338607230708
 21
-3576.232182147819
 31
0.0
1001
ACDBBLOCKREPETAG
1070
     1
1071
       80
1005
1327B3
  0
LINE
  5
1327B4
  8
HIDDEN
 10
5098.0
 20
-3564.9999999999968
 30
0.0
 11
5098.0
 21
-3450.9999999999968
 31
0.0
1001
ACDBBLOCKREPETAG
1070
     1
1071
       81
1005
1327B4
  0
LINE
  5
1327B5
  8
OBJECT
 10
5150.0
 20
-3099.9999999999959
 30
0.0
 11
5143.0
 21
-3099.9999999999959
 31
0.0
1001
ACDBBLOCKREPETAG
1070
     1
1071
       67
1005
1327B5
  0
LINE
  5
1327B6
  8
OBJECT
 10
5143.0
 20
-3099.9999999999959
 30
0.0
 11
5143.0
 21
-3249.9999999999959
 31
0.0
1001
ACDBBLOCKREPETAG
1070
     1
1071
       68
1005
1327B6
  0
LINE
  5
1327B7
  8
OBJECT
 10
5101.5
 20
-3102.9999999999959
 30
0.0
 11
5101.5
 21
-3246.9999999999959
 31
0.0
1001
ACDBBLOCKREPETAG
1070
     1
1071
       69
1005
1327B7
  0
LINE
  5
1327B8
  8
OBJECT
 10
5090.0
 20
-3109.4999999999959
 30
0.0
 11
5090.0
 21
-3240.4999999999959
 31
0.0
1001
ACDBBLOCKREPETAG
1070
     1
1071
       70
1005
1327B8
  0
LINE
  5
1327B9
  8
OBJECT
 10
5143.0
 20
-3249.9999999999959
 30
0.0
 11
5150.0
 21
-3249.9999999999959
 31
0.0
1001
ACDBBLOCKREPETAG
1070
     1
1071
       71
1005
1327B9
  0
LINE
  5
1327BA
  8
OBJECT
 10
5150.0
 20
-3249.9999999999959
 30
0.0
 11
5150.0
 21
-3099.9999999999959
 31
0.0
1001
ACDBBLOCKREPETAG
1070
     1
1071
       72
1005
1327BA
  0
LINE
  5
1327BB
  8
HIDDEN
 10
5098.0
 20
-3231.9999999999959
 30
0.0
 11
5098.0
 21
-3117.9999999999959
 31
0.0
1001
ACDBBLOCKREPETAG
1070
     1
1071
       73
1005
1327BB
  0
LINE
  5
1327BC
  8
CENTER
 10
5165.0
 20
-3174.9999999999959
 30
0.0
 11
5080.0
 21
-3174.9999999999959
 31
0.0
1001
ACDBBLOCKREPETAG
1070
     1
1071
       74
1005
1327BC
  0
LINE
  5
1327BD
  8
OBJECT
 10
5086.0
 20
-3236.9999999999959
 30
0.0
 11
5080.0
 21
-3236.9999999999959
 31
0.0
1001
ACDBBLOCKREPETAG
1070
     1
1071
       75
1005
1327BD
  0
LINE
  5
1327BE
  8
OBJECT
 10
5143.0
 20
-3246.9999999999959
 30
0.0
 11
5101.5
 21
-3246.9999999999959
 31
0.0
1001
ACDBBLOCKREPETAG
1070
     1
1071
       76
1005
1327BE
  0
LINE
  5
1327BF
  8
OBJECT
 10
5101.5
 20
-3246.9999999999959
 30
0.0
 11
5090.0
 21
-3240.4999999999959
 31
0.0
1001
ACDBBLOCKREPETAG
1070
     1
1071
       77
1005
1327BF
  0
LINE
  5
1327C0
  8
OBJECT
 10
5090.0
 20
-3240.4999999999959
 30
0.0
 11
5086.0
 21
-3236.9999999999959
 31
0.0
1001
ACDBBLOCKREPETAG
1070
     1
1071
       78
1005
1327C0
  0
LINE
  5
1327C1
  8
OBJECT
 10
5101.5
 20
-3102.9999999999959
 30
0.0
 11
5090.0
 21
-3109.4999999999959
 31
0.0
1001
ACDBBLOCKREPETAG
1070
     1
1071
       79
1005
1327C1
  0
LINE
  5
1327C2
  8
OBJECT
 10
5090.0
 20
-3109.4999999999959
 30
0.0
 11
5086.0
 21
-3112.9999999999959
 31
0.0
1001
ACDBBLOCKREPETAG
1070
     1
1071
       80
1005
1327C2
  0
ARC
  5
1327C3
  8
OBJECT
 10
5467.9000000000005
 20
-3174.9999999999959
 30
0.0
 40
386.89999999999998
 50
170.77870136260421
 51
189.22129863739571
1001
ACDBBLOCKREPETAG
1070
     1
1071
       81
1005
1327C3
  0
LINE
  5
1327C4
  8
OBJECT
 10
5086.0
 20
-3112.9999999999959
 30
0.0
 11
5080.0
 21
-3112.9999999999959
 31
0.0
1001
ACDBBLOCKREPETAG
1070
     1
1071
       82
1005
1327C4
  0
LINE
  5
1327C5
  8
OBJECT
 10
5143.0
 20
-3102.9999999999959
 30
0.0
 11
5101.5
 21
-3102.9999999999959
 31
0.0
1001
ACDBBLOCKREPETAG
1070
     1
1071
       83
1005
1327C5
  0
TEXT
  5
1327C6
  8
SLIM
 10
4884.25
 20
-3697.4999999999959
 30
0.0
 40
35.0
  1
通常枝100（4）
 41
0.75
  0
LINE
  5
1327C7
  8
CENTER
 10
4477.0
 20
-3520.9999999999968
 30
0.0
 11
4323.0
 21
-3520.9999999999968
 31
0.0
1001
ACDBBLOCKREPETAG
1070
     1
1071
       17
1005
1327C7
  0
CIRCLE
  5
1327C8
  8
OBJECT
 10
4400.0
 20
-3520.9999999999968
 30
0.0
 40
41.5
1001
ACDBBLOCKREPETAG
1070
     1
1071
       19
1005
1327C8
  0
CIRCLE
  5
1327C9
  8
OBJECT
 10
4400.0
 20
-3520.9999999999968
 30
0.0
 40
54.0
1001
ACDBBLOCKREPETAG
1070
     1
1071
       20
1005
1327C9
  0
ARC
  5
1327CA
  8
OBJECT
 10
4400.0
 20
-3520.9999999999968
 30
0.0
 40
62.0
 50
287.89655112921122
 51
252.1034488707887
1001
ACDBBLOCKREPETAG
1070
     1
1071
       21
1005
1327CA
  0
LINE
  5
1327CB
  8
OBJECT
 10
4380.947441116743
 20
-3579.9999999999968
 30
0.0
 11
4419.052558883257
 21
-3579.9999999999968
 31
0.0
1001
ACDBBLOCKREPETAG
1070
     1
1071
       22
1005
1327CB
  0
LINE
  5
1327CC
  8
OBJECT
 10
4133.0
 20
-3458.9999999999968
 30
0.0
 11
4140.0
 21
-3458.9999999999968
 31
0.0
1001
ACDBBLOCKREPETAG
1070
     1
1071
       45
1005
1327CC
  0
LINE
  5
1327CD
  8
OBJECT
 10
4140.0
 20
-3458.9999999999968
 30
0.0
 11
4140.0
 21
-3579.9999999999968
 31
0.0
1001
ACDBBLOCKREPETAG
1070
     1
1071
       46
1005
1327CD
  0
LINE
  5
1327CE
  8
OBJECT
 10
4133.0
 20
-3579.9999999999968
 30
0.0
 11
4133.0
 21
-3458.9999999999968
 31
0.0
1001
ACDBBLOCKREPETAG
1070
     1
1071
       47
1005
1327CE
  0
LINE
  5
1327CF
  8
CENTER
 10
4155.0
 20
-3520.9999999999968
 30
0.0
 11
4071.0
 21
-3520.9999999999968
 31
0.0
1001
ACDBBLOCKREPETAG
1070
     1
1071
       48
1005
1327CF
  0
LINE
  5
1327D0
  8
OBJECT
 10
4133.0
 20
-3461.9999999999968
 30
0.0
 11
4097.0
 21
-3461.9999999999968
 31
0.0
1001
ACDBBLOCKREPETAG
1070
     1
1071
       49
1005
1327D0
  0
LINE
  5
1327D1
  8
OBJECT
 10
4097.0
 20
-3461.9999999999968
 30
0.0
 11
4097.0
 21
-3579.9999999999968
 31
0.0
1001
ACDBBLOCKREPETAG
1070
     1
1071
       50
1005
1327D1
  0
LINE
  5
1327D2
  8
OBJECT
 10
4097.0
 20
-3579.9999999999968
 30
0.0
 11
4140.0
 21
-3579.9999999999968
 31
0.0
1001
ACDBBLOCKREPETAG
1070
     1
1071
       51
1005
1327D2
  0
LINE
  5
1327D3
  8
OBJECT
 10
4093.0
 20
-3466.4999999999968
 30
0.0
 11
4086.0
 21
-3466.4999999999968
 31
0.0
1001
ACDBBLOCKREPETAG
1070
     1
1071
       52
1005
1327D3
  0
LINE
  5
1327D4
  8
OBJECT
 10
4086.0
 20
-3575.4999999999968
 30
0.0
 11
4093.0
 21
-3575.4999999999968
 31
0.0
1001
ACDBBLOCKREPETAG
1070
     1
1071
       53
1005
1327D4
  0
LINE
  5
1327D5
  8
OBJECT
 10
4093.0
 20
-3575.4999999999968
 30
0.0
 11
4093.0
 21
-3466.4999999999968
 31
0.0
1001
ACDBBLOCKREPETAG
1070
     1
1071
       54
1005
1327D5
  0
LINE
  5
1327D6
  8
OBJECT
 10
4097.0
 20
-3461.9999999999968
 30
0.0
 11
4093.0
 21
-3466.4999999999968
 31
0.0
1001
ACDBBLOCKREPETAG
1070
     1
1071
       55
1005
1327D6
  0
LINE
  5
1327D7
  8
OBJECT
 10
4097.0
 20
-3579.9999999999968
 30
0.0
 11
4093.0
 21
-3575.4999999999968
 31
0.0
1001
ACDBBLOCKREPETAG
1070
     1
1071
       56
1005
1327D7
  0
LINE
  5
1327D8
  8
OBJECT
 10
4083.0
 20
-3458.9999999999968
 30
0.0
 11
4080.0
 21
-3458.9999999999968
 31
0.0
1001
ACDBBLOCKREPETAG
1070
     1
1071
       57
1005
1327D8
  0
ARC
  5
1327D9
  8
OBJECT
 10
4083.0
 20
-3461.9999999999968
 30
0.0
 40
3.0
 50
0.0
 51
90.0
1001
ACDBBLOCKREPETAG
1070
     1
1071
       58
1005
1327D9
  0
LINE
  5
1327DA
  8
OBJECT
 10
4080.0
 20
-3582.9999999999968
 30
0.0
 11
4083.0
 21
-3582.9999999999968
 31
0.0
1001
ACDBBLOCKREPETAG
1070
     1
1071
       59
1005
1327DA
  0
ARC
  5
1327DB
  8
OBJECT
 10
4083.0
 20
-3579.9999999999968
 30
0.0
 40
3.0
 50
270.0
 51
0.0
1001
ACDBBLOCKREPETAG
1070
     1
1071
       60
1005
1327DB
  0
LINE
  5
1327DC
  8
OBJECT
 10
4086.0
 20
-3579.9999999999968
 30
0.0
 11
4086.0
 21
-3461.9999999999968
 31
0.0
1001
ACDBBLOCKREPETAG
1070
     1
1071
       61
1005
1327DC
  0
LINE
  5
1327DD
  8
HIDDEN
 10
4088.0
 20
-3476.4999999999968
 30
0.0
 11
4088.0
 21
-3565.4999999999968
 31
0.0
1001
ACDBBLOCKREPETAG
1070
     1
1071
       63
1005
1327DD
  0
LINE
  5
1327DE
  8
OBJECT
 10
4133.0
 20
-3112.9999999999959
 30
0.0
 11
4140.0
 21
-3112.9999999999959
 31
0.0
1001
ACDBBLOCKREPETAG
1070
     1
1071
       47
1005
1327DE
  0
LINE
  5
1327DF
  8
OBJECT
 10
4140.0
 20
-3112.9999999999959
 30
0.0
 11
4140.0
 21
-3236.9999999999959
 31
0.0
1001
ACDBBLOCKREPETAG
1070
     1
1071
       48
1005
1327DF
  0
LINE
  5
1327E0
  8
OBJECT
 10
4140.0
 20
-3236.9999999999959
 30
0.0
 11
4133.0
 21
-3236.9999999999959
 31
0.0
1001
ACDBBLOCKREPETAG
1070
     1
1071
       49
1005
1327E0
  0
LINE
  5
1327E1
  8
OBJECT
 10
4133.0
 20
-3236.9999999999959
 30
0.0
 11
4133.0
 21
-3112.9999999999959
 31
0.0
1001
ACDBBLOCKREPETAG
1070
     1
1071
       50
1005
1327E1
  0
LINE
  5
1327E2
  8
CENTER
 10
4155.0
 20
-3174.9999999999959
 30
0.0
 11
4080.0
 21
-3174.9999999999959
 31
0.0
1001
ACDBBLOCKREPETAG
1070
     1
1071
       51
1005
1327E2
  0
LINE
  5
1327E3
  8
OBJECT
 10
4133.0
 20
-3115.9999999999959
 30
0.0
 11
4097.0
 21
-3115.9999999999959
 31
0.0
1001
ACDBBLOCKREPETAG
1070
     1
1071
       52
1005
1327E3
  0
LINE
  5
1327E4
  8
OBJECT
 10
4097.0
 20
-3115.9999999999959
 30
0.0
 11
4097.0
 21
-3233.9999999999959
 31
0.0
1001
ACDBBLOCKREPETAG
1070
     1
1071
       53
1005
1327E4
  0
LINE
  5
1327E5
  8
OBJECT
 10
4097.0
 20
-3233.9999999999959
 30
0.0
 11
4133.0
 21
-3233.9999999999959
 31
0.0
1001
ACDBBLOCKREPETAG
1070
     1
1071
       54
1005
1327E5
  0
LINE
  5
1327E6
  8
OBJECT
 10
4093.0
 20
-3120.4999999999959
 30
0.0
 11
4086.0
 21
-3120.4999999999959
 31
0.0
1001
ACDBBLOCKREPETAG
1070
     1
1071
       55
1005
1327E6
  0
LINE
  5
1327E7
  8
OBJECT
 10
4086.0
 20
-3229.4999999999959
 30
0.0
 11
4093.0
 21
-3229.4999999999959
 31
0.0
1001
ACDBBLOCKREPETAG
1070
     1
1071
       56
1005
1327E7
  0
LINE
  5
1327E8
  8
OBJECT
 10
4093.0
 20
-3229.4999999999959
 30
0.0
 11
4093.0
 21
-3120.4999999999959
 31
0.0
1001
ACDBBLOCKREPETAG
1070
     1
1071
       57
1005
1327E8
  0
LINE
  5
1327E9
  8
OBJECT
 10
4097.0
 20
-3115.9999999999959
 30
0.0
 11
4093.0
 21
-3120.4999999999959
 31
0.0
1001
ACDBBLOCKREPETAG
1070
     1
1071
       58
1005
1327E9
  0
LINE
  5
1327EA
  8
OBJECT
 10
4097.0
 20
-3233.9999999999959
 30
0.0
 11
4093.0
 21
-3229.4999999999959
 31
0.0
1001
ACDBBLOCKREPETAG
1070
     1
1071
       59
1005
1327EA
  0
LINE
  5
1327EB
  8
OBJECT
 10
4083.0
 20
-3112.9999999999959
 30
0.0
 11
4080.0
 21
-3112.9999999999959
 31
0.0
1001
ACDBBLOCKREPETAG
1070
     1
1071
       60
1005
1327EB
  0
ARC
  5
1327EC
  8
OBJECT
 10
4083.0
 20
-3115.9999999999959
 30
0.0
 40
3.0
 50
0.0
 51
90.0
1001
ACDBBLOCKREPETAG
1070
     1
1071
       61
1005
1327EC
  0
LINE
  5
1327ED
  8
OBJECT
 10
4080.0
 20
-3236.9999999999959
 30
0.0
 11
4083.0
 21
-3236.9999999999959
 31
0.0
1001
ACDBBLOCKREPETAG
1070
     1
1071
       62
1005
1327ED
  0
ARC
  5
1327EE
  8
OBJECT
 10
4083.0
 20
-3233.9999999999959
 30
0.0
 40
3.0
 50
270.0
 51
0.0
1001
ACDBBLOCKREPETAG
1070
     1
1071
       63
1005
1327EE
  0
LINE
  5
1327EF
  8
OBJECT
 10
4086.0
 20
-3233.9999999999959
 30
0.0
 11
4086.0
 21
-3115.9999999999959
 31
0.0
1001
ACDBBLOCKREPETAG
1070
     1
1071
       64
1005
1327EF
  0
LINE
  5
1327F0
  8
HIDDEN
 10
4088.0
 20
-3130.4999999999959
 30
0.0
 11
4088.0
 21
-3219.4999999999959
 31
0.0
1001
ACDBBLOCKREPETAG
1070
     1
1071
       65
1005
1327F0
  0
TEXT
  5
1327F1
  8
SLIM
 10
3894.25
 20
-3697.4999999999959
 30
0.0
 40
35.0
  1
通常枝75（3）
 41
0.75
  0
CIRCLE
  5
1327F2
  8
OBJECT
 10
3400.0
 20
-3527.9999999999968
 30
0.0
 40
35.5
1001
ACDBBLOCKREPETAG
1070
     1
1071
       10
1005
1327F2
  0
CIRCLE
  5
1327F3
  8
OBJECT
 10
3400.0
 20
-3520.9999999999968
 30
0.0
 40
62.0
1001
ACDBBLOCKREPETAG
1070
     1
1071
       11
1005
1327F3
  0
LINE
  5
1327F4
  8
CENTER
 10
3330.0
 20
-3527.9999999999968
 30
0.0
 11
3470.0
 21
-3527.9999999999968
 31
0.0
1001
ACDBBLOCKREPETAG
1070
     1
1071
       12
1005
1327F4
  0
CIRCLE
  5
1327F5
  8
OBJECT
 10
3400.0
 20
-3527.9999999999968
 30
0.0
 40
47.0
1001
ACDBBLOCKREPETAG
1070
     1
1071
       14
1005
1327F5
  0
ARC
  5
1327F6
  8
OBJECT
 10
3400.0
 20
-3527.9999999999968
 30
0.0
 40
55.0
 50
289.01126526011359
 51
250.98873473988641
1001
ACDBBLOCKREPETAG
1070
     1
1071
       15
1005
1327F6
  0
LINE
  5
1327F7
  8
OBJECT
 10
3382.0835271328328
 20
-3579.9999999999968
 30
0.0
 11
3417.9164728671681
 21
-3579.9999999999968
 31
0.0
1001
ACDBBLOCKREPETAG
1070
     1
1071
       16
1005
1327F7
  0
LINE
  5
1327F8
  8
OBJECT
 10
3133.0
 20
-3472.9999999999968
 30
0.0
 11
3140.0
 21
-3472.9999999999968
 31
0.0
1001
ACDBBLOCKREPETAG
1070
     1
1071
       26
1005
1327F8
  0
LINE
  5
1327F9
  8
OBJECT
 10
3140.0
 20
-3472.9999999999968
 30
0.0
 11
3140.0
 21
-3579.9999999999968
 31
0.0
1001
ACDBBLOCKREPETAG
1070
     1
1071
       27
1005
1327F9
  0
LINE
  5
1327FA
  8
OBJECT
 10
3133.0
 20
-3579.9999999999968
 30
0.0
 11
3133.0
 21
-3472.9999999999968
 31
0.0
1001
ACDBBLOCKREPETAG
1070
     1
1071
       28
1005
1327FA
  0
LINE
  5
1327FB
  8
CENTER
 10
3155.0
 20
-3527.9999999999968
 30
0.0
 11
3071.0
 21
-3527.9999999999968
 31
0.0
1001
ACDBBLOCKREPETAG
1070
     1
1071
       29
1005
1327FB
  0
LINE
  5
1327FC
  8
OBJECT
 10
3133.0
 20
-3475.9999999999968
 30
0.0
 11
3097.0
 21
-3475.9999999999968
 31
0.0
1001
ACDBBLOCKREPETAG
1070
     1
1071
       30
1005
1327FC
  0
LINE
  5
1327FD
  8
OBJECT
 10
3097.0
 20
-3475.9999999999968
 30
0.0
 11
3097.0
 21
-3579.9999999999968
 31
0.0
1001
ACDBBLOCKREPETAG
1070
     1
1071
       31
1005
1327FD
  0
LINE
  5
1327FE
  8
OBJECT
 10
3097.0
 20
-3579.9999999999968
 30
0.0
 11
3140.0
 21
-3579.9999999999968
 31
0.0
1001
ACDBBLOCKREPETAG
1070
     1
1071
       32
1005
1327FE
  0
LINE
  5
1327FF
  8
OBJECT
 10
3093.0
 20
-3480.4999999999968
 30
0.0
 11
3086.0
 21
-3480.4999999999968
 31
0.0
1001
ACDBBLOCKREPETAG
1070
     1
1071
       33
1005
1327FF
  0
LINE
  5
132800
  8
OBJECT
 10
3086.0
 20
-3575.4999999999968
 30
0.0
 11
3093.0
 21
-3575.4999999999968
 31
0.0
1001
ACDBBLOCKREPETAG
1070
     1
1071
       34
1005
132800
  0
LINE
  5
132801
  8
OBJECT
 10
3093.0
 20
-3575.4999999999968
 30
0.0
 11
3093.0
 21
-3480.4999999999968
 31
0.0
1001
ACDBBLOCKREPETAG
1070
     1
1071
       35
1005
132801
  0
LINE
  5
132802
  8
OBJECT
 10
3097.0
 20
-3475.9999999999968
 30
0.0
 11
3093.0
 21
-3480.4999999999968
 31
0.0
1001
ACDBBLOCKREPETAG
1070
     1
1071
       36
1005
132802
  0
LINE
  5
132803
  8
OBJECT
 10
3097.0
 20
-3579.9999999999968
 30
0.0
 11
3093.0
 21
-3575.4999999999968
 31
0.0
1001
ACDBBLOCKREPETAG
1070
     1
1071
       37
1005
132803
  0
LINE
  5
132804
  8
OBJECT
 10
3083.0
 20
-3458.9999999999968
 30
0.0
 11
3080.0
 21
-3458.9999999999968
 31
0.0
1001
ACDBBLOCKREPETAG
1070
     1
1071
       38
1005
132804
  0
ARC
  5
132805
  8
OBJECT
 10
3083.0
 20
-3461.9999999999968
 30
0.0
 40
3.0
 50
0.0
 51
90.0
1001
ACDBBLOCKREPETAG
1070
     1
1071
       39
1005
132805
  0
LINE
  5
132806
  8
OBJECT
 10
3080.0
 20
-3582.9999999999968
 30
0.0
 11
3083.0
 21
-3582.9999999999968
 31
0.0
1001
ACDBBLOCKREPETAG
1070
     1
1071
       40
1005
132806
  0
ARC
  5
132807
  8
OBJECT
 10
3083.0
 20
-3579.9999999999968
 30
0.0
 40
3.0
 50
270.0
 51
0.0
1001
ACDBBLOCKREPETAG
1070
     1
1071
       41
1005
132807
  0
LINE
  5
132808
  8
OBJECT
 10
3086.0
 20
-3579.9999999999968
 30
0.0
 11
3086.0
 21
-3461.9999999999968
 31
0.0
1001
ACDBBLOCKREPETAG
1070
     1
1071
       42
1005
132808
  0
LINE
  5
132809
  8
HIDDEN
 10
3088.0
 20
-3489.9999999999968
 30
0.0
 11
3088.0
 21
-3565.9999999999968
 31
0.0
1001
ACDBBLOCKREPETAG
1070
     1
1071
       43
1005
132809
  0
LINE
  5
13280A
  8
OBJECT
 10
3133.0
 20
-3119.9999999999959
 30
0.0
 11
3140.0
 21
-3119.9999999999959
 31
0.0
1001
ACDBBLOCKREPETAG
1070
     1
1071
       27
1005
13280A
  0
LINE
  5
13280B
  8
OBJECT
 10
3140.0
 20
-3119.9999999999959
 30
0.0
 11
3140.0
 21
-3229.9999999999959
 31
0.0
1001
ACDBBLOCKREPETAG
1070
     1
1071
       28
1005
13280B
  0
LINE
  5
13280C
  8
OBJECT
 10
3140.0
 20
-3229.9999999999959
 30
0.0
 11
3133.0
 21
-3229.9999999999959
 31
0.0
1001
ACDBBLOCKREPETAG
1070
     1
1071
       29
1005
13280C
  0
LINE
  5
13280D
  8
OBJECT
 10
3133.0
 20
-3229.9999999999959
 30
0.0
 11
3133.0
 21
-3119.9999999999959
 31
0.0
1001
ACDBBLOCKREPETAG
1070
     1
1071
       30
1005
13280D
  0
LINE
  5
13280E
  8
CENTER
 10
3155.0
 20
-3174.9999999999959
 30
0.0
 11
3080.0
 21
-3174.9999999999959
 31
0.0
1001
ACDBBLOCKREPETAG
1070
     1
1071
       31
1005
13280E
  0
LINE
  5
13280F
  8
OBJECT
 10
3133.0
 20
-3122.9999999999959
 30
0.0
 11
3097.0
 21
-3122.9999999999959
 31
0.0
1001
ACDBBLOCKREPETAG
1070
     1
1071
       32
1005
13280F
  0
LINE
  5
132810
  8
OBJECT
 10
3097.0
 20
-3122.9999999999959
 30
0.0
 11
3097.0
 21
-3226.9999999999959
 31
0.0
1001
ACDBBLOCKREPETAG
1070
     1
1071
       33
1005
132810
  0
LINE
  5
132811
  8
OBJECT
 10
3097.0
 20
-3226.9999999999959
 30
0.0
 11
3133.0
 21
-3226.9999999999959
 31
0.0
1001
ACDBBLOCKREPETAG
1070
     1
1071
       34
1005
132811
  0
LINE
  5
132812
  8
OBJECT
 10
3093.0
 20
-3127.4999999999959
 30
0.0
 11
3086.0
 21
-3127.4999999999959
 31
0.0
1001
ACDBBLOCKREPETAG
1070
     1
1071
       35
1005
132812
  0
LINE
  5
132813
  8
OBJECT
 10
3086.0
 20
-3222.4999999999959
 30
0.0
 11
3093.0
 21
-3222.4999999999959
 31
0.0
1001
ACDBBLOCKREPETAG
1070
     1
1071
       36
1005
132813
  0
LINE
  5
132814
  8
OBJECT
 10
3093.0
 20
-3222.4999999999959
 30
0.0
 11
3093.0
 21
-3127.4999999999959
 31
0.0
1001
ACDBBLOCKREPETAG
1070
     1
1071
       37
1005
132814
  0
LINE
  5
132815
  8
OBJECT
 10
3097.0
 20
-3122.9999999999959
 30
0.0
 11
3093.0
 21
-3127.4999999999959
 31
0.0
1001
ACDBBLOCKREPETAG
1070
     1
1071
       38
1005
132815
  0
LINE
  5
132816
  8
OBJECT
 10
3097.0
 20
-3226.9999999999959
 30
0.0
 11
3093.0
 21
-3222.4999999999959
 31
0.0
1001
ACDBBLOCKREPETAG
1070
     1
1071
       39
1005
132816
  0
LINE
  5
132817
  8
OBJECT
 10
3083.0
 20
-3112.9999999999959
 30
0.0
 11
3080.0
 21
-3112.9999999999959
 31
0.0
1001
ACDBBLOCKREPETAG
1070
     1
1071
       40
1005
132817
  0
ARC
  5
132818
  8
OBJECT
 10
3083.0
 20
-3115.9999999999959
 30
0.0
 40
3.0
 50
0.0
 51
90.0
1001
ACDBBLOCKREPETAG
1070
     1
1071
       41
1005
132818
  0
LINE
  5
132819
  8
OBJECT
 10
3080.0
 20
-3236.9999999999959
 30
0.0
 11
3083.0
 21
-3236.9999999999959
 31
0.0
1001
ACDBBLOCKREPETAG
1070
     1
1071
       42
1005
132819
  0
ARC
  5
13281A
  8
OBJECT
 10
3083.0
 20
-3233.9999999999959
 30
0.0
 40
3.0
 50
270.0
 51
0.0
1001
ACDBBLOCKREPETAG
1070
     1
1071
       43
1005
13281A
  0
LINE
  5
13281B
  8
OBJECT
 10
3086.0
 20
-3233.9999999999959
 30
0.0
 11
3086.0
 21
-3115.9999999999959
 31
0.0
1001
ACDBBLOCKREPETAG
1070
     1
1071
       44
1005
13281B
  0
LINE
  5
13281C
  8
HIDDEN
 10
3088.0
 20
-3136.9999999999959
 30
0.0
 11
3088.0
 21
-3212.9999999999959
 31
0.0
1001
ACDBBLOCKREPETAG
1070
     1
1071
       45
1005
13281C
  0
TEXT
  5
13281D
  8
SLIM
 10
2894.25
 20
-3697.4999999999959
 30
0.0
 40
35.0
  1
通常枝65（2）
 41
0.75
  0
CIRCLE
  5
13281E
  8
OBJECT
 10
2400.0
 20
-3520.9999999999968
 30
0.0
 40
62.0
1001
ACDBBLOCKREPETAG
1070
     1
1071
        3
1005
13281E
  0
LINE
  5
13281F
  8
CENTER
 10
2338.0
 20
-3535.9999999999968
 30
0.0
 11
2462.0
 21
-3535.9999999999968
 31
0.0
1001
ACDBBLOCKREPETAG
1070
     1
1071
        4
1005
13281F
  0
CIRCLE
  5
132820
  8
OBJECT
 10
2400.0
 20
-3535.9999999999968
 30
0.0
 40
28.0
1001
ACDBBLOCKREPETAG
1070
     1
1071
        6
1005
132820
  0
CIRCLE
  5
132821
  8
OBJECT
 10
2400.0
 20
-3535.9999999999968
 30
0.0
 40
39.0
1001
ACDBBLOCKREPETAG
1070
     1
1071
        7
1005
132821
  0
ARC
  5
132822
  8
OBJECT
 10
2400.0
 20
-3535.9999999999968
 30
0.0
 40
47.0
 50
290.58196921144412
 51
249.41803078855591
1001
ACDBBLOCKREPETAG
1070
     1
1071
        8
1005
132822
  0
LINE
  5
132823
  8
OBJECT
 10
2383.4772883581431
 20
-3579.9999999999968
 30
0.0
 11
2416.5227116418569
 21
-3579.9999999999968
 31
0.0
1001
ACDBBLOCKREPETAG
1070
     1
1071
        9
1005
132823
  0
LINE
  5
132824
  8
OBJECT
 10
2133.0
 20
-3488.9999999999968
 30
0.0
 11
2140.0
 21
-3488.9999999999968
 31
0.0
1001
ACDBBLOCKREPETAG
1070
     1
1071
        7
1005
132824
  0
LINE
  5
132825
  8
OBJECT
 10
2140.0
 20
-3488.9999999999968
 30
0.0
 11
2140.0
 21
-3579.9999999999968
 31
0.0
1001
ACDBBLOCKREPETAG
1070
     1
1071
        8
1005
132825
  0
LINE
  5
132826
  8
OBJECT
 10
2133.0
 20
-3579.9999999999968
 30
0.0
 11
2133.0
 21
-3488.9999999999968
 31
0.0
1001
ACDBBLOCKREPETAG
1070
     1
1071
        9
1005
132826
  0
LINE
  5
132827
  8
CENTER
 10
2155.0
 20
-3535.9999999999968
 30
0.0
 11
2071.0
 21
-3535.9999999999968
 31
0.0
1001
ACDBBLOCKREPETAG
1070
     1
1071
       10
1005
132827
  0
LINE
  5
132828
  8
OBJECT
 10
2133.0
 20
-3491.9999999999968
 30
0.0
 11
2097.0
 21
-3491.9999999999968
 31
0.0
1001
ACDBBLOCKREPETAG
1070
     1
1071
       11
1005
132828
  0
LINE
  5
132829
  8
OBJECT
 10
2097.0
 20
-3491.9999999999968
 30
0.0
 11
2097.0
 21
-3579.9999999999968
 31
0.0
1001
ACDBBLOCKREPETAG
1070
     1
1071
       12
1005
132829
  0
LINE
  5
13282A
  8
OBJECT
 10
2097.0
 20
-3579.9999999999968
 30
0.0
 11
2140.0
 21
-3579.9999999999968
 31
0.0
1001
ACDBBLOCKREPETAG
1070
     1
1071
       13
1005
13282A
  0
LINE
  5
13282B
  8
OBJECT
 10
2093.0
 20
-3496.4999999999968
 30
0.0
 11
2086.0
 21
-3496.4999999999968
 31
0.0
1001
ACDBBLOCKREPETAG
1070
     1
1071
       14
1005
13282B
  0
LINE
  5
13282C
  8
OBJECT
 10
2086.0
 20
-3575.4999999999968
 30
0.0
 11
2093.0
 21
-3575.4999999999968
 31
0.0
1001
ACDBBLOCKREPETAG
1070
     1
1071
       15
1005
13282C
  0
LINE
  5
13282D
  8
OBJECT
 10
2093.0
 20
-3575.4999999999968
 30
0.0
 11
2093.0
 21
-3496.4999999999968
 31
0.0
1001
ACDBBLOCKREPETAG
1070
     1
1071
       16
1005
13282D
  0
LINE
  5
13282E
  8
OBJECT
 10
2097.0
 20
-3491.9999999999968
 30
0.0
 11
2093.0
 21
-3496.4999999999968
 31
0.0
1001
ACDBBLOCKREPETAG
1070
     1
1071
       17
1005
13282E
  0
LINE
  5
13282F
  8
OBJECT
 10
2097.0
 20
-3579.9999999999968
 30
0.0
 11
2093.0
 21
-3575.4999999999968
 31
0.0
1001
ACDBBLOCKREPETAG
1070
     1
1071
       18
1005
13282F
  0
LINE
  5
132830
  8
OBJECT
 10
2083.0
 20
-3458.9999999999968
 30
0.0
 11
2080.0
 21
-3458.9999999999968
 31
0.0
1001
ACDBBLOCKREPETAG
1070
     1
1071
       19
1005
132830
  0
ARC
  5
132831
  8
OBJECT
 10
2083.0
 20
-3461.9999999999968
 30
0.0
 40
3.0
 50
0.0
 51
90.0
1001
ACDBBLOCKREPETAG
1070
     1
1071
       20
1005
132831
  0
LINE
  5
132832
  8
OBJECT
 10
2080.0
 20
-3582.9999999999968
 30
0.0
 11
2083.0
 21
-3582.9999999999968
 31
0.0
1001
ACDBBLOCKREPETAG
1070
     1
1071
       21
1005
132832
  0
ARC
  5
132833
  8
OBJECT
 10
2083.0
 20
-3579.9999999999968
 30
0.0
 40
3.0
 50
270.0
 51
0.0
1001
ACDBBLOCKREPETAG
1070
     1
1071
       22
1005
132833
  0
LINE
  5
132834
  8
OBJECT
 10
2086.0
 20
-3579.9999999999968
 30
0.0
 11
2086.0
 21
-3461.9999999999968
 31
0.0
1001
ACDBBLOCKREPETAG
1070
     1
1071
       23
1005
132834
  0
LINE
  5
132835
  8
HIDDEN
 10
2088.0
 20
-3505.9999999999968
 30
0.0
 11
2088.0
 21
-3565.9999999999968
 31
0.0
1001
ACDBBLOCKREPETAG
1070
     1
1071
       24
1005
132835
  0
LINE
  5
132836
  8
OBJECT
 10
2133.0
 20
-3127.9999999999959
 30
0.0
 11
2140.0
 21
-3127.9999999999959
 31
0.0
1001
ACDBBLOCKREPETAG
1070
     1
1071
        7
1005
132836
  0
LINE
  5
132837
  8
OBJECT
 10
2140.0
 20
-3127.9999999999959
 30
0.0
 11
2140.0
 21
-3221.9999999999959
 31
0.0
1001
ACDBBLOCKREPETAG
1070
     1
1071
        8
1005
132837
  0
LINE
  5
132838
  8
OBJECT
 10
2140.0
 20
-3221.9999999999959
 30
0.0
 11
2133.0
 21
-3221.9999999999959
 31
0.0
1001
ACDBBLOCKREPETAG
1070
     1
1071
        9
1005
132838
  0
LINE
  5
132839
  8
OBJECT
 10
2133.0
 20
-3221.9999999999959
 30
0.0
 11
2133.0
 21
-3127.9999999999959
 31
0.0
1001
ACDBBLOCKREPETAG
1070
     1
1071
       10
1005
132839
  0
LINE
  5
13283A
  8
CENTER
 10
2155.0
 20
-3174.9999999999959
 30
0.0
 11
2080.0
 21
-3174.9999999999959
 31
0.0
1001
ACDBBLOCKREPETAG
1070
     1
1071
       11
1005
13283A
  0
LINE
  5
13283B
  8
OBJECT
 10
2133.0
 20
-3130.9999999999959
 30
0.0
 11
2097.0
 21
-3130.9999999999959
 31
0.0
1001
ACDBBLOCKREPETAG
1070
     1
1071
       12
1005
13283B
  0
LINE
  5
13283C
  8
OBJECT
 10
2097.0
 20
-3130.9999999999959
 30
0.0
 11
2097.0
 21
-3218.9999999999959
 31
0.0
1001
ACDBBLOCKREPETAG
1070
     1
1071
       13
1005
13283C
  0
LINE
  5
13283D
  8
OBJECT
 10
2097.0
 20
-3218.9999999999959
 30
0.0
 11
2133.0
 21
-3218.9999999999959
 31
0.0
1001
ACDBBLOCKREPETAG
1070
     1
1071
       14
1005
13283D
  0
LINE
  5
13283E
  8
OBJECT
 10
2093.0
 20
-3135.4999999999959
 30
0.0
 11
2086.0
 21
-3135.4999999999959
 31
0.0
1001
ACDBBLOCKREPETAG
1070
     1
1071
       15
1005
13283E
  0
LINE
  5
13283F
  8
OBJECT
 10
2086.0
 20
-3214.4999999999959
 30
0.0
 11
2093.0
 21
-3214.4999999999959
 31
0.0
1001
ACDBBLOCKREPETAG
1070
     1
1071
       16
1005
13283F
  0
LINE
  5
132840
  8
OBJECT
 10
2093.0
 20
-3214.4999999999959
 30
0.0
 11
2093.0
 21
-3135.4999999999959
 31
0.0
1001
ACDBBLOCKREPETAG
1070
     1
1071
       17
1005
132840
  0
LINE
  5
132841
  8
OBJECT
 10
2097.0
 20
-3130.9999999999959
 30
0.0
 11
2093.0
 21
-3135.4999999999959
 31
0.0
1001
ACDBBLOCKREPETAG
1070
     1
1071
       18
1005
132841
  0
LINE
  5
132842
  8
OBJECT
 10
2097.0
 20
-3218.9999999999959
 30
0.0
 11
2093.0
 21
-3214.4999999999959
 31
0.0
1001
ACDBBLOCKREPETAG
1070
     1
1071
       19
1005
132842
  0
LINE
  5
132843
  8
OBJECT
 10
2083.0
 20
-3112.9999999999959
 30
0.0
 11
2080.0
 21
-3112.9999999999959
 31
0.0
1001
ACDBBLOCKREPETAG
1070
     1
1071
       20
1005
132843
  0
ARC
  5
132844
  8
OBJECT
 10
2083.0
 20
-3115.9999999999959
 30
0.0
 40
3.0
 50
0.0
 51
90.0
1001
ACDBBLOCKREPETAG
1070
     1
1071
       21
1005
132844
  0
LINE
  5
132845
  8
OBJECT
 10
2080.0
 20
-3236.9999999999959
 30
0.0
 11
2083.0
 21
-3236.9999999999959
 31
0.0
1001
ACDBBLOCKREPETAG
1070
     1
1071
       22
1005
132845
  0
ARC
  5
132846
  8
OBJECT
 10
2083.0
 20
-3233.9999999999959
 30
0.0
 40
3.0
 50
270.0
 51
0.0
1001
ACDBBLOCKREPETAG
1070
     1
1071
       23
1005
132846
  0
LINE
  5
132847
  8
OBJECT
 10
2086.0
 20
-3233.9999999999959
 30
0.0
 11
2086.0
 21
-3115.9999999999959
 31
0.0
1001
ACDBBLOCKREPETAG
1070
     1
1071
       24
1005
132847
  0
LINE
  5
132848
  8
HIDDEN
 10
2088.0
 20
-3144.9999999999959
 30
0.0
 11
2088.0
 21
-3204.9999999999959
 31
0.0
1001
ACDBBLOCKREPETAG
1070
     1
1071
       25
1005
132848
  0
TEXT
  5
132849
  8
SLIM
 10
1896.75
 20
-3697.4999999999959
 30
0.0
 40
35.0
  1
通常枝50（1）
 41
0.75
  0
LINE
  5
13284A
  8
OBJECT
 10
3930.0
 20
-1079.999999999997
 30
0.0
 11
4070.0
 21
-1079.999999999997
 31
0.0
1001
ACDBBLOCKREPETAG
1070
     1
1071
        0
1005
13284A
  0
LINE
  5
13284B
  8
OBJECT
 10
3930.0
 20
-1079.999999999997
 30
0.0
 11
3930.0
 21
-839.99999999999704
 31
0.0
1001
ACDBBLOCKREPETAG
1070
     1
1071
        1
1005
13284B
  0
LINE
  5
13284C
  8
OBJECT
 10
4070.0
 20
-1079.999999999997
 30
0.0
 11
4070.0
 21
-839.99999999999704
 31
0.0
1001
ACDBBLOCKREPETAG
1070
     1
1071
        2
1005
13284C
  0
LINE
  5
13284D
  8
OBJECT
 10
3930.0
 20
-839.99999999999704
 30
0.0
 11
4070.0
 21
-839.99999999999704
 31
0.0
1001
ACDBBLOCKREPETAG
1070
     1
1071
        3
1005
13284D
  0
LINE
  5
13284E
  8
HIDDEN
 10
3937.5
 20
-839.99999999999704
 30
0.0
 11
3937.5
 21
-1079.999999999997
 31
0.0
1001
ACDBBLOCKREPETAG
1070
     1
1071
        4
1005
13284E
  0
LINE
  5
13284F
  8
HIDDEN
 10
4062.5
 20
-839.99999999999704
 30
0.0
 11
4062.5
 21
-1079.999999999997
 31
0.0
1001
ACDBBLOCKREPETAG
1070
     1
1071
        5
1005
13284F
  0
LINE
  5
132850
  8
CENTER
 10
4000.0
 20
-769.99999999999875
 30
0.0
 11
4000.0
 21
-1094.999999999997
 31
0.0
1001
ACDBBLOCKREPETAG
1070
     1
1071
        6
1005
132850
  0
LINE
  5
132851
  8
OBJECT
 10
3925.0
 20
-769.99999999999875
 30
0.0
 11
3925.0
 21
-799.99999999999693
 31
0.0
1001
ACDBBLOCKREPETAG
1070
     1
1071
        7
1005
132851
  0
LINE
  5
132852
  8
OBJECT
 10
4075.0000000000032
 20
-769.99999999999875
 30
0.0
 11
4075.0
 21
-799.99999999999693
 31
0.0
1001
ACDBBLOCKREPETAG
1070
     1
1071
        8
1005
132852
  0
LINE
  5
132853
  8
OBJECT
 10
3925.0
 20
-799.99999999999693
 30
0.0
 11
4075.0
 21
-799.99999999999693
 31
0.0
1001
ACDBBLOCKREPETAG
1070
     1
1071
        9
1005
132853
  0
LINE
  5
132854
  8
OBJECT
 10
3925.0
 20
-799.99999999999693
 30
0.0
 11
3930.0
 21
-839.99999999999704
 31
0.0
1001
ACDBBLOCKREPETAG
1070
     1
1071
       10
1005
132854
  0
LINE
  5
132855
  8
OBJECT
 10
4070.0
 20
-839.99999999999704
 30
0.0
 11
4075.0
 21
-799.99999999999693
 31
0.0
1001
ACDBBLOCKREPETAG
1070
     1
1071
       11
1005
132855
  0
LINE
  5
132856
  8
OBJECT
 10
1930.0
 20
-1079.999999999998
 30
0.0
 11
2070.0
 21
-1079.999999999998
 31
0.0
1001
ACDBBLOCKREPETAG
1070
     1
1071
        0
1005
132856
  0
LINE
  5
132857
  8
OBJECT
 10
1930.0
 20
-1079.999999999998
 30
0.0
 11
1930.0
 21
-839.99999999999795
 31
0.0
1001
ACDBBLOCKREPETAG
1070
     1
1071
        1
1005
132857
  0
LINE
  5
132858
  8
OBJECT
 10
2070.0
 20
-1079.999999999998
 30
0.0
 11
2070.0
 21
-839.99999999999795
 31
0.0
1001
ACDBBLOCKREPETAG
1070
     1
1071
        2
1005
132858
  0
LINE
  5
132859
  8
OBJECT
 10
1930.0
 20
-839.99999999999795
 30
0.0
 11
2070.0
 21
-839.99999999999795
 31
0.0
1001
ACDBBLOCKREPETAG
1070
     1
1071
        3
1005
132859
  0
LINE
  5
13285A
  8
HIDDEN
 10
1937.5
 20
-839.99999999999795
 30
0.0
 11
1937.5
 21
-1079.999999999998
 31
0.0
1001
ACDBBLOCKREPETAG
1070
     1
1071
        4
1005
13285A
  0
LINE
  5
13285B
  8
HIDDEN
 10
2062.5
 20
-839.99999999999795
 30
0.0
 11
2062.5
 21
-1079.999999999998
 31
0.0
1001
ACDBBLOCKREPETAG
1070
     1
1071
        5
1005
13285B
  0
LINE
  5
13285C
  8
CENTER
 10
2000.0
 20
-769.99999999999955
 30
0.0
 11
2000.0
 21
-1094.999999999997
 31
0.0
1001
ACDBBLOCKREPETAG
1070
     1
1071
        6
1005
13285C
  0
LINE
  5
13285D
  8
OBJECT
 10
1925.0
 20
-769.99999999999955
 30
0.0
 11
1925.0
 21
-799.99999999999773
 31
0.0
1001
ACDBBLOCKREPETAG
1070
     1
1071
        7
1005
13285D
  0
LINE
  5
13285E
  8
OBJECT
 10
2075.0000000000041
 20
-769.99999999999955
 30
0.0
 11
2075.0
 21
-799.99999999999773
 31
0.0
1001
ACDBBLOCKREPETAG
1070
     1
1071
        8
1005
13285E
  0
LINE
  5
13285F
  8
OBJECT
 10
1925.0
 20
-799.99999999999773
 30
0.0
 11
2075.0
 21
-799.99999999999773
 31
0.0
1001
ACDBBLOCKREPETAG
1070
     1
1071
        9
1005
13285F
  0
LINE
  5
132860
  8
OBJECT
 10
1925.0
 20
-799.99999999999773
 30
0.0
 11
1930.0
 21
-839.99999999999795
 31
0.0
1001
ACDBBLOCKREPETAG
1070
     1
1071
       10
1005
132860
  0
LINE
  5
132861
  8
OBJECT
 10
2070.0
 20
-839.99999999999795
 30
0.0
 11
2075.0
 21
-799.99999999999773
 31
0.0
1001
ACDBBLOCKREPETAG
1070
     1
1071
       11
1005
132861
  0
TEXT
  5
132862
  8
SLIM
 10
3824.5999999999999
 20
-1408.999999999997
 30
0.0
 40
28.0
  1
※ 対応スラブ厚　180～200
 41
0.75
  0
TEXT
  5
132863
  8
SLIM
 10
3598.9000000000001
 20
-1502.3333333333301
 30
0.0
 40
28.0
  1
国土交通大臣認定・（一財）日本消防設備安全センター性能評定取得品
 41
0.75
  0
TEXT
  5
132864
  8
SLIM
 10
3631.1000000000022
 20
-1548.999999999997
 30
0.0
 40
28.0
  1
注）ご採用にあたり、認定書及び評定書の内容をご確認ください。
 41
0.75
  0
TEXT
  5
132865
  8
SLIM
 10
3741.6250000000009
 20
-1347.499999999997
 30
0.0
 40
35.0
  1
片受けスタイル（S）＋シンドカット
 41
0.75
  0
TEXT
  5
132866
  8
SLIM
 10
1856.25
 20
-1347.499999999998
 30
0.0
 40
35.0
  1
片受けスタイル（S）
 41
0.75
  0
VIEWPORT
  5
F6BA7
 67
     1
  8
0
 10
145.33033752441401
 20
101.8328354358673
 30
0.0
 40
334.0025019414623
 41
222.19657968139651
 68
     1
 69
     1
1001
ACAD
1000
MVIEW
1002
{
1070
    16
1010
0.0
1020
0.0
1030
0.0
1010
0.0
1020
0.0
1030
1.0
1040
0.0
1040
222.19657968139651
1040
145.33033752441401
1040
101.8328354358673
1040
50.0
1040
0.0
1040
0.0
1070
     0
1070
     0
1070
     1
1070
     1
1070
     0
1070
     0
1070
     0
1070
     0
1040
0.0
1040
0.0
1040
0.0
1040
10.0
1040
10.0
1040
10.0
1040
10.0
1070
     0
1002
{
1002
}
1002
}
  0
VIEWPORT
  5
F6BA9
 67
     1
  8
OBJECT
 10
145.3303314447403
 20
101.8328338861465
 30
0.0
 40
232.5285303115844
 41
162.93253421783439
 68
     2
 69
     2
1001
ACAD
1000
MVIEW
1002
{
1070
    16
1010
0.0
1020
0.0
1030
0.0
1010
0.0
1020
0.0
1030
1.0
1040
0.0
1040
25942.55904403147
1040
2377.604457077377
1040
-7591.5176687056619
1040
50.0
1040
0.0
1040
0.0
1070
     0
1070
   600
1070
     1
1070
     1
1070
     0
1070
     0
1070
     0
1070
     0
1040
0.0
1040
0.0
1040
0.0
1040
1.0
1040
1.0
1040
0.0
1040
0.0
1070
     0
1002
{
1002
}
1002
}
  0
ENDSEC
  0
EOF
