  0
SECTION
  2
HEADER
  9
$ACADVER
  1
AC1009
  9
$INSBASE
 10
0.0
 20
0.0
 30
0.0
  9
$EXTMIN
 10
0.0
 20
-1789.162878787876
 30
0.0
  9
$EXTMAX
 10
4602.0
 20
470.00000000000011
 30
0.0
  9
$LIMMIN
 10
0.0
 20
0.0
  9
$LIMMAX
 10
210.0
 20
297.0
  9
$ORTHOMODE
 70
     0
  9
$REGENMODE
 70
     1
  9
$FILLMODE
 70
     1
  9
$QTEXTMODE
 70
     0
  9
$MIRRTEXT
 70
     0
  9
$DRAGMODE
 70
     2
  9
$LTSCALE
 40
1.0
  9
$OSMODE
 70
    37
  9
$ATTMODE
 70
     1
  9
$TEXTSIZE
 40
4.0
  9
$TRACEWID
 40
0.05
  9
$TEXTSTYLE
  7
STANDARD
  9
$CLAYER
  8
OBJECT
  9
$CELTYPE
  6
BYLAYER
  9
$CECOLOR
 62
   256
  9
$DIMSCALE
 40
10.0
  9
$DIMASZ
 40
2.0
  9
$DIMEXO
 40
1.0
  9
$DIMDLI
 40
10.0
  9
$DIMRND
 40
0.0
  9
$DIMDLE
 40
0.0
  9
$DIMEXE
 40
1.0
  9
$DIMTP
 40
0.0
  9
$DIMTM
 40
0.0
  9
$DIMTXT
 40
3.2000000000000002
  9
$DIMCEN
 40
0.0
  9
$DIMTSZ
 40
0.0
  9
$DIMTOL
 70
     0
  9
$DIMLIM
 70
     0
  9
$DIMTIH
 70
     0
  9
$DIMTOH
 70
     0
  9
$DIMSE1
 70
     0
  9
$DIMSE2
 70
     0
  9
$DIMTAD
 70
     1
  9
$DIMZIN
 70
     8
  9
$DIMBLK
  1
OPEN30
  9
$DIMASO
 70
     1
  9
$DIMSHO
 70
     1
  9
$DIMPOST
  1

  9
$DIMAPOST
  1

  9
$DIMALT
 70
     0
  9
$DIMALTD
 70
     2
  9
$DIMALTF
 40
25.399999999999999
  9
$DIMLFAC
 40
1.0
  9
$DIMTOFL
 70
     1
  9
$DIMTVP
 40
0.0
  9
$DIMTIX
 70
     0
  9
$DIMSOXD
 70
     0
  9
$DIMSAH
 70
     0
  9
$DIMBLK1
  1

  9
$DIMBLK2
  1

  9
$DIMSTYLE
  2
S10
  9
$DIMCLRD
 70
   256
  9
$DIMCLRE
 70
   256
  9
$DIMCLRT
 70
   256
  9
$DIMTFAC
 40
1.0
  9
$DIMGAP
 40
0.9
  9
$LUNITS
 70
     2
  9
$LUPREC
 70
     2
  9
$SKETCHINC
 40
0.1
  9
$FILLETRAD
 40
0.0
  9
$AUNITS
 70
     0
  9
$AUPREC
 70
     2
  9
$MENU
  1
ACAD
  9
$ELEVATION
 40
0.0
  9
$PELEVATION
 40
0.0
  9
$THICKNESS
 40
0.0
  9
$LIMCHECK
 70
     0
  9
$BLIPMODE
 70
     0
  9
$CHAMFERA
 40
2.0
  9
$CHAMFERB
 40
2.0
  9
$SKPOLY
 70
     0
  9
$TDCREATE
 40
2453095.4929404748
  9
$TDUPDATE
 40
2457604.6252048039
  9
$TDINDWG
 40
18.3695902778
  9
$TDUSRTIMER
 40
18.369589490700001
  9
$USRTIMER
 70
     1
  9
$ANGBASE
 50
0.0
  9
$ANGDIR
 70
     0
  9
$PDMODE
 70
    35
  9
$PDSIZE
 40
2.0
  9
$PLINEWID
 40
0.0
  9
$COORDS
 70
     1
  9
$SPLFRAME
 70
     0
  9
$SPLINETYPE
 70
     6
  9
$SPLINESEGS
 70
     8
  9
$ATTDIA
 70
     0
  9
$ATTREQ
 70
     1
  9
$HANDLING
 70
     1
  9
$HANDSEED
  5
122D56
  9
$SURFTAB1
 70
     6
  9
$SURFTAB2
 70
     6
  9
$SURFTYPE
 70
     6
  9
$SURFU
 70
     6
  9
$SURFV
 70
     6
  9
$UCSNAME
  2

  9
$UCSORG
 10
0.0
 20
0.0
 30
0.0
  9
$UCSXDIR
 10
1.0
 20
0.0
 30
0.0
  9
$UCSYDIR
 10
0.0
 20
1.0
 30
0.0
  9
$PUCSNAME
  2

  9
$PUCSORG
 10
0.0
 20
0.0
 30
0.0
  9
$PUCSXDIR
 10
1.0
 20
0.0
 30
0.0
  9
$PUCSYDIR
 10
0.0
 20
1.0
 30
0.0
  9
$USERI1
 70
     0
  9
$USERI2
 70
     0
  9
$USERI3
 70
     0
  9
$USERI4
 70
     0
  9
$USERI5
 70
     0
  9
$USERR1
 40
0.0
  9
$USERR2
 40
0.0
  9
$USERR3
 40
0.0
  9
$USERR4
 40
0.0
  9
$USERR5
 40
0.0
  9
$WORLDVIEW
 70
     1
  9
$SHADEDGE
 70
     3
  9
$SHADEDIF
 70
    70
  9
$TILEMODE
 70
     1
  9
$MAXACTVP
 70
    64
  9
$PLIMCHECK
 70
     0
  9
$PEXTMIN
 10
29.066066288948051
 20
20.366566777229309
 30
0.0
  9
$PEXTMAX
 10
261.5945966005325
 20
183.29910099506381
 30
0.0
  9
$PLIMMIN
 10
-3.17498779296875
 20
-3.1749999523162842
  9
$PLIMMAX
 10
293.83566284179687
 20
206.8406708240509
  9
$UNITMODE
 70
     0
  9
$VISRETAIN
 70
     1
  9
$PLINEGEN
 70
     0
  9
$PSLTSCALE
 70
     1
  0
ENDSEC
  0
SECTION
  2
TABLES
  0
TABLE
  2
VPORT
 70
     1
  0
VPORT
  2
*ACTIVE
 70
     0
 10
0.0
 20
0.0
 11
1.0
 21
1.0
 12
4876.273797904224
 22
-177.1520666728884
 13
0.0
 23
0.0
 14
1.0
 24
1.0
 15
0.0
 25
0.0
 16
0.0
 26
0.0
 36
1.0
 17
0.0
 27
0.0
 37
0.0
 40
6870.3583639726457
 41
1.6494178525226391
 42
50.0
 43
0.0
 44
0.0
 50
0.0
 51
0.0
 71
     0
 72
   600
 73
     1
 74
     1
 75
     0
 76
     0
 77
     0
 78
     0
  0
ENDTAB
  0
TABLE
  2
LTYPE
 70
     4
  0
LTYPE
  2
CONTINUOUS
 70
     0
  3
Solid line
 72
    65
 73
     0
 40
0.0
  0
LTYPE
  2
PHANTOM2
 70
     0
  3
___ _ _ ___ _ _ ___ _ _ ___ _ _
 72
    65
 73
     6
 40
1.25
 49
0.625
 49
-0.125
 49
0.125
 49
-0.125
 49
0.125
 49
-0.125
  0
LTYPE
  2
ACAD_ISO08W100
 70
     0
  3
ISO long-dash short-dash ____ __ ____ __ ____ _
 72
    65
 73
     4
 40
36.0
 49
24.0
 49
-3.0
 49
6.0
 49
-3.0
  0
LTYPE
  2
ACAD_ISO02W100
 70
     0
  3
ISO dash __ __ __ __ __ __ __ __ __ __ __ __ __
 72
    65
 73
     2
 40
15.0
 49
12.0
 49
-3.0
  0
ENDTAB
  0
TABLE
  2
LAYER
 70
     8
  0
LAYER
  2
0
 70
     0
 62
     7
  6
CONTINUOUS
  0
LAYER
  2
OBJECT
 70
     0
 62
     4
  6
CONTINUOUS
  0
LAYER
  2
DEFPOINTS
 70
     0
 62
     7
  6
CONTINUOUS
  0
LAYER
  2
DIM
 70
     0
 62
     7
  6
CONTINUOUS
  0
LAYER
  2
HIDDEN
 70
     0
 62
     2
  6
ACAD_ISO02W100
  0
LAYER
  2
CENTER
 70
     0
 62
     2
  6
ACAD_ISO08W100
  0
LAYER
  2
DOTS
 70
     0
 62
     1
  6
CONTINUOUS
  0
LAYER
  2
SLIM
 70
     0
 62
     2
  6
CONTINUOUS
  0
ENDTAB
  0
TABLE
  2
STYLE
 70
     2
  0
STYLE
  2
STANDARD
 70
     0
 40
0.0
 41
0.75
 50
0.0
 71
     0
 42
4.0
  3
simplex.shx
  4
bigfont.shx
  0
ENDTAB
  0
TABLE
  2
VIEW
 70
     0
  0
ENDTAB
  0
TABLE
  2
UCS
 70
     0
  0
ENDTAB
  0
TABLE
  2
APPID
 70
    19
  0
APPID
  2
ACAD
 70
     0
  0
APPID
  2
ACADANNOTATIVE
 70
     0
  0
APPID
  2
ACAD_PSEXT
 70
     0
  0
APPID
  2
ACAD_EXEMPT_FROM_CAD_STANDARDS
 70
     0
  0
APPID
  2
ACAECLAYERSTANDARD
 70
     0
  0
APPID
  2
ACAUTHENVIRON
 70
     0
  0
APPID
  2
ACDBDYNAMICBLOCKTRUENAME
 70
     0
  0
APPID
  2
ACDBDYNAMICBLOCKGUID
 70
     0
  0
APPID
  2
ACDBBLOCKREPETAG
 70
     0
  0
APPID
  2
ACDBBLOCKREPBTAG
 70
     0
  0
APPID
  2
ACAD_NAV_VCDISPLAY
 70
     0
  0
APPID
  2
ACAD_DSTYLE_DIMRADIAL_EXTENSION
 70
     0
  0
APPID
  2
ACAD_DSTYLE_DIMJAG
 70
     0
  0
APPID
  2
ACAD_DSTYLE_DIMTALN
 70
     0
  0
APPID
  2
ACADANNOPO
 70
     0
  0
APPID
  2
GRADIENTCOLOR1ACI
 70
     0
  0
APPID
  2
GRADIENTCOLOR2ACI
 70
     0
  0
APPID
  2
CONTENTBLOCKICON
 70
     0
  0
APPID
  2
ACAD_MLEADERVER
 70
     0
  0
ENDTAB
  0
TABLE
  2
DIMSTYLE
 70
     3
  0
DIMSTYLE
  2
STANDARD
 70
     0
  3

  4

  5

  6

  7

 40
1.0
 41
0.18
 42
0.0625
 43
0.38
 44
0.18
 45
0.0
 46
0.0
 47
0.0
 48
0.0
140
0.18
141
0.09
142
0.0
143
25.399999999999999
144
1.0
145
0.0
146
1.0
147
0.09
 71
     0
 72
     0
 73
     1
 74
     1
 75
     0
 76
     0
 77
     0
 78
     0
170
     0
171
     2
172
     0
173
     0
174
     0
175
     0
176
     0
177
     0
178
     0
  0
DIMSTYLE
  2
S10
 70
     0
  3

  4

  5

  6

  7

 40
10.0
 41
2.0
 42
1.0
 43
10.0
 44
1.0
 45
0.0
 46
0.0
 47
0.0
 48
0.0
140
3.2000000000000002
141
0.0
142
0.0
143
25.399999999999999
144
1.0
145
0.0
146
1.0
147
0.9
 71
     0
 72
     0
 73
     0
 74
     0
 75
     0
 76
     0
 77
     1
 78
     8
170
     0
171
     2
172
     1
173
     0
174
     0
175
     0
176
   256
177
   256
178
   256
  0
ENDTAB
  0
ENDSEC
  0
SECTION
  2
BLOCKS
  0
BLOCK
  8
0
  2
$MODEL_SPACE
 70
     0
 10
0.0
 20
0.0
 30
0.0
  3
$MODEL_SPACE
  1

  0
ENDBLK
  5
122CC9
  8
0
  0
BLOCK
 67
     1
  8
0
  2
$PAPER_SPACE
 70
     0
 10
0.0
 20
0.0
 30
0.0
  3
$PAPER_SPACE
  1

  0
ENDBLK
  5
122CC5
 67
     1
  8
0
  0
BLOCK
  8
0
  2
_OPEN30
 70
     0
 10
0.0
 20
0.0
 30
0.0
  3
_OPEN30
  1

  0
LINE
  5
202
  8
0
  6
BYBLOCK
 62
     0
 10
-1.0
 20
0.26794919
 30
0.0
 11
0.0
 21
0.0
 31
0.0
  0
LINE
  5
203
  8
0
  6
BYBLOCK
 62
     0
 10
0.0
 20
0.0
 30
0.0
 11
-1.0
 21
-0.26794919
 31
0.0
  0
LINE
  5
204
  8
0
  6
BYBLOCK
 62
     0
 10
0.0
 20
0.0
 30
0.0
 11
-1.0
 21
0.0
 31
0.0
  0
ENDBLK
  5
206
  8
0
  0
BLOCK
  8
0
  2
*U5
 70
     1
 10
0.0
 20
0.0
 30
0.0
  3
*U5
  1

  0
TEXT
  5
122C55
  8
DIM
 10
3840.6616440113212
 20
-962.74285714285588
 30
0.0
 40
32.0
  1
m（シンドカット）
 50
90.0
 41
0.75
  0
ENDBLK
  5
122C57
  8
0
  0
ENDSEC
  0
SECTION
  2
ENTITIES
  0
LINE
  5
12296A
  8
SLIM
 10
4350.0
 20
-544.99999999999591
 30
0.0
 11
4350.0
 21
-1264.9999999999959
 31
0.0
  0
LINE
  5
12296B
  8
SLIM
 10
4454.0
 20
-1264.9999999999959
 30
0.0
 11
4454.0
 21
-544.99999999999591
 31
0.0
  0
LINE
  5
12296C
  8
SLIM
 10
4602.0
 20
-544.99999999999591
 30
0.0
 11
4350.0
 21
-544.99999999999591
 31
0.0
  0
LINE
  5
12296D
  8
SLIM
 10
4602.0
 20
-592.99999999999568
 30
0.0
 11
4350.0
 21
-592.99999999999568
 31
0.0
  0
LINE
  5
12296F
  8
SLIM
 10
4602.0
 20
-640.99999999999591
 30
0.0
 11
4350.0
 21
-640.99999999999591
 31
0.0
  0
LINE
  5
122970
  8
SLIM
 10
4602.0
 20
-688.99999999999568
 30
0.0
 11
4350.0
 21
-688.99999999999568
 31
0.0
  0
LINE
  5
122971
  8
SLIM
 10
4602.0
 20
-736.99999999999591
 30
0.0
 11
4350.0
 21
-736.99999999999591
 31
0.0
  0
LINE
  5
122975
  8
SLIM
 10
4602.0
 20
-784.99999999999591
 30
0.0
 11
4350.0
 21
-784.99999999999591
 31
0.0
  0
LINE
  5
122977
  8
SLIM
 10
4602.0
 20
-832.99999999999591
 30
0.0
 11
4350.0
 21
-832.99999999999591
 31
0.0
  0
LINE
  5
122979
  8
SLIM
 10
4602.0
 20
-880.99999999999591
 30
0.0
 11
4350.0
 21
-880.99999999999591
 31
0.0
  0
LINE
  5
12297B
  8
SLIM
 10
4602.0
 20
-928.99999999999602
 30
0.0
 11
4350.0
 21
-928.99999999999602
 31
0.0
  0
LINE
  5
12297D
  8
SLIM
 10
4602.0
 20
-976.99999999999545
 30
0.0
 11
4350.0
 21
-976.99999999999545
 31
0.0
  0
LINE
  5
12297F
  8
SLIM
 10
4602.0
 20
-1024.9999999999959
 30
0.0
 11
4350.0
 21
-1024.9999999999959
 31
0.0
  0
LINE
  5
122981
  8
SLIM
 10
4602.0
 20
-1072.9999999999959
 30
0.0
 11
4350.0
 21
-1072.9999999999959
 31
0.0
  0
LINE
  5
122983
  8
SLIM
 10
4602.0
 20
-1120.9999999999959
 30
0.0
 11
4350.0
 21
-1120.9999999999959
 31
0.0
  0
LINE
  5
122985
  8
SLIM
 10
4602.0
 20
-1168.9999999999959
 30
0.0
 11
4350.0
 21
-1168.9999999999959
 31
0.0
  0
LINE
  5
122987
  8
SLIM
 10
4602.0
 20
-1216.9999999999959
 30
0.0
 11
4350.0
 21
-1216.9999999999959
 31
0.0
  0
LINE
  5
122989
  8
SLIM
 10
4602.0
 20
-1264.9999999999959
 30
0.0
 11
4350.0
 21
-1264.9999999999959
 31
0.0
  0
LINE
  5
12298C
  8
SLIM
 10
4602.0
 20
-544.99999999999591
 30
0.0
 11
4602.0
 21
-1264.9999999999959
 31
0.0
  0
LINE
  5
122AF4
  8
SLIM
 10
3914.9999999999941
 20
-665.19743878931513
 30
0.0
 11
3925.1974387893092
 21
-654.99999999999966
 31
0.0
1001
GRADIENTCOLOR1ACI
1070
     5
1001
GRADIENTCOLOR2ACI
1070
     2
1001
ACAD
1010
0.0
1020
0.0
1030
0.0
  0
LINE
  5
122AF5
  8
SLIM
 10
3914.9999999999941
 20
-683.15795103145319
 30
0.0
 11
3943.1579510314468
 21
-654.99999999999966
 31
0.0
1001
GRADIENTCOLOR1ACI
1070
     5
1001
GRADIENTCOLOR2ACI
1070
     2
1001
ACAD
1010
0.0
1020
0.0
1030
0.0
  0
LINE
  5
122AF6
  8
SLIM
 10
3914.9999999999941
 20
-701.11846327359115
 30
0.0
 11
3961.1184632735849
 21
-654.99999999999966
 31
0.0
1001
GRADIENTCOLOR1ACI
1070
     5
1001
GRADIENTCOLOR2ACI
1070
     2
1001
ACAD
1010
0.0
1020
0.0
1030
0.0
  0
LINE
  5
122AF7
  8
SLIM
 10
3914.9999999999941
 20
-719.07897551572967
 30
0.0
 11
3979.0789755157239
 21
-654.99999999999966
 31
0.0
1001
GRADIENTCOLOR1ACI
1070
     5
1001
GRADIENTCOLOR2ACI
1070
     2
1001
ACAD
1010
0.0
1020
0.0
1030
0.0
  0
LINE
  5
122AF8
  8
SLIM
 10
3914.9999999999941
 20
-737.03948775786728
 30
0.0
 11
3997.0394877578619
 21
-654.99999999999966
 31
0.0
1001
GRADIENTCOLOR1ACI
1070
     5
1001
GRADIENTCOLOR2ACI
1070
     2
1001
ACAD
1010
0.0
1020
0.0
1030
0.0
  0
LINE
  5
122AF9
  8
SLIM
 10
3914.9999999999941
 20
-755.00000000000534
 30
0.0
 11
4015.0
 21
-654.99999999999966
 31
0.0
1001
GRADIENTCOLOR1ACI
1070
     5
1001
GRADIENTCOLOR2ACI
1070
     2
1001
ACAD
1010
0.0
1020
0.0
1030
0.0
  0
LINE
  5
122AFA
  8
SLIM
 10
3914.9999999999941
 20
-772.96051224214352
 30
0.0
 11
4032.9605122421372
 21
-654.99999999999966
 31
0.0
1001
GRADIENTCOLOR1ACI
1070
     5
1001
GRADIENTCOLOR2ACI
1070
     2
1001
ACAD
1010
0.0
1020
0.0
1030
0.0
  0
LINE
  5
122AFB
  8
SLIM
 10
3914.9999999999941
 20
-790.92102448428193
 30
0.0
 11
4050.921024484277
 21
-654.99999999999966
 31
0.0
1001
GRADIENTCOLOR1ACI
1070
     5
1001
GRADIENTCOLOR2ACI
1070
     2
1001
ACAD
1010
0.0
1020
0.0
1030
0.0
  0
LINE
  5
122AFC
  8
SLIM
 10
3914.999999999995
 20
-808.88153672641988
 30
0.0
 11
4068.8815367264142
 21
-654.99999999999966
 31
0.0
1001
GRADIENTCOLOR1ACI
1070
     5
1001
GRADIENTCOLOR2ACI
1070
     2
1001
ACAD
1010
0.0
1020
0.0
1030
0.0
  0
LINE
  5
122AFD
  8
SLIM
 10
3914.999999999995
 20
-826.84204896855806
 30
0.0
 11
4085.0000000000068
 21
-656.84204896854555
 31
0.0
1001
GRADIENTCOLOR1ACI
1070
     5
1001
GRADIENTCOLOR2ACI
1070
     2
1001
ACAD
1010
0.0
1020
0.0
1030
0.0
  0
LINE
  5
122AFE
  8
SLIM
 10
3914.999999999995
 20
-844.80256121069613
 30
0.0
 11
4085.0000000000068
 21
-674.80256121068396
 31
0.0
1001
GRADIENTCOLOR1ACI
1070
     5
1001
GRADIENTCOLOR2ACI
1070
     2
1001
ACAD
1010
0.0
1020
0.0
1030
0.0
  0
LINE
  5
122AFF
  8
SLIM
 10
3914.999999999995
 20
-862.76307345283431
 30
0.0
 11
4085.0000000000068
 21
-692.76307345282225
 31
0.0
1001
GRADIENTCOLOR1ACI
1070
     5
1001
GRADIENTCOLOR2ACI
1070
     2
1001
ACAD
1010
0.0
1020
0.0
1030
0.0
  0
LINE
  5
122B00
  8
SLIM
 10
3914.999999999995
 20
-880.72358569497203
 30
0.0
 11
4085.0000000000068
 21
-710.72358569496089
 31
0.0
1001
GRADIENTCOLOR1ACI
1070
     5
1001
GRADIENTCOLOR2ACI
1070
     2
1001
ACAD
1010
0.0
1020
0.0
1030
0.0
  0
LINE
  5
122B01
  8
SLIM
 10
3914.999999999995
 20
-898.68409793711044
 30
0.0
 11
4085.0000000000068
 21
-728.6840979370993
 31
0.0
1001
GRADIENTCOLOR1ACI
1070
     5
1001
GRADIENTCOLOR2ACI
1070
     2
1001
ACAD
1010
0.0
1020
0.0
1030
0.0
  0
LINE
  5
122B02
  8
SLIM
 10
3914.999999999995
 20
-916.64461017924862
 30
0.0
 11
4085.0000000000068
 21
-746.64461017923804
 31
0.0
1001
GRADIENTCOLOR1ACI
1070
     5
1001
GRADIENTCOLOR2ACI
1070
     2
1001
ACAD
1010
0.0
1020
0.0
1030
0.0
  0
LINE
  5
122B03
  8
SLIM
 10
3914.9999999999968
 20
-934.60512242138657
 30
0.0
 11
4085.0000000000059
 21
-764.60512242137634
 31
0.0
1001
GRADIENTCOLOR1ACI
1070
     5
1001
GRADIENTCOLOR2ACI
1070
     2
1001
ACAD
1010
0.0
1020
0.0
1030
0.0
  0
LINE
  5
122B04
  8
SLIM
 10
3914.9999999999968
 20
-952.56563466352475
 30
0.0
 11
4085.0000000000059
 21
-782.5656346635152
 31
0.0
1001
GRADIENTCOLOR1ACI
1070
     5
1001
GRADIENTCOLOR2ACI
1070
     2
1001
ACAD
1010
0.0
1020
0.0
1030
0.0
  0
LINE
  5
122B05
  8
SLIM
 10
3914.9999999999968
 20
-970.52614690566304
 30
0.0
 11
4085.0000000000059
 21
-800.52614690565338
 31
0.0
1001
GRADIENTCOLOR1ACI
1070
     5
1001
GRADIENTCOLOR2ACI
1070
     2
1001
ACAD
1010
0.0
1020
0.0
1030
0.0
  0
LINE
  5
122B06
  8
SLIM
 10
3915.3182312960889
 20
-988.16842785170718
 30
0.0
 11
4085.0000000000059
 21
-818.48665914779201
 31
0.0
1001
GRADIENTCOLOR1ACI
1070
     5
1001
GRADIENTCOLOR2ACI
1070
     2
1001
ACAD
1010
0.0
1020
0.0
1030
0.0
  0
LINE
  5
122B07
  8
SLIM
 10
3917.3138437674402
 20
-1004.133327622496
 30
0.0
 11
4085.0000000000059
 21
-836.44717138993053
 31
0.0
1001
GRADIENTCOLOR1ACI
1070
     5
1001
GRADIENTCOLOR2ACI
1070
     2
1001
ACAD
1010
0.0
1020
0.0
1030
0.0
  0
LINE
  5
122B08
  8
SLIM
 10
3919.3094562387892
 20
-1020.098227393286
 30
0.0
 11
4085.000000000005
 21
-854.40768363206894
 31
0.0
1001
GRADIENTCOLOR1ACI
1070
     5
1001
GRADIENTCOLOR2ACI
1070
     2
1001
ACAD
1010
0.0
1020
0.0
1030
0.0
  0
LINE
  5
122B09
  8
SLIM
 10
3930.0
 20
-1027.368195874212
 30
0.0
 11
3932.368195874215
 21
-1024.9999999999991
 31
0.0
1001
GRADIENTCOLOR1ACI
1070
     5
1001
GRADIENTCOLOR2ACI
1070
     2
1001
ACAD
1010
0.0
1020
0.0
1030
0.0
  0
LINE
  5
122B0A
  8
SLIM
 10
3932.368195874215
 20
-1024.9999999999991
 30
0.0
 11
4085.000000000005
 21
-872.36819587420734
 31
0.0
1001
GRADIENTCOLOR1ACI
1070
     5
1001
GRADIENTCOLOR2ACI
1070
     2
1001
ACAD
1010
0.0
1020
0.0
1030
0.0
  0
LINE
  5
122B0B
  8
SLIM
 10
3930.3287081163512
 20
-1044.9999999999991
 30
0.0
 11
3950.3287081163521
 21
-1024.9999999999991
 31
0.0
1001
GRADIENTCOLOR1ACI
1070
     5
1001
GRADIENTCOLOR2ACI
1070
     2
1001
ACAD
1010
0.0
1020
0.0
1030
0.0
  0
LINE
  5
122B0C
  8
SLIM
 10
3950.3287081163521
 20
-1024.9999999999991
 30
0.0
 11
4085.0000000000041
 21
-890.32870811634575
 31
0.0
1001
GRADIENTCOLOR1ACI
1070
     5
1001
GRADIENTCOLOR2ACI
1070
     2
1001
ACAD
1010
0.0
1020
0.0
1030
0.0
  0
LINE
  5
122B0D
  8
SLIM
 10
3948.2892203584888
 20
-1044.9999999999991
 30
0.0
 11
3968.2892203584888
 21
-1024.9999999999991
 31
0.0
1001
GRADIENTCOLOR1ACI
1070
     5
1001
GRADIENTCOLOR2ACI
1070
     2
1001
ACAD
1010
0.0
1020
0.0
1030
0.0
  0
LINE
  5
122B0E
  8
SLIM
 10
3968.2892203584888
 20
-1024.9999999999991
 30
0.0
 11
4085.0000000000041
 21
-908.28922035848461
 31
0.0
1001
GRADIENTCOLOR1ACI
1070
     5
1001
GRADIENTCOLOR2ACI
1070
     2
1001
ACAD
1010
0.0
1020
0.0
1030
0.0
  0
LINE
  5
122B0F
  8
SLIM
 10
3966.2497326006278
 20
-1044.9999999999991
 30
0.0
 11
3986.2497326006278
 21
-1024.9999999999991
 31
0.0
1001
GRADIENTCOLOR1ACI
1070
     5
1001
GRADIENTCOLOR2ACI
1070
     2
1001
ACAD
1010
0.0
1020
0.0
1030
0.0
  0
LINE
  5
122B10
  8
SLIM
 10
3986.2497326006278
 20
-1024.9999999999991
 30
0.0
 11
4085.0000000000041
 21
-926.24973260062256
 31
0.0
1001
GRADIENTCOLOR1ACI
1070
     5
1001
GRADIENTCOLOR2ACI
1070
     2
1001
ACAD
1010
0.0
1020
0.0
1030
0.0
  0
LINE
  5
122B11
  8
SLIM
 10
3984.2102448427659
 20
-1044.9999999999991
 30
0.0
 11
4004.2102448427659
 21
-1024.9999999999991
 31
0.0
1001
GRADIENTCOLOR1ACI
1070
     5
1001
GRADIENTCOLOR2ACI
1070
     2
1001
ACAD
1010
0.0
1020
0.0
1030
0.0
  0
LINE
  5
122B12
  8
SLIM
 10
4004.2102448427659
 20
-1024.9999999999991
 30
0.0
 11
4085.0000000000041
 21
-944.21024484276165
 31
0.0
1001
GRADIENTCOLOR1ACI
1070
     5
1001
GRADIENTCOLOR2ACI
1070
     2
1001
ACAD
1010
0.0
1020
0.0
1030
0.0
  0
LINE
  5
122B13
  8
SLIM
 10
4002.1707570849039
 20
-1044.9999999999991
 30
0.0
 11
4022.1707570849048
 21
-1024.9999999999991
 31
0.0
1001
GRADIENTCOLOR1ACI
1070
     5
1001
GRADIENTCOLOR2ACI
1070
     2
1001
ACAD
1010
0.0
1020
0.0
1030
0.0
  0
LINE
  5
122B14
  8
SLIM
 10
4022.1707570849048
 20
-1024.9999999999991
 30
0.0
 11
4085.0000000000041
 21
-962.17075708489995
 31
0.0
1001
GRADIENTCOLOR1ACI
1070
     5
1001
GRADIENTCOLOR2ACI
1070
     2
1001
ACAD
1010
0.0
1020
0.0
1030
0.0
  0
LINE
  5
122B15
  8
SLIM
 10
4020.131269327042
 20
-1044.9999999999991
 30
0.0
 11
4040.1312693270429
 21
-1024.9999999999991
 31
0.0
1001
GRADIENTCOLOR1ACI
1070
     5
1001
GRADIENTCOLOR2ACI
1070
     2
1001
ACAD
1010
0.0
1020
0.0
1030
0.0
  0
LINE
  5
122B16
  8
SLIM
 10
4040.1312693270429
 20
-1024.9999999999991
 30
0.0
 11
4085.0000000000032
 21
-980.13126932703835
 31
0.0
1001
GRADIENTCOLOR1ACI
1070
     5
1001
GRADIENTCOLOR2ACI
1070
     2
1001
ACAD
1010
0.0
1020
0.0
1030
0.0
  0
LINE
  5
122B17
  8
SLIM
 10
4038.091781569181
 20
-1044.9999999999991
 30
0.0
 11
4058.091781569181
 21
-1024.9999999999991
 31
0.0
1001
GRADIENTCOLOR1ACI
1070
     5
1001
GRADIENTCOLOR2ACI
1070
     2
1001
ACAD
1010
0.0
1020
0.0
1030
0.0
  0
LINE
  5
122B18
  8
SLIM
 10
4058.091781569181
 20
-1024.9999999999991
 30
0.0
 11
4083.2186851305419
 21
-999.87309643863694
 31
0.0
1001
GRADIENTCOLOR1ACI
1070
     5
1001
GRADIENTCOLOR2ACI
1070
     2
1001
ACAD
1010
0.0
1020
0.0
1030
0.0
  0
LINE
  5
122B19
  8
SLIM
 10
4056.0522938113181
 20
-1044.9999999999991
 30
0.0
 11
4070.0
 21
-1031.052293811319
 31
0.0
1001
GRADIENTCOLOR1ACI
1070
     5
1001
GRADIENTCOLOR2ACI
1070
     2
1001
ACAD
1010
0.0
1020
0.0
1030
0.0
  0
LINE
  5
122B1A
  8
SLIM
 10
4076.052293811319
 20
-1024.9999999999991
 30
0.0
 11
4080.6528976673799
 21
-1020.399396143939
 31
0.0
1001
GRADIENTCOLOR1ACI
1070
     5
1001
GRADIENTCOLOR2ACI
1070
     2
1001
ACAD
1010
0.0
1020
0.0
1030
0.0
  0
LINE
  5
122B1B
  8
OBJECT
 10
4085.0000000000068
 20
-654.99999999999966
 30
0.0
 11
4085.0000000000032
 21
-985.62257748295849
 31
0.0
1001
ACDBBLOCKREPETAG
1070
     1
1071
        2
1005
122B1B
  0
LINE
  5
122B1C
  8
OBJECT
 10
4085.0000000000068
 20
-654.99999999999966
 30
0.0
 11
3914.9999999999941
 21
-654.99999999999966
 31
0.0
1001
ACDBBLOCKREPETAG
1070
     1
1071
        3
1005
122B1C
  0
LINE
  5
122B1D
  8
OBJECT
 10
3919.9221778146289
 20
-1024.9999999999991
 30
0.0
 11
4080.077822185372
 21
-1024.9999999999991
 31
0.0
1001
ACDBBLOCKREPETAG
1070
     1
1071
        3
1005
122B1D
  0
LINE
  5
122B1E
  8
OBJECT
 10
4080.077822185372
 20
-1024.9999999999991
 30
0.0
 11
4085.0000000000032
 21
-985.62257748295849
 31
0.0
1001
ACDBBLOCKREPETAG
1070
     1
1071
       11
1005
0
  0
LINE
  5
122B1F
  8
OBJECT
 10
3914.9999999999941
 20
-654.99999999999966
 30
0.0
 11
3914.9999999999968
 21
-985.62257748295849
 31
0.0
1001
ACDBBLOCKREPETAG
1070
     1
1071
        2
1005
122B1B
  0
LINE
  5
122B20
  8
OBJECT
 10
3919.9221778146289
 20
-1024.9999999999991
 30
0.0
 11
3914.9999999999968
 21
-985.62257748295849
 31
0.0
1001
ACDBBLOCKREPETAG
1070
     1
1071
       11
1005
0
  0
LINE
  5
122B21
  8
OBJECT
 10
3930.0
 20
-1024.9999999999991
 30
0.0
 11
3930.0
 21
-1044.9999999999991
 31
0.0
1001
ACDBBLOCKREPETAG
1070
     1
1071
       10
1005
0
  0
LINE
  5
122B22
  8
OBJECT
 10
3930.0
 20
-1044.9999999999991
 30
0.0
 11
4070.0
 21
-1044.9999999999991
 31
0.0
1001
ACDBBLOCKREPETAG
1070
     1
1071
       11
1005
0
  0
LINE
  5
122B23
  8
OBJECT
 10
4070.0
 20
-1044.9999999999991
 30
0.0
 11
4070.0
 21
-1024.9999999999991
 31
0.0
1001
ACDBBLOCKREPETAG
1070
     1
1071
       12
1005
0
  0
LINE
  5
122B24
  8
OBJECT
 10
3923.0
 20
-470.99999999999937
 30
0.0
 11
3923.0
 21
-449.99999999999937
 31
0.0
1001
ACDBBLOCKREPETAG
1070
     1
1071
        0
1005
122B24
  0
LINE
  5
122B25
  8
OBJECT
 10
3923.0
 20
-449.99999999999937
 30
0.0
 11
4077.0
 21
-449.99999999999937
 31
0.0
1001
ACDBBLOCKREPETAG
1070
     1
1071
        1
1005
122B25
  0
LINE
  5
122B26
  8
HIDDEN
 10
3943.0
 20
-519.99999999999955
 30
0.0
 11
4057.0
 21
-519.99999999999955
 31
0.0
1001
ACDBBLOCKREPETAG
1070
     1
1071
        2
1005
122B26
  0
LINE
  5
122B27
  8
OBJECT
 10
4077.0
 20
-449.99999999999937
 30
0.0
 11
4077.0
 21
-470.99999999999937
 31
0.0
1001
ACDBBLOCKREPETAG
1070
     1
1071
        3
1005
122B27
  0
LINE
  5
122B28
  8
OBJECT
 10
4077.0
 20
-470.99999999999937
 30
0.0
 11
3923.0
 21
-470.99999999999937
 31
0.0
1001
ACDBBLOCKREPETAG
1070
     1
1071
        4
1005
122B28
  0
LINE
  5
122B29
  8
CENTER
 10
4000.0
 20
-434.99999999999949
 30
0.0
 11
4000.0
 21
-669.99999999999955
 31
0.0
1001
ACDBBLOCKREPETAG
1070
     1
1071
        5
1005
122B29
  0
LINE
  5
122B2A
  8
OBJECT
 10
3925.0
 20
-533.99999999999955
 30
0.0
 11
3925.0
 21
-657.99999999999955
 31
0.0
1001
ACDBBLOCKREPETAG
1070
     1
1071
        6
1005
122B2A
  0
LINE
  5
122B2B
  8
OBJECT
 10
3928.0
 20
-470.99999999999937
 30
0.0
 11
3928.0
 21
-533.99999999999955
 31
0.0
1001
ACDBBLOCKREPETAG
1070
     1
1071
        7
1005
122B2B
  0
LINE
  5
122B2C
  8
OBJECT
 10
4072.0
 20
-533.99999999999955
 30
0.0
 11
4072.0
 21
-470.99999999999937
 31
0.0
1001
ACDBBLOCKREPETAG
1070
     1
1071
        8
1005
122B2C
  0
LINE
  5
122B2D
  8
OBJECT
 10
3920.0
 20
-657.99999999999955
 30
0.0
 11
4080.0
 21
-657.99999999999955
 31
0.0
1001
ACDBBLOCKREPETAG
1070
     1
1071
        9
1005
122B2D
  0
LINE
  5
122B2E
  8
OBJECT
 10
4080.0
 20
-533.99999999999955
 30
0.0
 11
3925.0
 21
-533.99999999999955
 31
0.0
1001
ACDBBLOCKREPETAG
1070
     1
1071
       10
1005
122B2E
  0
LINE
  5
122B2F
  8
OBJECT
 10
3920.0
 20
-657.99999999999955
 30
0.0
 11
3920.0
 21
-669.99999999999955
 31
0.0
1001
ACDBBLOCKREPETAG
1070
     1
1071
       11
1005
122B2F
  0
LINE
  5
122B30
  8
OBJECT
 10
3920.0
 20
-669.99999999999955
 30
0.0
 11
4080.0
 21
-669.99999999999955
 31
0.0
1001
ACDBBLOCKREPETAG
1070
     1
1071
       12
1005
122B30
  0
LINE
  5
122B31
  8
OBJECT
 10
4080.0
 20
-669.99999999999955
 30
0.0
 11
4080.0
 21
-657.99999999999955
 31
0.0
1001
ACDBBLOCKREPETAG
1070
     1
1071
       13
1005
122B31
  0
ARC
  5
122B32
  8
OBJECT
 10
4200.6872746716726
 20
-649.40809941010718
 30
0.0
 40
170.6350503965856
 50
137.44134459184301
 51
149.91949581337221
1001
ACDBBLOCKREPETAG
1070
     1
1071
       15
1005
122B32
  0
ARC
  5
122B33
  8
OBJECT
 10
4118.8455987040506
 20
-605.88272669536445
 30
0.0
 40
78.072222021763665
 50
147.4551531037684
 51
164.6636599771798
1001
ACDBBLOCKREPETAG
1070
     1
1071
       16
1005
122B33
  0
ARC
  5
122B34
  8
OBJECT
 10
4085.7554349608722
 20
-595.99999999999955
 30
0.0
 40
43.55353926885617
 50
165.6884523008477
 51
194.3115476991523
1001
ACDBBLOCKREPETAG
1070
     1
1071
       17
1005
122B34
  0
ARC
  5
122B35
  8
OBJECT
 10
4200.6872746716726
 20
-542.59190058989179
 30
0.0
 40
170.6350503965856
 50
210.08050418662771
 51
222.55865540815699
1001
ACDBBLOCKREPETAG
1070
     1
1071
       18
1005
122B35
  0
ARC
  5
122B36
  8
OBJECT
 10
4118.8455987040506
 20
-586.11727330463452
 30
0.0
 40
78.072222021763665
 50
195.3363400228202
 51
212.5448468962316
1001
ACDBBLOCKREPETAG
1070
     1
1071
       19
1005
122B36
  0
POINT
  5
122B37
  8
DOTS
 10
4000.0
 20
-654.99999999999966
 30
0.0
1001
ACDBBLOCKREPETAG
1070
     1
1071
      186
1005
122B37
  0
LINE
  5
122B38
  8
OBJECT
 10
1923.0
 20
-470.99999999999937
 30
0.0
 11
1923.0
 21
-449.99999999999937
 31
0.0
1001
ACDBBLOCKREPETAG
1070
     1
1071
        0
1005
122B38
  0
LINE
  5
122B39
  8
OBJECT
 10
1923.0
 20
-449.99999999999937
 30
0.0
 11
2077.0
 21
-449.99999999999937
 31
0.0
1001
ACDBBLOCKREPETAG
1070
     1
1071
        1
1005
122B39
  0
LINE
  5
122B3A
  8
HIDDEN
 10
1943.0
 20
-519.99999999999955
 30
0.0
 11
2057.0
 21
-519.99999999999955
 31
0.0
1001
ACDBBLOCKREPETAG
1070
     1
1071
        2
1005
122B3A
  0
LINE
  5
122B3B
  8
OBJECT
 10
2077.0
 20
-449.99999999999937
 30
0.0
 11
2077.0
 21
-470.99999999999937
 31
0.0
1001
ACDBBLOCKREPETAG
1070
     1
1071
        3
1005
122B3B
  0
LINE
  5
122B3C
  8
OBJECT
 10
2077.0
 20
-470.99999999999937
 30
0.0
 11
1923.0
 21
-470.99999999999937
 31
0.0
1001
ACDBBLOCKREPETAG
1070
     1
1071
        4
1005
122B3C
  0
LINE
  5
122B3D
  8
CENTER
 10
2000.0
 20
-434.99999999999949
 30
0.0
 11
2000.0
 21
-669.99999999999955
 31
0.0
1001
ACDBBLOCKREPETAG
1070
     1
1071
        5
1005
122B3D
  0
LINE
  5
122B3E
  8
OBJECT
 10
1925.0
 20
-533.99999999999955
 30
0.0
 11
1925.0
 21
-657.99999999999955
 31
0.0
1001
ACDBBLOCKREPETAG
1070
     1
1071
        6
1005
122B3E
  0
LINE
  5
122B3F
  8
OBJECT
 10
1928.0
 20
-470.99999999999937
 30
0.0
 11
1928.0
 21
-533.99999999999955
 31
0.0
1001
ACDBBLOCKREPETAG
1070
     1
1071
        7
1005
122B3F
  0
LINE
  5
122B40
  8
OBJECT
 10
2072.0
 20
-533.99999999999955
 30
0.0
 11
2072.0
 21
-470.99999999999937
 31
0.0
1001
ACDBBLOCKREPETAG
1070
     1
1071
        8
1005
122B40
  0
LINE
  5
122B41
  8
OBJECT
 10
1920.0
 20
-657.99999999999955
 30
0.0
 11
2080.0
 21
-657.99999999999955
 31
0.0
1001
ACDBBLOCKREPETAG
1070
     1
1071
        9
1005
122B41
  0
LINE
  5
122B42
  8
OBJECT
 10
2080.0
 20
-533.99999999999955
 30
0.0
 11
1925.0
 21
-533.99999999999955
 31
0.0
1001
ACDBBLOCKREPETAG
1070
     1
1071
       10
1005
122B42
  0
LINE
  5
122B43
  8
OBJECT
 10
1920.0
 20
-657.99999999999955
 30
0.0
 11
1920.0
 21
-669.99999999999955
 31
0.0
1001
ACDBBLOCKREPETAG
1070
     1
1071
       11
1005
122B43
  0
LINE
  5
122B44
  8
OBJECT
 10
1920.0
 20
-669.99999999999955
 30
0.0
 11
2080.0
 21
-669.99999999999955
 31
0.0
1001
ACDBBLOCKREPETAG
1070
     1
1071
       12
1005
122B44
  0
LINE
  5
122B45
  8
OBJECT
 10
2080.0
 20
-669.99999999999955
 30
0.0
 11
2080.0
 21
-657.99999999999955
 31
0.0
1001
ACDBBLOCKREPETAG
1070
     1
1071
       13
1005
122B45
  0
ARC
  5
122B46
  8
OBJECT
 10
2200.6872746716731
 20
-649.40809941010718
 30
0.0
 40
170.6350503965856
 50
137.44134459184301
 51
149.91949581336559
1001
ACDBBLOCKREPETAG
1070
     1
1071
       15
1005
122B46
  0
ARC
  5
122B47
  8
OBJECT
 10
2118.8455987040511
 20
-605.88272669536445
 30
0.0
 40
78.072222021763665
 50
147.45515310377539
 51
164.6636599771798
1001
ACDBBLOCKREPETAG
1070
     1
1071
       16
1005
122B47
  0
ARC
  5
122B48
  8
OBJECT
 10
2085.7554349608731
 20
-595.99999999999955
 30
0.0
 40
43.55353926885617
 50
165.6884523008477
 51
194.3115476991523
1001
ACDBBLOCKREPETAG
1070
     1
1071
       17
1005
122B48
  0
ARC
  5
122B49
  8
OBJECT
 10
2200.6872746716731
 20
-542.59190058989179
 30
0.0
 40
170.6350503965856
 50
210.0805041866343
 51
222.55865540815699
1001
ACDBBLOCKREPETAG
1070
     1
1071
       18
1005
122B49
  0
ARC
  5
122B4A
  8
OBJECT
 10
2118.8455987040511
 20
-586.11727330463452
 30
0.0
 40
78.072222021763665
 50
195.3363400228202
 51
212.54484689622461
1001
ACDBBLOCKREPETAG
1070
     1
1071
       19
1005
122B4A
  0
POINT
  5
122B4B
  8
DOTS
 10
2000.0
 20
-654.99999999999966
 30
0.0
1001
ACDBBLOCKREPETAG
1070
     1
1071
      186
1005
122B4B
  0
TEXT
  5
122B4C
  8
SLIM
 10
3554.6000000000008
 20
-1598.837121212119
 30
0.0
 40
28.0
  1
※ 対応スラブ厚　180～（m-10）
 41
0.75
  0
TEXT
  5
122B4D
  8
SLIM
 10
3554.6000000000008
 20
-1649.162878787876
 30
0.0
 40
28.0
  1
※ 足切り可能寸法（最大）　500-m
 41
0.75
  0
TEXT
  5
122B4E
  8
SLIM
 10
4010.8000000000002
 20
-1649.162878787876
 30
0.0
 40
28.0
  1
（
 41
0.75
  0
TEXT
  5
122B4F
  8
SLIM
 10
4026.0727272727281
 20
-1649.162878787876
 30
0.0
 40
28.0
  1
コンパクトＬベンド使用なら+10）
 41
0.75
  0
TEXT
  5
122B50
  8
SLIM
 10
3598.9000000000001
 20
-1742.4962121212091
 30
0.0
 40
28.0
  1
国土交通大臣認定・（一財）日本消防設備安全センター性能評定取得品
 41
0.75
  0
TEXT
  5
122B51
  8
SLIM
 10
3631.1000000000022
 20
-1789.162878787876
 30
0.0
 40
28.0
  1
注）ご採用にあたり、認定書及び評定書の内容をご確認ください。
 41
0.75
  0
TEXT
  5
122B52
  8
SLIM
 10
4470.057142857142
 20
-1252.9999999999959
 30
0.0
 40
24.0
  1
180～490
 41
0.75
  0
TEXT
  5
122B53
  8
SLIM
 10
4470.057142857142
 20
-1204.9999999999959
 30
0.0
 40
24.0
  1
180～480
 41
0.75
  0
TEXT
  5
122B54
  8
SLIM
 10
4470.057142857142
 20
-1156.9999999999959
 30
0.0
 40
24.0
  1
180～470
 41
0.75
  0
TEXT
  5
122B55
  8
SLIM
 10
4470.057142857142
 20
-1108.9999999999959
 30
0.0
 40
24.0
  1
180～460
 41
0.75
  0
TEXT
  5
122B56
  8
SLIM
 10
4470.057142857142
 20
-1060.9999999999959
 30
0.0
 40
24.0
  1
180～450
 41
0.75
  0
TEXT
  5
122B57
  8
SLIM
 10
4470.057142857142
 20
-1012.999999999996
 30
0.0
 40
24.0
  1
180～440
 41
0.75
  0
TEXT
  5
122B58
  8
SLIM
 10
4470.057142857142
 20
-964.99999999999613
 30
0.0
 40
24.0
  1
180～430
 41
0.75
  0
TEXT
  5
122B59
  8
SLIM
 10
4470.057142857142
 20
-916.99999999999602
 30
0.0
 40
24.0
  1
180～420
 41
0.75
  0
TEXT
  5
122B5A
  8
SLIM
 10
4471.7714285714283
 20
-868.99999999999579
 30
0.0
 40
24.0
  1
180～410
 41
0.75
  0
TEXT
  5
122B5B
  8
SLIM
 10
4470.057142857142
 20
-820.99999999999591
 30
0.0
 40
24.0
  1
180～400
 41
0.75
  0
TEXT
  5
122B5C
  8
SLIM
 10
4470.057142857142
 20
-772.99999999999591
 30
0.0
 40
24.0
  1
180～390
 41
0.75
  0
TEXT
  5
122B5D
  8
SLIM
 10
4470.057142857142
 20
-724.99999999999591
 30
0.0
 40
24.0
  1
180～380
 41
0.75
  0
TEXT
  5
122B5E
  8
SLIM
 10
4470.057142857142
 20
-676.99999999999591
 30
0.0
 40
24.0
  1
180～370
 41
0.75
  0
TEXT
  5
122B5F
  8
SLIM
 10
4470.057142857142
 20
-628.99999999999591
 30
0.0
 40
24.0
  1
180～360
 41
0.75
  0
TEXT
  5
122B60
  8
SLIM
 10
4465.6000000000013
 20
-580.99999999999557
 30
0.0
 40
24.0
  1
対応スラブ厚
 41
0.75
  0
TEXT
  5
122B61
  8
SLIM
 10
4396.4571428571408
 20
-1310.9999999999959
 30
0.0
 40
24.0
  1
標準：m=370
 41
0.75
  0
TEXT
  5
122B62
  8
SLIM
 10
4378.8571428571431
 20
-1252.9999999999959
 30
0.0
 40
24.0
  1
500
 41
0.75
  0
TEXT
  5
122B63
  8
SLIM
 10
4378.8571428571431
 20
-1204.9999999999959
 30
0.0
 40
24.0
  1
490
 41
0.75
  0
TEXT
  5
122B64
  8
SLIM
 10
4378.8571428571431
 20
-1156.9999999999959
 30
0.0
 40
24.0
  1
480
 41
0.75
  0
TEXT
  5
122B65
  8
SLIM
 10
4378.8571428571431
 20
-1108.9999999999959
 30
0.0
 40
24.0
  1
470
 41
0.75
  0
TEXT
  5
122B66
  8
SLIM
 10
4378.8571428571431
 20
-1060.9999999999959
 30
0.0
 40
24.0
  1
460
 41
0.75
  0
TEXT
  5
122B67
  8
SLIM
 10
4378.8571428571431
 20
-1012.999999999996
 30
0.0
 40
24.0
  1
450
 41
0.75
  0
TEXT
  5
122B68
  8
SLIM
 10
4378.8571428571431
 20
-964.99999999999613
 30
0.0
 40
24.0
  1
440
 41
0.75
  0
TEXT
  5
122B69
  8
SLIM
 10
4378.8571428571431
 20
-916.99999999999602
 30
0.0
 40
24.0
  1
430
 41
0.75
  0
TEXT
  5
122B6A
  8
SLIM
 10
4378.8571428571431
 20
-868.99999999999579
 30
0.0
 40
24.0
  1
420
 41
0.75
  0
TEXT
  5
122B6B
  8
SLIM
 10
4380.5714285714284
 20
-820.99999999999591
 30
0.0
 40
24.0
  1
410
 41
0.75
  0
TEXT
  5
122B6C
  8
SLIM
 10
4378.8571428571431
 20
-772.99999999999591
 30
0.0
 40
24.0
  1
400
 41
0.75
  0
TEXT
  5
122B6D
  8
SLIM
 10
4378.8571428571431
 20
-724.99999999999591
 30
0.0
 40
24.0
  1
390
 41
0.75
  0
TEXT
  5
122B6E
  8
SLIM
 10
4378.8571428571431
 20
-676.99999999999591
 30
0.0
 40
24.0
  1
380
 41
0.75
  0
TEXT
  5
122B6F
  8
SLIM
 10
4369.9428571428571
 20
-580.99999999999557
 30
0.0
 40
24.0
  1
m寸法
 41
0.75
  0
TEXT
  5
122B70
  8
SLIM
 10
4378.8571428571431
 20
-628.99999999999591
 30
0.0
 40
24.0
  1
370
 41
0.75
  0
LINE
  5
122B71
  8
OBJECT
 10
3925.0
 20
-669.99999999999955
 30
0.0
 11
3925.0
 21
-942.99999999999955
 31
0.0
1001
ACDBBLOCKREPETAG
1070
     1
1071
        1
1005
122B71
  0
LINE
  5
122B72
  8
OBJECT
 10
4075.0
 20
-669.99999999999375
 30
0.0
 11
4075.0
 21
-942.99999999999955
 31
0.0
1001
ACDBBLOCKREPETAG
1070
     1
1071
        3
1005
122B72
  0
LINE
  5
122B73
  8
CENTER
 10
4000.0
 20
-669.99999999999955
 30
0.0
 11
4000.0
 21
-954.99999999999966
 31
0.0
1001
ACDBBLOCKREPETAG
1070
     1
1071
        6
1005
122B73
  0
LINE
  5
122B74
  8
OBJECT
 10
3920.0
 20
-954.99999999999966
 30
0.0
 11
4080.0
 21
-954.99999999999966
 31
0.0
1001
ACDBBLOCKREPETAG
1070
     1
1071
        7
1005
122B74
  0
LINE
  5
122B75
  8
OBJECT
 10
3920.0
 20
-942.99999999999955
 30
0.0
 11
4080.0
 21
-942.99999999999955
 31
0.0
1001
ACDBBLOCKREPETAG
1070
     1
1071
        8
1005
122B75
  0
LINE
  5
122B76
  8
OBJECT
 10
3920.0
 20
-942.99999999999955
 30
0.0
 11
3920.0
 21
-954.99999999999966
 31
0.0
1001
ACDBBLOCKREPETAG
1070
     1
1071
        9
1005
122B76
  0
LINE
  5
122B77
  8
OBJECT
 10
4080.0
 20
-942.99999999999955
 30
0.0
 11
4080.0
 21
-954.99999999999966
 31
0.0
1001
ACDBBLOCKREPETAG
1070
     1
1071
       10
1005
122B77
  0
LINE
  5
122B78
  8
OBJECT
 10
1925.0
 20
-669.99999999999955
 30
0.0
 11
1925.0
 21
-942.99999999999955
 31
0.0
1001
ACDBBLOCKREPETAG
1070
     1
1071
        1
1005
122B78
  0
LINE
  5
122B79
  8
OBJECT
 10
2075.0
 20
-669.99999999999375
 30
0.0
 11
2075.0
 21
-942.99999999999955
 31
0.0
1001
ACDBBLOCKREPETAG
1070
     1
1071
        3
1005
122B79
  0
LINE
  5
122B7A
  8
CENTER
 10
2000.0
 20
-669.99999999999955
 30
0.0
 11
2000.0
 21
-954.99999999999966
 31
0.0
1001
ACDBBLOCKREPETAG
1070
     1
1071
        6
1005
122B7A
  0
LINE
  5
122B7B
  8
OBJECT
 10
1920.0
 20
-954.99999999999966
 30
0.0
 11
2080.0
 21
-954.99999999999966
 31
0.0
1001
ACDBBLOCKREPETAG
1070
     1
1071
        7
1005
122B7B
  0
LINE
  5
122B7C
  8
OBJECT
 10
1920.0
 20
-942.99999999999955
 30
0.0
 11
2080.0
 21
-942.99999999999955
 31
0.0
1001
ACDBBLOCKREPETAG
1070
     1
1071
        8
1005
122B7C
  0
LINE
  5
122B7D
  8
OBJECT
 10
1920.0
 20
-942.99999999999955
 30
0.0
 11
1920.0
 21
-954.99999999999966
 31
0.0
1001
ACDBBLOCKREPETAG
1070
     1
1071
        9
1005
122B7D
  0
LINE
  5
122B7E
  8
OBJECT
 10
2080.0
 20
-942.99999999999955
 30
0.0
 11
2080.0
 21
-954.99999999999966
 31
0.0
1001
ACDBBLOCKREPETAG
1070
     1
1071
       10
1005
122B7E
  0
LINE
  5
122B7F
  8
DIM
 10
3904.9999999999941
 20
-655.0
 30
0.0
 11
3839.6616440113221
 21
-654.99999999999977
 31
0.0
  0
LINE
  5
122B80
  8
DIM
 10
3910.0
 20
-1024.9999999999991
 30
0.0
 11
3839.6616440113221
 21
-1024.9999999999991
 31
0.0
  0
LINE
  5
122B81
  8
DIM
 10
3849.6616440113221
 20
-675.0
 30
0.0
 11
3849.6616440113221
 21
-1004.999999999999
 31
0.0
  0
INSERT
  5
122B82
  8
DIM
  2
_OPEN30
 10
3849.6616440113221
 20
-655.0
 30
0.0
 41
20.0
 42
20.0
 43
20.0
 50
90.0
  0
INSERT
  5
122B83
  8
DIM
  2
_OPEN30
 10
3849.6616440113221
 20
-1024.9999999999991
 30
0.0
 41
20.0
 42
20.0
 43
20.0
 50
270.0
  0
INSERT
  5
122B84
  8
OBJECT
  2
*U5
 10
0.0
 20
0.0
 30
0.0
  0
LINE
  5
122B85
  8
SLIM
 10
3927.3018300565232
 20
-155.95484036957691
 30
0.0
 11
3955.9548403695781
 21
-127.30183005652231
 31
0.0
1001
GRADIENTCOLOR1ACI
1070
     5
1001
GRADIENTCOLOR2ACI
1070
     2
1001
ACAD
1010
0.0
1020
0.0
1030
0.0
1001
ACDBBLOCKREPETAG
1070
     1
1071
      436
1005
122B85
  0
LINE
  5
122B86
  8
SLIM
 10
3919.4861520708369
 20
-172.75077447633191
 30
0.0
 11
3938.2903089572728
 21
-153.94661758989659
 31
0.0
1001
GRADIENTCOLOR1ACI
1070
     5
1001
GRADIENTCOLOR2ACI
1070
     2
1001
ACAD
1010
0.0
1020
0.0
1030
0.0
1001
ACDBBLOCKREPETAG
1070
     1
1071
      437
1005
122B86
  0
LINE
  5
122B87
  8
SLIM
 10
3953.946617589897
 20
-138.29030895727169
 30
0.0
 11
3972.7507744763329
 21
-119.4861520708364
 31
0.0
1001
GRADIENTCOLOR1ACI
1070
     5
1001
GRADIENTCOLOR2ACI
1070
     2
1001
ACAD
1010
0.0
1020
0.0
1030
0.0
1001
ACDBBLOCKREPETAG
1070
     1
1071
      438
1005
122B87
  0
LINE
  5
122B88
  8
SLIM
 10
3916.359667993378
 20
-184.8575146748604
 30
0.0
 11
3927.6959583557841
 21
-173.5212243124561
 31
0.0
1001
GRADIENTCOLOR1ACI
1070
     5
1001
GRADIENTCOLOR2ACI
1070
     2
1001
ACAD
1010
0.0
1020
0.0
1030
0.0
1001
ACDBBLOCKREPETAG
1070
     1
1071
      439
1005
122B88
  0
LINE
  5
122B89
  8
SLIM
 10
3973.521224312457
 20
-127.6959583557812
 30
0.0
 11
3984.8575146748631
 21
-116.359667993377
 31
0.0
1001
GRADIENTCOLOR1ACI
1070
     5
1001
GRADIENTCOLOR2ACI
1070
     2
1001
ACAD
1010
0.0
1020
0.0
1030
0.0
1001
ACDBBLOCKREPETAG
1070
     1
1071
      440
1005
122B89
  0
LINE
  5
122B8A
  8
SLIM
 10
3915.1440575890529
 20
-195.0533812002549
 30
0.0
 11
3924.303021643183
 21
-185.89441714612491
 31
0.0
1001
GRADIENTCOLOR1ACI
1070
     5
1001
GRADIENTCOLOR2ACI
1070
     2
1001
ACAD
1010
0.0
1020
0.0
1030
0.0
1001
ACDBBLOCKREPETAG
1070
     1
1071
      441
1005
122B8A
  0
LINE
  5
122B8B
  8
SLIM
 10
3985.8944171461271
 20
-124.30302164318159
 30
0.0
 11
3995.0533812002559
 21
-115.1440575890517
 31
0.0
1001
GRADIENTCOLOR1ACI
1070
     5
1001
GRADIENTCOLOR2ACI
1070
     2
1001
ACAD
1010
0.0
1020
0.0
1030
0.0
1001
ACDBBLOCKREPETAG
1070
     1
1071
      442
1005
122B8B
  0
LINE
  5
122B8C
  8
SLIM
 10
3915.097963557474
 20
-204.07973135290339
 30
0.0
 11
3919.1776949103769
 21
-199.99999999999909
 31
0.0
1001
GRADIENTCOLOR1ACI
1070
     5
1001
GRADIENTCOLOR2ACI
1070
     2
1001
ACAD
1010
0.0
1020
0.0
1030
0.0
1001
ACDBBLOCKREPETAG
1070
     1
1071
      443
1005
122B8C
  0
LINE
  5
122B8D
  8
SLIM
 10
4000.0
 20
-119.1776949103767
 30
0.0
 11
4004.0797313529042
 21
-115.0979635574724
 31
0.0
1001
GRADIENTCOLOR1ACI
1070
     5
1001
GRADIENTCOLOR2ACI
1070
     2
1001
ACAD
1010
0.0
1020
0.0
1030
0.0
1001
ACDBBLOCKREPETAG
1070
     1
1071
      444
1005
122B8D
  0
LINE
  5
122B8E
  8
SLIM
 10
3919.1776949103769
 20
-199.99999999999909
 30
0.0
 11
3923.0999621611709
 21
-196.07773274920581
 31
0.0
1001
GRADIENTCOLOR1ACI
1070
     5
1001
GRADIENTCOLOR2ACI
1070
     2
1001
ACAD
1010
0.0
1020
0.0
1030
0.0
1001
ACDBBLOCKREPETAG
1070
     1
1071
      445
1005
122B8E
  0
LINE
  5
122B8F
  8
SLIM
 10
3996.0777327492078
 20
-123.0999621611699
 30
0.0
 11
4000.0
 21
-119.1776949103767
 31
0.0
1001
GRADIENTCOLOR1ACI
1070
     5
1001
GRADIENTCOLOR2ACI
1070
     2
1001
ACAD
1010
0.0
1020
0.0
1030
0.0
1001
ACDBBLOCKREPETAG
1070
     1
1071
      446
1005
122B8F
  0
LINE
  5
122B90
  8
SLIM
 10
3915.8899726208729
 20
-212.26797841057399
 30
0.0
 11
3923.162230777169
 21
-204.9957202542767
 31
0.0
1001
GRADIENTCOLOR1ACI
1070
     5
1001
GRADIENTCOLOR2ACI
1070
     2
1001
ACAD
1010
0.0
1020
0.0
1030
0.0
1001
ACDBBLOCKREPETAG
1070
     1
1071
      447
1005
122B90
  0
LINE
  5
122B91
  8
SLIM
 10
4004.9957202542769
 20
-123.1622307771683
 30
0.0
 11
4012.2679784105749
 21
-115.88997262087101
 31
0.0
1001
GRADIENTCOLOR1ACI
1070
     5
1001
GRADIENTCOLOR2ACI
1070
     2
1001
ACAD
1010
0.0
1020
0.0
1030
0.0
1001
ACDBBLOCKREPETAG
1070
     1
1071
      448
1005
122B91
  0
LINE
  5
122B92
  8
SLIM
 10
3917.338265695154
 20
-219.79994145736151
 30
0.0
 11
3924.1101477855509
 21
-213.02805936696359
 31
0.0
1001
GRADIENTCOLOR1ACI
1070
     5
1001
GRADIENTCOLOR2ACI
1070
     2
1001
ACAD
1010
0.0
1020
0.0
1030
0.0
1001
ACDBBLOCKREPETAG
1070
     1
1071
      449
1005
122B92
  0
LINE
  5
122B93
  8
SLIM
 10
4013.028059366964
 20
-124.1101477855505
 30
0.0
 11
4019.799941457361
 21
-117.3382656951526
 31
0.0
1001
GRADIENTCOLOR1ACI
1070
     5
1001
GRADIENTCOLOR2ACI
1070
     2
1001
ACAD
1010
0.0
1020
0.0
1030
0.0
1001
ACDBBLOCKREPETAG
1070
     1
1071
      450
1005
122B93
  0
LINE
  5
122B94
  8
SLIM
 10
3919.331259406305
 20
-226.78720386727881
 30
0.0
 11
3925.7443819593391
 21
-220.3740813142449
 31
0.0
1001
GRADIENTCOLOR1ACI
1070
     5
1001
GRADIENTCOLOR2ACI
1070
     2
1001
ACAD
1010
0.0
1020
0.0
1030
0.0
1001
ACDBBLOCKREPETAG
1070
     1
1071
      451
1005
122B94
  0
LINE
  5
122B95
  8
SLIM
 10
4020.3740813142458
 20
-125.7443819593384
 30
0.0
 11
4026.7872038672799
 21
-119.3312594063044
 31
0.0
1001
GRADIENTCOLOR1ACI
1070
     5
1001
GRADIENTCOLOR2ACI
1070
     2
1001
ACAD
1010
0.0
1020
0.0
1030
0.0
1001
ACDBBLOCKREPETAG
1070
     1
1071
      452
1005
122B95
  0
LINE
  5
122B96
  8
SLIM
 10
3921.795716318622
 20
-233.30300307603289
 30
0.0
 11
3927.9462473957792
 21
-227.1524719988744
 31
0.0
1001
GRADIENTCOLOR1ACI
1070
     5
1001
GRADIENTCOLOR2ACI
1070
     2
1001
ACAD
1010
0.0
1020
0.0
1030
0.0
1001
ACDBBLOCKREPETAG
1070
     1
1071
      453
1005
122B96
  0
LINE
  5
122B97
  8
SLIM
 10
4027.1524719988752
 20
-127.946247395778
 30
0.0
 11
4033.3030030760328
 21
-121.7957163186195
 31
0.0
1001
GRADIENTCOLOR1ACI
1070
     5
1001
GRADIENTCOLOR2ACI
1070
     2
1001
ACAD
1010
0.0
1020
0.0
1030
0.0
1001
ACDBBLOCKREPETAG
1070
     1
1071
      454
1005
122B97
  0
LINE
  5
122B98
  8
SLIM
 10
3924.6816635313448
 20
-239.39731198437769
 30
0.0
 11
3930.6398768643921
 21
-233.4390986513296
 31
0.0
1001
GRADIENTCOLOR1ACI
1070
     5
1001
GRADIENTCOLOR2ACI
1070
     2
1001
ACAD
1010
0.0
1020
0.0
1030
0.0
1001
ACDBBLOCKREPETAG
1070
     1
1071
      455
1005
122B98
  0
LINE
  5
122B99
  8
SLIM
 10
4033.4390986513308
 20
-130.63987686439199
 30
0.0
 11
4039.3973119843781
 21
-124.6816635313439
 31
0.0
1001
GRADIENTCOLOR1ACI
1070
     5
1001
GRADIENTCOLOR2ACI
1070
     2
1001
ACAD
1010
0.0
1020
0.0
1030
0.0
1001
ACDBBLOCKREPETAG
1070
     1
1071
      456
1005
122B99
  0
LINE
  5
122B9A
  8
SLIM
 10
3927.9544611024248
 20
-245.10477053436691
 30
0.0
 11
3933.775007014995
 21
-239.28422462179759
 31
0.0
1001
GRADIENTCOLOR1ACI
1070
     5
1001
GRADIENTCOLOR2ACI
1070
     2
1001
ACAD
1010
0.0
1020
0.0
1030
0.0
1001
ACDBBLOCKREPETAG
1070
     1
1071
      457
1005
122B9A
  0
LINE
  5
122B9B
  8
SLIM
 10
4039.284224621797
 20
-133.77500701499321
 30
0.0
 11
4045.1047705343681
 21
-127.95446110242381
 31
0.0
1001
GRADIENTCOLOR1ACI
1070
     5
1001
GRADIENTCOLOR2ACI
1070
     2
1001
ACAD
1010
0.0
1020
0.0
1030
0.0
1001
ACDBBLOCKREPETAG
1070
     1
1071
      458
1005
122B9B
  0
LINE
  5
122B9C
  8
SLIM
 10
3931.5903319686659
 20
-250.4491557891954
 30
0.0
 11
3937.3182075880568
 21
-244.72128016980341
 31
0.0
1001
GRADIENTCOLOR1ACI
1070
     5
1001
GRADIENTCOLOR2ACI
1070
     2
1001
ACAD
1010
0.0
1020
0.0
1030
0.0
1001
ACDBBLOCKREPETAG
1070
     1
1071
      459
1005
122B9C
  0
LINE
  5
122B9D
  8
SLIM
 10
4044.7212801698038
 20
-137.31820758805651
 30
0.0
 11
4050.4491557891961
 21
-131.59033196866449
 31
0.0
1001
GRADIENTCOLOR1ACI
1070
     5
1001
GRADIENTCOLOR2ACI
1070
     2
1001
ACAD
1010
0.0
1020
0.0
1030
0.0
1001
ACDBBLOCKREPETAG
1070
     1
1071
      460
1005
122B9D
  0
LINE
  5
122B9E
  8
SLIM
 10
3935.5737496925258
 20
-255.4459941864034
 30
0.0
 11
3941.24811054159
 21
-249.77163333734029
 31
0.0
1001
GRADIENTCOLOR1ACI
1070
     5
1001
GRADIENTCOLOR2ACI
1070
     2
1001
ACAD
1010
0.0
1020
0.0
1030
0.0
1001
ACDBBLOCKREPETAG
1070
     1
1071
      461
1005
122B9E
  0
LINE
  5
122B9F
  8
SLIM
 10
4053.0197438789291
 20
-137.99999999999909
 30
0.0
 11
4055.4459941864038
 21
-135.57374969252561
 31
0.0
1001
GRADIENTCOLOR1ACI
1070
     5
1001
GRADIENTCOLOR2ACI
1070
     2
1001
ACAD
1010
0.0
1020
0.0
1030
0.0
1001
ACDBBLOCKREPETAG
1070
     1
1071
      462
1005
122B9F
  0
LINE
  5
122BA0
  8
SLIM
 10
3939.8959235991442
 20
-260.10407640085572
 30
0.0
 11
3945.5527778486362
 21
-254.44722215136329
 31
0.0
1001
GRADIENTCOLOR1ACI
1070
     5
1001
GRADIENTCOLOR2ACI
1070
     2
1001
ACAD
1010
0.0
1020
0.0
1030
0.0
1001
ACDBBLOCKREPETAG
1070
     1
1071
      463
1005
122BA0
  0
LINE
  5
122BA1
  8
SLIM
 10
3944.5540058135962
 20
-264.4262503074724
 30
0.0
 11
3950.2283666626599
 21
-258.75188945840949
 31
0.0
1001
GRADIENTCOLOR1ACI
1070
     5
1001
GRADIENTCOLOR2ACI
1070
     2
1001
ACAD
1010
0.0
1020
0.0
1030
0.0
1001
ACDBBLOCKREPETAG
1070
     1
1071
      464
1005
122BA1
  0
LINE
  5
122BA2
  8
SLIM
 10
3949.5508442108039
 20
-268.40966803133369
 30
0.0
 11
3955.2787198301962
 21
-262.68179241194167
 31
0.0
1001
GRADIENTCOLOR1ACI
1070
     5
1001
GRADIENTCOLOR2ACI
1070
     2
1001
ACAD
1010
0.0
1020
0.0
1030
0.0
1001
ACDBBLOCKREPETAG
1070
     1
1071
      465
1005
122BA2
  0
LINE
  5
122BA3
  8
SLIM
 10
3954.8952294656328
 20
-272.04553889757437
 30
0.0
 11
3960.7157753782012
 21
-266.22499298500497
 31
0.0
1001
GRADIENTCOLOR1ACI
1070
     5
1001
GRADIENTCOLOR2ACI
1070
     2
1001
ACAD
1010
0.0
1020
0.0
1030
0.0
1001
ACDBBLOCKREPETAG
1070
     1
1071
      466
1005
122BA3
  0
LINE
  5
122BA4
  8
SLIM
 10
3960.602688015621
 20
-275.31833646865431
 30
0.0
 11
3966.560901348671
 21
-269.36012313560622
 31
0.0
1001
GRADIENTCOLOR1ACI
1070
     5
1001
GRADIENTCOLOR2ACI
1070
     2
1001
ACAD
1010
0.0
1020
0.0
1030
0.0
1001
ACDBBLOCKREPETAG
1070
     1
1071
      467
1005
122BA4
  0
LINE
  5
122BA5
  8
SLIM
 10
3966.6969969239681
 20
-278.20428368137868
 30
0.0
 11
3972.8475280011248
 21
-272.05375260422022
 31
0.0
1001
GRADIENTCOLOR1ACI
1070
     5
1001
GRADIENTCOLOR2ACI
1070
     2
1001
ACAD
1010
0.0
1020
0.0
1030
0.0
1001
ACDBBLOCKREPETAG
1070
     1
1071
      468
1005
122BA5
  0
LINE
  5
122BA6
  8
SLIM
 10
3973.2127961327192
 20
-280.66874059369371
 30
0.0
 11
3979.6259186857542
 21
-274.25561804065973
 31
0.0
1001
GRADIENTCOLOR1ACI
1070
     5
1001
GRADIENTCOLOR2ACI
1070
     2
1001
ACAD
1010
0.0
1020
0.0
1030
0.0
1001
ACDBBLOCKREPETAG
1070
     1
1071
      469
1005
122BA6
  0
LINE
  5
122BA7
  8
SLIM
 10
3980.200058542639
 20
-282.6617343048456
 30
0.0
 11
3986.971940633035
 21
-275.88985221444773
 31
0.0
1001
GRADIENTCOLOR1ACI
1070
     5
1001
GRADIENTCOLOR2ACI
1070
     2
1001
ACAD
1010
0.0
1020
0.0
1030
0.0
1001
ACDBBLOCKREPETAG
1070
     1
1071
      470
1005
122BA7
  0
LINE
  5
122BA8
  8
SLIM
 10
3987.7320215894251
 20
-284.11002737912702
 30
0.0
 11
3995.0042797457209
 21
-276.83776922282988
 31
0.0
1001
GRADIENTCOLOR1ACI
1070
     5
1001
GRADIENTCOLOR2ACI
1070
     2
1001
ACAD
1010
0.0
1020
0.0
1030
0.0
1001
ACDBBLOCKREPETAG
1070
     1
1071
      471
1005
122BA8
  0
LINE
  5
122BA9
  8
SLIM
 10
3995.9202686470958
 20
-284.9020364425258
 30
0.0
 11
4000.0
 21
-280.82230508962152
 31
0.0
1001
GRADIENTCOLOR1ACI
1070
     5
1001
GRADIENTCOLOR2ACI
1070
     2
1001
ACAD
1010
0.0
1020
0.0
1030
0.0
1001
ACDBBLOCKREPETAG
1070
     1
1071
      472
1005
122BA9
  0
LINE
  5
122BAA
  8
SLIM
 10
4000.0
 20
-280.82230508962152
 30
0.0
 11
4003.9222672507922
 21
-276.90003783882821
 31
0.0
1001
GRADIENTCOLOR1ACI
1070
     5
1001
GRADIENTCOLOR2ACI
1070
     2
1001
ACAD
1010
0.0
1020
0.0
1030
0.0
1001
ACDBBLOCKREPETAG
1070
     1
1071
      473
1005
122BAA
  0
LINE
  5
122BAB
  8
SLIM
 10
4004.9466187997441
 20
-284.85594241094651
 30
0.0
 11
4014.1055828538729
 21
-275.6969783568166
 31
0.0
1001
GRADIENTCOLOR1ACI
1070
     5
1001
GRADIENTCOLOR2ACI
1070
     2
1001
ACAD
1010
0.0
1020
0.0
1030
0.0
1001
ACDBBLOCKREPETAG
1070
     1
1071
      474
1005
122BAB
  0
LINE
  5
122BAC
  8
SLIM
 10
4015.1424853251392
 20
-283.64033200662118
 30
0.0
 11
4026.4787756875421
 21
-272.30404164421702
 31
0.0
1001
GRADIENTCOLOR1ACI
1070
     5
1001
GRADIENTCOLOR2ACI
1070
     2
1001
ACAD
1010
0.0
1020
0.0
1030
0.0
1001
ACDBBLOCKREPETAG
1070
     1
1071
      475
1005
122BAC
  0
LINE
  5
122BAD
  8
SLIM
 10
4027.2492255236671
 20
-280.51384792916173
 30
0.0
 11
4045.7630734528302
 21
-261.99999999999909
 31
0.0
1001
GRADIENTCOLOR1ACI
1070
     5
1001
GRADIENTCOLOR2ACI
1070
     2
1001
ACAD
1010
0.0
1020
0.0
1030
0.0
1001
ACDBBLOCKREPETAG
1070
     1
1071
      476
1005
122BAD
  0
LINE
  5
122BAE
  8
SLIM
 10
4044.0451596304219
 20
-272.69816994347582
 30
0.0
 11
4054.7433295738979
 21
-261.99999999999909
 31
0.0
1001
GRADIENTCOLOR1ACI
1070
     5
1001
GRADIENTCOLOR2ACI
1070
     2
1001
ACAD
1010
0.0
1020
0.0
1030
0.0
1001
ACDBBLOCKREPETAG
1070
     1
1071
      477
1005
122BAE
  0
LINE
  5
122BAF
  8
CENTER
 10
4080.0
 20
-199.99999999999909
 30
0.0
 11
3900.0
 21
-199.99999999999909
 31
0.0
1001
ACDBBLOCKREPETAG
1070
     1
1071
      187
1005
122BAF
  0
LINE
  5
122BB0
  8
CENTER
 10
4000.0
 20
-299.99999999999898
 30
0.0
 11
4000.0
 21
-99.999999999999091
 31
0.0
1001
ACDBBLOCKREPETAG
1070
     1
1071
      188
1005
122BB0
  0
CIRCLE
  5
122BB1
  8
OBJECT
 10
4000.0
 20
-199.99999999999909
 30
0.0
 40
70.0
1001
ACDBBLOCKREPETAG
1070
     1
1071
      189
1005
122BB1
  0
CIRCLE
  5
122BB2
  8
OBJECT
 10
4000.0
 20
-199.99999999999909
 30
0.0
 40
77.0
1001
ACDBBLOCKREPETAG
1070
     1
1071
      190
1005
122BB2
  0
LINE
  5
122BB3
  8
OBJECT
 10
4045.661800227324
 20
-137.99999999999909
 30
0.0
 11
4080.0
 21
-137.99999999999909
 31
0.0
1001
ACDBBLOCKREPETAG
1070
     1
1071
      192
1005
122BB3
  0
LINE
  5
122BB4
  8
OBJECT
 10
4045.661800227324
 20
-261.99999999999909
 30
0.0
 11
4080.0
 21
-261.99999999999909
 31
0.0
1001
ACDBBLOCKREPETAG
1070
     1
1071
      193
1005
122BB4
  0
POINT
  5
122BB5
  8
DOTS
 10
4000.0
 20
-199.99999999999909
 30
0.0
1001
ACDBBLOCKREPETAG
1070
     1
1071
      194
1005
122BB5
  0
ARC
  5
122BB6
  8
OBJECT
 10
4000.0
 20
-199.99999999999909
 30
0.0
 40
85.0
 50
46.837102859834147
 51
313.16289714016602
1001
ACDBBLOCKREPETAG
1070
     1
1071
      202
1005
122BB6
  0
CIRCLE
  5
122BB7
  8
OBJECT
 10
4000.0
 20
-199.99999999999909
 30
0.0
 40
53.5
1001
ACDBBLOCKREPETAG
1070
     1
1071
      356
1005
122BB7
  0
CIRCLE
  5
122BB8
  8
OBJECT
 10
2000.0
 20
-199.99999999999909
 30
0.0
 40
53.5
1001
ACDBBLOCKREPETAG
1070
     1
1071
      344
1005
122BB8
  0
LINE
  5
122BB9
  8
CENTER
 10
2080.0
 20
-199.99999999999909
 30
0.0
 11
1905.0
 21
-199.99999999999909
 31
0.0
1001
ACDBBLOCKREPETAG
1070
     1
1071
       14
1005
122BB9
  0
LINE
  5
122BBA
  8
CENTER
 10
2000.0
 20
-294.99999999999898
 30
0.0
 11
2000.0
 21
-104.9999999999991
 31
0.0
1001
ACDBBLOCKREPETAG
1070
     1
1071
       15
1005
122BBA
  0
CIRCLE
  5
122BBB
  8
OBJECT
 10
2000.0
 20
-199.99999999999909
 30
0.0
 40
70.0
1001
ACDBBLOCKREPETAG
1070
     1
1071
       16
1005
122BBB
  0
CIRCLE
  5
122BBC
  8
OBJECT
 10
2000.0
 20
-199.99999999999909
 30
0.0
 40
77.0
1001
ACDBBLOCKREPETAG
1070
     1
1071
       17
1005
122BBC
  0
ARC
  5
122BBD
  8
OBJECT
 10
2000.0
 20
-199.99999999999909
 30
0.0
 40
80.0
 50
50.805032573864182
 51
309.1949674261358
1001
ACDBBLOCKREPETAG
1070
     1
1071
       18
1005
122BBD
  0
LINE
  5
122BBE
  8
OBJECT
 10
2045.6618002273251
 20
-137.99999999999909
 30
0.0
 11
2080.0
 21
-137.99999999999909
 31
0.0
1001
ACDBBLOCKREPETAG
1070
     1
1071
       19
1005
122BBE
  0
LINE
  5
122BBF
  8
OBJECT
 10
2045.6618002273251
 20
-261.99999999999909
 30
0.0
 11
2080.0
 21
-261.99999999999909
 31
0.0
1001
ACDBBLOCKREPETAG
1070
     1
1071
       20
1005
122BBF
  0
POINT
  5
122BC0
  8
DOTS
 10
2000.0
 20
-199.99999999999909
 30
0.0
1001
ACDBBLOCKREPETAG
1070
     1
1071
       21
1005
122BC0
  0
LINE
  5
122BC1
  8
OBJECT
 10
3930.0
 20
-1264.999999999997
 30
0.0
 11
4070.0
 21
-1264.999999999997
 31
0.0
1001
ACDBBLOCKREPETAG
1070
     1
1071
        0
1005
122BC1
  0
LINE
  5
122BC2
  8
OBJECT
 10
3930.0
 20
-1264.999999999997
 30
0.0
 11
3930.0
 21
-1024.999999999997
 31
0.0
1001
ACDBBLOCKREPETAG
1070
     1
1071
        1
1005
122BC2
  0
LINE
  5
122BC3
  8
OBJECT
 10
4070.0
 20
-1264.999999999997
 30
0.0
 11
4070.0
 21
-1024.999999999997
 31
0.0
1001
ACDBBLOCKREPETAG
1070
     1
1071
        2
1005
122BC3
  0
LINE
  5
122BC4
  8
OBJECT
 10
3930.0
 20
-1024.999999999997
 30
0.0
 11
4070.0
 21
-1024.999999999997
 31
0.0
1001
ACDBBLOCKREPETAG
1070
     1
1071
        3
1005
122BC4
  0
LINE
  5
122BC5
  8
HIDDEN
 10
3937.5
 20
-1024.999999999997
 30
0.0
 11
3937.5
 21
-1264.999999999997
 31
0.0
1001
ACDBBLOCKREPETAG
1070
     1
1071
        4
1005
122BC5
  0
LINE
  5
122BC6
  8
HIDDEN
 10
4062.5
 20
-1024.999999999997
 30
0.0
 11
4062.5
 21
-1264.999999999997
 31
0.0
1001
ACDBBLOCKREPETAG
1070
     1
1071
        5
1005
122BC6
  0
LINE
  5
122BC7
  8
CENTER
 10
4000.0
 20
-954.99999999999875
 30
0.0
 11
4000.0
 21
-1279.999999999997
 31
0.0
1001
ACDBBLOCKREPETAG
1070
     1
1071
        6
1005
122BC7
  0
LINE
  5
122BC8
  8
OBJECT
 10
3925.0
 20
-954.99999999999875
 30
0.0
 11
3925.0
 21
-984.99999999999693
 31
0.0
1001
ACDBBLOCKREPETAG
1070
     1
1071
        7
1005
122BC8
  0
LINE
  5
122BC9
  8
OBJECT
 10
4075.0000000000032
 20
-954.99999999999875
 30
0.0
 11
4075.0
 21
-984.99999999999693
 31
0.0
1001
ACDBBLOCKREPETAG
1070
     1
1071
        8
1005
122BC9
  0
LINE
  5
122BCA
  8
OBJECT
 10
3925.0
 20
-984.99999999999693
 30
0.0
 11
4075.0
 21
-984.99999999999693
 31
0.0
1001
ACDBBLOCKREPETAG
1070
     1
1071
        9
1005
122BCA
  0
LINE
  5
122BCB
  8
OBJECT
 10
3925.0
 20
-984.99999999999693
 30
0.0
 11
3930.0
 21
-1024.999999999997
 31
0.0
1001
ACDBBLOCKREPETAG
1070
     1
1071
       10
1005
122BCB
  0
LINE
  5
122BCC
  8
OBJECT
 10
4070.0
 20
-1024.999999999997
 30
0.0
 11
4075.0
 21
-984.99999999999693
 31
0.0
1001
ACDBBLOCKREPETAG
1070
     1
1071
       11
1005
122BCC
  0
LINE
  5
122BCD
  8
OBJECT
 10
1930.0
 20
-1264.999999999998
 30
0.0
 11
2070.0
 21
-1264.999999999998
 31
0.0
1001
ACDBBLOCKREPETAG
1070
     1
1071
        0
1005
122BCD
  0
LINE
  5
122BCE
  8
OBJECT
 10
1930.0
 20
-1264.999999999998
 30
0.0
 11
1930.0
 21
-1024.999999999997
 31
0.0
1001
ACDBBLOCKREPETAG
1070
     1
1071
        1
1005
122BCE
  0
LINE
  5
122BCF
  8
OBJECT
 10
2070.0
 20
-1264.999999999998
 30
0.0
 11
2070.0
 21
-1024.999999999997
 31
0.0
1001
ACDBBLOCKREPETAG
1070
     1
1071
        2
1005
122BCF
  0
LINE
  5
122BD0
  8
OBJECT
 10
1930.0
 20
-1024.999999999997
 30
0.0
 11
2070.0
 21
-1024.999999999997
 31
0.0
1001
ACDBBLOCKREPETAG
1070
     1
1071
        3
1005
122BD0
  0
LINE
  5
122BD1
  8
HIDDEN
 10
1937.5
 20
-1024.999999999997
 30
0.0
 11
1937.5
 21
-1264.999999999998
 31
0.0
1001
ACDBBLOCKREPETAG
1070
     1
1071
        4
1005
122BD1
  0
LINE
  5
122BD2
  8
HIDDEN
 10
2062.5
 20
-1024.999999999997
 30
0.0
 11
2062.5
 21
-1264.999999999998
 31
0.0
1001
ACDBBLOCKREPETAG
1070
     1
1071
        5
1005
122BD2
  0
LINE
  5
122BD3
  8
CENTER
 10
2000.0
 20
-954.99999999999966
 30
0.0
 11
2000.0
 21
-1279.999999999998
 31
0.0
1001
ACDBBLOCKREPETAG
1070
     1
1071
        6
1005
122BD3
  0
LINE
  5
122BD4
  8
OBJECT
 10
1925.0
 20
-954.99999999999966
 30
0.0
 11
1925.0
 21
-984.99999999999784
 31
0.0
1001
ACDBBLOCKREPETAG
1070
     1
1071
        7
1005
122BD4
  0
LINE
  5
122BD5
  8
OBJECT
 10
2075.0000000000041
 20
-954.99999999999966
 30
0.0
 11
2075.0
 21
-984.99999999999784
 31
0.0
1001
ACDBBLOCKREPETAG
1070
     1
1071
        8
1005
122BD5
  0
LINE
  5
122BD6
  8
OBJECT
 10
1925.0
 20
-984.99999999999784
 30
0.0
 11
2075.0
 21
-984.99999999999784
 31
0.0
1001
ACDBBLOCKREPETAG
1070
     1
1071
        9
1005
122BD6
  0
LINE
  5
122BD7
  8
OBJECT
 10
1925.0
 20
-984.99999999999784
 30
0.0
 11
1930.0
 21
-1024.999999999997
 31
0.0
1001
ACDBBLOCKREPETAG
1070
     1
1071
       10
1005
122BD7
  0
LINE
  5
122BD8
  8
OBJECT
 10
2070.0
 20
-1024.999999999997
 30
0.0
 11
2075.0
 21
-984.99999999999784
 31
0.0
1001
ACDBBLOCKREPETAG
1070
     1
1071
       11
1005
122BD8
  0
LINE
  5
122BD9
  8
CENTER
 10
4101.0
 20
-199.99999999999841
 30
0.0
 11
4080.0
 21
-199.99999999999841
 31
0.0
1001
ACDBBLOCKREPETAG
1070
     1
1071
        0
1005
122BD9
  0
LINE
  5
122BDA
  8
OBJECT
 10
4083.0000000000009
 20
-137.99999999999841
 30
0.0
 11
4080.0
 21
-137.99999999999841
 31
0.0
1001
ACDBBLOCKREPETAG
1070
     1
1071
        1
1005
122BDA
  0
ARC
  5
122BDB
  8
OBJECT
 10
4083.0000000000009
 20
-140.99999999999841
 30
0.0
 40
3.0
 50
0.0
 51
90.0
1001
ACDBBLOCKREPETAG
1070
     1
1071
        2
1005
122BDB
  0
LINE
  5
122BDC
  8
OBJECT
 10
4080.0
 20
-261.99999999999841
 30
0.0
 11
4083.0000000000009
 21
-261.99999999999841
 31
0.0
1001
ACDBBLOCKREPETAG
1070
     1
1071
        3
1005
122BDC
  0
ARC
  5
122BDD
  8
OBJECT
 10
4083.0000000000009
 20
-258.99999999999841
 30
0.0
 40
3.0
 50
270.0
 51
0.0
1001
ACDBBLOCKREPETAG
1070
     1
1071
        4
1005
122BDD
  0
LINE
  5
122BDE
  8
OBJECT
 10
4086.0000000000009
 20
-258.99999999999841
 30
0.0
 11
4086.0000000000009
 21
-140.99999999999841
 31
0.0
1001
ACDBBLOCKREPETAG
1070
     1
1071
        5
1005
122BDE
  0
LINE
  5
122BDF
  8
OBJECT
 10
4083.0000000000009
 20
-533.99999999999909
 30
0.0
 11
4080.0
 21
-533.99999999999909
 31
0.0
1001
ACDBBLOCKREPETAG
1070
     1
1071
        1
1005
122BDF
  0
ARC
  5
122BE0
  8
OBJECT
 10
4083.0000000000009
 20
-536.9999999999992
 30
0.0
 40
3.0
 50
0.0
 51
90.0
1001
ACDBBLOCKREPETAG
1070
     1
1071
        2
1005
122BE0
  0
LINE
  5
122BE1
  8
OBJECT
 10
4080.0
 20
-657.9999999999992
 30
0.0
 11
4083.0000000000009
 21
-657.9999999999992
 31
0.0
1001
ACDBBLOCKREPETAG
1070
     1
1071
        3
1005
122BE1
  0
ARC
  5
122BE2
  8
OBJECT
 10
4083.0000000000009
 20
-654.99999999999909
 30
0.0
 40
3.0
 50
270.0
 51
0.0
1001
ACDBBLOCKREPETAG
1070
     1
1071
        4
1005
122BE2
  0
LINE
  5
122BE3
  8
OBJECT
 10
4086.0000000000009
 20
-654.99999999999909
 30
0.0
 11
4086.0000000000009
 21
-536.9999999999992
 31
0.0
1001
ACDBBLOCKREPETAG
1070
     1
1071
        5
1005
122BE3
  0
LINE
  5
122BE4
  8
OBJECT
 10
2083.0
 20
-534.0
 30
0.0
 11
2080.0
 21
-534.0
 31
0.0
1001
ACDBBLOCKREPETAG
1070
     1
1071
        1
1005
122BE4
  0
ARC
  5
122BE5
  8
OBJECT
 10
2083.0
 20
-537.0
 30
0.0
 40
3.0
 50
0.0
 51
90.0
1001
ACDBBLOCKREPETAG
1070
     1
1071
        2
1005
122BE5
  0
LINE
  5
122BE6
  8
OBJECT
 10
2080.0
 20
-658.0
 30
0.0
 11
2083.0
 21
-658.0
 31
0.0
1001
ACDBBLOCKREPETAG
1070
     1
1071
        3
1005
122BE6
  0
ARC
  5
122BE7
  8
OBJECT
 10
2083.0
 20
-655.0
 30
0.0
 40
3.0
 50
270.0
 51
0.0
1001
ACDBBLOCKREPETAG
1070
     1
1071
        4
1005
122BE7
  0
LINE
  5
122BE8
  8
OBJECT
 10
2086.0
 20
-655.0
 30
0.0
 11
2086.0
 21
-537.0
 31
0.0
1001
ACDBBLOCKREPETAG
1070
     1
1071
        5
1005
122BE8
  0
LINE
  5
122BE9
  8
CENTER
 10
2101.0
 20
-199.99999999999909
 30
0.0
 11
2080.0
 21
-199.99999999999909
 31
0.0
1001
ACDBBLOCKREPETAG
1070
     1
1071
        0
1005
122BE9
  0
LINE
  5
122BEA
  8
OBJECT
 10
2083.0
 20
-137.99999999999909
 30
0.0
 11
2080.0
 21
-137.99999999999909
 31
0.0
1001
ACDBBLOCKREPETAG
1070
     1
1071
        1
1005
122BEA
  0
ARC
  5
122BEB
  8
OBJECT
 10
2083.0
 20
-140.99999999999909
 30
0.0
 40
3.0
 50
0.0
 51
90.0
1001
ACDBBLOCKREPETAG
1070
     1
1071
        2
1005
122BEB
  0
LINE
  5
122BEC
  8
OBJECT
 10
2080.0
 20
-261.99999999999909
 30
0.0
 11
2083.0
 21
-261.99999999999909
 31
0.0
1001
ACDBBLOCKREPETAG
1070
     1
1071
        3
1005
122BEC
  0
ARC
  5
122BED
  8
OBJECT
 10
2083.0
 20
-258.99999999999909
 30
0.0
 40
3.0
 50
270.0
 51
0.0
1001
ACDBBLOCKREPETAG
1070
     1
1071
        4
1005
122BED
  0
LINE
  5
122BEE
  8
OBJECT
 10
2086.0
 20
-258.99999999999909
 30
0.0
 11
2086.0
 21
-140.99999999999909
 31
0.0
1001
ACDBBLOCKREPETAG
1070
     1
1071
        5
1005
122BEE
  0
TEXT
  5
122BEF
  8
SLIM
 10
3741.6250000000009
 20
-1532.499999999997
 30
0.0
 40
35.0
  1
片受けスタイル（S）＋シンドカット
 41
0.75
  0
TEXT
  5
122BF0
  8
SLIM
 10
1856.25
 20
-1532.499999999998
 30
0.0
 40
35.0
  1
片受けスタイル（S）
 41
0.75
  0
TEXT
  5
122BF1
  8
SLIM
 10
0.0
 20
369.99999999999989
 30
0.0
 40
100.0
  1
4SR2-0-0-S
 41
0.75
  0
VIEWPORT
  5
F6BA7
 67
     1
  8
0
 10
145.33033752441401
 20
101.8328354358673
 30
0.0
 40
334.0025019414623
 41
222.19657968139651
 68
     1
 69
     1
1001
ACAD
1000
MVIEW
1002
{
1070
    16
1010
0.0
1020
0.0
1030
0.0
1010
0.0
1020
0.0
1030
1.0
1040
0.0
1040
222.19657968139651
1040
145.33033752441401
1040
101.8328354358673
1040
50.0
1040
0.0
1040
0.0
1070
     0
1070
     0
1070
     1
1070
     1
1070
     0
1070
     0
1070
     0
1070
     0
1040
0.0
1040
0.0
1040
0.0
1040
10.0
1040
10.0
1040
10.0
1040
10.0
1070
     0
1002
{
1002
}
1002
}
  0
VIEWPORT
  5
F6BA9
 67
     1
  8
OBJECT
 10
145.3303314447403
 20
101.8328338861465
 30
0.0
 40
232.5285303115844
 41
162.93253421783439
 68
     2
 69
     2
1001
ACAD
1000
MVIEW
1002
{
1070
    16
1010
0.0
1020
0.0
1030
0.0
1010
0.0
1020
0.0
1030
1.0
1040
0.0
1040
25942.55904403147
1040
2377.604457077377
1040
-7591.5176687056619
1040
50.0
1040
0.0
1040
0.0
1070
     0
1070
   600
1070
     1
1070
     1
1070
     0
1070
     0
1070
     0
1070
     0
1040
0.0
1040
0.0
1040
0.0
1040
1.0
1040
1.0
1040
0.0
1040
0.0
1070
     0
1002
{
1002
}
1002
}
  0
ENDSEC
  0
EOF
