  0
SECTION
  2
HEADER
  9
$ACADVER
  1
AC1009
  9
$INSBASE
 10
0.0
 20
0.0
 30
0.0
  9
$EXTMIN
 10
0.0
 20
-3817.4999999999959
 30
0.0
  9
$EXTMAX
 10
5575.0
 20
607.5
 30
0.0
  9
$LIMMIN
 10
0.0
 20
0.0
  9
$LIMMAX
 10
210.0
 20
297.0
  9
$ORTHOMODE
 70
     0
  9
$REGENMODE
 70
     1
  9
$FILLMODE
 70
     1
  9
$QTEXTMODE
 70
     0
  9
$MIRRTEXT
 70
     0
  9
$DRAGMODE
 70
     2
  9
$LTSCALE
 40
1.0
  9
$OSMODE
 70
    37
  9
$ATTMODE
 70
     1
  9
$TEXTSIZE
 40
4.0
  9
$TRACEWID
 40
0.05
  9
$TEXTSTYLE
  7
STANDARD
  9
$CLAYER
  8
OBJECT
  9
$CELTYPE
  6
BYLAYER
  9
$CECOLOR
 62
   256
  9
$DIMSCALE
 40
10.0
  9
$DIMASZ
 40
2.0
  9
$DIMEXO
 40
1.0
  9
$DIMDLI
 40
10.0
  9
$DIMRND
 40
0.0
  9
$DIMDLE
 40
0.0
  9
$DIMEXE
 40
1.0
  9
$DIMTP
 40
0.0
  9
$DIMTM
 40
0.0
  9
$DIMTXT
 40
3.2000000000000002
  9
$DIMCEN
 40
0.0
  9
$DIMTSZ
 40
0.0
  9
$DIMTOL
 70
     0
  9
$DIMLIM
 70
     0
  9
$DIMTIH
 70
     0
  9
$DIMTOH
 70
     0
  9
$DIMSE1
 70
     0
  9
$DIMSE2
 70
     0
  9
$DIMTAD
 70
     1
  9
$DIMZIN
 70
     8
  9
$DIMBLK
  1
OPEN30
  9
$DIMASO
 70
     1
  9
$DIMSHO
 70
     1
  9
$DIMPOST
  1

  9
$DIMAPOST
  1

  9
$DIMALT
 70
     0
  9
$DIMALTD
 70
     2
  9
$DIMALTF
 40
25.399999999999999
  9
$DIMLFAC
 40
1.0
  9
$DIMTOFL
 70
     1
  9
$DIMTVP
 40
0.0
  9
$DIMTIX
 70
     0
  9
$DIMSOXD
 70
     0
  9
$DIMSAH
 70
     0
  9
$DIMBLK1
  1

  9
$DIMBLK2
  1

  9
$DIMSTYLE
  2
S10
  9
$DIMCLRD
 70
   256
  9
$DIMCLRE
 70
   256
  9
$DIMCLRT
 70
   256
  9
$DIMTFAC
 40
1.0
  9
$DIMGAP
 40
0.9
  9
$LUNITS
 70
     2
  9
$LUPREC
 70
     2
  9
$SKETCHINC
 40
0.1
  9
$FILLETRAD
 40
0.0
  9
$AUNITS
 70
     0
  9
$AUPREC
 70
     2
  9
$MENU
  1
ACAD
  9
$ELEVATION
 40
0.0
  9
$PELEVATION
 40
0.0
  9
$THICKNESS
 40
0.0
  9
$LIMCHECK
 70
     0
  9
$BLIPMODE
 70
     0
  9
$CHAMFERA
 40
2.0
  9
$CHAMFERB
 40
2.0
  9
$SKPOLY
 70
     0
  9
$TDCREATE
 40
2453095.4929404748
  9
$TDUPDATE
 40
2457604.6363614229
  9
$TDINDWG
 40
18.376264293999999
  9
$TDUSRTIMER
 40
18.376263530100001
  9
$USRTIMER
 70
     1
  9
$ANGBASE
 50
0.0
  9
$ANGDIR
 70
     0
  9
$PDMODE
 70
    35
  9
$PDSIZE
 40
2.0
  9
$PLINEWID
 40
0.0
  9
$COORDS
 70
     1
  9
$SPLFRAME
 70
     0
  9
$SPLINETYPE
 70
     6
  9
$SPLINESEGS
 70
     8
  9
$ATTDIA
 70
     0
  9
$ATTREQ
 70
     1
  9
$HANDLING
 70
     1
  9
$HANDSEED
  5
12D6CB
  9
$SURFTAB1
 70
     6
  9
$SURFTAB2
 70
     6
  9
$SURFTYPE
 70
     6
  9
$SURFU
 70
     6
  9
$SURFV
 70
     6
  9
$UCSNAME
  2

  9
$UCSORG
 10
0.0
 20
0.0
 30
0.0
  9
$UCSXDIR
 10
1.0
 20
0.0
 30
0.0
  9
$UCSYDIR
 10
0.0
 20
1.0
 30
0.0
  9
$PUCSNAME
  2

  9
$PUCSORG
 10
0.0
 20
0.0
 30
0.0
  9
$PUCSXDIR
 10
1.0
 20
0.0
 30
0.0
  9
$PUCSYDIR
 10
0.0
 20
1.0
 30
0.0
  9
$USERI1
 70
     0
  9
$USERI2
 70
     0
  9
$USERI3
 70
     0
  9
$USERI4
 70
     0
  9
$USERI5
 70
     0
  9
$USERR1
 40
0.0
  9
$USERR2
 40
0.0
  9
$USERR3
 40
0.0
  9
$USERR4
 40
0.0
  9
$USERR5
 40
0.0
  9
$WORLDVIEW
 70
     1
  9
$SHADEDGE
 70
     3
  9
$SHADEDIF
 70
    70
  9
$TILEMODE
 70
     1
  9
$MAXACTVP
 70
    64
  9
$PLIMCHECK
 70
     0
  9
$PEXTMIN
 10
29.066066288948051
 20
20.366566777229309
 30
0.0
  9
$PEXTMAX
 10
261.5945966005325
 20
183.29910099506381
 30
0.0
  9
$PLIMMIN
 10
-3.17498779296875
 20
-3.1749999523162842
  9
$PLIMMAX
 10
293.83566284179687
 20
206.8406708240509
  9
$UNITMODE
 70
     0
  9
$VISRETAIN
 70
     1
  9
$PLINEGEN
 70
     0
  9
$PSLTSCALE
 70
     1
  0
ENDSEC
  0
SECTION
  2
TABLES
  0
TABLE
  2
VPORT
 70
     1
  0
VPORT
  2
*ACTIVE
 70
     0
 10
0.0
 20
0.0
 11
1.0
 21
1.0
 12
3736.1755395470768
 22
52.002691146029967
 13
0.0
 23
0.0
 14
1.0
 24
1.0
 15
0.0
 25
0.0
 16
0.0
 26
0.0
 36
1.0
 17
0.0
 27
0.0
 37
0.0
 40
5138.557216720209
 41
1.6494178525226391
 42
50.0
 43
0.0
 44
0.0
 50
0.0
 51
0.0
 71
     0
 72
   600
 73
     1
 74
     1
 75
     0
 76
     0
 77
     0
 78
     0
  0
ENDTAB
  0
TABLE
  2
LTYPE
 70
     4
  0
LTYPE
  2
CONTINUOUS
 70
     0
  3
Solid line
 72
    65
 73
     0
 40
0.0
  0
LTYPE
  2
PHANTOM2
 70
     0
  3
___ _ _ ___ _ _ ___ _ _ ___ _ _
 72
    65
 73
     6
 40
1.25
 49
0.625
 49
-0.125
 49
0.125
 49
-0.125
 49
0.125
 49
-0.125
  0
LTYPE
  2
ACAD_ISO08W100
 70
     0
  3
ISO long-dash short-dash ____ __ ____ __ ____ _
 72
    65
 73
     4
 40
36.0
 49
24.0
 49
-3.0
 49
6.0
 49
-3.0
  0
LTYPE
  2
ACAD_ISO02W100
 70
     0
  3
ISO dash __ __ __ __ __ __ __ __ __ __ __ __ __
 72
    65
 73
     2
 40
15.0
 49
12.0
 49
-3.0
  0
ENDTAB
  0
TABLE
  2
LAYER
 70
     8
  0
LAYER
  2
0
 70
     0
 62
     7
  6
CONTINUOUS
  0
LAYER
  2
OBJECT
 70
     0
 62
     4
  6
CONTINUOUS
  0
LAYER
  2
DEFPOINTS
 70
     0
 62
     7
  6
CONTINUOUS
  0
LAYER
  2
DIM
 70
     0
 62
     7
  6
CONTINUOUS
  0
LAYER
  2
HIDDEN
 70
     0
 62
     2
  6
ACAD_ISO02W100
  0
LAYER
  2
CENTER
 70
     0
 62
     2
  6
ACAD_ISO08W100
  0
LAYER
  2
DOTS
 70
     0
 62
     1
  6
CONTINUOUS
  0
LAYER
  2
SLIM
 70
     0
 62
     2
  6
CONTINUOUS
  0
ENDTAB
  0
TABLE
  2
STYLE
 70
     2
  0
STYLE
  2
STANDARD
 70
     0
 40
0.0
 41
0.75
 50
0.0
 71
     0
 42
4.0
  3
simplex.shx
  4
bigfont.shx
  0
ENDTAB
  0
TABLE
  2
VIEW
 70
     0
  0
ENDTAB
  0
TABLE
  2
UCS
 70
     0
  0
ENDTAB
  0
TABLE
  2
APPID
 70
    18
  0
APPID
  2
ACAD
 70
     0
  0
APPID
  2
ACADANNOTATIVE
 70
     0
  0
APPID
  2
ACAD_PSEXT
 70
     0
  0
APPID
  2
ACAD_EXEMPT_FROM_CAD_STANDARDS
 70
     0
  0
APPID
  2
ACAECLAYERSTANDARD
 70
     0
  0
APPID
  2
ACAUTHENVIRON
 70
     0
  0
APPID
  2
ACDBDYNAMICBLOCKTRUENAME
 70
     0
  0
APPID
  2
ACDBDYNAMICBLOCKGUID
 70
     0
  0
APPID
  2
ACDBBLOCKREPETAG
 70
     0
  0
APPID
  2
ACDBBLOCKREPBTAG
 70
     0
  0
APPID
  2
ACAD_NAV_VCDISPLAY
 70
     0
  0
APPID
  2
ACAD_DSTYLE_DIMRADIAL_EXTENSION
 70
     0
  0
APPID
  2
ACAD_DSTYLE_DIMJAG
 70
     0
  0
APPID
  2
ACAD_DSTYLE_DIMTALN
 70
     0
  0
APPID
  2
ACADANNOPO
 70
     0
  0
APPID
  2
GRADIENTCOLOR1ACI
 70
     0
  0
APPID
  2
GRADIENTCOLOR2ACI
 70
     0
  0
APPID
  2
ACAD_MLEADERVER
 70
     0
  0
ENDTAB
  0
TABLE
  2
DIMSTYLE
 70
     3
  0
DIMSTYLE
  2
STANDARD
 70
     0
  3

  4

  5

  6

  7

 40
1.0
 41
0.18
 42
0.0625
 43
0.38
 44
0.18
 45
0.0
 46
0.0
 47
0.0
 48
0.0
140
0.18
141
0.09
142
0.0
143
25.399999999999999
144
1.0
145
0.0
146
1.0
147
0.09
 71
     0
 72
     0
 73
     1
 74
     1
 75
     0
 76
     0
 77
     0
 78
     0
170
     0
171
     2
172
     0
173
     0
174
     0
175
     0
176
     0
177
     0
178
     0
  0
DIMSTYLE
  2
S10
 70
     0
  3

  4

  5

  6

  7

 40
10.0
 41
2.0
 42
1.0
 43
10.0
 44
1.0
 45
0.0
 46
0.0
 47
0.0
 48
0.0
140
3.2000000000000002
141
0.0
142
0.0
143
25.399999999999999
144
1.0
145
0.0
146
1.0
147
0.9
 71
     0
 72
     0
 73
     0
 74
     0
 75
     0
 76
     0
 77
     1
 78
     8
170
     0
171
     2
172
     1
173
     0
174
     0
175
     0
176
   256
177
   256
178
   256
  0
ENDTAB
  0
ENDSEC
  0
SECTION
  2
BLOCKS
  0
BLOCK
  8
0
  2
$MODEL_SPACE
 70
     0
 10
0.0
 20
0.0
 30
0.0
  3
$MODEL_SPACE
  1

  0
ENDBLK
  5
12D5DF
  8
0
  0
BLOCK
 67
     1
  8
0
  2
$PAPER_SPACE
 70
     0
 10
0.0
 20
0.0
 30
0.0
  3
$PAPER_SPACE
  1

  0
ENDBLK
  5
12D5DB
 67
     1
  8
0
  0
BLOCK
  8
0
  2
_OPEN30
 70
     0
 10
0.0
 20
0.0
 30
0.0
  3
_OPEN30
  1

  0
LINE
  5
202
  8
0
  6
BYBLOCK
 62
     0
 10
-1.0
 20
0.26794919
 30
0.0
 11
0.0
 21
0.0
 31
0.0
  0
LINE
  5
203
  8
0
  6
BYBLOCK
 62
     0
 10
0.0
 20
0.0
 30
0.0
 11
-1.0
 21
-0.26794919
 31
0.0
  0
LINE
  5
204
  8
0
  6
BYBLOCK
 62
     0
 10
0.0
 20
0.0
 30
0.0
 11
-1.0
 21
0.0
 31
0.0
  0
ENDBLK
  5
206
  8
0
  0
BLOCK
  8
0
  2
*U5
 70
     1
 10
0.0
 20
0.0
 30
0.0
  3
*U5
  1

  0
TEXT
  5
12D4DD
  8
DIM
 10
3840.6616440113212
 20
-1062.7428571428561
 30
0.0
 40
32.0
  1
m（シンドカット）
 50
90.0
 41
0.75
  0
ENDBLK
  5
12D4DF
  8
0
  0
BLOCK
  8
0
  2
*U6
 70
     1
 10
0.0
 20
0.0
 30
0.0
  3
*U6
  1

  0
TEXT
  5
12D513
  8
SLIM
 10
505.04761904610911
 20
-2187.2499999970728
 30
0.0
 40
26.0
  1
100
  0
ENDBLK
  5
12D515
  8
0
  0
BLOCK
  8
0
  2
*U7
 70
     1
 10
0.0
 20
0.0
 30
0.0
  3
*U7
  1

  0
TEXT
  5
12D517
  8
SLIM
 10
505.04761904610911
 20
-1942.749999997073
 30
0.0
 40
26.0
  1
100
  0
ENDBLK
  5
12D519
  8
0
  0
BLOCK
  8
0
  2
*U8
 70
     1
 10
0.0
 20
0.0
 30
0.0
  3
*U8
  1

  0
TEXT
  5
12D51B
  8
SLIM
 10
145.04761904623109
 20
-2187.2499999970728
 30
0.0
 40
26.0
  1
100
  0
ENDBLK
  5
12D51D
  8
0
  0
BLOCK
  8
0
  2
*U9
 70
     1
 10
0.0
 20
0.0
 30
0.0
  3
*U9
  1

  0
TEXT
  5
12D51F
  8
SLIM
 10
154.9523809509931
 20
-1949.999999997073
 30
0.0
 40
26.0
  1
75
  0
ENDBLK
  5
12D521
  8
0
  0
BLOCK
  8
0
  2
*U10
 70
     1
 10
0.0
 20
0.0
 30
0.0
  3
*U10
  1

  0
TEXT
  5
12D523
  8
SLIM
 10
514.95238095087109
 20
-1715.999999997231
 30
0.0
 40
26.0
  1
75
  0
ENDBLK
  5
12D525
  8
0
  0
BLOCK
  8
0
  2
*U11
 70
     1
 10
0.0
 20
0.0
 30
0.0
  3
*U11
  1

  0
TEXT
  5
12D527
  8
SLIM
 10
514.95238095087109
 20
-1485.999999997231
 30
0.0
 40
26.0
  1
75
  0
ENDBLK
  5
12D529
  8
0
  0
BLOCK
  8
0
  2
*U12
 70
     1
 10
0.0
 20
0.0
 30
0.0
  3
*U12
  1

  0
TEXT
  5
12D52B
  8
SLIM
 10
145.04761904623109
 20
-1723.249999997231
 30
0.0
 40
26.0
  1
100
  0
ENDBLK
  5
12D52D
  8
0
  0
BLOCK
  8
0
  2
*U13
 70
     1
 10
0.0
 20
0.0
 30
0.0
  3
*U13
  1

  0
TEXT
  5
12D52F
  8
SLIM
 10
154.9523809509931
 20
-1485.999999997231
 30
0.0
 40
26.0
  1
65
  0
ENDBLK
  5
12D531
  8
0
  0
BLOCK
  8
0
  2
*U14
 70
     1
 10
0.0
 20
0.0
 30
0.0
  3
*U14
  1

  0
TEXT
  5
12D533
  8
SLIM
 10
514.95238095087109
 20
-1251.99999999739
 30
0.0
 40
26.0
  1
75
  0
ENDBLK
  5
12D535
  8
0
  0
BLOCK
  8
0
  2
*U15
 70
     1
 10
0.0
 20
0.0
 30
0.0
  3
*U15
  1

  0
TEXT
  5
12D537
  8
SLIM
 10
514.95238095087109
 20
-1021.999999997389
 30
0.0
 40
26.0
  1
65
  0
ENDBLK
  5
12D539
  8
0
  0
BLOCK
  8
0
  2
*U16
 70
     1
 10
0.0
 20
0.0
 30
0.0
  3
*U16
  1

  0
TEXT
  5
12D53B
  8
SLIM
 10
154.9523809509929
 20
-1251.99999999739
 30
0.0
 40
26.0
  1
65
  0
ENDBLK
  5
12D53D
  8
0
  0
BLOCK
  8
0
  2
*U17
 70
     1
 10
0.0
 20
0.0
 30
0.0
  3
*U17
  1

  0
TEXT
  5
12D53F
  8
SLIM
 10
154.9523809509929
 20
-1021.999999997389
 30
0.0
 40
26.0
  1
65
  0
ENDBLK
  5
12D541
  8
0
  0
BLOCK
  8
0
  2
*U18
 70
     1
 10
0.0
 20
0.0
 30
0.0
  3
*U18
  1

  0
TEXT
  5
12D543
  8
SLIM
 10
505.04761904610911
 20
-795.24999999754812
 30
0.0
 40
26.0
  1
100
  0
ENDBLK
  5
12D545
  8
0
  0
BLOCK
  8
0
  2
*U19
 70
     1
 10
0.0
 20
0.0
 30
0.0
  3
*U19
  1

  0
TEXT
  5
12D547
  8
SLIM
 10
514.95238095087109
 20
-557.999999997548
 30
0.0
 40
26.0
  1
50
  0
ENDBLK
  5
12D549
  8
0
  0
BLOCK
  8
0
  2
*U20
 70
     1
 10
0.0
 20
0.0
 30
0.0
  3
*U20
  1

  0
TEXT
  5
12D54B
  8
SLIM
 10
154.95238095099299
 20
-787.99999999754812
 30
0.0
 40
26.0
  1
75
  0
ENDBLK
  5
12D54D
  8
0
  0
BLOCK
  8
0
  2
*U21
 70
     1
 10
0.0
 20
0.0
 30
0.0
  3
*U21
  1

  0
TEXT
  5
12D54F
  8
SLIM
 10
154.95238095099299
 20
-557.999999997548
 30
0.0
 40
26.0
  1
50
  0
ENDBLK
  5
12D551
  8
0
  0
BLOCK
  8
0
  2
*U22
 70
     1
 10
0.0
 20
0.0
 30
0.0
  3
*U22
  1

  0
TEXT
  5
12D553
  8
SLIM
 10
514.95238095087109
 20
-323.99999999770631
 30
0.0
 40
26.0
  1
65
  0
ENDBLK
  5
12D555
  8
0
  0
BLOCK
  8
0
  2
*U23
 70
     1
 10
0.0
 20
0.0
 30
0.0
  3
*U23
  1

  0
TEXT
  5
12D557
  8
SLIM
 10
514.95238095087109
 20
-93.99999999770624
 30
0.0
 40
26.0
  1
50
  0
ENDBLK
  5
12D559
  8
0
  0
BLOCK
  8
0
  2
*U24
 70
     1
 10
0.0
 20
0.0
 30
0.0
  3
*U24
  1

  0
TEXT
  5
12D55B
  8
SLIM
 10
154.9523809509931
 20
-323.99999999770631
 30
0.0
 40
26.0
  1
50
  0
ENDBLK
  5
12D55D
  8
0
  0
BLOCK
  8
0
  2
*U25
 70
     1
 10
0.0
 20
0.0
 30
0.0
  3
*U25
  1

  0
TEXT
  5
12D55F
  8
SLIM
 10
154.9523809509931
 20
-93.99999999770624
 30
0.0
 40
26.0
  1
50
  0
ENDBLK
  5
12D561
  8
0
  0
BLOCK
  8
0
  2
*U26
 70
     1
 10
0.0
 20
0.0
 30
0.0
  3
*U26
  1

  0
TEXT
  5
12D563
  8
DIM
 10
2209.479620594459
 20
-3304.1428571428528
 30
0.0
 40
32.0
  1
A
 50
90.0
 41
0.75
  0
ENDBLK
  5
12D565
  8
0
  0
BLOCK
  8
0
  2
*U27
 70
     1
 10
0.0
 20
0.0
 30
0.0
  3
*U27
  1

  0
TEXT
  5
12D567
  8
DIM
 10
2207.8409284037348
 20
-3685.9999999999959
 30
0.0
 40
32.0
  1
B
 50
90.0
 41
0.75
  0
ENDBLK
  5
12D569
  8
0
  0
BLOCK
  8
0
  2
*U28
 70
     1
 10
0.0
 20
0.0
 30
0.0
  3
*U28
  1

  0
TEXT
  5
12D56B
  8
DIM
 10
2061.428571428572
 20
-3158.208121984444
 30
0.0
 40
32.0
  1
C
 41
0.75
  0
ENDBLK
  5
12D56D
  8
0
  0
ENDSEC
  0
SECTION
  2
ENTITIES
  0
LINE
  5
12515F
  8
OBJECT
 10
1825.0
 20
-3699.9999999999959
 30
0.0
 11
5575.0
 21
-3699.9999999999959
 31
0.0
  0
LINE
  5
125161
  8
SLIM
 10
2616.0
 20
-2757.50001604727
 30
0.0
 11
2616.0
 21
-3087.50001604727
 31
0.0
  0
LINE
  5
125162
  8
SLIM
 10
2740.0
 20
-2757.50001604727
 30
0.0
 11
2740.0
 21
-3087.50001604727
 31
0.0
  0
LINE
  5
125163
  8
SLIM
 10
2870.0
 20
-2817.50001604727
 30
0.0
 11
2870.0
 21
-3087.50001604727
 31
0.0
  0
LINE
  5
125164
  8
SLIM
 10
3000.0
 20
-2817.50001604727
 30
0.0
 11
3000.0
 21
-3087.50001604727
 31
0.0
  0
LINE
  5
125165
  8
SLIM
 10
3130.0
 20
-3087.50001604727
 30
0.0
 11
3130.0
 21
-2817.50001604727
 31
0.0
  0
LINE
  5
125166
  8
SLIM
 10
3260.0
 20
-3087.50001604727
 30
0.0
 11
3260.0
 21
-2757.50001604727
 31
0.0
  0
LINE
  5
125167
  8
SLIM
 10
3260.0
 20
-2757.50001604727
 30
0.0
 11
2616.0
 21
-2757.50001604727
 31
0.0
  0
LINE
  5
125168
  8
SLIM
 10
3260.0
 20
-2817.50001604727
 30
0.0
 11
2740.0
 21
-2817.50001604727
 31
0.0
  0
LINE
  5
125169
  8
SLIM
 10
3260.0
 20
-2877.50001604727
 30
0.0
 11
2616.0
 21
-2877.50001604727
 31
0.0
  0
LINE
  5
12516A
  8
SLIM
 10
3260.0
 20
-2947.50001604727
 30
0.0
 11
2616.0
 21
-2947.50001604727
 31
0.0
  0
LINE
  5
12516B
  8
SLIM
 10
3260.0
 20
-3017.50001604727
 30
0.0
 11
2616.0
 21
-3017.50001604727
 31
0.0
  0
LINE
  5
12516C
  8
SLIM
 10
3260.0
 20
-3087.50001604727
 30
0.0
 11
2616.0
 21
-3087.50001604727
 31
0.0
  0
LINE
  5
125181
  8
SLIM
 10
2740.0
 20
-2877.50001604727
 30
0.0
 11
2615.9999722746579
 21
-2757.5
 31
0.0
  0
LINE
  5
1251B6
  8
OBJECT
 10
5323.0
 20
-3515.9999999999968
 30
0.0
 11
5323.0
 21
-3494.9999999999968
 31
0.0
1001
ACDBBLOCKREPETAG
1070
     1
1071
       20
1005
1251B6
  0
LINE
  5
1251B7
  8
OBJECT
 10
5323.0
 20
-3494.9999999999968
 30
0.0
 11
5477.0
 21
-3494.9999999999968
 31
0.0
1001
ACDBBLOCKREPETAG
1070
     1
1071
       21
1005
1251B7
  0
LINE
  5
1251B8
  8
HIDDEN
 10
5343.0
 20
-3564.9999999999968
 30
0.0
 11
5457.0
 21
-3564.9999999999968
 31
0.0
1001
ACDBBLOCKREPETAG
1070
     1
1071
       22
1005
1251B8
  0
LINE
  5
1251B9
  8
OBJECT
 10
5477.0
 20
-3494.9999999999968
 30
0.0
 11
5477.0
 21
-3515.9999999999968
 31
0.0
1001
ACDBBLOCKREPETAG
1070
     1
1071
       23
1005
1251B9
  0
LINE
  5
1251BA
  8
OBJECT
 10
5477.0
 20
-3515.9999999999968
 30
0.0
 11
5323.0
 21
-3515.9999999999968
 31
0.0
1001
ACDBBLOCKREPETAG
1070
     1
1071
       24
1005
1251BA
  0
LINE
  5
1251BB
  8
CENTER
 10
5400.0
 20
-3479.9999999999968
 30
0.0
 11
5400.0
 21
-3714.9999999999968
 31
0.0
1001
ACDBBLOCKREPETAG
1070
     1
1071
       25
1005
1251BB
  0
LINE
  5
1251BC
  8
OBJECT
 10
5325.0
 20
-3578.9999999999968
 30
0.0
 11
5325.0
 21
-3702.9999999999968
 31
0.0
1001
ACDBBLOCKREPETAG
1070
     1
1071
       26
1005
1251BC
  0
LINE
  5
1251BD
  8
OBJECT
 10
5328.0
 20
-3515.9999999999968
 30
0.0
 11
5328.0
 21
-3578.9999999999968
 31
0.0
1001
ACDBBLOCKREPETAG
1070
     1
1071
       27
1005
1251BD
  0
LINE
  5
1251BE
  8
OBJECT
 10
5472.0
 20
-3578.9999999999968
 30
0.0
 11
5472.0
 21
-3515.9999999999968
 31
0.0
1001
ACDBBLOCKREPETAG
1070
     1
1071
       28
1005
1251BE
  0
LINE
  5
1251BF
  8
OBJECT
 10
5475.0
 20
-3578.9999999999968
 30
0.0
 11
5456.7802782663139
 21
-3578.9999999999968
 31
0.0
1001
ACDBBLOCKREPETAG
1070
     1
1071
       30
1005
1251BF
  0
LINE
  5
1251C0
  8
OBJECT
 10
5475.0
 20
-3578.9999999999968
 30
0.0
 11
5475.0
 21
-3702.9999999999968
 31
0.0
1001
ACDBBLOCKREPETAG
1070
     1
1071
       34
1005
1251C0
  0
POINT
  5
1251C1
  8
DOTS
 10
5400.0
 20
-3699.9999999999968
 30
0.0
1001
ACDBBLOCKREPETAG
1070
     1
1071
      187
1005
1251C1
  0
LINE
  5
1251C2
  8
CENTER
 10
5310.0
 20
-3627.9999999999968
 30
0.0
 11
5490.0
 21
-3627.9999999999968
 31
0.0
1001
ACDBBLOCKREPETAG
1070
     1
1071
       23
1005
1251C2
  0
CIRCLE
  5
1251C3
  8
OBJECT
 10
5400.0
 20
-3627.9999999999968
 30
0.0
 40
53.5
1001
ACDBBLOCKREPETAG
1070
     1
1071
       24
1005
1251C3
  0
CIRCLE
  5
1251C4
  8
OBJECT
 10
5400.0
 20
-3627.9999999999968
 30
0.0
 40
67.0
1001
ACDBBLOCKREPETAG
1070
     1
1071
       25
1005
1251C4
  0
ARC
  5
1251C5
  8
OBJECT
 10
5400.0
 20
-3627.9999999999968
 30
0.0
 40
75.0
 50
286.26020470824369
 51
253.73979529175631
1001
ACDBBLOCKREPETAG
1070
     1
1071
       27
1005
1251C5
  0
LINE
  5
1251C6
  8
OBJECT
 10
5379.0
 20
-3699.9999999999968
 30
0.0
 11
5421.0
 21
-3699.9999999999968
 31
0.0
1001
ACDBBLOCKREPETAG
1070
     1
1071
       28
1005
1251C6
  0
LINE
  5
1251C7
  8
OBJECT
 10
5343.2197217336861
 20
-3578.9999999999968
 30
0.0
 11
5325.0
 21
-3578.9999999999968
 31
0.0
1001
ACDBBLOCKREPETAG
1070
     1
1071
       30
1005
1251BF
  0
TEXT
  5
12AED7
  8
SLIM
 10
-0.0000000000000011
 20
282.5
 30
0.0
 40
35.0
  1
※ 100枝（4）がある場合、品名の最後に【管底】が付きます。
 41
0.9
 11
0.0
 21
300.0
 31
0.0
 73
     2
  0
LINE
  5
12CEA4
  8
SLIM
 10
4350.0
 20
-644.99999999999591
 30
0.0
 11
4350.0
 21
-1364.9999999999959
 31
0.0
  0
LINE
  5
12CEA5
  8
SLIM
 10
4454.0
 20
-1364.9999999999959
 30
0.0
 11
4454.0
 21
-644.99999999999591
 31
0.0
  0
LINE
  5
12CEA6
  8
SLIM
 10
4602.0
 20
-644.99999999999591
 30
0.0
 11
4350.0
 21
-644.99999999999591
 31
0.0
  0
LINE
  5
12CEA7
  8
SLIM
 10
4602.0
 20
-692.99999999999568
 30
0.0
 11
4350.0
 21
-692.99999999999568
 31
0.0
  0
LINE
  5
12CEA9
  8
SLIM
 10
4602.0
 20
-740.99999999999591
 30
0.0
 11
4350.0
 21
-740.99999999999591
 31
0.0
  0
LINE
  5
12CEAA
  8
SLIM
 10
4602.0
 20
-788.99999999999579
 30
0.0
 11
4350.0
 21
-788.99999999999579
 31
0.0
  0
LINE
  5
12CEAB
  8
SLIM
 10
4602.0
 20
-836.99999999999579
 30
0.0
 11
4350.0
 21
-836.99999999999579
 31
0.0
  0
LINE
  5
12CEAF
  8
SLIM
 10
4602.0
 20
-884.99999999999579
 30
0.0
 11
4350.0
 21
-884.99999999999579
 31
0.0
  0
LINE
  5
12CEB1
  8
SLIM
 10
4602.0
 20
-932.99999999999602
 30
0.0
 11
4350.0
 21
-932.99999999999602
 31
0.0
  0
LINE
  5
12CEB3
  8
SLIM
 10
4602.0
 20
-980.99999999999591
 30
0.0
 11
4350.0
 21
-980.99999999999591
 31
0.0
  0
LINE
  5
12CEB5
  8
SLIM
 10
4602.0
 20
-1028.9999999999959
 30
0.0
 11
4350.0
 21
-1028.9999999999959
 31
0.0
  0
LINE
  5
12CEB7
  8
SLIM
 10
4602.0
 20
-1076.9999999999959
 30
0.0
 11
4350.0
 21
-1076.9999999999959
 31
0.0
  0
LINE
  5
12CEB9
  8
SLIM
 10
4602.0
 20
-1124.9999999999959
 30
0.0
 11
4350.0
 21
-1124.9999999999959
 31
0.0
  0
LINE
  5
12CEBB
  8
SLIM
 10
4602.0
 20
-1172.9999999999959
 30
0.0
 11
4350.0
 21
-1172.9999999999959
 31
0.0
  0
LINE
  5
12CEBD
  8
SLIM
 10
4602.0
 20
-1220.9999999999959
 30
0.0
 11
4350.0
 21
-1220.9999999999959
 31
0.0
  0
LINE
  5
12CEBF
  8
SLIM
 10
4602.0
 20
-1268.9999999999959
 30
0.0
 11
4350.0
 21
-1268.9999999999959
 31
0.0
  0
LINE
  5
12CEC1
  8
SLIM
 10
4602.0
 20
-1316.9999999999959
 30
0.0
 11
4350.0
 21
-1316.9999999999959
 31
0.0
  0
LINE
  5
12CEC3
  8
SLIM
 10
4602.0
 20
-1364.9999999999959
 30
0.0
 11
4350.0
 21
-1364.9999999999959
 31
0.0
  0
LINE
  5
12CEC6
  8
SLIM
 10
4602.0
 20
-644.99999999999591
 30
0.0
 11
4602.0
 21
-1364.9999999999959
 31
0.0
  0
LINE
  5
12CF6B
  8
SLIM
 10
3914.9999999999941
 20
-765.19743878931502
 30
0.0
 11
3925.1974387893092
 21
-754.99999999999955
 31
0.0
1001
GRADIENTCOLOR1ACI
1070
     5
1001
GRADIENTCOLOR2ACI
1070
     2
1001
ACAD
1010
0.0
1020
0.0
1030
0.0
  0
LINE
  5
12CF6C
  8
SLIM
 10
3914.9999999999941
 20
-783.15795103145319
 30
0.0
 11
3943.1579510314468
 21
-754.99999999999955
 31
0.0
1001
GRADIENTCOLOR1ACI
1070
     5
1001
GRADIENTCOLOR2ACI
1070
     2
1001
ACAD
1010
0.0
1020
0.0
1030
0.0
  0
LINE
  5
12CF6D
  8
SLIM
 10
3914.9999999999941
 20
-801.11846327359126
 30
0.0
 11
3961.1184632735849
 21
-754.99999999999955
 31
0.0
1001
GRADIENTCOLOR1ACI
1070
     5
1001
GRADIENTCOLOR2ACI
1070
     2
1001
ACAD
1010
0.0
1020
0.0
1030
0.0
  0
LINE
  5
12CF6E
  8
SLIM
 10
3914.9999999999941
 20
-819.07897551572955
 30
0.0
 11
3979.0789755157239
 21
-754.99999999999955
 31
0.0
1001
GRADIENTCOLOR1ACI
1070
     5
1001
GRADIENTCOLOR2ACI
1070
     2
1001
ACAD
1010
0.0
1020
0.0
1030
0.0
  0
LINE
  5
12CF6F
  8
SLIM
 10
3914.9999999999941
 20
-837.03948775786728
 30
0.0
 11
3997.0394877578619
 21
-754.99999999999955
 31
0.0
1001
GRADIENTCOLOR1ACI
1070
     5
1001
GRADIENTCOLOR2ACI
1070
     2
1001
ACAD
1010
0.0
1020
0.0
1030
0.0
  0
LINE
  5
12CF70
  8
SLIM
 10
3914.9999999999941
 20
-855.00000000000568
 30
0.0
 11
4015.0
 21
-754.99999999999955
 31
0.0
1001
GRADIENTCOLOR1ACI
1070
     5
1001
GRADIENTCOLOR2ACI
1070
     2
1001
ACAD
1010
0.0
1020
0.0
1030
0.0
  0
LINE
  5
12CF71
  8
SLIM
 10
3914.9999999999941
 20
-872.96051224214352
 30
0.0
 11
4032.9605122421372
 21
-754.99999999999955
 31
0.0
1001
GRADIENTCOLOR1ACI
1070
     5
1001
GRADIENTCOLOR2ACI
1070
     2
1001
ACAD
1010
0.0
1020
0.0
1030
0.0
  0
LINE
  5
12CF72
  8
SLIM
 10
3914.9999999999941
 20
-890.92102448428193
 30
0.0
 11
4050.921024484277
 21
-754.99999999999955
 31
0.0
1001
GRADIENTCOLOR1ACI
1070
     5
1001
GRADIENTCOLOR2ACI
1070
     2
1001
ACAD
1010
0.0
1020
0.0
1030
0.0
  0
LINE
  5
12CF73
  8
SLIM
 10
3914.999999999995
 20
-908.88153672641988
 30
0.0
 11
4068.8815367264142
 21
-754.99999999999955
 31
0.0
1001
GRADIENTCOLOR1ACI
1070
     5
1001
GRADIENTCOLOR2ACI
1070
     2
1001
ACAD
1010
0.0
1020
0.0
1030
0.0
  0
LINE
  5
12CF74
  8
SLIM
 10
3914.999999999995
 20
-926.84204896855806
 30
0.0
 11
4085.0000000000068
 21
-756.84204896854555
 31
0.0
1001
GRADIENTCOLOR1ACI
1070
     5
1001
GRADIENTCOLOR2ACI
1070
     2
1001
ACAD
1010
0.0
1020
0.0
1030
0.0
  0
LINE
  5
12CF75
  8
SLIM
 10
3914.999999999995
 20
-944.80256121069579
 30
0.0
 11
4085.0000000000068
 21
-774.80256121068385
 31
0.0
1001
GRADIENTCOLOR1ACI
1070
     5
1001
GRADIENTCOLOR2ACI
1070
     2
1001
ACAD
1010
0.0
1020
0.0
1030
0.0
  0
LINE
  5
12CF76
  8
SLIM
 10
3914.999999999995
 20
-962.76307345283431
 30
0.0
 11
4085.0000000000068
 21
-792.76307345282225
 31
0.0
1001
GRADIENTCOLOR1ACI
1070
     5
1001
GRADIENTCOLOR2ACI
1070
     2
1001
ACAD
1010
0.0
1020
0.0
1030
0.0
  0
LINE
  5
12CF77
  8
SLIM
 10
3914.999999999995
 20
-980.72358569497203
 30
0.0
 11
4085.0000000000068
 21
-810.72358569496112
 31
0.0
1001
GRADIENTCOLOR1ACI
1070
     5
1001
GRADIENTCOLOR2ACI
1070
     2
1001
ACAD
1010
0.0
1020
0.0
1030
0.0
  0
LINE
  5
12CF78
  8
SLIM
 10
3914.999999999995
 20
-998.68409793711044
 30
0.0
 11
4085.0000000000068
 21
-828.68409793709918
 31
0.0
1001
GRADIENTCOLOR1ACI
1070
     5
1001
GRADIENTCOLOR2ACI
1070
     2
1001
ACAD
1010
0.0
1020
0.0
1030
0.0
  0
LINE
  5
12CF79
  8
SLIM
 10
3914.999999999995
 20
-1016.644610179248
 30
0.0
 11
4085.0000000000068
 21
-846.64461017923804
 31
0.0
1001
GRADIENTCOLOR1ACI
1070
     5
1001
GRADIENTCOLOR2ACI
1070
     2
1001
ACAD
1010
0.0
1020
0.0
1030
0.0
  0
LINE
  5
12CF7A
  8
SLIM
 10
3914.9999999999968
 20
-1034.605122421387
 30
0.0
 11
4085.0000000000059
 21
-864.60512242137634
 31
0.0
1001
GRADIENTCOLOR1ACI
1070
     5
1001
GRADIENTCOLOR2ACI
1070
     2
1001
ACAD
1010
0.0
1020
0.0
1030
0.0
  0
LINE
  5
12CF7B
  8
SLIM
 10
3914.9999999999968
 20
-1052.5656346635251
 30
0.0
 11
4085.0000000000059
 21
-882.5656346635152
 31
0.0
1001
GRADIENTCOLOR1ACI
1070
     5
1001
GRADIENTCOLOR2ACI
1070
     2
1001
ACAD
1010
0.0
1020
0.0
1030
0.0
  0
LINE
  5
12CF7C
  8
SLIM
 10
3914.9999999999968
 20
-1070.526146905662
 30
0.0
 11
4085.0000000000059
 21
-900.52614690565338
 31
0.0
1001
GRADIENTCOLOR1ACI
1070
     5
1001
GRADIENTCOLOR2ACI
1070
     2
1001
ACAD
1010
0.0
1020
0.0
1030
0.0
  0
LINE
  5
12CF7D
  8
SLIM
 10
3915.3182312960889
 20
-1088.1684278517071
 30
0.0
 11
4085.0000000000059
 21
-918.48665914779201
 31
0.0
1001
GRADIENTCOLOR1ACI
1070
     5
1001
GRADIENTCOLOR2ACI
1070
     2
1001
ACAD
1010
0.0
1020
0.0
1030
0.0
  0
LINE
  5
12CF7E
  8
SLIM
 10
3917.3138437674402
 20
-1104.1333276224959
 30
0.0
 11
4085.0000000000059
 21
-936.44717138993042
 31
0.0
1001
GRADIENTCOLOR1ACI
1070
     5
1001
GRADIENTCOLOR2ACI
1070
     2
1001
ACAD
1010
0.0
1020
0.0
1030
0.0
  0
LINE
  5
12CF7F
  8
SLIM
 10
3919.3094562387892
 20
-1120.0982273932859
 30
0.0
 11
4085.000000000005
 21
-954.40768363206894
 31
0.0
1001
GRADIENTCOLOR1ACI
1070
     5
1001
GRADIENTCOLOR2ACI
1070
     2
1001
ACAD
1010
0.0
1020
0.0
1030
0.0
  0
LINE
  5
12CF80
  8
SLIM
 10
3930.0
 20
-1127.368195874212
 30
0.0
 11
3932.368195874215
 21
-1124.9999999999991
 31
0.0
1001
GRADIENTCOLOR1ACI
1070
     5
1001
GRADIENTCOLOR2ACI
1070
     2
1001
ACAD
1010
0.0
1020
0.0
1030
0.0
  0
LINE
  5
12CF81
  8
SLIM
 10
3932.368195874215
 20
-1124.9999999999991
 30
0.0
 11
4085.000000000005
 21
-972.36819587420734
 31
0.0
1001
GRADIENTCOLOR1ACI
1070
     5
1001
GRADIENTCOLOR2ACI
1070
     2
1001
ACAD
1010
0.0
1020
0.0
1030
0.0
  0
LINE
  5
12CF82
  8
SLIM
 10
3930.3287081163512
 20
-1144.9999999999991
 30
0.0
 11
3950.3287081163521
 21
-1124.9999999999991
 31
0.0
1001
GRADIENTCOLOR1ACI
1070
     5
1001
GRADIENTCOLOR2ACI
1070
     2
1001
ACAD
1010
0.0
1020
0.0
1030
0.0
  0
LINE
  5
12CF83
  8
SLIM
 10
3950.3287081163521
 20
-1124.9999999999991
 30
0.0
 11
4085.0000000000041
 21
-990.32870811634575
 31
0.0
1001
GRADIENTCOLOR1ACI
1070
     5
1001
GRADIENTCOLOR2ACI
1070
     2
1001
ACAD
1010
0.0
1020
0.0
1030
0.0
  0
LINE
  5
12CF84
  8
SLIM
 10
3948.2892203584888
 20
-1144.9999999999991
 30
0.0
 11
3968.2892203584888
 21
-1124.9999999999991
 31
0.0
1001
GRADIENTCOLOR1ACI
1070
     5
1001
GRADIENTCOLOR2ACI
1070
     2
1001
ACAD
1010
0.0
1020
0.0
1030
0.0
  0
LINE
  5
12CF85
  8
SLIM
 10
3968.2892203584888
 20
-1124.9999999999991
 30
0.0
 11
4085.0000000000041
 21
-1008.289220358484
 31
0.0
1001
GRADIENTCOLOR1ACI
1070
     5
1001
GRADIENTCOLOR2ACI
1070
     2
1001
ACAD
1010
0.0
1020
0.0
1030
0.0
  0
LINE
  5
12CF86
  8
SLIM
 10
3966.2497326006278
 20
-1144.9999999999991
 30
0.0
 11
3986.2497326006278
 21
-1124.9999999999991
 31
0.0
1001
GRADIENTCOLOR1ACI
1070
     5
1001
GRADIENTCOLOR2ACI
1070
     2
1001
ACAD
1010
0.0
1020
0.0
1030
0.0
  0
LINE
  5
12CF87
  8
SLIM
 10
3986.2497326006278
 20
-1124.9999999999991
 30
0.0
 11
4085.0000000000041
 21
-1026.249732600623
 31
0.0
1001
GRADIENTCOLOR1ACI
1070
     5
1001
GRADIENTCOLOR2ACI
1070
     2
1001
ACAD
1010
0.0
1020
0.0
1030
0.0
  0
LINE
  5
12CF88
  8
SLIM
 10
3984.2102448427659
 20
-1144.9999999999991
 30
0.0
 11
4004.2102448427659
 21
-1124.9999999999991
 31
0.0
1001
GRADIENTCOLOR1ACI
1070
     5
1001
GRADIENTCOLOR2ACI
1070
     2
1001
ACAD
1010
0.0
1020
0.0
1030
0.0
  0
LINE
  5
12CF89
  8
SLIM
 10
4004.2102448427659
 20
-1124.9999999999991
 30
0.0
 11
4085.0000000000041
 21
-1044.2102448427611
 31
0.0
1001
GRADIENTCOLOR1ACI
1070
     5
1001
GRADIENTCOLOR2ACI
1070
     2
1001
ACAD
1010
0.0
1020
0.0
1030
0.0
  0
LINE
  5
12CF8A
  8
SLIM
 10
4002.1707570849039
 20
-1144.9999999999991
 30
0.0
 11
4022.1707570849048
 21
-1124.9999999999991
 31
0.0
1001
GRADIENTCOLOR1ACI
1070
     5
1001
GRADIENTCOLOR2ACI
1070
     2
1001
ACAD
1010
0.0
1020
0.0
1030
0.0
  0
LINE
  5
12CF8B
  8
SLIM
 10
4022.1707570849048
 20
-1124.9999999999991
 30
0.0
 11
4085.0000000000041
 21
-1062.1707570849001
 31
0.0
1001
GRADIENTCOLOR1ACI
1070
     5
1001
GRADIENTCOLOR2ACI
1070
     2
1001
ACAD
1010
0.0
1020
0.0
1030
0.0
  0
LINE
  5
12CF8C
  8
SLIM
 10
4020.131269327042
 20
-1144.9999999999991
 30
0.0
 11
4040.1312693270429
 21
-1124.9999999999991
 31
0.0
1001
GRADIENTCOLOR1ACI
1070
     5
1001
GRADIENTCOLOR2ACI
1070
     2
1001
ACAD
1010
0.0
1020
0.0
1030
0.0
  0
LINE
  5
12CF8D
  8
SLIM
 10
4040.1312693270429
 20
-1124.9999999999991
 30
0.0
 11
4085.0000000000032
 21
-1080.1312693270379
 31
0.0
1001
GRADIENTCOLOR1ACI
1070
     5
1001
GRADIENTCOLOR2ACI
1070
     2
1001
ACAD
1010
0.0
1020
0.0
1030
0.0
  0
LINE
  5
12CF8E
  8
SLIM
 10
4038.091781569181
 20
-1144.9999999999991
 30
0.0
 11
4058.091781569181
 21
-1124.9999999999991
 31
0.0
1001
GRADIENTCOLOR1ACI
1070
     5
1001
GRADIENTCOLOR2ACI
1070
     2
1001
ACAD
1010
0.0
1020
0.0
1030
0.0
  0
LINE
  5
12CF8F
  8
SLIM
 10
4058.091781569181
 20
-1124.9999999999991
 30
0.0
 11
4083.2186851305419
 21
-1099.873096438637
 31
0.0
1001
GRADIENTCOLOR1ACI
1070
     5
1001
GRADIENTCOLOR2ACI
1070
     2
1001
ACAD
1010
0.0
1020
0.0
1030
0.0
  0
LINE
  5
12CF90
  8
SLIM
 10
4056.0522938113181
 20
-1144.9999999999991
 30
0.0
 11
4070.0
 21
-1131.0522938113179
 31
0.0
1001
GRADIENTCOLOR1ACI
1070
     5
1001
GRADIENTCOLOR2ACI
1070
     2
1001
ACAD
1010
0.0
1020
0.0
1030
0.0
  0
LINE
  5
12CF91
  8
SLIM
 10
4076.052293811319
 20
-1124.9999999999991
 30
0.0
 11
4080.6528976673799
 21
-1120.399396143938
 31
0.0
1001
GRADIENTCOLOR1ACI
1070
     5
1001
GRADIENTCOLOR2ACI
1070
     2
1001
ACAD
1010
0.0
1020
0.0
1030
0.0
  0
LINE
  5
12CF92
  8
OBJECT
 10
4085.0000000000068
 20
-754.99999999999955
 30
0.0
 11
4085.0000000000032
 21
-1085.6225774829579
 31
0.0
1001
ACDBBLOCKREPETAG
1070
     1
1071
        2
1005
12CF92
  0
LINE
  5
12CF93
  8
OBJECT
 10
4085.0000000000068
 20
-754.99999999999955
 30
0.0
 11
3914.9999999999941
 21
-754.99999999999955
 31
0.0
1001
ACDBBLOCKREPETAG
1070
     1
1071
        3
1005
12CF93
  0
LINE
  5
12CF94
  8
OBJECT
 10
3919.9221778146289
 20
-1124.9999999999991
 30
0.0
 11
4080.077822185372
 21
-1124.9999999999991
 31
0.0
1001
ACDBBLOCKREPETAG
1070
     1
1071
        3
1005
12CF94
  0
LINE
  5
12CF95
  8
OBJECT
 10
4080.077822185372
 20
-1124.9999999999991
 30
0.0
 11
4085.0000000000032
 21
-1085.6225774829579
 31
0.0
1001
ACDBBLOCKREPETAG
1070
     1
1071
       11
1005
0
  0
LINE
  5
12CF96
  8
OBJECT
 10
3914.9999999999941
 20
-754.99999999999955
 30
0.0
 11
3914.9999999999968
 21
-1085.6225774829579
 31
0.0
1001
ACDBBLOCKREPETAG
1070
     1
1071
        2
1005
12CF92
  0
LINE
  5
12CF97
  8
OBJECT
 10
3919.9221778146289
 20
-1124.9999999999991
 30
0.0
 11
3914.9999999999968
 21
-1085.6225774829579
 31
0.0
1001
ACDBBLOCKREPETAG
1070
     1
1071
       11
1005
0
  0
LINE
  5
12CF98
  8
OBJECT
 10
3930.0
 20
-1125.0
 30
0.0
 11
3930.0
 21
-1144.9999999999991
 31
0.0
1001
ACDBBLOCKREPETAG
1070
     1
1071
       10
1005
0
  0
LINE
  5
12CF99
  8
OBJECT
 10
3930.0
 20
-1144.9999999999991
 30
0.0
 11
4070.0
 21
-1144.9999999999991
 31
0.0
1001
ACDBBLOCKREPETAG
1070
     1
1071
       11
1005
0
  0
LINE
  5
12CF9A
  8
OBJECT
 10
4070.0
 20
-1144.9999999999991
 30
0.0
 11
4070.0
 21
-1124.9999999999991
 31
0.0
1001
ACDBBLOCKREPETAG
1070
     1
1071
       12
1005
0
  0
LINE
  5
12CF9B
  8
OBJECT
 10
3923.0
 20
-570.99999999999955
 30
0.0
 11
3923.0
 21
-549.99999999999955
 31
0.0
1001
ACDBBLOCKREPETAG
1070
     1
1071
       36
1005
12CF9B
  0
LINE
  5
12CF9C
  8
OBJECT
 10
3923.0
 20
-549.99999999999955
 30
0.0
 11
4077.0
 21
-549.99999999999955
 31
0.0
1001
ACDBBLOCKREPETAG
1070
     1
1071
       37
1005
12CF9C
  0
LINE
  5
12CF9D
  8
HIDDEN
 10
3943.0
 20
-619.99999999999955
 30
0.0
 11
4057.0
 21
-619.99999999999955
 31
0.0
1001
ACDBBLOCKREPETAG
1070
     1
1071
       38
1005
12CF9D
  0
LINE
  5
12CF9E
  8
OBJECT
 10
4077.0
 20
-549.99999999999955
 30
0.0
 11
4077.0
 21
-570.99999999999955
 31
0.0
1001
ACDBBLOCKREPETAG
1070
     1
1071
       39
1005
12CF9E
  0
LINE
  5
12CF9F
  8
OBJECT
 10
4077.0
 20
-570.99999999999955
 30
0.0
 11
3923.0
 21
-570.99999999999955
 31
0.0
1001
ACDBBLOCKREPETAG
1070
     1
1071
       40
1005
12CF9F
  0
LINE
  5
12CFA0
  8
CENTER
 10
4000.0
 20
-534.99999999999955
 30
0.0
 11
4000.0
 21
-769.99999999999955
 31
0.0
1001
ACDBBLOCKREPETAG
1070
     1
1071
       41
1005
12CFA0
  0
LINE
  5
12CFA1
  8
OBJECT
 10
3928.0
 20
-570.99999999999955
 30
0.0
 11
3928.0
 21
-633.99999999999955
 31
0.0
1001
ACDBBLOCKREPETAG
1070
     1
1071
       42
1005
12CFA1
  0
LINE
  5
12CFA2
  8
OBJECT
 10
4072.0
 20
-633.99999999999955
 30
0.0
 11
4072.0
 21
-570.99999999999955
 31
0.0
1001
ACDBBLOCKREPETAG
1070
     1
1071
       43
1005
12CFA2
  0
LINE
  5
12CFA3
  8
OBJECT
 10
3920.0
 20
-757.99999999999955
 30
0.0
 11
4080.0
 21
-757.99999999999955
 31
0.0
1001
ACDBBLOCKREPETAG
1070
     1
1071
       44
1005
12CFA3
  0
LINE
  5
12CFA4
  8
OBJECT
 10
4080.0
 20
-633.99999999999955
 30
0.0
 11
3920.0
 21
-633.99999999999955
 31
0.0
1001
ACDBBLOCKREPETAG
1070
     1
1071
       45
1005
12CFA4
  0
LINE
  5
12CFA5
  8
OBJECT
 10
3920.0
 20
-757.99999999999955
 30
0.0
 11
3920.0
 21
-769.99999999999955
 31
0.0
1001
ACDBBLOCKREPETAG
1070
     1
1071
       46
1005
12CFA5
  0
LINE
  5
12CFA6
  8
OBJECT
 10
3920.0
 20
-769.99999999999955
 30
0.0
 11
4080.0
 21
-769.99999999999955
 31
0.0
1001
ACDBBLOCKREPETAG
1070
     1
1071
       47
1005
12CFA6
  0
LINE
  5
12CFA7
  8
OBJECT
 10
4080.0
 20
-769.99999999999955
 30
0.0
 11
4080.0
 21
-757.99999999999955
 31
0.0
1001
ACDBBLOCKREPETAG
1070
     1
1071
       48
1005
12CFA7
  0
ARC
  5
12CFA8
  8
OBJECT
 10
4200.6872746716726
 20
-749.40809941010718
 30
0.0
 40
170.6350503965856
 50
137.44134459184301
 51
149.91949581337221
1001
ACDBBLOCKREPETAG
1070
     1
1071
       52
1005
12CFA8
  0
ARC
  5
12CFA9
  8
OBJECT
 10
4200.6872746716726
 20
-642.59190058989179
 30
0.0
 40
170.6350503965856
 50
210.08050418662771
 51
222.55865540815699
1001
ACDBBLOCKREPETAG
1070
     1
1071
       53
1005
12CFA9
  0
ARC
  5
12CFAA
  8
OBJECT
 10
3799.3127253283278
 20
-749.40809941010718
 30
0.0
 40
170.6350503965856
 50
30.080504186774089
 51
42.558655408456282
1001
ACDBBLOCKREPETAG
1070
     1
1071
       54
1005
12CFAA
  0
ARC
  5
12CFAB
  8
OBJECT
 10
3799.3127253283278
 20
-642.59190058989179
 30
0.0
 40
170.6350503965856
 50
317.44134459154373
 51
329.91949581322592
1001
ACDBBLOCKREPETAG
1070
     1
1071
       55
1005
12CFAB
  0
POINT
  5
12CFAC
  8
DOTS
 10
4000.0
 20
-754.99999999999955
 30
0.0
1001
ACDBBLOCKREPETAG
1070
     1
1071
      184
1005
12CFAC
  0
LINE
  5
12CFAD
  8
OBJECT
 10
1923.0
 20
-570.99999999999955
 30
0.0
 11
1923.0
 21
-549.99999999999955
 31
0.0
1001
ACDBBLOCKREPETAG
1070
     1
1071
       36
1005
12CFAD
  0
LINE
  5
12CFAE
  8
OBJECT
 10
1923.0
 20
-549.99999999999955
 30
0.0
 11
2077.0
 21
-549.99999999999955
 31
0.0
1001
ACDBBLOCKREPETAG
1070
     1
1071
       37
1005
12CFAE
  0
LINE
  5
12CFAF
  8
HIDDEN
 10
1943.0
 20
-619.99999999999955
 30
0.0
 11
2057.0
 21
-619.99999999999955
 31
0.0
1001
ACDBBLOCKREPETAG
1070
     1
1071
       38
1005
12CFAF
  0
LINE
  5
12CFB0
  8
OBJECT
 10
2077.0
 20
-549.99999999999955
 30
0.0
 11
2077.0
 21
-570.99999999999955
 31
0.0
1001
ACDBBLOCKREPETAG
1070
     1
1071
       39
1005
12CFB0
  0
LINE
  5
12CFB1
  8
OBJECT
 10
2077.0
 20
-570.99999999999955
 30
0.0
 11
1923.0
 21
-570.99999999999955
 31
0.0
1001
ACDBBLOCKREPETAG
1070
     1
1071
       40
1005
12CFB1
  0
LINE
  5
12CFB2
  8
CENTER
 10
2000.0
 20
-534.99999999999955
 30
0.0
 11
2000.0
 21
-769.99999999999955
 31
0.0
1001
ACDBBLOCKREPETAG
1070
     1
1071
       41
1005
12CFB2
  0
LINE
  5
12CFB3
  8
OBJECT
 10
1928.0
 20
-570.99999999999955
 30
0.0
 11
1928.0
 21
-633.99999999999955
 31
0.0
1001
ACDBBLOCKREPETAG
1070
     1
1071
       42
1005
12CFB3
  0
LINE
  5
12CFB4
  8
OBJECT
 10
2072.0
 20
-633.99999999999955
 30
0.0
 11
2072.0
 21
-570.99999999999955
 31
0.0
1001
ACDBBLOCKREPETAG
1070
     1
1071
       43
1005
12CFB4
  0
LINE
  5
12CFB5
  8
OBJECT
 10
1920.0
 20
-757.99999999999955
 30
0.0
 11
2080.0
 21
-757.99999999999955
 31
0.0
1001
ACDBBLOCKREPETAG
1070
     1
1071
       44
1005
12CFB5
  0
LINE
  5
12CFB6
  8
OBJECT
 10
2080.0
 20
-633.99999999999955
 30
0.0
 11
1920.0
 21
-633.99999999999955
 31
0.0
1001
ACDBBLOCKREPETAG
1070
     1
1071
       45
1005
12CFB6
  0
LINE
  5
12CFB7
  8
OBJECT
 10
1920.0
 20
-757.99999999999955
 30
0.0
 11
1920.0
 21
-769.99999999999955
 31
0.0
1001
ACDBBLOCKREPETAG
1070
     1
1071
       46
1005
12CFB7
  0
LINE
  5
12CFB8
  8
OBJECT
 10
1920.0
 20
-769.99999999999955
 30
0.0
 11
2080.0
 21
-769.99999999999955
 31
0.0
1001
ACDBBLOCKREPETAG
1070
     1
1071
       47
1005
12CFB8
  0
LINE
  5
12CFB9
  8
OBJECT
 10
2080.0
 20
-769.99999999999955
 30
0.0
 11
2080.0
 21
-757.99999999999955
 31
0.0
1001
ACDBBLOCKREPETAG
1070
     1
1071
       48
1005
12CFB9
  0
ARC
  5
12CFBA
  8
OBJECT
 10
2200.6872746716731
 20
-749.40809941010718
 30
0.0
 40
170.6350503965856
 50
137.44134459184301
 51
149.91949581336559
1001
ACDBBLOCKREPETAG
1070
     1
1071
       52
1005
12CFBA
  0
ARC
  5
12CFBB
  8
OBJECT
 10
2200.6872746716731
 20
-642.59190058989179
 30
0.0
 40
170.6350503965856
 50
210.0805041866343
 51
222.55865540815699
1001
ACDBBLOCKREPETAG
1070
     1
1071
       53
1005
12CFBB
  0
ARC
  5
12CFBC
  8
OBJECT
 10
1799.312725328326
 20
-749.40809941010718
 30
0.0
 40
170.6350503965856
 50
30.080504186774089
 51
42.558655408447443
1001
ACDBBLOCKREPETAG
1070
     1
1071
       54
1005
12CFBC
  0
ARC
  5
12CFBD
  8
OBJECT
 10
1799.312725328326
 20
-642.59190058989179
 30
0.0
 40
170.6350503965856
 50
317.44134459155248
 51
329.91949581322592
1001
ACDBBLOCKREPETAG
1070
     1
1071
       55
1005
12CFBD
  0
POINT
  5
12CFBE
  8
DOTS
 10
2000.0
 20
-754.99999999999955
 30
0.0
1001
ACDBBLOCKREPETAG
1070
     1
1071
      184
1005
12CFBE
  0
TEXT
  5
12CFBF
  8
SLIM
 10
3554.6000000000008
 20
-1700.666666666664
 30
0.0
 40
28.0
  1
※ 対応スラブ厚　180～（m-10）
 41
0.75
  0
TEXT
  5
12CFC0
  8
SLIM
 10
3554.6000000000008
 20
-1747.333333333331
 30
0.0
 40
28.0
  1
※ 足切り可能寸法（最大）　500-m（コンパクトＬベンド使用なら+10）
 41
0.75
  0
TEXT
  5
12CFC1
  8
SLIM
 10
3598.9000000000001
 20
-1840.666666666664
 30
0.0
 40
28.0
  1
国土交通大臣認定・（一財）日本消防設備安全センター性能評定取得品
 41
0.75
  0
TEXT
  5
12CFC2
  8
SLIM
 10
3631.1000000000022
 20
-1887.333333333331
 30
0.0
 40
28.0
  1
注）ご採用にあたり、認定書及び評定書の内容をご確認ください。
 41
0.75
  0
TEXT
  5
12CFC3
  8
SLIM
 10
4470.057142857142
 20
-1352.9999999999959
 30
0.0
 40
24.0
  1
180～490
 41
0.75
  0
TEXT
  5
12CFC4
  8
SLIM
 10
4470.057142857142
 20
-1304.9999999999959
 30
0.0
 40
24.0
  1
180～480
 41
0.75
  0
TEXT
  5
12CFC5
  8
SLIM
 10
4470.057142857142
 20
-1256.9999999999959
 30
0.0
 40
24.0
  1
180～470
 41
0.75
  0
TEXT
  5
12CFC6
  8
SLIM
 10
4470.057142857142
 20
-1208.9999999999959
 30
0.0
 40
24.0
  1
180～460
 41
0.75
  0
TEXT
  5
12CFC7
  8
SLIM
 10
4470.057142857142
 20
-1160.9999999999959
 30
0.0
 40
24.0
  1
180～450
 41
0.75
  0
TEXT
  5
12CFC8
  8
SLIM
 10
4470.057142857142
 20
-1112.9999999999959
 30
0.0
 40
24.0
  1
180～440
 41
0.75
  0
TEXT
  5
12CFC9
  8
SLIM
 10
4470.057142857142
 20
-1064.9999999999959
 30
0.0
 40
24.0
  1
180～430
 41
0.75
  0
TEXT
  5
12CFCA
  8
SLIM
 10
4470.057142857142
 20
-1016.999999999996
 30
0.0
 40
24.0
  1
180～420
 41
0.75
  0
TEXT
  5
12CFCB
  8
SLIM
 10
4471.7714285714283
 20
-968.99999999999545
 30
0.0
 40
24.0
  1
180～410
 41
0.75
  0
TEXT
  5
12CFCC
  8
SLIM
 10
4470.057142857142
 20
-920.99999999999591
 30
0.0
 40
24.0
  1
180～400
 41
0.75
  0
TEXT
  5
12CFCD
  8
SLIM
 10
4470.057142857142
 20
-872.99999999999591
 30
0.0
 40
24.0
  1
180～390
 41
0.75
  0
TEXT
  5
12CFCE
  8
SLIM
 10
4470.057142857142
 20
-824.99999999999591
 30
0.0
 40
24.0
  1
180～380
 41
0.75
  0
TEXT
  5
12CFCF
  8
SLIM
 10
4470.057142857142
 20
-776.99999999999591
 30
0.0
 40
24.0
  1
180～370
 41
0.75
  0
TEXT
  5
12CFD0
  8
SLIM
 10
4470.057142857142
 20
-728.99999999999591
 30
0.0
 40
24.0
  1
180～360
 41
0.75
  0
TEXT
  5
12CFD1
  8
SLIM
 10
4465.6000000000013
 20
-680.99999999999591
 30
0.0
 40
24.0
  1
対応スラブ厚
 41
0.75
  0
TEXT
  5
12CFD2
  8
SLIM
 10
4396.4571428571408
 20
-1410.9999999999959
 30
0.0
 40
24.0
  1
標準：m=370
 41
0.75
  0
TEXT
  5
12CFD3
  8
SLIM
 10
4378.8571428571431
 20
-1352.9999999999959
 30
0.0
 40
24.0
  1
500
 41
0.75
  0
TEXT
  5
12CFD4
  8
SLIM
 10
4378.8571428571431
 20
-1304.9999999999959
 30
0.0
 40
24.0
  1
490
 41
0.75
  0
TEXT
  5
12CFD5
  8
SLIM
 10
4378.8571428571431
 20
-1256.9999999999959
 30
0.0
 40
24.0
  1
480
 41
0.75
  0
TEXT
  5
12CFD6
  8
SLIM
 10
4378.8571428571431
 20
-1208.9999999999959
 30
0.0
 40
24.0
  1
470
 41
0.75
  0
TEXT
  5
12CFD7
  8
SLIM
 10
4378.8571428571431
 20
-1160.9999999999959
 30
0.0
 40
24.0
  1
460
 41
0.75
  0
TEXT
  5
12CFD8
  8
SLIM
 10
4378.8571428571431
 20
-1112.9999999999959
 30
0.0
 40
24.0
  1
450
 41
0.75
  0
TEXT
  5
12CFD9
  8
SLIM
 10
4378.8571428571431
 20
-1064.9999999999959
 30
0.0
 40
24.0
  1
440
 41
0.75
  0
TEXT
  5
12CFDA
  8
SLIM
 10
4378.8571428571431
 20
-1016.999999999996
 30
0.0
 40
24.0
  1
430
 41
0.75
  0
TEXT
  5
12CFDB
  8
SLIM
 10
4378.8571428571431
 20
-968.99999999999545
 30
0.0
 40
24.0
  1
420
 41
0.75
  0
TEXT
  5
12CFDC
  8
SLIM
 10
4380.5714285714284
 20
-920.99999999999591
 30
0.0
 40
24.0
  1
410
 41
0.75
  0
TEXT
  5
12CFDD
  8
SLIM
 10
4378.8571428571431
 20
-872.99999999999591
 30
0.0
 40
24.0
  1
400
 41
0.75
  0
TEXT
  5
12CFDE
  8
SLIM
 10
4378.8571428571431
 20
-824.99999999999591
 30
0.0
 40
24.0
  1
390
 41
0.75
  0
TEXT
  5
12CFDF
  8
SLIM
 10
4378.8571428571431
 20
-776.99999999999591
 30
0.0
 40
24.0
  1
380
 41
0.75
  0
TEXT
  5
12CFE0
  8
SLIM
 10
4369.9428571428571
 20
-680.99999999999591
 30
0.0
 40
24.0
  1
m寸法
 41
0.75
  0
TEXT
  5
12CFE1
  8
SLIM
 10
4378.8571428571431
 20
-728.99999999999591
 30
0.0
 40
24.0
  1
370
 41
0.75
  0
LINE
  5
12CFE2
  8
OBJECT
 10
3925.0
 20
-769.99999999999955
 30
0.0
 11
3925.0
 21
-1042.9999999999991
 31
0.0
1001
ACDBBLOCKREPETAG
1070
     1
1071
        1
1005
12CFE2
  0
LINE
  5
12CFE3
  8
OBJECT
 10
4075.0
 20
-769.99999999999375
 30
0.0
 11
4075.0
 21
-1042.9999999999991
 31
0.0
1001
ACDBBLOCKREPETAG
1070
     1
1071
        3
1005
12CFE3
  0
LINE
  5
12CFE4
  8
CENTER
 10
4000.0
 20
-769.99999999999955
 30
0.0
 11
4000.0
 21
-1054.9999999999991
 31
0.0
1001
ACDBBLOCKREPETAG
1070
     1
1071
        6
1005
12CFE4
  0
LINE
  5
12CFE5
  8
OBJECT
 10
3920.0
 20
-1054.9999999999991
 30
0.0
 11
4080.0
 21
-1054.9999999999991
 31
0.0
1001
ACDBBLOCKREPETAG
1070
     1
1071
        7
1005
12CFE5
  0
LINE
  5
12CFE6
  8
OBJECT
 10
3920.0
 20
-1042.9999999999991
 30
0.0
 11
4080.0
 21
-1042.9999999999991
 31
0.0
1001
ACDBBLOCKREPETAG
1070
     1
1071
        8
1005
12CFE6
  0
LINE
  5
12CFE7
  8
OBJECT
 10
3920.0
 20
-1042.9999999999991
 30
0.0
 11
3920.0
 21
-1054.9999999999991
 31
0.0
1001
ACDBBLOCKREPETAG
1070
     1
1071
        9
1005
12CFE7
  0
LINE
  5
12CFE8
  8
OBJECT
 10
4080.0
 20
-1042.9999999999991
 30
0.0
 11
4080.0
 21
-1054.9999999999991
 31
0.0
1001
ACDBBLOCKREPETAG
1070
     1
1071
       10
1005
12CFE8
  0
LINE
  5
12CFE9
  8
OBJECT
 10
1925.0
 20
-769.99999999999955
 30
0.0
 11
1925.0
 21
-1042.9999999999991
 31
0.0
1001
ACDBBLOCKREPETAG
1070
     1
1071
        1
1005
12CFE9
  0
LINE
  5
12CFEA
  8
OBJECT
 10
2075.0
 20
-769.99999999999375
 30
0.0
 11
2075.0
 21
-1042.9999999999991
 31
0.0
1001
ACDBBLOCKREPETAG
1070
     1
1071
        3
1005
12CFEA
  0
LINE
  5
12CFEB
  8
CENTER
 10
2000.0
 20
-769.99999999999955
 30
0.0
 11
2000.0
 21
-1054.9999999999991
 31
0.0
1001
ACDBBLOCKREPETAG
1070
     1
1071
        6
1005
12CFEB
  0
LINE
  5
12CFEC
  8
OBJECT
 10
1920.0
 20
-1054.9999999999991
 30
0.0
 11
2080.0
 21
-1054.9999999999991
 31
0.0
1001
ACDBBLOCKREPETAG
1070
     1
1071
        7
1005
12CFEC
  0
LINE
  5
12CFED
  8
OBJECT
 10
1920.0
 20
-1042.9999999999991
 30
0.0
 11
2080.0
 21
-1042.9999999999991
 31
0.0
1001
ACDBBLOCKREPETAG
1070
     1
1071
        8
1005
12CFED
  0
LINE
  5
12CFEE
  8
OBJECT
 10
1920.0
 20
-1042.9999999999991
 30
0.0
 11
1920.0
 21
-1054.9999999999991
 31
0.0
1001
ACDBBLOCKREPETAG
1070
     1
1071
        9
1005
12CFEE
  0
LINE
  5
12CFEF
  8
OBJECT
 10
2080.0
 20
-1042.9999999999991
 30
0.0
 11
2080.0
 21
-1054.9999999999991
 31
0.0
1001
ACDBBLOCKREPETAG
1070
     1
1071
       10
1005
12CFEF
  0
LINE
  5
12CFF0
  8
DIM
 10
3904.9999999999941
 20
-755.0
 30
0.0
 11
3839.6616440113221
 21
-754.99999999999966
 31
0.0
  0
LINE
  5
12CFF1
  8
DIM
 10
3910.0
 20
-1124.9999999999991
 30
0.0
 11
3839.6616440113221
 21
-1124.9999999999991
 31
0.0
  0
LINE
  5
12CFF2
  8
DIM
 10
3849.6616440113221
 20
-775.0
 30
0.0
 11
3849.6616440113221
 21
-1104.9999999999991
 31
0.0
  0
INSERT
  5
12CFF3
  8
DIM
  2
_OPEN30
 10
3849.6616440113221
 20
-755.0
 30
0.0
 41
20.0
 42
20.0
 43
20.0
 50
90.0
  0
INSERT
  5
12CFF4
  8
DIM
  2
_OPEN30
 10
3849.6616440113221
 20
-1124.9999999999991
 30
0.0
 41
20.0
 42
20.0
 43
20.0
 50
270.0
  0
INSERT
  5
12CFF5
  8
OBJECT
  2
*U5
 10
0.0
 20
0.0
 30
0.0
  0
CIRCLE
  5
12CFF6
  8
OBJECT
 10
5000.0
 20
-3294.9999999999959
 30
0.0
 40
53.5
1001
ACDBBLOCKREPETAG
1070
     1
1071
      344
1005
12CFF6
  0
LINE
  5
12CFF7
  8
CENTER
 10
5080.0
 20
-3294.9999999999959
 30
0.0
 11
4905.0
 21
-3294.9999999999959
 31
0.0
1001
ACDBBLOCKREPETAG
1070
     1
1071
       14
1005
12CFF7
  0
LINE
  5
12CFF8
  8
CENTER
 10
5000.0
 20
-3389.9999999999968
 30
0.0
 11
5000.0
 21
-3199.9999999999959
 31
0.0
1001
ACDBBLOCKREPETAG
1070
     1
1071
       15
1005
12CFF8
  0
CIRCLE
  5
12CFF9
  8
OBJECT
 10
5000.0
 20
-3294.9999999999959
 30
0.0
 40
70.0
1001
ACDBBLOCKREPETAG
1070
     1
1071
       16
1005
12CFF9
  0
CIRCLE
  5
12CFFA
  8
OBJECT
 10
5000.0
 20
-3294.9999999999959
 30
0.0
 40
77.0
1001
ACDBBLOCKREPETAG
1070
     1
1071
       17
1005
12CFFA
  0
ARC
  5
12CFFB
  8
OBJECT
 10
5000.0
 20
-3294.9999999999959
 30
0.0
 40
80.0
 50
50.805032573882329
 51
309.19496742611773
1001
ACDBBLOCKREPETAG
1070
     1
1071
       18
1005
12CFFB
  0
LINE
  5
12CFFC
  8
OBJECT
 10
5045.6618002273253
 20
-3232.9999999999959
 30
0.0
 11
5080.0
 21
-3232.9999999999959
 31
0.0
1001
ACDBBLOCKREPETAG
1070
     1
1071
       19
1005
12CFFC
  0
LINE
  5
12CFFD
  8
OBJECT
 10
5045.6618002273253
 20
-3356.9999999999959
 30
0.0
 11
5080.0
 21
-3356.9999999999959
 31
0.0
1001
ACDBBLOCKREPETAG
1070
     1
1071
       20
1005
12CFFD
  0
POINT
  5
12CFFE
  8
DOTS
 10
5000.0
 20
-3294.9999999999959
 30
0.0
1001
ACDBBLOCKREPETAG
1070
     1
1071
       21
1005
12CFFE
  0
CIRCLE
  5
12CFFF
  8
OBJECT
 10
4000.0
 20
-3294.9999999999959
 30
0.0
 40
53.5
1001
ACDBBLOCKREPETAG
1070
     1
1071
      344
1005
12CFFF
  0
LINE
  5
12D000
  8
CENTER
 10
4080.0
 20
-3294.9999999999959
 30
0.0
 11
3905.0
 21
-3294.9999999999959
 31
0.0
1001
ACDBBLOCKREPETAG
1070
     1
1071
       14
1005
12D000
  0
LINE
  5
12D001
  8
CENTER
 10
4000.0
 20
-3389.9999999999968
 30
0.0
 11
4000.0
 21
-3199.9999999999959
 31
0.0
1001
ACDBBLOCKREPETAG
1070
     1
1071
       15
1005
12D001
  0
CIRCLE
  5
12D002
  8
OBJECT
 10
4000.0
 20
-3294.9999999999959
 30
0.0
 40
70.0
1001
ACDBBLOCKREPETAG
1070
     1
1071
       16
1005
12D002
  0
CIRCLE
  5
12D003
  8
OBJECT
 10
4000.0
 20
-3294.9999999999959
 30
0.0
 40
77.0
1001
ACDBBLOCKREPETAG
1070
     1
1071
       17
1005
12D003
  0
ARC
  5
12D004
  8
OBJECT
 10
4000.0
 20
-3294.9999999999959
 30
0.0
 40
80.0
 50
50.805032573862128
 51
309.19496742613791
1001
ACDBBLOCKREPETAG
1070
     1
1071
       18
1005
12D004
  0
LINE
  5
12D005
  8
OBJECT
 10
4045.661800227324
 20
-3232.9999999999959
 30
0.0
 11
4080.0
 21
-3232.9999999999959
 31
0.0
1001
ACDBBLOCKREPETAG
1070
     1
1071
       19
1005
12D005
  0
LINE
  5
12D006
  8
OBJECT
 10
4045.661800227324
 20
-3356.9999999999959
 30
0.0
 11
4080.0
 21
-3356.9999999999959
 31
0.0
1001
ACDBBLOCKREPETAG
1070
     1
1071
       20
1005
12D006
  0
POINT
  5
12D007
  8
DOTS
 10
4000.0
 20
-3294.9999999999959
 30
0.0
1001
ACDBBLOCKREPETAG
1070
     1
1071
       21
1005
12D007
  0
CIRCLE
  5
12D008
  8
OBJECT
 10
3000.0
 20
-3294.9999999999959
 30
0.0
 40
53.5
1001
ACDBBLOCKREPETAG
1070
     1
1071
      344
1005
12D008
  0
LINE
  5
12D009
  8
CENTER
 10
3080.0
 20
-3294.9999999999959
 30
0.0
 11
2905.0
 21
-3294.9999999999959
 31
0.0
1001
ACDBBLOCKREPETAG
1070
     1
1071
       14
1005
12D009
  0
LINE
  5
12D00A
  8
CENTER
 10
3000.0
 20
-3389.9999999999968
 30
0.0
 11
3000.0
 21
-3199.9999999999959
 31
0.0
1001
ACDBBLOCKREPETAG
1070
     1
1071
       15
1005
12D00A
  0
CIRCLE
  5
12D00B
  8
OBJECT
 10
3000.0
 20
-3294.9999999999959
 30
0.0
 40
70.0
1001
ACDBBLOCKREPETAG
1070
     1
1071
       16
1005
12D00B
  0
CIRCLE
  5
12D00C
  8
OBJECT
 10
3000.0
 20
-3294.9999999999959
 30
0.0
 40
77.0
1001
ACDBBLOCKREPETAG
1070
     1
1071
       17
1005
12D00C
  0
ARC
  5
12D00D
  8
OBJECT
 10
3000.0
 20
-3294.9999999999959
 30
0.0
 40
80.0
 50
50.805032573862128
 51
309.19496742613791
1001
ACDBBLOCKREPETAG
1070
     1
1071
       18
1005
12D00D
  0
LINE
  5
12D00E
  8
OBJECT
 10
3045.6618002273249
 20
-3232.9999999999959
 30
0.0
 11
3080.0
 21
-3232.9999999999959
 31
0.0
1001
ACDBBLOCKREPETAG
1070
     1
1071
       19
1005
12D00E
  0
LINE
  5
12D00F
  8
OBJECT
 10
3045.6618002273249
 20
-3356.9999999999959
 30
0.0
 11
3080.0
 21
-3356.9999999999959
 31
0.0
1001
ACDBBLOCKREPETAG
1070
     1
1071
       20
1005
12D00F
  0
POINT
  5
12D010
  8
DOTS
 10
3000.0
 20
-3294.9999999999959
 30
0.0
1001
ACDBBLOCKREPETAG
1070
     1
1071
       21
1005
12D010
  0
CIRCLE
  5
12D011
  8
OBJECT
 10
2000.0
 20
-3294.9999999999959
 30
0.0
 40
53.5
1001
ACDBBLOCKREPETAG
1070
     1
1071
      344
1005
12D011
  0
LINE
  5
12D012
  8
CENTER
 10
2080.0
 20
-3294.9999999999959
 30
0.0
 11
1905.0
 21
-3294.9999999999959
 31
0.0
1001
ACDBBLOCKREPETAG
1070
     1
1071
       14
1005
12D012
  0
LINE
  5
12D013
  8
CENTER
 10
2000.0
 20
-3389.9999999999968
 30
0.0
 11
2000.0
 21
-3199.9999999999959
 31
0.0
1001
ACDBBLOCKREPETAG
1070
     1
1071
       15
1005
12D013
  0
CIRCLE
  5
12D014
  8
OBJECT
 10
2000.0
 20
-3294.9999999999959
 30
0.0
 40
70.0
1001
ACDBBLOCKREPETAG
1070
     1
1071
       16
1005
12D014
  0
CIRCLE
  5
12D015
  8
OBJECT
 10
2000.0
 20
-3294.9999999999959
 30
0.0
 40
77.0
1001
ACDBBLOCKREPETAG
1070
     1
1071
       17
1005
12D015
  0
ARC
  5
12D016
  8
OBJECT
 10
2000.0
 20
-3294.9999999999959
 30
0.0
 40
80.0
 50
50.805032573862128
 51
309.19496742613791
1001
ACDBBLOCKREPETAG
1070
     1
1071
       18
1005
12D016
  0
LINE
  5
12D017
  8
OBJECT
 10
2045.6618002273251
 20
-3232.9999999999959
 30
0.0
 11
2080.0
 21
-3232.9999999999959
 31
0.0
1001
ACDBBLOCKREPETAG
1070
     1
1071
       19
1005
12D017
  0
LINE
  5
12D018
  8
OBJECT
 10
2045.6618002273251
 20
-3356.9999999999959
 30
0.0
 11
2080.0
 21
-3356.9999999999959
 31
0.0
1001
ACDBBLOCKREPETAG
1070
     1
1071
       20
1005
12D018
  0
POINT
  5
12D019
  8
DOTS
 10
2000.0
 20
-3294.9999999999959
 30
0.0
1001
ACDBBLOCKREPETAG
1070
     1
1071
       21
1005
12D019
  0
LINE
  5
12D01A
  8
SLIM
 10
3945.2566704261012
 20
-137.99999999999909
 30
0.0
 11
3955.9548403695781
 21
-127.30183005652231
 31
0.0
1001
GRADIENTCOLOR1ACI
1070
     5
1001
GRADIENTCOLOR2ACI
1070
     2
1001
ACAD
1010
0.0
1020
0.0
1030
0.0
1001
ACDBBLOCKREPETAG
1070
     1
1071
      422
1005
12D01A
  0
LINE
  5
12D01B
  8
SLIM
 10
3954.2369265471712
 20
-137.99999999999909
 30
0.0
 11
3972.7507744763329
 21
-119.4861520708364
 31
0.0
1001
GRADIENTCOLOR1ACI
1070
     5
1001
GRADIENTCOLOR2ACI
1070
     2
1001
ACAD
1010
0.0
1020
0.0
1030
0.0
1001
ACDBBLOCKREPETAG
1070
     1
1071
      423
1005
12D01B
  0
LINE
  5
12D01C
  8
SLIM
 10
3973.521224312457
 20
-127.6959583557812
 30
0.0
 11
3984.8575146748631
 21
-116.359667993377
 31
0.0
1001
GRADIENTCOLOR1ACI
1070
     5
1001
GRADIENTCOLOR2ACI
1070
     2
1001
ACAD
1010
0.0
1020
0.0
1030
0.0
1001
ACDBBLOCKREPETAG
1070
     1
1071
      424
1005
12D01C
  0
LINE
  5
12D01D
  8
SLIM
 10
3985.8944171461271
 20
-124.30302164318159
 30
0.0
 11
3995.0533812002559
 21
-115.1440575890517
 31
0.0
1001
GRADIENTCOLOR1ACI
1070
     5
1001
GRADIENTCOLOR2ACI
1070
     2
1001
ACAD
1010
0.0
1020
0.0
1030
0.0
1001
ACDBBLOCKREPETAG
1070
     1
1071
      425
1005
12D01D
  0
LINE
  5
12D01E
  8
SLIM
 10
3996.0777327492078
 20
-123.0999621611699
 30
0.0
 11
4000.0
 21
-119.1776949103767
 31
0.0
1001
GRADIENTCOLOR1ACI
1070
     5
1001
GRADIENTCOLOR2ACI
1070
     2
1001
ACAD
1010
0.0
1020
0.0
1030
0.0
1001
ACDBBLOCKREPETAG
1070
     1
1071
      426
1005
12D01E
  0
LINE
  5
12D01F
  8
SLIM
 10
4000.0
 20
-119.1776949103767
 30
0.0
 11
4004.0797313529042
 21
-115.0979635574724
 31
0.0
1001
GRADIENTCOLOR1ACI
1070
     5
1001
GRADIENTCOLOR2ACI
1070
     2
1001
ACAD
1010
0.0
1020
0.0
1030
0.0
1001
ACDBBLOCKREPETAG
1070
     1
1071
      427
1005
12D01F
  0
LINE
  5
12D020
  8
SLIM
 10
4004.9957202542769
 20
-123.1622307771683
 30
0.0
 11
4012.2679784105749
 21
-115.88997262087101
 31
0.0
1001
GRADIENTCOLOR1ACI
1070
     5
1001
GRADIENTCOLOR2ACI
1070
     2
1001
ACAD
1010
0.0
1020
0.0
1030
0.0
1001
ACDBBLOCKREPETAG
1070
     1
1071
      428
1005
12D020
  0
LINE
  5
12D021
  8
SLIM
 10
4013.028059366964
 20
-124.1101477855505
 30
0.0
 11
4019.799941457361
 21
-117.3382656951526
 31
0.0
1001
GRADIENTCOLOR1ACI
1070
     5
1001
GRADIENTCOLOR2ACI
1070
     2
1001
ACAD
1010
0.0
1020
0.0
1030
0.0
1001
ACDBBLOCKREPETAG
1070
     1
1071
      429
1005
12D021
  0
LINE
  5
12D022
  8
SLIM
 10
4020.3740813142458
 20
-125.7443819593383
 30
0.0
 11
4026.7872038672799
 21
-119.3312594063044
 31
0.0
1001
GRADIENTCOLOR1ACI
1070
     5
1001
GRADIENTCOLOR2ACI
1070
     2
1001
ACAD
1010
0.0
1020
0.0
1030
0.0
1001
ACDBBLOCKREPETAG
1070
     1
1071
      430
1005
12D022
  0
LINE
  5
12D023
  8
SLIM
 10
4027.1524719988752
 20
-127.946247395778
 30
0.0
 11
4033.3030030760328
 21
-121.7957163186195
 31
0.0
1001
GRADIENTCOLOR1ACI
1070
     5
1001
GRADIENTCOLOR2ACI
1070
     2
1001
ACAD
1010
0.0
1020
0.0
1030
0.0
1001
ACDBBLOCKREPETAG
1070
     1
1071
      431
1005
12D023
  0
LINE
  5
12D024
  8
SLIM
 10
4033.4390986513308
 20
-130.63987686439191
 30
0.0
 11
4039.3973119843781
 21
-124.6816635313439
 31
0.0
1001
GRADIENTCOLOR1ACI
1070
     5
1001
GRADIENTCOLOR2ACI
1070
     2
1001
ACAD
1010
0.0
1020
0.0
1030
0.0
1001
ACDBBLOCKREPETAG
1070
     1
1071
      432
1005
12D024
  0
LINE
  5
12D025
  8
SLIM
 10
4039.284224621797
 20
-133.77500701499321
 30
0.0
 11
4045.1047705343681
 21
-127.95446110242381
 31
0.0
1001
GRADIENTCOLOR1ACI
1070
     5
1001
GRADIENTCOLOR2ACI
1070
     2
1001
ACAD
1010
0.0
1020
0.0
1030
0.0
1001
ACDBBLOCKREPETAG
1070
     1
1071
      433
1005
12D025
  0
LINE
  5
12D026
  8
SLIM
 10
4044.7212801698038
 20
-137.31820758805651
 30
0.0
 11
4050.4491557891961
 21
-131.59033196866449
 31
0.0
1001
GRADIENTCOLOR1ACI
1070
     5
1001
GRADIENTCOLOR2ACI
1070
     2
1001
ACAD
1010
0.0
1020
0.0
1030
0.0
1001
ACDBBLOCKREPETAG
1070
     1
1071
      434
1005
12D026
  0
LINE
  5
12D027
  8
SLIM
 10
4053.0197438789291
 20
-137.99999999999909
 30
0.0
 11
4055.4459941864038
 21
-135.57374969252561
 31
0.0
1001
GRADIENTCOLOR1ACI
1070
     5
1001
GRADIENTCOLOR2ACI
1070
     2
1001
ACAD
1010
0.0
1020
0.0
1030
0.0
1001
ACDBBLOCKREPETAG
1070
     1
1071
      435
1005
12D027
  0
LINE
  5
12D028
  8
CENTER
 10
4000.0
 20
-279.99999999999909
 30
0.0
 11
4000.0
 21
-99.999999999999091
 31
0.0
1001
ACDBBLOCKREPETAG
1070
     1
1071
      160
1005
12D028
  0
CIRCLE
  5
12D029
  8
OBJECT
 10
4000.0
 20
-199.99999999999909
 30
0.0
 40
70.0
1001
ACDBBLOCKREPETAG
1070
     1
1071
      161
1005
12D029
  0
CIRCLE
  5
12D02A
  8
OBJECT
 10
4000.0
 20
-199.99999999999909
 30
0.0
 40
77.0
1001
ACDBBLOCKREPETAG
1070
     1
1071
      162
1005
12D02A
  0
LINE
  5
12D02B
  8
OBJECT
 10
4045.661800227324
 20
-137.99999999999909
 30
0.0
 11
4080.0
 21
-137.99999999999909
 31
0.0
1001
ACDBBLOCKREPETAG
1070
     1
1071
      164
1005
12D02B
  0
LINE
  5
12D02C
  8
OBJECT
 10
4062.0
 20
-261.99999999999909
 30
0.0
 11
4080.0
 21
-261.99999999999909
 31
0.0
1001
ACDBBLOCKREPETAG
1070
     1
1071
      165
1005
12D02C
  0
LINE
  5
12D02D
  8
OBJECT
 10
4062.0
 20
-261.99999999999909
 30
0.0
 11
4062.0
 21
-279.99999999999909
 31
0.0
1001
ACDBBLOCKREPETAG
1070
     1
1071
      167
1005
12D02D
  0
LINE
  5
12D02E
  8
OBJECT
 10
3938.0
 20
-261.99999999999909
 30
0.0
 11
3938.0
 21
-279.99999999999909
 31
0.0
1001
ACDBBLOCKREPETAG
1070
     1
1071
      168
1005
12D02E
  0
LINE
  5
12D02F
  8
OBJECT
 10
3938.0
 20
-261.99999999999909
 30
0.0
 11
3920.0
 21
-261.99999999999909
 31
0.0
1001
ACDBBLOCKREPETAG
1070
     1
1071
      170
1005
12D02F
  0
LINE
  5
12D030
  8
OBJECT
 10
3954.338199772676
 20
-137.99999999999909
 30
0.0
 11
3920.0
 21
-137.99999999999909
 31
0.0
1001
ACDBBLOCKREPETAG
1070
     1
1071
      171
1005
12D030
  0
LINE
  5
12D031
  8
OBJECT
 10
3945.5527778486362
 20
-254.44722215136329
 30
0.0
 11
3938.0
 21
-261.99999999999909
 31
0.0
1001
ACDBBLOCKREPETAG
1070
     1
1071
      180
1005
12D031
  0
LINE
  5
12D032
  8
OBJECT
 10
4054.4472221513638
 20
-254.44722215136329
 30
0.0
 11
4062.0
 21
-261.99999999999909
 31
0.0
1001
ACDBBLOCKREPETAG
1070
     1
1071
      181
1005
12D032
  0
POINT
  5
12D033
  8
DOTS
 10
4000.0
 20
-199.99999999999909
 30
0.0
 50
270.0
1001
ACDBBLOCKREPETAG
1070
     1
1071
      182
1005
12D033
  0
ARC
  5
12D034
  8
OBJECT
 10
4000.0
 20
-199.99999999999909
 30
0.0
 40
85.0
 50
46.837102859806208
 51
133.16289714019371
1001
ACDBBLOCKREPETAG
1070
     1
1071
      183
1005
12D034
  0
CIRCLE
  5
12D035
  8
OBJECT
 10
4000.0
 20
-199.99999999999909
 30
0.0
 40
53.5
1001
ACDBBLOCKREPETAG
1070
     1
1071
      352
1005
12D035
  0
LINE
  5
12D036
  8
CENTER
 10
4080.0
 20
-199.99999999999909
 30
0.0
 11
3920.0
 21
-199.99999999999909
 31
0.0
1001
ACDBBLOCKREPETAG
1070
     1
1071
      158
1005
12D036
  0
CIRCLE
  5
12D037
  8
OBJECT
 10
2000.0
 20
-199.99999999999909
 30
0.0
 40
53.5
1001
ACDBBLOCKREPETAG
1070
     1
1071
      340
1005
12D037
  0
LINE
  5
12D038
  8
CENTER
 10
2080.0
 20
-199.99999999999909
 30
0.0
 11
1920.0
 21
-199.99999999999909
 31
0.0
1001
ACDBBLOCKREPETAG
1070
     1
1071
       49
1005
12D038
  0
LINE
  5
12D039
  8
CENTER
 10
2000.0
 20
-279.99999999999909
 30
0.0
 11
2000.0
 21
-104.9999999999991
 31
0.0
1001
ACDBBLOCKREPETAG
1070
     1
1071
       50
1005
12D039
  0
CIRCLE
  5
12D03A
  8
OBJECT
 10
2000.0
 20
-199.99999999999909
 30
0.0
 40
70.0
1001
ACDBBLOCKREPETAG
1070
     1
1071
       51
1005
12D03A
  0
CIRCLE
  5
12D03B
  8
OBJECT
 10
2000.0
 20
-199.99999999999909
 30
0.0
 40
77.0
1001
ACDBBLOCKREPETAG
1070
     1
1071
       52
1005
12D03B
  0
ARC
  5
12D03C
  8
OBJECT
 10
2000.0
 20
-199.99999999999909
 30
0.0
 40
80.0
 50
50.805032573864182
 51
129.1949674261358
1001
ACDBBLOCKREPETAG
1070
     1
1071
       53
1005
12D03C
  0
LINE
  5
12D03D
  8
OBJECT
 10
2045.6618002273251
 20
-137.99999999999909
 30
0.0
 11
2080.0
 21
-137.99999999999909
 31
0.0
1001
ACDBBLOCKREPETAG
1070
     1
1071
       54
1005
12D03D
  0
LINE
  5
12D03E
  8
OBJECT
 10
2062.0
 20
-261.99999999999909
 30
0.0
 11
2080.0
 21
-261.99999999999909
 31
0.0
1001
ACDBBLOCKREPETAG
1070
     1
1071
       55
1005
12D03E
  0
LINE
  5
12D03F
  8
OBJECT
 10
2062.0
 20
-261.99999999999909
 30
0.0
 11
2062.0
 21
-279.99999999999909
 31
0.0
1001
ACDBBLOCKREPETAG
1070
     1
1071
       57
1005
12D03F
  0
LINE
  5
12D040
  8
OBJECT
 10
1938.0
 20
-261.99999999999909
 30
0.0
 11
1938.0
 21
-279.99999999999909
 31
0.0
1001
ACDBBLOCKREPETAG
1070
     1
1071
       58
1005
12D040
  0
POINT
  5
12D041
  8
DOTS
 10
2000.0
 20
-199.99999999999909
 30
0.0
 50
90.0
1001
ACDBBLOCKREPETAG
1070
     1
1071
       59
1005
12D041
  0
LINE
  5
12D042
  8
OBJECT
 10
1938.0
 20
-261.99999999999909
 30
0.0
 11
1920.0
 21
-261.99999999999909
 31
0.0
1001
ACDBBLOCKREPETAG
1070
     1
1071
       60
1005
12D042
  0
LINE
  5
12D043
  8
OBJECT
 10
1954.3381997726749
 20
-137.99999999999909
 30
0.0
 11
1920.0
 21
-137.99999999999909
 31
0.0
1001
ACDBBLOCKREPETAG
1070
     1
1071
       61
1005
12D043
  0
LINE
  5
12D044
  8
OBJECT
 10
1945.5527778486351
 20
-254.44722215136329
 30
0.0
 11
1938.0
 21
-261.99999999999909
 31
0.0
1001
ACDBBLOCKREPETAG
1070
     1
1071
       42
1005
12D044
  0
LINE
  5
12D045
  8
OBJECT
 10
2054.4472221513638
 20
-254.44722215136329
 30
0.0
 11
2062.0
 21
-261.99999999999909
 31
0.0
1001
ACDBBLOCKREPETAG
1070
     1
1071
       43
1005
12D045
  0
TEXT
  5
12D046
  8
SLIM
 10
1837.75
 20
282.50000000000011
 30
0.0
 40
35.0
  1
（枝管サイズ毎に寸法が異なります。管底の位置は50～100で同じです）
 41
0.75
  0
TEXT
  5
12D047
  8
SLIM
 10
1850.0
 20
532.5
 30
0.0
 40
75.0
  1
側面図の代表機種
 41
0.75
  0
TEXT
  5
12D048
  8
SLIM
 10
1850.0
 20
369.99999999999989
 30
0.0
 40
100.0
  1
4SR2-B303-0（特注品）
 41
0.75
  0
CIRCLE
  5
12D049
  8
OBJECT
 10
535.99999999987813
 20
-2051.999999999367
 30
0.0
 40
70.0
1001
ACDBBLOCKREPETAG
1070
     1
1071
       43
1005
12D049
  0
CIRCLE
  5
12D04A
  8
OBJECT
 10
535.99999999987813
 20
-2051.999999999367
 30
0.0
 40
77.0
1001
ACDBBLOCKREPETAG
1070
     1
1071
       44
1005
12D04A
  0
ARC
  5
12D04B
  8
OBJECT
 10
535.99999999987813
 20
-2051.999999999367
 30
0.0
 40
80.0
 50
140.80503257378879
 51
219.19496742621121
1001
ACDBBLOCKREPETAG
1070
     1
1071
       45
1005
12D04B
  0
LINE
  5
12D04C
  8
OBJECT
 10
473.99999999987801
 20
-2006.338199772043
 30
0.0
 11
473.99999999987801
 21
-1971.999999999367
 31
0.0
1001
ACDBBLOCKREPETAG
1070
     1
1071
       46
1005
12D04C
  0
LINE
  5
12D04D
  8
OBJECT
 10
597.99999999987813
 20
-1989.999999999367
 30
0.0
 11
597.99999999987813
 21
-1971.999999999367
 31
0.0
1001
ACDBBLOCKREPETAG
1070
     1
1071
       22
1005
12D04D
  0
LINE
  5
12D04E
  8
OBJECT
 10
597.99999999987813
 20
-1989.999999999367
 30
0.0
 11
615.99999999987813
 21
-1989.999999999367
 31
0.0
1001
ACDBBLOCKREPETAG
1070
     1
1071
       24
1005
12D04E
  0
LINE
  5
12D04F
  8
OBJECT
 10
597.99999999987813
 20
-2113.999999999367
 30
0.0
 11
615.99999999987813
 21
-2113.999999999367
 31
0.0
1001
ACDBBLOCKREPETAG
1070
     1
1071
       25
1005
12D04F
  0
LINE
  5
12D050
  8
OBJECT
 10
597.99999999987813
 20
-2113.999999999367
 30
0.0
 11
597.99999999987813
 21
-2131.999999999367
 31
0.0
1001
ACDBBLOCKREPETAG
1070
     1
1071
       27
1005
12D050
  0
LINE
  5
12D051
  8
OBJECT
 10
473.99999999987801
 20
-2097.6618002266919
 30
0.0
 11
473.99999999987801
 21
-2131.999999999367
 31
0.0
1001
ACDBBLOCKREPETAG
1070
     1
1071
       28
1005
12D051
  0
LINE
  5
12D052
  8
OBJECT
 10
590.44722215124227
 20
-2106.4472221507308
 30
0.0
 11
597.99999999987813
 21
-2113.999999999367
 31
0.0
1001
ACDBBLOCKREPETAG
1070
     1
1071
       37
1005
12D052
  0
LINE
  5
12D053
  8
OBJECT
 10
590.44722215124227
 20
-1997.552777848003
 30
0.0
 11
597.99999999987813
 21
-1989.999999999367
 31
0.0
1001
ACDBBLOCKREPETAG
1070
     1
1071
       38
1005
12D053
  0
POINT
  5
12D054
  8
DOTS
 10
535.99999999987813
 20
-2051.999999999367
 30
0.0
1001
ACDBBLOCKREPETAG
1070
     1
1071
       39
1005
12D054
  0
CIRCLE
  5
12D055
  8
OBJECT
 10
535.99999999987813
 20
-2051.999999999367
 30
0.0
 40
53.5
1001
ACDBBLOCKREPETAG
1070
     1
1071
      153
1005
12D055
  0
CIRCLE
  5
12D056
  8
OBJECT
 10
176.0
 20
-2051.999999999367
 30
0.0
 40
70.0
1001
ACDBBLOCKREPETAG
1070
     1
1071
       43
1005
12D056
  0
CIRCLE
  5
12D057
  8
OBJECT
 10
176.0
 20
-2051.999999999367
 30
0.0
 40
77.0
1001
ACDBBLOCKREPETAG
1070
     1
1071
       44
1005
12D057
  0
ARC
  5
12D058
  8
OBJECT
 10
176.0
 20
-2051.999999999367
 30
0.0
 40
80.0
 50
140.80503257378979
 51
219.1949674262101
1001
ACDBBLOCKREPETAG
1070
     1
1071
       45
1005
12D058
  0
LINE
  5
12D059
  8
OBJECT
 10
114.0
 20
-2006.338199772043
 30
0.0
 11
114.0
 21
-1971.999999999367
 31
0.0
1001
ACDBBLOCKREPETAG
1070
     1
1071
       46
1005
12D059
  0
LINE
  5
12D05A
  8
OBJECT
 10
238.0
 20
-1989.999999999367
 30
0.0
 11
238.0
 21
-1971.999999999367
 31
0.0
1001
ACDBBLOCKREPETAG
1070
     1
1071
       22
1005
12D05A
  0
LINE
  5
12D05B
  8
OBJECT
 10
238.0
 20
-1989.999999999367
 30
0.0
 11
256.0
 21
-1989.999999999367
 31
0.0
1001
ACDBBLOCKREPETAG
1070
     1
1071
       24
1005
12D05B
  0
LINE
  5
12D05C
  8
OBJECT
 10
238.0
 20
-2113.999999999367
 30
0.0
 11
256.0
 21
-2113.999999999367
 31
0.0
1001
ACDBBLOCKREPETAG
1070
     1
1071
       25
1005
12D05C
  0
LINE
  5
12D05D
  8
OBJECT
 10
238.0
 20
-2113.999999999367
 30
0.0
 11
238.0
 21
-2131.999999999367
 31
0.0
1001
ACDBBLOCKREPETAG
1070
     1
1071
       27
1005
12D05D
  0
LINE
  5
12D05E
  8
OBJECT
 10
114.0
 20
-2097.6618002266919
 30
0.0
 11
114.0
 21
-2131.999999999367
 31
0.0
1001
ACDBBLOCKREPETAG
1070
     1
1071
       28
1005
12D05E
  0
LINE
  5
12D05F
  8
OBJECT
 10
230.44722215136429
 20
-2106.4472221507308
 30
0.0
 11
238.0
 21
-2113.999999999367
 31
0.0
1001
ACDBBLOCKREPETAG
1070
     1
1071
       37
1005
12D05F
  0
LINE
  5
12D060
  8
OBJECT
 10
230.44722215136429
 20
-1997.552777848003
 30
0.0
 11
238.0
 21
-1989.999999999367
 31
0.0
1001
ACDBBLOCKREPETAG
1070
     1
1071
       38
1005
12D060
  0
POINT
  5
12D061
  8
DOTS
 10
176.0
 20
-2051.999999999367
 30
0.0
1001
ACDBBLOCKREPETAG
1070
     1
1071
       39
1005
12D061
  0
CIRCLE
  5
12D062
  8
OBJECT
 10
176.0
 20
-2051.999999999367
 30
0.0
 40
53.5
1001
ACDBBLOCKREPETAG
1070
     1
1071
      153
1005
12D062
  0
CIRCLE
  5
12D063
  8
OBJECT
 10
535.99999999987813
 20
-1587.999999999525
 30
0.0
 40
70.0
1001
ACDBBLOCKREPETAG
1070
     1
1071
       43
1005
12D063
  0
CIRCLE
  5
12D064
  8
OBJECT
 10
535.99999999987813
 20
-1587.999999999525
 30
0.0
 40
77.0
1001
ACDBBLOCKREPETAG
1070
     1
1071
       44
1005
12D064
  0
ARC
  5
12D065
  8
OBJECT
 10
535.99999999987813
 20
-1587.999999999525
 30
0.0
 40
80.0
 50
140.8050325737787
 51
219.1949674262213
1001
ACDBBLOCKREPETAG
1070
     1
1071
       45
1005
12D065
  0
LINE
  5
12D066
  8
OBJECT
 10
473.99999999987801
 20
-1542.3381997722011
 30
0.0
 11
473.99999999987801
 21
-1507.999999999525
 31
0.0
1001
ACDBBLOCKREPETAG
1070
     1
1071
       46
1005
12D066
  0
LINE
  5
12D067
  8
OBJECT
 10
597.99999999987813
 20
-1525.999999999525
 30
0.0
 11
597.99999999987813
 21
-1507.999999999525
 31
0.0
1001
ACDBBLOCKREPETAG
1070
     1
1071
       22
1005
12D067
  0
LINE
  5
12D068
  8
OBJECT
 10
597.99999999987813
 20
-1525.999999999525
 30
0.0
 11
615.99999999987813
 21
-1525.999999999525
 31
0.0
1001
ACDBBLOCKREPETAG
1070
     1
1071
       24
1005
12D068
  0
LINE
  5
12D069
  8
OBJECT
 10
597.99999999987813
 20
-1649.999999999525
 30
0.0
 11
615.99999999987813
 21
-1649.999999999525
 31
0.0
1001
ACDBBLOCKREPETAG
1070
     1
1071
       25
1005
12D069
  0
LINE
  5
12D06A
  8
OBJECT
 10
597.99999999987813
 20
-1649.999999999525
 30
0.0
 11
597.99999999987813
 21
-1667.999999999525
 31
0.0
1001
ACDBBLOCKREPETAG
1070
     1
1071
       27
1005
12D06A
  0
LINE
  5
12D06B
  8
OBJECT
 10
473.99999999987801
 20
-1633.6618002268499
 30
0.0
 11
473.99999999987801
 21
-1667.999999999525
 31
0.0
1001
ACDBBLOCKREPETAG
1070
     1
1071
       28
1005
12D06B
  0
LINE
  5
12D06C
  8
OBJECT
 10
590.44722215124227
 20
-1642.447222150889
 30
0.0
 11
597.99999999987813
 21
-1649.999999999525
 31
0.0
1001
ACDBBLOCKREPETAG
1070
     1
1071
       37
1005
12D06C
  0
LINE
  5
12D06D
  8
OBJECT
 10
590.44722215124227
 20
-1533.552777848161
 30
0.0
 11
597.99999999987813
 21
-1525.999999999525
 31
0.0
1001
ACDBBLOCKREPETAG
1070
     1
1071
       38
1005
12D06D
  0
POINT
  5
12D06E
  8
DOTS
 10
535.99999999987813
 20
-1587.999999999525
 30
0.0
1001
ACDBBLOCKREPETAG
1070
     1
1071
       39
1005
12D06E
  0
CIRCLE
  5
12D06F
  8
OBJECT
 10
535.99999999987813
 20
-1587.999999999525
 30
0.0
 40
53.5
1001
ACDBBLOCKREPETAG
1070
     1
1071
      153
1005
12D06F
  0
CIRCLE
  5
12D070
  8
OBJECT
 10
176.0
 20
-1587.999999999525
 30
0.0
 40
70.0
1001
ACDBBLOCKREPETAG
1070
     1
1071
       43
1005
12D070
  0
CIRCLE
  5
12D071
  8
OBJECT
 10
176.0
 20
-1587.999999999525
 30
0.0
 40
77.0
1001
ACDBBLOCKREPETAG
1070
     1
1071
       44
1005
12D071
  0
ARC
  5
12D072
  8
OBJECT
 10
176.0
 20
-1587.999999999525
 30
0.0
 40
80.0
 50
140.80503257377961
 51
219.1949674262203
1001
ACDBBLOCKREPETAG
1070
     1
1071
       45
1005
12D072
  0
LINE
  5
12D073
  8
OBJECT
 10
114.0
 20
-1542.3381997722011
 30
0.0
 11
114.0
 21
-1507.999999999525
 31
0.0
1001
ACDBBLOCKREPETAG
1070
     1
1071
       46
1005
12D073
  0
LINE
  5
12D074
  8
OBJECT
 10
238.0
 20
-1525.999999999525
 30
0.0
 11
238.0
 21
-1507.999999999525
 31
0.0
1001
ACDBBLOCKREPETAG
1070
     1
1071
       22
1005
12D074
  0
LINE
  5
12D075
  8
OBJECT
 10
238.0
 20
-1525.999999999525
 30
0.0
 11
256.0
 21
-1525.999999999525
 31
0.0
1001
ACDBBLOCKREPETAG
1070
     1
1071
       24
1005
12D075
  0
LINE
  5
12D076
  8
OBJECT
 10
238.0
 20
-1649.999999999525
 30
0.0
 11
256.0
 21
-1649.999999999525
 31
0.0
1001
ACDBBLOCKREPETAG
1070
     1
1071
       25
1005
12D076
  0
LINE
  5
12D077
  8
OBJECT
 10
238.0
 20
-1649.999999999525
 30
0.0
 11
238.0
 21
-1667.999999999525
 31
0.0
1001
ACDBBLOCKREPETAG
1070
     1
1071
       27
1005
12D077
  0
LINE
  5
12D078
  8
OBJECT
 10
114.0
 20
-1633.6618002268499
 30
0.0
 11
114.0
 21
-1667.999999999525
 31
0.0
1001
ACDBBLOCKREPETAG
1070
     1
1071
       28
1005
12D078
  0
LINE
  5
12D079
  8
OBJECT
 10
230.44722215136429
 20
-1642.447222150889
 30
0.0
 11
238.0
 21
-1649.999999999525
 31
0.0
1001
ACDBBLOCKREPETAG
1070
     1
1071
       37
1005
12D079
  0
LINE
  5
12D07A
  8
OBJECT
 10
230.44722215136429
 20
-1533.552777848161
 30
0.0
 11
238.0
 21
-1525.999999999525
 31
0.0
1001
ACDBBLOCKREPETAG
1070
     1
1071
       38
1005
12D07A
  0
POINT
  5
12D07B
  8
DOTS
 10
176.0
 20
-1587.999999999525
 30
0.0
1001
ACDBBLOCKREPETAG
1070
     1
1071
       39
1005
12D07B
  0
CIRCLE
  5
12D07C
  8
OBJECT
 10
176.0
 20
-1587.999999999525
 30
0.0
 40
53.5
1001
ACDBBLOCKREPETAG
1070
     1
1071
      153
1005
12D07C
  0
CIRCLE
  5
12D07D
  8
OBJECT
 10
535.99999999987813
 20
-1123.999999999684
 30
0.0
 40
70.0
1001
ACDBBLOCKREPETAG
1070
     1
1071
       43
1005
12D07D
  0
CIRCLE
  5
12D07E
  8
OBJECT
 10
535.99999999987813
 20
-1123.999999999684
 30
0.0
 40
77.0
1001
ACDBBLOCKREPETAG
1070
     1
1071
       44
1005
12D07E
  0
ARC
  5
12D07F
  8
OBJECT
 10
535.99999999987813
 20
-1123.999999999684
 30
0.0
 40
80.0
 50
140.8050325737787
 51
219.1949674262213
1001
ACDBBLOCKREPETAG
1070
     1
1071
       45
1005
12D07F
  0
LINE
  5
12D080
  8
OBJECT
 10
473.99999999987801
 20
-1078.3381997723591
 30
0.0
 11
473.99999999987801
 21
-1043.999999999684
 31
0.0
1001
ACDBBLOCKREPETAG
1070
     1
1071
       46
1005
12D080
  0
LINE
  5
12D081
  8
OBJECT
 10
597.99999999987813
 20
-1061.999999999684
 30
0.0
 11
597.99999999987813
 21
-1043.999999999684
 31
0.0
1001
ACDBBLOCKREPETAG
1070
     1
1071
       22
1005
12D081
  0
LINE
  5
12D082
  8
OBJECT
 10
597.99999999987813
 20
-1061.999999999684
 30
0.0
 11
615.99999999987813
 21
-1061.999999999684
 31
0.0
1001
ACDBBLOCKREPETAG
1070
     1
1071
       24
1005
12D082
  0
LINE
  5
12D083
  8
OBJECT
 10
597.99999999987813
 20
-1185.999999999683
 30
0.0
 11
615.99999999987813
 21
-1185.999999999683
 31
0.0
1001
ACDBBLOCKREPETAG
1070
     1
1071
       25
1005
12D083
  0
LINE
  5
12D084
  8
OBJECT
 10
597.99999999987813
 20
-1185.999999999683
 30
0.0
 11
597.99999999987813
 21
-1203.999999999683
 31
0.0
1001
ACDBBLOCKREPETAG
1070
     1
1071
       27
1005
12D084
  0
LINE
  5
12D085
  8
OBJECT
 10
473.99999999987801
 20
-1169.6618002270079
 30
0.0
 11
473.99999999987801
 21
-1203.999999999683
 31
0.0
1001
ACDBBLOCKREPETAG
1070
     1
1071
       28
1005
12D085
  0
LINE
  5
12D086
  8
OBJECT
 10
590.44722215124227
 20
-1178.447222151048
 30
0.0
 11
597.99999999987813
 21
-1185.999999999683
 31
0.0
1001
ACDBBLOCKREPETAG
1070
     1
1071
       37
1005
12D086
  0
LINE
  5
12D087
  8
OBJECT
 10
590.44722215124227
 20
-1069.552777848319
 30
0.0
 11
597.99999999987813
 21
-1061.999999999684
 31
0.0
1001
ACDBBLOCKREPETAG
1070
     1
1071
       38
1005
12D087
  0
POINT
  5
12D088
  8
DOTS
 10
535.99999999987813
 20
-1123.999999999684
 30
0.0
1001
ACDBBLOCKREPETAG
1070
     1
1071
       39
1005
12D088
  0
CIRCLE
  5
12D089
  8
OBJECT
 10
535.99999999987813
 20
-1123.999999999684
 30
0.0
 40
53.5
1001
ACDBBLOCKREPETAG
1070
     1
1071
      153
1005
12D089
  0
CIRCLE
  5
12D08A
  8
OBJECT
 10
175.9999999999998
 20
-1123.999999999684
 30
0.0
 40
70.0
1001
ACDBBLOCKREPETAG
1070
     1
1071
       43
1005
12D08A
  0
CIRCLE
  5
12D08B
  8
OBJECT
 10
175.9999999999998
 20
-1123.999999999684
 30
0.0
 40
77.0
1001
ACDBBLOCKREPETAG
1070
     1
1071
       44
1005
12D08B
  0
ARC
  5
12D08C
  8
OBJECT
 10
175.9999999999998
 20
-1123.999999999684
 30
0.0
 40
80.0
 50
140.80503257377961
 51
219.1949674262203
1001
ACDBBLOCKREPETAG
1070
     1
1071
       45
1005
12D08C
  0
LINE
  5
12D08D
  8
OBJECT
 10
113.9999999999998
 20
-1078.3381997723591
 30
0.0
 11
113.9999999999998
 21
-1043.999999999684
 31
0.0
1001
ACDBBLOCKREPETAG
1070
     1
1071
       46
1005
12D08D
  0
LINE
  5
12D08E
  8
OBJECT
 10
237.99999999999989
 20
-1061.999999999684
 30
0.0
 11
237.99999999999989
 21
-1043.999999999684
 31
0.0
1001
ACDBBLOCKREPETAG
1070
     1
1071
       22
1005
12D08E
  0
LINE
  5
12D08F
  8
OBJECT
 10
237.99999999999989
 20
-1061.999999999684
 30
0.0
 11
255.9999999999998
 21
-1061.999999999684
 31
0.0
1001
ACDBBLOCKREPETAG
1070
     1
1071
       24
1005
12D08F
  0
LINE
  5
12D090
  8
OBJECT
 10
237.99999999999989
 20
-1185.999999999684
 30
0.0
 11
255.9999999999998
 21
-1185.999999999684
 31
0.0
1001
ACDBBLOCKREPETAG
1070
     1
1071
       25
1005
12D090
  0
LINE
  5
12D091
  8
OBJECT
 10
237.99999999999989
 20
-1185.999999999684
 30
0.0
 11
237.99999999999989
 21
-1203.999999999684
 31
0.0
1001
ACDBBLOCKREPETAG
1070
     1
1071
       27
1005
12D091
  0
LINE
  5
12D092
  8
OBJECT
 10
113.9999999999998
 20
-1169.6618002270079
 30
0.0
 11
113.9999999999998
 21
-1203.999999999684
 31
0.0
1001
ACDBBLOCKREPETAG
1070
     1
1071
       28
1005
12D092
  0
LINE
  5
12D093
  8
OBJECT
 10
230.44722215136409
 20
-1178.447222151048
 30
0.0
 11
237.99999999999989
 21
-1185.999999999684
 31
0.0
1001
ACDBBLOCKREPETAG
1070
     1
1071
       37
1005
12D093
  0
LINE
  5
12D094
  8
OBJECT
 10
230.44722215136409
 20
-1069.552777848319
 30
0.0
 11
237.99999999999989
 21
-1061.999999999684
 31
0.0
1001
ACDBBLOCKREPETAG
1070
     1
1071
       38
1005
12D094
  0
POINT
  5
12D095
  8
DOTS
 10
175.9999999999998
 20
-1123.999999999684
 30
0.0
1001
ACDBBLOCKREPETAG
1070
     1
1071
       39
1005
12D095
  0
CIRCLE
  5
12D096
  8
OBJECT
 10
175.9999999999998
 20
-1123.999999999684
 30
0.0
 40
53.5
1001
ACDBBLOCKREPETAG
1070
     1
1071
      153
1005
12D096
  0
CIRCLE
  5
12D097
  8
OBJECT
 10
535.99999999987813
 20
-659.99999999984175
 30
0.0
 40
70.0
1001
ACDBBLOCKREPETAG
1070
     1
1071
       43
1005
12D097
  0
CIRCLE
  5
12D098
  8
OBJECT
 10
535.99999999987813
 20
-659.99999999984175
 30
0.0
 40
77.0
1001
ACDBBLOCKREPETAG
1070
     1
1071
       44
1005
12D098
  0
ARC
  5
12D099
  8
OBJECT
 10
535.99999999987813
 20
-659.99999999984175
 30
0.0
 40
80.0
 50
140.8050325737787
 51
219.1949674262213
1001
ACDBBLOCKREPETAG
1070
     1
1071
       45
1005
12D099
  0
LINE
  5
12D09A
  8
OBJECT
 10
473.99999999987801
 20
-614.33819977251721
 30
0.0
 11
473.99999999987801
 21
-579.99999999984175
 31
0.0
1001
ACDBBLOCKREPETAG
1070
     1
1071
       46
1005
12D09A
  0
LINE
  5
12D09B
  8
OBJECT
 10
597.99999999987813
 20
-597.99999999984175
 30
0.0
 11
597.99999999987813
 21
-579.99999999984175
 31
0.0
1001
ACDBBLOCKREPETAG
1070
     1
1071
       22
1005
12D09B
  0
LINE
  5
12D09C
  8
OBJECT
 10
597.99999999987813
 20
-597.99999999984175
 30
0.0
 11
615.99999999987813
 21
-597.99999999984175
 31
0.0
1001
ACDBBLOCKREPETAG
1070
     1
1071
       24
1005
12D09C
  0
LINE
  5
12D09D
  8
OBJECT
 10
597.99999999987813
 20
-721.99999999984175
 30
0.0
 11
615.99999999987813
 21
-721.99999999984175
 31
0.0
1001
ACDBBLOCKREPETAG
1070
     1
1071
       25
1005
12D09D
  0
LINE
  5
12D09E
  8
OBJECT
 10
597.99999999987813
 20
-721.99999999984175
 30
0.0
 11
597.99999999987813
 21
-739.99999999984175
 31
0.0
1001
ACDBBLOCKREPETAG
1070
     1
1071
       27
1005
12D09E
  0
LINE
  5
12D09F
  8
OBJECT
 10
473.99999999987801
 20
-705.66180022716617
 30
0.0
 11
473.99999999987801
 21
-739.99999999984175
 31
0.0
1001
ACDBBLOCKREPETAG
1070
     1
1071
       28
1005
12D09F
  0
LINE
  5
12D0A0
  8
OBJECT
 10
590.44722215124227
 20
-714.44722215120601
 30
0.0
 11
597.99999999987813
 21
-721.99999999984175
 31
0.0
1001
ACDBBLOCKREPETAG
1070
     1
1071
       37
1005
12D0A0
  0
LINE
  5
12D0A1
  8
OBJECT
 10
590.44722215124227
 20
-605.55277784847738
 30
0.0
 11
597.99999999987813
 21
-597.99999999984175
 31
0.0
1001
ACDBBLOCKREPETAG
1070
     1
1071
       38
1005
12D0A1
  0
POINT
  5
12D0A2
  8
DOTS
 10
535.99999999987813
 20
-659.99999999984175
 30
0.0
1001
ACDBBLOCKREPETAG
1070
     1
1071
       39
1005
12D0A2
  0
CIRCLE
  5
12D0A3
  8
OBJECT
 10
535.99999999987813
 20
-659.99999999984175
 30
0.0
 40
53.5
1001
ACDBBLOCKREPETAG
1070
     1
1071
      153
1005
12D0A3
  0
CIRCLE
  5
12D0A4
  8
OBJECT
 10
176.0
 20
-659.99999999984175
 30
0.0
 40
70.0
1001
ACDBBLOCKREPETAG
1070
     1
1071
       43
1005
12D0A4
  0
CIRCLE
  5
12D0A5
  8
OBJECT
 10
176.0
 20
-659.99999999984175
 30
0.0
 40
77.0
1001
ACDBBLOCKREPETAG
1070
     1
1071
       44
1005
12D0A5
  0
ARC
  5
12D0A6
  8
OBJECT
 10
176.0
 20
-659.99999999984175
 30
0.0
 40
80.0
 50
140.80503257377961
 51
219.1949674262203
1001
ACDBBLOCKREPETAG
1070
     1
1071
       45
1005
12D0A6
  0
LINE
  5
12D0A7
  8
OBJECT
 10
114.0
 20
-614.33819977251721
 30
0.0
 11
114.0
 21
-579.99999999984175
 31
0.0
1001
ACDBBLOCKREPETAG
1070
     1
1071
       46
1005
12D0A7
  0
LINE
  5
12D0A8
  8
OBJECT
 10
238.0
 20
-597.99999999984175
 30
0.0
 11
238.0
 21
-579.99999999984175
 31
0.0
1001
ACDBBLOCKREPETAG
1070
     1
1071
       22
1005
12D0A8
  0
LINE
  5
12D0A9
  8
OBJECT
 10
238.0
 20
-597.99999999984175
 30
0.0
 11
256.0
 21
-597.99999999984175
 31
0.0
1001
ACDBBLOCKREPETAG
1070
     1
1071
       24
1005
12D0A9
  0
LINE
  5
12D0AA
  8
OBJECT
 10
238.0
 20
-721.99999999984175
 30
0.0
 11
256.0
 21
-721.99999999984175
 31
0.0
1001
ACDBBLOCKREPETAG
1070
     1
1071
       25
1005
12D0AA
  0
LINE
  5
12D0AB
  8
OBJECT
 10
238.0
 20
-721.99999999984175
 30
0.0
 11
238.0
 21
-739.99999999984175
 31
0.0
1001
ACDBBLOCKREPETAG
1070
     1
1071
       27
1005
12D0AB
  0
LINE
  5
12D0AC
  8
OBJECT
 10
114.0
 20
-705.66180022716617
 30
0.0
 11
114.0
 21
-739.99999999984175
 31
0.0
1001
ACDBBLOCKREPETAG
1070
     1
1071
       28
1005
12D0AC
  0
LINE
  5
12D0AD
  8
OBJECT
 10
230.44722215136429
 20
-714.44722215120601
 30
0.0
 11
238.0
 21
-721.99999999984175
 31
0.0
1001
ACDBBLOCKREPETAG
1070
     1
1071
       37
1005
12D0AD
  0
LINE
  5
12D0AE
  8
OBJECT
 10
230.44722215136429
 20
-605.55277784847738
 30
0.0
 11
238.0
 21
-597.99999999984175
 31
0.0
1001
ACDBBLOCKREPETAG
1070
     1
1071
       38
1005
12D0AE
  0
POINT
  5
12D0AF
  8
DOTS
 10
176.0
 20
-659.99999999984175
 30
0.0
1001
ACDBBLOCKREPETAG
1070
     1
1071
       39
1005
12D0AF
  0
CIRCLE
  5
12D0B0
  8
OBJECT
 10
176.0
 20
-659.99999999984175
 30
0.0
 40
53.5
1001
ACDBBLOCKREPETAG
1070
     1
1071
      153
1005
12D0B0
  0
CIRCLE
  5
12D0B1
  8
OBJECT
 10
535.99999999987813
 20
-196.0
 30
0.0
 40
70.0
1001
ACDBBLOCKREPETAG
1070
     1
1071
       43
1005
12D0B1
  0
CIRCLE
  5
12D0B2
  8
OBJECT
 10
535.99999999987813
 20
-196.0
 30
0.0
 40
77.0
1001
ACDBBLOCKREPETAG
1070
     1
1071
       44
1005
12D0B2
  0
ARC
  5
12D0B3
  8
OBJECT
 10
535.99999999987813
 20
-196.0
 30
0.0
 40
80.0
 50
140.80503257378001
 51
219.19496742621999
1001
ACDBBLOCKREPETAG
1070
     1
1071
       45
1005
12D0B3
  0
LINE
  5
12D0B4
  8
OBJECT
 10
473.99999999987801
 20
-150.33819977267541
 30
0.0
 11
473.99999999987801
 21
-116.0
 31
0.0
1001
ACDBBLOCKREPETAG
1070
     1
1071
       46
1005
12D0B4
  0
LINE
  5
12D0B5
  8
OBJECT
 10
597.99999999987813
 20
-134.0
 30
0.0
 11
597.99999999987813
 21
-116.0
 31
0.0
1001
ACDBBLOCKREPETAG
1070
     1
1071
       22
1005
12D0B5
  0
LINE
  5
12D0B6
  8
OBJECT
 10
597.99999999987813
 20
-134.0
 30
0.0
 11
615.99999999987813
 21
-134.0
 31
0.0
1001
ACDBBLOCKREPETAG
1070
     1
1071
       24
1005
12D0B6
  0
LINE
  5
12D0B7
  8
OBJECT
 10
597.99999999987813
 20
-258.0
 30
0.0
 11
615.99999999987813
 21
-258.0
 31
0.0
1001
ACDBBLOCKREPETAG
1070
     1
1071
       25
1005
12D0B7
  0
LINE
  5
12D0B8
  8
OBJECT
 10
597.99999999987813
 20
-258.0
 30
0.0
 11
597.99999999987813
 21
-276.0
 31
0.0
1001
ACDBBLOCKREPETAG
1070
     1
1071
       27
1005
12D0B8
  0
LINE
  5
12D0B9
  8
OBJECT
 10
473.99999999987801
 20
-241.66180022732439
 30
0.0
 11
473.99999999987801
 21
-276.0
 31
0.0
1001
ACDBBLOCKREPETAG
1070
     1
1071
       28
1005
12D0B9
  0
LINE
  5
12D0BA
  8
OBJECT
 10
590.44722215124227
 20
-250.44722215136429
 30
0.0
 11
597.99999999987813
 21
-258.0
 31
0.0
1001
ACDBBLOCKREPETAG
1070
     1
1071
       37
1005
12D0BA
  0
LINE
  5
12D0BB
  8
OBJECT
 10
590.44722215124227
 20
-141.55277784863571
 30
0.0
 11
597.99999999987813
 21
-134.0
 31
0.0
1001
ACDBBLOCKREPETAG
1070
     1
1071
       38
1005
12D0BB
  0
POINT
  5
12D0BC
  8
DOTS
 10
535.99999999987813
 20
-196.0
 30
0.0
1001
ACDBBLOCKREPETAG
1070
     1
1071
       39
1005
12D0BC
  0
CIRCLE
  5
12D0BD
  8
OBJECT
 10
535.99999999987813
 20
-196.0
 30
0.0
 40
53.5
1001
ACDBBLOCKREPETAG
1070
     1
1071
      153
1005
12D0BD
  0
CIRCLE
  5
12D0BE
  8
OBJECT
 10
176.0
 20
-196.0
 30
0.0
 40
70.0
1001
ACDBBLOCKREPETAG
1070
     1
1071
       43
1005
12D0BE
  0
CIRCLE
  5
12D0BF
  8
OBJECT
 10
176.0
 20
-196.0
 30
0.0
 40
77.0
1001
ACDBBLOCKREPETAG
1070
     1
1071
       44
1005
12D0BF
  0
ARC
  5
12D0C0
  8
OBJECT
 10
176.0
 20
-196.0
 30
0.0
 40
80.0
 50
140.80503257378101
 51
219.19496742621899
1001
ACDBBLOCKREPETAG
1070
     1
1071
       45
1005
12D0C0
  0
LINE
  5
12D0C1
  8
OBJECT
 10
114.0
 20
-150.33819977267541
 30
0.0
 11
114.0
 21
-116.0
 31
0.0
1001
ACDBBLOCKREPETAG
1070
     1
1071
       46
1005
12D0C1
  0
LINE
  5
12D0C2
  8
OBJECT
 10
238.0
 20
-134.0
 30
0.0
 11
238.0
 21
-116.0
 31
0.0
1001
ACDBBLOCKREPETAG
1070
     1
1071
       22
1005
12D0C2
  0
LINE
  5
12D0C3
  8
OBJECT
 10
238.0
 20
-134.0
 30
0.0
 11
256.0
 21
-134.0
 31
0.0
1001
ACDBBLOCKREPETAG
1070
     1
1071
       24
1005
12D0C3
  0
LINE
  5
12D0C4
  8
OBJECT
 10
238.0
 20
-258.0
 30
0.0
 11
256.0
 21
-258.0
 31
0.0
1001
ACDBBLOCKREPETAG
1070
     1
1071
       25
1005
12D0C4
  0
LINE
  5
12D0C5
  8
OBJECT
 10
238.0
 20
-258.0
 30
0.0
 11
238.0
 21
-276.0
 31
0.0
1001
ACDBBLOCKREPETAG
1070
     1
1071
       27
1005
12D0C5
  0
LINE
  5
12D0C6
  8
OBJECT
 10
114.0
 20
-241.66180022732439
 30
0.0
 11
114.0
 21
-276.0
 31
0.0
1001
ACDBBLOCKREPETAG
1070
     1
1071
       28
1005
12D0C6
  0
LINE
  5
12D0C7
  8
OBJECT
 10
230.44722215136429
 20
-250.44722215136429
 30
0.0
 11
238.0
 21
-258.0
 31
0.0
1001
ACDBBLOCKREPETAG
1070
     1
1071
       37
1005
12D0C7
  0
LINE
  5
12D0C8
  8
OBJECT
 10
230.44722215136429
 20
-141.55277784863571
 30
0.0
 11
238.0
 21
-134.0
 31
0.0
1001
ACDBBLOCKREPETAG
1070
     1
1071
       38
1005
12D0C8
  0
POINT
  5
12D0C9
  8
DOTS
 10
176.0
 20
-196.0
 30
0.0
1001
ACDBBLOCKREPETAG
1070
     1
1071
       39
1005
12D0C9
  0
CIRCLE
  5
12D0CA
  8
OBJECT
 10
176.0
 20
-196.0
 30
0.0
 40
53.5
1001
ACDBBLOCKREPETAG
1070
     1
1071
      153
1005
12D0CA
  0
LINE
  5
12D0CB
  8
OBJECT
 10
3867.0
 20
-261.99999999999909
 30
0.0
 11
3860.0
 21
-261.99999999999909
 31
0.0
1001
ACDBBLOCKREPETAG
1070
     1
1071
       47
1005
12D0CB
  0
LINE
  5
12D0CC
  8
OBJECT
 10
3860.0
 20
-261.99999999999909
 30
0.0
 11
3860.0
 21
-137.99999999999909
 31
0.0
1001
ACDBBLOCKREPETAG
1070
     1
1071
       48
1005
12D0CC
  0
LINE
  5
12D0CD
  8
OBJECT
 10
3860.0
 20
-137.99999999999909
 30
0.0
 11
3867.0
 21
-137.99999999999909
 31
0.0
1001
ACDBBLOCKREPETAG
1070
     1
1071
       49
1005
12D0CD
  0
LINE
  5
12D0CE
  8
OBJECT
 10
3867.0
 20
-137.99999999999909
 30
0.0
 11
3867.0
 21
-261.99999999999909
 31
0.0
1001
ACDBBLOCKREPETAG
1070
     1
1071
       50
1005
12D0CE
  0
LINE
  5
12D0CF
  8
CENTER
 10
3845.0
 20
-199.99999999999909
 30
0.0
 11
3920.0
 21
-199.99999999999909
 31
0.0
1001
ACDBBLOCKREPETAG
1070
     1
1071
       51
1005
12D0CF
  0
LINE
  5
12D0D0
  8
OBJECT
 10
3867.0
 20
-258.99999999999909
 30
0.0
 11
3903.0
 21
-258.99999999999909
 31
0.0
1001
ACDBBLOCKREPETAG
1070
     1
1071
       52
1005
12D0D0
  0
LINE
  5
12D0D1
  8
OBJECT
 10
3903.0
 20
-258.99999999999909
 30
0.0
 11
3903.0
 21
-140.99999999999909
 31
0.0
1001
ACDBBLOCKREPETAG
1070
     1
1071
       53
1005
12D0D1
  0
LINE
  5
12D0D2
  8
OBJECT
 10
3903.0
 20
-140.99999999999909
 30
0.0
 11
3867.0
 21
-140.99999999999909
 31
0.0
1001
ACDBBLOCKREPETAG
1070
     1
1071
       54
1005
12D0D2
  0
LINE
  5
12D0D3
  8
OBJECT
 10
3907.0
 20
-254.49999999999909
 30
0.0
 11
3914.0
 21
-254.49999999999909
 31
0.0
1001
ACDBBLOCKREPETAG
1070
     1
1071
       55
1005
12D0D3
  0
LINE
  5
12D0D4
  8
OBJECT
 10
3914.0
 20
-145.49999999999909
 30
0.0
 11
3907.0
 21
-145.49999999999909
 31
0.0
1001
ACDBBLOCKREPETAG
1070
     1
1071
       56
1005
12D0D4
  0
LINE
  5
12D0D5
  8
OBJECT
 10
3907.0
 20
-145.49999999999909
 30
0.0
 11
3907.0
 21
-254.49999999999909
 31
0.0
1001
ACDBBLOCKREPETAG
1070
     1
1071
       57
1005
12D0D5
  0
LINE
  5
12D0D6
  8
OBJECT
 10
3903.0
 20
-258.99999999999909
 30
0.0
 11
3907.0
 21
-254.49999999999909
 31
0.0
1001
ACDBBLOCKREPETAG
1070
     1
1071
       58
1005
12D0D6
  0
LINE
  5
12D0D7
  8
OBJECT
 10
3903.0
 20
-140.99999999999909
 30
0.0
 11
3907.0
 21
-145.49999999999909
 31
0.0
1001
ACDBBLOCKREPETAG
1070
     1
1071
       59
1005
12D0D7
  0
LINE
  5
12D0D8
  8
OBJECT
 10
3917.0
 20
-261.99999999999909
 30
0.0
 11
3920.0
 21
-261.99999999999909
 31
0.0
1001
ACDBBLOCKREPETAG
1070
     1
1071
       60
1005
12D0D8
  0
ARC
  5
12D0D9
  8
OBJECT
 10
3917.0
 20
-258.99999999999909
 30
0.0
 40
3.0
 50
180.0
 51
270.0
1001
ACDBBLOCKREPETAG
1070
     1
1071
       61
1005
12D0D9
  0
LINE
  5
12D0DA
  8
OBJECT
 10
3920.0
 20
-137.99999999999909
 30
0.0
 11
3917.0
 21
-137.99999999999909
 31
0.0
1001
ACDBBLOCKREPETAG
1070
     1
1071
       62
1005
12D0DA
  0
ARC
  5
12D0DB
  8
OBJECT
 10
3917.0
 20
-140.99999999999909
 30
0.0
 40
3.0
 50
90.0
 51
180.0
1001
ACDBBLOCKREPETAG
1070
     1
1071
       63
1005
12D0DB
  0
LINE
  5
12D0DC
  8
OBJECT
 10
3914.0
 20
-140.99999999999909
 30
0.0
 11
3914.0
 21
-258.99999999999909
 31
0.0
1001
ACDBBLOCKREPETAG
1070
     1
1071
       64
1005
12D0DC
  0
LINE
  5
12D0DD
  8
HIDDEN
 10
3912.0
 20
-244.49999999999909
 30
0.0
 11
3912.0
 21
-155.49999999999909
 31
0.0
1001
ACDBBLOCKREPETAG
1070
     1
1071
       65
1005
12D0DD
  0
LINE
  5
12D0DE
  8
CENTER
 10
4000.0
 20
-300.99999999999898
 30
0.0
 11
4000.0
 21
-279.99999999999909
 31
0.0
1001
ACDBBLOCKREPETAG
1070
     1
1071
        0
1005
12D0DE
  0
LINE
  5
12D0DF
  8
OBJECT
 10
4062.0
 20
-283.0
 30
0.0
 11
4062.0
 21
-279.99999999999909
 31
0.0
1001
ACDBBLOCKREPETAG
1070
     1
1071
        1
1005
12D0DF
  0
ARC
  5
12D0E0
  8
OBJECT
 10
4059.0
 20
-283.0
 30
0.0
 40
3.0
 50
270.0
 51
0.0
1001
ACDBBLOCKREPETAG
1070
     1
1071
        2
1005
12D0E0
  0
LINE
  5
12D0E1
  8
OBJECT
 10
3938.0
 20
-279.99999999999909
 30
0.0
 11
3938.0
 21
-282.99999999999818
 31
0.0
1001
ACDBBLOCKREPETAG
1070
     1
1071
        3
1005
12D0E1
  0
ARC
  5
12D0E2
  8
OBJECT
 10
3941.0
 20
-282.99999999999818
 30
0.0
 40
3.0
 50
180.0
 51
270.0
1001
ACDBBLOCKREPETAG
1070
     1
1071
        4
1005
12D0E2
  0
LINE
  5
12D0E3
  8
OBJECT
 10
3941.0
 20
-285.99999999999818
 30
0.0
 11
4059.0
 21
-286.0
 31
0.0
1001
ACDBBLOCKREPETAG
1070
     1
1071
        5
1005
12D0E3
  0
LINE
  5
12D0E4
  8
OBJECT
 10
4133.0
 20
-137.99999999999909
 30
0.0
 11
4140.0
 21
-137.99999999999909
 31
0.0
1001
ACDBBLOCKREPETAG
1070
     1
1071
       47
1005
12D0E4
  0
LINE
  5
12D0E5
  8
OBJECT
 10
4140.0
 20
-137.99999999999909
 30
0.0
 11
4140.0
 21
-261.99999999999909
 31
0.0
1001
ACDBBLOCKREPETAG
1070
     1
1071
       48
1005
12D0E5
  0
LINE
  5
12D0E6
  8
OBJECT
 10
4140.0
 20
-261.99999999999909
 30
0.0
 11
4133.0
 21
-261.99999999999909
 31
0.0
1001
ACDBBLOCKREPETAG
1070
     1
1071
       49
1005
12D0E6
  0
LINE
  5
12D0E7
  8
OBJECT
 10
4133.0
 20
-261.99999999999909
 30
0.0
 11
4133.0
 21
-137.99999999999909
 31
0.0
1001
ACDBBLOCKREPETAG
1070
     1
1071
       50
1005
12D0E7
  0
LINE
  5
12D0E8
  8
CENTER
 10
4155.0
 20
-199.99999999999909
 30
0.0
 11
4080.0
 21
-199.99999999999909
 31
0.0
1001
ACDBBLOCKREPETAG
1070
     1
1071
       51
1005
12D0E8
  0
LINE
  5
12D0E9
  8
OBJECT
 10
4133.0
 20
-140.99999999999909
 30
0.0
 11
4097.0
 21
-140.99999999999909
 31
0.0
1001
ACDBBLOCKREPETAG
1070
     1
1071
       52
1005
12D0E9
  0
LINE
  5
12D0EA
  8
OBJECT
 10
4097.0
 20
-140.99999999999909
 30
0.0
 11
4097.0
 21
-258.99999999999909
 31
0.0
1001
ACDBBLOCKREPETAG
1070
     1
1071
       53
1005
12D0EA
  0
LINE
  5
12D0EB
  8
OBJECT
 10
4097.0
 20
-258.99999999999909
 30
0.0
 11
4133.0
 21
-258.99999999999909
 31
0.0
1001
ACDBBLOCKREPETAG
1070
     1
1071
       54
1005
12D0EB
  0
LINE
  5
12D0EC
  8
OBJECT
 10
4093.0
 20
-145.49999999999909
 30
0.0
 11
4086.0
 21
-145.49999999999909
 31
0.0
1001
ACDBBLOCKREPETAG
1070
     1
1071
       55
1005
12D0EC
  0
LINE
  5
12D0ED
  8
OBJECT
 10
4086.0
 20
-254.49999999999909
 30
0.0
 11
4093.0
 21
-254.49999999999909
 31
0.0
1001
ACDBBLOCKREPETAG
1070
     1
1071
       56
1005
12D0ED
  0
LINE
  5
12D0EE
  8
OBJECT
 10
4093.0
 20
-254.49999999999909
 30
0.0
 11
4093.0
 21
-145.49999999999909
 31
0.0
1001
ACDBBLOCKREPETAG
1070
     1
1071
       57
1005
12D0EE
  0
LINE
  5
12D0EF
  8
OBJECT
 10
4097.0
 20
-140.99999999999909
 30
0.0
 11
4093.0
 21
-145.49999999999909
 31
0.0
1001
ACDBBLOCKREPETAG
1070
     1
1071
       58
1005
12D0EF
  0
LINE
  5
12D0F0
  8
OBJECT
 10
4097.0
 20
-258.99999999999909
 30
0.0
 11
4093.0
 21
-254.49999999999909
 31
0.0
1001
ACDBBLOCKREPETAG
1070
     1
1071
       59
1005
12D0F0
  0
LINE
  5
12D0F1
  8
OBJECT
 10
4083.0
 20
-137.99999999999909
 30
0.0
 11
4080.0
 21
-137.99999999999909
 31
0.0
1001
ACDBBLOCKREPETAG
1070
     1
1071
       60
1005
12D0F1
  0
ARC
  5
12D0F2
  8
OBJECT
 10
4083.0
 20
-140.99999999999909
 30
0.0
 40
3.0
 50
0.0
 51
90.0
1001
ACDBBLOCKREPETAG
1070
     1
1071
       61
1005
12D0F2
  0
LINE
  5
12D0F3
  8
OBJECT
 10
4080.0
 20
-261.99999999999909
 30
0.0
 11
4083.0
 21
-261.99999999999909
 31
0.0
1001
ACDBBLOCKREPETAG
1070
     1
1071
       62
1005
12D0F3
  0
ARC
  5
12D0F4
  8
OBJECT
 10
4083.0
 20
-258.99999999999909
 30
0.0
 40
3.0
 50
270.0
 51
0.0
1001
ACDBBLOCKREPETAG
1070
     1
1071
       63
1005
12D0F4
  0
LINE
  5
12D0F5
  8
OBJECT
 10
4086.0
 20
-258.99999999999909
 30
0.0
 11
4086.0
 21
-140.99999999999909
 31
0.0
1001
ACDBBLOCKREPETAG
1070
     1
1071
       64
1005
12D0F5
  0
LINE
  5
12D0F6
  8
HIDDEN
 10
4088.0
 20
-155.49999999999909
 30
0.0
 11
4088.0
 21
-244.49999999999909
 31
0.0
1001
ACDBBLOCKREPETAG
1070
     1
1071
       65
1005
12D0F6
  0
LINE
  5
12D0F7
  8
OBJECT
 10
3867.0
 20
-634.0
 30
0.0
 11
3860.0
 21
-634.0
 31
0.0
1001
ACDBBLOCKREPETAG
1070
     1
1071
       45
1005
12D0F7
  0
LINE
  5
12D0F8
  8
OBJECT
 10
3860.0
 20
-634.0
 30
0.0
 11
3860.0
 21
-755.0
 31
0.0
1001
ACDBBLOCKREPETAG
1070
     1
1071
       46
1005
12D0F8
  0
LINE
  5
12D0F9
  8
OBJECT
 10
3867.0
 20
-755.0
 30
0.0
 11
3867.0
 21
-634.0
 31
0.0
1001
ACDBBLOCKREPETAG
1070
     1
1071
       47
1005
12D0F9
  0
LINE
  5
12D0FA
  8
CENTER
 10
3845.0
 20
-696.0
 30
0.0
 11
3929.0
 21
-696.0
 31
0.0
1001
ACDBBLOCKREPETAG
1070
     1
1071
       48
1005
12D0FA
  0
LINE
  5
12D0FB
  8
OBJECT
 10
3867.0
 20
-637.0
 30
0.0
 11
3903.0
 21
-637.0
 31
0.0
1001
ACDBBLOCKREPETAG
1070
     1
1071
       49
1005
12D0FB
  0
LINE
  5
12D0FC
  8
OBJECT
 10
3903.0
 20
-637.0
 30
0.0
 11
3903.0
 21
-755.0
 31
0.0
1001
ACDBBLOCKREPETAG
1070
     1
1071
       50
1005
12D0FC
  0
LINE
  5
12D0FD
  8
OBJECT
 10
3903.0
 20
-755.0
 30
0.0
 11
3860.0
 21
-755.0
 31
0.0
1001
ACDBBLOCKREPETAG
1070
     1
1071
       51
1005
12D0FD
  0
LINE
  5
12D0FE
  8
OBJECT
 10
3907.0
 20
-641.5
 30
0.0
 11
3914.0
 21
-641.5
 31
0.0
1001
ACDBBLOCKREPETAG
1070
     1
1071
       52
1005
12D0FE
  0
LINE
  5
12D0FF
  8
OBJECT
 10
3914.0
 20
-750.49999999999989
 30
0.0
 11
3907.0
 21
-750.49999999999989
 31
0.0
1001
ACDBBLOCKREPETAG
1070
     1
1071
       53
1005
12D0FF
  0
LINE
  5
12D100
  8
OBJECT
 10
3907.0
 20
-750.49999999999989
 30
0.0
 11
3907.0
 21
-641.5
 31
0.0
1001
ACDBBLOCKREPETAG
1070
     1
1071
       54
1005
12D100
  0
LINE
  5
12D101
  8
OBJECT
 10
3903.0
 20
-637.0
 30
0.0
 11
3907.0
 21
-641.5
 31
0.0
1001
ACDBBLOCKREPETAG
1070
     1
1071
       55
1005
12D101
  0
LINE
  5
12D102
  8
OBJECT
 10
3903.0
 20
-755.0
 30
0.0
 11
3907.0
 21
-750.49999999999989
 31
0.0
1001
ACDBBLOCKREPETAG
1070
     1
1071
       56
1005
12D102
  0
LINE
  5
12D103
  8
OBJECT
 10
3917.0
 20
-634.0
 30
0.0
 11
3920.0
 21
-634.0
 31
0.0
1001
ACDBBLOCKREPETAG
1070
     1
1071
       57
1005
12D103
  0
ARC
  5
12D104
  8
OBJECT
 10
3917.0
 20
-637.0
 30
0.0
 40
3.0
 50
90.0
 51
180.0
1001
ACDBBLOCKREPETAG
1070
     1
1071
       58
1005
12D104
  0
LINE
  5
12D105
  8
OBJECT
 10
3920.0
 20
-758.0
 30
0.0
 11
3917.0
 21
-758.0
 31
0.0
1001
ACDBBLOCKREPETAG
1070
     1
1071
       59
1005
12D105
  0
ARC
  5
12D106
  8
OBJECT
 10
3917.0
 20
-755.0
 30
0.0
 40
3.0
 50
180.0
 51
270.0
1001
ACDBBLOCKREPETAG
1070
     1
1071
       60
1005
12D106
  0
LINE
  5
12D107
  8
OBJECT
 10
3914.0
 20
-755.0
 30
0.0
 11
3914.0
 21
-637.0
 31
0.0
1001
ACDBBLOCKREPETAG
1070
     1
1071
       61
1005
12D107
  0
LINE
  5
12D108
  8
HIDDEN
 10
3912.0
 20
-651.5
 30
0.0
 11
3912.0
 21
-740.5
 31
0.0
1001
ACDBBLOCKREPETAG
1070
     1
1071
       63
1005
12D108
  0
CIRCLE
  5
12D109
  8
OBJECT
 10
4000.0
 20
-696.0
 30
0.0
 40
62.0
1001
ACDBBLOCKREPETAG
1070
     1
1071
        0
1005
12D109
  0
LINE
  5
12D10A
  8
OBJECT
 10
4133.0
 20
-634.0
 30
0.0
 11
4140.0
 21
-634.0
 31
0.0
1001
ACDBBLOCKREPETAG
1070
     1
1071
       45
1005
12D10A
  0
LINE
  5
12D10B
  8
OBJECT
 10
4140.0
 20
-634.0
 30
0.0
 11
4140.0
 21
-755.0
 31
0.0
1001
ACDBBLOCKREPETAG
1070
     1
1071
       46
1005
12D10B
  0
LINE
  5
12D10C
  8
OBJECT
 10
4133.0
 20
-755.0
 30
0.0
 11
4133.0
 21
-634.0
 31
0.0
1001
ACDBBLOCKREPETAG
1070
     1
1071
       47
1005
12D10C
  0
LINE
  5
12D10D
  8
CENTER
 10
4155.0
 20
-696.0
 30
0.0
 11
4071.0
 21
-696.0
 31
0.0
1001
ACDBBLOCKREPETAG
1070
     1
1071
       48
1005
12D10D
  0
LINE
  5
12D10E
  8
OBJECT
 10
4133.0
 20
-637.0
 30
0.0
 11
4097.0
 21
-637.0
 31
0.0
1001
ACDBBLOCKREPETAG
1070
     1
1071
       49
1005
12D10E
  0
LINE
  5
12D10F
  8
OBJECT
 10
4097.0
 20
-637.0
 30
0.0
 11
4097.0
 21
-755.0
 31
0.0
1001
ACDBBLOCKREPETAG
1070
     1
1071
       50
1005
12D10F
  0
LINE
  5
12D110
  8
OBJECT
 10
4097.0
 20
-755.0
 30
0.0
 11
4140.0
 21
-755.0
 31
0.0
1001
ACDBBLOCKREPETAG
1070
     1
1071
       51
1005
12D110
  0
LINE
  5
12D111
  8
OBJECT
 10
4093.0
 20
-641.5
 30
0.0
 11
4086.0
 21
-641.5
 31
0.0
1001
ACDBBLOCKREPETAG
1070
     1
1071
       52
1005
12D111
  0
LINE
  5
12D112
  8
OBJECT
 10
4086.0
 20
-750.49999999999989
 30
0.0
 11
4093.0
 21
-750.49999999999989
 31
0.0
1001
ACDBBLOCKREPETAG
1070
     1
1071
       53
1005
12D112
  0
LINE
  5
12D113
  8
OBJECT
 10
4093.0
 20
-750.49999999999989
 30
0.0
 11
4093.0
 21
-641.5
 31
0.0
1001
ACDBBLOCKREPETAG
1070
     1
1071
       54
1005
12D113
  0
LINE
  5
12D114
  8
OBJECT
 10
4097.0
 20
-637.0
 30
0.0
 11
4093.0
 21
-641.5
 31
0.0
1001
ACDBBLOCKREPETAG
1070
     1
1071
       55
1005
12D114
  0
LINE
  5
12D115
  8
OBJECT
 10
4097.0
 20
-755.0
 30
0.0
 11
4093.0
 21
-750.49999999999989
 31
0.0
1001
ACDBBLOCKREPETAG
1070
     1
1071
       56
1005
12D115
  0
LINE
  5
12D116
  8
OBJECT
 10
4083.0
 20
-634.0
 30
0.0
 11
4080.0
 21
-634.0
 31
0.0
1001
ACDBBLOCKREPETAG
1070
     1
1071
       57
1005
12D116
  0
ARC
  5
12D117
  8
OBJECT
 10
4083.0
 20
-637.0
 30
0.0
 40
3.0
 50
0.0
 51
90.0
1001
ACDBBLOCKREPETAG
1070
     1
1071
       58
1005
12D117
  0
LINE
  5
12D118
  8
OBJECT
 10
4080.0
 20
-758.0
 30
0.0
 11
4083.0
 21
-758.0
 31
0.0
1001
ACDBBLOCKREPETAG
1070
     1
1071
       59
1005
12D118
  0
ARC
  5
12D119
  8
OBJECT
 10
4083.0
 20
-755.0
 30
0.0
 40
3.0
 50
270.0
 51
0.0
1001
ACDBBLOCKREPETAG
1070
     1
1071
       60
1005
12D119
  0
LINE
  5
12D11A
  8
OBJECT
 10
4086.0
 20
-755.0
 30
0.0
 11
4086.0
 21
-637.0
 31
0.0
1001
ACDBBLOCKREPETAG
1070
     1
1071
       61
1005
12D11A
  0
LINE
  5
12D11B
  8
HIDDEN
 10
4088.0
 20
-651.5
 30
0.0
 11
4088.0
 21
-740.5
 31
0.0
1001
ACDBBLOCKREPETAG
1070
     1
1071
       63
1005
12D11B
  0
POLYLINE
  5
12D11C
  8
HIDDEN
 66
     1
 10
0.0
 20
0.0
 30
0.0
 70
     1
1001
ACDBBLOCKREPETAG
1070
     1
1071
      105
1005
0
  0
VERTEX
  5
12D65D
  8
HIDDEN
 10
359.99999999987818
 20
0.0
 30
0.0
  0
VERTEX
  5
12D65E
  8
HIDDEN
 10
719.99999999975626
 20
0.0
 30
0.0
  0
VERTEX
  5
12D65F
  8
HIDDEN
 10
719.99999999975626
 20
-463.99999999984158
 30
0.0
  0
VERTEX
  5
12D660
  8
HIDDEN
 10
359.99999999987818
 20
-463.99999999984158
 30
0.0
  0
SEQEND
  5
12D661
  8
HIDDEN
  0
POLYLINE
  5
12D11D
  8
HIDDEN
 66
     1
 10
0.0
 20
0.0
 30
0.0
 70
     1
1001
ACDBBLOCKREPETAG
1070
     1
1071
      110
1005
0
  0
VERTEX
  5
12D662
  8
HIDDEN
 10
0.0
 20
0.0
 30
0.0
  0
VERTEX
  5
12D663
  8
HIDDEN
 10
359.99999999987818
 20
0.0
 30
0.0
  0
VERTEX
  5
12D664
  8
HIDDEN
 10
359.99999999987818
 20
-463.99999999984158
 30
0.0
  0
VERTEX
  5
12D665
  8
HIDDEN
 10
0.0
 20
-463.99999999984158
 30
0.0
  0
SEQEND
  5
12D666
  8
HIDDEN
  0
POLYLINE
  5
12D11E
  8
HIDDEN
 66
     1
 10
0.0
 20
0.0
 30
0.0
 70
     1
1001
ACDBBLOCKREPETAG
1070
     1
1071
      120
1005
0
  0
VERTEX
  5
12D667
  8
HIDDEN
 10
359.99999999987818
 20
-463.99999999984158
 30
0.0
  0
VERTEX
  5
12D668
  8
HIDDEN
 10
719.99999999975626
 20
-463.99999999984158
 30
0.0
  0
VERTEX
  5
12D669
  8
HIDDEN
 10
719.99999999975626
 20
-927.9999999996835
 30
0.0
  0
VERTEX
  5
12D66A
  8
HIDDEN
 10
359.99999999987818
 20
-927.9999999996835
 30
0.0
  0
SEQEND
  5
12D66B
  8
HIDDEN
  0
POLYLINE
  5
12D11F
  8
HIDDEN
 66
     1
 10
0.0
 20
0.0
 30
0.0
 70
     1
1001
ACDBBLOCKREPETAG
1070
     1
1071
      125
1005
0
  0
VERTEX
  5
12D66C
  8
HIDDEN
 10
0.0
 20
-463.99999999984158
 30
0.0
  0
VERTEX
  5
12D66D
  8
HIDDEN
 10
359.99999999987818
 20
-463.99999999984158
 30
0.0
  0
VERTEX
  5
12D66E
  8
HIDDEN
 10
359.99999999987818
 20
-927.9999999996835
 30
0.0
  0
VERTEX
  5
12D66F
  8
HIDDEN
 10
0.0
 20
-927.9999999996835
 30
0.0
  0
SEQEND
  5
12D670
  8
HIDDEN
  0
POLYLINE
  5
12D120
  8
HIDDEN
 66
     1
 10
0.0
 20
0.0
 30
0.0
 70
     1
1001
ACDBBLOCKREPETAG
1070
     1
1071
      130
1005
0
  0
VERTEX
  5
12D671
  8
HIDDEN
 10
359.99999999987818
 20
-927.9999999996835
 30
0.0
  0
VERTEX
  5
12D672
  8
HIDDEN
 10
719.99999999975626
 20
-927.9999999996835
 30
0.0
  0
VERTEX
  5
12D673
  8
HIDDEN
 10
719.99999999975626
 20
-1391.999999999525
 30
0.0
  0
VERTEX
  5
12D674
  8
HIDDEN
 10
359.99999999987818
 20
-1391.999999999525
 30
0.0
  0
SEQEND
  5
12D675
  8
HIDDEN
  0
POLYLINE
  5
12D121
  8
HIDDEN
 66
     1
 10
0.0
 20
0.0
 30
0.0
 70
     1
1001
ACDBBLOCKREPETAG
1070
     1
1071
      135
1005
0
  0
VERTEX
  5
12D676
  8
HIDDEN
 10
0.0
 20
-927.9999999996835
 30
0.0
  0
VERTEX
  5
12D677
  8
HIDDEN
 10
359.99999999987818
 20
-927.9999999996835
 30
0.0
  0
VERTEX
  5
12D678
  8
HIDDEN
 10
359.99999999987818
 20
-1391.999999999525
 30
0.0
  0
VERTEX
  5
12D679
  8
HIDDEN
 10
0.0
 20
-1391.999999999525
 30
0.0
  0
SEQEND
  5
12D67A
  8
HIDDEN
  0
POLYLINE
  5
12D122
  8
HIDDEN
 66
     1
 10
0.0
 20
0.0
 30
0.0
 70
     1
1001
ACDBBLOCKREPETAG
1070
     1
1071
      160
1005
0
  0
VERTEX
  5
12D67B
  8
HIDDEN
 10
359.99999999987818
 20
-1391.999999999525
 30
0.0
  0
VERTEX
  5
12D67C
  8
HIDDEN
 10
719.99999999975626
 20
-1391.999999999525
 30
0.0
  0
VERTEX
  5
12D67D
  8
HIDDEN
 10
719.99999999975626
 20
-1855.999999999367
 30
0.0
  0
VERTEX
  5
12D67E
  8
HIDDEN
 10
359.99999999987818
 20
-1855.999999999367
 30
0.0
  0
SEQEND
  5
12D67F
  8
HIDDEN
  0
POLYLINE
  5
12D123
  8
HIDDEN
 66
     1
 10
0.0
 20
0.0
 30
0.0
 70
     1
1001
ACDBBLOCKREPETAG
1070
     1
1071
      165
1005
0
  0
VERTEX
  5
12D680
  8
HIDDEN
 10
0.0
 20
-1391.999999999525
 30
0.0
  0
VERTEX
  5
12D681
  8
HIDDEN
 10
359.99999999987818
 20
-1391.999999999525
 30
0.0
  0
VERTEX
  5
12D682
  8
HIDDEN
 10
359.99999999987818
 20
-1855.999999999367
 30
0.0
  0
VERTEX
  5
12D683
  8
HIDDEN
 10
0.0
 20
-1855.999999999367
 30
0.0
  0
SEQEND
  5
12D684
  8
HIDDEN
  0
POLYLINE
  5
12D124
  8
HIDDEN
 66
     1
 10
0.0
 20
0.0
 30
0.0
 70
     1
1001
ACDBBLOCKREPETAG
1070
     1
1071
      170
1005
0
  0
VERTEX
  5
12D685
  8
HIDDEN
 10
359.99999999987818
 20
-1855.999999999367
 30
0.0
  0
VERTEX
  5
12D686
  8
HIDDEN
 10
719.99999999975626
 20
-1855.999999999367
 30
0.0
  0
VERTEX
  5
12D687
  8
HIDDEN
 10
719.99999999975626
 20
-2319.9999999992092
 30
0.0
  0
VERTEX
  5
12D688
  8
HIDDEN
 10
359.99999999987818
 20
-2319.9999999992092
 30
0.0
  0
SEQEND
  5
12D689
  8
HIDDEN
  0
POLYLINE
  5
12D125
  8
HIDDEN
 66
     1
 10
0.0
 20
0.0
 30
0.0
 70
     1
1001
ACDBBLOCKREPETAG
1070
     1
1071
      175
1005
0
  0
VERTEX
  5
12D68A
  8
HIDDEN
 10
0.0
 20
-1855.999999999367
 30
0.0
  0
VERTEX
  5
12D68B
  8
HIDDEN
 10
359.99999999987818
 20
-1855.999999999367
 30
0.0
  0
VERTEX
  5
12D68C
  8
HIDDEN
 10
359.99999999987818
 20
-2319.9999999992092
 30
0.0
  0
VERTEX
  5
12D68D
  8
HIDDEN
 10
0.0
 20
-2319.9999999992092
 30
0.0
  0
SEQEND
  5
12D68E
  8
HIDDEN
  0
TEXT
  5
12D126
  8
SLIM
 10
420.17142857124622
 20
-2299.999999999216
 30
0.0
 40
48.0
  1
B404（特）
 41
0.75
1001
ACDBBLOCKREPETAG
1070
     1
1071
      119
1005
12AEEF
  0
LINE
  5
12D127
  8
OBJECT
 10
610.99999999849024
 20
-2201.9999999970728
 30
0.0
 11
610.99999999849024
 21
-2194.9999999970728
 31
0.0
1001
ACDBBLOCKREPETAG
1070
     1
1071
       57
1005
12D127
  0
LINE
  5
12D128
  8
OBJECT
 10
610.99999999849024
 20
-2194.9999999970728
 30
0.0
 11
460.99999999849018
 21
-2194.9999999970728
 31
0.0
1001
ACDBBLOCKREPETAG
1070
     1
1071
       58
1005
12D128
  0
LINE
  5
12D129
  8
OBJECT
 10
607.99999999849024
 20
-2153.4999999970728
 30
0.0
 11
463.99999999849018
 21
-2153.4999999970728
 31
0.0
1001
ACDBBLOCKREPETAG
1070
     1
1071
       59
1005
12D129
  0
LINE
  5
12D12A
  8
OBJECT
 10
601.49999999849024
 20
-2141.9999999970728
 30
0.0
 11
470.49999999849018
 21
-2141.9999999970728
 31
0.0
1001
ACDBBLOCKREPETAG
1070
     1
1071
       60
1005
12D12A
  0
LINE
  5
12D12B
  8
OBJECT
 10
460.99999999849018
 20
-2194.9999999970728
 30
0.0
 11
460.99999999849018
 21
-2201.9999999970728
 31
0.0
1001
ACDBBLOCKREPETAG
1070
     1
1071
       61
1005
12D12B
  0
LINE
  5
12D12C
  8
OBJECT
 10
460.99999999849018
 20
-2201.9999999970728
 30
0.0
 11
610.99999999849024
 21
-2201.9999999970728
 31
0.0
1001
ACDBBLOCKREPETAG
1070
     1
1071
       62
1005
12D12C
  0
LINE
  5
12D12D
  8
OBJECT
 10
473.99999999849018
 20
-2137.9999999970728
 30
0.0
 11
473.99999999849018
 21
-2131.9999999970751
 31
0.0
1001
ACDBBLOCKREPETAG
1070
     1
1071
       63
1005
12D12D
  0
LINE
  5
12D12E
  8
OBJECT
 10
463.99999999849018
 20
-2194.9999999970728
 30
0.0
 11
463.99999999849018
 21
-2153.4999999970728
 31
0.0
1001
ACDBBLOCKREPETAG
1070
     1
1071
       64
1005
12D12E
  0
LINE
  5
12D12F
  8
OBJECT
 10
463.99999999849018
 20
-2153.4999999970728
 30
0.0
 11
470.49999999849018
 21
-2141.9999999970728
 31
0.0
1001
ACDBBLOCKREPETAG
1070
     1
1071
       65
1005
12D12F
  0
LINE
  5
12D130
  8
OBJECT
 10
470.49999999849018
 20
-2141.9999999970728
 30
0.0
 11
473.99999999849018
 21
-2137.9999999970728
 31
0.0
1001
ACDBBLOCKREPETAG
1070
     1
1071
       66
1005
12D130
  0
LINE
  5
12D131
  8
OBJECT
 10
607.99999999849024
 20
-2153.4999999970728
 30
0.0
 11
601.49999999849024
 21
-2141.9999999970728
 31
0.0
1001
ACDBBLOCKREPETAG
1070
     1
1071
       67
1005
12D131
  0
LINE
  5
12D132
  8
OBJECT
 10
601.49999999849024
 20
-2141.9999999970728
 30
0.0
 11
597.99999999849024
 21
-2137.9999999970728
 31
0.0
1001
ACDBBLOCKREPETAG
1070
     1
1071
       68
1005
12D132
  0
ARC
  5
12D133
  8
OBJECT
 10
535.99999999849024
 20
-2519.8999999970752
 30
0.0
 40
386.89999999999998
 50
80.778701362368551
 51
99.221298637631435
1001
ACDBBLOCKREPETAG
1070
     1
1071
       69
1005
12D133
  0
LINE
  5
12D134
  8
OBJECT
 10
597.99999999849024
 20
-2137.9999999970728
 30
0.0
 11
597.99999999849024
 21
-2131.9999999970751
 31
0.0
1001
ACDBBLOCKREPETAG
1070
     1
1071
       70
1005
12D134
  0
LINE
  5
12D135
  8
OBJECT
 10
607.99999999849024
 20
-2194.9999999970728
 30
0.0
 11
607.99999999849024
 21
-2153.4999999970728
 31
0.0
1001
ACDBBLOCKREPETAG
1070
     1
1071
       71
1005
12D135
  0
INSERT
  5
12D136
  8
OBJECT
  2
*U6
 10
0.0
 20
0.0
 30
0.0
  0
LINE
  5
12D137
  8
HIDDEN
 10
478.99999999849018
 20
-2149.9999999970728
 30
0.0
 11
592.99999999849024
 21
-2149.9999999970728
 31
0.0
1001
ACDBBLOCKREPETAG
1070
     1
1071
      437
1005
12D137
  0
LINE
  5
12D138
  8
OBJECT
 10
618.99999999849024
 20
-2113.9999999970728
 30
0.0
 11
615.99999999849024
 21
-2113.9999999970728
 31
0.0
1001
ACDBBLOCKREPETAG
1070
     1
1071
      418
1005
12D138
  0
ARC
  5
12D139
  8
OBJECT
 10
618.99999999849024
 20
-2110.9999999970728
 30
0.0
 40
3.0
 50
270.0
 51
0.0
1001
ACDBBLOCKREPETAG
1070
     1
1071
      419
1005
12D139
  0
LINE
  5
12D13A
  8
OBJECT
 10
615.99999999849024
 20
-1989.999999997073
 30
0.0
 11
618.99999999849024
 21
-1989.999999997073
 31
0.0
1001
ACDBBLOCKREPETAG
1070
     1
1071
      420
1005
12D13A
  0
ARC
  5
12D13B
  8
OBJECT
 10
618.99999999849024
 20
-1992.999999997073
 30
0.0
 40
3.0
 50
0.0
 51
90.0
1001
ACDBBLOCKREPETAG
1070
     1
1071
      421
1005
12D13B
  0
LINE
  5
12D13C
  8
OBJECT
 10
621.99999999849024
 20
-1992.999999997073
 30
0.0
 11
621.99999999849024
 21
-2110.9999999970728
 31
0.0
1001
ACDBBLOCKREPETAG
1070
     1
1071
      422
1005
12D13C
  0
LINE
  5
12D13D
  8
OBJECT
 10
460.99999999849018
 20
-1901.999999997073
 30
0.0
 11
460.99999999849018
 21
-1908.999999997073
 31
0.0
1001
ACDBBLOCKREPETAG
1070
     1
1071
       57
1005
12D13D
  0
LINE
  5
12D13E
  8
OBJECT
 10
460.99999999849018
 20
-1908.999999997073
 30
0.0
 11
610.99999999849024
 21
-1908.999999997073
 31
0.0
1001
ACDBBLOCKREPETAG
1070
     1
1071
       58
1005
12D13E
  0
LINE
  5
12D13F
  8
OBJECT
 10
463.99999999849018
 20
-1950.499999997073
 30
0.0
 11
607.99999999849024
 21
-1950.499999997073
 31
0.0
1001
ACDBBLOCKREPETAG
1070
     1
1071
       59
1005
12D13F
  0
LINE
  5
12D140
  8
OBJECT
 10
470.49999999849018
 20
-1961.999999997073
 30
0.0
 11
601.49999999849024
 21
-1961.999999997073
 31
0.0
1001
ACDBBLOCKREPETAG
1070
     1
1071
       60
1005
12D140
  0
LINE
  5
12D141
  8
OBJECT
 10
610.99999999849024
 20
-1908.999999997073
 30
0.0
 11
610.99999999849024
 21
-1901.999999997073
 31
0.0
1001
ACDBBLOCKREPETAG
1070
     1
1071
       61
1005
12D141
  0
LINE
  5
12D142
  8
OBJECT
 10
610.99999999849024
 20
-1901.999999997073
 30
0.0
 11
460.99999999849018
 21
-1901.999999997073
 31
0.0
1001
ACDBBLOCKREPETAG
1070
     1
1071
       62
1005
12D142
  0
LINE
  5
12D143
  8
OBJECT
 10
597.99999999849024
 20
-1965.999999997073
 30
0.0
 11
597.99999999849024
 21
-1971.999999997073
 31
0.0
1001
ACDBBLOCKREPETAG
1070
     1
1071
       63
1005
12D143
  0
LINE
  5
12D144
  8
OBJECT
 10
607.99999999849024
 20
-1908.999999997073
 30
0.0
 11
607.99999999849024
 21
-1950.499999997073
 31
0.0
1001
ACDBBLOCKREPETAG
1070
     1
1071
       64
1005
12D144
  0
LINE
  5
12D145
  8
OBJECT
 10
607.99999999849024
 20
-1950.499999997073
 30
0.0
 11
601.49999999849024
 21
-1961.999999997073
 31
0.0
1001
ACDBBLOCKREPETAG
1070
     1
1071
       65
1005
12D145
  0
LINE
  5
12D146
  8
OBJECT
 10
601.49999999849024
 20
-1961.999999997073
 30
0.0
 11
597.99999999849024
 21
-1965.999999997073
 31
0.0
1001
ACDBBLOCKREPETAG
1070
     1
1071
       66
1005
12D146
  0
LINE
  5
12D147
  8
OBJECT
 10
463.99999999849018
 20
-1950.499999997073
 30
0.0
 11
470.49999999849018
 21
-1961.999999997073
 31
0.0
1001
ACDBBLOCKREPETAG
1070
     1
1071
       67
1005
12D147
  0
LINE
  5
12D148
  8
OBJECT
 10
470.49999999849018
 20
-1961.999999997073
 30
0.0
 11
473.99999999849018
 21
-1965.999999997073
 31
0.0
1001
ACDBBLOCKREPETAG
1070
     1
1071
       68
1005
12D148
  0
ARC
  5
12D149
  8
OBJECT
 10
535.99999999849024
 20
-1584.099999997072
 30
0.0
 40
386.89999999999998
 50
260.77870136257849
 51
279.22129863742163
1001
ACDBBLOCKREPETAG
1070
     1
1071
       69
1005
12D149
  0
LINE
  5
12D14A
  8
OBJECT
 10
473.99999999849018
 20
-1965.999999997073
 30
0.0
 11
473.99999999849018
 21
-1971.999999997073
 31
0.0
1001
ACDBBLOCKREPETAG
1070
     1
1071
       70
1005
12D14A
  0
LINE
  5
12D14B
  8
OBJECT
 10
463.99999999849018
 20
-1908.999999997073
 30
0.0
 11
463.99999999849018
 21
-1950.499999997073
 31
0.0
1001
ACDBBLOCKREPETAG
1070
     1
1071
       71
1005
12D14B
  0
INSERT
  5
12D14C
  8
OBJECT
  2
*U7
 10
0.0
 20
0.0
 30
0.0
  0
LINE
  5
12D14D
  8
HIDDEN
 10
592.99999999849024
 20
-1953.999999997073
 30
0.0
 11
478.99999999849018
 21
-1953.999999997073
 31
0.0
1001
ACDBBLOCKREPETAG
1070
     1
1071
      431
1005
12D14D
  0
TEXT
  5
12D14E
  8
SLIM
 10
60.171428571368068
 20
-2299.999999999216
 30
0.0
 40
48.0
  1
B304（特）
 41
0.75
1001
ACDBBLOCKREPETAG
1070
     1
1071
      119
1005
12AEEF
  0
LINE
  5
12D14F
  8
OBJECT
 10
250.99999999861211
 20
-2201.9999999970728
 30
0.0
 11
250.99999999861211
 21
-2194.9999999970728
 31
0.0
1001
ACDBBLOCKREPETAG
1070
     1
1071
       57
1005
12D14F
  0
LINE
  5
12D150
  8
OBJECT
 10
250.99999999861211
 20
-2194.9999999970728
 30
0.0
 11
100.9999999986121
 21
-2194.9999999970728
 31
0.0
1001
ACDBBLOCKREPETAG
1070
     1
1071
       58
1005
12D150
  0
LINE
  5
12D151
  8
OBJECT
 10
247.99999999861211
 20
-2153.4999999970728
 30
0.0
 11
103.9999999986121
 21
-2153.4999999970728
 31
0.0
1001
ACDBBLOCKREPETAG
1070
     1
1071
       59
1005
12D151
  0
LINE
  5
12D152
  8
OBJECT
 10
241.49999999861211
 20
-2141.9999999970728
 30
0.0
 11
110.4999999986121
 21
-2141.9999999970728
 31
0.0
1001
ACDBBLOCKREPETAG
1070
     1
1071
       60
1005
12D152
  0
LINE
  5
12D153
  8
OBJECT
 10
100.9999999986121
 20
-2194.9999999970728
 30
0.0
 11
100.9999999986121
 21
-2201.9999999970728
 31
0.0
1001
ACDBBLOCKREPETAG
1070
     1
1071
       61
1005
12D153
  0
LINE
  5
12D154
  8
OBJECT
 10
100.9999999986121
 20
-2201.9999999970728
 30
0.0
 11
250.99999999861211
 21
-2201.9999999970728
 31
0.0
1001
ACDBBLOCKREPETAG
1070
     1
1071
       62
1005
12D154
  0
LINE
  5
12D155
  8
OBJECT
 10
113.9999999986121
 20
-2137.9999999970728
 30
0.0
 11
113.9999999986121
 21
-2131.9999999970751
 31
0.0
1001
ACDBBLOCKREPETAG
1070
     1
1071
       63
1005
12D155
  0
LINE
  5
12D156
  8
OBJECT
 10
103.9999999986121
 20
-2194.9999999970728
 30
0.0
 11
103.9999999986121
 21
-2153.4999999970728
 31
0.0
1001
ACDBBLOCKREPETAG
1070
     1
1071
       64
1005
12D156
  0
LINE
  5
12D157
  8
OBJECT
 10
103.9999999986121
 20
-2153.4999999970728
 30
0.0
 11
110.4999999986121
 21
-2141.9999999970728
 31
0.0
1001
ACDBBLOCKREPETAG
1070
     1
1071
       65
1005
12D157
  0
LINE
  5
12D158
  8
OBJECT
 10
110.4999999986121
 20
-2141.9999999970728
 30
0.0
 11
113.9999999986121
 21
-2137.9999999970728
 31
0.0
1001
ACDBBLOCKREPETAG
1070
     1
1071
       66
1005
12D158
  0
LINE
  5
12D159
  8
OBJECT
 10
247.99999999861211
 20
-2153.4999999970728
 30
0.0
 11
241.49999999861211
 21
-2141.9999999970728
 31
0.0
1001
ACDBBLOCKREPETAG
1070
     1
1071
       67
1005
12D159
  0
LINE
  5
12D15A
  8
OBJECT
 10
241.49999999861211
 20
-2141.9999999970728
 30
0.0
 11
237.99999999861211
 21
-2137.9999999970728
 31
0.0
1001
ACDBBLOCKREPETAG
1070
     1
1071
       68
1005
12D15A
  0
ARC
  5
12D15B
  8
OBJECT
 10
175.99999999861211
 20
-2519.8999999970752
 30
0.0
 40
386.89999999999998
 50
80.778701362368551
 51
99.221298637631435
1001
ACDBBLOCKREPETAG
1070
     1
1071
       69
1005
12D15B
  0
LINE
  5
12D15C
  8
OBJECT
 10
237.99999999861211
 20
-2137.9999999970728
 30
0.0
 11
237.99999999861211
 21
-2131.9999999970751
 31
0.0
1001
ACDBBLOCKREPETAG
1070
     1
1071
       70
1005
12D15C
  0
LINE
  5
12D15D
  8
OBJECT
 10
247.99999999861211
 20
-2194.9999999970728
 30
0.0
 11
247.99999999861211
 21
-2153.4999999970728
 31
0.0
1001
ACDBBLOCKREPETAG
1070
     1
1071
       71
1005
12D15D
  0
INSERT
  5
12D15E
  8
OBJECT
  2
*U8
 10
0.0
 20
0.0
 30
0.0
  0
LINE
  5
12D15F
  8
HIDDEN
 10
118.9999999986121
 20
-2149.9999999970728
 30
0.0
 11
232.99999999861211
 21
-2149.9999999970728
 31
0.0
1001
ACDBBLOCKREPETAG
1070
     1
1071
      437
1005
12D15F
  0
LINE
  5
12D160
  8
OBJECT
 10
258.99999999861211
 20
-2113.9999999970728
 30
0.0
 11
255.99999999861211
 21
-2113.9999999970728
 31
0.0
1001
ACDBBLOCKREPETAG
1070
     1
1071
      418
1005
12D160
  0
ARC
  5
12D161
  8
OBJECT
 10
258.99999999861211
 20
-2110.9999999970728
 30
0.0
 40
3.0
 50
270.0
 51
0.0
1001
ACDBBLOCKREPETAG
1070
     1
1071
      419
1005
12D161
  0
LINE
  5
12D162
  8
OBJECT
 10
255.99999999861211
 20
-1989.999999997073
 30
0.0
 11
258.99999999861211
 21
-1989.999999997073
 31
0.0
1001
ACDBBLOCKREPETAG
1070
     1
1071
      420
1005
12D162
  0
ARC
  5
12D163
  8
OBJECT
 10
258.99999999861211
 20
-1992.999999997073
 30
0.0
 40
3.0
 50
0.0
 51
90.0
1001
ACDBBLOCKREPETAG
1070
     1
1071
      421
1005
12D163
  0
LINE
  5
12D164
  8
OBJECT
 10
261.99999999861211
 20
-1992.999999997073
 30
0.0
 11
261.99999999861211
 21
-2110.9999999970728
 31
0.0
1001
ACDBBLOCKREPETAG
1070
     1
1071
      422
1005
12D164
  0
INSERT
  5
12D165
  8
OBJECT
  2
*U9
 10
0.0
 20
0.0
 30
0.0
  0
LINE
  5
12D166
  8
OBJECT
 10
113.9999999986121
 20
-1918.999999997073
 30
0.0
 11
113.9999999986121
 21
-1911.999999997073
 31
0.0
1001
ACDBBLOCKREPETAG
1070
     1
1071
       39
1005
12D166
  0
LINE
  5
12D167
  8
OBJECT
 10
113.9999999986121
 20
-1911.999999997073
 30
0.0
 11
237.99999999861211
 21
-1911.999999997073
 31
0.0
1001
ACDBBLOCKREPETAG
1070
     1
1071
       40
1005
12D167
  0
LINE
  5
12D168
  8
OBJECT
 10
237.99999999861211
 20
-1911.999999997073
 30
0.0
 11
237.99999999861211
 21
-1918.999999997073
 31
0.0
1001
ACDBBLOCKREPETAG
1070
     1
1071
       41
1005
12D168
  0
LINE
  5
12D169
  8
OBJECT
 10
237.99999999861211
 20
-1918.999999997073
 30
0.0
 11
113.9999999986121
 21
-1918.999999997073
 31
0.0
1001
ACDBBLOCKREPETAG
1070
     1
1071
       42
1005
12D169
  0
LINE
  5
12D16A
  8
OBJECT
 10
116.9999999986121
 20
-1918.999999997073
 30
0.0
 11
116.9999999986121
 21
-1954.999999997073
 31
0.0
1001
ACDBBLOCKREPETAG
1070
     1
1071
       43
1005
12D16A
  0
LINE
  5
12D16B
  8
OBJECT
 10
116.9999999986121
 20
-1954.999999997073
 30
0.0
 11
234.99999999861211
 21
-1954.999999997073
 31
0.0
1001
ACDBBLOCKREPETAG
1070
     1
1071
       44
1005
12D16B
  0
LINE
  5
12D16C
  8
OBJECT
 10
234.99999999861211
 20
-1954.999999997073
 30
0.0
 11
234.99999999861211
 21
-1918.999999997073
 31
0.0
1001
ACDBBLOCKREPETAG
1070
     1
1071
       45
1005
12D16C
  0
LINE
  5
12D16D
  8
OBJECT
 10
121.4999999986121
 20
-1958.999999997073
 30
0.0
 11
121.4999999986121
 21
-1965.999999997073
 31
0.0
1001
ACDBBLOCKREPETAG
1070
     1
1071
       46
1005
12D16D
  0
LINE
  5
12D16E
  8
OBJECT
 10
230.49999999861211
 20
-1965.999999997073
 30
0.0
 11
230.49999999861211
 21
-1958.999999997073
 31
0.0
1001
ACDBBLOCKREPETAG
1070
     1
1071
       47
1005
12D16E
  0
LINE
  5
12D16F
  8
OBJECT
 10
230.49999999861211
 20
-1958.999999997073
 30
0.0
 11
121.4999999986121
 21
-1958.999999997073
 31
0.0
1001
ACDBBLOCKREPETAG
1070
     1
1071
       48
1005
12D16F
  0
LINE
  5
12D170
  8
OBJECT
 10
116.9999999986121
 20
-1954.999999997073
 30
0.0
 11
121.4999999986121
 21
-1958.999999997073
 31
0.0
1001
ACDBBLOCKREPETAG
1070
     1
1071
       49
1005
12D170
  0
LINE
  5
12D171
  8
OBJECT
 10
234.99999999861211
 20
-1954.999999997073
 30
0.0
 11
230.49999999861211
 21
-1958.999999997073
 31
0.0
1001
ACDBBLOCKREPETAG
1070
     1
1071
       50
1005
12D171
  0
LINE
  5
12D172
  8
OBJECT
 10
113.9999999986121
 20
-1968.9999999970721
 30
0.0
 11
113.9999999986121
 21
-1971.999999997073
 31
0.0
1001
ACDBBLOCKREPETAG
1070
     1
1071
       51
1005
12D172
  0
ARC
  5
12D173
  8
OBJECT
 10
116.9999999986121
 20
-1968.9999999970721
 30
0.0
 40
3.0
 50
90.0
 51
180.0
1001
ACDBBLOCKREPETAG
1070
     1
1071
       52
1005
12D173
  0
LINE
  5
12D174
  8
OBJECT
 10
237.99999999861211
 20
-1971.999999997073
 30
0.0
 11
237.99999999861211
 21
-1968.999999997073
 31
0.0
1001
ACDBBLOCKREPETAG
1070
     1
1071
       53
1005
12D174
  0
ARC
  5
12D175
  8
OBJECT
 10
234.99999999861211
 20
-1968.999999997073
 30
0.0
 40
3.0
 50
0.0
 51
90.0
1001
ACDBBLOCKREPETAG
1070
     1
1071
       54
1005
12D175
  0
LINE
  5
12D176
  8
OBJECT
 10
234.99999999861211
 20
-1965.999999997073
 30
0.0
 11
116.9999999986121
 21
-1965.9999999970721
 31
0.0
1001
ACDBBLOCKREPETAG
1070
     1
1071
       55
1005
12D176
  0
LINE
  5
12D177
  8
HIDDEN
 10
131.49999999861211
 20
-1963.999999997073
 30
0.0
 11
220.49999999861211
 21
-1963.999999997073
 31
0.0
1001
ACDBBLOCKREPETAG
1070
     1
1071
      426
1005
12D177
  0
TEXT
  5
12D178
  8
SLIM
 10
420.17142857124622
 20
-1835.9999999993749
 30
0.0
 40
48.0
  1
B303（特）
 41
0.75
1001
ACDBBLOCKREPETAG
1070
     1
1071
      119
1005
12AEEF
  0
LINE
  5
12D179
  8
OBJECT
 10
597.99999999849024
 20
-1720.999999997231
 30
0.0
 11
597.99999999849024
 21
-1727.999999997231
 31
0.0
1001
ACDBBLOCKREPETAG
1070
     1
1071
       38
1005
12D179
  0
LINE
  5
12D17A
  8
OBJECT
 10
597.99999999849024
 20
-1727.999999997231
 30
0.0
 11
473.99999999849018
 21
-1727.999999997231
 31
0.0
1001
ACDBBLOCKREPETAG
1070
     1
1071
       39
1005
12D17A
  0
LINE
  5
12D17B
  8
OBJECT
 10
473.99999999849018
 20
-1727.999999997231
 30
0.0
 11
473.99999999849018
 21
-1720.999999997231
 31
0.0
1001
ACDBBLOCKREPETAG
1070
     1
1071
       40
1005
12D17B
  0
LINE
  5
12D17C
  8
OBJECT
 10
473.99999999849018
 20
-1720.999999997231
 30
0.0
 11
597.99999999849024
 21
-1720.999999997231
 31
0.0
1001
ACDBBLOCKREPETAG
1070
     1
1071
       41
1005
12D17C
  0
LINE
  5
12D17D
  8
OBJECT
 10
594.99999999849024
 20
-1720.999999997231
 30
0.0
 11
594.99999999849024
 21
-1684.999999997231
 31
0.0
1001
ACDBBLOCKREPETAG
1070
     1
1071
       42
1005
12D17D
  0
LINE
  5
12D17E
  8
OBJECT
 10
594.99999999849024
 20
-1684.999999997231
 30
0.0
 11
476.99999999849018
 21
-1684.999999997231
 31
0.0
1001
ACDBBLOCKREPETAG
1070
     1
1071
       43
1005
12D17E
  0
LINE
  5
12D17F
  8
OBJECT
 10
476.99999999849018
 20
-1684.999999997231
 30
0.0
 11
476.99999999849018
 21
-1720.999999997231
 31
0.0
1001
ACDBBLOCKREPETAG
1070
     1
1071
       44
1005
12D17F
  0
LINE
  5
12D180
  8
OBJECT
 10
590.49999999849024
 20
-1680.999999997231
 30
0.0
 11
590.49999999849024
 21
-1673.999999997231
 31
0.0
1001
ACDBBLOCKREPETAG
1070
     1
1071
       45
1005
12D180
  0
LINE
  5
12D181
  8
OBJECT
 10
481.49999999849018
 20
-1673.999999997231
 30
0.0
 11
481.49999999849018
 21
-1680.999999997231
 31
0.0
1001
ACDBBLOCKREPETAG
1070
     1
1071
       46
1005
12D181
  0
LINE
  5
12D182
  8
OBJECT
 10
481.49999999849018
 20
-1680.999999997231
 30
0.0
 11
590.49999999849024
 21
-1680.999999997231
 31
0.0
1001
ACDBBLOCKREPETAG
1070
     1
1071
       47
1005
12D182
  0
LINE
  5
12D183
  8
OBJECT
 10
594.99999999849024
 20
-1684.999999997231
 30
0.0
 11
590.49999999849024
 21
-1680.999999997231
 31
0.0
1001
ACDBBLOCKREPETAG
1070
     1
1071
       48
1005
12D183
  0
LINE
  5
12D184
  8
OBJECT
 10
476.99999999849018
 20
-1684.999999997231
 30
0.0
 11
481.49999999849018
 21
-1680.999999997231
 31
0.0
1001
ACDBBLOCKREPETAG
1070
     1
1071
       49
1005
12D184
  0
LINE
  5
12D185
  8
OBJECT
 10
597.99999999849024
 20
-1670.999999997231
 30
0.0
 11
597.99999999849024
 21
-1667.999999997231
 31
0.0
1001
ACDBBLOCKREPETAG
1070
     1
1071
       50
1005
12D185
  0
ARC
  5
12D186
  8
OBJECT
 10
594.99999999849024
 20
-1670.999999997231
 30
0.0
 40
3.0
 50
270.0
 51
0.0
1001
ACDBBLOCKREPETAG
1070
     1
1071
       51
1005
12D186
  0
LINE
  5
12D187
  8
OBJECT
 10
473.99999999849018
 20
-1667.999999997231
 30
0.0
 11
473.99999999849018
 21
-1670.999999997231
 31
0.0
1001
ACDBBLOCKREPETAG
1070
     1
1071
       52
1005
12D187
  0
ARC
  5
12D188
  8
OBJECT
 10
476.99999999849018
 20
-1670.999999997231
 30
0.0
 40
3.0
 50
180.0
 51
270.0
1001
ACDBBLOCKREPETAG
1070
     1
1071
       53
1005
12D188
  0
LINE
  5
12D189
  8
OBJECT
 10
476.99999999849018
 20
-1673.9999999972299
 30
0.0
 11
594.99999999849024
 21
-1673.999999997232
 31
0.0
1001
ACDBBLOCKREPETAG
1070
     1
1071
       54
1005
12D189
  0
INSERT
  5
12D18A
  8
OBJECT
  2
*U10
 10
0.0
 20
0.0
 30
0.0
  0
LINE
  5
12D18B
  8
HIDDEN
 10
580.49999999849024
 20
-1675.999999997231
 30
0.0
 11
491.49999999849018
 21
-1675.999999997231
 31
0.0
1001
ACDBBLOCKREPETAG
1070
     1
1071
      430
1005
12D18B
  0
LINE
  5
12D18C
  8
OBJECT
 10
618.99999999849024
 20
-1649.999999997231
 30
0.0
 11
615.99999999849024
 21
-1649.999999997231
 31
0.0
1001
ACDBBLOCKREPETAG
1070
     1
1071
      418
1005
12D18C
  0
ARC
  5
12D18D
  8
OBJECT
 10
618.99999999849024
 20
-1646.999999997231
 30
0.0
 40
3.0
 50
270.0
 51
0.0
1001
ACDBBLOCKREPETAG
1070
     1
1071
      419
1005
12D18D
  0
LINE
  5
12D18E
  8
OBJECT
 10
615.99999999849024
 20
-1525.999999997231
 30
0.0
 11
618.99999999849024
 21
-1525.999999997231
 31
0.0
1001
ACDBBLOCKREPETAG
1070
     1
1071
      420
1005
12D18E
  0
ARC
  5
12D18F
  8
OBJECT
 10
618.99999999849024
 20
-1528.999999997231
 30
0.0
 40
3.0
 50
0.0
 51
90.0
1001
ACDBBLOCKREPETAG
1070
     1
1071
      421
1005
12D18F
  0
LINE
  5
12D190
  8
OBJECT
 10
621.99999999849024
 20
-1528.999999997231
 30
0.0
 11
621.99999999849024
 21
-1646.999999997231
 31
0.0
1001
ACDBBLOCKREPETAG
1070
     1
1071
      422
1005
12D190
  0
INSERT
  5
12D191
  8
OBJECT
  2
*U11
 10
0.0
 20
0.0
 30
0.0
  0
LINE
  5
12D192
  8
OBJECT
 10
473.99999999849018
 20
-1454.999999997231
 30
0.0
 11
473.99999999849018
 21
-1447.999999997231
 31
0.0
1001
ACDBBLOCKREPETAG
1070
     1
1071
       39
1005
12D192
  0
LINE
  5
12D193
  8
OBJECT
 10
473.99999999849018
 20
-1447.999999997231
 30
0.0
 11
597.99999999849024
 21
-1447.999999997231
 31
0.0
1001
ACDBBLOCKREPETAG
1070
     1
1071
       40
1005
12D193
  0
LINE
  5
12D194
  8
OBJECT
 10
597.99999999849024
 20
-1447.999999997231
 30
0.0
 11
597.99999999849024
 21
-1454.999999997231
 31
0.0
1001
ACDBBLOCKREPETAG
1070
     1
1071
       41
1005
12D194
  0
LINE
  5
12D195
  8
OBJECT
 10
597.99999999849024
 20
-1454.999999997231
 30
0.0
 11
473.99999999849018
 21
-1454.999999997231
 31
0.0
1001
ACDBBLOCKREPETAG
1070
     1
1071
       42
1005
12D195
  0
LINE
  5
12D196
  8
OBJECT
 10
476.99999999849018
 20
-1454.999999997231
 30
0.0
 11
476.99999999849018
 21
-1490.999999997231
 31
0.0
1001
ACDBBLOCKREPETAG
1070
     1
1071
       43
1005
12D196
  0
LINE
  5
12D197
  8
OBJECT
 10
476.99999999849018
 20
-1490.999999997231
 30
0.0
 11
594.99999999849024
 21
-1490.999999997231
 31
0.0
1001
ACDBBLOCKREPETAG
1070
     1
1071
       44
1005
12D197
  0
LINE
  5
12D198
  8
OBJECT
 10
594.99999999849024
 20
-1490.999999997231
 30
0.0
 11
594.99999999849024
 21
-1454.999999997231
 31
0.0
1001
ACDBBLOCKREPETAG
1070
     1
1071
       45
1005
12D198
  0
LINE
  5
12D199
  8
OBJECT
 10
481.49999999849018
 20
-1494.999999997231
 30
0.0
 11
481.49999999849018
 21
-1501.999999997231
 31
0.0
1001
ACDBBLOCKREPETAG
1070
     1
1071
       46
1005
12D199
  0
LINE
  5
12D19A
  8
OBJECT
 10
590.49999999849024
 20
-1501.999999997231
 30
0.0
 11
590.49999999849024
 21
-1494.999999997231
 31
0.0
1001
ACDBBLOCKREPETAG
1070
     1
1071
       47
1005
12D19A
  0
LINE
  5
12D19B
  8
OBJECT
 10
590.49999999849024
 20
-1494.999999997231
 30
0.0
 11
481.49999999849018
 21
-1494.999999997231
 31
0.0
1001
ACDBBLOCKREPETAG
1070
     1
1071
       48
1005
12D19B
  0
LINE
  5
12D19C
  8
OBJECT
 10
476.99999999849018
 20
-1490.999999997231
 30
0.0
 11
481.49999999849018
 21
-1494.999999997231
 31
0.0
1001
ACDBBLOCKREPETAG
1070
     1
1071
       49
1005
12D19C
  0
LINE
  5
12D19D
  8
OBJECT
 10
594.99999999849024
 20
-1490.999999997231
 30
0.0
 11
590.49999999849024
 21
-1494.999999997231
 31
0.0
1001
ACDBBLOCKREPETAG
1070
     1
1071
       50
1005
12D19D
  0
LINE
  5
12D19E
  8
OBJECT
 10
473.99999999849018
 20
-1504.9999999972299
 30
0.0
 11
473.99999999849018
 21
-1507.999999997231
 31
0.0
1001
ACDBBLOCKREPETAG
1070
     1
1071
       51
1005
12D19E
  0
ARC
  5
12D19F
  8
OBJECT
 10
476.99999999849018
 20
-1504.9999999972299
 30
0.0
 40
3.0
 50
90.0
 51
180.0
1001
ACDBBLOCKREPETAG
1070
     1
1071
       52
1005
12D19F
  0
LINE
  5
12D1A0
  8
OBJECT
 10
597.99999999849024
 20
-1507.999999997231
 30
0.0
 11
597.99999999849024
 21
-1504.999999997232
 31
0.0
1001
ACDBBLOCKREPETAG
1070
     1
1071
       53
1005
12D1A0
  0
ARC
  5
12D1A1
  8
OBJECT
 10
594.99999999849024
 20
-1504.999999997232
 30
0.0
 40
3.0
 50
0.0
 51
90.0
1001
ACDBBLOCKREPETAG
1070
     1
1071
       54
1005
12D1A1
  0
LINE
  5
12D1A2
  8
OBJECT
 10
594.99999999849024
 20
-1501.999999997232
 30
0.0
 11
476.99999999849018
 21
-1501.9999999972299
 31
0.0
1001
ACDBBLOCKREPETAG
1070
     1
1071
       55
1005
12D1A2
  0
LINE
  5
12D1A3
  8
HIDDEN
 10
491.49999999849018
 20
-1499.999999997231
 30
0.0
 11
580.49999999849024
 21
-1499.999999997231
 31
0.0
1001
ACDBBLOCKREPETAG
1070
     1
1071
      426
1005
12D1A3
  0
TEXT
  5
12D1A4
  8
SLIM
 10
60.171428571368068
 20
-1835.9999999993749
 30
0.0
 40
48.0
  1
B204（特）
 41
0.75
1001
ACDBBLOCKREPETAG
1070
     1
1071
      119
1005
12AEEF
  0
LINE
  5
12D1A5
  8
OBJECT
 10
250.99999999861211
 20
-1737.999999997231
 30
0.0
 11
250.99999999861211
 21
-1730.999999997231
 31
0.0
1001
ACDBBLOCKREPETAG
1070
     1
1071
       57
1005
12D1A5
  0
LINE
  5
12D1A6
  8
OBJECT
 10
250.99999999861211
 20
-1730.999999997231
 30
0.0
 11
100.9999999986121
 21
-1730.999999997231
 31
0.0
1001
ACDBBLOCKREPETAG
1070
     1
1071
       58
1005
12D1A6
  0
LINE
  5
12D1A7
  8
OBJECT
 10
247.99999999861211
 20
-1689.499999997232
 30
0.0
 11
103.9999999986121
 21
-1689.499999997232
 31
0.0
1001
ACDBBLOCKREPETAG
1070
     1
1071
       59
1005
12D1A7
  0
LINE
  5
12D1A8
  8
OBJECT
 10
241.49999999861211
 20
-1677.999999997231
 30
0.0
 11
110.4999999986121
 21
-1677.999999997231
 31
0.0
1001
ACDBBLOCKREPETAG
1070
     1
1071
       60
1005
12D1A8
  0
LINE
  5
12D1A9
  8
OBJECT
 10
100.9999999986121
 20
-1730.999999997231
 30
0.0
 11
100.9999999986121
 21
-1737.999999997231
 31
0.0
1001
ACDBBLOCKREPETAG
1070
     1
1071
       61
1005
12D1A9
  0
LINE
  5
12D1AA
  8
OBJECT
 10
100.9999999986121
 20
-1737.999999997231
 30
0.0
 11
250.99999999861211
 21
-1737.999999997231
 31
0.0
1001
ACDBBLOCKREPETAG
1070
     1
1071
       62
1005
12D1AA
  0
LINE
  5
12D1AB
  8
OBJECT
 10
113.9999999986121
 20
-1673.999999997231
 30
0.0
 11
113.9999999986121
 21
-1667.999999997231
 31
0.0
1001
ACDBBLOCKREPETAG
1070
     1
1071
       63
1005
12D1AB
  0
LINE
  5
12D1AC
  8
OBJECT
 10
103.9999999986121
 20
-1730.999999997231
 30
0.0
 11
103.9999999986121
 21
-1689.499999997232
 31
0.0
1001
ACDBBLOCKREPETAG
1070
     1
1071
       64
1005
12D1AC
  0
LINE
  5
12D1AD
  8
OBJECT
 10
103.9999999986121
 20
-1689.499999997232
 30
0.0
 11
110.4999999986121
 21
-1677.999999997231
 31
0.0
1001
ACDBBLOCKREPETAG
1070
     1
1071
       65
1005
12D1AD
  0
LINE
  5
12D1AE
  8
OBJECT
 10
110.4999999986121
 20
-1677.999999997231
 30
0.0
 11
113.9999999986121
 21
-1673.999999997231
 31
0.0
1001
ACDBBLOCKREPETAG
1070
     1
1071
       66
1005
12D1AE
  0
LINE
  5
12D1AF
  8
OBJECT
 10
247.99999999861211
 20
-1689.499999997232
 30
0.0
 11
241.49999999861211
 21
-1677.999999997231
 31
0.0
1001
ACDBBLOCKREPETAG
1070
     1
1071
       67
1005
12D1AF
  0
LINE
  5
12D1B0
  8
OBJECT
 10
241.49999999861211
 20
-1677.999999997231
 30
0.0
 11
237.99999999861211
 21
-1673.999999997231
 31
0.0
1001
ACDBBLOCKREPETAG
1070
     1
1071
       68
1005
12D1B0
  0
ARC
  5
12D1B1
  8
OBJECT
 10
175.99999999861211
 20
-2055.899999997233
 30
0.0
 40
386.89999999999998
 50
80.778701362368551
 51
99.221298637631435
1001
ACDBBLOCKREPETAG
1070
     1
1071
       69
1005
12D1B1
  0
LINE
  5
12D1B2
  8
OBJECT
 10
237.99999999861211
 20
-1673.999999997231
 30
0.0
 11
237.99999999861211
 21
-1667.999999997231
 31
0.0
1001
ACDBBLOCKREPETAG
1070
     1
1071
       70
1005
12D1B2
  0
LINE
  5
12D1B3
  8
OBJECT
 10
247.99999999861211
 20
-1730.999999997231
 30
0.0
 11
247.99999999861211
 21
-1689.499999997232
 31
0.0
1001
ACDBBLOCKREPETAG
1070
     1
1071
       71
1005
12D1B3
  0
INSERT
  5
12D1B4
  8
OBJECT
  2
*U12
 10
0.0
 20
0.0
 30
0.0
  0
LINE
  5
12D1B5
  8
HIDDEN
 10
118.9999999986121
 20
-1685.999999997231
 30
0.0
 11
232.99999999861211
 21
-1685.999999997231
 31
0.0
1001
ACDBBLOCKREPETAG
1070
     1
1071
      437
1005
12D1B5
  0
LINE
  5
12D1B6
  8
OBJECT
 10
258.99999999861211
 20
-1649.999999997231
 30
0.0
 11
255.99999999861211
 21
-1649.999999997231
 31
0.0
1001
ACDBBLOCKREPETAG
1070
     1
1071
      418
1005
12D1B6
  0
ARC
  5
12D1B7
  8
OBJECT
 10
258.99999999861211
 20
-1646.999999997231
 30
0.0
 40
3.0
 50
270.0
 51
0.0
1001
ACDBBLOCKREPETAG
1070
     1
1071
      419
1005
12D1B7
  0
LINE
  5
12D1B8
  8
OBJECT
 10
255.99999999861211
 20
-1525.999999997231
 30
0.0
 11
258.99999999861211
 21
-1525.999999997231
 31
0.0
1001
ACDBBLOCKREPETAG
1070
     1
1071
      420
1005
12D1B8
  0
ARC
  5
12D1B9
  8
OBJECT
 10
258.99999999861211
 20
-1528.999999997231
 30
0.0
 40
3.0
 50
0.0
 51
90.0
1001
ACDBBLOCKREPETAG
1070
     1
1071
      421
1005
12D1B9
  0
LINE
  5
12D1BA
  8
OBJECT
 10
261.99999999861211
 20
-1528.999999997231
 30
0.0
 11
261.99999999861211
 21
-1646.999999997231
 31
0.0
1001
ACDBBLOCKREPETAG
1070
     1
1071
      422
1005
12D1BA
  0
INSERT
  5
12D1BB
  8
OBJECT
  2
*U13
 10
0.0
 20
0.0
 30
0.0
  0
LINE
  5
12D1BC
  8
OBJECT
 10
120.9999999986121
 20
-1454.999999997231
 30
0.0
 11
120.9999999986121
 21
-1447.999999997231
 31
0.0
1001
ACDBBLOCKREPETAG
1070
     1
1071
       20
1005
12D1BC
  0
LINE
  5
12D1BD
  8
OBJECT
 10
120.9999999986121
 20
-1447.999999997231
 30
0.0
 11
230.99999999861211
 21
-1447.999999997231
 31
0.0
1001
ACDBBLOCKREPETAG
1070
     1
1071
       21
1005
12D1BD
  0
LINE
  5
12D1BE
  8
OBJECT
 10
230.99999999861211
 20
-1447.999999997231
 30
0.0
 11
230.99999999861211
 21
-1454.999999997231
 31
0.0
1001
ACDBBLOCKREPETAG
1070
     1
1071
       22
1005
12D1BE
  0
LINE
  5
12D1BF
  8
OBJECT
 10
230.99999999861211
 20
-1454.999999997231
 30
0.0
 11
120.9999999986121
 21
-1454.999999997231
 31
0.0
1001
ACDBBLOCKREPETAG
1070
     1
1071
       23
1005
12D1BF
  0
LINE
  5
12D1C0
  8
OBJECT
 10
123.9999999986121
 20
-1454.999999997231
 30
0.0
 11
123.9999999986121
 21
-1490.999999997231
 31
0.0
1001
ACDBBLOCKREPETAG
1070
     1
1071
       24
1005
12D1C0
  0
LINE
  5
12D1C1
  8
OBJECT
 10
123.9999999986121
 20
-1490.999999997231
 30
0.0
 11
227.99999999861211
 21
-1490.999999997231
 31
0.0
1001
ACDBBLOCKREPETAG
1070
     1
1071
       25
1005
12D1C1
  0
LINE
  5
12D1C2
  8
OBJECT
 10
227.99999999861211
 20
-1490.999999997231
 30
0.0
 11
227.99999999861211
 21
-1454.999999997231
 31
0.0
1001
ACDBBLOCKREPETAG
1070
     1
1071
       26
1005
12D1C2
  0
LINE
  5
12D1C3
  8
OBJECT
 10
128.49999999861211
 20
-1494.999999997231
 30
0.0
 11
128.49999999861211
 21
-1501.999999997231
 31
0.0
1001
ACDBBLOCKREPETAG
1070
     1
1071
       27
1005
12D1C3
  0
LINE
  5
12D1C4
  8
OBJECT
 10
223.49999999861211
 20
-1501.999999997231
 30
0.0
 11
223.49999999861211
 21
-1494.999999997231
 31
0.0
1001
ACDBBLOCKREPETAG
1070
     1
1071
       28
1005
12D1C4
  0
LINE
  5
12D1C5
  8
OBJECT
 10
223.49999999861211
 20
-1494.999999997231
 30
0.0
 11
128.49999999861211
 21
-1494.999999997231
 31
0.0
1001
ACDBBLOCKREPETAG
1070
     1
1071
       29
1005
12D1C5
  0
LINE
  5
12D1C6
  8
OBJECT
 10
123.9999999986121
 20
-1490.999999997231
 30
0.0
 11
128.49999999861211
 21
-1494.999999997231
 31
0.0
1001
ACDBBLOCKREPETAG
1070
     1
1071
       30
1005
12D1C6
  0
LINE
  5
12D1C7
  8
OBJECT
 10
227.99999999861211
 20
-1490.999999997231
 30
0.0
 11
223.49999999861211
 21
-1494.999999997231
 31
0.0
1001
ACDBBLOCKREPETAG
1070
     1
1071
       31
1005
12D1C7
  0
LINE
  5
12D1C8
  8
OBJECT
 10
113.9999999986121
 20
-1504.9999999972299
 30
0.0
 11
113.9999999986121
 21
-1507.999999997231
 31
0.0
1001
ACDBBLOCKREPETAG
1070
     1
1071
       32
1005
12D1C8
  0
ARC
  5
12D1C9
  8
OBJECT
 10
116.9999999986121
 20
-1504.9999999972299
 30
0.0
 40
3.0
 50
90.0
 51
180.0
1001
ACDBBLOCKREPETAG
1070
     1
1071
       33
1005
12D1C9
  0
LINE
  5
12D1CA
  8
OBJECT
 10
237.99999999861211
 20
-1507.999999997231
 30
0.0
 11
237.99999999861211
 21
-1504.999999997232
 31
0.0
1001
ACDBBLOCKREPETAG
1070
     1
1071
       34
1005
12D1CA
  0
ARC
  5
12D1CB
  8
OBJECT
 10
234.99999999861211
 20
-1504.999999997232
 30
0.0
 40
3.0
 50
0.0
 51
90.0
1001
ACDBBLOCKREPETAG
1070
     1
1071
       35
1005
12D1CB
  0
LINE
  5
12D1CC
  8
OBJECT
 10
234.99999999861211
 20
-1501.999999997232
 30
0.0
 11
116.9999999986121
 21
-1501.9999999972299
 31
0.0
1001
ACDBBLOCKREPETAG
1070
     1
1071
       36
1005
12D1CC
  0
LINE
  5
12D1CD
  8
HIDDEN
 10
137.99999999861211
 20
-1499.999999997231
 30
0.0
 11
213.99999999861211
 21
-1499.999999997231
 31
0.0
1001
ACDBBLOCKREPETAG
1070
     1
1071
      423
1005
12D1CD
  0
TEXT
  5
12D1CE
  8
SLIM
 10
420.17142857124622
 20
-1371.9999999995321
 30
0.0
 40
48.0
  1
B203（特）
 41
0.75
1001
ACDBBLOCKREPETAG
1070
     1
1071
      119
1005
12AEEF
  0
LINE
  5
12D1CF
  8
OBJECT
 10
597.99999999849024
 20
-1256.99999999739
 30
0.0
 11
597.99999999849024
 21
-1263.99999999739
 31
0.0
1001
ACDBBLOCKREPETAG
1070
     1
1071
       38
1005
12D1CF
  0
LINE
  5
12D1D0
  8
OBJECT
 10
597.99999999849024
 20
-1263.99999999739
 30
0.0
 11
473.99999999849018
 21
-1263.99999999739
 31
0.0
1001
ACDBBLOCKREPETAG
1070
     1
1071
       39
1005
12D1D0
  0
LINE
  5
12D1D1
  8
OBJECT
 10
473.99999999849018
 20
-1263.99999999739
 30
0.0
 11
473.99999999849018
 21
-1256.99999999739
 31
0.0
1001
ACDBBLOCKREPETAG
1070
     1
1071
       40
1005
12D1D1
  0
LINE
  5
12D1D2
  8
OBJECT
 10
473.99999999849018
 20
-1256.99999999739
 30
0.0
 11
597.99999999849024
 21
-1256.99999999739
 31
0.0
1001
ACDBBLOCKREPETAG
1070
     1
1071
       41
1005
12D1D2
  0
LINE
  5
12D1D3
  8
OBJECT
 10
594.99999999849024
 20
-1256.99999999739
 30
0.0
 11
594.99999999849024
 21
-1220.9999999973891
 31
0.0
1001
ACDBBLOCKREPETAG
1070
     1
1071
       42
1005
12D1D3
  0
LINE
  5
12D1D4
  8
OBJECT
 10
594.99999999849024
 20
-1220.9999999973891
 30
0.0
 11
476.99999999849018
 21
-1220.9999999973891
 31
0.0
1001
ACDBBLOCKREPETAG
1070
     1
1071
       43
1005
12D1D4
  0
LINE
  5
12D1D5
  8
OBJECT
 10
476.99999999849018
 20
-1220.9999999973891
 30
0.0
 11
476.99999999849018
 21
-1256.99999999739
 31
0.0
1001
ACDBBLOCKREPETAG
1070
     1
1071
       44
1005
12D1D5
  0
LINE
  5
12D1D6
  8
OBJECT
 10
590.49999999849024
 20
-1216.99999999739
 30
0.0
 11
590.49999999849024
 21
-1209.99999999739
 31
0.0
1001
ACDBBLOCKREPETAG
1070
     1
1071
       45
1005
12D1D6
  0
LINE
  5
12D1D7
  8
OBJECT
 10
481.49999999849018
 20
-1209.99999999739
 30
0.0
 11
481.49999999849018
 21
-1216.99999999739
 31
0.0
1001
ACDBBLOCKREPETAG
1070
     1
1071
       46
1005
12D1D7
  0
LINE
  5
12D1D8
  8
OBJECT
 10
481.49999999849018
 20
-1216.99999999739
 30
0.0
 11
590.49999999849024
 21
-1216.99999999739
 31
0.0
1001
ACDBBLOCKREPETAG
1070
     1
1071
       47
1005
12D1D8
  0
LINE
  5
12D1D9
  8
OBJECT
 10
594.99999999849024
 20
-1220.9999999973891
 30
0.0
 11
590.49999999849024
 21
-1216.99999999739
 31
0.0
1001
ACDBBLOCKREPETAG
1070
     1
1071
       48
1005
12D1D9
  0
LINE
  5
12D1DA
  8
OBJECT
 10
476.99999999849018
 20
-1220.9999999973891
 30
0.0
 11
481.49999999849018
 21
-1216.99999999739
 31
0.0
1001
ACDBBLOCKREPETAG
1070
     1
1071
       49
1005
12D1DA
  0
LINE
  5
12D1DB
  8
OBJECT
 10
597.99999999849024
 20
-1206.9999999973909
 30
0.0
 11
597.99999999849024
 21
-1203.99999999739
 31
0.0
1001
ACDBBLOCKREPETAG
1070
     1
1071
       50
1005
12D1DB
  0
ARC
  5
12D1DC
  8
OBJECT
 10
594.99999999849024
 20
-1206.9999999973909
 30
0.0
 40
3.0
 50
270.0
 51
0.0
1001
ACDBBLOCKREPETAG
1070
     1
1071
       51
1005
12D1DC
  0
LINE
  5
12D1DD
  8
OBJECT
 10
473.99999999849018
 20
-1203.99999999739
 30
0.0
 11
473.99999999849018
 21
-1206.9999999973891
 31
0.0
1001
ACDBBLOCKREPETAG
1070
     1
1071
       52
1005
12D1DD
  0
ARC
  5
12D1DE
  8
OBJECT
 10
476.99999999849018
 20
-1206.9999999973891
 30
0.0
 40
3.0
 50
180.0
 51
270.0
1001
ACDBBLOCKREPETAG
1070
     1
1071
       53
1005
12D1DE
  0
LINE
  5
12D1DF
  8
OBJECT
 10
476.99999999849018
 20
-1209.9999999973891
 30
0.0
 11
594.99999999849024
 21
-1209.99999999739
 31
0.0
1001
ACDBBLOCKREPETAG
1070
     1
1071
       54
1005
12D1DF
  0
INSERT
  5
12D1E0
  8
OBJECT
  2
*U14
 10
0.0
 20
0.0
 30
0.0
  0
LINE
  5
12D1E1
  8
HIDDEN
 10
580.49999999849024
 20
-1211.99999999739
 30
0.0
 11
491.49999999849018
 21
-1211.99999999739
 31
0.0
1001
ACDBBLOCKREPETAG
1070
     1
1071
      430
1005
12D1E1
  0
LINE
  5
12D1E2
  8
OBJECT
 10
618.99999999849024
 20
-1185.99999999739
 30
0.0
 11
615.99999999849024
 21
-1185.99999999739
 31
0.0
1001
ACDBBLOCKREPETAG
1070
     1
1071
      418
1005
12D1E2
  0
ARC
  5
12D1E3
  8
OBJECT
 10
618.99999999849024
 20
-1182.99999999739
 30
0.0
 40
3.0
 50
270.0
 51
0.0
1001
ACDBBLOCKREPETAG
1070
     1
1071
      419
1005
12D1E3
  0
LINE
  5
12D1E4
  8
OBJECT
 10
615.99999999849024
 20
-1061.9999999973891
 30
0.0
 11
618.99999999849024
 21
-1061.9999999973891
 31
0.0
1001
ACDBBLOCKREPETAG
1070
     1
1071
      420
1005
12D1E4
  0
ARC
  5
12D1E5
  8
OBJECT
 10
618.99999999849024
 20
-1064.99999999739
 30
0.0
 40
3.0
 50
0.0
 51
90.0
1001
ACDBBLOCKREPETAG
1070
     1
1071
      421
1005
12D1E5
  0
LINE
  5
12D1E6
  8
OBJECT
 10
621.99999999849024
 20
-1064.99999999739
 30
0.0
 11
621.99999999849024
 21
-1182.99999999739
 31
0.0
1001
ACDBBLOCKREPETAG
1070
     1
1071
      422
1005
12D1E6
  0
INSERT
  5
12D1E7
  8
OBJECT
  2
*U15
 10
0.0
 20
0.0
 30
0.0
  0
LINE
  5
12D1E8
  8
OBJECT
 10
480.99999999849018
 20
-990.99999999738964
 30
0.0
 11
480.99999999849018
 21
-983.99999999738964
 31
0.0
1001
ACDBBLOCKREPETAG
1070
     1
1071
       20
1005
12D1E8
  0
LINE
  5
12D1E9
  8
OBJECT
 10
480.99999999849018
 20
-983.99999999738964
 30
0.0
 11
590.99999999849024
 21
-983.99999999738964
 31
0.0
1001
ACDBBLOCKREPETAG
1070
     1
1071
       21
1005
12D1E9
  0
LINE
  5
12D1EA
  8
OBJECT
 10
590.99999999849024
 20
-983.99999999738964
 30
0.0
 11
590.99999999849024
 21
-990.99999999738964
 31
0.0
1001
ACDBBLOCKREPETAG
1070
     1
1071
       22
1005
12D1EA
  0
LINE
  5
12D1EB
  8
OBJECT
 10
590.99999999849024
 20
-990.99999999738964
 30
0.0
 11
480.99999999849018
 21
-990.99999999738964
 31
0.0
1001
ACDBBLOCKREPETAG
1070
     1
1071
       23
1005
12D1EB
  0
LINE
  5
12D1EC
  8
OBJECT
 10
483.99999999849018
 20
-990.99999999738964
 30
0.0
 11
483.99999999849018
 21
-1026.99999999739
 31
0.0
1001
ACDBBLOCKREPETAG
1070
     1
1071
       24
1005
12D1EC
  0
LINE
  5
12D1ED
  8
OBJECT
 10
483.99999999849018
 20
-1026.99999999739
 30
0.0
 11
587.99999999849024
 21
-1026.99999999739
 31
0.0
1001
ACDBBLOCKREPETAG
1070
     1
1071
       25
1005
12D1ED
  0
LINE
  5
12D1EE
  8
OBJECT
 10
587.99999999849024
 20
-1026.99999999739
 30
0.0
 11
587.99999999849024
 21
-990.99999999738964
 31
0.0
1001
ACDBBLOCKREPETAG
1070
     1
1071
       26
1005
12D1EE
  0
LINE
  5
12D1EF
  8
OBJECT
 10
488.49999999849018
 20
-1030.99999999739
 30
0.0
 11
488.49999999849018
 21
-1037.9999999973891
 31
0.0
1001
ACDBBLOCKREPETAG
1070
     1
1071
       27
1005
12D1EF
  0
LINE
  5
12D1F0
  8
OBJECT
 10
583.49999999849024
 20
-1037.9999999973891
 30
0.0
 11
583.49999999849024
 21
-1030.99999999739
 31
0.0
1001
ACDBBLOCKREPETAG
1070
     1
1071
       28
1005
12D1F0
  0
LINE
  5
12D1F1
  8
OBJECT
 10
583.49999999849024
 20
-1030.99999999739
 30
0.0
 11
488.49999999849018
 21
-1030.99999999739
 31
0.0
1001
ACDBBLOCKREPETAG
1070
     1
1071
       29
1005
12D1F1
  0
LINE
  5
12D1F2
  8
OBJECT
 10
483.99999999849018
 20
-1026.99999999739
 30
0.0
 11
488.49999999849018
 21
-1030.99999999739
 31
0.0
1001
ACDBBLOCKREPETAG
1070
     1
1071
       30
1005
12D1F2
  0
LINE
  5
12D1F3
  8
OBJECT
 10
587.99999999849024
 20
-1026.99999999739
 30
0.0
 11
583.49999999849024
 21
-1030.99999999739
 31
0.0
1001
ACDBBLOCKREPETAG
1070
     1
1071
       31
1005
12D1F3
  0
LINE
  5
12D1F4
  8
OBJECT
 10
473.99999999849018
 20
-1040.9999999973891
 30
0.0
 11
473.99999999849018
 21
-1043.99999999739
 31
0.0
1001
ACDBBLOCKREPETAG
1070
     1
1071
       32
1005
12D1F4
  0
ARC
  5
12D1F5
  8
OBJECT
 10
476.99999999849018
 20
-1040.9999999973891
 30
0.0
 40
3.0
 50
90.0
 51
180.0
1001
ACDBBLOCKREPETAG
1070
     1
1071
       33
1005
12D1F5
  0
LINE
  5
12D1F6
  8
OBJECT
 10
597.99999999849024
 20
-1043.99999999739
 30
0.0
 11
597.99999999849024
 21
-1040.99999999739
 31
0.0
1001
ACDBBLOCKREPETAG
1070
     1
1071
       34
1005
12D1F6
  0
ARC
  5
12D1F7
  8
OBJECT
 10
594.99999999849024
 20
-1040.99999999739
 30
0.0
 40
3.0
 50
0.0
 51
90.0
1001
ACDBBLOCKREPETAG
1070
     1
1071
       35
1005
12D1F7
  0
LINE
  5
12D1F8
  8
OBJECT
 10
594.99999999849024
 20
-1037.99999999739
 30
0.0
 11
476.99999999849018
 21
-1037.9999999973891
 31
0.0
1001
ACDBBLOCKREPETAG
1070
     1
1071
       36
1005
12D1F8
  0
LINE
  5
12D1F9
  8
HIDDEN
 10
497.99999999849018
 20
-1035.99999999739
 30
0.0
 11
573.99999999849024
 21
-1035.99999999739
 31
0.0
1001
ACDBBLOCKREPETAG
1070
     1
1071
      423
1005
12D1F9
  0
TEXT
  5
12D1FA
  8
SLIM
 10
115.714285714225
 20
-1371.9999999995321
 30
0.0
 40
48.0
  1
B202
 41
0.75
1001
ACDBBLOCKREPETAG
1070
     1
1071
      119
1005
12AEEF
  0
LINE
  5
12D1FB
  8
OBJECT
 10
230.999999998612
 20
-1256.99999999739
 30
0.0
 11
230.999999998612
 21
-1263.99999999739
 31
0.0
1001
ACDBBLOCKREPETAG
1070
     1
1071
       19
1005
12D1FB
  0
LINE
  5
12D1FC
  8
OBJECT
 10
230.999999998612
 20
-1263.99999999739
 30
0.0
 11
120.9999999986119
 21
-1263.99999999739
 31
0.0
1001
ACDBBLOCKREPETAG
1070
     1
1071
       20
1005
12D1FC
  0
LINE
  5
12D1FD
  8
OBJECT
 10
120.9999999986119
 20
-1263.99999999739
 30
0.0
 11
120.9999999986119
 21
-1256.99999999739
 31
0.0
1001
ACDBBLOCKREPETAG
1070
     1
1071
       21
1005
12D1FD
  0
LINE
  5
12D1FE
  8
OBJECT
 10
120.9999999986119
 20
-1256.99999999739
 30
0.0
 11
230.999999998612
 21
-1256.99999999739
 31
0.0
1001
ACDBBLOCKREPETAG
1070
     1
1071
       22
1005
12D1FE
  0
LINE
  5
12D1FF
  8
OBJECT
 10
227.99999999861191
 20
-1256.99999999739
 30
0.0
 11
227.99999999861191
 21
-1220.9999999973891
 31
0.0
1001
ACDBBLOCKREPETAG
1070
     1
1071
       23
1005
12D1FF
  0
LINE
  5
12D200
  8
OBJECT
 10
227.99999999861191
 20
-1220.9999999973891
 30
0.0
 11
123.9999999986119
 21
-1220.9999999973891
 31
0.0
1001
ACDBBLOCKREPETAG
1070
     1
1071
       24
1005
12D200
  0
LINE
  5
12D201
  8
OBJECT
 10
123.9999999986119
 20
-1220.9999999973891
 30
0.0
 11
123.9999999986119
 21
-1256.99999999739
 31
0.0
1001
ACDBBLOCKREPETAG
1070
     1
1071
       25
1005
12D201
  0
LINE
  5
12D202
  8
OBJECT
 10
223.49999999861191
 20
-1216.99999999739
 30
0.0
 11
223.49999999861191
 21
-1209.99999999739
 31
0.0
1001
ACDBBLOCKREPETAG
1070
     1
1071
       26
1005
12D202
  0
LINE
  5
12D203
  8
OBJECT
 10
128.49999999861191
 20
-1209.99999999739
 30
0.0
 11
128.49999999861191
 21
-1216.99999999739
 31
0.0
1001
ACDBBLOCKREPETAG
1070
     1
1071
       27
1005
12D203
  0
LINE
  5
12D204
  8
OBJECT
 10
128.49999999861191
 20
-1216.99999999739
 30
0.0
 11
223.49999999861191
 21
-1216.99999999739
 31
0.0
1001
ACDBBLOCKREPETAG
1070
     1
1071
       28
1005
12D204
  0
LINE
  5
12D205
  8
OBJECT
 10
227.99999999861191
 20
-1220.9999999973891
 30
0.0
 11
223.49999999861191
 21
-1216.99999999739
 31
0.0
1001
ACDBBLOCKREPETAG
1070
     1
1071
       29
1005
12D205
  0
LINE
  5
12D206
  8
OBJECT
 10
123.9999999986119
 20
-1220.9999999973891
 30
0.0
 11
128.49999999861191
 21
-1216.99999999739
 31
0.0
1001
ACDBBLOCKREPETAG
1070
     1
1071
       30
1005
12D206
  0
LINE
  5
12D207
  8
OBJECT
 10
237.99999999861191
 20
-1206.9999999973909
 30
0.0
 11
237.99999999861191
 21
-1203.99999999739
 31
0.0
1001
ACDBBLOCKREPETAG
1070
     1
1071
       31
1005
12D207
  0
ARC
  5
12D208
  8
OBJECT
 10
234.999999998612
 20
-1206.9999999973909
 30
0.0
 40
3.0
 50
270.0
 51
0.0
1001
ACDBBLOCKREPETAG
1070
     1
1071
       32
1005
12D208
  0
LINE
  5
12D209
  8
OBJECT
 10
113.9999999986119
 20
-1203.99999999739
 30
0.0
 11
113.9999999986119
 21
-1206.9999999973891
 31
0.0
1001
ACDBBLOCKREPETAG
1070
     1
1071
       33
1005
12D209
  0
ARC
  5
12D20A
  8
OBJECT
 10
116.9999999986119
 20
-1206.9999999973891
 30
0.0
 40
3.0
 50
180.0
 51
270.0
1001
ACDBBLOCKREPETAG
1070
     1
1071
       34
1005
12D20A
  0
LINE
  5
12D20B
  8
OBJECT
 10
116.9999999986119
 20
-1209.9999999973891
 30
0.0
 11
234.999999998612
 21
-1209.99999999739
 31
0.0
1001
ACDBBLOCKREPETAG
1070
     1
1071
       35
1005
12D20B
  0
INSERT
  5
12D20C
  8
OBJECT
  2
*U16
 10
0.0
 20
0.0
 30
0.0
  0
LINE
  5
12D20D
  8
HIDDEN
 10
213.999999998612
 20
-1211.99999999739
 30
0.0
 11
137.99999999861191
 21
-1211.99999999739
 31
0.0
1001
ACDBBLOCKREPETAG
1070
     1
1071
      427
1005
12D20D
  0
LINE
  5
12D20E
  8
OBJECT
 10
258.99999999861188
 20
-1185.99999999739
 30
0.0
 11
255.999999998612
 21
-1185.99999999739
 31
0.0
1001
ACDBBLOCKREPETAG
1070
     1
1071
      418
1005
12D20E
  0
ARC
  5
12D20F
  8
OBJECT
 10
258.99999999861188
 20
-1182.99999999739
 30
0.0
 40
3.0
 50
270.0
 51
0.0
1001
ACDBBLOCKREPETAG
1070
     1
1071
      419
1005
12D20F
  0
LINE
  5
12D210
  8
OBJECT
 10
255.999999998612
 20
-1061.9999999973891
 30
0.0
 11
258.99999999861188
 21
-1061.9999999973891
 31
0.0
1001
ACDBBLOCKREPETAG
1070
     1
1071
      420
1005
12D210
  0
ARC
  5
12D211
  8
OBJECT
 10
258.99999999861188
 20
-1064.99999999739
 30
0.0
 40
3.0
 50
0.0
 51
90.0
1001
ACDBBLOCKREPETAG
1070
     1
1071
      421
1005
12D211
  0
LINE
  5
12D212
  8
OBJECT
 10
261.999999998612
 20
-1064.99999999739
 30
0.0
 11
261.999999998612
 21
-1182.99999999739
 31
0.0
1001
ACDBBLOCKREPETAG
1070
     1
1071
      422
1005
12D212
  0
INSERT
  5
12D213
  8
OBJECT
  2
*U17
 10
0.0
 20
0.0
 30
0.0
  0
LINE
  5
12D214
  8
OBJECT
 10
120.9999999986119
 20
-990.99999999738964
 30
0.0
 11
120.9999999986119
 21
-983.99999999738964
 31
0.0
1001
ACDBBLOCKREPETAG
1070
     1
1071
       20
1005
12D214
  0
LINE
  5
12D215
  8
OBJECT
 10
120.9999999986119
 20
-983.99999999738964
 30
0.0
 11
230.999999998612
 21
-983.99999999738964
 31
0.0
1001
ACDBBLOCKREPETAG
1070
     1
1071
       21
1005
12D215
  0
LINE
  5
12D216
  8
OBJECT
 10
230.999999998612
 20
-983.99999999738964
 30
0.0
 11
230.999999998612
 21
-990.99999999738964
 31
0.0
1001
ACDBBLOCKREPETAG
1070
     1
1071
       22
1005
12D216
  0
LINE
  5
12D217
  8
OBJECT
 10
230.999999998612
 20
-990.99999999738964
 30
0.0
 11
120.9999999986119
 21
-990.99999999738964
 31
0.0
1001
ACDBBLOCKREPETAG
1070
     1
1071
       23
1005
12D217
  0
LINE
  5
12D218
  8
OBJECT
 10
123.9999999986119
 20
-990.99999999738964
 30
0.0
 11
123.9999999986119
 21
-1026.99999999739
 31
0.0
1001
ACDBBLOCKREPETAG
1070
     1
1071
       24
1005
12D218
  0
LINE
  5
12D219
  8
OBJECT
 10
123.9999999986119
 20
-1026.99999999739
 30
0.0
 11
227.99999999861191
 21
-1026.99999999739
 31
0.0
1001
ACDBBLOCKREPETAG
1070
     1
1071
       25
1005
12D219
  0
LINE
  5
12D21A
  8
OBJECT
 10
227.99999999861191
 20
-1026.99999999739
 30
0.0
 11
227.99999999861191
 21
-990.99999999738964
 31
0.0
1001
ACDBBLOCKREPETAG
1070
     1
1071
       26
1005
12D21A
  0
LINE
  5
12D21B
  8
OBJECT
 10
128.49999999861191
 20
-1030.99999999739
 30
0.0
 11
128.49999999861191
 21
-1037.9999999973891
 31
0.0
1001
ACDBBLOCKREPETAG
1070
     1
1071
       27
1005
12D21B
  0
LINE
  5
12D21C
  8
OBJECT
 10
223.49999999861191
 20
-1037.9999999973891
 30
0.0
 11
223.49999999861191
 21
-1030.99999999739
 31
0.0
1001
ACDBBLOCKREPETAG
1070
     1
1071
       28
1005
12D21C
  0
LINE
  5
12D21D
  8
OBJECT
 10
223.49999999861191
 20
-1030.99999999739
 30
0.0
 11
128.49999999861191
 21
-1030.99999999739
 31
0.0
1001
ACDBBLOCKREPETAG
1070
     1
1071
       29
1005
12D21D
  0
LINE
  5
12D21E
  8
OBJECT
 10
123.9999999986119
 20
-1026.99999999739
 30
0.0
 11
128.49999999861191
 21
-1030.99999999739
 31
0.0
1001
ACDBBLOCKREPETAG
1070
     1
1071
       30
1005
12D21E
  0
LINE
  5
12D21F
  8
OBJECT
 10
227.99999999861191
 20
-1026.99999999739
 30
0.0
 11
223.49999999861191
 21
-1030.99999999739
 31
0.0
1001
ACDBBLOCKREPETAG
1070
     1
1071
       31
1005
12D21F
  0
LINE
  5
12D220
  8
OBJECT
 10
113.9999999986119
 20
-1040.9999999973891
 30
0.0
 11
113.9999999986119
 21
-1043.99999999739
 31
0.0
1001
ACDBBLOCKREPETAG
1070
     1
1071
       32
1005
12D220
  0
ARC
  5
12D221
  8
OBJECT
 10
116.9999999986119
 20
-1040.9999999973891
 30
0.0
 40
3.0
 50
90.0
 51
180.0
1001
ACDBBLOCKREPETAG
1070
     1
1071
       33
1005
12D221
  0
LINE
  5
12D222
  8
OBJECT
 10
237.99999999861191
 20
-1043.99999999739
 30
0.0
 11
237.99999999861191
 21
-1040.99999999739
 31
0.0
1001
ACDBBLOCKREPETAG
1070
     1
1071
       34
1005
12D222
  0
ARC
  5
12D223
  8
OBJECT
 10
234.999999998612
 20
-1040.99999999739
 30
0.0
 40
3.0
 50
0.0
 51
90.0
1001
ACDBBLOCKREPETAG
1070
     1
1071
       35
1005
12D223
  0
LINE
  5
12D224
  8
OBJECT
 10
234.999999998612
 20
-1037.99999999739
 30
0.0
 11
116.9999999986119
 21
-1037.9999999973891
 31
0.0
1001
ACDBBLOCKREPETAG
1070
     1
1071
       36
1005
12D224
  0
LINE
  5
12D225
  8
HIDDEN
 10
137.99999999861191
 20
-1035.99999999739
 30
0.0
 11
213.999999998612
 21
-1035.99999999739
 31
0.0
1001
ACDBBLOCKREPETAG
1070
     1
1071
      423
1005
12D225
  0
TEXT
  5
12D226
  8
SLIM
 10
423.59999999981761
 20
-907.999999999691
 30
0.0
 40
48.0
  1
B104（特）
 41
0.75
1001
ACDBBLOCKREPETAG
1070
     1
1071
      119
1005
12AEEF
  0
LINE
  5
12D227
  8
OBJECT
 10
610.99999999849024
 20
-809.999999997548
 30
0.0
 11
610.99999999849024
 21
-802.99999999754823
 31
0.0
1001
ACDBBLOCKREPETAG
1070
     1
1071
       57
1005
12D227
  0
LINE
  5
12D228
  8
OBJECT
 10
610.99999999849024
 20
-802.99999999754823
 30
0.0
 11
460.99999999849018
 21
-802.99999999754823
 31
0.0
1001
ACDBBLOCKREPETAG
1070
     1
1071
       58
1005
12D228
  0
LINE
  5
12D229
  8
OBJECT
 10
607.99999999849024
 20
-761.49999999754812
 30
0.0
 11
463.99999999849018
 21
-761.49999999754812
 31
0.0
1001
ACDBBLOCKREPETAG
1070
     1
1071
       59
1005
12D229
  0
LINE
  5
12D22A
  8
OBJECT
 10
601.49999999849024
 20
-749.999999997548
 30
0.0
 11
470.49999999849018
 21
-749.999999997548
 31
0.0
1001
ACDBBLOCKREPETAG
1070
     1
1071
       60
1005
12D22A
  0
LINE
  5
12D22B
  8
OBJECT
 10
460.99999999849018
 20
-802.99999999754823
 30
0.0
 11
460.99999999849018
 21
-809.999999997548
 31
0.0
1001
ACDBBLOCKREPETAG
1070
     1
1071
       61
1005
12D22B
  0
LINE
  5
12D22C
  8
OBJECT
 10
460.99999999849018
 20
-809.999999997548
 30
0.0
 11
610.99999999849024
 21
-809.999999997548
 31
0.0
1001
ACDBBLOCKREPETAG
1070
     1
1071
       62
1005
12D22C
  0
LINE
  5
12D22D
  8
OBJECT
 10
473.99999999849018
 20
-745.999999997548
 30
0.0
 11
473.99999999849018
 21
-739.99999999754812
 31
0.0
1001
ACDBBLOCKREPETAG
1070
     1
1071
       63
1005
12D22D
  0
LINE
  5
12D22E
  8
OBJECT
 10
463.99999999849018
 20
-802.99999999754823
 30
0.0
 11
463.99999999849018
 21
-761.49999999754812
 31
0.0
1001
ACDBBLOCKREPETAG
1070
     1
1071
       64
1005
12D22E
  0
LINE
  5
12D22F
  8
OBJECT
 10
463.99999999849018
 20
-761.49999999754812
 30
0.0
 11
470.49999999849018
 21
-749.999999997548
 31
0.0
1001
ACDBBLOCKREPETAG
1070
     1
1071
       65
1005
12D22F
  0
LINE
  5
12D230
  8
OBJECT
 10
470.49999999849018
 20
-749.999999997548
 30
0.0
 11
473.99999999849018
 21
-745.999999997548
 31
0.0
1001
ACDBBLOCKREPETAG
1070
     1
1071
       66
1005
12D230
  0
LINE
  5
12D231
  8
OBJECT
 10
607.99999999849024
 20
-761.49999999754812
 30
0.0
 11
601.49999999849024
 21
-749.999999997548
 31
0.0
1001
ACDBBLOCKREPETAG
1070
     1
1071
       67
1005
12D231
  0
LINE
  5
12D232
  8
OBJECT
 10
601.49999999849024
 20
-749.999999997548
 30
0.0
 11
597.99999999849024
 21
-745.999999997548
 31
0.0
1001
ACDBBLOCKREPETAG
1070
     1
1071
       68
1005
12D232
  0
ARC
  5
12D233
  8
OBJECT
 10
535.99999999849024
 20
-1127.899999997549
 30
0.0
 40
386.89999999999998
 50
80.778701362367499
 51
99.221298637632543
1001
ACDBBLOCKREPETAG
1070
     1
1071
       69
1005
12D233
  0
LINE
  5
12D234
  8
OBJECT
 10
597.99999999849024
 20
-745.999999997548
 30
0.0
 11
597.99999999849024
 21
-739.99999999754812
 31
0.0
1001
ACDBBLOCKREPETAG
1070
     1
1071
       70
1005
12D234
  0
LINE
  5
12D235
  8
OBJECT
 10
607.99999999849024
 20
-802.99999999754823
 30
0.0
 11
607.99999999849024
 21
-761.49999999754812
 31
0.0
1001
ACDBBLOCKREPETAG
1070
     1
1071
       71
1005
12D235
  0
INSERT
  5
12D236
  8
OBJECT
  2
*U18
 10
0.0
 20
0.0
 30
0.0
  0
LINE
  5
12D237
  8
HIDDEN
 10
478.99999999849018
 20
-757.99999999754812
 30
0.0
 11
592.99999999849024
 21
-757.99999999754812
 31
0.0
1001
ACDBBLOCKREPETAG
1070
     1
1071
      437
1005
12D237
  0
LINE
  5
12D238
  8
OBJECT
 10
618.99999999849024
 20
-721.99999999754812
 30
0.0
 11
615.99999999849024
 21
-721.99999999754812
 31
0.0
1001
ACDBBLOCKREPETAG
1070
     1
1071
      418
1005
12D238
  0
ARC
  5
12D239
  8
OBJECT
 10
618.99999999849024
 20
-718.99999999754812
 30
0.0
 40
3.0
 50
270.0
 51
0.0
1001
ACDBBLOCKREPETAG
1070
     1
1071
      419
1005
12D239
  0
LINE
  5
12D23A
  8
OBJECT
 10
615.99999999849024
 20
-597.999999997548
 30
0.0
 11
618.99999999849024
 21
-597.999999997548
 31
0.0
1001
ACDBBLOCKREPETAG
1070
     1
1071
      420
1005
12D23A
  0
ARC
  5
12D23B
  8
OBJECT
 10
618.99999999849024
 20
-600.99999999754777
 30
0.0
 40
3.0
 50
0.0
 51
90.0
1001
ACDBBLOCKREPETAG
1070
     1
1071
      421
1005
12D23B
  0
LINE
  5
12D23C
  8
OBJECT
 10
621.99999999849024
 20
-600.99999999754777
 30
0.0
 11
621.99999999849024
 21
-718.99999999754812
 31
0.0
1001
ACDBBLOCKREPETAG
1070
     1
1071
      422
1005
12D23C
  0
INSERT
  5
12D23D
  8
OBJECT
  2
*U19
 10
0.0
 20
0.0
 30
0.0
  0
LINE
  5
12D23E
  8
OBJECT
 10
488.99999999849018
 20
-526.999999997548
 30
0.0
 11
488.99999999849018
 21
-519.999999997548
 31
0.0
1001
ACDBBLOCKREPETAG
1070
     1
1071
        1
1005
12D23E
  0
LINE
  5
12D23F
  8
OBJECT
 10
488.99999999849018
 20
-519.999999997548
 30
0.0
 11
582.99999999849024
 21
-519.999999997548
 31
0.0
1001
ACDBBLOCKREPETAG
1070
     1
1071
        2
1005
12D23F
  0
LINE
  5
12D240
  8
OBJECT
 10
582.99999999849024
 20
-519.999999997548
 30
0.0
 11
582.99999999849024
 21
-526.999999997548
 31
0.0
1001
ACDBBLOCKREPETAG
1070
     1
1071
        3
1005
12D240
  0
LINE
  5
12D241
  8
OBJECT
 10
582.99999999849024
 20
-526.999999997548
 30
0.0
 11
488.99999999849018
 21
-526.999999997548
 31
0.0
1001
ACDBBLOCKREPETAG
1070
     1
1071
        4
1005
12D241
  0
LINE
  5
12D242
  8
OBJECT
 10
491.99999999849018
 20
-526.999999997548
 30
0.0
 11
491.99999999849018
 21
-562.99999999754789
 31
0.0
1001
ACDBBLOCKREPETAG
1070
     1
1071
        5
1005
12D242
  0
LINE
  5
12D243
  8
OBJECT
 10
491.99999999849018
 20
-562.99999999754789
 30
0.0
 11
579.99999999849024
 21
-562.99999999754789
 31
0.0
1001
ACDBBLOCKREPETAG
1070
     1
1071
        6
1005
12D243
  0
LINE
  5
12D244
  8
OBJECT
 10
579.99999999849024
 20
-562.99999999754789
 30
0.0
 11
579.99999999849024
 21
-526.999999997548
 31
0.0
1001
ACDBBLOCKREPETAG
1070
     1
1071
        7
1005
12D244
  0
LINE
  5
12D245
  8
OBJECT
 10
496.49999999849018
 20
-566.99999999754789
 30
0.0
 11
496.49999999849018
 21
-573.999999997548
 31
0.0
1001
ACDBBLOCKREPETAG
1070
     1
1071
        8
1005
12D245
  0
LINE
  5
12D246
  8
OBJECT
 10
575.49999999849024
 20
-573.999999997548
 30
0.0
 11
575.49999999849024
 21
-566.99999999754789
 31
0.0
1001
ACDBBLOCKREPETAG
1070
     1
1071
        9
1005
12D246
  0
LINE
  5
12D247
  8
OBJECT
 10
575.49999999849024
 20
-566.99999999754789
 30
0.0
 11
496.49999999849018
 21
-566.99999999754789
 31
0.0
1001
ACDBBLOCKREPETAG
1070
     1
1071
       10
1005
12D247
  0
LINE
  5
12D248
  8
OBJECT
 10
491.99999999849018
 20
-562.99999999754789
 30
0.0
 11
496.49999999849018
 21
-566.99999999754789
 31
0.0
1001
ACDBBLOCKREPETAG
1070
     1
1071
       11
1005
12D248
  0
LINE
  5
12D249
  8
OBJECT
 10
579.99999999849024
 20
-562.99999999754789
 30
0.0
 11
575.49999999849024
 21
-566.99999999754789
 31
0.0
1001
ACDBBLOCKREPETAG
1070
     1
1071
       12
1005
12D249
  0
LINE
  5
12D24A
  8
OBJECT
 10
473.99999999849018
 20
-576.99999999754687
 30
0.0
 11
473.99999999849018
 21
-579.99999999754777
 31
0.0
1001
ACDBBLOCKREPETAG
1070
     1
1071
       13
1005
12D24A
  0
ARC
  5
12D24B
  8
OBJECT
 10
476.99999999849018
 20
-576.99999999754687
 30
0.0
 40
3.0
 50
90.0
 51
180.0
1001
ACDBBLOCKREPETAG
1070
     1
1071
       14
1005
12D24B
  0
LINE
  5
12D24C
  8
OBJECT
 10
597.99999999849024
 20
-579.99999999754777
 30
0.0
 11
597.99999999849024
 21
-576.99999999754891
 31
0.0
1001
ACDBBLOCKREPETAG
1070
     1
1071
       15
1005
12D24C
  0
ARC
  5
12D24D
  8
OBJECT
 10
594.99999999849024
 20
-576.99999999754891
 30
0.0
 40
3.0
 50
0.0
 51
90.0
1001
ACDBBLOCKREPETAG
1070
     1
1071
       16
1005
12D24D
  0
LINE
  5
12D24E
  8
OBJECT
 10
594.99999999849024
 20
-573.99999999754891
 30
0.0
 11
476.99999999849018
 21
-573.99999999754721
 31
0.0
1001
ACDBBLOCKREPETAG
1070
     1
1071
       17
1005
12D24E
  0
LINE
  5
12D24F
  8
HIDDEN
 10
505.99999999849018
 20
-571.99999999754777
 30
0.0
 11
565.99999999849024
 21
-571.99999999754777
 31
0.0
1001
ACDBBLOCKREPETAG
1070
     1
1071
      420
1005
12D24F
  0
TEXT
  5
12D250
  8
SLIM
 10
63.599999999939421
 20
-907.999999999691
 30
0.0
 40
48.0
  1
B103（特）
 41
0.75
1001
ACDBBLOCKREPETAG
1070
     1
1071
      119
1005
12AEEF
  0
LINE
  5
12D251
  8
OBJECT
 10
237.99999999861211
 20
-792.99999999754812
 30
0.0
 11
237.99999999861211
 21
-799.999999997548
 31
0.0
1001
ACDBBLOCKREPETAG
1070
     1
1071
       38
1005
12D251
  0
LINE
  5
12D252
  8
OBJECT
 10
237.99999999861211
 20
-799.999999997548
 30
0.0
 11
113.999999998612
 21
-799.999999997548
 31
0.0
1001
ACDBBLOCKREPETAG
1070
     1
1071
       39
1005
12D252
  0
LINE
  5
12D253
  8
OBJECT
 10
113.999999998612
 20
-799.999999997548
 30
0.0
 11
113.999999998612
 21
-792.99999999754812
 31
0.0
1001
ACDBBLOCKREPETAG
1070
     1
1071
       40
1005
12D253
  0
LINE
  5
12D254
  8
OBJECT
 10
113.999999998612
 20
-792.99999999754812
 30
0.0
 11
237.99999999861211
 21
-792.99999999754812
 31
0.0
1001
ACDBBLOCKREPETAG
1070
     1
1071
       41
1005
12D254
  0
LINE
  5
12D255
  8
OBJECT
 10
234.999999998612
 20
-792.99999999754812
 30
0.0
 11
234.999999998612
 21
-756.99999999754812
 31
0.0
1001
ACDBBLOCKREPETAG
1070
     1
1071
       42
1005
12D255
  0
LINE
  5
12D256
  8
OBJECT
 10
234.999999998612
 20
-756.99999999754812
 30
0.0
 11
116.999999998612
 21
-756.99999999754812
 31
0.0
1001
ACDBBLOCKREPETAG
1070
     1
1071
       43
1005
12D256
  0
LINE
  5
12D257
  8
OBJECT
 10
116.999999998612
 20
-756.99999999754812
 30
0.0
 11
116.999999998612
 21
-792.99999999754812
 31
0.0
1001
ACDBBLOCKREPETAG
1070
     1
1071
       44
1005
12D257
  0
LINE
  5
12D258
  8
OBJECT
 10
230.49999999861211
 20
-752.99999999754812
 30
0.0
 11
230.49999999861211
 21
-745.999999997548
 31
0.0
1001
ACDBBLOCKREPETAG
1070
     1
1071
       45
1005
12D258
  0
LINE
  5
12D259
  8
OBJECT
 10
121.499999998612
 20
-745.999999997548
 30
0.0
 11
121.499999998612
 21
-752.99999999754812
 31
0.0
1001
ACDBBLOCKREPETAG
1070
     1
1071
       46
1005
12D259
  0
LINE
  5
12D25A
  8
OBJECT
 10
121.499999998612
 20
-752.99999999754812
 30
0.0
 11
230.49999999861211
 21
-752.99999999754812
 31
0.0
1001
ACDBBLOCKREPETAG
1070
     1
1071
       47
1005
12D25A
  0
LINE
  5
12D25B
  8
OBJECT
 10
234.999999998612
 20
-756.99999999754812
 30
0.0
 11
230.49999999861211
 21
-752.99999999754812
 31
0.0
1001
ACDBBLOCKREPETAG
1070
     1
1071
       48
1005
12D25B
  0
LINE
  5
12D25C
  8
OBJECT
 10
116.999999998612
 20
-756.99999999754812
 30
0.0
 11
121.499999998612
 21
-752.99999999754812
 31
0.0
1001
ACDBBLOCKREPETAG
1070
     1
1071
       49
1005
12D25C
  0
LINE
  5
12D25D
  8
OBJECT
 10
237.99999999861211
 20
-742.99999999754903
 30
0.0
 11
237.99999999861211
 21
-739.99999999754812
 31
0.0
1001
ACDBBLOCKREPETAG
1070
     1
1071
       50
1005
12D25D
  0
ARC
  5
12D25E
  8
OBJECT
 10
234.999999998612
 20
-742.99999999754903
 30
0.0
 40
3.0
 50
270.0
 51
0.0
1001
ACDBBLOCKREPETAG
1070
     1
1071
       51
1005
12D25E
  0
LINE
  5
12D25F
  8
OBJECT
 10
113.999999998612
 20
-739.99999999754812
 30
0.0
 11
113.999999998612
 21
-742.99999999754687
 31
0.0
1001
ACDBBLOCKREPETAG
1070
     1
1071
       52
1005
12D25F
  0
ARC
  5
12D260
  8
OBJECT
 10
116.999999998612
 20
-742.99999999754687
 30
0.0
 40
3.0
 50
180.0
 51
270.0
1001
ACDBBLOCKREPETAG
1070
     1
1071
       53
1005
12D260
  0
LINE
  5
12D261
  8
OBJECT
 10
116.999999998612
 20
-745.99999999754721
 30
0.0
 11
234.999999998612
 21
-745.99999999754868
 31
0.0
1001
ACDBBLOCKREPETAG
1070
     1
1071
       54
1005
12D261
  0
INSERT
  5
12D262
  8
OBJECT
  2
*U20
 10
0.0
 20
0.0
 30
0.0
  0
LINE
  5
12D263
  8
HIDDEN
 10
220.499999998612
 20
-747.99999999754812
 30
0.0
 11
131.499999998612
 21
-747.99999999754812
 31
0.0
1001
ACDBBLOCKREPETAG
1070
     1
1071
      430
1005
12D263
  0
LINE
  5
12D264
  8
OBJECT
 10
258.99999999861211
 20
-721.99999999754812
 30
0.0
 11
255.999999998612
 21
-721.99999999754812
 31
0.0
1001
ACDBBLOCKREPETAG
1070
     1
1071
      418
1005
12D264
  0
ARC
  5
12D265
  8
OBJECT
 10
258.99999999861211
 20
-718.99999999754812
 30
0.0
 40
3.0
 50
270.0
 51
0.0
1001
ACDBBLOCKREPETAG
1070
     1
1071
      419
1005
12D265
  0
LINE
  5
12D266
  8
OBJECT
 10
255.999999998612
 20
-597.999999997548
 30
0.0
 11
258.99999999861211
 21
-597.999999997548
 31
0.0
1001
ACDBBLOCKREPETAG
1070
     1
1071
      420
1005
12D266
  0
ARC
  5
12D267
  8
OBJECT
 10
258.99999999861211
 20
-600.99999999754777
 30
0.0
 40
3.0
 50
0.0
 51
90.0
1001
ACDBBLOCKREPETAG
1070
     1
1071
      421
1005
12D267
  0
LINE
  5
12D268
  8
OBJECT
 10
261.999999998612
 20
-600.99999999754777
 30
0.0
 11
261.999999998612
 21
-718.99999999754812
 31
0.0
1001
ACDBBLOCKREPETAG
1070
     1
1071
      422
1005
12D268
  0
INSERT
  5
12D269
  8
OBJECT
  2
*U21
 10
0.0
 20
0.0
 30
0.0
  0
LINE
  5
12D26A
  8
OBJECT
 10
128.999999998612
 20
-526.999999997548
 30
0.0
 11
128.999999998612
 21
-519.999999997548
 31
0.0
1001
ACDBBLOCKREPETAG
1070
     1
1071
        1
1005
12D26A
  0
LINE
  5
12D26B
  8
OBJECT
 10
128.999999998612
 20
-519.999999997548
 30
0.0
 11
222.999999998612
 21
-519.999999997548
 31
0.0
1001
ACDBBLOCKREPETAG
1070
     1
1071
        2
1005
12D26B
  0
LINE
  5
12D26C
  8
OBJECT
 10
222.999999998612
 20
-519.999999997548
 30
0.0
 11
222.999999998612
 21
-526.999999997548
 31
0.0
1001
ACDBBLOCKREPETAG
1070
     1
1071
        3
1005
12D26C
  0
LINE
  5
12D26D
  8
OBJECT
 10
222.999999998612
 20
-526.999999997548
 30
0.0
 11
128.999999998612
 21
-526.999999997548
 31
0.0
1001
ACDBBLOCKREPETAG
1070
     1
1071
        4
1005
12D26D
  0
LINE
  5
12D26E
  8
OBJECT
 10
131.999999998612
 20
-526.999999997548
 30
0.0
 11
131.999999998612
 21
-562.99999999754789
 31
0.0
1001
ACDBBLOCKREPETAG
1070
     1
1071
        5
1005
12D26E
  0
LINE
  5
12D26F
  8
OBJECT
 10
131.999999998612
 20
-562.99999999754789
 30
0.0
 11
219.99999999861211
 21
-562.99999999754789
 31
0.0
1001
ACDBBLOCKREPETAG
1070
     1
1071
        6
1005
12D26F
  0
LINE
  5
12D270
  8
OBJECT
 10
219.99999999861211
 20
-562.99999999754789
 30
0.0
 11
219.99999999861211
 21
-526.999999997548
 31
0.0
1001
ACDBBLOCKREPETAG
1070
     1
1071
        7
1005
12D270
  0
LINE
  5
12D271
  8
OBJECT
 10
136.499999998612
 20
-566.99999999754789
 30
0.0
 11
136.499999998612
 21
-573.999999997548
 31
0.0
1001
ACDBBLOCKREPETAG
1070
     1
1071
        8
1005
12D271
  0
LINE
  5
12D272
  8
OBJECT
 10
215.49999999861211
 20
-573.999999997548
 30
0.0
 11
215.49999999861211
 21
-566.99999999754789
 31
0.0
1001
ACDBBLOCKREPETAG
1070
     1
1071
        9
1005
12D272
  0
LINE
  5
12D273
  8
OBJECT
 10
215.49999999861211
 20
-566.99999999754789
 30
0.0
 11
136.499999998612
 21
-566.99999999754789
 31
0.0
1001
ACDBBLOCKREPETAG
1070
     1
1071
       10
1005
12D273
  0
LINE
  5
12D274
  8
OBJECT
 10
131.999999998612
 20
-562.99999999754789
 30
0.0
 11
136.499999998612
 21
-566.99999999754789
 31
0.0
1001
ACDBBLOCKREPETAG
1070
     1
1071
       11
1005
12D274
  0
LINE
  5
12D275
  8
OBJECT
 10
219.99999999861211
 20
-562.99999999754789
 30
0.0
 11
215.49999999861211
 21
-566.99999999754789
 31
0.0
1001
ACDBBLOCKREPETAG
1070
     1
1071
       12
1005
12D275
  0
LINE
  5
12D276
  8
OBJECT
 10
113.999999998612
 20
-576.99999999754687
 30
0.0
 11
113.999999998612
 21
-579.99999999754777
 31
0.0
1001
ACDBBLOCKREPETAG
1070
     1
1071
       13
1005
12D276
  0
ARC
  5
12D277
  8
OBJECT
 10
116.999999998612
 20
-576.99999999754687
 30
0.0
 40
3.0
 50
90.0
 51
180.0
1001
ACDBBLOCKREPETAG
1070
     1
1071
       14
1005
12D277
  0
LINE
  5
12D278
  8
OBJECT
 10
237.99999999861211
 20
-579.99999999754777
 30
0.0
 11
237.99999999861211
 21
-576.99999999754891
 31
0.0
1001
ACDBBLOCKREPETAG
1070
     1
1071
       15
1005
12D278
  0
ARC
  5
12D279
  8
OBJECT
 10
234.999999998612
 20
-576.99999999754891
 30
0.0
 40
3.0
 50
0.0
 51
90.0
1001
ACDBBLOCKREPETAG
1070
     1
1071
       16
1005
12D279
  0
LINE
  5
12D27A
  8
OBJECT
 10
234.999999998612
 20
-573.99999999754891
 30
0.0
 11
116.999999998612
 21
-573.99999999754721
 31
0.0
1001
ACDBBLOCKREPETAG
1070
     1
1071
       17
1005
12D27A
  0
LINE
  5
12D27B
  8
HIDDEN
 10
145.999999998612
 20
-571.99999999754777
 30
0.0
 11
205.999999998612
 21
-571.99999999754777
 31
0.0
1001
ACDBBLOCKREPETAG
1070
     1
1071
      420
1005
12D27B
  0
TEXT
  5
12D27C
  8
SLIM
 10
479.14285714267481
 20
-443.99999999984919
 30
0.0
 40
48.0
  1
B102
 41
0.75
1001
ACDBBLOCKREPETAG
1070
     1
1071
      119
1005
12AEEF
  0
LINE
  5
12D27D
  8
OBJECT
 10
590.99999999849024
 20
-328.99999999770631
 30
0.0
 11
590.99999999849024
 21
-335.99999999770631
 31
0.0
1001
ACDBBLOCKREPETAG
1070
     1
1071
       19
1005
12D27D
  0
LINE
  5
12D27E
  8
OBJECT
 10
590.99999999849024
 20
-335.99999999770631
 30
0.0
 11
480.99999999849018
 21
-335.99999999770631
 31
0.0
1001
ACDBBLOCKREPETAG
1070
     1
1071
       20
1005
12D27E
  0
LINE
  5
12D27F
  8
OBJECT
 10
480.99999999849018
 20
-335.99999999770631
 30
0.0
 11
480.99999999849018
 21
-328.99999999770631
 31
0.0
1001
ACDBBLOCKREPETAG
1070
     1
1071
       21
1005
12D27F
  0
LINE
  5
12D280
  8
OBJECT
 10
480.99999999849018
 20
-328.99999999770631
 30
0.0
 11
590.99999999849024
 21
-328.99999999770631
 31
0.0
1001
ACDBBLOCKREPETAG
1070
     1
1071
       22
1005
12D280
  0
LINE
  5
12D281
  8
OBJECT
 10
587.99999999849024
 20
-328.99999999770631
 30
0.0
 11
587.99999999849024
 21
-292.99999999770631
 31
0.0
1001
ACDBBLOCKREPETAG
1070
     1
1071
       23
1005
12D281
  0
LINE
  5
12D282
  8
OBJECT
 10
587.99999999849024
 20
-292.99999999770631
 30
0.0
 11
483.99999999849018
 21
-292.99999999770631
 31
0.0
1001
ACDBBLOCKREPETAG
1070
     1
1071
       24
1005
12D282
  0
LINE
  5
12D283
  8
OBJECT
 10
483.99999999849018
 20
-292.99999999770631
 30
0.0
 11
483.99999999849018
 21
-328.99999999770631
 31
0.0
1001
ACDBBLOCKREPETAG
1070
     1
1071
       25
1005
12D283
  0
LINE
  5
12D284
  8
OBJECT
 10
583.49999999849024
 20
-288.9999999977062
 30
0.0
 11
583.49999999849024
 21
-281.99999999770631
 31
0.0
1001
ACDBBLOCKREPETAG
1070
     1
1071
       26
1005
12D284
  0
LINE
  5
12D285
  8
OBJECT
 10
488.49999999849018
 20
-281.99999999770631
 30
0.0
 11
488.49999999849018
 21
-288.9999999977062
 31
0.0
1001
ACDBBLOCKREPETAG
1070
     1
1071
       27
1005
12D285
  0
LINE
  5
12D286
  8
OBJECT
 10
488.49999999849018
 20
-288.9999999977062
 30
0.0
 11
583.49999999849024
 21
-288.9999999977062
 31
0.0
1001
ACDBBLOCKREPETAG
1070
     1
1071
       28
1005
12D286
  0
LINE
  5
12D287
  8
OBJECT
 10
587.99999999849024
 20
-292.99999999770631
 30
0.0
 11
583.49999999849024
 21
-288.9999999977062
 31
0.0
1001
ACDBBLOCKREPETAG
1070
     1
1071
       29
1005
12D287
  0
LINE
  5
12D288
  8
OBJECT
 10
483.99999999849018
 20
-292.99999999770631
 30
0.0
 11
488.49999999849018
 21
-288.9999999977062
 31
0.0
1001
ACDBBLOCKREPETAG
1070
     1
1071
       30
1005
12D288
  0
LINE
  5
12D289
  8
OBJECT
 10
597.99999999849024
 20
-278.99999999770722
 30
0.0
 11
597.99999999849024
 21
-275.99999999770631
 31
0.0
1001
ACDBBLOCKREPETAG
1070
     1
1071
       31
1005
12D289
  0
ARC
  5
12D28A
  8
OBJECT
 10
594.99999999849024
 20
-278.99999999770722
 30
0.0
 40
3.0
 50
270.0
 51
0.0
1001
ACDBBLOCKREPETAG
1070
     1
1071
       32
1005
12D28A
  0
LINE
  5
12D28B
  8
OBJECT
 10
473.99999999849018
 20
-275.99999999770631
 30
0.0
 11
473.99999999849018
 21
-278.99999999770529
 31
0.0
1001
ACDBBLOCKREPETAG
1070
     1
1071
       33
1005
12D28B
  0
ARC
  5
12D28C
  8
OBJECT
 10
476.99999999849018
 20
-278.99999999770529
 30
0.0
 40
3.0
 50
180.0
 51
270.0
1001
ACDBBLOCKREPETAG
1070
     1
1071
       34
1005
12D28C
  0
LINE
  5
12D28D
  8
OBJECT
 10
476.99999999849018
 20
-281.99999999770529
 30
0.0
 11
594.99999999849024
 21
-281.99999999770711
 31
0.0
1001
ACDBBLOCKREPETAG
1070
     1
1071
       35
1005
12D28D
  0
INSERT
  5
12D28E
  8
OBJECT
  2
*U22
 10
0.0
 20
0.0
 30
0.0
  0
LINE
  5
12D28F
  8
HIDDEN
 10
573.99999999849024
 20
-283.99999999770631
 30
0.0
 11
497.99999999849018
 21
-283.99999999770631
 31
0.0
1001
ACDBBLOCKREPETAG
1070
     1
1071
      427
1005
12D28F
  0
LINE
  5
12D290
  8
OBJECT
 10
618.99999999849024
 20
-257.9999999977062
 30
0.0
 11
615.99999999849024
 21
-257.9999999977062
 31
0.0
1001
ACDBBLOCKREPETAG
1070
     1
1071
      418
1005
12D290
  0
ARC
  5
12D291
  8
OBJECT
 10
618.99999999849024
 20
-254.99999999770631
 30
0.0
 40
3.0
 50
270.0
 51
0.0
1001
ACDBBLOCKREPETAG
1070
     1
1071
      419
1005
12D291
  0
LINE
  5
12D292
  8
OBJECT
 10
615.99999999849024
 20
-133.9999999977062
 30
0.0
 11
618.99999999849024
 21
-133.9999999977062
 31
0.0
1001
ACDBBLOCKREPETAG
1070
     1
1071
      420
1005
12D292
  0
ARC
  5
12D293
  8
OBJECT
 10
618.99999999849024
 20
-136.9999999977062
 30
0.0
 40
3.0
 50
0.0
 51
90.0
1001
ACDBBLOCKREPETAG
1070
     1
1071
      421
1005
12D293
  0
LINE
  5
12D294
  8
OBJECT
 10
621.99999999849024
 20
-136.9999999977062
 30
0.0
 11
621.99999999849024
 21
-254.99999999770631
 31
0.0
1001
ACDBBLOCKREPETAG
1070
     1
1071
      422
1005
12D294
  0
INSERT
  5
12D295
  8
OBJECT
  2
*U23
 10
0.0
 20
0.0
 30
0.0
  0
LINE
  5
12D296
  8
OBJECT
 10
488.99999999849018
 20
-62.999999997706247
 30
0.0
 11
488.99999999849018
 21
-55.999999997706247
 31
0.0
1001
ACDBBLOCKREPETAG
1070
     1
1071
        1
1005
12D296
  0
LINE
  5
12D297
  8
OBJECT
 10
488.99999999849018
 20
-55.999999997706247
 30
0.0
 11
582.99999999849024
 21
-55.999999997706247
 31
0.0
1001
ACDBBLOCKREPETAG
1070
     1
1071
        2
1005
12D297
  0
LINE
  5
12D298
  8
OBJECT
 10
582.99999999849024
 20
-55.999999997706247
 30
0.0
 11
582.99999999849024
 21
-62.999999997706247
 31
0.0
1001
ACDBBLOCKREPETAG
1070
     1
1071
        3
1005
12D298
  0
LINE
  5
12D299
  8
OBJECT
 10
582.99999999849024
 20
-62.999999997706247
 30
0.0
 11
488.99999999849018
 21
-62.999999997706247
 31
0.0
1001
ACDBBLOCKREPETAG
1070
     1
1071
        4
1005
12D299
  0
LINE
  5
12D29A
  8
OBJECT
 10
491.99999999849018
 20
-62.999999997706247
 30
0.0
 11
491.99999999849018
 21
-98.99999999770624
 31
0.0
1001
ACDBBLOCKREPETAG
1070
     1
1071
        5
1005
12D29A
  0
LINE
  5
12D29B
  8
OBJECT
 10
491.99999999849018
 20
-98.99999999770624
 30
0.0
 11
579.99999999849024
 21
-98.99999999770624
 31
0.0
1001
ACDBBLOCKREPETAG
1070
     1
1071
        6
1005
12D29B
  0
LINE
  5
12D29C
  8
OBJECT
 10
579.99999999849024
 20
-98.99999999770624
 30
0.0
 11
579.99999999849024
 21
-62.999999997706247
 31
0.0
1001
ACDBBLOCKREPETAG
1070
     1
1071
        7
1005
12D29C
  0
LINE
  5
12D29D
  8
OBJECT
 10
496.49999999849018
 20
-102.9999999977062
 30
0.0
 11
496.49999999849018
 21
-109.9999999977062
 31
0.0
1001
ACDBBLOCKREPETAG
1070
     1
1071
        8
1005
12D29D
  0
LINE
  5
12D29E
  8
OBJECT
 10
575.49999999849024
 20
-109.9999999977062
 30
0.0
 11
575.49999999849024
 21
-102.9999999977062
 31
0.0
1001
ACDBBLOCKREPETAG
1070
     1
1071
        9
1005
12D29E
  0
LINE
  5
12D29F
  8
OBJECT
 10
575.49999999849024
 20
-102.9999999977062
 30
0.0
 11
496.49999999849018
 21
-102.9999999977062
 31
0.0
1001
ACDBBLOCKREPETAG
1070
     1
1071
       10
1005
12D29F
  0
LINE
  5
12D2A0
  8
OBJECT
 10
491.99999999849018
 20
-98.99999999770624
 30
0.0
 11
496.49999999849018
 21
-102.9999999977062
 31
0.0
1001
ACDBBLOCKREPETAG
1070
     1
1071
       11
1005
12D2A0
  0
LINE
  5
12D2A1
  8
OBJECT
 10
579.99999999849024
 20
-98.99999999770624
 30
0.0
 11
575.49999999849024
 21
-102.9999999977062
 31
0.0
1001
ACDBBLOCKREPETAG
1070
     1
1071
       12
1005
12D2A1
  0
LINE
  5
12D2A2
  8
OBJECT
 10
473.99999999849018
 20
-112.9999999977053
 30
0.0
 11
473.99999999849018
 21
-115.9999999977062
 31
0.0
1001
ACDBBLOCKREPETAG
1070
     1
1071
       13
1005
12D2A2
  0
ARC
  5
12D2A3
  8
OBJECT
 10
476.99999999849018
 20
-112.9999999977053
 30
0.0
 40
3.0
 50
90.0
 51
180.0
1001
ACDBBLOCKREPETAG
1070
     1
1071
       14
1005
12D2A3
  0
LINE
  5
12D2A4
  8
OBJECT
 10
597.99999999849024
 20
-115.9999999977062
 30
0.0
 11
597.99999999849024
 21
-112.99999999770711
 31
0.0
1001
ACDBBLOCKREPETAG
1070
     1
1071
       15
1005
12D2A4
  0
ARC
  5
12D2A5
  8
OBJECT
 10
594.99999999849024
 20
-112.99999999770711
 30
0.0
 40
3.0
 50
0.0
 51
90.0
1001
ACDBBLOCKREPETAG
1070
     1
1071
       16
1005
12D2A5
  0
LINE
  5
12D2A6
  8
OBJECT
 10
594.99999999849024
 20
-109.99999999770711
 30
0.0
 11
476.99999999849018
 21
-109.9999999977053
 31
0.0
1001
ACDBBLOCKREPETAG
1070
     1
1071
       17
1005
12D2A6
  0
LINE
  5
12D2A7
  8
HIDDEN
 10
505.99999999849018
 20
-107.9999999977062
 30
0.0
 11
565.99999999849024
 21
-107.9999999977062
 31
0.0
1001
ACDBBLOCKREPETAG
1070
     1
1071
      420
1005
12D2A7
  0
LINE
  5
12D2A8
  8
OBJECT
 10
1867.0
 20
-261.99999999999909
 30
0.0
 11
1860.0
 21
-261.99999999999909
 31
0.0
1001
ACDBBLOCKREPETAG
1070
     1
1071
       47
1005
12D2A8
  0
LINE
  5
12D2A9
  8
OBJECT
 10
1860.0
 20
-261.99999999999909
 30
0.0
 11
1860.0
 21
-137.99999999999909
 31
0.0
1001
ACDBBLOCKREPETAG
1070
     1
1071
       48
1005
12D2A9
  0
LINE
  5
12D2AA
  8
OBJECT
 10
1860.0
 20
-137.99999999999909
 30
0.0
 11
1867.0
 21
-137.99999999999909
 31
0.0
1001
ACDBBLOCKREPETAG
1070
     1
1071
       49
1005
12D2AA
  0
LINE
  5
12D2AB
  8
OBJECT
 10
1867.0
 20
-137.99999999999909
 30
0.0
 11
1867.0
 21
-261.99999999999909
 31
0.0
1001
ACDBBLOCKREPETAG
1070
     1
1071
       50
1005
12D2AB
  0
LINE
  5
12D2AC
  8
CENTER
 10
1845.0
 20
-199.99999999999909
 30
0.0
 11
1920.0
 21
-199.99999999999909
 31
0.0
1001
ACDBBLOCKREPETAG
1070
     1
1071
       51
1005
12D2AC
  0
LINE
  5
12D2AD
  8
OBJECT
 10
1867.0
 20
-258.99999999999909
 30
0.0
 11
1903.0
 21
-258.99999999999909
 31
0.0
1001
ACDBBLOCKREPETAG
1070
     1
1071
       52
1005
12D2AD
  0
LINE
  5
12D2AE
  8
OBJECT
 10
1903.0
 20
-258.99999999999909
 30
0.0
 11
1903.0
 21
-140.99999999999909
 31
0.0
1001
ACDBBLOCKREPETAG
1070
     1
1071
       53
1005
12D2AE
  0
LINE
  5
12D2AF
  8
OBJECT
 10
1903.0
 20
-140.99999999999909
 30
0.0
 11
1867.0
 21
-140.99999999999909
 31
0.0
1001
ACDBBLOCKREPETAG
1070
     1
1071
       54
1005
12D2AF
  0
LINE
  5
12D2B0
  8
OBJECT
 10
1907.0
 20
-254.49999999999909
 30
0.0
 11
1914.0
 21
-254.49999999999909
 31
0.0
1001
ACDBBLOCKREPETAG
1070
     1
1071
       55
1005
12D2B0
  0
LINE
  5
12D2B1
  8
OBJECT
 10
1914.0
 20
-145.49999999999909
 30
0.0
 11
1907.0
 21
-145.49999999999909
 31
0.0
1001
ACDBBLOCKREPETAG
1070
     1
1071
       56
1005
12D2B1
  0
LINE
  5
12D2B2
  8
OBJECT
 10
1907.0
 20
-145.49999999999909
 30
0.0
 11
1907.0
 21
-254.49999999999909
 31
0.0
1001
ACDBBLOCKREPETAG
1070
     1
1071
       57
1005
12D2B2
  0
LINE
  5
12D2B3
  8
OBJECT
 10
1903.0
 20
-258.99999999999909
 30
0.0
 11
1907.0
 21
-254.49999999999909
 31
0.0
1001
ACDBBLOCKREPETAG
1070
     1
1071
       58
1005
12D2B3
  0
LINE
  5
12D2B4
  8
OBJECT
 10
1903.0
 20
-140.99999999999909
 30
0.0
 11
1907.0
 21
-145.49999999999909
 31
0.0
1001
ACDBBLOCKREPETAG
1070
     1
1071
       59
1005
12D2B4
  0
LINE
  5
12D2B5
  8
OBJECT
 10
1917.0
 20
-261.99999999999909
 30
0.0
 11
1920.0
 21
-261.99999999999909
 31
0.0
1001
ACDBBLOCKREPETAG
1070
     1
1071
       60
1005
12D2B5
  0
ARC
  5
12D2B6
  8
OBJECT
 10
1917.0
 20
-258.99999999999909
 30
0.0
 40
3.0
 50
180.0
 51
270.0
1001
ACDBBLOCKREPETAG
1070
     1
1071
       61
1005
12D2B6
  0
LINE
  5
12D2B7
  8
OBJECT
 10
1920.0
 20
-137.99999999999909
 30
0.0
 11
1917.0
 21
-137.99999999999909
 31
0.0
1001
ACDBBLOCKREPETAG
1070
     1
1071
       62
1005
12D2B7
  0
ARC
  5
12D2B8
  8
OBJECT
 10
1917.0
 20
-140.99999999999909
 30
0.0
 40
3.0
 50
90.0
 51
180.0
1001
ACDBBLOCKREPETAG
1070
     1
1071
       63
1005
12D2B8
  0
LINE
  5
12D2B9
  8
OBJECT
 10
1914.0
 20
-140.99999999999909
 30
0.0
 11
1914.0
 21
-258.99999999999909
 31
0.0
1001
ACDBBLOCKREPETAG
1070
     1
1071
       64
1005
12D2B9
  0
LINE
  5
12D2BA
  8
HIDDEN
 10
1912.0
 20
-244.49999999999909
 30
0.0
 11
1912.0
 21
-155.49999999999909
 31
0.0
1001
ACDBBLOCKREPETAG
1070
     1
1071
       65
1005
12D2BA
  0
LINE
  5
12D2BB
  8
CENTER
 10
2000.0
 20
-300.99999999999898
 30
0.0
 11
2000.0
 21
-279.99999999999909
 31
0.0
1001
ACDBBLOCKREPETAG
1070
     1
1071
        0
1005
12D2BB
  0
LINE
  5
12D2BC
  8
OBJECT
 10
2062.0
 20
-283.0
 30
0.0
 11
2062.0
 21
-279.99999999999909
 31
0.0
1001
ACDBBLOCKREPETAG
1070
     1
1071
        1
1005
12D2BC
  0
ARC
  5
12D2BD
  8
OBJECT
 10
2059.0
 20
-283.0
 30
0.0
 40
3.0
 50
270.0
 51
0.0
1001
ACDBBLOCKREPETAG
1070
     1
1071
        2
1005
12D2BD
  0
LINE
  5
12D2BE
  8
OBJECT
 10
1938.0
 20
-279.99999999999909
 30
0.0
 11
1938.0
 21
-282.99999999999818
 31
0.0
1001
ACDBBLOCKREPETAG
1070
     1
1071
        3
1005
12D2BE
  0
ARC
  5
12D2BF
  8
OBJECT
 10
1941.0
 20
-282.99999999999818
 30
0.0
 40
3.0
 50
180.0
 51
270.0
1001
ACDBBLOCKREPETAG
1070
     1
1071
        4
1005
12D2BF
  0
LINE
  5
12D2C0
  8
OBJECT
 10
1941.0
 20
-285.99999999999818
 30
0.0
 11
2059.0
 21
-286.0
 31
0.0
1001
ACDBBLOCKREPETAG
1070
     1
1071
        5
1005
12D2C0
  0
LINE
  5
12D2C1
  8
OBJECT
 10
2133.0
 20
-137.99999999999909
 30
0.0
 11
2140.0
 21
-137.99999999999909
 31
0.0
1001
ACDBBLOCKREPETAG
1070
     1
1071
       47
1005
12D2C1
  0
LINE
  5
12D2C2
  8
OBJECT
 10
2140.0
 20
-137.99999999999909
 30
0.0
 11
2140.0
 21
-261.99999999999909
 31
0.0
1001
ACDBBLOCKREPETAG
1070
     1
1071
       48
1005
12D2C2
  0
LINE
  5
12D2C3
  8
OBJECT
 10
2140.0
 20
-261.99999999999909
 30
0.0
 11
2133.0
 21
-261.99999999999909
 31
0.0
1001
ACDBBLOCKREPETAG
1070
     1
1071
       49
1005
12D2C3
  0
LINE
  5
12D2C4
  8
OBJECT
 10
2133.0
 20
-261.99999999999909
 30
0.0
 11
2133.0
 21
-137.99999999999909
 31
0.0
1001
ACDBBLOCKREPETAG
1070
     1
1071
       50
1005
12D2C4
  0
LINE
  5
12D2C5
  8
CENTER
 10
2155.0
 20
-199.99999999999909
 30
0.0
 11
2080.0
 21
-199.99999999999909
 31
0.0
1001
ACDBBLOCKREPETAG
1070
     1
1071
       51
1005
12D2C5
  0
LINE
  5
12D2C6
  8
OBJECT
 10
2133.0
 20
-140.99999999999909
 30
0.0
 11
2097.0
 21
-140.99999999999909
 31
0.0
1001
ACDBBLOCKREPETAG
1070
     1
1071
       52
1005
12D2C6
  0
LINE
  5
12D2C7
  8
OBJECT
 10
2097.0
 20
-140.99999999999909
 30
0.0
 11
2097.0
 21
-258.99999999999909
 31
0.0
1001
ACDBBLOCKREPETAG
1070
     1
1071
       53
1005
12D2C7
  0
LINE
  5
12D2C8
  8
OBJECT
 10
2097.0
 20
-258.99999999999909
 30
0.0
 11
2133.0
 21
-258.99999999999909
 31
0.0
1001
ACDBBLOCKREPETAG
1070
     1
1071
       54
1005
12D2C8
  0
LINE
  5
12D2C9
  8
OBJECT
 10
2093.0
 20
-145.49999999999909
 30
0.0
 11
2086.0
 21
-145.49999999999909
 31
0.0
1001
ACDBBLOCKREPETAG
1070
     1
1071
       55
1005
12D2C9
  0
LINE
  5
12D2CA
  8
OBJECT
 10
2086.0
 20
-254.49999999999909
 30
0.0
 11
2093.0
 21
-254.49999999999909
 31
0.0
1001
ACDBBLOCKREPETAG
1070
     1
1071
       56
1005
12D2CA
  0
LINE
  5
12D2CB
  8
OBJECT
 10
2093.0
 20
-254.49999999999909
 30
0.0
 11
2093.0
 21
-145.49999999999909
 31
0.0
1001
ACDBBLOCKREPETAG
1070
     1
1071
       57
1005
12D2CB
  0
LINE
  5
12D2CC
  8
OBJECT
 10
2097.0
 20
-140.99999999999909
 30
0.0
 11
2093.0
 21
-145.49999999999909
 31
0.0
1001
ACDBBLOCKREPETAG
1070
     1
1071
       58
1005
12D2CC
  0
LINE
  5
12D2CD
  8
OBJECT
 10
2097.0
 20
-258.99999999999909
 30
0.0
 11
2093.0
 21
-254.49999999999909
 31
0.0
1001
ACDBBLOCKREPETAG
1070
     1
1071
       59
1005
12D2CD
  0
LINE
  5
12D2CE
  8
OBJECT
 10
2083.0
 20
-137.99999999999909
 30
0.0
 11
2080.0
 21
-137.99999999999909
 31
0.0
1001
ACDBBLOCKREPETAG
1070
     1
1071
       60
1005
12D2CE
  0
ARC
  5
12D2CF
  8
OBJECT
 10
2083.0
 20
-140.99999999999909
 30
0.0
 40
3.0
 50
0.0
 51
90.0
1001
ACDBBLOCKREPETAG
1070
     1
1071
       61
1005
12D2CF
  0
LINE
  5
12D2D0
  8
OBJECT
 10
2080.0
 20
-261.99999999999909
 30
0.0
 11
2083.0
 21
-261.99999999999909
 31
0.0
1001
ACDBBLOCKREPETAG
1070
     1
1071
       62
1005
12D2D0
  0
ARC
  5
12D2D1
  8
OBJECT
 10
2083.0
 20
-258.99999999999909
 30
0.0
 40
3.0
 50
270.0
 51
0.0
1001
ACDBBLOCKREPETAG
1070
     1
1071
       63
1005
12D2D1
  0
LINE
  5
12D2D2
  8
OBJECT
 10
2086.0
 20
-258.99999999999909
 30
0.0
 11
2086.0
 21
-140.99999999999909
 31
0.0
1001
ACDBBLOCKREPETAG
1070
     1
1071
       64
1005
12D2D2
  0
LINE
  5
12D2D3
  8
HIDDEN
 10
2088.0
 20
-155.49999999999909
 30
0.0
 11
2088.0
 21
-244.49999999999909
 31
0.0
1001
ACDBBLOCKREPETAG
1070
     1
1071
       65
1005
12D2D3
  0
LINE
  5
12D2D4
  8
OBJECT
 10
1867.0
 20
-634.0
 30
0.0
 11
1860.0
 21
-634.0
 31
0.0
1001
ACDBBLOCKREPETAG
1070
     1
1071
       45
1005
12D2D4
  0
LINE
  5
12D2D5
  8
OBJECT
 10
1860.0
 20
-634.0
 30
0.0
 11
1860.0
 21
-755.0
 31
0.0
1001
ACDBBLOCKREPETAG
1070
     1
1071
       46
1005
12D2D5
  0
LINE
  5
12D2D6
  8
OBJECT
 10
1867.0
 20
-755.0
 30
0.0
 11
1867.0
 21
-634.0
 31
0.0
1001
ACDBBLOCKREPETAG
1070
     1
1071
       47
1005
12D2D6
  0
LINE
  5
12D2D7
  8
CENTER
 10
1845.0
 20
-696.0
 30
0.0
 11
1929.0
 21
-696.0
 31
0.0
1001
ACDBBLOCKREPETAG
1070
     1
1071
       48
1005
12D2D7
  0
LINE
  5
12D2D8
  8
OBJECT
 10
1867.0
 20
-637.0
 30
0.0
 11
1903.0
 21
-637.0
 31
0.0
1001
ACDBBLOCKREPETAG
1070
     1
1071
       49
1005
12D2D8
  0
LINE
  5
12D2D9
  8
OBJECT
 10
1903.0
 20
-637.0
 30
0.0
 11
1903.0
 21
-755.0
 31
0.0
1001
ACDBBLOCKREPETAG
1070
     1
1071
       50
1005
12D2D9
  0
LINE
  5
12D2DA
  8
OBJECT
 10
1903.0
 20
-755.0
 30
0.0
 11
1860.0
 21
-755.0
 31
0.0
1001
ACDBBLOCKREPETAG
1070
     1
1071
       51
1005
12D2DA
  0
LINE
  5
12D2DB
  8
OBJECT
 10
1907.0
 20
-641.5
 30
0.0
 11
1914.0
 21
-641.5
 31
0.0
1001
ACDBBLOCKREPETAG
1070
     1
1071
       52
1005
12D2DB
  0
LINE
  5
12D2DC
  8
OBJECT
 10
1914.0
 20
-750.49999999999989
 30
0.0
 11
1907.0
 21
-750.49999999999989
 31
0.0
1001
ACDBBLOCKREPETAG
1070
     1
1071
       53
1005
12D2DC
  0
LINE
  5
12D2DD
  8
OBJECT
 10
1907.0
 20
-750.49999999999989
 30
0.0
 11
1907.0
 21
-641.5
 31
0.0
1001
ACDBBLOCKREPETAG
1070
     1
1071
       54
1005
12D2DD
  0
LINE
  5
12D2DE
  8
OBJECT
 10
1903.0
 20
-637.0
 30
0.0
 11
1907.0
 21
-641.5
 31
0.0
1001
ACDBBLOCKREPETAG
1070
     1
1071
       55
1005
12D2DE
  0
LINE
  5
12D2DF
  8
OBJECT
 10
1903.0
 20
-755.0
 30
0.0
 11
1907.0
 21
-750.49999999999989
 31
0.0
1001
ACDBBLOCKREPETAG
1070
     1
1071
       56
1005
12D2DF
  0
LINE
  5
12D2E0
  8
OBJECT
 10
1917.0
 20
-634.0
 30
0.0
 11
1920.0
 21
-634.0
 31
0.0
1001
ACDBBLOCKREPETAG
1070
     1
1071
       57
1005
12D2E0
  0
ARC
  5
12D2E1
  8
OBJECT
 10
1917.0
 20
-637.0
 30
0.0
 40
3.0
 50
90.0
 51
180.0
1001
ACDBBLOCKREPETAG
1070
     1
1071
       58
1005
12D2E1
  0
LINE
  5
12D2E2
  8
OBJECT
 10
1920.0
 20
-758.0
 30
0.0
 11
1917.0
 21
-758.0
 31
0.0
1001
ACDBBLOCKREPETAG
1070
     1
1071
       59
1005
12D2E2
  0
ARC
  5
12D2E3
  8
OBJECT
 10
1917.0
 20
-755.0
 30
0.0
 40
3.0
 50
180.0
 51
270.0
1001
ACDBBLOCKREPETAG
1070
     1
1071
       60
1005
12D2E3
  0
LINE
  5
12D2E4
  8
OBJECT
 10
1914.0
 20
-755.0
 30
0.0
 11
1914.0
 21
-637.0
 31
0.0
1001
ACDBBLOCKREPETAG
1070
     1
1071
       61
1005
12D2E4
  0
LINE
  5
12D2E5
  8
HIDDEN
 10
1912.0
 20
-651.5
 30
0.0
 11
1912.0
 21
-740.5
 31
0.0
1001
ACDBBLOCKREPETAG
1070
     1
1071
       63
1005
12D2E5
  0
CIRCLE
  5
12D2E6
  8
OBJECT
 10
2000.0
 20
-696.0
 30
0.0
 40
62.0
1001
ACDBBLOCKREPETAG
1070
     1
1071
        0
1005
12D2E6
  0
LINE
  5
12D2E7
  8
OBJECT
 10
2133.0
 20
-634.0
 30
0.0
 11
2140.0
 21
-634.0
 31
0.0
1001
ACDBBLOCKREPETAG
1070
     1
1071
       45
1005
12D2E7
  0
LINE
  5
12D2E8
  8
OBJECT
 10
2140.0
 20
-634.0
 30
0.0
 11
2140.0
 21
-755.0
 31
0.0
1001
ACDBBLOCKREPETAG
1070
     1
1071
       46
1005
12D2E8
  0
LINE
  5
12D2E9
  8
OBJECT
 10
2133.0
 20
-755.0
 30
0.0
 11
2133.0
 21
-634.0
 31
0.0
1001
ACDBBLOCKREPETAG
1070
     1
1071
       47
1005
12D2E9
  0
LINE
  5
12D2EA
  8
CENTER
 10
2155.0
 20
-696.0
 30
0.0
 11
2071.0
 21
-696.0
 31
0.0
1001
ACDBBLOCKREPETAG
1070
     1
1071
       48
1005
12D2EA
  0
LINE
  5
12D2EB
  8
OBJECT
 10
2133.0
 20
-637.0
 30
0.0
 11
2097.0
 21
-637.0
 31
0.0
1001
ACDBBLOCKREPETAG
1070
     1
1071
       49
1005
12D2EB
  0
LINE
  5
12D2EC
  8
OBJECT
 10
2097.0
 20
-637.0
 30
0.0
 11
2097.0
 21
-755.0
 31
0.0
1001
ACDBBLOCKREPETAG
1070
     1
1071
       50
1005
12D2EC
  0
LINE
  5
12D2ED
  8
OBJECT
 10
2097.0
 20
-755.0
 30
0.0
 11
2140.0
 21
-755.0
 31
0.0
1001
ACDBBLOCKREPETAG
1070
     1
1071
       51
1005
12D2ED
  0
LINE
  5
12D2EE
  8
OBJECT
 10
2093.0
 20
-641.5
 30
0.0
 11
2086.0
 21
-641.5
 31
0.0
1001
ACDBBLOCKREPETAG
1070
     1
1071
       52
1005
12D2EE
  0
LINE
  5
12D2EF
  8
OBJECT
 10
2086.0
 20
-750.49999999999989
 30
0.0
 11
2093.0
 21
-750.49999999999989
 31
0.0
1001
ACDBBLOCKREPETAG
1070
     1
1071
       53
1005
12D2EF
  0
LINE
  5
12D2F0
  8
OBJECT
 10
2093.0
 20
-750.49999999999989
 30
0.0
 11
2093.0
 21
-641.5
 31
0.0
1001
ACDBBLOCKREPETAG
1070
     1
1071
       54
1005
12D2F0
  0
LINE
  5
12D2F1
  8
OBJECT
 10
2097.0
 20
-637.0
 30
0.0
 11
2093.0
 21
-641.5
 31
0.0
1001
ACDBBLOCKREPETAG
1070
     1
1071
       55
1005
12D2F1
  0
LINE
  5
12D2F2
  8
OBJECT
 10
2097.0
 20
-755.0
 30
0.0
 11
2093.0
 21
-750.49999999999989
 31
0.0
1001
ACDBBLOCKREPETAG
1070
     1
1071
       56
1005
12D2F2
  0
LINE
  5
12D2F3
  8
OBJECT
 10
2083.0
 20
-634.0
 30
0.0
 11
2080.0
 21
-634.0
 31
0.0
1001
ACDBBLOCKREPETAG
1070
     1
1071
       57
1005
12D2F3
  0
ARC
  5
12D2F4
  8
OBJECT
 10
2083.0
 20
-637.0
 30
0.0
 40
3.0
 50
0.0
 51
90.0
1001
ACDBBLOCKREPETAG
1070
     1
1071
       58
1005
12D2F4
  0
LINE
  5
12D2F5
  8
OBJECT
 10
2080.0
 20
-758.0
 30
0.0
 11
2083.0
 21
-758.0
 31
0.0
1001
ACDBBLOCKREPETAG
1070
     1
1071
       59
1005
12D2F5
  0
ARC
  5
12D2F6
  8
OBJECT
 10
2083.0
 20
-755.0
 30
0.0
 40
3.0
 50
270.0
 51
0.0
1001
ACDBBLOCKREPETAG
1070
     1
1071
       60
1005
12D2F6
  0
LINE
  5
12D2F7
  8
OBJECT
 10
2086.0
 20
-755.0
 30
0.0
 11
2086.0
 21
-637.0
 31
0.0
1001
ACDBBLOCKREPETAG
1070
     1
1071
       61
1005
12D2F7
  0
LINE
  5
12D2F8
  8
HIDDEN
 10
2088.0
 20
-651.5
 30
0.0
 11
2088.0
 21
-740.5
 31
0.0
1001
ACDBBLOCKREPETAG
1070
     1
1071
       63
1005
12D2F8
  0
TEXT
  5
12D2F9
  8
SLIM
 10
126.85714285708239
 20
-443.99999999984919
 30
0.0
 40
48.0
  1
B101
 41
0.75
1001
ACDBBLOCKREPETAG
1070
     1
1071
      119
1005
12AEEF
  0
TEXT
  5
12D2FA
  8
SLIM
 10
0.0000035665234464
 20
24.000004585317601
 30
0.0
 40
79.999999999972701
  1
枝管バリエーション
 41
0.75
1001
ACDBBLOCKREPETAG
1070
     1
1071
      119
1005
12AEEE
  0
TEXT
  5
12D2FB
  8
SLIM
 10
-18.199999999993789
 20
-2395.9999999991828
 30
0.0
 40
51.999999999982258
  1
（特）：特注品。対向枝への排水の流入
 41
0.75
1001
ACDBBLOCKREPETAG
1070
     1
1071
      118
1005
12AEED
  0
TEXT
  5
12D2FC
  8
SLIM
 10
0.0
 20
-2465.3333333324931
 30
0.0
 40
51.999999999982258
  1
が無いことを確認した場合のみ製作。
 41
0.75
1001
ACDBBLOCKREPETAG
1070
     1
1071
      118
1005
12AEED
  0
LINE
  5
12D2FD
  8
OBJECT
 10
222.99999999861211
 20
-328.99999999770631
 30
0.0
 11
222.99999999861211
 21
-335.99999999770631
 31
0.0
1001
ACDBBLOCKREPETAG
1070
     1
1071
        0
1005
12D2FD
  0
LINE
  5
12D2FE
  8
OBJECT
 10
222.99999999861211
 20
-335.99999999770631
 30
0.0
 11
128.99999999861211
 21
-335.99999999770631
 31
0.0
1001
ACDBBLOCKREPETAG
1070
     1
1071
        1
1005
12D2FE
  0
LINE
  5
12D2FF
  8
OBJECT
 10
128.99999999861211
 20
-335.99999999770631
 30
0.0
 11
128.99999999861211
 21
-328.99999999770631
 31
0.0
1001
ACDBBLOCKREPETAG
1070
     1
1071
        2
1005
12D2FF
  0
LINE
  5
12D300
  8
OBJECT
 10
128.99999999861211
 20
-328.99999999770631
 30
0.0
 11
222.99999999861211
 21
-328.99999999770631
 31
0.0
1001
ACDBBLOCKREPETAG
1070
     1
1071
        3
1005
12D300
  0
LINE
  5
12D301
  8
OBJECT
 10
219.99999999861211
 20
-328.99999999770631
 30
0.0
 11
219.99999999861211
 21
-292.99999999770631
 31
0.0
1001
ACDBBLOCKREPETAG
1070
     1
1071
        4
1005
12D301
  0
LINE
  5
12D302
  8
OBJECT
 10
219.99999999861211
 20
-292.99999999770631
 30
0.0
 11
131.99999999861211
 21
-292.99999999770631
 31
0.0
1001
ACDBBLOCKREPETAG
1070
     1
1071
        5
1005
12D302
  0
LINE
  5
12D303
  8
OBJECT
 10
131.99999999861211
 20
-292.99999999770631
 30
0.0
 11
131.99999999861211
 21
-328.99999999770631
 31
0.0
1001
ACDBBLOCKREPETAG
1070
     1
1071
        6
1005
12D303
  0
LINE
  5
12D304
  8
OBJECT
 10
215.49999999861211
 20
-288.9999999977062
 30
0.0
 11
215.49999999861211
 21
-281.99999999770631
 31
0.0
1001
ACDBBLOCKREPETAG
1070
     1
1071
        7
1005
12D304
  0
LINE
  5
12D305
  8
OBJECT
 10
136.49999999861211
 20
-281.99999999770631
 30
0.0
 11
136.49999999861211
 21
-288.9999999977062
 31
0.0
1001
ACDBBLOCKREPETAG
1070
     1
1071
        8
1005
12D305
  0
LINE
  5
12D306
  8
OBJECT
 10
136.49999999861211
 20
-288.9999999977062
 30
0.0
 11
215.49999999861211
 21
-288.9999999977062
 31
0.0
1001
ACDBBLOCKREPETAG
1070
     1
1071
        9
1005
12D306
  0
LINE
  5
12D307
  8
OBJECT
 10
219.99999999861211
 20
-292.99999999770631
 30
0.0
 11
215.49999999861211
 21
-288.9999999977062
 31
0.0
1001
ACDBBLOCKREPETAG
1070
     1
1071
       10
1005
12D307
  0
LINE
  5
12D308
  8
OBJECT
 10
131.99999999861211
 20
-292.99999999770631
 30
0.0
 11
136.49999999861211
 21
-288.9999999977062
 31
0.0
1001
ACDBBLOCKREPETAG
1070
     1
1071
       11
1005
12D308
  0
LINE
  5
12D309
  8
OBJECT
 10
237.99999999861211
 20
-278.99999999770722
 30
0.0
 11
237.99999999861211
 21
-275.99999999770631
 31
0.0
1001
ACDBBLOCKREPETAG
1070
     1
1071
       12
1005
12D309
  0
ARC
  5
12D30A
  8
OBJECT
 10
234.99999999861211
 20
-278.99999999770722
 30
0.0
 40
3.0
 50
270.0
 51
0.0
1001
ACDBBLOCKREPETAG
1070
     1
1071
       13
1005
12D30A
  0
LINE
  5
12D30B
  8
OBJECT
 10
113.9999999986121
 20
-275.99999999770631
 30
0.0
 11
113.9999999986121
 21
-278.99999999770529
 31
0.0
1001
ACDBBLOCKREPETAG
1070
     1
1071
       14
1005
12D30B
  0
ARC
  5
12D30C
  8
OBJECT
 10
116.9999999986121
 20
-278.99999999770529
 30
0.0
 40
3.0
 50
180.0
 51
270.0
1001
ACDBBLOCKREPETAG
1070
     1
1071
       15
1005
12D30C
  0
LINE
  5
12D30D
  8
OBJECT
 10
116.9999999986121
 20
-281.99999999770529
 30
0.0
 11
234.99999999861211
 21
-281.99999999770711
 31
0.0
1001
ACDBBLOCKREPETAG
1070
     1
1071
       16
1005
12D30D
  0
INSERT
  5
12D30E
  8
OBJECT
  2
*U24
 10
0.0
 20
0.0
 30
0.0
  0
LINE
  5
12D30F
  8
HIDDEN
 10
205.99999999861211
 20
-283.99999999770631
 30
0.0
 11
145.99999999861211
 21
-283.99999999770631
 31
0.0
1001
ACDBBLOCKREPETAG
1070
     1
1071
      424
1005
12D30F
  0
LINE
  5
12D310
  8
OBJECT
 10
258.99999999861211
 20
-257.9999999977062
 30
0.0
 11
255.99999999861211
 21
-257.9999999977062
 31
0.0
1001
ACDBBLOCKREPETAG
1070
     1
1071
      418
1005
12D310
  0
ARC
  5
12D311
  8
OBJECT
 10
258.99999999861211
 20
-254.99999999770631
 30
0.0
 40
3.0
 50
270.0
 51
0.0
1001
ACDBBLOCKREPETAG
1070
     1
1071
      419
1005
12D311
  0
LINE
  5
12D312
  8
OBJECT
 10
255.99999999861211
 20
-133.9999999977062
 30
0.0
 11
258.99999999861211
 21
-133.9999999977062
 31
0.0
1001
ACDBBLOCKREPETAG
1070
     1
1071
      420
1005
12D312
  0
ARC
  5
12D313
  8
OBJECT
 10
258.99999999861211
 20
-136.9999999977062
 30
0.0
 40
3.0
 50
0.0
 51
90.0
1001
ACDBBLOCKREPETAG
1070
     1
1071
      421
1005
12D313
  0
LINE
  5
12D314
  8
OBJECT
 10
261.99999999861211
 20
-136.9999999977062
 30
0.0
 11
261.99999999861211
 21
-254.99999999770631
 31
0.0
1001
ACDBBLOCKREPETAG
1070
     1
1071
      422
1005
12D314
  0
INSERT
  5
12D315
  8
OBJECT
  2
*U25
 10
0.0
 20
0.0
 30
0.0
  0
LINE
  5
12D316
  8
OBJECT
 10
128.99999999861211
 20
-62.999999997706247
 30
0.0
 11
128.99999999861211
 21
-55.999999997706247
 31
0.0
1001
ACDBBLOCKREPETAG
1070
     1
1071
        1
1005
12D316
  0
LINE
  5
12D317
  8
OBJECT
 10
128.99999999861211
 20
-55.999999997706247
 30
0.0
 11
222.99999999861211
 21
-55.999999997706247
 31
0.0
1001
ACDBBLOCKREPETAG
1070
     1
1071
        2
1005
12D317
  0
LINE
  5
12D318
  8
OBJECT
 10
222.99999999861211
 20
-55.999999997706247
 30
0.0
 11
222.99999999861211
 21
-62.999999997706247
 31
0.0
1001
ACDBBLOCKREPETAG
1070
     1
1071
        3
1005
12D318
  0
LINE
  5
12D319
  8
OBJECT
 10
222.99999999861211
 20
-62.999999997706247
 30
0.0
 11
128.99999999861211
 21
-62.999999997706247
 31
0.0
1001
ACDBBLOCKREPETAG
1070
     1
1071
        4
1005
12D319
  0
LINE
  5
12D31A
  8
OBJECT
 10
131.99999999861211
 20
-62.999999997706247
 30
0.0
 11
131.99999999861211
 21
-98.99999999770624
 31
0.0
1001
ACDBBLOCKREPETAG
1070
     1
1071
        5
1005
12D31A
  0
LINE
  5
12D31B
  8
OBJECT
 10
131.99999999861211
 20
-98.99999999770624
 30
0.0
 11
219.99999999861211
 21
-98.99999999770624
 31
0.0
1001
ACDBBLOCKREPETAG
1070
     1
1071
        6
1005
12D31B
  0
LINE
  5
12D31C
  8
OBJECT
 10
219.99999999861211
 20
-98.99999999770624
 30
0.0
 11
219.99999999861211
 21
-62.999999997706247
 31
0.0
1001
ACDBBLOCKREPETAG
1070
     1
1071
        7
1005
12D31C
  0
LINE
  5
12D31D
  8
OBJECT
 10
136.49999999861211
 20
-102.9999999977062
 30
0.0
 11
136.49999999861211
 21
-109.9999999977062
 31
0.0
1001
ACDBBLOCKREPETAG
1070
     1
1071
        8
1005
12D31D
  0
LINE
  5
12D31E
  8
OBJECT
 10
215.49999999861211
 20
-109.9999999977062
 30
0.0
 11
215.49999999861211
 21
-102.9999999977062
 31
0.0
1001
ACDBBLOCKREPETAG
1070
     1
1071
        9
1005
12D31E
  0
LINE
  5
12D31F
  8
OBJECT
 10
215.49999999861211
 20
-102.9999999977062
 30
0.0
 11
136.49999999861211
 21
-102.9999999977062
 31
0.0
1001
ACDBBLOCKREPETAG
1070
     1
1071
       10
1005
12D31F
  0
LINE
  5
12D320
  8
OBJECT
 10
131.99999999861211
 20
-98.99999999770624
 30
0.0
 11
136.49999999861211
 21
-102.9999999977062
 31
0.0
1001
ACDBBLOCKREPETAG
1070
     1
1071
       11
1005
12D320
  0
LINE
  5
12D321
  8
OBJECT
 10
219.99999999861211
 20
-98.99999999770624
 30
0.0
 11
215.49999999861211
 21
-102.9999999977062
 31
0.0
1001
ACDBBLOCKREPETAG
1070
     1
1071
       12
1005
12D321
  0
LINE
  5
12D322
  8
OBJECT
 10
113.9999999986121
 20
-112.9999999977053
 30
0.0
 11
113.9999999986121
 21
-115.9999999977062
 31
0.0
1001
ACDBBLOCKREPETAG
1070
     1
1071
       13
1005
12D322
  0
ARC
  5
12D323
  8
OBJECT
 10
116.9999999986121
 20
-112.9999999977053
 30
0.0
 40
3.0
 50
90.0
 51
180.0
1001
ACDBBLOCKREPETAG
1070
     1
1071
       14
1005
12D323
  0
LINE
  5
12D324
  8
OBJECT
 10
237.99999999861211
 20
-115.9999999977062
 30
0.0
 11
237.99999999861211
 21
-112.99999999770711
 31
0.0
1001
ACDBBLOCKREPETAG
1070
     1
1071
       15
1005
12D324
  0
ARC
  5
12D325
  8
OBJECT
 10
234.99999999861211
 20
-112.99999999770711
 30
0.0
 40
3.0
 50
0.0
 51
90.0
1001
ACDBBLOCKREPETAG
1070
     1
1071
       16
1005
12D325
  0
LINE
  5
12D326
  8
OBJECT
 10
234.99999999861211
 20
-109.99999999770711
 30
0.0
 11
116.9999999986121
 21
-109.9999999977053
 31
0.0
1001
ACDBBLOCKREPETAG
1070
     1
1071
       17
1005
12D326
  0
LINE
  5
12D327
  8
HIDDEN
 10
145.99999999861211
 20
-107.9999999977062
 30
0.0
 11
205.99999999861211
 21
-107.9999999977062
 31
0.0
1001
ACDBBLOCKREPETAG
1070
     1
1071
      420
1005
12D327
  0
TEXT
  5
12D328
  8
SLIM
 10
0.0
 20
370.0
 30
0.0
 40
100.0
  1
4SR2-BX0X-0-S
 41
0.75
  0
LINE
  5
12D329
  8
OBJECT
 10
4923.0
 20
-3515.9999999999968
 30
0.0
 11
4923.0
 21
-3494.9999999999968
 31
0.0
1001
ACDBBLOCKREPETAG
1070
     1
1071
        0
1005
12D329
  0
LINE
  5
12D32A
  8
OBJECT
 10
4923.0
 20
-3494.9999999999968
 30
0.0
 11
5077.0
 21
-3494.9999999999968
 31
0.0
1001
ACDBBLOCKREPETAG
1070
     1
1071
        1
1005
12D32A
  0
LINE
  5
12D32B
  8
HIDDEN
 10
4943.0
 20
-3564.9999999999968
 30
0.0
 11
5057.0
 21
-3564.9999999999968
 31
0.0
1001
ACDBBLOCKREPETAG
1070
     1
1071
        2
1005
12D32B
  0
LINE
  5
12D32C
  8
OBJECT
 10
5077.0
 20
-3494.9999999999968
 30
0.0
 11
5077.0
 21
-3515.9999999999968
 31
0.0
1001
ACDBBLOCKREPETAG
1070
     1
1071
        3
1005
12D32C
  0
LINE
  5
12D32D
  8
OBJECT
 10
5077.0
 20
-3515.9999999999968
 30
0.0
 11
4923.0
 21
-3515.9999999999968
 31
0.0
1001
ACDBBLOCKREPETAG
1070
     1
1071
        4
1005
12D32D
  0
LINE
  5
12D32E
  8
CENTER
 10
5000.0
 20
-3479.9999999999968
 30
0.0
 11
5000.0
 21
-3714.9999999999968
 31
0.0
1001
ACDBBLOCKREPETAG
1070
     1
1071
        5
1005
12D32E
  0
LINE
  5
12D32F
  8
OBJECT
 10
4925.0
 20
-3578.9999999999968
 30
0.0
 11
4925.0
 21
-3702.9999999999968
 31
0.0
1001
ACDBBLOCKREPETAG
1070
     1
1071
        6
1005
12D32F
  0
LINE
  5
12D330
  8
OBJECT
 10
4928.0
 20
-3515.9999999999968
 30
0.0
 11
4928.0
 21
-3578.9999999999968
 31
0.0
1001
ACDBBLOCKREPETAG
1070
     1
1071
        7
1005
12D330
  0
LINE
  5
12D331
  8
OBJECT
 10
5072.0
 20
-3578.9999999999968
 30
0.0
 11
5072.0
 21
-3515.9999999999968
 31
0.0
1001
ACDBBLOCKREPETAG
1070
     1
1071
        8
1005
12D331
  0
LINE
  5
12D332
  8
OBJECT
 10
5074.9999999997999
 20
-3702.9999999997758
 30
0.0
 11
5080.0
 21
-3702.9999999999968
 31
0.0
1001
ACDBBLOCKREPETAG
1070
     1
1071
        9
1005
12D332
  0
LINE
  5
12D333
  8
OBJECT
 10
5080.0
 20
-3578.9999999999968
 30
0.0
 11
4925.0
 21
-3578.9999999999968
 31
0.0
1001
ACDBBLOCKREPETAG
1070
     1
1071
       10
1005
12D333
  0
ARC
  5
12D334
  8
OBJECT
 10
5200.6872746716726
 20
-3694.408099410105
 30
0.0
 40
170.6350503965856
 50
137.44134459184301
 51
149.9194958133665
1001
ACDBBLOCKREPETAG
1070
     1
1071
       15
1005
12D334
  0
ARC
  5
12D335
  8
OBJECT
 10
5118.8455987040506
 20
-3650.8827266953622
 30
0.0
 40
78.072222021763665
 50
147.4551531037684
 51
164.66365997719291
1001
ACDBBLOCKREPETAG
1070
     1
1071
       16
1005
12D335
  0
ARC
  5
12D336
  8
OBJECT
 10
5085.7554349608727
 20
-3640.9999999999968
 30
0.0
 40
43.55353926885617
 50
165.6884523008477
 51
194.3115476991523
1001
ACDBBLOCKREPETAG
1070
     1
1071
       17
1005
12D336
  0
ARC
  5
12D337
  8
OBJECT
 10
5200.6872746716726
 20
-3587.5919005898891
 30
0.0
 40
170.6350503965856
 50
210.0805041866335
 51
222.55865540815699
1001
ACDBBLOCKREPETAG
1070
     1
1071
       18
1005
12D337
  0
ARC
  5
12D338
  8
OBJECT
 10
5118.8455987040506
 20
-3631.1172733046319
 30
0.0
 40
78.072222021763665
 50
195.33634002280701
 51
212.5448468962316
1001
ACDBBLOCKREPETAG
1070
     1
1071
       19
1005
12D338
  0
POINT
  5
12D339
  8
DOTS
 10
5000.0
 20
-3699.9999999999968
 30
0.0
1001
ACDBBLOCKREPETAG
1070
     1
1071
      186
1005
12D339
  0
LINE
  5
12D33A
  8
OBJECT
 10
4323.0
 20
-3515.9999999999968
 30
0.0
 11
4323.0
 21
-3494.9999999999968
 31
0.0
1001
ACDBBLOCKREPETAG
1070
     1
1071
       20
1005
12D33A
  0
LINE
  5
12D33B
  8
OBJECT
 10
4323.0
 20
-3494.9999999999968
 30
0.0
 11
4477.0
 21
-3494.9999999999968
 31
0.0
1001
ACDBBLOCKREPETAG
1070
     1
1071
       21
1005
12D33B
  0
LINE
  5
12D33C
  8
HIDDEN
 10
4343.0
 20
-3564.9999999999968
 30
0.0
 11
4457.0
 21
-3564.9999999999968
 31
0.0
1001
ACDBBLOCKREPETAG
1070
     1
1071
       22
1005
12D33C
  0
LINE
  5
12D33D
  8
OBJECT
 10
4477.0
 20
-3494.9999999999968
 30
0.0
 11
4477.0
 21
-3515.9999999999968
 31
0.0
1001
ACDBBLOCKREPETAG
1070
     1
1071
       23
1005
12D33D
  0
LINE
  5
12D33E
  8
OBJECT
 10
4477.0
 20
-3515.9999999999968
 30
0.0
 11
4323.0
 21
-3515.9999999999968
 31
0.0
1001
ACDBBLOCKREPETAG
1070
     1
1071
       24
1005
12D33E
  0
LINE
  5
12D33F
  8
CENTER
 10
4400.0
 20
-3479.9999999999968
 30
0.0
 11
4400.0
 21
-3714.9999999999968
 31
0.0
1001
ACDBBLOCKREPETAG
1070
     1
1071
       25
1005
12D33F
  0
LINE
  5
12D340
  8
OBJECT
 10
4325.0
 20
-3578.9999999999968
 30
0.0
 11
4325.0
 21
-3702.9999999999968
 31
0.0
1001
ACDBBLOCKREPETAG
1070
     1
1071
       26
1005
12D340
  0
LINE
  5
12D341
  8
OBJECT
 10
4328.0
 20
-3515.9999999999968
 30
0.0
 11
4328.0
 21
-3578.9999999999968
 31
0.0
1001
ACDBBLOCKREPETAG
1070
     1
1071
       27
1005
12D341
  0
LINE
  5
12D342
  8
OBJECT
 10
4472.0
 20
-3578.9999999999968
 30
0.0
 11
4472.0
 21
-3515.9999999999968
 31
0.0
1001
ACDBBLOCKREPETAG
1070
     1
1071
       28
1005
12D342
  0
LINE
  5
12D343
  8
OBJECT
 10
4475.0
 20
-3578.9999999999968
 30
0.0
 11
4325.0
 21
-3578.9999999999968
 31
0.0
1001
ACDBBLOCKREPETAG
1070
     1
1071
       30
1005
12D343
  0
LINE
  5
12D344
  8
OBJECT
 10
4475.0
 20
-3578.9999999999968
 30
0.0
 11
4475.0
 21
-3702.9999999999968
 31
0.0
1001
ACDBBLOCKREPETAG
1070
     1
1071
       34
1005
12D344
  0
POINT
  5
12D345
  8
DOTS
 10
4400.0
 20
-3699.9999999999968
 30
0.0
1001
ACDBBLOCKREPETAG
1070
     1
1071
      187
1005
12D345
  0
LINE
  5
12D346
  8
OBJECT
 10
3923.0
 20
-3515.9999999999968
 30
0.0
 11
3923.0
 21
-3494.9999999999968
 31
0.0
1001
ACDBBLOCKREPETAG
1070
     1
1071
        0
1005
12D346
  0
LINE
  5
12D347
  8
OBJECT
 10
3923.0
 20
-3494.9999999999968
 30
0.0
 11
4077.0
 21
-3494.9999999999968
 31
0.0
1001
ACDBBLOCKREPETAG
1070
     1
1071
        1
1005
12D347
  0
LINE
  5
12D348
  8
HIDDEN
 10
3943.0
 20
-3564.9999999999968
 30
0.0
 11
4057.0
 21
-3564.9999999999968
 31
0.0
1001
ACDBBLOCKREPETAG
1070
     1
1071
        2
1005
12D348
  0
LINE
  5
12D349
  8
OBJECT
 10
4077.0
 20
-3494.9999999999968
 30
0.0
 11
4077.0
 21
-3515.9999999999968
 31
0.0
1001
ACDBBLOCKREPETAG
1070
     1
1071
        3
1005
12D349
  0
LINE
  5
12D34A
  8
OBJECT
 10
4077.0
 20
-3515.9999999999968
 30
0.0
 11
3923.0
 21
-3515.9999999999968
 31
0.0
1001
ACDBBLOCKREPETAG
1070
     1
1071
        4
1005
12D34A
  0
LINE
  5
12D34B
  8
CENTER
 10
4000.0
 20
-3479.9999999999968
 30
0.0
 11
4000.0
 21
-3714.9999999999968
 31
0.0
1001
ACDBBLOCKREPETAG
1070
     1
1071
        5
1005
12D34B
  0
LINE
  5
12D34C
  8
OBJECT
 10
3925.0
 20
-3578.9999999999968
 30
0.0
 11
3925.0
 21
-3702.9999999999968
 31
0.0
1001
ACDBBLOCKREPETAG
1070
     1
1071
        6
1005
12D34C
  0
LINE
  5
12D34D
  8
OBJECT
 10
3928.0
 20
-3515.9999999999968
 30
0.0
 11
3928.0
 21
-3578.9999999999968
 31
0.0
1001
ACDBBLOCKREPETAG
1070
     1
1071
        7
1005
12D34D
  0
LINE
  5
12D34E
  8
OBJECT
 10
4072.0
 20
-3578.9999999999968
 30
0.0
 11
4072.0
 21
-3515.9999999999968
 31
0.0
1001
ACDBBLOCKREPETAG
1070
     1
1071
        8
1005
12D34E
  0
LINE
  5
12D34F
  8
OBJECT
 10
4074.999999999799
 20
-3702.9999999997758
 30
0.0
 11
4080.0
 21
-3702.9999999999968
 31
0.0
1001
ACDBBLOCKREPETAG
1070
     1
1071
        9
1005
12D34F
  0
LINE
  5
12D350
  8
OBJECT
 10
4080.0
 20
-3578.9999999999968
 30
0.0
 11
3925.0
 21
-3578.9999999999968
 31
0.0
1001
ACDBBLOCKREPETAG
1070
     1
1071
       10
1005
12D350
  0
ARC
  5
12D351
  8
OBJECT
 10
4200.6872746716726
 20
-3694.408099410105
 30
0.0
 40
170.6350503965856
 50
137.44134459184301
 51
149.9194958133665
1001
ACDBBLOCKREPETAG
1070
     1
1071
       15
1005
12D351
  0
ARC
  5
12D352
  8
OBJECT
 10
4118.8455987040506
 20
-3650.8827266953622
 30
0.0
 40
78.072222021763665
 50
147.4551531037684
 51
164.663659977186
1001
ACDBBLOCKREPETAG
1070
     1
1071
       16
1005
12D352
  0
ARC
  5
12D353
  8
OBJECT
 10
4085.7554349608722
 20
-3640.9999999999968
 30
0.0
 40
43.55353926885617
 50
165.6884523008477
 51
194.3115476991523
1001
ACDBBLOCKREPETAG
1070
     1
1071
       17
1005
12D353
  0
ARC
  5
12D354
  8
OBJECT
 10
4200.6872746716726
 20
-3587.5919005898891
 30
0.0
 40
170.6350503965856
 50
210.0805041866335
 51
222.55865540815699
1001
ACDBBLOCKREPETAG
1070
     1
1071
       18
1005
12D354
  0
ARC
  5
12D355
  8
OBJECT
 10
4118.8455987040506
 20
-3631.1172733046319
 30
0.0
 40
78.072222021763665
 50
195.33634002281391
 51
212.5448468962316
1001
ACDBBLOCKREPETAG
1070
     1
1071
       19
1005
12D355
  0
POINT
  5
12D356
  8
DOTS
 10
4000.0
 20
-3699.9999999999968
 30
0.0
1001
ACDBBLOCKREPETAG
1070
     1
1071
      186
1005
12D356
  0
LINE
  5
12D357
  8
OBJECT
 10
3323.0
 20
-3515.9999999999968
 30
0.0
 11
3323.0
 21
-3494.9999999999968
 31
0.0
1001
ACDBBLOCKREPETAG
1070
     1
1071
       20
1005
12D357
  0
LINE
  5
12D358
  8
OBJECT
 10
3323.0
 20
-3494.9999999999968
 30
0.0
 11
3477.0
 21
-3494.9999999999968
 31
0.0
1001
ACDBBLOCKREPETAG
1070
     1
1071
       21
1005
12D358
  0
LINE
  5
12D359
  8
HIDDEN
 10
3343.0
 20
-3564.9999999999968
 30
0.0
 11
3457.0
 21
-3564.9999999999968
 31
0.0
1001
ACDBBLOCKREPETAG
1070
     1
1071
       22
1005
12D359
  0
LINE
  5
12D35A
  8
OBJECT
 10
3477.0
 20
-3494.9999999999968
 30
0.0
 11
3477.0
 21
-3515.9999999999968
 31
0.0
1001
ACDBBLOCKREPETAG
1070
     1
1071
       23
1005
12D35A
  0
LINE
  5
12D35B
  8
OBJECT
 10
3477.0
 20
-3515.9999999999968
 30
0.0
 11
3323.0
 21
-3515.9999999999968
 31
0.0
1001
ACDBBLOCKREPETAG
1070
     1
1071
       24
1005
12D35B
  0
LINE
  5
12D35C
  8
CENTER
 10
3400.0
 20
-3479.9999999999968
 30
0.0
 11
3400.0
 21
-3714.9999999999968
 31
0.0
1001
ACDBBLOCKREPETAG
1070
     1
1071
       25
1005
12D35C
  0
LINE
  5
12D35D
  8
OBJECT
 10
3325.0
 20
-3578.9999999999968
 30
0.0
 11
3325.0
 21
-3702.9999999999968
 31
0.0
1001
ACDBBLOCKREPETAG
1070
     1
1071
       26
1005
12D35D
  0
LINE
  5
12D35E
  8
OBJECT
 10
3328.0
 20
-3515.9999999999968
 30
0.0
 11
3328.0
 21
-3578.9999999999968
 31
0.0
1001
ACDBBLOCKREPETAG
1070
     1
1071
       27
1005
12D35E
  0
LINE
  5
12D35F
  8
OBJECT
 10
3472.0
 20
-3578.9999999999968
 30
0.0
 11
3472.0
 21
-3515.9999999999968
 31
0.0
1001
ACDBBLOCKREPETAG
1070
     1
1071
       28
1005
12D35F
  0
LINE
  5
12D360
  8
OBJECT
 10
3475.0
 20
-3578.9999999999968
 30
0.0
 11
3325.0
 21
-3578.9999999999968
 31
0.0
1001
ACDBBLOCKREPETAG
1070
     1
1071
       30
1005
12D360
  0
LINE
  5
12D361
  8
OBJECT
 10
3475.0
 20
-3578.9999999999968
 30
0.0
 11
3475.0
 21
-3702.9999999999968
 31
0.0
1001
ACDBBLOCKREPETAG
1070
     1
1071
       34
1005
12D361
  0
POINT
  5
12D362
  8
DOTS
 10
3400.0
 20
-3699.9999999999968
 30
0.0
1001
ACDBBLOCKREPETAG
1070
     1
1071
      187
1005
12D362
  0
LINE
  5
12D363
  8
OBJECT
 10
2923.0
 20
-3515.9999999999968
 30
0.0
 11
2923.0
 21
-3494.9999999999968
 31
0.0
1001
ACDBBLOCKREPETAG
1070
     1
1071
        0
1005
12D363
  0
LINE
  5
12D364
  8
OBJECT
 10
2923.0
 20
-3494.9999999999968
 30
0.0
 11
3077.0
 21
-3494.9999999999968
 31
0.0
1001
ACDBBLOCKREPETAG
1070
     1
1071
        1
1005
12D364
  0
LINE
  5
12D365
  8
HIDDEN
 10
2943.0
 20
-3564.9999999999968
 30
0.0
 11
3057.0
 21
-3564.9999999999968
 31
0.0
1001
ACDBBLOCKREPETAG
1070
     1
1071
        2
1005
12D365
  0
LINE
  5
12D366
  8
OBJECT
 10
3077.0
 20
-3494.9999999999968
 30
0.0
 11
3077.0
 21
-3515.9999999999968
 31
0.0
1001
ACDBBLOCKREPETAG
1070
     1
1071
        3
1005
12D366
  0
LINE
  5
12D367
  8
OBJECT
 10
3077.0
 20
-3515.9999999999968
 30
0.0
 11
2923.0
 21
-3515.9999999999968
 31
0.0
1001
ACDBBLOCKREPETAG
1070
     1
1071
        4
1005
12D367
  0
LINE
  5
12D368
  8
CENTER
 10
3000.0
 20
-3479.9999999999968
 30
0.0
 11
3000.0
 21
-3714.9999999999968
 31
0.0
1001
ACDBBLOCKREPETAG
1070
     1
1071
        5
1005
12D368
  0
LINE
  5
12D369
  8
OBJECT
 10
2925.0
 20
-3578.9999999999968
 30
0.0
 11
2925.0
 21
-3702.9999999999968
 31
0.0
1001
ACDBBLOCKREPETAG
1070
     1
1071
        6
1005
12D369
  0
LINE
  5
12D36A
  8
OBJECT
 10
2928.0
 20
-3515.9999999999968
 30
0.0
 11
2928.0
 21
-3578.9999999999968
 31
0.0
1001
ACDBBLOCKREPETAG
1070
     1
1071
        7
1005
12D36A
  0
LINE
  5
12D36B
  8
OBJECT
 10
3072.0
 20
-3578.9999999999968
 30
0.0
 11
3072.0
 21
-3515.9999999999968
 31
0.0
1001
ACDBBLOCKREPETAG
1070
     1
1071
        8
1005
12D36B
  0
LINE
  5
12D36C
  8
OBJECT
 10
3074.9999999997999
 20
-3702.9999999997758
 30
0.0
 11
3080.0
 21
-3702.9999999999968
 31
0.0
1001
ACDBBLOCKREPETAG
1070
     1
1071
        9
1005
12D36C
  0
LINE
  5
12D36D
  8
OBJECT
 10
3080.0
 20
-3578.9999999999968
 30
0.0
 11
2925.0
 21
-3578.9999999999968
 31
0.0
1001
ACDBBLOCKREPETAG
1070
     1
1071
       10
1005
12D36D
  0
ARC
  5
12D36E
  8
OBJECT
 10
3200.6872746716722
 20
-3694.408099410105
 30
0.0
 40
170.6350503965856
 50
137.44134459184301
 51
149.9194958133665
1001
ACDBBLOCKREPETAG
1070
     1
1071
       15
1005
12D36E
  0
ARC
  5
12D36F
  8
OBJECT
 10
3118.8455987040511
 20
-3650.8827266953622
 30
0.0
 40
78.072222021763665
 50
147.4551531037684
 51
164.663659977186
1001
ACDBBLOCKREPETAG
1070
     1
1071
       16
1005
12D36F
  0
ARC
  5
12D370
  8
OBJECT
 10
3085.7554349608731
 20
-3640.9999999999968
 30
0.0
 40
43.55353926885617
 50
165.6884523008477
 51
194.3115476991523
1001
ACDBBLOCKREPETAG
1070
     1
1071
       17
1005
12D370
  0
ARC
  5
12D371
  8
OBJECT
 10
3200.6872746716722
 20
-3587.5919005898891
 30
0.0
 40
170.6350503965856
 50
210.0805041866335
 51
222.55865540815699
1001
ACDBBLOCKREPETAG
1070
     1
1071
       18
1005
12D371
  0
ARC
  5
12D372
  8
OBJECT
 10
3118.8455987040511
 20
-3631.1172733046319
 30
0.0
 40
78.072222021763665
 50
195.33634002281391
 51
212.5448468962316
1001
ACDBBLOCKREPETAG
1070
     1
1071
       19
1005
12D372
  0
POINT
  5
12D373
  8
DOTS
 10
3000.0
 20
-3699.9999999999968
 30
0.0
1001
ACDBBLOCKREPETAG
1070
     1
1071
      186
1005
12D373
  0
LINE
  5
12D374
  8
OBJECT
 10
2323.0
 20
-3515.9999999999968
 30
0.0
 11
2323.0
 21
-3494.9999999999968
 31
0.0
1001
ACDBBLOCKREPETAG
1070
     1
1071
       20
1005
12D374
  0
LINE
  5
12D375
  8
OBJECT
 10
2323.0
 20
-3494.9999999999968
 30
0.0
 11
2477.0
 21
-3494.9999999999968
 31
0.0
1001
ACDBBLOCKREPETAG
1070
     1
1071
       21
1005
12D375
  0
LINE
  5
12D376
  8
HIDDEN
 10
2343.0
 20
-3564.9999999999968
 30
0.0
 11
2457.0
 21
-3564.9999999999968
 31
0.0
1001
ACDBBLOCKREPETAG
1070
     1
1071
       22
1005
12D376
  0
LINE
  5
12D377
  8
OBJECT
 10
2477.0
 20
-3494.9999999999968
 30
0.0
 11
2477.0
 21
-3515.9999999999968
 31
0.0
1001
ACDBBLOCKREPETAG
1070
     1
1071
       23
1005
12D377
  0
LINE
  5
12D378
  8
OBJECT
 10
2477.0
 20
-3515.9999999999968
 30
0.0
 11
2323.0
 21
-3515.9999999999968
 31
0.0
1001
ACDBBLOCKREPETAG
1070
     1
1071
       24
1005
12D378
  0
LINE
  5
12D379
  8
CENTER
 10
2400.0
 20
-3479.9999999999968
 30
0.0
 11
2400.0
 21
-3714.9999999999968
 31
0.0
1001
ACDBBLOCKREPETAG
1070
     1
1071
       25
1005
12D379
  0
LINE
  5
12D37A
  8
OBJECT
 10
2325.0
 20
-3578.9999999999968
 30
0.0
 11
2325.0
 21
-3702.9999999999968
 31
0.0
1001
ACDBBLOCKREPETAG
1070
     1
1071
       26
1005
12D37A
  0
LINE
  5
12D37B
  8
OBJECT
 10
2328.0
 20
-3515.9999999999968
 30
0.0
 11
2328.0
 21
-3578.9999999999968
 31
0.0
1001
ACDBBLOCKREPETAG
1070
     1
1071
       27
1005
12D37B
  0
LINE
  5
12D37C
  8
OBJECT
 10
2472.0
 20
-3578.9999999999968
 30
0.0
 11
2472.0
 21
-3515.9999999999968
 31
0.0
1001
ACDBBLOCKREPETAG
1070
     1
1071
       28
1005
12D37C
  0
LINE
  5
12D37D
  8
OBJECT
 10
2475.0
 20
-3578.9999999999968
 30
0.0
 11
2325.0
 21
-3578.9999999999968
 31
0.0
1001
ACDBBLOCKREPETAG
1070
     1
1071
       30
1005
12D37D
  0
LINE
  5
12D37E
  8
OBJECT
 10
2475.0
 20
-3578.9999999999968
 30
0.0
 11
2475.0
 21
-3702.9999999999968
 31
0.0
1001
ACDBBLOCKREPETAG
1070
     1
1071
       34
1005
12D37E
  0
POINT
  5
12D37F
  8
DOTS
 10
2400.0
 20
-3699.9999999999968
 30
0.0
1001
ACDBBLOCKREPETAG
1070
     1
1071
      187
1005
12D37F
  0
LINE
  5
12D380
  8
OBJECT
 10
1923.0
 20
-3515.9999999999968
 30
0.0
 11
1923.0
 21
-3494.9999999999968
 31
0.0
1001
ACDBBLOCKREPETAG
1070
     1
1071
        0
1005
12D380
  0
LINE
  5
12D381
  8
OBJECT
 10
1923.0
 20
-3494.9999999999968
 30
0.0
 11
2077.0
 21
-3494.9999999999968
 31
0.0
1001
ACDBBLOCKREPETAG
1070
     1
1071
        1
1005
12D381
  0
LINE
  5
12D382
  8
HIDDEN
 10
1943.0
 20
-3564.9999999999968
 30
0.0
 11
2057.0
 21
-3564.9999999999968
 31
0.0
1001
ACDBBLOCKREPETAG
1070
     1
1071
        2
1005
12D382
  0
LINE
  5
12D383
  8
OBJECT
 10
2077.0
 20
-3494.9999999999968
 30
0.0
 11
2077.0
 21
-3515.9999999999968
 31
0.0
1001
ACDBBLOCKREPETAG
1070
     1
1071
        3
1005
12D383
  0
LINE
  5
12D384
  8
OBJECT
 10
2077.0
 20
-3515.9999999999968
 30
0.0
 11
1923.0
 21
-3515.9999999999968
 31
0.0
1001
ACDBBLOCKREPETAG
1070
     1
1071
        4
1005
12D384
  0
LINE
  5
12D385
  8
CENTER
 10
2000.0
 20
-3479.9999999999968
 30
0.0
 11
2000.0
 21
-3714.9999999999968
 31
0.0
1001
ACDBBLOCKREPETAG
1070
     1
1071
        5
1005
12D385
  0
LINE
  5
12D386
  8
OBJECT
 10
1925.0
 20
-3578.9999999999968
 30
0.0
 11
1925.0
 21
-3702.9999999999968
 31
0.0
1001
ACDBBLOCKREPETAG
1070
     1
1071
        6
1005
12D386
  0
LINE
  5
12D387
  8
OBJECT
 10
1928.0
 20
-3515.9999999999968
 30
0.0
 11
1928.0
 21
-3578.9999999999968
 31
0.0
1001
ACDBBLOCKREPETAG
1070
     1
1071
        7
1005
12D387
  0
LINE
  5
12D388
  8
OBJECT
 10
2072.0
 20
-3578.9999999999968
 30
0.0
 11
2072.0
 21
-3515.9999999999968
 31
0.0
1001
ACDBBLOCKREPETAG
1070
     1
1071
        8
1005
12D388
  0
LINE
  5
12D389
  8
OBJECT
 10
2074.999999999799
 20
-3702.9999999997758
 30
0.0
 11
2080.0
 21
-3702.9999999999968
 31
0.0
1001
ACDBBLOCKREPETAG
1070
     1
1071
        9
1005
12D389
  0
LINE
  5
12D38A
  8
OBJECT
 10
2080.0
 20
-3578.9999999999968
 30
0.0
 11
1925.0
 21
-3578.9999999999968
 31
0.0
1001
ACDBBLOCKREPETAG
1070
     1
1071
       10
1005
12D38A
  0
ARC
  5
12D38B
  8
OBJECT
 10
2200.6872746716731
 20
-3694.408099410105
 30
0.0
 40
170.6350503965856
 50
137.44134459184301
 51
149.91949581335999
1001
ACDBBLOCKREPETAG
1070
     1
1071
       15
1005
12D38B
  0
ARC
  5
12D38C
  8
OBJECT
 10
2118.8455987040511
 20
-3650.8827266953622
 30
0.0
 40
78.072222021763665
 50
147.45515310377539
 51
164.663659977186
1001
ACDBBLOCKREPETAG
1070
     1
1071
       16
1005
12D38C
  0
ARC
  5
12D38D
  8
OBJECT
 10
2085.7554349608731
 20
-3640.9999999999968
 30
0.0
 40
43.55353926885617
 50
165.6884523008477
 51
194.3115476991523
1001
ACDBBLOCKREPETAG
1070
     1
1071
       17
1005
12D38D
  0
ARC
  5
12D38E
  8
OBJECT
 10
2200.6872746716731
 20
-3587.5919005898891
 30
0.0
 40
170.6350503965856
 50
210.08050418664001
 51
222.55865540815699
1001
ACDBBLOCKREPETAG
1070
     1
1071
       18
1005
12D38E
  0
ARC
  5
12D38F
  8
OBJECT
 10
2118.8455987040511
 20
-3631.1172733046319
 30
0.0
 40
78.072222021763665
 50
195.33634002281391
 51
212.54484689622461
1001
ACDBBLOCKREPETAG
1070
     1
1071
       19
1005
12D38F
  0
POINT
  5
12D390
  8
DOTS
 10
2000.0
 20
-3699.9999999999968
 30
0.0
1001
ACDBBLOCKREPETAG
1070
     1
1071
      186
1005
12D390
  0
LINE
  5
12D391
  8
DIM
 10
2150.0
 20
-3341.9999999999959
 30
0.0
 11
2228.479620594459
 21
-3341.9999999999959
 31
0.0
  0
LINE
  5
12D392
  8
DIM
 10
2150.0
 20
-3247.9999999999959
 30
0.0
 11
2228.479620594459
 21
-3247.9999999999959
 31
0.0
  0
LINE
  5
12D393
  8
DIM
 10
2218.479620594459
 20
-3321.9999999999959
 30
0.0
 11
2218.479620594459
 21
-3267.9999999999959
 31
0.0
  0
INSERT
  5
12D394
  8
DIM
  2
_OPEN30
 10
2218.479620594459
 20
-3341.9999999999959
 30
0.0
 41
20.0
 42
20.0
 43
20.0
 50
270.0
  0
INSERT
  5
12D395
  8
DIM
  2
_OPEN30
 10
2218.479620594459
 20
-3247.9999999999959
 30
0.0
 41
20.0
 42
20.0
 43
20.0
 50
90.0
  0
INSERT
  5
12D396
  8
OBJECT
  2
*U26
 10
0.0
 20
0.0
 30
0.0
  0
LINE
  5
12D397
  8
DIM
 10
2150.0
 20
-3699.9999999999968
 30
0.0
 11
2226.8409284037339
 21
-3699.9999999999968
 31
0.0
  0
LINE
  5
12D398
  8
DIM
 10
2165.0
 20
-3655.9999999999968
 30
0.0
 11
2226.8409284037339
 21
-3655.9999999999968
 31
0.0
  0
LINE
  5
12D399
  8
DIM
 10
2216.840928403733
 20
-3719.9999999999968
 30
0.0
 11
2216.840928403733
 21
-3739.9999999999968
 31
0.0
  0
LINE
  5
12D39A
  8
DIM
 10
2216.840928403733
 20
-3635.9999999999968
 30
0.0
 11
2216.840928403733
 21
-3615.9999999999968
 31
0.0
  0
LINE
  5
12D39B
  8
DIM
 10
2216.840928403733
 20
-3699.9999999999968
 30
0.0
 11
2216.840928403733
 21
-3655.9999999999968
 31
0.0
  0
INSERT
  5
12D39C
  8
DIM
  2
_OPEN30
 10
2216.840928403733
 20
-3699.9999999999968
 30
0.0
 41
20.0
 42
20.0
 43
20.0
 50
90.0
  0
INSERT
  5
12D39D
  8
DIM
  2
_OPEN30
 10
2216.840928403733
 20
-3655.9999999999968
 30
0.0
 41
20.0
 42
20.0
 43
20.0
 50
270.0
  0
INSERT
  5
12D39E
  8
OBJECT
  2
*U27
 10
0.0
 20
0.0
 30
0.0
  0
LINE
  5
12D39F
  8
DIM
 10
2000.0
 20
-3189.9999999999959
 30
0.0
 11
2000.0
 21
-3157.2081219844449
 31
0.0
  0
LINE
  5
12D3A0
  8
DIM
 10
2140.0
 20
-3237.9999999999959
 30
0.0
 11
2140.0
 21
-3157.2081219844449
 31
0.0
  0
LINE
  5
12D3A1
  8
DIM
 10
2020.0
 20
-3167.208121984444
 30
0.0
 11
2120.0
 21
-3167.208121984444
 31
0.0
  0
INSERT
  5
12D3A2
  8
DIM
  2
_OPEN30
 10
2000.0
 20
-3167.208121984444
 30
0.0
 41
20.0
 42
20.0
 43
20.0
 50
180.0
  0
INSERT
  5
12D3A3
  8
DIM
  2
_OPEN30
 10
2140.0
 20
-3167.208121984444
 30
0.0
 41
20.0
 42
20.0
 43
20.0
  0
INSERT
  5
12D3A4
  8
OBJECT
  2
*U28
 10
0.0
 20
0.0
 30
0.0
  0
TEXT
  5
12D3A5
  8
SLIM
 10
2631.0
 20
-3072.50001604727
 30
0.0
 40
40.0
  1
C寸法
 41
0.75
  0
TEXT
  5
12D3A6
  8
SLIM
 10
2631.0
 20
-3002.50001604727
 30
0.0
 40
40.0
  1
B寸法
 41
0.75
  0
TEXT
  5
12D3A7
  8
SLIM
 10
2630.2857142857142
 20
-2932.50001604727
 30
0.0
 40
40.0
  1
A寸法
 41
0.75
  0
TEXT
  5
12D3A8
  8
SLIM
 10
3159.2857142857151
 20
-3072.50001604727
 30
0.0
 40
40.0
  1
150
 41
0.75
  0
TEXT
  5
12D3A9
  8
SLIM
 10
3029.2857142857151
 20
-3072.50001604727
 30
0.0
 40
40.0
  1
140
 41
0.75
  0
TEXT
  5
12D3AA
  8
SLIM
 10
2769.2857142857151
 20
-3072.50001604727
 30
0.0
 40
40.0
  1
140
 41
0.75
  0
TEXT
  5
12D3AB
  8
SLIM
 10
2899.2857142857151
 20
-3072.50001604727
 30
0.0
 40
40.0
  1
140
 41
0.75
  0
TEXT
  5
12D3AC
  8
SLIM
 10
3170.7142857142858
 20
-3002.50001604727
 30
0.0
 40
40.0
  1
72
 41
0.75
  0
TEXT
  5
12D3AD
  8
SLIM
 10
3041.4285714285711
 20
-3002.50001604727
 30
0.0
 40
40.0
  1
59
 41
0.75
  0
TEXT
  5
12D3AE
  8
SLIM
 10
2780.0
 20
-3002.50001604727
 30
0.0
 40
40.0
  1
44
 41
0.75
  0
TEXT
  5
12D3AF
  8
SLIM
 10
2910.7142857142858
 20
-3002.50001604727
 30
0.0
 40
40.0
  1
52
 41
0.75
  0
TEXT
  5
12D3B0
  8
SLIM
 10
2891.0
 20
-2807.50001604727
 30
0.0
 40
40.0
  1
横枝管サイズ
 41
0.75
  0
TEXT
  5
12D3B1
  8
SLIM
 10
3136.2857142857151
 20
-2862.50001604727
 30
0.0
 40
30.0
  1
100（4）
 41
0.75
  0
TEXT
  5
12D3B2
  8
SLIM
 10
3014.857142857144
 20
-2862.50001604727
 30
0.0
 40
30.0
  1
75（3）
 41
0.75
  0
TEXT
  5
12D3B3
  8
SLIM
 10
2884.8571428571431
 20
-2862.50001604727
 30
0.0
 40
30.0
  1
65（2）
 41
0.75
  0
TEXT
  5
12D3B4
  8
SLIM
 10
2757.0
 20
-2862.50001604727
 30
0.0
 40
30.0
  1
50（1）
 41
0.75
  0
TEXT
  5
12D3B5
  8
SLIM
 10
3159.2857142857151
 20
-2932.50001604727
 30
0.0
 40
40.0
  1
150
 41
0.75
  0
TEXT
  5
12D3B6
  8
SLIM
 10
3028.571428571428
 20
-2932.50001604727
 30
0.0
 40
40.0
  1
124
 41
0.75
  0
TEXT
  5
12D3B7
  8
SLIM
 10
2780.0
 20
-2932.50001604727
 30
0.0
 40
40.0
  1
94
 41
0.75
  0
TEXT
  5
12D3B8
  8
SLIM
 10
2902.1428571428569
 20
-2932.50001604727
 30
0.0
 40
40.0
  1
110
 41
0.75
  0
TEXT
  5
12D3B9
  8
SLIM
 10
1849.9999999999991
 20
-2832.5
 30
0.0
 40
75.0
  1
枝管サイズ毎の形状
 41
0.75
  0
LINE
  5
12D3BA
  8
OBJECT
 10
5150.0
 20
-3552.9999999999968
 30
0.0
 11
5143.0
 21
-3552.9999999999968
 31
0.0
1001
ACDBBLOCKREPETAG
1070
     1
1071
       64
1005
12D3BA
  0
LINE
  5
12D3BB
  8
OBJECT
 10
5143.0
 20
-3552.9999999999968
 30
0.0
 11
5143.0
 21
-3699.9999999999968
 31
0.0
1001
ACDBBLOCKREPETAG
1070
     1
1071
       65
1005
12D3BB
  0
LINE
  5
12D3BC
  8
OBJECT
 10
5101.5
 20
-3555.9999999999968
 30
0.0
 11
5101.5
 21
-3699.9999999999968
 31
0.0
1001
ACDBBLOCKREPETAG
1070
     1
1071
       66
1005
12D3BC
  0
LINE
  5
12D3BD
  8
OBJECT
 10
5090.0
 20
-3562.4999999999968
 30
0.0
 11
5090.0
 21
-3693.4999999999968
 31
0.0
1001
ACDBBLOCKREPETAG
1070
     1
1071
       67
1005
12D3BD
  0
LINE
  5
12D3BE
  8
OBJECT
 10
5086.0
 20
-3634.5000000000041
 30
0.0
 11
5086.0
 21
-3699.9999999999968
 31
0.0
1001
ACDBBLOCKREPETAG
1070
     1
1071
       68
1005
12D3BE
  0
LINE
  5
12D3BF
  8
OBJECT
 10
5150.0
 20
-3699.9999999999968
 30
0.0
 11
5150.0
 21
-3552.9999999999968
 31
0.0
1001
ACDBBLOCKREPETAG
1070
     1
1071
       69
1005
12D3BF
  0
LINE
  5
12D3C0
  8
CENTER
 10
5165.0
 20
-3627.9999999999968
 30
0.0
 11
5070.4144144144157
 21
-3627.9999999999968
 31
0.0
1001
ACDBBLOCKREPETAG
1070
     1
1071
       70
1005
12D3C0
  0
LINE
  5
12D3C1
  8
OBJECT
 10
5083.0000000000045
 20
-3702.9999999999968
 30
0.0
 11
5080.0
 21
-3702.9999999999968
 31
0.0
1001
ACDBBLOCKREPETAG
1070
     1
1071
       71
1005
12D3C1
  0
ARC
  5
12D3C2
  8
OBJECT
 10
5091.8815171830656
 20
-3701.4555591801432
 30
0.0
 40
6.0
 50
60.52411099686767
 51
170.6927439126847
1001
ACDBBLOCKREPETAG
1070
     1
1071
       72
1005
12D3C2
  0
ARC
  5
12D3C3
  8
OBJECT
 10
5083.0
 20
-3699.9999999999968
 30
0.0
 40
3.0
 50
270.0
 51
350.69274391268482
1001
ACDBBLOCKREPETAG
1070
     1
1071
       73
1005
12D3C3
  0
LINE
  5
12D3C4
  8
OBJECT
 10
5081.0
 20
-3578.9999999999968
 30
0.0
 11
5080.0
 21
-3578.9999999999968
 31
0.0
1001
ACDBBLOCKREPETAG
1070
     1
1071
       74
1005
12D3C4
  0
LINE
  5
12D3C5
  8
OBJECT
 10
5150.0
 20
-3699.9999999999968
 30
0.0
 11
5101.5
 21
-3699.9999999999968
 31
0.0
1001
ACDBBLOCKREPETAG
1070
     1
1071
       75
1005
12D3C5
  0
LINE
  5
12D3C6
  8
OBJECT
 10
5101.5
 20
-3555.9999999999968
 30
0.0
 11
5090.0
 21
-3562.4999999999968
 31
0.0
1001
ACDBBLOCKREPETAG
1070
     1
1071
       76
1005
12D3C6
  0
LINE
  5
12D3C7
  8
OBJECT
 10
5143.0
 20
-3555.9999999999968
 30
0.0
 11
5101.5
 21
-3555.9999999999968
 31
0.0
1001
ACDBBLOCKREPETAG
1070
     1
1071
       77
1005
12D3C7
  0
LINE
  5
12D3C8
  8
OBJECT
 10
5086.0
 20
-3634.5000000000041
 30
0.0
 11
5081.0
 21
-3578.9999999999968
 31
0.0
1001
ACDBBLOCKREPETAG
1070
     1
1071
       78
1005
12D3C8
  0
LINE
  5
12D3C9
  8
OBJECT
 10
5090.0
 20
-3562.4999999999968
 30
0.0
 11
5081.0
 21
-3578.9999999999968
 31
0.0
1001
ACDBBLOCKREPETAG
1070
     1
1071
       79
1005
12D3C9
  0
LINE
  5
12D3CA
  8
OBJECT
 10
5101.5
 20
-3699.9999999999968
 30
0.0
 11
5094.8338607230708
 21
-3696.232182147819
 31
0.0
1001
ACDBBLOCKREPETAG
1070
     1
1071
       80
1005
12D3CA
  0
LINE
  5
12D3CB
  8
HIDDEN
 10
5098.0
 20
-3684.9999999999968
 30
0.0
 11
5098.0
 21
-3570.9999999999968
 31
0.0
1001
ACDBBLOCKREPETAG
1070
     1
1071
       81
1005
12D3CB
  0
LINE
  5
12D3CC
  8
OBJECT
 10
5150.0
 20
-3219.9999999999959
 30
0.0
 11
5143.0
 21
-3219.9999999999959
 31
0.0
1001
ACDBBLOCKREPETAG
1070
     1
1071
       67
1005
12D3CC
  0
LINE
  5
12D3CD
  8
OBJECT
 10
5143.0
 20
-3219.9999999999959
 30
0.0
 11
5143.0
 21
-3369.9999999999959
 31
0.0
1001
ACDBBLOCKREPETAG
1070
     1
1071
       68
1005
12D3CD
  0
LINE
  5
12D3CE
  8
OBJECT
 10
5101.5
 20
-3222.9999999999959
 30
0.0
 11
5101.5
 21
-3366.9999999999959
 31
0.0
1001
ACDBBLOCKREPETAG
1070
     1
1071
       69
1005
12D3CE
  0
LINE
  5
12D3CF
  8
OBJECT
 10
5090.0
 20
-3229.4999999999959
 30
0.0
 11
5090.0
 21
-3360.4999999999959
 31
0.0
1001
ACDBBLOCKREPETAG
1070
     1
1071
       70
1005
12D3CF
  0
LINE
  5
12D3D0
  8
OBJECT
 10
5143.0
 20
-3369.9999999999959
 30
0.0
 11
5150.0
 21
-3369.9999999999959
 31
0.0
1001
ACDBBLOCKREPETAG
1070
     1
1071
       71
1005
12D3D0
  0
LINE
  5
12D3D1
  8
OBJECT
 10
5150.0
 20
-3369.9999999999959
 30
0.0
 11
5150.0
 21
-3219.9999999999959
 31
0.0
1001
ACDBBLOCKREPETAG
1070
     1
1071
       72
1005
12D3D1
  0
LINE
  5
12D3D2
  8
HIDDEN
 10
5098.0
 20
-3351.9999999999959
 30
0.0
 11
5098.0
 21
-3237.9999999999959
 31
0.0
1001
ACDBBLOCKREPETAG
1070
     1
1071
       73
1005
12D3D2
  0
LINE
  5
12D3D3
  8
CENTER
 10
5165.0
 20
-3294.9999999999959
 30
0.0
 11
5080.0
 21
-3294.9999999999959
 31
0.0
1001
ACDBBLOCKREPETAG
1070
     1
1071
       74
1005
12D3D3
  0
LINE
  5
12D3D4
  8
OBJECT
 10
5086.0
 20
-3356.9999999999959
 30
0.0
 11
5080.0
 21
-3356.9999999999959
 31
0.0
1001
ACDBBLOCKREPETAG
1070
     1
1071
       75
1005
12D3D4
  0
LINE
  5
12D3D5
  8
OBJECT
 10
5143.0
 20
-3366.9999999999959
 30
0.0
 11
5101.5
 21
-3366.9999999999959
 31
0.0
1001
ACDBBLOCKREPETAG
1070
     1
1071
       76
1005
12D3D5
  0
LINE
  5
12D3D6
  8
OBJECT
 10
5101.5
 20
-3366.9999999999959
 30
0.0
 11
5090.0
 21
-3360.4999999999959
 31
0.0
1001
ACDBBLOCKREPETAG
1070
     1
1071
       77
1005
12D3D6
  0
LINE
  5
12D3D7
  8
OBJECT
 10
5090.0
 20
-3360.4999999999959
 30
0.0
 11
5086.0
 21
-3356.9999999999959
 31
0.0
1001
ACDBBLOCKREPETAG
1070
     1
1071
       78
1005
12D3D7
  0
LINE
  5
12D3D8
  8
OBJECT
 10
5101.5
 20
-3222.9999999999959
 30
0.0
 11
5090.0
 21
-3229.4999999999959
 31
0.0
1001
ACDBBLOCKREPETAG
1070
     1
1071
       79
1005
12D3D8
  0
LINE
  5
12D3D9
  8
OBJECT
 10
5090.0
 20
-3229.4999999999959
 30
0.0
 11
5086.0
 21
-3232.9999999999959
 31
0.0
1001
ACDBBLOCKREPETAG
1070
     1
1071
       80
1005
12D3D9
  0
ARC
  5
12D3DA
  8
OBJECT
 10
5467.9000000000005
 20
-3294.9999999999959
 30
0.0
 40
386.89999999999998
 50
170.77870136260421
 51
189.22129863739571
1001
ACDBBLOCKREPETAG
1070
     1
1071
       81
1005
12D3DA
  0
LINE
  5
12D3DB
  8
OBJECT
 10
5086.0
 20
-3232.9999999999959
 30
0.0
 11
5080.0
 21
-3232.9999999999959
 31
0.0
1001
ACDBBLOCKREPETAG
1070
     1
1071
       82
1005
12D3DB
  0
LINE
  5
12D3DC
  8
OBJECT
 10
5143.0
 20
-3222.9999999999959
 30
0.0
 11
5101.5
 21
-3222.9999999999959
 31
0.0
1001
ACDBBLOCKREPETAG
1070
     1
1071
       83
1005
12D3DC
  0
TEXT
  5
12D3DD
  8
SLIM
 10
4884.25
 20
-3817.4999999999959
 30
0.0
 40
35.0
  1
通常枝100（4）
 41
0.75
  0
LINE
  5
12D3DE
  8
CENTER
 10
4477.0
 20
-3640.9999999999968
 30
0.0
 11
4323.0
 21
-3640.9999999999968
 31
0.0
1001
ACDBBLOCKREPETAG
1070
     1
1071
       17
1005
12D3DE
  0
CIRCLE
  5
12D3DF
  8
OBJECT
 10
4400.0
 20
-3640.9999999999968
 30
0.0
 40
41.5
1001
ACDBBLOCKREPETAG
1070
     1
1071
       19
1005
12D3DF
  0
CIRCLE
  5
12D3E0
  8
OBJECT
 10
4400.0
 20
-3640.9999999999968
 30
0.0
 40
54.0
1001
ACDBBLOCKREPETAG
1070
     1
1071
       20
1005
12D3E0
  0
ARC
  5
12D3E1
  8
OBJECT
 10
4400.0
 20
-3640.9999999999968
 30
0.0
 40
62.0
 50
287.89655112921122
 51
252.1034488707887
1001
ACDBBLOCKREPETAG
1070
     1
1071
       21
1005
12D3E1
  0
LINE
  5
12D3E2
  8
OBJECT
 10
4380.947441116743
 20
-3699.9999999999968
 30
0.0
 11
4419.052558883257
 21
-3699.9999999999968
 31
0.0
1001
ACDBBLOCKREPETAG
1070
     1
1071
       22
1005
12D3E2
  0
LINE
  5
12D3E3
  8
OBJECT
 10
4133.0
 20
-3578.9999999999968
 30
0.0
 11
4140.0
 21
-3578.9999999999968
 31
0.0
1001
ACDBBLOCKREPETAG
1070
     1
1071
       45
1005
12D3E3
  0
LINE
  5
12D3E4
  8
OBJECT
 10
4140.0
 20
-3578.9999999999968
 30
0.0
 11
4140.0
 21
-3699.9999999999968
 31
0.0
1001
ACDBBLOCKREPETAG
1070
     1
1071
       46
1005
12D3E4
  0
LINE
  5
12D3E5
  8
OBJECT
 10
4133.0
 20
-3699.9999999999968
 30
0.0
 11
4133.0
 21
-3578.9999999999968
 31
0.0
1001
ACDBBLOCKREPETAG
1070
     1
1071
       47
1005
12D3E5
  0
LINE
  5
12D3E6
  8
CENTER
 10
4155.0
 20
-3640.9999999999968
 30
0.0
 11
4071.0
 21
-3640.9999999999968
 31
0.0
1001
ACDBBLOCKREPETAG
1070
     1
1071
       48
1005
12D3E6
  0
LINE
  5
12D3E7
  8
OBJECT
 10
4133.0
 20
-3581.9999999999968
 30
0.0
 11
4097.0
 21
-3581.9999999999968
 31
0.0
1001
ACDBBLOCKREPETAG
1070
     1
1071
       49
1005
12D3E7
  0
LINE
  5
12D3E8
  8
OBJECT
 10
4097.0
 20
-3581.9999999999968
 30
0.0
 11
4097.0
 21
-3699.9999999999968
 31
0.0
1001
ACDBBLOCKREPETAG
1070
     1
1071
       50
1005
12D3E8
  0
LINE
  5
12D3E9
  8
OBJECT
 10
4097.0
 20
-3699.9999999999968
 30
0.0
 11
4140.0
 21
-3699.9999999999968
 31
0.0
1001
ACDBBLOCKREPETAG
1070
     1
1071
       51
1005
12D3E9
  0
LINE
  5
12D3EA
  8
OBJECT
 10
4093.0
 20
-3586.4999999999968
 30
0.0
 11
4086.0
 21
-3586.4999999999968
 31
0.0
1001
ACDBBLOCKREPETAG
1070
     1
1071
       52
1005
12D3EA
  0
LINE
  5
12D3EB
  8
OBJECT
 10
4086.0
 20
-3695.4999999999968
 30
0.0
 11
4093.0
 21
-3695.4999999999968
 31
0.0
1001
ACDBBLOCKREPETAG
1070
     1
1071
       53
1005
12D3EB
  0
LINE
  5
12D3EC
  8
OBJECT
 10
4093.0
 20
-3695.4999999999968
 30
0.0
 11
4093.0
 21
-3586.4999999999968
 31
0.0
1001
ACDBBLOCKREPETAG
1070
     1
1071
       54
1005
12D3EC
  0
LINE
  5
12D3ED
  8
OBJECT
 10
4097.0
 20
-3581.9999999999968
 30
0.0
 11
4093.0
 21
-3586.4999999999968
 31
0.0
1001
ACDBBLOCKREPETAG
1070
     1
1071
       55
1005
12D3ED
  0
LINE
  5
12D3EE
  8
OBJECT
 10
4097.0
 20
-3699.9999999999968
 30
0.0
 11
4093.0
 21
-3695.4999999999968
 31
0.0
1001
ACDBBLOCKREPETAG
1070
     1
1071
       56
1005
12D3EE
  0
LINE
  5
12D3EF
  8
OBJECT
 10
4083.0
 20
-3578.9999999999968
 30
0.0
 11
4080.0
 21
-3578.9999999999968
 31
0.0
1001
ACDBBLOCKREPETAG
1070
     1
1071
       57
1005
12D3EF
  0
ARC
  5
12D3F0
  8
OBJECT
 10
4083.0
 20
-3581.9999999999968
 30
0.0
 40
3.0
 50
0.0
 51
90.0
1001
ACDBBLOCKREPETAG
1070
     1
1071
       58
1005
12D3F0
  0
LINE
  5
12D3F1
  8
OBJECT
 10
4080.0
 20
-3702.9999999999968
 30
0.0
 11
4083.0
 21
-3702.9999999999968
 31
0.0
1001
ACDBBLOCKREPETAG
1070
     1
1071
       59
1005
12D3F1
  0
ARC
  5
12D3F2
  8
OBJECT
 10
4083.0
 20
-3699.9999999999968
 30
0.0
 40
3.0
 50
270.0
 51
0.0
1001
ACDBBLOCKREPETAG
1070
     1
1071
       60
1005
12D3F2
  0
LINE
  5
12D3F3
  8
OBJECT
 10
4086.0
 20
-3699.9999999999968
 30
0.0
 11
4086.0
 21
-3581.9999999999968
 31
0.0
1001
ACDBBLOCKREPETAG
1070
     1
1071
       61
1005
12D3F3
  0
LINE
  5
12D3F4
  8
HIDDEN
 10
4088.0
 20
-3596.4999999999968
 30
0.0
 11
4088.0
 21
-3685.4999999999968
 31
0.0
1001
ACDBBLOCKREPETAG
1070
     1
1071
       63
1005
12D3F4
  0
LINE
  5
12D3F5
  8
OBJECT
 10
4133.0
 20
-3232.9999999999959
 30
0.0
 11
4140.0
 21
-3232.9999999999959
 31
0.0
1001
ACDBBLOCKREPETAG
1070
     1
1071
       47
1005
12D3F5
  0
LINE
  5
12D3F6
  8
OBJECT
 10
4140.0
 20
-3232.9999999999959
 30
0.0
 11
4140.0
 21
-3356.9999999999959
 31
0.0
1001
ACDBBLOCKREPETAG
1070
     1
1071
       48
1005
12D3F6
  0
LINE
  5
12D3F7
  8
OBJECT
 10
4140.0
 20
-3356.9999999999959
 30
0.0
 11
4133.0
 21
-3356.9999999999959
 31
0.0
1001
ACDBBLOCKREPETAG
1070
     1
1071
       49
1005
12D3F7
  0
LINE
  5
12D3F8
  8
OBJECT
 10
4133.0
 20
-3356.9999999999959
 30
0.0
 11
4133.0
 21
-3232.9999999999959
 31
0.0
1001
ACDBBLOCKREPETAG
1070
     1
1071
       50
1005
12D3F8
  0
LINE
  5
12D3F9
  8
CENTER
 10
4155.0
 20
-3294.9999999999959
 30
0.0
 11
4080.0
 21
-3294.9999999999959
 31
0.0
1001
ACDBBLOCKREPETAG
1070
     1
1071
       51
1005
12D3F9
  0
LINE
  5
12D3FA
  8
OBJECT
 10
4133.0
 20
-3235.9999999999959
 30
0.0
 11
4097.0
 21
-3235.9999999999959
 31
0.0
1001
ACDBBLOCKREPETAG
1070
     1
1071
       52
1005
12D3FA
  0
LINE
  5
12D3FB
  8
OBJECT
 10
4097.0
 20
-3235.9999999999959
 30
0.0
 11
4097.0
 21
-3353.9999999999959
 31
0.0
1001
ACDBBLOCKREPETAG
1070
     1
1071
       53
1005
12D3FB
  0
LINE
  5
12D3FC
  8
OBJECT
 10
4097.0
 20
-3353.9999999999959
 30
0.0
 11
4133.0
 21
-3353.9999999999959
 31
0.0
1001
ACDBBLOCKREPETAG
1070
     1
1071
       54
1005
12D3FC
  0
LINE
  5
12D3FD
  8
OBJECT
 10
4093.0
 20
-3240.4999999999959
 30
0.0
 11
4086.0
 21
-3240.4999999999959
 31
0.0
1001
ACDBBLOCKREPETAG
1070
     1
1071
       55
1005
12D3FD
  0
LINE
  5
12D3FE
  8
OBJECT
 10
4086.0
 20
-3349.4999999999959
 30
0.0
 11
4093.0
 21
-3349.4999999999959
 31
0.0
1001
ACDBBLOCKREPETAG
1070
     1
1071
       56
1005
12D3FE
  0
LINE
  5
12D3FF
  8
OBJECT
 10
4093.0
 20
-3349.4999999999959
 30
0.0
 11
4093.0
 21
-3240.4999999999959
 31
0.0
1001
ACDBBLOCKREPETAG
1070
     1
1071
       57
1005
12D3FF
  0
LINE
  5
12D400
  8
OBJECT
 10
4097.0
 20
-3235.9999999999959
 30
0.0
 11
4093.0
 21
-3240.4999999999959
 31
0.0
1001
ACDBBLOCKREPETAG
1070
     1
1071
       58
1005
12D400
  0
LINE
  5
12D401
  8
OBJECT
 10
4097.0
 20
-3353.9999999999959
 30
0.0
 11
4093.0
 21
-3349.4999999999959
 31
0.0
1001
ACDBBLOCKREPETAG
1070
     1
1071
       59
1005
12D401
  0
LINE
  5
12D402
  8
OBJECT
 10
4083.0
 20
-3232.9999999999959
 30
0.0
 11
4080.0
 21
-3232.9999999999959
 31
0.0
1001
ACDBBLOCKREPETAG
1070
     1
1071
       60
1005
12D402
  0
ARC
  5
12D403
  8
OBJECT
 10
4083.0
 20
-3235.9999999999959
 30
0.0
 40
3.0
 50
0.0
 51
90.0
1001
ACDBBLOCKREPETAG
1070
     1
1071
       61
1005
12D403
  0
LINE
  5
12D404
  8
OBJECT
 10
4080.0
 20
-3356.9999999999959
 30
0.0
 11
4083.0
 21
-3356.9999999999959
 31
0.0
1001
ACDBBLOCKREPETAG
1070
     1
1071
       62
1005
12D404
  0
ARC
  5
12D405
  8
OBJECT
 10
4083.0
 20
-3353.9999999999959
 30
0.0
 40
3.0
 50
270.0
 51
0.0
1001
ACDBBLOCKREPETAG
1070
     1
1071
       63
1005
12D405
  0
LINE
  5
12D406
  8
OBJECT
 10
4086.0
 20
-3353.9999999999959
 30
0.0
 11
4086.0
 21
-3235.9999999999959
 31
0.0
1001
ACDBBLOCKREPETAG
1070
     1
1071
       64
1005
12D406
  0
LINE
  5
12D407
  8
HIDDEN
 10
4088.0
 20
-3250.4999999999959
 30
0.0
 11
4088.0
 21
-3339.4999999999959
 31
0.0
1001
ACDBBLOCKREPETAG
1070
     1
1071
       65
1005
12D407
  0
TEXT
  5
12D408
  8
SLIM
 10
3894.25
 20
-3817.4999999999959
 30
0.0
 40
35.0
  1
通常枝75（3）
 41
0.75
  0
CIRCLE
  5
12D409
  8
OBJECT
 10
3400.0
 20
-3647.9999999999968
 30
0.0
 40
35.5
1001
ACDBBLOCKREPETAG
1070
     1
1071
       10
1005
12D409
  0
CIRCLE
  5
12D40A
  8
OBJECT
 10
3400.0
 20
-3640.9999999999968
 30
0.0
 40
62.0
1001
ACDBBLOCKREPETAG
1070
     1
1071
       11
1005
12D40A
  0
LINE
  5
12D40B
  8
CENTER
 10
3330.0
 20
-3647.9999999999968
 30
0.0
 11
3470.0
 21
-3647.9999999999968
 31
0.0
1001
ACDBBLOCKREPETAG
1070
     1
1071
       12
1005
12D40B
  0
CIRCLE
  5
12D40C
  8
OBJECT
 10
3400.0
 20
-3647.9999999999968
 30
0.0
 40
47.0
1001
ACDBBLOCKREPETAG
1070
     1
1071
       14
1005
12D40C
  0
ARC
  5
12D40D
  8
OBJECT
 10
3400.0
 20
-3647.9999999999968
 30
0.0
 40
55.0
 50
289.01126526011359
 51
250.98873473988641
1001
ACDBBLOCKREPETAG
1070
     1
1071
       15
1005
12D40D
  0
LINE
  5
12D40E
  8
OBJECT
 10
3382.0835271328328
 20
-3699.9999999999968
 30
0.0
 11
3417.9164728671681
 21
-3699.9999999999968
 31
0.0
1001
ACDBBLOCKREPETAG
1070
     1
1071
       16
1005
12D40E
  0
LINE
  5
12D40F
  8
OBJECT
 10
3133.0
 20
-3592.9999999999968
 30
0.0
 11
3140.0
 21
-3592.9999999999968
 31
0.0
1001
ACDBBLOCKREPETAG
1070
     1
1071
       26
1005
12D40F
  0
LINE
  5
12D410
  8
OBJECT
 10
3140.0
 20
-3592.9999999999968
 30
0.0
 11
3140.0
 21
-3699.9999999999968
 31
0.0
1001
ACDBBLOCKREPETAG
1070
     1
1071
       27
1005
12D410
  0
LINE
  5
12D411
  8
OBJECT
 10
3133.0
 20
-3699.9999999999968
 30
0.0
 11
3133.0
 21
-3592.9999999999968
 31
0.0
1001
ACDBBLOCKREPETAG
1070
     1
1071
       28
1005
12D411
  0
LINE
  5
12D412
  8
CENTER
 10
3155.0
 20
-3647.9999999999968
 30
0.0
 11
3071.0
 21
-3647.9999999999968
 31
0.0
1001
ACDBBLOCKREPETAG
1070
     1
1071
       29
1005
12D412
  0
LINE
  5
12D413
  8
OBJECT
 10
3133.0
 20
-3595.9999999999968
 30
0.0
 11
3097.0
 21
-3595.9999999999968
 31
0.0
1001
ACDBBLOCKREPETAG
1070
     1
1071
       30
1005
12D413
  0
LINE
  5
12D414
  8
OBJECT
 10
3097.0
 20
-3595.9999999999968
 30
0.0
 11
3097.0
 21
-3699.9999999999968
 31
0.0
1001
ACDBBLOCKREPETAG
1070
     1
1071
       31
1005
12D414
  0
LINE
  5
12D415
  8
OBJECT
 10
3097.0
 20
-3699.9999999999968
 30
0.0
 11
3140.0
 21
-3699.9999999999968
 31
0.0
1001
ACDBBLOCKREPETAG
1070
     1
1071
       32
1005
12D415
  0
LINE
  5
12D416
  8
OBJECT
 10
3093.0
 20
-3600.4999999999968
 30
0.0
 11
3086.0
 21
-3600.4999999999968
 31
0.0
1001
ACDBBLOCKREPETAG
1070
     1
1071
       33
1005
12D416
  0
LINE
  5
12D417
  8
OBJECT
 10
3086.0
 20
-3695.4999999999968
 30
0.0
 11
3093.0
 21
-3695.4999999999968
 31
0.0
1001
ACDBBLOCKREPETAG
1070
     1
1071
       34
1005
12D417
  0
LINE
  5
12D418
  8
OBJECT
 10
3093.0
 20
-3695.4999999999968
 30
0.0
 11
3093.0
 21
-3600.4999999999968
 31
0.0
1001
ACDBBLOCKREPETAG
1070
     1
1071
       35
1005
12D418
  0
LINE
  5
12D419
  8
OBJECT
 10
3097.0
 20
-3595.9999999999968
 30
0.0
 11
3093.0
 21
-3600.4999999999968
 31
0.0
1001
ACDBBLOCKREPETAG
1070
     1
1071
       36
1005
12D419
  0
LINE
  5
12D41A
  8
OBJECT
 10
3097.0
 20
-3699.9999999999968
 30
0.0
 11
3093.0
 21
-3695.4999999999968
 31
0.0
1001
ACDBBLOCKREPETAG
1070
     1
1071
       37
1005
12D41A
  0
LINE
  5
12D41B
  8
OBJECT
 10
3083.0
 20
-3578.9999999999968
 30
0.0
 11
3080.0
 21
-3578.9999999999968
 31
0.0
1001
ACDBBLOCKREPETAG
1070
     1
1071
       38
1005
12D41B
  0
ARC
  5
12D41C
  8
OBJECT
 10
3083.0
 20
-3581.9999999999968
 30
0.0
 40
3.0
 50
0.0
 51
90.0
1001
ACDBBLOCKREPETAG
1070
     1
1071
       39
1005
12D41C
  0
LINE
  5
12D41D
  8
OBJECT
 10
3080.0
 20
-3702.9999999999968
 30
0.0
 11
3083.0
 21
-3702.9999999999968
 31
0.0
1001
ACDBBLOCKREPETAG
1070
     1
1071
       40
1005
12D41D
  0
ARC
  5
12D41E
  8
OBJECT
 10
3083.0
 20
-3699.9999999999968
 30
0.0
 40
3.0
 50
270.0
 51
0.0
1001
ACDBBLOCKREPETAG
1070
     1
1071
       41
1005
12D41E
  0
LINE
  5
12D41F
  8
OBJECT
 10
3086.0
 20
-3699.9999999999968
 30
0.0
 11
3086.0
 21
-3581.9999999999968
 31
0.0
1001
ACDBBLOCKREPETAG
1070
     1
1071
       42
1005
12D41F
  0
LINE
  5
12D420
  8
HIDDEN
 10
3088.0
 20
-3609.9999999999968
 30
0.0
 11
3088.0
 21
-3685.9999999999968
 31
0.0
1001
ACDBBLOCKREPETAG
1070
     1
1071
       43
1005
12D420
  0
LINE
  5
12D421
  8
OBJECT
 10
3133.0
 20
-3239.9999999999968
 30
0.0
 11
3140.0
 21
-3239.9999999999968
 31
0.0
1001
ACDBBLOCKREPETAG
1070
     1
1071
       27
1005
12D421
  0
LINE
  5
12D422
  8
OBJECT
 10
3140.0
 20
-3239.9999999999968
 30
0.0
 11
3140.0
 21
-3349.9999999999959
 31
0.0
1001
ACDBBLOCKREPETAG
1070
     1
1071
       28
1005
12D422
  0
LINE
  5
12D423
  8
OBJECT
 10
3140.0
 20
-3349.9999999999959
 30
0.0
 11
3133.0
 21
-3349.9999999999959
 31
0.0
1001
ACDBBLOCKREPETAG
1070
     1
1071
       29
1005
12D423
  0
LINE
  5
12D424
  8
OBJECT
 10
3133.0
 20
-3349.9999999999959
 30
0.0
 11
3133.0
 21
-3239.9999999999968
 31
0.0
1001
ACDBBLOCKREPETAG
1070
     1
1071
       30
1005
12D424
  0
LINE
  5
12D425
  8
CENTER
 10
3155.0
 20
-3294.9999999999959
 30
0.0
 11
3080.0
 21
-3294.9999999999959
 31
0.0
1001
ACDBBLOCKREPETAG
1070
     1
1071
       31
1005
12D425
  0
LINE
  5
12D426
  8
OBJECT
 10
3133.0
 20
-3242.9999999999959
 30
0.0
 11
3097.0
 21
-3242.9999999999959
 31
0.0
1001
ACDBBLOCKREPETAG
1070
     1
1071
       32
1005
12D426
  0
LINE
  5
12D427
  8
OBJECT
 10
3097.0
 20
-3242.9999999999959
 30
0.0
 11
3097.0
 21
-3346.9999999999959
 31
0.0
1001
ACDBBLOCKREPETAG
1070
     1
1071
       33
1005
12D427
  0
LINE
  5
12D428
  8
OBJECT
 10
3097.0
 20
-3346.9999999999959
 30
0.0
 11
3133.0
 21
-3346.9999999999959
 31
0.0
1001
ACDBBLOCKREPETAG
1070
     1
1071
       34
1005
12D428
  0
LINE
  5
12D429
  8
OBJECT
 10
3093.0
 20
-3247.4999999999959
 30
0.0
 11
3086.0
 21
-3247.4999999999959
 31
0.0
1001
ACDBBLOCKREPETAG
1070
     1
1071
       35
1005
12D429
  0
LINE
  5
12D42A
  8
OBJECT
 10
3086.0
 20
-3342.4999999999959
 30
0.0
 11
3093.0
 21
-3342.4999999999959
 31
0.0
1001
ACDBBLOCKREPETAG
1070
     1
1071
       36
1005
12D42A
  0
LINE
  5
12D42B
  8
OBJECT
 10
3093.0
 20
-3342.4999999999959
 30
0.0
 11
3093.0
 21
-3247.4999999999959
 31
0.0
1001
ACDBBLOCKREPETAG
1070
     1
1071
       37
1005
12D42B
  0
LINE
  5
12D42C
  8
OBJECT
 10
3097.0
 20
-3242.9999999999959
 30
0.0
 11
3093.0
 21
-3247.4999999999959
 31
0.0
1001
ACDBBLOCKREPETAG
1070
     1
1071
       38
1005
12D42C
  0
LINE
  5
12D42D
  8
OBJECT
 10
3097.0
 20
-3346.9999999999959
 30
0.0
 11
3093.0
 21
-3342.4999999999959
 31
0.0
1001
ACDBBLOCKREPETAG
1070
     1
1071
       39
1005
12D42D
  0
LINE
  5
12D42E
  8
OBJECT
 10
3083.0
 20
-3232.9999999999959
 30
0.0
 11
3080.0
 21
-3232.9999999999959
 31
0.0
1001
ACDBBLOCKREPETAG
1070
     1
1071
       40
1005
12D42E
  0
ARC
  5
12D42F
  8
OBJECT
 10
3083.0
 20
-3235.9999999999959
 30
0.0
 40
3.0
 50
0.0
 51
90.0
1001
ACDBBLOCKREPETAG
1070
     1
1071
       41
1005
12D42F
  0
LINE
  5
12D430
  8
OBJECT
 10
3080.0
 20
-3356.9999999999959
 30
0.0
 11
3083.0
 21
-3356.9999999999959
 31
0.0
1001
ACDBBLOCKREPETAG
1070
     1
1071
       42
1005
12D430
  0
ARC
  5
12D431
  8
OBJECT
 10
3083.0
 20
-3353.9999999999959
 30
0.0
 40
3.0
 50
270.0
 51
0.0
1001
ACDBBLOCKREPETAG
1070
     1
1071
       43
1005
12D431
  0
LINE
  5
12D432
  8
OBJECT
 10
3086.0
 20
-3353.9999999999959
 30
0.0
 11
3086.0
 21
-3235.9999999999959
 31
0.0
1001
ACDBBLOCKREPETAG
1070
     1
1071
       44
1005
12D432
  0
LINE
  5
12D433
  8
HIDDEN
 10
3088.0
 20
-3256.9999999999959
 30
0.0
 11
3088.0
 21
-3332.9999999999968
 31
0.0
1001
ACDBBLOCKREPETAG
1070
     1
1071
       45
1005
12D433
  0
TEXT
  5
12D434
  8
SLIM
 10
2894.25
 20
-3817.4999999999959
 30
0.0
 40
35.0
  1
通常枝65（2）
 41
0.75
  0
CIRCLE
  5
12D435
  8
OBJECT
 10
2400.0
 20
-3640.9999999999968
 30
0.0
 40
62.0
1001
ACDBBLOCKREPETAG
1070
     1
1071
        3
1005
12D435
  0
LINE
  5
12D436
  8
CENTER
 10
2338.0
 20
-3655.9999999999968
 30
0.0
 11
2462.0
 21
-3655.9999999999968
 31
0.0
1001
ACDBBLOCKREPETAG
1070
     1
1071
        4
1005
12D436
  0
CIRCLE
  5
12D437
  8
OBJECT
 10
2400.0
 20
-3655.9999999999968
 30
0.0
 40
28.0
1001
ACDBBLOCKREPETAG
1070
     1
1071
        6
1005
12D437
  0
CIRCLE
  5
12D438
  8
OBJECT
 10
2400.0
 20
-3655.9999999999968
 30
0.0
 40
39.0
1001
ACDBBLOCKREPETAG
1070
     1
1071
        7
1005
12D438
  0
ARC
  5
12D439
  8
OBJECT
 10
2400.0
 20
-3655.9999999999968
 30
0.0
 40
47.0
 50
290.58196921144412
 51
249.41803078855591
1001
ACDBBLOCKREPETAG
1070
     1
1071
        8
1005
12D439
  0
LINE
  5
12D43A
  8
OBJECT
 10
2383.4772883581431
 20
-3699.9999999999968
 30
0.0
 11
2416.5227116418569
 21
-3699.9999999999968
 31
0.0
1001
ACDBBLOCKREPETAG
1070
     1
1071
        9
1005
12D43A
  0
LINE
  5
12D43B
  8
OBJECT
 10
2133.0
 20
-3608.9999999999968
 30
0.0
 11
2140.0
 21
-3608.9999999999968
 31
0.0
1001
ACDBBLOCKREPETAG
1070
     1
1071
        7
1005
12D43B
  0
LINE
  5
12D43C
  8
OBJECT
 10
2140.0
 20
-3608.9999999999968
 30
0.0
 11
2140.0
 21
-3699.9999999999968
 31
0.0
1001
ACDBBLOCKREPETAG
1070
     1
1071
        8
1005
12D43C
  0
LINE
  5
12D43D
  8
OBJECT
 10
2133.0
 20
-3699.9999999999968
 30
0.0
 11
2133.0
 21
-3608.9999999999968
 31
0.0
1001
ACDBBLOCKREPETAG
1070
     1
1071
        9
1005
12D43D
  0
LINE
  5
12D43E
  8
CENTER
 10
2155.0
 20
-3655.9999999999968
 30
0.0
 11
2071.0
 21
-3655.9999999999968
 31
0.0
1001
ACDBBLOCKREPETAG
1070
     1
1071
       10
1005
12D43E
  0
LINE
  5
12D43F
  8
OBJECT
 10
2133.0
 20
-3611.9999999999968
 30
0.0
 11
2097.0
 21
-3611.9999999999968
 31
0.0
1001
ACDBBLOCKREPETAG
1070
     1
1071
       11
1005
12D43F
  0
LINE
  5
12D440
  8
OBJECT
 10
2097.0
 20
-3611.9999999999968
 30
0.0
 11
2097.0
 21
-3699.9999999999968
 31
0.0
1001
ACDBBLOCKREPETAG
1070
     1
1071
       12
1005
12D440
  0
LINE
  5
12D441
  8
OBJECT
 10
2097.0
 20
-3699.9999999999968
 30
0.0
 11
2140.0
 21
-3699.9999999999968
 31
0.0
1001
ACDBBLOCKREPETAG
1070
     1
1071
       13
1005
12D441
  0
LINE
  5
12D442
  8
OBJECT
 10
2093.0
 20
-3616.4999999999968
 30
0.0
 11
2086.0
 21
-3616.4999999999968
 31
0.0
1001
ACDBBLOCKREPETAG
1070
     1
1071
       14
1005
12D442
  0
LINE
  5
12D443
  8
OBJECT
 10
2086.0
 20
-3695.4999999999968
 30
0.0
 11
2093.0
 21
-3695.4999999999968
 31
0.0
1001
ACDBBLOCKREPETAG
1070
     1
1071
       15
1005
12D443
  0
LINE
  5
12D444
  8
OBJECT
 10
2093.0
 20
-3695.4999999999968
 30
0.0
 11
2093.0
 21
-3616.4999999999968
 31
0.0
1001
ACDBBLOCKREPETAG
1070
     1
1071
       16
1005
12D444
  0
LINE
  5
12D445
  8
OBJECT
 10
2097.0
 20
-3611.9999999999968
 30
0.0
 11
2093.0
 21
-3616.4999999999968
 31
0.0
1001
ACDBBLOCKREPETAG
1070
     1
1071
       17
1005
12D445
  0
LINE
  5
12D446
  8
OBJECT
 10
2097.0
 20
-3699.9999999999968
 30
0.0
 11
2093.0
 21
-3695.4999999999968
 31
0.0
1001
ACDBBLOCKREPETAG
1070
     1
1071
       18
1005
12D446
  0
LINE
  5
12D447
  8
OBJECT
 10
2083.0
 20
-3578.9999999999968
 30
0.0
 11
2080.0
 21
-3578.9999999999968
 31
0.0
1001
ACDBBLOCKREPETAG
1070
     1
1071
       19
1005
12D447
  0
ARC
  5
12D448
  8
OBJECT
 10
2083.0
 20
-3581.9999999999968
 30
0.0
 40
3.0
 50
0.0
 51
90.0
1001
ACDBBLOCKREPETAG
1070
     1
1071
       20
1005
12D448
  0
LINE
  5
12D449
  8
OBJECT
 10
2080.0
 20
-3702.9999999999968
 30
0.0
 11
2083.0
 21
-3702.9999999999968
 31
0.0
1001
ACDBBLOCKREPETAG
1070
     1
1071
       21
1005
12D449
  0
ARC
  5
12D44A
  8
OBJECT
 10
2083.0
 20
-3699.9999999999968
 30
0.0
 40
3.0
 50
270.0
 51
0.0
1001
ACDBBLOCKREPETAG
1070
     1
1071
       22
1005
12D44A
  0
LINE
  5
12D44B
  8
OBJECT
 10
2086.0
 20
-3699.9999999999968
 30
0.0
 11
2086.0
 21
-3581.9999999999968
 31
0.0
1001
ACDBBLOCKREPETAG
1070
     1
1071
       23
1005
12D44B
  0
LINE
  5
12D44C
  8
HIDDEN
 10
2088.0
 20
-3625.9999999999968
 30
0.0
 11
2088.0
 21
-3685.9999999999968
 31
0.0
1001
ACDBBLOCKREPETAG
1070
     1
1071
       24
1005
12D44C
  0
LINE
  5
12D44D
  8
OBJECT
 10
2133.0
 20
-3247.9999999999959
 30
0.0
 11
2140.0
 21
-3247.9999999999959
 31
0.0
1001
ACDBBLOCKREPETAG
1070
     1
1071
        7
1005
12D44D
  0
LINE
  5
12D44E
  8
OBJECT
 10
2140.0
 20
-3247.9999999999959
 30
0.0
 11
2140.0
 21
-3341.9999999999959
 31
0.0
1001
ACDBBLOCKREPETAG
1070
     1
1071
        8
1005
12D44E
  0
LINE
  5
12D44F
  8
OBJECT
 10
2140.0
 20
-3341.9999999999959
 30
0.0
 11
2133.0
 21
-3341.9999999999959
 31
0.0
1001
ACDBBLOCKREPETAG
1070
     1
1071
        9
1005
12D44F
  0
LINE
  5
12D450
  8
OBJECT
 10
2133.0
 20
-3341.9999999999959
 30
0.0
 11
2133.0
 21
-3247.9999999999959
 31
0.0
1001
ACDBBLOCKREPETAG
1070
     1
1071
       10
1005
12D450
  0
LINE
  5
12D451
  8
CENTER
 10
2155.0
 20
-3294.9999999999959
 30
0.0
 11
2080.0
 21
-3294.9999999999959
 31
0.0
1001
ACDBBLOCKREPETAG
1070
     1
1071
       11
1005
12D451
  0
LINE
  5
12D452
  8
OBJECT
 10
2133.0
 20
-3250.9999999999959
 30
0.0
 11
2097.0
 21
-3250.9999999999959
 31
0.0
1001
ACDBBLOCKREPETAG
1070
     1
1071
       12
1005
12D452
  0
LINE
  5
12D453
  8
OBJECT
 10
2097.0
 20
-3250.9999999999959
 30
0.0
 11
2097.0
 21
-3338.9999999999959
 31
0.0
1001
ACDBBLOCKREPETAG
1070
     1
1071
       13
1005
12D453
  0
LINE
  5
12D454
  8
OBJECT
 10
2097.0
 20
-3338.9999999999959
 30
0.0
 11
2133.0
 21
-3338.9999999999959
 31
0.0
1001
ACDBBLOCKREPETAG
1070
     1
1071
       14
1005
12D454
  0
LINE
  5
12D455
  8
OBJECT
 10
2093.0
 20
-3255.4999999999959
 30
0.0
 11
2086.0
 21
-3255.4999999999959
 31
0.0
1001
ACDBBLOCKREPETAG
1070
     1
1071
       15
1005
12D455
  0
LINE
  5
12D456
  8
OBJECT
 10
2086.0
 20
-3334.4999999999959
 30
0.0
 11
2093.0
 21
-3334.4999999999959
 31
0.0
1001
ACDBBLOCKREPETAG
1070
     1
1071
       16
1005
12D456
  0
LINE
  5
12D457
  8
OBJECT
 10
2093.0
 20
-3334.4999999999959
 30
0.0
 11
2093.0
 21
-3255.4999999999959
 31
0.0
1001
ACDBBLOCKREPETAG
1070
     1
1071
       17
1005
12D457
  0
LINE
  5
12D458
  8
OBJECT
 10
2097.0
 20
-3250.9999999999959
 30
0.0
 11
2093.0
 21
-3255.4999999999959
 31
0.0
1001
ACDBBLOCKREPETAG
1070
     1
1071
       18
1005
12D458
  0
LINE
  5
12D459
  8
OBJECT
 10
2097.0
 20
-3338.9999999999959
 30
0.0
 11
2093.0
 21
-3334.4999999999959
 31
0.0
1001
ACDBBLOCKREPETAG
1070
     1
1071
       19
1005
12D459
  0
LINE
  5
12D45A
  8
OBJECT
 10
2083.0
 20
-3232.9999999999959
 30
0.0
 11
2080.0
 21
-3232.9999999999959
 31
0.0
1001
ACDBBLOCKREPETAG
1070
     1
1071
       20
1005
12D45A
  0
ARC
  5
12D45B
  8
OBJECT
 10
2083.0
 20
-3235.9999999999959
 30
0.0
 40
3.0
 50
0.0
 51
90.0
1001
ACDBBLOCKREPETAG
1070
     1
1071
       21
1005
12D45B
  0
LINE
  5
12D45C
  8
OBJECT
 10
2080.0
 20
-3356.9999999999959
 30
0.0
 11
2083.0
 21
-3356.9999999999959
 31
0.0
1001
ACDBBLOCKREPETAG
1070
     1
1071
       22
1005
12D45C
  0
ARC
  5
12D45D
  8
OBJECT
 10
2083.0
 20
-3353.9999999999959
 30
0.0
 40
3.0
 50
270.0
 51
0.0
1001
ACDBBLOCKREPETAG
1070
     1
1071
       23
1005
12D45D
  0
LINE
  5
12D45E
  8
OBJECT
 10
2086.0
 20
-3353.9999999999959
 30
0.0
 11
2086.0
 21
-3235.9999999999959
 31
0.0
1001
ACDBBLOCKREPETAG
1070
     1
1071
       24
1005
12D45E
  0
LINE
  5
12D45F
  8
HIDDEN
 10
2088.0
 20
-3264.9999999999968
 30
0.0
 11
2088.0
 21
-3324.9999999999959
 31
0.0
1001
ACDBBLOCKREPETAG
1070
     1
1071
       25
1005
12D45F
  0
TEXT
  5
12D460
  8
SLIM
 10
1896.75
 20
-3817.4999999999959
 30
0.0
 40
35.0
  1
通常枝50（1）
 41
0.75
  0
LINE
  5
12D461
  8
OBJECT
 10
3930.0
 20
-1364.999999999997
 30
0.0
 11
4070.0
 21
-1364.999999999997
 31
0.0
1001
ACDBBLOCKREPETAG
1070
     1
1071
        0
1005
12D461
  0
LINE
  5
12D462
  8
OBJECT
 10
3930.0
 20
-1364.999999999997
 30
0.0
 11
3930.0
 21
-1124.999999999997
 31
0.0
1001
ACDBBLOCKREPETAG
1070
     1
1071
        1
1005
12D462
  0
LINE
  5
12D463
  8
OBJECT
 10
4070.0
 20
-1364.999999999997
 30
0.0
 11
4070.0
 21
-1124.999999999997
 31
0.0
1001
ACDBBLOCKREPETAG
1070
     1
1071
        2
1005
12D463
  0
LINE
  5
12D464
  8
OBJECT
 10
3930.0
 20
-1124.999999999997
 30
0.0
 11
4070.0
 21
-1124.999999999997
 31
0.0
1001
ACDBBLOCKREPETAG
1070
     1
1071
        3
1005
12D464
  0
LINE
  5
12D465
  8
HIDDEN
 10
3937.5
 20
-1124.999999999997
 30
0.0
 11
3937.5
 21
-1364.999999999997
 31
0.0
1001
ACDBBLOCKREPETAG
1070
     1
1071
        4
1005
12D465
  0
LINE
  5
12D466
  8
HIDDEN
 10
4062.5
 20
-1124.999999999997
 30
0.0
 11
4062.5
 21
-1364.999999999997
 31
0.0
1001
ACDBBLOCKREPETAG
1070
     1
1071
        5
1005
12D466
  0
LINE
  5
12D467
  8
CENTER
 10
4000.0
 20
-1054.9999999999991
 30
0.0
 11
4000.0
 21
-1379.999999999997
 31
0.0
1001
ACDBBLOCKREPETAG
1070
     1
1071
        6
1005
12D467
  0
LINE
  5
12D468
  8
OBJECT
 10
3925.0
 20
-1054.9999999999991
 30
0.0
 11
3925.0
 21
-1084.999999999997
 31
0.0
1001
ACDBBLOCKREPETAG
1070
     1
1071
        7
1005
12D468
  0
LINE
  5
12D469
  8
OBJECT
 10
4075.0000000000032
 20
-1054.9999999999991
 30
0.0
 11
4075.0
 21
-1084.999999999997
 31
0.0
1001
ACDBBLOCKREPETAG
1070
     1
1071
        8
1005
12D469
  0
LINE
  5
12D46A
  8
OBJECT
 10
3925.0
 20
-1084.999999999997
 30
0.0
 11
4075.0
 21
-1084.999999999997
 31
0.0
1001
ACDBBLOCKREPETAG
1070
     1
1071
        9
1005
12D46A
  0
LINE
  5
12D46B
  8
OBJECT
 10
3925.0
 20
-1084.999999999997
 30
0.0
 11
3930.0
 21
-1124.999999999997
 31
0.0
1001
ACDBBLOCKREPETAG
1070
     1
1071
       10
1005
12D46B
  0
LINE
  5
12D46C
  8
OBJECT
 10
4070.0
 20
-1124.999999999997
 30
0.0
 11
4075.0
 21
-1084.999999999997
 31
0.0
1001
ACDBBLOCKREPETAG
1070
     1
1071
       11
1005
12D46C
  0
LINE
  5
12D46D
  8
OBJECT
 10
1930.0
 20
-1364.999999999997
 30
0.0
 11
2070.0
 21
-1364.999999999997
 31
0.0
1001
ACDBBLOCKREPETAG
1070
     1
1071
        0
1005
12D46D
  0
LINE
  5
12D46E
  8
OBJECT
 10
1930.0
 20
-1364.999999999997
 30
0.0
 11
1930.0
 21
-1124.999999999998
 31
0.0
1001
ACDBBLOCKREPETAG
1070
     1
1071
        1
1005
12D46E
  0
LINE
  5
12D46F
  8
OBJECT
 10
2070.0
 20
-1364.999999999997
 30
0.0
 11
2070.0
 21
-1124.999999999998
 31
0.0
1001
ACDBBLOCKREPETAG
1070
     1
1071
        2
1005
12D46F
  0
LINE
  5
12D470
  8
OBJECT
 10
1930.0
 20
-1124.999999999998
 30
0.0
 11
2070.0
 21
-1124.999999999998
 31
0.0
1001
ACDBBLOCKREPETAG
1070
     1
1071
        3
1005
12D470
  0
LINE
  5
12D471
  8
HIDDEN
 10
1937.5
 20
-1124.999999999998
 30
0.0
 11
1937.5
 21
-1364.999999999997
 31
0.0
1001
ACDBBLOCKREPETAG
1070
     1
1071
        4
1005
12D471
  0
LINE
  5
12D472
  8
HIDDEN
 10
2062.5
 20
-1124.999999999998
 30
0.0
 11
2062.5
 21
-1364.999999999997
 31
0.0
1001
ACDBBLOCKREPETAG
1070
     1
1071
        5
1005
12D472
  0
LINE
  5
12D473
  8
CENTER
 10
2000.0
 20
-1054.9999999999991
 30
0.0
 11
2000.0
 21
-1379.999999999998
 31
0.0
1001
ACDBBLOCKREPETAG
1070
     1
1071
        6
1005
12D473
  0
LINE
  5
12D474
  8
OBJECT
 10
1925.0
 20
-1054.9999999999991
 30
0.0
 11
1925.0
 21
-1084.999999999998
 31
0.0
1001
ACDBBLOCKREPETAG
1070
     1
1071
        7
1005
12D474
  0
LINE
  5
12D475
  8
OBJECT
 10
2075.0000000000041
 20
-1054.9999999999991
 30
0.0
 11
2075.0
 21
-1084.999999999998
 31
0.0
1001
ACDBBLOCKREPETAG
1070
     1
1071
        8
1005
12D475
  0
LINE
  5
12D476
  8
OBJECT
 10
1925.0
 20
-1084.999999999998
 30
0.0
 11
2075.0
 21
-1084.999999999998
 31
0.0
1001
ACDBBLOCKREPETAG
1070
     1
1071
        9
1005
12D476
  0
LINE
  5
12D477
  8
OBJECT
 10
1925.0
 20
-1084.999999999998
 30
0.0
 11
1930.0
 21
-1124.999999999998
 31
0.0
1001
ACDBBLOCKREPETAG
1070
     1
1071
       10
1005
12D477
  0
LINE
  5
12D478
  8
OBJECT
 10
2070.0
 20
-1124.999999999998
 30
0.0
 11
2075.0
 21
-1084.999999999998
 31
0.0
1001
ACDBBLOCKREPETAG
1070
     1
1071
       11
1005
12D478
  0
TEXT
  5
12D479
  8
SLIM
 10
3741.6250000000009
 20
-1632.499999999997
 30
0.0
 40
35.0
  1
片受けスタイル（S）＋シンドカット
 41
0.75
  0
TEXT
  5
12D47A
  8
SLIM
 10
1856.25
 20
-1632.499999999998
 30
0.0
 40
35.0
  1
片受けスタイル（S）
 41
0.75
  0
VIEWPORT
  5
F6BA7
 67
     1
  8
0
 10
145.33033752441401
 20
101.8328354358673
 30
0.0
 40
334.0025019414623
 41
222.19657968139651
 68
     1
 69
     1
1001
ACAD
1000
MVIEW
1002
{
1070
    16
1010
0.0
1020
0.0
1030
0.0
1010
0.0
1020
0.0
1030
1.0
1040
0.0
1040
222.19657968139651
1040
145.33033752441401
1040
101.8328354358673
1040
50.0
1040
0.0
1040
0.0
1070
     0
1070
     0
1070
     1
1070
     1
1070
     0
1070
     0
1070
     0
1070
     0
1040
0.0
1040
0.0
1040
0.0
1040
10.0
1040
10.0
1040
10.0
1040
10.0
1070
     0
1002
{
1002
}
1002
}
  0
VIEWPORT
  5
F6BA9
 67
     1
  8
OBJECT
 10
145.3303314447403
 20
101.8328338861465
 30
0.0
 40
232.5285303115844
 41
162.93253421783439
 68
     2
 69
     2
1001
ACAD
1000
MVIEW
1002
{
1070
    16
1010
0.0
1020
0.0
1030
0.0
1010
0.0
1020
0.0
1030
1.0
1040
0.0
1040
25942.55904403147
1040
2377.604457077377
1040
-7591.5176687056619
1040
50.0
1040
0.0
1040
0.0
1070
     0
1070
   600
1070
     1
1070
     1
1070
     0
1070
     0
1070
     0
1070
     0
1040
0.0
1040
0.0
1040
0.0
1040
1.0
1040
1.0
1040
0.0
1040
0.0
1070
     0
1002
{
1002
}
1002
}
  0
ENDSEC
  0
EOF
