  0
SECTION
  2
HEADER
  9
$ACADVER
  1
AC1009
  9
$INSBASE
 10
0.0
 20
0.0
 30
0.0
  9
$EXTMIN
 10
0.0
 20
-3817.4999999999959
 30
0.0
  9
$EXTMAX
 10
5575.0
 20
607.5
 30
0.0
  9
$LIMMIN
 10
0.0
 20
0.0
  9
$LIMMAX
 10
210.0
 20
297.0
  9
$ORTHOMODE
 70
     0
  9
$REGENMODE
 70
     1
  9
$FILLMODE
 70
     1
  9
$QTEXTMODE
 70
     0
  9
$MIRRTEXT
 70
     0
  9
$DRAGMODE
 70
     2
  9
$LTSCALE
 40
1.0
  9
$OSMODE
 70
    37
  9
$ATTMODE
 70
     1
  9
$TEXTSIZE
 40
4.0
  9
$TRACEWID
 40
0.05
  9
$TEXTSTYLE
  7
STANDARD
  9
$CLAYER
  8
OBJECT
  9
$CELTYPE
  6
BYLAYER
  9
$CECOLOR
 62
   256
  9
$DIMSCALE
 40
10.0
  9
$DIMASZ
 40
2.0
  9
$DIMEXO
 40
1.0
  9
$DIMDLI
 40
10.0
  9
$DIMRND
 40
0.0
  9
$DIMDLE
 40
0.0
  9
$DIMEXE
 40
1.0
  9
$DIMTP
 40
0.0
  9
$DIMTM
 40
0.0
  9
$DIMTXT
 40
3.2000000000000002
  9
$DIMCEN
 40
0.0
  9
$DIMTSZ
 40
0.0
  9
$DIMTOL
 70
     0
  9
$DIMLIM
 70
     0
  9
$DIMTIH
 70
     0
  9
$DIMTOH
 70
     0
  9
$DIMSE1
 70
     0
  9
$DIMSE2
 70
     0
  9
$DIMTAD
 70
     1
  9
$DIMZIN
 70
     8
  9
$DIMBLK
  1
OPEN30
  9
$DIMASO
 70
     1
  9
$DIMSHO
 70
     1
  9
$DIMPOST
  1

  9
$DIMAPOST
  1

  9
$DIMALT
 70
     0
  9
$DIMALTD
 70
     2
  9
$DIMALTF
 40
25.399999999999999
  9
$DIMLFAC
 40
1.0
  9
$DIMTOFL
 70
     1
  9
$DIMTVP
 40
0.0
  9
$DIMTIX
 70
     0
  9
$DIMSOXD
 70
     0
  9
$DIMSAH
 70
     0
  9
$DIMBLK1
  1

  9
$DIMBLK2
  1

  9
$DIMSTYLE
  2
S10
  9
$DIMCLRD
 70
   256
  9
$DIMCLRE
 70
   256
  9
$DIMCLRT
 70
   256
  9
$DIMTFAC
 40
1.0
  9
$DIMGAP
 40
0.9
  9
$LUNITS
 70
     2
  9
$LUPREC
 70
     2
  9
$SKETCHINC
 40
0.1
  9
$FILLETRAD
 40
0.0
  9
$AUNITS
 70
     0
  9
$AUPREC
 70
     2
  9
$MENU
  1
ACAD
  9
$ELEVATION
 40
0.0
  9
$PELEVATION
 40
0.0
  9
$THICKNESS
 40
0.0
  9
$LIMCHECK
 70
     0
  9
$BLIPMODE
 70
     0
  9
$CHAMFERA
 40
2.0
  9
$CHAMFERB
 40
2.0
  9
$SKPOLY
 70
     0
  9
$TDCREATE
 40
2453095.4929404748
  9
$TDUPDATE
 40
2457604.638202338
  9
$TDINDWG
 40
18.404286956
  9
$TDUSRTIMER
 40
18.404286226899998
  9
$USRTIMER
 70
     1
  9
$ANGBASE
 50
0.0
  9
$ANGDIR
 70
     0
  9
$PDMODE
 70
    35
  9
$PDSIZE
 40
2.0
  9
$PLINEWID
 40
0.0
  9
$COORDS
 70
     1
  9
$SPLFRAME
 70
     0
  9
$SPLINETYPE
 70
     6
  9
$SPLINESEGS
 70
     8
  9
$ATTDIA
 70
     0
  9
$ATTREQ
 70
     1
  9
$HANDLING
 70
     1
  9
$HANDSEED
  5
12F9D8
  9
$SURFTAB1
 70
     6
  9
$SURFTAB2
 70
     6
  9
$SURFTYPE
 70
     6
  9
$SURFU
 70
     6
  9
$SURFV
 70
     6
  9
$UCSNAME
  2

  9
$UCSORG
 10
0.0
 20
0.0
 30
0.0
  9
$UCSXDIR
 10
1.0
 20
0.0
 30
0.0
  9
$UCSYDIR
 10
0.0
 20
1.0
 30
0.0
  9
$PUCSNAME
  2

  9
$PUCSORG
 10
0.0
 20
0.0
 30
0.0
  9
$PUCSXDIR
 10
1.0
 20
0.0
 30
0.0
  9
$PUCSYDIR
 10
0.0
 20
1.0
 30
0.0
  9
$USERI1
 70
     0
  9
$USERI2
 70
     0
  9
$USERI3
 70
     0
  9
$USERI4
 70
     0
  9
$USERI5
 70
     0
  9
$USERR1
 40
0.0
  9
$USERR2
 40
0.0
  9
$USERR3
 40
0.0
  9
$USERR4
 40
0.0
  9
$USERR5
 40
0.0
  9
$WORLDVIEW
 70
     1
  9
$SHADEDGE
 70
     3
  9
$SHADEDIF
 70
    70
  9
$TILEMODE
 70
     1
  9
$MAXACTVP
 70
    64
  9
$PLIMCHECK
 70
     0
  9
$PEXTMIN
 10
29.066066288948051
 20
20.366566777229309
 30
0.0
  9
$PEXTMAX
 10
261.5945966005325
 20
183.29910099506381
 30
0.0
  9
$PLIMMIN
 10
-3.17498779296875
 20
-3.1749999523162842
  9
$PLIMMAX
 10
293.83566284179687
 20
206.8406708240509
  9
$UNITMODE
 70
     0
  9
$VISRETAIN
 70
     1
  9
$PLINEGEN
 70
     0
  9
$PSLTSCALE
 70
     1
  0
ENDSEC
  0
SECTION
  2
TABLES
  0
TABLE
  2
VPORT
 70
     1
  0
VPORT
  2
*ACTIVE
 70
     0
 10
0.0
 20
0.0
 11
1.0
 21
1.0
 12
5260.8959345485764
 22
391.40771619354967
 13
0.0
 23
0.0
 14
1.0
 24
1.0
 15
0.0
 25
0.0
 16
0.0
 26
0.0
 36
1.0
 17
0.0
 27
0.0
 37
0.0
 40
7064.15377911211
 41
1.6494178525226391
 42
50.0
 43
0.0
 44
0.0
 50
0.0
 51
0.0
 71
     0
 72
   600
 73
     1
 74
     1
 75
     0
 76
     0
 77
     0
 78
     0
  0
ENDTAB
  0
TABLE
  2
LTYPE
 70
     4
  0
LTYPE
  2
CONTINUOUS
 70
     0
  3
Solid line
 72
    65
 73
     0
 40
0.0
  0
LTYPE
  2
PHANTOM2
 70
     0
  3
___ _ _ ___ _ _ ___ _ _ ___ _ _
 72
    65
 73
     6
 40
1.25
 49
0.625
 49
-0.125
 49
0.125
 49
-0.125
 49
0.125
 49
-0.125
  0
LTYPE
  2
ACAD_ISO08W100
 70
     0
  3
ISO long-dash short-dash ____ __ ____ __ ____ _
 72
    65
 73
     4
 40
36.0
 49
24.0
 49
-3.0
 49
6.0
 49
-3.0
  0
LTYPE
  2
ACAD_ISO02W100
 70
     0
  3
ISO dash __ __ __ __ __ __ __ __ __ __ __ __ __
 72
    65
 73
     2
 40
15.0
 49
12.0
 49
-3.0
  0
ENDTAB
  0
TABLE
  2
LAYER
 70
     8
  0
LAYER
  2
0
 70
     0
 62
     7
  6
CONTINUOUS
  0
LAYER
  2
OBJECT
 70
     0
 62
     4
  6
CONTINUOUS
  0
LAYER
  2
DEFPOINTS
 70
     0
 62
     7
  6
CONTINUOUS
  0
LAYER
  2
DIM
 70
     0
 62
     7
  6
CONTINUOUS
  0
LAYER
  2
HIDDEN
 70
     0
 62
     2
  6
ACAD_ISO02W100
  0
LAYER
  2
CENTER
 70
     0
 62
     2
  6
ACAD_ISO08W100
  0
LAYER
  2
DOTS
 70
     0
 62
     1
  6
CONTINUOUS
  0
LAYER
  2
SLIM
 70
     0
 62
     2
  6
CONTINUOUS
  0
ENDTAB
  0
TABLE
  2
STYLE
 70
     2
  0
STYLE
  2
STANDARD
 70
     0
 40
0.0
 41
0.75
 50
0.0
 71
     0
 42
4.0
  3
simplex.shx
  4
bigfont.shx
  0
ENDTAB
  0
TABLE
  2
VIEW
 70
     0
  0
ENDTAB
  0
TABLE
  2
UCS
 70
     0
  0
ENDTAB
  0
TABLE
  2
APPID
 70
    19
  0
APPID
  2
ACAD
 70
     0
  0
APPID
  2
ACADANNOTATIVE
 70
     0
  0
APPID
  2
ACAD_PSEXT
 70
     0
  0
APPID
  2
ACAD_EXEMPT_FROM_CAD_STANDARDS
 70
     0
  0
APPID
  2
ACAECLAYERSTANDARD
 70
     0
  0
APPID
  2
ACAUTHENVIRON
 70
     0
  0
APPID
  2
ACDBDYNAMICBLOCKTRUENAME
 70
     0
  0
APPID
  2
ACDBDYNAMICBLOCKGUID
 70
     0
  0
APPID
  2
ACDBBLOCKREPETAG
 70
     0
  0
APPID
  2
ACDBBLOCKREPBTAG
 70
     0
  0
APPID
  2
ACAD_NAV_VCDISPLAY
 70
     0
  0
APPID
  2
ACAD_DSTYLE_DIMRADIAL_EXTENSION
 70
     0
  0
APPID
  2
ACAD_DSTYLE_DIMJAG
 70
     0
  0
APPID
  2
ACAD_DSTYLE_DIMTALN
 70
     0
  0
APPID
  2
ACADANNOPO
 70
     0
  0
APPID
  2
GRADIENTCOLOR1ACI
 70
     0
  0
APPID
  2
GRADIENTCOLOR2ACI
 70
     0
  0
APPID
  2
CONTENTBLOCKICON
 70
     0
  0
APPID
  2
ACAD_MLEADERVER
 70
     0
  0
ENDTAB
  0
TABLE
  2
DIMSTYLE
 70
     3
  0
DIMSTYLE
  2
STANDARD
 70
     0
  3

  4

  5

  6

  7

 40
1.0
 41
0.18
 42
0.0625
 43
0.38
 44
0.18
 45
0.0
 46
0.0
 47
0.0
 48
0.0
140
0.18
141
0.09
142
0.0
143
25.399999999999999
144
1.0
145
0.0
146
1.0
147
0.09
 71
     0
 72
     0
 73
     1
 74
     1
 75
     0
 76
     0
 77
     0
 78
     0
170
     0
171
     2
172
     0
173
     0
174
     0
175
     0
176
     0
177
     0
178
     0
  0
DIMSTYLE
  2
S10
 70
     0
  3

  4

  5

  6

  7

 40
10.0
 41
2.0
 42
1.0
 43
10.0
 44
1.0
 45
0.0
 46
0.0
 47
0.0
 48
0.0
140
3.2000000000000002
141
0.0
142
0.0
143
25.399999999999999
144
1.0
145
0.0
146
1.0
147
0.9
 71
     0
 72
     0
 73
     0
 74
     0
 75
     0
 76
     0
 77
     1
 78
     8
170
     0
171
     2
172
     1
173
     0
174
     0
175
     0
176
   256
177
   256
178
   256
  0
ENDTAB
  0
ENDSEC
  0
SECTION
  2
BLOCKS
  0
BLOCK
  8
0
  2
$MODEL_SPACE
 70
     0
 10
0.0
 20
0.0
 30
0.0
  3
$MODEL_SPACE
  1

  0
ENDBLK
  5
12F8B9
  8
0
  0
BLOCK
 67
     1
  8
0
  2
$PAPER_SPACE
 70
     0
 10
0.0
 20
0.0
 30
0.0
  3
$PAPER_SPACE
  1

  0
ENDBLK
  5
12F8B5
 67
     1
  8
0
  0
BLOCK
  8
0
  2
_OPEN30
 70
     0
 10
0.0
 20
0.0
 30
0.0
  3
_OPEN30
  1

  0
LINE
  5
202
  8
0
  6
BYBLOCK
 62
     0
 10
-1.0
 20
0.26794919
 30
0.0
 11
0.0
 21
0.0
 31
0.0
  0
LINE
  5
203
  8
0
  6
BYBLOCK
 62
     0
 10
0.0
 20
0.0
 30
0.0
 11
-1.0
 21
-0.26794919
 31
0.0
  0
LINE
  5
204
  8
0
  6
BYBLOCK
 62
     0
 10
0.0
 20
0.0
 30
0.0
 11
-1.0
 21
0.0
 31
0.0
  0
ENDBLK
  5
206
  8
0
  0
BLOCK
  8
0
  2
*U3
 70
     1
 10
0.0
 20
0.0
 30
0.0
  3
*U3
  1

  0
TEXT
  5
12F769
  8
DIM
 10
3840.6616440113212
 20
-1062.7428571428561
 30
0.0
 40
32.0
  1
m（シンドカット）
 50
90.0
 41
0.75
  0
ENDBLK
  5
12F76B
  8
0
  0
BLOCK
  8
0
  2
*U4
 70
     1
 10
0.0
 20
0.0
 30
0.0
  3
*U4
  1

  0
TEXT
  5
12F76D
  8
SLIM
 10
258.00000000003462
 20
-3446.952380953292
 30
0.0
 40
26.0
  1
75
 50
270.0
  0
ENDBLK
  5
12F76F
  8
0
  0
BLOCK
  8
0
  2
*U5
 70
     1
 10
0.0
 20
0.0
 30
0.0
  3
*U5
  1

  0
TEXT
  5
12F771
  8
SLIM
 10
125.0476190476536
 20
-3358.7500000009122
 30
0.0
 40
26.0
  1
100
  0
ENDBLK
  5
12F773
  8
0
  0
BLOCK
  8
0
  2
*U6
 70
     1
 10
0.0
 20
0.0
 30
0.0
  3
*U6
  1

  0
TEXT
  5
12F775
  8
SLIM
 10
625.2500000001146
 20
-3437.047619048531
 30
0.0
 40
26.0
  1
100
 50
270.0
  0
ENDBLK
  5
12F777
  8
0
  0
BLOCK
  8
0
  2
*U7
 70
     1
 10
0.0
 20
0.0
 30
0.0
  3
*U7
  1

  0
TEXT
  5
12F779
  8
SLIM
 10
485.04761904773358
 20
-3358.7500000009122
 30
0.0
 40
26.0
  1
100
  0
ENDBLK
  5
12F77B
  8
0
  0
BLOCK
  8
0
  2
*U8
 70
     1
 10
0.0
 20
0.0
 30
0.0
  3
*U8
  1

  0
TEXT
  5
12F77D
  8
SLIM
 10
618.0000000001146
 20
-2982.9523809532861
 30
0.0
 40
26.0
  1
65
 50
270.0
  0
ENDBLK
  5
12F77F
  8
0
  0
BLOCK
  8
0
  2
*U9
 70
     1
 10
0.0
 20
0.0
 30
0.0
  3
*U9
  1

  0
TEXT
  5
12F781
  8
SLIM
 10
485.04761904773358
 20
-2894.7500000009049
 30
0.0
 40
26.0
  1
100
  0
ENDBLK
  5
12F783
  8
0
  0
BLOCK
  8
0
  2
*U10
 70
     1
 10
0.0
 20
0.0
 30
0.0
  3
*U10
  1

  0
TEXT
  5
12F785
  8
SLIM
 10
258.00000000003462
 20
-2982.9523809532861
 30
0.0
 40
26.0
  1
50
 50
270.0
  0
ENDBLK
  5
12F787
  8
0
  0
BLOCK
  8
0
  2
*U11
 70
     1
 10
0.0
 20
0.0
 30
0.0
  3
*U11
  1

  0
TEXT
  5
12F789
  8
SLIM
 10
125.0476190476536
 20
-2894.7500000009049
 30
0.0
 40
26.0
  1
100
  0
ENDBLK
  5
12F78B
  8
0
  0
BLOCK
  8
0
  2
*U12
 70
     1
 10
0.0
 20
0.0
 30
0.0
  3
*U12
  1

  0
TEXT
  5
12F78D
  8
SLIM
 10
258.00000000003462
 20
-2518.9523809532802
 30
0.0
 40
26.0
  1
75
 50
270.0
  0
ENDBLK
  5
12F78F
  8
0
  0
BLOCK
  8
0
  2
*U13
 70
     1
 10
0.0
 20
0.0
 30
0.0
  3
*U13
  1

  0
TEXT
  5
12F791
  8
SLIM
 10
134.9523809524155
 20
-2438.0000000008981
 30
0.0
 40
26.0
  1
75
  0
ENDBLK
  5
12F793
  8
0
  0
BLOCK
  8
0
  2
*U14
 70
     1
 10
0.0
 20
0.0
 30
0.0
  3
*U14
  1

  0
TEXT
  5
12F795
  8
SLIM
 10
625.2500000001146
 20
-2509.0476190485178
 30
0.0
 40
26.0
  1
100
 50
270.0
  0
ENDBLK
  5
12F797
  8
0
  0
BLOCK
  8
0
  2
*U15
 70
     1
 10
0.0
 20
0.0
 30
0.0
  3
*U15
  1

  0
TEXT
  5
12F799
  8
SLIM
 10
494.95238095249539
 20
-2438.0000000008981
 30
0.0
 40
26.0
  1
75
  0
ENDBLK
  5
12F79B
  8
0
  0
BLOCK
  8
0
  2
*U16
 70
     1
 10
0.0
 20
0.0
 30
0.0
  3
*U16
  1

  0
TEXT
  5
12F79D
  8
SLIM
 10
618.0000000001146
 20
-2054.952380953273
 30
0.0
 40
26.0
  1
65
 50
270.0
  0
ENDBLK
  5
12F79F
  8
0
  0
BLOCK
  8
0
  2
*U17
 70
     1
 10
0.0
 20
0.0
 30
0.0
  3
*U17
  1

  0
TEXT
  5
12F7A1
  8
SLIM
 10
494.95238095249539
 20
-1974.000000000892
 30
0.0
 40
26.0
  1
75
  0
ENDBLK
  5
12F7A3
  8
0
  0
BLOCK
  8
0
  2
*U18
 70
     1
 10
0.0
 20
0.0
 30
0.0
  3
*U18
  1

  0
TEXT
  5
12F7A5
  8
SLIM
 10
258.00000000003462
 20
-2054.952380953273
 30
0.0
 40
26.0
  1
50
 50
270.0
  0
ENDBLK
  5
12F7A7
  8
0
  0
BLOCK
  8
0
  2
*U19
 70
     1
 10
0.0
 20
0.0
 30
0.0
  3
*U19
  1

  0
TEXT
  5
12F7A9
  8
SLIM
 10
134.9523809524155
 20
-1974.000000000892
 30
0.0
 40
26.0
  1
75
  0
ENDBLK
  5
12F7AB
  8
0
  0
BLOCK
  8
0
  2
*U20
 70
     1
 10
0.0
 20
0.0
 30
0.0
  3
*U20
  1

  0
TEXT
  5
12F7AD
  8
SLIM
 10
258.00000000003462
 20
-1590.9523809532659
 30
0.0
 40
26.0
  1
75
 50
270.0
  0
ENDBLK
  5
12F7AF
  8
0
  0
BLOCK
  8
0
  2
*U21
 70
     1
 10
0.0
 20
0.0
 30
0.0
  3
*U21
  1

  0
TEXT
  5
12F7B1
  8
SLIM
 10
134.9523809524155
 20
-1510.0000000008849
 30
0.0
 40
26.0
  1
65
  0
ENDBLK
  5
12F7B3
  8
0
  0
BLOCK
  8
0
  2
*U22
 70
     1
 10
0.0
 20
0.0
 30
0.0
  3
*U22
  1

  0
TEXT
  5
12F7B5
  8
SLIM
 10
625.2500000001146
 20
-1581.047619048504
 30
0.0
 40
26.0
  1
100
 50
270.0
  0
ENDBLK
  5
12F7B7
  8
0
  0
BLOCK
  8
0
  2
*U23
 70
     1
 10
0.0
 20
0.0
 30
0.0
  3
*U23
  1

  0
TEXT
  5
12F7B9
  8
SLIM
 10
494.95238095249539
 20
-1510.0000000008849
 30
0.0
 40
26.0
  1
65
  0
ENDBLK
  5
12F7BB
  8
0
  0
BLOCK
  8
0
  2
*U24
 70
     1
 10
0.0
 20
0.0
 30
0.0
  3
*U24
  1

  0
TEXT
  5
12F7BD
  8
SLIM
 10
618.0000000001146
 20
-1126.9523809532591
 30
0.0
 40
26.0
  1
65
 50
270.0
  0
ENDBLK
  5
12F7BF
  8
0
  0
BLOCK
  8
0
  2
*U25
 70
     1
 10
0.0
 20
0.0
 30
0.0
  3
*U25
  1

  0
TEXT
  5
12F7C1
  8
SLIM
 10
494.95238095249539
 20
-1046.0000000008779
 30
0.0
 40
26.0
  1
65
  0
ENDBLK
  5
12F7C3
  8
0
  0
BLOCK
  8
0
  2
*U26
 70
     1
 10
0.0
 20
0.0
 30
0.0
  3
*U26
  1

  0
TEXT
  5
12F7C5
  8
SLIM
 10
258.00000000003462
 20
-1126.9523809532591
 30
0.0
 40
26.0
  1
50
 50
270.0
  0
ENDBLK
  5
12F7C7
  8
0
  0
BLOCK
  8
0
  2
*U27
 70
     1
 10
0.0
 20
0.0
 30
0.0
  3
*U27
  1

  0
TEXT
  5
12F7C9
  8
SLIM
 10
134.9523809524155
 20
-1046.0000000008779
 30
0.0
 40
26.0
  1
65
  0
ENDBLK
  5
12F7CB
  8
0
  0
BLOCK
  8
0
  2
*U28
 70
     1
 10
0.0
 20
0.0
 30
0.0
  3
*U28
  1

  0
TEXT
  5
12F7CD
  8
SLIM
 10
258.00000000003462
 20
-662.95238095325271
 30
0.0
 40
26.0
  1
75
 50
270.0
  0
ENDBLK
  5
12F7CF
  8
0
  0
BLOCK
  8
0
  2
*U29
 70
     1
 10
0.0
 20
0.0
 30
0.0
  3
*U29
  1

  0
TEXT
  5
12F7D1
  8
SLIM
 10
134.9523809524155
 20
-582.00000000087175
 30
0.0
 40
26.0
  1
50
  0
ENDBLK
  5
12F7D3
  8
0
  0
BLOCK
  8
0
  2
*U30
 70
     1
 10
0.0
 20
0.0
 30
0.0
  3
*U30
  1

  0
TEXT
  5
12F7D5
  8
SLIM
 10
625.2500000001146
 20
-653.04761904849079
 30
0.0
 40
26.0
  1
100
 50
270.0
  0
ENDBLK
  5
12F7D7
  8
0
  0
BLOCK
  8
0
  2
*U31
 70
     1
 10
0.0
 20
0.0
 30
0.0
  3
*U31
  1

  0
TEXT
  5
12F7D9
  8
SLIM
 10
494.95238095249539
 20
-582.00000000087175
 30
0.0
 40
26.0
  1
50
  0
ENDBLK
  5
12F7DB
  8
0
  0
BLOCK
  8
0
  2
*U32
 70
     1
 10
0.0
 20
0.0
 30
0.0
  3
*U32
  1

  0
TEXT
  5
12F7DD
  8
SLIM
 10
618.0000000001146
 20
-198.95238095324621
 30
0.0
 40
26.0
  1
65
 50
270.0
  0
ENDBLK
  5
12F7DF
  8
0
  0
BLOCK
  8
0
  2
*U33
 70
     1
 10
0.0
 20
0.0
 30
0.0
  3
*U33
  1

  0
TEXT
  5
12F7E1
  8
SLIM
 10
494.95238095249539
 20
-118.0000000008653
 30
0.0
 40
26.0
  1
50
  0
ENDBLK
  5
12F7E3
  8
0
  0
BLOCK
  8
0
  2
*U34
 70
     1
 10
0.0
 20
0.0
 30
0.0
  3
*U34
  1

  0
TEXT
  5
12F7E5
  8
SLIM
 10
258.00000000003462
 20
-198.95238095324621
 30
0.0
 40
26.0
  1
50
 50
270.0
  0
ENDBLK
  5
12F7E7
  8
0
  0
BLOCK
  8
0
  2
*U35
 70
     1
 10
0.0
 20
0.0
 30
0.0
  3
*U35
  1

  0
TEXT
  5
12F7E9
  8
SLIM
 10
134.9523809524155
 20
-118.0000000008653
 30
0.0
 40
26.0
  1
50
  0
ENDBLK
  5
12F7EB
  8
0
  0
BLOCK
  8
0
  2
*U36
 70
     1
 10
0.0
 20
0.0
 30
0.0
  3
*U36
  1

  0
TEXT
  5
12F83D
  8
DIM
 10
2209.479620594459
 20
-3304.1428571428528
 30
0.0
 40
32.0
  1
A
 50
90.0
 41
0.75
  0
ENDBLK
  5
12F83F
  8
0
  0
BLOCK
  8
0
  2
*U37
 70
     1
 10
0.0
 20
0.0
 30
0.0
  3
*U37
  1

  0
TEXT
  5
12F841
  8
DIM
 10
2207.8409284037348
 20
-3685.9999999999959
 30
0.0
 40
32.0
  1
B
 50
90.0
 41
0.75
  0
ENDBLK
  5
12F843
  8
0
  0
BLOCK
  8
0
  2
*U38
 70
     1
 10
0.0
 20
0.0
 30
0.0
  3
*U38
  1

  0
TEXT
  5
12F845
  8
DIM
 10
2061.428571428572
 20
-3158.208121984444
 30
0.0
 40
32.0
  1
C
 41
0.75
  0
ENDBLK
  5
12F847
  8
0
  0
ENDSEC
  0
SECTION
  2
ENTITIES
  0
LINE
  5
12515F
  8
OBJECT
 10
1825.0
 20
-3699.9999999999959
 30
0.0
 11
5575.0
 21
-3699.9999999999959
 31
0.0
  0
LINE
  5
125161
  8
SLIM
 10
2616.0
 20
-2757.50001604727
 30
0.0
 11
2616.0
 21
-3087.50001604727
 31
0.0
  0
LINE
  5
125162
  8
SLIM
 10
2740.0
 20
-2757.50001604727
 30
0.0
 11
2740.0
 21
-3087.50001604727
 31
0.0
  0
LINE
  5
125163
  8
SLIM
 10
2870.0
 20
-2817.50001604727
 30
0.0
 11
2870.0
 21
-3087.50001604727
 31
0.0
  0
LINE
  5
125164
  8
SLIM
 10
3000.0
 20
-2817.50001604727
 30
0.0
 11
3000.0
 21
-3087.50001604727
 31
0.0
  0
LINE
  5
125165
  8
SLIM
 10
3130.0
 20
-3087.50001604727
 30
0.0
 11
3130.0
 21
-2817.50001604727
 31
0.0
  0
LINE
  5
125166
  8
SLIM
 10
3260.0
 20
-3087.50001604727
 30
0.0
 11
3260.0
 21
-2757.50001604727
 31
0.0
  0
LINE
  5
125167
  8
SLIM
 10
3260.0
 20
-2757.50001604727
 30
0.0
 11
2616.0
 21
-2757.50001604727
 31
0.0
  0
LINE
  5
125168
  8
SLIM
 10
3260.0
 20
-2817.50001604727
 30
0.0
 11
2740.0
 21
-2817.50001604727
 31
0.0
  0
LINE
  5
125169
  8
SLIM
 10
3260.0
 20
-2877.50001604727
 30
0.0
 11
2616.0
 21
-2877.50001604727
 31
0.0
  0
LINE
  5
12516A
  8
SLIM
 10
3260.0
 20
-2947.50001604727
 30
0.0
 11
2616.0
 21
-2947.50001604727
 31
0.0
  0
LINE
  5
12516B
  8
SLIM
 10
3260.0
 20
-3017.50001604727
 30
0.0
 11
2616.0
 21
-3017.50001604727
 31
0.0
  0
LINE
  5
12516C
  8
SLIM
 10
3260.0
 20
-3087.50001604727
 30
0.0
 11
2616.0
 21
-3087.50001604727
 31
0.0
  0
LINE
  5
125181
  8
SLIM
 10
2740.0
 20
-2877.50001604727
 30
0.0
 11
2615.9999722746579
 21
-2757.5
 31
0.0
  0
LINE
  5
1251B6
  8
OBJECT
 10
5323.0
 20
-3515.9999999999968
 30
0.0
 11
5323.0
 21
-3494.9999999999968
 31
0.0
1001
ACDBBLOCKREPETAG
1070
     1
1071
       20
1005
1251B6
  0
LINE
  5
1251B7
  8
OBJECT
 10
5323.0
 20
-3494.9999999999968
 30
0.0
 11
5477.0
 21
-3494.9999999999968
 31
0.0
1001
ACDBBLOCKREPETAG
1070
     1
1071
       21
1005
1251B7
  0
LINE
  5
1251B8
  8
HIDDEN
 10
5343.0
 20
-3564.9999999999968
 30
0.0
 11
5457.0
 21
-3564.9999999999968
 31
0.0
1001
ACDBBLOCKREPETAG
1070
     1
1071
       22
1005
1251B8
  0
LINE
  5
1251B9
  8
OBJECT
 10
5477.0
 20
-3494.9999999999968
 30
0.0
 11
5477.0
 21
-3515.9999999999968
 31
0.0
1001
ACDBBLOCKREPETAG
1070
     1
1071
       23
1005
1251B9
  0
LINE
  5
1251BA
  8
OBJECT
 10
5477.0
 20
-3515.9999999999968
 30
0.0
 11
5323.0
 21
-3515.9999999999968
 31
0.0
1001
ACDBBLOCKREPETAG
1070
     1
1071
       24
1005
1251BA
  0
LINE
  5
1251BB
  8
CENTER
 10
5400.0
 20
-3479.9999999999968
 30
0.0
 11
5400.0
 21
-3714.9999999999968
 31
0.0
1001
ACDBBLOCKREPETAG
1070
     1
1071
       25
1005
1251BB
  0
LINE
  5
1251BC
  8
OBJECT
 10
5325.0
 20
-3578.9999999999968
 30
0.0
 11
5325.0
 21
-3702.9999999999968
 31
0.0
1001
ACDBBLOCKREPETAG
1070
     1
1071
       26
1005
1251BC
  0
LINE
  5
1251BD
  8
OBJECT
 10
5328.0
 20
-3515.9999999999968
 30
0.0
 11
5328.0
 21
-3578.9999999999968
 31
0.0
1001
ACDBBLOCKREPETAG
1070
     1
1071
       27
1005
1251BD
  0
LINE
  5
1251BE
  8
OBJECT
 10
5472.0
 20
-3578.9999999999968
 30
0.0
 11
5472.0
 21
-3515.9999999999968
 31
0.0
1001
ACDBBLOCKREPETAG
1070
     1
1071
       28
1005
1251BE
  0
LINE
  5
1251BF
  8
OBJECT
 10
5475.0
 20
-3578.9999999999968
 30
0.0
 11
5456.7802782663139
 21
-3578.9999999999968
 31
0.0
1001
ACDBBLOCKREPETAG
1070
     1
1071
       30
1005
1251BF
  0
LINE
  5
1251C0
  8
OBJECT
 10
5475.0
 20
-3578.9999999999968
 30
0.0
 11
5475.0
 21
-3702.9999999999968
 31
0.0
1001
ACDBBLOCKREPETAG
1070
     1
1071
       34
1005
1251C0
  0
POINT
  5
1251C1
  8
DOTS
 10
5400.0
 20
-3699.9999999999968
 30
0.0
1001
ACDBBLOCKREPETAG
1070
     1
1071
      187
1005
1251C1
  0
LINE
  5
1251C2
  8
CENTER
 10
5310.0
 20
-3627.9999999999968
 30
0.0
 11
5490.0
 21
-3627.9999999999968
 31
0.0
1001
ACDBBLOCKREPETAG
1070
     1
1071
       23
1005
1251C2
  0
CIRCLE
  5
1251C3
  8
OBJECT
 10
5400.0
 20
-3627.9999999999968
 30
0.0
 40
53.5
1001
ACDBBLOCKREPETAG
1070
     1
1071
       24
1005
1251C3
  0
CIRCLE
  5
1251C4
  8
OBJECT
 10
5400.0
 20
-3627.9999999999968
 30
0.0
 40
67.0
1001
ACDBBLOCKREPETAG
1070
     1
1071
       25
1005
1251C4
  0
ARC
  5
1251C5
  8
OBJECT
 10
5400.0
 20
-3627.9999999999968
 30
0.0
 40
75.0
 50
286.26020470824369
 51
253.73979529175631
1001
ACDBBLOCKREPETAG
1070
     1
1071
       27
1005
1251C5
  0
LINE
  5
1251C6
  8
OBJECT
 10
5379.0
 20
-3699.9999999999968
 30
0.0
 11
5421.0
 21
-3699.9999999999968
 31
0.0
1001
ACDBBLOCKREPETAG
1070
     1
1071
       28
1005
1251C6
  0
LINE
  5
1251C7
  8
OBJECT
 10
5343.2197217336861
 20
-3578.9999999999968
 30
0.0
 11
5325.0
 21
-3578.9999999999968
 31
0.0
1001
ACDBBLOCKREPETAG
1070
     1
1071
       30
1005
1251BF
  0
TEXT
  5
12CC49
  8
SLIM
 10
-0.0000000000000011
 20
282.5
 30
0.0
 40
35.0
  1
※ 100枝（4）がある場合、品名の最後に【管底】が付きます。
 41
0.9
 11
0.0
 21
300.0
 31
0.0
 73
     2
  0
LINE
  5
12ECD8
  8
SLIM
 10
4350.0
 20
-644.99999999999591
 30
0.0
 11
4350.0
 21
-1364.9999999999959
 31
0.0
  0
LINE
  5
12ECD9
  8
SLIM
 10
4454.0
 20
-1364.9999999999959
 30
0.0
 11
4454.0
 21
-644.99999999999591
 31
0.0
  0
LINE
  5
12ECDA
  8
SLIM
 10
4602.0
 20
-644.99999999999591
 30
0.0
 11
4350.0
 21
-644.99999999999591
 31
0.0
  0
LINE
  5
12ECDB
  8
SLIM
 10
4602.0
 20
-692.99999999999568
 30
0.0
 11
4350.0
 21
-692.99999999999568
 31
0.0
  0
LINE
  5
12ECDD
  8
SLIM
 10
4602.0
 20
-740.99999999999591
 30
0.0
 11
4350.0
 21
-740.99999999999591
 31
0.0
  0
LINE
  5
12ECDE
  8
SLIM
 10
4602.0
 20
-788.99999999999579
 30
0.0
 11
4350.0
 21
-788.99999999999579
 31
0.0
  0
LINE
  5
12ECDF
  8
SLIM
 10
4602.0
 20
-836.99999999999579
 30
0.0
 11
4350.0
 21
-836.99999999999579
 31
0.0
  0
LINE
  5
12ECE3
  8
SLIM
 10
4602.0
 20
-884.99999999999579
 30
0.0
 11
4350.0
 21
-884.99999999999579
 31
0.0
  0
LINE
  5
12ECE5
  8
SLIM
 10
4602.0
 20
-932.99999999999602
 30
0.0
 11
4350.0
 21
-932.99999999999602
 31
0.0
  0
LINE
  5
12ECE7
  8
SLIM
 10
4602.0
 20
-980.99999999999591
 30
0.0
 11
4350.0
 21
-980.99999999999591
 31
0.0
  0
LINE
  5
12ECE9
  8
SLIM
 10
4602.0
 20
-1028.9999999999959
 30
0.0
 11
4350.0
 21
-1028.9999999999959
 31
0.0
  0
LINE
  5
12ECEB
  8
SLIM
 10
4602.0
 20
-1076.9999999999959
 30
0.0
 11
4350.0
 21
-1076.9999999999959
 31
0.0
  0
LINE
  5
12ECED
  8
SLIM
 10
4602.0
 20
-1124.9999999999959
 30
0.0
 11
4350.0
 21
-1124.9999999999959
 31
0.0
  0
LINE
  5
12ECEF
  8
SLIM
 10
4602.0
 20
-1172.9999999999959
 30
0.0
 11
4350.0
 21
-1172.9999999999959
 31
0.0
  0
LINE
  5
12ECF1
  8
SLIM
 10
4602.0
 20
-1220.9999999999959
 30
0.0
 11
4350.0
 21
-1220.9999999999959
 31
0.0
  0
LINE
  5
12ECF3
  8
SLIM
 10
4602.0
 20
-1268.9999999999959
 30
0.0
 11
4350.0
 21
-1268.9999999999959
 31
0.0
  0
LINE
  5
12ECF5
  8
SLIM
 10
4602.0
 20
-1316.9999999999959
 30
0.0
 11
4350.0
 21
-1316.9999999999959
 31
0.0
  0
LINE
  5
12ECF7
  8
SLIM
 10
4602.0
 20
-1364.9999999999959
 30
0.0
 11
4350.0
 21
-1364.9999999999959
 31
0.0
  0
LINE
  5
12ECFA
  8
SLIM
 10
4602.0
 20
-644.99999999999591
 30
0.0
 11
4602.0
 21
-1364.9999999999959
 31
0.0
  0
LINE
  5
12F0BC
  8
SLIM
 10
3914.9999999999941
 20
-765.19743878931502
 30
0.0
 11
3925.1974387893092
 21
-754.99999999999955
 31
0.0
1001
GRADIENTCOLOR1ACI
1070
     5
1001
GRADIENTCOLOR2ACI
1070
     2
1001
ACAD
1010
0.0
1020
0.0
1030
0.0
  0
LINE
  5
12F0BD
  8
SLIM
 10
3914.9999999999941
 20
-783.15795103145319
 30
0.0
 11
3943.1579510314468
 21
-754.99999999999955
 31
0.0
1001
GRADIENTCOLOR1ACI
1070
     5
1001
GRADIENTCOLOR2ACI
1070
     2
1001
ACAD
1010
0.0
1020
0.0
1030
0.0
  0
LINE
  5
12F0BE
  8
SLIM
 10
3914.9999999999941
 20
-801.11846327359126
 30
0.0
 11
3961.1184632735849
 21
-754.99999999999955
 31
0.0
1001
GRADIENTCOLOR1ACI
1070
     5
1001
GRADIENTCOLOR2ACI
1070
     2
1001
ACAD
1010
0.0
1020
0.0
1030
0.0
  0
LINE
  5
12F0BF
  8
SLIM
 10
3914.9999999999941
 20
-819.07897551572955
 30
0.0
 11
3979.0789755157239
 21
-754.99999999999955
 31
0.0
1001
GRADIENTCOLOR1ACI
1070
     5
1001
GRADIENTCOLOR2ACI
1070
     2
1001
ACAD
1010
0.0
1020
0.0
1030
0.0
  0
LINE
  5
12F0C0
  8
SLIM
 10
3914.9999999999941
 20
-837.03948775786728
 30
0.0
 11
3997.0394877578619
 21
-754.99999999999955
 31
0.0
1001
GRADIENTCOLOR1ACI
1070
     5
1001
GRADIENTCOLOR2ACI
1070
     2
1001
ACAD
1010
0.0
1020
0.0
1030
0.0
  0
LINE
  5
12F0C1
  8
SLIM
 10
3914.9999999999941
 20
-855.00000000000568
 30
0.0
 11
4015.0
 21
-754.99999999999955
 31
0.0
1001
GRADIENTCOLOR1ACI
1070
     5
1001
GRADIENTCOLOR2ACI
1070
     2
1001
ACAD
1010
0.0
1020
0.0
1030
0.0
  0
LINE
  5
12F0C2
  8
SLIM
 10
3914.9999999999941
 20
-872.96051224214352
 30
0.0
 11
4032.9605122421372
 21
-754.99999999999955
 31
0.0
1001
GRADIENTCOLOR1ACI
1070
     5
1001
GRADIENTCOLOR2ACI
1070
     2
1001
ACAD
1010
0.0
1020
0.0
1030
0.0
  0
LINE
  5
12F0C3
  8
SLIM
 10
3914.9999999999941
 20
-890.92102448428193
 30
0.0
 11
4050.921024484277
 21
-754.99999999999955
 31
0.0
1001
GRADIENTCOLOR1ACI
1070
     5
1001
GRADIENTCOLOR2ACI
1070
     2
1001
ACAD
1010
0.0
1020
0.0
1030
0.0
  0
LINE
  5
12F0C4
  8
SLIM
 10
3914.999999999995
 20
-908.88153672641988
 30
0.0
 11
4068.8815367264142
 21
-754.99999999999955
 31
0.0
1001
GRADIENTCOLOR1ACI
1070
     5
1001
GRADIENTCOLOR2ACI
1070
     2
1001
ACAD
1010
0.0
1020
0.0
1030
0.0
  0
LINE
  5
12F0C5
  8
SLIM
 10
3914.999999999995
 20
-926.84204896855806
 30
0.0
 11
4085.0000000000068
 21
-756.84204896854555
 31
0.0
1001
GRADIENTCOLOR1ACI
1070
     5
1001
GRADIENTCOLOR2ACI
1070
     2
1001
ACAD
1010
0.0
1020
0.0
1030
0.0
  0
LINE
  5
12F0C6
  8
SLIM
 10
3914.999999999995
 20
-944.80256121069579
 30
0.0
 11
4085.0000000000068
 21
-774.80256121068385
 31
0.0
1001
GRADIENTCOLOR1ACI
1070
     5
1001
GRADIENTCOLOR2ACI
1070
     2
1001
ACAD
1010
0.0
1020
0.0
1030
0.0
  0
LINE
  5
12F0C7
  8
SLIM
 10
3914.999999999995
 20
-962.76307345283431
 30
0.0
 11
4085.0000000000068
 21
-792.76307345282225
 31
0.0
1001
GRADIENTCOLOR1ACI
1070
     5
1001
GRADIENTCOLOR2ACI
1070
     2
1001
ACAD
1010
0.0
1020
0.0
1030
0.0
  0
LINE
  5
12F0C8
  8
SLIM
 10
3914.999999999995
 20
-980.72358569497203
 30
0.0
 11
4085.0000000000068
 21
-810.72358569496112
 31
0.0
1001
GRADIENTCOLOR1ACI
1070
     5
1001
GRADIENTCOLOR2ACI
1070
     2
1001
ACAD
1010
0.0
1020
0.0
1030
0.0
  0
LINE
  5
12F0C9
  8
SLIM
 10
3914.999999999995
 20
-998.68409793711044
 30
0.0
 11
4085.0000000000068
 21
-828.68409793709918
 31
0.0
1001
GRADIENTCOLOR1ACI
1070
     5
1001
GRADIENTCOLOR2ACI
1070
     2
1001
ACAD
1010
0.0
1020
0.0
1030
0.0
  0
LINE
  5
12F0CA
  8
SLIM
 10
3914.999999999995
 20
-1016.644610179248
 30
0.0
 11
4085.0000000000068
 21
-846.64461017923804
 31
0.0
1001
GRADIENTCOLOR1ACI
1070
     5
1001
GRADIENTCOLOR2ACI
1070
     2
1001
ACAD
1010
0.0
1020
0.0
1030
0.0
  0
LINE
  5
12F0CB
  8
SLIM
 10
3914.9999999999968
 20
-1034.605122421387
 30
0.0
 11
4085.0000000000059
 21
-864.60512242137634
 31
0.0
1001
GRADIENTCOLOR1ACI
1070
     5
1001
GRADIENTCOLOR2ACI
1070
     2
1001
ACAD
1010
0.0
1020
0.0
1030
0.0
  0
LINE
  5
12F0CC
  8
SLIM
 10
3914.9999999999968
 20
-1052.5656346635251
 30
0.0
 11
4085.0000000000059
 21
-882.5656346635152
 31
0.0
1001
GRADIENTCOLOR1ACI
1070
     5
1001
GRADIENTCOLOR2ACI
1070
     2
1001
ACAD
1010
0.0
1020
0.0
1030
0.0
  0
LINE
  5
12F0CD
  8
SLIM
 10
3914.9999999999968
 20
-1070.526146905662
 30
0.0
 11
4085.0000000000059
 21
-900.52614690565338
 31
0.0
1001
GRADIENTCOLOR1ACI
1070
     5
1001
GRADIENTCOLOR2ACI
1070
     2
1001
ACAD
1010
0.0
1020
0.0
1030
0.0
  0
LINE
  5
12F0CE
  8
SLIM
 10
3915.3182312960889
 20
-1088.1684278517071
 30
0.0
 11
4085.0000000000059
 21
-918.48665914779201
 31
0.0
1001
GRADIENTCOLOR1ACI
1070
     5
1001
GRADIENTCOLOR2ACI
1070
     2
1001
ACAD
1010
0.0
1020
0.0
1030
0.0
  0
LINE
  5
12F0CF
  8
SLIM
 10
3917.3138437674402
 20
-1104.1333276224959
 30
0.0
 11
4085.0000000000059
 21
-936.44717138993042
 31
0.0
1001
GRADIENTCOLOR1ACI
1070
     5
1001
GRADIENTCOLOR2ACI
1070
     2
1001
ACAD
1010
0.0
1020
0.0
1030
0.0
  0
LINE
  5
12F0D0
  8
SLIM
 10
3919.3094562387892
 20
-1120.0982273932859
 30
0.0
 11
4085.000000000005
 21
-954.40768363206894
 31
0.0
1001
GRADIENTCOLOR1ACI
1070
     5
1001
GRADIENTCOLOR2ACI
1070
     2
1001
ACAD
1010
0.0
1020
0.0
1030
0.0
  0
LINE
  5
12F0D1
  8
SLIM
 10
3930.0
 20
-1127.368195874212
 30
0.0
 11
3932.368195874215
 21
-1124.9999999999991
 31
0.0
1001
GRADIENTCOLOR1ACI
1070
     5
1001
GRADIENTCOLOR2ACI
1070
     2
1001
ACAD
1010
0.0
1020
0.0
1030
0.0
  0
LINE
  5
12F0D2
  8
SLIM
 10
3932.368195874215
 20
-1124.9999999999991
 30
0.0
 11
4085.000000000005
 21
-972.36819587420734
 31
0.0
1001
GRADIENTCOLOR1ACI
1070
     5
1001
GRADIENTCOLOR2ACI
1070
     2
1001
ACAD
1010
0.0
1020
0.0
1030
0.0
  0
LINE
  5
12F0D3
  8
SLIM
 10
3930.3287081163512
 20
-1144.9999999999991
 30
0.0
 11
3950.3287081163521
 21
-1124.9999999999991
 31
0.0
1001
GRADIENTCOLOR1ACI
1070
     5
1001
GRADIENTCOLOR2ACI
1070
     2
1001
ACAD
1010
0.0
1020
0.0
1030
0.0
  0
LINE
  5
12F0D4
  8
SLIM
 10
3950.3287081163521
 20
-1124.9999999999991
 30
0.0
 11
4085.0000000000041
 21
-990.32870811634575
 31
0.0
1001
GRADIENTCOLOR1ACI
1070
     5
1001
GRADIENTCOLOR2ACI
1070
     2
1001
ACAD
1010
0.0
1020
0.0
1030
0.0
  0
LINE
  5
12F0D5
  8
SLIM
 10
3948.2892203584888
 20
-1144.9999999999991
 30
0.0
 11
3968.2892203584888
 21
-1124.9999999999991
 31
0.0
1001
GRADIENTCOLOR1ACI
1070
     5
1001
GRADIENTCOLOR2ACI
1070
     2
1001
ACAD
1010
0.0
1020
0.0
1030
0.0
  0
LINE
  5
12F0D6
  8
SLIM
 10
3968.2892203584888
 20
-1124.9999999999991
 30
0.0
 11
4085.0000000000041
 21
-1008.289220358484
 31
0.0
1001
GRADIENTCOLOR1ACI
1070
     5
1001
GRADIENTCOLOR2ACI
1070
     2
1001
ACAD
1010
0.0
1020
0.0
1030
0.0
  0
LINE
  5
12F0D7
  8
SLIM
 10
3966.2497326006278
 20
-1144.9999999999991
 30
0.0
 11
3986.2497326006278
 21
-1124.9999999999991
 31
0.0
1001
GRADIENTCOLOR1ACI
1070
     5
1001
GRADIENTCOLOR2ACI
1070
     2
1001
ACAD
1010
0.0
1020
0.0
1030
0.0
  0
LINE
  5
12F0D8
  8
SLIM
 10
3986.2497326006278
 20
-1124.9999999999991
 30
0.0
 11
4085.0000000000041
 21
-1026.249732600623
 31
0.0
1001
GRADIENTCOLOR1ACI
1070
     5
1001
GRADIENTCOLOR2ACI
1070
     2
1001
ACAD
1010
0.0
1020
0.0
1030
0.0
  0
LINE
  5
12F0D9
  8
SLIM
 10
3984.2102448427659
 20
-1144.9999999999991
 30
0.0
 11
4004.2102448427659
 21
-1124.9999999999991
 31
0.0
1001
GRADIENTCOLOR1ACI
1070
     5
1001
GRADIENTCOLOR2ACI
1070
     2
1001
ACAD
1010
0.0
1020
0.0
1030
0.0
  0
LINE
  5
12F0DA
  8
SLIM
 10
4004.2102448427659
 20
-1124.9999999999991
 30
0.0
 11
4085.0000000000041
 21
-1044.2102448427611
 31
0.0
1001
GRADIENTCOLOR1ACI
1070
     5
1001
GRADIENTCOLOR2ACI
1070
     2
1001
ACAD
1010
0.0
1020
0.0
1030
0.0
  0
LINE
  5
12F0DB
  8
SLIM
 10
4002.1707570849039
 20
-1144.9999999999991
 30
0.0
 11
4022.1707570849048
 21
-1124.9999999999991
 31
0.0
1001
GRADIENTCOLOR1ACI
1070
     5
1001
GRADIENTCOLOR2ACI
1070
     2
1001
ACAD
1010
0.0
1020
0.0
1030
0.0
  0
LINE
  5
12F0DC
  8
SLIM
 10
4022.1707570849048
 20
-1124.9999999999991
 30
0.0
 11
4085.0000000000041
 21
-1062.1707570849001
 31
0.0
1001
GRADIENTCOLOR1ACI
1070
     5
1001
GRADIENTCOLOR2ACI
1070
     2
1001
ACAD
1010
0.0
1020
0.0
1030
0.0
  0
LINE
  5
12F0DD
  8
SLIM
 10
4020.131269327042
 20
-1144.9999999999991
 30
0.0
 11
4040.1312693270429
 21
-1124.9999999999991
 31
0.0
1001
GRADIENTCOLOR1ACI
1070
     5
1001
GRADIENTCOLOR2ACI
1070
     2
1001
ACAD
1010
0.0
1020
0.0
1030
0.0
  0
LINE
  5
12F0DE
  8
SLIM
 10
4040.1312693270429
 20
-1124.9999999999991
 30
0.0
 11
4085.0000000000032
 21
-1080.1312693270379
 31
0.0
1001
GRADIENTCOLOR1ACI
1070
     5
1001
GRADIENTCOLOR2ACI
1070
     2
1001
ACAD
1010
0.0
1020
0.0
1030
0.0
  0
LINE
  5
12F0DF
  8
SLIM
 10
4038.091781569181
 20
-1144.9999999999991
 30
0.0
 11
4058.091781569181
 21
-1124.9999999999991
 31
0.0
1001
GRADIENTCOLOR1ACI
1070
     5
1001
GRADIENTCOLOR2ACI
1070
     2
1001
ACAD
1010
0.0
1020
0.0
1030
0.0
  0
LINE
  5
12F0E0
  8
SLIM
 10
4058.091781569181
 20
-1124.9999999999991
 30
0.0
 11
4083.2186851305419
 21
-1099.873096438637
 31
0.0
1001
GRADIENTCOLOR1ACI
1070
     5
1001
GRADIENTCOLOR2ACI
1070
     2
1001
ACAD
1010
0.0
1020
0.0
1030
0.0
  0
LINE
  5
12F0E1
  8
SLIM
 10
4056.0522938113181
 20
-1144.9999999999991
 30
0.0
 11
4070.0
 21
-1131.0522938113179
 31
0.0
1001
GRADIENTCOLOR1ACI
1070
     5
1001
GRADIENTCOLOR2ACI
1070
     2
1001
ACAD
1010
0.0
1020
0.0
1030
0.0
  0
LINE
  5
12F0E2
  8
SLIM
 10
4076.052293811319
 20
-1124.9999999999991
 30
0.0
 11
4080.6528976673799
 21
-1120.399396143938
 31
0.0
1001
GRADIENTCOLOR1ACI
1070
     5
1001
GRADIENTCOLOR2ACI
1070
     2
1001
ACAD
1010
0.0
1020
0.0
1030
0.0
  0
LINE
  5
12F0E3
  8
OBJECT
 10
4085.0000000000068
 20
-754.99999999999955
 30
0.0
 11
4085.0000000000032
 21
-1085.6225774829579
 31
0.0
1001
ACDBBLOCKREPETAG
1070
     1
1071
        2
1005
12F0E3
  0
LINE
  5
12F0E4
  8
OBJECT
 10
4085.0000000000068
 20
-754.99999999999955
 30
0.0
 11
3914.9999999999941
 21
-754.99999999999955
 31
0.0
1001
ACDBBLOCKREPETAG
1070
     1
1071
        3
1005
12F0E4
  0
LINE
  5
12F0E5
  8
OBJECT
 10
3919.9221778146289
 20
-1124.9999999999991
 30
0.0
 11
4080.077822185372
 21
-1124.9999999999991
 31
0.0
1001
ACDBBLOCKREPETAG
1070
     1
1071
        3
1005
12F0E5
  0
LINE
  5
12F0E6
  8
OBJECT
 10
4080.077822185372
 20
-1124.9999999999991
 30
0.0
 11
4085.0000000000032
 21
-1085.6225774829579
 31
0.0
1001
ACDBBLOCKREPETAG
1070
     1
1071
       11
1005
0
  0
LINE
  5
12F0E7
  8
OBJECT
 10
3914.9999999999941
 20
-754.99999999999955
 30
0.0
 11
3914.9999999999968
 21
-1085.6225774829579
 31
0.0
1001
ACDBBLOCKREPETAG
1070
     1
1071
        2
1005
12F0E3
  0
LINE
  5
12F0E8
  8
OBJECT
 10
3919.9221778146289
 20
-1124.9999999999991
 30
0.0
 11
3914.9999999999968
 21
-1085.6225774829579
 31
0.0
1001
ACDBBLOCKREPETAG
1070
     1
1071
       11
1005
0
  0
LINE
  5
12F0E9
  8
OBJECT
 10
3930.0
 20
-1125.0
 30
0.0
 11
3930.0
 21
-1144.9999999999991
 31
0.0
1001
ACDBBLOCKREPETAG
1070
     1
1071
       10
1005
0
  0
LINE
  5
12F0EA
  8
OBJECT
 10
3930.0
 20
-1144.9999999999991
 30
0.0
 11
4070.0
 21
-1144.9999999999991
 31
0.0
1001
ACDBBLOCKREPETAG
1070
     1
1071
       11
1005
0
  0
LINE
  5
12F0EB
  8
OBJECT
 10
4070.0
 20
-1144.9999999999991
 30
0.0
 11
4070.0
 21
-1124.9999999999991
 31
0.0
1001
ACDBBLOCKREPETAG
1070
     1
1071
       12
1005
0
  0
LINE
  5
12F0EC
  8
OBJECT
 10
3923.0
 20
-570.99999999999955
 30
0.0
 11
3923.0
 21
-549.99999999999955
 31
0.0
1001
ACDBBLOCKREPETAG
1070
     1
1071
       36
1005
12F0EC
  0
LINE
  5
12F0ED
  8
OBJECT
 10
3923.0
 20
-549.99999999999955
 30
0.0
 11
4077.0
 21
-549.99999999999955
 31
0.0
1001
ACDBBLOCKREPETAG
1070
     1
1071
       37
1005
12F0ED
  0
LINE
  5
12F0EE
  8
HIDDEN
 10
3943.0
 20
-619.99999999999955
 30
0.0
 11
4057.0
 21
-619.99999999999955
 31
0.0
1001
ACDBBLOCKREPETAG
1070
     1
1071
       38
1005
12F0EE
  0
LINE
  5
12F0EF
  8
OBJECT
 10
4077.0
 20
-549.99999999999955
 30
0.0
 11
4077.0
 21
-570.99999999999955
 31
0.0
1001
ACDBBLOCKREPETAG
1070
     1
1071
       39
1005
12F0EF
  0
LINE
  5
12F0F0
  8
OBJECT
 10
4077.0
 20
-570.99999999999955
 30
0.0
 11
3923.0
 21
-570.99999999999955
 31
0.0
1001
ACDBBLOCKREPETAG
1070
     1
1071
       40
1005
12F0F0
  0
LINE
  5
12F0F1
  8
CENTER
 10
4000.0
 20
-534.99999999999955
 30
0.0
 11
4000.0
 21
-769.99999999999955
 31
0.0
1001
ACDBBLOCKREPETAG
1070
     1
1071
       41
1005
12F0F1
  0
LINE
  5
12F0F2
  8
OBJECT
 10
3928.0
 20
-570.99999999999955
 30
0.0
 11
3928.0
 21
-633.99999999999955
 31
0.0
1001
ACDBBLOCKREPETAG
1070
     1
1071
       42
1005
12F0F2
  0
LINE
  5
12F0F3
  8
OBJECT
 10
4072.0
 20
-633.99999999999955
 30
0.0
 11
4072.0
 21
-570.99999999999955
 31
0.0
1001
ACDBBLOCKREPETAG
1070
     1
1071
       43
1005
12F0F3
  0
LINE
  5
12F0F4
  8
OBJECT
 10
3920.0
 20
-757.99999999999955
 30
0.0
 11
4080.0
 21
-757.99999999999955
 31
0.0
1001
ACDBBLOCKREPETAG
1070
     1
1071
       44
1005
12F0F4
  0
LINE
  5
12F0F5
  8
OBJECT
 10
4080.0
 20
-633.99999999999955
 30
0.0
 11
3920.0
 21
-633.99999999999955
 31
0.0
1001
ACDBBLOCKREPETAG
1070
     1
1071
       45
1005
12F0F5
  0
LINE
  5
12F0F6
  8
OBJECT
 10
3920.0
 20
-757.99999999999955
 30
0.0
 11
3920.0
 21
-769.99999999999955
 31
0.0
1001
ACDBBLOCKREPETAG
1070
     1
1071
       46
1005
12F0F6
  0
LINE
  5
12F0F7
  8
OBJECT
 10
3920.0
 20
-769.99999999999955
 30
0.0
 11
4080.0
 21
-769.99999999999955
 31
0.0
1001
ACDBBLOCKREPETAG
1070
     1
1071
       47
1005
12F0F7
  0
LINE
  5
12F0F8
  8
OBJECT
 10
4080.0
 20
-769.99999999999955
 30
0.0
 11
4080.0
 21
-757.99999999999955
 31
0.0
1001
ACDBBLOCKREPETAG
1070
     1
1071
       48
1005
12F0F8
  0
ARC
  5
12F0F9
  8
OBJECT
 10
4200.6872746716726
 20
-749.40809941010718
 30
0.0
 40
170.6350503965856
 50
137.44134459184301
 51
149.91949581337221
1001
ACDBBLOCKREPETAG
1070
     1
1071
       52
1005
12F0F9
  0
ARC
  5
12F0FA
  8
OBJECT
 10
4200.6872746716726
 20
-642.59190058989179
 30
0.0
 40
170.6350503965856
 50
210.08050418662771
 51
222.55865540815699
1001
ACDBBLOCKREPETAG
1070
     1
1071
       53
1005
12F0FA
  0
ARC
  5
12F0FB
  8
OBJECT
 10
3799.3127253283278
 20
-749.40809941010718
 30
0.0
 40
170.6350503965856
 50
30.080504186774089
 51
42.558655408456282
1001
ACDBBLOCKREPETAG
1070
     1
1071
       54
1005
12F0FB
  0
ARC
  5
12F0FC
  8
OBJECT
 10
3799.3127253283278
 20
-642.59190058989179
 30
0.0
 40
170.6350503965856
 50
317.44134459154373
 51
329.91949581322592
1001
ACDBBLOCKREPETAG
1070
     1
1071
       55
1005
12F0FC
  0
POINT
  5
12F0FD
  8
DOTS
 10
4000.0
 20
-754.99999999999955
 30
0.0
1001
ACDBBLOCKREPETAG
1070
     1
1071
      184
1005
12F0FD
  0
LINE
  5
12F0FE
  8
OBJECT
 10
1923.0
 20
-570.99999999999955
 30
0.0
 11
1923.0
 21
-549.99999999999955
 31
0.0
1001
ACDBBLOCKREPETAG
1070
     1
1071
       36
1005
12F0FE
  0
LINE
  5
12F0FF
  8
OBJECT
 10
1923.0
 20
-549.99999999999955
 30
0.0
 11
2077.0
 21
-549.99999999999955
 31
0.0
1001
ACDBBLOCKREPETAG
1070
     1
1071
       37
1005
12F0FF
  0
LINE
  5
12F100
  8
HIDDEN
 10
1943.0
 20
-619.99999999999955
 30
0.0
 11
2057.0
 21
-619.99999999999955
 31
0.0
1001
ACDBBLOCKREPETAG
1070
     1
1071
       38
1005
12F100
  0
LINE
  5
12F101
  8
OBJECT
 10
2077.0
 20
-549.99999999999955
 30
0.0
 11
2077.0
 21
-570.99999999999955
 31
0.0
1001
ACDBBLOCKREPETAG
1070
     1
1071
       39
1005
12F101
  0
LINE
  5
12F102
  8
OBJECT
 10
2077.0
 20
-570.99999999999955
 30
0.0
 11
1923.0
 21
-570.99999999999955
 31
0.0
1001
ACDBBLOCKREPETAG
1070
     1
1071
       40
1005
12F102
  0
LINE
  5
12F103
  8
CENTER
 10
2000.0
 20
-534.99999999999955
 30
0.0
 11
2000.0
 21
-769.99999999999955
 31
0.0
1001
ACDBBLOCKREPETAG
1070
     1
1071
       41
1005
12F103
  0
LINE
  5
12F104
  8
OBJECT
 10
1928.0
 20
-570.99999999999955
 30
0.0
 11
1928.0
 21
-633.99999999999955
 31
0.0
1001
ACDBBLOCKREPETAG
1070
     1
1071
       42
1005
12F104
  0
LINE
  5
12F105
  8
OBJECT
 10
2072.0
 20
-633.99999999999955
 30
0.0
 11
2072.0
 21
-570.99999999999955
 31
0.0
1001
ACDBBLOCKREPETAG
1070
     1
1071
       43
1005
12F105
  0
LINE
  5
12F106
  8
OBJECT
 10
1920.0
 20
-757.99999999999955
 30
0.0
 11
2080.0
 21
-757.99999999999955
 31
0.0
1001
ACDBBLOCKREPETAG
1070
     1
1071
       44
1005
12F106
  0
LINE
  5
12F107
  8
OBJECT
 10
2080.0
 20
-633.99999999999955
 30
0.0
 11
1920.0
 21
-633.99999999999955
 31
0.0
1001
ACDBBLOCKREPETAG
1070
     1
1071
       45
1005
12F107
  0
LINE
  5
12F108
  8
OBJECT
 10
1920.0
 20
-757.99999999999955
 30
0.0
 11
1920.0
 21
-769.99999999999955
 31
0.0
1001
ACDBBLOCKREPETAG
1070
     1
1071
       46
1005
12F108
  0
LINE
  5
12F109
  8
OBJECT
 10
1920.0
 20
-769.99999999999955
 30
0.0
 11
2080.0
 21
-769.99999999999955
 31
0.0
1001
ACDBBLOCKREPETAG
1070
     1
1071
       47
1005
12F109
  0
LINE
  5
12F10A
  8
OBJECT
 10
2080.0
 20
-769.99999999999955
 30
0.0
 11
2080.0
 21
-757.99999999999955
 31
0.0
1001
ACDBBLOCKREPETAG
1070
     1
1071
       48
1005
12F10A
  0
ARC
  5
12F10B
  8
OBJECT
 10
2200.6872746716731
 20
-749.40809941010718
 30
0.0
 40
170.6350503965856
 50
137.44134459184301
 51
149.91949581336559
1001
ACDBBLOCKREPETAG
1070
     1
1071
       52
1005
12F10B
  0
ARC
  5
12F10C
  8
OBJECT
 10
2200.6872746716731
 20
-642.59190058989179
 30
0.0
 40
170.6350503965856
 50
210.0805041866343
 51
222.55865540815699
1001
ACDBBLOCKREPETAG
1070
     1
1071
       53
1005
12F10C
  0
ARC
  5
12F10D
  8
OBJECT
 10
1799.312725328326
 20
-749.40809941010718
 30
0.0
 40
170.6350503965856
 50
30.080504186774089
 51
42.558655408447443
1001
ACDBBLOCKREPETAG
1070
     1
1071
       54
1005
12F10D
  0
ARC
  5
12F10E
  8
OBJECT
 10
1799.312725328326
 20
-642.59190058989179
 30
0.0
 40
170.6350503965856
 50
317.44134459155248
 51
329.91949581322592
1001
ACDBBLOCKREPETAG
1070
     1
1071
       55
1005
12F10E
  0
POINT
  5
12F10F
  8
DOTS
 10
2000.0
 20
-754.99999999999955
 30
0.0
1001
ACDBBLOCKREPETAG
1070
     1
1071
      184
1005
12F10F
  0
TEXT
  5
12F110
  8
SLIM
 10
3554.6000000000008
 20
-1700.666666666664
 30
0.0
 40
28.0
  1
※ 対応スラブ厚　180～（m-10）
 41
0.75
  0
TEXT
  5
12F111
  8
SLIM
 10
3554.6000000000008
 20
-1747.333333333331
 30
0.0
 40
28.0
  1
※ 足切り可能寸法（最大）　500-m（コンパクトＬベンド使用なら+10）
 41
0.75
  0
TEXT
  5
12F112
  8
SLIM
 10
3598.9000000000001
 20
-1840.666666666664
 30
0.0
 40
28.0
  1
国土交通大臣認定・（一財）日本消防設備安全センター性能評定取得品
 41
0.75
  0
TEXT
  5
12F113
  8
SLIM
 10
3631.1000000000022
 20
-1887.333333333331
 30
0.0
 40
28.0
  1
注）ご採用にあたり、認定書及び評定書の内容をご確認ください。
 41
0.75
  0
TEXT
  5
12F114
  8
SLIM
 10
4470.057142857142
 20
-1352.9999999999959
 30
0.0
 40
24.0
  1
180～490
 41
0.75
  0
TEXT
  5
12F115
  8
SLIM
 10
4470.057142857142
 20
-1304.9999999999959
 30
0.0
 40
24.0
  1
180～480
 41
0.75
  0
TEXT
  5
12F116
  8
SLIM
 10
4470.057142857142
 20
-1256.9999999999959
 30
0.0
 40
24.0
  1
180～470
 41
0.75
  0
TEXT
  5
12F117
  8
SLIM
 10
4470.057142857142
 20
-1208.9999999999959
 30
0.0
 40
24.0
  1
180～460
 41
0.75
  0
TEXT
  5
12F118
  8
SLIM
 10
4470.057142857142
 20
-1160.9999999999959
 30
0.0
 40
24.0
  1
180～450
 41
0.75
  0
TEXT
  5
12F119
  8
SLIM
 10
4470.057142857142
 20
-1112.9999999999959
 30
0.0
 40
24.0
  1
180～440
 41
0.75
  0
TEXT
  5
12F11A
  8
SLIM
 10
4470.057142857142
 20
-1064.9999999999959
 30
0.0
 40
24.0
  1
180～430
 41
0.75
  0
TEXT
  5
12F11B
  8
SLIM
 10
4470.057142857142
 20
-1016.999999999996
 30
0.0
 40
24.0
  1
180～420
 41
0.75
  0
TEXT
  5
12F11C
  8
SLIM
 10
4471.7714285714283
 20
-968.99999999999545
 30
0.0
 40
24.0
  1
180～410
 41
0.75
  0
TEXT
  5
12F11D
  8
SLIM
 10
4470.057142857142
 20
-920.99999999999591
 30
0.0
 40
24.0
  1
180～400
 41
0.75
  0
TEXT
  5
12F11E
  8
SLIM
 10
4470.057142857142
 20
-872.99999999999591
 30
0.0
 40
24.0
  1
180～390
 41
0.75
  0
TEXT
  5
12F11F
  8
SLIM
 10
4470.057142857142
 20
-824.99999999999591
 30
0.0
 40
24.0
  1
180～380
 41
0.75
  0
TEXT
  5
12F120
  8
SLIM
 10
4470.057142857142
 20
-776.99999999999591
 30
0.0
 40
24.0
  1
180～370
 41
0.75
  0
TEXT
  5
12F121
  8
SLIM
 10
4470.057142857142
 20
-728.99999999999591
 30
0.0
 40
24.0
  1
180～360
 41
0.75
  0
TEXT
  5
12F122
  8
SLIM
 10
4465.6000000000013
 20
-680.99999999999591
 30
0.0
 40
24.0
  1
対応スラブ厚
 41
0.75
  0
TEXT
  5
12F123
  8
SLIM
 10
4396.4571428571408
 20
-1410.9999999999959
 30
0.0
 40
24.0
  1
標準：m=370
 41
0.75
  0
TEXT
  5
12F124
  8
SLIM
 10
4378.8571428571431
 20
-1352.9999999999959
 30
0.0
 40
24.0
  1
500
 41
0.75
  0
TEXT
  5
12F125
  8
SLIM
 10
4378.8571428571431
 20
-1304.9999999999959
 30
0.0
 40
24.0
  1
490
 41
0.75
  0
TEXT
  5
12F126
  8
SLIM
 10
4378.8571428571431
 20
-1256.9999999999959
 30
0.0
 40
24.0
  1
480
 41
0.75
  0
TEXT
  5
12F127
  8
SLIM
 10
4378.8571428571431
 20
-1208.9999999999959
 30
0.0
 40
24.0
  1
470
 41
0.75
  0
TEXT
  5
12F128
  8
SLIM
 10
4378.8571428571431
 20
-1160.9999999999959
 30
0.0
 40
24.0
  1
460
 41
0.75
  0
TEXT
  5
12F129
  8
SLIM
 10
4378.8571428571431
 20
-1112.9999999999959
 30
0.0
 40
24.0
  1
450
 41
0.75
  0
TEXT
  5
12F12A
  8
SLIM
 10
4378.8571428571431
 20
-1064.9999999999959
 30
0.0
 40
24.0
  1
440
 41
0.75
  0
TEXT
  5
12F12B
  8
SLIM
 10
4378.8571428571431
 20
-1016.999999999996
 30
0.0
 40
24.0
  1
430
 41
0.75
  0
TEXT
  5
12F12C
  8
SLIM
 10
4378.8571428571431
 20
-968.99999999999545
 30
0.0
 40
24.0
  1
420
 41
0.75
  0
TEXT
  5
12F12D
  8
SLIM
 10
4380.5714285714284
 20
-920.99999999999591
 30
0.0
 40
24.0
  1
410
 41
0.75
  0
TEXT
  5
12F12E
  8
SLIM
 10
4378.8571428571431
 20
-872.99999999999591
 30
0.0
 40
24.0
  1
400
 41
0.75
  0
TEXT
  5
12F12F
  8
SLIM
 10
4378.8571428571431
 20
-824.99999999999591
 30
0.0
 40
24.0
  1
390
 41
0.75
  0
TEXT
  5
12F130
  8
SLIM
 10
4378.8571428571431
 20
-776.99999999999591
 30
0.0
 40
24.0
  1
380
 41
0.75
  0
TEXT
  5
12F131
  8
SLIM
 10
4369.9428571428571
 20
-680.99999999999591
 30
0.0
 40
24.0
  1
m寸法
 41
0.75
  0
TEXT
  5
12F132
  8
SLIM
 10
4378.8571428571431
 20
-728.99999999999591
 30
0.0
 40
24.0
  1
370
 41
0.75
  0
LINE
  5
12F133
  8
OBJECT
 10
3925.0
 20
-769.99999999999955
 30
0.0
 11
3925.0
 21
-1042.9999999999991
 31
0.0
1001
ACDBBLOCKREPETAG
1070
     1
1071
        1
1005
12F133
  0
LINE
  5
12F134
  8
OBJECT
 10
4075.0
 20
-769.99999999999375
 30
0.0
 11
4075.0
 21
-1042.9999999999991
 31
0.0
1001
ACDBBLOCKREPETAG
1070
     1
1071
        3
1005
12F134
  0
LINE
  5
12F135
  8
CENTER
 10
4000.0
 20
-769.99999999999955
 30
0.0
 11
4000.0
 21
-1054.9999999999991
 31
0.0
1001
ACDBBLOCKREPETAG
1070
     1
1071
        6
1005
12F135
  0
LINE
  5
12F136
  8
OBJECT
 10
3920.0
 20
-1054.9999999999991
 30
0.0
 11
4080.0
 21
-1054.9999999999991
 31
0.0
1001
ACDBBLOCKREPETAG
1070
     1
1071
        7
1005
12F136
  0
LINE
  5
12F137
  8
OBJECT
 10
3920.0
 20
-1042.9999999999991
 30
0.0
 11
4080.0
 21
-1042.9999999999991
 31
0.0
1001
ACDBBLOCKREPETAG
1070
     1
1071
        8
1005
12F137
  0
LINE
  5
12F138
  8
OBJECT
 10
3920.0
 20
-1042.9999999999991
 30
0.0
 11
3920.0
 21
-1054.9999999999991
 31
0.0
1001
ACDBBLOCKREPETAG
1070
     1
1071
        9
1005
12F138
  0
LINE
  5
12F139
  8
OBJECT
 10
4080.0
 20
-1042.9999999999991
 30
0.0
 11
4080.0
 21
-1054.9999999999991
 31
0.0
1001
ACDBBLOCKREPETAG
1070
     1
1071
       10
1005
12F139
  0
LINE
  5
12F13A
  8
OBJECT
 10
1925.0
 20
-769.99999999999955
 30
0.0
 11
1925.0
 21
-1042.9999999999991
 31
0.0
1001
ACDBBLOCKREPETAG
1070
     1
1071
        1
1005
12F13A
  0
LINE
  5
12F13B
  8
OBJECT
 10
2075.0
 20
-769.99999999999375
 30
0.0
 11
2075.0
 21
-1042.9999999999991
 31
0.0
1001
ACDBBLOCKREPETAG
1070
     1
1071
        3
1005
12F13B
  0
LINE
  5
12F13C
  8
CENTER
 10
2000.0
 20
-769.99999999999955
 30
0.0
 11
2000.0
 21
-1054.9999999999991
 31
0.0
1001
ACDBBLOCKREPETAG
1070
     1
1071
        6
1005
12F13C
  0
LINE
  5
12F13D
  8
OBJECT
 10
1920.0
 20
-1054.9999999999991
 30
0.0
 11
2080.0
 21
-1054.9999999999991
 31
0.0
1001
ACDBBLOCKREPETAG
1070
     1
1071
        7
1005
12F13D
  0
LINE
  5
12F13E
  8
OBJECT
 10
1920.0
 20
-1042.9999999999991
 30
0.0
 11
2080.0
 21
-1042.9999999999991
 31
0.0
1001
ACDBBLOCKREPETAG
1070
     1
1071
        8
1005
12F13E
  0
LINE
  5
12F13F
  8
OBJECT
 10
1920.0
 20
-1042.9999999999991
 30
0.0
 11
1920.0
 21
-1054.9999999999991
 31
0.0
1001
ACDBBLOCKREPETAG
1070
     1
1071
        9
1005
12F13F
  0
LINE
  5
12F140
  8
OBJECT
 10
2080.0
 20
-1042.9999999999991
 30
0.0
 11
2080.0
 21
-1054.9999999999991
 31
0.0
1001
ACDBBLOCKREPETAG
1070
     1
1071
       10
1005
12F140
  0
LINE
  5
12F141
  8
DIM
 10
3904.9999999999941
 20
-755.0
 30
0.0
 11
3839.6616440113221
 21
-754.99999999999966
 31
0.0
  0
LINE
  5
12F142
  8
DIM
 10
3910.0
 20
-1124.9999999999991
 30
0.0
 11
3839.6616440113221
 21
-1124.9999999999991
 31
0.0
  0
LINE
  5
12F143
  8
DIM
 10
3849.6616440113221
 20
-775.0
 30
0.0
 11
3849.6616440113221
 21
-1104.9999999999991
 31
0.0
  0
INSERT
  5
12F144
  8
DIM
  2
_OPEN30
 10
3849.6616440113221
 20
-755.0
 30
0.0
 41
20.0
 42
20.0
 43
20.0
 50
90.0
  0
INSERT
  5
12F145
  8
DIM
  2
_OPEN30
 10
3849.6616440113221
 20
-1124.9999999999991
 30
0.0
 41
20.0
 42
20.0
 43
20.0
 50
270.0
  0
INSERT
  5
12F146
  8
OBJECT
  2
*U3
 10
0.0
 20
0.0
 30
0.0
  0
TEXT
  5
12F147
  8
SLIM
 10
1850.0
 20
532.5
 30
0.0
 40
75.0
  1
側面図の代表機種
 41
0.75
  0
CIRCLE
  5
12F148
  8
OBJECT
 10
5000.0
 20
-3294.9999999999959
 30
0.0
 40
53.5
1001
ACDBBLOCKREPETAG
1070
     1
1071
      344
1005
12F148
  0
LINE
  5
12F149
  8
CENTER
 10
5080.0
 20
-3294.9999999999959
 30
0.0
 11
4905.0
 21
-3294.9999999999959
 31
0.0
1001
ACDBBLOCKREPETAG
1070
     1
1071
       14
1005
12F149
  0
LINE
  5
12F14A
  8
CENTER
 10
5000.0
 20
-3389.9999999999968
 30
0.0
 11
5000.0
 21
-3199.9999999999959
 31
0.0
1001
ACDBBLOCKREPETAG
1070
     1
1071
       15
1005
12F14A
  0
CIRCLE
  5
12F14B
  8
OBJECT
 10
5000.0
 20
-3294.9999999999959
 30
0.0
 40
70.0
1001
ACDBBLOCKREPETAG
1070
     1
1071
       16
1005
12F14B
  0
CIRCLE
  5
12F14C
  8
OBJECT
 10
5000.0
 20
-3294.9999999999959
 30
0.0
 40
77.0
1001
ACDBBLOCKREPETAG
1070
     1
1071
       17
1005
12F14C
  0
ARC
  5
12F14D
  8
OBJECT
 10
5000.0
 20
-3294.9999999999959
 30
0.0
 40
80.0
 50
50.805032573882329
 51
309.19496742611773
1001
ACDBBLOCKREPETAG
1070
     1
1071
       18
1005
12F14D
  0
LINE
  5
12F14E
  8
OBJECT
 10
5045.6618002273253
 20
-3232.9999999999959
 30
0.0
 11
5080.0
 21
-3232.9999999999959
 31
0.0
1001
ACDBBLOCKREPETAG
1070
     1
1071
       19
1005
12F14E
  0
LINE
  5
12F14F
  8
OBJECT
 10
5045.6618002273253
 20
-3356.9999999999959
 30
0.0
 11
5080.0
 21
-3356.9999999999959
 31
0.0
1001
ACDBBLOCKREPETAG
1070
     1
1071
       20
1005
12F14F
  0
POINT
  5
12F150
  8
DOTS
 10
5000.0
 20
-3294.9999999999959
 30
0.0
1001
ACDBBLOCKREPETAG
1070
     1
1071
       21
1005
12F150
  0
CIRCLE
  5
12F151
  8
OBJECT
 10
4000.0
 20
-3294.9999999999959
 30
0.0
 40
53.5
1001
ACDBBLOCKREPETAG
1070
     1
1071
      344
1005
12F151
  0
LINE
  5
12F152
  8
CENTER
 10
4080.0
 20
-3294.9999999999959
 30
0.0
 11
3905.0
 21
-3294.9999999999959
 31
0.0
1001
ACDBBLOCKREPETAG
1070
     1
1071
       14
1005
12F152
  0
LINE
  5
12F153
  8
CENTER
 10
4000.0
 20
-3389.9999999999968
 30
0.0
 11
4000.0
 21
-3199.9999999999959
 31
0.0
1001
ACDBBLOCKREPETAG
1070
     1
1071
       15
1005
12F153
  0
CIRCLE
  5
12F154
  8
OBJECT
 10
4000.0
 20
-3294.9999999999959
 30
0.0
 40
70.0
1001
ACDBBLOCKREPETAG
1070
     1
1071
       16
1005
12F154
  0
CIRCLE
  5
12F155
  8
OBJECT
 10
4000.0
 20
-3294.9999999999959
 30
0.0
 40
77.0
1001
ACDBBLOCKREPETAG
1070
     1
1071
       17
1005
12F155
  0
ARC
  5
12F156
  8
OBJECT
 10
4000.0
 20
-3294.9999999999959
 30
0.0
 40
80.0
 50
50.805032573862128
 51
309.19496742613791
1001
ACDBBLOCKREPETAG
1070
     1
1071
       18
1005
12F156
  0
LINE
  5
12F157
  8
OBJECT
 10
4045.661800227324
 20
-3232.9999999999959
 30
0.0
 11
4080.0
 21
-3232.9999999999959
 31
0.0
1001
ACDBBLOCKREPETAG
1070
     1
1071
       19
1005
12F157
  0
LINE
  5
12F158
  8
OBJECT
 10
4045.661800227324
 20
-3356.9999999999959
 30
0.0
 11
4080.0
 21
-3356.9999999999959
 31
0.0
1001
ACDBBLOCKREPETAG
1070
     1
1071
       20
1005
12F158
  0
POINT
  5
12F159
  8
DOTS
 10
4000.0
 20
-3294.9999999999959
 30
0.0
1001
ACDBBLOCKREPETAG
1070
     1
1071
       21
1005
12F159
  0
CIRCLE
  5
12F15A
  8
OBJECT
 10
3000.0
 20
-3294.9999999999959
 30
0.0
 40
53.5
1001
ACDBBLOCKREPETAG
1070
     1
1071
      344
1005
12F15A
  0
LINE
  5
12F15B
  8
CENTER
 10
3080.0
 20
-3294.9999999999959
 30
0.0
 11
2905.0
 21
-3294.9999999999959
 31
0.0
1001
ACDBBLOCKREPETAG
1070
     1
1071
       14
1005
12F15B
  0
LINE
  5
12F15C
  8
CENTER
 10
3000.0
 20
-3389.9999999999968
 30
0.0
 11
3000.0
 21
-3199.9999999999959
 31
0.0
1001
ACDBBLOCKREPETAG
1070
     1
1071
       15
1005
12F15C
  0
CIRCLE
  5
12F15D
  8
OBJECT
 10
3000.0
 20
-3294.9999999999959
 30
0.0
 40
70.0
1001
ACDBBLOCKREPETAG
1070
     1
1071
       16
1005
12F15D
  0
CIRCLE
  5
12F15E
  8
OBJECT
 10
3000.0
 20
-3294.9999999999959
 30
0.0
 40
77.0
1001
ACDBBLOCKREPETAG
1070
     1
1071
       17
1005
12F15E
  0
ARC
  5
12F15F
  8
OBJECT
 10
3000.0
 20
-3294.9999999999959
 30
0.0
 40
80.0
 50
50.805032573862128
 51
309.19496742613791
1001
ACDBBLOCKREPETAG
1070
     1
1071
       18
1005
12F15F
  0
LINE
  5
12F160
  8
OBJECT
 10
3045.6618002273249
 20
-3232.9999999999959
 30
0.0
 11
3080.0
 21
-3232.9999999999959
 31
0.0
1001
ACDBBLOCKREPETAG
1070
     1
1071
       19
1005
12F160
  0
LINE
  5
12F161
  8
OBJECT
 10
3045.6618002273249
 20
-3356.9999999999959
 30
0.0
 11
3080.0
 21
-3356.9999999999959
 31
0.0
1001
ACDBBLOCKREPETAG
1070
     1
1071
       20
1005
12F161
  0
POINT
  5
12F162
  8
DOTS
 10
3000.0
 20
-3294.9999999999959
 30
0.0
1001
ACDBBLOCKREPETAG
1070
     1
1071
       21
1005
12F162
  0
CIRCLE
  5
12F163
  8
OBJECT
 10
2000.0
 20
-3294.9999999999959
 30
0.0
 40
53.5
1001
ACDBBLOCKREPETAG
1070
     1
1071
      344
1005
12F163
  0
LINE
  5
12F164
  8
CENTER
 10
2080.0
 20
-3294.9999999999959
 30
0.0
 11
1905.0
 21
-3294.9999999999959
 31
0.0
1001
ACDBBLOCKREPETAG
1070
     1
1071
       14
1005
12F164
  0
LINE
  5
12F165
  8
CENTER
 10
2000.0
 20
-3389.9999999999968
 30
0.0
 11
2000.0
 21
-3199.9999999999959
 31
0.0
1001
ACDBBLOCKREPETAG
1070
     1
1071
       15
1005
12F165
  0
CIRCLE
  5
12F166
  8
OBJECT
 10
2000.0
 20
-3294.9999999999959
 30
0.0
 40
70.0
1001
ACDBBLOCKREPETAG
1070
     1
1071
       16
1005
12F166
  0
CIRCLE
  5
12F167
  8
OBJECT
 10
2000.0
 20
-3294.9999999999959
 30
0.0
 40
77.0
1001
ACDBBLOCKREPETAG
1070
     1
1071
       17
1005
12F167
  0
ARC
  5
12F168
  8
OBJECT
 10
2000.0
 20
-3294.9999999999959
 30
0.0
 40
80.0
 50
50.805032573862128
 51
309.19496742613791
1001
ACDBBLOCKREPETAG
1070
     1
1071
       18
1005
12F168
  0
LINE
  5
12F169
  8
OBJECT
 10
2045.6618002273251
 20
-3232.9999999999959
 30
0.0
 11
2080.0
 21
-3232.9999999999959
 31
0.0
1001
ACDBBLOCKREPETAG
1070
     1
1071
       19
1005
12F169
  0
LINE
  5
12F16A
  8
OBJECT
 10
2045.6618002273251
 20
-3356.9999999999959
 30
0.0
 11
2080.0
 21
-3356.9999999999959
 31
0.0
1001
ACDBBLOCKREPETAG
1070
     1
1071
       20
1005
12F16A
  0
POINT
  5
12F16B
  8
DOTS
 10
2000.0
 20
-3294.9999999999959
 30
0.0
1001
ACDBBLOCKREPETAG
1070
     1
1071
       21
1005
12F16B
  0
LINE
  5
12F16C
  8
SLIM
 10
3945.2566704261012
 20
-137.99999999999909
 30
0.0
 11
3955.9548403695781
 21
-127.30183005652231
 31
0.0
1001
GRADIENTCOLOR1ACI
1070
     5
1001
GRADIENTCOLOR2ACI
1070
     2
1001
ACAD
1010
0.0
1020
0.0
1030
0.0
1001
ACDBBLOCKREPETAG
1070
     1
1071
      422
1005
12F16C
  0
LINE
  5
12F16D
  8
SLIM
 10
3954.2369265471712
 20
-137.99999999999909
 30
0.0
 11
3972.7507744763329
 21
-119.4861520708364
 31
0.0
1001
GRADIENTCOLOR1ACI
1070
     5
1001
GRADIENTCOLOR2ACI
1070
     2
1001
ACAD
1010
0.0
1020
0.0
1030
0.0
1001
ACDBBLOCKREPETAG
1070
     1
1071
      423
1005
12F16D
  0
LINE
  5
12F16E
  8
SLIM
 10
3973.521224312457
 20
-127.6959583557812
 30
0.0
 11
3984.8575146748631
 21
-116.359667993377
 31
0.0
1001
GRADIENTCOLOR1ACI
1070
     5
1001
GRADIENTCOLOR2ACI
1070
     2
1001
ACAD
1010
0.0
1020
0.0
1030
0.0
1001
ACDBBLOCKREPETAG
1070
     1
1071
      424
1005
12F16E
  0
LINE
  5
12F16F
  8
SLIM
 10
3985.8944171461271
 20
-124.30302164318159
 30
0.0
 11
3995.0533812002559
 21
-115.1440575890517
 31
0.0
1001
GRADIENTCOLOR1ACI
1070
     5
1001
GRADIENTCOLOR2ACI
1070
     2
1001
ACAD
1010
0.0
1020
0.0
1030
0.0
1001
ACDBBLOCKREPETAG
1070
     1
1071
      425
1005
12F16F
  0
LINE
  5
12F170
  8
SLIM
 10
3996.0777327492078
 20
-123.0999621611699
 30
0.0
 11
4000.0
 21
-119.1776949103767
 31
0.0
1001
GRADIENTCOLOR1ACI
1070
     5
1001
GRADIENTCOLOR2ACI
1070
     2
1001
ACAD
1010
0.0
1020
0.0
1030
0.0
1001
ACDBBLOCKREPETAG
1070
     1
1071
      426
1005
12F170
  0
LINE
  5
12F171
  8
SLIM
 10
4000.0
 20
-119.1776949103767
 30
0.0
 11
4004.0797313529042
 21
-115.0979635574724
 31
0.0
1001
GRADIENTCOLOR1ACI
1070
     5
1001
GRADIENTCOLOR2ACI
1070
     2
1001
ACAD
1010
0.0
1020
0.0
1030
0.0
1001
ACDBBLOCKREPETAG
1070
     1
1071
      427
1005
12F171
  0
LINE
  5
12F172
  8
SLIM
 10
4004.9957202542769
 20
-123.1622307771683
 30
0.0
 11
4012.2679784105749
 21
-115.88997262087101
 31
0.0
1001
GRADIENTCOLOR1ACI
1070
     5
1001
GRADIENTCOLOR2ACI
1070
     2
1001
ACAD
1010
0.0
1020
0.0
1030
0.0
1001
ACDBBLOCKREPETAG
1070
     1
1071
      428
1005
12F172
  0
LINE
  5
12F173
  8
SLIM
 10
4013.028059366964
 20
-124.1101477855505
 30
0.0
 11
4019.799941457361
 21
-117.3382656951526
 31
0.0
1001
GRADIENTCOLOR1ACI
1070
     5
1001
GRADIENTCOLOR2ACI
1070
     2
1001
ACAD
1010
0.0
1020
0.0
1030
0.0
1001
ACDBBLOCKREPETAG
1070
     1
1071
      429
1005
12F173
  0
LINE
  5
12F174
  8
SLIM
 10
4020.3740813142458
 20
-125.7443819593383
 30
0.0
 11
4026.7872038672799
 21
-119.3312594063044
 31
0.0
1001
GRADIENTCOLOR1ACI
1070
     5
1001
GRADIENTCOLOR2ACI
1070
     2
1001
ACAD
1010
0.0
1020
0.0
1030
0.0
1001
ACDBBLOCKREPETAG
1070
     1
1071
      430
1005
12F174
  0
LINE
  5
12F175
  8
SLIM
 10
4027.1524719988752
 20
-127.946247395778
 30
0.0
 11
4033.3030030760328
 21
-121.7957163186195
 31
0.0
1001
GRADIENTCOLOR1ACI
1070
     5
1001
GRADIENTCOLOR2ACI
1070
     2
1001
ACAD
1010
0.0
1020
0.0
1030
0.0
1001
ACDBBLOCKREPETAG
1070
     1
1071
      431
1005
12F175
  0
LINE
  5
12F176
  8
SLIM
 10
4033.4390986513308
 20
-130.63987686439191
 30
0.0
 11
4039.3973119843781
 21
-124.6816635313439
 31
0.0
1001
GRADIENTCOLOR1ACI
1070
     5
1001
GRADIENTCOLOR2ACI
1070
     2
1001
ACAD
1010
0.0
1020
0.0
1030
0.0
1001
ACDBBLOCKREPETAG
1070
     1
1071
      432
1005
12F176
  0
LINE
  5
12F177
  8
SLIM
 10
4039.284224621797
 20
-133.77500701499321
 30
0.0
 11
4045.1047705343681
 21
-127.95446110242381
 31
0.0
1001
GRADIENTCOLOR1ACI
1070
     5
1001
GRADIENTCOLOR2ACI
1070
     2
1001
ACAD
1010
0.0
1020
0.0
1030
0.0
1001
ACDBBLOCKREPETAG
1070
     1
1071
      433
1005
12F177
  0
LINE
  5
12F178
  8
SLIM
 10
4044.7212801698038
 20
-137.31820758805651
 30
0.0
 11
4050.4491557891961
 21
-131.59033196866449
 31
0.0
1001
GRADIENTCOLOR1ACI
1070
     5
1001
GRADIENTCOLOR2ACI
1070
     2
1001
ACAD
1010
0.0
1020
0.0
1030
0.0
1001
ACDBBLOCKREPETAG
1070
     1
1071
      434
1005
12F178
  0
LINE
  5
12F179
  8
SLIM
 10
4053.0197438789291
 20
-137.99999999999909
 30
0.0
 11
4055.4459941864038
 21
-135.57374969252561
 31
0.0
1001
GRADIENTCOLOR1ACI
1070
     5
1001
GRADIENTCOLOR2ACI
1070
     2
1001
ACAD
1010
0.0
1020
0.0
1030
0.0
1001
ACDBBLOCKREPETAG
1070
     1
1071
      435
1005
12F179
  0
LINE
  5
12F17A
  8
CENTER
 10
4000.0
 20
-279.99999999999909
 30
0.0
 11
4000.0
 21
-99.999999999999091
 31
0.0
1001
ACDBBLOCKREPETAG
1070
     1
1071
      160
1005
12F17A
  0
CIRCLE
  5
12F17B
  8
OBJECT
 10
4000.0
 20
-199.99999999999909
 30
0.0
 40
70.0
1001
ACDBBLOCKREPETAG
1070
     1
1071
      161
1005
12F17B
  0
CIRCLE
  5
12F17C
  8
OBJECT
 10
4000.0
 20
-199.99999999999909
 30
0.0
 40
77.0
1001
ACDBBLOCKREPETAG
1070
     1
1071
      162
1005
12F17C
  0
LINE
  5
12F17D
  8
OBJECT
 10
4045.661800227324
 20
-137.99999999999909
 30
0.0
 11
4080.0
 21
-137.99999999999909
 31
0.0
1001
ACDBBLOCKREPETAG
1070
     1
1071
      164
1005
12F17D
  0
LINE
  5
12F17E
  8
OBJECT
 10
4062.0
 20
-261.99999999999909
 30
0.0
 11
4080.0
 21
-261.99999999999909
 31
0.0
1001
ACDBBLOCKREPETAG
1070
     1
1071
      165
1005
12F17E
  0
LINE
  5
12F17F
  8
OBJECT
 10
4062.0
 20
-261.99999999999909
 30
0.0
 11
4062.0
 21
-279.99999999999909
 31
0.0
1001
ACDBBLOCKREPETAG
1070
     1
1071
      167
1005
12F17F
  0
LINE
  5
12F180
  8
OBJECT
 10
3938.0
 20
-261.99999999999909
 30
0.0
 11
3938.0
 21
-279.99999999999909
 31
0.0
1001
ACDBBLOCKREPETAG
1070
     1
1071
      168
1005
12F180
  0
LINE
  5
12F181
  8
OBJECT
 10
3938.0
 20
-261.99999999999909
 30
0.0
 11
3920.0
 21
-261.99999999999909
 31
0.0
1001
ACDBBLOCKREPETAG
1070
     1
1071
      170
1005
12F181
  0
LINE
  5
12F182
  8
OBJECT
 10
3954.338199772676
 20
-137.99999999999909
 30
0.0
 11
3920.0
 21
-137.99999999999909
 31
0.0
1001
ACDBBLOCKREPETAG
1070
     1
1071
      171
1005
12F182
  0
LINE
  5
12F183
  8
OBJECT
 10
3945.5527778486362
 20
-254.44722215136329
 30
0.0
 11
3938.0
 21
-261.99999999999909
 31
0.0
1001
ACDBBLOCKREPETAG
1070
     1
1071
      180
1005
12F183
  0
LINE
  5
12F184
  8
OBJECT
 10
4054.4472221513638
 20
-254.44722215136329
 30
0.0
 11
4062.0
 21
-261.99999999999909
 31
0.0
1001
ACDBBLOCKREPETAG
1070
     1
1071
      181
1005
12F184
  0
POINT
  5
12F185
  8
DOTS
 10
4000.0
 20
-199.99999999999909
 30
0.0
 50
270.0
1001
ACDBBLOCKREPETAG
1070
     1
1071
      182
1005
12F185
  0
ARC
  5
12F186
  8
OBJECT
 10
4000.0
 20
-199.99999999999909
 30
0.0
 40
85.0
 50
46.837102859806208
 51
133.16289714019371
1001
ACDBBLOCKREPETAG
1070
     1
1071
      183
1005
12F186
  0
CIRCLE
  5
12F187
  8
OBJECT
 10
4000.0
 20
-199.99999999999909
 30
0.0
 40
53.5
1001
ACDBBLOCKREPETAG
1070
     1
1071
      352
1005
12F187
  0
LINE
  5
12F188
  8
CENTER
 10
4080.0
 20
-199.99999999999909
 30
0.0
 11
3920.0
 21
-199.99999999999909
 31
0.0
1001
ACDBBLOCKREPETAG
1070
     1
1071
      158
1005
12F188
  0
CIRCLE
  5
12F189
  8
OBJECT
 10
2000.0
 20
-199.99999999999909
 30
0.0
 40
53.5
1001
ACDBBLOCKREPETAG
1070
     1
1071
      340
1005
12F189
  0
LINE
  5
12F18A
  8
CENTER
 10
2080.0
 20
-199.99999999999909
 30
0.0
 11
1920.0
 21
-199.99999999999909
 31
0.0
1001
ACDBBLOCKREPETAG
1070
     1
1071
       49
1005
12F18A
  0
LINE
  5
12F18B
  8
CENTER
 10
2000.0
 20
-279.99999999999909
 30
0.0
 11
2000.0
 21
-104.9999999999991
 31
0.0
1001
ACDBBLOCKREPETAG
1070
     1
1071
       50
1005
12F18B
  0
CIRCLE
  5
12F18C
  8
OBJECT
 10
2000.0
 20
-199.99999999999909
 30
0.0
 40
70.0
1001
ACDBBLOCKREPETAG
1070
     1
1071
       51
1005
12F18C
  0
CIRCLE
  5
12F18D
  8
OBJECT
 10
2000.0
 20
-199.99999999999909
 30
0.0
 40
77.0
1001
ACDBBLOCKREPETAG
1070
     1
1071
       52
1005
12F18D
  0
ARC
  5
12F18E
  8
OBJECT
 10
2000.0
 20
-199.99999999999909
 30
0.0
 40
80.0
 50
50.805032573864182
 51
129.1949674261358
1001
ACDBBLOCKREPETAG
1070
     1
1071
       53
1005
12F18E
  0
LINE
  5
12F18F
  8
OBJECT
 10
2045.6618002273251
 20
-137.99999999999909
 30
0.0
 11
2080.0
 21
-137.99999999999909
 31
0.0
1001
ACDBBLOCKREPETAG
1070
     1
1071
       54
1005
12F18F
  0
LINE
  5
12F190
  8
OBJECT
 10
2062.0
 20
-261.99999999999909
 30
0.0
 11
2080.0
 21
-261.99999999999909
 31
0.0
1001
ACDBBLOCKREPETAG
1070
     1
1071
       55
1005
12F190
  0
LINE
  5
12F191
  8
OBJECT
 10
2062.0
 20
-261.99999999999909
 30
0.0
 11
2062.0
 21
-279.99999999999909
 31
0.0
1001
ACDBBLOCKREPETAG
1070
     1
1071
       57
1005
12F191
  0
LINE
  5
12F192
  8
OBJECT
 10
1938.0
 20
-261.99999999999909
 30
0.0
 11
1938.0
 21
-279.99999999999909
 31
0.0
1001
ACDBBLOCKREPETAG
1070
     1
1071
       58
1005
12F192
  0
POINT
  5
12F193
  8
DOTS
 10
2000.0
 20
-199.99999999999909
 30
0.0
 50
90.0
1001
ACDBBLOCKREPETAG
1070
     1
1071
       59
1005
12F193
  0
LINE
  5
12F194
  8
OBJECT
 10
1938.0
 20
-261.99999999999909
 30
0.0
 11
1920.0
 21
-261.99999999999909
 31
0.0
1001
ACDBBLOCKREPETAG
1070
     1
1071
       60
1005
12F194
  0
LINE
  5
12F195
  8
OBJECT
 10
1954.3381997726749
 20
-137.99999999999909
 30
0.0
 11
1920.0
 21
-137.99999999999909
 31
0.0
1001
ACDBBLOCKREPETAG
1070
     1
1071
       61
1005
12F195
  0
LINE
  5
12F196
  8
OBJECT
 10
1945.5527778486351
 20
-254.44722215136329
 30
0.0
 11
1938.0
 21
-261.99999999999909
 31
0.0
1001
ACDBBLOCKREPETAG
1070
     1
1071
       42
1005
12F196
  0
LINE
  5
12F197
  8
OBJECT
 10
2054.4472221513638
 20
-254.44722215136329
 30
0.0
 11
2062.0
 21
-261.99999999999909
 31
0.0
1001
ACDBBLOCKREPETAG
1070
     1
1071
       43
1005
12F197
  0
CIRCLE
  5
12F198
  8
OBJECT
 10
515.99999999987813
 20
-3467.9999999988931
 30
0.0
 40
70.0
1001
ACDBBLOCKREPETAG
1070
     1
1071
       43
1005
12F198
  0
CIRCLE
  5
12F199
  8
OBJECT
 10
515.99999999987813
 20
-3467.9999999988931
 30
0.0
 40
77.0
1001
ACDBBLOCKREPETAG
1070
     1
1071
       44
1005
12F199
  0
ARC
  5
12F19A
  8
OBJECT
 10
515.99999999987813
 20
-3467.9999999988931
 30
0.0
 40
80.0
 50
140.80503257378879
 51
219.19496742621121
1001
ACDBBLOCKREPETAG
1070
     1
1071
       45
1005
12F19A
  0
LINE
  5
12F19B
  8
OBJECT
 10
453.99999999987801
 20
-3422.3381997715692
 30
0.0
 11
453.99999999987801
 21
-3387.9999999988931
 31
0.0
1001
ACDBBLOCKREPETAG
1070
     1
1071
       46
1005
12F19B
  0
LINE
  5
12F19C
  8
OBJECT
 10
577.99999999987813
 20
-3405.9999999988931
 30
0.0
 11
577.99999999987813
 21
-3387.9999999988931
 31
0.0
1001
ACDBBLOCKREPETAG
1070
     1
1071
       22
1005
12F19C
  0
LINE
  5
12F19D
  8
OBJECT
 10
577.99999999987813
 20
-3405.9999999988931
 30
0.0
 11
595.99999999987813
 21
-3405.9999999988931
 31
0.0
1001
ACDBBLOCKREPETAG
1070
     1
1071
       24
1005
12F19D
  0
LINE
  5
12F19E
  8
OBJECT
 10
577.99999999987813
 20
-3529.9999999988941
 30
0.0
 11
595.99999999987813
 21
-3529.9999999988941
 31
0.0
1001
ACDBBLOCKREPETAG
1070
     1
1071
       25
1005
12F19E
  0
LINE
  5
12F19F
  8
OBJECT
 10
577.99999999987813
 20
-3529.9999999988941
 30
0.0
 11
577.99999999987813
 21
-3547.9999999988931
 31
0.0
1001
ACDBBLOCKREPETAG
1070
     1
1071
       27
1005
12F19F
  0
LINE
  5
12F1A0
  8
OBJECT
 10
453.99999999987801
 20
-3513.6618002262189
 30
0.0
 11
453.99999999987801
 21
-3547.9999999988931
 31
0.0
1001
ACDBBLOCKREPETAG
1070
     1
1071
       28
1005
12F1A0
  0
LINE
  5
12F1A1
  8
OBJECT
 10
570.44722215124239
 20
-3522.4472221502569
 30
0.0
 11
577.99999999987813
 21
-3529.9999999988941
 31
0.0
1001
ACDBBLOCKREPETAG
1070
     1
1071
       37
1005
12F1A1
  0
LINE
  5
12F1A2
  8
OBJECT
 10
570.44722215124239
 20
-3413.5527778475298
 30
0.0
 11
577.99999999987813
 21
-3405.9999999988931
 31
0.0
1001
ACDBBLOCKREPETAG
1070
     1
1071
       38
1005
12F1A2
  0
POINT
  5
12F1A3
  8
DOTS
 10
515.99999999987813
 20
-3467.9999999988931
 30
0.0
1001
ACDBBLOCKREPETAG
1070
     1
1071
       39
1005
12F1A3
  0
CIRCLE
  5
12F1A4
  8
OBJECT
 10
515.99999999987813
 20
-3467.9999999988931
 30
0.0
 40
53.5
1001
ACDBBLOCKREPETAG
1070
     1
1071
      153
1005
12F1A4
  0
CIRCLE
  5
12F1A5
  8
OBJECT
 10
156.0
 20
-3467.9999999988931
 30
0.0
 40
70.0
1001
ACDBBLOCKREPETAG
1070
     1
1071
       43
1005
12F1A5
  0
CIRCLE
  5
12F1A6
  8
OBJECT
 10
156.0
 20
-3467.9999999988931
 30
0.0
 40
77.0
1001
ACDBBLOCKREPETAG
1070
     1
1071
       44
1005
12F1A6
  0
ARC
  5
12F1A7
  8
OBJECT
 10
156.0
 20
-3467.9999999988931
 30
0.0
 40
80.0
 50
140.80503257378979
 51
219.1949674262101
1001
ACDBBLOCKREPETAG
1070
     1
1071
       45
1005
12F1A7
  0
LINE
  5
12F1A8
  8
OBJECT
 10
94.0
 20
-3422.3381997715692
 30
0.0
 11
94.0
 21
-3387.9999999988931
 31
0.0
1001
ACDBBLOCKREPETAG
1070
     1
1071
       46
1005
12F1A8
  0
LINE
  5
12F1A9
  8
OBJECT
 10
218.0
 20
-3405.9999999988931
 30
0.0
 11
218.0
 21
-3387.9999999988931
 31
0.0
1001
ACDBBLOCKREPETAG
1070
     1
1071
       22
1005
12F1A9
  0
LINE
  5
12F1AA
  8
OBJECT
 10
218.0
 20
-3405.9999999988931
 30
0.0
 11
236.0
 21
-3405.9999999988931
 31
0.0
1001
ACDBBLOCKREPETAG
1070
     1
1071
       24
1005
12F1AA
  0
LINE
  5
12F1AB
  8
OBJECT
 10
218.0
 20
-3529.9999999988941
 30
0.0
 11
236.0
 21
-3529.9999999988941
 31
0.0
1001
ACDBBLOCKREPETAG
1070
     1
1071
       25
1005
12F1AB
  0
LINE
  5
12F1AC
  8
OBJECT
 10
218.0
 20
-3529.9999999988941
 30
0.0
 11
218.0
 21
-3547.9999999988931
 31
0.0
1001
ACDBBLOCKREPETAG
1070
     1
1071
       27
1005
12F1AC
  0
LINE
  5
12F1AD
  8
OBJECT
 10
94.0
 20
-3513.6618002262189
 30
0.0
 11
94.0
 21
-3547.9999999988931
 31
0.0
1001
ACDBBLOCKREPETAG
1070
     1
1071
       28
1005
12F1AD
  0
LINE
  5
12F1AE
  8
OBJECT
 10
210.44722215136409
 20
-3522.4472221502569
 30
0.0
 11
218.0
 21
-3529.9999999988941
 31
0.0
1001
ACDBBLOCKREPETAG
1070
     1
1071
       37
1005
12F1AE
  0
LINE
  5
12F1AF
  8
OBJECT
 10
210.44722215136409
 20
-3413.5527778475298
 30
0.0
 11
218.0
 21
-3405.9999999988931
 31
0.0
1001
ACDBBLOCKREPETAG
1070
     1
1071
       38
1005
12F1AF
  0
POINT
  5
12F1B0
  8
DOTS
 10
156.0
 20
-3467.9999999988931
 30
0.0
1001
ACDBBLOCKREPETAG
1070
     1
1071
       39
1005
12F1B0
  0
CIRCLE
  5
12F1B1
  8
OBJECT
 10
156.0
 20
-3467.9999999988931
 30
0.0
 40
53.5
1001
ACDBBLOCKREPETAG
1070
     1
1071
      153
1005
12F1B1
  0
CIRCLE
  5
12F1B2
  8
OBJECT
 10
515.99999999987813
 20
-3003.9999999990509
 30
0.0
 40
70.0
1001
ACDBBLOCKREPETAG
1070
     1
1071
       43
1005
12F1B2
  0
CIRCLE
  5
12F1B3
  8
OBJECT
 10
515.99999999987813
 20
-3003.9999999990509
 30
0.0
 40
77.0
1001
ACDBBLOCKREPETAG
1070
     1
1071
       44
1005
12F1B3
  0
ARC
  5
12F1B4
  8
OBJECT
 10
515.99999999987813
 20
-3003.9999999990509
 30
0.0
 40
80.0
 50
140.80503257378879
 51
219.19496742621121
1001
ACDBBLOCKREPETAG
1070
     1
1071
       45
1005
12F1B4
  0
LINE
  5
12F1B5
  8
OBJECT
 10
453.99999999987801
 20
-2958.338199771727
 30
0.0
 11
453.99999999987801
 21
-2923.9999999990532
 31
0.0
1001
ACDBBLOCKREPETAG
1070
     1
1071
       46
1005
12F1B5
  0
LINE
  5
12F1B6
  8
OBJECT
 10
577.99999999987813
 20
-2941.9999999990509
 30
0.0
 11
577.99999999987813
 21
-2923.9999999990532
 31
0.0
1001
ACDBBLOCKREPETAG
1070
     1
1071
       22
1005
12F1B6
  0
LINE
  5
12F1B7
  8
OBJECT
 10
577.99999999987813
 20
-2941.9999999990509
 30
0.0
 11
595.99999999987813
 21
-2941.9999999990509
 31
0.0
1001
ACDBBLOCKREPETAG
1070
     1
1071
       24
1005
12F1B7
  0
LINE
  5
12F1B8
  8
OBJECT
 10
577.99999999987813
 20
-3065.9999999990532
 30
0.0
 11
595.99999999987813
 21
-3065.9999999990532
 31
0.0
1001
ACDBBLOCKREPETAG
1070
     1
1071
       25
1005
12F1B8
  0
LINE
  5
12F1B9
  8
OBJECT
 10
577.99999999987813
 20
-3065.9999999990532
 30
0.0
 11
577.99999999987813
 21
-3083.9999999990509
 31
0.0
1001
ACDBBLOCKREPETAG
1070
     1
1071
       27
1005
12F1B9
  0
LINE
  5
12F1BA
  8
OBJECT
 10
453.99999999987801
 20
-3049.6618002263758
 30
0.0
 11
453.99999999987801
 21
-3083.9999999990509
 31
0.0
1001
ACDBBLOCKREPETAG
1070
     1
1071
       28
1005
12F1BA
  0
LINE
  5
12F1BB
  8
OBJECT
 10
570.44722215124239
 20
-3058.4472221504161
 30
0.0
 11
577.99999999987813
 21
-3065.9999999990532
 31
0.0
1001
ACDBBLOCKREPETAG
1070
     1
1071
       37
1005
12F1BB
  0
LINE
  5
12F1BC
  8
OBJECT
 10
570.44722215124239
 20
-2949.5527778476871
 30
0.0
 11
577.99999999987813
 21
-2941.9999999990509
 31
0.0
1001
ACDBBLOCKREPETAG
1070
     1
1071
       38
1005
12F1BC
  0
POINT
  5
12F1BD
  8
DOTS
 10
515.99999999987813
 20
-3003.9999999990509
 30
0.0
1001
ACDBBLOCKREPETAG
1070
     1
1071
       39
1005
12F1BD
  0
CIRCLE
  5
12F1BE
  8
OBJECT
 10
515.99999999987813
 20
-3003.9999999990509
 30
0.0
 40
53.5
1001
ACDBBLOCKREPETAG
1070
     1
1071
      153
1005
12F1BE
  0
CIRCLE
  5
12F1BF
  8
OBJECT
 10
156.0
 20
-3003.9999999990509
 30
0.0
 40
70.0
1001
ACDBBLOCKREPETAG
1070
     1
1071
       43
1005
12F1BF
  0
CIRCLE
  5
12F1C0
  8
OBJECT
 10
156.0
 20
-3003.9999999990509
 30
0.0
 40
77.0
1001
ACDBBLOCKREPETAG
1070
     1
1071
       44
1005
12F1C0
  0
ARC
  5
12F1C1
  8
OBJECT
 10
156.0
 20
-3003.9999999990509
 30
0.0
 40
80.0
 50
140.80503257378979
 51
219.1949674262101
1001
ACDBBLOCKREPETAG
1070
     1
1071
       45
1005
12F1C1
  0
LINE
  5
12F1C2
  8
OBJECT
 10
94.0
 20
-2958.3381997717261
 30
0.0
 11
94.0
 21
-2923.9999999990509
 31
0.0
1001
ACDBBLOCKREPETAG
1070
     1
1071
       46
1005
12F1C2
  0
LINE
  5
12F1C3
  8
OBJECT
 10
218.0
 20
-2941.9999999990509
 30
0.0
 11
218.0
 21
-2923.9999999990509
 31
0.0
1001
ACDBBLOCKREPETAG
1070
     1
1071
       22
1005
12F1C3
  0
LINE
  5
12F1C4
  8
OBJECT
 10
218.0
 20
-2941.9999999990509
 30
0.0
 11
236.0
 21
-2941.9999999990509
 31
0.0
1001
ACDBBLOCKREPETAG
1070
     1
1071
       24
1005
12F1C4
  0
LINE
  5
12F1C5
  8
OBJECT
 10
218.0
 20
-3065.99999999905
 30
0.0
 11
236.0
 21
-3065.99999999905
 31
0.0
1001
ACDBBLOCKREPETAG
1070
     1
1071
       25
1005
12F1C5
  0
LINE
  5
12F1C6
  8
OBJECT
 10
218.0
 20
-3065.99999999905
 30
0.0
 11
218.0
 21
-3083.9999999990509
 31
0.0
1001
ACDBBLOCKREPETAG
1070
     1
1071
       27
1005
12F1C6
  0
LINE
  5
12F1C7
  8
OBJECT
 10
94.0
 20
-3049.6618002263749
 30
0.0
 11
94.0
 21
-3083.9999999990509
 31
0.0
1001
ACDBBLOCKREPETAG
1070
     1
1071
       28
1005
12F1C7
  0
LINE
  5
12F1C8
  8
OBJECT
 10
210.44722215136409
 20
-3058.4472221504152
 30
0.0
 11
218.0
 21
-3065.99999999905
 31
0.0
1001
ACDBBLOCKREPETAG
1070
     1
1071
       37
1005
12F1C8
  0
LINE
  5
12F1C9
  8
OBJECT
 10
210.44722215136409
 20
-2949.5527778476849
 30
0.0
 11
218.0
 21
-2941.9999999990509
 31
0.0
1001
ACDBBLOCKREPETAG
1070
     1
1071
       38
1005
12F1C9
  0
POINT
  5
12F1CA
  8
DOTS
 10
156.0
 20
-3003.9999999990509
 30
0.0
1001
ACDBBLOCKREPETAG
1070
     1
1071
       39
1005
12F1CA
  0
CIRCLE
  5
12F1CB
  8
OBJECT
 10
156.0
 20
-3003.9999999990509
 30
0.0
 40
53.5
1001
ACDBBLOCKREPETAG
1070
     1
1071
      153
1005
12F1CB
  0
CIRCLE
  5
12F1CC
  8
OBJECT
 10
515.99999999987779
 20
-2539.9999999992101
 30
0.0
 40
70.0
1001
ACDBBLOCKREPETAG
1070
     1
1071
       43
1005
12F1CC
  0
CIRCLE
  5
12F1CD
  8
OBJECT
 10
515.99999999987779
 20
-2539.9999999992101
 30
0.0
 40
77.0
1001
ACDBBLOCKREPETAG
1070
     1
1071
       44
1005
12F1CD
  0
ARC
  5
12F1CE
  8
OBJECT
 10
515.99999999987779
 20
-2539.9999999992101
 30
0.0
 40
80.0
 50
140.80503257378879
 51
219.19496742621121
1001
ACDBBLOCKREPETAG
1070
     1
1071
       45
1005
12F1CE
  0
LINE
  5
12F1CF
  8
OBJECT
 10
453.99999999987767
 20
-2494.3381997718848
 30
0.0
 11
453.99999999987767
 21
-2459.9999999992101
 31
0.0
1001
ACDBBLOCKREPETAG
1070
     1
1071
       46
1005
12F1CF
  0
LINE
  5
12F1D0
  8
OBJECT
 10
577.99999999987779
 20
-2477.9999999992101
 30
0.0
 11
577.99999999987779
 21
-2459.9999999992101
 31
0.0
1001
ACDBBLOCKREPETAG
1070
     1
1071
       22
1005
12F1D0
  0
LINE
  5
12F1D1
  8
OBJECT
 10
577.99999999987779
 20
-2477.9999999992101
 30
0.0
 11
595.99999999987756
 21
-2477.9999999992101
 31
0.0
1001
ACDBBLOCKREPETAG
1070
     1
1071
       24
1005
12F1D1
  0
LINE
  5
12F1D2
  8
OBJECT
 10
577.99999999987779
 20
-2601.9999999992101
 30
0.0
 11
595.99999999987756
 21
-2601.9999999992101
 31
0.0
1001
ACDBBLOCKREPETAG
1070
     1
1071
       25
1005
12F1D2
  0
LINE
  5
12F1D3
  8
OBJECT
 10
577.99999999987779
 20
-2601.9999999992101
 30
0.0
 11
577.99999999987779
 21
-2619.9999999992101
 31
0.0
1001
ACDBBLOCKREPETAG
1070
     1
1071
       27
1005
12F1D3
  0
LINE
  5
12F1D4
  8
OBJECT
 10
453.99999999987767
 20
-2585.6618002265341
 30
0.0
 11
453.99999999987767
 21
-2619.9999999992101
 31
0.0
1001
ACDBBLOCKREPETAG
1070
     1
1071
       28
1005
12F1D4
  0
LINE
  5
12F1D5
  8
OBJECT
 10
570.44722215124204
 20
-2594.4472221505739
 30
0.0
 11
577.99999999987779
 21
-2601.9999999992101
 31
0.0
1001
ACDBBLOCKREPETAG
1070
     1
1071
       37
1005
12F1D5
  0
LINE
  5
12F1D6
  8
OBJECT
 10
570.44722215124204
 20
-2485.5527778478449
 30
0.0
 11
577.99999999987779
 21
-2477.9999999992101
 31
0.0
1001
ACDBBLOCKREPETAG
1070
     1
1071
       38
1005
12F1D6
  0
POINT
  5
12F1D7
  8
DOTS
 10
515.99999999987779
 20
-2539.9999999992101
 30
0.0
1001
ACDBBLOCKREPETAG
1070
     1
1071
       39
1005
12F1D7
  0
CIRCLE
  5
12F1D8
  8
OBJECT
 10
515.99999999987779
 20
-2539.9999999992101
 30
0.0
 40
53.5
1001
ACDBBLOCKREPETAG
1070
     1
1071
      153
1005
12F1D8
  0
CIRCLE
  5
12F1D9
  8
OBJECT
 10
155.9999999999996
 20
-2539.9999999992101
 30
0.0
 40
70.0
1001
ACDBBLOCKREPETAG
1070
     1
1071
       43
1005
12F1D9
  0
CIRCLE
  5
12F1DA
  8
OBJECT
 10
155.9999999999996
 20
-2539.9999999992101
 30
0.0
 40
77.0
1001
ACDBBLOCKREPETAG
1070
     1
1071
       44
1005
12F1DA
  0
ARC
  5
12F1DB
  8
OBJECT
 10
155.9999999999996
 20
-2539.9999999992101
 30
0.0
 40
80.0
 50
140.80503257378979
 51
219.1949674262101
1001
ACDBBLOCKREPETAG
1070
     1
1071
       45
1005
12F1DB
  0
LINE
  5
12F1DC
  8
OBJECT
 10
93.999999999999659
 20
-2494.3381997718848
 30
0.0
 11
93.999999999999659
 21
-2459.9999999992101
 31
0.0
1001
ACDBBLOCKREPETAG
1070
     1
1071
       46
1005
12F1DC
  0
LINE
  5
12F1DD
  8
OBJECT
 10
217.99999999999969
 20
-2477.9999999992101
 30
0.0
 11
217.99999999999969
 21
-2459.9999999992101
 31
0.0
1001
ACDBBLOCKREPETAG
1070
     1
1071
       22
1005
12F1DD
  0
LINE
  5
12F1DE
  8
OBJECT
 10
217.99999999999969
 20
-2477.9999999992101
 30
0.0
 11
235.99999999999969
 21
-2477.9999999992101
 31
0.0
1001
ACDBBLOCKREPETAG
1070
     1
1071
       24
1005
12F1DE
  0
LINE
  5
12F1DF
  8
OBJECT
 10
217.99999999999969
 20
-2601.9999999992101
 30
0.0
 11
235.99999999999969
 21
-2601.9999999992101
 31
0.0
1001
ACDBBLOCKREPETAG
1070
     1
1071
       25
1005
12F1DF
  0
LINE
  5
12F1E0
  8
OBJECT
 10
217.99999999999969
 20
-2601.9999999992101
 30
0.0
 11
217.99999999999969
 21
-2619.9999999992101
 31
0.0
1001
ACDBBLOCKREPETAG
1070
     1
1071
       27
1005
12F1E0
  0
LINE
  5
12F1E1
  8
OBJECT
 10
93.999999999999659
 20
-2585.6618002265341
 30
0.0
 11
93.999999999999659
 21
-2619.9999999992101
 31
0.0
1001
ACDBBLOCKREPETAG
1070
     1
1071
       28
1005
12F1E1
  0
LINE
  5
12F1E2
  8
OBJECT
 10
210.4472221513638
 20
-2594.4472221505739
 30
0.0
 11
217.99999999999969
 21
-2601.9999999992101
 31
0.0
1001
ACDBBLOCKREPETAG
1070
     1
1071
       37
1005
12F1E2
  0
LINE
  5
12F1E3
  8
OBJECT
 10
210.4472221513638
 20
-2485.5527778478449
 30
0.0
 11
217.99999999999969
 21
-2477.9999999992101
 31
0.0
1001
ACDBBLOCKREPETAG
1070
     1
1071
       38
1005
12F1E3
  0
POINT
  5
12F1E4
  8
DOTS
 10
155.9999999999996
 20
-2539.9999999992101
 30
0.0
1001
ACDBBLOCKREPETAG
1070
     1
1071
       39
1005
12F1E4
  0
CIRCLE
  5
12F1E5
  8
OBJECT
 10
155.9999999999996
 20
-2539.9999999992101
 30
0.0
 40
53.5
1001
ACDBBLOCKREPETAG
1070
     1
1071
      153
1005
12F1E5
  0
CIRCLE
  5
12F1E6
  8
OBJECT
 10
515.99999999987779
 20
-2075.9999999993679
 30
0.0
 40
70.0
1001
ACDBBLOCKREPETAG
1070
     1
1071
       43
1005
12F1E6
  0
CIRCLE
  5
12F1E7
  8
OBJECT
 10
515.99999999987779
 20
-2075.9999999993679
 30
0.0
 40
77.0
1001
ACDBBLOCKREPETAG
1070
     1
1071
       44
1005
12F1E7
  0
ARC
  5
12F1E8
  8
OBJECT
 10
515.99999999987779
 20
-2075.9999999993679
 30
0.0
 40
80.0
 50
140.80503257378879
 51
219.19496742621121
1001
ACDBBLOCKREPETAG
1070
     1
1071
       45
1005
12F1E8
  0
LINE
  5
12F1E9
  8
OBJECT
 10
453.99999999987767
 20
-2030.3381997720439
 30
0.0
 11
453.99999999987767
 21
-1995.9999999993679
 31
0.0
1001
ACDBBLOCKREPETAG
1070
     1
1071
       46
1005
12F1E9
  0
LINE
  5
12F1EA
  8
OBJECT
 10
577.99999999987779
 20
-2013.9999999993679
 30
0.0
 11
577.99999999987779
 21
-1995.9999999993679
 31
0.0
1001
ACDBBLOCKREPETAG
1070
     1
1071
       22
1005
12F1EA
  0
LINE
  5
12F1EB
  8
OBJECT
 10
577.99999999987779
 20
-2013.9999999993679
 30
0.0
 11
595.99999999987756
 21
-2013.9999999993679
 31
0.0
1001
ACDBBLOCKREPETAG
1070
     1
1071
       24
1005
12F1EB
  0
LINE
  5
12F1EC
  8
OBJECT
 10
577.99999999987779
 20
-2137.9999999993679
 30
0.0
 11
595.99999999987756
 21
-2137.9999999993679
 31
0.0
1001
ACDBBLOCKREPETAG
1070
     1
1071
       25
1005
12F1EC
  0
LINE
  5
12F1ED
  8
OBJECT
 10
577.99999999987779
 20
-2137.9999999993679
 30
0.0
 11
577.99999999987779
 21
-2155.9999999993679
 31
0.0
1001
ACDBBLOCKREPETAG
1070
     1
1071
       27
1005
12F1ED
  0
LINE
  5
12F1EE
  8
OBJECT
 10
453.99999999987767
 20
-2121.6618002266919
 30
0.0
 11
453.99999999987767
 21
-2155.9999999993679
 31
0.0
1001
ACDBBLOCKREPETAG
1070
     1
1071
       28
1005
12F1EE
  0
LINE
  5
12F1EF
  8
OBJECT
 10
570.44722215124204
 20
-2130.4472221507322
 30
0.0
 11
577.99999999987779
 21
-2137.9999999993679
 31
0.0
1001
ACDBBLOCKREPETAG
1070
     1
1071
       37
1005
12F1EF
  0
LINE
  5
12F1F0
  8
OBJECT
 10
570.44722215124204
 20
-2021.5527778480041
 30
0.0
 11
577.99999999987779
 21
-2013.9999999993679
 31
0.0
1001
ACDBBLOCKREPETAG
1070
     1
1071
       38
1005
12F1F0
  0
POINT
  5
12F1F1
  8
DOTS
 10
515.99999999987779
 20
-2075.9999999993679
 30
0.0
1001
ACDBBLOCKREPETAG
1070
     1
1071
       39
1005
12F1F1
  0
CIRCLE
  5
12F1F2
  8
OBJECT
 10
515.99999999987779
 20
-2075.9999999993679
 30
0.0
 40
53.5
1001
ACDBBLOCKREPETAG
1070
     1
1071
      153
1005
12F1F2
  0
CIRCLE
  5
12F1F3
  8
OBJECT
 10
155.9999999999996
 20
-2075.999999999367
 30
0.0
 40
70.0
1001
ACDBBLOCKREPETAG
1070
     1
1071
       43
1005
12F1F3
  0
CIRCLE
  5
12F1F4
  8
OBJECT
 10
155.9999999999996
 20
-2075.999999999367
 30
0.0
 40
77.0
1001
ACDBBLOCKREPETAG
1070
     1
1071
       44
1005
12F1F4
  0
ARC
  5
12F1F5
  8
OBJECT
 10
155.9999999999996
 20
-2075.999999999367
 30
0.0
 40
80.0
 50
140.80503257378979
 51
219.1949674262101
1001
ACDBBLOCKREPETAG
1070
     1
1071
       45
1005
12F1F5
  0
LINE
  5
12F1F6
  8
OBJECT
 10
93.999999999999659
 20
-2030.3381997720419
 30
0.0
 11
93.999999999999659
 21
-1995.999999999367
 31
0.0
1001
ACDBBLOCKREPETAG
1070
     1
1071
       46
1005
12F1F6
  0
LINE
  5
12F1F7
  8
OBJECT
 10
217.99999999999969
 20
-2013.999999999367
 30
0.0
 11
217.99999999999969
 21
-1995.999999999367
 31
0.0
1001
ACDBBLOCKREPETAG
1070
     1
1071
       22
1005
12F1F7
  0
LINE
  5
12F1F8
  8
OBJECT
 10
217.99999999999969
 20
-2013.999999999367
 30
0.0
 11
235.99999999999969
 21
-2013.999999999367
 31
0.0
1001
ACDBBLOCKREPETAG
1070
     1
1071
       24
1005
12F1F8
  0
LINE
  5
12F1F9
  8
OBJECT
 10
217.99999999999969
 20
-2137.999999999367
 30
0.0
 11
235.99999999999969
 21
-2137.999999999367
 31
0.0
1001
ACDBBLOCKREPETAG
1070
     1
1071
       25
1005
12F1F9
  0
LINE
  5
12F1FA
  8
OBJECT
 10
217.99999999999969
 20
-2137.999999999367
 30
0.0
 11
217.99999999999969
 21
-2155.999999999367
 31
0.0
1001
ACDBBLOCKREPETAG
1070
     1
1071
       27
1005
12F1FA
  0
LINE
  5
12F1FB
  8
OBJECT
 10
93.999999999999659
 20
-2121.6618002266919
 30
0.0
 11
93.999999999999659
 21
-2155.999999999367
 31
0.0
1001
ACDBBLOCKREPETAG
1070
     1
1071
       28
1005
12F1FB
  0
LINE
  5
12F1FC
  8
OBJECT
 10
210.4472221513638
 20
-2130.4472221507308
 30
0.0
 11
217.99999999999969
 21
-2137.999999999367
 31
0.0
1001
ACDBBLOCKREPETAG
1070
     1
1071
       37
1005
12F1FC
  0
LINE
  5
12F1FD
  8
OBJECT
 10
210.4472221513638
 20
-2021.552777848003
 30
0.0
 11
217.99999999999969
 21
-2013.999999999367
 31
0.0
1001
ACDBBLOCKREPETAG
1070
     1
1071
       38
1005
12F1FD
  0
POINT
  5
12F1FE
  8
DOTS
 10
155.9999999999996
 20
-2075.999999999367
 30
0.0
1001
ACDBBLOCKREPETAG
1070
     1
1071
       39
1005
12F1FE
  0
CIRCLE
  5
12F1FF
  8
OBJECT
 10
155.9999999999996
 20
-2075.999999999367
 30
0.0
 40
53.5
1001
ACDBBLOCKREPETAG
1070
     1
1071
      153
1005
12F1FF
  0
CIRCLE
  5
12F200
  8
OBJECT
 10
515.99999999987801
 20
-1611.9999999995259
 30
0.0
 40
70.0
1001
ACDBBLOCKREPETAG
1070
     1
1071
       43
1005
12F200
  0
CIRCLE
  5
12F201
  8
OBJECT
 10
515.99999999987801
 20
-1611.9999999995259
 30
0.0
 40
77.0
1001
ACDBBLOCKREPETAG
1070
     1
1071
       44
1005
12F201
  0
ARC
  5
12F202
  8
OBJECT
 10
515.99999999987801
 20
-1611.9999999995259
 30
0.0
 40
80.0
 50
140.8050325737787
 51
219.1949674262213
1001
ACDBBLOCKREPETAG
1070
     1
1071
       45
1005
12F202
  0
LINE
  5
12F203
  8
OBJECT
 10
453.99999999987801
 20
-1566.338199772202
 30
0.0
 11
453.99999999987801
 21
-1531.9999999995259
 31
0.0
1001
ACDBBLOCKREPETAG
1070
     1
1071
       46
1005
12F203
  0
LINE
  5
12F204
  8
OBJECT
 10
577.9999999998779
 20
-1549.9999999995259
 30
0.0
 11
577.9999999998779
 21
-1531.9999999995259
 31
0.0
1001
ACDBBLOCKREPETAG
1070
     1
1071
       22
1005
12F204
  0
LINE
  5
12F205
  8
OBJECT
 10
577.9999999998779
 20
-1549.9999999995259
 30
0.0
 11
595.99999999987801
 21
-1549.9999999995259
 31
0.0
1001
ACDBBLOCKREPETAG
1070
     1
1071
       24
1005
12F205
  0
LINE
  5
12F206
  8
OBJECT
 10
577.9999999998779
 20
-1673.9999999995259
 30
0.0
 11
595.99999999987801
 21
-1673.9999999995259
 31
0.0
1001
ACDBBLOCKREPETAG
1070
     1
1071
       25
1005
12F206
  0
LINE
  5
12F207
  8
OBJECT
 10
577.9999999998779
 20
-1673.9999999995259
 30
0.0
 11
577.9999999998779
 21
-1691.9999999995259
 31
0.0
1001
ACDBBLOCKREPETAG
1070
     1
1071
       27
1005
12F207
  0
LINE
  5
12F208
  8
OBJECT
 10
453.99999999987801
 20
-1657.661800226851
 30
0.0
 11
453.99999999987801
 21
-1691.9999999995259
 31
0.0
1001
ACDBBLOCKREPETAG
1070
     1
1071
       28
1005
12F208
  0
LINE
  5
12F209
  8
OBJECT
 10
570.44722215124204
 20
-1666.44722215089
 30
0.0
 11
577.9999999998779
 21
-1673.9999999995259
 31
0.0
1001
ACDBBLOCKREPETAG
1070
     1
1071
       37
1005
12F209
  0
LINE
  5
12F20A
  8
OBJECT
 10
570.44722215124204
 20
-1557.5527778481619
 30
0.0
 11
577.9999999998779
 21
-1549.9999999995259
 31
0.0
1001
ACDBBLOCKREPETAG
1070
     1
1071
       38
1005
12F20A
  0
POINT
  5
12F20B
  8
DOTS
 10
515.99999999987801
 20
-1611.9999999995259
 30
0.0
1001
ACDBBLOCKREPETAG
1070
     1
1071
       39
1005
12F20B
  0
CIRCLE
  5
12F20C
  8
OBJECT
 10
515.99999999987801
 20
-1611.9999999995259
 30
0.0
 40
53.5
1001
ACDBBLOCKREPETAG
1070
     1
1071
      153
1005
12F20C
  0
CIRCLE
  5
12F20D
  8
OBJECT
 10
155.9999999999998
 20
-1611.9999999995259
 30
0.0
 40
70.0
1001
ACDBBLOCKREPETAG
1070
     1
1071
       43
1005
12F20D
  0
CIRCLE
  5
12F20E
  8
OBJECT
 10
155.9999999999998
 20
-1611.9999999995259
 30
0.0
 40
77.0
1001
ACDBBLOCKREPETAG
1070
     1
1071
       44
1005
12F20E
  0
ARC
  5
12F20F
  8
OBJECT
 10
155.9999999999998
 20
-1611.9999999995259
 30
0.0
 40
80.0
 50
140.80503257377961
 51
219.1949674262203
1001
ACDBBLOCKREPETAG
1070
     1
1071
       45
1005
12F20F
  0
LINE
  5
12F210
  8
OBJECT
 10
93.999999999999872
 20
-1566.338199772202
 30
0.0
 11
93.999999999999872
 21
-1531.9999999995259
 31
0.0
1001
ACDBBLOCKREPETAG
1070
     1
1071
       46
1005
12F210
  0
LINE
  5
12F211
  8
OBJECT
 10
217.99999999999989
 20
-1549.9999999995259
 30
0.0
 11
217.99999999999989
 21
-1531.9999999995259
 31
0.0
1001
ACDBBLOCKREPETAG
1070
     1
1071
       22
1005
12F211
  0
LINE
  5
12F212
  8
OBJECT
 10
217.99999999999989
 20
-1549.9999999995259
 30
0.0
 11
235.99999999999989
 21
-1549.9999999995259
 31
0.0
1001
ACDBBLOCKREPETAG
1070
     1
1071
       24
1005
12F212
  0
LINE
  5
12F213
  8
OBJECT
 10
217.99999999999989
 20
-1673.9999999995259
 30
0.0
 11
235.99999999999989
 21
-1673.9999999995259
 31
0.0
1001
ACDBBLOCKREPETAG
1070
     1
1071
       25
1005
12F213
  0
LINE
  5
12F214
  8
OBJECT
 10
217.99999999999989
 20
-1673.9999999995259
 30
0.0
 11
217.99999999999989
 21
-1691.9999999995259
 31
0.0
1001
ACDBBLOCKREPETAG
1070
     1
1071
       27
1005
12F214
  0
LINE
  5
12F215
  8
OBJECT
 10
93.999999999999872
 20
-1657.661800226851
 30
0.0
 11
93.999999999999872
 21
-1691.9999999995259
 31
0.0
1001
ACDBBLOCKREPETAG
1070
     1
1071
       28
1005
12F215
  0
LINE
  5
12F216
  8
OBJECT
 10
210.44722215136409
 20
-1666.44722215089
 30
0.0
 11
217.99999999999989
 21
-1673.9999999995259
 31
0.0
1001
ACDBBLOCKREPETAG
1070
     1
1071
       37
1005
12F216
  0
LINE
  5
12F217
  8
OBJECT
 10
210.44722215136409
 20
-1557.5527778481619
 30
0.0
 11
217.99999999999989
 21
-1549.9999999995259
 31
0.0
1001
ACDBBLOCKREPETAG
1070
     1
1071
       38
1005
12F217
  0
POINT
  5
12F218
  8
DOTS
 10
155.9999999999998
 20
-1611.9999999995259
 30
0.0
1001
ACDBBLOCKREPETAG
1070
     1
1071
       39
1005
12F218
  0
CIRCLE
  5
12F219
  8
OBJECT
 10
155.9999999999998
 20
-1611.9999999995259
 30
0.0
 40
53.5
1001
ACDBBLOCKREPETAG
1070
     1
1071
      153
1005
12F219
  0
CIRCLE
  5
12F21A
  8
OBJECT
 10
515.99999999987801
 20
-1147.999999999684
 30
0.0
 40
70.0
1001
ACDBBLOCKREPETAG
1070
     1
1071
       43
1005
12F21A
  0
CIRCLE
  5
12F21B
  8
OBJECT
 10
515.99999999987801
 20
-1147.999999999684
 30
0.0
 40
77.0
1001
ACDBBLOCKREPETAG
1070
     1
1071
       44
1005
12F21B
  0
ARC
  5
12F21C
  8
OBJECT
 10
515.99999999987801
 20
-1147.999999999684
 30
0.0
 40
80.0
 50
140.8050325737787
 51
219.1949674262213
1001
ACDBBLOCKREPETAG
1070
     1
1071
       45
1005
12F21C
  0
LINE
  5
12F21D
  8
OBJECT
 10
453.99999999987801
 20
-1102.33819977236
 30
0.0
 11
453.99999999987801
 21
-1067.999999999684
 31
0.0
1001
ACDBBLOCKREPETAG
1070
     1
1071
       46
1005
12F21D
  0
LINE
  5
12F21E
  8
OBJECT
 10
577.9999999998779
 20
-1085.999999999684
 30
0.0
 11
577.9999999998779
 21
-1067.999999999684
 31
0.0
1001
ACDBBLOCKREPETAG
1070
     1
1071
       22
1005
12F21E
  0
LINE
  5
12F21F
  8
OBJECT
 10
577.9999999998779
 20
-1085.999999999684
 30
0.0
 11
595.99999999987801
 21
-1085.999999999684
 31
0.0
1001
ACDBBLOCKREPETAG
1070
     1
1071
       24
1005
12F21F
  0
LINE
  5
12F220
  8
OBJECT
 10
577.9999999998779
 20
-1209.999999999684
 30
0.0
 11
595.99999999987801
 21
-1209.999999999684
 31
0.0
1001
ACDBBLOCKREPETAG
1070
     1
1071
       25
1005
12F220
  0
LINE
  5
12F221
  8
OBJECT
 10
577.9999999998779
 20
-1209.999999999684
 30
0.0
 11
577.9999999998779
 21
-1227.999999999684
 31
0.0
1001
ACDBBLOCKREPETAG
1070
     1
1071
       27
1005
12F221
  0
LINE
  5
12F222
  8
OBJECT
 10
453.99999999987801
 20
-1193.6618002270091
 30
0.0
 11
453.99999999987801
 21
-1227.999999999684
 31
0.0
1001
ACDBBLOCKREPETAG
1070
     1
1071
       28
1005
12F222
  0
LINE
  5
12F223
  8
OBJECT
 10
570.44722215124204
 20
-1202.4472221510489
 30
0.0
 11
577.9999999998779
 21
-1209.999999999684
 31
0.0
1001
ACDBBLOCKREPETAG
1070
     1
1071
       37
1005
12F223
  0
LINE
  5
12F224
  8
OBJECT
 10
570.44722215124204
 20
-1093.5527778483199
 30
0.0
 11
577.9999999998779
 21
-1085.999999999684
 31
0.0
1001
ACDBBLOCKREPETAG
1070
     1
1071
       38
1005
12F224
  0
POINT
  5
12F225
  8
DOTS
 10
515.99999999987801
 20
-1147.999999999684
 30
0.0
1001
ACDBBLOCKREPETAG
1070
     1
1071
       39
1005
12F225
  0
CIRCLE
  5
12F226
  8
OBJECT
 10
515.99999999987801
 20
-1147.999999999684
 30
0.0
 40
53.5
1001
ACDBBLOCKREPETAG
1070
     1
1071
      153
1005
12F226
  0
CIRCLE
  5
12F227
  8
OBJECT
 10
155.9999999999998
 20
-1147.999999999683
 30
0.0
 40
70.0
1001
ACDBBLOCKREPETAG
1070
     1
1071
       43
1005
12F227
  0
CIRCLE
  5
12F228
  8
OBJECT
 10
155.9999999999998
 20
-1147.999999999683
 30
0.0
 40
77.0
1001
ACDBBLOCKREPETAG
1070
     1
1071
       44
1005
12F228
  0
ARC
  5
12F229
  8
OBJECT
 10
155.9999999999998
 20
-1147.999999999683
 30
0.0
 40
80.0
 50
140.80503257377961
 51
219.1949674262203
1001
ACDBBLOCKREPETAG
1070
     1
1071
       45
1005
12F229
  0
LINE
  5
12F22A
  8
OBJECT
 10
93.999999999999872
 20
-1102.3381997723591
 30
0.0
 11
93.999999999999872
 21
-1067.999999999683
 31
0.0
1001
ACDBBLOCKREPETAG
1070
     1
1071
       46
1005
12F22A
  0
LINE
  5
12F22B
  8
OBJECT
 10
217.99999999999989
 20
-1085.999999999683
 30
0.0
 11
217.99999999999989
 21
-1067.999999999683
 31
0.0
1001
ACDBBLOCKREPETAG
1070
     1
1071
       22
1005
12F22B
  0
LINE
  5
12F22C
  8
OBJECT
 10
217.99999999999989
 20
-1085.999999999683
 30
0.0
 11
235.99999999999989
 21
-1085.999999999683
 31
0.0
1001
ACDBBLOCKREPETAG
1070
     1
1071
       24
1005
12F22C
  0
LINE
  5
12F22D
  8
OBJECT
 10
217.99999999999989
 20
-1209.999999999683
 30
0.0
 11
235.99999999999989
 21
-1209.999999999683
 31
0.0
1001
ACDBBLOCKREPETAG
1070
     1
1071
       25
1005
12F22D
  0
LINE
  5
12F22E
  8
OBJECT
 10
217.99999999999989
 20
-1209.999999999683
 30
0.0
 11
217.99999999999989
 21
-1227.999999999683
 31
0.0
1001
ACDBBLOCKREPETAG
1070
     1
1071
       27
1005
12F22E
  0
LINE
  5
12F22F
  8
OBJECT
 10
93.999999999999872
 20
-1193.6618002270079
 30
0.0
 11
93.999999999999872
 21
-1227.999999999683
 31
0.0
1001
ACDBBLOCKREPETAG
1070
     1
1071
       28
1005
12F22F
  0
LINE
  5
12F230
  8
OBJECT
 10
210.44722215136409
 20
-1202.447222151048
 30
0.0
 11
217.99999999999989
 21
-1209.999999999683
 31
0.0
1001
ACDBBLOCKREPETAG
1070
     1
1071
       37
1005
12F230
  0
LINE
  5
12F231
  8
OBJECT
 10
210.44722215136409
 20
-1093.552777848319
 30
0.0
 11
217.99999999999989
 21
-1085.999999999683
 31
0.0
1001
ACDBBLOCKREPETAG
1070
     1
1071
       38
1005
12F231
  0
POINT
  5
12F232
  8
DOTS
 10
155.9999999999998
 20
-1147.999999999683
 30
0.0
1001
ACDBBLOCKREPETAG
1070
     1
1071
       39
1005
12F232
  0
CIRCLE
  5
12F233
  8
OBJECT
 10
155.9999999999998
 20
-1147.999999999683
 30
0.0
 40
53.5
1001
ACDBBLOCKREPETAG
1070
     1
1071
      153
1005
12F233
  0
CIRCLE
  5
12F234
  8
OBJECT
 10
515.99999999987813
 20
-683.99999999984254
 30
0.0
 40
70.0
1001
ACDBBLOCKREPETAG
1070
     1
1071
       43
1005
12F234
  0
CIRCLE
  5
12F235
  8
OBJECT
 10
515.99999999987813
 20
-683.99999999984254
 30
0.0
 40
77.0
1001
ACDBBLOCKREPETAG
1070
     1
1071
       44
1005
12F235
  0
ARC
  5
12F236
  8
OBJECT
 10
515.99999999987813
 20
-683.99999999984254
 30
0.0
 40
80.0
 50
140.8050325737787
 51
219.1949674262213
1001
ACDBBLOCKREPETAG
1070
     1
1071
       45
1005
12F236
  0
LINE
  5
12F237
  8
OBJECT
 10
453.99999999987801
 20
-638.33819977251824
 30
0.0
 11
453.99999999987801
 21
-603.99999999984266
 31
0.0
1001
ACDBBLOCKREPETAG
1070
     1
1071
       46
1005
12F237
  0
LINE
  5
12F238
  8
OBJECT
 10
577.99999999987813
 20
-621.99999999984254
 30
0.0
 11
577.99999999987813
 21
-603.99999999984266
 31
0.0
1001
ACDBBLOCKREPETAG
1070
     1
1071
       22
1005
12F238
  0
LINE
  5
12F239
  8
OBJECT
 10
577.99999999987813
 20
-621.99999999984254
 30
0.0
 11
595.99999999987813
 21
-621.99999999984254
 31
0.0
1001
ACDBBLOCKREPETAG
1070
     1
1071
       24
1005
12F239
  0
LINE
  5
12F23A
  8
OBJECT
 10
577.99999999987813
 20
-745.99999999984254
 30
0.0
 11
595.99999999987813
 21
-745.99999999984254
 31
0.0
1001
ACDBBLOCKREPETAG
1070
     1
1071
       25
1005
12F23A
  0
LINE
  5
12F23B
  8
OBJECT
 10
577.99999999987813
 20
-745.99999999984254
 30
0.0
 11
577.99999999987813
 21
-763.99999999984254
 31
0.0
1001
ACDBBLOCKREPETAG
1070
     1
1071
       27
1005
12F23B
  0
LINE
  5
12F23C
  8
OBJECT
 10
453.99999999987801
 20
-729.66180022716708
 30
0.0
 11
453.99999999987801
 21
-763.99999999984254
 31
0.0
1001
ACDBBLOCKREPETAG
1070
     1
1071
       28
1005
12F23C
  0
LINE
  5
12F23D
  8
OBJECT
 10
570.44722215124239
 20
-738.44722215120669
 30
0.0
 11
577.99999999987813
 21
-745.99999999984254
 31
0.0
1001
ACDBBLOCKREPETAG
1070
     1
1071
       37
1005
12F23D
  0
LINE
  5
12F23E
  8
OBJECT
 10
570.44722215124239
 20
-629.5527778484784
 30
0.0
 11
577.99999999987813
 21
-621.99999999984254
 31
0.0
1001
ACDBBLOCKREPETAG
1070
     1
1071
       38
1005
12F23E
  0
POINT
  5
12F23F
  8
DOTS
 10
515.99999999987813
 20
-683.99999999984254
 30
0.0
1001
ACDBBLOCKREPETAG
1070
     1
1071
       39
1005
12F23F
  0
CIRCLE
  5
12F240
  8
OBJECT
 10
515.99999999987813
 20
-683.99999999984254
 30
0.0
 40
53.5
1001
ACDBBLOCKREPETAG
1070
     1
1071
      153
1005
12F240
  0
CIRCLE
  5
12F241
  8
OBJECT
 10
156.0
 20
-683.99999999984254
 30
0.0
 40
70.0
1001
ACDBBLOCKREPETAG
1070
     1
1071
       43
1005
12F241
  0
CIRCLE
  5
12F242
  8
OBJECT
 10
156.0
 20
-683.99999999984254
 30
0.0
 40
77.0
1001
ACDBBLOCKREPETAG
1070
     1
1071
       44
1005
12F242
  0
ARC
  5
12F243
  8
OBJECT
 10
156.0
 20
-683.99999999984254
 30
0.0
 40
80.0
 50
140.80503257377961
 51
219.1949674262203
1001
ACDBBLOCKREPETAG
1070
     1
1071
       45
1005
12F243
  0
LINE
  5
12F244
  8
OBJECT
 10
94.0
 20
-638.33819977251824
 30
0.0
 11
94.0
 21
-603.99999999984266
 31
0.0
1001
ACDBBLOCKREPETAG
1070
     1
1071
       46
1005
12F244
  0
LINE
  5
12F245
  8
OBJECT
 10
218.0
 20
-621.99999999984254
 30
0.0
 11
218.0
 21
-603.99999999984266
 31
0.0
1001
ACDBBLOCKREPETAG
1070
     1
1071
       22
1005
12F245
  0
LINE
  5
12F246
  8
OBJECT
 10
218.0
 20
-621.99999999984254
 30
0.0
 11
236.0
 21
-621.99999999984254
 31
0.0
1001
ACDBBLOCKREPETAG
1070
     1
1071
       24
1005
12F246
  0
LINE
  5
12F247
  8
OBJECT
 10
218.0
 20
-745.99999999984254
 30
0.0
 11
236.0
 21
-745.99999999984254
 31
0.0
1001
ACDBBLOCKREPETAG
1070
     1
1071
       25
1005
12F247
  0
LINE
  5
12F248
  8
OBJECT
 10
218.0
 20
-745.99999999984254
 30
0.0
 11
218.0
 21
-763.99999999984254
 31
0.0
1001
ACDBBLOCKREPETAG
1070
     1
1071
       27
1005
12F248
  0
LINE
  5
12F249
  8
OBJECT
 10
94.0
 20
-729.66180022716708
 30
0.0
 11
94.0
 21
-763.99999999984254
 31
0.0
1001
ACDBBLOCKREPETAG
1070
     1
1071
       28
1005
12F249
  0
LINE
  5
12F24A
  8
OBJECT
 10
210.44722215136409
 20
-738.44722215120669
 30
0.0
 11
218.0
 21
-745.99999999984254
 31
0.0
1001
ACDBBLOCKREPETAG
1070
     1
1071
       37
1005
12F24A
  0
LINE
  5
12F24B
  8
OBJECT
 10
210.44722215136409
 20
-629.5527778484784
 30
0.0
 11
218.0
 21
-621.99999999984254
 31
0.0
1001
ACDBBLOCKREPETAG
1070
     1
1071
       38
1005
12F24B
  0
POINT
  5
12F24C
  8
DOTS
 10
156.0
 20
-683.99999999984254
 30
0.0
1001
ACDBBLOCKREPETAG
1070
     1
1071
       39
1005
12F24C
  0
CIRCLE
  5
12F24D
  8
OBJECT
 10
156.0
 20
-683.99999999984254
 30
0.0
 40
53.5
1001
ACDBBLOCKREPETAG
1070
     1
1071
      153
1005
12F24D
  0
CIRCLE
  5
12F24E
  8
OBJECT
 10
515.99999999987813
 20
-220.00000000000091
 30
0.0
 40
70.0
1001
ACDBBLOCKREPETAG
1070
     1
1071
       43
1005
12F24E
  0
CIRCLE
  5
12F24F
  8
OBJECT
 10
515.99999999987813
 20
-220.00000000000091
 30
0.0
 40
77.0
1001
ACDBBLOCKREPETAG
1070
     1
1071
       44
1005
12F24F
  0
ARC
  5
12F250
  8
OBJECT
 10
515.99999999987813
 20
-220.00000000000091
 30
0.0
 40
80.0
 50
140.80503257378001
 51
219.19496742621999
1001
ACDBBLOCKREPETAG
1070
     1
1071
       45
1005
12F250
  0
LINE
  5
12F251
  8
OBJECT
 10
453.99999999987801
 20
-174.3381997726764
 30
0.0
 11
453.99999999987801
 21
-140.0000000000008
 31
0.0
1001
ACDBBLOCKREPETAG
1070
     1
1071
       46
1005
12F251
  0
LINE
  5
12F252
  8
OBJECT
 10
577.99999999987813
 20
-158.0000000000008
 30
0.0
 11
577.99999999987813
 21
-140.0000000000008
 31
0.0
1001
ACDBBLOCKREPETAG
1070
     1
1071
       22
1005
12F252
  0
LINE
  5
12F253
  8
OBJECT
 10
577.99999999987813
 20
-158.0000000000008
 30
0.0
 11
595.99999999987813
 21
-158.0000000000008
 31
0.0
1001
ACDBBLOCKREPETAG
1070
     1
1071
       24
1005
12F253
  0
LINE
  5
12F254
  8
OBJECT
 10
577.99999999987813
 20
-282.00000000000091
 30
0.0
 11
595.99999999987813
 21
-282.00000000000091
 31
0.0
1001
ACDBBLOCKREPETAG
1070
     1
1071
       25
1005
12F254
  0
LINE
  5
12F255
  8
OBJECT
 10
577.99999999987813
 20
-282.00000000000091
 30
0.0
 11
577.99999999987813
 21
-300.0000000000008
 31
0.0
1001
ACDBBLOCKREPETAG
1070
     1
1071
       27
1005
12F255
  0
LINE
  5
12F256
  8
OBJECT
 10
453.99999999987801
 20
-265.66180022732527
 30
0.0
 11
453.99999999987801
 21
-300.0000000000008
 31
0.0
1001
ACDBBLOCKREPETAG
1070
     1
1071
       28
1005
12F256
  0
LINE
  5
12F257
  8
OBJECT
 10
570.44722215124239
 20
-274.44722215136511
 30
0.0
 11
577.99999999987813
 21
-282.00000000000091
 31
0.0
1001
ACDBBLOCKREPETAG
1070
     1
1071
       37
1005
12F257
  0
LINE
  5
12F258
  8
OBJECT
 10
570.44722215124239
 20
-165.55277784863659
 30
0.0
 11
577.99999999987813
 21
-158.0000000000008
 31
0.0
1001
ACDBBLOCKREPETAG
1070
     1
1071
       38
1005
12F258
  0
POINT
  5
12F259
  8
DOTS
 10
515.99999999987813
 20
-220.00000000000091
 30
0.0
1001
ACDBBLOCKREPETAG
1070
     1
1071
       39
1005
12F259
  0
CIRCLE
  5
12F25A
  8
OBJECT
 10
515.99999999987813
 20
-220.00000000000091
 30
0.0
 40
53.5
1001
ACDBBLOCKREPETAG
1070
     1
1071
      153
1005
12F25A
  0
CIRCLE
  5
12F25B
  8
OBJECT
 10
156.0
 20
-220.0
 30
0.0
 40
70.0
1001
ACDBBLOCKREPETAG
1070
     1
1071
       43
1005
12F25B
  0
CIRCLE
  5
12F25C
  8
OBJECT
 10
156.0
 20
-220.0
 30
0.0
 40
77.0
1001
ACDBBLOCKREPETAG
1070
     1
1071
       44
1005
12F25C
  0
ARC
  5
12F25D
  8
OBJECT
 10
156.0
 20
-220.0
 30
0.0
 40
80.0
 50
140.80503257378101
 51
219.19496742621899
1001
ACDBBLOCKREPETAG
1070
     1
1071
       45
1005
12F25D
  0
LINE
  5
12F25E
  8
OBJECT
 10
94.0
 20
-174.33819977267541
 30
0.0
 11
94.0
 21
-140.0
 31
0.0
1001
ACDBBLOCKREPETAG
1070
     1
1071
       46
1005
12F25E
  0
LINE
  5
12F25F
  8
OBJECT
 10
218.0
 20
-158.0
 30
0.0
 11
218.0
 21
-140.0
 31
0.0
1001
ACDBBLOCKREPETAG
1070
     1
1071
       22
1005
12F25F
  0
LINE
  5
12F260
  8
OBJECT
 10
218.0
 20
-158.0
 30
0.0
 11
236.0
 21
-158.0
 31
0.0
1001
ACDBBLOCKREPETAG
1070
     1
1071
       24
1005
12F260
  0
LINE
  5
12F261
  8
OBJECT
 10
218.0
 20
-282.0
 30
0.0
 11
236.0
 21
-282.0
 31
0.0
1001
ACDBBLOCKREPETAG
1070
     1
1071
       25
1005
12F261
  0
LINE
  5
12F262
  8
OBJECT
 10
218.0
 20
-282.0
 30
0.0
 11
218.0
 21
-300.0
 31
0.0
1001
ACDBBLOCKREPETAG
1070
     1
1071
       27
1005
12F262
  0
LINE
  5
12F263
  8
OBJECT
 10
94.0
 20
-265.66180022732442
 30
0.0
 11
94.0
 21
-300.0
 31
0.0
1001
ACDBBLOCKREPETAG
1070
     1
1071
       28
1005
12F263
  0
LINE
  5
12F264
  8
OBJECT
 10
210.44722215136409
 20
-274.44722215136431
 30
0.0
 11
218.0
 21
-282.0
 31
0.0
1001
ACDBBLOCKREPETAG
1070
     1
1071
       37
1005
12F264
  0
LINE
  5
12F265
  8
OBJECT
 10
210.44722215136409
 20
-165.55277784863571
 30
0.0
 11
218.0
 21
-158.0
 31
0.0
1001
ACDBBLOCKREPETAG
1070
     1
1071
       38
1005
12F265
  0
POINT
  5
12F266
  8
DOTS
 10
156.0
 20
-220.0
 30
0.0
1001
ACDBBLOCKREPETAG
1070
     1
1071
       39
1005
12F266
  0
CIRCLE
  5
12F267
  8
OBJECT
 10
156.0
 20
-220.0
 30
0.0
 40
53.5
1001
ACDBBLOCKREPETAG
1070
     1
1071
      153
1005
12F267
  0
LINE
  5
12F268
  8
CENTER
 10
3899.0
 20
-199.99999999999909
 30
0.0
 11
3920.0
 21
-199.99999999999909
 31
0.0
1001
ACDBBLOCKREPETAG
1070
     1
1071
        0
1005
12F268
  0
LINE
  5
12F269
  8
OBJECT
 10
3917.0
 20
-261.99999999999909
 30
0.0
 11
3920.0
 21
-261.99999999999909
 31
0.0
1001
ACDBBLOCKREPETAG
1070
     1
1071
        1
1005
12F269
  0
ARC
  5
12F26A
  8
OBJECT
 10
3917.0
 20
-258.99999999999909
 30
0.0
 40
3.0
 50
180.0
 51
270.0
1001
ACDBBLOCKREPETAG
1070
     1
1071
        2
1005
12F26A
  0
LINE
  5
12F26B
  8
OBJECT
 10
3920.0
 20
-137.99999999999909
 30
0.0
 11
3917.0
 21
-137.99999999999909
 31
0.0
1001
ACDBBLOCKREPETAG
1070
     1
1071
        3
1005
12F26B
  0
ARC
  5
12F26C
  8
OBJECT
 10
3917.0
 20
-140.99999999999909
 30
0.0
 40
3.0
 50
90.0
 51
180.0
1001
ACDBBLOCKREPETAG
1070
     1
1071
        4
1005
12F26C
  0
LINE
  5
12F26D
  8
OBJECT
 10
3914.0
 20
-140.99999999999909
 30
0.0
 11
3914.0
 21
-258.99999999999909
 31
0.0
1001
ACDBBLOCKREPETAG
1070
     1
1071
        5
1005
12F26D
  0
LINE
  5
12F26E
  8
OBJECT
 10
4062.0
 20
-332.99999999999898
 30
0.0
 11
4062.0
 21
-339.99999999999909
 31
0.0
1001
ACDBBLOCKREPETAG
1070
     1
1071
       47
1005
12F26E
  0
LINE
  5
12F26F
  8
OBJECT
 10
4062.0
 20
-339.99999999999909
 30
0.0
 11
3938.0
 21
-339.99999999999909
 31
0.0
1001
ACDBBLOCKREPETAG
1070
     1
1071
       48
1005
12F26F
  0
LINE
  5
12F270
  8
OBJECT
 10
3938.0
 20
-339.99999999999909
 30
0.0
 11
3938.0
 21
-332.99999999999898
 31
0.0
1001
ACDBBLOCKREPETAG
1070
     1
1071
       49
1005
12F270
  0
LINE
  5
12F271
  8
OBJECT
 10
3938.0
 20
-332.99999999999898
 30
0.0
 11
4062.0
 21
-332.99999999999898
 31
0.0
1001
ACDBBLOCKREPETAG
1070
     1
1071
       50
1005
12F271
  0
LINE
  5
12F272
  8
CENTER
 10
4000.0
 20
-354.99999999999909
 30
0.0
 11
4000.0
 21
-279.99999999999909
 31
0.0
1001
ACDBBLOCKREPETAG
1070
     1
1071
       51
1005
12F272
  0
LINE
  5
12F273
  8
OBJECT
 10
4059.0
 20
-332.99999999999898
 30
0.0
 11
4059.0
 21
-296.99999999999898
 31
0.0
1001
ACDBBLOCKREPETAG
1070
     1
1071
       52
1005
12F273
  0
LINE
  5
12F274
  8
OBJECT
 10
4059.0
 20
-296.99999999999898
 30
0.0
 11
3941.0
 21
-296.99999999999898
 31
0.0
1001
ACDBBLOCKREPETAG
1070
     1
1071
       53
1005
12F274
  0
LINE
  5
12F275
  8
OBJECT
 10
3941.0
 20
-296.99999999999898
 30
0.0
 11
3941.0
 21
-332.99999999999898
 31
0.0
1001
ACDBBLOCKREPETAG
1070
     1
1071
       54
1005
12F275
  0
LINE
  5
12F276
  8
OBJECT
 10
4054.4999999999991
 20
-292.99999999999898
 30
0.0
 11
4054.4999999999991
 21
-285.99999999999898
 31
0.0
1001
ACDBBLOCKREPETAG
1070
     1
1071
       55
1005
12F276
  0
LINE
  5
12F277
  8
OBJECT
 10
3945.5
 20
-285.99999999999898
 30
0.0
 11
3945.5
 21
-292.99999999999898
 31
0.0
1001
ACDBBLOCKREPETAG
1070
     1
1071
       56
1005
12F277
  0
LINE
  5
12F278
  8
OBJECT
 10
3945.5
 20
-292.99999999999898
 30
0.0
 11
4054.4999999999991
 21
-292.99999999999898
 31
0.0
1001
ACDBBLOCKREPETAG
1070
     1
1071
       57
1005
12F278
  0
LINE
  5
12F279
  8
OBJECT
 10
4059.0
 20
-296.99999999999898
 30
0.0
 11
4054.4999999999991
 21
-292.99999999999898
 31
0.0
1001
ACDBBLOCKREPETAG
1070
     1
1071
       58
1005
12F279
  0
LINE
  5
12F27A
  8
OBJECT
 10
3941.0
 20
-296.99999999999898
 30
0.0
 11
3945.5
 21
-292.99999999999898
 31
0.0
1001
ACDBBLOCKREPETAG
1070
     1
1071
       59
1005
12F27A
  0
LINE
  5
12F27B
  8
OBJECT
 10
4062.0
 20
-283.0
 30
0.0
 11
4062.0
 21
-279.99999999999909
 31
0.0
1001
ACDBBLOCKREPETAG
1070
     1
1071
       60
1005
12F27B
  0
ARC
  5
12F27C
  8
OBJECT
 10
4059.0
 20
-283.0
 30
0.0
 40
3.0
 50
270.0
 51
0.0
1001
ACDBBLOCKREPETAG
1070
     1
1071
       61
1005
12F27C
  0
LINE
  5
12F27D
  8
OBJECT
 10
3938.0
 20
-279.99999999999909
 30
0.0
 11
3938.0
 21
-282.99999999999818
 31
0.0
1001
ACDBBLOCKREPETAG
1070
     1
1071
       62
1005
12F27D
  0
ARC
  5
12F27E
  8
OBJECT
 10
3941.0
 20
-282.99999999999818
 30
0.0
 40
3.0
 50
180.0
 51
270.0
1001
ACDBBLOCKREPETAG
1070
     1
1071
       63
1005
12F27E
  0
LINE
  5
12F27F
  8
OBJECT
 10
3941.0
 20
-285.99999999999818
 30
0.0
 11
4059.0
 21
-286.0
 31
0.0
1001
ACDBBLOCKREPETAG
1070
     1
1071
       64
1005
12F27F
  0
LINE
  5
12F280
  8
HIDDEN
 10
4044.5
 20
-287.99999999999909
 30
0.0
 11
3955.5
 21
-287.99999999999909
 31
0.0
1001
ACDBBLOCKREPETAG
1070
     1
1071
       65
1005
12F280
  0
LINE
  5
12F281
  8
OBJECT
 10
4133.0
 20
-137.99999999999909
 30
0.0
 11
4140.0
 21
-137.99999999999909
 31
0.0
1001
ACDBBLOCKREPETAG
1070
     1
1071
       47
1005
12F281
  0
LINE
  5
12F282
  8
OBJECT
 10
4140.0
 20
-137.99999999999909
 30
0.0
 11
4140.0
 21
-261.99999999999909
 31
0.0
1001
ACDBBLOCKREPETAG
1070
     1
1071
       48
1005
12F282
  0
LINE
  5
12F283
  8
OBJECT
 10
4140.0
 20
-261.99999999999909
 30
0.0
 11
4133.0
 21
-261.99999999999909
 31
0.0
1001
ACDBBLOCKREPETAG
1070
     1
1071
       49
1005
12F283
  0
LINE
  5
12F284
  8
OBJECT
 10
4133.0
 20
-261.99999999999909
 30
0.0
 11
4133.0
 21
-137.99999999999909
 31
0.0
1001
ACDBBLOCKREPETAG
1070
     1
1071
       50
1005
12F284
  0
LINE
  5
12F285
  8
CENTER
 10
4155.0
 20
-199.99999999999909
 30
0.0
 11
4080.0
 21
-199.99999999999909
 31
0.0
1001
ACDBBLOCKREPETAG
1070
     1
1071
       51
1005
12F285
  0
LINE
  5
12F286
  8
OBJECT
 10
4133.0
 20
-140.99999999999909
 30
0.0
 11
4097.0
 21
-140.99999999999909
 31
0.0
1001
ACDBBLOCKREPETAG
1070
     1
1071
       52
1005
12F286
  0
LINE
  5
12F287
  8
OBJECT
 10
4097.0
 20
-140.99999999999909
 30
0.0
 11
4097.0
 21
-258.99999999999909
 31
0.0
1001
ACDBBLOCKREPETAG
1070
     1
1071
       53
1005
12F287
  0
LINE
  5
12F288
  8
OBJECT
 10
4097.0
 20
-258.99999999999909
 30
0.0
 11
4133.0
 21
-258.99999999999909
 31
0.0
1001
ACDBBLOCKREPETAG
1070
     1
1071
       54
1005
12F288
  0
LINE
  5
12F289
  8
OBJECT
 10
4093.0
 20
-145.49999999999909
 30
0.0
 11
4086.0
 21
-145.49999999999909
 31
0.0
1001
ACDBBLOCKREPETAG
1070
     1
1071
       55
1005
12F289
  0
LINE
  5
12F28A
  8
OBJECT
 10
4086.0
 20
-254.49999999999909
 30
0.0
 11
4093.0
 21
-254.49999999999909
 31
0.0
1001
ACDBBLOCKREPETAG
1070
     1
1071
       56
1005
12F28A
  0
LINE
  5
12F28B
  8
OBJECT
 10
4093.0
 20
-254.49999999999909
 30
0.0
 11
4093.0
 21
-145.49999999999909
 31
0.0
1001
ACDBBLOCKREPETAG
1070
     1
1071
       57
1005
12F28B
  0
LINE
  5
12F28C
  8
OBJECT
 10
4097.0
 20
-140.99999999999909
 30
0.0
 11
4093.0
 21
-145.49999999999909
 31
0.0
1001
ACDBBLOCKREPETAG
1070
     1
1071
       58
1005
12F28C
  0
LINE
  5
12F28D
  8
OBJECT
 10
4097.0
 20
-258.99999999999909
 30
0.0
 11
4093.0
 21
-254.49999999999909
 31
0.0
1001
ACDBBLOCKREPETAG
1070
     1
1071
       59
1005
12F28D
  0
LINE
  5
12F28E
  8
OBJECT
 10
4083.0
 20
-137.99999999999909
 30
0.0
 11
4080.0
 21
-137.99999999999909
 31
0.0
1001
ACDBBLOCKREPETAG
1070
     1
1071
       60
1005
12F28E
  0
ARC
  5
12F28F
  8
OBJECT
 10
4083.0
 20
-140.99999999999909
 30
0.0
 40
3.0
 50
0.0
 51
90.0
1001
ACDBBLOCKREPETAG
1070
     1
1071
       61
1005
12F28F
  0
LINE
  5
12F290
  8
OBJECT
 10
4080.0
 20
-261.99999999999909
 30
0.0
 11
4083.0
 21
-261.99999999999909
 31
0.0
1001
ACDBBLOCKREPETAG
1070
     1
1071
       62
1005
12F290
  0
ARC
  5
12F291
  8
OBJECT
 10
4083.0
 20
-258.99999999999909
 30
0.0
 40
3.0
 50
270.0
 51
0.0
1001
ACDBBLOCKREPETAG
1070
     1
1071
       63
1005
12F291
  0
LINE
  5
12F292
  8
OBJECT
 10
4086.0
 20
-258.99999999999909
 30
0.0
 11
4086.0
 21
-140.99999999999909
 31
0.0
1001
ACDBBLOCKREPETAG
1070
     1
1071
       64
1005
12F292
  0
LINE
  5
12F293
  8
HIDDEN
 10
4088.0
 20
-155.49999999999909
 30
0.0
 11
4088.0
 21
-244.49999999999909
 31
0.0
1001
ACDBBLOCKREPETAG
1070
     1
1071
       65
1005
12F293
  0
LINE
  5
12F294
  8
OBJECT
 10
3917.0
 20
-634.0
 30
0.0
 11
3920.0
 21
-634.0
 31
0.0
1001
ACDBBLOCKREPETAG
1070
     1
1071
        1
1005
12F294
  0
ARC
  5
12F295
  8
OBJECT
 10
3917.0
 20
-637.0
 30
0.0
 40
3.0
 50
90.0
 51
180.0
1001
ACDBBLOCKREPETAG
1070
     1
1071
        2
1005
12F295
  0
LINE
  5
12F296
  8
OBJECT
 10
3920.0
 20
-758.0
 30
0.0
 11
3917.0
 21
-758.0
 31
0.0
1001
ACDBBLOCKREPETAG
1070
     1
1071
        3
1005
12F296
  0
ARC
  5
12F297
  8
OBJECT
 10
3917.0
 20
-755.0
 30
0.0
 40
3.0
 50
180.0
 51
270.0
1001
ACDBBLOCKREPETAG
1070
     1
1071
        4
1005
12F297
  0
LINE
  5
12F298
  8
OBJECT
 10
3914.0
 20
-755.0
 30
0.0
 11
3914.0
 21
-637.0
 31
0.0
1001
ACDBBLOCKREPETAG
1070
     1
1071
        5
1005
12F298
  0
LINE
  5
12F299
  8
CENTER
 10
4077.0
 20
-696.0
 30
0.0
 11
3923.0
 21
-696.0
 31
0.0
1001
ACDBBLOCKREPETAG
1070
     1
1071
       17
1005
12F299
  0
CIRCLE
  5
12F29A
  8
OBJECT
 10
4000.0
 20
-696.0
 30
0.0
 40
41.5
1001
ACDBBLOCKREPETAG
1070
     1
1071
       19
1005
12F29A
  0
CIRCLE
  5
12F29B
  8
OBJECT
 10
4000.0
 20
-696.0
 30
0.0
 40
54.0
1001
ACDBBLOCKREPETAG
1070
     1
1071
       20
1005
12F29B
  0
ARC
  5
12F29C
  8
OBJECT
 10
4000.0
 20
-696.0
 30
0.0
 40
62.0
 50
287.89655112920718
 51
252.10344887079279
1001
ACDBBLOCKREPETAG
1070
     1
1071
       21
1005
12F29C
  0
LINE
  5
12F29D
  8
OBJECT
 10
3980.947441116743
 20
-755.0
 30
0.0
 11
4019.052558883257
 21
-755.0
 31
0.0
1001
ACDBBLOCKREPETAG
1070
     1
1071
       22
1005
12F29D
  0
LINE
  5
12F29E
  8
OBJECT
 10
4133.0
 20
-634.0
 30
0.0
 11
4140.0
 21
-634.0
 31
0.0
1001
ACDBBLOCKREPETAG
1070
     1
1071
       45
1005
12F29E
  0
LINE
  5
12F29F
  8
OBJECT
 10
4140.0
 20
-634.0
 30
0.0
 11
4140.0
 21
-755.0
 31
0.0
1001
ACDBBLOCKREPETAG
1070
     1
1071
       46
1005
12F29F
  0
LINE
  5
12F2A0
  8
OBJECT
 10
4133.0
 20
-755.0
 30
0.0
 11
4133.0
 21
-634.0
 31
0.0
1001
ACDBBLOCKREPETAG
1070
     1
1071
       47
1005
12F2A0
  0
LINE
  5
12F2A1
  8
CENTER
 10
4155.0
 20
-696.0
 30
0.0
 11
4071.0
 21
-696.0
 31
0.0
1001
ACDBBLOCKREPETAG
1070
     1
1071
       48
1005
12F2A1
  0
LINE
  5
12F2A2
  8
OBJECT
 10
4133.0
 20
-637.0
 30
0.0
 11
4097.0
 21
-637.0
 31
0.0
1001
ACDBBLOCKREPETAG
1070
     1
1071
       49
1005
12F2A2
  0
LINE
  5
12F2A3
  8
OBJECT
 10
4097.0
 20
-637.0
 30
0.0
 11
4097.0
 21
-755.0
 31
0.0
1001
ACDBBLOCKREPETAG
1070
     1
1071
       50
1005
12F2A3
  0
LINE
  5
12F2A4
  8
OBJECT
 10
4097.0
 20
-755.0
 30
0.0
 11
4140.0
 21
-755.0
 31
0.0
1001
ACDBBLOCKREPETAG
1070
     1
1071
       51
1005
12F2A4
  0
LINE
  5
12F2A5
  8
OBJECT
 10
4093.0
 20
-641.5
 30
0.0
 11
4086.0
 21
-641.5
 31
0.0
1001
ACDBBLOCKREPETAG
1070
     1
1071
       52
1005
12F2A5
  0
LINE
  5
12F2A6
  8
OBJECT
 10
4086.0
 20
-750.49999999999989
 30
0.0
 11
4093.0
 21
-750.49999999999989
 31
0.0
1001
ACDBBLOCKREPETAG
1070
     1
1071
       53
1005
12F2A6
  0
LINE
  5
12F2A7
  8
OBJECT
 10
4093.0
 20
-750.49999999999989
 30
0.0
 11
4093.0
 21
-641.5
 31
0.0
1001
ACDBBLOCKREPETAG
1070
     1
1071
       54
1005
12F2A7
  0
LINE
  5
12F2A8
  8
OBJECT
 10
4097.0
 20
-637.0
 30
0.0
 11
4093.0
 21
-641.5
 31
0.0
1001
ACDBBLOCKREPETAG
1070
     1
1071
       55
1005
12F2A8
  0
LINE
  5
12F2A9
  8
OBJECT
 10
4097.0
 20
-755.0
 30
0.0
 11
4093.0
 21
-750.49999999999989
 31
0.0
1001
ACDBBLOCKREPETAG
1070
     1
1071
       56
1005
12F2A9
  0
LINE
  5
12F2AA
  8
OBJECT
 10
4083.0
 20
-634.0
 30
0.0
 11
4080.0
 21
-634.0
 31
0.0
1001
ACDBBLOCKREPETAG
1070
     1
1071
       57
1005
12F2AA
  0
ARC
  5
12F2AB
  8
OBJECT
 10
4083.0
 20
-637.0
 30
0.0
 40
3.0
 50
0.0
 51
90.0
1001
ACDBBLOCKREPETAG
1070
     1
1071
       58
1005
12F2AB
  0
LINE
  5
12F2AC
  8
OBJECT
 10
4080.0
 20
-758.0
 30
0.0
 11
4083.0
 21
-758.0
 31
0.0
1001
ACDBBLOCKREPETAG
1070
     1
1071
       59
1005
12F2AC
  0
ARC
  5
12F2AD
  8
OBJECT
 10
4083.0
 20
-755.0
 30
0.0
 40
3.0
 50
270.0
 51
0.0
1001
ACDBBLOCKREPETAG
1070
     1
1071
       60
1005
12F2AD
  0
LINE
  5
12F2AE
  8
OBJECT
 10
4086.0
 20
-755.0
 30
0.0
 11
4086.0
 21
-637.0
 31
0.0
1001
ACDBBLOCKREPETAG
1070
     1
1071
       61
1005
12F2AE
  0
LINE
  5
12F2AF
  8
HIDDEN
 10
4088.0
 20
-651.5
 30
0.0
 11
4088.0
 21
-740.5
 31
0.0
1001
ACDBBLOCKREPETAG
1070
     1
1071
       63
1005
12F2AF
  0
LINE
  5
12F2B0
  8
OBJECT
 10
94.000000000034575
 20
-3551.0000000009109
 30
0.0
 11
94.000000000034575
 21
-3548.0000000009109
 31
0.0
1001
ACDBBLOCKREPETAG
1070
     1
1071
      418
1005
12F2B0
  0
ARC
  5
12F2B1
  8
OBJECT
 10
97.000000000034561
 20
-3551.0000000009109
 30
0.0
 40
3.0
 50
180.0
 51
270.0
1001
ACDBBLOCKREPETAG
1070
     1
1071
      419
1005
12F2B1
  0
LINE
  5
12F2B2
  8
OBJECT
 10
218.00000000003459
 20
-3548.0000000009109
 30
0.0
 11
218.00000000003459
 21
-3551.0000000009109
 31
0.0
1001
ACDBBLOCKREPETAG
1070
     1
1071
      420
1005
12F2B2
  0
ARC
  5
12F2B3
  8
OBJECT
 10
215.00000000003459
 20
-3551.0000000009109
 30
0.0
 40
3.0
 50
270.0
 51
0.0
1001
ACDBBLOCKREPETAG
1070
     1
1071
      421
1005
12F2B3
  0
LINE
  5
12F2B4
  8
OBJECT
 10
215.00000000003459
 20
-3554.0000000009109
 30
0.0
 11
97.000000000034561
 21
-3554.0000000009109
 31
0.0
1001
ACDBBLOCKREPETAG
1070
     1
1071
      422
1005
12F2B4
  0
INSERT
  5
12F2B5
  8
OBJECT
  2
*U4
 10
0.0
 20
0.0
 30
0.0
  0
LINE
  5
12F2B6
  8
OBJECT
 10
289.00000000003462
 20
-3406.0000000009109
 30
0.0
 11
296.0000000000345
 21
-3406.0000000009109
 31
0.0
1001
ACDBBLOCKREPETAG
1070
     1
1071
       39
1005
12F2B6
  0
LINE
  5
12F2B7
  8
OBJECT
 10
296.0000000000345
 20
-3406.0000000009109
 30
0.0
 11
296.0000000000345
 21
-3530.0000000009109
 31
0.0
1001
ACDBBLOCKREPETAG
1070
     1
1071
       40
1005
12F2B7
  0
LINE
  5
12F2B8
  8
OBJECT
 10
296.0000000000345
 20
-3530.0000000009109
 30
0.0
 11
289.00000000003462
 21
-3530.0000000009109
 31
0.0
1001
ACDBBLOCKREPETAG
1070
     1
1071
       41
1005
12F2B8
  0
LINE
  5
12F2B9
  8
OBJECT
 10
289.00000000003462
 20
-3530.0000000009109
 30
0.0
 11
289.00000000003462
 21
-3406.0000000009109
 31
0.0
1001
ACDBBLOCKREPETAG
1070
     1
1071
       42
1005
12F2B9
  0
LINE
  5
12F2BA
  8
OBJECT
 10
289.00000000003462
 20
-3409.0000000009109
 30
0.0
 11
253.00000000003459
 21
-3409.0000000009109
 31
0.0
1001
ACDBBLOCKREPETAG
1070
     1
1071
       43
1005
12F2BA
  0
LINE
  5
12F2BB
  8
OBJECT
 10
253.00000000003459
 20
-3409.0000000009109
 30
0.0
 11
253.00000000003459
 21
-3527.0000000009109
 31
0.0
1001
ACDBBLOCKREPETAG
1070
     1
1071
       44
1005
12F2BB
  0
LINE
  5
12F2BC
  8
OBJECT
 10
253.00000000003459
 20
-3527.0000000009109
 30
0.0
 11
289.00000000003462
 21
-3527.0000000009109
 31
0.0
1001
ACDBBLOCKREPETAG
1070
     1
1071
       45
1005
12F2BC
  0
LINE
  5
12F2BD
  8
OBJECT
 10
249.00000000003459
 20
-3413.5000000009122
 30
0.0
 11
242.00000000003459
 21
-3413.5000000009122
 31
0.0
1001
ACDBBLOCKREPETAG
1070
     1
1071
       46
1005
12F2BD
  0
LINE
  5
12F2BE
  8
OBJECT
 10
242.00000000003459
 20
-3522.5000000009109
 30
0.0
 11
249.00000000003459
 21
-3522.5000000009109
 31
0.0
1001
ACDBBLOCKREPETAG
1070
     1
1071
       47
1005
12F2BE
  0
LINE
  5
12F2BF
  8
OBJECT
 10
249.00000000003459
 20
-3522.5000000009109
 30
0.0
 11
249.00000000003459
 21
-3413.5000000009122
 31
0.0
1001
ACDBBLOCKREPETAG
1070
     1
1071
       48
1005
12F2BF
  0
LINE
  5
12F2C0
  8
OBJECT
 10
253.00000000003459
 20
-3409.0000000009109
 30
0.0
 11
249.00000000003459
 21
-3413.5000000009122
 31
0.0
1001
ACDBBLOCKREPETAG
1070
     1
1071
       49
1005
12F2C0
  0
LINE
  5
12F2C1
  8
OBJECT
 10
253.00000000003459
 20
-3527.0000000009109
 30
0.0
 11
249.00000000003459
 21
-3522.5000000009109
 31
0.0
1001
ACDBBLOCKREPETAG
1070
     1
1071
       50
1005
12F2C1
  0
LINE
  5
12F2C2
  8
OBJECT
 10
239.00000000003641
 20
-3406.0000000009109
 30
0.0
 11
236.00000000003459
 21
-3406.0000000009109
 31
0.0
1001
ACDBBLOCKREPETAG
1070
     1
1071
       51
1005
12F2C2
  0
ARC
  5
12F2C3
  8
OBJECT
 10
239.00000000003641
 20
-3409.0000000009109
 30
0.0
 40
3.0
 50
0.0
 51
90.0
1001
ACDBBLOCKREPETAG
1070
     1
1071
       52
1005
12F2C3
  0
LINE
  5
12F2C4
  8
OBJECT
 10
236.00000000003459
 20
-3530.0000000009109
 30
0.0
 11
239.00000000003271
 21
-3530.0000000009109
 31
0.0
1001
ACDBBLOCKREPETAG
1070
     1
1071
       53
1005
12F2C4
  0
ARC
  5
12F2C5
  8
OBJECT
 10
239.00000000003271
 20
-3527.0000000009109
 30
0.0
 40
3.0
 50
270.0
 51
0.0
1001
ACDBBLOCKREPETAG
1070
     1
1071
       54
1005
12F2C5
  0
LINE
  5
12F2C6
  8
OBJECT
 10
242.0000000000328
 20
-3527.0000000009109
 30
0.0
 11
242.00000000003641
 21
-3409.0000000009109
 31
0.0
1001
ACDBBLOCKREPETAG
1070
     1
1071
       55
1005
12F2C6
  0
LINE
  5
12F2C7
  8
HIDDEN
 10
244.0000000000345
 20
-3423.5000000009122
 30
0.0
 11
244.0000000000345
 21
-3512.5000000009122
 31
0.0
1001
ACDBBLOCKREPETAG
1070
     1
1071
      430
1005
12F2C7
  0
LINE
  5
12F2C8
  8
OBJECT
 10
81.000000000034561
 20
-3318.0000000009122
 30
0.0
 11
81.000000000034561
 21
-3325.0000000009122
 31
0.0
1001
ACDBBLOCKREPETAG
1070
     1
1071
       57
1005
12F2C8
  0
LINE
  5
12F2C9
  8
OBJECT
 10
81.000000000034561
 20
-3325.0000000009122
 30
0.0
 11
231.0000000000345
 21
-3325.0000000009122
 31
0.0
1001
ACDBBLOCKREPETAG
1070
     1
1071
       58
1005
12F2C9
  0
LINE
  5
12F2CA
  8
OBJECT
 10
84.000000000034575
 20
-3366.5000000009109
 30
0.0
 11
228.00000000003459
 21
-3366.5000000009109
 31
0.0
1001
ACDBBLOCKREPETAG
1070
     1
1071
       59
1005
12F2CA
  0
LINE
  5
12F2CB
  8
OBJECT
 10
90.500000000034547
 20
-3378.0000000009109
 30
0.0
 11
221.50000000003459
 21
-3378.0000000009109
 31
0.0
1001
ACDBBLOCKREPETAG
1070
     1
1071
       60
1005
12F2CB
  0
LINE
  5
12F2CC
  8
OBJECT
 10
231.0000000000345
 20
-3325.0000000009122
 30
0.0
 11
231.0000000000345
 21
-3318.0000000009122
 31
0.0
1001
ACDBBLOCKREPETAG
1070
     1
1071
       61
1005
12F2CC
  0
LINE
  5
12F2CD
  8
OBJECT
 10
231.0000000000345
 20
-3318.0000000009122
 30
0.0
 11
81.000000000034561
 21
-3318.0000000009122
 31
0.0
1001
ACDBBLOCKREPETAG
1070
     1
1071
       62
1005
12F2CD
  0
LINE
  5
12F2CE
  8
OBJECT
 10
218.00000000003459
 20
-3382.0000000009122
 30
0.0
 11
218.00000000003459
 21
-3388.0000000009109
 31
0.0
1001
ACDBBLOCKREPETAG
1070
     1
1071
       63
1005
12F2CE
  0
LINE
  5
12F2CF
  8
OBJECT
 10
228.00000000003459
 20
-3325.0000000009122
 30
0.0
 11
228.00000000003459
 21
-3366.5000000009109
 31
0.0
1001
ACDBBLOCKREPETAG
1070
     1
1071
       64
1005
12F2CF
  0
LINE
  5
12F2D0
  8
OBJECT
 10
228.00000000003459
 20
-3366.5000000009109
 30
0.0
 11
221.50000000003459
 21
-3378.0000000009109
 31
0.0
1001
ACDBBLOCKREPETAG
1070
     1
1071
       65
1005
12F2D0
  0
LINE
  5
12F2D1
  8
OBJECT
 10
221.50000000003459
 20
-3378.0000000009109
 30
0.0
 11
218.00000000003459
 21
-3382.0000000009122
 31
0.0
1001
ACDBBLOCKREPETAG
1070
     1
1071
       66
1005
12F2D1
  0
LINE
  5
12F2D2
  8
OBJECT
 10
84.000000000034575
 20
-3366.5000000009109
 30
0.0
 11
90.500000000034547
 21
-3378.0000000009109
 31
0.0
1001
ACDBBLOCKREPETAG
1070
     1
1071
       67
1005
12F2D2
  0
LINE
  5
12F2D3
  8
OBJECT
 10
90.500000000034547
 20
-3378.0000000009109
 30
0.0
 11
94.000000000034575
 21
-3382.0000000009122
 31
0.0
1001
ACDBBLOCKREPETAG
1070
     1
1071
       68
1005
12F2D3
  0
ARC
  5
12F2D4
  8
OBJECT
 10
156.0000000000345
 20
-3000.1000000009099
 30
0.0
 40
386.89999999999998
 50
260.77870136257849
 51
279.22129863742163
1001
ACDBBLOCKREPETAG
1070
     1
1071
       69
1005
12F2D4
  0
LINE
  5
12F2D5
  8
OBJECT
 10
94.000000000034575
 20
-3382.0000000009122
 30
0.0
 11
94.000000000034575
 21
-3388.0000000009109
 31
0.0
1001
ACDBBLOCKREPETAG
1070
     1
1071
       70
1005
12F2D5
  0
LINE
  5
12F2D6
  8
OBJECT
 10
84.000000000034575
 20
-3325.0000000009122
 30
0.0
 11
84.000000000034575
 21
-3366.5000000009109
 31
0.0
1001
ACDBBLOCKREPETAG
1070
     1
1071
       71
1005
12F2D6
  0
INSERT
  5
12F2D7
  8
OBJECT
  2
*U5
 10
0.0
 20
0.0
 30
0.0
  0
LINE
  5
12F2D8
  8
HIDDEN
 10
213.00000000003459
 20
-3370.0000000009109
 30
0.0
 11
99.000000000034575
 21
-3370.0000000009109
 31
0.0
1001
ACDBBLOCKREPETAG
1070
     1
1071
      431
1005
12F2D8
  0
LINE
  5
12F2D9
  8
OBJECT
 10
454.00000000011448
 20
-3551.0000000009109
 30
0.0
 11
454.00000000011448
 21
-3548.0000000009109
 31
0.0
1001
ACDBBLOCKREPETAG
1070
     1
1071
      418
1005
12F2D9
  0
ARC
  5
12F2DA
  8
OBJECT
 10
457.0000000001146
 20
-3551.0000000009109
 30
0.0
 40
3.0
 50
180.0
 51
270.0
1001
ACDBBLOCKREPETAG
1070
     1
1071
      419
1005
12F2DA
  0
LINE
  5
12F2DB
  8
OBJECT
 10
578.00000000011448
 20
-3548.0000000009109
 30
0.0
 11
578.00000000011448
 21
-3551.0000000009109
 31
0.0
1001
ACDBBLOCKREPETAG
1070
     1
1071
      420
1005
12F2DB
  0
ARC
  5
12F2DC
  8
OBJECT
 10
575.00000000011437
 20
-3551.0000000009109
 30
0.0
 40
3.0
 50
270.0
 51
0.0
1001
ACDBBLOCKREPETAG
1070
     1
1071
      421
1005
12F2DC
  0
LINE
  5
12F2DD
  8
OBJECT
 10
575.00000000011437
 20
-3554.0000000009109
 30
0.0
 11
457.0000000001146
 21
-3554.0000000009109
 31
0.0
1001
ACDBBLOCKREPETAG
1070
     1
1071
      422
1005
12F2DD
  0
LINE
  5
12F2DE
  8
OBJECT
 10
666.00000000011448
 20
-3393.0000000009122
 30
0.0
 11
659.0000000001146
 21
-3393.0000000009122
 31
0.0
1001
ACDBBLOCKREPETAG
1070
     1
1071
       57
1005
12F2DE
  0
LINE
  5
12F2DF
  8
OBJECT
 10
659.0000000001146
 20
-3393.0000000009122
 30
0.0
 11
659.0000000001146
 21
-3543.0000000009122
 31
0.0
1001
ACDBBLOCKREPETAG
1070
     1
1071
       58
1005
12F2DF
  0
LINE
  5
12F2E0
  8
OBJECT
 10
617.5000000001146
 20
-3396.0000000009122
 30
0.0
 11
617.5000000001146
 21
-3540.0000000009122
 31
0.0
1001
ACDBBLOCKREPETAG
1070
     1
1071
       59
1005
12F2E0
  0
LINE
  5
12F2E1
  8
OBJECT
 10
606.0000000001146
 20
-3402.5000000009122
 30
0.0
 11
606.0000000001146
 21
-3533.5000000009122
 31
0.0
1001
ACDBBLOCKREPETAG
1070
     1
1071
       60
1005
12F2E1
  0
LINE
  5
12F2E2
  8
OBJECT
 10
659.0000000001146
 20
-3543.0000000009122
 30
0.0
 11
666.00000000011448
 21
-3543.0000000009122
 31
0.0
1001
ACDBBLOCKREPETAG
1070
     1
1071
       61
1005
12F2E2
  0
LINE
  5
12F2E3
  8
OBJECT
 10
666.00000000011448
 20
-3543.0000000009122
 30
0.0
 11
666.00000000011448
 21
-3393.0000000009122
 31
0.0
1001
ACDBBLOCKREPETAG
1070
     1
1071
       62
1005
12F2E3
  0
LINE
  5
12F2E4
  8
OBJECT
 10
602.0000000001146
 20
-3530.0000000009109
 30
0.0
 11
596.00000000011437
 21
-3530.0000000009109
 31
0.0
1001
ACDBBLOCKREPETAG
1070
     1
1071
       63
1005
12F2E4
  0
LINE
  5
12F2E5
  8
OBJECT
 10
659.0000000001146
 20
-3540.0000000009122
 30
0.0
 11
617.5000000001146
 21
-3540.0000000009122
 31
0.0
1001
ACDBBLOCKREPETAG
1070
     1
1071
       64
1005
12F2E5
  0
LINE
  5
12F2E6
  8
OBJECT
 10
617.5000000001146
 20
-3540.0000000009122
 30
0.0
 11
606.0000000001146
 21
-3533.5000000009122
 31
0.0
1001
ACDBBLOCKREPETAG
1070
     1
1071
       65
1005
12F2E6
  0
LINE
  5
12F2E7
  8
OBJECT
 10
606.0000000001146
 20
-3533.5000000009122
 30
0.0
 11
602.0000000001146
 21
-3530.0000000009109
 31
0.0
1001
ACDBBLOCKREPETAG
1070
     1
1071
       66
1005
12F2E7
  0
LINE
  5
12F2E8
  8
OBJECT
 10
617.5000000001146
 20
-3396.0000000009122
 30
0.0
 11
606.0000000001146
 21
-3402.5000000009122
 31
0.0
1001
ACDBBLOCKREPETAG
1070
     1
1071
       67
1005
12F2E8
  0
LINE
  5
12F2E9
  8
OBJECT
 10
606.0000000001146
 20
-3402.5000000009122
 30
0.0
 11
602.0000000001146
 21
-3406.0000000009109
 31
0.0
1001
ACDBBLOCKREPETAG
1070
     1
1071
       68
1005
12F2E9
  0
ARC
  5
12F2EA
  8
OBJECT
 10
983.90000000011605
 20
-3468.0000000009122
 30
0.0
 40
386.89999999999998
 50
170.77870136263201
 51
189.22129863736799
1001
ACDBBLOCKREPETAG
1070
     1
1071
       69
1005
12F2EA
  0
LINE
  5
12F2EB
  8
OBJECT
 10
602.0000000001146
 20
-3406.0000000009109
 30
0.0
 11
596.00000000011437
 21
-3406.0000000009109
 31
0.0
1001
ACDBBLOCKREPETAG
1070
     1
1071
       70
1005
12F2EB
  0
LINE
  5
12F2EC
  8
OBJECT
 10
659.0000000001146
 20
-3396.0000000009122
 30
0.0
 11
617.5000000001146
 21
-3396.0000000009122
 31
0.0
1001
ACDBBLOCKREPETAG
1070
     1
1071
       71
1005
12F2EC
  0
INSERT
  5
12F2ED
  8
OBJECT
  2
*U6
 10
0.0
 20
0.0
 30
0.0
  0
LINE
  5
12F2EE
  8
HIDDEN
 10
614.0000000001146
 20
-3525.0000000009122
 30
0.0
 11
614.0000000001146
 21
-3411.0000000009122
 31
0.0
1001
ACDBBLOCKREPETAG
1070
     1
1071
      437
1005
12F2EE
  0
LINE
  5
12F2EF
  8
OBJECT
 10
441.00000000011448
 20
-3318.0000000009122
 30
0.0
 11
441.00000000011448
 21
-3325.0000000009122
 31
0.0
1001
ACDBBLOCKREPETAG
1070
     1
1071
       57
1005
12F2EF
  0
LINE
  5
12F2F0
  8
OBJECT
 10
441.00000000011448
 20
-3325.0000000009122
 30
0.0
 11
591.00000000011448
 21
-3325.0000000009122
 31
0.0
1001
ACDBBLOCKREPETAG
1070
     1
1071
       58
1005
12F2F0
  0
LINE
  5
12F2F1
  8
OBJECT
 10
444.0000000001146
 20
-3366.5000000009109
 30
0.0
 11
588.00000000011437
 21
-3366.5000000009109
 31
0.0
1001
ACDBBLOCKREPETAG
1070
     1
1071
       59
1005
12F2F1
  0
LINE
  5
12F2F2
  8
OBJECT
 10
450.50000000011448
 20
-3378.0000000009109
 30
0.0
 11
581.5000000001146
 21
-3378.0000000009109
 31
0.0
1001
ACDBBLOCKREPETAG
1070
     1
1071
       60
1005
12F2F2
  0
LINE
  5
12F2F3
  8
OBJECT
 10
591.00000000011448
 20
-3325.0000000009122
 30
0.0
 11
591.00000000011448
 21
-3318.0000000009122
 31
0.0
1001
ACDBBLOCKREPETAG
1070
     1
1071
       61
1005
12F2F3
  0
LINE
  5
12F2F4
  8
OBJECT
 10
591.00000000011448
 20
-3318.0000000009122
 30
0.0
 11
441.00000000011448
 21
-3318.0000000009122
 31
0.0
1001
ACDBBLOCKREPETAG
1070
     1
1071
       62
1005
12F2F4
  0
LINE
  5
12F2F5
  8
OBJECT
 10
578.00000000011448
 20
-3382.0000000009122
 30
0.0
 11
578.00000000011448
 21
-3388.0000000009109
 31
0.0
1001
ACDBBLOCKREPETAG
1070
     1
1071
       63
1005
12F2F5
  0
LINE
  5
12F2F6
  8
OBJECT
 10
588.00000000011437
 20
-3325.0000000009122
 30
0.0
 11
588.00000000011437
 21
-3366.5000000009109
 31
0.0
1001
ACDBBLOCKREPETAG
1070
     1
1071
       64
1005
12F2F6
  0
LINE
  5
12F2F7
  8
OBJECT
 10
588.00000000011437
 20
-3366.5000000009109
 30
0.0
 11
581.5000000001146
 21
-3378.0000000009109
 31
0.0
1001
ACDBBLOCKREPETAG
1070
     1
1071
       65
1005
12F2F7
  0
LINE
  5
12F2F8
  8
OBJECT
 10
581.5000000001146
 20
-3378.0000000009109
 30
0.0
 11
578.00000000011448
 21
-3382.0000000009122
 31
0.0
1001
ACDBBLOCKREPETAG
1070
     1
1071
       66
1005
12F2F8
  0
LINE
  5
12F2F9
  8
OBJECT
 10
444.0000000001146
 20
-3366.5000000009109
 30
0.0
 11
450.50000000011448
 21
-3378.0000000009109
 31
0.0
1001
ACDBBLOCKREPETAG
1070
     1
1071
       67
1005
12F2F9
  0
LINE
  5
12F2FA
  8
OBJECT
 10
450.50000000011448
 20
-3378.0000000009109
 30
0.0
 11
454.00000000011448
 21
-3382.0000000009122
 31
0.0
1001
ACDBBLOCKREPETAG
1070
     1
1071
       68
1005
12F2FA
  0
ARC
  5
12F2FB
  8
OBJECT
 10
516.00000000011448
 20
-3000.1000000009099
 30
0.0
 40
386.89999999999998
 50
260.77870136257849
 51
279.22129863742163
1001
ACDBBLOCKREPETAG
1070
     1
1071
       69
1005
12F2FB
  0
LINE
  5
12F2FC
  8
OBJECT
 10
454.00000000011448
 20
-3382.0000000009122
 30
0.0
 11
454.00000000011448
 21
-3388.0000000009109
 31
0.0
1001
ACDBBLOCKREPETAG
1070
     1
1071
       70
1005
12F2FC
  0
LINE
  5
12F2FD
  8
OBJECT
 10
444.0000000001146
 20
-3325.0000000009122
 30
0.0
 11
444.0000000001146
 21
-3366.5000000009109
 31
0.0
1001
ACDBBLOCKREPETAG
1070
     1
1071
       71
1005
12F2FD
  0
INSERT
  5
12F2FE
  8
OBJECT
  2
*U7
 10
0.0
 20
0.0
 30
0.0
  0
LINE
  5
12F2FF
  8
HIDDEN
 10
573.0000000001146
 20
-3370.0000000009109
 30
0.0
 11
459.0000000001146
 21
-3370.0000000009109
 31
0.0
1001
ACDBBLOCKREPETAG
1070
     1
1071
      431
1005
12F2FF
  0
LINE
  5
12F300
  8
OBJECT
 10
454.00000000011448
 20
-3087.0000000009049
 30
0.0
 11
454.00000000011448
 21
-3084.0000000009049
 31
0.0
1001
ACDBBLOCKREPETAG
1070
     1
1071
      418
1005
12F300
  0
ARC
  5
12F301
  8
OBJECT
 10
457.0000000001146
 20
-3087.0000000009049
 30
0.0
 40
3.0
 50
180.0
 51
270.0
1001
ACDBBLOCKREPETAG
1070
     1
1071
      419
1005
12F301
  0
LINE
  5
12F302
  8
OBJECT
 10
578.00000000011448
 20
-3084.0000000009049
 30
0.0
 11
578.00000000011448
 21
-3087.0000000009049
 31
0.0
1001
ACDBBLOCKREPETAG
1070
     1
1071
      420
1005
12F302
  0
ARC
  5
12F303
  8
OBJECT
 10
575.00000000011437
 20
-3087.0000000009049
 30
0.0
 40
3.0
 50
270.0
 51
0.0
1001
ACDBBLOCKREPETAG
1070
     1
1071
      421
1005
12F303
  0
LINE
  5
12F304
  8
OBJECT
 10
575.00000000011437
 20
-3090.0000000009049
 30
0.0
 11
457.0000000001146
 21
-3090.0000000009049
 31
0.0
1001
ACDBBLOCKREPETAG
1070
     1
1071
      422
1005
12F304
  0
INSERT
  5
12F305
  8
OBJECT
  2
*U8
 10
0.0
 20
0.0
 30
0.0
  0
LINE
  5
12F306
  8
OBJECT
 10
649.00000000011448
 20
-2949.0000000009049
 30
0.0
 11
656.0000000001146
 21
-2949.0000000009049
 31
0.0
1001
ACDBBLOCKREPETAG
1070
     1
1071
       20
1005
12F306
  0
LINE
  5
12F307
  8
OBJECT
 10
656.0000000001146
 20
-2949.0000000009049
 30
0.0
 11
656.0000000001146
 21
-3059.0000000009049
 31
0.0
1001
ACDBBLOCKREPETAG
1070
     1
1071
       21
1005
12F307
  0
LINE
  5
12F308
  8
OBJECT
 10
656.0000000001146
 20
-3059.0000000009049
 30
0.0
 11
649.00000000011448
 21
-3059.0000000009049
 31
0.0
1001
ACDBBLOCKREPETAG
1070
     1
1071
       22
1005
12F308
  0
LINE
  5
12F309
  8
OBJECT
 10
649.00000000011448
 20
-3059.0000000009049
 30
0.0
 11
649.00000000011448
 21
-2949.0000000009049
 31
0.0
1001
ACDBBLOCKREPETAG
1070
     1
1071
       23
1005
12F309
  0
LINE
  5
12F30A
  8
OBJECT
 10
649.00000000011448
 20
-2952.0000000009049
 30
0.0
 11
613.0000000001146
 21
-2952.0000000009049
 31
0.0
1001
ACDBBLOCKREPETAG
1070
     1
1071
       24
1005
12F30A
  0
LINE
  5
12F30B
  8
OBJECT
 10
613.0000000001146
 20
-2952.0000000009049
 30
0.0
 11
613.0000000001146
 21
-3056.0000000009049
 31
0.0
1001
ACDBBLOCKREPETAG
1070
     1
1071
       25
1005
12F30B
  0
LINE
  5
12F30C
  8
OBJECT
 10
613.0000000001146
 20
-3056.0000000009049
 30
0.0
 11
649.00000000011448
 21
-3056.0000000009049
 31
0.0
1001
ACDBBLOCKREPETAG
1070
     1
1071
       26
1005
12F30C
  0
LINE
  5
12F30D
  8
OBJECT
 10
609.0000000001146
 20
-2956.5000000009049
 30
0.0
 11
602.0000000001146
 21
-2956.5000000009049
 31
0.0
1001
ACDBBLOCKREPETAG
1070
     1
1071
       27
1005
12F30D
  0
LINE
  5
12F30E
  8
OBJECT
 10
602.0000000001146
 20
-3051.5000000009049
 30
0.0
 11
609.0000000001146
 21
-3051.5000000009049
 31
0.0
1001
ACDBBLOCKREPETAG
1070
     1
1071
       28
1005
12F30E
  0
LINE
  5
12F30F
  8
OBJECT
 10
609.0000000001146
 20
-3051.5000000009049
 30
0.0
 11
609.0000000001146
 21
-2956.5000000009049
 31
0.0
1001
ACDBBLOCKREPETAG
1070
     1
1071
       29
1005
12F30F
  0
LINE
  5
12F310
  8
OBJECT
 10
613.0000000001146
 20
-2952.0000000009049
 30
0.0
 11
609.0000000001146
 21
-2956.5000000009049
 31
0.0
1001
ACDBBLOCKREPETAG
1070
     1
1071
       30
1005
12F310
  0
LINE
  5
12F311
  8
OBJECT
 10
613.0000000001146
 20
-3056.0000000009049
 30
0.0
 11
609.0000000001146
 21
-3051.5000000009049
 31
0.0
1001
ACDBBLOCKREPETAG
1070
     1
1071
       31
1005
12F311
  0
LINE
  5
12F312
  8
OBJECT
 10
599.00000000011619
 20
-2942.0000000009049
 30
0.0
 11
596.00000000011437
 21
-2942.0000000009049
 31
0.0
1001
ACDBBLOCKREPETAG
1070
     1
1071
       32
1005
12F312
  0
ARC
  5
12F313
  8
OBJECT
 10
599.00000000011619
 20
-2945.0000000009049
 30
0.0
 40
3.0
 50
0.0
 51
90.0
1001
ACDBBLOCKREPETAG
1070
     1
1071
       33
1005
12F313
  0
LINE
  5
12F314
  8
OBJECT
 10
596.00000000011437
 20
-3066.0000000009049
 30
0.0
 11
599.00000000011278
 21
-3066.0000000009049
 31
0.0
1001
ACDBBLOCKREPETAG
1070
     1
1071
       34
1005
12F314
  0
ARC
  5
12F315
  8
OBJECT
 10
599.00000000011278
 20
-3063.0000000009049
 30
0.0
 40
3.0
 50
270.0
 51
0.0
1001
ACDBBLOCKREPETAG
1070
     1
1071
       35
1005
12F315
  0
LINE
  5
12F316
  8
OBJECT
 10
602.00000000011266
 20
-3063.0000000009049
 30
0.0
 11
602.0000000001163
 21
-2945.0000000009049
 31
0.0
1001
ACDBBLOCKREPETAG
1070
     1
1071
       36
1005
12F316
  0
LINE
  5
12F317
  8
HIDDEN
 10
604.00000000011437
 20
-2966.0000000009049
 30
0.0
 11
604.00000000011437
 21
-3042.0000000009049
 31
0.0
1001
ACDBBLOCKREPETAG
1070
     1
1071
      427
1005
12F317
  0
LINE
  5
12F318
  8
OBJECT
 10
441.00000000011448
 20
-2854.0000000009049
 30
0.0
 11
441.00000000011448
 21
-2861.0000000009049
 31
0.0
1001
ACDBBLOCKREPETAG
1070
     1
1071
       57
1005
12F318
  0
LINE
  5
12F319
  8
OBJECT
 10
441.00000000011448
 20
-2861.0000000009049
 30
0.0
 11
591.00000000011448
 21
-2861.0000000009049
 31
0.0
1001
ACDBBLOCKREPETAG
1070
     1
1071
       58
1005
12F319
  0
LINE
  5
12F31A
  8
OBJECT
 10
444.0000000001146
 20
-2902.5000000009049
 30
0.0
 11
588.00000000011437
 21
-2902.5000000009049
 31
0.0
1001
ACDBBLOCKREPETAG
1070
     1
1071
       59
1005
12F31A
  0
LINE
  5
12F31B
  8
OBJECT
 10
450.50000000011448
 20
-2914.0000000009049
 30
0.0
 11
581.5000000001146
 21
-2914.0000000009049
 31
0.0
1001
ACDBBLOCKREPETAG
1070
     1
1071
       60
1005
12F31B
  0
LINE
  5
12F31C
  8
OBJECT
 10
591.00000000011448
 20
-2861.0000000009049
 30
0.0
 11
591.00000000011448
 21
-2854.0000000009049
 31
0.0
1001
ACDBBLOCKREPETAG
1070
     1
1071
       61
1005
12F31C
  0
LINE
  5
12F31D
  8
OBJECT
 10
591.00000000011448
 20
-2854.0000000009049
 30
0.0
 11
441.00000000011448
 21
-2854.0000000009049
 31
0.0
1001
ACDBBLOCKREPETAG
1070
     1
1071
       62
1005
12F31D
  0
LINE
  5
12F31E
  8
OBJECT
 10
578.00000000011448
 20
-2918.0000000009049
 30
0.0
 11
578.00000000011448
 21
-2924.0000000009049
 31
0.0
1001
ACDBBLOCKREPETAG
1070
     1
1071
       63
1005
12F31E
  0
LINE
  5
12F31F
  8
OBJECT
 10
588.00000000011437
 20
-2861.0000000009049
 30
0.0
 11
588.00000000011437
 21
-2902.5000000009049
 31
0.0
1001
ACDBBLOCKREPETAG
1070
     1
1071
       64
1005
12F31F
  0
LINE
  5
12F320
  8
OBJECT
 10
588.00000000011437
 20
-2902.5000000009049
 30
0.0
 11
581.5000000001146
 21
-2914.0000000009049
 31
0.0
1001
ACDBBLOCKREPETAG
1070
     1
1071
       65
1005
12F320
  0
LINE
  5
12F321
  8
OBJECT
 10
581.5000000001146
 20
-2914.0000000009049
 30
0.0
 11
578.00000000011448
 21
-2918.0000000009049
 31
0.0
1001
ACDBBLOCKREPETAG
1070
     1
1071
       66
1005
12F321
  0
LINE
  5
12F322
  8
OBJECT
 10
444.0000000001146
 20
-2902.5000000009049
 30
0.0
 11
450.50000000011448
 21
-2914.0000000009049
 31
0.0
1001
ACDBBLOCKREPETAG
1070
     1
1071
       67
1005
12F322
  0
LINE
  5
12F323
  8
OBJECT
 10
450.50000000011448
 20
-2914.0000000009049
 30
0.0
 11
454.00000000011448
 21
-2918.0000000009049
 31
0.0
1001
ACDBBLOCKREPETAG
1070
     1
1071
       68
1005
12F323
  0
ARC
  5
12F324
  8
OBJECT
 10
516.00000000011448
 20
-2536.100000000903
 30
0.0
 40
386.89999999999998
 50
260.77870136257849
 51
279.22129863742163
1001
ACDBBLOCKREPETAG
1070
     1
1071
       69
1005
12F324
  0
LINE
  5
12F325
  8
OBJECT
 10
454.00000000011448
 20
-2918.0000000009049
 30
0.0
 11
454.00000000011448
 21
-2924.0000000009049
 31
0.0
1001
ACDBBLOCKREPETAG
1070
     1
1071
       70
1005
12F325
  0
LINE
  5
12F326
  8
OBJECT
 10
444.0000000001146
 20
-2861.0000000009049
 30
0.0
 11
444.0000000001146
 21
-2902.5000000009049
 31
0.0
1001
ACDBBLOCKREPETAG
1070
     1
1071
       71
1005
12F326
  0
INSERT
  5
12F327
  8
OBJECT
  2
*U9
 10
0.0
 20
0.0
 30
0.0
  0
LINE
  5
12F328
  8
HIDDEN
 10
573.0000000001146
 20
-2906.0000000009049
 30
0.0
 11
459.0000000001146
 21
-2906.0000000009049
 31
0.0
1001
ACDBBLOCKREPETAG
1070
     1
1071
      431
1005
12F328
  0
LINE
  5
12F329
  8
OBJECT
 10
94.000000000034575
 20
-3087.0000000009049
 30
0.0
 11
94.000000000034575
 21
-3084.0000000009049
 31
0.0
1001
ACDBBLOCKREPETAG
1070
     1
1071
      418
1005
12F329
  0
ARC
  5
12F32A
  8
OBJECT
 10
97.000000000034561
 20
-3087.0000000009049
 30
0.0
 40
3.0
 50
180.0
 51
270.0
1001
ACDBBLOCKREPETAG
1070
     1
1071
      419
1005
12F32A
  0
LINE
  5
12F32B
  8
OBJECT
 10
218.00000000003459
 20
-3084.0000000009049
 30
0.0
 11
218.00000000003459
 21
-3087.0000000009049
 31
0.0
1001
ACDBBLOCKREPETAG
1070
     1
1071
      420
1005
12F32B
  0
ARC
  5
12F32C
  8
OBJECT
 10
215.00000000003459
 20
-3087.0000000009049
 30
0.0
 40
3.0
 50
270.0
 51
0.0
1001
ACDBBLOCKREPETAG
1070
     1
1071
      421
1005
12F32C
  0
LINE
  5
12F32D
  8
OBJECT
 10
215.00000000003459
 20
-3090.0000000009049
 30
0.0
 11
97.000000000034561
 21
-3090.0000000009049
 31
0.0
1001
ACDBBLOCKREPETAG
1070
     1
1071
      422
1005
12F32D
  0
INSERT
  5
12F32E
  8
OBJECT
  2
*U10
 10
0.0
 20
0.0
 30
0.0
  0
LINE
  5
12F32F
  8
OBJECT
 10
289.00000000003462
 20
-2957.0000000009049
 30
0.0
 11
296.0000000000345
 21
-2957.0000000009049
 31
0.0
1001
ACDBBLOCKREPETAG
1070
     1
1071
        1
1005
12F32F
  0
LINE
  5
12F330
  8
OBJECT
 10
296.0000000000345
 20
-2957.0000000009049
 30
0.0
 11
296.0000000000345
 21
-3051.0000000009049
 31
0.0
1001
ACDBBLOCKREPETAG
1070
     1
1071
        2
1005
12F330
  0
LINE
  5
12F331
  8
OBJECT
 10
296.0000000000345
 20
-3051.0000000009049
 30
0.0
 11
289.00000000003462
 21
-3051.0000000009049
 31
0.0
1001
ACDBBLOCKREPETAG
1070
     1
1071
        3
1005
12F331
  0
LINE
  5
12F332
  8
OBJECT
 10
289.00000000003462
 20
-3051.0000000009049
 30
0.0
 11
289.00000000003462
 21
-2957.0000000009049
 31
0.0
1001
ACDBBLOCKREPETAG
1070
     1
1071
        4
1005
12F332
  0
LINE
  5
12F333
  8
OBJECT
 10
289.00000000003462
 20
-2960.0000000009049
 30
0.0
 11
253.00000000003459
 21
-2960.0000000009049
 31
0.0
1001
ACDBBLOCKREPETAG
1070
     1
1071
        5
1005
12F333
  0
LINE
  5
12F334
  8
OBJECT
 10
253.00000000003459
 20
-2960.0000000009049
 30
0.0
 11
253.00000000003459
 21
-3048.0000000009049
 31
0.0
1001
ACDBBLOCKREPETAG
1070
     1
1071
        6
1005
12F334
  0
LINE
  5
12F335
  8
OBJECT
 10
253.00000000003459
 20
-3048.0000000009049
 30
0.0
 11
289.00000000003462
 21
-3048.0000000009049
 31
0.0
1001
ACDBBLOCKREPETAG
1070
     1
1071
        7
1005
12F335
  0
LINE
  5
12F336
  8
OBJECT
 10
249.00000000003459
 20
-2964.5000000009049
 30
0.0
 11
242.00000000003459
 21
-2964.5000000009049
 31
0.0
1001
ACDBBLOCKREPETAG
1070
     1
1071
        8
1005
12F336
  0
LINE
  5
12F337
  8
OBJECT
 10
242.00000000003459
 20
-3043.5000000009049
 30
0.0
 11
249.00000000003459
 21
-3043.5000000009049
 31
0.0
1001
ACDBBLOCKREPETAG
1070
     1
1071
        9
1005
12F337
  0
LINE
  5
12F338
  8
OBJECT
 10
249.00000000003459
 20
-3043.5000000009049
 30
0.0
 11
249.00000000003459
 21
-2964.5000000009049
 31
0.0
1001
ACDBBLOCKREPETAG
1070
     1
1071
       10
1005
12F338
  0
LINE
  5
12F339
  8
OBJECT
 10
253.00000000003459
 20
-2960.0000000009049
 30
0.0
 11
249.00000000003459
 21
-2964.5000000009049
 31
0.0
1001
ACDBBLOCKREPETAG
1070
     1
1071
       11
1005
12F339
  0
LINE
  5
12F33A
  8
OBJECT
 10
253.00000000003459
 20
-3048.0000000009049
 30
0.0
 11
249.00000000003459
 21
-3043.5000000009049
 31
0.0
1001
ACDBBLOCKREPETAG
1070
     1
1071
       12
1005
12F33A
  0
LINE
  5
12F33B
  8
OBJECT
 10
239.00000000003641
 20
-2942.0000000009049
 30
0.0
 11
236.00000000003459
 21
-2942.0000000009049
 31
0.0
1001
ACDBBLOCKREPETAG
1070
     1
1071
       13
1005
12F33B
  0
ARC
  5
12F33C
  8
OBJECT
 10
239.00000000003641
 20
-2945.0000000009049
 30
0.0
 40
3.0
 50
0.0
 51
90.0
1001
ACDBBLOCKREPETAG
1070
     1
1071
       14
1005
12F33C
  0
LINE
  5
12F33D
  8
OBJECT
 10
236.00000000003459
 20
-3066.0000000009049
 30
0.0
 11
239.00000000003271
 21
-3066.0000000009049
 31
0.0
1001
ACDBBLOCKREPETAG
1070
     1
1071
       15
1005
12F33D
  0
ARC
  5
12F33E
  8
OBJECT
 10
239.00000000003271
 20
-3063.0000000009049
 30
0.0
 40
3.0
 50
270.0
 51
0.0
1001
ACDBBLOCKREPETAG
1070
     1
1071
       16
1005
12F33E
  0
LINE
  5
12F33F
  8
OBJECT
 10
242.0000000000328
 20
-3063.0000000009049
 30
0.0
 11
242.00000000003641
 21
-2945.0000000009049
 31
0.0
1001
ACDBBLOCKREPETAG
1070
     1
1071
       17
1005
12F33F
  0
LINE
  5
12F340
  8
HIDDEN
 10
244.0000000000345
 20
-2974.0000000009049
 30
0.0
 11
244.0000000000345
 21
-3034.0000000009049
 31
0.0
1001
ACDBBLOCKREPETAG
1070
     1
1071
      424
1005
12F340
  0
LINE
  5
12F341
  8
OBJECT
 10
81.000000000034561
 20
-2854.0000000009049
 30
0.0
 11
81.000000000034561
 21
-2861.0000000009049
 31
0.0
1001
ACDBBLOCKREPETAG
1070
     1
1071
       57
1005
12F341
  0
LINE
  5
12F342
  8
OBJECT
 10
81.000000000034561
 20
-2861.0000000009049
 30
0.0
 11
231.0000000000345
 21
-2861.0000000009049
 31
0.0
1001
ACDBBLOCKREPETAG
1070
     1
1071
       58
1005
12F342
  0
LINE
  5
12F343
  8
OBJECT
 10
84.000000000034575
 20
-2902.5000000009049
 30
0.0
 11
228.00000000003459
 21
-2902.5000000009049
 31
0.0
1001
ACDBBLOCKREPETAG
1070
     1
1071
       59
1005
12F343
  0
LINE
  5
12F344
  8
OBJECT
 10
90.500000000034547
 20
-2914.0000000009049
 30
0.0
 11
221.50000000003459
 21
-2914.0000000009049
 31
0.0
1001
ACDBBLOCKREPETAG
1070
     1
1071
       60
1005
12F344
  0
LINE
  5
12F345
  8
OBJECT
 10
231.0000000000345
 20
-2861.0000000009049
 30
0.0
 11
231.0000000000345
 21
-2854.0000000009049
 31
0.0
1001
ACDBBLOCKREPETAG
1070
     1
1071
       61
1005
12F345
  0
LINE
  5
12F346
  8
OBJECT
 10
231.0000000000345
 20
-2854.0000000009049
 30
0.0
 11
81.000000000034561
 21
-2854.0000000009049
 31
0.0
1001
ACDBBLOCKREPETAG
1070
     1
1071
       62
1005
12F346
  0
LINE
  5
12F347
  8
OBJECT
 10
218.00000000003459
 20
-2918.0000000009049
 30
0.0
 11
218.00000000003459
 21
-2924.0000000009049
 31
0.0
1001
ACDBBLOCKREPETAG
1070
     1
1071
       63
1005
12F347
  0
LINE
  5
12F348
  8
OBJECT
 10
228.00000000003459
 20
-2861.0000000009049
 30
0.0
 11
228.00000000003459
 21
-2902.5000000009049
 31
0.0
1001
ACDBBLOCKREPETAG
1070
     1
1071
       64
1005
12F348
  0
LINE
  5
12F349
  8
OBJECT
 10
228.00000000003459
 20
-2902.5000000009049
 30
0.0
 11
221.50000000003459
 21
-2914.0000000009049
 31
0.0
1001
ACDBBLOCKREPETAG
1070
     1
1071
       65
1005
12F349
  0
LINE
  5
12F34A
  8
OBJECT
 10
221.50000000003459
 20
-2914.0000000009049
 30
0.0
 11
218.00000000003459
 21
-2918.0000000009049
 31
0.0
1001
ACDBBLOCKREPETAG
1070
     1
1071
       66
1005
12F34A
  0
LINE
  5
12F34B
  8
OBJECT
 10
84.000000000034575
 20
-2902.5000000009049
 30
0.0
 11
90.500000000034547
 21
-2914.0000000009049
 31
0.0
1001
ACDBBLOCKREPETAG
1070
     1
1071
       67
1005
12F34B
  0
LINE
  5
12F34C
  8
OBJECT
 10
90.500000000034547
 20
-2914.0000000009049
 30
0.0
 11
94.000000000034575
 21
-2918.0000000009049
 31
0.0
1001
ACDBBLOCKREPETAG
1070
     1
1071
       68
1005
12F34C
  0
ARC
  5
12F34D
  8
OBJECT
 10
156.0000000000345
 20
-2536.100000000903
 30
0.0
 40
386.89999999999998
 50
260.77870136257849
 51
279.22129863742163
1001
ACDBBLOCKREPETAG
1070
     1
1071
       69
1005
12F34D
  0
LINE
  5
12F34E
  8
OBJECT
 10
94.000000000034575
 20
-2918.0000000009049
 30
0.0
 11
94.000000000034575
 21
-2924.0000000009049
 31
0.0
1001
ACDBBLOCKREPETAG
1070
     1
1071
       70
1005
12F34E
  0
LINE
  5
12F34F
  8
OBJECT
 10
84.000000000034575
 20
-2861.0000000009049
 30
0.0
 11
84.000000000034575
 21
-2902.5000000009049
 31
0.0
1001
ACDBBLOCKREPETAG
1070
     1
1071
       71
1005
12F34F
  0
INSERT
  5
12F350
  8
OBJECT
  2
*U11
 10
0.0
 20
0.0
 30
0.0
  0
LINE
  5
12F351
  8
HIDDEN
 10
213.00000000003459
 20
-2906.0000000009049
 30
0.0
 11
99.000000000034575
 21
-2906.0000000009049
 31
0.0
1001
ACDBBLOCKREPETAG
1070
     1
1071
      431
1005
12F351
  0
LINE
  5
12F352
  8
OBJECT
 10
94.000000000034575
 20
-2623.0000000008981
 30
0.0
 11
94.000000000034575
 21
-2620.0000000008981
 31
0.0
1001
ACDBBLOCKREPETAG
1070
     1
1071
      418
1005
12F352
  0
ARC
  5
12F353
  8
OBJECT
 10
97.000000000034561
 20
-2623.0000000008981
 30
0.0
 40
3.0
 50
180.0
 51
270.0
1001
ACDBBLOCKREPETAG
1070
     1
1071
      419
1005
12F353
  0
LINE
  5
12F354
  8
OBJECT
 10
218.00000000003459
 20
-2620.0000000008981
 30
0.0
 11
218.00000000003459
 21
-2623.0000000008981
 31
0.0
1001
ACDBBLOCKREPETAG
1070
     1
1071
      420
1005
12F354
  0
ARC
  5
12F355
  8
OBJECT
 10
215.00000000003459
 20
-2623.0000000008981
 30
0.0
 40
3.0
 50
270.0
 51
0.0
1001
ACDBBLOCKREPETAG
1070
     1
1071
      421
1005
12F355
  0
LINE
  5
12F356
  8
OBJECT
 10
215.00000000003459
 20
-2626.0000000008981
 30
0.0
 11
97.000000000034561
 21
-2626.0000000008981
 31
0.0
1001
ACDBBLOCKREPETAG
1070
     1
1071
      422
1005
12F356
  0
INSERT
  5
12F357
  8
OBJECT
  2
*U12
 10
0.0
 20
0.0
 30
0.0
  0
LINE
  5
12F358
  8
OBJECT
 10
289.00000000003462
 20
-2478.000000000899
 30
0.0
 11
296.0000000000345
 21
-2478.000000000899
 31
0.0
1001
ACDBBLOCKREPETAG
1070
     1
1071
       39
1005
12F358
  0
LINE
  5
12F359
  8
OBJECT
 10
296.0000000000345
 20
-2478.000000000899
 30
0.0
 11
296.0000000000345
 21
-2602.0000000008981
 31
0.0
1001
ACDBBLOCKREPETAG
1070
     1
1071
       40
1005
12F359
  0
LINE
  5
12F35A
  8
OBJECT
 10
296.0000000000345
 20
-2602.0000000008981
 30
0.0
 11
289.00000000003462
 21
-2602.0000000008981
 31
0.0
1001
ACDBBLOCKREPETAG
1070
     1
1071
       41
1005
12F35A
  0
LINE
  5
12F35B
  8
OBJECT
 10
289.00000000003462
 20
-2602.0000000008981
 30
0.0
 11
289.00000000003462
 21
-2478.000000000899
 31
0.0
1001
ACDBBLOCKREPETAG
1070
     1
1071
       42
1005
12F35B
  0
LINE
  5
12F35C
  8
OBJECT
 10
289.00000000003462
 20
-2481.000000000899
 30
0.0
 11
253.00000000003459
 21
-2481.000000000899
 31
0.0
1001
ACDBBLOCKREPETAG
1070
     1
1071
       43
1005
12F35C
  0
LINE
  5
12F35D
  8
OBJECT
 10
253.00000000003459
 20
-2481.000000000899
 30
0.0
 11
253.00000000003459
 21
-2599.000000000899
 31
0.0
1001
ACDBBLOCKREPETAG
1070
     1
1071
       44
1005
12F35D
  0
LINE
  5
12F35E
  8
OBJECT
 10
253.00000000003459
 20
-2599.000000000899
 30
0.0
 11
289.00000000003462
 21
-2599.000000000899
 31
0.0
1001
ACDBBLOCKREPETAG
1070
     1
1071
       45
1005
12F35E
  0
LINE
  5
12F35F
  8
OBJECT
 10
249.00000000003459
 20
-2485.5000000008981
 30
0.0
 11
242.00000000003459
 21
-2485.5000000008981
 31
0.0
1001
ACDBBLOCKREPETAG
1070
     1
1071
       46
1005
12F35F
  0
LINE
  5
12F360
  8
OBJECT
 10
242.00000000003459
 20
-2594.5000000008981
 30
0.0
 11
249.00000000003459
 21
-2594.5000000008981
 31
0.0
1001
ACDBBLOCKREPETAG
1070
     1
1071
       47
1005
12F360
  0
LINE
  5
12F361
  8
OBJECT
 10
249.00000000003459
 20
-2594.5000000008981
 30
0.0
 11
249.00000000003459
 21
-2485.5000000008981
 31
0.0
1001
ACDBBLOCKREPETAG
1070
     1
1071
       48
1005
12F361
  0
LINE
  5
12F362
  8
OBJECT
 10
253.00000000003459
 20
-2481.000000000899
 30
0.0
 11
249.00000000003459
 21
-2485.5000000008981
 31
0.0
1001
ACDBBLOCKREPETAG
1070
     1
1071
       49
1005
12F362
  0
LINE
  5
12F363
  8
OBJECT
 10
253.00000000003459
 20
-2599.000000000899
 30
0.0
 11
249.00000000003459
 21
-2594.5000000008981
 31
0.0
1001
ACDBBLOCKREPETAG
1070
     1
1071
       50
1005
12F363
  0
LINE
  5
12F364
  8
OBJECT
 10
239.00000000003641
 20
-2478.000000000899
 30
0.0
 11
236.00000000003459
 21
-2478.000000000899
 31
0.0
1001
ACDBBLOCKREPETAG
1070
     1
1071
       51
1005
12F364
  0
ARC
  5
12F365
  8
OBJECT
 10
239.00000000003641
 20
-2481.000000000899
 30
0.0
 40
3.0
 50
0.0
 51
90.0
1001
ACDBBLOCKREPETAG
1070
     1
1071
       52
1005
12F365
  0
LINE
  5
12F366
  8
OBJECT
 10
236.00000000003459
 20
-2602.0000000008981
 30
0.0
 11
239.00000000003271
 21
-2602.0000000008981
 31
0.0
1001
ACDBBLOCKREPETAG
1070
     1
1071
       53
1005
12F366
  0
ARC
  5
12F367
  8
OBJECT
 10
239.00000000003271
 20
-2599.000000000899
 30
0.0
 40
3.0
 50
270.0
 51
0.0
1001
ACDBBLOCKREPETAG
1070
     1
1071
       54
1005
12F367
  0
LINE
  5
12F368
  8
OBJECT
 10
242.0000000000328
 20
-2599.000000000899
 30
0.0
 11
242.00000000003641
 21
-2481.000000000899
 31
0.0
1001
ACDBBLOCKREPETAG
1070
     1
1071
       55
1005
12F368
  0
LINE
  5
12F369
  8
HIDDEN
 10
244.0000000000345
 20
-2495.500000000899
 30
0.0
 11
244.0000000000345
 21
-2584.5000000008981
 31
0.0
1001
ACDBBLOCKREPETAG
1070
     1
1071
      430
1005
12F369
  0
INSERT
  5
12F36A
  8
OBJECT
  2
*U13
 10
0.0
 20
0.0
 30
0.0
  0
LINE
  5
12F36B
  8
OBJECT
 10
94.000000000034575
 20
-2407.0000000008981
 30
0.0
 11
94.000000000034575
 21
-2400.0000000008981
 31
0.0
1001
ACDBBLOCKREPETAG
1070
     1
1071
       39
1005
12F36B
  0
LINE
  5
12F36C
  8
OBJECT
 10
94.000000000034575
 20
-2400.0000000008981
 30
0.0
 11
218.00000000003459
 21
-2400.0000000008981
 31
0.0
1001
ACDBBLOCKREPETAG
1070
     1
1071
       40
1005
12F36C
  0
LINE
  5
12F36D
  8
OBJECT
 10
218.00000000003459
 20
-2400.0000000008981
 30
0.0
 11
218.00000000003459
 21
-2407.0000000008981
 31
0.0
1001
ACDBBLOCKREPETAG
1070
     1
1071
       41
1005
12F36D
  0
LINE
  5
12F36E
  8
OBJECT
 10
218.00000000003459
 20
-2407.0000000008981
 30
0.0
 11
94.000000000034575
 21
-2407.0000000008981
 31
0.0
1001
ACDBBLOCKREPETAG
1070
     1
1071
       42
1005
12F36E
  0
LINE
  5
12F36F
  8
OBJECT
 10
97.000000000034561
 20
-2407.0000000008981
 30
0.0
 11
97.000000000034561
 21
-2443.0000000008981
 31
0.0
1001
ACDBBLOCKREPETAG
1070
     1
1071
       43
1005
12F36F
  0
LINE
  5
12F370
  8
OBJECT
 10
97.000000000034561
 20
-2443.0000000008981
 30
0.0
 11
215.00000000003459
 21
-2443.0000000008981
 31
0.0
1001
ACDBBLOCKREPETAG
1070
     1
1071
       44
1005
12F370
  0
LINE
  5
12F371
  8
OBJECT
 10
215.00000000003459
 20
-2443.0000000008981
 30
0.0
 11
215.00000000003459
 21
-2407.0000000008981
 31
0.0
1001
ACDBBLOCKREPETAG
1070
     1
1071
       45
1005
12F371
  0
LINE
  5
12F372
  8
OBJECT
 10
101.5000000000345
 20
-2447.0000000008981
 30
0.0
 11
101.5000000000345
 21
-2454.0000000008981
 31
0.0
1001
ACDBBLOCKREPETAG
1070
     1
1071
       46
1005
12F372
  0
LINE
  5
12F373
  8
OBJECT
 10
210.5000000000345
 20
-2454.0000000008981
 30
0.0
 11
210.5000000000345
 21
-2447.0000000008981
 31
0.0
1001
ACDBBLOCKREPETAG
1070
     1
1071
       47
1005
12F373
  0
LINE
  5
12F374
  8
OBJECT
 10
210.5000000000345
 20
-2447.0000000008981
 30
0.0
 11
101.5000000000345
 21
-2447.0000000008981
 31
0.0
1001
ACDBBLOCKREPETAG
1070
     1
1071
       48
1005
12F374
  0
LINE
  5
12F375
  8
OBJECT
 10
97.000000000034561
 20
-2443.0000000008981
 30
0.0
 11
101.5000000000345
 21
-2447.0000000008981
 31
0.0
1001
ACDBBLOCKREPETAG
1070
     1
1071
       49
1005
12F375
  0
LINE
  5
12F376
  8
OBJECT
 10
215.00000000003459
 20
-2443.0000000008981
 30
0.0
 11
210.5000000000345
 21
-2447.0000000008981
 31
0.0
1001
ACDBBLOCKREPETAG
1070
     1
1071
       50
1005
12F376
  0
LINE
  5
12F377
  8
OBJECT
 10
94.000000000034575
 20
-2457.0000000008981
 30
0.0
 11
94.000000000034575
 21
-2460.0000000008981
 31
0.0
1001
ACDBBLOCKREPETAG
1070
     1
1071
       51
1005
12F377
  0
ARC
  5
12F378
  8
OBJECT
 10
97.000000000034561
 20
-2457.0000000008981
 30
0.0
 40
3.0
 50
90.0
 51
180.0
1001
ACDBBLOCKREPETAG
1070
     1
1071
       52
1005
12F378
  0
LINE
  5
12F379
  8
OBJECT
 10
218.00000000003459
 20
-2460.0000000008981
 30
0.0
 11
218.00000000003459
 21
-2457.0000000008999
 31
0.0
1001
ACDBBLOCKREPETAG
1070
     1
1071
       53
1005
12F379
  0
ARC
  5
12F37A
  8
OBJECT
 10
215.00000000003459
 20
-2457.0000000008999
 30
0.0
 40
3.0
 50
0.0
 51
90.0
1001
ACDBBLOCKREPETAG
1070
     1
1071
       54
1005
12F37A
  0
LINE
  5
12F37B
  8
OBJECT
 10
215.00000000003459
 20
-2454.000000000899
 30
0.0
 11
97.000000000034561
 21
-2454.0000000008981
 31
0.0
1001
ACDBBLOCKREPETAG
1070
     1
1071
       55
1005
12F37B
  0
LINE
  5
12F37C
  8
HIDDEN
 10
111.5000000000345
 20
-2452.0000000008981
 30
0.0
 11
200.50000000003459
 21
-2452.0000000008981
 31
0.0
1001
ACDBBLOCKREPETAG
1070
     1
1071
      426
1005
12F37C
  0
LINE
  5
12F37D
  8
OBJECT
 10
454.00000000011448
 20
-2623.0000000008981
 30
0.0
 11
454.00000000011448
 21
-2620.0000000008981
 31
0.0
1001
ACDBBLOCKREPETAG
1070
     1
1071
      418
1005
12F37D
  0
ARC
  5
12F37E
  8
OBJECT
 10
457.0000000001146
 20
-2623.0000000008981
 30
0.0
 40
3.0
 50
180.0
 51
270.0
1001
ACDBBLOCKREPETAG
1070
     1
1071
      419
1005
12F37E
  0
LINE
  5
12F37F
  8
OBJECT
 10
578.00000000011448
 20
-2620.0000000008981
 30
0.0
 11
578.00000000011448
 21
-2623.0000000008981
 31
0.0
1001
ACDBBLOCKREPETAG
1070
     1
1071
      420
1005
12F37F
  0
ARC
  5
12F380
  8
OBJECT
 10
575.00000000011437
 20
-2623.0000000008981
 30
0.0
 40
3.0
 50
270.0
 51
0.0
1001
ACDBBLOCKREPETAG
1070
     1
1071
      421
1005
12F380
  0
LINE
  5
12F381
  8
OBJECT
 10
575.00000000011437
 20
-2626.0000000008981
 30
0.0
 11
457.0000000001146
 21
-2626.0000000008981
 31
0.0
1001
ACDBBLOCKREPETAG
1070
     1
1071
      422
1005
12F381
  0
LINE
  5
12F382
  8
OBJECT
 10
666.00000000011448
 20
-2465.000000000899
 30
0.0
 11
659.0000000001146
 21
-2465.000000000899
 31
0.0
1001
ACDBBLOCKREPETAG
1070
     1
1071
       57
1005
12F382
  0
LINE
  5
12F383
  8
OBJECT
 10
659.0000000001146
 20
-2465.000000000899
 30
0.0
 11
659.0000000001146
 21
-2615.000000000899
 31
0.0
1001
ACDBBLOCKREPETAG
1070
     1
1071
       58
1005
12F383
  0
LINE
  5
12F384
  8
OBJECT
 10
617.5000000001146
 20
-2468.0000000008981
 30
0.0
 11
617.5000000001146
 21
-2612.0000000008981
 31
0.0
1001
ACDBBLOCKREPETAG
1070
     1
1071
       59
1005
12F384
  0
LINE
  5
12F385
  8
OBJECT
 10
606.0000000001146
 20
-2474.5000000008981
 30
0.0
 11
606.0000000001146
 21
-2605.5000000008981
 31
0.0
1001
ACDBBLOCKREPETAG
1070
     1
1071
       60
1005
12F385
  0
LINE
  5
12F386
  8
OBJECT
 10
659.0000000001146
 20
-2615.000000000899
 30
0.0
 11
666.00000000011448
 21
-2615.000000000899
 31
0.0
1001
ACDBBLOCKREPETAG
1070
     1
1071
       61
1005
12F386
  0
LINE
  5
12F387
  8
OBJECT
 10
666.00000000011448
 20
-2615.000000000899
 30
0.0
 11
666.00000000011448
 21
-2465.000000000899
 31
0.0
1001
ACDBBLOCKREPETAG
1070
     1
1071
       62
1005
12F387
  0
LINE
  5
12F388
  8
OBJECT
 10
602.0000000001146
 20
-2602.0000000008981
 30
0.0
 11
596.00000000011437
 21
-2602.0000000008981
 31
0.0
1001
ACDBBLOCKREPETAG
1070
     1
1071
       63
1005
12F388
  0
LINE
  5
12F389
  8
OBJECT
 10
659.0000000001146
 20
-2612.0000000008981
 30
0.0
 11
617.5000000001146
 21
-2612.0000000008981
 31
0.0
1001
ACDBBLOCKREPETAG
1070
     1
1071
       64
1005
12F389
  0
LINE
  5
12F38A
  8
OBJECT
 10
617.5000000001146
 20
-2612.0000000008981
 30
0.0
 11
606.0000000001146
 21
-2605.5000000008981
 31
0.0
1001
ACDBBLOCKREPETAG
1070
     1
1071
       65
1005
12F38A
  0
LINE
  5
12F38B
  8
OBJECT
 10
606.0000000001146
 20
-2605.5000000008981
 30
0.0
 11
602.0000000001146
 21
-2602.0000000008981
 31
0.0
1001
ACDBBLOCKREPETAG
1070
     1
1071
       66
1005
12F38B
  0
LINE
  5
12F38C
  8
OBJECT
 10
617.5000000001146
 20
-2468.0000000008981
 30
0.0
 11
606.0000000001146
 21
-2474.5000000008981
 31
0.0
1001
ACDBBLOCKREPETAG
1070
     1
1071
       67
1005
12F38C
  0
LINE
  5
12F38D
  8
OBJECT
 10
606.0000000001146
 20
-2474.5000000008981
 30
0.0
 11
602.0000000001146
 21
-2478.000000000899
 31
0.0
1001
ACDBBLOCKREPETAG
1070
     1
1071
       68
1005
12F38D
  0
ARC
  5
12F38E
  8
OBJECT
 10
983.90000000011605
 20
-2540.0000000008981
 30
0.0
 40
386.89999999999998
 50
170.77870136263201
 51
189.22129863736799
1001
ACDBBLOCKREPETAG
1070
     1
1071
       69
1005
12F38E
  0
LINE
  5
12F38F
  8
OBJECT
 10
602.0000000001146
 20
-2478.000000000899
 30
0.0
 11
596.00000000011437
 21
-2478.000000000899
 31
0.0
1001
ACDBBLOCKREPETAG
1070
     1
1071
       70
1005
12F38F
  0
LINE
  5
12F390
  8
OBJECT
 10
659.0000000001146
 20
-2468.0000000008981
 30
0.0
 11
617.5000000001146
 21
-2468.0000000008981
 31
0.0
1001
ACDBBLOCKREPETAG
1070
     1
1071
       71
1005
12F390
  0
INSERT
  5
12F391
  8
OBJECT
  2
*U14
 10
0.0
 20
0.0
 30
0.0
  0
LINE
  5
12F392
  8
HIDDEN
 10
614.0000000001146
 20
-2597.0000000008981
 30
0.0
 11
614.0000000001146
 21
-2483.0000000008981
 31
0.0
1001
ACDBBLOCKREPETAG
1070
     1
1071
      437
1005
12F392
  0
INSERT
  5
12F393
  8
OBJECT
  2
*U15
 10
0.0
 20
0.0
 30
0.0
  0
LINE
  5
12F394
  8
OBJECT
 10
454.00000000011448
 20
-2407.0000000008981
 30
0.0
 11
454.00000000011448
 21
-2400.0000000008981
 31
0.0
1001
ACDBBLOCKREPETAG
1070
     1
1071
       39
1005
12F394
  0
LINE
  5
12F395
  8
OBJECT
 10
454.00000000011448
 20
-2400.0000000008981
 30
0.0
 11
578.00000000011448
 21
-2400.0000000008981
 31
0.0
1001
ACDBBLOCKREPETAG
1070
     1
1071
       40
1005
12F395
  0
LINE
  5
12F396
  8
OBJECT
 10
578.00000000011448
 20
-2400.0000000008981
 30
0.0
 11
578.00000000011448
 21
-2407.0000000008981
 31
0.0
1001
ACDBBLOCKREPETAG
1070
     1
1071
       41
1005
12F396
  0
LINE
  5
12F397
  8
OBJECT
 10
578.00000000011448
 20
-2407.0000000008981
 30
0.0
 11
454.00000000011448
 21
-2407.0000000008981
 31
0.0
1001
ACDBBLOCKREPETAG
1070
     1
1071
       42
1005
12F397
  0
LINE
  5
12F398
  8
OBJECT
 10
457.0000000001146
 20
-2407.0000000008981
 30
0.0
 11
457.0000000001146
 21
-2443.0000000008981
 31
0.0
1001
ACDBBLOCKREPETAG
1070
     1
1071
       43
1005
12F398
  0
LINE
  5
12F399
  8
OBJECT
 10
457.0000000001146
 20
-2443.0000000008981
 30
0.0
 11
575.00000000011437
 21
-2443.0000000008981
 31
0.0
1001
ACDBBLOCKREPETAG
1070
     1
1071
       44
1005
12F399
  0
LINE
  5
12F39A
  8
OBJECT
 10
575.00000000011437
 20
-2443.0000000008981
 30
0.0
 11
575.00000000011437
 21
-2407.0000000008981
 31
0.0
1001
ACDBBLOCKREPETAG
1070
     1
1071
       45
1005
12F39A
  0
LINE
  5
12F39B
  8
OBJECT
 10
461.50000000011448
 20
-2447.0000000008981
 30
0.0
 11
461.50000000011448
 21
-2454.0000000008981
 31
0.0
1001
ACDBBLOCKREPETAG
1070
     1
1071
       46
1005
12F39B
  0
LINE
  5
12F39C
  8
OBJECT
 10
570.50000000011437
 20
-2454.0000000008981
 30
0.0
 11
570.50000000011437
 21
-2447.0000000008981
 31
0.0
1001
ACDBBLOCKREPETAG
1070
     1
1071
       47
1005
12F39C
  0
LINE
  5
12F39D
  8
OBJECT
 10
570.50000000011437
 20
-2447.0000000008981
 30
0.0
 11
461.50000000011448
 21
-2447.0000000008981
 31
0.0
1001
ACDBBLOCKREPETAG
1070
     1
1071
       48
1005
12F39D
  0
LINE
  5
12F39E
  8
OBJECT
 10
457.0000000001146
 20
-2443.0000000008981
 30
0.0
 11
461.50000000011448
 21
-2447.0000000008981
 31
0.0
1001
ACDBBLOCKREPETAG
1070
     1
1071
       49
1005
12F39E
  0
LINE
  5
12F39F
  8
OBJECT
 10
575.00000000011437
 20
-2443.0000000008981
 30
0.0
 11
570.50000000011437
 21
-2447.0000000008981
 31
0.0
1001
ACDBBLOCKREPETAG
1070
     1
1071
       50
1005
12F39F
  0
LINE
  5
12F3A0
  8
OBJECT
 10
454.00000000011448
 20
-2457.0000000008981
 30
0.0
 11
454.00000000011448
 21
-2460.0000000008981
 31
0.0
1001
ACDBBLOCKREPETAG
1070
     1
1071
       51
1005
12F3A0
  0
ARC
  5
12F3A1
  8
OBJECT
 10
457.0000000001146
 20
-2457.0000000008981
 30
0.0
 40
3.0
 50
90.0
 51
180.0
1001
ACDBBLOCKREPETAG
1070
     1
1071
       52
1005
12F3A1
  0
LINE
  5
12F3A2
  8
OBJECT
 10
578.00000000011448
 20
-2460.0000000008981
 30
0.0
 11
578.00000000011448
 21
-2457.0000000008999
 31
0.0
1001
ACDBBLOCKREPETAG
1070
     1
1071
       53
1005
12F3A2
  0
ARC
  5
12F3A3
  8
OBJECT
 10
575.00000000011437
 20
-2457.0000000008999
 30
0.0
 40
3.0
 50
0.0
 51
90.0
1001
ACDBBLOCKREPETAG
1070
     1
1071
       54
1005
12F3A3
  0
LINE
  5
12F3A4
  8
OBJECT
 10
575.00000000011437
 20
-2454.000000000899
 30
0.0
 11
457.0000000001146
 21
-2454.0000000008981
 31
0.0
1001
ACDBBLOCKREPETAG
1070
     1
1071
       55
1005
12F3A4
  0
LINE
  5
12F3A5
  8
HIDDEN
 10
471.5000000001146
 20
-2452.0000000008981
 30
0.0
 11
560.5000000001146
 21
-2452.0000000008981
 31
0.0
1001
ACDBBLOCKREPETAG
1070
     1
1071
      426
1005
12F3A5
  0
LINE
  5
12F3A6
  8
OBJECT
 10
454.00000000011448
 20
-2159.0000000008922
 30
0.0
 11
454.00000000011448
 21
-2156.0000000008922
 31
0.0
1001
ACDBBLOCKREPETAG
1070
     1
1071
      418
1005
12F3A6
  0
ARC
  5
12F3A7
  8
OBJECT
 10
457.0000000001146
 20
-2159.0000000008922
 30
0.0
 40
3.0
 50
180.0
 51
270.0
1001
ACDBBLOCKREPETAG
1070
     1
1071
      419
1005
12F3A7
  0
LINE
  5
12F3A8
  8
OBJECT
 10
578.00000000011448
 20
-2156.0000000008922
 30
0.0
 11
578.00000000011448
 21
-2159.0000000008922
 31
0.0
1001
ACDBBLOCKREPETAG
1070
     1
1071
      420
1005
12F3A8
  0
ARC
  5
12F3A9
  8
OBJECT
 10
575.00000000011437
 20
-2159.0000000008922
 30
0.0
 40
3.0
 50
270.0
 51
0.0
1001
ACDBBLOCKREPETAG
1070
     1
1071
      421
1005
12F3A9
  0
LINE
  5
12F3AA
  8
OBJECT
 10
575.00000000011437
 20
-2162.0000000008922
 30
0.0
 11
457.0000000001146
 21
-2162.0000000008922
 31
0.0
1001
ACDBBLOCKREPETAG
1070
     1
1071
      422
1005
12F3AA
  0
INSERT
  5
12F3AB
  8
OBJECT
  2
*U16
 10
0.0
 20
0.0
 30
0.0
  0
LINE
  5
12F3AC
  8
OBJECT
 10
649.00000000011448
 20
-2021.000000000892
 30
0.0
 11
656.0000000001146
 21
-2021.000000000892
 31
0.0
1001
ACDBBLOCKREPETAG
1070
     1
1071
       20
1005
12F3AC
  0
LINE
  5
12F3AD
  8
OBJECT
 10
656.0000000001146
 20
-2021.000000000892
 30
0.0
 11
656.0000000001146
 21
-2131.0000000008922
 31
0.0
1001
ACDBBLOCKREPETAG
1070
     1
1071
       21
1005
12F3AD
  0
LINE
  5
12F3AE
  8
OBJECT
 10
656.0000000001146
 20
-2131.0000000008922
 30
0.0
 11
649.00000000011448
 21
-2131.0000000008922
 31
0.0
1001
ACDBBLOCKREPETAG
1070
     1
1071
       22
1005
12F3AE
  0
LINE
  5
12F3AF
  8
OBJECT
 10
649.00000000011448
 20
-2131.0000000008922
 30
0.0
 11
649.00000000011448
 21
-2021.000000000892
 31
0.0
1001
ACDBBLOCKREPETAG
1070
     1
1071
       23
1005
12F3AF
  0
LINE
  5
12F3B0
  8
OBJECT
 10
649.00000000011448
 20
-2024.000000000892
 30
0.0
 11
613.0000000001146
 21
-2024.000000000892
 31
0.0
1001
ACDBBLOCKREPETAG
1070
     1
1071
       24
1005
12F3B0
  0
LINE
  5
12F3B1
  8
OBJECT
 10
613.0000000001146
 20
-2024.000000000892
 30
0.0
 11
613.0000000001146
 21
-2128.0000000008922
 31
0.0
1001
ACDBBLOCKREPETAG
1070
     1
1071
       25
1005
12F3B1
  0
LINE
  5
12F3B2
  8
OBJECT
 10
613.0000000001146
 20
-2128.0000000008922
 30
0.0
 11
649.00000000011448
 21
-2128.0000000008922
 31
0.0
1001
ACDBBLOCKREPETAG
1070
     1
1071
       26
1005
12F3B2
  0
LINE
  5
12F3B3
  8
OBJECT
 10
609.0000000001146
 20
-2028.500000000892
 30
0.0
 11
602.0000000001146
 21
-2028.500000000892
 31
0.0
1001
ACDBBLOCKREPETAG
1070
     1
1071
       27
1005
12F3B3
  0
LINE
  5
12F3B4
  8
OBJECT
 10
602.0000000001146
 20
-2123.5000000008931
 30
0.0
 11
609.0000000001146
 21
-2123.5000000008931
 31
0.0
1001
ACDBBLOCKREPETAG
1070
     1
1071
       28
1005
12F3B4
  0
LINE
  5
12F3B5
  8
OBJECT
 10
609.0000000001146
 20
-2123.5000000008931
 30
0.0
 11
609.0000000001146
 21
-2028.500000000892
 31
0.0
1001
ACDBBLOCKREPETAG
1070
     1
1071
       29
1005
12F3B5
  0
LINE
  5
12F3B6
  8
OBJECT
 10
613.0000000001146
 20
-2024.000000000892
 30
0.0
 11
609.0000000001146
 21
-2028.500000000892
 31
0.0
1001
ACDBBLOCKREPETAG
1070
     1
1071
       30
1005
12F3B6
  0
LINE
  5
12F3B7
  8
OBJECT
 10
613.0000000001146
 20
-2128.0000000008922
 30
0.0
 11
609.0000000001146
 21
-2123.5000000008931
 31
0.0
1001
ACDBBLOCKREPETAG
1070
     1
1071
       31
1005
12F3B7
  0
LINE
  5
12F3B8
  8
OBJECT
 10
599.00000000011619
 20
-2014.000000000892
 30
0.0
 11
596.00000000011437
 21
-2014.000000000892
 31
0.0
1001
ACDBBLOCKREPETAG
1070
     1
1071
       32
1005
12F3B8
  0
ARC
  5
12F3B9
  8
OBJECT
 10
599.00000000011619
 20
-2017.000000000892
 30
0.0
 40
3.0
 50
0.0
 51
90.0
1001
ACDBBLOCKREPETAG
1070
     1
1071
       33
1005
12F3B9
  0
LINE
  5
12F3BA
  8
OBJECT
 10
596.00000000011437
 20
-2138.0000000008922
 30
0.0
 11
599.00000000011278
 21
-2138.0000000008922
 31
0.0
1001
ACDBBLOCKREPETAG
1070
     1
1071
       34
1005
12F3BA
  0
ARC
  5
12F3BB
  8
OBJECT
 10
599.00000000011278
 20
-2135.0000000008922
 30
0.0
 40
3.0
 50
270.0
 51
0.0
1001
ACDBBLOCKREPETAG
1070
     1
1071
       35
1005
12F3BB
  0
LINE
  5
12F3BC
  8
OBJECT
 10
602.00000000011266
 20
-2135.0000000008922
 30
0.0
 11
602.0000000001163
 21
-2017.000000000892
 31
0.0
1001
ACDBBLOCKREPETAG
1070
     1
1071
       36
1005
12F3BC
  0
LINE
  5
12F3BD
  8
HIDDEN
 10
604.00000000011437
 20
-2038.0000000008911
 30
0.0
 11
604.00000000011437
 21
-2114.0000000008922
 31
0.0
1001
ACDBBLOCKREPETAG
1070
     1
1071
      427
1005
12F3BD
  0
INSERT
  5
12F3BE
  8
OBJECT
  2
*U17
 10
0.0
 20
0.0
 30
0.0
  0
LINE
  5
12F3BF
  8
OBJECT
 10
454.00000000011448
 20
-1943.000000000892
 30
0.0
 11
454.00000000011448
 21
-1936.0000000008911
 31
0.0
1001
ACDBBLOCKREPETAG
1070
     1
1071
       39
1005
12F3BF
  0
LINE
  5
12F3C0
  8
OBJECT
 10
454.00000000011448
 20
-1936.0000000008911
 30
0.0
 11
578.00000000011448
 21
-1936.0000000008911
 31
0.0
1001
ACDBBLOCKREPETAG
1070
     1
1071
       40
1005
12F3C0
  0
LINE
  5
12F3C1
  8
OBJECT
 10
578.00000000011448
 20
-1936.0000000008911
 30
0.0
 11
578.00000000011448
 21
-1943.000000000892
 31
0.0
1001
ACDBBLOCKREPETAG
1070
     1
1071
       41
1005
12F3C1
  0
LINE
  5
12F3C2
  8
OBJECT
 10
578.00000000011448
 20
-1943.000000000892
 30
0.0
 11
454.00000000011448
 21
-1943.000000000892
 31
0.0
1001
ACDBBLOCKREPETAG
1070
     1
1071
       42
1005
12F3C2
  0
LINE
  5
12F3C3
  8
OBJECT
 10
457.0000000001146
 20
-1943.000000000892
 30
0.0
 11
457.0000000001146
 21
-1979.000000000892
 31
0.0
1001
ACDBBLOCKREPETAG
1070
     1
1071
       43
1005
12F3C3
  0
LINE
  5
12F3C4
  8
OBJECT
 10
457.0000000001146
 20
-1979.000000000892
 30
0.0
 11
575.00000000011437
 21
-1979.000000000892
 31
0.0
1001
ACDBBLOCKREPETAG
1070
     1
1071
       44
1005
12F3C4
  0
LINE
  5
12F3C5
  8
OBJECT
 10
575.00000000011437
 20
-1979.000000000892
 30
0.0
 11
575.00000000011437
 21
-1943.000000000892
 31
0.0
1001
ACDBBLOCKREPETAG
1070
     1
1071
       45
1005
12F3C5
  0
LINE
  5
12F3C6
  8
OBJECT
 10
461.50000000011448
 20
-1983.000000000892
 30
0.0
 11
461.50000000011448
 21
-1990.000000000892
 31
0.0
1001
ACDBBLOCKREPETAG
1070
     1
1071
       46
1005
12F3C6
  0
LINE
  5
12F3C7
  8
OBJECT
 10
570.50000000011437
 20
-1990.000000000892
 30
0.0
 11
570.50000000011437
 21
-1983.000000000892
 31
0.0
1001
ACDBBLOCKREPETAG
1070
     1
1071
       47
1005
12F3C7
  0
LINE
  5
12F3C8
  8
OBJECT
 10
570.50000000011437
 20
-1983.000000000892
 30
0.0
 11
461.50000000011448
 21
-1983.000000000892
 31
0.0
1001
ACDBBLOCKREPETAG
1070
     1
1071
       48
1005
12F3C8
  0
LINE
  5
12F3C9
  8
OBJECT
 10
457.0000000001146
 20
-1979.000000000892
 30
0.0
 11
461.50000000011448
 21
-1983.000000000892
 31
0.0
1001
ACDBBLOCKREPETAG
1070
     1
1071
       49
1005
12F3C9
  0
LINE
  5
12F3CA
  8
OBJECT
 10
575.00000000011437
 20
-1979.000000000892
 30
0.0
 11
570.50000000011437
 21
-1983.000000000892
 31
0.0
1001
ACDBBLOCKREPETAG
1070
     1
1071
       50
1005
12F3CA
  0
LINE
  5
12F3CB
  8
OBJECT
 10
454.00000000011448
 20
-1993.0000000008911
 30
0.0
 11
454.00000000011448
 21
-1996.000000000892
 31
0.0
1001
ACDBBLOCKREPETAG
1070
     1
1071
       51
1005
12F3CB
  0
ARC
  5
12F3CC
  8
OBJECT
 10
457.0000000001146
 20
-1993.0000000008911
 30
0.0
 40
3.0
 50
90.0
 51
180.0
1001
ACDBBLOCKREPETAG
1070
     1
1071
       52
1005
12F3CC
  0
LINE
  5
12F3CD
  8
OBJECT
 10
578.00000000011448
 20
-1996.000000000892
 30
0.0
 11
578.00000000011448
 21
-1993.0000000008929
 31
0.0
1001
ACDBBLOCKREPETAG
1070
     1
1071
       53
1005
12F3CD
  0
ARC
  5
12F3CE
  8
OBJECT
 10
575.00000000011437
 20
-1993.0000000008929
 30
0.0
 40
3.0
 50
0.0
 51
90.0
1001
ACDBBLOCKREPETAG
1070
     1
1071
       54
1005
12F3CE
  0
LINE
  5
12F3CF
  8
OBJECT
 10
575.00000000011437
 20
-1990.0000000008929
 30
0.0
 11
457.0000000001146
 21
-1990.0000000008911
 31
0.0
1001
ACDBBLOCKREPETAG
1070
     1
1071
       55
1005
12F3CF
  0
LINE
  5
12F3D0
  8
HIDDEN
 10
471.5000000001146
 20
-1988.0000000008911
 30
0.0
 11
560.5000000001146
 21
-1988.0000000008911
 31
0.0
1001
ACDBBLOCKREPETAG
1070
     1
1071
      426
1005
12F3D0
  0
LINE
  5
12F3D1
  8
OBJECT
 10
94.000000000034575
 20
-2159.0000000008922
 30
0.0
 11
94.000000000034575
 21
-2156.0000000008922
 31
0.0
1001
ACDBBLOCKREPETAG
1070
     1
1071
      418
1005
12F3D1
  0
ARC
  5
12F3D2
  8
OBJECT
 10
97.000000000034561
 20
-2159.0000000008922
 30
0.0
 40
3.0
 50
180.0
 51
270.0
1001
ACDBBLOCKREPETAG
1070
     1
1071
      419
1005
12F3D2
  0
LINE
  5
12F3D3
  8
OBJECT
 10
218.00000000003459
 20
-2156.0000000008922
 30
0.0
 11
218.00000000003459
 21
-2159.0000000008922
 31
0.0
1001
ACDBBLOCKREPETAG
1070
     1
1071
      420
1005
12F3D3
  0
ARC
  5
12F3D4
  8
OBJECT
 10
215.00000000003459
 20
-2159.0000000008922
 30
0.0
 40
3.0
 50
270.0
 51
0.0
1001
ACDBBLOCKREPETAG
1070
     1
1071
      421
1005
12F3D4
  0
LINE
  5
12F3D5
  8
OBJECT
 10
215.00000000003459
 20
-2162.0000000008922
 30
0.0
 11
97.000000000034561
 21
-2162.0000000008922
 31
0.0
1001
ACDBBLOCKREPETAG
1070
     1
1071
      422
1005
12F3D5
  0
INSERT
  5
12F3D6
  8
OBJECT
  2
*U18
 10
0.0
 20
0.0
 30
0.0
  0
LINE
  5
12F3D7
  8
OBJECT
 10
289.00000000003462
 20
-2029.000000000892
 30
0.0
 11
296.0000000000345
 21
-2029.000000000892
 31
0.0
1001
ACDBBLOCKREPETAG
1070
     1
1071
        1
1005
12F3D7
  0
LINE
  5
12F3D8
  8
OBJECT
 10
296.0000000000345
 20
-2029.000000000892
 30
0.0
 11
296.0000000000345
 21
-2123.0000000008922
 31
0.0
1001
ACDBBLOCKREPETAG
1070
     1
1071
        2
1005
12F3D8
  0
LINE
  5
12F3D9
  8
OBJECT
 10
296.0000000000345
 20
-2123.0000000008922
 30
0.0
 11
289.00000000003462
 21
-2123.0000000008922
 31
0.0
1001
ACDBBLOCKREPETAG
1070
     1
1071
        3
1005
12F3D9
  0
LINE
  5
12F3DA
  8
OBJECT
 10
289.00000000003462
 20
-2123.0000000008922
 30
0.0
 11
289.00000000003462
 21
-2029.000000000892
 31
0.0
1001
ACDBBLOCKREPETAG
1070
     1
1071
        4
1005
12F3DA
  0
LINE
  5
12F3DB
  8
OBJECT
 10
289.00000000003462
 20
-2032.000000000892
 30
0.0
 11
253.00000000003459
 21
-2032.000000000892
 31
0.0
1001
ACDBBLOCKREPETAG
1070
     1
1071
        5
1005
12F3DB
  0
LINE
  5
12F3DC
  8
OBJECT
 10
253.00000000003459
 20
-2032.000000000892
 30
0.0
 11
253.00000000003459
 21
-2120.0000000008922
 31
0.0
1001
ACDBBLOCKREPETAG
1070
     1
1071
        6
1005
12F3DC
  0
LINE
  5
12F3DD
  8
OBJECT
 10
253.00000000003459
 20
-2120.0000000008922
 30
0.0
 11
289.00000000003462
 21
-2120.0000000008922
 31
0.0
1001
ACDBBLOCKREPETAG
1070
     1
1071
        7
1005
12F3DD
  0
LINE
  5
12F3DE
  8
OBJECT
 10
249.00000000003459
 20
-2036.500000000892
 30
0.0
 11
242.00000000003459
 21
-2036.500000000892
 31
0.0
1001
ACDBBLOCKREPETAG
1070
     1
1071
        8
1005
12F3DE
  0
LINE
  5
12F3DF
  8
OBJECT
 10
242.00000000003459
 20
-2115.5000000008922
 30
0.0
 11
249.00000000003459
 21
-2115.5000000008922
 31
0.0
1001
ACDBBLOCKREPETAG
1070
     1
1071
        9
1005
12F3DF
  0
LINE
  5
12F3E0
  8
OBJECT
 10
249.00000000003459
 20
-2115.5000000008922
 30
0.0
 11
249.00000000003459
 21
-2036.500000000892
 31
0.0
1001
ACDBBLOCKREPETAG
1070
     1
1071
       10
1005
12F3E0
  0
LINE
  5
12F3E1
  8
OBJECT
 10
253.00000000003459
 20
-2032.000000000892
 30
0.0
 11
249.00000000003459
 21
-2036.500000000892
 31
0.0
1001
ACDBBLOCKREPETAG
1070
     1
1071
       11
1005
12F3E1
  0
LINE
  5
12F3E2
  8
OBJECT
 10
253.00000000003459
 20
-2120.0000000008922
 30
0.0
 11
249.00000000003459
 21
-2115.5000000008922
 31
0.0
1001
ACDBBLOCKREPETAG
1070
     1
1071
       12
1005
12F3E2
  0
LINE
  5
12F3E3
  8
OBJECT
 10
239.00000000003641
 20
-2014.000000000892
 30
0.0
 11
236.00000000003459
 21
-2014.000000000892
 31
0.0
1001
ACDBBLOCKREPETAG
1070
     1
1071
       13
1005
12F3E3
  0
ARC
  5
12F3E4
  8
OBJECT
 10
239.00000000003641
 20
-2017.000000000892
 30
0.0
 40
3.0
 50
0.0
 51
90.0
1001
ACDBBLOCKREPETAG
1070
     1
1071
       14
1005
12F3E4
  0
LINE
  5
12F3E5
  8
OBJECT
 10
236.00000000003459
 20
-2138.0000000008922
 30
0.0
 11
239.00000000003271
 21
-2138.0000000008922
 31
0.0
1001
ACDBBLOCKREPETAG
1070
     1
1071
       15
1005
12F3E5
  0
ARC
  5
12F3E6
  8
OBJECT
 10
239.00000000003271
 20
-2135.0000000008922
 30
0.0
 40
3.0
 50
270.0
 51
0.0
1001
ACDBBLOCKREPETAG
1070
     1
1071
       16
1005
12F3E6
  0
LINE
  5
12F3E7
  8
OBJECT
 10
242.0000000000328
 20
-2135.0000000008922
 30
0.0
 11
242.00000000003641
 21
-2017.000000000892
 31
0.0
1001
ACDBBLOCKREPETAG
1070
     1
1071
       17
1005
12F3E7
  0
LINE
  5
12F3E8
  8
HIDDEN
 10
244.0000000000345
 20
-2046.000000000892
 30
0.0
 11
244.0000000000345
 21
-2106.0000000008922
 31
0.0
1001
ACDBBLOCKREPETAG
1070
     1
1071
      424
1005
12F3E8
  0
INSERT
  5
12F3E9
  8
OBJECT
  2
*U19
 10
0.0
 20
0.0
 30
0.0
  0
LINE
  5
12F3EA
  8
OBJECT
 10
94.000000000034575
 20
-1943.000000000892
 30
0.0
 11
94.000000000034575
 21
-1936.0000000008911
 31
0.0
1001
ACDBBLOCKREPETAG
1070
     1
1071
       39
1005
12F3EA
  0
LINE
  5
12F3EB
  8
OBJECT
 10
94.000000000034575
 20
-1936.0000000008911
 30
0.0
 11
218.00000000003459
 21
-1936.0000000008911
 31
0.0
1001
ACDBBLOCKREPETAG
1070
     1
1071
       40
1005
12F3EB
  0
LINE
  5
12F3EC
  8
OBJECT
 10
218.00000000003459
 20
-1936.0000000008911
 30
0.0
 11
218.00000000003459
 21
-1943.000000000892
 31
0.0
1001
ACDBBLOCKREPETAG
1070
     1
1071
       41
1005
12F3EC
  0
LINE
  5
12F3ED
  8
OBJECT
 10
218.00000000003459
 20
-1943.000000000892
 30
0.0
 11
94.000000000034575
 21
-1943.000000000892
 31
0.0
1001
ACDBBLOCKREPETAG
1070
     1
1071
       42
1005
12F3ED
  0
LINE
  5
12F3EE
  8
OBJECT
 10
97.000000000034561
 20
-1943.000000000892
 30
0.0
 11
97.000000000034561
 21
-1979.000000000892
 31
0.0
1001
ACDBBLOCKREPETAG
1070
     1
1071
       43
1005
12F3EE
  0
LINE
  5
12F3EF
  8
OBJECT
 10
97.000000000034561
 20
-1979.000000000892
 30
0.0
 11
215.00000000003459
 21
-1979.000000000892
 31
0.0
1001
ACDBBLOCKREPETAG
1070
     1
1071
       44
1005
12F3EF
  0
LINE
  5
12F3F0
  8
OBJECT
 10
215.00000000003459
 20
-1979.000000000892
 30
0.0
 11
215.00000000003459
 21
-1943.000000000892
 31
0.0
1001
ACDBBLOCKREPETAG
1070
     1
1071
       45
1005
12F3F0
  0
LINE
  5
12F3F1
  8
OBJECT
 10
101.5000000000345
 20
-1983.000000000892
 30
0.0
 11
101.5000000000345
 21
-1990.000000000892
 31
0.0
1001
ACDBBLOCKREPETAG
1070
     1
1071
       46
1005
12F3F1
  0
LINE
  5
12F3F2
  8
OBJECT
 10
210.5000000000345
 20
-1990.000000000892
 30
0.0
 11
210.5000000000345
 21
-1983.000000000892
 31
0.0
1001
ACDBBLOCKREPETAG
1070
     1
1071
       47
1005
12F3F2
  0
LINE
  5
12F3F3
  8
OBJECT
 10
210.5000000000345
 20
-1983.000000000892
 30
0.0
 11
101.5000000000345
 21
-1983.000000000892
 31
0.0
1001
ACDBBLOCKREPETAG
1070
     1
1071
       48
1005
12F3F3
  0
LINE
  5
12F3F4
  8
OBJECT
 10
97.000000000034561
 20
-1979.000000000892
 30
0.0
 11
101.5000000000345
 21
-1983.000000000892
 31
0.0
1001
ACDBBLOCKREPETAG
1070
     1
1071
       49
1005
12F3F4
  0
LINE
  5
12F3F5
  8
OBJECT
 10
215.00000000003459
 20
-1979.000000000892
 30
0.0
 11
210.5000000000345
 21
-1983.000000000892
 31
0.0
1001
ACDBBLOCKREPETAG
1070
     1
1071
       50
1005
12F3F5
  0
LINE
  5
12F3F6
  8
OBJECT
 10
94.000000000034575
 20
-1993.0000000008911
 30
0.0
 11
94.000000000034575
 21
-1996.000000000892
 31
0.0
1001
ACDBBLOCKREPETAG
1070
     1
1071
       51
1005
12F3F6
  0
ARC
  5
12F3F7
  8
OBJECT
 10
97.000000000034561
 20
-1993.0000000008911
 30
0.0
 40
3.0
 50
90.0
 51
180.0
1001
ACDBBLOCKREPETAG
1070
     1
1071
       52
1005
12F3F7
  0
LINE
  5
12F3F8
  8
OBJECT
 10
218.00000000003459
 20
-1996.000000000892
 30
0.0
 11
218.00000000003459
 21
-1993.0000000008929
 31
0.0
1001
ACDBBLOCKREPETAG
1070
     1
1071
       53
1005
12F3F8
  0
ARC
  5
12F3F9
  8
OBJECT
 10
215.00000000003459
 20
-1993.0000000008929
 30
0.0
 40
3.0
 50
0.0
 51
90.0
1001
ACDBBLOCKREPETAG
1070
     1
1071
       54
1005
12F3F9
  0
LINE
  5
12F3FA
  8
OBJECT
 10
215.00000000003459
 20
-1990.0000000008929
 30
0.0
 11
97.000000000034561
 21
-1990.0000000008911
 31
0.0
1001
ACDBBLOCKREPETAG
1070
     1
1071
       55
1005
12F3FA
  0
LINE
  5
12F3FB
  8
HIDDEN
 10
111.5000000000345
 20
-1988.0000000008911
 30
0.0
 11
200.50000000003459
 21
-1988.0000000008911
 31
0.0
1001
ACDBBLOCKREPETAG
1070
     1
1071
      426
1005
12F3FB
  0
LINE
  5
12F3FC
  8
OBJECT
 10
94.000000000034575
 20
-1695.0000000008849
 30
0.0
 11
94.000000000034575
 21
-1692.000000000884
 31
0.0
1001
ACDBBLOCKREPETAG
1070
     1
1071
      418
1005
12F3FC
  0
ARC
  5
12F3FD
  8
OBJECT
 10
97.000000000034561
 20
-1695.0000000008849
 30
0.0
 40
3.0
 50
180.0
 51
270.0
1001
ACDBBLOCKREPETAG
1070
     1
1071
      419
1005
12F3FD
  0
LINE
  5
12F3FE
  8
OBJECT
 10
218.00000000003459
 20
-1692.000000000884
 30
0.0
 11
218.00000000003459
 21
-1695.0000000008849
 31
0.0
1001
ACDBBLOCKREPETAG
1070
     1
1071
      420
1005
12F3FE
  0
ARC
  5
12F3FF
  8
OBJECT
 10
215.00000000003459
 20
-1695.0000000008849
 30
0.0
 40
3.0
 50
270.0
 51
0.0
1001
ACDBBLOCKREPETAG
1070
     1
1071
      421
1005
12F3FF
  0
LINE
  5
12F400
  8
OBJECT
 10
215.00000000003459
 20
-1698.0000000008849
 30
0.0
 11
97.000000000034561
 21
-1698.0000000008849
 31
0.0
1001
ACDBBLOCKREPETAG
1070
     1
1071
      422
1005
12F400
  0
INSERT
  5
12F401
  8
OBJECT
  2
*U20
 10
0.0
 20
0.0
 30
0.0
  0
LINE
  5
12F402
  8
OBJECT
 10
289.00000000003462
 20
-1550.0000000008849
 30
0.0
 11
296.0000000000345
 21
-1550.0000000008849
 31
0.0
1001
ACDBBLOCKREPETAG
1070
     1
1071
       39
1005
12F402
  0
LINE
  5
12F403
  8
OBJECT
 10
296.0000000000345
 20
-1550.0000000008849
 30
0.0
 11
296.0000000000345
 21
-1674.0000000008849
 31
0.0
1001
ACDBBLOCKREPETAG
1070
     1
1071
       40
1005
12F403
  0
LINE
  5
12F404
  8
OBJECT
 10
296.0000000000345
 20
-1674.0000000008849
 30
0.0
 11
289.00000000003462
 21
-1674.0000000008849
 31
0.0
1001
ACDBBLOCKREPETAG
1070
     1
1071
       41
1005
12F404
  0
LINE
  5
12F405
  8
OBJECT
 10
289.00000000003462
 20
-1674.0000000008849
 30
0.0
 11
289.00000000003462
 21
-1550.0000000008849
 31
0.0
1001
ACDBBLOCKREPETAG
1070
     1
1071
       42
1005
12F405
  0
LINE
  5
12F406
  8
OBJECT
 10
289.00000000003462
 20
-1553.0000000008849
 30
0.0
 11
253.00000000003459
 21
-1553.0000000008849
 31
0.0
1001
ACDBBLOCKREPETAG
1070
     1
1071
       43
1005
12F406
  0
LINE
  5
12F407
  8
OBJECT
 10
253.00000000003459
 20
-1553.0000000008849
 30
0.0
 11
253.00000000003459
 21
-1671.0000000008849
 31
0.0
1001
ACDBBLOCKREPETAG
1070
     1
1071
       44
1005
12F407
  0
LINE
  5
12F408
  8
OBJECT
 10
253.00000000003459
 20
-1671.0000000008849
 30
0.0
 11
289.00000000003462
 21
-1671.0000000008849
 31
0.0
1001
ACDBBLOCKREPETAG
1070
     1
1071
       45
1005
12F408
  0
LINE
  5
12F409
  8
OBJECT
 10
249.00000000003459
 20
-1557.500000000884
 30
0.0
 11
242.00000000003459
 21
-1557.500000000884
 31
0.0
1001
ACDBBLOCKREPETAG
1070
     1
1071
       46
1005
12F409
  0
LINE
  5
12F40A
  8
OBJECT
 10
242.00000000003459
 20
-1666.5000000008849
 30
0.0
 11
249.00000000003459
 21
-1666.5000000008849
 31
0.0
1001
ACDBBLOCKREPETAG
1070
     1
1071
       47
1005
12F40A
  0
LINE
  5
12F40B
  8
OBJECT
 10
249.00000000003459
 20
-1666.5000000008849
 30
0.0
 11
249.00000000003459
 21
-1557.500000000884
 31
0.0
1001
ACDBBLOCKREPETAG
1070
     1
1071
       48
1005
12F40B
  0
LINE
  5
12F40C
  8
OBJECT
 10
253.00000000003459
 20
-1553.0000000008849
 30
0.0
 11
249.00000000003459
 21
-1557.500000000884
 31
0.0
1001
ACDBBLOCKREPETAG
1070
     1
1071
       49
1005
12F40C
  0
LINE
  5
12F40D
  8
OBJECT
 10
253.00000000003459
 20
-1671.0000000008849
 30
0.0
 11
249.00000000003459
 21
-1666.5000000008849
 31
0.0
1001
ACDBBLOCKREPETAG
1070
     1
1071
       50
1005
12F40D
  0
LINE
  5
12F40E
  8
OBJECT
 10
239.00000000003641
 20
-1550.0000000008849
 30
0.0
 11
236.00000000003459
 21
-1550.0000000008849
 31
0.0
1001
ACDBBLOCKREPETAG
1070
     1
1071
       51
1005
12F40E
  0
ARC
  5
12F40F
  8
OBJECT
 10
239.00000000003641
 20
-1553.0000000008849
 30
0.0
 40
3.0
 50
0.0
 51
90.0
1001
ACDBBLOCKREPETAG
1070
     1
1071
       52
1005
12F40F
  0
LINE
  5
12F410
  8
OBJECT
 10
236.00000000003459
 20
-1674.0000000008849
 30
0.0
 11
239.00000000003271
 21
-1674.0000000008849
 31
0.0
1001
ACDBBLOCKREPETAG
1070
     1
1071
       53
1005
12F410
  0
ARC
  5
12F411
  8
OBJECT
 10
239.00000000003271
 20
-1671.0000000008849
 30
0.0
 40
3.0
 50
270.0
 51
0.0
1001
ACDBBLOCKREPETAG
1070
     1
1071
       54
1005
12F411
  0
LINE
  5
12F412
  8
OBJECT
 10
242.0000000000328
 20
-1671.0000000008849
 30
0.0
 11
242.00000000003641
 21
-1553.0000000008849
 31
0.0
1001
ACDBBLOCKREPETAG
1070
     1
1071
       55
1005
12F412
  0
LINE
  5
12F413
  8
HIDDEN
 10
244.0000000000345
 20
-1567.500000000884
 30
0.0
 11
244.0000000000345
 21
-1656.5000000008849
 31
0.0
1001
ACDBBLOCKREPETAG
1070
     1
1071
      430
1005
12F413
  0
INSERT
  5
12F414
  8
OBJECT
  2
*U21
 10
0.0
 20
0.0
 30
0.0
  0
LINE
  5
12F415
  8
OBJECT
 10
101.0000000000345
 20
-1479.000000000884
 30
0.0
 11
101.0000000000345
 21
-1472.0000000008849
 31
0.0
1001
ACDBBLOCKREPETAG
1070
     1
1071
       20
1005
12F415
  0
LINE
  5
12F416
  8
OBJECT
 10
101.0000000000345
 20
-1472.0000000008849
 30
0.0
 11
211.00000000003459
 21
-1472.0000000008849
 31
0.0
1001
ACDBBLOCKREPETAG
1070
     1
1071
       21
1005
12F416
  0
LINE
  5
12F417
  8
OBJECT
 10
211.00000000003459
 20
-1472.0000000008849
 30
0.0
 11
211.00000000003459
 21
-1479.000000000884
 31
0.0
1001
ACDBBLOCKREPETAG
1070
     1
1071
       22
1005
12F417
  0
LINE
  5
12F418
  8
OBJECT
 10
211.00000000003459
 20
-1479.000000000884
 30
0.0
 11
101.0000000000345
 21
-1479.000000000884
 31
0.0
1001
ACDBBLOCKREPETAG
1070
     1
1071
       23
1005
12F418
  0
LINE
  5
12F419
  8
OBJECT
 10
104.0000000000345
 20
-1479.000000000884
 30
0.0
 11
104.0000000000345
 21
-1515.0000000008849
 31
0.0
1001
ACDBBLOCKREPETAG
1070
     1
1071
       24
1005
12F419
  0
LINE
  5
12F41A
  8
OBJECT
 10
104.0000000000345
 20
-1515.0000000008849
 30
0.0
 11
208.00000000003459
 21
-1515.0000000008849
 31
0.0
1001
ACDBBLOCKREPETAG
1070
     1
1071
       25
1005
12F41A
  0
LINE
  5
12F41B
  8
OBJECT
 10
208.00000000003459
 20
-1515.0000000008849
 30
0.0
 11
208.00000000003459
 21
-1479.000000000884
 31
0.0
1001
ACDBBLOCKREPETAG
1070
     1
1071
       26
1005
12F41B
  0
LINE
  5
12F41C
  8
OBJECT
 10
108.5000000000345
 20
-1519.000000000884
 30
0.0
 11
108.5000000000345
 21
-1526.0000000008849
 31
0.0
1001
ACDBBLOCKREPETAG
1070
     1
1071
       27
1005
12F41C
  0
LINE
  5
12F41D
  8
OBJECT
 10
203.50000000003459
 20
-1526.0000000008849
 30
0.0
 11
203.50000000003459
 21
-1519.000000000884
 31
0.0
1001
ACDBBLOCKREPETAG
1070
     1
1071
       28
1005
12F41D
  0
LINE
  5
12F41E
  8
OBJECT
 10
203.50000000003459
 20
-1519.000000000884
 30
0.0
 11
108.5000000000345
 21
-1519.000000000884
 31
0.0
1001
ACDBBLOCKREPETAG
1070
     1
1071
       29
1005
12F41E
  0
LINE
  5
12F41F
  8
OBJECT
 10
104.0000000000345
 20
-1515.0000000008849
 30
0.0
 11
108.5000000000345
 21
-1519.000000000884
 31
0.0
1001
ACDBBLOCKREPETAG
1070
     1
1071
       30
1005
12F41F
  0
LINE
  5
12F420
  8
OBJECT
 10
208.00000000003459
 20
-1515.0000000008849
 30
0.0
 11
203.50000000003459
 21
-1519.000000000884
 31
0.0
1001
ACDBBLOCKREPETAG
1070
     1
1071
       31
1005
12F420
  0
LINE
  5
12F421
  8
OBJECT
 10
94.000000000034575
 20
-1529.000000000884
 30
0.0
 11
94.000000000034575
 21
-1532.000000000884
 31
0.0
1001
ACDBBLOCKREPETAG
1070
     1
1071
       32
1005
12F421
  0
ARC
  5
12F422
  8
OBJECT
 10
97.000000000034561
 20
-1529.000000000884
 30
0.0
 40
3.0
 50
90.0
 51
180.0
1001
ACDBBLOCKREPETAG
1070
     1
1071
       33
1005
12F422
  0
LINE
  5
12F423
  8
OBJECT
 10
218.00000000003459
 20
-1532.000000000884
 30
0.0
 11
218.00000000003459
 21
-1529.0000000008861
 31
0.0
1001
ACDBBLOCKREPETAG
1070
     1
1071
       34
1005
12F423
  0
ARC
  5
12F424
  8
OBJECT
 10
215.00000000003459
 20
-1529.0000000008861
 30
0.0
 40
3.0
 50
0.0
 51
90.0
1001
ACDBBLOCKREPETAG
1070
     1
1071
       35
1005
12F424
  0
LINE
  5
12F425
  8
OBJECT
 10
215.00000000003459
 20
-1526.0000000008861
 30
0.0
 11
97.000000000034561
 21
-1526.000000000884
 31
0.0
1001
ACDBBLOCKREPETAG
1070
     1
1071
       36
1005
12F425
  0
LINE
  5
12F426
  8
HIDDEN
 10
118.0000000000345
 20
-1524.0000000008849
 30
0.0
 11
194.0000000000345
 21
-1524.0000000008849
 31
0.0
1001
ACDBBLOCKREPETAG
1070
     1
1071
      423
1005
12F426
  0
LINE
  5
12F427
  8
OBJECT
 10
454.00000000011448
 20
-1695.0000000008849
 30
0.0
 11
454.00000000011448
 21
-1692.000000000884
 31
0.0
1001
ACDBBLOCKREPETAG
1070
     1
1071
      418
1005
12F427
  0
ARC
  5
12F428
  8
OBJECT
 10
457.0000000001146
 20
-1695.0000000008849
 30
0.0
 40
3.0
 50
180.0
 51
270.0
1001
ACDBBLOCKREPETAG
1070
     1
1071
      419
1005
12F428
  0
LINE
  5
12F429
  8
OBJECT
 10
578.00000000011448
 20
-1692.000000000884
 30
0.0
 11
578.00000000011448
 21
-1695.0000000008849
 31
0.0
1001
ACDBBLOCKREPETAG
1070
     1
1071
      420
1005
12F429
  0
ARC
  5
12F42A
  8
OBJECT
 10
575.00000000011437
 20
-1695.0000000008849
 30
0.0
 40
3.0
 50
270.0
 51
0.0
1001
ACDBBLOCKREPETAG
1070
     1
1071
      421
1005
12F42A
  0
LINE
  5
12F42B
  8
OBJECT
 10
575.00000000011437
 20
-1698.0000000008849
 30
0.0
 11
457.0000000001146
 21
-1698.0000000008849
 31
0.0
1001
ACDBBLOCKREPETAG
1070
     1
1071
      422
1005
12F42B
  0
LINE
  5
12F42C
  8
OBJECT
 10
666.00000000011448
 20
-1537.000000000884
 30
0.0
 11
659.0000000001146
 21
-1537.000000000884
 31
0.0
1001
ACDBBLOCKREPETAG
1070
     1
1071
       57
1005
12F42C
  0
LINE
  5
12F42D
  8
OBJECT
 10
659.0000000001146
 20
-1537.000000000884
 30
0.0
 11
659.0000000001146
 21
-1687.0000000008849
 31
0.0
1001
ACDBBLOCKREPETAG
1070
     1
1071
       58
1005
12F42D
  0
LINE
  5
12F42E
  8
OBJECT
 10
617.5000000001146
 20
-1540.000000000884
 30
0.0
 11
617.5000000001146
 21
-1684.000000000884
 31
0.0
1001
ACDBBLOCKREPETAG
1070
     1
1071
       59
1005
12F42E
  0
LINE
  5
12F42F
  8
OBJECT
 10
606.0000000001146
 20
-1546.5000000008849
 30
0.0
 11
606.0000000001146
 21
-1677.5000000008849
 31
0.0
1001
ACDBBLOCKREPETAG
1070
     1
1071
       60
1005
12F42F
  0
LINE
  5
12F430
  8
OBJECT
 10
659.0000000001146
 20
-1687.0000000008849
 30
0.0
 11
666.00000000011448
 21
-1687.0000000008849
 31
0.0
1001
ACDBBLOCKREPETAG
1070
     1
1071
       61
1005
12F430
  0
LINE
  5
12F431
  8
OBJECT
 10
666.00000000011448
 20
-1687.0000000008849
 30
0.0
 11
666.00000000011448
 21
-1537.000000000884
 31
0.0
1001
ACDBBLOCKREPETAG
1070
     1
1071
       62
1005
12F431
  0
LINE
  5
12F432
  8
OBJECT
 10
602.0000000001146
 20
-1674.0000000008849
 30
0.0
 11
596.00000000011437
 21
-1674.0000000008849
 31
0.0
1001
ACDBBLOCKREPETAG
1070
     1
1071
       63
1005
12F432
  0
LINE
  5
12F433
  8
OBJECT
 10
659.0000000001146
 20
-1684.000000000884
 30
0.0
 11
617.5000000001146
 21
-1684.000000000884
 31
0.0
1001
ACDBBLOCKREPETAG
1070
     1
1071
       64
1005
12F433
  0
LINE
  5
12F434
  8
OBJECT
 10
617.5000000001146
 20
-1684.000000000884
 30
0.0
 11
606.0000000001146
 21
-1677.5000000008849
 31
0.0
1001
ACDBBLOCKREPETAG
1070
     1
1071
       65
1005
12F434
  0
LINE
  5
12F435
  8
OBJECT
 10
606.0000000001146
 20
-1677.5000000008849
 30
0.0
 11
602.0000000001146
 21
-1674.0000000008849
 31
0.0
1001
ACDBBLOCKREPETAG
1070
     1
1071
       66
1005
12F435
  0
LINE
  5
12F436
  8
OBJECT
 10
617.5000000001146
 20
-1540.000000000884
 30
0.0
 11
606.0000000001146
 21
-1546.5000000008849
 31
0.0
1001
ACDBBLOCKREPETAG
1070
     1
1071
       67
1005
12F436
  0
LINE
  5
12F437
  8
OBJECT
 10
606.0000000001146
 20
-1546.5000000008849
 30
0.0
 11
602.0000000001146
 21
-1550.0000000008849
 31
0.0
1001
ACDBBLOCKREPETAG
1070
     1
1071
       68
1005
12F437
  0
ARC
  5
12F438
  8
OBJECT
 10
983.90000000011605
 20
-1612.000000000884
 30
0.0
 40
386.89999999999998
 50
170.77870136263201
 51
189.22129863736799
1001
ACDBBLOCKREPETAG
1070
     1
1071
       69
1005
12F438
  0
LINE
  5
12F439
  8
OBJECT
 10
602.0000000001146
 20
-1550.0000000008849
 30
0.0
 11
596.00000000011437
 21
-1550.0000000008849
 31
0.0
1001
ACDBBLOCKREPETAG
1070
     1
1071
       70
1005
12F439
  0
LINE
  5
12F43A
  8
OBJECT
 10
659.0000000001146
 20
-1540.000000000884
 30
0.0
 11
617.5000000001146
 21
-1540.000000000884
 31
0.0
1001
ACDBBLOCKREPETAG
1070
     1
1071
       71
1005
12F43A
  0
INSERT
  5
12F43B
  8
OBJECT
  2
*U22
 10
0.0
 20
0.0
 30
0.0
  0
LINE
  5
12F43C
  8
HIDDEN
 10
614.0000000001146
 20
-1669.0000000008849
 30
0.0
 11
614.0000000001146
 21
-1555.0000000008849
 31
0.0
1001
ACDBBLOCKREPETAG
1070
     1
1071
      437
1005
12F43C
  0
INSERT
  5
12F43D
  8
OBJECT
  2
*U23
 10
0.0
 20
0.0
 30
0.0
  0
LINE
  5
12F43E
  8
OBJECT
 10
461.0000000001146
 20
-1479.000000000884
 30
0.0
 11
461.0000000001146
 21
-1472.0000000008849
 31
0.0
1001
ACDBBLOCKREPETAG
1070
     1
1071
       20
1005
12F43E
  0
LINE
  5
12F43F
  8
OBJECT
 10
461.0000000001146
 20
-1472.0000000008849
 30
0.0
 11
571.00000000011437
 21
-1472.0000000008849
 31
0.0
1001
ACDBBLOCKREPETAG
1070
     1
1071
       21
1005
12F43F
  0
LINE
  5
12F440
  8
OBJECT
 10
571.00000000011437
 20
-1472.0000000008849
 30
0.0
 11
571.00000000011437
 21
-1479.000000000884
 31
0.0
1001
ACDBBLOCKREPETAG
1070
     1
1071
       22
1005
12F440
  0
LINE
  5
12F441
  8
OBJECT
 10
571.00000000011437
 20
-1479.000000000884
 30
0.0
 11
461.0000000001146
 21
-1479.000000000884
 31
0.0
1001
ACDBBLOCKREPETAG
1070
     1
1071
       23
1005
12F441
  0
LINE
  5
12F442
  8
OBJECT
 10
464.0000000001146
 20
-1479.000000000884
 30
0.0
 11
464.0000000001146
 21
-1515.0000000008849
 31
0.0
1001
ACDBBLOCKREPETAG
1070
     1
1071
       24
1005
12F442
  0
LINE
  5
12F443
  8
OBJECT
 10
464.0000000001146
 20
-1515.0000000008849
 30
0.0
 11
568.0000000001146
 21
-1515.0000000008849
 31
0.0
1001
ACDBBLOCKREPETAG
1070
     1
1071
       25
1005
12F443
  0
LINE
  5
12F444
  8
OBJECT
 10
568.0000000001146
 20
-1515.0000000008849
 30
0.0
 11
568.0000000001146
 21
-1479.000000000884
 31
0.0
1001
ACDBBLOCKREPETAG
1070
     1
1071
       26
1005
12F444
  0
LINE
  5
12F445
  8
OBJECT
 10
468.5000000001146
 20
-1519.000000000884
 30
0.0
 11
468.5000000001146
 21
-1526.0000000008849
 31
0.0
1001
ACDBBLOCKREPETAG
1070
     1
1071
       27
1005
12F445
  0
LINE
  5
12F446
  8
OBJECT
 10
563.5000000001146
 20
-1526.0000000008849
 30
0.0
 11
563.5000000001146
 21
-1519.000000000884
 31
0.0
1001
ACDBBLOCKREPETAG
1070
     1
1071
       28
1005
12F446
  0
LINE
  5
12F447
  8
OBJECT
 10
563.5000000001146
 20
-1519.000000000884
 30
0.0
 11
468.5000000001146
 21
-1519.000000000884
 31
0.0
1001
ACDBBLOCKREPETAG
1070
     1
1071
       29
1005
12F447
  0
LINE
  5
12F448
  8
OBJECT
 10
464.0000000001146
 20
-1515.0000000008849
 30
0.0
 11
468.5000000001146
 21
-1519.000000000884
 31
0.0
1001
ACDBBLOCKREPETAG
1070
     1
1071
       30
1005
12F448
  0
LINE
  5
12F449
  8
OBJECT
 10
568.0000000001146
 20
-1515.0000000008849
 30
0.0
 11
563.5000000001146
 21
-1519.000000000884
 31
0.0
1001
ACDBBLOCKREPETAG
1070
     1
1071
       31
1005
12F449
  0
LINE
  5
12F44A
  8
OBJECT
 10
454.00000000011448
 20
-1529.000000000884
 30
0.0
 11
454.00000000011448
 21
-1532.000000000884
 31
0.0
1001
ACDBBLOCKREPETAG
1070
     1
1071
       32
1005
12F44A
  0
ARC
  5
12F44B
  8
OBJECT
 10
457.0000000001146
 20
-1529.000000000884
 30
0.0
 40
3.0
 50
90.0
 51
180.0
1001
ACDBBLOCKREPETAG
1070
     1
1071
       33
1005
12F44B
  0
LINE
  5
12F44C
  8
OBJECT
 10
578.00000000011448
 20
-1532.000000000884
 30
0.0
 11
578.00000000011448
 21
-1529.0000000008861
 31
0.0
1001
ACDBBLOCKREPETAG
1070
     1
1071
       34
1005
12F44C
  0
ARC
  5
12F44D
  8
OBJECT
 10
575.00000000011437
 20
-1529.0000000008861
 30
0.0
 40
3.0
 50
0.0
 51
90.0
1001
ACDBBLOCKREPETAG
1070
     1
1071
       35
1005
12F44D
  0
LINE
  5
12F44E
  8
OBJECT
 10
575.00000000011437
 20
-1526.0000000008861
 30
0.0
 11
457.0000000001146
 21
-1526.000000000884
 31
0.0
1001
ACDBBLOCKREPETAG
1070
     1
1071
       36
1005
12F44E
  0
LINE
  5
12F44F
  8
HIDDEN
 10
478.00000000011448
 20
-1524.0000000008849
 30
0.0
 11
554.00000000011437
 21
-1524.0000000008849
 31
0.0
1001
ACDBBLOCKREPETAG
1070
     1
1071
      423
1005
12F44F
  0
LINE
  5
12F450
  8
OBJECT
 10
454.00000000011448
 20
-1231.0000000008779
 30
0.0
 11
454.00000000011448
 21
-1228.0000000008779
 31
0.0
1001
ACDBBLOCKREPETAG
1070
     1
1071
      418
1005
12F450
  0
ARC
  5
12F451
  8
OBJECT
 10
457.0000000001146
 20
-1231.0000000008779
 30
0.0
 40
3.0
 50
180.0
 51
270.0
1001
ACDBBLOCKREPETAG
1070
     1
1071
      419
1005
12F451
  0
LINE
  5
12F452
  8
OBJECT
 10
578.00000000011448
 20
-1228.0000000008779
 30
0.0
 11
578.00000000011448
 21
-1231.0000000008779
 31
0.0
1001
ACDBBLOCKREPETAG
1070
     1
1071
      420
1005
12F452
  0
ARC
  5
12F453
  8
OBJECT
 10
575.00000000011437
 20
-1231.0000000008779
 30
0.0
 40
3.0
 50
270.0
 51
0.0
1001
ACDBBLOCKREPETAG
1070
     1
1071
      421
1005
12F453
  0
LINE
  5
12F454
  8
OBJECT
 10
575.00000000011437
 20
-1234.0000000008779
 30
0.0
 11
457.0000000001146
 21
-1234.0000000008779
 31
0.0
1001
ACDBBLOCKREPETAG
1070
     1
1071
      422
1005
12F454
  0
INSERT
  5
12F455
  8
OBJECT
  2
*U24
 10
0.0
 20
0.0
 30
0.0
  0
LINE
  5
12F456
  8
OBJECT
 10
649.00000000011448
 20
-1093.0000000008779
 30
0.0
 11
656.0000000001146
 21
-1093.0000000008779
 31
0.0
1001
ACDBBLOCKREPETAG
1070
     1
1071
       20
1005
12F456
  0
LINE
  5
12F457
  8
OBJECT
 10
656.0000000001146
 20
-1093.0000000008779
 30
0.0
 11
656.0000000001146
 21
-1203.0000000008779
 31
0.0
1001
ACDBBLOCKREPETAG
1070
     1
1071
       21
1005
12F457
  0
LINE
  5
12F458
  8
OBJECT
 10
656.0000000001146
 20
-1203.0000000008779
 30
0.0
 11
649.00000000011448
 21
-1203.0000000008779
 31
0.0
1001
ACDBBLOCKREPETAG
1070
     1
1071
       22
1005
12F458
  0
LINE
  5
12F459
  8
OBJECT
 10
649.00000000011448
 20
-1203.0000000008779
 30
0.0
 11
649.00000000011448
 21
-1093.0000000008779
 31
0.0
1001
ACDBBLOCKREPETAG
1070
     1
1071
       23
1005
12F459
  0
LINE
  5
12F45A
  8
OBJECT
 10
649.00000000011448
 20
-1096.0000000008779
 30
0.0
 11
613.0000000001146
 21
-1096.0000000008779
 31
0.0
1001
ACDBBLOCKREPETAG
1070
     1
1071
       24
1005
12F45A
  0
LINE
  5
12F45B
  8
OBJECT
 10
613.0000000001146
 20
-1096.0000000008779
 30
0.0
 11
613.0000000001146
 21
-1200.0000000008779
 31
0.0
1001
ACDBBLOCKREPETAG
1070
     1
1071
       25
1005
12F45B
  0
LINE
  5
12F45C
  8
OBJECT
 10
613.0000000001146
 20
-1200.0000000008779
 30
0.0
 11
649.00000000011448
 21
-1200.0000000008779
 31
0.0
1001
ACDBBLOCKREPETAG
1070
     1
1071
       26
1005
12F45C
  0
LINE
  5
12F45D
  8
OBJECT
 10
609.0000000001146
 20
-1100.5000000008779
 30
0.0
 11
602.0000000001146
 21
-1100.5000000008779
 31
0.0
1001
ACDBBLOCKREPETAG
1070
     1
1071
       27
1005
12F45D
  0
LINE
  5
12F45E
  8
OBJECT
 10
602.0000000001146
 20
-1195.5000000008779
 30
0.0
 11
609.0000000001146
 21
-1195.5000000008779
 31
0.0
1001
ACDBBLOCKREPETAG
1070
     1
1071
       28
1005
12F45E
  0
LINE
  5
12F45F
  8
OBJECT
 10
609.0000000001146
 20
-1195.5000000008779
 30
0.0
 11
609.0000000001146
 21
-1100.5000000008779
 31
0.0
1001
ACDBBLOCKREPETAG
1070
     1
1071
       29
1005
12F45F
  0
LINE
  5
12F460
  8
OBJECT
 10
613.0000000001146
 20
-1096.0000000008779
 30
0.0
 11
609.0000000001146
 21
-1100.5000000008779
 31
0.0
1001
ACDBBLOCKREPETAG
1070
     1
1071
       30
1005
12F460
  0
LINE
  5
12F461
  8
OBJECT
 10
613.0000000001146
 20
-1200.0000000008779
 30
0.0
 11
609.0000000001146
 21
-1195.5000000008779
 31
0.0
1001
ACDBBLOCKREPETAG
1070
     1
1071
       31
1005
12F461
  0
LINE
  5
12F462
  8
OBJECT
 10
599.00000000011619
 20
-1086.0000000008779
 30
0.0
 11
596.00000000011437
 21
-1086.0000000008779
 31
0.0
1001
ACDBBLOCKREPETAG
1070
     1
1071
       32
1005
12F462
  0
ARC
  5
12F463
  8
OBJECT
 10
599.00000000011619
 20
-1089.0000000008779
 30
0.0
 40
3.0
 50
0.0
 51
90.0
1001
ACDBBLOCKREPETAG
1070
     1
1071
       33
1005
12F463
  0
LINE
  5
12F464
  8
OBJECT
 10
596.00000000011437
 20
-1210.0000000008779
 30
0.0
 11
599.00000000011278
 21
-1210.0000000008779
 31
0.0
1001
ACDBBLOCKREPETAG
1070
     1
1071
       34
1005
12F464
  0
ARC
  5
12F465
  8
OBJECT
 10
599.00000000011278
 20
-1207.0000000008779
 30
0.0
 40
3.0
 50
270.0
 51
0.0
1001
ACDBBLOCKREPETAG
1070
     1
1071
       35
1005
12F465
  0
LINE
  5
12F466
  8
OBJECT
 10
602.00000000011266
 20
-1207.0000000008779
 30
0.0
 11
602.0000000001163
 21
-1089.0000000008779
 31
0.0
1001
ACDBBLOCKREPETAG
1070
     1
1071
       36
1005
12F466
  0
LINE
  5
12F467
  8
HIDDEN
 10
604.00000000011437
 20
-1110.0000000008779
 30
0.0
 11
604.00000000011437
 21
-1186.0000000008779
 31
0.0
1001
ACDBBLOCKREPETAG
1070
     1
1071
      427
1005
12F467
  0
INSERT
  5
12F468
  8
OBJECT
  2
*U25
 10
0.0
 20
0.0
 30
0.0
  0
LINE
  5
12F469
  8
OBJECT
 10
461.0000000001146
 20
-1015.000000000878
 30
0.0
 11
461.0000000001146
 21
-1008.000000000878
 31
0.0
1001
ACDBBLOCKREPETAG
1070
     1
1071
       20
1005
12F469
  0
LINE
  5
12F46A
  8
OBJECT
 10
461.0000000001146
 20
-1008.000000000878
 30
0.0
 11
571.00000000011437
 21
-1008.000000000878
 31
0.0
1001
ACDBBLOCKREPETAG
1070
     1
1071
       21
1005
12F46A
  0
LINE
  5
12F46B
  8
OBJECT
 10
571.00000000011437
 20
-1008.000000000878
 30
0.0
 11
571.00000000011437
 21
-1015.000000000878
 31
0.0
1001
ACDBBLOCKREPETAG
1070
     1
1071
       22
1005
12F46B
  0
LINE
  5
12F46C
  8
OBJECT
 10
571.00000000011437
 20
-1015.000000000878
 30
0.0
 11
461.0000000001146
 21
-1015.000000000878
 31
0.0
1001
ACDBBLOCKREPETAG
1070
     1
1071
       23
1005
12F46C
  0
LINE
  5
12F46D
  8
OBJECT
 10
464.0000000001146
 20
-1015.000000000878
 30
0.0
 11
464.0000000001146
 21
-1051.0000000008779
 31
0.0
1001
ACDBBLOCKREPETAG
1070
     1
1071
       24
1005
12F46D
  0
LINE
  5
12F46E
  8
OBJECT
 10
464.0000000001146
 20
-1051.0000000008779
 30
0.0
 11
568.0000000001146
 21
-1051.0000000008779
 31
0.0
1001
ACDBBLOCKREPETAG
1070
     1
1071
       25
1005
12F46E
  0
LINE
  5
12F46F
  8
OBJECT
 10
568.0000000001146
 20
-1051.0000000008779
 30
0.0
 11
568.0000000001146
 21
-1015.000000000878
 31
0.0
1001
ACDBBLOCKREPETAG
1070
     1
1071
       26
1005
12F46F
  0
LINE
  5
12F470
  8
OBJECT
 10
468.5000000001146
 20
-1055.000000000879
 30
0.0
 11
468.5000000001146
 21
-1062.0000000008779
 31
0.0
1001
ACDBBLOCKREPETAG
1070
     1
1071
       27
1005
12F470
  0
LINE
  5
12F471
  8
OBJECT
 10
563.5000000001146
 20
-1062.0000000008779
 30
0.0
 11
563.5000000001146
 21
-1055.000000000879
 31
0.0
1001
ACDBBLOCKREPETAG
1070
     1
1071
       28
1005
12F471
  0
LINE
  5
12F472
  8
OBJECT
 10
563.5000000001146
 20
-1055.000000000879
 30
0.0
 11
468.5000000001146
 21
-1055.000000000879
 31
0.0
1001
ACDBBLOCKREPETAG
1070
     1
1071
       29
1005
12F472
  0
LINE
  5
12F473
  8
OBJECT
 10
464.0000000001146
 20
-1051.0000000008779
 30
0.0
 11
468.5000000001146
 21
-1055.000000000879
 31
0.0
1001
ACDBBLOCKREPETAG
1070
     1
1071
       30
1005
12F473
  0
LINE
  5
12F474
  8
OBJECT
 10
568.0000000001146
 20
-1051.0000000008779
 30
0.0
 11
563.5000000001146
 21
-1055.000000000879
 31
0.0
1001
ACDBBLOCKREPETAG
1070
     1
1071
       31
1005
12F474
  0
LINE
  5
12F475
  8
OBJECT
 10
454.00000000011448
 20
-1065.000000000877
 30
0.0
 11
454.00000000011448
 21
-1068.0000000008779
 31
0.0
1001
ACDBBLOCKREPETAG
1070
     1
1071
       32
1005
12F475
  0
ARC
  5
12F476
  8
OBJECT
 10
457.0000000001146
 20
-1065.000000000877
 30
0.0
 40
3.0
 50
90.0
 51
180.0
1001
ACDBBLOCKREPETAG
1070
     1
1071
       33
1005
12F476
  0
LINE
  5
12F477
  8
OBJECT
 10
578.00000000011448
 20
-1068.0000000008779
 30
0.0
 11
578.00000000011448
 21
-1065.000000000879
 31
0.0
1001
ACDBBLOCKREPETAG
1070
     1
1071
       34
1005
12F477
  0
ARC
  5
12F478
  8
OBJECT
 10
575.00000000011437
 20
-1065.000000000879
 30
0.0
 40
3.0
 50
0.0
 51
90.0
1001
ACDBBLOCKREPETAG
1070
     1
1071
       35
1005
12F478
  0
LINE
  5
12F479
  8
OBJECT
 10
575.00000000011437
 20
-1062.000000000879
 30
0.0
 11
457.0000000001146
 21
-1062.000000000877
 31
0.0
1001
ACDBBLOCKREPETAG
1070
     1
1071
       36
1005
12F479
  0
LINE
  5
12F47A
  8
HIDDEN
 10
478.00000000011448
 20
-1060.0000000008779
 30
0.0
 11
554.00000000011437
 21
-1060.0000000008779
 31
0.0
1001
ACDBBLOCKREPETAG
1070
     1
1071
      423
1005
12F47A
  0
LINE
  5
12F47B
  8
OBJECT
 10
94.000000000034575
 20
-1231.0000000008779
 30
0.0
 11
94.000000000034575
 21
-1228.0000000008779
 31
0.0
1001
ACDBBLOCKREPETAG
1070
     1
1071
      418
1005
12F47B
  0
ARC
  5
12F47C
  8
OBJECT
 10
97.000000000034561
 20
-1231.0000000008779
 30
0.0
 40
3.0
 50
180.0
 51
270.0
1001
ACDBBLOCKREPETAG
1070
     1
1071
      419
1005
12F47C
  0
LINE
  5
12F47D
  8
OBJECT
 10
218.00000000003459
 20
-1228.0000000008779
 30
0.0
 11
218.00000000003459
 21
-1231.0000000008779
 31
0.0
1001
ACDBBLOCKREPETAG
1070
     1
1071
      420
1005
12F47D
  0
ARC
  5
12F47E
  8
OBJECT
 10
215.00000000003459
 20
-1231.0000000008779
 30
0.0
 40
3.0
 50
270.0
 51
0.0
1001
ACDBBLOCKREPETAG
1070
     1
1071
      421
1005
12F47E
  0
LINE
  5
12F47F
  8
OBJECT
 10
215.00000000003459
 20
-1234.0000000008779
 30
0.0
 11
97.000000000034561
 21
-1234.0000000008779
 31
0.0
1001
ACDBBLOCKREPETAG
1070
     1
1071
      422
1005
12F47F
  0
INSERT
  5
12F480
  8
OBJECT
  2
*U26
 10
0.0
 20
0.0
 30
0.0
  0
LINE
  5
12F481
  8
OBJECT
 10
289.00000000003462
 20
-1101.0000000008779
 30
0.0
 11
296.0000000000345
 21
-1101.0000000008779
 31
0.0
1001
ACDBBLOCKREPETAG
1070
     1
1071
        1
1005
12F481
  0
LINE
  5
12F482
  8
OBJECT
 10
296.0000000000345
 20
-1101.0000000008779
 30
0.0
 11
296.0000000000345
 21
-1195.0000000008779
 31
0.0
1001
ACDBBLOCKREPETAG
1070
     1
1071
        2
1005
12F482
  0
LINE
  5
12F483
  8
OBJECT
 10
296.0000000000345
 20
-1195.0000000008779
 30
0.0
 11
289.00000000003462
 21
-1195.0000000008779
 31
0.0
1001
ACDBBLOCKREPETAG
1070
     1
1071
        3
1005
12F483
  0
LINE
  5
12F484
  8
OBJECT
 10
289.00000000003462
 20
-1195.0000000008779
 30
0.0
 11
289.00000000003462
 21
-1101.0000000008779
 31
0.0
1001
ACDBBLOCKREPETAG
1070
     1
1071
        4
1005
12F484
  0
LINE
  5
12F485
  8
OBJECT
 10
289.00000000003462
 20
-1104.0000000008779
 30
0.0
 11
253.00000000003459
 21
-1104.0000000008779
 31
0.0
1001
ACDBBLOCKREPETAG
1070
     1
1071
        5
1005
12F485
  0
LINE
  5
12F486
  8
OBJECT
 10
253.00000000003459
 20
-1104.0000000008779
 30
0.0
 11
253.00000000003459
 21
-1192.0000000008779
 31
0.0
1001
ACDBBLOCKREPETAG
1070
     1
1071
        6
1005
12F486
  0
LINE
  5
12F487
  8
OBJECT
 10
253.00000000003459
 20
-1192.0000000008779
 30
0.0
 11
289.00000000003462
 21
-1192.0000000008779
 31
0.0
1001
ACDBBLOCKREPETAG
1070
     1
1071
        7
1005
12F487
  0
LINE
  5
12F488
  8
OBJECT
 10
249.00000000003459
 20
-1108.5000000008779
 30
0.0
 11
242.00000000003459
 21
-1108.5000000008779
 31
0.0
1001
ACDBBLOCKREPETAG
1070
     1
1071
        8
1005
12F488
  0
LINE
  5
12F489
  8
OBJECT
 10
242.00000000003459
 20
-1187.5000000008779
 30
0.0
 11
249.00000000003459
 21
-1187.5000000008779
 31
0.0
1001
ACDBBLOCKREPETAG
1070
     1
1071
        9
1005
12F489
  0
LINE
  5
12F48A
  8
OBJECT
 10
249.00000000003459
 20
-1187.5000000008779
 30
0.0
 11
249.00000000003459
 21
-1108.5000000008779
 31
0.0
1001
ACDBBLOCKREPETAG
1070
     1
1071
       10
1005
12F48A
  0
LINE
  5
12F48B
  8
OBJECT
 10
253.00000000003459
 20
-1104.0000000008779
 30
0.0
 11
249.00000000003459
 21
-1108.5000000008779
 31
0.0
1001
ACDBBLOCKREPETAG
1070
     1
1071
       11
1005
12F48B
  0
LINE
  5
12F48C
  8
OBJECT
 10
253.00000000003459
 20
-1192.0000000008779
 30
0.0
 11
249.00000000003459
 21
-1187.5000000008779
 31
0.0
1001
ACDBBLOCKREPETAG
1070
     1
1071
       12
1005
12F48C
  0
LINE
  5
12F48D
  8
OBJECT
 10
239.00000000003641
 20
-1086.0000000008779
 30
0.0
 11
236.00000000003459
 21
-1086.0000000008779
 31
0.0
1001
ACDBBLOCKREPETAG
1070
     1
1071
       13
1005
12F48D
  0
ARC
  5
12F48E
  8
OBJECT
 10
239.00000000003641
 20
-1089.0000000008779
 30
0.0
 40
3.0
 50
0.0
 51
90.0
1001
ACDBBLOCKREPETAG
1070
     1
1071
       14
1005
12F48E
  0
LINE
  5
12F48F
  8
OBJECT
 10
236.00000000003459
 20
-1210.0000000008779
 30
0.0
 11
239.00000000003271
 21
-1210.0000000008779
 31
0.0
1001
ACDBBLOCKREPETAG
1070
     1
1071
       15
1005
12F48F
  0
ARC
  5
12F490
  8
OBJECT
 10
239.00000000003271
 20
-1207.0000000008779
 30
0.0
 40
3.0
 50
270.0
 51
0.0
1001
ACDBBLOCKREPETAG
1070
     1
1071
       16
1005
12F490
  0
LINE
  5
12F491
  8
OBJECT
 10
242.0000000000328
 20
-1207.0000000008779
 30
0.0
 11
242.00000000003641
 21
-1089.0000000008779
 31
0.0
1001
ACDBBLOCKREPETAG
1070
     1
1071
       17
1005
12F491
  0
LINE
  5
12F492
  8
HIDDEN
 10
244.0000000000345
 20
-1118.0000000008779
 30
0.0
 11
244.0000000000345
 21
-1178.0000000008779
 31
0.0
1001
ACDBBLOCKREPETAG
1070
     1
1071
      424
1005
12F492
  0
INSERT
  5
12F493
  8
OBJECT
  2
*U27
 10
0.0
 20
0.0
 30
0.0
  0
LINE
  5
12F494
  8
OBJECT
 10
101.0000000000345
 20
-1015.000000000878
 30
0.0
 11
101.0000000000345
 21
-1008.000000000878
 31
0.0
1001
ACDBBLOCKREPETAG
1070
     1
1071
       20
1005
12F494
  0
LINE
  5
12F495
  8
OBJECT
 10
101.0000000000345
 20
-1008.000000000878
 30
0.0
 11
211.00000000003459
 21
-1008.000000000878
 31
0.0
1001
ACDBBLOCKREPETAG
1070
     1
1071
       21
1005
12F495
  0
LINE
  5
12F496
  8
OBJECT
 10
211.00000000003459
 20
-1008.000000000878
 30
0.0
 11
211.00000000003459
 21
-1015.000000000878
 31
0.0
1001
ACDBBLOCKREPETAG
1070
     1
1071
       22
1005
12F496
  0
LINE
  5
12F497
  8
OBJECT
 10
211.00000000003459
 20
-1015.000000000878
 30
0.0
 11
101.0000000000345
 21
-1015.000000000878
 31
0.0
1001
ACDBBLOCKREPETAG
1070
     1
1071
       23
1005
12F497
  0
LINE
  5
12F498
  8
OBJECT
 10
104.0000000000345
 20
-1015.000000000878
 30
0.0
 11
104.0000000000345
 21
-1051.0000000008779
 31
0.0
1001
ACDBBLOCKREPETAG
1070
     1
1071
       24
1005
12F498
  0
LINE
  5
12F499
  8
OBJECT
 10
104.0000000000345
 20
-1051.0000000008779
 30
0.0
 11
208.00000000003459
 21
-1051.0000000008779
 31
0.0
1001
ACDBBLOCKREPETAG
1070
     1
1071
       25
1005
12F499
  0
LINE
  5
12F49A
  8
OBJECT
 10
208.00000000003459
 20
-1051.0000000008779
 30
0.0
 11
208.00000000003459
 21
-1015.000000000878
 31
0.0
1001
ACDBBLOCKREPETAG
1070
     1
1071
       26
1005
12F49A
  0
LINE
  5
12F49B
  8
OBJECT
 10
108.5000000000345
 20
-1055.000000000879
 30
0.0
 11
108.5000000000345
 21
-1062.0000000008779
 31
0.0
1001
ACDBBLOCKREPETAG
1070
     1
1071
       27
1005
12F49B
  0
LINE
  5
12F49C
  8
OBJECT
 10
203.50000000003459
 20
-1062.0000000008779
 30
0.0
 11
203.50000000003459
 21
-1055.000000000879
 31
0.0
1001
ACDBBLOCKREPETAG
1070
     1
1071
       28
1005
12F49C
  0
LINE
  5
12F49D
  8
OBJECT
 10
203.50000000003459
 20
-1055.000000000879
 30
0.0
 11
108.5000000000345
 21
-1055.000000000879
 31
0.0
1001
ACDBBLOCKREPETAG
1070
     1
1071
       29
1005
12F49D
  0
LINE
  5
12F49E
  8
OBJECT
 10
104.0000000000345
 20
-1051.0000000008779
 30
0.0
 11
108.5000000000345
 21
-1055.000000000879
 31
0.0
1001
ACDBBLOCKREPETAG
1070
     1
1071
       30
1005
12F49E
  0
LINE
  5
12F49F
  8
OBJECT
 10
208.00000000003459
 20
-1051.0000000008779
 30
0.0
 11
203.50000000003459
 21
-1055.000000000879
 31
0.0
1001
ACDBBLOCKREPETAG
1070
     1
1071
       31
1005
12F49F
  0
LINE
  5
12F4A0
  8
OBJECT
 10
94.000000000034575
 20
-1065.000000000877
 30
0.0
 11
94.000000000034575
 21
-1068.0000000008779
 31
0.0
1001
ACDBBLOCKREPETAG
1070
     1
1071
       32
1005
12F4A0
  0
ARC
  5
12F4A1
  8
OBJECT
 10
97.000000000034561
 20
-1065.000000000877
 30
0.0
 40
3.0
 50
90.0
 51
180.0
1001
ACDBBLOCKREPETAG
1070
     1
1071
       33
1005
12F4A1
  0
LINE
  5
12F4A2
  8
OBJECT
 10
218.00000000003459
 20
-1068.0000000008779
 30
0.0
 11
218.00000000003459
 21
-1065.000000000879
 31
0.0
1001
ACDBBLOCKREPETAG
1070
     1
1071
       34
1005
12F4A2
  0
ARC
  5
12F4A3
  8
OBJECT
 10
215.00000000003459
 20
-1065.000000000879
 30
0.0
 40
3.0
 50
0.0
 51
90.0
1001
ACDBBLOCKREPETAG
1070
     1
1071
       35
1005
12F4A3
  0
LINE
  5
12F4A4
  8
OBJECT
 10
215.00000000003459
 20
-1062.000000000879
 30
0.0
 11
97.000000000034561
 21
-1062.000000000877
 31
0.0
1001
ACDBBLOCKREPETAG
1070
     1
1071
       36
1005
12F4A4
  0
LINE
  5
12F4A5
  8
HIDDEN
 10
118.0000000000345
 20
-1060.0000000008779
 30
0.0
 11
194.0000000000345
 21
-1060.0000000008779
 31
0.0
1001
ACDBBLOCKREPETAG
1070
     1
1071
      423
1005
12F4A5
  0
LINE
  5
12F4A6
  8
OBJECT
 10
94.000000000034575
 20
-767.00000000087164
 30
0.0
 11
94.000000000034575
 21
-764.00000000087164
 31
0.0
1001
ACDBBLOCKREPETAG
1070
     1
1071
      418
1005
12F4A6
  0
ARC
  5
12F4A7
  8
OBJECT
 10
97.000000000034561
 20
-767.00000000087164
 30
0.0
 40
3.0
 50
180.0
 51
270.0
1001
ACDBBLOCKREPETAG
1070
     1
1071
      419
1005
12F4A7
  0
LINE
  5
12F4A8
  8
OBJECT
 10
218.00000000003459
 20
-764.00000000087164
 30
0.0
 11
218.00000000003459
 21
-767.00000000087164
 31
0.0
1001
ACDBBLOCKREPETAG
1070
     1
1071
      420
1005
12F4A8
  0
ARC
  5
12F4A9
  8
OBJECT
 10
215.00000000003459
 20
-767.00000000087164
 30
0.0
 40
3.0
 50
270.0
 51
0.0
1001
ACDBBLOCKREPETAG
1070
     1
1071
      421
1005
12F4A9
  0
LINE
  5
12F4AA
  8
OBJECT
 10
215.00000000003459
 20
-770.00000000087164
 30
0.0
 11
97.000000000034561
 21
-770.00000000087164
 31
0.0
1001
ACDBBLOCKREPETAG
1070
     1
1071
      422
1005
12F4AA
  0
INSERT
  5
12F4AB
  8
OBJECT
  2
*U28
 10
0.0
 20
0.0
 30
0.0
  0
LINE
  5
12F4AC
  8
OBJECT
 10
289.00000000003462
 20
-622.00000000087175
 30
0.0
 11
296.0000000000345
 21
-622.00000000087175
 31
0.0
1001
ACDBBLOCKREPETAG
1070
     1
1071
       39
1005
12F4AC
  0
LINE
  5
12F4AD
  8
OBJECT
 10
296.0000000000345
 20
-622.00000000087175
 30
0.0
 11
296.0000000000345
 21
-746.00000000087164
 31
0.0
1001
ACDBBLOCKREPETAG
1070
     1
1071
       40
1005
12F4AD
  0
LINE
  5
12F4AE
  8
OBJECT
 10
296.0000000000345
 20
-746.00000000087164
 30
0.0
 11
289.00000000003462
 21
-746.00000000087164
 31
0.0
1001
ACDBBLOCKREPETAG
1070
     1
1071
       41
1005
12F4AE
  0
LINE
  5
12F4AF
  8
OBJECT
 10
289.00000000003462
 20
-746.00000000087164
 30
0.0
 11
289.00000000003462
 21
-622.00000000087175
 31
0.0
1001
ACDBBLOCKREPETAG
1070
     1
1071
       42
1005
12F4AF
  0
LINE
  5
12F4B0
  8
OBJECT
 10
289.00000000003462
 20
-625.00000000087175
 30
0.0
 11
253.00000000003459
 21
-625.00000000087175
 31
0.0
1001
ACDBBLOCKREPETAG
1070
     1
1071
       43
1005
12F4B0
  0
LINE
  5
12F4B1
  8
OBJECT
 10
253.00000000003459
 20
-625.00000000087175
 30
0.0
 11
253.00000000003459
 21
-743.00000000087164
 31
0.0
1001
ACDBBLOCKREPETAG
1070
     1
1071
       44
1005
12F4B1
  0
LINE
  5
12F4B2
  8
OBJECT
 10
253.00000000003459
 20
-743.00000000087164
 30
0.0
 11
289.00000000003462
 21
-743.00000000087164
 31
0.0
1001
ACDBBLOCKREPETAG
1070
     1
1071
       45
1005
12F4B2
  0
LINE
  5
12F4B3
  8
OBJECT
 10
249.00000000003459
 20
-629.50000000087175
 30
0.0
 11
242.00000000003459
 21
-629.50000000087175
 31
0.0
1001
ACDBBLOCKREPETAG
1070
     1
1071
       46
1005
12F4B3
  0
LINE
  5
12F4B4
  8
OBJECT
 10
242.00000000003459
 20
-738.50000000087164
 30
0.0
 11
249.00000000003459
 21
-738.50000000087164
 31
0.0
1001
ACDBBLOCKREPETAG
1070
     1
1071
       47
1005
12F4B4
  0
LINE
  5
12F4B5
  8
OBJECT
 10
249.00000000003459
 20
-738.50000000087164
 30
0.0
 11
249.00000000003459
 21
-629.50000000087175
 31
0.0
1001
ACDBBLOCKREPETAG
1070
     1
1071
       48
1005
12F4B5
  0
LINE
  5
12F4B6
  8
OBJECT
 10
253.00000000003459
 20
-625.00000000087175
 30
0.0
 11
249.00000000003459
 21
-629.50000000087175
 31
0.0
1001
ACDBBLOCKREPETAG
1070
     1
1071
       49
1005
12F4B6
  0
LINE
  5
12F4B7
  8
OBJECT
 10
253.00000000003459
 20
-743.00000000087164
 30
0.0
 11
249.00000000003459
 21
-738.50000000087164
 31
0.0
1001
ACDBBLOCKREPETAG
1070
     1
1071
       50
1005
12F4B7
  0
LINE
  5
12F4B8
  8
OBJECT
 10
239.00000000003641
 20
-622.00000000087175
 30
0.0
 11
236.00000000003459
 21
-622.00000000087175
 31
0.0
1001
ACDBBLOCKREPETAG
1070
     1
1071
       51
1005
12F4B8
  0
ARC
  5
12F4B9
  8
OBJECT
 10
239.00000000003641
 20
-625.00000000087175
 30
0.0
 40
3.0
 50
0.0
 51
90.0
1001
ACDBBLOCKREPETAG
1070
     1
1071
       52
1005
12F4B9
  0
LINE
  5
12F4BA
  8
OBJECT
 10
236.00000000003459
 20
-746.00000000087164
 30
0.0
 11
239.00000000003271
 21
-746.00000000087164
 31
0.0
1001
ACDBBLOCKREPETAG
1070
     1
1071
       53
1005
12F4BA
  0
ARC
  5
12F4BB
  8
OBJECT
 10
239.00000000003271
 20
-743.00000000087164
 30
0.0
 40
3.0
 50
270.0
 51
0.0
1001
ACDBBLOCKREPETAG
1070
     1
1071
       54
1005
12F4BB
  0
LINE
  5
12F4BC
  8
OBJECT
 10
242.0000000000328
 20
-743.00000000087164
 30
0.0
 11
242.00000000003641
 21
-625.00000000087175
 31
0.0
1001
ACDBBLOCKREPETAG
1070
     1
1071
       55
1005
12F4BC
  0
LINE
  5
12F4BD
  8
HIDDEN
 10
244.0000000000345
 20
-639.50000000087175
 30
0.0
 11
244.0000000000345
 21
-728.50000000087164
 31
0.0
1001
ACDBBLOCKREPETAG
1070
     1
1071
      430
1005
12F4BD
  0
INSERT
  5
12F4BE
  8
OBJECT
  2
*U29
 10
0.0
 20
0.0
 30
0.0
  0
LINE
  5
12F4BF
  8
OBJECT
 10
109.0000000000345
 20
-551.00000000087175
 30
0.0
 11
109.0000000000345
 21
-544.00000000087175
 31
0.0
1001
ACDBBLOCKREPETAG
1070
     1
1071
        1
1005
12F4BF
  0
LINE
  5
12F4C0
  8
OBJECT
 10
109.0000000000345
 20
-544.00000000087175
 30
0.0
 11
203.00000000003459
 21
-544.00000000087175
 31
0.0
1001
ACDBBLOCKREPETAG
1070
     1
1071
        2
1005
12F4C0
  0
LINE
  5
12F4C1
  8
OBJECT
 10
203.00000000003459
 20
-544.00000000087175
 30
0.0
 11
203.00000000003459
 21
-551.00000000087175
 31
0.0
1001
ACDBBLOCKREPETAG
1070
     1
1071
        3
1005
12F4C1
  0
LINE
  5
12F4C2
  8
OBJECT
 10
203.00000000003459
 20
-551.00000000087175
 30
0.0
 11
109.0000000000345
 21
-551.00000000087175
 31
0.0
1001
ACDBBLOCKREPETAG
1070
     1
1071
        4
1005
12F4C2
  0
LINE
  5
12F4C3
  8
OBJECT
 10
112.0000000000345
 20
-551.00000000087175
 30
0.0
 11
112.0000000000345
 21
-587.00000000087175
 31
0.0
1001
ACDBBLOCKREPETAG
1070
     1
1071
        5
1005
12F4C3
  0
LINE
  5
12F4C4
  8
OBJECT
 10
112.0000000000345
 20
-587.00000000087175
 30
0.0
 11
200.0000000000345
 21
-587.00000000087175
 31
0.0
1001
ACDBBLOCKREPETAG
1070
     1
1071
        6
1005
12F4C4
  0
LINE
  5
12F4C5
  8
OBJECT
 10
200.0000000000345
 20
-587.00000000087175
 30
0.0
 11
200.0000000000345
 21
-551.00000000087175
 31
0.0
1001
ACDBBLOCKREPETAG
1070
     1
1071
        7
1005
12F4C5
  0
LINE
  5
12F4C6
  8
OBJECT
 10
116.5000000000345
 20
-591.00000000087175
 30
0.0
 11
116.5000000000345
 21
-598.00000000087175
 31
0.0
1001
ACDBBLOCKREPETAG
1070
     1
1071
        8
1005
12F4C6
  0
LINE
  5
12F4C7
  8
OBJECT
 10
195.5000000000345
 20
-598.00000000087175
 30
0.0
 11
195.5000000000345
 21
-591.00000000087175
 31
0.0
1001
ACDBBLOCKREPETAG
1070
     1
1071
        9
1005
12F4C7
  0
LINE
  5
12F4C8
  8
OBJECT
 10
195.5000000000345
 20
-591.00000000087175
 30
0.0
 11
116.5000000000345
 21
-591.00000000087175
 31
0.0
1001
ACDBBLOCKREPETAG
1070
     1
1071
       10
1005
12F4C8
  0
LINE
  5
12F4C9
  8
OBJECT
 10
112.0000000000345
 20
-587.00000000087175
 30
0.0
 11
116.5000000000345
 21
-591.00000000087175
 31
0.0
1001
ACDBBLOCKREPETAG
1070
     1
1071
       11
1005
12F4C9
  0
LINE
  5
12F4CA
  8
OBJECT
 10
200.0000000000345
 20
-587.00000000087175
 30
0.0
 11
195.5000000000345
 21
-591.00000000087175
 31
0.0
1001
ACDBBLOCKREPETAG
1070
     1
1071
       12
1005
12F4CA
  0
LINE
  5
12F4CB
  8
OBJECT
 10
94.000000000034575
 20
-601.00000000087084
 30
0.0
 11
94.000000000034575
 21
-604.00000000087175
 31
0.0
1001
ACDBBLOCKREPETAG
1070
     1
1071
       13
1005
12F4CB
  0
ARC
  5
12F4CC
  8
OBJECT
 10
97.000000000034561
 20
-601.00000000087084
 30
0.0
 40
3.0
 50
90.0
 51
180.0
1001
ACDBBLOCKREPETAG
1070
     1
1071
       14
1005
12F4CC
  0
LINE
  5
12F4CD
  8
OBJECT
 10
218.00000000003459
 20
-604.00000000087175
 30
0.0
 11
218.00000000003459
 21
-601.00000000087266
 31
0.0
1001
ACDBBLOCKREPETAG
1070
     1
1071
       15
1005
12F4CD
  0
ARC
  5
12F4CE
  8
OBJECT
 10
215.00000000003459
 20
-601.00000000087266
 30
0.0
 40
3.0
 50
0.0
 51
90.0
1001
ACDBBLOCKREPETAG
1070
     1
1071
       16
1005
12F4CE
  0
LINE
  5
12F4CF
  8
OBJECT
 10
215.00000000003459
 20
-598.00000000087255
 30
0.0
 11
97.000000000034561
 21
-598.00000000087084
 31
0.0
1001
ACDBBLOCKREPETAG
1070
     1
1071
       17
1005
12F4CF
  0
LINE
  5
12F4D0
  8
HIDDEN
 10
126.0000000000345
 20
-596.00000000087175
 30
0.0
 11
186.00000000003439
 21
-596.00000000087175
 31
0.0
1001
ACDBBLOCKREPETAG
1070
     1
1071
      420
1005
12F4D0
  0
LINE
  5
12F4D1
  8
OBJECT
 10
454.00000000011448
 20
-767.00000000087164
 30
0.0
 11
454.00000000011448
 21
-764.00000000087164
 31
0.0
1001
ACDBBLOCKREPETAG
1070
     1
1071
      418
1005
12F4D1
  0
ARC
  5
12F4D2
  8
OBJECT
 10
457.0000000001146
 20
-767.00000000087164
 30
0.0
 40
3.0
 50
180.0
 51
270.0
1001
ACDBBLOCKREPETAG
1070
     1
1071
      419
1005
12F4D2
  0
LINE
  5
12F4D3
  8
OBJECT
 10
578.00000000011448
 20
-764.00000000087164
 30
0.0
 11
578.00000000011448
 21
-767.00000000087164
 31
0.0
1001
ACDBBLOCKREPETAG
1070
     1
1071
      420
1005
12F4D3
  0
ARC
  5
12F4D4
  8
OBJECT
 10
575.00000000011437
 20
-767.00000000087164
 30
0.0
 40
3.0
 50
270.0
 51
0.0
1001
ACDBBLOCKREPETAG
1070
     1
1071
      421
1005
12F4D4
  0
LINE
  5
12F4D5
  8
OBJECT
 10
575.00000000011437
 20
-770.00000000087164
 30
0.0
 11
457.0000000001146
 21
-770.00000000087164
 31
0.0
1001
ACDBBLOCKREPETAG
1070
     1
1071
      422
1005
12F4D5
  0
LINE
  5
12F4D6
  8
OBJECT
 10
666.00000000011448
 20
-609.00000000087175
 30
0.0
 11
659.0000000001146
 21
-609.00000000087175
 31
0.0
1001
ACDBBLOCKREPETAG
1070
     1
1071
       57
1005
12F4D6
  0
LINE
  5
12F4D7
  8
OBJECT
 10
659.0000000001146
 20
-609.00000000087175
 30
0.0
 11
659.0000000001146
 21
-759.00000000087164
 31
0.0
1001
ACDBBLOCKREPETAG
1070
     1
1071
       58
1005
12F4D7
  0
LINE
  5
12F4D8
  8
OBJECT
 10
617.5000000001146
 20
-612.00000000087175
 30
0.0
 11
617.5000000001146
 21
-756.00000000087164
 31
0.0
1001
ACDBBLOCKREPETAG
1070
     1
1071
       59
1005
12F4D8
  0
LINE
  5
12F4D9
  8
OBJECT
 10
606.0000000001146
 20
-618.50000000087175
 30
0.0
 11
606.0000000001146
 21
-749.50000000087164
 31
0.0
1001
ACDBBLOCKREPETAG
1070
     1
1071
       60
1005
12F4D9
  0
LINE
  5
12F4DA
  8
OBJECT
 10
659.0000000001146
 20
-759.00000000087164
 30
0.0
 11
666.00000000011448
 21
-759.00000000087164
 31
0.0
1001
ACDBBLOCKREPETAG
1070
     1
1071
       61
1005
12F4DA
  0
LINE
  5
12F4DB
  8
OBJECT
 10
666.00000000011448
 20
-759.00000000087164
 30
0.0
 11
666.00000000011448
 21
-609.00000000087175
 31
0.0
1001
ACDBBLOCKREPETAG
1070
     1
1071
       62
1005
12F4DB
  0
LINE
  5
12F4DC
  8
OBJECT
 10
602.0000000001146
 20
-746.00000000087164
 30
0.0
 11
596.00000000011437
 21
-746.00000000087164
 31
0.0
1001
ACDBBLOCKREPETAG
1070
     1
1071
       63
1005
12F4DC
  0
LINE
  5
12F4DD
  8
OBJECT
 10
659.0000000001146
 20
-756.00000000087164
 30
0.0
 11
617.5000000001146
 21
-756.00000000087164
 31
0.0
1001
ACDBBLOCKREPETAG
1070
     1
1071
       64
1005
12F4DD
  0
LINE
  5
12F4DE
  8
OBJECT
 10
617.5000000001146
 20
-756.00000000087164
 30
0.0
 11
606.0000000001146
 21
-749.50000000087164
 31
0.0
1001
ACDBBLOCKREPETAG
1070
     1
1071
       65
1005
12F4DE
  0
LINE
  5
12F4DF
  8
OBJECT
 10
606.0000000001146
 20
-749.50000000087164
 30
0.0
 11
602.0000000001146
 21
-746.00000000087164
 31
0.0
1001
ACDBBLOCKREPETAG
1070
     1
1071
       66
1005
12F4DF
  0
LINE
  5
12F4E0
  8
OBJECT
 10
617.5000000001146
 20
-612.00000000087175
 30
0.0
 11
606.0000000001146
 21
-618.50000000087175
 31
0.0
1001
ACDBBLOCKREPETAG
1070
     1
1071
       67
1005
12F4E0
  0
LINE
  5
12F4E1
  8
OBJECT
 10
606.0000000001146
 20
-618.50000000087175
 30
0.0
 11
602.0000000001146
 21
-622.00000000087175
 31
0.0
1001
ACDBBLOCKREPETAG
1070
     1
1071
       68
1005
12F4E1
  0
ARC
  5
12F4E2
  8
OBJECT
 10
983.90000000011605
 20
-684.00000000087175
 30
0.0
 40
386.89999999999998
 50
170.7787013626384
 51
189.22129863736151
1001
ACDBBLOCKREPETAG
1070
     1
1071
       69
1005
12F4E2
  0
LINE
  5
12F4E3
  8
OBJECT
 10
602.0000000001146
 20
-622.00000000087175
 30
0.0
 11
596.00000000011437
 21
-622.00000000087175
 31
0.0
1001
ACDBBLOCKREPETAG
1070
     1
1071
       70
1005
12F4E3
  0
LINE
  5
12F4E4
  8
OBJECT
 10
659.0000000001146
 20
-612.00000000087175
 30
0.0
 11
617.5000000001146
 21
-612.00000000087175
 31
0.0
1001
ACDBBLOCKREPETAG
1070
     1
1071
       71
1005
12F4E4
  0
INSERT
  5
12F4E5
  8
OBJECT
  2
*U30
 10
0.0
 20
0.0
 30
0.0
  0
LINE
  5
12F4E6
  8
HIDDEN
 10
614.0000000001146
 20
-741.00000000087164
 30
0.0
 11
614.0000000001146
 21
-627.00000000087175
 31
0.0
1001
ACDBBLOCKREPETAG
1070
     1
1071
      437
1005
12F4E6
  0
INSERT
  5
12F4E7
  8
OBJECT
  2
*U31
 10
0.0
 20
0.0
 30
0.0
  0
LINE
  5
12F4E8
  8
OBJECT
 10
469.0000000001146
 20
-551.00000000087175
 30
0.0
 11
469.0000000001146
 21
-544.00000000087175
 31
0.0
1001
ACDBBLOCKREPETAG
1070
     1
1071
        1
1005
12F4E8
  0
LINE
  5
12F4E9
  8
OBJECT
 10
469.0000000001146
 20
-544.00000000087175
 30
0.0
 11
563.00000000011437
 21
-544.00000000087175
 31
0.0
1001
ACDBBLOCKREPETAG
1070
     1
1071
        2
1005
12F4E9
  0
LINE
  5
12F4EA
  8
OBJECT
 10
563.00000000011437
 20
-544.00000000087175
 30
0.0
 11
563.00000000011437
 21
-551.00000000087175
 31
0.0
1001
ACDBBLOCKREPETAG
1070
     1
1071
        3
1005
12F4EA
  0
LINE
  5
12F4EB
  8
OBJECT
 10
563.00000000011437
 20
-551.00000000087175
 30
0.0
 11
469.0000000001146
 21
-551.00000000087175
 31
0.0
1001
ACDBBLOCKREPETAG
1070
     1
1071
        4
1005
12F4EB
  0
LINE
  5
12F4EC
  8
OBJECT
 10
472.0000000001146
 20
-551.00000000087175
 30
0.0
 11
472.0000000001146
 21
-587.00000000087175
 31
0.0
1001
ACDBBLOCKREPETAG
1070
     1
1071
        5
1005
12F4EC
  0
LINE
  5
12F4ED
  8
OBJECT
 10
472.0000000001146
 20
-587.00000000087175
 30
0.0
 11
560.0000000001146
 21
-587.00000000087175
 31
0.0
1001
ACDBBLOCKREPETAG
1070
     1
1071
        6
1005
12F4ED
  0
LINE
  5
12F4EE
  8
OBJECT
 10
560.0000000001146
 20
-587.00000000087175
 30
0.0
 11
560.0000000001146
 21
-551.00000000087175
 31
0.0
1001
ACDBBLOCKREPETAG
1070
     1
1071
        7
1005
12F4EE
  0
LINE
  5
12F4EF
  8
OBJECT
 10
476.5000000001146
 20
-591.00000000087175
 30
0.0
 11
476.5000000001146
 21
-598.00000000087175
 31
0.0
1001
ACDBBLOCKREPETAG
1070
     1
1071
        8
1005
12F4EF
  0
LINE
  5
12F4F0
  8
OBJECT
 10
555.5000000001146
 20
-598.00000000087175
 30
0.0
 11
555.5000000001146
 21
-591.00000000087175
 31
0.0
1001
ACDBBLOCKREPETAG
1070
     1
1071
        9
1005
12F4F0
  0
LINE
  5
12F4F1
  8
OBJECT
 10
555.5000000001146
 20
-591.00000000087175
 30
0.0
 11
476.5000000001146
 21
-591.00000000087175
 31
0.0
1001
ACDBBLOCKREPETAG
1070
     1
1071
       10
1005
12F4F1
  0
LINE
  5
12F4F2
  8
OBJECT
 10
472.0000000001146
 20
-587.00000000087175
 30
0.0
 11
476.5000000001146
 21
-591.00000000087175
 31
0.0
1001
ACDBBLOCKREPETAG
1070
     1
1071
       11
1005
12F4F2
  0
LINE
  5
12F4F3
  8
OBJECT
 10
560.0000000001146
 20
-587.00000000087175
 30
0.0
 11
555.5000000001146
 21
-591.00000000087175
 31
0.0
1001
ACDBBLOCKREPETAG
1070
     1
1071
       12
1005
12F4F3
  0
LINE
  5
12F4F4
  8
OBJECT
 10
454.00000000011448
 20
-601.00000000087084
 30
0.0
 11
454.00000000011448
 21
-604.00000000087175
 31
0.0
1001
ACDBBLOCKREPETAG
1070
     1
1071
       13
1005
12F4F4
  0
ARC
  5
12F4F5
  8
OBJECT
 10
457.0000000001146
 20
-601.00000000087084
 30
0.0
 40
3.0
 50
90.0
 51
180.0
1001
ACDBBLOCKREPETAG
1070
     1
1071
       14
1005
12F4F5
  0
LINE
  5
12F4F6
  8
OBJECT
 10
578.00000000011448
 20
-604.00000000087175
 30
0.0
 11
578.00000000011448
 21
-601.00000000087266
 31
0.0
1001
ACDBBLOCKREPETAG
1070
     1
1071
       15
1005
12F4F6
  0
ARC
  5
12F4F7
  8
OBJECT
 10
575.00000000011437
 20
-601.00000000087266
 30
0.0
 40
3.0
 50
0.0
 51
90.0
1001
ACDBBLOCKREPETAG
1070
     1
1071
       16
1005
12F4F7
  0
LINE
  5
12F4F8
  8
OBJECT
 10
575.00000000011437
 20
-598.00000000087255
 30
0.0
 11
457.0000000001146
 21
-598.00000000087084
 31
0.0
1001
ACDBBLOCKREPETAG
1070
     1
1071
       17
1005
12F4F8
  0
LINE
  5
12F4F9
  8
HIDDEN
 10
486.0000000001146
 20
-596.00000000087175
 30
0.0
 11
546.00000000011437
 21
-596.00000000087175
 31
0.0
1001
ACDBBLOCKREPETAG
1070
     1
1071
      420
1005
12F4F9
  0
LINE
  5
12F4FA
  8
OBJECT
 10
454.00000000011448
 20
-303.00000000086533
 30
0.0
 11
454.00000000011448
 21
-300.00000000086533
 31
0.0
1001
ACDBBLOCKREPETAG
1070
     1
1071
      418
1005
12F4FA
  0
ARC
  5
12F4FB
  8
OBJECT
 10
457.0000000001146
 20
-303.00000000086533
 30
0.0
 40
3.0
 50
180.0
 51
270.0
1001
ACDBBLOCKREPETAG
1070
     1
1071
      419
1005
12F4FB
  0
LINE
  5
12F4FC
  8
OBJECT
 10
578.00000000011448
 20
-300.00000000086533
 30
0.0
 11
578.00000000011448
 21
-303.00000000086533
 31
0.0
1001
ACDBBLOCKREPETAG
1070
     1
1071
      420
1005
12F4FC
  0
ARC
  5
12F4FD
  8
OBJECT
 10
575.00000000011437
 20
-303.00000000086533
 30
0.0
 40
3.0
 50
270.0
 51
0.0
1001
ACDBBLOCKREPETAG
1070
     1
1071
      421
1005
12F4FD
  0
LINE
  5
12F4FE
  8
OBJECT
 10
575.00000000011437
 20
-306.00000000086533
 30
0.0
 11
457.0000000001146
 21
-306.00000000086533
 31
0.0
1001
ACDBBLOCKREPETAG
1070
     1
1071
      422
1005
12F4FE
  0
INSERT
  5
12F4FF
  8
OBJECT
  2
*U32
 10
0.0
 20
0.0
 30
0.0
  0
LINE
  5
12F500
  8
OBJECT
 10
649.00000000011448
 20
-165.0000000008653
 30
0.0
 11
656.0000000001146
 21
-165.0000000008653
 31
0.0
1001
ACDBBLOCKREPETAG
1070
     1
1071
       20
1005
12F500
  0
LINE
  5
12F501
  8
OBJECT
 10
656.0000000001146
 20
-165.0000000008653
 30
0.0
 11
656.0000000001146
 21
-275.00000000086533
 31
0.0
1001
ACDBBLOCKREPETAG
1070
     1
1071
       21
1005
12F501
  0
LINE
  5
12F502
  8
OBJECT
 10
656.0000000001146
 20
-275.00000000086533
 30
0.0
 11
649.00000000011448
 21
-275.00000000086533
 31
0.0
1001
ACDBBLOCKREPETAG
1070
     1
1071
       22
1005
12F502
  0
LINE
  5
12F503
  8
OBJECT
 10
649.00000000011448
 20
-275.00000000086533
 30
0.0
 11
649.00000000011448
 21
-165.0000000008653
 31
0.0
1001
ACDBBLOCKREPETAG
1070
     1
1071
       23
1005
12F503
  0
LINE
  5
12F504
  8
OBJECT
 10
649.00000000011448
 20
-168.0000000008653
 30
0.0
 11
613.0000000001146
 21
-168.0000000008653
 31
0.0
1001
ACDBBLOCKREPETAG
1070
     1
1071
       24
1005
12F504
  0
LINE
  5
12F505
  8
OBJECT
 10
613.0000000001146
 20
-168.0000000008653
 30
0.0
 11
613.0000000001146
 21
-272.00000000086533
 31
0.0
1001
ACDBBLOCKREPETAG
1070
     1
1071
       25
1005
12F505
  0
LINE
  5
12F506
  8
OBJECT
 10
613.0000000001146
 20
-272.00000000086533
 30
0.0
 11
649.00000000011448
 21
-272.00000000086533
 31
0.0
1001
ACDBBLOCKREPETAG
1070
     1
1071
       26
1005
12F506
  0
LINE
  5
12F507
  8
OBJECT
 10
609.0000000001146
 20
-172.5000000008653
 30
0.0
 11
602.0000000001146
 21
-172.5000000008653
 31
0.0
1001
ACDBBLOCKREPETAG
1070
     1
1071
       27
1005
12F507
  0
LINE
  5
12F508
  8
OBJECT
 10
602.0000000001146
 20
-267.50000000086533
 30
0.0
 11
609.0000000001146
 21
-267.50000000086533
 31
0.0
1001
ACDBBLOCKREPETAG
1070
     1
1071
       28
1005
12F508
  0
LINE
  5
12F509
  8
OBJECT
 10
609.0000000001146
 20
-267.50000000086533
 30
0.0
 11
609.0000000001146
 21
-172.5000000008653
 31
0.0
1001
ACDBBLOCKREPETAG
1070
     1
1071
       29
1005
12F509
  0
LINE
  5
12F50A
  8
OBJECT
 10
613.0000000001146
 20
-168.0000000008653
 30
0.0
 11
609.0000000001146
 21
-172.5000000008653
 31
0.0
1001
ACDBBLOCKREPETAG
1070
     1
1071
       30
1005
12F50A
  0
LINE
  5
12F50B
  8
OBJECT
 10
613.0000000001146
 20
-272.00000000086533
 30
0.0
 11
609.0000000001146
 21
-267.50000000086533
 31
0.0
1001
ACDBBLOCKREPETAG
1070
     1
1071
       31
1005
12F50B
  0
LINE
  5
12F50C
  8
OBJECT
 10
599.00000000011619
 20
-158.0000000008653
 30
0.0
 11
596.00000000011437
 21
-158.0000000008653
 31
0.0
1001
ACDBBLOCKREPETAG
1070
     1
1071
       32
1005
12F50C
  0
ARC
  5
12F50D
  8
OBJECT
 10
599.00000000011619
 20
-161.0000000008653
 30
0.0
 40
3.0
 50
0.0
 51
90.0
1001
ACDBBLOCKREPETAG
1070
     1
1071
       33
1005
12F50D
  0
LINE
  5
12F50E
  8
OBJECT
 10
596.00000000011437
 20
-282.00000000086533
 30
0.0
 11
599.00000000011278
 21
-282.00000000086533
 31
0.0
1001
ACDBBLOCKREPETAG
1070
     1
1071
       34
1005
12F50E
  0
ARC
  5
12F50F
  8
OBJECT
 10
599.00000000011278
 20
-279.00000000086533
 30
0.0
 40
3.0
 50
270.0
 51
0.0
1001
ACDBBLOCKREPETAG
1070
     1
1071
       35
1005
12F50F
  0
LINE
  5
12F510
  8
OBJECT
 10
602.00000000011266
 20
-279.00000000086533
 30
0.0
 11
602.0000000001163
 21
-161.0000000008653
 31
0.0
1001
ACDBBLOCKREPETAG
1070
     1
1071
       36
1005
12F510
  0
LINE
  5
12F511
  8
HIDDEN
 10
604.00000000011437
 20
-182.0000000008653
 30
0.0
 11
604.00000000011437
 21
-258.00000000086533
 31
0.0
1001
ACDBBLOCKREPETAG
1070
     1
1071
      427
1005
12F511
  0
INSERT
  5
12F512
  8
OBJECT
  2
*U33
 10
0.0
 20
0.0
 30
0.0
  0
LINE
  5
12F513
  8
OBJECT
 10
469.0000000001146
 20
-87.000000000865299
 30
0.0
 11
469.0000000001146
 21
-80.000000000865313
 31
0.0
1001
ACDBBLOCKREPETAG
1070
     1
1071
        1
1005
12F513
  0
LINE
  5
12F514
  8
OBJECT
 10
469.0000000001146
 20
-80.000000000865313
 30
0.0
 11
563.00000000011437
 21
-80.000000000865313
 31
0.0
1001
ACDBBLOCKREPETAG
1070
     1
1071
        2
1005
12F514
  0
LINE
  5
12F515
  8
OBJECT
 10
563.00000000011437
 20
-80.000000000865313
 30
0.0
 11
563.00000000011437
 21
-87.000000000865299
 31
0.0
1001
ACDBBLOCKREPETAG
1070
     1
1071
        3
1005
12F515
  0
LINE
  5
12F516
  8
OBJECT
 10
563.00000000011437
 20
-87.000000000865299
 30
0.0
 11
469.0000000001146
 21
-87.000000000865299
 31
0.0
1001
ACDBBLOCKREPETAG
1070
     1
1071
        4
1005
12F516
  0
LINE
  5
12F517
  8
OBJECT
 10
472.0000000001146
 20
-87.000000000865299
 30
0.0
 11
472.0000000001146
 21
-123.0000000008653
 31
0.0
1001
ACDBBLOCKREPETAG
1070
     1
1071
        5
1005
12F517
  0
LINE
  5
12F518
  8
OBJECT
 10
472.0000000001146
 20
-123.0000000008653
 30
0.0
 11
560.0000000001146
 21
-123.0000000008653
 31
0.0
1001
ACDBBLOCKREPETAG
1070
     1
1071
        6
1005
12F518
  0
LINE
  5
12F519
  8
OBJECT
 10
560.0000000001146
 20
-123.0000000008653
 30
0.0
 11
560.0000000001146
 21
-87.000000000865299
 31
0.0
1001
ACDBBLOCKREPETAG
1070
     1
1071
        7
1005
12F519
  0
LINE
  5
12F51A
  8
OBJECT
 10
476.5000000001146
 20
-127.0000000008653
 30
0.0
 11
476.5000000001146
 21
-134.0000000008653
 31
0.0
1001
ACDBBLOCKREPETAG
1070
     1
1071
        8
1005
12F51A
  0
LINE
  5
12F51B
  8
OBJECT
 10
555.5000000001146
 20
-134.0000000008653
 30
0.0
 11
555.5000000001146
 21
-127.0000000008653
 31
0.0
1001
ACDBBLOCKREPETAG
1070
     1
1071
        9
1005
12F51B
  0
LINE
  5
12F51C
  8
OBJECT
 10
555.5000000001146
 20
-127.0000000008653
 30
0.0
 11
476.5000000001146
 21
-127.0000000008653
 31
0.0
1001
ACDBBLOCKREPETAG
1070
     1
1071
       10
1005
12F51C
  0
LINE
  5
12F51D
  8
OBJECT
 10
472.0000000001146
 20
-123.0000000008653
 30
0.0
 11
476.5000000001146
 21
-127.0000000008653
 31
0.0
1001
ACDBBLOCKREPETAG
1070
     1
1071
       11
1005
12F51D
  0
LINE
  5
12F51E
  8
OBJECT
 10
560.0000000001146
 20
-123.0000000008653
 30
0.0
 11
555.5000000001146
 21
-127.0000000008653
 31
0.0
1001
ACDBBLOCKREPETAG
1070
     1
1071
       12
1005
12F51E
  0
LINE
  5
12F51F
  8
OBJECT
 10
454.00000000011448
 20
-137.00000000086439
 30
0.0
 11
454.00000000011448
 21
-140.0000000008653
 31
0.0
1001
ACDBBLOCKREPETAG
1070
     1
1071
       13
1005
12F51F
  0
ARC
  5
12F520
  8
OBJECT
 10
457.0000000001146
 20
-137.00000000086439
 30
0.0
 40
3.0
 50
90.0
 51
180.0
1001
ACDBBLOCKREPETAG
1070
     1
1071
       14
1005
12F520
  0
LINE
  5
12F521
  8
OBJECT
 10
578.00000000011448
 20
-140.0000000008653
 30
0.0
 11
578.00000000011448
 21
-137.00000000086621
 31
0.0
1001
ACDBBLOCKREPETAG
1070
     1
1071
       15
1005
12F521
  0
ARC
  5
12F522
  8
OBJECT
 10
575.00000000011437
 20
-137.00000000086621
 30
0.0
 40
3.0
 50
0.0
 51
90.0
1001
ACDBBLOCKREPETAG
1070
     1
1071
       16
1005
12F522
  0
LINE
  5
12F523
  8
OBJECT
 10
575.00000000011437
 20
-134.00000000086621
 30
0.0
 11
457.0000000001146
 21
-134.00000000086439
 31
0.0
1001
ACDBBLOCKREPETAG
1070
     1
1071
       17
1005
12F523
  0
LINE
  5
12F524
  8
HIDDEN
 10
486.0000000001146
 20
-132.0000000008653
 30
0.0
 11
546.00000000011437
 21
-132.0000000008653
 31
0.0
1001
ACDBBLOCKREPETAG
1070
     1
1071
      420
1005
12F524
  0
LINE
  5
12F525
  8
OBJECT
 10
94.000000000034575
 20
-303.00000000086533
 30
0.0
 11
94.000000000034575
 21
-300.00000000086533
 31
0.0
1001
ACDBBLOCKREPETAG
1070
     1
1071
      418
1005
12F525
  0
ARC
  5
12F526
  8
OBJECT
 10
97.000000000034561
 20
-303.00000000086533
 30
0.0
 40
3.0
 50
180.0
 51
270.0
1001
ACDBBLOCKREPETAG
1070
     1
1071
      419
1005
12F526
  0
LINE
  5
12F527
  8
OBJECT
 10
218.00000000003459
 20
-300.00000000086533
 30
0.0
 11
218.00000000003459
 21
-303.00000000086533
 31
0.0
1001
ACDBBLOCKREPETAG
1070
     1
1071
      420
1005
12F527
  0
ARC
  5
12F528
  8
OBJECT
 10
215.00000000003459
 20
-303.00000000086533
 30
0.0
 40
3.0
 50
270.0
 51
0.0
1001
ACDBBLOCKREPETAG
1070
     1
1071
      421
1005
12F528
  0
LINE
  5
12F529
  8
OBJECT
 10
215.00000000003459
 20
-306.00000000086533
 30
0.0
 11
97.000000000034561
 21
-306.00000000086533
 31
0.0
1001
ACDBBLOCKREPETAG
1070
     1
1071
      422
1005
12F529
  0
INSERT
  5
12F52A
  8
OBJECT
  2
*U34
 10
0.0
 20
0.0
 30
0.0
  0
LINE
  5
12F52B
  8
OBJECT
 10
289.00000000003462
 20
-173.0000000008653
 30
0.0
 11
296.0000000000345
 21
-173.0000000008653
 31
0.0
1001
ACDBBLOCKREPETAG
1070
     1
1071
        1
1005
12F52B
  0
LINE
  5
12F52C
  8
OBJECT
 10
296.0000000000345
 20
-173.0000000008653
 30
0.0
 11
296.0000000000345
 21
-267.00000000086533
 31
0.0
1001
ACDBBLOCKREPETAG
1070
     1
1071
        2
1005
12F52C
  0
LINE
  5
12F52D
  8
OBJECT
 10
296.0000000000345
 20
-267.00000000086533
 30
0.0
 11
289.00000000003462
 21
-267.00000000086533
 31
0.0
1001
ACDBBLOCKREPETAG
1070
     1
1071
        3
1005
12F52D
  0
LINE
  5
12F52E
  8
OBJECT
 10
289.00000000003462
 20
-267.00000000086533
 30
0.0
 11
289.00000000003462
 21
-173.0000000008653
 31
0.0
1001
ACDBBLOCKREPETAG
1070
     1
1071
        4
1005
12F52E
  0
LINE
  5
12F52F
  8
OBJECT
 10
289.00000000003462
 20
-176.0000000008653
 30
0.0
 11
253.00000000003459
 21
-176.0000000008653
 31
0.0
1001
ACDBBLOCKREPETAG
1070
     1
1071
        5
1005
12F52F
  0
LINE
  5
12F530
  8
OBJECT
 10
253.00000000003459
 20
-176.0000000008653
 30
0.0
 11
253.00000000003459
 21
-264.00000000086533
 31
0.0
1001
ACDBBLOCKREPETAG
1070
     1
1071
        6
1005
12F530
  0
LINE
  5
12F531
  8
OBJECT
 10
253.00000000003459
 20
-264.00000000086533
 30
0.0
 11
289.00000000003462
 21
-264.00000000086533
 31
0.0
1001
ACDBBLOCKREPETAG
1070
     1
1071
        7
1005
12F531
  0
LINE
  5
12F532
  8
OBJECT
 10
249.00000000003459
 20
-180.5000000008653
 30
0.0
 11
242.00000000003459
 21
-180.5000000008653
 31
0.0
1001
ACDBBLOCKREPETAG
1070
     1
1071
        8
1005
12F532
  0
LINE
  5
12F533
  8
OBJECT
 10
242.00000000003459
 20
-259.50000000086533
 30
0.0
 11
249.00000000003459
 21
-259.50000000086533
 31
0.0
1001
ACDBBLOCKREPETAG
1070
     1
1071
        9
1005
12F533
  0
LINE
  5
12F534
  8
OBJECT
 10
249.00000000003459
 20
-259.50000000086533
 30
0.0
 11
249.00000000003459
 21
-180.5000000008653
 31
0.0
1001
ACDBBLOCKREPETAG
1070
     1
1071
       10
1005
12F534
  0
LINE
  5
12F535
  8
OBJECT
 10
253.00000000003459
 20
-176.0000000008653
 30
0.0
 11
249.00000000003459
 21
-180.5000000008653
 31
0.0
1001
ACDBBLOCKREPETAG
1070
     1
1071
       11
1005
12F535
  0
LINE
  5
12F536
  8
OBJECT
 10
253.00000000003459
 20
-264.00000000086533
 30
0.0
 11
249.00000000003459
 21
-259.50000000086533
 31
0.0
1001
ACDBBLOCKREPETAG
1070
     1
1071
       12
1005
12F536
  0
LINE
  5
12F537
  8
OBJECT
 10
239.00000000003641
 20
-158.0000000008653
 30
0.0
 11
236.00000000003459
 21
-158.0000000008653
 31
0.0
1001
ACDBBLOCKREPETAG
1070
     1
1071
       13
1005
12F537
  0
ARC
  5
12F538
  8
OBJECT
 10
239.00000000003641
 20
-161.0000000008653
 30
0.0
 40
3.0
 50
0.0
 51
90.0
1001
ACDBBLOCKREPETAG
1070
     1
1071
       14
1005
12F538
  0
LINE
  5
12F539
  8
OBJECT
 10
236.00000000003459
 20
-282.00000000086533
 30
0.0
 11
239.00000000003271
 21
-282.00000000086533
 31
0.0
1001
ACDBBLOCKREPETAG
1070
     1
1071
       15
1005
12F539
  0
ARC
  5
12F53A
  8
OBJECT
 10
239.00000000003271
 20
-279.00000000086533
 30
0.0
 40
3.0
 50
270.0
 51
0.0
1001
ACDBBLOCKREPETAG
1070
     1
1071
       16
1005
12F53A
  0
LINE
  5
12F53B
  8
OBJECT
 10
242.0000000000328
 20
-279.00000000086533
 30
0.0
 11
242.00000000003641
 21
-161.0000000008653
 31
0.0
1001
ACDBBLOCKREPETAG
1070
     1
1071
       17
1005
12F53B
  0
LINE
  5
12F53C
  8
HIDDEN
 10
244.0000000000345
 20
-190.0000000008653
 30
0.0
 11
244.0000000000345
 21
-250.0000000008653
 31
0.0
1001
ACDBBLOCKREPETAG
1070
     1
1071
      424
1005
12F53C
  0
INSERT
  5
12F53D
  8
OBJECT
  2
*U35
 10
0.0
 20
0.0
 30
0.0
  0
LINE
  5
12F53E
  8
OBJECT
 10
109.0000000000345
 20
-87.000000000865299
 30
0.0
 11
109.0000000000345
 21
-80.000000000865313
 31
0.0
1001
ACDBBLOCKREPETAG
1070
     1
1071
        1
1005
12F53E
  0
LINE
  5
12F53F
  8
OBJECT
 10
109.0000000000345
 20
-80.000000000865313
 30
0.0
 11
203.00000000003459
 21
-80.000000000865313
 31
0.0
1001
ACDBBLOCKREPETAG
1070
     1
1071
        2
1005
12F53F
  0
LINE
  5
12F540
  8
OBJECT
 10
203.00000000003459
 20
-80.000000000865313
 30
0.0
 11
203.00000000003459
 21
-87.000000000865299
 31
0.0
1001
ACDBBLOCKREPETAG
1070
     1
1071
        3
1005
12F540
  0
LINE
  5
12F541
  8
OBJECT
 10
203.00000000003459
 20
-87.000000000865299
 30
0.0
 11
109.0000000000345
 21
-87.000000000865299
 31
0.0
1001
ACDBBLOCKREPETAG
1070
     1
1071
        4
1005
12F541
  0
LINE
  5
12F542
  8
OBJECT
 10
112.0000000000345
 20
-87.000000000865299
 30
0.0
 11
112.0000000000345
 21
-123.0000000008653
 31
0.0
1001
ACDBBLOCKREPETAG
1070
     1
1071
        5
1005
12F542
  0
LINE
  5
12F543
  8
OBJECT
 10
112.0000000000345
 20
-123.0000000008653
 30
0.0
 11
200.0000000000345
 21
-123.0000000008653
 31
0.0
1001
ACDBBLOCKREPETAG
1070
     1
1071
        6
1005
12F543
  0
LINE
  5
12F544
  8
OBJECT
 10
200.0000000000345
 20
-123.0000000008653
 30
0.0
 11
200.0000000000345
 21
-87.000000000865299
 31
0.0
1001
ACDBBLOCKREPETAG
1070
     1
1071
        7
1005
12F544
  0
LINE
  5
12F545
  8
OBJECT
 10
116.5000000000345
 20
-127.0000000008653
 30
0.0
 11
116.5000000000345
 21
-134.0000000008653
 31
0.0
1001
ACDBBLOCKREPETAG
1070
     1
1071
        8
1005
12F545
  0
LINE
  5
12F546
  8
OBJECT
 10
195.5000000000345
 20
-134.0000000008653
 30
0.0
 11
195.5000000000345
 21
-127.0000000008653
 31
0.0
1001
ACDBBLOCKREPETAG
1070
     1
1071
        9
1005
12F546
  0
LINE
  5
12F547
  8
OBJECT
 10
195.5000000000345
 20
-127.0000000008653
 30
0.0
 11
116.5000000000345
 21
-127.0000000008653
 31
0.0
1001
ACDBBLOCKREPETAG
1070
     1
1071
       10
1005
12F547
  0
LINE
  5
12F548
  8
OBJECT
 10
112.0000000000345
 20
-123.0000000008653
 30
0.0
 11
116.5000000000345
 21
-127.0000000008653
 31
0.0
1001
ACDBBLOCKREPETAG
1070
     1
1071
       11
1005
12F548
  0
LINE
  5
12F549
  8
OBJECT
 10
200.0000000000345
 20
-123.0000000008653
 30
0.0
 11
195.5000000000345
 21
-127.0000000008653
 31
0.0
1001
ACDBBLOCKREPETAG
1070
     1
1071
       12
1005
12F549
  0
LINE
  5
12F54A
  8
OBJECT
 10
94.000000000034575
 20
-137.00000000086439
 30
0.0
 11
94.000000000034575
 21
-140.0000000008653
 31
0.0
1001
ACDBBLOCKREPETAG
1070
     1
1071
       13
1005
12F54A
  0
ARC
  5
12F54B
  8
OBJECT
 10
97.000000000034561
 20
-137.00000000086439
 30
0.0
 40
3.0
 50
90.0
 51
180.0
1001
ACDBBLOCKREPETAG
1070
     1
1071
       14
1005
12F54B
  0
LINE
  5
12F54C
  8
OBJECT
 10
218.00000000003459
 20
-140.0000000008653
 30
0.0
 11
218.00000000003459
 21
-137.00000000086621
 31
0.0
1001
ACDBBLOCKREPETAG
1070
     1
1071
       15
1005
12F54C
  0
ARC
  5
12F54D
  8
OBJECT
 10
215.00000000003459
 20
-137.00000000086621
 30
0.0
 40
3.0
 50
0.0
 51
90.0
1001
ACDBBLOCKREPETAG
1070
     1
1071
       16
1005
12F54D
  0
LINE
  5
12F54E
  8
OBJECT
 10
215.00000000003459
 20
-134.00000000086621
 30
0.0
 11
97.000000000034561
 21
-134.00000000086439
 31
0.0
1001
ACDBBLOCKREPETAG
1070
     1
1071
       17
1005
12F54E
  0
LINE
  5
12F54F
  8
HIDDEN
 10
126.0000000000345
 20
-132.0000000008653
 30
0.0
 11
186.00000000003439
 21
-132.0000000008653
 31
0.0
1001
ACDBBLOCKREPETAG
1070
     1
1071
      420
1005
12F54F
  0
POLYLINE
  5
12F550
  8
HIDDEN
 66
     1
 10
0.0
 20
0.0
 30
0.0
 70
     1
1001
ACDBBLOCKREPETAG
1070
     1
1071
      105
1005
0
  0
VERTEX
  5
12F94C
  8
HIDDEN
 10
359.99999999987818
 20
-0.0000000000008527
 30
0.0
  0
VERTEX
  5
12F94D
  8
HIDDEN
 10
719.99999999975626
 20
-0.0000000000008527
 30
0.0
  0
VERTEX
  5
12F94E
  8
HIDDEN
 10
719.99999999975626
 20
-463.99999999984249
 30
0.0
  0
VERTEX
  5
12F94F
  8
HIDDEN
 10
359.99999999987818
 20
-463.99999999984249
 30
0.0
  0
SEQEND
  5
12F950
  8
HIDDEN
  0
POLYLINE
  5
12F551
  8
HIDDEN
 66
     1
 10
0.0
 20
0.0
 30
0.0
 70
     1
1001
ACDBBLOCKREPETAG
1070
     1
1071
      110
1005
0
  0
VERTEX
  5
12F951
  8
HIDDEN
 10
0.0
 20
-0.0000000000008527
 30
0.0
  0
VERTEX
  5
12F952
  8
HIDDEN
 10
359.99999999987818
 20
-0.0000000000008527
 30
0.0
  0
VERTEX
  5
12F953
  8
HIDDEN
 10
359.99999999987818
 20
-463.99999999984249
 30
0.0
  0
VERTEX
  5
12F954
  8
HIDDEN
 10
0.0
 20
-463.99999999984249
 30
0.0
  0
SEQEND
  5
12F955
  8
HIDDEN
  0
POLYLINE
  5
12F552
  8
HIDDEN
 66
     1
 10
0.0
 20
0.0
 30
0.0
 70
     1
1001
ACDBBLOCKREPETAG
1070
     1
1071
      120
1005
0
  0
VERTEX
  5
12F956
  8
HIDDEN
 10
359.99999999987818
 20
-463.99999999984249
 30
0.0
  0
VERTEX
  5
12F957
  8
HIDDEN
 10
719.99999999975626
 20
-463.99999999984249
 30
0.0
  0
VERTEX
  5
12F958
  8
HIDDEN
 10
719.99999999975626
 20
-927.99999999968441
 30
0.0
  0
VERTEX
  5
12F959
  8
HIDDEN
 10
359.99999999987818
 20
-927.99999999968441
 30
0.0
  0
SEQEND
  5
12F95A
  8
HIDDEN
  0
POLYLINE
  5
12F553
  8
HIDDEN
 66
     1
 10
0.0
 20
0.0
 30
0.0
 70
     1
1001
ACDBBLOCKREPETAG
1070
     1
1071
      125
1005
0
  0
VERTEX
  5
12F95B
  8
HIDDEN
 10
0.0
 20
-463.99999999984249
 30
0.0
  0
VERTEX
  5
12F95C
  8
HIDDEN
 10
359.99999999987818
 20
-463.99999999984249
 30
0.0
  0
VERTEX
  5
12F95D
  8
HIDDEN
 10
359.99999999987818
 20
-927.99999999968441
 30
0.0
  0
VERTEX
  5
12F95E
  8
HIDDEN
 10
0.0
 20
-927.99999999968441
 30
0.0
  0
SEQEND
  5
12F95F
  8
HIDDEN
  0
POLYLINE
  5
12F554
  8
HIDDEN
 66
     1
 10
0.0
 20
0.0
 30
0.0
 70
     1
1001
ACDBBLOCKREPETAG
1070
     1
1071
      130
1005
0
  0
VERTEX
  5
12F960
  8
HIDDEN
 10
359.99999999987818
 20
-927.99999999968441
 30
0.0
  0
VERTEX
  5
12F961
  8
HIDDEN
 10
719.99999999975626
 20
-927.99999999968441
 30
0.0
  0
VERTEX
  5
12F962
  8
HIDDEN
 10
719.99999999975626
 20
-1391.9999999995259
 30
0.0
  0
VERTEX
  5
12F963
  8
HIDDEN
 10
359.99999999987818
 20
-1391.9999999995259
 30
0.0
  0
SEQEND
  5
12F964
  8
HIDDEN
  0
POLYLINE
  5
12F555
  8
HIDDEN
 66
     1
 10
0.0
 20
0.0
 30
0.0
 70
     1
1001
ACDBBLOCKREPETAG
1070
     1
1071
      135
1005
0
  0
VERTEX
  5
12F965
  8
HIDDEN
 10
0.0
 20
-927.99999999968441
 30
0.0
  0
VERTEX
  5
12F966
  8
HIDDEN
 10
359.99999999987818
 20
-927.99999999968441
 30
0.0
  0
VERTEX
  5
12F967
  8
HIDDEN
 10
359.99999999987818
 20
-1391.9999999995259
 30
0.0
  0
VERTEX
  5
12F968
  8
HIDDEN
 10
0.0
 20
-1391.9999999995259
 30
0.0
  0
SEQEND
  5
12F969
  8
HIDDEN
  0
POLYLINE
  5
12F556
  8
HIDDEN
 66
     1
 10
0.0
 20
0.0
 30
0.0
 70
     1
1001
ACDBBLOCKREPETAG
1070
     1
1071
      140
1005
0
  0
VERTEX
  5
12F96A
  8
HIDDEN
 10
359.99999999987818
 20
-2783.9999999990532
 30
0.0
  0
VERTEX
  5
12F96B
  8
HIDDEN
 10
719.99999999975626
 20
-2783.9999999990532
 30
0.0
  0
VERTEX
  5
12F96C
  8
HIDDEN
 10
719.99999999975626
 20
-3247.9999999988931
 30
0.0
  0
VERTEX
  5
12F96D
  8
HIDDEN
 10
359.99999999987818
 20
-3247.9999999988931
 30
0.0
  0
SEQEND
  5
12F96E
  8
HIDDEN
  0
POLYLINE
  5
12F557
  8
HIDDEN
 66
     1
 10
0.0
 20
0.0
 30
0.0
 70
     1
1001
ACDBBLOCKREPETAG
1070
     1
1071
      145
1005
0
  0
VERTEX
  5
12F96F
  8
HIDDEN
 10
0.0
 20
-2783.9999999990532
 30
0.0
  0
VERTEX
  5
12F970
  8
HIDDEN
 10
359.99999999987818
 20
-2783.9999999990532
 30
0.0
  0
VERTEX
  5
12F971
  8
HIDDEN
 10
359.99999999987818
 20
-3247.9999999988931
 30
0.0
  0
VERTEX
  5
12F972
  8
HIDDEN
 10
0.0
 20
-3247.9999999988931
 30
0.0
  0
SEQEND
  5
12F973
  8
HIDDEN
  0
POLYLINE
  5
12F558
  8
HIDDEN
 66
     1
 10
0.0
 20
0.0
 30
0.0
 70
     1
1001
ACDBBLOCKREPETAG
1070
     1
1071
      150
1005
0
  0
VERTEX
  5
12F974
  8
HIDDEN
 10
359.99999999987818
 20
-3247.9999999988931
 30
0.0
  0
VERTEX
  5
12F975
  8
HIDDEN
 10
719.99999999975626
 20
-3247.9999999988931
 30
0.0
  0
VERTEX
  5
12F976
  8
HIDDEN
 10
719.99999999975626
 20
-3711.9999999987349
 30
0.0
  0
VERTEX
  5
12F977
  8
HIDDEN
 10
359.99999999987818
 20
-3711.9999999987349
 30
0.0
  0
SEQEND
  5
12F978
  8
HIDDEN
  0
POLYLINE
  5
12F559
  8
HIDDEN
 66
     1
 10
0.0
 20
0.0
 30
0.0
 70
     1
1001
ACDBBLOCKREPETAG
1070
     1
1071
      155
1005
0
  0
VERTEX
  5
12F979
  8
HIDDEN
 10
0.0
 20
-3247.9999999988931
 30
0.0
  0
VERTEX
  5
12F97A
  8
HIDDEN
 10
359.99999999987818
 20
-3247.9999999988931
 30
0.0
  0
VERTEX
  5
12F97B
  8
HIDDEN
 10
359.99999999987818
 20
-3711.9999999987349
 30
0.0
  0
VERTEX
  5
12F97C
  8
HIDDEN
 10
0.0
 20
-3711.9999999987349
 30
0.0
  0
SEQEND
  5
12F97D
  8
HIDDEN
  0
POLYLINE
  5
12F55A
  8
HIDDEN
 66
     1
 10
0.0
 20
0.0
 30
0.0
 70
     1
1001
ACDBBLOCKREPETAG
1070
     1
1071
      160
1005
0
  0
VERTEX
  5
12F97E
  8
HIDDEN
 10
359.99999999987818
 20
-1391.9999999995259
 30
0.0
  0
VERTEX
  5
12F97F
  8
HIDDEN
 10
719.99999999975626
 20
-1391.9999999995259
 30
0.0
  0
VERTEX
  5
12F980
  8
HIDDEN
 10
719.99999999975626
 20
-1855.9999999993679
 30
0.0
  0
VERTEX
  5
12F981
  8
HIDDEN
 10
359.99999999987818
 20
-1855.9999999993679
 30
0.0
  0
SEQEND
  5
12F982
  8
HIDDEN
  0
POLYLINE
  5
12F55B
  8
HIDDEN
 66
     1
 10
0.0
 20
0.0
 30
0.0
 70
     1
1001
ACDBBLOCKREPETAG
1070
     1
1071
      165
1005
0
  0
VERTEX
  5
12F983
  8
HIDDEN
 10
0.0
 20
-1391.9999999995259
 30
0.0
  0
VERTEX
  5
12F984
  8
HIDDEN
 10
359.99999999987818
 20
-1391.9999999995259
 30
0.0
  0
VERTEX
  5
12F985
  8
HIDDEN
 10
359.99999999987818
 20
-1855.9999999993679
 30
0.0
  0
VERTEX
  5
12F986
  8
HIDDEN
 10
0.0
 20
-1855.9999999993679
 30
0.0
  0
SEQEND
  5
12F987
  8
HIDDEN
  0
POLYLINE
  5
12F55C
  8
HIDDEN
 66
     1
 10
0.0
 20
0.0
 30
0.0
 70
     1
1001
ACDBBLOCKREPETAG
1070
     1
1071
      170
1005
0
  0
VERTEX
  5
12F988
  8
HIDDEN
 10
359.99999999987818
 20
-1855.9999999993679
 30
0.0
  0
VERTEX
  5
12F989
  8
HIDDEN
 10
719.99999999975626
 20
-1855.9999999993679
 30
0.0
  0
VERTEX
  5
12F98A
  8
HIDDEN
 10
719.99999999975626
 20
-2319.9999999992101
 30
0.0
  0
VERTEX
  5
12F98B
  8
HIDDEN
 10
359.99999999987818
 20
-2319.9999999992101
 30
0.0
  0
SEQEND
  5
12F98C
  8
HIDDEN
  0
POLYLINE
  5
12F55D
  8
HIDDEN
 66
     1
 10
0.0
 20
0.0
 30
0.0
 70
     1
1001
ACDBBLOCKREPETAG
1070
     1
1071
      175
1005
0
  0
VERTEX
  5
12F98D
  8
HIDDEN
 10
0.0
 20
-1855.9999999993679
 30
0.0
  0
VERTEX
  5
12F98E
  8
HIDDEN
 10
359.99999999987818
 20
-1855.9999999993679
 30
0.0
  0
VERTEX
  5
12F98F
  8
HIDDEN
 10
359.99999999987818
 20
-2319.9999999992101
 30
0.0
  0
VERTEX
  5
12F990
  8
HIDDEN
 10
0.0
 20
-2319.9999999992101
 30
0.0
  0
SEQEND
  5
12F991
  8
HIDDEN
  0
POLYLINE
  5
12F55E
  8
HIDDEN
 66
     1
 10
0.0
 20
0.0
 30
0.0
 70
     1
1001
ACDBBLOCKREPETAG
1070
     1
1071
      180
1005
0
  0
VERTEX
  5
12F992
  8
HIDDEN
 10
359.99999999987818
 20
-2319.9999999992101
 30
0.0
  0
VERTEX
  5
12F993
  8
HIDDEN
 10
719.99999999975626
 20
-2319.9999999992101
 30
0.0
  0
VERTEX
  5
12F994
  8
HIDDEN
 10
719.99999999975626
 20
-2783.9999999990532
 30
0.0
  0
VERTEX
  5
12F995
  8
HIDDEN
 10
359.99999999987818
 20
-2783.9999999990532
 30
0.0
  0
SEQEND
  5
12F996
  8
HIDDEN
  0
POLYLINE
  5
12F55F
  8
HIDDEN
 66
     1
 10
0.0
 20
0.0
 30
0.0
 70
     1
1001
ACDBBLOCKREPETAG
1070
     1
1071
      185
1005
0
  0
VERTEX
  5
12F997
  8
HIDDEN
 10
0.0
 20
-2319.9999999992101
 30
0.0
  0
VERTEX
  5
12F998
  8
HIDDEN
 10
359.99999999987818
 20
-2319.9999999992101
 30
0.0
  0
VERTEX
  5
12F999
  8
HIDDEN
 10
359.99999999987818
 20
-2783.9999999990532
 30
0.0
  0
VERTEX
  5
12F99A
  8
HIDDEN
 10
0.0
 20
-2783.9999999990532
 30
0.0
  0
SEQEND
  5
12F99B
  8
HIDDEN
  0
TEXT
  5
12F560
  8
SLIM
 10
491.99999999981759
 20
-3691.9999999987422
 30
0.0
 40
48.0
  1
C44
 41
0.75
1001
ACDBBLOCKREPETAG
1070
     1
1071
      119
1005
0
  0
TEXT
  5
12F561
  8
SLIM
 10
132.85714285708241
 20
-3691.9999999987422
 30
0.0
 40
48.0
  1
C43
 41
0.75
1001
ACDBBLOCKREPETAG
1070
     1
1071
      119
1005
0
  0
TEXT
  5
12F562
  8
SLIM
 10
492.85714285696048
 20
-3227.9999999989
 30
0.0
 40
48.0
  1
C42
 41
0.75
1001
ACDBBLOCKREPETAG
1070
     1
1071
      119
1005
0
  0
TEXT
  5
12F563
  8
SLIM
 10
140.5714285713681
 20
-3227.9999999989018
 30
0.0
 40
48.0
  1
C41
 41
0.75
1001
ACDBBLOCKREPETAG
1070
     1
1071
      119
1005
0
  0
TEXT
  5
12F564
  8
SLIM
 10
491.99999999981759
 20
-2763.9999999990591
 30
0.0
 40
48.0
  1
C34
 41
0.75
1001
ACDBBLOCKREPETAG
1070
     1
1071
      119
1005
0
  0
TEXT
  5
12F565
  8
SLIM
 10
132.85714285708241
 20
-2763.9999999990591
 30
0.0
 40
48.0
  1
C33
 41
0.75
1001
ACDBBLOCKREPETAG
1070
     1
1071
      119
1005
0
  0
TEXT
  5
12F566
  8
SLIM
 10
492.85714285696048
 20
-2299.9999999992169
 30
0.0
 40
48.0
  1
C32
 41
0.75
1001
ACDBBLOCKREPETAG
1070
     1
1071
      119
1005
0
  0
TEXT
  5
12F567
  8
SLIM
 10
140.5714285713681
 20
-2299.9999999992169
 30
0.0
 40
48.0
  1
C31
 41
0.75
1001
ACDBBLOCKREPETAG
1070
     1
1071
      119
1005
0
  0
TEXT
  5
12F568
  8
SLIM
 10
491.99999999981759
 20
-1835.9999999993749
 30
0.0
 40
48.0
  1
C24
 41
0.75
1001
ACDBBLOCKREPETAG
1070
     1
1071
      119
1005
0
  0
TEXT
  5
12F569
  8
SLIM
 10
132.85714285708241
 20
-1835.9999999993749
 30
0.0
 40
48.0
  1
C23
 41
0.75
1001
ACDBBLOCKREPETAG
1070
     1
1071
      119
1005
0
  0
TEXT
  5
12F56A
  8
SLIM
 10
492.85714285696048
 20
-1371.999999999533
 30
0.0
 40
48.0
  1
C22
 41
0.75
1001
ACDBBLOCKREPETAG
1070
     1
1071
      119
1005
0
  0
TEXT
  5
12F56B
  8
SLIM
 10
140.57142857136759
 20
-1371.999999999533
 30
0.0
 40
48.0
  1
C21
 41
0.75
1001
ACDBBLOCKREPETAG
1070
     1
1071
      119
1005
0
  0
TEXT
  5
12F56C
  8
SLIM
 10
495.42857142838898
 20
-907.99999999969145
 30
0.0
 40
48.0
  1
C14
 41
0.75
1001
ACDBBLOCKREPETAG
1070
     1
1071
      119
1005
0
  0
TEXT
  5
12F56D
  8
SLIM
 10
136.2857142856538
 20
-907.99999999969145
 30
0.0
 40
48.0
  1
C13
 41
0.75
1001
ACDBBLOCKREPETAG
1070
     1
1071
      119
1005
0
  0
TEXT
  5
12F56E
  8
SLIM
 10
496.28571428553192
 20
-443.99999999984971
 30
0.0
 40
48.0
  1
C12
 41
0.75
1001
ACDBBLOCKREPETAG
1070
     1
1071
      119
1005
0
  0
TEXT
  5
12F56F
  8
SLIM
 10
143.9999999999394
 20
-443.99999999984971
 30
0.0
 40
48.0
  1
C11
 41
0.75
1001
ACDBBLOCKREPETAG
1070
     1
1071
      119
1005
0
  0
LINE
  5
12F570
  8
CENTER
 10
1899.0
 20
-199.99999999999909
 30
0.0
 11
1920.0
 21
-199.99999999999909
 31
0.0
1001
ACDBBLOCKREPETAG
1070
     1
1071
        0
1005
12F570
  0
LINE
  5
12F571
  8
OBJECT
 10
1917.0
 20
-261.99999999999909
 30
0.0
 11
1920.0
 21
-261.99999999999909
 31
0.0
1001
ACDBBLOCKREPETAG
1070
     1
1071
        1
1005
12F571
  0
ARC
  5
12F572
  8
OBJECT
 10
1917.0
 20
-258.99999999999909
 30
0.0
 40
3.0
 50
180.0
 51
270.0
1001
ACDBBLOCKREPETAG
1070
     1
1071
        2
1005
12F572
  0
LINE
  5
12F573
  8
OBJECT
 10
1920.0
 20
-137.99999999999909
 30
0.0
 11
1917.0
 21
-137.99999999999909
 31
0.0
1001
ACDBBLOCKREPETAG
1070
     1
1071
        3
1005
12F573
  0
ARC
  5
12F574
  8
OBJECT
 10
1917.0
 20
-140.99999999999909
 30
0.0
 40
3.0
 50
90.0
 51
180.0
1001
ACDBBLOCKREPETAG
1070
     1
1071
        4
1005
12F574
  0
LINE
  5
12F575
  8
OBJECT
 10
1914.0
 20
-140.99999999999909
 30
0.0
 11
1914.0
 21
-258.99999999999909
 31
0.0
1001
ACDBBLOCKREPETAG
1070
     1
1071
        5
1005
12F575
  0
LINE
  5
12F576
  8
OBJECT
 10
2062.0
 20
-332.99999999999898
 30
0.0
 11
2062.0
 21
-339.99999999999909
 31
0.0
1001
ACDBBLOCKREPETAG
1070
     1
1071
       47
1005
12F576
  0
LINE
  5
12F577
  8
OBJECT
 10
2062.0
 20
-339.99999999999909
 30
0.0
 11
1938.0
 21
-339.99999999999909
 31
0.0
1001
ACDBBLOCKREPETAG
1070
     1
1071
       48
1005
12F577
  0
LINE
  5
12F578
  8
OBJECT
 10
1938.0
 20
-339.99999999999909
 30
0.0
 11
1938.0
 21
-332.99999999999898
 31
0.0
1001
ACDBBLOCKREPETAG
1070
     1
1071
       49
1005
12F578
  0
LINE
  5
12F579
  8
OBJECT
 10
1938.0
 20
-332.99999999999898
 30
0.0
 11
2062.0
 21
-332.99999999999898
 31
0.0
1001
ACDBBLOCKREPETAG
1070
     1
1071
       50
1005
12F579
  0
LINE
  5
12F57A
  8
CENTER
 10
2000.0
 20
-354.99999999999909
 30
0.0
 11
2000.0
 21
-279.99999999999909
 31
0.0
1001
ACDBBLOCKREPETAG
1070
     1
1071
       51
1005
12F57A
  0
LINE
  5
12F57B
  8
OBJECT
 10
2059.0
 20
-332.99999999999898
 30
0.0
 11
2059.0
 21
-296.99999999999898
 31
0.0
1001
ACDBBLOCKREPETAG
1070
     1
1071
       52
1005
12F57B
  0
LINE
  5
12F57C
  8
OBJECT
 10
2059.0
 20
-296.99999999999898
 30
0.0
 11
1941.0
 21
-296.99999999999898
 31
0.0
1001
ACDBBLOCKREPETAG
1070
     1
1071
       53
1005
12F57C
  0
LINE
  5
12F57D
  8
OBJECT
 10
1941.0
 20
-296.99999999999898
 30
0.0
 11
1941.0
 21
-332.99999999999898
 31
0.0
1001
ACDBBLOCKREPETAG
1070
     1
1071
       54
1005
12F57D
  0
LINE
  5
12F57E
  8
OBJECT
 10
2054.5
 20
-292.99999999999898
 30
0.0
 11
2054.5
 21
-285.99999999999898
 31
0.0
1001
ACDBBLOCKREPETAG
1070
     1
1071
       55
1005
12F57E
  0
LINE
  5
12F57F
  8
OBJECT
 10
1945.5
 20
-285.99999999999898
 30
0.0
 11
1945.5
 21
-292.99999999999898
 31
0.0
1001
ACDBBLOCKREPETAG
1070
     1
1071
       56
1005
12F57F
  0
LINE
  5
12F580
  8
OBJECT
 10
1945.5
 20
-292.99999999999898
 30
0.0
 11
2054.5
 21
-292.99999999999898
 31
0.0
1001
ACDBBLOCKREPETAG
1070
     1
1071
       57
1005
12F580
  0
LINE
  5
12F581
  8
OBJECT
 10
2059.0
 20
-296.99999999999898
 30
0.0
 11
2054.5
 21
-292.99999999999898
 31
0.0
1001
ACDBBLOCKREPETAG
1070
     1
1071
       58
1005
12F581
  0
LINE
  5
12F582
  8
OBJECT
 10
1941.0
 20
-296.99999999999898
 30
0.0
 11
1945.5
 21
-292.99999999999898
 31
0.0
1001
ACDBBLOCKREPETAG
1070
     1
1071
       59
1005
12F582
  0
LINE
  5
12F583
  8
OBJECT
 10
2062.0
 20
-283.0
 30
0.0
 11
2062.0
 21
-279.99999999999909
 31
0.0
1001
ACDBBLOCKREPETAG
1070
     1
1071
       60
1005
12F583
  0
ARC
  5
12F584
  8
OBJECT
 10
2059.0
 20
-283.0
 30
0.0
 40
3.0
 50
270.0
 51
0.0
1001
ACDBBLOCKREPETAG
1070
     1
1071
       61
1005
12F584
  0
LINE
  5
12F585
  8
OBJECT
 10
1938.0
 20
-279.99999999999909
 30
0.0
 11
1938.0
 21
-282.99999999999818
 31
0.0
1001
ACDBBLOCKREPETAG
1070
     1
1071
       62
1005
12F585
  0
ARC
  5
12F586
  8
OBJECT
 10
1941.0
 20
-282.99999999999818
 30
0.0
 40
3.0
 50
180.0
 51
270.0
1001
ACDBBLOCKREPETAG
1070
     1
1071
       63
1005
12F586
  0
LINE
  5
12F587
  8
OBJECT
 10
1941.0
 20
-285.99999999999818
 30
0.0
 11
2059.0
 21
-286.0
 31
0.0
1001
ACDBBLOCKREPETAG
1070
     1
1071
       64
1005
12F587
  0
LINE
  5
12F588
  8
HIDDEN
 10
2044.5
 20
-287.99999999999909
 30
0.0
 11
1955.5
 21
-287.99999999999909
 31
0.0
1001
ACDBBLOCKREPETAG
1070
     1
1071
       65
1005
12F588
  0
LINE
  5
12F589
  8
OBJECT
 10
2133.0
 20
-137.99999999999909
 30
0.0
 11
2140.0
 21
-137.99999999999909
 31
0.0
1001
ACDBBLOCKREPETAG
1070
     1
1071
       47
1005
12F589
  0
LINE
  5
12F58A
  8
OBJECT
 10
2140.0
 20
-137.99999999999909
 30
0.0
 11
2140.0
 21
-261.99999999999909
 31
0.0
1001
ACDBBLOCKREPETAG
1070
     1
1071
       48
1005
12F58A
  0
LINE
  5
12F58B
  8
OBJECT
 10
2140.0
 20
-261.99999999999909
 30
0.0
 11
2133.0
 21
-261.99999999999909
 31
0.0
1001
ACDBBLOCKREPETAG
1070
     1
1071
       49
1005
12F58B
  0
LINE
  5
12F58C
  8
OBJECT
 10
2133.0
 20
-261.99999999999909
 30
0.0
 11
2133.0
 21
-137.99999999999909
 31
0.0
1001
ACDBBLOCKREPETAG
1070
     1
1071
       50
1005
12F58C
  0
LINE
  5
12F58D
  8
CENTER
 10
2155.0
 20
-199.99999999999909
 30
0.0
 11
2080.0
 21
-199.99999999999909
 31
0.0
1001
ACDBBLOCKREPETAG
1070
     1
1071
       51
1005
12F58D
  0
LINE
  5
12F58E
  8
OBJECT
 10
2133.0
 20
-140.99999999999909
 30
0.0
 11
2097.0
 21
-140.99999999999909
 31
0.0
1001
ACDBBLOCKREPETAG
1070
     1
1071
       52
1005
12F58E
  0
LINE
  5
12F58F
  8
OBJECT
 10
2097.0
 20
-140.99999999999909
 30
0.0
 11
2097.0
 21
-258.99999999999909
 31
0.0
1001
ACDBBLOCKREPETAG
1070
     1
1071
       53
1005
12F58F
  0
LINE
  5
12F590
  8
OBJECT
 10
2097.0
 20
-258.99999999999909
 30
0.0
 11
2133.0
 21
-258.99999999999909
 31
0.0
1001
ACDBBLOCKREPETAG
1070
     1
1071
       54
1005
12F590
  0
LINE
  5
12F591
  8
OBJECT
 10
2093.0
 20
-145.49999999999909
 30
0.0
 11
2086.0
 21
-145.49999999999909
 31
0.0
1001
ACDBBLOCKREPETAG
1070
     1
1071
       55
1005
12F591
  0
LINE
  5
12F592
  8
OBJECT
 10
2086.0
 20
-254.49999999999909
 30
0.0
 11
2093.0
 21
-254.49999999999909
 31
0.0
1001
ACDBBLOCKREPETAG
1070
     1
1071
       56
1005
12F592
  0
LINE
  5
12F593
  8
OBJECT
 10
2093.0
 20
-254.49999999999909
 30
0.0
 11
2093.0
 21
-145.49999999999909
 31
0.0
1001
ACDBBLOCKREPETAG
1070
     1
1071
       57
1005
12F593
  0
LINE
  5
12F594
  8
OBJECT
 10
2097.0
 20
-140.99999999999909
 30
0.0
 11
2093.0
 21
-145.49999999999909
 31
0.0
1001
ACDBBLOCKREPETAG
1070
     1
1071
       58
1005
12F594
  0
LINE
  5
12F595
  8
OBJECT
 10
2097.0
 20
-258.99999999999909
 30
0.0
 11
2093.0
 21
-254.49999999999909
 31
0.0
1001
ACDBBLOCKREPETAG
1070
     1
1071
       59
1005
12F595
  0
LINE
  5
12F596
  8
OBJECT
 10
2083.0
 20
-137.99999999999909
 30
0.0
 11
2080.0
 21
-137.99999999999909
 31
0.0
1001
ACDBBLOCKREPETAG
1070
     1
1071
       60
1005
12F596
  0
ARC
  5
12F597
  8
OBJECT
 10
2083.0
 20
-140.99999999999909
 30
0.0
 40
3.0
 50
0.0
 51
90.0
1001
ACDBBLOCKREPETAG
1070
     1
1071
       61
1005
12F597
  0
LINE
  5
12F598
  8
OBJECT
 10
2080.0
 20
-261.99999999999909
 30
0.0
 11
2083.0
 21
-261.99999999999909
 31
0.0
1001
ACDBBLOCKREPETAG
1070
     1
1071
       62
1005
12F598
  0
ARC
  5
12F599
  8
OBJECT
 10
2083.0
 20
-258.99999999999909
 30
0.0
 40
3.0
 50
270.0
 51
0.0
1001
ACDBBLOCKREPETAG
1070
     1
1071
       63
1005
12F599
  0
LINE
  5
12F59A
  8
OBJECT
 10
2086.0
 20
-258.99999999999909
 30
0.0
 11
2086.0
 21
-140.99999999999909
 31
0.0
1001
ACDBBLOCKREPETAG
1070
     1
1071
       64
1005
12F59A
  0
LINE
  5
12F59B
  8
HIDDEN
 10
2088.0
 20
-155.49999999999909
 30
0.0
 11
2088.0
 21
-244.49999999999909
 31
0.0
1001
ACDBBLOCKREPETAG
1070
     1
1071
       65
1005
12F59B
  0
LINE
  5
12F59C
  8
OBJECT
 10
1917.0
 20
-634.0
 30
0.0
 11
1920.0
 21
-634.0
 31
0.0
1001
ACDBBLOCKREPETAG
1070
     1
1071
        1
1005
12F59C
  0
ARC
  5
12F59D
  8
OBJECT
 10
1917.0
 20
-637.0
 30
0.0
 40
3.0
 50
90.0
 51
180.0
1001
ACDBBLOCKREPETAG
1070
     1
1071
        2
1005
12F59D
  0
LINE
  5
12F59E
  8
OBJECT
 10
1920.0
 20
-758.0
 30
0.0
 11
1917.0
 21
-758.0
 31
0.0
1001
ACDBBLOCKREPETAG
1070
     1
1071
        3
1005
12F59E
  0
ARC
  5
12F59F
  8
OBJECT
 10
1917.0
 20
-755.0
 30
0.0
 40
3.0
 50
180.0
 51
270.0
1001
ACDBBLOCKREPETAG
1070
     1
1071
        4
1005
12F59F
  0
LINE
  5
12F5A0
  8
OBJECT
 10
1914.0
 20
-755.0
 30
0.0
 11
1914.0
 21
-637.0
 31
0.0
1001
ACDBBLOCKREPETAG
1070
     1
1071
        5
1005
12F5A0
  0
LINE
  5
12F5A1
  8
CENTER
 10
2077.0
 20
-696.0
 30
0.0
 11
1923.0
 21
-696.0
 31
0.0
1001
ACDBBLOCKREPETAG
1070
     1
1071
       17
1005
12F5A1
  0
CIRCLE
  5
12F5A2
  8
OBJECT
 10
2000.0
 20
-696.0
 30
0.0
 40
41.5
1001
ACDBBLOCKREPETAG
1070
     1
1071
       19
1005
12F5A2
  0
CIRCLE
  5
12F5A3
  8
OBJECT
 10
2000.0
 20
-696.0
 30
0.0
 40
54.0
1001
ACDBBLOCKREPETAG
1070
     1
1071
       20
1005
12F5A3
  0
ARC
  5
12F5A4
  8
OBJECT
 10
2000.0
 20
-696.0
 30
0.0
 40
62.0
 50
287.89655112920718
 51
252.10344887079279
1001
ACDBBLOCKREPETAG
1070
     1
1071
       21
1005
12F5A4
  0
LINE
  5
12F5A5
  8
OBJECT
 10
1980.947441116743
 20
-755.0
 30
0.0
 11
2019.052558883257
 21
-755.0
 31
0.0
1001
ACDBBLOCKREPETAG
1070
     1
1071
       22
1005
12F5A5
  0
LINE
  5
12F5A6
  8
OBJECT
 10
2133.0
 20
-634.0
 30
0.0
 11
2140.0
 21
-634.0
 31
0.0
1001
ACDBBLOCKREPETAG
1070
     1
1071
       45
1005
12F5A6
  0
LINE
  5
12F5A7
  8
OBJECT
 10
2140.0
 20
-634.0
 30
0.0
 11
2140.0
 21
-755.0
 31
0.0
1001
ACDBBLOCKREPETAG
1070
     1
1071
       46
1005
12F5A7
  0
LINE
  5
12F5A8
  8
OBJECT
 10
2133.0
 20
-755.0
 30
0.0
 11
2133.0
 21
-634.0
 31
0.0
1001
ACDBBLOCKREPETAG
1070
     1
1071
       47
1005
12F5A8
  0
LINE
  5
12F5A9
  8
CENTER
 10
2155.0
 20
-696.0
 30
0.0
 11
2071.0
 21
-696.0
 31
0.0
1001
ACDBBLOCKREPETAG
1070
     1
1071
       48
1005
12F5A9
  0
LINE
  5
12F5AA
  8
OBJECT
 10
2133.0
 20
-637.0
 30
0.0
 11
2097.0
 21
-637.0
 31
0.0
1001
ACDBBLOCKREPETAG
1070
     1
1071
       49
1005
12F5AA
  0
LINE
  5
12F5AB
  8
OBJECT
 10
2097.0
 20
-637.0
 30
0.0
 11
2097.0
 21
-755.0
 31
0.0
1001
ACDBBLOCKREPETAG
1070
     1
1071
       50
1005
12F5AB
  0
LINE
  5
12F5AC
  8
OBJECT
 10
2097.0
 20
-755.0
 30
0.0
 11
2140.0
 21
-755.0
 31
0.0
1001
ACDBBLOCKREPETAG
1070
     1
1071
       51
1005
12F5AC
  0
LINE
  5
12F5AD
  8
OBJECT
 10
2093.0
 20
-641.5
 30
0.0
 11
2086.0
 21
-641.5
 31
0.0
1001
ACDBBLOCKREPETAG
1070
     1
1071
       52
1005
12F5AD
  0
LINE
  5
12F5AE
  8
OBJECT
 10
2086.0
 20
-750.49999999999989
 30
0.0
 11
2093.0
 21
-750.49999999999989
 31
0.0
1001
ACDBBLOCKREPETAG
1070
     1
1071
       53
1005
12F5AE
  0
LINE
  5
12F5AF
  8
OBJECT
 10
2093.0
 20
-750.49999999999989
 30
0.0
 11
2093.0
 21
-641.5
 31
0.0
1001
ACDBBLOCKREPETAG
1070
     1
1071
       54
1005
12F5AF
  0
LINE
  5
12F5B0
  8
OBJECT
 10
2097.0
 20
-637.0
 30
0.0
 11
2093.0
 21
-641.5
 31
0.0
1001
ACDBBLOCKREPETAG
1070
     1
1071
       55
1005
12F5B0
  0
LINE
  5
12F5B1
  8
OBJECT
 10
2097.0
 20
-755.0
 30
0.0
 11
2093.0
 21
-750.49999999999989
 31
0.0
1001
ACDBBLOCKREPETAG
1070
     1
1071
       56
1005
12F5B1
  0
LINE
  5
12F5B2
  8
OBJECT
 10
2083.0
 20
-634.0
 30
0.0
 11
2080.0
 21
-634.0
 31
0.0
1001
ACDBBLOCKREPETAG
1070
     1
1071
       57
1005
12F5B2
  0
ARC
  5
12F5B3
  8
OBJECT
 10
2083.0
 20
-637.0
 30
0.0
 40
3.0
 50
0.0
 51
90.0
1001
ACDBBLOCKREPETAG
1070
     1
1071
       58
1005
12F5B3
  0
LINE
  5
12F5B4
  8
OBJECT
 10
2080.0
 20
-758.0
 30
0.0
 11
2083.0
 21
-758.0
 31
0.0
1001
ACDBBLOCKREPETAG
1070
     1
1071
       59
1005
12F5B4
  0
ARC
  5
12F5B5
  8
OBJECT
 10
2083.0
 20
-755.0
 30
0.0
 40
3.0
 50
270.0
 51
0.0
1001
ACDBBLOCKREPETAG
1070
     1
1071
       60
1005
12F5B5
  0
LINE
  5
12F5B6
  8
OBJECT
 10
2086.0
 20
-755.0
 30
0.0
 11
2086.0
 21
-637.0
 31
0.0
1001
ACDBBLOCKREPETAG
1070
     1
1071
       61
1005
12F5B6
  0
LINE
  5
12F5B7
  8
HIDDEN
 10
2088.0
 20
-651.5
 30
0.0
 11
2088.0
 21
-740.5
 31
0.0
1001
ACDBBLOCKREPETAG
1070
     1
1071
       63
1005
12F5B7
  0
TEXT
  5
12F5B8
  8
SLIM
 10
0.0000035665234464
 20
24.000004585317601
 30
0.0
 40
79.999999999972701
  1
枝管バリエーション
 41
0.75
1001
ACDBBLOCKREPETAG
1070
     1
1071
      119
1005
12CC4A
  0
TEXT
  5
12F5B9
  8
SLIM
 10
1837.75
 20
282.50000000000011
 30
0.0
 40
35.0
  1
（枝管サイズ毎に寸法が異なります。管底の位置は50～100で同じです）
 41
0.75
  0
TEXT
  5
12F5BA
  8
SLIM
 10
1850.0
 20
369.99999999999989
 30
0.0
 40
100.0
  1
4SR2-C33-0
 41
0.75
  0
TEXT
  5
12F5BB
  8
SLIM
 10
0.0
 20
369.99999999999989
 30
0.0
 40
100.0
  1
4SR2-CXX-0-S
 41
0.75
  0
LINE
  5
12F5BC
  8
OBJECT
 10
4923.0
 20
-3515.9999999999968
 30
0.0
 11
4923.0
 21
-3494.9999999999968
 31
0.0
1001
ACDBBLOCKREPETAG
1070
     1
1071
        0
1005
12F5BC
  0
LINE
  5
12F5BD
  8
OBJECT
 10
4923.0
 20
-3494.9999999999968
 30
0.0
 11
5077.0
 21
-3494.9999999999968
 31
0.0
1001
ACDBBLOCKREPETAG
1070
     1
1071
        1
1005
12F5BD
  0
LINE
  5
12F5BE
  8
HIDDEN
 10
4943.0
 20
-3564.9999999999968
 30
0.0
 11
5057.0
 21
-3564.9999999999968
 31
0.0
1001
ACDBBLOCKREPETAG
1070
     1
1071
        2
1005
12F5BE
  0
LINE
  5
12F5BF
  8
OBJECT
 10
5077.0
 20
-3494.9999999999968
 30
0.0
 11
5077.0
 21
-3515.9999999999968
 31
0.0
1001
ACDBBLOCKREPETAG
1070
     1
1071
        3
1005
12F5BF
  0
LINE
  5
12F5C0
  8
OBJECT
 10
5077.0
 20
-3515.9999999999968
 30
0.0
 11
4923.0
 21
-3515.9999999999968
 31
0.0
1001
ACDBBLOCKREPETAG
1070
     1
1071
        4
1005
12F5C0
  0
LINE
  5
12F5C1
  8
CENTER
 10
5000.0
 20
-3479.9999999999968
 30
0.0
 11
5000.0
 21
-3714.9999999999968
 31
0.0
1001
ACDBBLOCKREPETAG
1070
     1
1071
        5
1005
12F5C1
  0
LINE
  5
12F5C2
  8
OBJECT
 10
4925.0
 20
-3578.9999999999968
 30
0.0
 11
4925.0
 21
-3702.9999999999968
 31
0.0
1001
ACDBBLOCKREPETAG
1070
     1
1071
        6
1005
12F5C2
  0
LINE
  5
12F5C3
  8
OBJECT
 10
4928.0
 20
-3515.9999999999968
 30
0.0
 11
4928.0
 21
-3578.9999999999968
 31
0.0
1001
ACDBBLOCKREPETAG
1070
     1
1071
        7
1005
12F5C3
  0
LINE
  5
12F5C4
  8
OBJECT
 10
5072.0
 20
-3578.9999999999968
 30
0.0
 11
5072.0
 21
-3515.9999999999968
 31
0.0
1001
ACDBBLOCKREPETAG
1070
     1
1071
        8
1005
12F5C4
  0
LINE
  5
12F5C5
  8
OBJECT
 10
5074.9999999997999
 20
-3702.9999999997758
 30
0.0
 11
5080.0
 21
-3702.9999999999968
 31
0.0
1001
ACDBBLOCKREPETAG
1070
     1
1071
        9
1005
12F5C5
  0
LINE
  5
12F5C6
  8
OBJECT
 10
5080.0
 20
-3578.9999999999968
 30
0.0
 11
4925.0
 21
-3578.9999999999968
 31
0.0
1001
ACDBBLOCKREPETAG
1070
     1
1071
       10
1005
12F5C6
  0
ARC
  5
12F5C7
  8
OBJECT
 10
5200.6872746716726
 20
-3694.408099410105
 30
0.0
 40
170.6350503965856
 50
137.44134459184301
 51
149.9194958133665
1001
ACDBBLOCKREPETAG
1070
     1
1071
       15
1005
12F5C7
  0
ARC
  5
12F5C8
  8
OBJECT
 10
5118.8455987040506
 20
-3650.8827266953622
 30
0.0
 40
78.072222021763665
 50
147.4551531037684
 51
164.66365997719291
1001
ACDBBLOCKREPETAG
1070
     1
1071
       16
1005
12F5C8
  0
ARC
  5
12F5C9
  8
OBJECT
 10
5085.7554349608727
 20
-3640.9999999999968
 30
0.0
 40
43.55353926885617
 50
165.6884523008477
 51
194.3115476991523
1001
ACDBBLOCKREPETAG
1070
     1
1071
       17
1005
12F5C9
  0
ARC
  5
12F5CA
  8
OBJECT
 10
5200.6872746716726
 20
-3587.5919005898891
 30
0.0
 40
170.6350503965856
 50
210.0805041866335
 51
222.55865540815699
1001
ACDBBLOCKREPETAG
1070
     1
1071
       18
1005
12F5CA
  0
ARC
  5
12F5CB
  8
OBJECT
 10
5118.8455987040506
 20
-3631.1172733046319
 30
0.0
 40
78.072222021763665
 50
195.33634002280701
 51
212.5448468962316
1001
ACDBBLOCKREPETAG
1070
     1
1071
       19
1005
12F5CB
  0
POINT
  5
12F5CC
  8
DOTS
 10
5000.0
 20
-3699.9999999999968
 30
0.0
1001
ACDBBLOCKREPETAG
1070
     1
1071
      186
1005
12F5CC
  0
LINE
  5
12F5CD
  8
OBJECT
 10
4323.0
 20
-3515.9999999999968
 30
0.0
 11
4323.0
 21
-3494.9999999999968
 31
0.0
1001
ACDBBLOCKREPETAG
1070
     1
1071
       20
1005
12F5CD
  0
LINE
  5
12F5CE
  8
OBJECT
 10
4323.0
 20
-3494.9999999999968
 30
0.0
 11
4477.0
 21
-3494.9999999999968
 31
0.0
1001
ACDBBLOCKREPETAG
1070
     1
1071
       21
1005
12F5CE
  0
LINE
  5
12F5CF
  8
HIDDEN
 10
4343.0
 20
-3564.9999999999968
 30
0.0
 11
4457.0
 21
-3564.9999999999968
 31
0.0
1001
ACDBBLOCKREPETAG
1070
     1
1071
       22
1005
12F5CF
  0
LINE
  5
12F5D0
  8
OBJECT
 10
4477.0
 20
-3494.9999999999968
 30
0.0
 11
4477.0
 21
-3515.9999999999968
 31
0.0
1001
ACDBBLOCKREPETAG
1070
     1
1071
       23
1005
12F5D0
  0
LINE
  5
12F5D1
  8
OBJECT
 10
4477.0
 20
-3515.9999999999968
 30
0.0
 11
4323.0
 21
-3515.9999999999968
 31
0.0
1001
ACDBBLOCKREPETAG
1070
     1
1071
       24
1005
12F5D1
  0
LINE
  5
12F5D2
  8
CENTER
 10
4400.0
 20
-3479.9999999999968
 30
0.0
 11
4400.0
 21
-3714.9999999999968
 31
0.0
1001
ACDBBLOCKREPETAG
1070
     1
1071
       25
1005
12F5D2
  0
LINE
  5
12F5D3
  8
OBJECT
 10
4325.0
 20
-3578.9999999999968
 30
0.0
 11
4325.0
 21
-3702.9999999999968
 31
0.0
1001
ACDBBLOCKREPETAG
1070
     1
1071
       26
1005
12F5D3
  0
LINE
  5
12F5D4
  8
OBJECT
 10
4328.0
 20
-3515.9999999999968
 30
0.0
 11
4328.0
 21
-3578.9999999999968
 31
0.0
1001
ACDBBLOCKREPETAG
1070
     1
1071
       27
1005
12F5D4
  0
LINE
  5
12F5D5
  8
OBJECT
 10
4472.0
 20
-3578.9999999999968
 30
0.0
 11
4472.0
 21
-3515.9999999999968
 31
0.0
1001
ACDBBLOCKREPETAG
1070
     1
1071
       28
1005
12F5D5
  0
LINE
  5
12F5D6
  8
OBJECT
 10
4475.0
 20
-3578.9999999999968
 30
0.0
 11
4325.0
 21
-3578.9999999999968
 31
0.0
1001
ACDBBLOCKREPETAG
1070
     1
1071
       30
1005
12F5D6
  0
LINE
  5
12F5D7
  8
OBJECT
 10
4475.0
 20
-3578.9999999999968
 30
0.0
 11
4475.0
 21
-3702.9999999999968
 31
0.0
1001
ACDBBLOCKREPETAG
1070
     1
1071
       34
1005
12F5D7
  0
POINT
  5
12F5D8
  8
DOTS
 10
4400.0
 20
-3699.9999999999968
 30
0.0
1001
ACDBBLOCKREPETAG
1070
     1
1071
      187
1005
12F5D8
  0
LINE
  5
12F5D9
  8
OBJECT
 10
3923.0
 20
-3515.9999999999968
 30
0.0
 11
3923.0
 21
-3494.9999999999968
 31
0.0
1001
ACDBBLOCKREPETAG
1070
     1
1071
        0
1005
12F5D9
  0
LINE
  5
12F5DA
  8
OBJECT
 10
3923.0
 20
-3494.9999999999968
 30
0.0
 11
4077.0
 21
-3494.9999999999968
 31
0.0
1001
ACDBBLOCKREPETAG
1070
     1
1071
        1
1005
12F5DA
  0
LINE
  5
12F5DB
  8
HIDDEN
 10
3943.0
 20
-3564.9999999999968
 30
0.0
 11
4057.0
 21
-3564.9999999999968
 31
0.0
1001
ACDBBLOCKREPETAG
1070
     1
1071
        2
1005
12F5DB
  0
LINE
  5
12F5DC
  8
OBJECT
 10
4077.0
 20
-3494.9999999999968
 30
0.0
 11
4077.0
 21
-3515.9999999999968
 31
0.0
1001
ACDBBLOCKREPETAG
1070
     1
1071
        3
1005
12F5DC
  0
LINE
  5
12F5DD
  8
OBJECT
 10
4077.0
 20
-3515.9999999999968
 30
0.0
 11
3923.0
 21
-3515.9999999999968
 31
0.0
1001
ACDBBLOCKREPETAG
1070
     1
1071
        4
1005
12F5DD
  0
LINE
  5
12F5DE
  8
CENTER
 10
4000.0
 20
-3479.9999999999968
 30
0.0
 11
4000.0
 21
-3714.9999999999968
 31
0.0
1001
ACDBBLOCKREPETAG
1070
     1
1071
        5
1005
12F5DE
  0
LINE
  5
12F5DF
  8
OBJECT
 10
3925.0
 20
-3578.9999999999968
 30
0.0
 11
3925.0
 21
-3702.9999999999968
 31
0.0
1001
ACDBBLOCKREPETAG
1070
     1
1071
        6
1005
12F5DF
  0
LINE
  5
12F5E0
  8
OBJECT
 10
3928.0
 20
-3515.9999999999968
 30
0.0
 11
3928.0
 21
-3578.9999999999968
 31
0.0
1001
ACDBBLOCKREPETAG
1070
     1
1071
        7
1005
12F5E0
  0
LINE
  5
12F5E1
  8
OBJECT
 10
4072.0
 20
-3578.9999999999968
 30
0.0
 11
4072.0
 21
-3515.9999999999968
 31
0.0
1001
ACDBBLOCKREPETAG
1070
     1
1071
        8
1005
12F5E1
  0
LINE
  5
12F5E2
  8
OBJECT
 10
4074.999999999799
 20
-3702.9999999997758
 30
0.0
 11
4080.0
 21
-3702.9999999999968
 31
0.0
1001
ACDBBLOCKREPETAG
1070
     1
1071
        9
1005
12F5E2
  0
LINE
  5
12F5E3
  8
OBJECT
 10
4080.0
 20
-3578.9999999999968
 30
0.0
 11
3925.0
 21
-3578.9999999999968
 31
0.0
1001
ACDBBLOCKREPETAG
1070
     1
1071
       10
1005
12F5E3
  0
ARC
  5
12F5E4
  8
OBJECT
 10
4200.6872746716726
 20
-3694.408099410105
 30
0.0
 40
170.6350503965856
 50
137.44134459184301
 51
149.9194958133665
1001
ACDBBLOCKREPETAG
1070
     1
1071
       15
1005
12F5E4
  0
ARC
  5
12F5E5
  8
OBJECT
 10
4118.8455987040506
 20
-3650.8827266953622
 30
0.0
 40
78.072222021763665
 50
147.4551531037684
 51
164.663659977186
1001
ACDBBLOCKREPETAG
1070
     1
1071
       16
1005
12F5E5
  0
ARC
  5
12F5E6
  8
OBJECT
 10
4085.7554349608722
 20
-3640.9999999999968
 30
0.0
 40
43.55353926885617
 50
165.6884523008477
 51
194.3115476991523
1001
ACDBBLOCKREPETAG
1070
     1
1071
       17
1005
12F5E6
  0
ARC
  5
12F5E7
  8
OBJECT
 10
4200.6872746716726
 20
-3587.5919005898891
 30
0.0
 40
170.6350503965856
 50
210.0805041866335
 51
222.55865540815699
1001
ACDBBLOCKREPETAG
1070
     1
1071
       18
1005
12F5E7
  0
ARC
  5
12F5E8
  8
OBJECT
 10
4118.8455987040506
 20
-3631.1172733046319
 30
0.0
 40
78.072222021763665
 50
195.33634002281391
 51
212.5448468962316
1001
ACDBBLOCKREPETAG
1070
     1
1071
       19
1005
12F5E8
  0
POINT
  5
12F5E9
  8
DOTS
 10
4000.0
 20
-3699.9999999999968
 30
0.0
1001
ACDBBLOCKREPETAG
1070
     1
1071
      186
1005
12F5E9
  0
LINE
  5
12F5EA
  8
OBJECT
 10
3323.0
 20
-3515.9999999999968
 30
0.0
 11
3323.0
 21
-3494.9999999999968
 31
0.0
1001
ACDBBLOCKREPETAG
1070
     1
1071
       20
1005
12F5EA
  0
LINE
  5
12F5EB
  8
OBJECT
 10
3323.0
 20
-3494.9999999999968
 30
0.0
 11
3477.0
 21
-3494.9999999999968
 31
0.0
1001
ACDBBLOCKREPETAG
1070
     1
1071
       21
1005
12F5EB
  0
LINE
  5
12F5EC
  8
HIDDEN
 10
3343.0
 20
-3564.9999999999968
 30
0.0
 11
3457.0
 21
-3564.9999999999968
 31
0.0
1001
ACDBBLOCKREPETAG
1070
     1
1071
       22
1005
12F5EC
  0
LINE
  5
12F5ED
  8
OBJECT
 10
3477.0
 20
-3494.9999999999968
 30
0.0
 11
3477.0
 21
-3515.9999999999968
 31
0.0
1001
ACDBBLOCKREPETAG
1070
     1
1071
       23
1005
12F5ED
  0
LINE
  5
12F5EE
  8
OBJECT
 10
3477.0
 20
-3515.9999999999968
 30
0.0
 11
3323.0
 21
-3515.9999999999968
 31
0.0
1001
ACDBBLOCKREPETAG
1070
     1
1071
       24
1005
12F5EE
  0
LINE
  5
12F5EF
  8
CENTER
 10
3400.0
 20
-3479.9999999999968
 30
0.0
 11
3400.0
 21
-3714.9999999999968
 31
0.0
1001
ACDBBLOCKREPETAG
1070
     1
1071
       25
1005
12F5EF
  0
LINE
  5
12F5F0
  8
OBJECT
 10
3325.0
 20
-3578.9999999999968
 30
0.0
 11
3325.0
 21
-3702.9999999999968
 31
0.0
1001
ACDBBLOCKREPETAG
1070
     1
1071
       26
1005
12F5F0
  0
LINE
  5
12F5F1
  8
OBJECT
 10
3328.0
 20
-3515.9999999999968
 30
0.0
 11
3328.0
 21
-3578.9999999999968
 31
0.0
1001
ACDBBLOCKREPETAG
1070
     1
1071
       27
1005
12F5F1
  0
LINE
  5
12F5F2
  8
OBJECT
 10
3472.0
 20
-3578.9999999999968
 30
0.0
 11
3472.0
 21
-3515.9999999999968
 31
0.0
1001
ACDBBLOCKREPETAG
1070
     1
1071
       28
1005
12F5F2
  0
LINE
  5
12F5F3
  8
OBJECT
 10
3475.0
 20
-3578.9999999999968
 30
0.0
 11
3325.0
 21
-3578.9999999999968
 31
0.0
1001
ACDBBLOCKREPETAG
1070
     1
1071
       30
1005
12F5F3
  0
LINE
  5
12F5F4
  8
OBJECT
 10
3475.0
 20
-3578.9999999999968
 30
0.0
 11
3475.0
 21
-3702.9999999999968
 31
0.0
1001
ACDBBLOCKREPETAG
1070
     1
1071
       34
1005
12F5F4
  0
POINT
  5
12F5F5
  8
DOTS
 10
3400.0
 20
-3699.9999999999968
 30
0.0
1001
ACDBBLOCKREPETAG
1070
     1
1071
      187
1005
12F5F5
  0
LINE
  5
12F5F6
  8
OBJECT
 10
2923.0
 20
-3515.9999999999968
 30
0.0
 11
2923.0
 21
-3494.9999999999968
 31
0.0
1001
ACDBBLOCKREPETAG
1070
     1
1071
        0
1005
12F5F6
  0
LINE
  5
12F5F7
  8
OBJECT
 10
2923.0
 20
-3494.9999999999968
 30
0.0
 11
3077.0
 21
-3494.9999999999968
 31
0.0
1001
ACDBBLOCKREPETAG
1070
     1
1071
        1
1005
12F5F7
  0
LINE
  5
12F5F8
  8
HIDDEN
 10
2943.0
 20
-3564.9999999999968
 30
0.0
 11
3057.0
 21
-3564.9999999999968
 31
0.0
1001
ACDBBLOCKREPETAG
1070
     1
1071
        2
1005
12F5F8
  0
LINE
  5
12F5F9
  8
OBJECT
 10
3077.0
 20
-3494.9999999999968
 30
0.0
 11
3077.0
 21
-3515.9999999999968
 31
0.0
1001
ACDBBLOCKREPETAG
1070
     1
1071
        3
1005
12F5F9
  0
LINE
  5
12F5FA
  8
OBJECT
 10
3077.0
 20
-3515.9999999999968
 30
0.0
 11
2923.0
 21
-3515.9999999999968
 31
0.0
1001
ACDBBLOCKREPETAG
1070
     1
1071
        4
1005
12F5FA
  0
LINE
  5
12F5FB
  8
CENTER
 10
3000.0
 20
-3479.9999999999968
 30
0.0
 11
3000.0
 21
-3714.9999999999968
 31
0.0
1001
ACDBBLOCKREPETAG
1070
     1
1071
        5
1005
12F5FB
  0
LINE
  5
12F5FC
  8
OBJECT
 10
2925.0
 20
-3578.9999999999968
 30
0.0
 11
2925.0
 21
-3702.9999999999968
 31
0.0
1001
ACDBBLOCKREPETAG
1070
     1
1071
        6
1005
12F5FC
  0
LINE
  5
12F5FD
  8
OBJECT
 10
2928.0
 20
-3515.9999999999968
 30
0.0
 11
2928.0
 21
-3578.9999999999968
 31
0.0
1001
ACDBBLOCKREPETAG
1070
     1
1071
        7
1005
12F5FD
  0
LINE
  5
12F5FE
  8
OBJECT
 10
3072.0
 20
-3578.9999999999968
 30
0.0
 11
3072.0
 21
-3515.9999999999968
 31
0.0
1001
ACDBBLOCKREPETAG
1070
     1
1071
        8
1005
12F5FE
  0
LINE
  5
12F5FF
  8
OBJECT
 10
3074.9999999997999
 20
-3702.9999999997758
 30
0.0
 11
3080.0
 21
-3702.9999999999968
 31
0.0
1001
ACDBBLOCKREPETAG
1070
     1
1071
        9
1005
12F5FF
  0
LINE
  5
12F600
  8
OBJECT
 10
3080.0
 20
-3578.9999999999968
 30
0.0
 11
2925.0
 21
-3578.9999999999968
 31
0.0
1001
ACDBBLOCKREPETAG
1070
     1
1071
       10
1005
12F600
  0
ARC
  5
12F601
  8
OBJECT
 10
3200.6872746716722
 20
-3694.408099410105
 30
0.0
 40
170.6350503965856
 50
137.44134459184301
 51
149.9194958133665
1001
ACDBBLOCKREPETAG
1070
     1
1071
       15
1005
12F601
  0
ARC
  5
12F602
  8
OBJECT
 10
3118.8455987040511
 20
-3650.8827266953622
 30
0.0
 40
78.072222021763665
 50
147.4551531037684
 51
164.663659977186
1001
ACDBBLOCKREPETAG
1070
     1
1071
       16
1005
12F602
  0
ARC
  5
12F603
  8
OBJECT
 10
3085.7554349608731
 20
-3640.9999999999968
 30
0.0
 40
43.55353926885617
 50
165.6884523008477
 51
194.3115476991523
1001
ACDBBLOCKREPETAG
1070
     1
1071
       17
1005
12F603
  0
ARC
  5
12F604
  8
OBJECT
 10
3200.6872746716722
 20
-3587.5919005898891
 30
0.0
 40
170.6350503965856
 50
210.0805041866335
 51
222.55865540815699
1001
ACDBBLOCKREPETAG
1070
     1
1071
       18
1005
12F604
  0
ARC
  5
12F605
  8
OBJECT
 10
3118.8455987040511
 20
-3631.1172733046319
 30
0.0
 40
78.072222021763665
 50
195.33634002281391
 51
212.5448468962316
1001
ACDBBLOCKREPETAG
1070
     1
1071
       19
1005
12F605
  0
POINT
  5
12F606
  8
DOTS
 10
3000.0
 20
-3699.9999999999968
 30
0.0
1001
ACDBBLOCKREPETAG
1070
     1
1071
      186
1005
12F606
  0
LINE
  5
12F607
  8
OBJECT
 10
2323.0
 20
-3515.9999999999968
 30
0.0
 11
2323.0
 21
-3494.9999999999968
 31
0.0
1001
ACDBBLOCKREPETAG
1070
     1
1071
       20
1005
12F607
  0
LINE
  5
12F608
  8
OBJECT
 10
2323.0
 20
-3494.9999999999968
 30
0.0
 11
2477.0
 21
-3494.9999999999968
 31
0.0
1001
ACDBBLOCKREPETAG
1070
     1
1071
       21
1005
12F608
  0
LINE
  5
12F609
  8
HIDDEN
 10
2343.0
 20
-3564.9999999999968
 30
0.0
 11
2457.0
 21
-3564.9999999999968
 31
0.0
1001
ACDBBLOCKREPETAG
1070
     1
1071
       22
1005
12F609
  0
LINE
  5
12F60A
  8
OBJECT
 10
2477.0
 20
-3494.9999999999968
 30
0.0
 11
2477.0
 21
-3515.9999999999968
 31
0.0
1001
ACDBBLOCKREPETAG
1070
     1
1071
       23
1005
12F60A
  0
LINE
  5
12F60B
  8
OBJECT
 10
2477.0
 20
-3515.9999999999968
 30
0.0
 11
2323.0
 21
-3515.9999999999968
 31
0.0
1001
ACDBBLOCKREPETAG
1070
     1
1071
       24
1005
12F60B
  0
LINE
  5
12F60C
  8
CENTER
 10
2400.0
 20
-3479.9999999999968
 30
0.0
 11
2400.0
 21
-3714.9999999999968
 31
0.0
1001
ACDBBLOCKREPETAG
1070
     1
1071
       25
1005
12F60C
  0
LINE
  5
12F60D
  8
OBJECT
 10
2325.0
 20
-3578.9999999999968
 30
0.0
 11
2325.0
 21
-3702.9999999999968
 31
0.0
1001
ACDBBLOCKREPETAG
1070
     1
1071
       26
1005
12F60D
  0
LINE
  5
12F60E
  8
OBJECT
 10
2328.0
 20
-3515.9999999999968
 30
0.0
 11
2328.0
 21
-3578.9999999999968
 31
0.0
1001
ACDBBLOCKREPETAG
1070
     1
1071
       27
1005
12F60E
  0
LINE
  5
12F60F
  8
OBJECT
 10
2472.0
 20
-3578.9999999999968
 30
0.0
 11
2472.0
 21
-3515.9999999999968
 31
0.0
1001
ACDBBLOCKREPETAG
1070
     1
1071
       28
1005
12F60F
  0
LINE
  5
12F610
  8
OBJECT
 10
2475.0
 20
-3578.9999999999968
 30
0.0
 11
2325.0
 21
-3578.9999999999968
 31
0.0
1001
ACDBBLOCKREPETAG
1070
     1
1071
       30
1005
12F610
  0
LINE
  5
12F611
  8
OBJECT
 10
2475.0
 20
-3578.9999999999968
 30
0.0
 11
2475.0
 21
-3702.9999999999968
 31
0.0
1001
ACDBBLOCKREPETAG
1070
     1
1071
       34
1005
12F611
  0
POINT
  5
12F612
  8
DOTS
 10
2400.0
 20
-3699.9999999999968
 30
0.0
1001
ACDBBLOCKREPETAG
1070
     1
1071
      187
1005
12F612
  0
LINE
  5
12F613
  8
OBJECT
 10
1923.0
 20
-3515.9999999999968
 30
0.0
 11
1923.0
 21
-3494.9999999999968
 31
0.0
1001
ACDBBLOCKREPETAG
1070
     1
1071
        0
1005
12F613
  0
LINE
  5
12F614
  8
OBJECT
 10
1923.0
 20
-3494.9999999999968
 30
0.0
 11
2077.0
 21
-3494.9999999999968
 31
0.0
1001
ACDBBLOCKREPETAG
1070
     1
1071
        1
1005
12F614
  0
LINE
  5
12F615
  8
HIDDEN
 10
1943.0
 20
-3564.9999999999968
 30
0.0
 11
2057.0
 21
-3564.9999999999968
 31
0.0
1001
ACDBBLOCKREPETAG
1070
     1
1071
        2
1005
12F615
  0
LINE
  5
12F616
  8
OBJECT
 10
2077.0
 20
-3494.9999999999968
 30
0.0
 11
2077.0
 21
-3515.9999999999968
 31
0.0
1001
ACDBBLOCKREPETAG
1070
     1
1071
        3
1005
12F616
  0
LINE
  5
12F617
  8
OBJECT
 10
2077.0
 20
-3515.9999999999968
 30
0.0
 11
1923.0
 21
-3515.9999999999968
 31
0.0
1001
ACDBBLOCKREPETAG
1070
     1
1071
        4
1005
12F617
  0
LINE
  5
12F618
  8
CENTER
 10
2000.0
 20
-3479.9999999999968
 30
0.0
 11
2000.0
 21
-3714.9999999999968
 31
0.0
1001
ACDBBLOCKREPETAG
1070
     1
1071
        5
1005
12F618
  0
LINE
  5
12F619
  8
OBJECT
 10
1925.0
 20
-3578.9999999999968
 30
0.0
 11
1925.0
 21
-3702.9999999999968
 31
0.0
1001
ACDBBLOCKREPETAG
1070
     1
1071
        6
1005
12F619
  0
LINE
  5
12F61A
  8
OBJECT
 10
1928.0
 20
-3515.9999999999968
 30
0.0
 11
1928.0
 21
-3578.9999999999968
 31
0.0
1001
ACDBBLOCKREPETAG
1070
     1
1071
        7
1005
12F61A
  0
LINE
  5
12F61B
  8
OBJECT
 10
2072.0
 20
-3578.9999999999968
 30
0.0
 11
2072.0
 21
-3515.9999999999968
 31
0.0
1001
ACDBBLOCKREPETAG
1070
     1
1071
        8
1005
12F61B
  0
LINE
  5
12F61C
  8
OBJECT
 10
2074.999999999799
 20
-3702.9999999997758
 30
0.0
 11
2080.0
 21
-3702.9999999999968
 31
0.0
1001
ACDBBLOCKREPETAG
1070
     1
1071
        9
1005
12F61C
  0
LINE
  5
12F61D
  8
OBJECT
 10
2080.0
 20
-3578.9999999999968
 30
0.0
 11
1925.0
 21
-3578.9999999999968
 31
0.0
1001
ACDBBLOCKREPETAG
1070
     1
1071
       10
1005
12F61D
  0
ARC
  5
12F61E
  8
OBJECT
 10
2200.6872746716731
 20
-3694.408099410105
 30
0.0
 40
170.6350503965856
 50
137.44134459184301
 51
149.91949581335999
1001
ACDBBLOCKREPETAG
1070
     1
1071
       15
1005
12F61E
  0
ARC
  5
12F61F
  8
OBJECT
 10
2118.8455987040511
 20
-3650.8827266953622
 30
0.0
 40
78.072222021763665
 50
147.45515310377539
 51
164.663659977186
1001
ACDBBLOCKREPETAG
1070
     1
1071
       16
1005
12F61F
  0
ARC
  5
12F620
  8
OBJECT
 10
2085.7554349608731
 20
-3640.9999999999968
 30
0.0
 40
43.55353926885617
 50
165.6884523008477
 51
194.3115476991523
1001
ACDBBLOCKREPETAG
1070
     1
1071
       17
1005
12F620
  0
ARC
  5
12F621
  8
OBJECT
 10
2200.6872746716731
 20
-3587.5919005898891
 30
0.0
 40
170.6350503965856
 50
210.08050418664001
 51
222.55865540815699
1001
ACDBBLOCKREPETAG
1070
     1
1071
       18
1005
12F621
  0
ARC
  5
12F622
  8
OBJECT
 10
2118.8455987040511
 20
-3631.1172733046319
 30
0.0
 40
78.072222021763665
 50
195.33634002281391
 51
212.54484689622461
1001
ACDBBLOCKREPETAG
1070
     1
1071
       19
1005
12F622
  0
POINT
  5
12F623
  8
DOTS
 10
2000.0
 20
-3699.9999999999968
 30
0.0
1001
ACDBBLOCKREPETAG
1070
     1
1071
      186
1005
12F623
  0
LINE
  5
12F624
  8
DIM
 10
2150.0
 20
-3341.9999999999959
 30
0.0
 11
2228.479620594459
 21
-3341.9999999999959
 31
0.0
  0
LINE
  5
12F625
  8
DIM
 10
2150.0
 20
-3247.9999999999959
 30
0.0
 11
2228.479620594459
 21
-3247.9999999999959
 31
0.0
  0
LINE
  5
12F626
  8
DIM
 10
2218.479620594459
 20
-3321.9999999999959
 30
0.0
 11
2218.479620594459
 21
-3267.9999999999959
 31
0.0
  0
INSERT
  5
12F627
  8
DIM
  2
_OPEN30
 10
2218.479620594459
 20
-3341.9999999999959
 30
0.0
 41
20.0
 42
20.0
 43
20.0
 50
270.0
  0
INSERT
  5
12F628
  8
DIM
  2
_OPEN30
 10
2218.479620594459
 20
-3247.9999999999959
 30
0.0
 41
20.0
 42
20.0
 43
20.0
 50
90.0
  0
INSERT
  5
12F629
  8
OBJECT
  2
*U36
 10
0.0
 20
0.0
 30
0.0
  0
LINE
  5
12F62A
  8
DIM
 10
2150.0
 20
-3699.9999999999968
 30
0.0
 11
2226.8409284037339
 21
-3699.9999999999968
 31
0.0
  0
LINE
  5
12F62B
  8
DIM
 10
2165.0
 20
-3655.9999999999968
 30
0.0
 11
2226.8409284037339
 21
-3655.9999999999968
 31
0.0
  0
LINE
  5
12F62C
  8
DIM
 10
2216.840928403733
 20
-3719.9999999999968
 30
0.0
 11
2216.840928403733
 21
-3739.9999999999968
 31
0.0
  0
LINE
  5
12F62D
  8
DIM
 10
2216.840928403733
 20
-3635.9999999999968
 30
0.0
 11
2216.840928403733
 21
-3615.9999999999968
 31
0.0
  0
LINE
  5
12F62E
  8
DIM
 10
2216.840928403733
 20
-3699.9999999999968
 30
0.0
 11
2216.840928403733
 21
-3655.9999999999968
 31
0.0
  0
INSERT
  5
12F62F
  8
DIM
  2
_OPEN30
 10
2216.840928403733
 20
-3699.9999999999968
 30
0.0
 41
20.0
 42
20.0
 43
20.0
 50
90.0
  0
INSERT
  5
12F630
  8
DIM
  2
_OPEN30
 10
2216.840928403733
 20
-3655.9999999999968
 30
0.0
 41
20.0
 42
20.0
 43
20.0
 50
270.0
  0
INSERT
  5
12F631
  8
OBJECT
  2
*U37
 10
0.0
 20
0.0
 30
0.0
  0
LINE
  5
12F632
  8
DIM
 10
2000.0
 20
-3189.9999999999959
 30
0.0
 11
2000.0
 21
-3157.2081219844449
 31
0.0
  0
LINE
  5
12F633
  8
DIM
 10
2140.0
 20
-3237.9999999999959
 30
0.0
 11
2140.0
 21
-3157.2081219844449
 31
0.0
  0
LINE
  5
12F634
  8
DIM
 10
2020.0
 20
-3167.208121984444
 30
0.0
 11
2120.0
 21
-3167.208121984444
 31
0.0
  0
INSERT
  5
12F635
  8
DIM
  2
_OPEN30
 10
2000.0
 20
-3167.208121984444
 30
0.0
 41
20.0
 42
20.0
 43
20.0
 50
180.0
  0
INSERT
  5
12F636
  8
DIM
  2
_OPEN30
 10
2140.0
 20
-3167.208121984444
 30
0.0
 41
20.0
 42
20.0
 43
20.0
  0
INSERT
  5
12F637
  8
OBJECT
  2
*U38
 10
0.0
 20
0.0
 30
0.0
  0
TEXT
  5
12F638
  8
SLIM
 10
2631.0
 20
-3072.50001604727
 30
0.0
 40
40.0
  1
C寸法
 41
0.75
  0
TEXT
  5
12F639
  8
SLIM
 10
2631.0
 20
-3002.50001604727
 30
0.0
 40
40.0
  1
B寸法
 41
0.75
  0
TEXT
  5
12F63A
  8
SLIM
 10
2630.2857142857142
 20
-2932.50001604727
 30
0.0
 40
40.0
  1
A寸法
 41
0.75
  0
TEXT
  5
12F63B
  8
SLIM
 10
3159.2857142857151
 20
-3072.50001604727
 30
0.0
 40
40.0
  1
150
 41
0.75
  0
TEXT
  5
12F63C
  8
SLIM
 10
3029.2857142857151
 20
-3072.50001604727
 30
0.0
 40
40.0
  1
140
 41
0.75
  0
TEXT
  5
12F63D
  8
SLIM
 10
2769.2857142857151
 20
-3072.50001604727
 30
0.0
 40
40.0
  1
140
 41
0.75
  0
TEXT
  5
12F63E
  8
SLIM
 10
2899.2857142857151
 20
-3072.50001604727
 30
0.0
 40
40.0
  1
140
 41
0.75
  0
TEXT
  5
12F63F
  8
SLIM
 10
3170.7142857142858
 20
-3002.50001604727
 30
0.0
 40
40.0
  1
72
 41
0.75
  0
TEXT
  5
12F640
  8
SLIM
 10
3041.4285714285711
 20
-3002.50001604727
 30
0.0
 40
40.0
  1
59
 41
0.75
  0
TEXT
  5
12F641
  8
SLIM
 10
2780.0
 20
-3002.50001604727
 30
0.0
 40
40.0
  1
44
 41
0.75
  0
TEXT
  5
12F642
  8
SLIM
 10
2910.7142857142858
 20
-3002.50001604727
 30
0.0
 40
40.0
  1
52
 41
0.75
  0
TEXT
  5
12F643
  8
SLIM
 10
2891.0
 20
-2807.50001604727
 30
0.0
 40
40.0
  1
横枝管サイズ
 41
0.75
  0
TEXT
  5
12F644
  8
SLIM
 10
3136.2857142857151
 20
-2862.50001604727
 30
0.0
 40
30.0
  1
100（4）
 41
0.75
  0
TEXT
  5
12F645
  8
SLIM
 10
3014.857142857144
 20
-2862.50001604727
 30
0.0
 40
30.0
  1
75（3）
 41
0.75
  0
TEXT
  5
12F646
  8
SLIM
 10
2884.8571428571431
 20
-2862.50001604727
 30
0.0
 40
30.0
  1
65（2）
 41
0.75
  0
TEXT
  5
12F647
  8
SLIM
 10
2757.0
 20
-2862.50001604727
 30
0.0
 40
30.0
  1
50（1）
 41
0.75
  0
TEXT
  5
12F648
  8
SLIM
 10
3159.2857142857151
 20
-2932.50001604727
 30
0.0
 40
40.0
  1
150
 41
0.75
  0
TEXT
  5
12F649
  8
SLIM
 10
3028.571428571428
 20
-2932.50001604727
 30
0.0
 40
40.0
  1
124
 41
0.75
  0
TEXT
  5
12F64A
  8
SLIM
 10
2780.0
 20
-2932.50001604727
 30
0.0
 40
40.0
  1
94
 41
0.75
  0
TEXT
  5
12F64B
  8
SLIM
 10
2902.1428571428569
 20
-2932.50001604727
 30
0.0
 40
40.0
  1
110
 41
0.75
  0
TEXT
  5
12F64C
  8
SLIM
 10
1849.9999999999991
 20
-2832.5
 30
0.0
 40
75.0
  1
枝管サイズ毎の形状
 41
0.75
  0
LINE
  5
12F64D
  8
OBJECT
 10
5150.0
 20
-3552.9999999999968
 30
0.0
 11
5143.0
 21
-3552.9999999999968
 31
0.0
1001
ACDBBLOCKREPETAG
1070
     1
1071
       64
1005
12F64D
  0
LINE
  5
12F64E
  8
OBJECT
 10
5143.0
 20
-3552.9999999999968
 30
0.0
 11
5143.0
 21
-3699.9999999999968
 31
0.0
1001
ACDBBLOCKREPETAG
1070
     1
1071
       65
1005
12F64E
  0
LINE
  5
12F64F
  8
OBJECT
 10
5101.5
 20
-3555.9999999999968
 30
0.0
 11
5101.5
 21
-3699.9999999999968
 31
0.0
1001
ACDBBLOCKREPETAG
1070
     1
1071
       66
1005
12F64F
  0
LINE
  5
12F650
  8
OBJECT
 10
5090.0
 20
-3562.4999999999968
 30
0.0
 11
5090.0
 21
-3693.4999999999968
 31
0.0
1001
ACDBBLOCKREPETAG
1070
     1
1071
       67
1005
12F650
  0
LINE
  5
12F651
  8
OBJECT
 10
5086.0
 20
-3634.5000000000041
 30
0.0
 11
5086.0
 21
-3699.9999999999968
 31
0.0
1001
ACDBBLOCKREPETAG
1070
     1
1071
       68
1005
12F651
  0
LINE
  5
12F652
  8
OBJECT
 10
5150.0
 20
-3699.9999999999968
 30
0.0
 11
5150.0
 21
-3552.9999999999968
 31
0.0
1001
ACDBBLOCKREPETAG
1070
     1
1071
       69
1005
12F652
  0
LINE
  5
12F653
  8
CENTER
 10
5165.0
 20
-3627.9999999999968
 30
0.0
 11
5070.4144144144157
 21
-3627.9999999999968
 31
0.0
1001
ACDBBLOCKREPETAG
1070
     1
1071
       70
1005
12F653
  0
LINE
  5
12F654
  8
OBJECT
 10
5083.0000000000045
 20
-3702.9999999999968
 30
0.0
 11
5080.0
 21
-3702.9999999999968
 31
0.0
1001
ACDBBLOCKREPETAG
1070
     1
1071
       71
1005
12F654
  0
ARC
  5
12F655
  8
OBJECT
 10
5091.8815171830656
 20
-3701.4555591801432
 30
0.0
 40
6.0
 50
60.52411099686767
 51
170.6927439126847
1001
ACDBBLOCKREPETAG
1070
     1
1071
       72
1005
12F655
  0
ARC
  5
12F656
  8
OBJECT
 10
5083.0
 20
-3699.9999999999968
 30
0.0
 40
3.0
 50
270.0
 51
350.69274391268482
1001
ACDBBLOCKREPETAG
1070
     1
1071
       73
1005
12F656
  0
LINE
  5
12F657
  8
OBJECT
 10
5081.0
 20
-3578.9999999999968
 30
0.0
 11
5080.0
 21
-3578.9999999999968
 31
0.0
1001
ACDBBLOCKREPETAG
1070
     1
1071
       74
1005
12F657
  0
LINE
  5
12F658
  8
OBJECT
 10
5150.0
 20
-3699.9999999999968
 30
0.0
 11
5101.5
 21
-3699.9999999999968
 31
0.0
1001
ACDBBLOCKREPETAG
1070
     1
1071
       75
1005
12F658
  0
LINE
  5
12F659
  8
OBJECT
 10
5101.5
 20
-3555.9999999999968
 30
0.0
 11
5090.0
 21
-3562.4999999999968
 31
0.0
1001
ACDBBLOCKREPETAG
1070
     1
1071
       76
1005
12F659
  0
LINE
  5
12F65A
  8
OBJECT
 10
5143.0
 20
-3555.9999999999968
 30
0.0
 11
5101.5
 21
-3555.9999999999968
 31
0.0
1001
ACDBBLOCKREPETAG
1070
     1
1071
       77
1005
12F65A
  0
LINE
  5
12F65B
  8
OBJECT
 10
5086.0
 20
-3634.5000000000041
 30
0.0
 11
5081.0
 21
-3578.9999999999968
 31
0.0
1001
ACDBBLOCKREPETAG
1070
     1
1071
       78
1005
12F65B
  0
LINE
  5
12F65C
  8
OBJECT
 10
5090.0
 20
-3562.4999999999968
 30
0.0
 11
5081.0
 21
-3578.9999999999968
 31
0.0
1001
ACDBBLOCKREPETAG
1070
     1
1071
       79
1005
12F65C
  0
LINE
  5
12F65D
  8
OBJECT
 10
5101.5
 20
-3699.9999999999968
 30
0.0
 11
5094.8338607230708
 21
-3696.232182147819
 31
0.0
1001
ACDBBLOCKREPETAG
1070
     1
1071
       80
1005
12F65D
  0
LINE
  5
12F65E
  8
HIDDEN
 10
5098.0
 20
-3684.9999999999968
 30
0.0
 11
5098.0
 21
-3570.9999999999968
 31
0.0
1001
ACDBBLOCKREPETAG
1070
     1
1071
       81
1005
12F65E
  0
LINE
  5
12F65F
  8
OBJECT
 10
5150.0
 20
-3219.9999999999959
 30
0.0
 11
5143.0
 21
-3219.9999999999959
 31
0.0
1001
ACDBBLOCKREPETAG
1070
     1
1071
       67
1005
12F65F
  0
LINE
  5
12F660
  8
OBJECT
 10
5143.0
 20
-3219.9999999999959
 30
0.0
 11
5143.0
 21
-3369.9999999999959
 31
0.0
1001
ACDBBLOCKREPETAG
1070
     1
1071
       68
1005
12F660
  0
LINE
  5
12F661
  8
OBJECT
 10
5101.5
 20
-3222.9999999999959
 30
0.0
 11
5101.5
 21
-3366.9999999999959
 31
0.0
1001
ACDBBLOCKREPETAG
1070
     1
1071
       69
1005
12F661
  0
LINE
  5
12F662
  8
OBJECT
 10
5090.0
 20
-3229.4999999999959
 30
0.0
 11
5090.0
 21
-3360.4999999999959
 31
0.0
1001
ACDBBLOCKREPETAG
1070
     1
1071
       70
1005
12F662
  0
LINE
  5
12F663
  8
OBJECT
 10
5143.0
 20
-3369.9999999999959
 30
0.0
 11
5150.0
 21
-3369.9999999999959
 31
0.0
1001
ACDBBLOCKREPETAG
1070
     1
1071
       71
1005
12F663
  0
LINE
  5
12F664
  8
OBJECT
 10
5150.0
 20
-3369.9999999999959
 30
0.0
 11
5150.0
 21
-3219.9999999999959
 31
0.0
1001
ACDBBLOCKREPETAG
1070
     1
1071
       72
1005
12F664
  0
LINE
  5
12F665
  8
HIDDEN
 10
5098.0
 20
-3351.9999999999959
 30
0.0
 11
5098.0
 21
-3237.9999999999959
 31
0.0
1001
ACDBBLOCKREPETAG
1070
     1
1071
       73
1005
12F665
  0
LINE
  5
12F666
  8
CENTER
 10
5165.0
 20
-3294.9999999999959
 30
0.0
 11
5080.0
 21
-3294.9999999999959
 31
0.0
1001
ACDBBLOCKREPETAG
1070
     1
1071
       74
1005
12F666
  0
LINE
  5
12F667
  8
OBJECT
 10
5086.0
 20
-3356.9999999999959
 30
0.0
 11
5080.0
 21
-3356.9999999999959
 31
0.0
1001
ACDBBLOCKREPETAG
1070
     1
1071
       75
1005
12F667
  0
LINE
  5
12F668
  8
OBJECT
 10
5143.0
 20
-3366.9999999999959
 30
0.0
 11
5101.5
 21
-3366.9999999999959
 31
0.0
1001
ACDBBLOCKREPETAG
1070
     1
1071
       76
1005
12F668
  0
LINE
  5
12F669
  8
OBJECT
 10
5101.5
 20
-3366.9999999999959
 30
0.0
 11
5090.0
 21
-3360.4999999999959
 31
0.0
1001
ACDBBLOCKREPETAG
1070
     1
1071
       77
1005
12F669
  0
LINE
  5
12F66A
  8
OBJECT
 10
5090.0
 20
-3360.4999999999959
 30
0.0
 11
5086.0
 21
-3356.9999999999959
 31
0.0
1001
ACDBBLOCKREPETAG
1070
     1
1071
       78
1005
12F66A
  0
LINE
  5
12F66B
  8
OBJECT
 10
5101.5
 20
-3222.9999999999959
 30
0.0
 11
5090.0
 21
-3229.4999999999959
 31
0.0
1001
ACDBBLOCKREPETAG
1070
     1
1071
       79
1005
12F66B
  0
LINE
  5
12F66C
  8
OBJECT
 10
5090.0
 20
-3229.4999999999959
 30
0.0
 11
5086.0
 21
-3232.9999999999959
 31
0.0
1001
ACDBBLOCKREPETAG
1070
     1
1071
       80
1005
12F66C
  0
ARC
  5
12F66D
  8
OBJECT
 10
5467.9000000000005
 20
-3294.9999999999959
 30
0.0
 40
386.89999999999998
 50
170.77870136260421
 51
189.22129863739571
1001
ACDBBLOCKREPETAG
1070
     1
1071
       81
1005
12F66D
  0
LINE
  5
12F66E
  8
OBJECT
 10
5086.0
 20
-3232.9999999999959
 30
0.0
 11
5080.0
 21
-3232.9999999999959
 31
0.0
1001
ACDBBLOCKREPETAG
1070
     1
1071
       82
1005
12F66E
  0
LINE
  5
12F66F
  8
OBJECT
 10
5143.0
 20
-3222.9999999999959
 30
0.0
 11
5101.5
 21
-3222.9999999999959
 31
0.0
1001
ACDBBLOCKREPETAG
1070
     1
1071
       83
1005
12F66F
  0
TEXT
  5
12F670
  8
SLIM
 10
4884.25
 20
-3817.4999999999959
 30
0.0
 40
35.0
  1
通常枝100（4）
 41
0.75
  0
LINE
  5
12F671
  8
CENTER
 10
4477.0
 20
-3640.9999999999968
 30
0.0
 11
4323.0
 21
-3640.9999999999968
 31
0.0
1001
ACDBBLOCKREPETAG
1070
     1
1071
       17
1005
12F671
  0
CIRCLE
  5
12F672
  8
OBJECT
 10
4400.0
 20
-3640.9999999999968
 30
0.0
 40
41.5
1001
ACDBBLOCKREPETAG
1070
     1
1071
       19
1005
12F672
  0
CIRCLE
  5
12F673
  8
OBJECT
 10
4400.0
 20
-3640.9999999999968
 30
0.0
 40
54.0
1001
ACDBBLOCKREPETAG
1070
     1
1071
       20
1005
12F673
  0
ARC
  5
12F674
  8
OBJECT
 10
4400.0
 20
-3640.9999999999968
 30
0.0
 40
62.0
 50
287.89655112921122
 51
252.1034488707887
1001
ACDBBLOCKREPETAG
1070
     1
1071
       21
1005
12F674
  0
LINE
  5
12F675
  8
OBJECT
 10
4380.947441116743
 20
-3699.9999999999968
 30
0.0
 11
4419.052558883257
 21
-3699.9999999999968
 31
0.0
1001
ACDBBLOCKREPETAG
1070
     1
1071
       22
1005
12F675
  0
LINE
  5
12F676
  8
OBJECT
 10
4133.0
 20
-3578.9999999999968
 30
0.0
 11
4140.0
 21
-3578.9999999999968
 31
0.0
1001
ACDBBLOCKREPETAG
1070
     1
1071
       45
1005
12F676
  0
LINE
  5
12F677
  8
OBJECT
 10
4140.0
 20
-3578.9999999999968
 30
0.0
 11
4140.0
 21
-3699.9999999999968
 31
0.0
1001
ACDBBLOCKREPETAG
1070
     1
1071
       46
1005
12F677
  0
LINE
  5
12F678
  8
OBJECT
 10
4133.0
 20
-3699.9999999999968
 30
0.0
 11
4133.0
 21
-3578.9999999999968
 31
0.0
1001
ACDBBLOCKREPETAG
1070
     1
1071
       47
1005
12F678
  0
LINE
  5
12F679
  8
CENTER
 10
4155.0
 20
-3640.9999999999968
 30
0.0
 11
4071.0
 21
-3640.9999999999968
 31
0.0
1001
ACDBBLOCKREPETAG
1070
     1
1071
       48
1005
12F679
  0
LINE
  5
12F67A
  8
OBJECT
 10
4133.0
 20
-3581.9999999999968
 30
0.0
 11
4097.0
 21
-3581.9999999999968
 31
0.0
1001
ACDBBLOCKREPETAG
1070
     1
1071
       49
1005
12F67A
  0
LINE
  5
12F67B
  8
OBJECT
 10
4097.0
 20
-3581.9999999999968
 30
0.0
 11
4097.0
 21
-3699.9999999999968
 31
0.0
1001
ACDBBLOCKREPETAG
1070
     1
1071
       50
1005
12F67B
  0
LINE
  5
12F67C
  8
OBJECT
 10
4097.0
 20
-3699.9999999999968
 30
0.0
 11
4140.0
 21
-3699.9999999999968
 31
0.0
1001
ACDBBLOCKREPETAG
1070
     1
1071
       51
1005
12F67C
  0
LINE
  5
12F67D
  8
OBJECT
 10
4093.0
 20
-3586.4999999999968
 30
0.0
 11
4086.0
 21
-3586.4999999999968
 31
0.0
1001
ACDBBLOCKREPETAG
1070
     1
1071
       52
1005
12F67D
  0
LINE
  5
12F67E
  8
OBJECT
 10
4086.0
 20
-3695.4999999999968
 30
0.0
 11
4093.0
 21
-3695.4999999999968
 31
0.0
1001
ACDBBLOCKREPETAG
1070
     1
1071
       53
1005
12F67E
  0
LINE
  5
12F67F
  8
OBJECT
 10
4093.0
 20
-3695.4999999999968
 30
0.0
 11
4093.0
 21
-3586.4999999999968
 31
0.0
1001
ACDBBLOCKREPETAG
1070
     1
1071
       54
1005
12F67F
  0
LINE
  5
12F680
  8
OBJECT
 10
4097.0
 20
-3581.9999999999968
 30
0.0
 11
4093.0
 21
-3586.4999999999968
 31
0.0
1001
ACDBBLOCKREPETAG
1070
     1
1071
       55
1005
12F680
  0
LINE
  5
12F681
  8
OBJECT
 10
4097.0
 20
-3699.9999999999968
 30
0.0
 11
4093.0
 21
-3695.4999999999968
 31
0.0
1001
ACDBBLOCKREPETAG
1070
     1
1071
       56
1005
12F681
  0
LINE
  5
12F682
  8
OBJECT
 10
4083.0
 20
-3578.9999999999968
 30
0.0
 11
4080.0
 21
-3578.9999999999968
 31
0.0
1001
ACDBBLOCKREPETAG
1070
     1
1071
       57
1005
12F682
  0
ARC
  5
12F683
  8
OBJECT
 10
4083.0
 20
-3581.9999999999968
 30
0.0
 40
3.0
 50
0.0
 51
90.0
1001
ACDBBLOCKREPETAG
1070
     1
1071
       58
1005
12F683
  0
LINE
  5
12F684
  8
OBJECT
 10
4080.0
 20
-3702.9999999999968
 30
0.0
 11
4083.0
 21
-3702.9999999999968
 31
0.0
1001
ACDBBLOCKREPETAG
1070
     1
1071
       59
1005
12F684
  0
ARC
  5
12F685
  8
OBJECT
 10
4083.0
 20
-3699.9999999999968
 30
0.0
 40
3.0
 50
270.0
 51
0.0
1001
ACDBBLOCKREPETAG
1070
     1
1071
       60
1005
12F685
  0
LINE
  5
12F686
  8
OBJECT
 10
4086.0
 20
-3699.9999999999968
 30
0.0
 11
4086.0
 21
-3581.9999999999968
 31
0.0
1001
ACDBBLOCKREPETAG
1070
     1
1071
       61
1005
12F686
  0
LINE
  5
12F687
  8
HIDDEN
 10
4088.0
 20
-3596.4999999999968
 30
0.0
 11
4088.0
 21
-3685.4999999999968
 31
0.0
1001
ACDBBLOCKREPETAG
1070
     1
1071
       63
1005
12F687
  0
LINE
  5
12F688
  8
OBJECT
 10
4133.0
 20
-3232.9999999999959
 30
0.0
 11
4140.0
 21
-3232.9999999999959
 31
0.0
1001
ACDBBLOCKREPETAG
1070
     1
1071
       47
1005
12F688
  0
LINE
  5
12F689
  8
OBJECT
 10
4140.0
 20
-3232.9999999999959
 30
0.0
 11
4140.0
 21
-3356.9999999999959
 31
0.0
1001
ACDBBLOCKREPETAG
1070
     1
1071
       48
1005
12F689
  0
LINE
  5
12F68A
  8
OBJECT
 10
4140.0
 20
-3356.9999999999959
 30
0.0
 11
4133.0
 21
-3356.9999999999959
 31
0.0
1001
ACDBBLOCKREPETAG
1070
     1
1071
       49
1005
12F68A
  0
LINE
  5
12F68B
  8
OBJECT
 10
4133.0
 20
-3356.9999999999959
 30
0.0
 11
4133.0
 21
-3232.9999999999959
 31
0.0
1001
ACDBBLOCKREPETAG
1070
     1
1071
       50
1005
12F68B
  0
LINE
  5
12F68C
  8
CENTER
 10
4155.0
 20
-3294.9999999999959
 30
0.0
 11
4080.0
 21
-3294.9999999999959
 31
0.0
1001
ACDBBLOCKREPETAG
1070
     1
1071
       51
1005
12F68C
  0
LINE
  5
12F68D
  8
OBJECT
 10
4133.0
 20
-3235.9999999999959
 30
0.0
 11
4097.0
 21
-3235.9999999999959
 31
0.0
1001
ACDBBLOCKREPETAG
1070
     1
1071
       52
1005
12F68D
  0
LINE
  5
12F68E
  8
OBJECT
 10
4097.0
 20
-3235.9999999999959
 30
0.0
 11
4097.0
 21
-3353.9999999999959
 31
0.0
1001
ACDBBLOCKREPETAG
1070
     1
1071
       53
1005
12F68E
  0
LINE
  5
12F68F
  8
OBJECT
 10
4097.0
 20
-3353.9999999999959
 30
0.0
 11
4133.0
 21
-3353.9999999999959
 31
0.0
1001
ACDBBLOCKREPETAG
1070
     1
1071
       54
1005
12F68F
  0
LINE
  5
12F690
  8
OBJECT
 10
4093.0
 20
-3240.4999999999959
 30
0.0
 11
4086.0
 21
-3240.4999999999959
 31
0.0
1001
ACDBBLOCKREPETAG
1070
     1
1071
       55
1005
12F690
  0
LINE
  5
12F691
  8
OBJECT
 10
4086.0
 20
-3349.4999999999959
 30
0.0
 11
4093.0
 21
-3349.4999999999959
 31
0.0
1001
ACDBBLOCKREPETAG
1070
     1
1071
       56
1005
12F691
  0
LINE
  5
12F692
  8
OBJECT
 10
4093.0
 20
-3349.4999999999959
 30
0.0
 11
4093.0
 21
-3240.4999999999959
 31
0.0
1001
ACDBBLOCKREPETAG
1070
     1
1071
       57
1005
12F692
  0
LINE
  5
12F693
  8
OBJECT
 10
4097.0
 20
-3235.9999999999959
 30
0.0
 11
4093.0
 21
-3240.4999999999959
 31
0.0
1001
ACDBBLOCKREPETAG
1070
     1
1071
       58
1005
12F693
  0
LINE
  5
12F694
  8
OBJECT
 10
4097.0
 20
-3353.9999999999959
 30
0.0
 11
4093.0
 21
-3349.4999999999959
 31
0.0
1001
ACDBBLOCKREPETAG
1070
     1
1071
       59
1005
12F694
  0
LINE
  5
12F695
  8
OBJECT
 10
4083.0
 20
-3232.9999999999959
 30
0.0
 11
4080.0
 21
-3232.9999999999959
 31
0.0
1001
ACDBBLOCKREPETAG
1070
     1
1071
       60
1005
12F695
  0
ARC
  5
12F696
  8
OBJECT
 10
4083.0
 20
-3235.9999999999959
 30
0.0
 40
3.0
 50
0.0
 51
90.0
1001
ACDBBLOCKREPETAG
1070
     1
1071
       61
1005
12F696
  0
LINE
  5
12F697
  8
OBJECT
 10
4080.0
 20
-3356.9999999999959
 30
0.0
 11
4083.0
 21
-3356.9999999999959
 31
0.0
1001
ACDBBLOCKREPETAG
1070
     1
1071
       62
1005
12F697
  0
ARC
  5
12F698
  8
OBJECT
 10
4083.0
 20
-3353.9999999999959
 30
0.0
 40
3.0
 50
270.0
 51
0.0
1001
ACDBBLOCKREPETAG
1070
     1
1071
       63
1005
12F698
  0
LINE
  5
12F699
  8
OBJECT
 10
4086.0
 20
-3353.9999999999959
 30
0.0
 11
4086.0
 21
-3235.9999999999959
 31
0.0
1001
ACDBBLOCKREPETAG
1070
     1
1071
       64
1005
12F699
  0
LINE
  5
12F69A
  8
HIDDEN
 10
4088.0
 20
-3250.4999999999959
 30
0.0
 11
4088.0
 21
-3339.4999999999959
 31
0.0
1001
ACDBBLOCKREPETAG
1070
     1
1071
       65
1005
12F69A
  0
TEXT
  5
12F69B
  8
SLIM
 10
3894.25
 20
-3817.4999999999959
 30
0.0
 40
35.0
  1
通常枝75（3）
 41
0.75
  0
CIRCLE
  5
12F69C
  8
OBJECT
 10
3400.0
 20
-3647.9999999999968
 30
0.0
 40
35.5
1001
ACDBBLOCKREPETAG
1070
     1
1071
       10
1005
12F69C
  0
CIRCLE
  5
12F69D
  8
OBJECT
 10
3400.0
 20
-3640.9999999999968
 30
0.0
 40
62.0
1001
ACDBBLOCKREPETAG
1070
     1
1071
       11
1005
12F69D
  0
LINE
  5
12F69E
  8
CENTER
 10
3330.0
 20
-3647.9999999999968
 30
0.0
 11
3470.0
 21
-3647.9999999999968
 31
0.0
1001
ACDBBLOCKREPETAG
1070
     1
1071
       12
1005
12F69E
  0
CIRCLE
  5
12F69F
  8
OBJECT
 10
3400.0
 20
-3647.9999999999968
 30
0.0
 40
47.0
1001
ACDBBLOCKREPETAG
1070
     1
1071
       14
1005
12F69F
  0
ARC
  5
12F6A0
  8
OBJECT
 10
3400.0
 20
-3647.9999999999968
 30
0.0
 40
55.0
 50
289.01126526011359
 51
250.98873473988641
1001
ACDBBLOCKREPETAG
1070
     1
1071
       15
1005
12F6A0
  0
LINE
  5
12F6A1
  8
OBJECT
 10
3382.0835271328328
 20
-3699.9999999999968
 30
0.0
 11
3417.9164728671681
 21
-3699.9999999999968
 31
0.0
1001
ACDBBLOCKREPETAG
1070
     1
1071
       16
1005
12F6A1
  0
LINE
  5
12F6A2
  8
OBJECT
 10
3133.0
 20
-3592.9999999999968
 30
0.0
 11
3140.0
 21
-3592.9999999999968
 31
0.0
1001
ACDBBLOCKREPETAG
1070
     1
1071
       26
1005
12F6A2
  0
LINE
  5
12F6A3
  8
OBJECT
 10
3140.0
 20
-3592.9999999999968
 30
0.0
 11
3140.0
 21
-3699.9999999999968
 31
0.0
1001
ACDBBLOCKREPETAG
1070
     1
1071
       27
1005
12F6A3
  0
LINE
  5
12F6A4
  8
OBJECT
 10
3133.0
 20
-3699.9999999999968
 30
0.0
 11
3133.0
 21
-3592.9999999999968
 31
0.0
1001
ACDBBLOCKREPETAG
1070
     1
1071
       28
1005
12F6A4
  0
LINE
  5
12F6A5
  8
CENTER
 10
3155.0
 20
-3647.9999999999968
 30
0.0
 11
3071.0
 21
-3647.9999999999968
 31
0.0
1001
ACDBBLOCKREPETAG
1070
     1
1071
       29
1005
12F6A5
  0
LINE
  5
12F6A6
  8
OBJECT
 10
3133.0
 20
-3595.9999999999968
 30
0.0
 11
3097.0
 21
-3595.9999999999968
 31
0.0
1001
ACDBBLOCKREPETAG
1070
     1
1071
       30
1005
12F6A6
  0
LINE
  5
12F6A7
  8
OBJECT
 10
3097.0
 20
-3595.9999999999968
 30
0.0
 11
3097.0
 21
-3699.9999999999968
 31
0.0
1001
ACDBBLOCKREPETAG
1070
     1
1071
       31
1005
12F6A7
  0
LINE
  5
12F6A8
  8
OBJECT
 10
3097.0
 20
-3699.9999999999968
 30
0.0
 11
3140.0
 21
-3699.9999999999968
 31
0.0
1001
ACDBBLOCKREPETAG
1070
     1
1071
       32
1005
12F6A8
  0
LINE
  5
12F6A9
  8
OBJECT
 10
3093.0
 20
-3600.4999999999968
 30
0.0
 11
3086.0
 21
-3600.4999999999968
 31
0.0
1001
ACDBBLOCKREPETAG
1070
     1
1071
       33
1005
12F6A9
  0
LINE
  5
12F6AA
  8
OBJECT
 10
3086.0
 20
-3695.4999999999968
 30
0.0
 11
3093.0
 21
-3695.4999999999968
 31
0.0
1001
ACDBBLOCKREPETAG
1070
     1
1071
       34
1005
12F6AA
  0
LINE
  5
12F6AB
  8
OBJECT
 10
3093.0
 20
-3695.4999999999968
 30
0.0
 11
3093.0
 21
-3600.4999999999968
 31
0.0
1001
ACDBBLOCKREPETAG
1070
     1
1071
       35
1005
12F6AB
  0
LINE
  5
12F6AC
  8
OBJECT
 10
3097.0
 20
-3595.9999999999968
 30
0.0
 11
3093.0
 21
-3600.4999999999968
 31
0.0
1001
ACDBBLOCKREPETAG
1070
     1
1071
       36
1005
12F6AC
  0
LINE
  5
12F6AD
  8
OBJECT
 10
3097.0
 20
-3699.9999999999968
 30
0.0
 11
3093.0
 21
-3695.4999999999968
 31
0.0
1001
ACDBBLOCKREPETAG
1070
     1
1071
       37
1005
12F6AD
  0
LINE
  5
12F6AE
  8
OBJECT
 10
3083.0
 20
-3578.9999999999968
 30
0.0
 11
3080.0
 21
-3578.9999999999968
 31
0.0
1001
ACDBBLOCKREPETAG
1070
     1
1071
       38
1005
12F6AE
  0
ARC
  5
12F6AF
  8
OBJECT
 10
3083.0
 20
-3581.9999999999968
 30
0.0
 40
3.0
 50
0.0
 51
90.0
1001
ACDBBLOCKREPETAG
1070
     1
1071
       39
1005
12F6AF
  0
LINE
  5
12F6B0
  8
OBJECT
 10
3080.0
 20
-3702.9999999999968
 30
0.0
 11
3083.0
 21
-3702.9999999999968
 31
0.0
1001
ACDBBLOCKREPETAG
1070
     1
1071
       40
1005
12F6B0
  0
ARC
  5
12F6B1
  8
OBJECT
 10
3083.0
 20
-3699.9999999999968
 30
0.0
 40
3.0
 50
270.0
 51
0.0
1001
ACDBBLOCKREPETAG
1070
     1
1071
       41
1005
12F6B1
  0
LINE
  5
12F6B2
  8
OBJECT
 10
3086.0
 20
-3699.9999999999968
 30
0.0
 11
3086.0
 21
-3581.9999999999968
 31
0.0
1001
ACDBBLOCKREPETAG
1070
     1
1071
       42
1005
12F6B2
  0
LINE
  5
12F6B3
  8
HIDDEN
 10
3088.0
 20
-3609.9999999999968
 30
0.0
 11
3088.0
 21
-3685.9999999999968
 31
0.0
1001
ACDBBLOCKREPETAG
1070
     1
1071
       43
1005
12F6B3
  0
LINE
  5
12F6B4
  8
OBJECT
 10
3133.0
 20
-3239.9999999999968
 30
0.0
 11
3140.0
 21
-3239.9999999999968
 31
0.0
1001
ACDBBLOCKREPETAG
1070
     1
1071
       27
1005
12F6B4
  0
LINE
  5
12F6B5
  8
OBJECT
 10
3140.0
 20
-3239.9999999999968
 30
0.0
 11
3140.0
 21
-3349.9999999999959
 31
0.0
1001
ACDBBLOCKREPETAG
1070
     1
1071
       28
1005
12F6B5
  0
LINE
  5
12F6B6
  8
OBJECT
 10
3140.0
 20
-3349.9999999999959
 30
0.0
 11
3133.0
 21
-3349.9999999999959
 31
0.0
1001
ACDBBLOCKREPETAG
1070
     1
1071
       29
1005
12F6B6
  0
LINE
  5
12F6B7
  8
OBJECT
 10
3133.0
 20
-3349.9999999999959
 30
0.0
 11
3133.0
 21
-3239.9999999999968
 31
0.0
1001
ACDBBLOCKREPETAG
1070
     1
1071
       30
1005
12F6B7
  0
LINE
  5
12F6B8
  8
CENTER
 10
3155.0
 20
-3294.9999999999959
 30
0.0
 11
3080.0
 21
-3294.9999999999959
 31
0.0
1001
ACDBBLOCKREPETAG
1070
     1
1071
       31
1005
12F6B8
  0
LINE
  5
12F6B9
  8
OBJECT
 10
3133.0
 20
-3242.9999999999959
 30
0.0
 11
3097.0
 21
-3242.9999999999959
 31
0.0
1001
ACDBBLOCKREPETAG
1070
     1
1071
       32
1005
12F6B9
  0
LINE
  5
12F6BA
  8
OBJECT
 10
3097.0
 20
-3242.9999999999959
 30
0.0
 11
3097.0
 21
-3346.9999999999959
 31
0.0
1001
ACDBBLOCKREPETAG
1070
     1
1071
       33
1005
12F6BA
  0
LINE
  5
12F6BB
  8
OBJECT
 10
3097.0
 20
-3346.9999999999959
 30
0.0
 11
3133.0
 21
-3346.9999999999959
 31
0.0
1001
ACDBBLOCKREPETAG
1070
     1
1071
       34
1005
12F6BB
  0
LINE
  5
12F6BC
  8
OBJECT
 10
3093.0
 20
-3247.4999999999959
 30
0.0
 11
3086.0
 21
-3247.4999999999959
 31
0.0
1001
ACDBBLOCKREPETAG
1070
     1
1071
       35
1005
12F6BC
  0
LINE
  5
12F6BD
  8
OBJECT
 10
3086.0
 20
-3342.4999999999959
 30
0.0
 11
3093.0
 21
-3342.4999999999959
 31
0.0
1001
ACDBBLOCKREPETAG
1070
     1
1071
       36
1005
12F6BD
  0
LINE
  5
12F6BE
  8
OBJECT
 10
3093.0
 20
-3342.4999999999959
 30
0.0
 11
3093.0
 21
-3247.4999999999959
 31
0.0
1001
ACDBBLOCKREPETAG
1070
     1
1071
       37
1005
12F6BE
  0
LINE
  5
12F6BF
  8
OBJECT
 10
3097.0
 20
-3242.9999999999959
 30
0.0
 11
3093.0
 21
-3247.4999999999959
 31
0.0
1001
ACDBBLOCKREPETAG
1070
     1
1071
       38
1005
12F6BF
  0
LINE
  5
12F6C0
  8
OBJECT
 10
3097.0
 20
-3346.9999999999959
 30
0.0
 11
3093.0
 21
-3342.4999999999959
 31
0.0
1001
ACDBBLOCKREPETAG
1070
     1
1071
       39
1005
12F6C0
  0
LINE
  5
12F6C1
  8
OBJECT
 10
3083.0
 20
-3232.9999999999959
 30
0.0
 11
3080.0
 21
-3232.9999999999959
 31
0.0
1001
ACDBBLOCKREPETAG
1070
     1
1071
       40
1005
12F6C1
  0
ARC
  5
12F6C2
  8
OBJECT
 10
3083.0
 20
-3235.9999999999959
 30
0.0
 40
3.0
 50
0.0
 51
90.0
1001
ACDBBLOCKREPETAG
1070
     1
1071
       41
1005
12F6C2
  0
LINE
  5
12F6C3
  8
OBJECT
 10
3080.0
 20
-3356.9999999999959
 30
0.0
 11
3083.0
 21
-3356.9999999999959
 31
0.0
1001
ACDBBLOCKREPETAG
1070
     1
1071
       42
1005
12F6C3
  0
ARC
  5
12F6C4
  8
OBJECT
 10
3083.0
 20
-3353.9999999999959
 30
0.0
 40
3.0
 50
270.0
 51
0.0
1001
ACDBBLOCKREPETAG
1070
     1
1071
       43
1005
12F6C4
  0
LINE
  5
12F6C5
  8
OBJECT
 10
3086.0
 20
-3353.9999999999959
 30
0.0
 11
3086.0
 21
-3235.9999999999959
 31
0.0
1001
ACDBBLOCKREPETAG
1070
     1
1071
       44
1005
12F6C5
  0
LINE
  5
12F6C6
  8
HIDDEN
 10
3088.0
 20
-3256.9999999999959
 30
0.0
 11
3088.0
 21
-3332.9999999999968
 31
0.0
1001
ACDBBLOCKREPETAG
1070
     1
1071
       45
1005
12F6C6
  0
TEXT
  5
12F6C7
  8
SLIM
 10
2894.25
 20
-3817.4999999999959
 30
0.0
 40
35.0
  1
通常枝65（2）
 41
0.75
  0
CIRCLE
  5
12F6C8
  8
OBJECT
 10
2400.0
 20
-3640.9999999999968
 30
0.0
 40
62.0
1001
ACDBBLOCKREPETAG
1070
     1
1071
        3
1005
12F6C8
  0
LINE
  5
12F6C9
  8
CENTER
 10
2338.0
 20
-3655.9999999999968
 30
0.0
 11
2462.0
 21
-3655.9999999999968
 31
0.0
1001
ACDBBLOCKREPETAG
1070
     1
1071
        4
1005
12F6C9
  0
CIRCLE
  5
12F6CA
  8
OBJECT
 10
2400.0
 20
-3655.9999999999968
 30
0.0
 40
28.0
1001
ACDBBLOCKREPETAG
1070
     1
1071
        6
1005
12F6CA
  0
CIRCLE
  5
12F6CB
  8
OBJECT
 10
2400.0
 20
-3655.9999999999968
 30
0.0
 40
39.0
1001
ACDBBLOCKREPETAG
1070
     1
1071
        7
1005
12F6CB
  0
ARC
  5
12F6CC
  8
OBJECT
 10
2400.0
 20
-3655.9999999999968
 30
0.0
 40
47.0
 50
290.58196921144412
 51
249.41803078855591
1001
ACDBBLOCKREPETAG
1070
     1
1071
        8
1005
12F6CC
  0
LINE
  5
12F6CD
  8
OBJECT
 10
2383.4772883581431
 20
-3699.9999999999968
 30
0.0
 11
2416.5227116418569
 21
-3699.9999999999968
 31
0.0
1001
ACDBBLOCKREPETAG
1070
     1
1071
        9
1005
12F6CD
  0
LINE
  5
12F6CE
  8
OBJECT
 10
2133.0
 20
-3608.9999999999968
 30
0.0
 11
2140.0
 21
-3608.9999999999968
 31
0.0
1001
ACDBBLOCKREPETAG
1070
     1
1071
        7
1005
12F6CE
  0
LINE
  5
12F6CF
  8
OBJECT
 10
2140.0
 20
-3608.9999999999968
 30
0.0
 11
2140.0
 21
-3699.9999999999968
 31
0.0
1001
ACDBBLOCKREPETAG
1070
     1
1071
        8
1005
12F6CF
  0
LINE
  5
12F6D0
  8
OBJECT
 10
2133.0
 20
-3699.9999999999968
 30
0.0
 11
2133.0
 21
-3608.9999999999968
 31
0.0
1001
ACDBBLOCKREPETAG
1070
     1
1071
        9
1005
12F6D0
  0
LINE
  5
12F6D1
  8
CENTER
 10
2155.0
 20
-3655.9999999999968
 30
0.0
 11
2071.0
 21
-3655.9999999999968
 31
0.0
1001
ACDBBLOCKREPETAG
1070
     1
1071
       10
1005
12F6D1
  0
LINE
  5
12F6D2
  8
OBJECT
 10
2133.0
 20
-3611.9999999999968
 30
0.0
 11
2097.0
 21
-3611.9999999999968
 31
0.0
1001
ACDBBLOCKREPETAG
1070
     1
1071
       11
1005
12F6D2
  0
LINE
  5
12F6D3
  8
OBJECT
 10
2097.0
 20
-3611.9999999999968
 30
0.0
 11
2097.0
 21
-3699.9999999999968
 31
0.0
1001
ACDBBLOCKREPETAG
1070
     1
1071
       12
1005
12F6D3
  0
LINE
  5
12F6D4
  8
OBJECT
 10
2097.0
 20
-3699.9999999999968
 30
0.0
 11
2140.0
 21
-3699.9999999999968
 31
0.0
1001
ACDBBLOCKREPETAG
1070
     1
1071
       13
1005
12F6D4
  0
LINE
  5
12F6D5
  8
OBJECT
 10
2093.0
 20
-3616.4999999999968
 30
0.0
 11
2086.0
 21
-3616.4999999999968
 31
0.0
1001
ACDBBLOCKREPETAG
1070
     1
1071
       14
1005
12F6D5
  0
LINE
  5
12F6D6
  8
OBJECT
 10
2086.0
 20
-3695.4999999999968
 30
0.0
 11
2093.0
 21
-3695.4999999999968
 31
0.0
1001
ACDBBLOCKREPETAG
1070
     1
1071
       15
1005
12F6D6
  0
LINE
  5
12F6D7
  8
OBJECT
 10
2093.0
 20
-3695.4999999999968
 30
0.0
 11
2093.0
 21
-3616.4999999999968
 31
0.0
1001
ACDBBLOCKREPETAG
1070
     1
1071
       16
1005
12F6D7
  0
LINE
  5
12F6D8
  8
OBJECT
 10
2097.0
 20
-3611.9999999999968
 30
0.0
 11
2093.0
 21
-3616.4999999999968
 31
0.0
1001
ACDBBLOCKREPETAG
1070
     1
1071
       17
1005
12F6D8
  0
LINE
  5
12F6D9
  8
OBJECT
 10
2097.0
 20
-3699.9999999999968
 30
0.0
 11
2093.0
 21
-3695.4999999999968
 31
0.0
1001
ACDBBLOCKREPETAG
1070
     1
1071
       18
1005
12F6D9
  0
LINE
  5
12F6DA
  8
OBJECT
 10
2083.0
 20
-3578.9999999999968
 30
0.0
 11
2080.0
 21
-3578.9999999999968
 31
0.0
1001
ACDBBLOCKREPETAG
1070
     1
1071
       19
1005
12F6DA
  0
ARC
  5
12F6DB
  8
OBJECT
 10
2083.0
 20
-3581.9999999999968
 30
0.0
 40
3.0
 50
0.0
 51
90.0
1001
ACDBBLOCKREPETAG
1070
     1
1071
       20
1005
12F6DB
  0
LINE
  5
12F6DC
  8
OBJECT
 10
2080.0
 20
-3702.9999999999968
 30
0.0
 11
2083.0
 21
-3702.9999999999968
 31
0.0
1001
ACDBBLOCKREPETAG
1070
     1
1071
       21
1005
12F6DC
  0
ARC
  5
12F6DD
  8
OBJECT
 10
2083.0
 20
-3699.9999999999968
 30
0.0
 40
3.0
 50
270.0
 51
0.0
1001
ACDBBLOCKREPETAG
1070
     1
1071
       22
1005
12F6DD
  0
LINE
  5
12F6DE
  8
OBJECT
 10
2086.0
 20
-3699.9999999999968
 30
0.0
 11
2086.0
 21
-3581.9999999999968
 31
0.0
1001
ACDBBLOCKREPETAG
1070
     1
1071
       23
1005
12F6DE
  0
LINE
  5
12F6DF
  8
HIDDEN
 10
2088.0
 20
-3625.9999999999968
 30
0.0
 11
2088.0
 21
-3685.9999999999968
 31
0.0
1001
ACDBBLOCKREPETAG
1070
     1
1071
       24
1005
12F6DF
  0
LINE
  5
12F6E0
  8
OBJECT
 10
2133.0
 20
-3247.9999999999959
 30
0.0
 11
2140.0
 21
-3247.9999999999959
 31
0.0
1001
ACDBBLOCKREPETAG
1070
     1
1071
        7
1005
12F6E0
  0
LINE
  5
12F6E1
  8
OBJECT
 10
2140.0
 20
-3247.9999999999959
 30
0.0
 11
2140.0
 21
-3341.9999999999959
 31
0.0
1001
ACDBBLOCKREPETAG
1070
     1
1071
        8
1005
12F6E1
  0
LINE
  5
12F6E2
  8
OBJECT
 10
2140.0
 20
-3341.9999999999959
 30
0.0
 11
2133.0
 21
-3341.9999999999959
 31
0.0
1001
ACDBBLOCKREPETAG
1070
     1
1071
        9
1005
12F6E2
  0
LINE
  5
12F6E3
  8
OBJECT
 10
2133.0
 20
-3341.9999999999959
 30
0.0
 11
2133.0
 21
-3247.9999999999959
 31
0.0
1001
ACDBBLOCKREPETAG
1070
     1
1071
       10
1005
12F6E3
  0
LINE
  5
12F6E4
  8
CENTER
 10
2155.0
 20
-3294.9999999999959
 30
0.0
 11
2080.0
 21
-3294.9999999999959
 31
0.0
1001
ACDBBLOCKREPETAG
1070
     1
1071
       11
1005
12F6E4
  0
LINE
  5
12F6E5
  8
OBJECT
 10
2133.0
 20
-3250.9999999999959
 30
0.0
 11
2097.0
 21
-3250.9999999999959
 31
0.0
1001
ACDBBLOCKREPETAG
1070
     1
1071
       12
1005
12F6E5
  0
LINE
  5
12F6E6
  8
OBJECT
 10
2097.0
 20
-3250.9999999999959
 30
0.0
 11
2097.0
 21
-3338.9999999999959
 31
0.0
1001
ACDBBLOCKREPETAG
1070
     1
1071
       13
1005
12F6E6
  0
LINE
  5
12F6E7
  8
OBJECT
 10
2097.0
 20
-3338.9999999999959
 30
0.0
 11
2133.0
 21
-3338.9999999999959
 31
0.0
1001
ACDBBLOCKREPETAG
1070
     1
1071
       14
1005
12F6E7
  0
LINE
  5
12F6E8
  8
OBJECT
 10
2093.0
 20
-3255.4999999999959
 30
0.0
 11
2086.0
 21
-3255.4999999999959
 31
0.0
1001
ACDBBLOCKREPETAG
1070
     1
1071
       15
1005
12F6E8
  0
LINE
  5
12F6E9
  8
OBJECT
 10
2086.0
 20
-3334.4999999999959
 30
0.0
 11
2093.0
 21
-3334.4999999999959
 31
0.0
1001
ACDBBLOCKREPETAG
1070
     1
1071
       16
1005
12F6E9
  0
LINE
  5
12F6EA
  8
OBJECT
 10
2093.0
 20
-3334.4999999999959
 30
0.0
 11
2093.0
 21
-3255.4999999999959
 31
0.0
1001
ACDBBLOCKREPETAG
1070
     1
1071
       17
1005
12F6EA
  0
LINE
  5
12F6EB
  8
OBJECT
 10
2097.0
 20
-3250.9999999999959
 30
0.0
 11
2093.0
 21
-3255.4999999999959
 31
0.0
1001
ACDBBLOCKREPETAG
1070
     1
1071
       18
1005
12F6EB
  0
LINE
  5
12F6EC
  8
OBJECT
 10
2097.0
 20
-3338.9999999999959
 30
0.0
 11
2093.0
 21
-3334.4999999999959
 31
0.0
1001
ACDBBLOCKREPETAG
1070
     1
1071
       19
1005
12F6EC
  0
LINE
  5
12F6ED
  8
OBJECT
 10
2083.0
 20
-3232.9999999999959
 30
0.0
 11
2080.0
 21
-3232.9999999999959
 31
0.0
1001
ACDBBLOCKREPETAG
1070
     1
1071
       20
1005
12F6ED
  0
ARC
  5
12F6EE
  8
OBJECT
 10
2083.0
 20
-3235.9999999999959
 30
0.0
 40
3.0
 50
0.0
 51
90.0
1001
ACDBBLOCKREPETAG
1070
     1
1071
       21
1005
12F6EE
  0
LINE
  5
12F6EF
  8
OBJECT
 10
2080.0
 20
-3356.9999999999959
 30
0.0
 11
2083.0
 21
-3356.9999999999959
 31
0.0
1001
ACDBBLOCKREPETAG
1070
     1
1071
       22
1005
12F6EF
  0
ARC
  5
12F6F0
  8
OBJECT
 10
2083.0
 20
-3353.9999999999959
 30
0.0
 40
3.0
 50
270.0
 51
0.0
1001
ACDBBLOCKREPETAG
1070
     1
1071
       23
1005
12F6F0
  0
LINE
  5
12F6F1
  8
OBJECT
 10
2086.0
 20
-3353.9999999999959
 30
0.0
 11
2086.0
 21
-3235.9999999999959
 31
0.0
1001
ACDBBLOCKREPETAG
1070
     1
1071
       24
1005
12F6F1
  0
LINE
  5
12F6F2
  8
HIDDEN
 10
2088.0
 20
-3264.9999999999968
 30
0.0
 11
2088.0
 21
-3324.9999999999959
 31
0.0
1001
ACDBBLOCKREPETAG
1070
     1
1071
       25
1005
12F6F2
  0
TEXT
  5
12F6F3
  8
SLIM
 10
1896.75
 20
-3817.4999999999959
 30
0.0
 40
35.0
  1
通常枝50（1）
 41
0.75
  0
LINE
  5
12F6F4
  8
OBJECT
 10
3930.0
 20
-1364.999999999997
 30
0.0
 11
4070.0
 21
-1364.999999999997
 31
0.0
1001
ACDBBLOCKREPETAG
1070
     1
1071
        0
1005
12F6F4
  0
LINE
  5
12F6F5
  8
OBJECT
 10
3930.0
 20
-1364.999999999997
 30
0.0
 11
3930.0
 21
-1124.999999999997
 31
0.0
1001
ACDBBLOCKREPETAG
1070
     1
1071
        1
1005
12F6F5
  0
LINE
  5
12F6F6
  8
OBJECT
 10
4070.0
 20
-1364.999999999997
 30
0.0
 11
4070.0
 21
-1124.999999999997
 31
0.0
1001
ACDBBLOCKREPETAG
1070
     1
1071
        2
1005
12F6F6
  0
LINE
  5
12F6F7
  8
OBJECT
 10
3930.0
 20
-1124.999999999997
 30
0.0
 11
4070.0
 21
-1124.999999999997
 31
0.0
1001
ACDBBLOCKREPETAG
1070
     1
1071
        3
1005
12F6F7
  0
LINE
  5
12F6F8
  8
HIDDEN
 10
3937.5
 20
-1124.999999999997
 30
0.0
 11
3937.5
 21
-1364.999999999997
 31
0.0
1001
ACDBBLOCKREPETAG
1070
     1
1071
        4
1005
12F6F8
  0
LINE
  5
12F6F9
  8
HIDDEN
 10
4062.5
 20
-1124.999999999997
 30
0.0
 11
4062.5
 21
-1364.999999999997
 31
0.0
1001
ACDBBLOCKREPETAG
1070
     1
1071
        5
1005
12F6F9
  0
LINE
  5
12F6FA
  8
CENTER
 10
4000.0
 20
-1054.9999999999991
 30
0.0
 11
4000.0
 21
-1379.999999999997
 31
0.0
1001
ACDBBLOCKREPETAG
1070
     1
1071
        6
1005
12F6FA
  0
LINE
  5
12F6FB
  8
OBJECT
 10
3925.0
 20
-1054.9999999999991
 30
0.0
 11
3925.0
 21
-1084.999999999997
 31
0.0
1001
ACDBBLOCKREPETAG
1070
     1
1071
        7
1005
12F6FB
  0
LINE
  5
12F6FC
  8
OBJECT
 10
4075.0000000000032
 20
-1054.9999999999991
 30
0.0
 11
4075.0
 21
-1084.999999999997
 31
0.0
1001
ACDBBLOCKREPETAG
1070
     1
1071
        8
1005
12F6FC
  0
LINE
  5
12F6FD
  8
OBJECT
 10
3925.0
 20
-1084.999999999997
 30
0.0
 11
4075.0
 21
-1084.999999999997
 31
0.0
1001
ACDBBLOCKREPETAG
1070
     1
1071
        9
1005
12F6FD
  0
LINE
  5
12F6FE
  8
OBJECT
 10
3925.0
 20
-1084.999999999997
 30
0.0
 11
3930.0
 21
-1124.999999999997
 31
0.0
1001
ACDBBLOCKREPETAG
1070
     1
1071
       10
1005
12F6FE
  0
LINE
  5
12F6FF
  8
OBJECT
 10
4070.0
 20
-1124.999999999997
 30
0.0
 11
4075.0
 21
-1084.999999999997
 31
0.0
1001
ACDBBLOCKREPETAG
1070
     1
1071
       11
1005
12F6FF
  0
LINE
  5
12F700
  8
OBJECT
 10
1930.0
 20
-1364.999999999997
 30
0.0
 11
2070.0
 21
-1364.999999999997
 31
0.0
1001
ACDBBLOCKREPETAG
1070
     1
1071
        0
1005
12F700
  0
LINE
  5
12F701
  8
OBJECT
 10
1930.0
 20
-1364.999999999997
 30
0.0
 11
1930.0
 21
-1124.999999999998
 31
0.0
1001
ACDBBLOCKREPETAG
1070
     1
1071
        1
1005
12F701
  0
LINE
  5
12F702
  8
OBJECT
 10
2070.0
 20
-1364.999999999997
 30
0.0
 11
2070.0
 21
-1124.999999999998
 31
0.0
1001
ACDBBLOCKREPETAG
1070
     1
1071
        2
1005
12F702
  0
LINE
  5
12F703
  8
OBJECT
 10
1930.0
 20
-1124.999999999998
 30
0.0
 11
2070.0
 21
-1124.999999999998
 31
0.0
1001
ACDBBLOCKREPETAG
1070
     1
1071
        3
1005
12F703
  0
LINE
  5
12F704
  8
HIDDEN
 10
1937.5
 20
-1124.999999999998
 30
0.0
 11
1937.5
 21
-1364.999999999997
 31
0.0
1001
ACDBBLOCKREPETAG
1070
     1
1071
        4
1005
12F704
  0
LINE
  5
12F705
  8
HIDDEN
 10
2062.5
 20
-1124.999999999998
 30
0.0
 11
2062.5
 21
-1364.999999999997
 31
0.0
1001
ACDBBLOCKREPETAG
1070
     1
1071
        5
1005
12F705
  0
LINE
  5
12F706
  8
CENTER
 10
2000.0
 20
-1054.9999999999991
 30
0.0
 11
2000.0
 21
-1379.999999999998
 31
0.0
1001
ACDBBLOCKREPETAG
1070
     1
1071
        6
1005
12F706
  0
LINE
  5
12F707
  8
OBJECT
 10
1925.0
 20
-1054.9999999999991
 30
0.0
 11
1925.0
 21
-1084.999999999998
 31
0.0
1001
ACDBBLOCKREPETAG
1070
     1
1071
        7
1005
12F707
  0
LINE
  5
12F708
  8
OBJECT
 10
2075.0000000000041
 20
-1054.9999999999991
 30
0.0
 11
2075.0
 21
-1084.999999999998
 31
0.0
1001
ACDBBLOCKREPETAG
1070
     1
1071
        8
1005
12F708
  0
LINE
  5
12F709
  8
OBJECT
 10
1925.0
 20
-1084.999999999998
 30
0.0
 11
2075.0
 21
-1084.999999999998
 31
0.0
1001
ACDBBLOCKREPETAG
1070
     1
1071
        9
1005
12F709
  0
LINE
  5
12F70A
  8
OBJECT
 10
1925.0
 20
-1084.999999999998
 30
0.0
 11
1930.0
 21
-1124.999999999998
 31
0.0
1001
ACDBBLOCKREPETAG
1070
     1
1071
       10
1005
12F70A
  0
LINE
  5
12F70B
  8
OBJECT
 10
2070.0
 20
-1124.999999999998
 30
0.0
 11
2075.0
 21
-1084.999999999998
 31
0.0
1001
ACDBBLOCKREPETAG
1070
     1
1071
       11
1005
12F70B
  0
TEXT
  5
12F70C
  8
SLIM
 10
3741.6250000000009
 20
-1632.499999999997
 30
0.0
 40
35.0
  1
片受けスタイル（S）＋シンドカット
 41
0.75
  0
TEXT
  5
12F70D
  8
SLIM
 10
1856.25
 20
-1632.499999999998
 30
0.0
 40
35.0
  1
片受けスタイル（S）
 41
0.75
  0
VIEWPORT
  5
F6BA7
 67
     1
  8
0
 10
145.33033752441401
 20
101.8328354358673
 30
0.0
 40
334.0025019414623
 41
222.19657968139651
 68
     1
 69
     1
1001
ACAD
1000
MVIEW
1002
{
1070
    16
1010
0.0
1020
0.0
1030
0.0
1010
0.0
1020
0.0
1030
1.0
1040
0.0
1040
222.19657968139651
1040
145.33033752441401
1040
101.8328354358673
1040
50.0
1040
0.0
1040
0.0
1070
     0
1070
     0
1070
     1
1070
     1
1070
     0
1070
     0
1070
     0
1070
     0
1040
0.0
1040
0.0
1040
0.0
1040
10.0
1040
10.0
1040
10.0
1040
10.0
1070
     0
1002
{
1002
}
1002
}
  0
VIEWPORT
  5
F6BA9
 67
     1
  8
OBJECT
 10
145.3303314447403
 20
101.8328338861465
 30
0.0
 40
232.5285303115844
 41
162.93253421783439
 68
     2
 69
     2
1001
ACAD
1000
MVIEW
1002
{
1070
    16
1010
0.0
1020
0.0
1030
0.0
1010
0.0
1020
0.0
1030
1.0
1040
0.0
1040
25942.55904403147
1040
2377.604457077377
1040
-7591.5176687056619
1040
50.0
1040
0.0
1040
0.0
1070
     0
1070
   600
1070
     1
1070
     1
1070
     0
1070
     0
1070
     0
1070
     0
1040
0.0
1040
0.0
1040
0.0
1040
1.0
1040
1.0
1040
0.0
1040
0.0
1070
     0
1002
{
1002
}
1002
}
  0
ENDSEC
  0
EOF
