  0
SECTION
  2
HEADER
  9
$ACADVER
  1
AC1009
  9
$INSBASE
 10
0.0
 20
0.0
 30
0.0
  9
$EXTMIN
 10
-0.0000000000002274
 20
-3982.499999999998181
 30
0.0
  9
$EXTMAX
 10
5607.5428571428556097
 20
607.5
 30
0.0
  9
$LIMMIN
 10
0.0
 20
0.0
  9
$LIMMAX
 10
210.0
 20
297.0
  9
$ORTHOMODE
 70
     0
  9
$REGENMODE
 70
     1
  9
$FILLMODE
 70
     1
  9
$QTEXTMODE
 70
     0
  9
$MIRRTEXT
 70
     0
  9
$DRAGMODE
 70
     2
  9
$LTSCALE
 40
1.0
  9
$OSMODE
 70
   381
  9
$ATTMODE
 70
     1
  9
$TEXTSIZE
 40
4.0
  9
$TRACEWID
 40
0.05
  9
$TEXTSTYLE
  7
STANDARD
  9
$CLAYER
  8
SLIM
  9
$CELTYPE
  6
BYLAYER
  9
$CECOLOR
 62
   256
  9
$DIMSCALE
 40
10.0
  9
$DIMASZ
 40
2.0
  9
$DIMEXO
 40
1.0
  9
$DIMDLI
 40
10.0
  9
$DIMRND
 40
0.0
  9
$DIMDLE
 40
0.0
  9
$DIMEXE
 40
1.0
  9
$DIMTP
 40
0.0
  9
$DIMTM
 40
0.0
  9
$DIMTXT
 40
3.2000000000000002
  9
$DIMCEN
 40
0.0
  9
$DIMTSZ
 40
0.0
  9
$DIMTOL
 70
     0
  9
$DIMLIM
 70
     0
  9
$DIMTIH
 70
     0
  9
$DIMTOH
 70
     0
  9
$DIMSE1
 70
     0
  9
$DIMSE2
 70
     0
  9
$DIMTAD
 70
     1
  9
$DIMZIN
 70
     8
  9
$DIMBLK
  1
OPEN30
  9
$DIMASO
 70
     1
  9
$DIMSHO
 70
     1
  9
$DIMPOST
  1

  9
$DIMAPOST
  1

  9
$DIMALT
 70
     0
  9
$DIMALTD
 70
     2
  9
$DIMALTF
 40
25.3999999999999986
  9
$DIMLFAC
 40
1.0
  9
$DIMTOFL
 70
     1
  9
$DIMTVP
 40
0.0
  9
$DIMTIX
 70
     0
  9
$DIMSOXD
 70
     0
  9
$DIMSAH
 70
     0
  9
$DIMBLK1
  1

  9
$DIMBLK2
  1

  9
$DIMSTYLE
  2
S10
  9
$DIMCLRD
 70
   256
  9
$DIMCLRE
 70
   256
  9
$DIMCLRT
 70
   256
  9
$DIMTFAC
 40
1.0
  9
$DIMGAP
 40
0.9
  9
$LUNITS
 70
     2
  9
$LUPREC
 70
     2
  9
$SKETCHINC
 40
0.1
  9
$FILLETRAD
 40
0.0
  9
$AUNITS
 70
     0
  9
$AUPREC
 70
     2
  9
$MENU
  1
ACAD
  9
$ELEVATION
 40
0.0
  9
$PELEVATION
 40
0.0
  9
$THICKNESS
 40
0.0
  9
$LIMCHECK
 70
     0
  9
$BLIPMODE
 70
     0
  9
$CHAMFERA
 40
2.0
  9
$CHAMFERB
 40
2.0
  9
$SKPOLY
 70
     0
  9
$TDCREATE
 40
2453095.4929398149251938
  9
$TDUPDATE
 40
2458429.8163773152045906
  9
$TDINDWG
 40
21.3817080323999988
  9
$TDUSRTIMER
 40
21.3817074884
  9
$USRTIMER
 70
     1
  9
$ANGBASE
 50
0.0
  9
$ANGDIR
 70
     0
  9
$PDMODE
 70
    35
  9
$PDSIZE
 40
2.0
  9
$PLINEWID
 40
0.0
  9
$COORDS
 70
     1
  9
$SPLFRAME
 70
     0
  9
$SPLINETYPE
 70
     6
  9
$SPLINESEGS
 70
     8
  9
$ATTDIA
 70
     1
  9
$ATTREQ
 70
     1
  9
$HANDLING
 70
     1
  9
$HANDSEED
  5
128357
  9
$SURFTAB1
 70
     6
  9
$SURFTAB2
 70
     6
  9
$SURFTYPE
 70
     6
  9
$SURFU
 70
     6
  9
$SURFV
 70
     6
  9
$UCSNAME
  2

  9
$UCSORG
 10
0.0
 20
0.0
 30
0.0
  9
$UCSXDIR
 10
1.0
 20
0.0
 30
0.0
  9
$UCSYDIR
 10
0.0
 20
1.0
 30
0.0
  9
$PUCSNAME
  2

  9
$PUCSORG
 10
0.0
 20
0.0
 30
0.0
  9
$PUCSXDIR
 10
1.0
 20
0.0
 30
0.0
  9
$PUCSYDIR
 10
0.0
 20
1.0
 30
0.0
  9
$USERI1
 70
     0
  9
$USERI2
 70
     0
  9
$USERI3
 70
     0
  9
$USERI4
 70
     0
  9
$USERI5
 70
     0
  9
$USERR1
 40
0.0
  9
$USERR2
 40
0.0
  9
$USERR3
 40
0.0
  9
$USERR4
 40
0.0
  9
$USERR5
 40
0.0
  9
$WORLDVIEW
 70
     1
  9
$SHADEDGE
 70
     3
  9
$SHADEDIF
 70
    70
  9
$TILEMODE
 70
     1
  9
$MAXACTVP
 70
    64
  9
$PLIMCHECK
 70
     0
  9
$PEXTMIN
 10
29.0660662889480506
 20
20.3665667772293091
 30
0.0
  9
$PEXTMAX
 10
261.5945966005324976
 20
183.2991009950638102
 30
0.0
  9
$PLIMMIN
 10
-3.17498779296875
 20
-3.1749999523162842
  9
$PLIMMAX
 10
293.835662841796875
 20
206.8406708240509033
  9
$UNITMODE
 70
     0
  9
$VISRETAIN
 70
     1
  9
$PLINEGEN
 70
     0
  9
$PSLTSCALE
 70
     1
  0
ENDSEC
  0
SECTION
  2
TABLES
  0
TABLE
  2
VPORT
 70
     1
  0
VPORT
  2
*ACTIVE
 70
     0
 10
0.0
 20
0.0
 11
1.0
 21
1.0
 12
4901.8807544086193957
 22
-2156.6014336153880322
 13
0.0
 23
0.0
 14
1.0
 24
1.0
 15
0.0
 25
0.0
 16
0.0
 26
0.0
 36
1.0
 17
0.0
 27
0.0
 37
0.0
 40
8547.1685461359847977
 41
1.682894736842105
 42
50.0
 43
0.0
 44
0.0
 50
0.0
 51
0.0
 71
     0
 72
   600
 73
     1
 74
     1
 75
     0
 76
     0
 77
     0
 78
     0
  0
ENDTAB
  0
TABLE
  2
LTYPE
 70
     3
  0
LTYPE
  2
CONTINUOUS
 70
     0
  3
Solid line
 72
    65
 73
     0
 40
0.0
  0
LTYPE
  2
ACAD_ISO08W100
 70
     0
  3
ISO long-dash short-dash ____ __ ____ __ ____ _
 72
    65
 73
     4
 40
36.0
 49
24.0
 49
-3.0
 49
6.0
 49
-3.0
  0
LTYPE
  2
ACAD_ISO02W100
 70
     0
  3
ISO dash __ __ __ __ __ __ __ __ __ __ __ __ __
 72
    65
 73
     2
 40
15.0
 49
12.0
 49
-3.0
  0
ENDTAB
  0
TABLE
  2
LAYER
 70
     8
  0
LAYER
  2
0
 70
     0
 62
     7
  6
CONTINUOUS
  0
LAYER
  2
SLIM
 70
     0
 62
     2
  6
CONTINUOUS
  0
LAYER
  2
DEFPOINTS
 70
     0
 62
     7
  6
CONTINUOUS
  0
LAYER
  2
DIM
 70
     0
 62
     7
  6
CONTINUOUS
  0
LAYER
  2
OBJECT
 70
     0
 62
     4
  6
CONTINUOUS
  0
LAYER
  2
HIDDEN
 70
     0
 62
     2
  6
ACAD_ISO02W100
  0
LAYER
  2
CENTER
 70
     0
 62
     2
  6
ACAD_ISO08W100
  0
LAYER
  2
DOTS
 70
     0
 62
     1
  6
CONTINUOUS
  0
ENDTAB
  0
TABLE
  2
STYLE
 70
     2
  0
STYLE
  2
STANDARD
 70
     0
 40
0.0
 41
0.75
 50
0.0
 71
     0
 42
4.0
  3
simplex.shx
  4
bigfont.shx
  0
ENDTAB
  0
TABLE
  2
VIEW
 70
     0
  0
ENDTAB
  0
TABLE
  2
UCS
 70
     0
  0
ENDTAB
  0
TABLE
  2
APPID
 70
    20
  0
APPID
  2
ACAD
 70
     0
  0
APPID
  2
ACADANNOTATIVE
 70
     0
  0
APPID
  2
ACAD_PSEXT
 70
     0
  0
APPID
  2
ACAD_EXEMPT_FROM_CAD_STANDARDS
 70
     0
  0
APPID
  2
ACAECLAYERSTANDARD
 70
     0
  0
APPID
  2
ACAUTHENVIRON
 70
     0
  0
APPID
  2
ACDBDYNAMICBLOCKTRUENAME
 70
     0
  0
APPID
  2
ACDBDYNAMICBLOCKGUID
 70
     0
  0
APPID
  2
ACDBBLOCKREPETAG
 70
     0
  0
APPID
  2
ACDBBLOCKREPBTAG
 70
     0
  0
APPID
  2
ACAD_NAV_VCDISPLAY
 70
     0
  0
APPID
  2
ACAD_DSTYLE_DIMRADIAL_EXTENSION
 70
     0
  0
APPID
  2
ACAD_DSTYLE_DIMJAG
 70
     0
  0
APPID
  2
ACAD_DSTYLE_DIMTALN
 70
     0
  0
APPID
  2
ACADANNOPO
 70
     0
  0
APPID
  2
GRADIENTCOLOR1ACI
 70
     0
  0
APPID
  2
GRADIENTCOLOR2ACI
 70
     0
  0
APPID
  2
ACADANNOMONITORALERTICONDI
 70
     0
  0
APPID
  2
CONTENTBLOCKICON
 70
     0
  0
APPID
  2
ACAD_MLEADERVER
 70
     0
  0
ENDTAB
  0
TABLE
  2
DIMSTYLE
 70
     3
  0
DIMSTYLE
  2
STANDARD
 70
     0
  3

  4

  5

  6

  7

 40
1.0
 41
0.18
 42
0.0625
 43
0.38
 44
0.18
 45
0.0
 46
0.0
 47
0.0
 48
0.0
140
0.18
141
0.09
142
0.0
143
25.3999999999999986
144
1.0
145
0.0
146
1.0
147
0.09
 71
     0
 72
     0
 73
     1
 74
     1
 75
     0
 76
     0
 77
     0
 78
     0
170
     0
171
     2
172
     0
173
     0
174
     0
175
     0
176
     0
177
     0
178
     0
  0
DIMSTYLE
  2
S10
 70
     0
  3

  4

  5

  6

  7

 40
10.0
 41
2.0
 42
1.0
 43
10.0
 44
1.0
 45
0.0
 46
0.0
 47
0.0
 48
0.0
140
3.2000000000000002
141
0.0
142
0.0
143
25.3999999999999986
144
1.0
145
0.0
146
1.0
147
0.9
 71
     0
 72
     0
 73
     0
 74
     0
 75
     0
 76
     0
 77
     1
 78
     8
170
     0
171
     2
172
     1
173
     0
174
     0
175
     0
176
   256
177
   256
178
   256
  0
ENDTAB
  0
ENDSEC
  0
SECTION
  2
BLOCKS
  0
BLOCK
  8
0
  2
$MODEL_SPACE
 70
     0
 10
0.0
 20
0.0
 30
0.0
  3
$MODEL_SPACE
  1

  0
ENDBLK
  5
12827F
  8
0
  0
BLOCK
 67
     1
  8
0
  2
$PAPER_SPACE
 70
     0
 10
0.0
 20
0.0
 30
0.0
  3
$PAPER_SPACE
  1

  0
ENDBLK
  5
12827B
 67
     1
  8
0
  0
BLOCK
  8
0
  2
_OPEN30
 70
     0
 10
0.0
 20
0.0
 30
0.0
  3
_OPEN30
  1

  0
LINE
  5
202
  8
0
  6
BYBLOCK
 62
     0
 10
-1.0
 20
0.26794919
 30
0.0
 11
0.0
 21
0.0
 31
0.0
  0
LINE
  5
203
  8
0
  6
BYBLOCK
 62
     0
 10
0.0
 20
0.0
 30
0.0
 11
-1.0
 21
-0.26794919
 31
0.0
  0
LINE
  5
204
  8
0
  6
BYBLOCK
 62
     0
 10
0.0
 20
0.0
 30
0.0
 11
-1.0
 21
0.0
 31
0.0
  0
ENDBLK
  5
206
  8
0
  0
BLOCK
  8
0
  2
*U21
 70
     1
 10
0.0
 20
0.0
 30
0.0
  3
*U21
  1

  0
TEXT
  5
1281D4
  8
DIM
 10
4700.4245816727616329
 20
-868.9999999999957936
 30
0.0
 40
32.0
  1
P
 50
90.0
 41
0.75
  0
ENDBLK
  5
1281D6
  8
0
  0
BLOCK
  8
0
  2
*U22
 70
     1
 10
0.0
 20
0.0
 30
0.0
  3
*U22
  1

  0
TEXT
  5
1281D8
  8
DIM
 10
2700.4245816727589045
 20
-868.9999999999948841
 30
0.0
 40
32.0
  1
P
 50
90.0
 41
0.75
  0
ENDBLK
  5
1281DA
  8
0
  0
BLOCK
  8
0
  2
*U23
 70
     1
 10
0.0
 20
0.0
 30
0.0
  3
*U23
  1

  0
TEXT
  5
1281DC
  8
SLIM
 10
113.0
 20
-1481.0476190476190368
 30
0.0
 40
26.0
  1
75
 50
90.0
  0
ENDBLK
  5
1281DE
  8
0
  0
BLOCK
  8
0
  2
*U24
 70
     1
 10
0.0
 20
0.0
 30
0.0
  3
*U24
  1

  0
TEXT
  5
1281E0
  8
SLIM
 10
473.0
 20
-1017.0476190476190368
 30
0.0
 40
26.0
  1
65
 50
90.0
  0
ENDBLK
  5
1281E2
  8
0
  0
BLOCK
  8
0
  2
*U25
 70
     1
 10
0.0
 20
0.0
 30
0.0
  3
*U25
  1

  0
TEXT
  5
1281E4
  8
SLIM
 10
113.0
 20
-1017.0476190476190368
 30
0.0
 40
26.0
  1
50
 50
90.0
  0
ENDBLK
  5
1281E6
  8
0
  0
BLOCK
  8
0
  2
*U26
 70
     1
 10
0.0
 20
0.0
 30
0.0
  3
*U26
  1

  0
TEXT
  5
1281FC
  8
SLIM
 10
158.9523809524228
 20
-130.0000000001718092
 30
0.0
 40
26.0
  1
50
  0
ENDBLK
  5
1281FE
  8
0
  0
BLOCK
  8
0
  2
*U27
 70
     1
 10
0.0
 20
0.0
 30
0.0
  3
*U27
  1

  0
TEXT
  5
128200
  8
DIM
 10
4334.1164560757752042
 20
-1253.7428571428561099
 30
0.0
 40
32.0
  1
m（シンドカット）
 50
90.0
 41
0.75
  0
ENDBLK
  5
128202
  8
0
  0
BLOCK
  8
0
  2
*U28
 70
     1
 10
0.0
 20
0.0
 30
0.0
  3
*U28
  1

  0
TEXT
  5
128204
  8
DIM
 10
2709.4796205944589929
 20
-3469.1428571428527903
 30
0.0
 40
32.0
  1
A
 50
90.0
 41
0.75
  0
ENDBLK
  5
128206
  8
0
  0
BLOCK
  8
0
  2
*U29
 70
     1
 10
0.0
 20
0.0
 30
0.0
  3
*U29
  1

  0
TEXT
  5
128208
  8
DIM
 10
2707.8409284037338693
 20
-3850.9999999999968168
 30
0.0
 40
32.0
  1
B
 50
90.0
 41
0.75
  0
ENDBLK
  5
12820A
  8
0
  0
BLOCK
  8
0
  2
*U30
 70
     1
 10
0.0
 20
0.0
 30
0.0
  3
*U30
  1

  0
TEXT
  5
12820C
  8
DIM
 10
2561.4285714285711038
 20
-3323.2081219844449151
 30
0.0
 40
32.0
  1
C
 41
0.75
  0
ENDBLK
  5
12820E
  8
0
  0
ENDSEC
  0
SECTION
  2
ENTITIES
  0
LINE
  5
11273E
  8
OBJECT
 10
2325.0
 20
-3864.9999999999968168
 30
0.0
 11
5075.0
 21
-3864.9999999999968168
 31
0.0
  0
LINE
  5
11412B
  8
SLIM
 10
3256.0
 20
-2922.5000160472709467
 30
0.0
 11
3256.0
 21
-3252.5000160472709467
 31
0.0
  0
LINE
  5
11412C
  8
SLIM
 10
3380.0
 20
-2922.5000160472709467
 30
0.0
 11
3380.0
 21
-3252.5000160472709467
 31
0.0
  0
LINE
  5
11412D
  8
SLIM
 10
3510.0
 20
-2982.5000160472700372
 30
0.0
 11
3510.0
 21
-3252.5000160472709467
 31
0.0
  0
LINE
  5
11412E
  8
SLIM
 10
3640.0
 20
-2982.5000160472700372
 30
0.0
 11
3640.0
 21
-3252.5000160472709467
 31
0.0
  0
LINE
  5
11412F
  8
SLIM
 10
3770.0
 20
-3252.5000160472709467
 30
0.0
 11
3770.0
 21
-2922.5000160472709467
 31
0.0
  0
LINE
  5
114131
  8
SLIM
 10
3770.0
 20
-2922.5000160472709467
 30
0.0
 11
3256.0
 21
-2922.5000160472709467
 31
0.0
  0
LINE
  5
114132
  8
SLIM
 10
3769.9999999999990905
 20
-2982.5000160472700372
 30
0.0
 11
3380.0
 21
-2982.5000160472700372
 31
0.0
  0
LINE
  5
114133
  8
SLIM
 10
3770.0
 20
-3042.5000160472709467
 30
0.0
 11
3256.0
 21
-3042.5000160472709467
 31
0.0
  0
LINE
  5
114134
  8
SLIM
 10
3770.0
 20
-3112.5000160472709467
 30
0.0
 11
3256.0
 21
-3112.5000160472709467
 31
0.0
  0
LINE
  5
114135
  8
SLIM
 10
3770.0
 20
-3182.5000160472709467
 30
0.0
 11
3256.0
 21
-3182.5000160472709467
 31
0.0
  0
LINE
  5
114136
  8
SLIM
 10
3770.0
 20
-3252.5000160472709467
 30
0.0
 11
3256.0
 21
-3252.5000160472709467
 31
0.0
  0
LINE
  5
11414B
  8
SLIM
 10
3380.0
 20
-3042.5000160472709467
 30
0.0
 11
3255.9999722746579209
 21
-2922.5000000000009095
 31
0.0
  0
LINE
  5
1238B4
  8
CENTER
 10
2580.0
 20
-3459.9999999999968168
 30
0.0
 11
2410.0
 21
-3459.9999999999968168
 31
0.0
1001
ACDBBLOCKREPETAG
1070
     1
1071
       14
1005
122545
  0
LINE
  5
1238B5
  8
CENTER
 10
2500.0
 20
-3549.9999999999968168
 30
0.0
 11
2500.0
 21
-3369.9999999999968168
 31
0.0
1001
ACDBBLOCKREPETAG
1070
     1
1071
       15
1005
122546
  0
CIRCLE
  5
1238B6
  8
OBJECT
 10
2500.0
 20
-3459.9999999999968168
 30
0.0
 40
70.0
1001
ACDBBLOCKREPETAG
1070
     1
1071
       16
1005
122547
  0
CIRCLE
  5
1238B7
  8
OBJECT
 10
2500.0
 20
-3459.9999999999968168
 30
0.0
 40
75.0
1001
ACDBBLOCKREPETAG
1070
     1
1071
       17
1005
122548
  0
LINE
  5
123927
  8
CENTER
 10
2500.0
 20
-3644.9999999999990905
 30
0.0
 11
2500.0
 21
-3891.9999999999990905
 31
0.0
1001
ACDBBLOCKREPETAG
1070
     1
1071
       25
1005
123927
  0
LINE
  5
123928
  8
OBJECT
 10
2425.0
 20
-3659.9999999999968168
 30
0.0
 11
2425.0
 21
-3879.9999999999990905
 31
0.0
1001
ACDBBLOCKREPETAG
1070
     1
1071
       26
1005
123928
  0
LINE
  5
12392C
  8
OBJECT
 10
2575.0
 20
-3659.9999999999968168
 30
0.0
 11
2575.0
 21
-3756.5000000000618456
 31
0.0
1001
ACDBBLOCKREPETAG
1070
     1
1071
       34
1005
12392C
  0
LINE
  5
123A5C
  8
OBJECT
 10
2575.0
 20
-3862.4999999999990905
 30
0.0
 11
2575.0
 21
-3879.9999999999990905
 31
0.0
1001
ACDBBLOCKREPETAG
1070
     1
1071
       34
1005
12392C
  0
LINE
  5
123A5E
  8
CENTER
 10
2900.0
 20
-3644.9999999999990905
 30
0.0
 11
2900.0
 21
-3891.9999999999990905
 31
0.0
1001
ACDBBLOCKREPETAG
1070
     1
1071
       25
1005
123927
  0
LINE
  5
123A5F
  8
OBJECT
 10
2825.0
 20
-3659.9999999999968168
 30
0.0
 11
2825.0
 21
-3879.9999999999990905
 31
0.0
1001
ACDBBLOCKREPETAG
1070
     1
1071
       26
1005
123928
  0
LINE
  5
123A60
  8
OBJECT
 10
2975.0
 20
-3659.9999999999968168
 30
0.0
 11
2975.0
 21
-3879.9999999999990905
 31
0.0
1001
ACDBBLOCKREPETAG
1070
     1
1071
       34
1005
12392C
  0
LINE
  5
123AD2
  8
CENTER
 10
3580.0
 20
-3459.9999999999968168
 30
0.0
 11
3410.0
 21
-3459.9999999999968168
 31
0.0
1001
ACDBBLOCKREPETAG
1070
     1
1071
       14
1005
122545
  0
LINE
  5
123AD3
  8
CENTER
 10
3500.0
 20
-3549.9999999999968168
 30
0.0
 11
3500.0
 21
-3369.9999999999968168
 31
0.0
1001
ACDBBLOCKREPETAG
1070
     1
1071
       15
1005
122546
  0
CIRCLE
  5
123AD4
  8
OBJECT
 10
3500.0
 20
-3459.9999999999968168
 30
0.0
 40
70.0
1001
ACDBBLOCKREPETAG
1070
     1
1071
       16
1005
122547
  0
CIRCLE
  5
123AD5
  8
OBJECT
 10
3500.0
 20
-3459.9999999999968168
 30
0.0
 40
75.0
1001
ACDBBLOCKREPETAG
1070
     1
1071
       17
1005
122548
  0
LINE
  5
123ADD
  8
CENTER
 10
3500.0
 20
-3644.9999999999990905
 30
0.0
 11
3500.0
 21
-3891.9999999999990905
 31
0.0
1001
ACDBBLOCKREPETAG
1070
     1
1071
       25
1005
123927
  0
LINE
  5
123ADE
  8
OBJECT
 10
3424.9999999999990905
 20
-3659.9999999999968168
 30
0.0
 11
3424.9999999999990905
 21
-3879.9999999999990905
 31
0.0
1001
ACDBBLOCKREPETAG
1070
     1
1071
       26
1005
123928
  0
LINE
  5
123ADF
  8
OBJECT
 10
3574.9999999999990905
 20
-3659.9999999999968168
 30
0.0
 11
3574.9999999999990905
 21
-3756.5000000000618456
 31
0.0
1001
ACDBBLOCKREPETAG
1070
     1
1071
       34
1005
12392C
  0
LINE
  5
123AE0
  8
OBJECT
 10
3574.9999999999990905
 20
-3862.4999999999990905
 30
0.0
 11
3574.9999999999990905
 21
-3879.9999999999990905
 31
0.0
1001
ACDBBLOCKREPETAG
1070
     1
1071
       34
1005
12392C
  0
LINE
  5
123AE8
  8
CENTER
 10
3900.0
 20
-3644.9999999999990905
 30
0.0
 11
3900.0
 21
-3891.9999999999990905
 31
0.0
1001
ACDBBLOCKREPETAG
1070
     1
1071
       25
1005
123927
  0
LINE
  5
123AE9
  8
OBJECT
 10
3824.9999999999990905
 20
-3659.9999999999968168
 30
0.0
 11
3824.9999999999990905
 21
-3879.9999999999990905
 31
0.0
1001
ACDBBLOCKREPETAG
1070
     1
1071
       26
1005
123928
  0
LINE
  5
123AEA
  8
OBJECT
 10
3975.0
 20
-3659.9999999999968168
 30
0.0
 11
3975.0
 21
-3879.9999999999990905
 31
0.0
1001
ACDBBLOCKREPETAG
1070
     1
1071
       34
1005
12392C
  0
LINE
  5
123B38
  8
CENTER
 10
4579.9999999999990905
 20
-3459.9999999999968168
 30
0.0
 11
4409.9999999999990905
 21
-3459.9999999999968168
 31
0.0
1001
ACDBBLOCKREPETAG
1070
     1
1071
       14
1005
122545
  0
LINE
  5
123B39
  8
CENTER
 10
4499.9999999999990905
 20
-3549.9999999999968168
 30
0.0
 11
4499.9999999999990905
 21
-3369.9999999999968168
 31
0.0
1001
ACDBBLOCKREPETAG
1070
     1
1071
       15
1005
122546
  0
CIRCLE
  5
123B3A
  8
OBJECT
 10
4499.9999999999990905
 20
-3459.9999999999968168
 30
0.0
 40
70.0
1001
ACDBBLOCKREPETAG
1070
     1
1071
       16
1005
122547
  0
CIRCLE
  5
123B3B
  8
OBJECT
 10
4499.9999999999990905
 20
-3459.9999999999968168
 30
0.0
 40
75.0
1001
ACDBBLOCKREPETAG
1070
     1
1071
       17
1005
122548
  0
LINE
  5
123B43
  8
CENTER
 10
4500.0
 20
-3644.9999999999990905
 30
0.0
 11
4500.0
 21
-3891.9999999999990905
 31
0.0
1001
ACDBBLOCKREPETAG
1070
     1
1071
       25
1005
123927
  0
LINE
  5
123B44
  8
OBJECT
 10
4425.0
 20
-3659.9999999999968168
 30
0.0
 11
4425.0
 21
-3879.9999999999990905
 31
0.0
1001
ACDBBLOCKREPETAG
1070
     1
1071
       26
1005
123928
  0
LINE
  5
123B45
  8
OBJECT
 10
4575.0
 20
-3659.9999999999968168
 30
0.0
 11
4575.0
 21
-3756.5000000000618456
 31
0.0
1001
ACDBBLOCKREPETAG
1070
     1
1071
       34
1005
12392C
  0
LINE
  5
123B46
  8
OBJECT
 10
4575.0
 20
-3862.4999999999990905
 30
0.0
 11
4575.0
 21
-3879.9999999999990905
 31
0.0
1001
ACDBBLOCKREPETAG
1070
     1
1071
       34
1005
12392C
  0
LINE
  5
123B4E
  8
CENTER
 10
4900.0
 20
-3644.9999999999990905
 30
0.0
 11
4900.0
 21
-3891.9999999999990905
 31
0.0
1001
ACDBBLOCKREPETAG
1070
     1
1071
       25
1005
123927
  0
LINE
  5
123B4F
  8
OBJECT
 10
4825.0
 20
-3659.9999999999968168
 30
0.0
 11
4825.0
 21
-3879.9999999999990905
 31
0.0
1001
ACDBBLOCKREPETAG
1070
     1
1071
       26
1005
123928
  0
LINE
  5
123B50
  8
OBJECT
 10
4975.0
 20
-3659.9999999999968168
 30
0.0
 11
4974.9999999999990905
 21
-3879.9999999999990905
 31
0.0
1001
ACDBBLOCKREPETAG
1070
     1
1071
       34
1005
12392C
  0
POINT
  5
124C02
  8
DOTS
 10
2500.0
 20
-3459.9999999999968168
 30
0.0
  0
POINT
  5
124C03
  8
DOTS
 10
2500.0
 20
-3864.9999999999968168
 30
0.0
  0
POINT
  5
124C05
  8
DOTS
 10
3500.0
 20
-3864.9999999999968168
 30
0.0
  0
POINT
  5
124C07
  8
DOTS
 10
3500.0
 20
-3459.9999999999968168
 30
0.0
  0
POINT
  5
124C08
  8
DOTS
 10
4499.9999999999990905
 20
-3459.9999999999968168
 30
0.0
  0
POINT
  5
124C09
  8
DOTS
 10
4499.9999999999990905
 20
-3864.9999999999968168
 30
0.0
  0
LINE
  5
127280
  8
SLIM
 10
5454.0
 20
-692.9999999999956799
 30
0.0
 11
5454.0
 21
-1364.9999999999959073
 31
0.0
  0
LINE
  5
127281
  8
SLIM
 10
5602.0
 20
-692.9999999999956799
 30
0.0
 11
5602.0
 21
-1364.9999999999959073
 31
0.0
  0
LINE
  5
127282
  8
SLIM
 10
5350.0
 20
-1364.9999999999959073
 30
0.0
 11
5350.0
 21
-692.9999999999956799
 31
0.0
  0
LINE
  5
127283
  8
SLIM
 10
5602.0
 20
-692.9999999999956799
 30
0.0
 11
5350.0
 21
-692.9999999999956799
 31
0.0
  0
LINE
  5
127286
  8
SLIM
 10
5602.0
 20
-740.9999999999961346
 30
0.0
 11
5350.0
 21
-740.9999999999961346
 31
0.0
  0
LINE
  5
127287
  8
SLIM
 10
5602.0
 20
-788.999999999996362
 30
0.0
 11
5350.0
 21
-788.999999999996362
 31
0.0
  0
LINE
  5
127288
  8
SLIM
 10
5602.0
 20
-836.9999999999961346
 30
0.0
 11
5350.0
 21
-836.9999999999961346
 31
0.0
  0
LINE
  5
12728E
  8
SLIM
 10
5602.0
 20
-884.999999999996362
 30
0.0
 11
5350.0
 21
-884.999999999996362
 31
0.0
  0
LINE
  5
127291
  8
SLIM
 10
5602.0
 20
-932.999999999996362
 30
0.0
 11
5350.0
 21
-932.999999999996362
 31
0.0
  0
LINE
  5
127294
  8
SLIM
 10
5602.0
 20
-980.9999999999961346
 30
0.0
 11
5350.0
 21
-980.9999999999961346
 31
0.0
  0
LINE
  5
127297
  8
SLIM
 10
5602.0
 20
-1028.9999999999959073
 30
0.0
 11
5350.0
 21
-1028.9999999999959073
 31
0.0
  0
LINE
  5
12729A
  8
SLIM
 10
5602.0
 20
-1076.9999999999959073
 30
0.0
 11
5350.0
 21
-1076.9999999999959073
 31
0.0
  0
LINE
  5
12729C
  8
SLIM
 10
5602.0
 20
-1124.9999999999959073
 30
0.0
 11
5350.0
 21
-1124.9999999999959073
 31
0.0
  0
LINE
  5
12729E
  8
SLIM
 10
5602.0
 20
-1172.9999999999959073
 30
0.0
 11
5350.0
 21
-1172.9999999999959073
 31
0.0
  0
LINE
  5
1272A0
  8
SLIM
 10
5602.0
 20
-1220.9999999999959073
 30
0.0
 11
5350.0
 21
-1220.9999999999959073
 31
0.0
  0
LINE
  5
1272A1
  8
SLIM
 10
5602.0
 20
-1268.9999999999959073
 30
0.0
 11
5350.0
 21
-1268.9999999999959073
 31
0.0
  0
LINE
  5
1272A3
  8
SLIM
 10
5602.0
 20
-1316.9999999999959073
 30
0.0
 11
5350.0
 21
-1316.9999999999959073
 31
0.0
  0
LINE
  5
1272A4
  8
SLIM
 10
5602.0
 20
-1364.9999999999959073
 30
0.0
 11
5350.0
 21
-1364.9999999999959073
 31
0.0
  0
CIRCLE
  5
127973
  8
OBJECT
 10
4500.0
 20
-199.9999999999990905
 30
0.0
 40
53.5
1001
ACDBBLOCKREPETAG
1070
     1
1071
      344
1005
0
  0
POINT
  5
127974
  8
DOTS
 10
4500.0
 20
-199.9999999999990905
 30
0.0
 50
270.0
1001
ACDBBLOCKREPETAG
1070
     1
1071
      362
1005
0
  0
LINE
  5
127976
  8
CENTER
 10
4580.0
 20
-199.9999999999990905
 30
0.0
 11
4400.0
 21
-199.9999999999990905
 31
0.0
1001
ACDBBLOCKREPETAG
1070
     1
1071
       14
1005
0
  0
LINE
  5
127977
  8
CENTER
 10
4500.0
 20
-299.9999999999990905
 30
0.0
 11
4500.0
 21
-104.9999999999991047
 31
0.0
1001
ACDBBLOCKREPETAG
1070
     1
1071
       15
1005
0
  0
CIRCLE
  5
127978
  8
OBJECT
 10
4500.0
 20
-199.9999999999990905
 30
0.0
 40
70.0
1001
ACDBBLOCKREPETAG
1070
     1
1071
       16
1005
0
  0
CIRCLE
  5
127979
  8
OBJECT
 10
4500.0
 20
-199.9999999999990905
 30
0.0
 40
77.0
1001
ACDBBLOCKREPETAG
1070
     1
1071
       17
1005
0
  0
ARC
  5
12797A
  8
OBJECT
 10
4500.0
 20
-199.9999999999990905
 30
0.0
 40
80.0
 50
50.8050325740289495
 51
309.1949674261011864
1001
ACDBBLOCKREPETAG
1070
     1
1071
       18
1005
0
  0
LINE
  5
12797B
  8
OBJECT
 10
4545.6618002273244201
 20
-137.9999999999990905
 30
0.0
 11
4580.0
 21
-137.9999999999990905
 31
0.0
1001
ACDBBLOCKREPETAG
1070
     1
1071
       19
1005
0
  0
LINE
  5
12797C
  8
OBJECT
 10
4545.6618002273244201
 20
-261.9999999999990905
 30
0.0
 11
4580.0
 21
-261.9999999999990905
 31
0.0
1001
ACDBBLOCKREPETAG
1070
     1
1071
       20
1005
0
  0
ARC
  5
12797D
  8
OBJECT
 10
4500.0
 20
-199.9999999999990905
 30
0.0
 40
85.0
 50
125.6162067284987955
 51
313.1628971402686261
1001
ACDBBLOCKREPETAG
1070
     1
1071
       18
1005
0
  0
ARC
  5
12797E
  8
OBJECT
 10
4500.0
 20
-199.9999999999990905
 30
0.0
 40
85.0
 50
46.8371028597314591
 51
54.3837932715011902
1001
ACDBBLOCKREPETAG
1070
     1
1071
       18
1005
0
  0
LINE
  5
127980
  8
OBJECT
 10
4438.0
 20
-66.999999999998181
 30
0.0
 11
4438.0
 21
-59.999999999998181
 31
0.0
1001
ACDBBLOCKREPETAG
1070
     1
1071
       38
1005
0
  0
LINE
  5
127981
  8
OBJECT
 10
4438.0
 20
-59.999999999998181
 30
0.0
 11
4562.0
 21
-60.0
 31
0.0
1001
ACDBBLOCKREPETAG
1070
     1
1071
       39
1005
0
  0
LINE
  5
127982
  8
OBJECT
 10
4562.0
 20
-60.0
 30
0.0
 11
4562.0
 21
-67.0
 31
0.0
1001
ACDBBLOCKREPETAG
1070
     1
1071
       40
1005
0
  0
LINE
  5
127983
  8
OBJECT
 10
4562.0
 20
-67.0
 30
0.0
 11
4438.0
 21
-66.999999999998181
 31
0.0
1001
ACDBBLOCKREPETAG
1070
     1
1071
       41
1005
0
  0
LINE
  5
127984
  8
CENTER
 10
4500.0
 20
-45.0
 30
0.0
 11
4500.0
 21
-120.0
 31
0.0
1001
ACDBBLOCKREPETAG
1070
     1
1071
       42
1005
0
  0
LINE
  5
127985
  8
OBJECT
 10
4441.0
 20
-66.999999999998181
 30
0.0
 11
4441.0
 21
-102.9999999999981952
 31
0.0
1001
ACDBBLOCKREPETAG
1070
     1
1071
       43
1005
0
  0
LINE
  5
127986
  8
OBJECT
 10
4441.0
 20
-102.9999999999981952
 30
0.0
 11
4559.0
 21
-103.0
 31
0.0
1001
ACDBBLOCKREPETAG
1070
     1
1071
       44
1005
0
  0
LINE
  5
127987
  8
OBJECT
 10
4559.0
 20
-103.0
 30
0.0
 11
4559.0
 21
-67.0
 31
0.0
1001
ACDBBLOCKREPETAG
1070
     1
1071
       45
1005
0
  0
LINE
  5
127988
  8
OBJECT
 10
4445.5
 20
-106.9999999999981952
 30
0.0
 11
4445.5
 21
-117.4999999999981952
 31
0.0
1001
ACDBBLOCKREPETAG
1070
     1
1071
       46
1005
0
  0
LINE
  5
127989
  8
OBJECT
 10
4554.4999999999990905
 20
-117.5
 30
0.0
 11
4554.4999999999990905
 21
-107.0
 31
0.0
1001
ACDBBLOCKREPETAG
1070
     1
1071
       47
1005
0
  0
LINE
  5
12798A
  8
OBJECT
 10
4554.4999999999990905
 20
-107.0
 30
0.0
 11
4445.5
 21
-106.9999999999981952
 31
0.0
1001
ACDBBLOCKREPETAG
1070
     1
1071
       48
1005
0
  0
LINE
  5
12798B
  8
OBJECT
 10
4441.0
 20
-102.9999999999981952
 30
0.0
 11
4445.5
 21
-106.9999999999981952
 31
0.0
1001
ACDBBLOCKREPETAG
1070
     1
1071
       49
1005
0
  0
LINE
  5
12798C
  8
OBJECT
 10
4559.0
 20
-103.0
 30
0.0
 11
4554.4999999999990905
 21
-107.0
 31
0.0
1001
ACDBBLOCKREPETAG
1070
     1
1071
       50
1005
0
  0
LINE
  5
12798D
  8
HIDDEN
 10
4455.4999999999990905
 20
-111.9999999999981952
 30
0.0
 11
4544.5
 21
-112.0
 31
0.0
1001
ACDBBLOCKREPETAG
1070
     1
1071
       51
1005
0
  0
LINE
  5
12798E
  8
OBJECT
 10
4450.5
 20
-122.4999999999981952
 30
0.0
 11
4450.5
 21
-137.1529634747975877
 31
0.0
1001
ACDBBLOCKREPETAG
1070
     1
1071
       52
1005
0
  0
LINE
  5
12798F
  8
OBJECT
 10
4549.5
 20
-122.5
 30
0.0
 11
4549.5
 21
-137.1529634747977866
 31
0.0
1001
ACDBBLOCKREPETAG
1070
     1
1071
       53
1005
0
  0
LINE
  5
127990
  8
OBJECT
 10
4445.5
 20
-117.4999999999981952
 30
0.0
 11
4554.4999999999990905
 21
-117.5
 31
0.0
1001
ACDBBLOCKREPETAG
1070
     1
1071
       54
1005
0
  0
LINE
  5
127991
  8
OBJECT
 10
4450.5
 20
-122.4999999999981952
 30
0.0
 11
4480.1568651670168038
 21
-122.4999999999985931
 31
0.0
1001
ACDBBLOCKREPETAG
1070
     1
1071
       55
1005
0
  0
LINE
  5
127992
  8
OBJECT
 10
4519.8431348329859247
 20
-122.4999999999995026
 30
0.0
 11
4549.5
 21
-122.5
 31
0.0
1001
ACDBBLOCKREPETAG
1070
     1
1071
       55
1005
0
  0
LINE
  5
127993
  8
OBJECT
 10
4445.5
 20
-117.4999999999981952
 30
0.0
 11
4450.5
 21
-122.4999999999981952
 31
0.0
1001
ACDBBLOCKREPETAG
1070
     1
1071
       56
1005
0
  0
LINE
  5
127994
  8
OBJECT
 10
4549.5
 20
-122.5
 30
0.0
 11
4554.4999999999954525
 21
-117.5
 31
0.0
1001
ACDBBLOCKREPETAG
1070
     1
1071
       57
1005
0
  0
CIRCLE
  5
1279A3
  8
OBJECT
 10
2500.0
 20
-199.9999999999990905
 30
0.0
 40
53.5
1001
ACDBBLOCKREPETAG
1070
     1
1071
      344
1005
0
  0
POINT
  5
1279A4
  8
DOTS
 10
2500.0
 20
-199.9999999999990905
 30
0.0
 50
270.0
1001
ACDBBLOCKREPETAG
1070
     1
1071
      362
1005
0
  0
LINE
  5
1279A6
  8
CENTER
 10
2580.0
 20
-199.9999999999990905
 30
0.0
 11
2405.0
 21
-199.9999999999990905
 31
0.0
1001
ACDBBLOCKREPETAG
1070
     1
1071
       14
1005
0
  0
LINE
  5
1279A7
  8
CENTER
 10
2500.0
 20
-294.9999999999990905
 30
0.0
 11
2500.0
 21
-104.9999999999991047
 31
0.0
1001
ACDBBLOCKREPETAG
1070
     1
1071
       15
1005
0
  0
CIRCLE
  5
1279A8
  8
OBJECT
 10
2500.0
 20
-199.9999999999990905
 30
0.0
 40
70.0
1001
ACDBBLOCKREPETAG
1070
     1
1071
       16
1005
0
  0
CIRCLE
  5
1279A9
  8
OBJECT
 10
2500.0
 20
-199.9999999999990905
 30
0.0
 40
77.0
1001
ACDBBLOCKREPETAG
1070
     1
1071
       17
1005
0
  0
ARC
  5
1279AA
  8
OBJECT
 10
2500.0
 20
-199.9999999999990905
 30
0.0
 40
80.0
 50
50.8050325740289495
 51
309.1949674261094856
1001
ACDBBLOCKREPETAG
1070
     1
1071
       18
1005
0
  0
LINE
  5
1279AB
  8
OBJECT
 10
2545.6618002273248749
 20
-137.9999999999990905
 30
0.0
 11
2580.0
 21
-137.9999999999990905
 31
0.0
1001
ACDBBLOCKREPETAG
1070
     1
1071
       19
1005
0
  0
LINE
  5
1279AC
  8
OBJECT
 10
2545.6618002273248749
 20
-261.9999999999990905
 30
0.0
 11
2580.0
 21
-261.9999999999990905
 31
0.0
1001
ACDBBLOCKREPETAG
1070
     1
1071
       20
1005
0
  0
LINE
  5
1279AD
  8
OBJECT
 10
2438.0
 20
-66.999999999998181
 30
0.0
 11
2438.0
 21
-59.999999999998181
 31
0.0
1001
ACDBBLOCKREPETAG
1070
     1
1071
       38
1005
0
  0
LINE
  5
1279AE
  8
OBJECT
 10
2438.0
 20
-59.999999999998181
 30
0.0
 11
2562.0
 21
-60.0
 31
0.0
1001
ACDBBLOCKREPETAG
1070
     1
1071
       39
1005
0
  0
LINE
  5
1279AF
  8
OBJECT
 10
2562.0
 20
-60.0
 30
0.0
 11
2562.0
 21
-67.0
 31
0.0
1001
ACDBBLOCKREPETAG
1070
     1
1071
       40
1005
0
  0
LINE
  5
1279B0
  8
OBJECT
 10
2562.0
 20
-67.0
 30
0.0
 11
2438.0
 21
-66.999999999998181
 31
0.0
1001
ACDBBLOCKREPETAG
1070
     1
1071
       41
1005
0
  0
LINE
  5
1279B1
  8
CENTER
 10
2500.0
 20
-45.0
 30
0.0
 11
2500.0
 21
-120.0
 31
0.0
1001
ACDBBLOCKREPETAG
1070
     1
1071
       42
1005
0
  0
LINE
  5
1279B2
  8
OBJECT
 10
2441.0
 20
-66.999999999998181
 30
0.0
 11
2441.0
 21
-102.9999999999981952
 31
0.0
1001
ACDBBLOCKREPETAG
1070
     1
1071
       43
1005
0
  0
LINE
  5
1279B3
  8
OBJECT
 10
2441.0
 20
-102.9999999999981952
 30
0.0
 11
2559.0
 21
-103.0
 31
0.0
1001
ACDBBLOCKREPETAG
1070
     1
1071
       44
1005
0
  0
LINE
  5
1279B4
  8
OBJECT
 10
2559.0
 20
-103.0
 30
0.0
 11
2559.0
 21
-67.0
 31
0.0
1001
ACDBBLOCKREPETAG
1070
     1
1071
       45
1005
0
  0
LINE
  5
1279B5
  8
OBJECT
 10
2445.5
 20
-106.9999999999981952
 30
0.0
 11
2445.5
 21
-117.4999999999981952
 31
0.0
1001
ACDBBLOCKREPETAG
1070
     1
1071
       46
1005
0
  0
LINE
  5
1279B6
  8
OBJECT
 10
2554.5
 20
-117.5
 30
0.0
 11
2554.5
 21
-107.0
 31
0.0
1001
ACDBBLOCKREPETAG
1070
     1
1071
       47
1005
0
  0
LINE
  5
1279B7
  8
OBJECT
 10
2554.5
 20
-107.0
 30
0.0
 11
2445.5
 21
-106.9999999999981952
 31
0.0
1001
ACDBBLOCKREPETAG
1070
     1
1071
       48
1005
0
  0
LINE
  5
1279B8
  8
OBJECT
 10
2441.0
 20
-102.9999999999981952
 30
0.0
 11
2445.5
 21
-106.9999999999981952
 31
0.0
1001
ACDBBLOCKREPETAG
1070
     1
1071
       49
1005
0
  0
LINE
  5
1279B9
  8
OBJECT
 10
2559.0
 20
-103.0
 30
0.0
 11
2554.5
 21
-107.0
 31
0.0
1001
ACDBBLOCKREPETAG
1070
     1
1071
       50
1005
0
  0
LINE
  5
1279BA
  8
HIDDEN
 10
2455.5
 20
-111.9999999999981952
 30
0.0
 11
2544.5
 21
-112.0
 31
0.0
1001
ACDBBLOCKREPETAG
1070
     1
1071
       51
1005
0
  0
LINE
  5
1279BB
  8
OBJECT
 10
2450.5
 20
-122.4999999999981952
 30
0.0
 11
2450.5
 21
-137.1529634747975877
 31
0.0
1001
ACDBBLOCKREPETAG
1070
     1
1071
       52
1005
0
  0
LINE
  5
1279BC
  8
OBJECT
 10
2549.5
 20
-122.5
 30
0.0
 11
2549.5
 21
-137.1529634747977866
 31
0.0
1001
ACDBBLOCKREPETAG
1070
     1
1071
       53
1005
0
  0
LINE
  5
1279BD
  8
OBJECT
 10
2445.5
 20
-117.4999999999981952
 30
0.0
 11
2554.5
 21
-117.5
 31
0.0
1001
ACDBBLOCKREPETAG
1070
     1
1071
       54
1005
0
  0
LINE
  5
1279BE
  8
OBJECT
 10
2450.5
 20
-122.4999999999981952
 30
0.0
 11
2480.1568651670168038
 21
-122.4999999999985931
 31
0.0
1001
ACDBBLOCKREPETAG
1070
     1
1071
       55
1005
0
  0
LINE
  5
1279BF
  8
OBJECT
 10
2519.8431348329859247
 20
-122.4999999999995026
 30
0.0
 11
2549.5
 21
-122.5
 31
0.0
1001
ACDBBLOCKREPETAG
1070
     1
1071
       55
1005
0
  0
LINE
  5
1279C0
  8
OBJECT
 10
2445.5
 20
-117.4999999999981952
 30
0.0
 11
2450.5
 21
-122.4999999999981952
 31
0.0
1001
ACDBBLOCKREPETAG
1070
     1
1071
       56
1005
0
  0
LINE
  5
1279C1
  8
OBJECT
 10
2549.5
 20
-122.5
 30
0.0
 11
2554.4999999999959073
 21
-117.5
 31
0.0
1001
ACDBBLOCKREPETAG
1070
     1
1071
       57
1005
0
  0
LINE
  5
127DF1
  8
DIM
 10
4665.0000000000009095
 20
-710.9999999999946567
 30
0.0
 11
4719.4245816727607234
 21
-710.9999999999946567
 31
0.0
  0
LINE
  5
127DF2
  8
DIM
 10
4529.0525588832570065
 20
-1010.9999999999949978
 30
0.0
 11
4719.4245816727607234
 21
-1010.9999999999949978
 31
0.0
  0
LINE
  5
127DF3
  8
DIM
 10
4709.4245816727607234
 20
-730.999999999994543
 30
0.0
 11
4709.4245816727607234
 21
-990.9999999999947704
 31
0.0
  0
INSERT
  5
127DF4
  8
DIM
  2
_OPEN30
 10
4709.4245816727607234
 20
-710.9999999999946567
 30
0.0
 41
20.0
 42
20.0
 43
20.0
 50
90.0
  0
INSERT
  5
127DF5
  8
DIM
  2
_OPEN30
 10
4709.4245816727607234
 20
-1010.9999999999949978
 30
0.0
 41
20.0
 42
20.0
 43
20.0
 50
270.0
  0
INSERT
  5
127DF6
  8
SLIM
  2
*U21
 10
0.0
 20
0.0
 30
0.0
  0
LINE
  5
127DF7
  8
SLIM
 10
4914.9999999999918145
 20
-1014.2764143050379744
 30
0.0
 11
4918.2764143050326311
 21
-1011.0
 31
0.0
1001
GRADIENTCOLOR1ACI
1070
     5
1001
GRADIENTCOLOR2ACI
1070
     2
1001
ACAD
1010
0.0
1020
0.0
1030
0.0
  0
LINE
  5
127DF8
  8
SLIM
 10
4914.999999999992724
 20
-1032.2369265471759263
 30
0.0
 11
4936.2369265471688777
 21
-1011.0
 31
0.0
1001
GRADIENTCOLOR1ACI
1070
     5
1001
GRADIENTCOLOR2ACI
1070
     2
1001
ACAD
1010
0.0
1020
0.0
1030
0.0
  0
LINE
  5
127DF9
  8
SLIM
 10
4914.9999999999954525
 20
-1050.1974387893139919
 30
0.0
 11
4954.1974387893087624
 21
-1011.0
 31
0.0
1001
GRADIENTCOLOR1ACI
1070
     5
1001
GRADIENTCOLOR2ACI
1070
     2
1001
ACAD
1010
0.0
1020
0.0
1030
0.0
  0
LINE
  5
127DFA
  8
SLIM
 10
4914.9999999999954525
 20
-1068.1579510314509207
 30
0.0
 11
4972.1579510314477375
 21
-1011.0
 31
0.0
1001
GRADIENTCOLOR1ACI
1070
     5
1001
GRADIENTCOLOR2ACI
1070
     2
1001
ACAD
1010
0.0
1020
0.0
1030
0.0
  0
LINE
  5
127DFB
  8
SLIM
 10
4915.1454972543142503
 20
-1085.9729660192690517
 30
0.0
 11
4990.1184632735839841
 21
-1011.0
 31
0.0
1001
GRADIENTCOLOR1ACI
1070
     5
1001
GRADIENTCOLOR2ACI
1070
     2
1001
ACAD
1010
0.0
1020
0.0
1030
0.0
  0
LINE
  5
127DFC
  8
SLIM
 10
4917.1046274952450403
 20
-1101.9743480204790558
 30
0.0
 11
5008.0789755157220497
 21
-1011.0
 31
0.0
1001
GRADIENTCOLOR1ACI
1070
     5
1001
GRADIENTCOLOR2ACI
1070
     2
1001
ACAD
1010
0.0
1020
0.0
1030
0.0
  0
LINE
  5
127DFD
  8
SLIM
 10
4919.0637577361712829
 20
-1117.9757300216890599
 30
0.0
 11
5026.0394877578619344
 21
-1011.0
 31
0.0
1001
GRADIENTCOLOR1ACI
1070
     5
1001
GRADIENTCOLOR2ACI
1070
     2
1001
ACAD
1010
0.0
1020
0.0
1030
0.0
  0
LINE
  5
127DFE
  8
SLIM
 10
4920.0
 20
-1170.9210244842759039
 30
0.0
 11
5079.9210244842770408
 21
-1011.0
 31
0.0
1001
GRADIENTCOLOR1ACI
1070
     5
1001
GRADIENTCOLOR2ACI
1070
     2
1001
ACAD
1010
0.0
1020
0.0
1030
0.0
  0
LINE
  5
127DFF
  8
SLIM
 10
4920.0
 20
-1188.8815367264151064
 30
0.0
 11
5085.000000000007276
 21
-1023.8815367264079441
 31
0.0
1001
GRADIENTCOLOR1ACI
1070
     5
1001
GRADIENTCOLOR2ACI
1070
     2
1001
ACAD
1010
0.0
1020
0.0
1030
0.0
  0
LINE
  5
127E00
  8
SLIM
 10
4920.0
 20
-1206.8420489685520351
 30
0.0
 11
5085.000000000007276
 21
-1041.8420489685470329
 31
0.0
1001
GRADIENTCOLOR1ACI
1070
     5
1001
GRADIENTCOLOR2ACI
1070
     2
1001
ACAD
1010
0.0
1020
0.0
1030
0.0
  0
LINE
  5
127E01
  8
SLIM
 10
4920.0
 20
-1224.8025612106910103
 30
0.0
 11
5085.000000000003638
 21
-1059.8025612106860081
 31
0.0
1001
GRADIENTCOLOR1ACI
1070
     5
1001
GRADIENTCOLOR2ACI
1070
     2
1001
ACAD
1010
0.0
1020
0.0
1030
0.0
  0
LINE
  5
127E02
  8
SLIM
 10
4920.0
 20
-1242.7630734528299854
 30
0.0
 11
5085.000000000003638
 21
-1077.7630734528258927
 31
0.0
1001
GRADIENTCOLOR1ACI
1070
     5
1001
GRADIENTCOLOR2ACI
1070
     2
1001
ACAD
1010
0.0
1020
0.0
1030
0.0
  0
LINE
  5
127E03
  8
SLIM
 10
4929.7235856949691879
 20
-1251.0
 30
0.0
 11
5083.4738280308083631
 21
-1097.2497576641590058
 31
0.0
1001
GRADIENTCOLOR1ACI
1070
     5
1001
GRADIENTCOLOR2ACI
1070
     2
1001
ACAD
1010
0.0
1020
0.0
1030
0.0
  0
LINE
  5
127E04
  8
SLIM
 10
4930.0
 20
-1268.6840979371058893
 30
0.0
 11
4947.684097937106344
 21
-1251.0
 31
0.0
1001
GRADIENTCOLOR1ACI
1070
     5
1001
GRADIENTCOLOR2ACI
1070
     2
1001
ACAD
1010
0.0
1020
0.0
1030
0.0
  0
LINE
  5
127E05
  8
SLIM
 10
4947.684097937106344
 20
-1251.0
 30
0.0
 11
5080.9680345671367832
 21
-1117.7160633699691061
 31
0.0
1001
GRADIENTCOLOR1ACI
1070
     5
1001
GRADIENTCOLOR2ACI
1070
     2
1001
ACAD
1010
0.0
1020
0.0
1030
0.0
  0
LINE
  5
127E06
  8
SLIM
 10
4946.6446101792444097
 20
-1270.0
 30
0.0
 11
4965.6446101792453192
 21
-1251.0
 31
0.0
1001
GRADIENTCOLOR1ACI
1070
     5
1001
GRADIENTCOLOR2ACI
1070
     2
1001
ACAD
1010
0.0
1020
0.0
1030
0.0
  0
LINE
  5
127E07
  8
SLIM
 10
4965.6446101792453192
 20
-1251.0
 30
0.0
 11
5080.0
 21
-1136.6446101792450918
 31
0.0
1001
GRADIENTCOLOR1ACI
1070
     5
1001
GRADIENTCOLOR2ACI
1070
     2
1001
ACAD
1010
0.0
1020
0.0
1030
0.0
  0
LINE
  5
127E08
  8
SLIM
 10
4964.6051224213833848
 20
-1270.0
 30
0.0
 11
4983.6051224213833848
 21
-1251.0
 31
0.0
1001
GRADIENTCOLOR1ACI
1070
     5
1001
GRADIENTCOLOR2ACI
1070
     2
1001
ACAD
1010
0.0
1020
0.0
1030
0.0
  0
LINE
  5
127E09
  8
SLIM
 10
4920.0
 20
-1135.0
 30
0.0
 11
5044.0
 21
-1011.0
 31
0.0
1001
GRADIENTCOLOR1ACI
1070
     5
1001
GRADIENTCOLOR2ACI
1070
     2
1001
ACAD
1010
0.0
1020
0.0
1030
0.0
  0
LINE
  5
127E0A
  8
SLIM
 10
4983.6051224213833848
 20
-1251.0
 30
0.0
 11
5080.0
 21
-1154.6051224213820205
 31
0.0
1001
GRADIENTCOLOR1ACI
1070
     5
1001
GRADIENTCOLOR2ACI
1070
     2
1001
ACAD
1010
0.0
1020
0.0
1030
0.0
  0
LINE
  5
127E0B
  8
SLIM
 10
4920.0
 20
-1152.9605122421380656
 30
0.0
 11
5061.9605122421371561
 21
-1011.0
 31
0.0
1001
GRADIENTCOLOR1ACI
1070
     5
1001
GRADIENTCOLOR2ACI
1070
     2
1001
ACAD
1010
0.0
1020
0.0
1030
0.0
  0
LINE
  5
127E0C
  8
SLIM
 10
4982.5656346635214504
 20
-1270.0
 30
0.0
 11
5001.5656346635214504
 21
-1251.0
 31
0.0
1001
GRADIENTCOLOR1ACI
1070
     5
1001
GRADIENTCOLOR2ACI
1070
     2
1001
ACAD
1010
0.0
1020
0.0
1030
0.0
  0
LINE
  5
127E0D
  8
SLIM
 10
5001.5656346635214504
 20
-1251.0
 30
0.0
 11
5079.9999999999990905
 21
-1172.5656346635219052
 31
0.0
1001
GRADIENTCOLOR1ACI
1070
     5
1001
GRADIENTCOLOR2ACI
1070
     2
1001
ACAD
1010
0.0
1020
0.0
1030
0.0
  0
LINE
  5
127E0E
  8
SLIM
 10
5000.5261469056576971
 20
-1270.0
 30
0.0
 11
5019.5261469056604255
 21
-1251.0
 31
0.0
1001
GRADIENTCOLOR1ACI
1070
     5
1001
GRADIENTCOLOR2ACI
1070
     2
1001
ACAD
1010
0.0
1020
0.0
1030
0.0
  0
LINE
  5
127E0F
  8
SLIM
 10
5019.5261469056604255
 20
-1251.0
 30
0.0
 11
5079.9999999999990905
 21
-1190.5261469056599708
 31
0.0
1001
GRADIENTCOLOR1ACI
1070
     5
1001
GRADIENTCOLOR2ACI
1070
     2
1001
ACAD
1010
0.0
1020
0.0
1030
0.0
  0
LINE
  5
127E10
  8
SLIM
 10
5018.4866591477966722
 20
-1270.0
 30
0.0
 11
5037.4866591477975817
 21
-1251.0
 31
0.0
1001
GRADIENTCOLOR1ACI
1070
     5
1001
GRADIENTCOLOR2ACI
1070
     2
1001
ACAD
1010
0.0
1020
0.0
1030
0.0
  0
LINE
  5
127E11
  8
SLIM
 10
5037.4866591477975817
 20
-1251.0
 30
0.0
 11
5079.9999999999990905
 21
-1208.4866591477989459
 31
0.0
1001
GRADIENTCOLOR1ACI
1070
     5
1001
GRADIENTCOLOR2ACI
1070
     2
1001
ACAD
1010
0.0
1020
0.0
1030
0.0
  0
LINE
  5
127E12
  8
SLIM
 10
5036.4471713899365568
 20
-1270.0
 30
0.0
 11
5055.4471713899356473
 21
-1251.0
 31
0.0
1001
GRADIENTCOLOR1ACI
1070
     5
1001
GRADIENTCOLOR2ACI
1070
     2
1001
ACAD
1010
0.0
1020
0.0
1030
0.0
  0
LINE
  5
127E13
  8
SLIM
 10
5055.4471713899356473
 20
-1251.0
 30
0.0
 11
5079.9999999999990905
 21
-1226.447171389937921
 31
0.0
1001
GRADIENTCOLOR1ACI
1070
     5
1001
GRADIENTCOLOR2ACI
1070
     2
1001
ACAD
1010
0.0
1020
0.0
1030
0.0
  0
LINE
  5
127E14
  8
SLIM
 10
5054.4076836320737129
 20
-1270.0
 30
0.0
 11
5070.0
 21
-1254.4076836320739403
 31
0.0
1001
GRADIENTCOLOR1ACI
1070
     5
1001
GRADIENTCOLOR2ACI
1070
     2
1001
ACAD
1010
0.0
1020
0.0
1030
0.0
  0
LINE
  5
127E15
  8
SLIM
 10
5073.4076836320737129
 20
-1251.0
 30
0.0
 11
5079.9999999999990905
 21
-1244.4076836320759867
 31
0.0
1001
GRADIENTCOLOR1ACI
1070
     5
1001
GRADIENTCOLOR2ACI
1070
     2
1001
ACAD
1010
0.0
1020
0.0
1030
0.0
  0
LINE
  5
127E16
  8
OBJECT
 10
4914.9999999999918145
 20
-1011.0
 30
0.0
 11
4914.9999999999954525
 21
-1084.7846033990349497
 31
0.0
1001
ACDBBLOCKREPETAG
1070
     1
1071
        1
1005
127E16
  0
LINE
  5
127E17
  8
OBJECT
 10
5085.000000000007276
 20
-1011.0
 30
0.0
 11
5085.000000000003638
 21
-1084.7846033990419983
 31
0.0
1001
ACDBBLOCKREPETAG
1070
     1
1071
        2
1005
127E17
  0
LINE
  5
127E18
  8
OBJECT
 10
5085.000000000007276
 20
-1011.0
 30
0.0
 11
4914.9999999999918145
 21
-1011.0
 31
0.0
1001
ACDBBLOCKREPETAG
1070
     1
1071
        3
1005
127E18
  0
LINE
  5
127E19
  8
OBJECT
 10
5079.9999999999990905
 20
-1251.0
 30
0.0
 11
4920.0
 21
-1251.0
 31
0.0
1001
ACDBBLOCKREPETAG
1070
     1
1071
        4
1005
127E19
  0
LINE
  5
127E1A
  8
OBJECT
 10
4914.9999999999954525
 20
-1084.7846033990349497
 30
0.0
 11
4920.0
 21
-1125.6225774829870261
 31
0.0
1001
ACDBBLOCKREPETAG
1070
     1
1071
        6
1005
127E1A
  0
LINE
  5
127E1B
  8
OBJECT
 10
4920.0
 20
-1125.6225774829870261
 30
0.0
 11
4920.0
 21
-1251.0
 31
0.0
1001
ACDBBLOCKREPETAG
1070
     1
1071
        7
1005
127E1B
  0
LINE
  5
127E1C
  8
OBJECT
 10
5085.000000000003638
 20
-1084.7846033990419983
 30
0.0
 11
5080.0
 21
-1125.6225774829870261
 31
0.0
1001
ACDBBLOCKREPETAG
1070
     1
1071
        8
1005
127E1C
  0
LINE
  5
127E1D
  8
OBJECT
 10
4930.0
 20
-1251.0
 30
0.0
 11
4930.0
 21
-1270.0
 31
0.0
1001
ACDBBLOCKREPETAG
1070
     1
1071
       10
1005
127E1D
  0
LINE
  5
127E1E
  8
OBJECT
 10
5080.0
 20
-1125.6225774829870261
 30
0.0
 11
5079.9999999999990905
 21
-1251.0
 31
0.0
1001
ACDBBLOCKREPETAG
1070
     1
1071
        9
1005
127E1E
  0
LINE
  5
127E1F
  8
OBJECT
 10
5070.0
 20
-1270.0
 30
0.0
 11
5070.0
 21
-1251.0
 31
0.0
1001
ACDBBLOCKREPETAG
1070
     1
1071
       12
1005
127E1F
  0
LINE
  5
127E20
  8
OBJECT
 10
4930.0
 20
-1270.0
 30
0.0
 11
5070.0
 21
-1270.0
 31
0.0
1001
ACDBBLOCKREPETAG
1070
     1
1071
       11
1005
127E20
  0
LINE
  5
127E21
  8
OBJECT
 10
4930.0
 20
-1364.9999999999920419
 30
0.0
 11
5070.0
 21
-1364.9999999999920419
 31
0.0
1001
ACDBBLOCKREPETAG
1070
     1
1071
        0
1005
127E21
  0
LINE
  5
127E22
  8
OBJECT
 10
4930.0
 20
-1364.9999999999920419
 30
0.0
 11
4930.0
 21
-1124.9999999999920419
 31
0.0
1001
ACDBBLOCKREPETAG
1070
     1
1071
        1
1005
127E22
  0
LINE
  5
127E23
  8
OBJECT
 10
5070.0
 20
-1364.9999999999920419
 30
0.0
 11
5070.0
 21
-1124.9999999999920419
 31
0.0
1001
ACDBBLOCKREPETAG
1070
     1
1071
        2
1005
127E23
  0
LINE
  5
127E24
  8
OBJECT
 10
4930.0
 20
-1124.9999999999920419
 30
0.0
 11
5070.0
 21
-1124.9999999999920419
 31
0.0
1001
ACDBBLOCKREPETAG
1070
     1
1071
        3
1005
127E24
  0
LINE
  5
127E25
  8
HIDDEN
 10
4937.5
 20
-1124.9999999999920419
 30
0.0
 11
4937.5
 21
-1364.9999999999920419
 31
0.0
1001
ACDBBLOCKREPETAG
1070
     1
1071
        4
1005
127E25
  0
LINE
  5
127E26
  8
HIDDEN
 10
5062.5
 20
-1124.9999999999920419
 30
0.0
 11
5062.5
 21
-1364.9999999999920419
 31
0.0
1001
ACDBBLOCKREPETAG
1070
     1
1071
        5
1005
127E26
  0
LINE
  5
127E27
  8
CENTER
 10
5000.0
 20
-1054.9999999999940883
 30
0.0
 11
5000.0
 21
-1379.9999999999929514
 31
0.0
1001
ACDBBLOCKREPETAG
1070
     1
1071
        6
1005
127E27
  0
LINE
  5
127E28
  8
OBJECT
 10
4925.0
 20
-1054.9999999999940883
 30
0.0
 11
4925.0
 21
-1084.9999999999920419
 31
0.0
1001
ACDBBLOCKREPETAG
1070
     1
1071
        7
1005
127E28
  0
LINE
  5
127E29
  8
OBJECT
 10
5075.000000000001819
 20
-1054.9999999999940883
 30
0.0
 11
5075.0
 21
-1084.9999999999920419
 31
0.0
1001
ACDBBLOCKREPETAG
1070
     1
1071
        8
1005
127E29
  0
LINE
  5
127E2A
  8
OBJECT
 10
4925.0
 20
-1084.9999999999920419
 30
0.0
 11
5075.0
 21
-1084.9999999999920419
 31
0.0
1001
ACDBBLOCKREPETAG
1070
     1
1071
        9
1005
127E2A
  0
LINE
  5
127E2B
  8
OBJECT
 10
4925.0
 20
-1084.9999999999920419
 30
0.0
 11
4930.0
 21
-1124.9999999999920419
 31
0.0
1001
ACDBBLOCKREPETAG
1070
     1
1071
       10
1005
127E2B
  0
LINE
  5
127E2C
  8
OBJECT
 10
5070.0
 20
-1124.9999999999920419
 30
0.0
 11
5075.0
 21
-1084.9999999999920419
 31
0.0
1001
ACDBBLOCKREPETAG
1070
     1
1071
       11
1005
127E2C
  0
LINE
  5
127E2D
  8
OBJECT
 10
5075.0
 20
-769.9999999999943157
 30
0.0
 11
5075.0
 21
-902.5000000000594582
 31
0.0
1001
ACDBBLOCKREPETAG
1070
     1
1071
        1
1005
127E2D
  0
LINE
  5
127E2E
  8
OBJECT
 10
4925.0
 20
-769.9999999999886313
 30
0.0
 11
4925.0
 21
-1042.9999999999940883
 31
0.0
1001
ACDBBLOCKREPETAG
1070
     1
1071
        3
1005
127E2E
  0
LINE
  5
127E2F
  8
CENTER
 10
5000.0
 20
-769.9999999999943157
 30
0.0
 11
5000.0
 21
-1054.9999999999940883
 31
0.0
1001
ACDBBLOCKREPETAG
1070
     1
1071
        6
1005
127E2F
  0
LINE
  5
127E30
  8
OBJECT
 10
4920.0
 20
-1054.9999999999940883
 30
0.0
 11
5080.0
 21
-1054.9999999999940883
 31
0.0
1001
ACDBBLOCKREPETAG
1070
     1
1071
        7
1005
127E30
  0
LINE
  5
127E31
  8
OBJECT
 10
4920.0
 20
-1042.9999999999940883
 30
0.0
 11
5080.0
 21
-1042.9999999999940883
 31
0.0
1001
ACDBBLOCKREPETAG
1070
     1
1071
        8
1005
127E31
  0
LINE
  5
127E32
  8
OBJECT
 10
4920.0
 20
-1042.9999999999940883
 30
0.0
 11
4920.0
 21
-1054.9999999999940883
 31
0.0
1001
ACDBBLOCKREPETAG
1070
     1
1071
        9
1005
127E32
  0
LINE
  5
127E33
  8
OBJECT
 10
5080.0
 20
-1042.9999999999940883
 30
0.0
 11
5080.0
 21
-1054.9999999999940883
 31
0.0
1001
ACDBBLOCKREPETAG
1070
     1
1071
       10
1005
127E33
  0
LINE
  5
127E34
  8
OBJECT
 10
5075.0
 20
-1008.4999999999939746
 30
0.0
 11
5075.0
 21
-1042.9999999999940883
 31
0.0
1001
ACDBBLOCKREPETAG
1070
     1
1071
        1
1005
127E2D
  0
POINT
  5
127E35
  8
DOTS
 10
5000.0
 20
-1010.9999999999939746
 30
0.0
  0
LINE
  5
127E36
  8
OBJECT
 10
5133.0
 20
-889.9999999999943157
 30
0.0
 11
5140.0
 21
-889.9999999999943157
 31
0.0
1001
ACDBBLOCKREPETAG
1070
     1
1071
       46
1005
127E36
  0
LINE
  5
127E37
  8
OBJECT
 10
5140.0
 20
-889.9999999999943157
 30
0.0
 11
5140.0
 21
-1010.9999999999939746
 31
0.0
1001
ACDBBLOCKREPETAG
1070
     1
1071
       47
1005
127E37
  0
LINE
  5
127E38
  8
OBJECT
 10
5133.0
 20
-1010.9999999999939746
 30
0.0
 11
5133.0
 21
-889.9999999999943157
 31
0.0
1001
ACDBBLOCKREPETAG
1070
     1
1071
       48
1005
127E38
  0
LINE
  5
127E39
  8
CENTER
 10
5155.0
 20
-951.999999999994202
 30
0.0
 11
5041.3449199130036504
 21
-952.0000000000595719
 31
0.0
1001
ACDBBLOCKREPETAG
1070
     1
1071
       49
1005
127E39
  0
LINE
  5
127E3A
  8
OBJECT
 10
5133.0
 20
-892.999999999994202
 30
0.0
 11
5097.0
 21
-892.999999999994202
 31
0.0
1001
ACDBBLOCKREPETAG
1070
     1
1071
       50
1005
127E3A
  0
LINE
  5
127E3B
  8
OBJECT
 10
5097.0
 20
-892.999999999994202
 30
0.0
 11
5097.0
 21
-1010.9999999999939746
 31
0.0
1001
ACDBBLOCKREPETAG
1070
     1
1071
       51
1005
127E3B
  0
LINE
  5
127E3C
  8
OBJECT
 10
5097.0
 20
-1010.9999999999939746
 30
0.0
 11
5140.0
 21
-1010.9999999999939746
 31
0.0
1001
ACDBBLOCKREPETAG
1070
     1
1071
       52
1005
127E3C
  0
LINE
  5
127E3D
  8
OBJECT
 10
5093.0
 20
-897.499999999994202
 30
0.0
 11
5082.5
 21
-897.499999999994202
 31
0.0
1001
ACDBBLOCKREPETAG
1070
     1
1071
       53
1005
127E3D
  0
LINE
  5
127E3E
  8
OBJECT
 10
5082.5
 20
-1006.4999999999939746
 30
0.0
 11
5093.0
 21
-1006.4999999999939746
 31
0.0
1001
ACDBBLOCKREPETAG
1070
     1
1071
       54
1005
127E3E
  0
LINE
  5
127E3F
  8
OBJECT
 10
5093.0
 20
-1006.4999999999939746
 30
0.0
 11
5093.0
 21
-897.499999999994202
 31
0.0
1001
ACDBBLOCKREPETAG
1070
     1
1071
       55
1005
127E3F
  0
LINE
  5
127E40
  8
OBJECT
 10
5097.0
 20
-892.999999999994202
 30
0.0
 11
5093.0
 21
-897.499999999994202
 31
0.0
1001
ACDBBLOCKREPETAG
1070
     1
1071
       56
1005
127E40
  0
LINE
  5
127E41
  8
OBJECT
 10
5097.0
 20
-1010.9999999999939746
 30
0.0
 11
5093.0
 21
-1006.4999999999939746
 31
0.0
1001
ACDBBLOCKREPETAG
1070
     1
1071
       57
1005
127E41
  0
LINE
  5
127E42
  8
HIDDEN
 10
5088.0
 20
-907.4999999999944293
 30
0.0
 11
5088.0
 21
-996.4999999999943157
 31
0.0
1001
ACDBBLOCKREPETAG
1070
     1
1071
       58
1005
127E42
  0
ARC
  5
127E43
  8
OBJECT
 10
5164.8782728787718952
 20
-967.4095072612229842
 30
0.0
 40
110.866352283089995
 50
144.1634274192942087
 51
163.0403538043456138
1001
ACDBBLOCKREPETAG
1070
     1
1071
       59
1005
127E43
  0
ARC
  5
127E44
  8
OBJECT
 10
5117.1359887769067427
 20
-952.2877497184432514
 30
0.0
 40
60.7917498803589567
 50
163.5472046522131109
 51
179.7287969828265943
1001
ACDBBLOCKREPETAG
1070
     1
1071
       60
1005
127E44
  0
ARC
  5
127E45
  8
OBJECT
 10
5117.1359956562482694
 20
-958.7122497598951441
 30
0.0
 40
60.7917567620948702
 50
180.2712034781451962
 51
196.4527794605201052
1001
ACDBBLOCKREPETAG
1070
     1
1071
       61
1005
127E45
  0
ARC
  5
127E46
  8
OBJECT
 10
5164.8782728787718952
 20
-943.5904927388304486
 30
0.0
 40
110.8663522830916008
 50
196.9596461956543862
 51
215.8365725807057913
1001
ACDBBLOCKREPETAG
1070
     1
1071
       62
1005
127E46
  0
LINE
  5
127E47
  8
OBJECT
 10
5056.3449199130045599
 20
-952.0000000000304681
 30
0.0
 11
5056.3449199130045599
 21
-959.0000000000270575
 31
0.0
1001
ACDBBLOCKREPETAG
1070
     1
1071
       63
1005
127E47
  0
LINE
  5
127E48
  8
OBJECT
 10
5074.9999999998353815
 20
-902.5000000002889919
 30
0.0
 11
5077.4999999998372004
 21
-902.5000000002889919
 31
0.0
1001
ACDBBLOCKREPETAG
1070
     1
1071
       65
1005
127E48
  0
LINE
  5
127E49
  8
OBJECT
 10
5074.999999999832653
 20
-1008.4999999997650093
 30
0.0
 11
5079.4999999998317435
 21
-1008.4999999997650093
 31
0.0
1001
ACDBBLOCKREPETAG
1070
     1
1071
       66
1005
127E49
  0
LINE
  5
127E4A
  8
OBJECT
 10
5079.4999999998317435
 20
-1008.4999999997650093
 30
0.0
 11
5077.4999999998372004
 21
-902.5000000002889919
 31
0.0
1001
ACDBBLOCKREPETAG
1070
     1
1071
       67
1005
127E4A
  0
LINE
  5
127E4B
  8
OBJECT
 10
5079.4999999998317435
 20
-1008.4999999997650093
 30
0.0
 11
5082.5
 21
-1006.4999999999939746
 31
0.0
1001
ACDBBLOCKREPETAG
1070
     1
1071
       68
1005
127E4B
  0
LINE
  5
127E4C
  8
OBJECT
 10
5082.5
 20
-1006.4999999999939746
 30
0.0
 11
5082.5
 21
-897.499999999994202
 31
0.0
1001
ACDBBLOCKREPETAG
1070
     1
1071
       69
1005
127E4C
  0
LINE
  5
127E4D
  8
OBJECT
 10
5082.5
 20
-897.499999999994202
 30
0.0
 11
5077.4999999998372004
 21
-902.5000000002889919
 31
0.0
1001
ACDBBLOCKREPETAG
1070
     1
1071
       70
1005
127E4D
  0
CIRCLE
  5
127E4E
  8
OBJECT
 10
5000.0
 20
-695.9999999999886313
 30
0.0
 40
62.0
1001
ACDBBLOCKREPETAG
1070
     1
1071
        3
1005
127E4E
  0
LINE
  5
127E4F
  8
CENTER
 10
4938.0
 20
-710.9999999999886313
 30
0.0
 11
5062.0
 21
-710.9999999999886313
 31
0.0
1001
ACDBBLOCKREPETAG
1070
     1
1071
        4
1005
127E4F
  0
CIRCLE
  5
127E50
  8
OBJECT
 10
5000.0
 20
-710.9999999999886313
 30
0.0
 40
28.0
1001
ACDBBLOCKREPETAG
1070
     1
1071
        6
1005
127E50
  0
CIRCLE
  5
127E51
  8
OBJECT
 10
5000.0
 20
-710.9999999999886313
 30
0.0
 40
39.0
1001
ACDBBLOCKREPETAG
1070
     1
1071
        7
1005
127E51
  0
ARC
  5
127E52
  8
OBJECT
 10
5000.0
 20
-710.9999999999886313
 30
0.0
 40
47.0
 50
290.5819692114417876
 51
249.4180307885582124
1001
ACDBBLOCKREPETAG
1070
     1
1071
        8
1005
127E52
  0
LINE
  5
127E53
  8
OBJECT
 10
4983.4772883581426868
 20
-754.9999999999886313
 30
0.0
 11
5016.5227116418582227
 21
-754.9999999999886313
 31
0.0
1001
ACDBBLOCKREPETAG
1070
     1
1071
        9
1005
127E53
  0
LINE
  5
127E54
  8
OBJECT
 10
4923.0
 20
-570.9999999999886313
 30
0.0
 11
4923.0
 21
-549.9999999999886313
 31
0.0
1001
ACDBBLOCKREPETAG
1070
     1
1071
       20
1005
127E54
  0
LINE
  5
127E55
  8
OBJECT
 10
4923.0
 20
-549.9999999999886313
 30
0.0
 11
5077.0
 21
-549.9999999999886313
 31
0.0
1001
ACDBBLOCKREPETAG
1070
     1
1071
       21
1005
127E55
  0
LINE
  5
127E56
  8
HIDDEN
 10
4943.0
 20
-619.9999999999886313
 30
0.0
 11
5057.0
 21
-619.9999999999886313
 31
0.0
1001
ACDBBLOCKREPETAG
1070
     1
1071
       22
1005
127E56
  0
LINE
  5
127E57
  8
OBJECT
 10
5077.0
 20
-549.9999999999886313
 30
0.0
 11
5077.0
 21
-570.9999999999886313
 31
0.0
1001
ACDBBLOCKREPETAG
1070
     1
1071
       23
1005
127E57
  0
LINE
  5
127E58
  8
OBJECT
 10
5077.0
 20
-570.9999999999886313
 30
0.0
 11
4923.0
 21
-570.9999999999886313
 31
0.0
1001
ACDBBLOCKREPETAG
1070
     1
1071
       24
1005
127E58
  0
LINE
  5
127E59
  8
CENTER
 10
5000.0
 20
-534.9999999999886313
 30
0.0
 11
5000.0
 21
-769.9999999999886313
 31
0.0
1001
ACDBBLOCKREPETAG
1070
     1
1071
       25
1005
127E59
  0
LINE
  5
127E5A
  8
OBJECT
 10
4925.0
 20
-633.9999999999886313
 30
0.0
 11
4925.0
 21
-757.9999999999886313
 31
0.0
1001
ACDBBLOCKREPETAG
1070
     1
1071
       26
1005
127E5A
  0
LINE
  5
127E5B
  8
OBJECT
 10
4928.0
 20
-570.9999999999886313
 30
0.0
 11
4928.0
 21
-633.9999999999886313
 31
0.0
1001
ACDBBLOCKREPETAG
1070
     1
1071
       27
1005
127E5B
  0
LINE
  5
127E5C
  8
OBJECT
 10
5072.0
 20
-633.9999999999886313
 30
0.0
 11
5072.0
 21
-570.9999999999886313
 31
0.0
1001
ACDBBLOCKREPETAG
1070
     1
1071
       28
1005
127E5C
  0
LINE
  5
127E5D
  8
OBJECT
 10
4920.0
 20
-757.9999999999886313
 30
0.0
 11
5080.0
 21
-757.9999999999886313
 31
0.0
1001
ACDBBLOCKREPETAG
1070
     1
1071
       29
1005
127E5D
  0
LINE
  5
127E5E
  8
OBJECT
 10
5075.0
 20
-633.9999999999886313
 30
0.0
 11
4925.0
 21
-633.9999999999886313
 31
0.0
1001
ACDBBLOCKREPETAG
1070
     1
1071
       30
1005
127E5E
  0
LINE
  5
127E5F
  8
OBJECT
 10
4920.0
 20
-757.9999999999886313
 30
0.0
 11
4920.0
 21
-769.9999999999886313
 31
0.0
1001
ACDBBLOCKREPETAG
1070
     1
1071
       31
1005
127E5F
  0
LINE
  5
127E60
  8
OBJECT
 10
4920.0
 20
-769.9999999999886313
 30
0.0
 11
5080.0
 21
-769.9999999999886313
 31
0.0
1001
ACDBBLOCKREPETAG
1070
     1
1071
       32
1005
127E60
  0
LINE
  5
127E61
  8
OBJECT
 10
5080.0
 20
-769.9999999999886313
 30
0.0
 11
5080.0
 21
-757.9999999999886313
 31
0.0
1001
ACDBBLOCKREPETAG
1070
     1
1071
       33
1005
127E61
  0
LINE
  5
127E62
  8
OBJECT
 10
5075.0
 20
-633.9999999999886313
 30
0.0
 11
5075.0
 21
-757.9999999999886313
 31
0.0
1001
ACDBBLOCKREPETAG
1070
     1
1071
       34
1005
127E62
  0
LINE
  5
127E63
  8
OBJECT
 10
2930.0
 20
-1364.9999999999920419
 30
0.0
 11
3070.0
 21
-1364.9999999999920419
 31
0.0
1001
ACDBBLOCKREPETAG
1070
     1
1071
        0
1005
127E63
  0
LINE
  5
127E64
  8
OBJECT
 10
2930.0
 20
-1364.9999999999920419
 30
0.0
 11
2930.0
 21
-1124.9999999999920419
 31
0.0
1001
ACDBBLOCKREPETAG
1070
     1
1071
        1
1005
127E64
  0
LINE
  5
127E65
  8
OBJECT
 10
3070.0
 20
-1364.9999999999920419
 30
0.0
 11
3070.0
 21
-1124.9999999999920419
 31
0.0
1001
ACDBBLOCKREPETAG
1070
     1
1071
        2
1005
127E65
  0
LINE
  5
127E66
  8
OBJECT
 10
2930.0
 20
-1124.9999999999920419
 30
0.0
 11
3070.0
 21
-1124.9999999999920419
 31
0.0
1001
ACDBBLOCKREPETAG
1070
     1
1071
        3
1005
127E66
  0
LINE
  5
127E67
  8
HIDDEN
 10
2937.5
 20
-1124.9999999999920419
 30
0.0
 11
2937.5
 21
-1364.9999999999920419
 31
0.0
1001
ACDBBLOCKREPETAG
1070
     1
1071
        4
1005
127E67
  0
LINE
  5
127E68
  8
HIDDEN
 10
3062.5
 20
-1124.9999999999920419
 30
0.0
 11
3062.5
 21
-1364.9999999999920419
 31
0.0
1001
ACDBBLOCKREPETAG
1070
     1
1071
        5
1005
127E68
  0
LINE
  5
127E69
  8
CENTER
 10
3000.0
 20
-1054.9999999999940883
 30
0.0
 11
3000.0
 21
-1379.9999999999929514
 31
0.0
1001
ACDBBLOCKREPETAG
1070
     1
1071
        6
1005
127E69
  0
LINE
  5
127E6A
  8
OBJECT
 10
2925.0
 20
-1054.9999999999940883
 30
0.0
 11
2925.0
 21
-1084.9999999999920419
 31
0.0
1001
ACDBBLOCKREPETAG
1070
     1
1071
        7
1005
127E6A
  0
LINE
  5
127E6B
  8
OBJECT
 10
3075.0000000000050022
 20
-1054.9999999999940883
 30
0.0
 11
3075.0
 21
-1084.9999999999920419
 31
0.0
1001
ACDBBLOCKREPETAG
1070
     1
1071
        8
1005
127E6B
  0
LINE
  5
127E6C
  8
OBJECT
 10
2925.0
 20
-1084.9999999999920419
 30
0.0
 11
3075.0
 21
-1084.9999999999920419
 31
0.0
1001
ACDBBLOCKREPETAG
1070
     1
1071
        9
1005
127E6C
  0
LINE
  5
127E6D
  8
OBJECT
 10
2925.0
 20
-1084.9999999999920419
 30
0.0
 11
2930.0
 21
-1124.9999999999920419
 31
0.0
1001
ACDBBLOCKREPETAG
1070
     1
1071
       10
1005
127E6D
  0
LINE
  5
127E6E
  8
OBJECT
 10
3070.0
 20
-1124.9999999999920419
 30
0.0
 11
3075.0
 21
-1084.9999999999920419
 31
0.0
1001
ACDBBLOCKREPETAG
1070
     1
1071
       11
1005
127E6E
  0
LINE
  5
127E6F
  8
OBJECT
 10
3075.0
 20
-769.9999999999943157
 30
0.0
 11
3075.0
 21
-902.5000000000594582
 31
0.0
1001
ACDBBLOCKREPETAG
1070
     1
1071
        1
1005
127E6F
  0
LINE
  5
127E70
  8
OBJECT
 10
2925.0
 20
-769.9999999999886313
 30
0.0
 11
2925.0
 21
-1042.9999999999940883
 31
0.0
1001
ACDBBLOCKREPETAG
1070
     1
1071
        3
1005
127E70
  0
LINE
  5
127E71
  8
CENTER
 10
3000.0
 20
-769.9999999999943157
 30
0.0
 11
3000.0
 21
-1054.9999999999940883
 31
0.0
1001
ACDBBLOCKREPETAG
1070
     1
1071
        6
1005
127E71
  0
LINE
  5
127E72
  8
OBJECT
 10
2920.0
 20
-1054.9999999999940883
 30
0.0
 11
3080.0
 21
-1054.9999999999940883
 31
0.0
1001
ACDBBLOCKREPETAG
1070
     1
1071
        7
1005
127E72
  0
LINE
  5
127E73
  8
OBJECT
 10
2920.0
 20
-1042.9999999999940883
 30
0.0
 11
3080.0
 21
-1042.9999999999940883
 31
0.0
1001
ACDBBLOCKREPETAG
1070
     1
1071
        8
1005
127E73
  0
LINE
  5
127E74
  8
OBJECT
 10
2920.0
 20
-1042.9999999999940883
 30
0.0
 11
2920.0
 21
-1054.9999999999940883
 31
0.0
1001
ACDBBLOCKREPETAG
1070
     1
1071
        9
1005
127E74
  0
LINE
  5
127E75
  8
OBJECT
 10
3080.0
 20
-1042.9999999999940883
 30
0.0
 11
3080.0
 21
-1054.9999999999940883
 31
0.0
1001
ACDBBLOCKREPETAG
1070
     1
1071
       10
1005
127E75
  0
LINE
  5
127E76
  8
OBJECT
 10
3075.0
 20
-1008.4999999999939746
 30
0.0
 11
3075.0
 21
-1042.9999999999940883
 31
0.0
1001
ACDBBLOCKREPETAG
1070
     1
1071
        1
1005
127E6F
  0
POINT
  5
127E77
  8
DOTS
 10
3000.0
 20
-1010.9999999999939746
 30
0.0
  0
LINE
  5
127E78
  8
OBJECT
 10
3133.0
 20
-889.9999999999943157
 30
0.0
 11
3140.0
 21
-889.9999999999943157
 31
0.0
1001
ACDBBLOCKREPETAG
1070
     1
1071
       46
1005
127E78
  0
LINE
  5
127E79
  8
OBJECT
 10
3140.0
 20
-889.9999999999943157
 30
0.0
 11
3140.0
 21
-1010.9999999999939746
 31
0.0
1001
ACDBBLOCKREPETAG
1070
     1
1071
       47
1005
127E79
  0
LINE
  5
127E7A
  8
OBJECT
 10
3133.0
 20
-1010.9999999999939746
 30
0.0
 11
3133.0
 21
-889.9999999999943157
 31
0.0
1001
ACDBBLOCKREPETAG
1070
     1
1071
       48
1005
127E7A
  0
LINE
  5
127E7B
  8
CENTER
 10
3155.0
 20
-951.999999999994202
 30
0.0
 11
3041.3449199130050147
 21
-952.0000000000595719
 31
0.0
1001
ACDBBLOCKREPETAG
1070
     1
1071
       49
1005
127E7B
  0
LINE
  5
127E7C
  8
OBJECT
 10
3133.0
 20
-892.999999999994202
 30
0.0
 11
3097.0
 21
-892.999999999994202
 31
0.0
1001
ACDBBLOCKREPETAG
1070
     1
1071
       50
1005
127E7C
  0
LINE
  5
127E7D
  8
OBJECT
 10
3097.0
 20
-892.999999999994202
 30
0.0
 11
3097.0
 21
-1010.9999999999939746
 31
0.0
1001
ACDBBLOCKREPETAG
1070
     1
1071
       51
1005
127E7D
  0
LINE
  5
127E7E
  8
OBJECT
 10
3097.0
 20
-1010.9999999999939746
 30
0.0
 11
3140.0
 21
-1010.9999999999939746
 31
0.0
1001
ACDBBLOCKREPETAG
1070
     1
1071
       52
1005
127E7E
  0
LINE
  5
127E7F
  8
OBJECT
 10
3093.0
 20
-897.499999999994202
 30
0.0
 11
3082.5
 21
-897.499999999994202
 31
0.0
1001
ACDBBLOCKREPETAG
1070
     1
1071
       53
1005
127E7F
  0
LINE
  5
127E80
  8
OBJECT
 10
3082.5
 20
-1006.4999999999939746
 30
0.0
 11
3093.0
 21
-1006.4999999999939746
 31
0.0
1001
ACDBBLOCKREPETAG
1070
     1
1071
       54
1005
127E80
  0
LINE
  5
127E81
  8
OBJECT
 10
3093.0
 20
-1006.4999999999939746
 30
0.0
 11
3093.0
 21
-897.499999999994202
 31
0.0
1001
ACDBBLOCKREPETAG
1070
     1
1071
       55
1005
127E81
  0
LINE
  5
127E82
  8
OBJECT
 10
3097.0
 20
-892.999999999994202
 30
0.0
 11
3093.0
 21
-897.499999999994202
 31
0.0
1001
ACDBBLOCKREPETAG
1070
     1
1071
       56
1005
127E82
  0
LINE
  5
127E83
  8
OBJECT
 10
3097.0
 20
-1010.9999999999939746
 30
0.0
 11
3093.0
 21
-1006.4999999999939746
 31
0.0
1001
ACDBBLOCKREPETAG
1070
     1
1071
       57
1005
127E83
  0
LINE
  5
127E84
  8
HIDDEN
 10
3088.0
 20
-907.4999999999944293
 30
0.0
 11
3088.0
 21
-996.4999999999943157
 31
0.0
1001
ACDBBLOCKREPETAG
1070
     1
1071
       58
1005
127E84
  0
ARC
  5
127E85
  8
OBJECT
 10
3164.8782728787741689
 20
-967.4095072612229842
 30
0.0
 40
110.866352283089995
 50
144.1634274192942087
 51
163.0403538043379115
1001
ACDBBLOCKREPETAG
1070
     1
1071
       59
1005
127E85
  0
ARC
  5
127E86
  8
OBJECT
 10
3117.135988776908107
 20
-952.2877497184432514
 30
0.0
 40
60.7917498803589567
 50
163.5472046522205005
 51
179.7287969828267933
1001
ACDBBLOCKREPETAG
1070
     1
1071
       60
1005
127E86
  0
ARC
  5
127E87
  8
OBJECT
 10
3117.1359956562491789
 20
-958.7122497598951441
 30
0.0
 40
60.7917567620948702
 50
180.2712034781451962
 51
196.4527794605276085
1001
ACDBBLOCKREPETAG
1070
     1
1071
       61
1005
127E87
  0
ARC
  5
127E88
  8
OBJECT
 10
3164.8782728787741689
 20
-943.5904927388304486
 30
0.0
 40
110.8663522830916008
 50
196.9596461956618043
 51
215.8365725807057913
1001
ACDBBLOCKREPETAG
1070
     1
1071
       62
1005
127E88
  0
LINE
  5
127E89
  8
OBJECT
 10
3056.3449199130050147
 20
-952.0000000000304681
 30
0.0
 11
3056.3449199130050147
 21
-959.0000000000270575
 31
0.0
1001
ACDBBLOCKREPETAG
1070
     1
1071
       63
1005
127E89
  0
LINE
  5
127E8A
  8
OBJECT
 10
3074.9999999998358362
 20
-902.5000000002889919
 30
0.0
 11
3077.4999999998372004
 21
-902.5000000002889919
 31
0.0
1001
ACDBBLOCKREPETAG
1070
     1
1071
       65
1005
127E8A
  0
LINE
  5
127E8B
  8
OBJECT
 10
3074.9999999998331077
 20
-1008.4999999997650093
 30
0.0
 11
3079.4999999998331077
 21
-1008.4999999997650093
 31
0.0
1001
ACDBBLOCKREPETAG
1070
     1
1071
       66
1005
127E8B
  0
LINE
  5
127E8C
  8
OBJECT
 10
3079.4999999998331077
 20
-1008.4999999997650093
 30
0.0
 11
3077.4999999998372004
 21
-902.5000000002889919
 31
0.0
1001
ACDBBLOCKREPETAG
1070
     1
1071
       67
1005
127E8C
  0
LINE
  5
127E8D
  8
OBJECT
 10
3079.4999999998331077
 20
-1008.4999999997650093
 30
0.0
 11
3082.5
 21
-1006.4999999999939746
 31
0.0
1001
ACDBBLOCKREPETAG
1070
     1
1071
       68
1005
127E8D
  0
LINE
  5
127E8E
  8
OBJECT
 10
3082.5
 20
-1006.4999999999939746
 30
0.0
 11
3082.5
 21
-897.499999999994202
 31
0.0
1001
ACDBBLOCKREPETAG
1070
     1
1071
       69
1005
127E8E
  0
LINE
  5
127E8F
  8
OBJECT
 10
3082.5
 20
-897.499999999994202
 30
0.0
 11
3077.4999999998372004
 21
-902.5000000002889919
 31
0.0
1001
ACDBBLOCKREPETAG
1070
     1
1071
       70
1005
127E8F
  0
LINE
  5
127E90
  8
OBJECT
 10
2425.0
 20
-769.9999999999943157
 30
0.0
 11
2425.0
 21
-1042.9999999999940883
 31
0.0
1001
ACDBBLOCKREPETAG
1070
     1
1071
        1
1005
127E90
  0
LINE
  5
127E91
  8
OBJECT
 10
2575.0
 20
-769.9999999999886313
 30
0.0
 11
2575.0
 21
-1042.9999999999940883
 31
0.0
1001
ACDBBLOCKREPETAG
1070
     1
1071
        3
1005
127E91
  0
LINE
  5
127E92
  8
CENTER
 10
2500.0
 20
-769.9999999999943157
 30
0.0
 11
2500.0
 21
-1054.9999999999940883
 31
0.0
1001
ACDBBLOCKREPETAG
1070
     1
1071
        6
1005
127E92
  0
LINE
  5
127E93
  8
OBJECT
 10
2420.0
 20
-1054.9999999999940883
 30
0.0
 11
2580.0
 21
-1054.9999999999940883
 31
0.0
1001
ACDBBLOCKREPETAG
1070
     1
1071
        7
1005
127E93
  0
LINE
  5
127E94
  8
OBJECT
 10
2420.0
 20
-1042.9999999999940883
 30
0.0
 11
2580.0
 21
-1042.9999999999940883
 31
0.0
1001
ACDBBLOCKREPETAG
1070
     1
1071
        8
1005
127E94
  0
LINE
  5
127E95
  8
OBJECT
 10
2420.0
 20
-1042.9999999999940883
 30
0.0
 11
2420.0
 21
-1054.9999999999940883
 31
0.0
1001
ACDBBLOCKREPETAG
1070
     1
1071
        9
1005
127E95
  0
LINE
  5
127E96
  8
OBJECT
 10
2580.0
 20
-1042.9999999999940883
 30
0.0
 11
2580.0
 21
-1054.9999999999940883
 31
0.0
1001
ACDBBLOCKREPETAG
1070
     1
1071
       10
1005
127E96
  0
LINE
  5
127E97
  8
CENTER
 10
2577.0
 20
-951.999999999994202
 30
0.0
 11
2423.0
 21
-951.999999999994202
 31
0.0
1001
ACDBBLOCKREPETAG
1070
     1
1071
       17
1005
127E97
  0
CIRCLE
  5
127E98
  8
HIDDEN
 10
2500.0
 20
-951.999999999994202
 30
0.0
 40
41.5
1001
ACDBBLOCKREPETAG
1070
     1
1071
       18
1005
127E98
  0
CIRCLE
  5
127E99
  8
HIDDEN
 10
2500.0
 20
-951.999999999994202
 30
0.0
 40
54.0
1001
ACDBBLOCKREPETAG
1070
     1
1071
       19
1005
127E99
  0
ARC
  5
127E9A
  8
HIDDEN
 10
2500.0
 20
-951.999999999994202
 30
0.0
 40
62.0
 50
287.8965511292091719
 51
252.1034488707907997
1001
ACDBBLOCKREPETAG
1070
     1
1071
       20
1005
127E9A
  0
LINE
  5
127E9B
  8
HIDDEN
 10
2480.9474411167429935
 20
-1010.9999999999939746
 30
0.0
 11
2519.0525588832570065
 21
-1010.9999999999939746
 31
0.0
1001
ACDBBLOCKREPETAG
1070
     1
1071
       21
1005
127E9B
  0
POINT
  5
127E9C
  8
DOTS
 10
2500.0
 20
-1010.9999999999939746
 30
0.0
1001
ACDBBLOCKREPETAG
1070
     1
1071
       23
1005
127E9C
  0
LINE
  5
127E9D
  8
DIM
 10
2665.0000000000009095
 20
-710.9999999999946567
 30
0.0
 11
2719.4245816727589045
 21
-710.9999999999946567
 31
0.0
  0
LINE
  5
127E9E
  8
DIM
 10
2529.052558883257916
 20
-1010.9999999999949978
 30
0.0
 11
2719.4245816727589045
 21
-1010.9999999999949978
 31
0.0
  0
LINE
  5
127E9F
  8
DIM
 10
2709.4245816727589045
 20
-730.999999999994543
 30
0.0
 11
2709.4245816727589045
 21
-990.9999999999947704
 31
0.0
  0
INSERT
  5
127EA0
  8
DIM
  2
_OPEN30
 10
2709.4245816727589045
 20
-710.9999999999946567
 30
0.0
 41
20.0
 42
20.0
 43
20.0
 50
90.0
  0
INSERT
  5
127EA1
  8
DIM
  2
_OPEN30
 10
2709.4245816727589045
 20
-1010.9999999999949978
 30
0.0
 41
20.0
 42
20.0
 43
20.0
 50
270.0
  0
INSERT
  5
127EA2
  8
SLIM
  2
*U22
 10
0.0
 20
0.0
 30
0.0
  0
CIRCLE
  5
127EA3
  8
OBJECT
 10
3000.0
 20
-695.9999999999886313
 30
0.0
 40
62.0
1001
ACDBBLOCKREPETAG
1070
     1
1071
        3
1005
127EA3
  0
LINE
  5
127EA4
  8
CENTER
 10
2938.0
 20
-710.9999999999886313
 30
0.0
 11
3062.0
 21
-710.9999999999886313
 31
0.0
1001
ACDBBLOCKREPETAG
1070
     1
1071
        4
1005
127EA4
  0
CIRCLE
  5
127EA5
  8
OBJECT
 10
3000.0
 20
-710.9999999999886313
 30
0.0
 40
28.0
1001
ACDBBLOCKREPETAG
1070
     1
1071
        6
1005
127EA5
  0
CIRCLE
  5
127EA6
  8
OBJECT
 10
3000.0
 20
-710.9999999999886313
 30
0.0
 40
39.0
1001
ACDBBLOCKREPETAG
1070
     1
1071
        7
1005
127EA6
  0
ARC
  5
127EA7
  8
OBJECT
 10
3000.0
 20
-710.9999999999886313
 30
0.0
 40
47.0
 50
290.5819692114417876
 51
249.4180307885582124
1001
ACDBBLOCKREPETAG
1070
     1
1071
        8
1005
127EA7
  0
LINE
  5
127EA8
  8
OBJECT
 10
2983.477288358144051
 20
-754.9999999999886313
 30
0.0
 11
3016.5227116418591322
 21
-754.9999999999886313
 31
0.0
1001
ACDBBLOCKREPETAG
1070
     1
1071
        9
1005
127EA8
  0
LINE
  5
127EA9
  8
OBJECT
 10
2923.0
 20
-570.9999999999886313
 30
0.0
 11
2923.0
 21
-549.9999999999886313
 31
0.0
1001
ACDBBLOCKREPETAG
1070
     1
1071
       20
1005
127EA9
  0
LINE
  5
127EAA
  8
OBJECT
 10
2923.0
 20
-549.9999999999886313
 30
0.0
 11
3077.0
 21
-549.9999999999886313
 31
0.0
1001
ACDBBLOCKREPETAG
1070
     1
1071
       21
1005
127EAA
  0
LINE
  5
127EAB
  8
HIDDEN
 10
2943.0
 20
-619.9999999999886313
 30
0.0
 11
3057.0
 21
-619.9999999999886313
 31
0.0
1001
ACDBBLOCKREPETAG
1070
     1
1071
       22
1005
127EAB
  0
LINE
  5
127EAC
  8
OBJECT
 10
3077.0
 20
-549.9999999999886313
 30
0.0
 11
3077.0
 21
-570.9999999999886313
 31
0.0
1001
ACDBBLOCKREPETAG
1070
     1
1071
       23
1005
127EAC
  0
LINE
  5
127EAD
  8
OBJECT
 10
3077.0
 20
-570.9999999999886313
 30
0.0
 11
2923.0
 21
-570.9999999999886313
 31
0.0
1001
ACDBBLOCKREPETAG
1070
     1
1071
       24
1005
127EAD
  0
LINE
  5
127EAE
  8
CENTER
 10
3000.0
 20
-534.9999999999886313
 30
0.0
 11
3000.0
 21
-769.9999999999886313
 31
0.0
1001
ACDBBLOCKREPETAG
1070
     1
1071
       25
1005
127EAE
  0
LINE
  5
127EAF
  8
OBJECT
 10
2925.0
 20
-633.9999999999886313
 30
0.0
 11
2925.0
 21
-757.9999999999886313
 31
0.0
1001
ACDBBLOCKREPETAG
1070
     1
1071
       26
1005
127EAF
  0
LINE
  5
127EB0
  8
OBJECT
 10
2928.0
 20
-570.9999999999886313
 30
0.0
 11
2928.0
 21
-633.9999999999886313
 31
0.0
1001
ACDBBLOCKREPETAG
1070
     1
1071
       27
1005
127EB0
  0
LINE
  5
127EB1
  8
OBJECT
 10
3072.0
 20
-633.9999999999886313
 30
0.0
 11
3072.0
 21
-570.9999999999886313
 31
0.0
1001
ACDBBLOCKREPETAG
1070
     1
1071
       28
1005
127EB1
  0
LINE
  5
127EB2
  8
OBJECT
 10
2920.0
 20
-757.9999999999886313
 30
0.0
 11
3080.0
 21
-757.9999999999886313
 31
0.0
1001
ACDBBLOCKREPETAG
1070
     1
1071
       29
1005
127EB2
  0
LINE
  5
127EB3
  8
OBJECT
 10
3075.0
 20
-633.9999999999886313
 30
0.0
 11
2925.0
 21
-633.9999999999886313
 31
0.0
1001
ACDBBLOCKREPETAG
1070
     1
1071
       30
1005
127EB3
  0
LINE
  5
127EB4
  8
OBJECT
 10
2920.0
 20
-757.9999999999886313
 30
0.0
 11
2920.0
 21
-769.9999999999886313
 31
0.0
1001
ACDBBLOCKREPETAG
1070
     1
1071
       31
1005
127EB4
  0
LINE
  5
127EB5
  8
OBJECT
 10
2920.0
 20
-769.9999999999886313
 30
0.0
 11
3080.0
 21
-769.9999999999886313
 31
0.0
1001
ACDBBLOCKREPETAG
1070
     1
1071
       32
1005
127EB5
  0
LINE
  5
127EB6
  8
OBJECT
 10
3080.0
 20
-769.9999999999886313
 30
0.0
 11
3080.0
 21
-757.9999999999886313
 31
0.0
1001
ACDBBLOCKREPETAG
1070
     1
1071
       33
1005
127EB6
  0
LINE
  5
127EB7
  8
OBJECT
 10
3075.0
 20
-633.9999999999886313
 30
0.0
 11
3075.0
 21
-757.9999999999886313
 31
0.0
1001
ACDBBLOCKREPETAG
1070
     1
1071
       34
1005
127EB7
  0
LINE
  5
127EB8
  8
OBJECT
 10
2633.0
 20
-152.9999999999990905
 30
0.0
 11
2640.0
 21
-152.9999999999990905
 31
0.0
1001
ACDBBLOCKREPETAG
1070
     1
1071
        7
1005
127EB8
  0
LINE
  5
127EB9
  8
OBJECT
 10
2640.0
 20
-152.9999999999990905
 30
0.0
 11
2640.0
 21
-246.9999999999990905
 31
0.0
1001
ACDBBLOCKREPETAG
1070
     1
1071
        8
1005
127EB9
  0
LINE
  5
127EBA
  8
OBJECT
 10
2640.0
 20
-246.9999999999990905
 30
0.0
 11
2633.0
 21
-246.9999999999990905
 31
0.0
1001
ACDBBLOCKREPETAG
1070
     1
1071
        9
1005
127EBA
  0
LINE
  5
127EBB
  8
OBJECT
 10
2633.0
 20
-246.9999999999990905
 30
0.0
 11
2633.0
 21
-152.9999999999990905
 31
0.0
1001
ACDBBLOCKREPETAG
1070
     1
1071
       10
1005
127EBB
  0
LINE
  5
127EBC
  8
CENTER
 10
2655.0
 20
-199.9999999999990905
 30
0.0
 11
2580.0
 21
-199.9999999999990905
 31
0.0
1001
ACDBBLOCKREPETAG
1070
     1
1071
       11
1005
127EBC
  0
LINE
  5
127EBD
  8
OBJECT
 10
2633.0
 20
-155.9999999999990905
 30
0.0
 11
2597.0
 21
-155.9999999999990905
 31
0.0
1001
ACDBBLOCKREPETAG
1070
     1
1071
       12
1005
127EBD
  0
LINE
  5
127EBE
  8
OBJECT
 10
2597.0
 20
-155.9999999999990905
 30
0.0
 11
2597.0
 21
-243.9999999999990905
 31
0.0
1001
ACDBBLOCKREPETAG
1070
     1
1071
       13
1005
127EBE
  0
LINE
  5
127EBF
  8
OBJECT
 10
2597.0
 20
-243.9999999999990905
 30
0.0
 11
2633.0
 21
-243.9999999999990905
 31
0.0
1001
ACDBBLOCKREPETAG
1070
     1
1071
       14
1005
127EBF
  0
LINE
  5
127EC0
  8
OBJECT
 10
2593.0
 20
-160.4999999999990905
 30
0.0
 11
2586.0
 21
-160.4999999999990905
 31
0.0
1001
ACDBBLOCKREPETAG
1070
     1
1071
       15
1005
127EC0
  0
LINE
  5
127EC1
  8
OBJECT
 10
2586.0
 20
-239.4999999999990905
 30
0.0
 11
2593.0
 21
-239.4999999999990905
 31
0.0
1001
ACDBBLOCKREPETAG
1070
     1
1071
       16
1005
127EC1
  0
LINE
  5
127EC2
  8
OBJECT
 10
2593.0
 20
-239.4999999999990905
 30
0.0
 11
2593.0
 21
-160.4999999999990905
 31
0.0
1001
ACDBBLOCKREPETAG
1070
     1
1071
       17
1005
127EC2
  0
LINE
  5
127EC3
  8
OBJECT
 10
2597.0
 20
-155.9999999999990905
 30
0.0
 11
2593.0
 21
-160.4999999999990905
 31
0.0
1001
ACDBBLOCKREPETAG
1070
     1
1071
       18
1005
127EC3
  0
LINE
  5
127EC4
  8
OBJECT
 10
2597.0
 20
-243.9999999999990905
 30
0.0
 11
2593.0
 21
-239.4999999999990905
 31
0.0
1001
ACDBBLOCKREPETAG
1070
     1
1071
       19
1005
127EC4
  0
LINE
  5
127EC5
  8
OBJECT
 10
2583.0
 20
-137.9999999999990905
 30
0.0
 11
2580.0
 21
-137.9999999999990905
 31
0.0
1001
ACDBBLOCKREPETAG
1070
     1
1071
       20
1005
127EC5
  0
ARC
  5
127EC6
  8
OBJECT
 10
2583.0
 20
-140.9999999999990905
 30
0.0
 40
3.0
 50
0.0
 51
90.0
1001
ACDBBLOCKREPETAG
1070
     1
1071
       21
1005
127EC6
  0
LINE
  5
127EC7
  8
OBJECT
 10
2580.0
 20
-261.9999999999990905
 30
0.0
 11
2583.0
 21
-261.9999999999990905
 31
0.0
1001
ACDBBLOCKREPETAG
1070
     1
1071
       22
1005
127EC7
  0
ARC
  5
127EC8
  8
OBJECT
 10
2583.0
 20
-258.9999999999990905
 30
0.0
 40
3.0
 50
270.0
 51
0.0
1001
ACDBBLOCKREPETAG
1070
     1
1071
       23
1005
127EC8
  0
LINE
  5
127EC9
  8
OBJECT
 10
2586.0
 20
-258.9999999999990905
 30
0.0
 11
2586.0
 21
-140.9999999999990905
 31
0.0
1001
ACDBBLOCKREPETAG
1070
     1
1071
       24
1005
127EC9
  0
LINE
  5
127ECA
  8
HIDDEN
 10
2588.0
 20
-169.9999999999990905
 30
0.0
 11
2588.0
 21
-229.9999999999990905
 31
0.0
1001
ACDBBLOCKREPETAG
1070
     1
1071
       25
1005
127ECA
  0
LINE
  5
127ECB
  8
SLIM
  6
CONTINUOUS
 10
4424.8586105144177054
 20
-160.2662412276912107
 30
0.0
 11
4450.5
 21
-134.6248517421090014
 31
0.0
1001
GRADIENTCOLOR1ACI
1070
     5
1001
GRADIENTCOLOR2ACI
1070
     2
1001
ACAD
1010
0.0
1020
0.0
1030
0.0
  0
LINE
  5
127ECC
  8
SLIM
  6
CONTINUOUS
 10
4418.6084340676761713
 20
-175.4966737955037104
 30
0.0
 11
4427.1385399004420833
 21
-166.9665679627368888
 31
0.0
1001
GRADIENTCOLOR1ACI
1070
     5
1001
GRADIENTCOLOR2ACI
1070
     2
1001
ACAD
1010
0.0
1020
0.0
1030
0.0
  0
LINE
  5
127ECD
  8
SLIM
  6
CONTINUOUS
 10
4415.9844434040933265
 20
-187.1009205801574069
 30
0.0
 11
4422.3555558663219927
 21
-180.7298081179278029
 31
0.0
1001
GRADIENTCOLOR1ACI
1070
     5
1001
GRADIENTCOLOR2ACI
1070
     2
1001
ACAD
1010
0.0
1020
0.0
1030
0.0
  0
LINE
  5
127ECE
  8
SLIM
  6
CONTINUOUS
 10
4415.0524951669203801
 20
-197.0131249383975955
 30
0.0
 11
4416.0656201053188852
 21
-196.0
 31
0.0
1001
GRADIENTCOLOR1ACI
1070
     5
1001
GRADIENTCOLOR2ACI
1070
     2
1001
ACAD
1010
0.0
1020
0.0
1030
0.0
  0
LINE
  5
127ECF
  8
SLIM
  6
CONTINUOUS
 10
4416.0656201053188852
 20
-196.0
 30
0.0
 11
4420.4394650548319987
 21
-191.6261550504866875
 31
0.0
1001
GRADIENTCOLOR1ACI
1070
     5
1001
GRADIENTCOLOR2ACI
1070
     2
1001
ACAD
1010
0.0
1020
0.0
1030
0.0
  0
LINE
  5
127ED0
  8
SLIM
  6
CONTINUOUS
 10
4415.2011819161407402
 20
-205.8446943102472062
 30
0.0
 11
4420.0067489441089492
 21
-201.0391272822789119
 31
0.0
1001
GRADIENTCOLOR1ACI
1070
     5
1001
GRADIENTCOLOR2ACI
1070
     2
1001
ACAD
1010
0.0
1020
0.0
1030
0.0
  0
LINE
  5
127ED1
  8
SLIM
  6
CONTINUOUS
 10
4416.1416587718949813
 20
-213.8844735755619979
 30
0.0
 11
4420.5618067828409039
 21
-209.4643255646161037
 31
0.0
1001
GRADIENTCOLOR1ACI
1070
     5
1001
GRADIENTCOLOR2ACI
1070
     2
1001
ACAD
1010
0.0
1020
0.0
1030
0.0
  0
LINE
  5
127ED2
  8
SLIM
  6
CONTINUOUS
 10
4417.710870111020995
 20
-221.2955183575031981
 30
0.0
 11
4419.0063884685268931
 21
-219.9999999999990905
 31
0.0
1001
GRADIENTCOLOR1ACI
1070
     5
1001
GRADIENTCOLOR2ACI
1070
     2
1001
ACAD
1010
0.0
1020
0.0
1030
0.0
  0
LINE
  5
127ED3
  8
SLIM
  6
CONTINUOUS
 10
4419.0063884685268931
 20
-219.9999999999990905
 30
0.0
 11
4421.8592561299583394
 21
-217.1471323385667063
 31
0.0
1001
GRADIENTCOLOR1ACI
1070
     5
1001
GRADIENTCOLOR2ACI
1070
     2
1001
ACAD
1010
0.0
1020
0.0
1030
0.0
  0
LINE
  5
127ED4
  8
SLIM
  6
CONTINUOUS
 10
4419.8070443755887027
 20
-228.1796002140048074
 30
0.0
 11
4423.7573519673760529
 21
-224.2292926222189919
 31
0.0
1001
GRADIENTCOLOR1ACI
1070
     5
1001
GRADIENTCOLOR2ACI
1070
     2
1001
ACAD
1010
0.0
1020
0.0
1030
0.0
  0
LINE
  5
127ED5
  8
SLIM
  6
CONTINUOUS
 10
4422.3627047135596513
 20
-234.6041959971030053
 30
0.0
 11
4424.9669007106631398
 21
-232.0000000000009095
 31
0.0
1001
GRADIENTCOLOR1ACI
1070
     5
1001
GRADIENTCOLOR2ACI
1070
     2
1001
ACAD
1010
0.0
1020
0.0
1030
0.0
  0
LINE
  5
127ED6
  8
SLIM
  6
CONTINUOUS
 10
4424.9669007106631398
 20
-232.0000000000009095
 30
0.0
 11
4426.1667408698485815
 21
-230.8001598408145014
 31
0.0
1001
GRADIENTCOLOR1ACI
1070
     5
1001
GRADIENTCOLOR2ACI
1070
     2
1001
ACAD
1010
0.0
1020
0.0
1030
0.0
  0
LINE
  5
127ED7
  8
SLIM
  6
CONTINUOUS
 10
4425.3315714414457034
 20
-240.6155853902874071
 30
0.0
 11
4429.0282267343800413
 21
-236.9189300973530123
 31
0.0
1001
GRADIENTCOLOR1ACI
1070
     5
1001
GRADIENTCOLOR2ACI
1070
     2
1001
ACAD
1010
0.0
1020
0.0
1030
0.0
  0
LINE
  5
127ED8
  8
SLIM
  6
CONTINUOUS
 10
4428.6815548937138374
 20
-246.2458580590883059
 30
0.0
 11
4432.3017508847951831
 21
-242.6256620680046012
 31
0.0
1001
GRADIENTCOLOR1ACI
1070
     5
1001
GRADIENTCOLOR2ACI
1070
     2
1001
ACAD
1010
0.0
1020
0.0
1030
0.0
  0
LINE
  5
127ED9
  8
SLIM
  6
CONTINUOUS
 10
4432.3907652629222866
 20
-251.5169038109484063
 30
0.0
 11
4435.9604490227438873
 21
-247.9472200511268056
 31
0.0
1001
GRADIENTCOLOR1ACI
1070
     5
1001
GRADIENTCOLOR2ACI
1070
     2
1001
ACAD
1010
0.0
1020
0.0
1030
0.0
  0
LINE
  5
127EDA
  8
SLIM
  6
CONTINUOUS
 10
4549.5
 20
-134.4076690738702098
 30
0.0
 11
4551.5169038109488611
 21
-132.3907652629204108
 31
0.0
1001
GRADIENTCOLOR1ACI
1070
     5
1001
GRADIENTCOLOR2ACI
1070
     2
1001
ACAD
1010
0.0
1020
0.0
1030
0.0
  0
LINE
  5
127EDB
  8
SLIM
  6
CONTINUOUS
 10
4436.445174293106902
 20
-256.4427509018319142
 30
0.0
 11
4439.9873013608030305
 21
-252.90062383413661
 31
0.0
1001
GRADIENTCOLOR1ACI
1070
     5
1001
GRADIENTCOLOR2ACI
1070
     2
1001
ACAD
1010
0.0
1020
0.0
1030
0.0
  0
LINE
  5
127EDC
  8
SLIM
  6
CONTINUOUS
 10
4554.88792519494109
 20
-137.9999999999990905
 30
0.0
 11
4556.442750901836007
 21
-136.4451742931049978
 31
0.0
1001
GRADIENTCOLOR1ACI
1070
     5
1001
GRADIENTCOLOR2ACI
1070
     2
1001
ACAD
1010
0.0
1020
0.0
1030
0.0
  0
LINE
  5
127EDD
  8
SLIM
  6
CONTINUOUS
 10
4440.8372731495674088
 20
-261.030908166442714
 30
0.0
 11
4444.3732607963193004
 21
-257.4949205196904245
 31
0.0
1001
GRADIENTCOLOR1ACI
1070
     5
1001
GRADIENTCOLOR2ACI
1070
     2
1001
ACAD
1010
0.0
1020
0.0
1030
0.0
  0
LINE
  5
127EDE
  8
SLIM
  6
CONTINUOUS
 10
4445.5654027321415924
 20
-265.2830347049360853
 30
0.0
 11
4449.1163342680174537
 21
-261.7321031690611903
 31
0.0
1001
GRADIENTCOLOR1ACI
1070
     5
1001
GRADIENTCOLOR2ACI
1070
     2
1001
ACAD
1010
0.0
1020
0.0
1030
0.0
  0
LINE
  5
127EDF
  8
SLIM
  6
CONTINUOUS
 10
4450.6336102119212228
 20
-269.195083346226113
 30
0.0
 11
4454.2213873681739642
 21
-265.6073061899733148
 31
0.0
1001
GRADIENTCOLOR1ACI
1070
     5
1001
GRADIENTCOLOR2ACI
1070
     2
1001
ACAD
1010
0.0
1020
0.0
1030
0.0
  0
LINE
  5
127EE0
  8
SLIM
  6
CONTINUOUS
 10
4456.0520018449278723
 20
-272.7569478342902016
 30
0.0
 11
4459.7006257556995479
 21
-269.1083239235172186
 31
0.0
1001
GRADIENTCOLOR1ACI
1070
     5
1001
GRADIENTCOLOR2ACI
1070
     2
1001
ACAD
1010
0.0
1020
0.0
1030
0.0
  0
LINE
  5
127EE1
  8
SLIM
  6
CONTINUOUS
 10
4461.8376665887199124
 20
-275.9515392115662848
 30
0.0
 11
4465.5748693932528113
 21
-272.214336407033386
 31
0.0
1001
GRADIENTCOLOR1ACI
1070
     5
1001
GRADIENTCOLOR2ACI
1070
     2
1001
ACAD
1010
0.0
1020
0.0
1030
0.0
  0
LINE
  5
127EE2
  8
SLIM
  6
CONTINUOUS
 10
4468.0163793697502115
 20
-278.7530825516060986
 30
0.0
 11
4471.8759515352576273
 21
-274.893510386098626
 31
0.0
1001
GRADIENTCOLOR1ACI
1070
     5
1001
GRADIENTCOLOR2ACI
1070
     2
1001
ACAD
1010
0.0
1020
0.0
1030
0.0
  0
LINE
  5
127EE3
  8
SLIM
  6
CONTINUOUS
 10
4474.6255187948081584
 20
-281.1241992476171276
 30
0.0
 11
4478.6509600030767615
 21
-277.0987580393465919
 31
0.0
1001
GRADIENTCOLOR1ACI
1070
     5
1001
GRADIENTCOLOR2ACI
1070
     2
1001
ACAD
1010
0.0
1020
0.0
1030
0.0
  0
LINE
  5
127EE4
  8
SLIM
  6
CONTINUOUS
 10
4481.7190828919883643
 20
-283.0108912715057841
 30
0.0
 11
4485.9698622171827083
 21
-278.7601119463096779
 31
0.0
1001
GRADIENTCOLOR1ACI
1070
     5
1001
GRADIENTCOLOR2ACI
1070
     2
1001
ACAD
1010
0.0
1020
0.0
1030
0.0
  0
LINE
  5
127EE5
  8
SLIM
  6
CONTINUOUS
 10
4489.376693855879239
 20
-284.333536428683999
 30
0.0
 11
4493.9400771270447876
 21
-279.7701531575175977
 31
0.0
1001
GRADIENTCOLOR1ACI
1070
     5
1001
GRADIENTCOLOR2ACI
1070
     2
1001
ACAD
1010
0.0
1020
0.0
1030
0.0
  0
LINE
  5
127EE6
  8
SLIM
  6
CONTINUOUS
 10
4497.7210427574209461
 20
-284.969443648210472
 30
0.0
 11
4500.0
 21
-282.690486405630395
 31
0.0
1001
GRADIENTCOLOR1ACI
1070
     5
1001
GRADIENTCOLOR2ACI
1070
     2
1001
ACAD
1010
0.0
1020
0.0
1030
0.0
  0
LINE
  5
127EE7
  8
SLIM
  6
CONTINUOUS
 10
4500.0
 20
-282.690486405630395
 30
0.0
 11
4502.73733126109164
 21
-279.9531551445397781
 31
0.0
1001
GRADIENTCOLOR1ACI
1070
     5
1001
GRADIENTCOLOR2ACI
1070
     2
1001
ACAD
1010
0.0
1020
0.0
1030
0.0
  0
LINE
  5
127EE8
  8
SLIM
  6
CONTINUOUS
 10
4506.9558298417923652
 20
-284.7149126849088816
 30
0.0
 11
4512.6824114987857683
 21
-278.9883310279137731
 31
0.0
1001
GRADIENTCOLOR1ACI
1070
     5
1001
GRADIENTCOLOR2ACI
1070
     2
1001
ACAD
1010
0.0
1020
0.0
1030
0.0
  0
LINE
  5
127EE9
  8
SLIM
  6
CONTINUOUS
 10
4517.4645176312833428
 20
-283.1864810164871074
 30
0.0
 11
4524.4924948954112551
 21
-276.1585037523590813
 31
0.0
1001
GRADIENTCOLOR1ACI
1070
     5
1001
GRADIENTCOLOR2ACI
1070
     2
1001
ACAD
1010
0.0
1020
0.0
1030
0.0
  0
LINE
  5
127EEA
  8
SLIM
  6
CONTINUOUS
 10
4530.1631022713127095
 20
-279.4681524975276261
 30
0.0
 11
4540.84254631929889
 21
-268.7887084495404793
 31
0.0
1001
GRADIENTCOLOR1ACI
1070
     5
1001
GRADIENTCOLOR2ACI
1070
     2
1001
ACAD
1010
0.0
1020
0.0
1030
0.0
  0
LINE
  5
127EEB
  8
SLIM
  6
CONTINUOUS
 10
4549.5421817599099086
 20
-269.0693291299966745
 30
0.0
 11
4556.6115108899066399
 21
-262.0
 31
0.0
1001
GRADIENTCOLOR1ACI
1070
     5
1001
GRADIENTCOLOR2ACI
1070
     2
1001
ACAD
1010
0.0
1020
0.0
1030
0.0
  0
LINE
  5
127EEC
  8
OBJECT
 10
4633.0
 20
-152.9999999999990905
 30
0.0
 11
4640.0
 21
-152.9999999999990905
 31
0.0
1001
ACDBBLOCKREPETAG
1070
     1
1071
        7
1005
127EEC
  0
LINE
  5
127EED
  8
OBJECT
 10
4640.0
 20
-152.9999999999990905
 30
0.0
 11
4640.0
 21
-246.9999999999990905
 31
0.0
1001
ACDBBLOCKREPETAG
1070
     1
1071
        8
1005
127EED
  0
LINE
  5
127EEE
  8
OBJECT
 10
4640.0
 20
-246.9999999999990905
 30
0.0
 11
4633.0
 21
-246.9999999999990905
 31
0.0
1001
ACDBBLOCKREPETAG
1070
     1
1071
        9
1005
127EEE
  0
LINE
  5
127EEF
  8
OBJECT
 10
4633.0
 20
-246.9999999999990905
 30
0.0
 11
4633.0
 21
-152.9999999999990905
 31
0.0
1001
ACDBBLOCKREPETAG
1070
     1
1071
       10
1005
127EEF
  0
LINE
  5
127EF0
  8
CENTER
 10
4655.0
 20
-199.9999999999990905
 30
0.0
 11
4580.0
 21
-199.9999999999990905
 31
0.0
1001
ACDBBLOCKREPETAG
1070
     1
1071
       11
1005
127EF0
  0
LINE
  5
127EF1
  8
OBJECT
 10
4633.0
 20
-155.9999999999990905
 30
0.0
 11
4597.0
 21
-155.9999999999990905
 31
0.0
1001
ACDBBLOCKREPETAG
1070
     1
1071
       12
1005
127EF1
  0
LINE
  5
127EF2
  8
OBJECT
 10
4597.0
 20
-155.9999999999990905
 30
0.0
 11
4597.0
 21
-243.9999999999990905
 31
0.0
1001
ACDBBLOCKREPETAG
1070
     1
1071
       13
1005
127EF2
  0
LINE
  5
127EF3
  8
OBJECT
 10
4597.0
 20
-243.9999999999990905
 30
0.0
 11
4633.0
 21
-243.9999999999990905
 31
0.0
1001
ACDBBLOCKREPETAG
1070
     1
1071
       14
1005
127EF3
  0
LINE
  5
127EF4
  8
OBJECT
 10
4593.0
 20
-160.4999999999990905
 30
0.0
 11
4586.0
 21
-160.4999999999990905
 31
0.0
1001
ACDBBLOCKREPETAG
1070
     1
1071
       15
1005
127EF4
  0
LINE
  5
127EF5
  8
OBJECT
 10
4586.0
 20
-239.4999999999990905
 30
0.0
 11
4593.0
 21
-239.4999999999990905
 31
0.0
1001
ACDBBLOCKREPETAG
1070
     1
1071
       16
1005
127EF5
  0
LINE
  5
127EF6
  8
OBJECT
 10
4593.0
 20
-239.4999999999990905
 30
0.0
 11
4593.0
 21
-160.4999999999990905
 31
0.0
1001
ACDBBLOCKREPETAG
1070
     1
1071
       17
1005
127EF6
  0
LINE
  5
127EF7
  8
OBJECT
 10
4597.0
 20
-155.9999999999990905
 30
0.0
 11
4593.0
 21
-160.4999999999990905
 31
0.0
1001
ACDBBLOCKREPETAG
1070
     1
1071
       18
1005
127EF7
  0
LINE
  5
127EF8
  8
OBJECT
 10
4597.0
 20
-243.9999999999990905
 30
0.0
 11
4593.0
 21
-239.4999999999990905
 31
0.0
1001
ACDBBLOCKREPETAG
1070
     1
1071
       19
1005
127EF8
  0
LINE
  5
127EF9
  8
OBJECT
 10
4583.0
 20
-137.9999999999990905
 30
0.0
 11
4580.0
 21
-137.9999999999990905
 31
0.0
1001
ACDBBLOCKREPETAG
1070
     1
1071
       20
1005
127EF9
  0
ARC
  5
127EFA
  8
OBJECT
 10
4583.0
 20
-140.9999999999990905
 30
0.0
 40
3.0
 50
0.0
 51
90.0
1001
ACDBBLOCKREPETAG
1070
     1
1071
       21
1005
127EFA
  0
LINE
  5
127EFB
  8
OBJECT
 10
4580.0
 20
-261.9999999999990905
 30
0.0
 11
4583.0
 21
-261.9999999999990905
 31
0.0
1001
ACDBBLOCKREPETAG
1070
     1
1071
       22
1005
127EFB
  0
ARC
  5
127EFC
  8
OBJECT
 10
4583.0
 20
-258.9999999999990905
 30
0.0
 40
3.0
 50
270.0
 51
0.0
1001
ACDBBLOCKREPETAG
1070
     1
1071
       23
1005
127EFC
  0
LINE
  5
127EFD
  8
OBJECT
 10
4586.0
 20
-258.9999999999990905
 30
0.0
 11
4586.0
 21
-140.9999999999990905
 31
0.0
1001
ACDBBLOCKREPETAG
1070
     1
1071
       24
1005
127EFD
  0
LINE
  5
127EFE
  8
HIDDEN
 10
4588.0
 20
-169.9999999999990905
 30
0.0
 11
4588.0
 21
-229.9999999999990905
 31
0.0
1001
ACDBBLOCKREPETAG
1070
     1
1071
       25
1005
127EFE
  0
LINE
  5
127EFF
  8
OBJECT
 10
82.0
 20
-1522.0
 30
0.0
 11
75.0
 21
-1522.0
 31
0.0
1001
ACDBBLOCKREPETAG
1070
     1
1071
       34
1005
127EFF
  0
LINE
  5
127F00
  8
OBJECT
 10
75.0
 20
-1522.0
 30
0.0
 11
75.0
 21
-1398.0
 31
0.0
1001
ACDBBLOCKREPETAG
1070
     1
1071
       35
1005
127F00
  0
LINE
  5
127F01
  8
OBJECT
 10
75.0
 20
-1398.0
 30
0.0
 11
82.0
 21
-1398.0
 31
0.0
1001
ACDBBLOCKREPETAG
1070
     1
1071
       36
1005
127F01
  0
LINE
  5
127F02
  8
OBJECT
 10
82.0
 20
-1398.0
 30
0.0
 11
82.0
 21
-1522.0
 31
0.0
1001
ACDBBLOCKREPETAG
1070
     1
1071
       37
1005
127F02
  0
LINE
  5
127F03
  8
OBJECT
 10
82.0
 20
-1519.0
 30
0.0
 11
118.0
 21
-1519.0
 31
0.0
1001
ACDBBLOCKREPETAG
1070
     1
1071
       38
1005
127F03
  0
LINE
  5
127F04
  8
OBJECT
 10
118.0
 20
-1519.0
 30
0.0
 11
118.0
 21
-1401.0
 31
0.0
1001
ACDBBLOCKREPETAG
1070
     1
1071
       39
1005
127F04
  0
LINE
  5
127F05
  8
OBJECT
 10
118.0
 20
-1401.0
 30
0.0
 11
82.0
 21
-1401.0
 31
0.0
1001
ACDBBLOCKREPETAG
1070
     1
1071
       40
1005
127F05
  0
LINE
  5
127F06
  8
OBJECT
 10
122.0
 20
-1514.5
 30
0.0
 11
132.5
 21
-1514.5
 31
0.0
1001
ACDBBLOCKREPETAG
1070
     1
1071
       41
1005
127F06
  0
LINE
  5
127F07
  8
OBJECT
 10
132.5
 20
-1405.5
 30
0.0
 11
122.0
 21
-1405.5
 31
0.0
1001
ACDBBLOCKREPETAG
1070
     1
1071
       42
1005
127F07
  0
LINE
  5
127F08
  8
OBJECT
 10
122.0
 20
-1405.5
 30
0.0
 11
122.0
 21
-1514.5
 31
0.0
1001
ACDBBLOCKREPETAG
1070
     1
1071
       43
1005
127F08
  0
LINE
  5
127F09
  8
OBJECT
 10
118.0
 20
-1519.0
 30
0.0
 11
122.0
 21
-1514.5
 31
0.0
1001
ACDBBLOCKREPETAG
1070
     1
1071
       44
1005
127F09
  0
LINE
  5
127F0A
  8
OBJECT
 10
118.0
 20
-1401.0
 30
0.0
 11
122.0
 21
-1405.5
 31
0.0
1001
ACDBBLOCKREPETAG
1070
     1
1071
       45
1005
127F0A
  0
LINE
  5
127F0B
  8
OBJECT
 10
137.5
 20
-1509.5
 30
0.0
 11
158.655080087021787
 21
-1509.4999999999990905
 31
0.0
1001
ACDBBLOCKREPETAG
1070
     1
1071
       46
1005
127F0B
  0
LINE
  5
127F0C
  8
OBJECT
 10
137.5
 20
-1410.5
 30
0.0
 11
158.6550800870226965
 21
-1410.5
 31
0.0
1001
ACDBBLOCKREPETAG
1070
     1
1071
       47
1005
127F0C
  0
LINE
  5
127F0D
  8
OBJECT
 10
132.5
 20
-1514.5
 30
0.0
 11
132.5
 21
-1405.5
 31
0.0
1001
ACDBBLOCKREPETAG
1070
     1
1071
       48
1005
127F0D
  0
LINE
  5
127F0E
  8
OBJECT
 10
137.5
 20
-1509.5
 30
0.0
 11
137.5
 21
-1410.5
 31
0.0
1001
ACDBBLOCKREPETAG
1070
     1
1071
       49
1005
127F0E
  0
LINE
  5
127F0F
  8
OBJECT
 10
132.5
 20
-1514.5
 30
0.0
 11
137.5
 21
-1509.5
 31
0.0
1001
ACDBBLOCKREPETAG
1070
     1
1071
       50
1005
127F0F
  0
LINE
  5
127F10
  8
OBJECT
 10
137.5
 20
-1410.5
 30
0.0
 11
132.5
 21
-1405.5000000000040927
 31
0.0
1001
ACDBBLOCKREPETAG
1070
     1
1071
       51
1005
127F10
  0
INSERT
  5
127F11
  8
SLIM
  2
*U23
 10
0.0
 20
0.0
 30
0.0
  0
LINE
  5
127F12
  8
HIDDEN
 10
127.0
 20
-1504.5
 30
0.0
 11
127.0
 21
-1415.5
 31
0.0
1001
ACDBBLOCKREPETAG
1070
     1
1071
       65
1005
127F12
  0
CIRCLE
  5
127F13
  8
OBJECT
 10
215.0
 20
-1460.0
 30
0.0
 40
70.0
1001
ACDBBLOCKREPETAG
1070
     1
1071
       50
1005
127F13
  0
CIRCLE
  5
127F14
  8
OBJECT
 10
215.0
 20
-1460.0
 30
0.0
 40
75.0
1001
ACDBBLOCKREPETAG
1070
     1
1071
       51
1005
127F14
  0
POINT
  5
127F15
  8
DOTS
 10
215.0
 20
-1460.0
 30
0.0
1001
ACDBBLOCKREPETAG
1070
     1
1071
       63
1005
127F15
  0
CIRCLE
  5
127F16
  8
OBJECT
 10
215.0
 20
-1460.0
 30
0.0
 40
55.0
1001
ACDBBLOCKREPETAG
1070
     1
1071
       50
1005
127F13
  0
LINE
  5
127F17
  8
OBJECT
 10
442.0
 20
-1051.0
 30
0.0
 11
435.0
 21
-1051.0
 31
0.0
1001
ACDBBLOCKREPETAG
1070
     1
1071
       18
1005
127F17
  0
LINE
  5
127F18
  8
OBJECT
 10
435.0
 20
-1051.0
 30
0.0
 11
435.0
 21
-941.0
 31
0.0
1001
ACDBBLOCKREPETAG
1070
     1
1071
       19
1005
127F18
  0
LINE
  5
127F19
  8
OBJECT
 10
435.0
 20
-941.0
 30
0.0
 11
442.0
 21
-941.0
 31
0.0
1001
ACDBBLOCKREPETAG
1070
     1
1071
       20
1005
127F19
  0
LINE
  5
127F1A
  8
OBJECT
 10
442.0
 20
-941.0
 30
0.0
 11
442.0
 21
-1051.0
 31
0.0
1001
ACDBBLOCKREPETAG
1070
     1
1071
       21
1005
127F1A
  0
LINE
  5
127F1B
  8
OBJECT
 10
442.0
 20
-1048.0
 30
0.0
 11
478.0
 21
-1048.0
 31
0.0
1001
ACDBBLOCKREPETAG
1070
     1
1071
       22
1005
127F1B
  0
LINE
  5
127F1C
  8
OBJECT
 10
478.0
 20
-1048.0
 30
0.0
 11
478.0
 21
-944.0
 31
0.0
1001
ACDBBLOCKREPETAG
1070
     1
1071
       23
1005
127F1C
  0
LINE
  5
127F1D
  8
OBJECT
 10
478.0
 20
-944.0
 30
0.0
 11
442.0
 21
-944.0
 31
0.0
1001
ACDBBLOCKREPETAG
1070
     1
1071
       24
1005
127F1D
  0
LINE
  5
127F1E
  8
OBJECT
 10
482.0
 20
-1043.5
 30
0.0
 11
490.5
 21
-1043.5
 31
0.0
1001
ACDBBLOCKREPETAG
1070
     1
1071
       25
1005
127F1E
  0
LINE
  5
127F1F
  8
OBJECT
 10
490.5
 20
-948.4999999999998863
 30
0.0
 11
482.0
 21
-948.4999999999998863
 31
0.0
1001
ACDBBLOCKREPETAG
1070
     1
1071
       26
1005
127F1F
  0
LINE
  5
127F20
  8
OBJECT
 10
482.0
 20
-948.4999999999998863
 30
0.0
 11
482.0
 21
-1043.5
 31
0.0
1001
ACDBBLOCKREPETAG
1070
     1
1071
       27
1005
127F20
  0
LINE
  5
127F21
  8
OBJECT
 10
478.0
 20
-1048.0
 30
0.0
 11
482.0
 21
-1043.5
 31
0.0
1001
ACDBBLOCKREPETAG
1070
     1
1071
       28
1005
127F21
  0
LINE
  5
127F22
  8
OBJECT
 10
478.0
 20
-944.0
 30
0.0
 11
482.0
 21
-948.4999999999998863
 31
0.0
1001
ACDBBLOCKREPETAG
1070
     1
1071
       29
1005
127F22
  0
LINE
  5
127F23
  8
OBJECT
 10
490.500000000001819
 20
-946.4999999999998863
 30
0.0
 11
490.5
 21
-1045.5
 31
0.0
1001
ACDBBLOCKREPETAG
1070
     1
1071
       30
1005
127F23
  0
LINE
  5
127F24
  8
OBJECT
 10
490.5
 20
-1045.5
 30
0.0
 11
518.6550800870206785
 21
-1045.4999999999990905
 31
0.0
1001
ACDBBLOCKREPETAG
1070
     1
1071
       31
1005
127F24
  0
LINE
  5
127F25
  8
OBJECT
 10
490.500000000001819
 20
-946.4999999999998863
 30
0.0
 11
518.6550800870218154
 21
-946.4999999999987494
 31
0.0
1001
ACDBBLOCKREPETAG
1070
     1
1071
       32
1005
127F25
  0
INSERT
  5
127F26
  8
SLIM
  2
*U24
 10
0.0
 20
0.0
 30
0.0
  0
LINE
  5
127F27
  8
HIDDEN
 10
487.0
 20
-1034.0
 30
0.0
 11
487.0
 21
-958.0
 31
0.0
1001
ACDBBLOCKREPETAG
1070
     1
1071
       57
1005
127F27
  0
CIRCLE
  5
127F28
  8
OBJECT
 10
575.0
 20
-996.0
 30
0.0
 40
70.0
1001
ACDBBLOCKREPETAG
1070
     1
1071
       50
1005
127F28
  0
CIRCLE
  5
127F29
  8
OBJECT
 10
575.0
 20
-996.0
 30
0.0
 40
75.0
1001
ACDBBLOCKREPETAG
1070
     1
1071
       51
1005
127F29
  0
POINT
  5
127F2A
  8
DOTS
 10
575.0
 20
-996.0
 30
0.0
1001
ACDBBLOCKREPETAG
1070
     1
1071
       63
1005
127F2A
  0
CIRCLE
  5
127F2B
  8
OBJECT
 10
575.0
 20
-996.0
 30
0.0
 40
55.0
1001
ACDBBLOCKREPETAG
1070
     1
1071
       50
1005
127F28
  0
LINE
  5
127F2C
  8
OBJECT
 10
82.0
 20
-1043.0
 30
0.0
 11
75.0
 21
-1043.0
 31
0.0
1001
ACDBBLOCKREPETAG
1070
     1
1071
        0
1005
127F2C
  0
LINE
  5
127F2D
  8
OBJECT
 10
75.0
 20
-1043.0
 30
0.0
 11
75.0
 21
-949.0
 31
0.0
1001
ACDBBLOCKREPETAG
1070
     1
1071
        1
1005
127F2D
  0
LINE
  5
127F2E
  8
OBJECT
 10
75.0
 20
-949.0
 30
0.0
 11
82.0
 21
-949.0
 31
0.0
1001
ACDBBLOCKREPETAG
1070
     1
1071
        2
1005
127F2E
  0
LINE
  5
127F2F
  8
OBJECT
 10
82.0
 20
-949.0
 30
0.0
 11
82.0
 21
-1043.0
 31
0.0
1001
ACDBBLOCKREPETAG
1070
     1
1071
        3
1005
127F2F
  0
LINE
  5
127F30
  8
OBJECT
 10
82.0
 20
-1040.0
 30
0.0
 11
118.0
 21
-1040.0
 31
0.0
1001
ACDBBLOCKREPETAG
1070
     1
1071
        4
1005
127F30
  0
LINE
  5
127F31
  8
OBJECT
 10
118.0
 20
-1040.0
 30
0.0
 11
118.0
 21
-952.0
 31
0.0
1001
ACDBBLOCKREPETAG
1070
     1
1071
        5
1005
127F31
  0
LINE
  5
127F32
  8
OBJECT
 10
118.0
 20
-952.0
 30
0.0
 11
82.0
 21
-952.0
 31
0.0
1001
ACDBBLOCKREPETAG
1070
     1
1071
        6
1005
127F32
  0
LINE
  5
127F33
  8
OBJECT
 10
122.0
 20
-1035.5
 30
0.0
 11
130.4999999999990905
 21
-1035.5
 31
0.0
1001
ACDBBLOCKREPETAG
1070
     1
1071
        7
1005
127F33
  0
LINE
  5
127F34
  8
OBJECT
 10
130.5
 20
-956.4999999999998863
 30
0.0
 11
122.0
 21
-956.4999999999998863
 31
0.0
1001
ACDBBLOCKREPETAG
1070
     1
1071
        8
1005
127F34
  0
LINE
  5
127F35
  8
OBJECT
 10
122.0
 20
-956.4999999999998863
 30
0.0
 11
122.0
 21
-1035.5
 31
0.0
1001
ACDBBLOCKREPETAG
1070
     1
1071
        9
1005
127F35
  0
LINE
  5
127F36
  8
OBJECT
 10
118.0
 20
-1040.0
 30
0.0
 11
122.0
 21
-1035.5
 31
0.0
1001
ACDBBLOCKREPETAG
1070
     1
1071
       10
1005
127F36
  0
LINE
  5
127F37
  8
OBJECT
 10
118.0
 20
-952.0
 30
0.0
 11
122.0
 21
-956.4999999999998863
 31
0.0
1001
ACDBBLOCKREPETAG
1070
     1
1071
       11
1005
127F37
  0
LINE
  5
127F38
  8
OBJECT
 10
130.5000000000009095
 20
-949.5
 30
0.0
 11
130.4999999999990905
 21
-1042.5
 31
0.0
1001
ACDBBLOCKREPETAG
1070
     1
1071
       12
1005
127F38
  0
ARC
  5
127F39
  8
OBJECT
 10
133.4999999999990905
 20
-1042.5
 30
0.0
 40
3.0
 50
180.0
 51
270.0
1001
ACDBBLOCKREPETAG
1070
     1
1071
       13
1005
127F39
  0
LINE
  5
127F3A
  8
OBJECT
 10
133.4999999999990905
 20
-1045.5
 30
0.0
 11
158.655080087021787
 21
-1045.5000000000009095
 31
0.0
1001
ACDBBLOCKREPETAG
1070
     1
1071
       15
1005
127F3A
  0
LINE
  5
127F3B
  8
OBJECT
 10
133.5000000000009095
 20
-946.4999999999998863
 30
0.0
 11
158.6550800870209059
 21
-946.5000000000010232
 31
0.0
1001
ACDBBLOCKREPETAG
1070
     1
1071
       16
1005
127F3B
  0
ARC
  5
127F3C
  8
OBJECT
 10
133.5000000000009095
 20
-949.5
 30
0.0
 40
3.0
 50
90.0
 51
180.0
1001
ACDBBLOCKREPETAG
1070
     1
1071
       17
1005
127F3C
  0
INSERT
  5
127F3D
  8
SLIM
  2
*U25
 10
0.0
 20
0.0
 30
0.0
  0
LINE
  5
127F3E
  8
HIDDEN
 10
127.0
 20
-1026.0
 30
0.0
 11
127.0
 21
-966.0
 31
0.0
1001
ACDBBLOCKREPETAG
1070
     1
1071
       56
1005
127F3E
  0
CIRCLE
  5
127F3F
  8
OBJECT
 10
215.0
 20
-996.0
 30
0.0
 40
70.0
1001
ACDBBLOCKREPETAG
1070
     1
1071
       50
1005
127F3F
  0
CIRCLE
  5
127F40
  8
OBJECT
 10
215.0
 20
-996.0
 30
0.0
 40
75.0
1001
ACDBBLOCKREPETAG
1070
     1
1071
       51
1005
127F40
  0
POINT
  5
127F41
  8
DOTS
 10
215.0
 20
-996.0
 30
0.0
1001
ACDBBLOCKREPETAG
1070
     1
1071
       63
1005
127F41
  0
CIRCLE
  5
127F42
  8
OBJECT
 10
215.0
 20
-996.0
 30
0.0
 40
55.0
1001
ACDBBLOCKREPETAG
1070
     1
1071
       50
1005
127F3F
  0
TEXT
  5
127F43
  8
SLIM
 10
97.7142857142252552
 20
-1707.9999999996919087
 30
0.0
 40
48.0
  1
A0003
 41
0.75
1001
ACDBBLOCKREPETAG
1070
     1
1071
      119
1005
0
  0
TEXT
  5
127F44
  8
SLIM
 10
457.7142857141033119
 20
-1243.9999999998499334
 30
0.0
 40
48.0
  1
A0002
 41
0.75
1001
ACDBBLOCKREPETAG
1070
     1
1071
      119
1005
0
  0
TEXT
  5
127F45
  8
SLIM
 10
105.4285714285109066
 20
-1243.9999999998499334
 30
0.0
 40
48.0
  1
A0001
 41
0.75
1001
ACDBBLOCKREPETAG
1070
     1
1071
      119
1005
0
  0
TEXT
  5
127F46
  8
SLIM
 10
5380.571428571429351
 20
-776.9999999999959073
 30
0.0
 40
24.0
  1
180
 41
0.75
  0
TEXT
  5
127F47
  8
SLIM
 10
5470.0571428571429351
 20
-1352.9999999999959073
 30
0.0
 40
24.0
  1
190～240
 41
0.75
  0
TEXT
  5
127F48
  8
SLIM
 10
5470.0571428571429351
 20
-1304.9999999999959073
 30
0.0
 40
24.0
  1
190～250
 41
0.75
  0
TEXT
  5
127F49
  8
SLIM
 10
5470.0571428571429351
 20
-1256.9999999999959073
 30
0.0
 40
24.0
  1
190～260
 41
0.75
  0
TEXT
  5
127F4A
  8
SLIM
 10
5470.0571428571429351
 20
-1208.9999999999959073
 30
0.0
 40
24.0
  1
190～270
 41
0.75
  0
TEXT
  5
127F4B
  8
SLIM
 10
5470.0571428571429351
 20
-1160.9999999999959073
 30
0.0
 40
24.0
  1
190～280
 41
0.75
  0
TEXT
  5
127F4C
  8
SLIM
 10
5470.0571428571429351
 20
-1112.9999999999959073
 30
0.0
 40
24.0
  1
190～290
 41
0.75
  0
TEXT
  5
127F4D
  8
SLIM
 10
5470.0571428571429351
 20
-1064.9999999999959073
 30
0.0
 40
24.0
  1
190～300
 41
0.75
  0
TEXT
  5
127F4E
  8
SLIM
 10
5378.857142857143117
 20
-1352.9999999999959073
 30
0.0
 40
24.0
  1
300
 41
0.75
  0
TEXT
  5
127F4F
  8
SLIM
 10
5378.857142857143117
 20
-1304.9999999999959073
 30
0.0
 40
24.0
  1
290
 41
0.75
  0
TEXT
  5
127F50
  8
SLIM
 10
5378.857142857143117
 20
-1256.9999999999959073
 30
0.0
 40
24.0
  1
280
 41
0.75
  0
TEXT
  5
127F51
  8
SLIM
 10
5378.857142857143117
 20
-1208.9999999999959073
 30
0.0
 40
24.0
  1
270
 41
0.75
  0
TEXT
  5
127F52
  8
SLIM
 10
5378.857142857143117
 20
-1160.9999999999959073
 30
0.0
 40
24.0
  1
260
 41
0.75
  0
TEXT
  5
127F53
  8
SLIM
 10
5378.857142857143117
 20
-1112.9999999999959073
 30
0.0
 40
24.0
  1
250
 41
0.75
  0
TEXT
  5
127F54
  8
SLIM
 10
5471.7714285714291691
 20
-1016.999999999996021
 30
0.0
 40
24.0
  1
190～310
 41
0.75
  0
TEXT
  5
127F55
  8
SLIM
 10
5378.857142857143117
 20
-1064.9999999999959073
 30
0.0
 40
24.0
  1
240
 41
0.75
  0
TEXT
  5
127F56
  8
SLIM
 10
5470.0571428571429351
 20
-968.9999999999962483
 30
0.0
 40
24.0
  1
190～320
 41
0.75
  0
TEXT
  5
127F57
  8
SLIM
 10
5378.857142857143117
 20
-1016.999999999996021
 30
0.0
 40
24.0
  1
230
 41
0.75
  0
TEXT
  5
127F58
  8
SLIM
 10
5468.3428571428567011
 20
-920.9999999999961346
 30
0.0
 40
24.0
  1
200～330
 41
0.75
  0
TEXT
  5
127F59
  8
SLIM
 10
5378.857142857143117
 20
-968.9999999999962483
 30
0.0
 40
24.0
  1
220
 41
0.75
  0
TEXT
  5
127F5A
  8
SLIM
 10
5470.0571428571429351
 20
-872.9999999999961346
 30
0.0
 40
24.0
  1
210～340
 41
0.75
  0
TEXT
  5
127F5B
  8
SLIM
 10
5380.571428571429351
 20
-920.9999999999961346
 30
0.0
 40
24.0
  1
210
 41
0.75
  0
TEXT
  5
127F5C
  8
SLIM
 10
5468.3428571428567011
 20
-824.999999999996362
 30
0.0
 40
24.0
  1
220～350
 41
0.75
  0
TEXT
  5
127F5D
  8
SLIM
 10
5378.857142857143117
 20
-872.9999999999961346
 30
0.0
 40
24.0
  1
200
 41
0.75
  0
TEXT
  5
127F5E
  8
SLIM
 10
5468.3428571428567011
 20
-776.999999999996362
 30
0.0
 40
24.0
  1
230～360
 41
0.75
  0
TEXT
  5
127F5F
  8
SLIM
 10
5373.8000000000001819
 20
-728.9999999999959073
 30
0.0
 40
24.0
  1
P寸法
 41
0.75
  0
TEXT
  5
127F60
  8
SLIM
 10
5380.571428571429351
 20
-824.9999999999959073
 30
0.0
 40
24.0
  1
190
 41
0.75
  0
TEXT
  5
127F61
  8
SLIM
 10
5474.3428571428567011
 20
-728.9999999999959073
 30
0.0
 40
24.0
  1
対応m寸法
 41
0.75
  0
POLYLINE
  5
127F62
  8
HIDDEN
 66
     1
 10
0.0
 20
0.0
 30
0.0
 70
     1
1001
ACDBBLOCKREPETAG
1070
     1
1071
      105
1005
0
  0
VERTEX
  5
128303
  8
HIDDEN
 10
359.9999999998779003
 20
-799.9999999999992042
 30
0.0
  0
VERTEX
  5
128304
  8
HIDDEN
 10
719.999999999756028
 20
-799.9999999999992042
 30
0.0
  0
VERTEX
  5
128305
  8
HIDDEN
 10
719.999999999756028
 20
-1263.9999999998410658
 30
0.0
  0
VERTEX
  5
128306
  8
HIDDEN
 10
359.9999999998779003
 20
-1263.9999999998410658
 30
0.0
  0
SEQEND
  5
128307
  8
HIDDEN
  0
POLYLINE
  5
127F63
  8
HIDDEN
 66
     1
 10
0.0
 20
0.0
 30
0.0
 70
     1
1001
ACDBBLOCKREPETAG
1070
     1
1071
      110
1005
0
  0
VERTEX
  5
128308
  8
HIDDEN
 10
-0.0000000000002274
 20
-799.9999999999992042
 30
0.0
  0
VERTEX
  5
128309
  8
HIDDEN
 10
359.9999999998779003
 20
-799.9999999999992042
 30
0.0
  0
VERTEX
  5
12830A
  8
HIDDEN
 10
359.9999999998779003
 20
-1263.9999999998410658
 30
0.0
  0
VERTEX
  5
12830B
  8
HIDDEN
 10
-0.0000000000002274
 20
-1263.9999999998410658
 30
0.0
  0
SEQEND
  5
12830C
  8
HIDDEN
  0
POLYLINE
  5
127F64
  8
HIDDEN
 66
     1
 10
0.0
 20
0.0
 30
0.0
 70
     1
1001
ACDBBLOCKREPETAG
1070
     1
1071
      125
1005
0
  0
VERTEX
  5
12830D
  8
HIDDEN
 10
-0.0000000000002274
 20
-1263.9999999998410658
 30
0.0
  0
VERTEX
  5
12830E
  8
HIDDEN
 10
359.9999999998779003
 20
-1263.9999999998410658
 30
0.0
  0
VERTEX
  5
12830F
  8
HIDDEN
 10
359.9999999998779003
 20
-1727.9999999996819042
 30
0.0
  0
VERTEX
  5
128310
  8
HIDDEN
 10
-0.0000000000002274
 20
-1727.9999999996819042
 30
0.0
  0
SEQEND
  5
128311
  8
HIDDEN
  0
POLYLINE
  5
127F65
  8
HIDDEN
 66
     1
 10
0.0
 20
0.0
 30
0.0
 70
     1
1001
ACDBBLOCKREPETAG
1070
     1
1071
      110
1005
0
  0
VERTEX
  5
128312
  8
HIDDEN
 10
-0.0000000000002274
 20
0.0
 30
0.0
  0
VERTEX
  5
128313
  8
HIDDEN
 10
359.9999999998779003
 20
0.0
 30
0.0
  0
VERTEX
  5
128314
  8
HIDDEN
 10
359.9999999998779003
 20
-463.9999999998415774
 30
0.0
  0
VERTEX
  5
128315
  8
HIDDEN
 10
-0.0000000000002274
 20
-463.9999999998415774
 30
0.0
  0
SEQEND
  5
128316
  8
HIDDEN
  0
TEXT
  5
127F66
  8
SLIM
 10
5448.4571428571443903
 20
-1410.9999999999959073
 30
0.0
 40
24.0
  1
標準：m=240
 41
0.75
  0
TEXT
  5
127F67
  8
SLIM
 10
4054.5999999999989996
 20
-1698.0000266666650077
 30
0.0
 40
28.0
  1
※ 対応P寸法　　180～300（10mm単位）
 41
0.75
  0
TEXT
  5
127F68
  8
SLIM
 10
4054.5999999999989996
 20
-1744.6666933333299312
 30
0.0
 40
28.0
  1
※ 対応スラブ厚　180～（m-10）
 41
0.75
  0
TEXT
  5
127F69
  8
SLIM
 10
4054.5999999999989996
 20
-1791.3333599999980379
 30
0.0
 40
28.0
  1
※ 足切り可能寸法（最大）　540-P-m（コンパクトLベンド使用なら+20）
 41
0.75
  0
TEXT
  5
127F6A
  8
SLIM
 10
4098.8999999999987267
 20
-1863.3333066666650666
 30
0.0
 40
28.0
  1
国土交通大臣認定・（一財）日本消防設備安全センター性能評定取得品
 41
0.75
  0
TEXT
  5
127F6B
  8
SLIM
 10
4131.1000000000003638
 20
-1909.9999733333320364
 30
0.0
 40
28.0
  1
注）ご採用にあたり、認定書及び評定書の内容をご確認ください。
 41
0.75
  0
LINE
  5
127F6C
  8
SLIM
 10
4414.9999999999918145
 20
-1014.2764143050379744
 30
0.0
 11
4418.2764143050317216
 21
-1011.0
 31
0.0
1001
GRADIENTCOLOR1ACI
1070
     5
1001
GRADIENTCOLOR2ACI
1070
     2
1001
ACAD
1010
0.0
1020
0.0
1030
0.0
  0
LINE
  5
127F6D
  8
SLIM
 10
4414.999999999992724
 20
-1032.2369265471759263
 30
0.0
 11
4436.2369265471688777
 21
-1011.0
 31
0.0
1001
GRADIENTCOLOR1ACI
1070
     5
1001
GRADIENTCOLOR2ACI
1070
     2
1001
ACAD
1010
0.0
1020
0.0
1030
0.0
  0
LINE
  5
127F6E
  8
SLIM
 10
4414.999999999992724
 20
-1050.1974387893139919
 30
0.0
 11
4454.1974387893096718
 21
-1011.0
 31
0.0
1001
GRADIENTCOLOR1ACI
1070
     5
1001
GRADIENTCOLOR2ACI
1070
     2
1001
ACAD
1010
0.0
1020
0.0
1030
0.0
  0
LINE
  5
127F6F
  8
SLIM
 10
4414.9999999999954525
 20
-1068.1579510314509207
 30
0.0
 11
4472.157951031446828
 21
-1011.0
 31
0.0
1001
GRADIENTCOLOR1ACI
1070
     5
1001
GRADIENTCOLOR2ACI
1070
     2
1001
ACAD
1010
0.0
1020
0.0
1030
0.0
  0
LINE
  5
127F70
  8
SLIM
 10
4415.1454972543142503
 20
-1085.9729660192690517
 30
0.0
 11
4490.1184632735839841
 21
-1011.0
 31
0.0
1001
GRADIENTCOLOR1ACI
1070
     5
1001
GRADIENTCOLOR2ACI
1070
     2
1001
ACAD
1010
0.0
1020
0.0
1030
0.0
  0
LINE
  5
127F71
  8
SLIM
 10
4417.1046274952450403
 20
-1101.9743480204790558
 30
0.0
 11
4508.0789755157229592
 21
-1011.0
 31
0.0
1001
GRADIENTCOLOR1ACI
1070
     5
1001
GRADIENTCOLOR2ACI
1070
     2
1001
ACAD
1010
0.0
1020
0.0
1030
0.0
  0
LINE
  5
127F72
  8
SLIM
 10
4419.0637577361712829
 20
-1117.9757300216890599
 30
0.0
 11
4526.0394877578619344
 21
-1011.0
 31
0.0
1001
GRADIENTCOLOR1ACI
1070
     5
1001
GRADIENTCOLOR2ACI
1070
     2
1001
ACAD
1010
0.0
1020
0.0
1030
0.0
  0
LINE
  5
127F73
  8
SLIM
 10
4420.0
 20
-1170.9210244842759039
 30
0.0
 11
4579.9210244842770408
 21
-1011.0
 31
0.0
1001
GRADIENTCOLOR1ACI
1070
     5
1001
GRADIENTCOLOR2ACI
1070
     2
1001
ACAD
1010
0.0
1020
0.0
1030
0.0
  0
LINE
  5
127F74
  8
SLIM
 10
4420.0
 20
-1188.8815367264151064
 30
0.0
 11
4585.000000000007276
 21
-1023.8815367264079441
 31
0.0
1001
GRADIENTCOLOR1ACI
1070
     5
1001
GRADIENTCOLOR2ACI
1070
     2
1001
ACAD
1010
0.0
1020
0.0
1030
0.0
  0
LINE
  5
127F75
  8
SLIM
 10
4420.0
 20
-1206.8420489685520351
 30
0.0
 11
4585.000000000007276
 21
-1041.8420489685470329
 31
0.0
1001
GRADIENTCOLOR1ACI
1070
     5
1001
GRADIENTCOLOR2ACI
1070
     2
1001
ACAD
1010
0.0
1020
0.0
1030
0.0
  0
LINE
  5
127F76
  8
SLIM
 10
4420.0
 20
-1224.8025612106910103
 30
0.0
 11
4585.000000000003638
 21
-1059.8025612106860081
 31
0.0
1001
GRADIENTCOLOR1ACI
1070
     5
1001
GRADIENTCOLOR2ACI
1070
     2
1001
ACAD
1010
0.0
1020
0.0
1030
0.0
  0
LINE
  5
127F77
  8
SLIM
 10
4420.0
 20
-1242.7630734528299854
 30
0.0
 11
4585.0000000000027285
 21
-1077.7630734528258927
 31
0.0
1001
GRADIENTCOLOR1ACI
1070
     5
1001
GRADIENTCOLOR2ACI
1070
     2
1001
ACAD
1010
0.0
1020
0.0
1030
0.0
  0
LINE
  5
127F78
  8
SLIM
 10
4429.7235856949682784
 20
-1251.0
 30
0.0
 11
4583.4738280308083631
 21
-1097.2497576641590058
 31
0.0
1001
GRADIENTCOLOR1ACI
1070
     5
1001
GRADIENTCOLOR2ACI
1070
     2
1001
ACAD
1010
0.0
1020
0.0
1030
0.0
  0
LINE
  5
127F79
  8
SLIM
 10
4430.0
 20
-1268.6840979371058893
 30
0.0
 11
4447.6840979371054345
 21
-1251.0
 31
0.0
1001
GRADIENTCOLOR1ACI
1070
     5
1001
GRADIENTCOLOR2ACI
1070
     2
1001
ACAD
1010
0.0
1020
0.0
1030
0.0
  0
LINE
  5
127F7A
  8
SLIM
 10
4447.6840979371054345
 20
-1251.0
 30
0.0
 11
4580.9680345671367832
 21
-1117.7160633699691061
 31
0.0
1001
GRADIENTCOLOR1ACI
1070
     5
1001
GRADIENTCOLOR2ACI
1070
     2
1001
ACAD
1010
0.0
1020
0.0
1030
0.0
  0
LINE
  5
127F7B
  8
SLIM
 10
4446.6446101792444097
 20
-1270.0
 30
0.0
 11
4465.6446101792453192
 21
-1251.0
 31
0.0
1001
GRADIENTCOLOR1ACI
1070
     5
1001
GRADIENTCOLOR2ACI
1070
     2
1001
ACAD
1010
0.0
1020
0.0
1030
0.0
  0
LINE
  5
127F7C
  8
SLIM
 10
4465.6446101792453192
 20
-1251.0
 30
0.0
 11
4580.0
 21
-1136.6446101792450918
 31
0.0
1001
GRADIENTCOLOR1ACI
1070
     5
1001
GRADIENTCOLOR2ACI
1070
     2
1001
ACAD
1010
0.0
1020
0.0
1030
0.0
  0
LINE
  5
127F7D
  8
SLIM
 10
4464.6051224213833848
 20
-1270.0
 30
0.0
 11
4483.6051224213833848
 21
-1251.0
 31
0.0
1001
GRADIENTCOLOR1ACI
1070
     5
1001
GRADIENTCOLOR2ACI
1070
     2
1001
ACAD
1010
0.0
1020
0.0
1030
0.0
  0
LINE
  5
127F7E
  8
SLIM
 10
4420.0
 20
-1135.0
 30
0.0
 11
4544.0
 21
-1011.0
 31
0.0
1001
GRADIENTCOLOR1ACI
1070
     5
1001
GRADIENTCOLOR2ACI
1070
     2
1001
ACAD
1010
0.0
1020
0.0
1030
0.0
  0
LINE
  5
127F7F
  8
SLIM
 10
4483.6051224213833848
 20
-1251.0
 30
0.0
 11
4580.0
 21
-1154.6051224213820205
 31
0.0
1001
GRADIENTCOLOR1ACI
1070
     5
1001
GRADIENTCOLOR2ACI
1070
     2
1001
ACAD
1010
0.0
1020
0.0
1030
0.0
  0
LINE
  5
127F80
  8
SLIM
 10
4420.0
 20
-1152.9605122421380656
 30
0.0
 11
4561.9605122421362466
 21
-1011.0
 31
0.0
1001
GRADIENTCOLOR1ACI
1070
     5
1001
GRADIENTCOLOR2ACI
1070
     2
1001
ACAD
1010
0.0
1020
0.0
1030
0.0
  0
LINE
  5
127F81
  8
SLIM
 10
4482.5656346635214504
 20
-1270.0
 30
0.0
 11
4501.5656346635214504
 21
-1251.0
 31
0.0
1001
GRADIENTCOLOR1ACI
1070
     5
1001
GRADIENTCOLOR2ACI
1070
     2
1001
ACAD
1010
0.0
1020
0.0
1030
0.0
  0
LINE
  5
127F82
  8
SLIM
 10
4501.5656346635214504
 20
-1251.0
 30
0.0
 11
4579.9999999999990905
 21
-1172.5656346635219052
 31
0.0
1001
GRADIENTCOLOR1ACI
1070
     5
1001
GRADIENTCOLOR2ACI
1070
     2
1001
ACAD
1010
0.0
1020
0.0
1030
0.0
  0
LINE
  5
127F83
  8
SLIM
 10
4500.5261469056576971
 20
-1270.0
 30
0.0
 11
4519.5261469056604255
 21
-1251.0
 31
0.0
1001
GRADIENTCOLOR1ACI
1070
     5
1001
GRADIENTCOLOR2ACI
1070
     2
1001
ACAD
1010
0.0
1020
0.0
1030
0.0
  0
LINE
  5
127F84
  8
SLIM
 10
4519.5261469056604255
 20
-1251.0
 30
0.0
 11
4579.9999999999990905
 21
-1190.5261469056599708
 31
0.0
1001
GRADIENTCOLOR1ACI
1070
     5
1001
GRADIENTCOLOR2ACI
1070
     2
1001
ACAD
1010
0.0
1020
0.0
1030
0.0
  0
LINE
  5
127F85
  8
SLIM
 10
4518.4866591477966722
 20
-1270.0
 30
0.0
 11
4537.4866591477975817
 21
-1251.0
 31
0.0
1001
GRADIENTCOLOR1ACI
1070
     5
1001
GRADIENTCOLOR2ACI
1070
     2
1001
ACAD
1010
0.0
1020
0.0
1030
0.0
  0
LINE
  5
127F86
  8
SLIM
 10
4537.4866591477975817
 20
-1251.0
 30
0.0
 11
4579.9999999999990905
 21
-1208.4866591477989459
 31
0.0
1001
GRADIENTCOLOR1ACI
1070
     5
1001
GRADIENTCOLOR2ACI
1070
     2
1001
ACAD
1010
0.0
1020
0.0
1030
0.0
  0
LINE
  5
127F87
  8
SLIM
 10
4536.4471713899356473
 20
-1270.0
 30
0.0
 11
4555.4471713899356473
 21
-1251.0
 31
0.0
1001
GRADIENTCOLOR1ACI
1070
     5
1001
GRADIENTCOLOR2ACI
1070
     2
1001
ACAD
1010
0.0
1020
0.0
1030
0.0
  0
LINE
  5
127F88
  8
SLIM
 10
4555.4471713899356473
 20
-1251.0
 30
0.0
 11
4579.9999999999990905
 21
-1226.447171389937921
 31
0.0
1001
GRADIENTCOLOR1ACI
1070
     5
1001
GRADIENTCOLOR2ACI
1070
     2
1001
ACAD
1010
0.0
1020
0.0
1030
0.0
  0
LINE
  5
127F89
  8
SLIM
 10
4554.4076836320728034
 20
-1270.0
 30
0.0
 11
4570.0
 21
-1254.4076836320739403
 31
0.0
1001
GRADIENTCOLOR1ACI
1070
     5
1001
GRADIENTCOLOR2ACI
1070
     2
1001
ACAD
1010
0.0
1020
0.0
1030
0.0
  0
LINE
  5
127F8A
  8
SLIM
 10
4573.4076836320737129
 20
-1251.0
 30
0.0
 11
4579.9999999999990905
 21
-1244.4076836320759867
 31
0.0
1001
GRADIENTCOLOR1ACI
1070
     5
1001
GRADIENTCOLOR2ACI
1070
     2
1001
ACAD
1010
0.0
1020
0.0
1030
0.0
  0
LINE
  5
127F8B
  8
OBJECT
 10
4414.9999999999918145
 20
-1011.0
 30
0.0
 11
4414.9999999999954525
 21
-1084.7846033990349497
 31
0.0
1001
ACDBBLOCKREPETAG
1070
     1
1071
        1
1005
127F8B
  0
LINE
  5
127F8C
  8
OBJECT
 10
4585.000000000007276
 20
-1011.0
 30
0.0
 11
4585.0000000000027285
 21
-1084.7846033990419983
 31
0.0
1001
ACDBBLOCKREPETAG
1070
     1
1071
        2
1005
127F8C
  0
LINE
  5
127F8D
  8
OBJECT
 10
4585.000000000007276
 20
-1011.0
 30
0.0
 11
4414.9999999999918145
 21
-1011.0
 31
0.0
1001
ACDBBLOCKREPETAG
1070
     1
1071
        3
1005
127F8D
  0
LINE
  5
127F8E
  8
OBJECT
 10
4579.9999999999990905
 20
-1251.0
 30
0.0
 11
4420.0
 21
-1251.0
 31
0.0
1001
ACDBBLOCKREPETAG
1070
     1
1071
        4
1005
127F8E
  0
LINE
  5
127F8F
  8
OBJECT
 10
4414.9999999999954525
 20
-1084.7846033990349497
 30
0.0
 11
4420.0
 21
-1125.6225774829870261
 31
0.0
1001
ACDBBLOCKREPETAG
1070
     1
1071
        6
1005
127F8F
  0
LINE
  5
127F90
  8
OBJECT
 10
4420.0
 20
-1125.6225774829870261
 30
0.0
 11
4420.0
 21
-1251.0
 31
0.0
1001
ACDBBLOCKREPETAG
1070
     1
1071
        7
1005
127F90
  0
LINE
  5
127F91
  8
OBJECT
 10
4585.0000000000027285
 20
-1084.7846033990419983
 30
0.0
 11
4580.0
 21
-1125.6225774829870261
 31
0.0
1001
ACDBBLOCKREPETAG
1070
     1
1071
        8
1005
127F91
  0
LINE
  5
127F92
  8
OBJECT
 10
4430.0
 20
-1251.0
 30
0.0
 11
4430.0
 21
-1270.0
 31
0.0
1001
ACDBBLOCKREPETAG
1070
     1
1071
       10
1005
127F92
  0
LINE
  5
127F93
  8
OBJECT
 10
4580.0
 20
-1125.6225774829870261
 30
0.0
 11
4579.9999999999990905
 21
-1251.0
 31
0.0
1001
ACDBBLOCKREPETAG
1070
     1
1071
        9
1005
127F93
  0
LINE
  5
127F94
  8
OBJECT
 10
4570.0
 20
-1270.0
 30
0.0
 11
4570.0
 21
-1251.0
 31
0.0
1001
ACDBBLOCKREPETAG
1070
     1
1071
       12
1005
127F94
  0
LINE
  5
127F95
  8
OBJECT
 10
4430.0
 20
-1270.0
 30
0.0
 11
4570.0
 21
-1270.0
 31
0.0
1001
ACDBBLOCKREPETAG
1070
     1
1071
       11
1005
127F95
  0
LINE
  5
127F96
  8
OBJECT
 10
4430.0
 20
-1364.9999999999979536
 30
0.0
 11
4570.0
 21
-1364.9999999999979536
 31
0.0
1001
ACDBBLOCKREPETAG
1070
     1
1071
        0
1005
127F96
  0
LINE
  5
127F97
  8
OBJECT
 10
4430.0
 20
-1364.9999999999979536
 30
0.0
 11
4430.0
 21
-1124.9999999999979536
 31
0.0
1001
ACDBBLOCKREPETAG
1070
     1
1071
        1
1005
127F97
  0
LINE
  5
127F98
  8
OBJECT
 10
4570.0
 20
-1364.9999999999979536
 30
0.0
 11
4570.0
 21
-1124.9999999999979536
 31
0.0
1001
ACDBBLOCKREPETAG
1070
     1
1071
        2
1005
127F98
  0
LINE
  5
127F99
  8
OBJECT
 10
4430.0
 20
-1124.9999999999979536
 30
0.0
 11
4570.0
 21
-1124.9999999999979536
 31
0.0
1001
ACDBBLOCKREPETAG
1070
     1
1071
        3
1005
127F99
  0
LINE
  5
127F9A
  8
HIDDEN
 10
4437.5
 20
-1124.9999999999979536
 30
0.0
 11
4437.5
 21
-1364.9999999999979536
 31
0.0
1001
ACDBBLOCKREPETAG
1070
     1
1071
        4
1005
127F9A
  0
LINE
  5
127F9B
  8
HIDDEN
 10
4562.5
 20
-1124.9999999999979536
 30
0.0
 11
4562.5
 21
-1364.9999999999979536
 31
0.0
1001
ACDBBLOCKREPETAG
1070
     1
1071
        5
1005
127F9B
  0
LINE
  5
127F9C
  8
CENTER
 10
4500.0
 20
-1055.0
 30
0.0
 11
4500.0
 21
-1379.9999999999979536
 31
0.0
1001
ACDBBLOCKREPETAG
1070
     1
1071
        6
1005
127F9C
  0
LINE
  5
127F9D
  8
OBJECT
 10
4425.0
 20
-1055.0
 30
0.0
 11
4425.0
 21
-1084.9999999999979536
 31
0.0
1001
ACDBBLOCKREPETAG
1070
     1
1071
        7
1005
127F9D
  0
LINE
  5
127F9E
  8
OBJECT
 10
4575.000000000001819
 20
-1055.0
 30
0.0
 11
4575.0
 21
-1084.9999999999979536
 31
0.0
1001
ACDBBLOCKREPETAG
1070
     1
1071
        8
1005
127F9E
  0
LINE
  5
127F9F
  8
OBJECT
 10
4425.0
 20
-1084.9999999999979536
 30
0.0
 11
4575.0
 21
-1084.9999999999979536
 31
0.0
1001
ACDBBLOCKREPETAG
1070
     1
1071
        9
1005
127F9F
  0
LINE
  5
127FA0
  8
OBJECT
 10
4425.0
 20
-1084.9999999999979536
 30
0.0
 11
4430.0
 21
-1124.9999999999979536
 31
0.0
1001
ACDBBLOCKREPETAG
1070
     1
1071
       10
1005
127FA0
  0
LINE
  5
127FA1
  8
OBJECT
 10
4570.0
 20
-1124.9999999999979536
 30
0.0
 11
4575.0
 21
-1084.9999999999979536
 31
0.0
1001
ACDBBLOCKREPETAG
1070
     1
1071
       11
1005
127FA1
  0
LINE
  5
127FA2
  8
OBJECT
 10
2430.0
 20
-1364.9999999999979536
 30
0.0
 11
2570.0
 21
-1364.9999999999979536
 31
0.0
1001
ACDBBLOCKREPETAG
1070
     1
1071
        0
1005
127FA2
  0
LINE
  5
127FA3
  8
OBJECT
 10
2430.0
 20
-1364.9999999999979536
 30
0.0
 11
2430.0
 21
-1124.9999999999979536
 31
0.0
1001
ACDBBLOCKREPETAG
1070
     1
1071
        1
1005
127FA3
  0
LINE
  5
127FA4
  8
OBJECT
 10
2570.0
 20
-1364.9999999999979536
 30
0.0
 11
2570.0
 21
-1124.9999999999979536
 31
0.0
1001
ACDBBLOCKREPETAG
1070
     1
1071
        2
1005
127FA4
  0
LINE
  5
127FA5
  8
OBJECT
 10
2430.0
 20
-1124.9999999999979536
 30
0.0
 11
2570.0
 21
-1124.9999999999979536
 31
0.0
1001
ACDBBLOCKREPETAG
1070
     1
1071
        3
1005
127FA5
  0
LINE
  5
127FA6
  8
HIDDEN
 10
2437.5
 20
-1124.9999999999979536
 30
0.0
 11
2437.5
 21
-1364.9999999999979536
 31
0.0
1001
ACDBBLOCKREPETAG
1070
     1
1071
        4
1005
127FA6
  0
LINE
  5
127FA7
  8
HIDDEN
 10
2562.5
 20
-1124.9999999999979536
 30
0.0
 11
2562.5
 21
-1364.9999999999979536
 31
0.0
1001
ACDBBLOCKREPETAG
1070
     1
1071
        5
1005
127FA7
  0
LINE
  5
127FA8
  8
CENTER
 10
2500.0
 20
-1055.0
 30
0.0
 11
2500.0
 21
-1379.9999999999979536
 31
0.0
1001
ACDBBLOCKREPETAG
1070
     1
1071
        6
1005
127FA8
  0
LINE
  5
127FA9
  8
OBJECT
 10
2425.0
 20
-1055.0
 30
0.0
 11
2425.0
 21
-1084.9999999999979536
 31
0.0
1001
ACDBBLOCKREPETAG
1070
     1
1071
        7
1005
127FA9
  0
LINE
  5
127FAA
  8
OBJECT
 10
2575.0000000000050022
 20
-1055.0
 30
0.0
 11
2575.0
 21
-1084.9999999999979536
 31
0.0
1001
ACDBBLOCKREPETAG
1070
     1
1071
        8
1005
127FAA
  0
LINE
  5
127FAB
  8
OBJECT
 10
2425.0
 20
-1084.9999999999979536
 30
0.0
 11
2575.0
 21
-1084.9999999999979536
 31
0.0
1001
ACDBBLOCKREPETAG
1070
     1
1071
        9
1005
127FAB
  0
LINE
  5
127FAC
  8
OBJECT
 10
2425.0
 20
-1084.9999999999979536
 30
0.0
 11
2430.0
 21
-1124.9999999999979536
 31
0.0
1001
ACDBBLOCKREPETAG
1070
     1
1071
       10
1005
127FAC
  0
LINE
  5
127FAD
  8
OBJECT
 10
2570.0
 20
-1124.9999999999979536
 30
0.0
 11
2575.0
 21
-1084.9999999999979536
 31
0.0
1001
ACDBBLOCKREPETAG
1070
     1
1071
       11
1005
127FAD
  0
CIRCLE
  5
127FAE
  8
OBJECT
 10
180.0000000000418083
 20
-232.0000000001718945
 30
0.0
 40
70.0
1001
ACDBBLOCKREPETAG
1070
     1
1071
       50
1005
127FAE
  0
CIRCLE
  5
127FAF
  8
OBJECT
 10
180.0000000000418083
 20
-232.0000000001718945
 30
0.0
 40
77.0
1001
ACDBBLOCKREPETAG
1070
     1
1071
       51
1005
127FAF
  0
ARC
  5
127FB0
  8
OBJECT
 10
180.0000000000418083
 20
-232.0000000001718945
 30
0.0
 40
80.0
 50
140.8050325737796982
 51
39.1949674262202521
1001
ACDBBLOCKREPETAG
1070
     1
1071
       52
1005
127FB0
  0
LINE
  5
127FB1
  8
OBJECT
 10
118.0000000000417941
 20
-186.3381997728473038
 30
0.0
 11
118.0000000000417941
 21
-152.0000000001718092
 31
0.0
1001
ACDBBLOCKREPETAG
1070
     1
1071
       53
1005
127FB1
  0
LINE
  5
127FB2
  8
OBJECT
 10
242.0000000000418083
 20
-186.3381997728473038
 30
0.0
 11
242.0000000000418083
 21
-152.0000000001718092
 31
0.0
1001
ACDBBLOCKREPETAG
1070
     1
1071
       54
1005
127FB2
  0
POINT
  5
127FB3
  8
DOTS
 10
180.0000000000418083
 20
-232.0000000001718945
 30
0.0
1001
ACDBBLOCKREPETAG
1070
     1
1071
       63
1005
127FB3
  0
CIRCLE
  5
127FB4
  8
OBJECT
 10
180.0000000000418083
 20
-232.0000000001718945
 30
0.0
 40
53.5
1001
ACDBBLOCKREPETAG
1070
     1
1071
      157
1005
127FB4
  0
INSERT
  5
127FB5
  8
SLIM
  2
*U26
 10
0.0
 20
0.0
 30
0.0
  0
LINE
  5
127FB6
  8
OBJECT
 10
133.0000000000416946
 20
-99.0000000001718803
 30
0.0
 11
133.0000000000416946
 21
-92.0000000001718945
 31
0.0
1001
ACDBBLOCKREPETAG
1070
     1
1071
        1
1005
127FB6
  0
LINE
  5
127FB7
  8
OBJECT
 10
133.0000000000416946
 20
-92.0000000001718945
 30
0.0
 11
227.0000000000418083
 21
-92.0000000001718945
 31
0.0
1001
ACDBBLOCKREPETAG
1070
     1
1071
        2
1005
127FB7
  0
LINE
  5
127FB8
  8
OBJECT
 10
227.0000000000418083
 20
-92.0000000001718945
 30
0.0
 11
227.0000000000418083
 21
-99.0000000001718803
 31
0.0
1001
ACDBBLOCKREPETAG
1070
     1
1071
        3
1005
127FB8
  0
LINE
  5
127FB9
  8
OBJECT
 10
227.0000000000418083
 20
-99.0000000001718803
 30
0.0
 11
133.0000000000416946
 21
-99.0000000001718803
 31
0.0
1001
ACDBBLOCKREPETAG
1070
     1
1071
        4
1005
127FB9
  0
LINE
  5
127FBA
  8
OBJECT
 10
136.0000000000416946
 20
-99.0000000001718803
 30
0.0
 11
136.0000000000416946
 21
-135.0000000001718092
 31
0.0
1001
ACDBBLOCKREPETAG
1070
     1
1071
        5
1005
127FBA
  0
LINE
  5
127FBB
  8
OBJECT
 10
136.0000000000416946
 20
-135.0000000001718092
 30
0.0
 11
224.0000000000418083
 21
-135.0000000001718092
 31
0.0
1001
ACDBBLOCKREPETAG
1070
     1
1071
        6
1005
127FBB
  0
LINE
  5
127FBC
  8
OBJECT
 10
224.0000000000418083
 20
-135.0000000001718092
 30
0.0
 11
224.0000000000418083
 21
-99.0000000001718803
 31
0.0
1001
ACDBBLOCKREPETAG
1070
     1
1071
        7
1005
127FBC
  0
LINE
  5
127FBD
  8
OBJECT
 10
140.5000000000418083
 20
-139.0000000001718092
 30
0.0
 11
140.5000000000418083
 21
-146.0000000001718092
 31
0.0
1001
ACDBBLOCKREPETAG
1070
     1
1071
        8
1005
127FBD
  0
LINE
  5
127FBE
  8
OBJECT
 10
219.5000000000418936
 20
-146.0000000001718092
 30
0.0
 11
219.5000000000418936
 21
-139.0000000001718092
 31
0.0
1001
ACDBBLOCKREPETAG
1070
     1
1071
        9
1005
127FBE
  0
LINE
  5
127FBF
  8
OBJECT
 10
219.5000000000418936
 20
-139.0000000001718092
 30
0.0
 11
140.5000000000418083
 21
-139.0000000001718092
 31
0.0
1001
ACDBBLOCKREPETAG
1070
     1
1071
       10
1005
127FBF
  0
LINE
  5
127FC0
  8
OBJECT
 10
136.0000000000416946
 20
-135.0000000001718092
 30
0.0
 11
140.5000000000418083
 21
-139.0000000001718092
 31
0.0
1001
ACDBBLOCKREPETAG
1070
     1
1071
       11
1005
127FC0
  0
LINE
  5
127FC1
  8
OBJECT
 10
224.0000000000418083
 20
-135.0000000001718092
 30
0.0
 11
219.5000000000418936
 21
-139.0000000001718092
 31
0.0
1001
ACDBBLOCKREPETAG
1070
     1
1071
       12
1005
127FC1
  0
LINE
  5
127FC2
  8
OBJECT
 10
118.0000000000417941
 20
-149.0000000001710134
 30
0.0
 11
118.0000000000417941
 21
-152.0000000001718092
 31
0.0
1001
ACDBBLOCKREPETAG
1070
     1
1071
       13
1005
127FC2
  0
ARC
  5
127FC3
  8
OBJECT
 10
121.0000000000417941
 20
-149.0000000001710134
 30
0.0
 40
3.0
 50
90.0
 51
180.0
1001
ACDBBLOCKREPETAG
1070
     1
1071
       14
1005
127FC3
  0
LINE
  5
127FC4
  8
OBJECT
 10
242.0000000000418083
 20
-152.0000000001718092
 30
0.0
 11
242.0000000000418083
 21
-149.000000000172804
 31
0.0
1001
ACDBBLOCKREPETAG
1070
     1
1071
       15
1005
127FC4
  0
ARC
  5
127FC5
  8
OBJECT
 10
239.0000000000418083
 20
-149.000000000172804
 30
0.0
 40
3.0
 50
0.0
 51
90.0
1001
ACDBBLOCKREPETAG
1070
     1
1071
       16
1005
127FC5
  0
LINE
  5
127FC6
  8
OBJECT
 10
239.0000000000418083
 20
-146.000000000172804
 30
0.0
 11
121.0000000000417941
 21
-146.0000000001710134
 31
0.0
1001
ACDBBLOCKREPETAG
1070
     1
1071
       17
1005
127FC6
  0
LINE
  5
127FC7
  8
HIDDEN
 10
150.0000000000418083
 20
-144.0000000001718945
 30
0.0
 11
210.0000000000418083
 21
-144.0000000001718945
 31
0.0
1001
ACDBBLOCKREPETAG
1070
     1
1071
      420
1005
127FC7
  0
TEXT
  5
127FC8
  8
SLIM
 10
0.000003566523219
 20
-775.9999954146824166
 30
0.0
 40
79.9999999999727152
  1
下部枝管バリエーション
 41
0.75
1001
ACDBBLOCKREPETAG
1070
     1
1071
      119
1005
120BCB
  0
LINE
  5
127FC9
  8
DIM
 10
4404.9999999999936335
 20
-1011.0
 30
0.0
 11
4333.1164560757752042
 21
-1011.0
 31
0.0
  0
LINE
  5
127FCA
  8
DIM
 10
4410.0
 20
-1251.0
 30
0.0
 11
4333.1164560757752042
 21
-1251.0
 31
0.0
  0
LINE
  5
127FCB
  8
DIM
 10
4343.1164560757752042
 20
-1031.0
 30
0.0
 11
4343.1164560757752042
 21
-1231.0
 31
0.0
  0
INSERT
  5
127FCC
  8
DIM
  2
_OPEN30
 10
4343.1164560757752042
 20
-1011.0
 30
0.0
 41
20.0
 42
20.0
 43
20.0
 50
90.0
  0
INSERT
  5
127FCD
  8
DIM
  2
_OPEN30
 10
4343.1164560757752042
 20
-1251.0
 30
0.0
 41
20.0
 42
20.0
 43
20.0
 50
270.0
  0
INSERT
  5
127FCE
  8
SLIM
  2
*U27
 10
0.0
 20
0.0
 30
0.0
  0
LINE
  5
127FCF
  8
OBJECT
 10
4425.0
 20
-770.0
 30
0.0
 11
4425.0
 21
-1043.0
 31
0.0
1001
ACDBBLOCKREPETAG
1070
     1
1071
        1
1005
127FCF
  0
LINE
  5
127FD0
  8
OBJECT
 10
4575.0
 20
-769.9999999999943157
 30
0.0
 11
4575.0
 21
-1043.0
 31
0.0
1001
ACDBBLOCKREPETAG
1070
     1
1071
        3
1005
127FD0
  0
LINE
  5
127FD1
  8
CENTER
 10
4500.0
 20
-770.0
 30
0.0
 11
4500.0
 21
-1055.0
 31
0.0
1001
ACDBBLOCKREPETAG
1070
     1
1071
        6
1005
127FD1
  0
LINE
  5
127FD2
  8
OBJECT
 10
4420.0
 20
-1055.0
 30
0.0
 11
4580.0
 21
-1055.0
 31
0.0
1001
ACDBBLOCKREPETAG
1070
     1
1071
        7
1005
127FD2
  0
LINE
  5
127FD3
  8
OBJECT
 10
4420.0
 20
-1043.0
 30
0.0
 11
4580.0
 21
-1043.0
 31
0.0
1001
ACDBBLOCKREPETAG
1070
     1
1071
        8
1005
127FD3
  0
LINE
  5
127FD4
  8
OBJECT
 10
4420.0
 20
-1043.0
 30
0.0
 11
4420.0
 21
-1055.0
 31
0.0
1001
ACDBBLOCKREPETAG
1070
     1
1071
        9
1005
127FD4
  0
LINE
  5
127FD5
  8
OBJECT
 10
4580.0
 20
-1043.0
 30
0.0
 11
4580.0
 21
-1055.0
 31
0.0
1001
ACDBBLOCKREPETAG
1070
     1
1071
       10
1005
127FD5
  0
LINE
  5
127FD6
  8
CENTER
 10
4577.0
 20
-952.0
 30
0.0
 11
4423.0
 21
-952.0
 31
0.0
1001
ACDBBLOCKREPETAG
1070
     1
1071
       17
1005
127FD6
  0
CIRCLE
  5
127FD7
  8
HIDDEN
 10
4500.0
 20
-952.0
 30
0.0
 40
41.5
1001
ACDBBLOCKREPETAG
1070
     1
1071
       18
1005
127FD7
  0
CIRCLE
  5
127FD8
  8
HIDDEN
 10
4500.0
 20
-952.0
 30
0.0
 40
54.0
1001
ACDBBLOCKREPETAG
1070
     1
1071
       19
1005
127FD8
  0
ARC
  5
127FD9
  8
HIDDEN
 10
4500.0
 20
-952.0
 30
0.0
 40
62.0
 50
287.8965511292091719
 51
252.1034488707907997
1001
ACDBBLOCKREPETAG
1070
     1
1071
       20
1005
127FD9
  0
LINE
  5
127FDA
  8
HIDDEN
 10
4480.947441116742084
 20
-1011.0
 30
0.0
 11
4519.0525588832570065
 21
-1011.0
 31
0.0
1001
ACDBBLOCKREPETAG
1070
     1
1071
       21
1005
127FDA
  0
POINT
  5
127FDB
  8
DOTS
 10
4500.0
 20
-1011.0
 30
0.0
1001
ACDBBLOCKREPETAG
1070
     1
1071
       23
1005
127FDB
  0
LINE
  5
127FDC
  8
CENTER
 10
4977.0
 20
-3805.9999999999968168
 30
0.0
 11
4823.0
 21
-3805.9999999999968168
 31
0.0
1001
ACDBBLOCKREPETAG
1070
     1
1071
       17
1005
127FDC
  0
CIRCLE
  5
127FDD
  8
OBJECT
 10
4900.0
 20
-3805.9999999999968168
 30
0.0
 40
41.5
1001
ACDBBLOCKREPETAG
1070
     1
1071
       18
1005
127FDD
  0
CIRCLE
  5
127FDE
  8
OBJECT
 10
4900.0
 20
-3805.9999999999968168
 30
0.0
 40
54.0
1001
ACDBBLOCKREPETAG
1070
     1
1071
       19
1005
127FDE
  0
ARC
  5
127FDF
  8
OBJECT
 10
4900.0
 20
-3805.9999999999968168
 30
0.0
 40
62.0
 50
287.8965511292112751
 51
252.1034488707886965
1001
ACDBBLOCKREPETAG
1070
     1
1071
       20
1005
127FDF
  0
LINE
  5
127FE0
  8
OBJECT
 10
4880.947441116742084
 20
-3864.9999999999968168
 30
0.0
 11
4919.052558883257916
 21
-3864.9999999999968168
 31
0.0
1001
ACDBBLOCKREPETAG
1070
     1
1071
       21
1005
127FE0
  0
POINT
  5
127FE1
  8
DOTS
 10
4900.0
 20
-3864.9999999999968168
 30
0.0
1001
ACDBBLOCKREPETAG
1070
     1
1071
       23
1005
127FE1
  0
LINE
  5
127FE2
  8
OBJECT
 10
4633.0
 20
-3743.9999999999959073
 30
0.0
 11
4640.0
 21
-3743.9999999999959073
 31
0.0
1001
ACDBBLOCKREPETAG
1070
     1
1071
       46
1005
127FE2
  0
LINE
  5
127FE3
  8
OBJECT
 10
4640.0
 20
-3743.9999999999959073
 30
0.0
 11
4640.0
 21
-3864.9999999999968168
 31
0.0
1001
ACDBBLOCKREPETAG
1070
     1
1071
       47
1005
127FE3
  0
LINE
  5
127FE4
  8
OBJECT
 10
4633.0
 20
-3864.9999999999968168
 30
0.0
 11
4633.0
 21
-3743.9999999999959073
 31
0.0
1001
ACDBBLOCKREPETAG
1070
     1
1071
       48
1005
127FE4
  0
LINE
  5
127FE5
  8
CENTER
 10
4655.0
 20
-3805.9999999999968168
 30
0.0
 11
4541.3449199130036504
 21
-3806.0000000000609361
 31
0.0
1001
ACDBBLOCKREPETAG
1070
     1
1071
       49
1005
127FE5
  0
LINE
  5
127FE6
  8
OBJECT
 10
4633.0
 20
-3746.9999999999959073
 30
0.0
 11
4597.0
 21
-3746.9999999999959073
 31
0.0
1001
ACDBBLOCKREPETAG
1070
     1
1071
       50
1005
127FE6
  0
LINE
  5
127FE7
  8
OBJECT
 10
4597.0
 20
-3746.9999999999959073
 30
0.0
 11
4597.0
 21
-3864.9999999999968168
 31
0.0
1001
ACDBBLOCKREPETAG
1070
     1
1071
       51
1005
127FE7
  0
LINE
  5
127FE8
  8
OBJECT
 10
4597.0
 20
-3864.9999999999968168
 30
0.0
 11
4640.0
 21
-3864.9999999999968168
 31
0.0
1001
ACDBBLOCKREPETAG
1070
     1
1071
       52
1005
127FE8
  0
LINE
  5
127FE9
  8
OBJECT
 10
4593.0
 20
-3751.4999999999959073
 30
0.0
 11
4582.5
 21
-3751.4999999999959073
 31
0.0
1001
ACDBBLOCKREPETAG
1070
     1
1071
       53
1005
127FE9
  0
LINE
  5
127FEA
  8
OBJECT
 10
4582.5
 20
-3860.4999999999959073
 30
0.0
 11
4593.0
 21
-3860.4999999999959073
 31
0.0
1001
ACDBBLOCKREPETAG
1070
     1
1071
       54
1005
127FEA
  0
LINE
  5
127FEB
  8
OBJECT
 10
4593.0
 20
-3860.4999999999959073
 30
0.0
 11
4593.0
 21
-3751.4999999999959073
 31
0.0
1001
ACDBBLOCKREPETAG
1070
     1
1071
       55
1005
127FEB
  0
LINE
  5
127FEC
  8
OBJECT
 10
4597.0
 20
-3746.9999999999959073
 30
0.0
 11
4593.0
 21
-3751.4999999999959073
 31
0.0
1001
ACDBBLOCKREPETAG
1070
     1
1071
       56
1005
127FEC
  0
LINE
  5
127FED
  8
OBJECT
 10
4597.0
 20
-3864.9999999999968168
 30
0.0
 11
4593.0
 21
-3860.4999999999959073
 31
0.0
1001
ACDBBLOCKREPETAG
1070
     1
1071
       57
1005
127FED
  0
LINE
  5
127FEE
  8
HIDDEN
 10
4588.0
 20
-3761.4999999999968168
 30
0.0
 11
4588.0
 21
-3850.4999999999968168
 31
0.0
1001
ACDBBLOCKREPETAG
1070
     1
1071
       58
1005
127FEE
  0
ARC
  5
127FEF
  8
OBJECT
 10
4664.8782728787718952
 20
-3821.4095072612249169
 30
0.0
 40
110.866352283089995
 50
144.1634274192888938
 51
163.0403538043393894
1001
ACDBBLOCKREPETAG
1070
     1
1071
       59
1005
127FEF
  0
ARC
  5
127FF0
  8
OBJECT
 10
4617.1359887769067427
 20
-3806.2877497184449567
 30
0.0
 40
60.7917498803589567
 50
163.5472046522193068
 51
179.7287969828265943
1001
ACDBBLOCKREPETAG
1070
     1
1071
       60
1005
127FF0
  0
ARC
  5
127FF1
  8
OBJECT
 10
4617.1359956562482694
 20
-3812.7122497598970767
 30
0.0
 40
60.7917567620948702
 50
180.2712034781451962
 51
196.4527794605265001
1001
ACDBBLOCKREPETAG
1070
     1
1071
       61
1005
127FF1
  0
ARC
  5
127FF2
  8
OBJECT
 10
4664.8782728787718952
 20
-3797.590492738832836
 30
0.0
 40
110.8663522830916008
 50
196.9596461956604969
 51
215.8365725807111062
1001
ACDBBLOCKREPETAG
1070
     1
1071
       62
1005
127FF2
  0
LINE
  5
127FF3
  8
OBJECT
 10
4556.3449199130036504
 20
-3806.0000000000331966
 30
0.0
 11
4556.3449199130036504
 21
-3813.0000000000291038
 31
0.0
1001
ACDBBLOCKREPETAG
1070
     1
1071
       63
1005
127FF3
  0
LINE
  5
127FF4
  8
OBJECT
 10
4574.9999999998335625
 20
-3756.5000000002919478
 30
0.0
 11
4577.499999999836291
 21
-3756.5000000002919478
 31
0.0
1001
ACDBBLOCKREPETAG
1070
     1
1071
       65
1005
127FF4
  0
LINE
  5
127FF5
  8
OBJECT
 10
4574.999999999832653
 20
-3862.4999999997671694
 30
0.0
 11
4579.499999999830834
 21
-3862.4999999997671694
 31
0.0
1001
ACDBBLOCKREPETAG
1070
     1
1071
       66
1005
127FF5
  0
LINE
  5
127FF6
  8
OBJECT
 10
4579.499999999830834
 20
-3862.4999999997671694
 30
0.0
 11
4577.499999999836291
 21
-3756.5000000002919478
 31
0.0
1001
ACDBBLOCKREPETAG
1070
     1
1071
       67
1005
127FF6
  0
LINE
  5
127FF7
  8
OBJECT
 10
4579.499999999830834
 20
-3862.4999999997671694
 30
0.0
 11
4582.5
 21
-3860.4999999999959073
 31
0.0
1001
ACDBBLOCKREPETAG
1070
     1
1071
       68
1005
127FF7
  0
LINE
  5
127FF8
  8
OBJECT
 10
4582.5
 20
-3860.4999999999959073
 30
0.0
 11
4582.5
 21
-3751.4999999999959073
 31
0.0
1001
ACDBBLOCKREPETAG
1070
     1
1071
       69
1005
127FF8
  0
LINE
  5
127FF9
  8
OBJECT
 10
4582.5
 20
-3751.4999999999959073
 30
0.0
 11
4577.499999999836291
 21
-3756.5000000002919478
 31
0.0
1001
ACDBBLOCKREPETAG
1070
     1
1071
       70
1005
127FF9
  0
LINE
  5
127FFA
  8
OBJECT
 10
4633.0000000000009095
 20
-3397.9999999999959073
 30
0.0
 11
4640.0000000000009095
 21
-3397.9999999999959073
 31
0.0
1001
ACDBBLOCKREPETAG
1070
     1
1071
       38
1005
127FFA
  0
LINE
  5
127FFB
  8
OBJECT
 10
4640.0000000000009095
 20
-3397.9999999999959073
 30
0.0
 11
4640.0
 21
-3521.9999999999968168
 31
0.0
1001
ACDBBLOCKREPETAG
1070
     1
1071
       39
1005
127FFB
  0
LINE
  5
127FFC
  8
OBJECT
 10
4640.0
 20
-3521.9999999999968168
 30
0.0
 11
4633.0
 21
-3521.9999999999968168
 31
0.0
1001
ACDBBLOCKREPETAG
1070
     1
1071
       40
1005
127FFC
  0
LINE
  5
127FFD
  8
OBJECT
 10
4633.0
 20
-3521.9999999999968168
 30
0.0
 11
4633.0000000000009095
 21
-3397.9999999999959073
 31
0.0
1001
ACDBBLOCKREPETAG
1070
     1
1071
       41
1005
127FFD
  0
LINE
  5
127FFE
  8
CENTER
 10
4655.0
 20
-3459.9999999999968168
 30
0.0
 11
4580.0
 21
-3459.9999999999968168
 31
0.0
1001
ACDBBLOCKREPETAG
1070
     1
1071
       42
1005
127FFE
  0
LINE
  5
127FFF
  8
OBJECT
 10
4633.0000000000009095
 20
-3400.9999999999959073
 30
0.0
 11
4597.0000000000009095
 21
-3400.9999999999959073
 31
0.0
1001
ACDBBLOCKREPETAG
1070
     1
1071
       43
1005
127FFF
  0
LINE
  5
128000
  8
OBJECT
 10
4597.0000000000009095
 20
-3400.9999999999959073
 30
0.0
 11
4597.0
 21
-3518.9999999999968168
 31
0.0
1001
ACDBBLOCKREPETAG
1070
     1
1071
       44
1005
128000
  0
LINE
  5
128001
  8
OBJECT
 10
4597.0
 20
-3518.9999999999968168
 30
0.0
 11
4633.0
 21
-3518.9999999999968168
 31
0.0
1001
ACDBBLOCKREPETAG
1070
     1
1071
       45
1005
128001
  0
LINE
  5
128002
  8
OBJECT
 10
4593.0
 20
-3405.4999999999959073
 30
0.0
 11
4582.5000000000009095
 21
-3405.4999999999959073
 31
0.0
1001
ACDBBLOCKREPETAG
1070
     1
1071
       46
1005
128002
  0
LINE
  5
128003
  8
OBJECT
 10
4582.5
 20
-3514.4999999999968168
 30
0.0
 11
4593.0
 21
-3514.4999999999968168
 31
0.0
1001
ACDBBLOCKREPETAG
1070
     1
1071
       47
1005
128003
  0
LINE
  5
128004
  8
OBJECT
 10
4593.0
 20
-3514.4999999999968168
 30
0.0
 11
4593.0
 21
-3405.4999999999959073
 31
0.0
1001
ACDBBLOCKREPETAG
1070
     1
1071
       48
1005
128004
  0
LINE
  5
128005
  8
OBJECT
 10
4597.0000000000009095
 20
-3400.9999999999959073
 30
0.0
 11
4593.0
 21
-3405.4999999999959073
 31
0.0
1001
ACDBBLOCKREPETAG
1070
     1
1071
       49
1005
128005
  0
LINE
  5
128006
  8
OBJECT
 10
4597.0
 20
-3518.9999999999968168
 30
0.0
 11
4593.0
 21
-3514.4999999999968168
 31
0.0
1001
ACDBBLOCKREPETAG
1070
     1
1071
       50
1005
128006
  0
LINE
  5
128007
  8
HIDDEN
 10
4588.0
 20
-3415.4999999999968168
 30
0.0
 11
4588.0
 21
-3504.4999999999968168
 31
0.0
1001
ACDBBLOCKREPETAG
1070
     1
1071
       51
1005
128007
  0
LINE
  5
128008
  8
OBJECT
 10
4577.5000000000009095
 20
-3410.4999999999959073
 30
0.0
 11
4556.3449199129790941
 21
-3410.4999999999959073
 31
0.0
1001
ACDBBLOCKREPETAG
1070
     1
1071
       52
1005
128008
  0
LINE
  5
128009
  8
OBJECT
 10
4577.4999999999990905
 20
-3509.4999999999959073
 30
0.0
 11
4556.3449199129790941
 21
-3509.4999999999959073
 31
0.0
1001
ACDBBLOCKREPETAG
1070
     1
1071
       53
1005
128009
  0
LINE
  5
12800A
  8
OBJECT
 10
4582.5000000000009095
 20
-3405.4999999999959073
 30
0.0
 11
4582.5
 21
-3514.4999999999968168
 31
0.0
1001
ACDBBLOCKREPETAG
1070
     1
1071
       54
1005
12800A
  0
LINE
  5
12800B
  8
OBJECT
 10
4577.5000000000009095
 20
-3410.4999999999959073
 30
0.0
 11
4577.4999999999990905
 21
-3509.4999999999959073
 31
0.0
1001
ACDBBLOCKREPETAG
1070
     1
1071
       55
1005
12800B
  0
LINE
  5
12800C
  8
OBJECT
 10
4582.5000000000009095
 20
-3405.4999999999959073
 30
0.0
 11
4577.5000000000009095
 21
-3410.4999999999959073
 31
0.0
1001
ACDBBLOCKREPETAG
1070
     1
1071
       56
1005
12800C
  0
LINE
  5
12800D
  8
OBJECT
 10
4577.4999999999990905
 20
-3509.4999999999959073
 30
0.0
 11
4582.5
 21
-3514.4999999999931788
 31
0.0
1001
ACDBBLOCKREPETAG
1070
     1
1071
       57
1005
12800D
  0
CIRCLE
  5
12800E
  8
OBJECT
 10
3900.0
 20
-3812.9999999999968168
 30
0.0
 40
35.5
1001
ACDBBLOCKREPETAG
1070
     1
1071
       11
1005
12800E
  0
LINE
  5
12800F
  8
CENTER
 10
3830.0
 20
-3812.9999999999968168
 30
0.0
 11
3970.0
 21
-3812.9999999999968168
 31
0.0
1001
ACDBBLOCKREPETAG
1070
     1
1071
       12
1005
12800F
  0
CIRCLE
  5
128010
  8
OBJECT
 10
3900.0
 20
-3812.9999999999968168
 30
0.0
 40
47.0
1001
ACDBBLOCKREPETAG
1070
     1
1071
       14
1005
128010
  0
ARC
  5
128011
  8
OBJECT
 10
3900.0
 20
-3812.9999999999968168
 30
0.0
 40
55.0
 50
289.0112652600889191
 51
250.9887347399111093
1001
ACDBBLOCKREPETAG
1070
     1
1071
       15
1005
128011
  0
LINE
  5
128012
  8
OBJECT
 10
3882.0835271328319322
 20
-3864.9999999999968168
 30
0.0
 11
3917.9164728671680678
 21
-3864.9999999999968168
 31
0.0
1001
ACDBBLOCKREPETAG
1070
     1
1071
       16
1005
128012
  0
POINT
  5
128013
  8
DOTS
 10
3900.0
 20
-3864.9999999999968168
 30
0.0
1001
ACDBBLOCKREPETAG
1070
     1
1071
       24
1005
128013
  0
LINE
  5
128014
  8
OBJECT
 10
3633.0
 20
-3757.9999999999959073
 30
0.0
 11
3640.0
 21
-3757.9999999999959073
 31
0.0
1001
ACDBBLOCKREPETAG
1070
     1
1071
       23
1005
128014
  0
LINE
  5
128015
  8
OBJECT
 10
3640.0
 20
-3757.9999999999959073
 30
0.0
 11
3640.0
 21
-3864.9999999999968168
 31
0.0
1001
ACDBBLOCKREPETAG
1070
     1
1071
       24
1005
128015
  0
LINE
  5
128016
  8
OBJECT
 10
3584.5
 20
-3759.5000000000618456
 30
0.0
 11
3584.5
 21
-3862.4999999999968168
 31
0.0
1001
ACDBBLOCKREPETAG
1070
     1
1071
       25
1005
128016
  0
ARC
  5
128017
  8
OBJECT
 10
3581.5
 20
-3759.5000000000618456
 30
0.0
 40
3.0
 50
0.0
 51
90.0
1001
ACDBBLOCKREPETAG
1070
     1
1071
       26
1005
128017
  0
LINE
  5
128018
  8
OBJECT
 10
3633.0
 20
-3864.9999999999968168
 30
0.0
 11
3633.0
 21
-3757.9999999999959073
 31
0.0
1001
ACDBBLOCKREPETAG
1070
     1
1071
       27
1005
128018
  0
LINE
  5
128019
  8
CENTER
 10
3655.0
 20
-3812.9999999999968168
 30
0.0
 11
3541.3449199130041052
 21
-3813.0000000000609361
 31
0.0
1001
ACDBBLOCKREPETAG
1070
     1
1071
       28
1005
128019
  0
LINE
  5
12801A
  8
OBJECT
 10
3633.0
 20
-3760.9999999999968168
 30
0.0
 11
3597.0
 21
-3760.9999999999968168
 31
0.0
1001
ACDBBLOCKREPETAG
1070
     1
1071
       29
1005
12801A
  0
LINE
  5
12801B
  8
OBJECT
 10
3597.0
 20
-3760.9999999999968168
 30
0.0
 11
3597.0
 21
-3864.9999999999968168
 31
0.0
1001
ACDBBLOCKREPETAG
1070
     1
1071
       30
1005
12801B
  0
LINE
  5
12801C
  8
OBJECT
 10
3597.0
 20
-3864.9999999999968168
 30
0.0
 11
3640.0
 21
-3864.9999999999968168
 31
0.0
1001
ACDBBLOCKREPETAG
1070
     1
1071
       31
1005
12801C
  0
LINE
  5
12801D
  8
OBJECT
 10
3593.0
 20
-3765.4999999999968168
 30
0.0
 11
3584.5
 21
-3765.4999999999968168
 31
0.0
1001
ACDBBLOCKREPETAG
1070
     1
1071
       32
1005
12801D
  0
LINE
  5
12801E
  8
OBJECT
 10
3584.5
 20
-3860.4999999999959073
 30
0.0
 11
3593.0
 21
-3860.4999999999959073
 31
0.0
1001
ACDBBLOCKREPETAG
1070
     1
1071
       33
1005
12801E
  0
LINE
  5
12801F
  8
OBJECT
 10
3593.0
 20
-3860.4999999999959073
 30
0.0
 11
3593.0
 21
-3765.4999999999968168
 31
0.0
1001
ACDBBLOCKREPETAG
1070
     1
1071
       34
1005
12801F
  0
LINE
  5
128020
  8
OBJECT
 10
3597.0
 20
-3760.9999999999968168
 30
0.0
 11
3593.0
 21
-3765.4999999999968168
 31
0.0
1001
ACDBBLOCKREPETAG
1070
     1
1071
       35
1005
128020
  0
LINE
  5
128021
  8
OBJECT
 10
3597.0
 20
-3864.9999999999968168
 30
0.0
 11
3593.0
 21
-3860.4999999999959073
 31
0.0
1001
ACDBBLOCKREPETAG
1070
     1
1071
       36
1005
128021
  0
LINE
  5
128022
  8
HIDDEN
 10
3588.0
 20
-3774.9999999999968168
 30
0.0
 11
3588.0
 21
-3850.9999999999959073
 31
0.0
1001
ACDBBLOCKREPETAG
1070
     1
1071
       37
1005
128022
  0
ARC
  5
128023
  8
OBJECT
 10
3664.8782728787741689
 20
-3821.4095072612249169
 30
0.0
 40
110.866352283089995
 50
144.1634274192888938
 51
163.0403538043316871
1001
ACDBBLOCKREPETAG
1070
     1
1071
       38
1005
128023
  0
ARC
  5
128024
  8
OBJECT
 10
3617.135988776908107
 20
-3806.2877497184449567
 30
0.0
 40
60.7917498803589567
 50
163.5472046522266965
 51
179.7287969828267933
1001
ACDBBLOCKREPETAG
1070
     1
1071
       39
1005
128024
  0
ARC
  5
128025
  8
OBJECT
 10
3617.1359956562491789
 20
-3812.7122497598970767
 30
0.0
 40
60.7917567620948702
 50
180.2712034781451962
 51
196.4527794605338045
1001
ACDBBLOCKREPETAG
1070
     1
1071
       40
1005
128025
  0
ARC
  5
128026
  8
OBJECT
 10
3664.8782728787741689
 20
-3797.590492738832836
 30
0.0
 40
110.8663522830916008
 50
196.9596461956681139
 51
215.8365725807111062
1001
ACDBBLOCKREPETAG
1070
     1
1071
       41
1005
128026
  0
LINE
  5
128027
  8
OBJECT
 10
3556.3449199130041052
 20
-3806.0000000000331966
 30
0.0
 11
3556.3449199130041052
 21
-3813.0000000000291038
 31
0.0
1001
ACDBBLOCKREPETAG
1070
     1
1071
       42
1005
128027
  0
LINE
  5
128028
  8
OBJECT
 10
3574.9999999999990905
 20
-3756.5000000000618456
 30
0.0
 11
3581.5
 21
-3756.5000000000618456
 31
0.0
1001
ACDBBLOCKREPETAG
1070
     1
1071
       43
1005
128028
  0
LINE
  5
128029
  8
OBJECT
 10
3574.9999999999990905
 20
-3862.4999999999968168
 30
0.0
 11
3584.5
 21
-3862.4999999999968168
 31
0.0
1001
ACDBBLOCKREPETAG
1070
     1
1071
       44
1005
128029
  0
LINE
  5
12802A
  8
OBJECT
 10
3633.0
 20
-3404.9999999999959073
 30
0.0
 11
3640.0
 21
-3404.9999999999959073
 31
0.0
1001
ACDBBLOCKREPETAG
1070
     1
1071
       20
1005
12802A
  0
LINE
  5
12802B
  8
OBJECT
 10
3640.0
 20
-3404.9999999999959073
 30
0.0
 11
3640.0
 21
-3514.9999999999968168
 31
0.0
1001
ACDBBLOCKREPETAG
1070
     1
1071
       21
1005
12802B
  0
LINE
  5
12802C
  8
OBJECT
 10
3640.0
 20
-3514.9999999999968168
 30
0.0
 11
3633.0
 21
-3514.9999999999968168
 31
0.0
1001
ACDBBLOCKREPETAG
1070
     1
1071
       22
1005
12802C
  0
LINE
  5
12802D
  8
OBJECT
 10
3633.0
 20
-3514.9999999999968168
 30
0.0
 11
3633.0
 21
-3404.9999999999959073
 31
0.0
1001
ACDBBLOCKREPETAG
1070
     1
1071
       23
1005
12802D
  0
LINE
  5
12802E
  8
CENTER
 10
3655.0
 20
-3459.9999999999968168
 30
0.0
 11
3580.0
 21
-3459.9999999999968168
 31
0.0
1001
ACDBBLOCKREPETAG
1070
     1
1071
       24
1005
12802E
  0
LINE
  5
12802F
  8
OBJECT
 10
3633.0
 20
-3407.9999999999959073
 30
0.0
 11
3597.0
 21
-3407.9999999999959073
 31
0.0
1001
ACDBBLOCKREPETAG
1070
     1
1071
       25
1005
12802F
  0
LINE
  5
128030
  8
OBJECT
 10
3597.0
 20
-3407.9999999999959073
 30
0.0
 11
3597.0
 21
-3511.9999999999959073
 31
0.0
1001
ACDBBLOCKREPETAG
1070
     1
1071
       26
1005
128030
  0
LINE
  5
128031
  8
OBJECT
 10
3597.0
 20
-3511.9999999999959073
 30
0.0
 11
3633.0
 21
-3511.9999999999959073
 31
0.0
1001
ACDBBLOCKREPETAG
1070
     1
1071
       27
1005
128031
  0
LINE
  5
128032
  8
OBJECT
 10
3593.0
 20
-3412.4999999999959073
 30
0.0
 11
3584.5
 21
-3412.4999999999959073
 31
0.0
1001
ACDBBLOCKREPETAG
1070
     1
1071
       28
1005
128032
  0
LINE
  5
128033
  8
OBJECT
 10
3584.5
 20
-3507.4999999999968168
 30
0.0
 11
3593.0
 21
-3507.4999999999968168
 31
0.0
1001
ACDBBLOCKREPETAG
1070
     1
1071
       29
1005
128033
  0
LINE
  5
128034
  8
OBJECT
 10
3593.0
 20
-3507.4999999999968168
 30
0.0
 11
3593.0
 21
-3412.4999999999959073
 31
0.0
1001
ACDBBLOCKREPETAG
1070
     1
1071
       30
1005
128034
  0
LINE
  5
128035
  8
OBJECT
 10
3597.0
 20
-3407.9999999999959073
 30
0.0
 11
3593.0
 21
-3412.4999999999959073
 31
0.0
1001
ACDBBLOCKREPETAG
1070
     1
1071
       31
1005
128035
  0
LINE
  5
128036
  8
OBJECT
 10
3597.0
 20
-3511.9999999999959073
 30
0.0
 11
3593.0
 21
-3507.4999999999968168
 31
0.0
1001
ACDBBLOCKREPETAG
1070
     1
1071
       32
1005
128036
  0
LINE
  5
128037
  8
OBJECT
 10
3584.499999999998181
 20
-3509.4999999999959073
 30
0.0
 11
3584.5
 21
-3410.4999999999959073
 31
0.0
1001
ACDBBLOCKREPETAG
1070
     1
1071
       33
1005
128037
  0
LINE
  5
128038
  8
HIDDEN
 10
3588.0
 20
-3421.9999999999968168
 30
0.0
 11
3588.0
 21
-3497.9999999999959073
 31
0.0
1001
ACDBBLOCKREPETAG
1070
     1
1071
       34
1005
128038
  0
LINE
  5
128039
  8
OBJECT
 10
3584.5
 20
-3410.4999999999959073
 30
0.0
 11
3556.3449199129800036
 21
-3410.4999999999959073
 31
0.0
1001
ACDBBLOCKREPETAG
1070
     1
1071
       35
1005
128039
  0
LINE
  5
12803A
  8
OBJECT
 10
3584.499999999998181
 20
-3509.4999999999959073
 30
0.0
 11
3556.3449199129800036
 21
-3509.4999999999959073
 31
0.0
1001
ACDBBLOCKREPETAG
1070
     1
1071
       36
1005
12803A
  0
LINE
  5
12803B
  8
CENTER
 10
2838.0
 20
-3820.9999999999968168
 30
0.0
 11
2962.0
 21
-3820.9999999999968168
 31
0.0
1001
ACDBBLOCKREPETAG
1070
     1
1071
        0
1005
12803B
  0
CIRCLE
  5
12803C
  8
OBJECT
 10
2900.0
 20
-3820.9999999999968168
 30
0.0
 40
28.0
1001
ACDBBLOCKREPETAG
1070
     1
1071
        2
1005
12803C
  0
CIRCLE
  5
12803D
  8
OBJECT
 10
2900.0
 20
-3820.9999999999968168
 30
0.0
 40
39.0
1001
ACDBBLOCKREPETAG
1070
     1
1071
        3
1005
12803D
  0
ARC
  5
12803E
  8
OBJECT
 10
2900.0
 20
-3820.9999999999968168
 30
0.0
 40
47.0
 50
290.5819692114441182
 51
249.4180307885559102
1001
ACDBBLOCKREPETAG
1070
     1
1071
        4
1005
12803E
  0
LINE
  5
12803F
  8
OBJECT
 10
2883.4772883581417773
 20
-3864.9999999999968168
 30
0.0
 11
2916.5227116418568585
 21
-3864.9999999999968168
 31
0.0
1001
ACDBBLOCKREPETAG
1070
     1
1071
        5
1005
12803F
  0
ARC
  5
128040
  8
OBJECT
 10
2900.0
 20
-3805.9999999999931788
 30
0.0
 40
49.5
 50
0.0
 51
180.0
1001
ACDBBLOCKREPETAG
1070
     1
1071
        6
1005
128040
  0
LINE
  5
128041
  8
OBJECT
 10
2850.5000000000031832
 20
-3805.9999999999931788
 30
0.0
 11
2850.5000000000031832
 21
-3812.9999999999968168
 31
0.0
1001
ACDBBLOCKREPETAG
1070
     1
1071
        7
1005
128041
  0
LINE
  5
128042
  8
OBJECT
 10
2949.5000000000068212
 20
-3805.9999999999931788
 30
0.0
 11
2949.5000000000068212
 21
-3812.9999999999968168
 31
0.0
1001
ACDBBLOCKREPETAG
1070
     1
1071
        8
1005
128042
  0
ARC
  5
128043
  8
OBJECT
 10
2900.0
 20
-3812.9999999999968168
 30
0.0
 40
49.5
 50
180.0
 51
202.6695638510487925
1001
ACDBBLOCKREPETAG
1070
     1
1071
        9
1005
128043
  0
ARC
  5
128044
  8
OBJECT
 10
2900.0
 20
-3812.9999999999968168
 30
0.0
 40
49.5
 50
337.3304361489512075
 51
0.0
1001
ACDBBLOCKREPETAG
1070
     1
1071
       10
1005
128044
  0
POINT
  5
128045
  8
DOTS
 10
2900.0
 20
-3864.9999999999968168
 30
0.0
1001
ACDBBLOCKREPETAG
1070
     1
1071
       25
1005
128045
  0
LINE
  5
128046
  8
OBJECT
 10
2633.0
 20
-3773.9999999999968168
 30
0.0
 11
2640.0
 21
-3773.9999999999968168
 31
0.0
1001
ACDBBLOCKREPETAG
1070
     1
1071
        0
1005
128046
  0
LINE
  5
128047
  8
OBJECT
 10
2640.0
 20
-3773.9999999999968168
 30
0.0
 11
2640.0
 21
-3864.9999999999968168
 31
0.0
1001
ACDBBLOCKREPETAG
1070
     1
1071
        1
1005
128047
  0
LINE
  5
128048
  8
OBJECT
 10
2584.5
 20
-3759.5000000000618456
 30
0.0
 11
2584.5
 21
-3862.4999999999968168
 31
0.0
1001
ACDBBLOCKREPETAG
1070
     1
1071
        2
1005
128048
  0
ARC
  5
128049
  8
OBJECT
 10
2581.5
 20
-3759.5000000000618456
 30
0.0
 40
3.0
 50
0.0
 51
90.0
1001
ACDBBLOCKREPETAG
1070
     1
1071
        3
1005
128049
  0
LINE
  5
12804A
  8
OBJECT
 10
2633.0
 20
-3864.9999999999968168
 30
0.0
 11
2633.0
 21
-3773.9999999999968168
 31
0.0
1001
ACDBBLOCKREPETAG
1070
     1
1071
        4
1005
12804A
  0
LINE
  5
12804B
  8
CENTER
 10
2655.0
 20
-3820.9999999999968168
 30
0.0
 11
2541.9118237135839991
 21
-3820.9999999999968168
 31
0.0
1001
ACDBBLOCKREPETAG
1070
     1
1071
        5
1005
12804B
  0
LINE
  5
12804C
  8
OBJECT
 10
2633.0
 20
-3776.9999999999968168
 30
0.0
 11
2596.9999999999990905
 21
-3776.9999999999968168
 31
0.0
1001
ACDBBLOCKREPETAG
1070
     1
1071
        6
1005
12804C
  0
LINE
  5
12804D
  8
OBJECT
 10
2596.9999999999990905
 20
-3776.9999999999968168
 30
0.0
 11
2596.9999999999990905
 21
-3864.9999999999968168
 31
0.0
1001
ACDBBLOCKREPETAG
1070
     1
1071
        7
1005
12804D
  0
LINE
  5
12804E
  8
OBJECT
 10
2596.9999999999990905
 20
-3864.9999999999968168
 30
0.0
 11
2640.0
 21
-3864.9999999999968168
 31
0.0
1001
ACDBBLOCKREPETAG
1070
     1
1071
        8
1005
12804E
  0
LINE
  5
12804F
  8
OBJECT
 10
2593.0
 20
-3781.4999999999959073
 30
0.0
 11
2584.5
 21
-3781.4999999999959073
 31
0.0
1001
ACDBBLOCKREPETAG
1070
     1
1071
        9
1005
12804F
  0
LINE
  5
128050
  8
OBJECT
 10
2584.5
 20
-3860.4999999999959073
 30
0.0
 11
2593.0
 21
-3860.4999999999959073
 31
0.0
1001
ACDBBLOCKREPETAG
1070
     1
1071
       10
1005
128050
  0
LINE
  5
128051
  8
OBJECT
 10
2593.0
 20
-3860.4999999999959073
 30
0.0
 11
2593.0
 21
-3781.4999999999959073
 31
0.0
1001
ACDBBLOCKREPETAG
1070
     1
1071
       11
1005
128051
  0
LINE
  5
128052
  8
OBJECT
 10
2596.9999999999990905
 20
-3776.9999999999968168
 30
0.0
 11
2593.0
 21
-3781.4999999999959073
 31
0.0
1001
ACDBBLOCKREPETAG
1070
     1
1071
       12
1005
128052
  0
LINE
  5
128053
  8
OBJECT
 10
2596.9999999999990905
 20
-3864.9999999999968168
 30
0.0
 11
2593.0
 21
-3860.4999999999959073
 31
0.0
1001
ACDBBLOCKREPETAG
1070
     1
1071
       13
1005
128053
  0
LINE
  5
128054
  8
HIDDEN
 10
2588.0
 20
-3790.9999999999959073
 30
0.0
 11
2588.0
 21
-3850.9999999999959073
 31
0.0
1001
ACDBBLOCKREPETAG
1070
     1
1071
       14
1005
128054
  0
ARC
  5
128055
  8
OBJECT
 10
2664.8782728787741689
 20
-3821.4095072612249169
 30
0.0
 40
110.866352283089995
 50
144.1634274191434031
 51
163.0403538043316871
1001
ACDBBLOCKREPETAG
1070
     1
1071
       15
1005
128055
  0
ARC
  5
128056
  8
OBJECT
 10
2617.1359887769071975
 20
-3806.2877497184449567
 30
0.0
 40
60.7917498803589567
 50
163.5472046522266965
 51
179.7287969828267933
1001
ACDBBLOCKREPETAG
1070
     1
1071
       16
1005
128056
  0
ARC
  5
128057
  8
OBJECT
 10
2617.1359956562478146
 20
-3812.7122497598970767
 30
0.0
 40
60.7917567620948702
 50
180.2712034781451962
 51
196.4527794605338045
1001
ACDBBLOCKREPETAG
1070
     1
1071
       17
1005
128057
  0
ARC
  5
128058
  8
OBJECT
 10
2664.8782728787741689
 20
-3797.590492738832836
 30
0.0
 40
110.8663522830916008
 50
196.9596461956681139
 51
215.8365725808565969
1001
ACDBBLOCKREPETAG
1070
     1
1071
       18
1005
128058
  0
LINE
  5
128059
  8
OBJECT
 10
2556.3449199130041052
 20
-3806.0000000000331966
 30
0.0
 11
2556.3449199130041052
 21
-3813.0000000000291038
 31
0.0
1001
ACDBBLOCKREPETAG
1070
     1
1071
       19
1005
128059
  0
LINE
  5
12805A
  8
OBJECT
 10
2575.0
 20
-3756.5000000000618456
 30
0.0
 11
2581.5
 21
-3756.5000000000618456
 31
0.0
1001
ACDBBLOCKREPETAG
1070
     1
1071
       20
1005
12805A
  0
LINE
  5
12805B
  8
OBJECT
 10
2575.0
 20
-3862.4999999999968168
 30
0.0
 11
2584.5
 21
-3862.4999999999968168
 31
0.0
1001
ACDBBLOCKREPETAG
1070
     1
1071
       21
1005
12805B
  0
LINE
  5
12805C
  8
OBJECT
 10
2633.0
 20
-3412.9999999999968168
 30
0.0
 11
2640.0
 21
-3412.9999999999968168
 31
0.0
1001
ACDBBLOCKREPETAG
1070
     1
1071
        0
1005
12805C
  0
LINE
  5
12805D
  8
OBJECT
 10
2640.0
 20
-3412.9999999999968168
 30
0.0
 11
2640.0
 21
-3506.9999999999968168
 31
0.0
1001
ACDBBLOCKREPETAG
1070
     1
1071
        1
1005
12805D
  0
LINE
  5
12805E
  8
OBJECT
 10
2640.0
 20
-3506.9999999999968168
 30
0.0
 11
2633.0
 21
-3506.9999999999968168
 31
0.0
1001
ACDBBLOCKREPETAG
1070
     1
1071
        2
1005
12805E
  0
LINE
  5
12805F
  8
OBJECT
 10
2633.0
 20
-3506.9999999999968168
 30
0.0
 11
2633.0
 21
-3412.9999999999968168
 31
0.0
1001
ACDBBLOCKREPETAG
1070
     1
1071
        3
1005
12805F
  0
LINE
  5
128060
  8
CENTER
 10
2655.0
 20
-3459.9999999999968168
 30
0.0
 11
2580.0
 21
-3459.9999999999968168
 31
0.0
1001
ACDBBLOCKREPETAG
1070
     1
1071
        4
1005
128060
  0
LINE
  5
128061
  8
OBJECT
 10
2633.0
 20
-3415.9999999999959073
 30
0.0
 11
2596.9999999999990905
 21
-3415.9999999999959073
 31
0.0
1001
ACDBBLOCKREPETAG
1070
     1
1071
        5
1005
128061
  0
LINE
  5
128062
  8
OBJECT
 10
2596.9999999999990905
 20
-3415.9999999999959073
 30
0.0
 11
2596.9999999999990905
 21
-3503.9999999999959073
 31
0.0
1001
ACDBBLOCKREPETAG
1070
     1
1071
        6
1005
128062
  0
LINE
  5
128063
  8
OBJECT
 10
2596.9999999999990905
 20
-3503.9999999999959073
 30
0.0
 11
2633.0
 21
-3503.9999999999959073
 31
0.0
1001
ACDBBLOCKREPETAG
1070
     1
1071
        7
1005
128063
  0
LINE
  5
128064
  8
OBJECT
 10
2593.0
 20
-3420.4999999999959073
 30
0.0
 11
2584.5
 21
-3420.4999999999959073
 31
0.0
1001
ACDBBLOCKREPETAG
1070
     1
1071
        8
1005
128064
  0
LINE
  5
128065
  8
OBJECT
 10
2584.5
 20
-3499.4999999999959073
 30
0.0
 11
2593.0
 21
-3499.4999999999959073
 31
0.0
1001
ACDBBLOCKREPETAG
1070
     1
1071
        9
1005
128065
  0
LINE
  5
128066
  8
OBJECT
 10
2593.0
 20
-3499.4999999999959073
 30
0.0
 11
2593.0
 21
-3420.4999999999959073
 31
0.0
1001
ACDBBLOCKREPETAG
1070
     1
1071
       10
1005
128066
  0
LINE
  5
128067
  8
OBJECT
 10
2596.9999999999990905
 20
-3415.9999999999959073
 30
0.0
 11
2593.0
 21
-3420.4999999999959073
 31
0.0
1001
ACDBBLOCKREPETAG
1070
     1
1071
       11
1005
128067
  0
LINE
  5
128068
  8
OBJECT
 10
2596.9999999999990905
 20
-3503.9999999999959073
 30
0.0
 11
2593.0
 21
-3499.4999999999959073
 31
0.0
1001
ACDBBLOCKREPETAG
1070
     1
1071
       12
1005
128068
  0
LINE
  5
128069
  8
OBJECT
 10
2584.499999999998181
 20
-3506.4999999999959073
 30
0.0
 11
2584.5
 21
-3413.4999999999959073
 31
0.0
1001
ACDBBLOCKREPETAG
1070
     1
1071
       13
1005
128069
  0
ARC
  5
12806A
  8
OBJECT
 10
2581.5
 20
-3413.4999999999959073
 30
0.0
 40
3.0
 50
0.0
 51
90.0
1001
ACDBBLOCKREPETAG
1070
     1
1071
       14
1005
12806A
  0
LINE
  5
12806B
  8
HIDDEN
 10
2588.0
 20
-3429.9999999999959073
 30
0.0
 11
2588.0
 21
-3489.9999999999968168
 31
0.0
1001
ACDBBLOCKREPETAG
1070
     1
1071
       15
1005
12806B
  0
LINE
  5
12806C
  8
OBJECT
 10
2581.5
 20
-3410.4999999999959073
 30
0.0
 11
2556.3449199129800036
 21
-3410.4999999999959073
 31
0.0
1001
ACDBBLOCKREPETAG
1070
     1
1071
       17
1005
12806C
  0
LINE
  5
12806D
  8
OBJECT
 10
2581.499999999998181
 20
-3509.4999999999959073
 30
0.0
 11
2556.3449199129800036
 21
-3509.4999999999959073
 31
0.0
1001
ACDBBLOCKREPETAG
1070
     1
1071
       18
1005
12806D
  0
ARC
  5
12806E
  8
OBJECT
 10
2581.499999999998181
 20
-3506.4999999999959073
 30
0.0
 40
3.0
 50
270.0
 51
0.0
1001
ACDBBLOCKREPETAG
1070
     1
1071
       19
1005
12806E
  0
TEXT
  5
12806F
  8
SLIM
 10
2233.6999999999998181
 20
-1708.9999999999979536
 30
0.0
 40
28.0
  1
※ 対応P寸法　　180～330（10mm単位）
 41
0.75
  0
LINE
  5
128070
  8
OBJECT
 10
4423.0
 20
-570.9999999999943157
 30
0.0
 11
4423.0
 21
-549.9999999999943157
 31
0.0
1001
ACDBBLOCKREPETAG
1070
     1
1071
        0
1005
128070
  0
LINE
  5
128071
  8
OBJECT
 10
4423.0
 20
-549.9999999999943157
 30
0.0
 11
4577.0
 21
-549.9999999999943157
 31
0.0
1001
ACDBBLOCKREPETAG
1070
     1
1071
        1
1005
128071
  0
LINE
  5
128072
  8
HIDDEN
 10
4443.0
 20
-619.9999999999943157
 30
0.0
 11
4557.0
 21
-619.9999999999943157
 31
0.0
1001
ACDBBLOCKREPETAG
1070
     1
1071
        2
1005
128072
  0
LINE
  5
128073
  8
OBJECT
 10
4577.0
 20
-549.9999999999943157
 30
0.0
 11
4577.0
 21
-570.9999999999943157
 31
0.0
1001
ACDBBLOCKREPETAG
1070
     1
1071
        3
1005
128073
  0
LINE
  5
128074
  8
OBJECT
 10
4577.0
 20
-570.9999999999943157
 30
0.0
 11
4423.0
 21
-570.9999999999943157
 31
0.0
1001
ACDBBLOCKREPETAG
1070
     1
1071
        4
1005
128074
  0
LINE
  5
128075
  8
CENTER
 10
4500.0
 20
-534.9999999999943157
 30
0.0
 11
4500.0
 21
-769.9999999999943157
 31
0.0
1001
ACDBBLOCKREPETAG
1070
     1
1071
        5
1005
128075
  0
LINE
  5
128076
  8
OBJECT
 10
4425.0
 20
-633.9999999999943157
 30
0.0
 11
4425.0
 21
-757.9999999999943157
 31
0.0
1001
ACDBBLOCKREPETAG
1070
     1
1071
        6
1005
128076
  0
LINE
  5
128077
  8
OBJECT
 10
4428.0
 20
-570.9999999999943157
 30
0.0
 11
4428.0
 21
-633.9999999999943157
 31
0.0
1001
ACDBBLOCKREPETAG
1070
     1
1071
        7
1005
128077
  0
LINE
  5
128078
  8
OBJECT
 10
4572.0
 20
-633.9999999999943157
 30
0.0
 11
4572.0
 21
-570.9999999999943157
 31
0.0
1001
ACDBBLOCKREPETAG
1070
     1
1071
        8
1005
128078
  0
LINE
  5
128079
  8
OBJECT
 10
4420.0
 20
-757.9999999999943157
 30
0.0
 11
4580.0
 21
-757.9999999999943157
 31
0.0
1001
ACDBBLOCKREPETAG
1070
     1
1071
        9
1005
128079
  0
LINE
  5
12807A
  8
OBJECT
 10
4580.0
 20
-633.9999999999943157
 30
0.0
 11
4425.0
 21
-633.9999999999943157
 31
0.0
1001
ACDBBLOCKREPETAG
1070
     1
1071
       10
1005
12807A
  0
LINE
  5
12807B
  8
OBJECT
 10
4420.0
 20
-757.9999999999943157
 30
0.0
 11
4420.0
 21
-769.9999999999943157
 31
0.0
1001
ACDBBLOCKREPETAG
1070
     1
1071
       11
1005
12807B
  0
LINE
  5
12807C
  8
OBJECT
 10
4420.0
 20
-769.9999999999943157
 30
0.0
 11
4580.0
 21
-769.9999999999943157
 31
0.0
1001
ACDBBLOCKREPETAG
1070
     1
1071
       12
1005
12807C
  0
LINE
  5
12807D
  8
OBJECT
 10
4580.0
 20
-769.9999999999943157
 30
0.0
 11
4580.0
 21
-757.9999999999943157
 31
0.0
1001
ACDBBLOCKREPETAG
1070
     1
1071
       13
1005
12807D
  0
ARC
  5
12807E
  8
OBJECT
 10
4700.6872746716735492
 20
-749.4080994101018405
 30
0.0
 40
170.6350503965855978
 50
137.4413445918430057
 51
149.9194958133722082
1001
ACDBBLOCKREPETAG
1070
     1
1071
       15
1005
12807E
  0
ARC
  5
12807F
  8
OBJECT
 10
4618.8455987040497348
 20
-705.882726695359338
 30
0.0
 40
78.0722220217636647
 50
147.4551531037683105
 51
164.6636599771867111
1001
ACDBBLOCKREPETAG
1070
     1
1071
       16
1005
12807F
  0
ARC
  5
128080
  8
OBJECT
 10
4585.755434960871753
 20
-695.9999999999943157
 30
0.0
 40
43.5535392688561771
 50
165.6884523008477004
 51
194.3115476991521859
1001
ACDBBLOCKREPETAG
1070
     1
1071
       17
1005
128080
  0
ARC
  5
128081
  8
OBJECT
 10
4700.6872746716735492
 20
-642.5919005898864498
 30
0.0
 40
170.6350503965855978
 50
210.0805041866277918
 51
222.5586554081569943
1001
ACDBBLOCKREPETAG
1070
     1
1071
       18
1005
128081
  0
ARC
  5
128082
  8
OBJECT
 10
4618.8455987040497348
 20
-686.1172733046295207
 30
0.0
 40
78.0722220217636647
 50
195.3363400228132889
 51
212.5448468962316042
1001
ACDBBLOCKREPETAG
1070
     1
1071
       19
1005
128082
  0
LINE
  5
128083
  8
OBJECT
 10
4633.0
 20
-664.0
 30
0.0
 11
4640.0
 21
-664.0
 31
0.0
1001
ACDBBLOCKREPETAG
1070
     1
1071
        7
1005
128083
  0
LINE
  5
128084
  8
OBJECT
 10
4640.0
 20
-664.0
 30
0.0
 11
4640.0
 21
-755.0
 31
0.0
1001
ACDBBLOCKREPETAG
1070
     1
1071
        8
1005
128084
  0
LINE
  5
128085
  8
OBJECT
 10
4633.0
 20
-755.0
 30
0.0
 11
4633.0
 21
-664.0
 31
0.0
1001
ACDBBLOCKREPETAG
1070
     1
1071
        9
1005
128085
  0
LINE
  5
128086
  8
CENTER
 10
4655.0
 20
-711.0
 30
0.0
 11
4571.0
 21
-711.0
 31
0.0
1001
ACDBBLOCKREPETAG
1070
     1
1071
       10
1005
128086
  0
LINE
  5
128087
  8
OBJECT
 10
4633.0
 20
-667.0
 30
0.0
 11
4597.0
 21
-667.0
 31
0.0
1001
ACDBBLOCKREPETAG
1070
     1
1071
       11
1005
128087
  0
LINE
  5
128088
  8
OBJECT
 10
4597.0
 20
-667.0
 30
0.0
 11
4597.0
 21
-755.0
 31
0.0
1001
ACDBBLOCKREPETAG
1070
     1
1071
       12
1005
128088
  0
LINE
  5
128089
  8
OBJECT
 10
4597.0
 20
-755.0
 30
0.0
 11
4640.0
 21
-755.0
 31
0.0
1001
ACDBBLOCKREPETAG
1070
     1
1071
       13
1005
128089
  0
LINE
  5
12808A
  8
OBJECT
 10
4593.0
 20
-671.4999999999997726
 30
0.0
 11
4586.0
 21
-671.4999999999997726
 31
0.0
1001
ACDBBLOCKREPETAG
1070
     1
1071
       14
1005
12808A
  0
LINE
  5
12808B
  8
OBJECT
 10
4586.0
 20
-750.4999999999998863
 30
0.0
 11
4593.0
 21
-750.4999999999998863
 31
0.0
1001
ACDBBLOCKREPETAG
1070
     1
1071
       15
1005
12808B
  0
LINE
  5
12808C
  8
OBJECT
 10
4593.0
 20
-750.4999999999998863
 30
0.0
 11
4593.0
 21
-671.4999999999997726
 31
0.0
1001
ACDBBLOCKREPETAG
1070
     1
1071
       16
1005
12808C
  0
LINE
  5
12808D
  8
OBJECT
 10
4597.0
 20
-667.0
 30
0.0
 11
4593.0
 21
-671.4999999999997726
 31
0.0
1001
ACDBBLOCKREPETAG
1070
     1
1071
       17
1005
12808D
  0
LINE
  5
12808E
  8
OBJECT
 10
4597.0
 20
-755.0
 30
0.0
 11
4593.0
 21
-750.4999999999998863
 31
0.0
1001
ACDBBLOCKREPETAG
1070
     1
1071
       18
1005
12808E
  0
LINE
  5
12808F
  8
OBJECT
 10
4583.0
 20
-634.0
 30
0.0
 11
4580.0
 21
-634.0
 31
0.0
1001
ACDBBLOCKREPETAG
1070
     1
1071
       19
1005
12808F
  0
ARC
  5
128090
  8
OBJECT
 10
4583.0
 20
-637.0
 30
0.0
 40
3.0
 50
0.0
 51
90.0
1001
ACDBBLOCKREPETAG
1070
     1
1071
       20
1005
128090
  0
LINE
  5
128091
  8
OBJECT
 10
4580.0
 20
-758.0
 30
0.0
 11
4583.0
 21
-758.0
 31
0.0
1001
ACDBBLOCKREPETAG
1070
     1
1071
       21
1005
128091
  0
ARC
  5
128092
  8
OBJECT
 10
4583.0
 20
-755.0
 30
0.0
 40
3.0
 50
270.0
 51
0.0
1001
ACDBBLOCKREPETAG
1070
     1
1071
       22
1005
128092
  0
LINE
  5
128093
  8
OBJECT
 10
4586.0
 20
-755.0
 30
0.0
 11
4586.0
 21
-637.0
 31
0.0
1001
ACDBBLOCKREPETAG
1070
     1
1071
       23
1005
128093
  0
LINE
  5
128094
  8
HIDDEN
 10
4588.0
 20
-681.0
 30
0.0
 11
4588.0
 21
-741.0
 31
0.0
1001
ACDBBLOCKREPETAG
1070
     1
1071
       24
1005
128094
  0
TEXT
  5
128095
  8
SLIM
 10
156.8571428570824082
 20
-443.999999999849706
 30
0.0
 40
48.0
  1
A1
 41
0.75
1001
ACDBBLOCKREPETAG
1070
     1
1071
      119
1005
0
  0
LINE
  5
128096
  8
OBJECT
 10
2423.0
 20
-570.9999999999943157
 30
0.0
 11
2423.0
 21
-549.9999999999943157
 31
0.0
1001
ACDBBLOCKREPETAG
1070
     1
1071
        0
1005
128096
  0
LINE
  5
128097
  8
OBJECT
 10
2423.0
 20
-549.9999999999943157
 30
0.0
 11
2577.0
 21
-549.9999999999943157
 31
0.0
1001
ACDBBLOCKREPETAG
1070
     1
1071
        1
1005
128097
  0
LINE
  5
128098
  8
HIDDEN
 10
2443.0
 20
-619.9999999999943157
 30
0.0
 11
2557.0
 21
-619.9999999999943157
 31
0.0
1001
ACDBBLOCKREPETAG
1070
     1
1071
        2
1005
128098
  0
LINE
  5
128099
  8
OBJECT
 10
2577.0
 20
-549.9999999999943157
 30
0.0
 11
2577.0
 21
-570.9999999999943157
 31
0.0
1001
ACDBBLOCKREPETAG
1070
     1
1071
        3
1005
128099
  0
LINE
  5
12809A
  8
OBJECT
 10
2577.0
 20
-570.9999999999943157
 30
0.0
 11
2423.0
 21
-570.9999999999943157
 31
0.0
1001
ACDBBLOCKREPETAG
1070
     1
1071
        4
1005
12809A
  0
LINE
  5
12809B
  8
CENTER
 10
2500.0
 20
-534.9999999999943157
 30
0.0
 11
2500.0
 21
-769.9999999999943157
 31
0.0
1001
ACDBBLOCKREPETAG
1070
     1
1071
        5
1005
12809B
  0
LINE
  5
12809C
  8
OBJECT
 10
2425.0
 20
-633.9999999999943157
 30
0.0
 11
2425.0
 21
-757.9999999999943157
 31
0.0
1001
ACDBBLOCKREPETAG
1070
     1
1071
        6
1005
12809C
  0
LINE
  5
12809D
  8
OBJECT
 10
2428.0
 20
-570.9999999999943157
 30
0.0
 11
2428.0
 21
-633.9999999999943157
 31
0.0
1001
ACDBBLOCKREPETAG
1070
     1
1071
        7
1005
12809D
  0
LINE
  5
12809E
  8
OBJECT
 10
2572.0
 20
-633.9999999999943157
 30
0.0
 11
2572.0
 21
-570.9999999999943157
 31
0.0
1001
ACDBBLOCKREPETAG
1070
     1
1071
        8
1005
12809E
  0
LINE
  5
12809F
  8
OBJECT
 10
2420.0
 20
-757.9999999999943157
 30
0.0
 11
2580.0
 21
-757.9999999999943157
 31
0.0
1001
ACDBBLOCKREPETAG
1070
     1
1071
        9
1005
12809F
  0
LINE
  5
1280A0
  8
OBJECT
 10
2580.0
 20
-633.9999999999943157
 30
0.0
 11
2425.0
 21
-633.9999999999943157
 31
0.0
1001
ACDBBLOCKREPETAG
1070
     1
1071
       10
1005
1280A0
  0
LINE
  5
1280A1
  8
OBJECT
 10
2420.0
 20
-757.9999999999943157
 30
0.0
 11
2420.0
 21
-769.9999999999943157
 31
0.0
1001
ACDBBLOCKREPETAG
1070
     1
1071
       11
1005
1280A1
  0
LINE
  5
1280A2
  8
OBJECT
 10
2420.0
 20
-769.9999999999943157
 30
0.0
 11
2580.0
 21
-769.9999999999943157
 31
0.0
1001
ACDBBLOCKREPETAG
1070
     1
1071
       12
1005
1280A2
  0
LINE
  5
1280A3
  8
OBJECT
 10
2580.0
 20
-769.9999999999943157
 30
0.0
 11
2580.0
 21
-757.9999999999943157
 31
0.0
1001
ACDBBLOCKREPETAG
1070
     1
1071
       13
1005
1280A3
  0
ARC
  5
1280A4
  8
OBJECT
 10
2700.6872746716730944
 20
-749.4080994101018405
 30
0.0
 40
170.6350503965855978
 50
137.4413445918430057
 51
149.9194958133722082
1001
ACDBBLOCKREPETAG
1070
     1
1071
       15
1005
1280A4
  0
ARC
  5
1280A5
  8
OBJECT
 10
2618.845598704051099
 20
-705.882726695359338
 30
0.0
 40
78.0722220217636647
 50
147.4551531037683105
 51
164.6636599771798046
1001
ACDBBLOCKREPETAG
1070
     1
1071
       16
1005
1280A5
  0
ARC
  5
1280A6
  8
OBJECT
 10
2585.7554349608731172
 20
-695.9999999999943157
 30
0.0
 40
43.5535392688561771
 50
165.6884523008477004
 51
194.3115476991521859
1001
ACDBBLOCKREPETAG
1070
     1
1071
       17
1005
1280A6
  0
ARC
  5
1280A7
  8
OBJECT
 10
2700.6872746716730944
 20
-642.5919005898864498
 30
0.0
 40
170.6350503965855978
 50
210.0805041866277918
 51
222.5586554081569943
1001
ACDBBLOCKREPETAG
1070
     1
1071
       18
1005
1280A7
  0
ARC
  5
1280A8
  8
OBJECT
 10
2618.845598704051099
 20
-686.1172733046295207
 30
0.0
 40
78.0722220217636647
 50
195.3363400228201101
 51
212.5448468962316042
1001
ACDBBLOCKREPETAG
1070
     1
1071
       19
1005
1280A8
  0
LINE
  5
1280A9
  8
OBJECT
 10
2633.0
 20
-664.0
 30
0.0
 11
2640.0
 21
-664.0
 31
0.0
1001
ACDBBLOCKREPETAG
1070
     1
1071
        7
1005
1280A9
  0
LINE
  5
1280AA
  8
OBJECT
 10
2640.0
 20
-664.0
 30
0.0
 11
2640.0
 21
-755.0
 31
0.0
1001
ACDBBLOCKREPETAG
1070
     1
1071
        8
1005
1280AA
  0
LINE
  5
1280AB
  8
OBJECT
 10
2633.0
 20
-755.0
 30
0.0
 11
2633.0
 21
-664.0
 31
0.0
1001
ACDBBLOCKREPETAG
1070
     1
1071
        9
1005
1280AB
  0
LINE
  5
1280AC
  8
CENTER
 10
2655.0
 20
-711.0
 30
0.0
 11
2571.0
 21
-711.0
 31
0.0
1001
ACDBBLOCKREPETAG
1070
     1
1071
       10
1005
1280AC
  0
LINE
  5
1280AD
  8
OBJECT
 10
2633.0
 20
-667.0
 30
0.0
 11
2597.0
 21
-667.0
 31
0.0
1001
ACDBBLOCKREPETAG
1070
     1
1071
       11
1005
1280AD
  0
LINE
  5
1280AE
  8
OBJECT
 10
2597.0
 20
-667.0
 30
0.0
 11
2597.0
 21
-755.0
 31
0.0
1001
ACDBBLOCKREPETAG
1070
     1
1071
       12
1005
1280AE
  0
LINE
  5
1280AF
  8
OBJECT
 10
2597.0
 20
-755.0
 30
0.0
 11
2640.0
 21
-755.0
 31
0.0
1001
ACDBBLOCKREPETAG
1070
     1
1071
       13
1005
1280AF
  0
LINE
  5
1280B0
  8
OBJECT
 10
2593.0
 20
-671.4999999999997726
 30
0.0
 11
2586.0
 21
-671.4999999999997726
 31
0.0
1001
ACDBBLOCKREPETAG
1070
     1
1071
       14
1005
1280B0
  0
LINE
  5
1280B1
  8
OBJECT
 10
2586.0
 20
-750.4999999999998863
 30
0.0
 11
2593.0
 21
-750.4999999999998863
 31
0.0
1001
ACDBBLOCKREPETAG
1070
     1
1071
       15
1005
1280B1
  0
LINE
  5
1280B2
  8
OBJECT
 10
2593.0
 20
-750.4999999999998863
 30
0.0
 11
2593.0
 21
-671.4999999999997726
 31
0.0
1001
ACDBBLOCKREPETAG
1070
     1
1071
       16
1005
1280B2
  0
LINE
  5
1280B3
  8
OBJECT
 10
2597.0
 20
-667.0
 30
0.0
 11
2593.0
 21
-671.4999999999997726
 31
0.0
1001
ACDBBLOCKREPETAG
1070
     1
1071
       17
1005
1280B3
  0
LINE
  5
1280B4
  8
OBJECT
 10
2597.0
 20
-755.0
 30
0.0
 11
2593.0
 21
-750.4999999999998863
 31
0.0
1001
ACDBBLOCKREPETAG
1070
     1
1071
       18
1005
1280B4
  0
LINE
  5
1280B5
  8
OBJECT
 10
2583.0
 20
-634.0
 30
0.0
 11
2580.0
 21
-634.0
 31
0.0
1001
ACDBBLOCKREPETAG
1070
     1
1071
       19
1005
1280B5
  0
ARC
  5
1280B6
  8
OBJECT
 10
2583.0
 20
-637.0
 30
0.0
 40
3.0
 50
0.0
 51
90.0
1001
ACDBBLOCKREPETAG
1070
     1
1071
       20
1005
1280B6
  0
LINE
  5
1280B7
  8
OBJECT
 10
2580.0
 20
-758.0
 30
0.0
 11
2583.0
 21
-758.0
 31
0.0
1001
ACDBBLOCKREPETAG
1070
     1
1071
       21
1005
1280B7
  0
ARC
  5
1280B8
  8
OBJECT
 10
2583.0
 20
-755.0
 30
0.0
 40
3.0
 50
270.0
 51
0.0
1001
ACDBBLOCKREPETAG
1070
     1
1071
       22
1005
1280B8
  0
LINE
  5
1280B9
  8
OBJECT
 10
2586.0
 20
-755.0
 30
0.0
 11
2586.0
 21
-637.0
 31
0.0
1001
ACDBBLOCKREPETAG
1070
     1
1071
       23
1005
1280B9
  0
LINE
  5
1280BA
  8
HIDDEN
 10
2588.0
 20
-681.0
 30
0.0
 11
2588.0
 21
-741.0
 31
0.0
1001
ACDBBLOCKREPETAG
1070
     1
1071
       24
1005
1280BA
  0
TEXT
  5
1280BB
  8
SLIM
 10
0.0000035665234464
 20
24.0000045853176012
 30
0.0
 40
79.9999999999727152
  1
上部枝管
 41
0.75
1001
ACDBBLOCKREPETAG
1070
     1
1071
      119
1005
120BCB
  0
LINE
  5
1280BC
  8
DIM
 10
2650.0
 20
-3506.9999999999968168
 30
0.0
 11
2728.4796205944589929
 21
-3506.9999999999968168
 31
0.0
  0
LINE
  5
1280BD
  8
DIM
 10
2650.0
 20
-3412.9999999999968168
 30
0.0
 11
2728.4796205944589929
 21
-3412.9999999999968168
 31
0.0
  0
LINE
  5
1280BE
  8
DIM
 10
2718.4796205944589929
 20
-3486.9999999999959073
 30
0.0
 11
2718.4796205944589929
 21
-3432.9999999999959073
 31
0.0
  0
INSERT
  5
1280BF
  8
DIM
  2
_OPEN30
 10
2718.4796205944589929
 20
-3506.9999999999968168
 30
0.0
 41
20.0
 42
20.0
 43
20.0
 50
270.0
  0
INSERT
  5
1280C0
  8
DIM
  2
_OPEN30
 10
2718.4796205944589929
 20
-3412.9999999999968168
 30
0.0
 41
20.0
 42
20.0
 43
20.0
 50
90.0
  0
INSERT
  5
1280C1
  8
SLIM
  2
*U28
 10
0.0
 20
0.0
 30
0.0
  0
LINE
  5
1280C2
  8
DIM
 10
2650.0
 20
-3864.9999999999968168
 30
0.0
 11
2726.8409284037338693
 21
-3864.9999999999968168
 31
0.0
  0
LINE
  5
1280C3
  8
DIM
 10
2665.0
 20
-3820.9999999999968168
 30
0.0
 11
2726.8409284037338693
 21
-3820.9999999999968168
 31
0.0
  0
LINE
  5
1280C4
  8
DIM
 10
2716.8409284037338693
 20
-3884.9999999999990905
 30
0.0
 11
2716.8409284037338693
 21
-3904.9999999999968168
 31
0.0
  0
LINE
  5
1280C5
  8
DIM
 10
2716.8409284037338693
 20
-3800.999999999998181
 30
0.0
 11
2716.8409284037338693
 21
-3780.9999999999968168
 31
0.0
  0
LINE
  5
1280C6
  8
DIM
 10
2716.8409284037338693
 20
-3864.9999999999968168
 30
0.0
 11
2716.8409284037338693
 21
-3820.9999999999968168
 31
0.0
  0
INSERT
  5
1280C7
  8
DIM
  2
_OPEN30
 10
2716.8409284037338693
 20
-3864.9999999999968168
 30
0.0
 41
20.0
 42
20.0
 43
20.0
 50
90.0
  0
INSERT
  5
1280C8
  8
DIM
  2
_OPEN30
 10
2716.8409284037338693
 20
-3820.9999999999968168
 30
0.0
 41
20.0
 42
20.0
 43
20.0
 50
270.0
  0
INSERT
  5
1280C9
  8
SLIM
  2
*U29
 10
0.0
 20
0.0
 30
0.0
  0
LINE
  5
1280CA
  8
DIM
 10
2500.0
 20
-3359.9999999999968168
 30
0.0
 11
2500.0
 21
-3322.2081219844449151
 31
0.0
  0
LINE
  5
1280CB
  8
DIM
 10
2640.0
 20
-3402.9999999999968168
 30
0.0
 11
2640.0
 21
-3322.2081219844449151
 31
0.0
  0
LINE
  5
1280CC
  8
DIM
 10
2520.0
 20
-3332.2081219844440056
 30
0.0
 11
2620.0
 21
-3332.2081219844440056
 31
0.0
  0
INSERT
  5
1280CD
  8
DIM
  2
_OPEN30
 10
2500.0
 20
-3332.2081219844440056
 30
0.0
 41
20.0
 42
20.0
 43
20.0
 50
180.0
  0
INSERT
  5
1280CE
  8
DIM
  2
_OPEN30
 10
2640.0
 20
-3332.2081219844440056
 30
0.0
 41
20.0
 42
20.0
 43
20.0
  0
INSERT
  5
1280CF
  8
SLIM
  2
*U30
 10
0.0
 20
0.0
 30
0.0
  0
TEXT
  5
1280D0
  8
SLIM
 10
3270.9999999999990905
 20
-3237.5000160472709467
 30
0.0
 40
40.0
  1
C寸法
 41
0.75
  0
TEXT
  5
1280D1
  8
SLIM
 10
3270.9999999999990905
 20
-3167.5000160472709467
 30
0.0
 40
40.0
  1
B寸法
 41
0.75
  0
TEXT
  5
1280D2
  8
SLIM
 10
3270.2857142857151302
 20
-3097.5000160472709467
 30
0.0
 40
40.0
  1
A寸法
 41
0.75
  0
TEXT
  5
1280D3
  8
SLIM
 10
3669.2857142857142208
 20
-3237.5000160472709467
 30
0.0
 40
40.0
  1
140
 41
0.75
  0
TEXT
  5
1280D4
  8
SLIM
 10
3409.2857142857151302
 20
-3237.5000160472709467
 30
0.0
 40
40.0
  1
140
 41
0.75
  0
TEXT
  5
1280D5
  8
SLIM
 10
3539.2857142857151302
 20
-3237.5000160472709467
 30
0.0
 40
40.0
  1
140
 41
0.75
  0
TEXT
  5
1280D6
  8
SLIM
 10
3681.4285714285711038
 20
-3167.5000160472709467
 30
0.0
 40
40.0
  1
59
 41
0.75
  0
TEXT
  5
1280D7
  8
SLIM
 10
3420.0
 20
-3167.5000160472709467
 30
0.0
 40
40.0
  1
44
 41
0.75
  0
TEXT
  5
1280D8
  8
SLIM
 10
3550.7142857142848698
 20
-3167.5000160472709467
 30
0.0
 40
40.0
  1
52
 41
0.75
  0
TEXT
  5
1280D9
  8
SLIM
 10
3471.0
 20
-2972.5000160472709467
 30
0.0
 40
40.0
  1
横枝管サイズ
 41
0.75
  0
TEXT
  5
1280DA
  8
SLIM
 10
3654.8571428571422075
 20
-3027.5000160472700372
 30
0.0
 40
30.0
  1
75（3）
 41
0.75
  0
TEXT
  5
1280DB
  8
SLIM
 10
3524.8571428571422075
 20
-3027.5000160472700372
 30
0.0
 40
30.0
  1
65（2）
 41
0.75
  0
TEXT
  5
1280DC
  8
SLIM
 10
3397.0
 20
-3027.5000160472700372
 30
0.0
 40
30.0
  1
50（1）
 41
0.75
  0
TEXT
  5
1280DD
  8
SLIM
 10
3668.5714285714288962
 20
-3097.5000160472709467
 30
0.0
 40
40.0
  1
124
 41
0.75
  0
TEXT
  5
1280DE
  8
SLIM
 10
3420.0
 20
-3097.5000160472709467
 30
0.0
 40
40.0
  1
94
 41
0.75
  0
TEXT
  5
1280DF
  8
SLIM
 10
3542.1428571428559735
 20
-3097.5000160472709467
 30
0.0
 40
40.0
  1
110
 41
0.75
  0
TEXT
  5
1280E0
  8
SLIM
 10
2350.0
 20
-2997.5
 30
0.0
 40
75.0
  1
下部枝管サイズ毎の形状
 41
0.75
  0
TEXT
  5
1280E1
  8
SLIM
 10
4394.25
 20
-3982.4999999999968168
 30
0.0
 40
35.0
  1
通常枝75（3）
 41
0.75
  0
TEXT
  5
1280E2
  8
SLIM
 10
3394.2499999999990905
 20
-3982.4999999999968168
 30
0.0
 40
35.0
  1
通常枝65（2）
 41
0.75
  0
TEXT
  5
1280E3
  8
SLIM
 10
2396.75
 20
-3982.4999999999968168
 30
0.0
 40
35.0
  1
通常枝50（1）
 41
0.75
  0
TEXT
  5
1280E4
  8
SLIM
 10
2337.75
 20
282.5000000000001137
 30
0.0
 40
35.0
  1
（枝管サイズ毎に寸法が異なります。管底の位置は全サイズで同じです）
 41
0.75
  0
TEXT
  5
1280E5
  8
SLIM
 10
2350.0
 20
532.5
 30
0.0
 40
75.0
  1
側面図の代表機種
 41
0.75
  0
TEXT
  5
1280E6
  8
SLIM
 10
2350.0
 20
369.9999999999998863
 30
0.0
 40
100.0
  1
4SR2-A1-A0003-P300
 41
0.75
  0
TEXT
  5
1280E7
  8
SLIM
 10
4241.6249999999990905
 20
-1632.4999999999979536
 30
0.0
 40
35.0
  1
片受けスタイル（S）＋シンドカット
 41
0.75
  0
TEXT
  5
1280E8
  8
SLIM
 10
2356.25
 20
-1632.4999999999979536
 30
0.0
 40
35.0
  1
片受けスタイル（S）
 41
0.75
  0
TEXT
  5
1280E9
  8
SLIM
 10
0.0
 20
370.0
 30
0.0
 40
100.0
  1
4SR2-A1-A000X-PXXX-S
 41
0.75
  0
VIEWPORT
  5
F6BA7
 67
     1
  8
0
 10
195.9179030619629032
 20
101.8328354358671959
 30
0.0
 40
435.1776330165599802
 41
222.1965796813965142
 68
     1
 69
     1
1001
ACAD
1000
MVIEW
1002
{
1070
    16
1010
0.0
1020
0.0
1030
0.0
1010
0.0
1020
0.0
1030
1.0
1040
0.0
1040
222.1965796813965142
1040
195.9179030619629032
1040
101.8328354358671959
1040
50.0
1040
0.0
1040
0.0
1070
     0
1070
     0
1070
     1
1070
     1
1070
     0
1070
     0
1070
     0
1070
     0
1040
0.0
1040
0.0
1040
0.0
1040
10.0
1040
10.0
1040
10.0
1040
10.0
1070
     0
1002
{
1002
}
1002
}
  0
VIEWPORT
  5
F6BA9
 67
     1
  8
OBJECT
 10
145.3303314447402954
 20
101.8328338861465028
 30
0.0
 40
232.5285303115844044
 41
162.9325342178343021
 68
     2
 69
     2
1001
ACAD
1000
MVIEW
1002
{
1070
    16
1010
0.0
1020
0.0
1030
0.0
1010
0.0
1020
0.0
1030
1.0
1040
0.0
1040
25942.5590440314699663
1040
2377.6044570773769919
1040
-7591.5176687056618903
1040
50.0
1040
0.0
1040
0.0
1070
     0
1070
   600
1070
     1
1070
     1
1070
     0
1070
     0
1070
     0
1070
     0
1040
0.0
1040
0.0
1040
0.0
1040
1.0
1040
1.0
1040
0.0
1040
0.0
1070
     0
1002
{
1002
}
1002
}
  0
ENDSEC
  0
EOF
