  0
SECTION
  2
HEADER
  9
$ACADVER
  1
AC1009
  9
$INSBASE
 10
0.0
 20
0.0
 30
0.0
  9
$EXTMIN
 10
-0.0000000000000027
 20
-4102.4999999999954525
 30
0.0
  9
$EXTMAX
 10
5107.5428571428556097
 20
607.5
 30
0.0
  9
$LIMMIN
 10
0.0
 20
0.0
  9
$LIMMAX
 10
210.0
 20
297.0
  9
$ORTHOMODE
 70
     0
  9
$REGENMODE
 70
     1
  9
$FILLMODE
 70
     1
  9
$QTEXTMODE
 70
     0
  9
$MIRRTEXT
 70
     0
  9
$DRAGMODE
 70
     2
  9
$LTSCALE
 40
1.0
  9
$OSMODE
 70
   295
  9
$ATTMODE
 70
     1
  9
$TEXTSIZE
 40
4.0
  9
$TRACEWID
 40
0.05
  9
$TEXTSTYLE
  7
STANDARD
  9
$CLAYER
  8
SLIM
  9
$CELTYPE
  6
BYLAYER
  9
$CECOLOR
 62
   256
  9
$DIMSCALE
 40
10.0
  9
$DIMASZ
 40
2.0
  9
$DIMEXO
 40
1.0
  9
$DIMDLI
 40
10.0
  9
$DIMRND
 40
0.0
  9
$DIMDLE
 40
0.0
  9
$DIMEXE
 40
1.0
  9
$DIMTP
 40
0.0
  9
$DIMTM
 40
0.0
  9
$DIMTXT
 40
3.2000000000000002
  9
$DIMCEN
 40
0.0
  9
$DIMTSZ
 40
0.0
  9
$DIMTOL
 70
     0
  9
$DIMLIM
 70
     0
  9
$DIMTIH
 70
     0
  9
$DIMTOH
 70
     0
  9
$DIMSE1
 70
     0
  9
$DIMSE2
 70
     0
  9
$DIMTAD
 70
     1
  9
$DIMZIN
 70
     8
  9
$DIMBLK
  1
OPEN30
  9
$DIMASO
 70
     1
  9
$DIMSHO
 70
     1
  9
$DIMPOST
  1

  9
$DIMAPOST
  1

  9
$DIMALT
 70
     0
  9
$DIMALTD
 70
     2
  9
$DIMALTF
 40
25.3999999999999986
  9
$DIMLFAC
 40
1.0
  9
$DIMTOFL
 70
     1
  9
$DIMTVP
 40
0.0
  9
$DIMTIX
 70
     0
  9
$DIMSOXD
 70
     0
  9
$DIMSAH
 70
     0
  9
$DIMBLK1
  1

  9
$DIMBLK2
  1

  9
$DIMSTYLE
  2
S10
  9
$DIMCLRD
 70
   256
  9
$DIMCLRE
 70
   256
  9
$DIMCLRT
 70
   256
  9
$DIMTFAC
 40
1.0
  9
$DIMGAP
 40
0.9
  9
$LUNITS
 70
     2
  9
$LUPREC
 70
     2
  9
$SKETCHINC
 40
0.1
  9
$FILLETRAD
 40
0.0
  9
$AUNITS
 70
     0
  9
$AUPREC
 70
     2
  9
$MENU
  1
ACAD
  9
$ELEVATION
 40
0.0
  9
$PELEVATION
 40
0.0
  9
$THICKNESS
 40
0.0
  9
$LIMCHECK
 70
     0
  9
$BLIPMODE
 70
     0
  9
$CHAMFERA
 40
2.0
  9
$CHAMFERB
 40
2.0
  9
$SKPOLY
 70
     0
  9
$TDCREATE
 40
2453095.4929398149251938
  9
$TDUPDATE
 40
2459969.4361342592164874
  9
$TDINDWG
 40
19.0861204397999984
  9
$TDUSRTIMER
 40
19.0861198957999996
  9
$USRTIMER
 70
     1
  9
$ANGBASE
 50
0.0
  9
$ANGDIR
 70
     0
  9
$PDMODE
 70
    35
  9
$PDSIZE
 40
2.0
  9
$PLINEWID
 40
0.0
  9
$COORDS
 70
     1
  9
$SPLFRAME
 70
     0
  9
$SPLINETYPE
 70
     6
  9
$SPLINESEGS
 70
     8
  9
$ATTDIA
 70
     1
  9
$ATTREQ
 70
     1
  9
$HANDLING
 70
     1
  9
$HANDSEED
  5
12C5DD
  9
$SURFTAB1
 70
     6
  9
$SURFTAB2
 70
     6
  9
$SURFTYPE
 70
     6
  9
$SURFU
 70
     6
  9
$SURFV
 70
     6
  9
$UCSNAME
  2

  9
$UCSORG
 10
0.0
 20
0.0
 30
0.0
  9
$UCSXDIR
 10
1.0
 20
0.0
 30
0.0
  9
$UCSYDIR
 10
0.0
 20
1.0
 30
0.0
  9
$PUCSNAME
  2

  9
$PUCSORG
 10
0.0
 20
0.0
 30
0.0
  9
$PUCSXDIR
 10
1.0
 20
0.0
 30
0.0
  9
$PUCSYDIR
 10
0.0
 20
1.0
 30
0.0
  9
$USERI1
 70
     0
  9
$USERI2
 70
     0
  9
$USERI3
 70
     0
  9
$USERI4
 70
     0
  9
$USERI5
 70
     0
  9
$USERR1
 40
0.0
  9
$USERR2
 40
0.0
  9
$USERR3
 40
0.0
  9
$USERR4
 40
0.0
  9
$USERR5
 40
0.0
  9
$WORLDVIEW
 70
     1
  9
$SHADEDGE
 70
     3
  9
$SHADEDIF
 70
    70
  9
$TILEMODE
 70
     1
  9
$MAXACTVP
 70
    64
  9
$PLIMCHECK
 70
     0
  9
$PEXTMIN
 10
29.0660662889480506
 20
20.3665667772293091
 30
0.0
  9
$PEXTMAX
 10
261.5945966005324976
 20
183.2991009950638102
 30
0.0
  9
$PLIMMIN
 10
-3.17498779296875
 20
-3.1749999523162842
  9
$PLIMMAX
 10
293.835662841796875
 20
206.8406708240509033
  9
$UNITMODE
 70
     0
  9
$VISRETAIN
 70
     1
  9
$PLINEGEN
 70
     0
  9
$PSLTSCALE
 70
     1
  0
ENDSEC
  0
SECTION
  2
TABLES
  0
TABLE
  2
VPORT
 70
     1
  0
VPORT
  2
*ACTIVE
 70
     0
 10
0.0
 20
0.0
 11
1.0
 21
1.0
 12
3465.9850936815769273
 22
-1367.0254780563170698
 13
0.0
 23
0.0
 14
1.0
 24
1.0
 15
0.0
 25
0.0
 16
0.0
 26
0.0
 36
1.0
 17
0.0
 27
0.0
 37
0.0
 40
5691.9577740054155583
 41
2.0994694960212201
 42
50.0
 43
0.0
 44
0.0
 50
0.0
 51
0.0
 71
     0
 72
   600
 73
     1
 74
     1
 75
     0
 76
     0
 77
     0
 78
     0
  0
ENDTAB
  0
TABLE
  2
LTYPE
 70
     4
  0
LTYPE
  2
CONTINUOUS
 70
     0
  3
Solid line
 72
    65
 73
     0
 40
0.0
  0
LTYPE
  2
ACAD_ISO08W100
 70
     0
  3
ISO long-dash short-dash ____ __ ____ __ ____ _
 72
    65
 73
     4
 40
36.0
 49
24.0
 49
-3.0
 49
6.0
 49
-3.0
  0
LTYPE
  2
ACAD_ISO02W100
 70
     0
  3
ISO dash __ __ __ __ __ __ __ __ __ __ __ __ __
 72
    65
 73
     2
 40
15.0
 49
12.0
 49
-3.0
  0
ENDTAB
  0
TABLE
  2
LAYER
 70
     8
  0
LAYER
  2
0
 70
     0
 62
     7
  6
CONTINUOUS
  0
LAYER
  2
SLIM
 70
     0
 62
     2
  6
CONTINUOUS
  0
LAYER
  2
DEFPOINTS
 70
     0
 62
     7
  6
CONTINUOUS
  0
LAYER
  2
DIM
 70
     0
 62
     7
  6
CONTINUOUS
  0
LAYER
  2
OBJECT
 70
     0
 62
     4
  6
CONTINUOUS
  0
LAYER
  2
HIDDEN
 70
     0
 62
     2
  6
ACAD_ISO02W100
  0
LAYER
  2
CENTER
 70
     0
 62
     2
  6
ACAD_ISO08W100
  0
LAYER
  2
DOTS
 70
     0
 62
     1
  6
CONTINUOUS
  0
ENDTAB
  0
TABLE
  2
STYLE
 70
     2
  0
STYLE
  2
STANDARD
 70
     0
 40
0.0
 41
0.75
 50
0.0
 71
     0
 42
4.0
  3
simplex.shx
  4
bigfont.shx
  0
STYLE
  2
ANNOTATIVE
 70
     0
 40
0.0
 41
1.0
 50
0.0
 71
     0
 42
0.2
  3
txt
  4

  0
ENDTAB
  0
TABLE
  2
VIEW
 70
     0
  0
ENDTAB
  0
TABLE
  2
UCS
 70
     0
  0
ENDTAB
  0
TABLE
  2
APPID
 70
    20
  0
APPID
  2
ACAD
 70
     0
  0
APPID
  2
ACADANNOTATIVE
 70
     0
  0
APPID
  2
ACAD_PSEXT
 70
     0
  0
APPID
  2
ACAD_EXEMPT_FROM_CAD_STANDARDS
 70
     0
  0
APPID
  2
ACAECLAYERSTANDARD
 70
     0
  0
APPID
  2
ACAUTHENVIRON
 70
     0
  0
APPID
  2
ACDBDYNAMICBLOCKTRUENAME
 70
     0
  0
APPID
  2
ACDBDYNAMICBLOCKGUID
 70
     0
  0
APPID
  2
ACDBBLOCKREPETAG
 70
     0
  0
APPID
  2
ACDBBLOCKREPBTAG
 70
     0
  0
APPID
  2
ACAD_NAV_VCDISPLAY
 70
     0
  0
APPID
  2
ACAD_DSTYLE_DIMRADIAL_EXTENSION
 70
     0
  0
APPID
  2
ACAD_DSTYLE_DIMJAG
 70
     0
  0
APPID
  2
ACAD_DSTYLE_DIMTALN
 70
     0
  0
APPID
  2
ACADANNOPO
 70
     0
  0
APPID
  2
GRADIENTCOLOR1ACI
 70
     0
  0
APPID
  2
GRADIENTCOLOR2ACI
 70
     0
  0
APPID
  2
ACADANNOMONITORALERTICONDI
 70
     0
  0
APPID
  2
CONTENTBLOCKICON
 70
     0
  0
APPID
  2
ACAD_MLEADERVER
 70
     0
  0
ENDTAB
  0
TABLE
  2
DIMSTYLE
 70
     3
  0
DIMSTYLE
  2
STANDARD
 70
     0
  3

  4

  5

  6

  7

 40
1.0
 41
0.18
 42
0.0625
 43
0.38
 44
0.18
 45
0.0
 46
0.0
 47
0.0
 48
0.0
140
0.18
141
0.09
142
0.0
143
25.3999999999999986
144
1.0
145
0.0
146
1.0
147
0.09
 71
     0
 72
     0
 73
     1
 74
     1
 75
     0
 76
     0
 77
     0
 78
     0
170
     0
171
     2
172
     0
173
     0
174
     0
175
     0
176
     0
177
     0
178
     0
  0
DIMSTYLE
  2
ANNOTATIVE
 70
     0
  3

  4

  5

  6

  7

 40
1.0
 41
0.18
 42
0.0625
 43
0.38
 44
0.18
 45
0.0
 46
0.0
 47
0.0
 48
0.0
140
0.18
141
0.09
142
0.0
143
25.3999999999999986
144
1.0
145
0.0
146
1.0
147
0.09
 71
     0
 72
     0
 73
     1
 74
     1
 75
     0
 76
     0
 77
     0
 78
     0
170
     0
171
     2
172
     0
173
     0
174
     0
175
     0
176
     0
177
     0
178
     0
  0
DIMSTYLE
  2
S10
 70
     0
  3

  4

  5

  6

  7

 40
10.0
 41
2.0
 42
1.0
 43
10.0
 44
1.0
 45
0.0
 46
0.0
 47
0.0
 48
0.0
140
3.2000000000000002
141
0.0
142
0.0
143
25.3999999999999986
144
1.0
145
0.0
146
1.0
147
0.9
 71
     0
 72
     0
 73
     0
 74
     0
 75
     0
 76
     0
 77
     1
 78
     8
170
     0
171
     2
172
     1
173
     0
174
     0
175
     0
176
   256
177
   256
178
   256
  0
ENDTAB
  0
ENDSEC
  0
SECTION
  2
BLOCKS
  0
BLOCK
  8
0
  2
$MODEL_SPACE
 70
     0
 10
0.0
 20
0.0
 30
0.0
  3
$MODEL_SPACE
  1

  0
ENDBLK
  5
12C4EA
  8
0
  0
BLOCK
 67
     1
  8
0
  2
$PAPER_SPACE
 70
     0
 10
0.0
 20
0.0
 30
0.0
  3
$PAPER_SPACE
  1

  0
ENDBLK
  5
12C4E6
 67
     1
  8
0
  0
BLOCK
  8
0
  2
_OPEN30
 70
     0
 10
0.0
 20
0.0
 30
0.0
  3
_OPEN30
  1

  0
LINE
  5
202
  8
0
  6
BYBLOCK
 62
     0
 10
-1.0
 20
0.26794919
 30
0.0
 11
0.0
 21
0.0
 31
0.0
  0
LINE
  5
203
  8
0
  6
BYBLOCK
 62
     0
 10
0.0
 20
0.0
 30
0.0
 11
-1.0
 21
-0.26794919
 31
0.0
  0
LINE
  5
204
  8
0
  6
BYBLOCK
 62
     0
 10
0.0
 20
0.0
 30
0.0
 11
-1.0
 21
0.0
 31
0.0
  0
ENDBLK
  5
206
  8
0
  0
BLOCK
  8
0
  2
*U3
 70
     1
 10
0.0
 20
0.0
 30
0.0
  3
*U3
  1

  0
TEXT
  5
12C3DE
  8
SLIM
 10
4759.7754367419138362
 20
-1161.8571428571440265
 30
0.0
 40
32.0
  1
240
 50
90.0
 41
0.75
  0
ENDBLK
  5
12C3E0
  8
0
  0
BLOCK
  8
0
  2
*U4
 70
     1
 10
0.0
 20
0.0
 30
0.0
  3
*U4
  1

  0
TEXT
  5
12C3E5
  8
DIM
 10
2561.4285714285711038
 20
-3443.2081219844449151
 30
0.0
 40
32.0
  1
C
 41
0.75
  0
ENDBLK
  5
12C3E7
  8
0
  0
BLOCK
  8
0
  2
*U5
 70
     1
 10
0.0
 20
0.0
 30
0.0
  3
*U5
  1

  0
TEXT
  5
12C3E9
  8
DIM
 10
2707.8409284037338693
 20
-3970.9999999999968168
 30
0.0
 40
32.0
  1
B
 50
90.0
 41
0.75
  0
ENDBLK
  5
12C3EB
  8
0
  0
BLOCK
  8
0
  2
*U6
 70
     1
 10
0.0
 20
0.0
 30
0.0
  3
*U6
  1

  0
TEXT
  5
12C3ED
  8
DIM
 10
2709.4796205944589929
 20
-3589.1428571428527903
 30
0.0
 40
32.0
  1
A
 50
90.0
 41
0.75
  0
ENDBLK
  5
12C3EF
  8
0
  0
BLOCK
  8
0
  2
*U7
 70
     1
 10
0.0
 20
0.0
 30
0.0
  3
*U7
  1

  0
TEXT
  5
12C3F1
  8
SLIM
 10
158.9523809524228
 20
-130.0000000001718092
 30
0.0
 40
26.0
  1
50
  0
ENDBLK
  5
12C3F3
  8
0
  0
BLOCK
  8
0
  2
*U8
 70
     1
 10
0.0
 20
0.0
 30
0.0
  3
*U8
  1

  0
TEXT
  5
12C427
  8
SLIM
 10
154.9523809523809064
 20
-894.0
 30
0.0
 40
26.0
  1
50
  0
ENDBLK
  5
12C429
  8
0
  0
BLOCK
  8
0
  2
*U9
 70
     1
 10
0.0
 20
0.0
 30
0.0
  3
*U9
  1

  0
TEXT
  5
12C42B
  8
SLIM
 10
154.9523809523809064
 20
-1124.0
 30
0.0
 40
26.0
  1
50
  0
ENDBLK
  5
12C42D
  8
0
  0
BLOCK
  8
0
  2
*U10
 70
     1
 10
0.0
 20
0.0
 30
0.0
  3
*U10
  1

  0
TEXT
  5
12C42F
  8
SLIM
 10
514.9523809523809632
 20
-894.0
 30
0.0
 40
26.0
  1
50
  0
ENDBLK
  5
12C431
  8
0
  0
BLOCK
  8
0
  2
*U11
 70
     1
 10
0.0
 20
0.0
 30
0.0
  3
*U11
  1

  0
TEXT
  5
12C433
  8
SLIM
 10
514.9523809523809632
 20
-1124.0
 30
0.0
 40
26.0
  1
65
  0
ENDBLK
  5
12C435
  8
0
  0
BLOCK
  8
0
  2
*U12
 70
     1
 10
0.0
 20
0.0
 30
0.0
  3
*U12
  1

  0
TEXT
  5
12C437
  8
SLIM
 10
154.9523809523809064
 20
-1358.0
 30
0.0
 40
26.0
  1
50
  0
ENDBLK
  5
12C439
  8
0
  0
BLOCK
  8
0
  2
*U13
 70
     1
 10
0.0
 20
0.0
 30
0.0
  3
*U13
  1

  0
TEXT
  5
12C43B
  8
SLIM
 10
154.9523809523809064
 20
-1588.0
 30
0.0
 40
26.0
  1
75
  0
ENDBLK
  5
12C43D
  8
0
  0
BLOCK
  8
0
  2
*U14
 70
     1
 10
0.0
 20
0.0
 30
0.0
  3
*U14
  1

  0
TEXT
  5
12C43F
  8
SLIM
 10
514.9523809523809632
 20
-1358.0
 30
0.0
 40
26.0
  1
65
  0
ENDBLK
  5
12C441
  8
0
  0
BLOCK
  8
0
  2
*U15
 70
     1
 10
0.0
 20
0.0
 30
0.0
  3
*U15
  1

  0
TEXT
  5
12C443
  8
SLIM
 10
514.9523809523809632
 20
-1588.0
 30
0.0
 40
26.0
  1
50
  0
ENDBLK
  5
12C445
  8
0
  0
BLOCK
  8
0
  2
*U16
 70
     1
 10
0.0
 20
0.0
 30
0.0
  3
*U16
  1

  0
TEXT
  5
12C447
  8
SLIM
 10
154.9523809523809064
 20
-1822.0
 30
0.0
 40
26.0
  1
65
  0
ENDBLK
  5
12C449
  8
0
  0
BLOCK
  8
0
  2
*U17
 70
     1
 10
0.0
 20
0.0
 30
0.0
  3
*U17
  1

  0
TEXT
  5
12C44B
  8
SLIM
 10
154.9523809523809064
 20
-2052.0
 30
0.0
 40
26.0
  1
65
  0
ENDBLK
  5
12C44D
  8
0
  0
BLOCK
  8
0
  2
*U18
 70
     1
 10
0.0
 20
0.0
 30
0.0
  3
*U18
  1

  0
TEXT
  5
12C44F
  8
SLIM
 10
514.9523809523809632
 20
-1822.0
 30
0.0
 40
26.0
  1
65
  0
ENDBLK
  5
12C451
  8
0
  0
BLOCK
  8
0
  2
*U19
 70
     1
 10
0.0
 20
0.0
 30
0.0
  3
*U19
  1

  0
TEXT
  5
12C453
  8
SLIM
 10
514.9523809523809632
 20
-2052.0
 30
0.0
 40
26.0
  1
75
  0
ENDBLK
  5
12C455
  8
0
  0
BLOCK
  8
0
  2
*U20
 70
     1
 10
0.0
 20
0.0
 30
0.0
  3
*U20
  1

  0
TEXT
  5
12C457
  8
SLIM
 10
154.9523809523809064
 20
-2286.0
 30
0.0
 40
26.0
  1
75
  0
ENDBLK
  5
12C459
  8
0
  0
BLOCK
  8
0
  2
*U21
 70
     1
 10
0.0
 20
0.0
 30
0.0
  3
*U21
  1

  0
TEXT
  5
12C45B
  8
SLIM
 10
154.9523809523809064
 20
-2516.0
 30
0.0
 40
26.0
  1
50
  0
ENDBLK
  5
12C45D
  8
0
  0
BLOCK
  8
0
  2
*U22
 70
     1
 10
0.0
 20
0.0
 30
0.0
  3
*U22
  1

  0
TEXT
  5
12C45F
  8
SLIM
 10
514.9523809523809632
 20
-2286.0
 30
0.0
 40
26.0
  1
75
  0
ENDBLK
  5
12C461
  8
0
  0
BLOCK
  8
0
  2
*U23
 70
     1
 10
0.0
 20
0.0
 30
0.0
  3
*U23
  1

  0
TEXT
  5
12C463
  8
SLIM
 10
514.9523809523809632
 20
-2516.0
 30
0.0
 40
26.0
  1
65
  0
ENDBLK
  5
12C465
  8
0
  0
BLOCK
  8
0
  2
*U24
 70
     1
 10
0.0
 20
0.0
 30
0.0
  3
*U24
  1

  0
TEXT
  5
12C467
  8
SLIM
 10
154.9523809523809064
 20
-2750.0
 30
0.0
 40
26.0
  1
75
  0
ENDBLK
  5
12C469
  8
0
  0
BLOCK
  8
0
  2
*U25
 70
     1
 10
0.0
 20
0.0
 30
0.0
  3
*U25
  1

  0
TEXT
  5
12C46B
  8
SLIM
 10
154.9523809523809064
 20
-2980.0
 30
0.0
 40
26.0
  1
75
  0
ENDBLK
  5
12C46D
  8
0
  0
BLOCK
  8
0
  2
*U26
 70
     1
 10
0.0
 20
0.0
 30
0.0
  3
*U26
  1

  0
TEXT
  5
12C46F
  8
DIM
 10
2700.424581672759814
 20
-869.0000000000062528
 30
0.0
 40
32.0
  1
P
 50
90.0
 41
0.75
  0
ENDBLK
  5
12C471
  8
0
  0
BLOCK
  8
0
  2
*U27
 70
     1
 10
0.0
 20
0.0
 30
0.0
  3
*U27
  1

  0
TEXT
  5
12C473
  8
DIM
 10
4700.4245816727652709
 20
-869.0000000000043201
 30
0.0
 40
32.0
  1
P
 50
90.0
 41
0.75
  0
ENDBLK
  5
12C475
  8
0
  0
BLOCK
  8
0
  2
*U28
 70
     1
 10
0.0
 20
0.0
 30
0.0
  3
*U28
  1

  0
TEXT
  5
12C477
  8
DIM
 10
4334.1164560757752042
 20
-1256.2428571428579289
 30
0.0
 40
32.0
  1
m（シンドカット）
 50
90.0
 41
0.75
  0
ENDBLK
  5
12C479
  8
0
  0
ENDSEC
  0
SECTION
  2
ENTITIES
  0
LINE
  5
11273E
  8
OBJECT
 10
2325.0
 20
-3984.9999999999968168
 30
0.0
 11
5075.0
 21
-3984.9999999999968168
 31
0.0
  0
LINE
  5
11412B
  8
SLIM
 10
3256.0
 20
-3042.5000160472709467
 30
0.0
 11
3256.0
 21
-3372.5000160472709467
 31
0.0
  0
LINE
  5
11412C
  8
SLIM
 10
3380.0
 20
-3042.5000160472709467
 30
0.0
 11
3380.0
 21
-3372.5000160472709467
 31
0.0
  0
LINE
  5
11412D
  8
SLIM
 10
3510.0
 20
-3102.5000160472709467
 30
0.0
 11
3510.0
 21
-3372.5000160472709467
 31
0.0
  0
LINE
  5
11412E
  8
SLIM
 10
3640.0
 20
-3102.5000160472709467
 30
0.0
 11
3640.0
 21
-3372.5000160472709467
 31
0.0
  0
LINE
  5
11412F
  8
SLIM
 10
3770.0
 20
-3372.5000160472709467
 30
0.0
 11
3770.0
 21
-3042.5000160472709467
 31
0.0
  0
LINE
  5
114131
  8
SLIM
 10
3770.0
 20
-3042.5000160472709467
 30
0.0
 11
3256.0
 21
-3042.5000160472709467
 31
0.0
  0
LINE
  5
114132
  8
SLIM
 10
3769.9999999999990905
 20
-3102.5000160472709467
 30
0.0
 11
3380.0
 21
-3102.5000160472709467
 31
0.0
  0
LINE
  5
114133
  8
SLIM
 10
3770.0
 20
-3162.5000160472709467
 30
0.0
 11
3256.0
 21
-3162.5000160472709467
 31
0.0
  0
LINE
  5
114134
  8
SLIM
 10
3770.0
 20
-3232.5000160472700372
 30
0.0
 11
3256.0
 21
-3232.5000160472700372
 31
0.0
  0
LINE
  5
114135
  8
SLIM
 10
3770.0
 20
-3302.5000160472709467
 30
0.0
 11
3256.0
 21
-3302.5000160472709467
 31
0.0
  0
LINE
  5
114136
  8
SLIM
 10
3770.0
 20
-3372.5000160472709467
 30
0.0
 11
3256.0
 21
-3372.5000160472709467
 31
0.0
  0
LINE
  5
11414B
  8
SLIM
 10
3380.0
 20
-3162.5000160472709467
 30
0.0
 11
3255.9999722746579209
 21
-3042.5
 31
0.0
  0
LINE
  5
1238B4
  8
CENTER
 10
2580.0
 20
-3579.9999999999959073
 30
0.0
 11
2410.0
 21
-3579.9999999999959073
 31
0.0
1001
ACDBBLOCKREPETAG
1070
     1
1071
       14
1005
122545
  0
LINE
  5
1238B5
  8
CENTER
 10
2500.0
 20
-3669.9999999999968168
 30
0.0
 11
2500.0
 21
-3489.9999999999968168
 31
0.0
1001
ACDBBLOCKREPETAG
1070
     1
1071
       15
1005
122546
  0
CIRCLE
  5
1238B6
  8
OBJECT
 10
2500.0
 20
-3579.9999999999959073
 30
0.0
 40
70.0
1001
ACDBBLOCKREPETAG
1070
     1
1071
       16
1005
122547
  0
CIRCLE
  5
1238B7
  8
OBJECT
 10
2500.0
 20
-3579.9999999999959073
 30
0.0
 40
75.0
1001
ACDBBLOCKREPETAG
1070
     1
1071
       17
1005
122548
  0
LINE
  5
123927
  8
CENTER
 10
2500.0
 20
-3764.9999999999968168
 30
0.0
 11
2500.0
 21
-4011.9999999999959073
 31
0.0
1001
ACDBBLOCKREPETAG
1070
     1
1071
       25
1005
123927
  0
LINE
  5
123928
  8
OBJECT
 10
2425.0
 20
-3779.9999999999990905
 30
0.0
 11
2425.0
 21
-3999.9999999999968168
 31
0.0
1001
ACDBBLOCKREPETAG
1070
     1
1071
       26
1005
123928
  0
LINE
  5
12392C
  8
OBJECT
 10
2575.0
 20
-3779.9999999999990905
 30
0.0
 11
2575.0
 21
-3876.5000000000609361
 31
0.0
1001
ACDBBLOCKREPETAG
1070
     1
1071
       34
1005
12392C
  0
LINE
  5
123A5C
  8
OBJECT
 10
2575.0
 20
-3982.4999999999990905
 30
0.0
 11
2575.0
 21
-3999.9999999999968168
 31
0.0
1001
ACDBBLOCKREPETAG
1070
     1
1071
       34
1005
12392C
  0
LINE
  5
123A5E
  8
CENTER
 10
2900.0
 20
-3764.9999999999968168
 30
0.0
 11
2900.0
 21
-4011.9999999999959073
 31
0.0
1001
ACDBBLOCKREPETAG
1070
     1
1071
       25
1005
123927
  0
LINE
  5
123A5F
  8
OBJECT
 10
2825.0
 20
-3779.9999999999990905
 30
0.0
 11
2825.0
 21
-3999.9999999999968168
 31
0.0
1001
ACDBBLOCKREPETAG
1070
     1
1071
       26
1005
123928
  0
LINE
  5
123A60
  8
OBJECT
 10
2975.0
 20
-3779.9999999999990905
 30
0.0
 11
2975.0
 21
-3999.9999999999990905
 31
0.0
1001
ACDBBLOCKREPETAG
1070
     1
1071
       34
1005
12392C
  0
LINE
  5
123AD2
  8
CENTER
 10
3580.0
 20
-3579.9999999999959073
 30
0.0
 11
3410.0
 21
-3579.9999999999959073
 31
0.0
1001
ACDBBLOCKREPETAG
1070
     1
1071
       14
1005
122545
  0
LINE
  5
123AD3
  8
CENTER
 10
3500.0
 20
-3669.9999999999968168
 30
0.0
 11
3500.0
 21
-3489.9999999999968168
 31
0.0
1001
ACDBBLOCKREPETAG
1070
     1
1071
       15
1005
122546
  0
CIRCLE
  5
123AD4
  8
OBJECT
 10
3500.0
 20
-3579.9999999999959073
 30
0.0
 40
70.0
1001
ACDBBLOCKREPETAG
1070
     1
1071
       16
1005
122547
  0
CIRCLE
  5
123AD5
  8
OBJECT
 10
3500.0
 20
-3579.9999999999959073
 30
0.0
 40
75.0
1001
ACDBBLOCKREPETAG
1070
     1
1071
       17
1005
122548
  0
LINE
  5
123ADD
  8
CENTER
 10
3500.0
 20
-3764.9999999999968168
 30
0.0
 11
3500.0
 21
-4011.9999999999959073
 31
0.0
1001
ACDBBLOCKREPETAG
1070
     1
1071
       25
1005
123927
  0
LINE
  5
123ADE
  8
OBJECT
 10
3424.9999999999990905
 20
-3779.9999999999990905
 30
0.0
 11
3424.9999999999990905
 21
-3999.9999999999968168
 31
0.0
1001
ACDBBLOCKREPETAG
1070
     1
1071
       26
1005
123928
  0
LINE
  5
123ADF
  8
OBJECT
 10
3574.9999999999990905
 20
-3779.9999999999990905
 30
0.0
 11
3574.9999999999990905
 21
-3876.5000000000609361
 31
0.0
1001
ACDBBLOCKREPETAG
1070
     1
1071
       34
1005
12392C
  0
LINE
  5
123AE0
  8
OBJECT
 10
3574.9999999999990905
 20
-3982.4999999999990905
 30
0.0
 11
3574.9999999999990905
 21
-3999.9999999999968168
 31
0.0
1001
ACDBBLOCKREPETAG
1070
     1
1071
       34
1005
12392C
  0
LINE
  5
123AE8
  8
CENTER
 10
3900.0
 20
-3764.9999999999968168
 30
0.0
 11
3900.0
 21
-4011.9999999999959073
 31
0.0
1001
ACDBBLOCKREPETAG
1070
     1
1071
       25
1005
123927
  0
LINE
  5
123AE9
  8
OBJECT
 10
3824.9999999999990905
 20
-3779.9999999999990905
 30
0.0
 11
3824.9999999999990905
 21
-3999.9999999999968168
 31
0.0
1001
ACDBBLOCKREPETAG
1070
     1
1071
       26
1005
123928
  0
LINE
  5
123AEA
  8
OBJECT
 10
3975.0
 20
-3779.9999999999990905
 30
0.0
 11
3975.0
 21
-3999.9999999999990905
 31
0.0
1001
ACDBBLOCKREPETAG
1070
     1
1071
       34
1005
12392C
  0
LINE
  5
123B38
  8
CENTER
 10
4579.9999999999990905
 20
-3579.9999999999959073
 30
0.0
 11
4409.9999999999990905
 21
-3579.9999999999959073
 31
0.0
1001
ACDBBLOCKREPETAG
1070
     1
1071
       14
1005
122545
  0
LINE
  5
123B39
  8
CENTER
 10
4499.9999999999990905
 20
-3669.9999999999968168
 30
0.0
 11
4499.9999999999990905
 21
-3489.9999999999968168
 31
0.0
1001
ACDBBLOCKREPETAG
1070
     1
1071
       15
1005
122546
  0
CIRCLE
  5
123B3A
  8
OBJECT
 10
4499.9999999999990905
 20
-3579.9999999999959073
 30
0.0
 40
70.0
1001
ACDBBLOCKREPETAG
1070
     1
1071
       16
1005
122547
  0
CIRCLE
  5
123B3B
  8
OBJECT
 10
4499.9999999999990905
 20
-3579.9999999999959073
 30
0.0
 40
75.0
1001
ACDBBLOCKREPETAG
1070
     1
1071
       17
1005
122548
  0
LINE
  5
123B43
  8
CENTER
 10
4500.0
 20
-3764.9999999999968168
 30
0.0
 11
4500.0
 21
-4011.9999999999959073
 31
0.0
1001
ACDBBLOCKREPETAG
1070
     1
1071
       25
1005
123927
  0
LINE
  5
123B44
  8
OBJECT
 10
4425.0
 20
-3779.9999999999990905
 30
0.0
 11
4425.0
 21
-3999.9999999999968168
 31
0.0
1001
ACDBBLOCKREPETAG
1070
     1
1071
       26
1005
123928
  0
LINE
  5
123B45
  8
OBJECT
 10
4575.0
 20
-3779.9999999999990905
 30
0.0
 11
4575.0
 21
-3876.5000000000609361
 31
0.0
1001
ACDBBLOCKREPETAG
1070
     1
1071
       34
1005
12392C
  0
LINE
  5
123B46
  8
OBJECT
 10
4575.0
 20
-3982.4999999999990905
 30
0.0
 11
4575.0
 21
-3999.9999999999968168
 31
0.0
1001
ACDBBLOCKREPETAG
1070
     1
1071
       34
1005
12392C
  0
LINE
  5
123B4E
  8
CENTER
 10
4900.0
 20
-3764.9999999999968168
 30
0.0
 11
4900.0
 21
-4011.9999999999959073
 31
0.0
1001
ACDBBLOCKREPETAG
1070
     1
1071
       25
1005
123927
  0
LINE
  5
123B4F
  8
OBJECT
 10
4825.0
 20
-3779.9999999999990905
 30
0.0
 11
4825.0
 21
-3999.9999999999968168
 31
0.0
1001
ACDBBLOCKREPETAG
1070
     1
1071
       26
1005
123928
  0
LINE
  5
123B50
  8
OBJECT
 10
4975.0
 20
-3779.9999999999990905
 30
0.0
 11
4974.9999999999990905
 21
-3999.9999999999990905
 31
0.0
1001
ACDBBLOCKREPETAG
1070
     1
1071
       34
1005
12392C
  0
POINT
  5
124C02
  8
DOTS
 10
2500.0
 20
-3579.9999999999959073
 30
0.0
  0
POINT
  5
124C03
  8
DOTS
 10
2500.0
 20
-3984.9999999999968168
 30
0.0
  0
POINT
  5
124C05
  8
DOTS
 10
3500.0
 20
-3984.9999999999968168
 30
0.0
  0
POINT
  5
124C07
  8
DOTS
 10
3500.0
 20
-3579.9999999999959073
 30
0.0
  0
POINT
  5
124C08
  8
DOTS
 10
4499.9999999999990905
 20
-3579.9999999999959073
 30
0.0
  0
POINT
  5
124C09
  8
DOTS
 10
4499.9999999999990905
 20
-3984.9999999999968168
 30
0.0
  0
LINE
  5
12A6D4
  8
CENTER
 10
4580.0
 20
-199.9999999999990905
 30
0.0
 11
4400.0
 21
-199.9999999999990905
 31
0.0
1001
ACDBBLOCKREPETAG
1070
     1
1071
       14
1005
0
  0
CIRCLE
  5
12A6D5
  8
OBJECT
 10
4500.0
 20
-199.9999999999990905
 30
0.0
 40
53.5
1001
ACDBBLOCKREPETAG
1070
     1
1071
      344
1005
0
  0
LINE
  5
12A6D6
  8
CENTER
 10
4500.0
 20
-299.9999999999990905
 30
0.0
 11
4500.0
 21
-99.9999999999990763
 31
0.0
1001
ACDBBLOCKREPETAG
1070
     1
1071
       15
1005
0
  0
POINT
  5
12A6D7
  8
DOTS
 10
4500.0
 20
-199.9999999999990905
 30
0.0
 50
270.0
1001
ACDBBLOCKREPETAG
1070
     1
1071
      362
1005
0
  0
CIRCLE
  5
12A6D8
  8
OBJECT
 10
4500.0
 20
-199.9999999999990905
 30
0.0
 40
70.0
1001
ACDBBLOCKREPETAG
1070
     1
1071
       16
1005
0
  0
ARC
  5
12A6D9
  8
OBJECT
 10
4500.0
 20
-199.9999999999990905
 30
0.0
 40
80.0
 50
50.8050325738959003
 51
309.1949674259690255
1001
ACDBBLOCKREPETAG
1070
     1
1071
       18
1005
0
  0
LINE
  5
12A6DA
  8
OBJECT
 10
4403.0
 20
-148.0
 30
0.0
 11
4407.0
 21
-152.5
 31
0.0
1001
ACDBBLOCKREPETAG
1070
     1
1071
       32
1005
0
  0
CIRCLE
  5
12A6DB
  8
OBJECT
 10
4500.0
 20
-199.9999999999990905
 30
0.0
 40
77.0
1001
ACDBBLOCKREPETAG
1070
     1
1071
       17
1005
0
  0
LINE
  5
12A6DC
  8
OBJECT
 10
4545.6618002273244201
 20
-261.9999999999990905
 30
0.0
 11
4580.0
 21
-261.9999999999990905
 31
0.0
1001
ACDBBLOCKREPETAG
1070
     1
1071
       20
1005
0
  0
LINE
  5
12A6DD
  8
OBJECT
 10
4545.6618002273244201
 20
-137.9999999999990905
 30
0.0
 11
4580.0
 21
-137.9999999999990905
 31
0.0
1001
ACDBBLOCKREPETAG
1070
     1
1071
       19
1005
0
  0
LINE
  5
12A6DE
  8
OBJECT
 10
4367.0
 20
-255.0
 30
0.0
 11
4360.0
 21
-255.0
 31
0.0
1001
ACDBBLOCKREPETAG
1070
     1
1071
       20
1005
0
  0
LINE
  5
12A6DF
  8
OBJECT
 10
4360.0
 20
-255.0
 30
0.0
 11
4360.0
 21
-145.0
 31
0.0
1001
ACDBBLOCKREPETAG
1070
     1
1071
       21
1005
0
  0
LINE
  5
12A6E0
  8
OBJECT
 10
4360.0
 20
-145.0
 30
0.0
 11
4367.0
 21
-145.0
 31
0.0
1001
ACDBBLOCKREPETAG
1070
     1
1071
       22
1005
0
  0
LINE
  5
12A6E1
  8
OBJECT
 10
4367.0
 20
-145.0
 30
0.0
 11
4367.0
 21
-255.0
 31
0.0
1001
ACDBBLOCKREPETAG
1070
     1
1071
       23
1005
0
  0
LINE
  5
12A6E2
  8
CENTER
 10
4345.0
 20
-200.0
 30
0.0
 11
4420.0
 21
-200.0
 31
0.0
1001
ACDBBLOCKREPETAG
1070
     1
1071
       24
1005
0
  0
LINE
  5
12A6E3
  8
OBJECT
 10
4367.0
 20
-252.0
 30
0.0
 11
4403.0
 21
-252.0
 31
0.0
1001
ACDBBLOCKREPETAG
1070
     1
1071
       25
1005
0
  0
LINE
  5
12A6E4
  8
OBJECT
 10
4403.0
 20
-252.0
 30
0.0
 11
4403.0
 21
-148.0
 31
0.0
1001
ACDBBLOCKREPETAG
1070
     1
1071
       26
1005
0
  0
LINE
  5
12A6E5
  8
OBJECT
 10
4403.0
 20
-148.0
 30
0.0
 11
4367.0
 21
-148.0
 31
0.0
1001
ACDBBLOCKREPETAG
1070
     1
1071
       27
1005
0
  0
LINE
  5
12A6E6
  8
OBJECT
 10
4407.0
 20
-247.5
 30
0.0
 11
4415.5
 21
-247.5
 31
0.0
1001
ACDBBLOCKREPETAG
1070
     1
1071
       28
1005
0
  0
LINE
  5
12A6E7
  8
OBJECT
 10
4415.5
 20
-152.5
 30
0.0
 11
4407.0
 21
-152.5
 31
0.0
1001
ACDBBLOCKREPETAG
1070
     1
1071
       29
1005
0
  0
LINE
  5
12A6E8
  8
OBJECT
 10
4407.0
 20
-152.5
 30
0.0
 11
4407.0
 21
-247.5
 31
0.0
1001
ACDBBLOCKREPETAG
1070
     1
1071
       30
1005
0
  0
LINE
  5
12A6E9
  8
OBJECT
 10
4403.0
 20
-252.0
 30
0.0
 11
4407.0
 21
-247.5
 31
0.0
1001
ACDBBLOCKREPETAG
1070
     1
1071
       31
1005
0
  0
ARC
  5
12A6EA
  8
OBJECT
 10
4500.0
 20
-199.9999999999990905
 30
0.0
 40
85.0
 50
46.837102859732191
 51
144.3837932714677947
1001
ACDBBLOCKREPETAG
1070
     1
1071
       18
1005
0
  0
LINE
  5
12A6EB
  8
OBJECT
 10
4415.5
 20
-150.5
 30
0.0
 11
4415.5
 21
-249.5
 31
0.0
1001
ACDBBLOCKREPETAG
1070
     1
1071
       33
1005
0
  0
LINE
  5
12A6EC
  8
HIDDEN
 10
4412.0
 20
-238.0
 30
0.0
 11
4412.0
 21
-162.0
 31
0.0
1001
ACDBBLOCKREPETAG
1070
     1
1071
       34
1005
0
  0
LINE
  5
12A6ED
  8
OBJECT
 10
4415.5
 20
-249.5
 30
0.0
 11
4437.1529634747967066
 21
-249.5
 31
0.0
1001
ACDBBLOCKREPETAG
1070
     1
1071
       35
1005
0
  0
LINE
  5
12A6EE
  8
OBJECT
 10
4415.5
 20
-150.5
 30
0.0
 11
4437.1529634747967066
 21
-150.5
 31
0.0
1001
ACDBBLOCKREPETAG
1070
     1
1071
       36
1005
0
  0
ARC
  5
12A6EF
  8
OBJECT
 10
4500.0
 20
-199.9999999999990905
 30
0.0
 40
85.0
 50
215.6162067285320916
 51
313.1628971402676029
1001
ACDBBLOCKREPETAG
1070
     1
1071
       18
1005
0
  0
LINE
  5
12A6F8
  8
CENTER
 10
2580.0
 20
-199.9999999999980105
 30
0.0
 11
2400.0
 21
-199.9999999999980105
 31
0.0
1001
ACDBBLOCKREPETAG
1070
     1
1071
       14
1005
0
  0
CIRCLE
  5
12A6F9
  8
OBJECT
 10
2500.0
 20
-199.9999999999980105
 30
0.0
 40
53.5
1001
ACDBBLOCKREPETAG
1070
     1
1071
      344
1005
0
  0
LINE
  5
12A6FA
  8
CENTER
 10
2500.0
 20
-294.9999999999980105
 30
0.0
 11
2500.0
 21
-104.9999999999979963
 31
0.0
1001
ACDBBLOCKREPETAG
1070
     1
1071
       15
1005
0
  0
POINT
  5
12A6FB
  8
DOTS
 10
2500.0
 20
-199.9999999999980105
 30
0.0
 50
270.0
1001
ACDBBLOCKREPETAG
1070
     1
1071
      362
1005
0
  0
CIRCLE
  5
12A6FC
  8
OBJECT
 10
2500.0
 20
-199.9999999999980105
 30
0.0
 40
70.0
1001
ACDBBLOCKREPETAG
1070
     1
1071
       16
1005
0
  0
ARC
  5
12A6FD
  8
OBJECT
 10
2500.0
 20
-199.9999999999980105
 30
0.0
 40
80.0
 50
50.8050325738965682
 51
309.1949674259690255
1001
ACDBBLOCKREPETAG
1070
     1
1071
       18
1005
0
  0
CIRCLE
  5
12A6FE
  8
OBJECT
 10
2500.0
 20
-199.9999999999980105
 30
0.0
 40
77.0
1001
ACDBBLOCKREPETAG
1070
     1
1071
       17
1005
0
  0
LINE
  5
12A6FF
  8
OBJECT
 10
2545.6618002273230559
 20
-261.9999999999980105
 30
0.0
 11
2580.0
 21
-261.9999999999980105
 31
0.0
1001
ACDBBLOCKREPETAG
1070
     1
1071
       20
1005
0
  0
LINE
  5
12A700
  8
OBJECT
 10
2545.6618002273230559
 20
-137.9999999999980105
 30
0.0
 11
2580.0
 21
-137.9999999999980105
 31
0.0
1001
ACDBBLOCKREPETAG
1070
     1
1071
       19
1005
0
  0
LINE
  5
12A701
  8
OBJECT
 10
2366.9999999999990905
 20
-254.9999999999988916
 30
0.0
 11
2359.9999999999990905
 21
-254.9999999999988916
 31
0.0
1001
ACDBBLOCKREPETAG
1070
     1
1071
       20
1005
0
  0
LINE
  5
12A702
  8
OBJECT
 10
2359.9999999999990905
 20
-254.9999999999988916
 30
0.0
 11
2359.9999999999990905
 21
-144.9999999999988063
 31
0.0
1001
ACDBBLOCKREPETAG
1070
     1
1071
       21
1005
0
  0
LINE
  5
12A703
  8
OBJECT
 10
2359.9999999999990905
 20
-144.9999999999988063
 30
0.0
 11
2366.9999999999990905
 21
-144.9999999999988063
 31
0.0
1001
ACDBBLOCKREPETAG
1070
     1
1071
       22
1005
0
  0
LINE
  5
12A704
  8
OBJECT
 10
2366.9999999999990905
 20
-144.9999999999988063
 30
0.0
 11
2366.9999999999990905
 21
-254.9999999999988916
 31
0.0
1001
ACDBBLOCKREPETAG
1070
     1
1071
       23
1005
0
  0
LINE
  5
12A705
  8
CENTER
 10
2345.0
 20
-199.9999999999988063
 30
0.0
 11
2420.0
 21
-199.9999999999988063
 31
0.0
1001
ACDBBLOCKREPETAG
1070
     1
1071
       24
1005
0
  0
LINE
  5
12A706
  8
OBJECT
 10
2366.9999999999990905
 20
-251.9999999999988063
 30
0.0
 11
2403.0
 21
-251.9999999999988063
 31
0.0
1001
ACDBBLOCKREPETAG
1070
     1
1071
       25
1005
0
  0
LINE
  5
12A707
  8
OBJECT
 10
2403.0
 20
-251.9999999999988063
 30
0.0
 11
2403.0
 21
-147.9999999999988063
 31
0.0
1001
ACDBBLOCKREPETAG
1070
     1
1071
       26
1005
0
  0
LINE
  5
12A708
  8
OBJECT
 10
2403.0
 20
-147.9999999999988063
 30
0.0
 11
2366.9999999999990905
 21
-147.9999999999988063
 31
0.0
1001
ACDBBLOCKREPETAG
1070
     1
1071
       27
1005
0
  0
LINE
  5
12A709
  8
OBJECT
 10
2407.0
 20
-247.4999999999988063
 30
0.0
 11
2415.5
 21
-247.4999999999988063
 31
0.0
1001
ACDBBLOCKREPETAG
1070
     1
1071
       28
1005
0
  0
LINE
  5
12A70A
  8
OBJECT
 10
2415.5
 20
-152.4999999999988063
 30
0.0
 11
2407.0
 21
-152.4999999999988063
 31
0.0
1001
ACDBBLOCKREPETAG
1070
     1
1071
       29
1005
0
  0
LINE
  5
12A70B
  8
OBJECT
 10
2407.0
 20
-152.4999999999988063
 30
0.0
 11
2407.0
 21
-247.4999999999988063
 31
0.0
1001
ACDBBLOCKREPETAG
1070
     1
1071
       30
1005
0
  0
LINE
  5
12A70C
  8
OBJECT
 10
2403.0
 20
-251.9999999999988063
 30
0.0
 11
2407.0
 21
-247.4999999999988063
 31
0.0
1001
ACDBBLOCKREPETAG
1070
     1
1071
       31
1005
0
  0
LINE
  5
12A70D
  8
OBJECT
 10
2403.0
 20
-147.9999999999988063
 30
0.0
 11
2407.0
 21
-152.4999999999988063
 31
0.0
1001
ACDBBLOCKREPETAG
1070
     1
1071
       32
1005
0
  0
LINE
  5
12A70E
  8
OBJECT
 10
2415.5000000000009095
 20
-150.4999999999988063
 30
0.0
 11
2415.5
 21
-249.4999999999988916
 31
0.0
1001
ACDBBLOCKREPETAG
1070
     1
1071
       33
1005
0
  0
LINE
  5
12A70F
  8
HIDDEN
 10
2412.0
 20
-237.9999999999988916
 30
0.0
 11
2412.0
 21
-161.9999999999988063
 31
0.0
1001
ACDBBLOCKREPETAG
1070
     1
1071
       34
1005
0
  0
LINE
  5
12A710
  8
OBJECT
 10
2415.5
 20
-249.4999999999988916
 30
0.0
 11
2437.1529634747980708
 21
-249.4999999999988916
 31
0.0
1001
ACDBBLOCKREPETAG
1070
     1
1071
       35
1005
0
  0
LINE
  5
12A711
  8
OBJECT
 10
2415.5000000000009095
 20
-150.4999999999988063
 30
0.0
 11
2437.1529634747980708
 21
-150.4999999999988063
 31
0.0
1001
ACDBBLOCKREPETAG
1070
     1
1071
       36
1005
0
  0
LINE
  5
12A714
  8
SLIM
 10
4850.0
 20
-1364.9999999999979536
 30
0.0
 11
4850.0
 21
-836.9999999999980673
 31
0.0
  0
LINE
  5
12B6EB
  8
SLIM
 10
4954.0
 20
-836.9999999999980673
 30
0.0
 11
4954.0
 21
-1364.9999999999979536
 31
0.0
  0
LINE
  5
12B6EC
  8
SLIM
 10
5102.0
 20
-836.9999999999980673
 30
0.0
 11
5102.0
 21
-1364.9999999999979536
 31
0.0
  0
LINE
  5
12B6EF
  8
SLIM
 10
5102.0
 20
-836.9999999999980673
 30
0.0
 11
4850.0
 21
-836.9999999999980673
 31
0.0
  0
LINE
  5
12B6F2
  8
SLIM
 10
5102.0
 20
-884.9999999999979536
 30
0.0
 11
4850.0
 21
-884.9999999999979536
 31
0.0
  0
LINE
  5
12B6F5
  8
SLIM
 10
5102.0
 20
-932.999999999998181
 30
0.0
 11
4850.0
 21
-932.999999999998181
 31
0.0
  0
LINE
  5
12B6F8
  8
SLIM
 10
5102.0
 20
-980.999999999998181
 30
0.0
 11
4850.0
 21
-980.999999999998181
 31
0.0
  0
LINE
  5
12B6FB
  8
SLIM
 10
5102.0
 20
-1028.9999999999979536
 30
0.0
 11
4850.0
 21
-1028.9999999999979536
 31
0.0
  0
LINE
  5
12B6FE
  8
SLIM
 10
5102.0
 20
-1076.9999999999979536
 30
0.0
 11
4850.0
 21
-1076.9999999999979536
 31
0.0
  0
LINE
  5
12B700
  8
SLIM
 10
5102.0
 20
-1124.9999999999979536
 30
0.0
 11
4850.0
 21
-1124.9999999999979536
 31
0.0
  0
LINE
  5
12B702
  8
SLIM
 10
5102.0
 20
-1172.9999999999979536
 30
0.0
 11
4850.0
 21
-1172.9999999999979536
 31
0.0
  0
LINE
  5
12B704
  8
SLIM
 10
5102.0
 20
-1220.9999999999979536
 30
0.0
 11
4850.0
 21
-1220.9999999999979536
 31
0.0
  0
LINE
  5
12B706
  8
SLIM
 10
5102.0
 20
-1268.9999999999979536
 30
0.0
 11
4850.0
 21
-1268.9999999999979536
 31
0.0
  0
LINE
  5
12B708
  8
SLIM
 10
5102.0
 20
-1316.9999999999979536
 30
0.0
 11
4850.0
 21
-1316.9999999999979536
 31
0.0
  0
LINE
  5
12B70A
  8
SLIM
 10
5102.0
 20
-1364.9999999999979536
 30
0.0
 11
4850.0
 21
-1364.9999999999979536
 31
0.0
  0
LINE
  5
12B733
  8
OBJECT
 10
2454.3220385552449443
 20
-176.1757960752491101
 30
0.0
 11
2453.0174047416508074
 21
-174.409264512517808
 31
0.0
  0
ARC
  5
12B734
  8
OBJECT
 10
2450.3000008247968253
 20
-179.146185358633204
 30
0.0
 40
5.0
 50
0.0
 51
36.4469224760880692
  0
LINE
  5
12B735
  8
OBJECT
 10
2454.322038555373183
 20
-223.8242039246941033
 30
0.0
 11
2453.0174047417372094
 21
-225.5907354876378861
 31
0.0
  0
ARC
  5
12B736
  8
OBJECT
 10
2450.3000008247968253
 20
-220.8538146414809091
 30
0.0
 40
5.0
 50
323.5530775262758993
 51
0.0
  0
LINE
  5
12B737
  8
OBJECT
 10
2455.3000008247959158
 20
-220.8538146414809091
 30
0.0
 11
2455.3000008247959158
 21
-179.146185358633204
 31
0.0
  0
LINE
  5
12B738
  8
OBJECT
 10
4454.3220385552449443
 20
-176.1757960752501901
 30
0.0
 11
4453.0174047416494432
 21
-174.4092645125186891
 31
0.0
  0
ARC
  5
12B739
  8
OBJECT
 10
4450.3000008247963706
 20
-179.1461853586343125
 30
0.0
 40
5.0
 50
0.0
 51
36.4469224760899593
  0
LINE
  5
12B73A
  8
OBJECT
 10
4454.3220385553722735
 20
-223.8242039246952118
 30
0.0
 11
4453.0174047417367547
 21
-225.5907354876389093
 31
0.0
  0
ARC
  5
12B73B
  8
OBJECT
 10
4450.3000008247963706
 20
-220.8538146414821028
 30
0.0
 40
5.0
 50
323.5530775262756151
 51
0.0
  0
LINE
  5
12B73C
  8
OBJECT
 10
4455.3000008247963706
 20
-220.8538146414821028
 30
0.0
 11
4455.3000008247963706
 21
-179.1461853586343125
 31
0.0
  0
LINE
  5
12BF24
  8
OBJECT
 10
2633.0
 20
-254.9999999999978968
 30
0.0
 11
2640.0
 21
-254.9999999999978968
 31
0.0
1001
ACDBBLOCKREPETAG
1070
     1
1071
       20
1005
0
  0
LINE
  5
12BF25
  8
OBJECT
 10
2640.0
 20
-254.9999999999978968
 30
0.0
 11
2640.0
 21
-246.9999999999980105
 31
0.0
1001
ACDBBLOCKREPETAG
1070
     1
1071
       21
1005
0
  0
LINE
  5
12BF26
  8
OBJECT
 10
2640.0
 20
-144.9999999999980105
 30
0.0
 11
2633.0
 21
-144.9999999999980105
 31
0.0
1001
ACDBBLOCKREPETAG
1070
     1
1071
       22
1005
0
  0
LINE
  5
12BF27
  8
OBJECT
 10
2633.0
 20
-246.9999999999980105
 30
0.0
 11
2633.0
 21
-254.9999999999978968
 31
0.0
1001
ACDBBLOCKREPETAG
1070
     1
1071
       23
1005
0
  0
LINE
  5
12BF28
  8
OBJECT
 10
2633.0
 20
-251.9999999999980105
 30
0.0
 11
2596.9999999999990905
 21
-251.9999999999980105
 31
0.0
1001
ACDBBLOCKREPETAG
1070
     1
1071
       25
1005
0
  0
LINE
  5
12BF29
  8
OBJECT
 10
2596.9999999999990905
 20
-251.9999999999980105
 30
0.0
 11
2596.9999999999990905
 21
-243.9999999999980105
 31
0.0
1001
ACDBBLOCKREPETAG
1070
     1
1071
       26
1005
0
  0
LINE
  5
12BF2A
  8
OBJECT
 10
2596.9999999999990905
 20
-147.9999999999980105
 30
0.0
 11
2633.0
 21
-147.9999999999980105
 31
0.0
1001
ACDBBLOCKREPETAG
1070
     1
1071
       27
1005
0
  0
LINE
  5
12BF2B
  8
OBJECT
 10
2593.0
 20
-247.4999999999980105
 30
0.0
 11
2585.999999999998181
 21
-247.4999999999980105
 31
0.0
1001
ACDBBLOCKREPETAG
1070
     1
1071
       28
1005
0
  0
LINE
  5
12BF2C
  8
OBJECT
 10
2585.999999999998181
 20
-152.4999999999980105
 30
0.0
 11
2593.0
 21
-152.4999999999980105
 31
0.0
1001
ACDBBLOCKREPETAG
1070
     1
1071
       29
1005
0
  0
LINE
  5
12BF2D
  8
OBJECT
 10
2593.0
 20
-239.4999999999980105
 30
0.0
 11
2593.0
 21
-247.4999999999980105
 31
0.0
1001
ACDBBLOCKREPETAG
1070
     1
1071
       30
1005
0
  0
LINE
  5
12BF2E
  8
OBJECT
 10
2596.9999999999990905
 20
-251.9999999999980105
 30
0.0
 11
2593.0
 21
-247.4999999999980105
 31
0.0
1001
ACDBBLOCKREPETAG
1070
     1
1071
       31
1005
0
  0
LINE
  5
12BF2F
  8
OBJECT
 10
2596.9999999999990905
 20
-147.9999999999980105
 30
0.0
 11
2593.0
 21
-152.4999999999980105
 31
0.0
1001
ACDBBLOCKREPETAG
1070
     1
1071
       32
1005
0
  0
LINE
  5
12BF31
  8
OBJECT
 10
2640.0
 20
-144.9999999999980105
 30
0.0
 11
2640.0
 21
-152.9999999999980105
 31
0.0
1001
ACDBBLOCKREPETAG
1070
     1
1071
       21
1005
0
  0
LINE
  5
12BF32
  8
OBJECT
 10
2633.0
 20
-152.9999999999980105
 30
0.0
 11
2633.0
 21
-144.9999999999980105
 31
0.0
1001
ACDBBLOCKREPETAG
1070
     1
1071
       23
1005
0
  0
LINE
  5
12BF33
  8
OBJECT
 10
2596.9999999999990905
 20
-147.9999999999980105
 30
0.0
 11
2596.9999999999990905
 21
-155.9999999999980105
 31
0.0
1001
ACDBBLOCKREPETAG
1070
     1
1071
       26
1005
0
  0
LINE
  5
12BF34
  8
OBJECT
 10
2593.0
 20
-160.4999999999980105
 30
0.0
 11
2593.0
 21
-152.4999999999980105
 31
0.0
1001
ACDBBLOCKREPETAG
1070
     1
1071
       30
1005
0
  0
LINE
  5
12BF3A
  8
OBJECT
 10
4633.0
 20
-254.9999999999990052
 30
0.0
 11
4640.0
 21
-254.9999999999990052
 31
0.0
1001
ACDBBLOCKREPETAG
1070
     1
1071
       20
1005
0
  0
LINE
  5
12BF3B
  8
OBJECT
 10
4640.0
 20
-254.9999999999990052
 30
0.0
 11
4640.0
 21
-246.9999999999990052
 31
0.0
1001
ACDBBLOCKREPETAG
1070
     1
1071
       21
1005
0
  0
LINE
  5
12BF3C
  8
OBJECT
 10
4640.0
 20
-144.9999999999990905
 30
0.0
 11
4633.0
 21
-144.9999999999990905
 31
0.0
1001
ACDBBLOCKREPETAG
1070
     1
1071
       22
1005
0
  0
LINE
  5
12BF3D
  8
OBJECT
 10
4633.0
 20
-246.9999999999990052
 30
0.0
 11
4633.0
 21
-254.9999999999990052
 31
0.0
1001
ACDBBLOCKREPETAG
1070
     1
1071
       23
1005
0
  0
LINE
  5
12BF3E
  8
OBJECT
 10
4633.0
 20
-251.9999999999990052
 30
0.0
 11
4597.0
 21
-251.9999999999990052
 31
0.0
1001
ACDBBLOCKREPETAG
1070
     1
1071
       25
1005
0
  0
LINE
  5
12BF3F
  8
OBJECT
 10
4597.0
 20
-251.9999999999990052
 30
0.0
 11
4597.0
 21
-243.9999999999990905
 31
0.0
1001
ACDBBLOCKREPETAG
1070
     1
1071
       26
1005
0
  0
LINE
  5
12BF40
  8
OBJECT
 10
4597.0
 20
-147.9999999999990905
 30
0.0
 11
4633.0
 21
-147.9999999999990905
 31
0.0
1001
ACDBBLOCKREPETAG
1070
     1
1071
       27
1005
0
  0
LINE
  5
12BF41
  8
OBJECT
 10
4593.0
 20
-247.4999999999990052
 30
0.0
 11
4586.0
 21
-247.4999999999990052
 31
0.0
1001
ACDBBLOCKREPETAG
1070
     1
1071
       28
1005
0
  0
LINE
  5
12BF42
  8
OBJECT
 10
4586.0
 20
-152.4999999999990905
 30
0.0
 11
4593.0
 21
-152.4999999999990905
 31
0.0
1001
ACDBBLOCKREPETAG
1070
     1
1071
       29
1005
0
  0
LINE
  5
12BF43
  8
OBJECT
 10
4593.0
 20
-239.4999999999990905
 30
0.0
 11
4593.0
 21
-247.4999999999990052
 31
0.0
1001
ACDBBLOCKREPETAG
1070
     1
1071
       30
1005
0
  0
LINE
  5
12BF44
  8
OBJECT
 10
4597.0
 20
-251.9999999999990052
 30
0.0
 11
4593.0
 21
-247.4999999999990052
 31
0.0
1001
ACDBBLOCKREPETAG
1070
     1
1071
       31
1005
0
  0
LINE
  5
12BF45
  8
OBJECT
 10
4597.0
 20
-147.9999999999990905
 30
0.0
 11
4593.0
 21
-152.4999999999990905
 31
0.0
1001
ACDBBLOCKREPETAG
1070
     1
1071
       32
1005
0
  0
LINE
  5
12BF46
  8
OBJECT
 10
4640.0
 20
-144.9999999999990905
 30
0.0
 11
4640.0
 21
-152.9999999999990905
 31
0.0
1001
ACDBBLOCKREPETAG
1070
     1
1071
       21
1005
0
  0
LINE
  5
12BF47
  8
OBJECT
 10
4633.0
 20
-152.9999999999990905
 30
0.0
 11
4633.0
 21
-144.9999999999990905
 31
0.0
1001
ACDBBLOCKREPETAG
1070
     1
1071
       23
1005
0
  0
LINE
  5
12BF48
  8
OBJECT
 10
4597.0
 20
-147.9999999999990905
 30
0.0
 11
4597.0
 21
-155.9999999999990905
 31
0.0
1001
ACDBBLOCKREPETAG
1070
     1
1071
       26
1005
0
  0
LINE
  5
12BF49
  8
OBJECT
 10
4593.0
 20
-160.4999999999990905
 30
0.0
 11
4593.0
 21
-152.4999999999990905
 31
0.0
1001
ACDBBLOCKREPETAG
1070
     1
1071
       30
1005
0
  0
TEXT
  5
12BF59
  8
SLIM
 10
0.0
 20
369.9999999999998863
 30
0.0
 40
100.0
  1
4SR2-A1-BX0X0-PXXX-S
 41
0.75
  0
TEXT
  5
12BF5A
  8
SLIM
 10
2350.0
 20
369.9999999999998863
 30
0.0
 40
100.0
  1
4SR2-A1-B2020-P300
 41
0.75
  0
TEXT
  5
12BF5B
  8
SLIM
 10
2350.0
 20
532.5
 30
0.0
 40
75.0
  1
側面図の代表機種
 41
0.75
  0
TEXT
  5
12BF5C
  8
SLIM
 10
2337.75
 20
282.5000000000001137
 30
0.0
 40
35.0
  1
（枝管サイズ毎に寸法が異なります。管底の位置は全サイズで同じです）
 41
0.75
  0
TEXT
  5
12BF5D
  8
SLIM
 10
2396.75
 20
-4102.4999999999954525
 30
0.0
 40
35.0
  1
通常枝50（1）
 41
0.75
  0
TEXT
  5
12BF5E
  8
SLIM
 10
3394.2499999999990905
 20
-4102.4999999999954525
 30
0.0
 40
35.0
  1
通常枝65（2）
 41
0.75
  0
TEXT
  5
12BF5F
  8
SLIM
 10
4394.25
 20
-4102.4999999999954525
 30
0.0
 40
35.0
  1
通常枝75（3）
 41
0.75
  0
TEXT
  5
12BF60
  8
SLIM
 10
2350.0
 20
-3117.5000000000009095
 30
0.0
 40
75.0
  1
下部枝管サイズ毎の形状
 41
0.75
  0
TEXT
  5
12BF61
  8
SLIM
 10
3542.1428571428559735
 20
-3217.5000160472709467
 30
0.0
 40
40.0
  1
110
 41
0.75
  0
TEXT
  5
12BF62
  8
SLIM
 10
3420.0
 20
-3217.5000160472709467
 30
0.0
 40
40.0
  1
94
 41
0.75
  0
TEXT
  5
12BF63
  8
SLIM
 10
3668.5714285714288962
 20
-3217.5000160472709467
 30
0.0
 40
40.0
  1
124
 41
0.75
  0
TEXT
  5
12BF64
  8
SLIM
 10
3397.0
 20
-3147.5000160472709467
 30
0.0
 40
30.0
  1
50（1）
 41
0.75
  0
TEXT
  5
12BF65
  8
SLIM
 10
3524.8571428571422075
 20
-3147.5000160472709467
 30
0.0
 40
30.0
  1
65（2）
 41
0.75
  0
TEXT
  5
12BF66
  8
SLIM
 10
3654.8571428571422075
 20
-3147.5000160472709467
 30
0.0
 40
30.0
  1
75（3）
 41
0.75
  0
TEXT
  5
12BF67
  8
SLIM
 10
3471.0
 20
-3092.5000160472709467
 30
0.0
 40
40.0
  1
横枝管サイズ
 41
0.75
  0
TEXT
  5
12BF68
  8
SLIM
 10
3550.7142857142848698
 20
-3287.5000160472709467
 30
0.0
 40
40.0
  1
52
 41
0.75
  0
TEXT
  5
12BF69
  8
SLIM
 10
3420.0
 20
-3287.5000160472709467
 30
0.0
 40
40.0
  1
44
 41
0.75
  0
TEXT
  5
12BF6A
  8
SLIM
 10
3681.4285714285711038
 20
-3287.5000160472709467
 30
0.0
 40
40.0
  1
59
 41
0.75
  0
TEXT
  5
12BF6B
  8
SLIM
 10
3539.2857142857151302
 20
-3357.5000160472700372
 30
0.0
 40
40.0
  1
140
 41
0.75
  0
TEXT
  5
12BF6C
  8
SLIM
 10
3409.2857142857151302
 20
-3357.5000160472700372
 30
0.0
 40
40.0
  1
140
 41
0.75
  0
TEXT
  5
12BF6D
  8
SLIM
 10
3669.2857142857142208
 20
-3357.5000160472700372
 30
0.0
 40
40.0
  1
140
 41
0.75
  0
TEXT
  5
12BF6E
  8
SLIM
 10
3270.2857142857151302
 20
-3217.5000160472709467
 30
0.0
 40
40.0
  1
A寸法
 41
0.75
  0
TEXT
  5
12BF6F
  8
SLIM
 10
3270.9999999999990905
 20
-3287.5000160472709467
 30
0.0
 40
40.0
  1
B寸法
 41
0.75
  0
TEXT
  5
12BF70
  8
SLIM
 10
3270.9999999999990905
 20
-3357.5000160472700372
 30
0.0
 40
40.0
  1
C寸法
 41
0.75
  0
LINE
  5
12BF71
  8
DIM
 10
2500.0
 20
-3479.9999999999959073
 30
0.0
 11
2500.0
 21
-3442.2081219844449151
 31
0.0
  0
LINE
  5
12BF72
  8
DIM
 10
2640.0
 20
-3522.9999999999959073
 30
0.0
 11
2640.0
 21
-3442.2081219844449151
 31
0.0
  0
LINE
  5
12BF73
  8
DIM
 10
2520.0
 20
-3452.2081219844440056
 30
0.0
 11
2620.0
 21
-3452.2081219844440056
 31
0.0
  0
INSERT
  5
12BF74
  8
DIM
  2
_OPEN30
 10
2500.0
 20
-3452.2081219844440056
 30
0.0
 41
20.0
 42
20.0
 43
20.0
 50
180.0
  0
INSERT
  5
12BF75
  8
DIM
  2
_OPEN30
 10
2640.0
 20
-3452.2081219844440056
 30
0.0
 41
20.0
 42
20.0
 43
20.0
  0
INSERT
  5
12BF76
  8
SLIM
  2
*U4
 10
0.0
 20
0.0
 30
0.0
  0
LINE
  5
12BF77
  8
DIM
 10
2650.0
 20
-3984.9999999999990905
 30
0.0
 11
2726.8409284037338693
 21
-3984.9999999999990905
 31
0.0
  0
LINE
  5
12BF78
  8
DIM
 10
2665.0
 20
-3940.9999999999990905
 30
0.0
 11
2726.8409284037338693
 21
-3940.9999999999990905
 31
0.0
  0
LINE
  5
12BF79
  8
DIM
 10
2716.8409284037338693
 20
-4004.9999999999990905
 30
0.0
 11
2716.8409284037338693
 21
-4024.9999999999968168
 31
0.0
  0
LINE
  5
12BF7A
  8
DIM
 10
2716.8409284037338693
 20
-3920.9999999999968168
 30
0.0
 11
2716.8409284037338693
 21
-3900.999999999998181
 31
0.0
  0
LINE
  5
12BF7B
  8
DIM
 10
2716.8409284037338693
 20
-3984.9999999999990905
 30
0.0
 11
2716.8409284037338693
 21
-3940.9999999999990905
 31
0.0
  0
INSERT
  5
12BF7C
  8
DIM
  2
_OPEN30
 10
2716.8409284037338693
 20
-3984.9999999999990905
 30
0.0
 41
20.0
 42
20.0
 43
20.0
 50
90.0
  0
INSERT
  5
12BF7D
  8
DIM
  2
_OPEN30
 10
2716.8409284037338693
 20
-3940.9999999999990905
 30
0.0
 41
20.0
 42
20.0
 43
20.0
 50
270.0
  0
INSERT
  5
12BF7E
  8
SLIM
  2
*U5
 10
0.0
 20
0.0
 30
0.0
  0
LINE
  5
12BF7F
  8
DIM
 10
2650.0
 20
-3626.9999999999968168
 30
0.0
 11
2728.4796205944589929
 21
-3626.9999999999968168
 31
0.0
  0
LINE
  5
12BF80
  8
DIM
 10
2650.0
 20
-3532.9999999999959073
 30
0.0
 11
2728.4796205944589929
 21
-3532.9999999999959073
 31
0.0
  0
LINE
  5
12BF81
  8
DIM
 10
2718.4796205944589929
 20
-3606.9999999999968168
 30
0.0
 11
2718.4796205944589929
 21
-3552.9999999999968168
 31
0.0
  0
INSERT
  5
12BF82
  8
DIM
  2
_OPEN30
 10
2718.4796205944589929
 20
-3626.9999999999968168
 30
0.0
 41
20.0
 42
20.0
 43
20.0
 50
270.0
  0
INSERT
  5
12BF83
  8
DIM
  2
_OPEN30
 10
2718.4796205944589929
 20
-3532.9999999999959073
 30
0.0
 41
20.0
 42
20.0
 43
20.0
 50
90.0
  0
INSERT
  5
12BF84
  8
SLIM
  2
*U6
 10
0.0
 20
0.0
 30
0.0
  0
TEXT
  5
12BF85
  8
SLIM
 10
0.0000035665234464
 20
24.0000045853176012
 30
0.0
 40
79.9999999999727152
  1
上部枝管
 41
0.75
1001
ACDBBLOCKREPETAG
1070
     1
1071
      119
1005
120BCB
  0
TEXT
  5
12BF86
  8
SLIM
 10
156.8571428570824082
 20
-443.999999999849706
 30
0.0
 40
48.0
  1
A1
 41
0.75
1001
ACDBBLOCKREPETAG
1070
     1
1071
      119
1005
0
  0
LINE
  5
12BF87
  8
OBJECT
 10
2633.0
 20
-3532.9999999999959073
 30
0.0
 11
2640.0
 21
-3532.9999999999959073
 31
0.0
1001
ACDBBLOCKREPETAG
1070
     1
1071
        0
1005
12BF87
  0
LINE
  5
12BF88
  8
OBJECT
 10
2640.0
 20
-3532.9999999999959073
 30
0.0
 11
2640.0
 21
-3626.9999999999968168
 31
0.0
1001
ACDBBLOCKREPETAG
1070
     1
1071
        1
1005
12BF88
  0
LINE
  5
12BF89
  8
OBJECT
 10
2640.0
 20
-3626.9999999999968168
 30
0.0
 11
2633.0
 21
-3626.9999999999968168
 31
0.0
1001
ACDBBLOCKREPETAG
1070
     1
1071
        2
1005
12BF89
  0
LINE
  5
12BF8A
  8
OBJECT
 10
2633.0
 20
-3626.9999999999968168
 30
0.0
 11
2633.0
 21
-3532.9999999999959073
 31
0.0
1001
ACDBBLOCKREPETAG
1070
     1
1071
        3
1005
12BF8A
  0
LINE
  5
12BF8B
  8
CENTER
 10
2655.0
 20
-3579.9999999999959073
 30
0.0
 11
2580.0
 21
-3579.9999999999959073
 31
0.0
1001
ACDBBLOCKREPETAG
1070
     1
1071
        4
1005
12BF8B
  0
LINE
  5
12BF8C
  8
OBJECT
 10
2633.0
 20
-3535.9999999999959073
 30
0.0
 11
2596.9999999999990905
 21
-3535.9999999999959073
 31
0.0
1001
ACDBBLOCKREPETAG
1070
     1
1071
        5
1005
12BF8C
  0
LINE
  5
12BF8D
  8
OBJECT
 10
2596.9999999999990905
 20
-3535.9999999999959073
 30
0.0
 11
2596.9999999999990905
 21
-3623.9999999999968168
 31
0.0
1001
ACDBBLOCKREPETAG
1070
     1
1071
        6
1005
12BF8D
  0
LINE
  5
12BF8E
  8
OBJECT
 10
2596.9999999999990905
 20
-3623.9999999999968168
 30
0.0
 11
2633.0
 21
-3623.9999999999968168
 31
0.0
1001
ACDBBLOCKREPETAG
1070
     1
1071
        7
1005
12BF8E
  0
LINE
  5
12BF8F
  8
OBJECT
 10
2593.0
 20
-3540.4999999999968168
 30
0.0
 11
2584.5
 21
-3540.4999999999968168
 31
0.0
1001
ACDBBLOCKREPETAG
1070
     1
1071
        8
1005
12BF8F
  0
LINE
  5
12BF90
  8
OBJECT
 10
2584.5
 20
-3619.4999999999968168
 30
0.0
 11
2593.0
 21
-3619.4999999999968168
 31
0.0
1001
ACDBBLOCKREPETAG
1070
     1
1071
        9
1005
12BF90
  0
LINE
  5
12BF91
  8
OBJECT
 10
2593.0
 20
-3619.4999999999968168
 30
0.0
 11
2593.0
 21
-3540.4999999999968168
 31
0.0
1001
ACDBBLOCKREPETAG
1070
     1
1071
       10
1005
12BF91
  0
LINE
  5
12BF92
  8
OBJECT
 10
2596.9999999999990905
 20
-3535.9999999999959073
 30
0.0
 11
2593.0
 21
-3540.4999999999968168
 31
0.0
1001
ACDBBLOCKREPETAG
1070
     1
1071
       11
1005
12BF92
  0
LINE
  5
12BF93
  8
OBJECT
 10
2596.9999999999990905
 20
-3623.9999999999968168
 30
0.0
 11
2593.0
 21
-3619.4999999999968168
 31
0.0
1001
ACDBBLOCKREPETAG
1070
     1
1071
       12
1005
12BF93
  0
LINE
  5
12BF94
  8
OBJECT
 10
2584.499999999998181
 20
-3626.4999999999959073
 30
0.0
 11
2584.5
 21
-3533.4999999999959073
 31
0.0
1001
ACDBBLOCKREPETAG
1070
     1
1071
       13
1005
12BF94
  0
ARC
  5
12BF95
  8
OBJECT
 10
2581.5
 20
-3533.4999999999959073
 30
0.0
 40
3.0
 50
0.0
 51
90.0
1001
ACDBBLOCKREPETAG
1070
     1
1071
       14
1005
12BF95
  0
LINE
  5
12BF96
  8
HIDDEN
 10
2588.0
 20
-3549.9999999999968168
 30
0.0
 11
2588.0
 21
-3609.9999999999968168
 31
0.0
1001
ACDBBLOCKREPETAG
1070
     1
1071
       15
1005
12BF96
  0
LINE
  5
12BF97
  8
OBJECT
 10
2581.5
 20
-3530.4999999999959073
 30
0.0
 11
2556.3449199129800036
 21
-3530.4999999999959073
 31
0.0
1001
ACDBBLOCKREPETAG
1070
     1
1071
       17
1005
12BF97
  0
LINE
  5
12BF98
  8
OBJECT
 10
2581.499999999998181
 20
-3629.4999999999968168
 30
0.0
 11
2556.3449199129800036
 21
-3629.4999999999968168
 31
0.0
1001
ACDBBLOCKREPETAG
1070
     1
1071
       18
1005
12BF98
  0
ARC
  5
12BF99
  8
OBJECT
 10
2581.499999999998181
 20
-3626.4999999999959073
 30
0.0
 40
3.0
 50
270.0
 51
0.0
1001
ACDBBLOCKREPETAG
1070
     1
1071
       19
1005
12BF99
  0
LINE
  5
12BF9A
  8
OBJECT
 10
2633.0
 20
-3893.9999999999959073
 30
0.0
 11
2640.0
 21
-3893.9999999999959073
 31
0.0
1001
ACDBBLOCKREPETAG
1070
     1
1071
        0
1005
12BF9A
  0
LINE
  5
12BF9B
  8
OBJECT
 10
2640.0
 20
-3893.9999999999959073
 30
0.0
 11
2640.0
 21
-3984.9999999999968168
 31
0.0
1001
ACDBBLOCKREPETAG
1070
     1
1071
        1
1005
12BF9B
  0
LINE
  5
12BF9C
  8
OBJECT
 10
2584.5
 20
-3879.5000000000609361
 30
0.0
 11
2584.5
 21
-3982.4999999999968168
 31
0.0
1001
ACDBBLOCKREPETAG
1070
     1
1071
        2
1005
12BF9C
  0
ARC
  5
12BF9D
  8
OBJECT
 10
2581.5
 20
-3879.5000000000609361
 30
0.0
 40
3.0
 50
0.0
 51
90.0
1001
ACDBBLOCKREPETAG
1070
     1
1071
        3
1005
12BF9D
  0
LINE
  5
12BF9E
  8
OBJECT
 10
2633.0
 20
-3984.9999999999968168
 30
0.0
 11
2633.0
 21
-3893.9999999999959073
 31
0.0
1001
ACDBBLOCKREPETAG
1070
     1
1071
        4
1005
12BF9E
  0
LINE
  5
12BF9F
  8
CENTER
 10
2655.0
 20
-3940.9999999999959073
 30
0.0
 11
2541.9118237135839991
 21
-3940.9999999999959073
 31
0.0
1001
ACDBBLOCKREPETAG
1070
     1
1071
        5
1005
12BF9F
  0
LINE
  5
12BFA0
  8
OBJECT
 10
2633.0
 20
-3896.9999999999968168
 30
0.0
 11
2596.9999999999990905
 21
-3896.9999999999968168
 31
0.0
1001
ACDBBLOCKREPETAG
1070
     1
1071
        6
1005
12BFA0
  0
LINE
  5
12BFA1
  8
OBJECT
 10
2596.9999999999990905
 20
-3896.9999999999968168
 30
0.0
 11
2596.9999999999990905
 21
-3984.9999999999968168
 31
0.0
1001
ACDBBLOCKREPETAG
1070
     1
1071
        7
1005
12BFA1
  0
LINE
  5
12BFA2
  8
OBJECT
 10
2596.9999999999990905
 20
-3984.9999999999968168
 30
0.0
 11
2640.0
 21
-3984.9999999999968168
 31
0.0
1001
ACDBBLOCKREPETAG
1070
     1
1071
        8
1005
12BFA2
  0
LINE
  5
12BFA3
  8
OBJECT
 10
2593.0
 20
-3901.4999999999968168
 30
0.0
 11
2584.5
 21
-3901.4999999999968168
 31
0.0
1001
ACDBBLOCKREPETAG
1070
     1
1071
        9
1005
12BFA3
  0
LINE
  5
12BFA4
  8
OBJECT
 10
2584.5
 20
-3980.4999999999968168
 30
0.0
 11
2593.0
 21
-3980.4999999999968168
 31
0.0
1001
ACDBBLOCKREPETAG
1070
     1
1071
       10
1005
12BFA4
  0
LINE
  5
12BFA5
  8
OBJECT
 10
2593.0
 20
-3980.4999999999968168
 30
0.0
 11
2593.0
 21
-3901.4999999999968168
 31
0.0
1001
ACDBBLOCKREPETAG
1070
     1
1071
       11
1005
12BFA5
  0
LINE
  5
12BFA6
  8
OBJECT
 10
2596.9999999999990905
 20
-3896.9999999999968168
 30
0.0
 11
2593.0
 21
-3901.4999999999968168
 31
0.0
1001
ACDBBLOCKREPETAG
1070
     1
1071
       12
1005
12BFA6
  0
LINE
  5
12BFA7
  8
OBJECT
 10
2596.9999999999990905
 20
-3984.9999999999968168
 30
0.0
 11
2593.0
 21
-3980.4999999999968168
 31
0.0
1001
ACDBBLOCKREPETAG
1070
     1
1071
       13
1005
12BFA7
  0
LINE
  5
12BFA8
  8
HIDDEN
 10
2588.0
 20
-3910.9999999999959073
 30
0.0
 11
2588.0
 21
-3970.9999999999959073
 31
0.0
1001
ACDBBLOCKREPETAG
1070
     1
1071
       14
1005
12BFA8
  0
ARC
  5
12BFA9
  8
OBJECT
 10
2664.8782728787741689
 20
-3941.4095072612258264
 30
0.0
 40
110.866352283089995
 50
144.1634274191434031
 51
163.0403538043316871
1001
ACDBBLOCKREPETAG
1070
     1
1071
       15
1005
12BFA9
  0
ARC
  5
12BFAA
  8
OBJECT
 10
2617.1359887769071975
 20
-3926.2877497184458662
 30
0.0
 40
60.7917498803589567
 50
163.5472046522266965
 51
179.7287969828267933
1001
ACDBBLOCKREPETAG
1070
     1
1071
       16
1005
12BFAA
  0
ARC
  5
12BFAB
  8
OBJECT
 10
2617.1359956562478146
 20
-3932.7122497598979862
 30
0.0
 40
60.7917567620948702
 50
180.2712034781451962
 51
196.4527794605338045
1001
ACDBBLOCKREPETAG
1070
     1
1071
       17
1005
12BFAB
  0
ARC
  5
12BFAC
  8
OBJECT
 10
2664.8782728787741689
 20
-3917.590492738832836
 30
0.0
 40
110.8663522830916008
 50
196.9596461956681139
 51
215.8365725808565969
1001
ACDBBLOCKREPETAG
1070
     1
1071
       18
1005
12BFAC
  0
LINE
  5
12BFAD
  8
OBJECT
 10
2556.3449199130041052
 20
-3926.0000000000331966
 30
0.0
 11
2556.3449199130041052
 21
-3933.0000000000291038
 31
0.0
1001
ACDBBLOCKREPETAG
1070
     1
1071
       19
1005
12BFAD
  0
LINE
  5
12BFAE
  8
OBJECT
 10
2575.0
 20
-3876.5000000000609361
 30
0.0
 11
2581.5
 21
-3876.5000000000609361
 31
0.0
1001
ACDBBLOCKREPETAG
1070
     1
1071
       20
1005
12BFAE
  0
LINE
  5
12BFAF
  8
OBJECT
 10
2575.0
 20
-3982.4999999999968168
 30
0.0
 11
2584.5
 21
-3982.4999999999968168
 31
0.0
1001
ACDBBLOCKREPETAG
1070
     1
1071
       21
1005
12BFAF
  0
LINE
  5
12BFB0
  8
CENTER
 10
2838.0
 20
-3940.9999999999959073
 30
0.0
 11
2962.0
 21
-3940.9999999999959073
 31
0.0
1001
ACDBBLOCKREPETAG
1070
     1
1071
        0
1005
12BFB0
  0
CIRCLE
  5
12BFB1
  8
OBJECT
 10
2900.0
 20
-3940.9999999999959073
 30
0.0
 40
28.0
1001
ACDBBLOCKREPETAG
1070
     1
1071
        2
1005
12BFB1
  0
CIRCLE
  5
12BFB2
  8
OBJECT
 10
2900.0
 20
-3940.9999999999959073
 30
0.0
 40
39.0
1001
ACDBBLOCKREPETAG
1070
     1
1071
        3
1005
12BFB2
  0
ARC
  5
12BFB3
  8
OBJECT
 10
2900.0
 20
-3940.9999999999959073
 30
0.0
 40
47.0
 50
290.5819692114441182
 51
249.4180307885559102
1001
ACDBBLOCKREPETAG
1070
     1
1071
        4
1005
12BFB3
  0
LINE
  5
12BFB4
  8
OBJECT
 10
2883.4772883581417773
 20
-3984.9999999999968168
 30
0.0
 11
2916.5227116418568585
 21
-3984.9999999999968168
 31
0.0
1001
ACDBBLOCKREPETAG
1070
     1
1071
        5
1005
12BFB4
  0
ARC
  5
12BFB5
  8
OBJECT
 10
2900.0
 20
-3925.9999999999931788
 30
0.0
 40
49.5
 50
0.0
 51
180.0
1001
ACDBBLOCKREPETAG
1070
     1
1071
        6
1005
12BFB5
  0
LINE
  5
12BFB6
  8
OBJECT
 10
2850.5000000000031832
 20
-3925.9999999999931788
 30
0.0
 11
2850.5000000000031832
 21
-3932.9999999999959073
 31
0.0
1001
ACDBBLOCKREPETAG
1070
     1
1071
        7
1005
12BFB6
  0
LINE
  5
12BFB7
  8
OBJECT
 10
2949.5000000000068212
 20
-3925.9999999999931788
 30
0.0
 11
2949.5000000000068212
 21
-3932.9999999999959073
 31
0.0
1001
ACDBBLOCKREPETAG
1070
     1
1071
        8
1005
12BFB7
  0
ARC
  5
12BFB8
  8
OBJECT
 10
2900.0
 20
-3932.9999999999959073
 30
0.0
 40
49.5
 50
180.0
 51
202.6695638510487925
1001
ACDBBLOCKREPETAG
1070
     1
1071
        9
1005
12BFB8
  0
ARC
  5
12BFB9
  8
OBJECT
 10
2900.0
 20
-3932.9999999999959073
 30
0.0
 40
49.5
 50
337.3304361489512075
 51
0.0
1001
ACDBBLOCKREPETAG
1070
     1
1071
       10
1005
12BFB9
  0
POINT
  5
12BFBA
  8
DOTS
 10
2900.0
 20
-3984.9999999999968168
 30
0.0
1001
ACDBBLOCKREPETAG
1070
     1
1071
       25
1005
12BFBA
  0
LINE
  5
12BFBB
  8
OBJECT
 10
3633.0
 20
-3524.9999999999968168
 30
0.0
 11
3640.0
 21
-3524.9999999999968168
 31
0.0
1001
ACDBBLOCKREPETAG
1070
     1
1071
       20
1005
12BFBB
  0
LINE
  5
12BFBC
  8
OBJECT
 10
3640.0
 20
-3524.9999999999968168
 30
0.0
 11
3640.0
 21
-3634.9999999999968168
 31
0.0
1001
ACDBBLOCKREPETAG
1070
     1
1071
       21
1005
12BFBC
  0
LINE
  5
12BFBD
  8
OBJECT
 10
3640.0
 20
-3634.9999999999968168
 30
0.0
 11
3633.0
 21
-3634.9999999999968168
 31
0.0
1001
ACDBBLOCKREPETAG
1070
     1
1071
       22
1005
12BFBD
  0
LINE
  5
12BFBE
  8
OBJECT
 10
3633.0
 20
-3634.9999999999968168
 30
0.0
 11
3633.0
 21
-3524.9999999999968168
 31
0.0
1001
ACDBBLOCKREPETAG
1070
     1
1071
       23
1005
12BFBE
  0
LINE
  5
12BFBF
  8
CENTER
 10
3655.0
 20
-3579.9999999999959073
 30
0.0
 11
3580.0
 21
-3579.9999999999959073
 31
0.0
1001
ACDBBLOCKREPETAG
1070
     1
1071
       24
1005
12BFBF
  0
LINE
  5
12BFC0
  8
OBJECT
 10
3633.0
 20
-3527.9999999999968168
 30
0.0
 11
3597.0
 21
-3527.9999999999968168
 31
0.0
1001
ACDBBLOCKREPETAG
1070
     1
1071
       25
1005
12BFC0
  0
LINE
  5
12BFC1
  8
OBJECT
 10
3597.0
 20
-3527.9999999999968168
 30
0.0
 11
3597.0
 21
-3631.9999999999968168
 31
0.0
1001
ACDBBLOCKREPETAG
1070
     1
1071
       26
1005
12BFC1
  0
LINE
  5
12BFC2
  8
OBJECT
 10
3597.0
 20
-3631.9999999999968168
 30
0.0
 11
3633.0
 21
-3631.9999999999968168
 31
0.0
1001
ACDBBLOCKREPETAG
1070
     1
1071
       27
1005
12BFC2
  0
LINE
  5
12BFC3
  8
OBJECT
 10
3593.0
 20
-3532.4999999999968168
 30
0.0
 11
3584.5
 21
-3532.4999999999968168
 31
0.0
1001
ACDBBLOCKREPETAG
1070
     1
1071
       28
1005
12BFC3
  0
LINE
  5
12BFC4
  8
OBJECT
 10
3584.5
 20
-3627.4999999999959073
 30
0.0
 11
3593.0
 21
-3627.4999999999959073
 31
0.0
1001
ACDBBLOCKREPETAG
1070
     1
1071
       29
1005
12BFC4
  0
LINE
  5
12BFC5
  8
OBJECT
 10
3593.0
 20
-3627.4999999999959073
 30
0.0
 11
3593.0
 21
-3532.4999999999968168
 31
0.0
1001
ACDBBLOCKREPETAG
1070
     1
1071
       30
1005
12BFC5
  0
LINE
  5
12BFC6
  8
OBJECT
 10
3597.0
 20
-3527.9999999999968168
 30
0.0
 11
3593.0
 21
-3532.4999999999968168
 31
0.0
1001
ACDBBLOCKREPETAG
1070
     1
1071
       31
1005
12BFC6
  0
LINE
  5
12BFC7
  8
OBJECT
 10
3597.0
 20
-3631.9999999999968168
 30
0.0
 11
3593.0
 21
-3627.4999999999959073
 31
0.0
1001
ACDBBLOCKREPETAG
1070
     1
1071
       32
1005
12BFC7
  0
LINE
  5
12BFC8
  8
OBJECT
 10
3584.499999999998181
 20
-3629.4999999999968168
 30
0.0
 11
3584.5
 21
-3530.4999999999959073
 31
0.0
1001
ACDBBLOCKREPETAG
1070
     1
1071
       33
1005
12BFC8
  0
LINE
  5
12BFC9
  8
HIDDEN
 10
3588.0
 20
-3541.9999999999968168
 30
0.0
 11
3588.0
 21
-3617.9999999999968168
 31
0.0
1001
ACDBBLOCKREPETAG
1070
     1
1071
       34
1005
12BFC9
  0
LINE
  5
12BFCA
  8
OBJECT
 10
3584.5
 20
-3530.4999999999959073
 30
0.0
 11
3556.3449199129800036
 21
-3530.4999999999959073
 31
0.0
1001
ACDBBLOCKREPETAG
1070
     1
1071
       35
1005
12BFCA
  0
LINE
  5
12BFCB
  8
OBJECT
 10
3584.499999999998181
 20
-3629.4999999999968168
 30
0.0
 11
3556.3449199129800036
 21
-3629.4999999999968168
 31
0.0
1001
ACDBBLOCKREPETAG
1070
     1
1071
       36
1005
12BFCB
  0
LINE
  5
12BFCC
  8
OBJECT
 10
3633.0
 20
-3877.9999999999959073
 30
0.0
 11
3640.0
 21
-3877.9999999999959073
 31
0.0
1001
ACDBBLOCKREPETAG
1070
     1
1071
       23
1005
12BFCC
  0
LINE
  5
12BFCD
  8
OBJECT
 10
3640.0
 20
-3877.9999999999959073
 30
0.0
 11
3640.0
 21
-3984.9999999999968168
 31
0.0
1001
ACDBBLOCKREPETAG
1070
     1
1071
       24
1005
12BFCD
  0
LINE
  5
12BFCE
  8
OBJECT
 10
3584.5
 20
-3879.5000000000609361
 30
0.0
 11
3584.5
 21
-3982.4999999999968168
 31
0.0
1001
ACDBBLOCKREPETAG
1070
     1
1071
       25
1005
12BFCE
  0
ARC
  5
12BFCF
  8
OBJECT
 10
3581.5
 20
-3879.5000000000609361
 30
0.0
 40
3.0
 50
0.0
 51
90.0
1001
ACDBBLOCKREPETAG
1070
     1
1071
       26
1005
12BFCF
  0
LINE
  5
12BFD0
  8
OBJECT
 10
3633.0
 20
-3984.9999999999968168
 30
0.0
 11
3633.0
 21
-3877.9999999999959073
 31
0.0
1001
ACDBBLOCKREPETAG
1070
     1
1071
       27
1005
12BFD0
  0
LINE
  5
12BFD1
  8
CENTER
 10
3655.0
 20
-3932.9999999999959073
 30
0.0
 11
3541.3449199130041052
 21
-3933.0000000000618456
 31
0.0
1001
ACDBBLOCKREPETAG
1070
     1
1071
       28
1005
12BFD1
  0
LINE
  5
12BFD2
  8
OBJECT
 10
3633.0
 20
-3880.9999999999968168
 30
0.0
 11
3597.0
 21
-3880.9999999999968168
 31
0.0
1001
ACDBBLOCKREPETAG
1070
     1
1071
       29
1005
12BFD2
  0
LINE
  5
12BFD3
  8
OBJECT
 10
3597.0
 20
-3880.9999999999968168
 30
0.0
 11
3597.0
 21
-3984.9999999999968168
 31
0.0
1001
ACDBBLOCKREPETAG
1070
     1
1071
       30
1005
12BFD3
  0
LINE
  5
12BFD4
  8
OBJECT
 10
3597.0
 20
-3984.9999999999968168
 30
0.0
 11
3640.0
 21
-3984.9999999999968168
 31
0.0
1001
ACDBBLOCKREPETAG
1070
     1
1071
       31
1005
12BFD4
  0
LINE
  5
12BFD5
  8
OBJECT
 10
3593.0
 20
-3885.4999999999959073
 30
0.0
 11
3584.5
 21
-3885.4999999999959073
 31
0.0
1001
ACDBBLOCKREPETAG
1070
     1
1071
       32
1005
12BFD5
  0
LINE
  5
12BFD6
  8
OBJECT
 10
3584.5
 20
-3980.4999999999968168
 30
0.0
 11
3593.0
 21
-3980.4999999999968168
 31
0.0
1001
ACDBBLOCKREPETAG
1070
     1
1071
       33
1005
12BFD6
  0
LINE
  5
12BFD7
  8
OBJECT
 10
3593.0
 20
-3980.4999999999968168
 30
0.0
 11
3593.0
 21
-3885.4999999999959073
 31
0.0
1001
ACDBBLOCKREPETAG
1070
     1
1071
       34
1005
12BFD7
  0
LINE
  5
12BFD8
  8
OBJECT
 10
3597.0
 20
-3880.9999999999968168
 30
0.0
 11
3593.0
 21
-3885.4999999999959073
 31
0.0
1001
ACDBBLOCKREPETAG
1070
     1
1071
       35
1005
12BFD8
  0
LINE
  5
12BFD9
  8
OBJECT
 10
3597.0
 20
-3984.9999999999968168
 30
0.0
 11
3593.0
 21
-3980.4999999999968168
 31
0.0
1001
ACDBBLOCKREPETAG
1070
     1
1071
       36
1005
12BFD9
  0
LINE
  5
12BFDA
  8
HIDDEN
 10
3588.0
 20
-3894.9999999999968168
 30
0.0
 11
3588.0
 21
-3970.9999999999959073
 31
0.0
1001
ACDBBLOCKREPETAG
1070
     1
1071
       37
1005
12BFDA
  0
ARC
  5
12BFDB
  8
OBJECT
 10
3664.8782728787741689
 20
-3941.4095072612258264
 30
0.0
 40
110.866352283089995
 50
144.1634274192888938
 51
163.0403538043316871
1001
ACDBBLOCKREPETAG
1070
     1
1071
       38
1005
12BFDB
  0
ARC
  5
12BFDC
  8
OBJECT
 10
3617.135988776908107
 20
-3926.2877497184458662
 30
0.0
 40
60.7917498803589567
 50
163.5472046522266965
 51
179.7287969828267933
1001
ACDBBLOCKREPETAG
1070
     1
1071
       39
1005
12BFDC
  0
ARC
  5
12BFDD
  8
OBJECT
 10
3617.1359956562491789
 20
-3932.7122497598979862
 30
0.0
 40
60.7917567620948702
 50
180.2712034781451962
 51
196.4527794605338045
1001
ACDBBLOCKREPETAG
1070
     1
1071
       40
1005
12BFDD
  0
ARC
  5
12BFDE
  8
OBJECT
 10
3664.8782728787741689
 20
-3917.590492738832836
 30
0.0
 40
110.8663522830916008
 50
196.9596461956681139
 51
215.8365725807111062
1001
ACDBBLOCKREPETAG
1070
     1
1071
       41
1005
12BFDE
  0
LINE
  5
12BFDF
  8
OBJECT
 10
3556.3449199130041052
 20
-3926.0000000000331966
 30
0.0
 11
3556.3449199130041052
 21
-3933.0000000000291038
 31
0.0
1001
ACDBBLOCKREPETAG
1070
     1
1071
       42
1005
12BFDF
  0
LINE
  5
12BFE0
  8
OBJECT
 10
3574.9999999999990905
 20
-3876.5000000000609361
 30
0.0
 11
3581.5
 21
-3876.5000000000609361
 31
0.0
1001
ACDBBLOCKREPETAG
1070
     1
1071
       43
1005
12BFE0
  0
LINE
  5
12BFE1
  8
OBJECT
 10
3574.9999999999990905
 20
-3982.4999999999968168
 30
0.0
 11
3584.5
 21
-3982.4999999999968168
 31
0.0
1001
ACDBBLOCKREPETAG
1070
     1
1071
       44
1005
12BFE1
  0
CIRCLE
  5
12BFE2
  8
OBJECT
 10
3900.0
 20
-3932.9999999999959073
 30
0.0
 40
35.5
1001
ACDBBLOCKREPETAG
1070
     1
1071
       11
1005
12BFE2
  0
LINE
  5
12BFE3
  8
CENTER
 10
3830.0
 20
-3932.9999999999959073
 30
0.0
 11
3970.0
 21
-3932.9999999999959073
 31
0.0
1001
ACDBBLOCKREPETAG
1070
     1
1071
       12
1005
12BFE3
  0
CIRCLE
  5
12BFE4
  8
OBJECT
 10
3900.0
 20
-3932.9999999999959073
 30
0.0
 40
47.0
1001
ACDBBLOCKREPETAG
1070
     1
1071
       14
1005
12BFE4
  0
ARC
  5
12BFE5
  8
OBJECT
 10
3900.0
 20
-3932.9999999999959073
 30
0.0
 40
55.0
 50
289.0112652600889191
 51
250.9887347399111093
1001
ACDBBLOCKREPETAG
1070
     1
1071
       15
1005
12BFE5
  0
LINE
  5
12BFE6
  8
OBJECT
 10
3882.0835271328319322
 20
-3984.9999999999968168
 30
0.0
 11
3917.9164728671680678
 21
-3984.9999999999968168
 31
0.0
1001
ACDBBLOCKREPETAG
1070
     1
1071
       16
1005
12BFE6
  0
POINT
  5
12BFE7
  8
DOTS
 10
3900.0
 20
-3984.9999999999968168
 30
0.0
1001
ACDBBLOCKREPETAG
1070
     1
1071
       24
1005
12BFE7
  0
LINE
  5
12BFE8
  8
OBJECT
 10
4633.0000000000009095
 20
-3517.9999999999968168
 30
0.0
 11
4640.0000000000009095
 21
-3517.9999999999968168
 31
0.0
1001
ACDBBLOCKREPETAG
1070
     1
1071
       38
1005
12BFE8
  0
LINE
  5
12BFE9
  8
OBJECT
 10
4640.0000000000009095
 20
-3517.9999999999968168
 30
0.0
 11
4640.0
 21
-3641.9999999999968168
 31
0.0
1001
ACDBBLOCKREPETAG
1070
     1
1071
       39
1005
12BFE9
  0
LINE
  5
12BFEA
  8
OBJECT
 10
4640.0
 20
-3641.9999999999968168
 30
0.0
 11
4633.0
 21
-3641.9999999999968168
 31
0.0
1001
ACDBBLOCKREPETAG
1070
     1
1071
       40
1005
12BFEA
  0
LINE
  5
12BFEB
  8
OBJECT
 10
4633.0
 20
-3641.9999999999968168
 30
0.0
 11
4633.0000000000009095
 21
-3517.9999999999968168
 31
0.0
1001
ACDBBLOCKREPETAG
1070
     1
1071
       41
1005
12BFEB
  0
LINE
  5
12BFEC
  8
CENTER
 10
4655.0
 20
-3579.9999999999959073
 30
0.0
 11
4580.0
 21
-3579.9999999999959073
 31
0.0
1001
ACDBBLOCKREPETAG
1070
     1
1071
       42
1005
12BFEC
  0
LINE
  5
12BFED
  8
OBJECT
 10
4633.0000000000009095
 20
-3520.9999999999968168
 30
0.0
 11
4597.0000000000009095
 21
-3520.9999999999968168
 31
0.0
1001
ACDBBLOCKREPETAG
1070
     1
1071
       43
1005
12BFED
  0
LINE
  5
12BFEE
  8
OBJECT
 10
4597.0000000000009095
 20
-3520.9999999999968168
 30
0.0
 11
4597.0
 21
-3638.999999999998181
 31
0.0
1001
ACDBBLOCKREPETAG
1070
     1
1071
       44
1005
12BFEE
  0
LINE
  5
12BFEF
  8
OBJECT
 10
4597.0
 20
-3638.999999999998181
 30
0.0
 11
4633.0
 21
-3638.999999999998181
 31
0.0
1001
ACDBBLOCKREPETAG
1070
     1
1071
       45
1005
12BFEF
  0
LINE
  5
12BFF0
  8
OBJECT
 10
4593.0
 20
-3525.4999999999968168
 30
0.0
 11
4582.5000000000009095
 21
-3525.4999999999968168
 31
0.0
1001
ACDBBLOCKREPETAG
1070
     1
1071
       46
1005
12BFF0
  0
LINE
  5
12BFF1
  8
OBJECT
 10
4582.5
 20
-3634.4999999999959073
 30
0.0
 11
4593.0
 21
-3634.4999999999959073
 31
0.0
1001
ACDBBLOCKREPETAG
1070
     1
1071
       47
1005
12BFF1
  0
LINE
  5
12BFF2
  8
OBJECT
 10
4593.0
 20
-3634.4999999999959073
 30
0.0
 11
4593.0
 21
-3525.4999999999968168
 31
0.0
1001
ACDBBLOCKREPETAG
1070
     1
1071
       48
1005
12BFF2
  0
LINE
  5
12BFF3
  8
OBJECT
 10
4597.0000000000009095
 20
-3520.9999999999968168
 30
0.0
 11
4593.0
 21
-3525.4999999999968168
 31
0.0
1001
ACDBBLOCKREPETAG
1070
     1
1071
       49
1005
12BFF3
  0
LINE
  5
12BFF4
  8
OBJECT
 10
4597.0
 20
-3638.999999999998181
 30
0.0
 11
4593.0
 21
-3634.4999999999959073
 31
0.0
1001
ACDBBLOCKREPETAG
1070
     1
1071
       50
1005
12BFF4
  0
LINE
  5
12BFF5
  8
HIDDEN
 10
4588.0
 20
-3535.4999999999959073
 30
0.0
 11
4588.0
 21
-3624.4999999999959073
 31
0.0
1001
ACDBBLOCKREPETAG
1070
     1
1071
       51
1005
12BFF5
  0
LINE
  5
12BFF6
  8
OBJECT
 10
4577.5000000000009095
 20
-3530.4999999999959073
 30
0.0
 11
4556.3449199129790941
 21
-3530.4999999999959073
 31
0.0
1001
ACDBBLOCKREPETAG
1070
     1
1071
       52
1005
12BFF6
  0
LINE
  5
12BFF7
  8
OBJECT
 10
4577.4999999999990905
 20
-3629.4999999999968168
 30
0.0
 11
4556.3449199129790941
 21
-3629.4999999999968168
 31
0.0
1001
ACDBBLOCKREPETAG
1070
     1
1071
       53
1005
12BFF7
  0
LINE
  5
12BFF8
  8
OBJECT
 10
4582.5000000000009095
 20
-3525.4999999999968168
 30
0.0
 11
4582.5
 21
-3634.4999999999959073
 31
0.0
1001
ACDBBLOCKREPETAG
1070
     1
1071
       54
1005
12BFF8
  0
LINE
  5
12BFF9
  8
OBJECT
 10
4577.5000000000009095
 20
-3530.4999999999959073
 30
0.0
 11
4577.4999999999990905
 21
-3629.4999999999968168
 31
0.0
1001
ACDBBLOCKREPETAG
1070
     1
1071
       55
1005
12BFF9
  0
LINE
  5
12BFFA
  8
OBJECT
 10
4582.5000000000009095
 20
-3525.4999999999968168
 30
0.0
 11
4577.5000000000009095
 21
-3530.4999999999959073
 31
0.0
1001
ACDBBLOCKREPETAG
1070
     1
1071
       56
1005
12BFFA
  0
LINE
  5
12BFFB
  8
OBJECT
 10
4577.4999999999990905
 20
-3629.4999999999968168
 30
0.0
 11
4582.5
 21
-3634.4999999999931788
 31
0.0
1001
ACDBBLOCKREPETAG
1070
     1
1071
       57
1005
12BFFB
  0
LINE
  5
12BFFC
  8
OBJECT
 10
4633.0
 20
-3863.9999999999968168
 30
0.0
 11
4640.0
 21
-3863.9999999999968168
 31
0.0
1001
ACDBBLOCKREPETAG
1070
     1
1071
       46
1005
12BFFC
  0
LINE
  5
12BFFD
  8
OBJECT
 10
4640.0
 20
-3863.9999999999968168
 30
0.0
 11
4640.0
 21
-3984.9999999999968168
 31
0.0
1001
ACDBBLOCKREPETAG
1070
     1
1071
       47
1005
12BFFD
  0
LINE
  5
12BFFE
  8
OBJECT
 10
4633.0
 20
-3984.9999999999968168
 30
0.0
 11
4633.0
 21
-3863.9999999999968168
 31
0.0
1001
ACDBBLOCKREPETAG
1070
     1
1071
       48
1005
12BFFE
  0
LINE
  5
12BFFF
  8
CENTER
 10
4655.0
 20
-3925.9999999999959073
 30
0.0
 11
4541.3449199130036504
 21
-3926.0000000000618456
 31
0.0
1001
ACDBBLOCKREPETAG
1070
     1
1071
       49
1005
12BFFF
  0
LINE
  5
12C000
  8
OBJECT
 10
4633.0
 20
-3866.9999999999968168
 30
0.0
 11
4597.0
 21
-3866.9999999999968168
 31
0.0
1001
ACDBBLOCKREPETAG
1070
     1
1071
       50
1005
12C000
  0
LINE
  5
12C001
  8
OBJECT
 10
4597.0
 20
-3866.9999999999968168
 30
0.0
 11
4597.0
 21
-3984.9999999999968168
 31
0.0
1001
ACDBBLOCKREPETAG
1070
     1
1071
       51
1005
12C001
  0
LINE
  5
12C002
  8
OBJECT
 10
4597.0
 20
-3984.9999999999968168
 30
0.0
 11
4640.0
 21
-3984.9999999999968168
 31
0.0
1001
ACDBBLOCKREPETAG
1070
     1
1071
       52
1005
12C002
  0
LINE
  5
12C003
  8
OBJECT
 10
4593.0
 20
-3871.4999999999968168
 30
0.0
 11
4582.5
 21
-3871.4999999999968168
 31
0.0
1001
ACDBBLOCKREPETAG
1070
     1
1071
       53
1005
12C003
  0
LINE
  5
12C004
  8
OBJECT
 10
4582.5
 20
-3980.4999999999968168
 30
0.0
 11
4593.0
 21
-3980.4999999999968168
 31
0.0
1001
ACDBBLOCKREPETAG
1070
     1
1071
       54
1005
12C004
  0
LINE
  5
12C005
  8
OBJECT
 10
4593.0
 20
-3980.4999999999968168
 30
0.0
 11
4593.0
 21
-3871.4999999999968168
 31
0.0
1001
ACDBBLOCKREPETAG
1070
     1
1071
       55
1005
12C005
  0
LINE
  5
12C006
  8
OBJECT
 10
4597.0
 20
-3866.9999999999968168
 30
0.0
 11
4593.0
 21
-3871.4999999999968168
 31
0.0
1001
ACDBBLOCKREPETAG
1070
     1
1071
       56
1005
12C006
  0
LINE
  5
12C007
  8
OBJECT
 10
4597.0
 20
-3984.9999999999968168
 30
0.0
 11
4593.0
 21
-3980.4999999999968168
 31
0.0
1001
ACDBBLOCKREPETAG
1070
     1
1071
       57
1005
12C007
  0
LINE
  5
12C008
  8
HIDDEN
 10
4588.0
 20
-3881.4999999999959073
 30
0.0
 11
4588.0
 21
-3970.4999999999959073
 31
0.0
1001
ACDBBLOCKREPETAG
1070
     1
1071
       58
1005
12C008
  0
ARC
  5
12C009
  8
OBJECT
 10
4664.8782728787718952
 20
-3941.4095072612258264
 30
0.0
 40
110.866352283089995
 50
144.1634274192888938
 51
163.0403538043393894
1001
ACDBBLOCKREPETAG
1070
     1
1071
       59
1005
12C009
  0
ARC
  5
12C00A
  8
OBJECT
 10
4617.1359887769067427
 20
-3926.2877497184458662
 30
0.0
 40
60.7917498803589567
 50
163.5472046522193068
 51
179.7287969828265943
1001
ACDBBLOCKREPETAG
1070
     1
1071
       60
1005
12C00A
  0
ARC
  5
12C00B
  8
OBJECT
 10
4617.1359956562482694
 20
-3932.7122497598979862
 30
0.0
 40
60.7917567620948702
 50
180.2712034781451962
 51
196.4527794605265001
1001
ACDBBLOCKREPETAG
1070
     1
1071
       61
1005
12C00B
  0
ARC
  5
12C00C
  8
OBJECT
 10
4664.8782728787718952
 20
-3917.590492738832836
 30
0.0
 40
110.8663522830916008
 50
196.9596461956604969
 51
215.8365725807111062
1001
ACDBBLOCKREPETAG
1070
     1
1071
       62
1005
12C00C
  0
LINE
  5
12C00D
  8
OBJECT
 10
4556.3449199130036504
 20
-3926.0000000000331966
 30
0.0
 11
4556.3449199130036504
 21
-3933.0000000000291038
 31
0.0
1001
ACDBBLOCKREPETAG
1070
     1
1071
       63
1005
12C00D
  0
LINE
  5
12C00E
  8
OBJECT
 10
4574.9999999998335625
 20
-3876.5000000002910383
 30
0.0
 11
4577.499999999836291
 21
-3876.5000000002910383
 31
0.0
1001
ACDBBLOCKREPETAG
1070
     1
1071
       65
1005
12C00E
  0
LINE
  5
12C00F
  8
OBJECT
 10
4574.999999999832653
 20
-3982.4999999997671694
 30
0.0
 11
4579.499999999830834
 21
-3982.4999999997671694
 31
0.0
1001
ACDBBLOCKREPETAG
1070
     1
1071
       66
1005
12C00F
  0
LINE
  5
12C010
  8
OBJECT
 10
4579.499999999830834
 20
-3982.4999999997671694
 30
0.0
 11
4577.499999999836291
 21
-3876.5000000002910383
 31
0.0
1001
ACDBBLOCKREPETAG
1070
     1
1071
       67
1005
12C010
  0
LINE
  5
12C011
  8
OBJECT
 10
4579.499999999830834
 20
-3982.4999999997671694
 30
0.0
 11
4582.5
 21
-3980.4999999999968168
 31
0.0
1001
ACDBBLOCKREPETAG
1070
     1
1071
       68
1005
12C011
  0
LINE
  5
12C012
  8
OBJECT
 10
4582.5
 20
-3980.4999999999968168
 30
0.0
 11
4582.5
 21
-3871.4999999999968168
 31
0.0
1001
ACDBBLOCKREPETAG
1070
     1
1071
       69
1005
12C012
  0
LINE
  5
12C013
  8
OBJECT
 10
4582.5
 20
-3871.4999999999968168
 30
0.0
 11
4577.499999999836291
 21
-3876.5000000002910383
 31
0.0
1001
ACDBBLOCKREPETAG
1070
     1
1071
       70
1005
12C013
  0
LINE
  5
12C014
  8
CENTER
 10
4977.0
 20
-3925.9999999999959073
 30
0.0
 11
4823.0
 21
-3925.9999999999959073
 31
0.0
1001
ACDBBLOCKREPETAG
1070
     1
1071
       17
1005
12C014
  0
CIRCLE
  5
12C015
  8
OBJECT
 10
4900.0
 20
-3925.9999999999959073
 30
0.0
 40
41.5
1001
ACDBBLOCKREPETAG
1070
     1
1071
       18
1005
12C015
  0
CIRCLE
  5
12C016
  8
OBJECT
 10
4900.0
 20
-3925.9999999999959073
 30
0.0
 40
54.0
1001
ACDBBLOCKREPETAG
1070
     1
1071
       19
1005
12C016
  0
ARC
  5
12C017
  8
OBJECT
 10
4900.0
 20
-3925.9999999999959073
 30
0.0
 40
62.0
 50
287.8965511292112751
 51
252.1034488707886965
1001
ACDBBLOCKREPETAG
1070
     1
1071
       20
1005
12C017
  0
LINE
  5
12C018
  8
OBJECT
 10
4880.947441116742084
 20
-3984.9999999999968168
 30
0.0
 11
4919.052558883257916
 21
-3984.9999999999968168
 31
0.0
1001
ACDBBLOCKREPETAG
1070
     1
1071
       21
1005
12C018
  0
POINT
  5
12C019
  8
DOTS
 10
4900.0
 20
-3984.9999999999968168
 30
0.0
1001
ACDBBLOCKREPETAG
1070
     1
1071
       23
1005
12C019
  0
TEXT
  5
12C01A
  8
SLIM
 10
0.000003566523219
 20
-775.9999954146824166
 30
0.0
 40
79.9999999999727152
  1
下部枝管バリエーション
 41
0.75
1001
ACDBBLOCKREPETAG
1070
     1
1071
      119
1005
120BCB
  0
INSERT
  5
12C01B
  8
SLIM
  2
*U7
 10
0.0
 20
0.0
 30
0.0
  0
LINE
  5
12C01C
  8
OBJECT
 10
133.0000000000416946
 20
-99.0000000001718803
 30
0.0
 11
133.0000000000416946
 21
-92.0000000001718945
 31
0.0
1001
ACDBBLOCKREPETAG
1070
     1
1071
        1
1005
12C01C
  0
LINE
  5
12C01D
  8
OBJECT
 10
133.0000000000416946
 20
-92.0000000001718945
 30
0.0
 11
227.0000000000418083
 21
-92.0000000001718945
 31
0.0
1001
ACDBBLOCKREPETAG
1070
     1
1071
        2
1005
12C01D
  0
LINE
  5
12C01E
  8
OBJECT
 10
227.0000000000418083
 20
-92.0000000001718945
 30
0.0
 11
227.0000000000418083
 21
-99.0000000001718803
 31
0.0
1001
ACDBBLOCKREPETAG
1070
     1
1071
        3
1005
12C01E
  0
LINE
  5
12C01F
  8
OBJECT
 10
227.0000000000418083
 20
-99.0000000001718803
 30
0.0
 11
133.0000000000416946
 21
-99.0000000001718803
 31
0.0
1001
ACDBBLOCKREPETAG
1070
     1
1071
        4
1005
12C01F
  0
LINE
  5
12C020
  8
OBJECT
 10
136.0000000000416946
 20
-99.0000000001718803
 30
0.0
 11
136.0000000000416946
 21
-135.0000000001718092
 31
0.0
1001
ACDBBLOCKREPETAG
1070
     1
1071
        5
1005
12C020
  0
LINE
  5
12C021
  8
OBJECT
 10
136.0000000000416946
 20
-135.0000000001718092
 30
0.0
 11
224.0000000000418083
 21
-135.0000000001718092
 31
0.0
1001
ACDBBLOCKREPETAG
1070
     1
1071
        6
1005
12C021
  0
LINE
  5
12C022
  8
OBJECT
 10
224.0000000000418083
 20
-135.0000000001718092
 30
0.0
 11
224.0000000000418083
 21
-99.0000000001718803
 31
0.0
1001
ACDBBLOCKREPETAG
1070
     1
1071
        7
1005
12C022
  0
LINE
  5
12C023
  8
OBJECT
 10
140.5000000000418083
 20
-139.0000000001718092
 30
0.0
 11
140.5000000000418083
 21
-146.0000000001718092
 31
0.0
1001
ACDBBLOCKREPETAG
1070
     1
1071
        8
1005
12C023
  0
LINE
  5
12C024
  8
OBJECT
 10
219.5000000000418936
 20
-146.0000000001718092
 30
0.0
 11
219.5000000000418936
 21
-139.0000000001718092
 31
0.0
1001
ACDBBLOCKREPETAG
1070
     1
1071
        9
1005
12C024
  0
LINE
  5
12C025
  8
OBJECT
 10
219.5000000000418936
 20
-139.0000000001718092
 30
0.0
 11
140.5000000000418083
 21
-139.0000000001718092
 31
0.0
1001
ACDBBLOCKREPETAG
1070
     1
1071
       10
1005
12C025
  0
LINE
  5
12C026
  8
OBJECT
 10
136.0000000000416946
 20
-135.0000000001718092
 30
0.0
 11
140.5000000000418083
 21
-139.0000000001718092
 31
0.0
1001
ACDBBLOCKREPETAG
1070
     1
1071
       11
1005
12C026
  0
LINE
  5
12C027
  8
OBJECT
 10
224.0000000000418083
 20
-135.0000000001718092
 30
0.0
 11
219.5000000000418936
 21
-139.0000000001718092
 31
0.0
1001
ACDBBLOCKREPETAG
1070
     1
1071
       12
1005
12C027
  0
LINE
  5
12C028
  8
OBJECT
 10
118.0000000000417941
 20
-149.0000000001710134
 30
0.0
 11
118.0000000000417941
 21
-152.0000000001718092
 31
0.0
1001
ACDBBLOCKREPETAG
1070
     1
1071
       13
1005
12C028
  0
ARC
  5
12C029
  8
OBJECT
 10
121.0000000000417941
 20
-149.0000000001710134
 30
0.0
 40
3.0
 50
90.0
 51
180.0
1001
ACDBBLOCKREPETAG
1070
     1
1071
       14
1005
12C029
  0
LINE
  5
12C02A
  8
OBJECT
 10
242.0000000000418083
 20
-152.0000000001718092
 30
0.0
 11
242.0000000000418083
 21
-149.000000000172804
 31
0.0
1001
ACDBBLOCKREPETAG
1070
     1
1071
       15
1005
12C02A
  0
ARC
  5
12C02B
  8
OBJECT
 10
239.0000000000418083
 20
-149.000000000172804
 30
0.0
 40
3.0
 50
0.0
 51
90.0
1001
ACDBBLOCKREPETAG
1070
     1
1071
       16
1005
12C02B
  0
LINE
  5
12C02C
  8
OBJECT
 10
239.0000000000418083
 20
-146.000000000172804
 30
0.0
 11
121.0000000000417941
 21
-146.0000000001710134
 31
0.0
1001
ACDBBLOCKREPETAG
1070
     1
1071
       17
1005
12C02C
  0
LINE
  5
12C02D
  8
HIDDEN
 10
150.0000000000418083
 20
-144.0000000001718945
 30
0.0
 11
210.0000000000418083
 21
-144.0000000001718945
 31
0.0
1001
ACDBBLOCKREPETAG
1070
     1
1071
      420
1005
12C02D
  0
POLYLINE
  5
12C02E
  8
HIDDEN
 66
     1
 10
0.0
 20
0.0
 30
0.0
 70
     1
1001
ACDBBLOCKREPETAG
1070
     1
1071
      105
1005
0
  0
VERTEX
  5
12C56B
  8
HIDDEN
 10
359.9999999998781277
 20
-800.0
 30
0.0
  0
VERTEX
  5
12C56C
  8
HIDDEN
 10
719.9999999997562554
 20
-800.0
 30
0.0
  0
VERTEX
  5
12C56D
  8
HIDDEN
 10
719.9999999997562554
 20
-1263.9999999998419753
 30
0.0
  0
VERTEX
  5
12C56E
  8
HIDDEN
 10
359.9999999998781277
 20
-1263.9999999998419753
 30
0.0
  0
SEQEND
  5
12C56F
  8
HIDDEN
  0
POLYLINE
  5
12C02F
  8
HIDDEN
 66
     1
 10
0.0
 20
0.0
 30
0.0
 70
     1
1001
ACDBBLOCKREPETAG
1070
     1
1071
      110
1005
0
  0
VERTEX
  5
12C570
  8
HIDDEN
 10
0.0
 20
-800.0
 30
0.0
  0
VERTEX
  5
12C571
  8
HIDDEN
 10
359.9999999998781277
 20
-800.0
 30
0.0
  0
VERTEX
  5
12C572
  8
HIDDEN
 10
359.9999999998781277
 20
-1263.9999999998419753
 30
0.0
  0
VERTEX
  5
12C573
  8
HIDDEN
 10
0.0
 20
-1263.9999999998419753
 30
0.0
  0
SEQEND
  5
12C574
  8
HIDDEN
  0
POLYLINE
  5
12C030
  8
HIDDEN
 66
     1
 10
0.0
 20
0.0
 30
0.0
 70
     1
1001
ACDBBLOCKREPETAG
1070
     1
1071
      120
1005
0
  0
VERTEX
  5
12C575
  8
HIDDEN
 10
359.9999999998781277
 20
-1263.9999999998419753
 30
0.0
  0
VERTEX
  5
12C576
  8
HIDDEN
 10
719.9999999997562554
 20
-1263.9999999998419753
 30
0.0
  0
VERTEX
  5
12C577
  8
HIDDEN
 10
719.9999999997562554
 20
-1727.9999999996830411
 30
0.0
  0
VERTEX
  5
12C578
  8
HIDDEN
 10
359.9999999998781277
 20
-1727.9999999996830411
 30
0.0
  0
SEQEND
  5
12C579
  8
HIDDEN
  0
POLYLINE
  5
12C031
  8
HIDDEN
 66
     1
 10
0.0
 20
0.0
 30
0.0
 70
     1
1001
ACDBBLOCKREPETAG
1070
     1
1071
      125
1005
0
  0
VERTEX
  5
12C57A
  8
HIDDEN
 10
0.0
 20
-1263.9999999998419753
 30
0.0
  0
VERTEX
  5
12C57B
  8
HIDDEN
 10
359.9999999998781277
 20
-1263.9999999998419753
 30
0.0
  0
VERTEX
  5
12C57C
  8
HIDDEN
 10
359.9999999998781277
 20
-1727.9999999996830411
 30
0.0
  0
VERTEX
  5
12C57D
  8
HIDDEN
 10
0.0
 20
-1727.9999999996830411
 30
0.0
  0
SEQEND
  5
12C57E
  8
HIDDEN
  0
POLYLINE
  5
12C032
  8
HIDDEN
 66
     1
 10
0.0
 20
0.0
 30
0.0
 70
     1
1001
ACDBBLOCKREPETAG
1070
     1
1071
      130
1005
0
  0
VERTEX
  5
12C57F
  8
HIDDEN
 10
359.9999999998781277
 20
-1727.9999999996830411
 30
0.0
  0
VERTEX
  5
12C580
  8
HIDDEN
 10
719.9999999997562554
 20
-1727.9999999996830411
 30
0.0
  0
VERTEX
  5
12C581
  8
HIDDEN
 10
719.9999999997562554
 20
-2191.999999999524789
 30
0.0
  0
VERTEX
  5
12C582
  8
HIDDEN
 10
359.9999999998781277
 20
-2191.999999999524789
 30
0.0
  0
SEQEND
  5
12C583
  8
HIDDEN
  0
POLYLINE
  5
12C033
  8
HIDDEN
 66
     1
 10
0.0
 20
0.0
 30
0.0
 70
     1
1001
ACDBBLOCKREPETAG
1070
     1
1071
      135
1005
0
  0
VERTEX
  5
12C584
  8
HIDDEN
 10
0.0
 20
-1727.9999999996830411
 30
0.0
  0
VERTEX
  5
12C585
  8
HIDDEN
 10
359.9999999998781277
 20
-1727.9999999996830411
 30
0.0
  0
VERTEX
  5
12C586
  8
HIDDEN
 10
359.9999999998781277
 20
-2191.999999999524789
 30
0.0
  0
VERTEX
  5
12C587
  8
HIDDEN
 10
0.0
 20
-2191.999999999524789
 30
0.0
  0
SEQEND
  5
12C588
  8
HIDDEN
  0
POLYLINE
  5
12C034
  8
HIDDEN
 66
     1
 10
0.0
 20
0.0
 30
0.0
 70
     1
1001
ACDBBLOCKREPETAG
1070
     1
1071
      160
1005
0
  0
VERTEX
  5
12C589
  8
HIDDEN
 10
359.9999999998781277
 20
-2191.999999999524789
 30
0.0
  0
VERTEX
  5
12C58A
  8
HIDDEN
 10
719.9999999997562554
 20
-2191.999999999524789
 30
0.0
  0
VERTEX
  5
12C58B
  8
HIDDEN
 10
719.9999999997562554
 20
-2655.9999999993660822
 30
0.0
  0
VERTEX
  5
12C58C
  8
HIDDEN
 10
359.9999999998781277
 20
-2655.9999999993660822
 30
0.0
  0
SEQEND
  5
12C58D
  8
HIDDEN
  0
POLYLINE
  5
12C035
  8
HIDDEN
 66
     1
 10
0.0
 20
0.0
 30
0.0
 70
     1
1001
ACDBBLOCKREPETAG
1070
     1
1071
      165
1005
0
  0
VERTEX
  5
12C58E
  8
HIDDEN
 10
0.0
 20
-2191.999999999524789
 30
0.0
  0
VERTEX
  5
12C58F
  8
HIDDEN
 10
359.9999999998781277
 20
-2191.999999999524789
 30
0.0
  0
VERTEX
  5
12C590
  8
HIDDEN
 10
359.9999999998781277
 20
-2655.9999999993660822
 30
0.0
  0
VERTEX
  5
12C591
  8
HIDDEN
 10
0.0
 20
-2655.9999999993660822
 30
0.0
  0
SEQEND
  5
12C592
  8
HIDDEN
  0
POLYLINE
  5
12C036
  8
HIDDEN
 66
     1
 10
0.0
 20
0.0
 30
0.0
 70
     1
1001
ACDBBLOCKREPETAG
1070
     1
1071
      175
1005
0
  0
VERTEX
  5
12C593
  8
HIDDEN
 10
0.0
 20
-2655.9999999993660822
 30
0.0
  0
VERTEX
  5
12C594
  8
HIDDEN
 10
359.9999999998781277
 20
-2655.9999999993660822
 30
0.0
  0
VERTEX
  5
12C595
  8
HIDDEN
 10
359.9999999998781277
 20
-3119.9999999992091944
 30
0.0
  0
VERTEX
  5
12C596
  8
HIDDEN
 10
0.0
 20
-3119.9999999992091944
 30
0.0
  0
SEQEND
  5
12C597
  8
HIDDEN
  0
POLYLINE
  5
12C037
  8
HIDDEN
 66
     1
 10
0.0
 20
0.0
 30
0.0
 70
     1
1001
ACDBBLOCKREPETAG
1070
     1
1071
      110
1005
0
  0
VERTEX
  5
12C598
  8
HIDDEN
 10
0.0
 20
0.0
 30
0.0
  0
VERTEX
  5
12C599
  8
HIDDEN
 10
359.9999999998781277
 20
0.0
 30
0.0
  0
VERTEX
  5
12C59A
  8
HIDDEN
 10
359.9999999998781277
 20
-463.9999999998415774
 30
0.0
  0
VERTEX
  5
12C59B
  8
HIDDEN
 10
0.0
 20
-463.9999999998415774
 30
0.0
  0
SEQEND
  5
12C59C
  8
HIDDEN
  0
TEXT
  5
12C038
  8
SLIM
 10
105.4285714285109066
 20
-1243.9999999998490239
 30
0.0
 40
48.0
  1
B1010
 41
0.75
1001
ACDBBLOCKREPETAG
1070
     1
1071
      119
1005
0
  0
TEXT
  5
12C039
  8
SLIM
 10
461.9999999998175895
 20
-1243.9999999998499334
 30
0.0
 40
48.0
  1
B1020
 41
0.75
1001
ACDBBLOCKREPETAG
1070
     1
1071
      119
1005
0
  0
TEXT
  5
12C03A
  8
SLIM
 10
46.4571428570823173
 20
-1707.9999999996919087
 30
0.0
 40
48.0
  1
B1030（特）
 41
0.75
1001
ACDBBLOCKREPETAG
1070
     1
1071
      119
1005
0
  0
TEXT
  5
12C03B
  8
SLIM
 10
461.9999999998175895
 20
-1707.9999999996919087
 30
0.0
 40
48.0
  1
B2010
 41
0.75
1001
ACDBBLOCKREPETAG
1070
     1
1071
      119
1005
0
  0
TEXT
  5
12C03C
  8
SLIM
 10
98.5714285713681448
 20
-2171.9999999995329745
 30
0.0
 40
48.0
  1
B2020
 41
0.75
1001
ACDBBLOCKREPETAG
1070
     1
1071
      119
1005
0
  0
TEXT
  5
12C03D
  8
SLIM
 10
403.0285714283888865
 20
-2171.9999999995329745
 30
0.0
 40
48.0
  1
B2030（特）
 41
0.75
1001
ACDBBLOCKREPETAG
1070
     1
1071
      119
1005
0
  0
TEXT
  5
12C03E
  8
SLIM
 10
46.4571428570821112
 20
-2635.9999999993760866
 30
0.0
 40
48.0
  1
B3010（特）
 41
0.75
1001
ACDBBLOCKREPETAG
1070
     1
1071
      119
1005
0
  0
TEXT
  5
12C03F
  8
SLIM
 10
403.0285714283888865
 20
-2635.9999999993760866
 30
0.0
 40
48.0
  1
B3020（特）
 41
0.75
1001
ACDBBLOCKREPETAG
1070
     1
1071
      119
1005
0
  0
TEXT
  5
12C040
  8
SLIM
 10
43.0285714285105527
 20
-3099.9999999992169251
 30
0.0
 40
48.0
  1
B3030（特）
 41
0.75
1001
ACDBBLOCKREPETAG
1070
     1
1071
      119
1005
0
  0
LINE
  5
12C041
  8
OBJECT
 10
129.0
 20
-863.0
 30
0.0
 11
129.0
 21
-855.9999999999997726
 31
0.0
1001
ACDBBLOCKREPETAG
1070
     1
1071
        0
1005
12C041
  0
LINE
  5
12C042
  8
OBJECT
 10
129.0
 20
-855.9999999999997726
 30
0.0
 11
223.0
 21
-855.9999999999997726
 31
0.0
1001
ACDBBLOCKREPETAG
1070
     1
1071
        1
1005
12C042
  0
LINE
  5
12C043
  8
OBJECT
 10
223.0
 20
-855.9999999999997726
 30
0.0
 11
223.0
 21
-863.0
 31
0.0
1001
ACDBBLOCKREPETAG
1070
     1
1071
        2
1005
12C043
  0
LINE
  5
12C044
  8
OBJECT
 10
223.0
 20
-863.0
 30
0.0
 11
129.0
 21
-863.0
 31
0.0
1001
ACDBBLOCKREPETAG
1070
     1
1071
        3
1005
12C044
  0
LINE
  5
12C045
  8
OBJECT
 10
132.0
 20
-863.0
 30
0.0
 11
132.0
 21
-898.9999999999997726
 31
0.0
1001
ACDBBLOCKREPETAG
1070
     1
1071
        4
1005
12C045
  0
LINE
  5
12C046
  8
OBJECT
 10
132.0
 20
-898.9999999999997726
 30
0.0
 11
220.0
 21
-898.9999999999997726
 31
0.0
1001
ACDBBLOCKREPETAG
1070
     1
1071
        5
1005
12C046
  0
LINE
  5
12C047
  8
OBJECT
 10
220.0
 20
-898.9999999999997726
 30
0.0
 11
220.0
 21
-863.0
 31
0.0
1001
ACDBBLOCKREPETAG
1070
     1
1071
        6
1005
12C047
  0
LINE
  5
12C048
  8
OBJECT
 10
136.5
 20
-903.0
 30
0.0
 11
136.5
 21
-911.4999999999994316
 31
0.0
1001
ACDBBLOCKREPETAG
1070
     1
1071
        7
1005
12C048
  0
LINE
  5
12C049
  8
OBJECT
 10
215.5
 20
-911.5000000000001137
 30
0.0
 11
215.5
 21
-903.0
 31
0.0
1001
ACDBBLOCKREPETAG
1070
     1
1071
        8
1005
12C049
  0
LINE
  5
12C04A
  8
OBJECT
 10
215.5
 20
-903.0
 30
0.0
 11
136.5
 21
-903.0
 31
0.0
1001
ACDBBLOCKREPETAG
1070
     1
1071
        9
1005
12C04A
  0
LINE
  5
12C04B
  8
OBJECT
 10
132.0
 20
-898.9999999999997726
 30
0.0
 11
136.5
 21
-903.0
 31
0.0
1001
ACDBBLOCKREPETAG
1070
     1
1071
       10
1005
12C04B
  0
LINE
  5
12C04C
  8
OBJECT
 10
220.0
 20
-898.9999999999997726
 30
0.0
 11
215.5
 21
-903.0
 31
0.0
1001
ACDBBLOCKREPETAG
1070
     1
1071
       11
1005
12C04C
  0
LINE
  5
12C04D
  8
OBJECT
 10
222.5
 20
-911.5000000000004547
 30
0.0
 11
129.5
 21
-911.4999999999994316
 31
0.0
1001
ACDBBLOCKREPETAG
1070
     1
1071
       12
1005
12C04D
  0
ARC
  5
12C04E
  8
OBJECT
 10
129.5
 20
-914.4999999999994316
 30
0.0
 40
3.0
 50
90.0
 51
180.0
1001
ACDBBLOCKREPETAG
1070
     1
1071
       13
1005
12C04E
  0
LINE
  5
12C04F
  8
OBJECT
 10
126.5
 20
-914.4999999999994316
 30
0.0
 11
126.4999999999991047
 21
-939.655080087021247
 31
0.0
1001
ACDBBLOCKREPETAG
1070
     1
1071
       15
1005
12C04F
  0
LINE
  5
12C050
  8
OBJECT
 10
225.5
 20
-914.5000000000010232
 30
0.0
 11
225.4999999999990905
 21
-939.6550800870204512
 31
0.0
1001
ACDBBLOCKREPETAG
1070
     1
1071
       16
1005
12C050
  0
ARC
  5
12C051
  8
OBJECT
 10
222.5
 20
-914.5000000000010232
 30
0.0
 40
3.0
 50
0.0
 51
90.0
1001
ACDBBLOCKREPETAG
1070
     1
1071
       17
1005
12C051
  0
INSERT
  5
12C052
  8
SLIM
  2
*U8
 10
0.0
 20
0.0
 30
0.0
  0
LINE
  5
12C053
  8
HIDDEN
 10
146.0
 20
-907.9999999999997726
 30
0.0
 11
206.0
 21
-907.9999999999997726
 31
0.0
1001
ACDBBLOCKREPETAG
1070
     1
1071
       56
1005
12C053
  0
LINE
  5
12C054
  8
OBJECT
 10
223.0
 20
-1129.0
 30
0.0
 11
223.0
 21
-1136.0
 31
0.0
1001
ACDBBLOCKREPETAG
1070
     1
1071
        0
1005
12C054
  0
LINE
  5
12C055
  8
OBJECT
 10
223.0
 20
-1136.0
 30
0.0
 11
129.0
 21
-1136.0
 31
0.0
1001
ACDBBLOCKREPETAG
1070
     1
1071
        1
1005
12C055
  0
LINE
  5
12C056
  8
OBJECT
 10
129.0
 20
-1136.0
 30
0.0
 11
129.0
 21
-1129.0
 31
0.0
1001
ACDBBLOCKREPETAG
1070
     1
1071
        2
1005
12C056
  0
LINE
  5
12C057
  8
OBJECT
 10
129.0
 20
-1129.0
 30
0.0
 11
223.0
 21
-1129.0
 31
0.0
1001
ACDBBLOCKREPETAG
1070
     1
1071
        3
1005
12C057
  0
LINE
  5
12C058
  8
OBJECT
 10
220.0
 20
-1129.0
 30
0.0
 11
220.0
 21
-1093.0
 31
0.0
1001
ACDBBLOCKREPETAG
1070
     1
1071
        4
1005
12C058
  0
LINE
  5
12C059
  8
OBJECT
 10
220.0
 20
-1093.0
 30
0.0
 11
132.0
 21
-1093.0
 31
0.0
1001
ACDBBLOCKREPETAG
1070
     1
1071
        5
1005
12C059
  0
LINE
  5
12C05A
  8
OBJECT
 10
132.0
 20
-1093.0
 30
0.0
 11
132.0
 21
-1129.0
 31
0.0
1001
ACDBBLOCKREPETAG
1070
     1
1071
        6
1005
12C05A
  0
LINE
  5
12C05B
  8
OBJECT
 10
215.5
 20
-1089.0
 30
0.0
 11
215.5
 21
-1080.5
 31
0.0
1001
ACDBBLOCKREPETAG
1070
     1
1071
        7
1005
12C05B
  0
LINE
  5
12C05C
  8
OBJECT
 10
136.5
 20
-1080.4999999999990905
 30
0.0
 11
136.5
 21
-1089.0
 31
0.0
1001
ACDBBLOCKREPETAG
1070
     1
1071
        8
1005
12C05C
  0
LINE
  5
12C05D
  8
OBJECT
 10
136.5
 20
-1089.0
 30
0.0
 11
215.5
 21
-1089.0
 31
0.0
1001
ACDBBLOCKREPETAG
1070
     1
1071
        9
1005
12C05D
  0
LINE
  5
12C05E
  8
OBJECT
 10
220.0
 20
-1093.0
 30
0.0
 11
215.5
 21
-1089.0
 31
0.0
1001
ACDBBLOCKREPETAG
1070
     1
1071
       10
1005
12C05E
  0
LINE
  5
12C05F
  8
OBJECT
 10
132.0
 20
-1093.0
 30
0.0
 11
136.5
 21
-1089.0
 31
0.0
1001
ACDBBLOCKREPETAG
1070
     1
1071
       11
1005
12C05F
  0
LINE
  5
12C060
  8
OBJECT
 10
129.5
 20
-1080.4999999999990905
 30
0.0
 11
222.5
 21
-1080.5
 31
0.0
1001
ACDBBLOCKREPETAG
1070
     1
1071
       12
1005
12C060
  0
ARC
  5
12C061
  8
OBJECT
 10
222.5
 20
-1077.5
 30
0.0
 40
3.0
 50
270.0
 51
0.0
1001
ACDBBLOCKREPETAG
1070
     1
1071
       13
1005
12C061
  0
LINE
  5
12C062
  8
OBJECT
 10
225.5
 20
-1077.5
 30
0.0
 11
225.5000000000009095
 21
-1052.3449199129779572
 31
0.0
1001
ACDBBLOCKREPETAG
1070
     1
1071
       15
1005
12C062
  0
LINE
  5
12C063
  8
OBJECT
 10
126.5
 20
-1077.4999999999990905
 30
0.0
 11
126.5000000000008953
 21
-1052.3449199129790941
 31
0.0
1001
ACDBBLOCKREPETAG
1070
     1
1071
       16
1005
12C063
  0
ARC
  5
12C064
  8
OBJECT
 10
129.5
 20
-1077.4999999999990905
 30
0.0
 40
3.0
 50
180.0
 51
270.0
1001
ACDBBLOCKREPETAG
1070
     1
1071
       17
1005
12C064
  0
INSERT
  5
12C065
  8
SLIM
  2
*U9
 10
0.0
 20
0.0
 30
0.0
  0
LINE
  5
12C066
  8
HIDDEN
 10
206.0
 20
-1084.0
 30
0.0
 11
146.0
 21
-1084.0
 31
0.0
1001
ACDBBLOCKREPETAG
1070
     1
1071
       56
1005
12C066
  0
LINE
  5
12C067
  8
OBJECT
 10
489.0
 20
-863.0
 30
0.0
 11
489.0
 21
-855.9999999999997726
 31
0.0
1001
ACDBBLOCKREPETAG
1070
     1
1071
        0
1005
12C067
  0
LINE
  5
12C068
  8
OBJECT
 10
489.0
 20
-855.9999999999997726
 30
0.0
 11
583.0
 21
-855.9999999999997726
 31
0.0
1001
ACDBBLOCKREPETAG
1070
     1
1071
        1
1005
12C068
  0
LINE
  5
12C069
  8
OBJECT
 10
583.0
 20
-855.9999999999997726
 30
0.0
 11
583.0
 21
-863.0
 31
0.0
1001
ACDBBLOCKREPETAG
1070
     1
1071
        2
1005
12C069
  0
LINE
  5
12C06A
  8
OBJECT
 10
583.0
 20
-863.0
 30
0.0
 11
489.0
 21
-863.0
 31
0.0
1001
ACDBBLOCKREPETAG
1070
     1
1071
        3
1005
12C06A
  0
LINE
  5
12C06B
  8
OBJECT
 10
492.0
 20
-863.0
 30
0.0
 11
492.0
 21
-898.9999999999997726
 31
0.0
1001
ACDBBLOCKREPETAG
1070
     1
1071
        4
1005
12C06B
  0
LINE
  5
12C06C
  8
OBJECT
 10
492.0
 20
-898.9999999999997726
 30
0.0
 11
580.0
 21
-898.9999999999997726
 31
0.0
1001
ACDBBLOCKREPETAG
1070
     1
1071
        5
1005
12C06C
  0
LINE
  5
12C06D
  8
OBJECT
 10
580.0
 20
-898.9999999999997726
 30
0.0
 11
580.0
 21
-863.0
 31
0.0
1001
ACDBBLOCKREPETAG
1070
     1
1071
        6
1005
12C06D
  0
LINE
  5
12C06E
  8
OBJECT
 10
496.4999999999997726
 20
-903.0
 30
0.0
 11
496.4999999999997726
 21
-911.4999999999994316
 31
0.0
1001
ACDBBLOCKREPETAG
1070
     1
1071
        7
1005
12C06E
  0
LINE
  5
12C06F
  8
OBJECT
 10
575.4999999999998863
 20
-911.5000000000001137
 30
0.0
 11
575.4999999999998863
 21
-903.0
 31
0.0
1001
ACDBBLOCKREPETAG
1070
     1
1071
        8
1005
12C06F
  0
LINE
  5
12C070
  8
OBJECT
 10
575.4999999999998863
 20
-903.0
 30
0.0
 11
496.4999999999997726
 21
-903.0
 31
0.0
1001
ACDBBLOCKREPETAG
1070
     1
1071
        9
1005
12C070
  0
LINE
  5
12C071
  8
OBJECT
 10
492.0
 20
-898.9999999999997726
 30
0.0
 11
496.4999999999997726
 21
-903.0
 31
0.0
1001
ACDBBLOCKREPETAG
1070
     1
1071
       10
1005
12C071
  0
LINE
  5
12C072
  8
OBJECT
 10
580.0
 20
-898.9999999999997726
 30
0.0
 11
575.4999999999998863
 21
-903.0
 31
0.0
1001
ACDBBLOCKREPETAG
1070
     1
1071
       11
1005
12C072
  0
LINE
  5
12C073
  8
OBJECT
 10
582.5
 20
-911.5000000000004547
 30
0.0
 11
489.5
 21
-911.4999999999994316
 31
0.0
1001
ACDBBLOCKREPETAG
1070
     1
1071
       12
1005
12C073
  0
ARC
  5
12C074
  8
OBJECT
 10
489.5
 20
-914.4999999999994316
 30
0.0
 40
3.0
 50
90.0
 51
180.0
1001
ACDBBLOCKREPETAG
1070
     1
1071
       13
1005
12C074
  0
LINE
  5
12C075
  8
OBJECT
 10
486.5
 20
-914.4999999999994316
 30
0.0
 11
486.4999999999990905
 21
-939.655080087021247
 31
0.0
1001
ACDBBLOCKREPETAG
1070
     1
1071
       15
1005
12C075
  0
LINE
  5
12C076
  8
OBJECT
 10
585.5
 20
-914.5000000000010232
 30
0.0
 11
585.4999999999988631
 21
-939.6550800870204512
 31
0.0
1001
ACDBBLOCKREPETAG
1070
     1
1071
       16
1005
12C076
  0
ARC
  5
12C077
  8
OBJECT
 10
582.5
 20
-914.5000000000010232
 30
0.0
 40
3.0
 50
0.0
 51
90.0
1001
ACDBBLOCKREPETAG
1070
     1
1071
       17
1005
12C077
  0
INSERT
  5
12C078
  8
SLIM
  2
*U10
 10
0.0
 20
0.0
 30
0.0
  0
LINE
  5
12C079
  8
HIDDEN
 10
506.0
 20
-907.9999999999997726
 30
0.0
 11
566.0
 21
-907.9999999999997726
 31
0.0
1001
ACDBBLOCKREPETAG
1070
     1
1071
       56
1005
12C079
  0
LINE
  5
12C07A
  8
OBJECT
 10
591.0
 20
-1129.0
 30
0.0
 11
591.0
 21
-1136.0
 31
0.0
1001
ACDBBLOCKREPETAG
1070
     1
1071
       18
1005
12C07A
  0
LINE
  5
12C07B
  8
OBJECT
 10
591.0
 20
-1136.0
 30
0.0
 11
481.0
 21
-1136.0
 31
0.0
1001
ACDBBLOCKREPETAG
1070
     1
1071
       19
1005
12C07B
  0
LINE
  5
12C07C
  8
OBJECT
 10
481.0
 20
-1136.0
 30
0.0
 11
481.0
 21
-1129.0
 31
0.0
1001
ACDBBLOCKREPETAG
1070
     1
1071
       20
1005
12C07C
  0
LINE
  5
12C07D
  8
OBJECT
 10
481.0
 20
-1129.0
 30
0.0
 11
591.0
 21
-1129.0
 31
0.0
1001
ACDBBLOCKREPETAG
1070
     1
1071
       21
1005
12C07D
  0
LINE
  5
12C07E
  8
OBJECT
 10
588.0
 20
-1129.0
 30
0.0
 11
588.0
 21
-1093.0
 31
0.0
1001
ACDBBLOCKREPETAG
1070
     1
1071
       22
1005
12C07E
  0
LINE
  5
12C07F
  8
OBJECT
 10
588.0
 20
-1093.0
 30
0.0
 11
484.0
 21
-1093.0
 31
0.0
1001
ACDBBLOCKREPETAG
1070
     1
1071
       23
1005
12C07F
  0
LINE
  5
12C080
  8
OBJECT
 10
484.0
 20
-1093.0
 30
0.0
 11
484.0
 21
-1129.0
 31
0.0
1001
ACDBBLOCKREPETAG
1070
     1
1071
       24
1005
12C080
  0
LINE
  5
12C081
  8
OBJECT
 10
583.4999999999998863
 20
-1089.0
 30
0.0
 11
583.4999999999998863
 21
-1080.5
 31
0.0
1001
ACDBBLOCKREPETAG
1070
     1
1071
       25
1005
12C081
  0
LINE
  5
12C082
  8
OBJECT
 10
488.4999999999997726
 20
-1080.4999999999990905
 30
0.0
 11
488.4999999999997726
 21
-1089.0
 31
0.0
1001
ACDBBLOCKREPETAG
1070
     1
1071
       26
1005
12C082
  0
LINE
  5
12C083
  8
OBJECT
 10
488.4999999999997726
 20
-1089.0
 30
0.0
 11
583.4999999999998863
 21
-1089.0
 31
0.0
1001
ACDBBLOCKREPETAG
1070
     1
1071
       27
1005
12C083
  0
LINE
  5
12C084
  8
OBJECT
 10
588.0
 20
-1093.0
 30
0.0
 11
583.4999999999998863
 21
-1089.0
 31
0.0
1001
ACDBBLOCKREPETAG
1070
     1
1071
       28
1005
12C084
  0
LINE
  5
12C085
  8
OBJECT
 10
484.0
 20
-1093.0
 30
0.0
 11
488.4999999999997726
 21
-1089.0
 31
0.0
1001
ACDBBLOCKREPETAG
1070
     1
1071
       29
1005
12C085
  0
LINE
  5
12C086
  8
OBJECT
 10
486.5
 20
-1080.4999999999979536
 30
0.0
 11
585.5
 21
-1080.5
 31
0.0
1001
ACDBBLOCKREPETAG
1070
     1
1071
       30
1005
12C086
  0
LINE
  5
12C087
  8
OBJECT
 10
585.5
 20
-1080.5
 30
0.0
 11
585.4999999999988631
 21
-1052.3449199129790941
 31
0.0
1001
ACDBBLOCKREPETAG
1070
     1
1071
       31
1005
12C087
  0
LINE
  5
12C088
  8
OBJECT
 10
486.5
 20
-1080.4999999999979536
 30
0.0
 11
486.4999999999990905
 21
-1052.3449199129779572
 31
0.0
1001
ACDBBLOCKREPETAG
1070
     1
1071
       32
1005
12C088
  0
INSERT
  5
12C089
  8
SLIM
  2
*U11
 10
0.0
 20
0.0
 30
0.0
  0
LINE
  5
12C08A
  8
HIDDEN
 10
574.0
 20
-1084.0
 30
0.0
 11
498.0
 21
-1084.0
 31
0.0
1001
ACDBBLOCKREPETAG
1070
     1
1071
       57
1005
12C08A
  0
LINE
  5
12C08B
  8
OBJECT
 10
129.0
 20
-1327.0
 30
0.0
 11
129.0
 21
-1320.0
 31
0.0
1001
ACDBBLOCKREPETAG
1070
     1
1071
        0
1005
12C08B
  0
LINE
  5
12C08C
  8
OBJECT
 10
129.0
 20
-1320.0
 30
0.0
 11
223.0
 21
-1320.0
 31
0.0
1001
ACDBBLOCKREPETAG
1070
     1
1071
        1
1005
12C08C
  0
LINE
  5
12C08D
  8
OBJECT
 10
223.0
 20
-1320.0
 30
0.0
 11
223.0
 21
-1327.0
 31
0.0
1001
ACDBBLOCKREPETAG
1070
     1
1071
        2
1005
12C08D
  0
LINE
  5
12C08E
  8
OBJECT
 10
223.0
 20
-1327.0
 30
0.0
 11
129.0
 21
-1327.0
 31
0.0
1001
ACDBBLOCKREPETAG
1070
     1
1071
        3
1005
12C08E
  0
LINE
  5
12C08F
  8
OBJECT
 10
132.0
 20
-1327.0
 30
0.0
 11
132.0
 21
-1363.0
 31
0.0
1001
ACDBBLOCKREPETAG
1070
     1
1071
        4
1005
12C08F
  0
LINE
  5
12C090
  8
OBJECT
 10
132.0
 20
-1363.0
 30
0.0
 11
220.0
 21
-1363.0
 31
0.0
1001
ACDBBLOCKREPETAG
1070
     1
1071
        5
1005
12C090
  0
LINE
  5
12C091
  8
OBJECT
 10
220.0
 20
-1363.0
 30
0.0
 11
220.0
 21
-1327.0
 31
0.0
1001
ACDBBLOCKREPETAG
1070
     1
1071
        6
1005
12C091
  0
LINE
  5
12C092
  8
OBJECT
 10
136.5
 20
-1367.0
 30
0.0
 11
136.5
 21
-1375.4999999999990905
 31
0.0
1001
ACDBBLOCKREPETAG
1070
     1
1071
        7
1005
12C092
  0
LINE
  5
12C093
  8
OBJECT
 10
215.5
 20
-1375.5
 30
0.0
 11
215.5
 21
-1367.0
 31
0.0
1001
ACDBBLOCKREPETAG
1070
     1
1071
        8
1005
12C093
  0
LINE
  5
12C094
  8
OBJECT
 10
215.5
 20
-1367.0
 30
0.0
 11
136.5
 21
-1367.0
 31
0.0
1001
ACDBBLOCKREPETAG
1070
     1
1071
        9
1005
12C094
  0
LINE
  5
12C095
  8
OBJECT
 10
132.0
 20
-1363.0
 30
0.0
 11
136.5
 21
-1367.0
 31
0.0
1001
ACDBBLOCKREPETAG
1070
     1
1071
       10
1005
12C095
  0
LINE
  5
12C096
  8
OBJECT
 10
220.0
 20
-1363.0
 30
0.0
 11
215.5
 21
-1367.0
 31
0.0
1001
ACDBBLOCKREPETAG
1070
     1
1071
       11
1005
12C096
  0
LINE
  5
12C097
  8
OBJECT
 10
222.5
 20
-1375.5000000000009095
 30
0.0
 11
129.5
 21
-1375.4999999999990905
 31
0.0
1001
ACDBBLOCKREPETAG
1070
     1
1071
       12
1005
12C097
  0
ARC
  5
12C098
  8
OBJECT
 10
129.5
 20
-1378.5
 30
0.0
 40
3.0
 50
90.0
 51
180.0
1001
ACDBBLOCKREPETAG
1070
     1
1071
       13
1005
12C098
  0
LINE
  5
12C099
  8
OBJECT
 10
126.5
 20
-1378.5
 30
0.0
 11
126.4999999999991047
 21
-1403.6550800870220428
 31
0.0
1001
ACDBBLOCKREPETAG
1070
     1
1071
       15
1005
12C099
  0
LINE
  5
12C09A
  8
OBJECT
 10
225.5
 20
-1378.5000000000009095
 30
0.0
 11
225.4999999999990905
 21
-1403.6550800870209059
 31
0.0
1001
ACDBBLOCKREPETAG
1070
     1
1071
       16
1005
12C09A
  0
ARC
  5
12C09B
  8
OBJECT
 10
222.5
 20
-1378.5000000000009095
 30
0.0
 40
3.0
 50
0.0
 51
90.0
1001
ACDBBLOCKREPETAG
1070
     1
1071
       17
1005
12C09B
  0
INSERT
  5
12C09C
  8
SLIM
  2
*U12
 10
0.0
 20
0.0
 30
0.0
  0
LINE
  5
12C09D
  8
HIDDEN
 10
146.0
 20
-1372.0
 30
0.0
 11
206.0
 21
-1372.0
 31
0.0
1001
ACDBBLOCKREPETAG
1070
     1
1071
       56
1005
12C09D
  0
LINE
  5
12C09E
  8
OBJECT
 10
238.0
 20
-1593.0
 30
0.0
 11
238.0
 21
-1600.0
 31
0.0
1001
ACDBBLOCKREPETAG
1070
     1
1071
       34
1005
12C09E
  0
LINE
  5
12C09F
  8
OBJECT
 10
238.0
 20
-1600.0
 30
0.0
 11
114.0
 21
-1600.0
 31
0.0
1001
ACDBBLOCKREPETAG
1070
     1
1071
       35
1005
12C09F
  0
LINE
  5
12C0A0
  8
OBJECT
 10
114.0
 20
-1600.0
 30
0.0
 11
114.0
 21
-1593.0
 31
0.0
1001
ACDBBLOCKREPETAG
1070
     1
1071
       36
1005
12C0A0
  0
LINE
  5
12C0A1
  8
OBJECT
 10
114.0
 20
-1593.0
 30
0.0
 11
238.0
 21
-1593.0
 31
0.0
1001
ACDBBLOCKREPETAG
1070
     1
1071
       37
1005
12C0A1
  0
LINE
  5
12C0A2
  8
OBJECT
 10
235.0
 20
-1593.0
 30
0.0
 11
235.0
 21
-1557.0
 31
0.0
1001
ACDBBLOCKREPETAG
1070
     1
1071
       38
1005
12C0A2
  0
LINE
  5
12C0A3
  8
OBJECT
 10
235.0
 20
-1557.0
 30
0.0
 11
117.0
 21
-1557.0
 31
0.0
1001
ACDBBLOCKREPETAG
1070
     1
1071
       39
1005
12C0A3
  0
LINE
  5
12C0A4
  8
OBJECT
 10
117.0
 20
-1557.0
 30
0.0
 11
117.0
 21
-1593.0
 31
0.0
1001
ACDBBLOCKREPETAG
1070
     1
1071
       40
1005
12C0A4
  0
LINE
  5
12C0A5
  8
OBJECT
 10
230.5
 20
-1553.0
 30
0.0
 11
230.5
 21
-1542.5
 31
0.0
1001
ACDBBLOCKREPETAG
1070
     1
1071
       41
1005
12C0A5
  0
LINE
  5
12C0A6
  8
OBJECT
 10
121.5
 20
-1542.5
 30
0.0
 11
121.5
 21
-1553.0
 31
0.0
1001
ACDBBLOCKREPETAG
1070
     1
1071
       42
1005
12C0A6
  0
LINE
  5
12C0A7
  8
OBJECT
 10
121.5
 20
-1553.0
 30
0.0
 11
230.5
 21
-1553.0
 31
0.0
1001
ACDBBLOCKREPETAG
1070
     1
1071
       43
1005
12C0A7
  0
LINE
  5
12C0A8
  8
OBJECT
 10
235.0
 20
-1557.0
 30
0.0
 11
230.5
 21
-1553.0
 31
0.0
1001
ACDBBLOCKREPETAG
1070
     1
1071
       44
1005
12C0A8
  0
LINE
  5
12C0A9
  8
OBJECT
 10
117.0
 20
-1557.0
 30
0.0
 11
121.5
 21
-1553.0
 31
0.0
1001
ACDBBLOCKREPETAG
1070
     1
1071
       45
1005
12C0A9
  0
LINE
  5
12C0AA
  8
OBJECT
 10
225.5
 20
-1537.5
 30
0.0
 11
225.4999999999990905
 21
-1516.3449199129779572
 31
0.0
1001
ACDBBLOCKREPETAG
1070
     1
1071
       46
1005
12C0AA
  0
LINE
  5
12C0AB
  8
OBJECT
 10
126.5
 20
-1537.5
 30
0.0
 11
126.5
 21
-1516.3449199129779572
 31
0.0
1001
ACDBBLOCKREPETAG
1070
     1
1071
       47
1005
12C0AB
  0
LINE
  5
12C0AC
  8
OBJECT
 10
230.5
 20
-1542.5
 30
0.0
 11
121.5
 21
-1542.5
 31
0.0
1001
ACDBBLOCKREPETAG
1070
     1
1071
       48
1005
12C0AC
  0
LINE
  5
12C0AD
  8
OBJECT
 10
225.5
 20
-1537.5
 30
0.0
 11
126.5
 21
-1537.5
 31
0.0
1001
ACDBBLOCKREPETAG
1070
     1
1071
       49
1005
12C0AD
  0
LINE
  5
12C0AE
  8
OBJECT
 10
230.5
 20
-1542.5
 30
0.0
 11
225.5
 21
-1537.5
 31
0.0
1001
ACDBBLOCKREPETAG
1070
     1
1071
       50
1005
12C0AE
  0
LINE
  5
12C0AF
  8
OBJECT
 10
126.5
 20
-1537.5
 30
0.0
 11
121.5000000000035953
 21
-1542.5
 31
0.0
1001
ACDBBLOCKREPETAG
1070
     1
1071
       51
1005
12C0AF
  0
INSERT
  5
12C0B0
  8
SLIM
  2
*U13
 10
0.0
 20
0.0
 30
0.0
  0
LINE
  5
12C0B1
  8
HIDDEN
 10
220.5
 20
-1548.0
 30
0.0
 11
131.5
 21
-1548.0
 31
0.0
1001
ACDBBLOCKREPETAG
1070
     1
1071
       65
1005
12C0B1
  0
LINE
  5
12C0B2
  8
OBJECT
 10
481.0
 20
-1327.0
 30
0.0
 11
481.0
 21
-1320.0
 31
0.0
1001
ACDBBLOCKREPETAG
1070
     1
1071
       18
1005
12C0B2
  0
LINE
  5
12C0B3
  8
OBJECT
 10
481.0
 20
-1320.0
 30
0.0
 11
591.0
 21
-1320.0
 31
0.0
1001
ACDBBLOCKREPETAG
1070
     1
1071
       19
1005
12C0B3
  0
LINE
  5
12C0B4
  8
OBJECT
 10
591.0
 20
-1320.0
 30
0.0
 11
591.0
 21
-1327.0
 31
0.0
1001
ACDBBLOCKREPETAG
1070
     1
1071
       20
1005
12C0B4
  0
LINE
  5
12C0B5
  8
OBJECT
 10
591.0
 20
-1327.0
 30
0.0
 11
481.0
 21
-1327.0
 31
0.0
1001
ACDBBLOCKREPETAG
1070
     1
1071
       21
1005
12C0B5
  0
LINE
  5
12C0B6
  8
OBJECT
 10
484.0
 20
-1327.0
 30
0.0
 11
484.0
 21
-1363.0
 31
0.0
1001
ACDBBLOCKREPETAG
1070
     1
1071
       22
1005
12C0B6
  0
LINE
  5
12C0B7
  8
OBJECT
 10
484.0
 20
-1363.0
 30
0.0
 11
588.0
 21
-1363.0
 31
0.0
1001
ACDBBLOCKREPETAG
1070
     1
1071
       23
1005
12C0B7
  0
LINE
  5
12C0B8
  8
OBJECT
 10
588.0
 20
-1363.0
 30
0.0
 11
588.0
 21
-1327.0
 31
0.0
1001
ACDBBLOCKREPETAG
1070
     1
1071
       24
1005
12C0B8
  0
LINE
  5
12C0B9
  8
OBJECT
 10
488.4999999999997726
 20
-1367.0
 30
0.0
 11
488.4999999999997726
 21
-1375.4999999999990905
 31
0.0
1001
ACDBBLOCKREPETAG
1070
     1
1071
       25
1005
12C0B9
  0
LINE
  5
12C0BA
  8
OBJECT
 10
583.4999999999998863
 20
-1375.5
 30
0.0
 11
583.4999999999998863
 21
-1367.0
 31
0.0
1001
ACDBBLOCKREPETAG
1070
     1
1071
       26
1005
12C0BA
  0
LINE
  5
12C0BB
  8
OBJECT
 10
583.4999999999998863
 20
-1367.0
 30
0.0
 11
488.4999999999997726
 21
-1367.0
 31
0.0
1001
ACDBBLOCKREPETAG
1070
     1
1071
       27
1005
12C0BB
  0
LINE
  5
12C0BC
  8
OBJECT
 10
484.0
 20
-1363.0
 30
0.0
 11
488.4999999999997726
 21
-1367.0
 31
0.0
1001
ACDBBLOCKREPETAG
1070
     1
1071
       28
1005
12C0BC
  0
LINE
  5
12C0BD
  8
OBJECT
 10
588.0
 20
-1363.0
 30
0.0
 11
583.4999999999998863
 21
-1367.0
 31
0.0
1001
ACDBBLOCKREPETAG
1070
     1
1071
       29
1005
12C0BD
  0
LINE
  5
12C0BE
  8
OBJECT
 10
585.5
 20
-1375.5000000000009095
 30
0.0
 11
486.5
 21
-1375.4999999999990905
 31
0.0
1001
ACDBBLOCKREPETAG
1070
     1
1071
       30
1005
12C0BE
  0
LINE
  5
12C0BF
  8
OBJECT
 10
486.5
 20
-1375.4999999999990905
 30
0.0
 11
486.5000000000009095
 21
-1403.6550800870199964
 31
0.0
1001
ACDBBLOCKREPETAG
1070
     1
1071
       31
1005
12C0BF
  0
LINE
  5
12C0C0
  8
OBJECT
 10
585.5
 20
-1375.5000000000009095
 30
0.0
 11
585.5000000000009095
 21
-1403.6550800870220428
 31
0.0
1001
ACDBBLOCKREPETAG
1070
     1
1071
       32
1005
12C0C0
  0
INSERT
  5
12C0C1
  8
SLIM
  2
*U14
 10
0.0
 20
0.0
 30
0.0
  0
LINE
  5
12C0C2
  8
HIDDEN
 10
498.0
 20
-1372.0
 30
0.0
 11
574.0
 21
-1372.0
 31
0.0
1001
ACDBBLOCKREPETAG
1070
     1
1071
       57
1005
12C0C2
  0
LINE
  5
12C0C3
  8
OBJECT
 10
583.0
 20
-1593.0
 30
0.0
 11
583.0
 21
-1600.0
 31
0.0
1001
ACDBBLOCKREPETAG
1070
     1
1071
        0
1005
12C0C3
  0
LINE
  5
12C0C4
  8
OBJECT
 10
583.0
 20
-1600.0
 30
0.0
 11
489.0
 21
-1600.0
 31
0.0
1001
ACDBBLOCKREPETAG
1070
     1
1071
        1
1005
12C0C4
  0
LINE
  5
12C0C5
  8
OBJECT
 10
489.0
 20
-1600.0
 30
0.0
 11
489.0
 21
-1593.0
 31
0.0
1001
ACDBBLOCKREPETAG
1070
     1
1071
        2
1005
12C0C5
  0
LINE
  5
12C0C6
  8
OBJECT
 10
489.0
 20
-1593.0
 30
0.0
 11
583.0
 21
-1593.0
 31
0.0
1001
ACDBBLOCKREPETAG
1070
     1
1071
        3
1005
12C0C6
  0
LINE
  5
12C0C7
  8
OBJECT
 10
580.0
 20
-1593.0
 30
0.0
 11
580.0
 21
-1557.0
 31
0.0
1001
ACDBBLOCKREPETAG
1070
     1
1071
        4
1005
12C0C7
  0
LINE
  5
12C0C8
  8
OBJECT
 10
580.0
 20
-1557.0
 30
0.0
 11
492.0
 21
-1557.0
 31
0.0
1001
ACDBBLOCKREPETAG
1070
     1
1071
        5
1005
12C0C8
  0
LINE
  5
12C0C9
  8
OBJECT
 10
492.0
 20
-1557.0
 30
0.0
 11
492.0
 21
-1593.0
 31
0.0
1001
ACDBBLOCKREPETAG
1070
     1
1071
        6
1005
12C0C9
  0
LINE
  5
12C0CA
  8
OBJECT
 10
575.4999999999998863
 20
-1553.0
 30
0.0
 11
575.4999999999998863
 21
-1544.5
 31
0.0
1001
ACDBBLOCKREPETAG
1070
     1
1071
        7
1005
12C0CA
  0
LINE
  5
12C0CB
  8
OBJECT
 10
496.4999999999997726
 20
-1544.4999999999990905
 30
0.0
 11
496.4999999999997726
 21
-1553.0
 31
0.0
1001
ACDBBLOCKREPETAG
1070
     1
1071
        8
1005
12C0CB
  0
LINE
  5
12C0CC
  8
OBJECT
 10
496.4999999999997726
 20
-1553.0
 30
0.0
 11
575.4999999999998863
 21
-1553.0
 31
0.0
1001
ACDBBLOCKREPETAG
1070
     1
1071
        9
1005
12C0CC
  0
LINE
  5
12C0CD
  8
OBJECT
 10
580.0
 20
-1557.0
 30
0.0
 11
575.4999999999998863
 21
-1553.0
 31
0.0
1001
ACDBBLOCKREPETAG
1070
     1
1071
       10
1005
12C0CD
  0
LINE
  5
12C0CE
  8
OBJECT
 10
492.0
 20
-1557.0
 30
0.0
 11
496.4999999999997726
 21
-1553.0
 31
0.0
1001
ACDBBLOCKREPETAG
1070
     1
1071
       11
1005
12C0CE
  0
LINE
  5
12C0CF
  8
OBJECT
 10
489.5
 20
-1544.4999999999990905
 30
0.0
 11
582.5
 21
-1544.5
 31
0.0
1001
ACDBBLOCKREPETAG
1070
     1
1071
       12
1005
12C0CF
  0
ARC
  5
12C0D0
  8
OBJECT
 10
582.5
 20
-1541.5
 30
0.0
 40
3.0
 50
270.0
 51
0.0
1001
ACDBBLOCKREPETAG
1070
     1
1071
       13
1005
12C0D0
  0
LINE
  5
12C0D1
  8
OBJECT
 10
585.5
 20
-1541.5
 30
0.0
 11
585.5000000000009095
 21
-1516.3449199129779572
 31
0.0
1001
ACDBBLOCKREPETAG
1070
     1
1071
       15
1005
12C0D1
  0
LINE
  5
12C0D2
  8
OBJECT
 10
486.5
 20
-1541.4999999999990905
 30
0.0
 11
486.5000000000009095
 21
-1516.3449199129779572
 31
0.0
1001
ACDBBLOCKREPETAG
1070
     1
1071
       16
1005
12C0D2
  0
ARC
  5
12C0D3
  8
OBJECT
 10
489.5
 20
-1541.4999999999990905
 30
0.0
 40
3.0
 50
180.0
 51
270.0
1001
ACDBBLOCKREPETAG
1070
     1
1071
       17
1005
12C0D3
  0
INSERT
  5
12C0D4
  8
SLIM
  2
*U15
 10
0.0
 20
0.0
 30
0.0
  0
LINE
  5
12C0D5
  8
HIDDEN
 10
566.0
 20
-1548.0
 30
0.0
 11
506.0
 21
-1548.0
 31
0.0
1001
ACDBBLOCKREPETAG
1070
     1
1071
       56
1005
12C0D5
  0
LINE
  5
12C0D6
  8
OBJECT
 10
121.0
 20
-1791.0
 30
0.0
 11
121.0
 21
-1784.0
 31
0.0
1001
ACDBBLOCKREPETAG
1070
     1
1071
       18
1005
12C0D6
  0
LINE
  5
12C0D7
  8
OBJECT
 10
121.0
 20
-1784.0
 30
0.0
 11
231.0
 21
-1784.0
 31
0.0
1001
ACDBBLOCKREPETAG
1070
     1
1071
       19
1005
12C0D7
  0
LINE
  5
12C0D8
  8
OBJECT
 10
231.0
 20
-1784.0
 30
0.0
 11
231.0
 21
-1791.0
 31
0.0
1001
ACDBBLOCKREPETAG
1070
     1
1071
       20
1005
12C0D8
  0
LINE
  5
12C0D9
  8
OBJECT
 10
231.0
 20
-1791.0
 30
0.0
 11
121.0
 21
-1791.0
 31
0.0
1001
ACDBBLOCKREPETAG
1070
     1
1071
       21
1005
12C0D9
  0
LINE
  5
12C0DA
  8
OBJECT
 10
124.0
 20
-1791.0
 30
0.0
 11
124.0
 21
-1827.0
 31
0.0
1001
ACDBBLOCKREPETAG
1070
     1
1071
       22
1005
12C0DA
  0
LINE
  5
12C0DB
  8
OBJECT
 10
124.0
 20
-1827.0
 30
0.0
 11
228.0
 21
-1827.0
 31
0.0
1001
ACDBBLOCKREPETAG
1070
     1
1071
       23
1005
12C0DB
  0
LINE
  5
12C0DC
  8
OBJECT
 10
228.0
 20
-1827.0
 30
0.0
 11
228.0
 21
-1791.0
 31
0.0
1001
ACDBBLOCKREPETAG
1070
     1
1071
       24
1005
12C0DC
  0
LINE
  5
12C0DD
  8
OBJECT
 10
128.5
 20
-1831.0
 30
0.0
 11
128.5
 21
-1839.4999999999990905
 31
0.0
1001
ACDBBLOCKREPETAG
1070
     1
1071
       25
1005
12C0DD
  0
LINE
  5
12C0DE
  8
OBJECT
 10
223.5
 20
-1839.5000000000009095
 30
0.0
 11
223.5
 21
-1831.0
 31
0.0
1001
ACDBBLOCKREPETAG
1070
     1
1071
       26
1005
12C0DE
  0
LINE
  5
12C0DF
  8
OBJECT
 10
223.5
 20
-1831.0
 30
0.0
 11
128.5
 21
-1831.0
 31
0.0
1001
ACDBBLOCKREPETAG
1070
     1
1071
       27
1005
12C0DF
  0
LINE
  5
12C0E0
  8
OBJECT
 10
124.0
 20
-1827.0
 30
0.0
 11
128.5
 21
-1831.0
 31
0.0
1001
ACDBBLOCKREPETAG
1070
     1
1071
       28
1005
12C0E0
  0
LINE
  5
12C0E1
  8
OBJECT
 10
228.0
 20
-1827.0
 30
0.0
 11
223.5
 21
-1831.0
 31
0.0
1001
ACDBBLOCKREPETAG
1070
     1
1071
       29
1005
12C0E1
  0
LINE
  5
12C0E2
  8
OBJECT
 10
225.5
 20
-1839.5000000000009095
 30
0.0
 11
126.5
 21
-1839.4999999999990905
 31
0.0
1001
ACDBBLOCKREPETAG
1070
     1
1071
       30
1005
12C0E2
  0
LINE
  5
12C0E3
  8
OBJECT
 10
126.5
 20
-1839.4999999999990905
 30
0.0
 11
126.5000000000008953
 21
-1867.6550800870199964
 31
0.0
1001
ACDBBLOCKREPETAG
1070
     1
1071
       31
1005
12C0E3
  0
LINE
  5
12C0E4
  8
OBJECT
 10
225.5
 20
-1839.5000000000009095
 30
0.0
 11
225.5000000000009095
 21
-1867.6550800870220428
 31
0.0
1001
ACDBBLOCKREPETAG
1070
     1
1071
       32
1005
12C0E4
  0
INSERT
  5
12C0E5
  8
SLIM
  2
*U16
 10
0.0
 20
0.0
 30
0.0
  0
LINE
  5
12C0E6
  8
HIDDEN
 10
138.0
 20
-1836.0
 30
0.0
 11
214.0
 21
-1836.0
 31
0.0
1001
ACDBBLOCKREPETAG
1070
     1
1071
       57
1005
12C0E6
  0
LINE
  5
12C0E7
  8
OBJECT
 10
231.0
 20
-2057.0
 30
0.0
 11
231.0
 21
-2064.0
 31
0.0
1001
ACDBBLOCKREPETAG
1070
     1
1071
       18
1005
12C0E7
  0
LINE
  5
12C0E8
  8
OBJECT
 10
231.0
 20
-2064.0
 30
0.0
 11
121.0
 21
-2064.0
 31
0.0
1001
ACDBBLOCKREPETAG
1070
     1
1071
       19
1005
12C0E8
  0
LINE
  5
12C0E9
  8
OBJECT
 10
121.0
 20
-2064.0
 30
0.0
 11
121.0
 21
-2057.0
 31
0.0
1001
ACDBBLOCKREPETAG
1070
     1
1071
       20
1005
12C0E9
  0
LINE
  5
12C0EA
  8
OBJECT
 10
121.0
 20
-2057.0
 30
0.0
 11
231.0
 21
-2057.0
 31
0.0
1001
ACDBBLOCKREPETAG
1070
     1
1071
       21
1005
12C0EA
  0
LINE
  5
12C0EB
  8
OBJECT
 10
228.0
 20
-2057.0
 30
0.0
 11
228.0
 21
-2021.0
 31
0.0
1001
ACDBBLOCKREPETAG
1070
     1
1071
       22
1005
12C0EB
  0
LINE
  5
12C0EC
  8
OBJECT
 10
228.0
 20
-2021.0
 30
0.0
 11
124.0
 21
-2021.0
 31
0.0
1001
ACDBBLOCKREPETAG
1070
     1
1071
       23
1005
12C0EC
  0
LINE
  5
12C0ED
  8
OBJECT
 10
124.0
 20
-2021.0
 30
0.0
 11
124.0
 21
-2057.0
 31
0.0
1001
ACDBBLOCKREPETAG
1070
     1
1071
       24
1005
12C0ED
  0
LINE
  5
12C0EE
  8
OBJECT
 10
223.5
 20
-2017.0
 30
0.0
 11
223.5
 21
-2008.5000000000009095
 31
0.0
1001
ACDBBLOCKREPETAG
1070
     1
1071
       25
1005
12C0EE
  0
LINE
  5
12C0EF
  8
OBJECT
 10
128.5
 20
-2008.5
 30
0.0
 11
128.5
 21
-2017.0
 31
0.0
1001
ACDBBLOCKREPETAG
1070
     1
1071
       26
1005
12C0EF
  0
LINE
  5
12C0F0
  8
OBJECT
 10
128.5
 20
-2017.0
 30
0.0
 11
223.5
 21
-2017.0
 31
0.0
1001
ACDBBLOCKREPETAG
1070
     1
1071
       27
1005
12C0F0
  0
LINE
  5
12C0F1
  8
OBJECT
 10
228.0
 20
-2021.0
 30
0.0
 11
223.5
 21
-2017.0
 31
0.0
1001
ACDBBLOCKREPETAG
1070
     1
1071
       28
1005
12C0F1
  0
LINE
  5
12C0F2
  8
OBJECT
 10
124.0
 20
-2021.0
 30
0.0
 11
128.5
 21
-2017.0
 31
0.0
1001
ACDBBLOCKREPETAG
1070
     1
1071
       29
1005
12C0F2
  0
LINE
  5
12C0F3
  8
OBJECT
 10
126.5
 20
-2008.5
 30
0.0
 11
225.5
 21
-2008.5000000000009095
 31
0.0
1001
ACDBBLOCKREPETAG
1070
     1
1071
       30
1005
12C0F3
  0
LINE
  5
12C0F4
  8
OBJECT
 10
225.5
 20
-2008.5000000000009095
 30
0.0
 11
225.4999999999990905
 21
-1980.3449199129800036
 31
0.0
1001
ACDBBLOCKREPETAG
1070
     1
1071
       31
1005
12C0F4
  0
LINE
  5
12C0F5
  8
OBJECT
 10
126.5
 20
-2008.5
 30
0.0
 11
126.4999999999991047
 21
-1980.3449199129770477
 31
0.0
1001
ACDBBLOCKREPETAG
1070
     1
1071
       32
1005
12C0F5
  0
INSERT
  5
12C0F6
  8
SLIM
  2
*U17
 10
0.0
 20
0.0
 30
0.0
  0
LINE
  5
12C0F7
  8
HIDDEN
 10
214.0
 20
-2012.0
 30
0.0
 11
138.0
 21
-2012.0
 31
0.0
1001
ACDBBLOCKREPETAG
1070
     1
1071
       57
1005
12C0F7
  0
LINE
  5
12C0F8
  8
OBJECT
 10
481.0
 20
-1791.0
 30
0.0
 11
481.0
 21
-1784.0
 31
0.0
1001
ACDBBLOCKREPETAG
1070
     1
1071
       18
1005
12C0F8
  0
LINE
  5
12C0F9
  8
OBJECT
 10
481.0
 20
-1784.0
 30
0.0
 11
591.0
 21
-1784.0
 31
0.0
1001
ACDBBLOCKREPETAG
1070
     1
1071
       19
1005
12C0F9
  0
LINE
  5
12C0FA
  8
OBJECT
 10
591.0
 20
-1784.0
 30
0.0
 11
591.0
 21
-1791.0
 31
0.0
1001
ACDBBLOCKREPETAG
1070
     1
1071
       20
1005
12C0FA
  0
LINE
  5
12C0FB
  8
OBJECT
 10
591.0
 20
-1791.0
 30
0.0
 11
481.0
 21
-1791.0
 31
0.0
1001
ACDBBLOCKREPETAG
1070
     1
1071
       21
1005
12C0FB
  0
LINE
  5
12C0FC
  8
OBJECT
 10
484.0
 20
-1791.0
 30
0.0
 11
484.0
 21
-1827.0
 31
0.0
1001
ACDBBLOCKREPETAG
1070
     1
1071
       22
1005
12C0FC
  0
LINE
  5
12C0FD
  8
OBJECT
 10
484.0
 20
-1827.0
 30
0.0
 11
588.0
 21
-1827.0
 31
0.0
1001
ACDBBLOCKREPETAG
1070
     1
1071
       23
1005
12C0FD
  0
LINE
  5
12C0FE
  8
OBJECT
 10
588.0
 20
-1827.0
 30
0.0
 11
588.0
 21
-1791.0
 31
0.0
1001
ACDBBLOCKREPETAG
1070
     1
1071
       24
1005
12C0FE
  0
LINE
  5
12C0FF
  8
OBJECT
 10
488.4999999999997726
 20
-1831.0
 30
0.0
 11
488.4999999999997726
 21
-1839.4999999999990905
 31
0.0
1001
ACDBBLOCKREPETAG
1070
     1
1071
       25
1005
12C0FF
  0
LINE
  5
12C100
  8
OBJECT
 10
583.4999999999998863
 20
-1839.5000000000009095
 30
0.0
 11
583.4999999999998863
 21
-1831.0
 31
0.0
1001
ACDBBLOCKREPETAG
1070
     1
1071
       26
1005
12C100
  0
LINE
  5
12C101
  8
OBJECT
 10
583.4999999999998863
 20
-1831.0
 30
0.0
 11
488.4999999999997726
 21
-1831.0
 31
0.0
1001
ACDBBLOCKREPETAG
1070
     1
1071
       27
1005
12C101
  0
LINE
  5
12C102
  8
OBJECT
 10
484.0
 20
-1827.0
 30
0.0
 11
488.4999999999997726
 21
-1831.0
 31
0.0
1001
ACDBBLOCKREPETAG
1070
     1
1071
       28
1005
12C102
  0
LINE
  5
12C103
  8
OBJECT
 10
588.0
 20
-1827.0
 30
0.0
 11
583.4999999999998863
 21
-1831.0
 31
0.0
1001
ACDBBLOCKREPETAG
1070
     1
1071
       29
1005
12C103
  0
LINE
  5
12C104
  8
OBJECT
 10
585.5
 20
-1839.5000000000009095
 30
0.0
 11
486.5
 21
-1839.4999999999990905
 31
0.0
1001
ACDBBLOCKREPETAG
1070
     1
1071
       30
1005
12C104
  0
LINE
  5
12C105
  8
OBJECT
 10
486.5
 20
-1839.4999999999990905
 30
0.0
 11
486.5000000000009095
 21
-1867.6550800870199964
 31
0.0
1001
ACDBBLOCKREPETAG
1070
     1
1071
       31
1005
12C105
  0
LINE
  5
12C106
  8
OBJECT
 10
585.5
 20
-1839.5000000000009095
 30
0.0
 11
585.5000000000009095
 21
-1867.6550800870220428
 31
0.0
1001
ACDBBLOCKREPETAG
1070
     1
1071
       32
1005
12C106
  0
INSERT
  5
12C107
  8
SLIM
  2
*U18
 10
0.0
 20
0.0
 30
0.0
  0
LINE
  5
12C108
  8
HIDDEN
 10
498.0
 20
-1836.0
 30
0.0
 11
574.0
 21
-1836.0
 31
0.0
1001
ACDBBLOCKREPETAG
1070
     1
1071
       57
1005
12C108
  0
LINE
  5
12C109
  8
OBJECT
 10
598.0
 20
-2057.0
 30
0.0
 11
598.0
 21
-2064.0
 31
0.0
1001
ACDBBLOCKREPETAG
1070
     1
1071
       34
1005
12C109
  0
LINE
  5
12C10A
  8
OBJECT
 10
598.0
 20
-2064.0
 30
0.0
 11
474.0
 21
-2064.0
 31
0.0
1001
ACDBBLOCKREPETAG
1070
     1
1071
       35
1005
12C10A
  0
LINE
  5
12C10B
  8
OBJECT
 10
474.0
 20
-2064.0
 30
0.0
 11
474.0
 21
-2057.0
 31
0.0
1001
ACDBBLOCKREPETAG
1070
     1
1071
       36
1005
12C10B
  0
LINE
  5
12C10C
  8
OBJECT
 10
474.0
 20
-2057.0
 30
0.0
 11
598.0
 21
-2057.0
 31
0.0
1001
ACDBBLOCKREPETAG
1070
     1
1071
       37
1005
12C10C
  0
LINE
  5
12C10D
  8
OBJECT
 10
595.0
 20
-2057.0
 30
0.0
 11
595.0
 21
-2021.0
 31
0.0
1001
ACDBBLOCKREPETAG
1070
     1
1071
       38
1005
12C10D
  0
LINE
  5
12C10E
  8
OBJECT
 10
595.0
 20
-2021.0
 30
0.0
 11
477.0
 21
-2021.0
 31
0.0
1001
ACDBBLOCKREPETAG
1070
     1
1071
       39
1005
12C10E
  0
LINE
  5
12C10F
  8
OBJECT
 10
477.0
 20
-2021.0
 30
0.0
 11
477.0
 21
-2057.0
 31
0.0
1001
ACDBBLOCKREPETAG
1070
     1
1071
       40
1005
12C10F
  0
LINE
  5
12C110
  8
OBJECT
 10
590.5
 20
-2017.0
 30
0.0
 11
590.5
 21
-2006.5
 31
0.0
1001
ACDBBLOCKREPETAG
1070
     1
1071
       41
1005
12C110
  0
LINE
  5
12C111
  8
OBJECT
 10
481.5
 20
-2006.5
 30
0.0
 11
481.5
 21
-2017.0
 31
0.0
1001
ACDBBLOCKREPETAG
1070
     1
1071
       42
1005
12C111
  0
LINE
  5
12C112
  8
OBJECT
 10
481.5
 20
-2017.0
 30
0.0
 11
590.5
 21
-2017.0
 31
0.0
1001
ACDBBLOCKREPETAG
1070
     1
1071
       43
1005
12C112
  0
LINE
  5
12C113
  8
OBJECT
 10
595.0
 20
-2021.0
 30
0.0
 11
590.5
 21
-2017.0
 31
0.0
1001
ACDBBLOCKREPETAG
1070
     1
1071
       44
1005
12C113
  0
LINE
  5
12C114
  8
OBJECT
 10
477.0
 20
-2021.0
 30
0.0
 11
481.5
 21
-2017.0
 31
0.0
1001
ACDBBLOCKREPETAG
1070
     1
1071
       45
1005
12C114
  0
LINE
  5
12C115
  8
OBJECT
 10
585.5
 20
-2001.5
 30
0.0
 11
585.4999999999988631
 21
-1980.3449199129790941
 31
0.0
1001
ACDBBLOCKREPETAG
1070
     1
1071
       46
1005
12C115
  0
LINE
  5
12C116
  8
OBJECT
 10
486.5
 20
-2001.5
 30
0.0
 11
486.5
 21
-1980.3449199129770477
 31
0.0
1001
ACDBBLOCKREPETAG
1070
     1
1071
       47
1005
12C116
  0
LINE
  5
12C117
  8
OBJECT
 10
590.5
 20
-2006.5
 30
0.0
 11
481.5
 21
-2006.5
 31
0.0
1001
ACDBBLOCKREPETAG
1070
     1
1071
       48
1005
12C117
  0
LINE
  5
12C118
  8
OBJECT
 10
585.5
 20
-2001.5
 30
0.0
 11
486.5
 21
-2001.5
 31
0.0
1001
ACDBBLOCKREPETAG
1070
     1
1071
       49
1005
12C118
  0
LINE
  5
12C119
  8
OBJECT
 10
590.5
 20
-2006.5
 30
0.0
 11
585.5
 21
-2001.5
 31
0.0
1001
ACDBBLOCKREPETAG
1070
     1
1071
       50
1005
12C119
  0
LINE
  5
12C11A
  8
OBJECT
 10
486.5
 20
-2001.5
 30
0.0
 11
481.5000000000035243
 21
-2006.5
 31
0.0
1001
ACDBBLOCKREPETAG
1070
     1
1071
       51
1005
12C11A
  0
INSERT
  5
12C11B
  8
SLIM
  2
*U19
 10
0.0
 20
0.0
 30
0.0
  0
LINE
  5
12C11C
  8
HIDDEN
 10
580.4999999999997726
 20
-2012.0
 30
0.0
 11
491.5
 21
-2012.0
 31
0.0
1001
ACDBBLOCKREPETAG
1070
     1
1071
       65
1005
12C11C
  0
LINE
  5
12C11D
  8
OBJECT
 10
114.0
 20
-2255.0
 30
0.0
 11
114.0
 21
-2248.0
 31
0.0
1001
ACDBBLOCKREPETAG
1070
     1
1071
       34
1005
12C11D
  0
LINE
  5
12C11E
  8
OBJECT
 10
114.0
 20
-2248.0
 30
0.0
 11
238.0
 21
-2248.0
 31
0.0
1001
ACDBBLOCKREPETAG
1070
     1
1071
       35
1005
12C11E
  0
LINE
  5
12C11F
  8
OBJECT
 10
238.0
 20
-2248.0
 30
0.0
 11
238.0
 21
-2255.0
 31
0.0
1001
ACDBBLOCKREPETAG
1070
     1
1071
       36
1005
12C11F
  0
LINE
  5
12C120
  8
OBJECT
 10
238.0
 20
-2255.0
 30
0.0
 11
114.0
 21
-2255.0
 31
0.0
1001
ACDBBLOCKREPETAG
1070
     1
1071
       37
1005
12C120
  0
LINE
  5
12C121
  8
OBJECT
 10
117.0
 20
-2255.0
 30
0.0
 11
117.0
 21
-2291.0
 31
0.0
1001
ACDBBLOCKREPETAG
1070
     1
1071
       38
1005
12C121
  0
LINE
  5
12C122
  8
OBJECT
 10
117.0
 20
-2291.0
 30
0.0
 11
235.0
 21
-2291.0
 31
0.0
1001
ACDBBLOCKREPETAG
1070
     1
1071
       39
1005
12C122
  0
LINE
  5
12C123
  8
OBJECT
 10
235.0
 20
-2291.0
 30
0.0
 11
235.0
 21
-2255.0
 31
0.0
1001
ACDBBLOCKREPETAG
1070
     1
1071
       40
1005
12C123
  0
LINE
  5
12C124
  8
OBJECT
 10
121.5
 20
-2295.0
 30
0.0
 11
121.5
 21
-2305.5
 31
0.0
1001
ACDBBLOCKREPETAG
1070
     1
1071
       41
1005
12C124
  0
LINE
  5
12C125
  8
OBJECT
 10
230.5
 20
-2305.5
 30
0.0
 11
230.5
 21
-2295.0
 31
0.0
1001
ACDBBLOCKREPETAG
1070
     1
1071
       42
1005
12C125
  0
LINE
  5
12C126
  8
OBJECT
 10
230.5
 20
-2295.0
 30
0.0
 11
121.5
 21
-2295.0
 31
0.0
1001
ACDBBLOCKREPETAG
1070
     1
1071
       43
1005
12C126
  0
LINE
  5
12C127
  8
OBJECT
 10
117.0
 20
-2291.0
 30
0.0
 11
121.5
 21
-2295.0
 31
0.0
1001
ACDBBLOCKREPETAG
1070
     1
1071
       44
1005
12C127
  0
LINE
  5
12C128
  8
OBJECT
 10
235.0
 20
-2291.0
 30
0.0
 11
230.5
 21
-2295.0
 31
0.0
1001
ACDBBLOCKREPETAG
1070
     1
1071
       45
1005
12C128
  0
LINE
  5
12C129
  8
OBJECT
 10
126.5
 20
-2310.5
 30
0.0
 11
126.5000000000008953
 21
-2331.6550800870209059
 31
0.0
1001
ACDBBLOCKREPETAG
1070
     1
1071
       46
1005
12C129
  0
LINE
  5
12C12A
  8
OBJECT
 10
225.5
 20
-2310.5
 30
0.0
 11
225.5
 21
-2331.6550800870209059
 31
0.0
1001
ACDBBLOCKREPETAG
1070
     1
1071
       47
1005
12C12A
  0
LINE
  5
12C12B
  8
OBJECT
 10
121.5
 20
-2305.5
 30
0.0
 11
230.5
 21
-2305.5
 31
0.0
1001
ACDBBLOCKREPETAG
1070
     1
1071
       48
1005
12C12B
  0
LINE
  5
12C12C
  8
OBJECT
 10
126.5
 20
-2310.5
 30
0.0
 11
225.5
 21
-2310.5
 31
0.0
1001
ACDBBLOCKREPETAG
1070
     1
1071
       49
1005
12C12C
  0
LINE
  5
12C12D
  8
OBJECT
 10
121.5
 20
-2305.5
 30
0.0
 11
126.5
 21
-2310.5
 31
0.0
1001
ACDBBLOCKREPETAG
1070
     1
1071
       50
1005
12C12D
  0
LINE
  5
12C12E
  8
OBJECT
 10
225.5
 20
-2310.5
 30
0.0
 11
230.4999999999963904
 21
-2305.5
 31
0.0
1001
ACDBBLOCKREPETAG
1070
     1
1071
       51
1005
12C12E
  0
INSERT
  5
12C12F
  8
SLIM
  2
*U20
 10
0.0
 20
0.0
 30
0.0
  0
LINE
  5
12C130
  8
HIDDEN
 10
131.5
 20
-2300.0
 30
0.0
 11
220.5
 21
-2300.0
 31
0.0
1001
ACDBBLOCKREPETAG
1070
     1
1071
       65
1005
12C130
  0
LINE
  5
12C131
  8
OBJECT
 10
223.0
 20
-2521.0
 30
0.0
 11
223.0
 21
-2528.0
 31
0.0
1001
ACDBBLOCKREPETAG
1070
     1
1071
        0
1005
12C131
  0
LINE
  5
12C132
  8
OBJECT
 10
223.0
 20
-2528.0
 30
0.0
 11
129.0
 21
-2528.0
 31
0.0
1001
ACDBBLOCKREPETAG
1070
     1
1071
        1
1005
12C132
  0
LINE
  5
12C133
  8
OBJECT
 10
129.0
 20
-2528.0
 30
0.0
 11
129.0
 21
-2521.0
 31
0.0
1001
ACDBBLOCKREPETAG
1070
     1
1071
        2
1005
12C133
  0
LINE
  5
12C134
  8
OBJECT
 10
129.0
 20
-2521.0
 30
0.0
 11
223.0
 21
-2521.0
 31
0.0
1001
ACDBBLOCKREPETAG
1070
     1
1071
        3
1005
12C134
  0
LINE
  5
12C135
  8
OBJECT
 10
220.0
 20
-2521.0
 30
0.0
 11
220.0
 21
-2485.0
 31
0.0
1001
ACDBBLOCKREPETAG
1070
     1
1071
        4
1005
12C135
  0
LINE
  5
12C136
  8
OBJECT
 10
220.0
 20
-2485.0
 30
0.0
 11
132.0
 21
-2485.0
 31
0.0
1001
ACDBBLOCKREPETAG
1070
     1
1071
        5
1005
12C136
  0
LINE
  5
12C137
  8
OBJECT
 10
132.0
 20
-2485.0
 30
0.0
 11
132.0
 21
-2521.0
 31
0.0
1001
ACDBBLOCKREPETAG
1070
     1
1071
        6
1005
12C137
  0
LINE
  5
12C138
  8
OBJECT
 10
215.5
 20
-2481.0
 30
0.0
 11
215.5
 21
-2472.5000000000009095
 31
0.0
1001
ACDBBLOCKREPETAG
1070
     1
1071
        7
1005
12C138
  0
LINE
  5
12C139
  8
OBJECT
 10
136.5
 20
-2472.5
 30
0.0
 11
136.5
 21
-2481.0
 31
0.0
1001
ACDBBLOCKREPETAG
1070
     1
1071
        8
1005
12C139
  0
LINE
  5
12C13A
  8
OBJECT
 10
136.5
 20
-2481.0
 30
0.0
 11
215.5
 21
-2481.0
 31
0.0
1001
ACDBBLOCKREPETAG
1070
     1
1071
        9
1005
12C13A
  0
LINE
  5
12C13B
  8
OBJECT
 10
220.0
 20
-2485.0
 30
0.0
 11
215.5
 21
-2481.0
 31
0.0
1001
ACDBBLOCKREPETAG
1070
     1
1071
       10
1005
12C13B
  0
LINE
  5
12C13C
  8
OBJECT
 10
132.0
 20
-2485.0
 30
0.0
 11
136.5
 21
-2481.0
 31
0.0
1001
ACDBBLOCKREPETAG
1070
     1
1071
       11
1005
12C13C
  0
LINE
  5
12C13D
  8
OBJECT
 10
129.5
 20
-2472.5
 30
0.0
 11
222.5
 21
-2472.5000000000009095
 31
0.0
1001
ACDBBLOCKREPETAG
1070
     1
1071
       12
1005
12C13D
  0
ARC
  5
12C13E
  8
OBJECT
 10
222.5
 20
-2469.5
 30
0.0
 40
3.0
 50
270.0
 51
0.0
1001
ACDBBLOCKREPETAG
1070
     1
1071
       13
1005
12C13E
  0
LINE
  5
12C13F
  8
OBJECT
 10
225.5
 20
-2469.5
 30
0.0
 11
225.5000000000009095
 21
-2444.3449199129800036
 31
0.0
1001
ACDBBLOCKREPETAG
1070
     1
1071
       15
1005
12C13F
  0
LINE
  5
12C140
  8
OBJECT
 10
126.5
 20
-2469.5
 30
0.0
 11
126.5000000000008953
 21
-2444.3449199129800036
 31
0.0
1001
ACDBBLOCKREPETAG
1070
     1
1071
       16
1005
12C140
  0
ARC
  5
12C141
  8
OBJECT
 10
129.5
 20
-2469.5
 30
0.0
 40
3.0
 50
180.0
 51
270.0
1001
ACDBBLOCKREPETAG
1070
     1
1071
       17
1005
12C141
  0
INSERT
  5
12C142
  8
SLIM
  2
*U21
 10
0.0
 20
0.0
 30
0.0
  0
LINE
  5
12C143
  8
HIDDEN
 10
206.0
 20
-2476.0
 30
0.0
 11
146.0
 21
-2476.0
 31
0.0
1001
ACDBBLOCKREPETAG
1070
     1
1071
       56
1005
12C143
  0
LINE
  5
12C144
  8
OBJECT
 10
474.0
 20
-2255.0
 30
0.0
 11
474.0
 21
-2248.0
 31
0.0
1001
ACDBBLOCKREPETAG
1070
     1
1071
       34
1005
12C144
  0
LINE
  5
12C145
  8
OBJECT
 10
474.0
 20
-2248.0
 30
0.0
 11
598.0
 21
-2248.0
 31
0.0
1001
ACDBBLOCKREPETAG
1070
     1
1071
       35
1005
12C145
  0
LINE
  5
12C146
  8
OBJECT
 10
598.0
 20
-2248.0
 30
0.0
 11
598.0
 21
-2255.0
 31
0.0
1001
ACDBBLOCKREPETAG
1070
     1
1071
       36
1005
12C146
  0
LINE
  5
12C147
  8
OBJECT
 10
598.0
 20
-2255.0
 30
0.0
 11
474.0
 21
-2255.0
 31
0.0
1001
ACDBBLOCKREPETAG
1070
     1
1071
       37
1005
12C147
  0
LINE
  5
12C148
  8
OBJECT
 10
477.0
 20
-2255.0
 30
0.0
 11
477.0
 21
-2291.0
 31
0.0
1001
ACDBBLOCKREPETAG
1070
     1
1071
       38
1005
12C148
  0
LINE
  5
12C149
  8
OBJECT
 10
477.0
 20
-2291.0
 30
0.0
 11
595.0
 21
-2291.0
 31
0.0
1001
ACDBBLOCKREPETAG
1070
     1
1071
       39
1005
12C149
  0
LINE
  5
12C14A
  8
OBJECT
 10
595.0
 20
-2291.0
 30
0.0
 11
595.0
 21
-2255.0
 31
0.0
1001
ACDBBLOCKREPETAG
1070
     1
1071
       40
1005
12C14A
  0
LINE
  5
12C14B
  8
OBJECT
 10
481.5
 20
-2295.0
 30
0.0
 11
481.5
 21
-2305.5
 31
0.0
1001
ACDBBLOCKREPETAG
1070
     1
1071
       41
1005
12C14B
  0
LINE
  5
12C14C
  8
OBJECT
 10
590.5
 20
-2305.5
 30
0.0
 11
590.5
 21
-2295.0
 31
0.0
1001
ACDBBLOCKREPETAG
1070
     1
1071
       42
1005
12C14C
  0
LINE
  5
12C14D
  8
OBJECT
 10
590.5
 20
-2295.0
 30
0.0
 11
481.5
 21
-2295.0
 31
0.0
1001
ACDBBLOCKREPETAG
1070
     1
1071
       43
1005
12C14D
  0
LINE
  5
12C14E
  8
OBJECT
 10
477.0
 20
-2291.0
 30
0.0
 11
481.5
 21
-2295.0
 31
0.0
1001
ACDBBLOCKREPETAG
1070
     1
1071
       44
1005
12C14E
  0
LINE
  5
12C14F
  8
OBJECT
 10
595.0
 20
-2291.0
 30
0.0
 11
590.5
 21
-2295.0
 31
0.0
1001
ACDBBLOCKREPETAG
1070
     1
1071
       45
1005
12C14F
  0
LINE
  5
12C150
  8
OBJECT
 10
486.5
 20
-2310.5
 30
0.0
 11
486.5000000000009095
 21
-2331.6550800870209059
 31
0.0
1001
ACDBBLOCKREPETAG
1070
     1
1071
       46
1005
12C150
  0
LINE
  5
12C151
  8
OBJECT
 10
585.5
 20
-2310.5
 30
0.0
 11
585.5
 21
-2331.6550800870209059
 31
0.0
1001
ACDBBLOCKREPETAG
1070
     1
1071
       47
1005
12C151
  0
LINE
  5
12C152
  8
OBJECT
 10
481.5
 20
-2305.5
 30
0.0
 11
590.5
 21
-2305.5
 31
0.0
1001
ACDBBLOCKREPETAG
1070
     1
1071
       48
1005
12C152
  0
LINE
  5
12C153
  8
OBJECT
 10
486.5
 20
-2310.5
 30
0.0
 11
585.5
 21
-2310.5
 31
0.0
1001
ACDBBLOCKREPETAG
1070
     1
1071
       49
1005
12C153
  0
LINE
  5
12C154
  8
OBJECT
 10
481.5
 20
-2305.5
 30
0.0
 11
486.5
 21
-2310.5
 31
0.0
1001
ACDBBLOCKREPETAG
1070
     1
1071
       50
1005
12C154
  0
LINE
  5
12C155
  8
OBJECT
 10
585.5
 20
-2310.5
 30
0.0
 11
590.4999999999961346
 21
-2305.5
 31
0.0
1001
ACDBBLOCKREPETAG
1070
     1
1071
       51
1005
12C155
  0
INSERT
  5
12C156
  8
SLIM
  2
*U22
 10
0.0
 20
0.0
 30
0.0
  0
LINE
  5
12C157
  8
HIDDEN
 10
491.5
 20
-2300.0
 30
0.0
 11
580.4999999999997726
 21
-2300.0
 31
0.0
1001
ACDBBLOCKREPETAG
1070
     1
1071
       65
1005
12C157
  0
LINE
  5
12C158
  8
OBJECT
 10
591.0
 20
-2521.0
 30
0.0
 11
591.0
 21
-2528.0
 31
0.0
1001
ACDBBLOCKREPETAG
1070
     1
1071
       18
1005
12C158
  0
LINE
  5
12C159
  8
OBJECT
 10
591.0
 20
-2528.0
 30
0.0
 11
481.0
 21
-2528.0
 31
0.0
1001
ACDBBLOCKREPETAG
1070
     1
1071
       19
1005
12C159
  0
LINE
  5
12C15A
  8
OBJECT
 10
481.0
 20
-2528.0
 30
0.0
 11
481.0
 21
-2521.0
 31
0.0
1001
ACDBBLOCKREPETAG
1070
     1
1071
       20
1005
12C15A
  0
LINE
  5
12C15B
  8
OBJECT
 10
481.0
 20
-2521.0
 30
0.0
 11
591.0
 21
-2521.0
 31
0.0
1001
ACDBBLOCKREPETAG
1070
     1
1071
       21
1005
12C15B
  0
LINE
  5
12C15C
  8
OBJECT
 10
588.0
 20
-2521.0
 30
0.0
 11
588.0
 21
-2485.0
 31
0.0
1001
ACDBBLOCKREPETAG
1070
     1
1071
       22
1005
12C15C
  0
LINE
  5
12C15D
  8
OBJECT
 10
588.0
 20
-2485.0
 30
0.0
 11
484.0
 21
-2485.0
 31
0.0
1001
ACDBBLOCKREPETAG
1070
     1
1071
       23
1005
12C15D
  0
LINE
  5
12C15E
  8
OBJECT
 10
484.0
 20
-2485.0
 30
0.0
 11
484.0
 21
-2521.0
 31
0.0
1001
ACDBBLOCKREPETAG
1070
     1
1071
       24
1005
12C15E
  0
LINE
  5
12C15F
  8
OBJECT
 10
583.4999999999998863
 20
-2481.0
 30
0.0
 11
583.4999999999998863
 21
-2472.5000000000009095
 31
0.0
1001
ACDBBLOCKREPETAG
1070
     1
1071
       25
1005
12C15F
  0
LINE
  5
12C160
  8
OBJECT
 10
488.4999999999997726
 20
-2472.5
 30
0.0
 11
488.4999999999997726
 21
-2481.0
 31
0.0
1001
ACDBBLOCKREPETAG
1070
     1
1071
       26
1005
12C160
  0
LINE
  5
12C161
  8
OBJECT
 10
488.4999999999997726
 20
-2481.0
 30
0.0
 11
583.4999999999998863
 21
-2481.0
 31
0.0
1001
ACDBBLOCKREPETAG
1070
     1
1071
       27
1005
12C161
  0
LINE
  5
12C162
  8
OBJECT
 10
588.0
 20
-2485.0
 30
0.0
 11
583.4999999999998863
 21
-2481.0
 31
0.0
1001
ACDBBLOCKREPETAG
1070
     1
1071
       28
1005
12C162
  0
LINE
  5
12C163
  8
OBJECT
 10
484.0
 20
-2485.0
 30
0.0
 11
488.4999999999997726
 21
-2481.0
 31
0.0
1001
ACDBBLOCKREPETAG
1070
     1
1071
       29
1005
12C163
  0
LINE
  5
12C164
  8
OBJECT
 10
486.5
 20
-2472.5
 30
0.0
 11
585.5
 21
-2472.5000000000009095
 31
0.0
1001
ACDBBLOCKREPETAG
1070
     1
1071
       30
1005
12C164
  0
LINE
  5
12C165
  8
OBJECT
 10
585.5
 20
-2472.5000000000009095
 30
0.0
 11
585.4999999999988631
 21
-2444.3449199129800036
 31
0.0
1001
ACDBBLOCKREPETAG
1070
     1
1071
       31
1005
12C165
  0
LINE
  5
12C166
  8
OBJECT
 10
486.5
 20
-2472.5
 30
0.0
 11
486.4999999999990905
 21
-2444.3449199129800036
 31
0.0
1001
ACDBBLOCKREPETAG
1070
     1
1071
       32
1005
12C166
  0
INSERT
  5
12C167
  8
SLIM
  2
*U23
 10
0.0
 20
0.0
 30
0.0
  0
LINE
  5
12C168
  8
HIDDEN
 10
574.0
 20
-2476.0
 30
0.0
 11
498.0
 21
-2476.0
 31
0.0
1001
ACDBBLOCKREPETAG
1070
     1
1071
       57
1005
12C168
  0
LINE
  5
12C169
  8
OBJECT
 10
114.0
 20
-2719.0
 30
0.0
 11
114.0
 21
-2712.0
 31
0.0
1001
ACDBBLOCKREPETAG
1070
     1
1071
       34
1005
12C169
  0
LINE
  5
12C16A
  8
OBJECT
 10
114.0
 20
-2712.0
 30
0.0
 11
238.0
 21
-2712.0
 31
0.0
1001
ACDBBLOCKREPETAG
1070
     1
1071
       35
1005
12C16A
  0
LINE
  5
12C16B
  8
OBJECT
 10
238.0
 20
-2712.0
 30
0.0
 11
238.0
 21
-2719.0
 31
0.0
1001
ACDBBLOCKREPETAG
1070
     1
1071
       36
1005
12C16B
  0
LINE
  5
12C16C
  8
OBJECT
 10
238.0
 20
-2719.0
 30
0.0
 11
114.0
 21
-2719.0
 31
0.0
1001
ACDBBLOCKREPETAG
1070
     1
1071
       37
1005
12C16C
  0
LINE
  5
12C16D
  8
OBJECT
 10
117.0
 20
-2719.0
 30
0.0
 11
117.0
 21
-2755.0
 31
0.0
1001
ACDBBLOCKREPETAG
1070
     1
1071
       38
1005
12C16D
  0
LINE
  5
12C16E
  8
OBJECT
 10
117.0
 20
-2755.0
 30
0.0
 11
235.0
 21
-2755.0
 31
0.0
1001
ACDBBLOCKREPETAG
1070
     1
1071
       39
1005
12C16E
  0
LINE
  5
12C16F
  8
OBJECT
 10
235.0
 20
-2755.0
 30
0.0
 11
235.0
 21
-2719.0
 31
0.0
1001
ACDBBLOCKREPETAG
1070
     1
1071
       40
1005
12C16F
  0
LINE
  5
12C170
  8
OBJECT
 10
121.5
 20
-2759.0
 30
0.0
 11
121.5
 21
-2769.5
 31
0.0
1001
ACDBBLOCKREPETAG
1070
     1
1071
       41
1005
12C170
  0
LINE
  5
12C171
  8
OBJECT
 10
230.5
 20
-2769.5
 30
0.0
 11
230.5
 21
-2759.0
 31
0.0
1001
ACDBBLOCKREPETAG
1070
     1
1071
       42
1005
12C171
  0
LINE
  5
12C172
  8
OBJECT
 10
230.5
 20
-2759.0
 30
0.0
 11
121.5
 21
-2759.0
 31
0.0
1001
ACDBBLOCKREPETAG
1070
     1
1071
       43
1005
12C172
  0
LINE
  5
12C173
  8
OBJECT
 10
117.0
 20
-2755.0
 30
0.0
 11
121.5
 21
-2759.0
 31
0.0
1001
ACDBBLOCKREPETAG
1070
     1
1071
       44
1005
12C173
  0
LINE
  5
12C174
  8
OBJECT
 10
235.0
 20
-2755.0
 30
0.0
 11
230.5
 21
-2759.0
 31
0.0
1001
ACDBBLOCKREPETAG
1070
     1
1071
       45
1005
12C174
  0
LINE
  5
12C175
  8
OBJECT
 10
126.5
 20
-2774.5
 30
0.0
 11
126.5000000000008953
 21
-2795.6550800870209059
 31
0.0
1001
ACDBBLOCKREPETAG
1070
     1
1071
       46
1005
12C175
  0
LINE
  5
12C176
  8
OBJECT
 10
225.5
 20
-2774.5
 30
0.0
 11
225.5
 21
-2795.6550800870209059
 31
0.0
1001
ACDBBLOCKREPETAG
1070
     1
1071
       47
1005
12C176
  0
LINE
  5
12C177
  8
OBJECT
 10
121.5
 20
-2769.5
 30
0.0
 11
230.5
 21
-2769.5
 31
0.0
1001
ACDBBLOCKREPETAG
1070
     1
1071
       48
1005
12C177
  0
LINE
  5
12C178
  8
OBJECT
 10
126.5
 20
-2774.5
 30
0.0
 11
225.5
 21
-2774.5
 31
0.0
1001
ACDBBLOCKREPETAG
1070
     1
1071
       49
1005
12C178
  0
LINE
  5
12C179
  8
OBJECT
 10
121.5
 20
-2769.5
 30
0.0
 11
126.5
 21
-2774.5
 31
0.0
1001
ACDBBLOCKREPETAG
1070
     1
1071
       50
1005
12C179
  0
LINE
  5
12C17A
  8
OBJECT
 10
225.5
 20
-2774.5
 30
0.0
 11
230.4999999999963904
 21
-2769.5
 31
0.0
1001
ACDBBLOCKREPETAG
1070
     1
1071
       51
1005
12C17A
  0
INSERT
  5
12C17B
  8
SLIM
  2
*U24
 10
0.0
 20
0.0
 30
0.0
  0
LINE
  5
12C17C
  8
HIDDEN
 10
131.5
 20
-2764.0
 30
0.0
 11
220.5
 21
-2764.0
 31
0.0
1001
ACDBBLOCKREPETAG
1070
     1
1071
       65
1005
12C17C
  0
LINE
  5
12C17D
  8
OBJECT
 10
238.0
 20
-2985.0
 30
0.0
 11
238.0
 21
-2992.0
 31
0.0
1001
ACDBBLOCKREPETAG
1070
     1
1071
       34
1005
12C17D
  0
LINE
  5
12C17E
  8
OBJECT
 10
238.0
 20
-2992.0
 30
0.0
 11
114.0
 21
-2992.0
 31
0.0
1001
ACDBBLOCKREPETAG
1070
     1
1071
       35
1005
12C17E
  0
LINE
  5
12C17F
  8
OBJECT
 10
114.0
 20
-2992.0
 30
0.0
 11
114.0
 21
-2985.0
 31
0.0
1001
ACDBBLOCKREPETAG
1070
     1
1071
       36
1005
12C17F
  0
LINE
  5
12C180
  8
OBJECT
 10
114.0
 20
-2985.0
 30
0.0
 11
238.0
 21
-2985.0
 31
0.0
1001
ACDBBLOCKREPETAG
1070
     1
1071
       37
1005
12C180
  0
LINE
  5
12C181
  8
OBJECT
 10
235.0
 20
-2985.0
 30
0.0
 11
235.0
 21
-2949.0
 31
0.0
1001
ACDBBLOCKREPETAG
1070
     1
1071
       38
1005
12C181
  0
LINE
  5
12C182
  8
OBJECT
 10
235.0
 20
-2949.0
 30
0.0
 11
117.0
 21
-2949.0
 31
0.0
1001
ACDBBLOCKREPETAG
1070
     1
1071
       39
1005
12C182
  0
LINE
  5
12C183
  8
OBJECT
 10
117.0
 20
-2949.0
 30
0.0
 11
117.0
 21
-2985.0
 31
0.0
1001
ACDBBLOCKREPETAG
1070
     1
1071
       40
1005
12C183
  0
LINE
  5
12C184
  8
OBJECT
 10
230.5
 20
-2945.0
 30
0.0
 11
230.5
 21
-2934.5
 31
0.0
1001
ACDBBLOCKREPETAG
1070
     1
1071
       41
1005
12C184
  0
LINE
  5
12C185
  8
OBJECT
 10
121.5
 20
-2934.5
 30
0.0
 11
121.5
 21
-2945.0
 31
0.0
1001
ACDBBLOCKREPETAG
1070
     1
1071
       42
1005
12C185
  0
LINE
  5
12C186
  8
OBJECT
 10
121.5
 20
-2945.0
 30
0.0
 11
230.5
 21
-2945.0
 31
0.0
1001
ACDBBLOCKREPETAG
1070
     1
1071
       43
1005
12C186
  0
LINE
  5
12C187
  8
OBJECT
 10
235.0
 20
-2949.0
 30
0.0
 11
230.5
 21
-2945.0
 31
0.0
1001
ACDBBLOCKREPETAG
1070
     1
1071
       44
1005
12C187
  0
LINE
  5
12C188
  8
OBJECT
 10
117.0
 20
-2949.0
 30
0.0
 11
121.5
 21
-2945.0
 31
0.0
1001
ACDBBLOCKREPETAG
1070
     1
1071
       45
1005
12C188
  0
LINE
  5
12C189
  8
OBJECT
 10
225.5
 20
-2929.5
 30
0.0
 11
225.4999999999990905
 21
-2908.3449199129800036
 31
0.0
1001
ACDBBLOCKREPETAG
1070
     1
1071
       46
1005
12C189
  0
LINE
  5
12C18A
  8
OBJECT
 10
126.5
 20
-2929.5
 30
0.0
 11
126.5
 21
-2908.3449199129781846
 31
0.0
1001
ACDBBLOCKREPETAG
1070
     1
1071
       47
1005
12C18A
  0
LINE
  5
12C18B
  8
OBJECT
 10
230.5
 20
-2934.5
 30
0.0
 11
121.5
 21
-2934.5
 31
0.0
1001
ACDBBLOCKREPETAG
1070
     1
1071
       48
1005
12C18B
  0
LINE
  5
12C18C
  8
OBJECT
 10
225.5
 20
-2929.5
 30
0.0
 11
126.5
 21
-2929.5
 31
0.0
1001
ACDBBLOCKREPETAG
1070
     1
1071
       49
1005
12C18C
  0
LINE
  5
12C18D
  8
OBJECT
 10
230.5
 20
-2934.5
 30
0.0
 11
225.5
 21
-2929.5
 31
0.0
1001
ACDBBLOCKREPETAG
1070
     1
1071
       50
1005
12C18D
  0
LINE
  5
12C18E
  8
OBJECT
 10
126.5
 20
-2929.5
 30
0.0
 11
121.5000000000035953
 21
-2934.5
 31
0.0
1001
ACDBBLOCKREPETAG
1070
     1
1071
       51
1005
12C18E
  0
INSERT
  5
12C18F
  8
SLIM
  2
*U25
 10
0.0
 20
0.0
 30
0.0
  0
LINE
  5
12C190
  8
HIDDEN
 10
220.5
 20
-2940.0
 30
0.0
 11
131.5
 21
-2940.0
 31
0.0
1001
ACDBBLOCKREPETAG
1070
     1
1071
       65
1005
12C190
  0
TEXT
  5
12C191
  8
SLIM
 10
-18.1999999999937891
 20
-3195.999999999182819
 30
0.0
 40
51.9999999999822577
  1
（特）：特注品。対向枝への排水の流入
 41
0.75
1001
ACDBBLOCKREPETAG
1070
     1
1071
      118
1005
128C29
  0
TEXT
  5
12C192
  8
SLIM
 10
0.0
 20
-3265.3333333324931118
 30
0.0
 40
51.9999999999822577
  1
が無いことを確認した場合のみ製作。
 41
0.75
1001
ACDBBLOCKREPETAG
1070
     1
1071
      118
1005
128C29
  0
CIRCLE
  5
12C193
  8
OBJECT
 10
180.0000000000418083
 20
-232.0000000001718945
 30
0.0
 40
70.0
1001
ACDBBLOCKREPETAG
1070
     1
1071
       50
1005
12C193
  0
CIRCLE
  5
12C194
  8
OBJECT
 10
180.0000000000418083
 20
-232.0000000001718945
 30
0.0
 40
77.0
1001
ACDBBLOCKREPETAG
1070
     1
1071
       51
1005
12C194
  0
ARC
  5
12C195
  8
OBJECT
 10
180.0000000000418083
 20
-232.0000000001718945
 30
0.0
 40
80.0
 50
140.8050325737796982
 51
39.1949674262202521
1001
ACDBBLOCKREPETAG
1070
     1
1071
       52
1005
12C195
  0
LINE
  5
12C196
  8
OBJECT
 10
118.0000000000417941
 20
-186.3381997728473038
 30
0.0
 11
118.0000000000417941
 21
-152.0000000001718092
 31
0.0
1001
ACDBBLOCKREPETAG
1070
     1
1071
       53
1005
12C196
  0
LINE
  5
12C197
  8
OBJECT
 10
242.0000000000418083
 20
-186.3381997728473038
 30
0.0
 11
242.0000000000418083
 21
-152.0000000001718092
 31
0.0
1001
ACDBBLOCKREPETAG
1070
     1
1071
       54
1005
12C197
  0
POINT
  5
12C198
  8
DOTS
 10
180.0000000000418083
 20
-232.0000000001718945
 30
0.0
1001
ACDBBLOCKREPETAG
1070
     1
1071
       63
1005
12C198
  0
CIRCLE
  5
12C199
  8
OBJECT
 10
180.0000000000418083
 20
-232.0000000001718945
 30
0.0
 40
53.5
1001
ACDBBLOCKREPETAG
1070
     1
1071
      157
1005
12C199
  0
CIRCLE
  5
12C19A
  8
OBJECT
 10
176.0
 20
-996.0
 30
0.0
 40
70.0
1001
ACDBBLOCKREPETAG
1070
     1
1071
       50
1005
12C19A
  0
CIRCLE
  5
12C19B
  8
OBJECT
 10
176.0
 20
-996.0
 30
0.0
 40
75.0
1001
ACDBBLOCKREPETAG
1070
     1
1071
       51
1005
12C19B
  0
POINT
  5
12C19C
  8
DOTS
 10
176.0
 20
-996.0
 30
0.0
1001
ACDBBLOCKREPETAG
1070
     1
1071
       63
1005
12C19C
  0
ARC
  5
12C19D
  8
OBJECT
 10
176.0
 20
-996.0
 30
0.0
 40
55.0
 50
299.3022457642870222
 51
240.6977542359811935
1001
ACDBBLOCKREPETAG
1070
     1
1071
       50
1005
12C19A
  0
LINE
  5
12C19E
  8
OBJECT
 10
152.175796075250986
 20
-1041.6779614447550557
 30
0.0
 11
144.1876176729984138
 21
-1047.5774584435469023
 31
0.0
  0
ARC
  5
12C19F
  8
OBJECT
 10
155.1461853586351936
 20
-1045.6999991752020378
 30
0.0
 40
5.0
 50
90.0
 51
126.4469224760729986
  0
LINE
  5
12C1A0
  8
OBJECT
 10
199.8242039246960076
 20
-1041.6779614446270443
 30
0.0
 11
207.8124539800938066
 21
-1047.5775113607780895
 31
0.0
  0
ARC
  5
12C1A1
  8
OBJECT
 10
196.8538146414830123
 20
-1045.6999991752020378
 30
0.0
 40
5.0
 50
53.5530775262745422
 51
90.0
  0
LINE
  5
12C1A2
  8
OBJECT
 10
196.8538146414830123
 20
-1040.6999991752029473
 30
0.0
 11
155.1461853586351936
 21
-1040.6999991752029473
 31
0.0
  0
ARC
  5
12C1A3
  8
OBJECT
 10
203.0598311269532132
 20
-1054.0127717297000345
 30
0.0
 40
8.0
 50
16.4762162479585612
 51
53.5530775262745422
  0
ARC
  5
12C1A4
  8
OBJECT
 10
148.9401688730449109
 20
-1054.0127717297000345
 30
0.0
 40
8.0
 50
126.4469224737253938
 51
163.5237837520413962
  0
LINE
  5
12C1A5
  8
OBJECT
 10
141.2686684859745014
 20
-1051.7438332529759464
 30
0.0
 11
140.0
 21
-1056.0333240792169818
 31
0.0
  0
LINE
  5
12C1A6
  8
OBJECT
 10
210.7313315140254133
 20
-1051.7438332529759464
 30
0.0
 11
212.0
 21
-1056.0333240792169818
 31
0.0
  0
CIRCLE
  5
12C1A7
  8
OBJECT
 10
535.9999999998779003
 20
-996.0
 30
0.0
 40
70.0
1001
ACDBBLOCKREPETAG
1070
     1
1071
       50
1005
12C1A7
  0
CIRCLE
  5
12C1A8
  8
OBJECT
 10
535.9999999998779003
 20
-996.0
 30
0.0
 40
75.0
1001
ACDBBLOCKREPETAG
1070
     1
1071
       51
1005
12C1A8
  0
POINT
  5
12C1A9
  8
DOTS
 10
535.9999999998779003
 20
-996.0
 30
0.0
1001
ACDBBLOCKREPETAG
1070
     1
1071
       63
1005
12C1A9
  0
ARC
  5
12C1AA
  8
OBJECT
 10
535.9999999998779003
 20
-996.0
 30
0.0
 40
55.0
 50
299.3022457642854874
 51
240.6977542359825009
1001
ACDBBLOCKREPETAG
1070
     1
1071
       50
1005
12C1A7
  0
LINE
  5
12C1AB
  8
OBJECT
 10
512.1757960751292558
 20
-1041.6779614447550557
 30
0.0
 11
504.1876176728763994
 21
-1047.5774584435469023
 31
0.0
  0
ARC
  5
12C1AC
  8
OBJECT
 10
515.1461853585130939
 20
-1045.6999991752020378
 30
0.0
 40
5.0
 50
90.0
 51
126.4469224760718049
  0
LINE
  5
12C1AD
  8
OBJECT
 10
559.824203924574249
 20
-1041.6779614446270443
 30
0.0
 11
567.8124539799719059
 21
-1047.5775113607780895
 31
0.0
  0
ARC
  5
12C1AE
  8
OBJECT
 10
556.8538146413611685
 20
-1045.6999991752020378
 30
0.0
 40
5.0
 50
53.5530775262758425
 51
90.0
  0
LINE
  5
12C1AF
  8
OBJECT
 10
556.8538146413611685
 20
-1040.6999991752029473
 30
0.0
 11
515.1461853585130939
 21
-1040.6999991752029473
 31
0.0
  0
ARC
  5
12C1B0
  8
OBJECT
 10
563.059831126831341
 20
-1054.0127717297000345
 30
0.0
 40
8.0
 50
16.4762162479585612
 51
53.5530775262758425
  0
ARC
  5
12C1B1
  8
OBJECT
 10
508.9401688729230955
 20
-1054.0127717297000345
 30
0.0
 40
8.0
 50
126.4469224737241007
 51
163.5237837520413962
  0
LINE
  5
12C1B2
  8
OBJECT
 10
501.2686684858525155
 20
-1051.7438332529759464
 30
0.0
 11
499.999999999878014
 21
-1056.0333240792169818
 31
0.0
  0
LINE
  5
12C1B3
  8
OBJECT
 10
570.7313315139034557
 20
-1051.7438332529759464
 30
0.0
 11
571.999999999878014
 21
-1056.0333240792169818
 31
0.0
  0
CIRCLE
  5
12C1B4
  8
OBJECT
 10
176.0
 20
-1459.9999999998419753
 30
0.0
 40
70.0
1001
ACDBBLOCKREPETAG
1070
     1
1071
       50
1005
12C1B4
  0
CIRCLE
  5
12C1B5
  8
OBJECT
 10
176.0
 20
-1459.9999999998419753
 30
0.0
 40
75.0
1001
ACDBBLOCKREPETAG
1070
     1
1071
       51
1005
12C1B5
  0
POINT
  5
12C1B6
  8
DOTS
 10
176.0
 20
-1459.9999999998419753
 30
0.0
1001
ACDBBLOCKREPETAG
1070
     1
1071
       63
1005
12C1B6
  0
ARC
  5
12C1B7
  8
OBJECT
 10
176.0
 20
-1459.9999999998419753
 30
0.0
 40
55.0
 50
299.3022457642870222
 51
240.6977542359811935
1001
ACDBBLOCKREPETAG
1070
     1
1071
       50
1005
12C1B4
  0
LINE
  5
12C1B8
  8
OBJECT
 10
152.175796075250986
 20
-1505.677961444597031
 30
0.0
 11
144.1876176729984138
 21
-1511.577458443389105
 31
0.0
  0
ARC
  5
12C1B9
  8
OBJECT
 10
155.1461853586351936
 20
-1509.6999991750449226
 30
0.0
 40
5.0
 50
90.0
 51
126.4469224760729986
  0
LINE
  5
12C1BA
  8
OBJECT
 10
199.8242039246960076
 20
-1505.6779614444690196
 30
0.0
 11
207.8124539800938066
 21
-1511.5775113606189279
 31
0.0
  0
ARC
  5
12C1BB
  8
OBJECT
 10
196.8538146414830123
 20
-1509.6999991750449226
 30
0.0
 40
5.0
 50
53.5530775262745422
 51
90.0
  0
LINE
  5
12C1BC
  8
OBJECT
 10
196.8538146414830123
 20
-1504.6999991750449226
 30
0.0
 11
155.1461853586351936
 21
-1504.6999991750449226
 31
0.0
  0
ARC
  5
12C1BD
  8
OBJECT
 10
203.0598311269532132
 20
-1518.0127717295420098
 30
0.0
 40
8.0
 50
16.4762162479585612
 51
53.5530775262745422
  0
ARC
  5
12C1BE
  8
OBJECT
 10
148.9401688730449109
 20
-1518.0127717295420098
 30
0.0
 40
8.0
 50
126.4469224737253938
 51
163.5237837520413962
  0
LINE
  5
12C1BF
  8
OBJECT
 10
141.2686684859745014
 20
-1515.7438332528179217
 30
0.0
 11
140.0
 21
-1520.0333240790589571
 31
0.0
  0
LINE
  5
12C1C0
  8
OBJECT
 10
210.7313315140254133
 20
-1515.7438332528179217
 30
0.0
 11
212.0
 21
-1520.0333240790589571
 31
0.0
  0
CIRCLE
  5
12C1C1
  8
OBJECT
 10
535.9999999998779003
 20
-1459.9999999998419753
 30
0.0
 40
70.0
1001
ACDBBLOCKREPETAG
1070
     1
1071
       50
1005
12C1C1
  0
CIRCLE
  5
12C1C2
  8
OBJECT
 10
535.9999999998779003
 20
-1459.9999999998419753
 30
0.0
 40
75.0
1001
ACDBBLOCKREPETAG
1070
     1
1071
       51
1005
12C1C2
  0
POINT
  5
12C1C3
  8
DOTS
 10
535.9999999998779003
 20
-1459.9999999998419753
 30
0.0
1001
ACDBBLOCKREPETAG
1070
     1
1071
       63
1005
12C1C3
  0
ARC
  5
12C1C4
  8
OBJECT
 10
535.9999999998779003
 20
-1459.9999999998419753
 30
0.0
 40
55.0
 50
299.3022457642854874
 51
240.6977542359825009
1001
ACDBBLOCKREPETAG
1070
     1
1071
       50
1005
12C1C1
  0
LINE
  5
12C1C5
  8
OBJECT
 10
512.1757960751292558
 20
-1505.677961444597031
 30
0.0
 11
504.1876176728763994
 21
-1511.577458443389105
 31
0.0
  0
ARC
  5
12C1C6
  8
OBJECT
 10
515.1461853585130939
 20
-1509.6999991750449226
 30
0.0
 40
5.0
 50
90.0
 51
126.4469224760718049
  0
LINE
  5
12C1C7
  8
OBJECT
 10
559.824203924574249
 20
-1505.6779614444690196
 30
0.0
 11
567.8124539799719059
 21
-1511.5775113606189279
 31
0.0
  0
ARC
  5
12C1C8
  8
OBJECT
 10
556.8538146413611685
 20
-1509.6999991750449226
 30
0.0
 40
5.0
 50
53.5530775262758425
 51
90.0
  0
LINE
  5
12C1C9
  8
OBJECT
 10
556.8538146413611685
 20
-1504.6999991750449226
 30
0.0
 11
515.1461853585130939
 21
-1504.6999991750449226
 31
0.0
  0
ARC
  5
12C1CA
  8
OBJECT
 10
563.059831126831341
 20
-1518.0127717295420098
 30
0.0
 40
8.0
 50
16.4762162479585612
 51
53.5530775262758425
  0
ARC
  5
12C1CB
  8
OBJECT
 10
508.9401688729230955
 20
-1518.0127717295420098
 30
0.0
 40
8.0
 50
126.4469224737241007
 51
163.5237837520413962
  0
LINE
  5
12C1CC
  8
OBJECT
 10
501.2686684858525155
 20
-1515.7438332528179217
 30
0.0
 11
499.999999999878014
 21
-1520.0333240790589571
 31
0.0
  0
LINE
  5
12C1CD
  8
OBJECT
 10
570.7313315139034557
 20
-1515.7438332528179217
 30
0.0
 11
571.999999999878014
 21
-1520.0333240790589571
 31
0.0
  0
CIRCLE
  5
12C1CE
  8
OBJECT
 10
176.0
 20
-1923.9999999996839506
 30
0.0
 40
70.0
1001
ACDBBLOCKREPETAG
1070
     1
1071
       50
1005
12C1CE
  0
CIRCLE
  5
12C1CF
  8
OBJECT
 10
176.0
 20
-1923.9999999996839506
 30
0.0
 40
75.0
1001
ACDBBLOCKREPETAG
1070
     1
1071
       51
1005
12C1CF
  0
POINT
  5
12C1D0
  8
DOTS
 10
176.0
 20
-1923.9999999996839506
 30
0.0
1001
ACDBBLOCKREPETAG
1070
     1
1071
       63
1005
12C1D0
  0
ARC
  5
12C1D1
  8
OBJECT
 10
176.0
 20
-1923.9999999996839506
 30
0.0
 40
55.0
 50
299.3022457642870222
 51
240.6977542359811935
1001
ACDBBLOCKREPETAG
1070
     1
1071
       50
1005
12C1CE
  0
LINE
  5
12C1D2
  8
OBJECT
 10
152.175796075250986
 20
-1969.6779614444380968
 30
0.0
 11
144.1876176729984138
 21
-1975.5774584432310803
 31
0.0
  0
ARC
  5
12C1D3
  8
OBJECT
 10
155.1461853586351936
 20
-1973.6999991748859884
 30
0.0
 40
5.0
 50
90.0
 51
126.4469224760729986
  0
LINE
  5
12C1D4
  8
OBJECT
 10
199.8242039246960076
 20
-1969.6779614443100854
 30
0.0
 11
207.8124539800938066
 21
-1975.5775113604609032
 31
0.0
  0
ARC
  5
12C1D5
  8
OBJECT
 10
196.8538146414830123
 20
-1973.6999991748859884
 30
0.0
 40
5.0
 50
53.5530775262745422
 51
90.0
  0
LINE
  5
12C1D6
  8
OBJECT
 10
196.8538146414830123
 20
-1968.6999991748859884
 30
0.0
 11
155.1461853586351936
 21
-1968.6999991748859884
 31
0.0
  0
ARC
  5
12C1D7
  8
OBJECT
 10
203.0598311269532132
 20
-1982.0127717293830756
 30
0.0
 40
8.0
 50
16.4762162479585612
 51
53.5530775262745422
  0
ARC
  5
12C1D8
  8
OBJECT
 10
148.9401688730449109
 20
-1982.0127717293830756
 30
0.0
 40
8.0
 50
126.4469224737253938
 51
163.5237837520413962
  0
LINE
  5
12C1D9
  8
OBJECT
 10
141.2686684859745014
 20
-1979.7438332526589875
 30
0.0
 11
140.0
 21
-1984.0333240789000229
 31
0.0
  0
LINE
  5
12C1DA
  8
OBJECT
 10
210.7313315140254133
 20
-1979.7438332526589875
 30
0.0
 11
212.0
 21
-1984.0333240789000229
 31
0.0
  0
CIRCLE
  5
12C1DB
  8
OBJECT
 10
535.9999999998779003
 20
-1923.9999999996839506
 30
0.0
 40
70.0
1001
ACDBBLOCKREPETAG
1070
     1
1071
       50
1005
12C1DB
  0
CIRCLE
  5
12C1DC
  8
OBJECT
 10
535.9999999998779003
 20
-1923.9999999996839506
 30
0.0
 40
75.0
1001
ACDBBLOCKREPETAG
1070
     1
1071
       51
1005
12C1DC
  0
POINT
  5
12C1DD
  8
DOTS
 10
535.9999999998779003
 20
-1923.9999999996839506
 30
0.0
1001
ACDBBLOCKREPETAG
1070
     1
1071
       63
1005
12C1DD
  0
ARC
  5
12C1DE
  8
OBJECT
 10
535.9999999998779003
 20
-1923.9999999996839506
 30
0.0
 40
55.0
 50
299.3022457642854874
 51
240.6977542359825009
1001
ACDBBLOCKREPETAG
1070
     1
1071
       50
1005
12C1DB
  0
LINE
  5
12C1DF
  8
OBJECT
 10
512.1757960751292558
 20
-1969.6779614444380968
 30
0.0
 11
504.1876176728763994
 21
-1975.5774584432310803
 31
0.0
  0
ARC
  5
12C1E0
  8
OBJECT
 10
515.1461853585130939
 20
-1973.6999991748859884
 30
0.0
 40
5.0
 50
90.0
 51
126.4469224760718049
  0
LINE
  5
12C1E1
  8
OBJECT
 10
559.824203924574249
 20
-1969.6779614443100854
 30
0.0
 11
567.8124539799719059
 21
-1975.5775113604609032
 31
0.0
  0
ARC
  5
12C1E2
  8
OBJECT
 10
556.8538146413611685
 20
-1973.6999991748859884
 30
0.0
 40
5.0
 50
53.5530775262758425
 51
90.0
  0
LINE
  5
12C1E3
  8
OBJECT
 10
556.8538146413611685
 20
-1968.6999991748859884
 30
0.0
 11
515.1461853585130939
 21
-1968.6999991748859884
 31
0.0
  0
ARC
  5
12C1E4
  8
OBJECT
 10
563.059831126831341
 20
-1982.0127717293830756
 30
0.0
 40
8.0
 50
16.4762162479585612
 51
53.5530775262758425
  0
ARC
  5
12C1E5
  8
OBJECT
 10
508.9401688729230955
 20
-1982.0127717293830756
 30
0.0
 40
8.0
 50
126.4469224737241007
 51
163.5237837520413962
  0
LINE
  5
12C1E6
  8
OBJECT
 10
501.2686684858525155
 20
-1979.7438332526589875
 30
0.0
 11
499.999999999878014
 21
-1984.0333240789000229
 31
0.0
  0
LINE
  5
12C1E7
  8
OBJECT
 10
570.7313315139034557
 20
-1979.7438332526589875
 30
0.0
 11
571.999999999878014
 21
-1984.0333240789000229
 31
0.0
  0
CIRCLE
  5
12C1E8
  8
OBJECT
 10
176.0
 20
-2387.999999999524789
 30
0.0
 40
70.0
1001
ACDBBLOCKREPETAG
1070
     1
1071
       50
1005
12C1E8
  0
CIRCLE
  5
12C1E9
  8
OBJECT
 10
176.0
 20
-2387.999999999524789
 30
0.0
 40
75.0
1001
ACDBBLOCKREPETAG
1070
     1
1071
       51
1005
12C1E9
  0
POINT
  5
12C1EA
  8
DOTS
 10
176.0
 20
-2387.999999999524789
 30
0.0
1001
ACDBBLOCKREPETAG
1070
     1
1071
       63
1005
12C1EA
  0
ARC
  5
12C1EB
  8
OBJECT
 10
176.0
 20
-2387.999999999524789
 30
0.0
 40
55.0
 50
299.3022457642807126
 51
240.6977542359875883
1001
ACDBBLOCKREPETAG
1070
     1
1071
       50
1005
12C1E8
  0
LINE
  5
12C1EC
  8
OBJECT
 10
152.175796075250986
 20
-2433.6779614442798447
 30
0.0
 11
144.1876176729984138
 21
-2439.5774584430728282
 31
0.0
  0
ARC
  5
12C1ED
  8
OBJECT
 10
155.1461853586351936
 20
-2437.6999991747288732
 30
0.0
 40
5.0
 50
90.0
 51
126.4469224760808004
  0
LINE
  5
12C1EE
  8
OBJECT
 10
199.8242039246960076
 20
-2433.6779614441529702
 30
0.0
 11
207.8124539800938066
 21
-2439.5775113603031059
 31
0.0
  0
ARC
  5
12C1EF
  8
OBJECT
 10
196.8538146414830123
 20
-2437.6999991747288732
 30
0.0
 40
5.0
 50
53.5530775262745422
 51
90.0
  0
LINE
  5
12C1F0
  8
OBJECT
 10
196.8538146414830123
 20
-2432.6999991747288732
 30
0.0
 11
155.1461853586351936
 21
-2432.6999991747288732
 31
0.0
  0
ARC
  5
12C1F1
  8
OBJECT
 10
203.0598311269532132
 20
-2446.0127717292248235
 30
0.0
 40
8.0
 50
16.4762162479710383
 51
53.5530775262745422
  0
ARC
  5
12C1F2
  8
OBJECT
 10
148.9401688730449109
 20
-2446.0127717292248235
 30
0.0
 40
8.0
 50
126.4469224737253938
 51
163.5237837520288906
  0
LINE
  5
12C1F3
  8
OBJECT
 10
141.2686684859745014
 20
-2443.7438332525020996
 30
0.0
 11
140.0
 21
-2448.033324078743135
 31
0.0
  0
LINE
  5
12C1F4
  8
OBJECT
 10
210.7313315140254133
 20
-2443.7438332525020996
 30
0.0
 11
212.0
 21
-2448.033324078743135
 31
0.0
  0
CIRCLE
  5
12C1F5
  8
OBJECT
 10
535.9999999998779003
 20
-2387.999999999524789
 30
0.0
 40
70.0
1001
ACDBBLOCKREPETAG
1070
     1
1071
       50
1005
12C1F5
  0
CIRCLE
  5
12C1F6
  8
OBJECT
 10
535.9999999998779003
 20
-2387.999999999524789
 30
0.0
 40
75.0
1001
ACDBBLOCKREPETAG
1070
     1
1071
       51
1005
12C1F6
  0
POINT
  5
12C1F7
  8
DOTS
 10
535.9999999998779003
 20
-2387.999999999524789
 30
0.0
1001
ACDBBLOCKREPETAG
1070
     1
1071
       63
1005
12C1F7
  0
ARC
  5
12C1F8
  8
OBJECT
 10
535.9999999998779003
 20
-2387.999999999524789
 30
0.0
 40
55.0
 50
299.3022457642791778
 51
240.6977542359890094
1001
ACDBBLOCKREPETAG
1070
     1
1071
       50
1005
12C1F5
  0
LINE
  5
12C1F9
  8
OBJECT
 10
512.1757960751292558
 20
-2433.6779614442798447
 30
0.0
 11
504.1876176728763994
 21
-2439.5774584430728282
 31
0.0
  0
ARC
  5
12C1FA
  8
OBJECT
 10
515.1461853585130939
 20
-2437.6999991747288732
 30
0.0
 40
5.0
 50
90.0
 51
126.4469224760793935
  0
LINE
  5
12C1FB
  8
OBJECT
 10
559.824203924574249
 20
-2433.6779614441529702
 30
0.0
 11
567.8124539799719059
 21
-2439.5775113603031059
 31
0.0
  0
ARC
  5
12C1FC
  8
OBJECT
 10
556.8538146413611685
 20
-2437.6999991747288732
 30
0.0
 40
5.0
 50
53.5530775262758425
 51
90.0
  0
LINE
  5
12C1FD
  8
OBJECT
 10
556.8538146413611685
 20
-2432.6999991747288732
 30
0.0
 11
515.1461853585130939
 21
-2432.6999991747288732
 31
0.0
  0
ARC
  5
12C1FE
  8
OBJECT
 10
563.059831126831341
 20
-2446.0127717292248235
 30
0.0
 40
8.0
 50
16.4762162479710383
 51
53.5530775262758425
  0
ARC
  5
12C1FF
  8
OBJECT
 10
508.9401688729230955
 20
-2446.0127717292248235
 30
0.0
 40
8.0
 50
126.4469224737241007
 51
163.5237837520288906
  0
LINE
  5
12C200
  8
OBJECT
 10
501.2686684858525155
 20
-2443.7438332525020996
 30
0.0
 11
499.999999999878014
 21
-2448.033324078743135
 31
0.0
  0
LINE
  5
12C201
  8
OBJECT
 10
570.7313315139034557
 20
-2443.7438332525020996
 30
0.0
 11
571.999999999878014
 21
-2448.033324078743135
 31
0.0
  0
CIRCLE
  5
12C202
  8
OBJECT
 10
176.0
 20
-2851.9999999993669917
 30
0.0
 40
70.0
1001
ACDBBLOCKREPETAG
1070
     1
1071
       50
1005
12C202
  0
CIRCLE
  5
12C203
  8
OBJECT
 10
176.0
 20
-2851.9999999993669917
 30
0.0
 40
75.0
1001
ACDBBLOCKREPETAG
1070
     1
1071
       51
1005
12C203
  0
POINT
  5
12C204
  8
DOTS
 10
176.0
 20
-2851.9999999993669917
 30
0.0
1001
ACDBBLOCKREPETAG
1070
     1
1071
       63
1005
12C204
  0
ARC
  5
12C205
  8
OBJECT
 10
176.0
 20
-2851.9999999993669917
 30
0.0
 40
55.0
 50
299.3022457642807126
 51
240.6977542359875883
1001
ACDBBLOCKREPETAG
1070
     1
1071
       50
1005
12C202
  0
LINE
  5
12C206
  8
OBJECT
 10
152.175796075250986
 20
-2897.6779614441220474
 30
0.0
 11
144.1876176729984138
 21
-2903.5774584429159404
 31
0.0
  0
ARC
  5
12C207
  8
OBJECT
 10
155.1461853586351936
 20
-2901.6999991745719853
 30
0.0
 40
5.0
 50
90.0
 51
126.4469224760808004
  0
LINE
  5
12C208
  8
OBJECT
 10
199.8242039246960076
 20
-2897.6779614439951729
 30
0.0
 11
207.8124539800938066
 21
-2903.5775113601448538
 31
0.0
  0
ARC
  5
12C209
  8
OBJECT
 10
196.8538146414830123
 20
-2901.6999991745719853
 30
0.0
 40
5.0
 50
53.5530775262745422
 51
90.0
  0
LINE
  5
12C20A
  8
OBJECT
 10
196.8538146414830123
 20
-2896.6999991745701664
 30
0.0
 11
155.1461853586351936
 21
-2896.6999991745701664
 31
0.0
  0
ARC
  5
12C20B
  8
OBJECT
 10
203.0598311269532132
 20
-2910.0127717290679357
 30
0.0
 40
8.0
 50
16.4762162479710383
 51
53.5530775262745422
  0
ARC
  5
12C20C
  8
OBJECT
 10
148.9401688730449109
 20
-2910.0127717290679357
 30
0.0
 40
8.0
 50
126.4469224737253938
 51
163.5237837520288906
  0
LINE
  5
12C20D
  8
OBJECT
 10
141.2686684859745014
 20
-2907.7438332523429381
 30
0.0
 11
140.0
 21
-2912.033324078584883
 31
0.0
  0
LINE
  5
12C20E
  8
OBJECT
 10
210.7313315140254133
 20
-2907.7438332523429381
 30
0.0
 11
212.0
 21
-2912.033324078584883
 31
0.0
  0
TEXT
  5
12C20F
  8
SLIM
 10
2356.25
 20
-1632.4999999999979536
 30
0.0
 40
35.0
  1
片受けスタイル（S）
 41
0.75
  0
TEXT
  5
12C210
  8
SLIM
 10
4241.6249999999990905
 20
-1635.6688230119070795
 30
0.0
 40
35.0
  1
片受けスタイル（S）＋シンドカット
 41
0.75
  0
LINE
  5
12C211
  8
DIM
 10
2665.0000000000009095
 20
-711.000000000005798
 30
0.0
 11
2719.424581672759814
 21
-711.000000000005798
 31
0.0
  0
LINE
  5
12C212
  8
DIM
 10
2650.0
 20
-1011.0000000000060254
 30
0.0
 11
2719.424581672759814
 21
-1011.0000000000060254
 31
0.0
  0
LINE
  5
12C213
  8
DIM
 10
2709.424581672759814
 20
-731.0000000000059117
 30
0.0
 11
2709.424581672759814
 21
-991.0000000000063665
 31
0.0
  0
INSERT
  5
12C214
  8
DIM
  2
_OPEN30
 10
2709.424581672759814
 20
-711.000000000005798
 30
0.0
 41
20.0
 42
20.0
 43
20.0
 50
90.0
  0
INSERT
  5
12C215
  8
DIM
  2
_OPEN30
 10
2709.424581672759814
 20
-1011.0000000000060254
 30
0.0
 41
20.0
 42
20.0
 43
20.0
 50
270.0
  0
INSERT
  5
12C216
  8
SLIM
  2
*U26
 10
0.0
 20
0.0
 30
0.0
  0
LINE
  5
12C217
  8
DIM
 10
4665.0000000000009095
 20
-711.000000000005798
 30
0.0
 11
4719.4245816727670899
 21
-711.000000000005798
 31
0.0
  0
LINE
  5
12C218
  8
DIM
 10
4650.0000000000009095
 20
-1011.0
 30
0.0
 11
4719.4245816727670899
 21
-1011.0
 31
0.0
  0
LINE
  5
12C219
  8
DIM
 10
4709.4245816727670899
 20
-731.0000000000059117
 30
0.0
 11
4709.4245816727670899
 21
-991.0000000000001137
 31
0.0
  0
INSERT
  5
12C21A
  8
DIM
  2
_OPEN30
 10
4709.4245816727670899
 20
-711.000000000005798
 30
0.0
 41
20.0
 42
20.0
 43
20.0
 50
90.0
  0
INSERT
  5
12C21B
  8
DIM
  2
_OPEN30
 10
4709.4245816727670899
 20
-1011.0
 30
0.0
 41
20.0
 42
20.0
 43
20.0
 50
270.0
  0
INSERT
  5
12C21C
  8
SLIM
  2
*U27
 10
0.0
 20
0.0
 30
0.0
  0
LINE
  5
12C21D
  8
DIM
 10
4404.9999999999936335
 20
-1016.0
 30
0.0
 11
4333.1164560757761137
 21
-1016.0
 31
0.0
  0
LINE
  5
12C21E
  8
DIM
 10
4410.0000000000009095
 20
-1251.0
 30
0.0
 11
4333.1164560757761137
 21
-1251.0
 31
0.0
  0
LINE
  5
12C21F
  8
DIM
 10
4343.1164560757761137
 20
-1036.0
 30
0.0
 11
4343.1164560757761137
 21
-1231.0
 31
0.0
  0
INSERT
  5
12C220
  8
DIM
  2
_OPEN30
 10
4343.1164560757761137
 20
-1016.0
 30
0.0
 41
20.0
 42
20.0
 43
20.0
 50
90.0
  0
INSERT
  5
12C221
  8
DIM
  2
_OPEN30
 10
4343.1164560757761137
 20
-1251.0
 30
0.0
 41
20.0
 42
20.0
 43
20.0
 50
270.0
  0
INSERT
  5
12C222
  8
SLIM
  2
*U28
 10
0.0
 20
0.0
 30
0.0
  0
LINE
  5
12C223
  8
OBJECT
 10
2430.0
 20
-1364.9999999999979536
 30
0.0
 11
2570.0
 21
-1364.9999999999979536
 31
0.0
1001
ACDBBLOCKREPETAG
1070
     1
1071
        0
1005
12C223
  0
LINE
  5
12C224
  8
OBJECT
 10
2430.0
 20
-1364.9999999999979536
 30
0.0
 11
2430.0
 21
-1124.9999999999979536
 31
0.0
1001
ACDBBLOCKREPETAG
1070
     1
1071
        1
1005
12C224
  0
LINE
  5
12C225
  8
OBJECT
 10
2570.0
 20
-1364.9999999999979536
 30
0.0
 11
2570.0
 21
-1124.9999999999979536
 31
0.0
1001
ACDBBLOCKREPETAG
1070
     1
1071
        2
1005
12C225
  0
LINE
  5
12C226
  8
OBJECT
 10
2430.0
 20
-1124.9999999999979536
 30
0.0
 11
2570.0
 21
-1124.9999999999979536
 31
0.0
1001
ACDBBLOCKREPETAG
1070
     1
1071
        3
1005
12C226
  0
LINE
  5
12C227
  8
HIDDEN
 10
2437.5
 20
-1124.9999999999979536
 30
0.0
 11
2437.5
 21
-1364.9999999999979536
 31
0.0
1001
ACDBBLOCKREPETAG
1070
     1
1071
        4
1005
12C227
  0
LINE
  5
12C228
  8
HIDDEN
 10
2562.5
 20
-1124.9999999999979536
 30
0.0
 11
2562.5
 21
-1364.9999999999979536
 31
0.0
1001
ACDBBLOCKREPETAG
1070
     1
1071
        5
1005
12C228
  0
LINE
  5
12C229
  8
CENTER
 10
2500.0
 20
-1055.0
 30
0.0
 11
2500.0
 21
-1379.9999999999979536
 31
0.0
1001
ACDBBLOCKREPETAG
1070
     1
1071
        6
1005
12C229
  0
LINE
  5
12C22A
  8
OBJECT
 10
2425.0
 20
-1055.0
 30
0.0
 11
2425.0
 21
-1084.9999999999979536
 31
0.0
1001
ACDBBLOCKREPETAG
1070
     1
1071
        7
1005
12C22A
  0
LINE
  5
12C22B
  8
OBJECT
 10
2575.0000000000050022
 20
-1055.0
 30
0.0
 11
2575.0
 21
-1084.9999999999979536
 31
0.0
1001
ACDBBLOCKREPETAG
1070
     1
1071
        8
1005
12C22B
  0
LINE
  5
12C22C
  8
OBJECT
 10
2425.0
 20
-1084.9999999999979536
 30
0.0
 11
2575.0
 21
-1084.9999999999979536
 31
0.0
1001
ACDBBLOCKREPETAG
1070
     1
1071
        9
1005
12C22C
  0
LINE
  5
12C22D
  8
OBJECT
 10
2425.0
 20
-1084.9999999999979536
 30
0.0
 11
2430.0
 21
-1124.9999999999979536
 31
0.0
1001
ACDBBLOCKREPETAG
1070
     1
1071
       10
1005
12C22D
  0
LINE
  5
12C22E
  8
OBJECT
 10
2570.0
 20
-1124.9999999999979536
 30
0.0
 11
2575.0
 21
-1084.9999999999979536
 31
0.0
1001
ACDBBLOCKREPETAG
1070
     1
1071
       11
1005
12C22E
  0
LINE
  5
12C22F
  8
OBJECT
 10
4430.0
 20
-1364.9999999999979536
 30
0.0
 11
4570.0
 21
-1364.9999999999979536
 31
0.0
1001
ACDBBLOCKREPETAG
1070
     1
1071
        0
1005
12C22F
  0
LINE
  5
12C230
  8
OBJECT
 10
4430.0
 20
-1364.9999999999979536
 30
0.0
 11
4430.0
 21
-1124.9999999999979536
 31
0.0
1001
ACDBBLOCKREPETAG
1070
     1
1071
        1
1005
12C230
  0
LINE
  5
12C231
  8
OBJECT
 10
4570.0
 20
-1364.9999999999979536
 30
0.0
 11
4570.0
 21
-1124.9999999999979536
 31
0.0
1001
ACDBBLOCKREPETAG
1070
     1
1071
        2
1005
12C231
  0
LINE
  5
12C232
  8
OBJECT
 10
4430.0
 20
-1124.9999999999979536
 30
0.0
 11
4570.0
 21
-1124.9999999999979536
 31
0.0
1001
ACDBBLOCKREPETAG
1070
     1
1071
        3
1005
12C232
  0
LINE
  5
12C233
  8
HIDDEN
 10
4437.5
 20
-1124.9999999999979536
 30
0.0
 11
4437.5
 21
-1364.9999999999979536
 31
0.0
1001
ACDBBLOCKREPETAG
1070
     1
1071
        4
1005
12C233
  0
LINE
  5
12C234
  8
HIDDEN
 10
4562.5
 20
-1124.9999999999979536
 30
0.0
 11
4562.5
 21
-1364.9999999999979536
 31
0.0
1001
ACDBBLOCKREPETAG
1070
     1
1071
        5
1005
12C234
  0
LINE
  5
12C235
  8
CENTER
 10
4500.0
 20
-1055.0
 30
0.0
 11
4500.0
 21
-1379.9999999999979536
 31
0.0
1001
ACDBBLOCKREPETAG
1070
     1
1071
        6
1005
12C235
  0
LINE
  5
12C236
  8
OBJECT
 10
4425.0
 20
-1055.0
 30
0.0
 11
4425.0
 21
-1084.9999999999979536
 31
0.0
1001
ACDBBLOCKREPETAG
1070
     1
1071
        7
1005
12C236
  0
LINE
  5
12C237
  8
OBJECT
 10
4575.000000000001819
 20
-1055.0
 30
0.0
 11
4575.0
 21
-1084.9999999999979536
 31
0.0
1001
ACDBBLOCKREPETAG
1070
     1
1071
        8
1005
12C237
  0
LINE
  5
12C238
  8
OBJECT
 10
4425.0
 20
-1084.9999999999979536
 30
0.0
 11
4575.0
 21
-1084.9999999999979536
 31
0.0
1001
ACDBBLOCKREPETAG
1070
     1
1071
        9
1005
12C238
  0
LINE
  5
12C239
  8
OBJECT
 10
4425.0
 20
-1084.9999999999979536
 30
0.0
 11
4430.0
 21
-1124.9999999999979536
 31
0.0
1001
ACDBBLOCKREPETAG
1070
     1
1071
       10
1005
12C239
  0
LINE
  5
12C23A
  8
OBJECT
 10
4570.0
 20
-1124.9999999999979536
 30
0.0
 11
4575.0
 21
-1084.9999999999979536
 31
0.0
1001
ACDBBLOCKREPETAG
1070
     1
1071
       11
1005
12C23A
  0
LINE
  5
12C23B
  8
SLIM
 10
4414.999999999992724
 20
-1032.2369265471759263
 30
0.0
 11
4436.2369265471688777
 21
-1011.0
 31
0.0
1001
GRADIENTCOLOR1ACI
1070
     5
1001
GRADIENTCOLOR2ACI
1070
     2
1001
ACAD
1010
0.0
1020
0.0
1030
0.0
  0
LINE
  5
12C23C
  8
SLIM
 10
4414.999999999992724
 20
-1050.1974387893139919
 30
0.0
 11
4454.1974387893096718
 21
-1011.0
 31
0.0
1001
GRADIENTCOLOR1ACI
1070
     5
1001
GRADIENTCOLOR2ACI
1070
     2
1001
ACAD
1010
0.0
1020
0.0
1030
0.0
  0
LINE
  5
12C23D
  8
SLIM
 10
4414.9999999999954525
 20
-1068.1579510314509207
 30
0.0
 11
4472.157951031446828
 21
-1011.0
 31
0.0
1001
GRADIENTCOLOR1ACI
1070
     5
1001
GRADIENTCOLOR2ACI
1070
     2
1001
ACAD
1010
0.0
1020
0.0
1030
0.0
  0
LINE
  5
12C23E
  8
SLIM
 10
4415.1454972543142503
 20
-1085.9729660192690517
 30
0.0
 11
4490.1184632735839841
 21
-1011.0
 31
0.0
1001
GRADIENTCOLOR1ACI
1070
     5
1001
GRADIENTCOLOR2ACI
1070
     2
1001
ACAD
1010
0.0
1020
0.0
1030
0.0
  0
LINE
  5
12C23F
  8
SLIM
 10
4417.1046274952450403
 20
-1101.9743480204790558
 30
0.0
 11
4508.0789755157229592
 21
-1011.0
 31
0.0
1001
GRADIENTCOLOR1ACI
1070
     5
1001
GRADIENTCOLOR2ACI
1070
     2
1001
ACAD
1010
0.0
1020
0.0
1030
0.0
  0
LINE
  5
12C240
  8
SLIM
 10
4419.0637577361712829
 20
-1117.9757300216890599
 30
0.0
 11
4526.0394877578619344
 21
-1011.0
 31
0.0
1001
GRADIENTCOLOR1ACI
1070
     5
1001
GRADIENTCOLOR2ACI
1070
     2
1001
ACAD
1010
0.0
1020
0.0
1030
0.0
  0
LINE
  5
12C241
  8
SLIM
 10
4420.0
 20
-1135.0
 30
0.0
 11
4544.0
 21
-1011.0
 31
0.0
1001
GRADIENTCOLOR1ACI
1070
     5
1001
GRADIENTCOLOR2ACI
1070
     2
1001
ACAD
1010
0.0
1020
0.0
1030
0.0
  0
LINE
  5
12C242
  8
SLIM
 10
4420.0
 20
-1152.9605122421380656
 30
0.0
 11
4561.9605122421362466
 21
-1011.0
 31
0.0
1001
GRADIENTCOLOR1ACI
1070
     5
1001
GRADIENTCOLOR2ACI
1070
     2
1001
ACAD
1010
0.0
1020
0.0
1030
0.0
  0
LINE
  5
12C243
  8
SLIM
 10
4420.0
 20
-1170.9210244842759039
 30
0.0
 11
4579.9210244842770408
 21
-1011.0
 31
0.0
1001
GRADIENTCOLOR1ACI
1070
     5
1001
GRADIENTCOLOR2ACI
1070
     2
1001
ACAD
1010
0.0
1020
0.0
1030
0.0
  0
LINE
  5
12C244
  8
SLIM
 10
4420.0
 20
-1188.8815367264151064
 30
0.0
 11
4585.000000000007276
 21
-1023.8815367264079441
 31
0.0
1001
GRADIENTCOLOR1ACI
1070
     5
1001
GRADIENTCOLOR2ACI
1070
     2
1001
ACAD
1010
0.0
1020
0.0
1030
0.0
  0
LINE
  5
12C245
  8
SLIM
 10
4420.0
 20
-1206.8420489685520351
 30
0.0
 11
4585.000000000007276
 21
-1041.8420489685470329
 31
0.0
1001
GRADIENTCOLOR1ACI
1070
     5
1001
GRADIENTCOLOR2ACI
1070
     2
1001
ACAD
1010
0.0
1020
0.0
1030
0.0
  0
LINE
  5
12C246
  8
SLIM
 10
4420.0
 20
-1224.8025612106910103
 30
0.0
 11
4585.000000000003638
 21
-1059.8025612106860081
 31
0.0
1001
GRADIENTCOLOR1ACI
1070
     5
1001
GRADIENTCOLOR2ACI
1070
     2
1001
ACAD
1010
0.0
1020
0.0
1030
0.0
  0
LINE
  5
12C247
  8
SLIM
 10
4420.0
 20
-1242.7630734528299854
 30
0.0
 11
4585.0000000000027285
 21
-1077.7630734528258927
 31
0.0
1001
GRADIENTCOLOR1ACI
1070
     5
1001
GRADIENTCOLOR2ACI
1070
     2
1001
ACAD
1010
0.0
1020
0.0
1030
0.0
  0
LINE
  5
12C248
  8
SLIM
 10
4429.7235856949682784
 20
-1251.0
 30
0.0
 11
4583.4738280308083631
 21
-1097.2497576641590058
 31
0.0
1001
GRADIENTCOLOR1ACI
1070
     5
1001
GRADIENTCOLOR2ACI
1070
     2
1001
ACAD
1010
0.0
1020
0.0
1030
0.0
  0
LINE
  5
12C249
  8
SLIM
 10
4430.0
 20
-1268.6840979371058893
 30
0.0
 11
4442.684097937106344
 21
-1256.0
 31
0.0
1001
GRADIENTCOLOR1ACI
1070
     5
1001
GRADIENTCOLOR2ACI
1070
     2
1001
ACAD
1010
0.0
1020
0.0
1030
0.0
  0
LINE
  5
12C24A
  8
SLIM
 10
4442.684097937106344
 20
-1256.0
 30
0.0
 11
4580.9680345671367832
 21
-1117.7160633699691061
 31
0.0
1001
GRADIENTCOLOR1ACI
1070
     5
1001
GRADIENTCOLOR2ACI
1070
     2
1001
ACAD
1010
0.0
1020
0.0
1030
0.0
  0
LINE
  5
12C24B
  8
SLIM
 10
4446.6446101792444097
 20
-1270.0
 30
0.0
 11
4460.6446101792444097
 21
-1256.0
 31
0.0
1001
GRADIENTCOLOR1ACI
1070
     5
1001
GRADIENTCOLOR2ACI
1070
     2
1001
ACAD
1010
0.0
1020
0.0
1030
0.0
  0
LINE
  5
12C24C
  8
SLIM
 10
4460.6446101792444097
 20
-1256.0
 30
0.0
 11
4580.0
 21
-1136.6446101792450918
 31
0.0
1001
GRADIENTCOLOR1ACI
1070
     5
1001
GRADIENTCOLOR2ACI
1070
     2
1001
ACAD
1010
0.0
1020
0.0
1030
0.0
  0
LINE
  5
12C24D
  8
SLIM
 10
4464.6051224213833848
 20
-1270.0
 30
0.0
 11
4478.6051224213842943
 21
-1256.0
 31
0.0
1001
GRADIENTCOLOR1ACI
1070
     5
1001
GRADIENTCOLOR2ACI
1070
     2
1001
ACAD
1010
0.0
1020
0.0
1030
0.0
  0
LINE
  5
12C24E
  8
SLIM
 10
4478.6051224213842943
 20
-1256.0
 30
0.0
 11
4580.0
 21
-1154.6051224213820205
 31
0.0
1001
GRADIENTCOLOR1ACI
1070
     5
1001
GRADIENTCOLOR2ACI
1070
     2
1001
ACAD
1010
0.0
1020
0.0
1030
0.0
  0
LINE
  5
12C24F
  8
SLIM
 10
4482.5656346635214504
 20
-1270.0
 30
0.0
 11
4496.5656346635214504
 21
-1256.0
 31
0.0
1001
GRADIENTCOLOR1ACI
1070
     5
1001
GRADIENTCOLOR2ACI
1070
     2
1001
ACAD
1010
0.0
1020
0.0
1030
0.0
  0
LINE
  5
12C250
  8
SLIM
 10
4496.5656346635214504
 20
-1256.0
 30
0.0
 11
4579.9999999999990905
 21
-1172.5656346635219052
 31
0.0
1001
GRADIENTCOLOR1ACI
1070
     5
1001
GRADIENTCOLOR2ACI
1070
     2
1001
ACAD
1010
0.0
1020
0.0
1030
0.0
  0
LINE
  5
12C251
  8
SLIM
 10
4500.5261469056576971
 20
-1270.0
 30
0.0
 11
4514.526146905661335
 21
-1256.0
 31
0.0
1001
GRADIENTCOLOR1ACI
1070
     5
1001
GRADIENTCOLOR2ACI
1070
     2
1001
ACAD
1010
0.0
1020
0.0
1030
0.0
  0
LINE
  5
12C252
  8
SLIM
 10
4514.526146905661335
 20
-1256.0
 30
0.0
 11
4579.9999999999990905
 21
-1190.5261469056599708
 31
0.0
1001
GRADIENTCOLOR1ACI
1070
     5
1001
GRADIENTCOLOR2ACI
1070
     2
1001
ACAD
1010
0.0
1020
0.0
1030
0.0
  0
LINE
  5
12C253
  8
SLIM
 10
4518.4866591477966722
 20
-1270.0
 30
0.0
 11
4532.4866591478003102
 21
-1256.0
 31
0.0
1001
GRADIENTCOLOR1ACI
1070
     5
1001
GRADIENTCOLOR2ACI
1070
     2
1001
ACAD
1010
0.0
1020
0.0
1030
0.0
  0
LINE
  5
12C254
  8
SLIM
 10
4532.4866591478003102
 20
-1256.0
 30
0.0
 11
4579.9999999999990905
 21
-1208.4866591477989459
 31
0.0
1001
GRADIENTCOLOR1ACI
1070
     5
1001
GRADIENTCOLOR2ACI
1070
     2
1001
ACAD
1010
0.0
1020
0.0
1030
0.0
  0
LINE
  5
12C255
  8
SLIM
 10
4536.4471713899356473
 20
-1270.0
 30
0.0
 11
4550.4471713899356473
 21
-1256.0
 31
0.0
1001
GRADIENTCOLOR1ACI
1070
     5
1001
GRADIENTCOLOR2ACI
1070
     2
1001
ACAD
1010
0.0
1020
0.0
1030
0.0
  0
LINE
  5
12C256
  8
SLIM
 10
4550.4471713899356473
 20
-1256.0
 30
0.0
 11
4579.9999999999990905
 21
-1226.447171389937921
 31
0.0
1001
GRADIENTCOLOR1ACI
1070
     5
1001
GRADIENTCOLOR2ACI
1070
     2
1001
ACAD
1010
0.0
1020
0.0
1030
0.0
  0
LINE
  5
12C257
  8
SLIM
 10
4554.4076836320728034
 20
-1270.0
 30
0.0
 11
4570.0
 21
-1254.4076836320739403
 31
0.0
1001
GRADIENTCOLOR1ACI
1070
     5
1001
GRADIENTCOLOR2ACI
1070
     2
1001
ACAD
1010
0.0
1020
0.0
1030
0.0
  0
LINE
  5
12C258
  8
SLIM
 10
4573.4076836320737129
 20
-1251.0
 30
0.0
 11
4579.9999999999990905
 21
-1244.4076836320759867
 31
0.0
1001
GRADIENTCOLOR1ACI
1070
     5
1001
GRADIENTCOLOR2ACI
1070
     2
1001
ACAD
1010
0.0
1020
0.0
1030
0.0
  0
LINE
  5
12C259
  8
OBJECT
 10
4414.9999999999918145
 20
-1011.0
 30
0.0
 11
4414.9999999999954525
 21
-1084.7846033990349497
 31
0.0
1001
ACDBBLOCKREPETAG
1070
     1
1071
        1
1005
12C259
  0
LINE
  5
12C25A
  8
OBJECT
 10
4585.000000000007276
 20
-1011.0
 30
0.0
 11
4585.0000000000027285
 21
-1084.7846033990419983
 31
0.0
1001
ACDBBLOCKREPETAG
1070
     1
1071
        2
1005
12C25A
  0
LINE
  5
12C25B
  8
OBJECT
 10
4585.000000000007276
 20
-1011.0
 30
0.0
 11
4414.9999999999918145
 21
-1011.0
 31
0.0
1001
ACDBBLOCKREPETAG
1070
     1
1071
        3
1005
12C25B
  0
LINE
  5
12C25C
  8
OBJECT
 10
4579.9999999999990905
 20
-1251.0
 30
0.0
 11
4420.0
 21
-1251.0
 31
0.0
1001
ACDBBLOCKREPETAG
1070
     1
1071
        4
1005
12C25C
  0
LINE
  5
12C25D
  8
OBJECT
 10
4414.9999999999954525
 20
-1084.7846033990349497
 30
0.0
 11
4420.0
 21
-1125.6225774829870261
 31
0.0
1001
ACDBBLOCKREPETAG
1070
     1
1071
        6
1005
12C25D
  0
LINE
  5
12C25E
  8
OBJECT
 10
4420.0
 20
-1125.6225774829870261
 30
0.0
 11
4420.0
 21
-1251.0
 31
0.0
1001
ACDBBLOCKREPETAG
1070
     1
1071
        7
1005
12C25E
  0
LINE
  5
12C25F
  8
OBJECT
 10
4585.0000000000027285
 20
-1084.7846033990419983
 30
0.0
 11
4580.0
 21
-1125.6225774829870261
 31
0.0
1001
ACDBBLOCKREPETAG
1070
     1
1071
        8
1005
12C25F
  0
LINE
  5
12C260
  8
OBJECT
 10
4580.0
 20
-1125.6225774829870261
 30
0.0
 11
4579.9999999999990905
 21
-1251.0
 31
0.0
1001
ACDBBLOCKREPETAG
1070
     1
1071
        9
1005
12C260
  0
LINE
  5
12C261
  8
OBJECT
 10
4430.0
 20
-1251.0
 30
0.0
 11
4430.0
 21
-1270.0
 31
0.0
1001
ACDBBLOCKREPETAG
1070
     1
1071
       10
1005
12C261
  0
LINE
  5
12C262
  8
OBJECT
 10
4430.0
 20
-1270.0
 30
0.0
 11
4570.0
 21
-1270.0
 31
0.0
1001
ACDBBLOCKREPETAG
1070
     1
1071
       11
1005
12C262
  0
LINE
  5
12C263
  8
OBJECT
 10
4570.0
 20
-1270.0
 30
0.0
 11
4570.0
 21
-1251.0
 31
0.0
1001
ACDBBLOCKREPETAG
1070
     1
1071
       12
1005
0
  0
LINE
  5
12C264
  8
OBJECT
 10
4633.0
 20
-152.9999999999990905
 30
0.0
 11
4640.0
 21
-152.9999999999990905
 31
0.0
1001
ACDBBLOCKREPETAG
1070
     1
1071
        7
1005
12C264
  0
LINE
  5
12C265
  8
OBJECT
 10
4640.0
 20
-152.9999999999990905
 30
0.0
 11
4640.0
 21
-246.9999999999990905
 31
0.0
1001
ACDBBLOCKREPETAG
1070
     1
1071
        8
1005
12C265
  0
LINE
  5
12C266
  8
OBJECT
 10
4640.0
 20
-246.9999999999990905
 30
0.0
 11
4633.0
 21
-246.9999999999990905
 31
0.0
1001
ACDBBLOCKREPETAG
1070
     1
1071
        9
1005
12C266
  0
LINE
  5
12C267
  8
OBJECT
 10
4633.0
 20
-246.9999999999990905
 30
0.0
 11
4633.0
 21
-152.9999999999990905
 31
0.0
1001
ACDBBLOCKREPETAG
1070
     1
1071
       10
1005
12C267
  0
LINE
  5
12C268
  8
CENTER
 10
4655.0
 20
-199.9999999999990905
 30
0.0
 11
4580.0
 21
-199.9999999999990905
 31
0.0
1001
ACDBBLOCKREPETAG
1070
     1
1071
       11
1005
12C268
  0
LINE
  5
12C269
  8
OBJECT
 10
4633.0
 20
-155.9999999999990905
 30
0.0
 11
4597.0
 21
-155.9999999999990905
 31
0.0
1001
ACDBBLOCKREPETAG
1070
     1
1071
       12
1005
12C269
  0
LINE
  5
12C26A
  8
OBJECT
 10
4597.0
 20
-155.9999999999990905
 30
0.0
 11
4597.0
 21
-243.9999999999990905
 31
0.0
1001
ACDBBLOCKREPETAG
1070
     1
1071
       13
1005
12C26A
  0
LINE
  5
12C26B
  8
OBJECT
 10
4597.0
 20
-243.9999999999990905
 30
0.0
 11
4633.0
 21
-243.9999999999990905
 31
0.0
1001
ACDBBLOCKREPETAG
1070
     1
1071
       14
1005
12C26B
  0
LINE
  5
12C26C
  8
OBJECT
 10
4593.0
 20
-160.4999999999990905
 30
0.0
 11
4586.0
 21
-160.4999999999990905
 31
0.0
1001
ACDBBLOCKREPETAG
1070
     1
1071
       15
1005
12C26C
  0
LINE
  5
12C26D
  8
OBJECT
 10
4586.0
 20
-239.4999999999990905
 30
0.0
 11
4593.0
 21
-239.4999999999990905
 31
0.0
1001
ACDBBLOCKREPETAG
1070
     1
1071
       16
1005
12C26D
  0
LINE
  5
12C26E
  8
OBJECT
 10
4593.0
 20
-239.4999999999990905
 30
0.0
 11
4593.0
 21
-160.4999999999990905
 31
0.0
1001
ACDBBLOCKREPETAG
1070
     1
1071
       17
1005
12C26E
  0
LINE
  5
12C26F
  8
OBJECT
 10
4597.0
 20
-155.9999999999990905
 30
0.0
 11
4593.0
 21
-160.4999999999990905
 31
0.0
1001
ACDBBLOCKREPETAG
1070
     1
1071
       18
1005
12C26F
  0
LINE
  5
12C270
  8
OBJECT
 10
4597.0
 20
-243.9999999999990905
 30
0.0
 11
4593.0
 21
-239.4999999999990905
 31
0.0
1001
ACDBBLOCKREPETAG
1070
     1
1071
       19
1005
12C270
  0
LINE
  5
12C271
  8
OBJECT
 10
4583.0
 20
-137.9999999999990905
 30
0.0
 11
4580.0
 21
-137.9999999999990905
 31
0.0
1001
ACDBBLOCKREPETAG
1070
     1
1071
       20
1005
12C271
  0
ARC
  5
12C272
  8
OBJECT
 10
4583.0
 20
-140.9999999999990905
 30
0.0
 40
3.0
 50
0.0
 51
90.0
1001
ACDBBLOCKREPETAG
1070
     1
1071
       21
1005
12C272
  0
LINE
  5
12C273
  8
OBJECT
 10
4580.0
 20
-261.9999999999990905
 30
0.0
 11
4583.0
 21
-261.9999999999990905
 31
0.0
1001
ACDBBLOCKREPETAG
1070
     1
1071
       22
1005
12C273
  0
ARC
  5
12C274
  8
OBJECT
 10
4583.0
 20
-258.9999999999990905
 30
0.0
 40
3.0
 50
270.0
 51
0.0
1001
ACDBBLOCKREPETAG
1070
     1
1071
       23
1005
12C274
  0
LINE
  5
12C275
  8
OBJECT
 10
4586.0
 20
-258.9999999999990905
 30
0.0
 11
4586.0
 21
-140.9999999999990905
 31
0.0
1001
ACDBBLOCKREPETAG
1070
     1
1071
       24
1005
12C275
  0
LINE
  5
12C276
  8
HIDDEN
 10
4588.0
 20
-169.9999999999990905
 30
0.0
 11
4588.0
 21
-229.9999999999990905
 31
0.0
1001
ACDBBLOCKREPETAG
1070
     1
1071
       25
1005
12C276
  0
LINE
  5
12C277
  8
SLIM
  6
CONTINUOUS
 10
4434.6248517421099677
 20
-150.4999999999990905
 30
0.0
 11
4460.2662412276949908
 21
-124.8586105144150054
 31
0.0
1001
GRADIENTCOLOR1ACI
1070
     5
1001
GRADIENTCOLOR2ACI
1070
     2
1001
ACAD
1010
0.0
1020
0.0
1030
0.0
  0
LINE
  5
12C278
  8
SLIM
  6
CONTINUOUS
 10
4466.9665679627396457
 20
-127.1385399004411028
 30
0.0
 11
4475.4966737955073768
 21
-118.6084340676741959
 31
0.0
1001
GRADIENTCOLOR1ACI
1070
     5
1001
GRADIENTCOLOR2ACI
1070
     2
1001
ACAD
1010
0.0
1020
0.0
1030
0.0
  0
LINE
  5
12C279
  8
SLIM
  6
CONTINUOUS
 10
4480.7298081179296787
 20
-122.3555558663202021
 30
0.0
 11
4487.1009205801610733
 21
-115.9844434040886938
 31
0.0
1001
GRADIENTCOLOR1ACI
1070
     5
1001
GRADIENTCOLOR2ACI
1070
     2
1001
ACAD
1010
0.0
1020
0.0
1030
0.0
  0
LINE
  5
12C27A
  8
SLIM
  6
CONTINUOUS
 10
4491.6261550504887055
 20
-120.4394650548301939
 30
0.0
 11
4497.013124938400324
 21
-115.0524951669185043
 31
0.0
1001
GRADIENTCOLOR1ACI
1070
     5
1001
GRADIENTCOLOR2ACI
1070
     2
1001
ACAD
1010
0.0
1020
0.0
1030
0.0
  0
LINE
  5
12C27B
  8
SLIM
  6
CONTINUOUS
 10
4501.0391272822816973
 20
-120.0067489441062065
 30
0.0
 11
4505.8446943102489968
 21
-115.201181916138907
 31
0.0
1001
GRADIENTCOLOR1ACI
1070
     5
1001
GRADIENTCOLOR2ACI
1070
     2
1001
ACAD
1010
0.0
1020
0.0
1030
0.0
  0
LINE
  5
12C27C
  8
SLIM
  6
CONTINUOUS
 10
4509.4643255646178659
 20
-120.5618067828390991
 30
0.0
 11
4513.8844735755637885
 21
-116.1416587718931055
 31
0.0
1001
GRADIENTCOLOR1ACI
1070
     5
1001
GRADIENTCOLOR2ACI
1070
     2
1001
ACAD
1010
0.0
1020
0.0
1030
0.0
  0
LINE
  5
12C27D
  8
SLIM
  6
CONTINUOUS
 10
4517.1471323385685537
 20
-121.8592561299565062
 30
0.0
 11
4521.2955183575040792
 21
-117.7108701110200997
 31
0.0
1001
GRADIENTCOLOR1ACI
1070
     5
1001
GRADIENTCOLOR2ACI
1070
     2
1001
ACAD
1010
0.0
1020
0.0
1030
0.0
  0
LINE
  5
12C27E
  8
SLIM
  6
CONTINUOUS
 10
4524.229292622219873
 20
-123.7573519673731965
 30
0.0
 11
4528.1796002140081328
 21
-119.8070443755877932
 31
0.0
1001
GRADIENTCOLOR1ACI
1070
     5
1001
GRADIENTCOLOR2ACI
1070
     2
1001
ACAD
1010
0.0
1020
0.0
1030
0.0
  0
LINE
  5
12C27F
  8
SLIM
  6
CONTINUOUS
 10
4530.8001598408181962
 20
-126.1667408698467057
 30
0.0
 11
4534.6041959971053075
 21
-122.3627047135578039
 31
0.0
1001
GRADIENTCOLOR1ACI
1070
     5
1001
GRADIENTCOLOR2ACI
1070
     2
1001
ACAD
1010
0.0
1020
0.0
1030
0.0
  0
LINE
  5
12C280
  8
SLIM
  6
CONTINUOUS
 10
4536.9189300973530408
 20
-129.0282267343781939
 30
0.0
 11
4540.6155853902901072
 21
-125.3315714414430033
 31
0.0
1001
GRADIENTCOLOR1ACI
1070
     5
1001
GRADIENTCOLOR2ACI
1070
     2
1001
ACAD
1010
0.0
1020
0.0
1030
0.0
  0
LINE
  5
12C281
  8
SLIM
  6
CONTINUOUS
 10
4542.6256620680069318
 20
-132.3017508847952115
 30
0.0
 11
4546.245858059091006
 21
-128.6815548937111089
 31
0.0
1001
GRADIENTCOLOR1ACI
1070
     5
1001
GRADIENTCOLOR2ACI
1070
     2
1001
ACAD
1010
0.0
1020
0.0
1030
0.0
  0
LINE
  5
12C282
  8
SLIM
  6
CONTINUOUS
 10
4432.3907652629231961
 20
-251.5169038109480084
 30
0.0
 11
4434.4076690738720572
 21
-249.4999999999996021
 31
0.0
1001
GRADIENTCOLOR1ACI
1070
     5
1001
GRADIENTCOLOR2ACI
1070
     2
1001
ACAD
1010
0.0
1020
0.0
1030
0.0
  0
LINE
  5
12C283
  8
SLIM
  6
CONTINUOUS
 10
4547.9472200511290794
 20
-135.960449022741102
 30
0.0
 11
4551.5169038109488611
 21
-132.3907652629204108
 31
0.0
1001
GRADIENTCOLOR1ACI
1070
     5
1001
GRADIENTCOLOR2ACI
1070
     2
1001
ACAD
1010
0.0
1020
0.0
1030
0.0
  0
LINE
  5
12C284
  8
SLIM
  6
CONTINUOUS
 10
4436.445174293106902
 20
-256.4427509018315163
 30
0.0
 11
4439.9873013608048495
 21
-252.9006238341358141
 31
0.0
1001
GRADIENTCOLOR1ACI
1070
     5
1001
GRADIENTCOLOR2ACI
1070
     2
1001
ACAD
1010
0.0
1020
0.0
1030
0.0
  0
LINE
  5
12C285
  8
SLIM
  6
CONTINUOUS
 10
4554.88792519494109
 20
-137.9999999999990905
 30
0.0
 11
4556.442750901836007
 21
-136.4451742931049978
 31
0.0
1001
GRADIENTCOLOR1ACI
1070
     5
1001
GRADIENTCOLOR2ACI
1070
     2
1001
ACAD
1010
0.0
1020
0.0
1030
0.0
  0
LINE
  5
12C286
  8
SLIM
  6
CONTINUOUS
 10
4440.8372731495674088
 20
-261.0309081664418045
 30
0.0
 11
4444.3732607963193004
 21
-257.4949205196899129
 31
0.0
1001
GRADIENTCOLOR1ACI
1070
     5
1001
GRADIENTCOLOR2ACI
1070
     2
1001
ACAD
1010
0.0
1020
0.0
1030
0.0
  0
LINE
  5
12C287
  8
SLIM
  6
CONTINUOUS
 10
4445.5654027321443209
 20
-265.2830347049348916
 30
0.0
 11
4449.1163342680174537
 21
-261.7321031690607924
 31
0.0
1001
GRADIENTCOLOR1ACI
1070
     5
1001
GRADIENTCOLOR2ACI
1070
     2
1001
ACAD
1010
0.0
1020
0.0
1030
0.0
  0
LINE
  5
12C288
  8
SLIM
  6
CONTINUOUS
 10
4450.6336102119221323
 20
-269.1950833462256014
 30
0.0
 11
4454.2213873681739642
 21
-265.6073061899733148
 31
0.0
1001
GRADIENTCOLOR1ACI
1070
     5
1001
GRADIENTCOLOR2ACI
1070
     2
1001
ACAD
1010
0.0
1020
0.0
1030
0.0
  0
LINE
  5
12C289
  8
SLIM
  6
CONTINUOUS
 10
4456.0520018449296913
 20
-272.7569478342888942
 30
0.0
 11
4459.7006257556995479
 21
-269.1083239235172186
 31
0.0
1001
GRADIENTCOLOR1ACI
1070
     5
1001
GRADIENTCOLOR2ACI
1070
     2
1001
ACAD
1010
0.0
1020
0.0
1030
0.0
  0
LINE
  5
12C28A
  8
SLIM
  6
CONTINUOUS
 10
4461.8376665887199124
 20
-275.9515392115658869
 30
0.0
 11
4465.5748693932528113
 21
-272.214336407033386
 31
0.0
1001
GRADIENTCOLOR1ACI
1070
     5
1001
GRADIENTCOLOR2ACI
1070
     2
1001
ACAD
1010
0.0
1020
0.0
1030
0.0
  0
LINE
  5
12C28B
  8
SLIM
  6
CONTINUOUS
 10
4468.0163793697502115
 20
-278.7530825516054733
 30
0.0
 11
4471.8759515352576273
 21
-274.893510386098626
 31
0.0
1001
GRADIENTCOLOR1ACI
1070
     5
1001
GRADIENTCOLOR2ACI
1070
     2
1001
ACAD
1010
0.0
1020
0.0
1030
0.0
  0
LINE
  5
12C28C
  8
SLIM
  6
CONTINUOUS
 10
4474.6255187948081584
 20
-281.1241992476171276
 30
0.0
 11
4478.6509600030767615
 21
-277.0987580393465919
 31
0.0
1001
GRADIENTCOLOR1ACI
1070
     5
1001
GRADIENTCOLOR2ACI
1070
     2
1001
ACAD
1010
0.0
1020
0.0
1030
0.0
  0
LINE
  5
12C28D
  8
SLIM
  6
CONTINUOUS
 10
4481.7190828919883643
 20
-283.0108912715048746
 30
0.0
 11
4485.9698622171854367
 21
-278.7601119463088253
 31
0.0
1001
GRADIENTCOLOR1ACI
1070
     5
1001
GRADIENTCOLOR2ACI
1070
     2
1001
ACAD
1010
0.0
1020
0.0
1030
0.0
  0
LINE
  5
12C28E
  8
SLIM
  6
CONTINUOUS
 10
4489.376693855881058
 20
-284.33353642868218
 30
0.0
 11
4493.9400771270447876
 21
-279.7701531575175977
 31
0.0
1001
GRADIENTCOLOR1ACI
1070
     5
1001
GRADIENTCOLOR2ACI
1070
     2
1001
ACAD
1010
0.0
1020
0.0
1030
0.0
  0
LINE
  5
12C28F
  8
SLIM
  6
CONTINUOUS
 10
4497.7210427574209461
 20
-284.9694436482096194
 30
0.0
 11
4500.0
 21
-282.690486405630395
 31
0.0
1001
GRADIENTCOLOR1ACI
1070
     5
1001
GRADIENTCOLOR2ACI
1070
     2
1001
ACAD
1010
0.0
1020
0.0
1030
0.0
  0
LINE
  5
12C290
  8
SLIM
  6
CONTINUOUS
 10
4500.0
 20
-282.690486405630395
 30
0.0
 11
4502.73733126109164
 21
-279.9531551445406876
 31
0.0
1001
GRADIENTCOLOR1ACI
1070
     5
1001
GRADIENTCOLOR2ACI
1070
     2
1001
ACAD
1010
0.0
1020
0.0
1030
0.0
  0
LINE
  5
12C291
  8
SLIM
  6
CONTINUOUS
 10
4506.9558298417923652
 20
-284.7149126849088816
 30
0.0
 11
4512.6824114987848588
 21
-278.9883310279146826
 31
0.0
1001
GRADIENTCOLOR1ACI
1070
     5
1001
GRADIENTCOLOR2ACI
1070
     2
1001
ACAD
1010
0.0
1020
0.0
1030
0.0
  0
LINE
  5
12C292
  8
SLIM
  6
CONTINUOUS
 10
4517.4645176312833428
 20
-283.1864810164871074
 30
0.0
 11
4524.4924948954112551
 21
-276.1585037523599908
 31
0.0
1001
GRADIENTCOLOR1ACI
1070
     5
1001
GRADIENTCOLOR2ACI
1070
     2
1001
ACAD
1010
0.0
1020
0.0
1030
0.0
  0
LINE
  5
12C293
  8
SLIM
  6
CONTINUOUS
 10
4530.1631022713127095
 20
-279.4681524975267166
 30
0.0
 11
4540.8425463192979805
 21
-268.7887084495415024
 31
0.0
1001
GRADIENTCOLOR1ACI
1070
     5
1001
GRADIENTCOLOR2ACI
1070
     2
1001
ACAD
1010
0.0
1020
0.0
1030
0.0
  0
LINE
  5
12C294
  8
SLIM
  6
CONTINUOUS
 10
4549.5421817599126371
 20
-269.0693291299958219
 30
0.0
 11
4556.6115108899066399
 21
-262.0
 31
0.0
1001
GRADIENTCOLOR1ACI
1070
     5
1001
GRADIENTCOLOR2ACI
1070
     2
1001
ACAD
1010
0.0
1020
0.0
1030
0.0
  0
LINE
  5
12C295
  8
OBJECT
 10
2633.0
 20
-152.9999999999980105
 30
0.0
 11
2640.0
 21
-152.9999999999980105
 31
0.0
1001
ACDBBLOCKREPETAG
1070
     1
1071
        7
1005
12C295
  0
LINE
  5
12C296
  8
OBJECT
 10
2640.0
 20
-152.9999999999980105
 30
0.0
 11
2640.0
 21
-246.9999999999980105
 31
0.0
1001
ACDBBLOCKREPETAG
1070
     1
1071
        8
1005
12C296
  0
LINE
  5
12C297
  8
OBJECT
 10
2640.0
 20
-246.9999999999980105
 30
0.0
 11
2633.0
 21
-246.9999999999980105
 31
0.0
1001
ACDBBLOCKREPETAG
1070
     1
1071
        9
1005
12C297
  0
LINE
  5
12C298
  8
OBJECT
 10
2633.0
 20
-246.9999999999980105
 30
0.0
 11
2633.0
 21
-152.9999999999980105
 31
0.0
1001
ACDBBLOCKREPETAG
1070
     1
1071
       10
1005
12C298
  0
LINE
  5
12C299
  8
CENTER
 10
2655.0
 20
-199.9999999999980105
 30
0.0
 11
2580.0
 21
-199.9999999999980105
 31
0.0
1001
ACDBBLOCKREPETAG
1070
     1
1071
       11
1005
12C299
  0
LINE
  5
12C29A
  8
OBJECT
 10
2633.0
 20
-155.9999999999980105
 30
0.0
 11
2596.9999999999990905
 21
-155.9999999999980105
 31
0.0
1001
ACDBBLOCKREPETAG
1070
     1
1071
       12
1005
12C29A
  0
LINE
  5
12C29B
  8
OBJECT
 10
2596.9999999999990905
 20
-155.9999999999980105
 30
0.0
 11
2596.9999999999990905
 21
-243.9999999999980105
 31
0.0
1001
ACDBBLOCKREPETAG
1070
     1
1071
       13
1005
12C29B
  0
LINE
  5
12C29C
  8
OBJECT
 10
2596.9999999999990905
 20
-243.9999999999980105
 30
0.0
 11
2633.0
 21
-243.9999999999980105
 31
0.0
1001
ACDBBLOCKREPETAG
1070
     1
1071
       14
1005
12C29C
  0
LINE
  5
12C29D
  8
OBJECT
 10
2593.0
 20
-160.4999999999980105
 30
0.0
 11
2586.0
 21
-160.4999999999980105
 31
0.0
1001
ACDBBLOCKREPETAG
1070
     1
1071
       15
1005
12C29D
  0
LINE
  5
12C29E
  8
OBJECT
 10
2586.0
 20
-239.4999999999980105
 30
0.0
 11
2593.0
 21
-239.4999999999980105
 31
0.0
1001
ACDBBLOCKREPETAG
1070
     1
1071
       16
1005
12C29E
  0
LINE
  5
12C29F
  8
OBJECT
 10
2593.0
 20
-239.4999999999980105
 30
0.0
 11
2593.0
 21
-160.4999999999980105
 31
0.0
1001
ACDBBLOCKREPETAG
1070
     1
1071
       17
1005
12C29F
  0
LINE
  5
12C2A0
  8
OBJECT
 10
2596.9999999999990905
 20
-155.9999999999980105
 30
0.0
 11
2593.0
 21
-160.4999999999980105
 31
0.0
1001
ACDBBLOCKREPETAG
1070
     1
1071
       18
1005
12C2A0
  0
LINE
  5
12C2A1
  8
OBJECT
 10
2596.9999999999990905
 20
-243.9999999999980105
 30
0.0
 11
2593.0
 21
-239.4999999999980105
 31
0.0
1001
ACDBBLOCKREPETAG
1070
     1
1071
       19
1005
12C2A1
  0
LINE
  5
12C2A2
  8
OBJECT
 10
2583.0
 20
-137.9999999999980105
 30
0.0
 11
2580.0
 21
-137.9999999999980105
 31
0.0
1001
ACDBBLOCKREPETAG
1070
     1
1071
       20
1005
12C2A2
  0
ARC
  5
12C2A3
  8
OBJECT
 10
2583.0
 20
-140.9999999999980105
 30
0.0
 40
3.0
 50
0.0
 51
90.0
1001
ACDBBLOCKREPETAG
1070
     1
1071
       21
1005
12C2A3
  0
LINE
  5
12C2A4
  8
OBJECT
 10
2580.0
 20
-261.9999999999980105
 30
0.0
 11
2583.0
 21
-261.9999999999980105
 31
0.0
1001
ACDBBLOCKREPETAG
1070
     1
1071
       22
1005
12C2A4
  0
ARC
  5
12C2A5
  8
OBJECT
 10
2583.0
 20
-258.9999999999980105
 30
0.0
 40
3.0
 50
270.0
 51
0.0
1001
ACDBBLOCKREPETAG
1070
     1
1071
       23
1005
12C2A5
  0
LINE
  5
12C2A6
  8
OBJECT
 10
2586.0
 20
-258.9999999999980105
 30
0.0
 11
2586.0
 21
-140.9999999999980105
 31
0.0
1001
ACDBBLOCKREPETAG
1070
     1
1071
       24
1005
12C2A6
  0
LINE
  5
12C2A7
  8
HIDDEN
 10
2588.0
 20
-169.9999999999980105
 30
0.0
 11
2588.0
 21
-229.9999999999980105
 31
0.0
1001
ACDBBLOCKREPETAG
1070
     1
1071
       25
1005
12C2A7
  0
TEXT
  5
12C2A8
  8
SLIM
 10
4026.5999999999999091
 20
-1701.1688496785729967
 30
0.0
 40
28.0
  1
※ 対応P寸法　　210～300（10mm単位）
 41
0.75
  0
TEXT
  5
12C2A9
  8
SLIM
 10
4026.5999999999999091
 20
-1747.8355163452399665
 30
0.0
 40
28.0
  1
※ 最大対応スラブ厚　m-10
 41
0.75
  0
TEXT
  5
12C2AA
  8
SLIM
 10
4026.5999999999999091
 20
-1794.5021830119069364
 30
0.0
 40
28.0
  1
※ 足切り可能寸法（最大）　540-P-m（コンパクトＬベンド使用なら+20）
 41
0.75
  0
TEXT
  5
12C2AB
  8
SLIM
 10
4187.5204844684949421
 20
-1866.5021296785730556
 30
0.0
 40
28.0
  1
国土交通大臣認定・（一財）日本消防設備安全センター性能評定取得品
 41
0.75
  0
TEXT
  5
12C2AC
  8
SLIM
 10
4219.7204844684947602
 20
-1913.1687963452409349
 30
0.0
 40
28.0
  1
注）ご採用にあたり、認定書及び評定書の内容をご確認ください。
 41
0.75
  0
TEXT
  5
12C2AD
  8
SLIM
 10
2233.6999999999998181
 20
-1708.9999999999979536
 30
0.0
 40
28.0
  1
※ 対応P寸法　　210～330（10mm単位）
 41
0.75
  0
LINE
  5
12C2AE
  8
OBJECT
 10
2575.0
 20
-770.0
 30
0.0
 11
2575.0
 21
-902.5000000000663931
 31
0.0
1001
ACDBBLOCKREPETAG
1070
     1
1071
        1
1005
12C2AE
  0
LINE
  5
12C2AF
  8
CENTER
 10
2500.0
 20
-770.0
 30
0.0
 11
2500.0
 21
-1055.0
 31
0.0
1001
ACDBBLOCKREPETAG
1070
     1
1071
        6
1005
12C2AF
  0
LINE
  5
12C2B0
  8
OBJECT
 10
2420.0
 20
-1055.0
 30
0.0
 11
2580.0
 21
-1055.0
 31
0.0
1001
ACDBBLOCKREPETAG
1070
     1
1071
        7
1005
12C2B0
  0
LINE
  5
12C2B1
  8
OBJECT
 10
2420.0
 20
-1043.0
 30
0.0
 11
2580.0
 21
-1043.0
 31
0.0
1001
ACDBBLOCKREPETAG
1070
     1
1071
        8
1005
12C2B1
  0
LINE
  5
12C2B2
  8
OBJECT
 10
2420.0
 20
-1043.0
 30
0.0
 11
2420.0
 21
-1055.0
 31
0.0
1001
ACDBBLOCKREPETAG
1070
     1
1071
        9
1005
12C2B2
  0
LINE
  5
12C2B3
  8
OBJECT
 10
2580.0
 20
-1043.0
 30
0.0
 11
2580.0
 21
-1055.0
 31
0.0
1001
ACDBBLOCKREPETAG
1070
     1
1071
       10
1005
12C2B3
  0
LINE
  5
12C2B4
  8
OBJECT
 10
2633.0
 20
-904.0
 30
0.0
 11
2640.0
 21
-904.0
 31
0.0
1001
ACDBBLOCKREPETAG
1070
     1
1071
       23
1005
12C2B4
  0
LINE
  5
12C2B5
  8
OBJECT
 10
2640.0
 20
-904.0
 30
0.0
 11
2640.0
 21
-1011.0
 31
0.0
1001
ACDBBLOCKREPETAG
1070
     1
1071
       24
1005
12C2B5
  0
LINE
  5
12C2B6
  8
OBJECT
 10
2584.5
 20
-905.5000000000654836
 30
0.0
 11
2584.5
 21
-1008.5
 31
0.0
1001
ACDBBLOCKREPETAG
1070
     1
1071
       25
1005
12C2B6
  0
ARC
  5
12C2B7
  8
OBJECT
 10
2581.5
 20
-905.5000000000654836
 30
0.0
 40
3.0
 50
0.0
 51
90.0
1001
ACDBBLOCKREPETAG
1070
     1
1071
       26
1005
12C2B7
  0
LINE
  5
12C2B8
  8
OBJECT
 10
2633.0
 20
-1011.0
 30
0.0
 11
2633.0
 21
-904.0
 31
0.0
1001
ACDBBLOCKREPETAG
1070
     1
1071
       27
1005
12C2B8
  0
LINE
  5
12C2B9
  8
CENTER
 10
2655.0
 20
-959.0
 30
0.0
 11
2541.3449199130050147
 21
-959.0000000000654836
 31
0.0
1001
ACDBBLOCKREPETAG
1070
     1
1071
       28
1005
12C2B9
  0
LINE
  5
12C2BA
  8
OBJECT
 10
2633.0
 20
-907.0
 30
0.0
 11
2597.0
 21
-907.0
 31
0.0
1001
ACDBBLOCKREPETAG
1070
     1
1071
       29
1005
12C2BA
  0
LINE
  5
12C2BB
  8
OBJECT
 10
2597.0
 20
-907.0
 30
0.0
 11
2597.0
 21
-1011.0
 31
0.0
1001
ACDBBLOCKREPETAG
1070
     1
1071
       30
1005
12C2BB
  0
LINE
  5
12C2BC
  8
OBJECT
 10
2597.0
 20
-1011.0
 30
0.0
 11
2640.0
 21
-1011.0
 31
0.0
1001
ACDBBLOCKREPETAG
1070
     1
1071
       31
1005
12C2BC
  0
LINE
  5
12C2BD
  8
OBJECT
 10
2593.0
 20
-911.5
 30
0.0
 11
2584.5
 21
-911.5
 31
0.0
1001
ACDBBLOCKREPETAG
1070
     1
1071
       32
1005
12C2BD
  0
LINE
  5
12C2BE
  8
OBJECT
 10
2584.5
 20
-1006.5
 30
0.0
 11
2593.0
 21
-1006.5
 31
0.0
1001
ACDBBLOCKREPETAG
1070
     1
1071
       33
1005
12C2BE
  0
LINE
  5
12C2BF
  8
OBJECT
 10
2593.0
 20
-1006.5
 30
0.0
 11
2593.0
 21
-911.5
 31
0.0
1001
ACDBBLOCKREPETAG
1070
     1
1071
       34
1005
12C2BF
  0
LINE
  5
12C2C0
  8
OBJECT
 10
2597.0
 20
-907.0
 30
0.0
 11
2593.0
 21
-911.5
 31
0.0
1001
ACDBBLOCKREPETAG
1070
     1
1071
       35
1005
12C2C0
  0
LINE
  5
12C2C1
  8
OBJECT
 10
2597.0
 20
-1011.0
 30
0.0
 11
2593.0
 21
-1006.5
 31
0.0
1001
ACDBBLOCKREPETAG
1070
     1
1071
       36
1005
12C2C1
  0
LINE
  5
12C2C2
  8
HIDDEN
 10
2588.0
 20
-921.0
 30
0.0
 11
2588.0
 21
-997.0
 31
0.0
1001
ACDBBLOCKREPETAG
1070
     1
1071
       37
1005
12C2C2
  0
ARC
  5
12C2C3
  8
OBJECT
 10
2664.8782728787741689
 20
-967.4095072612287822
 30
0.0
 40
110.866352283089995
 50
144.16342741930481
 51
163.0403538043379115
1001
ACDBBLOCKREPETAG
1070
     1
1071
       38
1005
12C2C3
  0
ARC
  5
12C2C4
  8
OBJECT
 10
2617.1359887769071975
 20
-952.2877497184490494
 30
0.0
 40
60.7917498803589567
 50
163.5472046522205005
 51
179.7287969828267933
1001
ACDBBLOCKREPETAG
1070
     1
1071
       39
1005
12C2C4
  0
ARC
  5
12C2C5
  8
OBJECT
 10
2617.1359956562478146
 20
-958.7122497599008284
 30
0.0
 40
60.7917567620948702
 50
180.2712034781451962
 51
196.4527794605276085
1001
ACDBBLOCKREPETAG
1070
     1
1071
       40
1005
12C2C5
  0
ARC
  5
12C2C6
  8
OBJECT
 10
2664.8782728787741689
 20
-943.5904927388363603
 30
0.0
 40
110.8663522830916008
 50
196.9596461956618043
 51
215.83657258069519
1001
ACDBBLOCKREPETAG
1070
     1
1071
       41
1005
12C2C6
  0
LINE
  5
12C2C7
  8
OBJECT
 10
2556.3449199130050147
 20
-952.0000000000360387
 30
0.0
 11
2556.3449199130050147
 21
-959.0000000000328555
 31
0.0
1001
ACDBBLOCKREPETAG
1070
     1
1071
       42
1005
12C2C7
  0
LINE
  5
12C2C8
  8
OBJECT
 10
2575.0
 20
-902.5000000000654836
 30
0.0
 11
2581.5
 21
-902.5000000000654836
 31
0.0
1001
ACDBBLOCKREPETAG
1070
     1
1071
       43
1005
12C2C8
  0
LINE
  5
12C2C9
  8
OBJECT
 10
2575.0
 20
-1008.5
 30
0.0
 11
2584.5
 21
-1008.5
 31
0.0
1001
ACDBBLOCKREPETAG
1070
     1
1071
       44
1005
12C2C9
  0
LINE
  5
12C2CA
  8
OBJECT
 10
2575.0
 20
-1008.5000000000020464
 30
0.0
 11
2575.0
 21
-1043.0
 31
0.0
1001
ACDBBLOCKREPETAG
1070
     1
1071
        1
1005
12C2AE
  0
POINT
  5
12C2CB
  8
DOTS
 10
2500.0
 20
-1011.0
 30
0.0
  0
LINE
  5
12C2CC
  8
OBJECT
 10
2425.0
 20
-770.0
 30
0.0
 11
2425.0
 21
-902.5000000000663931
 31
0.0
1001
ACDBBLOCKREPETAG
1070
     1
1071
        1
1005
12C2AE
  0
LINE
  5
12C2CD
  8
OBJECT
 10
2367.0
 20
-904.0
 30
0.0
 11
2360.0
 21
-904.0
 31
0.0
1001
ACDBBLOCKREPETAG
1070
     1
1071
       23
1005
12C2B4
  0
LINE
  5
12C2CE
  8
OBJECT
 10
2360.0
 20
-904.0
 30
0.0
 11
2360.0
 21
-1011.0
 31
0.0
1001
ACDBBLOCKREPETAG
1070
     1
1071
       24
1005
12C2B5
  0
LINE
  5
12C2CF
  8
OBJECT
 10
2415.5
 20
-905.5000000000654836
 30
0.0
 11
2415.5
 21
-1008.5
 31
0.0
1001
ACDBBLOCKREPETAG
1070
     1
1071
       25
1005
12C2B6
  0
ARC
  5
12C2D0
  8
OBJECT
 10
2418.5
 20
-905.5000000000654836
 30
0.0
 40
3.0
 50
90.0
 51
180.0
1001
ACDBBLOCKREPETAG
1070
     1
1071
       26
1005
12C2B7
  0
LINE
  5
12C2D1
  8
OBJECT
 10
2367.0
 20
-1011.0
 30
0.0
 11
2367.0
 21
-904.0
 31
0.0
1001
ACDBBLOCKREPETAG
1070
     1
1071
       27
1005
12C2B8
  0
LINE
  5
12C2D2
  8
CENTER
 10
2345.0
 20
-959.0
 30
0.0
 11
2458.6550800869949853
 21
-959.0000000000654836
 31
0.0
1001
ACDBBLOCKREPETAG
1070
     1
1071
       28
1005
12C2B9
  0
LINE
  5
12C2D3
  8
OBJECT
 10
2367.0
 20
-907.0
 30
0.0
 11
2403.0
 21
-907.0
 31
0.0
1001
ACDBBLOCKREPETAG
1070
     1
1071
       29
1005
12C2BA
  0
LINE
  5
12C2D4
  8
OBJECT
 10
2403.0
 20
-907.0
 30
0.0
 11
2403.0
 21
-1011.0
 31
0.0
1001
ACDBBLOCKREPETAG
1070
     1
1071
       30
1005
12C2BB
  0
LINE
  5
12C2D5
  8
OBJECT
 10
2403.0
 20
-1011.0
 30
0.0
 11
2360.0
 21
-1011.0
 31
0.0
1001
ACDBBLOCKREPETAG
1070
     1
1071
       31
1005
12C2BC
  0
LINE
  5
12C2D6
  8
OBJECT
 10
2407.0
 20
-911.5
 30
0.0
 11
2415.5
 21
-911.5
 31
0.0
1001
ACDBBLOCKREPETAG
1070
     1
1071
       32
1005
12C2BD
  0
LINE
  5
12C2D7
  8
OBJECT
 10
2415.5
 20
-1006.5
 30
0.0
 11
2407.0
 21
-1006.5
 31
0.0
1001
ACDBBLOCKREPETAG
1070
     1
1071
       33
1005
12C2BE
  0
LINE
  5
12C2D8
  8
OBJECT
 10
2407.0
 20
-1006.5
 30
0.0
 11
2407.0
 21
-911.5
 31
0.0
1001
ACDBBLOCKREPETAG
1070
     1
1071
       34
1005
12C2BF
  0
LINE
  5
12C2D9
  8
OBJECT
 10
2403.0
 20
-907.0
 30
0.0
 11
2407.0
 21
-911.5
 31
0.0
1001
ACDBBLOCKREPETAG
1070
     1
1071
       35
1005
12C2C0
  0
LINE
  5
12C2DA
  8
OBJECT
 10
2403.0
 20
-1011.0
 30
0.0
 11
2407.0
 21
-1006.5
 31
0.0
1001
ACDBBLOCKREPETAG
1070
     1
1071
       36
1005
12C2C1
  0
LINE
  5
12C2DB
  8
HIDDEN
 10
2412.0
 20
-921.0
 30
0.0
 11
2412.0
 21
-997.0
 31
0.0
1001
ACDBBLOCKREPETAG
1070
     1
1071
       37
1005
12C2C2
  0
ARC
  5
12C2DC
  8
OBJECT
 10
2335.1217271212258311
 20
-967.4095072612287822
 30
0.0
 40
110.866352283089995
 50
16.9596461956619784
 51
35.8365725806952398
1001
ACDBBLOCKREPETAG
1070
     1
1071
       38
1005
12C2C3
  0
ARC
  5
12C2DD
  8
OBJECT
 10
2382.8640112230928025
 20
-952.2877497184490494
 30
0.0
 40
60.7917498803589567
 50
0.2712030171732199
 51
16.4527953477794995
1001
ACDBBLOCKREPETAG
1070
     1
1071
       39
1005
12C2C4
  0
ARC
  5
12C2DE
  8
OBJECT
 10
2382.8640043437530949
 20
-958.7122497599008284
 30
0.0
 40
60.7917567620948702
 50
343.5472205394723915
 51
359.7287965218546901
1001
ACDBBLOCKREPETAG
1070
     1
1071
       40
1005
12C2C5
  0
ARC
  5
12C2DF
  8
OBJECT
 10
2335.1217271212258311
 20
-943.5904927388363603
 30
0.0
 40
110.8663522830916008
 50
324.16342741930481
 51
343.0403538043379967
1001
ACDBBLOCKREPETAG
1070
     1
1071
       41
1005
12C2C6
  0
LINE
  5
12C2E0
  8
OBJECT
 10
2443.6550800869958948
 20
-952.0000000000360387
 30
0.0
 11
2443.6550800869958948
 21
-959.0000000000328555
 31
0.0
1001
ACDBBLOCKREPETAG
1070
     1
1071
       42
1005
12C2C7
  0
LINE
  5
12C2E1
  8
OBJECT
 10
2425.0
 20
-902.5000000000654836
 30
0.0
 11
2418.5
 21
-902.5000000000654836
 31
0.0
1001
ACDBBLOCKREPETAG
1070
     1
1071
       43
1005
12C2C8
  0
LINE
  5
12C2E2
  8
OBJECT
 10
2425.0
 20
-1008.5
 30
0.0
 11
2415.5
 21
-1008.5
 31
0.0
1001
ACDBBLOCKREPETAG
1070
     1
1071
       44
1005
12C2C9
  0
LINE
  5
12C2E3
  8
OBJECT
 10
2425.0
 20
-1008.5000000000020464
 30
0.0
 11
2425.0
 21
-1043.0
 31
0.0
1001
ACDBBLOCKREPETAG
1070
     1
1071
        1
1005
12C2AE
  0
LINE
  5
12C2E4
  8
OBJECT
 10
4575.0
 20
-770.0
 30
0.0
 11
4575.0
 21
-902.5000000000663931
 31
0.0
1001
ACDBBLOCKREPETAG
1070
     1
1071
        1
1005
12C2E4
  0
LINE
  5
12C2E5
  8
CENTER
 10
4500.0
 20
-770.0
 30
0.0
 11
4500.0
 21
-1055.0
 31
0.0
1001
ACDBBLOCKREPETAG
1070
     1
1071
        6
1005
12C2E5
  0
LINE
  5
12C2E6
  8
OBJECT
 10
4420.0
 20
-1055.0
 30
0.0
 11
4580.0
 21
-1055.0
 31
0.0
1001
ACDBBLOCKREPETAG
1070
     1
1071
        7
1005
12C2E6
  0
LINE
  5
12C2E7
  8
OBJECT
 10
4420.0
 20
-1043.0
 30
0.0
 11
4580.0
 21
-1043.0
 31
0.0
1001
ACDBBLOCKREPETAG
1070
     1
1071
        8
1005
12C2E7
  0
LINE
  5
12C2E8
  8
OBJECT
 10
4420.0
 20
-1043.0
 30
0.0
 11
4420.0
 21
-1055.0
 31
0.0
1001
ACDBBLOCKREPETAG
1070
     1
1071
        9
1005
12C2E8
  0
LINE
  5
12C2E9
  8
OBJECT
 10
4580.0
 20
-1043.0
 30
0.0
 11
4580.0
 21
-1055.0
 31
0.0
1001
ACDBBLOCKREPETAG
1070
     1
1071
       10
1005
12C2E9
  0
LINE
  5
12C2EA
  8
OBJECT
 10
4633.0
 20
-904.0
 30
0.0
 11
4640.0
 21
-904.0
 31
0.0
1001
ACDBBLOCKREPETAG
1070
     1
1071
       23
1005
12C2EA
  0
LINE
  5
12C2EB
  8
OBJECT
 10
4640.0
 20
-904.0
 30
0.0
 11
4640.0
 21
-1011.0
 31
0.0
1001
ACDBBLOCKREPETAG
1070
     1
1071
       24
1005
12C2EB
  0
LINE
  5
12C2EC
  8
OBJECT
 10
4584.5
 20
-905.5000000000654836
 30
0.0
 11
4584.5
 21
-1008.5
 31
0.0
1001
ACDBBLOCKREPETAG
1070
     1
1071
       25
1005
12C2EC
  0
ARC
  5
12C2ED
  8
OBJECT
 10
4581.5
 20
-905.5000000000654836
 30
0.0
 40
3.0
 50
0.0
 51
90.0
1001
ACDBBLOCKREPETAG
1070
     1
1071
       26
1005
12C2ED
  0
LINE
  5
12C2EE
  8
OBJECT
 10
4633.0
 20
-1011.0
 30
0.0
 11
4633.0
 21
-904.0
 31
0.0
1001
ACDBBLOCKREPETAG
1070
     1
1071
       27
1005
12C2EE
  0
LINE
  5
12C2EF
  8
CENTER
 10
4655.0
 20
-959.0
 30
0.0
 11
4541.3449199130036504
 21
-959.0000000000654836
 31
0.0
1001
ACDBBLOCKREPETAG
1070
     1
1071
       28
1005
12C2EF
  0
LINE
  5
12C2F0
  8
OBJECT
 10
4633.0
 20
-907.0
 30
0.0
 11
4597.0
 21
-907.0
 31
0.0
1001
ACDBBLOCKREPETAG
1070
     1
1071
       29
1005
12C2F0
  0
LINE
  5
12C2F1
  8
OBJECT
 10
4597.0
 20
-907.0
 30
0.0
 11
4597.0
 21
-1011.0
 31
0.0
1001
ACDBBLOCKREPETAG
1070
     1
1071
       30
1005
12C2F1
  0
LINE
  5
12C2F2
  8
OBJECT
 10
4597.0
 20
-1011.0
 30
0.0
 11
4640.0
 21
-1011.0
 31
0.0
1001
ACDBBLOCKREPETAG
1070
     1
1071
       31
1005
12C2F2
  0
LINE
  5
12C2F3
  8
OBJECT
 10
4593.0
 20
-911.5
 30
0.0
 11
4584.5
 21
-911.5
 31
0.0
1001
ACDBBLOCKREPETAG
1070
     1
1071
       32
1005
12C2F3
  0
LINE
  5
12C2F4
  8
OBJECT
 10
4584.5
 20
-1006.5
 30
0.0
 11
4593.0
 21
-1006.5
 31
0.0
1001
ACDBBLOCKREPETAG
1070
     1
1071
       33
1005
12C2F4
  0
LINE
  5
12C2F5
  8
OBJECT
 10
4593.0
 20
-1006.5
 30
0.0
 11
4593.0
 21
-911.5
 31
0.0
1001
ACDBBLOCKREPETAG
1070
     1
1071
       34
1005
12C2F5
  0
LINE
  5
12C2F6
  8
OBJECT
 10
4597.0
 20
-907.0
 30
0.0
 11
4593.0
 21
-911.5
 31
0.0
1001
ACDBBLOCKREPETAG
1070
     1
1071
       35
1005
12C2F6
  0
LINE
  5
12C2F7
  8
OBJECT
 10
4597.0
 20
-1011.0
 30
0.0
 11
4593.0
 21
-1006.5
 31
0.0
1001
ACDBBLOCKREPETAG
1070
     1
1071
       36
1005
12C2F7
  0
LINE
  5
12C2F8
  8
HIDDEN
 10
4588.0
 20
-921.0
 30
0.0
 11
4588.0
 21
-997.0
 31
0.0
1001
ACDBBLOCKREPETAG
1070
     1
1071
       37
1005
12C2F8
  0
ARC
  5
12C2F9
  8
OBJECT
 10
4664.8782728787718952
 20
-967.4095072612287822
 30
0.0
 40
110.866352283089995
 50
144.16342741930481
 51
163.0403538043456138
1001
ACDBBLOCKREPETAG
1070
     1
1071
       38
1005
12C2F9
  0
ARC
  5
12C2FA
  8
OBJECT
 10
4617.1359887769067427
 20
-952.2877497184490494
 30
0.0
 40
60.7917498803589567
 50
163.5472046522131109
 51
179.7287969828265943
1001
ACDBBLOCKREPETAG
1070
     1
1071
       39
1005
12C2FA
  0
ARC
  5
12C2FB
  8
OBJECT
 10
4617.1359956562482694
 20
-958.7122497599008284
 30
0.0
 40
60.7917567620948702
 50
180.2712034781451962
 51
196.4527794605201052
1001
ACDBBLOCKREPETAG
1070
     1
1071
       40
1005
12C2FB
  0
ARC
  5
12C2FC
  8
OBJECT
 10
4664.8782728787718952
 20
-943.5904927388363603
 30
0.0
 40
110.8663522830916008
 50
196.9596461956543862
 51
215.83657258069519
1001
ACDBBLOCKREPETAG
1070
     1
1071
       41
1005
12C2FC
  0
LINE
  5
12C2FD
  8
OBJECT
 10
4556.3449199130036504
 20
-952.0000000000360387
 30
0.0
 11
4556.3449199130036504
 21
-959.0000000000328555
 31
0.0
1001
ACDBBLOCKREPETAG
1070
     1
1071
       42
1005
12C2FD
  0
LINE
  5
12C2FE
  8
OBJECT
 10
4575.0
 20
-902.5000000000654836
 30
0.0
 11
4581.5
 21
-902.5000000000654836
 31
0.0
1001
ACDBBLOCKREPETAG
1070
     1
1071
       43
1005
12C2FE
  0
LINE
  5
12C2FF
  8
OBJECT
 10
4575.0
 20
-1008.5
 30
0.0
 11
4584.5
 21
-1008.5
 31
0.0
1001
ACDBBLOCKREPETAG
1070
     1
1071
       44
1005
12C2FF
  0
LINE
  5
12C300
  8
OBJECT
 10
4575.0
 20
-1008.5000000000020464
 30
0.0
 11
4575.0
 21
-1043.0
 31
0.0
1001
ACDBBLOCKREPETAG
1070
     1
1071
        1
1005
12C2E4
  0
POINT
  5
12C301
  8
DOTS
 10
4500.0
 20
-1011.0
 30
0.0
  0
LINE
  5
12C302
  8
OBJECT
 10
4425.0
 20
-770.0
 30
0.0
 11
4425.0
 21
-902.5000000000663931
 31
0.0
1001
ACDBBLOCKREPETAG
1070
     1
1071
        1
1005
12C2E4
  0
LINE
  5
12C303
  8
OBJECT
 10
4367.0
 20
-904.0
 30
0.0
 11
4360.0
 21
-904.0
 31
0.0
1001
ACDBBLOCKREPETAG
1070
     1
1071
       23
1005
12C2EA
  0
LINE
  5
12C304
  8
OBJECT
 10
4360.0
 20
-904.0
 30
0.0
 11
4360.0
 21
-1011.0
 31
0.0
1001
ACDBBLOCKREPETAG
1070
     1
1071
       24
1005
12C2EB
  0
LINE
  5
12C305
  8
OBJECT
 10
4415.5
 20
-905.5000000000654836
 30
0.0
 11
4415.5
 21
-1008.5
 31
0.0
1001
ACDBBLOCKREPETAG
1070
     1
1071
       25
1005
12C2EC
  0
ARC
  5
12C306
  8
OBJECT
 10
4418.5
 20
-905.5000000000654836
 30
0.0
 40
3.0
 50
90.0
 51
180.0
1001
ACDBBLOCKREPETAG
1070
     1
1071
       26
1005
12C2ED
  0
LINE
  5
12C307
  8
OBJECT
 10
4367.0
 20
-1011.0
 30
0.0
 11
4367.0
 21
-904.0
 31
0.0
1001
ACDBBLOCKREPETAG
1070
     1
1071
       27
1005
12C2EE
  0
LINE
  5
12C308
  8
CENTER
 10
4345.0
 20
-959.0
 30
0.0
 11
4458.6550800869936211
 21
-959.0000000000654836
 31
0.0
1001
ACDBBLOCKREPETAG
1070
     1
1071
       28
1005
12C2EF
  0
LINE
  5
12C309
  8
OBJECT
 10
4367.0
 20
-907.0
 30
0.0
 11
4403.0
 21
-907.0
 31
0.0
1001
ACDBBLOCKREPETAG
1070
     1
1071
       29
1005
12C2F0
  0
LINE
  5
12C30A
  8
OBJECT
 10
4403.0
 20
-907.0
 30
0.0
 11
4403.0
 21
-1011.0
 31
0.0
1001
ACDBBLOCKREPETAG
1070
     1
1071
       30
1005
12C2F1
  0
LINE
  5
12C30B
  8
OBJECT
 10
4403.0
 20
-1011.0
 30
0.0
 11
4360.0
 21
-1011.0
 31
0.0
1001
ACDBBLOCKREPETAG
1070
     1
1071
       31
1005
12C2F2
  0
LINE
  5
12C30C
  8
OBJECT
 10
4407.0
 20
-911.5
 30
0.0
 11
4415.5
 21
-911.5
 31
0.0
1001
ACDBBLOCKREPETAG
1070
     1
1071
       32
1005
12C2F3
  0
LINE
  5
12C30D
  8
OBJECT
 10
4415.5
 20
-1006.5
 30
0.0
 11
4407.0
 21
-1006.5
 31
0.0
1001
ACDBBLOCKREPETAG
1070
     1
1071
       33
1005
12C2F4
  0
LINE
  5
12C30E
  8
OBJECT
 10
4407.0
 20
-1006.5
 30
0.0
 11
4407.0
 21
-911.5
 31
0.0
1001
ACDBBLOCKREPETAG
1070
     1
1071
       34
1005
12C2F5
  0
LINE
  5
12C30F
  8
OBJECT
 10
4403.0
 20
-907.0
 30
0.0
 11
4407.0
 21
-911.5
 31
0.0
1001
ACDBBLOCKREPETAG
1070
     1
1071
       35
1005
12C2F6
  0
LINE
  5
12C310
  8
OBJECT
 10
4403.0
 20
-1011.0
 30
0.0
 11
4407.0
 21
-1006.5
 31
0.0
1001
ACDBBLOCKREPETAG
1070
     1
1071
       36
1005
12C2F7
  0
LINE
  5
12C311
  8
HIDDEN
 10
4412.0
 20
-921.0
 30
0.0
 11
4412.0
 21
-997.0
 31
0.0
1001
ACDBBLOCKREPETAG
1070
     1
1071
       37
1005
12C2F8
  0
ARC
  5
12C312
  8
OBJECT
 10
4335.1217271212262858
 20
-967.4095072612287822
 30
0.0
 40
110.866352283089995
 50
16.9596461956543791
 51
35.8365725806952398
1001
ACDBBLOCKREPETAG
1070
     1
1071
       38
1005
12C2F9
  0
ARC
  5
12C313
  8
OBJECT
 10
4382.8640112230941668
 20
-952.2877497184490494
 30
0.0
 40
60.7917498803589567
 50
0.2712030171733432
 51
16.4527953477868785
1001
ACDBBLOCKREPETAG
1070
     1
1071
       39
1005
12C2FA
  0
ARC
  5
12C314
  8
OBJECT
 10
4382.8640043437508211
 20
-958.7122497599008284
 30
0.0
 40
60.7917567620948702
 50
343.5472205394797811
 51
359.7287965218546901
1001
ACDBBLOCKREPETAG
1070
     1
1071
       40
1005
12C2FB
  0
ARC
  5
12C315
  8
OBJECT
 10
4335.1217271212262858
 20
-943.5904927388363603
 30
0.0
 40
110.8663522830916008
 50
324.16342741930481
 51
343.0403538043456138
1001
ACDBBLOCKREPETAG
1070
     1
1071
       41
1005
12C2FC
  0
LINE
  5
12C316
  8
OBJECT
 10
4443.6550800869936211
 20
-952.0000000000360387
 30
0.0
 11
4443.6550800869936211
 21
-959.0000000000328555
 31
0.0
1001
ACDBBLOCKREPETAG
1070
     1
1071
       42
1005
12C2FD
  0
LINE
  5
12C317
  8
OBJECT
 10
4425.0
 20
-902.5000000000654836
 30
0.0
 11
4418.5
 21
-902.5000000000654836
 31
0.0
1001
ACDBBLOCKREPETAG
1070
     1
1071
       43
1005
12C2FE
  0
LINE
  5
12C318
  8
OBJECT
 10
4425.0
 20
-1008.5
 30
0.0
 11
4415.5
 21
-1008.5
 31
0.0
1001
ACDBBLOCKREPETAG
1070
     1
1071
       44
1005
12C2FF
  0
LINE
  5
12C319
  8
OBJECT
 10
4425.0
 20
-1008.5000000000020464
 30
0.0
 11
4425.0
 21
-1043.0
 31
0.0
1001
ACDBBLOCKREPETAG
1070
     1
1071
        1
1005
12C2E4
  0
LINE
  5
12C31A
  8
OBJECT
 10
2633.0
 20
-664.0000000000056843
 30
0.0
 11
2640.0
 21
-664.0000000000056843
 31
0.0
1001
ACDBBLOCKREPETAG
1070
     1
1071
        7
1005
12C31A
  0
LINE
  5
12C31B
  8
OBJECT
 10
2640.0
 20
-664.0000000000056843
 30
0.0
 11
2640.0
 21
-755.0000000000053433
 31
0.0
1001
ACDBBLOCKREPETAG
1070
     1
1071
        8
1005
12C31B
  0
LINE
  5
12C31C
  8
OBJECT
 10
2633.0
 20
-755.0000000000053433
 30
0.0
 11
2633.0
 21
-664.0000000000056843
 31
0.0
1001
ACDBBLOCKREPETAG
1070
     1
1071
        9
1005
12C31C
  0
LINE
  5
12C31D
  8
CENTER
 10
2655.0
 20
-711.0000000000056843
 30
0.0
 11
2571.0
 21
-711.0000000000056843
 31
0.0
1001
ACDBBLOCKREPETAG
1070
     1
1071
       10
1005
12C31D
  0
LINE
  5
12C31E
  8
OBJECT
 10
2633.0
 20
-667.0000000000055707
 30
0.0
 11
2597.0
 21
-667.0000000000055707
 31
0.0
1001
ACDBBLOCKREPETAG
1070
     1
1071
       11
1005
12C31E
  0
LINE
  5
12C31F
  8
OBJECT
 10
2597.0
 20
-667.0000000000055707
 30
0.0
 11
2597.0
 21
-755.0000000000053433
 31
0.0
1001
ACDBBLOCKREPETAG
1070
     1
1071
       12
1005
12C31F
  0
LINE
  5
12C320
  8
OBJECT
 10
2597.0
 20
-755.0000000000053433
 30
0.0
 11
2640.0
 21
-755.0000000000053433
 31
0.0
1001
ACDBBLOCKREPETAG
1070
     1
1071
       13
1005
12C320
  0
LINE
  5
12C321
  8
OBJECT
 10
2593.0
 20
-671.5000000000055707
 30
0.0
 11
2586.0
 21
-671.5000000000055707
 31
0.0
1001
ACDBBLOCKREPETAG
1070
     1
1071
       14
1005
12C321
  0
LINE
  5
12C322
  8
OBJECT
 10
2586.0
 20
-750.5000000000053433
 30
0.0
 11
2593.0
 21
-750.5000000000053433
 31
0.0
1001
ACDBBLOCKREPETAG
1070
     1
1071
       15
1005
12C322
  0
LINE
  5
12C323
  8
OBJECT
 10
2593.0
 20
-750.5000000000053433
 30
0.0
 11
2593.0
 21
-671.5000000000055707
 31
0.0
1001
ACDBBLOCKREPETAG
1070
     1
1071
       16
1005
12C323
  0
LINE
  5
12C324
  8
OBJECT
 10
2597.0
 20
-667.0000000000055707
 30
0.0
 11
2593.0
 21
-671.5000000000055707
 31
0.0
1001
ACDBBLOCKREPETAG
1070
     1
1071
       17
1005
12C324
  0
LINE
  5
12C325
  8
OBJECT
 10
2597.0
 20
-755.0000000000053433
 30
0.0
 11
2593.0
 21
-750.5000000000053433
 31
0.0
1001
ACDBBLOCKREPETAG
1070
     1
1071
       18
1005
12C325
  0
LINE
  5
12C326
  8
OBJECT
 10
2583.0
 20
-634.0000000000055707
 30
0.0
 11
2580.0
 21
-634.0000000000055707
 31
0.0
1001
ACDBBLOCKREPETAG
1070
     1
1071
       19
1005
12C326
  0
ARC
  5
12C327
  8
OBJECT
 10
2583.0
 20
-637.0000000000055707
 30
0.0
 40
3.0
 50
0.0
 51
90.0
1001
ACDBBLOCKREPETAG
1070
     1
1071
       20
1005
12C327
  0
LINE
  5
12C328
  8
OBJECT
 10
2580.0
 20
-758.0000000000053433
 30
0.0
 11
2583.0
 21
-758.0000000000053433
 31
0.0
1001
ACDBBLOCKREPETAG
1070
     1
1071
       21
1005
12C328
  0
ARC
  5
12C329
  8
OBJECT
 10
2583.0
 20
-755.0000000000053433
 30
0.0
 40
3.0
 50
270.0
 51
0.0
1001
ACDBBLOCKREPETAG
1070
     1
1071
       22
1005
12C329
  0
LINE
  5
12C32A
  8
OBJECT
 10
2586.0
 20
-755.0000000000053433
 30
0.0
 11
2586.0
 21
-637.0000000000055707
 31
0.0
1001
ACDBBLOCKREPETAG
1070
     1
1071
       23
1005
12C32A
  0
LINE
  5
12C32B
  8
HIDDEN
 10
2588.0
 20
-681.0000000000056843
 30
0.0
 11
2588.0
 21
-741.0000000000053433
 31
0.0
1001
ACDBBLOCKREPETAG
1070
     1
1071
       24
1005
12C32B
  0
LINE
  5
12C32C
  8
OBJECT
 10
2423.0
 20
-571.0
 30
0.0
 11
2423.0
 21
-550.0
 31
0.0
1001
ACDBBLOCKREPETAG
1070
     1
1071
        0
1005
12C32C
  0
LINE
  5
12C32D
  8
OBJECT
 10
2423.0
 20
-550.0
 30
0.0
 11
2577.0
 21
-550.0
 31
0.0
1001
ACDBBLOCKREPETAG
1070
     1
1071
        1
1005
12C32D
  0
LINE
  5
12C32E
  8
HIDDEN
 10
2443.0
 20
-620.0
 30
0.0
 11
2557.0
 21
-620.0
 31
0.0
1001
ACDBBLOCKREPETAG
1070
     1
1071
        2
1005
12C32E
  0
LINE
  5
12C32F
  8
OBJECT
 10
2577.0
 20
-550.0
 30
0.0
 11
2577.0
 21
-571.0
 31
0.0
1001
ACDBBLOCKREPETAG
1070
     1
1071
        3
1005
12C32F
  0
LINE
  5
12C330
  8
OBJECT
 10
2577.0
 20
-571.0
 30
0.0
 11
2423.0
 21
-571.0
 31
0.0
1001
ACDBBLOCKREPETAG
1070
     1
1071
        4
1005
12C330
  0
LINE
  5
12C331
  8
CENTER
 10
2500.0
 20
-535.0
 30
0.0
 11
2500.0
 21
-770.0
 31
0.0
1001
ACDBBLOCKREPETAG
1070
     1
1071
        5
1005
12C331
  0
LINE
  5
12C332
  8
OBJECT
 10
2425.0
 20
-634.0
 30
0.0
 11
2425.0
 21
-758.0
 31
0.0
1001
ACDBBLOCKREPETAG
1070
     1
1071
        6
1005
12C332
  0
LINE
  5
12C333
  8
OBJECT
 10
2428.0
 20
-571.0
 30
0.0
 11
2428.0
 21
-634.0
 31
0.0
1001
ACDBBLOCKREPETAG
1070
     1
1071
        7
1005
12C333
  0
LINE
  5
12C334
  8
OBJECT
 10
2572.0
 20
-634.0
 30
0.0
 11
2572.0
 21
-571.0
 31
0.0
1001
ACDBBLOCKREPETAG
1070
     1
1071
        8
1005
12C334
  0
LINE
  5
12C335
  8
OBJECT
 10
2420.0
 20
-758.0
 30
0.0
 11
2580.0
 21
-758.0
 31
0.0
1001
ACDBBLOCKREPETAG
1070
     1
1071
        9
1005
12C335
  0
LINE
  5
12C336
  8
OBJECT
 10
2580.0
 20
-634.0
 30
0.0
 11
2425.0
 21
-634.0
 31
0.0
1001
ACDBBLOCKREPETAG
1070
     1
1071
       10
1005
12C336
  0
LINE
  5
12C337
  8
OBJECT
 10
2420.0
 20
-758.0
 30
0.0
 11
2420.0
 21
-770.0
 31
0.0
1001
ACDBBLOCKREPETAG
1070
     1
1071
       11
1005
12C337
  0
LINE
  5
12C338
  8
OBJECT
 10
2420.0
 20
-770.0
 30
0.0
 11
2580.0
 21
-770.0
 31
0.0
1001
ACDBBLOCKREPETAG
1070
     1
1071
       12
1005
12C338
  0
LINE
  5
12C339
  8
OBJECT
 10
2580.0
 20
-770.0
 30
0.0
 11
2580.0
 21
-758.0
 31
0.0
1001
ACDBBLOCKREPETAG
1070
     1
1071
       13
1005
12C339
  0
ARC
  5
12C33A
  8
OBJECT
 10
2700.6872746716730944
 20
-749.4080994101076385
 30
0.0
 40
170.6350503965855978
 50
137.4413445918430057
 51
149.9194958133722082
1001
ACDBBLOCKREPETAG
1070
     1
1071
       15
1005
12C33A
  0
ARC
  5
12C33B
  8
OBJECT
 10
2618.845598704051099
 20
-705.882726695364795
 30
0.0
 40
78.0722220217636647
 50
147.4551531037683105
 51
164.6636599771798046
1001
ACDBBLOCKREPETAG
1070
     1
1071
       16
1005
12C33B
  0
ARC
  5
12C33C
  8
OBJECT
 10
2585.7554349608731172
 20
-696.0
 30
0.0
 40
43.5535392688561771
 50
165.6884523008477004
 51
194.3115476991521859
1001
ACDBBLOCKREPETAG
1070
     1
1071
       17
1005
12C33C
  0
ARC
  5
12C33D
  8
OBJECT
 10
2700.6872746716730944
 20
-642.5919005898921341
 30
0.0
 40
170.6350503965855978
 50
210.0805041866277918
 51
222.5586554081569943
1001
ACDBBLOCKREPETAG
1070
     1
1071
       18
1005
12C33D
  0
ARC
  5
12C33E
  8
OBJECT
 10
2618.845598704051099
 20
-686.117273304635205
 30
0.0
 40
78.0722220217636647
 50
195.3363400228201101
 51
212.5448468962316042
1001
ACDBBLOCKREPETAG
1070
     1
1071
       19
1005
12C33E
  0
LINE
  5
12C33F
  8
OBJECT
 10
4633.0
 20
-664.0000000000056843
 30
0.0
 11
4640.0
 21
-664.0000000000056843
 31
0.0
1001
ACDBBLOCKREPETAG
1070
     1
1071
        7
1005
12C33F
  0
LINE
  5
12C340
  8
OBJECT
 10
4640.0
 20
-664.0000000000056843
 30
0.0
 11
4640.0
 21
-755.0000000000053433
 31
0.0
1001
ACDBBLOCKREPETAG
1070
     1
1071
        8
1005
12C340
  0
LINE
  5
12C341
  8
OBJECT
 10
4633.0
 20
-755.0000000000053433
 30
0.0
 11
4633.0
 21
-664.0000000000056843
 31
0.0
1001
ACDBBLOCKREPETAG
1070
     1
1071
        9
1005
12C341
  0
LINE
  5
12C342
  8
CENTER
 10
4655.0
 20
-711.0000000000056843
 30
0.0
 11
4571.0
 21
-711.0000000000056843
 31
0.0
1001
ACDBBLOCKREPETAG
1070
     1
1071
       10
1005
12C342
  0
LINE
  5
12C343
  8
OBJECT
 10
4633.0
 20
-667.0000000000055707
 30
0.0
 11
4597.0
 21
-667.0000000000055707
 31
0.0
1001
ACDBBLOCKREPETAG
1070
     1
1071
       11
1005
12C343
  0
LINE
  5
12C344
  8
OBJECT
 10
4597.0
 20
-667.0000000000055707
 30
0.0
 11
4597.0
 21
-755.0000000000053433
 31
0.0
1001
ACDBBLOCKREPETAG
1070
     1
1071
       12
1005
12C344
  0
LINE
  5
12C345
  8
OBJECT
 10
4597.0
 20
-755.0000000000053433
 30
0.0
 11
4640.0
 21
-755.0000000000053433
 31
0.0
1001
ACDBBLOCKREPETAG
1070
     1
1071
       13
1005
12C345
  0
LINE
  5
12C346
  8
OBJECT
 10
4593.0
 20
-671.5000000000055707
 30
0.0
 11
4586.0
 21
-671.5000000000055707
 31
0.0
1001
ACDBBLOCKREPETAG
1070
     1
1071
       14
1005
12C346
  0
LINE
  5
12C347
  8
OBJECT
 10
4586.0
 20
-750.5000000000053433
 30
0.0
 11
4593.0
 21
-750.5000000000053433
 31
0.0
1001
ACDBBLOCKREPETAG
1070
     1
1071
       15
1005
12C347
  0
LINE
  5
12C348
  8
OBJECT
 10
4593.0
 20
-750.5000000000053433
 30
0.0
 11
4593.0
 21
-671.5000000000055707
 31
0.0
1001
ACDBBLOCKREPETAG
1070
     1
1071
       16
1005
12C348
  0
LINE
  5
12C349
  8
OBJECT
 10
4597.0
 20
-667.0000000000055707
 30
0.0
 11
4593.0
 21
-671.5000000000055707
 31
0.0
1001
ACDBBLOCKREPETAG
1070
     1
1071
       17
1005
12C349
  0
LINE
  5
12C34A
  8
OBJECT
 10
4597.0
 20
-755.0000000000053433
 30
0.0
 11
4593.0
 21
-750.5000000000053433
 31
0.0
1001
ACDBBLOCKREPETAG
1070
     1
1071
       18
1005
12C34A
  0
LINE
  5
12C34B
  8
OBJECT
 10
4583.0
 20
-634.0000000000055707
 30
0.0
 11
4580.0
 21
-634.0000000000055707
 31
0.0
1001
ACDBBLOCKREPETAG
1070
     1
1071
       19
1005
12C34B
  0
ARC
  5
12C34C
  8
OBJECT
 10
4583.0
 20
-637.0000000000055707
 30
0.0
 40
3.0
 50
0.0
 51
90.0
1001
ACDBBLOCKREPETAG
1070
     1
1071
       20
1005
12C34C
  0
LINE
  5
12C34D
  8
OBJECT
 10
4580.0
 20
-758.0000000000053433
 30
0.0
 11
4583.0
 21
-758.0000000000053433
 31
0.0
1001
ACDBBLOCKREPETAG
1070
     1
1071
       21
1005
12C34D
  0
ARC
  5
12C34E
  8
OBJECT
 10
4583.0
 20
-755.0000000000053433
 30
0.0
 40
3.0
 50
270.0
 51
0.0
1001
ACDBBLOCKREPETAG
1070
     1
1071
       22
1005
12C34E
  0
LINE
  5
12C34F
  8
OBJECT
 10
4586.0
 20
-755.0000000000053433
 30
0.0
 11
4586.0
 21
-637.0000000000055707
 31
0.0
1001
ACDBBLOCKREPETAG
1070
     1
1071
       23
1005
12C34F
  0
LINE
  5
12C350
  8
HIDDEN
 10
4588.0
 20
-681.0000000000056843
 30
0.0
 11
4588.0
 21
-741.0000000000053433
 31
0.0
1001
ACDBBLOCKREPETAG
1070
     1
1071
       24
1005
12C350
  0
LINE
  5
12C351
  8
OBJECT
 10
4423.0
 20
-571.0
 30
0.0
 11
4423.0
 21
-550.0
 31
0.0
1001
ACDBBLOCKREPETAG
1070
     1
1071
        0
1005
12C351
  0
LINE
  5
12C352
  8
OBJECT
 10
4423.0
 20
-550.0
 30
0.0
 11
4577.0
 21
-550.0
 31
0.0
1001
ACDBBLOCKREPETAG
1070
     1
1071
        1
1005
12C352
  0
LINE
  5
12C353
  8
HIDDEN
 10
4443.0
 20
-620.0
 30
0.0
 11
4557.0
 21
-620.0
 31
0.0
1001
ACDBBLOCKREPETAG
1070
     1
1071
        2
1005
12C353
  0
LINE
  5
12C354
  8
OBJECT
 10
4577.0
 20
-550.0
 30
0.0
 11
4577.0
 21
-571.0
 31
0.0
1001
ACDBBLOCKREPETAG
1070
     1
1071
        3
1005
12C354
  0
LINE
  5
12C355
  8
OBJECT
 10
4577.0
 20
-571.0
 30
0.0
 11
4423.0
 21
-571.0
 31
0.0
1001
ACDBBLOCKREPETAG
1070
     1
1071
        4
1005
12C355
  0
LINE
  5
12C356
  8
CENTER
 10
4500.0
 20
-535.0
 30
0.0
 11
4500.0
 21
-770.0
 31
0.0
1001
ACDBBLOCKREPETAG
1070
     1
1071
        5
1005
12C356
  0
LINE
  5
12C357
  8
OBJECT
 10
4425.0
 20
-634.0
 30
0.0
 11
4425.0
 21
-758.0
 31
0.0
1001
ACDBBLOCKREPETAG
1070
     1
1071
        6
1005
12C357
  0
LINE
  5
12C358
  8
OBJECT
 10
4428.0
 20
-571.0
 30
0.0
 11
4428.0
 21
-634.0
 31
0.0
1001
ACDBBLOCKREPETAG
1070
     1
1071
        7
1005
12C358
  0
LINE
  5
12C359
  8
OBJECT
 10
4572.0
 20
-634.0
 30
0.0
 11
4572.0
 21
-571.0
 31
0.0
1001
ACDBBLOCKREPETAG
1070
     1
1071
        8
1005
12C359
  0
LINE
  5
12C35A
  8
OBJECT
 10
4420.0
 20
-758.0
 30
0.0
 11
4580.0
 21
-758.0
 31
0.0
1001
ACDBBLOCKREPETAG
1070
     1
1071
        9
1005
12C35A
  0
LINE
  5
12C35B
  8
OBJECT
 10
4580.0
 20
-634.0
 30
0.0
 11
4425.0
 21
-634.0
 31
0.0
1001
ACDBBLOCKREPETAG
1070
     1
1071
       10
1005
12C35B
  0
LINE
  5
12C35C
  8
OBJECT
 10
4420.0
 20
-758.0
 30
0.0
 11
4420.0
 21
-770.0
 31
0.0
1001
ACDBBLOCKREPETAG
1070
     1
1071
       11
1005
12C35C
  0
LINE
  5
12C35D
  8
OBJECT
 10
4420.0
 20
-770.0
 30
0.0
 11
4580.0
 21
-770.0
 31
0.0
1001
ACDBBLOCKREPETAG
1070
     1
1071
       12
1005
12C35D
  0
LINE
  5
12C35E
  8
OBJECT
 10
4580.0
 20
-770.0
 30
0.0
 11
4580.0
 21
-758.0
 31
0.0
1001
ACDBBLOCKREPETAG
1070
     1
1071
       13
1005
12C35E
  0
ARC
  5
12C35F
  8
OBJECT
 10
4700.6872746716735492
 20
-749.4080994101076385
 30
0.0
 40
170.6350503965855978
 50
137.4413445918430057
 51
149.9194958133722082
1001
ACDBBLOCKREPETAG
1070
     1
1071
       15
1005
12C35F
  0
ARC
  5
12C360
  8
OBJECT
 10
4618.8455987040497348
 20
-705.882726695364795
 30
0.0
 40
78.0722220217636647
 50
147.4551531037683105
 51
164.6636599771867111
1001
ACDBBLOCKREPETAG
1070
     1
1071
       16
1005
12C360
  0
ARC
  5
12C361
  8
OBJECT
 10
4585.755434960871753
 20
-696.0
 30
0.0
 40
43.5535392688561771
 50
165.6884523008477004
 51
194.3115476991521859
1001
ACDBBLOCKREPETAG
1070
     1
1071
       17
1005
12C361
  0
ARC
  5
12C362
  8
OBJECT
 10
4700.6872746716735492
 20
-642.5919005898921341
 30
0.0
 40
170.6350503965855978
 50
210.0805041866277918
 51
222.5586554081569943
1001
ACDBBLOCKREPETAG
1070
     1
1071
       18
1005
12C362
  0
ARC
  5
12C363
  8
OBJECT
 10
4618.8455987040497348
 20
-686.117273304635205
 30
0.0
 40
78.0722220217636647
 50
195.3363400228132889
 51
212.5448468962316042
1001
ACDBBLOCKREPETAG
1070
     1
1071
       19
1005
12C363
  0
TEXT
  5
12C364
  8
SLIM
 10
4974.3428571428567011
 20
-872.999999999998181
 30
0.0
 40
24.0
  1
対応m寸法
 41
0.75
  0
TEXT
  5
12C365
  8
SLIM
 10
4873.8000000000001819
 20
-872.999999999998181
 30
0.0
 40
24.0
  1
P寸法
 41
0.75
  0
TEXT
  5
12C366
  8
SLIM
 10
4970.0571428571429351
 20
-968.9999999999980673
 30
0.0
 40
24.0
  1
190～320
 41
0.75
  0
TEXT
  5
12C367
  8
SLIM
 10
4878.857142857143117
 20
-968.9999999999980673
 30
0.0
 40
24.0
  1
220
 41
0.75
  0
TEXT
  5
12C368
  8
SLIM
 10
4971.7714285714291691
 20
-1016.9999999999979536
 30
0.0
 40
24.0
  1
180～310
 41
0.75
  0
TEXT
  5
12C369
  8
SLIM
 10
4878.857142857143117
 20
-1016.9999999999979536
 30
0.0
 40
24.0
  1
230
 41
0.75
  0
TEXT
  5
12C36A
  8
SLIM
 10
4970.0571428571429351
 20
-1064.9999999999979536
 30
0.0
 40
24.0
  1
170～300
 41
0.75
  0
TEXT
  5
12C36B
  8
SLIM
 10
4878.857142857143117
 20
-1064.9999999999979536
 30
0.0
 40
24.0
  1
240
 41
0.75
  0
TEXT
  5
12C36C
  8
SLIM
 10
4970.0571428571429351
 20
-1112.9999999999979536
 30
0.0
 40
24.0
  1
160～290
 41
0.75
  0
TEXT
  5
12C36D
  8
SLIM
 10
4878.857142857143117
 20
-1112.9999999999979536
 30
0.0
 40
24.0
  1
250
 41
0.75
  0
TEXT
  5
12C36E
  8
SLIM
 10
4878.857142857143117
 20
-1160.9999999999979536
 30
0.0
 40
24.0
  1
260
 41
0.75
  0
TEXT
  5
12C36F
  8
SLIM
 10
4878.857142857143117
 20
-1208.9999999999979536
 30
0.0
 40
24.0
  1
270
 41
0.75
  0
TEXT
  5
12C370
  8
SLIM
 10
4878.857142857143117
 20
-1256.9999999999979536
 30
0.0
 40
24.0
  1
280
 41
0.75
  0
TEXT
  5
12C371
  8
SLIM
 10
4878.857142857143117
 20
-1304.9999999999979536
 30
0.0
 40
24.0
  1
290
 41
0.75
  0
TEXT
  5
12C372
  8
SLIM
 10
4878.857142857143117
 20
-1352.9999999999979536
 30
0.0
 40
24.0
  1
300
 41
0.75
  0
TEXT
  5
12C373
  8
SLIM
 10
4948.4571428571443903
 20
-1410.9999999999970441
 30
0.0
 40
24.0
  1
標準：m=240
 41
0.75
  0
TEXT
  5
12C374
  8
SLIM
 10
4970.0571428571429351
 20
-1160.9999999999979536
 30
0.0
 40
24.0
  1
150～280
 41
0.75
  0
TEXT
  5
12C375
  8
SLIM
 10
4970.0571428571429351
 20
-1208.9999999999979536
 30
0.0
 40
24.0
  1
140～270
 41
0.75
  0
TEXT
  5
12C376
  8
SLIM
 10
4970.0571428571429351
 20
-1256.9999999999979536
 30
0.0
 40
24.0
  1
130～260
 41
0.75
  0
TEXT
  5
12C377
  8
SLIM
 10
4970.0571428571429351
 20
-1304.9999999999979536
 30
0.0
 40
24.0
  1
120～250
 41
0.75
  0
TEXT
  5
12C378
  8
SLIM
 10
4971.7714285714291691
 20
-1352.9999999999979536
 30
0.0
 40
24.0
  1
110～240
 41
0.75
  0
TEXT
  5
12C379
  8
SLIM
 10
4880.571428571429351
 20
-920.9999999999980673
 30
0.0
 40
24.0
  1
210
 41
0.75
  0
TEXT
  5
12C37A
  8
SLIM
 10
4968.3428571428567011
 20
-920.9999999999980673
 30
0.0
 40
24.0
  1
200～330
 41
0.75
  0
VIEWPORT
  5
F6BA7
 67
     1
  8
0
 10
195.9179030619629032
 20
101.8328354358671959
 30
0.0
 40
435.1776330165599802
 41
222.1965796813965142
 68
     1
 69
     1
1001
ACAD
1000
MVIEW
1002
{
1070
    16
1010
0.0
1020
0.0
1030
0.0
1010
0.0
1020
0.0
1030
1.0
1040
0.0
1040
222.1965796813965142
1040
195.9179030619629032
1040
101.8328354358671959
1040
50.0
1040
0.0
1040
0.0
1070
     0
1070
     0
1070
     1
1070
     1
1070
     0
1070
     0
1070
     0
1070
     0
1040
0.0
1040
0.0
1040
0.0
1040
10.0
1040
10.0
1040
10.0
1040
10.0
1070
     0
1002
{
1002
}
1002
}
  0
VIEWPORT
  5
F6BA9
 67
     1
  8
OBJECT
 10
145.3303314447402954
 20
101.8328338861465028
 30
0.0
 40
232.5285303115844044
 41
162.9325342178343021
 68
     2
 69
     2
1001
ACAD
1000
MVIEW
1002
{
1070
    16
1010
0.0
1020
0.0
1030
0.0
1010
0.0
1020
0.0
1030
1.0
1040
0.0
1040
25942.5590440314699663
1040
2377.6044570773769919
1040
-7591.5176687056618903
1040
50.0
1040
0.0
1040
0.0
1070
     0
1070
   600
1070
     1
1070
     1
1070
     0
1070
     0
1070
     0
1070
     0
1040
0.0
1040
0.0
1040
0.0
1040
1.0
1040
1.0
1040
0.0
1040
0.0
1070
     0
1002
{
1002
}
1002
}
  0
ENDSEC
  0
EOF
