  0
SECTION
  2
HEADER
  9
$ACADVER
  1
AC1009
  9
$INSBASE
 10
0.0
 20
0.0
 30
0.0
  9
$EXTMIN
 10
-0.0000000000002274
 20
-3982.4999999999982
 30
0.0
  9
$EXTMAX
 10
5607.5428571428556
 20
607.5
 30
0.0
  9
$LIMMIN
 10
0.0
 20
0.0
  9
$LIMMAX
 10
210.0
 20
297.0
  9
$ORTHOMODE
 70
     0
  9
$REGENMODE
 70
     1
  9
$FILLMODE
 70
     1
  9
$QTEXTMODE
 70
     0
  9
$MIRRTEXT
 70
     0
  9
$DRAGMODE
 70
     2
  9
$LTSCALE
 40
1.0
  9
$OSMODE
 70
    37
  9
$ATTMODE
 70
     1
  9
$TEXTSIZE
 40
4.0
  9
$TRACEWID
 40
0.05
  9
$TEXTSTYLE
  7
STANDARD
  9
$CLAYER
  8
SLIM
  9
$CELTYPE
  6
BYLAYER
  9
$CECOLOR
 62
   256
  9
$DIMSCALE
 40
10.0
  9
$DIMASZ
 40
2.0
  9
$DIMEXO
 40
1.0
  9
$DIMDLI
 40
10.0
  9
$DIMRND
 40
0.0
  9
$DIMDLE
 40
0.0
  9
$DIMEXE
 40
1.0
  9
$DIMTP
 40
0.0
  9
$DIMTM
 40
0.0
  9
$DIMTXT
 40
3.2000000000000002
  9
$DIMCEN
 40
0.0
  9
$DIMTSZ
 40
0.0
  9
$DIMTOL
 70
     0
  9
$DIMLIM
 70
     0
  9
$DIMTIH
 70
     0
  9
$DIMTOH
 70
     0
  9
$DIMSE1
 70
     0
  9
$DIMSE2
 70
     0
  9
$DIMTAD
 70
     1
  9
$DIMZIN
 70
     8
  9
$DIMBLK
  1
OPEN30
  9
$DIMASO
 70
     1
  9
$DIMSHO
 70
     1
  9
$DIMPOST
  1

  9
$DIMAPOST
  1

  9
$DIMALT
 70
     0
  9
$DIMALTD
 70
     2
  9
$DIMALTF
 40
25.399999999999999
  9
$DIMLFAC
 40
1.0
  9
$DIMTOFL
 70
     1
  9
$DIMTVP
 40
0.0
  9
$DIMTIX
 70
     0
  9
$DIMSOXD
 70
     0
  9
$DIMSAH
 70
     0
  9
$DIMBLK1
  1

  9
$DIMBLK2
  1

  9
$DIMSTYLE
  2
S10
  9
$DIMCLRD
 70
   256
  9
$DIMCLRE
 70
   256
  9
$DIMCLRT
 70
   256
  9
$DIMTFAC
 40
1.0
  9
$DIMGAP
 40
0.9
  9
$LUNITS
 70
     2
  9
$LUPREC
 70
     2
  9
$SKETCHINC
 40
0.1
  9
$FILLETRAD
 40
0.0
  9
$AUNITS
 70
     0
  9
$AUPREC
 70
     2
  9
$MENU
  1
ACAD
  9
$ELEVATION
 40
0.0
  9
$PELEVATION
 40
0.0
  9
$THICKNESS
 40
0.0
  9
$LIMCHECK
 70
     0
  9
$BLIPMODE
 70
     0
  9
$CHAMFERA
 40
2.0
  9
$CHAMFERB
 40
2.0
  9
$SKPOLY
 70
     0
  9
$TDCREATE
 40
2453095.4929404748
  9
$TDUPDATE
 40
2457604.626809584
  9
$TDINDWG
 40
21.332705902800001
  9
$TDUSRTIMER
 40
21.332705208299998
  9
$USRTIMER
 70
     1
  9
$ANGBASE
 50
0.0
  9
$ANGDIR
 70
     0
  9
$PDMODE
 70
    35
  9
$PDSIZE
 40
2.0
  9
$PLINEWID
 40
0.0
  9
$COORDS
 70
     1
  9
$SPLFRAME
 70
     0
  9
$SPLINETYPE
 70
     6
  9
$SPLINESEGS
 70
     8
  9
$ATTDIA
 70
     0
  9
$ATTREQ
 70
     1
  9
$HANDLING
 70
     1
  9
$HANDSEED
  5
126386
  9
$SURFTAB1
 70
     6
  9
$SURFTAB2
 70
     6
  9
$SURFTYPE
 70
     6
  9
$SURFU
 70
     6
  9
$SURFV
 70
     6
  9
$UCSNAME
  2

  9
$UCSORG
 10
0.0
 20
0.0
 30
0.0
  9
$UCSXDIR
 10
1.0
 20
0.0
 30
0.0
  9
$UCSYDIR
 10
0.0
 20
1.0
 30
0.0
  9
$PUCSNAME
  2

  9
$PUCSORG
 10
0.0
 20
0.0
 30
0.0
  9
$PUCSXDIR
 10
1.0
 20
0.0
 30
0.0
  9
$PUCSYDIR
 10
0.0
 20
1.0
 30
0.0
  9
$USERI1
 70
     0
  9
$USERI2
 70
     0
  9
$USERI3
 70
     0
  9
$USERI4
 70
     0
  9
$USERI5
 70
     0
  9
$USERR1
 40
0.0
  9
$USERR2
 40
0.0
  9
$USERR3
 40
0.0
  9
$USERR4
 40
0.0
  9
$USERR5
 40
0.0
  9
$WORLDVIEW
 70
     1
  9
$SHADEDGE
 70
     3
  9
$SHADEDIF
 70
    70
  9
$TILEMODE
 70
     1
  9
$MAXACTVP
 70
    64
  9
$PLIMCHECK
 70
     0
  9
$PEXTMIN
 10
29.066066288948051
 20
20.366566777229309
 30
0.0
  9
$PEXTMAX
 10
261.5945966005325
 20
183.29910099506381
 30
0.0
  9
$PLIMMIN
 10
-3.17498779296875
 20
-3.1749999523162842
  9
$PLIMMAX
 10
293.83566284179687
 20
206.8406708240509
  9
$UNITMODE
 70
     0
  9
$VISRETAIN
 70
     1
  9
$PLINEGEN
 70
     0
  9
$PSLTSCALE
 70
     1
  0
ENDSEC
  0
SECTION
  2
TABLES
  0
TABLE
  2
VPORT
 70
     1
  0
VPORT
  2
*ACTIVE
 70
     0
 10
0.0
 20
0.0
 11
1.0
 21
1.0
 12
3687.6052330650232
 22
359.56741550864808
 13
0.0
 23
0.0
 14
1.0
 24
1.0
 15
0.0
 25
0.0
 16
0.0
 26
0.0
 36
1.0
 17
0.0
 27
0.0
 37
0.0
 40
9367.1027438858073
 41
1.6494178525226391
 42
50.0
 43
0.0
 44
0.0
 50
0.0
 51
0.0
 71
     0
 72
   600
 73
     1
 74
     1
 75
     0
 76
     0
 77
     0
 78
     0
  0
ENDTAB
  0
TABLE
  2
LTYPE
 70
     4
  0
LTYPE
  2
CONTINUOUS
 70
     0
  3
Solid line
 72
    65
 73
     0
 40
0.0
  0
LTYPE
  2
PHANTOM2
 70
     0
  3
___ _ _ ___ _ _ ___ _ _ ___ _ _
 72
    65
 73
     6
 40
1.25
 49
0.625
 49
-0.125
 49
0.125
 49
-0.125
 49
0.125
 49
-0.125
  0
LTYPE
  2
ACAD_ISO08W100
 70
     0
  3
ISO long-dash short-dash ____ __ ____ __ ____ _
 72
    65
 73
     4
 40
36.0
 49
24.0
 49
-3.0
 49
6.0
 49
-3.0
  0
LTYPE
  2
ACAD_ISO02W100
 70
     0
  3
ISO dash __ __ __ __ __ __ __ __ __ __ __ __ __
 72
    65
 73
     2
 40
15.0
 49
12.0
 49
-3.0
  0
ENDTAB
  0
TABLE
  2
LAYER
 70
     8
  0
LAYER
  2
0
 70
     0
 62
     7
  6
CONTINUOUS
  0
LAYER
  2
SLIM
 70
     0
 62
     2
  6
CONTINUOUS
  0
LAYER
  2
DEFPOINTS
 70
     0
 62
     7
  6
CONTINUOUS
  0
LAYER
  2
DIM
 70
     0
 62
     7
  6
CONTINUOUS
  0
LAYER
  2
OBJECT
 70
     0
 62
     4
  6
CONTINUOUS
  0
LAYER
  2
HIDDEN
 70
     0
 62
     2
  6
ACAD_ISO02W100
  0
LAYER
  2
CENTER
 70
     0
 62
     2
  6
ACAD_ISO08W100
  0
LAYER
  2
DOTS
 70
     0
 62
     1
  6
CONTINUOUS
  0
ENDTAB
  0
TABLE
  2
STYLE
 70
     2
  0
STYLE
  2
STANDARD
 70
     0
 40
0.0
 41
0.75
 50
0.0
 71
     0
 42
4.0
  3
simplex.shx
  4
bigfont.shx
  0
ENDTAB
  0
TABLE
  2
VIEW
 70
     0
  0
ENDTAB
  0
TABLE
  2
UCS
 70
     0
  0
ENDTAB
  0
TABLE
  2
APPID
 70
    20
  0
APPID
  2
ACAD
 70
     0
  0
APPID
  2
ACADANNOTATIVE
 70
     0
  0
APPID
  2
ACAD_PSEXT
 70
     0
  0
APPID
  2
ACAD_EXEMPT_FROM_CAD_STANDARDS
 70
     0
  0
APPID
  2
ACAECLAYERSTANDARD
 70
     0
  0
APPID
  2
ACAUTHENVIRON
 70
     0
  0
APPID
  2
ACDBDYNAMICBLOCKTRUENAME
 70
     0
  0
APPID
  2
ACDBDYNAMICBLOCKGUID
 70
     0
  0
APPID
  2
ACDBBLOCKREPETAG
 70
     0
  0
APPID
  2
ACDBBLOCKREPBTAG
 70
     0
  0
APPID
  2
ACAD_NAV_VCDISPLAY
 70
     0
  0
APPID
  2
ACAD_DSTYLE_DIMRADIAL_EXTENSION
 70
     0
  0
APPID
  2
ACAD_DSTYLE_DIMJAG
 70
     0
  0
APPID
  2
ACAD_DSTYLE_DIMTALN
 70
     0
  0
APPID
  2
ACADANNOPO
 70
     0
  0
APPID
  2
GRADIENTCOLOR1ACI
 70
     0
  0
APPID
  2
GRADIENTCOLOR2ACI
 70
     0
  0
APPID
  2
ACADANNOMONITORALERTICONDI
 70
     0
  0
APPID
  2
CONTENTBLOCKICON
 70
     0
  0
APPID
  2
ACAD_MLEADERVER
 70
     0
  0
ENDTAB
  0
TABLE
  2
DIMSTYLE
 70
     3
  0
DIMSTYLE
  2
STANDARD
 70
     0
  3

  4

  5

  6

  7

 40
1.0
 41
0.18
 42
0.0625
 43
0.38
 44
0.18
 45
0.0
 46
0.0
 47
0.0
 48
0.0
140
0.18
141
0.09
142
0.0
143
25.399999999999999
144
1.0
145
0.0
146
1.0
147
0.09
 71
     0
 72
     0
 73
     1
 74
     1
 75
     0
 76
     0
 77
     0
 78
     0
170
     0
171
     2
172
     0
173
     0
174
     0
175
     0
176
     0
177
     0
178
     0
  0
DIMSTYLE
  2
S10
 70
     0
  3

  4

  5

  6

  7

 40
10.0
 41
2.0
 42
1.0
 43
10.0
 44
1.0
 45
0.0
 46
0.0
 47
0.0
 48
0.0
140
3.2000000000000002
141
0.0
142
0.0
143
25.399999999999999
144
1.0
145
0.0
146
1.0
147
0.9
 71
     0
 72
     0
 73
     0
 74
     0
 75
     0
 76
     0
 77
     1
 78
     8
170
     0
171
     2
172
     1
173
     0
174
     0
175
     0
176
   256
177
   256
178
   256
  0
ENDTAB
  0
ENDSEC
  0
SECTION
  2
BLOCKS
  0
BLOCK
  8
0
  2
$MODEL_SPACE
 70
     0
 10
0.0
 20
0.0
 30
0.0
  3
$MODEL_SPACE
  1

  0
ENDBLK
  5
1262D6
  8
0
  0
BLOCK
 67
     1
  8
0
  2
$PAPER_SPACE
 70
     0
 10
0.0
 20
0.0
 30
0.0
  3
$PAPER_SPACE
  1

  0
ENDBLK
  5
1262D2
 67
     1
  8
0
  0
BLOCK
  8
0
  2
_OPEN30
 70
     0
 10
0.0
 20
0.0
 30
0.0
  3
_OPEN30
  1

  0
LINE
  5
202
  8
0
  6
BYBLOCK
 62
     0
 10
-1.0
 20
0.26794919
 30
0.0
 11
0.0
 21
0.0
 31
0.0
  0
LINE
  5
203
  8
0
  6
BYBLOCK
 62
     0
 10
0.0
 20
0.0
 30
0.0
 11
-1.0
 21
-0.26794919
 31
0.0
  0
LINE
  5
204
  8
0
  6
BYBLOCK
 62
     0
 10
0.0
 20
0.0
 30
0.0
 11
-1.0
 21
0.0
 31
0.0
  0
ENDBLK
  5
206
  8
0
  0
BLOCK
  8
0
  2
*U3
 70
     1
 10
0.0
 20
0.0
 30
0.0
  3
*U3
  1

  0
TEXT
  5
12623E
  8
SLIM
 10
158.9523809524228
 20
-130.00000000017181
 30
0.0
 40
26.0
  1
75
  0
ENDBLK
  5
126240
  8
0
  0
BLOCK
  8
0
  2
*U4
 70
     1
 10
0.0
 20
0.0
 30
0.0
  3
*U4
  1

  0
TEXT
  5
126242
  8
SLIM
 10
112.9999999999997
 20
-1481.047619047619
 30
0.0
 40
26.0
  1
75
 50
90.0
  0
ENDBLK
  5
126244
  8
0
  0
BLOCK
  8
0
  2
*U5
 70
     1
 10
0.0
 20
0.0
 30
0.0
  3
*U5
  1

  0
TEXT
  5
126246
  8
SLIM
 10
472.9999999999996
 20
-1017.047619047619
 30
0.0
 40
26.0
  1
65
 50
90.0
  0
ENDBLK
  5
126248
  8
0
  0
BLOCK
  8
0
  2
*U6
 70
     1
 10
0.0
 20
0.0
 30
0.0
  3
*U6
  1

  0
TEXT
  5
12624A
  8
SLIM
 10
112.9999999999997
 20
-1017.047619047619
 30
0.0
 40
26.0
  1
50
 50
90.0
  0
ENDBLK
  5
12624C
  8
0
  0
BLOCK
  8
0
  2
*U7
 70
     1
 10
0.0
 20
0.0
 30
0.0
  3
*U7
  1

  0
TEXT
  5
12624E
  8
DIM
 10
4334.1164560757752
 20
-1258.7428571428561
 30
0.0
 40
32.0
  1
m（シンドカット）
 50
90.0
 41
0.75
  0
ENDBLK
  5
126250
  8
0
  0
BLOCK
  8
0
  2
*U8
 70
     1
 10
0.0
 20
0.0
 30
0.0
  3
*U8
  1

  0
TEXT
  5
126252
  8
DIM
 10
4700.4245816727562
 20
-864.00000000000125
 30
0.0
 40
32.0
  1
P
 50
90.0
 41
0.75
  0
ENDBLK
  5
126254
  8
0
  0
BLOCK
  8
0
  2
*U9
 70
     1
 10
0.0
 20
0.0
 30
0.0
  3
*U9
  1

  0
TEXT
  5
126256
  8
DIM
 10
2700.4245816727562
 20
-863.99999999999955
 30
0.0
 40
32.0
  1
P
 50
90.0
 41
0.75
  0
ENDBLK
  5
126258
  8
0
  0
BLOCK
  8
0
  2
*U10
 70
     1
 10
0.0
 20
0.0
 30
0.0
  3
*U10
  1

  0
TEXT
  5
12625A
  8
DIM
 10
2709.479620594459
 20
-3469.1428571428528
 30
0.0
 40
32.0
  1
A
 50
90.0
 41
0.75
  0
ENDBLK
  5
12625C
  8
0
  0
BLOCK
  8
0
  2
*U11
 70
     1
 10
0.0
 20
0.0
 30
0.0
  3
*U11
  1

  0
TEXT
  5
12625E
  8
DIM
 10
2707.840928403733
 20
-3850.9999999999968
 30
0.0
 40
32.0
  1
B
 50
90.0
 41
0.75
  0
ENDBLK
  5
126260
  8
0
  0
BLOCK
  8
0
  2
*U12
 70
     1
 10
0.0
 20
0.0
 30
0.0
  3
*U12
  1

  0
TEXT
  5
126262
  8
DIM
 10
2561.4285714285711
 20
-3323.208121984444
 30
0.0
 40
32.0
  1
C
 41
0.75
  0
ENDBLK
  5
126264
  8
0
  0
ENDSEC
  0
SECTION
  2
ENTITIES
  0
LINE
  5
11273E
  8
OBJECT
 10
2325.0
 20
-3864.9999999999968
 30
0.0
 11
5075.0
 21
-3864.9999999999968
 31
0.0
  0
LINE
  5
11412B
  8
SLIM
 10
3256.0
 20
-2922.5000160472709
 30
0.0
 11
3256.0
 21
-3252.5000160472709
 31
0.0
  0
LINE
  5
11412C
  8
SLIM
 10
3380.0
 20
-2922.5000160472709
 30
0.0
 11
3380.0
 21
-3252.5000160472709
 31
0.0
  0
LINE
  5
11412D
  8
SLIM
 10
3510.0
 20
-2982.50001604727
 30
0.0
 11
3510.0
 21
-3252.5000160472709
 31
0.0
  0
LINE
  5
11412E
  8
SLIM
 10
3640.0
 20
-2982.50001604727
 30
0.0
 11
3640.0
 21
-3252.5000160472709
 31
0.0
  0
LINE
  5
11412F
  8
SLIM
 10
3770.0
 20
-3252.5000160472709
 30
0.0
 11
3770.0
 21
-2922.5000160472709
 31
0.0
  0
LINE
  5
114131
  8
SLIM
 10
3770.0
 20
-2922.5000160472709
 30
0.0
 11
3256.0
 21
-2922.5000160472709
 31
0.0
  0
LINE
  5
114132
  8
SLIM
 10
3769.9999999999991
 20
-2982.50001604727
 30
0.0
 11
3380.0
 21
-2982.50001604727
 31
0.0
  0
LINE
  5
114133
  8
SLIM
 10
3770.0
 20
-3042.5000160472709
 30
0.0
 11
3256.0
 21
-3042.5000160472709
 31
0.0
  0
LINE
  5
114134
  8
SLIM
 10
3770.0
 20
-3112.5000160472709
 30
0.0
 11
3256.0
 21
-3112.5000160472709
 31
0.0
  0
LINE
  5
114135
  8
SLIM
 10
3770.0
 20
-3182.5000160472709
 30
0.0
 11
3256.0
 21
-3182.5000160472709
 31
0.0
  0
LINE
  5
114136
  8
SLIM
 10
3770.0
 20
-3252.5000160472709
 30
0.0
 11
3256.0
 21
-3252.5000160472709
 31
0.0
  0
LINE
  5
11414B
  8
SLIM
 10
3380.0
 20
-3042.5000160472709
 30
0.0
 11
3255.9999722746579
 21
-2922.5000000000018
 31
0.0
  0
LINE
  5
12250A
  8
OBJECT
 10
2555.0
 20
-66.999999999999091
 30
0.0
 11
2555.0
 21
-59.999999999999091
 31
0.0
1001
ACDBBLOCKREPETAG
1070
     1
1071
       20
1005
12250A
  0
LINE
  5
12250B
  8
OBJECT
 10
2555.0
 20
-59.999999999999091
 30
0.0
 11
2445.0
 21
-59.999999999999091
 31
0.0
1001
ACDBBLOCKREPETAG
1070
     1
1071
       21
1005
12250B
  0
LINE
  5
12250C
  8
OBJECT
 10
2445.0
 20
-59.999999999999091
 30
0.0
 11
2445.0
 21
-66.999999999999091
 31
0.0
1001
ACDBBLOCKREPETAG
1070
     1
1071
       22
1005
12250C
  0
LINE
  5
12250D
  8
OBJECT
 10
2445.0
 20
-66.999999999999091
 30
0.0
 11
2555.0
 21
-66.999999999999091
 31
0.0
1001
ACDBBLOCKREPETAG
1070
     1
1071
       23
1005
12250D
  0
LINE
  5
12250E
  8
CENTER
 10
2500.0
 20
-44.999999999999091
 30
0.0
 11
2500.0
 21
-119.9999999999991
 31
0.0
1001
ACDBBLOCKREPETAG
1070
     1
1071
       24
1005
12250E
  0
LINE
  5
12250F
  8
OBJECT
 10
2552.0
 20
-66.999999999999091
 30
0.0
 11
2552.0
 21
-102.9999999999991
 31
0.0
1001
ACDBBLOCKREPETAG
1070
     1
1071
       25
1005
12250F
  0
LINE
  5
122510
  8
OBJECT
 10
2552.0
 20
-102.9999999999991
 30
0.0
 11
2448.0
 21
-102.9999999999991
 31
0.0
1001
ACDBBLOCKREPETAG
1070
     1
1071
       26
1005
122510
  0
LINE
  5
122511
  8
OBJECT
 10
2448.0
 20
-102.9999999999991
 30
0.0
 11
2448.0
 21
-66.999999999999091
 31
0.0
1001
ACDBBLOCKREPETAG
1070
     1
1071
       27
1005
122511
  0
LINE
  5
122512
  8
OBJECT
 10
2547.5
 20
-106.9999999999991
 30
0.0
 11
2547.5
 21
-115.4999999999991
 31
0.0
1001
ACDBBLOCKREPETAG
1070
     1
1071
       28
1005
122512
  0
LINE
  5
122513
  8
OBJECT
 10
2452.5000000000009
 20
-115.4999999999991
 30
0.0
 11
2452.5000000000009
 21
-106.9999999999991
 31
0.0
1001
ACDBBLOCKREPETAG
1070
     1
1071
       29
1005
122513
  0
LINE
  5
122514
  8
OBJECT
 10
2452.5000000000009
 20
-106.9999999999991
 30
0.0
 11
2547.5
 21
-106.9999999999991
 31
0.0
1001
ACDBBLOCKREPETAG
1070
     1
1071
       30
1005
122514
  0
LINE
  5
122515
  8
OBJECT
 10
2552.0
 20
-102.9999999999991
 30
0.0
 11
2547.5
 21
-106.9999999999991
 31
0.0
1001
ACDBBLOCKREPETAG
1070
     1
1071
       31
1005
122515
  0
LINE
  5
122516
  8
OBJECT
 10
2448.0
 20
-102.9999999999991
 30
0.0
 11
2452.5000000000009
 21
-106.9999999999991
 31
0.0
1001
ACDBBLOCKREPETAG
1070
     1
1071
       32
1005
122516
  0
LINE
  5
122517
  8
OBJECT
 10
2450.5
 20
-115.5000000000009
 30
0.0
 11
2549.5
 21
-115.4999999999991
 31
0.0
1001
ACDBBLOCKREPETAG
1070
     1
1071
       33
1005
122517
  0
LINE
  5
122518
  8
HIDDEN
 10
2538.0
 20
-111.9999999999991
 30
0.0
 11
2462.0
 21
-111.9999999999991
 31
0.0
1001
ACDBBLOCKREPETAG
1070
     1
1071
       34
1005
122518
  0
LINE
  5
122519
  8
OBJECT
 10
2549.5
 20
-115.4999999999991
 30
0.0
 11
2549.5
 21
-137.1529634747977
 31
0.0
1001
ACDBBLOCKREPETAG
1070
     1
1071
       35
1005
122519
  0
LINE
  5
12251A
  8
OBJECT
 10
2450.5
 20
-115.5000000000009
 30
0.0
 11
2450.5
 21
-137.1529634747977
 31
0.0
1001
ACDBBLOCKREPETAG
1070
     1
1071
       36
1005
12251A
  0
CIRCLE
  5
122542
  8
OBJECT
 10
2500.0
 20
-199.99999999999909
 30
0.0
 40
53.5
1001
ACDBBLOCKREPETAG
1070
     1
1071
      344
1005
122542
  0
POINT
  5
122543
  8
DOTS
 10
2500.0
 20
-199.99999999999909
 30
0.0
 50
270.0
1001
ACDBBLOCKREPETAG
1070
     1
1071
      362
1005
122543
  0
LINE
  5
122545
  8
CENTER
 10
2580.0
 20
-199.99999999999909
 30
0.0
 11
2405.0
 21
-199.99999999999909
 31
0.0
1001
ACDBBLOCKREPETAG
1070
     1
1071
       14
1005
122545
  0
LINE
  5
122546
  8
CENTER
 10
2500.0
 20
-294.99999999999898
 30
0.0
 11
2500.0
 21
-104.9999999999991
 31
0.0
1001
ACDBBLOCKREPETAG
1070
     1
1071
       15
1005
122546
  0
CIRCLE
  5
122547
  8
OBJECT
 10
2500.0
 20
-199.99999999999909
 30
0.0
 40
70.0
1001
ACDBBLOCKREPETAG
1070
     1
1071
       16
1005
122547
  0
CIRCLE
  5
122548
  8
OBJECT
 10
2500.0
 20
-199.99999999999909
 30
0.0
 40
77.0
1001
ACDBBLOCKREPETAG
1070
     1
1071
       17
1005
122548
  0
ARC
  5
122549
  8
OBJECT
 10
2500.0
 20
-199.99999999999909
 30
0.0
 40
80.0
 50
50.80503257401709
 51
309.19496742613529
1001
ACDBBLOCKREPETAG
1070
     1
1071
       18
1005
122549
  0
LINE
  5
12254A
  8
OBJECT
 10
2545.6618002273249
 20
-137.99999999999909
 30
0.0
 11
2580.0
 21
-137.99999999999909
 31
0.0
1001
ACDBBLOCKREPETAG
1070
     1
1071
       19
1005
12254A
  0
LINE
  5
12254B
  8
OBJECT
 10
2545.6618002273249
 20
-261.99999999999909
 30
0.0
 11
2580.0
 21
-261.99999999999909
 31
0.0
1001
ACDBBLOCKREPETAG
1070
     1
1071
       20
1005
12254B
  0
LINE
  5
1238B4
  8
CENTER
 10
2579.9999999999991
 20
-3459.9999999999968
 30
0.0
 11
2409.9999999999991
 21
-3459.9999999999968
 31
0.0
1001
ACDBBLOCKREPETAG
1070
     1
1071
       14
1005
122545
  0
LINE
  5
1238B5
  8
CENTER
 10
2500.0
 20
-3549.9999999999968
 30
0.0
 11
2500.0
 21
-3369.9999999999968
 31
0.0
1001
ACDBBLOCKREPETAG
1070
     1
1071
       15
1005
122546
  0
CIRCLE
  5
1238B6
  8
OBJECT
 10
2500.0
 20
-3459.9999999999968
 30
0.0
 40
70.0
1001
ACDBBLOCKREPETAG
1070
     1
1071
       16
1005
122547
  0
CIRCLE
  5
1238B7
  8
OBJECT
 10
2500.0
 20
-3459.9999999999968
 30
0.0
 40
75.0
1001
ACDBBLOCKREPETAG
1070
     1
1071
       17
1005
122548
  0
LINE
  5
123927
  8
CENTER
 10
2500.0
 20
-3644.9999999999991
 30
0.0
 11
2500.0
 21
-3891.9999999999991
 31
0.0
1001
ACDBBLOCKREPETAG
1070
     1
1071
       25
1005
123927
  0
LINE
  5
123928
  8
OBJECT
 10
2425.0
 20
-3659.9999999999968
 30
0.0
 11
2425.0
 21
-3879.9999999999991
 31
0.0
1001
ACDBBLOCKREPETAG
1070
     1
1071
       26
1005
123928
  0
LINE
  5
12392C
  8
OBJECT
 10
2575.0
 20
-3659.9999999999968
 30
0.0
 11
2575.0
 21
-3756.5000000000618
 31
0.0
1001
ACDBBLOCKREPETAG
1070
     1
1071
       34
1005
12392C
  0
LINE
  5
123A5C
  8
OBJECT
 10
2575.0
 20
-3862.4999999999991
 30
0.0
 11
2575.0
 21
-3879.9999999999991
 31
0.0
1001
ACDBBLOCKREPETAG
1070
     1
1071
       34
1005
12392C
  0
LINE
  5
123A5E
  8
CENTER
 10
2900.0
 20
-3644.9999999999991
 30
0.0
 11
2900.0
 21
-3891.9999999999991
 31
0.0
1001
ACDBBLOCKREPETAG
1070
     1
1071
       25
1005
123927
  0
LINE
  5
123A5F
  8
OBJECT
 10
2825.0
 20
-3659.9999999999968
 30
0.0
 11
2825.0
 21
-3879.9999999999991
 31
0.0
1001
ACDBBLOCKREPETAG
1070
     1
1071
       26
1005
123928
  0
LINE
  5
123A60
  8
OBJECT
 10
2975.0
 20
-3659.9999999999968
 30
0.0
 11
2975.0
 21
-3879.9999999999991
 31
0.0
1001
ACDBBLOCKREPETAG
1070
     1
1071
       34
1005
12392C
  0
LINE
  5
123AD2
  8
CENTER
 10
3579.9999999999991
 20
-3459.9999999999968
 30
0.0
 11
3410.0
 21
-3459.9999999999968
 31
0.0
1001
ACDBBLOCKREPETAG
1070
     1
1071
       14
1005
122545
  0
LINE
  5
123AD3
  8
CENTER
 10
3500.0
 20
-3549.9999999999968
 30
0.0
 11
3500.0
 21
-3369.9999999999968
 31
0.0
1001
ACDBBLOCKREPETAG
1070
     1
1071
       15
1005
122546
  0
CIRCLE
  5
123AD4
  8
OBJECT
 10
3500.0
 20
-3459.9999999999968
 30
0.0
 40
70.0
1001
ACDBBLOCKREPETAG
1070
     1
1071
       16
1005
122547
  0
CIRCLE
  5
123AD5
  8
OBJECT
 10
3500.0
 20
-3459.9999999999968
 30
0.0
 40
75.0
1001
ACDBBLOCKREPETAG
1070
     1
1071
       17
1005
122548
  0
LINE
  5
123ADD
  8
CENTER
 10
3500.0
 20
-3644.9999999999991
 30
0.0
 11
3500.0
 21
-3891.9999999999991
 31
0.0
1001
ACDBBLOCKREPETAG
1070
     1
1071
       25
1005
123927
  0
LINE
  5
123ADE
  8
OBJECT
 10
3424.9999999999991
 20
-3659.9999999999968
 30
0.0
 11
3424.9999999999991
 21
-3879.9999999999991
 31
0.0
1001
ACDBBLOCKREPETAG
1070
     1
1071
       26
1005
123928
  0
LINE
  5
123ADF
  8
OBJECT
 10
3574.9999999999991
 20
-3659.9999999999968
 30
0.0
 11
3574.9999999999991
 21
-3756.5000000000618
 31
0.0
1001
ACDBBLOCKREPETAG
1070
     1
1071
       34
1005
12392C
  0
LINE
  5
123AE0
  8
OBJECT
 10
3574.9999999999991
 20
-3862.4999999999991
 30
0.0
 11
3574.9999999999991
 21
-3879.9999999999991
 31
0.0
1001
ACDBBLOCKREPETAG
1070
     1
1071
       34
1005
12392C
  0
LINE
  5
123AE8
  8
CENTER
 10
3900.0
 20
-3644.9999999999991
 30
0.0
 11
3900.0
 21
-3891.9999999999991
 31
0.0
1001
ACDBBLOCKREPETAG
1070
     1
1071
       25
1005
123927
  0
LINE
  5
123AE9
  8
OBJECT
 10
3824.9999999999991
 20
-3659.9999999999968
 30
0.0
 11
3824.9999999999991
 21
-3879.9999999999991
 31
0.0
1001
ACDBBLOCKREPETAG
1070
     1
1071
       26
1005
123928
  0
LINE
  5
123AEA
  8
OBJECT
 10
3975.0
 20
-3659.9999999999968
 30
0.0
 11
3975.0
 21
-3879.9999999999991
 31
0.0
1001
ACDBBLOCKREPETAG
1070
     1
1071
       34
1005
12392C
  0
LINE
  5
123B38
  8
CENTER
 10
4579.9999999999991
 20
-3459.9999999999968
 30
0.0
 11
4409.9999999999991
 21
-3459.9999999999968
 31
0.0
1001
ACDBBLOCKREPETAG
1070
     1
1071
       14
1005
122545
  0
LINE
  5
123B39
  8
CENTER
 10
4499.9999999999991
 20
-3549.9999999999968
 30
0.0
 11
4499.9999999999991
 21
-3369.9999999999968
 31
0.0
1001
ACDBBLOCKREPETAG
1070
     1
1071
       15
1005
122546
  0
CIRCLE
  5
123B3A
  8
OBJECT
 10
4499.9999999999991
 20
-3459.9999999999968
 30
0.0
 40
70.0
1001
ACDBBLOCKREPETAG
1070
     1
1071
       16
1005
122547
  0
CIRCLE
  5
123B3B
  8
OBJECT
 10
4499.9999999999991
 20
-3459.9999999999968
 30
0.0
 40
75.0
1001
ACDBBLOCKREPETAG
1070
     1
1071
       17
1005
122548
  0
LINE
  5
123B43
  8
CENTER
 10
4500.0
 20
-3644.9999999999991
 30
0.0
 11
4500.0
 21
-3891.9999999999991
 31
0.0
1001
ACDBBLOCKREPETAG
1070
     1
1071
       25
1005
123927
  0
LINE
  5
123B44
  8
OBJECT
 10
4425.0
 20
-3659.9999999999968
 30
0.0
 11
4425.0
 21
-3879.9999999999991
 31
0.0
1001
ACDBBLOCKREPETAG
1070
     1
1071
       26
1005
123928
  0
LINE
  5
123B45
  8
OBJECT
 10
4575.0
 20
-3659.9999999999968
 30
0.0
 11
4575.0
 21
-3756.5000000000618
 31
0.0
1001
ACDBBLOCKREPETAG
1070
     1
1071
       34
1005
12392C
  0
LINE
  5
123B46
  8
OBJECT
 10
4575.0
 20
-3862.4999999999991
 30
0.0
 11
4575.0
 21
-3879.9999999999991
 31
0.0
1001
ACDBBLOCKREPETAG
1070
     1
1071
       34
1005
12392C
  0
LINE
  5
123B4E
  8
CENTER
 10
4900.0
 20
-3644.9999999999991
 30
0.0
 11
4900.0
 21
-3891.9999999999991
 31
0.0
1001
ACDBBLOCKREPETAG
1070
     1
1071
       25
1005
123927
  0
LINE
  5
123B4F
  8
OBJECT
 10
4825.0
 20
-3659.9999999999968
 30
0.0
 11
4825.0
 21
-3879.9999999999991
 31
0.0
1001
ACDBBLOCKREPETAG
1070
     1
1071
       26
1005
123928
  0
LINE
  5
123B50
  8
OBJECT
 10
4975.0
 20
-3659.9999999999968
 30
0.0
 11
4974.9999999999991
 21
-3879.9999999999991
 31
0.0
1001
ACDBBLOCKREPETAG
1070
     1
1071
       34
1005
12392C
  0
POINT
  5
124C02
  8
DOTS
 10
2500.0
 20
-3459.9999999999968
 30
0.0
  0
POINT
  5
124C03
  8
DOTS
 10
2500.0
 20
-3864.9999999999968
 30
0.0
  0
POINT
  5
124C05
  8
DOTS
 10
3500.0
 20
-3864.9999999999968
 30
0.0
  0
POINT
  5
124C07
  8
DOTS
 10
3500.0
 20
-3459.9999999999968
 30
0.0
  0
POINT
  5
124C08
  8
DOTS
 10
4499.9999999999991
 20
-3459.9999999999968
 30
0.0
  0
POINT
  5
124C09
  8
DOTS
 10
4499.9999999999991
 20
-3864.9999999999968
 30
0.0
  0
LINE
  5
124F81
  8
OBJECT
 10
4555.0
 20
-66.999999999999091
 30
0.0
 11
4555.0
 21
-59.999999999999091
 31
0.0
1001
ACDBBLOCKREPETAG
1070
     1
1071
       20
1005
12250A
  0
LINE
  5
124F82
  8
OBJECT
 10
4555.0
 20
-59.999999999999091
 30
0.0
 11
4445.0
 21
-59.999999999999091
 31
0.0
1001
ACDBBLOCKREPETAG
1070
     1
1071
       21
1005
12250B
  0
LINE
  5
124F83
  8
OBJECT
 10
4445.0
 20
-59.999999999999091
 30
0.0
 11
4445.0
 21
-66.999999999999091
 31
0.0
1001
ACDBBLOCKREPETAG
1070
     1
1071
       22
1005
12250C
  0
LINE
  5
124F84
  8
OBJECT
 10
4445.0
 20
-66.999999999999091
 30
0.0
 11
4555.0
 21
-66.999999999999091
 31
0.0
1001
ACDBBLOCKREPETAG
1070
     1
1071
       23
1005
12250D
  0
LINE
  5
124F85
  8
CENTER
 10
4500.0
 20
-44.999999999999091
 30
0.0
 11
4500.0
 21
-119.9999999999991
 31
0.0
1001
ACDBBLOCKREPETAG
1070
     1
1071
       24
1005
12250E
  0
LINE
  5
124F86
  8
OBJECT
 10
4552.0
 20
-66.999999999999091
 30
0.0
 11
4552.0
 21
-102.9999999999991
 31
0.0
1001
ACDBBLOCKREPETAG
1070
     1
1071
       25
1005
12250F
  0
LINE
  5
124F87
  8
OBJECT
 10
4552.0
 20
-102.9999999999991
 30
0.0
 11
4448.0
 21
-102.9999999999991
 31
0.0
1001
ACDBBLOCKREPETAG
1070
     1
1071
       26
1005
122510
  0
LINE
  5
124F88
  8
OBJECT
 10
4448.0
 20
-102.9999999999991
 30
0.0
 11
4448.0
 21
-66.999999999999091
 31
0.0
1001
ACDBBLOCKREPETAG
1070
     1
1071
       27
1005
122511
  0
LINE
  5
124F89
  8
OBJECT
 10
4547.5
 20
-106.9999999999991
 30
0.0
 11
4547.5
 21
-115.4999999999991
 31
0.0
1001
ACDBBLOCKREPETAG
1070
     1
1071
       28
1005
122512
  0
LINE
  5
124F8A
  8
OBJECT
 10
4452.4999999999991
 20
-115.4999999999991
 30
0.0
 11
4452.4999999999991
 21
-106.9999999999991
 31
0.0
1001
ACDBBLOCKREPETAG
1070
     1
1071
       29
1005
122513
  0
LINE
  5
124F8B
  8
OBJECT
 10
4452.4999999999991
 20
-106.9999999999991
 30
0.0
 11
4547.5
 21
-106.9999999999991
 31
0.0
1001
ACDBBLOCKREPETAG
1070
     1
1071
       30
1005
122514
  0
LINE
  5
124F8C
  8
OBJECT
 10
4552.0
 20
-102.9999999999991
 30
0.0
 11
4547.5
 21
-106.9999999999991
 31
0.0
1001
ACDBBLOCKREPETAG
1070
     1
1071
       31
1005
122515
  0
LINE
  5
124F8D
  8
OBJECT
 10
4448.0
 20
-102.9999999999991
 30
0.0
 11
4452.4999999999991
 21
-106.9999999999991
 31
0.0
1001
ACDBBLOCKREPETAG
1070
     1
1071
       32
1005
122516
  0
LINE
  5
124F8E
  8
OBJECT
 10
4450.5
 20
-115.5000000000009
 30
0.0
 11
4549.5
 21
-115.4999999999991
 31
0.0
1001
ACDBBLOCKREPETAG
1070
     1
1071
       33
1005
122517
  0
LINE
  5
124F8F
  8
HIDDEN
 10
4538.0
 20
-111.9999999999991
 30
0.0
 11
4462.0
 21
-111.9999999999991
 31
0.0
1001
ACDBBLOCKREPETAG
1070
     1
1071
       34
1005
122518
  0
LINE
  5
124F90
  8
OBJECT
 10
4549.5
 20
-115.4999999999991
 30
0.0
 11
4549.5
 21
-137.1529634747977
 31
0.0
1001
ACDBBLOCKREPETAG
1070
     1
1071
       35
1005
122519
  0
LINE
  5
124F91
  8
OBJECT
 10
4450.5
 20
-115.5000000000009
 30
0.0
 11
4450.5
 21
-137.1529634747977
 31
0.0
1001
ACDBBLOCKREPETAG
1070
     1
1071
       36
1005
12251A
  0
CIRCLE
  5
124F99
  8
OBJECT
 10
4500.0
 20
-199.99999999999909
 30
0.0
 40
53.5
1001
ACDBBLOCKREPETAG
1070
     1
1071
      344
1005
122542
  0
POINT
  5
124F9A
  8
DOTS
 10
4500.0
 20
-199.99999999999909
 30
0.0
 50
270.0
1001
ACDBBLOCKREPETAG
1070
     1
1071
      362
1005
122543
  0
LINE
  5
124F9C
  8
CENTER
 10
4580.0
 20
-199.99999999999909
 30
0.0
 11
4400.0
 21
-199.99999999999909
 31
0.0
1001
ACDBBLOCKREPETAG
1070
     1
1071
       14
1005
122545
  0
LINE
  5
124F9D
  8
CENTER
 10
4500.0
 20
-299.99999999999898
 30
0.0
 11
4500.0
 21
-104.9999999999991
 31
0.0
1001
ACDBBLOCKREPETAG
1070
     1
1071
       15
1005
122546
  0
CIRCLE
  5
124F9E
  8
OBJECT
 10
4500.0
 20
-199.99999999999909
 30
0.0
 40
70.0
1001
ACDBBLOCKREPETAG
1070
     1
1071
       16
1005
122547
  0
CIRCLE
  5
124F9F
  8
OBJECT
 10
4500.0
 20
-199.99999999999909
 30
0.0
 40
77.0
1001
ACDBBLOCKREPETAG
1070
     1
1071
       17
1005
122548
  0
ARC
  5
124FA0
  8
OBJECT
 10
4500.0
 20
-199.99999999999909
 30
0.0
 40
80.0
 50
50.805032574025482
 51
309.19496742610818
1001
ACDBBLOCKREPETAG
1070
     1
1071
       18
1005
122549
  0
LINE
  5
124FA1
  8
OBJECT
 10
4545.6618002273244
 20
-137.99999999999909
 30
0.0
 11
4580.0
 21
-137.99999999999909
 31
0.0
1001
ACDBBLOCKREPETAG
1070
     1
1071
       19
1005
12254A
  0
LINE
  5
124FA2
  8
OBJECT
 10
4545.6618002273244
 20
-261.99999999999909
 30
0.0
 11
4580.0
 21
-261.99999999999909
 31
0.0
1001
ACDBBLOCKREPETAG
1070
     1
1071
       20
1005
12254B
  0
ARC
  5
124FA4
  8
OBJECT
 10
4500.0
 20
-199.99999999999909
 30
0.0
 40
85.0
 50
125.6162067285034
 51
313.1628971402971
1001
ACDBBLOCKREPETAG
1070
     1
1071
       18
1005
122549
  0
ARC
  5
124FA5
  8
OBJECT
 10
4500.0
 20
-199.99999999999909
 30
0.0
 40
85.0
 50
46.837102859702817
 51
54.383793271496543
1001
ACDBBLOCKREPETAG
1070
     1
1071
       18
1005
122549
  0
LINE
  5
125A75
  8
SLIM
 10
5454.0
 20
-644.99999999999591
 30
0.0
 11
5454.0
 21
-1364.9999999999959
 31
0.0
  0
LINE
  5
125A76
  8
SLIM
 10
5602.0
 20
-644.99999999999591
 30
0.0
 11
5602.0
 21
-1364.9999999999959
 31
0.0
  0
LINE
  5
125A77
  8
SLIM
 10
5350.0
 20
-1364.9999999999959
 30
0.0
 11
5350.0
 21
-644.99999999999591
 31
0.0
  0
LINE
  5
125A78
  8
SLIM
 10
5602.0
 20
-644.99999999999591
 30
0.0
 11
5350.0
 21
-644.99999999999591
 31
0.0
  0
LINE
  5
125A79
  8
SLIM
 10
5602.0
 20
-692.99999999999568
 30
0.0
 11
5350.0
 21
-692.99999999999568
 31
0.0
  0
LINE
  5
125A7D
  8
SLIM
 10
5602.0
 20
-740.99999999999613
 30
0.0
 11
5350.0
 21
-740.99999999999613
 31
0.0
  0
LINE
  5
125A7E
  8
SLIM
 10
5602.0
 20
-788.99999999999636
 30
0.0
 11
5350.0
 21
-788.99999999999636
 31
0.0
  0
LINE
  5
125A7F
  8
SLIM
 10
5602.0
 20
-836.99999999999613
 30
0.0
 11
5350.0
 21
-836.99999999999613
 31
0.0
  0
LINE
  5
125A85
  8
SLIM
 10
5602.0
 20
-884.99999999999636
 30
0.0
 11
5350.0
 21
-884.99999999999636
 31
0.0
  0
LINE
  5
125A88
  8
SLIM
 10
5602.0
 20
-932.99999999999636
 30
0.0
 11
5350.0
 21
-932.99999999999636
 31
0.0
  0
LINE
  5
125A8B
  8
SLIM
 10
5602.0
 20
-980.99999999999613
 30
0.0
 11
5350.0
 21
-980.99999999999613
 31
0.0
  0
LINE
  5
125A8E
  8
SLIM
 10
5602.0
 20
-1028.9999999999959
 30
0.0
 11
5350.0
 21
-1028.9999999999959
 31
0.0
  0
LINE
  5
125A91
  8
SLIM
 10
5602.0
 20
-1076.9999999999959
 30
0.0
 11
5350.0
 21
-1076.9999999999959
 31
0.0
  0
LINE
  5
125A93
  8
SLIM
 10
5602.0
 20
-1124.9999999999959
 30
0.0
 11
5350.0
 21
-1124.9999999999959
 31
0.0
  0
LINE
  5
125A95
  8
SLIM
 10
5602.0
 20
-1172.9999999999959
 30
0.0
 11
5350.0
 21
-1172.9999999999959
 31
0.0
  0
LINE
  5
125A97
  8
SLIM
 10
5602.0
 20
-1220.9999999999959
 30
0.0
 11
5350.0
 21
-1220.9999999999959
 31
0.0
  0
LINE
  5
125A99
  8
SLIM
 10
5602.0
 20
-1268.9999999999959
 30
0.0
 11
5350.0
 21
-1268.9999999999959
 31
0.0
  0
LINE
  5
125A9B
  8
SLIM
 10
5602.0
 20
-1316.9999999999959
 30
0.0
 11
5350.0
 21
-1316.9999999999959
 31
0.0
  0
LINE
  5
125A9D
  8
SLIM
 10
5602.0
 20
-1364.9999999999959
 30
0.0
 11
5350.0
 21
-1364.9999999999959
 31
0.0
  0
TEXT
  5
125EDA
  8
SLIM
 10
5470.0571428571429
 20
-1352.9999999999959
 30
0.0
 40
24.0
  1
190～240
 41
0.75
  0
TEXT
  5
125EDB
  8
SLIM
 10
5470.0571428571429
 20
-1304.9999999999959
 30
0.0
 40
24.0
  1
190～250
 41
0.75
  0
TEXT
  5
125EDC
  8
SLIM
 10
5470.0571428571429
 20
-1256.9999999999959
 30
0.0
 40
24.0
  1
190～260
 41
0.75
  0
TEXT
  5
125EDD
  8
SLIM
 10
5470.0571428571429
 20
-1208.9999999999959
 30
0.0
 40
24.0
  1
190～270
 41
0.75
  0
TEXT
  5
125EDE
  8
SLIM
 10
5470.0571428571429
 20
-1160.9999999999959
 30
0.0
 40
24.0
  1
190～280
 41
0.75
  0
TEXT
  5
125EDF
  8
SLIM
 10
5470.0571428571429
 20
-1112.9999999999959
 30
0.0
 40
24.0
  1
190～290
 41
0.75
  0
TEXT
  5
125EE0
  8
SLIM
 10
5470.0571428571429
 20
-1064.9999999999959
 30
0.0
 40
24.0
  1
190～300
 41
0.75
  0
TEXT
  5
125EE1
  8
SLIM
 10
5448.4571428571444
 20
-1410.9999999999959
 30
0.0
 40
24.0
  1
標準：m=240
 41
0.75
  0
TEXT
  5
125EE2
  8
SLIM
 10
5378.8571428571431
 20
-1352.9999999999959
 30
0.0
 40
24.0
  1
320
 41
0.75
  0
TEXT
  5
125EE3
  8
SLIM
 10
5380.5714285714284
 20
-1304.9999999999959
 30
0.0
 40
24.0
  1
310
 41
0.75
  0
TEXT
  5
125EE4
  8
SLIM
 10
5378.8571428571431
 20
-1256.9999999999959
 30
0.0
 40
24.0
  1
300
 41
0.75
  0
TEXT
  5
125EE5
  8
SLIM
 10
5378.8571428571431
 20
-1208.9999999999959
 30
0.0
 40
24.0
  1
290
 41
0.75
  0
TEXT
  5
125EE6
  8
SLIM
 10
5378.8571428571431
 20
-1160.9999999999959
 30
0.0
 40
24.0
  1
280
 41
0.75
  0
TEXT
  5
125EE7
  8
SLIM
 10
5378.8571428571431
 20
-1112.9999999999959
 30
0.0
 40
24.0
  1
270
 41
0.75
  0
TEXT
  5
125EE8
  8
SLIM
 10
5378.8571428571431
 20
-1064.9999999999959
 30
0.0
 40
24.0
  1
260
 41
0.75
  0
TEXT
  5
125EE9
  8
SLIM
 10
5378.8571428571431
 20
-1016.999999999996
 30
0.0
 40
24.0
  1
250
 41
0.75
  0
TEXT
  5
125EEA
  8
SLIM
 10
5471.7714285714292
 20
-1016.999999999996
 30
0.0
 40
24.0
  1
190～310
 41
0.75
  0
TEXT
  5
125EEB
  8
SLIM
 10
5378.8571428571431
 20
-968.99999999999625
 30
0.0
 40
24.0
  1
240
 41
0.75
  0
TEXT
  5
125EEC
  8
SLIM
 10
5470.0571428571429
 20
-968.99999999999625
 30
0.0
 40
24.0
  1
190～320
 41
0.75
  0
TEXT
  5
125EED
  8
SLIM
 10
5378.8571428571431
 20
-920.99999999999613
 30
0.0
 40
24.0
  1
230
 41
0.75
  0
TEXT
  5
125EEE
  8
SLIM
 10
5468.3428571428567
 20
-920.99999999999613
 30
0.0
 40
24.0
  1
200～330
 41
0.75
  0
TEXT
  5
125EEF
  8
SLIM
 10
5378.8571428571431
 20
-872.99999999999613
 30
0.0
 40
24.0
  1
220
 41
0.75
  0
TEXT
  5
125EF0
  8
SLIM
 10
5470.0571428571429
 20
-872.99999999999613
 30
0.0
 40
24.0
  1
210～340
 41
0.75
  0
TEXT
  5
125EF1
  8
SLIM
 10
5380.5714285714284
 20
-824.99999999999636
 30
0.0
 40
24.0
  1
210
 41
0.75
  0
TEXT
  5
125EF2
  8
SLIM
 10
5468.3428571428567
 20
-824.99999999999636
 30
0.0
 40
24.0
  1
220～350
 41
0.75
  0
TEXT
  5
125EF3
  8
SLIM
 10
5378.8571428571431
 20
-776.99999999999636
 30
0.0
 40
24.0
  1
200
 41
0.75
  0
TEXT
  5
125EF4
  8
SLIM
 10
5468.3428571428567
 20
-776.99999999999636
 30
0.0
 40
24.0
  1
230～360
 41
0.75
  0
TEXT
  5
125EF5
  8
SLIM
 10
5373.8000000000002
 20
-680.99999999999591
 30
0.0
 40
24.0
  1
P寸法
 41
0.75
  0
TEXT
  5
125EF6
  8
SLIM
 10
5380.5714285714284
 20
-728.99999999999591
 30
0.0
 40
24.0
  1
190
 41
0.75
  0
TEXT
  5
125EF7
  8
SLIM
 10
5468.3428571428567
 20
-728.99999999999591
 30
0.0
 40
24.0
  1
240～370
 41
0.75
  0
TEXT
  5
125EF8
  8
SLIM
 10
5474.3428571428567
 20
-680.99999999999591
 30
0.0
 40
24.0
  1
対応m寸法
 41
0.75
  0
TEXT
  5
125EF9
  8
SLIM
 10
4026.5999999999999
 20
-1698.000026666665
 30
0.0
 40
28.0
  1
※ 対応P寸法　　190＜200＞～320（10mm単位。＜＞内は下枝75の場合）
 41
0.75
  0
TEXT
  5
125EFA
  8
SLIM
 10
4026.5999999999999
 20
-1744.6666933333311
 30
0.0
 40
28.0
  1
※ 対応スラブ厚　180～（m-10）
 41
0.75
  0
TEXT
  5
125EFB
  8
SLIM
 10
4026.5999999999999
 20
-1791.333359999998
 30
0.0
 40
28.0
  1
※ 足切り可能寸法（最大）　560-P-m（コンパクトＬベンド使用なら+10）
 41
0.75
  0
TEXT
  5
125EFC
  8
SLIM
 10
4098.8999999999987
 20
-1863.3333066666651
 30
0.0
 40
28.0
  1
国土交通大臣認定・（一財）日本消防設備安全センター性能評定取得品
 41
0.75
  0
TEXT
  5
125EFD
  8
SLIM
 10
4131.1000000000004
 20
-1909.999973333332
 30
0.0
 40
28.0
  1
注）ご採用にあたり、認定書及び評定書の内容をご確認ください。
 41
0.75
  0
LINE
  5
125EFE
  8
SLIM
 10
4914.9999999999927
 20
-1032.2369265471759
 30
0.0
 11
4931.2369265471698
 21
-1016.0
 31
0.0
1001
GRADIENTCOLOR1ACI
1070
     5
1001
GRADIENTCOLOR2ACI
1070
     2
1001
ACAD
1010
0.0
1020
0.0
1030
0.0
  0
LINE
  5
125EFF
  8
SLIM
 10
4914.9999999999955
 20
-1050.197438789314
 30
0.0
 11
4949.1974387893079
 21
-1016.0
 31
0.0
1001
GRADIENTCOLOR1ACI
1070
     5
1001
GRADIENTCOLOR2ACI
1070
     2
1001
ACAD
1010
0.0
1020
0.0
1030
0.0
  0
LINE
  5
125F00
  8
SLIM
 10
4914.9999999999955
 20
-1068.15795103145
 30
0.0
 11
4967.1579510314468
 21
-1016.0
 31
0.0
1001
GRADIENTCOLOR1ACI
1070
     5
1001
GRADIENTCOLOR2ACI
1070
     2
1001
ACAD
1010
0.0
1020
0.0
1030
0.0
  0
LINE
  5
125F01
  8
SLIM
 10
4915.1454972543143
 20
-1085.9729660192691
 30
0.0
 11
4985.1184632735849
 21
-1016.0
 31
0.0
1001
GRADIENTCOLOR1ACI
1070
     5
1001
GRADIENTCOLOR2ACI
1070
     2
1001
ACAD
1010
0.0
1020
0.0
1030
0.0
  0
LINE
  5
125F02
  8
SLIM
 10
4917.104627495245
 20
-1101.9743480204791
 30
0.0
 11
5003.078975515723
 21
-1016.0
 31
0.0
1001
GRADIENTCOLOR1ACI
1070
     5
1001
GRADIENTCOLOR2ACI
1070
     2
1001
ACAD
1010
0.0
1020
0.0
1030
0.0
  0
LINE
  5
125F03
  8
SLIM
 10
4919.0637577361713
 20
-1117.9757300216891
 30
0.0
 11
5021.0394877578619
 21
-1016.0
 31
0.0
1001
GRADIENTCOLOR1ACI
1070
     5
1001
GRADIENTCOLOR2ACI
1070
     2
1001
ACAD
1010
0.0
1020
0.0
1030
0.0
  0
LINE
  5
125F04
  8
SLIM
 10
4920.0
 20
-1135.0
 30
0.0
 11
5039.0
 21
-1016.0
 31
0.0
1001
GRADIENTCOLOR1ACI
1070
     5
1001
GRADIENTCOLOR2ACI
1070
     2
1001
ACAD
1010
0.0
1020
0.0
1030
0.0
  0
LINE
  5
125F05
  8
SLIM
 10
4920.0
 20
-1152.9605122421381
 30
0.0
 11
5056.9605122421381
 21
-1016.0
 31
0.0
1001
GRADIENTCOLOR1ACI
1070
     5
1001
GRADIENTCOLOR2ACI
1070
     2
1001
ACAD
1010
0.0
1020
0.0
1030
0.0
  0
LINE
  5
125F06
  8
SLIM
 10
4920.0
 20
-1170.9210244842759
 30
0.0
 11
5074.921024484277
 21
-1016.0
 31
0.0
1001
GRADIENTCOLOR1ACI
1070
     5
1001
GRADIENTCOLOR2ACI
1070
     2
1001
ACAD
1010
0.0
1020
0.0
1030
0.0
  0
LINE
  5
125F07
  8
SLIM
 10
4920.0
 20
-1188.8815367264151
 30
0.0
 11
5085.0000000000073
 21
-1023.8815367264079
 31
0.0
1001
GRADIENTCOLOR1ACI
1070
     5
1001
GRADIENTCOLOR2ACI
1070
     2
1001
ACAD
1010
0.0
1020
0.0
1030
0.0
  0
LINE
  5
125F08
  8
SLIM
 10
4920.0
 20
-1206.842048968552
 30
0.0
 11
5085.0000000000073
 21
-1041.842048968547
 31
0.0
1001
GRADIENTCOLOR1ACI
1070
     5
1001
GRADIENTCOLOR2ACI
1070
     2
1001
ACAD
1010
0.0
1020
0.0
1030
0.0
  0
LINE
  5
125F09
  8
SLIM
 10
4920.0
 20
-1224.802561210691
 30
0.0
 11
5085.0000000000036
 21
-1059.802561210686
 31
0.0
1001
GRADIENTCOLOR1ACI
1070
     5
1001
GRADIENTCOLOR2ACI
1070
     2
1001
ACAD
1010
0.0
1020
0.0
1030
0.0
  0
LINE
  5
125F0A
  8
SLIM
 10
4920.0
 20
-1242.76307345283
 30
0.0
 11
5085.0000000000036
 21
-1077.7630734528259
 31
0.0
1001
GRADIENTCOLOR1ACI
1070
     5
1001
GRADIENTCOLOR2ACI
1070
     2
1001
ACAD
1010
0.0
1020
0.0
1030
0.0
  0
LINE
  5
125F0B
  8
SLIM
 10
4924.7235856949701
 20
-1256.0
 30
0.0
 11
5083.4738280308084
 21
-1097.249757664159
 31
0.0
1001
GRADIENTCOLOR1ACI
1070
     5
1001
GRADIENTCOLOR2ACI
1070
     2
1001
ACAD
1010
0.0
1020
0.0
1030
0.0
  0
LINE
  5
125F0C
  8
SLIM
 10
4930.0
 20
-1268.6840979371059
 30
0.0
 11
4942.6840979371073
 21
-1256.0
 31
0.0
1001
GRADIENTCOLOR1ACI
1070
     5
1001
GRADIENTCOLOR2ACI
1070
     2
1001
ACAD
1010
0.0
1020
0.0
1030
0.0
  0
LINE
  5
125F0D
  8
SLIM
 10
4942.6840979371073
 20
-1256.0
 30
0.0
 11
5080.9680345671377
 21
-1117.7160633699691
 31
0.0
1001
GRADIENTCOLOR1ACI
1070
     5
1001
GRADIENTCOLOR2ACI
1070
     2
1001
ACAD
1010
0.0
1020
0.0
1030
0.0
  0
LINE
  5
125F0E
  8
SLIM
 10
4941.6446101792453
 20
-1275.0
 30
0.0
 11
4960.6446101792462
 21
-1256.0
 31
0.0
1001
GRADIENTCOLOR1ACI
1070
     5
1001
GRADIENTCOLOR2ACI
1070
     2
1001
ACAD
1010
0.0
1020
0.0
1030
0.0
  0
LINE
  5
125F0F
  8
SLIM
 10
4960.6446101792462
 20
-1256.0
 30
0.0
 11
5080.0
 21
-1136.6446101792451
 31
0.0
1001
GRADIENTCOLOR1ACI
1070
     5
1001
GRADIENTCOLOR2ACI
1070
     2
1001
ACAD
1010
0.0
1020
0.0
1030
0.0
  0
LINE
  5
125F10
  8
SLIM
 10
4959.6051224213843
 20
-1275.0
 30
0.0
 11
4978.6051224213843
 21
-1256.0
 31
0.0
1001
GRADIENTCOLOR1ACI
1070
     5
1001
GRADIENTCOLOR2ACI
1070
     2
1001
ACAD
1010
0.0
1020
0.0
1030
0.0
  0
LINE
  5
125F11
  8
SLIM
 10
4978.6051224213843
 20
-1256.0
 30
0.0
 11
5080.0
 21
-1154.605122421382
 31
0.0
1001
GRADIENTCOLOR1ACI
1070
     5
1001
GRADIENTCOLOR2ACI
1070
     2
1001
ACAD
1010
0.0
1020
0.0
1030
0.0
  0
LINE
  5
125F12
  8
SLIM
 10
4977.5656346635215
 20
-1275.0
 30
0.0
 11
4996.5656346635224
 21
-1256.0
 31
0.0
1001
GRADIENTCOLOR1ACI
1070
     5
1001
GRADIENTCOLOR2ACI
1070
     2
1001
ACAD
1010
0.0
1020
0.0
1030
0.0
  0
LINE
  5
125F13
  8
SLIM
 10
4996.5656346635224
 20
-1256.0
 30
0.0
 11
5079.9999999999991
 21
-1172.5656346635219
 31
0.0
1001
GRADIENTCOLOR1ACI
1070
     5
1001
GRADIENTCOLOR2ACI
1070
     2
1001
ACAD
1010
0.0
1020
0.0
1030
0.0
  0
LINE
  5
125F14
  8
SLIM
 10
4995.5261469056577
 20
-1275.0
 30
0.0
 11
5014.5261469056613
 21
-1256.0
 31
0.0
1001
GRADIENTCOLOR1ACI
1070
     5
1001
GRADIENTCOLOR2ACI
1070
     2
1001
ACAD
1010
0.0
1020
0.0
1030
0.0
  0
LINE
  5
125F15
  8
SLIM
 10
5014.5261469056613
 20
-1256.0
 30
0.0
 11
5079.9999999999991
 21
-1190.52614690566
 31
0.0
1001
GRADIENTCOLOR1ACI
1070
     5
1001
GRADIENTCOLOR2ACI
1070
     2
1001
ACAD
1010
0.0
1020
0.0
1030
0.0
  0
LINE
  5
125F16
  8
SLIM
 10
5013.4866591477976
 20
-1275.0
 30
0.0
 11
5032.4866591478003
 21
-1256.0
 31
0.0
1001
GRADIENTCOLOR1ACI
1070
     5
1001
GRADIENTCOLOR2ACI
1070
     2
1001
ACAD
1010
0.0
1020
0.0
1030
0.0
  0
LINE
  5
125F17
  8
SLIM
 10
5032.4866591478003
 20
-1256.0
 30
0.0
 11
5079.9999999999991
 21
-1208.4866591477989
 31
0.0
1001
GRADIENTCOLOR1ACI
1070
     5
1001
GRADIENTCOLOR2ACI
1070
     2
1001
ACAD
1010
0.0
1020
0.0
1030
0.0
  0
LINE
  5
125F18
  8
SLIM
 10
5031.4471713899356
 20
-1275.0
 30
0.0
 11
5050.4471713899366
 21
-1256.0
 31
0.0
1001
GRADIENTCOLOR1ACI
1070
     5
1001
GRADIENTCOLOR2ACI
1070
     2
1001
ACAD
1010
0.0
1020
0.0
1030
0.0
  0
LINE
  5
125F19
  8
SLIM
 10
5050.4471713899366
 20
-1256.0
 30
0.0
 11
5079.9999999999982
 21
-1226.4471713899379
 31
0.0
1001
GRADIENTCOLOR1ACI
1070
     5
1001
GRADIENTCOLOR2ACI
1070
     2
1001
ACAD
1010
0.0
1020
0.0
1030
0.0
  0
LINE
  5
125F1A
  8
SLIM
 10
5049.4076836320737
 20
-1275.0
 30
0.0
 11
5068.4076836320737
 21
-1256.0
 31
0.0
1001
GRADIENTCOLOR1ACI
1070
     5
1001
GRADIENTCOLOR2ACI
1070
     2
1001
ACAD
1010
0.0
1020
0.0
1030
0.0
  0
LINE
  5
125F1B
  8
SLIM
 10
5068.4076836320737
 20
-1256.0
 30
0.0
 11
5079.9999999999982
 21
-1244.407683632076
 31
0.0
1001
GRADIENTCOLOR1ACI
1070
     5
1001
GRADIENTCOLOR2ACI
1070
     2
1001
ACAD
1010
0.0
1020
0.0
1030
0.0
  0
LINE
  5
125F1C
  8
SLIM
 10
5067.3681958742118
 20
-1275.0
 30
0.0
 11
5070.0
 21
-1272.3681958742129
 31
0.0
1001
GRADIENTCOLOR1ACI
1070
     5
1001
GRADIENTCOLOR2ACI
1070
     2
1001
ACAD
1010
0.0
1020
0.0
1030
0.0
  0
LINE
  5
125F1D
  8
OBJECT
 10
4914.9999999999918
 20
-1016.0
 30
0.0
 11
4914.9999999999982
 21
-1084.784603399034
 31
0.0
1001
ACDBBLOCKREPETAG
1070
     1
1071
        1
1005
125F1D
  0
LINE
  5
125F1E
  8
OBJECT
 10
5085.0000000000073
 20
-1016.0
 30
0.0
 11
5085.0000000000036
 21
-1084.784603399042
 31
0.0
1001
ACDBBLOCKREPETAG
1070
     1
1071
        2
1005
125F1E
  0
LINE
  5
125F1F
  8
OBJECT
 10
5085.0000000000073
 20
-1016.0
 30
0.0
 11
4914.9999999999918
 21
-1016.0
 31
0.0
1001
ACDBBLOCKREPETAG
1070
     1
1071
        3
1005
125F1F
  0
LINE
  5
125F20
  8
OBJECT
 10
5079.9999999999982
 20
-1256.0
 30
0.0
 11
4920.0
 21
-1256.0
 31
0.0
1001
ACDBBLOCKREPETAG
1070
     1
1071
        4
1005
125F20
  0
LINE
  5
125F21
  8
OBJECT
 10
4914.9999999999982
 20
-1084.784603399034
 30
0.0
 11
4920.0
 21
-1125.622577482987
 31
0.0
1001
ACDBBLOCKREPETAG
1070
     1
1071
        6
1005
125F21
  0
LINE
  5
125F22
  8
OBJECT
 10
4920.0
 20
-1125.622577482987
 30
0.0
 11
4920.0
 21
-1256.0
 31
0.0
1001
ACDBBLOCKREPETAG
1070
     1
1071
        7
1005
125F22
  0
LINE
  5
125F23
  8
OBJECT
 10
5085.0000000000036
 20
-1084.784603399042
 30
0.0
 11
5080.0
 21
-1125.622577482987
 31
0.0
1001
ACDBBLOCKREPETAG
1070
     1
1071
        8
1005
125F23
  0
LINE
  5
125F24
  8
OBJECT
 10
5080.0
 20
-1125.622577482987
 30
0.0
 11
5079.9999999999982
 21
-1256.0
 31
0.0
1001
ACDBBLOCKREPETAG
1070
     1
1071
        9
1005
125F24
  0
LINE
  5
125F25
  8
OBJECT
 10
4930.0
 20
-1256.0
 30
0.0
 11
4930.0
 21
-1275.0
 31
0.0
1001
ACDBBLOCKREPETAG
1070
     1
1071
       10
1005
125F25
  0
LINE
  5
125F26
  8
OBJECT
 10
4930.0
 20
-1275.0
 30
0.0
 11
5070.0
 21
-1275.0
 31
0.0
1001
ACDBBLOCKREPETAG
1070
     1
1071
       11
1005
125F26
  0
LINE
  5
125F27
  8
OBJECT
 10
5070.0
 20
-1275.0
 30
0.0
 11
5070.0
 21
-1256.0
 31
0.0
1001
ACDBBLOCKREPETAG
1070
     1
1071
       12
1005
125F27
  0
LINE
  5
125F28
  8
SLIM
 10
4414.9999999999927
 20
-1032.2369265471759
 30
0.0
 11
4431.2369265471698
 21
-1016.0
 31
0.0
1001
GRADIENTCOLOR1ACI
1070
     5
1001
GRADIENTCOLOR2ACI
1070
     2
1001
ACAD
1010
0.0
1020
0.0
1030
0.0
  0
LINE
  5
125F29
  8
SLIM
 10
4414.9999999999927
 20
-1050.197438789314
 30
0.0
 11
4449.1974387893069
 21
-1016.0
 31
0.0
1001
GRADIENTCOLOR1ACI
1070
     5
1001
GRADIENTCOLOR2ACI
1070
     2
1001
ACAD
1010
0.0
1020
0.0
1030
0.0
  0
LINE
  5
125F2A
  8
SLIM
 10
4414.9999999999955
 20
-1068.15795103145
 30
0.0
 11
4467.1579510314441
 21
-1016.0
 31
0.0
1001
GRADIENTCOLOR1ACI
1070
     5
1001
GRADIENTCOLOR2ACI
1070
     2
1001
ACAD
1010
0.0
1020
0.0
1030
0.0
  0
LINE
  5
125F2B
  8
SLIM
 10
4415.1454972543143
 20
-1085.9729660192691
 30
0.0
 11
4485.1184632735849
 21
-1016.0
 31
0.0
1001
GRADIENTCOLOR1ACI
1070
     5
1001
GRADIENTCOLOR2ACI
1070
     2
1001
ACAD
1010
0.0
1020
0.0
1030
0.0
  0
LINE
  5
125F2C
  8
SLIM
 10
4417.1046274952441
 20
-1101.9743480204791
 30
0.0
 11
4503.078975515722
 21
-1016.0
 31
0.0
1001
GRADIENTCOLOR1ACI
1070
     5
1001
GRADIENTCOLOR2ACI
1070
     2
1001
ACAD
1010
0.0
1020
0.0
1030
0.0
  0
LINE
  5
125F2D
  8
SLIM
 10
4419.0637577361713
 20
-1117.9757300216891
 30
0.0
 11
4521.0394877578619
 21
-1016.0
 31
0.0
1001
GRADIENTCOLOR1ACI
1070
     5
1001
GRADIENTCOLOR2ACI
1070
     2
1001
ACAD
1010
0.0
1020
0.0
1030
0.0
  0
LINE
  5
125F2E
  8
SLIM
 10
4420.0
 20
-1135.0
 30
0.0
 11
4539.0
 21
-1016.0
 31
0.0
1001
GRADIENTCOLOR1ACI
1070
     5
1001
GRADIENTCOLOR2ACI
1070
     2
1001
ACAD
1010
0.0
1020
0.0
1030
0.0
  0
LINE
  5
125F2F
  8
SLIM
 10
4420.0
 20
-1152.9605122421381
 30
0.0
 11
4556.9605122421372
 21
-1016.0
 31
0.0
1001
GRADIENTCOLOR1ACI
1070
     5
1001
GRADIENTCOLOR2ACI
1070
     2
1001
ACAD
1010
0.0
1020
0.0
1030
0.0
  0
LINE
  5
125F30
  8
SLIM
 10
4420.0
 20
-1170.9210244842759
 30
0.0
 11
4574.921024484277
 21
-1016.0
 31
0.0
1001
GRADIENTCOLOR1ACI
1070
     5
1001
GRADIENTCOLOR2ACI
1070
     2
1001
ACAD
1010
0.0
1020
0.0
1030
0.0
  0
LINE
  5
125F31
  8
SLIM
 10
4420.0
 20
-1188.8815367264151
 30
0.0
 11
4585.0000000000073
 21
-1023.8815367264079
 31
0.0
1001
GRADIENTCOLOR1ACI
1070
     5
1001
GRADIENTCOLOR2ACI
1070
     2
1001
ACAD
1010
0.0
1020
0.0
1030
0.0
  0
LINE
  5
125F32
  8
SLIM
 10
4420.0
 20
-1206.842048968552
 30
0.0
 11
4585.0000000000073
 21
-1041.842048968547
 31
0.0
1001
GRADIENTCOLOR1ACI
1070
     5
1001
GRADIENTCOLOR2ACI
1070
     2
1001
ACAD
1010
0.0
1020
0.0
1030
0.0
  0
LINE
  5
125F33
  8
SLIM
 10
4420.0
 20
-1224.802561210691
 30
0.0
 11
4585.0000000000036
 21
-1059.802561210686
 31
0.0
1001
GRADIENTCOLOR1ACI
1070
     5
1001
GRADIENTCOLOR2ACI
1070
     2
1001
ACAD
1010
0.0
1020
0.0
1030
0.0
  0
LINE
  5
125F34
  8
SLIM
 10
4420.0
 20
-1242.76307345283
 30
0.0
 11
4585.0000000000009
 21
-1077.7630734528259
 31
0.0
1001
GRADIENTCOLOR1ACI
1070
     5
1001
GRADIENTCOLOR2ACI
1070
     2
1001
ACAD
1010
0.0
1020
0.0
1030
0.0
  0
LINE
  5
125F35
  8
SLIM
 10
4424.7235856949692
 20
-1256.0
 30
0.0
 11
4583.4738280308084
 21
-1097.249757664159
 31
0.0
1001
GRADIENTCOLOR1ACI
1070
     5
1001
GRADIENTCOLOR2ACI
1070
     2
1001
ACAD
1010
0.0
1020
0.0
1030
0.0
  0
LINE
  5
125F36
  8
SLIM
 10
4430.0
 20
-1268.6840979371059
 30
0.0
 11
4442.6840979371063
 21
-1256.0
 31
0.0
1001
GRADIENTCOLOR1ACI
1070
     5
1001
GRADIENTCOLOR2ACI
1070
     2
1001
ACAD
1010
0.0
1020
0.0
1030
0.0
  0
LINE
  5
125F37
  8
SLIM
 10
4442.6840979371063
 20
-1256.0
 30
0.0
 11
4580.9680345671368
 21
-1117.7160633699691
 31
0.0
1001
GRADIENTCOLOR1ACI
1070
     5
1001
GRADIENTCOLOR2ACI
1070
     2
1001
ACAD
1010
0.0
1020
0.0
1030
0.0
  0
LINE
  5
125F38
  8
SLIM
 10
4441.6446101792453
 20
-1275.0
 30
0.0
 11
4460.6446101792462
 21
-1256.0
 31
0.0
1001
GRADIENTCOLOR1ACI
1070
     5
1001
GRADIENTCOLOR2ACI
1070
     2
1001
ACAD
1010
0.0
1020
0.0
1030
0.0
  0
LINE
  5
125F39
  8
SLIM
 10
4460.6446101792462
 20
-1256.0
 30
0.0
 11
4580.0
 21
-1136.6446101792451
 31
0.0
1001
GRADIENTCOLOR1ACI
1070
     5
1001
GRADIENTCOLOR2ACI
1070
     2
1001
ACAD
1010
0.0
1020
0.0
1030
0.0
  0
LINE
  5
125F3A
  8
SLIM
 10
4459.6051224213843
 20
-1275.0
 30
0.0
 11
4478.6051224213843
 21
-1256.0
 31
0.0
1001
GRADIENTCOLOR1ACI
1070
     5
1001
GRADIENTCOLOR2ACI
1070
     2
1001
ACAD
1010
0.0
1020
0.0
1030
0.0
  0
LINE
  5
125F3B
  8
SLIM
 10
4478.6051224213843
 20
-1256.0
 30
0.0
 11
4580.0
 21
-1154.605122421382
 31
0.0
1001
GRADIENTCOLOR1ACI
1070
     5
1001
GRADIENTCOLOR2ACI
1070
     2
1001
ACAD
1010
0.0
1020
0.0
1030
0.0
  0
LINE
  5
125F3C
  8
SLIM
 10
4477.5656346635215
 20
-1275.0
 30
0.0
 11
4496.5656346635215
 21
-1256.0
 31
0.0
1001
GRADIENTCOLOR1ACI
1070
     5
1001
GRADIENTCOLOR2ACI
1070
     2
1001
ACAD
1010
0.0
1020
0.0
1030
0.0
  0
LINE
  5
125F3D
  8
SLIM
 10
4496.5656346635215
 20
-1256.0
 30
0.0
 11
4579.9999999999991
 21
-1172.5656346635219
 31
0.0
1001
GRADIENTCOLOR1ACI
1070
     5
1001
GRADIENTCOLOR2ACI
1070
     2
1001
ACAD
1010
0.0
1020
0.0
1030
0.0
  0
LINE
  5
125F3E
  8
SLIM
 10
4495.5261469056586
 20
-1275.0
 30
0.0
 11
4514.5261469056613
 21
-1256.0
 31
0.0
1001
GRADIENTCOLOR1ACI
1070
     5
1001
GRADIENTCOLOR2ACI
1070
     2
1001
ACAD
1010
0.0
1020
0.0
1030
0.0
  0
LINE
  5
125F3F
  8
SLIM
 10
4514.5261469056613
 20
-1256.0
 30
0.0
 11
4579.9999999999991
 21
-1190.52614690566
 31
0.0
1001
GRADIENTCOLOR1ACI
1070
     5
1001
GRADIENTCOLOR2ACI
1070
     2
1001
ACAD
1010
0.0
1020
0.0
1030
0.0
  0
LINE
  5
125F40
  8
SLIM
 10
4513.4866591477976
 20
-1275.0
 30
0.0
 11
4532.4866591478003
 21
-1256.0
 31
0.0
1001
GRADIENTCOLOR1ACI
1070
     5
1001
GRADIENTCOLOR2ACI
1070
     2
1001
ACAD
1010
0.0
1020
0.0
1030
0.0
  0
LINE
  5
125F41
  8
SLIM
 10
4532.4866591478003
 20
-1256.0
 30
0.0
 11
4579.9999999999991
 21
-1208.4866591477989
 31
0.0
1001
GRADIENTCOLOR1ACI
1070
     5
1001
GRADIENTCOLOR2ACI
1070
     2
1001
ACAD
1010
0.0
1020
0.0
1030
0.0
  0
LINE
  5
125F42
  8
SLIM
 10
4531.4471713899356
 20
-1275.0
 30
0.0
 11
4550.4471713899356
 21
-1256.0
 31
0.0
1001
GRADIENTCOLOR1ACI
1070
     5
1001
GRADIENTCOLOR2ACI
1070
     2
1001
ACAD
1010
0.0
1020
0.0
1030
0.0
  0
LINE
  5
125F43
  8
SLIM
 10
4550.4471713899356
 20
-1256.0
 30
0.0
 11
4579.9999999999982
 21
-1226.4471713899379
 31
0.0
1001
GRADIENTCOLOR1ACI
1070
     5
1001
GRADIENTCOLOR2ACI
1070
     2
1001
ACAD
1010
0.0
1020
0.0
1030
0.0
  0
LINE
  5
125F44
  8
SLIM
 10
4549.4076836320737
 20
-1275.0
 30
0.0
 11
4568.4076836320728
 21
-1256.0
 31
0.0
1001
GRADIENTCOLOR1ACI
1070
     5
1001
GRADIENTCOLOR2ACI
1070
     2
1001
ACAD
1010
0.0
1020
0.0
1030
0.0
  0
LINE
  5
125F45
  8
SLIM
 10
4568.4076836320728
 20
-1256.0
 30
0.0
 11
4579.9999999999982
 21
-1244.407683632076
 31
0.0
1001
GRADIENTCOLOR1ACI
1070
     5
1001
GRADIENTCOLOR2ACI
1070
     2
1001
ACAD
1010
0.0
1020
0.0
1030
0.0
  0
LINE
  5
125F46
  8
SLIM
 10
4567.3681958742118
 20
-1275.0
 30
0.0
 11
4570.0
 21
-1272.3681958742129
 31
0.0
1001
GRADIENTCOLOR1ACI
1070
     5
1001
GRADIENTCOLOR2ACI
1070
     2
1001
ACAD
1010
0.0
1020
0.0
1030
0.0
  0
LINE
  5
125F47
  8
OBJECT
 10
4414.9999999999918
 20
-1016.0
 30
0.0
 11
4414.9999999999973
 21
-1084.784603399034
 31
0.0
1001
ACDBBLOCKREPETAG
1070
     1
1071
        1
1005
125F47
  0
LINE
  5
125F48
  8
OBJECT
 10
4585.0000000000073
 20
-1016.0
 30
0.0
 11
4585.0000000000009
 21
-1084.784603399042
 31
0.0
1001
ACDBBLOCKREPETAG
1070
     1
1071
        2
1005
125F48
  0
LINE
  5
125F49
  8
OBJECT
 10
4585.0000000000073
 20
-1016.0
 30
0.0
 11
4414.9999999999918
 21
-1016.0
 31
0.0
1001
ACDBBLOCKREPETAG
1070
     1
1071
        3
1005
125F49
  0
LINE
  5
125F4A
  8
OBJECT
 10
4579.9999999999982
 20
-1256.0
 30
0.0
 11
4420.0
 21
-1256.0
 31
0.0
1001
ACDBBLOCKREPETAG
1070
     1
1071
        4
1005
125F4A
  0
LINE
  5
125F4B
  8
OBJECT
 10
4414.9999999999973
 20
-1084.784603399034
 30
0.0
 11
4420.0
 21
-1125.622577482987
 31
0.0
1001
ACDBBLOCKREPETAG
1070
     1
1071
        6
1005
125F4B
  0
LINE
  5
125F4C
  8
OBJECT
 10
4420.0
 20
-1125.622577482987
 30
0.0
 11
4420.0
 21
-1256.0
 31
0.0
1001
ACDBBLOCKREPETAG
1070
     1
1071
        7
1005
125F4C
  0
LINE
  5
125F4D
  8
OBJECT
 10
4585.0000000000009
 20
-1084.784603399042
 30
0.0
 11
4580.0
 21
-1125.622577482987
 31
0.0
1001
ACDBBLOCKREPETAG
1070
     1
1071
        8
1005
125F4D
  0
LINE
  5
125F4E
  8
OBJECT
 10
4580.0
 20
-1125.622577482987
 30
0.0
 11
4579.9999999999982
 21
-1256.0
 31
0.0
1001
ACDBBLOCKREPETAG
1070
     1
1071
        9
1005
125F4E
  0
LINE
  5
125F4F
  8
OBJECT
 10
4430.0
 20
-1256.0
 30
0.0
 11
4430.0
 21
-1275.0
 31
0.0
1001
ACDBBLOCKREPETAG
1070
     1
1071
       10
1005
125F4F
  0
LINE
  5
125F50
  8
OBJECT
 10
4430.0
 20
-1275.0
 30
0.0
 11
4570.0
 21
-1275.0
 31
0.0
1001
ACDBBLOCKREPETAG
1070
     1
1071
       11
1005
125F50
  0
LINE
  5
125F51
  8
OBJECT
 10
4570.0
 20
-1275.0
 30
0.0
 11
4570.0
 21
-1256.0
 31
0.0
1001
ACDBBLOCKREPETAG
1070
     1
1071
       12
1005
125F51
  0
LINE
  5
125F52
  8
OBJECT
 10
4930.0
 20
-1364.999999999998
 30
0.0
 11
5070.0
 21
-1364.999999999998
 31
0.0
1001
ACDBBLOCKREPETAG
1070
     1
1071
        0
1005
125F52
  0
LINE
  5
125F53
  8
OBJECT
 10
4930.0
 20
-1364.999999999998
 30
0.0
 11
4930.0
 21
-1124.999999999998
 31
0.0
1001
ACDBBLOCKREPETAG
1070
     1
1071
        1
1005
125F53
  0
LINE
  5
125F54
  8
OBJECT
 10
5070.0
 20
-1364.999999999998
 30
0.0
 11
5070.0
 21
-1124.999999999998
 31
0.0
1001
ACDBBLOCKREPETAG
1070
     1
1071
        2
1005
125F54
  0
LINE
  5
125F55
  8
OBJECT
 10
4930.0
 20
-1124.999999999998
 30
0.0
 11
5070.0
 21
-1124.999999999998
 31
0.0
1001
ACDBBLOCKREPETAG
1070
     1
1071
        3
1005
125F55
  0
LINE
  5
125F56
  8
HIDDEN
 10
4937.5
 20
-1124.999999999998
 30
0.0
 11
4937.5
 21
-1364.999999999998
 31
0.0
1001
ACDBBLOCKREPETAG
1070
     1
1071
        4
1005
125F56
  0
LINE
  5
125F57
  8
HIDDEN
 10
5062.5
 20
-1124.999999999998
 30
0.0
 11
5062.5
 21
-1364.999999999998
 31
0.0
1001
ACDBBLOCKREPETAG
1070
     1
1071
        5
1005
125F57
  0
LINE
  5
125F58
  8
CENTER
 10
5000.0
 20
-1055.0
 30
0.0
 11
5000.0
 21
-1379.999999999998
 31
0.0
1001
ACDBBLOCKREPETAG
1070
     1
1071
        6
1005
125F58
  0
LINE
  5
125F59
  8
OBJECT
 10
4925.0
 20
-1055.0
 30
0.0
 11
4925.0
 21
-1084.999999999998
 31
0.0
1001
ACDBBLOCKREPETAG
1070
     1
1071
        7
1005
125F59
  0
LINE
  5
125F5A
  8
OBJECT
 10
5075.0000000000018
 20
-1055.0
 30
0.0
 11
5075.0
 21
-1084.999999999998
 31
0.0
1001
ACDBBLOCKREPETAG
1070
     1
1071
        8
1005
125F5A
  0
LINE
  5
125F5B
  8
OBJECT
 10
4925.0
 20
-1084.999999999998
 30
0.0
 11
5075.0
 21
-1084.999999999998
 31
0.0
1001
ACDBBLOCKREPETAG
1070
     1
1071
        9
1005
125F5B
  0
LINE
  5
125F5C
  8
OBJECT
 10
4925.0
 20
-1084.999999999998
 30
0.0
 11
4930.0
 21
-1124.999999999998
 31
0.0
1001
ACDBBLOCKREPETAG
1070
     1
1071
       10
1005
125F5C
  0
LINE
  5
125F5D
  8
OBJECT
 10
5070.0
 20
-1124.999999999998
 30
0.0
 11
5075.0
 21
-1084.999999999998
 31
0.0
1001
ACDBBLOCKREPETAG
1070
     1
1071
       11
1005
125F5D
  0
LINE
  5
125F5E
  8
OBJECT
 10
4430.0
 20
-1364.999999999998
 30
0.0
 11
4570.0
 21
-1364.999999999998
 31
0.0
1001
ACDBBLOCKREPETAG
1070
     1
1071
        0
1005
125F5E
  0
LINE
  5
125F5F
  8
OBJECT
 10
4430.0
 20
-1364.999999999998
 30
0.0
 11
4430.0
 21
-1124.999999999998
 31
0.0
1001
ACDBBLOCKREPETAG
1070
     1
1071
        1
1005
125F5F
  0
LINE
  5
125F60
  8
OBJECT
 10
4570.0
 20
-1364.999999999998
 30
0.0
 11
4570.0
 21
-1124.999999999998
 31
0.0
1001
ACDBBLOCKREPETAG
1070
     1
1071
        2
1005
125F60
  0
LINE
  5
125F61
  8
OBJECT
 10
4430.0
 20
-1124.999999999998
 30
0.0
 11
4570.0
 21
-1124.999999999998
 31
0.0
1001
ACDBBLOCKREPETAG
1070
     1
1071
        3
1005
125F61
  0
LINE
  5
125F62
  8
HIDDEN
 10
4437.5
 20
-1124.999999999998
 30
0.0
 11
4437.5
 21
-1364.999999999998
 31
0.0
1001
ACDBBLOCKREPETAG
1070
     1
1071
        4
1005
125F62
  0
LINE
  5
125F63
  8
HIDDEN
 10
4562.5
 20
-1124.999999999998
 30
0.0
 11
4562.5
 21
-1364.999999999998
 31
0.0
1001
ACDBBLOCKREPETAG
1070
     1
1071
        5
1005
125F63
  0
LINE
  5
125F64
  8
CENTER
 10
4500.0
 20
-1055.0
 30
0.0
 11
4500.0
 21
-1379.999999999998
 31
0.0
1001
ACDBBLOCKREPETAG
1070
     1
1071
        6
1005
125F64
  0
LINE
  5
125F65
  8
OBJECT
 10
4425.0
 20
-1055.0
 30
0.0
 11
4425.0
 21
-1084.999999999998
 31
0.0
1001
ACDBBLOCKREPETAG
1070
     1
1071
        7
1005
125F65
  0
LINE
  5
125F66
  8
OBJECT
 10
4575.0000000000009
 20
-1055.0
 30
0.0
 11
4575.0
 21
-1084.999999999998
 31
0.0
1001
ACDBBLOCKREPETAG
1070
     1
1071
        8
1005
125F66
  0
LINE
  5
125F67
  8
OBJECT
 10
4425.0
 20
-1084.999999999998
 30
0.0
 11
4575.0
 21
-1084.999999999998
 31
0.0
1001
ACDBBLOCKREPETAG
1070
     1
1071
        9
1005
125F67
  0
LINE
  5
125F68
  8
OBJECT
 10
4425.0
 20
-1084.999999999998
 30
0.0
 11
4430.0
 21
-1124.999999999998
 31
0.0
1001
ACDBBLOCKREPETAG
1070
     1
1071
       10
1005
125F68
  0
LINE
  5
125F69
  8
OBJECT
 10
4570.0
 20
-1124.999999999998
 30
0.0
 11
4575.0
 21
-1084.999999999998
 31
0.0
1001
ACDBBLOCKREPETAG
1070
     1
1071
       11
1005
125F69
  0
LINE
  5
125F6A
  8
OBJECT
 10
2930.0
 20
-1364.999999999998
 30
0.0
 11
3070.0
 21
-1364.999999999998
 31
0.0
1001
ACDBBLOCKREPETAG
1070
     1
1071
        0
1005
125F6A
  0
LINE
  5
125F6B
  8
OBJECT
 10
2930.0
 20
-1364.999999999998
 30
0.0
 11
2930.0
 21
-1124.999999999998
 31
0.0
1001
ACDBBLOCKREPETAG
1070
     1
1071
        1
1005
125F6B
  0
LINE
  5
125F6C
  8
OBJECT
 10
3070.0
 20
-1364.999999999998
 30
0.0
 11
3070.0
 21
-1124.999999999998
 31
0.0
1001
ACDBBLOCKREPETAG
1070
     1
1071
        2
1005
125F6C
  0
LINE
  5
125F6D
  8
OBJECT
 10
2930.0
 20
-1124.999999999998
 30
0.0
 11
3070.0
 21
-1124.999999999998
 31
0.0
1001
ACDBBLOCKREPETAG
1070
     1
1071
        3
1005
125F6D
  0
LINE
  5
125F6E
  8
HIDDEN
 10
2937.5
 20
-1124.999999999998
 30
0.0
 11
2937.5
 21
-1364.999999999998
 31
0.0
1001
ACDBBLOCKREPETAG
1070
     1
1071
        4
1005
125F6E
  0
LINE
  5
125F6F
  8
HIDDEN
 10
3062.5
 20
-1124.999999999998
 30
0.0
 11
3062.5
 21
-1364.999999999998
 31
0.0
1001
ACDBBLOCKREPETAG
1070
     1
1071
        5
1005
125F6F
  0
LINE
  5
125F70
  8
CENTER
 10
3000.0
 20
-1055.0
 30
0.0
 11
3000.0
 21
-1379.999999999998
 31
0.0
1001
ACDBBLOCKREPETAG
1070
     1
1071
        6
1005
125F70
  0
LINE
  5
125F71
  8
OBJECT
 10
2925.0
 20
-1055.0
 30
0.0
 11
2925.0
 21
-1084.999999999998
 31
0.0
1001
ACDBBLOCKREPETAG
1070
     1
1071
        7
1005
125F71
  0
LINE
  5
125F72
  8
OBJECT
 10
3075.000000000005
 20
-1055.0
 30
0.0
 11
3075.0
 21
-1084.999999999998
 31
0.0
1001
ACDBBLOCKREPETAG
1070
     1
1071
        8
1005
125F72
  0
LINE
  5
125F73
  8
OBJECT
 10
2925.0
 20
-1084.999999999998
 30
0.0
 11
3075.0
 21
-1084.999999999998
 31
0.0
1001
ACDBBLOCKREPETAG
1070
     1
1071
        9
1005
125F73
  0
LINE
  5
125F74
  8
OBJECT
 10
2925.0
 20
-1084.999999999998
 30
0.0
 11
2930.0
 21
-1124.999999999998
 31
0.0
1001
ACDBBLOCKREPETAG
1070
     1
1071
       10
1005
125F74
  0
LINE
  5
125F75
  8
OBJECT
 10
3070.0
 20
-1124.999999999998
 30
0.0
 11
3075.0
 21
-1084.999999999998
 31
0.0
1001
ACDBBLOCKREPETAG
1070
     1
1071
       11
1005
125F75
  0
LINE
  5
125F76
  8
OBJECT
 10
2430.0
 20
-1364.999999999998
 30
0.0
 11
2570.0
 21
-1364.999999999998
 31
0.0
1001
ACDBBLOCKREPETAG
1070
     1
1071
        0
1005
125F76
  0
LINE
  5
125F77
  8
OBJECT
 10
2430.0
 20
-1364.999999999998
 30
0.0
 11
2430.0
 21
-1124.999999999998
 31
0.0
1001
ACDBBLOCKREPETAG
1070
     1
1071
        1
1005
125F77
  0
LINE
  5
125F78
  8
OBJECT
 10
2570.0
 20
-1364.999999999998
 30
0.0
 11
2570.0
 21
-1124.999999999998
 31
0.0
1001
ACDBBLOCKREPETAG
1070
     1
1071
        2
1005
125F78
  0
LINE
  5
125F79
  8
OBJECT
 10
2430.0
 20
-1124.999999999998
 30
0.0
 11
2570.0
 21
-1124.999999999998
 31
0.0
1001
ACDBBLOCKREPETAG
1070
     1
1071
        3
1005
125F79
  0
LINE
  5
125F7A
  8
HIDDEN
 10
2437.5
 20
-1124.999999999998
 30
0.0
 11
2437.5
 21
-1364.999999999998
 31
0.0
1001
ACDBBLOCKREPETAG
1070
     1
1071
        4
1005
125F7A
  0
LINE
  5
125F7B
  8
HIDDEN
 10
2562.5
 20
-1124.999999999998
 30
0.0
 11
2562.5
 21
-1364.999999999998
 31
0.0
1001
ACDBBLOCKREPETAG
1070
     1
1071
        5
1005
125F7B
  0
LINE
  5
125F7C
  8
CENTER
 10
2500.0
 20
-1055.0
 30
0.0
 11
2500.0
 21
-1379.999999999998
 31
0.0
1001
ACDBBLOCKREPETAG
1070
     1
1071
        6
1005
125F7C
  0
LINE
  5
125F7D
  8
OBJECT
 10
2425.0
 20
-1055.0
 30
0.0
 11
2425.0
 21
-1084.999999999998
 31
0.0
1001
ACDBBLOCKREPETAG
1070
     1
1071
        7
1005
125F7D
  0
LINE
  5
125F7E
  8
OBJECT
 10
2575.000000000005
 20
-1055.0
 30
0.0
 11
2575.0
 21
-1084.999999999998
 31
0.0
1001
ACDBBLOCKREPETAG
1070
     1
1071
        8
1005
125F7E
  0
LINE
  5
125F7F
  8
OBJECT
 10
2425.0
 20
-1084.999999999998
 30
0.0
 11
2575.0
 21
-1084.999999999998
 31
0.0
1001
ACDBBLOCKREPETAG
1070
     1
1071
        9
1005
125F7F
  0
LINE
  5
125F80
  8
OBJECT
 10
2425.0
 20
-1084.999999999998
 30
0.0
 11
2430.0
 21
-1124.999999999998
 31
0.0
1001
ACDBBLOCKREPETAG
1070
     1
1071
       10
1005
125F80
  0
LINE
  5
125F81
  8
OBJECT
 10
2570.0
 20
-1124.999999999998
 30
0.0
 11
2575.0
 21
-1084.999999999998
 31
0.0
1001
ACDBBLOCKREPETAG
1070
     1
1071
       11
1005
125F81
  0
CIRCLE
  5
125F82
  8
OBJECT
 10
180.00000000004181
 20
-232.00000000017189
 30
0.0
 40
70.0
1001
ACDBBLOCKREPETAG
1070
     1
1071
       50
1005
125F82
  0
CIRCLE
  5
125F83
  8
OBJECT
 10
180.00000000004181
 20
-232.00000000017189
 30
0.0
 40
77.0
1001
ACDBBLOCKREPETAG
1070
     1
1071
       51
1005
125F83
  0
ARC
  5
125F84
  8
OBJECT
 10
180.00000000004181
 20
-232.00000000017189
 30
0.0
 40
80.0
 50
140.80503257377961
 51
39.194967426220252
1001
ACDBBLOCKREPETAG
1070
     1
1071
       52
1005
125F84
  0
LINE
  5
125F85
  8
OBJECT
 10
118.00000000004179
 20
-186.3381997728473
 30
0.0
 11
118.00000000004179
 21
-152.00000000017181
 31
0.0
1001
ACDBBLOCKREPETAG
1070
     1
1071
       53
1005
125F85
  0
LINE
  5
125F86
  8
OBJECT
 10
242.00000000004181
 20
-186.3381997728473
 30
0.0
 11
242.00000000004181
 21
-152.00000000017181
 31
0.0
1001
ACDBBLOCKREPETAG
1070
     1
1071
       54
1005
125F86
  0
POINT
  5
125F87
  8
DOTS
 10
180.00000000004181
 20
-232.00000000017189
 30
0.0
1001
ACDBBLOCKREPETAG
1070
     1
1071
       63
1005
125F87
  0
CIRCLE
  5
125F88
  8
OBJECT
 10
180.00000000004181
 20
-232.00000000017189
 30
0.0
 40
53.5
1001
ACDBBLOCKREPETAG
1070
     1
1071
      157
1005
125F88
  0
LINE
  5
125F89
  8
SLIM
 10
4424.8586105144168
 20
-160.26624122769411
 30
0.0
 11
4450.4999999999991
 21
-134.62485174211079
 31
0.0
1001
GRADIENTCOLOR1ACI
1070
     5
1001
GRADIENTCOLOR2ACI
1070
     2
1001
ACAD
1010
0.0
1020
0.0
1030
0.0
  0
LINE
  5
125F8A
  8
SLIM
 10
4418.6084340676753
 20
-175.4966737955055
 30
0.0
 11
4427.1385399004412
 21
-166.96656796273871
 31
0.0
1001
GRADIENTCOLOR1ACI
1070
     5
1001
GRADIENTCOLOR2ACI
1070
     2
1001
ACAD
1010
0.0
1020
0.0
1030
0.0
  0
LINE
  5
125F8B
  8
SLIM
 10
4415.9844434040906
 20
-187.1009205801592
 30
0.0
 11
4422.3555558663202
 21
-180.7298081179288
 31
0.0
1001
GRADIENTCOLOR1ACI
1070
     5
1001
GRADIENTCOLOR2ACI
1070
     2
1001
ACAD
1010
0.0
1020
0.0
1030
0.0
  0
LINE
  5
125F8C
  8
SLIM
 10
4415.0524951669204
 20
-197.01312493839851
 30
0.0
 11
4416.0656201053189
 21
-196.0
 31
0.0
1001
GRADIENTCOLOR1ACI
1070
     5
1001
GRADIENTCOLOR2ACI
1070
     2
1001
ACAD
1010
0.0
1020
0.0
1030
0.0
  0
LINE
  5
125F8D
  8
SLIM
 10
4416.0656201053189
 20
-196.0
 30
0.0
 11
4420.4394650548311
 21
-191.6261550504878
 31
0.0
1001
GRADIENTCOLOR1ACI
1070
     5
1001
GRADIENTCOLOR2ACI
1070
     2
1001
ACAD
1010
0.0
1020
0.0
1030
0.0
  0
LINE
  5
125F8E
  8
SLIM
 10
4415.2011819161371
 20
-205.844694310249
 30
0.0
 11
4420.0067489441053
 21
-201.0391272822817
 31
0.0
1001
GRADIENTCOLOR1ACI
1070
     5
1001
GRADIENTCOLOR2ACI
1070
     2
1001
ACAD
1010
0.0
1020
0.0
1030
0.0
  0
LINE
  5
125F8F
  8
SLIM
 10
4416.141658771895
 20
-213.88447357556291
 30
0.0
 11
4420.56180678284
 21
-209.46432556461701
 31
0.0
1001
GRADIENTCOLOR1ACI
1070
     5
1001
GRADIENTCOLOR2ACI
1070
     2
1001
ACAD
1010
0.0
1020
0.0
1030
0.0
  0
LINE
  5
125F90
  8
SLIM
 10
4417.710870111021
 20
-221.29551835750499
 30
0.0
 11
4419.006388468526
 21
-220.0
 31
0.0
1001
GRADIENTCOLOR1ACI
1070
     5
1001
GRADIENTCOLOR2ACI
1070
     2
1001
ACAD
1010
0.0
1020
0.0
1030
0.0
  0
LINE
  5
125F91
  8
SLIM
 10
4419.006388468526
 20
-220.0
 30
0.0
 11
4421.8592561299583
 21
-217.14713233856759
 31
0.0
1001
GRADIENTCOLOR1ACI
1070
     5
1001
GRADIENTCOLOR2ACI
1070
     2
1001
ACAD
1010
0.0
1020
0.0
1030
0.0
  0
LINE
  5
125F92
  8
SLIM
 10
4419.8070443755887
 20
-228.17960021400589
 30
0.0
 11
4423.7573519673751
 21
-224.22929262221899
 31
0.0
1001
GRADIENTCOLOR1ACI
1070
     5
1001
GRADIENTCOLOR2ACI
1070
     2
1001
ACAD
1010
0.0
1020
0.0
1030
0.0
  0
LINE
  5
125F93
  8
SLIM
 10
4422.3627047135597
 20
-234.6041959971044
 30
0.0
 11
4424.9669007106631
 21
-232.00000000000091
 31
0.0
1001
GRADIENTCOLOR1ACI
1070
     5
1001
GRADIENTCOLOR2ACI
1070
     2
1001
ACAD
1010
0.0
1020
0.0
1030
0.0
  0
LINE
  5
125F94
  8
SLIM
 10
4424.9669007106631
 20
-232.00000000000091
 30
0.0
 11
4426.1667408698477
 21
-230.80015984081541
 31
0.0
1001
GRADIENTCOLOR1ACI
1070
     5
1001
GRADIENTCOLOR2ACI
1070
     2
1001
ACAD
1010
0.0
1020
0.0
1030
0.0
  0
LINE
  5
125F95
  8
SLIM
 10
4425.3315714414439
 20
-240.61558539028869
 30
0.0
 11
4429.0282267343791
 21
-236.91893009735381
 31
0.0
1001
GRADIENTCOLOR1ACI
1070
     5
1001
GRADIENTCOLOR2ACI
1070
     2
1001
ACAD
1010
0.0
1020
0.0
1030
0.0
  0
LINE
  5
125F96
  8
SLIM
 10
4428.6815548937129
 20
-246.2458580590887
 30
0.0
 11
4432.3017508847952
 21
-242.6256620680056
 31
0.0
1001
GRADIENTCOLOR1ACI
1070
     5
1001
GRADIENTCOLOR2ACI
1070
     2
1001
ACAD
1010
0.0
1020
0.0
1030
0.0
  0
LINE
  5
125F97
  8
SLIM
 10
4432.3907652629223
 20
-251.51690381094889
 30
0.0
 11
4435.960449022743
 21
-247.94722005112769
 31
0.0
1001
GRADIENTCOLOR1ACI
1070
     5
1001
GRADIENTCOLOR2ACI
1070
     2
1001
ACAD
1010
0.0
1020
0.0
1030
0.0
  0
LINE
  5
125F98
  8
SLIM
 10
4549.4999999999991
 20
-134.407669073872
 30
0.0
 11
4551.5169038109489
 21
-132.39076526292041
 31
0.0
1001
GRADIENTCOLOR1ACI
1070
     5
1001
GRADIENTCOLOR2ACI
1070
     2
1001
ACAD
1010
0.0
1020
0.0
1030
0.0
  0
LINE
  5
125F99
  8
SLIM
 10
4436.4451742931069
 20
-256.44275090183282
 30
0.0
 11
4439.987301360803
 21
-252.90062383413701
 31
0.0
1001
GRADIENTCOLOR1ACI
1070
     5
1001
GRADIENTCOLOR2ACI
1070
     2
1001
ACAD
1010
0.0
1020
0.0
1030
0.0
  0
LINE
  5
125F9A
  8
SLIM
 10
4554.8879251949411
 20
-137.99999999999909
 30
0.0
 11
4556.4427509018342
 21
-136.44517429310599
 31
0.0
1001
GRADIENTCOLOR1ACI
1070
     5
1001
GRADIENTCOLOR2ACI
1070
     2
1001
ACAD
1010
0.0
1020
0.0
1030
0.0
  0
LINE
  5
125F9B
  8
SLIM
 10
4440.8372731495638
 20
-261.03090816644323
 30
0.0
 11
4444.3732607963184
 21
-257.49492051969042
 31
0.0
1001
GRADIENTCOLOR1ACI
1070
     5
1001
GRADIENTCOLOR2ACI
1070
     2
1001
ACAD
1010
0.0
1020
0.0
1030
0.0
  0
LINE
  5
125F9C
  8
SLIM
 10
4445.5654027321416
 20
-265.2830347049366
 30
0.0
 11
4449.1163342680156
 21
-261.73210316906221
 31
0.0
1001
GRADIENTCOLOR1ACI
1070
     5
1001
GRADIENTCOLOR2ACI
1070
     2
1001
ACAD
1010
0.0
1020
0.0
1030
0.0
  0
LINE
  5
125F9D
  8
SLIM
 10
4450.6336102119212
 20
-269.19508334622702
 30
0.0
 11
4454.221387368174
 21
-265.60730618997422
 31
0.0
1001
GRADIENTCOLOR1ACI
1070
     5
1001
GRADIENTCOLOR2ACI
1070
     2
1001
ACAD
1010
0.0
1020
0.0
1030
0.0
  0
LINE
  5
125F9E
  8
SLIM
 10
4456.0520018449279
 20
-272.7569478342902
 30
0.0
 11
4459.7006257556995
 21
-269.10832392351767
 31
0.0
1001
GRADIENTCOLOR1ACI
1070
     5
1001
GRADIENTCOLOR2ACI
1070
     2
1001
ACAD
1010
0.0
1020
0.0
1030
0.0
  0
LINE
  5
125F9F
  8
SLIM
 10
4461.8376665887199
 20
-275.9515392115668
 30
0.0
 11
4465.5748693932528
 21
-272.21433640703441
 31
0.0
1001
GRADIENTCOLOR1ACI
1070
     5
1001
GRADIENTCOLOR2ACI
1070
     2
1001
ACAD
1010
0.0
1020
0.0
1030
0.0
  0
LINE
  5
125FA0
  8
SLIM
 10
4468.0163793697502
 20
-278.75308255160598
 30
0.0
 11
4471.8759515352549
 21
-274.89351038609948
 31
0.0
1001
GRADIENTCOLOR1ACI
1070
     5
1001
GRADIENTCOLOR2ACI
1070
     2
1001
ACAD
1010
0.0
1020
0.0
1030
0.0
  0
LINE
  5
125FA1
  8
SLIM
 10
4474.6255187948072
 20
-281.12419924761798
 30
0.0
 11
4478.6509600030768
 21
-277.09875803934762
 31
0.0
1001
GRADIENTCOLOR1ACI
1070
     5
1001
GRADIENTCOLOR2ACI
1070
     2
1001
ACAD
1010
0.0
1020
0.0
1030
0.0
  0
LINE
  5
125FA2
  8
SLIM
 10
4481.7190828919865
 20
-283.01089127150681
 30
0.0
 11
4485.9698622171827
 21
-278.76011194630968
 31
0.0
1001
GRADIENTCOLOR1ACI
1070
     5
1001
GRADIENTCOLOR2ACI
1070
     2
1001
ACAD
1010
0.0
1020
0.0
1030
0.0
  0
LINE
  5
125FA3
  8
SLIM
 10
4489.3766938558792
 20
-284.333536428684
 30
0.0
 11
4493.9400771270448
 21
-279.7701531575176
 31
0.0
1001
GRADIENTCOLOR1ACI
1070
     5
1001
GRADIENTCOLOR2ACI
1070
     2
1001
ACAD
1010
0.0
1020
0.0
1030
0.0
  0
LINE
  5
125FA4
  8
SLIM
 10
4497.7210427574209
 20
-284.96944364821047
 30
0.0
 11
4499.9999999999991
 21
-282.69048640563329
 31
0.0
1001
GRADIENTCOLOR1ACI
1070
     5
1001
GRADIENTCOLOR2ACI
1070
     2
1001
ACAD
1010
0.0
1020
0.0
1030
0.0
  0
LINE
  5
125FA5
  8
SLIM
 10
4499.9999999999991
 20
-282.69048640563329
 30
0.0
 11
4502.7373312610916
 21
-279.95315514453978
 31
0.0
1001
GRADIENTCOLOR1ACI
1070
     5
1001
GRADIENTCOLOR2ACI
1070
     2
1001
ACAD
1010
0.0
1020
0.0
1030
0.0
  0
LINE
  5
125FA6
  8
SLIM
 10
4506.9558298417924
 20
-284.7149126849099
 30
0.0
 11
4512.6824114987858
 21
-278.98833102791372
 31
0.0
1001
GRADIENTCOLOR1ACI
1070
     5
1001
GRADIENTCOLOR2ACI
1070
     2
1001
ACAD
1010
0.0
1020
0.0
1030
0.0
  0
LINE
  5
125FA7
  8
SLIM
 10
4517.4645176312806
 20
-283.18648101648711
 30
0.0
 11
4524.4924948954113
 21
-276.15850375235908
 31
0.0
1001
GRADIENTCOLOR1ACI
1070
     5
1001
GRADIENTCOLOR2ACI
1070
     2
1001
ACAD
1010
0.0
1020
0.0
1030
0.0
  0
LINE
  5
125FA8
  8
SLIM
 10
4530.1631022713127
 20
-279.46815249752672
 30
0.0
 11
4540.8425463192989
 21
-268.78870844953872
 31
0.0
1001
GRADIENTCOLOR1ACI
1070
     5
1001
GRADIENTCOLOR2ACI
1070
     2
1001
ACAD
1010
0.0
1020
0.0
1030
0.0
  0
LINE
  5
125FA9
  8
SLIM
 10
4549.5421817599126
 20
-269.069329129994
 30
0.0
 11
4556.6115108899112
 21
-261.99999999999909
 31
0.0
1001
GRADIENTCOLOR1ACI
1070
     5
1001
GRADIENTCOLOR2ACI
1070
     2
1001
ACAD
1010
0.0
1020
0.0
1030
0.0
  0
POLYLINE
  5
125FAA
  8
HIDDEN
 66
     1
 10
0.0
 20
0.0
 30
0.0
 70
     1
1001
ACDBBLOCKREPETAG
1070
     1
1071
      105
1005
0
  0
VERTEX
  5
126336
  8
HIDDEN
 10
359.99999999987779
 20
-799.99999999999818
 30
0.0
  0
VERTEX
  5
126337
  8
HIDDEN
 10
719.99999999975603
 20
-799.99999999999818
 30
0.0
  0
VERTEX
  5
126338
  8
HIDDEN
 10
719.99999999975603
 20
-1263.9999999998399
 30
0.0
  0
VERTEX
  5
126339
  8
HIDDEN
 10
359.99999999987779
 20
-1263.9999999998399
 30
0.0
  0
SEQEND
  5
12633A
  8
HIDDEN
  0
POLYLINE
  5
125FAB
  8
HIDDEN
 66
     1
 10
0.0
 20
0.0
 30
0.0
 70
     1
1001
ACDBBLOCKREPETAG
1070
     1
1071
      110
1005
0
  0
VERTEX
  5
12633B
  8
HIDDEN
 10
-0.0000000000002274
 20
-799.99999999999818
 30
0.0
  0
VERTEX
  5
12633C
  8
HIDDEN
 10
359.99999999987779
 20
-799.99999999999818
 30
0.0
  0
VERTEX
  5
12633D
  8
HIDDEN
 10
359.99999999987779
 20
-1263.9999999998399
 30
0.0
  0
VERTEX
  5
12633E
  8
HIDDEN
 10
-0.0000000000002274
 20
-1263.9999999998399
 30
0.0
  0
SEQEND
  5
12633F
  8
HIDDEN
  0
POLYLINE
  5
125FAC
  8
HIDDEN
 66
     1
 10
0.0
 20
0.0
 30
0.0
 70
     1
1001
ACDBBLOCKREPETAG
1070
     1
1071
      125
1005
0
  0
VERTEX
  5
126340
  8
HIDDEN
 10
-0.0000000000002274
 20
-1263.9999999998399
 30
0.0
  0
VERTEX
  5
126341
  8
HIDDEN
 10
359.99999999987779
 20
-1263.9999999998399
 30
0.0
  0
VERTEX
  5
126342
  8
HIDDEN
 10
359.99999999987779
 20
-1727.999999999681
 30
0.0
  0
VERTEX
  5
126343
  8
HIDDEN
 10
-0.0000000000002274
 20
-1727.999999999681
 30
0.0
  0
SEQEND
  5
126344
  8
HIDDEN
  0
POLYLINE
  5
125FAD
  8
HIDDEN
 66
     1
 10
0.0
 20
0.0
 30
0.0
 70
     1
1001
ACDBBLOCKREPETAG
1070
     1
1071
      110
1005
0
  0
VERTEX
  5
126345
  8
HIDDEN
 10
-0.0000000000002274
 20
0.0000000000009095
 30
0.0
  0
VERTEX
  5
126346
  8
HIDDEN
 10
359.99999999987779
 20
0.0000000000009095
 30
0.0
  0
VERTEX
  5
126347
  8
HIDDEN
 10
359.99999999987779
 20
-463.99999999984078
 30
0.0
  0
VERTEX
  5
126348
  8
HIDDEN
 10
-0.0000000000002274
 20
-463.99999999984078
 30
0.0
  0
SEQEND
  5
126349
  8
HIDDEN
  0
INSERT
  5
125FAE
  8
SLIM
  2
*U3
 10
0.0
 20
0.0
 30
0.0
  0
LINE
  5
125FAF
  8
OBJECT
 10
118.00000000004179
 20
-99.000000000171866
 30
0.0
 11
118.00000000004179
 21
-92.000000000171866
 31
0.0
1001
ACDBBLOCKREPETAG
1070
     1
1071
       39
1005
125FAF
  0
LINE
  5
125FB0
  8
OBJECT
 10
118.00000000004179
 20
-92.000000000171866
 30
0.0
 11
242.00000000004181
 21
-92.000000000171866
 31
0.0
1001
ACDBBLOCKREPETAG
1070
     1
1071
       40
1005
125FB0
  0
LINE
  5
125FB1
  8
OBJECT
 10
242.00000000004181
 20
-92.000000000171866
 30
0.0
 11
242.00000000004181
 21
-99.000000000171866
 31
0.0
1001
ACDBBLOCKREPETAG
1070
     1
1071
       41
1005
125FB1
  0
LINE
  5
125FB2
  8
OBJECT
 10
242.00000000004181
 20
-99.000000000171866
 30
0.0
 11
118.00000000004179
 21
-99.000000000171866
 31
0.0
1001
ACDBBLOCKREPETAG
1070
     1
1071
       42
1005
125FB2
  0
LINE
  5
125FB3
  8
OBJECT
 10
121.00000000004179
 20
-99.000000000171866
 30
0.0
 11
121.00000000004179
 21
-135.00000000017181
 31
0.0
1001
ACDBBLOCKREPETAG
1070
     1
1071
       43
1005
125FB3
  0
LINE
  5
125FB4
  8
OBJECT
 10
121.00000000004179
 20
-135.00000000017181
 30
0.0
 11
239.00000000004181
 21
-135.00000000017181
 31
0.0
1001
ACDBBLOCKREPETAG
1070
     1
1071
       44
1005
125FB4
  0
LINE
  5
125FB5
  8
OBJECT
 10
239.00000000004181
 20
-135.00000000017181
 30
0.0
 11
239.00000000004181
 21
-99.000000000171866
 31
0.0
1001
ACDBBLOCKREPETAG
1070
     1
1071
       45
1005
125FB5
  0
LINE
  5
125FB6
  8
OBJECT
 10
125.50000000004179
 20
-139.00000000017181
 30
0.0
 11
125.50000000004179
 21
-146.00000000017181
 31
0.0
1001
ACDBBLOCKREPETAG
1070
     1
1071
       46
1005
125FB6
  0
LINE
  5
125FB7
  8
OBJECT
 10
234.50000000004181
 20
-146.00000000017181
 30
0.0
 11
234.50000000004181
 21
-139.00000000017181
 31
0.0
1001
ACDBBLOCKREPETAG
1070
     1
1071
       47
1005
125FB7
  0
LINE
  5
125FB8
  8
OBJECT
 10
234.50000000004181
 20
-139.00000000017181
 30
0.0
 11
125.50000000004179
 21
-139.00000000017181
 31
0.0
1001
ACDBBLOCKREPETAG
1070
     1
1071
       48
1005
125FB8
  0
LINE
  5
125FB9
  8
OBJECT
 10
121.00000000004179
 20
-135.00000000017181
 30
0.0
 11
125.50000000004179
 21
-139.00000000017181
 31
0.0
1001
ACDBBLOCKREPETAG
1070
     1
1071
       49
1005
125FB9
  0
LINE
  5
125FBA
  8
OBJECT
 10
239.00000000004181
 20
-135.00000000017181
 30
0.0
 11
234.50000000004181
 21
-139.00000000017181
 31
0.0
1001
ACDBBLOCKREPETAG
1070
     1
1071
       50
1005
125FBA
  0
LINE
  5
125FBB
  8
OBJECT
 10
118.00000000004179
 20
-149.00000000017101
 30
0.0
 11
118.00000000004179
 21
-152.00000000017181
 31
0.0
1001
ACDBBLOCKREPETAG
1070
     1
1071
       51
1005
125FBB
  0
ARC
  5
125FBC
  8
OBJECT
 10
121.00000000004179
 20
-149.00000000017101
 30
0.0
 40
3.0
 50
90.0
 51
180.0
1001
ACDBBLOCKREPETAG
1070
     1
1071
       52
1005
125FBC
  0
LINE
  5
125FBD
  8
OBJECT
 10
242.00000000004181
 20
-152.00000000017181
 30
0.0
 11
242.00000000004181
 21
-149.0000000001728
 31
0.0
1001
ACDBBLOCKREPETAG
1070
     1
1071
       53
1005
125FBD
  0
ARC
  5
125FBE
  8
OBJECT
 10
239.00000000004181
 20
-149.0000000001728
 30
0.0
 40
3.0
 50
0.0
 51
90.0
1001
ACDBBLOCKREPETAG
1070
     1
1071
       54
1005
125FBE
  0
LINE
  5
125FBF
  8
OBJECT
 10
239.00000000004181
 20
-146.0000000001728
 30
0.0
 11
121.00000000004179
 21
-146.00000000017101
 31
0.0
1001
ACDBBLOCKREPETAG
1070
     1
1071
       55
1005
125FBF
  0
LINE
  5
125FC0
  8
HIDDEN
 10
135.50000000004181
 20
-144.00000000017189
 30
0.0
 11
224.50000000004181
 21
-144.00000000017189
 31
0.0
1001
ACDBBLOCKREPETAG
1070
     1
1071
      426
1005
125FC0
  0
LINE
  5
125FC1
  8
OBJECT
 10
81.999999999999787
 20
-1522.0
 30
0.0
 11
74.999999999999787
 21
-1522.0
 31
0.0
1001
ACDBBLOCKREPETAG
1070
     1
1071
       34
1005
125FC1
  0
LINE
  5
125FC2
  8
OBJECT
 10
74.999999999999787
 20
-1522.0
 30
0.0
 11
74.999999999999787
 21
-1398.0
 31
0.0
1001
ACDBBLOCKREPETAG
1070
     1
1071
       35
1005
125FC2
  0
LINE
  5
125FC3
  8
OBJECT
 10
74.999999999999787
 20
-1398.0
 30
0.0
 11
81.999999999999787
 21
-1398.0
 31
0.0
1001
ACDBBLOCKREPETAG
1070
     1
1071
       36
1005
125FC3
  0
LINE
  5
125FC4
  8
OBJECT
 10
81.999999999999787
 20
-1398.0
 30
0.0
 11
81.999999999999787
 21
-1522.0
 31
0.0
1001
ACDBBLOCKREPETAG
1070
     1
1071
       37
1005
125FC4
  0
LINE
  5
125FC5
  8
OBJECT
 10
81.999999999999787
 20
-1519.0
 30
0.0
 11
117.9999999999997
 21
-1519.0
 31
0.0
1001
ACDBBLOCKREPETAG
1070
     1
1071
       38
1005
125FC5
  0
LINE
  5
125FC6
  8
OBJECT
 10
117.9999999999997
 20
-1519.0
 30
0.0
 11
117.9999999999997
 21
-1401.0
 31
0.0
1001
ACDBBLOCKREPETAG
1070
     1
1071
       39
1005
125FC6
  0
LINE
  5
125FC7
  8
OBJECT
 10
117.9999999999997
 20
-1401.0
 30
0.0
 11
81.999999999999787
 21
-1401.0
 31
0.0
1001
ACDBBLOCKREPETAG
1070
     1
1071
       40
1005
125FC7
  0
LINE
  5
125FC8
  8
OBJECT
 10
121.9999999999997
 20
-1514.5
 30
0.0
 11
132.49999999999969
 21
-1514.5
 31
0.0
1001
ACDBBLOCKREPETAG
1070
     1
1071
       41
1005
125FC8
  0
LINE
  5
125FC9
  8
OBJECT
 10
132.49999999999969
 20
-1405.5
 30
0.0
 11
121.9999999999997
 21
-1405.5
 31
0.0
1001
ACDBBLOCKREPETAG
1070
     1
1071
       42
1005
125FC9
  0
LINE
  5
125FCA
  8
OBJECT
 10
121.9999999999997
 20
-1405.5
 30
0.0
 11
121.9999999999997
 21
-1514.5
 31
0.0
1001
ACDBBLOCKREPETAG
1070
     1
1071
       43
1005
125FCA
  0
LINE
  5
125FCB
  8
OBJECT
 10
117.9999999999997
 20
-1519.0
 30
0.0
 11
121.9999999999997
 21
-1514.5
 31
0.0
1001
ACDBBLOCKREPETAG
1070
     1
1071
       44
1005
125FCB
  0
LINE
  5
125FCC
  8
OBJECT
 10
117.9999999999997
 20
-1401.0
 30
0.0
 11
121.9999999999997
 21
-1405.5
 31
0.0
1001
ACDBBLOCKREPETAG
1070
     1
1071
       45
1005
125FCC
  0
LINE
  5
125FCD
  8
OBJECT
 10
137.4999999999998
 20
-1509.5
 30
0.0
 11
158.65508008702159
 21
-1509.4999999999991
 31
0.0
1001
ACDBBLOCKREPETAG
1070
     1
1071
       46
1005
125FCD
  0
LINE
  5
125FCE
  8
OBJECT
 10
137.4999999999998
 20
-1410.5
 30
0.0
 11
158.6550800870225
 21
-1410.5
 31
0.0
1001
ACDBBLOCKREPETAG
1070
     1
1071
       47
1005
125FCE
  0
LINE
  5
125FCF
  8
OBJECT
 10
132.49999999999969
 20
-1514.5
 30
0.0
 11
132.49999999999969
 21
-1405.5
 31
0.0
1001
ACDBBLOCKREPETAG
1070
     1
1071
       48
1005
125FCF
  0
LINE
  5
125FD0
  8
OBJECT
 10
137.4999999999998
 20
-1509.5
 30
0.0
 11
137.4999999999998
 21
-1410.5
 31
0.0
1001
ACDBBLOCKREPETAG
1070
     1
1071
       49
1005
125FD0
  0
LINE
  5
125FD1
  8
OBJECT
 10
132.49999999999969
 20
-1514.5
 30
0.0
 11
137.4999999999998
 21
-1509.5
 31
0.0
1001
ACDBBLOCKREPETAG
1070
     1
1071
       50
1005
125FD1
  0
LINE
  5
125FD2
  8
OBJECT
 10
137.4999999999998
 20
-1410.5
 30
0.0
 11
132.49999999999969
 21
-1405.5000000000041
 31
0.0
1001
ACDBBLOCKREPETAG
1070
     1
1071
       51
1005
125FD2
  0
INSERT
  5
125FD3
  8
SLIM
  2
*U4
 10
0.0
 20
0.0
 30
0.0
  0
LINE
  5
125FD4
  8
HIDDEN
 10
126.9999999999997
 20
-1504.5
 30
0.0
 11
126.9999999999998
 21
-1415.5
 31
0.0
1001
ACDBBLOCKREPETAG
1070
     1
1071
       65
1005
125FD4
  0
CIRCLE
  5
125FD5
  8
OBJECT
 10
214.9999999999998
 20
-1460.0
 30
0.0
 40
70.0
1001
ACDBBLOCKREPETAG
1070
     1
1071
       50
1005
125FD5
  0
CIRCLE
  5
125FD6
  8
OBJECT
 10
214.9999999999998
 20
-1460.0
 30
0.0
 40
75.0
1001
ACDBBLOCKREPETAG
1070
     1
1071
       51
1005
125FD6
  0
POINT
  5
125FD7
  8
DOTS
 10
214.9999999999998
 20
-1460.0
 30
0.0
1001
ACDBBLOCKREPETAG
1070
     1
1071
       63
1005
125FD7
  0
CIRCLE
  5
125FD8
  8
OBJECT
 10
214.9999999999998
 20
-1460.0
 30
0.0
 40
55.0
1001
ACDBBLOCKREPETAG
1070
     1
1071
       50
1005
125FD5
  0
LINE
  5
125FD9
  8
OBJECT
 10
441.99999999999977
 20
-1051.0
 30
0.0
 11
434.9999999999996
 21
-1051.0
 31
0.0
1001
ACDBBLOCKREPETAG
1070
     1
1071
       18
1005
125FD9
  0
LINE
  5
125FDA
  8
OBJECT
 10
434.9999999999996
 20
-1051.0
 30
0.0
 11
434.9999999999996
 21
-941.0
 31
0.0
1001
ACDBBLOCKREPETAG
1070
     1
1071
       19
1005
125FDA
  0
LINE
  5
125FDB
  8
OBJECT
 10
434.9999999999996
 20
-941.0
 30
0.0
 11
441.99999999999977
 21
-941.0
 31
0.0
1001
ACDBBLOCKREPETAG
1070
     1
1071
       20
1005
125FDB
  0
LINE
  5
125FDC
  8
OBJECT
 10
441.99999999999977
 20
-941.0
 30
0.0
 11
441.99999999999977
 21
-1051.0
 31
0.0
1001
ACDBBLOCKREPETAG
1070
     1
1071
       21
1005
125FDC
  0
LINE
  5
125FDD
  8
OBJECT
 10
441.99999999999977
 20
-1048.0
 30
0.0
 11
477.99999999999972
 21
-1048.0
 31
0.0
1001
ACDBBLOCKREPETAG
1070
     1
1071
       22
1005
125FDD
  0
LINE
  5
125FDE
  8
OBJECT
 10
477.99999999999972
 20
-1048.0
 30
0.0
 11
477.99999999999972
 21
-944.0
 31
0.0
1001
ACDBBLOCKREPETAG
1070
     1
1071
       23
1005
125FDE
  0
LINE
  5
125FDF
  8
OBJECT
 10
477.99999999999972
 20
-944.0
 30
0.0
 11
441.99999999999977
 21
-944.0
 31
0.0
1001
ACDBBLOCKREPETAG
1070
     1
1071
       24
1005
125FDF
  0
LINE
  5
125FE0
  8
OBJECT
 10
481.99999999999972
 20
-1043.5
 30
0.0
 11
490.49999999999972
 21
-1043.5
 31
0.0
1001
ACDBBLOCKREPETAG
1070
     1
1071
       25
1005
125FE0
  0
LINE
  5
125FE1
  8
OBJECT
 10
490.49999999999972
 20
-948.49999999999989
 30
0.0
 11
481.99999999999972
 21
-948.49999999999989
 31
0.0
1001
ACDBBLOCKREPETAG
1070
     1
1071
       26
1005
125FE1
  0
LINE
  5
125FE2
  8
OBJECT
 10
481.99999999999972
 20
-948.49999999999989
 30
0.0
 11
481.99999999999972
 21
-1043.5
 31
0.0
1001
ACDBBLOCKREPETAG
1070
     1
1071
       27
1005
125FE2
  0
LINE
  5
125FE3
  8
OBJECT
 10
477.99999999999972
 20
-1048.0
 30
0.0
 11
481.99999999999972
 21
-1043.5
 31
0.0
1001
ACDBBLOCKREPETAG
1070
     1
1071
       28
1005
125FE3
  0
LINE
  5
125FE4
  8
OBJECT
 10
477.99999999999972
 20
-944.0
 30
0.0
 11
481.99999999999972
 21
-948.49999999999989
 31
0.0
1001
ACDBBLOCKREPETAG
1070
     1
1071
       29
1005
125FE4
  0
LINE
  5
125FE5
  8
OBJECT
 10
490.50000000000159
 20
-946.49999999999989
 30
0.0
 11
490.49999999999972
 21
-1045.5
 31
0.0
1001
ACDBBLOCKREPETAG
1070
     1
1071
       30
1005
125FE5
  0
LINE
  5
125FE6
  8
OBJECT
 10
490.49999999999972
 20
-1045.5
 30
0.0
 11
518.65508008702068
 21
-1045.4999999999991
 31
0.0
1001
ACDBBLOCKREPETAG
1070
     1
1071
       31
1005
125FE6
  0
LINE
  5
125FE7
  8
OBJECT
 10
490.50000000000159
 20
-946.49999999999989
 30
0.0
 11
518.65508008702147
 21
-946.49999999999875
 31
0.0
1001
ACDBBLOCKREPETAG
1070
     1
1071
       32
1005
125FE7
  0
INSERT
  5
125FE8
  8
SLIM
  2
*U5
 10
0.0
 20
0.0
 30
0.0
  0
LINE
  5
125FE9
  8
HIDDEN
 10
486.99999999999972
 20
-1034.0
 30
0.0
 11
486.99999999999972
 21
-958.0
 31
0.0
1001
ACDBBLOCKREPETAG
1070
     1
1071
       57
1005
125FE9
  0
CIRCLE
  5
125FEA
  8
OBJECT
 10
574.99999999999977
 20
-996.0
 30
0.0
 40
70.0
1001
ACDBBLOCKREPETAG
1070
     1
1071
       50
1005
125FEA
  0
CIRCLE
  5
125FEB
  8
OBJECT
 10
574.99999999999977
 20
-996.0
 30
0.0
 40
75.0
1001
ACDBBLOCKREPETAG
1070
     1
1071
       51
1005
125FEB
  0
POINT
  5
125FEC
  8
DOTS
 10
574.99999999999977
 20
-996.0
 30
0.0
1001
ACDBBLOCKREPETAG
1070
     1
1071
       63
1005
125FEC
  0
CIRCLE
  5
125FED
  8
OBJECT
 10
574.99999999999977
 20
-996.0
 30
0.0
 40
55.0
1001
ACDBBLOCKREPETAG
1070
     1
1071
       50
1005
125FEA
  0
LINE
  5
125FEE
  8
OBJECT
 10
81.999999999999787
 20
-1043.0
 30
0.0
 11
74.999999999999787
 21
-1043.0
 31
0.0
1001
ACDBBLOCKREPETAG
1070
     1
1071
        0
1005
125FEE
  0
LINE
  5
125FEF
  8
OBJECT
 10
74.999999999999787
 20
-1043.0
 30
0.0
 11
74.999999999999787
 21
-949.0
 31
0.0
1001
ACDBBLOCKREPETAG
1070
     1
1071
        1
1005
125FEF
  0
LINE
  5
125FF0
  8
OBJECT
 10
74.999999999999787
 20
-949.0
 30
0.0
 11
81.999999999999787
 21
-949.0
 31
0.0
1001
ACDBBLOCKREPETAG
1070
     1
1071
        2
1005
125FF0
  0
LINE
  5
125FF1
  8
OBJECT
 10
81.999999999999787
 20
-949.0
 30
0.0
 11
81.999999999999787
 21
-1043.0
 31
0.0
1001
ACDBBLOCKREPETAG
1070
     1
1071
        3
1005
125FF1
  0
LINE
  5
125FF2
  8
OBJECT
 10
81.999999999999787
 20
-1040.0
 30
0.0
 11
117.9999999999997
 21
-1040.0
 31
0.0
1001
ACDBBLOCKREPETAG
1070
     1
1071
        4
1005
125FF2
  0
LINE
  5
125FF3
  8
OBJECT
 10
117.9999999999997
 20
-1040.0
 30
0.0
 11
117.9999999999997
 21
-952.0
 31
0.0
1001
ACDBBLOCKREPETAG
1070
     1
1071
        5
1005
125FF3
  0
LINE
  5
125FF4
  8
OBJECT
 10
117.9999999999997
 20
-952.0
 30
0.0
 11
81.999999999999787
 21
-952.0
 31
0.0
1001
ACDBBLOCKREPETAG
1070
     1
1071
        6
1005
125FF4
  0
LINE
  5
125FF5
  8
OBJECT
 10
121.9999999999997
 20
-1035.5
 30
0.0
 11
130.49999999999881
 21
-1035.5
 31
0.0
1001
ACDBBLOCKREPETAG
1070
     1
1071
        7
1005
125FF5
  0
LINE
  5
125FF6
  8
OBJECT
 10
130.49999999999969
 20
-956.49999999999989
 30
0.0
 11
121.9999999999997
 21
-956.49999999999989
 31
0.0
1001
ACDBBLOCKREPETAG
1070
     1
1071
        8
1005
125FF6
  0
LINE
  5
125FF7
  8
OBJECT
 10
121.9999999999997
 20
-956.49999999999989
 30
0.0
 11
121.9999999999997
 21
-1035.5
 31
0.0
1001
ACDBBLOCKREPETAG
1070
     1
1071
        9
1005
125FF7
  0
LINE
  5
125FF8
  8
OBJECT
 10
117.9999999999997
 20
-1040.0
 30
0.0
 11
121.9999999999997
 21
-1035.5
 31
0.0
1001
ACDBBLOCKREPETAG
1070
     1
1071
       10
1005
125FF8
  0
LINE
  5
125FF9
  8
OBJECT
 10
117.9999999999997
 20
-952.0
 30
0.0
 11
121.9999999999997
 21
-956.49999999999989
 31
0.0
1001
ACDBBLOCKREPETAG
1070
     1
1071
       11
1005
125FF9
  0
LINE
  5
125FFA
  8
OBJECT
 10
130.50000000000071
 20
-949.5
 30
0.0
 11
130.49999999999881
 21
-1042.5
 31
0.0
1001
ACDBBLOCKREPETAG
1070
     1
1071
       12
1005
125FFA
  0
ARC
  5
125FFB
  8
OBJECT
 10
133.49999999999881
 20
-1042.5
 30
0.0
 40
3.0
 50
180.0
 51
270.0
1001
ACDBBLOCKREPETAG
1070
     1
1071
       13
1005
125FFB
  0
LINE
  5
125FFC
  8
OBJECT
 10
133.49999999999881
 20
-1045.5
 30
0.0
 11
158.65508008702159
 21
-1045.5
 31
0.0
1001
ACDBBLOCKREPETAG
1070
     1
1071
       15
1005
125FFC
  0
LINE
  5
125FFD
  8
OBJECT
 10
133.50000000000071
 20
-946.49999999999989
 30
0.0
 11
158.65508008702059
 21
-946.5000000000008
 31
0.0
1001
ACDBBLOCKREPETAG
1070
     1
1071
       16
1005
125FFD
  0
ARC
  5
125FFE
  8
OBJECT
 10
133.50000000000071
 20
-949.5
 30
0.0
 40
3.0
 50
90.0
 51
180.0
1001
ACDBBLOCKREPETAG
1070
     1
1071
       17
1005
125FFE
  0
INSERT
  5
125FFF
  8
SLIM
  2
*U6
 10
0.0
 20
0.0
 30
0.0
  0
LINE
  5
126000
  8
HIDDEN
 10
126.9999999999998
 20
-1026.0
 30
0.0
 11
126.9999999999998
 21
-966.0
 31
0.0
1001
ACDBBLOCKREPETAG
1070
     1
1071
       56
1005
126000
  0
CIRCLE
  5
126001
  8
OBJECT
 10
214.9999999999998
 20
-996.0
 30
0.0
 40
70.0
1001
ACDBBLOCKREPETAG
1070
     1
1071
       50
1005
126001
  0
CIRCLE
  5
126002
  8
OBJECT
 10
214.9999999999998
 20
-996.0
 30
0.0
 40
75.0
1001
ACDBBLOCKREPETAG
1070
     1
1071
       51
1005
126002
  0
POINT
  5
126003
  8
DOTS
 10
214.9999999999998
 20
-996.0
 30
0.0
1001
ACDBBLOCKREPETAG
1070
     1
1071
       63
1005
126003
  0
CIRCLE
  5
126004
  8
OBJECT
 10
214.9999999999998
 20
-996.0
 30
0.0
 40
55.0
1001
ACDBBLOCKREPETAG
1070
     1
1071
       50
1005
126001
  0
TEXT
  5
126005
  8
SLIM
 10
97.714285714224999
 20
-1707.9999999996919
 30
0.0
 40
48.0
  1
A0003
 41
0.75
1001
ACDBBLOCKREPETAG
1070
     1
1071
      119
1005
0
  0
TEXT
  5
126006
  8
SLIM
 10
457.71428571410308
 20
-1243.9999999998499
 30
0.0
 40
48.0
  1
A0002
 41
0.75
1001
ACDBBLOCKREPETAG
1070
     1
1071
      119
1005
0
  0
TEXT
  5
126007
  8
SLIM
 10
105.42857142851059
 20
-1243.9999999998499
 30
0.0
 40
48.0
  1
A0001
 41
0.75
1001
ACDBBLOCKREPETAG
1070
     1
1071
      119
1005
0
  0
TEXT
  5
126008
  8
SLIM
 10
0.000003566523219
 20
-775.9999954146823
 30
0.0
 40
79.999999999972701
  1
下部枝管バリエーション
 41
0.75
1001
ACDBBLOCKREPETAG
1070
     1
1071
      119
1005
120BCB
  0
LINE
  5
126009
  8
OBJECT
 10
4633.0
 20
-137.99999999999909
 30
0.0
 11
4640.0
 21
-137.99999999999909
 31
0.0
1001
ACDBBLOCKREPETAG
1070
     1
1071
       47
1005
126009
  0
LINE
  5
12600A
  8
OBJECT
 10
4640.0
 20
-137.99999999999909
 30
0.0
 11
4640.0
 21
-261.99999999999909
 31
0.0
1001
ACDBBLOCKREPETAG
1070
     1
1071
       48
1005
12600A
  0
LINE
  5
12600B
  8
OBJECT
 10
4640.0
 20
-261.99999999999909
 30
0.0
 11
4633.0
 21
-261.99999999999909
 31
0.0
1001
ACDBBLOCKREPETAG
1070
     1
1071
       49
1005
12600B
  0
LINE
  5
12600C
  8
OBJECT
 10
4633.0
 20
-261.99999999999909
 30
0.0
 11
4633.0
 21
-137.99999999999909
 31
0.0
1001
ACDBBLOCKREPETAG
1070
     1
1071
       50
1005
12600C
  0
LINE
  5
12600D
  8
CENTER
 10
4655.0
 20
-199.99999999999909
 30
0.0
 11
4580.0
 21
-199.99999999999909
 31
0.0
1001
ACDBBLOCKREPETAG
1070
     1
1071
       51
1005
12600D
  0
LINE
  5
12600E
  8
OBJECT
 10
4633.0
 20
-140.99999999999909
 30
0.0
 11
4597.0
 21
-140.99999999999909
 31
0.0
1001
ACDBBLOCKREPETAG
1070
     1
1071
       52
1005
12600E
  0
LINE
  5
12600F
  8
OBJECT
 10
4597.0
 20
-140.99999999999909
 30
0.0
 11
4597.0
 21
-258.99999999999909
 31
0.0
1001
ACDBBLOCKREPETAG
1070
     1
1071
       53
1005
12600F
  0
LINE
  5
126010
  8
OBJECT
 10
4597.0
 20
-258.99999999999909
 30
0.0
 11
4633.0
 21
-258.99999999999909
 31
0.0
1001
ACDBBLOCKREPETAG
1070
     1
1071
       54
1005
126010
  0
LINE
  5
126011
  8
OBJECT
 10
4593.0
 20
-145.49999999999909
 30
0.0
 11
4586.0
 21
-145.49999999999909
 31
0.0
1001
ACDBBLOCKREPETAG
1070
     1
1071
       55
1005
126011
  0
LINE
  5
126012
  8
OBJECT
 10
4586.0
 20
-254.49999999999909
 30
0.0
 11
4593.0
 21
-254.49999999999909
 31
0.0
1001
ACDBBLOCKREPETAG
1070
     1
1071
       56
1005
126012
  0
LINE
  5
126013
  8
OBJECT
 10
4593.0
 20
-254.49999999999909
 30
0.0
 11
4593.0
 21
-145.49999999999909
 31
0.0
1001
ACDBBLOCKREPETAG
1070
     1
1071
       57
1005
126013
  0
LINE
  5
126014
  8
OBJECT
 10
4597.0
 20
-140.99999999999909
 30
0.0
 11
4593.0
 21
-145.49999999999909
 31
0.0
1001
ACDBBLOCKREPETAG
1070
     1
1071
       58
1005
126014
  0
LINE
  5
126015
  8
OBJECT
 10
4597.0
 20
-258.99999999999909
 30
0.0
 11
4593.0
 21
-254.49999999999909
 31
0.0
1001
ACDBBLOCKREPETAG
1070
     1
1071
       59
1005
126015
  0
LINE
  5
126016
  8
OBJECT
 10
4583.0
 20
-137.99999999999909
 30
0.0
 11
4580.0
 21
-137.99999999999909
 31
0.0
1001
ACDBBLOCKREPETAG
1070
     1
1071
       60
1005
126016
  0
ARC
  5
126017
  8
OBJECT
 10
4583.0
 20
-140.99999999999909
 30
0.0
 40
3.0
 50
0.0
 51
90.0
1001
ACDBBLOCKREPETAG
1070
     1
1071
       61
1005
126017
  0
LINE
  5
126018
  8
OBJECT
 10
4580.0
 20
-261.99999999999909
 30
0.0
 11
4583.0
 21
-261.99999999999909
 31
0.0
1001
ACDBBLOCKREPETAG
1070
     1
1071
       62
1005
126018
  0
ARC
  5
126019
  8
OBJECT
 10
4583.0
 20
-258.99999999999909
 30
0.0
 40
3.0
 50
270.0
 51
0.0
1001
ACDBBLOCKREPETAG
1070
     1
1071
       63
1005
126019
  0
LINE
  5
12601A
  8
OBJECT
 10
4586.0
 20
-258.99999999999909
 30
0.0
 11
4586.0
 21
-140.99999999999909
 31
0.0
1001
ACDBBLOCKREPETAG
1070
     1
1071
       64
1005
12601A
  0
LINE
  5
12601B
  8
HIDDEN
 10
4588.0
 20
-155.49999999999909
 30
0.0
 11
4588.0
 21
-244.49999999999909
 31
0.0
1001
ACDBBLOCKREPETAG
1070
     1
1071
       65
1005
12601B
  0
LINE
  5
12601C
  8
DIM
 10
4404.9999999999936
 20
-1015.999999999999
 30
0.0
 11
4333.1164560757752
 21
-1015.999999999999
 31
0.0
  0
LINE
  5
12601D
  8
DIM
 10
4410.0
 20
-1256.0
 30
0.0
 11
4333.1164560757752
 21
-1256.0
 31
0.0
  0
LINE
  5
12601E
  8
DIM
 10
4343.1164560757752
 20
-1035.9999999999991
 30
0.0
 11
4343.1164560757752
 21
-1236.0
 31
0.0
  0
INSERT
  5
12601F
  8
DIM
  2
_OPEN30
 10
4343.1164560757752
 20
-1015.999999999999
 30
0.0
 41
20.0
 42
20.0
 43
20.0
 50
90.0
  0
INSERT
  5
126020
  8
DIM
  2
_OPEN30
 10
4343.1164560757752
 20
-1256.0
 30
0.0
 41
20.0
 42
20.0
 43
20.0
 50
270.0
  0
INSERT
  5
126021
  8
SLIM
  2
*U7
 10
0.0
 20
0.0
 30
0.0
  0
LINE
  5
126022
  8
DIM
 10
4665.0
 20
-696.0
 30
0.0
 11
4719.4245816727571
 21
-696.0
 31
0.0
  0
LINE
  5
126023
  8
DIM
 10
4595.0000000000064
 20
-1016.000000000004
 30
0.0
 11
4719.4245816727571
 21
-1016.000000000004
 31
0.0
  0
LINE
  5
126024
  8
DIM
 10
4709.4245816727562
 20
-716.0
 30
0.0
 11
4709.4245816727562
 21
-996.00000000000375
 31
0.0
  0
INSERT
  5
126025
  8
DIM
  2
_OPEN30
 10
4709.4245816727562
 20
-696.0
 30
0.0
 41
20.0
 42
20.0
 43
20.0
 50
90.0
  0
INSERT
  5
126026
  8
DIM
  2
_OPEN30
 10
4709.4245816727562
 20
-1016.000000000004
 30
0.0
 41
20.0
 42
20.0
 43
20.0
 50
270.0
  0
INSERT
  5
126027
  8
SLIM
  2
*U8
 10
0.0
 20
0.0
 30
0.0
  0
LINE
  5
126028
  8
OBJECT
 10
5075.0
 20
-770.0
 30
0.0
 11
5075.0
 21
-907.50000000006526
 31
0.0
1001
ACDBBLOCKREPETAG
1070
     1
1071
        1
1005
126028
  0
LINE
  5
126029
  8
OBJECT
 10
4925.0
 20
-769.9999999999942
 30
0.0
 11
4925.0
 21
-1043.0
 31
0.0
1001
ACDBBLOCKREPETAG
1070
     1
1071
        3
1005
126029
  0
LINE
  5
12602A
  8
CENTER
 10
5000.0
 20
-770.0
 30
0.0
 11
5000.0
 21
-1055.0
 31
0.0
1001
ACDBBLOCKREPETAG
1070
     1
1071
        6
1005
12602A
  0
LINE
  5
12602B
  8
OBJECT
 10
4920.0
 20
-1055.0
 30
0.0
 11
5080.0
 21
-1055.0
 31
0.0
1001
ACDBBLOCKREPETAG
1070
     1
1071
        7
1005
12602B
  0
LINE
  5
12602C
  8
OBJECT
 10
4920.0
 20
-1043.0
 30
0.0
 11
5080.0
 21
-1043.0
 31
0.0
1001
ACDBBLOCKREPETAG
1070
     1
1071
        8
1005
12602C
  0
LINE
  5
12602D
  8
OBJECT
 10
4920.0
 20
-1043.0
 30
0.0
 11
4920.0
 21
-1055.0
 31
0.0
1001
ACDBBLOCKREPETAG
1070
     1
1071
        9
1005
12602D
  0
LINE
  5
12602E
  8
OBJECT
 10
5080.0
 20
-1043.0
 30
0.0
 11
5080.0
 21
-1055.0
 31
0.0
1001
ACDBBLOCKREPETAG
1070
     1
1071
       10
1005
12602E
  0
LINE
  5
12602F
  8
OBJECT
 10
5133.0
 20
-909.0
 30
0.0
 11
5140.0
 21
-909.0
 31
0.0
1001
ACDBBLOCKREPETAG
1070
     1
1071
       23
1005
12602F
  0
LINE
  5
126030
  8
OBJECT
 10
5140.0
 20
-909.0
 30
0.0
 11
5140.0
 21
-1016.0
 31
0.0
1001
ACDBBLOCKREPETAG
1070
     1
1071
       24
1005
126030
  0
LINE
  5
126031
  8
OBJECT
 10
5084.5
 20
-910.50000000006548
 30
0.0
 11
5084.5
 21
-1013.5
 31
0.0
1001
ACDBBLOCKREPETAG
1070
     1
1071
       25
1005
126031
  0
ARC
  5
126032
  8
OBJECT
 10
5081.5
 20
-910.50000000006548
 30
0.0
 40
3.0
 50
0.0
 51
90.0
1001
ACDBBLOCKREPETAG
1070
     1
1071
       26
1005
126032
  0
LINE
  5
126033
  8
OBJECT
 10
5133.0
 20
-1016.0
 30
0.0
 11
5133.0
 21
-909.0
 31
0.0
1001
ACDBBLOCKREPETAG
1070
     1
1071
       27
1005
126033
  0
LINE
  5
126034
  8
CENTER
 10
5155.0
 20
-964.0
 30
0.0
 11
5041.3449199130037
 21
-964.00000000006526
 31
0.0
1001
ACDBBLOCKREPETAG
1070
     1
1071
       28
1005
126034
  0
LINE
  5
126035
  8
OBJECT
 10
5133.0
 20
-912.0
 30
0.0
 11
5097.0
 21
-912.0
 31
0.0
1001
ACDBBLOCKREPETAG
1070
     1
1071
       29
1005
126035
  0
LINE
  5
126036
  8
OBJECT
 10
5097.0
 20
-912.0
 30
0.0
 11
5097.0
 21
-1016.0
 31
0.0
1001
ACDBBLOCKREPETAG
1070
     1
1071
       30
1005
126036
  0
LINE
  5
126037
  8
OBJECT
 10
5097.0
 20
-1016.0
 30
0.0
 11
5140.0
 21
-1016.0
 31
0.0
1001
ACDBBLOCKREPETAG
1070
     1
1071
       31
1005
126037
  0
LINE
  5
126038
  8
OBJECT
 10
5093.0
 20
-916.5
 30
0.0
 11
5084.5
 21
-916.5
 31
0.0
1001
ACDBBLOCKREPETAG
1070
     1
1071
       32
1005
126038
  0
LINE
  5
126039
  8
OBJECT
 10
5084.5
 20
-1011.5
 30
0.0
 11
5093.0
 21
-1011.5
 31
0.0
1001
ACDBBLOCKREPETAG
1070
     1
1071
       33
1005
126039
  0
LINE
  5
12603A
  8
OBJECT
 10
5093.0
 20
-1011.5
 30
0.0
 11
5093.0
 21
-916.5
 31
0.0
1001
ACDBBLOCKREPETAG
1070
     1
1071
       34
1005
12603A
  0
LINE
  5
12603B
  8
OBJECT
 10
5097.0
 20
-912.0
 30
0.0
 11
5093.0
 21
-916.5
 31
0.0
1001
ACDBBLOCKREPETAG
1070
     1
1071
       35
1005
12603B
  0
LINE
  5
12603C
  8
OBJECT
 10
5097.0
 20
-1016.0
 30
0.0
 11
5093.0
 21
-1011.5
 31
0.0
1001
ACDBBLOCKREPETAG
1070
     1
1071
       36
1005
12603C
  0
LINE
  5
12603D
  8
HIDDEN
 10
5088.0
 20
-926.0
 30
0.0
 11
5088.0
 21
-1002.0
 31
0.0
1001
ACDBBLOCKREPETAG
1070
     1
1071
       37
1005
12603D
  0
ARC
  5
12603E
  8
OBJECT
 10
5164.8782728787728
 20
-972.40950726122867
 30
0.0
 40
110.86635228309
 50
144.1634274193047
 51
163.04035380434561
1001
ACDBBLOCKREPETAG
1070
     1
1071
       38
1005
12603E
  0
ARC
  5
12603F
  8
OBJECT
 10
5117.1359887769049
 20
-957.28774971844894
 30
0.0
 40
60.791749880358971
 50
163.54720465221311
 51
179.72879698282651
1001
ACDBBLOCKREPETAG
1070
     1
1071
       39
1005
12603F
  0
ARC
  5
126040
  8
OBJECT
 10
5117.1359956562483
 20
-963.71224975990117
 30
0.0
 40
60.79175676209487
 50
180.2712034781452
 51
196.45277946052011
1001
ACDBBLOCKREPETAG
1070
     1
1071
       40
1005
126040
  0
ARC
  5
126041
  8
OBJECT
 10
5164.8782728787728
 20
-948.59049273883636
 30
0.0
 40
110.8663522830916
 50
196.95964619565439
 51
215.8365725806953
1001
ACDBBLOCKREPETAG
1070
     1
1071
       41
1005
126041
  0
LINE
  5
126042
  8
OBJECT
 10
5056.3449199130046
 20
-957.00000000003638
 30
0.0
 11
5056.3449199130046
 21
-964.00000000003286
 31
0.0
1001
ACDBBLOCKREPETAG
1070
     1
1071
       42
1005
126042
  0
LINE
  5
126043
  8
OBJECT
 10
5075.0
 20
-907.50000000006526
 30
0.0
 11
5081.5
 21
-907.50000000006526
 31
0.0
1001
ACDBBLOCKREPETAG
1070
     1
1071
       43
1005
126043
  0
LINE
  5
126044
  8
OBJECT
 10
5075.0
 20
-1013.5
 30
0.0
 11
5084.5
 21
-1013.5
 31
0.0
1001
ACDBBLOCKREPETAG
1070
     1
1071
       44
1005
126044
  0
LINE
  5
126045
  8
OBJECT
 10
5075.0
 20
-1013.5
 30
0.0
 11
5075.0
 21
-1043.0
 31
0.0
1001
ACDBBLOCKREPETAG
1070
     1
1071
        1
1005
126028
  0
POINT
  5
126046
  8
DOTS
 10
5000.0
 20
-1016.0
 30
0.0
  0
LINE
  5
126047
  8
OBJECT
 10
4425.0
 20
-770.0
 30
0.0
 11
4425.0
 21
-1043.0
 31
0.0
1001
ACDBBLOCKREPETAG
1070
     1
1071
        1
1005
126047
  0
LINE
  5
126048
  8
OBJECT
 10
4575.0
 20
-769.9999999999942
 30
0.0
 11
4575.0
 21
-1043.0
 31
0.0
1001
ACDBBLOCKREPETAG
1070
     1
1071
        3
1005
126048
  0
LINE
  5
126049
  8
CENTER
 10
4500.0
 20
-770.0
 30
0.0
 11
4500.0
 21
-1055.0
 31
0.0
1001
ACDBBLOCKREPETAG
1070
     1
1071
        6
1005
126049
  0
LINE
  5
12604A
  8
OBJECT
 10
4420.0
 20
-1055.0
 30
0.0
 11
4580.0
 21
-1055.0
 31
0.0
1001
ACDBBLOCKREPETAG
1070
     1
1071
        7
1005
12604A
  0
LINE
  5
12604B
  8
OBJECT
 10
4420.0
 20
-1043.0
 30
0.0
 11
4580.0
 21
-1043.0
 31
0.0
1001
ACDBBLOCKREPETAG
1070
     1
1071
        8
1005
12604B
  0
LINE
  5
12604C
  8
OBJECT
 10
4420.0
 20
-1043.0
 30
0.0
 11
4420.0
 21
-1055.0
 31
0.0
1001
ACDBBLOCKREPETAG
1070
     1
1071
        9
1005
12604C
  0
LINE
  5
12604D
  8
OBJECT
 10
4580.0
 20
-1043.0
 30
0.0
 11
4580.0
 21
-1055.0
 31
0.0
1001
ACDBBLOCKREPETAG
1070
     1
1071
       10
1005
12604D
  0
CIRCLE
  5
12604E
  8
HIDDEN
 10
4500.0
 20
-964.0
 30
0.0
 40
35.5
1001
ACDBBLOCKREPETAG
1070
     1
1071
       11
1005
12604E
  0
LINE
  5
12604F
  8
CENTER
 10
4430.0
 20
-964.0
 30
0.0
 11
4570.0
 21
-964.0
 31
0.0
1001
ACDBBLOCKREPETAG
1070
     1
1071
       12
1005
12604F
  0
CIRCLE
  5
126050
  8
HIDDEN
 10
4500.0
 20
-964.0
 30
0.0
 40
47.0
1001
ACDBBLOCKREPETAG
1070
     1
1071
       14
1005
126050
  0
ARC
  5
126051
  8
HIDDEN
 10
4500.0
 20
-964.0
 30
0.0
 40
55.0
 50
289.01126526010933
 51
250.9887347398907
1001
ACDBBLOCKREPETAG
1070
     1
1071
       15
1005
126051
  0
LINE
  5
126052
  8
HIDDEN
 10
4482.0835271328324
 20
-1016.0
 30
0.0
 11
4517.9164728671676
 21
-1016.0
 31
0.0
1001
ACDBBLOCKREPETAG
1070
     1
1071
       16
1005
126052
  0
POINT
  5
126053
  8
DOTS
 10
4500.0
 20
-1016.0
 30
0.0
  0
LINE
  5
126054
  8
OBJECT
 10
3075.0
 20
-770.0
 30
0.0
 11
3075.0
 21
-907.50000000006526
 31
0.0
1001
ACDBBLOCKREPETAG
1070
     1
1071
        1
1005
126054
  0
LINE
  5
126055
  8
OBJECT
 10
2925.0
 20
-769.9999999999942
 30
0.0
 11
2925.0
 21
-1043.0
 31
0.0
1001
ACDBBLOCKREPETAG
1070
     1
1071
        3
1005
126055
  0
LINE
  5
126056
  8
CENTER
 10
3000.0
 20
-770.0
 30
0.0
 11
3000.0
 21
-1055.0
 31
0.0
1001
ACDBBLOCKREPETAG
1070
     1
1071
        6
1005
126056
  0
LINE
  5
126057
  8
OBJECT
 10
2920.0
 20
-1055.0
 30
0.0
 11
3080.0
 21
-1055.0
 31
0.0
1001
ACDBBLOCKREPETAG
1070
     1
1071
        7
1005
126057
  0
LINE
  5
126058
  8
OBJECT
 10
2920.0
 20
-1043.0
 30
0.0
 11
3080.0
 21
-1043.0
 31
0.0
1001
ACDBBLOCKREPETAG
1070
     1
1071
        8
1005
126058
  0
LINE
  5
126059
  8
OBJECT
 10
2920.0
 20
-1043.0
 30
0.0
 11
2920.0
 21
-1055.0
 31
0.0
1001
ACDBBLOCKREPETAG
1070
     1
1071
        9
1005
126059
  0
LINE
  5
12605A
  8
OBJECT
 10
3080.0
 20
-1043.0
 30
0.0
 11
3080.0
 21
-1055.0
 31
0.0
1001
ACDBBLOCKREPETAG
1070
     1
1071
       10
1005
12605A
  0
LINE
  5
12605B
  8
OBJECT
 10
3133.0
 20
-909.0
 30
0.0
 11
3140.0
 21
-909.0
 31
0.0
1001
ACDBBLOCKREPETAG
1070
     1
1071
       23
1005
12605B
  0
LINE
  5
12605C
  8
OBJECT
 10
3140.0
 20
-909.0
 30
0.0
 11
3140.0
 21
-1016.0
 31
0.0
1001
ACDBBLOCKREPETAG
1070
     1
1071
       24
1005
12605C
  0
LINE
  5
12605D
  8
OBJECT
 10
3084.5
 20
-910.50000000006548
 30
0.0
 11
3084.5
 21
-1013.5
 31
0.0
1001
ACDBBLOCKREPETAG
1070
     1
1071
       25
1005
12605D
  0
ARC
  5
12605E
  8
OBJECT
 10
3081.5
 20
-910.50000000006548
 30
0.0
 40
3.0
 50
0.0
 51
90.0
1001
ACDBBLOCKREPETAG
1070
     1
1071
       26
1005
12605E
  0
LINE
  5
12605F
  8
OBJECT
 10
3133.0
 20
-1016.0
 30
0.0
 11
3133.0
 21
-909.0
 31
0.0
1001
ACDBBLOCKREPETAG
1070
     1
1071
       27
1005
12605F
  0
LINE
  5
126060
  8
CENTER
 10
3155.0
 20
-964.0
 30
0.0
 11
3041.344919913005
 21
-964.00000000006526
 31
0.0
1001
ACDBBLOCKREPETAG
1070
     1
1071
       28
1005
126060
  0
LINE
  5
126061
  8
OBJECT
 10
3133.0
 20
-912.0
 30
0.0
 11
3097.0
 21
-912.0
 31
0.0
1001
ACDBBLOCKREPETAG
1070
     1
1071
       29
1005
126061
  0
LINE
  5
126062
  8
OBJECT
 10
3097.0
 20
-912.0
 30
0.0
 11
3097.0
 21
-1016.0
 31
0.0
1001
ACDBBLOCKREPETAG
1070
     1
1071
       30
1005
126062
  0
LINE
  5
126063
  8
OBJECT
 10
3097.0
 20
-1016.0
 30
0.0
 11
3140.0
 21
-1016.0
 31
0.0
1001
ACDBBLOCKREPETAG
1070
     1
1071
       31
1005
126063
  0
LINE
  5
126064
  8
OBJECT
 10
3093.0
 20
-916.5
 30
0.0
 11
3084.5
 21
-916.5
 31
0.0
1001
ACDBBLOCKREPETAG
1070
     1
1071
       32
1005
126064
  0
LINE
  5
126065
  8
OBJECT
 10
3084.5
 20
-1011.5
 30
0.0
 11
3093.0
 21
-1011.5
 31
0.0
1001
ACDBBLOCKREPETAG
1070
     1
1071
       33
1005
126065
  0
LINE
  5
126066
  8
OBJECT
 10
3093.0
 20
-1011.5
 30
0.0
 11
3093.0
 21
-916.5
 31
0.0
1001
ACDBBLOCKREPETAG
1070
     1
1071
       34
1005
126066
  0
LINE
  5
126067
  8
OBJECT
 10
3097.0
 20
-912.0
 30
0.0
 11
3093.0
 21
-916.5
 31
0.0
1001
ACDBBLOCKREPETAG
1070
     1
1071
       35
1005
126067
  0
LINE
  5
126068
  8
OBJECT
 10
3097.0
 20
-1016.0
 30
0.0
 11
3093.0
 21
-1011.5
 31
0.0
1001
ACDBBLOCKREPETAG
1070
     1
1071
       36
1005
126068
  0
LINE
  5
126069
  8
HIDDEN
 10
3088.0
 20
-926.0
 30
0.0
 11
3088.0
 21
-1002.0
 31
0.0
1001
ACDBBLOCKREPETAG
1070
     1
1071
       37
1005
126069
  0
ARC
  5
12606A
  8
OBJECT
 10
3164.8782728787751
 20
-972.40950726122867
 30
0.0
 40
110.86635228309
 50
144.1634274193047
 51
163.040353804338
1001
ACDBBLOCKREPETAG
1070
     1
1071
       38
1005
12606A
  0
ARC
  5
12606B
  8
OBJECT
 10
3117.1359887769072
 20
-957.28774971844894
 30
0.0
 40
60.791749880358971
 50
163.5472046522205
 51
179.72879698282679
1001
ACDBBLOCKREPETAG
1070
     1
1071
       39
1005
12606B
  0
ARC
  5
12606C
  8
OBJECT
 10
3117.1359956562478
 20
-963.71224975990117
 30
0.0
 40
60.79175676209487
 50
180.2712034781452
 51
196.45277946052761
1001
ACDBBLOCKREPETAG
1070
     1
1071
       40
1005
12606C
  0
ARC
  5
12606D
  8
OBJECT
 10
3164.8782728787751
 20
-948.59049273883636
 30
0.0
 40
110.8663522830916
 50
196.95964619566189
 51
215.8365725806953
1001
ACDBBLOCKREPETAG
1070
     1
1071
       41
1005
12606D
  0
LINE
  5
12606E
  8
OBJECT
 10
3056.344919913005
 20
-957.00000000003638
 30
0.0
 11
3056.344919913005
 21
-964.00000000003286
 31
0.0
1001
ACDBBLOCKREPETAG
1070
     1
1071
       42
1005
12606E
  0
LINE
  5
12606F
  8
OBJECT
 10
3075.0
 20
-907.50000000006526
 30
0.0
 11
3081.5
 21
-907.50000000006526
 31
0.0
1001
ACDBBLOCKREPETAG
1070
     1
1071
       43
1005
12606F
  0
LINE
  5
126070
  8
OBJECT
 10
3075.0
 20
-1013.5
 30
0.0
 11
3084.5
 21
-1013.5
 31
0.0
1001
ACDBBLOCKREPETAG
1070
     1
1071
       44
1005
126070
  0
LINE
  5
126071
  8
OBJECT
 10
3075.0
 20
-1013.5
 30
0.0
 11
3075.0
 21
-1043.0
 31
0.0
1001
ACDBBLOCKREPETAG
1070
     1
1071
        1
1005
126054
  0
POINT
  5
126072
  8
DOTS
 10
3000.0
 20
-1016.0
 30
0.0
  0
LINE
  5
126073
  8
OBJECT
 10
2425.0
 20
-770.0
 30
0.0
 11
2425.0
 21
-1043.0
 31
0.0
1001
ACDBBLOCKREPETAG
1070
     1
1071
        1
1005
126073
  0
LINE
  5
126074
  8
OBJECT
 10
2575.0
 20
-769.9999999999942
 30
0.0
 11
2575.0
 21
-1043.0
 31
0.0
1001
ACDBBLOCKREPETAG
1070
     1
1071
        3
1005
126074
  0
LINE
  5
126075
  8
CENTER
 10
2500.0
 20
-770.0
 30
0.0
 11
2500.0
 21
-1055.0
 31
0.0
1001
ACDBBLOCKREPETAG
1070
     1
1071
        6
1005
126075
  0
LINE
  5
126076
  8
OBJECT
 10
2420.0
 20
-1055.0
 30
0.0
 11
2580.0
 21
-1055.0
 31
0.0
1001
ACDBBLOCKREPETAG
1070
     1
1071
        7
1005
126076
  0
LINE
  5
126077
  8
OBJECT
 10
2420.0
 20
-1043.0
 30
0.0
 11
2580.0
 21
-1043.0
 31
0.0
1001
ACDBBLOCKREPETAG
1070
     1
1071
        8
1005
126077
  0
LINE
  5
126078
  8
OBJECT
 10
2420.0
 20
-1043.0
 30
0.0
 11
2420.0
 21
-1055.0
 31
0.0
1001
ACDBBLOCKREPETAG
1070
     1
1071
        9
1005
126078
  0
LINE
  5
126079
  8
OBJECT
 10
2580.0
 20
-1043.0
 30
0.0
 11
2580.0
 21
-1055.0
 31
0.0
1001
ACDBBLOCKREPETAG
1070
     1
1071
       10
1005
126079
  0
CIRCLE
  5
12607A
  8
HIDDEN
 10
2500.0
 20
-964.0
 30
0.0
 40
35.5
1001
ACDBBLOCKREPETAG
1070
     1
1071
       11
1005
12607A
  0
LINE
  5
12607B
  8
CENTER
 10
2430.0
 20
-964.0
 30
0.0
 11
2570.0
 21
-964.0
 31
0.0
1001
ACDBBLOCKREPETAG
1070
     1
1071
       12
1005
12607B
  0
CIRCLE
  5
12607C
  8
HIDDEN
 10
2500.0
 20
-964.0
 30
0.0
 40
47.0
1001
ACDBBLOCKREPETAG
1070
     1
1071
       14
1005
12607C
  0
ARC
  5
12607D
  8
HIDDEN
 10
2500.0
 20
-964.0
 30
0.0
 40
55.0
 50
289.0112652600846
 51
250.98873473991529
1001
ACDBBLOCKREPETAG
1070
     1
1071
       15
1005
12607D
  0
LINE
  5
12607E
  8
HIDDEN
 10
2482.0835271328328
 20
-1016.0
 30
0.0
 11
2517.9164728671681
 21
-1016.0
 31
0.0
1001
ACDBBLOCKREPETAG
1070
     1
1071
       16
1005
12607E
  0
POINT
  5
12607F
  8
DOTS
 10
2500.0
 20
-1016.0
 30
0.0
  0
LINE
  5
126080
  8
DIM
 10
2665.0
 20
-696.0
 30
0.0
 11
2719.4245816727562
 21
-696.0
 31
0.0
  0
LINE
  5
126081
  8
DIM
 10
2527.916472867169
 20
-1016.0
 30
0.0
 11
2719.4245816727562
 21
-1016.0
 31
0.0
  0
LINE
  5
126082
  8
DIM
 10
2709.4245816727562
 20
-716.0
 30
0.0
 11
2709.4245816727562
 21
-996.0
 31
0.0
  0
INSERT
  5
126083
  8
DIM
  2
_OPEN30
 10
2709.4245816727562
 20
-696.0
 30
0.0
 41
20.0
 42
20.0
 43
20.0
 50
90.0
  0
INSERT
  5
126084
  8
DIM
  2
_OPEN30
 10
2709.4245816727562
 20
-1016.0
 30
0.0
 41
20.0
 42
20.0
 43
20.0
 50
270.0
  0
INSERT
  5
126085
  8
SLIM
  2
*U9
 10
0.0
 20
0.0
 30
0.0
  0
LINE
  5
126086
  8
CENTER
 10
4977.0
 20
-3805.9999999999968
 30
0.0
 11
4823.0
 21
-3805.9999999999968
 31
0.0
1001
ACDBBLOCKREPETAG
1070
     1
1071
       17
1005
126086
  0
CIRCLE
  5
126087
  8
OBJECT
 10
4900.0
 20
-3805.9999999999968
 30
0.0
 40
41.5
1001
ACDBBLOCKREPETAG
1070
     1
1071
       18
1005
126087
  0
CIRCLE
  5
126088
  8
OBJECT
 10
4900.0
 20
-3805.9999999999968
 30
0.0
 40
54.0
1001
ACDBBLOCKREPETAG
1070
     1
1071
       19
1005
126088
  0
ARC
  5
126089
  8
OBJECT
 10
4900.0
 20
-3805.9999999999968
 30
0.0
 40
62.0
 50
287.89655112921122
 51
252.1034488707887
1001
ACDBBLOCKREPETAG
1070
     1
1071
       20
1005
126089
  0
LINE
  5
12608A
  8
OBJECT
 10
4880.947441116743
 20
-3864.9999999999968
 30
0.0
 11
4919.052558883257
 21
-3864.9999999999968
 31
0.0
1001
ACDBBLOCKREPETAG
1070
     1
1071
       21
1005
12608A
  0
POINT
  5
12608B
  8
DOTS
 10
4900.0
 20
-3864.9999999999968
 30
0.0
1001
ACDBBLOCKREPETAG
1070
     1
1071
       23
1005
12608B
  0
LINE
  5
12608C
  8
OBJECT
 10
4633.0
 20
-3743.9999999999959
 30
0.0
 11
4640.0
 21
-3743.9999999999959
 31
0.0
1001
ACDBBLOCKREPETAG
1070
     1
1071
       46
1005
12608C
  0
LINE
  5
12608D
  8
OBJECT
 10
4640.0
 20
-3743.9999999999959
 30
0.0
 11
4640.0
 21
-3864.9999999999968
 31
0.0
1001
ACDBBLOCKREPETAG
1070
     1
1071
       47
1005
12608D
  0
LINE
  5
12608E
  8
OBJECT
 10
4633.0
 20
-3864.9999999999968
 30
0.0
 11
4633.0
 21
-3743.9999999999959
 31
0.0
1001
ACDBBLOCKREPETAG
1070
     1
1071
       48
1005
12608E
  0
LINE
  5
12608F
  8
CENTER
 10
4655.0
 20
-3805.9999999999968
 30
0.0
 11
4541.3449199130037
 21
-3806.0000000000618
 31
0.0
1001
ACDBBLOCKREPETAG
1070
     1
1071
       49
1005
12608F
  0
LINE
  5
126090
  8
OBJECT
 10
4633.0
 20
-3746.9999999999959
 30
0.0
 11
4597.0
 21
-3746.9999999999959
 31
0.0
1001
ACDBBLOCKREPETAG
1070
     1
1071
       50
1005
126090
  0
LINE
  5
126091
  8
OBJECT
 10
4597.0
 20
-3746.9999999999959
 30
0.0
 11
4597.0
 21
-3864.9999999999968
 31
0.0
1001
ACDBBLOCKREPETAG
1070
     1
1071
       51
1005
126091
  0
LINE
  5
126092
  8
OBJECT
 10
4597.0
 20
-3864.9999999999968
 30
0.0
 11
4640.0
 21
-3864.9999999999968
 31
0.0
1001
ACDBBLOCKREPETAG
1070
     1
1071
       52
1005
126092
  0
LINE
  5
126093
  8
OBJECT
 10
4593.0
 20
-3751.4999999999959
 30
0.0
 11
4582.5
 21
-3751.4999999999959
 31
0.0
1001
ACDBBLOCKREPETAG
1070
     1
1071
       53
1005
126093
  0
LINE
  5
126094
  8
OBJECT
 10
4582.5
 20
-3860.4999999999959
 30
0.0
 11
4593.0
 21
-3860.4999999999959
 31
0.0
1001
ACDBBLOCKREPETAG
1070
     1
1071
       54
1005
126094
  0
LINE
  5
126095
  8
OBJECT
 10
4593.0
 20
-3860.4999999999959
 30
0.0
 11
4593.0
 21
-3751.4999999999959
 31
0.0
1001
ACDBBLOCKREPETAG
1070
     1
1071
       55
1005
126095
  0
LINE
  5
126096
  8
OBJECT
 10
4597.0
 20
-3746.9999999999959
 30
0.0
 11
4593.0
 21
-3751.4999999999959
 31
0.0
1001
ACDBBLOCKREPETAG
1070
     1
1071
       56
1005
126096
  0
LINE
  5
126097
  8
OBJECT
 10
4597.0
 20
-3864.9999999999968
 30
0.0
 11
4593.0
 21
-3860.4999999999959
 31
0.0
1001
ACDBBLOCKREPETAG
1070
     1
1071
       57
1005
126097
  0
LINE
  5
126098
  8
HIDDEN
 10
4588.0
 20
-3761.4999999999968
 30
0.0
 11
4588.0
 21
-3850.4999999999968
 31
0.0
1001
ACDBBLOCKREPETAG
1070
     1
1071
       58
1005
126098
  0
ARC
  5
126099
  8
OBJECT
 10
4664.8782728787719
 20
-3821.4095072612249
 30
0.0
 40
110.86635228309
 50
144.16342741928889
 51
163.04035380433939
1001
ACDBBLOCKREPETAG
1070
     1
1071
       59
1005
126099
  0
ARC
  5
12609A
  8
OBJECT
 10
4617.1359887769049
 20
-3806.287749718445
 30
0.0
 40
60.791749880358971
 50
163.54720465221931
 51
179.72879698282651
1001
ACDBBLOCKREPETAG
1070
     1
1071
       60
1005
12609A
  0
ARC
  5
12609B
  8
OBJECT
 10
4617.1359956562483
 20
-3812.7122497598971
 30
0.0
 40
60.79175676209487
 50
180.2712034781452
 51
196.4527794605265
1001
ACDBBLOCKREPETAG
1070
     1
1071
       61
1005
12609B
  0
ARC
  5
12609C
  8
OBJECT
 10
4664.8782728787719
 20
-3797.5904927388328
 30
0.0
 40
110.8663522830916
 50
196.9596461956605
 51
215.83657258071111
1001
ACDBBLOCKREPETAG
1070
     1
1071
       62
1005
12609C
  0
LINE
  5
12609D
  8
OBJECT
 10
4556.3449199130037
 20
-3806.0000000000332
 30
0.0
 11
4556.3449199130037
 21
-3813.0000000000291
 31
0.0
1001
ACDBBLOCKREPETAG
1070
     1
1071
       63
1005
12609D
  0
LINE
  5
12609E
  8
OBJECT
 10
4574.9999999998336
 20
-3756.500000000291
 30
0.0
 11
4577.4999999998363
 21
-3756.500000000291
 31
0.0
1001
ACDBBLOCKREPETAG
1070
     1
1071
       65
1005
12609E
  0
LINE
  5
12609F
  8
OBJECT
 10
4574.9999999998327
 20
-3862.4999999997672
 30
0.0
 11
4579.4999999998308
 21
-3862.4999999997672
 31
0.0
1001
ACDBBLOCKREPETAG
1070
     1
1071
       66
1005
12609F
  0
LINE
  5
1260A0
  8
OBJECT
 10
4579.4999999998308
 20
-3862.4999999997672
 30
0.0
 11
4577.4999999998363
 21
-3756.500000000291
 31
0.0
1001
ACDBBLOCKREPETAG
1070
     1
1071
       67
1005
1260A0
  0
LINE
  5
1260A1
  8
OBJECT
 10
4579.4999999998308
 20
-3862.4999999997672
 30
0.0
 11
4582.5
 21
-3860.4999999999959
 31
0.0
1001
ACDBBLOCKREPETAG
1070
     1
1071
       68
1005
1260A1
  0
LINE
  5
1260A2
  8
OBJECT
 10
4582.5
 20
-3860.4999999999959
 30
0.0
 11
4582.5
 21
-3751.4999999999959
 31
0.0
1001
ACDBBLOCKREPETAG
1070
     1
1071
       69
1005
1260A2
  0
LINE
  5
1260A3
  8
OBJECT
 10
4582.5
 20
-3751.4999999999959
 30
0.0
 11
4577.4999999998363
 21
-3756.500000000291
 31
0.0
1001
ACDBBLOCKREPETAG
1070
     1
1071
       70
1005
1260A3
  0
LINE
  5
1260A4
  8
OBJECT
 10
4633.0000000000009
 20
-3397.9999999999959
 30
0.0
 11
4640.0000000000018
 21
-3397.9999999999959
 31
0.0
1001
ACDBBLOCKREPETAG
1070
     1
1071
       38
1005
1260A4
  0
LINE
  5
1260A5
  8
OBJECT
 10
4640.0000000000018
 20
-3397.9999999999959
 30
0.0
 11
4640.0
 21
-3521.9999999999968
 31
0.0
1001
ACDBBLOCKREPETAG
1070
     1
1071
       39
1005
1260A5
  0
LINE
  5
1260A6
  8
OBJECT
 10
4640.0
 20
-3521.9999999999968
 30
0.0
 11
4633.0
 21
-3521.9999999999968
 31
0.0
1001
ACDBBLOCKREPETAG
1070
     1
1071
       40
1005
1260A6
  0
LINE
  5
1260A7
  8
OBJECT
 10
4633.0
 20
-3521.9999999999968
 30
0.0
 11
4633.0000000000009
 21
-3397.9999999999959
 31
0.0
1001
ACDBBLOCKREPETAG
1070
     1
1071
       41
1005
1260A7
  0
LINE
  5
1260A8
  8
CENTER
 10
4655.0
 20
-3459.9999999999968
 30
0.0
 11
4580.0
 21
-3459.9999999999968
 31
0.0
1001
ACDBBLOCKREPETAG
1070
     1
1071
       42
1005
1260A8
  0
LINE
  5
1260A9
  8
OBJECT
 10
4633.0000000000009
 20
-3400.9999999999959
 30
0.0
 11
4597.0000000000018
 21
-3400.9999999999959
 31
0.0
1001
ACDBBLOCKREPETAG
1070
     1
1071
       43
1005
1260A9
  0
LINE
  5
1260AA
  8
OBJECT
 10
4597.0000000000018
 20
-3400.9999999999959
 30
0.0
 11
4597.0
 21
-3518.9999999999968
 31
0.0
1001
ACDBBLOCKREPETAG
1070
     1
1071
       44
1005
1260AA
  0
LINE
  5
1260AB
  8
OBJECT
 10
4597.0
 20
-3518.9999999999968
 30
0.0
 11
4633.0
 21
-3518.9999999999968
 31
0.0
1001
ACDBBLOCKREPETAG
1070
     1
1071
       45
1005
1260AB
  0
LINE
  5
1260AC
  8
OBJECT
 10
4593.0000000000018
 20
-3405.4999999999959
 30
0.0
 11
4582.5000000000018
 21
-3405.4999999999959
 31
0.0
1001
ACDBBLOCKREPETAG
1070
     1
1071
       46
1005
1260AC
  0
LINE
  5
1260AD
  8
OBJECT
 10
4582.5
 20
-3514.4999999999968
 30
0.0
 11
4593.0
 21
-3514.4999999999968
 31
0.0
1001
ACDBBLOCKREPETAG
1070
     1
1071
       47
1005
1260AD
  0
LINE
  5
1260AE
  8
OBJECT
 10
4593.0
 20
-3514.4999999999968
 30
0.0
 11
4593.0000000000018
 21
-3405.4999999999959
 31
0.0
1001
ACDBBLOCKREPETAG
1070
     1
1071
       48
1005
1260AE
  0
LINE
  5
1260AF
  8
OBJECT
 10
4597.0000000000018
 20
-3400.9999999999959
 30
0.0
 11
4593.0000000000018
 21
-3405.4999999999959
 31
0.0
1001
ACDBBLOCKREPETAG
1070
     1
1071
       49
1005
1260AF
  0
LINE
  5
1260B0
  8
OBJECT
 10
4597.0
 20
-3518.9999999999968
 30
0.0
 11
4593.0
 21
-3514.4999999999968
 31
0.0
1001
ACDBBLOCKREPETAG
1070
     1
1071
       50
1005
1260B0
  0
LINE
  5
1260B1
  8
HIDDEN
 10
4588.0
 20
-3415.4999999999968
 30
0.0
 11
4588.0
 21
-3504.4999999999968
 31
0.0
1001
ACDBBLOCKREPETAG
1070
     1
1071
       51
1005
1260B1
  0
LINE
  5
1260B2
  8
OBJECT
 10
4577.5000000000018
 20
-3410.4999999999959
 30
0.0
 11
4556.3449199129791
 21
-3410.4999999999959
 31
0.0
1001
ACDBBLOCKREPETAG
1070
     1
1071
       52
1005
1260B2
  0
LINE
  5
1260B3
  8
OBJECT
 10
4577.4999999999991
 20
-3509.4999999999959
 30
0.0
 11
4556.3449199129791
 21
-3509.4999999999959
 31
0.0
1001
ACDBBLOCKREPETAG
1070
     1
1071
       53
1005
1260B3
  0
LINE
  5
1260B4
  8
OBJECT
 10
4582.5000000000018
 20
-3405.4999999999959
 30
0.0
 11
4582.5
 21
-3514.4999999999968
 31
0.0
1001
ACDBBLOCKREPETAG
1070
     1
1071
       54
1005
1260B4
  0
LINE
  5
1260B5
  8
OBJECT
 10
4577.5000000000018
 20
-3410.4999999999959
 30
0.0
 11
4577.4999999999991
 21
-3509.4999999999959
 31
0.0
1001
ACDBBLOCKREPETAG
1070
     1
1071
       55
1005
1260B5
  0
LINE
  5
1260B6
  8
OBJECT
 10
4582.5000000000018
 20
-3405.4999999999959
 30
0.0
 11
4577.5000000000018
 21
-3410.4999999999959
 31
0.0
1001
ACDBBLOCKREPETAG
1070
     1
1071
       56
1005
1260B6
  0
LINE
  5
1260B7
  8
OBJECT
 10
4577.4999999999991
 20
-3509.4999999999959
 30
0.0
 11
4582.5
 21
-3514.4999999999932
 31
0.0
1001
ACDBBLOCKREPETAG
1070
     1
1071
       57
1005
1260B7
  0
CIRCLE
  5
1260B8
  8
OBJECT
 10
3900.0
 20
-3812.9999999999968
 30
0.0
 40
35.5
1001
ACDBBLOCKREPETAG
1070
     1
1071
       11
1005
1260B8
  0
LINE
  5
1260B9
  8
CENTER
 10
3830.0
 20
-3812.9999999999968
 30
0.0
 11
3970.0
 21
-3812.9999999999968
 31
0.0
1001
ACDBBLOCKREPETAG
1070
     1
1071
       12
1005
1260B9
  0
CIRCLE
  5
1260BA
  8
OBJECT
 10
3900.0
 20
-3812.9999999999968
 30
0.0
 40
47.0
1001
ACDBBLOCKREPETAG
1070
     1
1071
       14
1005
1260BA
  0
ARC
  5
1260BB
  8
OBJECT
 10
3900.0
 20
-3812.9999999999968
 30
0.0
 40
55.0
 50
289.01126526008892
 51
250.98873473991111
1001
ACDBBLOCKREPETAG
1070
     1
1071
       15
1005
1260BB
  0
LINE
  5
1260BC
  8
OBJECT
 10
3882.0835271328319
 20
-3864.9999999999968
 30
0.0
 11
3917.9164728671672
 21
-3864.9999999999968
 31
0.0
1001
ACDBBLOCKREPETAG
1070
     1
1071
       16
1005
1260BC
  0
POINT
  5
1260BD
  8
DOTS
 10
3900.0
 20
-3864.9999999999968
 30
0.0
1001
ACDBBLOCKREPETAG
1070
     1
1071
       24
1005
1260BD
  0
LINE
  5
1260BE
  8
OBJECT
 10
3633.0
 20
-3757.9999999999959
 30
0.0
 11
3640.0
 21
-3757.9999999999959
 31
0.0
1001
ACDBBLOCKREPETAG
1070
     1
1071
       23
1005
1260BE
  0
LINE
  5
1260BF
  8
OBJECT
 10
3640.0
 20
-3757.9999999999959
 30
0.0
 11
3640.0
 21
-3864.9999999999968
 31
0.0
1001
ACDBBLOCKREPETAG
1070
     1
1071
       24
1005
1260BF
  0
LINE
  5
1260C0
  8
OBJECT
 10
3584.5
 20
-3759.5000000000618
 30
0.0
 11
3584.5
 21
-3862.4999999999968
 31
0.0
1001
ACDBBLOCKREPETAG
1070
     1
1071
       25
1005
1260C0
  0
ARC
  5
1260C1
  8
OBJECT
 10
3581.5
 20
-3759.5000000000618
 30
0.0
 40
3.0
 50
0.0
 51
90.0
1001
ACDBBLOCKREPETAG
1070
     1
1071
       26
1005
1260C1
  0
LINE
  5
1260C2
  8
OBJECT
 10
3633.0
 20
-3864.9999999999968
 30
0.0
 11
3633.0
 21
-3757.9999999999959
 31
0.0
1001
ACDBBLOCKREPETAG
1070
     1
1071
       27
1005
1260C2
  0
LINE
  5
1260C3
  8
CENTER
 10
3655.0
 20
-3812.9999999999968
 30
0.0
 11
3541.3449199130041
 21
-3813.0000000000618
 31
0.0
1001
ACDBBLOCKREPETAG
1070
     1
1071
       28
1005
1260C3
  0
LINE
  5
1260C4
  8
OBJECT
 10
3633.0
 20
-3760.9999999999968
 30
0.0
 11
3597.0
 21
-3760.9999999999968
 31
0.0
1001
ACDBBLOCKREPETAG
1070
     1
1071
       29
1005
1260C4
  0
LINE
  5
1260C5
  8
OBJECT
 10
3597.0
 20
-3760.9999999999968
 30
0.0
 11
3597.0
 21
-3864.9999999999968
 31
0.0
1001
ACDBBLOCKREPETAG
1070
     1
1071
       30
1005
1260C5
  0
LINE
  5
1260C6
  8
OBJECT
 10
3597.0
 20
-3864.9999999999968
 30
0.0
 11
3640.0
 21
-3864.9999999999968
 31
0.0
1001
ACDBBLOCKREPETAG
1070
     1
1071
       31
1005
1260C6
  0
LINE
  5
1260C7
  8
OBJECT
 10
3593.0
 20
-3765.4999999999968
 30
0.0
 11
3584.5
 21
-3765.4999999999968
 31
0.0
1001
ACDBBLOCKREPETAG
1070
     1
1071
       32
1005
1260C7
  0
LINE
  5
1260C8
  8
OBJECT
 10
3584.5
 20
-3860.4999999999959
 30
0.0
 11
3593.0
 21
-3860.4999999999959
 31
0.0
1001
ACDBBLOCKREPETAG
1070
     1
1071
       33
1005
1260C8
  0
LINE
  5
1260C9
  8
OBJECT
 10
3593.0
 20
-3860.4999999999959
 30
0.0
 11
3593.0
 21
-3765.4999999999968
 31
0.0
1001
ACDBBLOCKREPETAG
1070
     1
1071
       34
1005
1260C9
  0
LINE
  5
1260CA
  8
OBJECT
 10
3597.0
 20
-3760.9999999999968
 30
0.0
 11
3593.0
 21
-3765.4999999999968
 31
0.0
1001
ACDBBLOCKREPETAG
1070
     1
1071
       35
1005
1260CA
  0
LINE
  5
1260CB
  8
OBJECT
 10
3597.0
 20
-3864.9999999999968
 30
0.0
 11
3593.0
 21
-3860.4999999999959
 31
0.0
1001
ACDBBLOCKREPETAG
1070
     1
1071
       36
1005
1260CB
  0
LINE
  5
1260CC
  8
HIDDEN
 10
3588.0
 20
-3774.9999999999968
 30
0.0
 11
3588.0
 21
-3850.9999999999959
 31
0.0
1001
ACDBBLOCKREPETAG
1070
     1
1071
       37
1005
1260CC
  0
ARC
  5
1260CD
  8
OBJECT
 10
3664.8782728787742
 20
-3821.4095072612249
 30
0.0
 40
110.86635228309
 50
144.16342741928889
 51
163.04035380433169
1001
ACDBBLOCKREPETAG
1070
     1
1071
       38
1005
1260CD
  0
ARC
  5
1260CE
  8
OBJECT
 10
3617.1359887769072
 20
-3806.287749718445
 30
0.0
 40
60.791749880358971
 50
163.5472046522267
 51
179.72879698282679
1001
ACDBBLOCKREPETAG
1070
     1
1071
       39
1005
1260CE
  0
ARC
  5
1260CF
  8
OBJECT
 10
3617.1359956562478
 20
-3812.7122497598971
 30
0.0
 40
60.79175676209487
 50
180.2712034781452
 51
196.4527794605338
1001
ACDBBLOCKREPETAG
1070
     1
1071
       40
1005
1260CF
  0
ARC
  5
1260D0
  8
OBJECT
 10
3664.8782728787742
 20
-3797.5904927388328
 30
0.0
 40
110.8663522830916
 50
196.95964619566811
 51
215.83657258071111
1001
ACDBBLOCKREPETAG
1070
     1
1071
       41
1005
1260D0
  0
LINE
  5
1260D1
  8
OBJECT
 10
3556.3449199130041
 20
-3806.0000000000332
 30
0.0
 11
3556.3449199130041
 21
-3813.0000000000291
 31
0.0
1001
ACDBBLOCKREPETAG
1070
     1
1071
       42
1005
1260D1
  0
LINE
  5
1260D2
  8
OBJECT
 10
3574.9999999999991
 20
-3756.5000000000618
 30
0.0
 11
3581.5
 21
-3756.5000000000618
 31
0.0
1001
ACDBBLOCKREPETAG
1070
     1
1071
       43
1005
1260D2
  0
LINE
  5
1260D3
  8
OBJECT
 10
3574.9999999999991
 20
-3862.4999999999968
 30
0.0
 11
3584.5
 21
-3862.4999999999968
 31
0.0
1001
ACDBBLOCKREPETAG
1070
     1
1071
       44
1005
1260D3
  0
LINE
  5
1260D4
  8
OBJECT
 10
3633.0
 20
-3404.9999999999959
 30
0.0
 11
3640.0
 21
-3404.9999999999959
 31
0.0
1001
ACDBBLOCKREPETAG
1070
     1
1071
       20
1005
1260D4
  0
LINE
  5
1260D5
  8
OBJECT
 10
3640.0
 20
-3404.9999999999959
 30
0.0
 11
3640.0
 21
-3514.9999999999968
 31
0.0
1001
ACDBBLOCKREPETAG
1070
     1
1071
       21
1005
1260D5
  0
LINE
  5
1260D6
  8
OBJECT
 10
3640.0
 20
-3514.9999999999968
 30
0.0
 11
3633.0
 21
-3514.9999999999968
 31
0.0
1001
ACDBBLOCKREPETAG
1070
     1
1071
       22
1005
1260D6
  0
LINE
  5
1260D7
  8
OBJECT
 10
3633.0
 20
-3514.9999999999968
 30
0.0
 11
3633.0
 21
-3404.9999999999959
 31
0.0
1001
ACDBBLOCKREPETAG
1070
     1
1071
       23
1005
1260D7
  0
LINE
  5
1260D8
  8
CENTER
 10
3655.0
 20
-3459.9999999999968
 30
0.0
 11
3580.0
 21
-3459.9999999999968
 31
0.0
1001
ACDBBLOCKREPETAG
1070
     1
1071
       24
1005
1260D8
  0
LINE
  5
1260D9
  8
OBJECT
 10
3633.0
 20
-3407.9999999999959
 30
0.0
 11
3597.0
 21
-3407.9999999999959
 31
0.0
1001
ACDBBLOCKREPETAG
1070
     1
1071
       25
1005
1260D9
  0
LINE
  5
1260DA
  8
OBJECT
 10
3597.0
 20
-3407.9999999999959
 30
0.0
 11
3597.0
 21
-3511.9999999999959
 31
0.0
1001
ACDBBLOCKREPETAG
1070
     1
1071
       26
1005
1260DA
  0
LINE
  5
1260DB
  8
OBJECT
 10
3597.0
 20
-3511.9999999999959
 30
0.0
 11
3633.0
 21
-3511.9999999999959
 31
0.0
1001
ACDBBLOCKREPETAG
1070
     1
1071
       27
1005
1260DB
  0
LINE
  5
1260DC
  8
OBJECT
 10
3593.0
 20
-3412.4999999999959
 30
0.0
 11
3584.5
 21
-3412.4999999999959
 31
0.0
1001
ACDBBLOCKREPETAG
1070
     1
1071
       28
1005
1260DC
  0
LINE
  5
1260DD
  8
OBJECT
 10
3584.5
 20
-3507.4999999999968
 30
0.0
 11
3593.0
 21
-3507.4999999999968
 31
0.0
1001
ACDBBLOCKREPETAG
1070
     1
1071
       29
1005
1260DD
  0
LINE
  5
1260DE
  8
OBJECT
 10
3593.0
 20
-3507.4999999999968
 30
0.0
 11
3593.0
 21
-3412.4999999999959
 31
0.0
1001
ACDBBLOCKREPETAG
1070
     1
1071
       30
1005
1260DE
  0
LINE
  5
1260DF
  8
OBJECT
 10
3597.0
 20
-3407.9999999999959
 30
0.0
 11
3593.0
 21
-3412.4999999999959
 31
0.0
1001
ACDBBLOCKREPETAG
1070
     1
1071
       31
1005
1260DF
  0
LINE
  5
1260E0
  8
OBJECT
 10
3597.0
 20
-3511.9999999999959
 30
0.0
 11
3593.0
 21
-3507.4999999999968
 31
0.0
1001
ACDBBLOCKREPETAG
1070
     1
1071
       32
1005
1260E0
  0
LINE
  5
1260E1
  8
OBJECT
 10
3584.4999999999982
 20
-3509.4999999999959
 30
0.0
 11
3584.5
 21
-3410.4999999999959
 31
0.0
1001
ACDBBLOCKREPETAG
1070
     1
1071
       33
1005
1260E1
  0
LINE
  5
1260E2
  8
HIDDEN
 10
3588.0
 20
-3421.9999999999968
 30
0.0
 11
3588.0
 21
-3497.9999999999959
 31
0.0
1001
ACDBBLOCKREPETAG
1070
     1
1071
       34
1005
1260E2
  0
LINE
  5
1260E3
  8
OBJECT
 10
3584.5
 20
-3410.4999999999959
 30
0.0
 11
3556.3449199129791
 21
-3410.4999999999959
 31
0.0
1001
ACDBBLOCKREPETAG
1070
     1
1071
       35
1005
1260E3
  0
LINE
  5
1260E4
  8
OBJECT
 10
3584.4999999999982
 20
-3509.4999999999959
 30
0.0
 11
3556.3449199129791
 21
-3509.4999999999959
 31
0.0
1001
ACDBBLOCKREPETAG
1070
     1
1071
       36
1005
1260E4
  0
LINE
  5
1260E5
  8
CENTER
 10
2838.0
 20
-3820.9999999999968
 30
0.0
 11
2962.0
 21
-3820.9999999999968
 31
0.0
1001
ACDBBLOCKREPETAG
1070
     1
1071
        0
1005
1260E5
  0
CIRCLE
  5
1260E6
  8
OBJECT
 10
2900.0
 20
-3820.9999999999968
 30
0.0
 40
28.0
1001
ACDBBLOCKREPETAG
1070
     1
1071
        2
1005
1260E6
  0
CIRCLE
  5
1260E7
  8
OBJECT
 10
2900.0
 20
-3820.9999999999968
 30
0.0
 40
39.0
1001
ACDBBLOCKREPETAG
1070
     1
1071
        3
1005
1260E7
  0
ARC
  5
1260E8
  8
OBJECT
 10
2900.0
 20
-3820.9999999999968
 30
0.0
 40
47.0
 50
290.58196921144412
 51
249.41803078855591
1001
ACDBBLOCKREPETAG
1070
     1
1071
        4
1005
1260E8
  0
LINE
  5
1260E9
  8
OBJECT
 10
2883.4772883581418
 20
-3864.9999999999968
 30
0.0
 11
2916.5227116418569
 21
-3864.9999999999968
 31
0.0
1001
ACDBBLOCKREPETAG
1070
     1
1071
        5
1005
1260E9
  0
ARC
  5
1260EA
  8
OBJECT
 10
2900.0
 20
-3805.9999999999932
 30
0.0
 40
49.5
 50
0.0
 51
180.0
1001
ACDBBLOCKREPETAG
1070
     1
1071
        6
1005
1260EA
  0
LINE
  5
1260EB
  8
OBJECT
 10
2850.5000000000032
 20
-3805.9999999999932
 30
0.0
 11
2850.5000000000032
 21
-3812.9999999999968
 31
0.0
1001
ACDBBLOCKREPETAG
1070
     1
1071
        7
1005
1260EB
  0
LINE
  5
1260EC
  8
OBJECT
 10
2949.5000000000068
 20
-3805.9999999999932
 30
0.0
 11
2949.5000000000068
 21
-3812.9999999999968
 31
0.0
1001
ACDBBLOCKREPETAG
1070
     1
1071
        8
1005
1260EC
  0
ARC
  5
1260ED
  8
OBJECT
 10
2900.0
 20
-3812.9999999999968
 30
0.0
 40
49.5
 50
180.0
 51
202.66956385104879
1001
ACDBBLOCKREPETAG
1070
     1
1071
        9
1005
1260ED
  0
ARC
  5
1260EE
  8
OBJECT
 10
2900.0
 20
-3812.9999999999968
 30
0.0
 40
49.5
 50
337.33043614895121
 51
0.0
1001
ACDBBLOCKREPETAG
1070
     1
1071
       10
1005
1260EE
  0
POINT
  5
1260EF
  8
DOTS
 10
2900.0
 20
-3864.9999999999968
 30
0.0
1001
ACDBBLOCKREPETAG
1070
     1
1071
       25
1005
1260EF
  0
LINE
  5
1260F0
  8
OBJECT
 10
2633.0
 20
-3773.9999999999968
 30
0.0
 11
2640.0
 21
-3773.9999999999968
 31
0.0
1001
ACDBBLOCKREPETAG
1070
     1
1071
        0
1005
1260F0
  0
LINE
  5
1260F1
  8
OBJECT
 10
2640.0
 20
-3773.9999999999968
 30
0.0
 11
2640.0
 21
-3864.9999999999968
 31
0.0
1001
ACDBBLOCKREPETAG
1070
     1
1071
        1
1005
1260F1
  0
LINE
  5
1260F2
  8
OBJECT
 10
2584.5
 20
-3759.5000000000618
 30
0.0
 11
2584.5
 21
-3862.4999999999968
 31
0.0
1001
ACDBBLOCKREPETAG
1070
     1
1071
        2
1005
1260F2
  0
ARC
  5
1260F3
  8
OBJECT
 10
2581.5
 20
-3759.5000000000618
 30
0.0
 40
3.0
 50
0.0
 51
90.0
1001
ACDBBLOCKREPETAG
1070
     1
1071
        3
1005
1260F3
  0
LINE
  5
1260F4
  8
OBJECT
 10
2633.0
 20
-3864.9999999999968
 30
0.0
 11
2633.0
 21
-3773.9999999999968
 31
0.0
1001
ACDBBLOCKREPETAG
1070
     1
1071
        4
1005
1260F4
  0
LINE
  5
1260F5
  8
CENTER
 10
2655.0
 20
-3820.9999999999968
 30
0.0
 11
2541.911823713584
 21
-3820.9999999999968
 31
0.0
1001
ACDBBLOCKREPETAG
1070
     1
1071
        5
1005
1260F5
  0
LINE
  5
1260F6
  8
OBJECT
 10
2633.0
 20
-3776.9999999999968
 30
0.0
 11
2596.9999999999991
 21
-3776.9999999999968
 31
0.0
1001
ACDBBLOCKREPETAG
1070
     1
1071
        6
1005
1260F6
  0
LINE
  5
1260F7
  8
OBJECT
 10
2596.9999999999991
 20
-3776.9999999999968
 30
0.0
 11
2596.9999999999991
 21
-3864.9999999999968
 31
0.0
1001
ACDBBLOCKREPETAG
1070
     1
1071
        7
1005
1260F7
  0
LINE
  5
1260F8
  8
OBJECT
 10
2596.9999999999991
 20
-3864.9999999999968
 30
0.0
 11
2640.0
 21
-3864.9999999999968
 31
0.0
1001
ACDBBLOCKREPETAG
1070
     1
1071
        8
1005
1260F8
  0
LINE
  5
1260F9
  8
OBJECT
 10
2593.0
 20
-3781.4999999999959
 30
0.0
 11
2584.5
 21
-3781.4999999999959
 31
0.0
1001
ACDBBLOCKREPETAG
1070
     1
1071
        9
1005
1260F9
  0
LINE
  5
1260FA
  8
OBJECT
 10
2584.5
 20
-3860.4999999999959
 30
0.0
 11
2593.0
 21
-3860.4999999999959
 31
0.0
1001
ACDBBLOCKREPETAG
1070
     1
1071
       10
1005
1260FA
  0
LINE
  5
1260FB
  8
OBJECT
 10
2593.0
 20
-3860.4999999999959
 30
0.0
 11
2593.0
 21
-3781.4999999999959
 31
0.0
1001
ACDBBLOCKREPETAG
1070
     1
1071
       11
1005
1260FB
  0
LINE
  5
1260FC
  8
OBJECT
 10
2596.9999999999991
 20
-3776.9999999999968
 30
0.0
 11
2593.0
 21
-3781.4999999999959
 31
0.0
1001
ACDBBLOCKREPETAG
1070
     1
1071
       12
1005
1260FC
  0
LINE
  5
1260FD
  8
OBJECT
 10
2596.9999999999991
 20
-3864.9999999999968
 30
0.0
 11
2593.0
 21
-3860.4999999999959
 31
0.0
1001
ACDBBLOCKREPETAG
1070
     1
1071
       13
1005
1260FD
  0
LINE
  5
1260FE
  8
HIDDEN
 10
2588.0
 20
-3790.9999999999959
 30
0.0
 11
2588.0
 21
-3850.9999999999959
 31
0.0
1001
ACDBBLOCKREPETAG
1070
     1
1071
       14
1005
1260FE
  0
ARC
  5
1260FF
  8
OBJECT
 10
2664.8782728787751
 20
-3821.4095072612249
 30
0.0
 40
110.86635228309
 50
144.1634274191434
 51
163.04035380433169
1001
ACDBBLOCKREPETAG
1070
     1
1071
       15
1005
1260FF
  0
ARC
  5
126100
  8
OBJECT
 10
2617.1359887769072
 20
-3806.287749718445
 30
0.0
 40
60.791749880358971
 50
163.5472046522267
 51
179.72879698282679
1001
ACDBBLOCKREPETAG
1070
     1
1071
       16
1005
126100
  0
ARC
  5
126101
  8
OBJECT
 10
2617.1359956562478
 20
-3812.7122497598971
 30
0.0
 40
60.79175676209487
 50
180.2712034781452
 51
196.4527794605338
1001
ACDBBLOCKREPETAG
1070
     1
1071
       17
1005
126101
  0
ARC
  5
126102
  8
OBJECT
 10
2664.8782728787751
 20
-3797.5904927388328
 30
0.0
 40
110.8663522830916
 50
196.95964619566811
 51
215.8365725808566
1001
ACDBBLOCKREPETAG
1070
     1
1071
       18
1005
126102
  0
LINE
  5
126103
  8
OBJECT
 10
2556.3449199130041
 20
-3806.0000000000332
 30
0.0
 11
2556.3449199130041
 21
-3813.0000000000291
 31
0.0
1001
ACDBBLOCKREPETAG
1070
     1
1071
       19
1005
126103
  0
LINE
  5
126104
  8
OBJECT
 10
2575.0
 20
-3756.5000000000618
 30
0.0
 11
2581.5
 21
-3756.5000000000618
 31
0.0
1001
ACDBBLOCKREPETAG
1070
     1
1071
       20
1005
126104
  0
LINE
  5
126105
  8
OBJECT
 10
2575.0
 20
-3862.4999999999968
 30
0.0
 11
2584.5
 21
-3862.4999999999968
 31
0.0
1001
ACDBBLOCKREPETAG
1070
     1
1071
       21
1005
126105
  0
LINE
  5
126106
  8
OBJECT
 10
2633.0
 20
-3412.9999999999968
 30
0.0
 11
2640.0
 21
-3412.9999999999968
 31
0.0
1001
ACDBBLOCKREPETAG
1070
     1
1071
        0
1005
126106
  0
LINE
  5
126107
  8
OBJECT
 10
2640.0
 20
-3412.9999999999968
 30
0.0
 11
2640.0
 21
-3506.9999999999968
 31
0.0
1001
ACDBBLOCKREPETAG
1070
     1
1071
        1
1005
126107
  0
LINE
  5
126108
  8
OBJECT
 10
2640.0
 20
-3506.9999999999968
 30
0.0
 11
2633.0
 21
-3506.9999999999968
 31
0.0
1001
ACDBBLOCKREPETAG
1070
     1
1071
        2
1005
126108
  0
LINE
  5
126109
  8
OBJECT
 10
2633.0
 20
-3506.9999999999968
 30
0.0
 11
2633.0
 21
-3412.9999999999968
 31
0.0
1001
ACDBBLOCKREPETAG
1070
     1
1071
        3
1005
126109
  0
LINE
  5
12610A
  8
CENTER
 10
2655.0
 20
-3459.9999999999968
 30
0.0
 11
2580.0
 21
-3459.9999999999968
 31
0.0
1001
ACDBBLOCKREPETAG
1070
     1
1071
        4
1005
12610A
  0
LINE
  5
12610B
  8
OBJECT
 10
2633.0
 20
-3415.9999999999959
 30
0.0
 11
2596.9999999999991
 21
-3415.9999999999959
 31
0.0
1001
ACDBBLOCKREPETAG
1070
     1
1071
        5
1005
12610B
  0
LINE
  5
12610C
  8
OBJECT
 10
2596.9999999999991
 20
-3415.9999999999959
 30
0.0
 11
2596.9999999999991
 21
-3503.9999999999959
 31
0.0
1001
ACDBBLOCKREPETAG
1070
     1
1071
        6
1005
12610C
  0
LINE
  5
12610D
  8
OBJECT
 10
2596.9999999999991
 20
-3503.9999999999959
 30
0.0
 11
2633.0
 21
-3503.9999999999959
 31
0.0
1001
ACDBBLOCKREPETAG
1070
     1
1071
        7
1005
12610D
  0
LINE
  5
12610E
  8
OBJECT
 10
2593.0
 20
-3420.4999999999959
 30
0.0
 11
2584.5
 21
-3420.4999999999959
 31
0.0
1001
ACDBBLOCKREPETAG
1070
     1
1071
        8
1005
12610E
  0
LINE
  5
12610F
  8
OBJECT
 10
2584.5
 20
-3499.4999999999959
 30
0.0
 11
2593.0
 21
-3499.4999999999959
 31
0.0
1001
ACDBBLOCKREPETAG
1070
     1
1071
        9
1005
12610F
  0
LINE
  5
126110
  8
OBJECT
 10
2593.0
 20
-3499.4999999999959
 30
0.0
 11
2593.0
 21
-3420.4999999999959
 31
0.0
1001
ACDBBLOCKREPETAG
1070
     1
1071
       10
1005
126110
  0
LINE
  5
126111
  8
OBJECT
 10
2596.9999999999991
 20
-3415.9999999999959
 30
0.0
 11
2593.0
 21
-3420.4999999999959
 31
0.0
1001
ACDBBLOCKREPETAG
1070
     1
1071
       11
1005
126111
  0
LINE
  5
126112
  8
OBJECT
 10
2596.9999999999991
 20
-3503.9999999999959
 30
0.0
 11
2593.0
 21
-3499.4999999999959
 31
0.0
1001
ACDBBLOCKREPETAG
1070
     1
1071
       12
1005
126112
  0
LINE
  5
126113
  8
OBJECT
 10
2584.4999999999991
 20
-3506.4999999999959
 30
0.0
 11
2584.5
 21
-3413.4999999999959
 31
0.0
1001
ACDBBLOCKREPETAG
1070
     1
1071
       13
1005
126113
  0
ARC
  5
126114
  8
OBJECT
 10
2581.5
 20
-3413.4999999999959
 30
0.0
 40
3.0
 50
0.0
 51
90.0
1001
ACDBBLOCKREPETAG
1070
     1
1071
       14
1005
126114
  0
LINE
  5
126115
  8
HIDDEN
 10
2588.0
 20
-3429.9999999999959
 30
0.0
 11
2588.0
 21
-3489.9999999999968
 31
0.0
1001
ACDBBLOCKREPETAG
1070
     1
1071
       15
1005
126115
  0
LINE
  5
126116
  8
OBJECT
 10
2581.5
 20
-3410.4999999999959
 30
0.0
 11
2556.3449199129791
 21
-3410.4999999999959
 31
0.0
1001
ACDBBLOCKREPETAG
1070
     1
1071
       17
1005
126116
  0
LINE
  5
126117
  8
OBJECT
 10
2581.4999999999991
 20
-3509.4999999999959
 30
0.0
 11
2556.3449199129791
 21
-3509.4999999999959
 31
0.0
1001
ACDBBLOCKREPETAG
1070
     1
1071
       18
1005
126117
  0
ARC
  5
126118
  8
OBJECT
 10
2581.4999999999991
 20
-3506.4999999999959
 30
0.0
 40
3.0
 50
270.0
 51
0.0
1001
ACDBBLOCKREPETAG
1070
     1
1071
       19
1005
126118
  0
TEXT
  5
126119
  8
SLIM
 10
2032.5
 20
-1708.999999999998
 30
0.0
 40
28.0
  1
※ 対応P寸法　　190＜200＞～340（10mm単位。＜＞内は下枝75の場合）
 41
0.75
  0
LINE
  5
12611A
  8
CENTER
 10
5077.0
 20
-695.99999999999432
 30
0.0
 11
4923.0
 21
-695.99999999999432
 31
0.0
1001
ACDBBLOCKREPETAG
1070
     1
1071
       17
1005
12611A
  0
CIRCLE
  5
12611B
  8
OBJECT
 10
5000.0
 20
-695.99999999999432
 30
0.0
 40
41.5
1001
ACDBBLOCKREPETAG
1070
     1
1071
       19
1005
12611B
  0
CIRCLE
  5
12611C
  8
OBJECT
 10
5000.0
 20
-695.99999999999432
 30
0.0
 40
54.0
1001
ACDBBLOCKREPETAG
1070
     1
1071
       20
1005
12611C
  0
ARC
  5
12611D
  8
OBJECT
 10
5000.0
 20
-695.99999999999432
 30
0.0
 40
62.0
 50
287.89655112920718
 51
252.10344887079279
1001
ACDBBLOCKREPETAG
1070
     1
1071
       21
1005
12611D
  0
LINE
  5
12611E
  8
OBJECT
 10
4980.947441116743
 20
-754.9999999999942
 30
0.0
 11
5019.052558883257
 21
-754.9999999999942
 31
0.0
1001
ACDBBLOCKREPETAG
1070
     1
1071
       22
1005
12611E
  0
LINE
  5
12611F
  8
OBJECT
 10
4923.0
 20
-570.99999999999432
 30
0.0
 11
4923.0
 21
-549.99999999999432
 31
0.0
1001
ACDBBLOCKREPETAG
1070
     1
1071
       20
1005
12611F
  0
LINE
  5
126120
  8
OBJECT
 10
4923.0
 20
-549.99999999999432
 30
0.0
 11
5077.0
 21
-549.99999999999432
 31
0.0
1001
ACDBBLOCKREPETAG
1070
     1
1071
       21
1005
126120
  0
LINE
  5
126121
  8
HIDDEN
 10
4943.0
 20
-619.99999999999432
 30
0.0
 11
5057.0
 21
-619.99999999999432
 31
0.0
1001
ACDBBLOCKREPETAG
1070
     1
1071
       22
1005
126121
  0
LINE
  5
126122
  8
OBJECT
 10
5077.0
 20
-549.99999999999432
 30
0.0
 11
5077.0
 21
-570.99999999999432
 31
0.0
1001
ACDBBLOCKREPETAG
1070
     1
1071
       23
1005
126122
  0
LINE
  5
126123
  8
OBJECT
 10
5077.0
 20
-570.99999999999432
 30
0.0
 11
4923.0
 21
-570.99999999999432
 31
0.0
1001
ACDBBLOCKREPETAG
1070
     1
1071
       24
1005
126123
  0
LINE
  5
126124
  8
CENTER
 10
5000.0
 20
-534.99999999999432
 30
0.0
 11
5000.0
 21
-769.9999999999942
 31
0.0
1001
ACDBBLOCKREPETAG
1070
     1
1071
       25
1005
126124
  0
LINE
  5
126125
  8
OBJECT
 10
4925.0
 20
-633.99999999999432
 30
0.0
 11
4925.0
 21
-757.9999999999942
 31
0.0
1001
ACDBBLOCKREPETAG
1070
     1
1071
       26
1005
126125
  0
LINE
  5
126126
  8
OBJECT
 10
4928.0
 20
-570.99999999999432
 30
0.0
 11
4928.0
 21
-633.99999999999432
 31
0.0
1001
ACDBBLOCKREPETAG
1070
     1
1071
       27
1005
126126
  0
LINE
  5
126127
  8
OBJECT
 10
5072.0
 20
-633.99999999999432
 30
0.0
 11
5072.0
 21
-570.99999999999432
 31
0.0
1001
ACDBBLOCKREPETAG
1070
     1
1071
       28
1005
126127
  0
LINE
  5
126128
  8
OBJECT
 10
4920.0
 20
-757.9999999999942
 30
0.0
 11
5080.0
 21
-757.9999999999942
 31
0.0
1001
ACDBBLOCKREPETAG
1070
     1
1071
       29
1005
126128
  0
LINE
  5
126129
  8
OBJECT
 10
5075.0
 20
-633.99999999999432
 30
0.0
 11
4925.0
 21
-633.99999999999432
 31
0.0
1001
ACDBBLOCKREPETAG
1070
     1
1071
       30
1005
126129
  0
LINE
  5
12612A
  8
OBJECT
 10
4920.0
 20
-757.9999999999942
 30
0.0
 11
4920.0
 21
-769.9999999999942
 31
0.0
1001
ACDBBLOCKREPETAG
1070
     1
1071
       31
1005
12612A
  0
LINE
  5
12612B
  8
OBJECT
 10
4920.0
 20
-769.9999999999942
 30
0.0
 11
5080.0
 21
-769.9999999999942
 31
0.0
1001
ACDBBLOCKREPETAG
1070
     1
1071
       32
1005
12612B
  0
LINE
  5
12612C
  8
OBJECT
 10
5080.0
 20
-769.9999999999942
 30
0.0
 11
5080.0
 21
-757.9999999999942
 31
0.0
1001
ACDBBLOCKREPETAG
1070
     1
1071
       33
1005
12612C
  0
LINE
  5
12612D
  8
OBJECT
 10
5075.0
 20
-633.99999999999432
 30
0.0
 11
5075.0
 21
-757.9999999999942
 31
0.0
1001
ACDBBLOCKREPETAG
1070
     1
1071
       34
1005
12612D
  0
LINE
  5
12612E
  8
OBJECT
 10
4423.0
 20
-570.99999999999432
 30
0.0
 11
4423.0
 21
-549.99999999999432
 31
0.0
1001
ACDBBLOCKREPETAG
1070
     1
1071
        0
1005
12612E
  0
LINE
  5
12612F
  8
OBJECT
 10
4423.0
 20
-549.99999999999432
 30
0.0
 11
4577.0
 21
-549.99999999999432
 31
0.0
1001
ACDBBLOCKREPETAG
1070
     1
1071
        1
1005
12612F
  0
LINE
  5
126130
  8
HIDDEN
 10
4443.0
 20
-619.99999999999432
 30
0.0
 11
4557.0
 21
-619.99999999999432
 31
0.0
1001
ACDBBLOCKREPETAG
1070
     1
1071
        2
1005
126130
  0
LINE
  5
126131
  8
OBJECT
 10
4577.0
 20
-549.99999999999432
 30
0.0
 11
4577.0
 21
-570.99999999999432
 31
0.0
1001
ACDBBLOCKREPETAG
1070
     1
1071
        3
1005
126131
  0
LINE
  5
126132
  8
OBJECT
 10
4577.0
 20
-570.99999999999432
 30
0.0
 11
4423.0
 21
-570.99999999999432
 31
0.0
1001
ACDBBLOCKREPETAG
1070
     1
1071
        4
1005
126132
  0
LINE
  5
126133
  8
CENTER
 10
4500.0
 20
-534.99999999999432
 30
0.0
 11
4500.0
 21
-769.9999999999942
 31
0.0
1001
ACDBBLOCKREPETAG
1070
     1
1071
        5
1005
126133
  0
LINE
  5
126134
  8
OBJECT
 10
4425.0
 20
-633.99999999999432
 30
0.0
 11
4425.0
 21
-757.9999999999942
 31
0.0
1001
ACDBBLOCKREPETAG
1070
     1
1071
        6
1005
126134
  0
LINE
  5
126135
  8
OBJECT
 10
4428.0
 20
-570.99999999999432
 30
0.0
 11
4428.0
 21
-633.99999999999432
 31
0.0
1001
ACDBBLOCKREPETAG
1070
     1
1071
        7
1005
126135
  0
LINE
  5
126136
  8
OBJECT
 10
4572.0
 20
-633.99999999999432
 30
0.0
 11
4572.0
 21
-570.99999999999432
 31
0.0
1001
ACDBBLOCKREPETAG
1070
     1
1071
        8
1005
126136
  0
LINE
  5
126137
  8
OBJECT
 10
4420.0
 20
-757.9999999999942
 30
0.0
 11
4580.0
 21
-757.9999999999942
 31
0.0
1001
ACDBBLOCKREPETAG
1070
     1
1071
        9
1005
126137
  0
LINE
  5
126138
  8
OBJECT
 10
4580.0
 20
-633.99999999999432
 30
0.0
 11
4425.0
 21
-633.99999999999432
 31
0.0
1001
ACDBBLOCKREPETAG
1070
     1
1071
       10
1005
126138
  0
LINE
  5
126139
  8
OBJECT
 10
4420.0
 20
-757.9999999999942
 30
0.0
 11
4420.0
 21
-769.9999999999942
 31
0.0
1001
ACDBBLOCKREPETAG
1070
     1
1071
       11
1005
126139
  0
LINE
  5
12613A
  8
OBJECT
 10
4420.0
 20
-769.9999999999942
 30
0.0
 11
4580.0
 21
-769.9999999999942
 31
0.0
1001
ACDBBLOCKREPETAG
1070
     1
1071
       12
1005
12613A
  0
LINE
  5
12613B
  8
OBJECT
 10
4580.0
 20
-769.9999999999942
 30
0.0
 11
4580.0
 21
-757.9999999999942
 31
0.0
1001
ACDBBLOCKREPETAG
1070
     1
1071
       13
1005
12613B
  0
ARC
  5
12613C
  8
OBJECT
 10
4700.6872746716726
 20
-749.40809941010195
 30
0.0
 40
170.6350503965856
 50
137.44134459184301
 51
149.91949581337221
1001
ACDBBLOCKREPETAG
1070
     1
1071
       15
1005
12613C
  0
ARC
  5
12613D
  8
OBJECT
 10
4618.8455987040506
 20
-705.88272669535922
 30
0.0
 40
78.072222021763665
 50
147.4551531037684
 51
164.66365997718671
1001
ACDBBLOCKREPETAG
1070
     1
1071
       16
1005
12613D
  0
ARC
  5
12613E
  8
OBJECT
 10
4585.7554349608718
 20
-695.99999999999432
 30
0.0
 40
43.55353926885617
 50
165.6884523008477
 51
194.3115476991523
1001
ACDBBLOCKREPETAG
1070
     1
1071
       17
1005
12613E
  0
ARC
  5
12613F
  8
OBJECT
 10
4700.6872746716726
 20
-642.59190058988645
 30
0.0
 40
170.6350503965856
 50
210.08050418662771
 51
222.55865540815699
1001
ACDBBLOCKREPETAG
1070
     1
1071
       18
1005
12613F
  0
ARC
  5
126140
  8
OBJECT
 10
4618.8455987040506
 20
-686.11727330462952
 30
0.0
 40
78.072222021763665
 50
195.3363400228132
 51
212.5448468962316
1001
ACDBBLOCKREPETAG
1070
     1
1071
       19
1005
126140
  0
LINE
  5
126141
  8
OBJECT
 10
4633.0
 20
-634.0
 30
0.0
 11
4640.0
 21
-634.0
 31
0.0
1001
ACDBBLOCKREPETAG
1070
     1
1071
       45
1005
126141
  0
LINE
  5
126142
  8
OBJECT
 10
4640.0
 20
-634.0
 30
0.0
 11
4640.0
 21
-755.0
 31
0.0
1001
ACDBBLOCKREPETAG
1070
     1
1071
       46
1005
126142
  0
LINE
  5
126143
  8
OBJECT
 10
4633.0
 20
-755.0
 30
0.0
 11
4633.0
 21
-634.0
 31
0.0
1001
ACDBBLOCKREPETAG
1070
     1
1071
       47
1005
126143
  0
LINE
  5
126144
  8
CENTER
 10
4655.0
 20
-696.0
 30
0.0
 11
4571.0
 21
-696.0
 31
0.0
1001
ACDBBLOCKREPETAG
1070
     1
1071
       48
1005
126144
  0
LINE
  5
126145
  8
OBJECT
 10
4633.0
 20
-637.0
 30
0.0
 11
4597.0
 21
-637.0
 31
0.0
1001
ACDBBLOCKREPETAG
1070
     1
1071
       49
1005
126145
  0
LINE
  5
126146
  8
OBJECT
 10
4597.0
 20
-637.0
 30
0.0
 11
4597.0
 21
-755.0
 31
0.0
1001
ACDBBLOCKREPETAG
1070
     1
1071
       50
1005
126146
  0
LINE
  5
126147
  8
OBJECT
 10
4597.0
 20
-755.0
 30
0.0
 11
4640.0
 21
-755.0
 31
0.0
1001
ACDBBLOCKREPETAG
1070
     1
1071
       51
1005
126147
  0
LINE
  5
126148
  8
OBJECT
 10
4593.0
 20
-641.5
 30
0.0
 11
4586.0
 21
-641.5
 31
0.0
1001
ACDBBLOCKREPETAG
1070
     1
1071
       52
1005
126148
  0
LINE
  5
126149
  8
OBJECT
 10
4586.0
 20
-750.49999999999989
 30
0.0
 11
4593.0
 21
-750.49999999999989
 31
0.0
1001
ACDBBLOCKREPETAG
1070
     1
1071
       53
1005
126149
  0
LINE
  5
12614A
  8
OBJECT
 10
4593.0
 20
-750.49999999999989
 30
0.0
 11
4593.0
 21
-641.5
 31
0.0
1001
ACDBBLOCKREPETAG
1070
     1
1071
       54
1005
12614A
  0
LINE
  5
12614B
  8
OBJECT
 10
4597.0
 20
-637.0
 30
0.0
 11
4593.0
 21
-641.5
 31
0.0
1001
ACDBBLOCKREPETAG
1070
     1
1071
       55
1005
12614B
  0
LINE
  5
12614C
  8
OBJECT
 10
4597.0
 20
-755.0
 30
0.0
 11
4593.0
 21
-750.49999999999989
 31
0.0
1001
ACDBBLOCKREPETAG
1070
     1
1071
       56
1005
12614C
  0
LINE
  5
12614D
  8
OBJECT
 10
4583.0
 20
-634.0
 30
0.0
 11
4580.0
 21
-634.0
 31
0.0
1001
ACDBBLOCKREPETAG
1070
     1
1071
       57
1005
12614D
  0
ARC
  5
12614E
  8
OBJECT
 10
4583.0
 20
-637.0
 30
0.0
 40
3.0
 50
0.0
 51
90.0
1001
ACDBBLOCKREPETAG
1070
     1
1071
       58
1005
12614E
  0
LINE
  5
12614F
  8
OBJECT
 10
4580.0
 20
-758.0
 30
0.0
 11
4583.0
 21
-758.0
 31
0.0
1001
ACDBBLOCKREPETAG
1070
     1
1071
       59
1005
12614F
  0
ARC
  5
126150
  8
OBJECT
 10
4583.0
 20
-755.0
 30
0.0
 40
3.0
 50
270.0
 51
0.0
1001
ACDBBLOCKREPETAG
1070
     1
1071
       60
1005
126150
  0
LINE
  5
126151
  8
OBJECT
 10
4586.0
 20
-755.0
 30
0.0
 11
4586.0
 21
-637.0
 31
0.0
1001
ACDBBLOCKREPETAG
1070
     1
1071
       61
1005
126151
  0
LINE
  5
126152
  8
HIDDEN
 10
4588.0
 20
-651.5
 30
0.0
 11
4588.0
 21
-740.5
 31
0.0
1001
ACDBBLOCKREPETAG
1070
     1
1071
       63
1005
126152
  0
LINE
  5
126153
  8
CENTER
 10
3077.0
 20
-695.99999999999432
 30
0.0
 11
2923.0
 21
-695.99999999999432
 31
0.0
1001
ACDBBLOCKREPETAG
1070
     1
1071
       17
1005
126153
  0
CIRCLE
  5
126154
  8
OBJECT
 10
3000.0
 20
-695.99999999999432
 30
0.0
 40
41.5
1001
ACDBBLOCKREPETAG
1070
     1
1071
       19
1005
126154
  0
CIRCLE
  5
126155
  8
OBJECT
 10
3000.0
 20
-695.99999999999432
 30
0.0
 40
54.0
1001
ACDBBLOCKREPETAG
1070
     1
1071
       20
1005
126155
  0
ARC
  5
126156
  8
OBJECT
 10
3000.0
 20
-695.99999999999432
 30
0.0
 40
62.0
 50
287.89655112920718
 51
252.10344887079279
1001
ACDBBLOCKREPETAG
1070
     1
1071
       21
1005
126156
  0
LINE
  5
126157
  8
OBJECT
 10
2980.947441116743
 20
-754.9999999999942
 30
0.0
 11
3019.052558883257
 21
-754.9999999999942
 31
0.0
1001
ACDBBLOCKREPETAG
1070
     1
1071
       22
1005
126157
  0
LINE
  5
126158
  8
OBJECT
 10
2923.0
 20
-570.99999999999432
 30
0.0
 11
2923.0
 21
-549.99999999999432
 31
0.0
1001
ACDBBLOCKREPETAG
1070
     1
1071
       20
1005
126158
  0
LINE
  5
126159
  8
OBJECT
 10
2923.0
 20
-549.99999999999432
 30
0.0
 11
3077.0
 21
-549.99999999999432
 31
0.0
1001
ACDBBLOCKREPETAG
1070
     1
1071
       21
1005
126159
  0
LINE
  5
12615A
  8
HIDDEN
 10
2943.0
 20
-619.99999999999432
 30
0.0
 11
3057.0
 21
-619.99999999999432
 31
0.0
1001
ACDBBLOCKREPETAG
1070
     1
1071
       22
1005
12615A
  0
LINE
  5
12615B
  8
OBJECT
 10
3077.0
 20
-549.99999999999432
 30
0.0
 11
3077.0
 21
-570.99999999999432
 31
0.0
1001
ACDBBLOCKREPETAG
1070
     1
1071
       23
1005
12615B
  0
LINE
  5
12615C
  8
OBJECT
 10
3077.0
 20
-570.99999999999432
 30
0.0
 11
2923.0
 21
-570.99999999999432
 31
0.0
1001
ACDBBLOCKREPETAG
1070
     1
1071
       24
1005
12615C
  0
LINE
  5
12615D
  8
CENTER
 10
3000.0
 20
-534.99999999999432
 30
0.0
 11
3000.0
 21
-769.9999999999942
 31
0.0
1001
ACDBBLOCKREPETAG
1070
     1
1071
       25
1005
12615D
  0
LINE
  5
12615E
  8
OBJECT
 10
2925.0
 20
-633.99999999999432
 30
0.0
 11
2925.0
 21
-757.9999999999942
 31
0.0
1001
ACDBBLOCKREPETAG
1070
     1
1071
       26
1005
12615E
  0
LINE
  5
12615F
  8
OBJECT
 10
2928.0
 20
-570.99999999999432
 30
0.0
 11
2928.0
 21
-633.99999999999432
 31
0.0
1001
ACDBBLOCKREPETAG
1070
     1
1071
       27
1005
12615F
  0
LINE
  5
126160
  8
OBJECT
 10
3072.0
 20
-633.99999999999432
 30
0.0
 11
3072.0
 21
-570.99999999999432
 31
0.0
1001
ACDBBLOCKREPETAG
1070
     1
1071
       28
1005
126160
  0
LINE
  5
126161
  8
OBJECT
 10
2920.0
 20
-757.9999999999942
 30
0.0
 11
3080.0
 21
-757.9999999999942
 31
0.0
1001
ACDBBLOCKREPETAG
1070
     1
1071
       29
1005
126161
  0
LINE
  5
126162
  8
OBJECT
 10
3075.0
 20
-633.99999999999432
 30
0.0
 11
2925.0
 21
-633.99999999999432
 31
0.0
1001
ACDBBLOCKREPETAG
1070
     1
1071
       30
1005
126162
  0
LINE
  5
126163
  8
OBJECT
 10
2920.0
 20
-757.9999999999942
 30
0.0
 11
2920.0
 21
-769.9999999999942
 31
0.0
1001
ACDBBLOCKREPETAG
1070
     1
1071
       31
1005
126163
  0
LINE
  5
126164
  8
OBJECT
 10
2920.0
 20
-769.9999999999942
 30
0.0
 11
3080.0
 21
-769.9999999999942
 31
0.0
1001
ACDBBLOCKREPETAG
1070
     1
1071
       32
1005
126164
  0
LINE
  5
126165
  8
OBJECT
 10
3080.0
 20
-769.9999999999942
 30
0.0
 11
3080.0
 21
-757.9999999999942
 31
0.0
1001
ACDBBLOCKREPETAG
1070
     1
1071
       33
1005
126165
  0
LINE
  5
126166
  8
OBJECT
 10
3075.0
 20
-633.99999999999432
 30
0.0
 11
3075.0
 21
-757.9999999999942
 31
0.0
1001
ACDBBLOCKREPETAG
1070
     1
1071
       34
1005
126166
  0
TEXT
  5
126167
  8
SLIM
 10
149.1428571427966
 20
-443.99999999984971
 30
0.0
 40
48.0
  1
A3
 41
0.75
1001
ACDBBLOCKREPETAG
1070
     1
1071
      119
1005
0
  0
LINE
  5
126168
  8
OBJECT
 10
2423.0
 20
-570.99999999999432
 30
0.0
 11
2423.0
 21
-549.99999999999432
 31
0.0
1001
ACDBBLOCKREPETAG
1070
     1
1071
        0
1005
126168
  0
LINE
  5
126169
  8
OBJECT
 10
2423.0
 20
-549.99999999999432
 30
0.0
 11
2577.0
 21
-549.99999999999432
 31
0.0
1001
ACDBBLOCKREPETAG
1070
     1
1071
        1
1005
126169
  0
LINE
  5
12616A
  8
HIDDEN
 10
2443.0
 20
-619.99999999999432
 30
0.0
 11
2557.0
 21
-619.99999999999432
 31
0.0
1001
ACDBBLOCKREPETAG
1070
     1
1071
        2
1005
12616A
  0
LINE
  5
12616B
  8
OBJECT
 10
2577.0
 20
-549.99999999999432
 30
0.0
 11
2577.0
 21
-570.99999999999432
 31
0.0
1001
ACDBBLOCKREPETAG
1070
     1
1071
        3
1005
12616B
  0
LINE
  5
12616C
  8
OBJECT
 10
2577.0
 20
-570.99999999999432
 30
0.0
 11
2423.0
 21
-570.99999999999432
 31
0.0
1001
ACDBBLOCKREPETAG
1070
     1
1071
        4
1005
12616C
  0
LINE
  5
12616D
  8
CENTER
 10
2500.0
 20
-534.99999999999432
 30
0.0
 11
2500.0
 21
-769.9999999999942
 31
0.0
1001
ACDBBLOCKREPETAG
1070
     1
1071
        5
1005
12616D
  0
LINE
  5
12616E
  8
OBJECT
 10
2425.0
 20
-633.99999999999432
 30
0.0
 11
2425.0
 21
-757.9999999999942
 31
0.0
1001
ACDBBLOCKREPETAG
1070
     1
1071
        6
1005
12616E
  0
LINE
  5
12616F
  8
OBJECT
 10
2428.0
 20
-570.99999999999432
 30
0.0
 11
2428.0
 21
-633.99999999999432
 31
0.0
1001
ACDBBLOCKREPETAG
1070
     1
1071
        7
1005
12616F
  0
LINE
  5
126170
  8
OBJECT
 10
2572.0
 20
-633.99999999999432
 30
0.0
 11
2572.0
 21
-570.99999999999432
 31
0.0
1001
ACDBBLOCKREPETAG
1070
     1
1071
        8
1005
126170
  0
LINE
  5
126171
  8
OBJECT
 10
2420.0
 20
-757.9999999999942
 30
0.0
 11
2580.0
 21
-757.9999999999942
 31
0.0
1001
ACDBBLOCKREPETAG
1070
     1
1071
        9
1005
126171
  0
LINE
  5
126172
  8
OBJECT
 10
2580.0
 20
-633.99999999999432
 30
0.0
 11
2425.0
 21
-633.99999999999432
 31
0.0
1001
ACDBBLOCKREPETAG
1070
     1
1071
       10
1005
126172
  0
LINE
  5
126173
  8
OBJECT
 10
2420.0
 20
-757.9999999999942
 30
0.0
 11
2420.0
 21
-769.9999999999942
 31
0.0
1001
ACDBBLOCKREPETAG
1070
     1
1071
       11
1005
126173
  0
LINE
  5
126174
  8
OBJECT
 10
2420.0
 20
-769.9999999999942
 30
0.0
 11
2580.0
 21
-769.9999999999942
 31
0.0
1001
ACDBBLOCKREPETAG
1070
     1
1071
       12
1005
126174
  0
LINE
  5
126175
  8
OBJECT
 10
2580.0
 20
-769.9999999999942
 30
0.0
 11
2580.0
 21
-757.9999999999942
 31
0.0
1001
ACDBBLOCKREPETAG
1070
     1
1071
       13
1005
126175
  0
ARC
  5
126176
  8
OBJECT
 10
2700.6872746716731
 20
-749.40809941010195
 30
0.0
 40
170.6350503965856
 50
137.44134459184301
 51
149.91949581337221
1001
ACDBBLOCKREPETAG
1070
     1
1071
       15
1005
126176
  0
ARC
  5
126177
  8
OBJECT
 10
2618.8455987040511
 20
-705.88272669535922
 30
0.0
 40
78.072222021763665
 50
147.4551531037684
 51
164.6636599771798
1001
ACDBBLOCKREPETAG
1070
     1
1071
       16
1005
126177
  0
ARC
  5
126178
  8
OBJECT
 10
2585.7554349608731
 20
-695.99999999999432
 30
0.0
 40
43.55353926885617
 50
165.6884523008477
 51
194.3115476991523
1001
ACDBBLOCKREPETAG
1070
     1
1071
       17
1005
126178
  0
ARC
  5
126179
  8
OBJECT
 10
2700.6872746716731
 20
-642.59190058988645
 30
0.0
 40
170.6350503965856
 50
210.08050418662771
 51
222.55865540815699
1001
ACDBBLOCKREPETAG
1070
     1
1071
       18
1005
126179
  0
ARC
  5
12617A
  8
OBJECT
 10
2618.8455987040511
 20
-686.11727330462952
 30
0.0
 40
78.072222021763665
 50
195.3363400228202
 51
212.5448468962316
1001
ACDBBLOCKREPETAG
1070
     1
1071
       19
1005
12617A
  0
LINE
  5
12617B
  8
OBJECT
 10
2633.0
 20
-137.99999999999909
 30
0.0
 11
2640.0
 21
-137.99999999999909
 31
0.0
1001
ACDBBLOCKREPETAG
1070
     1
1071
       47
1005
12617B
  0
LINE
  5
12617C
  8
OBJECT
 10
2640.0
 20
-137.99999999999909
 30
0.0
 11
2640.0
 21
-261.99999999999909
 31
0.0
1001
ACDBBLOCKREPETAG
1070
     1
1071
       48
1005
12617C
  0
LINE
  5
12617D
  8
OBJECT
 10
2640.0
 20
-261.99999999999909
 30
0.0
 11
2633.0
 21
-261.99999999999909
 31
0.0
1001
ACDBBLOCKREPETAG
1070
     1
1071
       49
1005
12617D
  0
LINE
  5
12617E
  8
OBJECT
 10
2633.0
 20
-261.99999999999909
 30
0.0
 11
2633.0
 21
-137.99999999999909
 31
0.0
1001
ACDBBLOCKREPETAG
1070
     1
1071
       50
1005
12617E
  0
LINE
  5
12617F
  8
CENTER
 10
2655.0
 20
-199.99999999999909
 30
0.0
 11
2580.0
 21
-199.99999999999909
 31
0.0
1001
ACDBBLOCKREPETAG
1070
     1
1071
       51
1005
12617F
  0
LINE
  5
126180
  8
OBJECT
 10
2633.0
 20
-140.99999999999909
 30
0.0
 11
2597.0
 21
-140.99999999999909
 31
0.0
1001
ACDBBLOCKREPETAG
1070
     1
1071
       52
1005
126180
  0
LINE
  5
126181
  8
OBJECT
 10
2597.0
 20
-140.99999999999909
 30
0.0
 11
2597.0
 21
-258.99999999999909
 31
0.0
1001
ACDBBLOCKREPETAG
1070
     1
1071
       53
1005
126181
  0
LINE
  5
126182
  8
OBJECT
 10
2597.0
 20
-258.99999999999909
 30
0.0
 11
2633.0
 21
-258.99999999999909
 31
0.0
1001
ACDBBLOCKREPETAG
1070
     1
1071
       54
1005
126182
  0
LINE
  5
126183
  8
OBJECT
 10
2593.0
 20
-145.49999999999909
 30
0.0
 11
2586.0
 21
-145.49999999999909
 31
0.0
1001
ACDBBLOCKREPETAG
1070
     1
1071
       55
1005
126183
  0
LINE
  5
126184
  8
OBJECT
 10
2586.0
 20
-254.49999999999909
 30
0.0
 11
2593.0
 21
-254.49999999999909
 31
0.0
1001
ACDBBLOCKREPETAG
1070
     1
1071
       56
1005
126184
  0
LINE
  5
126185
  8
OBJECT
 10
2593.0
 20
-254.49999999999909
 30
0.0
 11
2593.0
 21
-145.49999999999909
 31
0.0
1001
ACDBBLOCKREPETAG
1070
     1
1071
       57
1005
126185
  0
LINE
  5
126186
  8
OBJECT
 10
2597.0
 20
-140.99999999999909
 30
0.0
 11
2593.0
 21
-145.49999999999909
 31
0.0
1001
ACDBBLOCKREPETAG
1070
     1
1071
       58
1005
126186
  0
LINE
  5
126187
  8
OBJECT
 10
2597.0
 20
-258.99999999999909
 30
0.0
 11
2593.0
 21
-254.49999999999909
 31
0.0
1001
ACDBBLOCKREPETAG
1070
     1
1071
       59
1005
126187
  0
LINE
  5
126188
  8
OBJECT
 10
2583.0
 20
-137.99999999999909
 30
0.0
 11
2580.0
 21
-137.99999999999909
 31
0.0
1001
ACDBBLOCKREPETAG
1070
     1
1071
       60
1005
126188
  0
ARC
  5
126189
  8
OBJECT
 10
2583.0
 20
-140.99999999999909
 30
0.0
 40
3.0
 50
0.0
 51
90.0
1001
ACDBBLOCKREPETAG
1070
     1
1071
       61
1005
126189
  0
LINE
  5
12618A
  8
OBJECT
 10
2580.0
 20
-261.99999999999909
 30
0.0
 11
2583.0
 21
-261.99999999999909
 31
0.0
1001
ACDBBLOCKREPETAG
1070
     1
1071
       62
1005
12618A
  0
ARC
  5
12618B
  8
OBJECT
 10
2583.0
 20
-258.99999999999909
 30
0.0
 40
3.0
 50
270.0
 51
0.0
1001
ACDBBLOCKREPETAG
1070
     1
1071
       63
1005
12618B
  0
LINE
  5
12618C
  8
OBJECT
 10
2586.0
 20
-258.99999999999909
 30
0.0
 11
2586.0
 21
-140.99999999999909
 31
0.0
1001
ACDBBLOCKREPETAG
1070
     1
1071
       64
1005
12618C
  0
LINE
  5
12618D
  8
HIDDEN
 10
2588.0
 20
-155.49999999999909
 30
0.0
 11
2588.0
 21
-244.49999999999909
 31
0.0
1001
ACDBBLOCKREPETAG
1070
     1
1071
       65
1005
12618D
  0
LINE
  5
12618E
  8
OBJECT
 10
2633.0
 20
-634.0
 30
0.0
 11
2640.0
 21
-634.0
 31
0.0
1001
ACDBBLOCKREPETAG
1070
     1
1071
       45
1005
12618E
  0
LINE
  5
12618F
  8
OBJECT
 10
2640.0
 20
-634.0
 30
0.0
 11
2640.0
 21
-755.0
 31
0.0
1001
ACDBBLOCKREPETAG
1070
     1
1071
       46
1005
12618F
  0
LINE
  5
126190
  8
OBJECT
 10
2633.0
 20
-755.0
 30
0.0
 11
2633.0
 21
-634.0
 31
0.0
1001
ACDBBLOCKREPETAG
1070
     1
1071
       47
1005
126190
  0
LINE
  5
126191
  8
CENTER
 10
2655.0
 20
-696.0
 30
0.0
 11
2571.0
 21
-696.0
 31
0.0
1001
ACDBBLOCKREPETAG
1070
     1
1071
       48
1005
126191
  0
LINE
  5
126192
  8
OBJECT
 10
2633.0
 20
-637.0
 30
0.0
 11
2597.0
 21
-637.0
 31
0.0
1001
ACDBBLOCKREPETAG
1070
     1
1071
       49
1005
126192
  0
LINE
  5
126193
  8
OBJECT
 10
2597.0
 20
-637.0
 30
0.0
 11
2597.0
 21
-755.0
 31
0.0
1001
ACDBBLOCKREPETAG
1070
     1
1071
       50
1005
126193
  0
LINE
  5
126194
  8
OBJECT
 10
2597.0
 20
-755.0
 30
0.0
 11
2640.0
 21
-755.0
 31
0.0
1001
ACDBBLOCKREPETAG
1070
     1
1071
       51
1005
126194
  0
LINE
  5
126195
  8
OBJECT
 10
2593.0
 20
-641.5
 30
0.0
 11
2586.0
 21
-641.5
 31
0.0
1001
ACDBBLOCKREPETAG
1070
     1
1071
       52
1005
126195
  0
LINE
  5
126196
  8
OBJECT
 10
2586.0
 20
-750.49999999999989
 30
0.0
 11
2593.0
 21
-750.49999999999989
 31
0.0
1001
ACDBBLOCKREPETAG
1070
     1
1071
       53
1005
126196
  0
LINE
  5
126197
  8
OBJECT
 10
2593.0
 20
-750.49999999999989
 30
0.0
 11
2593.0
 21
-641.5
 31
0.0
1001
ACDBBLOCKREPETAG
1070
     1
1071
       54
1005
126197
  0
LINE
  5
126198
  8
OBJECT
 10
2597.0
 20
-637.0
 30
0.0
 11
2593.0
 21
-641.5
 31
0.0
1001
ACDBBLOCKREPETAG
1070
     1
1071
       55
1005
126198
  0
LINE
  5
126199
  8
OBJECT
 10
2597.0
 20
-755.0
 30
0.0
 11
2593.0
 21
-750.49999999999989
 31
0.0
1001
ACDBBLOCKREPETAG
1070
     1
1071
       56
1005
126199
  0
LINE
  5
12619A
  8
OBJECT
 10
2583.0
 20
-634.0
 30
0.0
 11
2580.0
 21
-634.0
 31
0.0
1001
ACDBBLOCKREPETAG
1070
     1
1071
       57
1005
12619A
  0
ARC
  5
12619B
  8
OBJECT
 10
2583.0
 20
-637.0
 30
0.0
 40
3.0
 50
0.0
 51
90.0
1001
ACDBBLOCKREPETAG
1070
     1
1071
       58
1005
12619B
  0
LINE
  5
12619C
  8
OBJECT
 10
2580.0
 20
-758.0
 30
0.0
 11
2583.0
 21
-758.0
 31
0.0
1001
ACDBBLOCKREPETAG
1070
     1
1071
       59
1005
12619C
  0
ARC
  5
12619D
  8
OBJECT
 10
2583.0
 20
-755.0
 30
0.0
 40
3.0
 50
270.0
 51
0.0
1001
ACDBBLOCKREPETAG
1070
     1
1071
       60
1005
12619D
  0
LINE
  5
12619E
  8
OBJECT
 10
2586.0
 20
-755.0
 30
0.0
 11
2586.0
 21
-637.0
 31
0.0
1001
ACDBBLOCKREPETAG
1070
     1
1071
       61
1005
12619E
  0
LINE
  5
12619F
  8
HIDDEN
 10
2588.0
 20
-651.5
 30
0.0
 11
2588.0
 21
-740.5
 31
0.0
1001
ACDBBLOCKREPETAG
1070
     1
1071
       63
1005
12619F
  0
TEXT
  5
1261A0
  8
SLIM
 10
0.0000035665234464
 20
24.000004585317608
 30
0.0
 40
79.999999999972701
  1
上部枝管
 41
0.75
1001
ACDBBLOCKREPETAG
1070
     1
1071
      119
1005
120BCB
  0
LINE
  5
1261A1
  8
DIM
 10
2650.0
 20
-3506.9999999999968
 30
0.0
 11
2728.479620594459
 21
-3506.9999999999968
 31
0.0
  0
LINE
  5
1261A2
  8
DIM
 10
2650.0
 20
-3412.9999999999968
 30
0.0
 11
2728.479620594459
 21
-3412.9999999999968
 31
0.0
  0
LINE
  5
1261A3
  8
DIM
 10
2718.479620594459
 20
-3486.9999999999959
 30
0.0
 11
2718.479620594459
 21
-3432.9999999999959
 31
0.0
  0
INSERT
  5
1261A4
  8
DIM
  2
_OPEN30
 10
2718.479620594459
 20
-3506.9999999999968
 30
0.0
 41
20.0
 42
20.0
 43
20.0
 50
270.0
  0
INSERT
  5
1261A5
  8
DIM
  2
_OPEN30
 10
2718.479620594459
 20
-3412.9999999999968
 30
0.0
 41
20.0
 42
20.0
 43
20.0
 50
90.0
  0
INSERT
  5
1261A6
  8
SLIM
  2
*U10
 10
0.0
 20
0.0
 30
0.0
  0
LINE
  5
1261A7
  8
DIM
 10
2650.0
 20
-3864.9999999999968
 30
0.0
 11
2726.8409284037339
 21
-3864.9999999999968
 31
0.0
  0
LINE
  5
1261A8
  8
DIM
 10
2665.0
 20
-3820.9999999999968
 30
0.0
 11
2726.8409284037339
 21
-3820.9999999999968
 31
0.0
  0
LINE
  5
1261A9
  8
DIM
 10
2716.8409284037339
 20
-3884.9999999999991
 30
0.0
 11
2716.8409284037339
 21
-3904.9999999999968
 31
0.0
  0
LINE
  5
1261AA
  8
DIM
 10
2716.8409284037339
 20
-3800.9999999999982
 30
0.0
 11
2716.8409284037339
 21
-3780.9999999999968
 31
0.0
  0
LINE
  5
1261AB
  8
DIM
 10
2716.8409284037339
 20
-3864.9999999999968
 30
0.0
 11
2716.8409284037339
 21
-3820.9999999999968
 31
0.0
  0
INSERT
  5
1261AC
  8
DIM
  2
_OPEN30
 10
2716.8409284037339
 20
-3864.9999999999968
 30
0.0
 41
20.0
 42
20.0
 43
20.0
 50
90.0
  0
INSERT
  5
1261AD
  8
DIM
  2
_OPEN30
 10
2716.8409284037339
 20
-3820.9999999999968
 30
0.0
 41
20.0
 42
20.0
 43
20.0
 50
270.0
  0
INSERT
  5
1261AE
  8
SLIM
  2
*U11
 10
0.0
 20
0.0
 30
0.0
  0
LINE
  5
1261AF
  8
DIM
 10
2500.0
 20
-3359.9999999999968
 30
0.0
 11
2500.0
 21
-3322.208121984444
 31
0.0
  0
LINE
  5
1261B0
  8
DIM
 10
2640.0
 20
-3402.9999999999968
 30
0.0
 11
2640.0
 21
-3322.208121984444
 31
0.0
  0
LINE
  5
1261B1
  8
DIM
 10
2520.0
 20
-3332.208121984444
 30
0.0
 11
2620.0
 21
-3332.208121984444
 31
0.0
  0
INSERT
  5
1261B2
  8
DIM
  2
_OPEN30
 10
2500.0
 20
-3332.208121984444
 30
0.0
 41
20.0
 42
20.0
 43
20.0
 50
180.0
  0
INSERT
  5
1261B3
  8
DIM
  2
_OPEN30
 10
2640.0
 20
-3332.208121984444
 30
0.0
 41
20.0
 42
20.0
 43
20.0
  0
INSERT
  5
1261B4
  8
SLIM
  2
*U12
 10
0.0
 20
0.0
 30
0.0
  0
TEXT
  5
1261B5
  8
SLIM
 10
3270.9999999999991
 20
-3237.5000160472709
 30
0.0
 40
40.0
  1
C寸法
 41
0.75
  0
TEXT
  5
1261B6
  8
SLIM
 10
3270.9999999999991
 20
-3167.5000160472709
 30
0.0
 40
40.0
  1
B寸法
 41
0.75
  0
TEXT
  5
1261B7
  8
SLIM
 10
3270.2857142857151
 20
-3097.5000160472709
 30
0.0
 40
40.0
  1
A寸法
 41
0.75
  0
TEXT
  5
1261B8
  8
SLIM
 10
3669.2857142857142
 20
-3237.5000160472709
 30
0.0
 40
40.0
  1
140
 41
0.75
  0
TEXT
  5
1261B9
  8
SLIM
 10
3409.2857142857151
 20
-3237.5000160472709
 30
0.0
 40
40.0
  1
140
 41
0.75
  0
TEXT
  5
1261BA
  8
SLIM
 10
3539.2857142857151
 20
-3237.5000160472709
 30
0.0
 40
40.0
  1
140
 41
0.75
  0
TEXT
  5
1261BB
  8
SLIM
 10
3681.4285714285711
 20
-3167.5000160472709
 30
0.0
 40
40.0
  1
59
 41
0.75
  0
TEXT
  5
1261BC
  8
SLIM
 10
3420.0
 20
-3167.5000160472709
 30
0.0
 40
40.0
  1
44
 41
0.75
  0
TEXT
  5
1261BD
  8
SLIM
 10
3550.7142857142849
 20
-3167.5000160472709
 30
0.0
 40
40.0
  1
52
 41
0.75
  0
TEXT
  5
1261BE
  8
SLIM
 10
3471.0
 20
-2972.5000160472709
 30
0.0
 40
40.0
  1
横枝管サイズ
 41
0.75
  0
TEXT
  5
1261BF
  8
SLIM
 10
3654.8571428571422
 20
-3027.50001604727
 30
0.0
 40
30.0
  1
75（3）
 41
0.75
  0
TEXT
  5
1261C0
  8
SLIM
 10
3524.8571428571422
 20
-3027.50001604727
 30
0.0
 40
30.0
  1
65（2）
 41
0.75
  0
TEXT
  5
1261C1
  8
SLIM
 10
3397.0
 20
-3027.50001604727
 30
0.0
 40
30.0
  1
50（1）
 41
0.75
  0
TEXT
  5
1261C2
  8
SLIM
 10
3668.5714285714289
 20
-3097.5000160472709
 30
0.0
 40
40.0
  1
124
 41
0.75
  0
TEXT
  5
1261C3
  8
SLIM
 10
3420.0
 20
-3097.5000160472709
 30
0.0
 40
40.0
  1
94
 41
0.75
  0
TEXT
  5
1261C4
  8
SLIM
 10
3542.142857142856
 20
-3097.5000160472709
 30
0.0
 40
40.0
  1
110
 41
0.75
  0
TEXT
  5
1261C5
  8
SLIM
 10
2349.9999999999991
 20
-2997.5
 30
0.0
 40
75.0
  1
下部枝管サイズ毎の形状
 41
0.75
  0
TEXT
  5
1261C6
  8
SLIM
 10
4394.25
 20
-3982.4999999999968
 30
0.0
 40
35.0
  1
通常枝75（3）
 41
0.75
  0
TEXT
  5
1261C7
  8
SLIM
 10
3394.2499999999991
 20
-3982.4999999999968
 30
0.0
 40
35.0
  1
通常枝65（2）
 41
0.75
  0
TEXT
  5
1261C8
  8
SLIM
 10
2396.75
 20
-3982.4999999999968
 30
0.0
 40
35.0
  1
通常枝50（1）
 41
0.75
  0
TEXT
  5
1261C9
  8
SLIM
 10
2337.75
 20
282.50000000000011
 30
0.0
 40
35.0
  1
（枝管サイズ毎に寸法が異なります。管底の位置は全サイズで同じです）
 41
0.75
  0
TEXT
  5
1261CA
  8
SLIM
 10
2350.0
 20
532.5
 30
0.0
 40
75.0
  1
側面図の代表機種
 41
0.75
  0
TEXT
  5
1261CB
  8
SLIM
 10
2350.0
 20
369.99999999999989
 30
0.0
 40
100.0
  1
4SR2-A3-A0002-P320
 41
0.75
  0
TEXT
  5
1261CC
  8
SLIM
 10
4241.6249999999991
 20
-1632.499999999998
 30
0.0
 40
35.0
  1
片受けスタイル（S）＋シンドカット
 41
0.75
  0
TEXT
  5
1261CD
  8
SLIM
 10
2356.25
 20
-1632.499999999998
 30
0.0
 40
35.0
  1
片受けスタイル（S）
 41
0.75
  0
TEXT
  5
1261CE
  8
SLIM
 10
0.0
 20
370.0
 30
0.0
 40
100.0
  1
4SR2-A3-A000X-PXXX-S
 41
0.75
  0
VIEWPORT
  5
F6BA7
 67
     1
  8
0
 10
195.9179030619629
 20
101.8328354358673
 30
0.0
 40
435.17763301655992
 41
222.19657968139651
 68
     1
 69
     1
1001
ACAD
1000
MVIEW
1002
{
1070
    16
1010
0.0
1020
0.0
1030
0.0
1010
0.0
1020
0.0
1030
1.0
1040
0.0
1040
222.19657968139651
1040
195.9179030619629
1040
101.8328354358673
1040
50.0
1040
0.0
1040
0.0
1070
     0
1070
     0
1070
     1
1070
     1
1070
     0
1070
     0
1070
     0
1070
     0
1040
0.0
1040
0.0
1040
0.0
1040
10.0
1040
10.0
1040
10.0
1040
10.0
1070
     0
1002
{
1002
}
1002
}
  0
VIEWPORT
  5
F6BA9
 67
     1
  8
OBJECT
 10
145.3303314447403
 20
101.8328338861465
 30
0.0
 40
232.5285303115844
 41
162.93253421783439
 68
     2
 69
     2
1001
ACAD
1000
MVIEW
1002
{
1070
    16
1010
0.0
1020
0.0
1030
0.0
1010
0.0
1020
0.0
1030
1.0
1040
0.0
1040
25942.55904403147
1040
2377.604457077377
1040
-7591.5176687056619
1040
50.0
1040
0.0
1040
0.0
1070
     0
1070
   600
1070
     1
1070
     1
1070
     0
1070
     0
1070
     0
1070
     0
1040
0.0
1040
0.0
1040
0.0
1040
1.0
1040
1.0
1040
0.0
1040
0.0
1070
     0
1002
{
1002
}
1002
}
  0
ENDSEC
  0
EOF
