  0
SECTION
  2
HEADER
  9
$ACADVER
  1
AC1009
  9
$INSBASE
 10
0.0
 20
0.0
 30
0.0
  9
$EXTMIN
 10
-0.0000000000002274
 20
-3982.4999999999982
 30
0.0
  9
$EXTMAX
 10
5107.5428571428556
 20
607.5
 30
0.0
  9
$LIMMIN
 10
0.0
 20
0.0
  9
$LIMMAX
 10
210.0
 20
297.0
  9
$ORTHOMODE
 70
     0
  9
$REGENMODE
 70
     1
  9
$FILLMODE
 70
     1
  9
$QTEXTMODE
 70
     0
  9
$MIRRTEXT
 70
     0
  9
$DRAGMODE
 70
     2
  9
$LTSCALE
 40
1.0
  9
$OSMODE
 70
    37
  9
$ATTMODE
 70
     1
  9
$TEXTSIZE
 40
4.0
  9
$TRACEWID
 40
0.05
  9
$TEXTSTYLE
  7
STANDARD
  9
$CLAYER
  8
SLIM
  9
$CELTYPE
  6
BYLAYER
  9
$CECOLOR
 62
   256
  9
$DIMSCALE
 40
10.0
  9
$DIMASZ
 40
2.0
  9
$DIMEXO
 40
1.0
  9
$DIMDLI
 40
10.0
  9
$DIMRND
 40
0.0
  9
$DIMDLE
 40
0.0
  9
$DIMEXE
 40
1.0
  9
$DIMTP
 40
0.0
  9
$DIMTM
 40
0.0
  9
$DIMTXT
 40
3.2000000000000002
  9
$DIMCEN
 40
0.0
  9
$DIMTSZ
 40
0.0
  9
$DIMTOL
 70
     0
  9
$DIMLIM
 70
     0
  9
$DIMTIH
 70
     0
  9
$DIMTOH
 70
     0
  9
$DIMSE1
 70
     0
  9
$DIMSE2
 70
     0
  9
$DIMTAD
 70
     1
  9
$DIMZIN
 70
     8
  9
$DIMBLK
  1
OPEN30
  9
$DIMASO
 70
     1
  9
$DIMSHO
 70
     1
  9
$DIMPOST
  1

  9
$DIMAPOST
  1

  9
$DIMALT
 70
     0
  9
$DIMALTD
 70
     2
  9
$DIMALTF
 40
25.399999999999999
  9
$DIMLFAC
 40
1.0
  9
$DIMTOFL
 70
     1
  9
$DIMTVP
 40
0.0
  9
$DIMTIX
 70
     0
  9
$DIMSOXD
 70
     0
  9
$DIMSAH
 70
     0
  9
$DIMBLK1
  1

  9
$DIMBLK2
  1

  9
$DIMSTYLE
  2
S10
  9
$DIMCLRD
 70
   256
  9
$DIMCLRE
 70
   256
  9
$DIMCLRT
 70
   256
  9
$DIMTFAC
 40
1.0
  9
$DIMGAP
 40
0.9
  9
$LUNITS
 70
     2
  9
$LUPREC
 70
     2
  9
$SKETCHINC
 40
0.1
  9
$FILLETRAD
 40
0.0
  9
$AUNITS
 70
     0
  9
$AUPREC
 70
     2
  9
$MENU
  1
ACAD
  9
$ELEVATION
 40
0.0
  9
$PELEVATION
 40
0.0
  9
$THICKNESS
 40
0.0
  9
$LIMCHECK
 70
     0
  9
$BLIPMODE
 70
     0
  9
$CHAMFERA
 40
2.0
  9
$CHAMFERB
 40
2.0
  9
$SKPOLY
 70
     0
  9
$TDCREATE
 40
2453095.4929404748
  9
$TDUPDATE
 40
2457604.629314757
  9
$TDINDWG
 40
21.359011331000001
  9
$TDUSRTIMER
 40
21.359010613399999
  9
$USRTIMER
 70
     1
  9
$ANGBASE
 50
0.0
  9
$ANGDIR
 70
     0
  9
$PDMODE
 70
    35
  9
$PDSIZE
 40
2.0
  9
$PLINEWID
 40
0.0
  9
$COORDS
 70
     1
  9
$SPLFRAME
 70
     0
  9
$SPLINETYPE
 70
     6
  9
$SPLINESEGS
 70
     8
  9
$ATTDIA
 70
     0
  9
$ATTREQ
 70
     1
  9
$HANDLING
 70
     1
  9
$HANDSEED
  5
127AD1
  9
$SURFTAB1
 70
     6
  9
$SURFTAB2
 70
     6
  9
$SURFTYPE
 70
     6
  9
$SURFU
 70
     6
  9
$SURFV
 70
     6
  9
$UCSNAME
  2

  9
$UCSORG
 10
0.0
 20
0.0
 30
0.0
  9
$UCSXDIR
 10
1.0
 20
0.0
 30
0.0
  9
$UCSYDIR
 10
0.0
 20
1.0
 30
0.0
  9
$PUCSNAME
  2

  9
$PUCSORG
 10
0.0
 20
0.0
 30
0.0
  9
$PUCSXDIR
 10
1.0
 20
0.0
 30
0.0
  9
$PUCSYDIR
 10
0.0
 20
1.0
 30
0.0
  9
$USERI1
 70
     0
  9
$USERI2
 70
     0
  9
$USERI3
 70
     0
  9
$USERI4
 70
     0
  9
$USERI5
 70
     0
  9
$USERR1
 40
0.0
  9
$USERR2
 40
0.0
  9
$USERR3
 40
0.0
  9
$USERR4
 40
0.0
  9
$USERR5
 40
0.0
  9
$WORLDVIEW
 70
     1
  9
$SHADEDGE
 70
     3
  9
$SHADEDIF
 70
    70
  9
$TILEMODE
 70
     1
  9
$MAXACTVP
 70
    64
  9
$PLIMCHECK
 70
     0
  9
$PEXTMIN
 10
29.066066288948051
 20
20.366566777229309
 30
0.0
  9
$PEXTMAX
 10
261.5945966005325
 20
183.29910099506381
 30
0.0
  9
$PLIMMIN
 10
-3.17498779296875
 20
-3.1749999523162842
  9
$PLIMMAX
 10
293.83566284179687
 20
206.8406708240509
  9
$UNITMODE
 70
     0
  9
$VISRETAIN
 70
     1
  9
$PLINEGEN
 70
     0
  9
$PSLTSCALE
 70
     1
  0
ENDSEC
  0
SECTION
  2
TABLES
  0
TABLE
  2
VPORT
 70
     1
  0
VPORT
  2
*ACTIVE
 70
     0
 10
0.0
 20
0.0
 11
1.0
 21
1.0
 12
2658.0560130313088
 22
-115.5880313686598
 13
0.0
 23
0.0
 14
1.0
 24
1.0
 15
0.0
 25
0.0
 16
0.0
 26
0.0
 36
1.0
 17
0.0
 27
0.0
 37
0.0
 40
5796.0212584743504
 41
1.6494178525226391
 42
50.0
 43
0.0
 44
0.0
 50
0.0
 51
0.0
 71
     0
 72
   600
 73
     1
 74
     1
 75
     0
 76
     0
 77
     0
 78
     0
  0
ENDTAB
  0
TABLE
  2
LTYPE
 70
     4
  0
LTYPE
  2
CONTINUOUS
 70
     0
  3
Solid line
 72
    65
 73
     0
 40
0.0
  0
LTYPE
  2
PHANTOM2
 70
     0
  3
___ _ _ ___ _ _ ___ _ _ ___ _ _
 72
    65
 73
     6
 40
1.25
 49
0.625
 49
-0.125
 49
0.125
 49
-0.125
 49
0.125
 49
-0.125
  0
LTYPE
  2
ACAD_ISO08W100
 70
     0
  3
ISO long-dash short-dash ____ __ ____ __ ____ _
 72
    65
 73
     4
 40
36.0
 49
24.0
 49
-3.0
 49
6.0
 49
-3.0
  0
LTYPE
  2
ACAD_ISO02W100
 70
     0
  3
ISO dash __ __ __ __ __ __ __ __ __ __ __ __ __
 72
    65
 73
     2
 40
15.0
 49
12.0
 49
-3.0
  0
ENDTAB
  0
TABLE
  2
LAYER
 70
     8
  0
LAYER
  2
0
 70
     0
 62
     7
  6
CONTINUOUS
  0
LAYER
  2
SLIM
 70
     0
 62
     2
  6
CONTINUOUS
  0
LAYER
  2
DEFPOINTS
 70
     0
 62
     7
  6
CONTINUOUS
  0
LAYER
  2
DIM
 70
     0
 62
     7
  6
CONTINUOUS
  0
LAYER
  2
OBJECT
 70
     0
 62
     4
  6
CONTINUOUS
  0
LAYER
  2
HIDDEN
 70
     0
 62
     2
  6
ACAD_ISO02W100
  0
LAYER
  2
CENTER
 70
     0
 62
     2
  6
ACAD_ISO08W100
  0
LAYER
  2
DOTS
 70
     0
 62
     1
  6
CONTINUOUS
  0
ENDTAB
  0
TABLE
  2
STYLE
 70
     2
  0
STYLE
  2
STANDARD
 70
     0
 40
0.0
 41
0.75
 50
0.0
 71
     0
 42
4.0
  3
simplex.shx
  4
bigfont.shx
  0
ENDTAB
  0
TABLE
  2
VIEW
 70
     0
  0
ENDTAB
  0
TABLE
  2
UCS
 70
     0
  0
ENDTAB
  0
TABLE
  2
APPID
 70
    20
  0
APPID
  2
ACAD
 70
     0
  0
APPID
  2
ACADANNOTATIVE
 70
     0
  0
APPID
  2
ACAD_PSEXT
 70
     0
  0
APPID
  2
ACAD_EXEMPT_FROM_CAD_STANDARDS
 70
     0
  0
APPID
  2
ACAECLAYERSTANDARD
 70
     0
  0
APPID
  2
ACAUTHENVIRON
 70
     0
  0
APPID
  2
ACDBDYNAMICBLOCKTRUENAME
 70
     0
  0
APPID
  2
ACDBDYNAMICBLOCKGUID
 70
     0
  0
APPID
  2
ACDBBLOCKREPETAG
 70
     0
  0
APPID
  2
ACDBBLOCKREPBTAG
 70
     0
  0
APPID
  2
ACAD_NAV_VCDISPLAY
 70
     0
  0
APPID
  2
ACAD_DSTYLE_DIMRADIAL_EXTENSION
 70
     0
  0
APPID
  2
ACAD_DSTYLE_DIMJAG
 70
     0
  0
APPID
  2
ACAD_DSTYLE_DIMTALN
 70
     0
  0
APPID
  2
ACADANNOPO
 70
     0
  0
APPID
  2
GRADIENTCOLOR1ACI
 70
     0
  0
APPID
  2
GRADIENTCOLOR2ACI
 70
     0
  0
APPID
  2
ACADANNOMONITORALERTICONDI
 70
     0
  0
APPID
  2
CONTENTBLOCKICON
 70
     0
  0
APPID
  2
ACAD_MLEADERVER
 70
     0
  0
ENDTAB
  0
TABLE
  2
DIMSTYLE
 70
     3
  0
DIMSTYLE
  2
STANDARD
 70
     0
  3

  4

  5

  6

  7

 40
1.0
 41
0.18
 42
0.0625
 43
0.38
 44
0.18
 45
0.0
 46
0.0
 47
0.0
 48
0.0
140
0.18
141
0.09
142
0.0
143
25.399999999999999
144
1.0
145
0.0
146
1.0
147
0.09
 71
     0
 72
     0
 73
     1
 74
     1
 75
     0
 76
     0
 77
     0
 78
     0
170
     0
171
     2
172
     0
173
     0
174
     0
175
     0
176
     0
177
     0
178
     0
  0
DIMSTYLE
  2
S10
 70
     0
  3

  4

  5

  6

  7

 40
10.0
 41
2.0
 42
1.0
 43
10.0
 44
1.0
 45
0.0
 46
0.0
 47
0.0
 48
0.0
140
3.2000000000000002
141
0.0
142
0.0
143
25.399999999999999
144
1.0
145
0.0
146
1.0
147
0.9
 71
     0
 72
     0
 73
     0
 74
     0
 75
     0
 76
     0
 77
     1
 78
     8
170
     0
171
     2
172
     1
173
     0
174
     0
175
     0
176
   256
177
   256
178
   256
  0
ENDTAB
  0
ENDSEC
  0
SECTION
  2
BLOCKS
  0
BLOCK
  8
0
  2
$MODEL_SPACE
 70
     0
 10
0.0
 20
0.0
 30
0.0
  3
$MODEL_SPACE
  1

  0
ENDBLK
  5
1279E5
  8
0
  0
BLOCK
 67
     1
  8
0
  2
$PAPER_SPACE
 70
     0
 10
0.0
 20
0.0
 30
0.0
  3
$PAPER_SPACE
  1

  0
ENDBLK
  5
1279E1
 67
     1
  8
0
  0
BLOCK
  8
0
  2
_OPEN30
 70
     0
 10
0.0
 20
0.0
 30
0.0
  3
_OPEN30
  1

  0
LINE
  5
202
  8
0
  6
BYBLOCK
 62
     0
 10
-1.0
 20
0.26794919
 30
0.0
 11
0.0
 21
0.0
 31
0.0
  0
LINE
  5
203
  8
0
  6
BYBLOCK
 62
     0
 10
0.0
 20
0.0
 30
0.0
 11
-1.0
 21
-0.26794919
 31
0.0
  0
LINE
  5
204
  8
0
  6
BYBLOCK
 62
     0
 10
0.0
 20
0.0
 30
0.0
 11
-1.0
 21
0.0
 31
0.0
  0
ENDBLK
  5
206
  8
0
  0
BLOCK
  8
0
  2
*U33
 70
     1
 10
0.0
 20
0.0
 30
0.0
  3
*U33
  1

  0
TEXT
  5
127939
  8
SLIM
 10
158.95238095238781
 20
-1551.9999999999991
 30
0.0
 40
26.0
  1
75
  0
ENDBLK
  5
12793B
  8
0
  0
BLOCK
  8
0
  2
*U34
 70
     1
 10
0.0
 20
0.0
 30
0.0
  3
*U34
  1

  0
TEXT
  5
12793D
  8
SLIM
 10
518.95238095238756
 20
-1087.9999999999991
 30
0.0
 40
26.0
  1
65
  0
ENDBLK
  5
12793F
  8
0
  0
BLOCK
  8
0
  2
*U35
 70
     1
 10
0.0
 20
0.0
 30
0.0
  3
*U35
  1

  0
TEXT
  5
127941
  8
SLIM
 10
158.95238095238781
 20
-1087.9999999999991
 30
0.0
 40
26.0
  1
50
  0
ENDBLK
  5
127943
  8
0
  0
BLOCK
  8
0
  2
*U36
 70
     1
 10
0.0
 20
0.0
 30
0.0
  3
*U36
  1

  0
TEXT
  5
127959
  8
SLIM
 10
158.9523809524228
 20
-130.00000000017181
 30
0.0
 40
26.0
  1
75
  0
ENDBLK
  5
12795B
  8
0
  0
BLOCK
  8
0
  2
*U37
 70
     1
 10
0.0
 20
0.0
 30
0.0
  3
*U37
  1

  0
TEXT
  5
12795D
  8
DIM
 10
4334.1164560757752
 20
-1258.7428571428561
 30
0.0
 40
32.0
  1
m（シンドカット）
 50
90.0
 41
0.75
  0
ENDBLK
  5
12795F
  8
0
  0
BLOCK
  8
0
  2
*U38
 70
     1
 10
0.0
 20
0.0
 30
0.0
  3
*U38
  1

  0
TEXT
  5
127961
  8
DIM
 10
4700.4245816727562
 20
-863.99999999999955
 30
0.0
 40
32.0
  1
P
 50
90.0
 41
0.75
  0
ENDBLK
  5
127963
  8
0
  0
BLOCK
  8
0
  2
*U39
 70
     1
 10
0.0
 20
0.0
 30
0.0
  3
*U39
  1

  0
TEXT
  5
127965
  8
DIM
 10
2700.4245816727562
 20
-863.99999999999955
 30
0.0
 40
32.0
  1
P
 50
90.0
 41
0.75
  0
ENDBLK
  5
127967
  8
0
  0
BLOCK
  8
0
  2
*U40
 70
     1
 10
0.0
 20
0.0
 30
0.0
  3
*U40
  1

  0
TEXT
  5
127969
  8
DIM
 10
2709.479620594459
 20
-3469.1428571428528
 30
0.0
 40
32.0
  1
A
 50
90.0
 41
0.75
  0
ENDBLK
  5
12796B
  8
0
  0
BLOCK
  8
0
  2
*U41
 70
     1
 10
0.0
 20
0.0
 30
0.0
  3
*U41
  1

  0
TEXT
  5
12796D
  8
DIM
 10
2707.840928403733
 20
-3850.9999999999968
 30
0.0
 40
32.0
  1
B
 50
90.0
 41
0.75
  0
ENDBLK
  5
12796F
  8
0
  0
BLOCK
  8
0
  2
*U42
 70
     1
 10
0.0
 20
0.0
 30
0.0
  3
*U42
  1

  0
TEXT
  5
127971
  8
DIM
 10
2561.4285714285711
 20
-3323.208121984444
 30
0.0
 40
32.0
  1
C
 41
0.75
  0
ENDBLK
  5
127973
  8
0
  0
ENDSEC
  0
SECTION
  2
ENTITIES
  0
LINE
  5
11273E
  8
OBJECT
 10
2325.0
 20
-3864.9999999999968
 30
0.0
 11
5075.0
 21
-3864.9999999999968
 31
0.0
  0
LINE
  5
11412B
  8
SLIM
 10
3256.0
 20
-2922.5000160472709
 30
0.0
 11
3256.0
 21
-3252.5000160472709
 31
0.0
  0
LINE
  5
11412C
  8
SLIM
 10
3380.0
 20
-2922.5000160472709
 30
0.0
 11
3380.0
 21
-3252.5000160472709
 31
0.0
  0
LINE
  5
11412D
  8
SLIM
 10
3510.0
 20
-2982.50001604727
 30
0.0
 11
3510.0
 21
-3252.5000160472709
 31
0.0
  0
LINE
  5
11412E
  8
SLIM
 10
3640.0
 20
-2982.50001604727
 30
0.0
 11
3640.0
 21
-3252.5000160472709
 31
0.0
  0
LINE
  5
11412F
  8
SLIM
 10
3770.0
 20
-3252.5000160472709
 30
0.0
 11
3770.0
 21
-2922.5000160472709
 31
0.0
  0
LINE
  5
114131
  8
SLIM
 10
3770.0
 20
-2922.5000160472709
 30
0.0
 11
3256.0
 21
-2922.5000160472709
 31
0.0
  0
LINE
  5
114132
  8
SLIM
 10
3769.9999999999991
 20
-2982.50001604727
 30
0.0
 11
3380.0
 21
-2982.50001604727
 31
0.0
  0
LINE
  5
114133
  8
SLIM
 10
3770.0
 20
-3042.5000160472709
 30
0.0
 11
3256.0
 21
-3042.5000160472709
 31
0.0
  0
LINE
  5
114134
  8
SLIM
 10
3770.0
 20
-3112.5000160472709
 30
0.0
 11
3256.0
 21
-3112.5000160472709
 31
0.0
  0
LINE
  5
114135
  8
SLIM
 10
3770.0
 20
-3182.5000160472709
 30
0.0
 11
3256.0
 21
-3182.5000160472709
 31
0.0
  0
LINE
  5
114136
  8
SLIM
 10
3770.0
 20
-3252.5000160472709
 30
0.0
 11
3256.0
 21
-3252.5000160472709
 31
0.0
  0
LINE
  5
11414B
  8
SLIM
 10
3380.0
 20
-3042.5000160472709
 30
0.0
 11
3255.9999722746579
 21
-2922.5000000000018
 31
0.0
  0
LINE
  5
1238B4
  8
CENTER
 10
2579.9999999999991
 20
-3459.9999999999968
 30
0.0
 11
2409.9999999999991
 21
-3459.9999999999968
 31
0.0
1001
ACDBBLOCKREPETAG
1070
     1
1071
       14
1005
122545
  0
LINE
  5
1238B5
  8
CENTER
 10
2500.0
 20
-3549.9999999999968
 30
0.0
 11
2500.0
 21
-3369.9999999999968
 31
0.0
1001
ACDBBLOCKREPETAG
1070
     1
1071
       15
1005
122546
  0
CIRCLE
  5
1238B6
  8
OBJECT
 10
2500.0
 20
-3459.9999999999968
 30
0.0
 40
70.0
1001
ACDBBLOCKREPETAG
1070
     1
1071
       16
1005
122547
  0
CIRCLE
  5
1238B7
  8
OBJECT
 10
2500.0
 20
-3459.9999999999968
 30
0.0
 40
75.0
1001
ACDBBLOCKREPETAG
1070
     1
1071
       17
1005
122548
  0
LINE
  5
123927
  8
CENTER
 10
2500.0
 20
-3644.9999999999991
 30
0.0
 11
2500.0
 21
-3891.9999999999991
 31
0.0
1001
ACDBBLOCKREPETAG
1070
     1
1071
       25
1005
123927
  0
LINE
  5
123928
  8
OBJECT
 10
2425.0
 20
-3659.9999999999968
 30
0.0
 11
2425.0
 21
-3879.9999999999991
 31
0.0
1001
ACDBBLOCKREPETAG
1070
     1
1071
       26
1005
123928
  0
LINE
  5
12392C
  8
OBJECT
 10
2575.0
 20
-3659.9999999999968
 30
0.0
 11
2575.0
 21
-3756.5000000000618
 31
0.0
1001
ACDBBLOCKREPETAG
1070
     1
1071
       34
1005
12392C
  0
LINE
  5
123A5C
  8
OBJECT
 10
2575.0
 20
-3862.4999999999991
 30
0.0
 11
2575.0
 21
-3879.9999999999991
 31
0.0
1001
ACDBBLOCKREPETAG
1070
     1
1071
       34
1005
12392C
  0
LINE
  5
123A5E
  8
CENTER
 10
2900.0
 20
-3644.9999999999991
 30
0.0
 11
2900.0
 21
-3891.9999999999991
 31
0.0
1001
ACDBBLOCKREPETAG
1070
     1
1071
       25
1005
123927
  0
LINE
  5
123A5F
  8
OBJECT
 10
2825.0
 20
-3659.9999999999968
 30
0.0
 11
2825.0
 21
-3879.9999999999991
 31
0.0
1001
ACDBBLOCKREPETAG
1070
     1
1071
       26
1005
123928
  0
LINE
  5
123A60
  8
OBJECT
 10
2975.0
 20
-3659.9999999999968
 30
0.0
 11
2975.0
 21
-3879.9999999999991
 31
0.0
1001
ACDBBLOCKREPETAG
1070
     1
1071
       34
1005
12392C
  0
LINE
  5
123AD2
  8
CENTER
 10
3579.9999999999991
 20
-3459.9999999999968
 30
0.0
 11
3410.0
 21
-3459.9999999999968
 31
0.0
1001
ACDBBLOCKREPETAG
1070
     1
1071
       14
1005
122545
  0
LINE
  5
123AD3
  8
CENTER
 10
3500.0
 20
-3549.9999999999968
 30
0.0
 11
3500.0
 21
-3369.9999999999968
 31
0.0
1001
ACDBBLOCKREPETAG
1070
     1
1071
       15
1005
122546
  0
CIRCLE
  5
123AD4
  8
OBJECT
 10
3500.0
 20
-3459.9999999999968
 30
0.0
 40
70.0
1001
ACDBBLOCKREPETAG
1070
     1
1071
       16
1005
122547
  0
CIRCLE
  5
123AD5
  8
OBJECT
 10
3500.0
 20
-3459.9999999999968
 30
0.0
 40
75.0
1001
ACDBBLOCKREPETAG
1070
     1
1071
       17
1005
122548
  0
LINE
  5
123ADD
  8
CENTER
 10
3500.0
 20
-3644.9999999999991
 30
0.0
 11
3500.0
 21
-3891.9999999999991
 31
0.0
1001
ACDBBLOCKREPETAG
1070
     1
1071
       25
1005
123927
  0
LINE
  5
123ADE
  8
OBJECT
 10
3424.9999999999991
 20
-3659.9999999999968
 30
0.0
 11
3424.9999999999991
 21
-3879.9999999999991
 31
0.0
1001
ACDBBLOCKREPETAG
1070
     1
1071
       26
1005
123928
  0
LINE
  5
123ADF
  8
OBJECT
 10
3574.9999999999991
 20
-3659.9999999999968
 30
0.0
 11
3574.9999999999991
 21
-3756.5000000000618
 31
0.0
1001
ACDBBLOCKREPETAG
1070
     1
1071
       34
1005
12392C
  0
LINE
  5
123AE0
  8
OBJECT
 10
3574.9999999999991
 20
-3862.4999999999991
 30
0.0
 11
3574.9999999999991
 21
-3879.9999999999991
 31
0.0
1001
ACDBBLOCKREPETAG
1070
     1
1071
       34
1005
12392C
  0
LINE
  5
123AE8
  8
CENTER
 10
3900.0
 20
-3644.9999999999991
 30
0.0
 11
3900.0
 21
-3891.9999999999991
 31
0.0
1001
ACDBBLOCKREPETAG
1070
     1
1071
       25
1005
123927
  0
LINE
  5
123AE9
  8
OBJECT
 10
3824.9999999999991
 20
-3659.9999999999968
 30
0.0
 11
3824.9999999999991
 21
-3879.9999999999991
 31
0.0
1001
ACDBBLOCKREPETAG
1070
     1
1071
       26
1005
123928
  0
LINE
  5
123AEA
  8
OBJECT
 10
3975.0
 20
-3659.9999999999968
 30
0.0
 11
3975.0
 21
-3879.9999999999991
 31
0.0
1001
ACDBBLOCKREPETAG
1070
     1
1071
       34
1005
12392C
  0
LINE
  5
123B38
  8
CENTER
 10
4579.9999999999991
 20
-3459.9999999999968
 30
0.0
 11
4409.9999999999991
 21
-3459.9999999999968
 31
0.0
1001
ACDBBLOCKREPETAG
1070
     1
1071
       14
1005
122545
  0
LINE
  5
123B39
  8
CENTER
 10
4499.9999999999991
 20
-3549.9999999999968
 30
0.0
 11
4499.9999999999991
 21
-3369.9999999999968
 31
0.0
1001
ACDBBLOCKREPETAG
1070
     1
1071
       15
1005
122546
  0
CIRCLE
  5
123B3A
  8
OBJECT
 10
4499.9999999999991
 20
-3459.9999999999968
 30
0.0
 40
70.0
1001
ACDBBLOCKREPETAG
1070
     1
1071
       16
1005
122547
  0
CIRCLE
  5
123B3B
  8
OBJECT
 10
4499.9999999999991
 20
-3459.9999999999968
 30
0.0
 40
75.0
1001
ACDBBLOCKREPETAG
1070
     1
1071
       17
1005
122548
  0
LINE
  5
123B43
  8
CENTER
 10
4500.0
 20
-3644.9999999999991
 30
0.0
 11
4500.0
 21
-3891.9999999999991
 31
0.0
1001
ACDBBLOCKREPETAG
1070
     1
1071
       25
1005
123927
  0
LINE
  5
123B44
  8
OBJECT
 10
4425.0
 20
-3659.9999999999968
 30
0.0
 11
4425.0
 21
-3879.9999999999991
 31
0.0
1001
ACDBBLOCKREPETAG
1070
     1
1071
       26
1005
123928
  0
LINE
  5
123B45
  8
OBJECT
 10
4575.0
 20
-3659.9999999999968
 30
0.0
 11
4575.0
 21
-3756.5000000000618
 31
0.0
1001
ACDBBLOCKREPETAG
1070
     1
1071
       34
1005
12392C
  0
LINE
  5
123B46
  8
OBJECT
 10
4575.0
 20
-3862.4999999999991
 30
0.0
 11
4575.0
 21
-3879.9999999999991
 31
0.0
1001
ACDBBLOCKREPETAG
1070
     1
1071
       34
1005
12392C
  0
LINE
  5
123B4E
  8
CENTER
 10
4900.0
 20
-3644.9999999999991
 30
0.0
 11
4900.0
 21
-3891.9999999999991
 31
0.0
1001
ACDBBLOCKREPETAG
1070
     1
1071
       25
1005
123927
  0
LINE
  5
123B4F
  8
OBJECT
 10
4825.0
 20
-3659.9999999999968
 30
0.0
 11
4825.0
 21
-3879.9999999999991
 31
0.0
1001
ACDBBLOCKREPETAG
1070
     1
1071
       26
1005
123928
  0
LINE
  5
123B50
  8
OBJECT
 10
4975.0
 20
-3659.9999999999968
 30
0.0
 11
4974.9999999999991
 21
-3879.9999999999991
 31
0.0
1001
ACDBBLOCKREPETAG
1070
     1
1071
       34
1005
12392C
  0
POINT
  5
124C02
  8
DOTS
 10
2500.0
 20
-3459.9999999999968
 30
0.0
  0
POINT
  5
124C03
  8
DOTS
 10
2500.0
 20
-3864.9999999999968
 30
0.0
  0
POINT
  5
124C05
  8
DOTS
 10
3500.0
 20
-3864.9999999999968
 30
0.0
  0
POINT
  5
124C07
  8
DOTS
 10
3500.0
 20
-3459.9999999999968
 30
0.0
  0
POINT
  5
124C08
  8
DOTS
 10
4499.9999999999991
 20
-3459.9999999999968
 30
0.0
  0
POINT
  5
124C09
  8
DOTS
 10
4499.9999999999991
 20
-3864.9999999999968
 30
0.0
  0
LINE
  5
125A75
  8
SLIM
 10
4954.0
 20
-788.99999999999613
 30
0.0
 11
4954.0
 21
-1364.9999999999959
 31
0.0
  0
LINE
  5
125A76
  8
SLIM
 10
5102.0
 20
-788.99999999999613
 30
0.0
 11
5102.0
 21
-1364.9999999999959
 31
0.0
  0
LINE
  5
125A77
  8
SLIM
 10
4850.0
 20
-1364.9999999999959
 30
0.0
 11
4850.0
 21
-788.99999999999613
 31
0.0
  0
LINE
  5
125A78
  8
SLIM
 10
5102.0
 20
-788.99999999999613
 30
0.0
 11
4850.0
 21
-788.99999999999613
 31
0.0
  0
LINE
  5
125A79
  8
SLIM
 10
5102.0
 20
-836.99999999999613
 30
0.0
 11
4850.0
 21
-836.99999999999613
 31
0.0
  0
LINE
  5
125A85
  8
SLIM
 10
5102.0
 20
-884.99999999999625
 30
0.0
 11
4850.0
 21
-884.99999999999625
 31
0.0
  0
LINE
  5
125A88
  8
SLIM
 10
5102.0
 20
-932.99999999999602
 30
0.0
 11
4850.0
 21
-932.99999999999602
 31
0.0
  0
LINE
  5
125A8B
  8
SLIM
 10
5102.0
 20
-980.99999999999613
 30
0.0
 11
4850.0
 21
-980.99999999999613
 31
0.0
  0
LINE
  5
125A8E
  8
SLIM
 10
5102.0
 20
-1028.9999999999959
 30
0.0
 11
4850.0
 21
-1028.9999999999959
 31
0.0
  0
LINE
  5
125A91
  8
SLIM
 10
5102.0
 20
-1076.9999999999959
 30
0.0
 11
4850.0
 21
-1076.9999999999959
 31
0.0
  0
LINE
  5
125A93
  8
SLIM
 10
5102.0
 20
-1124.9999999999959
 30
0.0
 11
4850.0
 21
-1124.9999999999959
 31
0.0
  0
LINE
  5
125A95
  8
SLIM
 10
5102.0
 20
-1172.9999999999959
 30
0.0
 11
4850.0
 21
-1172.9999999999959
 31
0.0
  0
LINE
  5
125A97
  8
SLIM
 10
5102.0
 20
-1220.9999999999959
 30
0.0
 11
4850.0
 21
-1220.9999999999959
 31
0.0
  0
LINE
  5
125A99
  8
SLIM
 10
5102.0
 20
-1268.9999999999959
 30
0.0
 11
4850.0
 21
-1268.9999999999959
 31
0.0
  0
LINE
  5
125A9B
  8
SLIM
 10
5102.0
 20
-1316.9999999999959
 30
0.0
 11
4850.0
 21
-1316.9999999999959
 31
0.0
  0
LINE
  5
125A9D
  8
SLIM
 10
5102.0
 20
-1364.9999999999959
 30
0.0
 11
4850.0
 21
-1364.9999999999959
 31
0.0
  0
LINE
  5
1270E3
  8
CENTER
 10
4580.0
 20
-199.99999999999909
 30
0.0
 11
4400.0
 21
-199.99999999999909
 31
0.0
1001
ACDBBLOCKREPETAG
1070
     1
1071
       14
1005
0
  0
CIRCLE
  5
1270E4
  8
OBJECT
 10
4500.0
 20
-199.99999999999909
 30
0.0
 40
53.5
1001
ACDBBLOCKREPETAG
1070
     1
1071
      344
1005
0
  0
LINE
  5
1270E5
  8
CENTER
 10
4500.0
 20
-299.99999999999898
 30
0.0
 11
4500.0
 21
-99.999999999999091
 31
0.0
1001
ACDBBLOCKREPETAG
1070
     1
1071
       15
1005
0
  0
POINT
  5
1270E7
  8
DOTS
 10
4500.0
 20
-199.99999999999909
 30
0.0
 50
270.0
1001
ACDBBLOCKREPETAG
1070
     1
1071
      362
1005
0
  0
CIRCLE
  5
1270E8
  8
OBJECT
 10
4500.0
 20
-199.99999999999909
 30
0.0
 40
70.0
1001
ACDBBLOCKREPETAG
1070
     1
1071
       16
1005
0
  0
ARC
  5
1270E9
  8
OBJECT
 10
4500.0
 20
-199.99999999999909
 30
0.0
 40
80.0
 50
50.805032573890557
 51
309.19496742597107
1001
ACDBBLOCKREPETAG
1070
     1
1071
       18
1005
0
  0
LINE
  5
1270EA
  8
OBJECT
 10
4403.0
 20
-148.0
 30
0.0
 11
4407.0
 21
-152.5
 31
0.0
1001
ACDBBLOCKREPETAG
1070
     1
1071
       32
1005
0
  0
CIRCLE
  5
1270EB
  8
OBJECT
 10
4500.0
 20
-199.99999999999909
 30
0.0
 40
77.0
1001
ACDBBLOCKREPETAG
1070
     1
1071
       17
1005
0
  0
LINE
  5
1270EC
  8
OBJECT
 10
4545.6618002273244
 20
-261.99999999999909
 30
0.0
 11
4580.0
 21
-261.99999999999909
 31
0.0
1001
ACDBBLOCKREPETAG
1070
     1
1071
       20
1005
0
  0
LINE
  5
1270ED
  8
OBJECT
 10
4545.6618002273244
 20
-137.99999999999909
 30
0.0
 11
4580.0
 21
-137.99999999999909
 31
0.0
1001
ACDBBLOCKREPETAG
1070
     1
1071
       19
1005
0
  0
LINE
  5
1270EE
  8
OBJECT
 10
4367.0
 20
-255.0
 30
0.0
 11
4360.0
 21
-255.0
 31
0.0
1001
ACDBBLOCKREPETAG
1070
     1
1071
       20
1005
0
  0
LINE
  5
1270EF
  8
OBJECT
 10
4360.0
 20
-255.0
 30
0.0
 11
4360.0
 21
-145.0
 31
0.0
1001
ACDBBLOCKREPETAG
1070
     1
1071
       21
1005
0
  0
LINE
  5
1270F0
  8
OBJECT
 10
4360.0
 20
-145.0
 30
0.0
 11
4367.0
 21
-145.0
 31
0.0
1001
ACDBBLOCKREPETAG
1070
     1
1071
       22
1005
0
  0
LINE
  5
1270F1
  8
OBJECT
 10
4367.0
 20
-145.0
 30
0.0
 11
4367.0
 21
-255.0
 31
0.0
1001
ACDBBLOCKREPETAG
1070
     1
1071
       23
1005
0
  0
LINE
  5
1270F2
  8
CENTER
 10
4345.0
 20
-200.0
 30
0.0
 11
4420.0
 21
-200.0
 31
0.0
1001
ACDBBLOCKREPETAG
1070
     1
1071
       24
1005
0
  0
LINE
  5
1270F3
  8
OBJECT
 10
4367.0
 20
-252.0
 30
0.0
 11
4403.0
 21
-252.0
 31
0.0
1001
ACDBBLOCKREPETAG
1070
     1
1071
       25
1005
0
  0
LINE
  5
1270F4
  8
OBJECT
 10
4403.0
 20
-252.0
 30
0.0
 11
4403.0
 21
-148.0
 31
0.0
1001
ACDBBLOCKREPETAG
1070
     1
1071
       26
1005
0
  0
LINE
  5
1270F5
  8
OBJECT
 10
4403.0
 20
-148.0
 30
0.0
 11
4367.0
 21
-148.0
 31
0.0
1001
ACDBBLOCKREPETAG
1070
     1
1071
       27
1005
0
  0
LINE
  5
1270F6
  8
OBJECT
 10
4407.0
 20
-247.5
 30
0.0
 11
4415.5
 21
-247.5
 31
0.0
1001
ACDBBLOCKREPETAG
1070
     1
1071
       28
1005
0
  0
LINE
  5
1270F7
  8
OBJECT
 10
4415.5
 20
-152.5
 30
0.0
 11
4407.0
 21
-152.5
 31
0.0
1001
ACDBBLOCKREPETAG
1070
     1
1071
       29
1005
0
  0
LINE
  5
1270F8
  8
OBJECT
 10
4407.0
 20
-152.5
 30
0.0
 11
4407.0
 21
-247.5
 31
0.0
1001
ACDBBLOCKREPETAG
1070
     1
1071
       30
1005
0
  0
LINE
  5
1270F9
  8
OBJECT
 10
4403.0
 20
-252.0
 30
0.0
 11
4407.0
 21
-247.5
 31
0.0
1001
ACDBBLOCKREPETAG
1070
     1
1071
       31
1005
0
  0
ARC
  5
1270FA
  8
OBJECT
 10
4500.0
 20
-199.99999999999909
 30
0.0
 40
85.0
 50
46.837102859727011
 51
144.38379327147541
1001
ACDBBLOCKREPETAG
1070
     1
1071
       18
1005
0
  0
LINE
  5
1270FB
  8
OBJECT
 10
4415.5
 20
-150.5
 30
0.0
 11
4415.5
 21
-249.5
 31
0.0
1001
ACDBBLOCKREPETAG
1070
     1
1071
       33
1005
0
  0
LINE
  5
1270FC
  8
HIDDEN
 10
4412.0
 20
-238.0
 30
0.0
 11
4412.0
 21
-162.0
 31
0.0
1001
ACDBBLOCKREPETAG
1070
     1
1071
       34
1005
0
  0
LINE
  5
1270FD
  8
OBJECT
 10
4415.5
 20
-249.5
 30
0.0
 11
4437.1529634747967
 21
-249.5
 31
0.0
1001
ACDBBLOCKREPETAG
1070
     1
1071
       35
1005
0
  0
LINE
  5
1270FE
  8
OBJECT
 10
4415.5
 20
-150.5
 30
0.0
 11
4437.1529634747967
 21
-150.5
 31
0.0
1001
ACDBBLOCKREPETAG
1070
     1
1071
       36
1005
0
  0
ARC
  5
1270FF
  8
OBJECT
 10
4500.0
 20
-199.99999999999909
 30
0.0
 40
85.0
 50
215.61620672852459
 51
313.162897140273
1001
ACDBBLOCKREPETAG
1070
     1
1071
       18
1005
0
  0
LINE
  5
127101
  8
OBJECT
 10
4454.3220385552486
 20
-176.17579607525019
 30
0.0
 11
4453.0174047416531
 21
-174.4092645125165
 31
0.0
1001
ACDBBLOCKREPETAG
1070
     1
1071
      434
1005
127101
  0
ARC
  5
127102
  8
OBJECT
 10
4450.3000008248
 20
-179.14618535863451
 30
0.0
 40
5.0
 50
0.0
 51
36.446922476136933
1001
ACDBBLOCKREPETAG
1070
     1
1071
      435
1005
127102
  0
LINE
  5
127103
  8
OBJECT
 10
4454.3220385553759
 20
-223.82420392469501
 30
0.0
 11
4453.0174047417368
 21
-225.5907354876407
 31
0.0
1001
ACDBBLOCKREPETAG
1070
     1
1071
      436
1005
127103
  0
ARC
  5
127104
  8
OBJECT
 10
4450.3000008248
 20
-220.85381464148281
 30
0.0
 40
5.0
 50
323.55307752631751
 51
0.0
1001
ACDBBLOCKREPETAG
1070
     1
1071
      437
1005
127104
  0
LINE
  5
127105
  8
OBJECT
 10
4455.3000008248
 20
-220.85381464148281
 30
0.0
 11
4455.3000008248
 21
-179.14618535863451
 31
0.0
1001
ACDBBLOCKREPETAG
1070
     1
1071
      438
1005
127105
  0
LINE
  5
127116
  8
CENTER
 10
2579.9999999999991
 20
-199.99999999999801
 30
0.0
 11
2399.9999999999991
 21
-199.99999999999801
 31
0.0
1001
ACDBBLOCKREPETAG
1070
     1
1071
       14
1005
0
  0
CIRCLE
  5
127117
  8
OBJECT
 10
2500.0
 20
-199.99999999999801
 30
0.0
 40
53.5
1001
ACDBBLOCKREPETAG
1070
     1
1071
      344
1005
0
  0
LINE
  5
127118
  8
CENTER
 10
2500.0
 20
-294.99999999999801
 30
0.0
 11
2500.0
 21
-104.999999999998
 31
0.0
1001
ACDBBLOCKREPETAG
1070
     1
1071
       15
1005
0
  0
POINT
  5
12711A
  8
DOTS
 10
2500.0
 20
-199.99999999999801
 30
0.0
 50
270.0
1001
ACDBBLOCKREPETAG
1070
     1
1071
      362
1005
0
  0
CIRCLE
  5
12711B
  8
OBJECT
 10
2500.0
 20
-199.99999999999801
 30
0.0
 40
70.0
1001
ACDBBLOCKREPETAG
1070
     1
1071
       16
1005
0
  0
ARC
  5
12711C
  8
OBJECT
 10
2500.0
 20
-199.99999999999801
 30
0.0
 40
80.0
 50
50.805032573894692
 51
309.19496742597107
1001
ACDBBLOCKREPETAG
1070
     1
1071
       18
1005
0
  0
CIRCLE
  5
12711D
  8
OBJECT
 10
2500.0
 20
-199.99999999999801
 30
0.0
 40
77.0
1001
ACDBBLOCKREPETAG
1070
     1
1071
       17
1005
0
  0
LINE
  5
12711E
  8
OBJECT
 10
2545.6618002273231
 20
-261.99999999999801
 30
0.0
 11
2579.9999999999991
 21
-261.99999999999801
 31
0.0
1001
ACDBBLOCKREPETAG
1070
     1
1071
       20
1005
0
  0
LINE
  5
12711F
  8
OBJECT
 10
2545.6618002273231
 20
-137.99999999999801
 30
0.0
 11
2579.9999999999991
 21
-137.99999999999801
 31
0.0
1001
ACDBBLOCKREPETAG
1070
     1
1071
       19
1005
0
  0
LINE
  5
127120
  8
OBJECT
 10
2366.9999999999991
 20
-254.99999999999889
 30
0.0
 11
2359.9999999999991
 21
-254.99999999999889
 31
0.0
1001
ACDBBLOCKREPETAG
1070
     1
1071
       20
1005
0
  0
LINE
  5
127121
  8
OBJECT
 10
2359.9999999999991
 20
-254.99999999999889
 30
0.0
 11
2359.9999999999991
 21
-144.99999999999881
 31
0.0
1001
ACDBBLOCKREPETAG
1070
     1
1071
       21
1005
0
  0
LINE
  5
127122
  8
OBJECT
 10
2359.9999999999991
 20
-144.99999999999881
 30
0.0
 11
2366.9999999999991
 21
-144.99999999999881
 31
0.0
1001
ACDBBLOCKREPETAG
1070
     1
1071
       22
1005
0
  0
LINE
  5
127123
  8
OBJECT
 10
2366.9999999999991
 20
-144.99999999999881
 30
0.0
 11
2366.9999999999991
 21
-254.99999999999889
 31
0.0
1001
ACDBBLOCKREPETAG
1070
     1
1071
       23
1005
0
  0
LINE
  5
127124
  8
CENTER
 10
2344.9999999999991
 20
-199.99999999999889
 30
0.0
 11
2419.9999999999991
 21
-199.99999999999889
 31
0.0
1001
ACDBBLOCKREPETAG
1070
     1
1071
       24
1005
0
  0
LINE
  5
127125
  8
OBJECT
 10
2366.9999999999991
 20
-251.99999999999889
 30
0.0
 11
2402.9999999999991
 21
-251.99999999999889
 31
0.0
1001
ACDBBLOCKREPETAG
1070
     1
1071
       25
1005
0
  0
LINE
  5
127126
  8
OBJECT
 10
2402.9999999999991
 20
-251.99999999999889
 30
0.0
 11
2402.9999999999991
 21
-147.99999999999881
 31
0.0
1001
ACDBBLOCKREPETAG
1070
     1
1071
       26
1005
0
  0
LINE
  5
127127
  8
OBJECT
 10
2402.9999999999991
 20
-147.99999999999881
 30
0.0
 11
2366.9999999999991
 21
-147.99999999999881
 31
0.0
1001
ACDBBLOCKREPETAG
1070
     1
1071
       27
1005
0
  0
LINE
  5
127128
  8
OBJECT
 10
2407.0
 20
-247.49999999999889
 30
0.0
 11
2415.4999999999991
 21
-247.49999999999889
 31
0.0
1001
ACDBBLOCKREPETAG
1070
     1
1071
       28
1005
0
  0
LINE
  5
127129
  8
OBJECT
 10
2415.4999999999991
 20
-152.49999999999881
 30
0.0
 11
2407.0
 21
-152.49999999999881
 31
0.0
1001
ACDBBLOCKREPETAG
1070
     1
1071
       29
1005
0
  0
LINE
  5
12712A
  8
OBJECT
 10
2407.0
 20
-152.49999999999881
 30
0.0
 11
2407.0
 21
-247.49999999999889
 31
0.0
1001
ACDBBLOCKREPETAG
1070
     1
1071
       30
1005
0
  0
LINE
  5
12712B
  8
OBJECT
 10
2402.9999999999991
 20
-251.99999999999889
 30
0.0
 11
2407.0
 21
-247.49999999999889
 31
0.0
1001
ACDBBLOCKREPETAG
1070
     1
1071
       31
1005
0
  0
LINE
  5
12712C
  8
OBJECT
 10
2402.9999999999991
 20
-147.99999999999881
 30
0.0
 11
2407.0
 21
-152.49999999999881
 31
0.0
1001
ACDBBLOCKREPETAG
1070
     1
1071
       32
1005
0
  0
LINE
  5
12712D
  8
OBJECT
 10
2415.5000000000009
 20
-150.49999999999881
 30
0.0
 11
2415.4999999999991
 21
-249.49999999999889
 31
0.0
1001
ACDBBLOCKREPETAG
1070
     1
1071
       33
1005
0
  0
LINE
  5
12712E
  8
HIDDEN
 10
2411.9999999999991
 20
-237.99999999999889
 30
0.0
 11
2411.9999999999991
 21
-161.99999999999881
 31
0.0
1001
ACDBBLOCKREPETAG
1070
     1
1071
       34
1005
0
  0
LINE
  5
12712F
  8
OBJECT
 10
2415.4999999999991
 20
-249.49999999999889
 30
0.0
 11
2437.1529634747981
 21
-249.49999999999889
 31
0.0
1001
ACDBBLOCKREPETAG
1070
     1
1071
       35
1005
0
  0
LINE
  5
127130
  8
OBJECT
 10
2415.5000000000009
 20
-150.49999999999881
 30
0.0
 11
2437.1529634747981
 21
-150.49999999999881
 31
0.0
1001
ACDBBLOCKREPETAG
1070
     1
1071
       36
1005
0
  0
LINE
  5
127131
  8
OBJECT
 10
2454.3220385552481
 20
-176.17579607524911
 30
0.0
 11
2453.0174047416531
 21
-174.40926451251539
 31
0.0
1001
ACDBBLOCKREPETAG
1070
     1
1071
      434
1005
127101
  0
ARC
  5
127132
  8
OBJECT
 10
2450.3000008247991
 20
-179.1461853586334
 30
0.0
 40
5.0
 50
0.0
 51
36.446922476136933
1001
ACDBBLOCKREPETAG
1070
     1
1071
      435
1005
127102
  0
LINE
  5
127133
  8
OBJECT
 10
2454.322038555375
 20
-223.8242039246939
 30
0.0
 11
2453.0174047417381
 21
-225.59073548763959
 31
0.0
1001
ACDBBLOCKREPETAG
1070
     1
1071
      436
1005
127103
  0
ARC
  5
127134
  8
OBJECT
 10
2450.3000008247991
 20
-220.8538146414817
 30
0.0
 40
5.0
 50
323.55307752631751
 51
0.0
1001
ACDBBLOCKREPETAG
1070
     1
1071
      437
1005
127104
  0
LINE
  5
127135
  8
OBJECT
 10
2455.3000008247991
 20
-220.8538146414817
 30
0.0
 11
2455.3000008247991
 21
-179.1461853586334
 31
0.0
1001
ACDBBLOCKREPETAG
1070
     1
1071
      438
1005
127105
  0
LINE
  5
127575
  8
OBJECT
 10
2632.9999999999991
 20
-137.99999999999801
 30
0.0
 11
2639.9999999999991
 21
-137.99999999999801
 31
0.0
1001
ACDBBLOCKREPETAG
1070
     1
1071
       47
1005
127575
  0
LINE
  5
127576
  8
OBJECT
 10
2639.9999999999991
 20
-137.99999999999801
 30
0.0
 11
2639.9999999999991
 21
-261.99999999999801
 31
0.0
1001
ACDBBLOCKREPETAG
1070
     1
1071
       48
1005
127576
  0
LINE
  5
127577
  8
OBJECT
 10
2639.9999999999991
 20
-261.99999999999801
 30
0.0
 11
2632.9999999999991
 21
-261.99999999999801
 31
0.0
1001
ACDBBLOCKREPETAG
1070
     1
1071
       49
1005
127577
  0
LINE
  5
127578
  8
OBJECT
 10
2632.9999999999991
 20
-261.99999999999801
 30
0.0
 11
2632.9999999999991
 21
-137.99999999999801
 31
0.0
1001
ACDBBLOCKREPETAG
1070
     1
1071
       50
1005
127578
  0
LINE
  5
127579
  8
CENTER
 10
2654.9999999999991
 20
-199.99999999999801
 30
0.0
 11
2579.9999999999991
 21
-199.99999999999801
 31
0.0
1001
ACDBBLOCKREPETAG
1070
     1
1071
       51
1005
127579
  0
LINE
  5
12757A
  8
OBJECT
 10
2632.9999999999991
 20
-140.99999999999801
 30
0.0
 11
2596.9999999999991
 21
-140.99999999999801
 31
0.0
1001
ACDBBLOCKREPETAG
1070
     1
1071
       52
1005
12757A
  0
LINE
  5
12757B
  8
OBJECT
 10
2596.9999999999991
 20
-140.99999999999801
 30
0.0
 11
2596.9999999999991
 21
-258.99999999999801
 31
0.0
1001
ACDBBLOCKREPETAG
1070
     1
1071
       53
1005
12757B
  0
LINE
  5
12757C
  8
OBJECT
 10
2596.9999999999991
 20
-258.99999999999801
 30
0.0
 11
2632.9999999999991
 21
-258.99999999999801
 31
0.0
1001
ACDBBLOCKREPETAG
1070
     1
1071
       54
1005
12757C
  0
LINE
  5
12757D
  8
OBJECT
 10
2592.9999999999991
 20
-145.49999999999801
 30
0.0
 11
2585.9999999999991
 21
-145.49999999999801
 31
0.0
1001
ACDBBLOCKREPETAG
1070
     1
1071
       55
1005
12757D
  0
LINE
  5
12757E
  8
OBJECT
 10
2585.9999999999991
 20
-254.49999999999801
 30
0.0
 11
2592.9999999999991
 21
-254.49999999999801
 31
0.0
1001
ACDBBLOCKREPETAG
1070
     1
1071
       56
1005
12757E
  0
LINE
  5
12757F
  8
OBJECT
 10
2592.9999999999991
 20
-254.49999999999801
 30
0.0
 11
2592.9999999999991
 21
-145.49999999999801
 31
0.0
1001
ACDBBLOCKREPETAG
1070
     1
1071
       57
1005
12757F
  0
LINE
  5
127580
  8
OBJECT
 10
2596.9999999999991
 20
-140.99999999999801
 30
0.0
 11
2592.9999999999991
 21
-145.49999999999801
 31
0.0
1001
ACDBBLOCKREPETAG
1070
     1
1071
       58
1005
127580
  0
LINE
  5
127581
  8
OBJECT
 10
2596.9999999999991
 20
-258.99999999999801
 30
0.0
 11
2592.9999999999991
 21
-254.49999999999801
 31
0.0
1001
ACDBBLOCKREPETAG
1070
     1
1071
       59
1005
127581
  0
LINE
  5
127582
  8
OBJECT
 10
2582.9999999999991
 20
-137.99999999999801
 30
0.0
 11
2579.9999999999991
 21
-137.99999999999801
 31
0.0
1001
ACDBBLOCKREPETAG
1070
     1
1071
       60
1005
127582
  0
ARC
  5
127583
  8
OBJECT
 10
2582.9999999999991
 20
-140.99999999999801
 30
0.0
 40
3.0
 50
0.0
 51
90.0
1001
ACDBBLOCKREPETAG
1070
     1
1071
       61
1005
127583
  0
LINE
  5
127584
  8
OBJECT
 10
2579.9999999999991
 20
-261.99999999999801
 30
0.0
 11
2582.9999999999991
 21
-261.99999999999801
 31
0.0
1001
ACDBBLOCKREPETAG
1070
     1
1071
       62
1005
127584
  0
ARC
  5
127585
  8
OBJECT
 10
2582.9999999999991
 20
-258.99999999999801
 30
0.0
 40
3.0
 50
270.0
 51
0.0
1001
ACDBBLOCKREPETAG
1070
     1
1071
       63
1005
127585
  0
LINE
  5
127586
  8
OBJECT
 10
2585.9999999999991
 20
-258.99999999999801
 30
0.0
 11
2585.9999999999991
 21
-140.99999999999801
 31
0.0
1001
ACDBBLOCKREPETAG
1070
     1
1071
       64
1005
127586
  0
LINE
  5
127587
  8
HIDDEN
 10
2587.9999999999991
 20
-155.49999999999801
 30
0.0
 11
2587.9999999999991
 21
-244.49999999999801
 31
0.0
1001
ACDBBLOCKREPETAG
1070
     1
1071
       65
1005
127587
  0
LINE
  5
127588
  8
SLIM
 10
4434.62485174211
 20
-150.49999999999909
 30
0.0
 11
4460.2662412276968
 21
-124.858610514414
 31
0.0
1001
GRADIENTCOLOR1ACI
1070
     5
1001
GRADIENTCOLOR2ACI
1070
     2
1001
ACAD
1010
0.0
1020
0.0
1030
0.0
  0
LINE
  5
127589
  8
SLIM
 10
4466.9665679627396
 20
-127.1385399004411
 30
0.0
 11
4475.4966737955074
 21
-118.6084340676734
 31
0.0
1001
GRADIENTCOLOR1ACI
1070
     5
1001
GRADIENTCOLOR2ACI
1070
     2
1001
ACAD
1010
0.0
1020
0.0
1030
0.0
  0
LINE
  5
12758A
  8
SLIM
 10
4480.7298081179297
 20
-122.3555558663202
 30
0.0
 11
4487.1009205801611
 21
-115.98444340408869
 31
0.0
1001
GRADIENTCOLOR1ACI
1070
     5
1001
GRADIENTCOLOR2ACI
1070
     2
1001
ACAD
1010
0.0
1020
0.0
1030
0.0
  0
LINE
  5
12758B
  8
SLIM
 10
4491.6261550504887
 20
-120.43946505483019
 30
0.0
 11
4497.0131249384003
 21
-115.0524951669185
 31
0.0
1001
GRADIENTCOLOR1ACI
1070
     5
1001
GRADIENTCOLOR2ACI
1070
     2
1001
ACAD
1010
0.0
1020
0.0
1030
0.0
  0
LINE
  5
12758C
  8
SLIM
 10
4501.0391272822817
 20
-120.00674894410621
 30
0.0
 11
4505.844694310249
 21
-115.20118191613891
 31
0.0
1001
GRADIENTCOLOR1ACI
1070
     5
1001
GRADIENTCOLOR2ACI
1070
     2
1001
ACAD
1010
0.0
1020
0.0
1030
0.0
  0
LINE
  5
12758D
  8
SLIM
 10
4509.4643255646179
 20
-120.5618067828391
 30
0.0
 11
4513.8844735755611
 21
-116.14165877189311
 31
0.0
1001
GRADIENTCOLOR1ACI
1070
     5
1001
GRADIENTCOLOR2ACI
1070
     2
1001
ACAD
1010
0.0
1020
0.0
1030
0.0
  0
LINE
  5
12758E
  8
SLIM
 10
4517.1471323385686
 20
-121.85925612995651
 30
0.0
 11
4521.2955183575032
 21
-117.7108701110201
 31
0.0
1001
GRADIENTCOLOR1ACI
1070
     5
1001
GRADIENTCOLOR2ACI
1070
     2
1001
ACAD
1010
0.0
1020
0.0
1030
0.0
  0
LINE
  5
12758F
  8
SLIM
 10
4524.229292622219
 20
-123.7573519673733
 30
0.0
 11
4528.1796002140081
 21
-119.80704437558779
 31
0.0
1001
GRADIENTCOLOR1ACI
1070
     5
1001
GRADIENTCOLOR2ACI
1070
     2
1001
ACAD
1010
0.0
1020
0.0
1030
0.0
  0
LINE
  5
127590
  8
SLIM
 10
4530.8001598408164
 20
-126.16674086984671
 30
0.0
 11
4534.6041959971053
 21
-122.3627047135587
 31
0.0
1001
GRADIENTCOLOR1ACI
1070
     5
1001
GRADIENTCOLOR2ACI
1070
     2
1001
ACAD
1010
0.0
1020
0.0
1030
0.0
  0
LINE
  5
127591
  8
SLIM
 10
4536.9189300973521
 20
-129.02822673437819
 30
0.0
 11
4540.6155853902883
 21
-125.3315714414439
 31
0.0
1001
GRADIENTCOLOR1ACI
1070
     5
1001
GRADIENTCOLOR2ACI
1070
     2
1001
ACAD
1010
0.0
1020
0.0
1030
0.0
  0
LINE
  5
127592
  8
SLIM
 10
4542.625662068006
 20
-132.30175088479609
 30
0.0
 11
4546.2458580590901
 21
-128.68155489371199
 31
0.0
1001
GRADIENTCOLOR1ACI
1070
     5
1001
GRADIENTCOLOR2ACI
1070
     2
1001
ACAD
1010
0.0
1020
0.0
1030
0.0
  0
LINE
  5
127593
  8
SLIM
 10
4432.3907652629223
 20
-251.51690381094841
 30
0.0
 11
4434.4076690738721
 21
-249.49999999999861
 31
0.0
1001
GRADIENTCOLOR1ACI
1070
     5
1001
GRADIENTCOLOR2ACI
1070
     2
1001
ACAD
1010
0.0
1020
0.0
1030
0.0
  0
LINE
  5
127594
  8
SLIM
 10
4547.9472200511291
 20
-135.96044902274201
 30
0.0
 11
4551.5169038109489
 21
-132.39076526292041
 31
0.0
1001
GRADIENTCOLOR1ACI
1070
     5
1001
GRADIENTCOLOR2ACI
1070
     2
1001
ACAD
1010
0.0
1020
0.0
1030
0.0
  0
LINE
  5
127595
  8
SLIM
 10
4436.4451742931069
 20
-256.44275090183191
 30
0.0
 11
4439.987301360803
 21
-252.9006238341367
 31
0.0
1001
GRADIENTCOLOR1ACI
1070
     5
1001
GRADIENTCOLOR2ACI
1070
     2
1001
ACAD
1010
0.0
1020
0.0
1030
0.0
  0
LINE
  5
127596
  8
SLIM
 10
4554.8879251949411
 20
-137.99999999999909
 30
0.0
 11
4556.4427509018342
 21
-136.44517429310599
 31
0.0
1001
GRADIENTCOLOR1ACI
1070
     5
1001
GRADIENTCOLOR2ACI
1070
     2
1001
ACAD
1010
0.0
1020
0.0
1030
0.0
  0
LINE
  5
127597
  8
SLIM
 10
4440.8372731495674
 20
-261.03090816644271
 30
0.0
 11
4444.3732607963184
 21
-257.49492051969042
 31
0.0
1001
GRADIENTCOLOR1ACI
1070
     5
1001
GRADIENTCOLOR2ACI
1070
     2
1001
ACAD
1010
0.0
1020
0.0
1030
0.0
  0
LINE
  5
127598
  8
SLIM
 10
4445.5654027321416
 20
-265.28303470493529
 30
0.0
 11
4449.1163342680156
 21
-261.73210316906119
 31
0.0
1001
GRADIENTCOLOR1ACI
1070
     5
1001
GRADIENTCOLOR2ACI
1070
     2
1001
ACAD
1010
0.0
1020
0.0
1030
0.0
  0
LINE
  5
127599
  8
SLIM
 10
4450.6336102119212
 20
-269.19508334622611
 30
0.0
 11
4454.221387368174
 21
-265.60730618997422
 31
0.0
1001
GRADIENTCOLOR1ACI
1070
     5
1001
GRADIENTCOLOR2ACI
1070
     2
1001
ACAD
1010
0.0
1020
0.0
1030
0.0
  0
LINE
  5
12759A
  8
SLIM
 10
4456.0520018449279
 20
-272.75694783428941
 30
0.0
 11
4459.7006257556995
 21
-269.10832392351722
 31
0.0
1001
GRADIENTCOLOR1ACI
1070
     5
1001
GRADIENTCOLOR2ACI
1070
     2
1001
ACAD
1010
0.0
1020
0.0
1030
0.0
  0
LINE
  5
12759B
  8
SLIM
 10
4461.8376665887208
 20
-275.95153921156628
 30
0.0
 11
4465.5748693932528
 21
-272.21433640703441
 31
0.0
1001
GRADIENTCOLOR1ACI
1070
     5
1001
GRADIENTCOLOR2ACI
1070
     2
1001
ACAD
1010
0.0
1020
0.0
1030
0.0
  0
LINE
  5
12759C
  8
SLIM
 10
4468.0163793697502
 20
-278.75308255160547
 30
0.0
 11
4471.8759515352549
 21
-274.89351038609948
 31
0.0
1001
GRADIENTCOLOR1ACI
1070
     5
1001
GRADIENTCOLOR2ACI
1070
     2
1001
ACAD
1010
0.0
1020
0.0
1030
0.0
  0
LINE
  5
12759D
  8
SLIM
 10
4474.6255187948082
 20
-281.12419924761713
 30
0.0
 11
4478.6509600030768
 21
-277.09875803934659
 31
0.0
1001
GRADIENTCOLOR1ACI
1070
     5
1001
GRADIENTCOLOR2ACI
1070
     2
1001
ACAD
1010
0.0
1020
0.0
1030
0.0
  0
LINE
  5
12759E
  8
SLIM
 10
4481.7190828919893
 20
-283.01089127150487
 30
0.0
 11
4485.9698622171827
 21
-278.76011194630968
 31
0.0
1001
GRADIENTCOLOR1ACI
1070
     5
1001
GRADIENTCOLOR2ACI
1070
     2
1001
ACAD
1010
0.0
1020
0.0
1030
0.0
  0
LINE
  5
12759F
  8
SLIM
 10
4489.3766938558801
 20
-284.33353642868298
 30
0.0
 11
4493.9400771270448
 21
-279.7701531575176
 31
0.0
1001
GRADIENTCOLOR1ACI
1070
     5
1001
GRADIENTCOLOR2ACI
1070
     2
1001
ACAD
1010
0.0
1020
0.0
1030
0.0
  0
LINE
  5
1275A0
  8
SLIM
 10
4497.7210427574209
 20
-284.96944364820962
 30
0.0
 11
4499.9999999999991
 21
-282.69048640563329
 31
0.0
1001
GRADIENTCOLOR1ACI
1070
     5
1001
GRADIENTCOLOR2ACI
1070
     2
1001
ACAD
1010
0.0
1020
0.0
1030
0.0
  0
LINE
  5
1275A1
  8
SLIM
 10
4499.9999999999991
 20
-282.69048640563329
 30
0.0
 11
4502.7373312610916
 21
-279.95315514454069
 31
0.0
1001
GRADIENTCOLOR1ACI
1070
     5
1001
GRADIENTCOLOR2ACI
1070
     2
1001
ACAD
1010
0.0
1020
0.0
1030
0.0
  0
LINE
  5
1275A2
  8
SLIM
 10
4506.9558298417924
 20
-284.714912684909
 30
0.0
 11
4512.6824114987858
 21
-278.98833102791468
 31
0.0
1001
GRADIENTCOLOR1ACI
1070
     5
1001
GRADIENTCOLOR2ACI
1070
     2
1001
ACAD
1010
0.0
1020
0.0
1030
0.0
  0
LINE
  5
1275A3
  8
SLIM
 10
4517.4645176312806
 20
-283.18648101648711
 30
0.0
 11
4524.4924948954113
 21
-276.15850375235999
 31
0.0
1001
GRADIENTCOLOR1ACI
1070
     5
1001
GRADIENTCOLOR2ACI
1070
     2
1001
ACAD
1010
0.0
1020
0.0
1030
0.0
  0
LINE
  5
1275A4
  8
SLIM
 10
4530.1631022713136
 20
-279.46815249752581
 30
0.0
 11
4540.842546319298
 21
-268.78870844954048
 31
0.0
1001
GRADIENTCOLOR1ACI
1070
     5
1001
GRADIENTCOLOR2ACI
1070
     2
1001
ACAD
1010
0.0
1020
0.0
1030
0.0
  0
LINE
  5
1275A5
  8
SLIM
 10
4549.5421817599154
 20
-269.06932912999309
 30
0.0
 11
4556.6115108899112
 21
-261.99999999999909
 31
0.0
1001
GRADIENTCOLOR1ACI
1070
     5
1001
GRADIENTCOLOR2ACI
1070
     2
1001
ACAD
1010
0.0
1020
0.0
1030
0.0
  0
LINE
  5
1275A6
  8
OBJECT
 10
4633.0
 20
-137.99999999999909
 30
0.0
 11
4640.0
 21
-137.99999999999909
 31
0.0
1001
ACDBBLOCKREPETAG
1070
     1
1071
       47
1005
1275A6
  0
LINE
  5
1275A7
  8
OBJECT
 10
4640.0
 20
-137.99999999999909
 30
0.0
 11
4640.0
 21
-261.99999999999909
 31
0.0
1001
ACDBBLOCKREPETAG
1070
     1
1071
       48
1005
1275A7
  0
LINE
  5
1275A8
  8
OBJECT
 10
4640.0
 20
-261.99999999999909
 30
0.0
 11
4633.0
 21
-261.99999999999909
 31
0.0
1001
ACDBBLOCKREPETAG
1070
     1
1071
       49
1005
1275A8
  0
LINE
  5
1275A9
  8
OBJECT
 10
4633.0
 20
-261.99999999999909
 30
0.0
 11
4633.0
 21
-137.99999999999909
 31
0.0
1001
ACDBBLOCKREPETAG
1070
     1
1071
       50
1005
1275A9
  0
LINE
  5
1275AA
  8
CENTER
 10
4655.0
 20
-199.99999999999909
 30
0.0
 11
4580.0
 21
-199.99999999999909
 31
0.0
1001
ACDBBLOCKREPETAG
1070
     1
1071
       51
1005
1275AA
  0
LINE
  5
1275AB
  8
OBJECT
 10
4633.0
 20
-140.99999999999909
 30
0.0
 11
4597.0
 21
-140.99999999999909
 31
0.0
1001
ACDBBLOCKREPETAG
1070
     1
1071
       52
1005
1275AB
  0
LINE
  5
1275AC
  8
OBJECT
 10
4597.0
 20
-140.99999999999909
 30
0.0
 11
4597.0
 21
-258.99999999999909
 31
0.0
1001
ACDBBLOCKREPETAG
1070
     1
1071
       53
1005
1275AC
  0
LINE
  5
1275AD
  8
OBJECT
 10
4597.0
 20
-258.99999999999909
 30
0.0
 11
4633.0
 21
-258.99999999999909
 31
0.0
1001
ACDBBLOCKREPETAG
1070
     1
1071
       54
1005
1275AD
  0
LINE
  5
1275AE
  8
OBJECT
 10
4593.0
 20
-145.49999999999909
 30
0.0
 11
4586.0
 21
-145.49999999999909
 31
0.0
1001
ACDBBLOCKREPETAG
1070
     1
1071
       55
1005
1275AE
  0
LINE
  5
1275AF
  8
OBJECT
 10
4586.0
 20
-254.49999999999909
 30
0.0
 11
4593.0
 21
-254.49999999999909
 31
0.0
1001
ACDBBLOCKREPETAG
1070
     1
1071
       56
1005
1275AF
  0
LINE
  5
1275B0
  8
OBJECT
 10
4593.0
 20
-254.49999999999909
 30
0.0
 11
4593.0
 21
-145.49999999999909
 31
0.0
1001
ACDBBLOCKREPETAG
1070
     1
1071
       57
1005
1275B0
  0
LINE
  5
1275B1
  8
OBJECT
 10
4597.0
 20
-140.99999999999909
 30
0.0
 11
4593.0
 21
-145.49999999999909
 31
0.0
1001
ACDBBLOCKREPETAG
1070
     1
1071
       58
1005
1275B1
  0
LINE
  5
1275B2
  8
OBJECT
 10
4597.0
 20
-258.99999999999909
 30
0.0
 11
4593.0
 21
-254.49999999999909
 31
0.0
1001
ACDBBLOCKREPETAG
1070
     1
1071
       59
1005
1275B2
  0
LINE
  5
1275B3
  8
OBJECT
 10
4583.0
 20
-137.99999999999909
 30
0.0
 11
4580.0
 21
-137.99999999999909
 31
0.0
1001
ACDBBLOCKREPETAG
1070
     1
1071
       60
1005
1275B3
  0
ARC
  5
1275B4
  8
OBJECT
 10
4583.0
 20
-140.99999999999909
 30
0.0
 40
3.0
 50
0.0
 51
90.0
1001
ACDBBLOCKREPETAG
1070
     1
1071
       61
1005
1275B4
  0
LINE
  5
1275B5
  8
OBJECT
 10
4580.0
 20
-261.99999999999909
 30
0.0
 11
4583.0
 21
-261.99999999999909
 31
0.0
1001
ACDBBLOCKREPETAG
1070
     1
1071
       62
1005
1275B5
  0
ARC
  5
1275B6
  8
OBJECT
 10
4583.0
 20
-258.99999999999909
 30
0.0
 40
3.0
 50
270.0
 51
0.0
1001
ACDBBLOCKREPETAG
1070
     1
1071
       63
1005
1275B6
  0
LINE
  5
1275B7
  8
OBJECT
 10
4586.0
 20
-258.99999999999909
 30
0.0
 11
4586.0
 21
-140.99999999999909
 31
0.0
1001
ACDBBLOCKREPETAG
1070
     1
1071
       64
1005
1275B7
  0
LINE
  5
1275B8
  8
HIDDEN
 10
4588.0
 20
-155.49999999999909
 30
0.0
 11
4588.0
 21
-244.49999999999909
 31
0.0
1001
ACDBBLOCKREPETAG
1070
     1
1071
       65
1005
1275B8
  0
LINE
  5
1275B9
  8
OBJECT
 10
242.00000000000679
 20
-1556.9999999999991
 30
0.0
 11
242.00000000000679
 21
-1563.9999999999991
 31
0.0
1001
ACDBBLOCKREPETAG
1070
     1
1071
       34
1005
1275B9
  0
LINE
  5
1275BA
  8
OBJECT
 10
242.00000000000679
 20
-1563.9999999999991
 30
0.0
 11
118.00000000000681
 21
-1563.9999999999991
 31
0.0
1001
ACDBBLOCKREPETAG
1070
     1
1071
       35
1005
1275BA
  0
LINE
  5
1275BB
  8
OBJECT
 10
118.00000000000681
 20
-1563.9999999999991
 30
0.0
 11
118.00000000000681
 21
-1556.9999999999991
 31
0.0
1001
ACDBBLOCKREPETAG
1070
     1
1071
       36
1005
1275BB
  0
LINE
  5
1275BC
  8
OBJECT
 10
118.00000000000681
 20
-1556.9999999999991
 30
0.0
 11
242.00000000000679
 21
-1556.9999999999991
 31
0.0
1001
ACDBBLOCKREPETAG
1070
     1
1071
       37
1005
1275BC
  0
LINE
  5
1275BD
  8
OBJECT
 10
239.00000000000679
 20
-1556.9999999999991
 30
0.0
 11
239.00000000000679
 21
-1520.9999999999991
 31
0.0
1001
ACDBBLOCKREPETAG
1070
     1
1071
       38
1005
1275BD
  0
LINE
  5
1275BE
  8
OBJECT
 10
239.00000000000679
 20
-1520.9999999999991
 30
0.0
 11
121.00000000000681
 21
-1520.9999999999991
 31
0.0
1001
ACDBBLOCKREPETAG
1070
     1
1071
       39
1005
1275BE
  0
LINE
  5
1275BF
  8
OBJECT
 10
121.00000000000681
 20
-1520.9999999999991
 30
0.0
 11
121.00000000000681
 21
-1556.9999999999991
 31
0.0
1001
ACDBBLOCKREPETAG
1070
     1
1071
       40
1005
1275BF
  0
LINE
  5
1275C0
  8
OBJECT
 10
234.50000000000679
 20
-1516.9999999999991
 30
0.0
 11
234.50000000000679
 21
-1506.4999999999991
 31
0.0
1001
ACDBBLOCKREPETAG
1070
     1
1071
       41
1005
1275C0
  0
LINE
  5
1275C1
  8
OBJECT
 10
125.50000000000681
 20
-1506.4999999999991
 30
0.0
 11
125.50000000000681
 21
-1516.9999999999991
 31
0.0
1001
ACDBBLOCKREPETAG
1070
     1
1071
       42
1005
1275C1
  0
LINE
  5
1275C2
  8
OBJECT
 10
125.50000000000681
 20
-1516.9999999999991
 30
0.0
 11
234.50000000000679
 21
-1516.9999999999991
 31
0.0
1001
ACDBBLOCKREPETAG
1070
     1
1071
       43
1005
1275C2
  0
LINE
  5
1275C3
  8
OBJECT
 10
239.00000000000679
 20
-1520.9999999999991
 30
0.0
 11
234.50000000000679
 21
-1516.9999999999991
 31
0.0
1001
ACDBBLOCKREPETAG
1070
     1
1071
       44
1005
1275C3
  0
LINE
  5
1275C4
  8
OBJECT
 10
121.00000000000681
 20
-1520.9999999999991
 30
0.0
 11
125.50000000000681
 21
-1516.9999999999991
 31
0.0
1001
ACDBBLOCKREPETAG
1070
     1
1071
       45
1005
1275C4
  0
LINE
  5
1275C5
  8
OBJECT
 10
229.50000000000679
 20
-1501.4999999999991
 30
0.0
 11
229.50000000000591
 21
-1480.344919912978
 31
0.0
1001
ACDBBLOCKREPETAG
1070
     1
1071
       46
1005
1275C5
  0
LINE
  5
1275C6
  8
OBJECT
 10
130.50000000000679
 20
-1501.4999999999991
 30
0.0
 11
130.50000000000679
 21
-1480.344919912977
 31
0.0
1001
ACDBBLOCKREPETAG
1070
     1
1071
       47
1005
1275C6
  0
LINE
  5
1275C7
  8
OBJECT
 10
234.50000000000679
 20
-1506.4999999999991
 30
0.0
 11
125.50000000000681
 21
-1506.4999999999991
 31
0.0
1001
ACDBBLOCKREPETAG
1070
     1
1071
       48
1005
1275C7
  0
LINE
  5
1275C8
  8
OBJECT
 10
229.50000000000679
 20
-1501.4999999999991
 30
0.0
 11
130.50000000000679
 21
-1501.4999999999991
 31
0.0
1001
ACDBBLOCKREPETAG
1070
     1
1071
       49
1005
1275C8
  0
LINE
  5
1275C9
  8
OBJECT
 10
234.50000000000679
 20
-1506.4999999999991
 30
0.0
 11
229.50000000000679
 21
-1501.4999999999991
 31
0.0
1001
ACDBBLOCKREPETAG
1070
     1
1071
       50
1005
1275C9
  0
LINE
  5
1275CA
  8
OBJECT
 10
130.50000000000679
 20
-1501.4999999999991
 30
0.0
 11
125.5000000000104
 21
-1506.4999999999991
 31
0.0
1001
ACDBBLOCKREPETAG
1070
     1
1071
       51
1005
1275CA
  0
INSERT
  5
1275CB
  8
SLIM
  2
*U33
 10
0.0
 20
0.0
 30
0.0
  0
LINE
  5
1275CC
  8
HIDDEN
 10
224.50000000000679
 20
-1511.9999999999991
 30
0.0
 11
135.50000000000679
 21
-1511.9999999999991
 31
0.0
1001
ACDBBLOCKREPETAG
1070
     1
1071
       65
1005
1275CC
  0
CIRCLE
  5
1275CD
  8
OBJECT
 10
180.00000000000679
 20
-1423.9999999999991
 30
0.0
 40
70.0
1001
ACDBBLOCKREPETAG
1070
     1
1071
       50
1005
1275CD
  0
CIRCLE
  5
1275CE
  8
OBJECT
 10
180.00000000000679
 20
-1423.9999999999991
 30
0.0
 40
75.0
1001
ACDBBLOCKREPETAG
1070
     1
1071
       51
1005
1275CE
  0
POINT
  5
1275CF
  8
DOTS
 10
180.00000000000679
 20
-1423.9999999999991
 30
0.0
1001
ACDBBLOCKREPETAG
1070
     1
1071
       63
1005
1275CF
  0
ARC
  5
1275D0
  8
OBJECT
 10
180.00000000000679
 20
-1423.9999999999991
 30
0.0
 40
55.0
 50
299.30224576428708
 51
240.69775423598111
1001
ACDBBLOCKREPETAG
1070
     1
1071
       50
1005
1275CD
  0
LINE
  5
1275D1
  8
OBJECT
 10
156.17579607525781
 20
-1469.6779614447539
 30
0.0
 11
148.18761767300521
 21
-1475.5774584435469
 31
0.0
  0
ARC
  5
1275D2
  8
OBJECT
 10
159.14618535864199
 20
-1473.6999991752029
 30
0.0
 40
5.0
 50
90.0
 51
126.4469224760731
  0
LINE
  5
1275D3
  8
OBJECT
 10
203.82420392470291
 20
-1469.677961444627
 30
0.0
 11
211.8124539801006
 21
-1475.577511360777
 31
0.0
  0
ARC
  5
1275D4
  8
OBJECT
 10
200.85381464148989
 20
-1473.6999991752029
 30
0.0
 40
5.0
 50
53.553077526274542
 51
90.0
  0
LINE
  5
1275D5
  8
OBJECT
 10
200.85381464148989
 20
-1468.6999991752029
 30
0.0
 11
159.14618535864199
 21
-1468.6999991752029
 31
0.0
  0
ARC
  5
1275D6
  8
OBJECT
 10
207.05983112696001
 20
-1482.0127717296989
 30
0.0
 40
8.0
 50
16.476216247958561
 51
53.553077526274542
  0
ARC
  5
1275D7
  8
OBJECT
 10
152.94016887305179
 20
-1482.0127717296989
 30
0.0
 40
8.0
 50
126.44692247372539
 51
163.5237837520414
  0
LINE
  5
1275D8
  8
OBJECT
 10
145.26866848598141
 20
-1479.7438332529759
 30
0.0
 11
144.00000000000679
 21
-1484.0333240792161
 31
0.0
  0
LINE
  5
1275D9
  8
OBJECT
 10
214.73133151403229
 20
-1479.7438332529759
 30
0.0
 11
216.00000000000679
 21
-1484.0333240792161
 31
0.0
  0
LINE
  5
1275DA
  8
OBJECT
 10
595.00000000000659
 20
-1092.9999999999991
 30
0.0
 11
595.00000000000659
 21
-1099.9999999999991
 31
0.0
1001
ACDBBLOCKREPETAG
1070
     1
1071
       18
1005
1275DA
  0
LINE
  5
1275DB
  8
OBJECT
 10
595.00000000000659
 20
-1099.9999999999991
 30
0.0
 11
485.00000000000682
 21
-1099.9999999999991
 31
0.0
1001
ACDBBLOCKREPETAG
1070
     1
1071
       19
1005
1275DB
  0
LINE
  5
1275DC
  8
OBJECT
 10
485.00000000000682
 20
-1099.9999999999991
 30
0.0
 11
485.00000000000682
 21
-1092.9999999999991
 31
0.0
1001
ACDBBLOCKREPETAG
1070
     1
1071
       20
1005
1275DC
  0
LINE
  5
1275DD
  8
OBJECT
 10
485.00000000000682
 20
-1092.9999999999991
 30
0.0
 11
595.00000000000659
 21
-1092.9999999999991
 31
0.0
1001
ACDBBLOCKREPETAG
1070
     1
1071
       21
1005
1275DD
  0
LINE
  5
1275DE
  8
OBJECT
 10
592.00000000000671
 20
-1092.9999999999991
 30
0.0
 11
592.00000000000671
 21
-1056.9999999999991
 31
0.0
1001
ACDBBLOCKREPETAG
1070
     1
1071
       22
1005
1275DE
  0
LINE
  5
1275DF
  8
OBJECT
 10
592.00000000000671
 20
-1056.9999999999991
 30
0.0
 11
488.00000000000671
 21
-1056.9999999999991
 31
0.0
1001
ACDBBLOCKREPETAG
1070
     1
1071
       23
1005
1275DF
  0
LINE
  5
1275E0
  8
OBJECT
 10
488.00000000000671
 20
-1056.9999999999991
 30
0.0
 11
488.00000000000671
 21
-1092.9999999999991
 31
0.0
1001
ACDBBLOCKREPETAG
1070
     1
1071
       24
1005
1275E0
  0
LINE
  5
1275E1
  8
OBJECT
 10
587.50000000000671
 20
-1052.9999999999991
 30
0.0
 11
587.50000000000671
 21
-1044.4999999999991
 31
0.0
1001
ACDBBLOCKREPETAG
1070
     1
1071
       25
1005
1275E1
  0
LINE
  5
1275E2
  8
OBJECT
 10
492.50000000000671
 20
-1044.499999999998
 30
0.0
 11
492.50000000000671
 21
-1052.9999999999991
 31
0.0
1001
ACDBBLOCKREPETAG
1070
     1
1071
       26
1005
1275E2
  0
LINE
  5
1275E3
  8
OBJECT
 10
492.50000000000671
 20
-1052.9999999999991
 30
0.0
 11
587.50000000000671
 21
-1052.9999999999991
 31
0.0
1001
ACDBBLOCKREPETAG
1070
     1
1071
       27
1005
1275E3
  0
LINE
  5
1275E4
  8
OBJECT
 10
592.00000000000671
 20
-1056.9999999999991
 30
0.0
 11
587.50000000000671
 21
-1052.9999999999991
 31
0.0
1001
ACDBBLOCKREPETAG
1070
     1
1071
       28
1005
1275E4
  0
LINE
  5
1275E5
  8
OBJECT
 10
488.00000000000671
 20
-1056.9999999999991
 30
0.0
 11
492.50000000000671
 21
-1052.9999999999991
 31
0.0
1001
ACDBBLOCKREPETAG
1070
     1
1071
       29
1005
1275E5
  0
LINE
  5
1275E6
  8
OBJECT
 10
490.50000000000671
 20
-1044.499999999997
 30
0.0
 11
589.50000000000671
 21
-1044.4999999999991
 31
0.0
1001
ACDBBLOCKREPETAG
1070
     1
1071
       30
1005
1275E6
  0
LINE
  5
1275E7
  8
OBJECT
 10
589.50000000000671
 20
-1044.4999999999991
 30
0.0
 11
589.50000000000591
 21
-1016.344919912978
 31
0.0
1001
ACDBBLOCKREPETAG
1070
     1
1071
       31
1005
1275E7
  0
LINE
  5
1275E8
  8
OBJECT
 10
490.50000000000671
 20
-1044.499999999997
 30
0.0
 11
490.50000000000568
 21
-1016.344919912977
 31
0.0
1001
ACDBBLOCKREPETAG
1070
     1
1071
       32
1005
1275E8
  0
INSERT
  5
1275E9
  8
SLIM
  2
*U34
 10
0.0
 20
0.0
 30
0.0
  0
LINE
  5
1275EA
  8
HIDDEN
 10
578.00000000000659
 20
-1047.9999999999991
 30
0.0
 11
502.00000000000671
 21
-1047.9999999999991
 31
0.0
1001
ACDBBLOCKREPETAG
1070
     1
1071
       57
1005
1275EA
  0
CIRCLE
  5
1275EB
  8
OBJECT
 10
540.00000000000682
 20
-959.99999999999875
 30
0.0
 40
70.0
1001
ACDBBLOCKREPETAG
1070
     1
1071
       50
1005
1275EB
  0
CIRCLE
  5
1275EC
  8
OBJECT
 10
540.00000000000682
 20
-959.99999999999875
 30
0.0
 40
75.0
1001
ACDBBLOCKREPETAG
1070
     1
1071
       51
1005
1275EC
  0
POINT
  5
1275ED
  8
DOTS
 10
540.00000000000682
 20
-959.99999999999875
 30
0.0
1001
ACDBBLOCKREPETAG
1070
     1
1071
       63
1005
1275ED
  0
ARC
  5
1275EE
  8
OBJECT
 10
540.00000000000682
 20
-959.99999999999875
 30
0.0
 40
55.0
 50
299.30224576428549
 51
240.6977542359827
1001
ACDBBLOCKREPETAG
1070
     1
1071
       50
1005
1275EB
  0
LINE
  5
1275EF
  8
OBJECT
 10
516.17579607525795
 20
-1005.677961444754
 30
0.0
 11
508.18761767300521
 21
-1011.577458443547
 31
0.0
  0
ARC
  5
1275F0
  8
OBJECT
 10
519.14618535864201
 20
-1009.699999175202
 30
0.0
 40
5.0
 50
90.0
 51
126.4469224760718
  0
LINE
  5
1275F1
  8
OBJECT
 10
563.82420392470294
 20
-1005.677961444627
 30
0.0
 11
571.8124539801006
 21
-1011.577511360777
 31
0.0
  0
ARC
  5
1275F2
  8
OBJECT
 10
560.85381464148975
 20
-1009.699999175202
 30
0.0
 40
5.0
 50
53.55307752627585
 51
90.0
  0
LINE
  5
1275F3
  8
OBJECT
 10
560.85381464148975
 20
-1004.6999991752029
 30
0.0
 11
519.14618535864201
 21
-1004.6999991752029
 31
0.0
  0
ARC
  5
1275F4
  8
OBJECT
 10
567.05983112696003
 20
-1018.012771729699
 30
0.0
 40
8.0
 50
16.476216247958561
 51
53.55307752627585
  0
ARC
  5
1275F5
  8
OBJECT
 10
512.94016887305156
 20
-1018.012771729699
 30
0.0
 40
8.0
 50
126.4469224737241
 51
163.5237837520414
  0
LINE
  5
1275F6
  8
OBJECT
 10
505.2686684859811
 20
-1015.743833252975
 30
0.0
 11
504.00000000000671
 21
-1020.033324079216
 31
0.0
  0
LINE
  5
1275F7
  8
OBJECT
 10
574.73133151403215
 20
-1015.743833252975
 30
0.0
 11
576.00000000000671
 21
-1020.033324079216
 31
0.0
  0
LINE
  5
1275F8
  8
OBJECT
 10
227.00000000000679
 20
-1092.9999999999991
 30
0.0
 11
227.00000000000679
 21
-1099.9999999999991
 31
0.0
1001
ACDBBLOCKREPETAG
1070
     1
1071
        0
1005
1275F8
  0
LINE
  5
1275F9
  8
OBJECT
 10
227.00000000000679
 20
-1099.9999999999991
 30
0.0
 11
133.00000000000679
 21
-1099.9999999999991
 31
0.0
1001
ACDBBLOCKREPETAG
1070
     1
1071
        1
1005
1275F9
  0
LINE
  5
1275FA
  8
OBJECT
 10
133.00000000000679
 20
-1099.9999999999991
 30
0.0
 11
133.00000000000679
 21
-1092.9999999999991
 31
0.0
1001
ACDBBLOCKREPETAG
1070
     1
1071
        2
1005
1275FA
  0
LINE
  5
1275FB
  8
OBJECT
 10
133.00000000000679
 20
-1092.9999999999991
 30
0.0
 11
227.00000000000679
 21
-1092.9999999999991
 31
0.0
1001
ACDBBLOCKREPETAG
1070
     1
1071
        3
1005
1275FB
  0
LINE
  5
1275FC
  8
OBJECT
 10
224.00000000000679
 20
-1092.9999999999991
 30
0.0
 11
224.00000000000679
 21
-1056.9999999999991
 31
0.0
1001
ACDBBLOCKREPETAG
1070
     1
1071
        4
1005
1275FC
  0
LINE
  5
1275FD
  8
OBJECT
 10
224.00000000000679
 20
-1056.9999999999991
 30
0.0
 11
136.00000000000679
 21
-1056.9999999999991
 31
0.0
1001
ACDBBLOCKREPETAG
1070
     1
1071
        5
1005
1275FD
  0
LINE
  5
1275FE
  8
OBJECT
 10
136.00000000000679
 20
-1056.9999999999991
 30
0.0
 11
136.00000000000679
 21
-1092.9999999999991
 31
0.0
1001
ACDBBLOCKREPETAG
1070
     1
1071
        6
1005
1275FE
  0
LINE
  5
1275FF
  8
OBJECT
 10
219.50000000000679
 20
-1052.9999999999991
 30
0.0
 11
219.50000000000679
 21
-1044.4999999999991
 31
0.0
1001
ACDBBLOCKREPETAG
1070
     1
1071
        7
1005
1275FF
  0
LINE
  5
127600
  8
OBJECT
 10
140.50000000000679
 20
-1044.499999999998
 30
0.0
 11
140.50000000000679
 21
-1052.9999999999991
 31
0.0
1001
ACDBBLOCKREPETAG
1070
     1
1071
        8
1005
127600
  0
LINE
  5
127601
  8
OBJECT
 10
140.50000000000679
 20
-1052.9999999999991
 30
0.0
 11
219.50000000000679
 21
-1052.9999999999991
 31
0.0
1001
ACDBBLOCKREPETAG
1070
     1
1071
        9
1005
127601
  0
LINE
  5
127602
  8
OBJECT
 10
224.00000000000679
 20
-1056.9999999999991
 30
0.0
 11
219.50000000000679
 21
-1052.9999999999991
 31
0.0
1001
ACDBBLOCKREPETAG
1070
     1
1071
       10
1005
127602
  0
LINE
  5
127603
  8
OBJECT
 10
136.00000000000679
 20
-1056.9999999999991
 30
0.0
 11
140.50000000000679
 21
-1052.9999999999991
 31
0.0
1001
ACDBBLOCKREPETAG
1070
     1
1071
       11
1005
127603
  0
LINE
  5
127604
  8
OBJECT
 10
133.50000000000679
 20
-1044.499999999998
 30
0.0
 11
226.50000000000679
 21
-1044.4999999999991
 31
0.0
1001
ACDBBLOCKREPETAG
1070
     1
1071
       12
1005
127604
  0
ARC
  5
127605
  8
OBJECT
 10
226.50000000000679
 20
-1041.4999999999991
 30
0.0
 40
3.0
 50
270.0
 51
0.0
1001
ACDBBLOCKREPETAG
1070
     1
1071
       13
1005
127605
  0
LINE
  5
127606
  8
OBJECT
 10
229.50000000000679
 20
-1041.4999999999991
 30
0.0
 11
229.5000000000077
 21
-1016.344919912977
 31
0.0
1001
ACDBBLOCKREPETAG
1070
     1
1071
       15
1005
127606
  0
LINE
  5
127607
  8
OBJECT
 10
130.50000000000679
 20
-1041.499999999998
 30
0.0
 11
130.5000000000077
 21
-1016.344919912978
 31
0.0
1001
ACDBBLOCKREPETAG
1070
     1
1071
       16
1005
127607
  0
ARC
  5
127608
  8
OBJECT
 10
133.50000000000679
 20
-1041.499999999998
 30
0.0
 40
3.0
 50
180.0
 51
270.0
1001
ACDBBLOCKREPETAG
1070
     1
1071
       17
1005
127608
  0
INSERT
  5
127609
  8
SLIM
  2
*U35
 10
0.0
 20
0.0
 30
0.0
  0
LINE
  5
12760A
  8
HIDDEN
 10
210.00000000000679
 20
-1047.9999999999991
 30
0.0
 11
150.00000000000679
 21
-1047.9999999999991
 31
0.0
1001
ACDBBLOCKREPETAG
1070
     1
1071
       56
1005
12760A
  0
CIRCLE
  5
12760B
  8
OBJECT
 10
180.00000000000679
 20
-959.99999999999875
 30
0.0
 40
70.0
1001
ACDBBLOCKREPETAG
1070
     1
1071
       50
1005
12760B
  0
CIRCLE
  5
12760C
  8
OBJECT
 10
180.00000000000679
 20
-959.99999999999875
 30
0.0
 40
75.0
1001
ACDBBLOCKREPETAG
1070
     1
1071
       51
1005
12760C
  0
POINT
  5
12760D
  8
DOTS
 10
180.00000000000679
 20
-959.99999999999875
 30
0.0
1001
ACDBBLOCKREPETAG
1070
     1
1071
       63
1005
12760D
  0
ARC
  5
12760E
  8
OBJECT
 10
180.00000000000679
 20
-959.99999999999875
 30
0.0
 40
55.0
 50
299.30224576428708
 51
240.69775423598111
1001
ACDBBLOCKREPETAG
1070
     1
1071
       50
1005
12760B
  0
LINE
  5
12760F
  8
OBJECT
 10
156.17579607525781
 20
-1005.677961444754
 30
0.0
 11
148.18761767300521
 21
-1011.577458443547
 31
0.0
  0
ARC
  5
127610
  8
OBJECT
 10
159.14618535864199
 20
-1009.699999175202
 30
0.0
 40
5.0
 50
90.0
 51
126.4469224760731
  0
LINE
  5
127611
  8
OBJECT
 10
203.82420392470291
 20
-1005.677961444627
 30
0.0
 11
211.8124539801006
 21
-1011.577511360777
 31
0.0
  0
ARC
  5
127612
  8
OBJECT
 10
200.85381464148989
 20
-1009.699999175202
 30
0.0
 40
5.0
 50
53.553077526274542
 51
90.0
  0
LINE
  5
127613
  8
OBJECT
 10
200.85381464148989
 20
-1004.6999991752029
 30
0.0
 11
159.14618535864199
 21
-1004.6999991752029
 31
0.0
  0
ARC
  5
127614
  8
OBJECT
 10
207.05983112696001
 20
-1018.012771729699
 30
0.0
 40
8.0
 50
16.476216247958561
 51
53.553077526274542
  0
ARC
  5
127615
  8
OBJECT
 10
152.94016887305179
 20
-1018.012771729699
 30
0.0
 40
8.0
 50
126.44692247372539
 51
163.5237837520414
  0
LINE
  5
127616
  8
OBJECT
 10
145.26866848598141
 20
-1015.743833252975
 30
0.0
 11
144.00000000000679
 21
-1020.033324079216
 31
0.0
  0
LINE
  5
127617
  8
OBJECT
 10
214.73133151403229
 20
-1015.743833252975
 30
0.0
 11
216.00000000000679
 21
-1020.033324079216
 31
0.0
  0
TEXT
  5
127618
  8
SLIM
 10
97.714285714224999
 20
-1707.9999999996919
 30
0.0
 40
48.0
  1
A0030
 41
0.75
1001
ACDBBLOCKREPETAG
1070
     1
1071
      119
1005
0
  0
TEXT
  5
127619
  8
SLIM
 10
457.71428571410308
 20
-1243.9999999998511
 30
0.0
 40
48.0
  1
A0020
 41
0.75
1001
ACDBBLOCKREPETAG
1070
     1
1071
      119
1005
0
  0
TEXT
  5
12761A
  8
SLIM
 10
101.1428571427964
 20
-1243.9999999998511
 30
0.0
 40
48.0
  1
A0010
 41
0.75
1001
ACDBBLOCKREPETAG
1070
     1
1071
      119
1005
0
  0
POLYLINE
  5
12761B
  8
HIDDEN
 66
     1
 10
0.0
 20
0.0
 30
0.0
 70
     1
1001
ACDBBLOCKREPETAG
1070
     1
1071
      105
1005
0
  0
VERTEX
  5
127A81
  8
HIDDEN
 10
359.99999999987779
 20
-799.9999999999992
 30
0.0
  0
VERTEX
  5
127A82
  8
HIDDEN
 10
719.99999999975603
 20
-799.9999999999992
 30
0.0
  0
VERTEX
  5
127A83
  8
HIDDEN
 10
719.99999999975603
 20
-1263.9999999998411
 30
0.0
  0
VERTEX
  5
127A84
  8
HIDDEN
 10
359.99999999987779
 20
-1263.9999999998411
 30
0.0
  0
SEQEND
  5
127A85
  8
HIDDEN
  0
POLYLINE
  5
12761C
  8
HIDDEN
 66
     1
 10
0.0
 20
0.0
 30
0.0
 70
     1
1001
ACDBBLOCKREPETAG
1070
     1
1071
      110
1005
0
  0
VERTEX
  5
127A86
  8
HIDDEN
 10
-0.0000000000002274
 20
-799.9999999999992
 30
0.0
  0
VERTEX
  5
127A87
  8
HIDDEN
 10
359.99999999987779
 20
-799.9999999999992
 30
0.0
  0
VERTEX
  5
127A88
  8
HIDDEN
 10
359.99999999987779
 20
-1263.9999999998411
 30
0.0
  0
VERTEX
  5
127A89
  8
HIDDEN
 10
-0.0000000000002274
 20
-1263.9999999998411
 30
0.0
  0
SEQEND
  5
127A8A
  8
HIDDEN
  0
POLYLINE
  5
12761D
  8
HIDDEN
 66
     1
 10
0.0
 20
0.0
 30
0.0
 70
     1
1001
ACDBBLOCKREPETAG
1070
     1
1071
      125
1005
0
  0
VERTEX
  5
127A8B
  8
HIDDEN
 10
-0.0000000000002274
 20
-1263.9999999998411
 30
0.0
  0
VERTEX
  5
127A8C
  8
HIDDEN
 10
359.99999999987779
 20
-1263.9999999998411
 30
0.0
  0
VERTEX
  5
127A8D
  8
HIDDEN
 10
359.99999999987779
 20
-1727.999999999681
 30
0.0
  0
VERTEX
  5
127A8E
  8
HIDDEN
 10
-0.0000000000002274
 20
-1727.999999999681
 30
0.0
  0
SEQEND
  5
127A8F
  8
HIDDEN
  0
POLYLINE
  5
12761E
  8
HIDDEN
 66
     1
 10
0.0
 20
0.0
 30
0.0
 70
     1
1001
ACDBBLOCKREPETAG
1070
     1
1071
      110
1005
0
  0
VERTEX
  5
127A90
  8
HIDDEN
 10
-0.0000000000002274
 20
0.0
 30
0.0
  0
VERTEX
  5
127A91
  8
HIDDEN
 10
359.99999999987779
 20
0.0
 30
0.0
  0
VERTEX
  5
127A92
  8
HIDDEN
 10
359.99999999987779
 20
-463.99999999984158
 30
0.0
  0
VERTEX
  5
127A93
  8
HIDDEN
 10
-0.0000000000002274
 20
-463.99999999984158
 30
0.0
  0
SEQEND
  5
127A94
  8
HIDDEN
  0
TEXT
  5
12761F
  8
SLIM
 10
4970.0571428571429
 20
-1352.9999999999959
 30
0.0
 40
24.0
  1
190～240
 41
0.75
  0
TEXT
  5
127620
  8
SLIM
 10
4970.0571428571429
 20
-1304.9999999999959
 30
0.0
 40
24.0
  1
190～250
 41
0.75
  0
TEXT
  5
127621
  8
SLIM
 10
4970.0571428571429
 20
-1256.9999999999959
 30
0.0
 40
24.0
  1
190～260
 41
0.75
  0
TEXT
  5
127622
  8
SLIM
 10
4970.0571428571429
 20
-1208.9999999999959
 30
0.0
 40
24.0
  1
190～270
 41
0.75
  0
TEXT
  5
127623
  8
SLIM
 10
4970.0571428571429
 20
-1160.9999999999959
 30
0.0
 40
24.0
  1
190～280
 41
0.75
  0
TEXT
  5
127624
  8
SLIM
 10
4970.0571428571429
 20
-1112.9999999999959
 30
0.0
 40
24.0
  1
190～290
 41
0.75
  0
TEXT
  5
127625
  8
SLIM
 10
4970.0571428571429
 20
-1064.9999999999959
 30
0.0
 40
24.0
  1
190～300
 41
0.75
  0
TEXT
  5
127626
  8
SLIM
 10
4948.4571428571444
 20
-1410.9999999999959
 30
0.0
 40
24.0
  1
標準：m=240
 41
0.75
  0
TEXT
  5
127627
  8
SLIM
 10
4878.8571428571431
 20
-1352.9999999999959
 30
0.0
 40
24.0
  1
320
 41
0.75
  0
TEXT
  5
127628
  8
SLIM
 10
4880.5714285714284
 20
-1304.9999999999959
 30
0.0
 40
24.0
  1
310
 41
0.75
  0
TEXT
  5
127629
  8
SLIM
 10
4878.8571428571431
 20
-1256.9999999999959
 30
0.0
 40
24.0
  1
300
 41
0.75
  0
TEXT
  5
12762A
  8
SLIM
 10
4878.8571428571431
 20
-1208.9999999999959
 30
0.0
 40
24.0
  1
290
 41
0.75
  0
TEXT
  5
12762B
  8
SLIM
 10
4878.8571428571431
 20
-1160.9999999999959
 30
0.0
 40
24.0
  1
280
 41
0.75
  0
TEXT
  5
12762C
  8
SLIM
 10
4878.8571428571431
 20
-1112.9999999999959
 30
0.0
 40
24.0
  1
270
 41
0.75
  0
TEXT
  5
12762D
  8
SLIM
 10
4878.8571428571431
 20
-1064.9999999999959
 30
0.0
 40
24.0
  1
260
 41
0.75
  0
TEXT
  5
12762E
  8
SLIM
 10
4878.8571428571431
 20
-1016.999999999996
 30
0.0
 40
24.0
  1
250
 41
0.75
  0
TEXT
  5
12762F
  8
SLIM
 10
4971.7714285714292
 20
-1016.999999999996
 30
0.0
 40
24.0
  1
190～310
 41
0.75
  0
TEXT
  5
127630
  8
SLIM
 10
4878.8571428571431
 20
-968.99999999999625
 30
0.0
 40
24.0
  1
240
 41
0.75
  0
TEXT
  5
127631
  8
SLIM
 10
4970.0571428571429
 20
-968.99999999999625
 30
0.0
 40
24.0
  1
190～320
 41
0.75
  0
TEXT
  5
127632
  8
SLIM
 10
4878.8571428571431
 20
-920.99999999999613
 30
0.0
 40
24.0
  1
230
 41
0.75
  0
TEXT
  5
127633
  8
SLIM
 10
4968.3428571428567
 20
-920.99999999999613
 30
0.0
 40
24.0
  1
200～330
 41
0.75
  0
TEXT
  5
127634
  8
SLIM
 10
4878.8571428571431
 20
-872.99999999999613
 30
0.0
 40
24.0
  1
220
 41
0.75
  0
TEXT
  5
127635
  8
SLIM
 10
4970.0571428571429
 20
-872.99999999999613
 30
0.0
 40
24.0
  1
210～340
 41
0.75
  0
TEXT
  5
127636
  8
SLIM
 10
4873.8000000000002
 20
-824.99999999999602
 30
0.0
 40
24.0
  1
P寸法
 41
0.75
  0
TEXT
  5
127637
  8
SLIM
 10
4974.3428571428567
 20
-824.99999999999602
 30
0.0
 40
24.0
  1
対応m寸法
 41
0.75
  0
TEXT
  5
127638
  8
SLIM
 10
4054.599999999999
 20
-1698.000026666665
 30
0.0
 40
28.0
  1
※ 対応P寸法　　220～320（10mm単位）
 41
0.75
  0
TEXT
  5
127639
  8
SLIM
 10
4054.599999999999
 20
-1744.6666933333311
 30
0.0
 40
28.0
  1
※ 対応スラブ厚　180～（m-10）
 41
0.75
  0
TEXT
  5
12763A
  8
SLIM
 10
4054.599999999999
 20
-1791.333359999998
 30
0.0
 40
28.0
  1
※ 足切り可能寸法（最大）　560-P-m（コンパクトＬベンド使用なら+10）
 41
0.75
  0
TEXT
  5
12763B
  8
SLIM
 10
4098.8999999999987
 20
-1863.3333066666651
 30
0.0
 40
28.0
  1
国土交通大臣認定・（一財）日本消防設備安全センター性能評定取得品
 41
0.75
  0
TEXT
  5
12763C
  8
SLIM
 10
4131.1000000000004
 20
-1909.999973333332
 30
0.0
 40
28.0
  1
注）ご採用にあたり、認定書及び評定書の内容をご確認ください。
 41
0.75
  0
LINE
  5
12763D
  8
SLIM
 10
4414.9999999999927
 20
-1032.2369265471759
 30
0.0
 11
4431.2369265471698
 21
-1016.0
 31
0.0
1001
GRADIENTCOLOR1ACI
1070
     5
1001
GRADIENTCOLOR2ACI
1070
     2
1001
ACAD
1010
0.0
1020
0.0
1030
0.0
  0
LINE
  5
12763E
  8
SLIM
 10
4414.9999999999927
 20
-1050.197438789314
 30
0.0
 11
4449.1974387893069
 21
-1016.0
 31
0.0
1001
GRADIENTCOLOR1ACI
1070
     5
1001
GRADIENTCOLOR2ACI
1070
     2
1001
ACAD
1010
0.0
1020
0.0
1030
0.0
  0
LINE
  5
12763F
  8
SLIM
 10
4414.9999999999955
 20
-1068.15795103145
 30
0.0
 11
4467.1579510314441
 21
-1016.0
 31
0.0
1001
GRADIENTCOLOR1ACI
1070
     5
1001
GRADIENTCOLOR2ACI
1070
     2
1001
ACAD
1010
0.0
1020
0.0
1030
0.0
  0
LINE
  5
127640
  8
SLIM
 10
4415.1454972543143
 20
-1085.9729660192691
 30
0.0
 11
4485.1184632735849
 21
-1016.0
 31
0.0
1001
GRADIENTCOLOR1ACI
1070
     5
1001
GRADIENTCOLOR2ACI
1070
     2
1001
ACAD
1010
0.0
1020
0.0
1030
0.0
  0
LINE
  5
127641
  8
SLIM
 10
4417.1046274952441
 20
-1101.9743480204791
 30
0.0
 11
4503.078975515722
 21
-1016.0
 31
0.0
1001
GRADIENTCOLOR1ACI
1070
     5
1001
GRADIENTCOLOR2ACI
1070
     2
1001
ACAD
1010
0.0
1020
0.0
1030
0.0
  0
LINE
  5
127642
  8
SLIM
 10
4419.0637577361713
 20
-1117.9757300216891
 30
0.0
 11
4521.0394877578619
 21
-1016.0
 31
0.0
1001
GRADIENTCOLOR1ACI
1070
     5
1001
GRADIENTCOLOR2ACI
1070
     2
1001
ACAD
1010
0.0
1020
0.0
1030
0.0
  0
LINE
  5
127643
  8
SLIM
 10
4420.0
 20
-1135.0
 30
0.0
 11
4539.0
 21
-1016.0
 31
0.0
1001
GRADIENTCOLOR1ACI
1070
     5
1001
GRADIENTCOLOR2ACI
1070
     2
1001
ACAD
1010
0.0
1020
0.0
1030
0.0
  0
LINE
  5
127644
  8
SLIM
 10
4420.0
 20
-1152.9605122421381
 30
0.0
 11
4556.9605122421372
 21
-1016.0
 31
0.0
1001
GRADIENTCOLOR1ACI
1070
     5
1001
GRADIENTCOLOR2ACI
1070
     2
1001
ACAD
1010
0.0
1020
0.0
1030
0.0
  0
LINE
  5
127645
  8
SLIM
 10
4420.0
 20
-1170.9210244842759
 30
0.0
 11
4574.921024484277
 21
-1016.0
 31
0.0
1001
GRADIENTCOLOR1ACI
1070
     5
1001
GRADIENTCOLOR2ACI
1070
     2
1001
ACAD
1010
0.0
1020
0.0
1030
0.0
  0
LINE
  5
127646
  8
SLIM
 10
4420.0
 20
-1188.8815367264151
 30
0.0
 11
4585.0000000000073
 21
-1023.8815367264079
 31
0.0
1001
GRADIENTCOLOR1ACI
1070
     5
1001
GRADIENTCOLOR2ACI
1070
     2
1001
ACAD
1010
0.0
1020
0.0
1030
0.0
  0
LINE
  5
127647
  8
SLIM
 10
4420.0
 20
-1206.842048968552
 30
0.0
 11
4585.0000000000073
 21
-1041.842048968547
 31
0.0
1001
GRADIENTCOLOR1ACI
1070
     5
1001
GRADIENTCOLOR2ACI
1070
     2
1001
ACAD
1010
0.0
1020
0.0
1030
0.0
  0
LINE
  5
127648
  8
SLIM
 10
4420.0
 20
-1224.802561210691
 30
0.0
 11
4585.0000000000036
 21
-1059.802561210686
 31
0.0
1001
GRADIENTCOLOR1ACI
1070
     5
1001
GRADIENTCOLOR2ACI
1070
     2
1001
ACAD
1010
0.0
1020
0.0
1030
0.0
  0
LINE
  5
127649
  8
SLIM
 10
4420.0
 20
-1242.76307345283
 30
0.0
 11
4585.0000000000009
 21
-1077.7630734528259
 31
0.0
1001
GRADIENTCOLOR1ACI
1070
     5
1001
GRADIENTCOLOR2ACI
1070
     2
1001
ACAD
1010
0.0
1020
0.0
1030
0.0
  0
LINE
  5
12764A
  8
SLIM
 10
4424.7235856949692
 20
-1256.0
 30
0.0
 11
4583.4738280308084
 21
-1097.249757664159
 31
0.0
1001
GRADIENTCOLOR1ACI
1070
     5
1001
GRADIENTCOLOR2ACI
1070
     2
1001
ACAD
1010
0.0
1020
0.0
1030
0.0
  0
LINE
  5
12764B
  8
SLIM
 10
4430.0
 20
-1268.6840979371059
 30
0.0
 11
4442.6840979371063
 21
-1256.0
 31
0.0
1001
GRADIENTCOLOR1ACI
1070
     5
1001
GRADIENTCOLOR2ACI
1070
     2
1001
ACAD
1010
0.0
1020
0.0
1030
0.0
  0
LINE
  5
12764C
  8
SLIM
 10
4442.6840979371063
 20
-1256.0
 30
0.0
 11
4580.9680345671368
 21
-1117.7160633699691
 31
0.0
1001
GRADIENTCOLOR1ACI
1070
     5
1001
GRADIENTCOLOR2ACI
1070
     2
1001
ACAD
1010
0.0
1020
0.0
1030
0.0
  0
LINE
  5
12764D
  8
SLIM
 10
4441.6446101792453
 20
-1275.0
 30
0.0
 11
4460.6446101792462
 21
-1256.0
 31
0.0
1001
GRADIENTCOLOR1ACI
1070
     5
1001
GRADIENTCOLOR2ACI
1070
     2
1001
ACAD
1010
0.0
1020
0.0
1030
0.0
  0
LINE
  5
12764E
  8
SLIM
 10
4460.6446101792462
 20
-1256.0
 30
0.0
 11
4580.0
 21
-1136.6446101792451
 31
0.0
1001
GRADIENTCOLOR1ACI
1070
     5
1001
GRADIENTCOLOR2ACI
1070
     2
1001
ACAD
1010
0.0
1020
0.0
1030
0.0
  0
LINE
  5
12764F
  8
SLIM
 10
4459.6051224213843
 20
-1275.0
 30
0.0
 11
4478.6051224213843
 21
-1256.0
 31
0.0
1001
GRADIENTCOLOR1ACI
1070
     5
1001
GRADIENTCOLOR2ACI
1070
     2
1001
ACAD
1010
0.0
1020
0.0
1030
0.0
  0
LINE
  5
127650
  8
SLIM
 10
4478.6051224213843
 20
-1256.0
 30
0.0
 11
4580.0
 21
-1154.605122421382
 31
0.0
1001
GRADIENTCOLOR1ACI
1070
     5
1001
GRADIENTCOLOR2ACI
1070
     2
1001
ACAD
1010
0.0
1020
0.0
1030
0.0
  0
LINE
  5
127651
  8
SLIM
 10
4477.5656346635215
 20
-1275.0
 30
0.0
 11
4496.5656346635215
 21
-1256.0
 31
0.0
1001
GRADIENTCOLOR1ACI
1070
     5
1001
GRADIENTCOLOR2ACI
1070
     2
1001
ACAD
1010
0.0
1020
0.0
1030
0.0
  0
LINE
  5
127652
  8
SLIM
 10
4496.5656346635215
 20
-1256.0
 30
0.0
 11
4579.9999999999991
 21
-1172.5656346635219
 31
0.0
1001
GRADIENTCOLOR1ACI
1070
     5
1001
GRADIENTCOLOR2ACI
1070
     2
1001
ACAD
1010
0.0
1020
0.0
1030
0.0
  0
LINE
  5
127653
  8
SLIM
 10
4495.5261469056586
 20
-1275.0
 30
0.0
 11
4514.5261469056613
 21
-1256.0
 31
0.0
1001
GRADIENTCOLOR1ACI
1070
     5
1001
GRADIENTCOLOR2ACI
1070
     2
1001
ACAD
1010
0.0
1020
0.0
1030
0.0
  0
LINE
  5
127654
  8
SLIM
 10
4514.5261469056613
 20
-1256.0
 30
0.0
 11
4579.9999999999991
 21
-1190.52614690566
 31
0.0
1001
GRADIENTCOLOR1ACI
1070
     5
1001
GRADIENTCOLOR2ACI
1070
     2
1001
ACAD
1010
0.0
1020
0.0
1030
0.0
  0
LINE
  5
127655
  8
SLIM
 10
4513.4866591477976
 20
-1275.0
 30
0.0
 11
4532.4866591478003
 21
-1256.0
 31
0.0
1001
GRADIENTCOLOR1ACI
1070
     5
1001
GRADIENTCOLOR2ACI
1070
     2
1001
ACAD
1010
0.0
1020
0.0
1030
0.0
  0
LINE
  5
127656
  8
SLIM
 10
4532.4866591478003
 20
-1256.0
 30
0.0
 11
4579.9999999999991
 21
-1208.4866591477989
 31
0.0
1001
GRADIENTCOLOR1ACI
1070
     5
1001
GRADIENTCOLOR2ACI
1070
     2
1001
ACAD
1010
0.0
1020
0.0
1030
0.0
  0
LINE
  5
127657
  8
SLIM
 10
4531.4471713899356
 20
-1275.0
 30
0.0
 11
4550.4471713899356
 21
-1256.0
 31
0.0
1001
GRADIENTCOLOR1ACI
1070
     5
1001
GRADIENTCOLOR2ACI
1070
     2
1001
ACAD
1010
0.0
1020
0.0
1030
0.0
  0
LINE
  5
127658
  8
SLIM
 10
4550.4471713899356
 20
-1256.0
 30
0.0
 11
4579.9999999999982
 21
-1226.4471713899379
 31
0.0
1001
GRADIENTCOLOR1ACI
1070
     5
1001
GRADIENTCOLOR2ACI
1070
     2
1001
ACAD
1010
0.0
1020
0.0
1030
0.0
  0
LINE
  5
127659
  8
SLIM
 10
4549.4076836320737
 20
-1275.0
 30
0.0
 11
4568.4076836320728
 21
-1256.0
 31
0.0
1001
GRADIENTCOLOR1ACI
1070
     5
1001
GRADIENTCOLOR2ACI
1070
     2
1001
ACAD
1010
0.0
1020
0.0
1030
0.0
  0
LINE
  5
12765A
  8
SLIM
 10
4568.4076836320728
 20
-1256.0
 30
0.0
 11
4579.9999999999982
 21
-1244.407683632076
 31
0.0
1001
GRADIENTCOLOR1ACI
1070
     5
1001
GRADIENTCOLOR2ACI
1070
     2
1001
ACAD
1010
0.0
1020
0.0
1030
0.0
  0
LINE
  5
12765B
  8
SLIM
 10
4567.3681958742118
 20
-1275.0
 30
0.0
 11
4570.0
 21
-1272.3681958742129
 31
0.0
1001
GRADIENTCOLOR1ACI
1070
     5
1001
GRADIENTCOLOR2ACI
1070
     2
1001
ACAD
1010
0.0
1020
0.0
1030
0.0
  0
LINE
  5
12765C
  8
OBJECT
 10
4414.9999999999918
 20
-1016.0
 30
0.0
 11
4414.9999999999973
 21
-1084.784603399034
 31
0.0
1001
ACDBBLOCKREPETAG
1070
     1
1071
        1
1005
12765C
  0
LINE
  5
12765D
  8
OBJECT
 10
4585.0000000000073
 20
-1016.0
 30
0.0
 11
4585.0000000000009
 21
-1084.784603399042
 31
0.0
1001
ACDBBLOCKREPETAG
1070
     1
1071
        2
1005
12765D
  0
LINE
  5
12765E
  8
OBJECT
 10
4585.0000000000073
 20
-1016.0
 30
0.0
 11
4414.9999999999918
 21
-1016.0
 31
0.0
1001
ACDBBLOCKREPETAG
1070
     1
1071
        3
1005
12765E
  0
LINE
  5
12765F
  8
OBJECT
 10
4579.9999999999982
 20
-1256.0
 30
0.0
 11
4420.0
 21
-1256.0
 31
0.0
1001
ACDBBLOCKREPETAG
1070
     1
1071
        4
1005
12765F
  0
LINE
  5
127660
  8
OBJECT
 10
4414.9999999999973
 20
-1084.784603399034
 30
0.0
 11
4420.0
 21
-1125.622577482987
 31
0.0
1001
ACDBBLOCKREPETAG
1070
     1
1071
        6
1005
127660
  0
LINE
  5
127661
  8
OBJECT
 10
4420.0
 20
-1125.622577482987
 30
0.0
 11
4420.0
 21
-1256.0
 31
0.0
1001
ACDBBLOCKREPETAG
1070
     1
1071
        7
1005
127661
  0
LINE
  5
127662
  8
OBJECT
 10
4585.0000000000009
 20
-1084.784603399042
 30
0.0
 11
4580.0
 21
-1125.622577482987
 31
0.0
1001
ACDBBLOCKREPETAG
1070
     1
1071
        8
1005
127662
  0
LINE
  5
127663
  8
OBJECT
 10
4580.0
 20
-1125.622577482987
 30
0.0
 11
4579.9999999999982
 21
-1256.0
 31
0.0
1001
ACDBBLOCKREPETAG
1070
     1
1071
        9
1005
127663
  0
LINE
  5
127664
  8
OBJECT
 10
4430.0
 20
-1256.0
 30
0.0
 11
4430.0
 21
-1275.0
 31
0.0
1001
ACDBBLOCKREPETAG
1070
     1
1071
       10
1005
127664
  0
LINE
  5
127665
  8
OBJECT
 10
4430.0
 20
-1275.0
 30
0.0
 11
4570.0
 21
-1275.0
 31
0.0
1001
ACDBBLOCKREPETAG
1070
     1
1071
       11
1005
127665
  0
LINE
  5
127666
  8
OBJECT
 10
4570.0
 20
-1275.0
 30
0.0
 11
4570.0
 21
-1256.0
 31
0.0
1001
ACDBBLOCKREPETAG
1070
     1
1071
       12
1005
127666
  0
LINE
  5
127667
  8
OBJECT
 10
4430.0
 20
-1364.999999999998
 30
0.0
 11
4570.0
 21
-1364.999999999998
 31
0.0
1001
ACDBBLOCKREPETAG
1070
     1
1071
        0
1005
127667
  0
LINE
  5
127668
  8
OBJECT
 10
4430.0
 20
-1364.999999999998
 30
0.0
 11
4430.0
 21
-1124.999999999998
 31
0.0
1001
ACDBBLOCKREPETAG
1070
     1
1071
        1
1005
127668
  0
LINE
  5
127669
  8
OBJECT
 10
4570.0
 20
-1364.999999999998
 30
0.0
 11
4570.0
 21
-1124.999999999998
 31
0.0
1001
ACDBBLOCKREPETAG
1070
     1
1071
        2
1005
127669
  0
LINE
  5
12766A
  8
OBJECT
 10
4430.0
 20
-1124.999999999998
 30
0.0
 11
4570.0
 21
-1124.999999999998
 31
0.0
1001
ACDBBLOCKREPETAG
1070
     1
1071
        3
1005
12766A
  0
LINE
  5
12766B
  8
HIDDEN
 10
4437.5
 20
-1124.999999999998
 30
0.0
 11
4437.5
 21
-1364.999999999998
 31
0.0
1001
ACDBBLOCKREPETAG
1070
     1
1071
        4
1005
12766B
  0
LINE
  5
12766C
  8
HIDDEN
 10
4562.5
 20
-1124.999999999998
 30
0.0
 11
4562.5
 21
-1364.999999999998
 31
0.0
1001
ACDBBLOCKREPETAG
1070
     1
1071
        5
1005
12766C
  0
LINE
  5
12766D
  8
CENTER
 10
4500.0
 20
-1055.0
 30
0.0
 11
4500.0
 21
-1379.999999999998
 31
0.0
1001
ACDBBLOCKREPETAG
1070
     1
1071
        6
1005
12766D
  0
LINE
  5
12766E
  8
OBJECT
 10
4425.0
 20
-1055.0
 30
0.0
 11
4425.0
 21
-1084.999999999998
 31
0.0
1001
ACDBBLOCKREPETAG
1070
     1
1071
        7
1005
12766E
  0
LINE
  5
12766F
  8
OBJECT
 10
4575.0000000000009
 20
-1055.0
 30
0.0
 11
4575.0
 21
-1084.999999999998
 31
0.0
1001
ACDBBLOCKREPETAG
1070
     1
1071
        8
1005
12766F
  0
LINE
  5
127670
  8
OBJECT
 10
4425.0
 20
-1084.999999999998
 30
0.0
 11
4575.0
 21
-1084.999999999998
 31
0.0
1001
ACDBBLOCKREPETAG
1070
     1
1071
        9
1005
127670
  0
LINE
  5
127671
  8
OBJECT
 10
4425.0
 20
-1084.999999999998
 30
0.0
 11
4430.0
 21
-1124.999999999998
 31
0.0
1001
ACDBBLOCKREPETAG
1070
     1
1071
       10
1005
127671
  0
LINE
  5
127672
  8
OBJECT
 10
4570.0
 20
-1124.999999999998
 30
0.0
 11
4575.0
 21
-1084.999999999998
 31
0.0
1001
ACDBBLOCKREPETAG
1070
     1
1071
       11
1005
127672
  0
LINE
  5
127673
  8
OBJECT
 10
2430.0
 20
-1364.999999999998
 30
0.0
 11
2570.0
 21
-1364.999999999998
 31
0.0
1001
ACDBBLOCKREPETAG
1070
     1
1071
        0
1005
127673
  0
LINE
  5
127674
  8
OBJECT
 10
2430.0
 20
-1364.999999999998
 30
0.0
 11
2430.0
 21
-1124.999999999998
 31
0.0
1001
ACDBBLOCKREPETAG
1070
     1
1071
        1
1005
127674
  0
LINE
  5
127675
  8
OBJECT
 10
2570.0
 20
-1364.999999999998
 30
0.0
 11
2570.0
 21
-1124.999999999998
 31
0.0
1001
ACDBBLOCKREPETAG
1070
     1
1071
        2
1005
127675
  0
LINE
  5
127676
  8
OBJECT
 10
2430.0
 20
-1124.999999999998
 30
0.0
 11
2570.0
 21
-1124.999999999998
 31
0.0
1001
ACDBBLOCKREPETAG
1070
     1
1071
        3
1005
127676
  0
LINE
  5
127677
  8
HIDDEN
 10
2437.5
 20
-1124.999999999998
 30
0.0
 11
2437.5
 21
-1364.999999999998
 31
0.0
1001
ACDBBLOCKREPETAG
1070
     1
1071
        4
1005
127677
  0
LINE
  5
127678
  8
HIDDEN
 10
2562.5
 20
-1124.999999999998
 30
0.0
 11
2562.5
 21
-1364.999999999998
 31
0.0
1001
ACDBBLOCKREPETAG
1070
     1
1071
        5
1005
127678
  0
LINE
  5
127679
  8
CENTER
 10
2500.0
 20
-1055.0
 30
0.0
 11
2500.0
 21
-1379.999999999998
 31
0.0
1001
ACDBBLOCKREPETAG
1070
     1
1071
        6
1005
127679
  0
LINE
  5
12767A
  8
OBJECT
 10
2425.0
 20
-1055.0
 30
0.0
 11
2425.0
 21
-1084.999999999998
 31
0.0
1001
ACDBBLOCKREPETAG
1070
     1
1071
        7
1005
12767A
  0
LINE
  5
12767B
  8
OBJECT
 10
2575.000000000005
 20
-1055.0
 30
0.0
 11
2575.0
 21
-1084.999999999998
 31
0.0
1001
ACDBBLOCKREPETAG
1070
     1
1071
        8
1005
12767B
  0
LINE
  5
12767C
  8
OBJECT
 10
2425.0
 20
-1084.999999999998
 30
0.0
 11
2575.0
 21
-1084.999999999998
 31
0.0
1001
ACDBBLOCKREPETAG
1070
     1
1071
        9
1005
12767C
  0
LINE
  5
12767D
  8
OBJECT
 10
2425.0
 20
-1084.999999999998
 30
0.0
 11
2430.0
 21
-1124.999999999998
 31
0.0
1001
ACDBBLOCKREPETAG
1070
     1
1071
       10
1005
12767D
  0
LINE
  5
12767E
  8
OBJECT
 10
2570.0
 20
-1124.999999999998
 30
0.0
 11
2575.0
 21
-1084.999999999998
 31
0.0
1001
ACDBBLOCKREPETAG
1070
     1
1071
       11
1005
12767E
  0
CIRCLE
  5
12767F
  8
OBJECT
 10
180.00000000004181
 20
-232.00000000017189
 30
0.0
 40
70.0
1001
ACDBBLOCKREPETAG
1070
     1
1071
       50
1005
12767F
  0
CIRCLE
  5
127680
  8
OBJECT
 10
180.00000000004181
 20
-232.00000000017189
 30
0.0
 40
77.0
1001
ACDBBLOCKREPETAG
1070
     1
1071
       51
1005
127680
  0
ARC
  5
127681
  8
OBJECT
 10
180.00000000004181
 20
-232.00000000017189
 30
0.0
 40
80.0
 50
140.80503257377961
 51
39.194967426220252
1001
ACDBBLOCKREPETAG
1070
     1
1071
       52
1005
127681
  0
LINE
  5
127682
  8
OBJECT
 10
118.00000000004179
 20
-186.3381997728473
 30
0.0
 11
118.00000000004179
 21
-152.00000000017181
 31
0.0
1001
ACDBBLOCKREPETAG
1070
     1
1071
       53
1005
127682
  0
LINE
  5
127683
  8
OBJECT
 10
242.00000000004181
 20
-186.3381997728473
 30
0.0
 11
242.00000000004181
 21
-152.00000000017181
 31
0.0
1001
ACDBBLOCKREPETAG
1070
     1
1071
       54
1005
127683
  0
POINT
  5
127684
  8
DOTS
 10
180.00000000004181
 20
-232.00000000017189
 30
0.0
1001
ACDBBLOCKREPETAG
1070
     1
1071
       63
1005
127684
  0
CIRCLE
  5
127685
  8
OBJECT
 10
180.00000000004181
 20
-232.00000000017189
 30
0.0
 40
53.5
1001
ACDBBLOCKREPETAG
1070
     1
1071
      157
1005
127685
  0
LINE
  5
127686
  8
OBJECT
 10
156.17579607529291
 20
-277.67796144492331
 30
0.0
 11
154.40926451255919
 21
-278.98259525851881
 31
0.0
1001
ACDBBLOCKREPETAG
1070
     1
1071
      162
1005
127686
  0
ARC
  5
127687
  8
OBJECT
 10
159.1461853586772
 20
-281.69999917537177
 30
0.0
 40
5.0
 50
90.0
 51
126.4469224761369
1001
ACDBBLOCKREPETAG
1070
     1
1071
      163
1005
127687
  0
LINE
  5
127688
  8
OBJECT
 10
203.8242039247377
 20
-277.67796144479598
 30
0.0
 11
205.59073548768339
 21
-278.98259525843332
 31
0.0
1001
ACDBBLOCKREPETAG
1070
     1
1071
      164
1005
127688
  0
ARC
  5
127689
  8
OBJECT
 10
200.85381464152559
 20
-281.69999917537177
 30
0.0
 40
5.0
 50
53.553077526317523
 51
90.0
1001
ACDBBLOCKREPETAG
1070
     1
1071
      165
1005
127689
  0
LINE
  5
12768A
  8
OBJECT
 10
200.85381464152559
 20
-276.69999917537177
 30
0.0
 11
159.1461853586772
 21
-276.69999917537177
 31
0.0
1001
ACDBBLOCKREPETAG
1070
     1
1071
      166
1005
12768A
  0
INSERT
  5
12768B
  8
SLIM
  2
*U36
 10
0.0
 20
0.0
 30
0.0
  0
LINE
  5
12768C
  8
OBJECT
 10
118.00000000004179
 20
-99.000000000171866
 30
0.0
 11
118.00000000004179
 21
-92.000000000171866
 31
0.0
1001
ACDBBLOCKREPETAG
1070
     1
1071
       39
1005
12768C
  0
LINE
  5
12768D
  8
OBJECT
 10
118.00000000004179
 20
-92.000000000171866
 30
0.0
 11
242.00000000004181
 21
-92.000000000171866
 31
0.0
1001
ACDBBLOCKREPETAG
1070
     1
1071
       40
1005
12768D
  0
LINE
  5
12768E
  8
OBJECT
 10
242.00000000004181
 20
-92.000000000171866
 30
0.0
 11
242.00000000004181
 21
-99.000000000171866
 31
0.0
1001
ACDBBLOCKREPETAG
1070
     1
1071
       41
1005
12768E
  0
LINE
  5
12768F
  8
OBJECT
 10
242.00000000004181
 20
-99.000000000171866
 30
0.0
 11
118.00000000004179
 21
-99.000000000171866
 31
0.0
1001
ACDBBLOCKREPETAG
1070
     1
1071
       42
1005
12768F
  0
LINE
  5
127690
  8
OBJECT
 10
121.00000000004179
 20
-99.000000000171866
 30
0.0
 11
121.00000000004179
 21
-135.00000000017181
 31
0.0
1001
ACDBBLOCKREPETAG
1070
     1
1071
       43
1005
127690
  0
LINE
  5
127691
  8
OBJECT
 10
121.00000000004179
 20
-135.00000000017181
 30
0.0
 11
239.00000000004181
 21
-135.00000000017181
 31
0.0
1001
ACDBBLOCKREPETAG
1070
     1
1071
       44
1005
127691
  0
LINE
  5
127692
  8
OBJECT
 10
239.00000000004181
 20
-135.00000000017181
 30
0.0
 11
239.00000000004181
 21
-99.000000000171866
 31
0.0
1001
ACDBBLOCKREPETAG
1070
     1
1071
       45
1005
127692
  0
LINE
  5
127693
  8
OBJECT
 10
125.50000000004179
 20
-139.00000000017181
 30
0.0
 11
125.50000000004179
 21
-146.00000000017181
 31
0.0
1001
ACDBBLOCKREPETAG
1070
     1
1071
       46
1005
127693
  0
LINE
  5
127694
  8
OBJECT
 10
234.50000000004181
 20
-146.00000000017181
 30
0.0
 11
234.50000000004181
 21
-139.00000000017181
 31
0.0
1001
ACDBBLOCKREPETAG
1070
     1
1071
       47
1005
127694
  0
LINE
  5
127695
  8
OBJECT
 10
234.50000000004181
 20
-139.00000000017181
 30
0.0
 11
125.50000000004179
 21
-139.00000000017181
 31
0.0
1001
ACDBBLOCKREPETAG
1070
     1
1071
       48
1005
127695
  0
LINE
  5
127696
  8
OBJECT
 10
121.00000000004179
 20
-135.00000000017181
 30
0.0
 11
125.50000000004179
 21
-139.00000000017181
 31
0.0
1001
ACDBBLOCKREPETAG
1070
     1
1071
       49
1005
127696
  0
LINE
  5
127697
  8
OBJECT
 10
239.00000000004181
 20
-135.00000000017181
 30
0.0
 11
234.50000000004181
 21
-139.00000000017181
 31
0.0
1001
ACDBBLOCKREPETAG
1070
     1
1071
       50
1005
127697
  0
LINE
  5
127698
  8
OBJECT
 10
118.00000000004179
 20
-149.00000000017101
 30
0.0
 11
118.00000000004179
 21
-152.00000000017181
 31
0.0
1001
ACDBBLOCKREPETAG
1070
     1
1071
       51
1005
127698
  0
ARC
  5
127699
  8
OBJECT
 10
121.00000000004179
 20
-149.00000000017101
 30
0.0
 40
3.0
 50
90.0
 51
180.0
1001
ACDBBLOCKREPETAG
1070
     1
1071
       52
1005
127699
  0
LINE
  5
12769A
  8
OBJECT
 10
242.00000000004181
 20
-152.00000000017181
 30
0.0
 11
242.00000000004181
 21
-149.0000000001728
 31
0.0
1001
ACDBBLOCKREPETAG
1070
     1
1071
       53
1005
12769A
  0
ARC
  5
12769B
  8
OBJECT
 10
239.00000000004181
 20
-149.0000000001728
 30
0.0
 40
3.0
 50
0.0
 51
90.0
1001
ACDBBLOCKREPETAG
1070
     1
1071
       54
1005
12769B
  0
LINE
  5
12769C
  8
OBJECT
 10
239.00000000004181
 20
-146.0000000001728
 30
0.0
 11
121.00000000004179
 21
-146.00000000017101
 31
0.0
1001
ACDBBLOCKREPETAG
1070
     1
1071
       55
1005
12769C
  0
LINE
  5
12769D
  8
HIDDEN
 10
135.50000000004181
 20
-144.00000000017189
 30
0.0
 11
224.50000000004181
 21
-144.00000000017189
 31
0.0
1001
ACDBBLOCKREPETAG
1070
     1
1071
      426
1005
12769D
  0
TEXT
  5
12769E
  8
SLIM
 10
0.000003566523219
 20
-775.9999954146823
 30
0.0
 40
79.999999999972701
  1
下部枝管バリエーション
 41
0.75
1001
ACDBBLOCKREPETAG
1070
     1
1071
      119
1005
120BCB
  0
LINE
  5
12769F
  8
DIM
 10
4404.9999999999936
 20
-1015.999999999999
 30
0.0
 11
4333.1164560757752
 21
-1015.999999999999
 31
0.0
  0
LINE
  5
1276A0
  8
DIM
 10
4410.0
 20
-1256.0
 30
0.0
 11
4333.1164560757752
 21
-1256.0
 31
0.0
  0
LINE
  5
1276A1
  8
DIM
 10
4343.1164560757752
 20
-1035.9999999999991
 30
0.0
 11
4343.1164560757752
 21
-1236.0
 31
0.0
  0
INSERT
  5
1276A2
  8
DIM
  2
_OPEN30
 10
4343.1164560757752
 20
-1015.999999999999
 30
0.0
 41
20.0
 42
20.0
 43
20.0
 50
90.0
  0
INSERT
  5
1276A3
  8
DIM
  2
_OPEN30
 10
4343.1164560757752
 20
-1256.0
 30
0.0
 41
20.0
 42
20.0
 43
20.0
 50
270.0
  0
INSERT
  5
1276A4
  8
SLIM
  2
*U37
 10
0.0
 20
0.0
 30
0.0
  0
LINE
  5
1276A5
  8
DIM
 10
4665.0
 20
-696.0
 30
0.0
 11
4719.4245816727571
 21
-696.0
 31
0.0
  0
LINE
  5
1276A6
  8
DIM
 10
4413.0
 20
-1016.0
 30
0.0
 11
4719.4245816727571
 21
-1016.0
 31
0.0
  0
LINE
  5
1276A7
  8
DIM
 10
4709.4245816727562
 20
-716.0
 30
0.0
 11
4709.4245816727562
 21
-996.0
 31
0.0
  0
INSERT
  5
1276A8
  8
DIM
  2
_OPEN30
 10
4709.4245816727562
 20
-696.0
 30
0.0
 41
20.0
 42
20.0
 43
20.0
 50
90.0
  0
INSERT
  5
1276A9
  8
DIM
  2
_OPEN30
 10
4709.4245816727562
 20
-1016.0
 30
0.0
 41
20.0
 42
20.0
 43
20.0
 50
270.0
  0
INSERT
  5
1276AA
  8
SLIM
  2
*U38
 10
0.0
 20
0.0
 30
0.0
  0
LINE
  5
1276AB
  8
OBJECT
 10
4425.0
 20
-770.0
 30
0.0
 11
4425.0
 21
-907.50000000006526
 31
0.0
1001
ACDBBLOCKREPETAG
1070
     1
1071
        1
1005
1276AB
  0
LINE
  5
1276AC
  8
OBJECT
 10
4575.0
 20
-769.9999999999942
 30
0.0
 11
4575.0
 21
-1043.0
 31
0.0
1001
ACDBBLOCKREPETAG
1070
     1
1071
        3
1005
1276AC
  0
LINE
  5
1276AD
  8
CENTER
 10
4500.0
 20
-770.0
 30
0.0
 11
4500.0
 21
-1055.0
 31
0.0
1001
ACDBBLOCKREPETAG
1070
     1
1071
        6
1005
1276AD
  0
LINE
  5
1276AE
  8
OBJECT
 10
4420.0
 20
-1055.0
 30
0.0
 11
4580.0
 21
-1055.0
 31
0.0
1001
ACDBBLOCKREPETAG
1070
     1
1071
        7
1005
1276AE
  0
LINE
  5
1276AF
  8
OBJECT
 10
4420.0
 20
-1043.0
 30
0.0
 11
4580.0
 21
-1043.0
 31
0.0
1001
ACDBBLOCKREPETAG
1070
     1
1071
        8
1005
1276AF
  0
LINE
  5
1276B0
  8
OBJECT
 10
4420.0
 20
-1043.0
 30
0.0
 11
4420.0
 21
-1055.0
 31
0.0
1001
ACDBBLOCKREPETAG
1070
     1
1071
        9
1005
1276B0
  0
LINE
  5
1276B1
  8
OBJECT
 10
4580.0
 20
-1043.0
 30
0.0
 11
4580.0
 21
-1055.0
 31
0.0
1001
ACDBBLOCKREPETAG
1070
     1
1071
       10
1005
1276B1
  0
LINE
  5
1276B2
  8
OBJECT
 10
4367.0
 20
-909.0
 30
0.0
 11
4360.0
 21
-909.0
 31
0.0
1001
ACDBBLOCKREPETAG
1070
     1
1071
       23
1005
1276B2
  0
LINE
  5
1276B3
  8
OBJECT
 10
4360.0
 20
-909.0
 30
0.0
 11
4360.0
 21
-1016.0
 31
0.0
1001
ACDBBLOCKREPETAG
1070
     1
1071
       24
1005
1276B3
  0
LINE
  5
1276B4
  8
OBJECT
 10
4415.5
 20
-910.50000000006548
 30
0.0
 11
4415.5
 21
-1013.5
 31
0.0
1001
ACDBBLOCKREPETAG
1070
     1
1071
       25
1005
1276B4
  0
ARC
  5
1276B5
  8
OBJECT
 10
4418.5
 20
-910.50000000006548
 30
0.0
 40
3.0
 50
90.0
 51
180.0
1001
ACDBBLOCKREPETAG
1070
     1
1071
       26
1005
1276B5
  0
LINE
  5
1276B6
  8
OBJECT
 10
4367.0
 20
-1016.0
 30
0.0
 11
4367.0
 21
-909.0
 31
0.0
1001
ACDBBLOCKREPETAG
1070
     1
1071
       27
1005
1276B6
  0
LINE
  5
1276B7
  8
CENTER
 10
4345.0
 20
-964.0
 30
0.0
 11
4458.6550800869954
 21
-964.00000000006526
 31
0.0
1001
ACDBBLOCKREPETAG
1070
     1
1071
       28
1005
1276B7
  0
LINE
  5
1276B8
  8
OBJECT
 10
4367.0
 20
-912.0
 30
0.0
 11
4403.0
 21
-912.0
 31
0.0
1001
ACDBBLOCKREPETAG
1070
     1
1071
       29
1005
1276B8
  0
LINE
  5
1276B9
  8
OBJECT
 10
4403.0
 20
-912.0
 30
0.0
 11
4403.0
 21
-1016.0
 31
0.0
1001
ACDBBLOCKREPETAG
1070
     1
1071
       30
1005
1276B9
  0
LINE
  5
1276BA
  8
OBJECT
 10
4403.0
 20
-1016.0
 30
0.0
 11
4360.0
 21
-1016.0
 31
0.0
1001
ACDBBLOCKREPETAG
1070
     1
1071
       31
1005
1276BA
  0
LINE
  5
1276BB
  8
OBJECT
 10
4407.0
 20
-916.5
 30
0.0
 11
4415.5
 21
-916.5
 31
0.0
1001
ACDBBLOCKREPETAG
1070
     1
1071
       32
1005
1276BB
  0
LINE
  5
1276BC
  8
OBJECT
 10
4415.5
 20
-1011.5
 30
0.0
 11
4407.0
 21
-1011.5
 31
0.0
1001
ACDBBLOCKREPETAG
1070
     1
1071
       33
1005
1276BC
  0
LINE
  5
1276BD
  8
OBJECT
 10
4407.0
 20
-1011.5
 30
0.0
 11
4407.0
 21
-916.5
 31
0.0
1001
ACDBBLOCKREPETAG
1070
     1
1071
       34
1005
1276BD
  0
LINE
  5
1276BE
  8
OBJECT
 10
4403.0
 20
-912.0
 30
0.0
 11
4407.0
 21
-916.5
 31
0.0
1001
ACDBBLOCKREPETAG
1070
     1
1071
       35
1005
1276BE
  0
LINE
  5
1276BF
  8
OBJECT
 10
4403.0
 20
-1016.0
 30
0.0
 11
4407.0
 21
-1011.5
 31
0.0
1001
ACDBBLOCKREPETAG
1070
     1
1071
       36
1005
1276BF
  0
LINE
  5
1276C0
  8
HIDDEN
 10
4412.0
 20
-926.0
 30
0.0
 11
4412.0
 21
-1002.0
 31
0.0
1001
ACDBBLOCKREPETAG
1070
     1
1071
       37
1005
1276C0
  0
ARC
  5
1276C1
  8
OBJECT
 10
4335.1217271212254
 20
-972.40950726122867
 30
0.0
 40
110.86635228309
 50
16.95964619565439
 51
35.836572580695218
1001
ACDBBLOCKREPETAG
1070
     1
1071
       38
1005
1276C1
  0
ARC
  5
1276C2
  8
OBJECT
 10
4382.8640112230942
 20
-957.28774971844894
 30
0.0
 40
60.791749880358971
 50
0.2712030171733432
 51
16.452795347786878
1001
ACDBBLOCKREPETAG
1070
     1
1071
       39
1005
1276C2
  0
ARC
  5
1276C3
  8
OBJECT
 10
4382.8640043437499
 20
-963.71224975990117
 30
0.0
 40
60.79175676209487
 50
343.54722053947972
 51
359.7287965218548
1001
ACDBBLOCKREPETAG
1070
     1
1071
       40
1005
1276C3
  0
ARC
  5
1276C4
  8
OBJECT
 10
4335.1217271212254
 20
-948.59049273883636
 30
0.0
 40
110.8663522830916
 50
324.16342741930481
 51
343.04035380434561
1001
ACDBBLOCKREPETAG
1070
     1
1071
       41
1005
1276C4
  0
LINE
  5
1276C5
  8
OBJECT
 10
4443.6550800869954
 20
-957.00000000003638
 30
0.0
 11
4443.6550800869954
 21
-964.00000000003286
 31
0.0
1001
ACDBBLOCKREPETAG
1070
     1
1071
       42
1005
1276C5
  0
LINE
  5
1276C6
  8
OBJECT
 10
4425.0
 20
-907.50000000006526
 30
0.0
 11
4418.5
 21
-907.50000000006526
 31
0.0
1001
ACDBBLOCKREPETAG
1070
     1
1071
       43
1005
1276C6
  0
LINE
  5
1276C7
  8
OBJECT
 10
4425.0
 20
-1013.5
 30
0.0
 11
4415.5
 21
-1013.5
 31
0.0
1001
ACDBBLOCKREPETAG
1070
     1
1071
       44
1005
1276C7
  0
LINE
  5
1276C8
  8
OBJECT
 10
4425.0
 20
-1013.5
 30
0.0
 11
4425.0
 21
-1043.0
 31
0.0
1001
ACDBBLOCKREPETAG
1070
     1
1071
        1
1005
1276AB
  0
POINT
  5
1276C9
  8
DOTS
 10
4500.0
 20
-1016.0
 30
0.0
  0
LINE
  5
1276CA
  8
OBJECT
 10
2425.0
 20
-770.0
 30
0.0
 11
2425.0
 21
-907.50000000006526
 31
0.0
1001
ACDBBLOCKREPETAG
1070
     1
1071
        1
1005
1276CA
  0
LINE
  5
1276CB
  8
OBJECT
 10
2575.0
 20
-769.9999999999942
 30
0.0
 11
2575.0
 21
-1043.0
 31
0.0
1001
ACDBBLOCKREPETAG
1070
     1
1071
        3
1005
1276CB
  0
LINE
  5
1276CC
  8
CENTER
 10
2500.0
 20
-770.0
 30
0.0
 11
2500.0
 21
-1055.0
 31
0.0
1001
ACDBBLOCKREPETAG
1070
     1
1071
        6
1005
1276CC
  0
LINE
  5
1276CD
  8
OBJECT
 10
2420.0
 20
-1055.0
 30
0.0
 11
2580.0
 21
-1055.0
 31
0.0
1001
ACDBBLOCKREPETAG
1070
     1
1071
        7
1005
1276CD
  0
LINE
  5
1276CE
  8
OBJECT
 10
2420.0
 20
-1043.0
 30
0.0
 11
2580.0
 21
-1043.0
 31
0.0
1001
ACDBBLOCKREPETAG
1070
     1
1071
        8
1005
1276CE
  0
LINE
  5
1276CF
  8
OBJECT
 10
2420.0
 20
-1043.0
 30
0.0
 11
2420.0
 21
-1055.0
 31
0.0
1001
ACDBBLOCKREPETAG
1070
     1
1071
        9
1005
1276CF
  0
LINE
  5
1276D0
  8
OBJECT
 10
2580.0
 20
-1043.0
 30
0.0
 11
2580.0
 21
-1055.0
 31
0.0
1001
ACDBBLOCKREPETAG
1070
     1
1071
       10
1005
1276D0
  0
LINE
  5
1276D1
  8
OBJECT
 10
2367.0
 20
-909.0
 30
0.0
 11
2360.0
 21
-909.0
 31
0.0
1001
ACDBBLOCKREPETAG
1070
     1
1071
       23
1005
1276D1
  0
LINE
  5
1276D2
  8
OBJECT
 10
2360.0
 20
-909.0
 30
0.0
 11
2360.0
 21
-1016.0
 31
0.0
1001
ACDBBLOCKREPETAG
1070
     1
1071
       24
1005
1276D2
  0
LINE
  5
1276D3
  8
OBJECT
 10
2415.5
 20
-910.50000000006548
 30
0.0
 11
2415.5
 21
-1013.5
 31
0.0
1001
ACDBBLOCKREPETAG
1070
     1
1071
       25
1005
1276D3
  0
ARC
  5
1276D4
  8
OBJECT
 10
2418.5
 20
-910.50000000006548
 30
0.0
 40
3.0
 50
90.0
 51
180.0
1001
ACDBBLOCKREPETAG
1070
     1
1071
       26
1005
1276D4
  0
LINE
  5
1276D5
  8
OBJECT
 10
2367.0
 20
-1016.0
 30
0.0
 11
2367.0
 21
-909.0
 31
0.0
1001
ACDBBLOCKREPETAG
1070
     1
1071
       27
1005
1276D5
  0
LINE
  5
1276D6
  8
CENTER
 10
2345.0
 20
-964.0
 30
0.0
 11
2458.655080086995
 21
-964.00000000006526
 31
0.0
1001
ACDBBLOCKREPETAG
1070
     1
1071
       28
1005
1276D6
  0
LINE
  5
1276D7
  8
OBJECT
 10
2367.0
 20
-912.0
 30
0.0
 11
2403.0
 21
-912.0
 31
0.0
1001
ACDBBLOCKREPETAG
1070
     1
1071
       29
1005
1276D7
  0
LINE
  5
1276D8
  8
OBJECT
 10
2403.0
 20
-912.0
 30
0.0
 11
2403.0
 21
-1016.0
 31
0.0
1001
ACDBBLOCKREPETAG
1070
     1
1071
       30
1005
1276D8
  0
LINE
  5
1276D9
  8
OBJECT
 10
2403.0
 20
-1016.0
 30
0.0
 11
2360.0
 21
-1016.0
 31
0.0
1001
ACDBBLOCKREPETAG
1070
     1
1071
       31
1005
1276D9
  0
LINE
  5
1276DA
  8
OBJECT
 10
2407.0
 20
-916.5
 30
0.0
 11
2415.5
 21
-916.5
 31
0.0
1001
ACDBBLOCKREPETAG
1070
     1
1071
       32
1005
1276DA
  0
LINE
  5
1276DB
  8
OBJECT
 10
2415.5
 20
-1011.5
 30
0.0
 11
2407.0
 21
-1011.5
 31
0.0
1001
ACDBBLOCKREPETAG
1070
     1
1071
       33
1005
1276DB
  0
LINE
  5
1276DC
  8
OBJECT
 10
2407.0
 20
-1011.5
 30
0.0
 11
2407.0
 21
-916.5
 31
0.0
1001
ACDBBLOCKREPETAG
1070
     1
1071
       34
1005
1276DC
  0
LINE
  5
1276DD
  8
OBJECT
 10
2403.0
 20
-912.0
 30
0.0
 11
2407.0
 21
-916.5
 31
0.0
1001
ACDBBLOCKREPETAG
1070
     1
1071
       35
1005
1276DD
  0
LINE
  5
1276DE
  8
OBJECT
 10
2403.0
 20
-1016.0
 30
0.0
 11
2407.0
 21
-1011.5
 31
0.0
1001
ACDBBLOCKREPETAG
1070
     1
1071
       36
1005
1276DE
  0
LINE
  5
1276DF
  8
HIDDEN
 10
2412.0
 20
-926.0
 30
0.0
 11
2412.0
 21
-1002.0
 31
0.0
1001
ACDBBLOCKREPETAG
1070
     1
1071
       37
1005
1276DF
  0
ARC
  5
1276E0
  8
OBJECT
 10
2335.1217271212249
 20
-972.40950726122867
 30
0.0
 40
110.86635228309
 50
16.959646195661989
 51
35.836572580695218
1001
ACDBBLOCKREPETAG
1070
     1
1071
       38
1005
1276E0
  0
ARC
  5
1276E1
  8
OBJECT
 10
2382.8640112230928
 20
-957.28774971844894
 30
0.0
 40
60.791749880358971
 50
0.2712030171732199
 51
16.452795347779499
1001
ACDBBLOCKREPETAG
1070
     1
1071
       39
1005
1276E1
  0
ARC
  5
1276E2
  8
OBJECT
 10
2382.8640043437531
 20
-963.71224975990117
 30
0.0
 40
60.79175676209487
 50
343.54722053947239
 51
359.72879652185469
1001
ACDBBLOCKREPETAG
1070
     1
1071
       40
1005
1276E2
  0
ARC
  5
1276E3
  8
OBJECT
 10
2335.1217271212249
 20
-948.59049273883636
 30
0.0
 40
110.8663522830916
 50
324.16342741930481
 51
343.040353804338
1001
ACDBBLOCKREPETAG
1070
     1
1071
       41
1005
1276E3
  0
LINE
  5
1276E4
  8
OBJECT
 10
2443.6550800869959
 20
-957.00000000003638
 30
0.0
 11
2443.6550800869959
 21
-964.00000000003286
 31
0.0
1001
ACDBBLOCKREPETAG
1070
     1
1071
       42
1005
1276E4
  0
LINE
  5
1276E5
  8
OBJECT
 10
2425.0
 20
-907.50000000006526
 30
0.0
 11
2418.5
 21
-907.50000000006526
 31
0.0
1001
ACDBBLOCKREPETAG
1070
     1
1071
       43
1005
1276E5
  0
LINE
  5
1276E6
  8
OBJECT
 10
2425.0
 20
-1013.5
 30
0.0
 11
2415.5
 21
-1013.5
 31
0.0
1001
ACDBBLOCKREPETAG
1070
     1
1071
       44
1005
1276E6
  0
LINE
  5
1276E7
  8
OBJECT
 10
2425.0
 20
-1013.5
 30
0.0
 11
2425.0
 21
-1043.0
 31
0.0
1001
ACDBBLOCKREPETAG
1070
     1
1071
        1
1005
1276CA
  0
POINT
  5
1276E8
  8
DOTS
 10
2500.0
 20
-1016.0
 30
0.0
  0
LINE
  5
1276E9
  8
DIM
 10
2665.0
 20
-696.0
 30
0.0
 11
2719.4245816727562
 21
-696.0
 31
0.0
  0
LINE
  5
1276EA
  8
DIM
 10
2413.0
 20
-1016.0
 30
0.0
 11
2719.4245816727562
 21
-1016.0
 31
0.0
  0
LINE
  5
1276EB
  8
DIM
 10
2709.4245816727562
 20
-716.0
 30
0.0
 11
2709.4245816727562
 21
-996.0
 31
0.0
  0
INSERT
  5
1276EC
  8
DIM
  2
_OPEN30
 10
2709.4245816727562
 20
-696.0
 30
0.0
 41
20.0
 42
20.0
 43
20.0
 50
90.0
  0
INSERT
  5
1276ED
  8
DIM
  2
_OPEN30
 10
2709.4245816727562
 20
-1016.0
 30
0.0
 41
20.0
 42
20.0
 43
20.0
 50
270.0
  0
INSERT
  5
1276EE
  8
SLIM
  2
*U39
 10
0.0
 20
0.0
 30
0.0
  0
LINE
  5
1276EF
  8
CENTER
 10
4977.0
 20
-3805.9999999999968
 30
0.0
 11
4823.0
 21
-3805.9999999999968
 31
0.0
1001
ACDBBLOCKREPETAG
1070
     1
1071
       17
1005
1276EF
  0
CIRCLE
  5
1276F0
  8
OBJECT
 10
4900.0
 20
-3805.9999999999968
 30
0.0
 40
41.5
1001
ACDBBLOCKREPETAG
1070
     1
1071
       18
1005
1276F0
  0
CIRCLE
  5
1276F1
  8
OBJECT
 10
4900.0
 20
-3805.9999999999968
 30
0.0
 40
54.0
1001
ACDBBLOCKREPETAG
1070
     1
1071
       19
1005
1276F1
  0
ARC
  5
1276F2
  8
OBJECT
 10
4900.0
 20
-3805.9999999999968
 30
0.0
 40
62.0
 50
287.89655112921122
 51
252.1034488707887
1001
ACDBBLOCKREPETAG
1070
     1
1071
       20
1005
1276F2
  0
LINE
  5
1276F3
  8
OBJECT
 10
4880.947441116743
 20
-3864.9999999999968
 30
0.0
 11
4919.052558883257
 21
-3864.9999999999968
 31
0.0
1001
ACDBBLOCKREPETAG
1070
     1
1071
       21
1005
1276F3
  0
POINT
  5
1276F4
  8
DOTS
 10
4900.0
 20
-3864.9999999999968
 30
0.0
1001
ACDBBLOCKREPETAG
1070
     1
1071
       23
1005
1276F4
  0
LINE
  5
1276F5
  8
OBJECT
 10
4633.0
 20
-3743.9999999999959
 30
0.0
 11
4640.0
 21
-3743.9999999999959
 31
0.0
1001
ACDBBLOCKREPETAG
1070
     1
1071
       46
1005
1276F5
  0
LINE
  5
1276F6
  8
OBJECT
 10
4640.0
 20
-3743.9999999999959
 30
0.0
 11
4640.0
 21
-3864.9999999999968
 31
0.0
1001
ACDBBLOCKREPETAG
1070
     1
1071
       47
1005
1276F6
  0
LINE
  5
1276F7
  8
OBJECT
 10
4633.0
 20
-3864.9999999999968
 30
0.0
 11
4633.0
 21
-3743.9999999999959
 31
0.0
1001
ACDBBLOCKREPETAG
1070
     1
1071
       48
1005
1276F7
  0
LINE
  5
1276F8
  8
CENTER
 10
4655.0
 20
-3805.9999999999968
 30
0.0
 11
4541.3449199130037
 21
-3806.0000000000618
 31
0.0
1001
ACDBBLOCKREPETAG
1070
     1
1071
       49
1005
1276F8
  0
LINE
  5
1276F9
  8
OBJECT
 10
4633.0
 20
-3746.9999999999959
 30
0.0
 11
4597.0
 21
-3746.9999999999959
 31
0.0
1001
ACDBBLOCKREPETAG
1070
     1
1071
       50
1005
1276F9
  0
LINE
  5
1276FA
  8
OBJECT
 10
4597.0
 20
-3746.9999999999959
 30
0.0
 11
4597.0
 21
-3864.9999999999968
 31
0.0
1001
ACDBBLOCKREPETAG
1070
     1
1071
       51
1005
1276FA
  0
LINE
  5
1276FB
  8
OBJECT
 10
4597.0
 20
-3864.9999999999968
 30
0.0
 11
4640.0
 21
-3864.9999999999968
 31
0.0
1001
ACDBBLOCKREPETAG
1070
     1
1071
       52
1005
1276FB
  0
LINE
  5
1276FC
  8
OBJECT
 10
4593.0
 20
-3751.4999999999959
 30
0.0
 11
4582.5
 21
-3751.4999999999959
 31
0.0
1001
ACDBBLOCKREPETAG
1070
     1
1071
       53
1005
1276FC
  0
LINE
  5
1276FD
  8
OBJECT
 10
4582.5
 20
-3860.4999999999959
 30
0.0
 11
4593.0
 21
-3860.4999999999959
 31
0.0
1001
ACDBBLOCKREPETAG
1070
     1
1071
       54
1005
1276FD
  0
LINE
  5
1276FE
  8
OBJECT
 10
4593.0
 20
-3860.4999999999959
 30
0.0
 11
4593.0
 21
-3751.4999999999959
 31
0.0
1001
ACDBBLOCKREPETAG
1070
     1
1071
       55
1005
1276FE
  0
LINE
  5
1276FF
  8
OBJECT
 10
4597.0
 20
-3746.9999999999959
 30
0.0
 11
4593.0
 21
-3751.4999999999959
 31
0.0
1001
ACDBBLOCKREPETAG
1070
     1
1071
       56
1005
1276FF
  0
LINE
  5
127700
  8
OBJECT
 10
4597.0
 20
-3864.9999999999968
 30
0.0
 11
4593.0
 21
-3860.4999999999959
 31
0.0
1001
ACDBBLOCKREPETAG
1070
     1
1071
       57
1005
127700
  0
LINE
  5
127701
  8
HIDDEN
 10
4588.0
 20
-3761.4999999999968
 30
0.0
 11
4588.0
 21
-3850.4999999999968
 31
0.0
1001
ACDBBLOCKREPETAG
1070
     1
1071
       58
1005
127701
  0
ARC
  5
127702
  8
OBJECT
 10
4664.8782728787719
 20
-3821.4095072612249
 30
0.0
 40
110.86635228309
 50
144.16342741928889
 51
163.04035380433939
1001
ACDBBLOCKREPETAG
1070
     1
1071
       59
1005
127702
  0
ARC
  5
127703
  8
OBJECT
 10
4617.1359887769049
 20
-3806.287749718445
 30
0.0
 40
60.791749880358971
 50
163.54720465221931
 51
179.72879698282651
1001
ACDBBLOCKREPETAG
1070
     1
1071
       60
1005
127703
  0
ARC
  5
127704
  8
OBJECT
 10
4617.1359956562483
 20
-3812.7122497598971
 30
0.0
 40
60.79175676209487
 50
180.2712034781452
 51
196.4527794605265
1001
ACDBBLOCKREPETAG
1070
     1
1071
       61
1005
127704
  0
ARC
  5
127705
  8
OBJECT
 10
4664.8782728787719
 20
-3797.5904927388328
 30
0.0
 40
110.8663522830916
 50
196.9596461956605
 51
215.83657258071111
1001
ACDBBLOCKREPETAG
1070
     1
1071
       62
1005
127705
  0
LINE
  5
127706
  8
OBJECT
 10
4556.3449199130037
 20
-3806.0000000000332
 30
0.0
 11
4556.3449199130037
 21
-3813.0000000000291
 31
0.0
1001
ACDBBLOCKREPETAG
1070
     1
1071
       63
1005
127706
  0
LINE
  5
127707
  8
OBJECT
 10
4574.9999999998336
 20
-3756.500000000291
 30
0.0
 11
4577.4999999998363
 21
-3756.500000000291
 31
0.0
1001
ACDBBLOCKREPETAG
1070
     1
1071
       65
1005
127707
  0
LINE
  5
127708
  8
OBJECT
 10
4574.9999999998327
 20
-3862.4999999997672
 30
0.0
 11
4579.4999999998308
 21
-3862.4999999997672
 31
0.0
1001
ACDBBLOCKREPETAG
1070
     1
1071
       66
1005
127708
  0
LINE
  5
127709
  8
OBJECT
 10
4579.4999999998308
 20
-3862.4999999997672
 30
0.0
 11
4577.4999999998363
 21
-3756.500000000291
 31
0.0
1001
ACDBBLOCKREPETAG
1070
     1
1071
       67
1005
127709
  0
LINE
  5
12770A
  8
OBJECT
 10
4579.4999999998308
 20
-3862.4999999997672
 30
0.0
 11
4582.5
 21
-3860.4999999999959
 31
0.0
1001
ACDBBLOCKREPETAG
1070
     1
1071
       68
1005
12770A
  0
LINE
  5
12770B
  8
OBJECT
 10
4582.5
 20
-3860.4999999999959
 30
0.0
 11
4582.5
 21
-3751.4999999999959
 31
0.0
1001
ACDBBLOCKREPETAG
1070
     1
1071
       69
1005
12770B
  0
LINE
  5
12770C
  8
OBJECT
 10
4582.5
 20
-3751.4999999999959
 30
0.0
 11
4577.4999999998363
 21
-3756.500000000291
 31
0.0
1001
ACDBBLOCKREPETAG
1070
     1
1071
       70
1005
12770C
  0
LINE
  5
12770D
  8
OBJECT
 10
4633.0000000000009
 20
-3397.9999999999959
 30
0.0
 11
4640.0000000000018
 21
-3397.9999999999959
 31
0.0
1001
ACDBBLOCKREPETAG
1070
     1
1071
       38
1005
12770D
  0
LINE
  5
12770E
  8
OBJECT
 10
4640.0000000000018
 20
-3397.9999999999959
 30
0.0
 11
4640.0
 21
-3521.9999999999968
 31
0.0
1001
ACDBBLOCKREPETAG
1070
     1
1071
       39
1005
12770E
  0
LINE
  5
12770F
  8
OBJECT
 10
4640.0
 20
-3521.9999999999968
 30
0.0
 11
4633.0
 21
-3521.9999999999968
 31
0.0
1001
ACDBBLOCKREPETAG
1070
     1
1071
       40
1005
12770F
  0
LINE
  5
127710
  8
OBJECT
 10
4633.0
 20
-3521.9999999999968
 30
0.0
 11
4633.0000000000009
 21
-3397.9999999999959
 31
0.0
1001
ACDBBLOCKREPETAG
1070
     1
1071
       41
1005
127710
  0
LINE
  5
127711
  8
CENTER
 10
4655.0
 20
-3459.9999999999968
 30
0.0
 11
4580.0
 21
-3459.9999999999968
 31
0.0
1001
ACDBBLOCKREPETAG
1070
     1
1071
       42
1005
127711
  0
LINE
  5
127712
  8
OBJECT
 10
4633.0000000000009
 20
-3400.9999999999959
 30
0.0
 11
4597.0000000000018
 21
-3400.9999999999959
 31
0.0
1001
ACDBBLOCKREPETAG
1070
     1
1071
       43
1005
127712
  0
LINE
  5
127713
  8
OBJECT
 10
4597.0000000000018
 20
-3400.9999999999959
 30
0.0
 11
4597.0
 21
-3518.9999999999968
 31
0.0
1001
ACDBBLOCKREPETAG
1070
     1
1071
       44
1005
127713
  0
LINE
  5
127714
  8
OBJECT
 10
4597.0
 20
-3518.9999999999968
 30
0.0
 11
4633.0
 21
-3518.9999999999968
 31
0.0
1001
ACDBBLOCKREPETAG
1070
     1
1071
       45
1005
127714
  0
LINE
  5
127715
  8
OBJECT
 10
4593.0000000000018
 20
-3405.4999999999959
 30
0.0
 11
4582.5000000000018
 21
-3405.4999999999959
 31
0.0
1001
ACDBBLOCKREPETAG
1070
     1
1071
       46
1005
127715
  0
LINE
  5
127716
  8
OBJECT
 10
4582.5
 20
-3514.4999999999968
 30
0.0
 11
4593.0
 21
-3514.4999999999968
 31
0.0
1001
ACDBBLOCKREPETAG
1070
     1
1071
       47
1005
127716
  0
LINE
  5
127717
  8
OBJECT
 10
4593.0
 20
-3514.4999999999968
 30
0.0
 11
4593.0000000000018
 21
-3405.4999999999959
 31
0.0
1001
ACDBBLOCKREPETAG
1070
     1
1071
       48
1005
127717
  0
LINE
  5
127718
  8
OBJECT
 10
4597.0000000000018
 20
-3400.9999999999959
 30
0.0
 11
4593.0000000000018
 21
-3405.4999999999959
 31
0.0
1001
ACDBBLOCKREPETAG
1070
     1
1071
       49
1005
127718
  0
LINE
  5
127719
  8
OBJECT
 10
4597.0
 20
-3518.9999999999968
 30
0.0
 11
4593.0
 21
-3514.4999999999968
 31
0.0
1001
ACDBBLOCKREPETAG
1070
     1
1071
       50
1005
127719
  0
LINE
  5
12771A
  8
HIDDEN
 10
4588.0
 20
-3415.4999999999968
 30
0.0
 11
4588.0
 21
-3504.4999999999968
 31
0.0
1001
ACDBBLOCKREPETAG
1070
     1
1071
       51
1005
12771A
  0
LINE
  5
12771B
  8
OBJECT
 10
4577.5000000000018
 20
-3410.4999999999959
 30
0.0
 11
4556.3449199129791
 21
-3410.4999999999959
 31
0.0
1001
ACDBBLOCKREPETAG
1070
     1
1071
       52
1005
12771B
  0
LINE
  5
12771C
  8
OBJECT
 10
4577.4999999999991
 20
-3509.4999999999959
 30
0.0
 11
4556.3449199129791
 21
-3509.4999999999959
 31
0.0
1001
ACDBBLOCKREPETAG
1070
     1
1071
       53
1005
12771C
  0
LINE
  5
12771D
  8
OBJECT
 10
4582.5000000000018
 20
-3405.4999999999959
 30
0.0
 11
4582.5
 21
-3514.4999999999968
 31
0.0
1001
ACDBBLOCKREPETAG
1070
     1
1071
       54
1005
12771D
  0
LINE
  5
12771E
  8
OBJECT
 10
4577.5000000000018
 20
-3410.4999999999959
 30
0.0
 11
4577.4999999999991
 21
-3509.4999999999959
 31
0.0
1001
ACDBBLOCKREPETAG
1070
     1
1071
       55
1005
12771E
  0
LINE
  5
12771F
  8
OBJECT
 10
4582.5000000000018
 20
-3405.4999999999959
 30
0.0
 11
4577.5000000000018
 21
-3410.4999999999959
 31
0.0
1001
ACDBBLOCKREPETAG
1070
     1
1071
       56
1005
12771F
  0
LINE
  5
127720
  8
OBJECT
 10
4577.4999999999991
 20
-3509.4999999999959
 30
0.0
 11
4582.5
 21
-3514.4999999999932
 31
0.0
1001
ACDBBLOCKREPETAG
1070
     1
1071
       57
1005
127720
  0
CIRCLE
  5
127721
  8
OBJECT
 10
3900.0
 20
-3812.9999999999968
 30
0.0
 40
35.5
1001
ACDBBLOCKREPETAG
1070
     1
1071
       11
1005
127721
  0
LINE
  5
127722
  8
CENTER
 10
3830.0
 20
-3812.9999999999968
 30
0.0
 11
3970.0
 21
-3812.9999999999968
 31
0.0
1001
ACDBBLOCKREPETAG
1070
     1
1071
       12
1005
127722
  0
CIRCLE
  5
127723
  8
OBJECT
 10
3900.0
 20
-3812.9999999999968
 30
0.0
 40
47.0
1001
ACDBBLOCKREPETAG
1070
     1
1071
       14
1005
127723
  0
ARC
  5
127724
  8
OBJECT
 10
3900.0
 20
-3812.9999999999968
 30
0.0
 40
55.0
 50
289.01126526008892
 51
250.98873473991111
1001
ACDBBLOCKREPETAG
1070
     1
1071
       15
1005
127724
  0
LINE
  5
127725
  8
OBJECT
 10
3882.0835271328319
 20
-3864.9999999999968
 30
0.0
 11
3917.9164728671672
 21
-3864.9999999999968
 31
0.0
1001
ACDBBLOCKREPETAG
1070
     1
1071
       16
1005
127725
  0
POINT
  5
127726
  8
DOTS
 10
3900.0
 20
-3864.9999999999968
 30
0.0
1001
ACDBBLOCKREPETAG
1070
     1
1071
       24
1005
127726
  0
LINE
  5
127727
  8
OBJECT
 10
3633.0
 20
-3757.9999999999959
 30
0.0
 11
3640.0
 21
-3757.9999999999959
 31
0.0
1001
ACDBBLOCKREPETAG
1070
     1
1071
       23
1005
127727
  0
LINE
  5
127728
  8
OBJECT
 10
3640.0
 20
-3757.9999999999959
 30
0.0
 11
3640.0
 21
-3864.9999999999968
 31
0.0
1001
ACDBBLOCKREPETAG
1070
     1
1071
       24
1005
127728
  0
LINE
  5
127729
  8
OBJECT
 10
3584.5
 20
-3759.5000000000618
 30
0.0
 11
3584.5
 21
-3862.4999999999968
 31
0.0
1001
ACDBBLOCKREPETAG
1070
     1
1071
       25
1005
127729
  0
ARC
  5
12772A
  8
OBJECT
 10
3581.5
 20
-3759.5000000000618
 30
0.0
 40
3.0
 50
0.0
 51
90.0
1001
ACDBBLOCKREPETAG
1070
     1
1071
       26
1005
12772A
  0
LINE
  5
12772B
  8
OBJECT
 10
3633.0
 20
-3864.9999999999968
 30
0.0
 11
3633.0
 21
-3757.9999999999959
 31
0.0
1001
ACDBBLOCKREPETAG
1070
     1
1071
       27
1005
12772B
  0
LINE
  5
12772C
  8
CENTER
 10
3655.0
 20
-3812.9999999999968
 30
0.0
 11
3541.3449199130041
 21
-3813.0000000000618
 31
0.0
1001
ACDBBLOCKREPETAG
1070
     1
1071
       28
1005
12772C
  0
LINE
  5
12772D
  8
OBJECT
 10
3633.0
 20
-3760.9999999999968
 30
0.0
 11
3597.0
 21
-3760.9999999999968
 31
0.0
1001
ACDBBLOCKREPETAG
1070
     1
1071
       29
1005
12772D
  0
LINE
  5
12772E
  8
OBJECT
 10
3597.0
 20
-3760.9999999999968
 30
0.0
 11
3597.0
 21
-3864.9999999999968
 31
0.0
1001
ACDBBLOCKREPETAG
1070
     1
1071
       30
1005
12772E
  0
LINE
  5
12772F
  8
OBJECT
 10
3597.0
 20
-3864.9999999999968
 30
0.0
 11
3640.0
 21
-3864.9999999999968
 31
0.0
1001
ACDBBLOCKREPETAG
1070
     1
1071
       31
1005
12772F
  0
LINE
  5
127730
  8
OBJECT
 10
3593.0
 20
-3765.4999999999968
 30
0.0
 11
3584.5
 21
-3765.4999999999968
 31
0.0
1001
ACDBBLOCKREPETAG
1070
     1
1071
       32
1005
127730
  0
LINE
  5
127731
  8
OBJECT
 10
3584.5
 20
-3860.4999999999959
 30
0.0
 11
3593.0
 21
-3860.4999999999959
 31
0.0
1001
ACDBBLOCKREPETAG
1070
     1
1071
       33
1005
127731
  0
LINE
  5
127732
  8
OBJECT
 10
3593.0
 20
-3860.4999999999959
 30
0.0
 11
3593.0
 21
-3765.4999999999968
 31
0.0
1001
ACDBBLOCKREPETAG
1070
     1
1071
       34
1005
127732
  0
LINE
  5
127733
  8
OBJECT
 10
3597.0
 20
-3760.9999999999968
 30
0.0
 11
3593.0
 21
-3765.4999999999968
 31
0.0
1001
ACDBBLOCKREPETAG
1070
     1
1071
       35
1005
127733
  0
LINE
  5
127734
  8
OBJECT
 10
3597.0
 20
-3864.9999999999968
 30
0.0
 11
3593.0
 21
-3860.4999999999959
 31
0.0
1001
ACDBBLOCKREPETAG
1070
     1
1071
       36
1005
127734
  0
LINE
  5
127735
  8
HIDDEN
 10
3588.0
 20
-3774.9999999999968
 30
0.0
 11
3588.0
 21
-3850.9999999999959
 31
0.0
1001
ACDBBLOCKREPETAG
1070
     1
1071
       37
1005
127735
  0
ARC
  5
127736
  8
OBJECT
 10
3664.8782728787742
 20
-3821.4095072612249
 30
0.0
 40
110.86635228309
 50
144.16342741928889
 51
163.04035380433169
1001
ACDBBLOCKREPETAG
1070
     1
1071
       38
1005
127736
  0
ARC
  5
127737
  8
OBJECT
 10
3617.1359887769072
 20
-3806.287749718445
 30
0.0
 40
60.791749880358971
 50
163.5472046522267
 51
179.72879698282679
1001
ACDBBLOCKREPETAG
1070
     1
1071
       39
1005
127737
  0
ARC
  5
127738
  8
OBJECT
 10
3617.1359956562478
 20
-3812.7122497598971
 30
0.0
 40
60.79175676209487
 50
180.2712034781452
 51
196.4527794605338
1001
ACDBBLOCKREPETAG
1070
     1
1071
       40
1005
127738
  0
ARC
  5
127739
  8
OBJECT
 10
3664.8782728787742
 20
-3797.5904927388328
 30
0.0
 40
110.8663522830916
 50
196.95964619566811
 51
215.83657258071111
1001
ACDBBLOCKREPETAG
1070
     1
1071
       41
1005
127739
  0
LINE
  5
12773A
  8
OBJECT
 10
3556.3449199130041
 20
-3806.0000000000332
 30
0.0
 11
3556.3449199130041
 21
-3813.0000000000291
 31
0.0
1001
ACDBBLOCKREPETAG
1070
     1
1071
       42
1005
12773A
  0
LINE
  5
12773B
  8
OBJECT
 10
3574.9999999999991
 20
-3756.5000000000618
 30
0.0
 11
3581.5
 21
-3756.5000000000618
 31
0.0
1001
ACDBBLOCKREPETAG
1070
     1
1071
       43
1005
12773B
  0
LINE
  5
12773C
  8
OBJECT
 10
3574.9999999999991
 20
-3862.4999999999968
 30
0.0
 11
3584.5
 21
-3862.4999999999968
 31
0.0
1001
ACDBBLOCKREPETAG
1070
     1
1071
       44
1005
12773C
  0
LINE
  5
12773D
  8
OBJECT
 10
3633.0
 20
-3404.9999999999959
 30
0.0
 11
3640.0
 21
-3404.9999999999959
 31
0.0
1001
ACDBBLOCKREPETAG
1070
     1
1071
       20
1005
12773D
  0
LINE
  5
12773E
  8
OBJECT
 10
3640.0
 20
-3404.9999999999959
 30
0.0
 11
3640.0
 21
-3514.9999999999968
 31
0.0
1001
ACDBBLOCKREPETAG
1070
     1
1071
       21
1005
12773E
  0
LINE
  5
12773F
  8
OBJECT
 10
3640.0
 20
-3514.9999999999968
 30
0.0
 11
3633.0
 21
-3514.9999999999968
 31
0.0
1001
ACDBBLOCKREPETAG
1070
     1
1071
       22
1005
12773F
  0
LINE
  5
127740
  8
OBJECT
 10
3633.0
 20
-3514.9999999999968
 30
0.0
 11
3633.0
 21
-3404.9999999999959
 31
0.0
1001
ACDBBLOCKREPETAG
1070
     1
1071
       23
1005
127740
  0
LINE
  5
127741
  8
CENTER
 10
3655.0
 20
-3459.9999999999968
 30
0.0
 11
3580.0
 21
-3459.9999999999968
 31
0.0
1001
ACDBBLOCKREPETAG
1070
     1
1071
       24
1005
127741
  0
LINE
  5
127742
  8
OBJECT
 10
3633.0
 20
-3407.9999999999959
 30
0.0
 11
3597.0
 21
-3407.9999999999959
 31
0.0
1001
ACDBBLOCKREPETAG
1070
     1
1071
       25
1005
127742
  0
LINE
  5
127743
  8
OBJECT
 10
3597.0
 20
-3407.9999999999959
 30
0.0
 11
3597.0
 21
-3511.9999999999959
 31
0.0
1001
ACDBBLOCKREPETAG
1070
     1
1071
       26
1005
127743
  0
LINE
  5
127744
  8
OBJECT
 10
3597.0
 20
-3511.9999999999959
 30
0.0
 11
3633.0
 21
-3511.9999999999959
 31
0.0
1001
ACDBBLOCKREPETAG
1070
     1
1071
       27
1005
127744
  0
LINE
  5
127745
  8
OBJECT
 10
3593.0
 20
-3412.4999999999959
 30
0.0
 11
3584.5
 21
-3412.4999999999959
 31
0.0
1001
ACDBBLOCKREPETAG
1070
     1
1071
       28
1005
127745
  0
LINE
  5
127746
  8
OBJECT
 10
3584.5
 20
-3507.4999999999968
 30
0.0
 11
3593.0
 21
-3507.4999999999968
 31
0.0
1001
ACDBBLOCKREPETAG
1070
     1
1071
       29
1005
127746
  0
LINE
  5
127747
  8
OBJECT
 10
3593.0
 20
-3507.4999999999968
 30
0.0
 11
3593.0
 21
-3412.4999999999959
 31
0.0
1001
ACDBBLOCKREPETAG
1070
     1
1071
       30
1005
127747
  0
LINE
  5
127748
  8
OBJECT
 10
3597.0
 20
-3407.9999999999959
 30
0.0
 11
3593.0
 21
-3412.4999999999959
 31
0.0
1001
ACDBBLOCKREPETAG
1070
     1
1071
       31
1005
127748
  0
LINE
  5
127749
  8
OBJECT
 10
3597.0
 20
-3511.9999999999959
 30
0.0
 11
3593.0
 21
-3507.4999999999968
 31
0.0
1001
ACDBBLOCKREPETAG
1070
     1
1071
       32
1005
127749
  0
LINE
  5
12774A
  8
OBJECT
 10
3584.4999999999982
 20
-3509.4999999999959
 30
0.0
 11
3584.5
 21
-3410.4999999999959
 31
0.0
1001
ACDBBLOCKREPETAG
1070
     1
1071
       33
1005
12774A
  0
LINE
  5
12774B
  8
HIDDEN
 10
3588.0
 20
-3421.9999999999968
 30
0.0
 11
3588.0
 21
-3497.9999999999959
 31
0.0
1001
ACDBBLOCKREPETAG
1070
     1
1071
       34
1005
12774B
  0
LINE
  5
12774C
  8
OBJECT
 10
3584.5
 20
-3410.4999999999959
 30
0.0
 11
3556.3449199129791
 21
-3410.4999999999959
 31
0.0
1001
ACDBBLOCKREPETAG
1070
     1
1071
       35
1005
12774C
  0
LINE
  5
12774D
  8
OBJECT
 10
3584.4999999999982
 20
-3509.4999999999959
 30
0.0
 11
3556.3449199129791
 21
-3509.4999999999959
 31
0.0
1001
ACDBBLOCKREPETAG
1070
     1
1071
       36
1005
12774D
  0
LINE
  5
12774E
  8
CENTER
 10
2838.0
 20
-3820.9999999999968
 30
0.0
 11
2962.0
 21
-3820.9999999999968
 31
0.0
1001
ACDBBLOCKREPETAG
1070
     1
1071
        0
1005
12774E
  0
CIRCLE
  5
12774F
  8
OBJECT
 10
2900.0
 20
-3820.9999999999968
 30
0.0
 40
28.0
1001
ACDBBLOCKREPETAG
1070
     1
1071
        2
1005
12774F
  0
CIRCLE
  5
127750
  8
OBJECT
 10
2900.0
 20
-3820.9999999999968
 30
0.0
 40
39.0
1001
ACDBBLOCKREPETAG
1070
     1
1071
        3
1005
127750
  0
ARC
  5
127751
  8
OBJECT
 10
2900.0
 20
-3820.9999999999968
 30
0.0
 40
47.0
 50
290.58196921144412
 51
249.41803078855591
1001
ACDBBLOCKREPETAG
1070
     1
1071
        4
1005
127751
  0
LINE
  5
127752
  8
OBJECT
 10
2883.4772883581418
 20
-3864.9999999999968
 30
0.0
 11
2916.5227116418569
 21
-3864.9999999999968
 31
0.0
1001
ACDBBLOCKREPETAG
1070
     1
1071
        5
1005
127752
  0
ARC
  5
127753
  8
OBJECT
 10
2900.0
 20
-3805.9999999999932
 30
0.0
 40
49.5
 50
0.0
 51
180.0
1001
ACDBBLOCKREPETAG
1070
     1
1071
        6
1005
127753
  0
LINE
  5
127754
  8
OBJECT
 10
2850.5000000000032
 20
-3805.9999999999932
 30
0.0
 11
2850.5000000000032
 21
-3812.9999999999968
 31
0.0
1001
ACDBBLOCKREPETAG
1070
     1
1071
        7
1005
127754
  0
LINE
  5
127755
  8
OBJECT
 10
2949.5000000000068
 20
-3805.9999999999932
 30
0.0
 11
2949.5000000000068
 21
-3812.9999999999968
 31
0.0
1001
ACDBBLOCKREPETAG
1070
     1
1071
        8
1005
127755
  0
ARC
  5
127756
  8
OBJECT
 10
2900.0
 20
-3812.9999999999968
 30
0.0
 40
49.5
 50
180.0
 51
202.66956385104879
1001
ACDBBLOCKREPETAG
1070
     1
1071
        9
1005
127756
  0
ARC
  5
127757
  8
OBJECT
 10
2900.0
 20
-3812.9999999999968
 30
0.0
 40
49.5
 50
337.33043614895121
 51
0.0
1001
ACDBBLOCKREPETAG
1070
     1
1071
       10
1005
127757
  0
POINT
  5
127758
  8
DOTS
 10
2900.0
 20
-3864.9999999999968
 30
0.0
1001
ACDBBLOCKREPETAG
1070
     1
1071
       25
1005
127758
  0
LINE
  5
127759
  8
OBJECT
 10
2633.0
 20
-3773.9999999999968
 30
0.0
 11
2640.0
 21
-3773.9999999999968
 31
0.0
1001
ACDBBLOCKREPETAG
1070
     1
1071
        0
1005
127759
  0
LINE
  5
12775A
  8
OBJECT
 10
2640.0
 20
-3773.9999999999968
 30
0.0
 11
2640.0
 21
-3864.9999999999968
 31
0.0
1001
ACDBBLOCKREPETAG
1070
     1
1071
        1
1005
12775A
  0
LINE
  5
12775B
  8
OBJECT
 10
2584.5
 20
-3759.5000000000618
 30
0.0
 11
2584.5
 21
-3862.4999999999968
 31
0.0
1001
ACDBBLOCKREPETAG
1070
     1
1071
        2
1005
12775B
  0
ARC
  5
12775C
  8
OBJECT
 10
2581.5
 20
-3759.5000000000618
 30
0.0
 40
3.0
 50
0.0
 51
90.0
1001
ACDBBLOCKREPETAG
1070
     1
1071
        3
1005
12775C
  0
LINE
  5
12775D
  8
OBJECT
 10
2633.0
 20
-3864.9999999999968
 30
0.0
 11
2633.0
 21
-3773.9999999999968
 31
0.0
1001
ACDBBLOCKREPETAG
1070
     1
1071
        4
1005
12775D
  0
LINE
  5
12775E
  8
CENTER
 10
2655.0
 20
-3820.9999999999968
 30
0.0
 11
2541.911823713584
 21
-3820.9999999999968
 31
0.0
1001
ACDBBLOCKREPETAG
1070
     1
1071
        5
1005
12775E
  0
LINE
  5
12775F
  8
OBJECT
 10
2633.0
 20
-3776.9999999999968
 30
0.0
 11
2596.9999999999991
 21
-3776.9999999999968
 31
0.0
1001
ACDBBLOCKREPETAG
1070
     1
1071
        6
1005
12775F
  0
LINE
  5
127760
  8
OBJECT
 10
2596.9999999999991
 20
-3776.9999999999968
 30
0.0
 11
2596.9999999999991
 21
-3864.9999999999968
 31
0.0
1001
ACDBBLOCKREPETAG
1070
     1
1071
        7
1005
127760
  0
LINE
  5
127761
  8
OBJECT
 10
2596.9999999999991
 20
-3864.9999999999968
 30
0.0
 11
2640.0
 21
-3864.9999999999968
 31
0.0
1001
ACDBBLOCKREPETAG
1070
     1
1071
        8
1005
127761
  0
LINE
  5
127762
  8
OBJECT
 10
2593.0
 20
-3781.4999999999959
 30
0.0
 11
2584.5
 21
-3781.4999999999959
 31
0.0
1001
ACDBBLOCKREPETAG
1070
     1
1071
        9
1005
127762
  0
LINE
  5
127763
  8
OBJECT
 10
2584.5
 20
-3860.4999999999959
 30
0.0
 11
2593.0
 21
-3860.4999999999959
 31
0.0
1001
ACDBBLOCKREPETAG
1070
     1
1071
       10
1005
127763
  0
LINE
  5
127764
  8
OBJECT
 10
2593.0
 20
-3860.4999999999959
 30
0.0
 11
2593.0
 21
-3781.4999999999959
 31
0.0
1001
ACDBBLOCKREPETAG
1070
     1
1071
       11
1005
127764
  0
LINE
  5
127765
  8
OBJECT
 10
2596.9999999999991
 20
-3776.9999999999968
 30
0.0
 11
2593.0
 21
-3781.4999999999959
 31
0.0
1001
ACDBBLOCKREPETAG
1070
     1
1071
       12
1005
127765
  0
LINE
  5
127766
  8
OBJECT
 10
2596.9999999999991
 20
-3864.9999999999968
 30
0.0
 11
2593.0
 21
-3860.4999999999959
 31
0.0
1001
ACDBBLOCKREPETAG
1070
     1
1071
       13
1005
127766
  0
LINE
  5
127767
  8
HIDDEN
 10
2588.0
 20
-3790.9999999999959
 30
0.0
 11
2588.0
 21
-3850.9999999999959
 31
0.0
1001
ACDBBLOCKREPETAG
1070
     1
1071
       14
1005
127767
  0
ARC
  5
127768
  8
OBJECT
 10
2664.8782728787751
 20
-3821.4095072612249
 30
0.0
 40
110.86635228309
 50
144.1634274191434
 51
163.04035380433169
1001
ACDBBLOCKREPETAG
1070
     1
1071
       15
1005
127768
  0
ARC
  5
127769
  8
OBJECT
 10
2617.1359887769072
 20
-3806.287749718445
 30
0.0
 40
60.791749880358971
 50
163.5472046522267
 51
179.72879698282679
1001
ACDBBLOCKREPETAG
1070
     1
1071
       16
1005
127769
  0
ARC
  5
12776A
  8
OBJECT
 10
2617.1359956562478
 20
-3812.7122497598971
 30
0.0
 40
60.79175676209487
 50
180.2712034781452
 51
196.4527794605338
1001
ACDBBLOCKREPETAG
1070
     1
1071
       17
1005
12776A
  0
ARC
  5
12776B
  8
OBJECT
 10
2664.8782728787751
 20
-3797.5904927388328
 30
0.0
 40
110.8663522830916
 50
196.95964619566811
 51
215.8365725808566
1001
ACDBBLOCKREPETAG
1070
     1
1071
       18
1005
12776B
  0
LINE
  5
12776C
  8
OBJECT
 10
2556.3449199130041
 20
-3806.0000000000332
 30
0.0
 11
2556.3449199130041
 21
-3813.0000000000291
 31
0.0
1001
ACDBBLOCKREPETAG
1070
     1
1071
       19
1005
12776C
  0
LINE
  5
12776D
  8
OBJECT
 10
2575.0
 20
-3756.5000000000618
 30
0.0
 11
2581.5
 21
-3756.5000000000618
 31
0.0
1001
ACDBBLOCKREPETAG
1070
     1
1071
       20
1005
12776D
  0
LINE
  5
12776E
  8
OBJECT
 10
2575.0
 20
-3862.4999999999968
 30
0.0
 11
2584.5
 21
-3862.4999999999968
 31
0.0
1001
ACDBBLOCKREPETAG
1070
     1
1071
       21
1005
12776E
  0
LINE
  5
12776F
  8
OBJECT
 10
2633.0
 20
-3412.9999999999968
 30
0.0
 11
2640.0
 21
-3412.9999999999968
 31
0.0
1001
ACDBBLOCKREPETAG
1070
     1
1071
        0
1005
12776F
  0
LINE
  5
127770
  8
OBJECT
 10
2640.0
 20
-3412.9999999999968
 30
0.0
 11
2640.0
 21
-3506.9999999999968
 31
0.0
1001
ACDBBLOCKREPETAG
1070
     1
1071
        1
1005
127770
  0
LINE
  5
127771
  8
OBJECT
 10
2640.0
 20
-3506.9999999999968
 30
0.0
 11
2633.0
 21
-3506.9999999999968
 31
0.0
1001
ACDBBLOCKREPETAG
1070
     1
1071
        2
1005
127771
  0
LINE
  5
127772
  8
OBJECT
 10
2633.0
 20
-3506.9999999999968
 30
0.0
 11
2633.0
 21
-3412.9999999999968
 31
0.0
1001
ACDBBLOCKREPETAG
1070
     1
1071
        3
1005
127772
  0
LINE
  5
127773
  8
CENTER
 10
2655.0
 20
-3459.9999999999968
 30
0.0
 11
2580.0
 21
-3459.9999999999968
 31
0.0
1001
ACDBBLOCKREPETAG
1070
     1
1071
        4
1005
127773
  0
LINE
  5
127774
  8
OBJECT
 10
2633.0
 20
-3415.9999999999959
 30
0.0
 11
2596.9999999999991
 21
-3415.9999999999959
 31
0.0
1001
ACDBBLOCKREPETAG
1070
     1
1071
        5
1005
127774
  0
LINE
  5
127775
  8
OBJECT
 10
2596.9999999999991
 20
-3415.9999999999959
 30
0.0
 11
2596.9999999999991
 21
-3503.9999999999959
 31
0.0
1001
ACDBBLOCKREPETAG
1070
     1
1071
        6
1005
127775
  0
LINE
  5
127776
  8
OBJECT
 10
2596.9999999999991
 20
-3503.9999999999959
 30
0.0
 11
2633.0
 21
-3503.9999999999959
 31
0.0
1001
ACDBBLOCKREPETAG
1070
     1
1071
        7
1005
127776
  0
LINE
  5
127777
  8
OBJECT
 10
2593.0
 20
-3420.4999999999959
 30
0.0
 11
2584.5
 21
-3420.4999999999959
 31
0.0
1001
ACDBBLOCKREPETAG
1070
     1
1071
        8
1005
127777
  0
LINE
  5
127778
  8
OBJECT
 10
2584.5
 20
-3499.4999999999959
 30
0.0
 11
2593.0
 21
-3499.4999999999959
 31
0.0
1001
ACDBBLOCKREPETAG
1070
     1
1071
        9
1005
127778
  0
LINE
  5
127779
  8
OBJECT
 10
2593.0
 20
-3499.4999999999959
 30
0.0
 11
2593.0
 21
-3420.4999999999959
 31
0.0
1001
ACDBBLOCKREPETAG
1070
     1
1071
       10
1005
127779
  0
LINE
  5
12777A
  8
OBJECT
 10
2596.9999999999991
 20
-3415.9999999999959
 30
0.0
 11
2593.0
 21
-3420.4999999999959
 31
0.0
1001
ACDBBLOCKREPETAG
1070
     1
1071
       11
1005
12777A
  0
LINE
  5
12777B
  8
OBJECT
 10
2596.9999999999991
 20
-3503.9999999999959
 30
0.0
 11
2593.0
 21
-3499.4999999999959
 31
0.0
1001
ACDBBLOCKREPETAG
1070
     1
1071
       12
1005
12777B
  0
LINE
  5
12777C
  8
OBJECT
 10
2584.4999999999991
 20
-3506.4999999999959
 30
0.0
 11
2584.5
 21
-3413.4999999999959
 31
0.0
1001
ACDBBLOCKREPETAG
1070
     1
1071
       13
1005
12777C
  0
ARC
  5
12777D
  8
OBJECT
 10
2581.5
 20
-3413.4999999999959
 30
0.0
 40
3.0
 50
0.0
 51
90.0
1001
ACDBBLOCKREPETAG
1070
     1
1071
       14
1005
12777D
  0
LINE
  5
12777E
  8
HIDDEN
 10
2588.0
 20
-3429.9999999999959
 30
0.0
 11
2588.0
 21
-3489.9999999999968
 31
0.0
1001
ACDBBLOCKREPETAG
1070
     1
1071
       15
1005
12777E
  0
LINE
  5
12777F
  8
OBJECT
 10
2581.5
 20
-3410.4999999999959
 30
0.0
 11
2556.3449199129791
 21
-3410.4999999999959
 31
0.0
1001
ACDBBLOCKREPETAG
1070
     1
1071
       17
1005
12777F
  0
LINE
  5
127780
  8
OBJECT
 10
2581.4999999999991
 20
-3509.4999999999959
 30
0.0
 11
2556.3449199129791
 21
-3509.4999999999959
 31
0.0
1001
ACDBBLOCKREPETAG
1070
     1
1071
       18
1005
127780
  0
ARC
  5
127781
  8
OBJECT
 10
2581.4999999999991
 20
-3506.4999999999959
 30
0.0
 40
3.0
 50
270.0
 51
0.0
1001
ACDBBLOCKREPETAG
1070
     1
1071
       19
1005
127781
  0
TEXT
  5
127782
  8
SLIM
 10
2231.6999999999998
 20
-1708.999999999998
 30
0.0
 40
28.0
  1
※ 対応P寸法　　220～340（10mm単位）
 41
0.75
  0
LINE
  5
127783
  8
OBJECT
 10
4423.0
 20
-570.99999999999432
 30
0.0
 11
4423.0
 21
-549.99999999999432
 31
0.0
1001
ACDBBLOCKREPETAG
1070
     1
1071
        0
1005
127783
  0
LINE
  5
127784
  8
OBJECT
 10
4423.0
 20
-549.99999999999432
 30
0.0
 11
4577.0
 21
-549.99999999999432
 31
0.0
1001
ACDBBLOCKREPETAG
1070
     1
1071
        1
1005
127784
  0
LINE
  5
127785
  8
HIDDEN
 10
4443.0
 20
-619.99999999999432
 30
0.0
 11
4557.0
 21
-619.99999999999432
 31
0.0
1001
ACDBBLOCKREPETAG
1070
     1
1071
        2
1005
127785
  0
LINE
  5
127786
  8
OBJECT
 10
4577.0
 20
-549.99999999999432
 30
0.0
 11
4577.0
 21
-570.99999999999432
 31
0.0
1001
ACDBBLOCKREPETAG
1070
     1
1071
        3
1005
127786
  0
LINE
  5
127787
  8
OBJECT
 10
4577.0
 20
-570.99999999999432
 30
0.0
 11
4423.0
 21
-570.99999999999432
 31
0.0
1001
ACDBBLOCKREPETAG
1070
     1
1071
        4
1005
127787
  0
LINE
  5
127788
  8
CENTER
 10
4500.0
 20
-534.99999999999432
 30
0.0
 11
4500.0
 21
-769.9999999999942
 31
0.0
1001
ACDBBLOCKREPETAG
1070
     1
1071
        5
1005
127788
  0
LINE
  5
127789
  8
OBJECT
 10
4425.0
 20
-633.99999999999432
 30
0.0
 11
4425.0
 21
-757.9999999999942
 31
0.0
1001
ACDBBLOCKREPETAG
1070
     1
1071
        6
1005
127789
  0
LINE
  5
12778A
  8
OBJECT
 10
4428.0
 20
-570.99999999999432
 30
0.0
 11
4428.0
 21
-633.99999999999432
 31
0.0
1001
ACDBBLOCKREPETAG
1070
     1
1071
        7
1005
12778A
  0
LINE
  5
12778B
  8
OBJECT
 10
4572.0
 20
-633.99999999999432
 30
0.0
 11
4572.0
 21
-570.99999999999432
 31
0.0
1001
ACDBBLOCKREPETAG
1070
     1
1071
        8
1005
12778B
  0
LINE
  5
12778C
  8
OBJECT
 10
4420.0
 20
-757.9999999999942
 30
0.0
 11
4580.0
 21
-757.9999999999942
 31
0.0
1001
ACDBBLOCKREPETAG
1070
     1
1071
        9
1005
12778C
  0
LINE
  5
12778D
  8
OBJECT
 10
4580.0
 20
-633.99999999999432
 30
0.0
 11
4425.0
 21
-633.99999999999432
 31
0.0
1001
ACDBBLOCKREPETAG
1070
     1
1071
       10
1005
12778D
  0
LINE
  5
12778E
  8
OBJECT
 10
4420.0
 20
-757.9999999999942
 30
0.0
 11
4420.0
 21
-769.9999999999942
 31
0.0
1001
ACDBBLOCKREPETAG
1070
     1
1071
       11
1005
12778E
  0
LINE
  5
12778F
  8
OBJECT
 10
4420.0
 20
-769.9999999999942
 30
0.0
 11
4580.0
 21
-769.9999999999942
 31
0.0
1001
ACDBBLOCKREPETAG
1070
     1
1071
       12
1005
12778F
  0
LINE
  5
127790
  8
OBJECT
 10
4580.0
 20
-769.9999999999942
 30
0.0
 11
4580.0
 21
-757.9999999999942
 31
0.0
1001
ACDBBLOCKREPETAG
1070
     1
1071
       13
1005
127790
  0
ARC
  5
127791
  8
OBJECT
 10
4700.6872746716726
 20
-749.40809941010195
 30
0.0
 40
170.6350503965856
 50
137.44134459184301
 51
149.91949581337221
1001
ACDBBLOCKREPETAG
1070
     1
1071
       15
1005
127791
  0
ARC
  5
127792
  8
OBJECT
 10
4618.8455987040506
 20
-705.88272669535922
 30
0.0
 40
78.072222021763665
 50
147.4551531037684
 51
164.66365997718671
1001
ACDBBLOCKREPETAG
1070
     1
1071
       16
1005
127792
  0
ARC
  5
127793
  8
OBJECT
 10
4585.7554349608718
 20
-695.99999999999432
 30
0.0
 40
43.55353926885617
 50
165.6884523008477
 51
194.3115476991523
1001
ACDBBLOCKREPETAG
1070
     1
1071
       17
1005
127793
  0
ARC
  5
127794
  8
OBJECT
 10
4700.6872746716726
 20
-642.59190058988645
 30
0.0
 40
170.6350503965856
 50
210.08050418662771
 51
222.55865540815699
1001
ACDBBLOCKREPETAG
1070
     1
1071
       18
1005
127794
  0
ARC
  5
127795
  8
OBJECT
 10
4618.8455987040506
 20
-686.11727330462952
 30
0.0
 40
78.072222021763665
 50
195.3363400228132
 51
212.5448468962316
1001
ACDBBLOCKREPETAG
1070
     1
1071
       19
1005
127795
  0
LINE
  5
127796
  8
OBJECT
 10
4633.0
 20
-634.0
 30
0.0
 11
4640.0
 21
-634.0
 31
0.0
1001
ACDBBLOCKREPETAG
1070
     1
1071
       45
1005
127796
  0
LINE
  5
127797
  8
OBJECT
 10
4640.0
 20
-634.0
 30
0.0
 11
4640.0
 21
-755.0
 31
0.0
1001
ACDBBLOCKREPETAG
1070
     1
1071
       46
1005
127797
  0
LINE
  5
127798
  8
OBJECT
 10
4633.0
 20
-755.0
 30
0.0
 11
4633.0
 21
-634.0
 31
0.0
1001
ACDBBLOCKREPETAG
1070
     1
1071
       47
1005
127798
  0
LINE
  5
127799
  8
CENTER
 10
4655.0
 20
-696.0
 30
0.0
 11
4571.0
 21
-696.0
 31
0.0
1001
ACDBBLOCKREPETAG
1070
     1
1071
       48
1005
127799
  0
LINE
  5
12779A
  8
OBJECT
 10
4633.0
 20
-637.0
 30
0.0
 11
4597.0
 21
-637.0
 31
0.0
1001
ACDBBLOCKREPETAG
1070
     1
1071
       49
1005
12779A
  0
LINE
  5
12779B
  8
OBJECT
 10
4597.0
 20
-637.0
 30
0.0
 11
4597.0
 21
-755.0
 31
0.0
1001
ACDBBLOCKREPETAG
1070
     1
1071
       50
1005
12779B
  0
LINE
  5
12779C
  8
OBJECT
 10
4597.0
 20
-755.0
 30
0.0
 11
4640.0
 21
-755.0
 31
0.0
1001
ACDBBLOCKREPETAG
1070
     1
1071
       51
1005
12779C
  0
LINE
  5
12779D
  8
OBJECT
 10
4593.0
 20
-641.5
 30
0.0
 11
4586.0
 21
-641.5
 31
0.0
1001
ACDBBLOCKREPETAG
1070
     1
1071
       52
1005
12779D
  0
LINE
  5
12779E
  8
OBJECT
 10
4586.0
 20
-750.49999999999989
 30
0.0
 11
4593.0
 21
-750.49999999999989
 31
0.0
1001
ACDBBLOCKREPETAG
1070
     1
1071
       53
1005
12779E
  0
LINE
  5
12779F
  8
OBJECT
 10
4593.0
 20
-750.49999999999989
 30
0.0
 11
4593.0
 21
-641.5
 31
0.0
1001
ACDBBLOCKREPETAG
1070
     1
1071
       54
1005
12779F
  0
LINE
  5
1277A0
  8
OBJECT
 10
4597.0
 20
-637.0
 30
0.0
 11
4593.0
 21
-641.5
 31
0.0
1001
ACDBBLOCKREPETAG
1070
     1
1071
       55
1005
1277A0
  0
LINE
  5
1277A1
  8
OBJECT
 10
4597.0
 20
-755.0
 30
0.0
 11
4593.0
 21
-750.49999999999989
 31
0.0
1001
ACDBBLOCKREPETAG
1070
     1
1071
       56
1005
1277A1
  0
LINE
  5
1277A2
  8
OBJECT
 10
4583.0
 20
-634.0
 30
0.0
 11
4580.0
 21
-634.0
 31
0.0
1001
ACDBBLOCKREPETAG
1070
     1
1071
       57
1005
1277A2
  0
ARC
  5
1277A3
  8
OBJECT
 10
4583.0
 20
-637.0
 30
0.0
 40
3.0
 50
0.0
 51
90.0
1001
ACDBBLOCKREPETAG
1070
     1
1071
       58
1005
1277A3
  0
LINE
  5
1277A4
  8
OBJECT
 10
4580.0
 20
-758.0
 30
0.0
 11
4583.0
 21
-758.0
 31
0.0
1001
ACDBBLOCKREPETAG
1070
     1
1071
       59
1005
1277A4
  0
ARC
  5
1277A5
  8
OBJECT
 10
4583.0
 20
-755.0
 30
0.0
 40
3.0
 50
270.0
 51
0.0
1001
ACDBBLOCKREPETAG
1070
     1
1071
       60
1005
1277A5
  0
LINE
  5
1277A6
  8
OBJECT
 10
4586.0
 20
-755.0
 30
0.0
 11
4586.0
 21
-637.0
 31
0.0
1001
ACDBBLOCKREPETAG
1070
     1
1071
       61
1005
1277A6
  0
LINE
  5
1277A7
  8
HIDDEN
 10
4588.0
 20
-651.5
 30
0.0
 11
4588.0
 21
-740.5
 31
0.0
1001
ACDBBLOCKREPETAG
1070
     1
1071
       63
1005
1277A7
  0
TEXT
  5
1277A8
  8
SLIM
 10
149.1428571427966
 20
-443.99999999984971
 30
0.0
 40
48.0
  1
A3
 41
0.75
1001
ACDBBLOCKREPETAG
1070
     1
1071
      119
1005
0
  0
LINE
  5
1277A9
  8
OBJECT
 10
2423.0
 20
-570.99999999999432
 30
0.0
 11
2423.0
 21
-549.99999999999432
 31
0.0
1001
ACDBBLOCKREPETAG
1070
     1
1071
        0
1005
1277A9
  0
LINE
  5
1277AA
  8
OBJECT
 10
2423.0
 20
-549.99999999999432
 30
0.0
 11
2577.0
 21
-549.99999999999432
 31
0.0
1001
ACDBBLOCKREPETAG
1070
     1
1071
        1
1005
1277AA
  0
LINE
  5
1277AB
  8
HIDDEN
 10
2443.0
 20
-619.99999999999432
 30
0.0
 11
2557.0
 21
-619.99999999999432
 31
0.0
1001
ACDBBLOCKREPETAG
1070
     1
1071
        2
1005
1277AB
  0
LINE
  5
1277AC
  8
OBJECT
 10
2577.0
 20
-549.99999999999432
 30
0.0
 11
2577.0
 21
-570.99999999999432
 31
0.0
1001
ACDBBLOCKREPETAG
1070
     1
1071
        3
1005
1277AC
  0
LINE
  5
1277AD
  8
OBJECT
 10
2577.0
 20
-570.99999999999432
 30
0.0
 11
2423.0
 21
-570.99999999999432
 31
0.0
1001
ACDBBLOCKREPETAG
1070
     1
1071
        4
1005
1277AD
  0
LINE
  5
1277AE
  8
CENTER
 10
2500.0
 20
-534.99999999999432
 30
0.0
 11
2500.0
 21
-769.9999999999942
 31
0.0
1001
ACDBBLOCKREPETAG
1070
     1
1071
        5
1005
1277AE
  0
LINE
  5
1277AF
  8
OBJECT
 10
2425.0
 20
-633.99999999999432
 30
0.0
 11
2425.0
 21
-757.9999999999942
 31
0.0
1001
ACDBBLOCKREPETAG
1070
     1
1071
        6
1005
1277AF
  0
LINE
  5
1277B0
  8
OBJECT
 10
2428.0
 20
-570.99999999999432
 30
0.0
 11
2428.0
 21
-633.99999999999432
 31
0.0
1001
ACDBBLOCKREPETAG
1070
     1
1071
        7
1005
1277B0
  0
LINE
  5
1277B1
  8
OBJECT
 10
2572.0
 20
-633.99999999999432
 30
0.0
 11
2572.0
 21
-570.99999999999432
 31
0.0
1001
ACDBBLOCKREPETAG
1070
     1
1071
        8
1005
1277B1
  0
LINE
  5
1277B2
  8
OBJECT
 10
2420.0
 20
-757.9999999999942
 30
0.0
 11
2580.0
 21
-757.9999999999942
 31
0.0
1001
ACDBBLOCKREPETAG
1070
     1
1071
        9
1005
1277B2
  0
LINE
  5
1277B3
  8
OBJECT
 10
2580.0
 20
-633.99999999999432
 30
0.0
 11
2425.0
 21
-633.99999999999432
 31
0.0
1001
ACDBBLOCKREPETAG
1070
     1
1071
       10
1005
1277B3
  0
LINE
  5
1277B4
  8
OBJECT
 10
2420.0
 20
-757.9999999999942
 30
0.0
 11
2420.0
 21
-769.9999999999942
 31
0.0
1001
ACDBBLOCKREPETAG
1070
     1
1071
       11
1005
1277B4
  0
LINE
  5
1277B5
  8
OBJECT
 10
2420.0
 20
-769.9999999999942
 30
0.0
 11
2580.0
 21
-769.9999999999942
 31
0.0
1001
ACDBBLOCKREPETAG
1070
     1
1071
       12
1005
1277B5
  0
LINE
  5
1277B6
  8
OBJECT
 10
2580.0
 20
-769.9999999999942
 30
0.0
 11
2580.0
 21
-757.9999999999942
 31
0.0
1001
ACDBBLOCKREPETAG
1070
     1
1071
       13
1005
1277B6
  0
ARC
  5
1277B7
  8
OBJECT
 10
2700.6872746716731
 20
-749.40809941010195
 30
0.0
 40
170.6350503965856
 50
137.44134459184301
 51
149.91949581337221
1001
ACDBBLOCKREPETAG
1070
     1
1071
       15
1005
1277B7
  0
ARC
  5
1277B8
  8
OBJECT
 10
2618.8455987040511
 20
-705.88272669535922
 30
0.0
 40
78.072222021763665
 50
147.4551531037684
 51
164.6636599771798
1001
ACDBBLOCKREPETAG
1070
     1
1071
       16
1005
1277B8
  0
ARC
  5
1277B9
  8
OBJECT
 10
2585.7554349608731
 20
-695.99999999999432
 30
0.0
 40
43.55353926885617
 50
165.6884523008477
 51
194.3115476991523
1001
ACDBBLOCKREPETAG
1070
     1
1071
       17
1005
1277B9
  0
ARC
  5
1277BA
  8
OBJECT
 10
2700.6872746716731
 20
-642.59190058988645
 30
0.0
 40
170.6350503965856
 50
210.08050418662771
 51
222.55865540815699
1001
ACDBBLOCKREPETAG
1070
     1
1071
       18
1005
1277BA
  0
ARC
  5
1277BB
  8
OBJECT
 10
2618.8455987040511
 20
-686.11727330462952
 30
0.0
 40
78.072222021763665
 50
195.3363400228202
 51
212.5448468962316
1001
ACDBBLOCKREPETAG
1070
     1
1071
       19
1005
1277BB
  0
LINE
  5
1277BC
  8
OBJECT
 10
2633.0
 20
-634.0
 30
0.0
 11
2640.0
 21
-634.0
 31
0.0
1001
ACDBBLOCKREPETAG
1070
     1
1071
       45
1005
1277BC
  0
LINE
  5
1277BD
  8
OBJECT
 10
2640.0
 20
-634.0
 30
0.0
 11
2640.0
 21
-755.0
 31
0.0
1001
ACDBBLOCKREPETAG
1070
     1
1071
       46
1005
1277BD
  0
LINE
  5
1277BE
  8
OBJECT
 10
2633.0
 20
-755.0
 30
0.0
 11
2633.0
 21
-634.0
 31
0.0
1001
ACDBBLOCKREPETAG
1070
     1
1071
       47
1005
1277BE
  0
LINE
  5
1277BF
  8
CENTER
 10
2655.0
 20
-696.0
 30
0.0
 11
2571.0
 21
-696.0
 31
0.0
1001
ACDBBLOCKREPETAG
1070
     1
1071
       48
1005
1277BF
  0
LINE
  5
1277C0
  8
OBJECT
 10
2633.0
 20
-637.0
 30
0.0
 11
2597.0
 21
-637.0
 31
0.0
1001
ACDBBLOCKREPETAG
1070
     1
1071
       49
1005
1277C0
  0
LINE
  5
1277C1
  8
OBJECT
 10
2597.0
 20
-637.0
 30
0.0
 11
2597.0
 21
-755.0
 31
0.0
1001
ACDBBLOCKREPETAG
1070
     1
1071
       50
1005
1277C1
  0
LINE
  5
1277C2
  8
OBJECT
 10
2597.0
 20
-755.0
 30
0.0
 11
2640.0
 21
-755.0
 31
0.0
1001
ACDBBLOCKREPETAG
1070
     1
1071
       51
1005
1277C2
  0
LINE
  5
1277C3
  8
OBJECT
 10
2593.0
 20
-641.5
 30
0.0
 11
2586.0
 21
-641.5
 31
0.0
1001
ACDBBLOCKREPETAG
1070
     1
1071
       52
1005
1277C3
  0
LINE
  5
1277C4
  8
OBJECT
 10
2586.0
 20
-750.49999999999989
 30
0.0
 11
2593.0
 21
-750.49999999999989
 31
0.0
1001
ACDBBLOCKREPETAG
1070
     1
1071
       53
1005
1277C4
  0
LINE
  5
1277C5
  8
OBJECT
 10
2593.0
 20
-750.49999999999989
 30
0.0
 11
2593.0
 21
-641.5
 31
0.0
1001
ACDBBLOCKREPETAG
1070
     1
1071
       54
1005
1277C5
  0
LINE
  5
1277C6
  8
OBJECT
 10
2597.0
 20
-637.0
 30
0.0
 11
2593.0
 21
-641.5
 31
0.0
1001
ACDBBLOCKREPETAG
1070
     1
1071
       55
1005
1277C6
  0
LINE
  5
1277C7
  8
OBJECT
 10
2597.0
 20
-755.0
 30
0.0
 11
2593.0
 21
-750.49999999999989
 31
0.0
1001
ACDBBLOCKREPETAG
1070
     1
1071
       56
1005
1277C7
  0
LINE
  5
1277C8
  8
OBJECT
 10
2583.0
 20
-634.0
 30
0.0
 11
2580.0
 21
-634.0
 31
0.0
1001
ACDBBLOCKREPETAG
1070
     1
1071
       57
1005
1277C8
  0
ARC
  5
1277C9
  8
OBJECT
 10
2583.0
 20
-637.0
 30
0.0
 40
3.0
 50
0.0
 51
90.0
1001
ACDBBLOCKREPETAG
1070
     1
1071
       58
1005
1277C9
  0
LINE
  5
1277CA
  8
OBJECT
 10
2580.0
 20
-758.0
 30
0.0
 11
2583.0
 21
-758.0
 31
0.0
1001
ACDBBLOCKREPETAG
1070
     1
1071
       59
1005
1277CA
  0
ARC
  5
1277CB
  8
OBJECT
 10
2583.0
 20
-755.0
 30
0.0
 40
3.0
 50
270.0
 51
0.0
1001
ACDBBLOCKREPETAG
1070
     1
1071
       60
1005
1277CB
  0
LINE
  5
1277CC
  8
OBJECT
 10
2586.0
 20
-755.0
 30
0.0
 11
2586.0
 21
-637.0
 31
0.0
1001
ACDBBLOCKREPETAG
1070
     1
1071
       61
1005
1277CC
  0
LINE
  5
1277CD
  8
HIDDEN
 10
2588.0
 20
-651.5
 30
0.0
 11
2588.0
 21
-740.5
 31
0.0
1001
ACDBBLOCKREPETAG
1070
     1
1071
       63
1005
1277CD
  0
TEXT
  5
1277CE
  8
SLIM
 10
0.0000035665234464
 20
24.000004585317608
 30
0.0
 40
79.999999999972701
  1
上部枝管
 41
0.75
1001
ACDBBLOCKREPETAG
1070
     1
1071
      119
1005
120BCB
  0
LINE
  5
1277CF
  8
DIM
 10
2650.0
 20
-3506.9999999999968
 30
0.0
 11
2728.479620594459
 21
-3506.9999999999968
 31
0.0
  0
LINE
  5
1277D0
  8
DIM
 10
2650.0
 20
-3412.9999999999968
 30
0.0
 11
2728.479620594459
 21
-3412.9999999999968
 31
0.0
  0
LINE
  5
1277D1
  8
DIM
 10
2718.479620594459
 20
-3486.9999999999959
 30
0.0
 11
2718.479620594459
 21
-3432.9999999999959
 31
0.0
  0
INSERT
  5
1277D2
  8
DIM
  2
_OPEN30
 10
2718.479620594459
 20
-3506.9999999999968
 30
0.0
 41
20.0
 42
20.0
 43
20.0
 50
270.0
  0
INSERT
  5
1277D3
  8
DIM
  2
_OPEN30
 10
2718.479620594459
 20
-3412.9999999999968
 30
0.0
 41
20.0
 42
20.0
 43
20.0
 50
90.0
  0
INSERT
  5
1277D4
  8
SLIM
  2
*U40
 10
0.0
 20
0.0
 30
0.0
  0
LINE
  5
1277D5
  8
DIM
 10
2650.0
 20
-3864.9999999999968
 30
0.0
 11
2726.8409284037339
 21
-3864.9999999999968
 31
0.0
  0
LINE
  5
1277D6
  8
DIM
 10
2665.0
 20
-3820.9999999999968
 30
0.0
 11
2726.8409284037339
 21
-3820.9999999999968
 31
0.0
  0
LINE
  5
1277D7
  8
DIM
 10
2716.8409284037339
 20
-3884.9999999999991
 30
0.0
 11
2716.8409284037339
 21
-3904.9999999999968
 31
0.0
  0
LINE
  5
1277D8
  8
DIM
 10
2716.8409284037339
 20
-3800.9999999999982
 30
0.0
 11
2716.8409284037339
 21
-3780.9999999999968
 31
0.0
  0
LINE
  5
1277D9
  8
DIM
 10
2716.8409284037339
 20
-3864.9999999999968
 30
0.0
 11
2716.8409284037339
 21
-3820.9999999999968
 31
0.0
  0
INSERT
  5
1277DA
  8
DIM
  2
_OPEN30
 10
2716.8409284037339
 20
-3864.9999999999968
 30
0.0
 41
20.0
 42
20.0
 43
20.0
 50
90.0
  0
INSERT
  5
1277DB
  8
DIM
  2
_OPEN30
 10
2716.8409284037339
 20
-3820.9999999999968
 30
0.0
 41
20.0
 42
20.0
 43
20.0
 50
270.0
  0
INSERT
  5
1277DC
  8
SLIM
  2
*U41
 10
0.0
 20
0.0
 30
0.0
  0
LINE
  5
1277DD
  8
DIM
 10
2500.0
 20
-3359.9999999999968
 30
0.0
 11
2500.0
 21
-3322.208121984444
 31
0.0
  0
LINE
  5
1277DE
  8
DIM
 10
2640.0
 20
-3402.9999999999968
 30
0.0
 11
2640.0
 21
-3322.208121984444
 31
0.0
  0
LINE
  5
1277DF
  8
DIM
 10
2520.0
 20
-3332.208121984444
 30
0.0
 11
2620.0
 21
-3332.208121984444
 31
0.0
  0
INSERT
  5
1277E0
  8
DIM
  2
_OPEN30
 10
2500.0
 20
-3332.208121984444
 30
0.0
 41
20.0
 42
20.0
 43
20.0
 50
180.0
  0
INSERT
  5
1277E1
  8
DIM
  2
_OPEN30
 10
2640.0
 20
-3332.208121984444
 30
0.0
 41
20.0
 42
20.0
 43
20.0
  0
INSERT
  5
1277E2
  8
SLIM
  2
*U42
 10
0.0
 20
0.0
 30
0.0
  0
TEXT
  5
1277E3
  8
SLIM
 10
3270.9999999999991
 20
-3237.5000160472709
 30
0.0
 40
40.0
  1
C寸法
 41
0.75
  0
TEXT
  5
1277E4
  8
SLIM
 10
3270.9999999999991
 20
-3167.5000160472709
 30
0.0
 40
40.0
  1
B寸法
 41
0.75
  0
TEXT
  5
1277E5
  8
SLIM
 10
3270.2857142857151
 20
-3097.5000160472709
 30
0.0
 40
40.0
  1
A寸法
 41
0.75
  0
TEXT
  5
1277E6
  8
SLIM
 10
3669.2857142857142
 20
-3237.5000160472709
 30
0.0
 40
40.0
  1
140
 41
0.75
  0
TEXT
  5
1277E7
  8
SLIM
 10
3409.2857142857151
 20
-3237.5000160472709
 30
0.0
 40
40.0
  1
140
 41
0.75
  0
TEXT
  5
1277E8
  8
SLIM
 10
3539.2857142857151
 20
-3237.5000160472709
 30
0.0
 40
40.0
  1
140
 41
0.75
  0
TEXT
  5
1277E9
  8
SLIM
 10
3681.4285714285711
 20
-3167.5000160472709
 30
0.0
 40
40.0
  1
59
 41
0.75
  0
TEXT
  5
1277EA
  8
SLIM
 10
3420.0
 20
-3167.5000160472709
 30
0.0
 40
40.0
  1
44
 41
0.75
  0
TEXT
  5
1277EB
  8
SLIM
 10
3550.7142857142849
 20
-3167.5000160472709
 30
0.0
 40
40.0
  1
52
 41
0.75
  0
TEXT
  5
1277EC
  8
SLIM
 10
3471.0
 20
-2972.5000160472709
 30
0.0
 40
40.0
  1
横枝管サイズ
 41
0.75
  0
TEXT
  5
1277ED
  8
SLIM
 10
3654.8571428571422
 20
-3027.50001604727
 30
0.0
 40
30.0
  1
75（3）
 41
0.75
  0
TEXT
  5
1277EE
  8
SLIM
 10
3524.8571428571422
 20
-3027.50001604727
 30
0.0
 40
30.0
  1
65（2）
 41
0.75
  0
TEXT
  5
1277EF
  8
SLIM
 10
3397.0
 20
-3027.50001604727
 30
0.0
 40
30.0
  1
50（1）
 41
0.75
  0
TEXT
  5
1277F0
  8
SLIM
 10
3668.5714285714289
 20
-3097.5000160472709
 30
0.0
 40
40.0
  1
124
 41
0.75
  0
TEXT
  5
1277F1
  8
SLIM
 10
3420.0
 20
-3097.5000160472709
 30
0.0
 40
40.0
  1
94
 41
0.75
  0
TEXT
  5
1277F2
  8
SLIM
 10
3542.142857142856
 20
-3097.5000160472709
 30
0.0
 40
40.0
  1
110
 41
0.75
  0
TEXT
  5
1277F3
  8
SLIM
 10
2349.9999999999991
 20
-2997.5
 30
0.0
 40
75.0
  1
下部枝管サイズ毎の形状
 41
0.75
  0
TEXT
  5
1277F4
  8
SLIM
 10
4394.25
 20
-3982.4999999999968
 30
0.0
 40
35.0
  1
通常枝75（3）
 41
0.75
  0
TEXT
  5
1277F5
  8
SLIM
 10
3394.2499999999991
 20
-3982.4999999999968
 30
0.0
 40
35.0
  1
通常枝65（2）
 41
0.75
  0
TEXT
  5
1277F6
  8
SLIM
 10
2396.75
 20
-3982.4999999999968
 30
0.0
 40
35.0
  1
通常枝50（1）
 41
0.75
  0
TEXT
  5
1277F7
  8
SLIM
 10
2337.75
 20
282.50000000000011
 30
0.0
 40
35.0
  1
（枝管サイズ毎に寸法が異なります。管底の位置は全サイズで同じです）
 41
0.75
  0
TEXT
  5
1277F8
  8
SLIM
 10
2350.0
 20
532.5
 30
0.0
 40
75.0
  1
側面図の代表機種
 41
0.75
  0
TEXT
  5
1277F9
  8
SLIM
 10
2350.0
 20
369.99999999999989
 30
0.0
 40
100.0
  1
4SR2-A3-A0020-P320
 41
0.75
  0
TEXT
  5
1277FA
  8
SLIM
 10
4241.6249999999991
 20
-1632.499999999998
 30
0.0
 40
35.0
  1
片受けスタイル（S）＋シンドカット
 41
0.75
  0
TEXT
  5
1277FB
  8
SLIM
 10
2356.25
 20
-1632.499999999998
 30
0.0
 40
35.0
  1
片受けスタイル（S）
 41
0.75
  0
TEXT
  5
1277FC
  8
SLIM
 10
0.0
 20
370.0
 30
0.0
 40
100.0
  1
4SR2-A3-A00X0-PXXX-S
 41
0.75
  0
VIEWPORT
  5
F6BA7
 67
     1
  8
0
 10
195.9179030619629
 20
101.8328354358673
 30
0.0
 40
435.17763301655992
 41
222.19657968139651
 68
     1
 69
     1
1001
ACAD
1000
MVIEW
1002
{
1070
    16
1010
0.0
1020
0.0
1030
0.0
1010
0.0
1020
0.0
1030
1.0
1040
0.0
1040
222.19657968139651
1040
195.9179030619629
1040
101.8328354358673
1040
50.0
1040
0.0
1040
0.0
1070
     0
1070
     0
1070
     1
1070
     1
1070
     0
1070
     0
1070
     0
1070
     0
1040
0.0
1040
0.0
1040
0.0
1040
10.0
1040
10.0
1040
10.0
1040
10.0
1070
     0
1002
{
1002
}
1002
}
  0
VIEWPORT
  5
F6BA9
 67
     1
  8
OBJECT
 10
145.3303314447403
 20
101.8328338861465
 30
0.0
 40
232.5285303115844
 41
162.93253421783439
 68
     2
 69
     2
1001
ACAD
1000
MVIEW
1002
{
1070
    16
1010
0.0
1020
0.0
1030
0.0
1010
0.0
1020
0.0
1030
1.0
1040
0.0
1040
25942.55904403147
1040
2377.604457077377
1040
-7591.5176687056619
1040
50.0
1040
0.0
1040
0.0
1070
     0
1070
   600
1070
     1
1070
     1
1070
     0
1070
     0
1070
     0
1070
     0
1040
0.0
1040
0.0
1040
0.0
1040
1.0
1040
1.0
1040
0.0
1040
0.0
1070
     0
1002
{
1002
}
1002
}
  0
ENDSEC
  0
EOF
