  0
SECTION
  2
HEADER
  9
$ACADVER
  1
AC1009
  9
$INSBASE
 10
0.0
 20
0.0
 30
0.0
  9
$EXTMIN
 10
0.0
 20
-3817.4999999999959
 30
0.0
  9
$EXTMAX
 10
5575.0
 20
607.5
 30
0.0
  9
$LIMMIN
 10
0.0
 20
0.0
  9
$LIMMAX
 10
210.0
 20
297.0
  9
$ORTHOMODE
 70
     0
  9
$REGENMODE
 70
     1
  9
$FILLMODE
 70
     1
  9
$QTEXTMODE
 70
     0
  9
$MIRRTEXT
 70
     0
  9
$DRAGMODE
 70
     2
  9
$LTSCALE
 40
1.0
  9
$OSMODE
 70
    37
  9
$ATTMODE
 70
     1
  9
$TEXTSIZE
 40
4.0
  9
$TRACEWID
 40
0.05
  9
$TEXTSTYLE
  7
STANDARD
  9
$CLAYER
  8
OBJECT
  9
$CELTYPE
  6
BYLAYER
  9
$CECOLOR
 62
   256
  9
$DIMSCALE
 40
10.0
  9
$DIMASZ
 40
2.0
  9
$DIMEXO
 40
1.0
  9
$DIMDLI
 40
10.0
  9
$DIMRND
 40
0.0
  9
$DIMDLE
 40
0.0
  9
$DIMEXE
 40
1.0
  9
$DIMTP
 40
0.0
  9
$DIMTM
 40
0.0
  9
$DIMTXT
 40
3.2000000000000002
  9
$DIMCEN
 40
0.0
  9
$DIMTSZ
 40
0.0
  9
$DIMTOL
 70
     0
  9
$DIMLIM
 70
     0
  9
$DIMTIH
 70
     0
  9
$DIMTOH
 70
     0
  9
$DIMSE1
 70
     0
  9
$DIMSE2
 70
     0
  9
$DIMTAD
 70
     1
  9
$DIMZIN
 70
     8
  9
$DIMBLK
  1
OPEN30
  9
$DIMASO
 70
     1
  9
$DIMSHO
 70
     1
  9
$DIMPOST
  1

  9
$DIMAPOST
  1

  9
$DIMALT
 70
     0
  9
$DIMALTD
 70
     2
  9
$DIMALTF
 40
25.399999999999999
  9
$DIMLFAC
 40
1.0
  9
$DIMTOFL
 70
     1
  9
$DIMTVP
 40
0.0
  9
$DIMTIX
 70
     0
  9
$DIMSOXD
 70
     0
  9
$DIMSAH
 70
     0
  9
$DIMBLK1
  1

  9
$DIMBLK2
  1

  9
$DIMSTYLE
  2
S10
  9
$DIMCLRD
 70
   256
  9
$DIMCLRE
 70
   256
  9
$DIMCLRT
 70
   256
  9
$DIMTFAC
 40
1.0
  9
$DIMGAP
 40
0.9
  9
$LUNITS
 70
     2
  9
$LUPREC
 70
     2
  9
$SKETCHINC
 40
0.1
  9
$FILLETRAD
 40
0.0
  9
$AUNITS
 70
     0
  9
$AUPREC
 70
     2
  9
$MENU
  1
ACAD
  9
$ELEVATION
 40
0.0
  9
$PELEVATION
 40
0.0
  9
$THICKNESS
 40
0.0
  9
$LIMCHECK
 70
     0
  9
$BLIPMODE
 70
     0
  9
$CHAMFERA
 40
2.0
  9
$CHAMFERB
 40
2.0
  9
$SKPOLY
 70
     0
  9
$TDCREATE
 40
2453095.4929404748
  9
$TDUPDATE
 40
2457602.649241528
  9
$TDINDWG
 40
18.349166307899999
  9
$TDUSRTIMER
 40
18.349165138899998
  9
$USRTIMER
 70
     1
  9
$ANGBASE
 50
0.0
  9
$ANGDIR
 70
     0
  9
$PDMODE
 70
    35
  9
$PDSIZE
 40
2.0
  9
$PLINEWID
 40
0.0
  9
$COORDS
 70
     1
  9
$SPLFRAME
 70
     0
  9
$SPLINETYPE
 70
     6
  9
$SPLINESEGS
 70
     8
  9
$ATTDIA
 70
     0
  9
$ATTREQ
 70
     1
  9
$HANDLING
 70
     1
  9
$HANDSEED
  5
12D261
  9
$SURFTAB1
 70
     6
  9
$SURFTAB2
 70
     6
  9
$SURFTYPE
 70
     6
  9
$SURFU
 70
     6
  9
$SURFV
 70
     6
  9
$UCSNAME
  2

  9
$UCSORG
 10
0.0
 20
0.0
 30
0.0
  9
$UCSXDIR
 10
1.0
 20
0.0
 30
0.0
  9
$UCSYDIR
 10
0.0
 20
1.0
 30
0.0
  9
$PUCSNAME
  2

  9
$PUCSORG
 10
0.0
 20
0.0
 30
0.0
  9
$PUCSXDIR
 10
1.0
 20
0.0
 30
0.0
  9
$PUCSYDIR
 10
0.0
 20
1.0
 30
0.0
  9
$USERI1
 70
     0
  9
$USERI2
 70
     0
  9
$USERI3
 70
     0
  9
$USERI4
 70
     0
  9
$USERI5
 70
     0
  9
$USERR1
 40
0.0
  9
$USERR2
 40
0.0
  9
$USERR3
 40
0.0
  9
$USERR4
 40
0.0
  9
$USERR5
 40
0.0
  9
$WORLDVIEW
 70
     1
  9
$SHADEDGE
 70
     3
  9
$SHADEDIF
 70
    70
  9
$TILEMODE
 70
     1
  9
$MAXACTVP
 70
    64
  9
$PLIMCHECK
 70
     0
  9
$PEXTMIN
 10
29.066066288948051
 20
20.366566777229309
 30
0.0
  9
$PEXTMAX
 10
261.5945966005325
 20
183.29910099506381
 30
0.0
  9
$PLIMMIN
 10
-3.17498779296875
 20
-3.1749999523162842
  9
$PLIMMAX
 10
293.83566284179687
 20
206.8406708240509
  9
$UNITMODE
 70
     0
  9
$VISRETAIN
 70
     1
  9
$PLINEGEN
 70
     0
  9
$PSLTSCALE
 70
     1
  0
ENDSEC
  0
SECTION
  2
TABLES
  0
TABLE
  2
VPORT
 70
     1
  0
VPORT
  2
*ACTIVE
 70
     0
 10
0.0
 20
0.0
 11
1.0
 21
1.0
 12
1688.1005580251051
 22
-339.03833221343478
 13
0.0
 23
0.0
 14
1.0
 24
1.0
 15
0.0
 25
0.0
 16
0.0
 26
0.0
 36
1.0
 17
0.0
 27
0.0
 37
0.0
 40
4710.1489170742943
 41
1.6494178525226391
 42
50.0
 43
0.0
 44
0.0
 50
0.0
 51
0.0
 71
     0
 72
   600
 73
     1
 74
     1
 75
     0
 76
     0
 77
     0
 78
     0
  0
ENDTAB
  0
TABLE
  2
LTYPE
 70
     4
  0
LTYPE
  2
CONTINUOUS
 70
     0
  3
Solid line
 72
    65
 73
     0
 40
0.0
  0
LTYPE
  2
PHANTOM2
 70
     0
  3
___ _ _ ___ _ _ ___ _ _ ___ _ _
 72
    65
 73
     6
 40
1.25
 49
0.625
 49
-0.125
 49
0.125
 49
-0.125
 49
0.125
 49
-0.125
  0
LTYPE
  2
ACAD_ISO08W100
 70
     0
  3
ISO long-dash short-dash ____ __ ____ __ ____ _
 72
    65
 73
     4
 40
36.0
 49
24.0
 49
-3.0
 49
6.0
 49
-3.0
  0
LTYPE
  2
ACAD_ISO02W100
 70
     0
  3
ISO dash __ __ __ __ __ __ __ __ __ __ __ __ __
 72
    65
 73
     2
 40
15.0
 49
12.0
 49
-3.0
  0
ENDTAB
  0
TABLE
  2
LAYER
 70
     8
  0
LAYER
  2
0
 70
     0
 62
     7
  6
CONTINUOUS
  0
LAYER
  2
OBJECT
 70
     0
 62
     4
  6
CONTINUOUS
  0
LAYER
  2
DEFPOINTS
 70
     0
 62
     7
  6
CONTINUOUS
  0
LAYER
  2
DIM
 70
     0
 62
     7
  6
CONTINUOUS
  0
LAYER
  2
HIDDEN
 70
     0
 62
     2
  6
ACAD_ISO02W100
  0
LAYER
  2
CENTER
 70
     0
 62
     2
  6
ACAD_ISO08W100
  0
LAYER
  2
DOTS
 70
     0
 62
     1
  6
CONTINUOUS
  0
LAYER
  2
SLIM
 70
     0
 62
     2
  6
CONTINUOUS
  0
ENDTAB
  0
TABLE
  2
STYLE
 70
     2
  0
STYLE
  2
STANDARD
 70
     0
 40
0.0
 41
0.75
 50
0.0
 71
     0
 42
4.0
  3
simplex.shx
  4
bigfont.shx
  0
ENDTAB
  0
TABLE
  2
VIEW
 70
     0
  0
ENDTAB
  0
TABLE
  2
UCS
 70
     0
  0
ENDTAB
  0
TABLE
  2
APPID
 70
    18
  0
APPID
  2
ACAD
 70
     0
  0
APPID
  2
ACADANNOTATIVE
 70
     0
  0
APPID
  2
ACAD_PSEXT
 70
     0
  0
APPID
  2
ACAD_EXEMPT_FROM_CAD_STANDARDS
 70
     0
  0
APPID
  2
ACAECLAYERSTANDARD
 70
     0
  0
APPID
  2
ACAUTHENVIRON
 70
     0
  0
APPID
  2
ACDBDYNAMICBLOCKTRUENAME
 70
     0
  0
APPID
  2
ACDBDYNAMICBLOCKGUID
 70
     0
  0
APPID
  2
ACDBBLOCKREPETAG
 70
     0
  0
APPID
  2
ACDBBLOCKREPBTAG
 70
     0
  0
APPID
  2
ACAD_NAV_VCDISPLAY
 70
     0
  0
APPID
  2
ACAD_DSTYLE_DIMRADIAL_EXTENSION
 70
     0
  0
APPID
  2
ACAD_DSTYLE_DIMJAG
 70
     0
  0
APPID
  2
ACAD_DSTYLE_DIMTALN
 70
     0
  0
APPID
  2
ACADANNOPO
 70
     0
  0
APPID
  2
GRADIENTCOLOR1ACI
 70
     0
  0
APPID
  2
GRADIENTCOLOR2ACI
 70
     0
  0
APPID
  2
ACAD_MLEADERVER
 70
     0
  0
ENDTAB
  0
TABLE
  2
DIMSTYLE
 70
     3
  0
DIMSTYLE
  2
STANDARD
 70
     0
  3

  4

  5

  6

  7

 40
1.0
 41
0.18
 42
0.0625
 43
0.38
 44
0.18
 45
0.0
 46
0.0
 47
0.0
 48
0.0
140
0.18
141
0.09
142
0.0
143
25.399999999999999
144
1.0
145
0.0
146
1.0
147
0.09
 71
     0
 72
     0
 73
     1
 74
     1
 75
     0
 76
     0
 77
     0
 78
     0
170
     0
171
     2
172
     0
173
     0
174
     0
175
     0
176
     0
177
     0
178
     0
  0
DIMSTYLE
  2
S10
 70
     0
  3

  4

  5

  6

  7

 40
10.0
 41
2.0
 42
1.0
 43
10.0
 44
1.0
 45
0.0
 46
0.0
 47
0.0
 48
0.0
140
3.2000000000000002
141
0.0
142
0.0
143
25.399999999999999
144
1.0
145
0.0
146
1.0
147
0.9
 71
     0
 72
     0
 73
     0
 74
     0
 75
     0
 76
     0
 77
     1
 78
     8
170
     0
171
     2
172
     1
173
     0
174
     0
175
     0
176
   256
177
   256
178
   256
  0
ENDTAB
  0
ENDSEC
  0
SECTION
  2
BLOCKS
  0
BLOCK
  8
0
  2
$MODEL_SPACE
 70
     0
 10
0.0
 20
0.0
 30
0.0
  3
$MODEL_SPACE
  1

  0
ENDBLK
  5
12D177
  8
0
  0
BLOCK
 67
     1
  8
0
  2
$PAPER_SPACE
 70
     0
 10
0.0
 20
0.0
 30
0.0
  3
$PAPER_SPACE
  1

  0
ENDBLK
  5
12D173
 67
     1
  8
0
  0
BLOCK
  8
0
  2
_OPEN30
 70
     0
 10
0.0
 20
0.0
 30
0.0
  3
_OPEN30
  1

  0
LINE
  5
202
  8
0
  6
BYBLOCK
 62
     0
 10
-1.0
 20
0.26794919
 30
0.0
 11
0.0
 21
0.0
 31
0.0
  0
LINE
  5
203
  8
0
  6
BYBLOCK
 62
     0
 10
0.0
 20
0.0
 30
0.0
 11
-1.0
 21
-0.26794919
 31
0.0
  0
LINE
  5
204
  8
0
  6
BYBLOCK
 62
     0
 10
0.0
 20
0.0
 30
0.0
 11
-1.0
 21
0.0
 31
0.0
  0
ENDBLK
  5
206
  8
0
  0
BLOCK
  8
0
  2
*U4
 70
     1
 10
0.0
 20
0.0
 30
0.0
  3
*U4
  1

  0
TEXT
  5
12D075
  8
DIM
 10
3840.6616440113212
 20
-1042.742857142855
 30
0.0
 40
32.0
  1
m（シンドカット）
 50
90.0
 41
0.75
  0
ENDBLK
  5
12D077
  8
0
  0
BLOCK
  8
0
  2
*U5
 70
     1
 10
0.0
 20
0.0
 30
0.0
  3
*U5
  1

  0
TEXT
  5
12D0AB
  8
SLIM
 10
505.04761904610911
 20
-2187.2499999970728
 30
0.0
 40
26.0
  1
100
  0
ENDBLK
  5
12D0AD
  8
0
  0
BLOCK
  8
0
  2
*U6
 70
     1
 10
0.0
 20
0.0
 30
0.0
  3
*U6
  1

  0
TEXT
  5
12D0AF
  8
SLIM
 10
505.04761904610911
 20
-1942.749999997073
 30
0.0
 40
26.0
  1
100
  0
ENDBLK
  5
12D0B1
  8
0
  0
BLOCK
  8
0
  2
*U7
 70
     1
 10
0.0
 20
0.0
 30
0.0
  3
*U7
  1

  0
TEXT
  5
12D0B3
  8
SLIM
 10
145.04761904623109
 20
-2187.2499999970728
 30
0.0
 40
26.0
  1
100
  0
ENDBLK
  5
12D0B5
  8
0
  0
BLOCK
  8
0
  2
*U8
 70
     1
 10
0.0
 20
0.0
 30
0.0
  3
*U8
  1

  0
TEXT
  5
12D0B7
  8
SLIM
 10
154.9523809509931
 20
-1949.999999997073
 30
0.0
 40
26.0
  1
75
  0
ENDBLK
  5
12D0B9
  8
0
  0
BLOCK
  8
0
  2
*U9
 70
     1
 10
0.0
 20
0.0
 30
0.0
  3
*U9
  1

  0
TEXT
  5
12D0BB
  8
SLIM
 10
514.95238095087109
 20
-1715.999999997231
 30
0.0
 40
26.0
  1
75
  0
ENDBLK
  5
12D0BD
  8
0
  0
BLOCK
  8
0
  2
*U10
 70
     1
 10
0.0
 20
0.0
 30
0.0
  3
*U10
  1

  0
TEXT
  5
12D0BF
  8
SLIM
 10
514.95238095087109
 20
-1485.999999997231
 30
0.0
 40
26.0
  1
75
  0
ENDBLK
  5
12D0C1
  8
0
  0
BLOCK
  8
0
  2
*U11
 70
     1
 10
0.0
 20
0.0
 30
0.0
  3
*U11
  1

  0
TEXT
  5
12D0C3
  8
SLIM
 10
145.04761904623109
 20
-1723.249999997231
 30
0.0
 40
26.0
  1
100
  0
ENDBLK
  5
12D0C5
  8
0
  0
BLOCK
  8
0
  2
*U12
 70
     1
 10
0.0
 20
0.0
 30
0.0
  3
*U12
  1

  0
TEXT
  5
12D0C7
  8
SLIM
 10
154.9523809509931
 20
-1485.999999997231
 30
0.0
 40
26.0
  1
65
  0
ENDBLK
  5
12D0C9
  8
0
  0
BLOCK
  8
0
  2
*U13
 70
     1
 10
0.0
 20
0.0
 30
0.0
  3
*U13
  1

  0
TEXT
  5
12D0CB
  8
SLIM
 10
514.95238095087109
 20
-1251.99999999739
 30
0.0
 40
26.0
  1
75
  0
ENDBLK
  5
12D0CD
  8
0
  0
BLOCK
  8
0
  2
*U14
 70
     1
 10
0.0
 20
0.0
 30
0.0
  3
*U14
  1

  0
TEXT
  5
12D0CF
  8
SLIM
 10
514.95238095087109
 20
-1021.999999997389
 30
0.0
 40
26.0
  1
65
  0
ENDBLK
  5
12D0D1
  8
0
  0
BLOCK
  8
0
  2
*U15
 70
     1
 10
0.0
 20
0.0
 30
0.0
  3
*U15
  1

  0
TEXT
  5
12D0D3
  8
SLIM
 10
154.9523809509929
 20
-1251.99999999739
 30
0.0
 40
26.0
  1
65
  0
ENDBLK
  5
12D0D5
  8
0
  0
BLOCK
  8
0
  2
*U16
 70
     1
 10
0.0
 20
0.0
 30
0.0
  3
*U16
  1

  0
TEXT
  5
12D0D7
  8
SLIM
 10
154.9523809509929
 20
-1021.999999997389
 30
0.0
 40
26.0
  1
65
  0
ENDBLK
  5
12D0D9
  8
0
  0
BLOCK
  8
0
  2
*U17
 70
     1
 10
0.0
 20
0.0
 30
0.0
  3
*U17
  1

  0
TEXT
  5
12D0DB
  8
SLIM
 10
505.04761904610911
 20
-795.24999999754812
 30
0.0
 40
26.0
  1
100
  0
ENDBLK
  5
12D0DD
  8
0
  0
BLOCK
  8
0
  2
*U18
 70
     1
 10
0.0
 20
0.0
 30
0.0
  3
*U18
  1

  0
TEXT
  5
12D0DF
  8
SLIM
 10
514.95238095087109
 20
-557.999999997548
 30
0.0
 40
26.0
  1
50
  0
ENDBLK
  5
12D0E1
  8
0
  0
BLOCK
  8
0
  2
*U19
 70
     1
 10
0.0
 20
0.0
 30
0.0
  3
*U19
  1

  0
TEXT
  5
12D0E3
  8
SLIM
 10
154.95238095099299
 20
-787.99999999754812
 30
0.0
 40
26.0
  1
75
  0
ENDBLK
  5
12D0E5
  8
0
  0
BLOCK
  8
0
  2
*U20
 70
     1
 10
0.0
 20
0.0
 30
0.0
  3
*U20
  1

  0
TEXT
  5
12D0E7
  8
SLIM
 10
154.95238095099299
 20
-557.999999997548
 30
0.0
 40
26.0
  1
50
  0
ENDBLK
  5
12D0E9
  8
0
  0
BLOCK
  8
0
  2
*U21
 70
     1
 10
0.0
 20
0.0
 30
0.0
  3
*U21
  1

  0
TEXT
  5
12D0EB
  8
SLIM
 10
514.95238095087109
 20
-323.99999999770631
 30
0.0
 40
26.0
  1
65
  0
ENDBLK
  5
12D0ED
  8
0
  0
BLOCK
  8
0
  2
*U22
 70
     1
 10
0.0
 20
0.0
 30
0.0
  3
*U22
  1

  0
TEXT
  5
12D0EF
  8
SLIM
 10
514.95238095087109
 20
-93.99999999770624
 30
0.0
 40
26.0
  1
50
  0
ENDBLK
  5
12D0F1
  8
0
  0
BLOCK
  8
0
  2
*U23
 70
     1
 10
0.0
 20
0.0
 30
0.0
  3
*U23
  1

  0
TEXT
  5
12D0F3
  8
SLIM
 10
154.9523809509931
 20
-323.99999999770631
 30
0.0
 40
26.0
  1
50
  0
ENDBLK
  5
12D0F5
  8
0
  0
BLOCK
  8
0
  2
*U24
 70
     1
 10
0.0
 20
0.0
 30
0.0
  3
*U24
  1

  0
TEXT
  5
12D0F7
  8
SLIM
 10
154.9523809509931
 20
-93.99999999770624
 30
0.0
 40
26.0
  1
50
  0
ENDBLK
  5
12D0F9
  8
0
  0
BLOCK
  8
0
  2
*U25
 70
     1
 10
0.0
 20
0.0
 30
0.0
  3
*U25
  1

  0
TEXT
  5
12D0FB
  8
DIM
 10
2209.479620594459
 20
-3304.1428571428528
 30
0.0
 40
32.0
  1
A
 50
90.0
 41
0.75
  0
ENDBLK
  5
12D0FD
  8
0
  0
BLOCK
  8
0
  2
*U26
 70
     1
 10
0.0
 20
0.0
 30
0.0
  3
*U26
  1

  0
TEXT
  5
12D0FF
  8
DIM
 10
2207.8409284037348
 20
-3685.9999999999959
 30
0.0
 40
32.0
  1
B
 50
90.0
 41
0.75
  0
ENDBLK
  5
12D101
  8
0
  0
BLOCK
  8
0
  2
*U27
 70
     1
 10
0.0
 20
0.0
 30
0.0
  3
*U27
  1

  0
TEXT
  5
12D103
  8
DIM
 10
2061.428571428572
 20
-3158.208121984444
 30
0.0
 40
32.0
  1
C
 41
0.75
  0
ENDBLK
  5
12D105
  8
0
  0
ENDSEC
  0
SECTION
  2
ENTITIES
  0
LINE
  5
12515F
  8
OBJECT
 10
1825.0
 20
-3699.9999999999959
 30
0.0
 11
5575.0
 21
-3699.9999999999959
 31
0.0
  0
LINE
  5
125161
  8
SLIM
 10
2616.0
 20
-2757.50001604727
 30
0.0
 11
2616.0
 21
-3087.50001604727
 31
0.0
  0
LINE
  5
125162
  8
SLIM
 10
2740.0
 20
-2757.50001604727
 30
0.0
 11
2740.0
 21
-3087.50001604727
 31
0.0
  0
LINE
  5
125163
  8
SLIM
 10
2870.0
 20
-2817.50001604727
 30
0.0
 11
2870.0
 21
-3087.50001604727
 31
0.0
  0
LINE
  5
125164
  8
SLIM
 10
3000.0
 20
-2817.50001604727
 30
0.0
 11
3000.0
 21
-3087.50001604727
 31
0.0
  0
LINE
  5
125165
  8
SLIM
 10
3130.0
 20
-3087.50001604727
 30
0.0
 11
3130.0
 21
-2817.50001604727
 31
0.0
  0
LINE
  5
125166
  8
SLIM
 10
3260.0
 20
-3087.50001604727
 30
0.0
 11
3260.0
 21
-2757.50001604727
 31
0.0
  0
LINE
  5
125167
  8
SLIM
 10
3260.0
 20
-2757.50001604727
 30
0.0
 11
2616.0
 21
-2757.50001604727
 31
0.0
  0
LINE
  5
125168
  8
SLIM
 10
3260.0
 20
-2817.50001604727
 30
0.0
 11
2740.0
 21
-2817.50001604727
 31
0.0
  0
LINE
  5
125169
  8
SLIM
 10
3260.0
 20
-2877.50001604727
 30
0.0
 11
2616.0
 21
-2877.50001604727
 31
0.0
  0
LINE
  5
12516A
  8
SLIM
 10
3260.0
 20
-2947.50001604727
 30
0.0
 11
2616.0
 21
-2947.50001604727
 31
0.0
  0
LINE
  5
12516B
  8
SLIM
 10
3260.0
 20
-3017.50001604727
 30
0.0
 11
2616.0
 21
-3017.50001604727
 31
0.0
  0
LINE
  5
12516C
  8
SLIM
 10
3260.0
 20
-3087.50001604727
 30
0.0
 11
2616.0
 21
-3087.50001604727
 31
0.0
  0
LINE
  5
125181
  8
SLIM
 10
2740.0
 20
-2877.50001604727
 30
0.0
 11
2615.9999722746579
 21
-2757.5
 31
0.0
  0
LINE
  5
1251B6
  8
OBJECT
 10
5323.0
 20
-3515.9999999999968
 30
0.0
 11
5323.0
 21
-3494.9999999999968
 31
0.0
1001
ACDBBLOCKREPETAG
1070
     1
1071
       20
1005
1251B6
  0
LINE
  5
1251B7
  8
OBJECT
 10
5323.0
 20
-3494.9999999999968
 30
0.0
 11
5477.0
 21
-3494.9999999999968
 31
0.0
1001
ACDBBLOCKREPETAG
1070
     1
1071
       21
1005
1251B7
  0
LINE
  5
1251B8
  8
HIDDEN
 10
5343.0
 20
-3564.9999999999968
 30
0.0
 11
5457.0
 21
-3564.9999999999968
 31
0.0
1001
ACDBBLOCKREPETAG
1070
     1
1071
       22
1005
1251B8
  0
LINE
  5
1251B9
  8
OBJECT
 10
5477.0
 20
-3494.9999999999968
 30
0.0
 11
5477.0
 21
-3515.9999999999968
 31
0.0
1001
ACDBBLOCKREPETAG
1070
     1
1071
       23
1005
1251B9
  0
LINE
  5
1251BA
  8
OBJECT
 10
5477.0
 20
-3515.9999999999968
 30
0.0
 11
5323.0
 21
-3515.9999999999968
 31
0.0
1001
ACDBBLOCKREPETAG
1070
     1
1071
       24
1005
1251BA
  0
LINE
  5
1251BB
  8
CENTER
 10
5400.0
 20
-3479.9999999999968
 30
0.0
 11
5400.0
 21
-3714.9999999999968
 31
0.0
1001
ACDBBLOCKREPETAG
1070
     1
1071
       25
1005
1251BB
  0
LINE
  5
1251BC
  8
OBJECT
 10
5325.0
 20
-3578.9999999999968
 30
0.0
 11
5325.0
 21
-3702.9999999999968
 31
0.0
1001
ACDBBLOCKREPETAG
1070
     1
1071
       26
1005
1251BC
  0
LINE
  5
1251BD
  8
OBJECT
 10
5328.0
 20
-3515.9999999999968
 30
0.0
 11
5328.0
 21
-3578.9999999999968
 31
0.0
1001
ACDBBLOCKREPETAG
1070
     1
1071
       27
1005
1251BD
  0
LINE
  5
1251BE
  8
OBJECT
 10
5472.0
 20
-3578.9999999999968
 30
0.0
 11
5472.0
 21
-3515.9999999999968
 31
0.0
1001
ACDBBLOCKREPETAG
1070
     1
1071
       28
1005
1251BE
  0
LINE
  5
1251BF
  8
OBJECT
 10
5475.0
 20
-3578.9999999999968
 30
0.0
 11
5456.7802782663139
 21
-3578.9999999999968
 31
0.0
1001
ACDBBLOCKREPETAG
1070
     1
1071
       30
1005
1251BF
  0
LINE
  5
1251C0
  8
OBJECT
 10
5475.0
 20
-3578.9999999999968
 30
0.0
 11
5475.0
 21
-3702.9999999999968
 31
0.0
1001
ACDBBLOCKREPETAG
1070
     1
1071
       34
1005
1251C0
  0
POINT
  5
1251C1
  8
DOTS
 10
5400.0
 20
-3699.9999999999968
 30
0.0
1001
ACDBBLOCKREPETAG
1070
     1
1071
      187
1005
1251C1
  0
LINE
  5
1251C2
  8
CENTER
 10
5310.0
 20
-3627.9999999999968
 30
0.0
 11
5490.0
 21
-3627.9999999999968
 31
0.0
1001
ACDBBLOCKREPETAG
1070
     1
1071
       23
1005
1251C2
  0
CIRCLE
  5
1251C3
  8
OBJECT
 10
5400.0
 20
-3627.9999999999968
 30
0.0
 40
53.5
1001
ACDBBLOCKREPETAG
1070
     1
1071
       24
1005
1251C3
  0
CIRCLE
  5
1251C4
  8
OBJECT
 10
5400.0
 20
-3627.9999999999968
 30
0.0
 40
67.0
1001
ACDBBLOCKREPETAG
1070
     1
1071
       25
1005
1251C4
  0
ARC
  5
1251C5
  8
OBJECT
 10
5400.0
 20
-3627.9999999999968
 30
0.0
 40
75.0
 50
286.26020470824369
 51
253.73979529175631
1001
ACDBBLOCKREPETAG
1070
     1
1071
       27
1005
1251C5
  0
LINE
  5
1251C6
  8
OBJECT
 10
5379.0
 20
-3699.9999999999968
 30
0.0
 11
5421.0
 21
-3699.9999999999968
 31
0.0
1001
ACDBBLOCKREPETAG
1070
     1
1071
       28
1005
1251C6
  0
LINE
  5
1251C7
  8
OBJECT
 10
5343.2197217336861
 20
-3578.9999999999968
 30
0.0
 11
5325.0
 21
-3578.9999999999968
 31
0.0
1001
ACDBBLOCKREPETAG
1070
     1
1071
       30
1005
1251BF
  0
TEXT
  5
12AED7
  8
SLIM
 10
-0.0000000000000011
 20
282.5
 30
0.0
 40
35.0
  1
※ 100枝（4）がある場合、品名の最後に【管底】が付きます。
 41
0.9
 11
0.0
 21
300.0
 31
0.0
 73
     2
  0
LINE
  5
12C6F3
  8
SLIM
 10
4350.0
 20
-479.99999999999471
 30
0.0
 11
4350.0
 21
-1199.999999999995
 31
0.0
  0
LINE
  5
12C6F4
  8
SLIM
 10
4454.0
 20
-1199.999999999995
 30
0.0
 11
4454.0
 21
-479.99999999999471
 31
0.0
  0
LINE
  5
12C6F5
  8
SLIM
 10
4602.0
 20
-479.99999999999471
 30
0.0
 11
4350.0
 21
-479.99999999999471
 31
0.0
  0
LINE
  5
12C6F6
  8
SLIM
 10
4602.0
 20
-527.99999999999466
 30
0.0
 11
4350.0
 21
-527.99999999999466
 31
0.0
  0
LINE
  5
12C6F8
  8
SLIM
 10
4602.0
 20
-575.99999999999466
 30
0.0
 11
4350.0
 21
-575.99999999999466
 31
0.0
  0
LINE
  5
12C6F9
  8
SLIM
 10
4602.0
 20
-623.99999999999466
 30
0.0
 11
4350.0
 21
-623.99999999999466
 31
0.0
  0
LINE
  5
12C6FA
  8
SLIM
 10
4602.0
 20
-671.99999999999477
 30
0.0
 11
4350.0
 21
-671.99999999999477
 31
0.0
  0
LINE
  5
12C6FE
  8
SLIM
 10
4602.0
 20
-719.99999999999466
 30
0.0
 11
4350.0
 21
-719.99999999999466
 31
0.0
  0
LINE
  5
12C700
  8
SLIM
 10
4602.0
 20
-767.99999999999477
 30
0.0
 11
4350.0
 21
-767.99999999999477
 31
0.0
  0
LINE
  5
12C702
  8
SLIM
 10
4602.0
 20
-815.99999999999477
 30
0.0
 11
4350.0
 21
-815.99999999999477
 31
0.0
  0
LINE
  5
12C704
  8
SLIM
 10
4602.0
 20
-863.99999999999454
 30
0.0
 11
4350.0
 21
-863.99999999999454
 31
0.0
  0
LINE
  5
12C706
  8
SLIM
 10
4602.0
 20
-911.99999999999454
 30
0.0
 11
4350.0
 21
-911.99999999999454
 31
0.0
  0
LINE
  5
12C708
  8
SLIM
 10
4602.0
 20
-959.99999999999477
 30
0.0
 11
4350.0
 21
-959.99999999999477
 31
0.0
  0
LINE
  5
12C70A
  8
SLIM
 10
4602.0
 20
-1007.999999999995
 30
0.0
 11
4350.0
 21
-1007.999999999995
 31
0.0
  0
LINE
  5
12C70C
  8
SLIM
 10
4602.0
 20
-1055.9999999999941
 30
0.0
 11
4350.0
 21
-1055.9999999999941
 31
0.0
  0
LINE
  5
12C70E
  8
SLIM
 10
4602.0
 20
-1103.9999999999941
 30
0.0
 11
4350.0
 21
-1103.9999999999941
 31
0.0
  0
LINE
  5
12C710
  8
SLIM
 10
4602.0
 20
-1151.999999999995
 30
0.0
 11
4350.0
 21
-1151.999999999995
 31
0.0
  0
LINE
  5
12C712
  8
SLIM
 10
4602.0
 20
-1199.999999999995
 30
0.0
 11
4350.0
 21
-1199.999999999995
 31
0.0
  0
LINE
  5
12C715
  8
SLIM
 10
4602.0
 20
-479.99999999999471
 30
0.0
 11
4602.0
 21
-1199.999999999995
 31
0.0
  0
TEXT
  5
12CB0D
  8
SLIM
 10
3554.6000000000008
 20
-1535.6666666666631
 30
0.0
 40
28.0
  1
※ 対応スラブ厚　180～（m-10）
 41
0.75
  0
TEXT
  5
12CB0E
  8
SLIM
 10
3554.6000000000008
 20
-1582.3333333333301
 30
0.0
 40
28.0
  1
※ 足切り可能寸法（最大）　330-m（コンパクトＬベンド使用なら+20）
 41
0.75
  0
TEXT
  5
12CB0F
  8
SLIM
 10
3598.9000000000001
 20
-1675.6666666666631
 30
0.0
 40
28.0
  1
国土交通大臣認定・（一財）日本消防設備安全センター性能評定取得品
 41
0.75
  0
TEXT
  5
12CB10
  8
SLIM
 10
3631.1000000000022
 20
-1722.3333333333289
 30
0.0
 40
28.0
  1
注）ご採用にあたり、認定書及び評定書の内容をご確認ください。
 41
0.75
  0
TEXT
  5
12CB11
  8
SLIM
 10
4470.057142857142
 20
-1187.999999999995
 30
0.0
 40
24.0
  1
180～320
 41
0.75
  0
TEXT
  5
12CB12
  8
SLIM
 10
4471.7714285714283
 20
-1139.999999999995
 30
0.0
 40
24.0
  1
180～310
 41
0.75
  0
TEXT
  5
12CB13
  8
SLIM
 10
4470.057142857142
 20
-1091.999999999995
 30
0.0
 40
24.0
  1
180～300
 41
0.75
  0
TEXT
  5
12CB14
  8
SLIM
 10
4470.057142857142
 20
-1043.999999999995
 30
0.0
 40
24.0
  1
180～290
 41
0.75
  0
TEXT
  5
12CB15
  8
SLIM
 10
4470.057142857142
 20
-995.99999999999454
 30
0.0
 40
24.0
  1
180～280
 41
0.75
  0
TEXT
  5
12CB16
  8
SLIM
 10
4470.057142857142
 20
-947.99999999999454
 30
0.0
 40
24.0
  1
180～270
 41
0.75
  0
TEXT
  5
12CB17
  8
SLIM
 10
4470.057142857142
 20
-899.99999999999477
 30
0.0
 40
24.0
  1
180～260
 41
0.75
  0
TEXT
  5
12CB18
  8
SLIM
 10
4470.057142857142
 20
-851.99999999999477
 30
0.0
 40
24.0
  1
180～250
 41
0.75
  0
TEXT
  5
12CB19
  8
SLIM
 10
4470.057142857142
 20
-803.99999999999454
 30
0.0
 40
24.0
  1
180～240
 41
0.75
  0
TEXT
  5
12CB1A
  8
SLIM
 10
4470.057142857142
 20
-755.99999999999477
 30
0.0
 40
24.0
  1
180～230
 41
0.75
  0
TEXT
  5
12CB1B
  8
SLIM
 10
4470.057142857142
 20
-707.99999999999466
 30
0.0
 40
24.0
  1
180～220
 41
0.75
  0
TEXT
  5
12CB1C
  8
SLIM
 10
4471.7714285714283
 20
-659.99999999999477
 30
0.0
 40
24.0
  1
180～210
 41
0.75
  0
TEXT
  5
12CB1D
  8
SLIM
 10
4470.057142857142
 20
-611.99999999999466
 30
0.0
 40
24.0
  1
180～200
 41
0.75
  0
TEXT
  5
12CB1E
  8
SLIM
 10
4471.7714285714283
 20
-563.99999999999477
 30
0.0
 40
24.0
  1
180～190
 41
0.75
  0
TEXT
  5
12CB1F
  8
SLIM
 10
4465.6000000000013
 20
-515.99999999999466
 30
0.0
 40
24.0
  1
対応スラブ厚
 41
0.75
  0
TEXT
  5
12CB20
  8
SLIM
 10
4396.4571428571408
 20
-1245.999999999995
 30
0.0
 40
24.0
  1
標準：m=330
 41
0.75
  0
TEXT
  5
12CB21
  8
SLIM
 10
4378.8571428571431
 20
-1187.999999999995
 30
0.0
 40
24.0
  1
330
 41
0.75
  0
TEXT
  5
12CB22
  8
SLIM
 10
4378.8571428571431
 20
-1139.999999999995
 30
0.0
 40
24.0
  1
320
 41
0.75
  0
TEXT
  5
12CB23
  8
SLIM
 10
4380.5714285714284
 20
-1091.999999999995
 30
0.0
 40
24.0
  1
310
 41
0.75
  0
TEXT
  5
12CB24
  8
SLIM
 10
4378.8571428571431
 20
-1043.999999999995
 30
0.0
 40
24.0
  1
300
 41
0.75
  0
TEXT
  5
12CB25
  8
SLIM
 10
4378.8571428571431
 20
-995.99999999999454
 30
0.0
 40
24.0
  1
290
 41
0.75
  0
TEXT
  5
12CB26
  8
SLIM
 10
4378.8571428571431
 20
-947.99999999999454
 30
0.0
 40
24.0
  1
280
 41
0.75
  0
TEXT
  5
12CB27
  8
SLIM
 10
4378.8571428571431
 20
-899.99999999999477
 30
0.0
 40
24.0
  1
270
 41
0.75
  0
TEXT
  5
12CB28
  8
SLIM
 10
4378.8571428571431
 20
-851.99999999999477
 30
0.0
 40
24.0
  1
260
 41
0.75
  0
TEXT
  5
12CB29
  8
SLIM
 10
4378.8571428571431
 20
-803.99999999999454
 30
0.0
 40
24.0
  1
250
 41
0.75
  0
TEXT
  5
12CB2A
  8
SLIM
 10
4378.8571428571431
 20
-755.99999999999477
 30
0.0
 40
24.0
  1
240
 41
0.75
  0
TEXT
  5
12CB2B
  8
SLIM
 10
4378.8571428571431
 20
-707.99999999999466
 30
0.0
 40
24.0
  1
230
 41
0.75
  0
TEXT
  5
12CB2C
  8
SLIM
 10
4378.8571428571431
 20
-659.99999999999477
 30
0.0
 40
24.0
  1
220
 41
0.75
  0
TEXT
  5
12CB2D
  8
SLIM
 10
4380.5714285714284
 20
-611.99999999999466
 30
0.0
 40
24.0
  1
210
 41
0.75
  0
TEXT
  5
12CB2E
  8
SLIM
 10
4369.9428571428571
 20
-515.99999999999466
 30
0.0
 40
24.0
  1
m寸法
 41
0.75
  0
TEXT
  5
12CB2F
  8
SLIM
 10
4378.8571428571431
 20
-563.99999999999477
 30
0.0
 40
24.0
  1
200
 41
0.75
  0
LINE
  5
12CB30
  8
DIM
 10
3904.9999999999941
 20
-754.99999999999875
 30
0.0
 11
3839.6616440113221
 21
-754.99999999999875
 31
0.0
  0
LINE
  5
12CB31
  8
DIM
 10
3910.0
 20
-1084.999999999998
 30
0.0
 11
3839.6616440113221
 21
-1084.999999999998
 31
0.0
  0
LINE
  5
12CB32
  8
DIM
 10
3849.6616440113221
 20
-774.99999999999875
 30
0.0
 11
3849.6616440113221
 21
-1064.999999999998
 31
0.0
  0
INSERT
  5
12CB33
  8
DIM
  2
_OPEN30
 10
3849.6616440113221
 20
-754.99999999999875
 30
0.0
 41
20.0
 42
20.0
 43
20.0
 50
90.0
  0
INSERT
  5
12CB34
  8
DIM
  2
_OPEN30
 10
3849.6616440113221
 20
-1084.999999999998
 30
0.0
 41
20.0
 42
20.0
 43
20.0
 50
270.0
  0
INSERT
  5
12CB35
  8
OBJECT
  2
*U4
 10
0.0
 20
0.0
 30
0.0
  0
CIRCLE
  5
12CB36
  8
OBJECT
 10
5000.0
 20
-3294.9999999999959
 30
0.0
 40
53.5
1001
ACDBBLOCKREPETAG
1070
     1
1071
      344
1005
12CB36
  0
LINE
  5
12CB37
  8
CENTER
 10
5080.0
 20
-3294.9999999999959
 30
0.0
 11
4905.0
 21
-3294.9999999999959
 31
0.0
1001
ACDBBLOCKREPETAG
1070
     1
1071
       14
1005
12CB37
  0
LINE
  5
12CB38
  8
CENTER
 10
5000.0
 20
-3389.9999999999968
 30
0.0
 11
5000.0
 21
-3199.9999999999959
 31
0.0
1001
ACDBBLOCKREPETAG
1070
     1
1071
       15
1005
12CB38
  0
CIRCLE
  5
12CB39
  8
OBJECT
 10
5000.0
 20
-3294.9999999999959
 30
0.0
 40
70.0
1001
ACDBBLOCKREPETAG
1070
     1
1071
       16
1005
12CB39
  0
CIRCLE
  5
12CB3A
  8
OBJECT
 10
5000.0
 20
-3294.9999999999959
 30
0.0
 40
77.0
1001
ACDBBLOCKREPETAG
1070
     1
1071
       17
1005
12CB3A
  0
ARC
  5
12CB3B
  8
OBJECT
 10
5000.0
 20
-3294.9999999999959
 30
0.0
 40
80.0
 50
50.805032573882329
 51
309.19496742611773
1001
ACDBBLOCKREPETAG
1070
     1
1071
       18
1005
12CB3B
  0
LINE
  5
12CB3C
  8
OBJECT
 10
5045.6618002273253
 20
-3232.9999999999959
 30
0.0
 11
5080.0
 21
-3232.9999999999959
 31
0.0
1001
ACDBBLOCKREPETAG
1070
     1
1071
       19
1005
12CB3C
  0
LINE
  5
12CB3D
  8
OBJECT
 10
5045.6618002273253
 20
-3356.9999999999959
 30
0.0
 11
5080.0
 21
-3356.9999999999959
 31
0.0
1001
ACDBBLOCKREPETAG
1070
     1
1071
       20
1005
12CB3D
  0
POINT
  5
12CB3E
  8
DOTS
 10
5000.0
 20
-3294.9999999999959
 30
0.0
1001
ACDBBLOCKREPETAG
1070
     1
1071
       21
1005
12CB3E
  0
CIRCLE
  5
12CB3F
  8
OBJECT
 10
4000.0
 20
-3294.9999999999959
 30
0.0
 40
53.5
1001
ACDBBLOCKREPETAG
1070
     1
1071
      344
1005
12CB3F
  0
LINE
  5
12CB40
  8
CENTER
 10
4080.0
 20
-3294.9999999999959
 30
0.0
 11
3905.0
 21
-3294.9999999999959
 31
0.0
1001
ACDBBLOCKREPETAG
1070
     1
1071
       14
1005
12CB40
  0
LINE
  5
12CB41
  8
CENTER
 10
4000.0
 20
-3389.9999999999968
 30
0.0
 11
4000.0
 21
-3199.9999999999959
 31
0.0
1001
ACDBBLOCKREPETAG
1070
     1
1071
       15
1005
12CB41
  0
CIRCLE
  5
12CB42
  8
OBJECT
 10
4000.0
 20
-3294.9999999999959
 30
0.0
 40
70.0
1001
ACDBBLOCKREPETAG
1070
     1
1071
       16
1005
12CB42
  0
CIRCLE
  5
12CB43
  8
OBJECT
 10
4000.0
 20
-3294.9999999999959
 30
0.0
 40
77.0
1001
ACDBBLOCKREPETAG
1070
     1
1071
       17
1005
12CB43
  0
ARC
  5
12CB44
  8
OBJECT
 10
4000.0
 20
-3294.9999999999959
 30
0.0
 40
80.0
 50
50.805032573862128
 51
309.19496742613791
1001
ACDBBLOCKREPETAG
1070
     1
1071
       18
1005
12CB44
  0
LINE
  5
12CB45
  8
OBJECT
 10
4045.661800227324
 20
-3232.9999999999959
 30
0.0
 11
4080.0
 21
-3232.9999999999959
 31
0.0
1001
ACDBBLOCKREPETAG
1070
     1
1071
       19
1005
12CB45
  0
LINE
  5
12CB46
  8
OBJECT
 10
4045.661800227324
 20
-3356.9999999999959
 30
0.0
 11
4080.0
 21
-3356.9999999999959
 31
0.0
1001
ACDBBLOCKREPETAG
1070
     1
1071
       20
1005
12CB46
  0
POINT
  5
12CB47
  8
DOTS
 10
4000.0
 20
-3294.9999999999959
 30
0.0
1001
ACDBBLOCKREPETAG
1070
     1
1071
       21
1005
12CB47
  0
CIRCLE
  5
12CB48
  8
OBJECT
 10
3000.0
 20
-3294.9999999999959
 30
0.0
 40
53.5
1001
ACDBBLOCKREPETAG
1070
     1
1071
      344
1005
12CB48
  0
LINE
  5
12CB49
  8
CENTER
 10
3080.0
 20
-3294.9999999999959
 30
0.0
 11
2905.0
 21
-3294.9999999999959
 31
0.0
1001
ACDBBLOCKREPETAG
1070
     1
1071
       14
1005
12CB49
  0
LINE
  5
12CB4A
  8
CENTER
 10
3000.0
 20
-3389.9999999999968
 30
0.0
 11
3000.0
 21
-3199.9999999999959
 31
0.0
1001
ACDBBLOCKREPETAG
1070
     1
1071
       15
1005
12CB4A
  0
CIRCLE
  5
12CB4B
  8
OBJECT
 10
3000.0
 20
-3294.9999999999959
 30
0.0
 40
70.0
1001
ACDBBLOCKREPETAG
1070
     1
1071
       16
1005
12CB4B
  0
CIRCLE
  5
12CB4C
  8
OBJECT
 10
3000.0
 20
-3294.9999999999959
 30
0.0
 40
77.0
1001
ACDBBLOCKREPETAG
1070
     1
1071
       17
1005
12CB4C
  0
ARC
  5
12CB4D
  8
OBJECT
 10
3000.0
 20
-3294.9999999999959
 30
0.0
 40
80.0
 50
50.805032573862128
 51
309.19496742613791
1001
ACDBBLOCKREPETAG
1070
     1
1071
       18
1005
12CB4D
  0
LINE
  5
12CB4E
  8
OBJECT
 10
3045.6618002273249
 20
-3232.9999999999959
 30
0.0
 11
3080.0
 21
-3232.9999999999959
 31
0.0
1001
ACDBBLOCKREPETAG
1070
     1
1071
       19
1005
12CB4E
  0
LINE
  5
12CB4F
  8
OBJECT
 10
3045.6618002273249
 20
-3356.9999999999959
 30
0.0
 11
3080.0
 21
-3356.9999999999959
 31
0.0
1001
ACDBBLOCKREPETAG
1070
     1
1071
       20
1005
12CB4F
  0
POINT
  5
12CB50
  8
DOTS
 10
3000.0
 20
-3294.9999999999959
 30
0.0
1001
ACDBBLOCKREPETAG
1070
     1
1071
       21
1005
12CB50
  0
CIRCLE
  5
12CB51
  8
OBJECT
 10
2000.0
 20
-3294.9999999999959
 30
0.0
 40
53.5
1001
ACDBBLOCKREPETAG
1070
     1
1071
      344
1005
12CB51
  0
LINE
  5
12CB52
  8
CENTER
 10
2080.0
 20
-3294.9999999999959
 30
0.0
 11
1905.0
 21
-3294.9999999999959
 31
0.0
1001
ACDBBLOCKREPETAG
1070
     1
1071
       14
1005
12CB52
  0
LINE
  5
12CB53
  8
CENTER
 10
2000.0
 20
-3389.9999999999968
 30
0.0
 11
2000.0
 21
-3199.9999999999959
 31
0.0
1001
ACDBBLOCKREPETAG
1070
     1
1071
       15
1005
12CB53
  0
CIRCLE
  5
12CB54
  8
OBJECT
 10
2000.0
 20
-3294.9999999999959
 30
0.0
 40
70.0
1001
ACDBBLOCKREPETAG
1070
     1
1071
       16
1005
12CB54
  0
CIRCLE
  5
12CB55
  8
OBJECT
 10
2000.0
 20
-3294.9999999999959
 30
0.0
 40
77.0
1001
ACDBBLOCKREPETAG
1070
     1
1071
       17
1005
12CB55
  0
ARC
  5
12CB56
  8
OBJECT
 10
2000.0
 20
-3294.9999999999959
 30
0.0
 40
80.0
 50
50.805032573862128
 51
309.19496742613791
1001
ACDBBLOCKREPETAG
1070
     1
1071
       18
1005
12CB56
  0
LINE
  5
12CB57
  8
OBJECT
 10
2045.6618002273251
 20
-3232.9999999999959
 30
0.0
 11
2080.0
 21
-3232.9999999999959
 31
0.0
1001
ACDBBLOCKREPETAG
1070
     1
1071
       19
1005
12CB57
  0
LINE
  5
12CB58
  8
OBJECT
 10
2045.6618002273251
 20
-3356.9999999999959
 30
0.0
 11
2080.0
 21
-3356.9999999999959
 31
0.0
1001
ACDBBLOCKREPETAG
1070
     1
1071
       20
1005
12CB58
  0
POINT
  5
12CB59
  8
DOTS
 10
2000.0
 20
-3294.9999999999959
 30
0.0
1001
ACDBBLOCKREPETAG
1070
     1
1071
       21
1005
12CB59
  0
LINE
  5
12CB5A
  8
SLIM
 10
3945.2566704261012
 20
-137.99999999999909
 30
0.0
 11
3955.9548403695781
 21
-127.30183005652231
 31
0.0
1001
GRADIENTCOLOR1ACI
1070
     5
1001
GRADIENTCOLOR2ACI
1070
     2
1001
ACAD
1010
0.0
1020
0.0
1030
0.0
1001
ACDBBLOCKREPETAG
1070
     1
1071
      422
1005
12CB5A
  0
LINE
  5
12CB5B
  8
SLIM
 10
3954.2369265471712
 20
-137.99999999999909
 30
0.0
 11
3972.7507744763329
 21
-119.4861520708364
 31
0.0
1001
GRADIENTCOLOR1ACI
1070
     5
1001
GRADIENTCOLOR2ACI
1070
     2
1001
ACAD
1010
0.0
1020
0.0
1030
0.0
1001
ACDBBLOCKREPETAG
1070
     1
1071
      423
1005
12CB5B
  0
LINE
  5
12CB5C
  8
SLIM
 10
3973.521224312457
 20
-127.6959583557812
 30
0.0
 11
3984.8575146748631
 21
-116.359667993377
 31
0.0
1001
GRADIENTCOLOR1ACI
1070
     5
1001
GRADIENTCOLOR2ACI
1070
     2
1001
ACAD
1010
0.0
1020
0.0
1030
0.0
1001
ACDBBLOCKREPETAG
1070
     1
1071
      424
1005
12CB5C
  0
LINE
  5
12CB5D
  8
SLIM
 10
3985.8944171461271
 20
-124.30302164318159
 30
0.0
 11
3995.0533812002559
 21
-115.1440575890517
 31
0.0
1001
GRADIENTCOLOR1ACI
1070
     5
1001
GRADIENTCOLOR2ACI
1070
     2
1001
ACAD
1010
0.0
1020
0.0
1030
0.0
1001
ACDBBLOCKREPETAG
1070
     1
1071
      425
1005
12CB5D
  0
LINE
  5
12CB5E
  8
SLIM
 10
3996.0777327492078
 20
-123.0999621611699
 30
0.0
 11
4000.0
 21
-119.1776949103767
 31
0.0
1001
GRADIENTCOLOR1ACI
1070
     5
1001
GRADIENTCOLOR2ACI
1070
     2
1001
ACAD
1010
0.0
1020
0.0
1030
0.0
1001
ACDBBLOCKREPETAG
1070
     1
1071
      426
1005
12CB5E
  0
LINE
  5
12CB5F
  8
SLIM
 10
4000.0
 20
-119.1776949103767
 30
0.0
 11
4004.0797313529042
 21
-115.0979635574724
 31
0.0
1001
GRADIENTCOLOR1ACI
1070
     5
1001
GRADIENTCOLOR2ACI
1070
     2
1001
ACAD
1010
0.0
1020
0.0
1030
0.0
1001
ACDBBLOCKREPETAG
1070
     1
1071
      427
1005
12CB5F
  0
LINE
  5
12CB60
  8
SLIM
 10
4004.9957202542769
 20
-123.1622307771683
 30
0.0
 11
4012.2679784105749
 21
-115.88997262087101
 31
0.0
1001
GRADIENTCOLOR1ACI
1070
     5
1001
GRADIENTCOLOR2ACI
1070
     2
1001
ACAD
1010
0.0
1020
0.0
1030
0.0
1001
ACDBBLOCKREPETAG
1070
     1
1071
      428
1005
12CB60
  0
LINE
  5
12CB61
  8
SLIM
 10
4013.028059366964
 20
-124.1101477855505
 30
0.0
 11
4019.799941457361
 21
-117.3382656951526
 31
0.0
1001
GRADIENTCOLOR1ACI
1070
     5
1001
GRADIENTCOLOR2ACI
1070
     2
1001
ACAD
1010
0.0
1020
0.0
1030
0.0
1001
ACDBBLOCKREPETAG
1070
     1
1071
      429
1005
12CB61
  0
LINE
  5
12CB62
  8
SLIM
 10
4020.3740813142458
 20
-125.7443819593383
 30
0.0
 11
4026.7872038672799
 21
-119.3312594063044
 31
0.0
1001
GRADIENTCOLOR1ACI
1070
     5
1001
GRADIENTCOLOR2ACI
1070
     2
1001
ACAD
1010
0.0
1020
0.0
1030
0.0
1001
ACDBBLOCKREPETAG
1070
     1
1071
      430
1005
12CB62
  0
LINE
  5
12CB63
  8
SLIM
 10
4027.1524719988752
 20
-127.946247395778
 30
0.0
 11
4033.3030030760328
 21
-121.7957163186195
 31
0.0
1001
GRADIENTCOLOR1ACI
1070
     5
1001
GRADIENTCOLOR2ACI
1070
     2
1001
ACAD
1010
0.0
1020
0.0
1030
0.0
1001
ACDBBLOCKREPETAG
1070
     1
1071
      431
1005
12CB63
  0
LINE
  5
12CB64
  8
SLIM
 10
4033.4390986513308
 20
-130.63987686439191
 30
0.0
 11
4039.3973119843781
 21
-124.6816635313439
 31
0.0
1001
GRADIENTCOLOR1ACI
1070
     5
1001
GRADIENTCOLOR2ACI
1070
     2
1001
ACAD
1010
0.0
1020
0.0
1030
0.0
1001
ACDBBLOCKREPETAG
1070
     1
1071
      432
1005
12CB64
  0
LINE
  5
12CB65
  8
SLIM
 10
4039.284224621797
 20
-133.77500701499321
 30
0.0
 11
4045.1047705343681
 21
-127.95446110242381
 31
0.0
1001
GRADIENTCOLOR1ACI
1070
     5
1001
GRADIENTCOLOR2ACI
1070
     2
1001
ACAD
1010
0.0
1020
0.0
1030
0.0
1001
ACDBBLOCKREPETAG
1070
     1
1071
      433
1005
12CB65
  0
LINE
  5
12CB66
  8
SLIM
 10
4044.7212801698038
 20
-137.31820758805651
 30
0.0
 11
4050.4491557891961
 21
-131.59033196866449
 31
0.0
1001
GRADIENTCOLOR1ACI
1070
     5
1001
GRADIENTCOLOR2ACI
1070
     2
1001
ACAD
1010
0.0
1020
0.0
1030
0.0
1001
ACDBBLOCKREPETAG
1070
     1
1071
      434
1005
12CB66
  0
LINE
  5
12CB67
  8
SLIM
 10
4053.0197438789291
 20
-137.99999999999909
 30
0.0
 11
4055.4459941864038
 21
-135.57374969252561
 31
0.0
1001
GRADIENTCOLOR1ACI
1070
     5
1001
GRADIENTCOLOR2ACI
1070
     2
1001
ACAD
1010
0.0
1020
0.0
1030
0.0
1001
ACDBBLOCKREPETAG
1070
     1
1071
      435
1005
12CB67
  0
LINE
  5
12CB68
  8
CENTER
 10
4000.0
 20
-279.99999999999909
 30
0.0
 11
4000.0
 21
-99.999999999999091
 31
0.0
1001
ACDBBLOCKREPETAG
1070
     1
1071
      160
1005
12CB68
  0
CIRCLE
  5
12CB69
  8
OBJECT
 10
4000.0
 20
-199.99999999999909
 30
0.0
 40
70.0
1001
ACDBBLOCKREPETAG
1070
     1
1071
      161
1005
12CB69
  0
CIRCLE
  5
12CB6A
  8
OBJECT
 10
4000.0
 20
-199.99999999999909
 30
0.0
 40
77.0
1001
ACDBBLOCKREPETAG
1070
     1
1071
      162
1005
12CB6A
  0
LINE
  5
12CB6B
  8
OBJECT
 10
4045.661800227324
 20
-137.99999999999909
 30
0.0
 11
4080.0
 21
-137.99999999999909
 31
0.0
1001
ACDBBLOCKREPETAG
1070
     1
1071
      164
1005
12CB6B
  0
LINE
  5
12CB6C
  8
OBJECT
 10
4062.0
 20
-261.99999999999909
 30
0.0
 11
4080.0
 21
-261.99999999999909
 31
0.0
1001
ACDBBLOCKREPETAG
1070
     1
1071
      165
1005
12CB6C
  0
LINE
  5
12CB6D
  8
OBJECT
 10
4062.0
 20
-261.99999999999909
 30
0.0
 11
4062.0
 21
-279.99999999999909
 31
0.0
1001
ACDBBLOCKREPETAG
1070
     1
1071
      167
1005
12CB6D
  0
LINE
  5
12CB6E
  8
OBJECT
 10
3938.0
 20
-261.99999999999909
 30
0.0
 11
3938.0
 21
-279.99999999999909
 31
0.0
1001
ACDBBLOCKREPETAG
1070
     1
1071
      168
1005
12CB6E
  0
LINE
  5
12CB6F
  8
OBJECT
 10
3938.0
 20
-261.99999999999909
 30
0.0
 11
3920.0
 21
-261.99999999999909
 31
0.0
1001
ACDBBLOCKREPETAG
1070
     1
1071
      170
1005
12CB6F
  0
LINE
  5
12CB70
  8
OBJECT
 10
3954.338199772676
 20
-137.99999999999909
 30
0.0
 11
3920.0
 21
-137.99999999999909
 31
0.0
1001
ACDBBLOCKREPETAG
1070
     1
1071
      171
1005
12CB70
  0
LINE
  5
12CB71
  8
OBJECT
 10
3945.5527778486362
 20
-254.44722215136329
 30
0.0
 11
3938.0
 21
-261.99999999999909
 31
0.0
1001
ACDBBLOCKREPETAG
1070
     1
1071
      180
1005
12CB71
  0
LINE
  5
12CB72
  8
OBJECT
 10
4054.4472221513638
 20
-254.44722215136329
 30
0.0
 11
4062.0
 21
-261.99999999999909
 31
0.0
1001
ACDBBLOCKREPETAG
1070
     1
1071
      181
1005
12CB72
  0
POINT
  5
12CB73
  8
DOTS
 10
4000.0
 20
-199.99999999999909
 30
0.0
 50
270.0
1001
ACDBBLOCKREPETAG
1070
     1
1071
      182
1005
12CB73
  0
ARC
  5
12CB74
  8
OBJECT
 10
4000.0
 20
-199.99999999999909
 30
0.0
 40
85.0
 50
46.837102859806208
 51
133.16289714019371
1001
ACDBBLOCKREPETAG
1070
     1
1071
      183
1005
12CB74
  0
CIRCLE
  5
12CB75
  8
OBJECT
 10
4000.0
 20
-199.99999999999909
 30
0.0
 40
53.5
1001
ACDBBLOCKREPETAG
1070
     1
1071
      352
1005
12CB75
  0
LINE
  5
12CB76
  8
CENTER
 10
4080.0
 20
-199.99999999999909
 30
0.0
 11
3920.0
 21
-199.99999999999909
 31
0.0
1001
ACDBBLOCKREPETAG
1070
     1
1071
      158
1005
12CB76
  0
CIRCLE
  5
12CB77
  8
OBJECT
 10
2000.0
 20
-199.99999999999909
 30
0.0
 40
53.5
1001
ACDBBLOCKREPETAG
1070
     1
1071
      340
1005
12CB77
  0
LINE
  5
12CB78
  8
CENTER
 10
2080.0
 20
-199.99999999999909
 30
0.0
 11
1920.0
 21
-199.99999999999909
 31
0.0
1001
ACDBBLOCKREPETAG
1070
     1
1071
       49
1005
12CB78
  0
LINE
  5
12CB79
  8
CENTER
 10
2000.0
 20
-279.99999999999909
 30
0.0
 11
2000.0
 21
-104.9999999999991
 31
0.0
1001
ACDBBLOCKREPETAG
1070
     1
1071
       50
1005
12CB79
  0
CIRCLE
  5
12CB7A
  8
OBJECT
 10
2000.0
 20
-199.99999999999909
 30
0.0
 40
70.0
1001
ACDBBLOCKREPETAG
1070
     1
1071
       51
1005
12CB7A
  0
CIRCLE
  5
12CB7B
  8
OBJECT
 10
2000.0
 20
-199.99999999999909
 30
0.0
 40
77.0
1001
ACDBBLOCKREPETAG
1070
     1
1071
       52
1005
12CB7B
  0
ARC
  5
12CB7C
  8
OBJECT
 10
2000.0
 20
-199.99999999999909
 30
0.0
 40
80.0
 50
50.805032573864182
 51
129.1949674261358
1001
ACDBBLOCKREPETAG
1070
     1
1071
       53
1005
12CB7C
  0
LINE
  5
12CB7D
  8
OBJECT
 10
2045.6618002273251
 20
-137.99999999999909
 30
0.0
 11
2080.0
 21
-137.99999999999909
 31
0.0
1001
ACDBBLOCKREPETAG
1070
     1
1071
       54
1005
12CB7D
  0
LINE
  5
12CB7E
  8
OBJECT
 10
2062.0
 20
-261.99999999999909
 30
0.0
 11
2080.0
 21
-261.99999999999909
 31
0.0
1001
ACDBBLOCKREPETAG
1070
     1
1071
       55
1005
12CB7E
  0
LINE
  5
12CB7F
  8
OBJECT
 10
2062.0
 20
-261.99999999999909
 30
0.0
 11
2062.0
 21
-279.99999999999909
 31
0.0
1001
ACDBBLOCKREPETAG
1070
     1
1071
       57
1005
12CB7F
  0
LINE
  5
12CB80
  8
OBJECT
 10
1938.0
 20
-261.99999999999909
 30
0.0
 11
1938.0
 21
-279.99999999999909
 31
0.0
1001
ACDBBLOCKREPETAG
1070
     1
1071
       58
1005
12CB80
  0
POINT
  5
12CB81
  8
DOTS
 10
2000.0
 20
-199.99999999999909
 30
0.0
 50
90.0
1001
ACDBBLOCKREPETAG
1070
     1
1071
       59
1005
12CB81
  0
LINE
  5
12CB82
  8
OBJECT
 10
1938.0
 20
-261.99999999999909
 30
0.0
 11
1920.0
 21
-261.99999999999909
 31
0.0
1001
ACDBBLOCKREPETAG
1070
     1
1071
       60
1005
12CB82
  0
LINE
  5
12CB83
  8
OBJECT
 10
1954.3381997726749
 20
-137.99999999999909
 30
0.0
 11
1920.0
 21
-137.99999999999909
 31
0.0
1001
ACDBBLOCKREPETAG
1070
     1
1071
       61
1005
12CB83
  0
LINE
  5
12CB84
  8
OBJECT
 10
1945.5527778486351
 20
-254.44722215136329
 30
0.0
 11
1938.0
 21
-261.99999999999909
 31
0.0
1001
ACDBBLOCKREPETAG
1070
     1
1071
       42
1005
12CB84
  0
LINE
  5
12CB85
  8
OBJECT
 10
2054.4472221513638
 20
-254.44722215136329
 30
0.0
 11
2062.0
 21
-261.99999999999909
 31
0.0
1001
ACDBBLOCKREPETAG
1070
     1
1071
       43
1005
12CB85
  0
TEXT
  5
12CB86
  8
SLIM
 10
1837.75
 20
282.50000000000011
 30
0.0
 40
35.0
  1
（枝管サイズ毎に寸法が異なります。管底の位置は50～100で同じです）
 41
0.75
  0
TEXT
  5
12CB87
  8
SLIM
 10
1850.0
 20
532.5
 30
0.0
 40
75.0
  1
側面図の代表機種
 41
0.75
  0
TEXT
  5
12CB88
  8
SLIM
 10
1850.0
 20
369.99999999999989
 30
0.0
 40
100.0
  1
4SRT-B303（特注品）
 41
0.75
  0
CIRCLE
  5
12CB89
  8
OBJECT
 10
535.99999999987813
 20
-2051.999999999367
 30
0.0
 40
70.0
1001
ACDBBLOCKREPETAG
1070
     1
1071
       43
1005
12CB89
  0
CIRCLE
  5
12CB8A
  8
OBJECT
 10
535.99999999987813
 20
-2051.999999999367
 30
0.0
 40
77.0
1001
ACDBBLOCKREPETAG
1070
     1
1071
       44
1005
12CB8A
  0
ARC
  5
12CB8B
  8
OBJECT
 10
535.99999999987813
 20
-2051.999999999367
 30
0.0
 40
80.0
 50
140.80503257378879
 51
219.19496742621121
1001
ACDBBLOCKREPETAG
1070
     1
1071
       45
1005
12CB8B
  0
LINE
  5
12CB8C
  8
OBJECT
 10
473.99999999987801
 20
-2006.338199772043
 30
0.0
 11
473.99999999987801
 21
-1971.999999999367
 31
0.0
1001
ACDBBLOCKREPETAG
1070
     1
1071
       46
1005
12CB8C
  0
LINE
  5
12CB8D
  8
OBJECT
 10
597.99999999987813
 20
-1989.999999999367
 30
0.0
 11
597.99999999987813
 21
-1971.999999999367
 31
0.0
1001
ACDBBLOCKREPETAG
1070
     1
1071
       22
1005
12CB8D
  0
LINE
  5
12CB8E
  8
OBJECT
 10
597.99999999987813
 20
-1989.999999999367
 30
0.0
 11
615.99999999987813
 21
-1989.999999999367
 31
0.0
1001
ACDBBLOCKREPETAG
1070
     1
1071
       24
1005
12CB8E
  0
LINE
  5
12CB8F
  8
OBJECT
 10
597.99999999987813
 20
-2113.999999999367
 30
0.0
 11
615.99999999987813
 21
-2113.999999999367
 31
0.0
1001
ACDBBLOCKREPETAG
1070
     1
1071
       25
1005
12CB8F
  0
LINE
  5
12CB90
  8
OBJECT
 10
597.99999999987813
 20
-2113.999999999367
 30
0.0
 11
597.99999999987813
 21
-2131.999999999367
 31
0.0
1001
ACDBBLOCKREPETAG
1070
     1
1071
       27
1005
12CB90
  0
LINE
  5
12CB91
  8
OBJECT
 10
473.99999999987801
 20
-2097.6618002266919
 30
0.0
 11
473.99999999987801
 21
-2131.999999999367
 31
0.0
1001
ACDBBLOCKREPETAG
1070
     1
1071
       28
1005
12CB91
  0
LINE
  5
12CB92
  8
OBJECT
 10
590.44722215124227
 20
-2106.4472221507308
 30
0.0
 11
597.99999999987813
 21
-2113.999999999367
 31
0.0
1001
ACDBBLOCKREPETAG
1070
     1
1071
       37
1005
12CB92
  0
LINE
  5
12CB93
  8
OBJECT
 10
590.44722215124227
 20
-1997.552777848003
 30
0.0
 11
597.99999999987813
 21
-1989.999999999367
 31
0.0
1001
ACDBBLOCKREPETAG
1070
     1
1071
       38
1005
12CB93
  0
POINT
  5
12CB94
  8
DOTS
 10
535.99999999987813
 20
-2051.999999999367
 30
0.0
1001
ACDBBLOCKREPETAG
1070
     1
1071
       39
1005
12CB94
  0
CIRCLE
  5
12CB95
  8
OBJECT
 10
535.99999999987813
 20
-2051.999999999367
 30
0.0
 40
53.5
1001
ACDBBLOCKREPETAG
1070
     1
1071
      153
1005
12CB95
  0
CIRCLE
  5
12CB96
  8
OBJECT
 10
176.0
 20
-2051.999999999367
 30
0.0
 40
70.0
1001
ACDBBLOCKREPETAG
1070
     1
1071
       43
1005
12CB96
  0
CIRCLE
  5
12CB97
  8
OBJECT
 10
176.0
 20
-2051.999999999367
 30
0.0
 40
77.0
1001
ACDBBLOCKREPETAG
1070
     1
1071
       44
1005
12CB97
  0
ARC
  5
12CB98
  8
OBJECT
 10
176.0
 20
-2051.999999999367
 30
0.0
 40
80.0
 50
140.80503257378979
 51
219.1949674262101
1001
ACDBBLOCKREPETAG
1070
     1
1071
       45
1005
12CB98
  0
LINE
  5
12CB99
  8
OBJECT
 10
114.0
 20
-2006.338199772043
 30
0.0
 11
114.0
 21
-1971.999999999367
 31
0.0
1001
ACDBBLOCKREPETAG
1070
     1
1071
       46
1005
12CB99
  0
LINE
  5
12CB9A
  8
OBJECT
 10
238.0
 20
-1989.999999999367
 30
0.0
 11
238.0
 21
-1971.999999999367
 31
0.0
1001
ACDBBLOCKREPETAG
1070
     1
1071
       22
1005
12CB9A
  0
LINE
  5
12CB9B
  8
OBJECT
 10
238.0
 20
-1989.999999999367
 30
0.0
 11
256.0
 21
-1989.999999999367
 31
0.0
1001
ACDBBLOCKREPETAG
1070
     1
1071
       24
1005
12CB9B
  0
LINE
  5
12CB9C
  8
OBJECT
 10
238.0
 20
-2113.999999999367
 30
0.0
 11
256.0
 21
-2113.999999999367
 31
0.0
1001
ACDBBLOCKREPETAG
1070
     1
1071
       25
1005
12CB9C
  0
LINE
  5
12CB9D
  8
OBJECT
 10
238.0
 20
-2113.999999999367
 30
0.0
 11
238.0
 21
-2131.999999999367
 31
0.0
1001
ACDBBLOCKREPETAG
1070
     1
1071
       27
1005
12CB9D
  0
LINE
  5
12CB9E
  8
OBJECT
 10
114.0
 20
-2097.6618002266919
 30
0.0
 11
114.0
 21
-2131.999999999367
 31
0.0
1001
ACDBBLOCKREPETAG
1070
     1
1071
       28
1005
12CB9E
  0
LINE
  5
12CB9F
  8
OBJECT
 10
230.44722215136429
 20
-2106.4472221507308
 30
0.0
 11
238.0
 21
-2113.999999999367
 31
0.0
1001
ACDBBLOCKREPETAG
1070
     1
1071
       37
1005
12CB9F
  0
LINE
  5
12CBA0
  8
OBJECT
 10
230.44722215136429
 20
-1997.552777848003
 30
0.0
 11
238.0
 21
-1989.999999999367
 31
0.0
1001
ACDBBLOCKREPETAG
1070
     1
1071
       38
1005
12CBA0
  0
POINT
  5
12CBA1
  8
DOTS
 10
176.0
 20
-2051.999999999367
 30
0.0
1001
ACDBBLOCKREPETAG
1070
     1
1071
       39
1005
12CBA1
  0
CIRCLE
  5
12CBA2
  8
OBJECT
 10
176.0
 20
-2051.999999999367
 30
0.0
 40
53.5
1001
ACDBBLOCKREPETAG
1070
     1
1071
      153
1005
12CBA2
  0
CIRCLE
  5
12CBA3
  8
OBJECT
 10
535.99999999987813
 20
-1587.999999999525
 30
0.0
 40
70.0
1001
ACDBBLOCKREPETAG
1070
     1
1071
       43
1005
12CBA3
  0
CIRCLE
  5
12CBA4
  8
OBJECT
 10
535.99999999987813
 20
-1587.999999999525
 30
0.0
 40
77.0
1001
ACDBBLOCKREPETAG
1070
     1
1071
       44
1005
12CBA4
  0
ARC
  5
12CBA5
  8
OBJECT
 10
535.99999999987813
 20
-1587.999999999525
 30
0.0
 40
80.0
 50
140.8050325737787
 51
219.1949674262213
1001
ACDBBLOCKREPETAG
1070
     1
1071
       45
1005
12CBA5
  0
LINE
  5
12CBA6
  8
OBJECT
 10
473.99999999987801
 20
-1542.3381997722011
 30
0.0
 11
473.99999999987801
 21
-1507.999999999525
 31
0.0
1001
ACDBBLOCKREPETAG
1070
     1
1071
       46
1005
12CBA6
  0
LINE
  5
12CBA7
  8
OBJECT
 10
597.99999999987813
 20
-1525.999999999525
 30
0.0
 11
597.99999999987813
 21
-1507.999999999525
 31
0.0
1001
ACDBBLOCKREPETAG
1070
     1
1071
       22
1005
12CBA7
  0
LINE
  5
12CBA8
  8
OBJECT
 10
597.99999999987813
 20
-1525.999999999525
 30
0.0
 11
615.99999999987813
 21
-1525.999999999525
 31
0.0
1001
ACDBBLOCKREPETAG
1070
     1
1071
       24
1005
12CBA8
  0
LINE
  5
12CBA9
  8
OBJECT
 10
597.99999999987813
 20
-1649.999999999525
 30
0.0
 11
615.99999999987813
 21
-1649.999999999525
 31
0.0
1001
ACDBBLOCKREPETAG
1070
     1
1071
       25
1005
12CBA9
  0
LINE
  5
12CBAA
  8
OBJECT
 10
597.99999999987813
 20
-1649.999999999525
 30
0.0
 11
597.99999999987813
 21
-1667.999999999525
 31
0.0
1001
ACDBBLOCKREPETAG
1070
     1
1071
       27
1005
12CBAA
  0
LINE
  5
12CBAB
  8
OBJECT
 10
473.99999999987801
 20
-1633.6618002268499
 30
0.0
 11
473.99999999987801
 21
-1667.999999999525
 31
0.0
1001
ACDBBLOCKREPETAG
1070
     1
1071
       28
1005
12CBAB
  0
LINE
  5
12CBAC
  8
OBJECT
 10
590.44722215124227
 20
-1642.447222150889
 30
0.0
 11
597.99999999987813
 21
-1649.999999999525
 31
0.0
1001
ACDBBLOCKREPETAG
1070
     1
1071
       37
1005
12CBAC
  0
LINE
  5
12CBAD
  8
OBJECT
 10
590.44722215124227
 20
-1533.552777848161
 30
0.0
 11
597.99999999987813
 21
-1525.999999999525
 31
0.0
1001
ACDBBLOCKREPETAG
1070
     1
1071
       38
1005
12CBAD
  0
POINT
  5
12CBAE
  8
DOTS
 10
535.99999999987813
 20
-1587.999999999525
 30
0.0
1001
ACDBBLOCKREPETAG
1070
     1
1071
       39
1005
12CBAE
  0
CIRCLE
  5
12CBAF
  8
OBJECT
 10
535.99999999987813
 20
-1587.999999999525
 30
0.0
 40
53.5
1001
ACDBBLOCKREPETAG
1070
     1
1071
      153
1005
12CBAF
  0
CIRCLE
  5
12CBB0
  8
OBJECT
 10
176.0
 20
-1587.999999999525
 30
0.0
 40
70.0
1001
ACDBBLOCKREPETAG
1070
     1
1071
       43
1005
12CBB0
  0
CIRCLE
  5
12CBB1
  8
OBJECT
 10
176.0
 20
-1587.999999999525
 30
0.0
 40
77.0
1001
ACDBBLOCKREPETAG
1070
     1
1071
       44
1005
12CBB1
  0
ARC
  5
12CBB2
  8
OBJECT
 10
176.0
 20
-1587.999999999525
 30
0.0
 40
80.0
 50
140.80503257377961
 51
219.1949674262203
1001
ACDBBLOCKREPETAG
1070
     1
1071
       45
1005
12CBB2
  0
LINE
  5
12CBB3
  8
OBJECT
 10
114.0
 20
-1542.3381997722011
 30
0.0
 11
114.0
 21
-1507.999999999525
 31
0.0
1001
ACDBBLOCKREPETAG
1070
     1
1071
       46
1005
12CBB3
  0
LINE
  5
12CBB4
  8
OBJECT
 10
238.0
 20
-1525.999999999525
 30
0.0
 11
238.0
 21
-1507.999999999525
 31
0.0
1001
ACDBBLOCKREPETAG
1070
     1
1071
       22
1005
12CBB4
  0
LINE
  5
12CBB5
  8
OBJECT
 10
238.0
 20
-1525.999999999525
 30
0.0
 11
256.0
 21
-1525.999999999525
 31
0.0
1001
ACDBBLOCKREPETAG
1070
     1
1071
       24
1005
12CBB5
  0
LINE
  5
12CBB6
  8
OBJECT
 10
238.0
 20
-1649.999999999525
 30
0.0
 11
256.0
 21
-1649.999999999525
 31
0.0
1001
ACDBBLOCKREPETAG
1070
     1
1071
       25
1005
12CBB6
  0
LINE
  5
12CBB7
  8
OBJECT
 10
238.0
 20
-1649.999999999525
 30
0.0
 11
238.0
 21
-1667.999999999525
 31
0.0
1001
ACDBBLOCKREPETAG
1070
     1
1071
       27
1005
12CBB7
  0
LINE
  5
12CBB8
  8
OBJECT
 10
114.0
 20
-1633.6618002268499
 30
0.0
 11
114.0
 21
-1667.999999999525
 31
0.0
1001
ACDBBLOCKREPETAG
1070
     1
1071
       28
1005
12CBB8
  0
LINE
  5
12CBB9
  8
OBJECT
 10
230.44722215136429
 20
-1642.447222150889
 30
0.0
 11
238.0
 21
-1649.999999999525
 31
0.0
1001
ACDBBLOCKREPETAG
1070
     1
1071
       37
1005
12CBB9
  0
LINE
  5
12CBBA
  8
OBJECT
 10
230.44722215136429
 20
-1533.552777848161
 30
0.0
 11
238.0
 21
-1525.999999999525
 31
0.0
1001
ACDBBLOCKREPETAG
1070
     1
1071
       38
1005
12CBBA
  0
POINT
  5
12CBBB
  8
DOTS
 10
176.0
 20
-1587.999999999525
 30
0.0
1001
ACDBBLOCKREPETAG
1070
     1
1071
       39
1005
12CBBB
  0
CIRCLE
  5
12CBBC
  8
OBJECT
 10
176.0
 20
-1587.999999999525
 30
0.0
 40
53.5
1001
ACDBBLOCKREPETAG
1070
     1
1071
      153
1005
12CBBC
  0
CIRCLE
  5
12CBBD
  8
OBJECT
 10
535.99999999987813
 20
-1123.999999999684
 30
0.0
 40
70.0
1001
ACDBBLOCKREPETAG
1070
     1
1071
       43
1005
12CBBD
  0
CIRCLE
  5
12CBBE
  8
OBJECT
 10
535.99999999987813
 20
-1123.999999999684
 30
0.0
 40
77.0
1001
ACDBBLOCKREPETAG
1070
     1
1071
       44
1005
12CBBE
  0
ARC
  5
12CBBF
  8
OBJECT
 10
535.99999999987813
 20
-1123.999999999684
 30
0.0
 40
80.0
 50
140.8050325737787
 51
219.1949674262213
1001
ACDBBLOCKREPETAG
1070
     1
1071
       45
1005
12CBBF
  0
LINE
  5
12CBC0
  8
OBJECT
 10
473.99999999987801
 20
-1078.3381997723591
 30
0.0
 11
473.99999999987801
 21
-1043.999999999684
 31
0.0
1001
ACDBBLOCKREPETAG
1070
     1
1071
       46
1005
12CBC0
  0
LINE
  5
12CBC1
  8
OBJECT
 10
597.99999999987813
 20
-1061.999999999684
 30
0.0
 11
597.99999999987813
 21
-1043.999999999684
 31
0.0
1001
ACDBBLOCKREPETAG
1070
     1
1071
       22
1005
12CBC1
  0
LINE
  5
12CBC2
  8
OBJECT
 10
597.99999999987813
 20
-1061.999999999684
 30
0.0
 11
615.99999999987813
 21
-1061.999999999684
 31
0.0
1001
ACDBBLOCKREPETAG
1070
     1
1071
       24
1005
12CBC2
  0
LINE
  5
12CBC3
  8
OBJECT
 10
597.99999999987813
 20
-1185.999999999683
 30
0.0
 11
615.99999999987813
 21
-1185.999999999683
 31
0.0
1001
ACDBBLOCKREPETAG
1070
     1
1071
       25
1005
12CBC3
  0
LINE
  5
12CBC4
  8
OBJECT
 10
597.99999999987813
 20
-1185.999999999683
 30
0.0
 11
597.99999999987813
 21
-1203.999999999683
 31
0.0
1001
ACDBBLOCKREPETAG
1070
     1
1071
       27
1005
12CBC4
  0
LINE
  5
12CBC5
  8
OBJECT
 10
473.99999999987801
 20
-1169.6618002270079
 30
0.0
 11
473.99999999987801
 21
-1203.999999999683
 31
0.0
1001
ACDBBLOCKREPETAG
1070
     1
1071
       28
1005
12CBC5
  0
LINE
  5
12CBC6
  8
OBJECT
 10
590.44722215124227
 20
-1178.447222151048
 30
0.0
 11
597.99999999987813
 21
-1185.999999999683
 31
0.0
1001
ACDBBLOCKREPETAG
1070
     1
1071
       37
1005
12CBC6
  0
LINE
  5
12CBC7
  8
OBJECT
 10
590.44722215124227
 20
-1069.552777848319
 30
0.0
 11
597.99999999987813
 21
-1061.999999999684
 31
0.0
1001
ACDBBLOCKREPETAG
1070
     1
1071
       38
1005
12CBC7
  0
POINT
  5
12CBC8
  8
DOTS
 10
535.99999999987813
 20
-1123.999999999684
 30
0.0
1001
ACDBBLOCKREPETAG
1070
     1
1071
       39
1005
12CBC8
  0
CIRCLE
  5
12CBC9
  8
OBJECT
 10
535.99999999987813
 20
-1123.999999999684
 30
0.0
 40
53.5
1001
ACDBBLOCKREPETAG
1070
     1
1071
      153
1005
12CBC9
  0
CIRCLE
  5
12CBCA
  8
OBJECT
 10
175.9999999999998
 20
-1123.999999999684
 30
0.0
 40
70.0
1001
ACDBBLOCKREPETAG
1070
     1
1071
       43
1005
12CBCA
  0
CIRCLE
  5
12CBCB
  8
OBJECT
 10
175.9999999999998
 20
-1123.999999999684
 30
0.0
 40
77.0
1001
ACDBBLOCKREPETAG
1070
     1
1071
       44
1005
12CBCB
  0
ARC
  5
12CBCC
  8
OBJECT
 10
175.9999999999998
 20
-1123.999999999684
 30
0.0
 40
80.0
 50
140.80503257377961
 51
219.1949674262203
1001
ACDBBLOCKREPETAG
1070
     1
1071
       45
1005
12CBCC
  0
LINE
  5
12CBCD
  8
OBJECT
 10
113.9999999999998
 20
-1078.3381997723591
 30
0.0
 11
113.9999999999998
 21
-1043.999999999684
 31
0.0
1001
ACDBBLOCKREPETAG
1070
     1
1071
       46
1005
12CBCD
  0
LINE
  5
12CBCE
  8
OBJECT
 10
237.99999999999989
 20
-1061.999999999684
 30
0.0
 11
237.99999999999989
 21
-1043.999999999684
 31
0.0
1001
ACDBBLOCKREPETAG
1070
     1
1071
       22
1005
12CBCE
  0
LINE
  5
12CBCF
  8
OBJECT
 10
237.99999999999989
 20
-1061.999999999684
 30
0.0
 11
255.9999999999998
 21
-1061.999999999684
 31
0.0
1001
ACDBBLOCKREPETAG
1070
     1
1071
       24
1005
12CBCF
  0
LINE
  5
12CBD0
  8
OBJECT
 10
237.99999999999989
 20
-1185.999999999684
 30
0.0
 11
255.9999999999998
 21
-1185.999999999684
 31
0.0
1001
ACDBBLOCKREPETAG
1070
     1
1071
       25
1005
12CBD0
  0
LINE
  5
12CBD1
  8
OBJECT
 10
237.99999999999989
 20
-1185.999999999684
 30
0.0
 11
237.99999999999989
 21
-1203.999999999684
 31
0.0
1001
ACDBBLOCKREPETAG
1070
     1
1071
       27
1005
12CBD1
  0
LINE
  5
12CBD2
  8
OBJECT
 10
113.9999999999998
 20
-1169.6618002270079
 30
0.0
 11
113.9999999999998
 21
-1203.999999999684
 31
0.0
1001
ACDBBLOCKREPETAG
1070
     1
1071
       28
1005
12CBD2
  0
LINE
  5
12CBD3
  8
OBJECT
 10
230.44722215136409
 20
-1178.447222151048
 30
0.0
 11
237.99999999999989
 21
-1185.999999999684
 31
0.0
1001
ACDBBLOCKREPETAG
1070
     1
1071
       37
1005
12CBD3
  0
LINE
  5
12CBD4
  8
OBJECT
 10
230.44722215136409
 20
-1069.552777848319
 30
0.0
 11
237.99999999999989
 21
-1061.999999999684
 31
0.0
1001
ACDBBLOCKREPETAG
1070
     1
1071
       38
1005
12CBD4
  0
POINT
  5
12CBD5
  8
DOTS
 10
175.9999999999998
 20
-1123.999999999684
 30
0.0
1001
ACDBBLOCKREPETAG
1070
     1
1071
       39
1005
12CBD5
  0
CIRCLE
  5
12CBD6
  8
OBJECT
 10
175.9999999999998
 20
-1123.999999999684
 30
0.0
 40
53.5
1001
ACDBBLOCKREPETAG
1070
     1
1071
      153
1005
12CBD6
  0
CIRCLE
  5
12CBD7
  8
OBJECT
 10
535.99999999987813
 20
-659.99999999984175
 30
0.0
 40
70.0
1001
ACDBBLOCKREPETAG
1070
     1
1071
       43
1005
12CBD7
  0
CIRCLE
  5
12CBD8
  8
OBJECT
 10
535.99999999987813
 20
-659.99999999984175
 30
0.0
 40
77.0
1001
ACDBBLOCKREPETAG
1070
     1
1071
       44
1005
12CBD8
  0
ARC
  5
12CBD9
  8
OBJECT
 10
535.99999999987813
 20
-659.99999999984175
 30
0.0
 40
80.0
 50
140.8050325737787
 51
219.1949674262213
1001
ACDBBLOCKREPETAG
1070
     1
1071
       45
1005
12CBD9
  0
LINE
  5
12CBDA
  8
OBJECT
 10
473.99999999987801
 20
-614.33819977251721
 30
0.0
 11
473.99999999987801
 21
-579.99999999984175
 31
0.0
1001
ACDBBLOCKREPETAG
1070
     1
1071
       46
1005
12CBDA
  0
LINE
  5
12CBDB
  8
OBJECT
 10
597.99999999987813
 20
-597.99999999984175
 30
0.0
 11
597.99999999987813
 21
-579.99999999984175
 31
0.0
1001
ACDBBLOCKREPETAG
1070
     1
1071
       22
1005
12CBDB
  0
LINE
  5
12CBDC
  8
OBJECT
 10
597.99999999987813
 20
-597.99999999984175
 30
0.0
 11
615.99999999987813
 21
-597.99999999984175
 31
0.0
1001
ACDBBLOCKREPETAG
1070
     1
1071
       24
1005
12CBDC
  0
LINE
  5
12CBDD
  8
OBJECT
 10
597.99999999987813
 20
-721.99999999984175
 30
0.0
 11
615.99999999987813
 21
-721.99999999984175
 31
0.0
1001
ACDBBLOCKREPETAG
1070
     1
1071
       25
1005
12CBDD
  0
LINE
  5
12CBDE
  8
OBJECT
 10
597.99999999987813
 20
-721.99999999984175
 30
0.0
 11
597.99999999987813
 21
-739.99999999984175
 31
0.0
1001
ACDBBLOCKREPETAG
1070
     1
1071
       27
1005
12CBDE
  0
LINE
  5
12CBDF
  8
OBJECT
 10
473.99999999987801
 20
-705.66180022716617
 30
0.0
 11
473.99999999987801
 21
-739.99999999984175
 31
0.0
1001
ACDBBLOCKREPETAG
1070
     1
1071
       28
1005
12CBDF
  0
LINE
  5
12CBE0
  8
OBJECT
 10
590.44722215124227
 20
-714.44722215120601
 30
0.0
 11
597.99999999987813
 21
-721.99999999984175
 31
0.0
1001
ACDBBLOCKREPETAG
1070
     1
1071
       37
1005
12CBE0
  0
LINE
  5
12CBE1
  8
OBJECT
 10
590.44722215124227
 20
-605.55277784847738
 30
0.0
 11
597.99999999987813
 21
-597.99999999984175
 31
0.0
1001
ACDBBLOCKREPETAG
1070
     1
1071
       38
1005
12CBE1
  0
POINT
  5
12CBE2
  8
DOTS
 10
535.99999999987813
 20
-659.99999999984175
 30
0.0
1001
ACDBBLOCKREPETAG
1070
     1
1071
       39
1005
12CBE2
  0
CIRCLE
  5
12CBE3
  8
OBJECT
 10
535.99999999987813
 20
-659.99999999984175
 30
0.0
 40
53.5
1001
ACDBBLOCKREPETAG
1070
     1
1071
      153
1005
12CBE3
  0
CIRCLE
  5
12CBE4
  8
OBJECT
 10
176.0
 20
-659.99999999984175
 30
0.0
 40
70.0
1001
ACDBBLOCKREPETAG
1070
     1
1071
       43
1005
12CBE4
  0
CIRCLE
  5
12CBE5
  8
OBJECT
 10
176.0
 20
-659.99999999984175
 30
0.0
 40
77.0
1001
ACDBBLOCKREPETAG
1070
     1
1071
       44
1005
12CBE5
  0
ARC
  5
12CBE6
  8
OBJECT
 10
176.0
 20
-659.99999999984175
 30
0.0
 40
80.0
 50
140.80503257377961
 51
219.1949674262203
1001
ACDBBLOCKREPETAG
1070
     1
1071
       45
1005
12CBE6
  0
LINE
  5
12CBE7
  8
OBJECT
 10
114.0
 20
-614.33819977251721
 30
0.0
 11
114.0
 21
-579.99999999984175
 31
0.0
1001
ACDBBLOCKREPETAG
1070
     1
1071
       46
1005
12CBE7
  0
LINE
  5
12CBE8
  8
OBJECT
 10
238.0
 20
-597.99999999984175
 30
0.0
 11
238.0
 21
-579.99999999984175
 31
0.0
1001
ACDBBLOCKREPETAG
1070
     1
1071
       22
1005
12CBE8
  0
LINE
  5
12CBE9
  8
OBJECT
 10
238.0
 20
-597.99999999984175
 30
0.0
 11
256.0
 21
-597.99999999984175
 31
0.0
1001
ACDBBLOCKREPETAG
1070
     1
1071
       24
1005
12CBE9
  0
LINE
  5
12CBEA
  8
OBJECT
 10
238.0
 20
-721.99999999984175
 30
0.0
 11
256.0
 21
-721.99999999984175
 31
0.0
1001
ACDBBLOCKREPETAG
1070
     1
1071
       25
1005
12CBEA
  0
LINE
  5
12CBEB
  8
OBJECT
 10
238.0
 20
-721.99999999984175
 30
0.0
 11
238.0
 21
-739.99999999984175
 31
0.0
1001
ACDBBLOCKREPETAG
1070
     1
1071
       27
1005
12CBEB
  0
LINE
  5
12CBEC
  8
OBJECT
 10
114.0
 20
-705.66180022716617
 30
0.0
 11
114.0
 21
-739.99999999984175
 31
0.0
1001
ACDBBLOCKREPETAG
1070
     1
1071
       28
1005
12CBEC
  0
LINE
  5
12CBED
  8
OBJECT
 10
230.44722215136429
 20
-714.44722215120601
 30
0.0
 11
238.0
 21
-721.99999999984175
 31
0.0
1001
ACDBBLOCKREPETAG
1070
     1
1071
       37
1005
12CBED
  0
LINE
  5
12CBEE
  8
OBJECT
 10
230.44722215136429
 20
-605.55277784847738
 30
0.0
 11
238.0
 21
-597.99999999984175
 31
0.0
1001
ACDBBLOCKREPETAG
1070
     1
1071
       38
1005
12CBEE
  0
POINT
  5
12CBEF
  8
DOTS
 10
176.0
 20
-659.99999999984175
 30
0.0
1001
ACDBBLOCKREPETAG
1070
     1
1071
       39
1005
12CBEF
  0
CIRCLE
  5
12CBF0
  8
OBJECT
 10
176.0
 20
-659.99999999984175
 30
0.0
 40
53.5
1001
ACDBBLOCKREPETAG
1070
     1
1071
      153
1005
12CBF0
  0
CIRCLE
  5
12CBF1
  8
OBJECT
 10
535.99999999987813
 20
-196.0
 30
0.0
 40
70.0
1001
ACDBBLOCKREPETAG
1070
     1
1071
       43
1005
12CBF1
  0
CIRCLE
  5
12CBF2
  8
OBJECT
 10
535.99999999987813
 20
-196.0
 30
0.0
 40
77.0
1001
ACDBBLOCKREPETAG
1070
     1
1071
       44
1005
12CBF2
  0
ARC
  5
12CBF3
  8
OBJECT
 10
535.99999999987813
 20
-196.0
 30
0.0
 40
80.0
 50
140.80503257378001
 51
219.19496742621999
1001
ACDBBLOCKREPETAG
1070
     1
1071
       45
1005
12CBF3
  0
LINE
  5
12CBF4
  8
OBJECT
 10
473.99999999987801
 20
-150.33819977267541
 30
0.0
 11
473.99999999987801
 21
-116.0
 31
0.0
1001
ACDBBLOCKREPETAG
1070
     1
1071
       46
1005
12CBF4
  0
LINE
  5
12CBF5
  8
OBJECT
 10
597.99999999987813
 20
-134.0
 30
0.0
 11
597.99999999987813
 21
-116.0
 31
0.0
1001
ACDBBLOCKREPETAG
1070
     1
1071
       22
1005
12CBF5
  0
LINE
  5
12CBF6
  8
OBJECT
 10
597.99999999987813
 20
-134.0
 30
0.0
 11
615.99999999987813
 21
-134.0
 31
0.0
1001
ACDBBLOCKREPETAG
1070
     1
1071
       24
1005
12CBF6
  0
LINE
  5
12CBF7
  8
OBJECT
 10
597.99999999987813
 20
-258.0
 30
0.0
 11
615.99999999987813
 21
-258.0
 31
0.0
1001
ACDBBLOCKREPETAG
1070
     1
1071
       25
1005
12CBF7
  0
LINE
  5
12CBF8
  8
OBJECT
 10
597.99999999987813
 20
-258.0
 30
0.0
 11
597.99999999987813
 21
-276.0
 31
0.0
1001
ACDBBLOCKREPETAG
1070
     1
1071
       27
1005
12CBF8
  0
LINE
  5
12CBF9
  8
OBJECT
 10
473.99999999987801
 20
-241.66180022732439
 30
0.0
 11
473.99999999987801
 21
-276.0
 31
0.0
1001
ACDBBLOCKREPETAG
1070
     1
1071
       28
1005
12CBF9
  0
LINE
  5
12CBFA
  8
OBJECT
 10
590.44722215124227
 20
-250.44722215136429
 30
0.0
 11
597.99999999987813
 21
-258.0
 31
0.0
1001
ACDBBLOCKREPETAG
1070
     1
1071
       37
1005
12CBFA
  0
LINE
  5
12CBFB
  8
OBJECT
 10
590.44722215124227
 20
-141.55277784863571
 30
0.0
 11
597.99999999987813
 21
-134.0
 31
0.0
1001
ACDBBLOCKREPETAG
1070
     1
1071
       38
1005
12CBFB
  0
POINT
  5
12CBFC
  8
DOTS
 10
535.99999999987813
 20
-196.0
 30
0.0
1001
ACDBBLOCKREPETAG
1070
     1
1071
       39
1005
12CBFC
  0
CIRCLE
  5
12CBFD
  8
OBJECT
 10
535.99999999987813
 20
-196.0
 30
0.0
 40
53.5
1001
ACDBBLOCKREPETAG
1070
     1
1071
      153
1005
12CBFD
  0
CIRCLE
  5
12CBFE
  8
OBJECT
 10
176.0
 20
-196.0
 30
0.0
 40
70.0
1001
ACDBBLOCKREPETAG
1070
     1
1071
       43
1005
12CBFE
  0
CIRCLE
  5
12CBFF
  8
OBJECT
 10
176.0
 20
-196.0
 30
0.0
 40
77.0
1001
ACDBBLOCKREPETAG
1070
     1
1071
       44
1005
12CBFF
  0
ARC
  5
12CC00
  8
OBJECT
 10
176.0
 20
-196.0
 30
0.0
 40
80.0
 50
140.80503257378101
 51
219.19496742621899
1001
ACDBBLOCKREPETAG
1070
     1
1071
       45
1005
12CC00
  0
LINE
  5
12CC01
  8
OBJECT
 10
114.0
 20
-150.33819977267541
 30
0.0
 11
114.0
 21
-116.0
 31
0.0
1001
ACDBBLOCKREPETAG
1070
     1
1071
       46
1005
12CC01
  0
LINE
  5
12CC02
  8
OBJECT
 10
238.0
 20
-134.0
 30
0.0
 11
238.0
 21
-116.0
 31
0.0
1001
ACDBBLOCKREPETAG
1070
     1
1071
       22
1005
12CC02
  0
LINE
  5
12CC03
  8
OBJECT
 10
238.0
 20
-134.0
 30
0.0
 11
256.0
 21
-134.0
 31
0.0
1001
ACDBBLOCKREPETAG
1070
     1
1071
       24
1005
12CC03
  0
LINE
  5
12CC04
  8
OBJECT
 10
238.0
 20
-258.0
 30
0.0
 11
256.0
 21
-258.0
 31
0.0
1001
ACDBBLOCKREPETAG
1070
     1
1071
       25
1005
12CC04
  0
LINE
  5
12CC05
  8
OBJECT
 10
238.0
 20
-258.0
 30
0.0
 11
238.0
 21
-276.0
 31
0.0
1001
ACDBBLOCKREPETAG
1070
     1
1071
       27
1005
12CC05
  0
LINE
  5
12CC06
  8
OBJECT
 10
114.0
 20
-241.66180022732439
 30
0.0
 11
114.0
 21
-276.0
 31
0.0
1001
ACDBBLOCKREPETAG
1070
     1
1071
       28
1005
12CC06
  0
LINE
  5
12CC07
  8
OBJECT
 10
230.44722215136429
 20
-250.44722215136429
 30
0.0
 11
238.0
 21
-258.0
 31
0.0
1001
ACDBBLOCKREPETAG
1070
     1
1071
       37
1005
12CC07
  0
LINE
  5
12CC08
  8
OBJECT
 10
230.44722215136429
 20
-141.55277784863571
 30
0.0
 11
238.0
 21
-134.0
 31
0.0
1001
ACDBBLOCKREPETAG
1070
     1
1071
       38
1005
12CC08
  0
POINT
  5
12CC09
  8
DOTS
 10
176.0
 20
-196.0
 30
0.0
1001
ACDBBLOCKREPETAG
1070
     1
1071
       39
1005
12CC09
  0
CIRCLE
  5
12CC0A
  8
OBJECT
 10
176.0
 20
-196.0
 30
0.0
 40
53.5
1001
ACDBBLOCKREPETAG
1070
     1
1071
      153
1005
12CC0A
  0
LINE
  5
12CC0B
  8
OBJECT
 10
3867.0
 20
-261.99999999999909
 30
0.0
 11
3860.0
 21
-261.99999999999909
 31
0.0
1001
ACDBBLOCKREPETAG
1070
     1
1071
       47
1005
12CC0B
  0
LINE
  5
12CC0C
  8
OBJECT
 10
3860.0
 20
-261.99999999999909
 30
0.0
 11
3860.0
 21
-137.99999999999909
 31
0.0
1001
ACDBBLOCKREPETAG
1070
     1
1071
       48
1005
12CC0C
  0
LINE
  5
12CC0D
  8
OBJECT
 10
3860.0
 20
-137.99999999999909
 30
0.0
 11
3867.0
 21
-137.99999999999909
 31
0.0
1001
ACDBBLOCKREPETAG
1070
     1
1071
       49
1005
12CC0D
  0
LINE
  5
12CC0E
  8
OBJECT
 10
3867.0
 20
-137.99999999999909
 30
0.0
 11
3867.0
 21
-261.99999999999909
 31
0.0
1001
ACDBBLOCKREPETAG
1070
     1
1071
       50
1005
12CC0E
  0
LINE
  5
12CC0F
  8
CENTER
 10
3845.0
 20
-199.99999999999909
 30
0.0
 11
3920.0
 21
-199.99999999999909
 31
0.0
1001
ACDBBLOCKREPETAG
1070
     1
1071
       51
1005
12CC0F
  0
LINE
  5
12CC10
  8
OBJECT
 10
3867.0
 20
-258.99999999999909
 30
0.0
 11
3903.0
 21
-258.99999999999909
 31
0.0
1001
ACDBBLOCKREPETAG
1070
     1
1071
       52
1005
12CC10
  0
LINE
  5
12CC11
  8
OBJECT
 10
3903.0
 20
-258.99999999999909
 30
0.0
 11
3903.0
 21
-140.99999999999909
 31
0.0
1001
ACDBBLOCKREPETAG
1070
     1
1071
       53
1005
12CC11
  0
LINE
  5
12CC12
  8
OBJECT
 10
3903.0
 20
-140.99999999999909
 30
0.0
 11
3867.0
 21
-140.99999999999909
 31
0.0
1001
ACDBBLOCKREPETAG
1070
     1
1071
       54
1005
12CC12
  0
LINE
  5
12CC13
  8
OBJECT
 10
3907.0
 20
-254.49999999999909
 30
0.0
 11
3914.0
 21
-254.49999999999909
 31
0.0
1001
ACDBBLOCKREPETAG
1070
     1
1071
       55
1005
12CC13
  0
LINE
  5
12CC14
  8
OBJECT
 10
3914.0
 20
-145.49999999999909
 30
0.0
 11
3907.0
 21
-145.49999999999909
 31
0.0
1001
ACDBBLOCKREPETAG
1070
     1
1071
       56
1005
12CC14
  0
LINE
  5
12CC15
  8
OBJECT
 10
3907.0
 20
-145.49999999999909
 30
0.0
 11
3907.0
 21
-254.49999999999909
 31
0.0
1001
ACDBBLOCKREPETAG
1070
     1
1071
       57
1005
12CC15
  0
LINE
  5
12CC16
  8
OBJECT
 10
3903.0
 20
-258.99999999999909
 30
0.0
 11
3907.0
 21
-254.49999999999909
 31
0.0
1001
ACDBBLOCKREPETAG
1070
     1
1071
       58
1005
12CC16
  0
LINE
  5
12CC17
  8
OBJECT
 10
3903.0
 20
-140.99999999999909
 30
0.0
 11
3907.0
 21
-145.49999999999909
 31
0.0
1001
ACDBBLOCKREPETAG
1070
     1
1071
       59
1005
12CC17
  0
LINE
  5
12CC18
  8
OBJECT
 10
3917.0
 20
-261.99999999999909
 30
0.0
 11
3920.0
 21
-261.99999999999909
 31
0.0
1001
ACDBBLOCKREPETAG
1070
     1
1071
       60
1005
12CC18
  0
ARC
  5
12CC19
  8
OBJECT
 10
3917.0
 20
-258.99999999999909
 30
0.0
 40
3.0
 50
180.0
 51
270.0
1001
ACDBBLOCKREPETAG
1070
     1
1071
       61
1005
12CC19
  0
LINE
  5
12CC1A
  8
OBJECT
 10
3920.0
 20
-137.99999999999909
 30
0.0
 11
3917.0
 21
-137.99999999999909
 31
0.0
1001
ACDBBLOCKREPETAG
1070
     1
1071
       62
1005
12CC1A
  0
ARC
  5
12CC1B
  8
OBJECT
 10
3917.0
 20
-140.99999999999909
 30
0.0
 40
3.0
 50
90.0
 51
180.0
1001
ACDBBLOCKREPETAG
1070
     1
1071
       63
1005
12CC1B
  0
LINE
  5
12CC1C
  8
OBJECT
 10
3914.0
 20
-140.99999999999909
 30
0.0
 11
3914.0
 21
-258.99999999999909
 31
0.0
1001
ACDBBLOCKREPETAG
1070
     1
1071
       64
1005
12CC1C
  0
LINE
  5
12CC1D
  8
HIDDEN
 10
3912.0
 20
-244.49999999999909
 30
0.0
 11
3912.0
 21
-155.49999999999909
 31
0.0
1001
ACDBBLOCKREPETAG
1070
     1
1071
       65
1005
12CC1D
  0
LINE
  5
12CC1E
  8
CENTER
 10
4000.0
 20
-300.99999999999898
 30
0.0
 11
4000.0
 21
-279.99999999999909
 31
0.0
1001
ACDBBLOCKREPETAG
1070
     1
1071
        0
1005
12CC1E
  0
LINE
  5
12CC1F
  8
OBJECT
 10
4062.0
 20
-283.0
 30
0.0
 11
4062.0
 21
-279.99999999999909
 31
0.0
1001
ACDBBLOCKREPETAG
1070
     1
1071
        1
1005
12CC1F
  0
ARC
  5
12CC20
  8
OBJECT
 10
4059.0
 20
-283.0
 30
0.0
 40
3.0
 50
270.0
 51
0.0
1001
ACDBBLOCKREPETAG
1070
     1
1071
        2
1005
12CC20
  0
LINE
  5
12CC21
  8
OBJECT
 10
3938.0
 20
-279.99999999999909
 30
0.0
 11
3938.0
 21
-282.99999999999818
 31
0.0
1001
ACDBBLOCKREPETAG
1070
     1
1071
        3
1005
12CC21
  0
ARC
  5
12CC22
  8
OBJECT
 10
3941.0
 20
-282.99999999999818
 30
0.0
 40
3.0
 50
180.0
 51
270.0
1001
ACDBBLOCKREPETAG
1070
     1
1071
        4
1005
12CC22
  0
LINE
  5
12CC23
  8
OBJECT
 10
3941.0
 20
-285.99999999999818
 30
0.0
 11
4059.0
 21
-286.0
 31
0.0
1001
ACDBBLOCKREPETAG
1070
     1
1071
        5
1005
12CC23
  0
LINE
  5
12CC24
  8
OBJECT
 10
4133.0
 20
-137.99999999999909
 30
0.0
 11
4140.0
 21
-137.99999999999909
 31
0.0
1001
ACDBBLOCKREPETAG
1070
     1
1071
       47
1005
12CC24
  0
LINE
  5
12CC25
  8
OBJECT
 10
4140.0
 20
-137.99999999999909
 30
0.0
 11
4140.0
 21
-261.99999999999909
 31
0.0
1001
ACDBBLOCKREPETAG
1070
     1
1071
       48
1005
12CC25
  0
LINE
  5
12CC26
  8
OBJECT
 10
4140.0
 20
-261.99999999999909
 30
0.0
 11
4133.0
 21
-261.99999999999909
 31
0.0
1001
ACDBBLOCKREPETAG
1070
     1
1071
       49
1005
12CC26
  0
LINE
  5
12CC27
  8
OBJECT
 10
4133.0
 20
-261.99999999999909
 30
0.0
 11
4133.0
 21
-137.99999999999909
 31
0.0
1001
ACDBBLOCKREPETAG
1070
     1
1071
       50
1005
12CC27
  0
LINE
  5
12CC28
  8
CENTER
 10
4155.0
 20
-199.99999999999909
 30
0.0
 11
4080.0
 21
-199.99999999999909
 31
0.0
1001
ACDBBLOCKREPETAG
1070
     1
1071
       51
1005
12CC28
  0
LINE
  5
12CC29
  8
OBJECT
 10
4133.0
 20
-140.99999999999909
 30
0.0
 11
4097.0
 21
-140.99999999999909
 31
0.0
1001
ACDBBLOCKREPETAG
1070
     1
1071
       52
1005
12CC29
  0
LINE
  5
12CC2A
  8
OBJECT
 10
4097.0
 20
-140.99999999999909
 30
0.0
 11
4097.0
 21
-258.99999999999909
 31
0.0
1001
ACDBBLOCKREPETAG
1070
     1
1071
       53
1005
12CC2A
  0
LINE
  5
12CC2B
  8
OBJECT
 10
4097.0
 20
-258.99999999999909
 30
0.0
 11
4133.0
 21
-258.99999999999909
 31
0.0
1001
ACDBBLOCKREPETAG
1070
     1
1071
       54
1005
12CC2B
  0
LINE
  5
12CC2C
  8
OBJECT
 10
4093.0
 20
-145.49999999999909
 30
0.0
 11
4086.0
 21
-145.49999999999909
 31
0.0
1001
ACDBBLOCKREPETAG
1070
     1
1071
       55
1005
12CC2C
  0
LINE
  5
12CC2D
  8
OBJECT
 10
4086.0
 20
-254.49999999999909
 30
0.0
 11
4093.0
 21
-254.49999999999909
 31
0.0
1001
ACDBBLOCKREPETAG
1070
     1
1071
       56
1005
12CC2D
  0
LINE
  5
12CC2E
  8
OBJECT
 10
4093.0
 20
-254.49999999999909
 30
0.0
 11
4093.0
 21
-145.49999999999909
 31
0.0
1001
ACDBBLOCKREPETAG
1070
     1
1071
       57
1005
12CC2E
  0
LINE
  5
12CC2F
  8
OBJECT
 10
4097.0
 20
-140.99999999999909
 30
0.0
 11
4093.0
 21
-145.49999999999909
 31
0.0
1001
ACDBBLOCKREPETAG
1070
     1
1071
       58
1005
12CC2F
  0
LINE
  5
12CC30
  8
OBJECT
 10
4097.0
 20
-258.99999999999909
 30
0.0
 11
4093.0
 21
-254.49999999999909
 31
0.0
1001
ACDBBLOCKREPETAG
1070
     1
1071
       59
1005
12CC30
  0
LINE
  5
12CC31
  8
OBJECT
 10
4083.0
 20
-137.99999999999909
 30
0.0
 11
4080.0
 21
-137.99999999999909
 31
0.0
1001
ACDBBLOCKREPETAG
1070
     1
1071
       60
1005
12CC31
  0
ARC
  5
12CC32
  8
OBJECT
 10
4083.0
 20
-140.99999999999909
 30
0.0
 40
3.0
 50
0.0
 51
90.0
1001
ACDBBLOCKREPETAG
1070
     1
1071
       61
1005
12CC32
  0
LINE
  5
12CC33
  8
OBJECT
 10
4080.0
 20
-261.99999999999909
 30
0.0
 11
4083.0
 21
-261.99999999999909
 31
0.0
1001
ACDBBLOCKREPETAG
1070
     1
1071
       62
1005
12CC33
  0
ARC
  5
12CC34
  8
OBJECT
 10
4083.0
 20
-258.99999999999909
 30
0.0
 40
3.0
 50
270.0
 51
0.0
1001
ACDBBLOCKREPETAG
1070
     1
1071
       63
1005
12CC34
  0
LINE
  5
12CC35
  8
OBJECT
 10
4086.0
 20
-258.99999999999909
 30
0.0
 11
4086.0
 21
-140.99999999999909
 31
0.0
1001
ACDBBLOCKREPETAG
1070
     1
1071
       64
1005
12CC35
  0
LINE
  5
12CC36
  8
HIDDEN
 10
4088.0
 20
-155.49999999999909
 30
0.0
 11
4088.0
 21
-244.49999999999909
 31
0.0
1001
ACDBBLOCKREPETAG
1070
     1
1071
       65
1005
12CC36
  0
LINE
  5
12CC37
  8
OBJECT
 10
3867.0
 20
-634.0
 30
0.0
 11
3860.0
 21
-634.0
 31
0.0
1001
ACDBBLOCKREPETAG
1070
     1
1071
       45
1005
12CC37
  0
LINE
  5
12CC38
  8
OBJECT
 10
3860.0
 20
-634.0
 30
0.0
 11
3860.0
 21
-755.0
 31
0.0
1001
ACDBBLOCKREPETAG
1070
     1
1071
       46
1005
12CC38
  0
LINE
  5
12CC39
  8
OBJECT
 10
3867.0
 20
-755.0
 30
0.0
 11
3867.0
 21
-634.0
 31
0.0
1001
ACDBBLOCKREPETAG
1070
     1
1071
       47
1005
12CC39
  0
LINE
  5
12CC3A
  8
CENTER
 10
3845.0
 20
-696.0
 30
0.0
 11
3929.0
 21
-696.0
 31
0.0
1001
ACDBBLOCKREPETAG
1070
     1
1071
       48
1005
12CC3A
  0
LINE
  5
12CC3B
  8
OBJECT
 10
3867.0
 20
-637.0
 30
0.0
 11
3903.0
 21
-637.0
 31
0.0
1001
ACDBBLOCKREPETAG
1070
     1
1071
       49
1005
12CC3B
  0
LINE
  5
12CC3C
  8
OBJECT
 10
3903.0
 20
-637.0
 30
0.0
 11
3903.0
 21
-755.0
 31
0.0
1001
ACDBBLOCKREPETAG
1070
     1
1071
       50
1005
12CC3C
  0
LINE
  5
12CC3D
  8
OBJECT
 10
3903.0
 20
-755.0
 30
0.0
 11
3860.0
 21
-755.0
 31
0.0
1001
ACDBBLOCKREPETAG
1070
     1
1071
       51
1005
12CC3D
  0
LINE
  5
12CC3E
  8
OBJECT
 10
3907.0
 20
-641.5
 30
0.0
 11
3914.0
 21
-641.5
 31
0.0
1001
ACDBBLOCKREPETAG
1070
     1
1071
       52
1005
12CC3E
  0
LINE
  5
12CC3F
  8
OBJECT
 10
3914.0
 20
-750.49999999999989
 30
0.0
 11
3907.0
 21
-750.49999999999989
 31
0.0
1001
ACDBBLOCKREPETAG
1070
     1
1071
       53
1005
12CC3F
  0
LINE
  5
12CC40
  8
OBJECT
 10
3907.0
 20
-750.49999999999989
 30
0.0
 11
3907.0
 21
-641.5
 31
0.0
1001
ACDBBLOCKREPETAG
1070
     1
1071
       54
1005
12CC40
  0
LINE
  5
12CC41
  8
OBJECT
 10
3903.0
 20
-637.0
 30
0.0
 11
3907.0
 21
-641.5
 31
0.0
1001
ACDBBLOCKREPETAG
1070
     1
1071
       55
1005
12CC41
  0
LINE
  5
12CC42
  8
OBJECT
 10
3903.0
 20
-755.0
 30
0.0
 11
3907.0
 21
-750.49999999999989
 31
0.0
1001
ACDBBLOCKREPETAG
1070
     1
1071
       56
1005
12CC42
  0
LINE
  5
12CC43
  8
OBJECT
 10
3917.0
 20
-634.0
 30
0.0
 11
3920.0
 21
-634.0
 31
0.0
1001
ACDBBLOCKREPETAG
1070
     1
1071
       57
1005
12CC43
  0
ARC
  5
12CC44
  8
OBJECT
 10
3917.0
 20
-637.0
 30
0.0
 40
3.0
 50
90.0
 51
180.0
1001
ACDBBLOCKREPETAG
1070
     1
1071
       58
1005
12CC44
  0
LINE
  5
12CC45
  8
OBJECT
 10
3920.0
 20
-758.0
 30
0.0
 11
3917.0
 21
-758.0
 31
0.0
1001
ACDBBLOCKREPETAG
1070
     1
1071
       59
1005
12CC45
  0
ARC
  5
12CC46
  8
OBJECT
 10
3917.0
 20
-755.0
 30
0.0
 40
3.0
 50
180.0
 51
270.0
1001
ACDBBLOCKREPETAG
1070
     1
1071
       60
1005
12CC46
  0
LINE
  5
12CC47
  8
OBJECT
 10
3914.0
 20
-755.0
 30
0.0
 11
3914.0
 21
-637.0
 31
0.0
1001
ACDBBLOCKREPETAG
1070
     1
1071
       61
1005
12CC47
  0
LINE
  5
12CC48
  8
HIDDEN
 10
3912.0
 20
-651.5
 30
0.0
 11
3912.0
 21
-740.5
 31
0.0
1001
ACDBBLOCKREPETAG
1070
     1
1071
       63
1005
12CC48
  0
CIRCLE
  5
12CC49
  8
OBJECT
 10
4000.0
 20
-696.0
 30
0.0
 40
62.0
1001
ACDBBLOCKREPETAG
1070
     1
1071
        0
1005
12CC49
  0
LINE
  5
12CC4A
  8
OBJECT
 10
4133.0
 20
-634.0
 30
0.0
 11
4140.0
 21
-634.0
 31
0.0
1001
ACDBBLOCKREPETAG
1070
     1
1071
       45
1005
12CC4A
  0
LINE
  5
12CC4B
  8
OBJECT
 10
4140.0
 20
-634.0
 30
0.0
 11
4140.0
 21
-755.0
 31
0.0
1001
ACDBBLOCKREPETAG
1070
     1
1071
       46
1005
12CC4B
  0
LINE
  5
12CC4C
  8
OBJECT
 10
4133.0
 20
-755.0
 30
0.0
 11
4133.0
 21
-634.0
 31
0.0
1001
ACDBBLOCKREPETAG
1070
     1
1071
       47
1005
12CC4C
  0
LINE
  5
12CC4D
  8
CENTER
 10
4155.0
 20
-696.0
 30
0.0
 11
4071.0
 21
-696.0
 31
0.0
1001
ACDBBLOCKREPETAG
1070
     1
1071
       48
1005
12CC4D
  0
LINE
  5
12CC4E
  8
OBJECT
 10
4133.0
 20
-637.0
 30
0.0
 11
4097.0
 21
-637.0
 31
0.0
1001
ACDBBLOCKREPETAG
1070
     1
1071
       49
1005
12CC4E
  0
LINE
  5
12CC4F
  8
OBJECT
 10
4097.0
 20
-637.0
 30
0.0
 11
4097.0
 21
-755.0
 31
0.0
1001
ACDBBLOCKREPETAG
1070
     1
1071
       50
1005
12CC4F
  0
LINE
  5
12CC50
  8
OBJECT
 10
4097.0
 20
-755.0
 30
0.0
 11
4140.0
 21
-755.0
 31
0.0
1001
ACDBBLOCKREPETAG
1070
     1
1071
       51
1005
12CC50
  0
LINE
  5
12CC51
  8
OBJECT
 10
4093.0
 20
-641.5
 30
0.0
 11
4086.0
 21
-641.5
 31
0.0
1001
ACDBBLOCKREPETAG
1070
     1
1071
       52
1005
12CC51
  0
LINE
  5
12CC52
  8
OBJECT
 10
4086.0
 20
-750.49999999999989
 30
0.0
 11
4093.0
 21
-750.49999999999989
 31
0.0
1001
ACDBBLOCKREPETAG
1070
     1
1071
       53
1005
12CC52
  0
LINE
  5
12CC53
  8
OBJECT
 10
4093.0
 20
-750.49999999999989
 30
0.0
 11
4093.0
 21
-641.5
 31
0.0
1001
ACDBBLOCKREPETAG
1070
     1
1071
       54
1005
12CC53
  0
LINE
  5
12CC54
  8
OBJECT
 10
4097.0
 20
-637.0
 30
0.0
 11
4093.0
 21
-641.5
 31
0.0
1001
ACDBBLOCKREPETAG
1070
     1
1071
       55
1005
12CC54
  0
LINE
  5
12CC55
  8
OBJECT
 10
4097.0
 20
-755.0
 30
0.0
 11
4093.0
 21
-750.49999999999989
 31
0.0
1001
ACDBBLOCKREPETAG
1070
     1
1071
       56
1005
12CC55
  0
LINE
  5
12CC56
  8
OBJECT
 10
4083.0
 20
-634.0
 30
0.0
 11
4080.0
 21
-634.0
 31
0.0
1001
ACDBBLOCKREPETAG
1070
     1
1071
       57
1005
12CC56
  0
ARC
  5
12CC57
  8
OBJECT
 10
4083.0
 20
-637.0
 30
0.0
 40
3.0
 50
0.0
 51
90.0
1001
ACDBBLOCKREPETAG
1070
     1
1071
       58
1005
12CC57
  0
LINE
  5
12CC58
  8
OBJECT
 10
4080.0
 20
-758.0
 30
0.0
 11
4083.0
 21
-758.0
 31
0.0
1001
ACDBBLOCKREPETAG
1070
     1
1071
       59
1005
12CC58
  0
ARC
  5
12CC59
  8
OBJECT
 10
4083.0
 20
-755.0
 30
0.0
 40
3.0
 50
270.0
 51
0.0
1001
ACDBBLOCKREPETAG
1070
     1
1071
       60
1005
12CC59
  0
LINE
  5
12CC5A
  8
OBJECT
 10
4086.0
 20
-755.0
 30
0.0
 11
4086.0
 21
-637.0
 31
0.0
1001
ACDBBLOCKREPETAG
1070
     1
1071
       61
1005
12CC5A
  0
LINE
  5
12CC5B
  8
HIDDEN
 10
4088.0
 20
-651.5
 30
0.0
 11
4088.0
 21
-740.5
 31
0.0
1001
ACDBBLOCKREPETAG
1070
     1
1071
       63
1005
12CC5B
  0
POLYLINE
  5
12CC5C
  8
HIDDEN
 66
     1
 10
0.0
 20
0.0
 30
0.0
 70
     1
1001
ACDBBLOCKREPETAG
1070
     1
1071
      105
1005
0
  0
VERTEX
  5
12D1F3
  8
HIDDEN
 10
359.99999999987818
 20
0.0
 30
0.0
  0
VERTEX
  5
12D1F4
  8
HIDDEN
 10
719.99999999975626
 20
0.0
 30
0.0
  0
VERTEX
  5
12D1F5
  8
HIDDEN
 10
719.99999999975626
 20
-463.99999999984158
 30
0.0
  0
VERTEX
  5
12D1F6
  8
HIDDEN
 10
359.99999999987818
 20
-463.99999999984158
 30
0.0
  0
SEQEND
  5
12D1F7
  8
HIDDEN
  0
POLYLINE
  5
12CC5D
  8
HIDDEN
 66
     1
 10
0.0
 20
0.0
 30
0.0
 70
     1
1001
ACDBBLOCKREPETAG
1070
     1
1071
      110
1005
0
  0
VERTEX
  5
12D1F8
  8
HIDDEN
 10
0.0
 20
0.0
 30
0.0
  0
VERTEX
  5
12D1F9
  8
HIDDEN
 10
359.99999999987818
 20
0.0
 30
0.0
  0
VERTEX
  5
12D1FA
  8
HIDDEN
 10
359.99999999987818
 20
-463.99999999984158
 30
0.0
  0
VERTEX
  5
12D1FB
  8
HIDDEN
 10
0.0
 20
-463.99999999984158
 30
0.0
  0
SEQEND
  5
12D1FC
  8
HIDDEN
  0
POLYLINE
  5
12CC5E
  8
HIDDEN
 66
     1
 10
0.0
 20
0.0
 30
0.0
 70
     1
1001
ACDBBLOCKREPETAG
1070
     1
1071
      120
1005
0
  0
VERTEX
  5
12D1FD
  8
HIDDEN
 10
359.99999999987818
 20
-463.99999999984158
 30
0.0
  0
VERTEX
  5
12D1FE
  8
HIDDEN
 10
719.99999999975626
 20
-463.99999999984158
 30
0.0
  0
VERTEX
  5
12D1FF
  8
HIDDEN
 10
719.99999999975626
 20
-927.9999999996835
 30
0.0
  0
VERTEX
  5
12D200
  8
HIDDEN
 10
359.99999999987818
 20
-927.9999999996835
 30
0.0
  0
SEQEND
  5
12D201
  8
HIDDEN
  0
POLYLINE
  5
12CC5F
  8
HIDDEN
 66
     1
 10
0.0
 20
0.0
 30
0.0
 70
     1
1001
ACDBBLOCKREPETAG
1070
     1
1071
      125
1005
0
  0
VERTEX
  5
12D202
  8
HIDDEN
 10
0.0
 20
-463.99999999984158
 30
0.0
  0
VERTEX
  5
12D203
  8
HIDDEN
 10
359.99999999987818
 20
-463.99999999984158
 30
0.0
  0
VERTEX
  5
12D204
  8
HIDDEN
 10
359.99999999987818
 20
-927.9999999996835
 30
0.0
  0
VERTEX
  5
12D205
  8
HIDDEN
 10
0.0
 20
-927.9999999996835
 30
0.0
  0
SEQEND
  5
12D206
  8
HIDDEN
  0
POLYLINE
  5
12CC60
  8
HIDDEN
 66
     1
 10
0.0
 20
0.0
 30
0.0
 70
     1
1001
ACDBBLOCKREPETAG
1070
     1
1071
      130
1005
0
  0
VERTEX
  5
12D207
  8
HIDDEN
 10
359.99999999987818
 20
-927.9999999996835
 30
0.0
  0
VERTEX
  5
12D208
  8
HIDDEN
 10
719.99999999975626
 20
-927.9999999996835
 30
0.0
  0
VERTEX
  5
12D209
  8
HIDDEN
 10
719.99999999975626
 20
-1391.999999999525
 30
0.0
  0
VERTEX
  5
12D20A
  8
HIDDEN
 10
359.99999999987818
 20
-1391.999999999525
 30
0.0
  0
SEQEND
  5
12D20B
  8
HIDDEN
  0
POLYLINE
  5
12CC61
  8
HIDDEN
 66
     1
 10
0.0
 20
0.0
 30
0.0
 70
     1
1001
ACDBBLOCKREPETAG
1070
     1
1071
      135
1005
0
  0
VERTEX
  5
12D20C
  8
HIDDEN
 10
0.0
 20
-927.9999999996835
 30
0.0
  0
VERTEX
  5
12D20D
  8
HIDDEN
 10
359.99999999987818
 20
-927.9999999996835
 30
0.0
  0
VERTEX
  5
12D20E
  8
HIDDEN
 10
359.99999999987818
 20
-1391.999999999525
 30
0.0
  0
VERTEX
  5
12D20F
  8
HIDDEN
 10
0.0
 20
-1391.999999999525
 30
0.0
  0
SEQEND
  5
12D210
  8
HIDDEN
  0
POLYLINE
  5
12CC62
  8
HIDDEN
 66
     1
 10
0.0
 20
0.0
 30
0.0
 70
     1
1001
ACDBBLOCKREPETAG
1070
     1
1071
      160
1005
0
  0
VERTEX
  5
12D211
  8
HIDDEN
 10
359.99999999987818
 20
-1391.999999999525
 30
0.0
  0
VERTEX
  5
12D212
  8
HIDDEN
 10
719.99999999975626
 20
-1391.999999999525
 30
0.0
  0
VERTEX
  5
12D213
  8
HIDDEN
 10
719.99999999975626
 20
-1855.999999999367
 30
0.0
  0
VERTEX
  5
12D214
  8
HIDDEN
 10
359.99999999987818
 20
-1855.999999999367
 30
0.0
  0
SEQEND
  5
12D215
  8
HIDDEN
  0
POLYLINE
  5
12CC63
  8
HIDDEN
 66
     1
 10
0.0
 20
0.0
 30
0.0
 70
     1
1001
ACDBBLOCKREPETAG
1070
     1
1071
      165
1005
0
  0
VERTEX
  5
12D216
  8
HIDDEN
 10
0.0
 20
-1391.999999999525
 30
0.0
  0
VERTEX
  5
12D217
  8
HIDDEN
 10
359.99999999987818
 20
-1391.999999999525
 30
0.0
  0
VERTEX
  5
12D218
  8
HIDDEN
 10
359.99999999987818
 20
-1855.999999999367
 30
0.0
  0
VERTEX
  5
12D219
  8
HIDDEN
 10
0.0
 20
-1855.999999999367
 30
0.0
  0
SEQEND
  5
12D21A
  8
HIDDEN
  0
POLYLINE
  5
12CC64
  8
HIDDEN
 66
     1
 10
0.0
 20
0.0
 30
0.0
 70
     1
1001
ACDBBLOCKREPETAG
1070
     1
1071
      170
1005
0
  0
VERTEX
  5
12D21B
  8
HIDDEN
 10
359.99999999987818
 20
-1855.999999999367
 30
0.0
  0
VERTEX
  5
12D21C
  8
HIDDEN
 10
719.99999999975626
 20
-1855.999999999367
 30
0.0
  0
VERTEX
  5
12D21D
  8
HIDDEN
 10
719.99999999975626
 20
-2319.9999999992092
 30
0.0
  0
VERTEX
  5
12D21E
  8
HIDDEN
 10
359.99999999987818
 20
-2319.9999999992092
 30
0.0
  0
SEQEND
  5
12D21F
  8
HIDDEN
  0
POLYLINE
  5
12CC65
  8
HIDDEN
 66
     1
 10
0.0
 20
0.0
 30
0.0
 70
     1
1001
ACDBBLOCKREPETAG
1070
     1
1071
      175
1005
0
  0
VERTEX
  5
12D220
  8
HIDDEN
 10
0.0
 20
-1855.999999999367
 30
0.0
  0
VERTEX
  5
12D221
  8
HIDDEN
 10
359.99999999987818
 20
-1855.999999999367
 30
0.0
  0
VERTEX
  5
12D222
  8
HIDDEN
 10
359.99999999987818
 20
-2319.9999999992092
 30
0.0
  0
VERTEX
  5
12D223
  8
HIDDEN
 10
0.0
 20
-2319.9999999992092
 30
0.0
  0
SEQEND
  5
12D224
  8
HIDDEN
  0
TEXT
  5
12CC66
  8
SLIM
 10
420.17142857124622
 20
-2299.999999999216
 30
0.0
 40
48.0
  1
B404（特）
 41
0.75
1001
ACDBBLOCKREPETAG
1070
     1
1071
      119
1005
12AEEF
  0
LINE
  5
12CC67
  8
OBJECT
 10
610.99999999849024
 20
-2201.9999999970728
 30
0.0
 11
610.99999999849024
 21
-2194.9999999970728
 31
0.0
1001
ACDBBLOCKREPETAG
1070
     1
1071
       57
1005
12CC67
  0
LINE
  5
12CC68
  8
OBJECT
 10
610.99999999849024
 20
-2194.9999999970728
 30
0.0
 11
460.99999999849018
 21
-2194.9999999970728
 31
0.0
1001
ACDBBLOCKREPETAG
1070
     1
1071
       58
1005
12CC68
  0
LINE
  5
12CC69
  8
OBJECT
 10
607.99999999849024
 20
-2153.4999999970728
 30
0.0
 11
463.99999999849018
 21
-2153.4999999970728
 31
0.0
1001
ACDBBLOCKREPETAG
1070
     1
1071
       59
1005
12CC69
  0
LINE
  5
12CC6A
  8
OBJECT
 10
601.49999999849024
 20
-2141.9999999970728
 30
0.0
 11
470.49999999849018
 21
-2141.9999999970728
 31
0.0
1001
ACDBBLOCKREPETAG
1070
     1
1071
       60
1005
12CC6A
  0
LINE
  5
12CC6B
  8
OBJECT
 10
460.99999999849018
 20
-2194.9999999970728
 30
0.0
 11
460.99999999849018
 21
-2201.9999999970728
 31
0.0
1001
ACDBBLOCKREPETAG
1070
     1
1071
       61
1005
12CC6B
  0
LINE
  5
12CC6C
  8
OBJECT
 10
460.99999999849018
 20
-2201.9999999970728
 30
0.0
 11
610.99999999849024
 21
-2201.9999999970728
 31
0.0
1001
ACDBBLOCKREPETAG
1070
     1
1071
       62
1005
12CC6C
  0
LINE
  5
12CC6D
  8
OBJECT
 10
473.99999999849018
 20
-2137.9999999970728
 30
0.0
 11
473.99999999849018
 21
-2131.9999999970751
 31
0.0
1001
ACDBBLOCKREPETAG
1070
     1
1071
       63
1005
12CC6D
  0
LINE
  5
12CC6E
  8
OBJECT
 10
463.99999999849018
 20
-2194.9999999970728
 30
0.0
 11
463.99999999849018
 21
-2153.4999999970728
 31
0.0
1001
ACDBBLOCKREPETAG
1070
     1
1071
       64
1005
12CC6E
  0
LINE
  5
12CC6F
  8
OBJECT
 10
463.99999999849018
 20
-2153.4999999970728
 30
0.0
 11
470.49999999849018
 21
-2141.9999999970728
 31
0.0
1001
ACDBBLOCKREPETAG
1070
     1
1071
       65
1005
12CC6F
  0
LINE
  5
12CC70
  8
OBJECT
 10
470.49999999849018
 20
-2141.9999999970728
 30
0.0
 11
473.99999999849018
 21
-2137.9999999970728
 31
0.0
1001
ACDBBLOCKREPETAG
1070
     1
1071
       66
1005
12CC70
  0
LINE
  5
12CC71
  8
OBJECT
 10
607.99999999849024
 20
-2153.4999999970728
 30
0.0
 11
601.49999999849024
 21
-2141.9999999970728
 31
0.0
1001
ACDBBLOCKREPETAG
1070
     1
1071
       67
1005
12CC71
  0
LINE
  5
12CC72
  8
OBJECT
 10
601.49999999849024
 20
-2141.9999999970728
 30
0.0
 11
597.99999999849024
 21
-2137.9999999970728
 31
0.0
1001
ACDBBLOCKREPETAG
1070
     1
1071
       68
1005
12CC72
  0
ARC
  5
12CC73
  8
OBJECT
 10
535.99999999849024
 20
-2519.8999999970752
 30
0.0
 40
386.89999999999998
 50
80.778701362368551
 51
99.221298637631435
1001
ACDBBLOCKREPETAG
1070
     1
1071
       69
1005
12CC73
  0
LINE
  5
12CC74
  8
OBJECT
 10
597.99999999849024
 20
-2137.9999999970728
 30
0.0
 11
597.99999999849024
 21
-2131.9999999970751
 31
0.0
1001
ACDBBLOCKREPETAG
1070
     1
1071
       70
1005
12CC74
  0
LINE
  5
12CC75
  8
OBJECT
 10
607.99999999849024
 20
-2194.9999999970728
 30
0.0
 11
607.99999999849024
 21
-2153.4999999970728
 31
0.0
1001
ACDBBLOCKREPETAG
1070
     1
1071
       71
1005
12CC75
  0
INSERT
  5
12CC76
  8
OBJECT
  2
*U5
 10
0.0
 20
0.0
 30
0.0
  0
LINE
  5
12CC77
  8
HIDDEN
 10
478.99999999849018
 20
-2149.9999999970728
 30
0.0
 11
592.99999999849024
 21
-2149.9999999970728
 31
0.0
1001
ACDBBLOCKREPETAG
1070
     1
1071
      437
1005
12CC77
  0
LINE
  5
12CC78
  8
OBJECT
 10
618.99999999849024
 20
-2113.9999999970728
 30
0.0
 11
615.99999999849024
 21
-2113.9999999970728
 31
0.0
1001
ACDBBLOCKREPETAG
1070
     1
1071
      418
1005
12CC78
  0
ARC
  5
12CC79
  8
OBJECT
 10
618.99999999849024
 20
-2110.9999999970728
 30
0.0
 40
3.0
 50
270.0
 51
0.0
1001
ACDBBLOCKREPETAG
1070
     1
1071
      419
1005
12CC79
  0
LINE
  5
12CC7A
  8
OBJECT
 10
615.99999999849024
 20
-1989.999999997073
 30
0.0
 11
618.99999999849024
 21
-1989.999999997073
 31
0.0
1001
ACDBBLOCKREPETAG
1070
     1
1071
      420
1005
12CC7A
  0
ARC
  5
12CC7B
  8
OBJECT
 10
618.99999999849024
 20
-1992.999999997073
 30
0.0
 40
3.0
 50
0.0
 51
90.0
1001
ACDBBLOCKREPETAG
1070
     1
1071
      421
1005
12CC7B
  0
LINE
  5
12CC7C
  8
OBJECT
 10
621.99999999849024
 20
-1992.999999997073
 30
0.0
 11
621.99999999849024
 21
-2110.9999999970728
 31
0.0
1001
ACDBBLOCKREPETAG
1070
     1
1071
      422
1005
12CC7C
  0
LINE
  5
12CC7D
  8
OBJECT
 10
460.99999999849018
 20
-1901.999999997073
 30
0.0
 11
460.99999999849018
 21
-1908.999999997073
 31
0.0
1001
ACDBBLOCKREPETAG
1070
     1
1071
       57
1005
12CC7D
  0
LINE
  5
12CC7E
  8
OBJECT
 10
460.99999999849018
 20
-1908.999999997073
 30
0.0
 11
610.99999999849024
 21
-1908.999999997073
 31
0.0
1001
ACDBBLOCKREPETAG
1070
     1
1071
       58
1005
12CC7E
  0
LINE
  5
12CC7F
  8
OBJECT
 10
463.99999999849018
 20
-1950.499999997073
 30
0.0
 11
607.99999999849024
 21
-1950.499999997073
 31
0.0
1001
ACDBBLOCKREPETAG
1070
     1
1071
       59
1005
12CC7F
  0
LINE
  5
12CC80
  8
OBJECT
 10
470.49999999849018
 20
-1961.999999997073
 30
0.0
 11
601.49999999849024
 21
-1961.999999997073
 31
0.0
1001
ACDBBLOCKREPETAG
1070
     1
1071
       60
1005
12CC80
  0
LINE
  5
12CC81
  8
OBJECT
 10
610.99999999849024
 20
-1908.999999997073
 30
0.0
 11
610.99999999849024
 21
-1901.999999997073
 31
0.0
1001
ACDBBLOCKREPETAG
1070
     1
1071
       61
1005
12CC81
  0
LINE
  5
12CC82
  8
OBJECT
 10
610.99999999849024
 20
-1901.999999997073
 30
0.0
 11
460.99999999849018
 21
-1901.999999997073
 31
0.0
1001
ACDBBLOCKREPETAG
1070
     1
1071
       62
1005
12CC82
  0
LINE
  5
12CC83
  8
OBJECT
 10
597.99999999849024
 20
-1965.999999997073
 30
0.0
 11
597.99999999849024
 21
-1971.999999997073
 31
0.0
1001
ACDBBLOCKREPETAG
1070
     1
1071
       63
1005
12CC83
  0
LINE
  5
12CC84
  8
OBJECT
 10
607.99999999849024
 20
-1908.999999997073
 30
0.0
 11
607.99999999849024
 21
-1950.499999997073
 31
0.0
1001
ACDBBLOCKREPETAG
1070
     1
1071
       64
1005
12CC84
  0
LINE
  5
12CC85
  8
OBJECT
 10
607.99999999849024
 20
-1950.499999997073
 30
0.0
 11
601.49999999849024
 21
-1961.999999997073
 31
0.0
1001
ACDBBLOCKREPETAG
1070
     1
1071
       65
1005
12CC85
  0
LINE
  5
12CC86
  8
OBJECT
 10
601.49999999849024
 20
-1961.999999997073
 30
0.0
 11
597.99999999849024
 21
-1965.999999997073
 31
0.0
1001
ACDBBLOCKREPETAG
1070
     1
1071
       66
1005
12CC86
  0
LINE
  5
12CC87
  8
OBJECT
 10
463.99999999849018
 20
-1950.499999997073
 30
0.0
 11
470.49999999849018
 21
-1961.999999997073
 31
0.0
1001
ACDBBLOCKREPETAG
1070
     1
1071
       67
1005
12CC87
  0
LINE
  5
12CC88
  8
OBJECT
 10
470.49999999849018
 20
-1961.999999997073
 30
0.0
 11
473.99999999849018
 21
-1965.999999997073
 31
0.0
1001
ACDBBLOCKREPETAG
1070
     1
1071
       68
1005
12CC88
  0
ARC
  5
12CC89
  8
OBJECT
 10
535.99999999849024
 20
-1584.099999997072
 30
0.0
 40
386.89999999999998
 50
260.77870136257849
 51
279.22129863742163
1001
ACDBBLOCKREPETAG
1070
     1
1071
       69
1005
12CC89
  0
LINE
  5
12CC8A
  8
OBJECT
 10
473.99999999849018
 20
-1965.999999997073
 30
0.0
 11
473.99999999849018
 21
-1971.999999997073
 31
0.0
1001
ACDBBLOCKREPETAG
1070
     1
1071
       70
1005
12CC8A
  0
LINE
  5
12CC8B
  8
OBJECT
 10
463.99999999849018
 20
-1908.999999997073
 30
0.0
 11
463.99999999849018
 21
-1950.499999997073
 31
0.0
1001
ACDBBLOCKREPETAG
1070
     1
1071
       71
1005
12CC8B
  0
INSERT
  5
12CC8C
  8
OBJECT
  2
*U6
 10
0.0
 20
0.0
 30
0.0
  0
LINE
  5
12CC8D
  8
HIDDEN
 10
592.99999999849024
 20
-1953.999999997073
 30
0.0
 11
478.99999999849018
 21
-1953.999999997073
 31
0.0
1001
ACDBBLOCKREPETAG
1070
     1
1071
      431
1005
12CC8D
  0
TEXT
  5
12CC8E
  8
SLIM
 10
60.171428571368068
 20
-2299.999999999216
 30
0.0
 40
48.0
  1
B304（特）
 41
0.75
1001
ACDBBLOCKREPETAG
1070
     1
1071
      119
1005
12AEEF
  0
LINE
  5
12CC8F
  8
OBJECT
 10
250.99999999861211
 20
-2201.9999999970728
 30
0.0
 11
250.99999999861211
 21
-2194.9999999970728
 31
0.0
1001
ACDBBLOCKREPETAG
1070
     1
1071
       57
1005
12CC8F
  0
LINE
  5
12CC90
  8
OBJECT
 10
250.99999999861211
 20
-2194.9999999970728
 30
0.0
 11
100.9999999986121
 21
-2194.9999999970728
 31
0.0
1001
ACDBBLOCKREPETAG
1070
     1
1071
       58
1005
12CC90
  0
LINE
  5
12CC91
  8
OBJECT
 10
247.99999999861211
 20
-2153.4999999970728
 30
0.0
 11
103.9999999986121
 21
-2153.4999999970728
 31
0.0
1001
ACDBBLOCKREPETAG
1070
     1
1071
       59
1005
12CC91
  0
LINE
  5
12CC92
  8
OBJECT
 10
241.49999999861211
 20
-2141.9999999970728
 30
0.0
 11
110.4999999986121
 21
-2141.9999999970728
 31
0.0
1001
ACDBBLOCKREPETAG
1070
     1
1071
       60
1005
12CC92
  0
LINE
  5
12CC93
  8
OBJECT
 10
100.9999999986121
 20
-2194.9999999970728
 30
0.0
 11
100.9999999986121
 21
-2201.9999999970728
 31
0.0
1001
ACDBBLOCKREPETAG
1070
     1
1071
       61
1005
12CC93
  0
LINE
  5
12CC94
  8
OBJECT
 10
100.9999999986121
 20
-2201.9999999970728
 30
0.0
 11
250.99999999861211
 21
-2201.9999999970728
 31
0.0
1001
ACDBBLOCKREPETAG
1070
     1
1071
       62
1005
12CC94
  0
LINE
  5
12CC95
  8
OBJECT
 10
113.9999999986121
 20
-2137.9999999970728
 30
0.0
 11
113.9999999986121
 21
-2131.9999999970751
 31
0.0
1001
ACDBBLOCKREPETAG
1070
     1
1071
       63
1005
12CC95
  0
LINE
  5
12CC96
  8
OBJECT
 10
103.9999999986121
 20
-2194.9999999970728
 30
0.0
 11
103.9999999986121
 21
-2153.4999999970728
 31
0.0
1001
ACDBBLOCKREPETAG
1070
     1
1071
       64
1005
12CC96
  0
LINE
  5
12CC97
  8
OBJECT
 10
103.9999999986121
 20
-2153.4999999970728
 30
0.0
 11
110.4999999986121
 21
-2141.9999999970728
 31
0.0
1001
ACDBBLOCKREPETAG
1070
     1
1071
       65
1005
12CC97
  0
LINE
  5
12CC98
  8
OBJECT
 10
110.4999999986121
 20
-2141.9999999970728
 30
0.0
 11
113.9999999986121
 21
-2137.9999999970728
 31
0.0
1001
ACDBBLOCKREPETAG
1070
     1
1071
       66
1005
12CC98
  0
LINE
  5
12CC99
  8
OBJECT
 10
247.99999999861211
 20
-2153.4999999970728
 30
0.0
 11
241.49999999861211
 21
-2141.9999999970728
 31
0.0
1001
ACDBBLOCKREPETAG
1070
     1
1071
       67
1005
12CC99
  0
LINE
  5
12CC9A
  8
OBJECT
 10
241.49999999861211
 20
-2141.9999999970728
 30
0.0
 11
237.99999999861211
 21
-2137.9999999970728
 31
0.0
1001
ACDBBLOCKREPETAG
1070
     1
1071
       68
1005
12CC9A
  0
ARC
  5
12CC9B
  8
OBJECT
 10
175.99999999861211
 20
-2519.8999999970752
 30
0.0
 40
386.89999999999998
 50
80.778701362368551
 51
99.221298637631435
1001
ACDBBLOCKREPETAG
1070
     1
1071
       69
1005
12CC9B
  0
LINE
  5
12CC9C
  8
OBJECT
 10
237.99999999861211
 20
-2137.9999999970728
 30
0.0
 11
237.99999999861211
 21
-2131.9999999970751
 31
0.0
1001
ACDBBLOCKREPETAG
1070
     1
1071
       70
1005
12CC9C
  0
LINE
  5
12CC9D
  8
OBJECT
 10
247.99999999861211
 20
-2194.9999999970728
 30
0.0
 11
247.99999999861211
 21
-2153.4999999970728
 31
0.0
1001
ACDBBLOCKREPETAG
1070
     1
1071
       71
1005
12CC9D
  0
INSERT
  5
12CC9E
  8
OBJECT
  2
*U7
 10
0.0
 20
0.0
 30
0.0
  0
LINE
  5
12CC9F
  8
HIDDEN
 10
118.9999999986121
 20
-2149.9999999970728
 30
0.0
 11
232.99999999861211
 21
-2149.9999999970728
 31
0.0
1001
ACDBBLOCKREPETAG
1070
     1
1071
      437
1005
12CC9F
  0
LINE
  5
12CCA0
  8
OBJECT
 10
258.99999999861211
 20
-2113.9999999970728
 30
0.0
 11
255.99999999861211
 21
-2113.9999999970728
 31
0.0
1001
ACDBBLOCKREPETAG
1070
     1
1071
      418
1005
12CCA0
  0
ARC
  5
12CCA1
  8
OBJECT
 10
258.99999999861211
 20
-2110.9999999970728
 30
0.0
 40
3.0
 50
270.0
 51
0.0
1001
ACDBBLOCKREPETAG
1070
     1
1071
      419
1005
12CCA1
  0
LINE
  5
12CCA2
  8
OBJECT
 10
255.99999999861211
 20
-1989.999999997073
 30
0.0
 11
258.99999999861211
 21
-1989.999999997073
 31
0.0
1001
ACDBBLOCKREPETAG
1070
     1
1071
      420
1005
12CCA2
  0
ARC
  5
12CCA3
  8
OBJECT
 10
258.99999999861211
 20
-1992.999999997073
 30
0.0
 40
3.0
 50
0.0
 51
90.0
1001
ACDBBLOCKREPETAG
1070
     1
1071
      421
1005
12CCA3
  0
LINE
  5
12CCA4
  8
OBJECT
 10
261.99999999861211
 20
-1992.999999997073
 30
0.0
 11
261.99999999861211
 21
-2110.9999999970728
 31
0.0
1001
ACDBBLOCKREPETAG
1070
     1
1071
      422
1005
12CCA4
  0
INSERT
  5
12CCA5
  8
OBJECT
  2
*U8
 10
0.0
 20
0.0
 30
0.0
  0
LINE
  5
12CCA6
  8
OBJECT
 10
113.9999999986121
 20
-1918.999999997073
 30
0.0
 11
113.9999999986121
 21
-1911.999999997073
 31
0.0
1001
ACDBBLOCKREPETAG
1070
     1
1071
       39
1005
12CCA6
  0
LINE
  5
12CCA7
  8
OBJECT
 10
113.9999999986121
 20
-1911.999999997073
 30
0.0
 11
237.99999999861211
 21
-1911.999999997073
 31
0.0
1001
ACDBBLOCKREPETAG
1070
     1
1071
       40
1005
12CCA7
  0
LINE
  5
12CCA8
  8
OBJECT
 10
237.99999999861211
 20
-1911.999999997073
 30
0.0
 11
237.99999999861211
 21
-1918.999999997073
 31
0.0
1001
ACDBBLOCKREPETAG
1070
     1
1071
       41
1005
12CCA8
  0
LINE
  5
12CCA9
  8
OBJECT
 10
237.99999999861211
 20
-1918.999999997073
 30
0.0
 11
113.9999999986121
 21
-1918.999999997073
 31
0.0
1001
ACDBBLOCKREPETAG
1070
     1
1071
       42
1005
12CCA9
  0
LINE
  5
12CCAA
  8
OBJECT
 10
116.9999999986121
 20
-1918.999999997073
 30
0.0
 11
116.9999999986121
 21
-1954.999999997073
 31
0.0
1001
ACDBBLOCKREPETAG
1070
     1
1071
       43
1005
12CCAA
  0
LINE
  5
12CCAB
  8
OBJECT
 10
116.9999999986121
 20
-1954.999999997073
 30
0.0
 11
234.99999999861211
 21
-1954.999999997073
 31
0.0
1001
ACDBBLOCKREPETAG
1070
     1
1071
       44
1005
12CCAB
  0
LINE
  5
12CCAC
  8
OBJECT
 10
234.99999999861211
 20
-1954.999999997073
 30
0.0
 11
234.99999999861211
 21
-1918.999999997073
 31
0.0
1001
ACDBBLOCKREPETAG
1070
     1
1071
       45
1005
12CCAC
  0
LINE
  5
12CCAD
  8
OBJECT
 10
121.4999999986121
 20
-1958.999999997073
 30
0.0
 11
121.4999999986121
 21
-1965.999999997073
 31
0.0
1001
ACDBBLOCKREPETAG
1070
     1
1071
       46
1005
12CCAD
  0
LINE
  5
12CCAE
  8
OBJECT
 10
230.49999999861211
 20
-1965.999999997073
 30
0.0
 11
230.49999999861211
 21
-1958.999999997073
 31
0.0
1001
ACDBBLOCKREPETAG
1070
     1
1071
       47
1005
12CCAE
  0
LINE
  5
12CCAF
  8
OBJECT
 10
230.49999999861211
 20
-1958.999999997073
 30
0.0
 11
121.4999999986121
 21
-1958.999999997073
 31
0.0
1001
ACDBBLOCKREPETAG
1070
     1
1071
       48
1005
12CCAF
  0
LINE
  5
12CCB0
  8
OBJECT
 10
116.9999999986121
 20
-1954.999999997073
 30
0.0
 11
121.4999999986121
 21
-1958.999999997073
 31
0.0
1001
ACDBBLOCKREPETAG
1070
     1
1071
       49
1005
12CCB0
  0
LINE
  5
12CCB1
  8
OBJECT
 10
234.99999999861211
 20
-1954.999999997073
 30
0.0
 11
230.49999999861211
 21
-1958.999999997073
 31
0.0
1001
ACDBBLOCKREPETAG
1070
     1
1071
       50
1005
12CCB1
  0
LINE
  5
12CCB2
  8
OBJECT
 10
113.9999999986121
 20
-1968.9999999970721
 30
0.0
 11
113.9999999986121
 21
-1971.999999997073
 31
0.0
1001
ACDBBLOCKREPETAG
1070
     1
1071
       51
1005
12CCB2
  0
ARC
  5
12CCB3
  8
OBJECT
 10
116.9999999986121
 20
-1968.9999999970721
 30
0.0
 40
3.0
 50
90.0
 51
180.0
1001
ACDBBLOCKREPETAG
1070
     1
1071
       52
1005
12CCB3
  0
LINE
  5
12CCB4
  8
OBJECT
 10
237.99999999861211
 20
-1971.999999997073
 30
0.0
 11
237.99999999861211
 21
-1968.999999997073
 31
0.0
1001
ACDBBLOCKREPETAG
1070
     1
1071
       53
1005
12CCB4
  0
ARC
  5
12CCB5
  8
OBJECT
 10
234.99999999861211
 20
-1968.999999997073
 30
0.0
 40
3.0
 50
0.0
 51
90.0
1001
ACDBBLOCKREPETAG
1070
     1
1071
       54
1005
12CCB5
  0
LINE
  5
12CCB6
  8
OBJECT
 10
234.99999999861211
 20
-1965.999999997073
 30
0.0
 11
116.9999999986121
 21
-1965.9999999970721
 31
0.0
1001
ACDBBLOCKREPETAG
1070
     1
1071
       55
1005
12CCB6
  0
LINE
  5
12CCB7
  8
HIDDEN
 10
131.49999999861211
 20
-1963.999999997073
 30
0.0
 11
220.49999999861211
 21
-1963.999999997073
 31
0.0
1001
ACDBBLOCKREPETAG
1070
     1
1071
      426
1005
12CCB7
  0
TEXT
  5
12CCB8
  8
SLIM
 10
420.17142857124622
 20
-1835.9999999993749
 30
0.0
 40
48.0
  1
B303（特）
 41
0.75
1001
ACDBBLOCKREPETAG
1070
     1
1071
      119
1005
12AEEF
  0
LINE
  5
12CCB9
  8
OBJECT
 10
597.99999999849024
 20
-1720.999999997231
 30
0.0
 11
597.99999999849024
 21
-1727.999999997231
 31
0.0
1001
ACDBBLOCKREPETAG
1070
     1
1071
       38
1005
12CCB9
  0
LINE
  5
12CCBA
  8
OBJECT
 10
597.99999999849024
 20
-1727.999999997231
 30
0.0
 11
473.99999999849018
 21
-1727.999999997231
 31
0.0
1001
ACDBBLOCKREPETAG
1070
     1
1071
       39
1005
12CCBA
  0
LINE
  5
12CCBB
  8
OBJECT
 10
473.99999999849018
 20
-1727.999999997231
 30
0.0
 11
473.99999999849018
 21
-1720.999999997231
 31
0.0
1001
ACDBBLOCKREPETAG
1070
     1
1071
       40
1005
12CCBB
  0
LINE
  5
12CCBC
  8
OBJECT
 10
473.99999999849018
 20
-1720.999999997231
 30
0.0
 11
597.99999999849024
 21
-1720.999999997231
 31
0.0
1001
ACDBBLOCKREPETAG
1070
     1
1071
       41
1005
12CCBC
  0
LINE
  5
12CCBD
  8
OBJECT
 10
594.99999999849024
 20
-1720.999999997231
 30
0.0
 11
594.99999999849024
 21
-1684.999999997231
 31
0.0
1001
ACDBBLOCKREPETAG
1070
     1
1071
       42
1005
12CCBD
  0
LINE
  5
12CCBE
  8
OBJECT
 10
594.99999999849024
 20
-1684.999999997231
 30
0.0
 11
476.99999999849018
 21
-1684.999999997231
 31
0.0
1001
ACDBBLOCKREPETAG
1070
     1
1071
       43
1005
12CCBE
  0
LINE
  5
12CCBF
  8
OBJECT
 10
476.99999999849018
 20
-1684.999999997231
 30
0.0
 11
476.99999999849018
 21
-1720.999999997231
 31
0.0
1001
ACDBBLOCKREPETAG
1070
     1
1071
       44
1005
12CCBF
  0
LINE
  5
12CCC0
  8
OBJECT
 10
590.49999999849024
 20
-1680.999999997231
 30
0.0
 11
590.49999999849024
 21
-1673.999999997231
 31
0.0
1001
ACDBBLOCKREPETAG
1070
     1
1071
       45
1005
12CCC0
  0
LINE
  5
12CCC1
  8
OBJECT
 10
481.49999999849018
 20
-1673.999999997231
 30
0.0
 11
481.49999999849018
 21
-1680.999999997231
 31
0.0
1001
ACDBBLOCKREPETAG
1070
     1
1071
       46
1005
12CCC1
  0
LINE
  5
12CCC2
  8
OBJECT
 10
481.49999999849018
 20
-1680.999999997231
 30
0.0
 11
590.49999999849024
 21
-1680.999999997231
 31
0.0
1001
ACDBBLOCKREPETAG
1070
     1
1071
       47
1005
12CCC2
  0
LINE
  5
12CCC3
  8
OBJECT
 10
594.99999999849024
 20
-1684.999999997231
 30
0.0
 11
590.49999999849024
 21
-1680.999999997231
 31
0.0
1001
ACDBBLOCKREPETAG
1070
     1
1071
       48
1005
12CCC3
  0
LINE
  5
12CCC4
  8
OBJECT
 10
476.99999999849018
 20
-1684.999999997231
 30
0.0
 11
481.49999999849018
 21
-1680.999999997231
 31
0.0
1001
ACDBBLOCKREPETAG
1070
     1
1071
       49
1005
12CCC4
  0
LINE
  5
12CCC5
  8
OBJECT
 10
597.99999999849024
 20
-1670.999999997231
 30
0.0
 11
597.99999999849024
 21
-1667.999999997231
 31
0.0
1001
ACDBBLOCKREPETAG
1070
     1
1071
       50
1005
12CCC5
  0
ARC
  5
12CCC6
  8
OBJECT
 10
594.99999999849024
 20
-1670.999999997231
 30
0.0
 40
3.0
 50
270.0
 51
0.0
1001
ACDBBLOCKREPETAG
1070
     1
1071
       51
1005
12CCC6
  0
LINE
  5
12CCC7
  8
OBJECT
 10
473.99999999849018
 20
-1667.999999997231
 30
0.0
 11
473.99999999849018
 21
-1670.999999997231
 31
0.0
1001
ACDBBLOCKREPETAG
1070
     1
1071
       52
1005
12CCC7
  0
ARC
  5
12CCC8
  8
OBJECT
 10
476.99999999849018
 20
-1670.999999997231
 30
0.0
 40
3.0
 50
180.0
 51
270.0
1001
ACDBBLOCKREPETAG
1070
     1
1071
       53
1005
12CCC8
  0
LINE
  5
12CCC9
  8
OBJECT
 10
476.99999999849018
 20
-1673.9999999972299
 30
0.0
 11
594.99999999849024
 21
-1673.999999997232
 31
0.0
1001
ACDBBLOCKREPETAG
1070
     1
1071
       54
1005
12CCC9
  0
INSERT
  5
12CCCA
  8
OBJECT
  2
*U9
 10
0.0
 20
0.0
 30
0.0
  0
LINE
  5
12CCCB
  8
HIDDEN
 10
580.49999999849024
 20
-1675.999999997231
 30
0.0
 11
491.49999999849018
 21
-1675.999999997231
 31
0.0
1001
ACDBBLOCKREPETAG
1070
     1
1071
      430
1005
12CCCB
  0
LINE
  5
12CCCC
  8
OBJECT
 10
618.99999999849024
 20
-1649.999999997231
 30
0.0
 11
615.99999999849024
 21
-1649.999999997231
 31
0.0
1001
ACDBBLOCKREPETAG
1070
     1
1071
      418
1005
12CCCC
  0
ARC
  5
12CCCD
  8
OBJECT
 10
618.99999999849024
 20
-1646.999999997231
 30
0.0
 40
3.0
 50
270.0
 51
0.0
1001
ACDBBLOCKREPETAG
1070
     1
1071
      419
1005
12CCCD
  0
LINE
  5
12CCCE
  8
OBJECT
 10
615.99999999849024
 20
-1525.999999997231
 30
0.0
 11
618.99999999849024
 21
-1525.999999997231
 31
0.0
1001
ACDBBLOCKREPETAG
1070
     1
1071
      420
1005
12CCCE
  0
ARC
  5
12CCCF
  8
OBJECT
 10
618.99999999849024
 20
-1528.999999997231
 30
0.0
 40
3.0
 50
0.0
 51
90.0
1001
ACDBBLOCKREPETAG
1070
     1
1071
      421
1005
12CCCF
  0
LINE
  5
12CCD0
  8
OBJECT
 10
621.99999999849024
 20
-1528.999999997231
 30
0.0
 11
621.99999999849024
 21
-1646.999999997231
 31
0.0
1001
ACDBBLOCKREPETAG
1070
     1
1071
      422
1005
12CCD0
  0
INSERT
  5
12CCD1
  8
OBJECT
  2
*U10
 10
0.0
 20
0.0
 30
0.0
  0
LINE
  5
12CCD2
  8
OBJECT
 10
473.99999999849018
 20
-1454.999999997231
 30
0.0
 11
473.99999999849018
 21
-1447.999999997231
 31
0.0
1001
ACDBBLOCKREPETAG
1070
     1
1071
       39
1005
12CCD2
  0
LINE
  5
12CCD3
  8
OBJECT
 10
473.99999999849018
 20
-1447.999999997231
 30
0.0
 11
597.99999999849024
 21
-1447.999999997231
 31
0.0
1001
ACDBBLOCKREPETAG
1070
     1
1071
       40
1005
12CCD3
  0
LINE
  5
12CCD4
  8
OBJECT
 10
597.99999999849024
 20
-1447.999999997231
 30
0.0
 11
597.99999999849024
 21
-1454.999999997231
 31
0.0
1001
ACDBBLOCKREPETAG
1070
     1
1071
       41
1005
12CCD4
  0
LINE
  5
12CCD5
  8
OBJECT
 10
597.99999999849024
 20
-1454.999999997231
 30
0.0
 11
473.99999999849018
 21
-1454.999999997231
 31
0.0
1001
ACDBBLOCKREPETAG
1070
     1
1071
       42
1005
12CCD5
  0
LINE
  5
12CCD6
  8
OBJECT
 10
476.99999999849018
 20
-1454.999999997231
 30
0.0
 11
476.99999999849018
 21
-1490.999999997231
 31
0.0
1001
ACDBBLOCKREPETAG
1070
     1
1071
       43
1005
12CCD6
  0
LINE
  5
12CCD7
  8
OBJECT
 10
476.99999999849018
 20
-1490.999999997231
 30
0.0
 11
594.99999999849024
 21
-1490.999999997231
 31
0.0
1001
ACDBBLOCKREPETAG
1070
     1
1071
       44
1005
12CCD7
  0
LINE
  5
12CCD8
  8
OBJECT
 10
594.99999999849024
 20
-1490.999999997231
 30
0.0
 11
594.99999999849024
 21
-1454.999999997231
 31
0.0
1001
ACDBBLOCKREPETAG
1070
     1
1071
       45
1005
12CCD8
  0
LINE
  5
12CCD9
  8
OBJECT
 10
481.49999999849018
 20
-1494.999999997231
 30
0.0
 11
481.49999999849018
 21
-1501.999999997231
 31
0.0
1001
ACDBBLOCKREPETAG
1070
     1
1071
       46
1005
12CCD9
  0
LINE
  5
12CCDA
  8
OBJECT
 10
590.49999999849024
 20
-1501.999999997231
 30
0.0
 11
590.49999999849024
 21
-1494.999999997231
 31
0.0
1001
ACDBBLOCKREPETAG
1070
     1
1071
       47
1005
12CCDA
  0
LINE
  5
12CCDB
  8
OBJECT
 10
590.49999999849024
 20
-1494.999999997231
 30
0.0
 11
481.49999999849018
 21
-1494.999999997231
 31
0.0
1001
ACDBBLOCKREPETAG
1070
     1
1071
       48
1005
12CCDB
  0
LINE
  5
12CCDC
  8
OBJECT
 10
476.99999999849018
 20
-1490.999999997231
 30
0.0
 11
481.49999999849018
 21
-1494.999999997231
 31
0.0
1001
ACDBBLOCKREPETAG
1070
     1
1071
       49
1005
12CCDC
  0
LINE
  5
12CCDD
  8
OBJECT
 10
594.99999999849024
 20
-1490.999999997231
 30
0.0
 11
590.49999999849024
 21
-1494.999999997231
 31
0.0
1001
ACDBBLOCKREPETAG
1070
     1
1071
       50
1005
12CCDD
  0
LINE
  5
12CCDE
  8
OBJECT
 10
473.99999999849018
 20
-1504.9999999972299
 30
0.0
 11
473.99999999849018
 21
-1507.999999997231
 31
0.0
1001
ACDBBLOCKREPETAG
1070
     1
1071
       51
1005
12CCDE
  0
ARC
  5
12CCDF
  8
OBJECT
 10
476.99999999849018
 20
-1504.9999999972299
 30
0.0
 40
3.0
 50
90.0
 51
180.0
1001
ACDBBLOCKREPETAG
1070
     1
1071
       52
1005
12CCDF
  0
LINE
  5
12CCE0
  8
OBJECT
 10
597.99999999849024
 20
-1507.999999997231
 30
0.0
 11
597.99999999849024
 21
-1504.999999997232
 31
0.0
1001
ACDBBLOCKREPETAG
1070
     1
1071
       53
1005
12CCE0
  0
ARC
  5
12CCE1
  8
OBJECT
 10
594.99999999849024
 20
-1504.999999997232
 30
0.0
 40
3.0
 50
0.0
 51
90.0
1001
ACDBBLOCKREPETAG
1070
     1
1071
       54
1005
12CCE1
  0
LINE
  5
12CCE2
  8
OBJECT
 10
594.99999999849024
 20
-1501.999999997232
 30
0.0
 11
476.99999999849018
 21
-1501.9999999972299
 31
0.0
1001
ACDBBLOCKREPETAG
1070
     1
1071
       55
1005
12CCE2
  0
LINE
  5
12CCE3
  8
HIDDEN
 10
491.49999999849018
 20
-1499.999999997231
 30
0.0
 11
580.49999999849024
 21
-1499.999999997231
 31
0.0
1001
ACDBBLOCKREPETAG
1070
     1
1071
      426
1005
12CCE3
  0
TEXT
  5
12CCE4
  8
SLIM
 10
60.171428571368068
 20
-1835.9999999993749
 30
0.0
 40
48.0
  1
B204（特）
 41
0.75
1001
ACDBBLOCKREPETAG
1070
     1
1071
      119
1005
12AEEF
  0
LINE
  5
12CCE5
  8
OBJECT
 10
250.99999999861211
 20
-1737.999999997231
 30
0.0
 11
250.99999999861211
 21
-1730.999999997231
 31
0.0
1001
ACDBBLOCKREPETAG
1070
     1
1071
       57
1005
12CCE5
  0
LINE
  5
12CCE6
  8
OBJECT
 10
250.99999999861211
 20
-1730.999999997231
 30
0.0
 11
100.9999999986121
 21
-1730.999999997231
 31
0.0
1001
ACDBBLOCKREPETAG
1070
     1
1071
       58
1005
12CCE6
  0
LINE
  5
12CCE7
  8
OBJECT
 10
247.99999999861211
 20
-1689.499999997232
 30
0.0
 11
103.9999999986121
 21
-1689.499999997232
 31
0.0
1001
ACDBBLOCKREPETAG
1070
     1
1071
       59
1005
12CCE7
  0
LINE
  5
12CCE8
  8
OBJECT
 10
241.49999999861211
 20
-1677.999999997231
 30
0.0
 11
110.4999999986121
 21
-1677.999999997231
 31
0.0
1001
ACDBBLOCKREPETAG
1070
     1
1071
       60
1005
12CCE8
  0
LINE
  5
12CCE9
  8
OBJECT
 10
100.9999999986121
 20
-1730.999999997231
 30
0.0
 11
100.9999999986121
 21
-1737.999999997231
 31
0.0
1001
ACDBBLOCKREPETAG
1070
     1
1071
       61
1005
12CCE9
  0
LINE
  5
12CCEA
  8
OBJECT
 10
100.9999999986121
 20
-1737.999999997231
 30
0.0
 11
250.99999999861211
 21
-1737.999999997231
 31
0.0
1001
ACDBBLOCKREPETAG
1070
     1
1071
       62
1005
12CCEA
  0
LINE
  5
12CCEB
  8
OBJECT
 10
113.9999999986121
 20
-1673.999999997231
 30
0.0
 11
113.9999999986121
 21
-1667.999999997231
 31
0.0
1001
ACDBBLOCKREPETAG
1070
     1
1071
       63
1005
12CCEB
  0
LINE
  5
12CCEC
  8
OBJECT
 10
103.9999999986121
 20
-1730.999999997231
 30
0.0
 11
103.9999999986121
 21
-1689.499999997232
 31
0.0
1001
ACDBBLOCKREPETAG
1070
     1
1071
       64
1005
12CCEC
  0
LINE
  5
12CCED
  8
OBJECT
 10
103.9999999986121
 20
-1689.499999997232
 30
0.0
 11
110.4999999986121
 21
-1677.999999997231
 31
0.0
1001
ACDBBLOCKREPETAG
1070
     1
1071
       65
1005
12CCED
  0
LINE
  5
12CCEE
  8
OBJECT
 10
110.4999999986121
 20
-1677.999999997231
 30
0.0
 11
113.9999999986121
 21
-1673.999999997231
 31
0.0
1001
ACDBBLOCKREPETAG
1070
     1
1071
       66
1005
12CCEE
  0
LINE
  5
12CCEF
  8
OBJECT
 10
247.99999999861211
 20
-1689.499999997232
 30
0.0
 11
241.49999999861211
 21
-1677.999999997231
 31
0.0
1001
ACDBBLOCKREPETAG
1070
     1
1071
       67
1005
12CCEF
  0
LINE
  5
12CCF0
  8
OBJECT
 10
241.49999999861211
 20
-1677.999999997231
 30
0.0
 11
237.99999999861211
 21
-1673.999999997231
 31
0.0
1001
ACDBBLOCKREPETAG
1070
     1
1071
       68
1005
12CCF0
  0
ARC
  5
12CCF1
  8
OBJECT
 10
175.99999999861211
 20
-2055.899999997233
 30
0.0
 40
386.89999999999998
 50
80.778701362368551
 51
99.221298637631435
1001
ACDBBLOCKREPETAG
1070
     1
1071
       69
1005
12CCF1
  0
LINE
  5
12CCF2
  8
OBJECT
 10
237.99999999861211
 20
-1673.999999997231
 30
0.0
 11
237.99999999861211
 21
-1667.999999997231
 31
0.0
1001
ACDBBLOCKREPETAG
1070
     1
1071
       70
1005
12CCF2
  0
LINE
  5
12CCF3
  8
OBJECT
 10
247.99999999861211
 20
-1730.999999997231
 30
0.0
 11
247.99999999861211
 21
-1689.499999997232
 31
0.0
1001
ACDBBLOCKREPETAG
1070
     1
1071
       71
1005
12CCF3
  0
INSERT
  5
12CCF4
  8
OBJECT
  2
*U11
 10
0.0
 20
0.0
 30
0.0
  0
LINE
  5
12CCF5
  8
HIDDEN
 10
118.9999999986121
 20
-1685.999999997231
 30
0.0
 11
232.99999999861211
 21
-1685.999999997231
 31
0.0
1001
ACDBBLOCKREPETAG
1070
     1
1071
      437
1005
12CCF5
  0
LINE
  5
12CCF6
  8
OBJECT
 10
258.99999999861211
 20
-1649.999999997231
 30
0.0
 11
255.99999999861211
 21
-1649.999999997231
 31
0.0
1001
ACDBBLOCKREPETAG
1070
     1
1071
      418
1005
12CCF6
  0
ARC
  5
12CCF7
  8
OBJECT
 10
258.99999999861211
 20
-1646.999999997231
 30
0.0
 40
3.0
 50
270.0
 51
0.0
1001
ACDBBLOCKREPETAG
1070
     1
1071
      419
1005
12CCF7
  0
LINE
  5
12CCF8
  8
OBJECT
 10
255.99999999861211
 20
-1525.999999997231
 30
0.0
 11
258.99999999861211
 21
-1525.999999997231
 31
0.0
1001
ACDBBLOCKREPETAG
1070
     1
1071
      420
1005
12CCF8
  0
ARC
  5
12CCF9
  8
OBJECT
 10
258.99999999861211
 20
-1528.999999997231
 30
0.0
 40
3.0
 50
0.0
 51
90.0
1001
ACDBBLOCKREPETAG
1070
     1
1071
      421
1005
12CCF9
  0
LINE
  5
12CCFA
  8
OBJECT
 10
261.99999999861211
 20
-1528.999999997231
 30
0.0
 11
261.99999999861211
 21
-1646.999999997231
 31
0.0
1001
ACDBBLOCKREPETAG
1070
     1
1071
      422
1005
12CCFA
  0
INSERT
  5
12CCFB
  8
OBJECT
  2
*U12
 10
0.0
 20
0.0
 30
0.0
  0
LINE
  5
12CCFC
  8
OBJECT
 10
120.9999999986121
 20
-1454.999999997231
 30
0.0
 11
120.9999999986121
 21
-1447.999999997231
 31
0.0
1001
ACDBBLOCKREPETAG
1070
     1
1071
       20
1005
12CCFC
  0
LINE
  5
12CCFD
  8
OBJECT
 10
120.9999999986121
 20
-1447.999999997231
 30
0.0
 11
230.99999999861211
 21
-1447.999999997231
 31
0.0
1001
ACDBBLOCKREPETAG
1070
     1
1071
       21
1005
12CCFD
  0
LINE
  5
12CCFE
  8
OBJECT
 10
230.99999999861211
 20
-1447.999999997231
 30
0.0
 11
230.99999999861211
 21
-1454.999999997231
 31
0.0
1001
ACDBBLOCKREPETAG
1070
     1
1071
       22
1005
12CCFE
  0
LINE
  5
12CCFF
  8
OBJECT
 10
230.99999999861211
 20
-1454.999999997231
 30
0.0
 11
120.9999999986121
 21
-1454.999999997231
 31
0.0
1001
ACDBBLOCKREPETAG
1070
     1
1071
       23
1005
12CCFF
  0
LINE
  5
12CD00
  8
OBJECT
 10
123.9999999986121
 20
-1454.999999997231
 30
0.0
 11
123.9999999986121
 21
-1490.999999997231
 31
0.0
1001
ACDBBLOCKREPETAG
1070
     1
1071
       24
1005
12CD00
  0
LINE
  5
12CD01
  8
OBJECT
 10
123.9999999986121
 20
-1490.999999997231
 30
0.0
 11
227.99999999861211
 21
-1490.999999997231
 31
0.0
1001
ACDBBLOCKREPETAG
1070
     1
1071
       25
1005
12CD01
  0
LINE
  5
12CD02
  8
OBJECT
 10
227.99999999861211
 20
-1490.999999997231
 30
0.0
 11
227.99999999861211
 21
-1454.999999997231
 31
0.0
1001
ACDBBLOCKREPETAG
1070
     1
1071
       26
1005
12CD02
  0
LINE
  5
12CD03
  8
OBJECT
 10
128.49999999861211
 20
-1494.999999997231
 30
0.0
 11
128.49999999861211
 21
-1501.999999997231
 31
0.0
1001
ACDBBLOCKREPETAG
1070
     1
1071
       27
1005
12CD03
  0
LINE
  5
12CD04
  8
OBJECT
 10
223.49999999861211
 20
-1501.999999997231
 30
0.0
 11
223.49999999861211
 21
-1494.999999997231
 31
0.0
1001
ACDBBLOCKREPETAG
1070
     1
1071
       28
1005
12CD04
  0
LINE
  5
12CD05
  8
OBJECT
 10
223.49999999861211
 20
-1494.999999997231
 30
0.0
 11
128.49999999861211
 21
-1494.999999997231
 31
0.0
1001
ACDBBLOCKREPETAG
1070
     1
1071
       29
1005
12CD05
  0
LINE
  5
12CD06
  8
OBJECT
 10
123.9999999986121
 20
-1490.999999997231
 30
0.0
 11
128.49999999861211
 21
-1494.999999997231
 31
0.0
1001
ACDBBLOCKREPETAG
1070
     1
1071
       30
1005
12CD06
  0
LINE
  5
12CD07
  8
OBJECT
 10
227.99999999861211
 20
-1490.999999997231
 30
0.0
 11
223.49999999861211
 21
-1494.999999997231
 31
0.0
1001
ACDBBLOCKREPETAG
1070
     1
1071
       31
1005
12CD07
  0
LINE
  5
12CD08
  8
OBJECT
 10
113.9999999986121
 20
-1504.9999999972299
 30
0.0
 11
113.9999999986121
 21
-1507.999999997231
 31
0.0
1001
ACDBBLOCKREPETAG
1070
     1
1071
       32
1005
12CD08
  0
ARC
  5
12CD09
  8
OBJECT
 10
116.9999999986121
 20
-1504.9999999972299
 30
0.0
 40
3.0
 50
90.0
 51
180.0
1001
ACDBBLOCKREPETAG
1070
     1
1071
       33
1005
12CD09
  0
LINE
  5
12CD0A
  8
OBJECT
 10
237.99999999861211
 20
-1507.999999997231
 30
0.0
 11
237.99999999861211
 21
-1504.999999997232
 31
0.0
1001
ACDBBLOCKREPETAG
1070
     1
1071
       34
1005
12CD0A
  0
ARC
  5
12CD0B
  8
OBJECT
 10
234.99999999861211
 20
-1504.999999997232
 30
0.0
 40
3.0
 50
0.0
 51
90.0
1001
ACDBBLOCKREPETAG
1070
     1
1071
       35
1005
12CD0B
  0
LINE
  5
12CD0C
  8
OBJECT
 10
234.99999999861211
 20
-1501.999999997232
 30
0.0
 11
116.9999999986121
 21
-1501.9999999972299
 31
0.0
1001
ACDBBLOCKREPETAG
1070
     1
1071
       36
1005
12CD0C
  0
LINE
  5
12CD0D
  8
HIDDEN
 10
137.99999999861211
 20
-1499.999999997231
 30
0.0
 11
213.99999999861211
 21
-1499.999999997231
 31
0.0
1001
ACDBBLOCKREPETAG
1070
     1
1071
      423
1005
12CD0D
  0
TEXT
  5
12CD0E
  8
SLIM
 10
420.17142857124622
 20
-1371.9999999995321
 30
0.0
 40
48.0
  1
B203（特）
 41
0.75
1001
ACDBBLOCKREPETAG
1070
     1
1071
      119
1005
12AEEF
  0
LINE
  5
12CD0F
  8
OBJECT
 10
597.99999999849024
 20
-1256.99999999739
 30
0.0
 11
597.99999999849024
 21
-1263.99999999739
 31
0.0
1001
ACDBBLOCKREPETAG
1070
     1
1071
       38
1005
12CD0F
  0
LINE
  5
12CD10
  8
OBJECT
 10
597.99999999849024
 20
-1263.99999999739
 30
0.0
 11
473.99999999849018
 21
-1263.99999999739
 31
0.0
1001
ACDBBLOCKREPETAG
1070
     1
1071
       39
1005
12CD10
  0
LINE
  5
12CD11
  8
OBJECT
 10
473.99999999849018
 20
-1263.99999999739
 30
0.0
 11
473.99999999849018
 21
-1256.99999999739
 31
0.0
1001
ACDBBLOCKREPETAG
1070
     1
1071
       40
1005
12CD11
  0
LINE
  5
12CD12
  8
OBJECT
 10
473.99999999849018
 20
-1256.99999999739
 30
0.0
 11
597.99999999849024
 21
-1256.99999999739
 31
0.0
1001
ACDBBLOCKREPETAG
1070
     1
1071
       41
1005
12CD12
  0
LINE
  5
12CD13
  8
OBJECT
 10
594.99999999849024
 20
-1256.99999999739
 30
0.0
 11
594.99999999849024
 21
-1220.9999999973891
 31
0.0
1001
ACDBBLOCKREPETAG
1070
     1
1071
       42
1005
12CD13
  0
LINE
  5
12CD14
  8
OBJECT
 10
594.99999999849024
 20
-1220.9999999973891
 30
0.0
 11
476.99999999849018
 21
-1220.9999999973891
 31
0.0
1001
ACDBBLOCKREPETAG
1070
     1
1071
       43
1005
12CD14
  0
LINE
  5
12CD15
  8
OBJECT
 10
476.99999999849018
 20
-1220.9999999973891
 30
0.0
 11
476.99999999849018
 21
-1256.99999999739
 31
0.0
1001
ACDBBLOCKREPETAG
1070
     1
1071
       44
1005
12CD15
  0
LINE
  5
12CD16
  8
OBJECT
 10
590.49999999849024
 20
-1216.99999999739
 30
0.0
 11
590.49999999849024
 21
-1209.99999999739
 31
0.0
1001
ACDBBLOCKREPETAG
1070
     1
1071
       45
1005
12CD16
  0
LINE
  5
12CD17
  8
OBJECT
 10
481.49999999849018
 20
-1209.99999999739
 30
0.0
 11
481.49999999849018
 21
-1216.99999999739
 31
0.0
1001
ACDBBLOCKREPETAG
1070
     1
1071
       46
1005
12CD17
  0
LINE
  5
12CD18
  8
OBJECT
 10
481.49999999849018
 20
-1216.99999999739
 30
0.0
 11
590.49999999849024
 21
-1216.99999999739
 31
0.0
1001
ACDBBLOCKREPETAG
1070
     1
1071
       47
1005
12CD18
  0
LINE
  5
12CD19
  8
OBJECT
 10
594.99999999849024
 20
-1220.9999999973891
 30
0.0
 11
590.49999999849024
 21
-1216.99999999739
 31
0.0
1001
ACDBBLOCKREPETAG
1070
     1
1071
       48
1005
12CD19
  0
LINE
  5
12CD1A
  8
OBJECT
 10
476.99999999849018
 20
-1220.9999999973891
 30
0.0
 11
481.49999999849018
 21
-1216.99999999739
 31
0.0
1001
ACDBBLOCKREPETAG
1070
     1
1071
       49
1005
12CD1A
  0
LINE
  5
12CD1B
  8
OBJECT
 10
597.99999999849024
 20
-1206.9999999973909
 30
0.0
 11
597.99999999849024
 21
-1203.99999999739
 31
0.0
1001
ACDBBLOCKREPETAG
1070
     1
1071
       50
1005
12CD1B
  0
ARC
  5
12CD1C
  8
OBJECT
 10
594.99999999849024
 20
-1206.9999999973909
 30
0.0
 40
3.0
 50
270.0
 51
0.0
1001
ACDBBLOCKREPETAG
1070
     1
1071
       51
1005
12CD1C
  0
LINE
  5
12CD1D
  8
OBJECT
 10
473.99999999849018
 20
-1203.99999999739
 30
0.0
 11
473.99999999849018
 21
-1206.9999999973891
 31
0.0
1001
ACDBBLOCKREPETAG
1070
     1
1071
       52
1005
12CD1D
  0
ARC
  5
12CD1E
  8
OBJECT
 10
476.99999999849018
 20
-1206.9999999973891
 30
0.0
 40
3.0
 50
180.0
 51
270.0
1001
ACDBBLOCKREPETAG
1070
     1
1071
       53
1005
12CD1E
  0
LINE
  5
12CD1F
  8
OBJECT
 10
476.99999999849018
 20
-1209.9999999973891
 30
0.0
 11
594.99999999849024
 21
-1209.99999999739
 31
0.0
1001
ACDBBLOCKREPETAG
1070
     1
1071
       54
1005
12CD1F
  0
INSERT
  5
12CD20
  8
OBJECT
  2
*U13
 10
0.0
 20
0.0
 30
0.0
  0
LINE
  5
12CD21
  8
HIDDEN
 10
580.49999999849024
 20
-1211.99999999739
 30
0.0
 11
491.49999999849018
 21
-1211.99999999739
 31
0.0
1001
ACDBBLOCKREPETAG
1070
     1
1071
      430
1005
12CD21
  0
LINE
  5
12CD22
  8
OBJECT
 10
618.99999999849024
 20
-1185.99999999739
 30
0.0
 11
615.99999999849024
 21
-1185.99999999739
 31
0.0
1001
ACDBBLOCKREPETAG
1070
     1
1071
      418
1005
12CD22
  0
ARC
  5
12CD23
  8
OBJECT
 10
618.99999999849024
 20
-1182.99999999739
 30
0.0
 40
3.0
 50
270.0
 51
0.0
1001
ACDBBLOCKREPETAG
1070
     1
1071
      419
1005
12CD23
  0
LINE
  5
12CD24
  8
OBJECT
 10
615.99999999849024
 20
-1061.9999999973891
 30
0.0
 11
618.99999999849024
 21
-1061.9999999973891
 31
0.0
1001
ACDBBLOCKREPETAG
1070
     1
1071
      420
1005
12CD24
  0
ARC
  5
12CD25
  8
OBJECT
 10
618.99999999849024
 20
-1064.99999999739
 30
0.0
 40
3.0
 50
0.0
 51
90.0
1001
ACDBBLOCKREPETAG
1070
     1
1071
      421
1005
12CD25
  0
LINE
  5
12CD26
  8
OBJECT
 10
621.99999999849024
 20
-1064.99999999739
 30
0.0
 11
621.99999999849024
 21
-1182.99999999739
 31
0.0
1001
ACDBBLOCKREPETAG
1070
     1
1071
      422
1005
12CD26
  0
INSERT
  5
12CD27
  8
OBJECT
  2
*U14
 10
0.0
 20
0.0
 30
0.0
  0
LINE
  5
12CD28
  8
OBJECT
 10
480.99999999849018
 20
-990.99999999738964
 30
0.0
 11
480.99999999849018
 21
-983.99999999738964
 31
0.0
1001
ACDBBLOCKREPETAG
1070
     1
1071
       20
1005
12CD28
  0
LINE
  5
12CD29
  8
OBJECT
 10
480.99999999849018
 20
-983.99999999738964
 30
0.0
 11
590.99999999849024
 21
-983.99999999738964
 31
0.0
1001
ACDBBLOCKREPETAG
1070
     1
1071
       21
1005
12CD29
  0
LINE
  5
12CD2A
  8
OBJECT
 10
590.99999999849024
 20
-983.99999999738964
 30
0.0
 11
590.99999999849024
 21
-990.99999999738964
 31
0.0
1001
ACDBBLOCKREPETAG
1070
     1
1071
       22
1005
12CD2A
  0
LINE
  5
12CD2B
  8
OBJECT
 10
590.99999999849024
 20
-990.99999999738964
 30
0.0
 11
480.99999999849018
 21
-990.99999999738964
 31
0.0
1001
ACDBBLOCKREPETAG
1070
     1
1071
       23
1005
12CD2B
  0
LINE
  5
12CD2C
  8
OBJECT
 10
483.99999999849018
 20
-990.99999999738964
 30
0.0
 11
483.99999999849018
 21
-1026.99999999739
 31
0.0
1001
ACDBBLOCKREPETAG
1070
     1
1071
       24
1005
12CD2C
  0
LINE
  5
12CD2D
  8
OBJECT
 10
483.99999999849018
 20
-1026.99999999739
 30
0.0
 11
587.99999999849024
 21
-1026.99999999739
 31
0.0
1001
ACDBBLOCKREPETAG
1070
     1
1071
       25
1005
12CD2D
  0
LINE
  5
12CD2E
  8
OBJECT
 10
587.99999999849024
 20
-1026.99999999739
 30
0.0
 11
587.99999999849024
 21
-990.99999999738964
 31
0.0
1001
ACDBBLOCKREPETAG
1070
     1
1071
       26
1005
12CD2E
  0
LINE
  5
12CD2F
  8
OBJECT
 10
488.49999999849018
 20
-1030.99999999739
 30
0.0
 11
488.49999999849018
 21
-1037.9999999973891
 31
0.0
1001
ACDBBLOCKREPETAG
1070
     1
1071
       27
1005
12CD2F
  0
LINE
  5
12CD30
  8
OBJECT
 10
583.49999999849024
 20
-1037.9999999973891
 30
0.0
 11
583.49999999849024
 21
-1030.99999999739
 31
0.0
1001
ACDBBLOCKREPETAG
1070
     1
1071
       28
1005
12CD30
  0
LINE
  5
12CD31
  8
OBJECT
 10
583.49999999849024
 20
-1030.99999999739
 30
0.0
 11
488.49999999849018
 21
-1030.99999999739
 31
0.0
1001
ACDBBLOCKREPETAG
1070
     1
1071
       29
1005
12CD31
  0
LINE
  5
12CD32
  8
OBJECT
 10
483.99999999849018
 20
-1026.99999999739
 30
0.0
 11
488.49999999849018
 21
-1030.99999999739
 31
0.0
1001
ACDBBLOCKREPETAG
1070
     1
1071
       30
1005
12CD32
  0
LINE
  5
12CD33
  8
OBJECT
 10
587.99999999849024
 20
-1026.99999999739
 30
0.0
 11
583.49999999849024
 21
-1030.99999999739
 31
0.0
1001
ACDBBLOCKREPETAG
1070
     1
1071
       31
1005
12CD33
  0
LINE
  5
12CD34
  8
OBJECT
 10
473.99999999849018
 20
-1040.9999999973891
 30
0.0
 11
473.99999999849018
 21
-1043.99999999739
 31
0.0
1001
ACDBBLOCKREPETAG
1070
     1
1071
       32
1005
12CD34
  0
ARC
  5
12CD35
  8
OBJECT
 10
476.99999999849018
 20
-1040.9999999973891
 30
0.0
 40
3.0
 50
90.0
 51
180.0
1001
ACDBBLOCKREPETAG
1070
     1
1071
       33
1005
12CD35
  0
LINE
  5
12CD36
  8
OBJECT
 10
597.99999999849024
 20
-1043.99999999739
 30
0.0
 11
597.99999999849024
 21
-1040.99999999739
 31
0.0
1001
ACDBBLOCKREPETAG
1070
     1
1071
       34
1005
12CD36
  0
ARC
  5
12CD37
  8
OBJECT
 10
594.99999999849024
 20
-1040.99999999739
 30
0.0
 40
3.0
 50
0.0
 51
90.0
1001
ACDBBLOCKREPETAG
1070
     1
1071
       35
1005
12CD37
  0
LINE
  5
12CD38
  8
OBJECT
 10
594.99999999849024
 20
-1037.99999999739
 30
0.0
 11
476.99999999849018
 21
-1037.9999999973891
 31
0.0
1001
ACDBBLOCKREPETAG
1070
     1
1071
       36
1005
12CD38
  0
LINE
  5
12CD39
  8
HIDDEN
 10
497.99999999849018
 20
-1035.99999999739
 30
0.0
 11
573.99999999849024
 21
-1035.99999999739
 31
0.0
1001
ACDBBLOCKREPETAG
1070
     1
1071
      423
1005
12CD39
  0
TEXT
  5
12CD3A
  8
SLIM
 10
115.714285714225
 20
-1371.9999999995321
 30
0.0
 40
48.0
  1
B202
 41
0.75
1001
ACDBBLOCKREPETAG
1070
     1
1071
      119
1005
12AEEF
  0
LINE
  5
12CD3B
  8
OBJECT
 10
230.999999998612
 20
-1256.99999999739
 30
0.0
 11
230.999999998612
 21
-1263.99999999739
 31
0.0
1001
ACDBBLOCKREPETAG
1070
     1
1071
       19
1005
12CD3B
  0
LINE
  5
12CD3C
  8
OBJECT
 10
230.999999998612
 20
-1263.99999999739
 30
0.0
 11
120.9999999986119
 21
-1263.99999999739
 31
0.0
1001
ACDBBLOCKREPETAG
1070
     1
1071
       20
1005
12CD3C
  0
LINE
  5
12CD3D
  8
OBJECT
 10
120.9999999986119
 20
-1263.99999999739
 30
0.0
 11
120.9999999986119
 21
-1256.99999999739
 31
0.0
1001
ACDBBLOCKREPETAG
1070
     1
1071
       21
1005
12CD3D
  0
LINE
  5
12CD3E
  8
OBJECT
 10
120.9999999986119
 20
-1256.99999999739
 30
0.0
 11
230.999999998612
 21
-1256.99999999739
 31
0.0
1001
ACDBBLOCKREPETAG
1070
     1
1071
       22
1005
12CD3E
  0
LINE
  5
12CD3F
  8
OBJECT
 10
227.99999999861191
 20
-1256.99999999739
 30
0.0
 11
227.99999999861191
 21
-1220.9999999973891
 31
0.0
1001
ACDBBLOCKREPETAG
1070
     1
1071
       23
1005
12CD3F
  0
LINE
  5
12CD40
  8
OBJECT
 10
227.99999999861191
 20
-1220.9999999973891
 30
0.0
 11
123.9999999986119
 21
-1220.9999999973891
 31
0.0
1001
ACDBBLOCKREPETAG
1070
     1
1071
       24
1005
12CD40
  0
LINE
  5
12CD41
  8
OBJECT
 10
123.9999999986119
 20
-1220.9999999973891
 30
0.0
 11
123.9999999986119
 21
-1256.99999999739
 31
0.0
1001
ACDBBLOCKREPETAG
1070
     1
1071
       25
1005
12CD41
  0
LINE
  5
12CD42
  8
OBJECT
 10
223.49999999861191
 20
-1216.99999999739
 30
0.0
 11
223.49999999861191
 21
-1209.99999999739
 31
0.0
1001
ACDBBLOCKREPETAG
1070
     1
1071
       26
1005
12CD42
  0
LINE
  5
12CD43
  8
OBJECT
 10
128.49999999861191
 20
-1209.99999999739
 30
0.0
 11
128.49999999861191
 21
-1216.99999999739
 31
0.0
1001
ACDBBLOCKREPETAG
1070
     1
1071
       27
1005
12CD43
  0
LINE
  5
12CD44
  8
OBJECT
 10
128.49999999861191
 20
-1216.99999999739
 30
0.0
 11
223.49999999861191
 21
-1216.99999999739
 31
0.0
1001
ACDBBLOCKREPETAG
1070
     1
1071
       28
1005
12CD44
  0
LINE
  5
12CD45
  8
OBJECT
 10
227.99999999861191
 20
-1220.9999999973891
 30
0.0
 11
223.49999999861191
 21
-1216.99999999739
 31
0.0
1001
ACDBBLOCKREPETAG
1070
     1
1071
       29
1005
12CD45
  0
LINE
  5
12CD46
  8
OBJECT
 10
123.9999999986119
 20
-1220.9999999973891
 30
0.0
 11
128.49999999861191
 21
-1216.99999999739
 31
0.0
1001
ACDBBLOCKREPETAG
1070
     1
1071
       30
1005
12CD46
  0
LINE
  5
12CD47
  8
OBJECT
 10
237.99999999861191
 20
-1206.9999999973909
 30
0.0
 11
237.99999999861191
 21
-1203.99999999739
 31
0.0
1001
ACDBBLOCKREPETAG
1070
     1
1071
       31
1005
12CD47
  0
ARC
  5
12CD48
  8
OBJECT
 10
234.999999998612
 20
-1206.9999999973909
 30
0.0
 40
3.0
 50
270.0
 51
0.0
1001
ACDBBLOCKREPETAG
1070
     1
1071
       32
1005
12CD48
  0
LINE
  5
12CD49
  8
OBJECT
 10
113.9999999986119
 20
-1203.99999999739
 30
0.0
 11
113.9999999986119
 21
-1206.9999999973891
 31
0.0
1001
ACDBBLOCKREPETAG
1070
     1
1071
       33
1005
12CD49
  0
ARC
  5
12CD4A
  8
OBJECT
 10
116.9999999986119
 20
-1206.9999999973891
 30
0.0
 40
3.0
 50
180.0
 51
270.0
1001
ACDBBLOCKREPETAG
1070
     1
1071
       34
1005
12CD4A
  0
LINE
  5
12CD4B
  8
OBJECT
 10
116.9999999986119
 20
-1209.9999999973891
 30
0.0
 11
234.999999998612
 21
-1209.99999999739
 31
0.0
1001
ACDBBLOCKREPETAG
1070
     1
1071
       35
1005
12CD4B
  0
INSERT
  5
12CD4C
  8
OBJECT
  2
*U15
 10
0.0
 20
0.0
 30
0.0
  0
LINE
  5
12CD4D
  8
HIDDEN
 10
213.999999998612
 20
-1211.99999999739
 30
0.0
 11
137.99999999861191
 21
-1211.99999999739
 31
0.0
1001
ACDBBLOCKREPETAG
1070
     1
1071
      427
1005
12CD4D
  0
LINE
  5
12CD4E
  8
OBJECT
 10
258.99999999861188
 20
-1185.99999999739
 30
0.0
 11
255.999999998612
 21
-1185.99999999739
 31
0.0
1001
ACDBBLOCKREPETAG
1070
     1
1071
      418
1005
12CD4E
  0
ARC
  5
12CD4F
  8
OBJECT
 10
258.99999999861188
 20
-1182.99999999739
 30
0.0
 40
3.0
 50
270.0
 51
0.0
1001
ACDBBLOCKREPETAG
1070
     1
1071
      419
1005
12CD4F
  0
LINE
  5
12CD50
  8
OBJECT
 10
255.999999998612
 20
-1061.9999999973891
 30
0.0
 11
258.99999999861188
 21
-1061.9999999973891
 31
0.0
1001
ACDBBLOCKREPETAG
1070
     1
1071
      420
1005
12CD50
  0
ARC
  5
12CD51
  8
OBJECT
 10
258.99999999861188
 20
-1064.99999999739
 30
0.0
 40
3.0
 50
0.0
 51
90.0
1001
ACDBBLOCKREPETAG
1070
     1
1071
      421
1005
12CD51
  0
LINE
  5
12CD52
  8
OBJECT
 10
261.999999998612
 20
-1064.99999999739
 30
0.0
 11
261.999999998612
 21
-1182.99999999739
 31
0.0
1001
ACDBBLOCKREPETAG
1070
     1
1071
      422
1005
12CD52
  0
INSERT
  5
12CD53
  8
OBJECT
  2
*U16
 10
0.0
 20
0.0
 30
0.0
  0
LINE
  5
12CD54
  8
OBJECT
 10
120.9999999986119
 20
-990.99999999738964
 30
0.0
 11
120.9999999986119
 21
-983.99999999738964
 31
0.0
1001
ACDBBLOCKREPETAG
1070
     1
1071
       20
1005
12CD54
  0
LINE
  5
12CD55
  8
OBJECT
 10
120.9999999986119
 20
-983.99999999738964
 30
0.0
 11
230.999999998612
 21
-983.99999999738964
 31
0.0
1001
ACDBBLOCKREPETAG
1070
     1
1071
       21
1005
12CD55
  0
LINE
  5
12CD56
  8
OBJECT
 10
230.999999998612
 20
-983.99999999738964
 30
0.0
 11
230.999999998612
 21
-990.99999999738964
 31
0.0
1001
ACDBBLOCKREPETAG
1070
     1
1071
       22
1005
12CD56
  0
LINE
  5
12CD57
  8
OBJECT
 10
230.999999998612
 20
-990.99999999738964
 30
0.0
 11
120.9999999986119
 21
-990.99999999738964
 31
0.0
1001
ACDBBLOCKREPETAG
1070
     1
1071
       23
1005
12CD57
  0
LINE
  5
12CD58
  8
OBJECT
 10
123.9999999986119
 20
-990.99999999738964
 30
0.0
 11
123.9999999986119
 21
-1026.99999999739
 31
0.0
1001
ACDBBLOCKREPETAG
1070
     1
1071
       24
1005
12CD58
  0
LINE
  5
12CD59
  8
OBJECT
 10
123.9999999986119
 20
-1026.99999999739
 30
0.0
 11
227.99999999861191
 21
-1026.99999999739
 31
0.0
1001
ACDBBLOCKREPETAG
1070
     1
1071
       25
1005
12CD59
  0
LINE
  5
12CD5A
  8
OBJECT
 10
227.99999999861191
 20
-1026.99999999739
 30
0.0
 11
227.99999999861191
 21
-990.99999999738964
 31
0.0
1001
ACDBBLOCKREPETAG
1070
     1
1071
       26
1005
12CD5A
  0
LINE
  5
12CD5B
  8
OBJECT
 10
128.49999999861191
 20
-1030.99999999739
 30
0.0
 11
128.49999999861191
 21
-1037.9999999973891
 31
0.0
1001
ACDBBLOCKREPETAG
1070
     1
1071
       27
1005
12CD5B
  0
LINE
  5
12CD5C
  8
OBJECT
 10
223.49999999861191
 20
-1037.9999999973891
 30
0.0
 11
223.49999999861191
 21
-1030.99999999739
 31
0.0
1001
ACDBBLOCKREPETAG
1070
     1
1071
       28
1005
12CD5C
  0
LINE
  5
12CD5D
  8
OBJECT
 10
223.49999999861191
 20
-1030.99999999739
 30
0.0
 11
128.49999999861191
 21
-1030.99999999739
 31
0.0
1001
ACDBBLOCKREPETAG
1070
     1
1071
       29
1005
12CD5D
  0
LINE
  5
12CD5E
  8
OBJECT
 10
123.9999999986119
 20
-1026.99999999739
 30
0.0
 11
128.49999999861191
 21
-1030.99999999739
 31
0.0
1001
ACDBBLOCKREPETAG
1070
     1
1071
       30
1005
12CD5E
  0
LINE
  5
12CD5F
  8
OBJECT
 10
227.99999999861191
 20
-1026.99999999739
 30
0.0
 11
223.49999999861191
 21
-1030.99999999739
 31
0.0
1001
ACDBBLOCKREPETAG
1070
     1
1071
       31
1005
12CD5F
  0
LINE
  5
12CD60
  8
OBJECT
 10
113.9999999986119
 20
-1040.9999999973891
 30
0.0
 11
113.9999999986119
 21
-1043.99999999739
 31
0.0
1001
ACDBBLOCKREPETAG
1070
     1
1071
       32
1005
12CD60
  0
ARC
  5
12CD61
  8
OBJECT
 10
116.9999999986119
 20
-1040.9999999973891
 30
0.0
 40
3.0
 50
90.0
 51
180.0
1001
ACDBBLOCKREPETAG
1070
     1
1071
       33
1005
12CD61
  0
LINE
  5
12CD62
  8
OBJECT
 10
237.99999999861191
 20
-1043.99999999739
 30
0.0
 11
237.99999999861191
 21
-1040.99999999739
 31
0.0
1001
ACDBBLOCKREPETAG
1070
     1
1071
       34
1005
12CD62
  0
ARC
  5
12CD63
  8
OBJECT
 10
234.999999998612
 20
-1040.99999999739
 30
0.0
 40
3.0
 50
0.0
 51
90.0
1001
ACDBBLOCKREPETAG
1070
     1
1071
       35
1005
12CD63
  0
LINE
  5
12CD64
  8
OBJECT
 10
234.999999998612
 20
-1037.99999999739
 30
0.0
 11
116.9999999986119
 21
-1037.9999999973891
 31
0.0
1001
ACDBBLOCKREPETAG
1070
     1
1071
       36
1005
12CD64
  0
LINE
  5
12CD65
  8
HIDDEN
 10
137.99999999861191
 20
-1035.99999999739
 30
0.0
 11
213.999999998612
 21
-1035.99999999739
 31
0.0
1001
ACDBBLOCKREPETAG
1070
     1
1071
      423
1005
12CD65
  0
TEXT
  5
12CD66
  8
SLIM
 10
423.59999999981761
 20
-907.999999999691
 30
0.0
 40
48.0
  1
B104（特）
 41
0.75
1001
ACDBBLOCKREPETAG
1070
     1
1071
      119
1005
12AEEF
  0
LINE
  5
12CD67
  8
OBJECT
 10
610.99999999849024
 20
-809.999999997548
 30
0.0
 11
610.99999999849024
 21
-802.99999999754823
 31
0.0
1001
ACDBBLOCKREPETAG
1070
     1
1071
       57
1005
12CD67
  0
LINE
  5
12CD68
  8
OBJECT
 10
610.99999999849024
 20
-802.99999999754823
 30
0.0
 11
460.99999999849018
 21
-802.99999999754823
 31
0.0
1001
ACDBBLOCKREPETAG
1070
     1
1071
       58
1005
12CD68
  0
LINE
  5
12CD69
  8
OBJECT
 10
607.99999999849024
 20
-761.49999999754812
 30
0.0
 11
463.99999999849018
 21
-761.49999999754812
 31
0.0
1001
ACDBBLOCKREPETAG
1070
     1
1071
       59
1005
12CD69
  0
LINE
  5
12CD6A
  8
OBJECT
 10
601.49999999849024
 20
-749.999999997548
 30
0.0
 11
470.49999999849018
 21
-749.999999997548
 31
0.0
1001
ACDBBLOCKREPETAG
1070
     1
1071
       60
1005
12CD6A
  0
LINE
  5
12CD6B
  8
OBJECT
 10
460.99999999849018
 20
-802.99999999754823
 30
0.0
 11
460.99999999849018
 21
-809.999999997548
 31
0.0
1001
ACDBBLOCKREPETAG
1070
     1
1071
       61
1005
12CD6B
  0
LINE
  5
12CD6C
  8
OBJECT
 10
460.99999999849018
 20
-809.999999997548
 30
0.0
 11
610.99999999849024
 21
-809.999999997548
 31
0.0
1001
ACDBBLOCKREPETAG
1070
     1
1071
       62
1005
12CD6C
  0
LINE
  5
12CD6D
  8
OBJECT
 10
473.99999999849018
 20
-745.999999997548
 30
0.0
 11
473.99999999849018
 21
-739.99999999754812
 31
0.0
1001
ACDBBLOCKREPETAG
1070
     1
1071
       63
1005
12CD6D
  0
LINE
  5
12CD6E
  8
OBJECT
 10
463.99999999849018
 20
-802.99999999754823
 30
0.0
 11
463.99999999849018
 21
-761.49999999754812
 31
0.0
1001
ACDBBLOCKREPETAG
1070
     1
1071
       64
1005
12CD6E
  0
LINE
  5
12CD6F
  8
OBJECT
 10
463.99999999849018
 20
-761.49999999754812
 30
0.0
 11
470.49999999849018
 21
-749.999999997548
 31
0.0
1001
ACDBBLOCKREPETAG
1070
     1
1071
       65
1005
12CD6F
  0
LINE
  5
12CD70
  8
OBJECT
 10
470.49999999849018
 20
-749.999999997548
 30
0.0
 11
473.99999999849018
 21
-745.999999997548
 31
0.0
1001
ACDBBLOCKREPETAG
1070
     1
1071
       66
1005
12CD70
  0
LINE
  5
12CD71
  8
OBJECT
 10
607.99999999849024
 20
-761.49999999754812
 30
0.0
 11
601.49999999849024
 21
-749.999999997548
 31
0.0
1001
ACDBBLOCKREPETAG
1070
     1
1071
       67
1005
12CD71
  0
LINE
  5
12CD72
  8
OBJECT
 10
601.49999999849024
 20
-749.999999997548
 30
0.0
 11
597.99999999849024
 21
-745.999999997548
 31
0.0
1001
ACDBBLOCKREPETAG
1070
     1
1071
       68
1005
12CD72
  0
ARC
  5
12CD73
  8
OBJECT
 10
535.99999999849024
 20
-1127.899999997549
 30
0.0
 40
386.89999999999998
 50
80.778701362367499
 51
99.221298637632543
1001
ACDBBLOCKREPETAG
1070
     1
1071
       69
1005
12CD73
  0
LINE
  5
12CD74
  8
OBJECT
 10
597.99999999849024
 20
-745.999999997548
 30
0.0
 11
597.99999999849024
 21
-739.99999999754812
 31
0.0
1001
ACDBBLOCKREPETAG
1070
     1
1071
       70
1005
12CD74
  0
LINE
  5
12CD75
  8
OBJECT
 10
607.99999999849024
 20
-802.99999999754823
 30
0.0
 11
607.99999999849024
 21
-761.49999999754812
 31
0.0
1001
ACDBBLOCKREPETAG
1070
     1
1071
       71
1005
12CD75
  0
INSERT
  5
12CD76
  8
OBJECT
  2
*U17
 10
0.0
 20
0.0
 30
0.0
  0
LINE
  5
12CD77
  8
HIDDEN
 10
478.99999999849018
 20
-757.99999999754812
 30
0.0
 11
592.99999999849024
 21
-757.99999999754812
 31
0.0
1001
ACDBBLOCKREPETAG
1070
     1
1071
      437
1005
12CD77
  0
LINE
  5
12CD78
  8
OBJECT
 10
618.99999999849024
 20
-721.99999999754812
 30
0.0
 11
615.99999999849024
 21
-721.99999999754812
 31
0.0
1001
ACDBBLOCKREPETAG
1070
     1
1071
      418
1005
12CD78
  0
ARC
  5
12CD79
  8
OBJECT
 10
618.99999999849024
 20
-718.99999999754812
 30
0.0
 40
3.0
 50
270.0
 51
0.0
1001
ACDBBLOCKREPETAG
1070
     1
1071
      419
1005
12CD79
  0
LINE
  5
12CD7A
  8
OBJECT
 10
615.99999999849024
 20
-597.999999997548
 30
0.0
 11
618.99999999849024
 21
-597.999999997548
 31
0.0
1001
ACDBBLOCKREPETAG
1070
     1
1071
      420
1005
12CD7A
  0
ARC
  5
12CD7B
  8
OBJECT
 10
618.99999999849024
 20
-600.99999999754777
 30
0.0
 40
3.0
 50
0.0
 51
90.0
1001
ACDBBLOCKREPETAG
1070
     1
1071
      421
1005
12CD7B
  0
LINE
  5
12CD7C
  8
OBJECT
 10
621.99999999849024
 20
-600.99999999754777
 30
0.0
 11
621.99999999849024
 21
-718.99999999754812
 31
0.0
1001
ACDBBLOCKREPETAG
1070
     1
1071
      422
1005
12CD7C
  0
INSERT
  5
12CD7D
  8
OBJECT
  2
*U18
 10
0.0
 20
0.0
 30
0.0
  0
LINE
  5
12CD7E
  8
OBJECT
 10
488.99999999849018
 20
-526.999999997548
 30
0.0
 11
488.99999999849018
 21
-519.999999997548
 31
0.0
1001
ACDBBLOCKREPETAG
1070
     1
1071
        1
1005
12CD7E
  0
LINE
  5
12CD7F
  8
OBJECT
 10
488.99999999849018
 20
-519.999999997548
 30
0.0
 11
582.99999999849024
 21
-519.999999997548
 31
0.0
1001
ACDBBLOCKREPETAG
1070
     1
1071
        2
1005
12CD7F
  0
LINE
  5
12CD80
  8
OBJECT
 10
582.99999999849024
 20
-519.999999997548
 30
0.0
 11
582.99999999849024
 21
-526.999999997548
 31
0.0
1001
ACDBBLOCKREPETAG
1070
     1
1071
        3
1005
12CD80
  0
LINE
  5
12CD81
  8
OBJECT
 10
582.99999999849024
 20
-526.999999997548
 30
0.0
 11
488.99999999849018
 21
-526.999999997548
 31
0.0
1001
ACDBBLOCKREPETAG
1070
     1
1071
        4
1005
12CD81
  0
LINE
  5
12CD82
  8
OBJECT
 10
491.99999999849018
 20
-526.999999997548
 30
0.0
 11
491.99999999849018
 21
-562.99999999754789
 31
0.0
1001
ACDBBLOCKREPETAG
1070
     1
1071
        5
1005
12CD82
  0
LINE
  5
12CD83
  8
OBJECT
 10
491.99999999849018
 20
-562.99999999754789
 30
0.0
 11
579.99999999849024
 21
-562.99999999754789
 31
0.0
1001
ACDBBLOCKREPETAG
1070
     1
1071
        6
1005
12CD83
  0
LINE
  5
12CD84
  8
OBJECT
 10
579.99999999849024
 20
-562.99999999754789
 30
0.0
 11
579.99999999849024
 21
-526.999999997548
 31
0.0
1001
ACDBBLOCKREPETAG
1070
     1
1071
        7
1005
12CD84
  0
LINE
  5
12CD85
  8
OBJECT
 10
496.49999999849018
 20
-566.99999999754789
 30
0.0
 11
496.49999999849018
 21
-573.999999997548
 31
0.0
1001
ACDBBLOCKREPETAG
1070
     1
1071
        8
1005
12CD85
  0
LINE
  5
12CD86
  8
OBJECT
 10
575.49999999849024
 20
-573.999999997548
 30
0.0
 11
575.49999999849024
 21
-566.99999999754789
 31
0.0
1001
ACDBBLOCKREPETAG
1070
     1
1071
        9
1005
12CD86
  0
LINE
  5
12CD87
  8
OBJECT
 10
575.49999999849024
 20
-566.99999999754789
 30
0.0
 11
496.49999999849018
 21
-566.99999999754789
 31
0.0
1001
ACDBBLOCKREPETAG
1070
     1
1071
       10
1005
12CD87
  0
LINE
  5
12CD88
  8
OBJECT
 10
491.99999999849018
 20
-562.99999999754789
 30
0.0
 11
496.49999999849018
 21
-566.99999999754789
 31
0.0
1001
ACDBBLOCKREPETAG
1070
     1
1071
       11
1005
12CD88
  0
LINE
  5
12CD89
  8
OBJECT
 10
579.99999999849024
 20
-562.99999999754789
 30
0.0
 11
575.49999999849024
 21
-566.99999999754789
 31
0.0
1001
ACDBBLOCKREPETAG
1070
     1
1071
       12
1005
12CD89
  0
LINE
  5
12CD8A
  8
OBJECT
 10
473.99999999849018
 20
-576.99999999754687
 30
0.0
 11
473.99999999849018
 21
-579.99999999754777
 31
0.0
1001
ACDBBLOCKREPETAG
1070
     1
1071
       13
1005
12CD8A
  0
ARC
  5
12CD8B
  8
OBJECT
 10
476.99999999849018
 20
-576.99999999754687
 30
0.0
 40
3.0
 50
90.0
 51
180.0
1001
ACDBBLOCKREPETAG
1070
     1
1071
       14
1005
12CD8B
  0
LINE
  5
12CD8C
  8
OBJECT
 10
597.99999999849024
 20
-579.99999999754777
 30
0.0
 11
597.99999999849024
 21
-576.99999999754891
 31
0.0
1001
ACDBBLOCKREPETAG
1070
     1
1071
       15
1005
12CD8C
  0
ARC
  5
12CD8D
  8
OBJECT
 10
594.99999999849024
 20
-576.99999999754891
 30
0.0
 40
3.0
 50
0.0
 51
90.0
1001
ACDBBLOCKREPETAG
1070
     1
1071
       16
1005
12CD8D
  0
LINE
  5
12CD8E
  8
OBJECT
 10
594.99999999849024
 20
-573.99999999754891
 30
0.0
 11
476.99999999849018
 21
-573.99999999754721
 31
0.0
1001
ACDBBLOCKREPETAG
1070
     1
1071
       17
1005
12CD8E
  0
LINE
  5
12CD8F
  8
HIDDEN
 10
505.99999999849018
 20
-571.99999999754777
 30
0.0
 11
565.99999999849024
 21
-571.99999999754777
 31
0.0
1001
ACDBBLOCKREPETAG
1070
     1
1071
      420
1005
12CD8F
  0
TEXT
  5
12CD90
  8
SLIM
 10
63.599999999939421
 20
-907.999999999691
 30
0.0
 40
48.0
  1
B103（特）
 41
0.75
1001
ACDBBLOCKREPETAG
1070
     1
1071
      119
1005
12AEEF
  0
LINE
  5
12CD91
  8
OBJECT
 10
237.99999999861211
 20
-792.99999999754812
 30
0.0
 11
237.99999999861211
 21
-799.999999997548
 31
0.0
1001
ACDBBLOCKREPETAG
1070
     1
1071
       38
1005
12CD91
  0
LINE
  5
12CD92
  8
OBJECT
 10
237.99999999861211
 20
-799.999999997548
 30
0.0
 11
113.999999998612
 21
-799.999999997548
 31
0.0
1001
ACDBBLOCKREPETAG
1070
     1
1071
       39
1005
12CD92
  0
LINE
  5
12CD93
  8
OBJECT
 10
113.999999998612
 20
-799.999999997548
 30
0.0
 11
113.999999998612
 21
-792.99999999754812
 31
0.0
1001
ACDBBLOCKREPETAG
1070
     1
1071
       40
1005
12CD93
  0
LINE
  5
12CD94
  8
OBJECT
 10
113.999999998612
 20
-792.99999999754812
 30
0.0
 11
237.99999999861211
 21
-792.99999999754812
 31
0.0
1001
ACDBBLOCKREPETAG
1070
     1
1071
       41
1005
12CD94
  0
LINE
  5
12CD95
  8
OBJECT
 10
234.999999998612
 20
-792.99999999754812
 30
0.0
 11
234.999999998612
 21
-756.99999999754812
 31
0.0
1001
ACDBBLOCKREPETAG
1070
     1
1071
       42
1005
12CD95
  0
LINE
  5
12CD96
  8
OBJECT
 10
234.999999998612
 20
-756.99999999754812
 30
0.0
 11
116.999999998612
 21
-756.99999999754812
 31
0.0
1001
ACDBBLOCKREPETAG
1070
     1
1071
       43
1005
12CD96
  0
LINE
  5
12CD97
  8
OBJECT
 10
116.999999998612
 20
-756.99999999754812
 30
0.0
 11
116.999999998612
 21
-792.99999999754812
 31
0.0
1001
ACDBBLOCKREPETAG
1070
     1
1071
       44
1005
12CD97
  0
LINE
  5
12CD98
  8
OBJECT
 10
230.49999999861211
 20
-752.99999999754812
 30
0.0
 11
230.49999999861211
 21
-745.999999997548
 31
0.0
1001
ACDBBLOCKREPETAG
1070
     1
1071
       45
1005
12CD98
  0
LINE
  5
12CD99
  8
OBJECT
 10
121.499999998612
 20
-745.999999997548
 30
0.0
 11
121.499999998612
 21
-752.99999999754812
 31
0.0
1001
ACDBBLOCKREPETAG
1070
     1
1071
       46
1005
12CD99
  0
LINE
  5
12CD9A
  8
OBJECT
 10
121.499999998612
 20
-752.99999999754812
 30
0.0
 11
230.49999999861211
 21
-752.99999999754812
 31
0.0
1001
ACDBBLOCKREPETAG
1070
     1
1071
       47
1005
12CD9A
  0
LINE
  5
12CD9B
  8
OBJECT
 10
234.999999998612
 20
-756.99999999754812
 30
0.0
 11
230.49999999861211
 21
-752.99999999754812
 31
0.0
1001
ACDBBLOCKREPETAG
1070
     1
1071
       48
1005
12CD9B
  0
LINE
  5
12CD9C
  8
OBJECT
 10
116.999999998612
 20
-756.99999999754812
 30
0.0
 11
121.499999998612
 21
-752.99999999754812
 31
0.0
1001
ACDBBLOCKREPETAG
1070
     1
1071
       49
1005
12CD9C
  0
LINE
  5
12CD9D
  8
OBJECT
 10
237.99999999861211
 20
-742.99999999754903
 30
0.0
 11
237.99999999861211
 21
-739.99999999754812
 31
0.0
1001
ACDBBLOCKREPETAG
1070
     1
1071
       50
1005
12CD9D
  0
ARC
  5
12CD9E
  8
OBJECT
 10
234.999999998612
 20
-742.99999999754903
 30
0.0
 40
3.0
 50
270.0
 51
0.0
1001
ACDBBLOCKREPETAG
1070
     1
1071
       51
1005
12CD9E
  0
LINE
  5
12CD9F
  8
OBJECT
 10
113.999999998612
 20
-739.99999999754812
 30
0.0
 11
113.999999998612
 21
-742.99999999754687
 31
0.0
1001
ACDBBLOCKREPETAG
1070
     1
1071
       52
1005
12CD9F
  0
ARC
  5
12CDA0
  8
OBJECT
 10
116.999999998612
 20
-742.99999999754687
 30
0.0
 40
3.0
 50
180.0
 51
270.0
1001
ACDBBLOCKREPETAG
1070
     1
1071
       53
1005
12CDA0
  0
LINE
  5
12CDA1
  8
OBJECT
 10
116.999999998612
 20
-745.99999999754721
 30
0.0
 11
234.999999998612
 21
-745.99999999754868
 31
0.0
1001
ACDBBLOCKREPETAG
1070
     1
1071
       54
1005
12CDA1
  0
INSERT
  5
12CDA2
  8
OBJECT
  2
*U19
 10
0.0
 20
0.0
 30
0.0
  0
LINE
  5
12CDA3
  8
HIDDEN
 10
220.499999998612
 20
-747.99999999754812
 30
0.0
 11
131.499999998612
 21
-747.99999999754812
 31
0.0
1001
ACDBBLOCKREPETAG
1070
     1
1071
      430
1005
12CDA3
  0
LINE
  5
12CDA4
  8
OBJECT
 10
258.99999999861211
 20
-721.99999999754812
 30
0.0
 11
255.999999998612
 21
-721.99999999754812
 31
0.0
1001
ACDBBLOCKREPETAG
1070
     1
1071
      418
1005
12CDA4
  0
ARC
  5
12CDA5
  8
OBJECT
 10
258.99999999861211
 20
-718.99999999754812
 30
0.0
 40
3.0
 50
270.0
 51
0.0
1001
ACDBBLOCKREPETAG
1070
     1
1071
      419
1005
12CDA5
  0
LINE
  5
12CDA6
  8
OBJECT
 10
255.999999998612
 20
-597.999999997548
 30
0.0
 11
258.99999999861211
 21
-597.999999997548
 31
0.0
1001
ACDBBLOCKREPETAG
1070
     1
1071
      420
1005
12CDA6
  0
ARC
  5
12CDA7
  8
OBJECT
 10
258.99999999861211
 20
-600.99999999754777
 30
0.0
 40
3.0
 50
0.0
 51
90.0
1001
ACDBBLOCKREPETAG
1070
     1
1071
      421
1005
12CDA7
  0
LINE
  5
12CDA8
  8
OBJECT
 10
261.999999998612
 20
-600.99999999754777
 30
0.0
 11
261.999999998612
 21
-718.99999999754812
 31
0.0
1001
ACDBBLOCKREPETAG
1070
     1
1071
      422
1005
12CDA8
  0
INSERT
  5
12CDA9
  8
OBJECT
  2
*U20
 10
0.0
 20
0.0
 30
0.0
  0
LINE
  5
12CDAA
  8
OBJECT
 10
128.999999998612
 20
-526.999999997548
 30
0.0
 11
128.999999998612
 21
-519.999999997548
 31
0.0
1001
ACDBBLOCKREPETAG
1070
     1
1071
        1
1005
12CDAA
  0
LINE
  5
12CDAB
  8
OBJECT
 10
128.999999998612
 20
-519.999999997548
 30
0.0
 11
222.999999998612
 21
-519.999999997548
 31
0.0
1001
ACDBBLOCKREPETAG
1070
     1
1071
        2
1005
12CDAB
  0
LINE
  5
12CDAC
  8
OBJECT
 10
222.999999998612
 20
-519.999999997548
 30
0.0
 11
222.999999998612
 21
-526.999999997548
 31
0.0
1001
ACDBBLOCKREPETAG
1070
     1
1071
        3
1005
12CDAC
  0
LINE
  5
12CDAD
  8
OBJECT
 10
222.999999998612
 20
-526.999999997548
 30
0.0
 11
128.999999998612
 21
-526.999999997548
 31
0.0
1001
ACDBBLOCKREPETAG
1070
     1
1071
        4
1005
12CDAD
  0
LINE
  5
12CDAE
  8
OBJECT
 10
131.999999998612
 20
-526.999999997548
 30
0.0
 11
131.999999998612
 21
-562.99999999754789
 31
0.0
1001
ACDBBLOCKREPETAG
1070
     1
1071
        5
1005
12CDAE
  0
LINE
  5
12CDAF
  8
OBJECT
 10
131.999999998612
 20
-562.99999999754789
 30
0.0
 11
219.99999999861211
 21
-562.99999999754789
 31
0.0
1001
ACDBBLOCKREPETAG
1070
     1
1071
        6
1005
12CDAF
  0
LINE
  5
12CDB0
  8
OBJECT
 10
219.99999999861211
 20
-562.99999999754789
 30
0.0
 11
219.99999999861211
 21
-526.999999997548
 31
0.0
1001
ACDBBLOCKREPETAG
1070
     1
1071
        7
1005
12CDB0
  0
LINE
  5
12CDB1
  8
OBJECT
 10
136.499999998612
 20
-566.99999999754789
 30
0.0
 11
136.499999998612
 21
-573.999999997548
 31
0.0
1001
ACDBBLOCKREPETAG
1070
     1
1071
        8
1005
12CDB1
  0
LINE
  5
12CDB2
  8
OBJECT
 10
215.49999999861211
 20
-573.999999997548
 30
0.0
 11
215.49999999861211
 21
-566.99999999754789
 31
0.0
1001
ACDBBLOCKREPETAG
1070
     1
1071
        9
1005
12CDB2
  0
LINE
  5
12CDB3
  8
OBJECT
 10
215.49999999861211
 20
-566.99999999754789
 30
0.0
 11
136.499999998612
 21
-566.99999999754789
 31
0.0
1001
ACDBBLOCKREPETAG
1070
     1
1071
       10
1005
12CDB3
  0
LINE
  5
12CDB4
  8
OBJECT
 10
131.999999998612
 20
-562.99999999754789
 30
0.0
 11
136.499999998612
 21
-566.99999999754789
 31
0.0
1001
ACDBBLOCKREPETAG
1070
     1
1071
       11
1005
12CDB4
  0
LINE
  5
12CDB5
  8
OBJECT
 10
219.99999999861211
 20
-562.99999999754789
 30
0.0
 11
215.49999999861211
 21
-566.99999999754789
 31
0.0
1001
ACDBBLOCKREPETAG
1070
     1
1071
       12
1005
12CDB5
  0
LINE
  5
12CDB6
  8
OBJECT
 10
113.999999998612
 20
-576.99999999754687
 30
0.0
 11
113.999999998612
 21
-579.99999999754777
 31
0.0
1001
ACDBBLOCKREPETAG
1070
     1
1071
       13
1005
12CDB6
  0
ARC
  5
12CDB7
  8
OBJECT
 10
116.999999998612
 20
-576.99999999754687
 30
0.0
 40
3.0
 50
90.0
 51
180.0
1001
ACDBBLOCKREPETAG
1070
     1
1071
       14
1005
12CDB7
  0
LINE
  5
12CDB8
  8
OBJECT
 10
237.99999999861211
 20
-579.99999999754777
 30
0.0
 11
237.99999999861211
 21
-576.99999999754891
 31
0.0
1001
ACDBBLOCKREPETAG
1070
     1
1071
       15
1005
12CDB8
  0
ARC
  5
12CDB9
  8
OBJECT
 10
234.999999998612
 20
-576.99999999754891
 30
0.0
 40
3.0
 50
0.0
 51
90.0
1001
ACDBBLOCKREPETAG
1070
     1
1071
       16
1005
12CDB9
  0
LINE
  5
12CDBA
  8
OBJECT
 10
234.999999998612
 20
-573.99999999754891
 30
0.0
 11
116.999999998612
 21
-573.99999999754721
 31
0.0
1001
ACDBBLOCKREPETAG
1070
     1
1071
       17
1005
12CDBA
  0
LINE
  5
12CDBB
  8
HIDDEN
 10
145.999999998612
 20
-571.99999999754777
 30
0.0
 11
205.999999998612
 21
-571.99999999754777
 31
0.0
1001
ACDBBLOCKREPETAG
1070
     1
1071
      420
1005
12CDBB
  0
TEXT
  5
12CDBC
  8
SLIM
 10
479.14285714267481
 20
-443.99999999984919
 30
0.0
 40
48.0
  1
B102
 41
0.75
1001
ACDBBLOCKREPETAG
1070
     1
1071
      119
1005
12AEEF
  0
LINE
  5
12CDBD
  8
OBJECT
 10
590.99999999849024
 20
-328.99999999770631
 30
0.0
 11
590.99999999849024
 21
-335.99999999770631
 31
0.0
1001
ACDBBLOCKREPETAG
1070
     1
1071
       19
1005
12CDBD
  0
LINE
  5
12CDBE
  8
OBJECT
 10
590.99999999849024
 20
-335.99999999770631
 30
0.0
 11
480.99999999849018
 21
-335.99999999770631
 31
0.0
1001
ACDBBLOCKREPETAG
1070
     1
1071
       20
1005
12CDBE
  0
LINE
  5
12CDBF
  8
OBJECT
 10
480.99999999849018
 20
-335.99999999770631
 30
0.0
 11
480.99999999849018
 21
-328.99999999770631
 31
0.0
1001
ACDBBLOCKREPETAG
1070
     1
1071
       21
1005
12CDBF
  0
LINE
  5
12CDC0
  8
OBJECT
 10
480.99999999849018
 20
-328.99999999770631
 30
0.0
 11
590.99999999849024
 21
-328.99999999770631
 31
0.0
1001
ACDBBLOCKREPETAG
1070
     1
1071
       22
1005
12CDC0
  0
LINE
  5
12CDC1
  8
OBJECT
 10
587.99999999849024
 20
-328.99999999770631
 30
0.0
 11
587.99999999849024
 21
-292.99999999770631
 31
0.0
1001
ACDBBLOCKREPETAG
1070
     1
1071
       23
1005
12CDC1
  0
LINE
  5
12CDC2
  8
OBJECT
 10
587.99999999849024
 20
-292.99999999770631
 30
0.0
 11
483.99999999849018
 21
-292.99999999770631
 31
0.0
1001
ACDBBLOCKREPETAG
1070
     1
1071
       24
1005
12CDC2
  0
LINE
  5
12CDC3
  8
OBJECT
 10
483.99999999849018
 20
-292.99999999770631
 30
0.0
 11
483.99999999849018
 21
-328.99999999770631
 31
0.0
1001
ACDBBLOCKREPETAG
1070
     1
1071
       25
1005
12CDC3
  0
LINE
  5
12CDC4
  8
OBJECT
 10
583.49999999849024
 20
-288.9999999977062
 30
0.0
 11
583.49999999849024
 21
-281.99999999770631
 31
0.0
1001
ACDBBLOCKREPETAG
1070
     1
1071
       26
1005
12CDC4
  0
LINE
  5
12CDC5
  8
OBJECT
 10
488.49999999849018
 20
-281.99999999770631
 30
0.0
 11
488.49999999849018
 21
-288.9999999977062
 31
0.0
1001
ACDBBLOCKREPETAG
1070
     1
1071
       27
1005
12CDC5
  0
LINE
  5
12CDC6
  8
OBJECT
 10
488.49999999849018
 20
-288.9999999977062
 30
0.0
 11
583.49999999849024
 21
-288.9999999977062
 31
0.0
1001
ACDBBLOCKREPETAG
1070
     1
1071
       28
1005
12CDC6
  0
LINE
  5
12CDC7
  8
OBJECT
 10
587.99999999849024
 20
-292.99999999770631
 30
0.0
 11
583.49999999849024
 21
-288.9999999977062
 31
0.0
1001
ACDBBLOCKREPETAG
1070
     1
1071
       29
1005
12CDC7
  0
LINE
  5
12CDC8
  8
OBJECT
 10
483.99999999849018
 20
-292.99999999770631
 30
0.0
 11
488.49999999849018
 21
-288.9999999977062
 31
0.0
1001
ACDBBLOCKREPETAG
1070
     1
1071
       30
1005
12CDC8
  0
LINE
  5
12CDC9
  8
OBJECT
 10
597.99999999849024
 20
-278.99999999770722
 30
0.0
 11
597.99999999849024
 21
-275.99999999770631
 31
0.0
1001
ACDBBLOCKREPETAG
1070
     1
1071
       31
1005
12CDC9
  0
ARC
  5
12CDCA
  8
OBJECT
 10
594.99999999849024
 20
-278.99999999770722
 30
0.0
 40
3.0
 50
270.0
 51
0.0
1001
ACDBBLOCKREPETAG
1070
     1
1071
       32
1005
12CDCA
  0
LINE
  5
12CDCB
  8
OBJECT
 10
473.99999999849018
 20
-275.99999999770631
 30
0.0
 11
473.99999999849018
 21
-278.99999999770529
 31
0.0
1001
ACDBBLOCKREPETAG
1070
     1
1071
       33
1005
12CDCB
  0
ARC
  5
12CDCC
  8
OBJECT
 10
476.99999999849018
 20
-278.99999999770529
 30
0.0
 40
3.0
 50
180.0
 51
270.0
1001
ACDBBLOCKREPETAG
1070
     1
1071
       34
1005
12CDCC
  0
LINE
  5
12CDCD
  8
OBJECT
 10
476.99999999849018
 20
-281.99999999770529
 30
0.0
 11
594.99999999849024
 21
-281.99999999770711
 31
0.0
1001
ACDBBLOCKREPETAG
1070
     1
1071
       35
1005
12CDCD
  0
INSERT
  5
12CDCE
  8
OBJECT
  2
*U21
 10
0.0
 20
0.0
 30
0.0
  0
LINE
  5
12CDCF
  8
HIDDEN
 10
573.99999999849024
 20
-283.99999999770631
 30
0.0
 11
497.99999999849018
 21
-283.99999999770631
 31
0.0
1001
ACDBBLOCKREPETAG
1070
     1
1071
      427
1005
12CDCF
  0
LINE
  5
12CDD0
  8
OBJECT
 10
618.99999999849024
 20
-257.9999999977062
 30
0.0
 11
615.99999999849024
 21
-257.9999999977062
 31
0.0
1001
ACDBBLOCKREPETAG
1070
     1
1071
      418
1005
12CDD0
  0
ARC
  5
12CDD1
  8
OBJECT
 10
618.99999999849024
 20
-254.99999999770631
 30
0.0
 40
3.0
 50
270.0
 51
0.0
1001
ACDBBLOCKREPETAG
1070
     1
1071
      419
1005
12CDD1
  0
LINE
  5
12CDD2
  8
OBJECT
 10
615.99999999849024
 20
-133.9999999977062
 30
0.0
 11
618.99999999849024
 21
-133.9999999977062
 31
0.0
1001
ACDBBLOCKREPETAG
1070
     1
1071
      420
1005
12CDD2
  0
ARC
  5
12CDD3
  8
OBJECT
 10
618.99999999849024
 20
-136.9999999977062
 30
0.0
 40
3.0
 50
0.0
 51
90.0
1001
ACDBBLOCKREPETAG
1070
     1
1071
      421
1005
12CDD3
  0
LINE
  5
12CDD4
  8
OBJECT
 10
621.99999999849024
 20
-136.9999999977062
 30
0.0
 11
621.99999999849024
 21
-254.99999999770631
 31
0.0
1001
ACDBBLOCKREPETAG
1070
     1
1071
      422
1005
12CDD4
  0
INSERT
  5
12CDD5
  8
OBJECT
  2
*U22
 10
0.0
 20
0.0
 30
0.0
  0
LINE
  5
12CDD6
  8
OBJECT
 10
488.99999999849018
 20
-62.999999997706247
 30
0.0
 11
488.99999999849018
 21
-55.999999997706247
 31
0.0
1001
ACDBBLOCKREPETAG
1070
     1
1071
        1
1005
12CDD6
  0
LINE
  5
12CDD7
  8
OBJECT
 10
488.99999999849018
 20
-55.999999997706247
 30
0.0
 11
582.99999999849024
 21
-55.999999997706247
 31
0.0
1001
ACDBBLOCKREPETAG
1070
     1
1071
        2
1005
12CDD7
  0
LINE
  5
12CDD8
  8
OBJECT
 10
582.99999999849024
 20
-55.999999997706247
 30
0.0
 11
582.99999999849024
 21
-62.999999997706247
 31
0.0
1001
ACDBBLOCKREPETAG
1070
     1
1071
        3
1005
12CDD8
  0
LINE
  5
12CDD9
  8
OBJECT
 10
582.99999999849024
 20
-62.999999997706247
 30
0.0
 11
488.99999999849018
 21
-62.999999997706247
 31
0.0
1001
ACDBBLOCKREPETAG
1070
     1
1071
        4
1005
12CDD9
  0
LINE
  5
12CDDA
  8
OBJECT
 10
491.99999999849018
 20
-62.999999997706247
 30
0.0
 11
491.99999999849018
 21
-98.99999999770624
 31
0.0
1001
ACDBBLOCKREPETAG
1070
     1
1071
        5
1005
12CDDA
  0
LINE
  5
12CDDB
  8
OBJECT
 10
491.99999999849018
 20
-98.99999999770624
 30
0.0
 11
579.99999999849024
 21
-98.99999999770624
 31
0.0
1001
ACDBBLOCKREPETAG
1070
     1
1071
        6
1005
12CDDB
  0
LINE
  5
12CDDC
  8
OBJECT
 10
579.99999999849024
 20
-98.99999999770624
 30
0.0
 11
579.99999999849024
 21
-62.999999997706247
 31
0.0
1001
ACDBBLOCKREPETAG
1070
     1
1071
        7
1005
12CDDC
  0
LINE
  5
12CDDD
  8
OBJECT
 10
496.49999999849018
 20
-102.9999999977062
 30
0.0
 11
496.49999999849018
 21
-109.9999999977062
 31
0.0
1001
ACDBBLOCKREPETAG
1070
     1
1071
        8
1005
12CDDD
  0
LINE
  5
12CDDE
  8
OBJECT
 10
575.49999999849024
 20
-109.9999999977062
 30
0.0
 11
575.49999999849024
 21
-102.9999999977062
 31
0.0
1001
ACDBBLOCKREPETAG
1070
     1
1071
        9
1005
12CDDE
  0
LINE
  5
12CDDF
  8
OBJECT
 10
575.49999999849024
 20
-102.9999999977062
 30
0.0
 11
496.49999999849018
 21
-102.9999999977062
 31
0.0
1001
ACDBBLOCKREPETAG
1070
     1
1071
       10
1005
12CDDF
  0
LINE
  5
12CDE0
  8
OBJECT
 10
491.99999999849018
 20
-98.99999999770624
 30
0.0
 11
496.49999999849018
 21
-102.9999999977062
 31
0.0
1001
ACDBBLOCKREPETAG
1070
     1
1071
       11
1005
12CDE0
  0
LINE
  5
12CDE1
  8
OBJECT
 10
579.99999999849024
 20
-98.99999999770624
 30
0.0
 11
575.49999999849024
 21
-102.9999999977062
 31
0.0
1001
ACDBBLOCKREPETAG
1070
     1
1071
       12
1005
12CDE1
  0
LINE
  5
12CDE2
  8
OBJECT
 10
473.99999999849018
 20
-112.9999999977053
 30
0.0
 11
473.99999999849018
 21
-115.9999999977062
 31
0.0
1001
ACDBBLOCKREPETAG
1070
     1
1071
       13
1005
12CDE2
  0
ARC
  5
12CDE3
  8
OBJECT
 10
476.99999999849018
 20
-112.9999999977053
 30
0.0
 40
3.0
 50
90.0
 51
180.0
1001
ACDBBLOCKREPETAG
1070
     1
1071
       14
1005
12CDE3
  0
LINE
  5
12CDE4
  8
OBJECT
 10
597.99999999849024
 20
-115.9999999977062
 30
0.0
 11
597.99999999849024
 21
-112.99999999770711
 31
0.0
1001
ACDBBLOCKREPETAG
1070
     1
1071
       15
1005
12CDE4
  0
ARC
  5
12CDE5
  8
OBJECT
 10
594.99999999849024
 20
-112.99999999770711
 30
0.0
 40
3.0
 50
0.0
 51
90.0
1001
ACDBBLOCKREPETAG
1070
     1
1071
       16
1005
12CDE5
  0
LINE
  5
12CDE6
  8
OBJECT
 10
594.99999999849024
 20
-109.99999999770711
 30
0.0
 11
476.99999999849018
 21
-109.9999999977053
 31
0.0
1001
ACDBBLOCKREPETAG
1070
     1
1071
       17
1005
12CDE6
  0
LINE
  5
12CDE7
  8
HIDDEN
 10
505.99999999849018
 20
-107.9999999977062
 30
0.0
 11
565.99999999849024
 21
-107.9999999977062
 31
0.0
1001
ACDBBLOCKREPETAG
1070
     1
1071
      420
1005
12CDE7
  0
LINE
  5
12CDE8
  8
OBJECT
 10
1867.0
 20
-261.99999999999909
 30
0.0
 11
1860.0
 21
-261.99999999999909
 31
0.0
1001
ACDBBLOCKREPETAG
1070
     1
1071
       47
1005
12CDE8
  0
LINE
  5
12CDE9
  8
OBJECT
 10
1860.0
 20
-261.99999999999909
 30
0.0
 11
1860.0
 21
-137.99999999999909
 31
0.0
1001
ACDBBLOCKREPETAG
1070
     1
1071
       48
1005
12CDE9
  0
LINE
  5
12CDEA
  8
OBJECT
 10
1860.0
 20
-137.99999999999909
 30
0.0
 11
1867.0
 21
-137.99999999999909
 31
0.0
1001
ACDBBLOCKREPETAG
1070
     1
1071
       49
1005
12CDEA
  0
LINE
  5
12CDEB
  8
OBJECT
 10
1867.0
 20
-137.99999999999909
 30
0.0
 11
1867.0
 21
-261.99999999999909
 31
0.0
1001
ACDBBLOCKREPETAG
1070
     1
1071
       50
1005
12CDEB
  0
LINE
  5
12CDEC
  8
CENTER
 10
1845.0
 20
-199.99999999999909
 30
0.0
 11
1920.0
 21
-199.99999999999909
 31
0.0
1001
ACDBBLOCKREPETAG
1070
     1
1071
       51
1005
12CDEC
  0
LINE
  5
12CDED
  8
OBJECT
 10
1867.0
 20
-258.99999999999909
 30
0.0
 11
1903.0
 21
-258.99999999999909
 31
0.0
1001
ACDBBLOCKREPETAG
1070
     1
1071
       52
1005
12CDED
  0
LINE
  5
12CDEE
  8
OBJECT
 10
1903.0
 20
-258.99999999999909
 30
0.0
 11
1903.0
 21
-140.99999999999909
 31
0.0
1001
ACDBBLOCKREPETAG
1070
     1
1071
       53
1005
12CDEE
  0
LINE
  5
12CDEF
  8
OBJECT
 10
1903.0
 20
-140.99999999999909
 30
0.0
 11
1867.0
 21
-140.99999999999909
 31
0.0
1001
ACDBBLOCKREPETAG
1070
     1
1071
       54
1005
12CDEF
  0
LINE
  5
12CDF0
  8
OBJECT
 10
1907.0
 20
-254.49999999999909
 30
0.0
 11
1914.0
 21
-254.49999999999909
 31
0.0
1001
ACDBBLOCKREPETAG
1070
     1
1071
       55
1005
12CDF0
  0
LINE
  5
12CDF1
  8
OBJECT
 10
1914.0
 20
-145.49999999999909
 30
0.0
 11
1907.0
 21
-145.49999999999909
 31
0.0
1001
ACDBBLOCKREPETAG
1070
     1
1071
       56
1005
12CDF1
  0
LINE
  5
12CDF2
  8
OBJECT
 10
1907.0
 20
-145.49999999999909
 30
0.0
 11
1907.0
 21
-254.49999999999909
 31
0.0
1001
ACDBBLOCKREPETAG
1070
     1
1071
       57
1005
12CDF2
  0
LINE
  5
12CDF3
  8
OBJECT
 10
1903.0
 20
-258.99999999999909
 30
0.0
 11
1907.0
 21
-254.49999999999909
 31
0.0
1001
ACDBBLOCKREPETAG
1070
     1
1071
       58
1005
12CDF3
  0
LINE
  5
12CDF4
  8
OBJECT
 10
1903.0
 20
-140.99999999999909
 30
0.0
 11
1907.0
 21
-145.49999999999909
 31
0.0
1001
ACDBBLOCKREPETAG
1070
     1
1071
       59
1005
12CDF4
  0
LINE
  5
12CDF5
  8
OBJECT
 10
1917.0
 20
-261.99999999999909
 30
0.0
 11
1920.0
 21
-261.99999999999909
 31
0.0
1001
ACDBBLOCKREPETAG
1070
     1
1071
       60
1005
12CDF5
  0
ARC
  5
12CDF6
  8
OBJECT
 10
1917.0
 20
-258.99999999999909
 30
0.0
 40
3.0
 50
180.0
 51
270.0
1001
ACDBBLOCKREPETAG
1070
     1
1071
       61
1005
12CDF6
  0
LINE
  5
12CDF7
  8
OBJECT
 10
1920.0
 20
-137.99999999999909
 30
0.0
 11
1917.0
 21
-137.99999999999909
 31
0.0
1001
ACDBBLOCKREPETAG
1070
     1
1071
       62
1005
12CDF7
  0
ARC
  5
12CDF8
  8
OBJECT
 10
1917.0
 20
-140.99999999999909
 30
0.0
 40
3.0
 50
90.0
 51
180.0
1001
ACDBBLOCKREPETAG
1070
     1
1071
       63
1005
12CDF8
  0
LINE
  5
12CDF9
  8
OBJECT
 10
1914.0
 20
-140.99999999999909
 30
0.0
 11
1914.0
 21
-258.99999999999909
 31
0.0
1001
ACDBBLOCKREPETAG
1070
     1
1071
       64
1005
12CDF9
  0
LINE
  5
12CDFA
  8
HIDDEN
 10
1912.0
 20
-244.49999999999909
 30
0.0
 11
1912.0
 21
-155.49999999999909
 31
0.0
1001
ACDBBLOCKREPETAG
1070
     1
1071
       65
1005
12CDFA
  0
LINE
  5
12CDFB
  8
CENTER
 10
2000.0
 20
-300.99999999999898
 30
0.0
 11
2000.0
 21
-279.99999999999909
 31
0.0
1001
ACDBBLOCKREPETAG
1070
     1
1071
        0
1005
12CDFB
  0
LINE
  5
12CDFC
  8
OBJECT
 10
2062.0
 20
-283.0
 30
0.0
 11
2062.0
 21
-279.99999999999909
 31
0.0
1001
ACDBBLOCKREPETAG
1070
     1
1071
        1
1005
12CDFC
  0
ARC
  5
12CDFD
  8
OBJECT
 10
2059.0
 20
-283.0
 30
0.0
 40
3.0
 50
270.0
 51
0.0
1001
ACDBBLOCKREPETAG
1070
     1
1071
        2
1005
12CDFD
  0
LINE
  5
12CDFE
  8
OBJECT
 10
1938.0
 20
-279.99999999999909
 30
0.0
 11
1938.0
 21
-282.99999999999818
 31
0.0
1001
ACDBBLOCKREPETAG
1070
     1
1071
        3
1005
12CDFE
  0
ARC
  5
12CDFF
  8
OBJECT
 10
1941.0
 20
-282.99999999999818
 30
0.0
 40
3.0
 50
180.0
 51
270.0
1001
ACDBBLOCKREPETAG
1070
     1
1071
        4
1005
12CDFF
  0
LINE
  5
12CE00
  8
OBJECT
 10
1941.0
 20
-285.99999999999818
 30
0.0
 11
2059.0
 21
-286.0
 31
0.0
1001
ACDBBLOCKREPETAG
1070
     1
1071
        5
1005
12CE00
  0
LINE
  5
12CE01
  8
OBJECT
 10
2133.0
 20
-137.99999999999909
 30
0.0
 11
2140.0
 21
-137.99999999999909
 31
0.0
1001
ACDBBLOCKREPETAG
1070
     1
1071
       47
1005
12CE01
  0
LINE
  5
12CE02
  8
OBJECT
 10
2140.0
 20
-137.99999999999909
 30
0.0
 11
2140.0
 21
-261.99999999999909
 31
0.0
1001
ACDBBLOCKREPETAG
1070
     1
1071
       48
1005
12CE02
  0
LINE
  5
12CE03
  8
OBJECT
 10
2140.0
 20
-261.99999999999909
 30
0.0
 11
2133.0
 21
-261.99999999999909
 31
0.0
1001
ACDBBLOCKREPETAG
1070
     1
1071
       49
1005
12CE03
  0
LINE
  5
12CE04
  8
OBJECT
 10
2133.0
 20
-261.99999999999909
 30
0.0
 11
2133.0
 21
-137.99999999999909
 31
0.0
1001
ACDBBLOCKREPETAG
1070
     1
1071
       50
1005
12CE04
  0
LINE
  5
12CE05
  8
CENTER
 10
2155.0
 20
-199.99999999999909
 30
0.0
 11
2080.0
 21
-199.99999999999909
 31
0.0
1001
ACDBBLOCKREPETAG
1070
     1
1071
       51
1005
12CE05
  0
LINE
  5
12CE06
  8
OBJECT
 10
2133.0
 20
-140.99999999999909
 30
0.0
 11
2097.0
 21
-140.99999999999909
 31
0.0
1001
ACDBBLOCKREPETAG
1070
     1
1071
       52
1005
12CE06
  0
LINE
  5
12CE07
  8
OBJECT
 10
2097.0
 20
-140.99999999999909
 30
0.0
 11
2097.0
 21
-258.99999999999909
 31
0.0
1001
ACDBBLOCKREPETAG
1070
     1
1071
       53
1005
12CE07
  0
LINE
  5
12CE08
  8
OBJECT
 10
2097.0
 20
-258.99999999999909
 30
0.0
 11
2133.0
 21
-258.99999999999909
 31
0.0
1001
ACDBBLOCKREPETAG
1070
     1
1071
       54
1005
12CE08
  0
LINE
  5
12CE09
  8
OBJECT
 10
2093.0
 20
-145.49999999999909
 30
0.0
 11
2086.0
 21
-145.49999999999909
 31
0.0
1001
ACDBBLOCKREPETAG
1070
     1
1071
       55
1005
12CE09
  0
LINE
  5
12CE0A
  8
OBJECT
 10
2086.0
 20
-254.49999999999909
 30
0.0
 11
2093.0
 21
-254.49999999999909
 31
0.0
1001
ACDBBLOCKREPETAG
1070
     1
1071
       56
1005
12CE0A
  0
LINE
  5
12CE0B
  8
OBJECT
 10
2093.0
 20
-254.49999999999909
 30
0.0
 11
2093.0
 21
-145.49999999999909
 31
0.0
1001
ACDBBLOCKREPETAG
1070
     1
1071
       57
1005
12CE0B
  0
LINE
  5
12CE0C
  8
OBJECT
 10
2097.0
 20
-140.99999999999909
 30
0.0
 11
2093.0
 21
-145.49999999999909
 31
0.0
1001
ACDBBLOCKREPETAG
1070
     1
1071
       58
1005
12CE0C
  0
LINE
  5
12CE0D
  8
OBJECT
 10
2097.0
 20
-258.99999999999909
 30
0.0
 11
2093.0
 21
-254.49999999999909
 31
0.0
1001
ACDBBLOCKREPETAG
1070
     1
1071
       59
1005
12CE0D
  0
LINE
  5
12CE0E
  8
OBJECT
 10
2083.0
 20
-137.99999999999909
 30
0.0
 11
2080.0
 21
-137.99999999999909
 31
0.0
1001
ACDBBLOCKREPETAG
1070
     1
1071
       60
1005
12CE0E
  0
ARC
  5
12CE0F
  8
OBJECT
 10
2083.0
 20
-140.99999999999909
 30
0.0
 40
3.0
 50
0.0
 51
90.0
1001
ACDBBLOCKREPETAG
1070
     1
1071
       61
1005
12CE0F
  0
LINE
  5
12CE10
  8
OBJECT
 10
2080.0
 20
-261.99999999999909
 30
0.0
 11
2083.0
 21
-261.99999999999909
 31
0.0
1001
ACDBBLOCKREPETAG
1070
     1
1071
       62
1005
12CE10
  0
ARC
  5
12CE11
  8
OBJECT
 10
2083.0
 20
-258.99999999999909
 30
0.0
 40
3.0
 50
270.0
 51
0.0
1001
ACDBBLOCKREPETAG
1070
     1
1071
       63
1005
12CE11
  0
LINE
  5
12CE12
  8
OBJECT
 10
2086.0
 20
-258.99999999999909
 30
0.0
 11
2086.0
 21
-140.99999999999909
 31
0.0
1001
ACDBBLOCKREPETAG
1070
     1
1071
       64
1005
12CE12
  0
LINE
  5
12CE13
  8
HIDDEN
 10
2088.0
 20
-155.49999999999909
 30
0.0
 11
2088.0
 21
-244.49999999999909
 31
0.0
1001
ACDBBLOCKREPETAG
1070
     1
1071
       65
1005
12CE13
  0
LINE
  5
12CE14
  8
OBJECT
 10
1867.0
 20
-634.0
 30
0.0
 11
1860.0
 21
-634.0
 31
0.0
1001
ACDBBLOCKREPETAG
1070
     1
1071
       45
1005
12CE14
  0
LINE
  5
12CE15
  8
OBJECT
 10
1860.0
 20
-634.0
 30
0.0
 11
1860.0
 21
-755.0
 31
0.0
1001
ACDBBLOCKREPETAG
1070
     1
1071
       46
1005
12CE15
  0
LINE
  5
12CE16
  8
OBJECT
 10
1867.0
 20
-755.0
 30
0.0
 11
1867.0
 21
-634.0
 31
0.0
1001
ACDBBLOCKREPETAG
1070
     1
1071
       47
1005
12CE16
  0
LINE
  5
12CE17
  8
CENTER
 10
1845.0
 20
-696.0
 30
0.0
 11
1929.0
 21
-696.0
 31
0.0
1001
ACDBBLOCKREPETAG
1070
     1
1071
       48
1005
12CE17
  0
LINE
  5
12CE18
  8
OBJECT
 10
1867.0
 20
-637.0
 30
0.0
 11
1903.0
 21
-637.0
 31
0.0
1001
ACDBBLOCKREPETAG
1070
     1
1071
       49
1005
12CE18
  0
LINE
  5
12CE19
  8
OBJECT
 10
1903.0
 20
-637.0
 30
0.0
 11
1903.0
 21
-755.0
 31
0.0
1001
ACDBBLOCKREPETAG
1070
     1
1071
       50
1005
12CE19
  0
LINE
  5
12CE1A
  8
OBJECT
 10
1903.0
 20
-755.0
 30
0.0
 11
1860.0
 21
-755.0
 31
0.0
1001
ACDBBLOCKREPETAG
1070
     1
1071
       51
1005
12CE1A
  0
LINE
  5
12CE1B
  8
OBJECT
 10
1907.0
 20
-641.5
 30
0.0
 11
1914.0
 21
-641.5
 31
0.0
1001
ACDBBLOCKREPETAG
1070
     1
1071
       52
1005
12CE1B
  0
LINE
  5
12CE1C
  8
OBJECT
 10
1914.0
 20
-750.49999999999989
 30
0.0
 11
1907.0
 21
-750.49999999999989
 31
0.0
1001
ACDBBLOCKREPETAG
1070
     1
1071
       53
1005
12CE1C
  0
LINE
  5
12CE1D
  8
OBJECT
 10
1907.0
 20
-750.49999999999989
 30
0.0
 11
1907.0
 21
-641.5
 31
0.0
1001
ACDBBLOCKREPETAG
1070
     1
1071
       54
1005
12CE1D
  0
LINE
  5
12CE1E
  8
OBJECT
 10
1903.0
 20
-637.0
 30
0.0
 11
1907.0
 21
-641.5
 31
0.0
1001
ACDBBLOCKREPETAG
1070
     1
1071
       55
1005
12CE1E
  0
LINE
  5
12CE1F
  8
OBJECT
 10
1903.0
 20
-755.0
 30
0.0
 11
1907.0
 21
-750.49999999999989
 31
0.0
1001
ACDBBLOCKREPETAG
1070
     1
1071
       56
1005
12CE1F
  0
LINE
  5
12CE20
  8
OBJECT
 10
1917.0
 20
-634.0
 30
0.0
 11
1920.0
 21
-634.0
 31
0.0
1001
ACDBBLOCKREPETAG
1070
     1
1071
       57
1005
12CE20
  0
ARC
  5
12CE21
  8
OBJECT
 10
1917.0
 20
-637.0
 30
0.0
 40
3.0
 50
90.0
 51
180.0
1001
ACDBBLOCKREPETAG
1070
     1
1071
       58
1005
12CE21
  0
LINE
  5
12CE22
  8
OBJECT
 10
1920.0
 20
-758.0
 30
0.0
 11
1917.0
 21
-758.0
 31
0.0
1001
ACDBBLOCKREPETAG
1070
     1
1071
       59
1005
12CE22
  0
ARC
  5
12CE23
  8
OBJECT
 10
1917.0
 20
-755.0
 30
0.0
 40
3.0
 50
180.0
 51
270.0
1001
ACDBBLOCKREPETAG
1070
     1
1071
       60
1005
12CE23
  0
LINE
  5
12CE24
  8
OBJECT
 10
1914.0
 20
-755.0
 30
0.0
 11
1914.0
 21
-637.0
 31
0.0
1001
ACDBBLOCKREPETAG
1070
     1
1071
       61
1005
12CE24
  0
LINE
  5
12CE25
  8
HIDDEN
 10
1912.0
 20
-651.5
 30
0.0
 11
1912.0
 21
-740.5
 31
0.0
1001
ACDBBLOCKREPETAG
1070
     1
1071
       63
1005
12CE25
  0
CIRCLE
  5
12CE26
  8
OBJECT
 10
2000.0
 20
-696.0
 30
0.0
 40
62.0
1001
ACDBBLOCKREPETAG
1070
     1
1071
        0
1005
12CE26
  0
LINE
  5
12CE27
  8
OBJECT
 10
2133.0
 20
-634.0
 30
0.0
 11
2140.0
 21
-634.0
 31
0.0
1001
ACDBBLOCKREPETAG
1070
     1
1071
       45
1005
12CE27
  0
LINE
  5
12CE28
  8
OBJECT
 10
2140.0
 20
-634.0
 30
0.0
 11
2140.0
 21
-755.0
 31
0.0
1001
ACDBBLOCKREPETAG
1070
     1
1071
       46
1005
12CE28
  0
LINE
  5
12CE29
  8
OBJECT
 10
2133.0
 20
-755.0
 30
0.0
 11
2133.0
 21
-634.0
 31
0.0
1001
ACDBBLOCKREPETAG
1070
     1
1071
       47
1005
12CE29
  0
LINE
  5
12CE2A
  8
CENTER
 10
2155.0
 20
-696.0
 30
0.0
 11
2071.0
 21
-696.0
 31
0.0
1001
ACDBBLOCKREPETAG
1070
     1
1071
       48
1005
12CE2A
  0
LINE
  5
12CE2B
  8
OBJECT
 10
2133.0
 20
-637.0
 30
0.0
 11
2097.0
 21
-637.0
 31
0.0
1001
ACDBBLOCKREPETAG
1070
     1
1071
       49
1005
12CE2B
  0
LINE
  5
12CE2C
  8
OBJECT
 10
2097.0
 20
-637.0
 30
0.0
 11
2097.0
 21
-755.0
 31
0.0
1001
ACDBBLOCKREPETAG
1070
     1
1071
       50
1005
12CE2C
  0
LINE
  5
12CE2D
  8
OBJECT
 10
2097.0
 20
-755.0
 30
0.0
 11
2140.0
 21
-755.0
 31
0.0
1001
ACDBBLOCKREPETAG
1070
     1
1071
       51
1005
12CE2D
  0
LINE
  5
12CE2E
  8
OBJECT
 10
2093.0
 20
-641.5
 30
0.0
 11
2086.0
 21
-641.5
 31
0.0
1001
ACDBBLOCKREPETAG
1070
     1
1071
       52
1005
12CE2E
  0
LINE
  5
12CE2F
  8
OBJECT
 10
2086.0
 20
-750.49999999999989
 30
0.0
 11
2093.0
 21
-750.49999999999989
 31
0.0
1001
ACDBBLOCKREPETAG
1070
     1
1071
       53
1005
12CE2F
  0
LINE
  5
12CE30
  8
OBJECT
 10
2093.0
 20
-750.49999999999989
 30
0.0
 11
2093.0
 21
-641.5
 31
0.0
1001
ACDBBLOCKREPETAG
1070
     1
1071
       54
1005
12CE30
  0
LINE
  5
12CE31
  8
OBJECT
 10
2097.0
 20
-637.0
 30
0.0
 11
2093.0
 21
-641.5
 31
0.0
1001
ACDBBLOCKREPETAG
1070
     1
1071
       55
1005
12CE31
  0
LINE
  5
12CE32
  8
OBJECT
 10
2097.0
 20
-755.0
 30
0.0
 11
2093.0
 21
-750.49999999999989
 31
0.0
1001
ACDBBLOCKREPETAG
1070
     1
1071
       56
1005
12CE32
  0
LINE
  5
12CE33
  8
OBJECT
 10
2083.0
 20
-634.0
 30
0.0
 11
2080.0
 21
-634.0
 31
0.0
1001
ACDBBLOCKREPETAG
1070
     1
1071
       57
1005
12CE33
  0
ARC
  5
12CE34
  8
OBJECT
 10
2083.0
 20
-637.0
 30
0.0
 40
3.0
 50
0.0
 51
90.0
1001
ACDBBLOCKREPETAG
1070
     1
1071
       58
1005
12CE34
  0
LINE
  5
12CE35
  8
OBJECT
 10
2080.0
 20
-758.0
 30
0.0
 11
2083.0
 21
-758.0
 31
0.0
1001
ACDBBLOCKREPETAG
1070
     1
1071
       59
1005
12CE35
  0
ARC
  5
12CE36
  8
OBJECT
 10
2083.0
 20
-755.0
 30
0.0
 40
3.0
 50
270.0
 51
0.0
1001
ACDBBLOCKREPETAG
1070
     1
1071
       60
1005
12CE36
  0
LINE
  5
12CE37
  8
OBJECT
 10
2086.0
 20
-755.0
 30
0.0
 11
2086.0
 21
-637.0
 31
0.0
1001
ACDBBLOCKREPETAG
1070
     1
1071
       61
1005
12CE37
  0
LINE
  5
12CE38
  8
HIDDEN
 10
2088.0
 20
-651.5
 30
0.0
 11
2088.0
 21
-740.5
 31
0.0
1001
ACDBBLOCKREPETAG
1070
     1
1071
       63
1005
12CE38
  0
TEXT
  5
12CE39
  8
SLIM
 10
126.85714285708239
 20
-443.99999999984919
 30
0.0
 40
48.0
  1
B101
 41
0.75
1001
ACDBBLOCKREPETAG
1070
     1
1071
      119
1005
12AEEF
  0
TEXT
  5
12CE3A
  8
SLIM
 10
0.0000035665234464
 20
24.000004585317601
 30
0.0
 40
79.999999999972701
  1
枝管バリエーション
 41
0.75
1001
ACDBBLOCKREPETAG
1070
     1
1071
      119
1005
12AEEE
  0
TEXT
  5
12CE3B
  8
SLIM
 10
-18.199999999993789
 20
-2395.9999999991828
 30
0.0
 40
51.999999999982258
  1
（特）：特注品。対向枝への排水の流入
 41
0.75
1001
ACDBBLOCKREPETAG
1070
     1
1071
      118
1005
12AEED
  0
TEXT
  5
12CE3C
  8
SLIM
 10
0.0
 20
-2465.3333333324931
 30
0.0
 40
51.999999999982258
  1
が無いことを確認した場合のみ製作。
 41
0.75
1001
ACDBBLOCKREPETAG
1070
     1
1071
      118
1005
12AEED
  0
LINE
  5
12CE3D
  8
OBJECT
 10
222.99999999861211
 20
-328.99999999770631
 30
0.0
 11
222.99999999861211
 21
-335.99999999770631
 31
0.0
1001
ACDBBLOCKREPETAG
1070
     1
1071
        0
1005
12CE3D
  0
LINE
  5
12CE3E
  8
OBJECT
 10
222.99999999861211
 20
-335.99999999770631
 30
0.0
 11
128.99999999861211
 21
-335.99999999770631
 31
0.0
1001
ACDBBLOCKREPETAG
1070
     1
1071
        1
1005
12CE3E
  0
LINE
  5
12CE3F
  8
OBJECT
 10
128.99999999861211
 20
-335.99999999770631
 30
0.0
 11
128.99999999861211
 21
-328.99999999770631
 31
0.0
1001
ACDBBLOCKREPETAG
1070
     1
1071
        2
1005
12CE3F
  0
LINE
  5
12CE40
  8
OBJECT
 10
128.99999999861211
 20
-328.99999999770631
 30
0.0
 11
222.99999999861211
 21
-328.99999999770631
 31
0.0
1001
ACDBBLOCKREPETAG
1070
     1
1071
        3
1005
12CE40
  0
LINE
  5
12CE41
  8
OBJECT
 10
219.99999999861211
 20
-328.99999999770631
 30
0.0
 11
219.99999999861211
 21
-292.99999999770631
 31
0.0
1001
ACDBBLOCKREPETAG
1070
     1
1071
        4
1005
12CE41
  0
LINE
  5
12CE42
  8
OBJECT
 10
219.99999999861211
 20
-292.99999999770631
 30
0.0
 11
131.99999999861211
 21
-292.99999999770631
 31
0.0
1001
ACDBBLOCKREPETAG
1070
     1
1071
        5
1005
12CE42
  0
LINE
  5
12CE43
  8
OBJECT
 10
131.99999999861211
 20
-292.99999999770631
 30
0.0
 11
131.99999999861211
 21
-328.99999999770631
 31
0.0
1001
ACDBBLOCKREPETAG
1070
     1
1071
        6
1005
12CE43
  0
LINE
  5
12CE44
  8
OBJECT
 10
215.49999999861211
 20
-288.9999999977062
 30
0.0
 11
215.49999999861211
 21
-281.99999999770631
 31
0.0
1001
ACDBBLOCKREPETAG
1070
     1
1071
        7
1005
12CE44
  0
LINE
  5
12CE45
  8
OBJECT
 10
136.49999999861211
 20
-281.99999999770631
 30
0.0
 11
136.49999999861211
 21
-288.9999999977062
 31
0.0
1001
ACDBBLOCKREPETAG
1070
     1
1071
        8
1005
12CE45
  0
LINE
  5
12CE46
  8
OBJECT
 10
136.49999999861211
 20
-288.9999999977062
 30
0.0
 11
215.49999999861211
 21
-288.9999999977062
 31
0.0
1001
ACDBBLOCKREPETAG
1070
     1
1071
        9
1005
12CE46
  0
LINE
  5
12CE47
  8
OBJECT
 10
219.99999999861211
 20
-292.99999999770631
 30
0.0
 11
215.49999999861211
 21
-288.9999999977062
 31
0.0
1001
ACDBBLOCKREPETAG
1070
     1
1071
       10
1005
12CE47
  0
LINE
  5
12CE48
  8
OBJECT
 10
131.99999999861211
 20
-292.99999999770631
 30
0.0
 11
136.49999999861211
 21
-288.9999999977062
 31
0.0
1001
ACDBBLOCKREPETAG
1070
     1
1071
       11
1005
12CE48
  0
LINE
  5
12CE49
  8
OBJECT
 10
237.99999999861211
 20
-278.99999999770722
 30
0.0
 11
237.99999999861211
 21
-275.99999999770631
 31
0.0
1001
ACDBBLOCKREPETAG
1070
     1
1071
       12
1005
12CE49
  0
ARC
  5
12CE4A
  8
OBJECT
 10
234.99999999861211
 20
-278.99999999770722
 30
0.0
 40
3.0
 50
270.0
 51
0.0
1001
ACDBBLOCKREPETAG
1070
     1
1071
       13
1005
12CE4A
  0
LINE
  5
12CE4B
  8
OBJECT
 10
113.9999999986121
 20
-275.99999999770631
 30
0.0
 11
113.9999999986121
 21
-278.99999999770529
 31
0.0
1001
ACDBBLOCKREPETAG
1070
     1
1071
       14
1005
12CE4B
  0
ARC
  5
12CE4C
  8
OBJECT
 10
116.9999999986121
 20
-278.99999999770529
 30
0.0
 40
3.0
 50
180.0
 51
270.0
1001
ACDBBLOCKREPETAG
1070
     1
1071
       15
1005
12CE4C
  0
LINE
  5
12CE4D
  8
OBJECT
 10
116.9999999986121
 20
-281.99999999770529
 30
0.0
 11
234.99999999861211
 21
-281.99999999770711
 31
0.0
1001
ACDBBLOCKREPETAG
1070
     1
1071
       16
1005
12CE4D
  0
INSERT
  5
12CE4E
  8
OBJECT
  2
*U23
 10
0.0
 20
0.0
 30
0.0
  0
LINE
  5
12CE4F
  8
HIDDEN
 10
205.99999999861211
 20
-283.99999999770631
 30
0.0
 11
145.99999999861211
 21
-283.99999999770631
 31
0.0
1001
ACDBBLOCKREPETAG
1070
     1
1071
      424
1005
12CE4F
  0
LINE
  5
12CE50
  8
OBJECT
 10
258.99999999861211
 20
-257.9999999977062
 30
0.0
 11
255.99999999861211
 21
-257.9999999977062
 31
0.0
1001
ACDBBLOCKREPETAG
1070
     1
1071
      418
1005
12CE50
  0
ARC
  5
12CE51
  8
OBJECT
 10
258.99999999861211
 20
-254.99999999770631
 30
0.0
 40
3.0
 50
270.0
 51
0.0
1001
ACDBBLOCKREPETAG
1070
     1
1071
      419
1005
12CE51
  0
LINE
  5
12CE52
  8
OBJECT
 10
255.99999999861211
 20
-133.9999999977062
 30
0.0
 11
258.99999999861211
 21
-133.9999999977062
 31
0.0
1001
ACDBBLOCKREPETAG
1070
     1
1071
      420
1005
12CE52
  0
ARC
  5
12CE53
  8
OBJECT
 10
258.99999999861211
 20
-136.9999999977062
 30
0.0
 40
3.0
 50
0.0
 51
90.0
1001
ACDBBLOCKREPETAG
1070
     1
1071
      421
1005
12CE53
  0
LINE
  5
12CE54
  8
OBJECT
 10
261.99999999861211
 20
-136.9999999977062
 30
0.0
 11
261.99999999861211
 21
-254.99999999770631
 31
0.0
1001
ACDBBLOCKREPETAG
1070
     1
1071
      422
1005
12CE54
  0
INSERT
  5
12CE55
  8
OBJECT
  2
*U24
 10
0.0
 20
0.0
 30
0.0
  0
LINE
  5
12CE56
  8
OBJECT
 10
128.99999999861211
 20
-62.999999997706247
 30
0.0
 11
128.99999999861211
 21
-55.999999997706247
 31
0.0
1001
ACDBBLOCKREPETAG
1070
     1
1071
        1
1005
12CE56
  0
LINE
  5
12CE57
  8
OBJECT
 10
128.99999999861211
 20
-55.999999997706247
 30
0.0
 11
222.99999999861211
 21
-55.999999997706247
 31
0.0
1001
ACDBBLOCKREPETAG
1070
     1
1071
        2
1005
12CE57
  0
LINE
  5
12CE58
  8
OBJECT
 10
222.99999999861211
 20
-55.999999997706247
 30
0.0
 11
222.99999999861211
 21
-62.999999997706247
 31
0.0
1001
ACDBBLOCKREPETAG
1070
     1
1071
        3
1005
12CE58
  0
LINE
  5
12CE59
  8
OBJECT
 10
222.99999999861211
 20
-62.999999997706247
 30
0.0
 11
128.99999999861211
 21
-62.999999997706247
 31
0.0
1001
ACDBBLOCKREPETAG
1070
     1
1071
        4
1005
12CE59
  0
LINE
  5
12CE5A
  8
OBJECT
 10
131.99999999861211
 20
-62.999999997706247
 30
0.0
 11
131.99999999861211
 21
-98.99999999770624
 31
0.0
1001
ACDBBLOCKREPETAG
1070
     1
1071
        5
1005
12CE5A
  0
LINE
  5
12CE5B
  8
OBJECT
 10
131.99999999861211
 20
-98.99999999770624
 30
0.0
 11
219.99999999861211
 21
-98.99999999770624
 31
0.0
1001
ACDBBLOCKREPETAG
1070
     1
1071
        6
1005
12CE5B
  0
LINE
  5
12CE5C
  8
OBJECT
 10
219.99999999861211
 20
-98.99999999770624
 30
0.0
 11
219.99999999861211
 21
-62.999999997706247
 31
0.0
1001
ACDBBLOCKREPETAG
1070
     1
1071
        7
1005
12CE5C
  0
LINE
  5
12CE5D
  8
OBJECT
 10
136.49999999861211
 20
-102.9999999977062
 30
0.0
 11
136.49999999861211
 21
-109.9999999977062
 31
0.0
1001
ACDBBLOCKREPETAG
1070
     1
1071
        8
1005
12CE5D
  0
LINE
  5
12CE5E
  8
OBJECT
 10
215.49999999861211
 20
-109.9999999977062
 30
0.0
 11
215.49999999861211
 21
-102.9999999977062
 31
0.0
1001
ACDBBLOCKREPETAG
1070
     1
1071
        9
1005
12CE5E
  0
LINE
  5
12CE5F
  8
OBJECT
 10
215.49999999861211
 20
-102.9999999977062
 30
0.0
 11
136.49999999861211
 21
-102.9999999977062
 31
0.0
1001
ACDBBLOCKREPETAG
1070
     1
1071
       10
1005
12CE5F
  0
LINE
  5
12CE60
  8
OBJECT
 10
131.99999999861211
 20
-98.99999999770624
 30
0.0
 11
136.49999999861211
 21
-102.9999999977062
 31
0.0
1001
ACDBBLOCKREPETAG
1070
     1
1071
       11
1005
12CE60
  0
LINE
  5
12CE61
  8
OBJECT
 10
219.99999999861211
 20
-98.99999999770624
 30
0.0
 11
215.49999999861211
 21
-102.9999999977062
 31
0.0
1001
ACDBBLOCKREPETAG
1070
     1
1071
       12
1005
12CE61
  0
LINE
  5
12CE62
  8
OBJECT
 10
113.9999999986121
 20
-112.9999999977053
 30
0.0
 11
113.9999999986121
 21
-115.9999999977062
 31
0.0
1001
ACDBBLOCKREPETAG
1070
     1
1071
       13
1005
12CE62
  0
ARC
  5
12CE63
  8
OBJECT
 10
116.9999999986121
 20
-112.9999999977053
 30
0.0
 40
3.0
 50
90.0
 51
180.0
1001
ACDBBLOCKREPETAG
1070
     1
1071
       14
1005
12CE63
  0
LINE
  5
12CE64
  8
OBJECT
 10
237.99999999861211
 20
-115.9999999977062
 30
0.0
 11
237.99999999861211
 21
-112.99999999770711
 31
0.0
1001
ACDBBLOCKREPETAG
1070
     1
1071
       15
1005
12CE64
  0
ARC
  5
12CE65
  8
OBJECT
 10
234.99999999861211
 20
-112.99999999770711
 30
0.0
 40
3.0
 50
0.0
 51
90.0
1001
ACDBBLOCKREPETAG
1070
     1
1071
       16
1005
12CE65
  0
LINE
  5
12CE66
  8
OBJECT
 10
234.99999999861211
 20
-109.99999999770711
 30
0.0
 11
116.9999999986121
 21
-109.9999999977053
 31
0.0
1001
ACDBBLOCKREPETAG
1070
     1
1071
       17
1005
12CE66
  0
LINE
  5
12CE67
  8
HIDDEN
 10
145.99999999861211
 20
-107.9999999977062
 30
0.0
 11
205.99999999861211
 21
-107.9999999977062
 31
0.0
1001
ACDBBLOCKREPETAG
1070
     1
1071
      420
1005
12CE67
  0
TEXT
  5
12CE68
  8
SLIM
 10
0.0
 20
370.0
 30
0.0
 40
100.0
  1
4SRT-BX0X-S
 41
0.75
  0
LINE
  5
12CE69
  8
OBJECT
 10
4923.0
 20
-3515.9999999999968
 30
0.0
 11
4923.0
 21
-3494.9999999999968
 31
0.0
1001
ACDBBLOCKREPETAG
1070
     1
1071
        0
1005
12CE69
  0
LINE
  5
12CE6A
  8
OBJECT
 10
4923.0
 20
-3494.9999999999968
 30
0.0
 11
5077.0
 21
-3494.9999999999968
 31
0.0
1001
ACDBBLOCKREPETAG
1070
     1
1071
        1
1005
12CE6A
  0
LINE
  5
12CE6B
  8
HIDDEN
 10
4943.0
 20
-3564.9999999999968
 30
0.0
 11
5057.0
 21
-3564.9999999999968
 31
0.0
1001
ACDBBLOCKREPETAG
1070
     1
1071
        2
1005
12CE6B
  0
LINE
  5
12CE6C
  8
OBJECT
 10
5077.0
 20
-3494.9999999999968
 30
0.0
 11
5077.0
 21
-3515.9999999999968
 31
0.0
1001
ACDBBLOCKREPETAG
1070
     1
1071
        3
1005
12CE6C
  0
LINE
  5
12CE6D
  8
OBJECT
 10
5077.0
 20
-3515.9999999999968
 30
0.0
 11
4923.0
 21
-3515.9999999999968
 31
0.0
1001
ACDBBLOCKREPETAG
1070
     1
1071
        4
1005
12CE6D
  0
LINE
  5
12CE6E
  8
CENTER
 10
5000.0
 20
-3479.9999999999968
 30
0.0
 11
5000.0
 21
-3714.9999999999968
 31
0.0
1001
ACDBBLOCKREPETAG
1070
     1
1071
        5
1005
12CE6E
  0
LINE
  5
12CE6F
  8
OBJECT
 10
4925.0
 20
-3578.9999999999968
 30
0.0
 11
4925.0
 21
-3702.9999999999968
 31
0.0
1001
ACDBBLOCKREPETAG
1070
     1
1071
        6
1005
12CE6F
  0
LINE
  5
12CE70
  8
OBJECT
 10
4928.0
 20
-3515.9999999999968
 30
0.0
 11
4928.0
 21
-3578.9999999999968
 31
0.0
1001
ACDBBLOCKREPETAG
1070
     1
1071
        7
1005
12CE70
  0
LINE
  5
12CE71
  8
OBJECT
 10
5072.0
 20
-3578.9999999999968
 30
0.0
 11
5072.0
 21
-3515.9999999999968
 31
0.0
1001
ACDBBLOCKREPETAG
1070
     1
1071
        8
1005
12CE71
  0
LINE
  5
12CE72
  8
OBJECT
 10
5074.9999999997999
 20
-3702.9999999997758
 30
0.0
 11
5080.0
 21
-3702.9999999999968
 31
0.0
1001
ACDBBLOCKREPETAG
1070
     1
1071
        9
1005
12CE72
  0
LINE
  5
12CE73
  8
OBJECT
 10
5080.0
 20
-3578.9999999999968
 30
0.0
 11
4925.0
 21
-3578.9999999999968
 31
0.0
1001
ACDBBLOCKREPETAG
1070
     1
1071
       10
1005
12CE73
  0
ARC
  5
12CE74
  8
OBJECT
 10
5200.6872746716726
 20
-3694.408099410105
 30
0.0
 40
170.6350503965856
 50
137.44134459184301
 51
149.9194958133665
1001
ACDBBLOCKREPETAG
1070
     1
1071
       15
1005
12CE74
  0
ARC
  5
12CE75
  8
OBJECT
 10
5118.8455987040506
 20
-3650.8827266953622
 30
0.0
 40
78.072222021763665
 50
147.4551531037684
 51
164.66365997719291
1001
ACDBBLOCKREPETAG
1070
     1
1071
       16
1005
12CE75
  0
ARC
  5
12CE76
  8
OBJECT
 10
5085.7554349608727
 20
-3640.9999999999968
 30
0.0
 40
43.55353926885617
 50
165.6884523008477
 51
194.3115476991523
1001
ACDBBLOCKREPETAG
1070
     1
1071
       17
1005
12CE76
  0
ARC
  5
12CE77
  8
OBJECT
 10
5200.6872746716726
 20
-3587.5919005898891
 30
0.0
 40
170.6350503965856
 50
210.0805041866335
 51
222.55865540815699
1001
ACDBBLOCKREPETAG
1070
     1
1071
       18
1005
12CE77
  0
ARC
  5
12CE78
  8
OBJECT
 10
5118.8455987040506
 20
-3631.1172733046319
 30
0.0
 40
78.072222021763665
 50
195.33634002280701
 51
212.5448468962316
1001
ACDBBLOCKREPETAG
1070
     1
1071
       19
1005
12CE78
  0
POINT
  5
12CE79
  8
DOTS
 10
5000.0
 20
-3699.9999999999968
 30
0.0
1001
ACDBBLOCKREPETAG
1070
     1
1071
      186
1005
12CE79
  0
LINE
  5
12CE7A
  8
OBJECT
 10
4323.0
 20
-3515.9999999999968
 30
0.0
 11
4323.0
 21
-3494.9999999999968
 31
0.0
1001
ACDBBLOCKREPETAG
1070
     1
1071
       20
1005
12CE7A
  0
LINE
  5
12CE7B
  8
OBJECT
 10
4323.0
 20
-3494.9999999999968
 30
0.0
 11
4477.0
 21
-3494.9999999999968
 31
0.0
1001
ACDBBLOCKREPETAG
1070
     1
1071
       21
1005
12CE7B
  0
LINE
  5
12CE7C
  8
HIDDEN
 10
4343.0
 20
-3564.9999999999968
 30
0.0
 11
4457.0
 21
-3564.9999999999968
 31
0.0
1001
ACDBBLOCKREPETAG
1070
     1
1071
       22
1005
12CE7C
  0
LINE
  5
12CE7D
  8
OBJECT
 10
4477.0
 20
-3494.9999999999968
 30
0.0
 11
4477.0
 21
-3515.9999999999968
 31
0.0
1001
ACDBBLOCKREPETAG
1070
     1
1071
       23
1005
12CE7D
  0
LINE
  5
12CE7E
  8
OBJECT
 10
4477.0
 20
-3515.9999999999968
 30
0.0
 11
4323.0
 21
-3515.9999999999968
 31
0.0
1001
ACDBBLOCKREPETAG
1070
     1
1071
       24
1005
12CE7E
  0
LINE
  5
12CE7F
  8
CENTER
 10
4400.0
 20
-3479.9999999999968
 30
0.0
 11
4400.0
 21
-3714.9999999999968
 31
0.0
1001
ACDBBLOCKREPETAG
1070
     1
1071
       25
1005
12CE7F
  0
LINE
  5
12CE80
  8
OBJECT
 10
4325.0
 20
-3578.9999999999968
 30
0.0
 11
4325.0
 21
-3702.9999999999968
 31
0.0
1001
ACDBBLOCKREPETAG
1070
     1
1071
       26
1005
12CE80
  0
LINE
  5
12CE81
  8
OBJECT
 10
4328.0
 20
-3515.9999999999968
 30
0.0
 11
4328.0
 21
-3578.9999999999968
 31
0.0
1001
ACDBBLOCKREPETAG
1070
     1
1071
       27
1005
12CE81
  0
LINE
  5
12CE82
  8
OBJECT
 10
4472.0
 20
-3578.9999999999968
 30
0.0
 11
4472.0
 21
-3515.9999999999968
 31
0.0
1001
ACDBBLOCKREPETAG
1070
     1
1071
       28
1005
12CE82
  0
LINE
  5
12CE83
  8
OBJECT
 10
4475.0
 20
-3578.9999999999968
 30
0.0
 11
4325.0
 21
-3578.9999999999968
 31
0.0
1001
ACDBBLOCKREPETAG
1070
     1
1071
       30
1005
12CE83
  0
LINE
  5
12CE84
  8
OBJECT
 10
4475.0
 20
-3578.9999999999968
 30
0.0
 11
4475.0
 21
-3702.9999999999968
 31
0.0
1001
ACDBBLOCKREPETAG
1070
     1
1071
       34
1005
12CE84
  0
POINT
  5
12CE85
  8
DOTS
 10
4400.0
 20
-3699.9999999999968
 30
0.0
1001
ACDBBLOCKREPETAG
1070
     1
1071
      187
1005
12CE85
  0
LINE
  5
12CE86
  8
OBJECT
 10
3923.0
 20
-3515.9999999999968
 30
0.0
 11
3923.0
 21
-3494.9999999999968
 31
0.0
1001
ACDBBLOCKREPETAG
1070
     1
1071
        0
1005
12CE86
  0
LINE
  5
12CE87
  8
OBJECT
 10
3923.0
 20
-3494.9999999999968
 30
0.0
 11
4077.0
 21
-3494.9999999999968
 31
0.0
1001
ACDBBLOCKREPETAG
1070
     1
1071
        1
1005
12CE87
  0
LINE
  5
12CE88
  8
HIDDEN
 10
3943.0
 20
-3564.9999999999968
 30
0.0
 11
4057.0
 21
-3564.9999999999968
 31
0.0
1001
ACDBBLOCKREPETAG
1070
     1
1071
        2
1005
12CE88
  0
LINE
  5
12CE89
  8
OBJECT
 10
4077.0
 20
-3494.9999999999968
 30
0.0
 11
4077.0
 21
-3515.9999999999968
 31
0.0
1001
ACDBBLOCKREPETAG
1070
     1
1071
        3
1005
12CE89
  0
LINE
  5
12CE8A
  8
OBJECT
 10
4077.0
 20
-3515.9999999999968
 30
0.0
 11
3923.0
 21
-3515.9999999999968
 31
0.0
1001
ACDBBLOCKREPETAG
1070
     1
1071
        4
1005
12CE8A
  0
LINE
  5
12CE8B
  8
CENTER
 10
4000.0
 20
-3479.9999999999968
 30
0.0
 11
4000.0
 21
-3714.9999999999968
 31
0.0
1001
ACDBBLOCKREPETAG
1070
     1
1071
        5
1005
12CE8B
  0
LINE
  5
12CE8C
  8
OBJECT
 10
3925.0
 20
-3578.9999999999968
 30
0.0
 11
3925.0
 21
-3702.9999999999968
 31
0.0
1001
ACDBBLOCKREPETAG
1070
     1
1071
        6
1005
12CE8C
  0
LINE
  5
12CE8D
  8
OBJECT
 10
3928.0
 20
-3515.9999999999968
 30
0.0
 11
3928.0
 21
-3578.9999999999968
 31
0.0
1001
ACDBBLOCKREPETAG
1070
     1
1071
        7
1005
12CE8D
  0
LINE
  5
12CE8E
  8
OBJECT
 10
4072.0
 20
-3578.9999999999968
 30
0.0
 11
4072.0
 21
-3515.9999999999968
 31
0.0
1001
ACDBBLOCKREPETAG
1070
     1
1071
        8
1005
12CE8E
  0
LINE
  5
12CE8F
  8
OBJECT
 10
4074.999999999799
 20
-3702.9999999997758
 30
0.0
 11
4080.0
 21
-3702.9999999999968
 31
0.0
1001
ACDBBLOCKREPETAG
1070
     1
1071
        9
1005
12CE8F
  0
LINE
  5
12CE90
  8
OBJECT
 10
4080.0
 20
-3578.9999999999968
 30
0.0
 11
3925.0
 21
-3578.9999999999968
 31
0.0
1001
ACDBBLOCKREPETAG
1070
     1
1071
       10
1005
12CE90
  0
ARC
  5
12CE91
  8
OBJECT
 10
4200.6872746716726
 20
-3694.408099410105
 30
0.0
 40
170.6350503965856
 50
137.44134459184301
 51
149.9194958133665
1001
ACDBBLOCKREPETAG
1070
     1
1071
       15
1005
12CE91
  0
ARC
  5
12CE92
  8
OBJECT
 10
4118.8455987040506
 20
-3650.8827266953622
 30
0.0
 40
78.072222021763665
 50
147.4551531037684
 51
164.663659977186
1001
ACDBBLOCKREPETAG
1070
     1
1071
       16
1005
12CE92
  0
ARC
  5
12CE93
  8
OBJECT
 10
4085.7554349608722
 20
-3640.9999999999968
 30
0.0
 40
43.55353926885617
 50
165.6884523008477
 51
194.3115476991523
1001
ACDBBLOCKREPETAG
1070
     1
1071
       17
1005
12CE93
  0
ARC
  5
12CE94
  8
OBJECT
 10
4200.6872746716726
 20
-3587.5919005898891
 30
0.0
 40
170.6350503965856
 50
210.0805041866335
 51
222.55865540815699
1001
ACDBBLOCKREPETAG
1070
     1
1071
       18
1005
12CE94
  0
ARC
  5
12CE95
  8
OBJECT
 10
4118.8455987040506
 20
-3631.1172733046319
 30
0.0
 40
78.072222021763665
 50
195.33634002281391
 51
212.5448468962316
1001
ACDBBLOCKREPETAG
1070
     1
1071
       19
1005
12CE95
  0
POINT
  5
12CE96
  8
DOTS
 10
4000.0
 20
-3699.9999999999968
 30
0.0
1001
ACDBBLOCKREPETAG
1070
     1
1071
      186
1005
12CE96
  0
LINE
  5
12CE97
  8
OBJECT
 10
3323.0
 20
-3515.9999999999968
 30
0.0
 11
3323.0
 21
-3494.9999999999968
 31
0.0
1001
ACDBBLOCKREPETAG
1070
     1
1071
       20
1005
12CE97
  0
LINE
  5
12CE98
  8
OBJECT
 10
3323.0
 20
-3494.9999999999968
 30
0.0
 11
3477.0
 21
-3494.9999999999968
 31
0.0
1001
ACDBBLOCKREPETAG
1070
     1
1071
       21
1005
12CE98
  0
LINE
  5
12CE99
  8
HIDDEN
 10
3343.0
 20
-3564.9999999999968
 30
0.0
 11
3457.0
 21
-3564.9999999999968
 31
0.0
1001
ACDBBLOCKREPETAG
1070
     1
1071
       22
1005
12CE99
  0
LINE
  5
12CE9A
  8
OBJECT
 10
3477.0
 20
-3494.9999999999968
 30
0.0
 11
3477.0
 21
-3515.9999999999968
 31
0.0
1001
ACDBBLOCKREPETAG
1070
     1
1071
       23
1005
12CE9A
  0
LINE
  5
12CE9B
  8
OBJECT
 10
3477.0
 20
-3515.9999999999968
 30
0.0
 11
3323.0
 21
-3515.9999999999968
 31
0.0
1001
ACDBBLOCKREPETAG
1070
     1
1071
       24
1005
12CE9B
  0
LINE
  5
12CE9C
  8
CENTER
 10
3400.0
 20
-3479.9999999999968
 30
0.0
 11
3400.0
 21
-3714.9999999999968
 31
0.0
1001
ACDBBLOCKREPETAG
1070
     1
1071
       25
1005
12CE9C
  0
LINE
  5
12CE9D
  8
OBJECT
 10
3325.0
 20
-3578.9999999999968
 30
0.0
 11
3325.0
 21
-3702.9999999999968
 31
0.0
1001
ACDBBLOCKREPETAG
1070
     1
1071
       26
1005
12CE9D
  0
LINE
  5
12CE9E
  8
OBJECT
 10
3328.0
 20
-3515.9999999999968
 30
0.0
 11
3328.0
 21
-3578.9999999999968
 31
0.0
1001
ACDBBLOCKREPETAG
1070
     1
1071
       27
1005
12CE9E
  0
LINE
  5
12CE9F
  8
OBJECT
 10
3472.0
 20
-3578.9999999999968
 30
0.0
 11
3472.0
 21
-3515.9999999999968
 31
0.0
1001
ACDBBLOCKREPETAG
1070
     1
1071
       28
1005
12CE9F
  0
LINE
  5
12CEA0
  8
OBJECT
 10
3475.0
 20
-3578.9999999999968
 30
0.0
 11
3325.0
 21
-3578.9999999999968
 31
0.0
1001
ACDBBLOCKREPETAG
1070
     1
1071
       30
1005
12CEA0
  0
LINE
  5
12CEA1
  8
OBJECT
 10
3475.0
 20
-3578.9999999999968
 30
0.0
 11
3475.0
 21
-3702.9999999999968
 31
0.0
1001
ACDBBLOCKREPETAG
1070
     1
1071
       34
1005
12CEA1
  0
POINT
  5
12CEA2
  8
DOTS
 10
3400.0
 20
-3699.9999999999968
 30
0.0
1001
ACDBBLOCKREPETAG
1070
     1
1071
      187
1005
12CEA2
  0
LINE
  5
12CEA3
  8
OBJECT
 10
2923.0
 20
-3515.9999999999968
 30
0.0
 11
2923.0
 21
-3494.9999999999968
 31
0.0
1001
ACDBBLOCKREPETAG
1070
     1
1071
        0
1005
12CEA3
  0
LINE
  5
12CEA4
  8
OBJECT
 10
2923.0
 20
-3494.9999999999968
 30
0.0
 11
3077.0
 21
-3494.9999999999968
 31
0.0
1001
ACDBBLOCKREPETAG
1070
     1
1071
        1
1005
12CEA4
  0
LINE
  5
12CEA5
  8
HIDDEN
 10
2943.0
 20
-3564.9999999999968
 30
0.0
 11
3057.0
 21
-3564.9999999999968
 31
0.0
1001
ACDBBLOCKREPETAG
1070
     1
1071
        2
1005
12CEA5
  0
LINE
  5
12CEA6
  8
OBJECT
 10
3077.0
 20
-3494.9999999999968
 30
0.0
 11
3077.0
 21
-3515.9999999999968
 31
0.0
1001
ACDBBLOCKREPETAG
1070
     1
1071
        3
1005
12CEA6
  0
LINE
  5
12CEA7
  8
OBJECT
 10
3077.0
 20
-3515.9999999999968
 30
0.0
 11
2923.0
 21
-3515.9999999999968
 31
0.0
1001
ACDBBLOCKREPETAG
1070
     1
1071
        4
1005
12CEA7
  0
LINE
  5
12CEA8
  8
CENTER
 10
3000.0
 20
-3479.9999999999968
 30
0.0
 11
3000.0
 21
-3714.9999999999968
 31
0.0
1001
ACDBBLOCKREPETAG
1070
     1
1071
        5
1005
12CEA8
  0
LINE
  5
12CEA9
  8
OBJECT
 10
2925.0
 20
-3578.9999999999968
 30
0.0
 11
2925.0
 21
-3702.9999999999968
 31
0.0
1001
ACDBBLOCKREPETAG
1070
     1
1071
        6
1005
12CEA9
  0
LINE
  5
12CEAA
  8
OBJECT
 10
2928.0
 20
-3515.9999999999968
 30
0.0
 11
2928.0
 21
-3578.9999999999968
 31
0.0
1001
ACDBBLOCKREPETAG
1070
     1
1071
        7
1005
12CEAA
  0
LINE
  5
12CEAB
  8
OBJECT
 10
3072.0
 20
-3578.9999999999968
 30
0.0
 11
3072.0
 21
-3515.9999999999968
 31
0.0
1001
ACDBBLOCKREPETAG
1070
     1
1071
        8
1005
12CEAB
  0
LINE
  5
12CEAC
  8
OBJECT
 10
3074.9999999997999
 20
-3702.9999999997758
 30
0.0
 11
3080.0
 21
-3702.9999999999968
 31
0.0
1001
ACDBBLOCKREPETAG
1070
     1
1071
        9
1005
12CEAC
  0
LINE
  5
12CEAD
  8
OBJECT
 10
3080.0
 20
-3578.9999999999968
 30
0.0
 11
2925.0
 21
-3578.9999999999968
 31
0.0
1001
ACDBBLOCKREPETAG
1070
     1
1071
       10
1005
12CEAD
  0
ARC
  5
12CEAE
  8
OBJECT
 10
3200.6872746716722
 20
-3694.408099410105
 30
0.0
 40
170.6350503965856
 50
137.44134459184301
 51
149.9194958133665
1001
ACDBBLOCKREPETAG
1070
     1
1071
       15
1005
12CEAE
  0
ARC
  5
12CEAF
  8
OBJECT
 10
3118.8455987040511
 20
-3650.8827266953622
 30
0.0
 40
78.072222021763665
 50
147.4551531037684
 51
164.663659977186
1001
ACDBBLOCKREPETAG
1070
     1
1071
       16
1005
12CEAF
  0
ARC
  5
12CEB0
  8
OBJECT
 10
3085.7554349608731
 20
-3640.9999999999968
 30
0.0
 40
43.55353926885617
 50
165.6884523008477
 51
194.3115476991523
1001
ACDBBLOCKREPETAG
1070
     1
1071
       17
1005
12CEB0
  0
ARC
  5
12CEB1
  8
OBJECT
 10
3200.6872746716722
 20
-3587.5919005898891
 30
0.0
 40
170.6350503965856
 50
210.0805041866335
 51
222.55865540815699
1001
ACDBBLOCKREPETAG
1070
     1
1071
       18
1005
12CEB1
  0
ARC
  5
12CEB2
  8
OBJECT
 10
3118.8455987040511
 20
-3631.1172733046319
 30
0.0
 40
78.072222021763665
 50
195.33634002281391
 51
212.5448468962316
1001
ACDBBLOCKREPETAG
1070
     1
1071
       19
1005
12CEB2
  0
POINT
  5
12CEB3
  8
DOTS
 10
3000.0
 20
-3699.9999999999968
 30
0.0
1001
ACDBBLOCKREPETAG
1070
     1
1071
      186
1005
12CEB3
  0
LINE
  5
12CEB4
  8
OBJECT
 10
2323.0
 20
-3515.9999999999968
 30
0.0
 11
2323.0
 21
-3494.9999999999968
 31
0.0
1001
ACDBBLOCKREPETAG
1070
     1
1071
       20
1005
12CEB4
  0
LINE
  5
12CEB5
  8
OBJECT
 10
2323.0
 20
-3494.9999999999968
 30
0.0
 11
2477.0
 21
-3494.9999999999968
 31
0.0
1001
ACDBBLOCKREPETAG
1070
     1
1071
       21
1005
12CEB5
  0
LINE
  5
12CEB6
  8
HIDDEN
 10
2343.0
 20
-3564.9999999999968
 30
0.0
 11
2457.0
 21
-3564.9999999999968
 31
0.0
1001
ACDBBLOCKREPETAG
1070
     1
1071
       22
1005
12CEB6
  0
LINE
  5
12CEB7
  8
OBJECT
 10
2477.0
 20
-3494.9999999999968
 30
0.0
 11
2477.0
 21
-3515.9999999999968
 31
0.0
1001
ACDBBLOCKREPETAG
1070
     1
1071
       23
1005
12CEB7
  0
LINE
  5
12CEB8
  8
OBJECT
 10
2477.0
 20
-3515.9999999999968
 30
0.0
 11
2323.0
 21
-3515.9999999999968
 31
0.0
1001
ACDBBLOCKREPETAG
1070
     1
1071
       24
1005
12CEB8
  0
LINE
  5
12CEB9
  8
CENTER
 10
2400.0
 20
-3479.9999999999968
 30
0.0
 11
2400.0
 21
-3714.9999999999968
 31
0.0
1001
ACDBBLOCKREPETAG
1070
     1
1071
       25
1005
12CEB9
  0
LINE
  5
12CEBA
  8
OBJECT
 10
2325.0
 20
-3578.9999999999968
 30
0.0
 11
2325.0
 21
-3702.9999999999968
 31
0.0
1001
ACDBBLOCKREPETAG
1070
     1
1071
       26
1005
12CEBA
  0
LINE
  5
12CEBB
  8
OBJECT
 10
2328.0
 20
-3515.9999999999968
 30
0.0
 11
2328.0
 21
-3578.9999999999968
 31
0.0
1001
ACDBBLOCKREPETAG
1070
     1
1071
       27
1005
12CEBB
  0
LINE
  5
12CEBC
  8
OBJECT
 10
2472.0
 20
-3578.9999999999968
 30
0.0
 11
2472.0
 21
-3515.9999999999968
 31
0.0
1001
ACDBBLOCKREPETAG
1070
     1
1071
       28
1005
12CEBC
  0
LINE
  5
12CEBD
  8
OBJECT
 10
2475.0
 20
-3578.9999999999968
 30
0.0
 11
2325.0
 21
-3578.9999999999968
 31
0.0
1001
ACDBBLOCKREPETAG
1070
     1
1071
       30
1005
12CEBD
  0
LINE
  5
12CEBE
  8
OBJECT
 10
2475.0
 20
-3578.9999999999968
 30
0.0
 11
2475.0
 21
-3702.9999999999968
 31
0.0
1001
ACDBBLOCKREPETAG
1070
     1
1071
       34
1005
12CEBE
  0
POINT
  5
12CEBF
  8
DOTS
 10
2400.0
 20
-3699.9999999999968
 30
0.0
1001
ACDBBLOCKREPETAG
1070
     1
1071
      187
1005
12CEBF
  0
LINE
  5
12CEC0
  8
OBJECT
 10
1923.0
 20
-3515.9999999999968
 30
0.0
 11
1923.0
 21
-3494.9999999999968
 31
0.0
1001
ACDBBLOCKREPETAG
1070
     1
1071
        0
1005
12CEC0
  0
LINE
  5
12CEC1
  8
OBJECT
 10
1923.0
 20
-3494.9999999999968
 30
0.0
 11
2077.0
 21
-3494.9999999999968
 31
0.0
1001
ACDBBLOCKREPETAG
1070
     1
1071
        1
1005
12CEC1
  0
LINE
  5
12CEC2
  8
HIDDEN
 10
1943.0
 20
-3564.9999999999968
 30
0.0
 11
2057.0
 21
-3564.9999999999968
 31
0.0
1001
ACDBBLOCKREPETAG
1070
     1
1071
        2
1005
12CEC2
  0
LINE
  5
12CEC3
  8
OBJECT
 10
2077.0
 20
-3494.9999999999968
 30
0.0
 11
2077.0
 21
-3515.9999999999968
 31
0.0
1001
ACDBBLOCKREPETAG
1070
     1
1071
        3
1005
12CEC3
  0
LINE
  5
12CEC4
  8
OBJECT
 10
2077.0
 20
-3515.9999999999968
 30
0.0
 11
1923.0
 21
-3515.9999999999968
 31
0.0
1001
ACDBBLOCKREPETAG
1070
     1
1071
        4
1005
12CEC4
  0
LINE
  5
12CEC5
  8
CENTER
 10
2000.0
 20
-3479.9999999999968
 30
0.0
 11
2000.0
 21
-3714.9999999999968
 31
0.0
1001
ACDBBLOCKREPETAG
1070
     1
1071
        5
1005
12CEC5
  0
LINE
  5
12CEC6
  8
OBJECT
 10
1925.0
 20
-3578.9999999999968
 30
0.0
 11
1925.0
 21
-3702.9999999999968
 31
0.0
1001
ACDBBLOCKREPETAG
1070
     1
1071
        6
1005
12CEC6
  0
LINE
  5
12CEC7
  8
OBJECT
 10
1928.0
 20
-3515.9999999999968
 30
0.0
 11
1928.0
 21
-3578.9999999999968
 31
0.0
1001
ACDBBLOCKREPETAG
1070
     1
1071
        7
1005
12CEC7
  0
LINE
  5
12CEC8
  8
OBJECT
 10
2072.0
 20
-3578.9999999999968
 30
0.0
 11
2072.0
 21
-3515.9999999999968
 31
0.0
1001
ACDBBLOCKREPETAG
1070
     1
1071
        8
1005
12CEC8
  0
LINE
  5
12CEC9
  8
OBJECT
 10
2074.999999999799
 20
-3702.9999999997758
 30
0.0
 11
2080.0
 21
-3702.9999999999968
 31
0.0
1001
ACDBBLOCKREPETAG
1070
     1
1071
        9
1005
12CEC9
  0
LINE
  5
12CECA
  8
OBJECT
 10
2080.0
 20
-3578.9999999999968
 30
0.0
 11
1925.0
 21
-3578.9999999999968
 31
0.0
1001
ACDBBLOCKREPETAG
1070
     1
1071
       10
1005
12CECA
  0
ARC
  5
12CECB
  8
OBJECT
 10
2200.6872746716731
 20
-3694.408099410105
 30
0.0
 40
170.6350503965856
 50
137.44134459184301
 51
149.91949581335999
1001
ACDBBLOCKREPETAG
1070
     1
1071
       15
1005
12CECB
  0
ARC
  5
12CECC
  8
OBJECT
 10
2118.8455987040511
 20
-3650.8827266953622
 30
0.0
 40
78.072222021763665
 50
147.45515310377539
 51
164.663659977186
1001
ACDBBLOCKREPETAG
1070
     1
1071
       16
1005
12CECC
  0
ARC
  5
12CECD
  8
OBJECT
 10
2085.7554349608731
 20
-3640.9999999999968
 30
0.0
 40
43.55353926885617
 50
165.6884523008477
 51
194.3115476991523
1001
ACDBBLOCKREPETAG
1070
     1
1071
       17
1005
12CECD
  0
ARC
  5
12CECE
  8
OBJECT
 10
2200.6872746716731
 20
-3587.5919005898891
 30
0.0
 40
170.6350503965856
 50
210.08050418664001
 51
222.55865540815699
1001
ACDBBLOCKREPETAG
1070
     1
1071
       18
1005
12CECE
  0
ARC
  5
12CECF
  8
OBJECT
 10
2118.8455987040511
 20
-3631.1172733046319
 30
0.0
 40
78.072222021763665
 50
195.33634002281391
 51
212.54484689622461
1001
ACDBBLOCKREPETAG
1070
     1
1071
       19
1005
12CECF
  0
POINT
  5
12CED0
  8
DOTS
 10
2000.0
 20
-3699.9999999999968
 30
0.0
1001
ACDBBLOCKREPETAG
1070
     1
1071
      186
1005
12CED0
  0
LINE
  5
12CED1
  8
DIM
 10
2150.0
 20
-3341.9999999999959
 30
0.0
 11
2228.479620594459
 21
-3341.9999999999959
 31
0.0
  0
LINE
  5
12CED2
  8
DIM
 10
2150.0
 20
-3247.9999999999959
 30
0.0
 11
2228.479620594459
 21
-3247.9999999999959
 31
0.0
  0
LINE
  5
12CED3
  8
DIM
 10
2218.479620594459
 20
-3321.9999999999959
 30
0.0
 11
2218.479620594459
 21
-3267.9999999999959
 31
0.0
  0
INSERT
  5
12CED4
  8
DIM
  2
_OPEN30
 10
2218.479620594459
 20
-3341.9999999999959
 30
0.0
 41
20.0
 42
20.0
 43
20.0
 50
270.0
  0
INSERT
  5
12CED5
  8
DIM
  2
_OPEN30
 10
2218.479620594459
 20
-3247.9999999999959
 30
0.0
 41
20.0
 42
20.0
 43
20.0
 50
90.0
  0
INSERT
  5
12CED6
  8
OBJECT
  2
*U25
 10
0.0
 20
0.0
 30
0.0
  0
LINE
  5
12CED7
  8
DIM
 10
2150.0
 20
-3699.9999999999968
 30
0.0
 11
2226.8409284037339
 21
-3699.9999999999968
 31
0.0
  0
LINE
  5
12CED8
  8
DIM
 10
2165.0
 20
-3655.9999999999968
 30
0.0
 11
2226.8409284037339
 21
-3655.9999999999968
 31
0.0
  0
LINE
  5
12CED9
  8
DIM
 10
2216.840928403733
 20
-3719.9999999999968
 30
0.0
 11
2216.840928403733
 21
-3739.9999999999968
 31
0.0
  0
LINE
  5
12CEDA
  8
DIM
 10
2216.840928403733
 20
-3635.9999999999968
 30
0.0
 11
2216.840928403733
 21
-3615.9999999999968
 31
0.0
  0
LINE
  5
12CEDB
  8
DIM
 10
2216.840928403733
 20
-3699.9999999999968
 30
0.0
 11
2216.840928403733
 21
-3655.9999999999968
 31
0.0
  0
INSERT
  5
12CEDC
  8
DIM
  2
_OPEN30
 10
2216.840928403733
 20
-3699.9999999999968
 30
0.0
 41
20.0
 42
20.0
 43
20.0
 50
90.0
  0
INSERT
  5
12CEDD
  8
DIM
  2
_OPEN30
 10
2216.840928403733
 20
-3655.9999999999968
 30
0.0
 41
20.0
 42
20.0
 43
20.0
 50
270.0
  0
INSERT
  5
12CEDE
  8
OBJECT
  2
*U26
 10
0.0
 20
0.0
 30
0.0
  0
LINE
  5
12CEDF
  8
DIM
 10
2000.0
 20
-3189.9999999999959
 30
0.0
 11
2000.0
 21
-3157.2081219844449
 31
0.0
  0
LINE
  5
12CEE0
  8
DIM
 10
2140.0
 20
-3237.9999999999959
 30
0.0
 11
2140.0
 21
-3157.2081219844449
 31
0.0
  0
LINE
  5
12CEE1
  8
DIM
 10
2020.0
 20
-3167.208121984444
 30
0.0
 11
2120.0
 21
-3167.208121984444
 31
0.0
  0
INSERT
  5
12CEE2
  8
DIM
  2
_OPEN30
 10
2000.0
 20
-3167.208121984444
 30
0.0
 41
20.0
 42
20.0
 43
20.0
 50
180.0
  0
INSERT
  5
12CEE3
  8
DIM
  2
_OPEN30
 10
2140.0
 20
-3167.208121984444
 30
0.0
 41
20.0
 42
20.0
 43
20.0
  0
INSERT
  5
12CEE4
  8
OBJECT
  2
*U27
 10
0.0
 20
0.0
 30
0.0
  0
TEXT
  5
12CEE5
  8
SLIM
 10
2631.0
 20
-3072.50001604727
 30
0.0
 40
40.0
  1
C寸法
 41
0.75
  0
TEXT
  5
12CEE6
  8
SLIM
 10
2631.0
 20
-3002.50001604727
 30
0.0
 40
40.0
  1
B寸法
 41
0.75
  0
TEXT
  5
12CEE7
  8
SLIM
 10
2630.2857142857142
 20
-2932.50001604727
 30
0.0
 40
40.0
  1
A寸法
 41
0.75
  0
TEXT
  5
12CEE8
  8
SLIM
 10
3159.2857142857151
 20
-3072.50001604727
 30
0.0
 40
40.0
  1
150
 41
0.75
  0
TEXT
  5
12CEE9
  8
SLIM
 10
3029.2857142857151
 20
-3072.50001604727
 30
0.0
 40
40.0
  1
140
 41
0.75
  0
TEXT
  5
12CEEA
  8
SLIM
 10
2769.2857142857151
 20
-3072.50001604727
 30
0.0
 40
40.0
  1
140
 41
0.75
  0
TEXT
  5
12CEEB
  8
SLIM
 10
2899.2857142857151
 20
-3072.50001604727
 30
0.0
 40
40.0
  1
140
 41
0.75
  0
TEXT
  5
12CEEC
  8
SLIM
 10
3170.7142857142858
 20
-3002.50001604727
 30
0.0
 40
40.0
  1
72
 41
0.75
  0
TEXT
  5
12CEED
  8
SLIM
 10
3041.4285714285711
 20
-3002.50001604727
 30
0.0
 40
40.0
  1
59
 41
0.75
  0
TEXT
  5
12CEEE
  8
SLIM
 10
2780.0
 20
-3002.50001604727
 30
0.0
 40
40.0
  1
44
 41
0.75
  0
TEXT
  5
12CEEF
  8
SLIM
 10
2910.7142857142858
 20
-3002.50001604727
 30
0.0
 40
40.0
  1
52
 41
0.75
  0
TEXT
  5
12CEF0
  8
SLIM
 10
2891.0
 20
-2807.50001604727
 30
0.0
 40
40.0
  1
横枝管サイズ
 41
0.75
  0
TEXT
  5
12CEF1
  8
SLIM
 10
3136.2857142857151
 20
-2862.50001604727
 30
0.0
 40
30.0
  1
100（4）
 41
0.75
  0
TEXT
  5
12CEF2
  8
SLIM
 10
3014.857142857144
 20
-2862.50001604727
 30
0.0
 40
30.0
  1
75（3）
 41
0.75
  0
TEXT
  5
12CEF3
  8
SLIM
 10
2884.8571428571431
 20
-2862.50001604727
 30
0.0
 40
30.0
  1
65（2）
 41
0.75
  0
TEXT
  5
12CEF4
  8
SLIM
 10
2757.0
 20
-2862.50001604727
 30
0.0
 40
30.0
  1
50（1）
 41
0.75
  0
TEXT
  5
12CEF5
  8
SLIM
 10
3159.2857142857151
 20
-2932.50001604727
 30
0.0
 40
40.0
  1
150
 41
0.75
  0
TEXT
  5
12CEF6
  8
SLIM
 10
3028.571428571428
 20
-2932.50001604727
 30
0.0
 40
40.0
  1
124
 41
0.75
  0
TEXT
  5
12CEF7
  8
SLIM
 10
2780.0
 20
-2932.50001604727
 30
0.0
 40
40.0
  1
94
 41
0.75
  0
TEXT
  5
12CEF8
  8
SLIM
 10
2902.1428571428569
 20
-2932.50001604727
 30
0.0
 40
40.0
  1
110
 41
0.75
  0
TEXT
  5
12CEF9
  8
SLIM
 10
1849.9999999999991
 20
-2832.5
 30
0.0
 40
75.0
  1
枝管サイズ毎の形状
 41
0.75
  0
LINE
  5
12CEFA
  8
OBJECT
 10
5150.0
 20
-3552.9999999999968
 30
0.0
 11
5143.0
 21
-3552.9999999999968
 31
0.0
1001
ACDBBLOCKREPETAG
1070
     1
1071
       64
1005
12CEFA
  0
LINE
  5
12CEFB
  8
OBJECT
 10
5143.0
 20
-3552.9999999999968
 30
0.0
 11
5143.0
 21
-3699.9999999999968
 31
0.0
1001
ACDBBLOCKREPETAG
1070
     1
1071
       65
1005
12CEFB
  0
LINE
  5
12CEFC
  8
OBJECT
 10
5101.5
 20
-3555.9999999999968
 30
0.0
 11
5101.5
 21
-3699.9999999999968
 31
0.0
1001
ACDBBLOCKREPETAG
1070
     1
1071
       66
1005
12CEFC
  0
LINE
  5
12CEFD
  8
OBJECT
 10
5090.0
 20
-3562.4999999999968
 30
0.0
 11
5090.0
 21
-3693.4999999999968
 31
0.0
1001
ACDBBLOCKREPETAG
1070
     1
1071
       67
1005
12CEFD
  0
LINE
  5
12CEFE
  8
OBJECT
 10
5086.0
 20
-3634.5000000000041
 30
0.0
 11
5086.0
 21
-3699.9999999999968
 31
0.0
1001
ACDBBLOCKREPETAG
1070
     1
1071
       68
1005
12CEFE
  0
LINE
  5
12CEFF
  8
OBJECT
 10
5150.0
 20
-3699.9999999999968
 30
0.0
 11
5150.0
 21
-3552.9999999999968
 31
0.0
1001
ACDBBLOCKREPETAG
1070
     1
1071
       69
1005
12CEFF
  0
LINE
  5
12CF00
  8
CENTER
 10
5165.0
 20
-3627.9999999999968
 30
0.0
 11
5070.4144144144157
 21
-3627.9999999999968
 31
0.0
1001
ACDBBLOCKREPETAG
1070
     1
1071
       70
1005
12CF00
  0
LINE
  5
12CF01
  8
OBJECT
 10
5083.0000000000045
 20
-3702.9999999999968
 30
0.0
 11
5080.0
 21
-3702.9999999999968
 31
0.0
1001
ACDBBLOCKREPETAG
1070
     1
1071
       71
1005
12CF01
  0
ARC
  5
12CF02
  8
OBJECT
 10
5091.8815171830656
 20
-3701.4555591801432
 30
0.0
 40
6.0
 50
60.52411099686767
 51
170.6927439126847
1001
ACDBBLOCKREPETAG
1070
     1
1071
       72
1005
12CF02
  0
ARC
  5
12CF03
  8
OBJECT
 10
5083.0
 20
-3699.9999999999968
 30
0.0
 40
3.0
 50
270.0
 51
350.69274391268482
1001
ACDBBLOCKREPETAG
1070
     1
1071
       73
1005
12CF03
  0
LINE
  5
12CF04
  8
OBJECT
 10
5081.0
 20
-3578.9999999999968
 30
0.0
 11
5080.0
 21
-3578.9999999999968
 31
0.0
1001
ACDBBLOCKREPETAG
1070
     1
1071
       74
1005
12CF04
  0
LINE
  5
12CF05
  8
OBJECT
 10
5150.0
 20
-3699.9999999999968
 30
0.0
 11
5101.5
 21
-3699.9999999999968
 31
0.0
1001
ACDBBLOCKREPETAG
1070
     1
1071
       75
1005
12CF05
  0
LINE
  5
12CF06
  8
OBJECT
 10
5101.5
 20
-3555.9999999999968
 30
0.0
 11
5090.0
 21
-3562.4999999999968
 31
0.0
1001
ACDBBLOCKREPETAG
1070
     1
1071
       76
1005
12CF06
  0
LINE
  5
12CF07
  8
OBJECT
 10
5143.0
 20
-3555.9999999999968
 30
0.0
 11
5101.5
 21
-3555.9999999999968
 31
0.0
1001
ACDBBLOCKREPETAG
1070
     1
1071
       77
1005
12CF07
  0
LINE
  5
12CF08
  8
OBJECT
 10
5086.0
 20
-3634.5000000000041
 30
0.0
 11
5081.0
 21
-3578.9999999999968
 31
0.0
1001
ACDBBLOCKREPETAG
1070
     1
1071
       78
1005
12CF08
  0
LINE
  5
12CF09
  8
OBJECT
 10
5090.0
 20
-3562.4999999999968
 30
0.0
 11
5081.0
 21
-3578.9999999999968
 31
0.0
1001
ACDBBLOCKREPETAG
1070
     1
1071
       79
1005
12CF09
  0
LINE
  5
12CF0A
  8
OBJECT
 10
5101.5
 20
-3699.9999999999968
 30
0.0
 11
5094.8338607230708
 21
-3696.232182147819
 31
0.0
1001
ACDBBLOCKREPETAG
1070
     1
1071
       80
1005
12CF0A
  0
LINE
  5
12CF0B
  8
HIDDEN
 10
5098.0
 20
-3684.9999999999968
 30
0.0
 11
5098.0
 21
-3570.9999999999968
 31
0.0
1001
ACDBBLOCKREPETAG
1070
     1
1071
       81
1005
12CF0B
  0
LINE
  5
12CF0C
  8
OBJECT
 10
5150.0
 20
-3219.9999999999959
 30
0.0
 11
5143.0
 21
-3219.9999999999959
 31
0.0
1001
ACDBBLOCKREPETAG
1070
     1
1071
       67
1005
12CF0C
  0
LINE
  5
12CF0D
  8
OBJECT
 10
5143.0
 20
-3219.9999999999959
 30
0.0
 11
5143.0
 21
-3369.9999999999959
 31
0.0
1001
ACDBBLOCKREPETAG
1070
     1
1071
       68
1005
12CF0D
  0
LINE
  5
12CF0E
  8
OBJECT
 10
5101.5
 20
-3222.9999999999959
 30
0.0
 11
5101.5
 21
-3366.9999999999959
 31
0.0
1001
ACDBBLOCKREPETAG
1070
     1
1071
       69
1005
12CF0E
  0
LINE
  5
12CF0F
  8
OBJECT
 10
5090.0
 20
-3229.4999999999959
 30
0.0
 11
5090.0
 21
-3360.4999999999959
 31
0.0
1001
ACDBBLOCKREPETAG
1070
     1
1071
       70
1005
12CF0F
  0
LINE
  5
12CF10
  8
OBJECT
 10
5143.0
 20
-3369.9999999999959
 30
0.0
 11
5150.0
 21
-3369.9999999999959
 31
0.0
1001
ACDBBLOCKREPETAG
1070
     1
1071
       71
1005
12CF10
  0
LINE
  5
12CF11
  8
OBJECT
 10
5150.0
 20
-3369.9999999999959
 30
0.0
 11
5150.0
 21
-3219.9999999999959
 31
0.0
1001
ACDBBLOCKREPETAG
1070
     1
1071
       72
1005
12CF11
  0
LINE
  5
12CF12
  8
HIDDEN
 10
5098.0
 20
-3351.9999999999959
 30
0.0
 11
5098.0
 21
-3237.9999999999959
 31
0.0
1001
ACDBBLOCKREPETAG
1070
     1
1071
       73
1005
12CF12
  0
LINE
  5
12CF13
  8
CENTER
 10
5165.0
 20
-3294.9999999999959
 30
0.0
 11
5080.0
 21
-3294.9999999999959
 31
0.0
1001
ACDBBLOCKREPETAG
1070
     1
1071
       74
1005
12CF13
  0
LINE
  5
12CF14
  8
OBJECT
 10
5086.0
 20
-3356.9999999999959
 30
0.0
 11
5080.0
 21
-3356.9999999999959
 31
0.0
1001
ACDBBLOCKREPETAG
1070
     1
1071
       75
1005
12CF14
  0
LINE
  5
12CF15
  8
OBJECT
 10
5143.0
 20
-3366.9999999999959
 30
0.0
 11
5101.5
 21
-3366.9999999999959
 31
0.0
1001
ACDBBLOCKREPETAG
1070
     1
1071
       76
1005
12CF15
  0
LINE
  5
12CF16
  8
OBJECT
 10
5101.5
 20
-3366.9999999999959
 30
0.0
 11
5090.0
 21
-3360.4999999999959
 31
0.0
1001
ACDBBLOCKREPETAG
1070
     1
1071
       77
1005
12CF16
  0
LINE
  5
12CF17
  8
OBJECT
 10
5090.0
 20
-3360.4999999999959
 30
0.0
 11
5086.0
 21
-3356.9999999999959
 31
0.0
1001
ACDBBLOCKREPETAG
1070
     1
1071
       78
1005
12CF17
  0
LINE
  5
12CF18
  8
OBJECT
 10
5101.5
 20
-3222.9999999999959
 30
0.0
 11
5090.0
 21
-3229.4999999999959
 31
0.0
1001
ACDBBLOCKREPETAG
1070
     1
1071
       79
1005
12CF18
  0
LINE
  5
12CF19
  8
OBJECT
 10
5090.0
 20
-3229.4999999999959
 30
0.0
 11
5086.0
 21
-3232.9999999999959
 31
0.0
1001
ACDBBLOCKREPETAG
1070
     1
1071
       80
1005
12CF19
  0
ARC
  5
12CF1A
  8
OBJECT
 10
5467.9000000000005
 20
-3294.9999999999959
 30
0.0
 40
386.89999999999998
 50
170.77870136260421
 51
189.22129863739571
1001
ACDBBLOCKREPETAG
1070
     1
1071
       81
1005
12CF1A
  0
LINE
  5
12CF1B
  8
OBJECT
 10
5086.0
 20
-3232.9999999999959
 30
0.0
 11
5080.0
 21
-3232.9999999999959
 31
0.0
1001
ACDBBLOCKREPETAG
1070
     1
1071
       82
1005
12CF1B
  0
LINE
  5
12CF1C
  8
OBJECT
 10
5143.0
 20
-3222.9999999999959
 30
0.0
 11
5101.5
 21
-3222.9999999999959
 31
0.0
1001
ACDBBLOCKREPETAG
1070
     1
1071
       83
1005
12CF1C
  0
TEXT
  5
12CF1D
  8
SLIM
 10
4884.25
 20
-3817.4999999999959
 30
0.0
 40
35.0
  1
通常枝100（4）
 41
0.75
  0
LINE
  5
12CF1E
  8
CENTER
 10
4477.0
 20
-3640.9999999999968
 30
0.0
 11
4323.0
 21
-3640.9999999999968
 31
0.0
1001
ACDBBLOCKREPETAG
1070
     1
1071
       17
1005
12CF1E
  0
CIRCLE
  5
12CF1F
  8
OBJECT
 10
4400.0
 20
-3640.9999999999968
 30
0.0
 40
41.5
1001
ACDBBLOCKREPETAG
1070
     1
1071
       19
1005
12CF1F
  0
CIRCLE
  5
12CF20
  8
OBJECT
 10
4400.0
 20
-3640.9999999999968
 30
0.0
 40
54.0
1001
ACDBBLOCKREPETAG
1070
     1
1071
       20
1005
12CF20
  0
ARC
  5
12CF21
  8
OBJECT
 10
4400.0
 20
-3640.9999999999968
 30
0.0
 40
62.0
 50
287.89655112921122
 51
252.1034488707887
1001
ACDBBLOCKREPETAG
1070
     1
1071
       21
1005
12CF21
  0
LINE
  5
12CF22
  8
OBJECT
 10
4380.947441116743
 20
-3699.9999999999968
 30
0.0
 11
4419.052558883257
 21
-3699.9999999999968
 31
0.0
1001
ACDBBLOCKREPETAG
1070
     1
1071
       22
1005
12CF22
  0
LINE
  5
12CF23
  8
OBJECT
 10
4133.0
 20
-3578.9999999999968
 30
0.0
 11
4140.0
 21
-3578.9999999999968
 31
0.0
1001
ACDBBLOCKREPETAG
1070
     1
1071
       45
1005
12CF23
  0
LINE
  5
12CF24
  8
OBJECT
 10
4140.0
 20
-3578.9999999999968
 30
0.0
 11
4140.0
 21
-3699.9999999999968
 31
0.0
1001
ACDBBLOCKREPETAG
1070
     1
1071
       46
1005
12CF24
  0
LINE
  5
12CF25
  8
OBJECT
 10
4133.0
 20
-3699.9999999999968
 30
0.0
 11
4133.0
 21
-3578.9999999999968
 31
0.0
1001
ACDBBLOCKREPETAG
1070
     1
1071
       47
1005
12CF25
  0
LINE
  5
12CF26
  8
CENTER
 10
4155.0
 20
-3640.9999999999968
 30
0.0
 11
4071.0
 21
-3640.9999999999968
 31
0.0
1001
ACDBBLOCKREPETAG
1070
     1
1071
       48
1005
12CF26
  0
LINE
  5
12CF27
  8
OBJECT
 10
4133.0
 20
-3581.9999999999968
 30
0.0
 11
4097.0
 21
-3581.9999999999968
 31
0.0
1001
ACDBBLOCKREPETAG
1070
     1
1071
       49
1005
12CF27
  0
LINE
  5
12CF28
  8
OBJECT
 10
4097.0
 20
-3581.9999999999968
 30
0.0
 11
4097.0
 21
-3699.9999999999968
 31
0.0
1001
ACDBBLOCKREPETAG
1070
     1
1071
       50
1005
12CF28
  0
LINE
  5
12CF29
  8
OBJECT
 10
4097.0
 20
-3699.9999999999968
 30
0.0
 11
4140.0
 21
-3699.9999999999968
 31
0.0
1001
ACDBBLOCKREPETAG
1070
     1
1071
       51
1005
12CF29
  0
LINE
  5
12CF2A
  8
OBJECT
 10
4093.0
 20
-3586.4999999999968
 30
0.0
 11
4086.0
 21
-3586.4999999999968
 31
0.0
1001
ACDBBLOCKREPETAG
1070
     1
1071
       52
1005
12CF2A
  0
LINE
  5
12CF2B
  8
OBJECT
 10
4086.0
 20
-3695.4999999999968
 30
0.0
 11
4093.0
 21
-3695.4999999999968
 31
0.0
1001
ACDBBLOCKREPETAG
1070
     1
1071
       53
1005
12CF2B
  0
LINE
  5
12CF2C
  8
OBJECT
 10
4093.0
 20
-3695.4999999999968
 30
0.0
 11
4093.0
 21
-3586.4999999999968
 31
0.0
1001
ACDBBLOCKREPETAG
1070
     1
1071
       54
1005
12CF2C
  0
LINE
  5
12CF2D
  8
OBJECT
 10
4097.0
 20
-3581.9999999999968
 30
0.0
 11
4093.0
 21
-3586.4999999999968
 31
0.0
1001
ACDBBLOCKREPETAG
1070
     1
1071
       55
1005
12CF2D
  0
LINE
  5
12CF2E
  8
OBJECT
 10
4097.0
 20
-3699.9999999999968
 30
0.0
 11
4093.0
 21
-3695.4999999999968
 31
0.0
1001
ACDBBLOCKREPETAG
1070
     1
1071
       56
1005
12CF2E
  0
LINE
  5
12CF2F
  8
OBJECT
 10
4083.0
 20
-3578.9999999999968
 30
0.0
 11
4080.0
 21
-3578.9999999999968
 31
0.0
1001
ACDBBLOCKREPETAG
1070
     1
1071
       57
1005
12CF2F
  0
ARC
  5
12CF30
  8
OBJECT
 10
4083.0
 20
-3581.9999999999968
 30
0.0
 40
3.0
 50
0.0
 51
90.0
1001
ACDBBLOCKREPETAG
1070
     1
1071
       58
1005
12CF30
  0
LINE
  5
12CF31
  8
OBJECT
 10
4080.0
 20
-3702.9999999999968
 30
0.0
 11
4083.0
 21
-3702.9999999999968
 31
0.0
1001
ACDBBLOCKREPETAG
1070
     1
1071
       59
1005
12CF31
  0
ARC
  5
12CF32
  8
OBJECT
 10
4083.0
 20
-3699.9999999999968
 30
0.0
 40
3.0
 50
270.0
 51
0.0
1001
ACDBBLOCKREPETAG
1070
     1
1071
       60
1005
12CF32
  0
LINE
  5
12CF33
  8
OBJECT
 10
4086.0
 20
-3699.9999999999968
 30
0.0
 11
4086.0
 21
-3581.9999999999968
 31
0.0
1001
ACDBBLOCKREPETAG
1070
     1
1071
       61
1005
12CF33
  0
LINE
  5
12CF34
  8
HIDDEN
 10
4088.0
 20
-3596.4999999999968
 30
0.0
 11
4088.0
 21
-3685.4999999999968
 31
0.0
1001
ACDBBLOCKREPETAG
1070
     1
1071
       63
1005
12CF34
  0
LINE
  5
12CF35
  8
OBJECT
 10
4133.0
 20
-3232.9999999999959
 30
0.0
 11
4140.0
 21
-3232.9999999999959
 31
0.0
1001
ACDBBLOCKREPETAG
1070
     1
1071
       47
1005
12CF35
  0
LINE
  5
12CF36
  8
OBJECT
 10
4140.0
 20
-3232.9999999999959
 30
0.0
 11
4140.0
 21
-3356.9999999999959
 31
0.0
1001
ACDBBLOCKREPETAG
1070
     1
1071
       48
1005
12CF36
  0
LINE
  5
12CF37
  8
OBJECT
 10
4140.0
 20
-3356.9999999999959
 30
0.0
 11
4133.0
 21
-3356.9999999999959
 31
0.0
1001
ACDBBLOCKREPETAG
1070
     1
1071
       49
1005
12CF37
  0
LINE
  5
12CF38
  8
OBJECT
 10
4133.0
 20
-3356.9999999999959
 30
0.0
 11
4133.0
 21
-3232.9999999999959
 31
0.0
1001
ACDBBLOCKREPETAG
1070
     1
1071
       50
1005
12CF38
  0
LINE
  5
12CF39
  8
CENTER
 10
4155.0
 20
-3294.9999999999959
 30
0.0
 11
4080.0
 21
-3294.9999999999959
 31
0.0
1001
ACDBBLOCKREPETAG
1070
     1
1071
       51
1005
12CF39
  0
LINE
  5
12CF3A
  8
OBJECT
 10
4133.0
 20
-3235.9999999999959
 30
0.0
 11
4097.0
 21
-3235.9999999999959
 31
0.0
1001
ACDBBLOCKREPETAG
1070
     1
1071
       52
1005
12CF3A
  0
LINE
  5
12CF3B
  8
OBJECT
 10
4097.0
 20
-3235.9999999999959
 30
0.0
 11
4097.0
 21
-3353.9999999999959
 31
0.0
1001
ACDBBLOCKREPETAG
1070
     1
1071
       53
1005
12CF3B
  0
LINE
  5
12CF3C
  8
OBJECT
 10
4097.0
 20
-3353.9999999999959
 30
0.0
 11
4133.0
 21
-3353.9999999999959
 31
0.0
1001
ACDBBLOCKREPETAG
1070
     1
1071
       54
1005
12CF3C
  0
LINE
  5
12CF3D
  8
OBJECT
 10
4093.0
 20
-3240.4999999999959
 30
0.0
 11
4086.0
 21
-3240.4999999999959
 31
0.0
1001
ACDBBLOCKREPETAG
1070
     1
1071
       55
1005
12CF3D
  0
LINE
  5
12CF3E
  8
OBJECT
 10
4086.0
 20
-3349.4999999999959
 30
0.0
 11
4093.0
 21
-3349.4999999999959
 31
0.0
1001
ACDBBLOCKREPETAG
1070
     1
1071
       56
1005
12CF3E
  0
LINE
  5
12CF3F
  8
OBJECT
 10
4093.0
 20
-3349.4999999999959
 30
0.0
 11
4093.0
 21
-3240.4999999999959
 31
0.0
1001
ACDBBLOCKREPETAG
1070
     1
1071
       57
1005
12CF3F
  0
LINE
  5
12CF40
  8
OBJECT
 10
4097.0
 20
-3235.9999999999959
 30
0.0
 11
4093.0
 21
-3240.4999999999959
 31
0.0
1001
ACDBBLOCKREPETAG
1070
     1
1071
       58
1005
12CF40
  0
LINE
  5
12CF41
  8
OBJECT
 10
4097.0
 20
-3353.9999999999959
 30
0.0
 11
4093.0
 21
-3349.4999999999959
 31
0.0
1001
ACDBBLOCKREPETAG
1070
     1
1071
       59
1005
12CF41
  0
LINE
  5
12CF42
  8
OBJECT
 10
4083.0
 20
-3232.9999999999959
 30
0.0
 11
4080.0
 21
-3232.9999999999959
 31
0.0
1001
ACDBBLOCKREPETAG
1070
     1
1071
       60
1005
12CF42
  0
ARC
  5
12CF43
  8
OBJECT
 10
4083.0
 20
-3235.9999999999959
 30
0.0
 40
3.0
 50
0.0
 51
90.0
1001
ACDBBLOCKREPETAG
1070
     1
1071
       61
1005
12CF43
  0
LINE
  5
12CF44
  8
OBJECT
 10
4080.0
 20
-3356.9999999999959
 30
0.0
 11
4083.0
 21
-3356.9999999999959
 31
0.0
1001
ACDBBLOCKREPETAG
1070
     1
1071
       62
1005
12CF44
  0
ARC
  5
12CF45
  8
OBJECT
 10
4083.0
 20
-3353.9999999999959
 30
0.0
 40
3.0
 50
270.0
 51
0.0
1001
ACDBBLOCKREPETAG
1070
     1
1071
       63
1005
12CF45
  0
LINE
  5
12CF46
  8
OBJECT
 10
4086.0
 20
-3353.9999999999959
 30
0.0
 11
4086.0
 21
-3235.9999999999959
 31
0.0
1001
ACDBBLOCKREPETAG
1070
     1
1071
       64
1005
12CF46
  0
LINE
  5
12CF47
  8
HIDDEN
 10
4088.0
 20
-3250.4999999999959
 30
0.0
 11
4088.0
 21
-3339.4999999999959
 31
0.0
1001
ACDBBLOCKREPETAG
1070
     1
1071
       65
1005
12CF47
  0
TEXT
  5
12CF48
  8
SLIM
 10
3894.25
 20
-3817.4999999999959
 30
0.0
 40
35.0
  1
通常枝75（3）
 41
0.75
  0
CIRCLE
  5
12CF49
  8
OBJECT
 10
3400.0
 20
-3647.9999999999968
 30
0.0
 40
35.5
1001
ACDBBLOCKREPETAG
1070
     1
1071
       10
1005
12CF49
  0
CIRCLE
  5
12CF4A
  8
OBJECT
 10
3400.0
 20
-3640.9999999999968
 30
0.0
 40
62.0
1001
ACDBBLOCKREPETAG
1070
     1
1071
       11
1005
12CF4A
  0
LINE
  5
12CF4B
  8
CENTER
 10
3330.0
 20
-3647.9999999999968
 30
0.0
 11
3470.0
 21
-3647.9999999999968
 31
0.0
1001
ACDBBLOCKREPETAG
1070
     1
1071
       12
1005
12CF4B
  0
CIRCLE
  5
12CF4C
  8
OBJECT
 10
3400.0
 20
-3647.9999999999968
 30
0.0
 40
47.0
1001
ACDBBLOCKREPETAG
1070
     1
1071
       14
1005
12CF4C
  0
ARC
  5
12CF4D
  8
OBJECT
 10
3400.0
 20
-3647.9999999999968
 30
0.0
 40
55.0
 50
289.01126526011359
 51
250.98873473988641
1001
ACDBBLOCKREPETAG
1070
     1
1071
       15
1005
12CF4D
  0
LINE
  5
12CF4E
  8
OBJECT
 10
3382.0835271328328
 20
-3699.9999999999968
 30
0.0
 11
3417.9164728671681
 21
-3699.9999999999968
 31
0.0
1001
ACDBBLOCKREPETAG
1070
     1
1071
       16
1005
12CF4E
  0
LINE
  5
12CF4F
  8
OBJECT
 10
3133.0
 20
-3592.9999999999968
 30
0.0
 11
3140.0
 21
-3592.9999999999968
 31
0.0
1001
ACDBBLOCKREPETAG
1070
     1
1071
       26
1005
12CF4F
  0
LINE
  5
12CF50
  8
OBJECT
 10
3140.0
 20
-3592.9999999999968
 30
0.0
 11
3140.0
 21
-3699.9999999999968
 31
0.0
1001
ACDBBLOCKREPETAG
1070
     1
1071
       27
1005
12CF50
  0
LINE
  5
12CF51
  8
OBJECT
 10
3133.0
 20
-3699.9999999999968
 30
0.0
 11
3133.0
 21
-3592.9999999999968
 31
0.0
1001
ACDBBLOCKREPETAG
1070
     1
1071
       28
1005
12CF51
  0
LINE
  5
12CF52
  8
CENTER
 10
3155.0
 20
-3647.9999999999968
 30
0.0
 11
3071.0
 21
-3647.9999999999968
 31
0.0
1001
ACDBBLOCKREPETAG
1070
     1
1071
       29
1005
12CF52
  0
LINE
  5
12CF53
  8
OBJECT
 10
3133.0
 20
-3595.9999999999968
 30
0.0
 11
3097.0
 21
-3595.9999999999968
 31
0.0
1001
ACDBBLOCKREPETAG
1070
     1
1071
       30
1005
12CF53
  0
LINE
  5
12CF54
  8
OBJECT
 10
3097.0
 20
-3595.9999999999968
 30
0.0
 11
3097.0
 21
-3699.9999999999968
 31
0.0
1001
ACDBBLOCKREPETAG
1070
     1
1071
       31
1005
12CF54
  0
LINE
  5
12CF55
  8
OBJECT
 10
3097.0
 20
-3699.9999999999968
 30
0.0
 11
3140.0
 21
-3699.9999999999968
 31
0.0
1001
ACDBBLOCKREPETAG
1070
     1
1071
       32
1005
12CF55
  0
LINE
  5
12CF56
  8
OBJECT
 10
3093.0
 20
-3600.4999999999968
 30
0.0
 11
3086.0
 21
-3600.4999999999968
 31
0.0
1001
ACDBBLOCKREPETAG
1070
     1
1071
       33
1005
12CF56
  0
LINE
  5
12CF57
  8
OBJECT
 10
3086.0
 20
-3695.4999999999968
 30
0.0
 11
3093.0
 21
-3695.4999999999968
 31
0.0
1001
ACDBBLOCKREPETAG
1070
     1
1071
       34
1005
12CF57
  0
LINE
  5
12CF58
  8
OBJECT
 10
3093.0
 20
-3695.4999999999968
 30
0.0
 11
3093.0
 21
-3600.4999999999968
 31
0.0
1001
ACDBBLOCKREPETAG
1070
     1
1071
       35
1005
12CF58
  0
LINE
  5
12CF59
  8
OBJECT
 10
3097.0
 20
-3595.9999999999968
 30
0.0
 11
3093.0
 21
-3600.4999999999968
 31
0.0
1001
ACDBBLOCKREPETAG
1070
     1
1071
       36
1005
12CF59
  0
LINE
  5
12CF5A
  8
OBJECT
 10
3097.0
 20
-3699.9999999999968
 30
0.0
 11
3093.0
 21
-3695.4999999999968
 31
0.0
1001
ACDBBLOCKREPETAG
1070
     1
1071
       37
1005
12CF5A
  0
LINE
  5
12CF5B
  8
OBJECT
 10
3083.0
 20
-3578.9999999999968
 30
0.0
 11
3080.0
 21
-3578.9999999999968
 31
0.0
1001
ACDBBLOCKREPETAG
1070
     1
1071
       38
1005
12CF5B
  0
ARC
  5
12CF5C
  8
OBJECT
 10
3083.0
 20
-3581.9999999999968
 30
0.0
 40
3.0
 50
0.0
 51
90.0
1001
ACDBBLOCKREPETAG
1070
     1
1071
       39
1005
12CF5C
  0
LINE
  5
12CF5D
  8
OBJECT
 10
3080.0
 20
-3702.9999999999968
 30
0.0
 11
3083.0
 21
-3702.9999999999968
 31
0.0
1001
ACDBBLOCKREPETAG
1070
     1
1071
       40
1005
12CF5D
  0
ARC
  5
12CF5E
  8
OBJECT
 10
3083.0
 20
-3699.9999999999968
 30
0.0
 40
3.0
 50
270.0
 51
0.0
1001
ACDBBLOCKREPETAG
1070
     1
1071
       41
1005
12CF5E
  0
LINE
  5
12CF5F
  8
OBJECT
 10
3086.0
 20
-3699.9999999999968
 30
0.0
 11
3086.0
 21
-3581.9999999999968
 31
0.0
1001
ACDBBLOCKREPETAG
1070
     1
1071
       42
1005
12CF5F
  0
LINE
  5
12CF60
  8
HIDDEN
 10
3088.0
 20
-3609.9999999999968
 30
0.0
 11
3088.0
 21
-3685.9999999999968
 31
0.0
1001
ACDBBLOCKREPETAG
1070
     1
1071
       43
1005
12CF60
  0
LINE
  5
12CF61
  8
OBJECT
 10
3133.0
 20
-3239.9999999999968
 30
0.0
 11
3140.0
 21
-3239.9999999999968
 31
0.0
1001
ACDBBLOCKREPETAG
1070
     1
1071
       27
1005
12CF61
  0
LINE
  5
12CF62
  8
OBJECT
 10
3140.0
 20
-3239.9999999999968
 30
0.0
 11
3140.0
 21
-3349.9999999999959
 31
0.0
1001
ACDBBLOCKREPETAG
1070
     1
1071
       28
1005
12CF62
  0
LINE
  5
12CF63
  8
OBJECT
 10
3140.0
 20
-3349.9999999999959
 30
0.0
 11
3133.0
 21
-3349.9999999999959
 31
0.0
1001
ACDBBLOCKREPETAG
1070
     1
1071
       29
1005
12CF63
  0
LINE
  5
12CF64
  8
OBJECT
 10
3133.0
 20
-3349.9999999999959
 30
0.0
 11
3133.0
 21
-3239.9999999999968
 31
0.0
1001
ACDBBLOCKREPETAG
1070
     1
1071
       30
1005
12CF64
  0
LINE
  5
12CF65
  8
CENTER
 10
3155.0
 20
-3294.9999999999959
 30
0.0
 11
3080.0
 21
-3294.9999999999959
 31
0.0
1001
ACDBBLOCKREPETAG
1070
     1
1071
       31
1005
12CF65
  0
LINE
  5
12CF66
  8
OBJECT
 10
3133.0
 20
-3242.9999999999959
 30
0.0
 11
3097.0
 21
-3242.9999999999959
 31
0.0
1001
ACDBBLOCKREPETAG
1070
     1
1071
       32
1005
12CF66
  0
LINE
  5
12CF67
  8
OBJECT
 10
3097.0
 20
-3242.9999999999959
 30
0.0
 11
3097.0
 21
-3346.9999999999959
 31
0.0
1001
ACDBBLOCKREPETAG
1070
     1
1071
       33
1005
12CF67
  0
LINE
  5
12CF68
  8
OBJECT
 10
3097.0
 20
-3346.9999999999959
 30
0.0
 11
3133.0
 21
-3346.9999999999959
 31
0.0
1001
ACDBBLOCKREPETAG
1070
     1
1071
       34
1005
12CF68
  0
LINE
  5
12CF69
  8
OBJECT
 10
3093.0
 20
-3247.4999999999959
 30
0.0
 11
3086.0
 21
-3247.4999999999959
 31
0.0
1001
ACDBBLOCKREPETAG
1070
     1
1071
       35
1005
12CF69
  0
LINE
  5
12CF6A
  8
OBJECT
 10
3086.0
 20
-3342.4999999999959
 30
0.0
 11
3093.0
 21
-3342.4999999999959
 31
0.0
1001
ACDBBLOCKREPETAG
1070
     1
1071
       36
1005
12CF6A
  0
LINE
  5
12CF6B
  8
OBJECT
 10
3093.0
 20
-3342.4999999999959
 30
0.0
 11
3093.0
 21
-3247.4999999999959
 31
0.0
1001
ACDBBLOCKREPETAG
1070
     1
1071
       37
1005
12CF6B
  0
LINE
  5
12CF6C
  8
OBJECT
 10
3097.0
 20
-3242.9999999999959
 30
0.0
 11
3093.0
 21
-3247.4999999999959
 31
0.0
1001
ACDBBLOCKREPETAG
1070
     1
1071
       38
1005
12CF6C
  0
LINE
  5
12CF6D
  8
OBJECT
 10
3097.0
 20
-3346.9999999999959
 30
0.0
 11
3093.0
 21
-3342.4999999999959
 31
0.0
1001
ACDBBLOCKREPETAG
1070
     1
1071
       39
1005
12CF6D
  0
LINE
  5
12CF6E
  8
OBJECT
 10
3083.0
 20
-3232.9999999999959
 30
0.0
 11
3080.0
 21
-3232.9999999999959
 31
0.0
1001
ACDBBLOCKREPETAG
1070
     1
1071
       40
1005
12CF6E
  0
ARC
  5
12CF6F
  8
OBJECT
 10
3083.0
 20
-3235.9999999999959
 30
0.0
 40
3.0
 50
0.0
 51
90.0
1001
ACDBBLOCKREPETAG
1070
     1
1071
       41
1005
12CF6F
  0
LINE
  5
12CF70
  8
OBJECT
 10
3080.0
 20
-3356.9999999999959
 30
0.0
 11
3083.0
 21
-3356.9999999999959
 31
0.0
1001
ACDBBLOCKREPETAG
1070
     1
1071
       42
1005
12CF70
  0
ARC
  5
12CF71
  8
OBJECT
 10
3083.0
 20
-3353.9999999999959
 30
0.0
 40
3.0
 50
270.0
 51
0.0
1001
ACDBBLOCKREPETAG
1070
     1
1071
       43
1005
12CF71
  0
LINE
  5
12CF72
  8
OBJECT
 10
3086.0
 20
-3353.9999999999959
 30
0.0
 11
3086.0
 21
-3235.9999999999959
 31
0.0
1001
ACDBBLOCKREPETAG
1070
     1
1071
       44
1005
12CF72
  0
LINE
  5
12CF73
  8
HIDDEN
 10
3088.0
 20
-3256.9999999999959
 30
0.0
 11
3088.0
 21
-3332.9999999999968
 31
0.0
1001
ACDBBLOCKREPETAG
1070
     1
1071
       45
1005
12CF73
  0
TEXT
  5
12CF74
  8
SLIM
 10
2894.25
 20
-3817.4999999999959
 30
0.0
 40
35.0
  1
通常枝65（2）
 41
0.75
  0
CIRCLE
  5
12CF75
  8
OBJECT
 10
2400.0
 20
-3640.9999999999968
 30
0.0
 40
62.0
1001
ACDBBLOCKREPETAG
1070
     1
1071
        3
1005
12CF75
  0
LINE
  5
12CF76
  8
CENTER
 10
2338.0
 20
-3655.9999999999968
 30
0.0
 11
2462.0
 21
-3655.9999999999968
 31
0.0
1001
ACDBBLOCKREPETAG
1070
     1
1071
        4
1005
12CF76
  0
CIRCLE
  5
12CF77
  8
OBJECT
 10
2400.0
 20
-3655.9999999999968
 30
0.0
 40
28.0
1001
ACDBBLOCKREPETAG
1070
     1
1071
        6
1005
12CF77
  0
CIRCLE
  5
12CF78
  8
OBJECT
 10
2400.0
 20
-3655.9999999999968
 30
0.0
 40
39.0
1001
ACDBBLOCKREPETAG
1070
     1
1071
        7
1005
12CF78
  0
ARC
  5
12CF79
  8
OBJECT
 10
2400.0
 20
-3655.9999999999968
 30
0.0
 40
47.0
 50
290.58196921144412
 51
249.41803078855591
1001
ACDBBLOCKREPETAG
1070
     1
1071
        8
1005
12CF79
  0
LINE
  5
12CF7A
  8
OBJECT
 10
2383.4772883581431
 20
-3699.9999999999968
 30
0.0
 11
2416.5227116418569
 21
-3699.9999999999968
 31
0.0
1001
ACDBBLOCKREPETAG
1070
     1
1071
        9
1005
12CF7A
  0
LINE
  5
12CF7B
  8
OBJECT
 10
2133.0
 20
-3608.9999999999968
 30
0.0
 11
2140.0
 21
-3608.9999999999968
 31
0.0
1001
ACDBBLOCKREPETAG
1070
     1
1071
        7
1005
12CF7B
  0
LINE
  5
12CF7C
  8
OBJECT
 10
2140.0
 20
-3608.9999999999968
 30
0.0
 11
2140.0
 21
-3699.9999999999968
 31
0.0
1001
ACDBBLOCKREPETAG
1070
     1
1071
        8
1005
12CF7C
  0
LINE
  5
12CF7D
  8
OBJECT
 10
2133.0
 20
-3699.9999999999968
 30
0.0
 11
2133.0
 21
-3608.9999999999968
 31
0.0
1001
ACDBBLOCKREPETAG
1070
     1
1071
        9
1005
12CF7D
  0
LINE
  5
12CF7E
  8
CENTER
 10
2155.0
 20
-3655.9999999999968
 30
0.0
 11
2071.0
 21
-3655.9999999999968
 31
0.0
1001
ACDBBLOCKREPETAG
1070
     1
1071
       10
1005
12CF7E
  0
LINE
  5
12CF7F
  8
OBJECT
 10
2133.0
 20
-3611.9999999999968
 30
0.0
 11
2097.0
 21
-3611.9999999999968
 31
0.0
1001
ACDBBLOCKREPETAG
1070
     1
1071
       11
1005
12CF7F
  0
LINE
  5
12CF80
  8
OBJECT
 10
2097.0
 20
-3611.9999999999968
 30
0.0
 11
2097.0
 21
-3699.9999999999968
 31
0.0
1001
ACDBBLOCKREPETAG
1070
     1
1071
       12
1005
12CF80
  0
LINE
  5
12CF81
  8
OBJECT
 10
2097.0
 20
-3699.9999999999968
 30
0.0
 11
2140.0
 21
-3699.9999999999968
 31
0.0
1001
ACDBBLOCKREPETAG
1070
     1
1071
       13
1005
12CF81
  0
LINE
  5
12CF82
  8
OBJECT
 10
2093.0
 20
-3616.4999999999968
 30
0.0
 11
2086.0
 21
-3616.4999999999968
 31
0.0
1001
ACDBBLOCKREPETAG
1070
     1
1071
       14
1005
12CF82
  0
LINE
  5
12CF83
  8
OBJECT
 10
2086.0
 20
-3695.4999999999968
 30
0.0
 11
2093.0
 21
-3695.4999999999968
 31
0.0
1001
ACDBBLOCKREPETAG
1070
     1
1071
       15
1005
12CF83
  0
LINE
  5
12CF84
  8
OBJECT
 10
2093.0
 20
-3695.4999999999968
 30
0.0
 11
2093.0
 21
-3616.4999999999968
 31
0.0
1001
ACDBBLOCKREPETAG
1070
     1
1071
       16
1005
12CF84
  0
LINE
  5
12CF85
  8
OBJECT
 10
2097.0
 20
-3611.9999999999968
 30
0.0
 11
2093.0
 21
-3616.4999999999968
 31
0.0
1001
ACDBBLOCKREPETAG
1070
     1
1071
       17
1005
12CF85
  0
LINE
  5
12CF86
  8
OBJECT
 10
2097.0
 20
-3699.9999999999968
 30
0.0
 11
2093.0
 21
-3695.4999999999968
 31
0.0
1001
ACDBBLOCKREPETAG
1070
     1
1071
       18
1005
12CF86
  0
LINE
  5
12CF87
  8
OBJECT
 10
2083.0
 20
-3578.9999999999968
 30
0.0
 11
2080.0
 21
-3578.9999999999968
 31
0.0
1001
ACDBBLOCKREPETAG
1070
     1
1071
       19
1005
12CF87
  0
ARC
  5
12CF88
  8
OBJECT
 10
2083.0
 20
-3581.9999999999968
 30
0.0
 40
3.0
 50
0.0
 51
90.0
1001
ACDBBLOCKREPETAG
1070
     1
1071
       20
1005
12CF88
  0
LINE
  5
12CF89
  8
OBJECT
 10
2080.0
 20
-3702.9999999999968
 30
0.0
 11
2083.0
 21
-3702.9999999999968
 31
0.0
1001
ACDBBLOCKREPETAG
1070
     1
1071
       21
1005
12CF89
  0
ARC
  5
12CF8A
  8
OBJECT
 10
2083.0
 20
-3699.9999999999968
 30
0.0
 40
3.0
 50
270.0
 51
0.0
1001
ACDBBLOCKREPETAG
1070
     1
1071
       22
1005
12CF8A
  0
LINE
  5
12CF8B
  8
OBJECT
 10
2086.0
 20
-3699.9999999999968
 30
0.0
 11
2086.0
 21
-3581.9999999999968
 31
0.0
1001
ACDBBLOCKREPETAG
1070
     1
1071
       23
1005
12CF8B
  0
LINE
  5
12CF8C
  8
HIDDEN
 10
2088.0
 20
-3625.9999999999968
 30
0.0
 11
2088.0
 21
-3685.9999999999968
 31
0.0
1001
ACDBBLOCKREPETAG
1070
     1
1071
       24
1005
12CF8C
  0
LINE
  5
12CF8D
  8
OBJECT
 10
2133.0
 20
-3247.9999999999959
 30
0.0
 11
2140.0
 21
-3247.9999999999959
 31
0.0
1001
ACDBBLOCKREPETAG
1070
     1
1071
        7
1005
12CF8D
  0
LINE
  5
12CF8E
  8
OBJECT
 10
2140.0
 20
-3247.9999999999959
 30
0.0
 11
2140.0
 21
-3341.9999999999959
 31
0.0
1001
ACDBBLOCKREPETAG
1070
     1
1071
        8
1005
12CF8E
  0
LINE
  5
12CF8F
  8
OBJECT
 10
2140.0
 20
-3341.9999999999959
 30
0.0
 11
2133.0
 21
-3341.9999999999959
 31
0.0
1001
ACDBBLOCKREPETAG
1070
     1
1071
        9
1005
12CF8F
  0
LINE
  5
12CF90
  8
OBJECT
 10
2133.0
 20
-3341.9999999999959
 30
0.0
 11
2133.0
 21
-3247.9999999999959
 31
0.0
1001
ACDBBLOCKREPETAG
1070
     1
1071
       10
1005
12CF90
  0
LINE
  5
12CF91
  8
CENTER
 10
2155.0
 20
-3294.9999999999959
 30
0.0
 11
2080.0
 21
-3294.9999999999959
 31
0.0
1001
ACDBBLOCKREPETAG
1070
     1
1071
       11
1005
12CF91
  0
LINE
  5
12CF92
  8
OBJECT
 10
2133.0
 20
-3250.9999999999959
 30
0.0
 11
2097.0
 21
-3250.9999999999959
 31
0.0
1001
ACDBBLOCKREPETAG
1070
     1
1071
       12
1005
12CF92
  0
LINE
  5
12CF93
  8
OBJECT
 10
2097.0
 20
-3250.9999999999959
 30
0.0
 11
2097.0
 21
-3338.9999999999959
 31
0.0
1001
ACDBBLOCKREPETAG
1070
     1
1071
       13
1005
12CF93
  0
LINE
  5
12CF94
  8
OBJECT
 10
2097.0
 20
-3338.9999999999959
 30
0.0
 11
2133.0
 21
-3338.9999999999959
 31
0.0
1001
ACDBBLOCKREPETAG
1070
     1
1071
       14
1005
12CF94
  0
LINE
  5
12CF95
  8
OBJECT
 10
2093.0
 20
-3255.4999999999959
 30
0.0
 11
2086.0
 21
-3255.4999999999959
 31
0.0
1001
ACDBBLOCKREPETAG
1070
     1
1071
       15
1005
12CF95
  0
LINE
  5
12CF96
  8
OBJECT
 10
2086.0
 20
-3334.4999999999959
 30
0.0
 11
2093.0
 21
-3334.4999999999959
 31
0.0
1001
ACDBBLOCKREPETAG
1070
     1
1071
       16
1005
12CF96
  0
LINE
  5
12CF97
  8
OBJECT
 10
2093.0
 20
-3334.4999999999959
 30
0.0
 11
2093.0
 21
-3255.4999999999959
 31
0.0
1001
ACDBBLOCKREPETAG
1070
     1
1071
       17
1005
12CF97
  0
LINE
  5
12CF98
  8
OBJECT
 10
2097.0
 20
-3250.9999999999959
 30
0.0
 11
2093.0
 21
-3255.4999999999959
 31
0.0
1001
ACDBBLOCKREPETAG
1070
     1
1071
       18
1005
12CF98
  0
LINE
  5
12CF99
  8
OBJECT
 10
2097.0
 20
-3338.9999999999959
 30
0.0
 11
2093.0
 21
-3334.4999999999959
 31
0.0
1001
ACDBBLOCKREPETAG
1070
     1
1071
       19
1005
12CF99
  0
LINE
  5
12CF9A
  8
OBJECT
 10
2083.0
 20
-3232.9999999999959
 30
0.0
 11
2080.0
 21
-3232.9999999999959
 31
0.0
1001
ACDBBLOCKREPETAG
1070
     1
1071
       20
1005
12CF9A
  0
ARC
  5
12CF9B
  8
OBJECT
 10
2083.0
 20
-3235.9999999999959
 30
0.0
 40
3.0
 50
0.0
 51
90.0
1001
ACDBBLOCKREPETAG
1070
     1
1071
       21
1005
12CF9B
  0
LINE
  5
12CF9C
  8
OBJECT
 10
2080.0
 20
-3356.9999999999959
 30
0.0
 11
2083.0
 21
-3356.9999999999959
 31
0.0
1001
ACDBBLOCKREPETAG
1070
     1
1071
       22
1005
12CF9C
  0
ARC
  5
12CF9D
  8
OBJECT
 10
2083.0
 20
-3353.9999999999959
 30
0.0
 40
3.0
 50
270.0
 51
0.0
1001
ACDBBLOCKREPETAG
1070
     1
1071
       23
1005
12CF9D
  0
LINE
  5
12CF9E
  8
OBJECT
 10
2086.0
 20
-3353.9999999999959
 30
0.0
 11
2086.0
 21
-3235.9999999999959
 31
0.0
1001
ACDBBLOCKREPETAG
1070
     1
1071
       24
1005
12CF9E
  0
LINE
  5
12CF9F
  8
HIDDEN
 10
2088.0
 20
-3264.9999999999968
 30
0.0
 11
2088.0
 21
-3324.9999999999959
 31
0.0
1001
ACDBBLOCKREPETAG
1070
     1
1071
       25
1005
12CF9F
  0
TEXT
  5
12CFA0
  8
SLIM
 10
1896.75
 20
-3817.4999999999959
 30
0.0
 40
35.0
  1
通常枝50（1）
 41
0.75
  0
LINE
  5
12CFA1
  8
SLIM
 10
3914.9999999999941
 20
-759.47385309434696
 30
0.0
 11
3919.47385309434
 21
-754.99999999999955
 31
0.0
1001
ACDBBLOCKREPETAG
1070
     1
1071
        0
1005
0
1001
ACAD
1010
0.0
1020
0.0
1030
0.0
  0
LINE
  5
12CFA2
  8
SLIM
 10
3914.9999999999941
 20
-777.43436533648503
 30
0.0
 11
3937.434365336479
 21
-754.99999999999955
 31
0.0
1001
ACAD
1010
0.0
1020
0.0
1030
0.0
1001
ACDBBLOCKREPETAG
1070
     1
1071
       14
1005
12CFA2
  0
LINE
  5
12CFA3
  8
SLIM
 10
3914.9999999999941
 20
-795.39487757862275
 30
0.0
 11
3955.394877578618
 21
-754.99999999999955
 31
0.0
1001
ACAD
1010
0.0
1020
0.0
1030
0.0
1001
ACDBBLOCKREPETAG
1070
     1
1071
       15
1005
12CFA3
  0
LINE
  5
12CFA4
  8
SLIM
 10
3914.9999999999941
 20
-813.35538982076082
 30
0.0
 11
3973.3553898207551
 21
-754.99999999999955
 31
0.0
1001
ACAD
1010
0.0
1020
0.0
1030
0.0
1001
ACDBBLOCKREPETAG
1070
     1
1071
       16
1005
12CFA4
  0
LINE
  5
12CFA5
  8
SLIM
 10
3914.999999999995
 20
-831.31590206289854
 30
0.0
 11
3991.3159020628941
 21
-754.99999999999955
 31
0.0
1001
ACAD
1010
0.0
1020
0.0
1030
0.0
1001
ACDBBLOCKREPETAG
1070
     1
1071
       17
1005
12CFA5
  0
LINE
  5
12CFA6
  8
SLIM
 10
3914.999999999995
 20
-849.2764143050365
 30
0.0
 11
4009.2764143050308
 21
-754.99999999999955
 31
0.0
1001
ACAD
1010
0.0
1020
0.0
1030
0.0
1001
ACDBBLOCKREPETAG
1070
     1
1071
       18
1005
12CFA6
  0
LINE
  5
12CFA7
  8
SLIM
 10
3914.999999999995
 20
-867.23692654717422
 30
0.0
 11
4027.2369265471689
 21
-754.99999999999955
 31
0.0
1001
ACAD
1010
0.0
1020
0.0
1030
0.0
1001
ACDBBLOCKREPETAG
1070
     1
1071
       19
1005
12CFA7
  0
LINE
  5
12CFA8
  8
SLIM
 10
3914.999999999995
 20
-885.1974387893124
 30
0.0
 11
4045.1974387893069
 21
-754.99999999999955
 31
0.0
1001
ACAD
1010
0.0
1020
0.0
1030
0.0
1001
ACDBBLOCKREPETAG
1070
     1
1071
       20
1005
12CFA8
  0
LINE
  5
12CFA9
  8
SLIM
 10
3914.9999999999968
 20
-903.15795103145035
 30
0.0
 11
4063.157951031445
 21
-754.99999999999955
 31
0.0
1001
ACAD
1010
0.0
1020
0.0
1030
0.0
1001
ACDBBLOCKREPETAG
1070
     1
1071
       21
1005
12CFA9
  0
LINE
  5
12CFAA
  8
SLIM
 10
3915.1454972543161
 20
-920.97296601926894
 30
0.0
 11
4081.1184632735849
 21
-754.99999999999955
 31
0.0
1001
ACAD
1010
0.0
1020
0.0
1030
0.0
1001
ACDBBLOCKREPETAG
1070
     1
1071
       22
1005
12CFAA
  0
LINE
  5
12CFAB
  8
SLIM
 10
3917.104627495245
 20
-936.97434802047894
 30
0.0
 11
4085.0000000000068
 21
-769.07897551571591
 31
0.0
1001
ACAD
1010
0.0
1020
0.0
1030
0.0
1001
ACDBBLOCKREPETAG
1070
     1
1071
       23
1005
12CFAB
  0
LINE
  5
12CFAC
  8
SLIM
 10
3919.0637577361722
 20
-952.97573002168929
 30
0.0
 11
4085.0000000000068
 21
-787.03948775785443
 31
0.0
1001
ACAD
1010
0.0
1020
0.0
1030
0.0
1001
ACDBBLOCKREPETAG
1070
     1
1071
       24
1005
12CFAC
  0
LINE
  5
12CFAD
  8
SLIM
 10
3920.0
 20
-969.99999999999966
 30
0.0
 11
4085.0000000000068
 21
-804.99999999999341
 31
0.0
1001
ACAD
1010
0.0
1020
0.0
1030
0.0
1001
ACDBBLOCKREPETAG
1070
     1
1071
       25
1005
12CFAD
  0
LINE
  5
12CFAE
  8
SLIM
 10
3920.0
 20
-987.96051224213795
 30
0.0
 11
4085.0000000000059
 21
-822.96051224213215
 31
0.0
1001
ACAD
1010
0.0
1020
0.0
1030
0.0
1001
ACDBBLOCKREPETAG
1070
     1
1071
       26
1005
12CFAE
  0
LINE
  5
12CFAF
  8
SLIM
 10
3920.0
 20
-1005.921024484276
 30
0.0
 11
4085.0000000000059
 21
-840.92102448427045
 31
0.0
1001
ACAD
1010
0.0
1020
0.0
1030
0.0
1001
ACDBBLOCKREPETAG
1070
     1
1071
       27
1005
12CFAF
  0
LINE
  5
12CFB0
  8
SLIM
 10
3920.0
 20
-1023.881536726414
 30
0.0
 11
4085.000000000005
 21
-858.88153672640954
 31
0.0
1001
ACAD
1010
0.0
1020
0.0
1030
0.0
1001
ACDBBLOCKREPETAG
1070
     1
1071
       28
1005
12CFB0
  0
LINE
  5
12CFB1
  8
SLIM
 10
3920.0
 20
-1041.842048968552
 30
0.0
 11
4085.0000000000041
 21
-876.84204896854817
 31
0.0
1001
ACAD
1010
0.0
1020
0.0
1030
0.0
1001
ACDBBLOCKREPETAG
1070
     1
1071
       29
1005
12CFB1
  0
LINE
  5
12CFB2
  8
SLIM
 10
3920.0
 20
-1059.802561210691
 30
0.0
 11
4085.0000000000041
 21
-894.80256121068692
 31
0.0
1001
ACAD
1010
0.0
1020
0.0
1030
0.0
1001
ACDBBLOCKREPETAG
1070
     1
1071
       30
1005
12CFB2
  0
LINE
  5
12CFB3
  8
SLIM
 10
3920.0
 20
-1077.7630734528291
 30
0.0
 11
4085.0000000000032
 21
-912.76307345282555
 31
0.0
1001
ACAD
1010
0.0
1020
0.0
1030
0.0
1001
ACDBBLOCKREPETAG
1070
     1
1071
       31
1005
12CFB3
  0
LINE
  5
12CFB4
  8
SLIM
 10
3930.0
 20
-1085.723585694966
 30
0.0
 11
3930.7235856949678
 21
-1084.9999999999991
 31
0.0
1001
ACAD
1010
0.0
1020
0.0
1030
0.0
1001
ACDBBLOCKREPETAG
1070
     1
1071
       32
1005
12CFB4
  0
LINE
  5
12CFB5
  8
SLIM
 10
3930.7235856949678
 20
-1084.9999999999991
 30
0.0
 11
4083.4738280308079
 21
-932.24975766415935
 31
0.0
1001
ACAD
1010
0.0
1020
0.0
1030
0.0
1001
ACDBBLOCKREPETAG
1070
     1
1071
       33
1005
12CFB5
  0
LINE
  5
12CFB6
  8
SLIM
 10
3930.0
 20
-1103.6840979371059
 30
0.0
 11
3948.6840979371068
 21
-1084.9999999999991
 31
0.0
1001
ACAD
1010
0.0
1020
0.0
1030
0.0
1001
ACDBBLOCKREPETAG
1070
     1
1071
       34
1005
12CFB6
  0
LINE
  5
12CFB7
  8
SLIM
 10
3948.6840979371068
 20
-1084.9999999999991
 30
0.0
 11
4080.9680345671368
 21
-952.71606336996854
 31
0.0
1001
ACAD
1010
0.0
1020
0.0
1030
0.0
1001
ACDBBLOCKREPETAG
1070
     1
1071
       35
1005
12CFB7
  0
LINE
  5
12CFB8
  8
SLIM
 10
3946.6446101792449
 20
-1104.9999999999991
 30
0.0
 11
3966.6446101792449
 21
-1084.9999999999991
 31
0.0
1001
ACAD
1010
0.0
1020
0.0
1030
0.0
1001
ACDBBLOCKREPETAG
1070
     1
1071
       36
1005
12CFB8
  0
LINE
  5
12CFB9
  8
SLIM
 10
3966.6446101792449
 20
-1084.9999999999991
 30
0.0
 11
4080.0
 21
-971.64461017924452
 31
0.0
1001
ACAD
1010
0.0
1020
0.0
1030
0.0
1001
ACDBBLOCKREPETAG
1070
     1
1071
       37
1005
12CFB9
  0
LINE
  5
12CFBA
  8
SLIM
 10
3964.6051224213829
 20
-1104.9999999999991
 30
0.0
 11
3984.6051224213829
 21
-1084.9999999999991
 31
0.0
1001
ACAD
1010
0.0
1020
0.0
1030
0.0
1001
ACDBBLOCKREPETAG
1070
     1
1071
       38
1005
12CFBA
  0
LINE
  5
12CFBB
  8
SLIM
 10
3984.6051224213829
 20
-1084.9999999999991
 30
0.0
 11
4080.0
 21
-989.60512242138304
 31
0.0
1001
ACAD
1010
0.0
1020
0.0
1030
0.0
1001
ACDBBLOCKREPETAG
1070
     1
1071
       39
1005
12CFBB
  0
LINE
  5
12CFBC
  8
SLIM
 10
3982.565634663521
 20
-1104.9999999999991
 30
0.0
 11
4002.565634663521
 21
-1084.9999999999991
 31
0.0
1001
ACAD
1010
0.0
1020
0.0
1030
0.0
1001
ACDBBLOCKREPETAG
1070
     1
1071
       40
1005
12CFBC
  0
LINE
  5
12CFBD
  8
SLIM
 10
4002.565634663521
 20
-1084.9999999999991
 30
0.0
 11
4079.9999999999991
 21
-1007.565634663521
 31
0.0
1001
ACAD
1010
0.0
1020
0.0
1030
0.0
1001
ACDBBLOCKREPETAG
1070
     1
1071
       41
1005
12CFBD
  0
LINE
  5
12CFBE
  8
SLIM
 10
4000.5261469056582
 20
-1104.9999999999991
 30
0.0
 11
4020.52614690566
 21
-1084.9999999999991
 31
0.0
1001
ACAD
1010
0.0
1020
0.0
1030
0.0
1001
ACDBBLOCKREPETAG
1070
     1
1071
       42
1005
12CFBE
  0
LINE
  5
12CFBF
  8
SLIM
 10
4020.52614690566
 20
-1084.9999999999991
 30
0.0
 11
4079.9999999999991
 21
-1025.52614690566
 31
0.0
1001
ACAD
1010
0.0
1020
0.0
1030
0.0
1001
ACDBBLOCKREPETAG
1070
     1
1071
       43
1005
12CFBF
  0
LINE
  5
12CFC0
  8
SLIM
 10
4018.486659147798
 20
-1104.9999999999991
 30
0.0
 11
4038.486659147798
 21
-1084.9999999999991
 31
0.0
1001
ACAD
1010
0.0
1020
0.0
1030
0.0
1001
ACDBBLOCKREPETAG
1070
     1
1071
       44
1005
12CFC0
  0
LINE
  5
12CFC1
  8
SLIM
 10
4038.486659147798
 20
-1084.9999999999991
 30
0.0
 11
4079.9999999999991
 21
-1043.4866591477989
 31
0.0
1001
ACAD
1010
0.0
1020
0.0
1030
0.0
1001
ACDBBLOCKREPETAG
1070
     1
1071
       45
1005
12CFC1
  0
LINE
  5
12CFC2
  8
SLIM
 10
4036.4471713899361
 20
-1104.9999999999991
 30
0.0
 11
4056.4471713899361
 21
-1084.9999999999991
 31
0.0
1001
ACAD
1010
0.0
1020
0.0
1030
0.0
1001
ACDBBLOCKREPETAG
1070
     1
1071
       46
1005
12CFC2
  0
LINE
  5
12CFC3
  8
SLIM
 10
4056.4471713899361
 20
-1084.9999999999991
 30
0.0
 11
4079.9999999999991
 21
-1061.447171389937
 31
0.0
1001
ACAD
1010
0.0
1020
0.0
1030
0.0
1001
ACDBBLOCKREPETAG
1070
     1
1071
       47
1005
12CFC3
  0
LINE
  5
12CFC4
  8
SLIM
 10
4054.4076836320728
 20
-1104.9999999999991
 30
0.0
 11
4070.0
 21
-1089.4076836320739
 31
0.0
1001
ACAD
1010
0.0
1020
0.0
1030
0.0
1001
ACDBBLOCKREPETAG
1070
     1
1071
       48
1005
12CFC4
  0
LINE
  5
12CFC5
  8
SLIM
 10
4074.4076836320728
 20
-1084.9999999999991
 30
0.0
 11
4079.9999999999991
 21
-1079.407683632076
 31
0.0
1001
ACAD
1010
0.0
1020
0.0
1030
0.0
1001
ACDBBLOCKREPETAG
1070
     1
1071
       49
1005
12CFC5
  0
LINE
  5
12CFC6
  8
OBJECT
 10
3914.9999999999941
 20
-754.99999999999955
 30
0.0
 11
3914.9999999999968
 21
-919.78460339903484
 31
0.0
1001
ACDBBLOCKREPETAG
1070
     1
1071
        1
1005
12CFC6
  0
LINE
  5
12CFC7
  8
OBJECT
 10
4085.0000000000068
 20
-754.99999999999955
 30
0.0
 11
4085.0000000000032
 21
-919.78460339904154
 31
0.0
1001
ACDBBLOCKREPETAG
1070
     1
1071
        2
1005
12CFC7
  0
LINE
  5
12CFC8
  8
OBJECT
 10
4085.0000000000068
 20
-754.99999999999955
 30
0.0
 11
3914.9999999999941
 21
-754.99999999999955
 31
0.0
1001
ACDBBLOCKREPETAG
1070
     1
1071
        3
1005
12CFC8
  0
LINE
  5
12CFC9
  8
OBJECT
 10
4079.9999999999991
 20
-1084.9999999999991
 30
0.0
 11
3920.0
 21
-1084.9999999999991
 31
0.0
1001
ACDBBLOCKREPETAG
1070
     1
1071
        4
1005
12CFC9
  0
LINE
  5
12CFCA
  8
OBJECT
 10
3914.9999999999968
 20
-919.78460339903484
 30
0.0
 11
3920.0
 21
-960.62257748298634
 31
0.0
1001
ACDBBLOCKREPETAG
1070
     1
1071
        6
1005
12CFCA
  0
LINE
  5
12CFCB
  8
OBJECT
 10
3920.0
 20
-960.62257748298634
 30
0.0
 11
3920.0
 21
-1084.9999999999991
 31
0.0
1001
ACDBBLOCKREPETAG
1070
     1
1071
        7
1005
12CFCB
  0
LINE
  5
12CFCC
  8
OBJECT
 10
4085.0000000000032
 20
-919.78460339904154
 30
0.0
 11
4080.0
 21
-960.62257748298634
 31
0.0
1001
ACDBBLOCKREPETAG
1070
     1
1071
        8
1005
12CFCC
  0
LINE
  5
12CFCD
  8
OBJECT
 10
4080.0
 20
-960.62257748298634
 30
0.0
 11
4079.9999999999991
 21
-1084.9999999999991
 31
0.0
1001
ACDBBLOCKREPETAG
1070
     1
1071
        9
1005
12CFCD
  0
LINE
  5
12CFCE
  8
OBJECT
 10
3930.0
 20
-1084.9999999999991
 30
0.0
 11
3930.0
 21
-1104.9999999999991
 31
0.0
1001
ACDBBLOCKREPETAG
1070
     1
1071
       10
1005
12CFCE
  0
LINE
  5
12CFCF
  8
OBJECT
 10
3930.0
 20
-1104.9999999999991
 30
0.0
 11
4070.0
 21
-1104.9999999999991
 31
0.0
1001
ACDBBLOCKREPETAG
1070
     1
1071
       11
1005
12CFCF
  0
LINE
  5
12CFD0
  8
OBJECT
 10
4070.0
 20
-1104.9999999999991
 30
0.0
 11
4070.0
 21
-1084.9999999999991
 31
0.0
1001
ACDBBLOCKREPETAG
1070
     1
1071
       12
1005
12CFD0
  0
LINE
  5
12CFD1
  8
OBJECT
 10
3923.0
 20
-570.99999999999955
 30
0.0
 11
3923.0
 21
-549.99999999999955
 31
0.0
1001
ACDBBLOCKREPETAG
1070
     1
1071
       38
1005
12CFD1
  0
LINE
  5
12CFD2
  8
OBJECT
 10
3923.0
 20
-549.99999999999955
 30
0.0
 11
4077.0
 21
-549.99999999999955
 31
0.0
1001
ACDBBLOCKREPETAG
1070
     1
1071
       39
1005
12CFD2
  0
LINE
  5
12CFD3
  8
HIDDEN
 10
3943.0
 20
-619.99999999999955
 30
0.0
 11
4057.0
 21
-619.99999999999955
 31
0.0
1001
ACDBBLOCKREPETAG
1070
     1
1071
       40
1005
12CFD3
  0
LINE
  5
12CFD4
  8
OBJECT
 10
4077.0
 20
-549.99999999999955
 30
0.0
 11
4077.0
 21
-570.99999999999955
 31
0.0
1001
ACDBBLOCKREPETAG
1070
     1
1071
       41
1005
12CFD4
  0
LINE
  5
12CFD5
  8
OBJECT
 10
4077.0
 20
-570.99999999999955
 30
0.0
 11
3923.0
 21
-570.99999999999955
 31
0.0
1001
ACDBBLOCKREPETAG
1070
     1
1071
       42
1005
12CFD5
  0
LINE
  5
12CFD6
  8
CENTER
 10
4000.0
 20
-534.99999999999955
 30
0.0
 11
4000.0
 21
-889.99999999999955
 31
0.0
1001
ACDBBLOCKREPETAG
1070
     1
1071
       43
1005
12CFD6
  0
LINE
  5
12CFD7
  8
OBJECT
 10
3928.0
 20
-570.99999999999955
 30
0.0
 11
3928.0
 21
-633.99999999999955
 31
0.0
1001
ACDBBLOCKREPETAG
1070
     1
1071
       44
1005
12CFD7
  0
LINE
  5
12CFD8
  8
OBJECT
 10
4072.0
 20
-633.99999999999955
 30
0.0
 11
4072.0
 21
-570.99999999999955
 31
0.0
1001
ACDBBLOCKREPETAG
1070
     1
1071
       45
1005
12CFD8
  0
LINE
  5
12CFD9
  8
OBJECT
 10
3920.0
 20
-877.99999999999955
 30
0.0
 11
4080.0
 21
-877.99999999999955
 31
0.0
1001
ACDBBLOCKREPETAG
1070
     1
1071
       46
1005
12CFD9
  0
LINE
  5
12CFDA
  8
OBJECT
 10
4080.0
 20
-633.99999999999955
 30
0.0
 11
3920.0
 21
-633.99999999999955
 31
0.0
1001
ACDBBLOCKREPETAG
1070
     1
1071
       47
1005
12CFDA
  0
LINE
  5
12CFDB
  8
OBJECT
 10
3920.0
 20
-877.99999999999955
 30
0.0
 11
3920.0
 21
-889.99999999999955
 31
0.0
1001
ACDBBLOCKREPETAG
1070
     1
1071
       48
1005
12CFDB
  0
LINE
  5
12CFDC
  8
OBJECT
 10
3920.0
 20
-889.99999999999955
 30
0.0
 11
4080.0
 21
-889.99999999999955
 31
0.0
1001
ACDBBLOCKREPETAG
1070
     1
1071
       49
1005
12CFDC
  0
LINE
  5
12CFDD
  8
OBJECT
 10
4080.0
 20
-889.99999999999955
 30
0.0
 11
4080.0
 21
-877.99999999999955
 31
0.0
1001
ACDBBLOCKREPETAG
1070
     1
1071
       50
1005
12CFDD
  0
LINE
  5
12CFDE
  8
OBJECT
 10
4074.9999999998631
 20
-757.99999999985016
 30
0.0
 11
4075.0
 21
-877.99999999999955
 31
0.0
1001
ACDBBLOCKREPETAG
1070
     1
1071
       54
1005
12CFDE
  0
LINE
  5
12CFDF
  8
OBJECT
 10
4074.9999908029849
 20
-757.99998602702112
 30
0.0
 11
4080.0
 21
-757.99998602702112
 31
0.0
1001
ACDBBLOCKREPETAG
1070
     1
1071
       55
1005
12CFDF
  0
LINE
  5
12CFE0
  8
OBJECT
 10
3925.0000000001392
 20
-757.99999999985016
 30
0.0
 11
3925.0
 21
-877.99999999999955
 31
0.0
1001
ACDBBLOCKREPETAG
1070
     1
1071
       56
1005
12CFE0
  0
LINE
  5
12CFE1
  8
OBJECT
 10
3925.0000091970151
 20
-757.99998602702112
 30
0.0
 11
3920.0
 21
-757.99998602702112
 31
0.0
1001
ACDBBLOCKREPETAG
1070
     1
1071
       57
1005
12CFE1
  0
ARC
  5
12CFE2
  8
OBJECT
 10
4200.6872746716726
 20
-749.40809941010718
 30
0.0
 40
170.6350503965856
 50
137.44134459184301
 51
149.91949581337221
1001
ACDBBLOCKREPETAG
1070
     1
1071
       58
1005
12CFE2
  0
ARC
  5
12CFE3
  8
OBJECT
 10
4200.6872746716726
 20
-642.59190058989179
 30
0.0
 40
170.6350503965856
 50
210.08050418662771
 51
222.55865540815699
1001
ACDBBLOCKREPETAG
1070
     1
1071
       59
1005
12CFE3
  0
ARC
  5
12CFE4
  8
OBJECT
 10
3799.3127253283278
 20
-749.40809941010718
 30
0.0
 40
170.6350503965856
 50
30.080504186774089
 51
42.558655408382641
1001
ACDBBLOCKREPETAG
1070
     1
1071
       60
1005
12CFE4
  0
ARC
  5
12CFE5
  8
OBJECT
 10
3799.3127253283278
 20
-642.59190058989179
 30
0.0
 40
170.6350503965856
 50
317.44134459161722
 51
329.91949581322592
1001
ACDBBLOCKREPETAG
1070
     1
1071
       61
1005
12CFE5
  0
POINT
  5
12CFE6
  8
DOTS
 10
4000.0
 20
-754.99999999999955
 30
0.0
1001
ACDBBLOCKREPETAG
1070
     1
1071
      185
1005
12CFE6
  0
LINE
  5
12CFE7
  8
OBJECT
 10
1923.0
 20
-570.99999999999955
 30
0.0
 11
1923.0
 21
-549.99999999999955
 31
0.0
1001
ACDBBLOCKREPETAG
1070
     1
1071
       38
1005
12CFE7
  0
LINE
  5
12CFE8
  8
OBJECT
 10
1923.0
 20
-549.99999999999955
 30
0.0
 11
2077.0
 21
-549.99999999999955
 31
0.0
1001
ACDBBLOCKREPETAG
1070
     1
1071
       39
1005
12CFE8
  0
LINE
  5
12CFE9
  8
HIDDEN
 10
1943.0
 20
-619.99999999999955
 30
0.0
 11
2057.0
 21
-619.99999999999955
 31
0.0
1001
ACDBBLOCKREPETAG
1070
     1
1071
       40
1005
12CFE9
  0
LINE
  5
12CFEA
  8
OBJECT
 10
2077.0
 20
-549.99999999999955
 30
0.0
 11
2077.0
 21
-570.99999999999955
 31
0.0
1001
ACDBBLOCKREPETAG
1070
     1
1071
       41
1005
12CFEA
  0
LINE
  5
12CFEB
  8
OBJECT
 10
2077.0
 20
-570.99999999999955
 30
0.0
 11
1923.0
 21
-570.99999999999955
 31
0.0
1001
ACDBBLOCKREPETAG
1070
     1
1071
       42
1005
12CFEB
  0
LINE
  5
12CFEC
  8
CENTER
 10
2000.0
 20
-534.99999999999955
 30
0.0
 11
2000.0
 21
-889.99999999999955
 31
0.0
1001
ACDBBLOCKREPETAG
1070
     1
1071
       43
1005
12CFEC
  0
LINE
  5
12CFED
  8
OBJECT
 10
1928.0
 20
-570.99999999999955
 30
0.0
 11
1928.0
 21
-633.99999999999955
 31
0.0
1001
ACDBBLOCKREPETAG
1070
     1
1071
       44
1005
12CFED
  0
LINE
  5
12CFEE
  8
OBJECT
 10
2072.0
 20
-633.99999999999955
 30
0.0
 11
2072.0
 21
-570.99999999999955
 31
0.0
1001
ACDBBLOCKREPETAG
1070
     1
1071
       45
1005
12CFEE
  0
LINE
  5
12CFEF
  8
OBJECT
 10
1920.0
 20
-877.99999999999955
 30
0.0
 11
2080.0
 21
-877.99999999999955
 31
0.0
1001
ACDBBLOCKREPETAG
1070
     1
1071
       46
1005
12CFEF
  0
LINE
  5
12CFF0
  8
OBJECT
 10
2080.0
 20
-633.99999999999955
 30
0.0
 11
1920.0
 21
-633.99999999999955
 31
0.0
1001
ACDBBLOCKREPETAG
1070
     1
1071
       47
1005
12CFF0
  0
LINE
  5
12CFF1
  8
OBJECT
 10
1920.0
 20
-877.99999999999955
 30
0.0
 11
1920.0
 21
-889.99999999999955
 31
0.0
1001
ACDBBLOCKREPETAG
1070
     1
1071
       48
1005
12CFF1
  0
LINE
  5
12CFF2
  8
OBJECT
 10
1920.0
 20
-889.99999999999955
 30
0.0
 11
2080.0
 21
-889.99999999999955
 31
0.0
1001
ACDBBLOCKREPETAG
1070
     1
1071
       49
1005
12CFF2
  0
LINE
  5
12CFF3
  8
OBJECT
 10
2080.0
 20
-889.99999999999955
 30
0.0
 11
2080.0
 21
-877.99999999999955
 31
0.0
1001
ACDBBLOCKREPETAG
1070
     1
1071
       50
1005
12CFF3
  0
LINE
  5
12CFF4
  8
OBJECT
 10
2074.9999999998622
 20
-757.99999999985016
 30
0.0
 11
2075.0
 21
-877.99999999999955
 31
0.0
1001
ACDBBLOCKREPETAG
1070
     1
1071
       54
1005
12CFF4
  0
LINE
  5
12CFF5
  8
OBJECT
 10
2074.9999908029849
 20
-757.99998602702112
 30
0.0
 11
2080.0
 21
-757.99998602702112
 31
0.0
1001
ACDBBLOCKREPETAG
1070
     1
1071
       55
1005
12CFF5
  0
LINE
  5
12CFF6
  8
OBJECT
 10
1925.000000000138
 20
-757.99999999985016
 30
0.0
 11
1925.0
 21
-877.99999999999955
 31
0.0
1001
ACDBBLOCKREPETAG
1070
     1
1071
       56
1005
12CFF6
  0
LINE
  5
12CFF7
  8
OBJECT
 10
1925.000009197013
 20
-757.99998602702112
 30
0.0
 11
1920.0
 21
-757.99998602702112
 31
0.0
1001
ACDBBLOCKREPETAG
1070
     1
1071
       57
1005
12CFF7
  0
ARC
  5
12CFF8
  8
OBJECT
 10
2200.6872746716731
 20
-749.40809941010718
 30
0.0
 40
170.6350503965856
 50
137.44134459184301
 51
149.91949581336559
1001
ACDBBLOCKREPETAG
1070
     1
1071
       58
1005
12CFF8
  0
ARC
  5
12CFF9
  8
OBJECT
 10
2200.6872746716731
 20
-642.59190058989179
 30
0.0
 40
170.6350503965856
 50
210.0805041866343
 51
222.55865540815699
1001
ACDBBLOCKREPETAG
1070
     1
1071
       59
1005
12CFF9
  0
ARC
  5
12CFFA
  8
OBJECT
 10
1799.312725328326
 20
-749.40809941010718
 30
0.0
 40
170.6350503965856
 50
30.080504186774089
 51
42.558655408382641
1001
ACDBBLOCKREPETAG
1070
     1
1071
       60
1005
12CFFA
  0
ARC
  5
12CFFB
  8
OBJECT
 10
1799.312725328326
 20
-642.59190058989179
 30
0.0
 40
170.6350503965856
 50
317.44134459161722
 51
329.91949581322592
1001
ACDBBLOCKREPETAG
1070
     1
1071
       61
1005
12CFFB
  0
POINT
  5
12CFFC
  8
DOTS
 10
2000.0
 20
-754.99999999999955
 30
0.0
1001
ACDBBLOCKREPETAG
1070
     1
1071
      185
1005
12CFFC
  0
LINE
  5
12CFFD
  8
OBJECT
 10
3930.0
 20
-1199.999999999997
 30
0.0
 11
4070.0
 21
-1199.999999999997
 31
0.0
1001
ACDBBLOCKREPETAG
1070
     1
1071
        0
1005
12CFFD
  0
LINE
  5
12CFFE
  8
OBJECT
 10
3930.0
 20
-1199.999999999997
 30
0.0
 11
3930.0
 21
-959.99999999999693
 31
0.0
1001
ACDBBLOCKREPETAG
1070
     1
1071
        1
1005
12CFFE
  0
LINE
  5
12CFFF
  8
OBJECT
 10
4070.0
 20
-1199.999999999997
 30
0.0
 11
4070.0
 21
-959.99999999999693
 31
0.0
1001
ACDBBLOCKREPETAG
1070
     1
1071
        2
1005
12CFFF
  0
LINE
  5
12D000
  8
OBJECT
 10
3930.0
 20
-959.99999999999693
 30
0.0
 11
4070.0
 21
-959.99999999999693
 31
0.0
1001
ACDBBLOCKREPETAG
1070
     1
1071
        3
1005
12D000
  0
LINE
  5
12D001
  8
HIDDEN
 10
3937.5
 20
-959.99999999999693
 30
0.0
 11
3937.5
 21
-1199.999999999997
 31
0.0
1001
ACDBBLOCKREPETAG
1070
     1
1071
        4
1005
12D001
  0
LINE
  5
12D002
  8
HIDDEN
 10
4062.5
 20
-959.99999999999693
 30
0.0
 11
4062.5
 21
-1199.999999999997
 31
0.0
1001
ACDBBLOCKREPETAG
1070
     1
1071
        5
1005
12D002
  0
LINE
  5
12D003
  8
CENTER
 10
4000.0
 20
-889.99999999999875
 30
0.0
 11
4000.0
 21
-1214.999999999997
 31
0.0
1001
ACDBBLOCKREPETAG
1070
     1
1071
        6
1005
12D003
  0
LINE
  5
12D004
  8
OBJECT
 10
3925.0
 20
-889.99999999999875
 30
0.0
 11
3925.0
 21
-919.99999999999693
 31
0.0
1001
ACDBBLOCKREPETAG
1070
     1
1071
        7
1005
12D004
  0
LINE
  5
12D005
  8
OBJECT
 10
4075.0000000000032
 20
-889.99999999999875
 30
0.0
 11
4075.0
 21
-919.99999999999693
 31
0.0
1001
ACDBBLOCKREPETAG
1070
     1
1071
        8
1005
12D005
  0
LINE
  5
12D006
  8
OBJECT
 10
3925.0
 20
-919.99999999999693
 30
0.0
 11
4075.0
 21
-919.99999999999693
 31
0.0
1001
ACDBBLOCKREPETAG
1070
     1
1071
        9
1005
12D006
  0
LINE
  5
12D007
  8
OBJECT
 10
3925.0
 20
-919.99999999999693
 30
0.0
 11
3930.0
 21
-959.99999999999693
 31
0.0
1001
ACDBBLOCKREPETAG
1070
     1
1071
       10
1005
12D007
  0
LINE
  5
12D008
  8
OBJECT
 10
4070.0
 20
-959.99999999999693
 30
0.0
 11
4075.0
 21
-919.99999999999693
 31
0.0
1001
ACDBBLOCKREPETAG
1070
     1
1071
       11
1005
12D008
  0
LINE
  5
12D009
  8
OBJECT
 10
1930.0
 20
-1199.999999999997
 30
0.0
 11
2070.0
 21
-1199.999999999997
 31
0.0
1001
ACDBBLOCKREPETAG
1070
     1
1071
        0
1005
12D009
  0
LINE
  5
12D00A
  8
OBJECT
 10
1930.0
 20
-1199.999999999997
 30
0.0
 11
1930.0
 21
-959.99999999999784
 31
0.0
1001
ACDBBLOCKREPETAG
1070
     1
1071
        1
1005
12D00A
  0
LINE
  5
12D00B
  8
OBJECT
 10
2070.0
 20
-1199.999999999997
 30
0.0
 11
2070.0
 21
-959.99999999999784
 31
0.0
1001
ACDBBLOCKREPETAG
1070
     1
1071
        2
1005
12D00B
  0
LINE
  5
12D00C
  8
OBJECT
 10
1930.0
 20
-959.99999999999784
 30
0.0
 11
2070.0
 21
-959.99999999999784
 31
0.0
1001
ACDBBLOCKREPETAG
1070
     1
1071
        3
1005
12D00C
  0
LINE
  5
12D00D
  8
HIDDEN
 10
1937.5
 20
-959.99999999999784
 30
0.0
 11
1937.5
 21
-1199.999999999997
 31
0.0
1001
ACDBBLOCKREPETAG
1070
     1
1071
        4
1005
12D00D
  0
LINE
  5
12D00E
  8
HIDDEN
 10
2062.5
 20
-959.99999999999784
 30
0.0
 11
2062.5
 21
-1199.999999999997
 31
0.0
1001
ACDBBLOCKREPETAG
1070
     1
1071
        5
1005
12D00E
  0
LINE
  5
12D00F
  8
CENTER
 10
2000.0
 20
-889.99999999999955
 30
0.0
 11
2000.0
 21
-1214.999999999998
 31
0.0
1001
ACDBBLOCKREPETAG
1070
     1
1071
        6
1005
12D00F
  0
LINE
  5
12D010
  8
OBJECT
 10
1925.0
 20
-889.99999999999955
 30
0.0
 11
1925.0
 21
-919.99999999999761
 31
0.0
1001
ACDBBLOCKREPETAG
1070
     1
1071
        7
1005
12D010
  0
LINE
  5
12D011
  8
OBJECT
 10
2075.0000000000041
 20
-889.99999999999955
 30
0.0
 11
2075.0
 21
-919.99999999999761
 31
0.0
1001
ACDBBLOCKREPETAG
1070
     1
1071
        8
1005
12D011
  0
LINE
  5
12D012
  8
OBJECT
 10
1925.0
 20
-919.99999999999761
 30
0.0
 11
2075.0
 21
-919.99999999999761
 31
0.0
1001
ACDBBLOCKREPETAG
1070
     1
1071
        9
1005
12D012
  0
LINE
  5
12D013
  8
OBJECT
 10
1925.0
 20
-919.99999999999761
 30
0.0
 11
1930.0
 21
-959.99999999999784
 31
0.0
1001
ACDBBLOCKREPETAG
1070
     1
1071
       10
1005
12D013
  0
LINE
  5
12D014
  8
OBJECT
 10
2070.0
 20
-959.99999999999784
 30
0.0
 11
2075.0
 21
-919.99999999999761
 31
0.0
1001
ACDBBLOCKREPETAG
1070
     1
1071
       11
1005
12D014
  0
TEXT
  5
12D015
  8
SLIM
 10
3741.6250000000009
 20
-1467.499999999997
 30
0.0
 40
35.0
  1
片受けスタイル（S）＋シンドカット
 41
0.75
  0
TEXT
  5
12D016
  8
SLIM
 10
1856.25
 20
-1467.499999999998
 30
0.0
 40
35.0
  1
片受けスタイル（S）
 41
0.75
  0
VIEWPORT
  5
F6BA7
 67
     1
  8
0
 10
145.33033752441401
 20
101.8328354358673
 30
0.0
 40
334.0025019414623
 41
222.19657968139651
 68
     1
 69
     1
1001
ACAD
1000
MVIEW
1002
{
1070
    16
1010
0.0
1020
0.0
1030
0.0
1010
0.0
1020
0.0
1030
1.0
1040
0.0
1040
222.19657968139651
1040
145.33033752441401
1040
101.8328354358673
1040
50.0
1040
0.0
1040
0.0
1070
     0
1070
     0
1070
     1
1070
     1
1070
     0
1070
     0
1070
     0
1070
     0
1040
0.0
1040
0.0
1040
0.0
1040
10.0
1040
10.0
1040
10.0
1040
10.0
1070
     0
1002
{
1002
}
1002
}
  0
VIEWPORT
  5
F6BA9
 67
     1
  8
OBJECT
 10
145.3303314447403
 20
101.8328338861465
 30
0.0
 40
232.5285303115844
 41
162.93253421783439
 68
     2
 69
     2
1001
ACAD
1000
MVIEW
1002
{
1070
    16
1010
0.0
1020
0.0
1030
0.0
1010
0.0
1020
0.0
1030
1.0
1040
0.0
1040
25942.55904403147
1040
2377.604457077377
1040
-7591.5176687056619
1040
50.0
1040
0.0
1040
0.0
1070
     0
1070
   600
1070
     1
1070
     1
1070
     0
1070
     0
1070
     0
1070
     0
1040
0.0
1040
0.0
1040
0.0
1040
1.0
1040
1.0
1040
0.0
1040
0.0
1070
     0
1002
{
1002
}
1002
}
  0
ENDSEC
  0
EOF
