  0
SECTION
  2
HEADER
  9
$ACADVER
  1
AC1009
  9
$INSBASE
 10
0.0
 20
0.0
 30
0.0
  9
$EXTMIN
 10
0.0
 20
-1622.3333333333319
 30
0.0
  9
$EXTMAX
 10
4602.0
 20
470.0
 30
0.0
  9
$LIMMIN
 10
0.0
 20
0.0
  9
$LIMMAX
 10
210.0
 20
297.0
  9
$ORTHOMODE
 70
     0
  9
$REGENMODE
 70
     1
  9
$FILLMODE
 70
     1
  9
$QTEXTMODE
 70
     0
  9
$MIRRTEXT
 70
     0
  9
$DRAGMODE
 70
     2
  9
$LTSCALE
 40
1.0
  9
$OSMODE
 70
    37
  9
$ATTMODE
 70
     1
  9
$TEXTSIZE
 40
4.0
  9
$TRACEWID
 40
0.05
  9
$TEXTSTYLE
  7
STANDARD
  9
$CLAYER
  8
OBJECT
  9
$CELTYPE
  6
BYLAYER
  9
$CECOLOR
 62
   256
  9
$DIMSCALE
 40
10.0
  9
$DIMASZ
 40
2.0
  9
$DIMEXO
 40
1.0
  9
$DIMDLI
 40
10.0
  9
$DIMRND
 40
0.0
  9
$DIMDLE
 40
0.0
  9
$DIMEXE
 40
1.0
  9
$DIMTP
 40
0.0
  9
$DIMTM
 40
0.0
  9
$DIMTXT
 40
3.2000000000000002
  9
$DIMCEN
 40
0.0
  9
$DIMTSZ
 40
0.0
  9
$DIMTOL
 70
     0
  9
$DIMLIM
 70
     0
  9
$DIMTIH
 70
     0
  9
$DIMTOH
 70
     0
  9
$DIMSE1
 70
     0
  9
$DIMSE2
 70
     0
  9
$DIMTAD
 70
     1
  9
$DIMZIN
 70
     8
  9
$DIMBLK
  1
OPEN30
  9
$DIMASO
 70
     1
  9
$DIMSHO
 70
     1
  9
$DIMPOST
  1

  9
$DIMAPOST
  1

  9
$DIMALT
 70
     0
  9
$DIMALTD
 70
     2
  9
$DIMALTF
 40
25.399999999999999
  9
$DIMLFAC
 40
1.0
  9
$DIMTOFL
 70
     1
  9
$DIMTVP
 40
0.0
  9
$DIMTIX
 70
     0
  9
$DIMSOXD
 70
     0
  9
$DIMSAH
 70
     0
  9
$DIMBLK1
  1

  9
$DIMBLK2
  1

  9
$DIMSTYLE
  2
S10
  9
$DIMCLRD
 70
   256
  9
$DIMCLRE
 70
   256
  9
$DIMCLRT
 70
   256
  9
$DIMTFAC
 40
1.0
  9
$DIMGAP
 40
0.9
  9
$LUNITS
 70
     2
  9
$LUPREC
 70
     2
  9
$SKETCHINC
 40
0.1
  9
$FILLETRAD
 40
0.0
  9
$AUNITS
 70
     0
  9
$AUPREC
 70
     2
  9
$MENU
  1
ACAD
  9
$ELEVATION
 40
0.0
  9
$PELEVATION
 40
0.0
  9
$THICKNESS
 40
0.0
  9
$LIMCHECK
 70
     0
  9
$BLIPMODE
 70
     0
  9
$CHAMFERA
 40
2.0
  9
$CHAMFERB
 40
2.0
  9
$SKPOLY
 70
     0
  9
$TDCREATE
 40
2453095.4929404748
  9
$TDUPDATE
 40
2457603.6806269102
  9
$TDINDWG
 40
18.344750833300001
  9
$TDUSRTIMER
 40
18.344750127299999
  9
$USRTIMER
 70
     1
  9
$ANGBASE
 50
0.0
  9
$ANGDIR
 70
     0
  9
$PDMODE
 70
    35
  9
$PDSIZE
 40
2.0
  9
$PLINEWID
 40
0.0
  9
$COORDS
 70
     1
  9
$SPLFRAME
 70
     0
  9
$SPLINETYPE
 70
     6
  9
$SPLINESEGS
 70
     8
  9
$ATTDIA
 70
     0
  9
$ATTREQ
 70
     1
  9
$HANDLING
 70
     1
  9
$HANDSEED
  5
122A49
  9
$SURFTAB1
 70
     6
  9
$SURFTAB2
 70
     6
  9
$SURFTYPE
 70
     6
  9
$SURFU
 70
     6
  9
$SURFV
 70
     6
  9
$UCSNAME
  2

  9
$UCSORG
 10
0.0
 20
0.0
 30
0.0
  9
$UCSXDIR
 10
1.0
 20
0.0
 30
0.0
  9
$UCSYDIR
 10
0.0
 20
1.0
 30
0.0
  9
$PUCSNAME
  2

  9
$PUCSORG
 10
0.0
 20
0.0
 30
0.0
  9
$PUCSXDIR
 10
1.0
 20
0.0
 30
0.0
  9
$PUCSYDIR
 10
0.0
 20
1.0
 30
0.0
  9
$USERI1
 70
     0
  9
$USERI2
 70
     0
  9
$USERI3
 70
     0
  9
$USERI4
 70
     0
  9
$USERI5
 70
     0
  9
$USERR1
 40
0.0
  9
$USERR2
 40
0.0
  9
$USERR3
 40
0.0
  9
$USERR4
 40
0.0
  9
$USERR5
 40
0.0
  9
$WORLDVIEW
 70
     1
  9
$SHADEDGE
 70
     3
  9
$SHADEDIF
 70
    70
  9
$TILEMODE
 70
     1
  9
$MAXACTVP
 70
    64
  9
$PLIMCHECK
 70
     0
  9
$PEXTMIN
 10
29.066066288948051
 20
20.366566777229309
 30
0.0
  9
$PEXTMAX
 10
261.5945966005325
 20
183.29910099506381
 30
0.0
  9
$PLIMMIN
 10
-3.17498779296875
 20
-3.1749999523162842
  9
$PLIMMAX
 10
293.83566284179687
 20
206.8406708240509
  9
$UNITMODE
 70
     0
  9
$VISRETAIN
 70
     1
  9
$PLINEGEN
 70
     0
  9
$PSLTSCALE
 70
     1
  0
ENDSEC
  0
SECTION
  2
TABLES
  0
TABLE
  2
VPORT
 70
     1
  0
VPORT
  2
*ACTIVE
 70
     0
 10
0.0
 20
0.0
 11
1.0
 21
1.0
 12
985.40262705627822
 22
35.620491617561591
 13
0.0
 23
0.0
 14
1.0
 24
1.0
 15
0.0
 25
0.0
 16
0.0
 26
0.0
 36
1.0
 17
0.0
 27
0.0
 37
0.0
 40
4780.7176892184398
 41
1.6494178525226391
 42
50.0
 43
0.0
 44
0.0
 50
0.0
 51
0.0
 71
     0
 72
   600
 73
     1
 74
     1
 75
     0
 76
     0
 77
     0
 78
     0
  0
ENDTAB
  0
TABLE
  2
LTYPE
 70
     4
  0
LTYPE
  2
CONTINUOUS
 70
     0
  3
Solid line
 72
    65
 73
     0
 40
0.0
  0
LTYPE
  2
PHANTOM2
 70
     0
  3
___ _ _ ___ _ _ ___ _ _ ___ _ _
 72
    65
 73
     6
 40
1.25
 49
0.625
 49
-0.125
 49
0.125
 49
-0.125
 49
0.125
 49
-0.125
  0
LTYPE
  2
ACAD_ISO08W100
 70
     0
  3
ISO long-dash short-dash ____ __ ____ __ ____ _
 72
    65
 73
     4
 40
36.0
 49
24.0
 49
-3.0
 49
6.0
 49
-3.0
  0
LTYPE
  2
ACAD_ISO02W100
 70
     0
  3
ISO dash __ __ __ __ __ __ __ __ __ __ __ __ __
 72
    65
 73
     2
 40
15.0
 49
12.0
 49
-3.0
  0
ENDTAB
  0
TABLE
  2
LAYER
 70
     8
  0
LAYER
  2
0
 70
     0
 62
     7
  6
CONTINUOUS
  0
LAYER
  2
OBJECT
 70
     0
 62
     4
  6
CONTINUOUS
  0
LAYER
  2
DEFPOINTS
 70
     0
 62
     7
  6
CONTINUOUS
  0
LAYER
  2
DIM
 70
     0
 62
     7
  6
CONTINUOUS
  0
LAYER
  2
HIDDEN
 70
     0
 62
     2
  6
ACAD_ISO02W100
  0
LAYER
  2
CENTER
 70
     0
 62
     2
  6
ACAD_ISO08W100
  0
LAYER
  2
DOTS
 70
     0
 62
     1
  6
CONTINUOUS
  0
LAYER
  2
SLIM
 70
     0
 62
     2
  6
CONTINUOUS
  0
ENDTAB
  0
TABLE
  2
STYLE
 70
     2
  0
STYLE
  2
STANDARD
 70
     0
 40
0.0
 41
0.75
 50
0.0
 71
     0
 42
4.0
  3
simplex.shx
  4
bigfont.shx
  0
ENDTAB
  0
TABLE
  2
VIEW
 70
     0
  0
ENDTAB
  0
TABLE
  2
UCS
 70
     0
  0
ENDTAB
  0
TABLE
  2
APPID
 70
    18
  0
APPID
  2
ACAD
 70
     0
  0
APPID
  2
ACADANNOTATIVE
 70
     0
  0
APPID
  2
ACAD_PSEXT
 70
     0
  0
APPID
  2
ACAD_EXEMPT_FROM_CAD_STANDARDS
 70
     0
  0
APPID
  2
ACAECLAYERSTANDARD
 70
     0
  0
APPID
  2
ACAUTHENVIRON
 70
     0
  0
APPID
  2
ACDBDYNAMICBLOCKTRUENAME
 70
     0
  0
APPID
  2
ACDBDYNAMICBLOCKGUID
 70
     0
  0
APPID
  2
ACDBBLOCKREPETAG
 70
     0
  0
APPID
  2
ACDBBLOCKREPBTAG
 70
     0
  0
APPID
  2
ACAD_NAV_VCDISPLAY
 70
     0
  0
APPID
  2
ACAD_DSTYLE_DIMRADIAL_EXTENSION
 70
     0
  0
APPID
  2
ACAD_DSTYLE_DIMJAG
 70
     0
  0
APPID
  2
ACAD_DSTYLE_DIMTALN
 70
     0
  0
APPID
  2
ACADANNOPO
 70
     0
  0
APPID
  2
GRADIENTCOLOR1ACI
 70
     0
  0
APPID
  2
GRADIENTCOLOR2ACI
 70
     0
  0
APPID
  2
ACAD_MLEADERVER
 70
     0
  0
ENDTAB
  0
TABLE
  2
DIMSTYLE
 70
     3
  0
DIMSTYLE
  2
STANDARD
 70
     0
  3

  4

  5

  6

  7

 40
1.0
 41
0.18
 42
0.0625
 43
0.38
 44
0.18
 45
0.0
 46
0.0
 47
0.0
 48
0.0
140
0.18
141
0.09
142
0.0
143
25.399999999999999
144
1.0
145
0.0
146
1.0
147
0.09
 71
     0
 72
     0
 73
     1
 74
     1
 75
     0
 76
     0
 77
     0
 78
     0
170
     0
171
     2
172
     0
173
     0
174
     0
175
     0
176
     0
177
     0
178
     0
  0
DIMSTYLE
  2
S10
 70
     0
  3

  4

  5

  6

  7

 40
10.0
 41
2.0
 42
1.0
 43
10.0
 44
1.0
 45
0.0
 46
0.0
 47
0.0
 48
0.0
140
3.2000000000000002
141
0.0
142
0.0
143
25.399999999999999
144
1.0
145
0.0
146
1.0
147
0.9
 71
     0
 72
     0
 73
     0
 74
     0
 75
     0
 76
     0
 77
     1
 78
     8
170
     0
171
     2
172
     1
173
     0
174
     0
175
     0
176
   256
177
   256
178
   256
  0
ENDTAB
  0
ENDSEC
  0
SECTION
  2
BLOCKS
  0
BLOCK
  8
0
  2
$MODEL_SPACE
 70
     0
 10
0.0
 20
0.0
 30
0.0
  3
$MODEL_SPACE
  1

  0
ENDBLK
  5
122995
  8
0
  0
BLOCK
 67
     1
  8
0
  2
$PAPER_SPACE
 70
     0
 10
0.0
 20
0.0
 30
0.0
  3
$PAPER_SPACE
  1

  0
ENDBLK
  5
122991
 67
     1
  8
0
  0
BLOCK
  8
0
  2
_OPEN30
 70
     0
 10
0.0
 20
0.0
 30
0.0
  3
_OPEN30
  1

  0
LINE
  5
202
  8
0
  6
BYBLOCK
 62
     0
 10
-1.0
 20
0.26794919
 30
0.0
 11
0.0
 21
0.0
 31
0.0
  0
LINE
  5
203
  8
0
  6
BYBLOCK
 62
     0
 10
0.0
 20
0.0
 30
0.0
 11
-1.0
 21
-0.26794919
 31
0.0
  0
LINE
  5
204
  8
0
  6
BYBLOCK
 62
     0
 10
0.0
 20
0.0
 30
0.0
 11
-1.0
 21
0.0
 31
0.0
  0
ENDBLK
  5
206
  8
0
  0
BLOCK
  8
0
  2
*U4
 70
     1
 10
0.0
 20
0.0
 30
0.0
  3
*U4
  1

  0
TEXT
  5
1228F7
  8
DIM
 10
3840.6616440113212
 20
-942.74285714285725
 30
0.0
 40
32.0
  1
m（シンドカット）
 50
90.0
 41
0.75
  0
ENDBLK
  5
1228F9
  8
0
  0
ENDSEC
  0
SECTION
  2
ENTITIES
  0
LINE
  5
1226B3
  8
SLIM
 10
4350.0
 20
-379.99999999999687
 30
0.0
 11
4350.0
 21
-1099.999999999997
 31
0.0
  0
LINE
  5
1226B4
  8
SLIM
 10
4454.0
 20
-1099.999999999997
 30
0.0
 11
4454.0
 21
-379.99999999999687
 31
0.0
  0
LINE
  5
1226B5
  8
SLIM
 10
4602.0
 20
-379.99999999999687
 30
0.0
 11
4350.0
 21
-379.99999999999687
 31
0.0
  0
LINE
  5
1226B6
  8
SLIM
 10
4602.0
 20
-427.99999999999687
 30
0.0
 11
4350.0
 21
-427.99999999999687
 31
0.0
  0
LINE
  5
1226B8
  8
SLIM
 10
4602.0
 20
-475.99999999999687
 30
0.0
 11
4350.0
 21
-475.99999999999687
 31
0.0
  0
LINE
  5
1226B9
  8
SLIM
 10
4602.0
 20
-523.99999999999693
 30
0.0
 11
4350.0
 21
-523.99999999999693
 31
0.0
  0
LINE
  5
1226BA
  8
SLIM
 10
4602.0
 20
-571.99999999999704
 30
0.0
 11
4350.0
 21
-571.99999999999704
 31
0.0
  0
LINE
  5
1226BE
  8
SLIM
 10
4602.0
 20
-619.99999999999704
 30
0.0
 11
4350.0
 21
-619.99999999999704
 31
0.0
  0
LINE
  5
1226C0
  8
SLIM
 10
4602.0
 20
-667.99999999999704
 30
0.0
 11
4350.0
 21
-667.99999999999704
 31
0.0
  0
LINE
  5
1226C2
  8
SLIM
 10
4602.0
 20
-715.99999999999693
 30
0.0
 11
4350.0
 21
-715.99999999999693
 31
0.0
  0
LINE
  5
1226C4
  8
SLIM
 10
4602.0
 20
-763.99999999999693
 30
0.0
 11
4350.0
 21
-763.99999999999693
 31
0.0
  0
LINE
  5
1226C6
  8
SLIM
 10
4602.0
 20
-811.99999999999693
 30
0.0
 11
4350.0
 21
-811.99999999999693
 31
0.0
  0
LINE
  5
1226C8
  8
SLIM
 10
4602.0
 20
-859.99999999999693
 30
0.0
 11
4350.0
 21
-859.99999999999693
 31
0.0
  0
LINE
  5
1226CA
  8
SLIM
 10
4602.0
 20
-907.99999999999682
 30
0.0
 11
4350.0
 21
-907.99999999999682
 31
0.0
  0
LINE
  5
1226CC
  8
SLIM
 10
4602.0
 20
-955.99999999999704
 30
0.0
 11
4350.0
 21
-955.99999999999704
 31
0.0
  0
LINE
  5
1226CE
  8
SLIM
 10
4602.0
 20
-1003.999999999997
 30
0.0
 11
4350.0
 21
-1003.999999999997
 31
0.0
  0
LINE
  5
1226D0
  8
SLIM
 10
4602.0
 20
-1051.999999999997
 30
0.0
 11
4350.0
 21
-1051.999999999997
 31
0.0
  0
LINE
  5
1226D2
  8
SLIM
 10
4602.0
 20
-1099.999999999997
 30
0.0
 11
4350.0
 21
-1099.999999999997
 31
0.0
  0
LINE
  5
1226D5
  8
SLIM
 10
4602.0
 20
-379.99999999999687
 30
0.0
 11
4602.0
 21
-1099.999999999997
 31
0.0
  0
TEXT
  5
122719
  8
SLIM
 10
3554.6000000000008
 20
-1435.6666666666649
 30
0.0
 40
28.0
  1
※ 対応スラブ厚　180～（m-10）
 41
0.75
  0
TEXT
  5
12271A
  8
SLIM
 10
3554.6000000000008
 20
-1482.3333333333319
 30
0.0
 40
28.0
  1
※ 足切り可能寸法（最大）　330-m（コンパクトＬベンド使用なら+20）
 41
0.75
  0
TEXT
  5
12271B
  8
SLIM
 10
3598.9000000000001
 20
-1575.6666666666649
 30
0.0
 40
28.0
  1
国土交通大臣認定・（一財）日本消防設備安全センター性能評定取得品
 41
0.75
  0
TEXT
  5
12271C
  8
SLIM
 10
3631.1000000000022
 20
-1622.3333333333319
 30
0.0
 40
28.0
  1
注）ご採用にあたり、認定書及び評定書の内容をご確認ください。
 41
0.75
  0
TEXT
  5
12271D
  8
SLIM
 10
4470.057142857142
 20
-1087.999999999997
 30
0.0
 40
24.0
  1
180～320
 41
0.75
  0
TEXT
  5
12271E
  8
SLIM
 10
4471.7714285714283
 20
-1039.999999999997
 30
0.0
 40
24.0
  1
180～310
 41
0.75
  0
TEXT
  5
12271F
  8
SLIM
 10
4470.057142857142
 20
-991.99999999999693
 30
0.0
 40
24.0
  1
180～300
 41
0.75
  0
TEXT
  5
122720
  8
SLIM
 10
4470.057142857142
 20
-943.99999999999693
 30
0.0
 40
24.0
  1
180～290
 41
0.75
  0
TEXT
  5
122721
  8
SLIM
 10
4470.057142857142
 20
-895.99999999999682
 30
0.0
 40
24.0
  1
180～280
 41
0.75
  0
TEXT
  5
122722
  8
SLIM
 10
4470.057142857142
 20
-847.99999999999704
 30
0.0
 40
24.0
  1
180～270
 41
0.75
  0
TEXT
  5
122723
  8
SLIM
 10
4470.057142857142
 20
-799.99999999999693
 30
0.0
 40
24.0
  1
180～260
 41
0.75
  0
TEXT
  5
122724
  8
SLIM
 10
4470.057142857142
 20
-751.99999999999693
 30
0.0
 40
24.0
  1
180～250
 41
0.75
  0
TEXT
  5
122725
  8
SLIM
 10
4470.057142857142
 20
-703.99999999999693
 30
0.0
 40
24.0
  1
180～240
 41
0.75
  0
TEXT
  5
122726
  8
SLIM
 10
4470.057142857142
 20
-655.99999999999704
 30
0.0
 40
24.0
  1
180～230
 41
0.75
  0
TEXT
  5
122727
  8
SLIM
 10
4470.057142857142
 20
-607.99999999999704
 30
0.0
 40
24.0
  1
180～220
 41
0.75
  0
TEXT
  5
122728
  8
SLIM
 10
4471.7714285714283
 20
-559.99999999999693
 30
0.0
 40
24.0
  1
180～210
 41
0.75
  0
TEXT
  5
122729
  8
SLIM
 10
4470.057142857142
 20
-511.99999999999687
 30
0.0
 40
24.0
  1
180～200
 41
0.75
  0
TEXT
  5
12272A
  8
SLIM
 10
4471.7714285714283
 20
-463.99999999999687
 30
0.0
 40
24.0
  1
180～190
 41
0.75
  0
TEXT
  5
12272B
  8
SLIM
 10
4465.6000000000013
 20
-415.99999999999687
 30
0.0
 40
24.0
  1
対応スラブ厚
 41
0.75
  0
TEXT
  5
12272C
  8
SLIM
 10
4396.4571428571408
 20
-1145.999999999997
 30
0.0
 40
24.0
  1
標準：m=330
 41
0.75
  0
TEXT
  5
12272D
  8
SLIM
 10
4378.8571428571431
 20
-1087.999999999997
 30
0.0
 40
24.0
  1
330
 41
0.75
  0
TEXT
  5
12272E
  8
SLIM
 10
4378.8571428571431
 20
-1039.999999999997
 30
0.0
 40
24.0
  1
320
 41
0.75
  0
TEXT
  5
12272F
  8
SLIM
 10
4380.5714285714284
 20
-991.99999999999693
 30
0.0
 40
24.0
  1
310
 41
0.75
  0
TEXT
  5
122730
  8
SLIM
 10
4378.8571428571431
 20
-943.99999999999693
 30
0.0
 40
24.0
  1
300
 41
0.75
  0
TEXT
  5
122731
  8
SLIM
 10
4378.8571428571431
 20
-895.99999999999682
 30
0.0
 40
24.0
  1
290
 41
0.75
  0
TEXT
  5
122732
  8
SLIM
 10
4378.8571428571431
 20
-847.99999999999704
 30
0.0
 40
24.0
  1
280
 41
0.75
  0
TEXT
  5
122733
  8
SLIM
 10
4378.8571428571431
 20
-799.99999999999693
 30
0.0
 40
24.0
  1
270
 41
0.75
  0
TEXT
  5
122734
  8
SLIM
 10
4378.8571428571431
 20
-751.99999999999693
 30
0.0
 40
24.0
  1
260
 41
0.75
  0
TEXT
  5
122735
  8
SLIM
 10
4378.8571428571431
 20
-703.99999999999693
 30
0.0
 40
24.0
  1
250
 41
0.75
  0
TEXT
  5
122736
  8
SLIM
 10
4378.8571428571431
 20
-655.99999999999704
 30
0.0
 40
24.0
  1
240
 41
0.75
  0
TEXT
  5
122737
  8
SLIM
 10
4378.8571428571431
 20
-607.99999999999704
 30
0.0
 40
24.0
  1
230
 41
0.75
  0
TEXT
  5
122738
  8
SLIM
 10
4378.8571428571431
 20
-559.99999999999693
 30
0.0
 40
24.0
  1
220
 41
0.75
  0
TEXT
  5
122739
  8
SLIM
 10
4380.5714285714284
 20
-511.99999999999687
 30
0.0
 40
24.0
  1
210
 41
0.75
  0
TEXT
  5
12273A
  8
SLIM
 10
4369.9428571428571
 20
-415.99999999999687
 30
0.0
 40
24.0
  1
m寸法
 41
0.75
  0
TEXT
  5
12273B
  8
SLIM
 10
4378.8571428571431
 20
-463.99999999999687
 30
0.0
 40
24.0
  1
200
 41
0.75
  0
LINE
  5
12273C
  8
DIM
 10
3904.9999999999941
 20
-655.00000000000114
 30
0.0
 11
3839.6616440113221
 21
-655.00000000000102
 31
0.0
  0
LINE
  5
12273D
  8
DIM
 10
3910.0
 20
-985.00000000000034
 30
0.0
 11
3839.6616440113221
 21
-985.00000000000034
 31
0.0
  0
LINE
  5
12273E
  8
DIM
 10
3849.6616440113221
 20
-675.00000000000114
 30
0.0
 11
3849.6616440113221
 21
-965.00000000000045
 31
0.0
  0
INSERT
  5
12273F
  8
DIM
  2
_OPEN30
 10
3849.6616440113221
 20
-655.00000000000114
 30
0.0
 41
20.0
 42
20.0
 43
20.0
 50
90.0
  0
INSERT
  5
122740
  8
DIM
  2
_OPEN30
 10
3849.6616440113221
 20
-985.00000000000034
 30
0.0
 41
20.0
 42
20.0
 43
20.0
 50
270.0
  0
INSERT
  5
122741
  8
OBJECT
  2
*U4
 10
0.0
 20
0.0
 30
0.0
  0
LINE
  5
122742
  8
SLIM
 10
3927.3018300565232
 20
-155.95484036957691
 30
0.0
 11
3955.9548403695781
 21
-127.30183005652231
 31
0.0
1001
GRADIENTCOLOR1ACI
1070
     5
1001
GRADIENTCOLOR2ACI
1070
     2
1001
ACAD
1010
0.0
1020
0.0
1030
0.0
1001
ACDBBLOCKREPETAG
1070
     1
1071
      436
1005
122742
  0
LINE
  5
122743
  8
SLIM
 10
3919.4861520708369
 20
-172.75077447633191
 30
0.0
 11
3938.2903089572728
 21
-153.94661758989659
 31
0.0
1001
GRADIENTCOLOR1ACI
1070
     5
1001
GRADIENTCOLOR2ACI
1070
     2
1001
ACAD
1010
0.0
1020
0.0
1030
0.0
1001
ACDBBLOCKREPETAG
1070
     1
1071
      437
1005
122743
  0
LINE
  5
122744
  8
SLIM
 10
3953.946617589897
 20
-138.29030895727169
 30
0.0
 11
3972.7507744763329
 21
-119.4861520708364
 31
0.0
1001
GRADIENTCOLOR1ACI
1070
     5
1001
GRADIENTCOLOR2ACI
1070
     2
1001
ACAD
1010
0.0
1020
0.0
1030
0.0
1001
ACDBBLOCKREPETAG
1070
     1
1071
      438
1005
122744
  0
LINE
  5
122745
  8
SLIM
 10
3916.359667993378
 20
-184.8575146748604
 30
0.0
 11
3927.6959583557841
 21
-173.5212243124561
 31
0.0
1001
GRADIENTCOLOR1ACI
1070
     5
1001
GRADIENTCOLOR2ACI
1070
     2
1001
ACAD
1010
0.0
1020
0.0
1030
0.0
1001
ACDBBLOCKREPETAG
1070
     1
1071
      439
1005
122745
  0
LINE
  5
122746
  8
SLIM
 10
3973.521224312457
 20
-127.6959583557812
 30
0.0
 11
3984.8575146748631
 21
-116.359667993377
 31
0.0
1001
GRADIENTCOLOR1ACI
1070
     5
1001
GRADIENTCOLOR2ACI
1070
     2
1001
ACAD
1010
0.0
1020
0.0
1030
0.0
1001
ACDBBLOCKREPETAG
1070
     1
1071
      440
1005
122746
  0
LINE
  5
122747
  8
SLIM
 10
3915.1440575890529
 20
-195.0533812002549
 30
0.0
 11
3924.303021643183
 21
-185.89441714612491
 31
0.0
1001
GRADIENTCOLOR1ACI
1070
     5
1001
GRADIENTCOLOR2ACI
1070
     2
1001
ACAD
1010
0.0
1020
0.0
1030
0.0
1001
ACDBBLOCKREPETAG
1070
     1
1071
      441
1005
122747
  0
LINE
  5
122748
  8
SLIM
 10
3985.8944171461271
 20
-124.30302164318159
 30
0.0
 11
3995.0533812002559
 21
-115.1440575890517
 31
0.0
1001
GRADIENTCOLOR1ACI
1070
     5
1001
GRADIENTCOLOR2ACI
1070
     2
1001
ACAD
1010
0.0
1020
0.0
1030
0.0
1001
ACDBBLOCKREPETAG
1070
     1
1071
      442
1005
122748
  0
LINE
  5
122749
  8
SLIM
 10
3915.097963557474
 20
-204.07973135290339
 30
0.0
 11
3919.1776949103769
 21
-199.99999999999909
 31
0.0
1001
GRADIENTCOLOR1ACI
1070
     5
1001
GRADIENTCOLOR2ACI
1070
     2
1001
ACAD
1010
0.0
1020
0.0
1030
0.0
1001
ACDBBLOCKREPETAG
1070
     1
1071
      443
1005
122749
  0
LINE
  5
12274A
  8
SLIM
 10
4000.0
 20
-119.1776949103767
 30
0.0
 11
4004.0797313529042
 21
-115.0979635574724
 31
0.0
1001
GRADIENTCOLOR1ACI
1070
     5
1001
GRADIENTCOLOR2ACI
1070
     2
1001
ACAD
1010
0.0
1020
0.0
1030
0.0
1001
ACDBBLOCKREPETAG
1070
     1
1071
      444
1005
12274A
  0
LINE
  5
12274B
  8
SLIM
 10
3919.1776949103769
 20
-199.99999999999909
 30
0.0
 11
3923.0999621611709
 21
-196.07773274920581
 31
0.0
1001
GRADIENTCOLOR1ACI
1070
     5
1001
GRADIENTCOLOR2ACI
1070
     2
1001
ACAD
1010
0.0
1020
0.0
1030
0.0
1001
ACDBBLOCKREPETAG
1070
     1
1071
      445
1005
12274B
  0
LINE
  5
12274C
  8
SLIM
 10
3996.0777327492078
 20
-123.0999621611699
 30
0.0
 11
4000.0
 21
-119.1776949103767
 31
0.0
1001
GRADIENTCOLOR1ACI
1070
     5
1001
GRADIENTCOLOR2ACI
1070
     2
1001
ACAD
1010
0.0
1020
0.0
1030
0.0
1001
ACDBBLOCKREPETAG
1070
     1
1071
      446
1005
12274C
  0
LINE
  5
12274D
  8
SLIM
 10
3915.8899726208729
 20
-212.26797841057399
 30
0.0
 11
3923.162230777169
 21
-204.9957202542767
 31
0.0
1001
GRADIENTCOLOR1ACI
1070
     5
1001
GRADIENTCOLOR2ACI
1070
     2
1001
ACAD
1010
0.0
1020
0.0
1030
0.0
1001
ACDBBLOCKREPETAG
1070
     1
1071
      447
1005
12274D
  0
LINE
  5
12274E
  8
SLIM
 10
4004.9957202542769
 20
-123.1622307771683
 30
0.0
 11
4012.2679784105749
 21
-115.88997262087101
 31
0.0
1001
GRADIENTCOLOR1ACI
1070
     5
1001
GRADIENTCOLOR2ACI
1070
     2
1001
ACAD
1010
0.0
1020
0.0
1030
0.0
1001
ACDBBLOCKREPETAG
1070
     1
1071
      448
1005
12274E
  0
LINE
  5
12274F
  8
SLIM
 10
3917.338265695154
 20
-219.79994145736151
 30
0.0
 11
3924.1101477855509
 21
-213.02805936696359
 31
0.0
1001
GRADIENTCOLOR1ACI
1070
     5
1001
GRADIENTCOLOR2ACI
1070
     2
1001
ACAD
1010
0.0
1020
0.0
1030
0.0
1001
ACDBBLOCKREPETAG
1070
     1
1071
      449
1005
12274F
  0
LINE
  5
122750
  8
SLIM
 10
4013.028059366964
 20
-124.1101477855505
 30
0.0
 11
4019.799941457361
 21
-117.3382656951526
 31
0.0
1001
GRADIENTCOLOR1ACI
1070
     5
1001
GRADIENTCOLOR2ACI
1070
     2
1001
ACAD
1010
0.0
1020
0.0
1030
0.0
1001
ACDBBLOCKREPETAG
1070
     1
1071
      450
1005
122750
  0
LINE
  5
122751
  8
SLIM
 10
3919.331259406305
 20
-226.78720386727881
 30
0.0
 11
3925.7443819593391
 21
-220.3740813142449
 31
0.0
1001
GRADIENTCOLOR1ACI
1070
     5
1001
GRADIENTCOLOR2ACI
1070
     2
1001
ACAD
1010
0.0
1020
0.0
1030
0.0
1001
ACDBBLOCKREPETAG
1070
     1
1071
      451
1005
122751
  0
LINE
  5
122752
  8
SLIM
 10
4020.3740813142458
 20
-125.7443819593384
 30
0.0
 11
4026.7872038672799
 21
-119.3312594063044
 31
0.0
1001
GRADIENTCOLOR1ACI
1070
     5
1001
GRADIENTCOLOR2ACI
1070
     2
1001
ACAD
1010
0.0
1020
0.0
1030
0.0
1001
ACDBBLOCKREPETAG
1070
     1
1071
      452
1005
122752
  0
LINE
  5
122753
  8
SLIM
 10
3921.795716318622
 20
-233.30300307603289
 30
0.0
 11
3927.9462473957792
 21
-227.1524719988744
 31
0.0
1001
GRADIENTCOLOR1ACI
1070
     5
1001
GRADIENTCOLOR2ACI
1070
     2
1001
ACAD
1010
0.0
1020
0.0
1030
0.0
1001
ACDBBLOCKREPETAG
1070
     1
1071
      453
1005
122753
  0
LINE
  5
122754
  8
SLIM
 10
4027.1524719988752
 20
-127.946247395778
 30
0.0
 11
4033.3030030760328
 21
-121.7957163186195
 31
0.0
1001
GRADIENTCOLOR1ACI
1070
     5
1001
GRADIENTCOLOR2ACI
1070
     2
1001
ACAD
1010
0.0
1020
0.0
1030
0.0
1001
ACDBBLOCKREPETAG
1070
     1
1071
      454
1005
122754
  0
LINE
  5
122755
  8
SLIM
 10
3924.6816635313448
 20
-239.39731198437769
 30
0.0
 11
3930.6398768643921
 21
-233.4390986513296
 31
0.0
1001
GRADIENTCOLOR1ACI
1070
     5
1001
GRADIENTCOLOR2ACI
1070
     2
1001
ACAD
1010
0.0
1020
0.0
1030
0.0
1001
ACDBBLOCKREPETAG
1070
     1
1071
      455
1005
122755
  0
LINE
  5
122756
  8
SLIM
 10
4033.4390986513308
 20
-130.63987686439199
 30
0.0
 11
4039.3973119843781
 21
-124.6816635313439
 31
0.0
1001
GRADIENTCOLOR1ACI
1070
     5
1001
GRADIENTCOLOR2ACI
1070
     2
1001
ACAD
1010
0.0
1020
0.0
1030
0.0
1001
ACDBBLOCKREPETAG
1070
     1
1071
      456
1005
122756
  0
LINE
  5
122757
  8
SLIM
 10
3927.9544611024248
 20
-245.10477053436691
 30
0.0
 11
3933.775007014995
 21
-239.28422462179759
 31
0.0
1001
GRADIENTCOLOR1ACI
1070
     5
1001
GRADIENTCOLOR2ACI
1070
     2
1001
ACAD
1010
0.0
1020
0.0
1030
0.0
1001
ACDBBLOCKREPETAG
1070
     1
1071
      457
1005
122757
  0
LINE
  5
122758
  8
SLIM
 10
4039.284224621797
 20
-133.77500701499321
 30
0.0
 11
4045.1047705343681
 21
-127.95446110242381
 31
0.0
1001
GRADIENTCOLOR1ACI
1070
     5
1001
GRADIENTCOLOR2ACI
1070
     2
1001
ACAD
1010
0.0
1020
0.0
1030
0.0
1001
ACDBBLOCKREPETAG
1070
     1
1071
      458
1005
122758
  0
LINE
  5
122759
  8
SLIM
 10
3931.5903319686659
 20
-250.4491557891954
 30
0.0
 11
3937.3182075880568
 21
-244.72128016980341
 31
0.0
1001
GRADIENTCOLOR1ACI
1070
     5
1001
GRADIENTCOLOR2ACI
1070
     2
1001
ACAD
1010
0.0
1020
0.0
1030
0.0
1001
ACDBBLOCKREPETAG
1070
     1
1071
      459
1005
122759
  0
LINE
  5
12275A
  8
SLIM
 10
4044.7212801698038
 20
-137.31820758805651
 30
0.0
 11
4050.4491557891961
 21
-131.59033196866449
 31
0.0
1001
GRADIENTCOLOR1ACI
1070
     5
1001
GRADIENTCOLOR2ACI
1070
     2
1001
ACAD
1010
0.0
1020
0.0
1030
0.0
1001
ACDBBLOCKREPETAG
1070
     1
1071
      460
1005
12275A
  0
LINE
  5
12275B
  8
SLIM
 10
3935.5737496925258
 20
-255.4459941864034
 30
0.0
 11
3941.24811054159
 21
-249.77163333734029
 31
0.0
1001
GRADIENTCOLOR1ACI
1070
     5
1001
GRADIENTCOLOR2ACI
1070
     2
1001
ACAD
1010
0.0
1020
0.0
1030
0.0
1001
ACDBBLOCKREPETAG
1070
     1
1071
      461
1005
12275B
  0
LINE
  5
12275C
  8
SLIM
 10
4053.0197438789291
 20
-137.99999999999909
 30
0.0
 11
4055.4459941864038
 21
-135.57374969252561
 31
0.0
1001
GRADIENTCOLOR1ACI
1070
     5
1001
GRADIENTCOLOR2ACI
1070
     2
1001
ACAD
1010
0.0
1020
0.0
1030
0.0
1001
ACDBBLOCKREPETAG
1070
     1
1071
      462
1005
12275C
  0
LINE
  5
12275D
  8
SLIM
 10
3939.8959235991442
 20
-260.10407640085572
 30
0.0
 11
3945.5527778486362
 21
-254.44722215136329
 31
0.0
1001
GRADIENTCOLOR1ACI
1070
     5
1001
GRADIENTCOLOR2ACI
1070
     2
1001
ACAD
1010
0.0
1020
0.0
1030
0.0
1001
ACDBBLOCKREPETAG
1070
     1
1071
      463
1005
12275D
  0
LINE
  5
12275E
  8
SLIM
 10
3944.5540058135962
 20
-264.4262503074724
 30
0.0
 11
3950.2283666626599
 21
-258.75188945840949
 31
0.0
1001
GRADIENTCOLOR1ACI
1070
     5
1001
GRADIENTCOLOR2ACI
1070
     2
1001
ACAD
1010
0.0
1020
0.0
1030
0.0
1001
ACDBBLOCKREPETAG
1070
     1
1071
      464
1005
12275E
  0
LINE
  5
12275F
  8
SLIM
 10
3949.5508442108039
 20
-268.40966803133369
 30
0.0
 11
3955.2787198301962
 21
-262.68179241194167
 31
0.0
1001
GRADIENTCOLOR1ACI
1070
     5
1001
GRADIENTCOLOR2ACI
1070
     2
1001
ACAD
1010
0.0
1020
0.0
1030
0.0
1001
ACDBBLOCKREPETAG
1070
     1
1071
      465
1005
12275F
  0
LINE
  5
122760
  8
SLIM
 10
3954.8952294656328
 20
-272.04553889757437
 30
0.0
 11
3960.7157753782012
 21
-266.22499298500497
 31
0.0
1001
GRADIENTCOLOR1ACI
1070
     5
1001
GRADIENTCOLOR2ACI
1070
     2
1001
ACAD
1010
0.0
1020
0.0
1030
0.0
1001
ACDBBLOCKREPETAG
1070
     1
1071
      466
1005
122760
  0
LINE
  5
122761
  8
SLIM
 10
3960.602688015621
 20
-275.31833646865431
 30
0.0
 11
3966.560901348671
 21
-269.36012313560622
 31
0.0
1001
GRADIENTCOLOR1ACI
1070
     5
1001
GRADIENTCOLOR2ACI
1070
     2
1001
ACAD
1010
0.0
1020
0.0
1030
0.0
1001
ACDBBLOCKREPETAG
1070
     1
1071
      467
1005
122761
  0
LINE
  5
122762
  8
SLIM
 10
3966.6969969239681
 20
-278.20428368137868
 30
0.0
 11
3972.8475280011248
 21
-272.05375260422022
 31
0.0
1001
GRADIENTCOLOR1ACI
1070
     5
1001
GRADIENTCOLOR2ACI
1070
     2
1001
ACAD
1010
0.0
1020
0.0
1030
0.0
1001
ACDBBLOCKREPETAG
1070
     1
1071
      468
1005
122762
  0
LINE
  5
122763
  8
SLIM
 10
3973.2127961327192
 20
-280.66874059369371
 30
0.0
 11
3979.6259186857542
 21
-274.25561804065973
 31
0.0
1001
GRADIENTCOLOR1ACI
1070
     5
1001
GRADIENTCOLOR2ACI
1070
     2
1001
ACAD
1010
0.0
1020
0.0
1030
0.0
1001
ACDBBLOCKREPETAG
1070
     1
1071
      469
1005
122763
  0
LINE
  5
122764
  8
SLIM
 10
3980.200058542639
 20
-282.6617343048456
 30
0.0
 11
3986.971940633035
 21
-275.88985221444773
 31
0.0
1001
GRADIENTCOLOR1ACI
1070
     5
1001
GRADIENTCOLOR2ACI
1070
     2
1001
ACAD
1010
0.0
1020
0.0
1030
0.0
1001
ACDBBLOCKREPETAG
1070
     1
1071
      470
1005
122764
  0
LINE
  5
122765
  8
SLIM
 10
3987.7320215894251
 20
-284.11002737912702
 30
0.0
 11
3995.0042797457209
 21
-276.83776922282988
 31
0.0
1001
GRADIENTCOLOR1ACI
1070
     5
1001
GRADIENTCOLOR2ACI
1070
     2
1001
ACAD
1010
0.0
1020
0.0
1030
0.0
1001
ACDBBLOCKREPETAG
1070
     1
1071
      471
1005
122765
  0
LINE
  5
122766
  8
SLIM
 10
3995.9202686470958
 20
-284.9020364425258
 30
0.0
 11
4000.0
 21
-280.82230508962152
 31
0.0
1001
GRADIENTCOLOR1ACI
1070
     5
1001
GRADIENTCOLOR2ACI
1070
     2
1001
ACAD
1010
0.0
1020
0.0
1030
0.0
1001
ACDBBLOCKREPETAG
1070
     1
1071
      472
1005
122766
  0
LINE
  5
122767
  8
SLIM
 10
4000.0
 20
-280.82230508962152
 30
0.0
 11
4003.9222672507922
 21
-276.90003783882821
 31
0.0
1001
GRADIENTCOLOR1ACI
1070
     5
1001
GRADIENTCOLOR2ACI
1070
     2
1001
ACAD
1010
0.0
1020
0.0
1030
0.0
1001
ACDBBLOCKREPETAG
1070
     1
1071
      473
1005
122767
  0
LINE
  5
122768
  8
SLIM
 10
4004.9466187997441
 20
-284.85594241094651
 30
0.0
 11
4014.1055828538729
 21
-275.6969783568166
 31
0.0
1001
GRADIENTCOLOR1ACI
1070
     5
1001
GRADIENTCOLOR2ACI
1070
     2
1001
ACAD
1010
0.0
1020
0.0
1030
0.0
1001
ACDBBLOCKREPETAG
1070
     1
1071
      474
1005
122768
  0
LINE
  5
122769
  8
SLIM
 10
4015.1424853251392
 20
-283.64033200662118
 30
0.0
 11
4026.4787756875421
 21
-272.30404164421702
 31
0.0
1001
GRADIENTCOLOR1ACI
1070
     5
1001
GRADIENTCOLOR2ACI
1070
     2
1001
ACAD
1010
0.0
1020
0.0
1030
0.0
1001
ACDBBLOCKREPETAG
1070
     1
1071
      475
1005
122769
  0
LINE
  5
12276A
  8
SLIM
 10
4027.2492255236671
 20
-280.51384792916173
 30
0.0
 11
4045.7630734528302
 21
-261.99999999999909
 31
0.0
1001
GRADIENTCOLOR1ACI
1070
     5
1001
GRADIENTCOLOR2ACI
1070
     2
1001
ACAD
1010
0.0
1020
0.0
1030
0.0
1001
ACDBBLOCKREPETAG
1070
     1
1071
      476
1005
12276A
  0
LINE
  5
12276B
  8
SLIM
 10
4044.0451596304219
 20
-272.69816994347582
 30
0.0
 11
4054.7433295738979
 21
-261.99999999999909
 31
0.0
1001
GRADIENTCOLOR1ACI
1070
     5
1001
GRADIENTCOLOR2ACI
1070
     2
1001
ACAD
1010
0.0
1020
0.0
1030
0.0
1001
ACDBBLOCKREPETAG
1070
     1
1071
      477
1005
12276B
  0
LINE
  5
12276C
  8
CENTER
 10
4080.0
 20
-199.99999999999909
 30
0.0
 11
3900.0
 21
-199.99999999999909
 31
0.0
1001
ACDBBLOCKREPETAG
1070
     1
1071
      187
1005
12276C
  0
LINE
  5
12276D
  8
CENTER
 10
4000.0
 20
-299.99999999999898
 30
0.0
 11
4000.0
 21
-99.999999999999091
 31
0.0
1001
ACDBBLOCKREPETAG
1070
     1
1071
      188
1005
12276D
  0
CIRCLE
  5
12276E
  8
OBJECT
 10
4000.0
 20
-199.99999999999909
 30
0.0
 40
70.0
1001
ACDBBLOCKREPETAG
1070
     1
1071
      189
1005
12276E
  0
CIRCLE
  5
12276F
  8
OBJECT
 10
4000.0
 20
-199.99999999999909
 30
0.0
 40
77.0
1001
ACDBBLOCKREPETAG
1070
     1
1071
      190
1005
12276F
  0
LINE
  5
122770
  8
OBJECT
 10
4045.661800227324
 20
-137.99999999999909
 30
0.0
 11
4080.0
 21
-137.99999999999909
 31
0.0
1001
ACDBBLOCKREPETAG
1070
     1
1071
      192
1005
122770
  0
LINE
  5
122771
  8
OBJECT
 10
4045.661800227324
 20
-261.99999999999909
 30
0.0
 11
4080.0
 21
-261.99999999999909
 31
0.0
1001
ACDBBLOCKREPETAG
1070
     1
1071
      193
1005
122771
  0
POINT
  5
122772
  8
DOTS
 10
4000.0
 20
-199.99999999999909
 30
0.0
1001
ACDBBLOCKREPETAG
1070
     1
1071
      194
1005
122772
  0
ARC
  5
122773
  8
OBJECT
 10
4000.0
 20
-199.99999999999909
 30
0.0
 40
85.0
 50
46.837102859834147
 51
313.16289714016602
1001
ACDBBLOCKREPETAG
1070
     1
1071
      202
1005
122773
  0
CIRCLE
  5
122774
  8
OBJECT
 10
4000.0
 20
-199.99999999999909
 30
0.0
 40
53.5
1001
ACDBBLOCKREPETAG
1070
     1
1071
      356
1005
122774
  0
LINE
  5
122775
  8
OBJECT
 10
3923.0
 20
-470.99999999999937
 30
0.0
 11
3923.0
 21
-449.99999999999937
 31
0.0
1001
ACDBBLOCKREPETAG
1070
     1
1071
        0
1005
122775
  0
LINE
  5
122776
  8
OBJECT
 10
3923.0
 20
-449.99999999999937
 30
0.0
 11
4077.0
 21
-449.99999999999937
 31
0.0
1001
ACDBBLOCKREPETAG
1070
     1
1071
        1
1005
122776
  0
LINE
  5
122777
  8
HIDDEN
 10
3943.0
 20
-519.99999999999955
 30
0.0
 11
4057.0
 21
-519.99999999999955
 31
0.0
1001
ACDBBLOCKREPETAG
1070
     1
1071
        2
1005
122777
  0
LINE
  5
122778
  8
OBJECT
 10
4077.0
 20
-449.99999999999937
 30
0.0
 11
4077.0
 21
-470.99999999999937
 31
0.0
1001
ACDBBLOCKREPETAG
1070
     1
1071
        3
1005
122778
  0
LINE
  5
122779
  8
OBJECT
 10
4077.0
 20
-470.99999999999937
 30
0.0
 11
3923.0
 21
-470.99999999999937
 31
0.0
1001
ACDBBLOCKREPETAG
1070
     1
1071
        4
1005
122779
  0
LINE
  5
12277A
  8
CENTER
 10
4000.0
 20
-434.99999999999949
 30
0.0
 11
4000.0
 21
-789.99999999999955
 31
0.0
1001
ACDBBLOCKREPETAG
1070
     1
1071
        5
1005
12277A
  0
LINE
  5
12277B
  8
OBJECT
 10
3925.0
 20
-533.99999999999955
 30
0.0
 11
3925.0
 21
-777.99999999999955
 31
0.0
1001
ACDBBLOCKREPETAG
1070
     1
1071
        6
1005
12277B
  0
LINE
  5
12277C
  8
OBJECT
 10
3928.0
 20
-470.99999999999937
 30
0.0
 11
3928.0
 21
-533.99999999999955
 31
0.0
1001
ACDBBLOCKREPETAG
1070
     1
1071
        7
1005
12277C
  0
LINE
  5
12277D
  8
OBJECT
 10
4072.0
 20
-533.99999999999955
 30
0.0
 11
4072.0
 21
-470.99999999999937
 31
0.0
1001
ACDBBLOCKREPETAG
1070
     1
1071
        8
1005
12277D
  0
LINE
  5
12277E
  8
OBJECT
 10
3920.0
 20
-777.99999999999955
 30
0.0
 11
4080.0
 21
-777.99999999999955
 31
0.0
1001
ACDBBLOCKREPETAG
1070
     1
1071
        9
1005
12277E
  0
LINE
  5
12277F
  8
OBJECT
 10
4080.0
 20
-533.99999999999955
 30
0.0
 11
3925.0
 21
-533.99999999999955
 31
0.0
1001
ACDBBLOCKREPETAG
1070
     1
1071
       10
1005
12277F
  0
LINE
  5
122780
  8
OBJECT
 10
3920.0
 20
-777.99999999999955
 30
0.0
 11
3920.0
 21
-789.99999999999955
 31
0.0
1001
ACDBBLOCKREPETAG
1070
     1
1071
       11
1005
122780
  0
LINE
  5
122781
  8
OBJECT
 10
3920.0
 20
-789.99999999999955
 30
0.0
 11
4080.0
 21
-789.99999999999955
 31
0.0
1001
ACDBBLOCKREPETAG
1070
     1
1071
       12
1005
122781
  0
LINE
  5
122782
  8
OBJECT
 10
4080.0
 20
-789.99999999999955
 30
0.0
 11
4080.0
 21
-777.99999999999955
 31
0.0
1001
ACDBBLOCKREPETAG
1070
     1
1071
       13
1005
122782
  0
LINE
  5
122783
  8
OBJECT
 10
4074.9999999998631
 20
-657.99999999985039
 30
0.0
 11
4075.0
 21
-777.99999999999955
 31
0.0
1001
ACDBBLOCKREPETAG
1070
     1
1071
       15
1005
122783
  0
LINE
  5
122784
  8
OBJECT
 10
4074.9999908029849
 20
-657.99998602702135
 30
0.0
 11
4080.0
 21
-657.99998602702135
 31
0.0
1001
ACDBBLOCKREPETAG
1070
     1
1071
       16
1005
122784
  0
ARC
  5
122785
  8
OBJECT
 10
4200.6872746716726
 20
-649.40809941010718
 30
0.0
 40
170.6350503965856
 50
137.44134459184301
 51
149.91949581337221
1001
ACDBBLOCKREPETAG
1070
     1
1071
       17
1005
122785
  0
ARC
  5
122786
  8
OBJECT
 10
4118.8455987040506
 20
-605.88272669536445
 30
0.0
 40
78.072222021763665
 50
147.4551531038623
 51
164.6636599771798
1001
ACDBBLOCKREPETAG
1070
     1
1071
       18
1005
122786
  0
ARC
  5
122787
  8
OBJECT
 10
4085.7554349608722
 20
-595.99999999999955
 30
0.0
 40
43.55353926885617
 50
165.6884523007466
 51
194.3115476992534
1001
ACDBBLOCKREPETAG
1070
     1
1071
       19
1005
122787
  0
ARC
  5
122788
  8
OBJECT
 10
4200.6872746716726
 20
-542.59190058989179
 30
0.0
 40
170.6350503965856
 50
210.08050418662771
 51
222.55865540815699
1001
ACDBBLOCKREPETAG
1070
     1
1071
       20
1005
122788
  0
ARC
  5
122789
  8
OBJECT
 10
4118.8455987040506
 20
-586.11727330463452
 30
0.0
 40
78.072222021763665
 50
195.3363400228202
 51
212.5448468961377
1001
ACDBBLOCKREPETAG
1070
     1
1071
       21
1005
122789
  0
POINT
  5
12278A
  8
DOTS
 10
4000.0
 20
-654.99999999999966
 30
0.0
1001
ACDBBLOCKREPETAG
1070
     1
1071
      187
1005
12278A
  0
LINE
  5
12278B
  8
OBJECT
 10
4114.0
 20
-488.0
 30
0.0
 11
4114.0
 21
-486.0
 31
0.0
1001
ACDBBLOCKREPETAG
1070
     1
1071
      157
1005
12278B
  0
ARC
  5
12278C
  8
OBJECT
 10
4155.1865574982548
 20
-506.0
 30
0.0
 40
59.0
 50
229.20276883323919
 51
270.0
1001
ACDBBLOCKREPETAG
1070
     1
1071
      158
1005
12278C
  0
LINE
  5
12278D
  8
OBJECT
 10
4224.0
 20
-494.5
 30
0.0
 11
4089.0
 21
-494.5
 31
0.0
1001
ACDBBLOCKREPETAG
1070
     1
1071
      159
1005
12278D
  0
LINE
  5
12278E
  8
OBJECT
 10
4089.0
 20
-507.5
 30
0.0
 11
4224.0
 21
-507.5
 31
0.0
1001
ACDBBLOCKREPETAG
1070
     1
1071
      160
1005
12278E
  0
LINE
  5
12278F
  8
OBJECT
 10
4089.0
 20
-494.5
 30
0.0
 11
4089.0
 21
-507.5
 31
0.0
1001
ACDBBLOCKREPETAG
1070
     1
1071
      161
1005
12278F
  0
LINE
  5
122790
  8
OBJECT
 10
4096.0
 20
-516.5
 30
0.0
 11
4096.0
 21
-507.5
 31
0.0
1001
ACDBBLOCKREPETAG
1070
     1
1071
      162
1005
122790
  0
LINE
  5
122791
  8
OBJECT
 10
4114.0
 20
-520.0
 30
0.0
 11
4114.0
 21
-507.5
 31
0.0
1001
ACDBBLOCKREPETAG
1070
     1
1071
      163
1005
122791
  0
LINE
  5
122792
  8
OBJECT
 10
4204.0
 20
-516.5
 30
0.0
 11
4204.0
 21
-507.5
 31
0.0
1001
ACDBBLOCKREPETAG
1070
     1
1071
      164
1005
122792
  0
LINE
  5
122793
  8
OBJECT
 10
4224.0
 20
-494.5
 30
0.0
 11
4224.0
 21
-507.5
 31
0.0
1001
ACDBBLOCKREPETAG
1070
     1
1071
      165
1005
122793
  0
LINE
  5
122794
  8
OBJECT
 10
4122.0
 20
-520.0
 30
0.0
 11
4122.0
 21
-507.5
 31
0.0
1001
ACDBBLOCKREPETAG
1070
     1
1071
      166
1005
122794
  0
LINE
  5
122795
  8
OBJECT
 10
4114.0
 20
-516.5
 30
0.0
 11
4095.0
 21
-516.5
 31
0.0
1001
ACDBBLOCKREPETAG
1070
     1
1071
      167
1005
122795
  0
LINE
  5
122796
  8
OBJECT
 10
4095.0
 20
-520.0
 30
0.0
 11
4095.0
 21
-516.5
 31
0.0
1001
ACDBBLOCKREPETAG
1070
     1
1071
      168
1005
122796
  0
LINE
  5
122797
  8
OBJECT
 10
4122.0
 20
-516.5
 30
0.0
 11
4205.0
 21
-516.5
 31
0.0
1001
ACDBBLOCKREPETAG
1070
     1
1071
      169
1005
122797
  0
LINE
  5
122798
  8
OBJECT
 10
4205.0
 20
-516.5
 30
0.0
 11
4205.0
 21
-520.0
 31
0.0
1001
ACDBBLOCKREPETAG
1070
     1
1071
      170
1005
122798
  0
LINE
  5
122799
  8
OBJECT
 10
4110.4944465005347
 20
-494.5
 30
0.0
 11
4110.4944465005347
 21
-488.0
 31
0.0
1001
ACDBBLOCKREPETAG
1070
     1
1071
      171
1005
122799
  0
LINE
  5
12279A
  8
OBJECT
 10
4109.0
 20
-533.0
 30
0.0
 11
4109.0
 21
-538.0
 31
0.0
1001
ACDBBLOCKREPETAG
1070
     1
1071
      172
1005
12279A
  0
LINE
  5
12279B
  8
OBJECT
 10
4109.0
 20
-538.0
 30
0.0
 11
4127.0
 21
-538.0
 31
0.0
1001
ACDBBLOCKREPETAG
1070
     1
1071
      173
1005
12279B
  0
LINE
  5
12279C
  8
OBJECT
 10
4127.0
 20
-533.0
 30
0.0
 11
4127.0
 21
-538.0
 31
0.0
1001
ACDBBLOCKREPETAG
1070
     1
1071
      174
1005
12279C
  0
LINE
  5
12279D
  8
OBJECT
 10
4089.0000000000032
 20
-520.0
 30
0.0
 11
4224.0
 21
-520.0
 31
0.0
1001
ACDBBLOCKREPETAG
1070
     1
1071
      175
1005
12279D
  0
LINE
  5
12279E
  8
OBJECT
 10
4224.0
 20
-520.0
 30
0.0
 11
4224.0
 21
-533.0
 31
0.0
1001
ACDBBLOCKREPETAG
1070
     1
1071
      176
1005
12279E
  0
LINE
  5
12279F
  8
OBJECT
 10
4116.6369002447627
 20
-550.6645712577473
 30
0.0
 11
4096.1702980000009
 21
-533.0
 31
0.0
1001
ACDBBLOCKREPETAG
1070
     1
1071
      177
1005
12279F
  0
LINE
  5
1227A0
  8
OBJECT
 10
4201.0000000000036
 20
-540.65708264965724
 30
0.0
 11
4201.0000000000036
 21
-565.0
 31
0.0
1001
ACDBBLOCKREPETAG
1070
     1
1071
      178
1005
1227A0
  0
LINE
  5
1227A1
  8
OBJECT
 10
4155.1865574982548
 20
-565.0
 30
0.0
 11
4201.0000000000036
 21
-565.0
 31
0.0
1001
ACDBBLOCKREPETAG
1070
     1
1071
      179
1005
1227A1
  0
ARC
  5
1227A2
  8
OBJECT
 10
4110.5
 20
-566.5
 30
0.0
 40
84.0
 50
277.05348487097029
 51
1.023193303671255
1001
ACDBBLOCKREPETAG
1070
     1
1071
      180
1005
1227A2
  0
LINE
  5
1227A3
  8
OBJECT
 10
4086.0
 20
-654.1720031702107
 30
0.0
 11
4120.8148488128827
 21
-649.86428428270381
 31
0.0
1001
ACDBBLOCKREPETAG
1070
     1
1071
      181
1005
1227A3
  0
LINE
  5
1227A4
  8
OBJECT
 10
4086.0000000000032
 20
-655.00000000000068
 30
0.0
 11
4086.0000000000032
 21
-534.0
 31
0.0
1001
ACDBBLOCKREPETAG
1070
     1
1071
      182
1005
1227A4
  0
ARC
  5
1227A5
  8
OBJECT
 10
4083.0000000000032
 20
-655.00000000000068
 30
0.0
 40
3.0
 50
270.0
 51
0.0
1001
ACDBBLOCKREPETAG
1070
     1
1071
      183
1005
1227A5
  0
LINE
  5
1227A6
  8
OBJECT
 10
4096.1702980000009
 20
-533.0
 30
0.0
 11
4224.0
 21
-533.0
 31
0.0
1001
ACDBBLOCKREPETAG
1070
     1
1071
      184
1005
1227A6
  0
LINE
  5
1227A7
  8
OBJECT
 10
4105.0539138517233
 20
-540.65708264965724
 30
0.0
 11
4201.0000000000036
 21
-540.65708264965724
 31
0.0
1001
ACDBBLOCKREPETAG
1070
     1
1071
      185
1005
1227A7
  0
LINE
  5
1227A8
  8
OBJECT
 10
4205.0
 20
-535.89006764214901
 30
0.0
 11
4201.0000000000036
 21
-540.65708264965724
 31
0.0
1001
ACDBBLOCKREPETAG
1070
     1
1071
      186
1005
1227A8
  0
LINE
  5
1227A9
  8
OBJECT
 10
4089.0000000000032
 20
-520.0
 30
0.0
 11
4089.0000000000068
 21
-534.0
 31
0.0
1001
ACDBBLOCKREPETAG
1070
     1
1071
      187
1005
1227A9
  0
LINE
  5
1227AA
  8
HIDDEN
 10
4105.5
 20
-560.0
 30
0.0
 11
4194.5
 21
-560.0
 31
0.0
1001
ACDBBLOCKREPETAG
1070
     1
1071
      188
1005
1227AA
  0
LINE
  5
1227AB
  8
OBJECT
 10
4114.0
 20
-486.0
 30
0.0
 11
4122.0
 21
-486.0
 31
0.0
1001
ACDBBLOCKREPETAG
1070
     1
1071
      189
1005
1227AB
  0
LINE
  5
1227AC
  8
OBJECT
 10
4122.0
 20
-488.0
 30
0.0
 11
4122.0
 21
-486.0
 31
0.0
1001
ACDBBLOCKREPETAG
1070
     1
1071
      190
1005
1227AC
  0
LINE
  5
1227AD
  8
OBJECT
 10
4110.4944465005347
 20
-488.0
 30
0.0
 11
4125.5055534994644
 21
-488.0
 31
0.0
1001
ACDBBLOCKREPETAG
1070
     1
1071
      191
1005
1227AD
  0
LINE
  5
1227AE
  8
CENTER
 10
4150.0
 20
-579.77158855533253
 30
0.0
 11
4150.0
 21
-479.49999999999989
 31
0.0
1001
ACDBBLOCKREPETAG
1070
     1
1071
      193
1005
1227AE
  0
LINE
  5
1227AF
  8
OBJECT
 10
4080.0
 20
-658.0
 30
0.0
 11
4083.0000000000032
 21
-658.0000000000008
 31
0.0
1001
ACDBBLOCKREPETAG
1070
     1
1071
      194
1005
1227AF
  0
LINE
  5
1227B0
  8
OBJECT
 10
4080.0
 20
-534.0
 30
0.0
 11
4089.0000000000068
 21
-534.0
 31
0.0
1001
ACDBBLOCKREPETAG
1070
     1
1071
      195
1005
1227B0
  0
LINE
  5
1227B1
  8
OBJECT
 10
4114.2471969783946
 20
-494.49998110541122
 30
0.0
 11
4114.2471969783946
 21
-487.99998110541122
 31
0.0
1001
ACDBBLOCKREPETAG
1070
     1
1071
      196
1005
1227B1
  0
LINE
  5
1227B2
  8
OBJECT
 10
4125.5055534994644
 20
-494.5
 30
0.0
 11
4125.5055534994644
 21
-488.0
 31
0.0
1001
ACDBBLOCKREPETAG
1070
     1
1071
      197
1005
1227B2
  0
LINE
  5
1227B3
  8
OBJECT
 10
4121.7528030216054
 20
-494.49998110541122
 30
0.0
 11
4121.7528030216054
 21
-487.99998110541122
 31
0.0
1001
ACDBBLOCKREPETAG
1070
     1
1071
      198
1005
1227B3
  0
LINE
  5
1227B4
  8
OBJECT
 10
4210.0
 20
-488.0
 30
0.0
 11
4210.0
 21
-486.0
 31
0.0
1001
ACDBBLOCKREPETAG
1070
     1
1071
      199
1005
1227B4
  0
LINE
  5
1227B5
  8
OBJECT
 10
4210.0
 20
-520.0
 30
0.0
 11
4210.0
 21
-507.5
 31
0.0
1001
ACDBBLOCKREPETAG
1070
     1
1071
      200
1005
1227B5
  0
LINE
  5
1227B6
  8
OBJECT
 10
4218.0
 20
-520.0
 30
0.0
 11
4218.0
 21
-507.5
 31
0.0
1001
ACDBBLOCKREPETAG
1070
     1
1071
      201
1005
1227B6
  0
LINE
  5
1227B7
  8
OBJECT
 10
4206.4944465005347
 20
-494.5
 30
0.0
 11
4206.4944465005347
 21
-488.0
 31
0.0
1001
ACDBBLOCKREPETAG
1070
     1
1071
      202
1005
1227B7
  0
LINE
  5
1227B8
  8
OBJECT
 10
4205.0
 20
-533.0
 30
0.0
 11
4205.0
 21
-538.0
 31
0.0
1001
ACDBBLOCKREPETAG
1070
     1
1071
      203
1005
1227B8
  0
LINE
  5
1227B9
  8
OBJECT
 10
4205.0
 20
-538.0
 30
0.0
 11
4223.0
 21
-538.0
 31
0.0
1001
ACDBBLOCKREPETAG
1070
     1
1071
      204
1005
1227B9
  0
LINE
  5
1227BA
  8
OBJECT
 10
4223.0
 20
-533.0
 30
0.0
 11
4223.0
 21
-538.0
 31
0.0
1001
ACDBBLOCKREPETAG
1070
     1
1071
      205
1005
1227BA
  0
LINE
  5
1227BB
  8
OBJECT
 10
4210.0
 20
-486.0
 30
0.0
 11
4218.0
 21
-486.0
 31
0.0
1001
ACDBBLOCKREPETAG
1070
     1
1071
      206
1005
1227BB
  0
LINE
  5
1227BC
  8
OBJECT
 10
4218.0
 20
-488.0
 30
0.0
 11
4218.0
 21
-486.0
 31
0.0
1001
ACDBBLOCKREPETAG
1070
     1
1071
      207
1005
1227BC
  0
LINE
  5
1227BD
  8
OBJECT
 10
4206.4944465005347
 20
-488.0
 30
0.0
 11
4221.5055534994644
 21
-488.0
 31
0.0
1001
ACDBBLOCKREPETAG
1070
     1
1071
      208
1005
1227BD
  0
LINE
  5
1227BE
  8
OBJECT
 10
4210.2471969783946
 20
-494.49998110541122
 30
0.0
 11
4210.2471969783946
 21
-487.99998110541122
 31
0.0
1001
ACDBBLOCKREPETAG
1070
     1
1071
      209
1005
1227BE
  0
LINE
  5
1227BF
  8
OBJECT
 10
4221.5055534994644
 20
-494.5
 30
0.0
 11
4221.5055534994644
 21
-488.0
 31
0.0
1001
ACDBBLOCKREPETAG
1070
     1
1071
      210
1005
1227BF
  0
LINE
  5
1227C0
  8
OBJECT
 10
4217.7528030216054
 20
-494.49998110541122
 30
0.0
 11
4217.7528030216054
 21
-487.99998110541122
 31
0.0
1001
ACDBBLOCKREPETAG
1070
     1
1071
      211
1005
1227C0
  0
LINE
  5
1227C1
  8
CENTER
 10
4080.0
 20
-199.99999999999909
 30
0.0
 11
4239.0
 21
-199.99999999999909
 31
0.0
1001
ACDBBLOCKREPETAG
1070
     1
1071
      155
1005
1227C1
  0
LINE
  5
1227C2
  8
OBJECT
 10
4080.0
 20
-261.99999999999909
 30
0.0
 11
4083.0
 21
-261.99999999999909
 31
0.0
1001
ACDBBLOCKREPETAG
1070
     1
1071
      156
1005
1227C2
  0
ARC
  5
1227C3
  8
OBJECT
 10
4083.0
 20
-258.99999999999909
 30
0.0
 40
3.0
 50
270.0
 51
0.0
1001
ACDBBLOCKREPETAG
1070
     1
1071
      157
1005
1227C3
  0
LINE
  5
1227C4
  8
OBJECT
 10
4080.0
 20
-138.0000000000027
 30
0.0
 11
4083.0
 21
-138.0000000000027
 31
0.0
1001
ACDBBLOCKREPETAG
1070
     1
1071
      158
1005
1227C4
  0
LINE
  5
1227C5
  8
OBJECT
 10
4086.0
 20
-140.99999999999909
 30
0.0
 11
4108.6547275935336
 21
-140.9999999999954
 31
0.0
1001
ACDBBLOCKREPETAG
1070
     1
1071
      159
1005
1227C5
  0
LINE
  5
1227C6
  8
OBJECT
 10
4086.0
 20
-259.00000000000267
 30
0.0
 11
4108.6547275935336
 21
-258.99999999999909
 31
0.0
1001
ACDBBLOCKREPETAG
1070
     1
1071
      160
1005
1227C6
  0
LINE
  5
1227C7
  8
CENTER
 10
4150.0
 20
-123.5195984073716
 30
0.0
 11
4150.0
 21
-276.48040159262649
 31
0.0
1001
ACDBBLOCKREPETAG
1070
     1
1071
      161
1005
1227C7
  0
LINE
  5
1227C8
  8
OBJECT
 10
4086.0
 20
-141.0000000000027
 30
0.0
 11
4086.0
 21
-258.99999999999909
 31
0.0
1001
ACDBBLOCKREPETAG
1070
     1
1071
      162
1005
1227C8
  0
ARC
  5
1227C9
  8
OBJECT
 10
4083.0
 20
-141.0000000000027
 30
0.0
 40
3.0
 50
0.0
 51
90.0
1001
ACDBBLOCKREPETAG
1070
     1
1071
      163
1005
1227C9
  0
ARC
  5
1227CA
  8
OBJECT
 10
4150.0
 20
-199.99999999999909
 30
0.0
 40
61.0
 50
37.167285461274467
 51
82.832714538705744
1001
ACDBBLOCKREPETAG
1070
     1
1071
      165
1005
1227CA
  0
ARC
  5
1227CB
  8
OBJECT
 10
4150.0
 20
-199.99999999999909
 30
0.0
 40
61.0
 50
157.16728546126831
 51
202.83271453873161
1001
ACDBBLOCKREPETAG
1070
     1
1071
      166
1005
1227CB
  0
ARC
  5
1227CC
  8
OBJECT
 10
4150.0
 20
-199.99999999999909
 30
0.0
 40
61.0
 50
277.16728546129423
 51
322.83271453872419
1001
ACDBBLOCKREPETAG
1070
     1
1071
      167
1005
1227CC
  0
CIRCLE
  5
1227CD
  8
SLIM
 10
4214.0
 20
-199.99999999999909
 30
0.0
 40
4.0
1001
ACDBBLOCKREPETAG
1070
     1
1071
      168
1005
1227CD
  0
ARC
  5
1227CE
  8
OBJECT
 10
4214.0
 20
-199.99999999999909
 30
0.0
 40
10.0
 50
322.83271453872419
 51
37.167285461274467
1001
ACDBBLOCKREPETAG
1070
     1
1071
      169
1005
1227CE
  0
LINE
  5
1227CF
  8
OBJECT
 10
4198.6093749999973
 20
-163.14720279124501
 30
0.0
 11
4221.96875
 21
-193.9585578346296
 31
0.0
1001
ACDBBLOCKREPETAG
1070
     1
1071
      170
1005
1227CF
  0
LINE
  5
1227D0
  8
OBJECT
 10
4198.6093749999973
 20
-236.8527972087532
 30
0.0
 11
4221.96875
 21
-206.04144216536861
 31
0.0
1001
ACDBBLOCKREPETAG
1070
     1
1071
      171
1005
1227D0
  0
CIRCLE
  5
1227D1
  8
SLIM
 10
4118.0
 20
-144.5743741577962
 30
0.0
 40
3.9999999999999991
1001
ACDBBLOCKREPETAG
1070
     1
1071
      172
1005
1227D1
  0
ARC
  5
1227D2
  8
OBJECT
 10
4118.0
 20
-144.5743741577962
 30
0.0
 40
9.9999999999999982
 50
82.832714538705744
 51
157.16728546126831
1001
ACDBBLOCKREPETAG
1070
     1
1071
      173
1005
1227D2
  0
LINE
  5
1227D3
  8
OBJECT
 10
4093.7798539167038
 20
-176.32944499229319
 30
0.0
 11
4108.783582609296
 21
-140.6939553040711
 31
0.0
1001
ACDBBLOCKREPETAG
1070
     1
1071
      174
1005
1227D3
  0
LINE
  5
1227D4
  8
OBJECT
 10
4157.6107710832966
 20
-139.47664778353919
 30
0.0
 11
4119.247667390704
 21
-134.65251313870161
 31
0.0
1001
ACDBBLOCKREPETAG
1070
     1
1071
      175
1005
1227D4
  0
CIRCLE
  5
1227D5
  8
SLIM
 10
4118.0
 20
-255.4256258422019
 30
0.0
 40
4.0
1001
ACDBBLOCKREPETAG
1070
     1
1071
      176
1005
1227D5
  0
ARC
  5
1227D6
  8
OBJECT
 10
4118.0
 20
-255.4256258422019
 30
0.0
 40
10.0
 50
202.83271453873161
 51
277.16728546129423
1001
ACDBBLOCKREPETAG
1070
     1
1071
      177
1005
1227D6
  0
LINE
  5
1227D7
  8
OBJECT
 10
4157.6107710832966
 20
-260.52335221645899
 30
0.0
 11
4119.247667390704
 21
-265.3474868612966
 31
0.0
1001
ACDBBLOCKREPETAG
1070
     1
1071
      178
1005
1227D7
  0
LINE
  5
1227D8
  8
OBJECT
 10
4093.7798539167038
 20
-223.67055500770491
 30
0.0
 11
4108.783582609296
 21
-259.30604469592708
 31
0.0
1001
ACDBBLOCKREPETAG
1070
     1
1071
      179
1005
1227D8
  0
CIRCLE
  5
1227D9
  8
OBJECT
 10
4150.0
 20
-199.99999999999909
 30
0.0
 40
46.0
1001
ACDBBLOCKREPETAG
1070
     1
1071
      180
1005
1227D9
  0
POLYLINE
  5
1227DA
  8
SLIM
 66
     1
 10
0.0
 20
0.0
 30
0.0
 70
     1
1001
ACDBBLOCKREPETAG
1070
     1
1071
      181
1005
1227DA
  0
VERTEX
  5
1229E3
  8
SLIM
 10
4210.247223250266
 20
-193.49999999999909
 30
0.0
  0
VERTEX
  5
1229E4
  8
SLIM
 10
4206.4944465005347
 20
-199.99999999999909
 30
0.0
  0
VERTEX
  5
1229E5
  8
SLIM
 10
4210.247223250266
 20
-206.49999999999909
 30
0.0
  0
VERTEX
  5
1229E6
  8
SLIM
 10
4217.7527767497322
 20
-206.49999999999909
 30
0.0
  0
VERTEX
  5
1229E7
  8
SLIM
 10
4221.5055534994644
 20
-199.99999999999909
 30
0.0
  0
VERTEX
  5
1229E8
  8
SLIM
 10
4217.7527767497322
 20
-193.49999999999909
 30
0.0
  0
SEQEND
  5
1229E9
  8
SLIM
  0
POLYLINE
  5
1227DB
  8
SLIM
 66
     1
 10
0.0
 20
0.0
 30
0.0
 70
     1
1001
ACDBBLOCKREPETAG
1070
     1
1071
      182
1005
1227DB
  0
VERTEX
  5
1229EA
  8
SLIM
 10
4114.2472232502687
 20
-151.0743741577962
 30
0.0
  0
VERTEX
  5
1229EB
  8
SLIM
 10
4121.752776749734
 20
-151.0743741577962
 30
0.0
  0
VERTEX
  5
1229EC
  8
SLIM
 10
4125.5055534994644
 20
-144.5743741577962
 30
0.0
  0
VERTEX
  5
1229ED
  8
SLIM
 10
4121.7527767497286
 20
-138.07437415779259
 30
0.0
  0
VERTEX
  5
1229EE
  8
SLIM
 10
4114.2472232502687
 20
-138.0743741577962
 30
0.0
  0
VERTEX
  5
1229EF
  8
SLIM
 10
4110.4944465005347
 20
-144.57437415779259
 30
0.0
  0
SEQEND
  5
1229F0
  8
SLIM
  0
POLYLINE
  5
1227DC
  8
SLIM
 66
     1
 10
0.0
 20
0.0
 30
0.0
 70
     1
1001
ACDBBLOCKREPETAG
1070
     1
1071
      183
1005
1227DC
  0
VERTEX
  5
1229F1
  8
SLIM
 10
4125.5055534994644
 20
-255.4256258422019
 30
0.0
  0
VERTEX
  5
1229F2
  8
SLIM
 10
4121.7527767497286
 20
-248.9256258422019
 30
0.0
  0
VERTEX
  5
1229F3
  8
SLIM
 10
4114.2472232502687
 20
-248.9256258422019
 30
0.0
  0
VERTEX
  5
1229F4
  8
SLIM
 10
4110.4944465005347
 20
-255.42562584220559
 30
0.0
  0
VERTEX
  5
1229F5
  8
SLIM
 10
4114.247223250266
 20
-261.9256258422019
 30
0.0
  0
VERTEX
  5
1229F6
  8
SLIM
 10
4121.7527767497286
 20
-261.92562584220559
 30
0.0
  0
SEQEND
  5
1229F7
  8
SLIM
  0
CIRCLE
  5
1227DD
  8
OBJECT
 10
2000.0
 20
-199.99999999999909
 30
0.0
 40
53.5
1001
ACDBBLOCKREPETAG
1070
     1
1071
      344
1005
1227DD
  0
LINE
  5
1227DE
  8
CENTER
 10
2080.0
 20
-199.99999999999909
 30
0.0
 11
1905.0
 21
-199.99999999999909
 31
0.0
1001
ACDBBLOCKREPETAG
1070
     1
1071
       14
1005
1227DE
  0
LINE
  5
1227DF
  8
CENTER
 10
2000.0
 20
-294.99999999999898
 30
0.0
 11
2000.0
 21
-104.9999999999991
 31
0.0
1001
ACDBBLOCKREPETAG
1070
     1
1071
       15
1005
1227DF
  0
CIRCLE
  5
1227E0
  8
OBJECT
 10
2000.0
 20
-199.99999999999909
 30
0.0
 40
70.0
1001
ACDBBLOCKREPETAG
1070
     1
1071
       16
1005
1227E0
  0
CIRCLE
  5
1227E1
  8
OBJECT
 10
2000.0
 20
-199.99999999999909
 30
0.0
 40
77.0
1001
ACDBBLOCKREPETAG
1070
     1
1071
       17
1005
1227E1
  0
ARC
  5
1227E2
  8
OBJECT
 10
2000.0
 20
-199.99999999999909
 30
0.0
 40
80.0
 50
50.805032573864182
 51
309.1949674261358
1001
ACDBBLOCKREPETAG
1070
     1
1071
       18
1005
1227E2
  0
LINE
  5
1227E3
  8
OBJECT
 10
2045.6618002273251
 20
-137.99999999999909
 30
0.0
 11
2080.0
 21
-137.99999999999909
 31
0.0
1001
ACDBBLOCKREPETAG
1070
     1
1071
       19
1005
1227E3
  0
LINE
  5
1227E4
  8
OBJECT
 10
2045.6618002273251
 20
-261.99999999999909
 30
0.0
 11
2080.0
 21
-261.99999999999909
 31
0.0
1001
ACDBBLOCKREPETAG
1070
     1
1071
       20
1005
1227E4
  0
POINT
  5
1227E5
  8
DOTS
 10
2000.0
 20
-199.99999999999909
 30
0.0
1001
ACDBBLOCKREPETAG
1070
     1
1071
       21
1005
1227E5
  0
LINE
  5
1227E6
  8
SLIM
 10
3914.9999999999941
 20
-659.47385309434696
 30
0.0
 11
3919.47385309434
 21
-654.99999999999966
 31
0.0
1001
ACDBBLOCKREPETAG
1070
     1
1071
        0
1005
0
1001
ACAD
1010
0.0
1020
0.0
1030
0.0
  0
LINE
  5
1227E7
  8
SLIM
 10
3914.9999999999941
 20
-677.43436533648492
 30
0.0
 11
3937.434365336479
 21
-654.99999999999966
 31
0.0
1001
ACAD
1010
0.0
1020
0.0
1030
0.0
1001
ACDBBLOCKREPETAG
1070
     1
1071
       14
1005
1227E7
  0
LINE
  5
1227E8
  8
SLIM
 10
3914.9999999999941
 20
-695.39487757862275
 30
0.0
 11
3955.394877578618
 21
-654.99999999999966
 31
0.0
1001
ACAD
1010
0.0
1020
0.0
1030
0.0
1001
ACDBBLOCKREPETAG
1070
     1
1071
       15
1005
1227E8
  0
LINE
  5
1227E9
  8
SLIM
 10
3914.9999999999941
 20
-713.35538982076082
 30
0.0
 11
3973.3553898207551
 21
-654.99999999999966
 31
0.0
1001
ACAD
1010
0.0
1020
0.0
1030
0.0
1001
ACDBBLOCKREPETAG
1070
     1
1071
       16
1005
1227E9
  0
LINE
  5
1227EA
  8
SLIM
 10
3914.999999999995
 20
-731.31590206289854
 30
0.0
 11
3991.3159020628941
 21
-654.99999999999966
 31
0.0
1001
ACAD
1010
0.0
1020
0.0
1030
0.0
1001
ACDBBLOCKREPETAG
1070
     1
1071
       17
1005
1227EA
  0
LINE
  5
1227EB
  8
SLIM
 10
3914.999999999995
 20
-749.27641430503661
 30
0.0
 11
4009.2764143050308
 21
-654.99999999999966
 31
0.0
1001
ACAD
1010
0.0
1020
0.0
1030
0.0
1001
ACDBBLOCKREPETAG
1070
     1
1071
       18
1005
1227EB
  0
LINE
  5
1227EC
  8
SLIM
 10
3914.999999999995
 20
-767.23692654717433
 30
0.0
 11
4027.2369265471689
 21
-654.99999999999966
 31
0.0
1001
ACAD
1010
0.0
1020
0.0
1030
0.0
1001
ACDBBLOCKREPETAG
1070
     1
1071
       19
1005
1227EC
  0
LINE
  5
1227ED
  8
SLIM
 10
3914.999999999995
 20
-785.1974387893124
 30
0.0
 11
4045.1974387893069
 21
-654.99999999999966
 31
0.0
1001
ACAD
1010
0.0
1020
0.0
1030
0.0
1001
ACDBBLOCKREPETAG
1070
     1
1071
       20
1005
1227ED
  0
LINE
  5
1227EE
  8
SLIM
 10
3914.9999999999968
 20
-803.15795103145024
 30
0.0
 11
4063.157951031445
 21
-654.99999999999966
 31
0.0
1001
ACAD
1010
0.0
1020
0.0
1030
0.0
1001
ACDBBLOCKREPETAG
1070
     1
1071
       21
1005
1227EE
  0
LINE
  5
1227EF
  8
SLIM
 10
3915.1454972543161
 20
-820.97296601926894
 30
0.0
 11
4081.1184632735849
 21
-654.99999999999966
 31
0.0
1001
ACAD
1010
0.0
1020
0.0
1030
0.0
1001
ACDBBLOCKREPETAG
1070
     1
1071
       22
1005
1227EF
  0
LINE
  5
1227F0
  8
SLIM
 10
3917.104627495245
 20
-836.97434802047894
 30
0.0
 11
4085.0000000000068
 21
-669.07897551571602
 31
0.0
1001
ACAD
1010
0.0
1020
0.0
1030
0.0
1001
ACDBBLOCKREPETAG
1070
     1
1071
       23
1005
1227F0
  0
LINE
  5
1227F1
  8
SLIM
 10
3919.0637577361722
 20
-852.97573002168929
 30
0.0
 11
4085.0000000000068
 21
-687.03948775785454
 31
0.0
1001
ACAD
1010
0.0
1020
0.0
1030
0.0
1001
ACDBBLOCKREPETAG
1070
     1
1071
       24
1005
1227F1
  0
LINE
  5
1227F2
  8
SLIM
 10
3920.0
 20
-869.99999999999955
 30
0.0
 11
4085.0000000000068
 21
-704.99999999999341
 31
0.0
1001
ACAD
1010
0.0
1020
0.0
1030
0.0
1001
ACDBBLOCKREPETAG
1070
     1
1071
       25
1005
1227F2
  0
LINE
  5
1227F3
  8
SLIM
 10
3920.0
 20
-887.96051224213795
 30
0.0
 11
4085.0000000000059
 21
-722.96051224213215
 31
0.0
1001
ACAD
1010
0.0
1020
0.0
1030
0.0
1001
ACDBBLOCKREPETAG
1070
     1
1071
       26
1005
1227F3
  0
LINE
  5
1227F4
  8
SLIM
 10
3920.0
 20
-905.9210244842759
 30
0.0
 11
4085.0000000000059
 21
-740.92102448427045
 31
0.0
1001
ACAD
1010
0.0
1020
0.0
1030
0.0
1001
ACDBBLOCKREPETAG
1070
     1
1071
       27
1005
1227F4
  0
LINE
  5
1227F5
  8
SLIM
 10
3920.0
 20
-923.88153672641431
 30
0.0
 11
4085.000000000005
 21
-758.88153672640942
 31
0.0
1001
ACAD
1010
0.0
1020
0.0
1030
0.0
1001
ACDBBLOCKREPETAG
1070
     1
1071
       28
1005
1227F5
  0
LINE
  5
1227F6
  8
SLIM
 10
3920.0
 20
-941.84204896855272
 30
0.0
 11
4085.0000000000041
 21
-776.84204896854817
 31
0.0
1001
ACAD
1010
0.0
1020
0.0
1030
0.0
1001
ACDBBLOCKREPETAG
1070
     1
1071
       29
1005
1227F6
  0
LINE
  5
1227F7
  8
SLIM
 10
3920.0
 20
-959.80256121069101
 30
0.0
 11
4085.0000000000041
 21
-794.80256121068692
 31
0.0
1001
ACAD
1010
0.0
1020
0.0
1030
0.0
1001
ACDBBLOCKREPETAG
1070
     1
1071
       30
1005
1227F7
  0
LINE
  5
1227F8
  8
SLIM
 10
3920.0
 20
-977.76307345282919
 30
0.0
 11
4085.0000000000032
 21
-812.76307345282555
 31
0.0
1001
ACAD
1010
0.0
1020
0.0
1030
0.0
1001
ACDBBLOCKREPETAG
1070
     1
1071
       31
1005
1227F8
  0
LINE
  5
1227F9
  8
SLIM
 10
3930.0
 20
-985.7235856949676
 30
0.0
 11
3930.7235856949678
 21
-984.99999999999955
 31
0.0
1001
ACAD
1010
0.0
1020
0.0
1030
0.0
1001
ACDBBLOCKREPETAG
1070
     1
1071
       32
1005
1227F9
  0
LINE
  5
1227FA
  8
SLIM
 10
3930.7235856949678
 20
-984.99999999999955
 30
0.0
 11
4083.4738280308079
 21
-832.24975766415889
 31
0.0
1001
ACAD
1010
0.0
1020
0.0
1030
0.0
1001
ACDBBLOCKREPETAG
1070
     1
1071
       33
1005
1227FA
  0
LINE
  5
1227FB
  8
SLIM
 10
3930.0
 20
-1003.684097937106
 30
0.0
 11
3948.6840979371068
 21
-984.99999999999955
 31
0.0
1001
ACAD
1010
0.0
1020
0.0
1030
0.0
1001
ACDBBLOCKREPETAG
1070
     1
1071
       34
1005
1227FB
  0
LINE
  5
1227FC
  8
SLIM
 10
3948.6840979371068
 20
-984.99999999999955
 30
0.0
 11
4080.9680345671368
 21
-852.71606336996854
 31
0.0
1001
ACAD
1010
0.0
1020
0.0
1030
0.0
1001
ACDBBLOCKREPETAG
1070
     1
1071
       35
1005
1227FC
  0
LINE
  5
1227FD
  8
SLIM
 10
3946.6446101792449
 20
-1004.999999999999
 30
0.0
 11
3966.6446101792449
 21
-984.99999999999955
 31
0.0
1001
ACAD
1010
0.0
1020
0.0
1030
0.0
1001
ACDBBLOCKREPETAG
1070
     1
1071
       36
1005
1227FD
  0
LINE
  5
1227FE
  8
SLIM
 10
3966.6446101792449
 20
-984.99999999999943
 30
0.0
 11
4080.0
 21
-871.64461017924452
 31
0.0
1001
ACAD
1010
0.0
1020
0.0
1030
0.0
1001
ACDBBLOCKREPETAG
1070
     1
1071
       37
1005
1227FE
  0
LINE
  5
1227FF
  8
SLIM
 10
3964.6051224213829
 20
-1004.999999999999
 30
0.0
 11
3984.6051224213829
 21
-984.99999999999943
 31
0.0
1001
ACAD
1010
0.0
1020
0.0
1030
0.0
1001
ACDBBLOCKREPETAG
1070
     1
1071
       38
1005
1227FF
  0
LINE
  5
122800
  8
SLIM
 10
3984.6051224213829
 20
-984.99999999999943
 30
0.0
 11
4080.0
 21
-889.60512242138304
 31
0.0
1001
ACAD
1010
0.0
1020
0.0
1030
0.0
1001
ACDBBLOCKREPETAG
1070
     1
1071
       39
1005
122800
  0
LINE
  5
122801
  8
SLIM
 10
3982.565634663521
 20
-1004.999999999999
 30
0.0
 11
4002.565634663521
 21
-984.99999999999943
 31
0.0
1001
ACAD
1010
0.0
1020
0.0
1030
0.0
1001
ACDBBLOCKREPETAG
1070
     1
1071
       40
1005
122801
  0
LINE
  5
122802
  8
SLIM
 10
4002.565634663521
 20
-984.99999999999943
 30
0.0
 11
4079.9999999999991
 21
-907.56563466352145
 31
0.0
1001
ACAD
1010
0.0
1020
0.0
1030
0.0
1001
ACDBBLOCKREPETAG
1070
     1
1071
       41
1005
122802
  0
LINE
  5
122803
  8
SLIM
 10
4000.5261469056582
 20
-1004.999999999999
 30
0.0
 11
4020.52614690566
 21
-984.99999999999943
 31
0.0
1001
ACAD
1010
0.0
1020
0.0
1030
0.0
1001
ACDBBLOCKREPETAG
1070
     1
1071
       42
1005
122803
  0
LINE
  5
122804
  8
SLIM
 10
4020.52614690566
 20
-984.9999999999992
 30
0.0
 11
4079.9999999999991
 21
-925.5261469056602
 31
0.0
1001
ACAD
1010
0.0
1020
0.0
1030
0.0
1001
ACDBBLOCKREPETAG
1070
     1
1071
       43
1005
122804
  0
LINE
  5
122805
  8
SLIM
 10
4018.486659147798
 20
-1004.999999999999
 30
0.0
 11
4038.486659147798
 21
-984.9999999999992
 31
0.0
1001
ACAD
1010
0.0
1020
0.0
1030
0.0
1001
ACDBBLOCKREPETAG
1070
     1
1071
       44
1005
122805
  0
LINE
  5
122806
  8
SLIM
 10
4038.486659147798
 20
-984.9999999999992
 30
0.0
 11
4079.9999999999991
 21
-943.48665914779872
 31
0.0
1001
ACAD
1010
0.0
1020
0.0
1030
0.0
1001
ACDBBLOCKREPETAG
1070
     1
1071
       45
1005
122806
  0
LINE
  5
122807
  8
SLIM
 10
4036.4471713899361
 20
-1004.999999999999
 30
0.0
 11
4056.4471713899361
 21
-984.9999999999992
 31
0.0
1001
ACAD
1010
0.0
1020
0.0
1030
0.0
1001
ACDBBLOCKREPETAG
1070
     1
1071
       46
1005
122807
  0
LINE
  5
122808
  8
SLIM
 10
4056.4471713899361
 20
-984.9999999999992
 30
0.0
 11
4079.9999999999991
 21
-961.44717138993735
 31
0.0
1001
ACAD
1010
0.0
1020
0.0
1030
0.0
1001
ACDBBLOCKREPETAG
1070
     1
1071
       47
1005
122808
  0
LINE
  5
122809
  8
SLIM
 10
4054.4076836320728
 20
-1004.999999999999
 30
0.0
 11
4070.0
 21
-989.40768363207383
 31
0.0
1001
ACAD
1010
0.0
1020
0.0
1030
0.0
1001
ACDBBLOCKREPETAG
1070
     1
1071
       48
1005
122809
  0
LINE
  5
12280A
  8
SLIM
 10
4074.4076836320728
 20
-984.9999999999992
 30
0.0
 11
4079.9999999999991
 21
-979.40768363207553
 31
0.0
1001
ACAD
1010
0.0
1020
0.0
1030
0.0
1001
ACDBBLOCKREPETAG
1070
     1
1071
       49
1005
12280A
  0
LINE
  5
12280B
  8
OBJECT
 10
3914.9999999999941
 20
-654.99999999999966
 30
0.0
 11
3914.9999999999968
 21
-819.78460339903484
 31
0.0
1001
ACDBBLOCKREPETAG
1070
     1
1071
        1
1005
12280B
  0
LINE
  5
12280C
  8
OBJECT
 10
4085.0000000000068
 20
-654.99999999999966
 30
0.0
 11
4085.0000000000032
 21
-819.78460339904143
 31
0.0
1001
ACDBBLOCKREPETAG
1070
     1
1071
        2
1005
12280C
  0
LINE
  5
12280D
  8
OBJECT
 10
4085.0000000000068
 20
-654.99999999999966
 30
0.0
 11
3914.9999999999941
 21
-654.99999999999966
 31
0.0
1001
ACDBBLOCKREPETAG
1070
     1
1071
        3
1005
12280D
  0
LINE
  5
12280E
  8
OBJECT
 10
4079.9999999999991
 20
-984.9999999999992
 30
0.0
 11
3920.0
 21
-984.99999999999955
 31
0.0
1001
ACDBBLOCKREPETAG
1070
     1
1071
        4
1005
12280E
  0
LINE
  5
12280F
  8
OBJECT
 10
3914.9999999999968
 20
-819.78460339903484
 30
0.0
 11
3920.0
 21
-860.62257748298634
 31
0.0
1001
ACDBBLOCKREPETAG
1070
     1
1071
        6
1005
12280F
  0
LINE
  5
122810
  8
OBJECT
 10
3920.0
 20
-860.62257748298634
 30
0.0
 11
3920.0
 21
-984.99999999999955
 31
0.0
1001
ACDBBLOCKREPETAG
1070
     1
1071
        7
1005
122810
  0
LINE
  5
122811
  8
OBJECT
 10
4085.0000000000032
 20
-819.78460339904143
 30
0.0
 11
4080.0
 21
-860.62257748298634
 31
0.0
1001
ACDBBLOCKREPETAG
1070
     1
1071
        8
1005
122811
  0
LINE
  5
122812
  8
OBJECT
 10
4080.0
 20
-860.62257748298634
 30
0.0
 11
4079.9999999999991
 21
-984.9999999999992
 31
0.0
1001
ACDBBLOCKREPETAG
1070
     1
1071
        9
1005
122812
  0
LINE
  5
122813
  8
OBJECT
 10
3930.0
 20
-984.99999999999955
 30
0.0
 11
3930.0
 21
-1004.999999999999
 31
0.0
1001
ACDBBLOCKREPETAG
1070
     1
1071
       10
1005
122813
  0
LINE
  5
122814
  8
OBJECT
 10
3930.0
 20
-1004.999999999999
 30
0.0
 11
4070.0
 21
-1004.999999999999
 31
0.0
1001
ACDBBLOCKREPETAG
1070
     1
1071
       11
1005
122814
  0
LINE
  5
122815
  8
OBJECT
 10
4070.0
 20
-1004.999999999999
 30
0.0
 11
4070.0
 21
-984.9999999999992
 31
0.0
1001
ACDBBLOCKREPETAG
1070
     1
1071
       12
1005
122815
  0
LINE
  5
122816
  8
OBJECT
 10
1923.0
 20
-470.99999999999937
 30
0.0
 11
1923.0
 21
-449.99999999999937
 31
0.0
1001
ACDBBLOCKREPETAG
1070
     1
1071
        0
1005
122816
  0
LINE
  5
122817
  8
OBJECT
 10
1923.0
 20
-449.99999999999937
 30
0.0
 11
2077.0
 21
-449.99999999999937
 31
0.0
1001
ACDBBLOCKREPETAG
1070
     1
1071
        1
1005
122817
  0
LINE
  5
122818
  8
HIDDEN
 10
1943.0
 20
-519.99999999999955
 30
0.0
 11
2057.0
 21
-519.99999999999955
 31
0.0
1001
ACDBBLOCKREPETAG
1070
     1
1071
        2
1005
122818
  0
LINE
  5
122819
  8
OBJECT
 10
2077.0
 20
-449.99999999999937
 30
0.0
 11
2077.0
 21
-470.99999999999937
 31
0.0
1001
ACDBBLOCKREPETAG
1070
     1
1071
        3
1005
122819
  0
LINE
  5
12281A
  8
OBJECT
 10
2077.0
 20
-470.99999999999937
 30
0.0
 11
1923.0
 21
-470.99999999999937
 31
0.0
1001
ACDBBLOCKREPETAG
1070
     1
1071
        4
1005
12281A
  0
LINE
  5
12281B
  8
CENTER
 10
2000.0
 20
-434.99999999999949
 30
0.0
 11
2000.0
 21
-789.99999999999955
 31
0.0
1001
ACDBBLOCKREPETAG
1070
     1
1071
        5
1005
12281B
  0
LINE
  5
12281C
  8
OBJECT
 10
1925.0
 20
-533.99999999999955
 30
0.0
 11
1925.0
 21
-777.99999999999955
 31
0.0
1001
ACDBBLOCKREPETAG
1070
     1
1071
        6
1005
12281C
  0
LINE
  5
12281D
  8
OBJECT
 10
1928.0
 20
-470.99999999999937
 30
0.0
 11
1928.0
 21
-533.99999999999955
 31
0.0
1001
ACDBBLOCKREPETAG
1070
     1
1071
        7
1005
12281D
  0
LINE
  5
12281E
  8
OBJECT
 10
2072.0
 20
-533.99999999999955
 30
0.0
 11
2072.0
 21
-470.99999999999937
 31
0.0
1001
ACDBBLOCKREPETAG
1070
     1
1071
        8
1005
12281E
  0
LINE
  5
12281F
  8
OBJECT
 10
1920.0
 20
-777.99999999999955
 30
0.0
 11
2080.0
 21
-777.99999999999955
 31
0.0
1001
ACDBBLOCKREPETAG
1070
     1
1071
        9
1005
12281F
  0
LINE
  5
122820
  8
OBJECT
 10
2080.0
 20
-533.99999999999955
 30
0.0
 11
1925.0
 21
-533.99999999999955
 31
0.0
1001
ACDBBLOCKREPETAG
1070
     1
1071
       10
1005
122820
  0
LINE
  5
122821
  8
OBJECT
 10
1920.0
 20
-777.99999999999955
 30
0.0
 11
1920.0
 21
-789.99999999999955
 31
0.0
1001
ACDBBLOCKREPETAG
1070
     1
1071
       11
1005
122821
  0
LINE
  5
122822
  8
OBJECT
 10
1920.0
 20
-789.99999999999955
 30
0.0
 11
2080.0
 21
-789.99999999999955
 31
0.0
1001
ACDBBLOCKREPETAG
1070
     1
1071
       12
1005
122822
  0
LINE
  5
122823
  8
OBJECT
 10
2080.0
 20
-789.99999999999955
 30
0.0
 11
2080.0
 21
-777.99999999999955
 31
0.0
1001
ACDBBLOCKREPETAG
1070
     1
1071
       13
1005
122823
  0
LINE
  5
122824
  8
OBJECT
 10
2074.9999999998622
 20
-657.99999999985039
 30
0.0
 11
2075.0
 21
-777.99999999999955
 31
0.0
1001
ACDBBLOCKREPETAG
1070
     1
1071
       15
1005
122824
  0
LINE
  5
122825
  8
OBJECT
 10
2074.9999908029849
 20
-657.99998602702135
 30
0.0
 11
2080.0
 21
-657.99998602702135
 31
0.0
1001
ACDBBLOCKREPETAG
1070
     1
1071
       16
1005
122825
  0
ARC
  5
122826
  8
OBJECT
 10
2200.6872746716731
 20
-649.40809941010718
 30
0.0
 40
170.6350503965856
 50
137.44134459184301
 51
149.91949581336559
1001
ACDBBLOCKREPETAG
1070
     1
1071
       17
1005
122826
  0
ARC
  5
122827
  8
OBJECT
 10
2118.8455987040511
 20
-605.88272669536445
 30
0.0
 40
78.072222021763665
 50
147.4551531038623
 51
164.6636599771798
1001
ACDBBLOCKREPETAG
1070
     1
1071
       18
1005
122827
  0
ARC
  5
122828
  8
OBJECT
 10
2085.7554349608731
 20
-595.99999999999955
 30
0.0
 40
43.55353926885617
 50
165.6884523007466
 51
194.3115476992534
1001
ACDBBLOCKREPETAG
1070
     1
1071
       19
1005
122828
  0
ARC
  5
122829
  8
OBJECT
 10
2200.6872746716731
 20
-542.59190058989179
 30
0.0
 40
170.6350503965856
 50
210.0805041866343
 51
222.55865540815699
1001
ACDBBLOCKREPETAG
1070
     1
1071
       20
1005
122829
  0
ARC
  5
12282A
  8
OBJECT
 10
2118.8455987040511
 20
-586.11727330463452
 30
0.0
 40
78.072222021763665
 50
195.3363400228202
 51
212.5448468961377
1001
ACDBBLOCKREPETAG
1070
     1
1071
       21
1005
12282A
  0
POINT
  5
12282B
  8
DOTS
 10
2000.0
 20
-654.99999999999966
 30
0.0
1001
ACDBBLOCKREPETAG
1070
     1
1071
      187
1005
12282B
  0
LINE
  5
12282C
  8
OBJECT
 10
3930.0
 20
-1099.999999999997
 30
0.0
 11
4070.0
 21
-1099.999999999997
 31
0.0
1001
ACDBBLOCKREPETAG
1070
     1
1071
        0
1005
12282C
  0
LINE
  5
12282D
  8
OBJECT
 10
3930.0
 20
-1099.999999999997
 30
0.0
 11
3930.0
 21
-859.99999999999693
 31
0.0
1001
ACDBBLOCKREPETAG
1070
     1
1071
        1
1005
12282D
  0
LINE
  5
12282E
  8
OBJECT
 10
4070.0
 20
-1099.999999999997
 30
0.0
 11
4070.0
 21
-859.99999999999693
 31
0.0
1001
ACDBBLOCKREPETAG
1070
     1
1071
        2
1005
12282E
  0
LINE
  5
12282F
  8
OBJECT
 10
3930.0
 20
-859.99999999999693
 30
0.0
 11
4070.0
 21
-859.99999999999693
 31
0.0
1001
ACDBBLOCKREPETAG
1070
     1
1071
        3
1005
12282F
  0
LINE
  5
122830
  8
HIDDEN
 10
3937.5
 20
-859.99999999999693
 30
0.0
 11
3937.5
 21
-1099.999999999997
 31
0.0
1001
ACDBBLOCKREPETAG
1070
     1
1071
        4
1005
122830
  0
LINE
  5
122831
  8
HIDDEN
 10
4062.5
 20
-859.99999999999693
 30
0.0
 11
4062.5
 21
-1099.999999999997
 31
0.0
1001
ACDBBLOCKREPETAG
1070
     1
1071
        5
1005
122831
  0
LINE
  5
122832
  8
CENTER
 10
4000.0
 20
-789.99999999999875
 30
0.0
 11
4000.0
 21
-1114.999999999997
 31
0.0
1001
ACDBBLOCKREPETAG
1070
     1
1071
        6
1005
122832
  0
LINE
  5
122833
  8
OBJECT
 10
3925.0
 20
-789.99999999999875
 30
0.0
 11
3925.0
 21
-819.99999999999693
 31
0.0
1001
ACDBBLOCKREPETAG
1070
     1
1071
        7
1005
122833
  0
LINE
  5
122834
  8
OBJECT
 10
4075.0000000000032
 20
-789.99999999999875
 30
0.0
 11
4075.0
 21
-819.99999999999693
 31
0.0
1001
ACDBBLOCKREPETAG
1070
     1
1071
        8
1005
122834
  0
LINE
  5
122835
  8
OBJECT
 10
3925.0
 20
-819.99999999999693
 30
0.0
 11
4075.0
 21
-819.99999999999693
 31
0.0
1001
ACDBBLOCKREPETAG
1070
     1
1071
        9
1005
122835
  0
LINE
  5
122836
  8
OBJECT
 10
3925.0
 20
-819.99999999999693
 30
0.0
 11
3930.0
 21
-859.99999999999693
 31
0.0
1001
ACDBBLOCKREPETAG
1070
     1
1071
       10
1005
122836
  0
LINE
  5
122837
  8
OBJECT
 10
4070.0
 20
-859.99999999999693
 30
0.0
 11
4075.0
 21
-819.99999999999693
 31
0.0
1001
ACDBBLOCKREPETAG
1070
     1
1071
       11
1005
122837
  0
LINE
  5
122838
  8
OBJECT
 10
1930.0
 20
-1099.999999999997
 30
0.0
 11
2070.0
 21
-1099.999999999997
 31
0.0
1001
ACDBBLOCKREPETAG
1070
     1
1071
        0
1005
122838
  0
LINE
  5
122839
  8
OBJECT
 10
1930.0
 20
-1099.999999999997
 30
0.0
 11
1930.0
 21
-859.99999999999784
 31
0.0
1001
ACDBBLOCKREPETAG
1070
     1
1071
        1
1005
122839
  0
LINE
  5
12283A
  8
OBJECT
 10
2070.0
 20
-1099.999999999997
 30
0.0
 11
2070.0
 21
-859.99999999999784
 31
0.0
1001
ACDBBLOCKREPETAG
1070
     1
1071
        2
1005
12283A
  0
LINE
  5
12283B
  8
OBJECT
 10
1930.0
 20
-859.99999999999784
 30
0.0
 11
2070.0
 21
-859.99999999999784
 31
0.0
1001
ACDBBLOCKREPETAG
1070
     1
1071
        3
1005
12283B
  0
LINE
  5
12283C
  8
HIDDEN
 10
1937.5
 20
-859.99999999999784
 30
0.0
 11
1937.5
 21
-1099.999999999997
 31
0.0
1001
ACDBBLOCKREPETAG
1070
     1
1071
        4
1005
12283C
  0
LINE
  5
12283D
  8
HIDDEN
 10
2062.5
 20
-859.99999999999784
 30
0.0
 11
2062.5
 21
-1099.999999999997
 31
0.0
1001
ACDBBLOCKREPETAG
1070
     1
1071
        5
1005
12283D
  0
LINE
  5
12283E
  8
CENTER
 10
2000.0
 20
-789.99999999999955
 30
0.0
 11
2000.0
 21
-1114.999999999997
 31
0.0
1001
ACDBBLOCKREPETAG
1070
     1
1071
        6
1005
12283E
  0
LINE
  5
12283F
  8
OBJECT
 10
1925.0
 20
-789.99999999999955
 30
0.0
 11
1925.0
 21
-819.99999999999773
 31
0.0
1001
ACDBBLOCKREPETAG
1070
     1
1071
        7
1005
12283F
  0
LINE
  5
122840
  8
OBJECT
 10
2075.0000000000041
 20
-789.99999999999955
 30
0.0
 11
2075.0
 21
-819.99999999999773
 31
0.0
1001
ACDBBLOCKREPETAG
1070
     1
1071
        8
1005
122840
  0
LINE
  5
122841
  8
OBJECT
 10
1925.0
 20
-819.99999999999773
 30
0.0
 11
2075.0
 21
-819.99999999999773
 31
0.0
1001
ACDBBLOCKREPETAG
1070
     1
1071
        9
1005
122841
  0
LINE
  5
122842
  8
OBJECT
 10
1925.0
 20
-819.99999999999773
 30
0.0
 11
1930.0
 21
-859.99999999999784
 31
0.0
1001
ACDBBLOCKREPETAG
1070
     1
1071
       10
1005
122842
  0
LINE
  5
122843
  8
OBJECT
 10
2070.0
 20
-859.99999999999784
 30
0.0
 11
2075.0
 21
-819.99999999999773
 31
0.0
1001
ACDBBLOCKREPETAG
1070
     1
1071
       11
1005
122843
  0
LINE
  5
122844
  8
OBJECT
 10
2114.0
 20
-488.0
 30
0.0
 11
2114.0
 21
-486.0
 31
0.0
1001
ACDBBLOCKREPETAG
1070
     1
1071
      157
1005
122844
  0
ARC
  5
122845
  8
OBJECT
 10
2155.1865574982548
 20
-506.0
 30
0.0
 40
59.0
 50
229.20276883323919
 51
270.0
1001
ACDBBLOCKREPETAG
1070
     1
1071
      158
1005
122845
  0
LINE
  5
122846
  8
OBJECT
 10
2224.0
 20
-494.5
 30
0.0
 11
2089.0
 21
-494.5
 31
0.0
1001
ACDBBLOCKREPETAG
1070
     1
1071
      159
1005
122846
  0
LINE
  5
122847
  8
OBJECT
 10
2089.0
 20
-507.5
 30
0.0
 11
2224.0
 21
-507.5
 31
0.0
1001
ACDBBLOCKREPETAG
1070
     1
1071
      160
1005
122847
  0
LINE
  5
122848
  8
OBJECT
 10
2089.0
 20
-494.5
 30
0.0
 11
2089.0
 21
-507.5
 31
0.0
1001
ACDBBLOCKREPETAG
1070
     1
1071
      161
1005
122848
  0
LINE
  5
122849
  8
OBJECT
 10
2096.0
 20
-516.5
 30
0.0
 11
2096.0
 21
-507.5
 31
0.0
1001
ACDBBLOCKREPETAG
1070
     1
1071
      162
1005
122849
  0
LINE
  5
12284A
  8
OBJECT
 10
2114.0
 20
-520.0
 30
0.0
 11
2114.0
 21
-507.5
 31
0.0
1001
ACDBBLOCKREPETAG
1070
     1
1071
      163
1005
12284A
  0
LINE
  5
12284B
  8
OBJECT
 10
2204.0
 20
-516.5
 30
0.0
 11
2204.0
 21
-507.5
 31
0.0
1001
ACDBBLOCKREPETAG
1070
     1
1071
      164
1005
12284B
  0
LINE
  5
12284C
  8
OBJECT
 10
2224.0
 20
-494.5
 30
0.0
 11
2224.0
 21
-507.5
 31
0.0
1001
ACDBBLOCKREPETAG
1070
     1
1071
      165
1005
12284C
  0
LINE
  5
12284D
  8
OBJECT
 10
2122.0
 20
-520.0
 30
0.0
 11
2122.0
 21
-507.5
 31
0.0
1001
ACDBBLOCKREPETAG
1070
     1
1071
      166
1005
12284D
  0
LINE
  5
12284E
  8
OBJECT
 10
2114.0
 20
-516.5
 30
0.0
 11
2095.0
 21
-516.5
 31
0.0
1001
ACDBBLOCKREPETAG
1070
     1
1071
      167
1005
12284E
  0
LINE
  5
12284F
  8
OBJECT
 10
2095.0
 20
-520.0
 30
0.0
 11
2095.0
 21
-516.5
 31
0.0
1001
ACDBBLOCKREPETAG
1070
     1
1071
      168
1005
12284F
  0
LINE
  5
122850
  8
OBJECT
 10
2122.0
 20
-516.5
 30
0.0
 11
2205.0
 21
-516.5
 31
0.0
1001
ACDBBLOCKREPETAG
1070
     1
1071
      169
1005
122850
  0
LINE
  5
122851
  8
OBJECT
 10
2205.0
 20
-516.5
 30
0.0
 11
2205.0
 21
-520.0
 31
0.0
1001
ACDBBLOCKREPETAG
1070
     1
1071
      170
1005
122851
  0
LINE
  5
122852
  8
OBJECT
 10
2110.494446500536
 20
-494.5
 30
0.0
 11
2110.494446500536
 21
-488.0
 31
0.0
1001
ACDBBLOCKREPETAG
1070
     1
1071
      171
1005
122852
  0
LINE
  5
122853
  8
OBJECT
 10
2109.0
 20
-533.0
 30
0.0
 11
2109.0
 21
-538.0
 31
0.0
1001
ACDBBLOCKREPETAG
1070
     1
1071
      172
1005
122853
  0
LINE
  5
122854
  8
OBJECT
 10
2109.0
 20
-538.0
 30
0.0
 11
2127.0
 21
-538.0
 31
0.0
1001
ACDBBLOCKREPETAG
1070
     1
1071
      173
1005
122854
  0
LINE
  5
122855
  8
OBJECT
 10
2127.0
 20
-533.0
 30
0.0
 11
2127.0
 21
-538.0
 31
0.0
1001
ACDBBLOCKREPETAG
1070
     1
1071
      174
1005
122855
  0
LINE
  5
122856
  8
OBJECT
 10
2089.0000000000032
 20
-520.0
 30
0.0
 11
2224.0
 21
-520.0
 31
0.0
1001
ACDBBLOCKREPETAG
1070
     1
1071
      175
1005
122856
  0
LINE
  5
122857
  8
OBJECT
 10
2224.0
 20
-520.0
 30
0.0
 11
2224.0
 21
-533.0
 31
0.0
1001
ACDBBLOCKREPETAG
1070
     1
1071
      176
1005
122857
  0
LINE
  5
122858
  8
OBJECT
 10
2116.636900244765
 20
-550.6645712577473
 30
0.0
 11
2096.170298
 21
-533.0
 31
0.0
1001
ACDBBLOCKREPETAG
1070
     1
1071
      177
1005
122858
  0
LINE
  5
122859
  8
OBJECT
 10
2201.0000000000041
 20
-540.65708264965724
 30
0.0
 11
2201.0000000000041
 21
-565.0
 31
0.0
1001
ACDBBLOCKREPETAG
1070
     1
1071
      178
1005
122859
  0
LINE
  5
12285A
  8
OBJECT
 10
2155.1865574982548
 20
-565.0
 30
0.0
 11
2201.0000000000041
 21
-565.0
 31
0.0
1001
ACDBBLOCKREPETAG
1070
     1
1071
      179
1005
12285A
  0
ARC
  5
12285B
  8
OBJECT
 10
2110.5
 20
-566.5
 30
0.0
 40
84.0
 50
277.05348487097029
 51
1.023193303671255
1001
ACDBBLOCKREPETAG
1070
     1
1071
      180
1005
12285B
  0
LINE
  5
12285C
  8
OBJECT
 10
2086.0
 20
-654.1720031702107
 30
0.0
 11
2120.8148488128832
 21
-649.86428428270381
 31
0.0
1001
ACDBBLOCKREPETAG
1070
     1
1071
      181
1005
12285C
  0
LINE
  5
12285D
  8
OBJECT
 10
2086.0000000000041
 20
-655.00000000000068
 30
0.0
 11
2086.0000000000041
 21
-534.0
 31
0.0
1001
ACDBBLOCKREPETAG
1070
     1
1071
      182
1005
12285D
  0
ARC
  5
12285E
  8
OBJECT
 10
2083.0000000000041
 20
-655.00000000000068
 30
0.0
 40
3.0
 50
270.0
 51
0.0
1001
ACDBBLOCKREPETAG
1070
     1
1071
      183
1005
12285E
  0
LINE
  5
12285F
  8
OBJECT
 10
2096.170298
 20
-533.0
 30
0.0
 11
2224.0
 21
-533.0
 31
0.0
1001
ACDBBLOCKREPETAG
1070
     1
1071
      184
1005
12285F
  0
LINE
  5
122860
  8
OBJECT
 10
2105.0539138517229
 20
-540.65708264965724
 30
0.0
 11
2201.0000000000041
 21
-540.65708264965724
 31
0.0
1001
ACDBBLOCKREPETAG
1070
     1
1071
      185
1005
122860
  0
LINE
  5
122861
  8
OBJECT
 10
2205.0
 20
-535.89006764214901
 30
0.0
 11
2201.0000000000041
 21
-540.65708264965724
 31
0.0
1001
ACDBBLOCKREPETAG
1070
     1
1071
      186
1005
122861
  0
LINE
  5
122862
  8
OBJECT
 10
2089.0000000000032
 20
-520.0
 30
0.0
 11
2089.0000000000068
 21
-534.0
 31
0.0
1001
ACDBBLOCKREPETAG
1070
     1
1071
      187
1005
122862
  0
LINE
  5
122863
  8
HIDDEN
 10
2105.5
 20
-560.0
 30
0.0
 11
2194.5
 21
-560.0
 31
0.0
1001
ACDBBLOCKREPETAG
1070
     1
1071
      188
1005
122863
  0
LINE
  5
122864
  8
OBJECT
 10
2114.0
 20
-486.0
 30
0.0
 11
2122.0
 21
-486.0
 31
0.0
1001
ACDBBLOCKREPETAG
1070
     1
1071
      189
1005
122864
  0
LINE
  5
122865
  8
OBJECT
 10
2122.0
 20
-488.0
 30
0.0
 11
2122.0
 21
-486.0
 31
0.0
1001
ACDBBLOCKREPETAG
1070
     1
1071
      190
1005
122865
  0
LINE
  5
122866
  8
OBJECT
 10
2110.494446500536
 20
-488.0
 30
0.0
 11
2125.5055534994649
 21
-488.0
 31
0.0
1001
ACDBBLOCKREPETAG
1070
     1
1071
      191
1005
122866
  0
LINE
  5
122867
  8
CENTER
 10
2150.0
 20
-579.77158855533253
 30
0.0
 11
2150.0
 21
-479.49999999999989
 31
0.0
1001
ACDBBLOCKREPETAG
1070
     1
1071
      193
1005
122867
  0
LINE
  5
122868
  8
OBJECT
 10
2080.0
 20
-658.0
 30
0.0
 11
2083.0000000000041
 21
-658.0000000000008
 31
0.0
1001
ACDBBLOCKREPETAG
1070
     1
1071
      194
1005
122868
  0
LINE
  5
122869
  8
OBJECT
 10
2080.0
 20
-534.0
 30
0.0
 11
2089.0000000000068
 21
-534.0
 31
0.0
1001
ACDBBLOCKREPETAG
1070
     1
1071
      195
1005
122869
  0
LINE
  5
12286A
  8
OBJECT
 10
2114.247196978396
 20
-494.49998110541122
 30
0.0
 11
2114.247196978396
 21
-487.99998110541122
 31
0.0
1001
ACDBBLOCKREPETAG
1070
     1
1071
      196
1005
12286A
  0
LINE
  5
12286B
  8
OBJECT
 10
2125.5055534994649
 20
-494.5
 30
0.0
 11
2125.5055534994649
 21
-488.0
 31
0.0
1001
ACDBBLOCKREPETAG
1070
     1
1071
      197
1005
12286B
  0
LINE
  5
12286C
  8
OBJECT
 10
2121.7528030216049
 20
-494.49998110541122
 30
0.0
 11
2121.7528030216049
 21
-487.99998110541122
 31
0.0
1001
ACDBBLOCKREPETAG
1070
     1
1071
      198
1005
12286C
  0
LINE
  5
12286D
  8
OBJECT
 10
2210.0
 20
-488.0
 30
0.0
 11
2210.0
 21
-486.0
 31
0.0
1001
ACDBBLOCKREPETAG
1070
     1
1071
      199
1005
12286D
  0
LINE
  5
12286E
  8
OBJECT
 10
2210.0
 20
-520.0
 30
0.0
 11
2210.0
 21
-507.5
 31
0.0
1001
ACDBBLOCKREPETAG
1070
     1
1071
      200
1005
12286E
  0
LINE
  5
12286F
  8
OBJECT
 10
2218.0
 20
-520.0
 30
0.0
 11
2218.0
 21
-507.5
 31
0.0
1001
ACDBBLOCKREPETAG
1070
     1
1071
      201
1005
12286F
  0
LINE
  5
122870
  8
OBJECT
 10
2206.494446500536
 20
-494.5
 30
0.0
 11
2206.494446500536
 21
-488.0
 31
0.0
1001
ACDBBLOCKREPETAG
1070
     1
1071
      202
1005
122870
  0
LINE
  5
122871
  8
OBJECT
 10
2205.0
 20
-533.0
 30
0.0
 11
2205.0
 21
-538.0
 31
0.0
1001
ACDBBLOCKREPETAG
1070
     1
1071
      203
1005
122871
  0
LINE
  5
122872
  8
OBJECT
 10
2205.0
 20
-538.0
 30
0.0
 11
2223.0
 21
-538.0
 31
0.0
1001
ACDBBLOCKREPETAG
1070
     1
1071
      204
1005
122872
  0
LINE
  5
122873
  8
OBJECT
 10
2223.0
 20
-533.0
 30
0.0
 11
2223.0
 21
-538.0
 31
0.0
1001
ACDBBLOCKREPETAG
1070
     1
1071
      205
1005
122873
  0
LINE
  5
122874
  8
OBJECT
 10
2210.0
 20
-486.0
 30
0.0
 11
2218.0
 21
-486.0
 31
0.0
1001
ACDBBLOCKREPETAG
1070
     1
1071
      206
1005
122874
  0
LINE
  5
122875
  8
OBJECT
 10
2218.0
 20
-488.0
 30
0.0
 11
2218.0
 21
-486.0
 31
0.0
1001
ACDBBLOCKREPETAG
1070
     1
1071
      207
1005
122875
  0
LINE
  5
122876
  8
OBJECT
 10
2206.494446500536
 20
-488.0
 30
0.0
 11
2221.505553499464
 21
-488.0
 31
0.0
1001
ACDBBLOCKREPETAG
1070
     1
1071
      208
1005
122876
  0
LINE
  5
122877
  8
OBJECT
 10
2210.247196978396
 20
-494.49998110541122
 30
0.0
 11
2210.247196978396
 21
-487.99998110541122
 31
0.0
1001
ACDBBLOCKREPETAG
1070
     1
1071
      209
1005
122877
  0
LINE
  5
122878
  8
OBJECT
 10
2221.505553499464
 20
-494.5
 30
0.0
 11
2221.505553499464
 21
-488.0
 31
0.0
1001
ACDBBLOCKREPETAG
1070
     1
1071
      210
1005
122878
  0
LINE
  5
122879
  8
OBJECT
 10
2217.7528030216049
 20
-494.49998110541122
 30
0.0
 11
2217.7528030216049
 21
-487.99998110541122
 31
0.0
1001
ACDBBLOCKREPETAG
1070
     1
1071
      211
1005
122879
  0
LINE
  5
12287A
  8
CENTER
 10
2080.0
 20
-199.99999999999909
 30
0.0
 11
2239.0
 21
-199.99999999999909
 31
0.0
1001
ACDBBLOCKREPETAG
1070
     1
1071
      155
1005
12287A
  0
LINE
  5
12287B
  8
OBJECT
 10
2080.0
 20
-261.99999999999909
 30
0.0
 11
2083.0
 21
-261.99999999999909
 31
0.0
1001
ACDBBLOCKREPETAG
1070
     1
1071
      156
1005
12287B
  0
ARC
  5
12287C
  8
OBJECT
 10
2083.0
 20
-258.99999999999909
 30
0.0
 40
3.0
 50
270.0
 51
0.0
1001
ACDBBLOCKREPETAG
1070
     1
1071
      157
1005
12287C
  0
LINE
  5
12287D
  8
OBJECT
 10
2080.0
 20
-138.0000000000027
 30
0.0
 11
2083.0
 21
-138.0000000000027
 31
0.0
1001
ACDBBLOCKREPETAG
1070
     1
1071
      158
1005
12287D
  0
LINE
  5
12287E
  8
OBJECT
 10
2086.0
 20
-140.99999999999909
 30
0.0
 11
2108.6547275935341
 21
-140.9999999999954
 31
0.0
1001
ACDBBLOCKREPETAG
1070
     1
1071
      159
1005
12287E
  0
LINE
  5
12287F
  8
OBJECT
 10
2086.0
 20
-259.00000000000267
 30
0.0
 11
2108.6547275935341
 21
-258.99999999999909
 31
0.0
1001
ACDBBLOCKREPETAG
1070
     1
1071
      160
1005
12287F
  0
LINE
  5
122880
  8
CENTER
 10
2150.0
 20
-123.5195984073716
 30
0.0
 11
2150.0
 21
-276.48040159262649
 31
0.0
1001
ACDBBLOCKREPETAG
1070
     1
1071
      161
1005
122880
  0
LINE
  5
122881
  8
OBJECT
 10
2086.0
 20
-141.0000000000027
 30
0.0
 11
2086.0
 21
-258.99999999999909
 31
0.0
1001
ACDBBLOCKREPETAG
1070
     1
1071
      162
1005
122881
  0
ARC
  5
122882
  8
OBJECT
 10
2083.0
 20
-141.0000000000027
 30
0.0
 40
3.0
 50
0.0
 51
90.0
1001
ACDBBLOCKREPETAG
1070
     1
1071
      163
1005
122882
  0
ARC
  5
122883
  8
OBJECT
 10
2150.0
 20
-199.99999999999909
 30
0.0
 40
61.0
 50
37.167285461274467
 51
82.832714538705744
1001
ACDBBLOCKREPETAG
1070
     1
1071
      165
1005
122883
  0
ARC
  5
122884
  8
OBJECT
 10
2150.0
 20
-199.99999999999909
 30
0.0
 40
61.0
 50
157.16728546126831
 51
202.83271453873161
1001
ACDBBLOCKREPETAG
1070
     1
1071
      166
1005
122884
  0
ARC
  5
122885
  8
OBJECT
 10
2150.0
 20
-199.99999999999909
 30
0.0
 40
61.0
 50
277.16728546129423
 51
322.83271453872419
1001
ACDBBLOCKREPETAG
1070
     1
1071
      167
1005
122885
  0
CIRCLE
  5
122886
  8
SLIM
 10
2214.0
 20
-199.99999999999909
 30
0.0
 40
4.0
1001
ACDBBLOCKREPETAG
1070
     1
1071
      168
1005
122886
  0
ARC
  5
122887
  8
OBJECT
 10
2214.0
 20
-199.99999999999909
 30
0.0
 40
10.0
 50
322.83271453872419
 51
37.167285461274467
1001
ACDBBLOCKREPETAG
1070
     1
1071
      169
1005
122887
  0
LINE
  5
122888
  8
OBJECT
 10
2198.6093749999959
 20
-163.14720279124501
 30
0.0
 11
2221.96875
 21
-193.9585578346296
 31
0.0
1001
ACDBBLOCKREPETAG
1070
     1
1071
      170
1005
122888
  0
LINE
  5
122889
  8
OBJECT
 10
2198.6093749999959
 20
-236.8527972087532
 30
0.0
 11
2221.96875
 21
-206.04144216536861
 31
0.0
1001
ACDBBLOCKREPETAG
1070
     1
1071
      171
1005
122889
  0
CIRCLE
  5
12288A
  8
SLIM
 10
2118.0
 20
-144.5743741577962
 30
0.0
 40
3.9999999999999991
1001
ACDBBLOCKREPETAG
1070
     1
1071
      172
1005
12288A
  0
ARC
  5
12288B
  8
OBJECT
 10
2118.0
 20
-144.5743741577962
 30
0.0
 40
9.9999999999999982
 50
82.832714538705744
 51
157.16728546126831
1001
ACDBBLOCKREPETAG
1070
     1
1071
      173
1005
12288B
  0
LINE
  5
12288C
  8
OBJECT
 10
2093.7798539167052
 20
-176.32944499229319
 30
0.0
 11
2108.783582609296
 21
-140.6939553040711
 31
0.0
1001
ACDBBLOCKREPETAG
1070
     1
1071
      174
1005
12288C
  0
LINE
  5
12288D
  8
OBJECT
 10
2157.6107710832989
 20
-139.47664778353919
 30
0.0
 11
2119.247667390704
 21
-134.65251313870161
 31
0.0
1001
ACDBBLOCKREPETAG
1070
     1
1071
      175
1005
12288D
  0
CIRCLE
  5
12288E
  8
SLIM
 10
2118.0
 20
-255.4256258422019
 30
0.0
 40
4.0
1001
ACDBBLOCKREPETAG
1070
     1
1071
      176
1005
12288E
  0
ARC
  5
12288F
  8
OBJECT
 10
2118.0
 20
-255.4256258422019
 30
0.0
 40
10.0
 50
202.83271453873161
 51
277.16728546129423
1001
ACDBBLOCKREPETAG
1070
     1
1071
      177
1005
12288F
  0
LINE
  5
122890
  8
OBJECT
 10
2157.6107710832989
 20
-260.52335221645899
 30
0.0
 11
2119.247667390704
 21
-265.3474868612966
 31
0.0
1001
ACDBBLOCKREPETAG
1070
     1
1071
      178
1005
122890
  0
LINE
  5
122891
  8
OBJECT
 10
2093.7798539167052
 20
-223.67055500770491
 30
0.0
 11
2108.783582609296
 21
-259.30604469592708
 31
0.0
1001
ACDBBLOCKREPETAG
1070
     1
1071
      179
1005
122891
  0
CIRCLE
  5
122892
  8
OBJECT
 10
2150.0
 20
-199.99999999999909
 30
0.0
 40
46.0
1001
ACDBBLOCKREPETAG
1070
     1
1071
      180
1005
122892
  0
POLYLINE
  5
122893
  8
SLIM
 66
     1
 10
0.0
 20
0.0
 30
0.0
 70
     1
1001
ACDBBLOCKREPETAG
1070
     1
1071
      181
1005
122893
  0
VERTEX
  5
1229F8
  8
SLIM
 10
2210.247223250266
 20
-193.49999999999909
 30
0.0
  0
VERTEX
  5
1229F9
  8
SLIM
 10
2206.494446500536
 20
-199.99999999999909
 30
0.0
  0
VERTEX
  5
1229FA
  8
SLIM
 10
2210.247223250266
 20
-206.49999999999909
 30
0.0
  0
VERTEX
  5
1229FB
  8
SLIM
 10
2217.752776749734
 20
-206.49999999999909
 30
0.0
  0
VERTEX
  5
1229FC
  8
SLIM
 10
2221.505553499464
 20
-199.99999999999909
 30
0.0
  0
VERTEX
  5
1229FD
  8
SLIM
 10
2217.752776749734
 20
-193.49999999999909
 30
0.0
  0
SEQEND
  5
1229FE
  8
SLIM
  0
POLYLINE
  5
122894
  8
SLIM
 66
     1
 10
0.0
 20
0.0
 30
0.0
 70
     1
1001
ACDBBLOCKREPETAG
1070
     1
1071
      182
1005
122894
  0
VERTEX
  5
1229FF
  8
SLIM
 10
2114.2472232502701
 20
-151.0743741577962
 30
0.0
  0
VERTEX
  5
122A00
  8
SLIM
 10
2121.752776749734
 20
-151.0743741577962
 30
0.0
  0
VERTEX
  5
122A01
  8
SLIM
 10
2125.5055534994649
 20
-144.5743741577962
 30
0.0
  0
VERTEX
  5
122A02
  8
SLIM
 10
2121.7527767497309
 20
-138.07437415779259
 30
0.0
  0
VERTEX
  5
122A03
  8
SLIM
 10
2114.2472232502701
 20
-138.0743741577962
 30
0.0
  0
VERTEX
  5
122A04
  8
SLIM
 10
2110.494446500536
 20
-144.57437415779259
 30
0.0
  0
SEQEND
  5
122A05
  8
SLIM
  0
POLYLINE
  5
122895
  8
SLIM
 66
     1
 10
0.0
 20
0.0
 30
0.0
 70
     1
1001
ACDBBLOCKREPETAG
1070
     1
1071
      183
1005
122895
  0
VERTEX
  5
122A06
  8
SLIM
 10
2125.5055534994649
 20
-255.4256258422019
 30
0.0
  0
VERTEX
  5
122A07
  8
SLIM
 10
2121.7527767497309
 20
-248.9256258422019
 30
0.0
  0
VERTEX
  5
122A08
  8
SLIM
 10
2114.2472232502701
 20
-248.9256258422019
 30
0.0
  0
VERTEX
  5
122A09
  8
SLIM
 10
2110.494446500536
 20
-255.42562584220559
 30
0.0
  0
VERTEX
  5
122A0A
  8
SLIM
 10
2114.247223250266
 20
-261.9256258422019
 30
0.0
  0
VERTEX
  5
122A0B
  8
SLIM
 10
2121.7527767497309
 20
-261.92562584220559
 30
0.0
  0
SEQEND
  5
122A0C
  8
SLIM
  0
TEXT
  5
122896
  8
SLIM
 10
3741.6250000000009
 20
-1367.499999999997
 30
0.0
 40
35.0
  1
片受けスタイル（S）＋シンドカット
 41
0.75
  0
TEXT
  5
122897
  8
SLIM
 10
1856.25
 20
-1367.499999999998
 30
0.0
 40
35.0
  1
片受けスタイル（S）
 41
0.75
  0
TEXT
  5
122898
  8
SLIM
 10
0.0
 20
369.99999999999989
 30
0.0
 40
100.0
  1
4SRT-U7-S
 41
0.75
  0
VIEWPORT
  5
F6BA7
 67
     1
  8
0
 10
145.33033752441401
 20
101.8328354358673
 30
0.0
 40
334.0025019414623
 41
222.19657968139651
 68
     1
 69
     1
1001
ACAD
1000
MVIEW
1002
{
1070
    16
1010
0.0
1020
0.0
1030
0.0
1010
0.0
1020
0.0
1030
1.0
1040
0.0
1040
222.19657968139651
1040
145.33033752441401
1040
101.8328354358673
1040
50.0
1040
0.0
1040
0.0
1070
     0
1070
     0
1070
     1
1070
     1
1070
     0
1070
     0
1070
     0
1070
     0
1040
0.0
1040
0.0
1040
0.0
1040
10.0
1040
10.0
1040
10.0
1040
10.0
1070
     0
1002
{
1002
}
1002
}
  0
VIEWPORT
  5
F6BA9
 67
     1
  8
OBJECT
 10
145.3303314447403
 20
101.8328338861465
 30
0.0
 40
232.5285303115844
 41
162.93253421783439
 68
     2
 69
     2
1001
ACAD
1000
MVIEW
1002
{
1070
    16
1010
0.0
1020
0.0
1030
0.0
1010
0.0
1020
0.0
1030
1.0
1040
0.0
1040
25942.55904403147
1040
2377.604457077377
1040
-7591.5176687056619
1040
50.0
1040
0.0
1040
0.0
1070
     0
1070
   600
1070
     1
1070
     1
1070
     0
1070
     0
1070
     0
1070
     0
1040
0.0
1040
0.0
1040
0.0
1040
1.0
1040
1.0
1040
0.0
1040
0.0
1070
     0
1002
{
1002
}
1002
}
  0
ENDSEC
  0
EOF
