  0
SECTION
  2
HEADER
  9
$ACADVER
  1
AC1009
  9
$INSBASE
 10
0.0
 20
0.0
 30
0.0
  9
$EXTMIN
 10
0.0
 20
-3817.4999999999959
 30
0.0
  9
$EXTMAX
 10
5575.0
 20
607.5
 30
0.0
  9
$LIMMIN
 10
0.0
 20
0.0
  9
$LIMMAX
 10
210.0
 20
297.0
  9
$ORTHOMODE
 70
     0
  9
$REGENMODE
 70
     1
  9
$FILLMODE
 70
     1
  9
$QTEXTMODE
 70
     0
  9
$MIRRTEXT
 70
     0
  9
$DRAGMODE
 70
     2
  9
$LTSCALE
 40
1.0
  9
$OSMODE
 70
    37
  9
$ATTMODE
 70
     1
  9
$TEXTSIZE
 40
4.0
  9
$TRACEWID
 40
0.05
  9
$TEXTSTYLE
  7
STANDARD
  9
$CLAYER
  8
OBJECT
  9
$CELTYPE
  6
BYLAYER
  9
$CECOLOR
 62
   256
  9
$DIMSCALE
 40
10.0
  9
$DIMASZ
 40
2.0
  9
$DIMEXO
 40
1.0
  9
$DIMDLI
 40
10.0
  9
$DIMRND
 40
0.0
  9
$DIMDLE
 40
0.0
  9
$DIMEXE
 40
1.0
  9
$DIMTP
 40
0.0
  9
$DIMTM
 40
0.0
  9
$DIMTXT
 40
3.2000000000000002
  9
$DIMCEN
 40
0.0
  9
$DIMTSZ
 40
0.0
  9
$DIMTOL
 70
     0
  9
$DIMLIM
 70
     0
  9
$DIMTIH
 70
     0
  9
$DIMTOH
 70
     0
  9
$DIMSE1
 70
     0
  9
$DIMSE2
 70
     0
  9
$DIMTAD
 70
     1
  9
$DIMZIN
 70
     8
  9
$DIMBLK
  1
OPEN30
  9
$DIMASO
 70
     1
  9
$DIMSHO
 70
     1
  9
$DIMPOST
  1

  9
$DIMAPOST
  1

  9
$DIMALT
 70
     0
  9
$DIMALTD
 70
     2
  9
$DIMALTF
 40
25.399999999999999
  9
$DIMLFAC
 40
1.0
  9
$DIMTOFL
 70
     1
  9
$DIMTVP
 40
0.0
  9
$DIMTIX
 70
     0
  9
$DIMSOXD
 70
     0
  9
$DIMSAH
 70
     0
  9
$DIMBLK1
  1

  9
$DIMBLK2
  1

  9
$DIMSTYLE
  2
S10
  9
$DIMCLRD
 70
   256
  9
$DIMCLRE
 70
   256
  9
$DIMCLRT
 70
   256
  9
$DIMTFAC
 40
1.0
  9
$DIMGAP
 40
0.9
  9
$LUNITS
 70
     2
  9
$LUPREC
 70
     2
  9
$SKETCHINC
 40
0.1
  9
$FILLETRAD
 40
0.0
  9
$AUNITS
 70
     0
  9
$AUPREC
 70
     2
  9
$MENU
  1
ACAD
  9
$ELEVATION
 40
0.0
  9
$PELEVATION
 40
0.0
  9
$THICKNESS
 40
0.0
  9
$LIMCHECK
 70
     0
  9
$BLIPMODE
 70
     0
  9
$CHAMFERA
 40
2.0
  9
$CHAMFERB
 40
2.0
  9
$SKPOLY
 70
     0
  9
$TDCREATE
 40
2453095.4929404748
  9
$TDUPDATE
 40
2457603.695490486
  9
$TDINDWG
 40
18.347430601900001
  9
$TDUSRTIMER
 40
18.347429919
  9
$USRTIMER
 70
     1
  9
$ANGBASE
 50
0.0
  9
$ANGDIR
 70
     0
  9
$PDMODE
 70
    35
  9
$PDSIZE
 40
2.0
  9
$PLINEWID
 40
0.0
  9
$COORDS
 70
     1
  9
$SPLFRAME
 70
     0
  9
$SPLINETYPE
 70
     6
  9
$SPLINESEGS
 70
     8
  9
$ATTDIA
 70
     0
  9
$ATTREQ
 70
     1
  9
$HANDLING
 70
     1
  9
$HANDSEED
  5
1316F8
  9
$SURFTAB1
 70
     6
  9
$SURFTAB2
 70
     6
  9
$SURFTYPE
 70
     6
  9
$SURFU
 70
     6
  9
$SURFV
 70
     6
  9
$UCSNAME
  2

  9
$UCSORG
 10
0.0
 20
0.0
 30
0.0
  9
$UCSXDIR
 10
1.0
 20
0.0
 30
0.0
  9
$UCSYDIR
 10
0.0
 20
1.0
 30
0.0
  9
$PUCSNAME
  2

  9
$PUCSORG
 10
0.0
 20
0.0
 30
0.0
  9
$PUCSXDIR
 10
1.0
 20
0.0
 30
0.0
  9
$PUCSYDIR
 10
0.0
 20
1.0
 30
0.0
  9
$USERI1
 70
     0
  9
$USERI2
 70
     0
  9
$USERI3
 70
     0
  9
$USERI4
 70
     0
  9
$USERI5
 70
     0
  9
$USERR1
 40
0.0
  9
$USERR2
 40
0.0
  9
$USERR3
 40
0.0
  9
$USERR4
 40
0.0
  9
$USERR5
 40
0.0
  9
$WORLDVIEW
 70
     1
  9
$SHADEDGE
 70
     3
  9
$SHADEDIF
 70
    70
  9
$TILEMODE
 70
     1
  9
$MAXACTVP
 70
    64
  9
$PLIMCHECK
 70
     0
  9
$PEXTMIN
 10
29.066066288948051
 20
20.366566777229309
 30
0.0
  9
$PEXTMAX
 10
261.5945966005325
 20
183.29910099506381
 30
0.0
  9
$PLIMMIN
 10
-3.17498779296875
 20
-3.1749999523162842
  9
$PLIMMAX
 10
293.83566284179687
 20
206.8406708240509
  9
$UNITMODE
 70
     0
  9
$VISRETAIN
 70
     1
  9
$PLINEGEN
 70
     0
  9
$PSLTSCALE
 70
     1
  0
ENDSEC
  0
SECTION
  2
TABLES
  0
TABLE
  2
VPORT
 70
     1
  0
VPORT
  2
*ACTIVE
 70
     0
 10
0.0
 20
0.0
 11
1.0
 21
1.0
 12
4785.3097258787457
 22
167.8903493935322
 13
0.0
 23
0.0
 14
1.0
 24
1.0
 15
0.0
 25
0.0
 16
0.0
 26
0.0
 36
1.0
 17
0.0
 27
0.0
 37
0.0
 40
4727.0205540606958
 41
1.6494178525226391
 42
50.0
 43
0.0
 44
0.0
 50
0.0
 51
0.0
 71
     0
 72
   600
 73
     1
 74
     1
 75
     0
 76
     0
 77
     0
 78
     0
  0
ENDTAB
  0
TABLE
  2
LTYPE
 70
     4
  0
LTYPE
  2
CONTINUOUS
 70
     0
  3
Solid line
 72
    65
 73
     0
 40
0.0
  0
LTYPE
  2
PHANTOM2
 70
     0
  3
___ _ _ ___ _ _ ___ _ _ ___ _ _
 72
    65
 73
     6
 40
1.25
 49
0.625
 49
-0.125
 49
0.125
 49
-0.125
 49
0.125
 49
-0.125
  0
LTYPE
  2
ACAD_ISO08W100
 70
     0
  3
ISO long-dash short-dash ____ __ ____ __ ____ _
 72
    65
 73
     4
 40
36.0
 49
24.0
 49
-3.0
 49
6.0
 49
-3.0
  0
LTYPE
  2
ACAD_ISO02W100
 70
     0
  3
ISO dash __ __ __ __ __ __ __ __ __ __ __ __ __
 72
    65
 73
     2
 40
15.0
 49
12.0
 49
-3.0
  0
ENDTAB
  0
TABLE
  2
LAYER
 70
     8
  0
LAYER
  2
0
 70
     0
 62
     7
  6
CONTINUOUS
  0
LAYER
  2
OBJECT
 70
     0
 62
     4
  6
CONTINUOUS
  0
LAYER
  2
DEFPOINTS
 70
     0
 62
     7
  6
CONTINUOUS
  0
LAYER
  2
DIM
 70
     0
 62
     7
  6
CONTINUOUS
  0
LAYER
  2
HIDDEN
 70
     0
 62
     2
  6
ACAD_ISO02W100
  0
LAYER
  2
CENTER
 70
     0
 62
     2
  6
ACAD_ISO08W100
  0
LAYER
  2
DOTS
 70
     0
 62
     1
  6
CONTINUOUS
  0
LAYER
  2
SLIM
 70
     0
 62
     2
  6
CONTINUOUS
  0
ENDTAB
  0
TABLE
  2
STYLE
 70
     2
  0
STYLE
  2
STANDARD
 70
     0
 40
0.0
 41
0.75
 50
0.0
 71
     0
 42
4.0
  3
simplex.shx
  4
bigfont.shx
  0
ENDTAB
  0
TABLE
  2
VIEW
 70
     0
  0
ENDTAB
  0
TABLE
  2
UCS
 70
     0
  0
ENDTAB
  0
TABLE
  2
APPID
 70
    18
  0
APPID
  2
ACAD
 70
     0
  0
APPID
  2
ACADANNOTATIVE
 70
     0
  0
APPID
  2
ACAD_PSEXT
 70
     0
  0
APPID
  2
ACAD_EXEMPT_FROM_CAD_STANDARDS
 70
     0
  0
APPID
  2
ACAECLAYERSTANDARD
 70
     0
  0
APPID
  2
ACAUTHENVIRON
 70
     0
  0
APPID
  2
ACDBDYNAMICBLOCKTRUENAME
 70
     0
  0
APPID
  2
ACDBDYNAMICBLOCKGUID
 70
     0
  0
APPID
  2
ACDBBLOCKREPETAG
 70
     0
  0
APPID
  2
ACDBBLOCKREPBTAG
 70
     0
  0
APPID
  2
ACAD_NAV_VCDISPLAY
 70
     0
  0
APPID
  2
ACAD_DSTYLE_DIMRADIAL_EXTENSION
 70
     0
  0
APPID
  2
ACAD_DSTYLE_DIMJAG
 70
     0
  0
APPID
  2
ACAD_DSTYLE_DIMTALN
 70
     0
  0
APPID
  2
ACADANNOPO
 70
     0
  0
APPID
  2
GRADIENTCOLOR1ACI
 70
     0
  0
APPID
  2
GRADIENTCOLOR2ACI
 70
     0
  0
APPID
  2
ACAD_MLEADERVER
 70
     0
  0
ENDTAB
  0
TABLE
  2
DIMSTYLE
 70
     3
  0
DIMSTYLE
  2
STANDARD
 70
     0
  3

  4

  5

  6

  7

 40
1.0
 41
0.18
 42
0.0625
 43
0.38
 44
0.18
 45
0.0
 46
0.0
 47
0.0
 48
0.0
140
0.18
141
0.09
142
0.0
143
25.399999999999999
144
1.0
145
0.0
146
1.0
147
0.09
 71
     0
 72
     0
 73
     1
 74
     1
 75
     0
 76
     0
 77
     0
 78
     0
170
     0
171
     2
172
     0
173
     0
174
     0
175
     0
176
     0
177
     0
178
     0
  0
DIMSTYLE
  2
S10
 70
     0
  3

  4

  5

  6

  7

 40
10.0
 41
2.0
 42
1.0
 43
10.0
 44
1.0
 45
0.0
 46
0.0
 47
0.0
 48
0.0
140
3.2000000000000002
141
0.0
142
0.0
143
25.399999999999999
144
1.0
145
0.0
146
1.0
147
0.9
 71
     0
 72
     0
 73
     0
 74
     0
 75
     0
 76
     0
 77
     1
 78
     8
170
     0
171
     2
172
     1
173
     0
174
     0
175
     0
176
   256
177
   256
178
   256
  0
ENDTAB
  0
ENDSEC
  0
SECTION
  2
BLOCKS
  0
BLOCK
  8
0
  2
$MODEL_SPACE
 70
     0
 10
0.0
 20
0.0
 30
0.0
  3
$MODEL_SPACE
  1

  0
ENDBLK
  5
131448
  8
0
  0
BLOCK
 67
     1
  8
0
  2
$PAPER_SPACE
 70
     0
 10
0.0
 20
0.0
 30
0.0
  3
$PAPER_SPACE
  1

  0
ENDBLK
  5
131444
 67
     1
  8
0
  0
BLOCK
  8
0
  2
_OPEN30
 70
     0
 10
0.0
 20
0.0
 30
0.0
  3
_OPEN30
  1

  0
LINE
  5
202
  8
0
  6
BYBLOCK
 62
     0
 10
-1.0
 20
0.26794919
 30
0.0
 11
0.0
 21
0.0
 31
0.0
  0
LINE
  5
203
  8
0
  6
BYBLOCK
 62
     0
 10
0.0
 20
0.0
 30
0.0
 11
-1.0
 21
-0.26794919
 31
0.0
  0
LINE
  5
204
  8
0
  6
BYBLOCK
 62
     0
 10
0.0
 20
0.0
 30
0.0
 11
-1.0
 21
0.0
 31
0.0
  0
ENDBLK
  5
206
  8
0
  0
BLOCK
  8
0
  2
*U268
 70
     1
 10
0.0
 20
0.0
 30
0.0
  3
*U268
  1

  0
TEXT
  5
1313A8
  8
DIM
 10
3840.6616440113212
 20
-1042.7428571428561
 30
0.0
 40
32.0
  1
m（シンドカット）
 50
90.0
 41
0.75
  0
ENDBLK
  5
1313AA
  8
0
  0
BLOCK
  8
0
  2
*U269
 70
     1
 10
0.0
 20
0.0
 30
0.0
  3
*U269
  1

  0
TEXT
  5
1313AC
  8
SLIM
 10
258.0000000006039
 20
-702.95238095237005
 30
0.0
 40
26.0
  1
75
 50
270.0
  0
ENDBLK
  5
1313AE
  8
0
  0
BLOCK
  8
0
  2
*U270
 70
     1
 10
0.0
 20
0.0
 30
0.0
  3
*U270
  1

  0
TEXT
  5
1313B0
  8
SLIM
 10
122.5714285720324
 20
-542.00000000000682
 30
0.0
 40
26.0
  1
75Z
  0
ENDBLK
  5
1313B2
  8
0
  0
BLOCK
  8
0
  2
*U271
 70
     1
 10
0.0
 20
0.0
 30
0.0
  3
*U271
  1

  0
TEXT
  5
1313B4
  8
SLIM
 10
625.25000000068394
 20
-693.04761904760824
 30
0.0
 40
26.0
  1
100
 50
270.0
  0
ENDBLK
  5
1313B6
  8
0
  0
BLOCK
  8
0
  2
*U272
 70
     1
 10
0.0
 20
0.0
 30
0.0
  3
*U272
  1

  0
TEXT
  5
1313B8
  8
SLIM
 10
482.5714285721125
 20
-542.00000000000682
 30
0.0
 40
26.0
  1
75Z
  0
ENDBLK
  5
1313BA
  8
0
  0
BLOCK
  8
0
  2
*U273
 70
     1
 10
0.0
 20
0.0
 30
0.0
  3
*U273
  1

  0
TEXT
  5
1313BC
  8
SLIM
 10
618.00000000068394
 20
-238.9523809523628
 30
0.0
 40
26.0
  1
65
 50
270.0
  0
ENDBLK
  5
1313BE
  8
0
  0
BLOCK
  8
0
  2
*U274
 70
     1
 10
0.0
 20
0.0
 30
0.0
  3
*U274
  1

  0
TEXT
  5
1313C0
  8
SLIM
 10
482.5714285721125
 20
-77.999999999999545
 30
0.0
 40
26.0
  1
75Z
  0
ENDBLK
  5
1313C2
  8
0
  0
BLOCK
  8
0
  2
*U275
 70
     1
 10
0.0
 20
0.0
 30
0.0
  3
*U275
  1

  0
TEXT
  5
1313C4
  8
SLIM
 10
258.0000000006039
 20
-238.9523809523628
 30
0.0
 40
26.0
  1
50
 50
270.0
  0
ENDBLK
  5
1313C6
  8
0
  0
BLOCK
  8
0
  2
*U276
 70
     1
 10
0.0
 20
0.0
 30
0.0
  3
*U276
  1

  0
TEXT
  5
1313C8
  8
SLIM
 10
122.5714285720324
 20
-77.999999999999545
 30
0.0
 40
26.0
  1
75Z
  0
ENDBLK
  5
1313CA
  8
0
  0
BLOCK
  8
0
  2
*U277
 70
     1
 10
0.0
 20
0.0
 30
0.0
  3
*U277
  1

  0
TEXT
  5
1313CC
  8
DIM
 10
2209.479620594459
 20
-3304.1428571428528
 30
0.0
 40
32.0
  1
A
 50
90.0
 41
0.75
  0
ENDBLK
  5
1313CE
  8
0
  0
BLOCK
  8
0
  2
*U278
 70
     1
 10
0.0
 20
0.0
 30
0.0
  3
*U278
  1

  0
TEXT
  5
1313D0
  8
DIM
 10
2207.8409284037348
 20
-3685.9999999999959
 30
0.0
 40
32.0
  1
B
 50
90.0
 41
0.75
  0
ENDBLK
  5
1313D2
  8
0
  0
BLOCK
  8
0
  2
*U279
 70
     1
 10
0.0
 20
0.0
 30
0.0
  3
*U279
  1

  0
TEXT
  5
1313D4
  8
DIM
 10
2061.428571428572
 20
-3158.208121984444
 30
0.0
 40
32.0
  1
C
 41
0.75
  0
ENDBLK
  5
1313D6
  8
0
  0
ENDSEC
  0
SECTION
  2
ENTITIES
  0
LINE
  5
12515F
  8
OBJECT
 10
1825.0
 20
-3699.9999999999959
 30
0.0
 11
5575.0
 21
-3699.9999999999959
 31
0.0
  0
LINE
  5
125161
  8
SLIM
 10
2616.0
 20
-2757.50001604727
 30
0.0
 11
2616.0
 21
-3087.50001604727
 31
0.0
  0
LINE
  5
125162
  8
SLIM
 10
2740.0
 20
-2757.50001604727
 30
0.0
 11
2740.0
 21
-3087.50001604727
 31
0.0
  0
LINE
  5
125163
  8
SLIM
 10
2870.0
 20
-2817.50001604727
 30
0.0
 11
2870.0
 21
-3087.50001604727
 31
0.0
  0
LINE
  5
125164
  8
SLIM
 10
3000.0
 20
-2817.50001604727
 30
0.0
 11
3000.0
 21
-3087.50001604727
 31
0.0
  0
LINE
  5
125165
  8
SLIM
 10
3130.0
 20
-3087.50001604727
 30
0.0
 11
3130.0
 21
-2817.50001604727
 31
0.0
  0
LINE
  5
125166
  8
SLIM
 10
3260.0
 20
-3087.50001604727
 30
0.0
 11
3260.0
 21
-2757.50001604727
 31
0.0
  0
LINE
  5
125167
  8
SLIM
 10
3260.0
 20
-2757.50001604727
 30
0.0
 11
2616.0
 21
-2757.50001604727
 31
0.0
  0
LINE
  5
125168
  8
SLIM
 10
3260.0
 20
-2817.50001604727
 30
0.0
 11
2740.0
 21
-2817.50001604727
 31
0.0
  0
LINE
  5
125169
  8
SLIM
 10
3260.0
 20
-2877.50001604727
 30
0.0
 11
2616.0
 21
-2877.50001604727
 31
0.0
  0
LINE
  5
12516A
  8
SLIM
 10
3260.0
 20
-2947.50001604727
 30
0.0
 11
2616.0
 21
-2947.50001604727
 31
0.0
  0
LINE
  5
12516B
  8
SLIM
 10
3260.0
 20
-3017.50001604727
 30
0.0
 11
2616.0
 21
-3017.50001604727
 31
0.0
  0
LINE
  5
12516C
  8
SLIM
 10
3260.0
 20
-3087.50001604727
 30
0.0
 11
2616.0
 21
-3087.50001604727
 31
0.0
  0
LINE
  5
125181
  8
SLIM
 10
2740.0
 20
-2877.50001604727
 30
0.0
 11
2615.9999722746579
 21
-2757.5
 31
0.0
  0
LINE
  5
1251B6
  8
OBJECT
 10
5323.0
 20
-3515.9999999999968
 30
0.0
 11
5323.0
 21
-3494.9999999999968
 31
0.0
1001
ACDBBLOCKREPETAG
1070
     1
1071
       20
1005
1251B6
  0
LINE
  5
1251B7
  8
OBJECT
 10
5323.0
 20
-3494.9999999999968
 30
0.0
 11
5477.0
 21
-3494.9999999999968
 31
0.0
1001
ACDBBLOCKREPETAG
1070
     1
1071
       21
1005
1251B7
  0
LINE
  5
1251B8
  8
HIDDEN
 10
5343.0
 20
-3564.9999999999968
 30
0.0
 11
5457.0
 21
-3564.9999999999968
 31
0.0
1001
ACDBBLOCKREPETAG
1070
     1
1071
       22
1005
1251B8
  0
LINE
  5
1251B9
  8
OBJECT
 10
5477.0
 20
-3494.9999999999968
 30
0.0
 11
5477.0
 21
-3515.9999999999968
 31
0.0
1001
ACDBBLOCKREPETAG
1070
     1
1071
       23
1005
1251B9
  0
LINE
  5
1251BA
  8
OBJECT
 10
5477.0
 20
-3515.9999999999968
 30
0.0
 11
5323.0
 21
-3515.9999999999968
 31
0.0
1001
ACDBBLOCKREPETAG
1070
     1
1071
       24
1005
1251BA
  0
LINE
  5
1251BB
  8
CENTER
 10
5400.0
 20
-3479.9999999999968
 30
0.0
 11
5400.0
 21
-3714.9999999999968
 31
0.0
1001
ACDBBLOCKREPETAG
1070
     1
1071
       25
1005
1251BB
  0
LINE
  5
1251BC
  8
OBJECT
 10
5325.0
 20
-3578.9999999999968
 30
0.0
 11
5325.0
 21
-3702.9999999999968
 31
0.0
1001
ACDBBLOCKREPETAG
1070
     1
1071
       26
1005
1251BC
  0
LINE
  5
1251BD
  8
OBJECT
 10
5328.0
 20
-3515.9999999999968
 30
0.0
 11
5328.0
 21
-3578.9999999999968
 31
0.0
1001
ACDBBLOCKREPETAG
1070
     1
1071
       27
1005
1251BD
  0
LINE
  5
1251BE
  8
OBJECT
 10
5472.0
 20
-3578.9999999999968
 30
0.0
 11
5472.0
 21
-3515.9999999999968
 31
0.0
1001
ACDBBLOCKREPETAG
1070
     1
1071
       28
1005
1251BE
  0
LINE
  5
1251BF
  8
OBJECT
 10
5475.0
 20
-3578.9999999999968
 30
0.0
 11
5456.7802782663139
 21
-3578.9999999999968
 31
0.0
1001
ACDBBLOCKREPETAG
1070
     1
1071
       30
1005
1251BF
  0
LINE
  5
1251C0
  8
OBJECT
 10
5475.0
 20
-3578.9999999999968
 30
0.0
 11
5475.0
 21
-3702.9999999999968
 31
0.0
1001
ACDBBLOCKREPETAG
1070
     1
1071
       34
1005
1251C0
  0
POINT
  5
1251C1
  8
DOTS
 10
5400.0
 20
-3699.9999999999968
 30
0.0
1001
ACDBBLOCKREPETAG
1070
     1
1071
      187
1005
1251C1
  0
LINE
  5
1251C2
  8
CENTER
 10
5310.0
 20
-3627.9999999999968
 30
0.0
 11
5490.0
 21
-3627.9999999999968
 31
0.0
1001
ACDBBLOCKREPETAG
1070
     1
1071
       23
1005
1251C2
  0
CIRCLE
  5
1251C3
  8
OBJECT
 10
5400.0
 20
-3627.9999999999968
 30
0.0
 40
53.5
1001
ACDBBLOCKREPETAG
1070
     1
1071
       24
1005
1251C3
  0
CIRCLE
  5
1251C4
  8
OBJECT
 10
5400.0
 20
-3627.9999999999968
 30
0.0
 40
67.0
1001
ACDBBLOCKREPETAG
1070
     1
1071
       25
1005
1251C4
  0
ARC
  5
1251C5
  8
OBJECT
 10
5400.0
 20
-3627.9999999999968
 30
0.0
 40
75.0
 50
286.26020470824369
 51
253.73979529175631
1001
ACDBBLOCKREPETAG
1070
     1
1071
       27
1005
1251C5
  0
LINE
  5
1251C6
  8
OBJECT
 10
5379.0
 20
-3699.9999999999968
 30
0.0
 11
5421.0
 21
-3699.9999999999968
 31
0.0
1001
ACDBBLOCKREPETAG
1070
     1
1071
       28
1005
1251C6
  0
LINE
  5
1251C7
  8
OBJECT
 10
5343.2197217336861
 20
-3578.9999999999968
 30
0.0
 11
5325.0
 21
-3578.9999999999968
 31
0.0
1001
ACDBBLOCKREPETAG
1070
     1
1071
       30
1005
1251BF
  0
TEXT
  5
12CC49
  8
SLIM
 10
-0.0000000000000011
 20
282.5
 30
0.0
 40
35.0
  1
※ 100枝（4）がある場合、品名の最後に【管底】が付きます。
 41
0.9
 11
0.0
 21
300.0
 31
0.0
 73
     2
  0
TEXT
  5
130578
  8
SLIM
 10
48.857142857142861
 20
-444.0
 30
0.0
 40
48.0
  1
Z61-P140
 41
0.75
 72
     4
 11
180.0
 21
-420.0
 31
0.0
  0
TEXT
  5
130579
  8
SLIM
 10
405.42857142857139
 20
-444.0
 30
0.0
 40
48.0
  1
Z62-P140
 41
0.75
 72
     4
 11
540.0
 21
-420.0
 31
0.0
  0
TEXT
  5
13057A
  8
SLIM
 10
45.428571428571388
 20
-908.0
 30
0.0
 40
48.0
  1
Z63-P140
 41
0.75
 72
     4
 11
180.0
 21
-884.0
 31
0.0
  0
TEXT
  5
13057B
  8
SLIM
 10
405.42857142857139
 20
-908.0
 30
0.0
 40
48.0
  1
Z64-P140
 41
0.75
 72
     4
 11
540.0
 21
-884.0
 31
0.0
  0
LINE
  5
1309E1
  8
SLIM
 10
4350.0
 20
-479.99999999999568
 30
0.0
 11
4350.0
 21
-1199.9999999999959
 31
0.0
  0
LINE
  5
1309E2
  8
SLIM
 10
4454.0
 20
-1199.9999999999959
 30
0.0
 11
4454.0
 21
-479.99999999999568
 31
0.0
  0
LINE
  5
1309E3
  8
SLIM
 10
4602.0
 20
-479.99999999999568
 30
0.0
 11
4350.0
 21
-479.99999999999568
 31
0.0
  0
LINE
  5
1309E4
  8
SLIM
 10
4602.0
 20
-527.99999999999591
 30
0.0
 11
4350.0
 21
-527.99999999999591
 31
0.0
  0
LINE
  5
1309E6
  8
SLIM
 10
4602.0
 20
-575.99999999999568
 30
0.0
 11
4350.0
 21
-575.99999999999568
 31
0.0
  0
LINE
  5
1309E7
  8
SLIM
 10
4602.0
 20
-623.99999999999591
 30
0.0
 11
4350.0
 21
-623.99999999999591
 31
0.0
  0
LINE
  5
1309E8
  8
SLIM
 10
4602.0
 20
-671.99999999999568
 30
0.0
 11
4350.0
 21
-671.99999999999568
 31
0.0
  0
LINE
  5
1309EC
  8
SLIM
 10
4602.0
 20
-719.99999999999591
 30
0.0
 11
4350.0
 21
-719.99999999999591
 31
0.0
  0
LINE
  5
1309EE
  8
SLIM
 10
4602.0
 20
-767.99999999999579
 30
0.0
 11
4350.0
 21
-767.99999999999579
 31
0.0
  0
LINE
  5
1309F0
  8
SLIM
 10
4602.0
 20
-815.99999999999591
 30
0.0
 11
4350.0
 21
-815.99999999999591
 31
0.0
  0
LINE
  5
1309F2
  8
SLIM
 10
4602.0
 20
-863.99999999999591
 30
0.0
 11
4350.0
 21
-863.99999999999591
 31
0.0
  0
LINE
  5
1309F4
  8
SLIM
 10
4602.0
 20
-911.99999999999602
 30
0.0
 11
4350.0
 21
-911.99999999999602
 31
0.0
  0
LINE
  5
1309F6
  8
SLIM
 10
4602.0
 20
-959.99999999999545
 30
0.0
 11
4350.0
 21
-959.99999999999545
 31
0.0
  0
LINE
  5
1309F8
  8
SLIM
 10
4602.0
 20
-1007.999999999996
 30
0.0
 11
4350.0
 21
-1007.999999999996
 31
0.0
  0
LINE
  5
1309FA
  8
SLIM
 10
4602.0
 20
-1055.9999999999959
 30
0.0
 11
4350.0
 21
-1055.9999999999959
 31
0.0
  0
LINE
  5
1309FC
  8
SLIM
 10
4602.0
 20
-1103.9999999999959
 30
0.0
 11
4350.0
 21
-1103.9999999999959
 31
0.0
  0
LINE
  5
1309FE
  8
SLIM
 10
4602.0
 20
-1151.9999999999959
 30
0.0
 11
4350.0
 21
-1151.9999999999959
 31
0.0
  0
LINE
  5
130A00
  8
SLIM
 10
4602.0
 20
-1199.9999999999959
 30
0.0
 11
4350.0
 21
-1199.9999999999959
 31
0.0
  0
LINE
  5
130A03
  8
SLIM
 10
4602.0
 20
-479.99999999999568
 30
0.0
 11
4602.0
 21
-1199.9999999999959
 31
0.0
  0
TEXT
  5
130A47
  8
SLIM
 10
3554.6000000000008
 20
-1535.666666666664
 30
0.0
 40
28.0
  1
※ 対応スラブ厚　180～（m-10）
 41
0.75
  0
TEXT
  5
130A48
  8
SLIM
 10
3554.6000000000008
 20
-1582.333333333331
 30
0.0
 40
28.0
  1
※ 足切り可能寸法（最大）　330-m（コンパクトＬベンド使用なら+20）
 41
0.75
  0
TEXT
  5
130A49
  8
SLIM
 10
3598.9000000000001
 20
-1675.666666666664
 30
0.0
 40
28.0
  1
国土交通大臣認定・（一財）日本消防設備安全センター性能評定取得品
 41
0.75
  0
TEXT
  5
130A4A
  8
SLIM
 10
3631.1000000000022
 20
-1722.333333333331
 30
0.0
 40
28.0
  1
注）ご採用にあたり、認定書及び評定書の内容をご確認ください。
 41
0.75
  0
TEXT
  5
130A4B
  8
SLIM
 10
4470.057142857142
 20
-1187.9999999999959
 30
0.0
 40
24.0
  1
180～320
 41
0.75
  0
TEXT
  5
130A4C
  8
SLIM
 10
4471.7714285714283
 20
-1139.9999999999959
 30
0.0
 40
24.0
  1
180～310
 41
0.75
  0
TEXT
  5
130A4D
  8
SLIM
 10
4470.057142857142
 20
-1091.9999999999959
 30
0.0
 40
24.0
  1
180～300
 41
0.75
  0
TEXT
  5
130A4E
  8
SLIM
 10
4470.057142857142
 20
-1043.9999999999959
 30
0.0
 40
24.0
  1
180～290
 41
0.75
  0
TEXT
  5
130A4F
  8
SLIM
 10
4470.057142857142
 20
-995.99999999999591
 30
0.0
 40
24.0
  1
180～280
 41
0.75
  0
TEXT
  5
130A50
  8
SLIM
 10
4470.057142857142
 20
-947.99999999999591
 30
0.0
 40
24.0
  1
180～270
 41
0.75
  0
TEXT
  5
130A51
  8
SLIM
 10
4470.057142857142
 20
-899.99999999999591
 30
0.0
 40
24.0
  1
180～260
 41
0.75
  0
TEXT
  5
130A52
  8
SLIM
 10
4470.057142857142
 20
-851.99999999999579
 30
0.0
 40
24.0
  1
180～250
 41
0.75
  0
TEXT
  5
130A53
  8
SLIM
 10
4470.057142857142
 20
-803.99999999999602
 30
0.0
 40
24.0
  1
180～240
 41
0.75
  0
TEXT
  5
130A54
  8
SLIM
 10
4470.057142857142
 20
-755.99999999999591
 30
0.0
 40
24.0
  1
180～230
 41
0.75
  0
TEXT
  5
130A55
  8
SLIM
 10
4470.057142857142
 20
-707.99999999999591
 30
0.0
 40
24.0
  1
180～220
 41
0.75
  0
TEXT
  5
130A56
  8
SLIM
 10
4471.7714285714283
 20
-659.99999999999568
 30
0.0
 40
24.0
  1
180～210
 41
0.75
  0
TEXT
  5
130A57
  8
SLIM
 10
4470.057142857142
 20
-611.99999999999591
 30
0.0
 40
24.0
  1
180～200
 41
0.75
  0
TEXT
  5
130A58
  8
SLIM
 10
4471.7714285714283
 20
-563.99999999999568
 30
0.0
 40
24.0
  1
180～190
 41
0.75
  0
TEXT
  5
130A59
  8
SLIM
 10
4465.6000000000013
 20
-515.99999999999591
 30
0.0
 40
24.0
  1
対応スラブ厚
 41
0.75
  0
TEXT
  5
130A5A
  8
SLIM
 10
4396.4571428571408
 20
-1245.9999999999959
 30
0.0
 40
24.0
  1
標準：m=330
 41
0.75
  0
TEXT
  5
130A5B
  8
SLIM
 10
4378.8571428571431
 20
-1187.9999999999959
 30
0.0
 40
24.0
  1
330
 41
0.75
  0
TEXT
  5
130A5C
  8
SLIM
 10
4378.8571428571431
 20
-1139.9999999999959
 30
0.0
 40
24.0
  1
320
 41
0.75
  0
TEXT
  5
130A5D
  8
SLIM
 10
4380.5714285714284
 20
-1091.9999999999959
 30
0.0
 40
24.0
  1
310
 41
0.75
  0
TEXT
  5
130A5E
  8
SLIM
 10
4378.8571428571431
 20
-1043.9999999999959
 30
0.0
 40
24.0
  1
300
 41
0.75
  0
TEXT
  5
130A5F
  8
SLIM
 10
4378.8571428571431
 20
-995.99999999999591
 30
0.0
 40
24.0
  1
290
 41
0.75
  0
TEXT
  5
130A60
  8
SLIM
 10
4378.8571428571431
 20
-947.99999999999591
 30
0.0
 40
24.0
  1
280
 41
0.75
  0
TEXT
  5
130A61
  8
SLIM
 10
4378.8571428571431
 20
-899.99999999999591
 30
0.0
 40
24.0
  1
270
 41
0.75
  0
TEXT
  5
130A62
  8
SLIM
 10
4378.8571428571431
 20
-851.99999999999579
 30
0.0
 40
24.0
  1
260
 41
0.75
  0
TEXT
  5
130A63
  8
SLIM
 10
4378.8571428571431
 20
-803.99999999999602
 30
0.0
 40
24.0
  1
250
 41
0.75
  0
TEXT
  5
130A64
  8
SLIM
 10
4378.8571428571431
 20
-755.99999999999591
 30
0.0
 40
24.0
  1
240
 41
0.75
  0
TEXT
  5
130A65
  8
SLIM
 10
4378.8571428571431
 20
-707.99999999999591
 30
0.0
 40
24.0
  1
230
 41
0.75
  0
TEXT
  5
130A66
  8
SLIM
 10
4378.8571428571431
 20
-659.99999999999568
 30
0.0
 40
24.0
  1
220
 41
0.75
  0
TEXT
  5
130A67
  8
SLIM
 10
4380.5714285714284
 20
-611.99999999999591
 30
0.0
 40
24.0
  1
210
 41
0.75
  0
TEXT
  5
130A68
  8
SLIM
 10
4369.9428571428571
 20
-515.99999999999591
 30
0.0
 40
24.0
  1
m寸法
 41
0.75
  0
TEXT
  5
130A69
  8
SLIM
 10
4378.8571428571431
 20
-563.99999999999568
 30
0.0
 40
24.0
  1
200
 41
0.75
  0
LINE
  5
130A6A
  8
DIM
 10
3904.9999999999941
 20
-755.0
 30
0.0
 11
3839.6616440113221
 21
-754.99999999999966
 31
0.0
  0
LINE
  5
130A6B
  8
DIM
 10
3910.0
 20
-1084.9999999999991
 30
0.0
 11
3839.6616440113221
 21
-1084.9999999999991
 31
0.0
  0
LINE
  5
130A6C
  8
DIM
 10
3849.6616440113221
 20
-775.0
 30
0.0
 11
3849.6616440113221
 21
-1064.9999999999991
 31
0.0
  0
INSERT
  5
130A6D
  8
DIM
  2
_OPEN30
 10
3849.6616440113221
 20
-755.0
 30
0.0
 41
20.0
 42
20.0
 43
20.0
 50
90.0
  0
INSERT
  5
130A6E
  8
DIM
  2
_OPEN30
 10
3849.6616440113221
 20
-1084.9999999999991
 30
0.0
 41
20.0
 42
20.0
 43
20.0
 50
270.0
  0
INSERT
  5
130A6F
  8
OBJECT
  2
*U268
 10
0.0
 20
0.0
 30
0.0
  0
CIRCLE
  5
130A70
  8
OBJECT
 10
516.00000000060368
 20
-723.9999999999817
 30
0.0
 40
70.0
1001
ACDBBLOCKREPETAG
1070
     1
1071
       43
1005
130A70
  0
CIRCLE
  5
130A71
  8
OBJECT
 10
516.00000000060368
 20
-723.9999999999817
 30
0.0
 40
77.0
1001
ACDBBLOCKREPETAG
1070
     1
1071
       44
1005
130A71
  0
ARC
  5
130A72
  8
OBJECT
 10
516.00000000060368
 20
-723.9999999999817
 30
0.0
 40
80.0
 50
140.8050325737787
 51
219.1949674262213
1001
ACDBBLOCKREPETAG
1070
     1
1071
       45
1005
130A72
  0
LINE
  5
130A73
  8
OBJECT
 10
454.00000000060368
 20
-678.33819977265716
 30
0.0
 11
454.00000000060368
 21
-643.99999999998181
 31
0.0
1001
ACDBBLOCKREPETAG
1070
     1
1071
       46
1005
130A73
  0
LINE
  5
130A74
  8
OBJECT
 10
578.00000000060368
 20
-661.99999999998181
 30
0.0
 11
578.00000000060368
 21
-643.99999999998181
 31
0.0
1001
ACDBBLOCKREPETAG
1070
     1
1071
       22
1005
130A74
  0
LINE
  5
130A75
  8
OBJECT
 10
578.00000000060368
 20
-661.99999999998181
 30
0.0
 11
596.0000000006039
 21
-661.99999999998181
 31
0.0
1001
ACDBBLOCKREPETAG
1070
     1
1071
       24
1005
130A75
  0
LINE
  5
130A76
  8
OBJECT
 10
578.00000000060368
 20
-785.9999999999817
 30
0.0
 11
596.0000000006039
 21
-785.9999999999817
 31
0.0
1001
ACDBBLOCKREPETAG
1070
     1
1071
       25
1005
130A76
  0
LINE
  5
130A77
  8
OBJECT
 10
578.00000000060368
 20
-785.9999999999817
 30
0.0
 11
578.00000000060368
 21
-803.9999999999817
 31
0.0
1001
ACDBBLOCKREPETAG
1070
     1
1071
       27
1005
130A77
  0
LINE
  5
130A78
  8
OBJECT
 10
454.00000000060368
 20
-769.66180022730623
 30
0.0
 11
454.00000000060368
 21
-803.9999999999817
 31
0.0
1001
ACDBBLOCKREPETAG
1070
     1
1071
       28
1005
130A78
  0
LINE
  5
130A79
  8
OBJECT
 10
570.44722215196805
 20
-778.44722215134584
 30
0.0
 11
578.00000000060368
 21
-785.9999999999817
 31
0.0
1001
ACDBBLOCKREPETAG
1070
     1
1071
       37
1005
130A79
  0
LINE
  5
130A7A
  8
OBJECT
 10
570.44722215196805
 20
-669.55277784861767
 30
0.0
 11
578.00000000060368
 21
-661.99999999998181
 31
0.0
1001
ACDBBLOCKREPETAG
1070
     1
1071
       38
1005
130A7A
  0
POINT
  5
130A7B
  8
DOTS
 10
516.00000000060368
 20
-723.9999999999817
 30
0.0
1001
ACDBBLOCKREPETAG
1070
     1
1071
       39
1005
130A7B
  0
CIRCLE
  5
130A7C
  8
OBJECT
 10
516.00000000060368
 20
-723.9999999999817
 30
0.0
 40
53.5
1001
ACDBBLOCKREPETAG
1070
     1
1071
      153
1005
130A7C
  0
CIRCLE
  5
130A7D
  8
OBJECT
 10
156.0000000006039
 20
-723.9999999999817
 30
0.0
 40
70.0
1001
ACDBBLOCKREPETAG
1070
     1
1071
       43
1005
130A7D
  0
CIRCLE
  5
130A7E
  8
OBJECT
 10
156.0000000006039
 20
-723.9999999999817
 30
0.0
 40
77.0
1001
ACDBBLOCKREPETAG
1070
     1
1071
       44
1005
130A7E
  0
ARC
  5
130A7F
  8
OBJECT
 10
156.0000000006039
 20
-723.9999999999817
 30
0.0
 40
80.0
 50
140.80503257377961
 51
219.1949674262203
1001
ACDBBLOCKREPETAG
1070
     1
1071
       45
1005
130A7F
  0
LINE
  5
130A80
  8
OBJECT
 10
94.000000000603904
 20
-678.33819977265716
 30
0.0
 11
94.000000000603904
 21
-643.99999999998181
 31
0.0
1001
ACDBBLOCKREPETAG
1070
     1
1071
       46
1005
130A80
  0
LINE
  5
130A81
  8
OBJECT
 10
218.0000000006039
 20
-661.99999999998181
 30
0.0
 11
218.0000000006039
 21
-643.99999999998181
 31
0.0
1001
ACDBBLOCKREPETAG
1070
     1
1071
       22
1005
130A81
  0
LINE
  5
130A82
  8
OBJECT
 10
218.0000000006039
 20
-661.99999999998181
 30
0.0
 11
236.0000000006039
 21
-661.99999999998181
 31
0.0
1001
ACDBBLOCKREPETAG
1070
     1
1071
       24
1005
130A82
  0
LINE
  5
130A83
  8
OBJECT
 10
218.0000000006039
 20
-785.9999999999817
 30
0.0
 11
236.0000000006039
 21
-785.9999999999817
 31
0.0
1001
ACDBBLOCKREPETAG
1070
     1
1071
       25
1005
130A83
  0
LINE
  5
130A84
  8
OBJECT
 10
218.0000000006039
 20
-785.9999999999817
 30
0.0
 11
218.0000000006039
 21
-803.9999999999817
 31
0.0
1001
ACDBBLOCKREPETAG
1070
     1
1071
       27
1005
130A84
  0
LINE
  5
130A85
  8
OBJECT
 10
94.000000000603904
 20
-769.66180022730623
 30
0.0
 11
94.000000000603904
 21
-803.9999999999817
 31
0.0
1001
ACDBBLOCKREPETAG
1070
     1
1071
       28
1005
130A85
  0
LINE
  5
130A86
  8
OBJECT
 10
210.44722215196819
 20
-778.44722215134584
 30
0.0
 11
218.0000000006039
 21
-785.9999999999817
 31
0.0
1001
ACDBBLOCKREPETAG
1070
     1
1071
       37
1005
130A86
  0
LINE
  5
130A87
  8
OBJECT
 10
210.44722215196819
 20
-669.55277784861767
 30
0.0
 11
218.0000000006039
 21
-661.99999999998181
 31
0.0
1001
ACDBBLOCKREPETAG
1070
     1
1071
       38
1005
130A87
  0
POINT
  5
130A88
  8
DOTS
 10
156.0000000006039
 20
-723.9999999999817
 30
0.0
1001
ACDBBLOCKREPETAG
1070
     1
1071
       39
1005
130A88
  0
CIRCLE
  5
130A89
  8
OBJECT
 10
156.0000000006039
 20
-723.9999999999817
 30
0.0
 40
53.5
1001
ACDBBLOCKREPETAG
1070
     1
1071
      153
1005
130A89
  0
CIRCLE
  5
130A8A
  8
OBJECT
 10
516.00000000060368
 20
-259.99999999998181
 30
0.0
 40
70.0
1001
ACDBBLOCKREPETAG
1070
     1
1071
       43
1005
130A8A
  0
CIRCLE
  5
130A8B
  8
OBJECT
 10
516.00000000060368
 20
-259.99999999998181
 30
0.0
 40
77.0
1001
ACDBBLOCKREPETAG
1070
     1
1071
       44
1005
130A8B
  0
ARC
  5
130A8C
  8
OBJECT
 10
516.00000000060368
 20
-259.99999999998181
 30
0.0
 40
80.0
 50
140.8050325737787
 51
219.1949674262213
1001
ACDBBLOCKREPETAG
1070
     1
1071
       45
1005
130A8C
  0
LINE
  5
130A8D
  8
OBJECT
 10
454.00000000060368
 20
-214.33819977265739
 30
0.0
 11
454.00000000060368
 21
-179.99999999998181
 31
0.0
1001
ACDBBLOCKREPETAG
1070
     1
1071
       46
1005
130A8D
  0
LINE
  5
130A8E
  8
OBJECT
 10
578.00000000060368
 20
-197.99999999998181
 30
0.0
 11
578.00000000060368
 21
-179.99999999998181
 31
0.0
1001
ACDBBLOCKREPETAG
1070
     1
1071
       22
1005
130A8E
  0
LINE
  5
130A8F
  8
OBJECT
 10
578.00000000060368
 20
-197.99999999998181
 30
0.0
 11
596.0000000006039
 21
-197.99999999998181
 31
0.0
1001
ACDBBLOCKREPETAG
1070
     1
1071
       24
1005
130A8F
  0
LINE
  5
130A90
  8
OBJECT
 10
578.00000000060368
 20
-321.99999999998181
 30
0.0
 11
596.0000000006039
 21
-321.99999999998181
 31
0.0
1001
ACDBBLOCKREPETAG
1070
     1
1071
       25
1005
130A90
  0
LINE
  5
130A91
  8
OBJECT
 10
578.00000000060368
 20
-321.99999999998181
 30
0.0
 11
578.00000000060368
 21
-339.99999999998181
 31
0.0
1001
ACDBBLOCKREPETAG
1070
     1
1071
       27
1005
130A91
  0
LINE
  5
130A92
  8
OBJECT
 10
454.00000000060368
 20
-305.66180022730617
 30
0.0
 11
454.00000000060368
 21
-339.99999999998181
 31
0.0
1001
ACDBBLOCKREPETAG
1070
     1
1071
       28
1005
130A92
  0
LINE
  5
130A93
  8
OBJECT
 10
570.44722215196805
 20
-314.44722215134612
 30
0.0
 11
578.00000000060368
 21
-321.99999999998181
 31
0.0
1001
ACDBBLOCKREPETAG
1070
     1
1071
       37
1005
130A93
  0
LINE
  5
130A94
  8
OBJECT
 10
570.44722215196805
 20
-205.55277784861761
 30
0.0
 11
578.00000000060368
 21
-197.99999999998181
 31
0.0
1001
ACDBBLOCKREPETAG
1070
     1
1071
       38
1005
130A94
  0
POINT
  5
130A95
  8
DOTS
 10
516.00000000060368
 20
-259.99999999998181
 30
0.0
1001
ACDBBLOCKREPETAG
1070
     1
1071
       39
1005
130A95
  0
CIRCLE
  5
130A96
  8
OBJECT
 10
516.00000000060368
 20
-259.99999999998181
 30
0.0
 40
53.5
1001
ACDBBLOCKREPETAG
1070
     1
1071
      153
1005
130A96
  0
CIRCLE
  5
130A97
  8
OBJECT
 10
156.0000000006039
 20
-259.99999999998181
 30
0.0
 40
70.0
1001
ACDBBLOCKREPETAG
1070
     1
1071
       43
1005
130A97
  0
CIRCLE
  5
130A98
  8
OBJECT
 10
156.0000000006039
 20
-259.99999999998181
 30
0.0
 40
77.0
1001
ACDBBLOCKREPETAG
1070
     1
1071
       44
1005
130A98
  0
ARC
  5
130A99
  8
OBJECT
 10
156.0000000006039
 20
-259.99999999998181
 30
0.0
 40
80.0
 50
140.80503257377961
 51
219.1949674262203
1001
ACDBBLOCKREPETAG
1070
     1
1071
       45
1005
130A99
  0
LINE
  5
130A9A
  8
OBJECT
 10
94.000000000603904
 20
-214.33819977265739
 30
0.0
 11
94.000000000603904
 21
-179.99999999998181
 31
0.0
1001
ACDBBLOCKREPETAG
1070
     1
1071
       46
1005
130A9A
  0
LINE
  5
130A9B
  8
OBJECT
 10
218.0000000006039
 20
-197.99999999998181
 30
0.0
 11
218.0000000006039
 21
-179.99999999998181
 31
0.0
1001
ACDBBLOCKREPETAG
1070
     1
1071
       22
1005
130A9B
  0
LINE
  5
130A9C
  8
OBJECT
 10
218.0000000006039
 20
-197.99999999998181
 30
0.0
 11
236.0000000006039
 21
-197.99999999998181
 31
0.0
1001
ACDBBLOCKREPETAG
1070
     1
1071
       24
1005
130A9C
  0
LINE
  5
130A9D
  8
OBJECT
 10
218.0000000006039
 20
-321.99999999998181
 30
0.0
 11
236.0000000006039
 21
-321.99999999998181
 31
0.0
1001
ACDBBLOCKREPETAG
1070
     1
1071
       25
1005
130A9D
  0
LINE
  5
130A9E
  8
OBJECT
 10
218.0000000006039
 20
-321.99999999998181
 30
0.0
 11
218.0000000006039
 21
-339.99999999998181
 31
0.0
1001
ACDBBLOCKREPETAG
1070
     1
1071
       27
1005
130A9E
  0
LINE
  5
130A9F
  8
OBJECT
 10
94.000000000603904
 20
-305.66180022730617
 30
0.0
 11
94.000000000603904
 21
-339.99999999998181
 31
0.0
1001
ACDBBLOCKREPETAG
1070
     1
1071
       28
1005
130A9F
  0
LINE
  5
130AA0
  8
OBJECT
 10
210.44722215196819
 20
-314.44722215134612
 30
0.0
 11
218.0000000006039
 21
-321.99999999998181
 31
0.0
1001
ACDBBLOCKREPETAG
1070
     1
1071
       37
1005
130AA0
  0
LINE
  5
130AA1
  8
OBJECT
 10
210.44722215196819
 20
-205.55277784861761
 30
0.0
 11
218.0000000006039
 21
-197.99999999998181
 31
0.0
1001
ACDBBLOCKREPETAG
1070
     1
1071
       38
1005
130AA1
  0
POINT
  5
130AA2
  8
DOTS
 10
156.0000000006039
 20
-259.99999999998181
 30
0.0
1001
ACDBBLOCKREPETAG
1070
     1
1071
       39
1005
130AA2
  0
CIRCLE
  5
130AA3
  8
OBJECT
 10
156.0000000006039
 20
-259.99999999998181
 30
0.0
 40
53.5
1001
ACDBBLOCKREPETAG
1070
     1
1071
      153
1005
130AA3
  0
LINE
  5
130AA4
  8
OBJECT
 10
94.000000000603904
 20
-806.99999999998897
 30
0.0
 11
94.000000000603904
 21
-803.99999999998886
 31
0.0
1001
ACDBBLOCKREPETAG
1070
     1
1071
      418
1005
130AA4
  0
ARC
  5
130AA5
  8
OBJECT
 10
97.000000000603904
 20
-806.99999999998897
 30
0.0
 40
3.0
 50
180.0
 51
270.0
1001
ACDBBLOCKREPETAG
1070
     1
1071
      419
1005
130AA5
  0
LINE
  5
130AA6
  8
OBJECT
 10
218.0000000006039
 20
-803.99999999998886
 30
0.0
 11
218.0000000006039
 21
-806.99999999998897
 31
0.0
1001
ACDBBLOCKREPETAG
1070
     1
1071
      420
1005
130AA6
  0
ARC
  5
130AA7
  8
OBJECT
 10
215.0000000006039
 20
-806.99999999998897
 30
0.0
 40
3.0
 50
270.0
 51
0.0
1001
ACDBBLOCKREPETAG
1070
     1
1071
      421
1005
130AA7
  0
LINE
  5
130AA8
  8
OBJECT
 10
215.0000000006039
 20
-809.99999999998909
 30
0.0
 11
97.000000000603904
 21
-809.99999999998909
 31
0.0
1001
ACDBBLOCKREPETAG
1070
     1
1071
      422
1005
130AA8
  0
INSERT
  5
130AA9
  8
OBJECT
  2
*U269
 10
0.0
 20
0.0
 30
0.0
  0
LINE
  5
130AAA
  8
OBJECT
 10
289.00000000060379
 20
-661.99999999998886
 30
0.0
 11
296.0000000006039
 21
-661.99999999998886
 31
0.0
1001
ACDBBLOCKREPETAG
1070
     1
1071
       39
1005
130AAA
  0
LINE
  5
130AAB
  8
OBJECT
 10
296.0000000006039
 20
-661.99999999998886
 30
0.0
 11
296.0000000006039
 21
-785.99999999998909
 31
0.0
1001
ACDBBLOCKREPETAG
1070
     1
1071
       40
1005
130AAB
  0
LINE
  5
130AAC
  8
OBJECT
 10
296.0000000006039
 20
-785.99999999998909
 30
0.0
 11
289.00000000060379
 21
-785.99999999998909
 31
0.0
1001
ACDBBLOCKREPETAG
1070
     1
1071
       41
1005
130AAC
  0
LINE
  5
130AAD
  8
OBJECT
 10
289.00000000060379
 20
-785.99999999998909
 30
0.0
 11
289.00000000060379
 21
-661.99999999998886
 31
0.0
1001
ACDBBLOCKREPETAG
1070
     1
1071
       42
1005
130AAD
  0
LINE
  5
130AAE
  8
OBJECT
 10
289.00000000060379
 20
-664.99999999998897
 30
0.0
 11
253.0000000006039
 21
-664.99999999998897
 31
0.0
1001
ACDBBLOCKREPETAG
1070
     1
1071
       43
1005
130AAE
  0
LINE
  5
130AAF
  8
OBJECT
 10
253.0000000006039
 20
-664.99999999998897
 30
0.0
 11
253.0000000006039
 21
-782.99999999998886
 31
0.0
1001
ACDBBLOCKREPETAG
1070
     1
1071
       44
1005
130AAF
  0
LINE
  5
130AB0
  8
OBJECT
 10
253.0000000006039
 20
-782.99999999998886
 30
0.0
 11
289.00000000060379
 21
-782.99999999998886
 31
0.0
1001
ACDBBLOCKREPETAG
1070
     1
1071
       45
1005
130AB0
  0
LINE
  5
130AB1
  8
OBJECT
 10
249.0000000006039
 20
-669.49999999998897
 30
0.0
 11
242.0000000006039
 21
-669.49999999998897
 31
0.0
1001
ACDBBLOCKREPETAG
1070
     1
1071
       46
1005
130AB1
  0
LINE
  5
130AB2
  8
OBJECT
 10
242.0000000006039
 20
-778.49999999998897
 30
0.0
 11
249.0000000006039
 21
-778.49999999998897
 31
0.0
1001
ACDBBLOCKREPETAG
1070
     1
1071
       47
1005
130AB2
  0
LINE
  5
130AB3
  8
OBJECT
 10
249.0000000006039
 20
-778.49999999998897
 30
0.0
 11
249.0000000006039
 21
-669.49999999998897
 31
0.0
1001
ACDBBLOCKREPETAG
1070
     1
1071
       48
1005
130AB3
  0
LINE
  5
130AB4
  8
OBJECT
 10
253.0000000006039
 20
-664.99999999998897
 30
0.0
 11
249.0000000006039
 21
-669.49999999998897
 31
0.0
1001
ACDBBLOCKREPETAG
1070
     1
1071
       49
1005
130AB4
  0
LINE
  5
130AB5
  8
OBJECT
 10
253.0000000006039
 20
-782.99999999998886
 30
0.0
 11
249.0000000006039
 21
-778.49999999998897
 31
0.0
1001
ACDBBLOCKREPETAG
1070
     1
1071
       50
1005
130AB5
  0
LINE
  5
130AB6
  8
OBJECT
 10
239.0000000006057
 20
-661.99999999998886
 30
0.0
 11
236.0000000006039
 21
-661.99999999998886
 31
0.0
1001
ACDBBLOCKREPETAG
1070
     1
1071
       51
1005
130AB6
  0
ARC
  5
130AB7
  8
OBJECT
 10
239.0000000006057
 20
-664.99999999998897
 30
0.0
 40
3.0
 50
0.0
 51
90.0
1001
ACDBBLOCKREPETAG
1070
     1
1071
       52
1005
130AB7
  0
LINE
  5
130AB8
  8
OBJECT
 10
236.0000000006039
 20
-785.99999999998909
 30
0.0
 11
239.00000000060211
 21
-785.99999999998909
 31
0.0
1001
ACDBBLOCKREPETAG
1070
     1
1071
       53
1005
130AB8
  0
ARC
  5
130AB9
  8
OBJECT
 10
239.00000000060211
 20
-782.99999999998886
 30
0.0
 40
3.0
 50
270.0
 51
0.0
1001
ACDBBLOCKREPETAG
1070
     1
1071
       54
1005
130AB9
  0
LINE
  5
130ABA
  8
OBJECT
 10
242.00000000060211
 20
-782.99999999998886
 30
0.0
 11
242.0000000006057
 21
-664.99999999998897
 31
0.0
1001
ACDBBLOCKREPETAG
1070
     1
1071
       55
1005
130ABA
  0
LINE
  5
130ABB
  8
HIDDEN
 10
244.0000000006039
 20
-679.49999999998886
 30
0.0
 11
244.0000000006039
 21
-768.4999999999892
 31
0.0
1001
ACDBBLOCKREPETAG
1070
     1
1071
      430
1005
130ABB
  0
LINE
  5
130ABC
  8
OBJECT
 10
94.000000000603904
 20
-511.00000000000671
 30
0.0
 11
94.000000000603904
 21
-504.00000000000671
 31
0.0
1001
ACDBBLOCKREPETAG
1070
     1
1071
       98
1005
130ABC
  0
LINE
  5
130ABD
  8
OBJECT
 10
94.000000000603904
 20
-504.00000000000671
 30
0.0
 11
218.0000000006039
 21
-504.00000000000671
 31
0.0
1001
ACDBBLOCKREPETAG
1070
     1
1071
       99
1005
130ABD
  0
LINE
  5
130ABE
  8
OBJECT
 10
218.0000000006039
 20
-504.00000000000671
 30
0.0
 11
218.0000000006039
 21
-511.00000000000671
 31
0.0
1001
ACDBBLOCKREPETAG
1070
     1
1071
      100
1005
130ABE
  0
LINE
  5
130ABF
  8
OBJECT
 10
218.0000000006039
 20
-511.00000000000671
 30
0.0
 11
94.000000000603904
 21
-511.00000000000671
 31
0.0
1001
ACDBBLOCKREPETAG
1070
     1
1071
      101
1005
130ABF
  0
LINE
  5
130AC0
  8
OBJECT
 10
201.00000000060751
 20
-564.00002503580549
 30
0.0
 11
201.0000000006039
 21
-637.99999999999295
 31
0.0
1001
ACDBBLOCKREPETAG
1070
     1
1071
      102
1005
130AC0
  0
LINE
  5
130AC1
  8
OBJECT
 10
111.0000000006039
 20
-564.00002503580549
 30
0.0
 11
111.0000000006039
 21
-637.99999999999125
 31
0.0
1001
ACDBBLOCKREPETAG
1070
     1
1071
      103
1005
130AC1
  0
LINE
  5
130AC2
  8
OBJECT
 10
97.000000000603904
 20
-511.00000000000671
 30
0.0
 11
97.000000000603904
 21
-547.00000000000682
 31
0.0
1001
ACDBBLOCKREPETAG
1070
     1
1071
      104
1005
130AC2
  0
LINE
  5
130AC3
  8
OBJECT
 10
97.000000000603904
 20
-547.00000000000682
 30
0.0
 11
215.0000000006039
 21
-547.00000000000682
 31
0.0
1001
ACDBBLOCKREPETAG
1070
     1
1071
      105
1005
130AC3
  0
LINE
  5
130AC4
  8
OBJECT
 10
215.0000000006039
 20
-547.00000000000682
 30
0.0
 11
215.0000000006039
 21
-511.00000000000671
 31
0.0
1001
ACDBBLOCKREPETAG
1070
     1
1071
      106
1005
130AC4
  0
LINE
  5
130AC5
  8
OBJECT
 10
101.5000000006039
 20
-551.00000000000682
 30
0.0
 11
101.5000000006039
 21
-564.00000000000671
 31
0.0
1001
ACDBBLOCKREPETAG
1070
     1
1071
      107
1005
130AC5
  0
LINE
  5
130AC6
  8
OBJECT
 10
210.5000000006039
 20
-564.00000000000671
 30
0.0
 11
210.5000000006039
 21
-551.00000000000682
 31
0.0
1001
ACDBBLOCKREPETAG
1070
     1
1071
      108
1005
130AC6
  0
LINE
  5
130AC7
  8
OBJECT
 10
210.5000000006039
 20
-551.00000000000682
 30
0.0
 11
101.5000000006039
 21
-551.00000000000682
 31
0.0
1001
ACDBBLOCKREPETAG
1070
     1
1071
      109
1005
130AC7
  0
LINE
  5
130AC8
  8
OBJECT
 10
97.000000000603904
 20
-547.00000000000682
 30
0.0
 11
101.5000000006039
 21
-551.00000000000682
 31
0.0
1001
ACDBBLOCKREPETAG
1070
     1
1071
      110
1005
130AC8
  0
LINE
  5
130AC9
  8
OBJECT
 10
215.0000000006039
 20
-547.00000000000682
 30
0.0
 11
210.5000000006039
 21
-551.00000000000682
 31
0.0
1001
ACDBBLOCKREPETAG
1070
     1
1071
      111
1005
130AC9
  0
LINE
  5
130ACA
  8
OBJECT
 10
94.000000000603904
 20
-640.99999999999125
 30
0.0
 11
94.000000000603904
 21
-643.99999999999227
 31
0.0
1001
ACDBBLOCKREPETAG
1070
     1
1071
      112
1005
130ACA
  0
ARC
  5
130ACB
  8
OBJECT
 10
97.000000000603904
 20
-640.99999999999125
 30
0.0
 40
3.0
 50
90.0
 51
180.0
1001
ACDBBLOCKREPETAG
1070
     1
1071
      113
1005
130ACB
  0
LINE
  5
130ACC
  8
OBJECT
 10
218.0000000006039
 20
-643.99999999999227
 30
0.0
 11
218.0000000006039
 21
-640.99999999999295
 31
0.0
1001
ACDBBLOCKREPETAG
1070
     1
1071
      114
1005
130ACC
  0
ARC
  5
130ACD
  8
OBJECT
 10
215.0000000006039
 20
-640.99999999999295
 30
0.0
 40
3.0
 50
0.0
 51
90.0
1001
ACDBBLOCKREPETAG
1070
     1
1071
      115
1005
130ACD
  0
LINE
  5
130ACE
  8
OBJECT
 10
215.0000000006039
 20
-637.99999999999295
 30
0.0
 11
178.44994432124071
 21
-637.99999999999216
 31
0.0
1001
ACDBBLOCKREPETAG
1070
     1
1071
      116
1005
130ACE
  0
LINE
  5
130ACF
  8
OBJECT
 10
133.55005567996341
 20
-637.99999999999125
 30
0.0
 11
97.000000000603904
 21
-637.99999999999125
 31
0.0
1001
ACDBBLOCKREPETAG
1070
     1
1071
      117
1005
130ACF
  0
LINE
  5
130AD0
  8
OBJECT
 10
210.49995092441529
 20
-564.00002503580549
 30
0.0
 11
101.4999509244153
 21
-564.00002503580549
 31
0.0
1001
ACDBBLOCKREPETAG
1070
     1
1071
      119
1005
130AD0
  0
ARC
  5
130AD1
  8
OBJECT
 10
156.0000000006039
 20
-598.99999999998863
 30
0.0
 40
45.000000000000547
 50
180.0
 51
0.0
1001
ACDBBLOCKREPETAG
1070
     1
1071
      120
1005
130AD1
  0
INSERT
  5
130AD2
  8
OBJECT
  2
*U270
 10
0.0
 20
0.0
 30
0.0
  0
LINE
  5
130AD3
  8
HIDDEN
 10
111.5000000006039
 20
-556.00000000000671
 30
0.0
 11
200.5000000006039
 21
-556.00000000000671
 31
0.0
1001
ACDBBLOCKREPETAG
1070
     1
1071
      430
1005
130AD3
  0
LINE
  5
130AD4
  8
OBJECT
 10
454.00000000068388
 20
-806.99999999998897
 30
0.0
 11
454.00000000068388
 21
-803.99999999998886
 31
0.0
1001
ACDBBLOCKREPETAG
1070
     1
1071
      418
1005
130AD4
  0
ARC
  5
130AD5
  8
OBJECT
 10
457.000000000684
 20
-806.99999999998897
 30
0.0
 40
3.0
 50
180.0
 51
270.0
1001
ACDBBLOCKREPETAG
1070
     1
1071
      419
1005
130AD5
  0
LINE
  5
130AD6
  8
OBJECT
 10
578.00000000068394
 20
-803.99999999998886
 30
0.0
 11
578.00000000068394
 21
-806.99999999998897
 31
0.0
1001
ACDBBLOCKREPETAG
1070
     1
1071
      420
1005
130AD6
  0
ARC
  5
130AD7
  8
OBJECT
 10
575.00000000068394
 20
-806.99999999998897
 30
0.0
 40
3.0
 50
270.0
 51
0.0
1001
ACDBBLOCKREPETAG
1070
     1
1071
      421
1005
130AD7
  0
LINE
  5
130AD8
  8
OBJECT
 10
575.00000000068394
 20
-809.99999999998909
 30
0.0
 11
457.000000000684
 21
-809.99999999998909
 31
0.0
1001
ACDBBLOCKREPETAG
1070
     1
1071
      422
1005
130AD8
  0
LINE
  5
130AD9
  8
OBJECT
 10
666.00000000068394
 20
-648.99999999998897
 30
0.0
 11
659.00000000068394
 21
-648.99999999998897
 31
0.0
1001
ACDBBLOCKREPETAG
1070
     1
1071
       57
1005
130AD9
  0
LINE
  5
130ADA
  8
OBJECT
 10
659.00000000068394
 20
-648.99999999998897
 30
0.0
 11
659.00000000068394
 21
-798.99999999998897
 31
0.0
1001
ACDBBLOCKREPETAG
1070
     1
1071
       58
1005
130ADA
  0
LINE
  5
130ADB
  8
OBJECT
 10
617.50000000068394
 20
-651.99999999998886
 30
0.0
 11
617.50000000068394
 21
-795.99999999998886
 31
0.0
1001
ACDBBLOCKREPETAG
1070
     1
1071
       59
1005
130ADB
  0
LINE
  5
130ADC
  8
OBJECT
 10
606.00000000068394
 20
-658.49999999998886
 30
0.0
 11
606.00000000068394
 21
-789.4999999999892
 31
0.0
1001
ACDBBLOCKREPETAG
1070
     1
1071
       60
1005
130ADC
  0
LINE
  5
130ADD
  8
OBJECT
 10
659.00000000068394
 20
-798.99999999998897
 30
0.0
 11
666.00000000068394
 21
-798.99999999998897
 31
0.0
1001
ACDBBLOCKREPETAG
1070
     1
1071
       61
1005
130ADD
  0
LINE
  5
130ADE
  8
OBJECT
 10
666.00000000068394
 20
-798.99999999998897
 30
0.0
 11
666.00000000068394
 21
-648.99999999998897
 31
0.0
1001
ACDBBLOCKREPETAG
1070
     1
1071
       62
1005
130ADE
  0
LINE
  5
130ADF
  8
OBJECT
 10
602.00000000068394
 20
-785.99999999998909
 30
0.0
 11
596.00000000068394
 21
-785.99999999998909
 31
0.0
1001
ACDBBLOCKREPETAG
1070
     1
1071
       63
1005
130ADF
  0
LINE
  5
130AE0
  8
OBJECT
 10
659.00000000068394
 20
-795.99999999998886
 30
0.0
 11
617.50000000068394
 21
-795.99999999998886
 31
0.0
1001
ACDBBLOCKREPETAG
1070
     1
1071
       64
1005
130AE0
  0
LINE
  5
130AE1
  8
OBJECT
 10
617.50000000068394
 20
-795.99999999998886
 30
0.0
 11
606.00000000068394
 21
-789.4999999999892
 31
0.0
1001
ACDBBLOCKREPETAG
1070
     1
1071
       65
1005
130AE1
  0
LINE
  5
130AE2
  8
OBJECT
 10
606.00000000068394
 20
-789.4999999999892
 30
0.0
 11
602.00000000068394
 21
-785.99999999998909
 31
0.0
1001
ACDBBLOCKREPETAG
1070
     1
1071
       66
1005
130AE2
  0
LINE
  5
130AE3
  8
OBJECT
 10
617.50000000068394
 20
-651.99999999998886
 30
0.0
 11
606.00000000068394
 21
-658.49999999998886
 31
0.0
1001
ACDBBLOCKREPETAG
1070
     1
1071
       67
1005
130AE3
  0
LINE
  5
130AE4
  8
OBJECT
 10
606.00000000068394
 20
-658.49999999998886
 30
0.0
 11
602.00000000068394
 21
-661.99999999998886
 31
0.0
1001
ACDBBLOCKREPETAG
1070
     1
1071
       68
1005
130AE4
  0
ARC
  5
130AE5
  8
OBJECT
 10
983.90000000068505
 20
-723.99999999998897
 30
0.0
 40
386.89999999999998
 50
170.7787013626384
 51
189.22129863736151
1001
ACDBBLOCKREPETAG
1070
     1
1071
       69
1005
130AE5
  0
LINE
  5
130AE6
  8
OBJECT
 10
602.00000000068394
 20
-661.99999999998886
 30
0.0
 11
596.00000000068394
 21
-661.99999999998886
 31
0.0
1001
ACDBBLOCKREPETAG
1070
     1
1071
       70
1005
130AE6
  0
LINE
  5
130AE7
  8
OBJECT
 10
659.00000000068394
 20
-651.99999999998886
 30
0.0
 11
617.50000000068394
 21
-651.99999999998886
 31
0.0
1001
ACDBBLOCKREPETAG
1070
     1
1071
       71
1005
130AE7
  0
INSERT
  5
130AE8
  8
OBJECT
  2
*U271
 10
0.0
 20
0.0
 30
0.0
  0
LINE
  5
130AE9
  8
HIDDEN
 10
614.00000000068394
 20
-780.9999999999892
 30
0.0
 11
614.00000000068394
 21
-666.99999999998886
 31
0.0
1001
ACDBBLOCKREPETAG
1070
     1
1071
      437
1005
130AE9
  0
LINE
  5
130AEA
  8
OBJECT
 10
454.00000000068388
 20
-511.00000000000671
 30
0.0
 11
454.00000000068388
 21
-504.00000000000671
 31
0.0
1001
ACDBBLOCKREPETAG
1070
     1
1071
       98
1005
130AEA
  0
LINE
  5
130AEB
  8
OBJECT
 10
454.00000000068388
 20
-504.00000000000671
 30
0.0
 11
578.00000000068394
 21
-504.00000000000671
 31
0.0
1001
ACDBBLOCKREPETAG
1070
     1
1071
       99
1005
130AEB
  0
LINE
  5
130AEC
  8
OBJECT
 10
578.00000000068394
 20
-504.00000000000671
 30
0.0
 11
578.00000000068394
 21
-511.00000000000671
 31
0.0
1001
ACDBBLOCKREPETAG
1070
     1
1071
      100
1005
130AEC
  0
LINE
  5
130AED
  8
OBJECT
 10
578.00000000068394
 20
-511.00000000000671
 30
0.0
 11
454.00000000068388
 21
-511.00000000000671
 31
0.0
1001
ACDBBLOCKREPETAG
1070
     1
1071
      101
1005
130AED
  0
LINE
  5
130AEE
  8
OBJECT
 10
561.00000000068735
 20
-564.00002503580549
 30
0.0
 11
561.00000000068394
 21
-637.99999999999295
 31
0.0
1001
ACDBBLOCKREPETAG
1070
     1
1071
      102
1005
130AEE
  0
LINE
  5
130AEF
  8
OBJECT
 10
471.00000000068388
 20
-564.00002503580549
 30
0.0
 11
471.00000000068388
 21
-637.99999999999125
 31
0.0
1001
ACDBBLOCKREPETAG
1070
     1
1071
      103
1005
130AEF
  0
LINE
  5
130AF0
  8
OBJECT
 10
457.000000000684
 20
-511.00000000000671
 30
0.0
 11
457.000000000684
 21
-547.00000000000682
 31
0.0
1001
ACDBBLOCKREPETAG
1070
     1
1071
      104
1005
130AF0
  0
LINE
  5
130AF1
  8
OBJECT
 10
457.000000000684
 20
-547.00000000000682
 30
0.0
 11
575.00000000068394
 21
-547.00000000000682
 31
0.0
1001
ACDBBLOCKREPETAG
1070
     1
1071
      105
1005
130AF1
  0
LINE
  5
130AF2
  8
OBJECT
 10
575.00000000068394
 20
-547.00000000000682
 30
0.0
 11
575.00000000068394
 21
-511.00000000000671
 31
0.0
1001
ACDBBLOCKREPETAG
1070
     1
1071
      106
1005
130AF2
  0
LINE
  5
130AF3
  8
OBJECT
 10
461.500000000684
 20
-551.00000000000682
 30
0.0
 11
461.500000000684
 21
-564.00000000000671
 31
0.0
1001
ACDBBLOCKREPETAG
1070
     1
1071
      107
1005
130AF3
  0
LINE
  5
130AF4
  8
OBJECT
 10
570.50000000068394
 20
-564.00000000000671
 30
0.0
 11
570.50000000068394
 21
-551.00000000000682
 31
0.0
1001
ACDBBLOCKREPETAG
1070
     1
1071
      108
1005
130AF4
  0
LINE
  5
130AF5
  8
OBJECT
 10
570.50000000068394
 20
-551.00000000000682
 30
0.0
 11
461.500000000684
 21
-551.00000000000682
 31
0.0
1001
ACDBBLOCKREPETAG
1070
     1
1071
      109
1005
130AF5
  0
LINE
  5
130AF6
  8
OBJECT
 10
457.000000000684
 20
-547.00000000000682
 30
0.0
 11
461.500000000684
 21
-551.00000000000682
 31
0.0
1001
ACDBBLOCKREPETAG
1070
     1
1071
      110
1005
130AF6
  0
LINE
  5
130AF7
  8
OBJECT
 10
575.00000000068394
 20
-547.00000000000682
 30
0.0
 11
570.50000000068394
 21
-551.00000000000682
 31
0.0
1001
ACDBBLOCKREPETAG
1070
     1
1071
      111
1005
130AF7
  0
LINE
  5
130AF8
  8
OBJECT
 10
454.00000000068388
 20
-640.99999999999125
 30
0.0
 11
454.00000000068388
 21
-643.99999999999227
 31
0.0
1001
ACDBBLOCKREPETAG
1070
     1
1071
      112
1005
130AF8
  0
ARC
  5
130AF9
  8
OBJECT
 10
457.000000000684
 20
-640.99999999999125
 30
0.0
 40
3.0
 50
90.0
 51
180.0
1001
ACDBBLOCKREPETAG
1070
     1
1071
      113
1005
130AF9
  0
LINE
  5
130AFA
  8
OBJECT
 10
578.00000000068394
 20
-643.99999999999227
 30
0.0
 11
578.00000000068394
 21
-640.99999999999295
 31
0.0
1001
ACDBBLOCKREPETAG
1070
     1
1071
      114
1005
130AFA
  0
ARC
  5
130AFB
  8
OBJECT
 10
575.00000000068394
 20
-640.99999999999295
 30
0.0
 40
3.0
 50
0.0
 51
90.0
1001
ACDBBLOCKREPETAG
1070
     1
1071
      115
1005
130AFB
  0
LINE
  5
130AFC
  8
OBJECT
 10
575.00000000068394
 20
-637.99999999999295
 30
0.0
 11
538.4499443213208
 21
-637.99999999999216
 31
0.0
1001
ACDBBLOCKREPETAG
1070
     1
1071
      116
1005
130AFC
  0
LINE
  5
130AFD
  8
OBJECT
 10
493.55005568004327
 20
-637.99999999999125
 30
0.0
 11
457.000000000684
 21
-637.99999999999125
 31
0.0
1001
ACDBBLOCKREPETAG
1070
     1
1071
      117
1005
130AFD
  0
LINE
  5
130AFE
  8
OBJECT
 10
570.49995092449535
 20
-564.00002503580549
 30
0.0
 11
461.49995092449518
 21
-564.00002503580549
 31
0.0
1001
ACDBBLOCKREPETAG
1070
     1
1071
      119
1005
130AFE
  0
ARC
  5
130AFF
  8
OBJECT
 10
516.00000000068394
 20
-598.99999999998863
 30
0.0
 40
45.000000000000547
 50
180.0
 51
0.0
1001
ACDBBLOCKREPETAG
1070
     1
1071
      120
1005
130AFF
  0
INSERT
  5
130B00
  8
OBJECT
  2
*U272
 10
0.0
 20
0.0
 30
0.0
  0
LINE
  5
130B01
  8
HIDDEN
 10
471.50000000068388
 20
-556.00000000000671
 30
0.0
 11
560.50000000068394
 21
-556.00000000000671
 31
0.0
1001
ACDBBLOCKREPETAG
1070
     1
1071
      430
1005
130B01
  0
LINE
  5
130B02
  8
OBJECT
 10
454.00000000068388
 20
-342.99999999998181
 30
0.0
 11
454.00000000068388
 21
-339.99999999998181
 31
0.0
1001
ACDBBLOCKREPETAG
1070
     1
1071
      418
1005
130B02
  0
ARC
  5
130B03
  8
OBJECT
 10
457.000000000684
 20
-342.99999999998181
 30
0.0
 40
3.0
 50
180.0
 51
270.0
1001
ACDBBLOCKREPETAG
1070
     1
1071
      419
1005
130B03
  0
LINE
  5
130B04
  8
OBJECT
 10
578.00000000068394
 20
-339.99999999998181
 30
0.0
 11
578.00000000068394
 21
-342.99999999998181
 31
0.0
1001
ACDBBLOCKREPETAG
1070
     1
1071
      420
1005
130B04
  0
ARC
  5
130B05
  8
OBJECT
 10
575.00000000068394
 20
-342.99999999998181
 30
0.0
 40
3.0
 50
270.0
 51
0.0
1001
ACDBBLOCKREPETAG
1070
     1
1071
      421
1005
130B05
  0
LINE
  5
130B06
  8
OBJECT
 10
575.00000000068394
 20
-345.99999999998192
 30
0.0
 11
457.000000000684
 21
-345.99999999998192
 31
0.0
1001
ACDBBLOCKREPETAG
1070
     1
1071
      422
1005
130B06
  0
INSERT
  5
130B07
  8
OBJECT
  2
*U273
 10
0.0
 20
0.0
 30
0.0
  0
LINE
  5
130B08
  8
OBJECT
 10
649.00000000068394
 20
-204.99999999998181
 30
0.0
 11
656.00000000068394
 21
-204.99999999998181
 31
0.0
1001
ACDBBLOCKREPETAG
1070
     1
1071
       20
1005
130B08
  0
LINE
  5
130B09
  8
OBJECT
 10
656.00000000068394
 20
-204.99999999998181
 30
0.0
 11
656.00000000068394
 21
-314.99999999998181
 31
0.0
1001
ACDBBLOCKREPETAG
1070
     1
1071
       21
1005
130B09
  0
LINE
  5
130B0A
  8
OBJECT
 10
656.00000000068394
 20
-314.99999999998181
 30
0.0
 11
649.00000000068394
 21
-314.99999999998181
 31
0.0
1001
ACDBBLOCKREPETAG
1070
     1
1071
       22
1005
130B0A
  0
LINE
  5
130B0B
  8
OBJECT
 10
649.00000000068394
 20
-314.99999999998181
 30
0.0
 11
649.00000000068394
 21
-204.99999999998181
 31
0.0
1001
ACDBBLOCKREPETAG
1070
     1
1071
       23
1005
130B0B
  0
LINE
  5
130B0C
  8
OBJECT
 10
649.00000000068394
 20
-207.99999999998181
 30
0.0
 11
613.00000000068394
 21
-207.99999999998181
 31
0.0
1001
ACDBBLOCKREPETAG
1070
     1
1071
       24
1005
130B0C
  0
LINE
  5
130B0D
  8
OBJECT
 10
613.00000000068394
 20
-207.99999999998181
 30
0.0
 11
613.00000000068394
 21
-311.99999999998181
 31
0.0
1001
ACDBBLOCKREPETAG
1070
     1
1071
       25
1005
130B0D
  0
LINE
  5
130B0E
  8
OBJECT
 10
613.00000000068394
 20
-311.99999999998181
 30
0.0
 11
649.00000000068394
 21
-311.99999999998181
 31
0.0
1001
ACDBBLOCKREPETAG
1070
     1
1071
       26
1005
130B0E
  0
LINE
  5
130B0F
  8
OBJECT
 10
609.00000000068394
 20
-212.49999999998181
 30
0.0
 11
602.00000000068394
 21
-212.49999999998181
 31
0.0
1001
ACDBBLOCKREPETAG
1070
     1
1071
       27
1005
130B0F
  0
LINE
  5
130B10
  8
OBJECT
 10
602.00000000068394
 20
-307.49999999998181
 30
0.0
 11
609.00000000068394
 21
-307.49999999998181
 31
0.0
1001
ACDBBLOCKREPETAG
1070
     1
1071
       28
1005
130B10
  0
LINE
  5
130B11
  8
OBJECT
 10
609.00000000068394
 20
-307.49999999998181
 30
0.0
 11
609.00000000068394
 21
-212.49999999998181
 31
0.0
1001
ACDBBLOCKREPETAG
1070
     1
1071
       29
1005
130B11
  0
LINE
  5
130B12
  8
OBJECT
 10
613.00000000068394
 20
-207.99999999998181
 30
0.0
 11
609.00000000068394
 21
-212.49999999998181
 31
0.0
1001
ACDBBLOCKREPETAG
1070
     1
1071
       30
1005
130B12
  0
LINE
  5
130B13
  8
OBJECT
 10
613.00000000068394
 20
-311.99999999998181
 30
0.0
 11
609.00000000068394
 21
-307.49999999998181
 31
0.0
1001
ACDBBLOCKREPETAG
1070
     1
1071
       31
1005
130B13
  0
LINE
  5
130B14
  8
OBJECT
 10
599.00000000068565
 20
-197.99999999998181
 30
0.0
 11
596.00000000068394
 21
-197.99999999998181
 31
0.0
1001
ACDBBLOCKREPETAG
1070
     1
1071
       32
1005
130B14
  0
ARC
  5
130B15
  8
OBJECT
 10
599.00000000068565
 20
-200.99999999998181
 30
0.0
 40
3.0
 50
0.0
 51
90.0
1001
ACDBBLOCKREPETAG
1070
     1
1071
       33
1005
130B15
  0
LINE
  5
130B16
  8
OBJECT
 10
596.00000000068394
 20
-321.99999999998181
 30
0.0
 11
599.00000000068212
 21
-321.99999999998181
 31
0.0
1001
ACDBBLOCKREPETAG
1070
     1
1071
       34
1005
130B16
  0
ARC
  5
130B17
  8
OBJECT
 10
599.00000000068212
 20
-318.99999999998181
 30
0.0
 40
3.0
 50
270.0
 51
0.0
1001
ACDBBLOCKREPETAG
1070
     1
1071
       35
1005
130B17
  0
LINE
  5
130B18
  8
OBJECT
 10
602.00000000068212
 20
-318.99999999998181
 30
0.0
 11
602.00000000068576
 21
-200.99999999998181
 31
0.0
1001
ACDBBLOCKREPETAG
1070
     1
1071
       36
1005
130B18
  0
LINE
  5
130B19
  8
HIDDEN
 10
604.00000000068394
 20
-221.99999999998181
 30
0.0
 11
604.00000000068394
 21
-297.99999999998181
 31
0.0
1001
ACDBBLOCKREPETAG
1070
     1
1071
      427
1005
130B19
  0
LINE
  5
130B1A
  8
OBJECT
 10
454.00000000068388
 20
-46.999999999999538
 30
0.0
 11
454.00000000068388
 21
-39.999999999999552
 31
0.0
1001
ACDBBLOCKREPETAG
1070
     1
1071
       98
1005
130B1A
  0
LINE
  5
130B1B
  8
OBJECT
 10
454.00000000068388
 20
-39.999999999999552
 30
0.0
 11
578.00000000068394
 21
-39.999999999999552
 31
0.0
1001
ACDBBLOCKREPETAG
1070
     1
1071
       99
1005
130B1B
  0
LINE
  5
130B1C
  8
OBJECT
 10
578.00000000068394
 20
-39.999999999999552
 30
0.0
 11
578.00000000068394
 21
-46.999999999999538
 31
0.0
1001
ACDBBLOCKREPETAG
1070
     1
1071
      100
1005
130B1C
  0
LINE
  5
130B1D
  8
OBJECT
 10
578.00000000068394
 20
-46.999999999999538
 30
0.0
 11
454.00000000068388
 21
-46.999999999999538
 31
0.0
1001
ACDBBLOCKREPETAG
1070
     1
1071
      101
1005
130B1D
  0
LINE
  5
130B1E
  8
OBJECT
 10
561.00000000068735
 20
-100.0000250357984
 30
0.0
 11
561.00000000068394
 21
-173.9999999999859
 31
0.0
1001
ACDBBLOCKREPETAG
1070
     1
1071
      102
1005
130B1E
  0
LINE
  5
130B1F
  8
OBJECT
 10
471.00000000068388
 20
-100.0000250357984
 30
0.0
 11
471.00000000068388
 21
-173.99999999998411
 31
0.0
1001
ACDBBLOCKREPETAG
1070
     1
1071
      103
1005
130B1F
  0
LINE
  5
130B20
  8
OBJECT
 10
457.000000000684
 20
-46.999999999999538
 30
0.0
 11
457.000000000684
 21
-82.999999999999545
 31
0.0
1001
ACDBBLOCKREPETAG
1070
     1
1071
      104
1005
130B20
  0
LINE
  5
130B21
  8
OBJECT
 10
457.000000000684
 20
-82.999999999999545
 30
0.0
 11
575.00000000068394
 21
-82.999999999999545
 31
0.0
1001
ACDBBLOCKREPETAG
1070
     1
1071
      105
1005
130B21
  0
LINE
  5
130B22
  8
OBJECT
 10
575.00000000068394
 20
-82.999999999999545
 30
0.0
 11
575.00000000068394
 21
-46.999999999999538
 31
0.0
1001
ACDBBLOCKREPETAG
1070
     1
1071
      106
1005
130B22
  0
LINE
  5
130B23
  8
OBJECT
 10
461.500000000684
 20
-86.999999999999545
 30
0.0
 11
461.500000000684
 21
-99.999999999999545
 31
0.0
1001
ACDBBLOCKREPETAG
1070
     1
1071
      107
1005
130B23
  0
LINE
  5
130B24
  8
OBJECT
 10
570.50000000068394
 20
-99.999999999999545
 30
0.0
 11
570.50000000068394
 21
-86.999999999999545
 31
0.0
1001
ACDBBLOCKREPETAG
1070
     1
1071
      108
1005
130B24
  0
LINE
  5
130B25
  8
OBJECT
 10
570.50000000068394
 20
-86.999999999999545
 30
0.0
 11
461.500000000684
 21
-86.999999999999545
 31
0.0
1001
ACDBBLOCKREPETAG
1070
     1
1071
      109
1005
130B25
  0
LINE
  5
130B26
  8
OBJECT
 10
457.000000000684
 20
-82.999999999999545
 30
0.0
 11
461.500000000684
 21
-86.999999999999545
 31
0.0
1001
ACDBBLOCKREPETAG
1070
     1
1071
      110
1005
130B26
  0
LINE
  5
130B27
  8
OBJECT
 10
575.00000000068394
 20
-82.999999999999545
 30
0.0
 11
570.50000000068394
 21
-86.999999999999545
 31
0.0
1001
ACDBBLOCKREPETAG
1070
     1
1071
      111
1005
130B27
  0
LINE
  5
130B28
  8
OBJECT
 10
454.00000000068388
 20
-176.99999999998411
 30
0.0
 11
454.00000000068388
 21
-179.99999999998499
 31
0.0
1001
ACDBBLOCKREPETAG
1070
     1
1071
      112
1005
130B28
  0
ARC
  5
130B29
  8
OBJECT
 10
457.000000000684
 20
-176.99999999998411
 30
0.0
 40
3.0
 50
90.0
 51
180.0
1001
ACDBBLOCKREPETAG
1070
     1
1071
      113
1005
130B29
  0
LINE
  5
130B2A
  8
OBJECT
 10
578.00000000068394
 20
-179.99999999998499
 30
0.0
 11
578.00000000068394
 21
-176.9999999999859
 31
0.0
1001
ACDBBLOCKREPETAG
1070
     1
1071
      114
1005
130B2A
  0
ARC
  5
130B2B
  8
OBJECT
 10
575.00000000068394
 20
-176.9999999999859
 30
0.0
 40
3.0
 50
0.0
 51
90.0
1001
ACDBBLOCKREPETAG
1070
     1
1071
      115
1005
130B2B
  0
LINE
  5
130B2C
  8
OBJECT
 10
575.00000000068394
 20
-173.9999999999859
 30
0.0
 11
538.4499443213208
 21
-173.99999999998499
 31
0.0
1001
ACDBBLOCKREPETAG
1070
     1
1071
      116
1005
130B2C
  0
LINE
  5
130B2D
  8
OBJECT
 10
493.55005568004327
 20
-173.99999999998411
 30
0.0
 11
457.000000000684
 21
-173.99999999998411
 31
0.0
1001
ACDBBLOCKREPETAG
1070
     1
1071
      117
1005
130B2D
  0
LINE
  5
130B2E
  8
OBJECT
 10
570.49995092449535
 20
-100.0000250357984
 30
0.0
 11
461.49995092449518
 21
-100.0000250357984
 31
0.0
1001
ACDBBLOCKREPETAG
1070
     1
1071
      119
1005
130B2E
  0
ARC
  5
130B2F
  8
OBJECT
 10
516.00000000068394
 20
-134.9999999999813
 30
0.0
 40
45.000000000000547
 50
180.0
 51
0.0
1001
ACDBBLOCKREPETAG
1070
     1
1071
      120
1005
130B2F
  0
INSERT
  5
130B30
  8
OBJECT
  2
*U274
 10
0.0
 20
0.0
 30
0.0
  0
LINE
  5
130B31
  8
HIDDEN
 10
471.50000000068388
 20
-91.999999999999545
 30
0.0
 11
560.50000000068394
 21
-91.999999999999545
 31
0.0
1001
ACDBBLOCKREPETAG
1070
     1
1071
      430
1005
130B31
  0
LINE
  5
130B32
  8
OBJECT
 10
94.000000000603904
 20
-342.99999999998181
 30
0.0
 11
94.000000000603904
 21
-339.99999999998181
 31
0.0
1001
ACDBBLOCKREPETAG
1070
     1
1071
      418
1005
130B32
  0
ARC
  5
130B33
  8
OBJECT
 10
97.000000000603904
 20
-342.99999999998181
 30
0.0
 40
3.0
 50
180.0
 51
270.0
1001
ACDBBLOCKREPETAG
1070
     1
1071
      419
1005
130B33
  0
LINE
  5
130B34
  8
OBJECT
 10
218.0000000006039
 20
-339.99999999998181
 30
0.0
 11
218.0000000006039
 21
-342.99999999998181
 31
0.0
1001
ACDBBLOCKREPETAG
1070
     1
1071
      420
1005
130B34
  0
ARC
  5
130B35
  8
OBJECT
 10
215.0000000006039
 20
-342.99999999998181
 30
0.0
 40
3.0
 50
270.0
 51
0.0
1001
ACDBBLOCKREPETAG
1070
     1
1071
      421
1005
130B35
  0
LINE
  5
130B36
  8
OBJECT
 10
215.0000000006039
 20
-345.99999999998192
 30
0.0
 11
97.000000000603904
 21
-345.99999999998192
 31
0.0
1001
ACDBBLOCKREPETAG
1070
     1
1071
      422
1005
130B36
  0
INSERT
  5
130B37
  8
OBJECT
  2
*U275
 10
0.0
 20
0.0
 30
0.0
  0
LINE
  5
130B38
  8
OBJECT
 10
289.00000000060379
 20
-212.99999999998181
 30
0.0
 11
296.0000000006039
 21
-212.99999999998181
 31
0.0
1001
ACDBBLOCKREPETAG
1070
     1
1071
        1
1005
130B38
  0
LINE
  5
130B39
  8
OBJECT
 10
296.0000000006039
 20
-212.99999999998181
 30
0.0
 11
296.0000000006039
 21
-306.99999999998181
 31
0.0
1001
ACDBBLOCKREPETAG
1070
     1
1071
        2
1005
130B39
  0
LINE
  5
130B3A
  8
OBJECT
 10
296.0000000006039
 20
-306.99999999998181
 30
0.0
 11
289.00000000060379
 21
-306.99999999998181
 31
0.0
1001
ACDBBLOCKREPETAG
1070
     1
1071
        3
1005
130B3A
  0
LINE
  5
130B3B
  8
OBJECT
 10
289.00000000060379
 20
-306.99999999998181
 30
0.0
 11
289.00000000060379
 21
-212.99999999998181
 31
0.0
1001
ACDBBLOCKREPETAG
1070
     1
1071
        4
1005
130B3B
  0
LINE
  5
130B3C
  8
OBJECT
 10
289.00000000060379
 20
-215.99999999998181
 30
0.0
 11
253.0000000006039
 21
-215.99999999998181
 31
0.0
1001
ACDBBLOCKREPETAG
1070
     1
1071
        5
1005
130B3C
  0
LINE
  5
130B3D
  8
OBJECT
 10
253.0000000006039
 20
-215.99999999998181
 30
0.0
 11
253.0000000006039
 21
-303.99999999998181
 31
0.0
1001
ACDBBLOCKREPETAG
1070
     1
1071
        6
1005
130B3D
  0
LINE
  5
130B3E
  8
OBJECT
 10
253.0000000006039
 20
-303.99999999998181
 30
0.0
 11
289.00000000060379
 21
-303.99999999998181
 31
0.0
1001
ACDBBLOCKREPETAG
1070
     1
1071
        7
1005
130B3E
  0
LINE
  5
130B3F
  8
OBJECT
 10
249.0000000006039
 20
-220.49999999998181
 30
0.0
 11
242.0000000006039
 21
-220.49999999998181
 31
0.0
1001
ACDBBLOCKREPETAG
1070
     1
1071
        8
1005
130B3F
  0
LINE
  5
130B40
  8
OBJECT
 10
242.0000000006039
 20
-299.49999999998181
 30
0.0
 11
249.0000000006039
 21
-299.49999999998181
 31
0.0
1001
ACDBBLOCKREPETAG
1070
     1
1071
        9
1005
130B40
  0
LINE
  5
130B41
  8
OBJECT
 10
249.0000000006039
 20
-299.49999999998181
 30
0.0
 11
249.0000000006039
 21
-220.49999999998181
 31
0.0
1001
ACDBBLOCKREPETAG
1070
     1
1071
       10
1005
130B41
  0
LINE
  5
130B42
  8
OBJECT
 10
253.0000000006039
 20
-215.99999999998181
 30
0.0
 11
249.0000000006039
 21
-220.49999999998181
 31
0.0
1001
ACDBBLOCKREPETAG
1070
     1
1071
       11
1005
130B42
  0
LINE
  5
130B43
  8
OBJECT
 10
253.0000000006039
 20
-303.99999999998181
 30
0.0
 11
249.0000000006039
 21
-299.49999999998181
 31
0.0
1001
ACDBBLOCKREPETAG
1070
     1
1071
       12
1005
130B43
  0
LINE
  5
130B44
  8
OBJECT
 10
239.0000000006057
 20
-197.99999999998181
 30
0.0
 11
236.0000000006039
 21
-197.99999999998181
 31
0.0
1001
ACDBBLOCKREPETAG
1070
     1
1071
       13
1005
130B44
  0
ARC
  5
130B45
  8
OBJECT
 10
239.0000000006057
 20
-200.99999999998181
 30
0.0
 40
3.0
 50
0.0
 51
90.0
1001
ACDBBLOCKREPETAG
1070
     1
1071
       14
1005
130B45
  0
LINE
  5
130B46
  8
OBJECT
 10
236.0000000006039
 20
-321.99999999998181
 30
0.0
 11
239.00000000060211
 21
-321.99999999998181
 31
0.0
1001
ACDBBLOCKREPETAG
1070
     1
1071
       15
1005
130B46
  0
ARC
  5
130B47
  8
OBJECT
 10
239.00000000060211
 20
-318.99999999998181
 30
0.0
 40
3.0
 50
270.0
 51
0.0
1001
ACDBBLOCKREPETAG
1070
     1
1071
       16
1005
130B47
  0
LINE
  5
130B48
  8
OBJECT
 10
242.00000000060211
 20
-318.99999999998181
 30
0.0
 11
242.0000000006057
 21
-200.99999999998181
 31
0.0
1001
ACDBBLOCKREPETAG
1070
     1
1071
       17
1005
130B48
  0
LINE
  5
130B49
  8
HIDDEN
 10
244.0000000006039
 20
-229.99999999998181
 30
0.0
 11
244.0000000006039
 21
-289.99999999998181
 31
0.0
1001
ACDBBLOCKREPETAG
1070
     1
1071
      424
1005
130B49
  0
LINE
  5
130B4A
  8
OBJECT
 10
94.000000000603904
 20
-46.999999999999538
 30
0.0
 11
94.000000000603904
 21
-39.999999999999552
 31
0.0
1001
ACDBBLOCKREPETAG
1070
     1
1071
       98
1005
130B4A
  0
LINE
  5
130B4B
  8
OBJECT
 10
94.000000000603904
 20
-39.999999999999552
 30
0.0
 11
218.0000000006039
 21
-39.999999999999552
 31
0.0
1001
ACDBBLOCKREPETAG
1070
     1
1071
       99
1005
130B4B
  0
LINE
  5
130B4C
  8
OBJECT
 10
218.0000000006039
 20
-39.999999999999552
 30
0.0
 11
218.0000000006039
 21
-46.999999999999538
 31
0.0
1001
ACDBBLOCKREPETAG
1070
     1
1071
      100
1005
130B4C
  0
LINE
  5
130B4D
  8
OBJECT
 10
218.0000000006039
 20
-46.999999999999538
 30
0.0
 11
94.000000000603904
 21
-46.999999999999538
 31
0.0
1001
ACDBBLOCKREPETAG
1070
     1
1071
      101
1005
130B4D
  0
LINE
  5
130B4E
  8
OBJECT
 10
201.00000000060751
 20
-100.0000250357984
 30
0.0
 11
201.0000000006039
 21
-173.9999999999859
 31
0.0
1001
ACDBBLOCKREPETAG
1070
     1
1071
      102
1005
130B4E
  0
LINE
  5
130B4F
  8
OBJECT
 10
111.0000000006039
 20
-100.0000250357984
 30
0.0
 11
111.0000000006039
 21
-173.99999999998411
 31
0.0
1001
ACDBBLOCKREPETAG
1070
     1
1071
      103
1005
130B4F
  0
LINE
  5
130B50
  8
OBJECT
 10
97.000000000603904
 20
-46.999999999999538
 30
0.0
 11
97.000000000603904
 21
-82.999999999999545
 31
0.0
1001
ACDBBLOCKREPETAG
1070
     1
1071
      104
1005
130B50
  0
LINE
  5
130B51
  8
OBJECT
 10
97.000000000603904
 20
-82.999999999999545
 30
0.0
 11
215.0000000006039
 21
-82.999999999999545
 31
0.0
1001
ACDBBLOCKREPETAG
1070
     1
1071
      105
1005
130B51
  0
LINE
  5
130B52
  8
OBJECT
 10
215.0000000006039
 20
-82.999999999999545
 30
0.0
 11
215.0000000006039
 21
-46.999999999999538
 31
0.0
1001
ACDBBLOCKREPETAG
1070
     1
1071
      106
1005
130B52
  0
LINE
  5
130B53
  8
OBJECT
 10
101.5000000006039
 20
-86.999999999999545
 30
0.0
 11
101.5000000006039
 21
-99.999999999999545
 31
0.0
1001
ACDBBLOCKREPETAG
1070
     1
1071
      107
1005
130B53
  0
LINE
  5
130B54
  8
OBJECT
 10
210.5000000006039
 20
-99.999999999999545
 30
0.0
 11
210.5000000006039
 21
-86.999999999999545
 31
0.0
1001
ACDBBLOCKREPETAG
1070
     1
1071
      108
1005
130B54
  0
LINE
  5
130B55
  8
OBJECT
 10
210.5000000006039
 20
-86.999999999999545
 30
0.0
 11
101.5000000006039
 21
-86.999999999999545
 31
0.0
1001
ACDBBLOCKREPETAG
1070
     1
1071
      109
1005
130B55
  0
LINE
  5
130B56
  8
OBJECT
 10
97.000000000603904
 20
-82.999999999999545
 30
0.0
 11
101.5000000006039
 21
-86.999999999999545
 31
0.0
1001
ACDBBLOCKREPETAG
1070
     1
1071
      110
1005
130B56
  0
LINE
  5
130B57
  8
OBJECT
 10
215.0000000006039
 20
-82.999999999999545
 30
0.0
 11
210.5000000006039
 21
-86.999999999999545
 31
0.0
1001
ACDBBLOCKREPETAG
1070
     1
1071
      111
1005
130B57
  0
LINE
  5
130B58
  8
OBJECT
 10
94.000000000603904
 20
-176.99999999998411
 30
0.0
 11
94.000000000603904
 21
-179.99999999998499
 31
0.0
1001
ACDBBLOCKREPETAG
1070
     1
1071
      112
1005
130B58
  0
ARC
  5
130B59
  8
OBJECT
 10
97.000000000603904
 20
-176.99999999998411
 30
0.0
 40
3.0
 50
90.0
 51
180.0
1001
ACDBBLOCKREPETAG
1070
     1
1071
      113
1005
130B59
  0
LINE
  5
130B5A
  8
OBJECT
 10
218.0000000006039
 20
-179.99999999998499
 30
0.0
 11
218.0000000006039
 21
-176.9999999999859
 31
0.0
1001
ACDBBLOCKREPETAG
1070
     1
1071
      114
1005
130B5A
  0
ARC
  5
130B5B
  8
OBJECT
 10
215.0000000006039
 20
-176.9999999999859
 30
0.0
 40
3.0
 50
0.0
 51
90.0
1001
ACDBBLOCKREPETAG
1070
     1
1071
      115
1005
130B5B
  0
LINE
  5
130B5C
  8
OBJECT
 10
215.0000000006039
 20
-173.9999999999859
 30
0.0
 11
178.44994432124071
 21
-173.99999999998499
 31
0.0
1001
ACDBBLOCKREPETAG
1070
     1
1071
      116
1005
130B5C
  0
LINE
  5
130B5D
  8
OBJECT
 10
133.55005567996341
 20
-173.99999999998411
 30
0.0
 11
97.000000000603904
 21
-173.99999999998411
 31
0.0
1001
ACDBBLOCKREPETAG
1070
     1
1071
      117
1005
130B5D
  0
LINE
  5
130B5E
  8
OBJECT
 10
210.49995092441529
 20
-100.0000250357984
 30
0.0
 11
101.4999509244153
 21
-100.0000250357984
 31
0.0
1001
ACDBBLOCKREPETAG
1070
     1
1071
      119
1005
130B5E
  0
ARC
  5
130B5F
  8
OBJECT
 10
156.0000000006039
 20
-134.9999999999813
 30
0.0
 40
45.000000000000547
 50
180.0
 51
0.0
1001
ACDBBLOCKREPETAG
1070
     1
1071
      120
1005
130B5F
  0
INSERT
  5
130B60
  8
OBJECT
  2
*U276
 10
0.0
 20
0.0
 30
0.0
  0
LINE
  5
130B61
  8
HIDDEN
 10
111.5000000006039
 20
-91.999999999999545
 30
0.0
 11
200.5000000006039
 21
-91.999999999999545
 31
0.0
1001
ACDBBLOCKREPETAG
1070
     1
1071
      430
1005
130B61
  0
LINE
  5
130B62
  8
HIDDEN
 10
0.0
 20
0.0
 30
0.0
 11
360.0
 21
0.0
 31
0.0
1001
ACDBBLOCKREPETAG
1070
     1
1071
       49
1005
0
  0
LINE
  5
130B63
  8
HIDDEN
 10
360.0
 20
0.0
 30
0.0
 11
360.0
 21
-464.0
 31
0.0
1001
ACDBBLOCKREPETAG
1070
     1
1071
       49
1005
0
  0
LINE
  5
130B64
  8
HIDDEN
 10
360.0
 20
-464.0
 30
0.0
 11
0.0
 21
-464.0
 31
0.0
1001
ACDBBLOCKREPETAG
1070
     1
1071
       49
1005
0
  0
LINE
  5
130B65
  8
HIDDEN
 10
0.0
 20
-464.0
 30
0.0
 11
0.0
 21
0.0
 31
0.0
1001
ACDBBLOCKREPETAG
1070
     1
1071
       49
1005
0
  0
LINE
  5
130B66
  8
HIDDEN
 10
0.0
 20
-464.0
 30
0.0
 11
360.0
 21
-464.0
 31
0.0
1001
ACDBBLOCKREPETAG
1070
     1
1071
       36
1005
0
  0
LINE
  5
130B67
  8
HIDDEN
 10
360.0
 20
-464.0
 30
0.0
 11
360.0
 21
-928.0
 31
0.0
1001
ACDBBLOCKREPETAG
1070
     1
1071
       36
1005
0
  0
LINE
  5
130B68
  8
HIDDEN
 10
360.0
 20
-928.0
 30
0.0
 11
0.0
 21
-928.0
 31
0.0
1001
ACDBBLOCKREPETAG
1070
     1
1071
       36
1005
0
  0
LINE
  5
130B69
  8
HIDDEN
 10
0.0
 20
-928.0
 30
0.0
 11
0.0
 21
-464.0
 31
0.0
1001
ACDBBLOCKREPETAG
1070
     1
1071
       36
1005
0
  0
LINE
  5
130B6A
  8
HIDDEN
 10
360.0
 20
0.0
 30
0.0
 11
720.0
 21
0.0
 31
0.0
1001
ACDBBLOCKREPETAG
1070
     1
1071
       35
1005
0
  0
LINE
  5
130B6B
  8
HIDDEN
 10
720.0
 20
0.0
 30
0.0
 11
720.0
 21
-464.0
 31
0.0
1001
ACDBBLOCKREPETAG
1070
     1
1071
       35
1005
0
  0
LINE
  5
130B6C
  8
HIDDEN
 10
720.0
 20
-464.0
 30
0.0
 11
360.0
 21
-464.0
 31
0.0
1001
ACDBBLOCKREPETAG
1070
     1
1071
       35
1005
0
  0
LINE
  5
130B6D
  8
HIDDEN
 10
360.0
 20
-464.0
 30
0.0
 11
360.0
 21
0.0
 31
0.0
1001
ACDBBLOCKREPETAG
1070
     1
1071
       35
1005
0
  0
LINE
  5
130B6E
  8
HIDDEN
 10
360.0
 20
-464.0
 30
0.0
 11
720.0
 21
-464.0
 31
0.0
1001
ACDBBLOCKREPETAG
1070
     1
1071
       34
1005
0
  0
LINE
  5
130B6F
  8
HIDDEN
 10
720.0
 20
-464.0
 30
0.0
 11
720.0
 21
-928.0
 31
0.0
1001
ACDBBLOCKREPETAG
1070
     1
1071
       34
1005
0
  0
LINE
  5
130B70
  8
HIDDEN
 10
720.0
 20
-928.0
 30
0.0
 11
360.0
 21
-928.0
 31
0.0
1001
ACDBBLOCKREPETAG
1070
     1
1071
       34
1005
0
  0
LINE
  5
130B71
  8
HIDDEN
 10
360.0
 20
-928.0
 30
0.0
 11
360.0
 21
-464.0
 31
0.0
1001
ACDBBLOCKREPETAG
1070
     1
1071
       34
1005
0
  0
TEXT
  5
130B72
  8
SLIM
 10
1850.0
 20
532.5
 30
0.0
 40
75.0
  1
側面図の代表機種
 41
0.75
  0
CIRCLE
  5
130B73
  8
OBJECT
 10
5000.0
 20
-3294.9999999999959
 30
0.0
 40
53.5
1001
ACDBBLOCKREPETAG
1070
     1
1071
      344
1005
130B73
  0
LINE
  5
130B74
  8
CENTER
 10
5080.0
 20
-3294.9999999999959
 30
0.0
 11
4905.0
 21
-3294.9999999999959
 31
0.0
1001
ACDBBLOCKREPETAG
1070
     1
1071
       14
1005
130B74
  0
LINE
  5
130B75
  8
CENTER
 10
5000.0
 20
-3389.9999999999968
 30
0.0
 11
5000.0
 21
-3199.9999999999959
 31
0.0
1001
ACDBBLOCKREPETAG
1070
     1
1071
       15
1005
130B75
  0
CIRCLE
  5
130B76
  8
OBJECT
 10
5000.0
 20
-3294.9999999999959
 30
0.0
 40
70.0
1001
ACDBBLOCKREPETAG
1070
     1
1071
       16
1005
130B76
  0
CIRCLE
  5
130B77
  8
OBJECT
 10
5000.0
 20
-3294.9999999999959
 30
0.0
 40
77.0
1001
ACDBBLOCKREPETAG
1070
     1
1071
       17
1005
130B77
  0
ARC
  5
130B78
  8
OBJECT
 10
5000.0
 20
-3294.9999999999959
 30
0.0
 40
80.0
 50
50.805032573882329
 51
309.19496742611773
1001
ACDBBLOCKREPETAG
1070
     1
1071
       18
1005
130B78
  0
LINE
  5
130B79
  8
OBJECT
 10
5045.6618002273253
 20
-3232.9999999999959
 30
0.0
 11
5080.0
 21
-3232.9999999999959
 31
0.0
1001
ACDBBLOCKREPETAG
1070
     1
1071
       19
1005
130B79
  0
LINE
  5
130B7A
  8
OBJECT
 10
5045.6618002273253
 20
-3356.9999999999959
 30
0.0
 11
5080.0
 21
-3356.9999999999959
 31
0.0
1001
ACDBBLOCKREPETAG
1070
     1
1071
       20
1005
130B7A
  0
POINT
  5
130B7B
  8
DOTS
 10
5000.0
 20
-3294.9999999999959
 30
0.0
1001
ACDBBLOCKREPETAG
1070
     1
1071
       21
1005
130B7B
  0
CIRCLE
  5
130B7C
  8
OBJECT
 10
4000.0
 20
-3294.9999999999959
 30
0.0
 40
53.5
1001
ACDBBLOCKREPETAG
1070
     1
1071
      344
1005
130B7C
  0
LINE
  5
130B7D
  8
CENTER
 10
4080.0
 20
-3294.9999999999959
 30
0.0
 11
3905.0
 21
-3294.9999999999959
 31
0.0
1001
ACDBBLOCKREPETAG
1070
     1
1071
       14
1005
130B7D
  0
LINE
  5
130B7E
  8
CENTER
 10
4000.0
 20
-3389.9999999999968
 30
0.0
 11
4000.0
 21
-3199.9999999999959
 31
0.0
1001
ACDBBLOCKREPETAG
1070
     1
1071
       15
1005
130B7E
  0
CIRCLE
  5
130B7F
  8
OBJECT
 10
4000.0
 20
-3294.9999999999959
 30
0.0
 40
70.0
1001
ACDBBLOCKREPETAG
1070
     1
1071
       16
1005
130B7F
  0
CIRCLE
  5
130B80
  8
OBJECT
 10
4000.0
 20
-3294.9999999999959
 30
0.0
 40
77.0
1001
ACDBBLOCKREPETAG
1070
     1
1071
       17
1005
130B80
  0
ARC
  5
130B81
  8
OBJECT
 10
4000.0
 20
-3294.9999999999959
 30
0.0
 40
80.0
 50
50.805032573862128
 51
309.19496742613791
1001
ACDBBLOCKREPETAG
1070
     1
1071
       18
1005
130B81
  0
LINE
  5
130B82
  8
OBJECT
 10
4045.661800227324
 20
-3232.9999999999959
 30
0.0
 11
4080.0
 21
-3232.9999999999959
 31
0.0
1001
ACDBBLOCKREPETAG
1070
     1
1071
       19
1005
130B82
  0
LINE
  5
130B83
  8
OBJECT
 10
4045.661800227324
 20
-3356.9999999999959
 30
0.0
 11
4080.0
 21
-3356.9999999999959
 31
0.0
1001
ACDBBLOCKREPETAG
1070
     1
1071
       20
1005
130B83
  0
POINT
  5
130B84
  8
DOTS
 10
4000.0
 20
-3294.9999999999959
 30
0.0
1001
ACDBBLOCKREPETAG
1070
     1
1071
       21
1005
130B84
  0
CIRCLE
  5
130B85
  8
OBJECT
 10
3000.0
 20
-3294.9999999999959
 30
0.0
 40
53.5
1001
ACDBBLOCKREPETAG
1070
     1
1071
      344
1005
130B85
  0
LINE
  5
130B86
  8
CENTER
 10
3080.0
 20
-3294.9999999999959
 30
0.0
 11
2905.0
 21
-3294.9999999999959
 31
0.0
1001
ACDBBLOCKREPETAG
1070
     1
1071
       14
1005
130B86
  0
LINE
  5
130B87
  8
CENTER
 10
3000.0
 20
-3389.9999999999968
 30
0.0
 11
3000.0
 21
-3199.9999999999959
 31
0.0
1001
ACDBBLOCKREPETAG
1070
     1
1071
       15
1005
130B87
  0
CIRCLE
  5
130B88
  8
OBJECT
 10
3000.0
 20
-3294.9999999999959
 30
0.0
 40
70.0
1001
ACDBBLOCKREPETAG
1070
     1
1071
       16
1005
130B88
  0
CIRCLE
  5
130B89
  8
OBJECT
 10
3000.0
 20
-3294.9999999999959
 30
0.0
 40
77.0
1001
ACDBBLOCKREPETAG
1070
     1
1071
       17
1005
130B89
  0
ARC
  5
130B8A
  8
OBJECT
 10
3000.0
 20
-3294.9999999999959
 30
0.0
 40
80.0
 50
50.805032573862128
 51
309.19496742613791
1001
ACDBBLOCKREPETAG
1070
     1
1071
       18
1005
130B8A
  0
LINE
  5
130B8B
  8
OBJECT
 10
3045.6618002273249
 20
-3232.9999999999959
 30
0.0
 11
3080.0
 21
-3232.9999999999959
 31
0.0
1001
ACDBBLOCKREPETAG
1070
     1
1071
       19
1005
130B8B
  0
LINE
  5
130B8C
  8
OBJECT
 10
3045.6618002273249
 20
-3356.9999999999959
 30
0.0
 11
3080.0
 21
-3356.9999999999959
 31
0.0
1001
ACDBBLOCKREPETAG
1070
     1
1071
       20
1005
130B8C
  0
POINT
  5
130B8D
  8
DOTS
 10
3000.0
 20
-3294.9999999999959
 30
0.0
1001
ACDBBLOCKREPETAG
1070
     1
1071
       21
1005
130B8D
  0
CIRCLE
  5
130B8E
  8
OBJECT
 10
2000.0
 20
-3294.9999999999959
 30
0.0
 40
53.5
1001
ACDBBLOCKREPETAG
1070
     1
1071
      344
1005
130B8E
  0
LINE
  5
130B8F
  8
CENTER
 10
2080.0
 20
-3294.9999999999959
 30
0.0
 11
1905.0
 21
-3294.9999999999959
 31
0.0
1001
ACDBBLOCKREPETAG
1070
     1
1071
       14
1005
130B8F
  0
LINE
  5
130B90
  8
CENTER
 10
2000.0
 20
-3389.9999999999968
 30
0.0
 11
2000.0
 21
-3199.9999999999959
 31
0.0
1001
ACDBBLOCKREPETAG
1070
     1
1071
       15
1005
130B90
  0
CIRCLE
  5
130B91
  8
OBJECT
 10
2000.0
 20
-3294.9999999999959
 30
0.0
 40
70.0
1001
ACDBBLOCKREPETAG
1070
     1
1071
       16
1005
130B91
  0
CIRCLE
  5
130B92
  8
OBJECT
 10
2000.0
 20
-3294.9999999999959
 30
0.0
 40
77.0
1001
ACDBBLOCKREPETAG
1070
     1
1071
       17
1005
130B92
  0
ARC
  5
130B93
  8
OBJECT
 10
2000.0
 20
-3294.9999999999959
 30
0.0
 40
80.0
 50
50.805032573862128
 51
309.19496742613791
1001
ACDBBLOCKREPETAG
1070
     1
1071
       18
1005
130B93
  0
LINE
  5
130B94
  8
OBJECT
 10
2045.6618002273251
 20
-3232.9999999999959
 30
0.0
 11
2080.0
 21
-3232.9999999999959
 31
0.0
1001
ACDBBLOCKREPETAG
1070
     1
1071
       19
1005
130B94
  0
LINE
  5
130B95
  8
OBJECT
 10
2045.6618002273251
 20
-3356.9999999999959
 30
0.0
 11
2080.0
 21
-3356.9999999999959
 31
0.0
1001
ACDBBLOCKREPETAG
1070
     1
1071
       20
1005
130B95
  0
POINT
  5
130B96
  8
DOTS
 10
2000.0
 20
-3294.9999999999959
 30
0.0
1001
ACDBBLOCKREPETAG
1070
     1
1071
       21
1005
130B96
  0
LINE
  5
130B97
  8
SLIM
 10
3945.2566704261012
 20
-137.99999999999909
 30
0.0
 11
3955.9548403695781
 21
-127.30183005652231
 31
0.0
1001
GRADIENTCOLOR1ACI
1070
     5
1001
GRADIENTCOLOR2ACI
1070
     2
1001
ACAD
1010
0.0
1020
0.0
1030
0.0
1001
ACDBBLOCKREPETAG
1070
     1
1071
      422
1005
130B97
  0
LINE
  5
130B98
  8
SLIM
 10
3954.2369265471712
 20
-137.99999999999909
 30
0.0
 11
3972.7507744763329
 21
-119.4861520708364
 31
0.0
1001
GRADIENTCOLOR1ACI
1070
     5
1001
GRADIENTCOLOR2ACI
1070
     2
1001
ACAD
1010
0.0
1020
0.0
1030
0.0
1001
ACDBBLOCKREPETAG
1070
     1
1071
      423
1005
130B98
  0
LINE
  5
130B99
  8
SLIM
 10
3973.521224312457
 20
-127.6959583557812
 30
0.0
 11
3984.8575146748631
 21
-116.359667993377
 31
0.0
1001
GRADIENTCOLOR1ACI
1070
     5
1001
GRADIENTCOLOR2ACI
1070
     2
1001
ACAD
1010
0.0
1020
0.0
1030
0.0
1001
ACDBBLOCKREPETAG
1070
     1
1071
      424
1005
130B99
  0
LINE
  5
130B9A
  8
SLIM
 10
3985.8944171461271
 20
-124.30302164318159
 30
0.0
 11
3995.0533812002559
 21
-115.1440575890517
 31
0.0
1001
GRADIENTCOLOR1ACI
1070
     5
1001
GRADIENTCOLOR2ACI
1070
     2
1001
ACAD
1010
0.0
1020
0.0
1030
0.0
1001
ACDBBLOCKREPETAG
1070
     1
1071
      425
1005
130B9A
  0
LINE
  5
130B9B
  8
SLIM
 10
3996.0777327492078
 20
-123.0999621611699
 30
0.0
 11
4000.0
 21
-119.1776949103767
 31
0.0
1001
GRADIENTCOLOR1ACI
1070
     5
1001
GRADIENTCOLOR2ACI
1070
     2
1001
ACAD
1010
0.0
1020
0.0
1030
0.0
1001
ACDBBLOCKREPETAG
1070
     1
1071
      426
1005
130B9B
  0
LINE
  5
130B9C
  8
SLIM
 10
4000.0
 20
-119.1776949103767
 30
0.0
 11
4004.0797313529042
 21
-115.0979635574724
 31
0.0
1001
GRADIENTCOLOR1ACI
1070
     5
1001
GRADIENTCOLOR2ACI
1070
     2
1001
ACAD
1010
0.0
1020
0.0
1030
0.0
1001
ACDBBLOCKREPETAG
1070
     1
1071
      427
1005
130B9C
  0
LINE
  5
130B9D
  8
SLIM
 10
4004.9957202542769
 20
-123.1622307771683
 30
0.0
 11
4012.2679784105749
 21
-115.88997262087101
 31
0.0
1001
GRADIENTCOLOR1ACI
1070
     5
1001
GRADIENTCOLOR2ACI
1070
     2
1001
ACAD
1010
0.0
1020
0.0
1030
0.0
1001
ACDBBLOCKREPETAG
1070
     1
1071
      428
1005
130B9D
  0
LINE
  5
130B9E
  8
SLIM
 10
4013.028059366964
 20
-124.1101477855505
 30
0.0
 11
4019.799941457361
 21
-117.3382656951526
 31
0.0
1001
GRADIENTCOLOR1ACI
1070
     5
1001
GRADIENTCOLOR2ACI
1070
     2
1001
ACAD
1010
0.0
1020
0.0
1030
0.0
1001
ACDBBLOCKREPETAG
1070
     1
1071
      429
1005
130B9E
  0
LINE
  5
130B9F
  8
SLIM
 10
4020.3740813142458
 20
-125.7443819593383
 30
0.0
 11
4026.7872038672799
 21
-119.3312594063044
 31
0.0
1001
GRADIENTCOLOR1ACI
1070
     5
1001
GRADIENTCOLOR2ACI
1070
     2
1001
ACAD
1010
0.0
1020
0.0
1030
0.0
1001
ACDBBLOCKREPETAG
1070
     1
1071
      430
1005
130B9F
  0
LINE
  5
130BA0
  8
SLIM
 10
4027.1524719988752
 20
-127.946247395778
 30
0.0
 11
4033.3030030760328
 21
-121.7957163186195
 31
0.0
1001
GRADIENTCOLOR1ACI
1070
     5
1001
GRADIENTCOLOR2ACI
1070
     2
1001
ACAD
1010
0.0
1020
0.0
1030
0.0
1001
ACDBBLOCKREPETAG
1070
     1
1071
      431
1005
130BA0
  0
LINE
  5
130BA1
  8
SLIM
 10
4033.4390986513308
 20
-130.63987686439191
 30
0.0
 11
4039.3973119843781
 21
-124.6816635313439
 31
0.0
1001
GRADIENTCOLOR1ACI
1070
     5
1001
GRADIENTCOLOR2ACI
1070
     2
1001
ACAD
1010
0.0
1020
0.0
1030
0.0
1001
ACDBBLOCKREPETAG
1070
     1
1071
      432
1005
130BA1
  0
LINE
  5
130BA2
  8
SLIM
 10
4039.284224621797
 20
-133.77500701499321
 30
0.0
 11
4045.1047705343681
 21
-127.95446110242381
 31
0.0
1001
GRADIENTCOLOR1ACI
1070
     5
1001
GRADIENTCOLOR2ACI
1070
     2
1001
ACAD
1010
0.0
1020
0.0
1030
0.0
1001
ACDBBLOCKREPETAG
1070
     1
1071
      433
1005
130BA2
  0
LINE
  5
130BA3
  8
SLIM
 10
4044.7212801698038
 20
-137.31820758805651
 30
0.0
 11
4050.4491557891961
 21
-131.59033196866449
 31
0.0
1001
GRADIENTCOLOR1ACI
1070
     5
1001
GRADIENTCOLOR2ACI
1070
     2
1001
ACAD
1010
0.0
1020
0.0
1030
0.0
1001
ACDBBLOCKREPETAG
1070
     1
1071
      434
1005
130BA3
  0
LINE
  5
130BA4
  8
SLIM
 10
4053.0197438789291
 20
-137.99999999999909
 30
0.0
 11
4055.4459941864038
 21
-135.57374969252561
 31
0.0
1001
GRADIENTCOLOR1ACI
1070
     5
1001
GRADIENTCOLOR2ACI
1070
     2
1001
ACAD
1010
0.0
1020
0.0
1030
0.0
1001
ACDBBLOCKREPETAG
1070
     1
1071
      435
1005
130BA4
  0
LINE
  5
130BA5
  8
CENTER
 10
4000.0
 20
-279.99999999999909
 30
0.0
 11
4000.0
 21
-99.999999999999091
 31
0.0
1001
ACDBBLOCKREPETAG
1070
     1
1071
      160
1005
130BA5
  0
CIRCLE
  5
130BA6
  8
OBJECT
 10
4000.0
 20
-199.99999999999909
 30
0.0
 40
70.0
1001
ACDBBLOCKREPETAG
1070
     1
1071
      161
1005
130BA6
  0
CIRCLE
  5
130BA7
  8
OBJECT
 10
4000.0
 20
-199.99999999999909
 30
0.0
 40
77.0
1001
ACDBBLOCKREPETAG
1070
     1
1071
      162
1005
130BA7
  0
LINE
  5
130BA8
  8
OBJECT
 10
4045.661800227324
 20
-137.99999999999909
 30
0.0
 11
4080.0
 21
-137.99999999999909
 31
0.0
1001
ACDBBLOCKREPETAG
1070
     1
1071
      164
1005
130BA8
  0
LINE
  5
130BA9
  8
OBJECT
 10
4062.0
 20
-261.99999999999909
 30
0.0
 11
4080.0
 21
-261.99999999999909
 31
0.0
1001
ACDBBLOCKREPETAG
1070
     1
1071
      165
1005
130BA9
  0
LINE
  5
130BAA
  8
OBJECT
 10
4062.0
 20
-261.99999999999909
 30
0.0
 11
4062.0
 21
-279.99999999999909
 31
0.0
1001
ACDBBLOCKREPETAG
1070
     1
1071
      167
1005
130BAA
  0
LINE
  5
130BAB
  8
OBJECT
 10
3938.0
 20
-261.99999999999909
 30
0.0
 11
3938.0
 21
-279.99999999999909
 31
0.0
1001
ACDBBLOCKREPETAG
1070
     1
1071
      168
1005
130BAB
  0
LINE
  5
130BAC
  8
OBJECT
 10
3938.0
 20
-261.99999999999909
 30
0.0
 11
3920.0
 21
-261.99999999999909
 31
0.0
1001
ACDBBLOCKREPETAG
1070
     1
1071
      170
1005
130BAC
  0
LINE
  5
130BAD
  8
OBJECT
 10
3954.338199772676
 20
-137.99999999999909
 30
0.0
 11
3920.0
 21
-137.99999999999909
 31
0.0
1001
ACDBBLOCKREPETAG
1070
     1
1071
      171
1005
130BAD
  0
LINE
  5
130BAE
  8
OBJECT
 10
3945.5527778486362
 20
-254.44722215136329
 30
0.0
 11
3938.0
 21
-261.99999999999909
 31
0.0
1001
ACDBBLOCKREPETAG
1070
     1
1071
      180
1005
130BAE
  0
LINE
  5
130BAF
  8
OBJECT
 10
4054.4472221513638
 20
-254.44722215136329
 30
0.0
 11
4062.0
 21
-261.99999999999909
 31
0.0
1001
ACDBBLOCKREPETAG
1070
     1
1071
      181
1005
130BAF
  0
POINT
  5
130BB0
  8
DOTS
 10
4000.0
 20
-199.99999999999909
 30
0.0
 50
270.0
1001
ACDBBLOCKREPETAG
1070
     1
1071
      182
1005
130BB0
  0
ARC
  5
130BB1
  8
OBJECT
 10
4000.0
 20
-199.99999999999909
 30
0.0
 40
85.0
 50
46.837102859806208
 51
133.16289714019371
1001
ACDBBLOCKREPETAG
1070
     1
1071
      183
1005
130BB1
  0
CIRCLE
  5
130BB2
  8
OBJECT
 10
4000.0
 20
-199.99999999999909
 30
0.0
 40
53.5
1001
ACDBBLOCKREPETAG
1070
     1
1071
      352
1005
130BB2
  0
LINE
  5
130BB3
  8
CENTER
 10
4080.0
 20
-199.99999999999909
 30
0.0
 11
3920.0
 21
-199.99999999999909
 31
0.0
1001
ACDBBLOCKREPETAG
1070
     1
1071
      158
1005
130BB3
  0
CIRCLE
  5
130BB4
  8
OBJECT
 10
2000.0
 20
-199.99999999999909
 30
0.0
 40
53.5
1001
ACDBBLOCKREPETAG
1070
     1
1071
      340
1005
130BB4
  0
LINE
  5
130BB5
  8
CENTER
 10
2080.0
 20
-199.99999999999909
 30
0.0
 11
1920.0
 21
-199.99999999999909
 31
0.0
1001
ACDBBLOCKREPETAG
1070
     1
1071
       49
1005
130BB5
  0
LINE
  5
130BB6
  8
CENTER
 10
2000.0
 20
-279.99999999999909
 30
0.0
 11
2000.0
 21
-104.9999999999991
 31
0.0
1001
ACDBBLOCKREPETAG
1070
     1
1071
       50
1005
130BB6
  0
CIRCLE
  5
130BB7
  8
OBJECT
 10
2000.0
 20
-199.99999999999909
 30
0.0
 40
70.0
1001
ACDBBLOCKREPETAG
1070
     1
1071
       51
1005
130BB7
  0
CIRCLE
  5
130BB8
  8
OBJECT
 10
2000.0
 20
-199.99999999999909
 30
0.0
 40
77.0
1001
ACDBBLOCKREPETAG
1070
     1
1071
       52
1005
130BB8
  0
ARC
  5
130BB9
  8
OBJECT
 10
2000.0
 20
-199.99999999999909
 30
0.0
 40
80.0
 50
50.805032573864182
 51
129.1949674261358
1001
ACDBBLOCKREPETAG
1070
     1
1071
       53
1005
130BB9
  0
LINE
  5
130BBA
  8
OBJECT
 10
2045.6618002273251
 20
-137.99999999999909
 30
0.0
 11
2080.0
 21
-137.99999999999909
 31
0.0
1001
ACDBBLOCKREPETAG
1070
     1
1071
       54
1005
130BBA
  0
LINE
  5
130BBB
  8
OBJECT
 10
2062.0
 20
-261.99999999999909
 30
0.0
 11
2080.0
 21
-261.99999999999909
 31
0.0
1001
ACDBBLOCKREPETAG
1070
     1
1071
       55
1005
130BBB
  0
LINE
  5
130BBC
  8
OBJECT
 10
2062.0
 20
-261.99999999999909
 30
0.0
 11
2062.0
 21
-279.99999999999909
 31
0.0
1001
ACDBBLOCKREPETAG
1070
     1
1071
       57
1005
130BBC
  0
LINE
  5
130BBD
  8
OBJECT
 10
1938.0
 20
-261.99999999999909
 30
0.0
 11
1938.0
 21
-279.99999999999909
 31
0.0
1001
ACDBBLOCKREPETAG
1070
     1
1071
       58
1005
130BBD
  0
POINT
  5
130BBE
  8
DOTS
 10
2000.0
 20
-199.99999999999909
 30
0.0
 50
90.0
1001
ACDBBLOCKREPETAG
1070
     1
1071
       59
1005
130BBE
  0
LINE
  5
130BBF
  8
OBJECT
 10
1938.0
 20
-261.99999999999909
 30
0.0
 11
1920.0
 21
-261.99999999999909
 31
0.0
1001
ACDBBLOCKREPETAG
1070
     1
1071
       60
1005
130BBF
  0
LINE
  5
130BC0
  8
OBJECT
 10
1954.3381997726749
 20
-137.99999999999909
 30
0.0
 11
1920.0
 21
-137.99999999999909
 31
0.0
1001
ACDBBLOCKREPETAG
1070
     1
1071
       61
1005
130BC0
  0
LINE
  5
130BC1
  8
OBJECT
 10
1945.5527778486351
 20
-254.44722215136329
 30
0.0
 11
1938.0
 21
-261.99999999999909
 31
0.0
1001
ACDBBLOCKREPETAG
1070
     1
1071
       42
1005
130BC1
  0
LINE
  5
130BC2
  8
OBJECT
 10
2054.4472221513638
 20
-254.44722215136329
 30
0.0
 11
2062.0
 21
-261.99999999999909
 31
0.0
1001
ACDBBLOCKREPETAG
1070
     1
1071
       43
1005
130BC2
  0
LINE
  5
130BC3
  8
CENTER
 10
3899.0
 20
-199.99999999999909
 30
0.0
 11
3920.0
 21
-199.99999999999909
 31
0.0
1001
ACDBBLOCKREPETAG
1070
     1
1071
        0
1005
130BC3
  0
LINE
  5
130BC4
  8
OBJECT
 10
3917.0
 20
-261.99999999999909
 30
0.0
 11
3920.0
 21
-261.99999999999909
 31
0.0
1001
ACDBBLOCKREPETAG
1070
     1
1071
        1
1005
130BC4
  0
ARC
  5
130BC5
  8
OBJECT
 10
3917.0
 20
-258.99999999999909
 30
0.0
 40
3.0
 50
180.0
 51
270.0
1001
ACDBBLOCKREPETAG
1070
     1
1071
        2
1005
130BC5
  0
LINE
  5
130BC6
  8
OBJECT
 10
3920.0
 20
-137.99999999999909
 30
0.0
 11
3917.0
 21
-137.99999999999909
 31
0.0
1001
ACDBBLOCKREPETAG
1070
     1
1071
        3
1005
130BC6
  0
ARC
  5
130BC7
  8
OBJECT
 10
3917.0
 20
-140.99999999999909
 30
0.0
 40
3.0
 50
90.0
 51
180.0
1001
ACDBBLOCKREPETAG
1070
     1
1071
        4
1005
130BC7
  0
LINE
  5
130BC8
  8
OBJECT
 10
3914.0
 20
-140.99999999999909
 30
0.0
 11
3914.0
 21
-258.99999999999909
 31
0.0
1001
ACDBBLOCKREPETAG
1070
     1
1071
        5
1005
130BC8
  0
LINE
  5
130BC9
  8
OBJECT
 10
4062.0
 20
-332.99999999999898
 30
0.0
 11
4062.0
 21
-339.99999999999909
 31
0.0
1001
ACDBBLOCKREPETAG
1070
     1
1071
       47
1005
130BC9
  0
LINE
  5
130BCA
  8
OBJECT
 10
4062.0
 20
-339.99999999999909
 30
0.0
 11
3938.0
 21
-339.99999999999909
 31
0.0
1001
ACDBBLOCKREPETAG
1070
     1
1071
       48
1005
130BCA
  0
LINE
  5
130BCB
  8
OBJECT
 10
3938.0
 20
-339.99999999999909
 30
0.0
 11
3938.0
 21
-332.99999999999898
 31
0.0
1001
ACDBBLOCKREPETAG
1070
     1
1071
       49
1005
130BCB
  0
LINE
  5
130BCC
  8
OBJECT
 10
3938.0
 20
-332.99999999999898
 30
0.0
 11
4062.0
 21
-332.99999999999898
 31
0.0
1001
ACDBBLOCKREPETAG
1070
     1
1071
       50
1005
130BCC
  0
LINE
  5
130BCD
  8
CENTER
 10
4000.0
 20
-354.99999999999909
 30
0.0
 11
4000.0
 21
-279.99999999999909
 31
0.0
1001
ACDBBLOCKREPETAG
1070
     1
1071
       51
1005
130BCD
  0
LINE
  5
130BCE
  8
OBJECT
 10
4059.0
 20
-332.99999999999898
 30
0.0
 11
4059.0
 21
-296.99999999999898
 31
0.0
1001
ACDBBLOCKREPETAG
1070
     1
1071
       52
1005
130BCE
  0
LINE
  5
130BCF
  8
OBJECT
 10
4059.0
 20
-296.99999999999898
 30
0.0
 11
3941.0
 21
-296.99999999999898
 31
0.0
1001
ACDBBLOCKREPETAG
1070
     1
1071
       53
1005
130BCF
  0
LINE
  5
130BD0
  8
OBJECT
 10
3941.0
 20
-296.99999999999898
 30
0.0
 11
3941.0
 21
-332.99999999999898
 31
0.0
1001
ACDBBLOCKREPETAG
1070
     1
1071
       54
1005
130BD0
  0
LINE
  5
130BD1
  8
OBJECT
 10
4054.4999999999991
 20
-292.99999999999898
 30
0.0
 11
4054.4999999999991
 21
-285.99999999999898
 31
0.0
1001
ACDBBLOCKREPETAG
1070
     1
1071
       55
1005
130BD1
  0
LINE
  5
130BD2
  8
OBJECT
 10
3945.5
 20
-285.99999999999898
 30
0.0
 11
3945.5
 21
-292.99999999999898
 31
0.0
1001
ACDBBLOCKREPETAG
1070
     1
1071
       56
1005
130BD2
  0
LINE
  5
130BD3
  8
OBJECT
 10
3945.5
 20
-292.99999999999898
 30
0.0
 11
4054.4999999999991
 21
-292.99999999999898
 31
0.0
1001
ACDBBLOCKREPETAG
1070
     1
1071
       57
1005
130BD3
  0
LINE
  5
130BD4
  8
OBJECT
 10
4059.0
 20
-296.99999999999898
 30
0.0
 11
4054.4999999999991
 21
-292.99999999999898
 31
0.0
1001
ACDBBLOCKREPETAG
1070
     1
1071
       58
1005
130BD4
  0
LINE
  5
130BD5
  8
OBJECT
 10
3941.0
 20
-296.99999999999898
 30
0.0
 11
3945.5
 21
-292.99999999999898
 31
0.0
1001
ACDBBLOCKREPETAG
1070
     1
1071
       59
1005
130BD5
  0
LINE
  5
130BD6
  8
OBJECT
 10
4062.0
 20
-283.0
 30
0.0
 11
4062.0
 21
-279.99999999999909
 31
0.0
1001
ACDBBLOCKREPETAG
1070
     1
1071
       60
1005
130BD6
  0
ARC
  5
130BD7
  8
OBJECT
 10
4059.0
 20
-283.0
 30
0.0
 40
3.0
 50
270.0
 51
0.0
1001
ACDBBLOCKREPETAG
1070
     1
1071
       61
1005
130BD7
  0
LINE
  5
130BD8
  8
OBJECT
 10
3938.0
 20
-279.99999999999909
 30
0.0
 11
3938.0
 21
-282.99999999999818
 31
0.0
1001
ACDBBLOCKREPETAG
1070
     1
1071
       62
1005
130BD8
  0
ARC
  5
130BD9
  8
OBJECT
 10
3941.0
 20
-282.99999999999818
 30
0.0
 40
3.0
 50
180.0
 51
270.0
1001
ACDBBLOCKREPETAG
1070
     1
1071
       63
1005
130BD9
  0
LINE
  5
130BDA
  8
OBJECT
 10
3941.0
 20
-285.99999999999818
 30
0.0
 11
4059.0
 21
-286.0
 31
0.0
1001
ACDBBLOCKREPETAG
1070
     1
1071
       64
1005
130BDA
  0
LINE
  5
130BDB
  8
HIDDEN
 10
4044.5
 20
-287.99999999999909
 30
0.0
 11
3955.5
 21
-287.99999999999909
 31
0.0
1001
ACDBBLOCKREPETAG
1070
     1
1071
       65
1005
130BDB
  0
LINE
  5
130BDC
  8
OBJECT
 10
4212.9999999999854
 20
-137.99999999999909
 30
0.0
 11
4219.9999999999854
 21
-137.99999999999909
 31
0.0
1001
ACDBBLOCKREPETAG
1070
     1
1071
      110
1005
130BDC
  0
LINE
  5
130BDD
  8
OBJECT
 10
4219.9999999999854
 20
-137.99999999999909
 30
0.0
 11
4219.9999999999854
 21
-261.99999999999909
 31
0.0
1001
ACDBBLOCKREPETAG
1070
     1
1071
      111
1005
130BDD
  0
LINE
  5
130BDE
  8
OBJECT
 10
4219.9999999999854
 20
-261.99999999999909
 30
0.0
 11
4212.9999999999854
 21
-261.99999999999909
 31
0.0
1001
ACDBBLOCKREPETAG
1070
     1
1071
      112
1005
130BDE
  0
LINE
  5
130BDF
  8
OBJECT
 10
4212.9999999999854
 20
-261.99999999999909
 30
0.0
 11
4212.9999999999854
 21
-137.99999999999909
 31
0.0
1001
ACDBBLOCKREPETAG
1070
     1
1071
      113
1005
130BDF
  0
LINE
  5
130BE0
  8
CENTER
 10
4234.9999999999854
 20
-199.99999999999909
 30
0.0
 11
4080.0000000000041
 21
-199.99999999999909
 31
0.0
1001
ACDBBLOCKREPETAG
1070
     1
1071
      114
1005
130BE0
  0
LINE
  5
130BE1
  8
OBJECT
 10
4159.9999749641847
 20
-245.0000000000027
 30
0.0
 11
4086.0
 21
-244.99999999999909
 31
0.0
1001
ACDBBLOCKREPETAG
1070
     1
1071
      115
1005
130BE1
  0
LINE
  5
130BE2
  8
OBJECT
 10
4159.9999749641847
 20
-154.99999999999909
 30
0.0
 11
4086.0
 21
-154.99999999999909
 31
0.0
1001
ACDBBLOCKREPETAG
1070
     1
1071
      116
1005
130BE2
  0
LINE
  5
130BE3
  8
OBJECT
 10
4212.9999999999854
 20
-140.99999999999909
 30
0.0
 11
4176.9999999999854
 21
-140.99999999999909
 31
0.0
1001
ACDBBLOCKREPETAG
1070
     1
1071
      117
1005
130BE3
  0
LINE
  5
130BE4
  8
OBJECT
 10
4176.9999999999854
 20
-140.99999999999909
 30
0.0
 11
4176.9999999999854
 21
-258.99999999999909
 31
0.0
1001
ACDBBLOCKREPETAG
1070
     1
1071
      118
1005
130BE4
  0
LINE
  5
130BE5
  8
OBJECT
 10
4176.9999999999854
 20
-258.99999999999909
 30
0.0
 11
4212.9999999999854
 21
-258.99999999999909
 31
0.0
1001
ACDBBLOCKREPETAG
1070
     1
1071
      119
1005
130BE5
  0
LINE
  5
130BE6
  8
OBJECT
 10
4172.9999999999854
 20
-145.49999999999909
 30
0.0
 11
4159.9999999999854
 21
-145.49999999999909
 31
0.0
1001
ACDBBLOCKREPETAG
1070
     1
1071
      120
1005
130BE6
  0
LINE
  5
130BE7
  8
OBJECT
 10
4159.9999999999854
 20
-254.49999999999909
 30
0.0
 11
4172.9999999999854
 21
-254.49999999999909
 31
0.0
1001
ACDBBLOCKREPETAG
1070
     1
1071
      121
1005
130BE7
  0
LINE
  5
130BE8
  8
OBJECT
 10
4172.9999999999854
 20
-254.49999999999909
 30
0.0
 11
4172.9999999999854
 21
-145.49999999999909
 31
0.0
1001
ACDBBLOCKREPETAG
1070
     1
1071
      122
1005
130BE8
  0
LINE
  5
130BE9
  8
OBJECT
 10
4176.9999999999854
 20
-140.99999999999909
 30
0.0
 11
4172.9999999999854
 21
-145.49999999999909
 31
0.0
1001
ACDBBLOCKREPETAG
1070
     1
1071
      123
1005
130BE9
  0
LINE
  5
130BEA
  8
OBJECT
 10
4176.9999999999854
 20
-258.99999999999909
 30
0.0
 11
4172.9999999999854
 21
-254.49999999999909
 31
0.0
1001
ACDBBLOCKREPETAG
1070
     1
1071
      124
1005
130BEA
  0
LINE
  5
130BEB
  8
OBJECT
 10
4083.0
 20
-137.99999999999909
 30
0.0
 11
4080.0
 21
-137.99999999999909
 31
0.0
1001
ACDBBLOCKREPETAG
1070
     1
1071
      125
1005
130BEB
  0
ARC
  5
130BEC
  8
OBJECT
 10
4083.0
 20
-140.99999999999909
 30
0.0
 40
3.0
 50
0.0
 51
90.0
1001
ACDBBLOCKREPETAG
1070
     1
1071
      126
1005
130BEC
  0
LINE
  5
130BED
  8
OBJECT
 10
4080.0
 20
-261.99999999999909
 30
0.0
 11
4083.0
 21
-261.99999999999909
 31
0.0
1001
ACDBBLOCKREPETAG
1070
     1
1071
      127
1005
130BED
  0
ARC
  5
130BEE
  8
OBJECT
 10
4083.0
 20
-258.99999999999909
 30
0.0
 40
3.0
 50
270.0
 51
0.0
1001
ACDBBLOCKREPETAG
1070
     1
1071
      128
1005
130BEE
  0
LINE
  5
130BEF
  8
OBJECT
 10
4086.0
 20
-258.99999999999909
 30
0.0
 11
4086.0
 21
-222.44994432063581
 31
0.0
1001
ACDBBLOCKREPETAG
1070
     1
1071
      129
1005
130BEF
  0
LINE
  5
130BF0
  8
OBJECT
 10
4086.0
 20
-177.55005567935859
 30
0.0
 11
4086.0
 21
-140.99999999999909
 31
0.0
1001
ACDBBLOCKREPETAG
1070
     1
1071
      130
1005
130BF0
  0
LINE
  5
130BF1
  8
HIDDEN
 10
4167.9999999999854
 20
-155.49999999999909
 30
0.0
 11
4167.9999999999854
 21
-244.49999999999909
 31
0.0
1001
ACDBBLOCKREPETAG
1070
     1
1071
      131
1005
130BF1
  0
LINE
  5
130BF2
  8
OBJECT
 10
4159.9999749641847
 20
-254.4999509238105
 30
0.0
 11
4159.9999749641847
 21
-145.4999509238105
 31
0.0
1001
ACDBBLOCKREPETAG
1070
     1
1071
      133
1005
130BF2
  0
ARC
  5
130BF3
  8
OBJECT
 10
4125.0000000000018
 20
-199.99999999999909
 30
0.0
 40
45.000000000000547
 50
90.0
 51
270.0
1001
ACDBBLOCKREPETAG
1070
     1
1071
      134
1005
130BF3
  0
LINE
  5
130BF4
  8
OBJECT
 10
3917.0
 20
-634.0
 30
0.0
 11
3920.0
 21
-634.0
 31
0.0
1001
ACDBBLOCKREPETAG
1070
     1
1071
        1
1005
130BF4
  0
ARC
  5
130BF5
  8
OBJECT
 10
3917.0
 20
-637.0
 30
0.0
 40
3.0
 50
90.0
 51
180.0
1001
ACDBBLOCKREPETAG
1070
     1
1071
        2
1005
130BF5
  0
LINE
  5
130BF6
  8
OBJECT
 10
3920.0
 20
-758.0
 30
0.0
 11
3917.0
 21
-758.0
 31
0.0
1001
ACDBBLOCKREPETAG
1070
     1
1071
        3
1005
130BF6
  0
ARC
  5
130BF7
  8
OBJECT
 10
3917.0
 20
-755.0
 30
0.0
 40
3.0
 50
180.0
 51
270.0
1001
ACDBBLOCKREPETAG
1070
     1
1071
        4
1005
130BF7
  0
LINE
  5
130BF8
  8
OBJECT
 10
3914.0
 20
-755.0
 30
0.0
 11
3914.0
 21
-637.0
 31
0.0
1001
ACDBBLOCKREPETAG
1070
     1
1071
        5
1005
130BF8
  0
LINE
  5
130BF9
  8
CENTER
 10
4077.0
 20
-696.0
 30
0.0
 11
3923.0
 21
-696.0
 31
0.0
1001
ACDBBLOCKREPETAG
1070
     1
1071
       17
1005
130BF9
  0
CIRCLE
  5
130BFA
  8
OBJECT
 10
4000.0
 20
-696.0
 30
0.0
 40
41.5
1001
ACDBBLOCKREPETAG
1070
     1
1071
       19
1005
130BFA
  0
CIRCLE
  5
130BFB
  8
OBJECT
 10
4000.0
 20
-696.0
 30
0.0
 40
54.0
1001
ACDBBLOCKREPETAG
1070
     1
1071
       20
1005
130BFB
  0
ARC
  5
130BFC
  8
OBJECT
 10
4000.0
 20
-696.0
 30
0.0
 40
62.0
 50
287.89655112920718
 51
252.10344887079279
1001
ACDBBLOCKREPETAG
1070
     1
1071
       21
1005
130BFC
  0
LINE
  5
130BFD
  8
OBJECT
 10
3980.947441116743
 20
-755.0
 30
0.0
 11
4019.052558883257
 21
-755.0
 31
0.0
1001
ACDBBLOCKREPETAG
1070
     1
1071
       22
1005
130BFD
  0
LINE
  5
130BFE
  8
OBJECT
 10
4212.9999999999854
 20
-553.0000000000008
 30
0.0
 11
4219.9999999999854
 21
-553.0000000000008
 31
0.0
1001
ACDBBLOCKREPETAG
1070
     1
1071
      106
1005
130BFE
  0
LINE
  5
130BFF
  8
OBJECT
 10
4219.9999999999854
 20
-553.0000000000008
 30
0.0
 11
4219.9999999999854
 21
-677.0000000000008
 31
0.0
1001
ACDBBLOCKREPETAG
1070
     1
1071
      107
1005
130BFF
  0
LINE
  5
130C00
  8
OBJECT
 10
4085.9999999999859
 20
-653.3502637757274
 30
0.0
 11
4085.9999999999859
 21
-755.00000000000102
 31
0.0
1001
ACDBBLOCKREPETAG
1070
     1
1071
      108
1005
130C00
  0
LINE
  5
130C01
  8
OBJECT
 10
4219.9999999999854
 20
-677.0000000000008
 30
0.0
 11
4212.9999999999854
 21
-677.0000000000008
 31
0.0
1001
ACDBBLOCKREPETAG
1070
     1
1071
      109
1005
130C01
  0
LINE
  5
130C02
  8
OBJECT
 10
4212.9999999999854
 20
-677.0000000000008
 30
0.0
 11
4212.9999999999854
 21
-553.0000000000008
 31
0.0
1001
ACDBBLOCKREPETAG
1070
     1
1071
      110
1005
130C02
  0
LINE
  5
130C03
  8
CENTER
 10
4144.9999999999854
 20
-615.0000000000008
 30
0.0
 11
4234.9999999999854
 21
-615.0000000000008
 31
0.0
1001
ACDBBLOCKREPETAG
1070
     1
1071
      111
1005
130C03
  0
LINE
  5
130C04
  8
OBJECT
 10
4079.9999999999818
 20
-758.0
 30
0.0
 11
4082.999999999985
 21
-758.0000000000008
 31
0.0
1001
ACDBBLOCKREPETAG
1070
     1
1071
      112
1005
130C04
  0
ARC
  5
130C05
  8
OBJECT
 10
4082.999999999985
 20
-755.00000000000102
 30
0.0
 40
3.0
 50
270.0
 51
0.0
1001
ACDBBLOCKREPETAG
1070
     1
1071
      113
1005
130C05
  0
LINE
  5
130C06
  8
OBJECT
 10
4212.9999999999854
 20
-556.0000000000008
 30
0.0
 11
4176.9999999999854
 21
-556.0000000000008
 31
0.0
1001
ACDBBLOCKREPETAG
1070
     1
1071
      114
1005
130C06
  0
LINE
  5
130C07
  8
OBJECT
 10
4176.9999999999854
 20
-556.0000000000008
 30
0.0
 11
4176.9999999999854
 21
-653.15756805667843
 31
0.0
1001
ACDBBLOCKREPETAG
1070
     1
1071
      115
1005
130C07
  0
LINE
  5
130C08
  8
OBJECT
 10
4172.9999999999854
 20
-560.5000000000008
 30
0.0
 11
4172.9999999999818
 21
-645.74491827928705
 31
0.0
1001
ACDBBLOCKREPETAG
1070
     1
1071
      116
1005
130C08
  0
LINE
  5
130C09
  8
OBJECT
 10
4172.9999999999854
 20
-560.5000000000008
 30
0.0
 11
4159.9999999999854
 21
-560.5000000000008
 31
0.0
1001
ACDBBLOCKREPETAG
1070
     1
1071
      117
1005
130C09
  0
LINE
  5
130C0A
  8
OBJECT
 10
4168.6563168254679
 20
-674.0000000000008
 30
0.0
 11
4212.9999999999854
 21
-674.0000000000008
 31
0.0
1001
ACDBBLOCKREPETAG
1070
     1
1071
      118
1005
130C0A
  0
LINE
  5
130C0B
  8
OBJECT
 10
4176.9999999999854
 20
-556.0000000000008
 30
0.0
 11
4172.9999999999854
 21
-560.5000000000008
 31
0.0
1001
ACDBBLOCKREPETAG
1070
     1
1071
      119
1005
130C0B
  0
LINE
  5
130C0C
  8
OBJECT
 10
4159.9999999999854
 20
-560.5000000000008
 30
0.0
 11
4159.9999999999854
 21
-645.74491827928784
 31
0.0
1001
ACDBBLOCKREPETAG
1070
     1
1071
      120
1005
130C0C
  0
ARC
  5
130C0D
  8
OBJECT
 10
4091.9999999999841
 20
-637.27386365609345
 30
0.0
 40
85.0
 50
308.59099323720869
 51
334.40086127812339
1001
ACDBBLOCKREPETAG
1070
     1
1071
      121
1005
130C0D
  0
ARC
  5
130C0E
  8
OBJECT
 10
4162.7999999999847
 20
-655.00000000000068
 30
0.0
 40
85.0
 50
91.887731891831123
 51
160.07406787456929
1001
ACDBBLOCKREPETAG
1070
     1
1071
      122
1005
130C0E
  0
LINE
  5
130C0F
  8
OBJECT
 10
4085.9999999999859
 20
-750.81075719270905
 30
0.0
 11
4145.0193225436024
 21
-703.71143914629454
 31
0.0
1001
ACDBBLOCKREPETAG
1070
     1
1071
      123
1005
130C0F
  0
LINE
  5
130C10
  8
OBJECT
 10
4172.9999999999818
 20
-645.74491827928705
 30
0.0
 11
4159.9999999999854
 21
-645.74491827928784
 31
0.0
1001
ACDBBLOCKREPETAG
1070
     1
1071
      124
1005
130C10
  0
LINE
  5
130C11
  8
OBJECT
 10
4176.9999999999854
 20
-653.15756805667843
 30
0.0
 11
4172.9999999999818
 21
-645.74491827928705
 31
0.0
1001
ACDBBLOCKREPETAG
1070
     1
1071
      125
1005
130C11
  0
LINE
  5
130C12
  8
OBJECT
 10
4080.0000000000168
 20
-634.0
 30
0.0
 11
4082.8886121596229
 21
-626.03156729425325
 31
0.0
1001
ACDBBLOCKREPETAG
1070
     1
1071
      126
1005
130C12
  0
LINE
  5
130C13
  8
OBJECT
 10
4080.0000000000168
 20
-634.0
 30
0.0
 11
4085.9999999999859
 21
-653.3502637757274
 31
0.0
1001
ACDBBLOCKREPETAG
1070
     1
1071
      127
1005
130C13
  0
LINE
  5
130C14
  8
HIDDEN
 10
4167.9999999999854
 20
-570.5000000000008
 30
0.0
 11
4167.9999999999854
 21
-659.50000000000068
 31
0.0
1001
ACDBBLOCKREPETAG
1070
     1
1071
      129
1005
130C14
  0
LINE
  5
130C15
  8
CENTER
 10
1899.0
 20
-199.99999999999909
 30
0.0
 11
1920.0
 21
-199.99999999999909
 31
0.0
1001
ACDBBLOCKREPETAG
1070
     1
1071
        0
1005
130C15
  0
LINE
  5
130C16
  8
OBJECT
 10
1917.0
 20
-261.99999999999909
 30
0.0
 11
1920.0
 21
-261.99999999999909
 31
0.0
1001
ACDBBLOCKREPETAG
1070
     1
1071
        1
1005
130C16
  0
ARC
  5
130C17
  8
OBJECT
 10
1917.0
 20
-258.99999999999909
 30
0.0
 40
3.0
 50
180.0
 51
270.0
1001
ACDBBLOCKREPETAG
1070
     1
1071
        2
1005
130C17
  0
LINE
  5
130C18
  8
OBJECT
 10
1920.0
 20
-137.99999999999909
 30
0.0
 11
1917.0
 21
-137.99999999999909
 31
0.0
1001
ACDBBLOCKREPETAG
1070
     1
1071
        3
1005
130C18
  0
ARC
  5
130C19
  8
OBJECT
 10
1917.0
 20
-140.99999999999909
 30
0.0
 40
3.0
 50
90.0
 51
180.0
1001
ACDBBLOCKREPETAG
1070
     1
1071
        4
1005
130C19
  0
LINE
  5
130C1A
  8
OBJECT
 10
1914.0
 20
-140.99999999999909
 30
0.0
 11
1914.0
 21
-258.99999999999909
 31
0.0
1001
ACDBBLOCKREPETAG
1070
     1
1071
        5
1005
130C1A
  0
LINE
  5
130C1B
  8
OBJECT
 10
2062.0
 20
-332.99999999999898
 30
0.0
 11
2062.0
 21
-339.99999999999909
 31
0.0
1001
ACDBBLOCKREPETAG
1070
     1
1071
       47
1005
130C1B
  0
LINE
  5
130C1C
  8
OBJECT
 10
2062.0
 20
-339.99999999999909
 30
0.0
 11
1938.0
 21
-339.99999999999909
 31
0.0
1001
ACDBBLOCKREPETAG
1070
     1
1071
       48
1005
130C1C
  0
LINE
  5
130C1D
  8
OBJECT
 10
1938.0
 20
-339.99999999999909
 30
0.0
 11
1938.0
 21
-332.99999999999898
 31
0.0
1001
ACDBBLOCKREPETAG
1070
     1
1071
       49
1005
130C1D
  0
LINE
  5
130C1E
  8
OBJECT
 10
1938.0
 20
-332.99999999999898
 30
0.0
 11
2062.0
 21
-332.99999999999898
 31
0.0
1001
ACDBBLOCKREPETAG
1070
     1
1071
       50
1005
130C1E
  0
LINE
  5
130C1F
  8
CENTER
 10
2000.0
 20
-354.99999999999909
 30
0.0
 11
2000.0
 21
-279.99999999999909
 31
0.0
1001
ACDBBLOCKREPETAG
1070
     1
1071
       51
1005
130C1F
  0
LINE
  5
130C20
  8
OBJECT
 10
2059.0
 20
-332.99999999999898
 30
0.0
 11
2059.0
 21
-296.99999999999898
 31
0.0
1001
ACDBBLOCKREPETAG
1070
     1
1071
       52
1005
130C20
  0
LINE
  5
130C21
  8
OBJECT
 10
2059.0
 20
-296.99999999999898
 30
0.0
 11
1941.0
 21
-296.99999999999898
 31
0.0
1001
ACDBBLOCKREPETAG
1070
     1
1071
       53
1005
130C21
  0
LINE
  5
130C22
  8
OBJECT
 10
1941.0
 20
-296.99999999999898
 30
0.0
 11
1941.0
 21
-332.99999999999898
 31
0.0
1001
ACDBBLOCKREPETAG
1070
     1
1071
       54
1005
130C22
  0
LINE
  5
130C23
  8
OBJECT
 10
2054.5
 20
-292.99999999999898
 30
0.0
 11
2054.5
 21
-285.99999999999898
 31
0.0
1001
ACDBBLOCKREPETAG
1070
     1
1071
       55
1005
130C23
  0
LINE
  5
130C24
  8
OBJECT
 10
1945.5
 20
-285.99999999999898
 30
0.0
 11
1945.5
 21
-292.99999999999898
 31
0.0
1001
ACDBBLOCKREPETAG
1070
     1
1071
       56
1005
130C24
  0
LINE
  5
130C25
  8
OBJECT
 10
1945.5
 20
-292.99999999999898
 30
0.0
 11
2054.5
 21
-292.99999999999898
 31
0.0
1001
ACDBBLOCKREPETAG
1070
     1
1071
       57
1005
130C25
  0
LINE
  5
130C26
  8
OBJECT
 10
2059.0
 20
-296.99999999999898
 30
0.0
 11
2054.5
 21
-292.99999999999898
 31
0.0
1001
ACDBBLOCKREPETAG
1070
     1
1071
       58
1005
130C26
  0
LINE
  5
130C27
  8
OBJECT
 10
1941.0
 20
-296.99999999999898
 30
0.0
 11
1945.5
 21
-292.99999999999898
 31
0.0
1001
ACDBBLOCKREPETAG
1070
     1
1071
       59
1005
130C27
  0
LINE
  5
130C28
  8
OBJECT
 10
2062.0
 20
-283.0
 30
0.0
 11
2062.0
 21
-279.99999999999909
 31
0.0
1001
ACDBBLOCKREPETAG
1070
     1
1071
       60
1005
130C28
  0
ARC
  5
130C29
  8
OBJECT
 10
2059.0
 20
-283.0
 30
0.0
 40
3.0
 50
270.0
 51
0.0
1001
ACDBBLOCKREPETAG
1070
     1
1071
       61
1005
130C29
  0
LINE
  5
130C2A
  8
OBJECT
 10
1938.0
 20
-279.99999999999909
 30
0.0
 11
1938.0
 21
-282.99999999999818
 31
0.0
1001
ACDBBLOCKREPETAG
1070
     1
1071
       62
1005
130C2A
  0
ARC
  5
130C2B
  8
OBJECT
 10
1941.0
 20
-282.99999999999818
 30
0.0
 40
3.0
 50
180.0
 51
270.0
1001
ACDBBLOCKREPETAG
1070
     1
1071
       63
1005
130C2B
  0
LINE
  5
130C2C
  8
OBJECT
 10
1941.0
 20
-285.99999999999818
 30
0.0
 11
2059.0
 21
-286.0
 31
0.0
1001
ACDBBLOCKREPETAG
1070
     1
1071
       64
1005
130C2C
  0
LINE
  5
130C2D
  8
HIDDEN
 10
2044.5
 20
-287.99999999999909
 30
0.0
 11
1955.5
 21
-287.99999999999909
 31
0.0
1001
ACDBBLOCKREPETAG
1070
     1
1071
       65
1005
130C2D
  0
LINE
  5
130C2E
  8
OBJECT
 10
2212.999999999985
 20
-137.99999999999909
 30
0.0
 11
2219.999999999985
 21
-137.99999999999909
 31
0.0
1001
ACDBBLOCKREPETAG
1070
     1
1071
      110
1005
130C2E
  0
LINE
  5
130C2F
  8
OBJECT
 10
2219.999999999985
 20
-137.99999999999909
 30
0.0
 11
2219.999999999985
 21
-261.99999999999909
 31
0.0
1001
ACDBBLOCKREPETAG
1070
     1
1071
      111
1005
130C2F
  0
LINE
  5
130C30
  8
OBJECT
 10
2219.999999999985
 20
-261.99999999999909
 30
0.0
 11
2212.999999999985
 21
-261.99999999999909
 31
0.0
1001
ACDBBLOCKREPETAG
1070
     1
1071
      112
1005
130C30
  0
LINE
  5
130C31
  8
OBJECT
 10
2212.999999999985
 20
-261.99999999999909
 30
0.0
 11
2212.999999999985
 21
-137.99999999999909
 31
0.0
1001
ACDBBLOCKREPETAG
1070
     1
1071
      113
1005
130C31
  0
LINE
  5
130C32
  8
CENTER
 10
2234.9999999999859
 20
-199.99999999999909
 30
0.0
 11
2080.0000000000041
 21
-199.99999999999909
 31
0.0
1001
ACDBBLOCKREPETAG
1070
     1
1071
      114
1005
130C32
  0
LINE
  5
130C33
  8
OBJECT
 10
2159.999974964187
 20
-245.0000000000027
 30
0.0
 11
2086.0
 21
-244.99999999999909
 31
0.0
1001
ACDBBLOCKREPETAG
1070
     1
1071
      115
1005
130C33
  0
LINE
  5
130C34
  8
OBJECT
 10
2159.999974964187
 20
-154.99999999999909
 30
0.0
 11
2086.0
 21
-154.99999999999909
 31
0.0
1001
ACDBBLOCKREPETAG
1070
     1
1071
      116
1005
130C34
  0
LINE
  5
130C35
  8
OBJECT
 10
2212.999999999985
 20
-140.99999999999909
 30
0.0
 11
2176.999999999985
 21
-140.99999999999909
 31
0.0
1001
ACDBBLOCKREPETAG
1070
     1
1071
      117
1005
130C35
  0
LINE
  5
130C36
  8
OBJECT
 10
2176.999999999985
 20
-140.99999999999909
 30
0.0
 11
2176.999999999985
 21
-258.99999999999909
 31
0.0
1001
ACDBBLOCKREPETAG
1070
     1
1071
      118
1005
130C36
  0
LINE
  5
130C37
  8
OBJECT
 10
2176.999999999985
 20
-258.99999999999909
 30
0.0
 11
2212.999999999985
 21
-258.99999999999909
 31
0.0
1001
ACDBBLOCKREPETAG
1070
     1
1071
      119
1005
130C37
  0
LINE
  5
130C38
  8
OBJECT
 10
2172.999999999985
 20
-145.49999999999909
 30
0.0
 11
2159.999999999985
 21
-145.49999999999909
 31
0.0
1001
ACDBBLOCKREPETAG
1070
     1
1071
      120
1005
130C38
  0
LINE
  5
130C39
  8
OBJECT
 10
2159.999999999985
 20
-254.49999999999909
 30
0.0
 11
2172.999999999985
 21
-254.49999999999909
 31
0.0
1001
ACDBBLOCKREPETAG
1070
     1
1071
      121
1005
130C39
  0
LINE
  5
130C3A
  8
OBJECT
 10
2172.999999999985
 20
-254.49999999999909
 30
0.0
 11
2172.999999999985
 21
-145.49999999999909
 31
0.0
1001
ACDBBLOCKREPETAG
1070
     1
1071
      122
1005
130C3A
  0
LINE
  5
130C3B
  8
OBJECT
 10
2176.999999999985
 20
-140.99999999999909
 30
0.0
 11
2172.999999999985
 21
-145.49999999999909
 31
0.0
1001
ACDBBLOCKREPETAG
1070
     1
1071
      123
1005
130C3B
  0
LINE
  5
130C3C
  8
OBJECT
 10
2176.999999999985
 20
-258.99999999999909
 30
0.0
 11
2172.999999999985
 21
-254.49999999999909
 31
0.0
1001
ACDBBLOCKREPETAG
1070
     1
1071
      124
1005
130C3C
  0
LINE
  5
130C3D
  8
OBJECT
 10
2083.0
 20
-137.99999999999909
 30
0.0
 11
2080.0
 21
-137.99999999999909
 31
0.0
1001
ACDBBLOCKREPETAG
1070
     1
1071
      125
1005
130C3D
  0
ARC
  5
130C3E
  8
OBJECT
 10
2083.0
 20
-140.99999999999909
 30
0.0
 40
3.0
 50
0.0
 51
90.0
1001
ACDBBLOCKREPETAG
1070
     1
1071
      126
1005
130C3E
  0
LINE
  5
130C3F
  8
OBJECT
 10
2080.0
 20
-261.99999999999909
 30
0.0
 11
2083.0
 21
-261.99999999999909
 31
0.0
1001
ACDBBLOCKREPETAG
1070
     1
1071
      127
1005
130C3F
  0
ARC
  5
130C40
  8
OBJECT
 10
2083.0
 20
-258.99999999999909
 30
0.0
 40
3.0
 50
270.0
 51
0.0
1001
ACDBBLOCKREPETAG
1070
     1
1071
      128
1005
130C40
  0
LINE
  5
130C41
  8
OBJECT
 10
2086.0
 20
-258.99999999999909
 30
0.0
 11
2086.0
 21
-222.44994432063581
 31
0.0
1001
ACDBBLOCKREPETAG
1070
     1
1071
      129
1005
130C41
  0
LINE
  5
130C42
  8
OBJECT
 10
2086.0
 20
-177.55005567935859
 30
0.0
 11
2086.0
 21
-140.99999999999909
 31
0.0
1001
ACDBBLOCKREPETAG
1070
     1
1071
      130
1005
130C42
  0
LINE
  5
130C43
  8
HIDDEN
 10
2167.999999999985
 20
-155.49999999999909
 30
0.0
 11
2167.999999999985
 21
-244.49999999999909
 31
0.0
1001
ACDBBLOCKREPETAG
1070
     1
1071
      131
1005
130C43
  0
LINE
  5
130C44
  8
OBJECT
 10
2159.999974964187
 20
-254.4999509238105
 30
0.0
 11
2159.999974964187
 21
-145.4999509238105
 31
0.0
1001
ACDBBLOCKREPETAG
1070
     1
1071
      133
1005
130C44
  0
ARC
  5
130C45
  8
OBJECT
 10
2125.0000000000032
 20
-199.99999999999909
 30
0.0
 40
45.000000000000547
 50
90.0
 51
270.0
1001
ACDBBLOCKREPETAG
1070
     1
1071
      134
1005
130C45
  0
LINE
  5
130C46
  8
OBJECT
 10
1917.0
 20
-634.0
 30
0.0
 11
1920.0
 21
-634.0
 31
0.0
1001
ACDBBLOCKREPETAG
1070
     1
1071
        1
1005
130C46
  0
ARC
  5
130C47
  8
OBJECT
 10
1917.0
 20
-637.0
 30
0.0
 40
3.0
 50
90.0
 51
180.0
1001
ACDBBLOCKREPETAG
1070
     1
1071
        2
1005
130C47
  0
LINE
  5
130C48
  8
OBJECT
 10
1920.0
 20
-758.0
 30
0.0
 11
1917.0
 21
-758.0
 31
0.0
1001
ACDBBLOCKREPETAG
1070
     1
1071
        3
1005
130C48
  0
ARC
  5
130C49
  8
OBJECT
 10
1917.0
 20
-755.0
 30
0.0
 40
3.0
 50
180.0
 51
270.0
1001
ACDBBLOCKREPETAG
1070
     1
1071
        4
1005
130C49
  0
LINE
  5
130C4A
  8
OBJECT
 10
1914.0
 20
-755.0
 30
0.0
 11
1914.0
 21
-637.0
 31
0.0
1001
ACDBBLOCKREPETAG
1070
     1
1071
        5
1005
130C4A
  0
LINE
  5
130C4B
  8
CENTER
 10
2077.0
 20
-696.0
 30
0.0
 11
1923.0
 21
-696.0
 31
0.0
1001
ACDBBLOCKREPETAG
1070
     1
1071
       17
1005
130C4B
  0
CIRCLE
  5
130C4C
  8
OBJECT
 10
2000.0
 20
-696.0
 30
0.0
 40
41.5
1001
ACDBBLOCKREPETAG
1070
     1
1071
       19
1005
130C4C
  0
CIRCLE
  5
130C4D
  8
OBJECT
 10
2000.0
 20
-696.0
 30
0.0
 40
54.0
1001
ACDBBLOCKREPETAG
1070
     1
1071
       20
1005
130C4D
  0
ARC
  5
130C4E
  8
OBJECT
 10
2000.0
 20
-696.0
 30
0.0
 40
62.0
 50
287.89655112920718
 51
252.10344887079279
1001
ACDBBLOCKREPETAG
1070
     1
1071
       21
1005
130C4E
  0
LINE
  5
130C4F
  8
OBJECT
 10
1980.947441116743
 20
-755.0
 30
0.0
 11
2019.052558883257
 21
-755.0
 31
0.0
1001
ACDBBLOCKREPETAG
1070
     1
1071
       22
1005
130C4F
  0
LINE
  5
130C50
  8
OBJECT
 10
2212.999999999985
 20
-553.0000000000008
 30
0.0
 11
2219.999999999985
 21
-553.0000000000008
 31
0.0
1001
ACDBBLOCKREPETAG
1070
     1
1071
      106
1005
130C50
  0
LINE
  5
130C51
  8
OBJECT
 10
2219.999999999985
 20
-553.0000000000008
 30
0.0
 11
2219.999999999985
 21
-677.0000000000008
 31
0.0
1001
ACDBBLOCKREPETAG
1070
     1
1071
      107
1005
130C51
  0
LINE
  5
130C52
  8
OBJECT
 10
2085.9999999999859
 20
-653.3502637757274
 30
0.0
 11
2085.9999999999859
 21
-755.00000000000102
 31
0.0
1001
ACDBBLOCKREPETAG
1070
     1
1071
      108
1005
130C52
  0
LINE
  5
130C53
  8
OBJECT
 10
2219.999999999985
 20
-677.0000000000008
 30
0.0
 11
2212.999999999985
 21
-677.0000000000008
 31
0.0
1001
ACDBBLOCKREPETAG
1070
     1
1071
      109
1005
130C53
  0
LINE
  5
130C54
  8
OBJECT
 10
2212.999999999985
 20
-677.0000000000008
 30
0.0
 11
2212.999999999985
 21
-553.0000000000008
 31
0.0
1001
ACDBBLOCKREPETAG
1070
     1
1071
      110
1005
130C54
  0
LINE
  5
130C55
  8
CENTER
 10
2144.999999999985
 20
-615.0000000000008
 30
0.0
 11
2234.9999999999859
 21
-615.0000000000008
 31
0.0
1001
ACDBBLOCKREPETAG
1070
     1
1071
      111
1005
130C55
  0
LINE
  5
130C56
  8
OBJECT
 10
2079.9999999999809
 20
-758.0
 30
0.0
 11
2082.999999999985
 21
-758.0000000000008
 31
0.0
1001
ACDBBLOCKREPETAG
1070
     1
1071
      112
1005
130C56
  0
ARC
  5
130C57
  8
OBJECT
 10
2082.999999999985
 20
-755.00000000000102
 30
0.0
 40
3.0
 50
270.0
 51
0.0
1001
ACDBBLOCKREPETAG
1070
     1
1071
      113
1005
130C57
  0
LINE
  5
130C58
  8
OBJECT
 10
2212.999999999985
 20
-556.0000000000008
 30
0.0
 11
2176.999999999985
 21
-556.0000000000008
 31
0.0
1001
ACDBBLOCKREPETAG
1070
     1
1071
      114
1005
130C58
  0
LINE
  5
130C59
  8
OBJECT
 10
2176.999999999985
 20
-556.0000000000008
 30
0.0
 11
2176.999999999985
 21
-653.15756805667843
 31
0.0
1001
ACDBBLOCKREPETAG
1070
     1
1071
      115
1005
130C59
  0
LINE
  5
130C5A
  8
OBJECT
 10
2172.999999999985
 20
-560.5000000000008
 30
0.0
 11
2172.9999999999818
 21
-645.74491827928705
 31
0.0
1001
ACDBBLOCKREPETAG
1070
     1
1071
      116
1005
130C5A
  0
LINE
  5
130C5B
  8
OBJECT
 10
2172.999999999985
 20
-560.5000000000008
 30
0.0
 11
2159.999999999985
 21
-560.5000000000008
 31
0.0
1001
ACDBBLOCKREPETAG
1070
     1
1071
      117
1005
130C5B
  0
LINE
  5
130C5C
  8
OBJECT
 10
2168.6563168254688
 20
-674.0000000000008
 30
0.0
 11
2212.999999999985
 21
-674.0000000000008
 31
0.0
1001
ACDBBLOCKREPETAG
1070
     1
1071
      118
1005
130C5C
  0
LINE
  5
130C5D
  8
OBJECT
 10
2176.999999999985
 20
-556.0000000000008
 30
0.0
 11
2172.999999999985
 21
-560.5000000000008
 31
0.0
1001
ACDBBLOCKREPETAG
1070
     1
1071
      119
1005
130C5D
  0
LINE
  5
130C5E
  8
OBJECT
 10
2159.999999999985
 20
-560.5000000000008
 30
0.0
 11
2159.999999999985
 21
-645.74491827928784
 31
0.0
1001
ACDBBLOCKREPETAG
1070
     1
1071
      120
1005
130C5E
  0
ARC
  5
130C5F
  8
OBJECT
 10
2091.9999999999859
 20
-637.27386365609345
 30
0.0
 40
85.0
 50
308.59099323720869
 51
334.40086127812339
1001
ACDBBLOCKREPETAG
1070
     1
1071
      121
1005
130C5F
  0
ARC
  5
130C60
  8
OBJECT
 10
2162.7999999999852
 20
-655.00000000000068
 30
0.0
 40
85.0
 50
91.887731891831123
 51
160.07406787456929
1001
ACDBBLOCKREPETAG
1070
     1
1071
      122
1005
130C60
  0
LINE
  5
130C61
  8
OBJECT
 10
2085.9999999999859
 20
-750.81075719270905
 30
0.0
 11
2145.0193225436019
 21
-703.71143914629454
 31
0.0
1001
ACDBBLOCKREPETAG
1070
     1
1071
      123
1005
130C61
  0
LINE
  5
130C62
  8
OBJECT
 10
2172.9999999999818
 20
-645.74491827928705
 30
0.0
 11
2159.999999999985
 21
-645.74491827928784
 31
0.0
1001
ACDBBLOCKREPETAG
1070
     1
1071
      124
1005
130C62
  0
LINE
  5
130C63
  8
OBJECT
 10
2176.999999999985
 20
-653.15756805667843
 30
0.0
 11
2172.9999999999818
 21
-645.74491827928705
 31
0.0
1001
ACDBBLOCKREPETAG
1070
     1
1071
      125
1005
130C63
  0
LINE
  5
130C64
  8
OBJECT
 10
2080.0000000000191
 20
-634.0
 30
0.0
 11
2082.8886121596229
 21
-626.03156729425325
 31
0.0
1001
ACDBBLOCKREPETAG
1070
     1
1071
      126
1005
130C64
  0
LINE
  5
130C65
  8
OBJECT
 10
2080.0000000000191
 20
-634.0
 30
0.0
 11
2085.9999999999859
 21
-653.3502637757274
 31
0.0
1001
ACDBBLOCKREPETAG
1070
     1
1071
      127
1005
130C65
  0
LINE
  5
130C66
  8
HIDDEN
 10
2167.999999999985
 20
-570.5000000000008
 30
0.0
 11
2167.999999999985
 21
-659.50000000000068
 31
0.0
1001
ACDBBLOCKREPETAG
1070
     1
1071
      129
1005
130C66
  0
TEXT
  5
130C67
  8
SLIM
 10
0.0000035665234464
 20
24.000004585317601
 30
0.0
 40
79.999999999972701
  1
枝管バリエーション
 41
0.75
1001
ACDBBLOCKREPETAG
1070
     1
1071
      119
1005
12CC4A
  0
TEXT
  5
130C68
  8
SLIM
 10
1837.75
 20
282.50000000000011
 30
0.0
 40
35.0
  1
（枝管サイズ毎に寸法が異なります。管底の位置は50～100で同じです）
 41
0.75
  0
TEXT
  5
130C69
  8
SLIM
 10
1850.0
 20
369.99999999999989
 30
0.0
 40
100.0
  1
4SRT-Z63-P140
 41
0.75
  0
TEXT
  5
130C6A
  8
SLIM
 10
0.0
 20
369.99999999999989
 30
0.0
 40
100.0
  1
4SRT-Z6X-P140-S
 41
0.75
  0
LINE
  5
130C6B
  8
OBJECT
 10
4923.0
 20
-3515.9999999999968
 30
0.0
 11
4923.0
 21
-3494.9999999999968
 31
0.0
1001
ACDBBLOCKREPETAG
1070
     1
1071
        0
1005
130C6B
  0
LINE
  5
130C6C
  8
OBJECT
 10
4923.0
 20
-3494.9999999999968
 30
0.0
 11
5077.0
 21
-3494.9999999999968
 31
0.0
1001
ACDBBLOCKREPETAG
1070
     1
1071
        1
1005
130C6C
  0
LINE
  5
130C6D
  8
HIDDEN
 10
4943.0
 20
-3564.9999999999968
 30
0.0
 11
5057.0
 21
-3564.9999999999968
 31
0.0
1001
ACDBBLOCKREPETAG
1070
     1
1071
        2
1005
130C6D
  0
LINE
  5
130C6E
  8
OBJECT
 10
5077.0
 20
-3494.9999999999968
 30
0.0
 11
5077.0
 21
-3515.9999999999968
 31
0.0
1001
ACDBBLOCKREPETAG
1070
     1
1071
        3
1005
130C6E
  0
LINE
  5
130C6F
  8
OBJECT
 10
5077.0
 20
-3515.9999999999968
 30
0.0
 11
4923.0
 21
-3515.9999999999968
 31
0.0
1001
ACDBBLOCKREPETAG
1070
     1
1071
        4
1005
130C6F
  0
LINE
  5
130C70
  8
CENTER
 10
5000.0
 20
-3479.9999999999968
 30
0.0
 11
5000.0
 21
-3714.9999999999968
 31
0.0
1001
ACDBBLOCKREPETAG
1070
     1
1071
        5
1005
130C70
  0
LINE
  5
130C71
  8
OBJECT
 10
4925.0
 20
-3578.9999999999968
 30
0.0
 11
4925.0
 21
-3702.9999999999968
 31
0.0
1001
ACDBBLOCKREPETAG
1070
     1
1071
        6
1005
130C71
  0
LINE
  5
130C72
  8
OBJECT
 10
4928.0
 20
-3515.9999999999968
 30
0.0
 11
4928.0
 21
-3578.9999999999968
 31
0.0
1001
ACDBBLOCKREPETAG
1070
     1
1071
        7
1005
130C72
  0
LINE
  5
130C73
  8
OBJECT
 10
5072.0
 20
-3578.9999999999968
 30
0.0
 11
5072.0
 21
-3515.9999999999968
 31
0.0
1001
ACDBBLOCKREPETAG
1070
     1
1071
        8
1005
130C73
  0
LINE
  5
130C74
  8
OBJECT
 10
5074.9999999997999
 20
-3702.9999999997758
 30
0.0
 11
5080.0
 21
-3702.9999999999968
 31
0.0
1001
ACDBBLOCKREPETAG
1070
     1
1071
        9
1005
130C74
  0
LINE
  5
130C75
  8
OBJECT
 10
5080.0
 20
-3578.9999999999968
 30
0.0
 11
4925.0
 21
-3578.9999999999968
 31
0.0
1001
ACDBBLOCKREPETAG
1070
     1
1071
       10
1005
130C75
  0
ARC
  5
130C76
  8
OBJECT
 10
5200.6872746716726
 20
-3694.408099410105
 30
0.0
 40
170.6350503965856
 50
137.44134459184301
 51
149.9194958133665
1001
ACDBBLOCKREPETAG
1070
     1
1071
       15
1005
130C76
  0
ARC
  5
130C77
  8
OBJECT
 10
5118.8455987040506
 20
-3650.8827266953622
 30
0.0
 40
78.072222021763665
 50
147.4551531037684
 51
164.66365997719291
1001
ACDBBLOCKREPETAG
1070
     1
1071
       16
1005
130C77
  0
ARC
  5
130C78
  8
OBJECT
 10
5085.7554349608727
 20
-3640.9999999999968
 30
0.0
 40
43.55353926885617
 50
165.6884523008477
 51
194.3115476991523
1001
ACDBBLOCKREPETAG
1070
     1
1071
       17
1005
130C78
  0
ARC
  5
130C79
  8
OBJECT
 10
5200.6872746716726
 20
-3587.5919005898891
 30
0.0
 40
170.6350503965856
 50
210.0805041866335
 51
222.55865540815699
1001
ACDBBLOCKREPETAG
1070
     1
1071
       18
1005
130C79
  0
ARC
  5
130C7A
  8
OBJECT
 10
5118.8455987040506
 20
-3631.1172733046319
 30
0.0
 40
78.072222021763665
 50
195.33634002280701
 51
212.5448468962316
1001
ACDBBLOCKREPETAG
1070
     1
1071
       19
1005
130C7A
  0
POINT
  5
130C7B
  8
DOTS
 10
5000.0
 20
-3699.9999999999968
 30
0.0
1001
ACDBBLOCKREPETAG
1070
     1
1071
      186
1005
130C7B
  0
LINE
  5
130C7C
  8
OBJECT
 10
4323.0
 20
-3515.9999999999968
 30
0.0
 11
4323.0
 21
-3494.9999999999968
 31
0.0
1001
ACDBBLOCKREPETAG
1070
     1
1071
       20
1005
130C7C
  0
LINE
  5
130C7D
  8
OBJECT
 10
4323.0
 20
-3494.9999999999968
 30
0.0
 11
4477.0
 21
-3494.9999999999968
 31
0.0
1001
ACDBBLOCKREPETAG
1070
     1
1071
       21
1005
130C7D
  0
LINE
  5
130C7E
  8
HIDDEN
 10
4343.0
 20
-3564.9999999999968
 30
0.0
 11
4457.0
 21
-3564.9999999999968
 31
0.0
1001
ACDBBLOCKREPETAG
1070
     1
1071
       22
1005
130C7E
  0
LINE
  5
130C7F
  8
OBJECT
 10
4477.0
 20
-3494.9999999999968
 30
0.0
 11
4477.0
 21
-3515.9999999999968
 31
0.0
1001
ACDBBLOCKREPETAG
1070
     1
1071
       23
1005
130C7F
  0
LINE
  5
130C80
  8
OBJECT
 10
4477.0
 20
-3515.9999999999968
 30
0.0
 11
4323.0
 21
-3515.9999999999968
 31
0.0
1001
ACDBBLOCKREPETAG
1070
     1
1071
       24
1005
130C80
  0
LINE
  5
130C81
  8
CENTER
 10
4400.0
 20
-3479.9999999999968
 30
0.0
 11
4400.0
 21
-3714.9999999999968
 31
0.0
1001
ACDBBLOCKREPETAG
1070
     1
1071
       25
1005
130C81
  0
LINE
  5
130C82
  8
OBJECT
 10
4325.0
 20
-3578.9999999999968
 30
0.0
 11
4325.0
 21
-3702.9999999999968
 31
0.0
1001
ACDBBLOCKREPETAG
1070
     1
1071
       26
1005
130C82
  0
LINE
  5
130C83
  8
OBJECT
 10
4328.0
 20
-3515.9999999999968
 30
0.0
 11
4328.0
 21
-3578.9999999999968
 31
0.0
1001
ACDBBLOCKREPETAG
1070
     1
1071
       27
1005
130C83
  0
LINE
  5
130C84
  8
OBJECT
 10
4472.0
 20
-3578.9999999999968
 30
0.0
 11
4472.0
 21
-3515.9999999999968
 31
0.0
1001
ACDBBLOCKREPETAG
1070
     1
1071
       28
1005
130C84
  0
LINE
  5
130C85
  8
OBJECT
 10
4475.0
 20
-3578.9999999999968
 30
0.0
 11
4325.0
 21
-3578.9999999999968
 31
0.0
1001
ACDBBLOCKREPETAG
1070
     1
1071
       30
1005
130C85
  0
LINE
  5
130C86
  8
OBJECT
 10
4475.0
 20
-3578.9999999999968
 30
0.0
 11
4475.0
 21
-3702.9999999999968
 31
0.0
1001
ACDBBLOCKREPETAG
1070
     1
1071
       34
1005
130C86
  0
POINT
  5
130C87
  8
DOTS
 10
4400.0
 20
-3699.9999999999968
 30
0.0
1001
ACDBBLOCKREPETAG
1070
     1
1071
      187
1005
130C87
  0
LINE
  5
130C88
  8
OBJECT
 10
3923.0
 20
-3515.9999999999968
 30
0.0
 11
3923.0
 21
-3494.9999999999968
 31
0.0
1001
ACDBBLOCKREPETAG
1070
     1
1071
        0
1005
130C88
  0
LINE
  5
130C89
  8
OBJECT
 10
3923.0
 20
-3494.9999999999968
 30
0.0
 11
4077.0
 21
-3494.9999999999968
 31
0.0
1001
ACDBBLOCKREPETAG
1070
     1
1071
        1
1005
130C89
  0
LINE
  5
130C8A
  8
HIDDEN
 10
3943.0
 20
-3564.9999999999968
 30
0.0
 11
4057.0
 21
-3564.9999999999968
 31
0.0
1001
ACDBBLOCKREPETAG
1070
     1
1071
        2
1005
130C8A
  0
LINE
  5
130C8B
  8
OBJECT
 10
4077.0
 20
-3494.9999999999968
 30
0.0
 11
4077.0
 21
-3515.9999999999968
 31
0.0
1001
ACDBBLOCKREPETAG
1070
     1
1071
        3
1005
130C8B
  0
LINE
  5
130C8C
  8
OBJECT
 10
4077.0
 20
-3515.9999999999968
 30
0.0
 11
3923.0
 21
-3515.9999999999968
 31
0.0
1001
ACDBBLOCKREPETAG
1070
     1
1071
        4
1005
130C8C
  0
LINE
  5
130C8D
  8
CENTER
 10
4000.0
 20
-3479.9999999999968
 30
0.0
 11
4000.0
 21
-3714.9999999999968
 31
0.0
1001
ACDBBLOCKREPETAG
1070
     1
1071
        5
1005
130C8D
  0
LINE
  5
130C8E
  8
OBJECT
 10
3925.0
 20
-3578.9999999999968
 30
0.0
 11
3925.0
 21
-3702.9999999999968
 31
0.0
1001
ACDBBLOCKREPETAG
1070
     1
1071
        6
1005
130C8E
  0
LINE
  5
130C8F
  8
OBJECT
 10
3928.0
 20
-3515.9999999999968
 30
0.0
 11
3928.0
 21
-3578.9999999999968
 31
0.0
1001
ACDBBLOCKREPETAG
1070
     1
1071
        7
1005
130C8F
  0
LINE
  5
130C90
  8
OBJECT
 10
4072.0
 20
-3578.9999999999968
 30
0.0
 11
4072.0
 21
-3515.9999999999968
 31
0.0
1001
ACDBBLOCKREPETAG
1070
     1
1071
        8
1005
130C90
  0
LINE
  5
130C91
  8
OBJECT
 10
4074.999999999799
 20
-3702.9999999997758
 30
0.0
 11
4080.0
 21
-3702.9999999999968
 31
0.0
1001
ACDBBLOCKREPETAG
1070
     1
1071
        9
1005
130C91
  0
LINE
  5
130C92
  8
OBJECT
 10
4080.0
 20
-3578.9999999999968
 30
0.0
 11
3925.0
 21
-3578.9999999999968
 31
0.0
1001
ACDBBLOCKREPETAG
1070
     1
1071
       10
1005
130C92
  0
ARC
  5
130C93
  8
OBJECT
 10
4200.6872746716726
 20
-3694.408099410105
 30
0.0
 40
170.6350503965856
 50
137.44134459184301
 51
149.9194958133665
1001
ACDBBLOCKREPETAG
1070
     1
1071
       15
1005
130C93
  0
ARC
  5
130C94
  8
OBJECT
 10
4118.8455987040506
 20
-3650.8827266953622
 30
0.0
 40
78.072222021763665
 50
147.4551531037684
 51
164.663659977186
1001
ACDBBLOCKREPETAG
1070
     1
1071
       16
1005
130C94
  0
ARC
  5
130C95
  8
OBJECT
 10
4085.7554349608722
 20
-3640.9999999999968
 30
0.0
 40
43.55353926885617
 50
165.6884523008477
 51
194.3115476991523
1001
ACDBBLOCKREPETAG
1070
     1
1071
       17
1005
130C95
  0
ARC
  5
130C96
  8
OBJECT
 10
4200.6872746716726
 20
-3587.5919005898891
 30
0.0
 40
170.6350503965856
 50
210.0805041866335
 51
222.55865540815699
1001
ACDBBLOCKREPETAG
1070
     1
1071
       18
1005
130C96
  0
ARC
  5
130C97
  8
OBJECT
 10
4118.8455987040506
 20
-3631.1172733046319
 30
0.0
 40
78.072222021763665
 50
195.33634002281391
 51
212.5448468962316
1001
ACDBBLOCKREPETAG
1070
     1
1071
       19
1005
130C97
  0
POINT
  5
130C98
  8
DOTS
 10
4000.0
 20
-3699.9999999999968
 30
0.0
1001
ACDBBLOCKREPETAG
1070
     1
1071
      186
1005
130C98
  0
LINE
  5
130C99
  8
OBJECT
 10
3323.0
 20
-3515.9999999999968
 30
0.0
 11
3323.0
 21
-3494.9999999999968
 31
0.0
1001
ACDBBLOCKREPETAG
1070
     1
1071
       20
1005
130C99
  0
LINE
  5
130C9A
  8
OBJECT
 10
3323.0
 20
-3494.9999999999968
 30
0.0
 11
3477.0
 21
-3494.9999999999968
 31
0.0
1001
ACDBBLOCKREPETAG
1070
     1
1071
       21
1005
130C9A
  0
LINE
  5
130C9B
  8
HIDDEN
 10
3343.0
 20
-3564.9999999999968
 30
0.0
 11
3457.0
 21
-3564.9999999999968
 31
0.0
1001
ACDBBLOCKREPETAG
1070
     1
1071
       22
1005
130C9B
  0
LINE
  5
130C9C
  8
OBJECT
 10
3477.0
 20
-3494.9999999999968
 30
0.0
 11
3477.0
 21
-3515.9999999999968
 31
0.0
1001
ACDBBLOCKREPETAG
1070
     1
1071
       23
1005
130C9C
  0
LINE
  5
130C9D
  8
OBJECT
 10
3477.0
 20
-3515.9999999999968
 30
0.0
 11
3323.0
 21
-3515.9999999999968
 31
0.0
1001
ACDBBLOCKREPETAG
1070
     1
1071
       24
1005
130C9D
  0
LINE
  5
130C9E
  8
CENTER
 10
3400.0
 20
-3479.9999999999968
 30
0.0
 11
3400.0
 21
-3714.9999999999968
 31
0.0
1001
ACDBBLOCKREPETAG
1070
     1
1071
       25
1005
130C9E
  0
LINE
  5
130C9F
  8
OBJECT
 10
3325.0
 20
-3578.9999999999968
 30
0.0
 11
3325.0
 21
-3702.9999999999968
 31
0.0
1001
ACDBBLOCKREPETAG
1070
     1
1071
       26
1005
130C9F
  0
LINE
  5
130CA0
  8
OBJECT
 10
3328.0
 20
-3515.9999999999968
 30
0.0
 11
3328.0
 21
-3578.9999999999968
 31
0.0
1001
ACDBBLOCKREPETAG
1070
     1
1071
       27
1005
130CA0
  0
LINE
  5
130CA1
  8
OBJECT
 10
3472.0
 20
-3578.9999999999968
 30
0.0
 11
3472.0
 21
-3515.9999999999968
 31
0.0
1001
ACDBBLOCKREPETAG
1070
     1
1071
       28
1005
130CA1
  0
LINE
  5
130CA2
  8
OBJECT
 10
3475.0
 20
-3578.9999999999968
 30
0.0
 11
3325.0
 21
-3578.9999999999968
 31
0.0
1001
ACDBBLOCKREPETAG
1070
     1
1071
       30
1005
130CA2
  0
LINE
  5
130CA3
  8
OBJECT
 10
3475.0
 20
-3578.9999999999968
 30
0.0
 11
3475.0
 21
-3702.9999999999968
 31
0.0
1001
ACDBBLOCKREPETAG
1070
     1
1071
       34
1005
130CA3
  0
POINT
  5
130CA4
  8
DOTS
 10
3400.0
 20
-3699.9999999999968
 30
0.0
1001
ACDBBLOCKREPETAG
1070
     1
1071
      187
1005
130CA4
  0
LINE
  5
130CA5
  8
OBJECT
 10
2923.0
 20
-3515.9999999999968
 30
0.0
 11
2923.0
 21
-3494.9999999999968
 31
0.0
1001
ACDBBLOCKREPETAG
1070
     1
1071
        0
1005
130CA5
  0
LINE
  5
130CA6
  8
OBJECT
 10
2923.0
 20
-3494.9999999999968
 30
0.0
 11
3077.0
 21
-3494.9999999999968
 31
0.0
1001
ACDBBLOCKREPETAG
1070
     1
1071
        1
1005
130CA6
  0
LINE
  5
130CA7
  8
HIDDEN
 10
2943.0
 20
-3564.9999999999968
 30
0.0
 11
3057.0
 21
-3564.9999999999968
 31
0.0
1001
ACDBBLOCKREPETAG
1070
     1
1071
        2
1005
130CA7
  0
LINE
  5
130CA8
  8
OBJECT
 10
3077.0
 20
-3494.9999999999968
 30
0.0
 11
3077.0
 21
-3515.9999999999968
 31
0.0
1001
ACDBBLOCKREPETAG
1070
     1
1071
        3
1005
130CA8
  0
LINE
  5
130CA9
  8
OBJECT
 10
3077.0
 20
-3515.9999999999968
 30
0.0
 11
2923.0
 21
-3515.9999999999968
 31
0.0
1001
ACDBBLOCKREPETAG
1070
     1
1071
        4
1005
130CA9
  0
LINE
  5
130CAA
  8
CENTER
 10
3000.0
 20
-3479.9999999999968
 30
0.0
 11
3000.0
 21
-3714.9999999999968
 31
0.0
1001
ACDBBLOCKREPETAG
1070
     1
1071
        5
1005
130CAA
  0
LINE
  5
130CAB
  8
OBJECT
 10
2925.0
 20
-3578.9999999999968
 30
0.0
 11
2925.0
 21
-3702.9999999999968
 31
0.0
1001
ACDBBLOCKREPETAG
1070
     1
1071
        6
1005
130CAB
  0
LINE
  5
130CAC
  8
OBJECT
 10
2928.0
 20
-3515.9999999999968
 30
0.0
 11
2928.0
 21
-3578.9999999999968
 31
0.0
1001
ACDBBLOCKREPETAG
1070
     1
1071
        7
1005
130CAC
  0
LINE
  5
130CAD
  8
OBJECT
 10
3072.0
 20
-3578.9999999999968
 30
0.0
 11
3072.0
 21
-3515.9999999999968
 31
0.0
1001
ACDBBLOCKREPETAG
1070
     1
1071
        8
1005
130CAD
  0
LINE
  5
130CAE
  8
OBJECT
 10
3074.9999999997999
 20
-3702.9999999997758
 30
0.0
 11
3080.0
 21
-3702.9999999999968
 31
0.0
1001
ACDBBLOCKREPETAG
1070
     1
1071
        9
1005
130CAE
  0
LINE
  5
130CAF
  8
OBJECT
 10
3080.0
 20
-3578.9999999999968
 30
0.0
 11
2925.0
 21
-3578.9999999999968
 31
0.0
1001
ACDBBLOCKREPETAG
1070
     1
1071
       10
1005
130CAF
  0
ARC
  5
130CB0
  8
OBJECT
 10
3200.6872746716722
 20
-3694.408099410105
 30
0.0
 40
170.6350503965856
 50
137.44134459184301
 51
149.9194958133665
1001
ACDBBLOCKREPETAG
1070
     1
1071
       15
1005
130CB0
  0
ARC
  5
130CB1
  8
OBJECT
 10
3118.8455987040511
 20
-3650.8827266953622
 30
0.0
 40
78.072222021763665
 50
147.4551531037684
 51
164.663659977186
1001
ACDBBLOCKREPETAG
1070
     1
1071
       16
1005
130CB1
  0
ARC
  5
130CB2
  8
OBJECT
 10
3085.7554349608731
 20
-3640.9999999999968
 30
0.0
 40
43.55353926885617
 50
165.6884523008477
 51
194.3115476991523
1001
ACDBBLOCKREPETAG
1070
     1
1071
       17
1005
130CB2
  0
ARC
  5
130CB3
  8
OBJECT
 10
3200.6872746716722
 20
-3587.5919005898891
 30
0.0
 40
170.6350503965856
 50
210.0805041866335
 51
222.55865540815699
1001
ACDBBLOCKREPETAG
1070
     1
1071
       18
1005
130CB3
  0
ARC
  5
130CB4
  8
OBJECT
 10
3118.8455987040511
 20
-3631.1172733046319
 30
0.0
 40
78.072222021763665
 50
195.33634002281391
 51
212.5448468962316
1001
ACDBBLOCKREPETAG
1070
     1
1071
       19
1005
130CB4
  0
POINT
  5
130CB5
  8
DOTS
 10
3000.0
 20
-3699.9999999999968
 30
0.0
1001
ACDBBLOCKREPETAG
1070
     1
1071
      186
1005
130CB5
  0
LINE
  5
130CB6
  8
OBJECT
 10
2323.0
 20
-3515.9999999999968
 30
0.0
 11
2323.0
 21
-3494.9999999999968
 31
0.0
1001
ACDBBLOCKREPETAG
1070
     1
1071
       20
1005
130CB6
  0
LINE
  5
130CB7
  8
OBJECT
 10
2323.0
 20
-3494.9999999999968
 30
0.0
 11
2477.0
 21
-3494.9999999999968
 31
0.0
1001
ACDBBLOCKREPETAG
1070
     1
1071
       21
1005
130CB7
  0
LINE
  5
130CB8
  8
HIDDEN
 10
2343.0
 20
-3564.9999999999968
 30
0.0
 11
2457.0
 21
-3564.9999999999968
 31
0.0
1001
ACDBBLOCKREPETAG
1070
     1
1071
       22
1005
130CB8
  0
LINE
  5
130CB9
  8
OBJECT
 10
2477.0
 20
-3494.9999999999968
 30
0.0
 11
2477.0
 21
-3515.9999999999968
 31
0.0
1001
ACDBBLOCKREPETAG
1070
     1
1071
       23
1005
130CB9
  0
LINE
  5
130CBA
  8
OBJECT
 10
2477.0
 20
-3515.9999999999968
 30
0.0
 11
2323.0
 21
-3515.9999999999968
 31
0.0
1001
ACDBBLOCKREPETAG
1070
     1
1071
       24
1005
130CBA
  0
LINE
  5
130CBB
  8
CENTER
 10
2400.0
 20
-3479.9999999999968
 30
0.0
 11
2400.0
 21
-3714.9999999999968
 31
0.0
1001
ACDBBLOCKREPETAG
1070
     1
1071
       25
1005
130CBB
  0
LINE
  5
130CBC
  8
OBJECT
 10
2325.0
 20
-3578.9999999999968
 30
0.0
 11
2325.0
 21
-3702.9999999999968
 31
0.0
1001
ACDBBLOCKREPETAG
1070
     1
1071
       26
1005
130CBC
  0
LINE
  5
130CBD
  8
OBJECT
 10
2328.0
 20
-3515.9999999999968
 30
0.0
 11
2328.0
 21
-3578.9999999999968
 31
0.0
1001
ACDBBLOCKREPETAG
1070
     1
1071
       27
1005
130CBD
  0
LINE
  5
130CBE
  8
OBJECT
 10
2472.0
 20
-3578.9999999999968
 30
0.0
 11
2472.0
 21
-3515.9999999999968
 31
0.0
1001
ACDBBLOCKREPETAG
1070
     1
1071
       28
1005
130CBE
  0
LINE
  5
130CBF
  8
OBJECT
 10
2475.0
 20
-3578.9999999999968
 30
0.0
 11
2325.0
 21
-3578.9999999999968
 31
0.0
1001
ACDBBLOCKREPETAG
1070
     1
1071
       30
1005
130CBF
  0
LINE
  5
130CC0
  8
OBJECT
 10
2475.0
 20
-3578.9999999999968
 30
0.0
 11
2475.0
 21
-3702.9999999999968
 31
0.0
1001
ACDBBLOCKREPETAG
1070
     1
1071
       34
1005
130CC0
  0
POINT
  5
130CC1
  8
DOTS
 10
2400.0
 20
-3699.9999999999968
 30
0.0
1001
ACDBBLOCKREPETAG
1070
     1
1071
      187
1005
130CC1
  0
LINE
  5
130CC2
  8
OBJECT
 10
1923.0
 20
-3515.9999999999968
 30
0.0
 11
1923.0
 21
-3494.9999999999968
 31
0.0
1001
ACDBBLOCKREPETAG
1070
     1
1071
        0
1005
130CC2
  0
LINE
  5
130CC3
  8
OBJECT
 10
1923.0
 20
-3494.9999999999968
 30
0.0
 11
2077.0
 21
-3494.9999999999968
 31
0.0
1001
ACDBBLOCKREPETAG
1070
     1
1071
        1
1005
130CC3
  0
LINE
  5
130CC4
  8
HIDDEN
 10
1943.0
 20
-3564.9999999999968
 30
0.0
 11
2057.0
 21
-3564.9999999999968
 31
0.0
1001
ACDBBLOCKREPETAG
1070
     1
1071
        2
1005
130CC4
  0
LINE
  5
130CC5
  8
OBJECT
 10
2077.0
 20
-3494.9999999999968
 30
0.0
 11
2077.0
 21
-3515.9999999999968
 31
0.0
1001
ACDBBLOCKREPETAG
1070
     1
1071
        3
1005
130CC5
  0
LINE
  5
130CC6
  8
OBJECT
 10
2077.0
 20
-3515.9999999999968
 30
0.0
 11
1923.0
 21
-3515.9999999999968
 31
0.0
1001
ACDBBLOCKREPETAG
1070
     1
1071
        4
1005
130CC6
  0
LINE
  5
130CC7
  8
CENTER
 10
2000.0
 20
-3479.9999999999968
 30
0.0
 11
2000.0
 21
-3714.9999999999968
 31
0.0
1001
ACDBBLOCKREPETAG
1070
     1
1071
        5
1005
130CC7
  0
LINE
  5
130CC8
  8
OBJECT
 10
1925.0
 20
-3578.9999999999968
 30
0.0
 11
1925.0
 21
-3702.9999999999968
 31
0.0
1001
ACDBBLOCKREPETAG
1070
     1
1071
        6
1005
130CC8
  0
LINE
  5
130CC9
  8
OBJECT
 10
1928.0
 20
-3515.9999999999968
 30
0.0
 11
1928.0
 21
-3578.9999999999968
 31
0.0
1001
ACDBBLOCKREPETAG
1070
     1
1071
        7
1005
130CC9
  0
LINE
  5
130CCA
  8
OBJECT
 10
2072.0
 20
-3578.9999999999968
 30
0.0
 11
2072.0
 21
-3515.9999999999968
 31
0.0
1001
ACDBBLOCKREPETAG
1070
     1
1071
        8
1005
130CCA
  0
LINE
  5
130CCB
  8
OBJECT
 10
2074.999999999799
 20
-3702.9999999997758
 30
0.0
 11
2080.0
 21
-3702.9999999999968
 31
0.0
1001
ACDBBLOCKREPETAG
1070
     1
1071
        9
1005
130CCB
  0
LINE
  5
130CCC
  8
OBJECT
 10
2080.0
 20
-3578.9999999999968
 30
0.0
 11
1925.0
 21
-3578.9999999999968
 31
0.0
1001
ACDBBLOCKREPETAG
1070
     1
1071
       10
1005
130CCC
  0
ARC
  5
130CCD
  8
OBJECT
 10
2200.6872746716731
 20
-3694.408099410105
 30
0.0
 40
170.6350503965856
 50
137.44134459184301
 51
149.91949581335999
1001
ACDBBLOCKREPETAG
1070
     1
1071
       15
1005
130CCD
  0
ARC
  5
130CCE
  8
OBJECT
 10
2118.8455987040511
 20
-3650.8827266953622
 30
0.0
 40
78.072222021763665
 50
147.45515310377539
 51
164.663659977186
1001
ACDBBLOCKREPETAG
1070
     1
1071
       16
1005
130CCE
  0
ARC
  5
130CCF
  8
OBJECT
 10
2085.7554349608731
 20
-3640.9999999999968
 30
0.0
 40
43.55353926885617
 50
165.6884523008477
 51
194.3115476991523
1001
ACDBBLOCKREPETAG
1070
     1
1071
       17
1005
130CCF
  0
ARC
  5
130CD0
  8
OBJECT
 10
2200.6872746716731
 20
-3587.5919005898891
 30
0.0
 40
170.6350503965856
 50
210.08050418664001
 51
222.55865540815699
1001
ACDBBLOCKREPETAG
1070
     1
1071
       18
1005
130CD0
  0
ARC
  5
130CD1
  8
OBJECT
 10
2118.8455987040511
 20
-3631.1172733046319
 30
0.0
 40
78.072222021763665
 50
195.33634002281391
 51
212.54484689622461
1001
ACDBBLOCKREPETAG
1070
     1
1071
       19
1005
130CD1
  0
POINT
  5
130CD2
  8
DOTS
 10
2000.0
 20
-3699.9999999999968
 30
0.0
1001
ACDBBLOCKREPETAG
1070
     1
1071
      186
1005
130CD2
  0
LINE
  5
130CD3
  8
DIM
 10
2150.0
 20
-3341.9999999999959
 30
0.0
 11
2228.479620594459
 21
-3341.9999999999959
 31
0.0
  0
LINE
  5
130CD4
  8
DIM
 10
2150.0
 20
-3247.9999999999959
 30
0.0
 11
2228.479620594459
 21
-3247.9999999999959
 31
0.0
  0
LINE
  5
130CD5
  8
DIM
 10
2218.479620594459
 20
-3321.9999999999959
 30
0.0
 11
2218.479620594459
 21
-3267.9999999999959
 31
0.0
  0
INSERT
  5
130CD6
  8
DIM
  2
_OPEN30
 10
2218.479620594459
 20
-3341.9999999999959
 30
0.0
 41
20.0
 42
20.0
 43
20.0
 50
270.0
  0
INSERT
  5
130CD7
  8
DIM
  2
_OPEN30
 10
2218.479620594459
 20
-3247.9999999999959
 30
0.0
 41
20.0
 42
20.0
 43
20.0
 50
90.0
  0
INSERT
  5
130CD8
  8
OBJECT
  2
*U277
 10
0.0
 20
0.0
 30
0.0
  0
LINE
  5
130CD9
  8
DIM
 10
2150.0
 20
-3699.9999999999968
 30
0.0
 11
2226.8409284037339
 21
-3699.9999999999968
 31
0.0
  0
LINE
  5
130CDA
  8
DIM
 10
2165.0
 20
-3655.9999999999968
 30
0.0
 11
2226.8409284037339
 21
-3655.9999999999968
 31
0.0
  0
LINE
  5
130CDB
  8
DIM
 10
2216.840928403733
 20
-3719.9999999999968
 30
0.0
 11
2216.840928403733
 21
-3739.9999999999968
 31
0.0
  0
LINE
  5
130CDC
  8
DIM
 10
2216.840928403733
 20
-3635.9999999999968
 30
0.0
 11
2216.840928403733
 21
-3615.9999999999968
 31
0.0
  0
LINE
  5
130CDD
  8
DIM
 10
2216.840928403733
 20
-3699.9999999999968
 30
0.0
 11
2216.840928403733
 21
-3655.9999999999968
 31
0.0
  0
INSERT
  5
130CDE
  8
DIM
  2
_OPEN30
 10
2216.840928403733
 20
-3699.9999999999968
 30
0.0
 41
20.0
 42
20.0
 43
20.0
 50
90.0
  0
INSERT
  5
130CDF
  8
DIM
  2
_OPEN30
 10
2216.840928403733
 20
-3655.9999999999968
 30
0.0
 41
20.0
 42
20.0
 43
20.0
 50
270.0
  0
INSERT
  5
130CE0
  8
OBJECT
  2
*U278
 10
0.0
 20
0.0
 30
0.0
  0
LINE
  5
130CE1
  8
DIM
 10
2000.0
 20
-3189.9999999999959
 30
0.0
 11
2000.0
 21
-3157.2081219844449
 31
0.0
  0
LINE
  5
130CE2
  8
DIM
 10
2140.0
 20
-3237.9999999999959
 30
0.0
 11
2140.0
 21
-3157.2081219844449
 31
0.0
  0
LINE
  5
130CE3
  8
DIM
 10
2020.0
 20
-3167.208121984444
 30
0.0
 11
2120.0
 21
-3167.208121984444
 31
0.0
  0
INSERT
  5
130CE4
  8
DIM
  2
_OPEN30
 10
2000.0
 20
-3167.208121984444
 30
0.0
 41
20.0
 42
20.0
 43
20.0
 50
180.0
  0
INSERT
  5
130CE5
  8
DIM
  2
_OPEN30
 10
2140.0
 20
-3167.208121984444
 30
0.0
 41
20.0
 42
20.0
 43
20.0
  0
INSERT
  5
130CE6
  8
OBJECT
  2
*U279
 10
0.0
 20
0.0
 30
0.0
  0
TEXT
  5
130CE7
  8
SLIM
 10
2631.0
 20
-3072.50001604727
 30
0.0
 40
40.0
  1
C寸法
 41
0.75
  0
TEXT
  5
130CE8
  8
SLIM
 10
2631.0
 20
-3002.50001604727
 30
0.0
 40
40.0
  1
B寸法
 41
0.75
  0
TEXT
  5
130CE9
  8
SLIM
 10
2630.2857142857142
 20
-2932.50001604727
 30
0.0
 40
40.0
  1
A寸法
 41
0.75
  0
TEXT
  5
130CEA
  8
SLIM
 10
3159.2857142857151
 20
-3072.50001604727
 30
0.0
 40
40.0
  1
150
 41
0.75
  0
TEXT
  5
130CEB
  8
SLIM
 10
3029.2857142857151
 20
-3072.50001604727
 30
0.0
 40
40.0
  1
140
 41
0.75
  0
TEXT
  5
130CEC
  8
SLIM
 10
2769.2857142857151
 20
-3072.50001604727
 30
0.0
 40
40.0
  1
140
 41
0.75
  0
TEXT
  5
130CED
  8
SLIM
 10
2899.2857142857151
 20
-3072.50001604727
 30
0.0
 40
40.0
  1
140
 41
0.75
  0
TEXT
  5
130CEE
  8
SLIM
 10
3170.7142857142858
 20
-3002.50001604727
 30
0.0
 40
40.0
  1
72
 41
0.75
  0
TEXT
  5
130CEF
  8
SLIM
 10
3041.4285714285711
 20
-3002.50001604727
 30
0.0
 40
40.0
  1
59
 41
0.75
  0
TEXT
  5
130CF0
  8
SLIM
 10
2780.0
 20
-3002.50001604727
 30
0.0
 40
40.0
  1
44
 41
0.75
  0
TEXT
  5
130CF1
  8
SLIM
 10
2910.7142857142858
 20
-3002.50001604727
 30
0.0
 40
40.0
  1
52
 41
0.75
  0
TEXT
  5
130CF2
  8
SLIM
 10
2891.0
 20
-2807.50001604727
 30
0.0
 40
40.0
  1
横枝管サイズ
 41
0.75
  0
TEXT
  5
130CF3
  8
SLIM
 10
3136.2857142857151
 20
-2862.50001604727
 30
0.0
 40
30.0
  1
100（4）
 41
0.75
  0
TEXT
  5
130CF4
  8
SLIM
 10
3014.857142857144
 20
-2862.50001604727
 30
0.0
 40
30.0
  1
75（3）
 41
0.75
  0
TEXT
  5
130CF5
  8
SLIM
 10
2884.8571428571431
 20
-2862.50001604727
 30
0.0
 40
30.0
  1
65（2）
 41
0.75
  0
TEXT
  5
130CF6
  8
SLIM
 10
2757.0
 20
-2862.50001604727
 30
0.0
 40
30.0
  1
50（1）
 41
0.75
  0
TEXT
  5
130CF7
  8
SLIM
 10
3159.2857142857151
 20
-2932.50001604727
 30
0.0
 40
40.0
  1
150
 41
0.75
  0
TEXT
  5
130CF8
  8
SLIM
 10
3028.571428571428
 20
-2932.50001604727
 30
0.0
 40
40.0
  1
124
 41
0.75
  0
TEXT
  5
130CF9
  8
SLIM
 10
2780.0
 20
-2932.50001604727
 30
0.0
 40
40.0
  1
94
 41
0.75
  0
TEXT
  5
130CFA
  8
SLIM
 10
2902.1428571428569
 20
-2932.50001604727
 30
0.0
 40
40.0
  1
110
 41
0.75
  0
TEXT
  5
130CFB
  8
SLIM
 10
1849.9999999999991
 20
-2832.5
 30
0.0
 40
75.0
  1
枝管サイズ毎の形状
 41
0.75
  0
LINE
  5
130CFC
  8
OBJECT
 10
5150.0
 20
-3552.9999999999968
 30
0.0
 11
5143.0
 21
-3552.9999999999968
 31
0.0
1001
ACDBBLOCKREPETAG
1070
     1
1071
       64
1005
130CFC
  0
LINE
  5
130CFD
  8
OBJECT
 10
5143.0
 20
-3552.9999999999968
 30
0.0
 11
5143.0
 21
-3699.9999999999968
 31
0.0
1001
ACDBBLOCKREPETAG
1070
     1
1071
       65
1005
130CFD
  0
LINE
  5
130CFE
  8
OBJECT
 10
5101.5
 20
-3555.9999999999968
 30
0.0
 11
5101.5
 21
-3699.9999999999968
 31
0.0
1001
ACDBBLOCKREPETAG
1070
     1
1071
       66
1005
130CFE
  0
LINE
  5
130CFF
  8
OBJECT
 10
5090.0
 20
-3562.4999999999968
 30
0.0
 11
5090.0
 21
-3693.4999999999968
 31
0.0
1001
ACDBBLOCKREPETAG
1070
     1
1071
       67
1005
130CFF
  0
LINE
  5
130D00
  8
OBJECT
 10
5086.0
 20
-3634.5000000000041
 30
0.0
 11
5086.0
 21
-3699.9999999999968
 31
0.0
1001
ACDBBLOCKREPETAG
1070
     1
1071
       68
1005
130D00
  0
LINE
  5
130D01
  8
OBJECT
 10
5150.0
 20
-3699.9999999999968
 30
0.0
 11
5150.0
 21
-3552.9999999999968
 31
0.0
1001
ACDBBLOCKREPETAG
1070
     1
1071
       69
1005
130D01
  0
LINE
  5
130D02
  8
CENTER
 10
5165.0
 20
-3627.9999999999968
 30
0.0
 11
5070.4144144144157
 21
-3627.9999999999968
 31
0.0
1001
ACDBBLOCKREPETAG
1070
     1
1071
       70
1005
130D02
  0
LINE
  5
130D03
  8
OBJECT
 10
5083.0000000000045
 20
-3702.9999999999968
 30
0.0
 11
5080.0
 21
-3702.9999999999968
 31
0.0
1001
ACDBBLOCKREPETAG
1070
     1
1071
       71
1005
130D03
  0
ARC
  5
130D04
  8
OBJECT
 10
5091.8815171830656
 20
-3701.4555591801432
 30
0.0
 40
6.0
 50
60.52411099686767
 51
170.6927439126847
1001
ACDBBLOCKREPETAG
1070
     1
1071
       72
1005
130D04
  0
ARC
  5
130D05
  8
OBJECT
 10
5083.0
 20
-3699.9999999999968
 30
0.0
 40
3.0
 50
270.0
 51
350.69274391268482
1001
ACDBBLOCKREPETAG
1070
     1
1071
       73
1005
130D05
  0
LINE
  5
130D06
  8
OBJECT
 10
5081.0
 20
-3578.9999999999968
 30
0.0
 11
5080.0
 21
-3578.9999999999968
 31
0.0
1001
ACDBBLOCKREPETAG
1070
     1
1071
       74
1005
130D06
  0
LINE
  5
130D07
  8
OBJECT
 10
5150.0
 20
-3699.9999999999968
 30
0.0
 11
5101.5
 21
-3699.9999999999968
 31
0.0
1001
ACDBBLOCKREPETAG
1070
     1
1071
       75
1005
130D07
  0
LINE
  5
130D08
  8
OBJECT
 10
5101.5
 20
-3555.9999999999968
 30
0.0
 11
5090.0
 21
-3562.4999999999968
 31
0.0
1001
ACDBBLOCKREPETAG
1070
     1
1071
       76
1005
130D08
  0
LINE
  5
130D09
  8
OBJECT
 10
5143.0
 20
-3555.9999999999968
 30
0.0
 11
5101.5
 21
-3555.9999999999968
 31
0.0
1001
ACDBBLOCKREPETAG
1070
     1
1071
       77
1005
130D09
  0
LINE
  5
130D0A
  8
OBJECT
 10
5086.0
 20
-3634.5000000000041
 30
0.0
 11
5081.0
 21
-3578.9999999999968
 31
0.0
1001
ACDBBLOCKREPETAG
1070
     1
1071
       78
1005
130D0A
  0
LINE
  5
130D0B
  8
OBJECT
 10
5090.0
 20
-3562.4999999999968
 30
0.0
 11
5081.0
 21
-3578.9999999999968
 31
0.0
1001
ACDBBLOCKREPETAG
1070
     1
1071
       79
1005
130D0B
  0
LINE
  5
130D0C
  8
OBJECT
 10
5101.5
 20
-3699.9999999999968
 30
0.0
 11
5094.8338607230708
 21
-3696.232182147819
 31
0.0
1001
ACDBBLOCKREPETAG
1070
     1
1071
       80
1005
130D0C
  0
LINE
  5
130D0D
  8
HIDDEN
 10
5098.0
 20
-3684.9999999999968
 30
0.0
 11
5098.0
 21
-3570.9999999999968
 31
0.0
1001
ACDBBLOCKREPETAG
1070
     1
1071
       81
1005
130D0D
  0
LINE
  5
130D0E
  8
OBJECT
 10
5150.0
 20
-3219.9999999999959
 30
0.0
 11
5143.0
 21
-3219.9999999999959
 31
0.0
1001
ACDBBLOCKREPETAG
1070
     1
1071
       67
1005
130D0E
  0
LINE
  5
130D0F
  8
OBJECT
 10
5143.0
 20
-3219.9999999999959
 30
0.0
 11
5143.0
 21
-3369.9999999999959
 31
0.0
1001
ACDBBLOCKREPETAG
1070
     1
1071
       68
1005
130D0F
  0
LINE
  5
130D10
  8
OBJECT
 10
5101.5
 20
-3222.9999999999959
 30
0.0
 11
5101.5
 21
-3366.9999999999959
 31
0.0
1001
ACDBBLOCKREPETAG
1070
     1
1071
       69
1005
130D10
  0
LINE
  5
130D11
  8
OBJECT
 10
5090.0
 20
-3229.4999999999959
 30
0.0
 11
5090.0
 21
-3360.4999999999959
 31
0.0
1001
ACDBBLOCKREPETAG
1070
     1
1071
       70
1005
130D11
  0
LINE
  5
130D12
  8
OBJECT
 10
5143.0
 20
-3369.9999999999959
 30
0.0
 11
5150.0
 21
-3369.9999999999959
 31
0.0
1001
ACDBBLOCKREPETAG
1070
     1
1071
       71
1005
130D12
  0
LINE
  5
130D13
  8
OBJECT
 10
5150.0
 20
-3369.9999999999959
 30
0.0
 11
5150.0
 21
-3219.9999999999959
 31
0.0
1001
ACDBBLOCKREPETAG
1070
     1
1071
       72
1005
130D13
  0
LINE
  5
130D14
  8
HIDDEN
 10
5098.0
 20
-3351.9999999999959
 30
0.0
 11
5098.0
 21
-3237.9999999999959
 31
0.0
1001
ACDBBLOCKREPETAG
1070
     1
1071
       73
1005
130D14
  0
LINE
  5
130D15
  8
CENTER
 10
5165.0
 20
-3294.9999999999959
 30
0.0
 11
5080.0
 21
-3294.9999999999959
 31
0.0
1001
ACDBBLOCKREPETAG
1070
     1
1071
       74
1005
130D15
  0
LINE
  5
130D16
  8
OBJECT
 10
5086.0
 20
-3356.9999999999959
 30
0.0
 11
5080.0
 21
-3356.9999999999959
 31
0.0
1001
ACDBBLOCKREPETAG
1070
     1
1071
       75
1005
130D16
  0
LINE
  5
130D17
  8
OBJECT
 10
5143.0
 20
-3366.9999999999959
 30
0.0
 11
5101.5
 21
-3366.9999999999959
 31
0.0
1001
ACDBBLOCKREPETAG
1070
     1
1071
       76
1005
130D17
  0
LINE
  5
130D18
  8
OBJECT
 10
5101.5
 20
-3366.9999999999959
 30
0.0
 11
5090.0
 21
-3360.4999999999959
 31
0.0
1001
ACDBBLOCKREPETAG
1070
     1
1071
       77
1005
130D18
  0
LINE
  5
130D19
  8
OBJECT
 10
5090.0
 20
-3360.4999999999959
 30
0.0
 11
5086.0
 21
-3356.9999999999959
 31
0.0
1001
ACDBBLOCKREPETAG
1070
     1
1071
       78
1005
130D19
  0
LINE
  5
130D1A
  8
OBJECT
 10
5101.5
 20
-3222.9999999999959
 30
0.0
 11
5090.0
 21
-3229.4999999999959
 31
0.0
1001
ACDBBLOCKREPETAG
1070
     1
1071
       79
1005
130D1A
  0
LINE
  5
130D1B
  8
OBJECT
 10
5090.0
 20
-3229.4999999999959
 30
0.0
 11
5086.0
 21
-3232.9999999999959
 31
0.0
1001
ACDBBLOCKREPETAG
1070
     1
1071
       80
1005
130D1B
  0
ARC
  5
130D1C
  8
OBJECT
 10
5467.9000000000005
 20
-3294.9999999999959
 30
0.0
 40
386.89999999999998
 50
170.77870136260421
 51
189.22129863739571
1001
ACDBBLOCKREPETAG
1070
     1
1071
       81
1005
130D1C
  0
LINE
  5
130D1D
  8
OBJECT
 10
5086.0
 20
-3232.9999999999959
 30
0.0
 11
5080.0
 21
-3232.9999999999959
 31
0.0
1001
ACDBBLOCKREPETAG
1070
     1
1071
       82
1005
130D1D
  0
LINE
  5
130D1E
  8
OBJECT
 10
5143.0
 20
-3222.9999999999959
 30
0.0
 11
5101.5
 21
-3222.9999999999959
 31
0.0
1001
ACDBBLOCKREPETAG
1070
     1
1071
       83
1005
130D1E
  0
TEXT
  5
130D1F
  8
SLIM
 10
4884.25
 20
-3817.4999999999959
 30
0.0
 40
35.0
  1
通常枝100（4）
 41
0.75
  0
LINE
  5
130D20
  8
CENTER
 10
4477.0
 20
-3640.9999999999968
 30
0.0
 11
4323.0
 21
-3640.9999999999968
 31
0.0
1001
ACDBBLOCKREPETAG
1070
     1
1071
       17
1005
130D20
  0
CIRCLE
  5
130D21
  8
OBJECT
 10
4400.0
 20
-3640.9999999999968
 30
0.0
 40
41.5
1001
ACDBBLOCKREPETAG
1070
     1
1071
       19
1005
130D21
  0
CIRCLE
  5
130D22
  8
OBJECT
 10
4400.0
 20
-3640.9999999999968
 30
0.0
 40
54.0
1001
ACDBBLOCKREPETAG
1070
     1
1071
       20
1005
130D22
  0
ARC
  5
130D23
  8
OBJECT
 10
4400.0
 20
-3640.9999999999968
 30
0.0
 40
62.0
 50
287.89655112921122
 51
252.1034488707887
1001
ACDBBLOCKREPETAG
1070
     1
1071
       21
1005
130D23
  0
LINE
  5
130D24
  8
OBJECT
 10
4380.947441116743
 20
-3699.9999999999968
 30
0.0
 11
4419.052558883257
 21
-3699.9999999999968
 31
0.0
1001
ACDBBLOCKREPETAG
1070
     1
1071
       22
1005
130D24
  0
LINE
  5
130D25
  8
OBJECT
 10
4133.0
 20
-3578.9999999999968
 30
0.0
 11
4140.0
 21
-3578.9999999999968
 31
0.0
1001
ACDBBLOCKREPETAG
1070
     1
1071
       45
1005
130D25
  0
LINE
  5
130D26
  8
OBJECT
 10
4140.0
 20
-3578.9999999999968
 30
0.0
 11
4140.0
 21
-3699.9999999999968
 31
0.0
1001
ACDBBLOCKREPETAG
1070
     1
1071
       46
1005
130D26
  0
LINE
  5
130D27
  8
OBJECT
 10
4133.0
 20
-3699.9999999999968
 30
0.0
 11
4133.0
 21
-3578.9999999999968
 31
0.0
1001
ACDBBLOCKREPETAG
1070
     1
1071
       47
1005
130D27
  0
LINE
  5
130D28
  8
CENTER
 10
4155.0
 20
-3640.9999999999968
 30
0.0
 11
4071.0
 21
-3640.9999999999968
 31
0.0
1001
ACDBBLOCKREPETAG
1070
     1
1071
       48
1005
130D28
  0
LINE
  5
130D29
  8
OBJECT
 10
4133.0
 20
-3581.9999999999968
 30
0.0
 11
4097.0
 21
-3581.9999999999968
 31
0.0
1001
ACDBBLOCKREPETAG
1070
     1
1071
       49
1005
130D29
  0
LINE
  5
130D2A
  8
OBJECT
 10
4097.0
 20
-3581.9999999999968
 30
0.0
 11
4097.0
 21
-3699.9999999999968
 31
0.0
1001
ACDBBLOCKREPETAG
1070
     1
1071
       50
1005
130D2A
  0
LINE
  5
130D2B
  8
OBJECT
 10
4097.0
 20
-3699.9999999999968
 30
0.0
 11
4140.0
 21
-3699.9999999999968
 31
0.0
1001
ACDBBLOCKREPETAG
1070
     1
1071
       51
1005
130D2B
  0
LINE
  5
130D2C
  8
OBJECT
 10
4093.0
 20
-3586.4999999999968
 30
0.0
 11
4086.0
 21
-3586.4999999999968
 31
0.0
1001
ACDBBLOCKREPETAG
1070
     1
1071
       52
1005
130D2C
  0
LINE
  5
130D2D
  8
OBJECT
 10
4086.0
 20
-3695.4999999999968
 30
0.0
 11
4093.0
 21
-3695.4999999999968
 31
0.0
1001
ACDBBLOCKREPETAG
1070
     1
1071
       53
1005
130D2D
  0
LINE
  5
130D2E
  8
OBJECT
 10
4093.0
 20
-3695.4999999999968
 30
0.0
 11
4093.0
 21
-3586.4999999999968
 31
0.0
1001
ACDBBLOCKREPETAG
1070
     1
1071
       54
1005
130D2E
  0
LINE
  5
130D2F
  8
OBJECT
 10
4097.0
 20
-3581.9999999999968
 30
0.0
 11
4093.0
 21
-3586.4999999999968
 31
0.0
1001
ACDBBLOCKREPETAG
1070
     1
1071
       55
1005
130D2F
  0
LINE
  5
130D30
  8
OBJECT
 10
4097.0
 20
-3699.9999999999968
 30
0.0
 11
4093.0
 21
-3695.4999999999968
 31
0.0
1001
ACDBBLOCKREPETAG
1070
     1
1071
       56
1005
130D30
  0
LINE
  5
130D31
  8
OBJECT
 10
4083.0
 20
-3578.9999999999968
 30
0.0
 11
4080.0
 21
-3578.9999999999968
 31
0.0
1001
ACDBBLOCKREPETAG
1070
     1
1071
       57
1005
130D31
  0
ARC
  5
130D32
  8
OBJECT
 10
4083.0
 20
-3581.9999999999968
 30
0.0
 40
3.0
 50
0.0
 51
90.0
1001
ACDBBLOCKREPETAG
1070
     1
1071
       58
1005
130D32
  0
LINE
  5
130D33
  8
OBJECT
 10
4080.0
 20
-3702.9999999999968
 30
0.0
 11
4083.0
 21
-3702.9999999999968
 31
0.0
1001
ACDBBLOCKREPETAG
1070
     1
1071
       59
1005
130D33
  0
ARC
  5
130D34
  8
OBJECT
 10
4083.0
 20
-3699.9999999999968
 30
0.0
 40
3.0
 50
270.0
 51
0.0
1001
ACDBBLOCKREPETAG
1070
     1
1071
       60
1005
130D34
  0
LINE
  5
130D35
  8
OBJECT
 10
4086.0
 20
-3699.9999999999968
 30
0.0
 11
4086.0
 21
-3581.9999999999968
 31
0.0
1001
ACDBBLOCKREPETAG
1070
     1
1071
       61
1005
130D35
  0
LINE
  5
130D36
  8
HIDDEN
 10
4088.0
 20
-3596.4999999999968
 30
0.0
 11
4088.0
 21
-3685.4999999999968
 31
0.0
1001
ACDBBLOCKREPETAG
1070
     1
1071
       63
1005
130D36
  0
LINE
  5
130D37
  8
OBJECT
 10
4133.0
 20
-3232.9999999999959
 30
0.0
 11
4140.0
 21
-3232.9999999999959
 31
0.0
1001
ACDBBLOCKREPETAG
1070
     1
1071
       47
1005
130D37
  0
LINE
  5
130D38
  8
OBJECT
 10
4140.0
 20
-3232.9999999999959
 30
0.0
 11
4140.0
 21
-3356.9999999999959
 31
0.0
1001
ACDBBLOCKREPETAG
1070
     1
1071
       48
1005
130D38
  0
LINE
  5
130D39
  8
OBJECT
 10
4140.0
 20
-3356.9999999999959
 30
0.0
 11
4133.0
 21
-3356.9999999999959
 31
0.0
1001
ACDBBLOCKREPETAG
1070
     1
1071
       49
1005
130D39
  0
LINE
  5
130D3A
  8
OBJECT
 10
4133.0
 20
-3356.9999999999959
 30
0.0
 11
4133.0
 21
-3232.9999999999959
 31
0.0
1001
ACDBBLOCKREPETAG
1070
     1
1071
       50
1005
130D3A
  0
LINE
  5
130D3B
  8
CENTER
 10
4155.0
 20
-3294.9999999999959
 30
0.0
 11
4080.0
 21
-3294.9999999999959
 31
0.0
1001
ACDBBLOCKREPETAG
1070
     1
1071
       51
1005
130D3B
  0
LINE
  5
130D3C
  8
OBJECT
 10
4133.0
 20
-3235.9999999999959
 30
0.0
 11
4097.0
 21
-3235.9999999999959
 31
0.0
1001
ACDBBLOCKREPETAG
1070
     1
1071
       52
1005
130D3C
  0
LINE
  5
130D3D
  8
OBJECT
 10
4097.0
 20
-3235.9999999999959
 30
0.0
 11
4097.0
 21
-3353.9999999999959
 31
0.0
1001
ACDBBLOCKREPETAG
1070
     1
1071
       53
1005
130D3D
  0
LINE
  5
130D3E
  8
OBJECT
 10
4097.0
 20
-3353.9999999999959
 30
0.0
 11
4133.0
 21
-3353.9999999999959
 31
0.0
1001
ACDBBLOCKREPETAG
1070
     1
1071
       54
1005
130D3E
  0
LINE
  5
130D3F
  8
OBJECT
 10
4093.0
 20
-3240.4999999999959
 30
0.0
 11
4086.0
 21
-3240.4999999999959
 31
0.0
1001
ACDBBLOCKREPETAG
1070
     1
1071
       55
1005
130D3F
  0
LINE
  5
130D40
  8
OBJECT
 10
4086.0
 20
-3349.4999999999959
 30
0.0
 11
4093.0
 21
-3349.4999999999959
 31
0.0
1001
ACDBBLOCKREPETAG
1070
     1
1071
       56
1005
130D40
  0
LINE
  5
130D41
  8
OBJECT
 10
4093.0
 20
-3349.4999999999959
 30
0.0
 11
4093.0
 21
-3240.4999999999959
 31
0.0
1001
ACDBBLOCKREPETAG
1070
     1
1071
       57
1005
130D41
  0
LINE
  5
130D42
  8
OBJECT
 10
4097.0
 20
-3235.9999999999959
 30
0.0
 11
4093.0
 21
-3240.4999999999959
 31
0.0
1001
ACDBBLOCKREPETAG
1070
     1
1071
       58
1005
130D42
  0
LINE
  5
130D43
  8
OBJECT
 10
4097.0
 20
-3353.9999999999959
 30
0.0
 11
4093.0
 21
-3349.4999999999959
 31
0.0
1001
ACDBBLOCKREPETAG
1070
     1
1071
       59
1005
130D43
  0
LINE
  5
130D44
  8
OBJECT
 10
4083.0
 20
-3232.9999999999959
 30
0.0
 11
4080.0
 21
-3232.9999999999959
 31
0.0
1001
ACDBBLOCKREPETAG
1070
     1
1071
       60
1005
130D44
  0
ARC
  5
130D45
  8
OBJECT
 10
4083.0
 20
-3235.9999999999959
 30
0.0
 40
3.0
 50
0.0
 51
90.0
1001
ACDBBLOCKREPETAG
1070
     1
1071
       61
1005
130D45
  0
LINE
  5
130D46
  8
OBJECT
 10
4080.0
 20
-3356.9999999999959
 30
0.0
 11
4083.0
 21
-3356.9999999999959
 31
0.0
1001
ACDBBLOCKREPETAG
1070
     1
1071
       62
1005
130D46
  0
ARC
  5
130D47
  8
OBJECT
 10
4083.0
 20
-3353.9999999999959
 30
0.0
 40
3.0
 50
270.0
 51
0.0
1001
ACDBBLOCKREPETAG
1070
     1
1071
       63
1005
130D47
  0
LINE
  5
130D48
  8
OBJECT
 10
4086.0
 20
-3353.9999999999959
 30
0.0
 11
4086.0
 21
-3235.9999999999959
 31
0.0
1001
ACDBBLOCKREPETAG
1070
     1
1071
       64
1005
130D48
  0
LINE
  5
130D49
  8
HIDDEN
 10
4088.0
 20
-3250.4999999999959
 30
0.0
 11
4088.0
 21
-3339.4999999999959
 31
0.0
1001
ACDBBLOCKREPETAG
1070
     1
1071
       65
1005
130D49
  0
TEXT
  5
130D4A
  8
SLIM
 10
3894.25
 20
-3817.4999999999959
 30
0.0
 40
35.0
  1
通常枝75（3）
 41
0.75
  0
CIRCLE
  5
130D4B
  8
OBJECT
 10
3400.0
 20
-3647.9999999999968
 30
0.0
 40
35.5
1001
ACDBBLOCKREPETAG
1070
     1
1071
       10
1005
130D4B
  0
CIRCLE
  5
130D4C
  8
OBJECT
 10
3400.0
 20
-3640.9999999999968
 30
0.0
 40
62.0
1001
ACDBBLOCKREPETAG
1070
     1
1071
       11
1005
130D4C
  0
LINE
  5
130D4D
  8
CENTER
 10
3330.0
 20
-3647.9999999999968
 30
0.0
 11
3470.0
 21
-3647.9999999999968
 31
0.0
1001
ACDBBLOCKREPETAG
1070
     1
1071
       12
1005
130D4D
  0
CIRCLE
  5
130D4E
  8
OBJECT
 10
3400.0
 20
-3647.9999999999968
 30
0.0
 40
47.0
1001
ACDBBLOCKREPETAG
1070
     1
1071
       14
1005
130D4E
  0
ARC
  5
130D4F
  8
OBJECT
 10
3400.0
 20
-3647.9999999999968
 30
0.0
 40
55.0
 50
289.01126526011359
 51
250.98873473988641
1001
ACDBBLOCKREPETAG
1070
     1
1071
       15
1005
130D4F
  0
LINE
  5
130D50
  8
OBJECT
 10
3382.0835271328328
 20
-3699.9999999999968
 30
0.0
 11
3417.9164728671681
 21
-3699.9999999999968
 31
0.0
1001
ACDBBLOCKREPETAG
1070
     1
1071
       16
1005
130D50
  0
LINE
  5
130D51
  8
OBJECT
 10
3133.0
 20
-3592.9999999999968
 30
0.0
 11
3140.0
 21
-3592.9999999999968
 31
0.0
1001
ACDBBLOCKREPETAG
1070
     1
1071
       26
1005
130D51
  0
LINE
  5
130D52
  8
OBJECT
 10
3140.0
 20
-3592.9999999999968
 30
0.0
 11
3140.0
 21
-3699.9999999999968
 31
0.0
1001
ACDBBLOCKREPETAG
1070
     1
1071
       27
1005
130D52
  0
LINE
  5
130D53
  8
OBJECT
 10
3133.0
 20
-3699.9999999999968
 30
0.0
 11
3133.0
 21
-3592.9999999999968
 31
0.0
1001
ACDBBLOCKREPETAG
1070
     1
1071
       28
1005
130D53
  0
LINE
  5
130D54
  8
CENTER
 10
3155.0
 20
-3647.9999999999968
 30
0.0
 11
3071.0
 21
-3647.9999999999968
 31
0.0
1001
ACDBBLOCKREPETAG
1070
     1
1071
       29
1005
130D54
  0
LINE
  5
130D55
  8
OBJECT
 10
3133.0
 20
-3595.9999999999968
 30
0.0
 11
3097.0
 21
-3595.9999999999968
 31
0.0
1001
ACDBBLOCKREPETAG
1070
     1
1071
       30
1005
130D55
  0
LINE
  5
130D56
  8
OBJECT
 10
3097.0
 20
-3595.9999999999968
 30
0.0
 11
3097.0
 21
-3699.9999999999968
 31
0.0
1001
ACDBBLOCKREPETAG
1070
     1
1071
       31
1005
130D56
  0
LINE
  5
130D57
  8
OBJECT
 10
3097.0
 20
-3699.9999999999968
 30
0.0
 11
3140.0
 21
-3699.9999999999968
 31
0.0
1001
ACDBBLOCKREPETAG
1070
     1
1071
       32
1005
130D57
  0
LINE
  5
130D58
  8
OBJECT
 10
3093.0
 20
-3600.4999999999968
 30
0.0
 11
3086.0
 21
-3600.4999999999968
 31
0.0
1001
ACDBBLOCKREPETAG
1070
     1
1071
       33
1005
130D58
  0
LINE
  5
130D59
  8
OBJECT
 10
3086.0
 20
-3695.4999999999968
 30
0.0
 11
3093.0
 21
-3695.4999999999968
 31
0.0
1001
ACDBBLOCKREPETAG
1070
     1
1071
       34
1005
130D59
  0
LINE
  5
130D5A
  8
OBJECT
 10
3093.0
 20
-3695.4999999999968
 30
0.0
 11
3093.0
 21
-3600.4999999999968
 31
0.0
1001
ACDBBLOCKREPETAG
1070
     1
1071
       35
1005
130D5A
  0
LINE
  5
130D5B
  8
OBJECT
 10
3097.0
 20
-3595.9999999999968
 30
0.0
 11
3093.0
 21
-3600.4999999999968
 31
0.0
1001
ACDBBLOCKREPETAG
1070
     1
1071
       36
1005
130D5B
  0
LINE
  5
130D5C
  8
OBJECT
 10
3097.0
 20
-3699.9999999999968
 30
0.0
 11
3093.0
 21
-3695.4999999999968
 31
0.0
1001
ACDBBLOCKREPETAG
1070
     1
1071
       37
1005
130D5C
  0
LINE
  5
130D5D
  8
OBJECT
 10
3083.0
 20
-3578.9999999999968
 30
0.0
 11
3080.0
 21
-3578.9999999999968
 31
0.0
1001
ACDBBLOCKREPETAG
1070
     1
1071
       38
1005
130D5D
  0
ARC
  5
130D5E
  8
OBJECT
 10
3083.0
 20
-3581.9999999999968
 30
0.0
 40
3.0
 50
0.0
 51
90.0
1001
ACDBBLOCKREPETAG
1070
     1
1071
       39
1005
130D5E
  0
LINE
  5
130D5F
  8
OBJECT
 10
3080.0
 20
-3702.9999999999968
 30
0.0
 11
3083.0
 21
-3702.9999999999968
 31
0.0
1001
ACDBBLOCKREPETAG
1070
     1
1071
       40
1005
130D5F
  0
ARC
  5
130D60
  8
OBJECT
 10
3083.0
 20
-3699.9999999999968
 30
0.0
 40
3.0
 50
270.0
 51
0.0
1001
ACDBBLOCKREPETAG
1070
     1
1071
       41
1005
130D60
  0
LINE
  5
130D61
  8
OBJECT
 10
3086.0
 20
-3699.9999999999968
 30
0.0
 11
3086.0
 21
-3581.9999999999968
 31
0.0
1001
ACDBBLOCKREPETAG
1070
     1
1071
       42
1005
130D61
  0
LINE
  5
130D62
  8
HIDDEN
 10
3088.0
 20
-3609.9999999999968
 30
0.0
 11
3088.0
 21
-3685.9999999999968
 31
0.0
1001
ACDBBLOCKREPETAG
1070
     1
1071
       43
1005
130D62
  0
LINE
  5
130D63
  8
OBJECT
 10
3133.0
 20
-3239.9999999999968
 30
0.0
 11
3140.0
 21
-3239.9999999999968
 31
0.0
1001
ACDBBLOCKREPETAG
1070
     1
1071
       27
1005
130D63
  0
LINE
  5
130D64
  8
OBJECT
 10
3140.0
 20
-3239.9999999999968
 30
0.0
 11
3140.0
 21
-3349.9999999999959
 31
0.0
1001
ACDBBLOCKREPETAG
1070
     1
1071
       28
1005
130D64
  0
LINE
  5
130D65
  8
OBJECT
 10
3140.0
 20
-3349.9999999999959
 30
0.0
 11
3133.0
 21
-3349.9999999999959
 31
0.0
1001
ACDBBLOCKREPETAG
1070
     1
1071
       29
1005
130D65
  0
LINE
  5
130D66
  8
OBJECT
 10
3133.0
 20
-3349.9999999999959
 30
0.0
 11
3133.0
 21
-3239.9999999999968
 31
0.0
1001
ACDBBLOCKREPETAG
1070
     1
1071
       30
1005
130D66
  0
LINE
  5
130D67
  8
CENTER
 10
3155.0
 20
-3294.9999999999959
 30
0.0
 11
3080.0
 21
-3294.9999999999959
 31
0.0
1001
ACDBBLOCKREPETAG
1070
     1
1071
       31
1005
130D67
  0
LINE
  5
130D68
  8
OBJECT
 10
3133.0
 20
-3242.9999999999959
 30
0.0
 11
3097.0
 21
-3242.9999999999959
 31
0.0
1001
ACDBBLOCKREPETAG
1070
     1
1071
       32
1005
130D68
  0
LINE
  5
130D69
  8
OBJECT
 10
3097.0
 20
-3242.9999999999959
 30
0.0
 11
3097.0
 21
-3346.9999999999959
 31
0.0
1001
ACDBBLOCKREPETAG
1070
     1
1071
       33
1005
130D69
  0
LINE
  5
130D6A
  8
OBJECT
 10
3097.0
 20
-3346.9999999999959
 30
0.0
 11
3133.0
 21
-3346.9999999999959
 31
0.0
1001
ACDBBLOCKREPETAG
1070
     1
1071
       34
1005
130D6A
  0
LINE
  5
130D6B
  8
OBJECT
 10
3093.0
 20
-3247.4999999999959
 30
0.0
 11
3086.0
 21
-3247.4999999999959
 31
0.0
1001
ACDBBLOCKREPETAG
1070
     1
1071
       35
1005
130D6B
  0
LINE
  5
130D6C
  8
OBJECT
 10
3086.0
 20
-3342.4999999999959
 30
0.0
 11
3093.0
 21
-3342.4999999999959
 31
0.0
1001
ACDBBLOCKREPETAG
1070
     1
1071
       36
1005
130D6C
  0
LINE
  5
130D6D
  8
OBJECT
 10
3093.0
 20
-3342.4999999999959
 30
0.0
 11
3093.0
 21
-3247.4999999999959
 31
0.0
1001
ACDBBLOCKREPETAG
1070
     1
1071
       37
1005
130D6D
  0
LINE
  5
130D6E
  8
OBJECT
 10
3097.0
 20
-3242.9999999999959
 30
0.0
 11
3093.0
 21
-3247.4999999999959
 31
0.0
1001
ACDBBLOCKREPETAG
1070
     1
1071
       38
1005
130D6E
  0
LINE
  5
130D6F
  8
OBJECT
 10
3097.0
 20
-3346.9999999999959
 30
0.0
 11
3093.0
 21
-3342.4999999999959
 31
0.0
1001
ACDBBLOCKREPETAG
1070
     1
1071
       39
1005
130D6F
  0
LINE
  5
130D70
  8
OBJECT
 10
3083.0
 20
-3232.9999999999959
 30
0.0
 11
3080.0
 21
-3232.9999999999959
 31
0.0
1001
ACDBBLOCKREPETAG
1070
     1
1071
       40
1005
130D70
  0
ARC
  5
130D71
  8
OBJECT
 10
3083.0
 20
-3235.9999999999959
 30
0.0
 40
3.0
 50
0.0
 51
90.0
1001
ACDBBLOCKREPETAG
1070
     1
1071
       41
1005
130D71
  0
LINE
  5
130D72
  8
OBJECT
 10
3080.0
 20
-3356.9999999999959
 30
0.0
 11
3083.0
 21
-3356.9999999999959
 31
0.0
1001
ACDBBLOCKREPETAG
1070
     1
1071
       42
1005
130D72
  0
ARC
  5
130D73
  8
OBJECT
 10
3083.0
 20
-3353.9999999999959
 30
0.0
 40
3.0
 50
270.0
 51
0.0
1001
ACDBBLOCKREPETAG
1070
     1
1071
       43
1005
130D73
  0
LINE
  5
130D74
  8
OBJECT
 10
3086.0
 20
-3353.9999999999959
 30
0.0
 11
3086.0
 21
-3235.9999999999959
 31
0.0
1001
ACDBBLOCKREPETAG
1070
     1
1071
       44
1005
130D74
  0
LINE
  5
130D75
  8
HIDDEN
 10
3088.0
 20
-3256.9999999999959
 30
0.0
 11
3088.0
 21
-3332.9999999999968
 31
0.0
1001
ACDBBLOCKREPETAG
1070
     1
1071
       45
1005
130D75
  0
TEXT
  5
130D76
  8
SLIM
 10
2894.25
 20
-3817.4999999999959
 30
0.0
 40
35.0
  1
通常枝65（2）
 41
0.75
  0
CIRCLE
  5
130D77
  8
OBJECT
 10
2400.0
 20
-3640.9999999999968
 30
0.0
 40
62.0
1001
ACDBBLOCKREPETAG
1070
     1
1071
        3
1005
130D77
  0
LINE
  5
130D78
  8
CENTER
 10
2338.0
 20
-3655.9999999999968
 30
0.0
 11
2462.0
 21
-3655.9999999999968
 31
0.0
1001
ACDBBLOCKREPETAG
1070
     1
1071
        4
1005
130D78
  0
CIRCLE
  5
130D79
  8
OBJECT
 10
2400.0
 20
-3655.9999999999968
 30
0.0
 40
28.0
1001
ACDBBLOCKREPETAG
1070
     1
1071
        6
1005
130D79
  0
CIRCLE
  5
130D7A
  8
OBJECT
 10
2400.0
 20
-3655.9999999999968
 30
0.0
 40
39.0
1001
ACDBBLOCKREPETAG
1070
     1
1071
        7
1005
130D7A
  0
ARC
  5
130D7B
  8
OBJECT
 10
2400.0
 20
-3655.9999999999968
 30
0.0
 40
47.0
 50
290.58196921144412
 51
249.41803078855591
1001
ACDBBLOCKREPETAG
1070
     1
1071
        8
1005
130D7B
  0
LINE
  5
130D7C
  8
OBJECT
 10
2383.4772883581431
 20
-3699.9999999999968
 30
0.0
 11
2416.5227116418569
 21
-3699.9999999999968
 31
0.0
1001
ACDBBLOCKREPETAG
1070
     1
1071
        9
1005
130D7C
  0
LINE
  5
130D7D
  8
OBJECT
 10
2133.0
 20
-3608.9999999999968
 30
0.0
 11
2140.0
 21
-3608.9999999999968
 31
0.0
1001
ACDBBLOCKREPETAG
1070
     1
1071
        7
1005
130D7D
  0
LINE
  5
130D7E
  8
OBJECT
 10
2140.0
 20
-3608.9999999999968
 30
0.0
 11
2140.0
 21
-3699.9999999999968
 31
0.0
1001
ACDBBLOCKREPETAG
1070
     1
1071
        8
1005
130D7E
  0
LINE
  5
130D7F
  8
OBJECT
 10
2133.0
 20
-3699.9999999999968
 30
0.0
 11
2133.0
 21
-3608.9999999999968
 31
0.0
1001
ACDBBLOCKREPETAG
1070
     1
1071
        9
1005
130D7F
  0
LINE
  5
130D80
  8
CENTER
 10
2155.0
 20
-3655.9999999999968
 30
0.0
 11
2071.0
 21
-3655.9999999999968
 31
0.0
1001
ACDBBLOCKREPETAG
1070
     1
1071
       10
1005
130D80
  0
LINE
  5
130D81
  8
OBJECT
 10
2133.0
 20
-3611.9999999999968
 30
0.0
 11
2097.0
 21
-3611.9999999999968
 31
0.0
1001
ACDBBLOCKREPETAG
1070
     1
1071
       11
1005
130D81
  0
LINE
  5
130D82
  8
OBJECT
 10
2097.0
 20
-3611.9999999999968
 30
0.0
 11
2097.0
 21
-3699.9999999999968
 31
0.0
1001
ACDBBLOCKREPETAG
1070
     1
1071
       12
1005
130D82
  0
LINE
  5
130D83
  8
OBJECT
 10
2097.0
 20
-3699.9999999999968
 30
0.0
 11
2140.0
 21
-3699.9999999999968
 31
0.0
1001
ACDBBLOCKREPETAG
1070
     1
1071
       13
1005
130D83
  0
LINE
  5
130D84
  8
OBJECT
 10
2093.0
 20
-3616.4999999999968
 30
0.0
 11
2086.0
 21
-3616.4999999999968
 31
0.0
1001
ACDBBLOCKREPETAG
1070
     1
1071
       14
1005
130D84
  0
LINE
  5
130D85
  8
OBJECT
 10
2086.0
 20
-3695.4999999999968
 30
0.0
 11
2093.0
 21
-3695.4999999999968
 31
0.0
1001
ACDBBLOCKREPETAG
1070
     1
1071
       15
1005
130D85
  0
LINE
  5
130D86
  8
OBJECT
 10
2093.0
 20
-3695.4999999999968
 30
0.0
 11
2093.0
 21
-3616.4999999999968
 31
0.0
1001
ACDBBLOCKREPETAG
1070
     1
1071
       16
1005
130D86
  0
LINE
  5
130D87
  8
OBJECT
 10
2097.0
 20
-3611.9999999999968
 30
0.0
 11
2093.0
 21
-3616.4999999999968
 31
0.0
1001
ACDBBLOCKREPETAG
1070
     1
1071
       17
1005
130D87
  0
LINE
  5
130D88
  8
OBJECT
 10
2097.0
 20
-3699.9999999999968
 30
0.0
 11
2093.0
 21
-3695.4999999999968
 31
0.0
1001
ACDBBLOCKREPETAG
1070
     1
1071
       18
1005
130D88
  0
LINE
  5
130D89
  8
OBJECT
 10
2083.0
 20
-3578.9999999999968
 30
0.0
 11
2080.0
 21
-3578.9999999999968
 31
0.0
1001
ACDBBLOCKREPETAG
1070
     1
1071
       19
1005
130D89
  0
ARC
  5
130D8A
  8
OBJECT
 10
2083.0
 20
-3581.9999999999968
 30
0.0
 40
3.0
 50
0.0
 51
90.0
1001
ACDBBLOCKREPETAG
1070
     1
1071
       20
1005
130D8A
  0
LINE
  5
130D8B
  8
OBJECT
 10
2080.0
 20
-3702.9999999999968
 30
0.0
 11
2083.0
 21
-3702.9999999999968
 31
0.0
1001
ACDBBLOCKREPETAG
1070
     1
1071
       21
1005
130D8B
  0
ARC
  5
130D8C
  8
OBJECT
 10
2083.0
 20
-3699.9999999999968
 30
0.0
 40
3.0
 50
270.0
 51
0.0
1001
ACDBBLOCKREPETAG
1070
     1
1071
       22
1005
130D8C
  0
LINE
  5
130D8D
  8
OBJECT
 10
2086.0
 20
-3699.9999999999968
 30
0.0
 11
2086.0
 21
-3581.9999999999968
 31
0.0
1001
ACDBBLOCKREPETAG
1070
     1
1071
       23
1005
130D8D
  0
LINE
  5
130D8E
  8
HIDDEN
 10
2088.0
 20
-3625.9999999999968
 30
0.0
 11
2088.0
 21
-3685.9999999999968
 31
0.0
1001
ACDBBLOCKREPETAG
1070
     1
1071
       24
1005
130D8E
  0
LINE
  5
130D8F
  8
OBJECT
 10
2133.0
 20
-3247.9999999999959
 30
0.0
 11
2140.0
 21
-3247.9999999999959
 31
0.0
1001
ACDBBLOCKREPETAG
1070
     1
1071
        7
1005
130D8F
  0
LINE
  5
130D90
  8
OBJECT
 10
2140.0
 20
-3247.9999999999959
 30
0.0
 11
2140.0
 21
-3341.9999999999959
 31
0.0
1001
ACDBBLOCKREPETAG
1070
     1
1071
        8
1005
130D90
  0
LINE
  5
130D91
  8
OBJECT
 10
2140.0
 20
-3341.9999999999959
 30
0.0
 11
2133.0
 21
-3341.9999999999959
 31
0.0
1001
ACDBBLOCKREPETAG
1070
     1
1071
        9
1005
130D91
  0
LINE
  5
130D92
  8
OBJECT
 10
2133.0
 20
-3341.9999999999959
 30
0.0
 11
2133.0
 21
-3247.9999999999959
 31
0.0
1001
ACDBBLOCKREPETAG
1070
     1
1071
       10
1005
130D92
  0
LINE
  5
130D93
  8
CENTER
 10
2155.0
 20
-3294.9999999999959
 30
0.0
 11
2080.0
 21
-3294.9999999999959
 31
0.0
1001
ACDBBLOCKREPETAG
1070
     1
1071
       11
1005
130D93
  0
LINE
  5
130D94
  8
OBJECT
 10
2133.0
 20
-3250.9999999999959
 30
0.0
 11
2097.0
 21
-3250.9999999999959
 31
0.0
1001
ACDBBLOCKREPETAG
1070
     1
1071
       12
1005
130D94
  0
LINE
  5
130D95
  8
OBJECT
 10
2097.0
 20
-3250.9999999999959
 30
0.0
 11
2097.0
 21
-3338.9999999999959
 31
0.0
1001
ACDBBLOCKREPETAG
1070
     1
1071
       13
1005
130D95
  0
LINE
  5
130D96
  8
OBJECT
 10
2097.0
 20
-3338.9999999999959
 30
0.0
 11
2133.0
 21
-3338.9999999999959
 31
0.0
1001
ACDBBLOCKREPETAG
1070
     1
1071
       14
1005
130D96
  0
LINE
  5
130D97
  8
OBJECT
 10
2093.0
 20
-3255.4999999999959
 30
0.0
 11
2086.0
 21
-3255.4999999999959
 31
0.0
1001
ACDBBLOCKREPETAG
1070
     1
1071
       15
1005
130D97
  0
LINE
  5
130D98
  8
OBJECT
 10
2086.0
 20
-3334.4999999999959
 30
0.0
 11
2093.0
 21
-3334.4999999999959
 31
0.0
1001
ACDBBLOCKREPETAG
1070
     1
1071
       16
1005
130D98
  0
LINE
  5
130D99
  8
OBJECT
 10
2093.0
 20
-3334.4999999999959
 30
0.0
 11
2093.0
 21
-3255.4999999999959
 31
0.0
1001
ACDBBLOCKREPETAG
1070
     1
1071
       17
1005
130D99
  0
LINE
  5
130D9A
  8
OBJECT
 10
2097.0
 20
-3250.9999999999959
 30
0.0
 11
2093.0
 21
-3255.4999999999959
 31
0.0
1001
ACDBBLOCKREPETAG
1070
     1
1071
       18
1005
130D9A
  0
LINE
  5
130D9B
  8
OBJECT
 10
2097.0
 20
-3338.9999999999959
 30
0.0
 11
2093.0
 21
-3334.4999999999959
 31
0.0
1001
ACDBBLOCKREPETAG
1070
     1
1071
       19
1005
130D9B
  0
LINE
  5
130D9C
  8
OBJECT
 10
2083.0
 20
-3232.9999999999959
 30
0.0
 11
2080.0
 21
-3232.9999999999959
 31
0.0
1001
ACDBBLOCKREPETAG
1070
     1
1071
       20
1005
130D9C
  0
ARC
  5
130D9D
  8
OBJECT
 10
2083.0
 20
-3235.9999999999959
 30
0.0
 40
3.0
 50
0.0
 51
90.0
1001
ACDBBLOCKREPETAG
1070
     1
1071
       21
1005
130D9D
  0
LINE
  5
130D9E
  8
OBJECT
 10
2080.0
 20
-3356.9999999999959
 30
0.0
 11
2083.0
 21
-3356.9999999999959
 31
0.0
1001
ACDBBLOCKREPETAG
1070
     1
1071
       22
1005
130D9E
  0
ARC
  5
130D9F
  8
OBJECT
 10
2083.0
 20
-3353.9999999999959
 30
0.0
 40
3.0
 50
270.0
 51
0.0
1001
ACDBBLOCKREPETAG
1070
     1
1071
       23
1005
130D9F
  0
LINE
  5
130DA0
  8
OBJECT
 10
2086.0
 20
-3353.9999999999959
 30
0.0
 11
2086.0
 21
-3235.9999999999959
 31
0.0
1001
ACDBBLOCKREPETAG
1070
     1
1071
       24
1005
130DA0
  0
LINE
  5
130DA1
  8
HIDDEN
 10
2088.0
 20
-3264.9999999999968
 30
0.0
 11
2088.0
 21
-3324.9999999999959
 31
0.0
1001
ACDBBLOCKREPETAG
1070
     1
1071
       25
1005
130DA1
  0
TEXT
  5
130DA2
  8
SLIM
 10
1896.75
 20
-3817.4999999999959
 30
0.0
 40
35.0
  1
通常枝50（1）
 41
0.75
  0
LINE
  5
130DA3
  8
SLIM
 10
3914.9999999999941
 20
-759.47385309434696
 30
0.0
 11
3919.47385309434
 21
-754.99999999999955
 31
0.0
1001
ACDBBLOCKREPETAG
1070
     1
1071
        0
1005
0
1001
ACAD
1010
0.0
1020
0.0
1030
0.0
  0
LINE
  5
130DA4
  8
SLIM
 10
3914.9999999999941
 20
-777.43436533648503
 30
0.0
 11
3937.434365336479
 21
-754.99999999999955
 31
0.0
1001
ACAD
1010
0.0
1020
0.0
1030
0.0
1001
ACDBBLOCKREPETAG
1070
     1
1071
       14
1005
130DA4
  0
LINE
  5
130DA5
  8
SLIM
 10
3914.9999999999941
 20
-795.39487757862275
 30
0.0
 11
3955.394877578618
 21
-754.99999999999955
 31
0.0
1001
ACAD
1010
0.0
1020
0.0
1030
0.0
1001
ACDBBLOCKREPETAG
1070
     1
1071
       15
1005
130DA5
  0
LINE
  5
130DA6
  8
SLIM
 10
3914.9999999999941
 20
-813.35538982076082
 30
0.0
 11
3973.3553898207551
 21
-754.99999999999955
 31
0.0
1001
ACAD
1010
0.0
1020
0.0
1030
0.0
1001
ACDBBLOCKREPETAG
1070
     1
1071
       16
1005
130DA6
  0
LINE
  5
130DA7
  8
SLIM
 10
3914.999999999995
 20
-831.31590206289854
 30
0.0
 11
3991.3159020628941
 21
-754.99999999999955
 31
0.0
1001
ACAD
1010
0.0
1020
0.0
1030
0.0
1001
ACDBBLOCKREPETAG
1070
     1
1071
       17
1005
130DA7
  0
LINE
  5
130DA8
  8
SLIM
 10
3914.999999999995
 20
-849.2764143050365
 30
0.0
 11
4009.2764143050308
 21
-754.99999999999955
 31
0.0
1001
ACAD
1010
0.0
1020
0.0
1030
0.0
1001
ACDBBLOCKREPETAG
1070
     1
1071
       18
1005
130DA8
  0
LINE
  5
130DA9
  8
SLIM
 10
3914.999999999995
 20
-867.23692654717422
 30
0.0
 11
4027.2369265471689
 21
-754.99999999999955
 31
0.0
1001
ACAD
1010
0.0
1020
0.0
1030
0.0
1001
ACDBBLOCKREPETAG
1070
     1
1071
       19
1005
130DA9
  0
LINE
  5
130DAA
  8
SLIM
 10
3914.999999999995
 20
-885.1974387893124
 30
0.0
 11
4045.1974387893069
 21
-754.99999999999955
 31
0.0
1001
ACAD
1010
0.0
1020
0.0
1030
0.0
1001
ACDBBLOCKREPETAG
1070
     1
1071
       20
1005
130DAA
  0
LINE
  5
130DAB
  8
SLIM
 10
3914.9999999999968
 20
-903.15795103145035
 30
0.0
 11
4063.157951031445
 21
-754.99999999999955
 31
0.0
1001
ACAD
1010
0.0
1020
0.0
1030
0.0
1001
ACDBBLOCKREPETAG
1070
     1
1071
       21
1005
130DAB
  0
LINE
  5
130DAC
  8
SLIM
 10
3915.1454972543161
 20
-920.97296601926894
 30
0.0
 11
4081.1184632735849
 21
-754.99999999999955
 31
0.0
1001
ACAD
1010
0.0
1020
0.0
1030
0.0
1001
ACDBBLOCKREPETAG
1070
     1
1071
       22
1005
130DAC
  0
LINE
  5
130DAD
  8
SLIM
 10
3917.104627495245
 20
-936.97434802047894
 30
0.0
 11
4085.0000000000068
 21
-769.07897551571591
 31
0.0
1001
ACAD
1010
0.0
1020
0.0
1030
0.0
1001
ACDBBLOCKREPETAG
1070
     1
1071
       23
1005
130DAD
  0
LINE
  5
130DAE
  8
SLIM
 10
3919.0637577361722
 20
-952.97573002168929
 30
0.0
 11
4085.0000000000068
 21
-787.03948775785443
 31
0.0
1001
ACAD
1010
0.0
1020
0.0
1030
0.0
1001
ACDBBLOCKREPETAG
1070
     1
1071
       24
1005
130DAE
  0
LINE
  5
130DAF
  8
SLIM
 10
3920.0
 20
-969.99999999999966
 30
0.0
 11
4085.0000000000068
 21
-804.99999999999341
 31
0.0
1001
ACAD
1010
0.0
1020
0.0
1030
0.0
1001
ACDBBLOCKREPETAG
1070
     1
1071
       25
1005
130DAF
  0
LINE
  5
130DB0
  8
SLIM
 10
3920.0
 20
-987.96051224213795
 30
0.0
 11
4085.0000000000059
 21
-822.96051224213215
 31
0.0
1001
ACAD
1010
0.0
1020
0.0
1030
0.0
1001
ACDBBLOCKREPETAG
1070
     1
1071
       26
1005
130DB0
  0
LINE
  5
130DB1
  8
SLIM
 10
3920.0
 20
-1005.921024484276
 30
0.0
 11
4085.0000000000059
 21
-840.92102448427045
 31
0.0
1001
ACAD
1010
0.0
1020
0.0
1030
0.0
1001
ACDBBLOCKREPETAG
1070
     1
1071
       27
1005
130DB1
  0
LINE
  5
130DB2
  8
SLIM
 10
3920.0
 20
-1023.881536726414
 30
0.0
 11
4085.000000000005
 21
-858.88153672640954
 31
0.0
1001
ACAD
1010
0.0
1020
0.0
1030
0.0
1001
ACDBBLOCKREPETAG
1070
     1
1071
       28
1005
130DB2
  0
LINE
  5
130DB3
  8
SLIM
 10
3920.0
 20
-1041.842048968552
 30
0.0
 11
4085.0000000000041
 21
-876.84204896854817
 31
0.0
1001
ACAD
1010
0.0
1020
0.0
1030
0.0
1001
ACDBBLOCKREPETAG
1070
     1
1071
       29
1005
130DB3
  0
LINE
  5
130DB4
  8
SLIM
 10
3920.0
 20
-1059.802561210691
 30
0.0
 11
4085.0000000000041
 21
-894.80256121068692
 31
0.0
1001
ACAD
1010
0.0
1020
0.0
1030
0.0
1001
ACDBBLOCKREPETAG
1070
     1
1071
       30
1005
130DB4
  0
LINE
  5
130DB5
  8
SLIM
 10
3920.0
 20
-1077.7630734528291
 30
0.0
 11
4085.0000000000032
 21
-912.76307345282555
 31
0.0
1001
ACAD
1010
0.0
1020
0.0
1030
0.0
1001
ACDBBLOCKREPETAG
1070
     1
1071
       31
1005
130DB5
  0
LINE
  5
130DB6
  8
SLIM
 10
3930.0
 20
-1085.723585694966
 30
0.0
 11
3930.7235856949678
 21
-1084.9999999999991
 31
0.0
1001
ACAD
1010
0.0
1020
0.0
1030
0.0
1001
ACDBBLOCKREPETAG
1070
     1
1071
       32
1005
130DB6
  0
LINE
  5
130DB7
  8
SLIM
 10
3930.7235856949678
 20
-1084.9999999999991
 30
0.0
 11
4083.4738280308079
 21
-932.24975766415935
 31
0.0
1001
ACAD
1010
0.0
1020
0.0
1030
0.0
1001
ACDBBLOCKREPETAG
1070
     1
1071
       33
1005
130DB7
  0
LINE
  5
130DB8
  8
SLIM
 10
3930.0
 20
-1103.6840979371059
 30
0.0
 11
3948.6840979371068
 21
-1084.9999999999991
 31
0.0
1001
ACAD
1010
0.0
1020
0.0
1030
0.0
1001
ACDBBLOCKREPETAG
1070
     1
1071
       34
1005
130DB8
  0
LINE
  5
130DB9
  8
SLIM
 10
3948.6840979371068
 20
-1084.9999999999991
 30
0.0
 11
4080.9680345671368
 21
-952.71606336996854
 31
0.0
1001
ACAD
1010
0.0
1020
0.0
1030
0.0
1001
ACDBBLOCKREPETAG
1070
     1
1071
       35
1005
130DB9
  0
LINE
  5
130DBA
  8
SLIM
 10
3946.6446101792449
 20
-1104.9999999999991
 30
0.0
 11
3966.6446101792449
 21
-1084.9999999999991
 31
0.0
1001
ACAD
1010
0.0
1020
0.0
1030
0.0
1001
ACDBBLOCKREPETAG
1070
     1
1071
       36
1005
130DBA
  0
LINE
  5
130DBB
  8
SLIM
 10
3966.6446101792449
 20
-1084.9999999999991
 30
0.0
 11
4080.0
 21
-971.64461017924452
 31
0.0
1001
ACAD
1010
0.0
1020
0.0
1030
0.0
1001
ACDBBLOCKREPETAG
1070
     1
1071
       37
1005
130DBB
  0
LINE
  5
130DBC
  8
SLIM
 10
3964.6051224213829
 20
-1104.9999999999991
 30
0.0
 11
3984.6051224213829
 21
-1084.9999999999991
 31
0.0
1001
ACAD
1010
0.0
1020
0.0
1030
0.0
1001
ACDBBLOCKREPETAG
1070
     1
1071
       38
1005
130DBC
  0
LINE
  5
130DBD
  8
SLIM
 10
3984.6051224213829
 20
-1084.9999999999991
 30
0.0
 11
4080.0
 21
-989.60512242138304
 31
0.0
1001
ACAD
1010
0.0
1020
0.0
1030
0.0
1001
ACDBBLOCKREPETAG
1070
     1
1071
       39
1005
130DBD
  0
LINE
  5
130DBE
  8
SLIM
 10
3982.565634663521
 20
-1104.9999999999991
 30
0.0
 11
4002.565634663521
 21
-1084.9999999999991
 31
0.0
1001
ACAD
1010
0.0
1020
0.0
1030
0.0
1001
ACDBBLOCKREPETAG
1070
     1
1071
       40
1005
130DBE
  0
LINE
  5
130DBF
  8
SLIM
 10
4002.565634663521
 20
-1084.9999999999991
 30
0.0
 11
4079.9999999999991
 21
-1007.565634663521
 31
0.0
1001
ACAD
1010
0.0
1020
0.0
1030
0.0
1001
ACDBBLOCKREPETAG
1070
     1
1071
       41
1005
130DBF
  0
LINE
  5
130DC0
  8
SLIM
 10
4000.5261469056582
 20
-1104.9999999999991
 30
0.0
 11
4020.52614690566
 21
-1084.9999999999991
 31
0.0
1001
ACAD
1010
0.0
1020
0.0
1030
0.0
1001
ACDBBLOCKREPETAG
1070
     1
1071
       42
1005
130DC0
  0
LINE
  5
130DC1
  8
SLIM
 10
4020.52614690566
 20
-1084.9999999999991
 30
0.0
 11
4079.9999999999991
 21
-1025.52614690566
 31
0.0
1001
ACAD
1010
0.0
1020
0.0
1030
0.0
1001
ACDBBLOCKREPETAG
1070
     1
1071
       43
1005
130DC1
  0
LINE
  5
130DC2
  8
SLIM
 10
4018.486659147798
 20
-1104.9999999999991
 30
0.0
 11
4038.486659147798
 21
-1084.9999999999991
 31
0.0
1001
ACAD
1010
0.0
1020
0.0
1030
0.0
1001
ACDBBLOCKREPETAG
1070
     1
1071
       44
1005
130DC2
  0
LINE
  5
130DC3
  8
SLIM
 10
4038.486659147798
 20
-1084.9999999999991
 30
0.0
 11
4079.9999999999991
 21
-1043.4866591477989
 31
0.0
1001
ACAD
1010
0.0
1020
0.0
1030
0.0
1001
ACDBBLOCKREPETAG
1070
     1
1071
       45
1005
130DC3
  0
LINE
  5
130DC4
  8
SLIM
 10
4036.4471713899361
 20
-1104.9999999999991
 30
0.0
 11
4056.4471713899361
 21
-1084.9999999999991
 31
0.0
1001
ACAD
1010
0.0
1020
0.0
1030
0.0
1001
ACDBBLOCKREPETAG
1070
     1
1071
       46
1005
130DC4
  0
LINE
  5
130DC5
  8
SLIM
 10
4056.4471713899361
 20
-1084.9999999999991
 30
0.0
 11
4079.9999999999991
 21
-1061.447171389937
 31
0.0
1001
ACAD
1010
0.0
1020
0.0
1030
0.0
1001
ACDBBLOCKREPETAG
1070
     1
1071
       47
1005
130DC5
  0
LINE
  5
130DC6
  8
SLIM
 10
4054.4076836320728
 20
-1104.9999999999991
 30
0.0
 11
4070.0
 21
-1089.4076836320739
 31
0.0
1001
ACAD
1010
0.0
1020
0.0
1030
0.0
1001
ACDBBLOCKREPETAG
1070
     1
1071
       48
1005
130DC6
  0
LINE
  5
130DC7
  8
SLIM
 10
4074.4076836320728
 20
-1084.9999999999991
 30
0.0
 11
4079.9999999999991
 21
-1079.407683632076
 31
0.0
1001
ACAD
1010
0.0
1020
0.0
1030
0.0
1001
ACDBBLOCKREPETAG
1070
     1
1071
       49
1005
130DC7
  0
LINE
  5
130DC8
  8
OBJECT
 10
3914.9999999999941
 20
-754.99999999999955
 30
0.0
 11
3914.9999999999968
 21
-919.78460339903484
 31
0.0
1001
ACDBBLOCKREPETAG
1070
     1
1071
        1
1005
130DC8
  0
LINE
  5
130DC9
  8
OBJECT
 10
4085.0000000000068
 20
-754.99999999999955
 30
0.0
 11
4085.0000000000032
 21
-919.78460339904154
 31
0.0
1001
ACDBBLOCKREPETAG
1070
     1
1071
        2
1005
130DC9
  0
LINE
  5
130DCA
  8
OBJECT
 10
4085.0000000000068
 20
-754.99999999999955
 30
0.0
 11
3914.9999999999941
 21
-754.99999999999955
 31
0.0
1001
ACDBBLOCKREPETAG
1070
     1
1071
        3
1005
130DCA
  0
LINE
  5
130DCB
  8
OBJECT
 10
4079.9999999999991
 20
-1084.9999999999991
 30
0.0
 11
3920.0
 21
-1084.9999999999991
 31
0.0
1001
ACDBBLOCKREPETAG
1070
     1
1071
        4
1005
130DCB
  0
LINE
  5
130DCC
  8
OBJECT
 10
3914.9999999999968
 20
-919.78460339903484
 30
0.0
 11
3920.0
 21
-960.62257748298634
 31
0.0
1001
ACDBBLOCKREPETAG
1070
     1
1071
        6
1005
130DCC
  0
LINE
  5
130DCD
  8
OBJECT
 10
3920.0
 20
-960.62257748298634
 30
0.0
 11
3920.0
 21
-1084.9999999999991
 31
0.0
1001
ACDBBLOCKREPETAG
1070
     1
1071
        7
1005
130DCD
  0
LINE
  5
130DCE
  8
OBJECT
 10
4085.0000000000032
 20
-919.78460339904154
 30
0.0
 11
4080.0
 21
-960.62257748298634
 31
0.0
1001
ACDBBLOCKREPETAG
1070
     1
1071
        8
1005
130DCE
  0
LINE
  5
130DCF
  8
OBJECT
 10
4080.0
 20
-960.62257748298634
 30
0.0
 11
4079.9999999999991
 21
-1084.9999999999991
 31
0.0
1001
ACDBBLOCKREPETAG
1070
     1
1071
        9
1005
130DCF
  0
LINE
  5
130DD0
  8
OBJECT
 10
3930.0
 20
-1084.9999999999991
 30
0.0
 11
3930.0
 21
-1104.9999999999991
 31
0.0
1001
ACDBBLOCKREPETAG
1070
     1
1071
       10
1005
130DD0
  0
LINE
  5
130DD1
  8
OBJECT
 10
3930.0
 20
-1104.9999999999991
 30
0.0
 11
4070.0
 21
-1104.9999999999991
 31
0.0
1001
ACDBBLOCKREPETAG
1070
     1
1071
       11
1005
130DD1
  0
LINE
  5
130DD2
  8
OBJECT
 10
4070.0
 20
-1104.9999999999991
 30
0.0
 11
4070.0
 21
-1084.9999999999991
 31
0.0
1001
ACDBBLOCKREPETAG
1070
     1
1071
       12
1005
130DD2
  0
LINE
  5
130DD3
  8
OBJECT
 10
3923.0
 20
-570.99999999999955
 30
0.0
 11
3923.0
 21
-549.99999999999955
 31
0.0
1001
ACDBBLOCKREPETAG
1070
     1
1071
       38
1005
130DD3
  0
LINE
  5
130DD4
  8
OBJECT
 10
3923.0
 20
-549.99999999999955
 30
0.0
 11
4077.0
 21
-549.99999999999955
 31
0.0
1001
ACDBBLOCKREPETAG
1070
     1
1071
       39
1005
130DD4
  0
LINE
  5
130DD5
  8
HIDDEN
 10
3943.0
 20
-619.99999999999955
 30
0.0
 11
4057.0
 21
-619.99999999999955
 31
0.0
1001
ACDBBLOCKREPETAG
1070
     1
1071
       40
1005
130DD5
  0
LINE
  5
130DD6
  8
OBJECT
 10
4077.0
 20
-549.99999999999955
 30
0.0
 11
4077.0
 21
-570.99999999999955
 31
0.0
1001
ACDBBLOCKREPETAG
1070
     1
1071
       41
1005
130DD6
  0
LINE
  5
130DD7
  8
OBJECT
 10
4077.0
 20
-570.99999999999955
 30
0.0
 11
3923.0
 21
-570.99999999999955
 31
0.0
1001
ACDBBLOCKREPETAG
1070
     1
1071
       42
1005
130DD7
  0
LINE
  5
130DD8
  8
CENTER
 10
4000.0
 20
-534.99999999999955
 30
0.0
 11
4000.0
 21
-889.99999999999955
 31
0.0
1001
ACDBBLOCKREPETAG
1070
     1
1071
       43
1005
130DD8
  0
LINE
  5
130DD9
  8
OBJECT
 10
3928.0
 20
-570.99999999999955
 30
0.0
 11
3928.0
 21
-633.99999999999955
 31
0.0
1001
ACDBBLOCKREPETAG
1070
     1
1071
       44
1005
130DD9
  0
LINE
  5
130DDA
  8
OBJECT
 10
4072.0
 20
-633.99999999999955
 30
0.0
 11
4072.0
 21
-570.99999999999955
 31
0.0
1001
ACDBBLOCKREPETAG
1070
     1
1071
       45
1005
130DDA
  0
LINE
  5
130DDB
  8
OBJECT
 10
3920.0
 20
-877.99999999999955
 30
0.0
 11
4080.0
 21
-877.99999999999955
 31
0.0
1001
ACDBBLOCKREPETAG
1070
     1
1071
       46
1005
130DDB
  0
LINE
  5
130DDC
  8
OBJECT
 10
4080.0
 20
-633.99999999999955
 30
0.0
 11
3920.0
 21
-633.99999999999955
 31
0.0
1001
ACDBBLOCKREPETAG
1070
     1
1071
       47
1005
130DDC
  0
LINE
  5
130DDD
  8
OBJECT
 10
3920.0
 20
-877.99999999999955
 30
0.0
 11
3920.0
 21
-889.99999999999955
 31
0.0
1001
ACDBBLOCKREPETAG
1070
     1
1071
       48
1005
130DDD
  0
LINE
  5
130DDE
  8
OBJECT
 10
3920.0
 20
-889.99999999999955
 30
0.0
 11
4080.0
 21
-889.99999999999955
 31
0.0
1001
ACDBBLOCKREPETAG
1070
     1
1071
       49
1005
130DDE
  0
LINE
  5
130DDF
  8
OBJECT
 10
4080.0
 20
-889.99999999999955
 30
0.0
 11
4080.0
 21
-877.99999999999955
 31
0.0
1001
ACDBBLOCKREPETAG
1070
     1
1071
       50
1005
130DDF
  0
LINE
  5
130DE0
  8
OBJECT
 10
4074.9999999998631
 20
-757.99999999985016
 30
0.0
 11
4075.0
 21
-877.99999999999955
 31
0.0
1001
ACDBBLOCKREPETAG
1070
     1
1071
       54
1005
130DE0
  0
LINE
  5
130DE1
  8
OBJECT
 10
4074.9999908029849
 20
-757.99998602702112
 30
0.0
 11
4080.0
 21
-757.99998602702112
 31
0.0
1001
ACDBBLOCKREPETAG
1070
     1
1071
       55
1005
130DE1
  0
LINE
  5
130DE2
  8
OBJECT
 10
3925.0000000001392
 20
-757.99999999985016
 30
0.0
 11
3925.0
 21
-877.99999999999955
 31
0.0
1001
ACDBBLOCKREPETAG
1070
     1
1071
       56
1005
130DE2
  0
LINE
  5
130DE3
  8
OBJECT
 10
3925.0000091970151
 20
-757.99998602702112
 30
0.0
 11
3920.0
 21
-757.99998602702112
 31
0.0
1001
ACDBBLOCKREPETAG
1070
     1
1071
       57
1005
130DE3
  0
ARC
  5
130DE4
  8
OBJECT
 10
4200.6872746716726
 20
-749.40809941010718
 30
0.0
 40
170.6350503965856
 50
137.44134459184301
 51
149.91949581337221
1001
ACDBBLOCKREPETAG
1070
     1
1071
       58
1005
130DE4
  0
ARC
  5
130DE5
  8
OBJECT
 10
4200.6872746716726
 20
-642.59190058989179
 30
0.0
 40
170.6350503965856
 50
210.08050418662771
 51
222.55865540815699
1001
ACDBBLOCKREPETAG
1070
     1
1071
       59
1005
130DE5
  0
ARC
  5
130DE6
  8
OBJECT
 10
3799.3127253283278
 20
-749.40809941010718
 30
0.0
 40
170.6350503965856
 50
30.080504186774089
 51
42.558655408382641
1001
ACDBBLOCKREPETAG
1070
     1
1071
       60
1005
130DE6
  0
ARC
  5
130DE7
  8
OBJECT
 10
3799.3127253283278
 20
-642.59190058989179
 30
0.0
 40
170.6350503965856
 50
317.44134459161722
 51
329.91949581322592
1001
ACDBBLOCKREPETAG
1070
     1
1071
       61
1005
130DE7
  0
POINT
  5
130DE8
  8
DOTS
 10
4000.0
 20
-754.99999999999955
 30
0.0
1001
ACDBBLOCKREPETAG
1070
     1
1071
      185
1005
130DE8
  0
LINE
  5
130DE9
  8
OBJECT
 10
1923.0
 20
-570.99999999999955
 30
0.0
 11
1923.0
 21
-549.99999999999955
 31
0.0
1001
ACDBBLOCKREPETAG
1070
     1
1071
       38
1005
130DE9
  0
LINE
  5
130DEA
  8
OBJECT
 10
1923.0
 20
-549.99999999999955
 30
0.0
 11
2077.0
 21
-549.99999999999955
 31
0.0
1001
ACDBBLOCKREPETAG
1070
     1
1071
       39
1005
130DEA
  0
LINE
  5
130DEB
  8
HIDDEN
 10
1943.0
 20
-619.99999999999955
 30
0.0
 11
2057.0
 21
-619.99999999999955
 31
0.0
1001
ACDBBLOCKREPETAG
1070
     1
1071
       40
1005
130DEB
  0
LINE
  5
130DEC
  8
OBJECT
 10
2077.0
 20
-549.99999999999955
 30
0.0
 11
2077.0
 21
-570.99999999999955
 31
0.0
1001
ACDBBLOCKREPETAG
1070
     1
1071
       41
1005
130DEC
  0
LINE
  5
130DED
  8
OBJECT
 10
2077.0
 20
-570.99999999999955
 30
0.0
 11
1923.0
 21
-570.99999999999955
 31
0.0
1001
ACDBBLOCKREPETAG
1070
     1
1071
       42
1005
130DED
  0
LINE
  5
130DEE
  8
CENTER
 10
2000.0
 20
-534.99999999999955
 30
0.0
 11
2000.0
 21
-889.99999999999955
 31
0.0
1001
ACDBBLOCKREPETAG
1070
     1
1071
       43
1005
130DEE
  0
LINE
  5
130DEF
  8
OBJECT
 10
1928.0
 20
-570.99999999999955
 30
0.0
 11
1928.0
 21
-633.99999999999955
 31
0.0
1001
ACDBBLOCKREPETAG
1070
     1
1071
       44
1005
130DEF
  0
LINE
  5
130DF0
  8
OBJECT
 10
2072.0
 20
-633.99999999999955
 30
0.0
 11
2072.0
 21
-570.99999999999955
 31
0.0
1001
ACDBBLOCKREPETAG
1070
     1
1071
       45
1005
130DF0
  0
LINE
  5
130DF1
  8
OBJECT
 10
1920.0
 20
-877.99999999999955
 30
0.0
 11
2080.0
 21
-877.99999999999955
 31
0.0
1001
ACDBBLOCKREPETAG
1070
     1
1071
       46
1005
130DF1
  0
LINE
  5
130DF2
  8
OBJECT
 10
2080.0
 20
-633.99999999999955
 30
0.0
 11
1920.0
 21
-633.99999999999955
 31
0.0
1001
ACDBBLOCKREPETAG
1070
     1
1071
       47
1005
130DF2
  0
LINE
  5
130DF3
  8
OBJECT
 10
1920.0
 20
-877.99999999999955
 30
0.0
 11
1920.0
 21
-889.99999999999955
 31
0.0
1001
ACDBBLOCKREPETAG
1070
     1
1071
       48
1005
130DF3
  0
LINE
  5
130DF4
  8
OBJECT
 10
1920.0
 20
-889.99999999999955
 30
0.0
 11
2080.0
 21
-889.99999999999955
 31
0.0
1001
ACDBBLOCKREPETAG
1070
     1
1071
       49
1005
130DF4
  0
LINE
  5
130DF5
  8
OBJECT
 10
2080.0
 20
-889.99999999999955
 30
0.0
 11
2080.0
 21
-877.99999999999955
 31
0.0
1001
ACDBBLOCKREPETAG
1070
     1
1071
       50
1005
130DF5
  0
LINE
  5
130DF6
  8
OBJECT
 10
2074.9999999998622
 20
-757.99999999985016
 30
0.0
 11
2075.0
 21
-877.99999999999955
 31
0.0
1001
ACDBBLOCKREPETAG
1070
     1
1071
       54
1005
130DF6
  0
LINE
  5
130DF7
  8
OBJECT
 10
2074.9999908029849
 20
-757.99998602702112
 30
0.0
 11
2080.0
 21
-757.99998602702112
 31
0.0
1001
ACDBBLOCKREPETAG
1070
     1
1071
       55
1005
130DF7
  0
LINE
  5
130DF8
  8
OBJECT
 10
1925.000000000138
 20
-757.99999999985016
 30
0.0
 11
1925.0
 21
-877.99999999999955
 31
0.0
1001
ACDBBLOCKREPETAG
1070
     1
1071
       56
1005
130DF8
  0
LINE
  5
130DF9
  8
OBJECT
 10
1925.000009197013
 20
-757.99998602702112
 30
0.0
 11
1920.0
 21
-757.99998602702112
 31
0.0
1001
ACDBBLOCKREPETAG
1070
     1
1071
       57
1005
130DF9
  0
ARC
  5
130DFA
  8
OBJECT
 10
2200.6872746716731
 20
-749.40809941010718
 30
0.0
 40
170.6350503965856
 50
137.44134459184301
 51
149.91949581336559
1001
ACDBBLOCKREPETAG
1070
     1
1071
       58
1005
130DFA
  0
ARC
  5
130DFB
  8
OBJECT
 10
2200.6872746716731
 20
-642.59190058989179
 30
0.0
 40
170.6350503965856
 50
210.0805041866343
 51
222.55865540815699
1001
ACDBBLOCKREPETAG
1070
     1
1071
       59
1005
130DFB
  0
ARC
  5
130DFC
  8
OBJECT
 10
1799.312725328326
 20
-749.40809941010718
 30
0.0
 40
170.6350503965856
 50
30.080504186774089
 51
42.558655408382641
1001
ACDBBLOCKREPETAG
1070
     1
1071
       60
1005
130DFC
  0
ARC
  5
130DFD
  8
OBJECT
 10
1799.312725328326
 20
-642.59190058989179
 30
0.0
 40
170.6350503965856
 50
317.44134459161722
 51
329.91949581322592
1001
ACDBBLOCKREPETAG
1070
     1
1071
       61
1005
130DFD
  0
POINT
  5
130DFE
  8
DOTS
 10
2000.0
 20
-754.99999999999955
 30
0.0
1001
ACDBBLOCKREPETAG
1070
     1
1071
      185
1005
130DFE
  0
LINE
  5
130DFF
  8
OBJECT
 10
3930.0
 20
-1199.999999999997
 30
0.0
 11
4070.0
 21
-1199.999999999997
 31
0.0
1001
ACDBBLOCKREPETAG
1070
     1
1071
        0
1005
130DFF
  0
LINE
  5
130E00
  8
OBJECT
 10
3930.0
 20
-1199.999999999997
 30
0.0
 11
3930.0
 21
-959.99999999999693
 31
0.0
1001
ACDBBLOCKREPETAG
1070
     1
1071
        1
1005
130E00
  0
LINE
  5
130E01
  8
OBJECT
 10
4070.0
 20
-1199.999999999997
 30
0.0
 11
4070.0
 21
-959.99999999999693
 31
0.0
1001
ACDBBLOCKREPETAG
1070
     1
1071
        2
1005
130E01
  0
LINE
  5
130E02
  8
OBJECT
 10
3930.0
 20
-959.99999999999693
 30
0.0
 11
4070.0
 21
-959.99999999999693
 31
0.0
1001
ACDBBLOCKREPETAG
1070
     1
1071
        3
1005
130E02
  0
LINE
  5
130E03
  8
HIDDEN
 10
3937.5
 20
-959.99999999999693
 30
0.0
 11
3937.5
 21
-1199.999999999997
 31
0.0
1001
ACDBBLOCKREPETAG
1070
     1
1071
        4
1005
130E03
  0
LINE
  5
130E04
  8
HIDDEN
 10
4062.5
 20
-959.99999999999693
 30
0.0
 11
4062.5
 21
-1199.999999999997
 31
0.0
1001
ACDBBLOCKREPETAG
1070
     1
1071
        5
1005
130E04
  0
LINE
  5
130E05
  8
CENTER
 10
4000.0
 20
-889.99999999999875
 30
0.0
 11
4000.0
 21
-1214.999999999997
 31
0.0
1001
ACDBBLOCKREPETAG
1070
     1
1071
        6
1005
130E05
  0
LINE
  5
130E06
  8
OBJECT
 10
3925.0
 20
-889.99999999999875
 30
0.0
 11
3925.0
 21
-919.99999999999693
 31
0.0
1001
ACDBBLOCKREPETAG
1070
     1
1071
        7
1005
130E06
  0
LINE
  5
130E07
  8
OBJECT
 10
4075.0000000000032
 20
-889.99999999999875
 30
0.0
 11
4075.0
 21
-919.99999999999693
 31
0.0
1001
ACDBBLOCKREPETAG
1070
     1
1071
        8
1005
130E07
  0
LINE
  5
130E08
  8
OBJECT
 10
3925.0
 20
-919.99999999999693
 30
0.0
 11
4075.0
 21
-919.99999999999693
 31
0.0
1001
ACDBBLOCKREPETAG
1070
     1
1071
        9
1005
130E08
  0
LINE
  5
130E09
  8
OBJECT
 10
3925.0
 20
-919.99999999999693
 30
0.0
 11
3930.0
 21
-959.99999999999693
 31
0.0
1001
ACDBBLOCKREPETAG
1070
     1
1071
       10
1005
130E09
  0
LINE
  5
130E0A
  8
OBJECT
 10
4070.0
 20
-959.99999999999693
 30
0.0
 11
4075.0
 21
-919.99999999999693
 31
0.0
1001
ACDBBLOCKREPETAG
1070
     1
1071
       11
1005
130E0A
  0
LINE
  5
130E0B
  8
OBJECT
 10
1930.0
 20
-1199.999999999997
 30
0.0
 11
2070.0
 21
-1199.999999999997
 31
0.0
1001
ACDBBLOCKREPETAG
1070
     1
1071
        0
1005
130E0B
  0
LINE
  5
130E0C
  8
OBJECT
 10
1930.0
 20
-1199.999999999997
 30
0.0
 11
1930.0
 21
-959.99999999999784
 31
0.0
1001
ACDBBLOCKREPETAG
1070
     1
1071
        1
1005
130E0C
  0
LINE
  5
130E0D
  8
OBJECT
 10
2070.0
 20
-1199.999999999997
 30
0.0
 11
2070.0
 21
-959.99999999999784
 31
0.0
1001
ACDBBLOCKREPETAG
1070
     1
1071
        2
1005
130E0D
  0
LINE
  5
130E0E
  8
OBJECT
 10
1930.0
 20
-959.99999999999784
 30
0.0
 11
2070.0
 21
-959.99999999999784
 31
0.0
1001
ACDBBLOCKREPETAG
1070
     1
1071
        3
1005
130E0E
  0
LINE
  5
130E0F
  8
HIDDEN
 10
1937.5
 20
-959.99999999999784
 30
0.0
 11
1937.5
 21
-1199.999999999997
 31
0.0
1001
ACDBBLOCKREPETAG
1070
     1
1071
        4
1005
130E0F
  0
LINE
  5
130E10
  8
HIDDEN
 10
2062.5
 20
-959.99999999999784
 30
0.0
 11
2062.5
 21
-1199.999999999997
 31
0.0
1001
ACDBBLOCKREPETAG
1070
     1
1071
        5
1005
130E10
  0
LINE
  5
130E11
  8
CENTER
 10
2000.0
 20
-889.99999999999955
 30
0.0
 11
2000.0
 21
-1214.999999999998
 31
0.0
1001
ACDBBLOCKREPETAG
1070
     1
1071
        6
1005
130E11
  0
LINE
  5
130E12
  8
OBJECT
 10
1925.0
 20
-889.99999999999955
 30
0.0
 11
1925.0
 21
-919.99999999999761
 31
0.0
1001
ACDBBLOCKREPETAG
1070
     1
1071
        7
1005
130E12
  0
LINE
  5
130E13
  8
OBJECT
 10
2075.0000000000041
 20
-889.99999999999955
 30
0.0
 11
2075.0
 21
-919.99999999999761
 31
0.0
1001
ACDBBLOCKREPETAG
1070
     1
1071
        8
1005
130E13
  0
LINE
  5
130E14
  8
OBJECT
 10
1925.0
 20
-919.99999999999761
 30
0.0
 11
2075.0
 21
-919.99999999999761
 31
0.0
1001
ACDBBLOCKREPETAG
1070
     1
1071
        9
1005
130E14
  0
LINE
  5
130E15
  8
OBJECT
 10
1925.0
 20
-919.99999999999761
 30
0.0
 11
1930.0
 21
-959.99999999999784
 31
0.0
1001
ACDBBLOCKREPETAG
1070
     1
1071
       10
1005
130E15
  0
LINE
  5
130E16
  8
OBJECT
 10
2070.0
 20
-959.99999999999784
 30
0.0
 11
2075.0
 21
-919.99999999999761
 31
0.0
1001
ACDBBLOCKREPETAG
1070
     1
1071
       11
1005
130E16
  0
TEXT
  5
130E17
  8
SLIM
 10
3741.6250000000009
 20
-1467.499999999997
 30
0.0
 40
35.0
  1
片受けスタイル（S）＋シンドカット
 41
0.75
  0
TEXT
  5
130E18
  8
SLIM
 10
1856.25
 20
-1467.499999999998
 30
0.0
 40
35.0
  1
片受けスタイル（S）
 41
0.75
  0
VIEWPORT
  5
F6BA7
 67
     1
  8
0
 10
145.33033752441401
 20
101.8328354358673
 30
0.0
 40
334.0025019414623
 41
222.19657968139651
 68
     1
 69
     1
1001
ACAD
1000
MVIEW
1002
{
1070
    16
1010
0.0
1020
0.0
1030
0.0
1010
0.0
1020
0.0
1030
1.0
1040
0.0
1040
222.19657968139651
1040
145.33033752441401
1040
101.8328354358673
1040
50.0
1040
0.0
1040
0.0
1070
     0
1070
     0
1070
     1
1070
     1
1070
     0
1070
     0
1070
     0
1070
     0
1040
0.0
1040
0.0
1040
0.0
1040
10.0
1040
10.0
1040
10.0
1040
10.0
1070
     0
1002
{
1002
}
1002
}
  0
VIEWPORT
  5
F6BA9
 67
     1
  8
OBJECT
 10
145.3303314447403
 20
101.8328338861465
 30
0.0
 40
232.5285303115844
 41
162.93253421783439
 68
     2
 69
     2
1001
ACAD
1000
MVIEW
1002
{
1070
    16
1010
0.0
1020
0.0
1030
0.0
1010
0.0
1020
0.0
1030
1.0
1040
0.0
1040
25942.55904403147
1040
2377.604457077377
1040
-7591.5176687056619
1040
50.0
1040
0.0
1040
0.0
1070
     0
1070
   600
1070
     1
1070
     1
1070
     0
1070
     0
1070
     0
1070
     0
1040
0.0
1040
0.0
1040
0.0
1040
1.0
1040
1.0
1040
0.0
1040
0.0
1070
     0
1002
{
1002
}
1002
}
  0
ENDSEC
  0
EOF
