  0
SECTION
  2
HEADER
  9
$ACADVER
  1
AC1009
  9
$INSBASE
 10
0.0
 20
0.0
 30
0.0
  9
$EXTMIN
 10
0.0
 20
-3817.4999999999959
 30
0.0
  9
$EXTMAX
 10
5575.0
 20
607.5
 30
0.0
  9
$LIMMIN
 10
0.0
 20
0.0
  9
$LIMMAX
 10
210.0
 20
297.0
  9
$ORTHOMODE
 70
     0
  9
$REGENMODE
 70
     1
  9
$FILLMODE
 70
     1
  9
$QTEXTMODE
 70
     0
  9
$MIRRTEXT
 70
     0
  9
$DRAGMODE
 70
     2
  9
$LTSCALE
 40
1.0
  9
$OSMODE
 70
    37
  9
$ATTMODE
 70
     1
  9
$TEXTSIZE
 40
4.0
  9
$TRACEWID
 40
0.05
  9
$TEXTSTYLE
  7
STANDARD
  9
$CLAYER
  8
OBJECT
  9
$CELTYPE
  6
BYLAYER
  9
$CECOLOR
 62
   256
  9
$DIMSCALE
 40
10.0
  9
$DIMASZ
 40
2.0
  9
$DIMEXO
 40
1.0
  9
$DIMDLI
 40
10.0
  9
$DIMRND
 40
0.0
  9
$DIMDLE
 40
0.0
  9
$DIMEXE
 40
1.0
  9
$DIMTP
 40
0.0
  9
$DIMTM
 40
0.0
  9
$DIMTXT
 40
3.2000000000000002
  9
$DIMCEN
 40
0.0
  9
$DIMTSZ
 40
0.0
  9
$DIMTOL
 70
     0
  9
$DIMLIM
 70
     0
  9
$DIMTIH
 70
     0
  9
$DIMTOH
 70
     0
  9
$DIMSE1
 70
     0
  9
$DIMSE2
 70
     0
  9
$DIMTAD
 70
     1
  9
$DIMZIN
 70
     8
  9
$DIMBLK
  1
OPEN30
  9
$DIMASO
 70
     1
  9
$DIMSHO
 70
     1
  9
$DIMPOST
  1

  9
$DIMAPOST
  1

  9
$DIMALT
 70
     0
  9
$DIMALTD
 70
     2
  9
$DIMALTF
 40
25.399999999999999
  9
$DIMLFAC
 40
1.0
  9
$DIMTOFL
 70
     1
  9
$DIMTVP
 40
0.0
  9
$DIMTIX
 70
     0
  9
$DIMSOXD
 70
     0
  9
$DIMSAH
 70
     0
  9
$DIMBLK1
  1

  9
$DIMBLK2
  1

  9
$DIMSTYLE
  2
S10
  9
$DIMCLRD
 70
   256
  9
$DIMCLRE
 70
   256
  9
$DIMCLRT
 70
   256
  9
$DIMTFAC
 40
1.0
  9
$DIMGAP
 40
0.9
  9
$LUNITS
 70
     2
  9
$LUPREC
 70
     2
  9
$SKETCHINC
 40
0.1
  9
$FILLETRAD
 40
0.0
  9
$AUNITS
 70
     0
  9
$AUPREC
 70
     2
  9
$MENU
  1
ACAD
  9
$ELEVATION
 40
0.0
  9
$PELEVATION
 40
0.0
  9
$THICKNESS
 40
0.0
  9
$LIMCHECK
 70
     0
  9
$BLIPMODE
 70
     0
  9
$CHAMFERA
 40
2.0
  9
$CHAMFERB
 40
2.0
  9
$SKPOLY
 70
     0
  9
$TDCREATE
 40
2453095.4929404748
  9
$TDUPDATE
 40
2457603.7099217251
  9
$TDINDWG
 40
18.350150196800001
  9
$TDUSRTIMER
 40
18.350149479199999
  9
$USRTIMER
 70
     1
  9
$ANGBASE
 50
0.0
  9
$ANGDIR
 70
     0
  9
$PDMODE
 70
    35
  9
$PDSIZE
 40
2.0
  9
$PLINEWID
 40
0.0
  9
$COORDS
 70
     1
  9
$SPLFRAME
 70
     0
  9
$SPLINETYPE
 70
     6
  9
$SPLINESEGS
 70
     8
  9
$ATTDIA
 70
     0
  9
$ATTREQ
 70
     1
  9
$HANDLING
 70
     1
  9
$HANDSEED
  5
12FAEF
  9
$SURFTAB1
 70
     6
  9
$SURFTAB2
 70
     6
  9
$SURFTYPE
 70
     6
  9
$SURFU
 70
     6
  9
$SURFV
 70
     6
  9
$UCSNAME
  2

  9
$UCSORG
 10
0.0
 20
0.0
 30
0.0
  9
$UCSXDIR
 10
1.0
 20
0.0
 30
0.0
  9
$UCSYDIR
 10
0.0
 20
1.0
 30
0.0
  9
$PUCSNAME
  2

  9
$PUCSORG
 10
0.0
 20
0.0
 30
0.0
  9
$PUCSXDIR
 10
1.0
 20
0.0
 30
0.0
  9
$PUCSYDIR
 10
0.0
 20
1.0
 30
0.0
  9
$USERI1
 70
     0
  9
$USERI2
 70
     0
  9
$USERI3
 70
     0
  9
$USERI4
 70
     0
  9
$USERI5
 70
     0
  9
$USERR1
 40
0.0
  9
$USERR2
 40
0.0
  9
$USERR3
 40
0.0
  9
$USERR4
 40
0.0
  9
$USERR5
 40
0.0
  9
$WORLDVIEW
 70
     1
  9
$SHADEDGE
 70
     3
  9
$SHADEDIF
 70
    70
  9
$TILEMODE
 70
     1
  9
$MAXACTVP
 70
    64
  9
$PLIMCHECK
 70
     0
  9
$PEXTMIN
 10
29.066066288948051
 20
20.366566777229309
 30
0.0
  9
$PEXTMAX
 10
261.5945966005325
 20
183.29910099506381
 30
0.0
  9
$PLIMMIN
 10
-3.17498779296875
 20
-3.1749999523162842
  9
$PLIMMAX
 10
293.83566284179687
 20
206.8406708240509
  9
$UNITMODE
 70
     0
  9
$VISRETAIN
 70
     1
  9
$PLINEGEN
 70
     0
  9
$PSLTSCALE
 70
     1
  0
ENDSEC
  0
SECTION
  2
TABLES
  0
TABLE
  2
VPORT
 70
     1
  0
VPORT
  2
*ACTIVE
 70
     0
 10
0.0
 20
0.0
 11
1.0
 21
1.0
 12
4081.5783746266011
 22
-823.4064535945007
 13
0.0
 23
0.0
 14
1.0
 24
1.0
 15
0.0
 25
0.0
 16
0.0
 26
0.0
 36
1.0
 17
0.0
 27
0.0
 37
0.0
 40
2800.6019342994432
 41
1.6494178525226391
 42
50.0
 43
0.0
 44
0.0
 50
0.0
 51
0.0
 71
     0
 72
   600
 73
     1
 74
     1
 75
     0
 76
     0
 77
     0
 78
     0
  0
ENDTAB
  0
TABLE
  2
LTYPE
 70
     4
  0
LTYPE
  2
CONTINUOUS
 70
     0
  3
Solid line
 72
    65
 73
     0
 40
0.0
  0
LTYPE
  2
PHANTOM2
 70
     0
  3
___ _ _ ___ _ _ ___ _ _ ___ _ _
 72
    65
 73
     6
 40
1.25
 49
0.625
 49
-0.125
 49
0.125
 49
-0.125
 49
0.125
 49
-0.125
  0
LTYPE
  2
ACAD_ISO08W100
 70
     0
  3
ISO long-dash short-dash ____ __ ____ __ ____ _
 72
    65
 73
     4
 40
36.0
 49
24.0
 49
-3.0
 49
6.0
 49
-3.0
  0
LTYPE
  2
ACAD_ISO02W100
 70
     0
  3
ISO dash __ __ __ __ __ __ __ __ __ __ __ __ __
 72
    65
 73
     2
 40
15.0
 49
12.0
 49
-3.0
  0
ENDTAB
  0
TABLE
  2
LAYER
 70
     8
  0
LAYER
  2
0
 70
     0
 62
     7
  6
CONTINUOUS
  0
LAYER
  2
OBJECT
 70
     0
 62
     4
  6
CONTINUOUS
  0
LAYER
  2
DEFPOINTS
 70
     0
 62
     7
  6
CONTINUOUS
  0
LAYER
  2
DIM
 70
     0
 62
     7
  6
CONTINUOUS
  0
LAYER
  2
HIDDEN
 70
     0
 62
     2
  6
ACAD_ISO02W100
  0
LAYER
  2
CENTER
 70
     0
 62
     2
  6
ACAD_ISO08W100
  0
LAYER
  2
DOTS
 70
     0
 62
     1
  6
CONTINUOUS
  0
LAYER
  2
SLIM
 70
     0
 62
     2
  6
CONTINUOUS
  0
ENDTAB
  0
TABLE
  2
STYLE
 70
     2
  0
STYLE
  2
STANDARD
 70
     0
 40
0.0
 41
0.75
 50
0.0
 71
     0
 42
4.0
  3
simplex.shx
  4
bigfont.shx
  0
ENDTAB
  0
TABLE
  2
VIEW
 70
     0
  0
ENDTAB
  0
TABLE
  2
UCS
 70
     0
  0
ENDTAB
  0
TABLE
  2
APPID
 70
    18
  0
APPID
  2
ACAD
 70
     0
  0
APPID
  2
ACADANNOTATIVE
 70
     0
  0
APPID
  2
ACAD_PSEXT
 70
     0
  0
APPID
  2
ACAD_EXEMPT_FROM_CAD_STANDARDS
 70
     0
  0
APPID
  2
ACAECLAYERSTANDARD
 70
     0
  0
APPID
  2
ACAUTHENVIRON
 70
     0
  0
APPID
  2
ACDBDYNAMICBLOCKTRUENAME
 70
     0
  0
APPID
  2
ACDBDYNAMICBLOCKGUID
 70
     0
  0
APPID
  2
ACDBBLOCKREPETAG
 70
     0
  0
APPID
  2
ACDBBLOCKREPBTAG
 70
     0
  0
APPID
  2
ACAD_NAV_VCDISPLAY
 70
     0
  0
APPID
  2
ACAD_DSTYLE_DIMRADIAL_EXTENSION
 70
     0
  0
APPID
  2
ACAD_DSTYLE_DIMJAG
 70
     0
  0
APPID
  2
ACAD_DSTYLE_DIMTALN
 70
     0
  0
APPID
  2
ACADANNOPO
 70
     0
  0
APPID
  2
GRADIENTCOLOR1ACI
 70
     0
  0
APPID
  2
GRADIENTCOLOR2ACI
 70
     0
  0
APPID
  2
ACAD_MLEADERVER
 70
     0
  0
ENDTAB
  0
TABLE
  2
DIMSTYLE
 70
     3
  0
DIMSTYLE
  2
STANDARD
 70
     0
  3

  4

  5

  6

  7

 40
1.0
 41
0.18
 42
0.0625
 43
0.38
 44
0.18
 45
0.0
 46
0.0
 47
0.0
 48
0.0
140
0.18
141
0.09
142
0.0
143
25.399999999999999
144
1.0
145
0.0
146
1.0
147
0.09
 71
     0
 72
     0
 73
     1
 74
     1
 75
     0
 76
     0
 77
     0
 78
     0
170
     0
171
     2
172
     0
173
     0
174
     0
175
     0
176
     0
177
     0
178
     0
  0
DIMSTYLE
  2
S10
 70
     0
  3

  4

  5

  6

  7

 40
10.0
 41
2.0
 42
1.0
 43
10.0
 44
1.0
 45
0.0
 46
0.0
 47
0.0
 48
0.0
140
3.2000000000000002
141
0.0
142
0.0
143
25.399999999999999
144
1.0
145
0.0
146
1.0
147
0.9
 71
     0
 72
     0
 73
     0
 74
     0
 75
     0
 76
     0
 77
     1
 78
     8
170
     0
171
     2
172
     1
173
     0
174
     0
175
     0
176
   256
177
   256
178
   256
  0
ENDTAB
  0
ENDSEC
  0
SECTION
  2
BLOCKS
  0
BLOCK
  8
0
  2
$MODEL_SPACE
 70
     0
 10
0.0
 20
0.0
 30
0.0
  3
$MODEL_SPACE
  1

  0
ENDBLK
  5
12F69F
  8
0
  0
BLOCK
 67
     1
  8
0
  2
$PAPER_SPACE
 70
     0
 10
0.0
 20
0.0
 30
0.0
  3
$PAPER_SPACE
  1

  0
ENDBLK
  5
12F69B
 67
     1
  8
0
  0
BLOCK
  8
0
  2
_OPEN30
 70
     0
 10
0.0
 20
0.0
 30
0.0
  3
_OPEN30
  1

  0
LINE
  5
202
  8
0
  6
BYBLOCK
 62
     0
 10
-1.0
 20
0.26794919
 30
0.0
 11
0.0
 21
0.0
 31
0.0
  0
LINE
  5
203
  8
0
  6
BYBLOCK
 62
     0
 10
0.0
 20
0.0
 30
0.0
 11
-1.0
 21
-0.26794919
 31
0.0
  0
LINE
  5
204
  8
0
  6
BYBLOCK
 62
     0
 10
0.0
 20
0.0
 30
0.0
 11
-1.0
 21
0.0
 31
0.0
  0
ENDBLK
  5
206
  8
0
  0
BLOCK
  8
0
  2
*U466
 70
     1
 10
0.0
 20
0.0
 30
0.0
  3
*U466
  1

  0
TEXT
  5
12F5EB
  8
DIM
 10
3840.6616440113212
 20
-1042.7428571428561
 30
0.0
 40
32.0
  1
m（シンドカット）
 50
90.0
 41
0.75
  0
ENDBLK
  5
12F5ED
  8
0
  0
BLOCK
  8
0
  2
*U467
 70
     1
 10
0.0
 20
0.0
 30
0.0
  3
*U467
  1

  0
TEXT
  5
12F5EF
  8
SLIM
 10
198.9523809523825
 20
-688.0
 30
0.0
 40
26.0
  1
75
  0
ENDBLK
  5
12F5F1
  8
0
  0
BLOCK
  8
0
  2
*U468
 70
     1
 10
0.0
 20
0.0
 30
0.0
  3
*U468
  1

  0
TEXT
  5
12F5F3
  8
SLIM
 10
186.5714285714302
 20
-987.99999999998545
 30
0.0
 40
26.0
  1
75Z
  0
ENDBLK
  5
12F5F5
  8
0
  0
BLOCK
  8
0
  2
*U469
 70
     1
 10
0.0
 20
0.0
 30
0.0
  3
*U469
  1

  0
TEXT
  5
12F5F7
  8
SLIM
 10
198.95238095238261
 20
-108.0
 30
0.0
 40
26.0
  1
50
  0
ENDBLK
  5
12F5F9
  8
0
  0
BLOCK
  8
0
  2
*U470
 70
     1
 10
0.0
 20
0.0
 30
0.0
  3
*U470
  1

  0
TEXT
  5
12F5FB
  8
SLIM
 10
186.5714285714302
 20
-407.99999999998528
 30
0.0
 40
26.0
  1
75Z
  0
ENDBLK
  5
12F5FD
  8
0
  0
BLOCK
  8
0
  2
*U471
 70
     1
 10
0.0
 20
0.0
 30
0.0
  3
*U471
  1

  0
TEXT
  5
12F5FF
  8
SLIM
 10
648.95238095238255
 20
-108.0
 30
0.0
 40
26.0
  1
65
  0
ENDBLK
  5
12F601
  8
0
  0
BLOCK
  8
0
  2
*U472
 70
     1
 10
0.0
 20
0.0
 30
0.0
  3
*U472
  1

  0
TEXT
  5
12F603
  8
SLIM
 10
636.57142857143015
 20
-407.99999999998528
 30
0.0
 40
26.0
  1
75Z
  0
ENDBLK
  5
12F605
  8
0
  0
BLOCK
  8
0
  2
*U473
 70
     1
 10
0.0
 20
0.0
 30
0.0
  3
*U473
  1

  0
TEXT
  5
12F607
  8
SLIM
 10
639.04761904762063
 20
-680.75
 30
0.0
 40
26.0
  1
100
  0
ENDBLK
  5
12F609
  8
0
  0
BLOCK
  8
0
  2
*U474
 70
     1
 10
0.0
 20
0.0
 30
0.0
  3
*U474
  1

  0
TEXT
  5
12F60B
  8
SLIM
 10
636.57142857143015
 20
-987.99999999998545
 30
0.0
 40
26.0
  1
75Z
  0
ENDBLK
  5
12F60D
  8
0
  0
BLOCK
  8
0
  2
*U475
 70
     1
 10
0.0
 20
0.0
 30
0.0
  3
*U475
  1

  0
TEXT
  5
12F623
  8
DIM
 10
2209.479620594459
 20
-3304.1428571428528
 30
0.0
 40
32.0
  1
A
 50
90.0
 41
0.75
  0
ENDBLK
  5
12F625
  8
0
  0
BLOCK
  8
0
  2
*U476
 70
     1
 10
0.0
 20
0.0
 30
0.0
  3
*U476
  1

  0
TEXT
  5
12F627
  8
DIM
 10
2207.8409284037348
 20
-3685.9999999999959
 30
0.0
 40
32.0
  1
B
 50
90.0
 41
0.75
  0
ENDBLK
  5
12F629
  8
0
  0
BLOCK
  8
0
  2
*U477
 70
     1
 10
0.0
 20
0.0
 30
0.0
  3
*U477
  1

  0
TEXT
  5
12F62B
  8
DIM
 10
2061.428571428572
 20
-3158.208121984444
 30
0.0
 40
32.0
  1
C
 41
0.75
  0
ENDBLK
  5
12F62D
  8
0
  0
ENDSEC
  0
SECTION
  2
ENTITIES
  0
LINE
  5
12515F
  8
OBJECT
 10
1825.0
 20
-3699.9999999999959
 30
0.0
 11
5575.0
 21
-3699.9999999999959
 31
0.0
  0
LINE
  5
125161
  8
SLIM
 10
2616.0
 20
-2757.50001604727
 30
0.0
 11
2616.0
 21
-3087.50001604727
 31
0.0
  0
LINE
  5
125162
  8
SLIM
 10
2740.0
 20
-2757.50001604727
 30
0.0
 11
2740.0
 21
-3087.50001604727
 31
0.0
  0
LINE
  5
125163
  8
SLIM
 10
2870.0
 20
-2817.50001604727
 30
0.0
 11
2870.0
 21
-3087.50001604727
 31
0.0
  0
LINE
  5
125164
  8
SLIM
 10
3000.0
 20
-2817.50001604727
 30
0.0
 11
3000.0
 21
-3087.50001604727
 31
0.0
  0
LINE
  5
125165
  8
SLIM
 10
3130.0
 20
-3087.50001604727
 30
0.0
 11
3130.0
 21
-2817.50001604727
 31
0.0
  0
LINE
  5
125166
  8
SLIM
 10
3260.0
 20
-3087.50001604727
 30
0.0
 11
3260.0
 21
-2757.50001604727
 31
0.0
  0
LINE
  5
125167
  8
SLIM
 10
3260.0
 20
-2757.50001604727
 30
0.0
 11
2616.0
 21
-2757.50001604727
 31
0.0
  0
LINE
  5
125168
  8
SLIM
 10
3260.0
 20
-2817.50001604727
 30
0.0
 11
2740.0
 21
-2817.50001604727
 31
0.0
  0
LINE
  5
125169
  8
SLIM
 10
3260.0
 20
-2877.50001604727
 30
0.0
 11
2616.0
 21
-2877.50001604727
 31
0.0
  0
LINE
  5
12516A
  8
SLIM
 10
3260.0
 20
-2947.50001604727
 30
0.0
 11
2616.0
 21
-2947.50001604727
 31
0.0
  0
LINE
  5
12516B
  8
SLIM
 10
3260.0
 20
-3017.50001604727
 30
0.0
 11
2616.0
 21
-3017.50001604727
 31
0.0
  0
LINE
  5
12516C
  8
SLIM
 10
3260.0
 20
-3087.50001604727
 30
0.0
 11
2616.0
 21
-3087.50001604727
 31
0.0
  0
LINE
  5
125181
  8
SLIM
 10
2740.0
 20
-2877.50001604727
 30
0.0
 11
2615.9999722746579
 21
-2757.5
 31
0.0
  0
LINE
  5
1251B6
  8
OBJECT
 10
5323.0
 20
-3515.9999999999968
 30
0.0
 11
5323.0
 21
-3494.9999999999968
 31
0.0
1001
ACDBBLOCKREPETAG
1070
     1
1071
       20
1005
1251B6
  0
LINE
  5
1251B7
  8
OBJECT
 10
5323.0
 20
-3494.9999999999968
 30
0.0
 11
5477.0
 21
-3494.9999999999968
 31
0.0
1001
ACDBBLOCKREPETAG
1070
     1
1071
       21
1005
1251B7
  0
LINE
  5
1251B8
  8
HIDDEN
 10
5343.0
 20
-3564.9999999999968
 30
0.0
 11
5457.0
 21
-3564.9999999999968
 31
0.0
1001
ACDBBLOCKREPETAG
1070
     1
1071
       22
1005
1251B8
  0
LINE
  5
1251B9
  8
OBJECT
 10
5477.0
 20
-3494.9999999999968
 30
0.0
 11
5477.0
 21
-3515.9999999999968
 31
0.0
1001
ACDBBLOCKREPETAG
1070
     1
1071
       23
1005
1251B9
  0
LINE
  5
1251BA
  8
OBJECT
 10
5477.0
 20
-3515.9999999999968
 30
0.0
 11
5323.0
 21
-3515.9999999999968
 31
0.0
1001
ACDBBLOCKREPETAG
1070
     1
1071
       24
1005
1251BA
  0
LINE
  5
1251BB
  8
CENTER
 10
5400.0
 20
-3479.9999999999968
 30
0.0
 11
5400.0
 21
-3714.9999999999968
 31
0.0
1001
ACDBBLOCKREPETAG
1070
     1
1071
       25
1005
1251BB
  0
LINE
  5
1251BC
  8
OBJECT
 10
5325.0
 20
-3578.9999999999968
 30
0.0
 11
5325.0
 21
-3702.9999999999968
 31
0.0
1001
ACDBBLOCKREPETAG
1070
     1
1071
       26
1005
1251BC
  0
LINE
  5
1251BD
  8
OBJECT
 10
5328.0
 20
-3515.9999999999968
 30
0.0
 11
5328.0
 21
-3578.9999999999968
 31
0.0
1001
ACDBBLOCKREPETAG
1070
     1
1071
       27
1005
1251BD
  0
LINE
  5
1251BE
  8
OBJECT
 10
5472.0
 20
-3578.9999999999968
 30
0.0
 11
5472.0
 21
-3515.9999999999968
 31
0.0
1001
ACDBBLOCKREPETAG
1070
     1
1071
       28
1005
1251BE
  0
LINE
  5
1251BF
  8
OBJECT
 10
5475.0
 20
-3578.9999999999968
 30
0.0
 11
5456.7802782663139
 21
-3578.9999999999968
 31
0.0
1001
ACDBBLOCKREPETAG
1070
     1
1071
       30
1005
1251BF
  0
LINE
  5
1251C0
  8
OBJECT
 10
5475.0
 20
-3578.9999999999968
 30
0.0
 11
5475.0
 21
-3702.9999999999968
 31
0.0
1001
ACDBBLOCKREPETAG
1070
     1
1071
       34
1005
1251C0
  0
POINT
  5
1251C1
  8
DOTS
 10
5400.0
 20
-3699.9999999999968
 30
0.0
1001
ACDBBLOCKREPETAG
1070
     1
1071
      187
1005
1251C1
  0
LINE
  5
1251C2
  8
CENTER
 10
5310.0
 20
-3627.9999999999968
 30
0.0
 11
5490.0
 21
-3627.9999999999968
 31
0.0
1001
ACDBBLOCKREPETAG
1070
     1
1071
       23
1005
1251C2
  0
CIRCLE
  5
1251C3
  8
OBJECT
 10
5400.0
 20
-3627.9999999999968
 30
0.0
 40
53.5
1001
ACDBBLOCKREPETAG
1070
     1
1071
       24
1005
1251C3
  0
CIRCLE
  5
1251C4
  8
OBJECT
 10
5400.0
 20
-3627.9999999999968
 30
0.0
 40
67.0
1001
ACDBBLOCKREPETAG
1070
     1
1071
       25
1005
1251C4
  0
ARC
  5
1251C5
  8
OBJECT
 10
5400.0
 20
-3627.9999999999968
 30
0.0
 40
75.0
 50
286.26020470824369
 51
253.73979529175631
1001
ACDBBLOCKREPETAG
1070
     1
1071
       27
1005
1251C5
  0
LINE
  5
1251C6
  8
OBJECT
 10
5379.0
 20
-3699.9999999999968
 30
0.0
 11
5421.0
 21
-3699.9999999999968
 31
0.0
1001
ACDBBLOCKREPETAG
1070
     1
1071
       28
1005
1251C6
  0
LINE
  5
1251C7
  8
OBJECT
 10
5343.2197217336861
 20
-3578.9999999999968
 30
0.0
 11
5325.0
 21
-3578.9999999999968
 31
0.0
1001
ACDBBLOCKREPETAG
1070
     1
1071
       30
1005
1251BF
  0
TEXT
  5
12AED7
  8
SLIM
 10
-0.0000000000000011
 20
282.5
 30
0.0
 40
35.0
  1
※ 100枝（4）がある場合、品名の最後に【管底】が付きます。
 41
0.9
 11
0.0
 21
300.0
 31
0.0
 73
     2
  0
TEXT
  5
12E3D0
  8
SLIM
 10
43.928571428572042
 20
-555.0
 30
0.0
 40
60.0
  1
Z106-P110
 41
0.75
 72
     4
 11
225.0000000000006
 21
-525.0
 31
0.0
  0
TEXT
  5
12E3D1
  8
SLIM
 10
39.64285714285711
 20
-1135.0
 30
0.0
 40
60.0
  1
Z306-P110
 41
0.75
 72
     4
 11
225.0
 21
-1105.0
 31
0.0
  0
TEXT
  5
12E3D2
  8
SLIM
 10
489.64285714285711
 20
-555.0
 30
0.0
 40
60.0
  1
Z206-P110
 41
0.75
 72
     4
 11
675.0
 21
-525.0
 31
0.0
  0
TEXT
  5
12E3D3
  8
SLIM
 10
489.64285714285711
 20
-1135.0
 30
0.0
 40
60.0
  1
Z406-P110
 41
0.75
 72
     4
 11
675.0
 21
-1105.0
 31
0.0
  0
LINE
  5
12E839
  8
SLIM
 10
4350.0
 20
-479.99999999999568
 30
0.0
 11
4350.0
 21
-1199.9999999999959
 31
0.0
  0
LINE
  5
12E83A
  8
SLIM
 10
4454.0
 20
-1199.9999999999959
 30
0.0
 11
4454.0
 21
-479.99999999999568
 31
0.0
  0
LINE
  5
12E83B
  8
SLIM
 10
4602.0
 20
-479.99999999999568
 30
0.0
 11
4350.0
 21
-479.99999999999568
 31
0.0
  0
LINE
  5
12E83C
  8
SLIM
 10
4602.0
 20
-527.99999999999591
 30
0.0
 11
4350.0
 21
-527.99999999999591
 31
0.0
  0
LINE
  5
12E83E
  8
SLIM
 10
4602.0
 20
-575.99999999999568
 30
0.0
 11
4350.0
 21
-575.99999999999568
 31
0.0
  0
LINE
  5
12E83F
  8
SLIM
 10
4602.0
 20
-623.99999999999591
 30
0.0
 11
4350.0
 21
-623.99999999999591
 31
0.0
  0
LINE
  5
12E840
  8
SLIM
 10
4602.0
 20
-671.99999999999568
 30
0.0
 11
4350.0
 21
-671.99999999999568
 31
0.0
  0
LINE
  5
12E844
  8
SLIM
 10
4602.0
 20
-719.99999999999591
 30
0.0
 11
4350.0
 21
-719.99999999999591
 31
0.0
  0
LINE
  5
12E846
  8
SLIM
 10
4602.0
 20
-767.99999999999579
 30
0.0
 11
4350.0
 21
-767.99999999999579
 31
0.0
  0
LINE
  5
12E848
  8
SLIM
 10
4602.0
 20
-815.99999999999591
 30
0.0
 11
4350.0
 21
-815.99999999999591
 31
0.0
  0
LINE
  5
12E84A
  8
SLIM
 10
4602.0
 20
-863.99999999999591
 30
0.0
 11
4350.0
 21
-863.99999999999591
 31
0.0
  0
LINE
  5
12E84C
  8
SLIM
 10
4602.0
 20
-911.99999999999602
 30
0.0
 11
4350.0
 21
-911.99999999999602
 31
0.0
  0
LINE
  5
12E84E
  8
SLIM
 10
4602.0
 20
-959.99999999999545
 30
0.0
 11
4350.0
 21
-959.99999999999545
 31
0.0
  0
LINE
  5
12E850
  8
SLIM
 10
4602.0
 20
-1007.999999999996
 30
0.0
 11
4350.0
 21
-1007.999999999996
 31
0.0
  0
LINE
  5
12E852
  8
SLIM
 10
4602.0
 20
-1055.9999999999959
 30
0.0
 11
4350.0
 21
-1055.9999999999959
 31
0.0
  0
LINE
  5
12E854
  8
SLIM
 10
4602.0
 20
-1103.9999999999959
 30
0.0
 11
4350.0
 21
-1103.9999999999959
 31
0.0
  0
LINE
  5
12E856
  8
SLIM
 10
4602.0
 20
-1151.9999999999959
 30
0.0
 11
4350.0
 21
-1151.9999999999959
 31
0.0
  0
LINE
  5
12E858
  8
SLIM
 10
4602.0
 20
-1199.9999999999959
 30
0.0
 11
4350.0
 21
-1199.9999999999959
 31
0.0
  0
LINE
  5
12E85B
  8
SLIM
 10
4602.0
 20
-479.99999999999568
 30
0.0
 11
4602.0
 21
-1199.9999999999959
 31
0.0
  0
TEXT
  5
12E8B1
  8
SLIM
 10
3554.6000000000008
 20
-1535.666666666664
 30
0.0
 40
28.0
  1
※ 対応スラブ厚　180～（m-10）
 41
0.75
  0
TEXT
  5
12E8B2
  8
SLIM
 10
3554.6000000000008
 20
-1582.333333333331
 30
0.0
 40
28.0
  1
※ 足切り可能寸法（最大）　330-m（コンパクトＬベンド使用なら+20）
 41
0.75
  0
TEXT
  5
12E8B3
  8
SLIM
 10
3598.9000000000001
 20
-1675.666666666664
 30
0.0
 40
28.0
  1
国土交通大臣認定・（一財）日本消防設備安全センター性能評定取得品
 41
0.75
  0
TEXT
  5
12E8B4
  8
SLIM
 10
3631.1000000000022
 20
-1722.333333333331
 30
0.0
 40
28.0
  1
注）ご採用にあたり、認定書及び評定書の内容をご確認ください。
 41
0.75
  0
TEXT
  5
12E8B5
  8
SLIM
 10
4470.057142857142
 20
-1187.9999999999959
 30
0.0
 40
24.0
  1
180～320
 41
0.75
  0
TEXT
  5
12E8B6
  8
SLIM
 10
4471.7714285714283
 20
-1139.9999999999959
 30
0.0
 40
24.0
  1
180～310
 41
0.75
  0
TEXT
  5
12E8B7
  8
SLIM
 10
4470.057142857142
 20
-1091.9999999999959
 30
0.0
 40
24.0
  1
180～300
 41
0.75
  0
TEXT
  5
12E8B8
  8
SLIM
 10
4470.057142857142
 20
-1043.9999999999959
 30
0.0
 40
24.0
  1
180～290
 41
0.75
  0
TEXT
  5
12E8B9
  8
SLIM
 10
4470.057142857142
 20
-995.99999999999591
 30
0.0
 40
24.0
  1
180～280
 41
0.75
  0
TEXT
  5
12E8BA
  8
SLIM
 10
4470.057142857142
 20
-947.99999999999591
 30
0.0
 40
24.0
  1
180～270
 41
0.75
  0
TEXT
  5
12E8BB
  8
SLIM
 10
4470.057142857142
 20
-899.99999999999591
 30
0.0
 40
24.0
  1
180～260
 41
0.75
  0
TEXT
  5
12E8BC
  8
SLIM
 10
4470.057142857142
 20
-851.99999999999579
 30
0.0
 40
24.0
  1
180～250
 41
0.75
  0
TEXT
  5
12E8BD
  8
SLIM
 10
4470.057142857142
 20
-803.99999999999602
 30
0.0
 40
24.0
  1
180～240
 41
0.75
  0
TEXT
  5
12E8BE
  8
SLIM
 10
4470.057142857142
 20
-755.99999999999591
 30
0.0
 40
24.0
  1
180～230
 41
0.75
  0
TEXT
  5
12E8BF
  8
SLIM
 10
4470.057142857142
 20
-707.99999999999591
 30
0.0
 40
24.0
  1
180～220
 41
0.75
  0
TEXT
  5
12E8C0
  8
SLIM
 10
4471.7714285714283
 20
-659.99999999999568
 30
0.0
 40
24.0
  1
180～210
 41
0.75
  0
TEXT
  5
12E8C1
  8
SLIM
 10
4470.057142857142
 20
-611.99999999999591
 30
0.0
 40
24.0
  1
180～200
 41
0.75
  0
TEXT
  5
12E8C2
  8
SLIM
 10
4471.7714285714283
 20
-563.99999999999568
 30
0.0
 40
24.0
  1
180～190
 41
0.75
  0
TEXT
  5
12E8C3
  8
SLIM
 10
4465.6000000000013
 20
-515.99999999999591
 30
0.0
 40
24.0
  1
対応スラブ厚
 41
0.75
  0
TEXT
  5
12E8C4
  8
SLIM
 10
4396.4571428571408
 20
-1245.9999999999959
 30
0.0
 40
24.0
  1
標準：m=330
 41
0.75
  0
TEXT
  5
12E8C5
  8
SLIM
 10
4378.8571428571431
 20
-1187.9999999999959
 30
0.0
 40
24.0
  1
330
 41
0.75
  0
TEXT
  5
12E8C6
  8
SLIM
 10
4378.8571428571431
 20
-1139.9999999999959
 30
0.0
 40
24.0
  1
320
 41
0.75
  0
TEXT
  5
12E8C7
  8
SLIM
 10
4380.5714285714284
 20
-1091.9999999999959
 30
0.0
 40
24.0
  1
310
 41
0.75
  0
TEXT
  5
12E8C8
  8
SLIM
 10
4378.8571428571431
 20
-1043.9999999999959
 30
0.0
 40
24.0
  1
300
 41
0.75
  0
TEXT
  5
12E8C9
  8
SLIM
 10
4378.8571428571431
 20
-995.99999999999591
 30
0.0
 40
24.0
  1
290
 41
0.75
  0
TEXT
  5
12E8CA
  8
SLIM
 10
4378.8571428571431
 20
-947.99999999999591
 30
0.0
 40
24.0
  1
280
 41
0.75
  0
TEXT
  5
12E8CB
  8
SLIM
 10
4378.8571428571431
 20
-899.99999999999591
 30
0.0
 40
24.0
  1
270
 41
0.75
  0
TEXT
  5
12E8CC
  8
SLIM
 10
4378.8571428571431
 20
-851.99999999999579
 30
0.0
 40
24.0
  1
260
 41
0.75
  0
TEXT
  5
12E8CD
  8
SLIM
 10
4378.8571428571431
 20
-803.99999999999602
 30
0.0
 40
24.0
  1
250
 41
0.75
  0
TEXT
  5
12E8CE
  8
SLIM
 10
4378.8571428571431
 20
-755.99999999999591
 30
0.0
 40
24.0
  1
240
 41
0.75
  0
TEXT
  5
12E8CF
  8
SLIM
 10
4378.8571428571431
 20
-707.99999999999591
 30
0.0
 40
24.0
  1
230
 41
0.75
  0
TEXT
  5
12E8D0
  8
SLIM
 10
4378.8571428571431
 20
-659.99999999999568
 30
0.0
 40
24.0
  1
220
 41
0.75
  0
TEXT
  5
12E8D1
  8
SLIM
 10
4380.5714285714284
 20
-611.99999999999591
 30
0.0
 40
24.0
  1
210
 41
0.75
  0
TEXT
  5
12E8D2
  8
SLIM
 10
4369.9428571428571
 20
-515.99999999999591
 30
0.0
 40
24.0
  1
m寸法
 41
0.75
  0
TEXT
  5
12E8D3
  8
SLIM
 10
4378.8571428571431
 20
-563.99999999999568
 30
0.0
 40
24.0
  1
200
 41
0.75
  0
LINE
  5
12E8D4
  8
DIM
 10
3904.9999999999941
 20
-755.0
 30
0.0
 11
3839.6616440113221
 21
-754.99999999999966
 31
0.0
  0
LINE
  5
12E8D5
  8
DIM
 10
3910.0
 20
-1084.9999999999991
 30
0.0
 11
3839.6616440113221
 21
-1084.9999999999991
 31
0.0
  0
LINE
  5
12E8D6
  8
DIM
 10
3849.6616440113221
 20
-775.0
 30
0.0
 11
3849.6616440113221
 21
-1064.9999999999991
 31
0.0
  0
INSERT
  5
12E8D7
  8
DIM
  2
_OPEN30
 10
3849.6616440113221
 20
-755.0
 30
0.0
 41
20.0
 42
20.0
 43
20.0
 50
90.0
  0
INSERT
  5
12E8D8
  8
DIM
  2
_OPEN30
 10
3849.6616440113221
 20
-1084.9999999999991
 30
0.0
 41
20.0
 42
20.0
 43
20.0
 50
270.0
  0
INSERT
  5
12E8D9
  8
OBJECT
  2
*U466
 10
0.0
 20
0.0
 30
0.0
  0
CIRCLE
  5
12E8DA
  8
OBJECT
 10
220.00000000000159
 20
-790.0
 30
0.0
 40
70.0
1001
ACDBBLOCKREPETAG
1070
     1
1071
       43
1005
12E8DA
  0
CIRCLE
  5
12E8DB
  8
OBJECT
 10
220.00000000000159
 20
-790.0
 30
0.0
 40
77.0
1001
ACDBBLOCKREPETAG
1070
     1
1071
       44
1005
12E8DB
  0
ARC
  5
12E8DC
  8
OBJECT
 10
220.00000000000159
 20
-790.0
 30
0.0
 40
80.0
 50
140.80503257377961
 51
219.1949674262203
1001
ACDBBLOCKREPETAG
1070
     1
1071
       45
1005
12E8DC
  0
LINE
  5
12E8DD
  8
OBJECT
 10
158.00000000000159
 20
-744.33819977267535
 30
0.0
 11
158.00000000000159
 21
-710.0
 31
0.0
1001
ACDBBLOCKREPETAG
1070
     1
1071
       46
1005
12E8DD
  0
LINE
  5
12E8DE
  8
OBJECT
 10
282.00000000000171
 20
-728.0
 30
0.0
 11
282.00000000000171
 21
-710.0
 31
0.0
1001
ACDBBLOCKREPETAG
1070
     1
1071
       22
1005
12E8DE
  0
LINE
  5
12E8DF
  8
OBJECT
 10
282.00000000000171
 20
-728.0
 30
0.0
 11
300.00000000000159
 21
-728.0
 31
0.0
1001
ACDBBLOCKREPETAG
1070
     1
1071
       24
1005
12E8DF
  0
LINE
  5
12E8E0
  8
OBJECT
 10
282.00000000000171
 20
-852.0
 30
0.0
 11
300.00000000000159
 21
-852.0
 31
0.0
1001
ACDBBLOCKREPETAG
1070
     1
1071
       25
1005
12E8E0
  0
LINE
  5
12E8E1
  8
OBJECT
 10
282.00000000000171
 20
-852.0
 30
0.0
 11
282.00000000000171
 21
-870.0
 31
0.0
1001
ACDBBLOCKREPETAG
1070
     1
1071
       27
1005
12E8E1
  0
LINE
  5
12E8E2
  8
OBJECT
 10
158.00000000000159
 20
-835.66180022732431
 30
0.0
 11
158.00000000000159
 21
-870.0
 31
0.0
1001
ACDBBLOCKREPETAG
1070
     1
1071
       28
1005
12E8E2
  0
LINE
  5
12E8E3
  8
OBJECT
 10
274.44722215136568
 20
-844.44722215136414
 30
0.0
 11
282.00000000000171
 21
-852.0
 31
0.0
1001
ACDBBLOCKREPETAG
1070
     1
1071
       37
1005
12E8E3
  0
LINE
  5
12E8E4
  8
OBJECT
 10
274.44722215136568
 20
-735.5527778486354
 30
0.0
 11
282.00000000000171
 21
-728.0
 31
0.0
1001
ACDBBLOCKREPETAG
1070
     1
1071
       38
1005
12E8E4
  0
POINT
  5
12E8E5
  8
DOTS
 10
220.00000000000159
 20
-790.0
 30
0.0
1001
ACDBBLOCKREPETAG
1070
     1
1071
       39
1005
12E8E5
  0
CIRCLE
  5
12E8E6
  8
OBJECT
 10
220.00000000000159
 20
-790.0
 30
0.0
 40
53.5
1001
ACDBBLOCKREPETAG
1070
     1
1071
      153
1005
12E8E6
  0
CIRCLE
  5
12E8E7
  8
OBJECT
 10
220.00000000000159
 20
-210.0
 30
0.0
 40
70.0
1001
ACDBBLOCKREPETAG
1070
     1
1071
       43
1005
12E8E7
  0
CIRCLE
  5
12E8E8
  8
OBJECT
 10
220.00000000000159
 20
-210.0
 30
0.0
 40
77.0
1001
ACDBBLOCKREPETAG
1070
     1
1071
       44
1005
12E8E8
  0
ARC
  5
12E8E9
  8
OBJECT
 10
220.00000000000159
 20
-210.0
 30
0.0
 40
80.0
 50
140.80503257378101
 51
219.19496742621899
1001
ACDBBLOCKREPETAG
1070
     1
1071
       45
1005
12E8E9
  0
LINE
  5
12E8EA
  8
OBJECT
 10
158.00000000000159
 20
-164.33819977267561
 30
0.0
 11
158.00000000000159
 21
-130.0
 31
0.0
1001
ACDBBLOCKREPETAG
1070
     1
1071
       46
1005
12E8EA
  0
LINE
  5
12E8EB
  8
OBJECT
 10
282.00000000000171
 20
-148.0
 30
0.0
 11
282.00000000000171
 21
-130.0
 31
0.0
1001
ACDBBLOCKREPETAG
1070
     1
1071
       22
1005
12E8EB
  0
LINE
  5
12E8EC
  8
OBJECT
 10
282.00000000000171
 20
-148.0
 30
0.0
 11
300.00000000000159
 21
-148.0
 31
0.0
1001
ACDBBLOCKREPETAG
1070
     1
1071
       24
1005
12E8EC
  0
LINE
  5
12E8ED
  8
OBJECT
 10
282.00000000000171
 20
-272.0
 30
0.0
 11
300.00000000000159
 21
-272.0
 31
0.0
1001
ACDBBLOCKREPETAG
1070
     1
1071
       25
1005
12E8ED
  0
LINE
  5
12E8EE
  8
OBJECT
 10
282.00000000000171
 20
-272.0
 30
0.0
 11
282.00000000000171
 21
-290.0
 31
0.0
1001
ACDBBLOCKREPETAG
1070
     1
1071
       27
1005
12E8EE
  0
LINE
  5
12E8EF
  8
OBJECT
 10
158.00000000000159
 20
-255.66180022732439
 30
0.0
 11
158.00000000000159
 21
-290.0
 31
0.0
1001
ACDBBLOCKREPETAG
1070
     1
1071
       28
1005
12E8EF
  0
LINE
  5
12E8F0
  8
OBJECT
 10
274.44722215136568
 20
-264.4472221513642
 30
0.0
 11
282.00000000000171
 21
-272.0
 31
0.0
1001
ACDBBLOCKREPETAG
1070
     1
1071
       37
1005
12E8F0
  0
LINE
  5
12E8F1
  8
OBJECT
 10
274.44722215136568
 20
-155.55277784863571
 30
0.0
 11
282.00000000000171
 21
-148.0
 31
0.0
1001
ACDBBLOCKREPETAG
1070
     1
1071
       38
1005
12E8F1
  0
POINT
  5
12E8F2
  8
DOTS
 10
220.00000000000159
 20
-210.0
 30
0.0
1001
ACDBBLOCKREPETAG
1070
     1
1071
       39
1005
12E8F2
  0
CIRCLE
  5
12E8F3
  8
OBJECT
 10
220.00000000000159
 20
-210.0
 30
0.0
 40
53.5
1001
ACDBBLOCKREPETAG
1070
     1
1071
      153
1005
12E8F3
  0
CIRCLE
  5
12E8F4
  8
OBJECT
 10
670.00000000000159
 20
-210.0
 30
0.0
 40
70.0
1001
ACDBBLOCKREPETAG
1070
     1
1071
       43
1005
12E8F4
  0
CIRCLE
  5
12E8F5
  8
OBJECT
 10
670.00000000000159
 20
-210.0
 30
0.0
 40
77.0
1001
ACDBBLOCKREPETAG
1070
     1
1071
       44
1005
12E8F5
  0
ARC
  5
12E8F6
  8
OBJECT
 10
670.00000000000159
 20
-210.0
 30
0.0
 40
80.0
 50
140.80503257378001
 51
219.19496742621999
1001
ACDBBLOCKREPETAG
1070
     1
1071
       45
1005
12E8F6
  0
LINE
  5
12E8F7
  8
OBJECT
 10
608.00000000000159
 20
-164.33819977267561
 30
0.0
 11
608.00000000000159
 21
-130.0
 31
0.0
1001
ACDBBLOCKREPETAG
1070
     1
1071
       46
1005
12E8F7
  0
LINE
  5
12E8F8
  8
OBJECT
 10
732.00000000000171
 20
-148.0
 30
0.0
 11
732.00000000000171
 21
-130.0
 31
0.0
1001
ACDBBLOCKREPETAG
1070
     1
1071
       22
1005
12E8F8
  0
LINE
  5
12E8F9
  8
OBJECT
 10
732.00000000000171
 20
-148.0
 30
0.0
 11
750.00000000000159
 21
-148.0
 31
0.0
1001
ACDBBLOCKREPETAG
1070
     1
1071
       24
1005
12E8F9
  0
LINE
  5
12E8FA
  8
OBJECT
 10
732.00000000000171
 20
-272.0
 30
0.0
 11
750.00000000000159
 21
-272.0
 31
0.0
1001
ACDBBLOCKREPETAG
1070
     1
1071
       25
1005
12E8FA
  0
LINE
  5
12E8FB
  8
OBJECT
 10
732.00000000000171
 20
-272.0
 30
0.0
 11
732.00000000000171
 21
-290.0
 31
0.0
1001
ACDBBLOCKREPETAG
1070
     1
1071
       27
1005
12E8FB
  0
LINE
  5
12E8FC
  8
OBJECT
 10
608.00000000000159
 20
-255.66180022732439
 30
0.0
 11
608.00000000000159
 21
-290.0
 31
0.0
1001
ACDBBLOCKREPETAG
1070
     1
1071
       28
1005
12E8FC
  0
LINE
  5
12E8FD
  8
OBJECT
 10
724.44722215136585
 20
-264.4472221513642
 30
0.0
 11
732.00000000000171
 21
-272.0
 31
0.0
1001
ACDBBLOCKREPETAG
1070
     1
1071
       37
1005
12E8FD
  0
LINE
  5
12E8FE
  8
OBJECT
 10
724.44722215136585
 20
-155.55277784863571
 30
0.0
 11
732.00000000000171
 21
-148.0
 31
0.0
1001
ACDBBLOCKREPETAG
1070
     1
1071
       38
1005
12E8FE
  0
POINT
  5
12E8FF
  8
DOTS
 10
670.00000000000159
 20
-210.0
 30
0.0
1001
ACDBBLOCKREPETAG
1070
     1
1071
       39
1005
12E8FF
  0
CIRCLE
  5
12E900
  8
OBJECT
 10
670.00000000000159
 20
-210.0
 30
0.0
 40
53.5
1001
ACDBBLOCKREPETAG
1070
     1
1071
      153
1005
12E900
  0
CIRCLE
  5
12E901
  8
OBJECT
 10
670.00000000000159
 20
-790.0
 30
0.0
 40
70.0
1001
ACDBBLOCKREPETAG
1070
     1
1071
       43
1005
12E901
  0
CIRCLE
  5
12E902
  8
OBJECT
 10
670.00000000000159
 20
-790.0
 30
0.0
 40
77.0
1001
ACDBBLOCKREPETAG
1070
     1
1071
       44
1005
12E902
  0
ARC
  5
12E903
  8
OBJECT
 10
670.00000000000159
 20
-790.0
 30
0.0
 40
80.0
 50
140.8050325737787
 51
219.1949674262213
1001
ACDBBLOCKREPETAG
1070
     1
1071
       45
1005
12E903
  0
LINE
  5
12E904
  8
OBJECT
 10
608.00000000000159
 20
-744.33819977267535
 30
0.0
 11
608.00000000000159
 21
-710.0
 31
0.0
1001
ACDBBLOCKREPETAG
1070
     1
1071
       46
1005
12E904
  0
LINE
  5
12E905
  8
OBJECT
 10
732.00000000000171
 20
-728.0
 30
0.0
 11
732.00000000000171
 21
-710.0
 31
0.0
1001
ACDBBLOCKREPETAG
1070
     1
1071
       22
1005
12E905
  0
LINE
  5
12E906
  8
OBJECT
 10
732.00000000000171
 20
-728.0
 30
0.0
 11
750.00000000000159
 21
-728.0
 31
0.0
1001
ACDBBLOCKREPETAG
1070
     1
1071
       24
1005
12E906
  0
LINE
  5
12E907
  8
OBJECT
 10
732.00000000000171
 20
-852.0
 30
0.0
 11
750.00000000000159
 21
-852.0
 31
0.0
1001
ACDBBLOCKREPETAG
1070
     1
1071
       25
1005
12E907
  0
LINE
  5
12E908
  8
OBJECT
 10
732.00000000000171
 20
-852.0
 30
0.0
 11
732.00000000000171
 21
-870.0
 31
0.0
1001
ACDBBLOCKREPETAG
1070
     1
1071
       27
1005
12E908
  0
LINE
  5
12E909
  8
OBJECT
 10
608.00000000000159
 20
-835.66180022732431
 30
0.0
 11
608.00000000000159
 21
-870.0
 31
0.0
1001
ACDBBLOCKREPETAG
1070
     1
1071
       28
1005
12E909
  0
LINE
  5
12E90A
  8
OBJECT
 10
724.44722215136585
 20
-844.44722215136414
 30
0.0
 11
732.00000000000171
 21
-852.0
 31
0.0
1001
ACDBBLOCKREPETAG
1070
     1
1071
       37
1005
12E90A
  0
LINE
  5
12E90B
  8
OBJECT
 10
724.44722215136585
 20
-735.5527778486354
 30
0.0
 11
732.00000000000171
 21
-728.0
 31
0.0
1001
ACDBBLOCKREPETAG
1070
     1
1071
       38
1005
12E90B
  0
POINT
  5
12E90C
  8
DOTS
 10
670.00000000000159
 20
-790.0
 30
0.0
1001
ACDBBLOCKREPETAG
1070
     1
1071
       39
1005
12E90C
  0
CIRCLE
  5
12E90D
  8
OBJECT
 10
670.00000000000159
 20
-790.0
 30
0.0
 40
53.5
1001
ACDBBLOCKREPETAG
1070
     1
1071
      153
1005
12E90D
  0
INSERT
  5
12E90E
  8
OBJECT
  2
*U467
 10
0.0
 20
0.0
 30
0.0
  0
LINE
  5
12E90F
  8
OBJECT
 10
158.00000000000159
 20
-657.0
 30
0.0
 11
158.00000000000159
 21
-650.0
 31
0.0
1001
ACDBBLOCKREPETAG
1070
     1
1071
       39
1005
12E90F
  0
LINE
  5
12E910
  8
OBJECT
 10
158.00000000000159
 20
-650.0
 30
0.0
 11
282.00000000000171
 21
-650.0
 31
0.0
1001
ACDBBLOCKREPETAG
1070
     1
1071
       40
1005
12E910
  0
LINE
  5
12E911
  8
OBJECT
 10
282.00000000000171
 20
-650.0
 30
0.0
 11
282.00000000000171
 21
-657.0
 31
0.0
1001
ACDBBLOCKREPETAG
1070
     1
1071
       41
1005
12E911
  0
LINE
  5
12E912
  8
OBJECT
 10
282.00000000000171
 20
-657.0
 30
0.0
 11
158.00000000000159
 21
-657.0
 31
0.0
1001
ACDBBLOCKREPETAG
1070
     1
1071
       42
1005
12E912
  0
LINE
  5
12E913
  8
OBJECT
 10
161.00000000000159
 20
-657.0
 30
0.0
 11
161.00000000000159
 21
-693.0
 31
0.0
1001
ACDBBLOCKREPETAG
1070
     1
1071
       43
1005
12E913
  0
LINE
  5
12E914
  8
OBJECT
 10
161.00000000000159
 20
-693.0
 30
0.0
 11
279.00000000000159
 21
-693.0
 31
0.0
1001
ACDBBLOCKREPETAG
1070
     1
1071
       44
1005
12E914
  0
LINE
  5
12E915
  8
OBJECT
 10
279.00000000000159
 20
-693.0
 30
0.0
 11
279.00000000000159
 21
-657.0
 31
0.0
1001
ACDBBLOCKREPETAG
1070
     1
1071
       45
1005
12E915
  0
LINE
  5
12E916
  8
OBJECT
 10
165.50000000000159
 20
-697.0
 30
0.0
 11
165.50000000000159
 21
-704.0
 31
0.0
1001
ACDBBLOCKREPETAG
1070
     1
1071
       46
1005
12E916
  0
LINE
  5
12E917
  8
OBJECT
 10
274.50000000000159
 20
-704.0
 30
0.0
 11
274.50000000000159
 21
-697.0
 31
0.0
1001
ACDBBLOCKREPETAG
1070
     1
1071
       47
1005
12E917
  0
LINE
  5
12E918
  8
OBJECT
 10
274.50000000000159
 20
-697.0
 30
0.0
 11
165.50000000000159
 21
-697.0
 31
0.0
1001
ACDBBLOCKREPETAG
1070
     1
1071
       48
1005
12E918
  0
LINE
  5
12E919
  8
OBJECT
 10
161.00000000000159
 20
-693.0
 30
0.0
 11
165.50000000000159
 21
-697.0
 31
0.0
1001
ACDBBLOCKREPETAG
1070
     1
1071
       49
1005
12E919
  0
LINE
  5
12E91A
  8
OBJECT
 10
279.00000000000159
 20
-693.0
 30
0.0
 11
274.50000000000159
 21
-697.0
 31
0.0
1001
ACDBBLOCKREPETAG
1070
     1
1071
       50
1005
12E91A
  0
LINE
  5
12E91B
  8
OBJECT
 10
158.00000000000159
 20
-706.99999999999909
 30
0.0
 11
158.00000000000159
 21
-710.0
 31
0.0
1001
ACDBBLOCKREPETAG
1070
     1
1071
       51
1005
12E91B
  0
ARC
  5
12E91C
  8
OBJECT
 10
161.00000000000159
 20
-706.99999999999909
 30
0.0
 40
3.0
 50
90.0
 51
180.0
1001
ACDBBLOCKREPETAG
1070
     1
1071
       52
1005
12E91C
  0
LINE
  5
12E91D
  8
OBJECT
 10
282.00000000000171
 20
-710.0
 30
0.0
 11
282.00000000000171
 21
-707.00000000000091
 31
0.0
1001
ACDBBLOCKREPETAG
1070
     1
1071
       53
1005
12E91D
  0
ARC
  5
12E91E
  8
OBJECT
 10
279.00000000000159
 20
-707.00000000000091
 30
0.0
 40
3.0
 50
0.0
 51
90.0
1001
ACDBBLOCKREPETAG
1070
     1
1071
       54
1005
12E91E
  0
LINE
  5
12E91F
  8
OBJECT
 10
279.00000000000159
 20
-704.0000000000008
 30
0.0
 11
161.00000000000159
 21
-703.99999999999909
 31
0.0
1001
ACDBBLOCKREPETAG
1070
     1
1071
       55
1005
12E91F
  0
LINE
  5
12E920
  8
HIDDEN
 10
175.50000000000159
 20
-702.0
 30
0.0
 11
264.50000000000159
 21
-702.0
 31
0.0
1001
ACDBBLOCKREPETAG
1070
     1
1071
      426
1005
12E920
  0
LINE
  5
12E921
  8
OBJECT
 10
282.00000000000171
 20
-992.99999999998545
 30
0.0
 11
282.00000000000171
 21
-999.99999999998545
 31
0.0
1001
ACDBBLOCKREPETAG
1070
     1
1071
       74
1005
12E921
  0
LINE
  5
12E922
  8
OBJECT
 10
282.00000000000171
 20
-999.99999999998545
 30
0.0
 11
158.00000000000159
 21
-999.99999999998545
 31
0.0
1001
ACDBBLOCKREPETAG
1070
     1
1071
       75
1005
12E922
  0
LINE
  5
12E923
  8
OBJECT
 10
158.00000000000159
 20
-999.99999999998545
 30
0.0
 11
158.00000000000159
 21
-992.99999999998545
 31
0.0
1001
ACDBBLOCKREPETAG
1070
     1
1071
       76
1005
12E923
  0
LINE
  5
12E924
  8
OBJECT
 10
158.00000000000159
 20
-992.99999999998545
 30
0.0
 11
282.00000000000171
 21
-992.99999999998545
 31
0.0
1001
ACDBBLOCKREPETAG
1070
     1
1071
       77
1005
12E924
  0
LINE
  5
12E925
  8
OBJECT
 10
174.99999999999801
 20
-939.99997496418644
 30
0.0
 11
175.00000000000159
 21
-875.99999999999886
 31
0.0
1001
ACDBBLOCKREPETAG
1070
     1
1071
       78
1005
12E925
  0
LINE
  5
12E926
  8
OBJECT
 10
265.00000000000159
 20
-939.99997496418644
 30
0.0
 11
265.00000000000159
 21
-876.0000000000008
 31
0.0
1001
ACDBBLOCKREPETAG
1070
     1
1071
       79
1005
12E926
  0
LINE
  5
12E927
  8
OBJECT
 10
279.00000000000159
 20
-992.99999999998545
 30
0.0
 11
279.00000000000159
 21
-956.99999999998545
 31
0.0
1001
ACDBBLOCKREPETAG
1070
     1
1071
       80
1005
12E927
  0
LINE
  5
12E928
  8
OBJECT
 10
279.00000000000159
 20
-956.99999999998545
 30
0.0
 11
161.00000000000159
 21
-956.99999999998545
 31
0.0
1001
ACDBBLOCKREPETAG
1070
     1
1071
       81
1005
12E928
  0
LINE
  5
12E929
  8
OBJECT
 10
161.00000000000159
 20
-956.99999999998545
 30
0.0
 11
161.00000000000159
 21
-992.99999999998545
 31
0.0
1001
ACDBBLOCKREPETAG
1070
     1
1071
       82
1005
12E929
  0
LINE
  5
12E92A
  8
OBJECT
 10
274.50000000000159
 20
-952.99999999998545
 30
0.0
 11
274.50000000000159
 21
-939.99999999998545
 31
0.0
1001
ACDBBLOCKREPETAG
1070
     1
1071
       83
1005
12E92A
  0
LINE
  5
12E92B
  8
OBJECT
 10
165.50000000000159
 20
-939.99999999998545
 30
0.0
 11
165.50000000000159
 21
-952.99999999998545
 31
0.0
1001
ACDBBLOCKREPETAG
1070
     1
1071
       84
1005
12E92B
  0
LINE
  5
12E92C
  8
OBJECT
 10
165.50000000000159
 20
-952.99999999998545
 30
0.0
 11
274.50000000000159
 21
-952.99999999998545
 31
0.0
1001
ACDBBLOCKREPETAG
1070
     1
1071
       85
1005
12E92C
  0
LINE
  5
12E92D
  8
OBJECT
 10
279.00000000000159
 20
-956.99999999998545
 30
0.0
 11
274.50000000000159
 21
-952.99999999998545
 31
0.0
1001
ACDBBLOCKREPETAG
1070
     1
1071
       86
1005
12E92D
  0
LINE
  5
12E92E
  8
OBJECT
 10
161.00000000000159
 20
-956.99999999998545
 30
0.0
 11
165.50000000000159
 21
-952.99999999998545
 31
0.0
1001
ACDBBLOCKREPETAG
1070
     1
1071
       87
1005
12E92E
  0
LINE
  5
12E92F
  8
OBJECT
 10
282.00000000000171
 20
-873.00000000000114
 30
0.0
 11
282.00000000000171
 21
-870.0
 31
0.0
1001
ACDBBLOCKREPETAG
1070
     1
1071
       88
1005
12E92F
  0
ARC
  5
12E930
  8
OBJECT
 10
279.00000000000159
 20
-873.00000000000114
 30
0.0
 40
3.0
 50
270.0
 51
0.0
1001
ACDBBLOCKREPETAG
1070
     1
1071
       89
1005
12E930
  0
LINE
  5
12E931
  8
OBJECT
 10
158.00000000000159
 20
-870.0
 30
0.0
 11
158.00000000000159
 21
-872.99999999999909
 31
0.0
1001
ACDBBLOCKREPETAG
1070
     1
1071
       90
1005
12E931
  0
ARC
  5
12E932
  8
OBJECT
 10
161.00000000000159
 20
-872.99999999999909
 30
0.0
 40
3.0
 50
180.0
 51
270.0
1001
ACDBBLOCKREPETAG
1070
     1
1071
       91
1005
12E932
  0
LINE
  5
12E933
  8
OBJECT
 10
161.00000000000159
 20
-875.99999999999886
 30
0.0
 11
209.67720967964291
 21
-876.0000000000008
 31
0.0
1001
ACDBBLOCKREPETAG
1070
     1
1071
       92
1005
12E933
  0
LINE
  5
12E934
  8
OBJECT
 10
230.32279032036041
 20
-876.0
 30
0.0
 11
279.00000000000159
 21
-876.0000000000008
 31
0.0
1001
ACDBBLOCKREPETAG
1070
     1
1071
       93
1005
12E934
  0
LINE
  5
12E935
  8
OBJECT
 10
165.50004907619021
 20
-939.99997496418644
 30
0.0
 11
274.50004907619012
 21
-939.99997496418644
 31
0.0
1001
ACDBBLOCKREPETAG
1070
     1
1071
       95
1005
12E935
  0
ARC
  5
12E936
  8
OBJECT
 10
220.00000000000159
 20
-919.80000000002269
 30
0.0
 40
45.000000000000547
 50
0.0
 51
180.0
1001
ACDBBLOCKREPETAG
1070
     1
1071
       96
1005
12E936
  0
INSERT
  5
12E937
  8
OBJECT
  2
*U468
 10
0.0
 20
0.0
 30
0.0
  0
LINE
  5
12E938
  8
HIDDEN
 10
264.50000000000159
 20
-947.99999999998545
 30
0.0
 11
175.50000000000159
 21
-947.99999999998545
 31
0.0
1001
ACDBBLOCKREPETAG
1070
     1
1071
      431
1005
12E938
  0
LINE
  5
12E939
  8
OBJECT
 10
303.00000000000171
 20
-852.0
 30
0.0
 11
300.00000000000159
 21
-852.0
 31
0.0
1001
ACDBBLOCKREPETAG
1070
     1
1071
      418
1005
12E939
  0
ARC
  5
12E93A
  8
OBJECT
 10
303.00000000000171
 20
-849.0
 30
0.0
 40
3.0
 50
270.0
 51
0.0
1001
ACDBBLOCKREPETAG
1070
     1
1071
      419
1005
12E93A
  0
LINE
  5
12E93B
  8
OBJECT
 10
300.00000000000159
 20
-728.0
 30
0.0
 11
303.00000000000171
 21
-728.0
 31
0.0
1001
ACDBBLOCKREPETAG
1070
     1
1071
      420
1005
12E93B
  0
ARC
  5
12E93C
  8
OBJECT
 10
303.00000000000171
 20
-731.0
 30
0.0
 40
3.0
 50
0.0
 51
90.0
1001
ACDBBLOCKREPETAG
1070
     1
1071
      421
1005
12E93C
  0
LINE
  5
12E93D
  8
OBJECT
 10
306.00000000000159
 20
-731.0
 30
0.0
 11
306.00000000000159
 21
-849.0
 31
0.0
1001
ACDBBLOCKREPETAG
1070
     1
1071
      422
1005
12E93D
  0
INSERT
  5
12E93E
  8
OBJECT
  2
*U469
 10
0.0
 20
0.0
 30
0.0
  0
LINE
  5
12E93F
  8
OBJECT
 10
173.00000000000159
 20
-77.0
 30
0.0
 11
173.00000000000159
 21
-70.0
 31
0.0
1001
ACDBBLOCKREPETAG
1070
     1
1071
        1
1005
12E93F
  0
LINE
  5
12E940
  8
OBJECT
 10
173.00000000000159
 20
-70.0
 30
0.0
 11
267.00000000000159
 21
-70.0
 31
0.0
1001
ACDBBLOCKREPETAG
1070
     1
1071
        2
1005
12E940
  0
LINE
  5
12E941
  8
OBJECT
 10
267.00000000000159
 20
-70.0
 30
0.0
 11
267.00000000000159
 21
-77.0
 31
0.0
1001
ACDBBLOCKREPETAG
1070
     1
1071
        3
1005
12E941
  0
LINE
  5
12E942
  8
OBJECT
 10
267.00000000000159
 20
-77.0
 30
0.0
 11
173.00000000000159
 21
-77.0
 31
0.0
1001
ACDBBLOCKREPETAG
1070
     1
1071
        4
1005
12E942
  0
LINE
  5
12E943
  8
OBJECT
 10
176.00000000000159
 20
-77.0
 30
0.0
 11
176.00000000000159
 21
-113.0
 31
0.0
1001
ACDBBLOCKREPETAG
1070
     1
1071
        5
1005
12E943
  0
LINE
  5
12E944
  8
OBJECT
 10
176.00000000000159
 20
-113.0
 30
0.0
 11
264.00000000000159
 21
-113.0
 31
0.0
1001
ACDBBLOCKREPETAG
1070
     1
1071
        6
1005
12E944
  0
LINE
  5
12E945
  8
OBJECT
 10
264.00000000000159
 20
-113.0
 30
0.0
 11
264.00000000000159
 21
-77.0
 31
0.0
1001
ACDBBLOCKREPETAG
1070
     1
1071
        7
1005
12E945
  0
LINE
  5
12E946
  8
OBJECT
 10
180.50000000000159
 20
-117.0
 30
0.0
 11
180.50000000000159
 21
-124.0
 31
0.0
1001
ACDBBLOCKREPETAG
1070
     1
1071
        8
1005
12E946
  0
LINE
  5
12E947
  8
OBJECT
 10
259.50000000000159
 20
-124.0
 30
0.0
 11
259.50000000000159
 21
-117.0
 31
0.0
1001
ACDBBLOCKREPETAG
1070
     1
1071
        9
1005
12E947
  0
LINE
  5
12E948
  8
OBJECT
 10
259.50000000000159
 20
-117.0
 30
0.0
 11
180.50000000000159
 21
-117.0
 31
0.0
1001
ACDBBLOCKREPETAG
1070
     1
1071
       10
1005
12E948
  0
LINE
  5
12E949
  8
OBJECT
 10
176.00000000000159
 20
-113.0
 30
0.0
 11
180.50000000000159
 21
-117.0
 31
0.0
1001
ACDBBLOCKREPETAG
1070
     1
1071
       11
1005
12E949
  0
LINE
  5
12E94A
  8
OBJECT
 10
264.00000000000159
 20
-113.0
 30
0.0
 11
259.50000000000159
 21
-117.0
 31
0.0
1001
ACDBBLOCKREPETAG
1070
     1
1071
       12
1005
12E94A
  0
LINE
  5
12E94B
  8
OBJECT
 10
158.00000000000159
 20
-126.9999999999991
 30
0.0
 11
158.00000000000159
 21
-130.0
 31
0.0
1001
ACDBBLOCKREPETAG
1070
     1
1071
       13
1005
12E94B
  0
ARC
  5
12E94C
  8
OBJECT
 10
161.00000000000159
 20
-126.9999999999991
 30
0.0
 40
3.0
 50
90.0
 51
180.0
1001
ACDBBLOCKREPETAG
1070
     1
1071
       14
1005
12E94C
  0
LINE
  5
12E94D
  8
OBJECT
 10
282.00000000000171
 20
-130.0
 30
0.0
 11
282.00000000000171
 21
-127.0000000000009
 31
0.0
1001
ACDBBLOCKREPETAG
1070
     1
1071
       15
1005
12E94D
  0
ARC
  5
12E94E
  8
OBJECT
 10
279.00000000000159
 20
-127.0000000000009
 30
0.0
 40
3.0
 50
0.0
 51
90.0
1001
ACDBBLOCKREPETAG
1070
     1
1071
       16
1005
12E94E
  0
LINE
  5
12E94F
  8
OBJECT
 10
279.00000000000159
 20
-124.0000000000009
 30
0.0
 11
161.00000000000159
 21
-123.9999999999991
 31
0.0
1001
ACDBBLOCKREPETAG
1070
     1
1071
       17
1005
12E94F
  0
LINE
  5
12E950
  8
HIDDEN
 10
190.00000000000159
 20
-122.0
 30
0.0
 11
250.00000000000159
 21
-122.0
 31
0.0
1001
ACDBBLOCKREPETAG
1070
     1
1071
      420
1005
12E950
  0
LINE
  5
12E951
  8
OBJECT
 10
282.00000000000171
 20
-412.99999999998528
 30
0.0
 11
282.00000000000171
 21
-419.99999999998528
 31
0.0
1001
ACDBBLOCKREPETAG
1070
     1
1071
       74
1005
12E951
  0
LINE
  5
12E952
  8
OBJECT
 10
282.00000000000171
 20
-419.99999999998528
 30
0.0
 11
158.00000000000159
 21
-419.99999999998528
 31
0.0
1001
ACDBBLOCKREPETAG
1070
     1
1071
       75
1005
12E952
  0
LINE
  5
12E953
  8
OBJECT
 10
158.00000000000159
 20
-419.99999999998528
 30
0.0
 11
158.00000000000159
 21
-412.99999999998528
 31
0.0
1001
ACDBBLOCKREPETAG
1070
     1
1071
       76
1005
12E953
  0
LINE
  5
12E954
  8
OBJECT
 10
158.00000000000159
 20
-412.99999999998528
 30
0.0
 11
282.00000000000171
 21
-412.99999999998528
 31
0.0
1001
ACDBBLOCKREPETAG
1070
     1
1071
       77
1005
12E954
  0
LINE
  5
12E955
  8
OBJECT
 10
174.99999999999801
 20
-359.99997496418649
 30
0.0
 11
175.00000000000159
 21
-295.99999999999898
 31
0.0
1001
ACDBBLOCKREPETAG
1070
     1
1071
       78
1005
12E955
  0
LINE
  5
12E956
  8
OBJECT
 10
265.00000000000159
 20
-359.99997496418649
 30
0.0
 11
265.00000000000159
 21
-296.0000000000008
 31
0.0
1001
ACDBBLOCKREPETAG
1070
     1
1071
       79
1005
12E956
  0
LINE
  5
12E957
  8
OBJECT
 10
279.00000000000159
 20
-412.99999999998528
 30
0.0
 11
279.00000000000159
 21
-376.99999999998528
 31
0.0
1001
ACDBBLOCKREPETAG
1070
     1
1071
       80
1005
12E957
  0
LINE
  5
12E958
  8
OBJECT
 10
279.00000000000159
 20
-376.99999999998528
 30
0.0
 11
161.00000000000159
 21
-376.99999999998528
 31
0.0
1001
ACDBBLOCKREPETAG
1070
     1
1071
       81
1005
12E958
  0
LINE
  5
12E959
  8
OBJECT
 10
161.00000000000159
 20
-376.99999999998528
 30
0.0
 11
161.00000000000159
 21
-412.99999999998528
 31
0.0
1001
ACDBBLOCKREPETAG
1070
     1
1071
       82
1005
12E959
  0
LINE
  5
12E95A
  8
OBJECT
 10
274.50000000000159
 20
-372.9999999999855
 30
0.0
 11
274.50000000000159
 21
-359.99999999998528
 31
0.0
1001
ACDBBLOCKREPETAG
1070
     1
1071
       83
1005
12E95A
  0
LINE
  5
12E95B
  8
OBJECT
 10
165.50000000000159
 20
-359.99999999998528
 30
0.0
 11
165.50000000000159
 21
-372.9999999999855
 31
0.0
1001
ACDBBLOCKREPETAG
1070
     1
1071
       84
1005
12E95B
  0
LINE
  5
12E95C
  8
OBJECT
 10
165.50000000000159
 20
-372.9999999999855
 30
0.0
 11
274.50000000000159
 21
-372.9999999999855
 31
0.0
1001
ACDBBLOCKREPETAG
1070
     1
1071
       85
1005
12E95C
  0
LINE
  5
12E95D
  8
OBJECT
 10
279.00000000000159
 20
-376.99999999998528
 30
0.0
 11
274.50000000000159
 21
-372.9999999999855
 31
0.0
1001
ACDBBLOCKREPETAG
1070
     1
1071
       86
1005
12E95D
  0
LINE
  5
12E95E
  8
OBJECT
 10
161.00000000000159
 20
-376.99999999998528
 30
0.0
 11
165.50000000000159
 21
-372.9999999999855
 31
0.0
1001
ACDBBLOCKREPETAG
1070
     1
1071
       87
1005
12E95E
  0
LINE
  5
12E95F
  8
OBJECT
 10
282.00000000000171
 20
-293.0000000000008
 30
0.0
 11
282.00000000000171
 21
-290.0
 31
0.0
1001
ACDBBLOCKREPETAG
1070
     1
1071
       88
1005
12E95F
  0
ARC
  5
12E960
  8
OBJECT
 10
279.00000000000159
 20
-293.0000000000008
 30
0.0
 40
3.0
 50
270.0
 51
0.0
1001
ACDBBLOCKREPETAG
1070
     1
1071
       89
1005
12E960
  0
LINE
  5
12E961
  8
OBJECT
 10
158.00000000000159
 20
-290.0
 30
0.0
 11
158.00000000000159
 21
-292.99999999999898
 31
0.0
1001
ACDBBLOCKREPETAG
1070
     1
1071
       90
1005
12E961
  0
ARC
  5
12E962
  8
OBJECT
 10
161.00000000000159
 20
-292.99999999999898
 30
0.0
 40
3.0
 50
180.0
 51
270.0
1001
ACDBBLOCKREPETAG
1070
     1
1071
       91
1005
12E962
  0
LINE
  5
12E963
  8
OBJECT
 10
161.00000000000159
 20
-295.99999999999898
 30
0.0
 11
209.67720967964291
 21
-296.0000000000008
 31
0.0
1001
ACDBBLOCKREPETAG
1070
     1
1071
       92
1005
12E963
  0
LINE
  5
12E964
  8
OBJECT
 10
230.32279032036041
 20
-296.0
 30
0.0
 11
279.00000000000159
 21
-296.0000000000008
 31
0.0
1001
ACDBBLOCKREPETAG
1070
     1
1071
       93
1005
12E964
  0
LINE
  5
12E965
  8
OBJECT
 10
165.50004907619021
 20
-359.99997496418649
 30
0.0
 11
274.50004907619012
 21
-359.99997496418649
 31
0.0
1001
ACDBBLOCKREPETAG
1070
     1
1071
       95
1005
12E965
  0
ARC
  5
12E966
  8
OBJECT
 10
220.00000000000159
 20
-339.80000000002292
 30
0.0
 40
45.000000000000547
 50
0.0
 51
180.0
1001
ACDBBLOCKREPETAG
1070
     1
1071
       96
1005
12E966
  0
INSERT
  5
12E967
  8
OBJECT
  2
*U470
 10
0.0
 20
0.0
 30
0.0
  0
LINE
  5
12E968
  8
HIDDEN
 10
264.50000000000159
 20
-367.99999999998539
 30
0.0
 11
175.50000000000159
 21
-367.99999999998539
 31
0.0
1001
ACDBBLOCKREPETAG
1070
     1
1071
      431
1005
12E968
  0
LINE
  5
12E969
  8
OBJECT
 10
303.00000000000171
 20
-272.0
 30
0.0
 11
300.00000000000159
 21
-272.0
 31
0.0
1001
ACDBBLOCKREPETAG
1070
     1
1071
      418
1005
12E969
  0
ARC
  5
12E96A
  8
OBJECT
 10
303.00000000000171
 20
-269.0
 30
0.0
 40
3.0
 50
270.0
 51
0.0
1001
ACDBBLOCKREPETAG
1070
     1
1071
      419
1005
12E96A
  0
LINE
  5
12E96B
  8
OBJECT
 10
300.00000000000159
 20
-148.0
 30
0.0
 11
303.00000000000171
 21
-148.0
 31
0.0
1001
ACDBBLOCKREPETAG
1070
     1
1071
      420
1005
12E96B
  0
ARC
  5
12E96C
  8
OBJECT
 10
303.00000000000171
 20
-151.0
 30
0.0
 40
3.0
 50
0.0
 51
90.0
1001
ACDBBLOCKREPETAG
1070
     1
1071
      421
1005
12E96C
  0
LINE
  5
12E96D
  8
OBJECT
 10
306.00000000000159
 20
-151.0
 30
0.0
 11
306.00000000000159
 21
-269.0
 31
0.0
1001
ACDBBLOCKREPETAG
1070
     1
1071
      422
1005
12E96D
  0
INSERT
  5
12E96E
  8
OBJECT
  2
*U471
 10
0.0
 20
0.0
 30
0.0
  0
LINE
  5
12E96F
  8
OBJECT
 10
615.00000000000159
 20
-77.0
 30
0.0
 11
615.00000000000159
 21
-70.0
 31
0.0
1001
ACDBBLOCKREPETAG
1070
     1
1071
       20
1005
12E96F
  0
LINE
  5
12E970
  8
OBJECT
 10
615.00000000000159
 20
-70.0
 30
0.0
 11
725.00000000000159
 21
-70.0
 31
0.0
1001
ACDBBLOCKREPETAG
1070
     1
1071
       21
1005
12E970
  0
LINE
  5
12E971
  8
OBJECT
 10
725.00000000000159
 20
-70.0
 30
0.0
 11
725.00000000000159
 21
-77.0
 31
0.0
1001
ACDBBLOCKREPETAG
1070
     1
1071
       22
1005
12E971
  0
LINE
  5
12E972
  8
OBJECT
 10
725.00000000000159
 20
-77.0
 30
0.0
 11
615.00000000000159
 21
-77.0
 31
0.0
1001
ACDBBLOCKREPETAG
1070
     1
1071
       23
1005
12E972
  0
LINE
  5
12E973
  8
OBJECT
 10
618.00000000000136
 20
-77.0
 30
0.0
 11
618.00000000000136
 21
-113.0
 31
0.0
1001
ACDBBLOCKREPETAG
1070
     1
1071
       24
1005
12E973
  0
LINE
  5
12E974
  8
OBJECT
 10
618.00000000000136
 20
-113.0
 30
0.0
 11
722.00000000000171
 21
-113.0
 31
0.0
1001
ACDBBLOCKREPETAG
1070
     1
1071
       25
1005
12E974
  0
LINE
  5
12E975
  8
OBJECT
 10
722.00000000000171
 20
-113.0
 30
0.0
 11
722.00000000000171
 21
-77.0
 31
0.0
1001
ACDBBLOCKREPETAG
1070
     1
1071
       26
1005
12E975
  0
LINE
  5
12E976
  8
OBJECT
 10
622.50000000000136
 20
-117.0
 30
0.0
 11
622.50000000000136
 21
-124.0
 31
0.0
1001
ACDBBLOCKREPETAG
1070
     1
1071
       27
1005
12E976
  0
LINE
  5
12E977
  8
OBJECT
 10
717.50000000000136
 20
-124.0
 30
0.0
 11
717.50000000000136
 21
-117.0
 31
0.0
1001
ACDBBLOCKREPETAG
1070
     1
1071
       28
1005
12E977
  0
LINE
  5
12E978
  8
OBJECT
 10
717.50000000000136
 20
-117.0
 30
0.0
 11
622.50000000000136
 21
-117.0
 31
0.0
1001
ACDBBLOCKREPETAG
1070
     1
1071
       29
1005
12E978
  0
LINE
  5
12E979
  8
OBJECT
 10
618.00000000000136
 20
-113.0
 30
0.0
 11
622.50000000000136
 21
-117.0
 31
0.0
1001
ACDBBLOCKREPETAG
1070
     1
1071
       30
1005
12E979
  0
LINE
  5
12E97A
  8
OBJECT
 10
722.00000000000171
 20
-113.0
 30
0.0
 11
717.50000000000136
 21
-117.0
 31
0.0
1001
ACDBBLOCKREPETAG
1070
     1
1071
       31
1005
12E97A
  0
LINE
  5
12E97B
  8
OBJECT
 10
608.00000000000159
 20
-126.9999999999991
 30
0.0
 11
608.00000000000159
 21
-130.0
 31
0.0
1001
ACDBBLOCKREPETAG
1070
     1
1071
       32
1005
12E97B
  0
ARC
  5
12E97C
  8
OBJECT
 10
611.00000000000159
 20
-126.9999999999991
 30
0.0
 40
3.0
 50
90.0
 51
180.0
1001
ACDBBLOCKREPETAG
1070
     1
1071
       33
1005
12E97C
  0
LINE
  5
12E97D
  8
OBJECT
 10
732.00000000000171
 20
-130.0
 30
0.0
 11
732.00000000000171
 21
-127.0000000000009
 31
0.0
1001
ACDBBLOCKREPETAG
1070
     1
1071
       34
1005
12E97D
  0
ARC
  5
12E97E
  8
OBJECT
 10
729.00000000000159
 20
-127.0000000000009
 30
0.0
 40
3.0
 50
0.0
 51
90.0
1001
ACDBBLOCKREPETAG
1070
     1
1071
       35
1005
12E97E
  0
LINE
  5
12E97F
  8
OBJECT
 10
729.00000000000159
 20
-124.0000000000009
 30
0.0
 11
611.00000000000159
 21
-123.9999999999991
 31
0.0
1001
ACDBBLOCKREPETAG
1070
     1
1071
       36
1005
12E97F
  0
LINE
  5
12E980
  8
HIDDEN
 10
632.00000000000159
 20
-122.0
 30
0.0
 11
708.00000000000159
 21
-122.0
 31
0.0
1001
ACDBBLOCKREPETAG
1070
     1
1071
      423
1005
12E980
  0
LINE
  5
12E981
  8
OBJECT
 10
732.00000000000171
 20
-412.99999999998528
 30
0.0
 11
732.00000000000171
 21
-419.99999999998528
 31
0.0
1001
ACDBBLOCKREPETAG
1070
     1
1071
       74
1005
12E981
  0
LINE
  5
12E982
  8
OBJECT
 10
732.00000000000171
 20
-419.99999999998528
 30
0.0
 11
608.00000000000159
 21
-419.99999999998528
 31
0.0
1001
ACDBBLOCKREPETAG
1070
     1
1071
       75
1005
12E982
  0
LINE
  5
12E983
  8
OBJECT
 10
608.00000000000159
 20
-419.99999999998528
 30
0.0
 11
608.00000000000159
 21
-412.99999999998528
 31
0.0
1001
ACDBBLOCKREPETAG
1070
     1
1071
       76
1005
12E983
  0
LINE
  5
12E984
  8
OBJECT
 10
608.00000000000159
 20
-412.99999999998528
 30
0.0
 11
732.00000000000171
 21
-412.99999999998528
 31
0.0
1001
ACDBBLOCKREPETAG
1070
     1
1071
       77
1005
12E984
  0
LINE
  5
12E985
  8
OBJECT
 10
624.99999999999795
 20
-359.99997496418649
 30
0.0
 11
625.00000000000148
 21
-295.99999999999898
 31
0.0
1001
ACDBBLOCKREPETAG
1070
     1
1071
       78
1005
12E985
  0
LINE
  5
12E986
  8
OBJECT
 10
715.00000000000171
 20
-359.99997496418649
 30
0.0
 11
715.00000000000171
 21
-296.0000000000008
 31
0.0
1001
ACDBBLOCKREPETAG
1070
     1
1071
       79
1005
12E986
  0
LINE
  5
12E987
  8
OBJECT
 10
729.00000000000159
 20
-412.99999999998528
 30
0.0
 11
729.00000000000159
 21
-376.99999999998528
 31
0.0
1001
ACDBBLOCKREPETAG
1070
     1
1071
       80
1005
12E987
  0
LINE
  5
12E988
  8
OBJECT
 10
729.00000000000159
 20
-376.99999999998528
 30
0.0
 11
611.00000000000159
 21
-376.99999999998528
 31
0.0
1001
ACDBBLOCKREPETAG
1070
     1
1071
       81
1005
12E988
  0
LINE
  5
12E989
  8
OBJECT
 10
611.00000000000159
 20
-376.99999999998528
 30
0.0
 11
611.00000000000159
 21
-412.99999999998528
 31
0.0
1001
ACDBBLOCKREPETAG
1070
     1
1071
       82
1005
12E989
  0
LINE
  5
12E98A
  8
OBJECT
 10
724.50000000000159
 20
-372.9999999999855
 30
0.0
 11
724.50000000000159
 21
-359.99999999998528
 31
0.0
1001
ACDBBLOCKREPETAG
1070
     1
1071
       83
1005
12E98A
  0
LINE
  5
12E98B
  8
OBJECT
 10
615.50000000000159
 20
-359.99999999998528
 30
0.0
 11
615.50000000000159
 21
-372.9999999999855
 31
0.0
1001
ACDBBLOCKREPETAG
1070
     1
1071
       84
1005
12E98B
  0
LINE
  5
12E98C
  8
OBJECT
 10
615.50000000000159
 20
-372.9999999999855
 30
0.0
 11
724.50000000000159
 21
-372.9999999999855
 31
0.0
1001
ACDBBLOCKREPETAG
1070
     1
1071
       85
1005
12E98C
  0
LINE
  5
12E98D
  8
OBJECT
 10
729.00000000000159
 20
-376.99999999998528
 30
0.0
 11
724.50000000000159
 21
-372.9999999999855
 31
0.0
1001
ACDBBLOCKREPETAG
1070
     1
1071
       86
1005
12E98D
  0
LINE
  5
12E98E
  8
OBJECT
 10
611.00000000000159
 20
-376.99999999998528
 30
0.0
 11
615.50000000000159
 21
-372.9999999999855
 31
0.0
1001
ACDBBLOCKREPETAG
1070
     1
1071
       87
1005
12E98E
  0
LINE
  5
12E98F
  8
OBJECT
 10
732.00000000000171
 20
-293.0000000000008
 30
0.0
 11
732.00000000000171
 21
-290.0
 31
0.0
1001
ACDBBLOCKREPETAG
1070
     1
1071
       88
1005
12E98F
  0
ARC
  5
12E990
  8
OBJECT
 10
729.00000000000159
 20
-293.0000000000008
 30
0.0
 40
3.0
 50
270.0
 51
0.0
1001
ACDBBLOCKREPETAG
1070
     1
1071
       89
1005
12E990
  0
LINE
  5
12E991
  8
OBJECT
 10
608.00000000000159
 20
-290.0
 30
0.0
 11
608.00000000000159
 21
-292.99999999999898
 31
0.0
1001
ACDBBLOCKREPETAG
1070
     1
1071
       90
1005
12E991
  0
ARC
  5
12E992
  8
OBJECT
 10
611.00000000000159
 20
-292.99999999999898
 30
0.0
 40
3.0
 50
180.0
 51
270.0
1001
ACDBBLOCKREPETAG
1070
     1
1071
       91
1005
12E992
  0
LINE
  5
12E993
  8
OBJECT
 10
611.00000000000159
 20
-295.99999999999898
 30
0.0
 11
659.67720967964271
 21
-296.0000000000008
 31
0.0
1001
ACDBBLOCKREPETAG
1070
     1
1071
       92
1005
12E993
  0
LINE
  5
12E994
  8
OBJECT
 10
680.32279032036035
 20
-296.0
 30
0.0
 11
729.00000000000159
 21
-296.0000000000008
 31
0.0
1001
ACDBBLOCKREPETAG
1070
     1
1071
       93
1005
12E994
  0
LINE
  5
12E995
  8
OBJECT
 10
615.50004907618995
 20
-359.99997496418649
 30
0.0
 11
724.50004907619018
 21
-359.99997496418649
 31
0.0
1001
ACDBBLOCKREPETAG
1070
     1
1071
       95
1005
12E995
  0
ARC
  5
12E996
  8
OBJECT
 10
670.00000000000159
 20
-339.80000000002292
 30
0.0
 40
45.000000000000547
 50
0.0
 51
180.0
1001
ACDBBLOCKREPETAG
1070
     1
1071
       96
1005
12E996
  0
INSERT
  5
12E997
  8
OBJECT
  2
*U472
 10
0.0
 20
0.0
 30
0.0
  0
LINE
  5
12E998
  8
HIDDEN
 10
714.50000000000171
 20
-367.99999999998539
 30
0.0
 11
625.50000000000136
 21
-367.99999999998539
 31
0.0
1001
ACDBBLOCKREPETAG
1070
     1
1071
      431
1005
12E998
  0
LINE
  5
12E999
  8
OBJECT
 10
753.00000000000171
 20
-272.0
 30
0.0
 11
750.00000000000159
 21
-272.0
 31
0.0
1001
ACDBBLOCKREPETAG
1070
     1
1071
      418
1005
12E999
  0
ARC
  5
12E99A
  8
OBJECT
 10
753.00000000000171
 20
-269.0
 30
0.0
 40
3.0
 50
270.0
 51
0.0
1001
ACDBBLOCKREPETAG
1070
     1
1071
      419
1005
12E99A
  0
LINE
  5
12E99B
  8
OBJECT
 10
750.00000000000159
 20
-148.0
 30
0.0
 11
753.00000000000171
 21
-148.0
 31
0.0
1001
ACDBBLOCKREPETAG
1070
     1
1071
      420
1005
12E99B
  0
ARC
  5
12E99C
  8
OBJECT
 10
753.00000000000171
 20
-151.0
 30
0.0
 40
3.0
 50
0.0
 51
90.0
1001
ACDBBLOCKREPETAG
1070
     1
1071
      421
1005
12E99C
  0
LINE
  5
12E99D
  8
OBJECT
 10
756.00000000000171
 20
-151.0
 30
0.0
 11
756.00000000000171
 21
-269.0
 31
0.0
1001
ACDBBLOCKREPETAG
1070
     1
1071
      422
1005
12E99D
  0
LINE
  5
12E99E
  8
OBJECT
 10
595.00000000000159
 20
-640.0
 30
0.0
 11
595.00000000000159
 21
-647.0
 31
0.0
1001
ACDBBLOCKREPETAG
1070
     1
1071
       57
1005
12E99E
  0
LINE
  5
12E99F
  8
OBJECT
 10
595.00000000000159
 20
-647.0
 30
0.0
 11
745.00000000000171
 21
-647.0
 31
0.0
1001
ACDBBLOCKREPETAG
1070
     1
1071
       58
1005
12E99F
  0
LINE
  5
12E9A0
  8
OBJECT
 10
598.00000000000159
 20
-688.49999999999977
 30
0.0
 11
742.00000000000159
 21
-688.49999999999977
 31
0.0
1001
ACDBBLOCKREPETAG
1070
     1
1071
       59
1005
12E9A0
  0
LINE
  5
12E9A1
  8
OBJECT
 10
604.50000000000148
 20
-700.0
 30
0.0
 11
735.50000000000171
 21
-700.0
 31
0.0
1001
ACDBBLOCKREPETAG
1070
     1
1071
       60
1005
12E9A1
  0
LINE
  5
12E9A2
  8
OBJECT
 10
745.00000000000171
 20
-647.0
 30
0.0
 11
745.00000000000171
 21
-640.0
 31
0.0
1001
ACDBBLOCKREPETAG
1070
     1
1071
       61
1005
12E9A2
  0
LINE
  5
12E9A3
  8
OBJECT
 10
745.00000000000171
 20
-640.0
 30
0.0
 11
595.00000000000159
 21
-640.0
 31
0.0
1001
ACDBBLOCKREPETAG
1070
     1
1071
       62
1005
12E9A3
  0
LINE
  5
12E9A4
  8
OBJECT
 10
732.00000000000171
 20
-704.0
 30
0.0
 11
732.00000000000171
 21
-710.0
 31
0.0
1001
ACDBBLOCKREPETAG
1070
     1
1071
       63
1005
12E9A4
  0
LINE
  5
12E9A5
  8
OBJECT
 10
742.00000000000159
 20
-647.0
 30
0.0
 11
742.00000000000159
 21
-688.49999999999977
 31
0.0
1001
ACDBBLOCKREPETAG
1070
     1
1071
       64
1005
12E9A5
  0
LINE
  5
12E9A6
  8
OBJECT
 10
742.00000000000159
 20
-688.49999999999977
 30
0.0
 11
735.50000000000171
 21
-700.0
 31
0.0
1001
ACDBBLOCKREPETAG
1070
     1
1071
       65
1005
12E9A6
  0
LINE
  5
12E9A7
  8
OBJECT
 10
735.50000000000171
 20
-700.0
 30
0.0
 11
732.00000000000171
 21
-704.0
 31
0.0
1001
ACDBBLOCKREPETAG
1070
     1
1071
       66
1005
12E9A7
  0
LINE
  5
12E9A8
  8
OBJECT
 10
598.00000000000159
 20
-688.49999999999977
 30
0.0
 11
604.50000000000148
 21
-700.0
 31
0.0
1001
ACDBBLOCKREPETAG
1070
     1
1071
       67
1005
12E9A8
  0
LINE
  5
12E9A9
  8
OBJECT
 10
604.50000000000148
 20
-700.0
 30
0.0
 11
608.00000000000159
 21
-704.0
 31
0.0
1001
ACDBBLOCKREPETAG
1070
     1
1071
       68
1005
12E9A9
  0
ARC
  5
12E9AA
  8
OBJECT
 10
670.00000000000159
 20
-322.09999999999849
 30
0.0
 40
386.89999999999998
 50
260.77870136257951
 51
279.22129863742049
1001
ACDBBLOCKREPETAG
1070
     1
1071
       69
1005
12E9AA
  0
LINE
  5
12E9AB
  8
OBJECT
 10
608.00000000000159
 20
-704.0
 30
0.0
 11
608.00000000000159
 21
-710.0
 31
0.0
1001
ACDBBLOCKREPETAG
1070
     1
1071
       70
1005
12E9AB
  0
LINE
  5
12E9AC
  8
OBJECT
 10
598.00000000000159
 20
-647.0
 30
0.0
 11
598.00000000000159
 21
-688.49999999999977
 31
0.0
1001
ACDBBLOCKREPETAG
1070
     1
1071
       71
1005
12E9AC
  0
INSERT
  5
12E9AD
  8
OBJECT
  2
*U473
 10
0.0
 20
0.0
 30
0.0
  0
LINE
  5
12E9AE
  8
HIDDEN
 10
727.00000000000171
 20
-692.0
 30
0.0
 11
613.00000000000136
 21
-692.0
 31
0.0
1001
ACDBBLOCKREPETAG
1070
     1
1071
      431
1005
12E9AE
  0
LINE
  5
12E9AF
  8
OBJECT
 10
732.00000000000171
 20
-992.99999999998545
 30
0.0
 11
732.00000000000171
 21
-999.99999999998545
 31
0.0
1001
ACDBBLOCKREPETAG
1070
     1
1071
       74
1005
12E9AF
  0
LINE
  5
12E9B0
  8
OBJECT
 10
732.00000000000171
 20
-999.99999999998545
 30
0.0
 11
608.00000000000159
 21
-999.99999999998545
 31
0.0
1001
ACDBBLOCKREPETAG
1070
     1
1071
       75
1005
12E9B0
  0
LINE
  5
12E9B1
  8
OBJECT
 10
608.00000000000159
 20
-999.99999999998545
 30
0.0
 11
608.00000000000159
 21
-992.99999999998545
 31
0.0
1001
ACDBBLOCKREPETAG
1070
     1
1071
       76
1005
12E9B1
  0
LINE
  5
12E9B2
  8
OBJECT
 10
608.00000000000159
 20
-992.99999999998545
 30
0.0
 11
732.00000000000171
 21
-992.99999999998545
 31
0.0
1001
ACDBBLOCKREPETAG
1070
     1
1071
       77
1005
12E9B2
  0
LINE
  5
12E9B3
  8
OBJECT
 10
624.99999999999795
 20
-939.99997496418644
 30
0.0
 11
625.00000000000148
 21
-875.99999999999886
 31
0.0
1001
ACDBBLOCKREPETAG
1070
     1
1071
       78
1005
12E9B3
  0
LINE
  5
12E9B4
  8
OBJECT
 10
715.00000000000171
 20
-939.99997496418644
 30
0.0
 11
715.00000000000171
 21
-876.0000000000008
 31
0.0
1001
ACDBBLOCKREPETAG
1070
     1
1071
       79
1005
12E9B4
  0
LINE
  5
12E9B5
  8
OBJECT
 10
729.00000000000159
 20
-992.99999999998545
 30
0.0
 11
729.00000000000159
 21
-956.99999999998545
 31
0.0
1001
ACDBBLOCKREPETAG
1070
     1
1071
       80
1005
12E9B5
  0
LINE
  5
12E9B6
  8
OBJECT
 10
729.00000000000159
 20
-956.99999999998545
 30
0.0
 11
611.00000000000159
 21
-956.99999999998545
 31
0.0
1001
ACDBBLOCKREPETAG
1070
     1
1071
       81
1005
12E9B6
  0
LINE
  5
12E9B7
  8
OBJECT
 10
611.00000000000159
 20
-956.99999999998545
 30
0.0
 11
611.00000000000159
 21
-992.99999999998545
 31
0.0
1001
ACDBBLOCKREPETAG
1070
     1
1071
       82
1005
12E9B7
  0
LINE
  5
12E9B8
  8
OBJECT
 10
724.50000000000159
 20
-952.99999999998545
 30
0.0
 11
724.50000000000159
 21
-939.99999999998545
 31
0.0
1001
ACDBBLOCKREPETAG
1070
     1
1071
       83
1005
12E9B8
  0
LINE
  5
12E9B9
  8
OBJECT
 10
615.50000000000159
 20
-939.99999999998545
 30
0.0
 11
615.50000000000159
 21
-952.99999999998545
 31
0.0
1001
ACDBBLOCKREPETAG
1070
     1
1071
       84
1005
12E9B9
  0
LINE
  5
12E9BA
  8
OBJECT
 10
615.50000000000159
 20
-952.99999999998545
 30
0.0
 11
724.50000000000159
 21
-952.99999999998545
 31
0.0
1001
ACDBBLOCKREPETAG
1070
     1
1071
       85
1005
12E9BA
  0
LINE
  5
12E9BB
  8
OBJECT
 10
729.00000000000159
 20
-956.99999999998545
 30
0.0
 11
724.50000000000159
 21
-952.99999999998545
 31
0.0
1001
ACDBBLOCKREPETAG
1070
     1
1071
       86
1005
12E9BB
  0
LINE
  5
12E9BC
  8
OBJECT
 10
611.00000000000159
 20
-956.99999999998545
 30
0.0
 11
615.50000000000159
 21
-952.99999999998545
 31
0.0
1001
ACDBBLOCKREPETAG
1070
     1
1071
       87
1005
12E9BC
  0
LINE
  5
12E9BD
  8
OBJECT
 10
732.00000000000171
 20
-873.00000000000114
 30
0.0
 11
732.00000000000171
 21
-870.0
 31
0.0
1001
ACDBBLOCKREPETAG
1070
     1
1071
       88
1005
12E9BD
  0
ARC
  5
12E9BE
  8
OBJECT
 10
729.00000000000159
 20
-873.00000000000114
 30
0.0
 40
3.0
 50
270.0
 51
0.0
1001
ACDBBLOCKREPETAG
1070
     1
1071
       89
1005
12E9BE
  0
LINE
  5
12E9BF
  8
OBJECT
 10
608.00000000000159
 20
-870.0
 30
0.0
 11
608.00000000000159
 21
-872.99999999999909
 31
0.0
1001
ACDBBLOCKREPETAG
1070
     1
1071
       90
1005
12E9BF
  0
ARC
  5
12E9C0
  8
OBJECT
 10
611.00000000000159
 20
-872.99999999999909
 30
0.0
 40
3.0
 50
180.0
 51
270.0
1001
ACDBBLOCKREPETAG
1070
     1
1071
       91
1005
12E9C0
  0
LINE
  5
12E9C1
  8
OBJECT
 10
611.00000000000159
 20
-875.99999999999886
 30
0.0
 11
659.67720967964271
 21
-876.0000000000008
 31
0.0
1001
ACDBBLOCKREPETAG
1070
     1
1071
       92
1005
12E9C1
  0
LINE
  5
12E9C2
  8
OBJECT
 10
680.32279032036035
 20
-876.0
 30
0.0
 11
729.00000000000159
 21
-876.0000000000008
 31
0.0
1001
ACDBBLOCKREPETAG
1070
     1
1071
       93
1005
12E9C2
  0
LINE
  5
12E9C3
  8
OBJECT
 10
615.50004907618995
 20
-939.99997496418644
 30
0.0
 11
724.50004907619018
 21
-939.99997496418644
 31
0.0
1001
ACDBBLOCKREPETAG
1070
     1
1071
       95
1005
12E9C3
  0
ARC
  5
12E9C4
  8
OBJECT
 10
670.00000000000159
 20
-919.80000000002269
 30
0.0
 40
45.000000000000547
 50
0.0
 51
180.0
1001
ACDBBLOCKREPETAG
1070
     1
1071
       96
1005
12E9C4
  0
INSERT
  5
12E9C5
  8
OBJECT
  2
*U474
 10
0.0
 20
0.0
 30
0.0
  0
LINE
  5
12E9C6
  8
HIDDEN
 10
714.50000000000171
 20
-947.99999999998545
 30
0.0
 11
625.50000000000136
 21
-947.99999999998545
 31
0.0
1001
ACDBBLOCKREPETAG
1070
     1
1071
      431
1005
12E9C6
  0
LINE
  5
12E9C7
  8
OBJECT
 10
753.00000000000171
 20
-852.0
 30
0.0
 11
750.00000000000159
 21
-852.0
 31
0.0
1001
ACDBBLOCKREPETAG
1070
     1
1071
      418
1005
12E9C7
  0
ARC
  5
12E9C8
  8
OBJECT
 10
753.00000000000171
 20
-849.0
 30
0.0
 40
3.0
 50
270.0
 51
0.0
1001
ACDBBLOCKREPETAG
1070
     1
1071
      419
1005
12E9C8
  0
LINE
  5
12E9C9
  8
OBJECT
 10
750.00000000000159
 20
-728.0
 30
0.0
 11
753.00000000000171
 21
-728.0
 31
0.0
1001
ACDBBLOCKREPETAG
1070
     1
1071
      420
1005
12E9C9
  0
ARC
  5
12E9CA
  8
OBJECT
 10
753.00000000000171
 20
-731.0
 30
0.0
 40
3.0
 50
0.0
 51
90.0
1001
ACDBBLOCKREPETAG
1070
     1
1071
      421
1005
12E9CA
  0
LINE
  5
12E9CB
  8
OBJECT
 10
756.00000000000171
 20
-731.0
 30
0.0
 11
756.00000000000171
 21
-849.0
 31
0.0
1001
ACDBBLOCKREPETAG
1070
     1
1071
      422
1005
12E9CB
  0
POLYLINE
  5
12E9CC
  8
HIDDEN
 66
     1
 10
0.0
 20
0.0
 30
0.0
 70
     1
  0
VERTEX
  5
12FA9F
  8
HIDDEN
 10
0.0
 20
0.0
 30
0.0
  0
VERTEX
  5
12FAA0
  8
HIDDEN
 10
450.0
 20
0.0
 30
0.0
  0
VERTEX
  5
12FAA1
  8
HIDDEN
 10
450.0
 20
-580.0
 30
0.0
  0
VERTEX
  5
12FAA2
  8
HIDDEN
 10
0.0
 20
-580.0
 30
0.0
  0
SEQEND
  5
12FAA3
  8
HIDDEN
  0
POLYLINE
  5
12E9CD
  8
HIDDEN
 66
     1
 10
0.0
 20
0.0
 30
0.0
 70
     1
  0
VERTEX
  5
12FAA4
  8
HIDDEN
 10
450.0
 20
0.0
 30
0.0
  0
VERTEX
  5
12FAA5
  8
HIDDEN
 10
900.0
 20
0.0
 30
0.0
  0
VERTEX
  5
12FAA6
  8
HIDDEN
 10
900.0
 20
-580.0
 30
0.0
  0
VERTEX
  5
12FAA7
  8
HIDDEN
 10
450.0
 20
-580.0
 30
0.0
  0
SEQEND
  5
12FAA8
  8
HIDDEN
  0
POLYLINE
  5
12E9CE
  8
HIDDEN
 66
     1
 10
0.0
 20
0.0
 30
0.0
 70
     1
  0
VERTEX
  5
12FAA9
  8
HIDDEN
 10
0.0
 20
-580.0
 30
0.0
  0
VERTEX
  5
12FAAA
  8
HIDDEN
 10
450.0
 20
-580.0
 30
0.0
  0
VERTEX
  5
12FAAB
  8
HIDDEN
 10
450.0
 20
-1160.0
 30
0.0
  0
VERTEX
  5
12FAAC
  8
HIDDEN
 10
0.0
 20
-1160.0
 30
0.0
  0
SEQEND
  5
12FAAD
  8
HIDDEN
  0
POLYLINE
  5
12E9CF
  8
HIDDEN
 66
     1
 10
0.0
 20
0.0
 30
0.0
 70
     1
  0
VERTEX
  5
12FAAE
  8
HIDDEN
 10
450.0
 20
-580.0
 30
0.0
  0
VERTEX
  5
12FAAF
  8
HIDDEN
 10
900.0
 20
-580.0
 30
0.0
  0
VERTEX
  5
12FAB0
  8
HIDDEN
 10
900.0
 20
-1160.0
 30
0.0
  0
VERTEX
  5
12FAB1
  8
HIDDEN
 10
450.0
 20
-1160.0
 30
0.0
  0
SEQEND
  5
12FAB2
  8
HIDDEN
  0
CIRCLE
  5
12E9D0
  8
OBJECT
 10
5000.0
 20
-3294.9999999999959
 30
0.0
 40
53.5
1001
ACDBBLOCKREPETAG
1070
     1
1071
      344
1005
12E9D0
  0
LINE
  5
12E9D1
  8
CENTER
 10
5080.0
 20
-3294.9999999999959
 30
0.0
 11
4905.0
 21
-3294.9999999999959
 31
0.0
1001
ACDBBLOCKREPETAG
1070
     1
1071
       14
1005
12E9D1
  0
LINE
  5
12E9D2
  8
CENTER
 10
5000.0
 20
-3389.9999999999968
 30
0.0
 11
5000.0
 21
-3199.9999999999959
 31
0.0
1001
ACDBBLOCKREPETAG
1070
     1
1071
       15
1005
12E9D2
  0
CIRCLE
  5
12E9D3
  8
OBJECT
 10
5000.0
 20
-3294.9999999999959
 30
0.0
 40
70.0
1001
ACDBBLOCKREPETAG
1070
     1
1071
       16
1005
12E9D3
  0
CIRCLE
  5
12E9D4
  8
OBJECT
 10
5000.0
 20
-3294.9999999999959
 30
0.0
 40
77.0
1001
ACDBBLOCKREPETAG
1070
     1
1071
       17
1005
12E9D4
  0
ARC
  5
12E9D5
  8
OBJECT
 10
5000.0
 20
-3294.9999999999959
 30
0.0
 40
80.0
 50
50.805032573882329
 51
309.19496742611773
1001
ACDBBLOCKREPETAG
1070
     1
1071
       18
1005
12E9D5
  0
LINE
  5
12E9D6
  8
OBJECT
 10
5045.6618002273253
 20
-3232.9999999999959
 30
0.0
 11
5080.0
 21
-3232.9999999999959
 31
0.0
1001
ACDBBLOCKREPETAG
1070
     1
1071
       19
1005
12E9D6
  0
LINE
  5
12E9D7
  8
OBJECT
 10
5045.6618002273253
 20
-3356.9999999999959
 30
0.0
 11
5080.0
 21
-3356.9999999999959
 31
0.0
1001
ACDBBLOCKREPETAG
1070
     1
1071
       20
1005
12E9D7
  0
POINT
  5
12E9D8
  8
DOTS
 10
5000.0
 20
-3294.9999999999959
 30
0.0
1001
ACDBBLOCKREPETAG
1070
     1
1071
       21
1005
12E9D8
  0
CIRCLE
  5
12E9D9
  8
OBJECT
 10
4000.0
 20
-3294.9999999999959
 30
0.0
 40
53.5
1001
ACDBBLOCKREPETAG
1070
     1
1071
      344
1005
12E9D9
  0
LINE
  5
12E9DA
  8
CENTER
 10
4080.0
 20
-3294.9999999999959
 30
0.0
 11
3905.0
 21
-3294.9999999999959
 31
0.0
1001
ACDBBLOCKREPETAG
1070
     1
1071
       14
1005
12E9DA
  0
LINE
  5
12E9DB
  8
CENTER
 10
4000.0
 20
-3389.9999999999968
 30
0.0
 11
4000.0
 21
-3199.9999999999959
 31
0.0
1001
ACDBBLOCKREPETAG
1070
     1
1071
       15
1005
12E9DB
  0
CIRCLE
  5
12E9DC
  8
OBJECT
 10
4000.0
 20
-3294.9999999999959
 30
0.0
 40
70.0
1001
ACDBBLOCKREPETAG
1070
     1
1071
       16
1005
12E9DC
  0
CIRCLE
  5
12E9DD
  8
OBJECT
 10
4000.0
 20
-3294.9999999999959
 30
0.0
 40
77.0
1001
ACDBBLOCKREPETAG
1070
     1
1071
       17
1005
12E9DD
  0
ARC
  5
12E9DE
  8
OBJECT
 10
4000.0
 20
-3294.9999999999959
 30
0.0
 40
80.0
 50
50.805032573862128
 51
309.19496742613791
1001
ACDBBLOCKREPETAG
1070
     1
1071
       18
1005
12E9DE
  0
LINE
  5
12E9DF
  8
OBJECT
 10
4045.661800227324
 20
-3232.9999999999959
 30
0.0
 11
4080.0
 21
-3232.9999999999959
 31
0.0
1001
ACDBBLOCKREPETAG
1070
     1
1071
       19
1005
12E9DF
  0
LINE
  5
12E9E0
  8
OBJECT
 10
4045.661800227324
 20
-3356.9999999999959
 30
0.0
 11
4080.0
 21
-3356.9999999999959
 31
0.0
1001
ACDBBLOCKREPETAG
1070
     1
1071
       20
1005
12E9E0
  0
POINT
  5
12E9E1
  8
DOTS
 10
4000.0
 20
-3294.9999999999959
 30
0.0
1001
ACDBBLOCKREPETAG
1070
     1
1071
       21
1005
12E9E1
  0
CIRCLE
  5
12E9E2
  8
OBJECT
 10
3000.0
 20
-3294.9999999999959
 30
0.0
 40
53.5
1001
ACDBBLOCKREPETAG
1070
     1
1071
      344
1005
12E9E2
  0
LINE
  5
12E9E3
  8
CENTER
 10
3080.0
 20
-3294.9999999999959
 30
0.0
 11
2905.0
 21
-3294.9999999999959
 31
0.0
1001
ACDBBLOCKREPETAG
1070
     1
1071
       14
1005
12E9E3
  0
LINE
  5
12E9E4
  8
CENTER
 10
3000.0
 20
-3389.9999999999968
 30
0.0
 11
3000.0
 21
-3199.9999999999959
 31
0.0
1001
ACDBBLOCKREPETAG
1070
     1
1071
       15
1005
12E9E4
  0
CIRCLE
  5
12E9E5
  8
OBJECT
 10
3000.0
 20
-3294.9999999999959
 30
0.0
 40
70.0
1001
ACDBBLOCKREPETAG
1070
     1
1071
       16
1005
12E9E5
  0
CIRCLE
  5
12E9E6
  8
OBJECT
 10
3000.0
 20
-3294.9999999999959
 30
0.0
 40
77.0
1001
ACDBBLOCKREPETAG
1070
     1
1071
       17
1005
12E9E6
  0
ARC
  5
12E9E7
  8
OBJECT
 10
3000.0
 20
-3294.9999999999959
 30
0.0
 40
80.0
 50
50.805032573862128
 51
309.19496742613791
1001
ACDBBLOCKREPETAG
1070
     1
1071
       18
1005
12E9E7
  0
LINE
  5
12E9E8
  8
OBJECT
 10
3045.6618002273249
 20
-3232.9999999999959
 30
0.0
 11
3080.0
 21
-3232.9999999999959
 31
0.0
1001
ACDBBLOCKREPETAG
1070
     1
1071
       19
1005
12E9E8
  0
LINE
  5
12E9E9
  8
OBJECT
 10
3045.6618002273249
 20
-3356.9999999999959
 30
0.0
 11
3080.0
 21
-3356.9999999999959
 31
0.0
1001
ACDBBLOCKREPETAG
1070
     1
1071
       20
1005
12E9E9
  0
POINT
  5
12E9EA
  8
DOTS
 10
3000.0
 20
-3294.9999999999959
 30
0.0
1001
ACDBBLOCKREPETAG
1070
     1
1071
       21
1005
12E9EA
  0
CIRCLE
  5
12E9EB
  8
OBJECT
 10
2000.0
 20
-3294.9999999999959
 30
0.0
 40
53.5
1001
ACDBBLOCKREPETAG
1070
     1
1071
      344
1005
12E9EB
  0
LINE
  5
12E9EC
  8
CENTER
 10
2080.0
 20
-3294.9999999999959
 30
0.0
 11
1905.0
 21
-3294.9999999999959
 31
0.0
1001
ACDBBLOCKREPETAG
1070
     1
1071
       14
1005
12E9EC
  0
LINE
  5
12E9ED
  8
CENTER
 10
2000.0
 20
-3389.9999999999968
 30
0.0
 11
2000.0
 21
-3199.9999999999959
 31
0.0
1001
ACDBBLOCKREPETAG
1070
     1
1071
       15
1005
12E9ED
  0
CIRCLE
  5
12E9EE
  8
OBJECT
 10
2000.0
 20
-3294.9999999999959
 30
0.0
 40
70.0
1001
ACDBBLOCKREPETAG
1070
     1
1071
       16
1005
12E9EE
  0
CIRCLE
  5
12E9EF
  8
OBJECT
 10
2000.0
 20
-3294.9999999999959
 30
0.0
 40
77.0
1001
ACDBBLOCKREPETAG
1070
     1
1071
       17
1005
12E9EF
  0
ARC
  5
12E9F0
  8
OBJECT
 10
2000.0
 20
-3294.9999999999959
 30
0.0
 40
80.0
 50
50.805032573862128
 51
309.19496742613791
1001
ACDBBLOCKREPETAG
1070
     1
1071
       18
1005
12E9F0
  0
LINE
  5
12E9F1
  8
OBJECT
 10
2045.6618002273251
 20
-3232.9999999999959
 30
0.0
 11
2080.0
 21
-3232.9999999999959
 31
0.0
1001
ACDBBLOCKREPETAG
1070
     1
1071
       19
1005
12E9F1
  0
LINE
  5
12E9F2
  8
OBJECT
 10
2045.6618002273251
 20
-3356.9999999999959
 30
0.0
 11
2080.0
 21
-3356.9999999999959
 31
0.0
1001
ACDBBLOCKREPETAG
1070
     1
1071
       20
1005
12E9F2
  0
POINT
  5
12E9F3
  8
DOTS
 10
2000.0
 20
-3294.9999999999959
 30
0.0
1001
ACDBBLOCKREPETAG
1070
     1
1071
       21
1005
12E9F3
  0
LINE
  5
12E9F4
  8
SLIM
 10
3945.2566704261012
 20
-137.99999999999909
 30
0.0
 11
3955.9548403695781
 21
-127.30183005652231
 31
0.0
1001
GRADIENTCOLOR1ACI
1070
     5
1001
GRADIENTCOLOR2ACI
1070
     2
1001
ACAD
1010
0.0
1020
0.0
1030
0.0
1001
ACDBBLOCKREPETAG
1070
     1
1071
      422
1005
12E9F4
  0
LINE
  5
12E9F5
  8
SLIM
 10
3954.2369265471712
 20
-137.99999999999909
 30
0.0
 11
3972.7507744763329
 21
-119.4861520708364
 31
0.0
1001
GRADIENTCOLOR1ACI
1070
     5
1001
GRADIENTCOLOR2ACI
1070
     2
1001
ACAD
1010
0.0
1020
0.0
1030
0.0
1001
ACDBBLOCKREPETAG
1070
     1
1071
      423
1005
12E9F5
  0
LINE
  5
12E9F6
  8
SLIM
 10
3973.521224312457
 20
-127.6959583557812
 30
0.0
 11
3984.8575146748631
 21
-116.359667993377
 31
0.0
1001
GRADIENTCOLOR1ACI
1070
     5
1001
GRADIENTCOLOR2ACI
1070
     2
1001
ACAD
1010
0.0
1020
0.0
1030
0.0
1001
ACDBBLOCKREPETAG
1070
     1
1071
      424
1005
12E9F6
  0
LINE
  5
12E9F7
  8
SLIM
 10
3985.8944171461271
 20
-124.30302164318159
 30
0.0
 11
3995.0533812002559
 21
-115.1440575890517
 31
0.0
1001
GRADIENTCOLOR1ACI
1070
     5
1001
GRADIENTCOLOR2ACI
1070
     2
1001
ACAD
1010
0.0
1020
0.0
1030
0.0
1001
ACDBBLOCKREPETAG
1070
     1
1071
      425
1005
12E9F7
  0
LINE
  5
12E9F8
  8
SLIM
 10
3996.0777327492078
 20
-123.0999621611699
 30
0.0
 11
4000.0
 21
-119.1776949103767
 31
0.0
1001
GRADIENTCOLOR1ACI
1070
     5
1001
GRADIENTCOLOR2ACI
1070
     2
1001
ACAD
1010
0.0
1020
0.0
1030
0.0
1001
ACDBBLOCKREPETAG
1070
     1
1071
      426
1005
12E9F8
  0
LINE
  5
12E9F9
  8
SLIM
 10
4000.0
 20
-119.1776949103767
 30
0.0
 11
4004.0797313529042
 21
-115.0979635574724
 31
0.0
1001
GRADIENTCOLOR1ACI
1070
     5
1001
GRADIENTCOLOR2ACI
1070
     2
1001
ACAD
1010
0.0
1020
0.0
1030
0.0
1001
ACDBBLOCKREPETAG
1070
     1
1071
      427
1005
12E9F9
  0
LINE
  5
12E9FA
  8
SLIM
 10
4004.9957202542769
 20
-123.1622307771683
 30
0.0
 11
4012.2679784105749
 21
-115.88997262087101
 31
0.0
1001
GRADIENTCOLOR1ACI
1070
     5
1001
GRADIENTCOLOR2ACI
1070
     2
1001
ACAD
1010
0.0
1020
0.0
1030
0.0
1001
ACDBBLOCKREPETAG
1070
     1
1071
      428
1005
12E9FA
  0
LINE
  5
12E9FB
  8
SLIM
 10
4013.028059366964
 20
-124.1101477855505
 30
0.0
 11
4019.799941457361
 21
-117.3382656951526
 31
0.0
1001
GRADIENTCOLOR1ACI
1070
     5
1001
GRADIENTCOLOR2ACI
1070
     2
1001
ACAD
1010
0.0
1020
0.0
1030
0.0
1001
ACDBBLOCKREPETAG
1070
     1
1071
      429
1005
12E9FB
  0
LINE
  5
12E9FC
  8
SLIM
 10
4020.3740813142458
 20
-125.7443819593383
 30
0.0
 11
4026.7872038672799
 21
-119.3312594063044
 31
0.0
1001
GRADIENTCOLOR1ACI
1070
     5
1001
GRADIENTCOLOR2ACI
1070
     2
1001
ACAD
1010
0.0
1020
0.0
1030
0.0
1001
ACDBBLOCKREPETAG
1070
     1
1071
      430
1005
12E9FC
  0
LINE
  5
12E9FD
  8
SLIM
 10
4027.1524719988752
 20
-127.946247395778
 30
0.0
 11
4033.3030030760328
 21
-121.7957163186195
 31
0.0
1001
GRADIENTCOLOR1ACI
1070
     5
1001
GRADIENTCOLOR2ACI
1070
     2
1001
ACAD
1010
0.0
1020
0.0
1030
0.0
1001
ACDBBLOCKREPETAG
1070
     1
1071
      431
1005
12E9FD
  0
LINE
  5
12E9FE
  8
SLIM
 10
4033.4390986513308
 20
-130.63987686439191
 30
0.0
 11
4039.3973119843781
 21
-124.6816635313439
 31
0.0
1001
GRADIENTCOLOR1ACI
1070
     5
1001
GRADIENTCOLOR2ACI
1070
     2
1001
ACAD
1010
0.0
1020
0.0
1030
0.0
1001
ACDBBLOCKREPETAG
1070
     1
1071
      432
1005
12E9FE
  0
LINE
  5
12E9FF
  8
SLIM
 10
4039.284224621797
 20
-133.77500701499321
 30
0.0
 11
4045.1047705343681
 21
-127.95446110242381
 31
0.0
1001
GRADIENTCOLOR1ACI
1070
     5
1001
GRADIENTCOLOR2ACI
1070
     2
1001
ACAD
1010
0.0
1020
0.0
1030
0.0
1001
ACDBBLOCKREPETAG
1070
     1
1071
      433
1005
12E9FF
  0
LINE
  5
12EA00
  8
SLIM
 10
4044.7212801698038
 20
-137.31820758805651
 30
0.0
 11
4050.4491557891961
 21
-131.59033196866449
 31
0.0
1001
GRADIENTCOLOR1ACI
1070
     5
1001
GRADIENTCOLOR2ACI
1070
     2
1001
ACAD
1010
0.0
1020
0.0
1030
0.0
1001
ACDBBLOCKREPETAG
1070
     1
1071
      434
1005
12EA00
  0
LINE
  5
12EA01
  8
SLIM
 10
4053.0197438789291
 20
-137.99999999999909
 30
0.0
 11
4055.4459941864038
 21
-135.57374969252561
 31
0.0
1001
GRADIENTCOLOR1ACI
1070
     5
1001
GRADIENTCOLOR2ACI
1070
     2
1001
ACAD
1010
0.0
1020
0.0
1030
0.0
1001
ACDBBLOCKREPETAG
1070
     1
1071
      435
1005
12EA01
  0
LINE
  5
12EA02
  8
CENTER
 10
4000.0
 20
-279.99999999999909
 30
0.0
 11
4000.0
 21
-99.999999999999091
 31
0.0
1001
ACDBBLOCKREPETAG
1070
     1
1071
      160
1005
12EA02
  0
CIRCLE
  5
12EA03
  8
OBJECT
 10
4000.0
 20
-199.99999999999909
 30
0.0
 40
70.0
1001
ACDBBLOCKREPETAG
1070
     1
1071
      161
1005
12EA03
  0
CIRCLE
  5
12EA04
  8
OBJECT
 10
4000.0
 20
-199.99999999999909
 30
0.0
 40
77.0
1001
ACDBBLOCKREPETAG
1070
     1
1071
      162
1005
12EA04
  0
LINE
  5
12EA05
  8
OBJECT
 10
4045.661800227324
 20
-137.99999999999909
 30
0.0
 11
4080.0
 21
-137.99999999999909
 31
0.0
1001
ACDBBLOCKREPETAG
1070
     1
1071
      164
1005
12EA05
  0
LINE
  5
12EA06
  8
OBJECT
 10
4062.0
 20
-261.99999999999909
 30
0.0
 11
4080.0
 21
-261.99999999999909
 31
0.0
1001
ACDBBLOCKREPETAG
1070
     1
1071
      165
1005
12EA06
  0
LINE
  5
12EA07
  8
OBJECT
 10
4062.0
 20
-261.99999999999909
 30
0.0
 11
4062.0
 21
-279.99999999999909
 31
0.0
1001
ACDBBLOCKREPETAG
1070
     1
1071
      167
1005
12EA07
  0
LINE
  5
12EA08
  8
OBJECT
 10
3938.0
 20
-261.99999999999909
 30
0.0
 11
3938.0
 21
-279.99999999999909
 31
0.0
1001
ACDBBLOCKREPETAG
1070
     1
1071
      168
1005
12EA08
  0
LINE
  5
12EA09
  8
OBJECT
 10
3938.0
 20
-261.99999999999909
 30
0.0
 11
3920.0
 21
-261.99999999999909
 31
0.0
1001
ACDBBLOCKREPETAG
1070
     1
1071
      170
1005
12EA09
  0
LINE
  5
12EA0A
  8
OBJECT
 10
3954.338199772676
 20
-137.99999999999909
 30
0.0
 11
3920.0
 21
-137.99999999999909
 31
0.0
1001
ACDBBLOCKREPETAG
1070
     1
1071
      171
1005
12EA0A
  0
LINE
  5
12EA0B
  8
OBJECT
 10
3945.5527778486362
 20
-254.44722215136329
 30
0.0
 11
3938.0
 21
-261.99999999999909
 31
0.0
1001
ACDBBLOCKREPETAG
1070
     1
1071
      180
1005
12EA0B
  0
LINE
  5
12EA0C
  8
OBJECT
 10
4054.4472221513638
 20
-254.44722215136329
 30
0.0
 11
4062.0
 21
-261.99999999999909
 31
0.0
1001
ACDBBLOCKREPETAG
1070
     1
1071
      181
1005
12EA0C
  0
POINT
  5
12EA0D
  8
DOTS
 10
4000.0
 20
-199.99999999999909
 30
0.0
 50
270.0
1001
ACDBBLOCKREPETAG
1070
     1
1071
      182
1005
12EA0D
  0
ARC
  5
12EA0E
  8
OBJECT
 10
4000.0
 20
-199.99999999999909
 30
0.0
 40
85.0
 50
46.837102859806208
 51
133.16289714019371
1001
ACDBBLOCKREPETAG
1070
     1
1071
      183
1005
12EA0E
  0
CIRCLE
  5
12EA0F
  8
OBJECT
 10
4000.0
 20
-199.99999999999909
 30
0.0
 40
53.5
1001
ACDBBLOCKREPETAG
1070
     1
1071
      352
1005
12EA0F
  0
LINE
  5
12EA10
  8
CENTER
 10
4080.0
 20
-199.99999999999909
 30
0.0
 11
3920.0
 21
-199.99999999999909
 31
0.0
1001
ACDBBLOCKREPETAG
1070
     1
1071
      158
1005
12EA10
  0
CIRCLE
  5
12EA11
  8
OBJECT
 10
2000.0
 20
-199.99999999999909
 30
0.0
 40
53.5
1001
ACDBBLOCKREPETAG
1070
     1
1071
      340
1005
12EA11
  0
LINE
  5
12EA12
  8
CENTER
 10
2080.0
 20
-199.99999999999909
 30
0.0
 11
1920.0
 21
-199.99999999999909
 31
0.0
1001
ACDBBLOCKREPETAG
1070
     1
1071
       49
1005
12EA12
  0
LINE
  5
12EA13
  8
CENTER
 10
2000.0
 20
-279.99999999999909
 30
0.0
 11
2000.0
 21
-104.9999999999991
 31
0.0
1001
ACDBBLOCKREPETAG
1070
     1
1071
       50
1005
12EA13
  0
CIRCLE
  5
12EA14
  8
OBJECT
 10
2000.0
 20
-199.99999999999909
 30
0.0
 40
70.0
1001
ACDBBLOCKREPETAG
1070
     1
1071
       51
1005
12EA14
  0
CIRCLE
  5
12EA15
  8
OBJECT
 10
2000.0
 20
-199.99999999999909
 30
0.0
 40
77.0
1001
ACDBBLOCKREPETAG
1070
     1
1071
       52
1005
12EA15
  0
ARC
  5
12EA16
  8
OBJECT
 10
2000.0
 20
-199.99999999999909
 30
0.0
 40
80.0
 50
50.805032573864182
 51
129.1949674261358
1001
ACDBBLOCKREPETAG
1070
     1
1071
       53
1005
12EA16
  0
LINE
  5
12EA17
  8
OBJECT
 10
2045.6618002273251
 20
-137.99999999999909
 30
0.0
 11
2080.0
 21
-137.99999999999909
 31
0.0
1001
ACDBBLOCKREPETAG
1070
     1
1071
       54
1005
12EA17
  0
LINE
  5
12EA18
  8
OBJECT
 10
2062.0
 20
-261.99999999999909
 30
0.0
 11
2080.0
 21
-261.99999999999909
 31
0.0
1001
ACDBBLOCKREPETAG
1070
     1
1071
       55
1005
12EA18
  0
LINE
  5
12EA19
  8
OBJECT
 10
2062.0
 20
-261.99999999999909
 30
0.0
 11
2062.0
 21
-279.99999999999909
 31
0.0
1001
ACDBBLOCKREPETAG
1070
     1
1071
       57
1005
12EA19
  0
LINE
  5
12EA1A
  8
OBJECT
 10
1938.0
 20
-261.99999999999909
 30
0.0
 11
1938.0
 21
-279.99999999999909
 31
0.0
1001
ACDBBLOCKREPETAG
1070
     1
1071
       58
1005
12EA1A
  0
POINT
  5
12EA1B
  8
DOTS
 10
2000.0
 20
-199.99999999999909
 30
0.0
 50
90.0
1001
ACDBBLOCKREPETAG
1070
     1
1071
       59
1005
12EA1B
  0
LINE
  5
12EA1C
  8
OBJECT
 10
1938.0
 20
-261.99999999999909
 30
0.0
 11
1920.0
 21
-261.99999999999909
 31
0.0
1001
ACDBBLOCKREPETAG
1070
     1
1071
       60
1005
12EA1C
  0
LINE
  5
12EA1D
  8
OBJECT
 10
1954.3381997726749
 20
-137.99999999999909
 30
0.0
 11
1920.0
 21
-137.99999999999909
 31
0.0
1001
ACDBBLOCKREPETAG
1070
     1
1071
       61
1005
12EA1D
  0
LINE
  5
12EA1E
  8
OBJECT
 10
1945.5527778486351
 20
-254.44722215136329
 30
0.0
 11
1938.0
 21
-261.99999999999909
 31
0.0
1001
ACDBBLOCKREPETAG
1070
     1
1071
       42
1005
12EA1E
  0
LINE
  5
12EA1F
  8
OBJECT
 10
2054.4472221513638
 20
-254.44722215136329
 30
0.0
 11
2062.0
 21
-261.99999999999909
 31
0.0
1001
ACDBBLOCKREPETAG
1070
     1
1071
       43
1005
12EA1F
  0
TEXT
  5
12EA20
  8
SLIM
 10
1837.75
 20
282.50000000000011
 30
0.0
 40
35.0
  1
（枝管サイズ毎に寸法が異なります。管底の位置は50～100で同じです）
 41
0.75
  0
TEXT
  5
12EA21
  8
SLIM
 10
1850.0
 20
532.5
 30
0.0
 40
75.0
  1
側面図の代表機種
 41
0.75
  0
TEXT
  5
12EA22
  8
SLIM
 10
1850.0
 20
369.99999999999989
 30
0.0
 40
100.0
  1
4SRT-Z306-P110
 41
0.75
  0
LINE
  5
12EA23
  8
OBJECT
 10
3797.0000000000159
 20
-261.99999999999909
 30
0.0
 11
3790.0000000000159
 21
-261.99999999999909
 31
0.0
1001
ACDBBLOCKREPETAG
1070
     1
1071
       85
1005
12EA23
  0
LINE
  5
12EA24
  8
OBJECT
 10
3790.0000000000159
 20
-261.99999999999909
 30
0.0
 11
3790.0000000000159
 21
-137.99999999999909
 31
0.0
1001
ACDBBLOCKREPETAG
1070
     1
1071
       86
1005
12EA24
  0
LINE
  5
12EA25
  8
OBJECT
 10
3790.0000000000159
 20
-137.99999999999909
 30
0.0
 11
3797.0000000000159
 21
-137.99999999999909
 31
0.0
1001
ACDBBLOCKREPETAG
1070
     1
1071
       87
1005
12EA25
  0
LINE
  5
12EA26
  8
OBJECT
 10
3797.0000000000159
 20
-137.99999999999909
 30
0.0
 11
3797.0000000000159
 21
-261.99999999999909
 31
0.0
1001
ACDBBLOCKREPETAG
1070
     1
1071
       88
1005
12EA26
  0
LINE
  5
12EA27
  8
CENTER
 10
3775.0000000000159
 20
-199.99999999999909
 30
0.0
 11
3920.0
 21
-199.99999999999909
 31
0.0
1001
ACDBBLOCKREPETAG
1070
     1
1071
       89
1005
12EA27
  0
LINE
  5
12EA28
  8
OBJECT
 10
3850.000025035813
 20
-154.9999999999954
 30
0.0
 11
3914.0
 21
-154.99999999999909
 31
0.0
1001
ACDBBLOCKREPETAG
1070
     1
1071
       90
1005
12EA28
  0
LINE
  5
12EA29
  8
OBJECT
 10
3850.000025035813
 20
-244.99999999999909
 30
0.0
 11
3914.0
 21
-244.99999999999909
 31
0.0
1001
ACDBBLOCKREPETAG
1070
     1
1071
       91
1005
12EA29
  0
LINE
  5
12EA2A
  8
OBJECT
 10
3797.0000000000159
 20
-258.99999999999909
 30
0.0
 11
3833.0000000000159
 21
-258.99999999999909
 31
0.0
1001
ACDBBLOCKREPETAG
1070
     1
1071
       92
1005
12EA2A
  0
LINE
  5
12EA2B
  8
OBJECT
 10
3833.0000000000159
 20
-258.99999999999909
 30
0.0
 11
3833.0000000000159
 21
-140.99999999999909
 31
0.0
1001
ACDBBLOCKREPETAG
1070
     1
1071
       93
1005
12EA2B
  0
LINE
  5
12EA2C
  8
OBJECT
 10
3833.0000000000159
 20
-140.99999999999909
 30
0.0
 11
3797.0000000000159
 21
-140.99999999999909
 31
0.0
1001
ACDBBLOCKREPETAG
1070
     1
1071
       94
1005
12EA2C
  0
LINE
  5
12EA2D
  8
OBJECT
 10
3837.0000000000159
 20
-254.49999999999909
 30
0.0
 11
3850.000000000015
 21
-254.49999999999909
 31
0.0
1001
ACDBBLOCKREPETAG
1070
     1
1071
       95
1005
12EA2D
  0
LINE
  5
12EA2E
  8
OBJECT
 10
3850.000000000015
 20
-145.49999999999909
 30
0.0
 11
3837.0000000000159
 21
-145.49999999999909
 31
0.0
1001
ACDBBLOCKREPETAG
1070
     1
1071
       96
1005
12EA2E
  0
LINE
  5
12EA2F
  8
OBJECT
 10
3837.0000000000159
 20
-145.49999999999909
 30
0.0
 11
3837.0000000000159
 21
-254.49999999999909
 31
0.0
1001
ACDBBLOCKREPETAG
1070
     1
1071
       97
1005
12EA2F
  0
LINE
  5
12EA30
  8
OBJECT
 10
3833.0000000000159
 20
-258.99999999999909
 30
0.0
 11
3837.0000000000159
 21
-254.49999999999909
 31
0.0
1001
ACDBBLOCKREPETAG
1070
     1
1071
       98
1005
12EA30
  0
LINE
  5
12EA31
  8
OBJECT
 10
3833.0000000000159
 20
-140.99999999999909
 30
0.0
 11
3837.0000000000159
 21
-145.49999999999909
 31
0.0
1001
ACDBBLOCKREPETAG
1070
     1
1071
       99
1005
12EA31
  0
LINE
  5
12EA32
  8
OBJECT
 10
3917.0
 20
-261.99999999999909
 30
0.0
 11
3920.0
 21
-261.99999999999909
 31
0.0
1001
ACDBBLOCKREPETAG
1070
     1
1071
      100
1005
12EA32
  0
ARC
  5
12EA33
  8
OBJECT
 10
3917.0
 20
-258.99999999999909
 30
0.0
 40
3.0
 50
180.0
 51
270.0
1001
ACDBBLOCKREPETAG
1070
     1
1071
      101
1005
12EA33
  0
LINE
  5
12EA34
  8
OBJECT
 10
3920.0
 20
-137.99999999999909
 30
0.0
 11
3917.0
 21
-137.99999999999909
 31
0.0
1001
ACDBBLOCKREPETAG
1070
     1
1071
      102
1005
12EA34
  0
ARC
  5
12EA35
  8
OBJECT
 10
3917.0
 20
-140.99999999999909
 30
0.0
 40
3.0
 50
90.0
 51
180.0
1001
ACDBBLOCKREPETAG
1070
     1
1071
      103
1005
12EA35
  0
LINE
  5
12EA36
  8
OBJECT
 10
3914.0
 20
-140.99999999999909
 30
0.0
 11
3914.0
 21
-189.6772096796403
 31
0.0
1001
ACDBBLOCKREPETAG
1070
     1
1071
      104
1005
12EA36
  0
LINE
  5
12EA37
  8
OBJECT
 10
3914.0
 20
-210.3227903203578
 30
0.0
 11
3914.0
 21
-258.99999999999909
 31
0.0
1001
ACDBBLOCKREPETAG
1070
     1
1071
      105
1005
12EA37
  0
LINE
  5
12EA38
  8
HIDDEN
 10
3842.0000000000159
 20
-244.49999999999909
 30
0.0
 11
3842.0000000000159
 21
-155.49999999999909
 31
0.0
1001
ACDBBLOCKREPETAG
1070
     1
1071
      106
1005
12EA38
  0
LINE
  5
12EA39
  8
OBJECT
 10
3850.000025035813
 20
-145.50004907618759
 30
0.0
 11
3850.000025035813
 21
-254.50004907618771
 31
0.0
1001
ACDBBLOCKREPETAG
1070
     1
1071
      108
1005
12EA39
  0
ARC
  5
12EA3A
  8
OBJECT
 10
3870.1999999999771
 20
-199.99999999999909
 30
0.0
 40
45.000000000000547
 50
270.0
 51
90.0
1001
ACDBBLOCKREPETAG
1070
     1
1071
      109
1005
12EA3A
  0
LINE
  5
12EA3B
  8
CENTER
 10
4000.0
 20
-300.99999999999898
 30
0.0
 11
4000.0
 21
-279.99999999999909
 31
0.0
1001
ACDBBLOCKREPETAG
1070
     1
1071
        0
1005
12EA3B
  0
LINE
  5
12EA3C
  8
OBJECT
 10
4062.0
 20
-283.0
 30
0.0
 11
4062.0
 21
-279.99999999999909
 31
0.0
1001
ACDBBLOCKREPETAG
1070
     1
1071
        1
1005
12EA3C
  0
ARC
  5
12EA3D
  8
OBJECT
 10
4059.0
 20
-283.0
 30
0.0
 40
3.0
 50
270.0
 51
0.0
1001
ACDBBLOCKREPETAG
1070
     1
1071
        2
1005
12EA3D
  0
LINE
  5
12EA3E
  8
OBJECT
 10
3938.0
 20
-279.99999999999909
 30
0.0
 11
3938.0
 21
-282.99999999999818
 31
0.0
1001
ACDBBLOCKREPETAG
1070
     1
1071
        3
1005
12EA3E
  0
ARC
  5
12EA3F
  8
OBJECT
 10
3941.0
 20
-282.99999999999818
 30
0.0
 40
3.0
 50
180.0
 51
270.0
1001
ACDBBLOCKREPETAG
1070
     1
1071
        4
1005
12EA3F
  0
LINE
  5
12EA40
  8
OBJECT
 10
3941.0
 20
-285.99999999999818
 30
0.0
 11
4059.0
 21
-286.0
 31
0.0
1001
ACDBBLOCKREPETAG
1070
     1
1071
        5
1005
12EA40
  0
LINE
  5
12EA41
  8
OBJECT
 10
4133.0
 20
-137.99999999999909
 30
0.0
 11
4140.0
 21
-137.99999999999909
 31
0.0
1001
ACDBBLOCKREPETAG
1070
     1
1071
       47
1005
12EA41
  0
LINE
  5
12EA42
  8
OBJECT
 10
4140.0
 20
-137.99999999999909
 30
0.0
 11
4140.0
 21
-261.99999999999909
 31
0.0
1001
ACDBBLOCKREPETAG
1070
     1
1071
       48
1005
12EA42
  0
LINE
  5
12EA43
  8
OBJECT
 10
4140.0
 20
-261.99999999999909
 30
0.0
 11
4133.0
 21
-261.99999999999909
 31
0.0
1001
ACDBBLOCKREPETAG
1070
     1
1071
       49
1005
12EA43
  0
LINE
  5
12EA44
  8
OBJECT
 10
4133.0
 20
-261.99999999999909
 30
0.0
 11
4133.0
 21
-137.99999999999909
 31
0.0
1001
ACDBBLOCKREPETAG
1070
     1
1071
       50
1005
12EA44
  0
LINE
  5
12EA45
  8
CENTER
 10
4155.0
 20
-199.99999999999909
 30
0.0
 11
4080.0
 21
-199.99999999999909
 31
0.0
1001
ACDBBLOCKREPETAG
1070
     1
1071
       51
1005
12EA45
  0
LINE
  5
12EA46
  8
OBJECT
 10
4133.0
 20
-140.99999999999909
 30
0.0
 11
4097.0
 21
-140.99999999999909
 31
0.0
1001
ACDBBLOCKREPETAG
1070
     1
1071
       52
1005
12EA46
  0
LINE
  5
12EA47
  8
OBJECT
 10
4097.0
 20
-140.99999999999909
 30
0.0
 11
4097.0
 21
-258.99999999999909
 31
0.0
1001
ACDBBLOCKREPETAG
1070
     1
1071
       53
1005
12EA47
  0
LINE
  5
12EA48
  8
OBJECT
 10
4097.0
 20
-258.99999999999909
 30
0.0
 11
4133.0
 21
-258.99999999999909
 31
0.0
1001
ACDBBLOCKREPETAG
1070
     1
1071
       54
1005
12EA48
  0
LINE
  5
12EA49
  8
OBJECT
 10
4093.0
 20
-145.49999999999909
 30
0.0
 11
4086.0
 21
-145.49999999999909
 31
0.0
1001
ACDBBLOCKREPETAG
1070
     1
1071
       55
1005
12EA49
  0
LINE
  5
12EA4A
  8
OBJECT
 10
4086.0
 20
-254.49999999999909
 30
0.0
 11
4093.0
 21
-254.49999999999909
 31
0.0
1001
ACDBBLOCKREPETAG
1070
     1
1071
       56
1005
12EA4A
  0
LINE
  5
12EA4B
  8
OBJECT
 10
4093.0
 20
-254.49999999999909
 30
0.0
 11
4093.0
 21
-145.49999999999909
 31
0.0
1001
ACDBBLOCKREPETAG
1070
     1
1071
       57
1005
12EA4B
  0
LINE
  5
12EA4C
  8
OBJECT
 10
4097.0
 20
-140.99999999999909
 30
0.0
 11
4093.0
 21
-145.49999999999909
 31
0.0
1001
ACDBBLOCKREPETAG
1070
     1
1071
       58
1005
12EA4C
  0
LINE
  5
12EA4D
  8
OBJECT
 10
4097.0
 20
-258.99999999999909
 30
0.0
 11
4093.0
 21
-254.49999999999909
 31
0.0
1001
ACDBBLOCKREPETAG
1070
     1
1071
       59
1005
12EA4D
  0
LINE
  5
12EA4E
  8
OBJECT
 10
4083.0
 20
-137.99999999999909
 30
0.0
 11
4080.0
 21
-137.99999999999909
 31
0.0
1001
ACDBBLOCKREPETAG
1070
     1
1071
       60
1005
12EA4E
  0
ARC
  5
12EA4F
  8
OBJECT
 10
4083.0
 20
-140.99999999999909
 30
0.0
 40
3.0
 50
0.0
 51
90.0
1001
ACDBBLOCKREPETAG
1070
     1
1071
       61
1005
12EA4F
  0
LINE
  5
12EA50
  8
OBJECT
 10
4080.0
 20
-261.99999999999909
 30
0.0
 11
4083.0
 21
-261.99999999999909
 31
0.0
1001
ACDBBLOCKREPETAG
1070
     1
1071
       62
1005
12EA50
  0
ARC
  5
12EA51
  8
OBJECT
 10
4083.0
 20
-258.99999999999909
 30
0.0
 40
3.0
 50
270.0
 51
0.0
1001
ACDBBLOCKREPETAG
1070
     1
1071
       63
1005
12EA51
  0
LINE
  5
12EA52
  8
OBJECT
 10
4086.0
 20
-258.99999999999909
 30
0.0
 11
4086.0
 21
-140.99999999999909
 31
0.0
1001
ACDBBLOCKREPETAG
1070
     1
1071
       64
1005
12EA52
  0
LINE
  5
12EA53
  8
HIDDEN
 10
4088.0
 20
-155.49999999999909
 30
0.0
 11
4088.0
 21
-244.49999999999909
 31
0.0
1001
ACDBBLOCKREPETAG
1070
     1
1071
       65
1005
12EA53
  0
LINE
  5
12EA54
  8
OBJECT
 10
3797.0000000000159
 20
-583.0
 30
0.0
 11
3790.0000000000159
 21
-583.0
 31
0.0
1001
ACDBBLOCKREPETAG
1070
     1
1071
       83
1005
12EA54
  0
LINE
  5
12EA55
  8
OBJECT
 10
3790.0000000000159
 20
-583.0
 30
0.0
 11
3790.0000000000159
 21
-707.0
 31
0.0
1001
ACDBBLOCKREPETAG
1070
     1
1071
       84
1005
12EA55
  0
LINE
  5
12EA56
  8
OBJECT
 10
3914.0000000000159
 20
-653.3502637757274
 30
0.0
 11
3914.0000000000159
 21
-755.00000000000102
 31
0.0
1001
ACDBBLOCKREPETAG
1070
     1
1071
       85
1005
12EA56
  0
LINE
  5
12EA57
  8
OBJECT
 10
3790.0000000000159
 20
-707.0
 30
0.0
 11
3797.0000000000159
 21
-707.0
 31
0.0
1001
ACDBBLOCKREPETAG
1070
     1
1071
       86
1005
12EA57
  0
LINE
  5
12EA58
  8
OBJECT
 10
3797.0000000000159
 20
-707.0
 30
0.0
 11
3797.0000000000159
 21
-583.0
 31
0.0
1001
ACDBBLOCKREPETAG
1070
     1
1071
       87
1005
12EA58
  0
LINE
  5
12EA59
  8
CENTER
 10
3865.0000000000159
 20
-645.0000000000008
 30
0.0
 11
3775.0000000000159
 21
-645.0
 31
0.0
1001
ACDBBLOCKREPETAG
1070
     1
1071
       88
1005
12EA59
  0
LINE
  5
12EA5A
  8
OBJECT
 10
3920.0000000000182
 20
-758.0
 30
0.0
 11
3917.0000000000141
 21
-758.0000000000008
 31
0.0
1001
ACDBBLOCKREPETAG
1070
     1
1071
       89
1005
12EA5A
  0
ARC
  5
12EA5B
  8
OBJECT
 10
3917.0000000000141
 20
-755.00000000000102
 30
0.0
 40
3.0
 50
180.0
 51
270.0
1001
ACDBBLOCKREPETAG
1070
     1
1071
       90
1005
12EA5B
  0
LINE
  5
12EA5C
  8
OBJECT
 10
3797.0000000000159
 20
-586.0
 30
0.0
 11
3833.0000000000159
 21
-586.0000000000008
 31
0.0
1001
ACDBBLOCKREPETAG
1070
     1
1071
       91
1005
12EA5C
  0
LINE
  5
12EA5D
  8
OBJECT
 10
3833.0000000000159
 20
-586.0000000000008
 30
0.0
 11
3833.0000000000159
 21
-704.0000000000008
 31
0.0
1001
ACDBBLOCKREPETAG
1070
     1
1071
       92
1005
12EA5D
  0
LINE
  5
12EA5E
  8
OBJECT
 10
3837.0000000000159
 20
-590.5000000000008
 30
0.0
 11
3837.0000000000159
 21
-699.5000000000008
 31
0.0
1001
ACDBBLOCKREPETAG
1070
     1
1071
       93
1005
12EA5E
  0
LINE
  5
12EA5F
  8
OBJECT
 10
3837.0000000000159
 20
-590.5000000000008
 30
0.0
 11
3850.000000000015
 21
-590.5000000000008
 31
0.0
1001
ACDBBLOCKREPETAG
1070
     1
1071
       94
1005
12EA5F
  0
LINE
  5
12EA60
  8
OBJECT
 10
3833.0000000000159
 20
-704.0000000000008
 30
0.0
 11
3797.0000000000159
 21
-704.0
 31
0.0
1001
ACDBBLOCKREPETAG
1070
     1
1071
       95
1005
12EA60
  0
LINE
  5
12EA61
  8
OBJECT
 10
3833.0000000000159
 20
-586.0000000000008
 30
0.0
 11
3837.0000000000159
 21
-590.5000000000008
 31
0.0
1001
ACDBBLOCKREPETAG
1070
     1
1071
       96
1005
12EA61
  0
LINE
  5
12EA62
  8
OBJECT
 10
3850.000000000015
 20
-590.5000000000008
 30
0.0
 11
3850.000000000015
 21
-675.74491827928784
 31
0.0
1001
ACDBBLOCKREPETAG
1070
     1
1071
       97
1005
12EA62
  0
ARC
  5
12EA63
  8
OBJECT
 10
3847.2000000000148
 20
-685.0000000000008
 30
0.0
 40
85.0
 50
36.869897645906562
 51
88.112268108168848
1001
ACDBBLOCKREPETAG
1070
     1
1071
       98
1005
12EA63
  0
LINE
  5
12EA64
  8
HIDDEN
 10
3842.0000000000159
 20
-600.50000000000068
 30
0.0
 11
3842.0000000000159
 21
-689.50000000000091
 31
0.0
1001
ACDBBLOCKREPETAG
1070
     1
1071
      100
1005
12EA64
  0
LINE
  5
12EA65
  8
OBJECT
 10
3914.0000000000159
 20
-751.07945073181781
 30
0.0
 11
3843.3686800789692
 21
-699.5000000000008
 31
0.0
1001
ACDBBLOCKREPETAG
1070
     1
1071
      101
1005
12EA65
  0
LINE
  5
12EA66
  8
OBJECT
 10
3920.0000000000182
 20
-634.0
 30
0.0
 11
3915.2000000000148
 21
-634.0
 31
0.0
1001
ACDBBLOCKREPETAG
1070
     1
1071
      102
1005
12EA66
  0
LINE
  5
12EA67
  8
OBJECT
 10
3914.0000000000159
 20
-653.35026377573013
 30
0.0
 11
3915.2000000000148
 21
-634.0
 31
0.0
1001
ACDBBLOCKREPETAG
1070
     1
1071
      103
1005
12EA67
  0
LINE
  5
12EA68
  8
OBJECT
 10
3837.0000000000159
 20
-699.5000000000008
 30
0.0
 11
3843.3686800789692
 21
-699.5000000000008
 31
0.0
1001
ACDBBLOCKREPETAG
1070
     1
1071
      104
1005
12EA68
  0
LINE
  5
12EA69
  8
OBJECT
 10
3833.0000000000159
 20
-704.0000000000008
 30
0.0
 11
3837.0000000000159
 21
-699.5000000000008
 31
0.0
1001
ACDBBLOCKREPETAG
1070
     1
1071
      105
1005
12EA69
  0
CIRCLE
  5
12EA6A
  8
OBJECT
 10
4000.0
 20
-696.0
 30
0.0
 40
62.0
1001
ACDBBLOCKREPETAG
1070
     1
1071
        0
1005
12EA6A
  0
LINE
  5
12EA6B
  8
OBJECT
 10
4133.0
 20
-634.0
 30
0.0
 11
4140.0
 21
-634.0
 31
0.0
1001
ACDBBLOCKREPETAG
1070
     1
1071
       45
1005
12EA6B
  0
LINE
  5
12EA6C
  8
OBJECT
 10
4140.0
 20
-634.0
 30
0.0
 11
4140.0
 21
-755.0
 31
0.0
1001
ACDBBLOCKREPETAG
1070
     1
1071
       46
1005
12EA6C
  0
LINE
  5
12EA6D
  8
OBJECT
 10
4133.0
 20
-755.0
 30
0.0
 11
4133.0
 21
-634.0
 31
0.0
1001
ACDBBLOCKREPETAG
1070
     1
1071
       47
1005
12EA6D
  0
LINE
  5
12EA6E
  8
CENTER
 10
4155.0
 20
-696.0
 30
0.0
 11
4071.0
 21
-696.0
 31
0.0
1001
ACDBBLOCKREPETAG
1070
     1
1071
       48
1005
12EA6E
  0
LINE
  5
12EA6F
  8
OBJECT
 10
4133.0
 20
-637.0
 30
0.0
 11
4097.0
 21
-637.0
 31
0.0
1001
ACDBBLOCKREPETAG
1070
     1
1071
       49
1005
12EA6F
  0
LINE
  5
12EA70
  8
OBJECT
 10
4097.0
 20
-637.0
 30
0.0
 11
4097.0
 21
-755.0
 31
0.0
1001
ACDBBLOCKREPETAG
1070
     1
1071
       50
1005
12EA70
  0
LINE
  5
12EA71
  8
OBJECT
 10
4097.0
 20
-755.0
 30
0.0
 11
4140.0
 21
-755.0
 31
0.0
1001
ACDBBLOCKREPETAG
1070
     1
1071
       51
1005
12EA71
  0
LINE
  5
12EA72
  8
OBJECT
 10
4093.0
 20
-641.5
 30
0.0
 11
4086.0
 21
-641.5
 31
0.0
1001
ACDBBLOCKREPETAG
1070
     1
1071
       52
1005
12EA72
  0
LINE
  5
12EA73
  8
OBJECT
 10
4086.0
 20
-750.49999999999989
 30
0.0
 11
4093.0
 21
-750.49999999999989
 31
0.0
1001
ACDBBLOCKREPETAG
1070
     1
1071
       53
1005
12EA73
  0
LINE
  5
12EA74
  8
OBJECT
 10
4093.0
 20
-750.49999999999989
 30
0.0
 11
4093.0
 21
-641.5
 31
0.0
1001
ACDBBLOCKREPETAG
1070
     1
1071
       54
1005
12EA74
  0
LINE
  5
12EA75
  8
OBJECT
 10
4097.0
 20
-637.0
 30
0.0
 11
4093.0
 21
-641.5
 31
0.0
1001
ACDBBLOCKREPETAG
1070
     1
1071
       55
1005
12EA75
  0
LINE
  5
12EA76
  8
OBJECT
 10
4097.0
 20
-755.0
 30
0.0
 11
4093.0
 21
-750.49999999999989
 31
0.0
1001
ACDBBLOCKREPETAG
1070
     1
1071
       56
1005
12EA76
  0
LINE
  5
12EA77
  8
OBJECT
 10
4083.0
 20
-634.0
 30
0.0
 11
4080.0
 21
-634.0
 31
0.0
1001
ACDBBLOCKREPETAG
1070
     1
1071
       57
1005
12EA77
  0
ARC
  5
12EA78
  8
OBJECT
 10
4083.0
 20
-637.0
 30
0.0
 40
3.0
 50
0.0
 51
90.0
1001
ACDBBLOCKREPETAG
1070
     1
1071
       58
1005
12EA78
  0
LINE
  5
12EA79
  8
OBJECT
 10
4080.0
 20
-758.0
 30
0.0
 11
4083.0
 21
-758.0
 31
0.0
1001
ACDBBLOCKREPETAG
1070
     1
1071
       59
1005
12EA79
  0
ARC
  5
12EA7A
  8
OBJECT
 10
4083.0
 20
-755.0
 30
0.0
 40
3.0
 50
270.0
 51
0.0
1001
ACDBBLOCKREPETAG
1070
     1
1071
       60
1005
12EA7A
  0
LINE
  5
12EA7B
  8
OBJECT
 10
4086.0
 20
-755.0
 30
0.0
 11
4086.0
 21
-637.0
 31
0.0
1001
ACDBBLOCKREPETAG
1070
     1
1071
       61
1005
12EA7B
  0
LINE
  5
12EA7C
  8
HIDDEN
 10
4088.0
 20
-651.5
 30
0.0
 11
4088.0
 21
-740.5
 31
0.0
1001
ACDBBLOCKREPETAG
1070
     1
1071
       63
1005
12EA7C
  0
LINE
  5
12EA7D
  8
OBJECT
 10
1797.0000000000141
 20
-261.99999999999909
 30
0.0
 11
1790.0000000000141
 21
-261.99999999999909
 31
0.0
1001
ACDBBLOCKREPETAG
1070
     1
1071
       85
1005
12EA7D
  0
LINE
  5
12EA7E
  8
OBJECT
 10
1790.0000000000141
 20
-261.99999999999909
 30
0.0
 11
1790.0000000000141
 21
-137.99999999999909
 31
0.0
1001
ACDBBLOCKREPETAG
1070
     1
1071
       86
1005
12EA7E
  0
LINE
  5
12EA7F
  8
OBJECT
 10
1790.0000000000141
 20
-137.99999999999909
 30
0.0
 11
1797.0000000000141
 21
-137.99999999999909
 31
0.0
1001
ACDBBLOCKREPETAG
1070
     1
1071
       87
1005
12EA7F
  0
LINE
  5
12EA80
  8
OBJECT
 10
1797.0000000000141
 20
-137.99999999999909
 30
0.0
 11
1797.0000000000141
 21
-261.99999999999909
 31
0.0
1001
ACDBBLOCKREPETAG
1070
     1
1071
       88
1005
12EA80
  0
LINE
  5
12EA81
  8
CENTER
 10
1775.0000000000141
 20
-199.99999999999909
 30
0.0
 11
1920.0
 21
-199.99999999999909
 31
0.0
1001
ACDBBLOCKREPETAG
1070
     1
1071
       89
1005
12EA81
  0
LINE
  5
12EA82
  8
OBJECT
 10
1850.000025035813
 20
-154.9999999999954
 30
0.0
 11
1914.0
 21
-154.99999999999909
 31
0.0
1001
ACDBBLOCKREPETAG
1070
     1
1071
       90
1005
12EA82
  0
LINE
  5
12EA83
  8
OBJECT
 10
1850.000025035813
 20
-244.99999999999909
 30
0.0
 11
1914.0
 21
-244.99999999999909
 31
0.0
1001
ACDBBLOCKREPETAG
1070
     1
1071
       91
1005
12EA83
  0
LINE
  5
12EA84
  8
OBJECT
 10
1797.0000000000141
 20
-258.99999999999909
 30
0.0
 11
1833.000000000015
 21
-258.99999999999909
 31
0.0
1001
ACDBBLOCKREPETAG
1070
     1
1071
       92
1005
12EA84
  0
LINE
  5
12EA85
  8
OBJECT
 10
1833.000000000015
 20
-258.99999999999909
 30
0.0
 11
1833.000000000015
 21
-140.99999999999909
 31
0.0
1001
ACDBBLOCKREPETAG
1070
     1
1071
       93
1005
12EA85
  0
LINE
  5
12EA86
  8
OBJECT
 10
1833.000000000015
 20
-140.99999999999909
 30
0.0
 11
1797.0000000000141
 21
-140.99999999999909
 31
0.0
1001
ACDBBLOCKREPETAG
1070
     1
1071
       94
1005
12EA86
  0
LINE
  5
12EA87
  8
OBJECT
 10
1837.000000000015
 20
-254.49999999999909
 30
0.0
 11
1850.0000000000141
 21
-254.49999999999909
 31
0.0
1001
ACDBBLOCKREPETAG
1070
     1
1071
       95
1005
12EA87
  0
LINE
  5
12EA88
  8
OBJECT
 10
1850.0000000000141
 20
-145.49999999999909
 30
0.0
 11
1837.000000000015
 21
-145.49999999999909
 31
0.0
1001
ACDBBLOCKREPETAG
1070
     1
1071
       96
1005
12EA88
  0
LINE
  5
12EA89
  8
OBJECT
 10
1837.000000000015
 20
-145.49999999999909
 30
0.0
 11
1837.000000000015
 21
-254.49999999999909
 31
0.0
1001
ACDBBLOCKREPETAG
1070
     1
1071
       97
1005
12EA89
  0
LINE
  5
12EA8A
  8
OBJECT
 10
1833.000000000015
 20
-258.99999999999909
 30
0.0
 11
1837.000000000015
 21
-254.49999999999909
 31
0.0
1001
ACDBBLOCKREPETAG
1070
     1
1071
       98
1005
12EA8A
  0
LINE
  5
12EA8B
  8
OBJECT
 10
1833.000000000015
 20
-140.99999999999909
 30
0.0
 11
1837.000000000015
 21
-145.49999999999909
 31
0.0
1001
ACDBBLOCKREPETAG
1070
     1
1071
       99
1005
12EA8B
  0
LINE
  5
12EA8C
  8
OBJECT
 10
1917.0
 20
-261.99999999999909
 30
0.0
 11
1920.0
 21
-261.99999999999909
 31
0.0
1001
ACDBBLOCKREPETAG
1070
     1
1071
      100
1005
12EA8C
  0
ARC
  5
12EA8D
  8
OBJECT
 10
1917.0
 20
-258.99999999999909
 30
0.0
 40
3.0
 50
180.0
 51
270.0
1001
ACDBBLOCKREPETAG
1070
     1
1071
      101
1005
12EA8D
  0
LINE
  5
12EA8E
  8
OBJECT
 10
1920.0
 20
-137.99999999999909
 30
0.0
 11
1917.0
 21
-137.99999999999909
 31
0.0
1001
ACDBBLOCKREPETAG
1070
     1
1071
      102
1005
12EA8E
  0
ARC
  5
12EA8F
  8
OBJECT
 10
1917.0
 20
-140.99999999999909
 30
0.0
 40
3.0
 50
90.0
 51
180.0
1001
ACDBBLOCKREPETAG
1070
     1
1071
      103
1005
12EA8F
  0
LINE
  5
12EA90
  8
OBJECT
 10
1914.0
 20
-140.99999999999909
 30
0.0
 11
1914.0
 21
-189.6772096796403
 31
0.0
1001
ACDBBLOCKREPETAG
1070
     1
1071
      104
1005
12EA90
  0
LINE
  5
12EA91
  8
OBJECT
 10
1914.0
 20
-210.3227903203578
 30
0.0
 11
1914.0
 21
-258.99999999999909
 31
0.0
1001
ACDBBLOCKREPETAG
1070
     1
1071
      105
1005
12EA91
  0
LINE
  5
12EA92
  8
HIDDEN
 10
1842.0000000000141
 20
-244.49999999999909
 30
0.0
 11
1842.0000000000141
 21
-155.49999999999909
 31
0.0
1001
ACDBBLOCKREPETAG
1070
     1
1071
      106
1005
12EA92
  0
LINE
  5
12EA93
  8
OBJECT
 10
1850.000025035813
 20
-145.50004907618759
 30
0.0
 11
1850.000025035813
 21
-254.50004907618771
 31
0.0
1001
ACDBBLOCKREPETAG
1070
     1
1071
      108
1005
12EA93
  0
ARC
  5
12EA94
  8
OBJECT
 10
1870.199999999975
 20
-199.99999999999909
 30
0.0
 40
45.000000000000547
 50
270.0
 51
90.0
1001
ACDBBLOCKREPETAG
1070
     1
1071
      109
1005
12EA94
  0
LINE
  5
12EA95
  8
CENTER
 10
2000.0
 20
-300.99999999999898
 30
0.0
 11
2000.0
 21
-279.99999999999909
 31
0.0
1001
ACDBBLOCKREPETAG
1070
     1
1071
        0
1005
12EA95
  0
LINE
  5
12EA96
  8
OBJECT
 10
2062.0
 20
-283.0
 30
0.0
 11
2062.0
 21
-279.99999999999909
 31
0.0
1001
ACDBBLOCKREPETAG
1070
     1
1071
        1
1005
12EA96
  0
ARC
  5
12EA97
  8
OBJECT
 10
2059.0
 20
-283.0
 30
0.0
 40
3.0
 50
270.0
 51
0.0
1001
ACDBBLOCKREPETAG
1070
     1
1071
        2
1005
12EA97
  0
LINE
  5
12EA98
  8
OBJECT
 10
1938.0
 20
-279.99999999999909
 30
0.0
 11
1938.0
 21
-282.99999999999818
 31
0.0
1001
ACDBBLOCKREPETAG
1070
     1
1071
        3
1005
12EA98
  0
ARC
  5
12EA99
  8
OBJECT
 10
1941.0
 20
-282.99999999999818
 30
0.0
 40
3.0
 50
180.0
 51
270.0
1001
ACDBBLOCKREPETAG
1070
     1
1071
        4
1005
12EA99
  0
LINE
  5
12EA9A
  8
OBJECT
 10
1941.0
 20
-285.99999999999818
 30
0.0
 11
2059.0
 21
-286.0
 31
0.0
1001
ACDBBLOCKREPETAG
1070
     1
1071
        5
1005
12EA9A
  0
LINE
  5
12EA9B
  8
OBJECT
 10
2133.0
 20
-137.99999999999909
 30
0.0
 11
2140.0
 21
-137.99999999999909
 31
0.0
1001
ACDBBLOCKREPETAG
1070
     1
1071
       47
1005
12EA9B
  0
LINE
  5
12EA9C
  8
OBJECT
 10
2140.0
 20
-137.99999999999909
 30
0.0
 11
2140.0
 21
-261.99999999999909
 31
0.0
1001
ACDBBLOCKREPETAG
1070
     1
1071
       48
1005
12EA9C
  0
LINE
  5
12EA9D
  8
OBJECT
 10
2140.0
 20
-261.99999999999909
 30
0.0
 11
2133.0
 21
-261.99999999999909
 31
0.0
1001
ACDBBLOCKREPETAG
1070
     1
1071
       49
1005
12EA9D
  0
LINE
  5
12EA9E
  8
OBJECT
 10
2133.0
 20
-261.99999999999909
 30
0.0
 11
2133.0
 21
-137.99999999999909
 31
0.0
1001
ACDBBLOCKREPETAG
1070
     1
1071
       50
1005
12EA9E
  0
LINE
  5
12EA9F
  8
CENTER
 10
2155.0
 20
-199.99999999999909
 30
0.0
 11
2080.0
 21
-199.99999999999909
 31
0.0
1001
ACDBBLOCKREPETAG
1070
     1
1071
       51
1005
12EA9F
  0
LINE
  5
12EAA0
  8
OBJECT
 10
2133.0
 20
-140.99999999999909
 30
0.0
 11
2097.0
 21
-140.99999999999909
 31
0.0
1001
ACDBBLOCKREPETAG
1070
     1
1071
       52
1005
12EAA0
  0
LINE
  5
12EAA1
  8
OBJECT
 10
2097.0
 20
-140.99999999999909
 30
0.0
 11
2097.0
 21
-258.99999999999909
 31
0.0
1001
ACDBBLOCKREPETAG
1070
     1
1071
       53
1005
12EAA1
  0
LINE
  5
12EAA2
  8
OBJECT
 10
2097.0
 20
-258.99999999999909
 30
0.0
 11
2133.0
 21
-258.99999999999909
 31
0.0
1001
ACDBBLOCKREPETAG
1070
     1
1071
       54
1005
12EAA2
  0
LINE
  5
12EAA3
  8
OBJECT
 10
2093.0
 20
-145.49999999999909
 30
0.0
 11
2086.0
 21
-145.49999999999909
 31
0.0
1001
ACDBBLOCKREPETAG
1070
     1
1071
       55
1005
12EAA3
  0
LINE
  5
12EAA4
  8
OBJECT
 10
2086.0
 20
-254.49999999999909
 30
0.0
 11
2093.0
 21
-254.49999999999909
 31
0.0
1001
ACDBBLOCKREPETAG
1070
     1
1071
       56
1005
12EAA4
  0
LINE
  5
12EAA5
  8
OBJECT
 10
2093.0
 20
-254.49999999999909
 30
0.0
 11
2093.0
 21
-145.49999999999909
 31
0.0
1001
ACDBBLOCKREPETAG
1070
     1
1071
       57
1005
12EAA5
  0
LINE
  5
12EAA6
  8
OBJECT
 10
2097.0
 20
-140.99999999999909
 30
0.0
 11
2093.0
 21
-145.49999999999909
 31
0.0
1001
ACDBBLOCKREPETAG
1070
     1
1071
       58
1005
12EAA6
  0
LINE
  5
12EAA7
  8
OBJECT
 10
2097.0
 20
-258.99999999999909
 30
0.0
 11
2093.0
 21
-254.49999999999909
 31
0.0
1001
ACDBBLOCKREPETAG
1070
     1
1071
       59
1005
12EAA7
  0
LINE
  5
12EAA8
  8
OBJECT
 10
2083.0
 20
-137.99999999999909
 30
0.0
 11
2080.0
 21
-137.99999999999909
 31
0.0
1001
ACDBBLOCKREPETAG
1070
     1
1071
       60
1005
12EAA8
  0
ARC
  5
12EAA9
  8
OBJECT
 10
2083.0
 20
-140.99999999999909
 30
0.0
 40
3.0
 50
0.0
 51
90.0
1001
ACDBBLOCKREPETAG
1070
     1
1071
       61
1005
12EAA9
  0
LINE
  5
12EAAA
  8
OBJECT
 10
2080.0
 20
-261.99999999999909
 30
0.0
 11
2083.0
 21
-261.99999999999909
 31
0.0
1001
ACDBBLOCKREPETAG
1070
     1
1071
       62
1005
12EAAA
  0
ARC
  5
12EAAB
  8
OBJECT
 10
2083.0
 20
-258.99999999999909
 30
0.0
 40
3.0
 50
270.0
 51
0.0
1001
ACDBBLOCKREPETAG
1070
     1
1071
       63
1005
12EAAB
  0
LINE
  5
12EAAC
  8
OBJECT
 10
2086.0
 20
-258.99999999999909
 30
0.0
 11
2086.0
 21
-140.99999999999909
 31
0.0
1001
ACDBBLOCKREPETAG
1070
     1
1071
       64
1005
12EAAC
  0
LINE
  5
12EAAD
  8
HIDDEN
 10
2088.0
 20
-155.49999999999909
 30
0.0
 11
2088.0
 21
-244.49999999999909
 31
0.0
1001
ACDBBLOCKREPETAG
1070
     1
1071
       65
1005
12EAAD
  0
LINE
  5
12EAAE
  8
OBJECT
 10
1797.0000000000141
 20
-583.0
 30
0.0
 11
1790.0000000000141
 21
-583.0
 31
0.0
1001
ACDBBLOCKREPETAG
1070
     1
1071
       83
1005
12EAAE
  0
LINE
  5
12EAAF
  8
OBJECT
 10
1790.0000000000141
 20
-583.0
 30
0.0
 11
1790.0000000000141
 21
-707.0
 31
0.0
1001
ACDBBLOCKREPETAG
1070
     1
1071
       84
1005
12EAAF
  0
LINE
  5
12EAB0
  8
OBJECT
 10
1914.0000000000141
 20
-653.3502637757274
 30
0.0
 11
1914.0000000000141
 21
-755.00000000000102
 31
0.0
1001
ACDBBLOCKREPETAG
1070
     1
1071
       85
1005
12EAB0
  0
LINE
  5
12EAB1
  8
OBJECT
 10
1790.0000000000141
 20
-707.0
 30
0.0
 11
1797.0000000000141
 21
-707.0
 31
0.0
1001
ACDBBLOCKREPETAG
1070
     1
1071
       86
1005
12EAB1
  0
LINE
  5
12EAB2
  8
OBJECT
 10
1797.0000000000141
 20
-707.0
 30
0.0
 11
1797.0000000000141
 21
-583.0
 31
0.0
1001
ACDBBLOCKREPETAG
1070
     1
1071
       87
1005
12EAB2
  0
LINE
  5
12EAB3
  8
CENTER
 10
1865.0000000000141
 20
-645.0000000000008
 30
0.0
 11
1775.0000000000141
 21
-645.0
 31
0.0
1001
ACDBBLOCKREPETAG
1070
     1
1071
       88
1005
12EAB3
  0
LINE
  5
12EAB4
  8
OBJECT
 10
1920.000000000018
 20
-758.0
 30
0.0
 11
1917.000000000015
 21
-758.0000000000008
 31
0.0
1001
ACDBBLOCKREPETAG
1070
     1
1071
       89
1005
12EAB4
  0
ARC
  5
12EAB5
  8
OBJECT
 10
1917.000000000015
 20
-755.00000000000102
 30
0.0
 40
3.0
 50
180.0
 51
270.0
1001
ACDBBLOCKREPETAG
1070
     1
1071
       90
1005
12EAB5
  0
LINE
  5
12EAB6
  8
OBJECT
 10
1797.0000000000141
 20
-586.0
 30
0.0
 11
1833.000000000015
 21
-586.0000000000008
 31
0.0
1001
ACDBBLOCKREPETAG
1070
     1
1071
       91
1005
12EAB6
  0
LINE
  5
12EAB7
  8
OBJECT
 10
1833.000000000015
 20
-586.0000000000008
 30
0.0
 11
1833.000000000015
 21
-704.0000000000008
 31
0.0
1001
ACDBBLOCKREPETAG
1070
     1
1071
       92
1005
12EAB7
  0
LINE
  5
12EAB8
  8
OBJECT
 10
1837.000000000015
 20
-590.5000000000008
 30
0.0
 11
1837.000000000015
 21
-699.5000000000008
 31
0.0
1001
ACDBBLOCKREPETAG
1070
     1
1071
       93
1005
12EAB8
  0
LINE
  5
12EAB9
  8
OBJECT
 10
1837.000000000015
 20
-590.5000000000008
 30
0.0
 11
1850.0000000000141
 21
-590.5000000000008
 31
0.0
1001
ACDBBLOCKREPETAG
1070
     1
1071
       94
1005
12EAB9
  0
LINE
  5
12EABA
  8
OBJECT
 10
1833.000000000015
 20
-704.0000000000008
 30
0.0
 11
1797.0000000000141
 21
-704.0
 31
0.0
1001
ACDBBLOCKREPETAG
1070
     1
1071
       95
1005
12EABA
  0
LINE
  5
12EABB
  8
OBJECT
 10
1833.000000000015
 20
-586.0000000000008
 30
0.0
 11
1837.000000000015
 21
-590.5000000000008
 31
0.0
1001
ACDBBLOCKREPETAG
1070
     1
1071
       96
1005
12EABB
  0
LINE
  5
12EABC
  8
OBJECT
 10
1850.0000000000141
 20
-590.5000000000008
 30
0.0
 11
1850.0000000000141
 21
-675.74491827928784
 31
0.0
1001
ACDBBLOCKREPETAG
1070
     1
1071
       97
1005
12EABC
  0
ARC
  5
12EABD
  8
OBJECT
 10
1847.2000000000151
 20
-685.0000000000008
 30
0.0
 40
85.0
 50
36.869897645898732
 51
88.112268108168848
1001
ACDBBLOCKREPETAG
1070
     1
1071
       98
1005
12EABD
  0
LINE
  5
12EABE
  8
HIDDEN
 10
1842.0000000000141
 20
-600.50000000000068
 30
0.0
 11
1842.0000000000141
 21
-689.50000000000091
 31
0.0
1001
ACDBBLOCKREPETAG
1070
     1
1071
      100
1005
12EABE
  0
LINE
  5
12EABF
  8
OBJECT
 10
1914.0000000000141
 20
-751.07945073181781
 30
0.0
 11
1843.368680078969
 21
-699.5000000000008
 31
0.0
1001
ACDBBLOCKREPETAG
1070
     1
1071
      101
1005
12EABF
  0
LINE
  5
12EAC0
  8
OBJECT
 10
1920.000000000018
 20
-634.0
 30
0.0
 11
1915.2000000000151
 21
-634.0
 31
0.0
1001
ACDBBLOCKREPETAG
1070
     1
1071
      102
1005
12EAC0
  0
LINE
  5
12EAC1
  8
OBJECT
 10
1914.0000000000141
 20
-653.35026377573013
 30
0.0
 11
1915.2000000000151
 21
-634.0
 31
0.0
1001
ACDBBLOCKREPETAG
1070
     1
1071
      103
1005
12EAC1
  0
LINE
  5
12EAC2
  8
OBJECT
 10
1837.000000000015
 20
-699.5000000000008
 30
0.0
 11
1843.368680078969
 21
-699.5000000000008
 31
0.0
1001
ACDBBLOCKREPETAG
1070
     1
1071
      104
1005
12EAC2
  0
LINE
  5
12EAC3
  8
OBJECT
 10
1833.000000000015
 20
-704.0000000000008
 30
0.0
 11
1837.000000000015
 21
-699.5000000000008
 31
0.0
1001
ACDBBLOCKREPETAG
1070
     1
1071
      105
1005
12EAC3
  0
CIRCLE
  5
12EAC4
  8
OBJECT
 10
2000.0
 20
-696.0
 30
0.0
 40
62.0
1001
ACDBBLOCKREPETAG
1070
     1
1071
        0
1005
12EAC4
  0
LINE
  5
12EAC5
  8
OBJECT
 10
2133.0
 20
-634.0
 30
0.0
 11
2140.0
 21
-634.0
 31
0.0
1001
ACDBBLOCKREPETAG
1070
     1
1071
       45
1005
12EAC5
  0
LINE
  5
12EAC6
  8
OBJECT
 10
2140.0
 20
-634.0
 30
0.0
 11
2140.0
 21
-755.0
 31
0.0
1001
ACDBBLOCKREPETAG
1070
     1
1071
       46
1005
12EAC6
  0
LINE
  5
12EAC7
  8
OBJECT
 10
2133.0
 20
-755.0
 30
0.0
 11
2133.0
 21
-634.0
 31
0.0
1001
ACDBBLOCKREPETAG
1070
     1
1071
       47
1005
12EAC7
  0
LINE
  5
12EAC8
  8
CENTER
 10
2155.0
 20
-696.0
 30
0.0
 11
2071.0
 21
-696.0
 31
0.0
1001
ACDBBLOCKREPETAG
1070
     1
1071
       48
1005
12EAC8
  0
LINE
  5
12EAC9
  8
OBJECT
 10
2133.0
 20
-637.0
 30
0.0
 11
2097.0
 21
-637.0
 31
0.0
1001
ACDBBLOCKREPETAG
1070
     1
1071
       49
1005
12EAC9
  0
LINE
  5
12EACA
  8
OBJECT
 10
2097.0
 20
-637.0
 30
0.0
 11
2097.0
 21
-755.0
 31
0.0
1001
ACDBBLOCKREPETAG
1070
     1
1071
       50
1005
12EACA
  0
LINE
  5
12EACB
  8
OBJECT
 10
2097.0
 20
-755.0
 30
0.0
 11
2140.0
 21
-755.0
 31
0.0
1001
ACDBBLOCKREPETAG
1070
     1
1071
       51
1005
12EACB
  0
LINE
  5
12EACC
  8
OBJECT
 10
2093.0
 20
-641.5
 30
0.0
 11
2086.0
 21
-641.5
 31
0.0
1001
ACDBBLOCKREPETAG
1070
     1
1071
       52
1005
12EACC
  0
LINE
  5
12EACD
  8
OBJECT
 10
2086.0
 20
-750.49999999999989
 30
0.0
 11
2093.0
 21
-750.49999999999989
 31
0.0
1001
ACDBBLOCKREPETAG
1070
     1
1071
       53
1005
12EACD
  0
LINE
  5
12EACE
  8
OBJECT
 10
2093.0
 20
-750.49999999999989
 30
0.0
 11
2093.0
 21
-641.5
 31
0.0
1001
ACDBBLOCKREPETAG
1070
     1
1071
       54
1005
12EACE
  0
LINE
  5
12EACF
  8
OBJECT
 10
2097.0
 20
-637.0
 30
0.0
 11
2093.0
 21
-641.5
 31
0.0
1001
ACDBBLOCKREPETAG
1070
     1
1071
       55
1005
12EACF
  0
LINE
  5
12EAD0
  8
OBJECT
 10
2097.0
 20
-755.0
 30
0.0
 11
2093.0
 21
-750.49999999999989
 31
0.0
1001
ACDBBLOCKREPETAG
1070
     1
1071
       56
1005
12EAD0
  0
LINE
  5
12EAD1
  8
OBJECT
 10
2083.0
 20
-634.0
 30
0.0
 11
2080.0
 21
-634.0
 31
0.0
1001
ACDBBLOCKREPETAG
1070
     1
1071
       57
1005
12EAD1
  0
ARC
  5
12EAD2
  8
OBJECT
 10
2083.0
 20
-637.0
 30
0.0
 40
3.0
 50
0.0
 51
90.0
1001
ACDBBLOCKREPETAG
1070
     1
1071
       58
1005
12EAD2
  0
LINE
  5
12EAD3
  8
OBJECT
 10
2080.0
 20
-758.0
 30
0.0
 11
2083.0
 21
-758.0
 31
0.0
1001
ACDBBLOCKREPETAG
1070
     1
1071
       59
1005
12EAD3
  0
ARC
  5
12EAD4
  8
OBJECT
 10
2083.0
 20
-755.0
 30
0.0
 40
3.0
 50
270.0
 51
0.0
1001
ACDBBLOCKREPETAG
1070
     1
1071
       60
1005
12EAD4
  0
LINE
  5
12EAD5
  8
OBJECT
 10
2086.0
 20
-755.0
 30
0.0
 11
2086.0
 21
-637.0
 31
0.0
1001
ACDBBLOCKREPETAG
1070
     1
1071
       61
1005
12EAD5
  0
LINE
  5
12EAD6
  8
HIDDEN
 10
2088.0
 20
-651.5
 30
0.0
 11
2088.0
 21
-740.5
 31
0.0
1001
ACDBBLOCKREPETAG
1070
     1
1071
       63
1005
12EAD6
  0
TEXT
  5
12EAD7
  8
SLIM
 10
0.0000035665234464
 20
24.000004585317601
 30
0.0
 40
79.999999999972701
  1
枝管バリエーション
 41
0.75
1001
ACDBBLOCKREPETAG
1070
     1
1071
      119
1005
12AEEE
  0
TEXT
  5
12EAD8
  8
SLIM
 10
0.0
 20
369.99999999999989
 30
0.0
 40
100.0
  1
4SRT-ZX06-P110-S
 41
0.75
  0
LINE
  5
12EAD9
  8
OBJECT
 10
4923.0
 20
-3515.9999999999968
 30
0.0
 11
4923.0
 21
-3494.9999999999968
 31
0.0
1001
ACDBBLOCKREPETAG
1070
     1
1071
        0
1005
12EAD9
  0
LINE
  5
12EADA
  8
OBJECT
 10
4923.0
 20
-3494.9999999999968
 30
0.0
 11
5077.0
 21
-3494.9999999999968
 31
0.0
1001
ACDBBLOCKREPETAG
1070
     1
1071
        1
1005
12EADA
  0
LINE
  5
12EADB
  8
HIDDEN
 10
4943.0
 20
-3564.9999999999968
 30
0.0
 11
5057.0
 21
-3564.9999999999968
 31
0.0
1001
ACDBBLOCKREPETAG
1070
     1
1071
        2
1005
12EADB
  0
LINE
  5
12EADC
  8
OBJECT
 10
5077.0
 20
-3494.9999999999968
 30
0.0
 11
5077.0
 21
-3515.9999999999968
 31
0.0
1001
ACDBBLOCKREPETAG
1070
     1
1071
        3
1005
12EADC
  0
LINE
  5
12EADD
  8
OBJECT
 10
5077.0
 20
-3515.9999999999968
 30
0.0
 11
4923.0
 21
-3515.9999999999968
 31
0.0
1001
ACDBBLOCKREPETAG
1070
     1
1071
        4
1005
12EADD
  0
LINE
  5
12EADE
  8
CENTER
 10
5000.0
 20
-3479.9999999999968
 30
0.0
 11
5000.0
 21
-3714.9999999999968
 31
0.0
1001
ACDBBLOCKREPETAG
1070
     1
1071
        5
1005
12EADE
  0
LINE
  5
12EADF
  8
OBJECT
 10
4925.0
 20
-3578.9999999999968
 30
0.0
 11
4925.0
 21
-3702.9999999999968
 31
0.0
1001
ACDBBLOCKREPETAG
1070
     1
1071
        6
1005
12EADF
  0
LINE
  5
12EAE0
  8
OBJECT
 10
4928.0
 20
-3515.9999999999968
 30
0.0
 11
4928.0
 21
-3578.9999999999968
 31
0.0
1001
ACDBBLOCKREPETAG
1070
     1
1071
        7
1005
12EAE0
  0
LINE
  5
12EAE1
  8
OBJECT
 10
5072.0
 20
-3578.9999999999968
 30
0.0
 11
5072.0
 21
-3515.9999999999968
 31
0.0
1001
ACDBBLOCKREPETAG
1070
     1
1071
        8
1005
12EAE1
  0
LINE
  5
12EAE2
  8
OBJECT
 10
5074.9999999997999
 20
-3702.9999999997758
 30
0.0
 11
5080.0
 21
-3702.9999999999968
 31
0.0
1001
ACDBBLOCKREPETAG
1070
     1
1071
        9
1005
12EAE2
  0
LINE
  5
12EAE3
  8
OBJECT
 10
5080.0
 20
-3578.9999999999968
 30
0.0
 11
4925.0
 21
-3578.9999999999968
 31
0.0
1001
ACDBBLOCKREPETAG
1070
     1
1071
       10
1005
12EAE3
  0
ARC
  5
12EAE4
  8
OBJECT
 10
5200.6872746716726
 20
-3694.408099410105
 30
0.0
 40
170.6350503965856
 50
137.44134459184301
 51
149.9194958133665
1001
ACDBBLOCKREPETAG
1070
     1
1071
       15
1005
12EAE4
  0
ARC
  5
12EAE5
  8
OBJECT
 10
5118.8455987040506
 20
-3650.8827266953622
 30
0.0
 40
78.072222021763665
 50
147.4551531037684
 51
164.66365997719291
1001
ACDBBLOCKREPETAG
1070
     1
1071
       16
1005
12EAE5
  0
ARC
  5
12EAE6
  8
OBJECT
 10
5085.7554349608727
 20
-3640.9999999999968
 30
0.0
 40
43.55353926885617
 50
165.6884523008477
 51
194.3115476991523
1001
ACDBBLOCKREPETAG
1070
     1
1071
       17
1005
12EAE6
  0
ARC
  5
12EAE7
  8
OBJECT
 10
5200.6872746716726
 20
-3587.5919005898891
 30
0.0
 40
170.6350503965856
 50
210.0805041866335
 51
222.55865540815699
1001
ACDBBLOCKREPETAG
1070
     1
1071
       18
1005
12EAE7
  0
ARC
  5
12EAE8
  8
OBJECT
 10
5118.8455987040506
 20
-3631.1172733046319
 30
0.0
 40
78.072222021763665
 50
195.33634002280701
 51
212.5448468962316
1001
ACDBBLOCKREPETAG
1070
     1
1071
       19
1005
12EAE8
  0
POINT
  5
12EAE9
  8
DOTS
 10
5000.0
 20
-3699.9999999999968
 30
0.0
1001
ACDBBLOCKREPETAG
1070
     1
1071
      186
1005
12EAE9
  0
LINE
  5
12EAEA
  8
OBJECT
 10
4323.0
 20
-3515.9999999999968
 30
0.0
 11
4323.0
 21
-3494.9999999999968
 31
0.0
1001
ACDBBLOCKREPETAG
1070
     1
1071
       20
1005
12EAEA
  0
LINE
  5
12EAEB
  8
OBJECT
 10
4323.0
 20
-3494.9999999999968
 30
0.0
 11
4477.0
 21
-3494.9999999999968
 31
0.0
1001
ACDBBLOCKREPETAG
1070
     1
1071
       21
1005
12EAEB
  0
LINE
  5
12EAEC
  8
HIDDEN
 10
4343.0
 20
-3564.9999999999968
 30
0.0
 11
4457.0
 21
-3564.9999999999968
 31
0.0
1001
ACDBBLOCKREPETAG
1070
     1
1071
       22
1005
12EAEC
  0
LINE
  5
12EAED
  8
OBJECT
 10
4477.0
 20
-3494.9999999999968
 30
0.0
 11
4477.0
 21
-3515.9999999999968
 31
0.0
1001
ACDBBLOCKREPETAG
1070
     1
1071
       23
1005
12EAED
  0
LINE
  5
12EAEE
  8
OBJECT
 10
4477.0
 20
-3515.9999999999968
 30
0.0
 11
4323.0
 21
-3515.9999999999968
 31
0.0
1001
ACDBBLOCKREPETAG
1070
     1
1071
       24
1005
12EAEE
  0
LINE
  5
12EAEF
  8
CENTER
 10
4400.0
 20
-3479.9999999999968
 30
0.0
 11
4400.0
 21
-3714.9999999999968
 31
0.0
1001
ACDBBLOCKREPETAG
1070
     1
1071
       25
1005
12EAEF
  0
LINE
  5
12EAF0
  8
OBJECT
 10
4325.0
 20
-3578.9999999999968
 30
0.0
 11
4325.0
 21
-3702.9999999999968
 31
0.0
1001
ACDBBLOCKREPETAG
1070
     1
1071
       26
1005
12EAF0
  0
LINE
  5
12EAF1
  8
OBJECT
 10
4328.0
 20
-3515.9999999999968
 30
0.0
 11
4328.0
 21
-3578.9999999999968
 31
0.0
1001
ACDBBLOCKREPETAG
1070
     1
1071
       27
1005
12EAF1
  0
LINE
  5
12EAF2
  8
OBJECT
 10
4472.0
 20
-3578.9999999999968
 30
0.0
 11
4472.0
 21
-3515.9999999999968
 31
0.0
1001
ACDBBLOCKREPETAG
1070
     1
1071
       28
1005
12EAF2
  0
LINE
  5
12EAF3
  8
OBJECT
 10
4475.0
 20
-3578.9999999999968
 30
0.0
 11
4325.0
 21
-3578.9999999999968
 31
0.0
1001
ACDBBLOCKREPETAG
1070
     1
1071
       30
1005
12EAF3
  0
LINE
  5
12EAF4
  8
OBJECT
 10
4475.0
 20
-3578.9999999999968
 30
0.0
 11
4475.0
 21
-3702.9999999999968
 31
0.0
1001
ACDBBLOCKREPETAG
1070
     1
1071
       34
1005
12EAF4
  0
POINT
  5
12EAF5
  8
DOTS
 10
4400.0
 20
-3699.9999999999968
 30
0.0
1001
ACDBBLOCKREPETAG
1070
     1
1071
      187
1005
12EAF5
  0
LINE
  5
12EAF6
  8
OBJECT
 10
3923.0
 20
-3515.9999999999968
 30
0.0
 11
3923.0
 21
-3494.9999999999968
 31
0.0
1001
ACDBBLOCKREPETAG
1070
     1
1071
        0
1005
12EAF6
  0
LINE
  5
12EAF7
  8
OBJECT
 10
3923.0
 20
-3494.9999999999968
 30
0.0
 11
4077.0
 21
-3494.9999999999968
 31
0.0
1001
ACDBBLOCKREPETAG
1070
     1
1071
        1
1005
12EAF7
  0
LINE
  5
12EAF8
  8
HIDDEN
 10
3943.0
 20
-3564.9999999999968
 30
0.0
 11
4057.0
 21
-3564.9999999999968
 31
0.0
1001
ACDBBLOCKREPETAG
1070
     1
1071
        2
1005
12EAF8
  0
LINE
  5
12EAF9
  8
OBJECT
 10
4077.0
 20
-3494.9999999999968
 30
0.0
 11
4077.0
 21
-3515.9999999999968
 31
0.0
1001
ACDBBLOCKREPETAG
1070
     1
1071
        3
1005
12EAF9
  0
LINE
  5
12EAFA
  8
OBJECT
 10
4077.0
 20
-3515.9999999999968
 30
0.0
 11
3923.0
 21
-3515.9999999999968
 31
0.0
1001
ACDBBLOCKREPETAG
1070
     1
1071
        4
1005
12EAFA
  0
LINE
  5
12EAFB
  8
CENTER
 10
4000.0
 20
-3479.9999999999968
 30
0.0
 11
4000.0
 21
-3714.9999999999968
 31
0.0
1001
ACDBBLOCKREPETAG
1070
     1
1071
        5
1005
12EAFB
  0
LINE
  5
12EAFC
  8
OBJECT
 10
3925.0
 20
-3578.9999999999968
 30
0.0
 11
3925.0
 21
-3702.9999999999968
 31
0.0
1001
ACDBBLOCKREPETAG
1070
     1
1071
        6
1005
12EAFC
  0
LINE
  5
12EAFD
  8
OBJECT
 10
3928.0
 20
-3515.9999999999968
 30
0.0
 11
3928.0
 21
-3578.9999999999968
 31
0.0
1001
ACDBBLOCKREPETAG
1070
     1
1071
        7
1005
12EAFD
  0
LINE
  5
12EAFE
  8
OBJECT
 10
4072.0
 20
-3578.9999999999968
 30
0.0
 11
4072.0
 21
-3515.9999999999968
 31
0.0
1001
ACDBBLOCKREPETAG
1070
     1
1071
        8
1005
12EAFE
  0
LINE
  5
12EAFF
  8
OBJECT
 10
4074.999999999799
 20
-3702.9999999997758
 30
0.0
 11
4080.0
 21
-3702.9999999999968
 31
0.0
1001
ACDBBLOCKREPETAG
1070
     1
1071
        9
1005
12EAFF
  0
LINE
  5
12EB00
  8
OBJECT
 10
4080.0
 20
-3578.9999999999968
 30
0.0
 11
3925.0
 21
-3578.9999999999968
 31
0.0
1001
ACDBBLOCKREPETAG
1070
     1
1071
       10
1005
12EB00
  0
ARC
  5
12EB01
  8
OBJECT
 10
4200.6872746716726
 20
-3694.408099410105
 30
0.0
 40
170.6350503965856
 50
137.44134459184301
 51
149.9194958133665
1001
ACDBBLOCKREPETAG
1070
     1
1071
       15
1005
12EB01
  0
ARC
  5
12EB02
  8
OBJECT
 10
4118.8455987040506
 20
-3650.8827266953622
 30
0.0
 40
78.072222021763665
 50
147.4551531037684
 51
164.663659977186
1001
ACDBBLOCKREPETAG
1070
     1
1071
       16
1005
12EB02
  0
ARC
  5
12EB03
  8
OBJECT
 10
4085.7554349608722
 20
-3640.9999999999968
 30
0.0
 40
43.55353926885617
 50
165.6884523008477
 51
194.3115476991523
1001
ACDBBLOCKREPETAG
1070
     1
1071
       17
1005
12EB03
  0
ARC
  5
12EB04
  8
OBJECT
 10
4200.6872746716726
 20
-3587.5919005898891
 30
0.0
 40
170.6350503965856
 50
210.0805041866335
 51
222.55865540815699
1001
ACDBBLOCKREPETAG
1070
     1
1071
       18
1005
12EB04
  0
ARC
  5
12EB05
  8
OBJECT
 10
4118.8455987040506
 20
-3631.1172733046319
 30
0.0
 40
78.072222021763665
 50
195.33634002281391
 51
212.5448468962316
1001
ACDBBLOCKREPETAG
1070
     1
1071
       19
1005
12EB05
  0
POINT
  5
12EB06
  8
DOTS
 10
4000.0
 20
-3699.9999999999968
 30
0.0
1001
ACDBBLOCKREPETAG
1070
     1
1071
      186
1005
12EB06
  0
LINE
  5
12EB07
  8
OBJECT
 10
3323.0
 20
-3515.9999999999968
 30
0.0
 11
3323.0
 21
-3494.9999999999968
 31
0.0
1001
ACDBBLOCKREPETAG
1070
     1
1071
       20
1005
12EB07
  0
LINE
  5
12EB08
  8
OBJECT
 10
3323.0
 20
-3494.9999999999968
 30
0.0
 11
3477.0
 21
-3494.9999999999968
 31
0.0
1001
ACDBBLOCKREPETAG
1070
     1
1071
       21
1005
12EB08
  0
LINE
  5
12EB09
  8
HIDDEN
 10
3343.0
 20
-3564.9999999999968
 30
0.0
 11
3457.0
 21
-3564.9999999999968
 31
0.0
1001
ACDBBLOCKREPETAG
1070
     1
1071
       22
1005
12EB09
  0
LINE
  5
12EB0A
  8
OBJECT
 10
3477.0
 20
-3494.9999999999968
 30
0.0
 11
3477.0
 21
-3515.9999999999968
 31
0.0
1001
ACDBBLOCKREPETAG
1070
     1
1071
       23
1005
12EB0A
  0
LINE
  5
12EB0B
  8
OBJECT
 10
3477.0
 20
-3515.9999999999968
 30
0.0
 11
3323.0
 21
-3515.9999999999968
 31
0.0
1001
ACDBBLOCKREPETAG
1070
     1
1071
       24
1005
12EB0B
  0
LINE
  5
12EB0C
  8
CENTER
 10
3400.0
 20
-3479.9999999999968
 30
0.0
 11
3400.0
 21
-3714.9999999999968
 31
0.0
1001
ACDBBLOCKREPETAG
1070
     1
1071
       25
1005
12EB0C
  0
LINE
  5
12EB0D
  8
OBJECT
 10
3325.0
 20
-3578.9999999999968
 30
0.0
 11
3325.0
 21
-3702.9999999999968
 31
0.0
1001
ACDBBLOCKREPETAG
1070
     1
1071
       26
1005
12EB0D
  0
LINE
  5
12EB0E
  8
OBJECT
 10
3328.0
 20
-3515.9999999999968
 30
0.0
 11
3328.0
 21
-3578.9999999999968
 31
0.0
1001
ACDBBLOCKREPETAG
1070
     1
1071
       27
1005
12EB0E
  0
LINE
  5
12EB0F
  8
OBJECT
 10
3472.0
 20
-3578.9999999999968
 30
0.0
 11
3472.0
 21
-3515.9999999999968
 31
0.0
1001
ACDBBLOCKREPETAG
1070
     1
1071
       28
1005
12EB0F
  0
LINE
  5
12EB10
  8
OBJECT
 10
3475.0
 20
-3578.9999999999968
 30
0.0
 11
3325.0
 21
-3578.9999999999968
 31
0.0
1001
ACDBBLOCKREPETAG
1070
     1
1071
       30
1005
12EB10
  0
LINE
  5
12EB11
  8
OBJECT
 10
3475.0
 20
-3578.9999999999968
 30
0.0
 11
3475.0
 21
-3702.9999999999968
 31
0.0
1001
ACDBBLOCKREPETAG
1070
     1
1071
       34
1005
12EB11
  0
POINT
  5
12EB12
  8
DOTS
 10
3400.0
 20
-3699.9999999999968
 30
0.0
1001
ACDBBLOCKREPETAG
1070
     1
1071
      187
1005
12EB12
  0
LINE
  5
12EB13
  8
OBJECT
 10
2923.0
 20
-3515.9999999999968
 30
0.0
 11
2923.0
 21
-3494.9999999999968
 31
0.0
1001
ACDBBLOCKREPETAG
1070
     1
1071
        0
1005
12EB13
  0
LINE
  5
12EB14
  8
OBJECT
 10
2923.0
 20
-3494.9999999999968
 30
0.0
 11
3077.0
 21
-3494.9999999999968
 31
0.0
1001
ACDBBLOCKREPETAG
1070
     1
1071
        1
1005
12EB14
  0
LINE
  5
12EB15
  8
HIDDEN
 10
2943.0
 20
-3564.9999999999968
 30
0.0
 11
3057.0
 21
-3564.9999999999968
 31
0.0
1001
ACDBBLOCKREPETAG
1070
     1
1071
        2
1005
12EB15
  0
LINE
  5
12EB16
  8
OBJECT
 10
3077.0
 20
-3494.9999999999968
 30
0.0
 11
3077.0
 21
-3515.9999999999968
 31
0.0
1001
ACDBBLOCKREPETAG
1070
     1
1071
        3
1005
12EB16
  0
LINE
  5
12EB17
  8
OBJECT
 10
3077.0
 20
-3515.9999999999968
 30
0.0
 11
2923.0
 21
-3515.9999999999968
 31
0.0
1001
ACDBBLOCKREPETAG
1070
     1
1071
        4
1005
12EB17
  0
LINE
  5
12EB18
  8
CENTER
 10
3000.0
 20
-3479.9999999999968
 30
0.0
 11
3000.0
 21
-3714.9999999999968
 31
0.0
1001
ACDBBLOCKREPETAG
1070
     1
1071
        5
1005
12EB18
  0
LINE
  5
12EB19
  8
OBJECT
 10
2925.0
 20
-3578.9999999999968
 30
0.0
 11
2925.0
 21
-3702.9999999999968
 31
0.0
1001
ACDBBLOCKREPETAG
1070
     1
1071
        6
1005
12EB19
  0
LINE
  5
12EB1A
  8
OBJECT
 10
2928.0
 20
-3515.9999999999968
 30
0.0
 11
2928.0
 21
-3578.9999999999968
 31
0.0
1001
ACDBBLOCKREPETAG
1070
     1
1071
        7
1005
12EB1A
  0
LINE
  5
12EB1B
  8
OBJECT
 10
3072.0
 20
-3578.9999999999968
 30
0.0
 11
3072.0
 21
-3515.9999999999968
 31
0.0
1001
ACDBBLOCKREPETAG
1070
     1
1071
        8
1005
12EB1B
  0
LINE
  5
12EB1C
  8
OBJECT
 10
3074.9999999997999
 20
-3702.9999999997758
 30
0.0
 11
3080.0
 21
-3702.9999999999968
 31
0.0
1001
ACDBBLOCKREPETAG
1070
     1
1071
        9
1005
12EB1C
  0
LINE
  5
12EB1D
  8
OBJECT
 10
3080.0
 20
-3578.9999999999968
 30
0.0
 11
2925.0
 21
-3578.9999999999968
 31
0.0
1001
ACDBBLOCKREPETAG
1070
     1
1071
       10
1005
12EB1D
  0
ARC
  5
12EB1E
  8
OBJECT
 10
3200.6872746716722
 20
-3694.408099410105
 30
0.0
 40
170.6350503965856
 50
137.44134459184301
 51
149.9194958133665
1001
ACDBBLOCKREPETAG
1070
     1
1071
       15
1005
12EB1E
  0
ARC
  5
12EB1F
  8
OBJECT
 10
3118.8455987040511
 20
-3650.8827266953622
 30
0.0
 40
78.072222021763665
 50
147.4551531037684
 51
164.663659977186
1001
ACDBBLOCKREPETAG
1070
     1
1071
       16
1005
12EB1F
  0
ARC
  5
12EB20
  8
OBJECT
 10
3085.7554349608731
 20
-3640.9999999999968
 30
0.0
 40
43.55353926885617
 50
165.6884523008477
 51
194.3115476991523
1001
ACDBBLOCKREPETAG
1070
     1
1071
       17
1005
12EB20
  0
ARC
  5
12EB21
  8
OBJECT
 10
3200.6872746716722
 20
-3587.5919005898891
 30
0.0
 40
170.6350503965856
 50
210.0805041866335
 51
222.55865540815699
1001
ACDBBLOCKREPETAG
1070
     1
1071
       18
1005
12EB21
  0
ARC
  5
12EB22
  8
OBJECT
 10
3118.8455987040511
 20
-3631.1172733046319
 30
0.0
 40
78.072222021763665
 50
195.33634002281391
 51
212.5448468962316
1001
ACDBBLOCKREPETAG
1070
     1
1071
       19
1005
12EB22
  0
POINT
  5
12EB23
  8
DOTS
 10
3000.0
 20
-3699.9999999999968
 30
0.0
1001
ACDBBLOCKREPETAG
1070
     1
1071
      186
1005
12EB23
  0
LINE
  5
12EB24
  8
OBJECT
 10
2323.0
 20
-3515.9999999999968
 30
0.0
 11
2323.0
 21
-3494.9999999999968
 31
0.0
1001
ACDBBLOCKREPETAG
1070
     1
1071
       20
1005
12EB24
  0
LINE
  5
12EB25
  8
OBJECT
 10
2323.0
 20
-3494.9999999999968
 30
0.0
 11
2477.0
 21
-3494.9999999999968
 31
0.0
1001
ACDBBLOCKREPETAG
1070
     1
1071
       21
1005
12EB25
  0
LINE
  5
12EB26
  8
HIDDEN
 10
2343.0
 20
-3564.9999999999968
 30
0.0
 11
2457.0
 21
-3564.9999999999968
 31
0.0
1001
ACDBBLOCKREPETAG
1070
     1
1071
       22
1005
12EB26
  0
LINE
  5
12EB27
  8
OBJECT
 10
2477.0
 20
-3494.9999999999968
 30
0.0
 11
2477.0
 21
-3515.9999999999968
 31
0.0
1001
ACDBBLOCKREPETAG
1070
     1
1071
       23
1005
12EB27
  0
LINE
  5
12EB28
  8
OBJECT
 10
2477.0
 20
-3515.9999999999968
 30
0.0
 11
2323.0
 21
-3515.9999999999968
 31
0.0
1001
ACDBBLOCKREPETAG
1070
     1
1071
       24
1005
12EB28
  0
LINE
  5
12EB29
  8
CENTER
 10
2400.0
 20
-3479.9999999999968
 30
0.0
 11
2400.0
 21
-3714.9999999999968
 31
0.0
1001
ACDBBLOCKREPETAG
1070
     1
1071
       25
1005
12EB29
  0
LINE
  5
12EB2A
  8
OBJECT
 10
2325.0
 20
-3578.9999999999968
 30
0.0
 11
2325.0
 21
-3702.9999999999968
 31
0.0
1001
ACDBBLOCKREPETAG
1070
     1
1071
       26
1005
12EB2A
  0
LINE
  5
12EB2B
  8
OBJECT
 10
2328.0
 20
-3515.9999999999968
 30
0.0
 11
2328.0
 21
-3578.9999999999968
 31
0.0
1001
ACDBBLOCKREPETAG
1070
     1
1071
       27
1005
12EB2B
  0
LINE
  5
12EB2C
  8
OBJECT
 10
2472.0
 20
-3578.9999999999968
 30
0.0
 11
2472.0
 21
-3515.9999999999968
 31
0.0
1001
ACDBBLOCKREPETAG
1070
     1
1071
       28
1005
12EB2C
  0
LINE
  5
12EB2D
  8
OBJECT
 10
2475.0
 20
-3578.9999999999968
 30
0.0
 11
2325.0
 21
-3578.9999999999968
 31
0.0
1001
ACDBBLOCKREPETAG
1070
     1
1071
       30
1005
12EB2D
  0
LINE
  5
12EB2E
  8
OBJECT
 10
2475.0
 20
-3578.9999999999968
 30
0.0
 11
2475.0
 21
-3702.9999999999968
 31
0.0
1001
ACDBBLOCKREPETAG
1070
     1
1071
       34
1005
12EB2E
  0
POINT
  5
12EB2F
  8
DOTS
 10
2400.0
 20
-3699.9999999999968
 30
0.0
1001
ACDBBLOCKREPETAG
1070
     1
1071
      187
1005
12EB2F
  0
LINE
  5
12EB30
  8
OBJECT
 10
1923.0
 20
-3515.9999999999968
 30
0.0
 11
1923.0
 21
-3494.9999999999968
 31
0.0
1001
ACDBBLOCKREPETAG
1070
     1
1071
        0
1005
12EB30
  0
LINE
  5
12EB31
  8
OBJECT
 10
1923.0
 20
-3494.9999999999968
 30
0.0
 11
2077.0
 21
-3494.9999999999968
 31
0.0
1001
ACDBBLOCKREPETAG
1070
     1
1071
        1
1005
12EB31
  0
LINE
  5
12EB32
  8
HIDDEN
 10
1943.0
 20
-3564.9999999999968
 30
0.0
 11
2057.0
 21
-3564.9999999999968
 31
0.0
1001
ACDBBLOCKREPETAG
1070
     1
1071
        2
1005
12EB32
  0
LINE
  5
12EB33
  8
OBJECT
 10
2077.0
 20
-3494.9999999999968
 30
0.0
 11
2077.0
 21
-3515.9999999999968
 31
0.0
1001
ACDBBLOCKREPETAG
1070
     1
1071
        3
1005
12EB33
  0
LINE
  5
12EB34
  8
OBJECT
 10
2077.0
 20
-3515.9999999999968
 30
0.0
 11
1923.0
 21
-3515.9999999999968
 31
0.0
1001
ACDBBLOCKREPETAG
1070
     1
1071
        4
1005
12EB34
  0
LINE
  5
12EB35
  8
CENTER
 10
2000.0
 20
-3479.9999999999968
 30
0.0
 11
2000.0
 21
-3714.9999999999968
 31
0.0
1001
ACDBBLOCKREPETAG
1070
     1
1071
        5
1005
12EB35
  0
LINE
  5
12EB36
  8
OBJECT
 10
1925.0
 20
-3578.9999999999968
 30
0.0
 11
1925.0
 21
-3702.9999999999968
 31
0.0
1001
ACDBBLOCKREPETAG
1070
     1
1071
        6
1005
12EB36
  0
LINE
  5
12EB37
  8
OBJECT
 10
1928.0
 20
-3515.9999999999968
 30
0.0
 11
1928.0
 21
-3578.9999999999968
 31
0.0
1001
ACDBBLOCKREPETAG
1070
     1
1071
        7
1005
12EB37
  0
LINE
  5
12EB38
  8
OBJECT
 10
2072.0
 20
-3578.9999999999968
 30
0.0
 11
2072.0
 21
-3515.9999999999968
 31
0.0
1001
ACDBBLOCKREPETAG
1070
     1
1071
        8
1005
12EB38
  0
LINE
  5
12EB39
  8
OBJECT
 10
2074.999999999799
 20
-3702.9999999997758
 30
0.0
 11
2080.0
 21
-3702.9999999999968
 31
0.0
1001
ACDBBLOCKREPETAG
1070
     1
1071
        9
1005
12EB39
  0
LINE
  5
12EB3A
  8
OBJECT
 10
2080.0
 20
-3578.9999999999968
 30
0.0
 11
1925.0
 21
-3578.9999999999968
 31
0.0
1001
ACDBBLOCKREPETAG
1070
     1
1071
       10
1005
12EB3A
  0
ARC
  5
12EB3B
  8
OBJECT
 10
2200.6872746716731
 20
-3694.408099410105
 30
0.0
 40
170.6350503965856
 50
137.44134459184301
 51
149.91949581335999
1001
ACDBBLOCKREPETAG
1070
     1
1071
       15
1005
12EB3B
  0
ARC
  5
12EB3C
  8
OBJECT
 10
2118.8455987040511
 20
-3650.8827266953622
 30
0.0
 40
78.072222021763665
 50
147.45515310377539
 51
164.663659977186
1001
ACDBBLOCKREPETAG
1070
     1
1071
       16
1005
12EB3C
  0
ARC
  5
12EB3D
  8
OBJECT
 10
2085.7554349608731
 20
-3640.9999999999968
 30
0.0
 40
43.55353926885617
 50
165.6884523008477
 51
194.3115476991523
1001
ACDBBLOCKREPETAG
1070
     1
1071
       17
1005
12EB3D
  0
ARC
  5
12EB3E
  8
OBJECT
 10
2200.6872746716731
 20
-3587.5919005898891
 30
0.0
 40
170.6350503965856
 50
210.08050418664001
 51
222.55865540815699
1001
ACDBBLOCKREPETAG
1070
     1
1071
       18
1005
12EB3E
  0
ARC
  5
12EB3F
  8
OBJECT
 10
2118.8455987040511
 20
-3631.1172733046319
 30
0.0
 40
78.072222021763665
 50
195.33634002281391
 51
212.54484689622461
1001
ACDBBLOCKREPETAG
1070
     1
1071
       19
1005
12EB3F
  0
POINT
  5
12EB40
  8
DOTS
 10
2000.0
 20
-3699.9999999999968
 30
0.0
1001
ACDBBLOCKREPETAG
1070
     1
1071
      186
1005
12EB40
  0
LINE
  5
12EB41
  8
DIM
 10
2150.0
 20
-3341.9999999999959
 30
0.0
 11
2228.479620594459
 21
-3341.9999999999959
 31
0.0
  0
LINE
  5
12EB42
  8
DIM
 10
2150.0
 20
-3247.9999999999959
 30
0.0
 11
2228.479620594459
 21
-3247.9999999999959
 31
0.0
  0
LINE
  5
12EB43
  8
DIM
 10
2218.479620594459
 20
-3321.9999999999959
 30
0.0
 11
2218.479620594459
 21
-3267.9999999999959
 31
0.0
  0
INSERT
  5
12EB44
  8
DIM
  2
_OPEN30
 10
2218.479620594459
 20
-3341.9999999999959
 30
0.0
 41
20.0
 42
20.0
 43
20.0
 50
270.0
  0
INSERT
  5
12EB45
  8
DIM
  2
_OPEN30
 10
2218.479620594459
 20
-3247.9999999999959
 30
0.0
 41
20.0
 42
20.0
 43
20.0
 50
90.0
  0
INSERT
  5
12EB46
  8
OBJECT
  2
*U475
 10
0.0
 20
0.0
 30
0.0
  0
LINE
  5
12EB47
  8
DIM
 10
2150.0
 20
-3699.9999999999968
 30
0.0
 11
2226.8409284037339
 21
-3699.9999999999968
 31
0.0
  0
LINE
  5
12EB48
  8
DIM
 10
2165.0
 20
-3655.9999999999968
 30
0.0
 11
2226.8409284037339
 21
-3655.9999999999968
 31
0.0
  0
LINE
  5
12EB49
  8
DIM
 10
2216.840928403733
 20
-3719.9999999999968
 30
0.0
 11
2216.840928403733
 21
-3739.9999999999968
 31
0.0
  0
LINE
  5
12EB4A
  8
DIM
 10
2216.840928403733
 20
-3635.9999999999968
 30
0.0
 11
2216.840928403733
 21
-3615.9999999999968
 31
0.0
  0
LINE
  5
12EB4B
  8
DIM
 10
2216.840928403733
 20
-3699.9999999999968
 30
0.0
 11
2216.840928403733
 21
-3655.9999999999968
 31
0.0
  0
INSERT
  5
12EB4C
  8
DIM
  2
_OPEN30
 10
2216.840928403733
 20
-3699.9999999999968
 30
0.0
 41
20.0
 42
20.0
 43
20.0
 50
90.0
  0
INSERT
  5
12EB4D
  8
DIM
  2
_OPEN30
 10
2216.840928403733
 20
-3655.9999999999968
 30
0.0
 41
20.0
 42
20.0
 43
20.0
 50
270.0
  0
INSERT
  5
12EB4E
  8
OBJECT
  2
*U476
 10
0.0
 20
0.0
 30
0.0
  0
LINE
  5
12EB4F
  8
DIM
 10
2000.0
 20
-3189.9999999999959
 30
0.0
 11
2000.0
 21
-3157.2081219844449
 31
0.0
  0
LINE
  5
12EB50
  8
DIM
 10
2140.0
 20
-3237.9999999999959
 30
0.0
 11
2140.0
 21
-3157.2081219844449
 31
0.0
  0
LINE
  5
12EB51
  8
DIM
 10
2020.0
 20
-3167.208121984444
 30
0.0
 11
2120.0
 21
-3167.208121984444
 31
0.0
  0
INSERT
  5
12EB52
  8
DIM
  2
_OPEN30
 10
2000.0
 20
-3167.208121984444
 30
0.0
 41
20.0
 42
20.0
 43
20.0
 50
180.0
  0
INSERT
  5
12EB53
  8
DIM
  2
_OPEN30
 10
2140.0
 20
-3167.208121984444
 30
0.0
 41
20.0
 42
20.0
 43
20.0
  0
INSERT
  5
12EB54
  8
OBJECT
  2
*U477
 10
0.0
 20
0.0
 30
0.0
  0
TEXT
  5
12EB55
  8
SLIM
 10
2631.0
 20
-3072.50001604727
 30
0.0
 40
40.0
  1
C寸法
 41
0.75
  0
TEXT
  5
12EB56
  8
SLIM
 10
2631.0
 20
-3002.50001604727
 30
0.0
 40
40.0
  1
B寸法
 41
0.75
  0
TEXT
  5
12EB57
  8
SLIM
 10
2630.2857142857142
 20
-2932.50001604727
 30
0.0
 40
40.0
  1
A寸法
 41
0.75
  0
TEXT
  5
12EB58
  8
SLIM
 10
3159.2857142857151
 20
-3072.50001604727
 30
0.0
 40
40.0
  1
150
 41
0.75
  0
TEXT
  5
12EB59
  8
SLIM
 10
3029.2857142857151
 20
-3072.50001604727
 30
0.0
 40
40.0
  1
140
 41
0.75
  0
TEXT
  5
12EB5A
  8
SLIM
 10
2769.2857142857151
 20
-3072.50001604727
 30
0.0
 40
40.0
  1
140
 41
0.75
  0
TEXT
  5
12EB5B
  8
SLIM
 10
2899.2857142857151
 20
-3072.50001604727
 30
0.0
 40
40.0
  1
140
 41
0.75
  0
TEXT
  5
12EB5C
  8
SLIM
 10
3170.7142857142858
 20
-3002.50001604727
 30
0.0
 40
40.0
  1
72
 41
0.75
  0
TEXT
  5
12EB5D
  8
SLIM
 10
3041.4285714285711
 20
-3002.50001604727
 30
0.0
 40
40.0
  1
59
 41
0.75
  0
TEXT
  5
12EB5E
  8
SLIM
 10
2780.0
 20
-3002.50001604727
 30
0.0
 40
40.0
  1
44
 41
0.75
  0
TEXT
  5
12EB5F
  8
SLIM
 10
2910.7142857142858
 20
-3002.50001604727
 30
0.0
 40
40.0
  1
52
 41
0.75
  0
TEXT
  5
12EB60
  8
SLIM
 10
2891.0
 20
-2807.50001604727
 30
0.0
 40
40.0
  1
横枝管サイズ
 41
0.75
  0
TEXT
  5
12EB61
  8
SLIM
 10
3136.2857142857151
 20
-2862.50001604727
 30
0.0
 40
30.0
  1
100（4）
 41
0.75
  0
TEXT
  5
12EB62
  8
SLIM
 10
3014.857142857144
 20
-2862.50001604727
 30
0.0
 40
30.0
  1
75（3）
 41
0.75
  0
TEXT
  5
12EB63
  8
SLIM
 10
2884.8571428571431
 20
-2862.50001604727
 30
0.0
 40
30.0
  1
65（2）
 41
0.75
  0
TEXT
  5
12EB64
  8
SLIM
 10
2757.0
 20
-2862.50001604727
 30
0.0
 40
30.0
  1
50（1）
 41
0.75
  0
TEXT
  5
12EB65
  8
SLIM
 10
3159.2857142857151
 20
-2932.50001604727
 30
0.0
 40
40.0
  1
150
 41
0.75
  0
TEXT
  5
12EB66
  8
SLIM
 10
3028.571428571428
 20
-2932.50001604727
 30
0.0
 40
40.0
  1
124
 41
0.75
  0
TEXT
  5
12EB67
  8
SLIM
 10
2780.0
 20
-2932.50001604727
 30
0.0
 40
40.0
  1
94
 41
0.75
  0
TEXT
  5
12EB68
  8
SLIM
 10
2902.1428571428569
 20
-2932.50001604727
 30
0.0
 40
40.0
  1
110
 41
0.75
  0
TEXT
  5
12EB69
  8
SLIM
 10
1849.9999999999991
 20
-2832.5
 30
0.0
 40
75.0
  1
枝管サイズ毎の形状
 41
0.75
  0
LINE
  5
12EB6A
  8
OBJECT
 10
5150.0
 20
-3552.9999999999968
 30
0.0
 11
5143.0
 21
-3552.9999999999968
 31
0.0
1001
ACDBBLOCKREPETAG
1070
     1
1071
       64
1005
12EB6A
  0
LINE
  5
12EB6B
  8
OBJECT
 10
5143.0
 20
-3552.9999999999968
 30
0.0
 11
5143.0
 21
-3699.9999999999968
 31
0.0
1001
ACDBBLOCKREPETAG
1070
     1
1071
       65
1005
12EB6B
  0
LINE
  5
12EB6C
  8
OBJECT
 10
5101.5
 20
-3555.9999999999968
 30
0.0
 11
5101.5
 21
-3699.9999999999968
 31
0.0
1001
ACDBBLOCKREPETAG
1070
     1
1071
       66
1005
12EB6C
  0
LINE
  5
12EB6D
  8
OBJECT
 10
5090.0
 20
-3562.4999999999968
 30
0.0
 11
5090.0
 21
-3693.4999999999968
 31
0.0
1001
ACDBBLOCKREPETAG
1070
     1
1071
       67
1005
12EB6D
  0
LINE
  5
12EB6E
  8
OBJECT
 10
5086.0
 20
-3634.5000000000041
 30
0.0
 11
5086.0
 21
-3699.9999999999968
 31
0.0
1001
ACDBBLOCKREPETAG
1070
     1
1071
       68
1005
12EB6E
  0
LINE
  5
12EB6F
  8
OBJECT
 10
5150.0
 20
-3699.9999999999968
 30
0.0
 11
5150.0
 21
-3552.9999999999968
 31
0.0
1001
ACDBBLOCKREPETAG
1070
     1
1071
       69
1005
12EB6F
  0
LINE
  5
12EB70
  8
CENTER
 10
5165.0
 20
-3627.9999999999968
 30
0.0
 11
5070.4144144144157
 21
-3627.9999999999968
 31
0.0
1001
ACDBBLOCKREPETAG
1070
     1
1071
       70
1005
12EB70
  0
LINE
  5
12EB71
  8
OBJECT
 10
5083.0000000000045
 20
-3702.9999999999968
 30
0.0
 11
5080.0
 21
-3702.9999999999968
 31
0.0
1001
ACDBBLOCKREPETAG
1070
     1
1071
       71
1005
12EB71
  0
ARC
  5
12EB72
  8
OBJECT
 10
5091.8815171830656
 20
-3701.4555591801432
 30
0.0
 40
6.0
 50
60.52411099686767
 51
170.6927439126847
1001
ACDBBLOCKREPETAG
1070
     1
1071
       72
1005
12EB72
  0
ARC
  5
12EB73
  8
OBJECT
 10
5083.0
 20
-3699.9999999999968
 30
0.0
 40
3.0
 50
270.0
 51
350.69274391268482
1001
ACDBBLOCKREPETAG
1070
     1
1071
       73
1005
12EB73
  0
LINE
  5
12EB74
  8
OBJECT
 10
5081.0
 20
-3578.9999999999968
 30
0.0
 11
5080.0
 21
-3578.9999999999968
 31
0.0
1001
ACDBBLOCKREPETAG
1070
     1
1071
       74
1005
12EB74
  0
LINE
  5
12EB75
  8
OBJECT
 10
5150.0
 20
-3699.9999999999968
 30
0.0
 11
5101.5
 21
-3699.9999999999968
 31
0.0
1001
ACDBBLOCKREPETAG
1070
     1
1071
       75
1005
12EB75
  0
LINE
  5
12EB76
  8
OBJECT
 10
5101.5
 20
-3555.9999999999968
 30
0.0
 11
5090.0
 21
-3562.4999999999968
 31
0.0
1001
ACDBBLOCKREPETAG
1070
     1
1071
       76
1005
12EB76
  0
LINE
  5
12EB77
  8
OBJECT
 10
5143.0
 20
-3555.9999999999968
 30
0.0
 11
5101.5
 21
-3555.9999999999968
 31
0.0
1001
ACDBBLOCKREPETAG
1070
     1
1071
       77
1005
12EB77
  0
LINE
  5
12EB78
  8
OBJECT
 10
5086.0
 20
-3634.5000000000041
 30
0.0
 11
5081.0
 21
-3578.9999999999968
 31
0.0
1001
ACDBBLOCKREPETAG
1070
     1
1071
       78
1005
12EB78
  0
LINE
  5
12EB79
  8
OBJECT
 10
5090.0
 20
-3562.4999999999968
 30
0.0
 11
5081.0
 21
-3578.9999999999968
 31
0.0
1001
ACDBBLOCKREPETAG
1070
     1
1071
       79
1005
12EB79
  0
LINE
  5
12EB7A
  8
OBJECT
 10
5101.5
 20
-3699.9999999999968
 30
0.0
 11
5094.8338607230708
 21
-3696.232182147819
 31
0.0
1001
ACDBBLOCKREPETAG
1070
     1
1071
       80
1005
12EB7A
  0
LINE
  5
12EB7B
  8
HIDDEN
 10
5098.0
 20
-3684.9999999999968
 30
0.0
 11
5098.0
 21
-3570.9999999999968
 31
0.0
1001
ACDBBLOCKREPETAG
1070
     1
1071
       81
1005
12EB7B
  0
LINE
  5
12EB7C
  8
OBJECT
 10
5150.0
 20
-3219.9999999999959
 30
0.0
 11
5143.0
 21
-3219.9999999999959
 31
0.0
1001
ACDBBLOCKREPETAG
1070
     1
1071
       67
1005
12EB7C
  0
LINE
  5
12EB7D
  8
OBJECT
 10
5143.0
 20
-3219.9999999999959
 30
0.0
 11
5143.0
 21
-3369.9999999999959
 31
0.0
1001
ACDBBLOCKREPETAG
1070
     1
1071
       68
1005
12EB7D
  0
LINE
  5
12EB7E
  8
OBJECT
 10
5101.5
 20
-3222.9999999999959
 30
0.0
 11
5101.5
 21
-3366.9999999999959
 31
0.0
1001
ACDBBLOCKREPETAG
1070
     1
1071
       69
1005
12EB7E
  0
LINE
  5
12EB7F
  8
OBJECT
 10
5090.0
 20
-3229.4999999999959
 30
0.0
 11
5090.0
 21
-3360.4999999999959
 31
0.0
1001
ACDBBLOCKREPETAG
1070
     1
1071
       70
1005
12EB7F
  0
LINE
  5
12EB80
  8
OBJECT
 10
5143.0
 20
-3369.9999999999959
 30
0.0
 11
5150.0
 21
-3369.9999999999959
 31
0.0
1001
ACDBBLOCKREPETAG
1070
     1
1071
       71
1005
12EB80
  0
LINE
  5
12EB81
  8
OBJECT
 10
5150.0
 20
-3369.9999999999959
 30
0.0
 11
5150.0
 21
-3219.9999999999959
 31
0.0
1001
ACDBBLOCKREPETAG
1070
     1
1071
       72
1005
12EB81
  0
LINE
  5
12EB82
  8
HIDDEN
 10
5098.0
 20
-3351.9999999999959
 30
0.0
 11
5098.0
 21
-3237.9999999999959
 31
0.0
1001
ACDBBLOCKREPETAG
1070
     1
1071
       73
1005
12EB82
  0
LINE
  5
12EB83
  8
CENTER
 10
5165.0
 20
-3294.9999999999959
 30
0.0
 11
5080.0
 21
-3294.9999999999959
 31
0.0
1001
ACDBBLOCKREPETAG
1070
     1
1071
       74
1005
12EB83
  0
LINE
  5
12EB84
  8
OBJECT
 10
5086.0
 20
-3356.9999999999959
 30
0.0
 11
5080.0
 21
-3356.9999999999959
 31
0.0
1001
ACDBBLOCKREPETAG
1070
     1
1071
       75
1005
12EB84
  0
LINE
  5
12EB85
  8
OBJECT
 10
5143.0
 20
-3366.9999999999959
 30
0.0
 11
5101.5
 21
-3366.9999999999959
 31
0.0
1001
ACDBBLOCKREPETAG
1070
     1
1071
       76
1005
12EB85
  0
LINE
  5
12EB86
  8
OBJECT
 10
5101.5
 20
-3366.9999999999959
 30
0.0
 11
5090.0
 21
-3360.4999999999959
 31
0.0
1001
ACDBBLOCKREPETAG
1070
     1
1071
       77
1005
12EB86
  0
LINE
  5
12EB87
  8
OBJECT
 10
5090.0
 20
-3360.4999999999959
 30
0.0
 11
5086.0
 21
-3356.9999999999959
 31
0.0
1001
ACDBBLOCKREPETAG
1070
     1
1071
       78
1005
12EB87
  0
LINE
  5
12EB88
  8
OBJECT
 10
5101.5
 20
-3222.9999999999959
 30
0.0
 11
5090.0
 21
-3229.4999999999959
 31
0.0
1001
ACDBBLOCKREPETAG
1070
     1
1071
       79
1005
12EB88
  0
LINE
  5
12EB89
  8
OBJECT
 10
5090.0
 20
-3229.4999999999959
 30
0.0
 11
5086.0
 21
-3232.9999999999959
 31
0.0
1001
ACDBBLOCKREPETAG
1070
     1
1071
       80
1005
12EB89
  0
ARC
  5
12EB8A
  8
OBJECT
 10
5467.9000000000005
 20
-3294.9999999999959
 30
0.0
 40
386.89999999999998
 50
170.77870136260421
 51
189.22129863739571
1001
ACDBBLOCKREPETAG
1070
     1
1071
       81
1005
12EB8A
  0
LINE
  5
12EB8B
  8
OBJECT
 10
5086.0
 20
-3232.9999999999959
 30
0.0
 11
5080.0
 21
-3232.9999999999959
 31
0.0
1001
ACDBBLOCKREPETAG
1070
     1
1071
       82
1005
12EB8B
  0
LINE
  5
12EB8C
  8
OBJECT
 10
5143.0
 20
-3222.9999999999959
 30
0.0
 11
5101.5
 21
-3222.9999999999959
 31
0.0
1001
ACDBBLOCKREPETAG
1070
     1
1071
       83
1005
12EB8C
  0
TEXT
  5
12EB8D
  8
SLIM
 10
4884.25
 20
-3817.4999999999959
 30
0.0
 40
35.0
  1
通常枝100（4）
 41
0.75
  0
LINE
  5
12EB8E
  8
CENTER
 10
4477.0
 20
-3640.9999999999968
 30
0.0
 11
4323.0
 21
-3640.9999999999968
 31
0.0
1001
ACDBBLOCKREPETAG
1070
     1
1071
       17
1005
12EB8E
  0
CIRCLE
  5
12EB8F
  8
OBJECT
 10
4400.0
 20
-3640.9999999999968
 30
0.0
 40
41.5
1001
ACDBBLOCKREPETAG
1070
     1
1071
       19
1005
12EB8F
  0
CIRCLE
  5
12EB90
  8
OBJECT
 10
4400.0
 20
-3640.9999999999968
 30
0.0
 40
54.0
1001
ACDBBLOCKREPETAG
1070
     1
1071
       20
1005
12EB90
  0
ARC
  5
12EB91
  8
OBJECT
 10
4400.0
 20
-3640.9999999999968
 30
0.0
 40
62.0
 50
287.89655112921122
 51
252.1034488707887
1001
ACDBBLOCKREPETAG
1070
     1
1071
       21
1005
12EB91
  0
LINE
  5
12EB92
  8
OBJECT
 10
4380.947441116743
 20
-3699.9999999999968
 30
0.0
 11
4419.052558883257
 21
-3699.9999999999968
 31
0.0
1001
ACDBBLOCKREPETAG
1070
     1
1071
       22
1005
12EB92
  0
LINE
  5
12EB93
  8
OBJECT
 10
4133.0
 20
-3578.9999999999968
 30
0.0
 11
4140.0
 21
-3578.9999999999968
 31
0.0
1001
ACDBBLOCKREPETAG
1070
     1
1071
       45
1005
12EB93
  0
LINE
  5
12EB94
  8
OBJECT
 10
4140.0
 20
-3578.9999999999968
 30
0.0
 11
4140.0
 21
-3699.9999999999968
 31
0.0
1001
ACDBBLOCKREPETAG
1070
     1
1071
       46
1005
12EB94
  0
LINE
  5
12EB95
  8
OBJECT
 10
4133.0
 20
-3699.9999999999968
 30
0.0
 11
4133.0
 21
-3578.9999999999968
 31
0.0
1001
ACDBBLOCKREPETAG
1070
     1
1071
       47
1005
12EB95
  0
LINE
  5
12EB96
  8
CENTER
 10
4155.0
 20
-3640.9999999999968
 30
0.0
 11
4071.0
 21
-3640.9999999999968
 31
0.0
1001
ACDBBLOCKREPETAG
1070
     1
1071
       48
1005
12EB96
  0
LINE
  5
12EB97
  8
OBJECT
 10
4133.0
 20
-3581.9999999999968
 30
0.0
 11
4097.0
 21
-3581.9999999999968
 31
0.0
1001
ACDBBLOCKREPETAG
1070
     1
1071
       49
1005
12EB97
  0
LINE
  5
12EB98
  8
OBJECT
 10
4097.0
 20
-3581.9999999999968
 30
0.0
 11
4097.0
 21
-3699.9999999999968
 31
0.0
1001
ACDBBLOCKREPETAG
1070
     1
1071
       50
1005
12EB98
  0
LINE
  5
12EB99
  8
OBJECT
 10
4097.0
 20
-3699.9999999999968
 30
0.0
 11
4140.0
 21
-3699.9999999999968
 31
0.0
1001
ACDBBLOCKREPETAG
1070
     1
1071
       51
1005
12EB99
  0
LINE
  5
12EB9A
  8
OBJECT
 10
4093.0
 20
-3586.4999999999968
 30
0.0
 11
4086.0
 21
-3586.4999999999968
 31
0.0
1001
ACDBBLOCKREPETAG
1070
     1
1071
       52
1005
12EB9A
  0
LINE
  5
12EB9B
  8
OBJECT
 10
4086.0
 20
-3695.4999999999968
 30
0.0
 11
4093.0
 21
-3695.4999999999968
 31
0.0
1001
ACDBBLOCKREPETAG
1070
     1
1071
       53
1005
12EB9B
  0
LINE
  5
12EB9C
  8
OBJECT
 10
4093.0
 20
-3695.4999999999968
 30
0.0
 11
4093.0
 21
-3586.4999999999968
 31
0.0
1001
ACDBBLOCKREPETAG
1070
     1
1071
       54
1005
12EB9C
  0
LINE
  5
12EB9D
  8
OBJECT
 10
4097.0
 20
-3581.9999999999968
 30
0.0
 11
4093.0
 21
-3586.4999999999968
 31
0.0
1001
ACDBBLOCKREPETAG
1070
     1
1071
       55
1005
12EB9D
  0
LINE
  5
12EB9E
  8
OBJECT
 10
4097.0
 20
-3699.9999999999968
 30
0.0
 11
4093.0
 21
-3695.4999999999968
 31
0.0
1001
ACDBBLOCKREPETAG
1070
     1
1071
       56
1005
12EB9E
  0
LINE
  5
12EB9F
  8
OBJECT
 10
4083.0
 20
-3578.9999999999968
 30
0.0
 11
4080.0
 21
-3578.9999999999968
 31
0.0
1001
ACDBBLOCKREPETAG
1070
     1
1071
       57
1005
12EB9F
  0
ARC
  5
12EBA0
  8
OBJECT
 10
4083.0
 20
-3581.9999999999968
 30
0.0
 40
3.0
 50
0.0
 51
90.0
1001
ACDBBLOCKREPETAG
1070
     1
1071
       58
1005
12EBA0
  0
LINE
  5
12EBA1
  8
OBJECT
 10
4080.0
 20
-3702.9999999999968
 30
0.0
 11
4083.0
 21
-3702.9999999999968
 31
0.0
1001
ACDBBLOCKREPETAG
1070
     1
1071
       59
1005
12EBA1
  0
ARC
  5
12EBA2
  8
OBJECT
 10
4083.0
 20
-3699.9999999999968
 30
0.0
 40
3.0
 50
270.0
 51
0.0
1001
ACDBBLOCKREPETAG
1070
     1
1071
       60
1005
12EBA2
  0
LINE
  5
12EBA3
  8
OBJECT
 10
4086.0
 20
-3699.9999999999968
 30
0.0
 11
4086.0
 21
-3581.9999999999968
 31
0.0
1001
ACDBBLOCKREPETAG
1070
     1
1071
       61
1005
12EBA3
  0
LINE
  5
12EBA4
  8
HIDDEN
 10
4088.0
 20
-3596.4999999999968
 30
0.0
 11
4088.0
 21
-3685.4999999999968
 31
0.0
1001
ACDBBLOCKREPETAG
1070
     1
1071
       63
1005
12EBA4
  0
LINE
  5
12EBA5
  8
OBJECT
 10
4133.0
 20
-3232.9999999999959
 30
0.0
 11
4140.0
 21
-3232.9999999999959
 31
0.0
1001
ACDBBLOCKREPETAG
1070
     1
1071
       47
1005
12EBA5
  0
LINE
  5
12EBA6
  8
OBJECT
 10
4140.0
 20
-3232.9999999999959
 30
0.0
 11
4140.0
 21
-3356.9999999999959
 31
0.0
1001
ACDBBLOCKREPETAG
1070
     1
1071
       48
1005
12EBA6
  0
LINE
  5
12EBA7
  8
OBJECT
 10
4140.0
 20
-3356.9999999999959
 30
0.0
 11
4133.0
 21
-3356.9999999999959
 31
0.0
1001
ACDBBLOCKREPETAG
1070
     1
1071
       49
1005
12EBA7
  0
LINE
  5
12EBA8
  8
OBJECT
 10
4133.0
 20
-3356.9999999999959
 30
0.0
 11
4133.0
 21
-3232.9999999999959
 31
0.0
1001
ACDBBLOCKREPETAG
1070
     1
1071
       50
1005
12EBA8
  0
LINE
  5
12EBA9
  8
CENTER
 10
4155.0
 20
-3294.9999999999959
 30
0.0
 11
4080.0
 21
-3294.9999999999959
 31
0.0
1001
ACDBBLOCKREPETAG
1070
     1
1071
       51
1005
12EBA9
  0
LINE
  5
12EBAA
  8
OBJECT
 10
4133.0
 20
-3235.9999999999959
 30
0.0
 11
4097.0
 21
-3235.9999999999959
 31
0.0
1001
ACDBBLOCKREPETAG
1070
     1
1071
       52
1005
12EBAA
  0
LINE
  5
12EBAB
  8
OBJECT
 10
4097.0
 20
-3235.9999999999959
 30
0.0
 11
4097.0
 21
-3353.9999999999959
 31
0.0
1001
ACDBBLOCKREPETAG
1070
     1
1071
       53
1005
12EBAB
  0
LINE
  5
12EBAC
  8
OBJECT
 10
4097.0
 20
-3353.9999999999959
 30
0.0
 11
4133.0
 21
-3353.9999999999959
 31
0.0
1001
ACDBBLOCKREPETAG
1070
     1
1071
       54
1005
12EBAC
  0
LINE
  5
12EBAD
  8
OBJECT
 10
4093.0
 20
-3240.4999999999959
 30
0.0
 11
4086.0
 21
-3240.4999999999959
 31
0.0
1001
ACDBBLOCKREPETAG
1070
     1
1071
       55
1005
12EBAD
  0
LINE
  5
12EBAE
  8
OBJECT
 10
4086.0
 20
-3349.4999999999959
 30
0.0
 11
4093.0
 21
-3349.4999999999959
 31
0.0
1001
ACDBBLOCKREPETAG
1070
     1
1071
       56
1005
12EBAE
  0
LINE
  5
12EBAF
  8
OBJECT
 10
4093.0
 20
-3349.4999999999959
 30
0.0
 11
4093.0
 21
-3240.4999999999959
 31
0.0
1001
ACDBBLOCKREPETAG
1070
     1
1071
       57
1005
12EBAF
  0
LINE
  5
12EBB0
  8
OBJECT
 10
4097.0
 20
-3235.9999999999959
 30
0.0
 11
4093.0
 21
-3240.4999999999959
 31
0.0
1001
ACDBBLOCKREPETAG
1070
     1
1071
       58
1005
12EBB0
  0
LINE
  5
12EBB1
  8
OBJECT
 10
4097.0
 20
-3353.9999999999959
 30
0.0
 11
4093.0
 21
-3349.4999999999959
 31
0.0
1001
ACDBBLOCKREPETAG
1070
     1
1071
       59
1005
12EBB1
  0
LINE
  5
12EBB2
  8
OBJECT
 10
4083.0
 20
-3232.9999999999959
 30
0.0
 11
4080.0
 21
-3232.9999999999959
 31
0.0
1001
ACDBBLOCKREPETAG
1070
     1
1071
       60
1005
12EBB2
  0
ARC
  5
12EBB3
  8
OBJECT
 10
4083.0
 20
-3235.9999999999959
 30
0.0
 40
3.0
 50
0.0
 51
90.0
1001
ACDBBLOCKREPETAG
1070
     1
1071
       61
1005
12EBB3
  0
LINE
  5
12EBB4
  8
OBJECT
 10
4080.0
 20
-3356.9999999999959
 30
0.0
 11
4083.0
 21
-3356.9999999999959
 31
0.0
1001
ACDBBLOCKREPETAG
1070
     1
1071
       62
1005
12EBB4
  0
ARC
  5
12EBB5
  8
OBJECT
 10
4083.0
 20
-3353.9999999999959
 30
0.0
 40
3.0
 50
270.0
 51
0.0
1001
ACDBBLOCKREPETAG
1070
     1
1071
       63
1005
12EBB5
  0
LINE
  5
12EBB6
  8
OBJECT
 10
4086.0
 20
-3353.9999999999959
 30
0.0
 11
4086.0
 21
-3235.9999999999959
 31
0.0
1001
ACDBBLOCKREPETAG
1070
     1
1071
       64
1005
12EBB6
  0
LINE
  5
12EBB7
  8
HIDDEN
 10
4088.0
 20
-3250.4999999999959
 30
0.0
 11
4088.0
 21
-3339.4999999999959
 31
0.0
1001
ACDBBLOCKREPETAG
1070
     1
1071
       65
1005
12EBB7
  0
TEXT
  5
12EBB8
  8
SLIM
 10
3894.25
 20
-3817.4999999999959
 30
0.0
 40
35.0
  1
通常枝75（3）
 41
0.75
  0
CIRCLE
  5
12EBB9
  8
OBJECT
 10
3400.0
 20
-3647.9999999999968
 30
0.0
 40
35.5
1001
ACDBBLOCKREPETAG
1070
     1
1071
       10
1005
12EBB9
  0
CIRCLE
  5
12EBBA
  8
OBJECT
 10
3400.0
 20
-3640.9999999999968
 30
0.0
 40
62.0
1001
ACDBBLOCKREPETAG
1070
     1
1071
       11
1005
12EBBA
  0
LINE
  5
12EBBB
  8
CENTER
 10
3330.0
 20
-3647.9999999999968
 30
0.0
 11
3470.0
 21
-3647.9999999999968
 31
0.0
1001
ACDBBLOCKREPETAG
1070
     1
1071
       12
1005
12EBBB
  0
CIRCLE
  5
12EBBC
  8
OBJECT
 10
3400.0
 20
-3647.9999999999968
 30
0.0
 40
47.0
1001
ACDBBLOCKREPETAG
1070
     1
1071
       14
1005
12EBBC
  0
ARC
  5
12EBBD
  8
OBJECT
 10
3400.0
 20
-3647.9999999999968
 30
0.0
 40
55.0
 50
289.01126526011359
 51
250.98873473988641
1001
ACDBBLOCKREPETAG
1070
     1
1071
       15
1005
12EBBD
  0
LINE
  5
12EBBE
  8
OBJECT
 10
3382.0835271328328
 20
-3699.9999999999968
 30
0.0
 11
3417.9164728671681
 21
-3699.9999999999968
 31
0.0
1001
ACDBBLOCKREPETAG
1070
     1
1071
       16
1005
12EBBE
  0
LINE
  5
12EBBF
  8
OBJECT
 10
3133.0
 20
-3592.9999999999968
 30
0.0
 11
3140.0
 21
-3592.9999999999968
 31
0.0
1001
ACDBBLOCKREPETAG
1070
     1
1071
       26
1005
12EBBF
  0
LINE
  5
12EBC0
  8
OBJECT
 10
3140.0
 20
-3592.9999999999968
 30
0.0
 11
3140.0
 21
-3699.9999999999968
 31
0.0
1001
ACDBBLOCKREPETAG
1070
     1
1071
       27
1005
12EBC0
  0
LINE
  5
12EBC1
  8
OBJECT
 10
3133.0
 20
-3699.9999999999968
 30
0.0
 11
3133.0
 21
-3592.9999999999968
 31
0.0
1001
ACDBBLOCKREPETAG
1070
     1
1071
       28
1005
12EBC1
  0
LINE
  5
12EBC2
  8
CENTER
 10
3155.0
 20
-3647.9999999999968
 30
0.0
 11
3071.0
 21
-3647.9999999999968
 31
0.0
1001
ACDBBLOCKREPETAG
1070
     1
1071
       29
1005
12EBC2
  0
LINE
  5
12EBC3
  8
OBJECT
 10
3133.0
 20
-3595.9999999999968
 30
0.0
 11
3097.0
 21
-3595.9999999999968
 31
0.0
1001
ACDBBLOCKREPETAG
1070
     1
1071
       30
1005
12EBC3
  0
LINE
  5
12EBC4
  8
OBJECT
 10
3097.0
 20
-3595.9999999999968
 30
0.0
 11
3097.0
 21
-3699.9999999999968
 31
0.0
1001
ACDBBLOCKREPETAG
1070
     1
1071
       31
1005
12EBC4
  0
LINE
  5
12EBC5
  8
OBJECT
 10
3097.0
 20
-3699.9999999999968
 30
0.0
 11
3140.0
 21
-3699.9999999999968
 31
0.0
1001
ACDBBLOCKREPETAG
1070
     1
1071
       32
1005
12EBC5
  0
LINE
  5
12EBC6
  8
OBJECT
 10
3093.0
 20
-3600.4999999999968
 30
0.0
 11
3086.0
 21
-3600.4999999999968
 31
0.0
1001
ACDBBLOCKREPETAG
1070
     1
1071
       33
1005
12EBC6
  0
LINE
  5
12EBC7
  8
OBJECT
 10
3086.0
 20
-3695.4999999999968
 30
0.0
 11
3093.0
 21
-3695.4999999999968
 31
0.0
1001
ACDBBLOCKREPETAG
1070
     1
1071
       34
1005
12EBC7
  0
LINE
  5
12EBC8
  8
OBJECT
 10
3093.0
 20
-3695.4999999999968
 30
0.0
 11
3093.0
 21
-3600.4999999999968
 31
0.0
1001
ACDBBLOCKREPETAG
1070
     1
1071
       35
1005
12EBC8
  0
LINE
  5
12EBC9
  8
OBJECT
 10
3097.0
 20
-3595.9999999999968
 30
0.0
 11
3093.0
 21
-3600.4999999999968
 31
0.0
1001
ACDBBLOCKREPETAG
1070
     1
1071
       36
1005
12EBC9
  0
LINE
  5
12EBCA
  8
OBJECT
 10
3097.0
 20
-3699.9999999999968
 30
0.0
 11
3093.0
 21
-3695.4999999999968
 31
0.0
1001
ACDBBLOCKREPETAG
1070
     1
1071
       37
1005
12EBCA
  0
LINE
  5
12EBCB
  8
OBJECT
 10
3083.0
 20
-3578.9999999999968
 30
0.0
 11
3080.0
 21
-3578.9999999999968
 31
0.0
1001
ACDBBLOCKREPETAG
1070
     1
1071
       38
1005
12EBCB
  0
ARC
  5
12EBCC
  8
OBJECT
 10
3083.0
 20
-3581.9999999999968
 30
0.0
 40
3.0
 50
0.0
 51
90.0
1001
ACDBBLOCKREPETAG
1070
     1
1071
       39
1005
12EBCC
  0
LINE
  5
12EBCD
  8
OBJECT
 10
3080.0
 20
-3702.9999999999968
 30
0.0
 11
3083.0
 21
-3702.9999999999968
 31
0.0
1001
ACDBBLOCKREPETAG
1070
     1
1071
       40
1005
12EBCD
  0
ARC
  5
12EBCE
  8
OBJECT
 10
3083.0
 20
-3699.9999999999968
 30
0.0
 40
3.0
 50
270.0
 51
0.0
1001
ACDBBLOCKREPETAG
1070
     1
1071
       41
1005
12EBCE
  0
LINE
  5
12EBCF
  8
OBJECT
 10
3086.0
 20
-3699.9999999999968
 30
0.0
 11
3086.0
 21
-3581.9999999999968
 31
0.0
1001
ACDBBLOCKREPETAG
1070
     1
1071
       42
1005
12EBCF
  0
LINE
  5
12EBD0
  8
HIDDEN
 10
3088.0
 20
-3609.9999999999968
 30
0.0
 11
3088.0
 21
-3685.9999999999968
 31
0.0
1001
ACDBBLOCKREPETAG
1070
     1
1071
       43
1005
12EBD0
  0
LINE
  5
12EBD1
  8
OBJECT
 10
3133.0
 20
-3239.9999999999968
 30
0.0
 11
3140.0
 21
-3239.9999999999968
 31
0.0
1001
ACDBBLOCKREPETAG
1070
     1
1071
       27
1005
12EBD1
  0
LINE
  5
12EBD2
  8
OBJECT
 10
3140.0
 20
-3239.9999999999968
 30
0.0
 11
3140.0
 21
-3349.9999999999959
 31
0.0
1001
ACDBBLOCKREPETAG
1070
     1
1071
       28
1005
12EBD2
  0
LINE
  5
12EBD3
  8
OBJECT
 10
3140.0
 20
-3349.9999999999959
 30
0.0
 11
3133.0
 21
-3349.9999999999959
 31
0.0
1001
ACDBBLOCKREPETAG
1070
     1
1071
       29
1005
12EBD3
  0
LINE
  5
12EBD4
  8
OBJECT
 10
3133.0
 20
-3349.9999999999959
 30
0.0
 11
3133.0
 21
-3239.9999999999968
 31
0.0
1001
ACDBBLOCKREPETAG
1070
     1
1071
       30
1005
12EBD4
  0
LINE
  5
12EBD5
  8
CENTER
 10
3155.0
 20
-3294.9999999999959
 30
0.0
 11
3080.0
 21
-3294.9999999999959
 31
0.0
1001
ACDBBLOCKREPETAG
1070
     1
1071
       31
1005
12EBD5
  0
LINE
  5
12EBD6
  8
OBJECT
 10
3133.0
 20
-3242.9999999999959
 30
0.0
 11
3097.0
 21
-3242.9999999999959
 31
0.0
1001
ACDBBLOCKREPETAG
1070
     1
1071
       32
1005
12EBD6
  0
LINE
  5
12EBD7
  8
OBJECT
 10
3097.0
 20
-3242.9999999999959
 30
0.0
 11
3097.0
 21
-3346.9999999999959
 31
0.0
1001
ACDBBLOCKREPETAG
1070
     1
1071
       33
1005
12EBD7
  0
LINE
  5
12EBD8
  8
OBJECT
 10
3097.0
 20
-3346.9999999999959
 30
0.0
 11
3133.0
 21
-3346.9999999999959
 31
0.0
1001
ACDBBLOCKREPETAG
1070
     1
1071
       34
1005
12EBD8
  0
LINE
  5
12EBD9
  8
OBJECT
 10
3093.0
 20
-3247.4999999999959
 30
0.0
 11
3086.0
 21
-3247.4999999999959
 31
0.0
1001
ACDBBLOCKREPETAG
1070
     1
1071
       35
1005
12EBD9
  0
LINE
  5
12EBDA
  8
OBJECT
 10
3086.0
 20
-3342.4999999999959
 30
0.0
 11
3093.0
 21
-3342.4999999999959
 31
0.0
1001
ACDBBLOCKREPETAG
1070
     1
1071
       36
1005
12EBDA
  0
LINE
  5
12EBDB
  8
OBJECT
 10
3093.0
 20
-3342.4999999999959
 30
0.0
 11
3093.0
 21
-3247.4999999999959
 31
0.0
1001
ACDBBLOCKREPETAG
1070
     1
1071
       37
1005
12EBDB
  0
LINE
  5
12EBDC
  8
OBJECT
 10
3097.0
 20
-3242.9999999999959
 30
0.0
 11
3093.0
 21
-3247.4999999999959
 31
0.0
1001
ACDBBLOCKREPETAG
1070
     1
1071
       38
1005
12EBDC
  0
LINE
  5
12EBDD
  8
OBJECT
 10
3097.0
 20
-3346.9999999999959
 30
0.0
 11
3093.0
 21
-3342.4999999999959
 31
0.0
1001
ACDBBLOCKREPETAG
1070
     1
1071
       39
1005
12EBDD
  0
LINE
  5
12EBDE
  8
OBJECT
 10
3083.0
 20
-3232.9999999999959
 30
0.0
 11
3080.0
 21
-3232.9999999999959
 31
0.0
1001
ACDBBLOCKREPETAG
1070
     1
1071
       40
1005
12EBDE
  0
ARC
  5
12EBDF
  8
OBJECT
 10
3083.0
 20
-3235.9999999999959
 30
0.0
 40
3.0
 50
0.0
 51
90.0
1001
ACDBBLOCKREPETAG
1070
     1
1071
       41
1005
12EBDF
  0
LINE
  5
12EBE0
  8
OBJECT
 10
3080.0
 20
-3356.9999999999959
 30
0.0
 11
3083.0
 21
-3356.9999999999959
 31
0.0
1001
ACDBBLOCKREPETAG
1070
     1
1071
       42
1005
12EBE0
  0
ARC
  5
12EBE1
  8
OBJECT
 10
3083.0
 20
-3353.9999999999959
 30
0.0
 40
3.0
 50
270.0
 51
0.0
1001
ACDBBLOCKREPETAG
1070
     1
1071
       43
1005
12EBE1
  0
LINE
  5
12EBE2
  8
OBJECT
 10
3086.0
 20
-3353.9999999999959
 30
0.0
 11
3086.0
 21
-3235.9999999999959
 31
0.0
1001
ACDBBLOCKREPETAG
1070
     1
1071
       44
1005
12EBE2
  0
LINE
  5
12EBE3
  8
HIDDEN
 10
3088.0
 20
-3256.9999999999959
 30
0.0
 11
3088.0
 21
-3332.9999999999968
 31
0.0
1001
ACDBBLOCKREPETAG
1070
     1
1071
       45
1005
12EBE3
  0
TEXT
  5
12EBE4
  8
SLIM
 10
2894.25
 20
-3817.4999999999959
 30
0.0
 40
35.0
  1
通常枝65（2）
 41
0.75
  0
CIRCLE
  5
12EBE5
  8
OBJECT
 10
2400.0
 20
-3640.9999999999968
 30
0.0
 40
62.0
1001
ACDBBLOCKREPETAG
1070
     1
1071
        3
1005
12EBE5
  0
LINE
  5
12EBE6
  8
CENTER
 10
2338.0
 20
-3655.9999999999968
 30
0.0
 11
2462.0
 21
-3655.9999999999968
 31
0.0
1001
ACDBBLOCKREPETAG
1070
     1
1071
        4
1005
12EBE6
  0
CIRCLE
  5
12EBE7
  8
OBJECT
 10
2400.0
 20
-3655.9999999999968
 30
0.0
 40
28.0
1001
ACDBBLOCKREPETAG
1070
     1
1071
        6
1005
12EBE7
  0
CIRCLE
  5
12EBE8
  8
OBJECT
 10
2400.0
 20
-3655.9999999999968
 30
0.0
 40
39.0
1001
ACDBBLOCKREPETAG
1070
     1
1071
        7
1005
12EBE8
  0
ARC
  5
12EBE9
  8
OBJECT
 10
2400.0
 20
-3655.9999999999968
 30
0.0
 40
47.0
 50
290.58196921144412
 51
249.41803078855591
1001
ACDBBLOCKREPETAG
1070
     1
1071
        8
1005
12EBE9
  0
LINE
  5
12EBEA
  8
OBJECT
 10
2383.4772883581431
 20
-3699.9999999999968
 30
0.0
 11
2416.5227116418569
 21
-3699.9999999999968
 31
0.0
1001
ACDBBLOCKREPETAG
1070
     1
1071
        9
1005
12EBEA
  0
LINE
  5
12EBEB
  8
OBJECT
 10
2133.0
 20
-3608.9999999999968
 30
0.0
 11
2140.0
 21
-3608.9999999999968
 31
0.0
1001
ACDBBLOCKREPETAG
1070
     1
1071
        7
1005
12EBEB
  0
LINE
  5
12EBEC
  8
OBJECT
 10
2140.0
 20
-3608.9999999999968
 30
0.0
 11
2140.0
 21
-3699.9999999999968
 31
0.0
1001
ACDBBLOCKREPETAG
1070
     1
1071
        8
1005
12EBEC
  0
LINE
  5
12EBED
  8
OBJECT
 10
2133.0
 20
-3699.9999999999968
 30
0.0
 11
2133.0
 21
-3608.9999999999968
 31
0.0
1001
ACDBBLOCKREPETAG
1070
     1
1071
        9
1005
12EBED
  0
LINE
  5
12EBEE
  8
CENTER
 10
2155.0
 20
-3655.9999999999968
 30
0.0
 11
2071.0
 21
-3655.9999999999968
 31
0.0
1001
ACDBBLOCKREPETAG
1070
     1
1071
       10
1005
12EBEE
  0
LINE
  5
12EBEF
  8
OBJECT
 10
2133.0
 20
-3611.9999999999968
 30
0.0
 11
2097.0
 21
-3611.9999999999968
 31
0.0
1001
ACDBBLOCKREPETAG
1070
     1
1071
       11
1005
12EBEF
  0
LINE
  5
12EBF0
  8
OBJECT
 10
2097.0
 20
-3611.9999999999968
 30
0.0
 11
2097.0
 21
-3699.9999999999968
 31
0.0
1001
ACDBBLOCKREPETAG
1070
     1
1071
       12
1005
12EBF0
  0
LINE
  5
12EBF1
  8
OBJECT
 10
2097.0
 20
-3699.9999999999968
 30
0.0
 11
2140.0
 21
-3699.9999999999968
 31
0.0
1001
ACDBBLOCKREPETAG
1070
     1
1071
       13
1005
12EBF1
  0
LINE
  5
12EBF2
  8
OBJECT
 10
2093.0
 20
-3616.4999999999968
 30
0.0
 11
2086.0
 21
-3616.4999999999968
 31
0.0
1001
ACDBBLOCKREPETAG
1070
     1
1071
       14
1005
12EBF2
  0
LINE
  5
12EBF3
  8
OBJECT
 10
2086.0
 20
-3695.4999999999968
 30
0.0
 11
2093.0
 21
-3695.4999999999968
 31
0.0
1001
ACDBBLOCKREPETAG
1070
     1
1071
       15
1005
12EBF3
  0
LINE
  5
12EBF4
  8
OBJECT
 10
2093.0
 20
-3695.4999999999968
 30
0.0
 11
2093.0
 21
-3616.4999999999968
 31
0.0
1001
ACDBBLOCKREPETAG
1070
     1
1071
       16
1005
12EBF4
  0
LINE
  5
12EBF5
  8
OBJECT
 10
2097.0
 20
-3611.9999999999968
 30
0.0
 11
2093.0
 21
-3616.4999999999968
 31
0.0
1001
ACDBBLOCKREPETAG
1070
     1
1071
       17
1005
12EBF5
  0
LINE
  5
12EBF6
  8
OBJECT
 10
2097.0
 20
-3699.9999999999968
 30
0.0
 11
2093.0
 21
-3695.4999999999968
 31
0.0
1001
ACDBBLOCKREPETAG
1070
     1
1071
       18
1005
12EBF6
  0
LINE
  5
12EBF7
  8
OBJECT
 10
2083.0
 20
-3578.9999999999968
 30
0.0
 11
2080.0
 21
-3578.9999999999968
 31
0.0
1001
ACDBBLOCKREPETAG
1070
     1
1071
       19
1005
12EBF7
  0
ARC
  5
12EBF8
  8
OBJECT
 10
2083.0
 20
-3581.9999999999968
 30
0.0
 40
3.0
 50
0.0
 51
90.0
1001
ACDBBLOCKREPETAG
1070
     1
1071
       20
1005
12EBF8
  0
LINE
  5
12EBF9
  8
OBJECT
 10
2080.0
 20
-3702.9999999999968
 30
0.0
 11
2083.0
 21
-3702.9999999999968
 31
0.0
1001
ACDBBLOCKREPETAG
1070
     1
1071
       21
1005
12EBF9
  0
ARC
  5
12EBFA
  8
OBJECT
 10
2083.0
 20
-3699.9999999999968
 30
0.0
 40
3.0
 50
270.0
 51
0.0
1001
ACDBBLOCKREPETAG
1070
     1
1071
       22
1005
12EBFA
  0
LINE
  5
12EBFB
  8
OBJECT
 10
2086.0
 20
-3699.9999999999968
 30
0.0
 11
2086.0
 21
-3581.9999999999968
 31
0.0
1001
ACDBBLOCKREPETAG
1070
     1
1071
       23
1005
12EBFB
  0
LINE
  5
12EBFC
  8
HIDDEN
 10
2088.0
 20
-3625.9999999999968
 30
0.0
 11
2088.0
 21
-3685.9999999999968
 31
0.0
1001
ACDBBLOCKREPETAG
1070
     1
1071
       24
1005
12EBFC
  0
LINE
  5
12EBFD
  8
OBJECT
 10
2133.0
 20
-3247.9999999999959
 30
0.0
 11
2140.0
 21
-3247.9999999999959
 31
0.0
1001
ACDBBLOCKREPETAG
1070
     1
1071
        7
1005
12EBFD
  0
LINE
  5
12EBFE
  8
OBJECT
 10
2140.0
 20
-3247.9999999999959
 30
0.0
 11
2140.0
 21
-3341.9999999999959
 31
0.0
1001
ACDBBLOCKREPETAG
1070
     1
1071
        8
1005
12EBFE
  0
LINE
  5
12EBFF
  8
OBJECT
 10
2140.0
 20
-3341.9999999999959
 30
0.0
 11
2133.0
 21
-3341.9999999999959
 31
0.0
1001
ACDBBLOCKREPETAG
1070
     1
1071
        9
1005
12EBFF
  0
LINE
  5
12EC00
  8
OBJECT
 10
2133.0
 20
-3341.9999999999959
 30
0.0
 11
2133.0
 21
-3247.9999999999959
 31
0.0
1001
ACDBBLOCKREPETAG
1070
     1
1071
       10
1005
12EC00
  0
LINE
  5
12EC01
  8
CENTER
 10
2155.0
 20
-3294.9999999999959
 30
0.0
 11
2080.0
 21
-3294.9999999999959
 31
0.0
1001
ACDBBLOCKREPETAG
1070
     1
1071
       11
1005
12EC01
  0
LINE
  5
12EC02
  8
OBJECT
 10
2133.0
 20
-3250.9999999999959
 30
0.0
 11
2097.0
 21
-3250.9999999999959
 31
0.0
1001
ACDBBLOCKREPETAG
1070
     1
1071
       12
1005
12EC02
  0
LINE
  5
12EC03
  8
OBJECT
 10
2097.0
 20
-3250.9999999999959
 30
0.0
 11
2097.0
 21
-3338.9999999999959
 31
0.0
1001
ACDBBLOCKREPETAG
1070
     1
1071
       13
1005
12EC03
  0
LINE
  5
12EC04
  8
OBJECT
 10
2097.0
 20
-3338.9999999999959
 30
0.0
 11
2133.0
 21
-3338.9999999999959
 31
0.0
1001
ACDBBLOCKREPETAG
1070
     1
1071
       14
1005
12EC04
  0
LINE
  5
12EC05
  8
OBJECT
 10
2093.0
 20
-3255.4999999999959
 30
0.0
 11
2086.0
 21
-3255.4999999999959
 31
0.0
1001
ACDBBLOCKREPETAG
1070
     1
1071
       15
1005
12EC05
  0
LINE
  5
12EC06
  8
OBJECT
 10
2086.0
 20
-3334.4999999999959
 30
0.0
 11
2093.0
 21
-3334.4999999999959
 31
0.0
1001
ACDBBLOCKREPETAG
1070
     1
1071
       16
1005
12EC06
  0
LINE
  5
12EC07
  8
OBJECT
 10
2093.0
 20
-3334.4999999999959
 30
0.0
 11
2093.0
 21
-3255.4999999999959
 31
0.0
1001
ACDBBLOCKREPETAG
1070
     1
1071
       17
1005
12EC07
  0
LINE
  5
12EC08
  8
OBJECT
 10
2097.0
 20
-3250.9999999999959
 30
0.0
 11
2093.0
 21
-3255.4999999999959
 31
0.0
1001
ACDBBLOCKREPETAG
1070
     1
1071
       18
1005
12EC08
  0
LINE
  5
12EC09
  8
OBJECT
 10
2097.0
 20
-3338.9999999999959
 30
0.0
 11
2093.0
 21
-3334.4999999999959
 31
0.0
1001
ACDBBLOCKREPETAG
1070
     1
1071
       19
1005
12EC09
  0
LINE
  5
12EC0A
  8
OBJECT
 10
2083.0
 20
-3232.9999999999959
 30
0.0
 11
2080.0
 21
-3232.9999999999959
 31
0.0
1001
ACDBBLOCKREPETAG
1070
     1
1071
       20
1005
12EC0A
  0
ARC
  5
12EC0B
  8
OBJECT
 10
2083.0
 20
-3235.9999999999959
 30
0.0
 40
3.0
 50
0.0
 51
90.0
1001
ACDBBLOCKREPETAG
1070
     1
1071
       21
1005
12EC0B
  0
LINE
  5
12EC0C
  8
OBJECT
 10
2080.0
 20
-3356.9999999999959
 30
0.0
 11
2083.0
 21
-3356.9999999999959
 31
0.0
1001
ACDBBLOCKREPETAG
1070
     1
1071
       22
1005
12EC0C
  0
ARC
  5
12EC0D
  8
OBJECT
 10
2083.0
 20
-3353.9999999999959
 30
0.0
 40
3.0
 50
270.0
 51
0.0
1001
ACDBBLOCKREPETAG
1070
     1
1071
       23
1005
12EC0D
  0
LINE
  5
12EC0E
  8
OBJECT
 10
2086.0
 20
-3353.9999999999959
 30
0.0
 11
2086.0
 21
-3235.9999999999959
 31
0.0
1001
ACDBBLOCKREPETAG
1070
     1
1071
       24
1005
12EC0E
  0
LINE
  5
12EC0F
  8
HIDDEN
 10
2088.0
 20
-3264.9999999999968
 30
0.0
 11
2088.0
 21
-3324.9999999999959
 31
0.0
1001
ACDBBLOCKREPETAG
1070
     1
1071
       25
1005
12EC0F
  0
TEXT
  5
12EC10
  8
SLIM
 10
1896.75
 20
-3817.4999999999959
 30
0.0
 40
35.0
  1
通常枝50（1）
 41
0.75
  0
LINE
  5
12EC11
  8
SLIM
 10
3914.9999999999941
 20
-759.47385309434696
 30
0.0
 11
3919.47385309434
 21
-754.99999999999955
 31
0.0
1001
ACDBBLOCKREPETAG
1070
     1
1071
        0
1005
0
1001
ACAD
1010
0.0
1020
0.0
1030
0.0
  0
LINE
  5
12EC12
  8
SLIM
 10
3914.9999999999941
 20
-777.43436533648503
 30
0.0
 11
3937.434365336479
 21
-754.99999999999955
 31
0.0
1001
ACAD
1010
0.0
1020
0.0
1030
0.0
1001
ACDBBLOCKREPETAG
1070
     1
1071
       14
1005
12EC12
  0
LINE
  5
12EC13
  8
SLIM
 10
3914.9999999999941
 20
-795.39487757862275
 30
0.0
 11
3955.394877578618
 21
-754.99999999999955
 31
0.0
1001
ACAD
1010
0.0
1020
0.0
1030
0.0
1001
ACDBBLOCKREPETAG
1070
     1
1071
       15
1005
12EC13
  0
LINE
  5
12EC14
  8
SLIM
 10
3914.9999999999941
 20
-813.35538982076082
 30
0.0
 11
3973.3553898207551
 21
-754.99999999999955
 31
0.0
1001
ACAD
1010
0.0
1020
0.0
1030
0.0
1001
ACDBBLOCKREPETAG
1070
     1
1071
       16
1005
12EC14
  0
LINE
  5
12EC15
  8
SLIM
 10
3914.999999999995
 20
-831.31590206289854
 30
0.0
 11
3991.3159020628941
 21
-754.99999999999955
 31
0.0
1001
ACAD
1010
0.0
1020
0.0
1030
0.0
1001
ACDBBLOCKREPETAG
1070
     1
1071
       17
1005
12EC15
  0
LINE
  5
12EC16
  8
SLIM
 10
3914.999999999995
 20
-849.2764143050365
 30
0.0
 11
4009.2764143050308
 21
-754.99999999999955
 31
0.0
1001
ACAD
1010
0.0
1020
0.0
1030
0.0
1001
ACDBBLOCKREPETAG
1070
     1
1071
       18
1005
12EC16
  0
LINE
  5
12EC17
  8
SLIM
 10
3914.999999999995
 20
-867.23692654717422
 30
0.0
 11
4027.2369265471689
 21
-754.99999999999955
 31
0.0
1001
ACAD
1010
0.0
1020
0.0
1030
0.0
1001
ACDBBLOCKREPETAG
1070
     1
1071
       19
1005
12EC17
  0
LINE
  5
12EC18
  8
SLIM
 10
3914.999999999995
 20
-885.1974387893124
 30
0.0
 11
4045.1974387893069
 21
-754.99999999999955
 31
0.0
1001
ACAD
1010
0.0
1020
0.0
1030
0.0
1001
ACDBBLOCKREPETAG
1070
     1
1071
       20
1005
12EC18
  0
LINE
  5
12EC19
  8
SLIM
 10
3914.9999999999968
 20
-903.15795103145035
 30
0.0
 11
4063.157951031445
 21
-754.99999999999955
 31
0.0
1001
ACAD
1010
0.0
1020
0.0
1030
0.0
1001
ACDBBLOCKREPETAG
1070
     1
1071
       21
1005
12EC19
  0
LINE
  5
12EC1A
  8
SLIM
 10
3915.1454972543161
 20
-920.97296601926894
 30
0.0
 11
4081.1184632735849
 21
-754.99999999999955
 31
0.0
1001
ACAD
1010
0.0
1020
0.0
1030
0.0
1001
ACDBBLOCKREPETAG
1070
     1
1071
       22
1005
12EC1A
  0
LINE
  5
12EC1B
  8
SLIM
 10
3917.104627495245
 20
-936.97434802047894
 30
0.0
 11
4085.0000000000068
 21
-769.07897551571591
 31
0.0
1001
ACAD
1010
0.0
1020
0.0
1030
0.0
1001
ACDBBLOCKREPETAG
1070
     1
1071
       23
1005
12EC1B
  0
LINE
  5
12EC1C
  8
SLIM
 10
3919.0637577361722
 20
-952.97573002168929
 30
0.0
 11
4085.0000000000068
 21
-787.03948775785443
 31
0.0
1001
ACAD
1010
0.0
1020
0.0
1030
0.0
1001
ACDBBLOCKREPETAG
1070
     1
1071
       24
1005
12EC1C
  0
LINE
  5
12EC1D
  8
SLIM
 10
3920.0
 20
-969.99999999999966
 30
0.0
 11
4085.0000000000068
 21
-804.99999999999341
 31
0.0
1001
ACAD
1010
0.0
1020
0.0
1030
0.0
1001
ACDBBLOCKREPETAG
1070
     1
1071
       25
1005
12EC1D
  0
LINE
  5
12EC1E
  8
SLIM
 10
3920.0
 20
-987.96051224213795
 30
0.0
 11
4085.0000000000059
 21
-822.96051224213215
 31
0.0
1001
ACAD
1010
0.0
1020
0.0
1030
0.0
1001
ACDBBLOCKREPETAG
1070
     1
1071
       26
1005
12EC1E
  0
LINE
  5
12EC1F
  8
SLIM
 10
3920.0
 20
-1005.921024484276
 30
0.0
 11
4085.0000000000059
 21
-840.92102448427045
 31
0.0
1001
ACAD
1010
0.0
1020
0.0
1030
0.0
1001
ACDBBLOCKREPETAG
1070
     1
1071
       27
1005
12EC1F
  0
LINE
  5
12EC20
  8
SLIM
 10
3920.0
 20
-1023.881536726414
 30
0.0
 11
4085.000000000005
 21
-858.88153672640954
 31
0.0
1001
ACAD
1010
0.0
1020
0.0
1030
0.0
1001
ACDBBLOCKREPETAG
1070
     1
1071
       28
1005
12EC20
  0
LINE
  5
12EC21
  8
SLIM
 10
3920.0
 20
-1041.842048968552
 30
0.0
 11
4085.0000000000041
 21
-876.84204896854817
 31
0.0
1001
ACAD
1010
0.0
1020
0.0
1030
0.0
1001
ACDBBLOCKREPETAG
1070
     1
1071
       29
1005
12EC21
  0
LINE
  5
12EC22
  8
SLIM
 10
3920.0
 20
-1059.802561210691
 30
0.0
 11
4085.0000000000041
 21
-894.80256121068692
 31
0.0
1001
ACAD
1010
0.0
1020
0.0
1030
0.0
1001
ACDBBLOCKREPETAG
1070
     1
1071
       30
1005
12EC22
  0
LINE
  5
12EC23
  8
SLIM
 10
3920.0
 20
-1077.7630734528291
 30
0.0
 11
4085.0000000000032
 21
-912.76307345282555
 31
0.0
1001
ACAD
1010
0.0
1020
0.0
1030
0.0
1001
ACDBBLOCKREPETAG
1070
     1
1071
       31
1005
12EC23
  0
LINE
  5
12EC24
  8
SLIM
 10
3930.0
 20
-1085.723585694966
 30
0.0
 11
3930.7235856949678
 21
-1084.9999999999991
 31
0.0
1001
ACAD
1010
0.0
1020
0.0
1030
0.0
1001
ACDBBLOCKREPETAG
1070
     1
1071
       32
1005
12EC24
  0
LINE
  5
12EC25
  8
SLIM
 10
3930.7235856949678
 20
-1084.9999999999991
 30
0.0
 11
4083.4738280308079
 21
-932.24975766415935
 31
0.0
1001
ACAD
1010
0.0
1020
0.0
1030
0.0
1001
ACDBBLOCKREPETAG
1070
     1
1071
       33
1005
12EC25
  0
LINE
  5
12EC26
  8
SLIM
 10
3930.0
 20
-1103.6840979371059
 30
0.0
 11
3948.6840979371068
 21
-1084.9999999999991
 31
0.0
1001
ACAD
1010
0.0
1020
0.0
1030
0.0
1001
ACDBBLOCKREPETAG
1070
     1
1071
       34
1005
12EC26
  0
LINE
  5
12EC27
  8
SLIM
 10
3948.6840979371068
 20
-1084.9999999999991
 30
0.0
 11
4080.9680345671368
 21
-952.71606336996854
 31
0.0
1001
ACAD
1010
0.0
1020
0.0
1030
0.0
1001
ACDBBLOCKREPETAG
1070
     1
1071
       35
1005
12EC27
  0
LINE
  5
12EC28
  8
SLIM
 10
3946.6446101792449
 20
-1104.9999999999991
 30
0.0
 11
3966.6446101792449
 21
-1084.9999999999991
 31
0.0
1001
ACAD
1010
0.0
1020
0.0
1030
0.0
1001
ACDBBLOCKREPETAG
1070
     1
1071
       36
1005
12EC28
  0
LINE
  5
12EC29
  8
SLIM
 10
3966.6446101792449
 20
-1084.9999999999991
 30
0.0
 11
4080.0
 21
-971.64461017924452
 31
0.0
1001
ACAD
1010
0.0
1020
0.0
1030
0.0
1001
ACDBBLOCKREPETAG
1070
     1
1071
       37
1005
12EC29
  0
LINE
  5
12EC2A
  8
SLIM
 10
3964.6051224213829
 20
-1104.9999999999991
 30
0.0
 11
3984.6051224213829
 21
-1084.9999999999991
 31
0.0
1001
ACAD
1010
0.0
1020
0.0
1030
0.0
1001
ACDBBLOCKREPETAG
1070
     1
1071
       38
1005
12EC2A
  0
LINE
  5
12EC2B
  8
SLIM
 10
3984.6051224213829
 20
-1084.9999999999991
 30
0.0
 11
4080.0
 21
-989.60512242138304
 31
0.0
1001
ACAD
1010
0.0
1020
0.0
1030
0.0
1001
ACDBBLOCKREPETAG
1070
     1
1071
       39
1005
12EC2B
  0
LINE
  5
12EC2C
  8
SLIM
 10
3982.565634663521
 20
-1104.9999999999991
 30
0.0
 11
4002.565634663521
 21
-1084.9999999999991
 31
0.0
1001
ACAD
1010
0.0
1020
0.0
1030
0.0
1001
ACDBBLOCKREPETAG
1070
     1
1071
       40
1005
12EC2C
  0
LINE
  5
12EC2D
  8
SLIM
 10
4002.565634663521
 20
-1084.9999999999991
 30
0.0
 11
4079.9999999999991
 21
-1007.565634663521
 31
0.0
1001
ACAD
1010
0.0
1020
0.0
1030
0.0
1001
ACDBBLOCKREPETAG
1070
     1
1071
       41
1005
12EC2D
  0
LINE
  5
12EC2E
  8
SLIM
 10
4000.5261469056582
 20
-1104.9999999999991
 30
0.0
 11
4020.52614690566
 21
-1084.9999999999991
 31
0.0
1001
ACAD
1010
0.0
1020
0.0
1030
0.0
1001
ACDBBLOCKREPETAG
1070
     1
1071
       42
1005
12EC2E
  0
LINE
  5
12EC2F
  8
SLIM
 10
4020.52614690566
 20
-1084.9999999999991
 30
0.0
 11
4079.9999999999991
 21
-1025.52614690566
 31
0.0
1001
ACAD
1010
0.0
1020
0.0
1030
0.0
1001
ACDBBLOCKREPETAG
1070
     1
1071
       43
1005
12EC2F
  0
LINE
  5
12EC30
  8
SLIM
 10
4018.486659147798
 20
-1104.9999999999991
 30
0.0
 11
4038.486659147798
 21
-1084.9999999999991
 31
0.0
1001
ACAD
1010
0.0
1020
0.0
1030
0.0
1001
ACDBBLOCKREPETAG
1070
     1
1071
       44
1005
12EC30
  0
LINE
  5
12EC31
  8
SLIM
 10
4038.486659147798
 20
-1084.9999999999991
 30
0.0
 11
4079.9999999999991
 21
-1043.4866591477989
 31
0.0
1001
ACAD
1010
0.0
1020
0.0
1030
0.0
1001
ACDBBLOCKREPETAG
1070
     1
1071
       45
1005
12EC31
  0
LINE
  5
12EC32
  8
SLIM
 10
4036.4471713899361
 20
-1104.9999999999991
 30
0.0
 11
4056.4471713899361
 21
-1084.9999999999991
 31
0.0
1001
ACAD
1010
0.0
1020
0.0
1030
0.0
1001
ACDBBLOCKREPETAG
1070
     1
1071
       46
1005
12EC32
  0
LINE
  5
12EC33
  8
SLIM
 10
4056.4471713899361
 20
-1084.9999999999991
 30
0.0
 11
4079.9999999999991
 21
-1061.447171389937
 31
0.0
1001
ACAD
1010
0.0
1020
0.0
1030
0.0
1001
ACDBBLOCKREPETAG
1070
     1
1071
       47
1005
12EC33
  0
LINE
  5
12EC34
  8
SLIM
 10
4054.4076836320728
 20
-1104.9999999999991
 30
0.0
 11
4070.0
 21
-1089.4076836320739
 31
0.0
1001
ACAD
1010
0.0
1020
0.0
1030
0.0
1001
ACDBBLOCKREPETAG
1070
     1
1071
       48
1005
12EC34
  0
LINE
  5
12EC35
  8
SLIM
 10
4074.4076836320728
 20
-1084.9999999999991
 30
0.0
 11
4079.9999999999991
 21
-1079.407683632076
 31
0.0
1001
ACAD
1010
0.0
1020
0.0
1030
0.0
1001
ACDBBLOCKREPETAG
1070
     1
1071
       49
1005
12EC35
  0
LINE
  5
12EC36
  8
OBJECT
 10
3914.9999999999941
 20
-754.99999999999955
 30
0.0
 11
3914.9999999999968
 21
-919.78460339903484
 31
0.0
1001
ACDBBLOCKREPETAG
1070
     1
1071
        1
1005
12EC36
  0
LINE
  5
12EC37
  8
OBJECT
 10
4085.0000000000068
 20
-754.99999999999955
 30
0.0
 11
4085.0000000000032
 21
-919.78460339904154
 31
0.0
1001
ACDBBLOCKREPETAG
1070
     1
1071
        2
1005
12EC37
  0
LINE
  5
12EC38
  8
OBJECT
 10
4085.0000000000068
 20
-754.99999999999955
 30
0.0
 11
3914.9999999999941
 21
-754.99999999999955
 31
0.0
1001
ACDBBLOCKREPETAG
1070
     1
1071
        3
1005
12EC38
  0
LINE
  5
12EC39
  8
OBJECT
 10
4079.9999999999991
 20
-1084.9999999999991
 30
0.0
 11
3920.0
 21
-1084.9999999999991
 31
0.0
1001
ACDBBLOCKREPETAG
1070
     1
1071
        4
1005
12EC39
  0
LINE
  5
12EC3A
  8
OBJECT
 10
3914.9999999999968
 20
-919.78460339903484
 30
0.0
 11
3920.0
 21
-960.62257748298634
 31
0.0
1001
ACDBBLOCKREPETAG
1070
     1
1071
        6
1005
12EC3A
  0
LINE
  5
12EC3B
  8
OBJECT
 10
3920.0
 20
-960.62257748298634
 30
0.0
 11
3920.0
 21
-1084.9999999999991
 31
0.0
1001
ACDBBLOCKREPETAG
1070
     1
1071
        7
1005
12EC3B
  0
LINE
  5
12EC3C
  8
OBJECT
 10
4085.0000000000032
 20
-919.78460339904154
 30
0.0
 11
4080.0
 21
-960.62257748298634
 31
0.0
1001
ACDBBLOCKREPETAG
1070
     1
1071
        8
1005
12EC3C
  0
LINE
  5
12EC3D
  8
OBJECT
 10
4080.0
 20
-960.62257748298634
 30
0.0
 11
4079.9999999999991
 21
-1084.9999999999991
 31
0.0
1001
ACDBBLOCKREPETAG
1070
     1
1071
        9
1005
12EC3D
  0
LINE
  5
12EC3E
  8
OBJECT
 10
3930.0
 20
-1084.9999999999991
 30
0.0
 11
3930.0
 21
-1104.9999999999991
 31
0.0
1001
ACDBBLOCKREPETAG
1070
     1
1071
       10
1005
12EC3E
  0
LINE
  5
12EC3F
  8
OBJECT
 10
3930.0
 20
-1104.9999999999991
 30
0.0
 11
4070.0
 21
-1104.9999999999991
 31
0.0
1001
ACDBBLOCKREPETAG
1070
     1
1071
       11
1005
12EC3F
  0
LINE
  5
12EC40
  8
OBJECT
 10
4070.0
 20
-1104.9999999999991
 30
0.0
 11
4070.0
 21
-1084.9999999999991
 31
0.0
1001
ACDBBLOCKREPETAG
1070
     1
1071
       12
1005
12EC40
  0
LINE
  5
12EC41
  8
OBJECT
 10
3923.0
 20
-570.99999999999955
 30
0.0
 11
3923.0
 21
-549.99999999999955
 31
0.0
1001
ACDBBLOCKREPETAG
1070
     1
1071
       38
1005
12EC41
  0
LINE
  5
12EC42
  8
OBJECT
 10
3923.0
 20
-549.99999999999955
 30
0.0
 11
4077.0
 21
-549.99999999999955
 31
0.0
1001
ACDBBLOCKREPETAG
1070
     1
1071
       39
1005
12EC42
  0
LINE
  5
12EC43
  8
HIDDEN
 10
3943.0
 20
-619.99999999999955
 30
0.0
 11
4057.0
 21
-619.99999999999955
 31
0.0
1001
ACDBBLOCKREPETAG
1070
     1
1071
       40
1005
12EC43
  0
LINE
  5
12EC44
  8
OBJECT
 10
4077.0
 20
-549.99999999999955
 30
0.0
 11
4077.0
 21
-570.99999999999955
 31
0.0
1001
ACDBBLOCKREPETAG
1070
     1
1071
       41
1005
12EC44
  0
LINE
  5
12EC45
  8
OBJECT
 10
4077.0
 20
-570.99999999999955
 30
0.0
 11
3923.0
 21
-570.99999999999955
 31
0.0
1001
ACDBBLOCKREPETAG
1070
     1
1071
       42
1005
12EC45
  0
LINE
  5
12EC46
  8
CENTER
 10
4000.0
 20
-534.99999999999955
 30
0.0
 11
4000.0
 21
-889.99999999999955
 31
0.0
1001
ACDBBLOCKREPETAG
1070
     1
1071
       43
1005
12EC46
  0
LINE
  5
12EC47
  8
OBJECT
 10
3928.0
 20
-570.99999999999955
 30
0.0
 11
3928.0
 21
-633.99999999999955
 31
0.0
1001
ACDBBLOCKREPETAG
1070
     1
1071
       44
1005
12EC47
  0
LINE
  5
12EC48
  8
OBJECT
 10
4072.0
 20
-633.99999999999955
 30
0.0
 11
4072.0
 21
-570.99999999999955
 31
0.0
1001
ACDBBLOCKREPETAG
1070
     1
1071
       45
1005
12EC48
  0
LINE
  5
12EC49
  8
OBJECT
 10
3920.0
 20
-877.99999999999955
 30
0.0
 11
4080.0
 21
-877.99999999999955
 31
0.0
1001
ACDBBLOCKREPETAG
1070
     1
1071
       46
1005
12EC49
  0
LINE
  5
12EC4A
  8
OBJECT
 10
4080.0
 20
-633.99999999999955
 30
0.0
 11
3920.0
 21
-633.99999999999955
 31
0.0
1001
ACDBBLOCKREPETAG
1070
     1
1071
       47
1005
12EC4A
  0
LINE
  5
12EC4B
  8
OBJECT
 10
3920.0
 20
-877.99999999999955
 30
0.0
 11
3920.0
 21
-889.99999999999955
 31
0.0
1001
ACDBBLOCKREPETAG
1070
     1
1071
       48
1005
12EC4B
  0
LINE
  5
12EC4C
  8
OBJECT
 10
3920.0
 20
-889.99999999999955
 30
0.0
 11
4080.0
 21
-889.99999999999955
 31
0.0
1001
ACDBBLOCKREPETAG
1070
     1
1071
       49
1005
12EC4C
  0
LINE
  5
12EC4D
  8
OBJECT
 10
4080.0
 20
-889.99999999999955
 30
0.0
 11
4080.0
 21
-877.99999999999955
 31
0.0
1001
ACDBBLOCKREPETAG
1070
     1
1071
       50
1005
12EC4D
  0
LINE
  5
12EC4E
  8
OBJECT
 10
4074.9999999998631
 20
-757.99999999985016
 30
0.0
 11
4075.0
 21
-877.99999999999955
 31
0.0
1001
ACDBBLOCKREPETAG
1070
     1
1071
       54
1005
12EC4E
  0
LINE
  5
12EC4F
  8
OBJECT
 10
4074.9999908029849
 20
-757.99998602702112
 30
0.0
 11
4080.0
 21
-757.99998602702112
 31
0.0
1001
ACDBBLOCKREPETAG
1070
     1
1071
       55
1005
12EC4F
  0
LINE
  5
12EC50
  8
OBJECT
 10
3925.0000000001392
 20
-757.99999999985016
 30
0.0
 11
3925.0
 21
-877.99999999999955
 31
0.0
1001
ACDBBLOCKREPETAG
1070
     1
1071
       56
1005
12EC50
  0
LINE
  5
12EC51
  8
OBJECT
 10
3925.0000091970151
 20
-757.99998602702112
 30
0.0
 11
3920.0
 21
-757.99998602702112
 31
0.0
1001
ACDBBLOCKREPETAG
1070
     1
1071
       57
1005
12EC51
  0
ARC
  5
12EC52
  8
OBJECT
 10
4200.6872746716726
 20
-749.40809941010718
 30
0.0
 40
170.6350503965856
 50
137.44134459184301
 51
149.91949581337221
1001
ACDBBLOCKREPETAG
1070
     1
1071
       58
1005
12EC52
  0
ARC
  5
12EC53
  8
OBJECT
 10
4200.6872746716726
 20
-642.59190058989179
 30
0.0
 40
170.6350503965856
 50
210.08050418662771
 51
222.55865540815699
1001
ACDBBLOCKREPETAG
1070
     1
1071
       59
1005
12EC53
  0
ARC
  5
12EC54
  8
OBJECT
 10
3799.3127253283278
 20
-749.40809941010718
 30
0.0
 40
170.6350503965856
 50
30.080504186774089
 51
42.558655408382641
1001
ACDBBLOCKREPETAG
1070
     1
1071
       60
1005
12EC54
  0
ARC
  5
12EC55
  8
OBJECT
 10
3799.3127253283278
 20
-642.59190058989179
 30
0.0
 40
170.6350503965856
 50
317.44134459161722
 51
329.91949581322592
1001
ACDBBLOCKREPETAG
1070
     1
1071
       61
1005
12EC55
  0
POINT
  5
12EC56
  8
DOTS
 10
4000.0
 20
-754.99999999999955
 30
0.0
1001
ACDBBLOCKREPETAG
1070
     1
1071
      185
1005
12EC56
  0
LINE
  5
12EC57
  8
OBJECT
 10
1923.0
 20
-570.99999999999955
 30
0.0
 11
1923.0
 21
-549.99999999999955
 31
0.0
1001
ACDBBLOCKREPETAG
1070
     1
1071
       38
1005
12EC57
  0
LINE
  5
12EC58
  8
OBJECT
 10
1923.0
 20
-549.99999999999955
 30
0.0
 11
2077.0
 21
-549.99999999999955
 31
0.0
1001
ACDBBLOCKREPETAG
1070
     1
1071
       39
1005
12EC58
  0
LINE
  5
12EC59
  8
HIDDEN
 10
1943.0
 20
-619.99999999999955
 30
0.0
 11
2057.0
 21
-619.99999999999955
 31
0.0
1001
ACDBBLOCKREPETAG
1070
     1
1071
       40
1005
12EC59
  0
LINE
  5
12EC5A
  8
OBJECT
 10
2077.0
 20
-549.99999999999955
 30
0.0
 11
2077.0
 21
-570.99999999999955
 31
0.0
1001
ACDBBLOCKREPETAG
1070
     1
1071
       41
1005
12EC5A
  0
LINE
  5
12EC5B
  8
OBJECT
 10
2077.0
 20
-570.99999999999955
 30
0.0
 11
1923.0
 21
-570.99999999999955
 31
0.0
1001
ACDBBLOCKREPETAG
1070
     1
1071
       42
1005
12EC5B
  0
LINE
  5
12EC5C
  8
CENTER
 10
2000.0
 20
-534.99999999999955
 30
0.0
 11
2000.0
 21
-889.99999999999955
 31
0.0
1001
ACDBBLOCKREPETAG
1070
     1
1071
       43
1005
12EC5C
  0
LINE
  5
12EC5D
  8
OBJECT
 10
1928.0
 20
-570.99999999999955
 30
0.0
 11
1928.0
 21
-633.99999999999955
 31
0.0
1001
ACDBBLOCKREPETAG
1070
     1
1071
       44
1005
12EC5D
  0
LINE
  5
12EC5E
  8
OBJECT
 10
2072.0
 20
-633.99999999999955
 30
0.0
 11
2072.0
 21
-570.99999999999955
 31
0.0
1001
ACDBBLOCKREPETAG
1070
     1
1071
       45
1005
12EC5E
  0
LINE
  5
12EC5F
  8
OBJECT
 10
1920.0
 20
-877.99999999999955
 30
0.0
 11
2080.0
 21
-877.99999999999955
 31
0.0
1001
ACDBBLOCKREPETAG
1070
     1
1071
       46
1005
12EC5F
  0
LINE
  5
12EC60
  8
OBJECT
 10
2080.0
 20
-633.99999999999955
 30
0.0
 11
1920.0
 21
-633.99999999999955
 31
0.0
1001
ACDBBLOCKREPETAG
1070
     1
1071
       47
1005
12EC60
  0
LINE
  5
12EC61
  8
OBJECT
 10
1920.0
 20
-877.99999999999955
 30
0.0
 11
1920.0
 21
-889.99999999999955
 31
0.0
1001
ACDBBLOCKREPETAG
1070
     1
1071
       48
1005
12EC61
  0
LINE
  5
12EC62
  8
OBJECT
 10
1920.0
 20
-889.99999999999955
 30
0.0
 11
2080.0
 21
-889.99999999999955
 31
0.0
1001
ACDBBLOCKREPETAG
1070
     1
1071
       49
1005
12EC62
  0
LINE
  5
12EC63
  8
OBJECT
 10
2080.0
 20
-889.99999999999955
 30
0.0
 11
2080.0
 21
-877.99999999999955
 31
0.0
1001
ACDBBLOCKREPETAG
1070
     1
1071
       50
1005
12EC63
  0
LINE
  5
12EC64
  8
OBJECT
 10
2074.9999999998622
 20
-757.99999999985016
 30
0.0
 11
2075.0
 21
-877.99999999999955
 31
0.0
1001
ACDBBLOCKREPETAG
1070
     1
1071
       54
1005
12EC64
  0
LINE
  5
12EC65
  8
OBJECT
 10
2074.9999908029849
 20
-757.99998602702112
 30
0.0
 11
2080.0
 21
-757.99998602702112
 31
0.0
1001
ACDBBLOCKREPETAG
1070
     1
1071
       55
1005
12EC65
  0
LINE
  5
12EC66
  8
OBJECT
 10
1925.000000000138
 20
-757.99999999985016
 30
0.0
 11
1925.0
 21
-877.99999999999955
 31
0.0
1001
ACDBBLOCKREPETAG
1070
     1
1071
       56
1005
12EC66
  0
LINE
  5
12EC67
  8
OBJECT
 10
1925.000009197013
 20
-757.99998602702112
 30
0.0
 11
1920.0
 21
-757.99998602702112
 31
0.0
1001
ACDBBLOCKREPETAG
1070
     1
1071
       57
1005
12EC67
  0
ARC
  5
12EC68
  8
OBJECT
 10
2200.6872746716731
 20
-749.40809941010718
 30
0.0
 40
170.6350503965856
 50
137.44134459184301
 51
149.91949581336559
1001
ACDBBLOCKREPETAG
1070
     1
1071
       58
1005
12EC68
  0
ARC
  5
12EC69
  8
OBJECT
 10
2200.6872746716731
 20
-642.59190058989179
 30
0.0
 40
170.6350503965856
 50
210.0805041866343
 51
222.55865540815699
1001
ACDBBLOCKREPETAG
1070
     1
1071
       59
1005
12EC69
  0
ARC
  5
12EC6A
  8
OBJECT
 10
1799.312725328326
 20
-749.40809941010718
 30
0.0
 40
170.6350503965856
 50
30.080504186774089
 51
42.558655408382641
1001
ACDBBLOCKREPETAG
1070
     1
1071
       60
1005
12EC6A
  0
ARC
  5
12EC6B
  8
OBJECT
 10
1799.312725328326
 20
-642.59190058989179
 30
0.0
 40
170.6350503965856
 50
317.44134459161722
 51
329.91949581322592
1001
ACDBBLOCKREPETAG
1070
     1
1071
       61
1005
12EC6B
  0
POINT
  5
12EC6C
  8
DOTS
 10
2000.0
 20
-754.99999999999955
 30
0.0
1001
ACDBBLOCKREPETAG
1070
     1
1071
      185
1005
12EC6C
  0
LINE
  5
12EC6D
  8
OBJECT
 10
3930.0
 20
-1199.999999999997
 30
0.0
 11
4070.0
 21
-1199.999999999997
 31
0.0
1001
ACDBBLOCKREPETAG
1070
     1
1071
        0
1005
12EC6D
  0
LINE
  5
12EC6E
  8
OBJECT
 10
3930.0
 20
-1199.999999999997
 30
0.0
 11
3930.0
 21
-959.99999999999693
 31
0.0
1001
ACDBBLOCKREPETAG
1070
     1
1071
        1
1005
12EC6E
  0
LINE
  5
12EC6F
  8
OBJECT
 10
4070.0
 20
-1199.999999999997
 30
0.0
 11
4070.0
 21
-959.99999999999693
 31
0.0
1001
ACDBBLOCKREPETAG
1070
     1
1071
        2
1005
12EC6F
  0
LINE
  5
12EC70
  8
OBJECT
 10
3930.0
 20
-959.99999999999693
 30
0.0
 11
4070.0
 21
-959.99999999999693
 31
0.0
1001
ACDBBLOCKREPETAG
1070
     1
1071
        3
1005
12EC70
  0
LINE
  5
12EC71
  8
HIDDEN
 10
3937.5
 20
-959.99999999999693
 30
0.0
 11
3937.5
 21
-1199.999999999997
 31
0.0
1001
ACDBBLOCKREPETAG
1070
     1
1071
        4
1005
12EC71
  0
LINE
  5
12EC72
  8
HIDDEN
 10
4062.5
 20
-959.99999999999693
 30
0.0
 11
4062.5
 21
-1199.999999999997
 31
0.0
1001
ACDBBLOCKREPETAG
1070
     1
1071
        5
1005
12EC72
  0
LINE
  5
12EC73
  8
CENTER
 10
4000.0
 20
-889.99999999999875
 30
0.0
 11
4000.0
 21
-1214.999999999997
 31
0.0
1001
ACDBBLOCKREPETAG
1070
     1
1071
        6
1005
12EC73
  0
LINE
  5
12EC74
  8
OBJECT
 10
3925.0
 20
-889.99999999999875
 30
0.0
 11
3925.0
 21
-919.99999999999693
 31
0.0
1001
ACDBBLOCKREPETAG
1070
     1
1071
        7
1005
12EC74
  0
LINE
  5
12EC75
  8
OBJECT
 10
4075.0000000000032
 20
-889.99999999999875
 30
0.0
 11
4075.0
 21
-919.99999999999693
 31
0.0
1001
ACDBBLOCKREPETAG
1070
     1
1071
        8
1005
12EC75
  0
LINE
  5
12EC76
  8
OBJECT
 10
3925.0
 20
-919.99999999999693
 30
0.0
 11
4075.0
 21
-919.99999999999693
 31
0.0
1001
ACDBBLOCKREPETAG
1070
     1
1071
        9
1005
12EC76
  0
LINE
  5
12EC77
  8
OBJECT
 10
3925.0
 20
-919.99999999999693
 30
0.0
 11
3930.0
 21
-959.99999999999693
 31
0.0
1001
ACDBBLOCKREPETAG
1070
     1
1071
       10
1005
12EC77
  0
LINE
  5
12EC78
  8
OBJECT
 10
4070.0
 20
-959.99999999999693
 30
0.0
 11
4075.0
 21
-919.99999999999693
 31
0.0
1001
ACDBBLOCKREPETAG
1070
     1
1071
       11
1005
12EC78
  0
LINE
  5
12EC79
  8
OBJECT
 10
1930.0
 20
-1199.999999999997
 30
0.0
 11
2070.0
 21
-1199.999999999997
 31
0.0
1001
ACDBBLOCKREPETAG
1070
     1
1071
        0
1005
12EC79
  0
LINE
  5
12EC7A
  8
OBJECT
 10
1930.0
 20
-1199.999999999997
 30
0.0
 11
1930.0
 21
-959.99999999999784
 31
0.0
1001
ACDBBLOCKREPETAG
1070
     1
1071
        1
1005
12EC7A
  0
LINE
  5
12EC7B
  8
OBJECT
 10
2070.0
 20
-1199.999999999997
 30
0.0
 11
2070.0
 21
-959.99999999999784
 31
0.0
1001
ACDBBLOCKREPETAG
1070
     1
1071
        2
1005
12EC7B
  0
LINE
  5
12EC7C
  8
OBJECT
 10
1930.0
 20
-959.99999999999784
 30
0.0
 11
2070.0
 21
-959.99999999999784
 31
0.0
1001
ACDBBLOCKREPETAG
1070
     1
1071
        3
1005
12EC7C
  0
LINE
  5
12EC7D
  8
HIDDEN
 10
1937.5
 20
-959.99999999999784
 30
0.0
 11
1937.5
 21
-1199.999999999997
 31
0.0
1001
ACDBBLOCKREPETAG
1070
     1
1071
        4
1005
12EC7D
  0
LINE
  5
12EC7E
  8
HIDDEN
 10
2062.5
 20
-959.99999999999784
 30
0.0
 11
2062.5
 21
-1199.999999999997
 31
0.0
1001
ACDBBLOCKREPETAG
1070
     1
1071
        5
1005
12EC7E
  0
LINE
  5
12EC7F
  8
CENTER
 10
2000.0
 20
-889.99999999999955
 30
0.0
 11
2000.0
 21
-1214.999999999998
 31
0.0
1001
ACDBBLOCKREPETAG
1070
     1
1071
        6
1005
12EC7F
  0
LINE
  5
12EC80
  8
OBJECT
 10
1925.0
 20
-889.99999999999955
 30
0.0
 11
1925.0
 21
-919.99999999999761
 31
0.0
1001
ACDBBLOCKREPETAG
1070
     1
1071
        7
1005
12EC80
  0
LINE
  5
12EC81
  8
OBJECT
 10
2075.0000000000041
 20
-889.99999999999955
 30
0.0
 11
2075.0
 21
-919.99999999999761
 31
0.0
1001
ACDBBLOCKREPETAG
1070
     1
1071
        8
1005
12EC81
  0
LINE
  5
12EC82
  8
OBJECT
 10
1925.0
 20
-919.99999999999761
 30
0.0
 11
2075.0
 21
-919.99999999999761
 31
0.0
1001
ACDBBLOCKREPETAG
1070
     1
1071
        9
1005
12EC82
  0
LINE
  5
12EC83
  8
OBJECT
 10
1925.0
 20
-919.99999999999761
 30
0.0
 11
1930.0
 21
-959.99999999999784
 31
0.0
1001
ACDBBLOCKREPETAG
1070
     1
1071
       10
1005
12EC83
  0
LINE
  5
12EC84
  8
OBJECT
 10
2070.0
 20
-959.99999999999784
 30
0.0
 11
2075.0
 21
-919.99999999999761
 31
0.0
1001
ACDBBLOCKREPETAG
1070
     1
1071
       11
1005
12EC84
  0
TEXT
  5
12EC85
  8
SLIM
 10
3741.6250000000009
 20
-1467.499999999997
 30
0.0
 40
35.0
  1
片受けスタイル（S）＋シンドカット
 41
0.75
  0
TEXT
  5
12EC86
  8
SLIM
 10
1856.25
 20
-1467.499999999998
 30
0.0
 40
35.0
  1
片受けスタイル（S）
 41
0.75
  0
VIEWPORT
  5
F6BA7
 67
     1
  8
0
 10
145.33033752441401
 20
101.8328354358673
 30
0.0
 40
334.0025019414623
 41
222.19657968139651
 68
     1
 69
     1
1001
ACAD
1000
MVIEW
1002
{
1070
    16
1010
0.0
1020
0.0
1030
0.0
1010
0.0
1020
0.0
1030
1.0
1040
0.0
1040
222.19657968139651
1040
145.33033752441401
1040
101.8328354358673
1040
50.0
1040
0.0
1040
0.0
1070
     0
1070
     0
1070
     1
1070
     1
1070
     0
1070
     0
1070
     0
1070
     0
1040
0.0
1040
0.0
1040
0.0
1040
10.0
1040
10.0
1040
10.0
1040
10.0
1070
     0
1002
{
1002
}
1002
}
  0
VIEWPORT
  5
F6BA9
 67
     1
  8
OBJECT
 10
145.3303314447403
 20
101.8328338861465
 30
0.0
 40
232.5285303115844
 41
162.93253421783439
 68
     2
 69
     2
1001
ACAD
1000
MVIEW
1002
{
1070
    16
1010
0.0
1020
0.0
1030
0.0
1010
0.0
1020
0.0
1030
1.0
1040
0.0
1040
25942.55904403147
1040
2377.604457077377
1040
-7591.5176687056619
1040
50.0
1040
0.0
1040
0.0
1070
     0
1070
   600
1070
     1
1070
     1
1070
     0
1070
     0
1070
     0
1070
     0
1040
0.0
1040
0.0
1040
0.0
1040
1.0
1040
1.0
1040
0.0
1040
0.0
1070
     0
1002
{
1002
}
1002
}
  0
ENDSEC
  0
EOF
