  0
SECTION
  2
HEADER
  9
$ACADVER
  1
AC1009
  9
$INSBASE
 10
0.0
 20
0.0
 30
0.0
  9
$EXTMIN
 10
0.0
 20
-3817.4999999999959
 30
0.0
  9
$EXTMAX
 10
5575.0
 20
607.5
 30
0.0
  9
$LIMMIN
 10
0.0
 20
0.0
  9
$LIMMAX
 10
210.0
 20
297.0
  9
$ORTHOMODE
 70
     0
  9
$REGENMODE
 70
     1
  9
$FILLMODE
 70
     1
  9
$QTEXTMODE
 70
     0
  9
$MIRRTEXT
 70
     0
  9
$DRAGMODE
 70
     2
  9
$LTSCALE
 40
1.0
  9
$OSMODE
 70
    37
  9
$ATTMODE
 70
     1
  9
$TEXTSIZE
 40
4.0
  9
$TRACEWID
 40
0.05
  9
$TEXTSTYLE
  7
STANDARD
  9
$CLAYER
  8
OBJECT
  9
$CELTYPE
  6
BYLAYER
  9
$CECOLOR
 62
   256
  9
$DIMSCALE
 40
10.0
  9
$DIMASZ
 40
2.0
  9
$DIMEXO
 40
1.0
  9
$DIMDLI
 40
10.0
  9
$DIMRND
 40
0.0
  9
$DIMDLE
 40
0.0
  9
$DIMEXE
 40
1.0
  9
$DIMTP
 40
0.0
  9
$DIMTM
 40
0.0
  9
$DIMTXT
 40
3.2000000000000002
  9
$DIMCEN
 40
0.0
  9
$DIMTSZ
 40
0.0
  9
$DIMTOL
 70
     0
  9
$DIMLIM
 70
     0
  9
$DIMTIH
 70
     0
  9
$DIMTOH
 70
     0
  9
$DIMSE1
 70
     0
  9
$DIMSE2
 70
     0
  9
$DIMTAD
 70
     1
  9
$DIMZIN
 70
     8
  9
$DIMBLK
  1
OPEN30
  9
$DIMASO
 70
     1
  9
$DIMSHO
 70
     1
  9
$DIMPOST
  1

  9
$DIMAPOST
  1

  9
$DIMALT
 70
     0
  9
$DIMALTD
 70
     2
  9
$DIMALTF
 40
25.399999999999999
  9
$DIMLFAC
 40
1.0
  9
$DIMTOFL
 70
     1
  9
$DIMTVP
 40
0.0
  9
$DIMTIX
 70
     0
  9
$DIMSOXD
 70
     0
  9
$DIMSAH
 70
     0
  9
$DIMBLK1
  1

  9
$DIMBLK2
  1

  9
$DIMSTYLE
  2
S10
  9
$DIMCLRD
 70
   256
  9
$DIMCLRE
 70
   256
  9
$DIMCLRT
 70
   256
  9
$DIMTFAC
 40
1.0
  9
$DIMGAP
 40
0.9
  9
$LUNITS
 70
     2
  9
$LUPREC
 70
     2
  9
$SKETCHINC
 40
0.1
  9
$FILLETRAD
 40
0.0
  9
$AUNITS
 70
     0
  9
$AUPREC
 70
     2
  9
$MENU
  1
ACAD
  9
$ELEVATION
 40
0.0
  9
$PELEVATION
 40
0.0
  9
$THICKNESS
 40
0.0
  9
$LIMCHECK
 70
     0
  9
$BLIPMODE
 70
     0
  9
$CHAMFERA
 40
2.0
  9
$CHAMFERB
 40
2.0
  9
$SKPOLY
 70
     0
  9
$TDCREATE
 40
2453095.4929404748
  9
$TDUPDATE
 40
2457603.711488334
  9
$TDINDWG
 40
18.350567638899999
  9
$TDUSRTIMER
 40
18.3505669213
  9
$USRTIMER
 70
     1
  9
$ANGBASE
 50
0.0
  9
$ANGDIR
 70
     0
  9
$PDMODE
 70
    35
  9
$PDSIZE
 40
2.0
  9
$PLINEWID
 40
0.0
  9
$COORDS
 70
     1
  9
$SPLFRAME
 70
     0
  9
$SPLINETYPE
 70
     6
  9
$SPLINESEGS
 70
     8
  9
$ATTDIA
 70
     0
  9
$ATTREQ
 70
     1
  9
$HANDLING
 70
     1
  9
$HANDSEED
  5
132DD0
  9
$SURFTAB1
 70
     6
  9
$SURFTAB2
 70
     6
  9
$SURFTYPE
 70
     6
  9
$SURFU
 70
     6
  9
$SURFV
 70
     6
  9
$UCSNAME
  2

  9
$UCSORG
 10
0.0
 20
0.0
 30
0.0
  9
$UCSXDIR
 10
1.0
 20
0.0
 30
0.0
  9
$UCSYDIR
 10
0.0
 20
1.0
 30
0.0
  9
$PUCSNAME
  2

  9
$PUCSORG
 10
0.0
 20
0.0
 30
0.0
  9
$PUCSXDIR
 10
1.0
 20
0.0
 30
0.0
  9
$PUCSYDIR
 10
0.0
 20
1.0
 30
0.0
  9
$USERI1
 70
     0
  9
$USERI2
 70
     0
  9
$USERI3
 70
     0
  9
$USERI4
 70
     0
  9
$USERI5
 70
     0
  9
$USERR1
 40
0.0
  9
$USERR2
 40
0.0
  9
$USERR3
 40
0.0
  9
$USERR4
 40
0.0
  9
$USERR5
 40
0.0
  9
$WORLDVIEW
 70
     1
  9
$SHADEDGE
 70
     3
  9
$SHADEDIF
 70
    70
  9
$TILEMODE
 70
     1
  9
$MAXACTVP
 70
    64
  9
$PLIMCHECK
 70
     0
  9
$PEXTMIN
 10
29.066066288948051
 20
20.366566777229309
 30
0.0
  9
$PEXTMAX
 10
261.5945966005325
 20
183.29910099506381
 30
0.0
  9
$PLIMMIN
 10
-3.17498779296875
 20
-3.1749999523162842
  9
$PLIMMAX
 10
293.83566284179687
 20
206.8406708240509
  9
$UNITMODE
 70
     0
  9
$VISRETAIN
 70
     1
  9
$PLINEGEN
 70
     0
  9
$PSLTSCALE
 70
     1
  0
ENDSEC
  0
SECTION
  2
TABLES
  0
TABLE
  2
VPORT
 70
     1
  0
VPORT
  2
*ACTIVE
 70
     0
 10
0.0
 20
0.0
 11
1.0
 21
1.0
 12
4188.7508341781086
 22
-1031.6127259429729
 13
0.0
 23
0.0
 14
1.0
 24
1.0
 15
0.0
 25
0.0
 16
0.0
 26
0.0
 36
1.0
 17
0.0
 27
0.0
 37
0.0
 40
1224.401150395136
 41
1.6494178525226391
 42
50.0
 43
0.0
 44
0.0
 50
0.0
 51
0.0
 71
     0
 72
   600
 73
     1
 74
     1
 75
     0
 76
     0
 77
     0
 78
     0
  0
ENDTAB
  0
TABLE
  2
LTYPE
 70
     4
  0
LTYPE
  2
CONTINUOUS
 70
     0
  3
Solid line
 72
    65
 73
     0
 40
0.0
  0
LTYPE
  2
PHANTOM2
 70
     0
  3
___ _ _ ___ _ _ ___ _ _ ___ _ _
 72
    65
 73
     6
 40
1.25
 49
0.625
 49
-0.125
 49
0.125
 49
-0.125
 49
0.125
 49
-0.125
  0
LTYPE
  2
ACAD_ISO08W100
 70
     0
  3
ISO long-dash short-dash ____ __ ____ __ ____ _
 72
    65
 73
     4
 40
36.0
 49
24.0
 49
-3.0
 49
6.0
 49
-3.0
  0
LTYPE
  2
ACAD_ISO02W100
 70
     0
  3
ISO dash __ __ __ __ __ __ __ __ __ __ __ __ __
 72
    65
 73
     2
 40
15.0
 49
12.0
 49
-3.0
  0
ENDTAB
  0
TABLE
  2
LAYER
 70
     8
  0
LAYER
  2
0
 70
     0
 62
     7
  6
CONTINUOUS
  0
LAYER
  2
OBJECT
 70
     0
 62
     4
  6
CONTINUOUS
  0
LAYER
  2
DEFPOINTS
 70
     0
 62
     7
  6
CONTINUOUS
  0
LAYER
  2
DIM
 70
     0
 62
     7
  6
CONTINUOUS
  0
LAYER
  2
HIDDEN
 70
     0
 62
     2
  6
ACAD_ISO02W100
  0
LAYER
  2
CENTER
 70
     0
 62
     2
  6
ACAD_ISO08W100
  0
LAYER
  2
DOTS
 70
     0
 62
     1
  6
CONTINUOUS
  0
LAYER
  2
SLIM
 70
     0
 62
     2
  6
CONTINUOUS
  0
ENDTAB
  0
TABLE
  2
STYLE
 70
     2
  0
STYLE
  2
STANDARD
 70
     0
 40
0.0
 41
0.75
 50
0.0
 71
     0
 42
4.0
  3
simplex.shx
  4
bigfont.shx
  0
ENDTAB
  0
TABLE
  2
VIEW
 70
     0
  0
ENDTAB
  0
TABLE
  2
UCS
 70
     0
  0
ENDTAB
  0
TABLE
  2
APPID
 70
    18
  0
APPID
  2
ACAD
 70
     0
  0
APPID
  2
ACADANNOTATIVE
 70
     0
  0
APPID
  2
ACAD_PSEXT
 70
     0
  0
APPID
  2
ACAD_EXEMPT_FROM_CAD_STANDARDS
 70
     0
  0
APPID
  2
ACAECLAYERSTANDARD
 70
     0
  0
APPID
  2
ACAUTHENVIRON
 70
     0
  0
APPID
  2
ACDBDYNAMICBLOCKTRUENAME
 70
     0
  0
APPID
  2
ACDBDYNAMICBLOCKGUID
 70
     0
  0
APPID
  2
ACDBBLOCKREPETAG
 70
     0
  0
APPID
  2
ACDBBLOCKREPBTAG
 70
     0
  0
APPID
  2
ACAD_NAV_VCDISPLAY
 70
     0
  0
APPID
  2
ACAD_DSTYLE_DIMRADIAL_EXTENSION
 70
     0
  0
APPID
  2
ACAD_DSTYLE_DIMJAG
 70
     0
  0
APPID
  2
ACAD_DSTYLE_DIMTALN
 70
     0
  0
APPID
  2
ACADANNOPO
 70
     0
  0
APPID
  2
GRADIENTCOLOR1ACI
 70
     0
  0
APPID
  2
GRADIENTCOLOR2ACI
 70
     0
  0
APPID
  2
ACAD_MLEADERVER
 70
     0
  0
ENDTAB
  0
TABLE
  2
DIMSTYLE
 70
     3
  0
DIMSTYLE
  2
STANDARD
 70
     0
  3

  4

  5

  6

  7

 40
1.0
 41
0.18
 42
0.0625
 43
0.38
 44
0.18
 45
0.0
 46
0.0
 47
0.0
 48
0.0
140
0.18
141
0.09
142
0.0
143
25.399999999999999
144
1.0
145
0.0
146
1.0
147
0.09
 71
     0
 72
     0
 73
     1
 74
     1
 75
     0
 76
     0
 77
     0
 78
     0
170
     0
171
     2
172
     0
173
     0
174
     0
175
     0
176
     0
177
     0
178
     0
  0
DIMSTYLE
  2
S10
 70
     0
  3

  4

  5

  6

  7

 40
10.0
 41
2.0
 42
1.0
 43
10.0
 44
1.0
 45
0.0
 46
0.0
 47
0.0
 48
0.0
140
3.2000000000000002
141
0.0
142
0.0
143
25.399999999999999
144
1.0
145
0.0
146
1.0
147
0.9
 71
     0
 72
     0
 73
     0
 74
     0
 75
     0
 76
     0
 77
     1
 78
     8
170
     0
171
     2
172
     1
173
     0
174
     0
175
     0
176
   256
177
   256
178
   256
  0
ENDTAB
  0
ENDSEC
  0
SECTION
  2
BLOCKS
  0
BLOCK
  8
0
  2
$MODEL_SPACE
 70
     0
 10
0.0
 20
0.0
 30
0.0
  3
$MODEL_SPACE
  1

  0
ENDBLK
  5
132D1C
  8
0
  0
BLOCK
 67
     1
  8
0
  2
$PAPER_SPACE
 70
     0
 10
0.0
 20
0.0
 30
0.0
  3
$PAPER_SPACE
  1

  0
ENDBLK
  5
132D18
 67
     1
  8
0
  0
BLOCK
  8
0
  2
_OPEN30
 70
     0
 10
0.0
 20
0.0
 30
0.0
  3
_OPEN30
  1

  0
LINE
  5
202
  8
0
  6
BYBLOCK
 62
     0
 10
-1.0
 20
0.26794919
 30
0.0
 11
0.0
 21
0.0
 31
0.0
  0
LINE
  5
203
  8
0
  6
BYBLOCK
 62
     0
 10
0.0
 20
0.0
 30
0.0
 11
-1.0
 21
-0.26794919
 31
0.0
  0
LINE
  5
204
  8
0
  6
BYBLOCK
 62
     0
 10
0.0
 20
0.0
 30
0.0
 11
-1.0
 21
0.0
 31
0.0
  0
ENDBLK
  5
206
  8
0
  0
BLOCK
  8
0
  2
*U4
 70
     1
 10
0.0
 20
0.0
 30
0.0
  3
*U4
  1

  0
TEXT
  5
132C68
  8
DIM
 10
3840.6616440113212
 20
-1042.742857142855
 30
0.0
 40
32.0
  1
m（シンドカット）
 50
90.0
 41
0.75
  0
ENDBLK
  5
132C6A
  8
0
  0
BLOCK
  8
0
  2
*U5
 70
     1
 10
0.0
 20
0.0
 30
0.0
  3
*U5
  1

  0
TEXT
  5
132C6C
  8
SLIM
 10
198.9523809523825
 20
-683.0
 30
0.0
 40
26.0
  1
75
  0
ENDBLK
  5
132C6E
  8
0
  0
BLOCK
  8
0
  2
*U6
 70
     1
 10
0.0
 20
0.0
 30
0.0
  3
*U6
  1

  0
TEXT
  5
132C70
  8
SLIM
 10
186.5714285714302
 20
-992.99999999998545
 30
0.0
 40
26.0
  1
75Z
  0
ENDBLK
  5
132C72
  8
0
  0
BLOCK
  8
0
  2
*U7
 70
     1
 10
0.0
 20
0.0
 30
0.0
  3
*U7
  1

  0
TEXT
  5
132C74
  8
SLIM
 10
198.95238095238261
 20
-103.0
 30
0.0
 40
26.0
  1
50
  0
ENDBLK
  5
132C76
  8
0
  0
BLOCK
  8
0
  2
*U8
 70
     1
 10
0.0
 20
0.0
 30
0.0
  3
*U8
  1

  0
TEXT
  5
132C78
  8
SLIM
 10
186.5714285714302
 20
-412.99999999998528
 30
0.0
 40
26.0
  1
75Z
  0
ENDBLK
  5
132C7A
  8
0
  0
BLOCK
  8
0
  2
*U9
 70
     1
 10
0.0
 20
0.0
 30
0.0
  3
*U9
  1

  0
TEXT
  5
132C7C
  8
SLIM
 10
648.95238095238255
 20
-103.0
 30
0.0
 40
26.0
  1
65
  0
ENDBLK
  5
132C7E
  8
0
  0
BLOCK
  8
0
  2
*U10
 70
     1
 10
0.0
 20
0.0
 30
0.0
  3
*U10
  1

  0
TEXT
  5
132C80
  8
SLIM
 10
636.57142857143015
 20
-412.99999999998528
 30
0.0
 40
26.0
  1
75Z
  0
ENDBLK
  5
132C82
  8
0
  0
BLOCK
  8
0
  2
*U11
 70
     1
 10
0.0
 20
0.0
 30
0.0
  3
*U11
  1

  0
TEXT
  5
132C84
  8
SLIM
 10
639.04761904762063
 20
-675.75
 30
0.0
 40
26.0
  1
100
  0
ENDBLK
  5
132C86
  8
0
  0
BLOCK
  8
0
  2
*U12
 70
     1
 10
0.0
 20
0.0
 30
0.0
  3
*U12
  1

  0
TEXT
  5
132C88
  8
SLIM
 10
636.57142857143015
 20
-992.99999999998545
 30
0.0
 40
26.0
  1
75Z
  0
ENDBLK
  5
132C8A
  8
0
  0
BLOCK
  8
0
  2
*U13
 70
     1
 10
0.0
 20
0.0
 30
0.0
  3
*U13
  1

  0
TEXT
  5
132CA0
  8
DIM
 10
2209.479620594459
 20
-3304.1428571428528
 30
0.0
 40
32.0
  1
A
 50
90.0
 41
0.75
  0
ENDBLK
  5
132CA2
  8
0
  0
BLOCK
  8
0
  2
*U14
 70
     1
 10
0.0
 20
0.0
 30
0.0
  3
*U14
  1

  0
TEXT
  5
132CA4
  8
DIM
 10
2207.8409284037348
 20
-3685.9999999999959
 30
0.0
 40
32.0
  1
B
 50
90.0
 41
0.75
  0
ENDBLK
  5
132CA6
  8
0
  0
BLOCK
  8
0
  2
*U15
 70
     1
 10
0.0
 20
0.0
 30
0.0
  3
*U15
  1

  0
TEXT
  5
132CA8
  8
DIM
 10
2061.428571428572
 20
-3158.208121984444
 30
0.0
 40
32.0
  1
C
 41
0.75
  0
ENDBLK
  5
132CAA
  8
0
  0
ENDSEC
  0
SECTION
  2
ENTITIES
  0
LINE
  5
12515F
  8
OBJECT
 10
1825.0
 20
-3699.9999999999959
 30
0.0
 11
5575.0
 21
-3699.9999999999959
 31
0.0
  0
LINE
  5
125161
  8
SLIM
 10
2616.0
 20
-2757.50001604727
 30
0.0
 11
2616.0
 21
-3087.50001604727
 31
0.0
  0
LINE
  5
125162
  8
SLIM
 10
2740.0
 20
-2757.50001604727
 30
0.0
 11
2740.0
 21
-3087.50001604727
 31
0.0
  0
LINE
  5
125163
  8
SLIM
 10
2870.0
 20
-2817.50001604727
 30
0.0
 11
2870.0
 21
-3087.50001604727
 31
0.0
  0
LINE
  5
125164
  8
SLIM
 10
3000.0
 20
-2817.50001604727
 30
0.0
 11
3000.0
 21
-3087.50001604727
 31
0.0
  0
LINE
  5
125165
  8
SLIM
 10
3130.0
 20
-3087.50001604727
 30
0.0
 11
3130.0
 21
-2817.50001604727
 31
0.0
  0
LINE
  5
125166
  8
SLIM
 10
3260.0
 20
-3087.50001604727
 30
0.0
 11
3260.0
 21
-2757.50001604727
 31
0.0
  0
LINE
  5
125167
  8
SLIM
 10
3260.0
 20
-2757.50001604727
 30
0.0
 11
2616.0
 21
-2757.50001604727
 31
0.0
  0
LINE
  5
125168
  8
SLIM
 10
3260.0
 20
-2817.50001604727
 30
0.0
 11
2740.0
 21
-2817.50001604727
 31
0.0
  0
LINE
  5
125169
  8
SLIM
 10
3260.0
 20
-2877.50001604727
 30
0.0
 11
2616.0
 21
-2877.50001604727
 31
0.0
  0
LINE
  5
12516A
  8
SLIM
 10
3260.0
 20
-2947.50001604727
 30
0.0
 11
2616.0
 21
-2947.50001604727
 31
0.0
  0
LINE
  5
12516B
  8
SLIM
 10
3260.0
 20
-3017.50001604727
 30
0.0
 11
2616.0
 21
-3017.50001604727
 31
0.0
  0
LINE
  5
12516C
  8
SLIM
 10
3260.0
 20
-3087.50001604727
 30
0.0
 11
2616.0
 21
-3087.50001604727
 31
0.0
  0
LINE
  5
125181
  8
SLIM
 10
2740.0
 20
-2877.50001604727
 30
0.0
 11
2615.9999722746579
 21
-2757.5
 31
0.0
  0
LINE
  5
1251B6
  8
OBJECT
 10
5323.0
 20
-3515.9999999999968
 30
0.0
 11
5323.0
 21
-3494.9999999999968
 31
0.0
1001
ACDBBLOCKREPETAG
1070
     1
1071
       20
1005
1251B6
  0
LINE
  5
1251B7
  8
OBJECT
 10
5323.0
 20
-3494.9999999999968
 30
0.0
 11
5477.0
 21
-3494.9999999999968
 31
0.0
1001
ACDBBLOCKREPETAG
1070
     1
1071
       21
1005
1251B7
  0
LINE
  5
1251B8
  8
HIDDEN
 10
5343.0
 20
-3564.9999999999968
 30
0.0
 11
5457.0
 21
-3564.9999999999968
 31
0.0
1001
ACDBBLOCKREPETAG
1070
     1
1071
       22
1005
1251B8
  0
LINE
  5
1251B9
  8
OBJECT
 10
5477.0
 20
-3494.9999999999968
 30
0.0
 11
5477.0
 21
-3515.9999999999968
 31
0.0
1001
ACDBBLOCKREPETAG
1070
     1
1071
       23
1005
1251B9
  0
LINE
  5
1251BA
  8
OBJECT
 10
5477.0
 20
-3515.9999999999968
 30
0.0
 11
5323.0
 21
-3515.9999999999968
 31
0.0
1001
ACDBBLOCKREPETAG
1070
     1
1071
       24
1005
1251BA
  0
LINE
  5
1251BB
  8
CENTER
 10
5400.0
 20
-3479.9999999999968
 30
0.0
 11
5400.0
 21
-3714.9999999999968
 31
0.0
1001
ACDBBLOCKREPETAG
1070
     1
1071
       25
1005
1251BB
  0
LINE
  5
1251BC
  8
OBJECT
 10
5325.0
 20
-3578.9999999999968
 30
0.0
 11
5325.0
 21
-3702.9999999999968
 31
0.0
1001
ACDBBLOCKREPETAG
1070
     1
1071
       26
1005
1251BC
  0
LINE
  5
1251BD
  8
OBJECT
 10
5328.0
 20
-3515.9999999999968
 30
0.0
 11
5328.0
 21
-3578.9999999999968
 31
0.0
1001
ACDBBLOCKREPETAG
1070
     1
1071
       27
1005
1251BD
  0
LINE
  5
1251BE
  8
OBJECT
 10
5472.0
 20
-3578.9999999999968
 30
0.0
 11
5472.0
 21
-3515.9999999999968
 31
0.0
1001
ACDBBLOCKREPETAG
1070
     1
1071
       28
1005
1251BE
  0
LINE
  5
1251BF
  8
OBJECT
 10
5475.0
 20
-3578.9999999999968
 30
0.0
 11
5456.7802782663139
 21
-3578.9999999999968
 31
0.0
1001
ACDBBLOCKREPETAG
1070
     1
1071
       30
1005
1251BF
  0
LINE
  5
1251C0
  8
OBJECT
 10
5475.0
 20
-3578.9999999999968
 30
0.0
 11
5475.0
 21
-3702.9999999999968
 31
0.0
1001
ACDBBLOCKREPETAG
1070
     1
1071
       34
1005
1251C0
  0
POINT
  5
1251C1
  8
DOTS
 10
5400.0
 20
-3699.9999999999968
 30
0.0
1001
ACDBBLOCKREPETAG
1070
     1
1071
      187
1005
1251C1
  0
LINE
  5
1251C2
  8
CENTER
 10
5310.0
 20
-3627.9999999999968
 30
0.0
 11
5490.0
 21
-3627.9999999999968
 31
0.0
1001
ACDBBLOCKREPETAG
1070
     1
1071
       23
1005
1251C2
  0
CIRCLE
  5
1251C3
  8
OBJECT
 10
5400.0
 20
-3627.9999999999968
 30
0.0
 40
53.5
1001
ACDBBLOCKREPETAG
1070
     1
1071
       24
1005
1251C3
  0
CIRCLE
  5
1251C4
  8
OBJECT
 10
5400.0
 20
-3627.9999999999968
 30
0.0
 40
67.0
1001
ACDBBLOCKREPETAG
1070
     1
1071
       25
1005
1251C4
  0
ARC
  5
1251C5
  8
OBJECT
 10
5400.0
 20
-3627.9999999999968
 30
0.0
 40
75.0
 50
286.26020470824369
 51
253.73979529175631
1001
ACDBBLOCKREPETAG
1070
     1
1071
       27
1005
1251C5
  0
LINE
  5
1251C6
  8
OBJECT
 10
5379.0
 20
-3699.9999999999968
 30
0.0
 11
5421.0
 21
-3699.9999999999968
 31
0.0
1001
ACDBBLOCKREPETAG
1070
     1
1071
       28
1005
1251C6
  0
LINE
  5
1251C7
  8
OBJECT
 10
5343.2197217336861
 20
-3578.9999999999968
 30
0.0
 11
5325.0
 21
-3578.9999999999968
 31
0.0
1001
ACDBBLOCKREPETAG
1070
     1
1071
       30
1005
1251BF
  0
TEXT
  5
12AED7
  8
SLIM
 10
-0.0000000000000011
 20
282.5
 30
0.0
 40
35.0
  1
※ 100枝（4）がある場合、品名の最後に【管底】が付きます。
 41
0.9
 11
0.0
 21
300.0
 31
0.0
 73
     2
  0
TEXT
  5
13235A
  8
SLIM
 10
39.642857142857743
 20
-555.0
 30
0.0
 40
60.0
  1
Z106-P140
 41
0.75
 72
     4
 11
225.0000000000006
 21
-525.0
 31
0.0
  0
TEXT
  5
13235B
  8
SLIM
 10
35.357142857142811
 20
-1135.0
 30
0.0
 40
60.0
  1
Z306-P140
 41
0.75
 72
     4
 11
225.0
 21
-1105.0
 31
0.0
  0
TEXT
  5
13235C
  8
SLIM
 10
485.35714285714272
 20
-555.0
 30
0.0
 40
60.0
  1
Z206-P140
 41
0.75
 72
     4
 11
675.0
 21
-525.0
 31
0.0
  0
TEXT
  5
13235D
  8
SLIM
 10
485.35714285714272
 20
-1135.0
 30
0.0
 40
60.0
  1
Z406-P140
 41
0.75
 72
     4
 11
675.0
 21
-1105.0
 31
0.0
  0
LINE
  5
1327C3
  8
SLIM
 10
4350.0
 20
-479.99999999999471
 30
0.0
 11
4350.0
 21
-1199.999999999995
 31
0.0
  0
LINE
  5
1327C4
  8
SLIM
 10
4454.0
 20
-1199.999999999995
 30
0.0
 11
4454.0
 21
-479.99999999999471
 31
0.0
  0
LINE
  5
1327C5
  8
SLIM
 10
4602.0
 20
-479.99999999999471
 30
0.0
 11
4350.0
 21
-479.99999999999471
 31
0.0
  0
LINE
  5
1327C6
  8
SLIM
 10
4602.0
 20
-527.99999999999466
 30
0.0
 11
4350.0
 21
-527.99999999999466
 31
0.0
  0
LINE
  5
1327C8
  8
SLIM
 10
4602.0
 20
-575.99999999999466
 30
0.0
 11
4350.0
 21
-575.99999999999466
 31
0.0
  0
LINE
  5
1327C9
  8
SLIM
 10
4602.0
 20
-623.99999999999466
 30
0.0
 11
4350.0
 21
-623.99999999999466
 31
0.0
  0
LINE
  5
1327CA
  8
SLIM
 10
4602.0
 20
-671.99999999999477
 30
0.0
 11
4350.0
 21
-671.99999999999477
 31
0.0
  0
LINE
  5
1327CE
  8
SLIM
 10
4602.0
 20
-719.99999999999466
 30
0.0
 11
4350.0
 21
-719.99999999999466
 31
0.0
  0
LINE
  5
1327D0
  8
SLIM
 10
4602.0
 20
-767.99999999999477
 30
0.0
 11
4350.0
 21
-767.99999999999477
 31
0.0
  0
LINE
  5
1327D2
  8
SLIM
 10
4602.0
 20
-815.99999999999477
 30
0.0
 11
4350.0
 21
-815.99999999999477
 31
0.0
  0
LINE
  5
1327D4
  8
SLIM
 10
4602.0
 20
-863.99999999999454
 30
0.0
 11
4350.0
 21
-863.99999999999454
 31
0.0
  0
LINE
  5
1327D6
  8
SLIM
 10
4602.0
 20
-911.99999999999454
 30
0.0
 11
4350.0
 21
-911.99999999999454
 31
0.0
  0
LINE
  5
1327D8
  8
SLIM
 10
4602.0
 20
-959.99999999999477
 30
0.0
 11
4350.0
 21
-959.99999999999477
 31
0.0
  0
LINE
  5
1327DA
  8
SLIM
 10
4602.0
 20
-1007.999999999995
 30
0.0
 11
4350.0
 21
-1007.999999999995
 31
0.0
  0
LINE
  5
1327DC
  8
SLIM
 10
4602.0
 20
-1055.9999999999941
 30
0.0
 11
4350.0
 21
-1055.9999999999941
 31
0.0
  0
LINE
  5
1327DE
  8
SLIM
 10
4602.0
 20
-1103.9999999999941
 30
0.0
 11
4350.0
 21
-1103.9999999999941
 31
0.0
  0
LINE
  5
1327E0
  8
SLIM
 10
4602.0
 20
-1151.999999999995
 30
0.0
 11
4350.0
 21
-1151.999999999995
 31
0.0
  0
LINE
  5
1327E2
  8
SLIM
 10
4602.0
 20
-1199.999999999995
 30
0.0
 11
4350.0
 21
-1199.999999999995
 31
0.0
  0
LINE
  5
1327E5
  8
SLIM
 10
4602.0
 20
-479.99999999999471
 30
0.0
 11
4602.0
 21
-1199.999999999995
 31
0.0
  0
TEXT
  5
132832
  8
SLIM
 10
3554.6000000000008
 20
-1535.6666666666631
 30
0.0
 40
28.0
  1
※ 対応スラブ厚　180～（m-10）
 41
0.75
  0
TEXT
  5
132833
  8
SLIM
 10
3554.6000000000008
 20
-1582.3333333333301
 30
0.0
 40
28.0
  1
※ 足切り可能寸法（最大）　330-m（コンパクトＬベンド使用なら+20）
 41
0.75
  0
TEXT
  5
132834
  8
SLIM
 10
3598.9000000000001
 20
-1675.6666666666631
 30
0.0
 40
28.0
  1
国土交通大臣認定・（一財）日本消防設備安全センター性能評定取得品
 41
0.75
  0
TEXT
  5
132835
  8
SLIM
 10
3631.1000000000022
 20
-1722.3333333333289
 30
0.0
 40
28.0
  1
注）ご採用にあたり、認定書及び評定書の内容をご確認ください。
 41
0.75
  0
TEXT
  5
132836
  8
SLIM
 10
4470.057142857142
 20
-1187.999999999995
 30
0.0
 40
24.0
  1
180～320
 41
0.75
  0
TEXT
  5
132837
  8
SLIM
 10
4471.7714285714283
 20
-1139.999999999995
 30
0.0
 40
24.0
  1
180～310
 41
0.75
  0
TEXT
  5
132838
  8
SLIM
 10
4470.057142857142
 20
-1091.999999999995
 30
0.0
 40
24.0
  1
180～300
 41
0.75
  0
TEXT
  5
132839
  8
SLIM
 10
4470.057142857142
 20
-1043.999999999995
 30
0.0
 40
24.0
  1
180～290
 41
0.75
  0
TEXT
  5
13283A
  8
SLIM
 10
4470.057142857142
 20
-995.99999999999454
 30
0.0
 40
24.0
  1
180～280
 41
0.75
  0
TEXT
  5
13283B
  8
SLIM
 10
4470.057142857142
 20
-947.99999999999454
 30
0.0
 40
24.0
  1
180～270
 41
0.75
  0
TEXT
  5
13283C
  8
SLIM
 10
4470.057142857142
 20
-899.99999999999477
 30
0.0
 40
24.0
  1
180～260
 41
0.75
  0
TEXT
  5
13283D
  8
SLIM
 10
4470.057142857142
 20
-851.99999999999477
 30
0.0
 40
24.0
  1
180～250
 41
0.75
  0
TEXT
  5
13283E
  8
SLIM
 10
4470.057142857142
 20
-803.99999999999454
 30
0.0
 40
24.0
  1
180～240
 41
0.75
  0
TEXT
  5
13283F
  8
SLIM
 10
4470.057142857142
 20
-755.99999999999477
 30
0.0
 40
24.0
  1
180～230
 41
0.75
  0
TEXT
  5
132840
  8
SLIM
 10
4470.057142857142
 20
-707.99999999999466
 30
0.0
 40
24.0
  1
180～220
 41
0.75
  0
TEXT
  5
132841
  8
SLIM
 10
4471.7714285714283
 20
-659.99999999999477
 30
0.0
 40
24.0
  1
180～210
 41
0.75
  0
TEXT
  5
132842
  8
SLIM
 10
4470.057142857142
 20
-611.99999999999466
 30
0.0
 40
24.0
  1
180～200
 41
0.75
  0
TEXT
  5
132843
  8
SLIM
 10
4471.7714285714283
 20
-563.99999999999477
 30
0.0
 40
24.0
  1
180～190
 41
0.75
  0
TEXT
  5
132844
  8
SLIM
 10
4465.6000000000013
 20
-515.99999999999466
 30
0.0
 40
24.0
  1
対応スラブ厚
 41
0.75
  0
TEXT
  5
132845
  8
SLIM
 10
4396.4571428571408
 20
-1245.999999999995
 30
0.0
 40
24.0
  1
標準：m=330
 41
0.75
  0
TEXT
  5
132846
  8
SLIM
 10
4378.8571428571431
 20
-1187.999999999995
 30
0.0
 40
24.0
  1
330
 41
0.75
  0
TEXT
  5
132847
  8
SLIM
 10
4378.8571428571431
 20
-1139.999999999995
 30
0.0
 40
24.0
  1
320
 41
0.75
  0
TEXT
  5
132848
  8
SLIM
 10
4380.5714285714284
 20
-1091.999999999995
 30
0.0
 40
24.0
  1
310
 41
0.75
  0
TEXT
  5
132849
  8
SLIM
 10
4378.8571428571431
 20
-1043.999999999995
 30
0.0
 40
24.0
  1
300
 41
0.75
  0
TEXT
  5
13284A
  8
SLIM
 10
4378.8571428571431
 20
-995.99999999999454
 30
0.0
 40
24.0
  1
290
 41
0.75
  0
TEXT
  5
13284B
  8
SLIM
 10
4378.8571428571431
 20
-947.99999999999454
 30
0.0
 40
24.0
  1
280
 41
0.75
  0
TEXT
  5
13284C
  8
SLIM
 10
4378.8571428571431
 20
-899.99999999999477
 30
0.0
 40
24.0
  1
270
 41
0.75
  0
TEXT
  5
13284D
  8
SLIM
 10
4378.8571428571431
 20
-851.99999999999477
 30
0.0
 40
24.0
  1
260
 41
0.75
  0
TEXT
  5
13284E
  8
SLIM
 10
4378.8571428571431
 20
-803.99999999999454
 30
0.0
 40
24.0
  1
250
 41
0.75
  0
TEXT
  5
13284F
  8
SLIM
 10
4378.8571428571431
 20
-755.99999999999477
 30
0.0
 40
24.0
  1
240
 41
0.75
  0
TEXT
  5
132850
  8
SLIM
 10
4378.8571428571431
 20
-707.99999999999466
 30
0.0
 40
24.0
  1
230
 41
0.75
  0
TEXT
  5
132851
  8
SLIM
 10
4378.8571428571431
 20
-659.99999999999477
 30
0.0
 40
24.0
  1
220
 41
0.75
  0
TEXT
  5
132852
  8
SLIM
 10
4380.5714285714284
 20
-611.99999999999466
 30
0.0
 40
24.0
  1
210
 41
0.75
  0
TEXT
  5
132853
  8
SLIM
 10
4369.9428571428571
 20
-515.99999999999466
 30
0.0
 40
24.0
  1
m寸法
 41
0.75
  0
TEXT
  5
132854
  8
SLIM
 10
4378.8571428571431
 20
-563.99999999999477
 30
0.0
 40
24.0
  1
200
 41
0.75
  0
LINE
  5
132855
  8
DIM
 10
3904.9999999999941
 20
-754.99999999999875
 30
0.0
 11
3839.6616440113221
 21
-754.99999999999875
 31
0.0
  0
LINE
  5
132856
  8
DIM
 10
3910.0
 20
-1084.999999999998
 30
0.0
 11
3839.6616440113221
 21
-1084.999999999998
 31
0.0
  0
LINE
  5
132857
  8
DIM
 10
3849.6616440113221
 20
-774.99999999999875
 30
0.0
 11
3849.6616440113221
 21
-1064.999999999998
 31
0.0
  0
INSERT
  5
132858
  8
DIM
  2
_OPEN30
 10
3849.6616440113221
 20
-754.99999999999875
 30
0.0
 41
20.0
 42
20.0
 43
20.0
 50
90.0
  0
INSERT
  5
132859
  8
DIM
  2
_OPEN30
 10
3849.6616440113221
 20
-1084.999999999998
 30
0.0
 41
20.0
 42
20.0
 43
20.0
 50
270.0
  0
INSERT
  5
13285A
  8
OBJECT
  2
*U4
 10
0.0
 20
0.0
 30
0.0
  0
CIRCLE
  5
13285B
  8
OBJECT
 10
220.00000000000159
 20
-785.0
 30
0.0
 40
70.0
1001
ACDBBLOCKREPETAG
1070
     1
1071
       43
1005
13285B
  0
CIRCLE
  5
13285C
  8
OBJECT
 10
220.00000000000159
 20
-785.0
 30
0.0
 40
77.0
1001
ACDBBLOCKREPETAG
1070
     1
1071
       44
1005
13285C
  0
ARC
  5
13285D
  8
OBJECT
 10
220.00000000000159
 20
-785.0
 30
0.0
 40
80.0
 50
140.80503257377961
 51
219.1949674262203
1001
ACDBBLOCKREPETAG
1070
     1
1071
       45
1005
13285D
  0
LINE
  5
13285E
  8
OBJECT
 10
158.00000000000159
 20
-739.33819977267547
 30
0.0
 11
158.00000000000159
 21
-705.0
 31
0.0
1001
ACDBBLOCKREPETAG
1070
     1
1071
       46
1005
13285E
  0
LINE
  5
13285F
  8
OBJECT
 10
282.00000000000171
 20
-723.0
 30
0.0
 11
282.00000000000171
 21
-705.0
 31
0.0
1001
ACDBBLOCKREPETAG
1070
     1
1071
       22
1005
13285F
  0
LINE
  5
132860
  8
OBJECT
 10
282.00000000000171
 20
-723.0
 30
0.0
 11
300.00000000000159
 21
-723.0
 31
0.0
1001
ACDBBLOCKREPETAG
1070
     1
1071
       24
1005
132860
  0
LINE
  5
132861
  8
OBJECT
 10
282.00000000000171
 20
-847.0
 30
0.0
 11
300.00000000000159
 21
-847.0
 31
0.0
1001
ACDBBLOCKREPETAG
1070
     1
1071
       25
1005
132861
  0
LINE
  5
132862
  8
OBJECT
 10
282.00000000000171
 20
-847.0
 30
0.0
 11
282.00000000000171
 21
-865.0
 31
0.0
1001
ACDBBLOCKREPETAG
1070
     1
1071
       27
1005
132862
  0
LINE
  5
132863
  8
OBJECT
 10
158.00000000000159
 20
-830.66180022732442
 30
0.0
 11
158.00000000000159
 21
-865.0
 31
0.0
1001
ACDBBLOCKREPETAG
1070
     1
1071
       28
1005
132863
  0
LINE
  5
132864
  8
OBJECT
 10
274.44722215136568
 20
-839.44722215136414
 30
0.0
 11
282.00000000000171
 21
-847.0
 31
0.0
1001
ACDBBLOCKREPETAG
1070
     1
1071
       37
1005
132864
  0
LINE
  5
132865
  8
OBJECT
 10
274.44722215136568
 20
-730.55277784863551
 30
0.0
 11
282.00000000000171
 21
-723.0
 31
0.0
1001
ACDBBLOCKREPETAG
1070
     1
1071
       38
1005
132865
  0
POINT
  5
132866
  8
DOTS
 10
220.00000000000159
 20
-785.0
 30
0.0
1001
ACDBBLOCKREPETAG
1070
     1
1071
       39
1005
132866
  0
CIRCLE
  5
132867
  8
OBJECT
 10
220.00000000000159
 20
-785.0
 30
0.0
 40
53.5
1001
ACDBBLOCKREPETAG
1070
     1
1071
      153
1005
132867
  0
CIRCLE
  5
132868
  8
OBJECT
 10
220.00000000000159
 20
-205.0
 30
0.0
 40
70.0
1001
ACDBBLOCKREPETAG
1070
     1
1071
       43
1005
132868
  0
CIRCLE
  5
132869
  8
OBJECT
 10
220.00000000000159
 20
-205.0
 30
0.0
 40
77.0
1001
ACDBBLOCKREPETAG
1070
     1
1071
       44
1005
132869
  0
ARC
  5
13286A
  8
OBJECT
 10
220.00000000000159
 20
-205.0
 30
0.0
 40
80.0
 50
140.80503257378101
 51
219.19496742621899
1001
ACDBBLOCKREPETAG
1070
     1
1071
       45
1005
13286A
  0
LINE
  5
13286B
  8
OBJECT
 10
158.00000000000159
 20
-159.33819977267561
 30
0.0
 11
158.00000000000159
 21
-125.0
 31
0.0
1001
ACDBBLOCKREPETAG
1070
     1
1071
       46
1005
13286B
  0
LINE
  5
13286C
  8
OBJECT
 10
282.00000000000171
 20
-143.0
 30
0.0
 11
282.00000000000171
 21
-125.0
 31
0.0
1001
ACDBBLOCKREPETAG
1070
     1
1071
       22
1005
13286C
  0
LINE
  5
13286D
  8
OBJECT
 10
282.00000000000171
 20
-143.0
 30
0.0
 11
300.00000000000159
 21
-143.0
 31
0.0
1001
ACDBBLOCKREPETAG
1070
     1
1071
       24
1005
13286D
  0
LINE
  5
13286E
  8
OBJECT
 10
282.00000000000171
 20
-267.0
 30
0.0
 11
300.00000000000159
 21
-267.0
 31
0.0
1001
ACDBBLOCKREPETAG
1070
     1
1071
       25
1005
13286E
  0
LINE
  5
13286F
  8
OBJECT
 10
282.00000000000171
 20
-267.0
 30
0.0
 11
282.00000000000171
 21
-285.0
 31
0.0
1001
ACDBBLOCKREPETAG
1070
     1
1071
       27
1005
13286F
  0
LINE
  5
132870
  8
OBJECT
 10
158.00000000000159
 20
-250.66180022732439
 30
0.0
 11
158.00000000000159
 21
-285.0
 31
0.0
1001
ACDBBLOCKREPETAG
1070
     1
1071
       28
1005
132870
  0
LINE
  5
132871
  8
OBJECT
 10
274.44722215136568
 20
-259.44722215136431
 30
0.0
 11
282.00000000000171
 21
-267.0
 31
0.0
1001
ACDBBLOCKREPETAG
1070
     1
1071
       37
1005
132871
  0
LINE
  5
132872
  8
OBJECT
 10
274.44722215136568
 20
-150.55277784863571
 30
0.0
 11
282.00000000000171
 21
-143.0
 31
0.0
1001
ACDBBLOCKREPETAG
1070
     1
1071
       38
1005
132872
  0
POINT
  5
132873
  8
DOTS
 10
220.00000000000159
 20
-205.0
 30
0.0
1001
ACDBBLOCKREPETAG
1070
     1
1071
       39
1005
132873
  0
CIRCLE
  5
132874
  8
OBJECT
 10
220.00000000000159
 20
-205.0
 30
0.0
 40
53.5
1001
ACDBBLOCKREPETAG
1070
     1
1071
      153
1005
132874
  0
CIRCLE
  5
132875
  8
OBJECT
 10
670.00000000000159
 20
-205.0
 30
0.0
 40
70.0
1001
ACDBBLOCKREPETAG
1070
     1
1071
       43
1005
132875
  0
CIRCLE
  5
132876
  8
OBJECT
 10
670.00000000000159
 20
-205.0
 30
0.0
 40
77.0
1001
ACDBBLOCKREPETAG
1070
     1
1071
       44
1005
132876
  0
ARC
  5
132877
  8
OBJECT
 10
670.00000000000159
 20
-205.0
 30
0.0
 40
80.0
 50
140.80503257378001
 51
219.19496742621999
1001
ACDBBLOCKREPETAG
1070
     1
1071
       45
1005
132877
  0
LINE
  5
132878
  8
OBJECT
 10
608.00000000000159
 20
-159.33819977267561
 30
0.0
 11
608.00000000000159
 21
-125.0
 31
0.0
1001
ACDBBLOCKREPETAG
1070
     1
1071
       46
1005
132878
  0
LINE
  5
132879
  8
OBJECT
 10
732.00000000000171
 20
-143.0
 30
0.0
 11
732.00000000000171
 21
-125.0
 31
0.0
1001
ACDBBLOCKREPETAG
1070
     1
1071
       22
1005
132879
  0
LINE
  5
13287A
  8
OBJECT
 10
732.00000000000171
 20
-143.0
 30
0.0
 11
750.00000000000159
 21
-143.0
 31
0.0
1001
ACDBBLOCKREPETAG
1070
     1
1071
       24
1005
13287A
  0
LINE
  5
13287B
  8
OBJECT
 10
732.00000000000171
 20
-267.0
 30
0.0
 11
750.00000000000159
 21
-267.0
 31
0.0
1001
ACDBBLOCKREPETAG
1070
     1
1071
       25
1005
13287B
  0
LINE
  5
13287C
  8
OBJECT
 10
732.00000000000171
 20
-267.0
 30
0.0
 11
732.00000000000171
 21
-285.0
 31
0.0
1001
ACDBBLOCKREPETAG
1070
     1
1071
       27
1005
13287C
  0
LINE
  5
13287D
  8
OBJECT
 10
608.00000000000159
 20
-250.66180022732439
 30
0.0
 11
608.00000000000159
 21
-285.0
 31
0.0
1001
ACDBBLOCKREPETAG
1070
     1
1071
       28
1005
13287D
  0
LINE
  5
13287E
  8
OBJECT
 10
724.44722215136585
 20
-259.44722215136431
 30
0.0
 11
732.00000000000171
 21
-267.0
 31
0.0
1001
ACDBBLOCKREPETAG
1070
     1
1071
       37
1005
13287E
  0
LINE
  5
13287F
  8
OBJECT
 10
724.44722215136585
 20
-150.55277784863571
 30
0.0
 11
732.00000000000171
 21
-143.0
 31
0.0
1001
ACDBBLOCKREPETAG
1070
     1
1071
       38
1005
13287F
  0
POINT
  5
132880
  8
DOTS
 10
670.00000000000159
 20
-205.0
 30
0.0
1001
ACDBBLOCKREPETAG
1070
     1
1071
       39
1005
132880
  0
CIRCLE
  5
132881
  8
OBJECT
 10
670.00000000000159
 20
-205.0
 30
0.0
 40
53.5
1001
ACDBBLOCKREPETAG
1070
     1
1071
      153
1005
132881
  0
CIRCLE
  5
132882
  8
OBJECT
 10
670.00000000000159
 20
-785.0
 30
0.0
 40
70.0
1001
ACDBBLOCKREPETAG
1070
     1
1071
       43
1005
132882
  0
CIRCLE
  5
132883
  8
OBJECT
 10
670.00000000000159
 20
-785.0
 30
0.0
 40
77.0
1001
ACDBBLOCKREPETAG
1070
     1
1071
       44
1005
132883
  0
ARC
  5
132884
  8
OBJECT
 10
670.00000000000159
 20
-785.0
 30
0.0
 40
80.0
 50
140.8050325737787
 51
219.1949674262213
1001
ACDBBLOCKREPETAG
1070
     1
1071
       45
1005
132884
  0
LINE
  5
132885
  8
OBJECT
 10
608.00000000000159
 20
-739.33819977267547
 30
0.0
 11
608.00000000000159
 21
-705.0
 31
0.0
1001
ACDBBLOCKREPETAG
1070
     1
1071
       46
1005
132885
  0
LINE
  5
132886
  8
OBJECT
 10
732.00000000000171
 20
-723.0
 30
0.0
 11
732.00000000000171
 21
-705.0
 31
0.0
1001
ACDBBLOCKREPETAG
1070
     1
1071
       22
1005
132886
  0
LINE
  5
132887
  8
OBJECT
 10
732.00000000000171
 20
-723.0
 30
0.0
 11
750.00000000000159
 21
-723.0
 31
0.0
1001
ACDBBLOCKREPETAG
1070
     1
1071
       24
1005
132887
  0
LINE
  5
132888
  8
OBJECT
 10
732.00000000000171
 20
-847.0
 30
0.0
 11
750.00000000000159
 21
-847.0
 31
0.0
1001
ACDBBLOCKREPETAG
1070
     1
1071
       25
1005
132888
  0
LINE
  5
132889
  8
OBJECT
 10
732.00000000000171
 20
-847.0
 30
0.0
 11
732.00000000000171
 21
-865.0
 31
0.0
1001
ACDBBLOCKREPETAG
1070
     1
1071
       27
1005
132889
  0
LINE
  5
13288A
  8
OBJECT
 10
608.00000000000159
 20
-830.66180022732442
 30
0.0
 11
608.00000000000159
 21
-865.0
 31
0.0
1001
ACDBBLOCKREPETAG
1070
     1
1071
       28
1005
13288A
  0
LINE
  5
13288B
  8
OBJECT
 10
724.44722215136585
 20
-839.44722215136414
 30
0.0
 11
732.00000000000171
 21
-847.0
 31
0.0
1001
ACDBBLOCKREPETAG
1070
     1
1071
       37
1005
13288B
  0
LINE
  5
13288C
  8
OBJECT
 10
724.44722215136585
 20
-730.55277784863551
 30
0.0
 11
732.00000000000171
 21
-723.0
 31
0.0
1001
ACDBBLOCKREPETAG
1070
     1
1071
       38
1005
13288C
  0
POINT
  5
13288D
  8
DOTS
 10
670.00000000000159
 20
-785.0
 30
0.0
1001
ACDBBLOCKREPETAG
1070
     1
1071
       39
1005
13288D
  0
CIRCLE
  5
13288E
  8
OBJECT
 10
670.00000000000159
 20
-785.0
 30
0.0
 40
53.5
1001
ACDBBLOCKREPETAG
1070
     1
1071
      153
1005
13288E
  0
INSERT
  5
13288F
  8
OBJECT
  2
*U5
 10
0.0
 20
0.0
 30
0.0
  0
LINE
  5
132890
  8
OBJECT
 10
158.00000000000159
 20
-652.0
 30
0.0
 11
158.00000000000159
 21
-645.0
 31
0.0
1001
ACDBBLOCKREPETAG
1070
     1
1071
       39
1005
132890
  0
LINE
  5
132891
  8
OBJECT
 10
158.00000000000159
 20
-645.0
 30
0.0
 11
282.00000000000171
 21
-645.0
 31
0.0
1001
ACDBBLOCKREPETAG
1070
     1
1071
       40
1005
132891
  0
LINE
  5
132892
  8
OBJECT
 10
282.00000000000171
 20
-645.0
 30
0.0
 11
282.00000000000171
 21
-652.0
 31
0.0
1001
ACDBBLOCKREPETAG
1070
     1
1071
       41
1005
132892
  0
LINE
  5
132893
  8
OBJECT
 10
282.00000000000171
 20
-652.0
 30
0.0
 11
158.00000000000159
 21
-652.0
 31
0.0
1001
ACDBBLOCKREPETAG
1070
     1
1071
       42
1005
132893
  0
LINE
  5
132894
  8
OBJECT
 10
161.00000000000159
 20
-652.0
 30
0.0
 11
161.00000000000159
 21
-688.0
 31
0.0
1001
ACDBBLOCKREPETAG
1070
     1
1071
       43
1005
132894
  0
LINE
  5
132895
  8
OBJECT
 10
161.00000000000159
 20
-688.0
 30
0.0
 11
279.00000000000159
 21
-688.0
 31
0.0
1001
ACDBBLOCKREPETAG
1070
     1
1071
       44
1005
132895
  0
LINE
  5
132896
  8
OBJECT
 10
279.00000000000159
 20
-688.0
 30
0.0
 11
279.00000000000159
 21
-652.0
 31
0.0
1001
ACDBBLOCKREPETAG
1070
     1
1071
       45
1005
132896
  0
LINE
  5
132897
  8
OBJECT
 10
165.50000000000159
 20
-692.0
 30
0.0
 11
165.50000000000159
 21
-699.0
 31
0.0
1001
ACDBBLOCKREPETAG
1070
     1
1071
       46
1005
132897
  0
LINE
  5
132898
  8
OBJECT
 10
274.50000000000159
 20
-699.0
 30
0.0
 11
274.50000000000159
 21
-692.0
 31
0.0
1001
ACDBBLOCKREPETAG
1070
     1
1071
       47
1005
132898
  0
LINE
  5
132899
  8
OBJECT
 10
274.50000000000159
 20
-692.0
 30
0.0
 11
165.50000000000159
 21
-692.0
 31
0.0
1001
ACDBBLOCKREPETAG
1070
     1
1071
       48
1005
132899
  0
LINE
  5
13289A
  8
OBJECT
 10
161.00000000000159
 20
-688.0
 30
0.0
 11
165.50000000000159
 21
-692.0
 31
0.0
1001
ACDBBLOCKREPETAG
1070
     1
1071
       49
1005
13289A
  0
LINE
  5
13289B
  8
OBJECT
 10
279.00000000000159
 20
-688.0
 30
0.0
 11
274.50000000000159
 21
-692.0
 31
0.0
1001
ACDBBLOCKREPETAG
1070
     1
1071
       50
1005
13289B
  0
LINE
  5
13289C
  8
OBJECT
 10
158.00000000000159
 20
-701.99999999999886
 30
0.0
 11
158.00000000000159
 21
-705.0
 31
0.0
1001
ACDBBLOCKREPETAG
1070
     1
1071
       51
1005
13289C
  0
ARC
  5
13289D
  8
OBJECT
 10
161.00000000000159
 20
-701.99999999999886
 30
0.0
 40
3.0
 50
90.0
 51
180.0
1001
ACDBBLOCKREPETAG
1070
     1
1071
       52
1005
13289D
  0
LINE
  5
13289E
  8
OBJECT
 10
282.00000000000171
 20
-705.0
 30
0.0
 11
282.00000000000171
 21
-702.00000000000091
 31
0.0
1001
ACDBBLOCKREPETAG
1070
     1
1071
       53
1005
13289E
  0
ARC
  5
13289F
  8
OBJECT
 10
279.00000000000159
 20
-702.00000000000091
 30
0.0
 40
3.0
 50
0.0
 51
90.0
1001
ACDBBLOCKREPETAG
1070
     1
1071
       54
1005
13289F
  0
LINE
  5
1328A0
  8
OBJECT
 10
279.00000000000159
 20
-699.00000000000091
 30
0.0
 11
161.00000000000159
 21
-698.99999999999909
 31
0.0
1001
ACDBBLOCKREPETAG
1070
     1
1071
       55
1005
1328A0
  0
LINE
  5
1328A1
  8
HIDDEN
 10
175.50000000000159
 20
-697.0
 30
0.0
 11
264.50000000000159
 21
-697.0
 31
0.0
1001
ACDBBLOCKREPETAG
1070
     1
1071
      426
1005
1328A1
  0
LINE
  5
1328A2
  8
OBJECT
 10
282.00000000000171
 20
-997.99999999998545
 30
0.0
 11
282.00000000000171
 21
-1004.999999999985
 31
0.0
1001
ACDBBLOCKREPETAG
1070
     1
1071
       98
1005
1328A2
  0
LINE
  5
1328A3
  8
OBJECT
 10
282.00000000000171
 20
-1004.999999999985
 30
0.0
 11
158.00000000000159
 21
-1004.999999999985
 31
0.0
1001
ACDBBLOCKREPETAG
1070
     1
1071
       99
1005
1328A3
  0
LINE
  5
1328A4
  8
OBJECT
 10
158.00000000000159
 20
-1004.999999999985
 30
0.0
 11
158.00000000000159
 21
-997.99999999998545
 31
0.0
1001
ACDBBLOCKREPETAG
1070
     1
1071
      100
1005
1328A4
  0
LINE
  5
1328A5
  8
OBJECT
 10
158.00000000000159
 20
-997.99999999998545
 30
0.0
 11
282.00000000000171
 21
-997.99999999998545
 31
0.0
1001
ACDBBLOCKREPETAG
1070
     1
1071
      101
1005
1328A5
  0
LINE
  5
1328A6
  8
OBJECT
 10
174.99999999999801
 20
-944.99997496418655
 30
0.0
 11
175.00000000000159
 21
-870.99999999999909
 31
0.0
1001
ACDBBLOCKREPETAG
1070
     1
1071
      102
1005
1328A6
  0
LINE
  5
1328A7
  8
OBJECT
 10
265.00000000000159
 20
-944.99997496418655
 30
0.0
 11
265.00000000000159
 21
-871.00000000000091
 31
0.0
1001
ACDBBLOCKREPETAG
1070
     1
1071
      103
1005
1328A7
  0
LINE
  5
1328A8
  8
OBJECT
 10
279.00000000000159
 20
-997.99999999998545
 30
0.0
 11
279.00000000000159
 21
-961.99999999998545
 31
0.0
1001
ACDBBLOCKREPETAG
1070
     1
1071
      104
1005
1328A8
  0
LINE
  5
1328A9
  8
OBJECT
 10
279.00000000000159
 20
-961.99999999998545
 30
0.0
 11
161.00000000000159
 21
-961.99999999998545
 31
0.0
1001
ACDBBLOCKREPETAG
1070
     1
1071
      105
1005
1328A9
  0
LINE
  5
1328AA
  8
OBJECT
 10
161.00000000000159
 20
-961.99999999998545
 30
0.0
 11
161.00000000000159
 21
-997.99999999998545
 31
0.0
1001
ACDBBLOCKREPETAG
1070
     1
1071
      106
1005
1328AA
  0
LINE
  5
1328AB
  8
OBJECT
 10
274.50000000000159
 20
-957.99999999998545
 30
0.0
 11
274.50000000000159
 21
-944.99999999998545
 31
0.0
1001
ACDBBLOCKREPETAG
1070
     1
1071
      107
1005
1328AB
  0
LINE
  5
1328AC
  8
OBJECT
 10
165.50000000000159
 20
-944.99999999998545
 30
0.0
 11
165.50000000000159
 21
-957.99999999998545
 31
0.0
1001
ACDBBLOCKREPETAG
1070
     1
1071
      108
1005
1328AC
  0
LINE
  5
1328AD
  8
OBJECT
 10
165.50000000000159
 20
-957.99999999998545
 30
0.0
 11
274.50000000000159
 21
-957.99999999998545
 31
0.0
1001
ACDBBLOCKREPETAG
1070
     1
1071
      109
1005
1328AD
  0
LINE
  5
1328AE
  8
OBJECT
 10
279.00000000000159
 20
-961.99999999998545
 30
0.0
 11
274.50000000000159
 21
-957.99999999998545
 31
0.0
1001
ACDBBLOCKREPETAG
1070
     1
1071
      110
1005
1328AE
  0
LINE
  5
1328AF
  8
OBJECT
 10
161.00000000000159
 20
-961.99999999998545
 30
0.0
 11
165.50000000000159
 21
-957.99999999998545
 31
0.0
1001
ACDBBLOCKREPETAG
1070
     1
1071
      111
1005
1328AF
  0
LINE
  5
1328B0
  8
OBJECT
 10
282.00000000000171
 20
-868.0000000000008
 30
0.0
 11
282.00000000000171
 21
-865.0
 31
0.0
1001
ACDBBLOCKREPETAG
1070
     1
1071
      112
1005
1328B0
  0
ARC
  5
1328B1
  8
OBJECT
 10
279.00000000000159
 20
-868.0000000000008
 30
0.0
 40
3.0
 50
270.0
 51
0.0
1001
ACDBBLOCKREPETAG
1070
     1
1071
      113
1005
1328B1
  0
LINE
  5
1328B2
  8
OBJECT
 10
158.00000000000159
 20
-865.0
 30
0.0
 11
158.00000000000159
 21
-867.99999999999898
 31
0.0
1001
ACDBBLOCKREPETAG
1070
     1
1071
      114
1005
1328B2
  0
ARC
  5
1328B3
  8
OBJECT
 10
161.00000000000159
 20
-867.99999999999898
 30
0.0
 40
3.0
 50
180.0
 51
270.0
1001
ACDBBLOCKREPETAG
1070
     1
1071
      115
1005
1328B3
  0
LINE
  5
1328B4
  8
OBJECT
 10
161.00000000000159
 20
-870.99999999999909
 30
0.0
 11
197.5500556793647
 21
-871.0
 31
0.0
1001
ACDBBLOCKREPETAG
1070
     1
1071
      116
1005
1328B4
  0
LINE
  5
1328B5
  8
OBJECT
 10
242.44994432064209
 20
-871.00000000000091
 30
0.0
 11
279.00000000000159
 21
-871.00000000000091
 31
0.0
1001
ACDBBLOCKREPETAG
1070
     1
1071
      117
1005
1328B5
  0
LINE
  5
1328B6
  8
OBJECT
 10
165.50004907619021
 20
-944.99997496418655
 30
0.0
 11
274.50004907619012
 21
-944.99997496418655
 31
0.0
1001
ACDBBLOCKREPETAG
1070
     1
1071
      119
1005
1328B6
  0
ARC
  5
1328B7
  8
OBJECT
 10
220.00000000000159
 20
-910.00000000000352
 30
0.0
 40
45.000000000000547
 50
0.0
 51
180.0
1001
ACDBBLOCKREPETAG
1070
     1
1071
      120
1005
1328B7
  0
INSERT
  5
1328B8
  8
OBJECT
  2
*U6
 10
0.0
 20
0.0
 30
0.0
  0
LINE
  5
1328B9
  8
HIDDEN
 10
261.4214656426355
 20
-952.99999999998545
 30
0.0
 11
172.4214656426355
 21
-952.99999999998545
 31
0.0
1001
ACDBBLOCKREPETAG
1070
     1
1071
      432
1005
1328B9
  0
LINE
  5
1328BA
  8
OBJECT
 10
303.00000000000171
 20
-847.0
 30
0.0
 11
300.00000000000159
 21
-847.0
 31
0.0
1001
ACDBBLOCKREPETAG
1070
     1
1071
      418
1005
1328BA
  0
ARC
  5
1328BB
  8
OBJECT
 10
303.00000000000171
 20
-844.0
 30
0.0
 40
3.0
 50
270.0
 51
0.0
1001
ACDBBLOCKREPETAG
1070
     1
1071
      419
1005
1328BB
  0
LINE
  5
1328BC
  8
OBJECT
 10
300.00000000000159
 20
-723.0
 30
0.0
 11
303.00000000000171
 21
-723.0
 31
0.0
1001
ACDBBLOCKREPETAG
1070
     1
1071
      420
1005
1328BC
  0
ARC
  5
1328BD
  8
OBJECT
 10
303.00000000000171
 20
-726.0
 30
0.0
 40
3.0
 50
0.0
 51
90.0
1001
ACDBBLOCKREPETAG
1070
     1
1071
      421
1005
1328BD
  0
LINE
  5
1328BE
  8
OBJECT
 10
306.00000000000159
 20
-726.0
 30
0.0
 11
306.00000000000159
 21
-844.0
 31
0.0
1001
ACDBBLOCKREPETAG
1070
     1
1071
      422
1005
1328BE
  0
INSERT
  5
1328BF
  8
OBJECT
  2
*U7
 10
0.0
 20
0.0
 30
0.0
  0
LINE
  5
1328C0
  8
OBJECT
 10
173.00000000000159
 20
-72.0
 30
0.0
 11
173.00000000000159
 21
-65.0
 31
0.0
1001
ACDBBLOCKREPETAG
1070
     1
1071
        1
1005
1328C0
  0
LINE
  5
1328C1
  8
OBJECT
 10
173.00000000000159
 20
-65.0
 30
0.0
 11
267.00000000000159
 21
-65.0
 31
0.0
1001
ACDBBLOCKREPETAG
1070
     1
1071
        2
1005
1328C1
  0
LINE
  5
1328C2
  8
OBJECT
 10
267.00000000000159
 20
-65.0
 30
0.0
 11
267.00000000000159
 21
-72.0
 31
0.0
1001
ACDBBLOCKREPETAG
1070
     1
1071
        3
1005
1328C2
  0
LINE
  5
1328C3
  8
OBJECT
 10
267.00000000000159
 20
-72.0
 30
0.0
 11
173.00000000000159
 21
-72.0
 31
0.0
1001
ACDBBLOCKREPETAG
1070
     1
1071
        4
1005
1328C3
  0
LINE
  5
1328C4
  8
OBJECT
 10
176.00000000000159
 20
-72.0
 30
0.0
 11
176.00000000000159
 21
-108.0
 31
0.0
1001
ACDBBLOCKREPETAG
1070
     1
1071
        5
1005
1328C4
  0
LINE
  5
1328C5
  8
OBJECT
 10
176.00000000000159
 20
-108.0
 30
0.0
 11
264.00000000000159
 21
-108.0
 31
0.0
1001
ACDBBLOCKREPETAG
1070
     1
1071
        6
1005
1328C5
  0
LINE
  5
1328C6
  8
OBJECT
 10
264.00000000000159
 20
-108.0
 30
0.0
 11
264.00000000000159
 21
-72.0
 31
0.0
1001
ACDBBLOCKREPETAG
1070
     1
1071
        7
1005
1328C6
  0
LINE
  5
1328C7
  8
OBJECT
 10
180.50000000000159
 20
-112.0
 30
0.0
 11
180.50000000000159
 21
-119.0
 31
0.0
1001
ACDBBLOCKREPETAG
1070
     1
1071
        8
1005
1328C7
  0
LINE
  5
1328C8
  8
OBJECT
 10
259.50000000000159
 20
-119.0
 30
0.0
 11
259.50000000000159
 21
-112.0
 31
0.0
1001
ACDBBLOCKREPETAG
1070
     1
1071
        9
1005
1328C8
  0
LINE
  5
1328C9
  8
OBJECT
 10
259.50000000000159
 20
-112.0
 30
0.0
 11
180.50000000000159
 21
-112.0
 31
0.0
1001
ACDBBLOCKREPETAG
1070
     1
1071
       10
1005
1328C9
  0
LINE
  5
1328CA
  8
OBJECT
 10
176.00000000000159
 20
-108.0
 30
0.0
 11
180.50000000000159
 21
-112.0
 31
0.0
1001
ACDBBLOCKREPETAG
1070
     1
1071
       11
1005
1328CA
  0
LINE
  5
1328CB
  8
OBJECT
 10
264.00000000000159
 20
-108.0
 30
0.0
 11
259.50000000000159
 21
-112.0
 31
0.0
1001
ACDBBLOCKREPETAG
1070
     1
1071
       12
1005
1328CB
  0
LINE
  5
1328CC
  8
OBJECT
 10
158.00000000000159
 20
-121.9999999999991
 30
0.0
 11
158.00000000000159
 21
-125.0
 31
0.0
1001
ACDBBLOCKREPETAG
1070
     1
1071
       13
1005
1328CC
  0
ARC
  5
1328CD
  8
OBJECT
 10
161.00000000000159
 20
-121.9999999999991
 30
0.0
 40
3.0
 50
90.0
 51
180.0
1001
ACDBBLOCKREPETAG
1070
     1
1071
       14
1005
1328CD
  0
LINE
  5
1328CE
  8
OBJECT
 10
282.00000000000171
 20
-125.0
 30
0.0
 11
282.00000000000171
 21
-122.0000000000009
 31
0.0
1001
ACDBBLOCKREPETAG
1070
     1
1071
       15
1005
1328CE
  0
ARC
  5
1328CF
  8
OBJECT
 10
279.00000000000159
 20
-122.0000000000009
 30
0.0
 40
3.0
 50
0.0
 51
90.0
1001
ACDBBLOCKREPETAG
1070
     1
1071
       16
1005
1328CF
  0
LINE
  5
1328D0
  8
OBJECT
 10
279.00000000000159
 20
-119.0000000000009
 30
0.0
 11
161.00000000000159
 21
-118.9999999999991
 31
0.0
1001
ACDBBLOCKREPETAG
1070
     1
1071
       17
1005
1328D0
  0
LINE
  5
1328D1
  8
HIDDEN
 10
190.00000000000159
 20
-117.0
 30
0.0
 11
250.00000000000159
 21
-117.0
 31
0.0
1001
ACDBBLOCKREPETAG
1070
     1
1071
      420
1005
1328D1
  0
LINE
  5
1328D2
  8
OBJECT
 10
282.00000000000171
 20
-417.99999999998528
 30
0.0
 11
282.00000000000171
 21
-424.99999999998528
 31
0.0
1001
ACDBBLOCKREPETAG
1070
     1
1071
       98
1005
1328D2
  0
LINE
  5
1328D3
  8
OBJECT
 10
282.00000000000171
 20
-424.99999999998528
 30
0.0
 11
158.00000000000159
 21
-424.99999999998528
 31
0.0
1001
ACDBBLOCKREPETAG
1070
     1
1071
       99
1005
1328D3
  0
LINE
  5
1328D4
  8
OBJECT
 10
158.00000000000159
 20
-424.99999999998528
 30
0.0
 11
158.00000000000159
 21
-417.99999999998528
 31
0.0
1001
ACDBBLOCKREPETAG
1070
     1
1071
      100
1005
1328D4
  0
LINE
  5
1328D5
  8
OBJECT
 10
158.00000000000159
 20
-417.99999999998528
 30
0.0
 11
282.00000000000171
 21
-417.99999999998528
 31
0.0
1001
ACDBBLOCKREPETAG
1070
     1
1071
      101
1005
1328D5
  0
LINE
  5
1328D6
  8
OBJECT
 10
174.99999999999801
 20
-364.99997496418661
 30
0.0
 11
175.00000000000159
 21
-290.99999999999898
 31
0.0
1001
ACDBBLOCKREPETAG
1070
     1
1071
      102
1005
1328D6
  0
LINE
  5
1328D7
  8
OBJECT
 10
265.00000000000159
 20
-364.99997496418661
 30
0.0
 11
265.00000000000159
 21
-291.00000000000091
 31
0.0
1001
ACDBBLOCKREPETAG
1070
     1
1071
      103
1005
1328D7
  0
LINE
  5
1328D8
  8
OBJECT
 10
279.00000000000159
 20
-417.99999999998528
 30
0.0
 11
279.00000000000159
 21
-381.99999999998528
 31
0.0
1001
ACDBBLOCKREPETAG
1070
     1
1071
      104
1005
1328D8
  0
LINE
  5
1328D9
  8
OBJECT
 10
279.00000000000159
 20
-381.99999999998528
 30
0.0
 11
161.00000000000159
 21
-381.99999999998528
 31
0.0
1001
ACDBBLOCKREPETAG
1070
     1
1071
      105
1005
1328D9
  0
LINE
  5
1328DA
  8
OBJECT
 10
161.00000000000159
 20
-381.99999999998528
 30
0.0
 11
161.00000000000159
 21
-417.99999999998528
 31
0.0
1001
ACDBBLOCKREPETAG
1070
     1
1071
      106
1005
1328DA
  0
LINE
  5
1328DB
  8
OBJECT
 10
274.50000000000159
 20
-377.9999999999855
 30
0.0
 11
274.50000000000159
 21
-364.9999999999855
 31
0.0
1001
ACDBBLOCKREPETAG
1070
     1
1071
      107
1005
1328DB
  0
LINE
  5
1328DC
  8
OBJECT
 10
165.50000000000159
 20
-364.9999999999855
 30
0.0
 11
165.50000000000159
 21
-377.9999999999855
 31
0.0
1001
ACDBBLOCKREPETAG
1070
     1
1071
      108
1005
1328DC
  0
LINE
  5
1328DD
  8
OBJECT
 10
165.50000000000159
 20
-377.9999999999855
 30
0.0
 11
274.50000000000159
 21
-377.9999999999855
 31
0.0
1001
ACDBBLOCKREPETAG
1070
     1
1071
      109
1005
1328DD
  0
LINE
  5
1328DE
  8
OBJECT
 10
279.00000000000159
 20
-381.99999999998528
 30
0.0
 11
274.50000000000159
 21
-377.9999999999855
 31
0.0
1001
ACDBBLOCKREPETAG
1070
     1
1071
      110
1005
1328DE
  0
LINE
  5
1328DF
  8
OBJECT
 10
161.00000000000159
 20
-381.99999999998528
 30
0.0
 11
165.50000000000159
 21
-377.9999999999855
 31
0.0
1001
ACDBBLOCKREPETAG
1070
     1
1071
      111
1005
1328DF
  0
LINE
  5
1328E0
  8
OBJECT
 10
282.00000000000171
 20
-288.00000000000091
 30
0.0
 11
282.00000000000171
 21
-285.0
 31
0.0
1001
ACDBBLOCKREPETAG
1070
     1
1071
      112
1005
1328E0
  0
ARC
  5
1328E1
  8
OBJECT
 10
279.00000000000159
 20
-288.00000000000091
 30
0.0
 40
3.0
 50
270.0
 51
0.0
1001
ACDBBLOCKREPETAG
1070
     1
1071
      113
1005
1328E1
  0
LINE
  5
1328E2
  8
OBJECT
 10
158.00000000000159
 20
-285.0
 30
0.0
 11
158.00000000000159
 21
-287.99999999999909
 31
0.0
1001
ACDBBLOCKREPETAG
1070
     1
1071
      114
1005
1328E2
  0
ARC
  5
1328E3
  8
OBJECT
 10
161.00000000000159
 20
-287.99999999999909
 30
0.0
 40
3.0
 50
180.0
 51
270.0
1001
ACDBBLOCKREPETAG
1070
     1
1071
      115
1005
1328E3
  0
LINE
  5
1328E4
  8
OBJECT
 10
161.00000000000159
 20
-290.99999999999898
 30
0.0
 11
197.5500556793647
 21
-291.0
 31
0.0
1001
ACDBBLOCKREPETAG
1070
     1
1071
      116
1005
1328E4
  0
LINE
  5
1328E5
  8
OBJECT
 10
242.44994432064209
 20
-291.00000000000091
 30
0.0
 11
279.00000000000159
 21
-291.00000000000091
 31
0.0
1001
ACDBBLOCKREPETAG
1070
     1
1071
      117
1005
1328E5
  0
LINE
  5
1328E6
  8
OBJECT
 10
165.50004907619021
 20
-364.99997496418661
 30
0.0
 11
274.50004907619012
 21
-364.99997496418661
 31
0.0
1001
ACDBBLOCKREPETAG
1070
     1
1071
      119
1005
1328E6
  0
ARC
  5
1328E7
  8
OBJECT
 10
220.00000000000159
 20
-330.00000000000358
 30
0.0
 40
45.000000000000547
 50
0.0
 51
180.0
1001
ACDBBLOCKREPETAG
1070
     1
1071
      120
1005
1328E7
  0
INSERT
  5
1328E8
  8
OBJECT
  2
*U8
 10
0.0
 20
0.0
 30
0.0
  0
LINE
  5
1328E9
  8
HIDDEN
 10
261.4214656426355
 20
-372.9999999999855
 30
0.0
 11
172.4214656426355
 21
-372.9999999999855
 31
0.0
1001
ACDBBLOCKREPETAG
1070
     1
1071
      432
1005
1328E9
  0
LINE
  5
1328EA
  8
OBJECT
 10
303.00000000000171
 20
-267.0
 30
0.0
 11
300.00000000000159
 21
-267.0
 31
0.0
1001
ACDBBLOCKREPETAG
1070
     1
1071
      418
1005
1328EA
  0
ARC
  5
1328EB
  8
OBJECT
 10
303.00000000000171
 20
-264.0
 30
0.0
 40
3.0
 50
270.0
 51
0.0
1001
ACDBBLOCKREPETAG
1070
     1
1071
      419
1005
1328EB
  0
LINE
  5
1328EC
  8
OBJECT
 10
300.00000000000159
 20
-143.0
 30
0.0
 11
303.00000000000171
 21
-143.0
 31
0.0
1001
ACDBBLOCKREPETAG
1070
     1
1071
      420
1005
1328EC
  0
ARC
  5
1328ED
  8
OBJECT
 10
303.00000000000171
 20
-146.0
 30
0.0
 40
3.0
 50
0.0
 51
90.0
1001
ACDBBLOCKREPETAG
1070
     1
1071
      421
1005
1328ED
  0
LINE
  5
1328EE
  8
OBJECT
 10
306.00000000000159
 20
-146.0
 30
0.0
 11
306.00000000000159
 21
-264.0
 31
0.0
1001
ACDBBLOCKREPETAG
1070
     1
1071
      422
1005
1328EE
  0
INSERT
  5
1328EF
  8
OBJECT
  2
*U9
 10
0.0
 20
0.0
 30
0.0
  0
LINE
  5
1328F0
  8
OBJECT
 10
615.00000000000159
 20
-72.0
 30
0.0
 11
615.00000000000159
 21
-65.0
 31
0.0
1001
ACDBBLOCKREPETAG
1070
     1
1071
       20
1005
1328F0
  0
LINE
  5
1328F1
  8
OBJECT
 10
615.00000000000159
 20
-65.0
 30
0.0
 11
725.00000000000159
 21
-65.0
 31
0.0
1001
ACDBBLOCKREPETAG
1070
     1
1071
       21
1005
1328F1
  0
LINE
  5
1328F2
  8
OBJECT
 10
725.00000000000159
 20
-65.0
 30
0.0
 11
725.00000000000159
 21
-72.0
 31
0.0
1001
ACDBBLOCKREPETAG
1070
     1
1071
       22
1005
1328F2
  0
LINE
  5
1328F3
  8
OBJECT
 10
725.00000000000159
 20
-72.0
 30
0.0
 11
615.00000000000159
 21
-72.0
 31
0.0
1001
ACDBBLOCKREPETAG
1070
     1
1071
       23
1005
1328F3
  0
LINE
  5
1328F4
  8
OBJECT
 10
618.00000000000136
 20
-72.0
 30
0.0
 11
618.00000000000136
 21
-108.0
 31
0.0
1001
ACDBBLOCKREPETAG
1070
     1
1071
       24
1005
1328F4
  0
LINE
  5
1328F5
  8
OBJECT
 10
618.00000000000136
 20
-108.0
 30
0.0
 11
722.00000000000171
 21
-108.0
 31
0.0
1001
ACDBBLOCKREPETAG
1070
     1
1071
       25
1005
1328F5
  0
LINE
  5
1328F6
  8
OBJECT
 10
722.00000000000171
 20
-108.0
 30
0.0
 11
722.00000000000171
 21
-72.0
 31
0.0
1001
ACDBBLOCKREPETAG
1070
     1
1071
       26
1005
1328F6
  0
LINE
  5
1328F7
  8
OBJECT
 10
622.50000000000136
 20
-112.0
 30
0.0
 11
622.50000000000136
 21
-119.0
 31
0.0
1001
ACDBBLOCKREPETAG
1070
     1
1071
       27
1005
1328F7
  0
LINE
  5
1328F8
  8
OBJECT
 10
717.50000000000136
 20
-119.0
 30
0.0
 11
717.50000000000136
 21
-112.0
 31
0.0
1001
ACDBBLOCKREPETAG
1070
     1
1071
       28
1005
1328F8
  0
LINE
  5
1328F9
  8
OBJECT
 10
717.50000000000136
 20
-112.0
 30
0.0
 11
622.50000000000136
 21
-112.0
 31
0.0
1001
ACDBBLOCKREPETAG
1070
     1
1071
       29
1005
1328F9
  0
LINE
  5
1328FA
  8
OBJECT
 10
618.00000000000136
 20
-108.0
 30
0.0
 11
622.50000000000136
 21
-112.0
 31
0.0
1001
ACDBBLOCKREPETAG
1070
     1
1071
       30
1005
1328FA
  0
LINE
  5
1328FB
  8
OBJECT
 10
722.00000000000171
 20
-108.0
 30
0.0
 11
717.50000000000136
 21
-112.0
 31
0.0
1001
ACDBBLOCKREPETAG
1070
     1
1071
       31
1005
1328FB
  0
LINE
  5
1328FC
  8
OBJECT
 10
608.00000000000159
 20
-121.9999999999991
 30
0.0
 11
608.00000000000159
 21
-125.0
 31
0.0
1001
ACDBBLOCKREPETAG
1070
     1
1071
       32
1005
1328FC
  0
ARC
  5
1328FD
  8
OBJECT
 10
611.00000000000159
 20
-121.9999999999991
 30
0.0
 40
3.0
 50
90.0
 51
180.0
1001
ACDBBLOCKREPETAG
1070
     1
1071
       33
1005
1328FD
  0
LINE
  5
1328FE
  8
OBJECT
 10
732.00000000000171
 20
-125.0
 30
0.0
 11
732.00000000000171
 21
-122.0000000000009
 31
0.0
1001
ACDBBLOCKREPETAG
1070
     1
1071
       34
1005
1328FE
  0
ARC
  5
1328FF
  8
OBJECT
 10
729.00000000000159
 20
-122.0000000000009
 30
0.0
 40
3.0
 50
0.0
 51
90.0
1001
ACDBBLOCKREPETAG
1070
     1
1071
       35
1005
1328FF
  0
LINE
  5
132900
  8
OBJECT
 10
729.00000000000159
 20
-119.0000000000009
 30
0.0
 11
611.00000000000159
 21
-118.9999999999991
 31
0.0
1001
ACDBBLOCKREPETAG
1070
     1
1071
       36
1005
132900
  0
LINE
  5
132901
  8
HIDDEN
 10
632.00000000000159
 20
-117.0
 30
0.0
 11
708.00000000000159
 21
-117.0
 31
0.0
1001
ACDBBLOCKREPETAG
1070
     1
1071
      423
1005
132901
  0
LINE
  5
132902
  8
OBJECT
 10
732.00000000000171
 20
-417.99999999998528
 30
0.0
 11
732.00000000000171
 21
-424.99999999998528
 31
0.0
1001
ACDBBLOCKREPETAG
1070
     1
1071
       98
1005
132902
  0
LINE
  5
132903
  8
OBJECT
 10
732.00000000000171
 20
-424.99999999998528
 30
0.0
 11
608.00000000000159
 21
-424.99999999998528
 31
0.0
1001
ACDBBLOCKREPETAG
1070
     1
1071
       99
1005
132903
  0
LINE
  5
132904
  8
OBJECT
 10
608.00000000000159
 20
-424.99999999998528
 30
0.0
 11
608.00000000000159
 21
-417.99999999998528
 31
0.0
1001
ACDBBLOCKREPETAG
1070
     1
1071
      100
1005
132904
  0
LINE
  5
132905
  8
OBJECT
 10
608.00000000000159
 20
-417.99999999998528
 30
0.0
 11
732.00000000000171
 21
-417.99999999998528
 31
0.0
1001
ACDBBLOCKREPETAG
1070
     1
1071
      101
1005
132905
  0
LINE
  5
132906
  8
OBJECT
 10
624.99999999999795
 20
-364.99997496418661
 30
0.0
 11
625.00000000000148
 21
-290.99999999999898
 31
0.0
1001
ACDBBLOCKREPETAG
1070
     1
1071
      102
1005
132906
  0
LINE
  5
132907
  8
OBJECT
 10
715.00000000000171
 20
-364.99997496418661
 30
0.0
 11
715.00000000000171
 21
-291.00000000000091
 31
0.0
1001
ACDBBLOCKREPETAG
1070
     1
1071
      103
1005
132907
  0
LINE
  5
132908
  8
OBJECT
 10
729.00000000000159
 20
-417.99999999998528
 30
0.0
 11
729.00000000000159
 21
-381.99999999998528
 31
0.0
1001
ACDBBLOCKREPETAG
1070
     1
1071
      104
1005
132908
  0
LINE
  5
132909
  8
OBJECT
 10
729.00000000000159
 20
-381.99999999998528
 30
0.0
 11
611.00000000000159
 21
-381.99999999998528
 31
0.0
1001
ACDBBLOCKREPETAG
1070
     1
1071
      105
1005
132909
  0
LINE
  5
13290A
  8
OBJECT
 10
611.00000000000159
 20
-381.99999999998528
 30
0.0
 11
611.00000000000159
 21
-417.99999999998528
 31
0.0
1001
ACDBBLOCKREPETAG
1070
     1
1071
      106
1005
13290A
  0
LINE
  5
13290B
  8
OBJECT
 10
724.50000000000159
 20
-377.9999999999855
 30
0.0
 11
724.50000000000159
 21
-364.9999999999855
 31
0.0
1001
ACDBBLOCKREPETAG
1070
     1
1071
      107
1005
13290B
  0
LINE
  5
13290C
  8
OBJECT
 10
615.50000000000159
 20
-364.9999999999855
 30
0.0
 11
615.50000000000159
 21
-377.9999999999855
 31
0.0
1001
ACDBBLOCKREPETAG
1070
     1
1071
      108
1005
13290C
  0
LINE
  5
13290D
  8
OBJECT
 10
615.50000000000159
 20
-377.9999999999855
 30
0.0
 11
724.50000000000159
 21
-377.9999999999855
 31
0.0
1001
ACDBBLOCKREPETAG
1070
     1
1071
      109
1005
13290D
  0
LINE
  5
13290E
  8
OBJECT
 10
729.00000000000159
 20
-381.99999999998528
 30
0.0
 11
724.50000000000159
 21
-377.9999999999855
 31
0.0
1001
ACDBBLOCKREPETAG
1070
     1
1071
      110
1005
13290E
  0
LINE
  5
13290F
  8
OBJECT
 10
611.00000000000159
 20
-381.99999999998528
 30
0.0
 11
615.50000000000159
 21
-377.9999999999855
 31
0.0
1001
ACDBBLOCKREPETAG
1070
     1
1071
      111
1005
13290F
  0
LINE
  5
132910
  8
OBJECT
 10
732.00000000000171
 20
-288.00000000000091
 30
0.0
 11
732.00000000000171
 21
-285.0
 31
0.0
1001
ACDBBLOCKREPETAG
1070
     1
1071
      112
1005
132910
  0
ARC
  5
132911
  8
OBJECT
 10
729.00000000000159
 20
-288.00000000000091
 30
0.0
 40
3.0
 50
270.0
 51
0.0
1001
ACDBBLOCKREPETAG
1070
     1
1071
      113
1005
132911
  0
LINE
  5
132912
  8
OBJECT
 10
608.00000000000159
 20
-285.0
 30
0.0
 11
608.00000000000159
 21
-287.99999999999909
 31
0.0
1001
ACDBBLOCKREPETAG
1070
     1
1071
      114
1005
132912
  0
ARC
  5
132913
  8
OBJECT
 10
611.00000000000159
 20
-287.99999999999909
 30
0.0
 40
3.0
 50
180.0
 51
270.0
1001
ACDBBLOCKREPETAG
1070
     1
1071
      115
1005
132913
  0
LINE
  5
132914
  8
OBJECT
 10
611.00000000000159
 20
-290.99999999999898
 30
0.0
 11
647.55005567936473
 21
-291.0
 31
0.0
1001
ACDBBLOCKREPETAG
1070
     1
1071
      116
1005
132914
  0
LINE
  5
132915
  8
OBJECT
 10
692.44994432064186
 20
-291.00000000000091
 30
0.0
 11
729.00000000000159
 21
-291.00000000000091
 31
0.0
1001
ACDBBLOCKREPETAG
1070
     1
1071
      117
1005
132915
  0
LINE
  5
132916
  8
OBJECT
 10
615.50004907618995
 20
-364.99997496418661
 30
0.0
 11
724.50004907619018
 21
-364.99997496418661
 31
0.0
1001
ACDBBLOCKREPETAG
1070
     1
1071
      119
1005
132916
  0
ARC
  5
132917
  8
OBJECT
 10
670.00000000000159
 20
-330.00000000000358
 30
0.0
 40
45.000000000000547
 50
0.0
 51
180.0
1001
ACDBBLOCKREPETAG
1070
     1
1071
      120
1005
132917
  0
INSERT
  5
132918
  8
OBJECT
  2
*U10
 10
0.0
 20
0.0
 30
0.0
  0
LINE
  5
132919
  8
HIDDEN
 10
711.42146564263533
 20
-372.9999999999855
 30
0.0
 11
622.42146564263533
 21
-372.9999999999855
 31
0.0
1001
ACDBBLOCKREPETAG
1070
     1
1071
      432
1005
132919
  0
LINE
  5
13291A
  8
OBJECT
 10
753.00000000000171
 20
-267.0
 30
0.0
 11
750.00000000000159
 21
-267.0
 31
0.0
1001
ACDBBLOCKREPETAG
1070
     1
1071
      418
1005
13291A
  0
ARC
  5
13291B
  8
OBJECT
 10
753.00000000000171
 20
-264.0
 30
0.0
 40
3.0
 50
270.0
 51
0.0
1001
ACDBBLOCKREPETAG
1070
     1
1071
      419
1005
13291B
  0
LINE
  5
13291C
  8
OBJECT
 10
750.00000000000159
 20
-143.0
 30
0.0
 11
753.00000000000171
 21
-143.0
 31
0.0
1001
ACDBBLOCKREPETAG
1070
     1
1071
      420
1005
13291C
  0
ARC
  5
13291D
  8
OBJECT
 10
753.00000000000171
 20
-146.0
 30
0.0
 40
3.0
 50
0.0
 51
90.0
1001
ACDBBLOCKREPETAG
1070
     1
1071
      421
1005
13291D
  0
LINE
  5
13291E
  8
OBJECT
 10
756.00000000000171
 20
-146.0
 30
0.0
 11
756.00000000000171
 21
-264.0
 31
0.0
1001
ACDBBLOCKREPETAG
1070
     1
1071
      422
1005
13291E
  0
LINE
  5
13291F
  8
OBJECT
 10
595.00000000000159
 20
-635.0
 30
0.0
 11
595.00000000000159
 21
-642.0
 31
0.0
1001
ACDBBLOCKREPETAG
1070
     1
1071
       57
1005
13291F
  0
LINE
  5
132920
  8
OBJECT
 10
595.00000000000159
 20
-642.0
 30
0.0
 11
745.00000000000171
 21
-642.0
 31
0.0
1001
ACDBBLOCKREPETAG
1070
     1
1071
       58
1005
132920
  0
LINE
  5
132921
  8
OBJECT
 10
598.00000000000159
 20
-683.49999999999989
 30
0.0
 11
742.00000000000159
 21
-683.49999999999989
 31
0.0
1001
ACDBBLOCKREPETAG
1070
     1
1071
       59
1005
132921
  0
LINE
  5
132922
  8
OBJECT
 10
604.50000000000148
 20
-695.0
 30
0.0
 11
735.50000000000171
 21
-695.0
 31
0.0
1001
ACDBBLOCKREPETAG
1070
     1
1071
       60
1005
132922
  0
LINE
  5
132923
  8
OBJECT
 10
745.00000000000171
 20
-642.0
 30
0.0
 11
745.00000000000171
 21
-635.0
 31
0.0
1001
ACDBBLOCKREPETAG
1070
     1
1071
       61
1005
132923
  0
LINE
  5
132924
  8
OBJECT
 10
745.00000000000171
 20
-635.0
 30
0.0
 11
595.00000000000159
 21
-635.0
 31
0.0
1001
ACDBBLOCKREPETAG
1070
     1
1071
       62
1005
132924
  0
LINE
  5
132925
  8
OBJECT
 10
732.00000000000171
 20
-699.0
 30
0.0
 11
732.00000000000171
 21
-705.0
 31
0.0
1001
ACDBBLOCKREPETAG
1070
     1
1071
       63
1005
132925
  0
LINE
  5
132926
  8
OBJECT
 10
742.00000000000159
 20
-642.0
 30
0.0
 11
742.00000000000159
 21
-683.49999999999989
 31
0.0
1001
ACDBBLOCKREPETAG
1070
     1
1071
       64
1005
132926
  0
LINE
  5
132927
  8
OBJECT
 10
742.00000000000159
 20
-683.49999999999989
 30
0.0
 11
735.50000000000171
 21
-695.0
 31
0.0
1001
ACDBBLOCKREPETAG
1070
     1
1071
       65
1005
132927
  0
LINE
  5
132928
  8
OBJECT
 10
735.50000000000171
 20
-695.0
 30
0.0
 11
732.00000000000171
 21
-699.0
 31
0.0
1001
ACDBBLOCKREPETAG
1070
     1
1071
       66
1005
132928
  0
LINE
  5
132929
  8
OBJECT
 10
598.00000000000159
 20
-683.49999999999989
 30
0.0
 11
604.50000000000148
 21
-695.0
 31
0.0
1001
ACDBBLOCKREPETAG
1070
     1
1071
       67
1005
132929
  0
LINE
  5
13292A
  8
OBJECT
 10
604.50000000000148
 20
-695.0
 30
0.0
 11
608.00000000000159
 21
-699.0
 31
0.0
1001
ACDBBLOCKREPETAG
1070
     1
1071
       68
1005
13292A
  0
ARC
  5
13292B
  8
OBJECT
 10
670.00000000000159
 20
-317.0999999999986
 30
0.0
 40
386.89999999999998
 50
260.77870136257951
 51
279.22129863742049
1001
ACDBBLOCKREPETAG
1070
     1
1071
       69
1005
13292B
  0
LINE
  5
13292C
  8
OBJECT
 10
608.00000000000159
 20
-699.0
 30
0.0
 11
608.00000000000159
 21
-705.0
 31
0.0
1001
ACDBBLOCKREPETAG
1070
     1
1071
       70
1005
13292C
  0
LINE
  5
13292D
  8
OBJECT
 10
598.00000000000159
 20
-642.0
 30
0.0
 11
598.00000000000159
 21
-683.49999999999989
 31
0.0
1001
ACDBBLOCKREPETAG
1070
     1
1071
       71
1005
13292D
  0
INSERT
  5
13292E
  8
OBJECT
  2
*U11
 10
0.0
 20
0.0
 30
0.0
  0
LINE
  5
13292F
  8
HIDDEN
 10
727.00000000000171
 20
-687.0
 30
0.0
 11
613.00000000000136
 21
-687.0
 31
0.0
1001
ACDBBLOCKREPETAG
1070
     1
1071
      431
1005
13292F
  0
LINE
  5
132930
  8
OBJECT
 10
732.00000000000171
 20
-997.99999999998545
 30
0.0
 11
732.00000000000171
 21
-1004.999999999985
 31
0.0
1001
ACDBBLOCKREPETAG
1070
     1
1071
       98
1005
132930
  0
LINE
  5
132931
  8
OBJECT
 10
732.00000000000171
 20
-1004.999999999985
 30
0.0
 11
608.00000000000159
 21
-1004.999999999985
 31
0.0
1001
ACDBBLOCKREPETAG
1070
     1
1071
       99
1005
132931
  0
LINE
  5
132932
  8
OBJECT
 10
608.00000000000159
 20
-1004.999999999985
 30
0.0
 11
608.00000000000159
 21
-997.99999999998545
 31
0.0
1001
ACDBBLOCKREPETAG
1070
     1
1071
      100
1005
132932
  0
LINE
  5
132933
  8
OBJECT
 10
608.00000000000159
 20
-997.99999999998545
 30
0.0
 11
732.00000000000171
 21
-997.99999999998545
 31
0.0
1001
ACDBBLOCKREPETAG
1070
     1
1071
      101
1005
132933
  0
LINE
  5
132934
  8
OBJECT
 10
624.99999999999795
 20
-944.99997496418655
 30
0.0
 11
625.00000000000148
 21
-870.99999999999909
 31
0.0
1001
ACDBBLOCKREPETAG
1070
     1
1071
      102
1005
132934
  0
LINE
  5
132935
  8
OBJECT
 10
715.00000000000171
 20
-944.99997496418655
 30
0.0
 11
715.00000000000171
 21
-871.00000000000091
 31
0.0
1001
ACDBBLOCKREPETAG
1070
     1
1071
      103
1005
132935
  0
LINE
  5
132936
  8
OBJECT
 10
729.00000000000159
 20
-997.99999999998545
 30
0.0
 11
729.00000000000159
 21
-961.99999999998545
 31
0.0
1001
ACDBBLOCKREPETAG
1070
     1
1071
      104
1005
132936
  0
LINE
  5
132937
  8
OBJECT
 10
729.00000000000159
 20
-961.99999999998545
 30
0.0
 11
611.00000000000159
 21
-961.99999999998545
 31
0.0
1001
ACDBBLOCKREPETAG
1070
     1
1071
      105
1005
132937
  0
LINE
  5
132938
  8
OBJECT
 10
611.00000000000159
 20
-961.99999999998545
 30
0.0
 11
611.00000000000159
 21
-997.99999999998545
 31
0.0
1001
ACDBBLOCKREPETAG
1070
     1
1071
      106
1005
132938
  0
LINE
  5
132939
  8
OBJECT
 10
724.50000000000159
 20
-957.99999999998545
 30
0.0
 11
724.50000000000159
 21
-944.99999999998545
 31
0.0
1001
ACDBBLOCKREPETAG
1070
     1
1071
      107
1005
132939
  0
LINE
  5
13293A
  8
OBJECT
 10
615.50000000000159
 20
-944.99999999998545
 30
0.0
 11
615.50000000000159
 21
-957.99999999998545
 31
0.0
1001
ACDBBLOCKREPETAG
1070
     1
1071
      108
1005
13293A
  0
LINE
  5
13293B
  8
OBJECT
 10
615.50000000000159
 20
-957.99999999998545
 30
0.0
 11
724.50000000000159
 21
-957.99999999998545
 31
0.0
1001
ACDBBLOCKREPETAG
1070
     1
1071
      109
1005
13293B
  0
LINE
  5
13293C
  8
OBJECT
 10
729.00000000000159
 20
-961.99999999998545
 30
0.0
 11
724.50000000000159
 21
-957.99999999998545
 31
0.0
1001
ACDBBLOCKREPETAG
1070
     1
1071
      110
1005
13293C
  0
LINE
  5
13293D
  8
OBJECT
 10
611.00000000000159
 20
-961.99999999998545
 30
0.0
 11
615.50000000000159
 21
-957.99999999998545
 31
0.0
1001
ACDBBLOCKREPETAG
1070
     1
1071
      111
1005
13293D
  0
LINE
  5
13293E
  8
OBJECT
 10
732.00000000000171
 20
-868.0000000000008
 30
0.0
 11
732.00000000000171
 21
-865.0
 31
0.0
1001
ACDBBLOCKREPETAG
1070
     1
1071
      112
1005
13293E
  0
ARC
  5
13293F
  8
OBJECT
 10
729.00000000000159
 20
-868.0000000000008
 30
0.0
 40
3.0
 50
270.0
 51
0.0
1001
ACDBBLOCKREPETAG
1070
     1
1071
      113
1005
13293F
  0
LINE
  5
132940
  8
OBJECT
 10
608.00000000000159
 20
-865.0
 30
0.0
 11
608.00000000000159
 21
-867.99999999999898
 31
0.0
1001
ACDBBLOCKREPETAG
1070
     1
1071
      114
1005
132940
  0
ARC
  5
132941
  8
OBJECT
 10
611.00000000000159
 20
-867.99999999999898
 30
0.0
 40
3.0
 50
180.0
 51
270.0
1001
ACDBBLOCKREPETAG
1070
     1
1071
      115
1005
132941
  0
LINE
  5
132942
  8
OBJECT
 10
611.00000000000159
 20
-870.99999999999909
 30
0.0
 11
647.55005567936473
 21
-871.0
 31
0.0
1001
ACDBBLOCKREPETAG
1070
     1
1071
      116
1005
132942
  0
LINE
  5
132943
  8
OBJECT
 10
692.44994432064186
 20
-871.00000000000091
 30
0.0
 11
729.00000000000159
 21
-871.00000000000091
 31
0.0
1001
ACDBBLOCKREPETAG
1070
     1
1071
      117
1005
132943
  0
LINE
  5
132944
  8
OBJECT
 10
615.50004907618995
 20
-944.99997496418655
 30
0.0
 11
724.50004907619018
 21
-944.99997496418655
 31
0.0
1001
ACDBBLOCKREPETAG
1070
     1
1071
      119
1005
132944
  0
ARC
  5
132945
  8
OBJECT
 10
670.00000000000159
 20
-910.00000000000352
 30
0.0
 40
45.000000000000547
 50
0.0
 51
180.0
1001
ACDBBLOCKREPETAG
1070
     1
1071
      120
1005
132945
  0
INSERT
  5
132946
  8
OBJECT
  2
*U12
 10
0.0
 20
0.0
 30
0.0
  0
LINE
  5
132947
  8
HIDDEN
 10
711.42146564263533
 20
-952.99999999998545
 30
0.0
 11
622.42146564263533
 21
-952.99999999998545
 31
0.0
1001
ACDBBLOCKREPETAG
1070
     1
1071
      432
1005
132947
  0
LINE
  5
132948
  8
OBJECT
 10
753.00000000000171
 20
-847.0
 30
0.0
 11
750.00000000000159
 21
-847.0
 31
0.0
1001
ACDBBLOCKREPETAG
1070
     1
1071
      418
1005
132948
  0
ARC
  5
132949
  8
OBJECT
 10
753.00000000000171
 20
-844.0
 30
0.0
 40
3.0
 50
270.0
 51
0.0
1001
ACDBBLOCKREPETAG
1070
     1
1071
      419
1005
132949
  0
LINE
  5
13294A
  8
OBJECT
 10
750.00000000000159
 20
-723.0
 30
0.0
 11
753.00000000000171
 21
-723.0
 31
0.0
1001
ACDBBLOCKREPETAG
1070
     1
1071
      420
1005
13294A
  0
ARC
  5
13294B
  8
OBJECT
 10
753.00000000000171
 20
-726.0
 30
0.0
 40
3.0
 50
0.0
 51
90.0
1001
ACDBBLOCKREPETAG
1070
     1
1071
      421
1005
13294B
  0
LINE
  5
13294C
  8
OBJECT
 10
756.00000000000171
 20
-726.0
 30
0.0
 11
756.00000000000171
 21
-844.0
 31
0.0
1001
ACDBBLOCKREPETAG
1070
     1
1071
      422
1005
13294C
  0
POLYLINE
  5
13294D
  8
HIDDEN
 66
     1
 10
0.0
 20
0.0
 30
0.0
 70
     1
  0
VERTEX
  5
132D80
  8
HIDDEN
 10
0.0
 20
0.0
 30
0.0
  0
VERTEX
  5
132D81
  8
HIDDEN
 10
450.0
 20
0.0
 30
0.0
  0
VERTEX
  5
132D82
  8
HIDDEN
 10
450.0
 20
-580.0
 30
0.0
  0
VERTEX
  5
132D83
  8
HIDDEN
 10
0.0
 20
-580.0
 30
0.0
  0
SEQEND
  5
132D84
  8
HIDDEN
  0
POLYLINE
  5
13294E
  8
HIDDEN
 66
     1
 10
0.0
 20
0.0
 30
0.0
 70
     1
  0
VERTEX
  5
132D85
  8
HIDDEN
 10
450.0
 20
0.0
 30
0.0
  0
VERTEX
  5
132D86
  8
HIDDEN
 10
900.0
 20
0.0
 30
0.0
  0
VERTEX
  5
132D87
  8
HIDDEN
 10
900.0
 20
-580.0
 30
0.0
  0
VERTEX
  5
132D88
  8
HIDDEN
 10
450.0
 20
-580.0
 30
0.0
  0
SEQEND
  5
132D89
  8
HIDDEN
  0
POLYLINE
  5
13294F
  8
HIDDEN
 66
     1
 10
0.0
 20
0.0
 30
0.0
 70
     1
  0
VERTEX
  5
132D8A
  8
HIDDEN
 10
0.0
 20
-580.0
 30
0.0
  0
VERTEX
  5
132D8B
  8
HIDDEN
 10
450.0
 20
-580.0
 30
0.0
  0
VERTEX
  5
132D8C
  8
HIDDEN
 10
450.0
 20
-1160.0
 30
0.0
  0
VERTEX
  5
132D8D
  8
HIDDEN
 10
0.0
 20
-1160.0
 30
0.0
  0
SEQEND
  5
132D8E
  8
HIDDEN
  0
POLYLINE
  5
132950
  8
HIDDEN
 66
     1
 10
0.0
 20
0.0
 30
0.0
 70
     1
  0
VERTEX
  5
132D8F
  8
HIDDEN
 10
450.0
 20
-580.0
 30
0.0
  0
VERTEX
  5
132D90
  8
HIDDEN
 10
900.0
 20
-580.0
 30
0.0
  0
VERTEX
  5
132D91
  8
HIDDEN
 10
900.0
 20
-1160.0
 30
0.0
  0
VERTEX
  5
132D92
  8
HIDDEN
 10
450.0
 20
-1160.0
 30
0.0
  0
SEQEND
  5
132D93
  8
HIDDEN
  0
LINE
  5
132951
  8
SLIM
 10
3945.2566704261012
 20
-137.99999999999909
 30
0.0
 11
3955.9548403695781
 21
-127.30183005652231
 31
0.0
1001
GRADIENTCOLOR1ACI
1070
     5
1001
GRADIENTCOLOR2ACI
1070
     2
1001
ACAD
1010
0.0
1020
0.0
1030
0.0
1001
ACDBBLOCKREPETAG
1070
     1
1071
      422
1005
132951
  0
LINE
  5
132952
  8
SLIM
 10
3954.2369265471712
 20
-137.99999999999909
 30
0.0
 11
3972.7507744763329
 21
-119.4861520708364
 31
0.0
1001
GRADIENTCOLOR1ACI
1070
     5
1001
GRADIENTCOLOR2ACI
1070
     2
1001
ACAD
1010
0.0
1020
0.0
1030
0.0
1001
ACDBBLOCKREPETAG
1070
     1
1071
      423
1005
132952
  0
LINE
  5
132953
  8
SLIM
 10
3973.521224312457
 20
-127.6959583557812
 30
0.0
 11
3984.8575146748631
 21
-116.359667993377
 31
0.0
1001
GRADIENTCOLOR1ACI
1070
     5
1001
GRADIENTCOLOR2ACI
1070
     2
1001
ACAD
1010
0.0
1020
0.0
1030
0.0
1001
ACDBBLOCKREPETAG
1070
     1
1071
      424
1005
132953
  0
LINE
  5
132954
  8
SLIM
 10
3985.8944171461271
 20
-124.30302164318159
 30
0.0
 11
3995.0533812002559
 21
-115.1440575890517
 31
0.0
1001
GRADIENTCOLOR1ACI
1070
     5
1001
GRADIENTCOLOR2ACI
1070
     2
1001
ACAD
1010
0.0
1020
0.0
1030
0.0
1001
ACDBBLOCKREPETAG
1070
     1
1071
      425
1005
132954
  0
LINE
  5
132955
  8
SLIM
 10
3996.0777327492078
 20
-123.0999621611699
 30
0.0
 11
4000.0
 21
-119.1776949103767
 31
0.0
1001
GRADIENTCOLOR1ACI
1070
     5
1001
GRADIENTCOLOR2ACI
1070
     2
1001
ACAD
1010
0.0
1020
0.0
1030
0.0
1001
ACDBBLOCKREPETAG
1070
     1
1071
      426
1005
132955
  0
LINE
  5
132956
  8
SLIM
 10
4000.0
 20
-119.1776949103767
 30
0.0
 11
4004.0797313529042
 21
-115.0979635574724
 31
0.0
1001
GRADIENTCOLOR1ACI
1070
     5
1001
GRADIENTCOLOR2ACI
1070
     2
1001
ACAD
1010
0.0
1020
0.0
1030
0.0
1001
ACDBBLOCKREPETAG
1070
     1
1071
      427
1005
132956
  0
LINE
  5
132957
  8
SLIM
 10
4004.9957202542769
 20
-123.1622307771683
 30
0.0
 11
4012.2679784105749
 21
-115.88997262087101
 31
0.0
1001
GRADIENTCOLOR1ACI
1070
     5
1001
GRADIENTCOLOR2ACI
1070
     2
1001
ACAD
1010
0.0
1020
0.0
1030
0.0
1001
ACDBBLOCKREPETAG
1070
     1
1071
      428
1005
132957
  0
LINE
  5
132958
  8
SLIM
 10
4013.028059366964
 20
-124.1101477855505
 30
0.0
 11
4019.799941457361
 21
-117.3382656951526
 31
0.0
1001
GRADIENTCOLOR1ACI
1070
     5
1001
GRADIENTCOLOR2ACI
1070
     2
1001
ACAD
1010
0.0
1020
0.0
1030
0.0
1001
ACDBBLOCKREPETAG
1070
     1
1071
      429
1005
132958
  0
LINE
  5
132959
  8
SLIM
 10
4020.3740813142458
 20
-125.7443819593383
 30
0.0
 11
4026.7872038672799
 21
-119.3312594063044
 31
0.0
1001
GRADIENTCOLOR1ACI
1070
     5
1001
GRADIENTCOLOR2ACI
1070
     2
1001
ACAD
1010
0.0
1020
0.0
1030
0.0
1001
ACDBBLOCKREPETAG
1070
     1
1071
      430
1005
132959
  0
LINE
  5
13295A
  8
SLIM
 10
4027.1524719988752
 20
-127.946247395778
 30
0.0
 11
4033.3030030760328
 21
-121.7957163186195
 31
0.0
1001
GRADIENTCOLOR1ACI
1070
     5
1001
GRADIENTCOLOR2ACI
1070
     2
1001
ACAD
1010
0.0
1020
0.0
1030
0.0
1001
ACDBBLOCKREPETAG
1070
     1
1071
      431
1005
13295A
  0
LINE
  5
13295B
  8
SLIM
 10
4033.4390986513308
 20
-130.63987686439191
 30
0.0
 11
4039.3973119843781
 21
-124.6816635313439
 31
0.0
1001
GRADIENTCOLOR1ACI
1070
     5
1001
GRADIENTCOLOR2ACI
1070
     2
1001
ACAD
1010
0.0
1020
0.0
1030
0.0
1001
ACDBBLOCKREPETAG
1070
     1
1071
      432
1005
13295B
  0
LINE
  5
13295C
  8
SLIM
 10
4039.284224621797
 20
-133.77500701499321
 30
0.0
 11
4045.1047705343681
 21
-127.95446110242381
 31
0.0
1001
GRADIENTCOLOR1ACI
1070
     5
1001
GRADIENTCOLOR2ACI
1070
     2
1001
ACAD
1010
0.0
1020
0.0
1030
0.0
1001
ACDBBLOCKREPETAG
1070
     1
1071
      433
1005
13295C
  0
LINE
  5
13295D
  8
SLIM
 10
4044.7212801698038
 20
-137.31820758805651
 30
0.0
 11
4050.4491557891961
 21
-131.59033196866449
 31
0.0
1001
GRADIENTCOLOR1ACI
1070
     5
1001
GRADIENTCOLOR2ACI
1070
     2
1001
ACAD
1010
0.0
1020
0.0
1030
0.0
1001
ACDBBLOCKREPETAG
1070
     1
1071
      434
1005
13295D
  0
LINE
  5
13295E
  8
SLIM
 10
4053.0197438789291
 20
-137.99999999999909
 30
0.0
 11
4055.4459941864038
 21
-135.57374969252561
 31
0.0
1001
GRADIENTCOLOR1ACI
1070
     5
1001
GRADIENTCOLOR2ACI
1070
     2
1001
ACAD
1010
0.0
1020
0.0
1030
0.0
1001
ACDBBLOCKREPETAG
1070
     1
1071
      435
1005
13295E
  0
LINE
  5
13295F
  8
CENTER
 10
4000.0
 20
-279.99999999999909
 30
0.0
 11
4000.0
 21
-99.999999999999091
 31
0.0
1001
ACDBBLOCKREPETAG
1070
     1
1071
      160
1005
13295F
  0
CIRCLE
  5
132960
  8
OBJECT
 10
4000.0
 20
-199.99999999999909
 30
0.0
 40
70.0
1001
ACDBBLOCKREPETAG
1070
     1
1071
      161
1005
132960
  0
CIRCLE
  5
132961
  8
OBJECT
 10
4000.0
 20
-199.99999999999909
 30
0.0
 40
77.0
1001
ACDBBLOCKREPETAG
1070
     1
1071
      162
1005
132961
  0
LINE
  5
132962
  8
OBJECT
 10
4045.661800227324
 20
-137.99999999999909
 30
0.0
 11
4080.0
 21
-137.99999999999909
 31
0.0
1001
ACDBBLOCKREPETAG
1070
     1
1071
      164
1005
132962
  0
LINE
  5
132963
  8
OBJECT
 10
4062.0
 20
-261.99999999999909
 30
0.0
 11
4080.0
 21
-261.99999999999909
 31
0.0
1001
ACDBBLOCKREPETAG
1070
     1
1071
      165
1005
132963
  0
LINE
  5
132964
  8
OBJECT
 10
4062.0
 20
-261.99999999999909
 30
0.0
 11
4062.0
 21
-279.99999999999909
 31
0.0
1001
ACDBBLOCKREPETAG
1070
     1
1071
      167
1005
132964
  0
LINE
  5
132965
  8
OBJECT
 10
3938.0
 20
-261.99999999999909
 30
0.0
 11
3938.0
 21
-279.99999999999909
 31
0.0
1001
ACDBBLOCKREPETAG
1070
     1
1071
      168
1005
132965
  0
LINE
  5
132966
  8
OBJECT
 10
3938.0
 20
-261.99999999999909
 30
0.0
 11
3920.0
 21
-261.99999999999909
 31
0.0
1001
ACDBBLOCKREPETAG
1070
     1
1071
      170
1005
132966
  0
LINE
  5
132967
  8
OBJECT
 10
3954.338199772676
 20
-137.99999999999909
 30
0.0
 11
3920.0
 21
-137.99999999999909
 31
0.0
1001
ACDBBLOCKREPETAG
1070
     1
1071
      171
1005
132967
  0
LINE
  5
132968
  8
OBJECT
 10
3945.5527778486362
 20
-254.44722215136329
 30
0.0
 11
3938.0
 21
-261.99999999999909
 31
0.0
1001
ACDBBLOCKREPETAG
1070
     1
1071
      180
1005
132968
  0
LINE
  5
132969
  8
OBJECT
 10
4054.4472221513638
 20
-254.44722215136329
 30
0.0
 11
4062.0
 21
-261.99999999999909
 31
0.0
1001
ACDBBLOCKREPETAG
1070
     1
1071
      181
1005
132969
  0
POINT
  5
13296A
  8
DOTS
 10
4000.0
 20
-199.99999999999909
 30
0.0
 50
270.0
1001
ACDBBLOCKREPETAG
1070
     1
1071
      182
1005
13296A
  0
ARC
  5
13296B
  8
OBJECT
 10
4000.0
 20
-199.99999999999909
 30
0.0
 40
85.0
 50
46.837102859806208
 51
133.16289714019371
1001
ACDBBLOCKREPETAG
1070
     1
1071
      183
1005
13296B
  0
CIRCLE
  5
13296C
  8
OBJECT
 10
4000.0
 20
-199.99999999999909
 30
0.0
 40
53.5
1001
ACDBBLOCKREPETAG
1070
     1
1071
      352
1005
13296C
  0
LINE
  5
13296D
  8
CENTER
 10
4080.0
 20
-199.99999999999909
 30
0.0
 11
3920.0
 21
-199.99999999999909
 31
0.0
1001
ACDBBLOCKREPETAG
1070
     1
1071
      158
1005
13296D
  0
LINE
  5
13296E
  8
OBJECT
 10
3787.0000000000191
 20
-137.99999999999909
 30
0.0
 11
3780.0000000000182
 21
-137.99999999999909
 31
0.0
1001
ACDBBLOCKREPETAG
1070
     1
1071
      110
1005
13296E
  0
LINE
  5
13296F
  8
OBJECT
 10
3780.0000000000182
 20
-137.99999999999909
 30
0.0
 11
3780.0000000000182
 21
-261.99999999999909
 31
0.0
1001
ACDBBLOCKREPETAG
1070
     1
1071
      111
1005
13296F
  0
LINE
  5
132970
  8
OBJECT
 10
3780.0000000000182
 20
-261.99999999999909
 30
0.0
 11
3787.0000000000191
 21
-261.99999999999909
 31
0.0
1001
ACDBBLOCKREPETAG
1070
     1
1071
      112
1005
132970
  0
LINE
  5
132971
  8
OBJECT
 10
3787.0000000000191
 20
-261.99999999999909
 30
0.0
 11
3787.0000000000191
 21
-137.99999999999909
 31
0.0
1001
ACDBBLOCKREPETAG
1070
     1
1071
      113
1005
132971
  0
LINE
  5
132972
  8
CENTER
 10
3765.0000000000182
 20
-199.99999999999909
 30
0.0
 11
3920.0
 21
-199.99999999999909
 31
0.0
1001
ACDBBLOCKREPETAG
1070
     1
1071
      114
1005
132972
  0
LINE
  5
132973
  8
OBJECT
 10
3840.0000250358171
 20
-245.0000000000027
 30
0.0
 11
3914.000000000005
 21
-244.99999999999909
 31
0.0
1001
ACDBBLOCKREPETAG
1070
     1
1071
      115
1005
132973
  0
LINE
  5
132974
  8
OBJECT
 10
3840.0000250358171
 20
-154.99999999999909
 30
0.0
 11
3914.000000000005
 21
-154.99999999999909
 31
0.0
1001
ACDBBLOCKREPETAG
1070
     1
1071
      116
1005
132974
  0
LINE
  5
132975
  8
OBJECT
 10
3787.0000000000191
 20
-140.99999999999909
 30
0.0
 11
3823.0000000000182
 21
-140.99999999999909
 31
0.0
1001
ACDBBLOCKREPETAG
1070
     1
1071
      117
1005
132975
  0
LINE
  5
132976
  8
OBJECT
 10
3823.0000000000182
 20
-140.99999999999909
 30
0.0
 11
3823.0000000000182
 21
-258.99999999999909
 31
0.0
1001
ACDBBLOCKREPETAG
1070
     1
1071
      118
1005
132976
  0
LINE
  5
132977
  8
OBJECT
 10
3823.0000000000182
 20
-258.99999999999909
 30
0.0
 11
3787.0000000000191
 21
-258.99999999999909
 31
0.0
1001
ACDBBLOCKREPETAG
1070
     1
1071
      119
1005
132977
  0
LINE
  5
132978
  8
OBJECT
 10
3827.0000000000182
 20
-145.49999999999909
 30
0.0
 11
3840.0000000000191
 21
-145.49999999999909
 31
0.0
1001
ACDBBLOCKREPETAG
1070
     1
1071
      120
1005
132978
  0
LINE
  5
132979
  8
OBJECT
 10
3840.0000000000191
 20
-254.49999999999909
 30
0.0
 11
3827.0000000000182
 21
-254.49999999999909
 31
0.0
1001
ACDBBLOCKREPETAG
1070
     1
1071
      121
1005
132979
  0
LINE
  5
13297A
  8
OBJECT
 10
3827.0000000000182
 20
-254.49999999999909
 30
0.0
 11
3827.0000000000182
 21
-145.49999999999909
 31
0.0
1001
ACDBBLOCKREPETAG
1070
     1
1071
      122
1005
13297A
  0
LINE
  5
13297B
  8
OBJECT
 10
3823.0000000000182
 20
-140.99999999999909
 30
0.0
 11
3827.0000000000182
 21
-145.49999999999909
 31
0.0
1001
ACDBBLOCKREPETAG
1070
     1
1071
      123
1005
13297B
  0
LINE
  5
13297C
  8
OBJECT
 10
3823.0000000000182
 20
-258.99999999999909
 30
0.0
 11
3827.0000000000182
 21
-254.49999999999909
 31
0.0
1001
ACDBBLOCKREPETAG
1070
     1
1071
      124
1005
13297C
  0
LINE
  5
13297D
  8
OBJECT
 10
3917.000000000005
 20
-137.99999999999909
 30
0.0
 11
3920.0000000000041
 21
-137.99999999999909
 31
0.0
1001
ACDBBLOCKREPETAG
1070
     1
1071
      125
1005
13297D
  0
ARC
  5
13297E
  8
OBJECT
 10
3917.000000000005
 20
-140.99999999999909
 30
0.0
 40
3.0
 50
90.0
 51
180.0
1001
ACDBBLOCKREPETAG
1070
     1
1071
      126
1005
13297E
  0
LINE
  5
13297F
  8
OBJECT
 10
3920.0000000000041
 20
-261.99999999999909
 30
0.0
 11
3917.000000000005
 21
-261.99999999999909
 31
0.0
1001
ACDBBLOCKREPETAG
1070
     1
1071
      127
1005
13297F
  0
ARC
  5
132980
  8
OBJECT
 10
3917.000000000005
 20
-258.99999999999909
 30
0.0
 40
3.0
 50
180.0
 51
270.0
1001
ACDBBLOCKREPETAG
1070
     1
1071
      128
1005
132980
  0
LINE
  5
132981
  8
OBJECT
 10
3914.000000000005
 20
-258.99999999999909
 30
0.0
 11
3914.000000000005
 21
-222.44994432063581
 31
0.0
1001
ACDBBLOCKREPETAG
1070
     1
1071
      129
1005
132981
  0
LINE
  5
132982
  8
OBJECT
 10
3914.000000000005
 20
-177.55005567935859
 30
0.0
 11
3914.000000000005
 21
-140.99999999999909
 31
0.0
1001
ACDBBLOCKREPETAG
1070
     1
1071
      130
1005
132982
  0
LINE
  5
132983
  8
HIDDEN
 10
3832.0000000000182
 20
-155.49999999999909
 30
0.0
 11
3832.0000000000182
 21
-244.49999999999909
 31
0.0
1001
ACDBBLOCKREPETAG
1070
     1
1071
      131
1005
132983
  0
LINE
  5
132984
  8
OBJECT
 10
3840.0000250358171
 20
-254.4999509238105
 30
0.0
 11
3840.0000250358171
 21
-145.4999509238105
 31
0.0
1001
ACDBBLOCKREPETAG
1070
     1
1071
      133
1005
132984
  0
ARC
  5
132985
  8
OBJECT
 10
3875.0
 20
-199.99999999999909
 30
0.0
 40
45.000000000000547
 50
270.0
 51
90.0
1001
ACDBBLOCKREPETAG
1070
     1
1071
      134
1005
132985
  0
LINE
  5
132986
  8
CENTER
 10
4000.0
 20
-300.99999999999898
 30
0.0
 11
4000.0
 21
-279.99999999999909
 31
0.0
1001
ACDBBLOCKREPETAG
1070
     1
1071
        0
1005
132986
  0
LINE
  5
132987
  8
OBJECT
 10
4062.0
 20
-283.0
 30
0.0
 11
4062.0
 21
-279.99999999999909
 31
0.0
1001
ACDBBLOCKREPETAG
1070
     1
1071
        1
1005
132987
  0
ARC
  5
132988
  8
OBJECT
 10
4059.0
 20
-283.0
 30
0.0
 40
3.0
 50
270.0
 51
0.0
1001
ACDBBLOCKREPETAG
1070
     1
1071
        2
1005
132988
  0
LINE
  5
132989
  8
OBJECT
 10
3938.0
 20
-279.99999999999909
 30
0.0
 11
3938.0
 21
-282.99999999999818
 31
0.0
1001
ACDBBLOCKREPETAG
1070
     1
1071
        3
1005
132989
  0
ARC
  5
13298A
  8
OBJECT
 10
3941.0
 20
-282.99999999999818
 30
0.0
 40
3.0
 50
180.0
 51
270.0
1001
ACDBBLOCKREPETAG
1070
     1
1071
        4
1005
13298A
  0
LINE
  5
13298B
  8
OBJECT
 10
3941.0
 20
-285.99999999999818
 30
0.0
 11
4059.0
 21
-286.0
 31
0.0
1001
ACDBBLOCKREPETAG
1070
     1
1071
        5
1005
13298B
  0
LINE
  5
13298C
  8
OBJECT
 10
4133.0
 20
-137.99999999999909
 30
0.0
 11
4140.0
 21
-137.99999999999909
 31
0.0
1001
ACDBBLOCKREPETAG
1070
     1
1071
       47
1005
13298C
  0
LINE
  5
13298D
  8
OBJECT
 10
4140.0
 20
-137.99999999999909
 30
0.0
 11
4140.0
 21
-261.99999999999909
 31
0.0
1001
ACDBBLOCKREPETAG
1070
     1
1071
       48
1005
13298D
  0
LINE
  5
13298E
  8
OBJECT
 10
4140.0
 20
-261.99999999999909
 30
0.0
 11
4133.0
 21
-261.99999999999909
 31
0.0
1001
ACDBBLOCKREPETAG
1070
     1
1071
       49
1005
13298E
  0
LINE
  5
13298F
  8
OBJECT
 10
4133.0
 20
-261.99999999999909
 30
0.0
 11
4133.0
 21
-137.99999999999909
 31
0.0
1001
ACDBBLOCKREPETAG
1070
     1
1071
       50
1005
13298F
  0
LINE
  5
132990
  8
CENTER
 10
4155.0
 20
-199.99999999999909
 30
0.0
 11
4080.0
 21
-199.99999999999909
 31
0.0
1001
ACDBBLOCKREPETAG
1070
     1
1071
       51
1005
132990
  0
LINE
  5
132991
  8
OBJECT
 10
4133.0
 20
-140.99999999999909
 30
0.0
 11
4097.0
 21
-140.99999999999909
 31
0.0
1001
ACDBBLOCKREPETAG
1070
     1
1071
       52
1005
132991
  0
LINE
  5
132992
  8
OBJECT
 10
4097.0
 20
-140.99999999999909
 30
0.0
 11
4097.0
 21
-258.99999999999909
 31
0.0
1001
ACDBBLOCKREPETAG
1070
     1
1071
       53
1005
132992
  0
LINE
  5
132993
  8
OBJECT
 10
4097.0
 20
-258.99999999999909
 30
0.0
 11
4133.0
 21
-258.99999999999909
 31
0.0
1001
ACDBBLOCKREPETAG
1070
     1
1071
       54
1005
132993
  0
LINE
  5
132994
  8
OBJECT
 10
4093.0
 20
-145.49999999999909
 30
0.0
 11
4086.0
 21
-145.49999999999909
 31
0.0
1001
ACDBBLOCKREPETAG
1070
     1
1071
       55
1005
132994
  0
LINE
  5
132995
  8
OBJECT
 10
4086.0
 20
-254.49999999999909
 30
0.0
 11
4093.0
 21
-254.49999999999909
 31
0.0
1001
ACDBBLOCKREPETAG
1070
     1
1071
       56
1005
132995
  0
LINE
  5
132996
  8
OBJECT
 10
4093.0
 20
-254.49999999999909
 30
0.0
 11
4093.0
 21
-145.49999999999909
 31
0.0
1001
ACDBBLOCKREPETAG
1070
     1
1071
       57
1005
132996
  0
LINE
  5
132997
  8
OBJECT
 10
4097.0
 20
-140.99999999999909
 30
0.0
 11
4093.0
 21
-145.49999999999909
 31
0.0
1001
ACDBBLOCKREPETAG
1070
     1
1071
       58
1005
132997
  0
LINE
  5
132998
  8
OBJECT
 10
4097.0
 20
-258.99999999999909
 30
0.0
 11
4093.0
 21
-254.49999999999909
 31
0.0
1001
ACDBBLOCKREPETAG
1070
     1
1071
       59
1005
132998
  0
LINE
  5
132999
  8
OBJECT
 10
4083.0
 20
-137.99999999999909
 30
0.0
 11
4080.0
 21
-137.99999999999909
 31
0.0
1001
ACDBBLOCKREPETAG
1070
     1
1071
       60
1005
132999
  0
ARC
  5
13299A
  8
OBJECT
 10
4083.0
 20
-140.99999999999909
 30
0.0
 40
3.0
 50
0.0
 51
90.0
1001
ACDBBLOCKREPETAG
1070
     1
1071
       61
1005
13299A
  0
LINE
  5
13299B
  8
OBJECT
 10
4080.0
 20
-261.99999999999909
 30
0.0
 11
4083.0
 21
-261.99999999999909
 31
0.0
1001
ACDBBLOCKREPETAG
1070
     1
1071
       62
1005
13299B
  0
ARC
  5
13299C
  8
OBJECT
 10
4083.0
 20
-258.99999999999909
 30
0.0
 40
3.0
 50
270.0
 51
0.0
1001
ACDBBLOCKREPETAG
1070
     1
1071
       63
1005
13299C
  0
LINE
  5
13299D
  8
OBJECT
 10
4086.0
 20
-258.99999999999909
 30
0.0
 11
4086.0
 21
-140.99999999999909
 31
0.0
1001
ACDBBLOCKREPETAG
1070
     1
1071
       64
1005
13299D
  0
LINE
  5
13299E
  8
HIDDEN
 10
4088.0
 20
-155.49999999999909
 30
0.0
 11
4088.0
 21
-244.49999999999909
 31
0.0
1001
ACDBBLOCKREPETAG
1070
     1
1071
       65
1005
13299E
  0
LINE
  5
13299F
  8
OBJECT
 10
3787.000000000015
 20
-553.0
 30
0.0
 11
3780.000000000015
 21
-553.0
 31
0.0
1001
ACDBBLOCKREPETAG
1070
     1
1071
      106
1005
13299F
  0
LINE
  5
1329A0
  8
OBJECT
 10
3780.000000000015
 20
-553.0
 30
0.0
 11
3780.000000000015
 21
-677.0
 31
0.0
1001
ACDBBLOCKREPETAG
1070
     1
1071
      107
1005
1329A0
  0
LINE
  5
1329A1
  8
OBJECT
 10
3914.0000000000159
 20
-653.3502637757274
 30
0.0
 11
3914.0000000000159
 21
-755.00000000000102
 31
0.0
1001
ACDBBLOCKREPETAG
1070
     1
1071
      108
1005
1329A1
  0
LINE
  5
1329A2
  8
OBJECT
 10
3780.000000000015
 20
-677.0
 30
0.0
 11
3787.000000000015
 21
-677.0
 31
0.0
1001
ACDBBLOCKREPETAG
1070
     1
1071
      109
1005
1329A2
  0
LINE
  5
1329A3
  8
OBJECT
 10
3787.000000000015
 20
-677.0
 30
0.0
 11
3787.000000000015
 21
-553.0
 31
0.0
1001
ACDBBLOCKREPETAG
1070
     1
1071
      110
1005
1329A3
  0
LINE
  5
1329A4
  8
CENTER
 10
3855.0000000000141
 20
-615.0000000000008
 30
0.0
 11
3765.0000000000159
 21
-615.0
 31
0.0
1001
ACDBBLOCKREPETAG
1070
     1
1071
      111
1005
1329A4
  0
LINE
  5
1329A5
  8
OBJECT
 10
3920.0000000000182
 20
-758.0
 30
0.0
 11
3917.0000000000141
 21
-758.0000000000008
 31
0.0
1001
ACDBBLOCKREPETAG
1070
     1
1071
      112
1005
1329A5
  0
ARC
  5
1329A6
  8
OBJECT
 10
3917.0000000000141
 20
-755.00000000000102
 30
0.0
 40
3.0
 50
180.0
 51
270.0
1001
ACDBBLOCKREPETAG
1070
     1
1071
      113
1005
1329A6
  0
LINE
  5
1329A7
  8
OBJECT
 10
3787.000000000015
 20
-556.0
 30
0.0
 11
3823.0000000000141
 21
-556.0000000000008
 31
0.0
1001
ACDBBLOCKREPETAG
1070
     1
1071
      114
1005
1329A7
  0
LINE
  5
1329A8
  8
OBJECT
 10
3823.0000000000141
 20
-556.0000000000008
 30
0.0
 11
3823.0000000000141
 21
-653.15756805667843
 31
0.0
1001
ACDBBLOCKREPETAG
1070
     1
1071
      115
1005
1329A8
  0
LINE
  5
1329A9
  8
OBJECT
 10
3827.000000000015
 20
-560.5000000000008
 30
0.0
 11
3827.0000000000182
 21
-645.74491827928705
 31
0.0
1001
ACDBBLOCKREPETAG
1070
     1
1071
      116
1005
1329A9
  0
LINE
  5
1329AA
  8
OBJECT
 10
3827.000000000015
 20
-560.5000000000008
 30
0.0
 11
3840.0000000000159
 21
-560.5000000000008
 31
0.0
1001
ACDBBLOCKREPETAG
1070
     1
1071
      117
1005
1329AA
  0
LINE
  5
1329AB
  8
OBJECT
 10
3831.3436831745321
 20
-674.0000000000008
 30
0.0
 11
3787.000000000015
 21
-674.0
 31
0.0
1001
ACDBBLOCKREPETAG
1070
     1
1071
      118
1005
1329AB
  0
LINE
  5
1329AC
  8
OBJECT
 10
3823.0000000000141
 20
-556.0000000000008
 30
0.0
 11
3827.000000000015
 21
-560.5000000000008
 31
0.0
1001
ACDBBLOCKREPETAG
1070
     1
1071
      119
1005
1329AC
  0
LINE
  5
1329AD
  8
OBJECT
 10
3840.0000000000159
 20
-560.5000000000008
 30
0.0
 11
3840.0000000000159
 21
-645.74491827928784
 31
0.0
1001
ACDBBLOCKREPETAG
1070
     1
1071
      120
1005
1329AD
  0
ARC
  5
1329AE
  8
OBJECT
 10
3908.000000000015
 20
-637.27386365609345
 30
0.0
 40
85.0
 50
205.59913872187661
 51
231.40900676279119
1001
ACDBBLOCKREPETAG
1070
     1
1071
      121
1005
1329AE
  0
ARC
  5
1329AF
  8
OBJECT
 10
3837.2000000000162
 20
-655.00000000000068
 30
0.0
 40
85.0
 50
19.925932125430649
 51
88.112268108168848
1001
ACDBBLOCKREPETAG
1070
     1
1071
      122
1005
1329AF
  0
LINE
  5
1329B0
  8
OBJECT
 10
3914.0000000000159
 20
-750.81075719270905
 30
0.0
 11
3854.9806774563981
 21
-703.71143914629454
 31
0.0
1001
ACDBBLOCKREPETAG
1070
     1
1071
      123
1005
1329B0
  0
LINE
  5
1329B1
  8
OBJECT
 10
3827.0000000000182
 20
-645.74491827928705
 30
0.0
 11
3840.0000000000159
 21
-645.74491827928784
 31
0.0
1001
ACDBBLOCKREPETAG
1070
     1
1071
      124
1005
1329B1
  0
LINE
  5
1329B2
  8
OBJECT
 10
3823.0000000000141
 20
-653.15756805667843
 30
0.0
 11
3827.0000000000182
 21
-645.74491827928705
 31
0.0
1001
ACDBBLOCKREPETAG
1070
     1
1071
      125
1005
1329B2
  0
LINE
  5
1329B3
  8
OBJECT
 10
3919.9999999999818
 20
-634.0
 30
0.0
 11
3917.111387840378
 21
-626.03156729425325
 31
0.0
1001
ACDBBLOCKREPETAG
1070
     1
1071
      126
1005
1329B3
  0
LINE
  5
1329B4
  8
OBJECT
 10
3919.9999999999818
 20
-634.0
 30
0.0
 11
3914.0000000000159
 21
-653.3502637757274
 31
0.0
1001
ACDBBLOCKREPETAG
1070
     1
1071
      127
1005
1329B4
  0
LINE
  5
1329B5
  8
HIDDEN
 10
3832.0000000000159
 20
-570.5000000000008
 30
0.0
 11
3832.0000000000159
 21
-659.50000000000068
 31
0.0
1001
ACDBBLOCKREPETAG
1070
     1
1071
      129
1005
1329B5
  0
CIRCLE
  5
1329B6
  8
OBJECT
 10
4000.0
 20
-696.0
 30
0.0
 40
62.0
1001
ACDBBLOCKREPETAG
1070
     1
1071
        0
1005
1329B6
  0
LINE
  5
1329B7
  8
OBJECT
 10
4133.0
 20
-634.0
 30
0.0
 11
4140.0
 21
-634.0
 31
0.0
1001
ACDBBLOCKREPETAG
1070
     1
1071
       45
1005
1329B7
  0
LINE
  5
1329B8
  8
OBJECT
 10
4140.0
 20
-634.0
 30
0.0
 11
4140.0
 21
-755.0
 31
0.0
1001
ACDBBLOCKREPETAG
1070
     1
1071
       46
1005
1329B8
  0
LINE
  5
1329B9
  8
OBJECT
 10
4133.0
 20
-755.0
 30
0.0
 11
4133.0
 21
-634.0
 31
0.0
1001
ACDBBLOCKREPETAG
1070
     1
1071
       47
1005
1329B9
  0
LINE
  5
1329BA
  8
CENTER
 10
4155.0
 20
-696.0
 30
0.0
 11
4071.0
 21
-696.0
 31
0.0
1001
ACDBBLOCKREPETAG
1070
     1
1071
       48
1005
1329BA
  0
LINE
  5
1329BB
  8
OBJECT
 10
4133.0
 20
-637.0
 30
0.0
 11
4097.0
 21
-637.0
 31
0.0
1001
ACDBBLOCKREPETAG
1070
     1
1071
       49
1005
1329BB
  0
LINE
  5
1329BC
  8
OBJECT
 10
4097.0
 20
-637.0
 30
0.0
 11
4097.0
 21
-755.0
 31
0.0
1001
ACDBBLOCKREPETAG
1070
     1
1071
       50
1005
1329BC
  0
LINE
  5
1329BD
  8
OBJECT
 10
4097.0
 20
-755.0
 30
0.0
 11
4140.0
 21
-755.0
 31
0.0
1001
ACDBBLOCKREPETAG
1070
     1
1071
       51
1005
1329BD
  0
LINE
  5
1329BE
  8
OBJECT
 10
4093.0
 20
-641.5
 30
0.0
 11
4086.0
 21
-641.5
 31
0.0
1001
ACDBBLOCKREPETAG
1070
     1
1071
       52
1005
1329BE
  0
LINE
  5
1329BF
  8
OBJECT
 10
4086.0
 20
-750.49999999999989
 30
0.0
 11
4093.0
 21
-750.49999999999989
 31
0.0
1001
ACDBBLOCKREPETAG
1070
     1
1071
       53
1005
1329BF
  0
LINE
  5
1329C0
  8
OBJECT
 10
4093.0
 20
-750.49999999999989
 30
0.0
 11
4093.0
 21
-641.5
 31
0.0
1001
ACDBBLOCKREPETAG
1070
     1
1071
       54
1005
1329C0
  0
LINE
  5
1329C1
  8
OBJECT
 10
4097.0
 20
-637.0
 30
0.0
 11
4093.0
 21
-641.5
 31
0.0
1001
ACDBBLOCKREPETAG
1070
     1
1071
       55
1005
1329C1
  0
LINE
  5
1329C2
  8
OBJECT
 10
4097.0
 20
-755.0
 30
0.0
 11
4093.0
 21
-750.49999999999989
 31
0.0
1001
ACDBBLOCKREPETAG
1070
     1
1071
       56
1005
1329C2
  0
LINE
  5
1329C3
  8
OBJECT
 10
4083.0
 20
-634.0
 30
0.0
 11
4080.0
 21
-634.0
 31
0.0
1001
ACDBBLOCKREPETAG
1070
     1
1071
       57
1005
1329C3
  0
ARC
  5
1329C4
  8
OBJECT
 10
4083.0
 20
-637.0
 30
0.0
 40
3.0
 50
0.0
 51
90.0
1001
ACDBBLOCKREPETAG
1070
     1
1071
       58
1005
1329C4
  0
LINE
  5
1329C5
  8
OBJECT
 10
4080.0
 20
-758.0
 30
0.0
 11
4083.0
 21
-758.0
 31
0.0
1001
ACDBBLOCKREPETAG
1070
     1
1071
       59
1005
1329C5
  0
ARC
  5
1329C6
  8
OBJECT
 10
4083.0
 20
-755.0
 30
0.0
 40
3.0
 50
270.0
 51
0.0
1001
ACDBBLOCKREPETAG
1070
     1
1071
       60
1005
1329C6
  0
LINE
  5
1329C7
  8
OBJECT
 10
4086.0
 20
-755.0
 30
0.0
 11
4086.0
 21
-637.0
 31
0.0
1001
ACDBBLOCKREPETAG
1070
     1
1071
       61
1005
1329C7
  0
LINE
  5
1329C8
  8
HIDDEN
 10
4088.0
 20
-651.5
 30
0.0
 11
4088.0
 21
-740.5
 31
0.0
1001
ACDBBLOCKREPETAG
1070
     1
1071
       63
1005
1329C8
  0
LINE
  5
1329C9
  8
OBJECT
 10
3923.0
 20
-570.99999999999955
 30
0.0
 11
3923.0
 21
-549.99999999999955
 31
0.0
1001
ACDBBLOCKREPETAG
1070
     1
1071
       38
1005
1329C9
  0
LINE
  5
1329CA
  8
OBJECT
 10
3923.0
 20
-549.99999999999955
 30
0.0
 11
4077.0
 21
-549.99999999999955
 31
0.0
1001
ACDBBLOCKREPETAG
1070
     1
1071
       39
1005
1329CA
  0
LINE
  5
1329CB
  8
HIDDEN
 10
3943.0
 20
-619.99999999999955
 30
0.0
 11
4057.0
 21
-619.99999999999955
 31
0.0
1001
ACDBBLOCKREPETAG
1070
     1
1071
       40
1005
1329CB
  0
LINE
  5
1329CC
  8
OBJECT
 10
4077.0
 20
-549.99999999999955
 30
0.0
 11
4077.0
 21
-570.99999999999955
 31
0.0
1001
ACDBBLOCKREPETAG
1070
     1
1071
       41
1005
1329CC
  0
LINE
  5
1329CD
  8
OBJECT
 10
4077.0
 20
-570.99999999999955
 30
0.0
 11
3923.0
 21
-570.99999999999955
 31
0.0
1001
ACDBBLOCKREPETAG
1070
     1
1071
       42
1005
1329CD
  0
LINE
  5
1329CE
  8
CENTER
 10
4000.0
 20
-534.99999999999955
 30
0.0
 11
4000.0
 21
-889.99999999999955
 31
0.0
1001
ACDBBLOCKREPETAG
1070
     1
1071
       43
1005
1329CE
  0
LINE
  5
1329CF
  8
OBJECT
 10
3928.0
 20
-570.99999999999955
 30
0.0
 11
3928.0
 21
-633.99999999999955
 31
0.0
1001
ACDBBLOCKREPETAG
1070
     1
1071
       44
1005
1329CF
  0
LINE
  5
1329D0
  8
OBJECT
 10
4072.0
 20
-633.99999999999955
 30
0.0
 11
4072.0
 21
-570.99999999999955
 31
0.0
1001
ACDBBLOCKREPETAG
1070
     1
1071
       45
1005
1329D0
  0
LINE
  5
1329D1
  8
OBJECT
 10
3920.0
 20
-877.99999999999955
 30
0.0
 11
4080.0
 21
-877.99999999999955
 31
0.0
1001
ACDBBLOCKREPETAG
1070
     1
1071
       46
1005
1329D1
  0
LINE
  5
1329D2
  8
OBJECT
 10
4080.0
 20
-633.99999999999955
 30
0.0
 11
3920.0
 21
-633.99999999999955
 31
0.0
1001
ACDBBLOCKREPETAG
1070
     1
1071
       47
1005
1329D2
  0
LINE
  5
1329D3
  8
OBJECT
 10
3920.0
 20
-877.99999999999955
 30
0.0
 11
3920.0
 21
-889.99999999999955
 31
0.0
1001
ACDBBLOCKREPETAG
1070
     1
1071
       48
1005
1329D3
  0
LINE
  5
1329D4
  8
OBJECT
 10
3920.0
 20
-889.99999999999955
 30
0.0
 11
4080.0
 21
-889.99999999999955
 31
0.0
1001
ACDBBLOCKREPETAG
1070
     1
1071
       49
1005
1329D4
  0
LINE
  5
1329D5
  8
OBJECT
 10
4080.0
 20
-889.99999999999955
 30
0.0
 11
4080.0
 21
-877.99999999999955
 31
0.0
1001
ACDBBLOCKREPETAG
1070
     1
1071
       50
1005
1329D5
  0
LINE
  5
1329D6
  8
OBJECT
 10
4074.9999999998631
 20
-757.99999999985016
 30
0.0
 11
4075.0
 21
-877.99999999999955
 31
0.0
1001
ACDBBLOCKREPETAG
1070
     1
1071
       54
1005
1329D6
  0
LINE
  5
1329D7
  8
OBJECT
 10
4074.9999908029849
 20
-757.99998602702112
 30
0.0
 11
4080.0
 21
-757.99998602702112
 31
0.0
1001
ACDBBLOCKREPETAG
1070
     1
1071
       55
1005
1329D7
  0
LINE
  5
1329D8
  8
OBJECT
 10
3925.0000000001392
 20
-757.99999999985016
 30
0.0
 11
3925.0
 21
-877.99999999999955
 31
0.0
1001
ACDBBLOCKREPETAG
1070
     1
1071
       56
1005
1329D8
  0
LINE
  5
1329D9
  8
OBJECT
 10
3925.0000091970151
 20
-757.99998602702112
 30
0.0
 11
3920.0
 21
-757.99998602702112
 31
0.0
1001
ACDBBLOCKREPETAG
1070
     1
1071
       57
1005
1329D9
  0
ARC
  5
1329DA
  8
OBJECT
 10
4200.6872746716726
 20
-749.40809941010718
 30
0.0
 40
170.6350503965856
 50
137.44134459184301
 51
149.91949581337221
1001
ACDBBLOCKREPETAG
1070
     1
1071
       58
1005
1329DA
  0
ARC
  5
1329DB
  8
OBJECT
 10
4200.6872746716726
 20
-642.59190058989179
 30
0.0
 40
170.6350503965856
 50
210.08050418662771
 51
222.55865540815699
1001
ACDBBLOCKREPETAG
1070
     1
1071
       59
1005
1329DB
  0
ARC
  5
1329DC
  8
OBJECT
 10
3799.3127253283278
 20
-749.40809941010718
 30
0.0
 40
170.6350503965856
 50
30.080504186774089
 51
42.558655408382641
1001
ACDBBLOCKREPETAG
1070
     1
1071
       60
1005
1329DC
  0
ARC
  5
1329DD
  8
OBJECT
 10
3799.3127253283278
 20
-642.59190058989179
 30
0.0
 40
170.6350503965856
 50
317.44134459161722
 51
329.91949581322592
1001
ACDBBLOCKREPETAG
1070
     1
1071
       61
1005
1329DD
  0
POINT
  5
1329DE
  8
DOTS
 10
4000.0
 20
-754.99999999999955
 30
0.0
1001
ACDBBLOCKREPETAG
1070
     1
1071
      185
1005
1329DE
  0
CIRCLE
  5
1329DF
  8
OBJECT
 10
5000.0
 20
-3294.9999999999959
 30
0.0
 40
53.5
1001
ACDBBLOCKREPETAG
1070
     1
1071
      344
1005
1329DF
  0
LINE
  5
1329E0
  8
CENTER
 10
5080.0
 20
-3294.9999999999959
 30
0.0
 11
4905.0
 21
-3294.9999999999959
 31
0.0
1001
ACDBBLOCKREPETAG
1070
     1
1071
       14
1005
1329E0
  0
LINE
  5
1329E1
  8
CENTER
 10
5000.0
 20
-3389.9999999999968
 30
0.0
 11
5000.0
 21
-3199.9999999999959
 31
0.0
1001
ACDBBLOCKREPETAG
1070
     1
1071
       15
1005
1329E1
  0
CIRCLE
  5
1329E2
  8
OBJECT
 10
5000.0
 20
-3294.9999999999959
 30
0.0
 40
70.0
1001
ACDBBLOCKREPETAG
1070
     1
1071
       16
1005
1329E2
  0
CIRCLE
  5
1329E3
  8
OBJECT
 10
5000.0
 20
-3294.9999999999959
 30
0.0
 40
77.0
1001
ACDBBLOCKREPETAG
1070
     1
1071
       17
1005
1329E3
  0
ARC
  5
1329E4
  8
OBJECT
 10
5000.0
 20
-3294.9999999999959
 30
0.0
 40
80.0
 50
50.805032573882329
 51
309.19496742611773
1001
ACDBBLOCKREPETAG
1070
     1
1071
       18
1005
1329E4
  0
LINE
  5
1329E5
  8
OBJECT
 10
5045.6618002273253
 20
-3232.9999999999959
 30
0.0
 11
5080.0
 21
-3232.9999999999959
 31
0.0
1001
ACDBBLOCKREPETAG
1070
     1
1071
       19
1005
1329E5
  0
LINE
  5
1329E6
  8
OBJECT
 10
5045.6618002273253
 20
-3356.9999999999959
 30
0.0
 11
5080.0
 21
-3356.9999999999959
 31
0.0
1001
ACDBBLOCKREPETAG
1070
     1
1071
       20
1005
1329E6
  0
POINT
  5
1329E7
  8
DOTS
 10
5000.0
 20
-3294.9999999999959
 30
0.0
1001
ACDBBLOCKREPETAG
1070
     1
1071
       21
1005
1329E7
  0
CIRCLE
  5
1329E8
  8
OBJECT
 10
4000.0
 20
-3294.9999999999959
 30
0.0
 40
53.5
1001
ACDBBLOCKREPETAG
1070
     1
1071
      344
1005
1329E8
  0
LINE
  5
1329E9
  8
CENTER
 10
4080.0
 20
-3294.9999999999959
 30
0.0
 11
3905.0
 21
-3294.9999999999959
 31
0.0
1001
ACDBBLOCKREPETAG
1070
     1
1071
       14
1005
1329E9
  0
LINE
  5
1329EA
  8
CENTER
 10
4000.0
 20
-3389.9999999999968
 30
0.0
 11
4000.0
 21
-3199.9999999999959
 31
0.0
1001
ACDBBLOCKREPETAG
1070
     1
1071
       15
1005
1329EA
  0
CIRCLE
  5
1329EB
  8
OBJECT
 10
4000.0
 20
-3294.9999999999959
 30
0.0
 40
70.0
1001
ACDBBLOCKREPETAG
1070
     1
1071
       16
1005
1329EB
  0
CIRCLE
  5
1329EC
  8
OBJECT
 10
4000.0
 20
-3294.9999999999959
 30
0.0
 40
77.0
1001
ACDBBLOCKREPETAG
1070
     1
1071
       17
1005
1329EC
  0
ARC
  5
1329ED
  8
OBJECT
 10
4000.0
 20
-3294.9999999999959
 30
0.0
 40
80.0
 50
50.805032573862128
 51
309.19496742613791
1001
ACDBBLOCKREPETAG
1070
     1
1071
       18
1005
1329ED
  0
LINE
  5
1329EE
  8
OBJECT
 10
4045.661800227324
 20
-3232.9999999999959
 30
0.0
 11
4080.0
 21
-3232.9999999999959
 31
0.0
1001
ACDBBLOCKREPETAG
1070
     1
1071
       19
1005
1329EE
  0
LINE
  5
1329EF
  8
OBJECT
 10
4045.661800227324
 20
-3356.9999999999959
 30
0.0
 11
4080.0
 21
-3356.9999999999959
 31
0.0
1001
ACDBBLOCKREPETAG
1070
     1
1071
       20
1005
1329EF
  0
POINT
  5
1329F0
  8
DOTS
 10
4000.0
 20
-3294.9999999999959
 30
0.0
1001
ACDBBLOCKREPETAG
1070
     1
1071
       21
1005
1329F0
  0
CIRCLE
  5
1329F1
  8
OBJECT
 10
3000.0
 20
-3294.9999999999959
 30
0.0
 40
53.5
1001
ACDBBLOCKREPETAG
1070
     1
1071
      344
1005
1329F1
  0
LINE
  5
1329F2
  8
CENTER
 10
3080.0
 20
-3294.9999999999959
 30
0.0
 11
2905.0
 21
-3294.9999999999959
 31
0.0
1001
ACDBBLOCKREPETAG
1070
     1
1071
       14
1005
1329F2
  0
LINE
  5
1329F3
  8
CENTER
 10
3000.0
 20
-3389.9999999999968
 30
0.0
 11
3000.0
 21
-3199.9999999999959
 31
0.0
1001
ACDBBLOCKREPETAG
1070
     1
1071
       15
1005
1329F3
  0
CIRCLE
  5
1329F4
  8
OBJECT
 10
3000.0
 20
-3294.9999999999959
 30
0.0
 40
70.0
1001
ACDBBLOCKREPETAG
1070
     1
1071
       16
1005
1329F4
  0
CIRCLE
  5
1329F5
  8
OBJECT
 10
3000.0
 20
-3294.9999999999959
 30
0.0
 40
77.0
1001
ACDBBLOCKREPETAG
1070
     1
1071
       17
1005
1329F5
  0
ARC
  5
1329F6
  8
OBJECT
 10
3000.0
 20
-3294.9999999999959
 30
0.0
 40
80.0
 50
50.805032573862128
 51
309.19496742613791
1001
ACDBBLOCKREPETAG
1070
     1
1071
       18
1005
1329F6
  0
LINE
  5
1329F7
  8
OBJECT
 10
3045.6618002273249
 20
-3232.9999999999959
 30
0.0
 11
3080.0
 21
-3232.9999999999959
 31
0.0
1001
ACDBBLOCKREPETAG
1070
     1
1071
       19
1005
1329F7
  0
LINE
  5
1329F8
  8
OBJECT
 10
3045.6618002273249
 20
-3356.9999999999959
 30
0.0
 11
3080.0
 21
-3356.9999999999959
 31
0.0
1001
ACDBBLOCKREPETAG
1070
     1
1071
       20
1005
1329F8
  0
POINT
  5
1329F9
  8
DOTS
 10
3000.0
 20
-3294.9999999999959
 30
0.0
1001
ACDBBLOCKREPETAG
1070
     1
1071
       21
1005
1329F9
  0
CIRCLE
  5
1329FA
  8
OBJECT
 10
2000.0
 20
-3294.9999999999959
 30
0.0
 40
53.5
1001
ACDBBLOCKREPETAG
1070
     1
1071
      344
1005
1329FA
  0
LINE
  5
1329FB
  8
CENTER
 10
2080.0
 20
-3294.9999999999959
 30
0.0
 11
1905.0
 21
-3294.9999999999959
 31
0.0
1001
ACDBBLOCKREPETAG
1070
     1
1071
       14
1005
1329FB
  0
LINE
  5
1329FC
  8
CENTER
 10
2000.0
 20
-3389.9999999999968
 30
0.0
 11
2000.0
 21
-3199.9999999999959
 31
0.0
1001
ACDBBLOCKREPETAG
1070
     1
1071
       15
1005
1329FC
  0
CIRCLE
  5
1329FD
  8
OBJECT
 10
2000.0
 20
-3294.9999999999959
 30
0.0
 40
70.0
1001
ACDBBLOCKREPETAG
1070
     1
1071
       16
1005
1329FD
  0
CIRCLE
  5
1329FE
  8
OBJECT
 10
2000.0
 20
-3294.9999999999959
 30
0.0
 40
77.0
1001
ACDBBLOCKREPETAG
1070
     1
1071
       17
1005
1329FE
  0
ARC
  5
1329FF
  8
OBJECT
 10
2000.0
 20
-3294.9999999999959
 30
0.0
 40
80.0
 50
50.805032573862128
 51
309.19496742613791
1001
ACDBBLOCKREPETAG
1070
     1
1071
       18
1005
1329FF
  0
LINE
  5
132A00
  8
OBJECT
 10
2045.6618002273251
 20
-3232.9999999999959
 30
0.0
 11
2080.0
 21
-3232.9999999999959
 31
0.0
1001
ACDBBLOCKREPETAG
1070
     1
1071
       19
1005
132A00
  0
LINE
  5
132A01
  8
OBJECT
 10
2045.6618002273251
 20
-3356.9999999999959
 30
0.0
 11
2080.0
 21
-3356.9999999999959
 31
0.0
1001
ACDBBLOCKREPETAG
1070
     1
1071
       20
1005
132A01
  0
POINT
  5
132A02
  8
DOTS
 10
2000.0
 20
-3294.9999999999959
 30
0.0
1001
ACDBBLOCKREPETAG
1070
     1
1071
       21
1005
132A02
  0
CIRCLE
  5
132A03
  8
OBJECT
 10
2000.0
 20
-199.99999999999909
 30
0.0
 40
53.5
1001
ACDBBLOCKREPETAG
1070
     1
1071
      340
1005
132A03
  0
LINE
  5
132A04
  8
CENTER
 10
2080.0
 20
-199.99999999999909
 30
0.0
 11
1920.0
 21
-199.99999999999909
 31
0.0
1001
ACDBBLOCKREPETAG
1070
     1
1071
       49
1005
132A04
  0
LINE
  5
132A05
  8
CENTER
 10
2000.0
 20
-279.99999999999909
 30
0.0
 11
2000.0
 21
-104.9999999999991
 31
0.0
1001
ACDBBLOCKREPETAG
1070
     1
1071
       50
1005
132A05
  0
CIRCLE
  5
132A06
  8
OBJECT
 10
2000.0
 20
-199.99999999999909
 30
0.0
 40
70.0
1001
ACDBBLOCKREPETAG
1070
     1
1071
       51
1005
132A06
  0
CIRCLE
  5
132A07
  8
OBJECT
 10
2000.0
 20
-199.99999999999909
 30
0.0
 40
77.0
1001
ACDBBLOCKREPETAG
1070
     1
1071
       52
1005
132A07
  0
ARC
  5
132A08
  8
OBJECT
 10
2000.0
 20
-199.99999999999909
 30
0.0
 40
80.0
 50
50.805032573864182
 51
129.1949674261358
1001
ACDBBLOCKREPETAG
1070
     1
1071
       53
1005
132A08
  0
LINE
  5
132A09
  8
OBJECT
 10
2045.6618002273251
 20
-137.99999999999909
 30
0.0
 11
2080.0
 21
-137.99999999999909
 31
0.0
1001
ACDBBLOCKREPETAG
1070
     1
1071
       54
1005
132A09
  0
LINE
  5
132A0A
  8
OBJECT
 10
2062.0
 20
-261.99999999999909
 30
0.0
 11
2080.0
 21
-261.99999999999909
 31
0.0
1001
ACDBBLOCKREPETAG
1070
     1
1071
       55
1005
132A0A
  0
LINE
  5
132A0B
  8
OBJECT
 10
2062.0
 20
-261.99999999999909
 30
0.0
 11
2062.0
 21
-279.99999999999909
 31
0.0
1001
ACDBBLOCKREPETAG
1070
     1
1071
       57
1005
132A0B
  0
LINE
  5
132A0C
  8
OBJECT
 10
1938.0
 20
-261.99999999999909
 30
0.0
 11
1938.0
 21
-279.99999999999909
 31
0.0
1001
ACDBBLOCKREPETAG
1070
     1
1071
       58
1005
132A0C
  0
POINT
  5
132A0D
  8
DOTS
 10
2000.0
 20
-199.99999999999909
 30
0.0
 50
90.0
1001
ACDBBLOCKREPETAG
1070
     1
1071
       59
1005
132A0D
  0
LINE
  5
132A0E
  8
OBJECT
 10
1938.0
 20
-261.99999999999909
 30
0.0
 11
1920.0
 21
-261.99999999999909
 31
0.0
1001
ACDBBLOCKREPETAG
1070
     1
1071
       60
1005
132A0E
  0
LINE
  5
132A0F
  8
OBJECT
 10
1954.3381997726749
 20
-137.99999999999909
 30
0.0
 11
1920.0
 21
-137.99999999999909
 31
0.0
1001
ACDBBLOCKREPETAG
1070
     1
1071
       61
1005
132A0F
  0
LINE
  5
132A10
  8
OBJECT
 10
1945.5527778486351
 20
-254.44722215136329
 30
0.0
 11
1938.0
 21
-261.99999999999909
 31
0.0
1001
ACDBBLOCKREPETAG
1070
     1
1071
       42
1005
132A10
  0
LINE
  5
132A11
  8
OBJECT
 10
2054.4472221513638
 20
-254.44722215136329
 30
0.0
 11
2062.0
 21
-261.99999999999909
 31
0.0
1001
ACDBBLOCKREPETAG
1070
     1
1071
       43
1005
132A11
  0
TEXT
  5
132A12
  8
SLIM
 10
1837.75
 20
282.50000000000011
 30
0.0
 40
35.0
  1
（枝管サイズ毎に寸法が異なります。管底の位置は50～100で同じです）
 41
0.75
  0
TEXT
  5
132A13
  8
SLIM
 10
1850.0
 20
532.5
 30
0.0
 40
75.0
  1
側面図の代表機種
 41
0.75
  0
TEXT
  5
132A14
  8
SLIM
 10
1850.0
 20
369.99999999999989
 30
0.0
 40
100.0
  1
4SRT-Z306-P140
 41
0.75
  0
LINE
  5
132A15
  8
OBJECT
 10
1787.000000000018
 20
-137.99999999999909
 30
0.0
 11
1780.000000000018
 21
-137.99999999999909
 31
0.0
1001
ACDBBLOCKREPETAG
1070
     1
1071
      110
1005
132A15
  0
LINE
  5
132A16
  8
OBJECT
 10
1780.000000000018
 20
-137.99999999999909
 30
0.0
 11
1780.000000000018
 21
-261.99999999999909
 31
0.0
1001
ACDBBLOCKREPETAG
1070
     1
1071
      111
1005
132A16
  0
LINE
  5
132A17
  8
OBJECT
 10
1780.000000000018
 20
-261.99999999999909
 30
0.0
 11
1787.000000000018
 21
-261.99999999999909
 31
0.0
1001
ACDBBLOCKREPETAG
1070
     1
1071
      112
1005
132A17
  0
LINE
  5
132A18
  8
OBJECT
 10
1787.000000000018
 20
-261.99999999999909
 30
0.0
 11
1787.000000000018
 21
-137.99999999999909
 31
0.0
1001
ACDBBLOCKREPETAG
1070
     1
1071
      113
1005
132A18
  0
LINE
  5
132A19
  8
CENTER
 10
1765.000000000018
 20
-199.99999999999909
 30
0.0
 11
1920.0
 21
-199.99999999999909
 31
0.0
1001
ACDBBLOCKREPETAG
1070
     1
1071
      114
1005
132A19
  0
LINE
  5
132A1A
  8
OBJECT
 10
1840.0000250358171
 20
-245.0000000000027
 30
0.0
 11
1914.000000000003
 21
-244.99999999999909
 31
0.0
1001
ACDBBLOCKREPETAG
1070
     1
1071
      115
1005
132A1A
  0
LINE
  5
132A1B
  8
OBJECT
 10
1840.0000250358171
 20
-154.99999999999909
 30
0.0
 11
1914.000000000003
 21
-154.99999999999909
 31
0.0
1001
ACDBBLOCKREPETAG
1070
     1
1071
      116
1005
132A1B
  0
LINE
  5
132A1C
  8
OBJECT
 10
1787.000000000018
 20
-140.99999999999909
 30
0.0
 11
1823.000000000018
 21
-140.99999999999909
 31
0.0
1001
ACDBBLOCKREPETAG
1070
     1
1071
      117
1005
132A1C
  0
LINE
  5
132A1D
  8
OBJECT
 10
1823.000000000018
 20
-140.99999999999909
 30
0.0
 11
1823.000000000018
 21
-258.99999999999909
 31
0.0
1001
ACDBBLOCKREPETAG
1070
     1
1071
      118
1005
132A1D
  0
LINE
  5
132A1E
  8
OBJECT
 10
1823.000000000018
 20
-258.99999999999909
 30
0.0
 11
1787.000000000018
 21
-258.99999999999909
 31
0.0
1001
ACDBBLOCKREPETAG
1070
     1
1071
      119
1005
132A1E
  0
LINE
  5
132A1F
  8
OBJECT
 10
1827.000000000018
 20
-145.49999999999909
 30
0.0
 11
1840.000000000018
 21
-145.49999999999909
 31
0.0
1001
ACDBBLOCKREPETAG
1070
     1
1071
      120
1005
132A1F
  0
LINE
  5
132A20
  8
OBJECT
 10
1840.000000000018
 20
-254.49999999999909
 30
0.0
 11
1827.000000000018
 21
-254.49999999999909
 31
0.0
1001
ACDBBLOCKREPETAG
1070
     1
1071
      121
1005
132A20
  0
LINE
  5
132A21
  8
OBJECT
 10
1827.000000000018
 20
-254.49999999999909
 30
0.0
 11
1827.000000000018
 21
-145.49999999999909
 31
0.0
1001
ACDBBLOCKREPETAG
1070
     1
1071
      122
1005
132A21
  0
LINE
  5
132A22
  8
OBJECT
 10
1823.000000000018
 20
-140.99999999999909
 30
0.0
 11
1827.000000000018
 21
-145.49999999999909
 31
0.0
1001
ACDBBLOCKREPETAG
1070
     1
1071
      123
1005
132A22
  0
LINE
  5
132A23
  8
OBJECT
 10
1823.000000000018
 20
-258.99999999999909
 30
0.0
 11
1827.000000000018
 21
-254.49999999999909
 31
0.0
1001
ACDBBLOCKREPETAG
1070
     1
1071
      124
1005
132A23
  0
LINE
  5
132A24
  8
OBJECT
 10
1917.0000000000041
 20
-137.99999999999909
 30
0.0
 11
1920.0000000000041
 21
-137.99999999999909
 31
0.0
1001
ACDBBLOCKREPETAG
1070
     1
1071
      125
1005
132A24
  0
ARC
  5
132A25
  8
OBJECT
 10
1917.0000000000041
 20
-140.99999999999909
 30
0.0
 40
3.0
 50
90.0
 51
180.0
1001
ACDBBLOCKREPETAG
1070
     1
1071
      126
1005
132A25
  0
LINE
  5
132A26
  8
OBJECT
 10
1920.0000000000041
 20
-261.99999999999909
 30
0.0
 11
1917.0000000000041
 21
-261.99999999999909
 31
0.0
1001
ACDBBLOCKREPETAG
1070
     1
1071
      127
1005
132A26
  0
ARC
  5
132A27
  8
OBJECT
 10
1917.0000000000041
 20
-258.99999999999909
 30
0.0
 40
3.0
 50
180.0
 51
270.0
1001
ACDBBLOCKREPETAG
1070
     1
1071
      128
1005
132A27
  0
LINE
  5
132A28
  8
OBJECT
 10
1914.000000000003
 20
-258.99999999999909
 30
0.0
 11
1914.000000000003
 21
-222.44994432063581
 31
0.0
1001
ACDBBLOCKREPETAG
1070
     1
1071
      129
1005
132A28
  0
LINE
  5
132A29
  8
OBJECT
 10
1914.000000000003
 20
-177.55005567935859
 30
0.0
 11
1914.000000000003
 21
-140.99999999999909
 31
0.0
1001
ACDBBLOCKREPETAG
1070
     1
1071
      130
1005
132A29
  0
LINE
  5
132A2A
  8
HIDDEN
 10
1832.000000000018
 20
-155.49999999999909
 30
0.0
 11
1832.000000000018
 21
-244.49999999999909
 31
0.0
1001
ACDBBLOCKREPETAG
1070
     1
1071
      131
1005
132A2A
  0
LINE
  5
132A2B
  8
OBJECT
 10
1840.0000250358171
 20
-254.4999509238105
 30
0.0
 11
1840.0000250358171
 21
-145.4999509238105
 31
0.0
1001
ACDBBLOCKREPETAG
1070
     1
1071
      133
1005
132A2B
  0
ARC
  5
132A2C
  8
OBJECT
 10
1875.0
 20
-199.99999999999909
 30
0.0
 40
45.000000000000547
 50
270.0
 51
90.0
1001
ACDBBLOCKREPETAG
1070
     1
1071
      134
1005
132A2C
  0
LINE
  5
132A2D
  8
CENTER
 10
2000.0
 20
-300.99999999999898
 30
0.0
 11
2000.0
 21
-279.99999999999909
 31
0.0
1001
ACDBBLOCKREPETAG
1070
     1
1071
        0
1005
132A2D
  0
LINE
  5
132A2E
  8
OBJECT
 10
2062.0
 20
-283.0
 30
0.0
 11
2062.0
 21
-279.99999999999909
 31
0.0
1001
ACDBBLOCKREPETAG
1070
     1
1071
        1
1005
132A2E
  0
ARC
  5
132A2F
  8
OBJECT
 10
2059.0
 20
-283.0
 30
0.0
 40
3.0
 50
270.0
 51
0.0
1001
ACDBBLOCKREPETAG
1070
     1
1071
        2
1005
132A2F
  0
LINE
  5
132A30
  8
OBJECT
 10
1938.0
 20
-279.99999999999909
 30
0.0
 11
1938.0
 21
-282.99999999999818
 31
0.0
1001
ACDBBLOCKREPETAG
1070
     1
1071
        3
1005
132A30
  0
ARC
  5
132A31
  8
OBJECT
 10
1941.0
 20
-282.99999999999818
 30
0.0
 40
3.0
 50
180.0
 51
270.0
1001
ACDBBLOCKREPETAG
1070
     1
1071
        4
1005
132A31
  0
LINE
  5
132A32
  8
OBJECT
 10
1941.0
 20
-285.99999999999818
 30
0.0
 11
2059.0
 21
-286.0
 31
0.0
1001
ACDBBLOCKREPETAG
1070
     1
1071
        5
1005
132A32
  0
LINE
  5
132A33
  8
OBJECT
 10
2133.0
 20
-137.99999999999909
 30
0.0
 11
2140.0
 21
-137.99999999999909
 31
0.0
1001
ACDBBLOCKREPETAG
1070
     1
1071
       47
1005
132A33
  0
LINE
  5
132A34
  8
OBJECT
 10
2140.0
 20
-137.99999999999909
 30
0.0
 11
2140.0
 21
-261.99999999999909
 31
0.0
1001
ACDBBLOCKREPETAG
1070
     1
1071
       48
1005
132A34
  0
LINE
  5
132A35
  8
OBJECT
 10
2140.0
 20
-261.99999999999909
 30
0.0
 11
2133.0
 21
-261.99999999999909
 31
0.0
1001
ACDBBLOCKREPETAG
1070
     1
1071
       49
1005
132A35
  0
LINE
  5
132A36
  8
OBJECT
 10
2133.0
 20
-261.99999999999909
 30
0.0
 11
2133.0
 21
-137.99999999999909
 31
0.0
1001
ACDBBLOCKREPETAG
1070
     1
1071
       50
1005
132A36
  0
LINE
  5
132A37
  8
CENTER
 10
2155.0
 20
-199.99999999999909
 30
0.0
 11
2080.0
 21
-199.99999999999909
 31
0.0
1001
ACDBBLOCKREPETAG
1070
     1
1071
       51
1005
132A37
  0
LINE
  5
132A38
  8
OBJECT
 10
2133.0
 20
-140.99999999999909
 30
0.0
 11
2097.0
 21
-140.99999999999909
 31
0.0
1001
ACDBBLOCKREPETAG
1070
     1
1071
       52
1005
132A38
  0
LINE
  5
132A39
  8
OBJECT
 10
2097.0
 20
-140.99999999999909
 30
0.0
 11
2097.0
 21
-258.99999999999909
 31
0.0
1001
ACDBBLOCKREPETAG
1070
     1
1071
       53
1005
132A39
  0
LINE
  5
132A3A
  8
OBJECT
 10
2097.0
 20
-258.99999999999909
 30
0.0
 11
2133.0
 21
-258.99999999999909
 31
0.0
1001
ACDBBLOCKREPETAG
1070
     1
1071
       54
1005
132A3A
  0
LINE
  5
132A3B
  8
OBJECT
 10
2093.0
 20
-145.49999999999909
 30
0.0
 11
2086.0
 21
-145.49999999999909
 31
0.0
1001
ACDBBLOCKREPETAG
1070
     1
1071
       55
1005
132A3B
  0
LINE
  5
132A3C
  8
OBJECT
 10
2086.0
 20
-254.49999999999909
 30
0.0
 11
2093.0
 21
-254.49999999999909
 31
0.0
1001
ACDBBLOCKREPETAG
1070
     1
1071
       56
1005
132A3C
  0
LINE
  5
132A3D
  8
OBJECT
 10
2093.0
 20
-254.49999999999909
 30
0.0
 11
2093.0
 21
-145.49999999999909
 31
0.0
1001
ACDBBLOCKREPETAG
1070
     1
1071
       57
1005
132A3D
  0
LINE
  5
132A3E
  8
OBJECT
 10
2097.0
 20
-140.99999999999909
 30
0.0
 11
2093.0
 21
-145.49999999999909
 31
0.0
1001
ACDBBLOCKREPETAG
1070
     1
1071
       58
1005
132A3E
  0
LINE
  5
132A3F
  8
OBJECT
 10
2097.0
 20
-258.99999999999909
 30
0.0
 11
2093.0
 21
-254.49999999999909
 31
0.0
1001
ACDBBLOCKREPETAG
1070
     1
1071
       59
1005
132A3F
  0
LINE
  5
132A40
  8
OBJECT
 10
2083.0
 20
-137.99999999999909
 30
0.0
 11
2080.0
 21
-137.99999999999909
 31
0.0
1001
ACDBBLOCKREPETAG
1070
     1
1071
       60
1005
132A40
  0
ARC
  5
132A41
  8
OBJECT
 10
2083.0
 20
-140.99999999999909
 30
0.0
 40
3.0
 50
0.0
 51
90.0
1001
ACDBBLOCKREPETAG
1070
     1
1071
       61
1005
132A41
  0
LINE
  5
132A42
  8
OBJECT
 10
2080.0
 20
-261.99999999999909
 30
0.0
 11
2083.0
 21
-261.99999999999909
 31
0.0
1001
ACDBBLOCKREPETAG
1070
     1
1071
       62
1005
132A42
  0
ARC
  5
132A43
  8
OBJECT
 10
2083.0
 20
-258.99999999999909
 30
0.0
 40
3.0
 50
270.0
 51
0.0
1001
ACDBBLOCKREPETAG
1070
     1
1071
       63
1005
132A43
  0
LINE
  5
132A44
  8
OBJECT
 10
2086.0
 20
-258.99999999999909
 30
0.0
 11
2086.0
 21
-140.99999999999909
 31
0.0
1001
ACDBBLOCKREPETAG
1070
     1
1071
       64
1005
132A44
  0
LINE
  5
132A45
  8
HIDDEN
 10
2088.0
 20
-155.49999999999909
 30
0.0
 11
2088.0
 21
-244.49999999999909
 31
0.0
1001
ACDBBLOCKREPETAG
1070
     1
1071
       65
1005
132A45
  0
LINE
  5
132A46
  8
OBJECT
 10
1787.000000000015
 20
-553.0
 30
0.0
 11
1780.0000000000141
 21
-553.0
 31
0.0
1001
ACDBBLOCKREPETAG
1070
     1
1071
      106
1005
132A46
  0
LINE
  5
132A47
  8
OBJECT
 10
1780.0000000000141
 20
-553.0
 30
0.0
 11
1780.0000000000141
 21
-677.0
 31
0.0
1001
ACDBBLOCKREPETAG
1070
     1
1071
      107
1005
132A47
  0
LINE
  5
132A48
  8
OBJECT
 10
1914.0000000000141
 20
-653.3502637757274
 30
0.0
 11
1914.0000000000141
 21
-755.00000000000102
 31
0.0
1001
ACDBBLOCKREPETAG
1070
     1
1071
      108
1005
132A48
  0
LINE
  5
132A49
  8
OBJECT
 10
1780.0000000000141
 20
-677.0
 30
0.0
 11
1787.000000000015
 21
-677.0
 31
0.0
1001
ACDBBLOCKREPETAG
1070
     1
1071
      109
1005
132A49
  0
LINE
  5
132A4A
  8
OBJECT
 10
1787.000000000015
 20
-677.0
 30
0.0
 11
1787.000000000015
 21
-553.0
 31
0.0
1001
ACDBBLOCKREPETAG
1070
     1
1071
      110
1005
132A4A
  0
LINE
  5
132A4B
  8
CENTER
 10
1855.0000000000141
 20
-615.0000000000008
 30
0.0
 11
1765.0000000000141
 21
-615.0
 31
0.0
1001
ACDBBLOCKREPETAG
1070
     1
1071
      111
1005
132A4B
  0
LINE
  5
132A4C
  8
OBJECT
 10
1920.000000000018
 20
-758.0
 30
0.0
 11
1917.000000000015
 21
-758.0000000000008
 31
0.0
1001
ACDBBLOCKREPETAG
1070
     1
1071
      112
1005
132A4C
  0
ARC
  5
132A4D
  8
OBJECT
 10
1917.000000000015
 20
-755.00000000000102
 30
0.0
 40
3.0
 50
180.0
 51
270.0
1001
ACDBBLOCKREPETAG
1070
     1
1071
      113
1005
132A4D
  0
LINE
  5
132A4E
  8
OBJECT
 10
1787.000000000015
 20
-556.0
 30
0.0
 11
1823.0000000000141
 21
-556.0000000000008
 31
0.0
1001
ACDBBLOCKREPETAG
1070
     1
1071
      114
1005
132A4E
  0
LINE
  5
132A4F
  8
OBJECT
 10
1823.0000000000141
 20
-556.0000000000008
 30
0.0
 11
1823.0000000000141
 21
-653.15756805667843
 31
0.0
1001
ACDBBLOCKREPETAG
1070
     1
1071
      115
1005
132A4F
  0
LINE
  5
132A50
  8
OBJECT
 10
1827.0000000000141
 20
-560.5000000000008
 30
0.0
 11
1827.000000000018
 21
-645.74491827928705
 31
0.0
1001
ACDBBLOCKREPETAG
1070
     1
1071
      116
1005
132A50
  0
LINE
  5
132A51
  8
OBJECT
 10
1827.0000000000141
 20
-560.5000000000008
 30
0.0
 11
1840.0000000000141
 21
-560.5000000000008
 31
0.0
1001
ACDBBLOCKREPETAG
1070
     1
1071
      117
1005
132A51
  0
LINE
  5
132A52
  8
OBJECT
 10
1831.343683174531
 20
-674.0000000000008
 30
0.0
 11
1787.000000000015
 21
-674.0
 31
0.0
1001
ACDBBLOCKREPETAG
1070
     1
1071
      118
1005
132A52
  0
LINE
  5
132A53
  8
OBJECT
 10
1823.0000000000141
 20
-556.0000000000008
 30
0.0
 11
1827.0000000000141
 21
-560.5000000000008
 31
0.0
1001
ACDBBLOCKREPETAG
1070
     1
1071
      119
1005
132A53
  0
LINE
  5
132A54
  8
OBJECT
 10
1840.0000000000141
 20
-560.5000000000008
 30
0.0
 11
1840.0000000000141
 21
-645.74491827928784
 31
0.0
1001
ACDBBLOCKREPETAG
1070
     1
1071
      120
1005
132A54
  0
ARC
  5
132A55
  8
OBJECT
 10
1908.000000000015
 20
-637.27386365609345
 30
0.0
 40
85.0
 50
205.59913872188221
 51
231.40900676279119
1001
ACDBBLOCKREPETAG
1070
     1
1071
      121
1005
132A55
  0
ARC
  5
132A56
  8
OBJECT
 10
1837.2000000000151
 20
-655.00000000000068
 30
0.0
 40
85.0
 50
19.925932125426211
 51
88.112268108168848
1001
ACDBBLOCKREPETAG
1070
     1
1071
      122
1005
132A56
  0
LINE
  5
132A57
  8
OBJECT
 10
1914.0000000000141
 20
-750.81075719270905
 30
0.0
 11
1854.980677456399
 21
-703.71143914629454
 31
0.0
1001
ACDBBLOCKREPETAG
1070
     1
1071
      123
1005
132A57
  0
LINE
  5
132A58
  8
OBJECT
 10
1827.000000000018
 20
-645.74491827928705
 30
0.0
 11
1840.0000000000141
 21
-645.74491827928784
 31
0.0
1001
ACDBBLOCKREPETAG
1070
     1
1071
      124
1005
132A58
  0
LINE
  5
132A59
  8
OBJECT
 10
1823.0000000000141
 20
-653.15756805667843
 30
0.0
 11
1827.000000000018
 21
-645.74491827928705
 31
0.0
1001
ACDBBLOCKREPETAG
1070
     1
1071
      125
1005
132A59
  0
LINE
  5
132A5A
  8
OBJECT
 10
1919.999999999982
 20
-634.0
 30
0.0
 11
1917.111387840378
 21
-626.03156729425325
 31
0.0
1001
ACDBBLOCKREPETAG
1070
     1
1071
      126
1005
132A5A
  0
LINE
  5
132A5B
  8
OBJECT
 10
1919.999999999982
 20
-634.0
 30
0.0
 11
1914.0000000000141
 21
-653.3502637757274
 31
0.0
1001
ACDBBLOCKREPETAG
1070
     1
1071
      127
1005
132A5B
  0
LINE
  5
132A5C
  8
HIDDEN
 10
1832.0000000000141
 20
-570.5000000000008
 30
0.0
 11
1832.0000000000141
 21
-659.50000000000068
 31
0.0
1001
ACDBBLOCKREPETAG
1070
     1
1071
      129
1005
132A5C
  0
CIRCLE
  5
132A5D
  8
OBJECT
 10
2000.0
 20
-696.0
 30
0.0
 40
62.0
1001
ACDBBLOCKREPETAG
1070
     1
1071
        0
1005
132A5D
  0
LINE
  5
132A5E
  8
OBJECT
 10
2133.0
 20
-634.0
 30
0.0
 11
2140.0
 21
-634.0
 31
0.0
1001
ACDBBLOCKREPETAG
1070
     1
1071
       45
1005
132A5E
  0
LINE
  5
132A5F
  8
OBJECT
 10
2140.0
 20
-634.0
 30
0.0
 11
2140.0
 21
-755.0
 31
0.0
1001
ACDBBLOCKREPETAG
1070
     1
1071
       46
1005
132A5F
  0
LINE
  5
132A60
  8
OBJECT
 10
2133.0
 20
-755.0
 30
0.0
 11
2133.0
 21
-634.0
 31
0.0
1001
ACDBBLOCKREPETAG
1070
     1
1071
       47
1005
132A60
  0
LINE
  5
132A61
  8
CENTER
 10
2155.0
 20
-696.0
 30
0.0
 11
2071.0
 21
-696.0
 31
0.0
1001
ACDBBLOCKREPETAG
1070
     1
1071
       48
1005
132A61
  0
LINE
  5
132A62
  8
OBJECT
 10
2133.0
 20
-637.0
 30
0.0
 11
2097.0
 21
-637.0
 31
0.0
1001
ACDBBLOCKREPETAG
1070
     1
1071
       49
1005
132A62
  0
LINE
  5
132A63
  8
OBJECT
 10
2097.0
 20
-637.0
 30
0.0
 11
2097.0
 21
-755.0
 31
0.0
1001
ACDBBLOCKREPETAG
1070
     1
1071
       50
1005
132A63
  0
LINE
  5
132A64
  8
OBJECT
 10
2097.0
 20
-755.0
 30
0.0
 11
2140.0
 21
-755.0
 31
0.0
1001
ACDBBLOCKREPETAG
1070
     1
1071
       51
1005
132A64
  0
LINE
  5
132A65
  8
OBJECT
 10
2093.0
 20
-641.5
 30
0.0
 11
2086.0
 21
-641.5
 31
0.0
1001
ACDBBLOCKREPETAG
1070
     1
1071
       52
1005
132A65
  0
LINE
  5
132A66
  8
OBJECT
 10
2086.0
 20
-750.49999999999989
 30
0.0
 11
2093.0
 21
-750.49999999999989
 31
0.0
1001
ACDBBLOCKREPETAG
1070
     1
1071
       53
1005
132A66
  0
LINE
  5
132A67
  8
OBJECT
 10
2093.0
 20
-750.49999999999989
 30
0.0
 11
2093.0
 21
-641.5
 31
0.0
1001
ACDBBLOCKREPETAG
1070
     1
1071
       54
1005
132A67
  0
LINE
  5
132A68
  8
OBJECT
 10
2097.0
 20
-637.0
 30
0.0
 11
2093.0
 21
-641.5
 31
0.0
1001
ACDBBLOCKREPETAG
1070
     1
1071
       55
1005
132A68
  0
LINE
  5
132A69
  8
OBJECT
 10
2097.0
 20
-755.0
 30
0.0
 11
2093.0
 21
-750.49999999999989
 31
0.0
1001
ACDBBLOCKREPETAG
1070
     1
1071
       56
1005
132A69
  0
LINE
  5
132A6A
  8
OBJECT
 10
2083.0
 20
-634.0
 30
0.0
 11
2080.0
 21
-634.0
 31
0.0
1001
ACDBBLOCKREPETAG
1070
     1
1071
       57
1005
132A6A
  0
ARC
  5
132A6B
  8
OBJECT
 10
2083.0
 20
-637.0
 30
0.0
 40
3.0
 50
0.0
 51
90.0
1001
ACDBBLOCKREPETAG
1070
     1
1071
       58
1005
132A6B
  0
LINE
  5
132A6C
  8
OBJECT
 10
2080.0
 20
-758.0
 30
0.0
 11
2083.0
 21
-758.0
 31
0.0
1001
ACDBBLOCKREPETAG
1070
     1
1071
       59
1005
132A6C
  0
ARC
  5
132A6D
  8
OBJECT
 10
2083.0
 20
-755.0
 30
0.0
 40
3.0
 50
270.0
 51
0.0
1001
ACDBBLOCKREPETAG
1070
     1
1071
       60
1005
132A6D
  0
LINE
  5
132A6E
  8
OBJECT
 10
2086.0
 20
-755.0
 30
0.0
 11
2086.0
 21
-637.0
 31
0.0
1001
ACDBBLOCKREPETAG
1070
     1
1071
       61
1005
132A6E
  0
LINE
  5
132A6F
  8
HIDDEN
 10
2088.0
 20
-651.5
 30
0.0
 11
2088.0
 21
-740.5
 31
0.0
1001
ACDBBLOCKREPETAG
1070
     1
1071
       63
1005
132A6F
  0
TEXT
  5
132A70
  8
SLIM
 10
0.0000035665234464
 20
24.000004585317601
 30
0.0
 40
79.999999999972701
  1
枝管バリエーション
 41
0.75
1001
ACDBBLOCKREPETAG
1070
     1
1071
      119
1005
12AEEE
  0
TEXT
  5
132A71
  8
SLIM
 10
0.0
 20
369.99999999999989
 30
0.0
 40
100.0
  1
4SRT-ZX06-P140-S
 41
0.75
  0
LINE
  5
132A72
  8
OBJECT
 10
4923.0
 20
-3515.9999999999968
 30
0.0
 11
4923.0
 21
-3494.9999999999968
 31
0.0
1001
ACDBBLOCKREPETAG
1070
     1
1071
        0
1005
132A72
  0
LINE
  5
132A73
  8
OBJECT
 10
4923.0
 20
-3494.9999999999968
 30
0.0
 11
5077.0
 21
-3494.9999999999968
 31
0.0
1001
ACDBBLOCKREPETAG
1070
     1
1071
        1
1005
132A73
  0
LINE
  5
132A74
  8
HIDDEN
 10
4943.0
 20
-3564.9999999999968
 30
0.0
 11
5057.0
 21
-3564.9999999999968
 31
0.0
1001
ACDBBLOCKREPETAG
1070
     1
1071
        2
1005
132A74
  0
LINE
  5
132A75
  8
OBJECT
 10
5077.0
 20
-3494.9999999999968
 30
0.0
 11
5077.0
 21
-3515.9999999999968
 31
0.0
1001
ACDBBLOCKREPETAG
1070
     1
1071
        3
1005
132A75
  0
LINE
  5
132A76
  8
OBJECT
 10
5077.0
 20
-3515.9999999999968
 30
0.0
 11
4923.0
 21
-3515.9999999999968
 31
0.0
1001
ACDBBLOCKREPETAG
1070
     1
1071
        4
1005
132A76
  0
LINE
  5
132A77
  8
CENTER
 10
5000.0
 20
-3479.9999999999968
 30
0.0
 11
5000.0
 21
-3714.9999999999968
 31
0.0
1001
ACDBBLOCKREPETAG
1070
     1
1071
        5
1005
132A77
  0
LINE
  5
132A78
  8
OBJECT
 10
4925.0
 20
-3578.9999999999968
 30
0.0
 11
4925.0
 21
-3702.9999999999968
 31
0.0
1001
ACDBBLOCKREPETAG
1070
     1
1071
        6
1005
132A78
  0
LINE
  5
132A79
  8
OBJECT
 10
4928.0
 20
-3515.9999999999968
 30
0.0
 11
4928.0
 21
-3578.9999999999968
 31
0.0
1001
ACDBBLOCKREPETAG
1070
     1
1071
        7
1005
132A79
  0
LINE
  5
132A7A
  8
OBJECT
 10
5072.0
 20
-3578.9999999999968
 30
0.0
 11
5072.0
 21
-3515.9999999999968
 31
0.0
1001
ACDBBLOCKREPETAG
1070
     1
1071
        8
1005
132A7A
  0
LINE
  5
132A7B
  8
OBJECT
 10
5074.9999999997999
 20
-3702.9999999997758
 30
0.0
 11
5080.0
 21
-3702.9999999999968
 31
0.0
1001
ACDBBLOCKREPETAG
1070
     1
1071
        9
1005
132A7B
  0
LINE
  5
132A7C
  8
OBJECT
 10
5080.0
 20
-3578.9999999999968
 30
0.0
 11
4925.0
 21
-3578.9999999999968
 31
0.0
1001
ACDBBLOCKREPETAG
1070
     1
1071
       10
1005
132A7C
  0
ARC
  5
132A7D
  8
OBJECT
 10
5200.6872746716726
 20
-3694.408099410105
 30
0.0
 40
170.6350503965856
 50
137.44134459184301
 51
149.9194958133665
1001
ACDBBLOCKREPETAG
1070
     1
1071
       15
1005
132A7D
  0
ARC
  5
132A7E
  8
OBJECT
 10
5118.8455987040506
 20
-3650.8827266953622
 30
0.0
 40
78.072222021763665
 50
147.4551531037684
 51
164.66365997719291
1001
ACDBBLOCKREPETAG
1070
     1
1071
       16
1005
132A7E
  0
ARC
  5
132A7F
  8
OBJECT
 10
5085.7554349608727
 20
-3640.9999999999968
 30
0.0
 40
43.55353926885617
 50
165.6884523008477
 51
194.3115476991523
1001
ACDBBLOCKREPETAG
1070
     1
1071
       17
1005
132A7F
  0
ARC
  5
132A80
  8
OBJECT
 10
5200.6872746716726
 20
-3587.5919005898891
 30
0.0
 40
170.6350503965856
 50
210.0805041866335
 51
222.55865540815699
1001
ACDBBLOCKREPETAG
1070
     1
1071
       18
1005
132A80
  0
ARC
  5
132A81
  8
OBJECT
 10
5118.8455987040506
 20
-3631.1172733046319
 30
0.0
 40
78.072222021763665
 50
195.33634002280701
 51
212.5448468962316
1001
ACDBBLOCKREPETAG
1070
     1
1071
       19
1005
132A81
  0
POINT
  5
132A82
  8
DOTS
 10
5000.0
 20
-3699.9999999999968
 30
0.0
1001
ACDBBLOCKREPETAG
1070
     1
1071
      186
1005
132A82
  0
LINE
  5
132A83
  8
OBJECT
 10
4323.0
 20
-3515.9999999999968
 30
0.0
 11
4323.0
 21
-3494.9999999999968
 31
0.0
1001
ACDBBLOCKREPETAG
1070
     1
1071
       20
1005
132A83
  0
LINE
  5
132A84
  8
OBJECT
 10
4323.0
 20
-3494.9999999999968
 30
0.0
 11
4477.0
 21
-3494.9999999999968
 31
0.0
1001
ACDBBLOCKREPETAG
1070
     1
1071
       21
1005
132A84
  0
LINE
  5
132A85
  8
HIDDEN
 10
4343.0
 20
-3564.9999999999968
 30
0.0
 11
4457.0
 21
-3564.9999999999968
 31
0.0
1001
ACDBBLOCKREPETAG
1070
     1
1071
       22
1005
132A85
  0
LINE
  5
132A86
  8
OBJECT
 10
4477.0
 20
-3494.9999999999968
 30
0.0
 11
4477.0
 21
-3515.9999999999968
 31
0.0
1001
ACDBBLOCKREPETAG
1070
     1
1071
       23
1005
132A86
  0
LINE
  5
132A87
  8
OBJECT
 10
4477.0
 20
-3515.9999999999968
 30
0.0
 11
4323.0
 21
-3515.9999999999968
 31
0.0
1001
ACDBBLOCKREPETAG
1070
     1
1071
       24
1005
132A87
  0
LINE
  5
132A88
  8
CENTER
 10
4400.0
 20
-3479.9999999999968
 30
0.0
 11
4400.0
 21
-3714.9999999999968
 31
0.0
1001
ACDBBLOCKREPETAG
1070
     1
1071
       25
1005
132A88
  0
LINE
  5
132A89
  8
OBJECT
 10
4325.0
 20
-3578.9999999999968
 30
0.0
 11
4325.0
 21
-3702.9999999999968
 31
0.0
1001
ACDBBLOCKREPETAG
1070
     1
1071
       26
1005
132A89
  0
LINE
  5
132A8A
  8
OBJECT
 10
4328.0
 20
-3515.9999999999968
 30
0.0
 11
4328.0
 21
-3578.9999999999968
 31
0.0
1001
ACDBBLOCKREPETAG
1070
     1
1071
       27
1005
132A8A
  0
LINE
  5
132A8B
  8
OBJECT
 10
4472.0
 20
-3578.9999999999968
 30
0.0
 11
4472.0
 21
-3515.9999999999968
 31
0.0
1001
ACDBBLOCKREPETAG
1070
     1
1071
       28
1005
132A8B
  0
LINE
  5
132A8C
  8
OBJECT
 10
4475.0
 20
-3578.9999999999968
 30
0.0
 11
4325.0
 21
-3578.9999999999968
 31
0.0
1001
ACDBBLOCKREPETAG
1070
     1
1071
       30
1005
132A8C
  0
LINE
  5
132A8D
  8
OBJECT
 10
4475.0
 20
-3578.9999999999968
 30
0.0
 11
4475.0
 21
-3702.9999999999968
 31
0.0
1001
ACDBBLOCKREPETAG
1070
     1
1071
       34
1005
132A8D
  0
POINT
  5
132A8E
  8
DOTS
 10
4400.0
 20
-3699.9999999999968
 30
0.0
1001
ACDBBLOCKREPETAG
1070
     1
1071
      187
1005
132A8E
  0
LINE
  5
132A8F
  8
OBJECT
 10
3923.0
 20
-3515.9999999999968
 30
0.0
 11
3923.0
 21
-3494.9999999999968
 31
0.0
1001
ACDBBLOCKREPETAG
1070
     1
1071
        0
1005
132A8F
  0
LINE
  5
132A90
  8
OBJECT
 10
3923.0
 20
-3494.9999999999968
 30
0.0
 11
4077.0
 21
-3494.9999999999968
 31
0.0
1001
ACDBBLOCKREPETAG
1070
     1
1071
        1
1005
132A90
  0
LINE
  5
132A91
  8
HIDDEN
 10
3943.0
 20
-3564.9999999999968
 30
0.0
 11
4057.0
 21
-3564.9999999999968
 31
0.0
1001
ACDBBLOCKREPETAG
1070
     1
1071
        2
1005
132A91
  0
LINE
  5
132A92
  8
OBJECT
 10
4077.0
 20
-3494.9999999999968
 30
0.0
 11
4077.0
 21
-3515.9999999999968
 31
0.0
1001
ACDBBLOCKREPETAG
1070
     1
1071
        3
1005
132A92
  0
LINE
  5
132A93
  8
OBJECT
 10
4077.0
 20
-3515.9999999999968
 30
0.0
 11
3923.0
 21
-3515.9999999999968
 31
0.0
1001
ACDBBLOCKREPETAG
1070
     1
1071
        4
1005
132A93
  0
LINE
  5
132A94
  8
CENTER
 10
4000.0
 20
-3479.9999999999968
 30
0.0
 11
4000.0
 21
-3714.9999999999968
 31
0.0
1001
ACDBBLOCKREPETAG
1070
     1
1071
        5
1005
132A94
  0
LINE
  5
132A95
  8
OBJECT
 10
3925.0
 20
-3578.9999999999968
 30
0.0
 11
3925.0
 21
-3702.9999999999968
 31
0.0
1001
ACDBBLOCKREPETAG
1070
     1
1071
        6
1005
132A95
  0
LINE
  5
132A96
  8
OBJECT
 10
3928.0
 20
-3515.9999999999968
 30
0.0
 11
3928.0
 21
-3578.9999999999968
 31
0.0
1001
ACDBBLOCKREPETAG
1070
     1
1071
        7
1005
132A96
  0
LINE
  5
132A97
  8
OBJECT
 10
4072.0
 20
-3578.9999999999968
 30
0.0
 11
4072.0
 21
-3515.9999999999968
 31
0.0
1001
ACDBBLOCKREPETAG
1070
     1
1071
        8
1005
132A97
  0
LINE
  5
132A98
  8
OBJECT
 10
4074.999999999799
 20
-3702.9999999997758
 30
0.0
 11
4080.0
 21
-3702.9999999999968
 31
0.0
1001
ACDBBLOCKREPETAG
1070
     1
1071
        9
1005
132A98
  0
LINE
  5
132A99
  8
OBJECT
 10
4080.0
 20
-3578.9999999999968
 30
0.0
 11
3925.0
 21
-3578.9999999999968
 31
0.0
1001
ACDBBLOCKREPETAG
1070
     1
1071
       10
1005
132A99
  0
ARC
  5
132A9A
  8
OBJECT
 10
4200.6872746716726
 20
-3694.408099410105
 30
0.0
 40
170.6350503965856
 50
137.44134459184301
 51
149.9194958133665
1001
ACDBBLOCKREPETAG
1070
     1
1071
       15
1005
132A9A
  0
ARC
  5
132A9B
  8
OBJECT
 10
4118.8455987040506
 20
-3650.8827266953622
 30
0.0
 40
78.072222021763665
 50
147.4551531037684
 51
164.663659977186
1001
ACDBBLOCKREPETAG
1070
     1
1071
       16
1005
132A9B
  0
ARC
  5
132A9C
  8
OBJECT
 10
4085.7554349608722
 20
-3640.9999999999968
 30
0.0
 40
43.55353926885617
 50
165.6884523008477
 51
194.3115476991523
1001
ACDBBLOCKREPETAG
1070
     1
1071
       17
1005
132A9C
  0
ARC
  5
132A9D
  8
OBJECT
 10
4200.6872746716726
 20
-3587.5919005898891
 30
0.0
 40
170.6350503965856
 50
210.0805041866335
 51
222.55865540815699
1001
ACDBBLOCKREPETAG
1070
     1
1071
       18
1005
132A9D
  0
ARC
  5
132A9E
  8
OBJECT
 10
4118.8455987040506
 20
-3631.1172733046319
 30
0.0
 40
78.072222021763665
 50
195.33634002281391
 51
212.5448468962316
1001
ACDBBLOCKREPETAG
1070
     1
1071
       19
1005
132A9E
  0
POINT
  5
132A9F
  8
DOTS
 10
4000.0
 20
-3699.9999999999968
 30
0.0
1001
ACDBBLOCKREPETAG
1070
     1
1071
      186
1005
132A9F
  0
LINE
  5
132AA0
  8
OBJECT
 10
3323.0
 20
-3515.9999999999968
 30
0.0
 11
3323.0
 21
-3494.9999999999968
 31
0.0
1001
ACDBBLOCKREPETAG
1070
     1
1071
       20
1005
132AA0
  0
LINE
  5
132AA1
  8
OBJECT
 10
3323.0
 20
-3494.9999999999968
 30
0.0
 11
3477.0
 21
-3494.9999999999968
 31
0.0
1001
ACDBBLOCKREPETAG
1070
     1
1071
       21
1005
132AA1
  0
LINE
  5
132AA2
  8
HIDDEN
 10
3343.0
 20
-3564.9999999999968
 30
0.0
 11
3457.0
 21
-3564.9999999999968
 31
0.0
1001
ACDBBLOCKREPETAG
1070
     1
1071
       22
1005
132AA2
  0
LINE
  5
132AA3
  8
OBJECT
 10
3477.0
 20
-3494.9999999999968
 30
0.0
 11
3477.0
 21
-3515.9999999999968
 31
0.0
1001
ACDBBLOCKREPETAG
1070
     1
1071
       23
1005
132AA3
  0
LINE
  5
132AA4
  8
OBJECT
 10
3477.0
 20
-3515.9999999999968
 30
0.0
 11
3323.0
 21
-3515.9999999999968
 31
0.0
1001
ACDBBLOCKREPETAG
1070
     1
1071
       24
1005
132AA4
  0
LINE
  5
132AA5
  8
CENTER
 10
3400.0
 20
-3479.9999999999968
 30
0.0
 11
3400.0
 21
-3714.9999999999968
 31
0.0
1001
ACDBBLOCKREPETAG
1070
     1
1071
       25
1005
132AA5
  0
LINE
  5
132AA6
  8
OBJECT
 10
3325.0
 20
-3578.9999999999968
 30
0.0
 11
3325.0
 21
-3702.9999999999968
 31
0.0
1001
ACDBBLOCKREPETAG
1070
     1
1071
       26
1005
132AA6
  0
LINE
  5
132AA7
  8
OBJECT
 10
3328.0
 20
-3515.9999999999968
 30
0.0
 11
3328.0
 21
-3578.9999999999968
 31
0.0
1001
ACDBBLOCKREPETAG
1070
     1
1071
       27
1005
132AA7
  0
LINE
  5
132AA8
  8
OBJECT
 10
3472.0
 20
-3578.9999999999968
 30
0.0
 11
3472.0
 21
-3515.9999999999968
 31
0.0
1001
ACDBBLOCKREPETAG
1070
     1
1071
       28
1005
132AA8
  0
LINE
  5
132AA9
  8
OBJECT
 10
3475.0
 20
-3578.9999999999968
 30
0.0
 11
3325.0
 21
-3578.9999999999968
 31
0.0
1001
ACDBBLOCKREPETAG
1070
     1
1071
       30
1005
132AA9
  0
LINE
  5
132AAA
  8
OBJECT
 10
3475.0
 20
-3578.9999999999968
 30
0.0
 11
3475.0
 21
-3702.9999999999968
 31
0.0
1001
ACDBBLOCKREPETAG
1070
     1
1071
       34
1005
132AAA
  0
POINT
  5
132AAB
  8
DOTS
 10
3400.0
 20
-3699.9999999999968
 30
0.0
1001
ACDBBLOCKREPETAG
1070
     1
1071
      187
1005
132AAB
  0
LINE
  5
132AAC
  8
OBJECT
 10
2923.0
 20
-3515.9999999999968
 30
0.0
 11
2923.0
 21
-3494.9999999999968
 31
0.0
1001
ACDBBLOCKREPETAG
1070
     1
1071
        0
1005
132AAC
  0
LINE
  5
132AAD
  8
OBJECT
 10
2923.0
 20
-3494.9999999999968
 30
0.0
 11
3077.0
 21
-3494.9999999999968
 31
0.0
1001
ACDBBLOCKREPETAG
1070
     1
1071
        1
1005
132AAD
  0
LINE
  5
132AAE
  8
HIDDEN
 10
2943.0
 20
-3564.9999999999968
 30
0.0
 11
3057.0
 21
-3564.9999999999968
 31
0.0
1001
ACDBBLOCKREPETAG
1070
     1
1071
        2
1005
132AAE
  0
LINE
  5
132AAF
  8
OBJECT
 10
3077.0
 20
-3494.9999999999968
 30
0.0
 11
3077.0
 21
-3515.9999999999968
 31
0.0
1001
ACDBBLOCKREPETAG
1070
     1
1071
        3
1005
132AAF
  0
LINE
  5
132AB0
  8
OBJECT
 10
3077.0
 20
-3515.9999999999968
 30
0.0
 11
2923.0
 21
-3515.9999999999968
 31
0.0
1001
ACDBBLOCKREPETAG
1070
     1
1071
        4
1005
132AB0
  0
LINE
  5
132AB1
  8
CENTER
 10
3000.0
 20
-3479.9999999999968
 30
0.0
 11
3000.0
 21
-3714.9999999999968
 31
0.0
1001
ACDBBLOCKREPETAG
1070
     1
1071
        5
1005
132AB1
  0
LINE
  5
132AB2
  8
OBJECT
 10
2925.0
 20
-3578.9999999999968
 30
0.0
 11
2925.0
 21
-3702.9999999999968
 31
0.0
1001
ACDBBLOCKREPETAG
1070
     1
1071
        6
1005
132AB2
  0
LINE
  5
132AB3
  8
OBJECT
 10
2928.0
 20
-3515.9999999999968
 30
0.0
 11
2928.0
 21
-3578.9999999999968
 31
0.0
1001
ACDBBLOCKREPETAG
1070
     1
1071
        7
1005
132AB3
  0
LINE
  5
132AB4
  8
OBJECT
 10
3072.0
 20
-3578.9999999999968
 30
0.0
 11
3072.0
 21
-3515.9999999999968
 31
0.0
1001
ACDBBLOCKREPETAG
1070
     1
1071
        8
1005
132AB4
  0
LINE
  5
132AB5
  8
OBJECT
 10
3074.9999999997999
 20
-3702.9999999997758
 30
0.0
 11
3080.0
 21
-3702.9999999999968
 31
0.0
1001
ACDBBLOCKREPETAG
1070
     1
1071
        9
1005
132AB5
  0
LINE
  5
132AB6
  8
OBJECT
 10
3080.0
 20
-3578.9999999999968
 30
0.0
 11
2925.0
 21
-3578.9999999999968
 31
0.0
1001
ACDBBLOCKREPETAG
1070
     1
1071
       10
1005
132AB6
  0
ARC
  5
132AB7
  8
OBJECT
 10
3200.6872746716722
 20
-3694.408099410105
 30
0.0
 40
170.6350503965856
 50
137.44134459184301
 51
149.9194958133665
1001
ACDBBLOCKREPETAG
1070
     1
1071
       15
1005
132AB7
  0
ARC
  5
132AB8
  8
OBJECT
 10
3118.8455987040511
 20
-3650.8827266953622
 30
0.0
 40
78.072222021763665
 50
147.4551531037684
 51
164.663659977186
1001
ACDBBLOCKREPETAG
1070
     1
1071
       16
1005
132AB8
  0
ARC
  5
132AB9
  8
OBJECT
 10
3085.7554349608731
 20
-3640.9999999999968
 30
0.0
 40
43.55353926885617
 50
165.6884523008477
 51
194.3115476991523
1001
ACDBBLOCKREPETAG
1070
     1
1071
       17
1005
132AB9
  0
ARC
  5
132ABA
  8
OBJECT
 10
3200.6872746716722
 20
-3587.5919005898891
 30
0.0
 40
170.6350503965856
 50
210.0805041866335
 51
222.55865540815699
1001
ACDBBLOCKREPETAG
1070
     1
1071
       18
1005
132ABA
  0
ARC
  5
132ABB
  8
OBJECT
 10
3118.8455987040511
 20
-3631.1172733046319
 30
0.0
 40
78.072222021763665
 50
195.33634002281391
 51
212.5448468962316
1001
ACDBBLOCKREPETAG
1070
     1
1071
       19
1005
132ABB
  0
POINT
  5
132ABC
  8
DOTS
 10
3000.0
 20
-3699.9999999999968
 30
0.0
1001
ACDBBLOCKREPETAG
1070
     1
1071
      186
1005
132ABC
  0
LINE
  5
132ABD
  8
OBJECT
 10
2323.0
 20
-3515.9999999999968
 30
0.0
 11
2323.0
 21
-3494.9999999999968
 31
0.0
1001
ACDBBLOCKREPETAG
1070
     1
1071
       20
1005
132ABD
  0
LINE
  5
132ABE
  8
OBJECT
 10
2323.0
 20
-3494.9999999999968
 30
0.0
 11
2477.0
 21
-3494.9999999999968
 31
0.0
1001
ACDBBLOCKREPETAG
1070
     1
1071
       21
1005
132ABE
  0
LINE
  5
132ABF
  8
HIDDEN
 10
2343.0
 20
-3564.9999999999968
 30
0.0
 11
2457.0
 21
-3564.9999999999968
 31
0.0
1001
ACDBBLOCKREPETAG
1070
     1
1071
       22
1005
132ABF
  0
LINE
  5
132AC0
  8
OBJECT
 10
2477.0
 20
-3494.9999999999968
 30
0.0
 11
2477.0
 21
-3515.9999999999968
 31
0.0
1001
ACDBBLOCKREPETAG
1070
     1
1071
       23
1005
132AC0
  0
LINE
  5
132AC1
  8
OBJECT
 10
2477.0
 20
-3515.9999999999968
 30
0.0
 11
2323.0
 21
-3515.9999999999968
 31
0.0
1001
ACDBBLOCKREPETAG
1070
     1
1071
       24
1005
132AC1
  0
LINE
  5
132AC2
  8
CENTER
 10
2400.0
 20
-3479.9999999999968
 30
0.0
 11
2400.0
 21
-3714.9999999999968
 31
0.0
1001
ACDBBLOCKREPETAG
1070
     1
1071
       25
1005
132AC2
  0
LINE
  5
132AC3
  8
OBJECT
 10
2325.0
 20
-3578.9999999999968
 30
0.0
 11
2325.0
 21
-3702.9999999999968
 31
0.0
1001
ACDBBLOCKREPETAG
1070
     1
1071
       26
1005
132AC3
  0
LINE
  5
132AC4
  8
OBJECT
 10
2328.0
 20
-3515.9999999999968
 30
0.0
 11
2328.0
 21
-3578.9999999999968
 31
0.0
1001
ACDBBLOCKREPETAG
1070
     1
1071
       27
1005
132AC4
  0
LINE
  5
132AC5
  8
OBJECT
 10
2472.0
 20
-3578.9999999999968
 30
0.0
 11
2472.0
 21
-3515.9999999999968
 31
0.0
1001
ACDBBLOCKREPETAG
1070
     1
1071
       28
1005
132AC5
  0
LINE
  5
132AC6
  8
OBJECT
 10
2475.0
 20
-3578.9999999999968
 30
0.0
 11
2325.0
 21
-3578.9999999999968
 31
0.0
1001
ACDBBLOCKREPETAG
1070
     1
1071
       30
1005
132AC6
  0
LINE
  5
132AC7
  8
OBJECT
 10
2475.0
 20
-3578.9999999999968
 30
0.0
 11
2475.0
 21
-3702.9999999999968
 31
0.0
1001
ACDBBLOCKREPETAG
1070
     1
1071
       34
1005
132AC7
  0
POINT
  5
132AC8
  8
DOTS
 10
2400.0
 20
-3699.9999999999968
 30
0.0
1001
ACDBBLOCKREPETAG
1070
     1
1071
      187
1005
132AC8
  0
LINE
  5
132AC9
  8
OBJECT
 10
1923.0
 20
-3515.9999999999968
 30
0.0
 11
1923.0
 21
-3494.9999999999968
 31
0.0
1001
ACDBBLOCKREPETAG
1070
     1
1071
        0
1005
132AC9
  0
LINE
  5
132ACA
  8
OBJECT
 10
1923.0
 20
-3494.9999999999968
 30
0.0
 11
2077.0
 21
-3494.9999999999968
 31
0.0
1001
ACDBBLOCKREPETAG
1070
     1
1071
        1
1005
132ACA
  0
LINE
  5
132ACB
  8
HIDDEN
 10
1943.0
 20
-3564.9999999999968
 30
0.0
 11
2057.0
 21
-3564.9999999999968
 31
0.0
1001
ACDBBLOCKREPETAG
1070
     1
1071
        2
1005
132ACB
  0
LINE
  5
132ACC
  8
OBJECT
 10
2077.0
 20
-3494.9999999999968
 30
0.0
 11
2077.0
 21
-3515.9999999999968
 31
0.0
1001
ACDBBLOCKREPETAG
1070
     1
1071
        3
1005
132ACC
  0
LINE
  5
132ACD
  8
OBJECT
 10
2077.0
 20
-3515.9999999999968
 30
0.0
 11
1923.0
 21
-3515.9999999999968
 31
0.0
1001
ACDBBLOCKREPETAG
1070
     1
1071
        4
1005
132ACD
  0
LINE
  5
132ACE
  8
CENTER
 10
2000.0
 20
-3479.9999999999968
 30
0.0
 11
2000.0
 21
-3714.9999999999968
 31
0.0
1001
ACDBBLOCKREPETAG
1070
     1
1071
        5
1005
132ACE
  0
LINE
  5
132ACF
  8
OBJECT
 10
1925.0
 20
-3578.9999999999968
 30
0.0
 11
1925.0
 21
-3702.9999999999968
 31
0.0
1001
ACDBBLOCKREPETAG
1070
     1
1071
        6
1005
132ACF
  0
LINE
  5
132AD0
  8
OBJECT
 10
1928.0
 20
-3515.9999999999968
 30
0.0
 11
1928.0
 21
-3578.9999999999968
 31
0.0
1001
ACDBBLOCKREPETAG
1070
     1
1071
        7
1005
132AD0
  0
LINE
  5
132AD1
  8
OBJECT
 10
2072.0
 20
-3578.9999999999968
 30
0.0
 11
2072.0
 21
-3515.9999999999968
 31
0.0
1001
ACDBBLOCKREPETAG
1070
     1
1071
        8
1005
132AD1
  0
LINE
  5
132AD2
  8
OBJECT
 10
2074.999999999799
 20
-3702.9999999997758
 30
0.0
 11
2080.0
 21
-3702.9999999999968
 31
0.0
1001
ACDBBLOCKREPETAG
1070
     1
1071
        9
1005
132AD2
  0
LINE
  5
132AD3
  8
OBJECT
 10
2080.0
 20
-3578.9999999999968
 30
0.0
 11
1925.0
 21
-3578.9999999999968
 31
0.0
1001
ACDBBLOCKREPETAG
1070
     1
1071
       10
1005
132AD3
  0
ARC
  5
132AD4
  8
OBJECT
 10
2200.6872746716731
 20
-3694.408099410105
 30
0.0
 40
170.6350503965856
 50
137.44134459184301
 51
149.91949581335999
1001
ACDBBLOCKREPETAG
1070
     1
1071
       15
1005
132AD4
  0
ARC
  5
132AD5
  8
OBJECT
 10
2118.8455987040511
 20
-3650.8827266953622
 30
0.0
 40
78.072222021763665
 50
147.45515310377539
 51
164.663659977186
1001
ACDBBLOCKREPETAG
1070
     1
1071
       16
1005
132AD5
  0
ARC
  5
132AD6
  8
OBJECT
 10
2085.7554349608731
 20
-3640.9999999999968
 30
0.0
 40
43.55353926885617
 50
165.6884523008477
 51
194.3115476991523
1001
ACDBBLOCKREPETAG
1070
     1
1071
       17
1005
132AD6
  0
ARC
  5
132AD7
  8
OBJECT
 10
2200.6872746716731
 20
-3587.5919005898891
 30
0.0
 40
170.6350503965856
 50
210.08050418664001
 51
222.55865540815699
1001
ACDBBLOCKREPETAG
1070
     1
1071
       18
1005
132AD7
  0
ARC
  5
132AD8
  8
OBJECT
 10
2118.8455987040511
 20
-3631.1172733046319
 30
0.0
 40
78.072222021763665
 50
195.33634002281391
 51
212.54484689622461
1001
ACDBBLOCKREPETAG
1070
     1
1071
       19
1005
132AD8
  0
POINT
  5
132AD9
  8
DOTS
 10
2000.0
 20
-3699.9999999999968
 30
0.0
1001
ACDBBLOCKREPETAG
1070
     1
1071
      186
1005
132AD9
  0
LINE
  5
132ADA
  8
DIM
 10
2150.0
 20
-3341.9999999999959
 30
0.0
 11
2228.479620594459
 21
-3341.9999999999959
 31
0.0
  0
LINE
  5
132ADB
  8
DIM
 10
2150.0
 20
-3247.9999999999959
 30
0.0
 11
2228.479620594459
 21
-3247.9999999999959
 31
0.0
  0
LINE
  5
132ADC
  8
DIM
 10
2218.479620594459
 20
-3321.9999999999959
 30
0.0
 11
2218.479620594459
 21
-3267.9999999999959
 31
0.0
  0
INSERT
  5
132ADD
  8
DIM
  2
_OPEN30
 10
2218.479620594459
 20
-3341.9999999999959
 30
0.0
 41
20.0
 42
20.0
 43
20.0
 50
270.0
  0
INSERT
  5
132ADE
  8
DIM
  2
_OPEN30
 10
2218.479620594459
 20
-3247.9999999999959
 30
0.0
 41
20.0
 42
20.0
 43
20.0
 50
90.0
  0
INSERT
  5
132ADF
  8
OBJECT
  2
*U13
 10
0.0
 20
0.0
 30
0.0
  0
LINE
  5
132AE0
  8
DIM
 10
2150.0
 20
-3699.9999999999968
 30
0.0
 11
2226.8409284037339
 21
-3699.9999999999968
 31
0.0
  0
LINE
  5
132AE1
  8
DIM
 10
2165.0
 20
-3655.9999999999968
 30
0.0
 11
2226.8409284037339
 21
-3655.9999999999968
 31
0.0
  0
LINE
  5
132AE2
  8
DIM
 10
2216.840928403733
 20
-3719.9999999999968
 30
0.0
 11
2216.840928403733
 21
-3739.9999999999968
 31
0.0
  0
LINE
  5
132AE3
  8
DIM
 10
2216.840928403733
 20
-3635.9999999999968
 30
0.0
 11
2216.840928403733
 21
-3615.9999999999968
 31
0.0
  0
LINE
  5
132AE4
  8
DIM
 10
2216.840928403733
 20
-3699.9999999999968
 30
0.0
 11
2216.840928403733
 21
-3655.9999999999968
 31
0.0
  0
INSERT
  5
132AE5
  8
DIM
  2
_OPEN30
 10
2216.840928403733
 20
-3699.9999999999968
 30
0.0
 41
20.0
 42
20.0
 43
20.0
 50
90.0
  0
INSERT
  5
132AE6
  8
DIM
  2
_OPEN30
 10
2216.840928403733
 20
-3655.9999999999968
 30
0.0
 41
20.0
 42
20.0
 43
20.0
 50
270.0
  0
INSERT
  5
132AE7
  8
OBJECT
  2
*U14
 10
0.0
 20
0.0
 30
0.0
  0
LINE
  5
132AE8
  8
DIM
 10
2000.0
 20
-3189.9999999999959
 30
0.0
 11
2000.0
 21
-3157.2081219844449
 31
0.0
  0
LINE
  5
132AE9
  8
DIM
 10
2140.0
 20
-3237.9999999999959
 30
0.0
 11
2140.0
 21
-3157.2081219844449
 31
0.0
  0
LINE
  5
132AEA
  8
DIM
 10
2020.0
 20
-3167.208121984444
 30
0.0
 11
2120.0
 21
-3167.208121984444
 31
0.0
  0
INSERT
  5
132AEB
  8
DIM
  2
_OPEN30
 10
2000.0
 20
-3167.208121984444
 30
0.0
 41
20.0
 42
20.0
 43
20.0
 50
180.0
  0
INSERT
  5
132AEC
  8
DIM
  2
_OPEN30
 10
2140.0
 20
-3167.208121984444
 30
0.0
 41
20.0
 42
20.0
 43
20.0
  0
INSERT
  5
132AED
  8
OBJECT
  2
*U15
 10
0.0
 20
0.0
 30
0.0
  0
TEXT
  5
132AEE
  8
SLIM
 10
2631.0
 20
-3072.50001604727
 30
0.0
 40
40.0
  1
C寸法
 41
0.75
  0
TEXT
  5
132AEF
  8
SLIM
 10
2631.0
 20
-3002.50001604727
 30
0.0
 40
40.0
  1
B寸法
 41
0.75
  0
TEXT
  5
132AF0
  8
SLIM
 10
2630.2857142857142
 20
-2932.50001604727
 30
0.0
 40
40.0
  1
A寸法
 41
0.75
  0
TEXT
  5
132AF1
  8
SLIM
 10
3159.2857142857151
 20
-3072.50001604727
 30
0.0
 40
40.0
  1
150
 41
0.75
  0
TEXT
  5
132AF2
  8
SLIM
 10
3029.2857142857151
 20
-3072.50001604727
 30
0.0
 40
40.0
  1
140
 41
0.75
  0
TEXT
  5
132AF3
  8
SLIM
 10
2769.2857142857151
 20
-3072.50001604727
 30
0.0
 40
40.0
  1
140
 41
0.75
  0
TEXT
  5
132AF4
  8
SLIM
 10
2899.2857142857151
 20
-3072.50001604727
 30
0.0
 40
40.0
  1
140
 41
0.75
  0
TEXT
  5
132AF5
  8
SLIM
 10
3170.7142857142858
 20
-3002.50001604727
 30
0.0
 40
40.0
  1
72
 41
0.75
  0
TEXT
  5
132AF6
  8
SLIM
 10
3041.4285714285711
 20
-3002.50001604727
 30
0.0
 40
40.0
  1
59
 41
0.75
  0
TEXT
  5
132AF7
  8
SLIM
 10
2780.0
 20
-3002.50001604727
 30
0.0
 40
40.0
  1
44
 41
0.75
  0
TEXT
  5
132AF8
  8
SLIM
 10
2910.7142857142858
 20
-3002.50001604727
 30
0.0
 40
40.0
  1
52
 41
0.75
  0
TEXT
  5
132AF9
  8
SLIM
 10
2891.0
 20
-2807.50001604727
 30
0.0
 40
40.0
  1
横枝管サイズ
 41
0.75
  0
TEXT
  5
132AFA
  8
SLIM
 10
3136.2857142857151
 20
-2862.50001604727
 30
0.0
 40
30.0
  1
100（4）
 41
0.75
  0
TEXT
  5
132AFB
  8
SLIM
 10
3014.857142857144
 20
-2862.50001604727
 30
0.0
 40
30.0
  1
75（3）
 41
0.75
  0
TEXT
  5
132AFC
  8
SLIM
 10
2884.8571428571431
 20
-2862.50001604727
 30
0.0
 40
30.0
  1
65（2）
 41
0.75
  0
TEXT
  5
132AFD
  8
SLIM
 10
2757.0
 20
-2862.50001604727
 30
0.0
 40
30.0
  1
50（1）
 41
0.75
  0
TEXT
  5
132AFE
  8
SLIM
 10
3159.2857142857151
 20
-2932.50001604727
 30
0.0
 40
40.0
  1
150
 41
0.75
  0
TEXT
  5
132AFF
  8
SLIM
 10
3028.571428571428
 20
-2932.50001604727
 30
0.0
 40
40.0
  1
124
 41
0.75
  0
TEXT
  5
132B00
  8
SLIM
 10
2780.0
 20
-2932.50001604727
 30
0.0
 40
40.0
  1
94
 41
0.75
  0
TEXT
  5
132B01
  8
SLIM
 10
2902.1428571428569
 20
-2932.50001604727
 30
0.0
 40
40.0
  1
110
 41
0.75
  0
TEXT
  5
132B02
  8
SLIM
 10
1849.9999999999991
 20
-2832.5
 30
0.0
 40
75.0
  1
枝管サイズ毎の形状
 41
0.75
  0
LINE
  5
132B03
  8
OBJECT
 10
5150.0
 20
-3552.9999999999968
 30
0.0
 11
5143.0
 21
-3552.9999999999968
 31
0.0
1001
ACDBBLOCKREPETAG
1070
     1
1071
       64
1005
132B03
  0
LINE
  5
132B04
  8
OBJECT
 10
5143.0
 20
-3552.9999999999968
 30
0.0
 11
5143.0
 21
-3699.9999999999968
 31
0.0
1001
ACDBBLOCKREPETAG
1070
     1
1071
       65
1005
132B04
  0
LINE
  5
132B05
  8
OBJECT
 10
5101.5
 20
-3555.9999999999968
 30
0.0
 11
5101.5
 21
-3699.9999999999968
 31
0.0
1001
ACDBBLOCKREPETAG
1070
     1
1071
       66
1005
132B05
  0
LINE
  5
132B06
  8
OBJECT
 10
5090.0
 20
-3562.4999999999968
 30
0.0
 11
5090.0
 21
-3693.4999999999968
 31
0.0
1001
ACDBBLOCKREPETAG
1070
     1
1071
       67
1005
132B06
  0
LINE
  5
132B07
  8
OBJECT
 10
5086.0
 20
-3634.5000000000041
 30
0.0
 11
5086.0
 21
-3699.9999999999968
 31
0.0
1001
ACDBBLOCKREPETAG
1070
     1
1071
       68
1005
132B07
  0
LINE
  5
132B08
  8
OBJECT
 10
5150.0
 20
-3699.9999999999968
 30
0.0
 11
5150.0
 21
-3552.9999999999968
 31
0.0
1001
ACDBBLOCKREPETAG
1070
     1
1071
       69
1005
132B08
  0
LINE
  5
132B09
  8
CENTER
 10
5165.0
 20
-3627.9999999999968
 30
0.0
 11
5070.4144144144157
 21
-3627.9999999999968
 31
0.0
1001
ACDBBLOCKREPETAG
1070
     1
1071
       70
1005
132B09
  0
LINE
  5
132B0A
  8
OBJECT
 10
5083.0000000000045
 20
-3702.9999999999968
 30
0.0
 11
5080.0
 21
-3702.9999999999968
 31
0.0
1001
ACDBBLOCKREPETAG
1070
     1
1071
       71
1005
132B0A
  0
ARC
  5
132B0B
  8
OBJECT
 10
5091.8815171830656
 20
-3701.4555591801432
 30
0.0
 40
6.0
 50
60.52411099686767
 51
170.6927439126847
1001
ACDBBLOCKREPETAG
1070
     1
1071
       72
1005
132B0B
  0
ARC
  5
132B0C
  8
OBJECT
 10
5083.0
 20
-3699.9999999999968
 30
0.0
 40
3.0
 50
270.0
 51
350.69274391268482
1001
ACDBBLOCKREPETAG
1070
     1
1071
       73
1005
132B0C
  0
LINE
  5
132B0D
  8
OBJECT
 10
5081.0
 20
-3578.9999999999968
 30
0.0
 11
5080.0
 21
-3578.9999999999968
 31
0.0
1001
ACDBBLOCKREPETAG
1070
     1
1071
       74
1005
132B0D
  0
LINE
  5
132B0E
  8
OBJECT
 10
5150.0
 20
-3699.9999999999968
 30
0.0
 11
5101.5
 21
-3699.9999999999968
 31
0.0
1001
ACDBBLOCKREPETAG
1070
     1
1071
       75
1005
132B0E
  0
LINE
  5
132B0F
  8
OBJECT
 10
5101.5
 20
-3555.9999999999968
 30
0.0
 11
5090.0
 21
-3562.4999999999968
 31
0.0
1001
ACDBBLOCKREPETAG
1070
     1
1071
       76
1005
132B0F
  0
LINE
  5
132B10
  8
OBJECT
 10
5143.0
 20
-3555.9999999999968
 30
0.0
 11
5101.5
 21
-3555.9999999999968
 31
0.0
1001
ACDBBLOCKREPETAG
1070
     1
1071
       77
1005
132B10
  0
LINE
  5
132B11
  8
OBJECT
 10
5086.0
 20
-3634.5000000000041
 30
0.0
 11
5081.0
 21
-3578.9999999999968
 31
0.0
1001
ACDBBLOCKREPETAG
1070
     1
1071
       78
1005
132B11
  0
LINE
  5
132B12
  8
OBJECT
 10
5090.0
 20
-3562.4999999999968
 30
0.0
 11
5081.0
 21
-3578.9999999999968
 31
0.0
1001
ACDBBLOCKREPETAG
1070
     1
1071
       79
1005
132B12
  0
LINE
  5
132B13
  8
OBJECT
 10
5101.5
 20
-3699.9999999999968
 30
0.0
 11
5094.8338607230708
 21
-3696.232182147819
 31
0.0
1001
ACDBBLOCKREPETAG
1070
     1
1071
       80
1005
132B13
  0
LINE
  5
132B14
  8
HIDDEN
 10
5098.0
 20
-3684.9999999999968
 30
0.0
 11
5098.0
 21
-3570.9999999999968
 31
0.0
1001
ACDBBLOCKREPETAG
1070
     1
1071
       81
1005
132B14
  0
LINE
  5
132B15
  8
OBJECT
 10
5150.0
 20
-3219.9999999999959
 30
0.0
 11
5143.0
 21
-3219.9999999999959
 31
0.0
1001
ACDBBLOCKREPETAG
1070
     1
1071
       67
1005
132B15
  0
LINE
  5
132B16
  8
OBJECT
 10
5143.0
 20
-3219.9999999999959
 30
0.0
 11
5143.0
 21
-3369.9999999999959
 31
0.0
1001
ACDBBLOCKREPETAG
1070
     1
1071
       68
1005
132B16
  0
LINE
  5
132B17
  8
OBJECT
 10
5101.5
 20
-3222.9999999999959
 30
0.0
 11
5101.5
 21
-3366.9999999999959
 31
0.0
1001
ACDBBLOCKREPETAG
1070
     1
1071
       69
1005
132B17
  0
LINE
  5
132B18
  8
OBJECT
 10
5090.0
 20
-3229.4999999999959
 30
0.0
 11
5090.0
 21
-3360.4999999999959
 31
0.0
1001
ACDBBLOCKREPETAG
1070
     1
1071
       70
1005
132B18
  0
LINE
  5
132B19
  8
OBJECT
 10
5143.0
 20
-3369.9999999999959
 30
0.0
 11
5150.0
 21
-3369.9999999999959
 31
0.0
1001
ACDBBLOCKREPETAG
1070
     1
1071
       71
1005
132B19
  0
LINE
  5
132B1A
  8
OBJECT
 10
5150.0
 20
-3369.9999999999959
 30
0.0
 11
5150.0
 21
-3219.9999999999959
 31
0.0
1001
ACDBBLOCKREPETAG
1070
     1
1071
       72
1005
132B1A
  0
LINE
  5
132B1B
  8
HIDDEN
 10
5098.0
 20
-3351.9999999999959
 30
0.0
 11
5098.0
 21
-3237.9999999999959
 31
0.0
1001
ACDBBLOCKREPETAG
1070
     1
1071
       73
1005
132B1B
  0
LINE
  5
132B1C
  8
CENTER
 10
5165.0
 20
-3294.9999999999959
 30
0.0
 11
5080.0
 21
-3294.9999999999959
 31
0.0
1001
ACDBBLOCKREPETAG
1070
     1
1071
       74
1005
132B1C
  0
LINE
  5
132B1D
  8
OBJECT
 10
5086.0
 20
-3356.9999999999959
 30
0.0
 11
5080.0
 21
-3356.9999999999959
 31
0.0
1001
ACDBBLOCKREPETAG
1070
     1
1071
       75
1005
132B1D
  0
LINE
  5
132B1E
  8
OBJECT
 10
5143.0
 20
-3366.9999999999959
 30
0.0
 11
5101.5
 21
-3366.9999999999959
 31
0.0
1001
ACDBBLOCKREPETAG
1070
     1
1071
       76
1005
132B1E
  0
LINE
  5
132B1F
  8
OBJECT
 10
5101.5
 20
-3366.9999999999959
 30
0.0
 11
5090.0
 21
-3360.4999999999959
 31
0.0
1001
ACDBBLOCKREPETAG
1070
     1
1071
       77
1005
132B1F
  0
LINE
  5
132B20
  8
OBJECT
 10
5090.0
 20
-3360.4999999999959
 30
0.0
 11
5086.0
 21
-3356.9999999999959
 31
0.0
1001
ACDBBLOCKREPETAG
1070
     1
1071
       78
1005
132B20
  0
LINE
  5
132B21
  8
OBJECT
 10
5101.5
 20
-3222.9999999999959
 30
0.0
 11
5090.0
 21
-3229.4999999999959
 31
0.0
1001
ACDBBLOCKREPETAG
1070
     1
1071
       79
1005
132B21
  0
LINE
  5
132B22
  8
OBJECT
 10
5090.0
 20
-3229.4999999999959
 30
0.0
 11
5086.0
 21
-3232.9999999999959
 31
0.0
1001
ACDBBLOCKREPETAG
1070
     1
1071
       80
1005
132B22
  0
ARC
  5
132B23
  8
OBJECT
 10
5467.9000000000005
 20
-3294.9999999999959
 30
0.0
 40
386.89999999999998
 50
170.77870136260421
 51
189.22129863739571
1001
ACDBBLOCKREPETAG
1070
     1
1071
       81
1005
132B23
  0
LINE
  5
132B24
  8
OBJECT
 10
5086.0
 20
-3232.9999999999959
 30
0.0
 11
5080.0
 21
-3232.9999999999959
 31
0.0
1001
ACDBBLOCKREPETAG
1070
     1
1071
       82
1005
132B24
  0
LINE
  5
132B25
  8
OBJECT
 10
5143.0
 20
-3222.9999999999959
 30
0.0
 11
5101.5
 21
-3222.9999999999959
 31
0.0
1001
ACDBBLOCKREPETAG
1070
     1
1071
       83
1005
132B25
  0
TEXT
  5
132B26
  8
SLIM
 10
4884.25
 20
-3817.4999999999959
 30
0.0
 40
35.0
  1
通常枝100（4）
 41
0.75
  0
LINE
  5
132B27
  8
CENTER
 10
4477.0
 20
-3640.9999999999968
 30
0.0
 11
4323.0
 21
-3640.9999999999968
 31
0.0
1001
ACDBBLOCKREPETAG
1070
     1
1071
       17
1005
132B27
  0
CIRCLE
  5
132B28
  8
OBJECT
 10
4400.0
 20
-3640.9999999999968
 30
0.0
 40
41.5
1001
ACDBBLOCKREPETAG
1070
     1
1071
       19
1005
132B28
  0
CIRCLE
  5
132B29
  8
OBJECT
 10
4400.0
 20
-3640.9999999999968
 30
0.0
 40
54.0
1001
ACDBBLOCKREPETAG
1070
     1
1071
       20
1005
132B29
  0
ARC
  5
132B2A
  8
OBJECT
 10
4400.0
 20
-3640.9999999999968
 30
0.0
 40
62.0
 50
287.89655112921122
 51
252.1034488707887
1001
ACDBBLOCKREPETAG
1070
     1
1071
       21
1005
132B2A
  0
LINE
  5
132B2B
  8
OBJECT
 10
4380.947441116743
 20
-3699.9999999999968
 30
0.0
 11
4419.052558883257
 21
-3699.9999999999968
 31
0.0
1001
ACDBBLOCKREPETAG
1070
     1
1071
       22
1005
132B2B
  0
LINE
  5
132B2C
  8
OBJECT
 10
4133.0
 20
-3578.9999999999968
 30
0.0
 11
4140.0
 21
-3578.9999999999968
 31
0.0
1001
ACDBBLOCKREPETAG
1070
     1
1071
       45
1005
132B2C
  0
LINE
  5
132B2D
  8
OBJECT
 10
4140.0
 20
-3578.9999999999968
 30
0.0
 11
4140.0
 21
-3699.9999999999968
 31
0.0
1001
ACDBBLOCKREPETAG
1070
     1
1071
       46
1005
132B2D
  0
LINE
  5
132B2E
  8
OBJECT
 10
4133.0
 20
-3699.9999999999968
 30
0.0
 11
4133.0
 21
-3578.9999999999968
 31
0.0
1001
ACDBBLOCKREPETAG
1070
     1
1071
       47
1005
132B2E
  0
LINE
  5
132B2F
  8
CENTER
 10
4155.0
 20
-3640.9999999999968
 30
0.0
 11
4071.0
 21
-3640.9999999999968
 31
0.0
1001
ACDBBLOCKREPETAG
1070
     1
1071
       48
1005
132B2F
  0
LINE
  5
132B30
  8
OBJECT
 10
4133.0
 20
-3581.9999999999968
 30
0.0
 11
4097.0
 21
-3581.9999999999968
 31
0.0
1001
ACDBBLOCKREPETAG
1070
     1
1071
       49
1005
132B30
  0
LINE
  5
132B31
  8
OBJECT
 10
4097.0
 20
-3581.9999999999968
 30
0.0
 11
4097.0
 21
-3699.9999999999968
 31
0.0
1001
ACDBBLOCKREPETAG
1070
     1
1071
       50
1005
132B31
  0
LINE
  5
132B32
  8
OBJECT
 10
4097.0
 20
-3699.9999999999968
 30
0.0
 11
4140.0
 21
-3699.9999999999968
 31
0.0
1001
ACDBBLOCKREPETAG
1070
     1
1071
       51
1005
132B32
  0
LINE
  5
132B33
  8
OBJECT
 10
4093.0
 20
-3586.4999999999968
 30
0.0
 11
4086.0
 21
-3586.4999999999968
 31
0.0
1001
ACDBBLOCKREPETAG
1070
     1
1071
       52
1005
132B33
  0
LINE
  5
132B34
  8
OBJECT
 10
4086.0
 20
-3695.4999999999968
 30
0.0
 11
4093.0
 21
-3695.4999999999968
 31
0.0
1001
ACDBBLOCKREPETAG
1070
     1
1071
       53
1005
132B34
  0
LINE
  5
132B35
  8
OBJECT
 10
4093.0
 20
-3695.4999999999968
 30
0.0
 11
4093.0
 21
-3586.4999999999968
 31
0.0
1001
ACDBBLOCKREPETAG
1070
     1
1071
       54
1005
132B35
  0
LINE
  5
132B36
  8
OBJECT
 10
4097.0
 20
-3581.9999999999968
 30
0.0
 11
4093.0
 21
-3586.4999999999968
 31
0.0
1001
ACDBBLOCKREPETAG
1070
     1
1071
       55
1005
132B36
  0
LINE
  5
132B37
  8
OBJECT
 10
4097.0
 20
-3699.9999999999968
 30
0.0
 11
4093.0
 21
-3695.4999999999968
 31
0.0
1001
ACDBBLOCKREPETAG
1070
     1
1071
       56
1005
132B37
  0
LINE
  5
132B38
  8
OBJECT
 10
4083.0
 20
-3578.9999999999968
 30
0.0
 11
4080.0
 21
-3578.9999999999968
 31
0.0
1001
ACDBBLOCKREPETAG
1070
     1
1071
       57
1005
132B38
  0
ARC
  5
132B39
  8
OBJECT
 10
4083.0
 20
-3581.9999999999968
 30
0.0
 40
3.0
 50
0.0
 51
90.0
1001
ACDBBLOCKREPETAG
1070
     1
1071
       58
1005
132B39
  0
LINE
  5
132B3A
  8
OBJECT
 10
4080.0
 20
-3702.9999999999968
 30
0.0
 11
4083.0
 21
-3702.9999999999968
 31
0.0
1001
ACDBBLOCKREPETAG
1070
     1
1071
       59
1005
132B3A
  0
ARC
  5
132B3B
  8
OBJECT
 10
4083.0
 20
-3699.9999999999968
 30
0.0
 40
3.0
 50
270.0
 51
0.0
1001
ACDBBLOCKREPETAG
1070
     1
1071
       60
1005
132B3B
  0
LINE
  5
132B3C
  8
OBJECT
 10
4086.0
 20
-3699.9999999999968
 30
0.0
 11
4086.0
 21
-3581.9999999999968
 31
0.0
1001
ACDBBLOCKREPETAG
1070
     1
1071
       61
1005
132B3C
  0
LINE
  5
132B3D
  8
HIDDEN
 10
4088.0
 20
-3596.4999999999968
 30
0.0
 11
4088.0
 21
-3685.4999999999968
 31
0.0
1001
ACDBBLOCKREPETAG
1070
     1
1071
       63
1005
132B3D
  0
LINE
  5
132B3E
  8
OBJECT
 10
4133.0
 20
-3232.9999999999959
 30
0.0
 11
4140.0
 21
-3232.9999999999959
 31
0.0
1001
ACDBBLOCKREPETAG
1070
     1
1071
       47
1005
132B3E
  0
LINE
  5
132B3F
  8
OBJECT
 10
4140.0
 20
-3232.9999999999959
 30
0.0
 11
4140.0
 21
-3356.9999999999959
 31
0.0
1001
ACDBBLOCKREPETAG
1070
     1
1071
       48
1005
132B3F
  0
LINE
  5
132B40
  8
OBJECT
 10
4140.0
 20
-3356.9999999999959
 30
0.0
 11
4133.0
 21
-3356.9999999999959
 31
0.0
1001
ACDBBLOCKREPETAG
1070
     1
1071
       49
1005
132B40
  0
LINE
  5
132B41
  8
OBJECT
 10
4133.0
 20
-3356.9999999999959
 30
0.0
 11
4133.0
 21
-3232.9999999999959
 31
0.0
1001
ACDBBLOCKREPETAG
1070
     1
1071
       50
1005
132B41
  0
LINE
  5
132B42
  8
CENTER
 10
4155.0
 20
-3294.9999999999959
 30
0.0
 11
4080.0
 21
-3294.9999999999959
 31
0.0
1001
ACDBBLOCKREPETAG
1070
     1
1071
       51
1005
132B42
  0
LINE
  5
132B43
  8
OBJECT
 10
4133.0
 20
-3235.9999999999959
 30
0.0
 11
4097.0
 21
-3235.9999999999959
 31
0.0
1001
ACDBBLOCKREPETAG
1070
     1
1071
       52
1005
132B43
  0
LINE
  5
132B44
  8
OBJECT
 10
4097.0
 20
-3235.9999999999959
 30
0.0
 11
4097.0
 21
-3353.9999999999959
 31
0.0
1001
ACDBBLOCKREPETAG
1070
     1
1071
       53
1005
132B44
  0
LINE
  5
132B45
  8
OBJECT
 10
4097.0
 20
-3353.9999999999959
 30
0.0
 11
4133.0
 21
-3353.9999999999959
 31
0.0
1001
ACDBBLOCKREPETAG
1070
     1
1071
       54
1005
132B45
  0
LINE
  5
132B46
  8
OBJECT
 10
4093.0
 20
-3240.4999999999959
 30
0.0
 11
4086.0
 21
-3240.4999999999959
 31
0.0
1001
ACDBBLOCKREPETAG
1070
     1
1071
       55
1005
132B46
  0
LINE
  5
132B47
  8
OBJECT
 10
4086.0
 20
-3349.4999999999959
 30
0.0
 11
4093.0
 21
-3349.4999999999959
 31
0.0
1001
ACDBBLOCKREPETAG
1070
     1
1071
       56
1005
132B47
  0
LINE
  5
132B48
  8
OBJECT
 10
4093.0
 20
-3349.4999999999959
 30
0.0
 11
4093.0
 21
-3240.4999999999959
 31
0.0
1001
ACDBBLOCKREPETAG
1070
     1
1071
       57
1005
132B48
  0
LINE
  5
132B49
  8
OBJECT
 10
4097.0
 20
-3235.9999999999959
 30
0.0
 11
4093.0
 21
-3240.4999999999959
 31
0.0
1001
ACDBBLOCKREPETAG
1070
     1
1071
       58
1005
132B49
  0
LINE
  5
132B4A
  8
OBJECT
 10
4097.0
 20
-3353.9999999999959
 30
0.0
 11
4093.0
 21
-3349.4999999999959
 31
0.0
1001
ACDBBLOCKREPETAG
1070
     1
1071
       59
1005
132B4A
  0
LINE
  5
132B4B
  8
OBJECT
 10
4083.0
 20
-3232.9999999999959
 30
0.0
 11
4080.0
 21
-3232.9999999999959
 31
0.0
1001
ACDBBLOCKREPETAG
1070
     1
1071
       60
1005
132B4B
  0
ARC
  5
132B4C
  8
OBJECT
 10
4083.0
 20
-3235.9999999999959
 30
0.0
 40
3.0
 50
0.0
 51
90.0
1001
ACDBBLOCKREPETAG
1070
     1
1071
       61
1005
132B4C
  0
LINE
  5
132B4D
  8
OBJECT
 10
4080.0
 20
-3356.9999999999959
 30
0.0
 11
4083.0
 21
-3356.9999999999959
 31
0.0
1001
ACDBBLOCKREPETAG
1070
     1
1071
       62
1005
132B4D
  0
ARC
  5
132B4E
  8
OBJECT
 10
4083.0
 20
-3353.9999999999959
 30
0.0
 40
3.0
 50
270.0
 51
0.0
1001
ACDBBLOCKREPETAG
1070
     1
1071
       63
1005
132B4E
  0
LINE
  5
132B4F
  8
OBJECT
 10
4086.0
 20
-3353.9999999999959
 30
0.0
 11
4086.0
 21
-3235.9999999999959
 31
0.0
1001
ACDBBLOCKREPETAG
1070
     1
1071
       64
1005
132B4F
  0
LINE
  5
132B50
  8
HIDDEN
 10
4088.0
 20
-3250.4999999999959
 30
0.0
 11
4088.0
 21
-3339.4999999999959
 31
0.0
1001
ACDBBLOCKREPETAG
1070
     1
1071
       65
1005
132B50
  0
TEXT
  5
132B51
  8
SLIM
 10
3894.25
 20
-3817.4999999999959
 30
0.0
 40
35.0
  1
通常枝75（3）
 41
0.75
  0
CIRCLE
  5
132B52
  8
OBJECT
 10
3400.0
 20
-3647.9999999999968
 30
0.0
 40
35.5
1001
ACDBBLOCKREPETAG
1070
     1
1071
       10
1005
132B52
  0
CIRCLE
  5
132B53
  8
OBJECT
 10
3400.0
 20
-3640.9999999999968
 30
0.0
 40
62.0
1001
ACDBBLOCKREPETAG
1070
     1
1071
       11
1005
132B53
  0
LINE
  5
132B54
  8
CENTER
 10
3330.0
 20
-3647.9999999999968
 30
0.0
 11
3470.0
 21
-3647.9999999999968
 31
0.0
1001
ACDBBLOCKREPETAG
1070
     1
1071
       12
1005
132B54
  0
CIRCLE
  5
132B55
  8
OBJECT
 10
3400.0
 20
-3647.9999999999968
 30
0.0
 40
47.0
1001
ACDBBLOCKREPETAG
1070
     1
1071
       14
1005
132B55
  0
ARC
  5
132B56
  8
OBJECT
 10
3400.0
 20
-3647.9999999999968
 30
0.0
 40
55.0
 50
289.01126526011359
 51
250.98873473988641
1001
ACDBBLOCKREPETAG
1070
     1
1071
       15
1005
132B56
  0
LINE
  5
132B57
  8
OBJECT
 10
3382.0835271328328
 20
-3699.9999999999968
 30
0.0
 11
3417.9164728671681
 21
-3699.9999999999968
 31
0.0
1001
ACDBBLOCKREPETAG
1070
     1
1071
       16
1005
132B57
  0
LINE
  5
132B58
  8
OBJECT
 10
3133.0
 20
-3592.9999999999968
 30
0.0
 11
3140.0
 21
-3592.9999999999968
 31
0.0
1001
ACDBBLOCKREPETAG
1070
     1
1071
       26
1005
132B58
  0
LINE
  5
132B59
  8
OBJECT
 10
3140.0
 20
-3592.9999999999968
 30
0.0
 11
3140.0
 21
-3699.9999999999968
 31
0.0
1001
ACDBBLOCKREPETAG
1070
     1
1071
       27
1005
132B59
  0
LINE
  5
132B5A
  8
OBJECT
 10
3133.0
 20
-3699.9999999999968
 30
0.0
 11
3133.0
 21
-3592.9999999999968
 31
0.0
1001
ACDBBLOCKREPETAG
1070
     1
1071
       28
1005
132B5A
  0
LINE
  5
132B5B
  8
CENTER
 10
3155.0
 20
-3647.9999999999968
 30
0.0
 11
3071.0
 21
-3647.9999999999968
 31
0.0
1001
ACDBBLOCKREPETAG
1070
     1
1071
       29
1005
132B5B
  0
LINE
  5
132B5C
  8
OBJECT
 10
3133.0
 20
-3595.9999999999968
 30
0.0
 11
3097.0
 21
-3595.9999999999968
 31
0.0
1001
ACDBBLOCKREPETAG
1070
     1
1071
       30
1005
132B5C
  0
LINE
  5
132B5D
  8
OBJECT
 10
3097.0
 20
-3595.9999999999968
 30
0.0
 11
3097.0
 21
-3699.9999999999968
 31
0.0
1001
ACDBBLOCKREPETAG
1070
     1
1071
       31
1005
132B5D
  0
LINE
  5
132B5E
  8
OBJECT
 10
3097.0
 20
-3699.9999999999968
 30
0.0
 11
3140.0
 21
-3699.9999999999968
 31
0.0
1001
ACDBBLOCKREPETAG
1070
     1
1071
       32
1005
132B5E
  0
LINE
  5
132B5F
  8
OBJECT
 10
3093.0
 20
-3600.4999999999968
 30
0.0
 11
3086.0
 21
-3600.4999999999968
 31
0.0
1001
ACDBBLOCKREPETAG
1070
     1
1071
       33
1005
132B5F
  0
LINE
  5
132B60
  8
OBJECT
 10
3086.0
 20
-3695.4999999999968
 30
0.0
 11
3093.0
 21
-3695.4999999999968
 31
0.0
1001
ACDBBLOCKREPETAG
1070
     1
1071
       34
1005
132B60
  0
LINE
  5
132B61
  8
OBJECT
 10
3093.0
 20
-3695.4999999999968
 30
0.0
 11
3093.0
 21
-3600.4999999999968
 31
0.0
1001
ACDBBLOCKREPETAG
1070
     1
1071
       35
1005
132B61
  0
LINE
  5
132B62
  8
OBJECT
 10
3097.0
 20
-3595.9999999999968
 30
0.0
 11
3093.0
 21
-3600.4999999999968
 31
0.0
1001
ACDBBLOCKREPETAG
1070
     1
1071
       36
1005
132B62
  0
LINE
  5
132B63
  8
OBJECT
 10
3097.0
 20
-3699.9999999999968
 30
0.0
 11
3093.0
 21
-3695.4999999999968
 31
0.0
1001
ACDBBLOCKREPETAG
1070
     1
1071
       37
1005
132B63
  0
LINE
  5
132B64
  8
OBJECT
 10
3083.0
 20
-3578.9999999999968
 30
0.0
 11
3080.0
 21
-3578.9999999999968
 31
0.0
1001
ACDBBLOCKREPETAG
1070
     1
1071
       38
1005
132B64
  0
ARC
  5
132B65
  8
OBJECT
 10
3083.0
 20
-3581.9999999999968
 30
0.0
 40
3.0
 50
0.0
 51
90.0
1001
ACDBBLOCKREPETAG
1070
     1
1071
       39
1005
132B65
  0
LINE
  5
132B66
  8
OBJECT
 10
3080.0
 20
-3702.9999999999968
 30
0.0
 11
3083.0
 21
-3702.9999999999968
 31
0.0
1001
ACDBBLOCKREPETAG
1070
     1
1071
       40
1005
132B66
  0
ARC
  5
132B67
  8
OBJECT
 10
3083.0
 20
-3699.9999999999968
 30
0.0
 40
3.0
 50
270.0
 51
0.0
1001
ACDBBLOCKREPETAG
1070
     1
1071
       41
1005
132B67
  0
LINE
  5
132B68
  8
OBJECT
 10
3086.0
 20
-3699.9999999999968
 30
0.0
 11
3086.0
 21
-3581.9999999999968
 31
0.0
1001
ACDBBLOCKREPETAG
1070
     1
1071
       42
1005
132B68
  0
LINE
  5
132B69
  8
HIDDEN
 10
3088.0
 20
-3609.9999999999968
 30
0.0
 11
3088.0
 21
-3685.9999999999968
 31
0.0
1001
ACDBBLOCKREPETAG
1070
     1
1071
       43
1005
132B69
  0
LINE
  5
132B6A
  8
OBJECT
 10
3133.0
 20
-3239.9999999999968
 30
0.0
 11
3140.0
 21
-3239.9999999999968
 31
0.0
1001
ACDBBLOCKREPETAG
1070
     1
1071
       27
1005
132B6A
  0
LINE
  5
132B6B
  8
OBJECT
 10
3140.0
 20
-3239.9999999999968
 30
0.0
 11
3140.0
 21
-3349.9999999999959
 31
0.0
1001
ACDBBLOCKREPETAG
1070
     1
1071
       28
1005
132B6B
  0
LINE
  5
132B6C
  8
OBJECT
 10
3140.0
 20
-3349.9999999999959
 30
0.0
 11
3133.0
 21
-3349.9999999999959
 31
0.0
1001
ACDBBLOCKREPETAG
1070
     1
1071
       29
1005
132B6C
  0
LINE
  5
132B6D
  8
OBJECT
 10
3133.0
 20
-3349.9999999999959
 30
0.0
 11
3133.0
 21
-3239.9999999999968
 31
0.0
1001
ACDBBLOCKREPETAG
1070
     1
1071
       30
1005
132B6D
  0
LINE
  5
132B6E
  8
CENTER
 10
3155.0
 20
-3294.9999999999959
 30
0.0
 11
3080.0
 21
-3294.9999999999959
 31
0.0
1001
ACDBBLOCKREPETAG
1070
     1
1071
       31
1005
132B6E
  0
LINE
  5
132B6F
  8
OBJECT
 10
3133.0
 20
-3242.9999999999959
 30
0.0
 11
3097.0
 21
-3242.9999999999959
 31
0.0
1001
ACDBBLOCKREPETAG
1070
     1
1071
       32
1005
132B6F
  0
LINE
  5
132B70
  8
OBJECT
 10
3097.0
 20
-3242.9999999999959
 30
0.0
 11
3097.0
 21
-3346.9999999999959
 31
0.0
1001
ACDBBLOCKREPETAG
1070
     1
1071
       33
1005
132B70
  0
LINE
  5
132B71
  8
OBJECT
 10
3097.0
 20
-3346.9999999999959
 30
0.0
 11
3133.0
 21
-3346.9999999999959
 31
0.0
1001
ACDBBLOCKREPETAG
1070
     1
1071
       34
1005
132B71
  0
LINE
  5
132B72
  8
OBJECT
 10
3093.0
 20
-3247.4999999999959
 30
0.0
 11
3086.0
 21
-3247.4999999999959
 31
0.0
1001
ACDBBLOCKREPETAG
1070
     1
1071
       35
1005
132B72
  0
LINE
  5
132B73
  8
OBJECT
 10
3086.0
 20
-3342.4999999999959
 30
0.0
 11
3093.0
 21
-3342.4999999999959
 31
0.0
1001
ACDBBLOCKREPETAG
1070
     1
1071
       36
1005
132B73
  0
LINE
  5
132B74
  8
OBJECT
 10
3093.0
 20
-3342.4999999999959
 30
0.0
 11
3093.0
 21
-3247.4999999999959
 31
0.0
1001
ACDBBLOCKREPETAG
1070
     1
1071
       37
1005
132B74
  0
LINE
  5
132B75
  8
OBJECT
 10
3097.0
 20
-3242.9999999999959
 30
0.0
 11
3093.0
 21
-3247.4999999999959
 31
0.0
1001
ACDBBLOCKREPETAG
1070
     1
1071
       38
1005
132B75
  0
LINE
  5
132B76
  8
OBJECT
 10
3097.0
 20
-3346.9999999999959
 30
0.0
 11
3093.0
 21
-3342.4999999999959
 31
0.0
1001
ACDBBLOCKREPETAG
1070
     1
1071
       39
1005
132B76
  0
LINE
  5
132B77
  8
OBJECT
 10
3083.0
 20
-3232.9999999999959
 30
0.0
 11
3080.0
 21
-3232.9999999999959
 31
0.0
1001
ACDBBLOCKREPETAG
1070
     1
1071
       40
1005
132B77
  0
ARC
  5
132B78
  8
OBJECT
 10
3083.0
 20
-3235.9999999999959
 30
0.0
 40
3.0
 50
0.0
 51
90.0
1001
ACDBBLOCKREPETAG
1070
     1
1071
       41
1005
132B78
  0
LINE
  5
132B79
  8
OBJECT
 10
3080.0
 20
-3356.9999999999959
 30
0.0
 11
3083.0
 21
-3356.9999999999959
 31
0.0
1001
ACDBBLOCKREPETAG
1070
     1
1071
       42
1005
132B79
  0
ARC
  5
132B7A
  8
OBJECT
 10
3083.0
 20
-3353.9999999999959
 30
0.0
 40
3.0
 50
270.0
 51
0.0
1001
ACDBBLOCKREPETAG
1070
     1
1071
       43
1005
132B7A
  0
LINE
  5
132B7B
  8
OBJECT
 10
3086.0
 20
-3353.9999999999959
 30
0.0
 11
3086.0
 21
-3235.9999999999959
 31
0.0
1001
ACDBBLOCKREPETAG
1070
     1
1071
       44
1005
132B7B
  0
LINE
  5
132B7C
  8
HIDDEN
 10
3088.0
 20
-3256.9999999999959
 30
0.0
 11
3088.0
 21
-3332.9999999999968
 31
0.0
1001
ACDBBLOCKREPETAG
1070
     1
1071
       45
1005
132B7C
  0
TEXT
  5
132B7D
  8
SLIM
 10
2894.25
 20
-3817.4999999999959
 30
0.0
 40
35.0
  1
通常枝65（2）
 41
0.75
  0
CIRCLE
  5
132B7E
  8
OBJECT
 10
2400.0
 20
-3640.9999999999968
 30
0.0
 40
62.0
1001
ACDBBLOCKREPETAG
1070
     1
1071
        3
1005
132B7E
  0
LINE
  5
132B7F
  8
CENTER
 10
2338.0
 20
-3655.9999999999968
 30
0.0
 11
2462.0
 21
-3655.9999999999968
 31
0.0
1001
ACDBBLOCKREPETAG
1070
     1
1071
        4
1005
132B7F
  0
CIRCLE
  5
132B80
  8
OBJECT
 10
2400.0
 20
-3655.9999999999968
 30
0.0
 40
28.0
1001
ACDBBLOCKREPETAG
1070
     1
1071
        6
1005
132B80
  0
CIRCLE
  5
132B81
  8
OBJECT
 10
2400.0
 20
-3655.9999999999968
 30
0.0
 40
39.0
1001
ACDBBLOCKREPETAG
1070
     1
1071
        7
1005
132B81
  0
ARC
  5
132B82
  8
OBJECT
 10
2400.0
 20
-3655.9999999999968
 30
0.0
 40
47.0
 50
290.58196921144412
 51
249.41803078855591
1001
ACDBBLOCKREPETAG
1070
     1
1071
        8
1005
132B82
  0
LINE
  5
132B83
  8
OBJECT
 10
2383.4772883581431
 20
-3699.9999999999968
 30
0.0
 11
2416.5227116418569
 21
-3699.9999999999968
 31
0.0
1001
ACDBBLOCKREPETAG
1070
     1
1071
        9
1005
132B83
  0
LINE
  5
132B84
  8
OBJECT
 10
2133.0
 20
-3608.9999999999968
 30
0.0
 11
2140.0
 21
-3608.9999999999968
 31
0.0
1001
ACDBBLOCKREPETAG
1070
     1
1071
        7
1005
132B84
  0
LINE
  5
132B85
  8
OBJECT
 10
2140.0
 20
-3608.9999999999968
 30
0.0
 11
2140.0
 21
-3699.9999999999968
 31
0.0
1001
ACDBBLOCKREPETAG
1070
     1
1071
        8
1005
132B85
  0
LINE
  5
132B86
  8
OBJECT
 10
2133.0
 20
-3699.9999999999968
 30
0.0
 11
2133.0
 21
-3608.9999999999968
 31
0.0
1001
ACDBBLOCKREPETAG
1070
     1
1071
        9
1005
132B86
  0
LINE
  5
132B87
  8
CENTER
 10
2155.0
 20
-3655.9999999999968
 30
0.0
 11
2071.0
 21
-3655.9999999999968
 31
0.0
1001
ACDBBLOCKREPETAG
1070
     1
1071
       10
1005
132B87
  0
LINE
  5
132B88
  8
OBJECT
 10
2133.0
 20
-3611.9999999999968
 30
0.0
 11
2097.0
 21
-3611.9999999999968
 31
0.0
1001
ACDBBLOCKREPETAG
1070
     1
1071
       11
1005
132B88
  0
LINE
  5
132B89
  8
OBJECT
 10
2097.0
 20
-3611.9999999999968
 30
0.0
 11
2097.0
 21
-3699.9999999999968
 31
0.0
1001
ACDBBLOCKREPETAG
1070
     1
1071
       12
1005
132B89
  0
LINE
  5
132B8A
  8
OBJECT
 10
2097.0
 20
-3699.9999999999968
 30
0.0
 11
2140.0
 21
-3699.9999999999968
 31
0.0
1001
ACDBBLOCKREPETAG
1070
     1
1071
       13
1005
132B8A
  0
LINE
  5
132B8B
  8
OBJECT
 10
2093.0
 20
-3616.4999999999968
 30
0.0
 11
2086.0
 21
-3616.4999999999968
 31
0.0
1001
ACDBBLOCKREPETAG
1070
     1
1071
       14
1005
132B8B
  0
LINE
  5
132B8C
  8
OBJECT
 10
2086.0
 20
-3695.4999999999968
 30
0.0
 11
2093.0
 21
-3695.4999999999968
 31
0.0
1001
ACDBBLOCKREPETAG
1070
     1
1071
       15
1005
132B8C
  0
LINE
  5
132B8D
  8
OBJECT
 10
2093.0
 20
-3695.4999999999968
 30
0.0
 11
2093.0
 21
-3616.4999999999968
 31
0.0
1001
ACDBBLOCKREPETAG
1070
     1
1071
       16
1005
132B8D
  0
LINE
  5
132B8E
  8
OBJECT
 10
2097.0
 20
-3611.9999999999968
 30
0.0
 11
2093.0
 21
-3616.4999999999968
 31
0.0
1001
ACDBBLOCKREPETAG
1070
     1
1071
       17
1005
132B8E
  0
LINE
  5
132B8F
  8
OBJECT
 10
2097.0
 20
-3699.9999999999968
 30
0.0
 11
2093.0
 21
-3695.4999999999968
 31
0.0
1001
ACDBBLOCKREPETAG
1070
     1
1071
       18
1005
132B8F
  0
LINE
  5
132B90
  8
OBJECT
 10
2083.0
 20
-3578.9999999999968
 30
0.0
 11
2080.0
 21
-3578.9999999999968
 31
0.0
1001
ACDBBLOCKREPETAG
1070
     1
1071
       19
1005
132B90
  0
ARC
  5
132B91
  8
OBJECT
 10
2083.0
 20
-3581.9999999999968
 30
0.0
 40
3.0
 50
0.0
 51
90.0
1001
ACDBBLOCKREPETAG
1070
     1
1071
       20
1005
132B91
  0
LINE
  5
132B92
  8
OBJECT
 10
2080.0
 20
-3702.9999999999968
 30
0.0
 11
2083.0
 21
-3702.9999999999968
 31
0.0
1001
ACDBBLOCKREPETAG
1070
     1
1071
       21
1005
132B92
  0
ARC
  5
132B93
  8
OBJECT
 10
2083.0
 20
-3699.9999999999968
 30
0.0
 40
3.0
 50
270.0
 51
0.0
1001
ACDBBLOCKREPETAG
1070
     1
1071
       22
1005
132B93
  0
LINE
  5
132B94
  8
OBJECT
 10
2086.0
 20
-3699.9999999999968
 30
0.0
 11
2086.0
 21
-3581.9999999999968
 31
0.0
1001
ACDBBLOCKREPETAG
1070
     1
1071
       23
1005
132B94
  0
LINE
  5
132B95
  8
HIDDEN
 10
2088.0
 20
-3625.9999999999968
 30
0.0
 11
2088.0
 21
-3685.9999999999968
 31
0.0
1001
ACDBBLOCKREPETAG
1070
     1
1071
       24
1005
132B95
  0
LINE
  5
132B96
  8
OBJECT
 10
2133.0
 20
-3247.9999999999959
 30
0.0
 11
2140.0
 21
-3247.9999999999959
 31
0.0
1001
ACDBBLOCKREPETAG
1070
     1
1071
        7
1005
132B96
  0
LINE
  5
132B97
  8
OBJECT
 10
2140.0
 20
-3247.9999999999959
 30
0.0
 11
2140.0
 21
-3341.9999999999959
 31
0.0
1001
ACDBBLOCKREPETAG
1070
     1
1071
        8
1005
132B97
  0
LINE
  5
132B98
  8
OBJECT
 10
2140.0
 20
-3341.9999999999959
 30
0.0
 11
2133.0
 21
-3341.9999999999959
 31
0.0
1001
ACDBBLOCKREPETAG
1070
     1
1071
        9
1005
132B98
  0
LINE
  5
132B99
  8
OBJECT
 10
2133.0
 20
-3341.9999999999959
 30
0.0
 11
2133.0
 21
-3247.9999999999959
 31
0.0
1001
ACDBBLOCKREPETAG
1070
     1
1071
       10
1005
132B99
  0
LINE
  5
132B9A
  8
CENTER
 10
2155.0
 20
-3294.9999999999959
 30
0.0
 11
2080.0
 21
-3294.9999999999959
 31
0.0
1001
ACDBBLOCKREPETAG
1070
     1
1071
       11
1005
132B9A
  0
LINE
  5
132B9B
  8
OBJECT
 10
2133.0
 20
-3250.9999999999959
 30
0.0
 11
2097.0
 21
-3250.9999999999959
 31
0.0
1001
ACDBBLOCKREPETAG
1070
     1
1071
       12
1005
132B9B
  0
LINE
  5
132B9C
  8
OBJECT
 10
2097.0
 20
-3250.9999999999959
 30
0.0
 11
2097.0
 21
-3338.9999999999959
 31
0.0
1001
ACDBBLOCKREPETAG
1070
     1
1071
       13
1005
132B9C
  0
LINE
  5
132B9D
  8
OBJECT
 10
2097.0
 20
-3338.9999999999959
 30
0.0
 11
2133.0
 21
-3338.9999999999959
 31
0.0
1001
ACDBBLOCKREPETAG
1070
     1
1071
       14
1005
132B9D
  0
LINE
  5
132B9E
  8
OBJECT
 10
2093.0
 20
-3255.4999999999959
 30
0.0
 11
2086.0
 21
-3255.4999999999959
 31
0.0
1001
ACDBBLOCKREPETAG
1070
     1
1071
       15
1005
132B9E
  0
LINE
  5
132B9F
  8
OBJECT
 10
2086.0
 20
-3334.4999999999959
 30
0.0
 11
2093.0
 21
-3334.4999999999959
 31
0.0
1001
ACDBBLOCKREPETAG
1070
     1
1071
       16
1005
132B9F
  0
LINE
  5
132BA0
  8
OBJECT
 10
2093.0
 20
-3334.4999999999959
 30
0.0
 11
2093.0
 21
-3255.4999999999959
 31
0.0
1001
ACDBBLOCKREPETAG
1070
     1
1071
       17
1005
132BA0
  0
LINE
  5
132BA1
  8
OBJECT
 10
2097.0
 20
-3250.9999999999959
 30
0.0
 11
2093.0
 21
-3255.4999999999959
 31
0.0
1001
ACDBBLOCKREPETAG
1070
     1
1071
       18
1005
132BA1
  0
LINE
  5
132BA2
  8
OBJECT
 10
2097.0
 20
-3338.9999999999959
 30
0.0
 11
2093.0
 21
-3334.4999999999959
 31
0.0
1001
ACDBBLOCKREPETAG
1070
     1
1071
       19
1005
132BA2
  0
LINE
  5
132BA3
  8
OBJECT
 10
2083.0
 20
-3232.9999999999959
 30
0.0
 11
2080.0
 21
-3232.9999999999959
 31
0.0
1001
ACDBBLOCKREPETAG
1070
     1
1071
       20
1005
132BA3
  0
ARC
  5
132BA4
  8
OBJECT
 10
2083.0
 20
-3235.9999999999959
 30
0.0
 40
3.0
 50
0.0
 51
90.0
1001
ACDBBLOCKREPETAG
1070
     1
1071
       21
1005
132BA4
  0
LINE
  5
132BA5
  8
OBJECT
 10
2080.0
 20
-3356.9999999999959
 30
0.0
 11
2083.0
 21
-3356.9999999999959
 31
0.0
1001
ACDBBLOCKREPETAG
1070
     1
1071
       22
1005
132BA5
  0
ARC
  5
132BA6
  8
OBJECT
 10
2083.0
 20
-3353.9999999999959
 30
0.0
 40
3.0
 50
270.0
 51
0.0
1001
ACDBBLOCKREPETAG
1070
     1
1071
       23
1005
132BA6
  0
LINE
  5
132BA7
  8
OBJECT
 10
2086.0
 20
-3353.9999999999959
 30
0.0
 11
2086.0
 21
-3235.9999999999959
 31
0.0
1001
ACDBBLOCKREPETAG
1070
     1
1071
       24
1005
132BA7
  0
LINE
  5
132BA8
  8
HIDDEN
 10
2088.0
 20
-3264.9999999999968
 30
0.0
 11
2088.0
 21
-3324.9999999999959
 31
0.0
1001
ACDBBLOCKREPETAG
1070
     1
1071
       25
1005
132BA8
  0
TEXT
  5
132BA9
  8
SLIM
 10
1896.75
 20
-3817.4999999999959
 30
0.0
 40
35.0
  1
通常枝50（1）
 41
0.75
  0
LINE
  5
132BAA
  8
SLIM
 10
3914.9999999999941
 20
-759.47385309434696
 30
0.0
 11
3919.47385309434
 21
-754.99999999999955
 31
0.0
1001
ACDBBLOCKREPETAG
1070
     1
1071
        0
1005
0
1001
ACAD
1010
0.0
1020
0.0
1030
0.0
  0
LINE
  5
132BAB
  8
SLIM
 10
3914.9999999999941
 20
-777.43436533648503
 30
0.0
 11
3937.434365336479
 21
-754.99999999999955
 31
0.0
1001
ACAD
1010
0.0
1020
0.0
1030
0.0
1001
ACDBBLOCKREPETAG
1070
     1
1071
       14
1005
132BAB
  0
LINE
  5
132BAC
  8
SLIM
 10
3914.9999999999941
 20
-795.39487757862275
 30
0.0
 11
3955.394877578618
 21
-754.99999999999955
 31
0.0
1001
ACAD
1010
0.0
1020
0.0
1030
0.0
1001
ACDBBLOCKREPETAG
1070
     1
1071
       15
1005
132BAC
  0
LINE
  5
132BAD
  8
SLIM
 10
3914.9999999999941
 20
-813.35538982076082
 30
0.0
 11
3973.3553898207551
 21
-754.99999999999955
 31
0.0
1001
ACAD
1010
0.0
1020
0.0
1030
0.0
1001
ACDBBLOCKREPETAG
1070
     1
1071
       16
1005
132BAD
  0
LINE
  5
132BAE
  8
SLIM
 10
3914.999999999995
 20
-831.31590206289854
 30
0.0
 11
3991.3159020628941
 21
-754.99999999999955
 31
0.0
1001
ACAD
1010
0.0
1020
0.0
1030
0.0
1001
ACDBBLOCKREPETAG
1070
     1
1071
       17
1005
132BAE
  0
LINE
  5
132BAF
  8
SLIM
 10
3914.999999999995
 20
-849.2764143050365
 30
0.0
 11
4009.2764143050308
 21
-754.99999999999955
 31
0.0
1001
ACAD
1010
0.0
1020
0.0
1030
0.0
1001
ACDBBLOCKREPETAG
1070
     1
1071
       18
1005
132BAF
  0
LINE
  5
132BB0
  8
SLIM
 10
3914.999999999995
 20
-867.23692654717422
 30
0.0
 11
4027.2369265471689
 21
-754.99999999999955
 31
0.0
1001
ACAD
1010
0.0
1020
0.0
1030
0.0
1001
ACDBBLOCKREPETAG
1070
     1
1071
       19
1005
132BB0
  0
LINE
  5
132BB1
  8
SLIM
 10
3914.999999999995
 20
-885.1974387893124
 30
0.0
 11
4045.1974387893069
 21
-754.99999999999955
 31
0.0
1001
ACAD
1010
0.0
1020
0.0
1030
0.0
1001
ACDBBLOCKREPETAG
1070
     1
1071
       20
1005
132BB1
  0
LINE
  5
132BB2
  8
SLIM
 10
3914.9999999999968
 20
-903.15795103145035
 30
0.0
 11
4063.157951031445
 21
-754.99999999999955
 31
0.0
1001
ACAD
1010
0.0
1020
0.0
1030
0.0
1001
ACDBBLOCKREPETAG
1070
     1
1071
       21
1005
132BB2
  0
LINE
  5
132BB3
  8
SLIM
 10
3915.1454972543161
 20
-920.97296601926894
 30
0.0
 11
4081.1184632735849
 21
-754.99999999999955
 31
0.0
1001
ACAD
1010
0.0
1020
0.0
1030
0.0
1001
ACDBBLOCKREPETAG
1070
     1
1071
       22
1005
132BB3
  0
LINE
  5
132BB4
  8
SLIM
 10
3917.104627495245
 20
-936.97434802047894
 30
0.0
 11
4085.0000000000068
 21
-769.07897551571591
 31
0.0
1001
ACAD
1010
0.0
1020
0.0
1030
0.0
1001
ACDBBLOCKREPETAG
1070
     1
1071
       23
1005
132BB4
  0
LINE
  5
132BB5
  8
SLIM
 10
3919.0637577361722
 20
-952.97573002168929
 30
0.0
 11
4085.0000000000068
 21
-787.03948775785443
 31
0.0
1001
ACAD
1010
0.0
1020
0.0
1030
0.0
1001
ACDBBLOCKREPETAG
1070
     1
1071
       24
1005
132BB5
  0
LINE
  5
132BB6
  8
SLIM
 10
3920.0
 20
-969.99999999999966
 30
0.0
 11
4085.0000000000068
 21
-804.99999999999341
 31
0.0
1001
ACAD
1010
0.0
1020
0.0
1030
0.0
1001
ACDBBLOCKREPETAG
1070
     1
1071
       25
1005
132BB6
  0
LINE
  5
132BB7
  8
SLIM
 10
3920.0
 20
-987.96051224213795
 30
0.0
 11
4085.0000000000059
 21
-822.96051224213215
 31
0.0
1001
ACAD
1010
0.0
1020
0.0
1030
0.0
1001
ACDBBLOCKREPETAG
1070
     1
1071
       26
1005
132BB7
  0
LINE
  5
132BB8
  8
SLIM
 10
3920.0
 20
-1005.921024484276
 30
0.0
 11
4085.0000000000059
 21
-840.92102448427045
 31
0.0
1001
ACAD
1010
0.0
1020
0.0
1030
0.0
1001
ACDBBLOCKREPETAG
1070
     1
1071
       27
1005
132BB8
  0
LINE
  5
132BB9
  8
SLIM
 10
3920.0
 20
-1023.881536726414
 30
0.0
 11
4085.000000000005
 21
-858.88153672640954
 31
0.0
1001
ACAD
1010
0.0
1020
0.0
1030
0.0
1001
ACDBBLOCKREPETAG
1070
     1
1071
       28
1005
132BB9
  0
LINE
  5
132BBA
  8
SLIM
 10
3920.0
 20
-1041.842048968552
 30
0.0
 11
4085.0000000000041
 21
-876.84204896854817
 31
0.0
1001
ACAD
1010
0.0
1020
0.0
1030
0.0
1001
ACDBBLOCKREPETAG
1070
     1
1071
       29
1005
132BBA
  0
LINE
  5
132BBB
  8
SLIM
 10
3920.0
 20
-1059.802561210691
 30
0.0
 11
4085.0000000000041
 21
-894.80256121068692
 31
0.0
1001
ACAD
1010
0.0
1020
0.0
1030
0.0
1001
ACDBBLOCKREPETAG
1070
     1
1071
       30
1005
132BBB
  0
LINE
  5
132BBC
  8
SLIM
 10
3920.0
 20
-1077.7630734528291
 30
0.0
 11
4085.0000000000032
 21
-912.76307345282555
 31
0.0
1001
ACAD
1010
0.0
1020
0.0
1030
0.0
1001
ACDBBLOCKREPETAG
1070
     1
1071
       31
1005
132BBC
  0
LINE
  5
132BBD
  8
SLIM
 10
3930.0
 20
-1085.723585694966
 30
0.0
 11
3930.7235856949678
 21
-1084.9999999999991
 31
0.0
1001
ACAD
1010
0.0
1020
0.0
1030
0.0
1001
ACDBBLOCKREPETAG
1070
     1
1071
       32
1005
132BBD
  0
LINE
  5
132BBE
  8
SLIM
 10
3930.7235856949678
 20
-1084.9999999999991
 30
0.0
 11
4083.4738280308079
 21
-932.24975766415935
 31
0.0
1001
ACAD
1010
0.0
1020
0.0
1030
0.0
1001
ACDBBLOCKREPETAG
1070
     1
1071
       33
1005
132BBE
  0
LINE
  5
132BBF
  8
SLIM
 10
3930.0
 20
-1103.6840979371059
 30
0.0
 11
3948.6840979371068
 21
-1084.9999999999991
 31
0.0
1001
ACAD
1010
0.0
1020
0.0
1030
0.0
1001
ACDBBLOCKREPETAG
1070
     1
1071
       34
1005
132BBF
  0
LINE
  5
132BC0
  8
SLIM
 10
3948.6840979371068
 20
-1084.9999999999991
 30
0.0
 11
4080.9680345671368
 21
-952.71606336996854
 31
0.0
1001
ACAD
1010
0.0
1020
0.0
1030
0.0
1001
ACDBBLOCKREPETAG
1070
     1
1071
       35
1005
132BC0
  0
LINE
  5
132BC1
  8
SLIM
 10
3946.6446101792449
 20
-1104.9999999999991
 30
0.0
 11
3966.6446101792449
 21
-1084.9999999999991
 31
0.0
1001
ACAD
1010
0.0
1020
0.0
1030
0.0
1001
ACDBBLOCKREPETAG
1070
     1
1071
       36
1005
132BC1
  0
LINE
  5
132BC2
  8
SLIM
 10
3966.6446101792449
 20
-1084.9999999999991
 30
0.0
 11
4080.0
 21
-971.64461017924452
 31
0.0
1001
ACAD
1010
0.0
1020
0.0
1030
0.0
1001
ACDBBLOCKREPETAG
1070
     1
1071
       37
1005
132BC2
  0
LINE
  5
132BC3
  8
SLIM
 10
3964.6051224213829
 20
-1104.9999999999991
 30
0.0
 11
3984.6051224213829
 21
-1084.9999999999991
 31
0.0
1001
ACAD
1010
0.0
1020
0.0
1030
0.0
1001
ACDBBLOCKREPETAG
1070
     1
1071
       38
1005
132BC3
  0
LINE
  5
132BC4
  8
SLIM
 10
3984.6051224213829
 20
-1084.9999999999991
 30
0.0
 11
4080.0
 21
-989.60512242138304
 31
0.0
1001
ACAD
1010
0.0
1020
0.0
1030
0.0
1001
ACDBBLOCKREPETAG
1070
     1
1071
       39
1005
132BC4
  0
LINE
  5
132BC5
  8
SLIM
 10
3982.565634663521
 20
-1104.9999999999991
 30
0.0
 11
4002.565634663521
 21
-1084.9999999999991
 31
0.0
1001
ACAD
1010
0.0
1020
0.0
1030
0.0
1001
ACDBBLOCKREPETAG
1070
     1
1071
       40
1005
132BC5
  0
LINE
  5
132BC6
  8
SLIM
 10
4002.565634663521
 20
-1084.9999999999991
 30
0.0
 11
4079.9999999999991
 21
-1007.565634663521
 31
0.0
1001
ACAD
1010
0.0
1020
0.0
1030
0.0
1001
ACDBBLOCKREPETAG
1070
     1
1071
       41
1005
132BC6
  0
LINE
  5
132BC7
  8
SLIM
 10
4000.5261469056582
 20
-1104.9999999999991
 30
0.0
 11
4020.52614690566
 21
-1084.9999999999991
 31
0.0
1001
ACAD
1010
0.0
1020
0.0
1030
0.0
1001
ACDBBLOCKREPETAG
1070
     1
1071
       42
1005
132BC7
  0
LINE
  5
132BC8
  8
SLIM
 10
4020.52614690566
 20
-1084.9999999999991
 30
0.0
 11
4079.9999999999991
 21
-1025.52614690566
 31
0.0
1001
ACAD
1010
0.0
1020
0.0
1030
0.0
1001
ACDBBLOCKREPETAG
1070
     1
1071
       43
1005
132BC8
  0
LINE
  5
132BC9
  8
SLIM
 10
4018.486659147798
 20
-1104.9999999999991
 30
0.0
 11
4038.486659147798
 21
-1084.9999999999991
 31
0.0
1001
ACAD
1010
0.0
1020
0.0
1030
0.0
1001
ACDBBLOCKREPETAG
1070
     1
1071
       44
1005
132BC9
  0
LINE
  5
132BCA
  8
SLIM
 10
4038.486659147798
 20
-1084.9999999999991
 30
0.0
 11
4079.9999999999991
 21
-1043.4866591477989
 31
0.0
1001
ACAD
1010
0.0
1020
0.0
1030
0.0
1001
ACDBBLOCKREPETAG
1070
     1
1071
       45
1005
132BCA
  0
LINE
  5
132BCB
  8
SLIM
 10
4036.4471713899361
 20
-1104.9999999999991
 30
0.0
 11
4056.4471713899361
 21
-1084.9999999999991
 31
0.0
1001
ACAD
1010
0.0
1020
0.0
1030
0.0
1001
ACDBBLOCKREPETAG
1070
     1
1071
       46
1005
132BCB
  0
LINE
  5
132BCC
  8
SLIM
 10
4056.4471713899361
 20
-1084.9999999999991
 30
0.0
 11
4079.9999999999991
 21
-1061.447171389937
 31
0.0
1001
ACAD
1010
0.0
1020
0.0
1030
0.0
1001
ACDBBLOCKREPETAG
1070
     1
1071
       47
1005
132BCC
  0
LINE
  5
132BCD
  8
SLIM
 10
4054.4076836320728
 20
-1104.9999999999991
 30
0.0
 11
4070.0
 21
-1089.4076836320739
 31
0.0
1001
ACAD
1010
0.0
1020
0.0
1030
0.0
1001
ACDBBLOCKREPETAG
1070
     1
1071
       48
1005
132BCD
  0
LINE
  5
132BCE
  8
SLIM
 10
4074.4076836320728
 20
-1084.9999999999991
 30
0.0
 11
4079.9999999999991
 21
-1079.407683632076
 31
0.0
1001
ACAD
1010
0.0
1020
0.0
1030
0.0
1001
ACDBBLOCKREPETAG
1070
     1
1071
       49
1005
132BCE
  0
LINE
  5
132BCF
  8
OBJECT
 10
3914.9999999999941
 20
-754.99999999999955
 30
0.0
 11
3914.9999999999968
 21
-919.78460339903484
 31
0.0
1001
ACDBBLOCKREPETAG
1070
     1
1071
        1
1005
132BCF
  0
LINE
  5
132BD0
  8
OBJECT
 10
4085.0000000000068
 20
-754.99999999999955
 30
0.0
 11
4085.0000000000032
 21
-919.78460339904154
 31
0.0
1001
ACDBBLOCKREPETAG
1070
     1
1071
        2
1005
132BD0
  0
LINE
  5
132BD1
  8
OBJECT
 10
4085.0000000000068
 20
-754.99999999999955
 30
0.0
 11
3914.9999999999941
 21
-754.99999999999955
 31
0.0
1001
ACDBBLOCKREPETAG
1070
     1
1071
        3
1005
132BD1
  0
LINE
  5
132BD2
  8
OBJECT
 10
4079.9999999999991
 20
-1084.9999999999991
 30
0.0
 11
3920.0
 21
-1084.9999999999991
 31
0.0
1001
ACDBBLOCKREPETAG
1070
     1
1071
        4
1005
132BD2
  0
LINE
  5
132BD3
  8
OBJECT
 10
3914.9999999999968
 20
-919.78460339903484
 30
0.0
 11
3920.0
 21
-960.62257748298634
 31
0.0
1001
ACDBBLOCKREPETAG
1070
     1
1071
        6
1005
132BD3
  0
LINE
  5
132BD4
  8
OBJECT
 10
3920.0
 20
-960.62257748298634
 30
0.0
 11
3920.0
 21
-1084.9999999999991
 31
0.0
1001
ACDBBLOCKREPETAG
1070
     1
1071
        7
1005
132BD4
  0
LINE
  5
132BD5
  8
OBJECT
 10
4085.0000000000032
 20
-919.78460339904154
 30
0.0
 11
4080.0
 21
-960.62257748298634
 31
0.0
1001
ACDBBLOCKREPETAG
1070
     1
1071
        8
1005
132BD5
  0
LINE
  5
132BD6
  8
OBJECT
 10
4080.0
 20
-960.62257748298634
 30
0.0
 11
4079.9999999999991
 21
-1084.9999999999991
 31
0.0
1001
ACDBBLOCKREPETAG
1070
     1
1071
        9
1005
132BD6
  0
LINE
  5
132BD7
  8
OBJECT
 10
3930.0
 20
-1084.9999999999991
 30
0.0
 11
3930.0
 21
-1104.9999999999991
 31
0.0
1001
ACDBBLOCKREPETAG
1070
     1
1071
       10
1005
132BD7
  0
LINE
  5
132BD8
  8
OBJECT
 10
3930.0
 20
-1104.9999999999991
 30
0.0
 11
4070.0
 21
-1104.9999999999991
 31
0.0
1001
ACDBBLOCKREPETAG
1070
     1
1071
       11
1005
132BD8
  0
LINE
  5
132BD9
  8
OBJECT
 10
4070.0
 20
-1104.9999999999991
 30
0.0
 11
4070.0
 21
-1084.9999999999991
 31
0.0
1001
ACDBBLOCKREPETAG
1070
     1
1071
       12
1005
132BD9
  0
LINE
  5
132BDA
  8
OBJECT
 10
1923.0
 20
-570.99999999999955
 30
0.0
 11
1923.0
 21
-549.99999999999955
 31
0.0
1001
ACDBBLOCKREPETAG
1070
     1
1071
       38
1005
132BDA
  0
LINE
  5
132BDB
  8
OBJECT
 10
1923.0
 20
-549.99999999999955
 30
0.0
 11
2077.0
 21
-549.99999999999955
 31
0.0
1001
ACDBBLOCKREPETAG
1070
     1
1071
       39
1005
132BDB
  0
LINE
  5
132BDC
  8
HIDDEN
 10
1943.0
 20
-619.99999999999955
 30
0.0
 11
2057.0
 21
-619.99999999999955
 31
0.0
1001
ACDBBLOCKREPETAG
1070
     1
1071
       40
1005
132BDC
  0
LINE
  5
132BDD
  8
OBJECT
 10
2077.0
 20
-549.99999999999955
 30
0.0
 11
2077.0
 21
-570.99999999999955
 31
0.0
1001
ACDBBLOCKREPETAG
1070
     1
1071
       41
1005
132BDD
  0
LINE
  5
132BDE
  8
OBJECT
 10
2077.0
 20
-570.99999999999955
 30
0.0
 11
1923.0
 21
-570.99999999999955
 31
0.0
1001
ACDBBLOCKREPETAG
1070
     1
1071
       42
1005
132BDE
  0
LINE
  5
132BDF
  8
CENTER
 10
2000.0
 20
-534.99999999999955
 30
0.0
 11
2000.0
 21
-889.99999999999955
 31
0.0
1001
ACDBBLOCKREPETAG
1070
     1
1071
       43
1005
132BDF
  0
LINE
  5
132BE0
  8
OBJECT
 10
1928.0
 20
-570.99999999999955
 30
0.0
 11
1928.0
 21
-633.99999999999955
 31
0.0
1001
ACDBBLOCKREPETAG
1070
     1
1071
       44
1005
132BE0
  0
LINE
  5
132BE1
  8
OBJECT
 10
2072.0
 20
-633.99999999999955
 30
0.0
 11
2072.0
 21
-570.99999999999955
 31
0.0
1001
ACDBBLOCKREPETAG
1070
     1
1071
       45
1005
132BE1
  0
LINE
  5
132BE2
  8
OBJECT
 10
1920.0
 20
-877.99999999999955
 30
0.0
 11
2080.0
 21
-877.99999999999955
 31
0.0
1001
ACDBBLOCKREPETAG
1070
     1
1071
       46
1005
132BE2
  0
LINE
  5
132BE3
  8
OBJECT
 10
2080.0
 20
-633.99999999999955
 30
0.0
 11
1920.0
 21
-633.99999999999955
 31
0.0
1001
ACDBBLOCKREPETAG
1070
     1
1071
       47
1005
132BE3
  0
LINE
  5
132BE4
  8
OBJECT
 10
1920.0
 20
-877.99999999999955
 30
0.0
 11
1920.0
 21
-889.99999999999955
 31
0.0
1001
ACDBBLOCKREPETAG
1070
     1
1071
       48
1005
132BE4
  0
LINE
  5
132BE5
  8
OBJECT
 10
1920.0
 20
-889.99999999999955
 30
0.0
 11
2080.0
 21
-889.99999999999955
 31
0.0
1001
ACDBBLOCKREPETAG
1070
     1
1071
       49
1005
132BE5
  0
LINE
  5
132BE6
  8
OBJECT
 10
2080.0
 20
-889.99999999999955
 30
0.0
 11
2080.0
 21
-877.99999999999955
 31
0.0
1001
ACDBBLOCKREPETAG
1070
     1
1071
       50
1005
132BE6
  0
LINE
  5
132BE7
  8
OBJECT
 10
2074.9999999998622
 20
-757.99999999985016
 30
0.0
 11
2075.0
 21
-877.99999999999955
 31
0.0
1001
ACDBBLOCKREPETAG
1070
     1
1071
       54
1005
132BE7
  0
LINE
  5
132BE8
  8
OBJECT
 10
2074.9999908029849
 20
-757.99998602702112
 30
0.0
 11
2080.0
 21
-757.99998602702112
 31
0.0
1001
ACDBBLOCKREPETAG
1070
     1
1071
       55
1005
132BE8
  0
LINE
  5
132BE9
  8
OBJECT
 10
1925.000000000138
 20
-757.99999999985016
 30
0.0
 11
1925.0
 21
-877.99999999999955
 31
0.0
1001
ACDBBLOCKREPETAG
1070
     1
1071
       56
1005
132BE9
  0
LINE
  5
132BEA
  8
OBJECT
 10
1925.000009197013
 20
-757.99998602702112
 30
0.0
 11
1920.0
 21
-757.99998602702112
 31
0.0
1001
ACDBBLOCKREPETAG
1070
     1
1071
       57
1005
132BEA
  0
ARC
  5
132BEB
  8
OBJECT
 10
2200.6872746716731
 20
-749.40809941010718
 30
0.0
 40
170.6350503965856
 50
137.44134459184301
 51
149.91949581336559
1001
ACDBBLOCKREPETAG
1070
     1
1071
       58
1005
132BEB
  0
ARC
  5
132BEC
  8
OBJECT
 10
2200.6872746716731
 20
-642.59190058989179
 30
0.0
 40
170.6350503965856
 50
210.0805041866343
 51
222.55865540815699
1001
ACDBBLOCKREPETAG
1070
     1
1071
       59
1005
132BEC
  0
ARC
  5
132BED
  8
OBJECT
 10
1799.312725328326
 20
-749.40809941010718
 30
0.0
 40
170.6350503965856
 50
30.080504186774089
 51
42.558655408382641
1001
ACDBBLOCKREPETAG
1070
     1
1071
       60
1005
132BED
  0
ARC
  5
132BEE
  8
OBJECT
 10
1799.312725328326
 20
-642.59190058989179
 30
0.0
 40
170.6350503965856
 50
317.44134459161722
 51
329.91949581322592
1001
ACDBBLOCKREPETAG
1070
     1
1071
       61
1005
132BEE
  0
POINT
  5
132BEF
  8
DOTS
 10
2000.0
 20
-754.99999999999955
 30
0.0
1001
ACDBBLOCKREPETAG
1070
     1
1071
      185
1005
132BEF
  0
LINE
  5
132BF0
  8
OBJECT
 10
3930.0
 20
-1199.999999999997
 30
0.0
 11
4070.0
 21
-1199.999999999997
 31
0.0
1001
ACDBBLOCKREPETAG
1070
     1
1071
        0
1005
132BF0
  0
LINE
  5
132BF1
  8
OBJECT
 10
3930.0
 20
-1199.999999999997
 30
0.0
 11
3930.0
 21
-959.99999999999693
 31
0.0
1001
ACDBBLOCKREPETAG
1070
     1
1071
        1
1005
132BF1
  0
LINE
  5
132BF2
  8
OBJECT
 10
4070.0
 20
-1199.999999999997
 30
0.0
 11
4070.0
 21
-959.99999999999693
 31
0.0
1001
ACDBBLOCKREPETAG
1070
     1
1071
        2
1005
132BF2
  0
LINE
  5
132BF3
  8
OBJECT
 10
3930.0
 20
-959.99999999999693
 30
0.0
 11
4070.0
 21
-959.99999999999693
 31
0.0
1001
ACDBBLOCKREPETAG
1070
     1
1071
        3
1005
132BF3
  0
LINE
  5
132BF4
  8
HIDDEN
 10
3937.5
 20
-959.99999999999693
 30
0.0
 11
3937.5
 21
-1199.999999999997
 31
0.0
1001
ACDBBLOCKREPETAG
1070
     1
1071
        4
1005
132BF4
  0
LINE
  5
132BF5
  8
HIDDEN
 10
4062.5
 20
-959.99999999999693
 30
0.0
 11
4062.5
 21
-1199.999999999997
 31
0.0
1001
ACDBBLOCKREPETAG
1070
     1
1071
        5
1005
132BF5
  0
LINE
  5
132BF6
  8
CENTER
 10
4000.0
 20
-889.99999999999875
 30
0.0
 11
4000.0
 21
-1214.999999999997
 31
0.0
1001
ACDBBLOCKREPETAG
1070
     1
1071
        6
1005
132BF6
  0
LINE
  5
132BF7
  8
OBJECT
 10
3925.0
 20
-889.99999999999875
 30
0.0
 11
3925.0
 21
-919.99999999999693
 31
0.0
1001
ACDBBLOCKREPETAG
1070
     1
1071
        7
1005
132BF7
  0
LINE
  5
132BF8
  8
OBJECT
 10
4075.0000000000032
 20
-889.99999999999875
 30
0.0
 11
4075.0
 21
-919.99999999999693
 31
0.0
1001
ACDBBLOCKREPETAG
1070
     1
1071
        8
1005
132BF8
  0
LINE
  5
132BF9
  8
OBJECT
 10
3925.0
 20
-919.99999999999693
 30
0.0
 11
4075.0
 21
-919.99999999999693
 31
0.0
1001
ACDBBLOCKREPETAG
1070
     1
1071
        9
1005
132BF9
  0
LINE
  5
132BFA
  8
OBJECT
 10
3925.0
 20
-919.99999999999693
 30
0.0
 11
3930.0
 21
-959.99999999999693
 31
0.0
1001
ACDBBLOCKREPETAG
1070
     1
1071
       10
1005
132BFA
  0
LINE
  5
132BFB
  8
OBJECT
 10
4070.0
 20
-959.99999999999693
 30
0.0
 11
4075.0
 21
-919.99999999999693
 31
0.0
1001
ACDBBLOCKREPETAG
1070
     1
1071
       11
1005
132BFB
  0
LINE
  5
132BFC
  8
OBJECT
 10
1930.0
 20
-1199.999999999997
 30
0.0
 11
2070.0
 21
-1199.999999999997
 31
0.0
1001
ACDBBLOCKREPETAG
1070
     1
1071
        0
1005
132BFC
  0
LINE
  5
132BFD
  8
OBJECT
 10
1930.0
 20
-1199.999999999997
 30
0.0
 11
1930.0
 21
-959.99999999999784
 31
0.0
1001
ACDBBLOCKREPETAG
1070
     1
1071
        1
1005
132BFD
  0
LINE
  5
132BFE
  8
OBJECT
 10
2070.0
 20
-1199.999999999997
 30
0.0
 11
2070.0
 21
-959.99999999999784
 31
0.0
1001
ACDBBLOCKREPETAG
1070
     1
1071
        2
1005
132BFE
  0
LINE
  5
132BFF
  8
OBJECT
 10
1930.0
 20
-959.99999999999784
 30
0.0
 11
2070.0
 21
-959.99999999999784
 31
0.0
1001
ACDBBLOCKREPETAG
1070
     1
1071
        3
1005
132BFF
  0
LINE
  5
132C00
  8
HIDDEN
 10
1937.5
 20
-959.99999999999784
 30
0.0
 11
1937.5
 21
-1199.999999999997
 31
0.0
1001
ACDBBLOCKREPETAG
1070
     1
1071
        4
1005
132C00
  0
LINE
  5
132C01
  8
HIDDEN
 10
2062.5
 20
-959.99999999999784
 30
0.0
 11
2062.5
 21
-1199.999999999997
 31
0.0
1001
ACDBBLOCKREPETAG
1070
     1
1071
        5
1005
132C01
  0
LINE
  5
132C02
  8
CENTER
 10
2000.0
 20
-889.99999999999955
 30
0.0
 11
2000.0
 21
-1214.999999999998
 31
0.0
1001
ACDBBLOCKREPETAG
1070
     1
1071
        6
1005
132C02
  0
LINE
  5
132C03
  8
OBJECT
 10
1925.0
 20
-889.99999999999955
 30
0.0
 11
1925.0
 21
-919.99999999999761
 31
0.0
1001
ACDBBLOCKREPETAG
1070
     1
1071
        7
1005
132C03
  0
LINE
  5
132C04
  8
OBJECT
 10
2075.0000000000041
 20
-889.99999999999955
 30
0.0
 11
2075.0
 21
-919.99999999999761
 31
0.0
1001
ACDBBLOCKREPETAG
1070
     1
1071
        8
1005
132C04
  0
LINE
  5
132C05
  8
OBJECT
 10
1925.0
 20
-919.99999999999761
 30
0.0
 11
2075.0
 21
-919.99999999999761
 31
0.0
1001
ACDBBLOCKREPETAG
1070
     1
1071
        9
1005
132C05
  0
LINE
  5
132C06
  8
OBJECT
 10
1925.0
 20
-919.99999999999761
 30
0.0
 11
1930.0
 21
-959.99999999999784
 31
0.0
1001
ACDBBLOCKREPETAG
1070
     1
1071
       10
1005
132C06
  0
LINE
  5
132C07
  8
OBJECT
 10
2070.0
 20
-959.99999999999784
 30
0.0
 11
2075.0
 21
-919.99999999999761
 31
0.0
1001
ACDBBLOCKREPETAG
1070
     1
1071
       11
1005
132C07
  0
TEXT
  5
132C08
  8
SLIM
 10
3741.6250000000009
 20
-1467.499999999997
 30
0.0
 40
35.0
  1
片受けスタイル（S）＋シンドカット
 41
0.75
  0
TEXT
  5
132C09
  8
SLIM
 10
1856.25
 20
-1467.499999999998
 30
0.0
 40
35.0
  1
片受けスタイル（S）
 41
0.75
  0
VIEWPORT
  5
F6BA7
 67
     1
  8
0
 10
145.33033752441401
 20
101.8328354358673
 30
0.0
 40
334.0025019414623
 41
222.19657968139651
 68
     1
 69
     1
1001
ACAD
1000
MVIEW
1002
{
1070
    16
1010
0.0
1020
0.0
1030
0.0
1010
0.0
1020
0.0
1030
1.0
1040
0.0
1040
222.19657968139651
1040
145.33033752441401
1040
101.8328354358673
1040
50.0
1040
0.0
1040
0.0
1070
     0
1070
     0
1070
     1
1070
     1
1070
     0
1070
     0
1070
     0
1070
     0
1040
0.0
1040
0.0
1040
0.0
1040
10.0
1040
10.0
1040
10.0
1040
10.0
1070
     0
1002
{
1002
}
1002
}
  0
VIEWPORT
  5
F6BA9
 67
     1
  8
OBJECT
 10
145.3303314447403
 20
101.8328338861465
 30
0.0
 40
232.5285303115844
 41
162.93253421783439
 68
     2
 69
     2
1001
ACAD
1000
MVIEW
1002
{
1070
    16
1010
0.0
1020
0.0
1030
0.0
1010
0.0
1020
0.0
1030
1.0
1040
0.0
1040
25942.55904403147
1040
2377.604457077377
1040
-7591.5176687056619
1040
50.0
1040
0.0
1040
0.0
1070
     0
1070
   600
1070
     1
1070
     1
1070
     0
1070
     0
1070
     0
1070
     0
1040
0.0
1040
0.0
1040
0.0
1040
1.0
1040
1.0
1040
0.0
1040
0.0
1070
     0
1002
{
1002
}
1002
}
  0
ENDSEC
  0
EOF
