  0
SECTION
  2
HEADER
  9
$ACADVER
  1
AC1009
  9
$INSBASE
 10
0.0
 20
0.0
 30
0.0
  9
$EXTMIN
 10
0.0
 20
-3817.4999999999959
 30
0.0
  9
$EXTMAX
 10
5575.0
 20
607.5
 30
0.0
  9
$LIMMIN
 10
0.0
 20
0.0
  9
$LIMMAX
 10
210.0
 20
297.0
  9
$ORTHOMODE
 70
     0
  9
$REGENMODE
 70
     1
  9
$FILLMODE
 70
     1
  9
$QTEXTMODE
 70
     0
  9
$MIRRTEXT
 70
     0
  9
$DRAGMODE
 70
     2
  9
$LTSCALE
 40
1.0
  9
$OSMODE
 70
    37
  9
$ATTMODE
 70
     1
  9
$TEXTSIZE
 40
4.0
  9
$TRACEWID
 40
0.05
  9
$TEXTSTYLE
  7
STANDARD
  9
$CLAYER
  8
OBJECT
  9
$CELTYPE
  6
BYLAYER
  9
$CECOLOR
 62
   256
  9
$DIMSCALE
 40
10.0
  9
$DIMASZ
 40
2.0
  9
$DIMEXO
 40
1.0
  9
$DIMDLI
 40
10.0
  9
$DIMRND
 40
0.0
  9
$DIMDLE
 40
0.0
  9
$DIMEXE
 40
1.0
  9
$DIMTP
 40
0.0
  9
$DIMTM
 40
0.0
  9
$DIMTXT
 40
3.2000000000000002
  9
$DIMCEN
 40
0.0
  9
$DIMTSZ
 40
0.0
  9
$DIMTOL
 70
     0
  9
$DIMLIM
 70
     0
  9
$DIMTIH
 70
     0
  9
$DIMTOH
 70
     0
  9
$DIMSE1
 70
     0
  9
$DIMSE2
 70
     0
  9
$DIMTAD
 70
     1
  9
$DIMZIN
 70
     8
  9
$DIMBLK
  1
OPEN30
  9
$DIMASO
 70
     1
  9
$DIMSHO
 70
     1
  9
$DIMPOST
  1

  9
$DIMAPOST
  1

  9
$DIMALT
 70
     0
  9
$DIMALTD
 70
     2
  9
$DIMALTF
 40
25.399999999999999
  9
$DIMLFAC
 40
1.0
  9
$DIMTOFL
 70
     1
  9
$DIMTVP
 40
0.0
  9
$DIMTIX
 70
     0
  9
$DIMSOXD
 70
     0
  9
$DIMSAH
 70
     0
  9
$DIMBLK1
  1

  9
$DIMBLK2
  1

  9
$DIMSTYLE
  2
S10
  9
$DIMCLRD
 70
   256
  9
$DIMCLRE
 70
   256
  9
$DIMCLRT
 70
   256
  9
$DIMTFAC
 40
1.0
  9
$DIMGAP
 40
0.9
  9
$LUNITS
 70
     2
  9
$LUPREC
 70
     2
  9
$SKETCHINC
 40
0.1
  9
$FILLETRAD
 40
0.0
  9
$AUNITS
 70
     0
  9
$AUPREC
 70
     2
  9
$MENU
  1
ACAD
  9
$ELEVATION
 40
0.0
  9
$PELEVATION
 40
0.0
  9
$THICKNESS
 40
0.0
  9
$LIMCHECK
 70
     0
  9
$BLIPMODE
 70
     0
  9
$CHAMFERA
 40
2.0
  9
$CHAMFERB
 40
2.0
  9
$SKPOLY
 70
     0
  9
$TDCREATE
 40
2453095.4929404748
  9
$TDUPDATE
 40
2457604.659751378
  9
$TDINDWG
 40
18.3895038657
  9
$TDUSRTIMER
 40
18.3895031829
  9
$USRTIMER
 70
     1
  9
$ANGBASE
 50
0.0
  9
$ANGDIR
 70
     0
  9
$PDMODE
 70
    35
  9
$PDSIZE
 40
2.0
  9
$PLINEWID
 40
0.0
  9
$COORDS
 70
     1
  9
$SPLFRAME
 70
     0
  9
$SPLINETYPE
 70
     6
  9
$SPLINESEGS
 70
     8
  9
$ATTDIA
 70
     0
  9
$ATTREQ
 70
     1
  9
$HANDLING
 70
     1
  9
$HANDSEED
  5
12F6BE
  9
$SURFTAB1
 70
     6
  9
$SURFTAB2
 70
     6
  9
$SURFTYPE
 70
     6
  9
$SURFU
 70
     6
  9
$SURFV
 70
     6
  9
$UCSNAME
  2

  9
$UCSORG
 10
0.0
 20
0.0
 30
0.0
  9
$UCSXDIR
 10
1.0
 20
0.0
 30
0.0
  9
$UCSYDIR
 10
0.0
 20
1.0
 30
0.0
  9
$PUCSNAME
  2

  9
$PUCSORG
 10
0.0
 20
0.0
 30
0.0
  9
$PUCSXDIR
 10
1.0
 20
0.0
 30
0.0
  9
$PUCSYDIR
 10
0.0
 20
1.0
 30
0.0
  9
$USERI1
 70
     0
  9
$USERI2
 70
     0
  9
$USERI3
 70
     0
  9
$USERI4
 70
     0
  9
$USERI5
 70
     0
  9
$USERR1
 40
0.0
  9
$USERR2
 40
0.0
  9
$USERR3
 40
0.0
  9
$USERR4
 40
0.0
  9
$USERR5
 40
0.0
  9
$WORLDVIEW
 70
     1
  9
$SHADEDGE
 70
     3
  9
$SHADEDIF
 70
    70
  9
$TILEMODE
 70
     1
  9
$MAXACTVP
 70
    64
  9
$PLIMCHECK
 70
     0
  9
$PEXTMIN
 10
29.066066288948051
 20
20.366566777229309
 30
0.0
  9
$PEXTMAX
 10
261.5945966005325
 20
183.29910099506381
 30
0.0
  9
$PLIMMIN
 10
-3.17498779296875
 20
-3.1749999523162842
  9
$PLIMMAX
 10
293.83566284179687
 20
206.8406708240509
  9
$UNITMODE
 70
     0
  9
$VISRETAIN
 70
     1
  9
$PLINEGEN
 70
     0
  9
$PSLTSCALE
 70
     1
  0
ENDSEC
  0
SECTION
  2
TABLES
  0
TABLE
  2
VPORT
 70
     1
  0
VPORT
  2
*ACTIVE
 70
     0
 10
0.0
 20
0.0
 11
1.0
 21
1.0
 12
2861.4707605717658
 22
-710.98130115614731
 13
0.0
 23
0.0
 14
1.0
 24
1.0
 15
0.0
 25
0.0
 16
0.0
 26
0.0
 36
1.0
 17
0.0
 27
0.0
 37
0.0
 40
4710.1488964650971
 41
1.6494178525226391
 42
50.0
 43
0.0
 44
0.0
 50
0.0
 51
0.0
 71
     0
 72
   600
 73
     1
 74
     1
 75
     0
 76
     0
 77
     0
 78
     0
  0
ENDTAB
  0
TABLE
  2
LTYPE
 70
     4
  0
LTYPE
  2
CONTINUOUS
 70
     0
  3
Solid line
 72
    65
 73
     0
 40
0.0
  0
LTYPE
  2
PHANTOM2
 70
     0
  3
___ _ _ ___ _ _ ___ _ _ ___ _ _
 72
    65
 73
     6
 40
1.25
 49
0.625
 49
-0.125
 49
0.125
 49
-0.125
 49
0.125
 49
-0.125
  0
LTYPE
  2
ACAD_ISO08W100
 70
     0
  3
ISO long-dash short-dash ____ __ ____ __ ____ _
 72
    65
 73
     4
 40
36.0
 49
24.0
 49
-3.0
 49
6.0
 49
-3.0
  0
LTYPE
  2
ACAD_ISO02W100
 70
     0
  3
ISO dash __ __ __ __ __ __ __ __ __ __ __ __ __
 72
    65
 73
     2
 40
15.0
 49
12.0
 49
-3.0
  0
ENDTAB
  0
TABLE
  2
LAYER
 70
     8
  0
LAYER
  2
0
 70
     0
 62
     7
  6
CONTINUOUS
  0
LAYER
  2
OBJECT
 70
     0
 62
     4
  6
CONTINUOUS
  0
LAYER
  2
DEFPOINTS
 70
     0
 62
     7
  6
CONTINUOUS
  0
LAYER
  2
DIM
 70
     0
 62
     7
  6
CONTINUOUS
  0
LAYER
  2
HIDDEN
 70
     0
 62
     2
  6
ACAD_ISO02W100
  0
LAYER
  2
CENTER
 70
     0
 62
     2
  6
ACAD_ISO08W100
  0
LAYER
  2
DOTS
 70
     0
 62
     1
  6
CONTINUOUS
  0
LAYER
  2
SLIM
 70
     0
 62
     2
  6
CONTINUOUS
  0
ENDTAB
  0
TABLE
  2
STYLE
 70
     2
  0
STYLE
  2
STANDARD
 70
     0
 40
0.0
 41
0.75
 50
0.0
 71
     0
 42
4.0
  3
simplex.shx
  4
bigfont.shx
  0
ENDTAB
  0
TABLE
  2
VIEW
 70
     0
  0
ENDTAB
  0
TABLE
  2
UCS
 70
     0
  0
ENDTAB
  0
TABLE
  2
APPID
 70
    19
  0
APPID
  2
ACAD
 70
     0
  0
APPID
  2
ACADANNOTATIVE
 70
     0
  0
APPID
  2
ACAD_PSEXT
 70
     0
  0
APPID
  2
ACAD_EXEMPT_FROM_CAD_STANDARDS
 70
     0
  0
APPID
  2
ACAECLAYERSTANDARD
 70
     0
  0
APPID
  2
ACAUTHENVIRON
 70
     0
  0
APPID
  2
ACDBDYNAMICBLOCKTRUENAME
 70
     0
  0
APPID
  2
ACDBDYNAMICBLOCKGUID
 70
     0
  0
APPID
  2
ACDBBLOCKREPETAG
 70
     0
  0
APPID
  2
ACDBBLOCKREPBTAG
 70
     0
  0
APPID
  2
ACAD_NAV_VCDISPLAY
 70
     0
  0
APPID
  2
ACAD_DSTYLE_DIMRADIAL_EXTENSION
 70
     0
  0
APPID
  2
ACAD_DSTYLE_DIMJAG
 70
     0
  0
APPID
  2
ACAD_DSTYLE_DIMTALN
 70
     0
  0
APPID
  2
ACADANNOPO
 70
     0
  0
APPID
  2
GRADIENTCOLOR1ACI
 70
     0
  0
APPID
  2
GRADIENTCOLOR2ACI
 70
     0
  0
APPID
  2
CONTENTBLOCKICON
 70
     0
  0
APPID
  2
ACAD_MLEADERVER
 70
     0
  0
ENDTAB
  0
TABLE
  2
DIMSTYLE
 70
     3
  0
DIMSTYLE
  2
STANDARD
 70
     0
  3

  4

  5

  6

  7

 40
1.0
 41
0.18
 42
0.0625
 43
0.38
 44
0.18
 45
0.0
 46
0.0
 47
0.0
 48
0.0
140
0.18
141
0.09
142
0.0
143
25.399999999999999
144
1.0
145
0.0
146
1.0
147
0.09
 71
     0
 72
     0
 73
     1
 74
     1
 75
     0
 76
     0
 77
     0
 78
     0
170
     0
171
     2
172
     0
173
     0
174
     0
175
     0
176
     0
177
     0
178
     0
  0
DIMSTYLE
  2
S10
 70
     0
  3

  4

  5

  6

  7

 40
10.0
 41
2.0
 42
1.0
 43
10.0
 44
1.0
 45
0.0
 46
0.0
 47
0.0
 48
0.0
140
3.2000000000000002
141
0.0
142
0.0
143
25.399999999999999
144
1.0
145
0.0
146
1.0
147
0.9
 71
     0
 72
     0
 73
     0
 74
     0
 75
     0
 76
     0
 77
     1
 78
     8
170
     0
171
     2
172
     1
173
     0
174
     0
175
     0
176
   256
177
   256
178
   256
  0
ENDTAB
  0
ENDSEC
  0
SECTION
  2
BLOCKS
  0
BLOCK
  8
0
  2
$MODEL_SPACE
 70
     0
 10
0.0
 20
0.0
 30
0.0
  3
$MODEL_SPACE
  1

  0
ENDBLK
  5
12F59F
  8
0
  0
BLOCK
 67
     1
  8
0
  2
$PAPER_SPACE
 70
     0
 10
0.0
 20
0.0
 30
0.0
  3
$PAPER_SPACE
  1

  0
ENDBLK
  5
12F59B
 67
     1
  8
0
  0
BLOCK
  8
0
  2
_OPEN30
 70
     0
 10
0.0
 20
0.0
 30
0.0
  3
_OPEN30
  1

  0
LINE
  5
202
  8
0
  6
BYBLOCK
 62
     0
 10
-1.0
 20
0.26794919
 30
0.0
 11
0.0
 21
0.0
 31
0.0
  0
LINE
  5
203
  8
0
  6
BYBLOCK
 62
     0
 10
0.0
 20
0.0
 30
0.0
 11
-1.0
 21
-0.26794919
 31
0.0
  0
LINE
  5
204
  8
0
  6
BYBLOCK
 62
     0
 10
0.0
 20
0.0
 30
0.0
 11
-1.0
 21
0.0
 31
0.0
  0
ENDBLK
  5
206
  8
0
  0
BLOCK
  8
0
  2
*U3
 70
     1
 10
0.0
 20
0.0
 30
0.0
  3
*U3
  1

  0
TEXT
  5
12F44F
  8
DIM
 10
3840.6616440113212
 20
-1122.7428571428561
 30
0.0
 40
32.0
  1
m（シンドカット）
 50
90.0
 41
0.75
  0
ENDBLK
  5
12F451
  8
0
  0
BLOCK
  8
0
  2
*U4
 70
     1
 10
0.0
 20
0.0
 30
0.0
  3
*U4
  1

  0
TEXT
  5
12F453
  8
SLIM
 10
258.00000000003462
 20
-3446.952380953292
 30
0.0
 40
26.0
  1
75
 50
270.0
  0
ENDBLK
  5
12F455
  8
0
  0
BLOCK
  8
0
  2
*U5
 70
     1
 10
0.0
 20
0.0
 30
0.0
  3
*U5
  1

  0
TEXT
  5
12F457
  8
SLIM
 10
125.0476190476536
 20
-3358.7500000009122
 30
0.0
 40
26.0
  1
100
  0
ENDBLK
  5
12F459
  8
0
  0
BLOCK
  8
0
  2
*U6
 70
     1
 10
0.0
 20
0.0
 30
0.0
  3
*U6
  1

  0
TEXT
  5
12F45B
  8
SLIM
 10
625.2500000001146
 20
-3437.047619048531
 30
0.0
 40
26.0
  1
100
 50
270.0
  0
ENDBLK
  5
12F45D
  8
0
  0
BLOCK
  8
0
  2
*U7
 70
     1
 10
0.0
 20
0.0
 30
0.0
  3
*U7
  1

  0
TEXT
  5
12F45F
  8
SLIM
 10
485.04761904773358
 20
-3358.7500000009122
 30
0.0
 40
26.0
  1
100
  0
ENDBLK
  5
12F461
  8
0
  0
BLOCK
  8
0
  2
*U8
 70
     1
 10
0.0
 20
0.0
 30
0.0
  3
*U8
  1

  0
TEXT
  5
12F463
  8
SLIM
 10
618.0000000001146
 20
-2982.9523809532861
 30
0.0
 40
26.0
  1
65
 50
270.0
  0
ENDBLK
  5
12F465
  8
0
  0
BLOCK
  8
0
  2
*U9
 70
     1
 10
0.0
 20
0.0
 30
0.0
  3
*U9
  1

  0
TEXT
  5
12F467
  8
SLIM
 10
485.04761904773358
 20
-2894.7500000009049
 30
0.0
 40
26.0
  1
100
  0
ENDBLK
  5
12F469
  8
0
  0
BLOCK
  8
0
  2
*U10
 70
     1
 10
0.0
 20
0.0
 30
0.0
  3
*U10
  1

  0
TEXT
  5
12F46B
  8
SLIM
 10
258.00000000003462
 20
-2982.9523809532861
 30
0.0
 40
26.0
  1
50
 50
270.0
  0
ENDBLK
  5
12F46D
  8
0
  0
BLOCK
  8
0
  2
*U11
 70
     1
 10
0.0
 20
0.0
 30
0.0
  3
*U11
  1

  0
TEXT
  5
12F46F
  8
SLIM
 10
125.0476190476536
 20
-2894.7500000009049
 30
0.0
 40
26.0
  1
100
  0
ENDBLK
  5
12F471
  8
0
  0
BLOCK
  8
0
  2
*U12
 70
     1
 10
0.0
 20
0.0
 30
0.0
  3
*U12
  1

  0
TEXT
  5
12F473
  8
SLIM
 10
258.00000000003462
 20
-2518.9523809532802
 30
0.0
 40
26.0
  1
75
 50
270.0
  0
ENDBLK
  5
12F475
  8
0
  0
BLOCK
  8
0
  2
*U13
 70
     1
 10
0.0
 20
0.0
 30
0.0
  3
*U13
  1

  0
TEXT
  5
12F477
  8
SLIM
 10
134.9523809524155
 20
-2438.0000000008981
 30
0.0
 40
26.0
  1
75
  0
ENDBLK
  5
12F479
  8
0
  0
BLOCK
  8
0
  2
*U14
 70
     1
 10
0.0
 20
0.0
 30
0.0
  3
*U14
  1

  0
TEXT
  5
12F47B
  8
SLIM
 10
625.2500000001146
 20
-2509.0476190485178
 30
0.0
 40
26.0
  1
100
 50
270.0
  0
ENDBLK
  5
12F47D
  8
0
  0
BLOCK
  8
0
  2
*U15
 70
     1
 10
0.0
 20
0.0
 30
0.0
  3
*U15
  1

  0
TEXT
  5
12F47F
  8
SLIM
 10
494.95238095249539
 20
-2438.0000000008981
 30
0.0
 40
26.0
  1
75
  0
ENDBLK
  5
12F481
  8
0
  0
BLOCK
  8
0
  2
*U16
 70
     1
 10
0.0
 20
0.0
 30
0.0
  3
*U16
  1

  0
TEXT
  5
12F483
  8
SLIM
 10
618.0000000001146
 20
-2054.952380953273
 30
0.0
 40
26.0
  1
65
 50
270.0
  0
ENDBLK
  5
12F485
  8
0
  0
BLOCK
  8
0
  2
*U17
 70
     1
 10
0.0
 20
0.0
 30
0.0
  3
*U17
  1

  0
TEXT
  5
12F487
  8
SLIM
 10
494.95238095249539
 20
-1974.000000000892
 30
0.0
 40
26.0
  1
75
  0
ENDBLK
  5
12F489
  8
0
  0
BLOCK
  8
0
  2
*U18
 70
     1
 10
0.0
 20
0.0
 30
0.0
  3
*U18
  1

  0
TEXT
  5
12F48B
  8
SLIM
 10
258.00000000003462
 20
-2054.952380953273
 30
0.0
 40
26.0
  1
50
 50
270.0
  0
ENDBLK
  5
12F48D
  8
0
  0
BLOCK
  8
0
  2
*U19
 70
     1
 10
0.0
 20
0.0
 30
0.0
  3
*U19
  1

  0
TEXT
  5
12F48F
  8
SLIM
 10
134.9523809524155
 20
-1974.000000000892
 30
0.0
 40
26.0
  1
75
  0
ENDBLK
  5
12F491
  8
0
  0
BLOCK
  8
0
  2
*U20
 70
     1
 10
0.0
 20
0.0
 30
0.0
  3
*U20
  1

  0
TEXT
  5
12F493
  8
SLIM
 10
258.00000000003462
 20
-1590.9523809532659
 30
0.0
 40
26.0
  1
75
 50
270.0
  0
ENDBLK
  5
12F495
  8
0
  0
BLOCK
  8
0
  2
*U21
 70
     1
 10
0.0
 20
0.0
 30
0.0
  3
*U21
  1

  0
TEXT
  5
12F497
  8
SLIM
 10
134.9523809524155
 20
-1510.0000000008849
 30
0.0
 40
26.0
  1
65
  0
ENDBLK
  5
12F499
  8
0
  0
BLOCK
  8
0
  2
*U22
 70
     1
 10
0.0
 20
0.0
 30
0.0
  3
*U22
  1

  0
TEXT
  5
12F49B
  8
SLIM
 10
625.2500000001146
 20
-1581.047619048504
 30
0.0
 40
26.0
  1
100
 50
270.0
  0
ENDBLK
  5
12F49D
  8
0
  0
BLOCK
  8
0
  2
*U23
 70
     1
 10
0.0
 20
0.0
 30
0.0
  3
*U23
  1

  0
TEXT
  5
12F49F
  8
SLIM
 10
494.95238095249539
 20
-1510.0000000008849
 30
0.0
 40
26.0
  1
65
  0
ENDBLK
  5
12F4A1
  8
0
  0
BLOCK
  8
0
  2
*U24
 70
     1
 10
0.0
 20
0.0
 30
0.0
  3
*U24
  1

  0
TEXT
  5
12F4A3
  8
SLIM
 10
618.0000000001146
 20
-1126.9523809532591
 30
0.0
 40
26.0
  1
65
 50
270.0
  0
ENDBLK
  5
12F4A5
  8
0
  0
BLOCK
  8
0
  2
*U25
 70
     1
 10
0.0
 20
0.0
 30
0.0
  3
*U25
  1

  0
TEXT
  5
12F4A7
  8
SLIM
 10
494.95238095249539
 20
-1046.0000000008779
 30
0.0
 40
26.0
  1
65
  0
ENDBLK
  5
12F4A9
  8
0
  0
BLOCK
  8
0
  2
*U26
 70
     1
 10
0.0
 20
0.0
 30
0.0
  3
*U26
  1

  0
TEXT
  5
12F4AB
  8
SLIM
 10
258.00000000003462
 20
-1126.9523809532591
 30
0.0
 40
26.0
  1
50
 50
270.0
  0
ENDBLK
  5
12F4AD
  8
0
  0
BLOCK
  8
0
  2
*U27
 70
     1
 10
0.0
 20
0.0
 30
0.0
  3
*U27
  1

  0
TEXT
  5
12F4AF
  8
SLIM
 10
134.9523809524155
 20
-1046.0000000008779
 30
0.0
 40
26.0
  1
65
  0
ENDBLK
  5
12F4B1
  8
0
  0
BLOCK
  8
0
  2
*U28
 70
     1
 10
0.0
 20
0.0
 30
0.0
  3
*U28
  1

  0
TEXT
  5
12F4B3
  8
SLIM
 10
258.00000000003462
 20
-662.95238095325271
 30
0.0
 40
26.0
  1
75
 50
270.0
  0
ENDBLK
  5
12F4B5
  8
0
  0
BLOCK
  8
0
  2
*U29
 70
     1
 10
0.0
 20
0.0
 30
0.0
  3
*U29
  1

  0
TEXT
  5
12F4B7
  8
SLIM
 10
134.9523809524155
 20
-582.00000000087175
 30
0.0
 40
26.0
  1
50
  0
ENDBLK
  5
12F4B9
  8
0
  0
BLOCK
  8
0
  2
*U30
 70
     1
 10
0.0
 20
0.0
 30
0.0
  3
*U30
  1

  0
TEXT
  5
12F4BB
  8
SLIM
 10
625.2500000001146
 20
-653.04761904849079
 30
0.0
 40
26.0
  1
100
 50
270.0
  0
ENDBLK
  5
12F4BD
  8
0
  0
BLOCK
  8
0
  2
*U31
 70
     1
 10
0.0
 20
0.0
 30
0.0
  3
*U31
  1

  0
TEXT
  5
12F4BF
  8
SLIM
 10
494.95238095249539
 20
-582.00000000087175
 30
0.0
 40
26.0
  1
50
  0
ENDBLK
  5
12F4C1
  8
0
  0
BLOCK
  8
0
  2
*U32
 70
     1
 10
0.0
 20
0.0
 30
0.0
  3
*U32
  1

  0
TEXT
  5
12F4C3
  8
SLIM
 10
618.0000000001146
 20
-198.95238095324621
 30
0.0
 40
26.0
  1
65
 50
270.0
  0
ENDBLK
  5
12F4C5
  8
0
  0
BLOCK
  8
0
  2
*U33
 70
     1
 10
0.0
 20
0.0
 30
0.0
  3
*U33
  1

  0
TEXT
  5
12F4C7
  8
SLIM
 10
494.95238095249539
 20
-118.0000000008653
 30
0.0
 40
26.0
  1
50
  0
ENDBLK
  5
12F4C9
  8
0
  0
BLOCK
  8
0
  2
*U34
 70
     1
 10
0.0
 20
0.0
 30
0.0
  3
*U34
  1

  0
TEXT
  5
12F4CB
  8
SLIM
 10
258.00000000003462
 20
-198.95238095324621
 30
0.0
 40
26.0
  1
50
 50
270.0
  0
ENDBLK
  5
12F4CD
  8
0
  0
BLOCK
  8
0
  2
*U35
 70
     1
 10
0.0
 20
0.0
 30
0.0
  3
*U35
  1

  0
TEXT
  5
12F4CF
  8
SLIM
 10
134.9523809524155
 20
-118.0000000008653
 30
0.0
 40
26.0
  1
50
  0
ENDBLK
  5
12F4D1
  8
0
  0
BLOCK
  8
0
  2
*U36
 70
     1
 10
0.0
 20
0.0
 30
0.0
  3
*U36
  1

  0
TEXT
  5
12F523
  8
DIM
 10
2209.479620594459
 20
-3304.1428571428528
 30
0.0
 40
32.0
  1
A
 50
90.0
 41
0.75
  0
ENDBLK
  5
12F525
  8
0
  0
BLOCK
  8
0
  2
*U37
 70
     1
 10
0.0
 20
0.0
 30
0.0
  3
*U37
  1

  0
TEXT
  5
12F527
  8
DIM
 10
2207.8409284037348
 20
-3685.9999999999959
 30
0.0
 40
32.0
  1
B
 50
90.0
 41
0.75
  0
ENDBLK
  5
12F529
  8
0
  0
BLOCK
  8
0
  2
*U38
 70
     1
 10
0.0
 20
0.0
 30
0.0
  3
*U38
  1

  0
TEXT
  5
12F52B
  8
DIM
 10
2061.428571428572
 20
-3158.208121984444
 30
0.0
 40
32.0
  1
C
 41
0.75
  0
ENDBLK
  5
12F52D
  8
0
  0
ENDSEC
  0
SECTION
  2
ENTITIES
  0
LINE
  5
12515F
  8
OBJECT
 10
1825.0
 20
-3699.9999999999959
 30
0.0
 11
5575.0
 21
-3699.9999999999959
 31
0.0
  0
LINE
  5
125161
  8
SLIM
 10
2616.0
 20
-2757.50001604727
 30
0.0
 11
2616.0
 21
-3087.50001604727
 31
0.0
  0
LINE
  5
125162
  8
SLIM
 10
2740.0
 20
-2757.50001604727
 30
0.0
 11
2740.0
 21
-3087.50001604727
 31
0.0
  0
LINE
  5
125163
  8
SLIM
 10
2870.0
 20
-2817.50001604727
 30
0.0
 11
2870.0
 21
-3087.50001604727
 31
0.0
  0
LINE
  5
125164
  8
SLIM
 10
3000.0
 20
-2817.50001604727
 30
0.0
 11
3000.0
 21
-3087.50001604727
 31
0.0
  0
LINE
  5
125165
  8
SLIM
 10
3130.0
 20
-3087.50001604727
 30
0.0
 11
3130.0
 21
-2817.50001604727
 31
0.0
  0
LINE
  5
125166
  8
SLIM
 10
3260.0
 20
-3087.50001604727
 30
0.0
 11
3260.0
 21
-2757.50001604727
 31
0.0
  0
LINE
  5
125167
  8
SLIM
 10
3260.0
 20
-2757.50001604727
 30
0.0
 11
2616.0
 21
-2757.50001604727
 31
0.0
  0
LINE
  5
125168
  8
SLIM
 10
3260.0
 20
-2817.50001604727
 30
0.0
 11
2740.0
 21
-2817.50001604727
 31
0.0
  0
LINE
  5
125169
  8
SLIM
 10
3260.0
 20
-2877.50001604727
 30
0.0
 11
2616.0
 21
-2877.50001604727
 31
0.0
  0
LINE
  5
12516A
  8
SLIM
 10
3260.0
 20
-2947.50001604727
 30
0.0
 11
2616.0
 21
-2947.50001604727
 31
0.0
  0
LINE
  5
12516B
  8
SLIM
 10
3260.0
 20
-3017.50001604727
 30
0.0
 11
2616.0
 21
-3017.50001604727
 31
0.0
  0
LINE
  5
12516C
  8
SLIM
 10
3260.0
 20
-3087.50001604727
 30
0.0
 11
2616.0
 21
-3087.50001604727
 31
0.0
  0
LINE
  5
125181
  8
SLIM
 10
2740.0
 20
-2877.50001604727
 30
0.0
 11
2615.9999722746579
 21
-2757.5
 31
0.0
  0
LINE
  5
1251B6
  8
OBJECT
 10
5323.0
 20
-3515.9999999999968
 30
0.0
 11
5323.0
 21
-3494.9999999999968
 31
0.0
1001
ACDBBLOCKREPETAG
1070
     1
1071
       20
1005
1251B6
  0
LINE
  5
1251B7
  8
OBJECT
 10
5323.0
 20
-3494.9999999999968
 30
0.0
 11
5477.0
 21
-3494.9999999999968
 31
0.0
1001
ACDBBLOCKREPETAG
1070
     1
1071
       21
1005
1251B7
  0
LINE
  5
1251B8
  8
HIDDEN
 10
5343.0
 20
-3564.9999999999968
 30
0.0
 11
5457.0
 21
-3564.9999999999968
 31
0.0
1001
ACDBBLOCKREPETAG
1070
     1
1071
       22
1005
1251B8
  0
LINE
  5
1251B9
  8
OBJECT
 10
5477.0
 20
-3494.9999999999968
 30
0.0
 11
5477.0
 21
-3515.9999999999968
 31
0.0
1001
ACDBBLOCKREPETAG
1070
     1
1071
       23
1005
1251B9
  0
LINE
  5
1251BA
  8
OBJECT
 10
5477.0
 20
-3515.9999999999968
 30
0.0
 11
5323.0
 21
-3515.9999999999968
 31
0.0
1001
ACDBBLOCKREPETAG
1070
     1
1071
       24
1005
1251BA
  0
LINE
  5
1251BB
  8
CENTER
 10
5400.0
 20
-3479.9999999999968
 30
0.0
 11
5400.0
 21
-3714.9999999999968
 31
0.0
1001
ACDBBLOCKREPETAG
1070
     1
1071
       25
1005
1251BB
  0
LINE
  5
1251BC
  8
OBJECT
 10
5325.0
 20
-3578.9999999999968
 30
0.0
 11
5325.0
 21
-3702.9999999999968
 31
0.0
1001
ACDBBLOCKREPETAG
1070
     1
1071
       26
1005
1251BC
  0
LINE
  5
1251BD
  8
OBJECT
 10
5328.0
 20
-3515.9999999999968
 30
0.0
 11
5328.0
 21
-3578.9999999999968
 31
0.0
1001
ACDBBLOCKREPETAG
1070
     1
1071
       27
1005
1251BD
  0
LINE
  5
1251BE
  8
OBJECT
 10
5472.0
 20
-3578.9999999999968
 30
0.0
 11
5472.0
 21
-3515.9999999999968
 31
0.0
1001
ACDBBLOCKREPETAG
1070
     1
1071
       28
1005
1251BE
  0
LINE
  5
1251BF
  8
OBJECT
 10
5475.0
 20
-3578.9999999999968
 30
0.0
 11
5456.7802782663139
 21
-3578.9999999999968
 31
0.0
1001
ACDBBLOCKREPETAG
1070
     1
1071
       30
1005
1251BF
  0
LINE
  5
1251C0
  8
OBJECT
 10
5475.0
 20
-3578.9999999999968
 30
0.0
 11
5475.0
 21
-3702.9999999999968
 31
0.0
1001
ACDBBLOCKREPETAG
1070
     1
1071
       34
1005
1251C0
  0
POINT
  5
1251C1
  8
DOTS
 10
5400.0
 20
-3699.9999999999968
 30
0.0
1001
ACDBBLOCKREPETAG
1070
     1
1071
      187
1005
1251C1
  0
LINE
  5
1251C2
  8
CENTER
 10
5310.0
 20
-3627.9999999999968
 30
0.0
 11
5490.0
 21
-3627.9999999999968
 31
0.0
1001
ACDBBLOCKREPETAG
1070
     1
1071
       23
1005
1251C2
  0
CIRCLE
  5
1251C3
  8
OBJECT
 10
5400.0
 20
-3627.9999999999968
 30
0.0
 40
53.5
1001
ACDBBLOCKREPETAG
1070
     1
1071
       24
1005
1251C3
  0
CIRCLE
  5
1251C4
  8
OBJECT
 10
5400.0
 20
-3627.9999999999968
 30
0.0
 40
67.0
1001
ACDBBLOCKREPETAG
1070
     1
1071
       25
1005
1251C4
  0
ARC
  5
1251C5
  8
OBJECT
 10
5400.0
 20
-3627.9999999999968
 30
0.0
 40
75.0
 50
286.26020470824369
 51
253.73979529175631
1001
ACDBBLOCKREPETAG
1070
     1
1071
       27
1005
1251C5
  0
LINE
  5
1251C6
  8
OBJECT
 10
5379.0
 20
-3699.9999999999968
 30
0.0
 11
5421.0
 21
-3699.9999999999968
 31
0.0
1001
ACDBBLOCKREPETAG
1070
     1
1071
       28
1005
1251C6
  0
LINE
  5
1251C7
  8
OBJECT
 10
5343.2197217336861
 20
-3578.9999999999968
 30
0.0
 11
5325.0
 21
-3578.9999999999968
 31
0.0
1001
ACDBBLOCKREPETAG
1070
     1
1071
       30
1005
1251BF
  0
TEXT
  5
12CC49
  8
SLIM
 10
-0.0000000000000011
 20
282.5
 30
0.0
 40
35.0
  1
※ 100枝（4）がある場合、品名の最後に【管底】が付きます。
 41
0.9
 11
0.0
 21
300.0
 31
0.0
 73
     2
  0
LINE
  5
12EA5C
  8
SLIM
 10
4350.0
 20
-764.99999999999591
 30
0.0
 11
4350.0
 21
-1484.9999999999959
 31
0.0
  0
LINE
  5
12EA5D
  8
SLIM
 10
4454.0
 20
-1484.9999999999959
 30
0.0
 11
4454.0
 21
-764.99999999999591
 31
0.0
  0
LINE
  5
12EA5E
  8
SLIM
 10
4602.0
 20
-764.99999999999591
 30
0.0
 11
4350.0
 21
-764.99999999999591
 31
0.0
  0
LINE
  5
12EA5F
  8
SLIM
 10
4602.0
 20
-812.99999999999591
 30
0.0
 11
4350.0
 21
-812.99999999999591
 31
0.0
  0
LINE
  5
12EA61
  8
SLIM
 10
4602.0
 20
-860.99999999999579
 30
0.0
 11
4350.0
 21
-860.99999999999579
 31
0.0
  0
LINE
  5
12EA62
  8
SLIM
 10
4602.0
 20
-908.99999999999602
 30
0.0
 11
4350.0
 21
-908.99999999999602
 31
0.0
  0
LINE
  5
12EA63
  8
SLIM
 10
4602.0
 20
-956.99999999999613
 30
0.0
 11
4350.0
 21
-956.99999999999613
 31
0.0
  0
LINE
  5
12EA67
  8
SLIM
 10
4602.0
 20
-1004.999999999996
 30
0.0
 11
4350.0
 21
-1004.999999999996
 31
0.0
  0
LINE
  5
12EA69
  8
SLIM
 10
4602.0
 20
-1052.9999999999959
 30
0.0
 11
4350.0
 21
-1052.9999999999959
 31
0.0
  0
LINE
  5
12EA6B
  8
SLIM
 10
4602.0
 20
-1100.9999999999959
 30
0.0
 11
4350.0
 21
-1100.9999999999959
 31
0.0
  0
LINE
  5
12EA6D
  8
SLIM
 10
4602.0
 20
-1148.9999999999959
 30
0.0
 11
4350.0
 21
-1148.9999999999959
 31
0.0
  0
LINE
  5
12EA6F
  8
SLIM
 10
4602.0
 20
-1196.9999999999959
 30
0.0
 11
4350.0
 21
-1196.9999999999959
 31
0.0
  0
LINE
  5
12EA71
  8
SLIM
 10
4602.0
 20
-1244.9999999999959
 30
0.0
 11
4350.0
 21
-1244.9999999999959
 31
0.0
  0
LINE
  5
12EA73
  8
SLIM
 10
4602.0
 20
-1292.9999999999959
 30
0.0
 11
4350.0
 21
-1292.9999999999959
 31
0.0
  0
LINE
  5
12EA75
  8
SLIM
 10
4602.0
 20
-1340.9999999999959
 30
0.0
 11
4350.0
 21
-1340.9999999999959
 31
0.0
  0
LINE
  5
12EA77
  8
SLIM
 10
4602.0
 20
-1388.9999999999959
 30
0.0
 11
4350.0
 21
-1388.9999999999959
 31
0.0
  0
LINE
  5
12EA79
  8
SLIM
 10
4602.0
 20
-1436.9999999999959
 30
0.0
 11
4350.0
 21
-1436.9999999999959
 31
0.0
  0
LINE
  5
12EA7B
  8
SLIM
 10
4602.0
 20
-1484.9999999999959
 30
0.0
 11
4350.0
 21
-1484.9999999999959
 31
0.0
  0
LINE
  5
12EA7E
  8
SLIM
 10
4602.0
 20
-764.99999999999591
 30
0.0
 11
4602.0
 21
-1484.9999999999959
 31
0.0
  0
LINE
  5
12EC5E
  8
SLIM
 10
3914.9999999999941
 20
-759.47385309434696
 30
0.0
 11
3919.47385309434
 21
-754.99999999999955
 31
0.0
1001
GRADIENTCOLOR1ACI
1070
     5
1001
GRADIENTCOLOR2ACI
1070
     2
1001
ACAD
1010
0.0
1020
0.0
1030
0.0
  0
LINE
  5
12EC5F
  8
SLIM
 10
3914.9999999999941
 20
-777.43436533648514
 30
0.0
 11
3937.434365336479
 21
-754.99999999999955
 31
0.0
1001
GRADIENTCOLOR1ACI
1070
     5
1001
GRADIENTCOLOR2ACI
1070
     2
1001
ACAD
1010
0.0
1020
0.0
1030
0.0
  0
LINE
  5
12EC60
  8
SLIM
 10
3914.9999999999941
 20
-795.39487757862332
 30
0.0
 11
3955.394877578618
 21
-754.99999999999955
 31
0.0
1001
GRADIENTCOLOR1ACI
1070
     5
1001
GRADIENTCOLOR2ACI
1070
     2
1001
ACAD
1010
0.0
1020
0.0
1030
0.0
  0
LINE
  5
12EC61
  8
SLIM
 10
3914.9999999999941
 20
-813.3553898207615
 30
0.0
 11
3973.3553898207551
 21
-754.99999999999955
 31
0.0
1001
GRADIENTCOLOR1ACI
1070
     5
1001
GRADIENTCOLOR2ACI
1070
     2
1001
ACAD
1010
0.0
1020
0.0
1030
0.0
  0
LINE
  5
12EC62
  8
SLIM
 10
3914.9999999999941
 20
-831.31590206289945
 30
0.0
 11
3991.3159020628941
 21
-754.99999999999955
 31
0.0
1001
GRADIENTCOLOR1ACI
1070
     5
1001
GRADIENTCOLOR2ACI
1070
     2
1001
ACAD
1010
0.0
1020
0.0
1030
0.0
  0
LINE
  5
12EC63
  8
SLIM
 10
3914.9999999999941
 20
-849.27641430503763
 30
0.0
 11
4009.2764143050308
 21
-754.99999999999955
 31
0.0
1001
GRADIENTCOLOR1ACI
1070
     5
1001
GRADIENTCOLOR2ACI
1070
     2
1001
ACAD
1010
0.0
1020
0.0
1030
0.0
  0
LINE
  5
12EC64
  8
SLIM
 10
3914.9999999999941
 20
-867.23692654717593
 30
0.0
 11
4027.2369265471689
 21
-754.99999999999955
 31
0.0
1001
GRADIENTCOLOR1ACI
1070
     5
1001
GRADIENTCOLOR2ACI
1070
     2
1001
ACAD
1010
0.0
1020
0.0
1030
0.0
  0
LINE
  5
12EC65
  8
SLIM
 10
3914.9999999999941
 20
-885.19743878931411
 30
0.0
 11
4045.1974387893069
 21
-754.99999999999955
 31
0.0
1001
GRADIENTCOLOR1ACI
1070
     5
1001
GRADIENTCOLOR2ACI
1070
     2
1001
ACAD
1010
0.0
1020
0.0
1030
0.0
  0
LINE
  5
12EC66
  8
SLIM
 10
3914.9999999999941
 20
-903.15795103145206
 30
0.0
 11
4063.157951031445
 21
-754.99999999999955
 31
0.0
1001
GRADIENTCOLOR1ACI
1070
     5
1001
GRADIENTCOLOR2ACI
1070
     2
1001
ACAD
1010
0.0
1020
0.0
1030
0.0
  0
LINE
  5
12EC67
  8
SLIM
 10
3914.9999999999941
 20
-921.11846327359035
 30
0.0
 11
4081.1184632735849
 21
-754.99999999999955
 31
0.0
1001
GRADIENTCOLOR1ACI
1070
     5
1001
GRADIENTCOLOR2ACI
1070
     2
1001
ACAD
1010
0.0
1020
0.0
1030
0.0
  0
LINE
  5
12EC68
  8
SLIM
 10
3914.9999999999941
 20
-939.07897551572853
 30
0.0
 11
4085.0000000000068
 21
-769.07897551571546
 31
0.0
1001
GRADIENTCOLOR1ACI
1070
     5
1001
GRADIENTCOLOR2ACI
1070
     2
1001
ACAD
1010
0.0
1020
0.0
1030
0.0
  0
LINE
  5
12EC69
  8
SLIM
 10
3914.999999999995
 20
-957.03948775786671
 30
0.0
 11
4085.0000000000068
 21
-787.03948775785432
 31
0.0
1001
GRADIENTCOLOR1ACI
1070
     5
1001
GRADIENTCOLOR2ACI
1070
     2
1001
ACAD
1010
0.0
1020
0.0
1030
0.0
  0
LINE
  5
12EC6A
  8
SLIM
 10
3914.999999999995
 20
-975.00000000000489
 30
0.0
 11
4085.0000000000068
 21
-804.99999999999272
 31
0.0
1001
GRADIENTCOLOR1ACI
1070
     5
1001
GRADIENTCOLOR2ACI
1070
     2
1001
ACAD
1010
0.0
1020
0.0
1030
0.0
  0
LINE
  5
12EC6B
  8
SLIM
 10
3914.999999999995
 20
-992.96051224214295
 30
0.0
 11
4085.0000000000068
 21
-822.96051224213124
 31
0.0
1001
GRADIENTCOLOR1ACI
1070
     5
1001
GRADIENTCOLOR2ACI
1070
     2
1001
ACAD
1010
0.0
1020
0.0
1030
0.0
  0
LINE
  5
12EC6C
  8
SLIM
 10
3914.999999999995
 20
-1010.921024484281
 30
0.0
 11
4085.0000000000068
 21
-840.92102448426954
 31
0.0
1001
GRADIENTCOLOR1ACI
1070
     5
1001
GRADIENTCOLOR2ACI
1070
     2
1001
ACAD
1010
0.0
1020
0.0
1030
0.0
  0
LINE
  5
12EC6D
  8
SLIM
 10
3914.999999999995
 20
-1028.881536726419
 30
0.0
 11
4085.0000000000068
 21
-858.88153672640794
 31
0.0
1001
GRADIENTCOLOR1ACI
1070
     5
1001
GRADIENTCOLOR2ACI
1070
     2
1001
ACAD
1010
0.0
1020
0.0
1030
0.0
  0
LINE
  5
12EC6E
  8
SLIM
 10
3914.999999999995
 20
-1046.842048968557
 30
0.0
 11
4085.0000000000068
 21
-876.84204896854635
 31
0.0
1001
GRADIENTCOLOR1ACI
1070
     5
1001
GRADIENTCOLOR2ACI
1070
     2
1001
ACAD
1010
0.0
1020
0.0
1030
0.0
  0
LINE
  5
12EC6F
  8
SLIM
 10
3914.999999999995
 20
-1064.8025612106951
 30
0.0
 11
4085.0000000000059
 21
-894.80256121068476
 31
0.0
1001
GRADIENTCOLOR1ACI
1070
     5
1001
GRADIENTCOLOR2ACI
1070
     2
1001
ACAD
1010
0.0
1020
0.0
1030
0.0
  0
LINE
  5
12EC70
  8
SLIM
 10
3914.999999999995
 20
-1082.7630734528341
 30
0.0
 11
4085.0000000000059
 21
-912.76307345282328
 31
0.0
1001
GRADIENTCOLOR1ACI
1070
     5
1001
GRADIENTCOLOR2ACI
1070
     2
1001
ACAD
1010
0.0
1020
0.0
1030
0.0
  0
LINE
  5
12EC71
  8
SLIM
 10
3914.999999999995
 20
-1100.7235856949719
 30
0.0
 11
4085.0000000000059
 21
-930.72358569496168
 31
0.0
1001
GRADIENTCOLOR1ACI
1070
     5
1001
GRADIENTCOLOR2ACI
1070
     2
1001
ACAD
1010
0.0
1020
0.0
1030
0.0
  0
LINE
  5
12EC72
  8
SLIM
 10
3914.9999999999968
 20
-1118.68409793711
 30
0.0
 11
4085.0000000000059
 21
-948.6840979371002
 31
0.0
1001
GRADIENTCOLOR1ACI
1070
     5
1001
GRADIENTCOLOR2ACI
1070
     2
1001
ACAD
1010
0.0
1020
0.0
1030
0.0
  0
LINE
  5
12EC73
  8
SLIM
 10
3914.9999999999968
 20
-1136.644610179248
 30
0.0
 11
4085.0000000000059
 21
-966.64461017923838
 31
0.0
1001
GRADIENTCOLOR1ACI
1070
     5
1001
GRADIENTCOLOR2ACI
1070
     2
1001
ACAD
1010
0.0
1020
0.0
1030
0.0
  0
LINE
  5
12EC74
  8
SLIM
 10
3914.9999999999968
 20
-1154.6051224213861
 30
0.0
 11
4085.0000000000059
 21
-984.60512242137725
 31
0.0
1001
GRADIENTCOLOR1ACI
1070
     5
1001
GRADIENTCOLOR2ACI
1070
     2
1001
ACAD
1010
0.0
1020
0.0
1030
0.0
  0
LINE
  5
12EC75
  8
SLIM
 10
3914.9999999999968
 20
-1172.565634663524
 30
0.0
 11
4085.0000000000059
 21
-1002.565634663516
 31
0.0
1001
GRADIENTCOLOR1ACI
1070
     5
1001
GRADIENTCOLOR2ACI
1070
     2
1001
ACAD
1010
0.0
1020
0.0
1030
0.0
  0
LINE
  5
12EC76
  8
SLIM
 10
3914.9999999999968
 20
-1190.526146905662
 30
0.0
 11
4085.000000000005
 21
-1020.5261469056539
 31
0.0
1001
GRADIENTCOLOR1ACI
1070
     5
1001
GRADIENTCOLOR2ACI
1070
     2
1001
ACAD
1010
0.0
1020
0.0
1030
0.0
  0
LINE
  5
12EC77
  8
SLIM
 10
3915.3182312960889
 20
-1208.1684278517071
 30
0.0
 11
4085.000000000005
 21
-1038.486659147793
 31
0.0
1001
GRADIENTCOLOR1ACI
1070
     5
1001
GRADIENTCOLOR2ACI
1070
     2
1001
ACAD
1010
0.0
1020
0.0
1030
0.0
  0
LINE
  5
12EC78
  8
SLIM
 10
3917.3138437674402
 20
-1224.1333276224959
 30
0.0
 11
4085.000000000005
 21
-1056.4471713899311
 31
0.0
1001
GRADIENTCOLOR1ACI
1070
     5
1001
GRADIENTCOLOR2ACI
1070
     2
1001
ACAD
1010
0.0
1020
0.0
1030
0.0
  0
LINE
  5
12EC79
  8
SLIM
 10
3919.3094562387892
 20
-1240.0982273932859
 30
0.0
 11
4085.0000000000041
 21
-1074.4076836320689
 31
0.0
1001
GRADIENTCOLOR1ACI
1070
     5
1001
GRADIENTCOLOR2ACI
1070
     2
1001
ACAD
1010
0.0
1020
0.0
1030
0.0
  0
LINE
  5
12EC7A
  8
SLIM
 10
3930.0
 20
-1247.368195874212
 30
0.0
 11
3932.368195874215
 21
-1244.9999999999991
 31
0.0
1001
GRADIENTCOLOR1ACI
1070
     5
1001
GRADIENTCOLOR2ACI
1070
     2
1001
ACAD
1010
0.0
1020
0.0
1030
0.0
  0
LINE
  5
12EC7B
  8
SLIM
 10
3932.368195874215
 20
-1244.9999999999991
 30
0.0
 11
4085.0000000000041
 21
-1092.3681958742079
 31
0.0
1001
GRADIENTCOLOR1ACI
1070
     5
1001
GRADIENTCOLOR2ACI
1070
     2
1001
ACAD
1010
0.0
1020
0.0
1030
0.0
  0
LINE
  5
12EC7C
  8
SLIM
 10
3930.3287081163512
 20
-1264.9999999999991
 30
0.0
 11
3950.3287081163521
 21
-1244.9999999999991
 31
0.0
1001
GRADIENTCOLOR1ACI
1070
     5
1001
GRADIENTCOLOR2ACI
1070
     2
1001
ACAD
1010
0.0
1020
0.0
1030
0.0
  0
LINE
  5
12EC7D
  8
SLIM
 10
3950.3287081163521
 20
-1244.9999999999991
 30
0.0
 11
4085.0000000000041
 21
-1110.328708116346
 31
0.0
1001
GRADIENTCOLOR1ACI
1070
     5
1001
GRADIENTCOLOR2ACI
1070
     2
1001
ACAD
1010
0.0
1020
0.0
1030
0.0
  0
LINE
  5
12EC7E
  8
SLIM
 10
3948.2892203584888
 20
-1264.9999999999991
 30
0.0
 11
3968.2892203584888
 21
-1244.9999999999991
 31
0.0
1001
GRADIENTCOLOR1ACI
1070
     5
1001
GRADIENTCOLOR2ACI
1070
     2
1001
ACAD
1010
0.0
1020
0.0
1030
0.0
  0
LINE
  5
12EC7F
  8
SLIM
 10
3968.2892203584888
 20
-1244.9999999999991
 30
0.0
 11
4085.0000000000041
 21
-1128.289220358484
 31
0.0
1001
GRADIENTCOLOR1ACI
1070
     5
1001
GRADIENTCOLOR2ACI
1070
     2
1001
ACAD
1010
0.0
1020
0.0
1030
0.0
  0
LINE
  5
12EC80
  8
SLIM
 10
3966.2497326006278
 20
-1264.9999999999991
 30
0.0
 11
3986.2497326006278
 21
-1244.9999999999991
 31
0.0
1001
GRADIENTCOLOR1ACI
1070
     5
1001
GRADIENTCOLOR2ACI
1070
     2
1001
ACAD
1010
0.0
1020
0.0
1030
0.0
  0
LINE
  5
12EC81
  8
SLIM
 10
3986.2497326006278
 20
-1244.9999999999991
 30
0.0
 11
4085.0000000000041
 21
-1146.249732600623
 31
0.0
1001
GRADIENTCOLOR1ACI
1070
     5
1001
GRADIENTCOLOR2ACI
1070
     2
1001
ACAD
1010
0.0
1020
0.0
1030
0.0
  0
LINE
  5
12EC82
  8
SLIM
 10
3984.2102448427672
 20
-1264.9999999999991
 30
0.0
 11
4004.2102448427659
 21
-1244.9999999999991
 31
0.0
1001
GRADIENTCOLOR1ACI
1070
     5
1001
GRADIENTCOLOR2ACI
1070
     2
1001
ACAD
1010
0.0
1020
0.0
1030
0.0
  0
LINE
  5
12EC83
  8
SLIM
 10
4004.2102448427659
 20
-1244.9999999999991
 30
0.0
 11
4085.0000000000041
 21
-1164.210244842762
 31
0.0
1001
GRADIENTCOLOR1ACI
1070
     5
1001
GRADIENTCOLOR2ACI
1070
     2
1001
ACAD
1010
0.0
1020
0.0
1030
0.0
  0
LINE
  5
12EC84
  8
SLIM
 10
4002.1707570849039
 20
-1264.9999999999991
 30
0.0
 11
4022.1707570849048
 21
-1244.9999999999991
 31
0.0
1001
GRADIENTCOLOR1ACI
1070
     5
1001
GRADIENTCOLOR2ACI
1070
     2
1001
ACAD
1010
0.0
1020
0.0
1030
0.0
  0
LINE
  5
12EC85
  8
SLIM
 10
4022.1707570849048
 20
-1244.9999999999991
 30
0.0
 11
4085.0000000000032
 21
-1182.1707570849001
 31
0.0
1001
GRADIENTCOLOR1ACI
1070
     5
1001
GRADIENTCOLOR2ACI
1070
     2
1001
ACAD
1010
0.0
1020
0.0
1030
0.0
  0
LINE
  5
12EC86
  8
SLIM
 10
4020.131269327042
 20
-1264.9999999999991
 30
0.0
 11
4040.1312693270429
 21
-1244.9999999999991
 31
0.0
1001
GRADIENTCOLOR1ACI
1070
     5
1001
GRADIENTCOLOR2ACI
1070
     2
1001
ACAD
1010
0.0
1020
0.0
1030
0.0
  0
LINE
  5
12EC87
  8
SLIM
 10
4040.1312693270429
 20
-1244.9999999999991
 30
0.0
 11
4085.0000000000032
 21
-1200.1312693270379
 31
0.0
1001
GRADIENTCOLOR1ACI
1070
     5
1001
GRADIENTCOLOR2ACI
1070
     2
1001
ACAD
1010
0.0
1020
0.0
1030
0.0
  0
LINE
  5
12EC88
  8
SLIM
 10
4038.091781569181
 20
-1264.9999999999991
 30
0.0
 11
4058.091781569181
 21
-1244.9999999999991
 31
0.0
1001
GRADIENTCOLOR1ACI
1070
     5
1001
GRADIENTCOLOR2ACI
1070
     2
1001
ACAD
1010
0.0
1020
0.0
1030
0.0
  0
LINE
  5
12EC89
  8
SLIM
 10
4058.091781569181
 20
-1244.9999999999991
 30
0.0
 11
4083.2186851305419
 21
-1219.873096438637
 31
0.0
1001
GRADIENTCOLOR1ACI
1070
     5
1001
GRADIENTCOLOR2ACI
1070
     2
1001
ACAD
1010
0.0
1020
0.0
1030
0.0
  0
LINE
  5
12EC8A
  8
SLIM
 10
4056.0522938113181
 20
-1264.9999999999991
 30
0.0
 11
4070.0
 21
-1251.052293811319
 31
0.0
1001
GRADIENTCOLOR1ACI
1070
     5
1001
GRADIENTCOLOR2ACI
1070
     2
1001
ACAD
1010
0.0
1020
0.0
1030
0.0
  0
LINE
  5
12EC8B
  8
SLIM
 10
4076.052293811319
 20
-1244.9999999999991
 30
0.0
 11
4080.6528976673799
 21
-1240.3993961439389
 31
0.0
1001
GRADIENTCOLOR1ACI
1070
     5
1001
GRADIENTCOLOR2ACI
1070
     2
1001
ACAD
1010
0.0
1020
0.0
1030
0.0
  0
LINE
  5
12EC8C
  8
OBJECT
 10
4085.0000000000068
 20
-754.99999999999955
 30
0.0
 11
4085.0000000000032
 21
-1205.6225774829579
 31
0.0
1001
ACDBBLOCKREPETAG
1070
     1
1071
        2
1005
0
  0
LINE
  5
12EC8D
  8
OBJECT
 10
4085.0000000000068
 20
-754.99999999999955
 30
0.0
 11
3914.9999999999941
 21
-754.99999999999955
 31
0.0
1001
ACDBBLOCKREPETAG
1070
     1
1071
        3
1005
0
  0
LINE
  5
12EC8E
  8
OBJECT
 10
3919.9221778146289
 20
-1244.9999999999991
 30
0.0
 11
4080.077822185372
 21
-1244.9999999999991
 31
0.0
1001
ACDBBLOCKREPETAG
1070
     1
1071
        3
1005
0
  0
LINE
  5
12EC8F
  8
OBJECT
 10
4080.077822185372
 20
-1244.9999999999991
 30
0.0
 11
4085.0000000000032
 21
-1205.6225774829579
 31
0.0
1001
ACDBBLOCKREPETAG
1070
     1
1071
       11
1005
0
  0
LINE
  5
12EC90
  8
OBJECT
 10
3914.9999999999941
 20
-754.99999999999955
 30
0.0
 11
3914.9999999999968
 21
-1205.6225774829579
 31
0.0
1001
ACDBBLOCKREPETAG
1070
     1
1071
        2
1005
0
  0
LINE
  5
12EC91
  8
OBJECT
 10
3919.9221778146289
 20
-1244.9999999999991
 30
0.0
 11
3914.9999999999968
 21
-1205.6225774829579
 31
0.0
1001
ACDBBLOCKREPETAG
1070
     1
1071
       11
1005
0
  0
LINE
  5
12EC92
  8
OBJECT
 10
3930.0
 20
-1244.9999999999991
 30
0.0
 11
3930.0
 21
-1264.9999999999991
 31
0.0
1001
ACDBBLOCKREPETAG
1070
     1
1071
       10
1005
0
  0
LINE
  5
12EC93
  8
OBJECT
 10
3930.0
 20
-1264.9999999999991
 30
0.0
 11
4070.0
 21
-1264.9999999999991
 31
0.0
1001
ACDBBLOCKREPETAG
1070
     1
1071
       11
1005
0
  0
LINE
  5
12EC94
  8
OBJECT
 10
4070.0
 20
-1264.9999999999991
 30
0.0
 11
4070.0
 21
-1244.9999999999991
 31
0.0
1001
ACDBBLOCKREPETAG
1070
     1
1071
       12
1005
0
  0
TEXT
  5
12EC95
  8
SLIM
 10
3554.6000000000008
 20
-1820.666666666664
 30
0.0
 40
28.0
  1
※ 対応スラブ厚　180～（m-10）
 41
0.75
  0
TEXT
  5
12EC96
  8
SLIM
 10
3554.6000000000008
 20
-1867.333333333331
 30
0.0
 40
28.0
  1
※ 足切り可能寸法（最大）　620-m（コンパクトＬベンド使用なら+10）
 41
0.75
  0
TEXT
  5
12EC97
  8
SLIM
 10
3598.9000000000001
 20
-1960.666666666664
 30
0.0
 40
28.0
  1
国土交通大臣認定・（一財）日本消防設備安全センター性能評定取得品
 41
0.75
  0
TEXT
  5
12EC98
  8
SLIM
 10
3631.1000000000022
 20
-2007.333333333331
 30
0.0
 40
28.0
  1
注）ご採用にあたり、認定書及び評定書の内容をご確認ください。
 41
0.75
  0
LINE
  5
12EC99
  8
OBJECT
 10
3925.0
 20
-889.99999999999955
 30
0.0
 11
3925.0
 21
-1162.9999999999991
 31
0.0
1001
ACDBBLOCKREPETAG
1070
     1
1071
        1
1005
12EC99
  0
LINE
  5
12EC9A
  8
OBJECT
 10
4075.0
 20
-889.99999999999375
 30
0.0
 11
4075.0
 21
-1162.9999999999991
 31
0.0
1001
ACDBBLOCKREPETAG
1070
     1
1071
        3
1005
12EC9A
  0
LINE
  5
12EC9B
  8
CENTER
 10
4000.0
 20
-889.99999999999955
 30
0.0
 11
4000.0
 21
-1174.9999999999991
 31
0.0
1001
ACDBBLOCKREPETAG
1070
     1
1071
        6
1005
12EC9B
  0
LINE
  5
12EC9C
  8
OBJECT
 10
3920.0
 20
-1174.9999999999991
 30
0.0
 11
4080.0
 21
-1174.9999999999991
 31
0.0
1001
ACDBBLOCKREPETAG
1070
     1
1071
        7
1005
12EC9C
  0
LINE
  5
12EC9D
  8
OBJECT
 10
3920.0
 20
-1162.9999999999991
 30
0.0
 11
4080.0
 21
-1162.9999999999991
 31
0.0
1001
ACDBBLOCKREPETAG
1070
     1
1071
        8
1005
12EC9D
  0
LINE
  5
12EC9E
  8
OBJECT
 10
3920.0
 20
-1162.9999999999991
 30
0.0
 11
3920.0
 21
-1174.9999999999991
 31
0.0
1001
ACDBBLOCKREPETAG
1070
     1
1071
        9
1005
12EC9E
  0
LINE
  5
12EC9F
  8
OBJECT
 10
4080.0
 20
-1162.9999999999991
 30
0.0
 11
4080.0
 21
-1174.9999999999991
 31
0.0
1001
ACDBBLOCKREPETAG
1070
     1
1071
       10
1005
12EC9F
  0
LINE
  5
12ECA0
  8
OBJECT
 10
1925.0
 20
-889.99999999999955
 30
0.0
 11
1925.0
 21
-1162.9999999999991
 31
0.0
1001
ACDBBLOCKREPETAG
1070
     1
1071
        1
1005
12ECA0
  0
LINE
  5
12ECA1
  8
OBJECT
 10
2075.0
 20
-889.99999999999375
 30
0.0
 11
2075.0
 21
-1162.9999999999991
 31
0.0
1001
ACDBBLOCKREPETAG
1070
     1
1071
        3
1005
12ECA1
  0
LINE
  5
12ECA2
  8
CENTER
 10
2000.0
 20
-889.99999999999955
 30
0.0
 11
2000.0
 21
-1174.9999999999991
 31
0.0
1001
ACDBBLOCKREPETAG
1070
     1
1071
        6
1005
12ECA2
  0
LINE
  5
12ECA3
  8
OBJECT
 10
1920.0
 20
-1174.9999999999991
 30
0.0
 11
2080.0
 21
-1174.9999999999991
 31
0.0
1001
ACDBBLOCKREPETAG
1070
     1
1071
        7
1005
12ECA3
  0
LINE
  5
12ECA4
  8
OBJECT
 10
1920.0
 20
-1162.9999999999991
 30
0.0
 11
2080.0
 21
-1162.9999999999991
 31
0.0
1001
ACDBBLOCKREPETAG
1070
     1
1071
        8
1005
12ECA4
  0
LINE
  5
12ECA5
  8
OBJECT
 10
1920.0
 20
-1162.9999999999991
 30
0.0
 11
1920.0
 21
-1174.9999999999991
 31
0.0
1001
ACDBBLOCKREPETAG
1070
     1
1071
        9
1005
12ECA5
  0
LINE
  5
12ECA6
  8
OBJECT
 10
2080.0
 20
-1162.9999999999991
 30
0.0
 11
2080.0
 21
-1174.9999999999991
 31
0.0
1001
ACDBBLOCKREPETAG
1070
     1
1071
       10
1005
12ECA6
  0
TEXT
  5
12ECA7
  8
SLIM
 10
4471.7714285714283
 20
-1472.9999999999959
 30
0.0
 40
24.0
  1
180～610
 41
0.75
  0
TEXT
  5
12ECA8
  8
SLIM
 10
4470.057142857142
 20
-1424.9999999999959
 30
0.0
 40
24.0
  1
180～600
 41
0.75
  0
TEXT
  5
12ECA9
  8
SLIM
 10
4470.057142857142
 20
-1376.9999999999959
 30
0.0
 40
24.0
  1
180～590
 41
0.75
  0
TEXT
  5
12ECAA
  8
SLIM
 10
4470.057142857142
 20
-1328.9999999999959
 30
0.0
 40
24.0
  1
180～580
 41
0.75
  0
TEXT
  5
12ECAB
  8
SLIM
 10
4470.057142857142
 20
-1280.9999999999959
 30
0.0
 40
24.0
  1
180～570
 41
0.75
  0
TEXT
  5
12ECAC
  8
SLIM
 10
4470.057142857142
 20
-1232.9999999999959
 30
0.0
 40
24.0
  1
180～560
 41
0.75
  0
TEXT
  5
12ECAD
  8
SLIM
 10
4470.057142857142
 20
-1184.9999999999959
 30
0.0
 40
24.0
  1
180～550
 41
0.75
  0
TEXT
  5
12ECAE
  8
SLIM
 10
4470.057142857142
 20
-1136.9999999999959
 30
0.0
 40
24.0
  1
180～540
 41
0.75
  0
TEXT
  5
12ECAF
  8
SLIM
 10
4470.057142857142
 20
-1088.9999999999959
 30
0.0
 40
24.0
  1
180～530
 41
0.75
  0
TEXT
  5
12ECB0
  8
SLIM
 10
4470.057142857142
 20
-1040.9999999999959
 30
0.0
 40
24.0
  1
180～520
 41
0.75
  0
TEXT
  5
12ECB1
  8
SLIM
 10
4471.7714285714283
 20
-992.99999999999545
 30
0.0
 40
24.0
  1
180～510
 41
0.75
  0
TEXT
  5
12ECB2
  8
SLIM
 10
4470.057142857142
 20
-944.99999999999557
 30
0.0
 40
24.0
  1
180～500
 41
0.75
  0
TEXT
  5
12ECB3
  8
SLIM
 10
4470.057142857142
 20
-896.99999999999591
 30
0.0
 40
24.0
  1
180～490
 41
0.75
  0
TEXT
  5
12ECB4
  8
SLIM
 10
4470.057142857142
 20
-848.99999999999591
 30
0.0
 40
24.0
  1
180～480
 41
0.75
  0
TEXT
  5
12ECB5
  8
SLIM
 10
4465.6000000000013
 20
-800.99999999999579
 30
0.0
 40
24.0
  1
対応スラブ厚
 41
0.75
  0
TEXT
  5
12ECB6
  8
SLIM
 10
4396.4571428571408
 20
-1530.9999999999959
 30
0.0
 40
24.0
  1
標準：m=490
 41
0.75
  0
TEXT
  5
12ECB7
  8
SLIM
 10
4378.8571428571431
 20
-1472.9999999999959
 30
0.0
 40
24.0
  1
620
 41
0.75
  0
TEXT
  5
12ECB8
  8
SLIM
 10
4380.5714285714284
 20
-1424.9999999999959
 30
0.0
 40
24.0
  1
610
 41
0.75
  0
TEXT
  5
12ECB9
  8
SLIM
 10
4378.8571428571431
 20
-1376.9999999999959
 30
0.0
 40
24.0
  1
600
 41
0.75
  0
TEXT
  5
12ECBA
  8
SLIM
 10
4378.8571428571431
 20
-1328.9999999999959
 30
0.0
 40
24.0
  1
590
 41
0.75
  0
TEXT
  5
12ECBB
  8
SLIM
 10
4378.8571428571431
 20
-1280.9999999999959
 30
0.0
 40
24.0
  1
580
 41
0.75
  0
TEXT
  5
12ECBC
  8
SLIM
 10
4378.8571428571431
 20
-1232.9999999999959
 30
0.0
 40
24.0
  1
570
 41
0.75
  0
TEXT
  5
12ECBD
  8
SLIM
 10
4378.8571428571431
 20
-1184.9999999999959
 30
0.0
 40
24.0
  1
560
 41
0.75
  0
TEXT
  5
12ECBE
  8
SLIM
 10
4378.8571428571431
 20
-1136.9999999999959
 30
0.0
 40
24.0
  1
550
 41
0.75
  0
TEXT
  5
12ECBF
  8
SLIM
 10
4378.8571428571431
 20
-1088.9999999999959
 30
0.0
 40
24.0
  1
540
 41
0.75
  0
TEXT
  5
12ECC0
  8
SLIM
 10
4378.8571428571431
 20
-1040.9999999999959
 30
0.0
 40
24.0
  1
530
 41
0.75
  0
TEXT
  5
12ECC1
  8
SLIM
 10
4378.8571428571431
 20
-992.99999999999545
 30
0.0
 40
24.0
  1
520
 41
0.75
  0
TEXT
  5
12ECC2
  8
SLIM
 10
4380.5714285714284
 20
-944.99999999999557
 30
0.0
 40
24.0
  1
510
 41
0.75
  0
TEXT
  5
12ECC3
  8
SLIM
 10
4378.8571428571431
 20
-896.99999999999591
 30
0.0
 40
24.0
  1
500
 41
0.75
  0
TEXT
  5
12ECC4
  8
SLIM
 10
4369.9428571428571
 20
-800.99999999999579
 30
0.0
 40
24.0
  1
m寸法
 41
0.75
  0
TEXT
  5
12ECC5
  8
SLIM
 10
4378.8571428571431
 20
-848.99999999999591
 30
0.0
 40
24.0
  1
490
 41
0.75
  0
LINE
  5
12ECC6
  8
DIM
 10
3904.9999999999941
 20
-755.0
 30
0.0
 11
3839.6616440113221
 21
-754.99999999999966
 31
0.0
  0
LINE
  5
12ECC7
  8
DIM
 10
3910.0
 20
-1244.9999999999991
 30
0.0
 11
3839.6616440113221
 21
-1244.9999999999991
 31
0.0
  0
LINE
  5
12ECC8
  8
DIM
 10
3849.6616440113221
 20
-775.0
 30
0.0
 11
3849.6616440113221
 21
-1224.9999999999991
 31
0.0
  0
INSERT
  5
12ECC9
  8
DIM
  2
_OPEN30
 10
3849.6616440113221
 20
-755.0
 30
0.0
 41
20.0
 42
20.0
 43
20.0
 50
90.0
  0
INSERT
  5
12ECCA
  8
DIM
  2
_OPEN30
 10
3849.6616440113221
 20
-1244.9999999999991
 30
0.0
 41
20.0
 42
20.0
 43
20.0
 50
270.0
  0
INSERT
  5
12ECCB
  8
OBJECT
  2
*U3
 10
0.0
 20
0.0
 30
0.0
  0
TEXT
  5
12ECCC
  8
SLIM
 10
1850.0
 20
532.5
 30
0.0
 40
75.0
  1
側面図の代表機種
 41
0.75
  0
CIRCLE
  5
12ECCD
  8
OBJECT
 10
5000.0
 20
-3294.9999999999959
 30
0.0
 40
53.5
1001
ACDBBLOCKREPETAG
1070
     1
1071
      344
1005
12ECCD
  0
LINE
  5
12ECCE
  8
CENTER
 10
5080.0
 20
-3294.9999999999959
 30
0.0
 11
4905.0
 21
-3294.9999999999959
 31
0.0
1001
ACDBBLOCKREPETAG
1070
     1
1071
       14
1005
12ECCE
  0
LINE
  5
12ECCF
  8
CENTER
 10
5000.0
 20
-3389.9999999999968
 30
0.0
 11
5000.0
 21
-3199.9999999999959
 31
0.0
1001
ACDBBLOCKREPETAG
1070
     1
1071
       15
1005
12ECCF
  0
CIRCLE
  5
12ECD0
  8
OBJECT
 10
5000.0
 20
-3294.9999999999959
 30
0.0
 40
70.0
1001
ACDBBLOCKREPETAG
1070
     1
1071
       16
1005
12ECD0
  0
CIRCLE
  5
12ECD1
  8
OBJECT
 10
5000.0
 20
-3294.9999999999959
 30
0.0
 40
77.0
1001
ACDBBLOCKREPETAG
1070
     1
1071
       17
1005
12ECD1
  0
ARC
  5
12ECD2
  8
OBJECT
 10
5000.0
 20
-3294.9999999999959
 30
0.0
 40
80.0
 50
50.805032573882329
 51
309.19496742611773
1001
ACDBBLOCKREPETAG
1070
     1
1071
       18
1005
12ECD2
  0
LINE
  5
12ECD3
  8
OBJECT
 10
5045.6618002273253
 20
-3232.9999999999959
 30
0.0
 11
5080.0
 21
-3232.9999999999959
 31
0.0
1001
ACDBBLOCKREPETAG
1070
     1
1071
       19
1005
12ECD3
  0
LINE
  5
12ECD4
  8
OBJECT
 10
5045.6618002273253
 20
-3356.9999999999959
 30
0.0
 11
5080.0
 21
-3356.9999999999959
 31
0.0
1001
ACDBBLOCKREPETAG
1070
     1
1071
       20
1005
12ECD4
  0
POINT
  5
12ECD5
  8
DOTS
 10
5000.0
 20
-3294.9999999999959
 30
0.0
1001
ACDBBLOCKREPETAG
1070
     1
1071
       21
1005
12ECD5
  0
CIRCLE
  5
12ECD6
  8
OBJECT
 10
4000.0
 20
-3294.9999999999959
 30
0.0
 40
53.5
1001
ACDBBLOCKREPETAG
1070
     1
1071
      344
1005
12ECD6
  0
LINE
  5
12ECD7
  8
CENTER
 10
4080.0
 20
-3294.9999999999959
 30
0.0
 11
3905.0
 21
-3294.9999999999959
 31
0.0
1001
ACDBBLOCKREPETAG
1070
     1
1071
       14
1005
12ECD7
  0
LINE
  5
12ECD8
  8
CENTER
 10
4000.0
 20
-3389.9999999999968
 30
0.0
 11
4000.0
 21
-3199.9999999999959
 31
0.0
1001
ACDBBLOCKREPETAG
1070
     1
1071
       15
1005
12ECD8
  0
CIRCLE
  5
12ECD9
  8
OBJECT
 10
4000.0
 20
-3294.9999999999959
 30
0.0
 40
70.0
1001
ACDBBLOCKREPETAG
1070
     1
1071
       16
1005
12ECD9
  0
CIRCLE
  5
12ECDA
  8
OBJECT
 10
4000.0
 20
-3294.9999999999959
 30
0.0
 40
77.0
1001
ACDBBLOCKREPETAG
1070
     1
1071
       17
1005
12ECDA
  0
ARC
  5
12ECDB
  8
OBJECT
 10
4000.0
 20
-3294.9999999999959
 30
0.0
 40
80.0
 50
50.805032573862128
 51
309.19496742613791
1001
ACDBBLOCKREPETAG
1070
     1
1071
       18
1005
12ECDB
  0
LINE
  5
12ECDC
  8
OBJECT
 10
4045.661800227324
 20
-3232.9999999999959
 30
0.0
 11
4080.0
 21
-3232.9999999999959
 31
0.0
1001
ACDBBLOCKREPETAG
1070
     1
1071
       19
1005
12ECDC
  0
LINE
  5
12ECDD
  8
OBJECT
 10
4045.661800227324
 20
-3356.9999999999959
 30
0.0
 11
4080.0
 21
-3356.9999999999959
 31
0.0
1001
ACDBBLOCKREPETAG
1070
     1
1071
       20
1005
12ECDD
  0
POINT
  5
12ECDE
  8
DOTS
 10
4000.0
 20
-3294.9999999999959
 30
0.0
1001
ACDBBLOCKREPETAG
1070
     1
1071
       21
1005
12ECDE
  0
CIRCLE
  5
12ECDF
  8
OBJECT
 10
3000.0
 20
-3294.9999999999959
 30
0.0
 40
53.5
1001
ACDBBLOCKREPETAG
1070
     1
1071
      344
1005
12ECDF
  0
LINE
  5
12ECE0
  8
CENTER
 10
3080.0
 20
-3294.9999999999959
 30
0.0
 11
2905.0
 21
-3294.9999999999959
 31
0.0
1001
ACDBBLOCKREPETAG
1070
     1
1071
       14
1005
12ECE0
  0
LINE
  5
12ECE1
  8
CENTER
 10
3000.0
 20
-3389.9999999999968
 30
0.0
 11
3000.0
 21
-3199.9999999999959
 31
0.0
1001
ACDBBLOCKREPETAG
1070
     1
1071
       15
1005
12ECE1
  0
CIRCLE
  5
12ECE2
  8
OBJECT
 10
3000.0
 20
-3294.9999999999959
 30
0.0
 40
70.0
1001
ACDBBLOCKREPETAG
1070
     1
1071
       16
1005
12ECE2
  0
CIRCLE
  5
12ECE3
  8
OBJECT
 10
3000.0
 20
-3294.9999999999959
 30
0.0
 40
77.0
1001
ACDBBLOCKREPETAG
1070
     1
1071
       17
1005
12ECE3
  0
ARC
  5
12ECE4
  8
OBJECT
 10
3000.0
 20
-3294.9999999999959
 30
0.0
 40
80.0
 50
50.805032573862128
 51
309.19496742613791
1001
ACDBBLOCKREPETAG
1070
     1
1071
       18
1005
12ECE4
  0
LINE
  5
12ECE5
  8
OBJECT
 10
3045.6618002273249
 20
-3232.9999999999959
 30
0.0
 11
3080.0
 21
-3232.9999999999959
 31
0.0
1001
ACDBBLOCKREPETAG
1070
     1
1071
       19
1005
12ECE5
  0
LINE
  5
12ECE6
  8
OBJECT
 10
3045.6618002273249
 20
-3356.9999999999959
 30
0.0
 11
3080.0
 21
-3356.9999999999959
 31
0.0
1001
ACDBBLOCKREPETAG
1070
     1
1071
       20
1005
12ECE6
  0
POINT
  5
12ECE7
  8
DOTS
 10
3000.0
 20
-3294.9999999999959
 30
0.0
1001
ACDBBLOCKREPETAG
1070
     1
1071
       21
1005
12ECE7
  0
CIRCLE
  5
12ECE8
  8
OBJECT
 10
2000.0
 20
-3294.9999999999959
 30
0.0
 40
53.5
1001
ACDBBLOCKREPETAG
1070
     1
1071
      344
1005
12ECE8
  0
LINE
  5
12ECE9
  8
CENTER
 10
2080.0
 20
-3294.9999999999959
 30
0.0
 11
1905.0
 21
-3294.9999999999959
 31
0.0
1001
ACDBBLOCKREPETAG
1070
     1
1071
       14
1005
12ECE9
  0
LINE
  5
12ECEA
  8
CENTER
 10
2000.0
 20
-3389.9999999999968
 30
0.0
 11
2000.0
 21
-3199.9999999999959
 31
0.0
1001
ACDBBLOCKREPETAG
1070
     1
1071
       15
1005
12ECEA
  0
CIRCLE
  5
12ECEB
  8
OBJECT
 10
2000.0
 20
-3294.9999999999959
 30
0.0
 40
70.0
1001
ACDBBLOCKREPETAG
1070
     1
1071
       16
1005
12ECEB
  0
CIRCLE
  5
12ECEC
  8
OBJECT
 10
2000.0
 20
-3294.9999999999959
 30
0.0
 40
77.0
1001
ACDBBLOCKREPETAG
1070
     1
1071
       17
1005
12ECEC
  0
ARC
  5
12ECED
  8
OBJECT
 10
2000.0
 20
-3294.9999999999959
 30
0.0
 40
80.0
 50
50.805032573862128
 51
309.19496742613791
1001
ACDBBLOCKREPETAG
1070
     1
1071
       18
1005
12ECED
  0
LINE
  5
12ECEE
  8
OBJECT
 10
2045.6618002273251
 20
-3232.9999999999959
 30
0.0
 11
2080.0
 21
-3232.9999999999959
 31
0.0
1001
ACDBBLOCKREPETAG
1070
     1
1071
       19
1005
12ECEE
  0
LINE
  5
12ECEF
  8
OBJECT
 10
2045.6618002273251
 20
-3356.9999999999959
 30
0.0
 11
2080.0
 21
-3356.9999999999959
 31
0.0
1001
ACDBBLOCKREPETAG
1070
     1
1071
       20
1005
12ECEF
  0
POINT
  5
12ECF0
  8
DOTS
 10
2000.0
 20
-3294.9999999999959
 30
0.0
1001
ACDBBLOCKREPETAG
1070
     1
1071
       21
1005
12ECF0
  0
LINE
  5
12ECF1
  8
SLIM
 10
3945.2566704261012
 20
-137.99999999999909
 30
0.0
 11
3955.9548403695781
 21
-127.30183005652231
 31
0.0
1001
GRADIENTCOLOR1ACI
1070
     5
1001
GRADIENTCOLOR2ACI
1070
     2
1001
ACAD
1010
0.0
1020
0.0
1030
0.0
1001
ACDBBLOCKREPETAG
1070
     1
1071
      422
1005
12ECF1
  0
LINE
  5
12ECF2
  8
SLIM
 10
3954.2369265471712
 20
-137.99999999999909
 30
0.0
 11
3972.7507744763329
 21
-119.4861520708364
 31
0.0
1001
GRADIENTCOLOR1ACI
1070
     5
1001
GRADIENTCOLOR2ACI
1070
     2
1001
ACAD
1010
0.0
1020
0.0
1030
0.0
1001
ACDBBLOCKREPETAG
1070
     1
1071
      423
1005
12ECF2
  0
LINE
  5
12ECF3
  8
SLIM
 10
3973.521224312457
 20
-127.6959583557812
 30
0.0
 11
3984.8575146748631
 21
-116.359667993377
 31
0.0
1001
GRADIENTCOLOR1ACI
1070
     5
1001
GRADIENTCOLOR2ACI
1070
     2
1001
ACAD
1010
0.0
1020
0.0
1030
0.0
1001
ACDBBLOCKREPETAG
1070
     1
1071
      424
1005
12ECF3
  0
LINE
  5
12ECF4
  8
SLIM
 10
3985.8944171461271
 20
-124.30302164318159
 30
0.0
 11
3995.0533812002559
 21
-115.1440575890517
 31
0.0
1001
GRADIENTCOLOR1ACI
1070
     5
1001
GRADIENTCOLOR2ACI
1070
     2
1001
ACAD
1010
0.0
1020
0.0
1030
0.0
1001
ACDBBLOCKREPETAG
1070
     1
1071
      425
1005
12ECF4
  0
LINE
  5
12ECF5
  8
SLIM
 10
3996.0777327492078
 20
-123.0999621611699
 30
0.0
 11
4000.0
 21
-119.1776949103767
 31
0.0
1001
GRADIENTCOLOR1ACI
1070
     5
1001
GRADIENTCOLOR2ACI
1070
     2
1001
ACAD
1010
0.0
1020
0.0
1030
0.0
1001
ACDBBLOCKREPETAG
1070
     1
1071
      426
1005
12ECF5
  0
LINE
  5
12ECF6
  8
SLIM
 10
4000.0
 20
-119.1776949103767
 30
0.0
 11
4004.0797313529042
 21
-115.0979635574724
 31
0.0
1001
GRADIENTCOLOR1ACI
1070
     5
1001
GRADIENTCOLOR2ACI
1070
     2
1001
ACAD
1010
0.0
1020
0.0
1030
0.0
1001
ACDBBLOCKREPETAG
1070
     1
1071
      427
1005
12ECF6
  0
LINE
  5
12ECF7
  8
SLIM
 10
4004.9957202542769
 20
-123.1622307771683
 30
0.0
 11
4012.2679784105749
 21
-115.88997262087101
 31
0.0
1001
GRADIENTCOLOR1ACI
1070
     5
1001
GRADIENTCOLOR2ACI
1070
     2
1001
ACAD
1010
0.0
1020
0.0
1030
0.0
1001
ACDBBLOCKREPETAG
1070
     1
1071
      428
1005
12ECF7
  0
LINE
  5
12ECF8
  8
SLIM
 10
4013.028059366964
 20
-124.1101477855505
 30
0.0
 11
4019.799941457361
 21
-117.3382656951526
 31
0.0
1001
GRADIENTCOLOR1ACI
1070
     5
1001
GRADIENTCOLOR2ACI
1070
     2
1001
ACAD
1010
0.0
1020
0.0
1030
0.0
1001
ACDBBLOCKREPETAG
1070
     1
1071
      429
1005
12ECF8
  0
LINE
  5
12ECF9
  8
SLIM
 10
4020.3740813142458
 20
-125.7443819593383
 30
0.0
 11
4026.7872038672799
 21
-119.3312594063044
 31
0.0
1001
GRADIENTCOLOR1ACI
1070
     5
1001
GRADIENTCOLOR2ACI
1070
     2
1001
ACAD
1010
0.0
1020
0.0
1030
0.0
1001
ACDBBLOCKREPETAG
1070
     1
1071
      430
1005
12ECF9
  0
LINE
  5
12ECFA
  8
SLIM
 10
4027.1524719988752
 20
-127.946247395778
 30
0.0
 11
4033.3030030760328
 21
-121.7957163186195
 31
0.0
1001
GRADIENTCOLOR1ACI
1070
     5
1001
GRADIENTCOLOR2ACI
1070
     2
1001
ACAD
1010
0.0
1020
0.0
1030
0.0
1001
ACDBBLOCKREPETAG
1070
     1
1071
      431
1005
12ECFA
  0
LINE
  5
12ECFB
  8
SLIM
 10
4033.4390986513308
 20
-130.63987686439191
 30
0.0
 11
4039.3973119843781
 21
-124.6816635313439
 31
0.0
1001
GRADIENTCOLOR1ACI
1070
     5
1001
GRADIENTCOLOR2ACI
1070
     2
1001
ACAD
1010
0.0
1020
0.0
1030
0.0
1001
ACDBBLOCKREPETAG
1070
     1
1071
      432
1005
12ECFB
  0
LINE
  5
12ECFC
  8
SLIM
 10
4039.284224621797
 20
-133.77500701499321
 30
0.0
 11
4045.1047705343681
 21
-127.95446110242381
 31
0.0
1001
GRADIENTCOLOR1ACI
1070
     5
1001
GRADIENTCOLOR2ACI
1070
     2
1001
ACAD
1010
0.0
1020
0.0
1030
0.0
1001
ACDBBLOCKREPETAG
1070
     1
1071
      433
1005
12ECFC
  0
LINE
  5
12ECFD
  8
SLIM
 10
4044.7212801698038
 20
-137.31820758805651
 30
0.0
 11
4050.4491557891961
 21
-131.59033196866449
 31
0.0
1001
GRADIENTCOLOR1ACI
1070
     5
1001
GRADIENTCOLOR2ACI
1070
     2
1001
ACAD
1010
0.0
1020
0.0
1030
0.0
1001
ACDBBLOCKREPETAG
1070
     1
1071
      434
1005
12ECFD
  0
LINE
  5
12ECFE
  8
SLIM
 10
4053.0197438789291
 20
-137.99999999999909
 30
0.0
 11
4055.4459941864038
 21
-135.57374969252561
 31
0.0
1001
GRADIENTCOLOR1ACI
1070
     5
1001
GRADIENTCOLOR2ACI
1070
     2
1001
ACAD
1010
0.0
1020
0.0
1030
0.0
1001
ACDBBLOCKREPETAG
1070
     1
1071
      435
1005
12ECFE
  0
LINE
  5
12ECFF
  8
CENTER
 10
4000.0
 20
-279.99999999999909
 30
0.0
 11
4000.0
 21
-99.999999999999091
 31
0.0
1001
ACDBBLOCKREPETAG
1070
     1
1071
      160
1005
12ECFF
  0
CIRCLE
  5
12ED00
  8
OBJECT
 10
4000.0
 20
-199.99999999999909
 30
0.0
 40
70.0
1001
ACDBBLOCKREPETAG
1070
     1
1071
      161
1005
12ED00
  0
CIRCLE
  5
12ED01
  8
OBJECT
 10
4000.0
 20
-199.99999999999909
 30
0.0
 40
77.0
1001
ACDBBLOCKREPETAG
1070
     1
1071
      162
1005
12ED01
  0
LINE
  5
12ED02
  8
OBJECT
 10
4045.661800227324
 20
-137.99999999999909
 30
0.0
 11
4080.0
 21
-137.99999999999909
 31
0.0
1001
ACDBBLOCKREPETAG
1070
     1
1071
      164
1005
12ED02
  0
LINE
  5
12ED03
  8
OBJECT
 10
4062.0
 20
-261.99999999999909
 30
0.0
 11
4080.0
 21
-261.99999999999909
 31
0.0
1001
ACDBBLOCKREPETAG
1070
     1
1071
      165
1005
12ED03
  0
LINE
  5
12ED04
  8
OBJECT
 10
4062.0
 20
-261.99999999999909
 30
0.0
 11
4062.0
 21
-279.99999999999909
 31
0.0
1001
ACDBBLOCKREPETAG
1070
     1
1071
      167
1005
12ED04
  0
LINE
  5
12ED05
  8
OBJECT
 10
3938.0
 20
-261.99999999999909
 30
0.0
 11
3938.0
 21
-279.99999999999909
 31
0.0
1001
ACDBBLOCKREPETAG
1070
     1
1071
      168
1005
12ED05
  0
LINE
  5
12ED06
  8
OBJECT
 10
3938.0
 20
-261.99999999999909
 30
0.0
 11
3920.0
 21
-261.99999999999909
 31
0.0
1001
ACDBBLOCKREPETAG
1070
     1
1071
      170
1005
12ED06
  0
LINE
  5
12ED07
  8
OBJECT
 10
3954.338199772676
 20
-137.99999999999909
 30
0.0
 11
3920.0
 21
-137.99999999999909
 31
0.0
1001
ACDBBLOCKREPETAG
1070
     1
1071
      171
1005
12ED07
  0
LINE
  5
12ED08
  8
OBJECT
 10
3945.5527778486362
 20
-254.44722215136329
 30
0.0
 11
3938.0
 21
-261.99999999999909
 31
0.0
1001
ACDBBLOCKREPETAG
1070
     1
1071
      180
1005
12ED08
  0
LINE
  5
12ED09
  8
OBJECT
 10
4054.4472221513638
 20
-254.44722215136329
 30
0.0
 11
4062.0
 21
-261.99999999999909
 31
0.0
1001
ACDBBLOCKREPETAG
1070
     1
1071
      181
1005
12ED09
  0
POINT
  5
12ED0A
  8
DOTS
 10
4000.0
 20
-199.99999999999909
 30
0.0
 50
270.0
1001
ACDBBLOCKREPETAG
1070
     1
1071
      182
1005
12ED0A
  0
ARC
  5
12ED0B
  8
OBJECT
 10
4000.0
 20
-199.99999999999909
 30
0.0
 40
85.0
 50
46.837102859806208
 51
133.16289714019371
1001
ACDBBLOCKREPETAG
1070
     1
1071
      183
1005
12ED0B
  0
CIRCLE
  5
12ED0C
  8
OBJECT
 10
4000.0
 20
-199.99999999999909
 30
0.0
 40
53.5
1001
ACDBBLOCKREPETAG
1070
     1
1071
      352
1005
12ED0C
  0
LINE
  5
12ED0D
  8
CENTER
 10
4080.0
 20
-199.99999999999909
 30
0.0
 11
3920.0
 21
-199.99999999999909
 31
0.0
1001
ACDBBLOCKREPETAG
1070
     1
1071
      158
1005
12ED0D
  0
CIRCLE
  5
12ED0E
  8
OBJECT
 10
2000.0
 20
-199.99999999999909
 30
0.0
 40
53.5
1001
ACDBBLOCKREPETAG
1070
     1
1071
      340
1005
12ED0E
  0
LINE
  5
12ED0F
  8
CENTER
 10
2080.0
 20
-199.99999999999909
 30
0.0
 11
1920.0
 21
-199.99999999999909
 31
0.0
1001
ACDBBLOCKREPETAG
1070
     1
1071
       49
1005
12ED0F
  0
LINE
  5
12ED10
  8
CENTER
 10
2000.0
 20
-279.99999999999909
 30
0.0
 11
2000.0
 21
-104.9999999999991
 31
0.0
1001
ACDBBLOCKREPETAG
1070
     1
1071
       50
1005
12ED10
  0
CIRCLE
  5
12ED11
  8
OBJECT
 10
2000.0
 20
-199.99999999999909
 30
0.0
 40
70.0
1001
ACDBBLOCKREPETAG
1070
     1
1071
       51
1005
12ED11
  0
CIRCLE
  5
12ED12
  8
OBJECT
 10
2000.0
 20
-199.99999999999909
 30
0.0
 40
77.0
1001
ACDBBLOCKREPETAG
1070
     1
1071
       52
1005
12ED12
  0
ARC
  5
12ED13
  8
OBJECT
 10
2000.0
 20
-199.99999999999909
 30
0.0
 40
80.0
 50
50.805032573864182
 51
129.1949674261358
1001
ACDBBLOCKREPETAG
1070
     1
1071
       53
1005
12ED13
  0
LINE
  5
12ED14
  8
OBJECT
 10
2045.6618002273251
 20
-137.99999999999909
 30
0.0
 11
2080.0
 21
-137.99999999999909
 31
0.0
1001
ACDBBLOCKREPETAG
1070
     1
1071
       54
1005
12ED14
  0
LINE
  5
12ED15
  8
OBJECT
 10
2062.0
 20
-261.99999999999909
 30
0.0
 11
2080.0
 21
-261.99999999999909
 31
0.0
1001
ACDBBLOCKREPETAG
1070
     1
1071
       55
1005
12ED15
  0
LINE
  5
12ED16
  8
OBJECT
 10
2062.0
 20
-261.99999999999909
 30
0.0
 11
2062.0
 21
-279.99999999999909
 31
0.0
1001
ACDBBLOCKREPETAG
1070
     1
1071
       57
1005
12ED16
  0
LINE
  5
12ED17
  8
OBJECT
 10
1938.0
 20
-261.99999999999909
 30
0.0
 11
1938.0
 21
-279.99999999999909
 31
0.0
1001
ACDBBLOCKREPETAG
1070
     1
1071
       58
1005
12ED17
  0
POINT
  5
12ED18
  8
DOTS
 10
2000.0
 20
-199.99999999999909
 30
0.0
 50
90.0
1001
ACDBBLOCKREPETAG
1070
     1
1071
       59
1005
12ED18
  0
LINE
  5
12ED19
  8
OBJECT
 10
1938.0
 20
-261.99999999999909
 30
0.0
 11
1920.0
 21
-261.99999999999909
 31
0.0
1001
ACDBBLOCKREPETAG
1070
     1
1071
       60
1005
12ED19
  0
LINE
  5
12ED1A
  8
OBJECT
 10
1954.3381997726749
 20
-137.99999999999909
 30
0.0
 11
1920.0
 21
-137.99999999999909
 31
0.0
1001
ACDBBLOCKREPETAG
1070
     1
1071
       61
1005
12ED1A
  0
LINE
  5
12ED1B
  8
OBJECT
 10
1945.5527778486351
 20
-254.44722215136329
 30
0.0
 11
1938.0
 21
-261.99999999999909
 31
0.0
1001
ACDBBLOCKREPETAG
1070
     1
1071
       42
1005
12ED1B
  0
LINE
  5
12ED1C
  8
OBJECT
 10
2054.4472221513638
 20
-254.44722215136329
 30
0.0
 11
2062.0
 21
-261.99999999999909
 31
0.0
1001
ACDBBLOCKREPETAG
1070
     1
1071
       43
1005
12ED1C
  0
CIRCLE
  5
12ED1D
  8
OBJECT
 10
515.99999999987813
 20
-3467.9999999988931
 30
0.0
 40
70.0
1001
ACDBBLOCKREPETAG
1070
     1
1071
       43
1005
12ED1D
  0
CIRCLE
  5
12ED1E
  8
OBJECT
 10
515.99999999987813
 20
-3467.9999999988931
 30
0.0
 40
77.0
1001
ACDBBLOCKREPETAG
1070
     1
1071
       44
1005
12ED1E
  0
ARC
  5
12ED1F
  8
OBJECT
 10
515.99999999987813
 20
-3467.9999999988931
 30
0.0
 40
80.0
 50
140.80503257378879
 51
219.19496742621121
1001
ACDBBLOCKREPETAG
1070
     1
1071
       45
1005
12ED1F
  0
LINE
  5
12ED20
  8
OBJECT
 10
453.99999999987801
 20
-3422.3381997715692
 30
0.0
 11
453.99999999987801
 21
-3387.9999999988931
 31
0.0
1001
ACDBBLOCKREPETAG
1070
     1
1071
       46
1005
12ED20
  0
LINE
  5
12ED21
  8
OBJECT
 10
577.99999999987813
 20
-3405.9999999988931
 30
0.0
 11
577.99999999987813
 21
-3387.9999999988931
 31
0.0
1001
ACDBBLOCKREPETAG
1070
     1
1071
       22
1005
12ED21
  0
LINE
  5
12ED22
  8
OBJECT
 10
577.99999999987813
 20
-3405.9999999988931
 30
0.0
 11
595.99999999987813
 21
-3405.9999999988931
 31
0.0
1001
ACDBBLOCKREPETAG
1070
     1
1071
       24
1005
12ED22
  0
LINE
  5
12ED23
  8
OBJECT
 10
577.99999999987813
 20
-3529.9999999988941
 30
0.0
 11
595.99999999987813
 21
-3529.9999999988941
 31
0.0
1001
ACDBBLOCKREPETAG
1070
     1
1071
       25
1005
12ED23
  0
LINE
  5
12ED24
  8
OBJECT
 10
577.99999999987813
 20
-3529.9999999988941
 30
0.0
 11
577.99999999987813
 21
-3547.9999999988931
 31
0.0
1001
ACDBBLOCKREPETAG
1070
     1
1071
       27
1005
12ED24
  0
LINE
  5
12ED25
  8
OBJECT
 10
453.99999999987801
 20
-3513.6618002262189
 30
0.0
 11
453.99999999987801
 21
-3547.9999999988931
 31
0.0
1001
ACDBBLOCKREPETAG
1070
     1
1071
       28
1005
12ED25
  0
LINE
  5
12ED26
  8
OBJECT
 10
570.44722215124239
 20
-3522.4472221502569
 30
0.0
 11
577.99999999987813
 21
-3529.9999999988941
 31
0.0
1001
ACDBBLOCKREPETAG
1070
     1
1071
       37
1005
12ED26
  0
LINE
  5
12ED27
  8
OBJECT
 10
570.44722215124239
 20
-3413.5527778475298
 30
0.0
 11
577.99999999987813
 21
-3405.9999999988931
 31
0.0
1001
ACDBBLOCKREPETAG
1070
     1
1071
       38
1005
12ED27
  0
POINT
  5
12ED28
  8
DOTS
 10
515.99999999987813
 20
-3467.9999999988931
 30
0.0
1001
ACDBBLOCKREPETAG
1070
     1
1071
       39
1005
12ED28
  0
CIRCLE
  5
12ED29
  8
OBJECT
 10
515.99999999987813
 20
-3467.9999999988931
 30
0.0
 40
53.5
1001
ACDBBLOCKREPETAG
1070
     1
1071
      153
1005
12ED29
  0
CIRCLE
  5
12ED2A
  8
OBJECT
 10
156.0
 20
-3467.9999999988931
 30
0.0
 40
70.0
1001
ACDBBLOCKREPETAG
1070
     1
1071
       43
1005
12ED2A
  0
CIRCLE
  5
12ED2B
  8
OBJECT
 10
156.0
 20
-3467.9999999988931
 30
0.0
 40
77.0
1001
ACDBBLOCKREPETAG
1070
     1
1071
       44
1005
12ED2B
  0
ARC
  5
12ED2C
  8
OBJECT
 10
156.0
 20
-3467.9999999988931
 30
0.0
 40
80.0
 50
140.80503257378979
 51
219.1949674262101
1001
ACDBBLOCKREPETAG
1070
     1
1071
       45
1005
12ED2C
  0
LINE
  5
12ED2D
  8
OBJECT
 10
94.0
 20
-3422.3381997715692
 30
0.0
 11
94.0
 21
-3387.9999999988931
 31
0.0
1001
ACDBBLOCKREPETAG
1070
     1
1071
       46
1005
12ED2D
  0
LINE
  5
12ED2E
  8
OBJECT
 10
218.0
 20
-3405.9999999988931
 30
0.0
 11
218.0
 21
-3387.9999999988931
 31
0.0
1001
ACDBBLOCKREPETAG
1070
     1
1071
       22
1005
12ED2E
  0
LINE
  5
12ED2F
  8
OBJECT
 10
218.0
 20
-3405.9999999988931
 30
0.0
 11
236.0
 21
-3405.9999999988931
 31
0.0
1001
ACDBBLOCKREPETAG
1070
     1
1071
       24
1005
12ED2F
  0
LINE
  5
12ED30
  8
OBJECT
 10
218.0
 20
-3529.9999999988941
 30
0.0
 11
236.0
 21
-3529.9999999988941
 31
0.0
1001
ACDBBLOCKREPETAG
1070
     1
1071
       25
1005
12ED30
  0
LINE
  5
12ED31
  8
OBJECT
 10
218.0
 20
-3529.9999999988941
 30
0.0
 11
218.0
 21
-3547.9999999988931
 31
0.0
1001
ACDBBLOCKREPETAG
1070
     1
1071
       27
1005
12ED31
  0
LINE
  5
12ED32
  8
OBJECT
 10
94.0
 20
-3513.6618002262189
 30
0.0
 11
94.0
 21
-3547.9999999988931
 31
0.0
1001
ACDBBLOCKREPETAG
1070
     1
1071
       28
1005
12ED32
  0
LINE
  5
12ED33
  8
OBJECT
 10
210.44722215136409
 20
-3522.4472221502569
 30
0.0
 11
218.0
 21
-3529.9999999988941
 31
0.0
1001
ACDBBLOCKREPETAG
1070
     1
1071
       37
1005
12ED33
  0
LINE
  5
12ED34
  8
OBJECT
 10
210.44722215136409
 20
-3413.5527778475298
 30
0.0
 11
218.0
 21
-3405.9999999988931
 31
0.0
1001
ACDBBLOCKREPETAG
1070
     1
1071
       38
1005
12ED34
  0
POINT
  5
12ED35
  8
DOTS
 10
156.0
 20
-3467.9999999988931
 30
0.0
1001
ACDBBLOCKREPETAG
1070
     1
1071
       39
1005
12ED35
  0
CIRCLE
  5
12ED36
  8
OBJECT
 10
156.0
 20
-3467.9999999988931
 30
0.0
 40
53.5
1001
ACDBBLOCKREPETAG
1070
     1
1071
      153
1005
12ED36
  0
CIRCLE
  5
12ED37
  8
OBJECT
 10
515.99999999987813
 20
-3003.9999999990509
 30
0.0
 40
70.0
1001
ACDBBLOCKREPETAG
1070
     1
1071
       43
1005
12ED37
  0
CIRCLE
  5
12ED38
  8
OBJECT
 10
515.99999999987813
 20
-3003.9999999990509
 30
0.0
 40
77.0
1001
ACDBBLOCKREPETAG
1070
     1
1071
       44
1005
12ED38
  0
ARC
  5
12ED39
  8
OBJECT
 10
515.99999999987813
 20
-3003.9999999990509
 30
0.0
 40
80.0
 50
140.80503257378879
 51
219.19496742621121
1001
ACDBBLOCKREPETAG
1070
     1
1071
       45
1005
12ED39
  0
LINE
  5
12ED3A
  8
OBJECT
 10
453.99999999987801
 20
-2958.338199771727
 30
0.0
 11
453.99999999987801
 21
-2923.9999999990532
 31
0.0
1001
ACDBBLOCKREPETAG
1070
     1
1071
       46
1005
12ED3A
  0
LINE
  5
12ED3B
  8
OBJECT
 10
577.99999999987813
 20
-2941.9999999990509
 30
0.0
 11
577.99999999987813
 21
-2923.9999999990532
 31
0.0
1001
ACDBBLOCKREPETAG
1070
     1
1071
       22
1005
12ED3B
  0
LINE
  5
12ED3C
  8
OBJECT
 10
577.99999999987813
 20
-2941.9999999990509
 30
0.0
 11
595.99999999987813
 21
-2941.9999999990509
 31
0.0
1001
ACDBBLOCKREPETAG
1070
     1
1071
       24
1005
12ED3C
  0
LINE
  5
12ED3D
  8
OBJECT
 10
577.99999999987813
 20
-3065.9999999990532
 30
0.0
 11
595.99999999987813
 21
-3065.9999999990532
 31
0.0
1001
ACDBBLOCKREPETAG
1070
     1
1071
       25
1005
12ED3D
  0
LINE
  5
12ED3E
  8
OBJECT
 10
577.99999999987813
 20
-3065.9999999990532
 30
0.0
 11
577.99999999987813
 21
-3083.9999999990509
 31
0.0
1001
ACDBBLOCKREPETAG
1070
     1
1071
       27
1005
12ED3E
  0
LINE
  5
12ED3F
  8
OBJECT
 10
453.99999999987801
 20
-3049.6618002263758
 30
0.0
 11
453.99999999987801
 21
-3083.9999999990509
 31
0.0
1001
ACDBBLOCKREPETAG
1070
     1
1071
       28
1005
12ED3F
  0
LINE
  5
12ED40
  8
OBJECT
 10
570.44722215124239
 20
-3058.4472221504161
 30
0.0
 11
577.99999999987813
 21
-3065.9999999990532
 31
0.0
1001
ACDBBLOCKREPETAG
1070
     1
1071
       37
1005
12ED40
  0
LINE
  5
12ED41
  8
OBJECT
 10
570.44722215124239
 20
-2949.5527778476871
 30
0.0
 11
577.99999999987813
 21
-2941.9999999990509
 31
0.0
1001
ACDBBLOCKREPETAG
1070
     1
1071
       38
1005
12ED41
  0
POINT
  5
12ED42
  8
DOTS
 10
515.99999999987813
 20
-3003.9999999990509
 30
0.0
1001
ACDBBLOCKREPETAG
1070
     1
1071
       39
1005
12ED42
  0
CIRCLE
  5
12ED43
  8
OBJECT
 10
515.99999999987813
 20
-3003.9999999990509
 30
0.0
 40
53.5
1001
ACDBBLOCKREPETAG
1070
     1
1071
      153
1005
12ED43
  0
CIRCLE
  5
12ED44
  8
OBJECT
 10
156.0
 20
-3003.9999999990509
 30
0.0
 40
70.0
1001
ACDBBLOCKREPETAG
1070
     1
1071
       43
1005
12ED44
  0
CIRCLE
  5
12ED45
  8
OBJECT
 10
156.0
 20
-3003.9999999990509
 30
0.0
 40
77.0
1001
ACDBBLOCKREPETAG
1070
     1
1071
       44
1005
12ED45
  0
ARC
  5
12ED46
  8
OBJECT
 10
156.0
 20
-3003.9999999990509
 30
0.0
 40
80.0
 50
140.80503257378979
 51
219.1949674262101
1001
ACDBBLOCKREPETAG
1070
     1
1071
       45
1005
12ED46
  0
LINE
  5
12ED47
  8
OBJECT
 10
94.0
 20
-2958.3381997717261
 30
0.0
 11
94.0
 21
-2923.9999999990509
 31
0.0
1001
ACDBBLOCKREPETAG
1070
     1
1071
       46
1005
12ED47
  0
LINE
  5
12ED48
  8
OBJECT
 10
218.0
 20
-2941.9999999990509
 30
0.0
 11
218.0
 21
-2923.9999999990509
 31
0.0
1001
ACDBBLOCKREPETAG
1070
     1
1071
       22
1005
12ED48
  0
LINE
  5
12ED49
  8
OBJECT
 10
218.0
 20
-2941.9999999990509
 30
0.0
 11
236.0
 21
-2941.9999999990509
 31
0.0
1001
ACDBBLOCKREPETAG
1070
     1
1071
       24
1005
12ED49
  0
LINE
  5
12ED4A
  8
OBJECT
 10
218.0
 20
-3065.99999999905
 30
0.0
 11
236.0
 21
-3065.99999999905
 31
0.0
1001
ACDBBLOCKREPETAG
1070
     1
1071
       25
1005
12ED4A
  0
LINE
  5
12ED4B
  8
OBJECT
 10
218.0
 20
-3065.99999999905
 30
0.0
 11
218.0
 21
-3083.9999999990509
 31
0.0
1001
ACDBBLOCKREPETAG
1070
     1
1071
       27
1005
12ED4B
  0
LINE
  5
12ED4C
  8
OBJECT
 10
94.0
 20
-3049.6618002263749
 30
0.0
 11
94.0
 21
-3083.9999999990509
 31
0.0
1001
ACDBBLOCKREPETAG
1070
     1
1071
       28
1005
12ED4C
  0
LINE
  5
12ED4D
  8
OBJECT
 10
210.44722215136409
 20
-3058.4472221504152
 30
0.0
 11
218.0
 21
-3065.99999999905
 31
0.0
1001
ACDBBLOCKREPETAG
1070
     1
1071
       37
1005
12ED4D
  0
LINE
  5
12ED4E
  8
OBJECT
 10
210.44722215136409
 20
-2949.5527778476849
 30
0.0
 11
218.0
 21
-2941.9999999990509
 31
0.0
1001
ACDBBLOCKREPETAG
1070
     1
1071
       38
1005
12ED4E
  0
POINT
  5
12ED4F
  8
DOTS
 10
156.0
 20
-3003.9999999990509
 30
0.0
1001
ACDBBLOCKREPETAG
1070
     1
1071
       39
1005
12ED4F
  0
CIRCLE
  5
12ED50
  8
OBJECT
 10
156.0
 20
-3003.9999999990509
 30
0.0
 40
53.5
1001
ACDBBLOCKREPETAG
1070
     1
1071
      153
1005
12ED50
  0
CIRCLE
  5
12ED51
  8
OBJECT
 10
515.99999999987779
 20
-2539.9999999992101
 30
0.0
 40
70.0
1001
ACDBBLOCKREPETAG
1070
     1
1071
       43
1005
12ED51
  0
CIRCLE
  5
12ED52
  8
OBJECT
 10
515.99999999987779
 20
-2539.9999999992101
 30
0.0
 40
77.0
1001
ACDBBLOCKREPETAG
1070
     1
1071
       44
1005
12ED52
  0
ARC
  5
12ED53
  8
OBJECT
 10
515.99999999987779
 20
-2539.9999999992101
 30
0.0
 40
80.0
 50
140.80503257378879
 51
219.19496742621121
1001
ACDBBLOCKREPETAG
1070
     1
1071
       45
1005
12ED53
  0
LINE
  5
12ED54
  8
OBJECT
 10
453.99999999987767
 20
-2494.3381997718848
 30
0.0
 11
453.99999999987767
 21
-2459.9999999992101
 31
0.0
1001
ACDBBLOCKREPETAG
1070
     1
1071
       46
1005
12ED54
  0
LINE
  5
12ED55
  8
OBJECT
 10
577.99999999987779
 20
-2477.9999999992101
 30
0.0
 11
577.99999999987779
 21
-2459.9999999992101
 31
0.0
1001
ACDBBLOCKREPETAG
1070
     1
1071
       22
1005
12ED55
  0
LINE
  5
12ED56
  8
OBJECT
 10
577.99999999987779
 20
-2477.9999999992101
 30
0.0
 11
595.99999999987756
 21
-2477.9999999992101
 31
0.0
1001
ACDBBLOCKREPETAG
1070
     1
1071
       24
1005
12ED56
  0
LINE
  5
12ED57
  8
OBJECT
 10
577.99999999987779
 20
-2601.9999999992101
 30
0.0
 11
595.99999999987756
 21
-2601.9999999992101
 31
0.0
1001
ACDBBLOCKREPETAG
1070
     1
1071
       25
1005
12ED57
  0
LINE
  5
12ED58
  8
OBJECT
 10
577.99999999987779
 20
-2601.9999999992101
 30
0.0
 11
577.99999999987779
 21
-2619.9999999992101
 31
0.0
1001
ACDBBLOCKREPETAG
1070
     1
1071
       27
1005
12ED58
  0
LINE
  5
12ED59
  8
OBJECT
 10
453.99999999987767
 20
-2585.6618002265341
 30
0.0
 11
453.99999999987767
 21
-2619.9999999992101
 31
0.0
1001
ACDBBLOCKREPETAG
1070
     1
1071
       28
1005
12ED59
  0
LINE
  5
12ED5A
  8
OBJECT
 10
570.44722215124204
 20
-2594.4472221505739
 30
0.0
 11
577.99999999987779
 21
-2601.9999999992101
 31
0.0
1001
ACDBBLOCKREPETAG
1070
     1
1071
       37
1005
12ED5A
  0
LINE
  5
12ED5B
  8
OBJECT
 10
570.44722215124204
 20
-2485.5527778478449
 30
0.0
 11
577.99999999987779
 21
-2477.9999999992101
 31
0.0
1001
ACDBBLOCKREPETAG
1070
     1
1071
       38
1005
12ED5B
  0
POINT
  5
12ED5C
  8
DOTS
 10
515.99999999987779
 20
-2539.9999999992101
 30
0.0
1001
ACDBBLOCKREPETAG
1070
     1
1071
       39
1005
12ED5C
  0
CIRCLE
  5
12ED5D
  8
OBJECT
 10
515.99999999987779
 20
-2539.9999999992101
 30
0.0
 40
53.5
1001
ACDBBLOCKREPETAG
1070
     1
1071
      153
1005
12ED5D
  0
CIRCLE
  5
12ED5E
  8
OBJECT
 10
155.9999999999996
 20
-2539.9999999992101
 30
0.0
 40
70.0
1001
ACDBBLOCKREPETAG
1070
     1
1071
       43
1005
12ED5E
  0
CIRCLE
  5
12ED5F
  8
OBJECT
 10
155.9999999999996
 20
-2539.9999999992101
 30
0.0
 40
77.0
1001
ACDBBLOCKREPETAG
1070
     1
1071
       44
1005
12ED5F
  0
ARC
  5
12ED60
  8
OBJECT
 10
155.9999999999996
 20
-2539.9999999992101
 30
0.0
 40
80.0
 50
140.80503257378979
 51
219.1949674262101
1001
ACDBBLOCKREPETAG
1070
     1
1071
       45
1005
12ED60
  0
LINE
  5
12ED61
  8
OBJECT
 10
93.999999999999659
 20
-2494.3381997718848
 30
0.0
 11
93.999999999999659
 21
-2459.9999999992101
 31
0.0
1001
ACDBBLOCKREPETAG
1070
     1
1071
       46
1005
12ED61
  0
LINE
  5
12ED62
  8
OBJECT
 10
217.99999999999969
 20
-2477.9999999992101
 30
0.0
 11
217.99999999999969
 21
-2459.9999999992101
 31
0.0
1001
ACDBBLOCKREPETAG
1070
     1
1071
       22
1005
12ED62
  0
LINE
  5
12ED63
  8
OBJECT
 10
217.99999999999969
 20
-2477.9999999992101
 30
0.0
 11
235.99999999999969
 21
-2477.9999999992101
 31
0.0
1001
ACDBBLOCKREPETAG
1070
     1
1071
       24
1005
12ED63
  0
LINE
  5
12ED64
  8
OBJECT
 10
217.99999999999969
 20
-2601.9999999992101
 30
0.0
 11
235.99999999999969
 21
-2601.9999999992101
 31
0.0
1001
ACDBBLOCKREPETAG
1070
     1
1071
       25
1005
12ED64
  0
LINE
  5
12ED65
  8
OBJECT
 10
217.99999999999969
 20
-2601.9999999992101
 30
0.0
 11
217.99999999999969
 21
-2619.9999999992101
 31
0.0
1001
ACDBBLOCKREPETAG
1070
     1
1071
       27
1005
12ED65
  0
LINE
  5
12ED66
  8
OBJECT
 10
93.999999999999659
 20
-2585.6618002265341
 30
0.0
 11
93.999999999999659
 21
-2619.9999999992101
 31
0.0
1001
ACDBBLOCKREPETAG
1070
     1
1071
       28
1005
12ED66
  0
LINE
  5
12ED67
  8
OBJECT
 10
210.4472221513638
 20
-2594.4472221505739
 30
0.0
 11
217.99999999999969
 21
-2601.9999999992101
 31
0.0
1001
ACDBBLOCKREPETAG
1070
     1
1071
       37
1005
12ED67
  0
LINE
  5
12ED68
  8
OBJECT
 10
210.4472221513638
 20
-2485.5527778478449
 30
0.0
 11
217.99999999999969
 21
-2477.9999999992101
 31
0.0
1001
ACDBBLOCKREPETAG
1070
     1
1071
       38
1005
12ED68
  0
POINT
  5
12ED69
  8
DOTS
 10
155.9999999999996
 20
-2539.9999999992101
 30
0.0
1001
ACDBBLOCKREPETAG
1070
     1
1071
       39
1005
12ED69
  0
CIRCLE
  5
12ED6A
  8
OBJECT
 10
155.9999999999996
 20
-2539.9999999992101
 30
0.0
 40
53.5
1001
ACDBBLOCKREPETAG
1070
     1
1071
      153
1005
12ED6A
  0
CIRCLE
  5
12ED6B
  8
OBJECT
 10
515.99999999987779
 20
-2075.9999999993679
 30
0.0
 40
70.0
1001
ACDBBLOCKREPETAG
1070
     1
1071
       43
1005
12ED6B
  0
CIRCLE
  5
12ED6C
  8
OBJECT
 10
515.99999999987779
 20
-2075.9999999993679
 30
0.0
 40
77.0
1001
ACDBBLOCKREPETAG
1070
     1
1071
       44
1005
12ED6C
  0
ARC
  5
12ED6D
  8
OBJECT
 10
515.99999999987779
 20
-2075.9999999993679
 30
0.0
 40
80.0
 50
140.80503257378879
 51
219.19496742621121
1001
ACDBBLOCKREPETAG
1070
     1
1071
       45
1005
12ED6D
  0
LINE
  5
12ED6E
  8
OBJECT
 10
453.99999999987767
 20
-2030.3381997720439
 30
0.0
 11
453.99999999987767
 21
-1995.9999999993679
 31
0.0
1001
ACDBBLOCKREPETAG
1070
     1
1071
       46
1005
12ED6E
  0
LINE
  5
12ED6F
  8
OBJECT
 10
577.99999999987779
 20
-2013.9999999993679
 30
0.0
 11
577.99999999987779
 21
-1995.9999999993679
 31
0.0
1001
ACDBBLOCKREPETAG
1070
     1
1071
       22
1005
12ED6F
  0
LINE
  5
12ED70
  8
OBJECT
 10
577.99999999987779
 20
-2013.9999999993679
 30
0.0
 11
595.99999999987756
 21
-2013.9999999993679
 31
0.0
1001
ACDBBLOCKREPETAG
1070
     1
1071
       24
1005
12ED70
  0
LINE
  5
12ED71
  8
OBJECT
 10
577.99999999987779
 20
-2137.9999999993679
 30
0.0
 11
595.99999999987756
 21
-2137.9999999993679
 31
0.0
1001
ACDBBLOCKREPETAG
1070
     1
1071
       25
1005
12ED71
  0
LINE
  5
12ED72
  8
OBJECT
 10
577.99999999987779
 20
-2137.9999999993679
 30
0.0
 11
577.99999999987779
 21
-2155.9999999993679
 31
0.0
1001
ACDBBLOCKREPETAG
1070
     1
1071
       27
1005
12ED72
  0
LINE
  5
12ED73
  8
OBJECT
 10
453.99999999987767
 20
-2121.6618002266919
 30
0.0
 11
453.99999999987767
 21
-2155.9999999993679
 31
0.0
1001
ACDBBLOCKREPETAG
1070
     1
1071
       28
1005
12ED73
  0
LINE
  5
12ED74
  8
OBJECT
 10
570.44722215124204
 20
-2130.4472221507322
 30
0.0
 11
577.99999999987779
 21
-2137.9999999993679
 31
0.0
1001
ACDBBLOCKREPETAG
1070
     1
1071
       37
1005
12ED74
  0
LINE
  5
12ED75
  8
OBJECT
 10
570.44722215124204
 20
-2021.5527778480041
 30
0.0
 11
577.99999999987779
 21
-2013.9999999993679
 31
0.0
1001
ACDBBLOCKREPETAG
1070
     1
1071
       38
1005
12ED75
  0
POINT
  5
12ED76
  8
DOTS
 10
515.99999999987779
 20
-2075.9999999993679
 30
0.0
1001
ACDBBLOCKREPETAG
1070
     1
1071
       39
1005
12ED76
  0
CIRCLE
  5
12ED77
  8
OBJECT
 10
515.99999999987779
 20
-2075.9999999993679
 30
0.0
 40
53.5
1001
ACDBBLOCKREPETAG
1070
     1
1071
      153
1005
12ED77
  0
CIRCLE
  5
12ED78
  8
OBJECT
 10
155.9999999999996
 20
-2075.999999999367
 30
0.0
 40
70.0
1001
ACDBBLOCKREPETAG
1070
     1
1071
       43
1005
12ED78
  0
CIRCLE
  5
12ED79
  8
OBJECT
 10
155.9999999999996
 20
-2075.999999999367
 30
0.0
 40
77.0
1001
ACDBBLOCKREPETAG
1070
     1
1071
       44
1005
12ED79
  0
ARC
  5
12ED7A
  8
OBJECT
 10
155.9999999999996
 20
-2075.999999999367
 30
0.0
 40
80.0
 50
140.80503257378979
 51
219.1949674262101
1001
ACDBBLOCKREPETAG
1070
     1
1071
       45
1005
12ED7A
  0
LINE
  5
12ED7B
  8
OBJECT
 10
93.999999999999659
 20
-2030.3381997720419
 30
0.0
 11
93.999999999999659
 21
-1995.999999999367
 31
0.0
1001
ACDBBLOCKREPETAG
1070
     1
1071
       46
1005
12ED7B
  0
LINE
  5
12ED7C
  8
OBJECT
 10
217.99999999999969
 20
-2013.999999999367
 30
0.0
 11
217.99999999999969
 21
-1995.999999999367
 31
0.0
1001
ACDBBLOCKREPETAG
1070
     1
1071
       22
1005
12ED7C
  0
LINE
  5
12ED7D
  8
OBJECT
 10
217.99999999999969
 20
-2013.999999999367
 30
0.0
 11
235.99999999999969
 21
-2013.999999999367
 31
0.0
1001
ACDBBLOCKREPETAG
1070
     1
1071
       24
1005
12ED7D
  0
LINE
  5
12ED7E
  8
OBJECT
 10
217.99999999999969
 20
-2137.999999999367
 30
0.0
 11
235.99999999999969
 21
-2137.999999999367
 31
0.0
1001
ACDBBLOCKREPETAG
1070
     1
1071
       25
1005
12ED7E
  0
LINE
  5
12ED7F
  8
OBJECT
 10
217.99999999999969
 20
-2137.999999999367
 30
0.0
 11
217.99999999999969
 21
-2155.999999999367
 31
0.0
1001
ACDBBLOCKREPETAG
1070
     1
1071
       27
1005
12ED7F
  0
LINE
  5
12ED80
  8
OBJECT
 10
93.999999999999659
 20
-2121.6618002266919
 30
0.0
 11
93.999999999999659
 21
-2155.999999999367
 31
0.0
1001
ACDBBLOCKREPETAG
1070
     1
1071
       28
1005
12ED80
  0
LINE
  5
12ED81
  8
OBJECT
 10
210.4472221513638
 20
-2130.4472221507308
 30
0.0
 11
217.99999999999969
 21
-2137.999999999367
 31
0.0
1001
ACDBBLOCKREPETAG
1070
     1
1071
       37
1005
12ED81
  0
LINE
  5
12ED82
  8
OBJECT
 10
210.4472221513638
 20
-2021.552777848003
 30
0.0
 11
217.99999999999969
 21
-2013.999999999367
 31
0.0
1001
ACDBBLOCKREPETAG
1070
     1
1071
       38
1005
12ED82
  0
POINT
  5
12ED83
  8
DOTS
 10
155.9999999999996
 20
-2075.999999999367
 30
0.0
1001
ACDBBLOCKREPETAG
1070
     1
1071
       39
1005
12ED83
  0
CIRCLE
  5
12ED84
  8
OBJECT
 10
155.9999999999996
 20
-2075.999999999367
 30
0.0
 40
53.5
1001
ACDBBLOCKREPETAG
1070
     1
1071
      153
1005
12ED84
  0
CIRCLE
  5
12ED85
  8
OBJECT
 10
515.99999999987801
 20
-1611.9999999995259
 30
0.0
 40
70.0
1001
ACDBBLOCKREPETAG
1070
     1
1071
       43
1005
12ED85
  0
CIRCLE
  5
12ED86
  8
OBJECT
 10
515.99999999987801
 20
-1611.9999999995259
 30
0.0
 40
77.0
1001
ACDBBLOCKREPETAG
1070
     1
1071
       44
1005
12ED86
  0
ARC
  5
12ED87
  8
OBJECT
 10
515.99999999987801
 20
-1611.9999999995259
 30
0.0
 40
80.0
 50
140.8050325737787
 51
219.1949674262213
1001
ACDBBLOCKREPETAG
1070
     1
1071
       45
1005
12ED87
  0
LINE
  5
12ED88
  8
OBJECT
 10
453.99999999987801
 20
-1566.338199772202
 30
0.0
 11
453.99999999987801
 21
-1531.9999999995259
 31
0.0
1001
ACDBBLOCKREPETAG
1070
     1
1071
       46
1005
12ED88
  0
LINE
  5
12ED89
  8
OBJECT
 10
577.9999999998779
 20
-1549.9999999995259
 30
0.0
 11
577.9999999998779
 21
-1531.9999999995259
 31
0.0
1001
ACDBBLOCKREPETAG
1070
     1
1071
       22
1005
12ED89
  0
LINE
  5
12ED8A
  8
OBJECT
 10
577.9999999998779
 20
-1549.9999999995259
 30
0.0
 11
595.99999999987801
 21
-1549.9999999995259
 31
0.0
1001
ACDBBLOCKREPETAG
1070
     1
1071
       24
1005
12ED8A
  0
LINE
  5
12ED8B
  8
OBJECT
 10
577.9999999998779
 20
-1673.9999999995259
 30
0.0
 11
595.99999999987801
 21
-1673.9999999995259
 31
0.0
1001
ACDBBLOCKREPETAG
1070
     1
1071
       25
1005
12ED8B
  0
LINE
  5
12ED8C
  8
OBJECT
 10
577.9999999998779
 20
-1673.9999999995259
 30
0.0
 11
577.9999999998779
 21
-1691.9999999995259
 31
0.0
1001
ACDBBLOCKREPETAG
1070
     1
1071
       27
1005
12ED8C
  0
LINE
  5
12ED8D
  8
OBJECT
 10
453.99999999987801
 20
-1657.661800226851
 30
0.0
 11
453.99999999987801
 21
-1691.9999999995259
 31
0.0
1001
ACDBBLOCKREPETAG
1070
     1
1071
       28
1005
12ED8D
  0
LINE
  5
12ED8E
  8
OBJECT
 10
570.44722215124204
 20
-1666.44722215089
 30
0.0
 11
577.9999999998779
 21
-1673.9999999995259
 31
0.0
1001
ACDBBLOCKREPETAG
1070
     1
1071
       37
1005
12ED8E
  0
LINE
  5
12ED8F
  8
OBJECT
 10
570.44722215124204
 20
-1557.5527778481619
 30
0.0
 11
577.9999999998779
 21
-1549.9999999995259
 31
0.0
1001
ACDBBLOCKREPETAG
1070
     1
1071
       38
1005
12ED8F
  0
POINT
  5
12ED90
  8
DOTS
 10
515.99999999987801
 20
-1611.9999999995259
 30
0.0
1001
ACDBBLOCKREPETAG
1070
     1
1071
       39
1005
12ED90
  0
CIRCLE
  5
12ED91
  8
OBJECT
 10
515.99999999987801
 20
-1611.9999999995259
 30
0.0
 40
53.5
1001
ACDBBLOCKREPETAG
1070
     1
1071
      153
1005
12ED91
  0
CIRCLE
  5
12ED92
  8
OBJECT
 10
155.9999999999998
 20
-1611.9999999995259
 30
0.0
 40
70.0
1001
ACDBBLOCKREPETAG
1070
     1
1071
       43
1005
12ED92
  0
CIRCLE
  5
12ED93
  8
OBJECT
 10
155.9999999999998
 20
-1611.9999999995259
 30
0.0
 40
77.0
1001
ACDBBLOCKREPETAG
1070
     1
1071
       44
1005
12ED93
  0
ARC
  5
12ED94
  8
OBJECT
 10
155.9999999999998
 20
-1611.9999999995259
 30
0.0
 40
80.0
 50
140.80503257377961
 51
219.1949674262203
1001
ACDBBLOCKREPETAG
1070
     1
1071
       45
1005
12ED94
  0
LINE
  5
12ED95
  8
OBJECT
 10
93.999999999999872
 20
-1566.338199772202
 30
0.0
 11
93.999999999999872
 21
-1531.9999999995259
 31
0.0
1001
ACDBBLOCKREPETAG
1070
     1
1071
       46
1005
12ED95
  0
LINE
  5
12ED96
  8
OBJECT
 10
217.99999999999989
 20
-1549.9999999995259
 30
0.0
 11
217.99999999999989
 21
-1531.9999999995259
 31
0.0
1001
ACDBBLOCKREPETAG
1070
     1
1071
       22
1005
12ED96
  0
LINE
  5
12ED97
  8
OBJECT
 10
217.99999999999989
 20
-1549.9999999995259
 30
0.0
 11
235.99999999999989
 21
-1549.9999999995259
 31
0.0
1001
ACDBBLOCKREPETAG
1070
     1
1071
       24
1005
12ED97
  0
LINE
  5
12ED98
  8
OBJECT
 10
217.99999999999989
 20
-1673.9999999995259
 30
0.0
 11
235.99999999999989
 21
-1673.9999999995259
 31
0.0
1001
ACDBBLOCKREPETAG
1070
     1
1071
       25
1005
12ED98
  0
LINE
  5
12ED99
  8
OBJECT
 10
217.99999999999989
 20
-1673.9999999995259
 30
0.0
 11
217.99999999999989
 21
-1691.9999999995259
 31
0.0
1001
ACDBBLOCKREPETAG
1070
     1
1071
       27
1005
12ED99
  0
LINE
  5
12ED9A
  8
OBJECT
 10
93.999999999999872
 20
-1657.661800226851
 30
0.0
 11
93.999999999999872
 21
-1691.9999999995259
 31
0.0
1001
ACDBBLOCKREPETAG
1070
     1
1071
       28
1005
12ED9A
  0
LINE
  5
12ED9B
  8
OBJECT
 10
210.44722215136409
 20
-1666.44722215089
 30
0.0
 11
217.99999999999989
 21
-1673.9999999995259
 31
0.0
1001
ACDBBLOCKREPETAG
1070
     1
1071
       37
1005
12ED9B
  0
LINE
  5
12ED9C
  8
OBJECT
 10
210.44722215136409
 20
-1557.5527778481619
 30
0.0
 11
217.99999999999989
 21
-1549.9999999995259
 31
0.0
1001
ACDBBLOCKREPETAG
1070
     1
1071
       38
1005
12ED9C
  0
POINT
  5
12ED9D
  8
DOTS
 10
155.9999999999998
 20
-1611.9999999995259
 30
0.0
1001
ACDBBLOCKREPETAG
1070
     1
1071
       39
1005
12ED9D
  0
CIRCLE
  5
12ED9E
  8
OBJECT
 10
155.9999999999998
 20
-1611.9999999995259
 30
0.0
 40
53.5
1001
ACDBBLOCKREPETAG
1070
     1
1071
      153
1005
12ED9E
  0
CIRCLE
  5
12ED9F
  8
OBJECT
 10
515.99999999987801
 20
-1147.999999999684
 30
0.0
 40
70.0
1001
ACDBBLOCKREPETAG
1070
     1
1071
       43
1005
12ED9F
  0
CIRCLE
  5
12EDA0
  8
OBJECT
 10
515.99999999987801
 20
-1147.999999999684
 30
0.0
 40
77.0
1001
ACDBBLOCKREPETAG
1070
     1
1071
       44
1005
12EDA0
  0
ARC
  5
12EDA1
  8
OBJECT
 10
515.99999999987801
 20
-1147.999999999684
 30
0.0
 40
80.0
 50
140.8050325737787
 51
219.1949674262213
1001
ACDBBLOCKREPETAG
1070
     1
1071
       45
1005
12EDA1
  0
LINE
  5
12EDA2
  8
OBJECT
 10
453.99999999987801
 20
-1102.33819977236
 30
0.0
 11
453.99999999987801
 21
-1067.999999999684
 31
0.0
1001
ACDBBLOCKREPETAG
1070
     1
1071
       46
1005
12EDA2
  0
LINE
  5
12EDA3
  8
OBJECT
 10
577.9999999998779
 20
-1085.999999999684
 30
0.0
 11
577.9999999998779
 21
-1067.999999999684
 31
0.0
1001
ACDBBLOCKREPETAG
1070
     1
1071
       22
1005
12EDA3
  0
LINE
  5
12EDA4
  8
OBJECT
 10
577.9999999998779
 20
-1085.999999999684
 30
0.0
 11
595.99999999987801
 21
-1085.999999999684
 31
0.0
1001
ACDBBLOCKREPETAG
1070
     1
1071
       24
1005
12EDA4
  0
LINE
  5
12EDA5
  8
OBJECT
 10
577.9999999998779
 20
-1209.999999999684
 30
0.0
 11
595.99999999987801
 21
-1209.999999999684
 31
0.0
1001
ACDBBLOCKREPETAG
1070
     1
1071
       25
1005
12EDA5
  0
LINE
  5
12EDA6
  8
OBJECT
 10
577.9999999998779
 20
-1209.999999999684
 30
0.0
 11
577.9999999998779
 21
-1227.999999999684
 31
0.0
1001
ACDBBLOCKREPETAG
1070
     1
1071
       27
1005
12EDA6
  0
LINE
  5
12EDA7
  8
OBJECT
 10
453.99999999987801
 20
-1193.6618002270091
 30
0.0
 11
453.99999999987801
 21
-1227.999999999684
 31
0.0
1001
ACDBBLOCKREPETAG
1070
     1
1071
       28
1005
12EDA7
  0
LINE
  5
12EDA8
  8
OBJECT
 10
570.44722215124204
 20
-1202.4472221510489
 30
0.0
 11
577.9999999998779
 21
-1209.999999999684
 31
0.0
1001
ACDBBLOCKREPETAG
1070
     1
1071
       37
1005
12EDA8
  0
LINE
  5
12EDA9
  8
OBJECT
 10
570.44722215124204
 20
-1093.5527778483199
 30
0.0
 11
577.9999999998779
 21
-1085.999999999684
 31
0.0
1001
ACDBBLOCKREPETAG
1070
     1
1071
       38
1005
12EDA9
  0
POINT
  5
12EDAA
  8
DOTS
 10
515.99999999987801
 20
-1147.999999999684
 30
0.0
1001
ACDBBLOCKREPETAG
1070
     1
1071
       39
1005
12EDAA
  0
CIRCLE
  5
12EDAB
  8
OBJECT
 10
515.99999999987801
 20
-1147.999999999684
 30
0.0
 40
53.5
1001
ACDBBLOCKREPETAG
1070
     1
1071
      153
1005
12EDAB
  0
CIRCLE
  5
12EDAC
  8
OBJECT
 10
155.9999999999998
 20
-1147.999999999683
 30
0.0
 40
70.0
1001
ACDBBLOCKREPETAG
1070
     1
1071
       43
1005
12EDAC
  0
CIRCLE
  5
12EDAD
  8
OBJECT
 10
155.9999999999998
 20
-1147.999999999683
 30
0.0
 40
77.0
1001
ACDBBLOCKREPETAG
1070
     1
1071
       44
1005
12EDAD
  0
ARC
  5
12EDAE
  8
OBJECT
 10
155.9999999999998
 20
-1147.999999999683
 30
0.0
 40
80.0
 50
140.80503257377961
 51
219.1949674262203
1001
ACDBBLOCKREPETAG
1070
     1
1071
       45
1005
12EDAE
  0
LINE
  5
12EDAF
  8
OBJECT
 10
93.999999999999872
 20
-1102.3381997723591
 30
0.0
 11
93.999999999999872
 21
-1067.999999999683
 31
0.0
1001
ACDBBLOCKREPETAG
1070
     1
1071
       46
1005
12EDAF
  0
LINE
  5
12EDB0
  8
OBJECT
 10
217.99999999999989
 20
-1085.999999999683
 30
0.0
 11
217.99999999999989
 21
-1067.999999999683
 31
0.0
1001
ACDBBLOCKREPETAG
1070
     1
1071
       22
1005
12EDB0
  0
LINE
  5
12EDB1
  8
OBJECT
 10
217.99999999999989
 20
-1085.999999999683
 30
0.0
 11
235.99999999999989
 21
-1085.999999999683
 31
0.0
1001
ACDBBLOCKREPETAG
1070
     1
1071
       24
1005
12EDB1
  0
LINE
  5
12EDB2
  8
OBJECT
 10
217.99999999999989
 20
-1209.999999999683
 30
0.0
 11
235.99999999999989
 21
-1209.999999999683
 31
0.0
1001
ACDBBLOCKREPETAG
1070
     1
1071
       25
1005
12EDB2
  0
LINE
  5
12EDB3
  8
OBJECT
 10
217.99999999999989
 20
-1209.999999999683
 30
0.0
 11
217.99999999999989
 21
-1227.999999999683
 31
0.0
1001
ACDBBLOCKREPETAG
1070
     1
1071
       27
1005
12EDB3
  0
LINE
  5
12EDB4
  8
OBJECT
 10
93.999999999999872
 20
-1193.6618002270079
 30
0.0
 11
93.999999999999872
 21
-1227.999999999683
 31
0.0
1001
ACDBBLOCKREPETAG
1070
     1
1071
       28
1005
12EDB4
  0
LINE
  5
12EDB5
  8
OBJECT
 10
210.44722215136409
 20
-1202.447222151048
 30
0.0
 11
217.99999999999989
 21
-1209.999999999683
 31
0.0
1001
ACDBBLOCKREPETAG
1070
     1
1071
       37
1005
12EDB5
  0
LINE
  5
12EDB6
  8
OBJECT
 10
210.44722215136409
 20
-1093.552777848319
 30
0.0
 11
217.99999999999989
 21
-1085.999999999683
 31
0.0
1001
ACDBBLOCKREPETAG
1070
     1
1071
       38
1005
12EDB6
  0
POINT
  5
12EDB7
  8
DOTS
 10
155.9999999999998
 20
-1147.999999999683
 30
0.0
1001
ACDBBLOCKREPETAG
1070
     1
1071
       39
1005
12EDB7
  0
CIRCLE
  5
12EDB8
  8
OBJECT
 10
155.9999999999998
 20
-1147.999999999683
 30
0.0
 40
53.5
1001
ACDBBLOCKREPETAG
1070
     1
1071
      153
1005
12EDB8
  0
CIRCLE
  5
12EDB9
  8
OBJECT
 10
515.99999999987813
 20
-683.99999999984254
 30
0.0
 40
70.0
1001
ACDBBLOCKREPETAG
1070
     1
1071
       43
1005
12EDB9
  0
CIRCLE
  5
12EDBA
  8
OBJECT
 10
515.99999999987813
 20
-683.99999999984254
 30
0.0
 40
77.0
1001
ACDBBLOCKREPETAG
1070
     1
1071
       44
1005
12EDBA
  0
ARC
  5
12EDBB
  8
OBJECT
 10
515.99999999987813
 20
-683.99999999984254
 30
0.0
 40
80.0
 50
140.8050325737787
 51
219.1949674262213
1001
ACDBBLOCKREPETAG
1070
     1
1071
       45
1005
12EDBB
  0
LINE
  5
12EDBC
  8
OBJECT
 10
453.99999999987801
 20
-638.33819977251824
 30
0.0
 11
453.99999999987801
 21
-603.99999999984266
 31
0.0
1001
ACDBBLOCKREPETAG
1070
     1
1071
       46
1005
12EDBC
  0
LINE
  5
12EDBD
  8
OBJECT
 10
577.99999999987813
 20
-621.99999999984254
 30
0.0
 11
577.99999999987813
 21
-603.99999999984266
 31
0.0
1001
ACDBBLOCKREPETAG
1070
     1
1071
       22
1005
12EDBD
  0
LINE
  5
12EDBE
  8
OBJECT
 10
577.99999999987813
 20
-621.99999999984254
 30
0.0
 11
595.99999999987813
 21
-621.99999999984254
 31
0.0
1001
ACDBBLOCKREPETAG
1070
     1
1071
       24
1005
12EDBE
  0
LINE
  5
12EDBF
  8
OBJECT
 10
577.99999999987813
 20
-745.99999999984254
 30
0.0
 11
595.99999999987813
 21
-745.99999999984254
 31
0.0
1001
ACDBBLOCKREPETAG
1070
     1
1071
       25
1005
12EDBF
  0
LINE
  5
12EDC0
  8
OBJECT
 10
577.99999999987813
 20
-745.99999999984254
 30
0.0
 11
577.99999999987813
 21
-763.99999999984254
 31
0.0
1001
ACDBBLOCKREPETAG
1070
     1
1071
       27
1005
12EDC0
  0
LINE
  5
12EDC1
  8
OBJECT
 10
453.99999999987801
 20
-729.66180022716708
 30
0.0
 11
453.99999999987801
 21
-763.99999999984254
 31
0.0
1001
ACDBBLOCKREPETAG
1070
     1
1071
       28
1005
12EDC1
  0
LINE
  5
12EDC2
  8
OBJECT
 10
570.44722215124239
 20
-738.44722215120669
 30
0.0
 11
577.99999999987813
 21
-745.99999999984254
 31
0.0
1001
ACDBBLOCKREPETAG
1070
     1
1071
       37
1005
12EDC2
  0
LINE
  5
12EDC3
  8
OBJECT
 10
570.44722215124239
 20
-629.5527778484784
 30
0.0
 11
577.99999999987813
 21
-621.99999999984254
 31
0.0
1001
ACDBBLOCKREPETAG
1070
     1
1071
       38
1005
12EDC3
  0
POINT
  5
12EDC4
  8
DOTS
 10
515.99999999987813
 20
-683.99999999984254
 30
0.0
1001
ACDBBLOCKREPETAG
1070
     1
1071
       39
1005
12EDC4
  0
CIRCLE
  5
12EDC5
  8
OBJECT
 10
515.99999999987813
 20
-683.99999999984254
 30
0.0
 40
53.5
1001
ACDBBLOCKREPETAG
1070
     1
1071
      153
1005
12EDC5
  0
CIRCLE
  5
12EDC6
  8
OBJECT
 10
156.0
 20
-683.99999999984254
 30
0.0
 40
70.0
1001
ACDBBLOCKREPETAG
1070
     1
1071
       43
1005
12EDC6
  0
CIRCLE
  5
12EDC7
  8
OBJECT
 10
156.0
 20
-683.99999999984254
 30
0.0
 40
77.0
1001
ACDBBLOCKREPETAG
1070
     1
1071
       44
1005
12EDC7
  0
ARC
  5
12EDC8
  8
OBJECT
 10
156.0
 20
-683.99999999984254
 30
0.0
 40
80.0
 50
140.80503257377961
 51
219.1949674262203
1001
ACDBBLOCKREPETAG
1070
     1
1071
       45
1005
12EDC8
  0
LINE
  5
12EDC9
  8
OBJECT
 10
94.0
 20
-638.33819977251824
 30
0.0
 11
94.0
 21
-603.99999999984266
 31
0.0
1001
ACDBBLOCKREPETAG
1070
     1
1071
       46
1005
12EDC9
  0
LINE
  5
12EDCA
  8
OBJECT
 10
218.0
 20
-621.99999999984254
 30
0.0
 11
218.0
 21
-603.99999999984266
 31
0.0
1001
ACDBBLOCKREPETAG
1070
     1
1071
       22
1005
12EDCA
  0
LINE
  5
12EDCB
  8
OBJECT
 10
218.0
 20
-621.99999999984254
 30
0.0
 11
236.0
 21
-621.99999999984254
 31
0.0
1001
ACDBBLOCKREPETAG
1070
     1
1071
       24
1005
12EDCB
  0
LINE
  5
12EDCC
  8
OBJECT
 10
218.0
 20
-745.99999999984254
 30
0.0
 11
236.0
 21
-745.99999999984254
 31
0.0
1001
ACDBBLOCKREPETAG
1070
     1
1071
       25
1005
12EDCC
  0
LINE
  5
12EDCD
  8
OBJECT
 10
218.0
 20
-745.99999999984254
 30
0.0
 11
218.0
 21
-763.99999999984254
 31
0.0
1001
ACDBBLOCKREPETAG
1070
     1
1071
       27
1005
12EDCD
  0
LINE
  5
12EDCE
  8
OBJECT
 10
94.0
 20
-729.66180022716708
 30
0.0
 11
94.0
 21
-763.99999999984254
 31
0.0
1001
ACDBBLOCKREPETAG
1070
     1
1071
       28
1005
12EDCE
  0
LINE
  5
12EDCF
  8
OBJECT
 10
210.44722215136409
 20
-738.44722215120669
 30
0.0
 11
218.0
 21
-745.99999999984254
 31
0.0
1001
ACDBBLOCKREPETAG
1070
     1
1071
       37
1005
12EDCF
  0
LINE
  5
12EDD0
  8
OBJECT
 10
210.44722215136409
 20
-629.5527778484784
 30
0.0
 11
218.0
 21
-621.99999999984254
 31
0.0
1001
ACDBBLOCKREPETAG
1070
     1
1071
       38
1005
12EDD0
  0
POINT
  5
12EDD1
  8
DOTS
 10
156.0
 20
-683.99999999984254
 30
0.0
1001
ACDBBLOCKREPETAG
1070
     1
1071
       39
1005
12EDD1
  0
CIRCLE
  5
12EDD2
  8
OBJECT
 10
156.0
 20
-683.99999999984254
 30
0.0
 40
53.5
1001
ACDBBLOCKREPETAG
1070
     1
1071
      153
1005
12EDD2
  0
CIRCLE
  5
12EDD3
  8
OBJECT
 10
515.99999999987813
 20
-220.00000000000091
 30
0.0
 40
70.0
1001
ACDBBLOCKREPETAG
1070
     1
1071
       43
1005
12EDD3
  0
CIRCLE
  5
12EDD4
  8
OBJECT
 10
515.99999999987813
 20
-220.00000000000091
 30
0.0
 40
77.0
1001
ACDBBLOCKREPETAG
1070
     1
1071
       44
1005
12EDD4
  0
ARC
  5
12EDD5
  8
OBJECT
 10
515.99999999987813
 20
-220.00000000000091
 30
0.0
 40
80.0
 50
140.80503257378001
 51
219.19496742621999
1001
ACDBBLOCKREPETAG
1070
     1
1071
       45
1005
12EDD5
  0
LINE
  5
12EDD6
  8
OBJECT
 10
453.99999999987801
 20
-174.3381997726764
 30
0.0
 11
453.99999999987801
 21
-140.0000000000008
 31
0.0
1001
ACDBBLOCKREPETAG
1070
     1
1071
       46
1005
12EDD6
  0
LINE
  5
12EDD7
  8
OBJECT
 10
577.99999999987813
 20
-158.0000000000008
 30
0.0
 11
577.99999999987813
 21
-140.0000000000008
 31
0.0
1001
ACDBBLOCKREPETAG
1070
     1
1071
       22
1005
12EDD7
  0
LINE
  5
12EDD8
  8
OBJECT
 10
577.99999999987813
 20
-158.0000000000008
 30
0.0
 11
595.99999999987813
 21
-158.0000000000008
 31
0.0
1001
ACDBBLOCKREPETAG
1070
     1
1071
       24
1005
12EDD8
  0
LINE
  5
12EDD9
  8
OBJECT
 10
577.99999999987813
 20
-282.00000000000091
 30
0.0
 11
595.99999999987813
 21
-282.00000000000091
 31
0.0
1001
ACDBBLOCKREPETAG
1070
     1
1071
       25
1005
12EDD9
  0
LINE
  5
12EDDA
  8
OBJECT
 10
577.99999999987813
 20
-282.00000000000091
 30
0.0
 11
577.99999999987813
 21
-300.0000000000008
 31
0.0
1001
ACDBBLOCKREPETAG
1070
     1
1071
       27
1005
12EDDA
  0
LINE
  5
12EDDB
  8
OBJECT
 10
453.99999999987801
 20
-265.66180022732527
 30
0.0
 11
453.99999999987801
 21
-300.0000000000008
 31
0.0
1001
ACDBBLOCKREPETAG
1070
     1
1071
       28
1005
12EDDB
  0
LINE
  5
12EDDC
  8
OBJECT
 10
570.44722215124239
 20
-274.44722215136511
 30
0.0
 11
577.99999999987813
 21
-282.00000000000091
 31
0.0
1001
ACDBBLOCKREPETAG
1070
     1
1071
       37
1005
12EDDC
  0
LINE
  5
12EDDD
  8
OBJECT
 10
570.44722215124239
 20
-165.55277784863659
 30
0.0
 11
577.99999999987813
 21
-158.0000000000008
 31
0.0
1001
ACDBBLOCKREPETAG
1070
     1
1071
       38
1005
12EDDD
  0
POINT
  5
12EDDE
  8
DOTS
 10
515.99999999987813
 20
-220.00000000000091
 30
0.0
1001
ACDBBLOCKREPETAG
1070
     1
1071
       39
1005
12EDDE
  0
CIRCLE
  5
12EDDF
  8
OBJECT
 10
515.99999999987813
 20
-220.00000000000091
 30
0.0
 40
53.5
1001
ACDBBLOCKREPETAG
1070
     1
1071
      153
1005
12EDDF
  0
CIRCLE
  5
12EDE0
  8
OBJECT
 10
156.0
 20
-220.0
 30
0.0
 40
70.0
1001
ACDBBLOCKREPETAG
1070
     1
1071
       43
1005
12EDE0
  0
CIRCLE
  5
12EDE1
  8
OBJECT
 10
156.0
 20
-220.0
 30
0.0
 40
77.0
1001
ACDBBLOCKREPETAG
1070
     1
1071
       44
1005
12EDE1
  0
ARC
  5
12EDE2
  8
OBJECT
 10
156.0
 20
-220.0
 30
0.0
 40
80.0
 50
140.80503257378101
 51
219.19496742621899
1001
ACDBBLOCKREPETAG
1070
     1
1071
       45
1005
12EDE2
  0
LINE
  5
12EDE3
  8
OBJECT
 10
94.0
 20
-174.33819977267541
 30
0.0
 11
94.0
 21
-140.0
 31
0.0
1001
ACDBBLOCKREPETAG
1070
     1
1071
       46
1005
12EDE3
  0
LINE
  5
12EDE4
  8
OBJECT
 10
218.0
 20
-158.0
 30
0.0
 11
218.0
 21
-140.0
 31
0.0
1001
ACDBBLOCKREPETAG
1070
     1
1071
       22
1005
12EDE4
  0
LINE
  5
12EDE5
  8
OBJECT
 10
218.0
 20
-158.0
 30
0.0
 11
236.0
 21
-158.0
 31
0.0
1001
ACDBBLOCKREPETAG
1070
     1
1071
       24
1005
12EDE5
  0
LINE
  5
12EDE6
  8
OBJECT
 10
218.0
 20
-282.0
 30
0.0
 11
236.0
 21
-282.0
 31
0.0
1001
ACDBBLOCKREPETAG
1070
     1
1071
       25
1005
12EDE6
  0
LINE
  5
12EDE7
  8
OBJECT
 10
218.0
 20
-282.0
 30
0.0
 11
218.0
 21
-300.0
 31
0.0
1001
ACDBBLOCKREPETAG
1070
     1
1071
       27
1005
12EDE7
  0
LINE
  5
12EDE8
  8
OBJECT
 10
94.0
 20
-265.66180022732442
 30
0.0
 11
94.0
 21
-300.0
 31
0.0
1001
ACDBBLOCKREPETAG
1070
     1
1071
       28
1005
12EDE8
  0
LINE
  5
12EDE9
  8
OBJECT
 10
210.44722215136409
 20
-274.44722215136431
 30
0.0
 11
218.0
 21
-282.0
 31
0.0
1001
ACDBBLOCKREPETAG
1070
     1
1071
       37
1005
12EDE9
  0
LINE
  5
12EDEA
  8
OBJECT
 10
210.44722215136409
 20
-165.55277784863571
 30
0.0
 11
218.0
 21
-158.0
 31
0.0
1001
ACDBBLOCKREPETAG
1070
     1
1071
       38
1005
12EDEA
  0
POINT
  5
12EDEB
  8
DOTS
 10
156.0
 20
-220.0
 30
0.0
1001
ACDBBLOCKREPETAG
1070
     1
1071
       39
1005
12EDEB
  0
CIRCLE
  5
12EDEC
  8
OBJECT
 10
156.0
 20
-220.0
 30
0.0
 40
53.5
1001
ACDBBLOCKREPETAG
1070
     1
1071
      153
1005
12EDEC
  0
LINE
  5
12EDED
  8
CENTER
 10
3899.0
 20
-199.99999999999909
 30
0.0
 11
3920.0
 21
-199.99999999999909
 31
0.0
1001
ACDBBLOCKREPETAG
1070
     1
1071
        0
1005
12EDED
  0
LINE
  5
12EDEE
  8
OBJECT
 10
3917.0
 20
-261.99999999999909
 30
0.0
 11
3920.0
 21
-261.99999999999909
 31
0.0
1001
ACDBBLOCKREPETAG
1070
     1
1071
        1
1005
12EDEE
  0
ARC
  5
12EDEF
  8
OBJECT
 10
3917.0
 20
-258.99999999999909
 30
0.0
 40
3.0
 50
180.0
 51
270.0
1001
ACDBBLOCKREPETAG
1070
     1
1071
        2
1005
12EDEF
  0
LINE
  5
12EDF0
  8
OBJECT
 10
3920.0
 20
-137.99999999999909
 30
0.0
 11
3917.0
 21
-137.99999999999909
 31
0.0
1001
ACDBBLOCKREPETAG
1070
     1
1071
        3
1005
12EDF0
  0
ARC
  5
12EDF1
  8
OBJECT
 10
3917.0
 20
-140.99999999999909
 30
0.0
 40
3.0
 50
90.0
 51
180.0
1001
ACDBBLOCKREPETAG
1070
     1
1071
        4
1005
12EDF1
  0
LINE
  5
12EDF2
  8
OBJECT
 10
3914.0
 20
-140.99999999999909
 30
0.0
 11
3914.0
 21
-258.99999999999909
 31
0.0
1001
ACDBBLOCKREPETAG
1070
     1
1071
        5
1005
12EDF2
  0
LINE
  5
12EDF3
  8
OBJECT
 10
4062.0
 20
-332.99999999999898
 30
0.0
 11
4062.0
 21
-339.99999999999909
 31
0.0
1001
ACDBBLOCKREPETAG
1070
     1
1071
       47
1005
12EDF3
  0
LINE
  5
12EDF4
  8
OBJECT
 10
4062.0
 20
-339.99999999999909
 30
0.0
 11
3938.0
 21
-339.99999999999909
 31
0.0
1001
ACDBBLOCKREPETAG
1070
     1
1071
       48
1005
12EDF4
  0
LINE
  5
12EDF5
  8
OBJECT
 10
3938.0
 20
-339.99999999999909
 30
0.0
 11
3938.0
 21
-332.99999999999898
 31
0.0
1001
ACDBBLOCKREPETAG
1070
     1
1071
       49
1005
12EDF5
  0
LINE
  5
12EDF6
  8
OBJECT
 10
3938.0
 20
-332.99999999999898
 30
0.0
 11
4062.0
 21
-332.99999999999898
 31
0.0
1001
ACDBBLOCKREPETAG
1070
     1
1071
       50
1005
12EDF6
  0
LINE
  5
12EDF7
  8
CENTER
 10
4000.0
 20
-354.99999999999909
 30
0.0
 11
4000.0
 21
-279.99999999999909
 31
0.0
1001
ACDBBLOCKREPETAG
1070
     1
1071
       51
1005
12EDF7
  0
LINE
  5
12EDF8
  8
OBJECT
 10
4059.0
 20
-332.99999999999898
 30
0.0
 11
4059.0
 21
-296.99999999999898
 31
0.0
1001
ACDBBLOCKREPETAG
1070
     1
1071
       52
1005
12EDF8
  0
LINE
  5
12EDF9
  8
OBJECT
 10
4059.0
 20
-296.99999999999898
 30
0.0
 11
3941.0
 21
-296.99999999999898
 31
0.0
1001
ACDBBLOCKREPETAG
1070
     1
1071
       53
1005
12EDF9
  0
LINE
  5
12EDFA
  8
OBJECT
 10
3941.0
 20
-296.99999999999898
 30
0.0
 11
3941.0
 21
-332.99999999999898
 31
0.0
1001
ACDBBLOCKREPETAG
1070
     1
1071
       54
1005
12EDFA
  0
LINE
  5
12EDFB
  8
OBJECT
 10
4054.4999999999991
 20
-292.99999999999898
 30
0.0
 11
4054.4999999999991
 21
-285.99999999999898
 31
0.0
1001
ACDBBLOCKREPETAG
1070
     1
1071
       55
1005
12EDFB
  0
LINE
  5
12EDFC
  8
OBJECT
 10
3945.5
 20
-285.99999999999898
 30
0.0
 11
3945.5
 21
-292.99999999999898
 31
0.0
1001
ACDBBLOCKREPETAG
1070
     1
1071
       56
1005
12EDFC
  0
LINE
  5
12EDFD
  8
OBJECT
 10
3945.5
 20
-292.99999999999898
 30
0.0
 11
4054.4999999999991
 21
-292.99999999999898
 31
0.0
1001
ACDBBLOCKREPETAG
1070
     1
1071
       57
1005
12EDFD
  0
LINE
  5
12EDFE
  8
OBJECT
 10
4059.0
 20
-296.99999999999898
 30
0.0
 11
4054.4999999999991
 21
-292.99999999999898
 31
0.0
1001
ACDBBLOCKREPETAG
1070
     1
1071
       58
1005
12EDFE
  0
LINE
  5
12EDFF
  8
OBJECT
 10
3941.0
 20
-296.99999999999898
 30
0.0
 11
3945.5
 21
-292.99999999999898
 31
0.0
1001
ACDBBLOCKREPETAG
1070
     1
1071
       59
1005
12EDFF
  0
LINE
  5
12EE00
  8
OBJECT
 10
4062.0
 20
-283.0
 30
0.0
 11
4062.0
 21
-279.99999999999909
 31
0.0
1001
ACDBBLOCKREPETAG
1070
     1
1071
       60
1005
12EE00
  0
ARC
  5
12EE01
  8
OBJECT
 10
4059.0
 20
-283.0
 30
0.0
 40
3.0
 50
270.0
 51
0.0
1001
ACDBBLOCKREPETAG
1070
     1
1071
       61
1005
12EE01
  0
LINE
  5
12EE02
  8
OBJECT
 10
3938.0
 20
-279.99999999999909
 30
0.0
 11
3938.0
 21
-282.99999999999818
 31
0.0
1001
ACDBBLOCKREPETAG
1070
     1
1071
       62
1005
12EE02
  0
ARC
  5
12EE03
  8
OBJECT
 10
3941.0
 20
-282.99999999999818
 30
0.0
 40
3.0
 50
180.0
 51
270.0
1001
ACDBBLOCKREPETAG
1070
     1
1071
       63
1005
12EE03
  0
LINE
  5
12EE04
  8
OBJECT
 10
3941.0
 20
-285.99999999999818
 30
0.0
 11
4059.0
 21
-286.0
 31
0.0
1001
ACDBBLOCKREPETAG
1070
     1
1071
       64
1005
12EE04
  0
LINE
  5
12EE05
  8
HIDDEN
 10
4044.5
 20
-287.99999999999909
 30
0.0
 11
3955.5
 21
-287.99999999999909
 31
0.0
1001
ACDBBLOCKREPETAG
1070
     1
1071
       65
1005
12EE05
  0
LINE
  5
12EE06
  8
OBJECT
 10
4133.0
 20
-137.99999999999909
 30
0.0
 11
4140.0
 21
-137.99999999999909
 31
0.0
1001
ACDBBLOCKREPETAG
1070
     1
1071
       47
1005
12EE06
  0
LINE
  5
12EE07
  8
OBJECT
 10
4140.0
 20
-137.99999999999909
 30
0.0
 11
4140.0
 21
-261.99999999999909
 31
0.0
1001
ACDBBLOCKREPETAG
1070
     1
1071
       48
1005
12EE07
  0
LINE
  5
12EE08
  8
OBJECT
 10
4140.0
 20
-261.99999999999909
 30
0.0
 11
4133.0
 21
-261.99999999999909
 31
0.0
1001
ACDBBLOCKREPETAG
1070
     1
1071
       49
1005
12EE08
  0
LINE
  5
12EE09
  8
OBJECT
 10
4133.0
 20
-261.99999999999909
 30
0.0
 11
4133.0
 21
-137.99999999999909
 31
0.0
1001
ACDBBLOCKREPETAG
1070
     1
1071
       50
1005
12EE09
  0
LINE
  5
12EE0A
  8
CENTER
 10
4155.0
 20
-199.99999999999909
 30
0.0
 11
4080.0
 21
-199.99999999999909
 31
0.0
1001
ACDBBLOCKREPETAG
1070
     1
1071
       51
1005
12EE0A
  0
LINE
  5
12EE0B
  8
OBJECT
 10
4133.0
 20
-140.99999999999909
 30
0.0
 11
4097.0
 21
-140.99999999999909
 31
0.0
1001
ACDBBLOCKREPETAG
1070
     1
1071
       52
1005
12EE0B
  0
LINE
  5
12EE0C
  8
OBJECT
 10
4097.0
 20
-140.99999999999909
 30
0.0
 11
4097.0
 21
-258.99999999999909
 31
0.0
1001
ACDBBLOCKREPETAG
1070
     1
1071
       53
1005
12EE0C
  0
LINE
  5
12EE0D
  8
OBJECT
 10
4097.0
 20
-258.99999999999909
 30
0.0
 11
4133.0
 21
-258.99999999999909
 31
0.0
1001
ACDBBLOCKREPETAG
1070
     1
1071
       54
1005
12EE0D
  0
LINE
  5
12EE0E
  8
OBJECT
 10
4093.0
 20
-145.49999999999909
 30
0.0
 11
4086.0
 21
-145.49999999999909
 31
0.0
1001
ACDBBLOCKREPETAG
1070
     1
1071
       55
1005
12EE0E
  0
LINE
  5
12EE0F
  8
OBJECT
 10
4086.0
 20
-254.49999999999909
 30
0.0
 11
4093.0
 21
-254.49999999999909
 31
0.0
1001
ACDBBLOCKREPETAG
1070
     1
1071
       56
1005
12EE0F
  0
LINE
  5
12EE10
  8
OBJECT
 10
4093.0
 20
-254.49999999999909
 30
0.0
 11
4093.0
 21
-145.49999999999909
 31
0.0
1001
ACDBBLOCKREPETAG
1070
     1
1071
       57
1005
12EE10
  0
LINE
  5
12EE11
  8
OBJECT
 10
4097.0
 20
-140.99999999999909
 30
0.0
 11
4093.0
 21
-145.49999999999909
 31
0.0
1001
ACDBBLOCKREPETAG
1070
     1
1071
       58
1005
12EE11
  0
LINE
  5
12EE12
  8
OBJECT
 10
4097.0
 20
-258.99999999999909
 30
0.0
 11
4093.0
 21
-254.49999999999909
 31
0.0
1001
ACDBBLOCKREPETAG
1070
     1
1071
       59
1005
12EE12
  0
LINE
  5
12EE13
  8
OBJECT
 10
4083.0
 20
-137.99999999999909
 30
0.0
 11
4080.0
 21
-137.99999999999909
 31
0.0
1001
ACDBBLOCKREPETAG
1070
     1
1071
       60
1005
12EE13
  0
ARC
  5
12EE14
  8
OBJECT
 10
4083.0
 20
-140.99999999999909
 30
0.0
 40
3.0
 50
0.0
 51
90.0
1001
ACDBBLOCKREPETAG
1070
     1
1071
       61
1005
12EE14
  0
LINE
  5
12EE15
  8
OBJECT
 10
4080.0
 20
-261.99999999999909
 30
0.0
 11
4083.0
 21
-261.99999999999909
 31
0.0
1001
ACDBBLOCKREPETAG
1070
     1
1071
       62
1005
12EE15
  0
ARC
  5
12EE16
  8
OBJECT
 10
4083.0
 20
-258.99999999999909
 30
0.0
 40
3.0
 50
270.0
 51
0.0
1001
ACDBBLOCKREPETAG
1070
     1
1071
       63
1005
12EE16
  0
LINE
  5
12EE17
  8
OBJECT
 10
4086.0
 20
-258.99999999999909
 30
0.0
 11
4086.0
 21
-140.99999999999909
 31
0.0
1001
ACDBBLOCKREPETAG
1070
     1
1071
       64
1005
12EE17
  0
LINE
  5
12EE18
  8
HIDDEN
 10
4088.0
 20
-155.49999999999909
 30
0.0
 11
4088.0
 21
-244.49999999999909
 31
0.0
1001
ACDBBLOCKREPETAG
1070
     1
1071
       65
1005
12EE18
  0
LINE
  5
12EE19
  8
OBJECT
 10
3917.0
 20
-634.0
 30
0.0
 11
3920.0
 21
-634.0
 31
0.0
1001
ACDBBLOCKREPETAG
1070
     1
1071
        1
1005
12EE19
  0
ARC
  5
12EE1A
  8
OBJECT
 10
3917.0
 20
-637.0
 30
0.0
 40
3.0
 50
90.0
 51
180.0
1001
ACDBBLOCKREPETAG
1070
     1
1071
        2
1005
12EE1A
  0
LINE
  5
12EE1B
  8
OBJECT
 10
3920.0
 20
-758.0
 30
0.0
 11
3917.0
 21
-758.0
 31
0.0
1001
ACDBBLOCKREPETAG
1070
     1
1071
        3
1005
12EE1B
  0
ARC
  5
12EE1C
  8
OBJECT
 10
3917.0
 20
-755.0
 30
0.0
 40
3.0
 50
180.0
 51
270.0
1001
ACDBBLOCKREPETAG
1070
     1
1071
        4
1005
12EE1C
  0
LINE
  5
12EE1D
  8
OBJECT
 10
3914.0
 20
-755.0
 30
0.0
 11
3914.0
 21
-637.0
 31
0.0
1001
ACDBBLOCKREPETAG
1070
     1
1071
        5
1005
12EE1D
  0
LINE
  5
12EE1E
  8
CENTER
 10
4077.0
 20
-696.0
 30
0.0
 11
3923.0
 21
-696.0
 31
0.0
1001
ACDBBLOCKREPETAG
1070
     1
1071
       17
1005
12EE1E
  0
CIRCLE
  5
12EE1F
  8
OBJECT
 10
4000.0
 20
-696.0
 30
0.0
 40
41.5
1001
ACDBBLOCKREPETAG
1070
     1
1071
       19
1005
12EE1F
  0
CIRCLE
  5
12EE20
  8
OBJECT
 10
4000.0
 20
-696.0
 30
0.0
 40
54.0
1001
ACDBBLOCKREPETAG
1070
     1
1071
       20
1005
12EE20
  0
ARC
  5
12EE21
  8
OBJECT
 10
4000.0
 20
-696.0
 30
0.0
 40
62.0
 50
287.89655112920718
 51
252.10344887079279
1001
ACDBBLOCKREPETAG
1070
     1
1071
       21
1005
12EE21
  0
LINE
  5
12EE22
  8
OBJECT
 10
3980.947441116743
 20
-755.0
 30
0.0
 11
4019.052558883257
 21
-755.0
 31
0.0
1001
ACDBBLOCKREPETAG
1070
     1
1071
       22
1005
12EE22
  0
LINE
  5
12EE23
  8
OBJECT
 10
4133.0
 20
-634.0
 30
0.0
 11
4140.0
 21
-634.0
 31
0.0
1001
ACDBBLOCKREPETAG
1070
     1
1071
       45
1005
12EE23
  0
LINE
  5
12EE24
  8
OBJECT
 10
4140.0
 20
-634.0
 30
0.0
 11
4140.0
 21
-755.0
 31
0.0
1001
ACDBBLOCKREPETAG
1070
     1
1071
       46
1005
12EE24
  0
LINE
  5
12EE25
  8
OBJECT
 10
4133.0
 20
-755.0
 30
0.0
 11
4133.0
 21
-634.0
 31
0.0
1001
ACDBBLOCKREPETAG
1070
     1
1071
       47
1005
12EE25
  0
LINE
  5
12EE26
  8
CENTER
 10
4155.0
 20
-696.0
 30
0.0
 11
4071.0
 21
-696.0
 31
0.0
1001
ACDBBLOCKREPETAG
1070
     1
1071
       48
1005
12EE26
  0
LINE
  5
12EE27
  8
OBJECT
 10
4133.0
 20
-637.0
 30
0.0
 11
4097.0
 21
-637.0
 31
0.0
1001
ACDBBLOCKREPETAG
1070
     1
1071
       49
1005
12EE27
  0
LINE
  5
12EE28
  8
OBJECT
 10
4097.0
 20
-637.0
 30
0.0
 11
4097.0
 21
-755.0
 31
0.0
1001
ACDBBLOCKREPETAG
1070
     1
1071
       50
1005
12EE28
  0
LINE
  5
12EE29
  8
OBJECT
 10
4097.0
 20
-755.0
 30
0.0
 11
4140.0
 21
-755.0
 31
0.0
1001
ACDBBLOCKREPETAG
1070
     1
1071
       51
1005
12EE29
  0
LINE
  5
12EE2A
  8
OBJECT
 10
4093.0
 20
-641.5
 30
0.0
 11
4086.0
 21
-641.5
 31
0.0
1001
ACDBBLOCKREPETAG
1070
     1
1071
       52
1005
12EE2A
  0
LINE
  5
12EE2B
  8
OBJECT
 10
4086.0
 20
-750.49999999999989
 30
0.0
 11
4093.0
 21
-750.49999999999989
 31
0.0
1001
ACDBBLOCKREPETAG
1070
     1
1071
       53
1005
12EE2B
  0
LINE
  5
12EE2C
  8
OBJECT
 10
4093.0
 20
-750.49999999999989
 30
0.0
 11
4093.0
 21
-641.5
 31
0.0
1001
ACDBBLOCKREPETAG
1070
     1
1071
       54
1005
12EE2C
  0
LINE
  5
12EE2D
  8
OBJECT
 10
4097.0
 20
-637.0
 30
0.0
 11
4093.0
 21
-641.5
 31
0.0
1001
ACDBBLOCKREPETAG
1070
     1
1071
       55
1005
12EE2D
  0
LINE
  5
12EE2E
  8
OBJECT
 10
4097.0
 20
-755.0
 30
0.0
 11
4093.0
 21
-750.49999999999989
 31
0.0
1001
ACDBBLOCKREPETAG
1070
     1
1071
       56
1005
12EE2E
  0
LINE
  5
12EE2F
  8
OBJECT
 10
4083.0
 20
-634.0
 30
0.0
 11
4080.0
 21
-634.0
 31
0.0
1001
ACDBBLOCKREPETAG
1070
     1
1071
       57
1005
12EE2F
  0
ARC
  5
12EE30
  8
OBJECT
 10
4083.0
 20
-637.0
 30
0.0
 40
3.0
 50
0.0
 51
90.0
1001
ACDBBLOCKREPETAG
1070
     1
1071
       58
1005
12EE30
  0
LINE
  5
12EE31
  8
OBJECT
 10
4080.0
 20
-758.0
 30
0.0
 11
4083.0
 21
-758.0
 31
0.0
1001
ACDBBLOCKREPETAG
1070
     1
1071
       59
1005
12EE31
  0
ARC
  5
12EE32
  8
OBJECT
 10
4083.0
 20
-755.0
 30
0.0
 40
3.0
 50
270.0
 51
0.0
1001
ACDBBLOCKREPETAG
1070
     1
1071
       60
1005
12EE32
  0
LINE
  5
12EE33
  8
OBJECT
 10
4086.0
 20
-755.0
 30
0.0
 11
4086.0
 21
-637.0
 31
0.0
1001
ACDBBLOCKREPETAG
1070
     1
1071
       61
1005
12EE33
  0
LINE
  5
12EE34
  8
HIDDEN
 10
4088.0
 20
-651.5
 30
0.0
 11
4088.0
 21
-740.5
 31
0.0
1001
ACDBBLOCKREPETAG
1070
     1
1071
       63
1005
12EE34
  0
LINE
  5
12EE35
  8
OBJECT
 10
94.000000000034575
 20
-3551.0000000009109
 30
0.0
 11
94.000000000034575
 21
-3548.0000000009109
 31
0.0
1001
ACDBBLOCKREPETAG
1070
     1
1071
      418
1005
12EE35
  0
ARC
  5
12EE36
  8
OBJECT
 10
97.000000000034561
 20
-3551.0000000009109
 30
0.0
 40
3.0
 50
180.0
 51
270.0
1001
ACDBBLOCKREPETAG
1070
     1
1071
      419
1005
12EE36
  0
LINE
  5
12EE37
  8
OBJECT
 10
218.00000000003459
 20
-3548.0000000009109
 30
0.0
 11
218.00000000003459
 21
-3551.0000000009109
 31
0.0
1001
ACDBBLOCKREPETAG
1070
     1
1071
      420
1005
12EE37
  0
ARC
  5
12EE38
  8
OBJECT
 10
215.00000000003459
 20
-3551.0000000009109
 30
0.0
 40
3.0
 50
270.0
 51
0.0
1001
ACDBBLOCKREPETAG
1070
     1
1071
      421
1005
12EE38
  0
LINE
  5
12EE39
  8
OBJECT
 10
215.00000000003459
 20
-3554.0000000009109
 30
0.0
 11
97.000000000034561
 21
-3554.0000000009109
 31
0.0
1001
ACDBBLOCKREPETAG
1070
     1
1071
      422
1005
12EE39
  0
INSERT
  5
12EE3A
  8
OBJECT
  2
*U4
 10
0.0
 20
0.0
 30
0.0
  0
LINE
  5
12EE3B
  8
OBJECT
 10
289.00000000003462
 20
-3406.0000000009109
 30
0.0
 11
296.0000000000345
 21
-3406.0000000009109
 31
0.0
1001
ACDBBLOCKREPETAG
1070
     1
1071
       39
1005
12EE3B
  0
LINE
  5
12EE3C
  8
OBJECT
 10
296.0000000000345
 20
-3406.0000000009109
 30
0.0
 11
296.0000000000345
 21
-3530.0000000009109
 31
0.0
1001
ACDBBLOCKREPETAG
1070
     1
1071
       40
1005
12EE3C
  0
LINE
  5
12EE3D
  8
OBJECT
 10
296.0000000000345
 20
-3530.0000000009109
 30
0.0
 11
289.00000000003462
 21
-3530.0000000009109
 31
0.0
1001
ACDBBLOCKREPETAG
1070
     1
1071
       41
1005
12EE3D
  0
LINE
  5
12EE3E
  8
OBJECT
 10
289.00000000003462
 20
-3530.0000000009109
 30
0.0
 11
289.00000000003462
 21
-3406.0000000009109
 31
0.0
1001
ACDBBLOCKREPETAG
1070
     1
1071
       42
1005
12EE3E
  0
LINE
  5
12EE3F
  8
OBJECT
 10
289.00000000003462
 20
-3409.0000000009109
 30
0.0
 11
253.00000000003459
 21
-3409.0000000009109
 31
0.0
1001
ACDBBLOCKREPETAG
1070
     1
1071
       43
1005
12EE3F
  0
LINE
  5
12EE40
  8
OBJECT
 10
253.00000000003459
 20
-3409.0000000009109
 30
0.0
 11
253.00000000003459
 21
-3527.0000000009109
 31
0.0
1001
ACDBBLOCKREPETAG
1070
     1
1071
       44
1005
12EE40
  0
LINE
  5
12EE41
  8
OBJECT
 10
253.00000000003459
 20
-3527.0000000009109
 30
0.0
 11
289.00000000003462
 21
-3527.0000000009109
 31
0.0
1001
ACDBBLOCKREPETAG
1070
     1
1071
       45
1005
12EE41
  0
LINE
  5
12EE42
  8
OBJECT
 10
249.00000000003459
 20
-3413.5000000009122
 30
0.0
 11
242.00000000003459
 21
-3413.5000000009122
 31
0.0
1001
ACDBBLOCKREPETAG
1070
     1
1071
       46
1005
12EE42
  0
LINE
  5
12EE43
  8
OBJECT
 10
242.00000000003459
 20
-3522.5000000009109
 30
0.0
 11
249.00000000003459
 21
-3522.5000000009109
 31
0.0
1001
ACDBBLOCKREPETAG
1070
     1
1071
       47
1005
12EE43
  0
LINE
  5
12EE44
  8
OBJECT
 10
249.00000000003459
 20
-3522.5000000009109
 30
0.0
 11
249.00000000003459
 21
-3413.5000000009122
 31
0.0
1001
ACDBBLOCKREPETAG
1070
     1
1071
       48
1005
12EE44
  0
LINE
  5
12EE45
  8
OBJECT
 10
253.00000000003459
 20
-3409.0000000009109
 30
0.0
 11
249.00000000003459
 21
-3413.5000000009122
 31
0.0
1001
ACDBBLOCKREPETAG
1070
     1
1071
       49
1005
12EE45
  0
LINE
  5
12EE46
  8
OBJECT
 10
253.00000000003459
 20
-3527.0000000009109
 30
0.0
 11
249.00000000003459
 21
-3522.5000000009109
 31
0.0
1001
ACDBBLOCKREPETAG
1070
     1
1071
       50
1005
12EE46
  0
LINE
  5
12EE47
  8
OBJECT
 10
239.00000000003641
 20
-3406.0000000009109
 30
0.0
 11
236.00000000003459
 21
-3406.0000000009109
 31
0.0
1001
ACDBBLOCKREPETAG
1070
     1
1071
       51
1005
12EE47
  0
ARC
  5
12EE48
  8
OBJECT
 10
239.00000000003641
 20
-3409.0000000009109
 30
0.0
 40
3.0
 50
0.0
 51
90.0
1001
ACDBBLOCKREPETAG
1070
     1
1071
       52
1005
12EE48
  0
LINE
  5
12EE49
  8
OBJECT
 10
236.00000000003459
 20
-3530.0000000009109
 30
0.0
 11
239.00000000003271
 21
-3530.0000000009109
 31
0.0
1001
ACDBBLOCKREPETAG
1070
     1
1071
       53
1005
12EE49
  0
ARC
  5
12EE4A
  8
OBJECT
 10
239.00000000003271
 20
-3527.0000000009109
 30
0.0
 40
3.0
 50
270.0
 51
0.0
1001
ACDBBLOCKREPETAG
1070
     1
1071
       54
1005
12EE4A
  0
LINE
  5
12EE4B
  8
OBJECT
 10
242.0000000000328
 20
-3527.0000000009109
 30
0.0
 11
242.00000000003641
 21
-3409.0000000009109
 31
0.0
1001
ACDBBLOCKREPETAG
1070
     1
1071
       55
1005
12EE4B
  0
LINE
  5
12EE4C
  8
HIDDEN
 10
244.0000000000345
 20
-3423.5000000009122
 30
0.0
 11
244.0000000000345
 21
-3512.5000000009122
 31
0.0
1001
ACDBBLOCKREPETAG
1070
     1
1071
      430
1005
12EE4C
  0
LINE
  5
12EE4D
  8
OBJECT
 10
81.000000000034561
 20
-3318.0000000009122
 30
0.0
 11
81.000000000034561
 21
-3325.0000000009122
 31
0.0
1001
ACDBBLOCKREPETAG
1070
     1
1071
       57
1005
12EE4D
  0
LINE
  5
12EE4E
  8
OBJECT
 10
81.000000000034561
 20
-3325.0000000009122
 30
0.0
 11
231.0000000000345
 21
-3325.0000000009122
 31
0.0
1001
ACDBBLOCKREPETAG
1070
     1
1071
       58
1005
12EE4E
  0
LINE
  5
12EE4F
  8
OBJECT
 10
84.000000000034575
 20
-3366.5000000009109
 30
0.0
 11
228.00000000003459
 21
-3366.5000000009109
 31
0.0
1001
ACDBBLOCKREPETAG
1070
     1
1071
       59
1005
12EE4F
  0
LINE
  5
12EE50
  8
OBJECT
 10
90.500000000034547
 20
-3378.0000000009109
 30
0.0
 11
221.50000000003459
 21
-3378.0000000009109
 31
0.0
1001
ACDBBLOCKREPETAG
1070
     1
1071
       60
1005
12EE50
  0
LINE
  5
12EE51
  8
OBJECT
 10
231.0000000000345
 20
-3325.0000000009122
 30
0.0
 11
231.0000000000345
 21
-3318.0000000009122
 31
0.0
1001
ACDBBLOCKREPETAG
1070
     1
1071
       61
1005
12EE51
  0
LINE
  5
12EE52
  8
OBJECT
 10
231.0000000000345
 20
-3318.0000000009122
 30
0.0
 11
81.000000000034561
 21
-3318.0000000009122
 31
0.0
1001
ACDBBLOCKREPETAG
1070
     1
1071
       62
1005
12EE52
  0
LINE
  5
12EE53
  8
OBJECT
 10
218.00000000003459
 20
-3382.0000000009122
 30
0.0
 11
218.00000000003459
 21
-3388.0000000009109
 31
0.0
1001
ACDBBLOCKREPETAG
1070
     1
1071
       63
1005
12EE53
  0
LINE
  5
12EE54
  8
OBJECT
 10
228.00000000003459
 20
-3325.0000000009122
 30
0.0
 11
228.00000000003459
 21
-3366.5000000009109
 31
0.0
1001
ACDBBLOCKREPETAG
1070
     1
1071
       64
1005
12EE54
  0
LINE
  5
12EE55
  8
OBJECT
 10
228.00000000003459
 20
-3366.5000000009109
 30
0.0
 11
221.50000000003459
 21
-3378.0000000009109
 31
0.0
1001
ACDBBLOCKREPETAG
1070
     1
1071
       65
1005
12EE55
  0
LINE
  5
12EE56
  8
OBJECT
 10
221.50000000003459
 20
-3378.0000000009109
 30
0.0
 11
218.00000000003459
 21
-3382.0000000009122
 31
0.0
1001
ACDBBLOCKREPETAG
1070
     1
1071
       66
1005
12EE56
  0
LINE
  5
12EE57
  8
OBJECT
 10
84.000000000034575
 20
-3366.5000000009109
 30
0.0
 11
90.500000000034547
 21
-3378.0000000009109
 31
0.0
1001
ACDBBLOCKREPETAG
1070
     1
1071
       67
1005
12EE57
  0
LINE
  5
12EE58
  8
OBJECT
 10
90.500000000034547
 20
-3378.0000000009109
 30
0.0
 11
94.000000000034575
 21
-3382.0000000009122
 31
0.0
1001
ACDBBLOCKREPETAG
1070
     1
1071
       68
1005
12EE58
  0
ARC
  5
12EE59
  8
OBJECT
 10
156.0000000000345
 20
-3000.1000000009099
 30
0.0
 40
386.89999999999998
 50
260.77870136257849
 51
279.22129863742163
1001
ACDBBLOCKREPETAG
1070
     1
1071
       69
1005
12EE59
  0
LINE
  5
12EE5A
  8
OBJECT
 10
94.000000000034575
 20
-3382.0000000009122
 30
0.0
 11
94.000000000034575
 21
-3388.0000000009109
 31
0.0
1001
ACDBBLOCKREPETAG
1070
     1
1071
       70
1005
12EE5A
  0
LINE
  5
12EE5B
  8
OBJECT
 10
84.000000000034575
 20
-3325.0000000009122
 30
0.0
 11
84.000000000034575
 21
-3366.5000000009109
 31
0.0
1001
ACDBBLOCKREPETAG
1070
     1
1071
       71
1005
12EE5B
  0
INSERT
  5
12EE5C
  8
OBJECT
  2
*U5
 10
0.0
 20
0.0
 30
0.0
  0
LINE
  5
12EE5D
  8
HIDDEN
 10
213.00000000003459
 20
-3370.0000000009109
 30
0.0
 11
99.000000000034575
 21
-3370.0000000009109
 31
0.0
1001
ACDBBLOCKREPETAG
1070
     1
1071
      431
1005
12EE5D
  0
LINE
  5
12EE5E
  8
OBJECT
 10
454.00000000011448
 20
-3551.0000000009109
 30
0.0
 11
454.00000000011448
 21
-3548.0000000009109
 31
0.0
1001
ACDBBLOCKREPETAG
1070
     1
1071
      418
1005
12EE5E
  0
ARC
  5
12EE5F
  8
OBJECT
 10
457.0000000001146
 20
-3551.0000000009109
 30
0.0
 40
3.0
 50
180.0
 51
270.0
1001
ACDBBLOCKREPETAG
1070
     1
1071
      419
1005
12EE5F
  0
LINE
  5
12EE60
  8
OBJECT
 10
578.00000000011448
 20
-3548.0000000009109
 30
0.0
 11
578.00000000011448
 21
-3551.0000000009109
 31
0.0
1001
ACDBBLOCKREPETAG
1070
     1
1071
      420
1005
12EE60
  0
ARC
  5
12EE61
  8
OBJECT
 10
575.00000000011437
 20
-3551.0000000009109
 30
0.0
 40
3.0
 50
270.0
 51
0.0
1001
ACDBBLOCKREPETAG
1070
     1
1071
      421
1005
12EE61
  0
LINE
  5
12EE62
  8
OBJECT
 10
575.00000000011437
 20
-3554.0000000009109
 30
0.0
 11
457.0000000001146
 21
-3554.0000000009109
 31
0.0
1001
ACDBBLOCKREPETAG
1070
     1
1071
      422
1005
12EE62
  0
LINE
  5
12EE63
  8
OBJECT
 10
666.00000000011448
 20
-3393.0000000009122
 30
0.0
 11
659.0000000001146
 21
-3393.0000000009122
 31
0.0
1001
ACDBBLOCKREPETAG
1070
     1
1071
       57
1005
12EE63
  0
LINE
  5
12EE64
  8
OBJECT
 10
659.0000000001146
 20
-3393.0000000009122
 30
0.0
 11
659.0000000001146
 21
-3543.0000000009122
 31
0.0
1001
ACDBBLOCKREPETAG
1070
     1
1071
       58
1005
12EE64
  0
LINE
  5
12EE65
  8
OBJECT
 10
617.5000000001146
 20
-3396.0000000009122
 30
0.0
 11
617.5000000001146
 21
-3540.0000000009122
 31
0.0
1001
ACDBBLOCKREPETAG
1070
     1
1071
       59
1005
12EE65
  0
LINE
  5
12EE66
  8
OBJECT
 10
606.0000000001146
 20
-3402.5000000009122
 30
0.0
 11
606.0000000001146
 21
-3533.5000000009122
 31
0.0
1001
ACDBBLOCKREPETAG
1070
     1
1071
       60
1005
12EE66
  0
LINE
  5
12EE67
  8
OBJECT
 10
659.0000000001146
 20
-3543.0000000009122
 30
0.0
 11
666.00000000011448
 21
-3543.0000000009122
 31
0.0
1001
ACDBBLOCKREPETAG
1070
     1
1071
       61
1005
12EE67
  0
LINE
  5
12EE68
  8
OBJECT
 10
666.00000000011448
 20
-3543.0000000009122
 30
0.0
 11
666.00000000011448
 21
-3393.0000000009122
 31
0.0
1001
ACDBBLOCKREPETAG
1070
     1
1071
       62
1005
12EE68
  0
LINE
  5
12EE69
  8
OBJECT
 10
602.0000000001146
 20
-3530.0000000009109
 30
0.0
 11
596.00000000011437
 21
-3530.0000000009109
 31
0.0
1001
ACDBBLOCKREPETAG
1070
     1
1071
       63
1005
12EE69
  0
LINE
  5
12EE6A
  8
OBJECT
 10
659.0000000001146
 20
-3540.0000000009122
 30
0.0
 11
617.5000000001146
 21
-3540.0000000009122
 31
0.0
1001
ACDBBLOCKREPETAG
1070
     1
1071
       64
1005
12EE6A
  0
LINE
  5
12EE6B
  8
OBJECT
 10
617.5000000001146
 20
-3540.0000000009122
 30
0.0
 11
606.0000000001146
 21
-3533.5000000009122
 31
0.0
1001
ACDBBLOCKREPETAG
1070
     1
1071
       65
1005
12EE6B
  0
LINE
  5
12EE6C
  8
OBJECT
 10
606.0000000001146
 20
-3533.5000000009122
 30
0.0
 11
602.0000000001146
 21
-3530.0000000009109
 31
0.0
1001
ACDBBLOCKREPETAG
1070
     1
1071
       66
1005
12EE6C
  0
LINE
  5
12EE6D
  8
OBJECT
 10
617.5000000001146
 20
-3396.0000000009122
 30
0.0
 11
606.0000000001146
 21
-3402.5000000009122
 31
0.0
1001
ACDBBLOCKREPETAG
1070
     1
1071
       67
1005
12EE6D
  0
LINE
  5
12EE6E
  8
OBJECT
 10
606.0000000001146
 20
-3402.5000000009122
 30
0.0
 11
602.0000000001146
 21
-3406.0000000009109
 31
0.0
1001
ACDBBLOCKREPETAG
1070
     1
1071
       68
1005
12EE6E
  0
ARC
  5
12EE6F
  8
OBJECT
 10
983.90000000011605
 20
-3468.0000000009122
 30
0.0
 40
386.89999999999998
 50
170.77870136263201
 51
189.22129863736799
1001
ACDBBLOCKREPETAG
1070
     1
1071
       69
1005
12EE6F
  0
LINE
  5
12EE70
  8
OBJECT
 10
602.0000000001146
 20
-3406.0000000009109
 30
0.0
 11
596.00000000011437
 21
-3406.0000000009109
 31
0.0
1001
ACDBBLOCKREPETAG
1070
     1
1071
       70
1005
12EE70
  0
LINE
  5
12EE71
  8
OBJECT
 10
659.0000000001146
 20
-3396.0000000009122
 30
0.0
 11
617.5000000001146
 21
-3396.0000000009122
 31
0.0
1001
ACDBBLOCKREPETAG
1070
     1
1071
       71
1005
12EE71
  0
INSERT
  5
12EE72
  8
OBJECT
  2
*U6
 10
0.0
 20
0.0
 30
0.0
  0
LINE
  5
12EE73
  8
HIDDEN
 10
614.0000000001146
 20
-3525.0000000009122
 30
0.0
 11
614.0000000001146
 21
-3411.0000000009122
 31
0.0
1001
ACDBBLOCKREPETAG
1070
     1
1071
      437
1005
12EE73
  0
LINE
  5
12EE74
  8
OBJECT
 10
441.00000000011448
 20
-3318.0000000009122
 30
0.0
 11
441.00000000011448
 21
-3325.0000000009122
 31
0.0
1001
ACDBBLOCKREPETAG
1070
     1
1071
       57
1005
12EE74
  0
LINE
  5
12EE75
  8
OBJECT
 10
441.00000000011448
 20
-3325.0000000009122
 30
0.0
 11
591.00000000011448
 21
-3325.0000000009122
 31
0.0
1001
ACDBBLOCKREPETAG
1070
     1
1071
       58
1005
12EE75
  0
LINE
  5
12EE76
  8
OBJECT
 10
444.0000000001146
 20
-3366.5000000009109
 30
0.0
 11
588.00000000011437
 21
-3366.5000000009109
 31
0.0
1001
ACDBBLOCKREPETAG
1070
     1
1071
       59
1005
12EE76
  0
LINE
  5
12EE77
  8
OBJECT
 10
450.50000000011448
 20
-3378.0000000009109
 30
0.0
 11
581.5000000001146
 21
-3378.0000000009109
 31
0.0
1001
ACDBBLOCKREPETAG
1070
     1
1071
       60
1005
12EE77
  0
LINE
  5
12EE78
  8
OBJECT
 10
591.00000000011448
 20
-3325.0000000009122
 30
0.0
 11
591.00000000011448
 21
-3318.0000000009122
 31
0.0
1001
ACDBBLOCKREPETAG
1070
     1
1071
       61
1005
12EE78
  0
LINE
  5
12EE79
  8
OBJECT
 10
591.00000000011448
 20
-3318.0000000009122
 30
0.0
 11
441.00000000011448
 21
-3318.0000000009122
 31
0.0
1001
ACDBBLOCKREPETAG
1070
     1
1071
       62
1005
12EE79
  0
LINE
  5
12EE7A
  8
OBJECT
 10
578.00000000011448
 20
-3382.0000000009122
 30
0.0
 11
578.00000000011448
 21
-3388.0000000009109
 31
0.0
1001
ACDBBLOCKREPETAG
1070
     1
1071
       63
1005
12EE7A
  0
LINE
  5
12EE7B
  8
OBJECT
 10
588.00000000011437
 20
-3325.0000000009122
 30
0.0
 11
588.00000000011437
 21
-3366.5000000009109
 31
0.0
1001
ACDBBLOCKREPETAG
1070
     1
1071
       64
1005
12EE7B
  0
LINE
  5
12EE7C
  8
OBJECT
 10
588.00000000011437
 20
-3366.5000000009109
 30
0.0
 11
581.5000000001146
 21
-3378.0000000009109
 31
0.0
1001
ACDBBLOCKREPETAG
1070
     1
1071
       65
1005
12EE7C
  0
LINE
  5
12EE7D
  8
OBJECT
 10
581.5000000001146
 20
-3378.0000000009109
 30
0.0
 11
578.00000000011448
 21
-3382.0000000009122
 31
0.0
1001
ACDBBLOCKREPETAG
1070
     1
1071
       66
1005
12EE7D
  0
LINE
  5
12EE7E
  8
OBJECT
 10
444.0000000001146
 20
-3366.5000000009109
 30
0.0
 11
450.50000000011448
 21
-3378.0000000009109
 31
0.0
1001
ACDBBLOCKREPETAG
1070
     1
1071
       67
1005
12EE7E
  0
LINE
  5
12EE7F
  8
OBJECT
 10
450.50000000011448
 20
-3378.0000000009109
 30
0.0
 11
454.00000000011448
 21
-3382.0000000009122
 31
0.0
1001
ACDBBLOCKREPETAG
1070
     1
1071
       68
1005
12EE7F
  0
ARC
  5
12EE80
  8
OBJECT
 10
516.00000000011448
 20
-3000.1000000009099
 30
0.0
 40
386.89999999999998
 50
260.77870136257849
 51
279.22129863742163
1001
ACDBBLOCKREPETAG
1070
     1
1071
       69
1005
12EE80
  0
LINE
  5
12EE81
  8
OBJECT
 10
454.00000000011448
 20
-3382.0000000009122
 30
0.0
 11
454.00000000011448
 21
-3388.0000000009109
 31
0.0
1001
ACDBBLOCKREPETAG
1070
     1
1071
       70
1005
12EE81
  0
LINE
  5
12EE82
  8
OBJECT
 10
444.0000000001146
 20
-3325.0000000009122
 30
0.0
 11
444.0000000001146
 21
-3366.5000000009109
 31
0.0
1001
ACDBBLOCKREPETAG
1070
     1
1071
       71
1005
12EE82
  0
INSERT
  5
12EE83
  8
OBJECT
  2
*U7
 10
0.0
 20
0.0
 30
0.0
  0
LINE
  5
12EE84
  8
HIDDEN
 10
573.0000000001146
 20
-3370.0000000009109
 30
0.0
 11
459.0000000001146
 21
-3370.0000000009109
 31
0.0
1001
ACDBBLOCKREPETAG
1070
     1
1071
      431
1005
12EE84
  0
LINE
  5
12EE85
  8
OBJECT
 10
454.00000000011448
 20
-3087.0000000009049
 30
0.0
 11
454.00000000011448
 21
-3084.0000000009049
 31
0.0
1001
ACDBBLOCKREPETAG
1070
     1
1071
      418
1005
12EE85
  0
ARC
  5
12EE86
  8
OBJECT
 10
457.0000000001146
 20
-3087.0000000009049
 30
0.0
 40
3.0
 50
180.0
 51
270.0
1001
ACDBBLOCKREPETAG
1070
     1
1071
      419
1005
12EE86
  0
LINE
  5
12EE87
  8
OBJECT
 10
578.00000000011448
 20
-3084.0000000009049
 30
0.0
 11
578.00000000011448
 21
-3087.0000000009049
 31
0.0
1001
ACDBBLOCKREPETAG
1070
     1
1071
      420
1005
12EE87
  0
ARC
  5
12EE88
  8
OBJECT
 10
575.00000000011437
 20
-3087.0000000009049
 30
0.0
 40
3.0
 50
270.0
 51
0.0
1001
ACDBBLOCKREPETAG
1070
     1
1071
      421
1005
12EE88
  0
LINE
  5
12EE89
  8
OBJECT
 10
575.00000000011437
 20
-3090.0000000009049
 30
0.0
 11
457.0000000001146
 21
-3090.0000000009049
 31
0.0
1001
ACDBBLOCKREPETAG
1070
     1
1071
      422
1005
12EE89
  0
INSERT
  5
12EE8A
  8
OBJECT
  2
*U8
 10
0.0
 20
0.0
 30
0.0
  0
LINE
  5
12EE8B
  8
OBJECT
 10
649.00000000011448
 20
-2949.0000000009049
 30
0.0
 11
656.0000000001146
 21
-2949.0000000009049
 31
0.0
1001
ACDBBLOCKREPETAG
1070
     1
1071
       20
1005
12EE8B
  0
LINE
  5
12EE8C
  8
OBJECT
 10
656.0000000001146
 20
-2949.0000000009049
 30
0.0
 11
656.0000000001146
 21
-3059.0000000009049
 31
0.0
1001
ACDBBLOCKREPETAG
1070
     1
1071
       21
1005
12EE8C
  0
LINE
  5
12EE8D
  8
OBJECT
 10
656.0000000001146
 20
-3059.0000000009049
 30
0.0
 11
649.00000000011448
 21
-3059.0000000009049
 31
0.0
1001
ACDBBLOCKREPETAG
1070
     1
1071
       22
1005
12EE8D
  0
LINE
  5
12EE8E
  8
OBJECT
 10
649.00000000011448
 20
-3059.0000000009049
 30
0.0
 11
649.00000000011448
 21
-2949.0000000009049
 31
0.0
1001
ACDBBLOCKREPETAG
1070
     1
1071
       23
1005
12EE8E
  0
LINE
  5
12EE8F
  8
OBJECT
 10
649.00000000011448
 20
-2952.0000000009049
 30
0.0
 11
613.0000000001146
 21
-2952.0000000009049
 31
0.0
1001
ACDBBLOCKREPETAG
1070
     1
1071
       24
1005
12EE8F
  0
LINE
  5
12EE90
  8
OBJECT
 10
613.0000000001146
 20
-2952.0000000009049
 30
0.0
 11
613.0000000001146
 21
-3056.0000000009049
 31
0.0
1001
ACDBBLOCKREPETAG
1070
     1
1071
       25
1005
12EE90
  0
LINE
  5
12EE91
  8
OBJECT
 10
613.0000000001146
 20
-3056.0000000009049
 30
0.0
 11
649.00000000011448
 21
-3056.0000000009049
 31
0.0
1001
ACDBBLOCKREPETAG
1070
     1
1071
       26
1005
12EE91
  0
LINE
  5
12EE92
  8
OBJECT
 10
609.0000000001146
 20
-2956.5000000009049
 30
0.0
 11
602.0000000001146
 21
-2956.5000000009049
 31
0.0
1001
ACDBBLOCKREPETAG
1070
     1
1071
       27
1005
12EE92
  0
LINE
  5
12EE93
  8
OBJECT
 10
602.0000000001146
 20
-3051.5000000009049
 30
0.0
 11
609.0000000001146
 21
-3051.5000000009049
 31
0.0
1001
ACDBBLOCKREPETAG
1070
     1
1071
       28
1005
12EE93
  0
LINE
  5
12EE94
  8
OBJECT
 10
609.0000000001146
 20
-3051.5000000009049
 30
0.0
 11
609.0000000001146
 21
-2956.5000000009049
 31
0.0
1001
ACDBBLOCKREPETAG
1070
     1
1071
       29
1005
12EE94
  0
LINE
  5
12EE95
  8
OBJECT
 10
613.0000000001146
 20
-2952.0000000009049
 30
0.0
 11
609.0000000001146
 21
-2956.5000000009049
 31
0.0
1001
ACDBBLOCKREPETAG
1070
     1
1071
       30
1005
12EE95
  0
LINE
  5
12EE96
  8
OBJECT
 10
613.0000000001146
 20
-3056.0000000009049
 30
0.0
 11
609.0000000001146
 21
-3051.5000000009049
 31
0.0
1001
ACDBBLOCKREPETAG
1070
     1
1071
       31
1005
12EE96
  0
LINE
  5
12EE97
  8
OBJECT
 10
599.00000000011619
 20
-2942.0000000009049
 30
0.0
 11
596.00000000011437
 21
-2942.0000000009049
 31
0.0
1001
ACDBBLOCKREPETAG
1070
     1
1071
       32
1005
12EE97
  0
ARC
  5
12EE98
  8
OBJECT
 10
599.00000000011619
 20
-2945.0000000009049
 30
0.0
 40
3.0
 50
0.0
 51
90.0
1001
ACDBBLOCKREPETAG
1070
     1
1071
       33
1005
12EE98
  0
LINE
  5
12EE99
  8
OBJECT
 10
596.00000000011437
 20
-3066.0000000009049
 30
0.0
 11
599.00000000011278
 21
-3066.0000000009049
 31
0.0
1001
ACDBBLOCKREPETAG
1070
     1
1071
       34
1005
12EE99
  0
ARC
  5
12EE9A
  8
OBJECT
 10
599.00000000011278
 20
-3063.0000000009049
 30
0.0
 40
3.0
 50
270.0
 51
0.0
1001
ACDBBLOCKREPETAG
1070
     1
1071
       35
1005
12EE9A
  0
LINE
  5
12EE9B
  8
OBJECT
 10
602.00000000011266
 20
-3063.0000000009049
 30
0.0
 11
602.0000000001163
 21
-2945.0000000009049
 31
0.0
1001
ACDBBLOCKREPETAG
1070
     1
1071
       36
1005
12EE9B
  0
LINE
  5
12EE9C
  8
HIDDEN
 10
604.00000000011437
 20
-2966.0000000009049
 30
0.0
 11
604.00000000011437
 21
-3042.0000000009049
 31
0.0
1001
ACDBBLOCKREPETAG
1070
     1
1071
      427
1005
12EE9C
  0
LINE
  5
12EE9D
  8
OBJECT
 10
441.00000000011448
 20
-2854.0000000009049
 30
0.0
 11
441.00000000011448
 21
-2861.0000000009049
 31
0.0
1001
ACDBBLOCKREPETAG
1070
     1
1071
       57
1005
12EE9D
  0
LINE
  5
12EE9E
  8
OBJECT
 10
441.00000000011448
 20
-2861.0000000009049
 30
0.0
 11
591.00000000011448
 21
-2861.0000000009049
 31
0.0
1001
ACDBBLOCKREPETAG
1070
     1
1071
       58
1005
12EE9E
  0
LINE
  5
12EE9F
  8
OBJECT
 10
444.0000000001146
 20
-2902.5000000009049
 30
0.0
 11
588.00000000011437
 21
-2902.5000000009049
 31
0.0
1001
ACDBBLOCKREPETAG
1070
     1
1071
       59
1005
12EE9F
  0
LINE
  5
12EEA0
  8
OBJECT
 10
450.50000000011448
 20
-2914.0000000009049
 30
0.0
 11
581.5000000001146
 21
-2914.0000000009049
 31
0.0
1001
ACDBBLOCKREPETAG
1070
     1
1071
       60
1005
12EEA0
  0
LINE
  5
12EEA1
  8
OBJECT
 10
591.00000000011448
 20
-2861.0000000009049
 30
0.0
 11
591.00000000011448
 21
-2854.0000000009049
 31
0.0
1001
ACDBBLOCKREPETAG
1070
     1
1071
       61
1005
12EEA1
  0
LINE
  5
12EEA2
  8
OBJECT
 10
591.00000000011448
 20
-2854.0000000009049
 30
0.0
 11
441.00000000011448
 21
-2854.0000000009049
 31
0.0
1001
ACDBBLOCKREPETAG
1070
     1
1071
       62
1005
12EEA2
  0
LINE
  5
12EEA3
  8
OBJECT
 10
578.00000000011448
 20
-2918.0000000009049
 30
0.0
 11
578.00000000011448
 21
-2924.0000000009049
 31
0.0
1001
ACDBBLOCKREPETAG
1070
     1
1071
       63
1005
12EEA3
  0
LINE
  5
12EEA4
  8
OBJECT
 10
588.00000000011437
 20
-2861.0000000009049
 30
0.0
 11
588.00000000011437
 21
-2902.5000000009049
 31
0.0
1001
ACDBBLOCKREPETAG
1070
     1
1071
       64
1005
12EEA4
  0
LINE
  5
12EEA5
  8
OBJECT
 10
588.00000000011437
 20
-2902.5000000009049
 30
0.0
 11
581.5000000001146
 21
-2914.0000000009049
 31
0.0
1001
ACDBBLOCKREPETAG
1070
     1
1071
       65
1005
12EEA5
  0
LINE
  5
12EEA6
  8
OBJECT
 10
581.5000000001146
 20
-2914.0000000009049
 30
0.0
 11
578.00000000011448
 21
-2918.0000000009049
 31
0.0
1001
ACDBBLOCKREPETAG
1070
     1
1071
       66
1005
12EEA6
  0
LINE
  5
12EEA7
  8
OBJECT
 10
444.0000000001146
 20
-2902.5000000009049
 30
0.0
 11
450.50000000011448
 21
-2914.0000000009049
 31
0.0
1001
ACDBBLOCKREPETAG
1070
     1
1071
       67
1005
12EEA7
  0
LINE
  5
12EEA8
  8
OBJECT
 10
450.50000000011448
 20
-2914.0000000009049
 30
0.0
 11
454.00000000011448
 21
-2918.0000000009049
 31
0.0
1001
ACDBBLOCKREPETAG
1070
     1
1071
       68
1005
12EEA8
  0
ARC
  5
12EEA9
  8
OBJECT
 10
516.00000000011448
 20
-2536.100000000903
 30
0.0
 40
386.89999999999998
 50
260.77870136257849
 51
279.22129863742163
1001
ACDBBLOCKREPETAG
1070
     1
1071
       69
1005
12EEA9
  0
LINE
  5
12EEAA
  8
OBJECT
 10
454.00000000011448
 20
-2918.0000000009049
 30
0.0
 11
454.00000000011448
 21
-2924.0000000009049
 31
0.0
1001
ACDBBLOCKREPETAG
1070
     1
1071
       70
1005
12EEAA
  0
LINE
  5
12EEAB
  8
OBJECT
 10
444.0000000001146
 20
-2861.0000000009049
 30
0.0
 11
444.0000000001146
 21
-2902.5000000009049
 31
0.0
1001
ACDBBLOCKREPETAG
1070
     1
1071
       71
1005
12EEAB
  0
INSERT
  5
12EEAC
  8
OBJECT
  2
*U9
 10
0.0
 20
0.0
 30
0.0
  0
LINE
  5
12EEAD
  8
HIDDEN
 10
573.0000000001146
 20
-2906.0000000009049
 30
0.0
 11
459.0000000001146
 21
-2906.0000000009049
 31
0.0
1001
ACDBBLOCKREPETAG
1070
     1
1071
      431
1005
12EEAD
  0
LINE
  5
12EEAE
  8
OBJECT
 10
94.000000000034575
 20
-3087.0000000009049
 30
0.0
 11
94.000000000034575
 21
-3084.0000000009049
 31
0.0
1001
ACDBBLOCKREPETAG
1070
     1
1071
      418
1005
12EEAE
  0
ARC
  5
12EEAF
  8
OBJECT
 10
97.000000000034561
 20
-3087.0000000009049
 30
0.0
 40
3.0
 50
180.0
 51
270.0
1001
ACDBBLOCKREPETAG
1070
     1
1071
      419
1005
12EEAF
  0
LINE
  5
12EEB0
  8
OBJECT
 10
218.00000000003459
 20
-3084.0000000009049
 30
0.0
 11
218.00000000003459
 21
-3087.0000000009049
 31
0.0
1001
ACDBBLOCKREPETAG
1070
     1
1071
      420
1005
12EEB0
  0
ARC
  5
12EEB1
  8
OBJECT
 10
215.00000000003459
 20
-3087.0000000009049
 30
0.0
 40
3.0
 50
270.0
 51
0.0
1001
ACDBBLOCKREPETAG
1070
     1
1071
      421
1005
12EEB1
  0
LINE
  5
12EEB2
  8
OBJECT
 10
215.00000000003459
 20
-3090.0000000009049
 30
0.0
 11
97.000000000034561
 21
-3090.0000000009049
 31
0.0
1001
ACDBBLOCKREPETAG
1070
     1
1071
      422
1005
12EEB2
  0
INSERT
  5
12EEB3
  8
OBJECT
  2
*U10
 10
0.0
 20
0.0
 30
0.0
  0
LINE
  5
12EEB4
  8
OBJECT
 10
289.00000000003462
 20
-2957.0000000009049
 30
0.0
 11
296.0000000000345
 21
-2957.0000000009049
 31
0.0
1001
ACDBBLOCKREPETAG
1070
     1
1071
        1
1005
12EEB4
  0
LINE
  5
12EEB5
  8
OBJECT
 10
296.0000000000345
 20
-2957.0000000009049
 30
0.0
 11
296.0000000000345
 21
-3051.0000000009049
 31
0.0
1001
ACDBBLOCKREPETAG
1070
     1
1071
        2
1005
12EEB5
  0
LINE
  5
12EEB6
  8
OBJECT
 10
296.0000000000345
 20
-3051.0000000009049
 30
0.0
 11
289.00000000003462
 21
-3051.0000000009049
 31
0.0
1001
ACDBBLOCKREPETAG
1070
     1
1071
        3
1005
12EEB6
  0
LINE
  5
12EEB7
  8
OBJECT
 10
289.00000000003462
 20
-3051.0000000009049
 30
0.0
 11
289.00000000003462
 21
-2957.0000000009049
 31
0.0
1001
ACDBBLOCKREPETAG
1070
     1
1071
        4
1005
12EEB7
  0
LINE
  5
12EEB8
  8
OBJECT
 10
289.00000000003462
 20
-2960.0000000009049
 30
0.0
 11
253.00000000003459
 21
-2960.0000000009049
 31
0.0
1001
ACDBBLOCKREPETAG
1070
     1
1071
        5
1005
12EEB8
  0
LINE
  5
12EEB9
  8
OBJECT
 10
253.00000000003459
 20
-2960.0000000009049
 30
0.0
 11
253.00000000003459
 21
-3048.0000000009049
 31
0.0
1001
ACDBBLOCKREPETAG
1070
     1
1071
        6
1005
12EEB9
  0
LINE
  5
12EEBA
  8
OBJECT
 10
253.00000000003459
 20
-3048.0000000009049
 30
0.0
 11
289.00000000003462
 21
-3048.0000000009049
 31
0.0
1001
ACDBBLOCKREPETAG
1070
     1
1071
        7
1005
12EEBA
  0
LINE
  5
12EEBB
  8
OBJECT
 10
249.00000000003459
 20
-2964.5000000009049
 30
0.0
 11
242.00000000003459
 21
-2964.5000000009049
 31
0.0
1001
ACDBBLOCKREPETAG
1070
     1
1071
        8
1005
12EEBB
  0
LINE
  5
12EEBC
  8
OBJECT
 10
242.00000000003459
 20
-3043.5000000009049
 30
0.0
 11
249.00000000003459
 21
-3043.5000000009049
 31
0.0
1001
ACDBBLOCKREPETAG
1070
     1
1071
        9
1005
12EEBC
  0
LINE
  5
12EEBD
  8
OBJECT
 10
249.00000000003459
 20
-3043.5000000009049
 30
0.0
 11
249.00000000003459
 21
-2964.5000000009049
 31
0.0
1001
ACDBBLOCKREPETAG
1070
     1
1071
       10
1005
12EEBD
  0
LINE
  5
12EEBE
  8
OBJECT
 10
253.00000000003459
 20
-2960.0000000009049
 30
0.0
 11
249.00000000003459
 21
-2964.5000000009049
 31
0.0
1001
ACDBBLOCKREPETAG
1070
     1
1071
       11
1005
12EEBE
  0
LINE
  5
12EEBF
  8
OBJECT
 10
253.00000000003459
 20
-3048.0000000009049
 30
0.0
 11
249.00000000003459
 21
-3043.5000000009049
 31
0.0
1001
ACDBBLOCKREPETAG
1070
     1
1071
       12
1005
12EEBF
  0
LINE
  5
12EEC0
  8
OBJECT
 10
239.00000000003641
 20
-2942.0000000009049
 30
0.0
 11
236.00000000003459
 21
-2942.0000000009049
 31
0.0
1001
ACDBBLOCKREPETAG
1070
     1
1071
       13
1005
12EEC0
  0
ARC
  5
12EEC1
  8
OBJECT
 10
239.00000000003641
 20
-2945.0000000009049
 30
0.0
 40
3.0
 50
0.0
 51
90.0
1001
ACDBBLOCKREPETAG
1070
     1
1071
       14
1005
12EEC1
  0
LINE
  5
12EEC2
  8
OBJECT
 10
236.00000000003459
 20
-3066.0000000009049
 30
0.0
 11
239.00000000003271
 21
-3066.0000000009049
 31
0.0
1001
ACDBBLOCKREPETAG
1070
     1
1071
       15
1005
12EEC2
  0
ARC
  5
12EEC3
  8
OBJECT
 10
239.00000000003271
 20
-3063.0000000009049
 30
0.0
 40
3.0
 50
270.0
 51
0.0
1001
ACDBBLOCKREPETAG
1070
     1
1071
       16
1005
12EEC3
  0
LINE
  5
12EEC4
  8
OBJECT
 10
242.0000000000328
 20
-3063.0000000009049
 30
0.0
 11
242.00000000003641
 21
-2945.0000000009049
 31
0.0
1001
ACDBBLOCKREPETAG
1070
     1
1071
       17
1005
12EEC4
  0
LINE
  5
12EEC5
  8
HIDDEN
 10
244.0000000000345
 20
-2974.0000000009049
 30
0.0
 11
244.0000000000345
 21
-3034.0000000009049
 31
0.0
1001
ACDBBLOCKREPETAG
1070
     1
1071
      424
1005
12EEC5
  0
LINE
  5
12EEC6
  8
OBJECT
 10
81.000000000034561
 20
-2854.0000000009049
 30
0.0
 11
81.000000000034561
 21
-2861.0000000009049
 31
0.0
1001
ACDBBLOCKREPETAG
1070
     1
1071
       57
1005
12EEC6
  0
LINE
  5
12EEC7
  8
OBJECT
 10
81.000000000034561
 20
-2861.0000000009049
 30
0.0
 11
231.0000000000345
 21
-2861.0000000009049
 31
0.0
1001
ACDBBLOCKREPETAG
1070
     1
1071
       58
1005
12EEC7
  0
LINE
  5
12EEC8
  8
OBJECT
 10
84.000000000034575
 20
-2902.5000000009049
 30
0.0
 11
228.00000000003459
 21
-2902.5000000009049
 31
0.0
1001
ACDBBLOCKREPETAG
1070
     1
1071
       59
1005
12EEC8
  0
LINE
  5
12EEC9
  8
OBJECT
 10
90.500000000034547
 20
-2914.0000000009049
 30
0.0
 11
221.50000000003459
 21
-2914.0000000009049
 31
0.0
1001
ACDBBLOCKREPETAG
1070
     1
1071
       60
1005
12EEC9
  0
LINE
  5
12EECA
  8
OBJECT
 10
231.0000000000345
 20
-2861.0000000009049
 30
0.0
 11
231.0000000000345
 21
-2854.0000000009049
 31
0.0
1001
ACDBBLOCKREPETAG
1070
     1
1071
       61
1005
12EECA
  0
LINE
  5
12EECB
  8
OBJECT
 10
231.0000000000345
 20
-2854.0000000009049
 30
0.0
 11
81.000000000034561
 21
-2854.0000000009049
 31
0.0
1001
ACDBBLOCKREPETAG
1070
     1
1071
       62
1005
12EECB
  0
LINE
  5
12EECC
  8
OBJECT
 10
218.00000000003459
 20
-2918.0000000009049
 30
0.0
 11
218.00000000003459
 21
-2924.0000000009049
 31
0.0
1001
ACDBBLOCKREPETAG
1070
     1
1071
       63
1005
12EECC
  0
LINE
  5
12EECD
  8
OBJECT
 10
228.00000000003459
 20
-2861.0000000009049
 30
0.0
 11
228.00000000003459
 21
-2902.5000000009049
 31
0.0
1001
ACDBBLOCKREPETAG
1070
     1
1071
       64
1005
12EECD
  0
LINE
  5
12EECE
  8
OBJECT
 10
228.00000000003459
 20
-2902.5000000009049
 30
0.0
 11
221.50000000003459
 21
-2914.0000000009049
 31
0.0
1001
ACDBBLOCKREPETAG
1070
     1
1071
       65
1005
12EECE
  0
LINE
  5
12EECF
  8
OBJECT
 10
221.50000000003459
 20
-2914.0000000009049
 30
0.0
 11
218.00000000003459
 21
-2918.0000000009049
 31
0.0
1001
ACDBBLOCKREPETAG
1070
     1
1071
       66
1005
12EECF
  0
LINE
  5
12EED0
  8
OBJECT
 10
84.000000000034575
 20
-2902.5000000009049
 30
0.0
 11
90.500000000034547
 21
-2914.0000000009049
 31
0.0
1001
ACDBBLOCKREPETAG
1070
     1
1071
       67
1005
12EED0
  0
LINE
  5
12EED1
  8
OBJECT
 10
90.500000000034547
 20
-2914.0000000009049
 30
0.0
 11
94.000000000034575
 21
-2918.0000000009049
 31
0.0
1001
ACDBBLOCKREPETAG
1070
     1
1071
       68
1005
12EED1
  0
ARC
  5
12EED2
  8
OBJECT
 10
156.0000000000345
 20
-2536.100000000903
 30
0.0
 40
386.89999999999998
 50
260.77870136257849
 51
279.22129863742163
1001
ACDBBLOCKREPETAG
1070
     1
1071
       69
1005
12EED2
  0
LINE
  5
12EED3
  8
OBJECT
 10
94.000000000034575
 20
-2918.0000000009049
 30
0.0
 11
94.000000000034575
 21
-2924.0000000009049
 31
0.0
1001
ACDBBLOCKREPETAG
1070
     1
1071
       70
1005
12EED3
  0
LINE
  5
12EED4
  8
OBJECT
 10
84.000000000034575
 20
-2861.0000000009049
 30
0.0
 11
84.000000000034575
 21
-2902.5000000009049
 31
0.0
1001
ACDBBLOCKREPETAG
1070
     1
1071
       71
1005
12EED4
  0
INSERT
  5
12EED5
  8
OBJECT
  2
*U11
 10
0.0
 20
0.0
 30
0.0
  0
LINE
  5
12EED6
  8
HIDDEN
 10
213.00000000003459
 20
-2906.0000000009049
 30
0.0
 11
99.000000000034575
 21
-2906.0000000009049
 31
0.0
1001
ACDBBLOCKREPETAG
1070
     1
1071
      431
1005
12EED6
  0
LINE
  5
12EED7
  8
OBJECT
 10
94.000000000034575
 20
-2623.0000000008981
 30
0.0
 11
94.000000000034575
 21
-2620.0000000008981
 31
0.0
1001
ACDBBLOCKREPETAG
1070
     1
1071
      418
1005
12EED7
  0
ARC
  5
12EED8
  8
OBJECT
 10
97.000000000034561
 20
-2623.0000000008981
 30
0.0
 40
3.0
 50
180.0
 51
270.0
1001
ACDBBLOCKREPETAG
1070
     1
1071
      419
1005
12EED8
  0
LINE
  5
12EED9
  8
OBJECT
 10
218.00000000003459
 20
-2620.0000000008981
 30
0.0
 11
218.00000000003459
 21
-2623.0000000008981
 31
0.0
1001
ACDBBLOCKREPETAG
1070
     1
1071
      420
1005
12EED9
  0
ARC
  5
12EEDA
  8
OBJECT
 10
215.00000000003459
 20
-2623.0000000008981
 30
0.0
 40
3.0
 50
270.0
 51
0.0
1001
ACDBBLOCKREPETAG
1070
     1
1071
      421
1005
12EEDA
  0
LINE
  5
12EEDB
  8
OBJECT
 10
215.00000000003459
 20
-2626.0000000008981
 30
0.0
 11
97.000000000034561
 21
-2626.0000000008981
 31
0.0
1001
ACDBBLOCKREPETAG
1070
     1
1071
      422
1005
12EEDB
  0
INSERT
  5
12EEDC
  8
OBJECT
  2
*U12
 10
0.0
 20
0.0
 30
0.0
  0
LINE
  5
12EEDD
  8
OBJECT
 10
289.00000000003462
 20
-2478.000000000899
 30
0.0
 11
296.0000000000345
 21
-2478.000000000899
 31
0.0
1001
ACDBBLOCKREPETAG
1070
     1
1071
       39
1005
12EEDD
  0
LINE
  5
12EEDE
  8
OBJECT
 10
296.0000000000345
 20
-2478.000000000899
 30
0.0
 11
296.0000000000345
 21
-2602.0000000008981
 31
0.0
1001
ACDBBLOCKREPETAG
1070
     1
1071
       40
1005
12EEDE
  0
LINE
  5
12EEDF
  8
OBJECT
 10
296.0000000000345
 20
-2602.0000000008981
 30
0.0
 11
289.00000000003462
 21
-2602.0000000008981
 31
0.0
1001
ACDBBLOCKREPETAG
1070
     1
1071
       41
1005
12EEDF
  0
LINE
  5
12EEE0
  8
OBJECT
 10
289.00000000003462
 20
-2602.0000000008981
 30
0.0
 11
289.00000000003462
 21
-2478.000000000899
 31
0.0
1001
ACDBBLOCKREPETAG
1070
     1
1071
       42
1005
12EEE0
  0
LINE
  5
12EEE1
  8
OBJECT
 10
289.00000000003462
 20
-2481.000000000899
 30
0.0
 11
253.00000000003459
 21
-2481.000000000899
 31
0.0
1001
ACDBBLOCKREPETAG
1070
     1
1071
       43
1005
12EEE1
  0
LINE
  5
12EEE2
  8
OBJECT
 10
253.00000000003459
 20
-2481.000000000899
 30
0.0
 11
253.00000000003459
 21
-2599.000000000899
 31
0.0
1001
ACDBBLOCKREPETAG
1070
     1
1071
       44
1005
12EEE2
  0
LINE
  5
12EEE3
  8
OBJECT
 10
253.00000000003459
 20
-2599.000000000899
 30
0.0
 11
289.00000000003462
 21
-2599.000000000899
 31
0.0
1001
ACDBBLOCKREPETAG
1070
     1
1071
       45
1005
12EEE3
  0
LINE
  5
12EEE4
  8
OBJECT
 10
249.00000000003459
 20
-2485.5000000008981
 30
0.0
 11
242.00000000003459
 21
-2485.5000000008981
 31
0.0
1001
ACDBBLOCKREPETAG
1070
     1
1071
       46
1005
12EEE4
  0
LINE
  5
12EEE5
  8
OBJECT
 10
242.00000000003459
 20
-2594.5000000008981
 30
0.0
 11
249.00000000003459
 21
-2594.5000000008981
 31
0.0
1001
ACDBBLOCKREPETAG
1070
     1
1071
       47
1005
12EEE5
  0
LINE
  5
12EEE6
  8
OBJECT
 10
249.00000000003459
 20
-2594.5000000008981
 30
0.0
 11
249.00000000003459
 21
-2485.5000000008981
 31
0.0
1001
ACDBBLOCKREPETAG
1070
     1
1071
       48
1005
12EEE6
  0
LINE
  5
12EEE7
  8
OBJECT
 10
253.00000000003459
 20
-2481.000000000899
 30
0.0
 11
249.00000000003459
 21
-2485.5000000008981
 31
0.0
1001
ACDBBLOCKREPETAG
1070
     1
1071
       49
1005
12EEE7
  0
LINE
  5
12EEE8
  8
OBJECT
 10
253.00000000003459
 20
-2599.000000000899
 30
0.0
 11
249.00000000003459
 21
-2594.5000000008981
 31
0.0
1001
ACDBBLOCKREPETAG
1070
     1
1071
       50
1005
12EEE8
  0
LINE
  5
12EEE9
  8
OBJECT
 10
239.00000000003641
 20
-2478.000000000899
 30
0.0
 11
236.00000000003459
 21
-2478.000000000899
 31
0.0
1001
ACDBBLOCKREPETAG
1070
     1
1071
       51
1005
12EEE9
  0
ARC
  5
12EEEA
  8
OBJECT
 10
239.00000000003641
 20
-2481.000000000899
 30
0.0
 40
3.0
 50
0.0
 51
90.0
1001
ACDBBLOCKREPETAG
1070
     1
1071
       52
1005
12EEEA
  0
LINE
  5
12EEEB
  8
OBJECT
 10
236.00000000003459
 20
-2602.0000000008981
 30
0.0
 11
239.00000000003271
 21
-2602.0000000008981
 31
0.0
1001
ACDBBLOCKREPETAG
1070
     1
1071
       53
1005
12EEEB
  0
ARC
  5
12EEEC
  8
OBJECT
 10
239.00000000003271
 20
-2599.000000000899
 30
0.0
 40
3.0
 50
270.0
 51
0.0
1001
ACDBBLOCKREPETAG
1070
     1
1071
       54
1005
12EEEC
  0
LINE
  5
12EEED
  8
OBJECT
 10
242.0000000000328
 20
-2599.000000000899
 30
0.0
 11
242.00000000003641
 21
-2481.000000000899
 31
0.0
1001
ACDBBLOCKREPETAG
1070
     1
1071
       55
1005
12EEED
  0
LINE
  5
12EEEE
  8
HIDDEN
 10
244.0000000000345
 20
-2495.500000000899
 30
0.0
 11
244.0000000000345
 21
-2584.5000000008981
 31
0.0
1001
ACDBBLOCKREPETAG
1070
     1
1071
      430
1005
12EEEE
  0
INSERT
  5
12EEEF
  8
OBJECT
  2
*U13
 10
0.0
 20
0.0
 30
0.0
  0
LINE
  5
12EEF0
  8
OBJECT
 10
94.000000000034575
 20
-2407.0000000008981
 30
0.0
 11
94.000000000034575
 21
-2400.0000000008981
 31
0.0
1001
ACDBBLOCKREPETAG
1070
     1
1071
       39
1005
12EEF0
  0
LINE
  5
12EEF1
  8
OBJECT
 10
94.000000000034575
 20
-2400.0000000008981
 30
0.0
 11
218.00000000003459
 21
-2400.0000000008981
 31
0.0
1001
ACDBBLOCKREPETAG
1070
     1
1071
       40
1005
12EEF1
  0
LINE
  5
12EEF2
  8
OBJECT
 10
218.00000000003459
 20
-2400.0000000008981
 30
0.0
 11
218.00000000003459
 21
-2407.0000000008981
 31
0.0
1001
ACDBBLOCKREPETAG
1070
     1
1071
       41
1005
12EEF2
  0
LINE
  5
12EEF3
  8
OBJECT
 10
218.00000000003459
 20
-2407.0000000008981
 30
0.0
 11
94.000000000034575
 21
-2407.0000000008981
 31
0.0
1001
ACDBBLOCKREPETAG
1070
     1
1071
       42
1005
12EEF3
  0
LINE
  5
12EEF4
  8
OBJECT
 10
97.000000000034561
 20
-2407.0000000008981
 30
0.0
 11
97.000000000034561
 21
-2443.0000000008981
 31
0.0
1001
ACDBBLOCKREPETAG
1070
     1
1071
       43
1005
12EEF4
  0
LINE
  5
12EEF5
  8
OBJECT
 10
97.000000000034561
 20
-2443.0000000008981
 30
0.0
 11
215.00000000003459
 21
-2443.0000000008981
 31
0.0
1001
ACDBBLOCKREPETAG
1070
     1
1071
       44
1005
12EEF5
  0
LINE
  5
12EEF6
  8
OBJECT
 10
215.00000000003459
 20
-2443.0000000008981
 30
0.0
 11
215.00000000003459
 21
-2407.0000000008981
 31
0.0
1001
ACDBBLOCKREPETAG
1070
     1
1071
       45
1005
12EEF6
  0
LINE
  5
12EEF7
  8
OBJECT
 10
101.5000000000345
 20
-2447.0000000008981
 30
0.0
 11
101.5000000000345
 21
-2454.0000000008981
 31
0.0
1001
ACDBBLOCKREPETAG
1070
     1
1071
       46
1005
12EEF7
  0
LINE
  5
12EEF8
  8
OBJECT
 10
210.5000000000345
 20
-2454.0000000008981
 30
0.0
 11
210.5000000000345
 21
-2447.0000000008981
 31
0.0
1001
ACDBBLOCKREPETAG
1070
     1
1071
       47
1005
12EEF8
  0
LINE
  5
12EEF9
  8
OBJECT
 10
210.5000000000345
 20
-2447.0000000008981
 30
0.0
 11
101.5000000000345
 21
-2447.0000000008981
 31
0.0
1001
ACDBBLOCKREPETAG
1070
     1
1071
       48
1005
12EEF9
  0
LINE
  5
12EEFA
  8
OBJECT
 10
97.000000000034561
 20
-2443.0000000008981
 30
0.0
 11
101.5000000000345
 21
-2447.0000000008981
 31
0.0
1001
ACDBBLOCKREPETAG
1070
     1
1071
       49
1005
12EEFA
  0
LINE
  5
12EEFB
  8
OBJECT
 10
215.00000000003459
 20
-2443.0000000008981
 30
0.0
 11
210.5000000000345
 21
-2447.0000000008981
 31
0.0
1001
ACDBBLOCKREPETAG
1070
     1
1071
       50
1005
12EEFB
  0
LINE
  5
12EEFC
  8
OBJECT
 10
94.000000000034575
 20
-2457.0000000008981
 30
0.0
 11
94.000000000034575
 21
-2460.0000000008981
 31
0.0
1001
ACDBBLOCKREPETAG
1070
     1
1071
       51
1005
12EEFC
  0
ARC
  5
12EEFD
  8
OBJECT
 10
97.000000000034561
 20
-2457.0000000008981
 30
0.0
 40
3.0
 50
90.0
 51
180.0
1001
ACDBBLOCKREPETAG
1070
     1
1071
       52
1005
12EEFD
  0
LINE
  5
12EEFE
  8
OBJECT
 10
218.00000000003459
 20
-2460.0000000008981
 30
0.0
 11
218.00000000003459
 21
-2457.0000000008999
 31
0.0
1001
ACDBBLOCKREPETAG
1070
     1
1071
       53
1005
12EEFE
  0
ARC
  5
12EEFF
  8
OBJECT
 10
215.00000000003459
 20
-2457.0000000008999
 30
0.0
 40
3.0
 50
0.0
 51
90.0
1001
ACDBBLOCKREPETAG
1070
     1
1071
       54
1005
12EEFF
  0
LINE
  5
12EF00
  8
OBJECT
 10
215.00000000003459
 20
-2454.000000000899
 30
0.0
 11
97.000000000034561
 21
-2454.0000000008981
 31
0.0
1001
ACDBBLOCKREPETAG
1070
     1
1071
       55
1005
12EF00
  0
LINE
  5
12EF01
  8
HIDDEN
 10
111.5000000000345
 20
-2452.0000000008981
 30
0.0
 11
200.50000000003459
 21
-2452.0000000008981
 31
0.0
1001
ACDBBLOCKREPETAG
1070
     1
1071
      426
1005
12EF01
  0
LINE
  5
12EF02
  8
OBJECT
 10
454.00000000011448
 20
-2623.0000000008981
 30
0.0
 11
454.00000000011448
 21
-2620.0000000008981
 31
0.0
1001
ACDBBLOCKREPETAG
1070
     1
1071
      418
1005
12EF02
  0
ARC
  5
12EF03
  8
OBJECT
 10
457.0000000001146
 20
-2623.0000000008981
 30
0.0
 40
3.0
 50
180.0
 51
270.0
1001
ACDBBLOCKREPETAG
1070
     1
1071
      419
1005
12EF03
  0
LINE
  5
12EF04
  8
OBJECT
 10
578.00000000011448
 20
-2620.0000000008981
 30
0.0
 11
578.00000000011448
 21
-2623.0000000008981
 31
0.0
1001
ACDBBLOCKREPETAG
1070
     1
1071
      420
1005
12EF04
  0
ARC
  5
12EF05
  8
OBJECT
 10
575.00000000011437
 20
-2623.0000000008981
 30
0.0
 40
3.0
 50
270.0
 51
0.0
1001
ACDBBLOCKREPETAG
1070
     1
1071
      421
1005
12EF05
  0
LINE
  5
12EF06
  8
OBJECT
 10
575.00000000011437
 20
-2626.0000000008981
 30
0.0
 11
457.0000000001146
 21
-2626.0000000008981
 31
0.0
1001
ACDBBLOCKREPETAG
1070
     1
1071
      422
1005
12EF06
  0
LINE
  5
12EF07
  8
OBJECT
 10
666.00000000011448
 20
-2465.000000000899
 30
0.0
 11
659.0000000001146
 21
-2465.000000000899
 31
0.0
1001
ACDBBLOCKREPETAG
1070
     1
1071
       57
1005
12EF07
  0
LINE
  5
12EF08
  8
OBJECT
 10
659.0000000001146
 20
-2465.000000000899
 30
0.0
 11
659.0000000001146
 21
-2615.000000000899
 31
0.0
1001
ACDBBLOCKREPETAG
1070
     1
1071
       58
1005
12EF08
  0
LINE
  5
12EF09
  8
OBJECT
 10
617.5000000001146
 20
-2468.0000000008981
 30
0.0
 11
617.5000000001146
 21
-2612.0000000008981
 31
0.0
1001
ACDBBLOCKREPETAG
1070
     1
1071
       59
1005
12EF09
  0
LINE
  5
12EF0A
  8
OBJECT
 10
606.0000000001146
 20
-2474.5000000008981
 30
0.0
 11
606.0000000001146
 21
-2605.5000000008981
 31
0.0
1001
ACDBBLOCKREPETAG
1070
     1
1071
       60
1005
12EF0A
  0
LINE
  5
12EF0B
  8
OBJECT
 10
659.0000000001146
 20
-2615.000000000899
 30
0.0
 11
666.00000000011448
 21
-2615.000000000899
 31
0.0
1001
ACDBBLOCKREPETAG
1070
     1
1071
       61
1005
12EF0B
  0
LINE
  5
12EF0C
  8
OBJECT
 10
666.00000000011448
 20
-2615.000000000899
 30
0.0
 11
666.00000000011448
 21
-2465.000000000899
 31
0.0
1001
ACDBBLOCKREPETAG
1070
     1
1071
       62
1005
12EF0C
  0
LINE
  5
12EF0D
  8
OBJECT
 10
602.0000000001146
 20
-2602.0000000008981
 30
0.0
 11
596.00000000011437
 21
-2602.0000000008981
 31
0.0
1001
ACDBBLOCKREPETAG
1070
     1
1071
       63
1005
12EF0D
  0
LINE
  5
12EF0E
  8
OBJECT
 10
659.0000000001146
 20
-2612.0000000008981
 30
0.0
 11
617.5000000001146
 21
-2612.0000000008981
 31
0.0
1001
ACDBBLOCKREPETAG
1070
     1
1071
       64
1005
12EF0E
  0
LINE
  5
12EF0F
  8
OBJECT
 10
617.5000000001146
 20
-2612.0000000008981
 30
0.0
 11
606.0000000001146
 21
-2605.5000000008981
 31
0.0
1001
ACDBBLOCKREPETAG
1070
     1
1071
       65
1005
12EF0F
  0
LINE
  5
12EF10
  8
OBJECT
 10
606.0000000001146
 20
-2605.5000000008981
 30
0.0
 11
602.0000000001146
 21
-2602.0000000008981
 31
0.0
1001
ACDBBLOCKREPETAG
1070
     1
1071
       66
1005
12EF10
  0
LINE
  5
12EF11
  8
OBJECT
 10
617.5000000001146
 20
-2468.0000000008981
 30
0.0
 11
606.0000000001146
 21
-2474.5000000008981
 31
0.0
1001
ACDBBLOCKREPETAG
1070
     1
1071
       67
1005
12EF11
  0
LINE
  5
12EF12
  8
OBJECT
 10
606.0000000001146
 20
-2474.5000000008981
 30
0.0
 11
602.0000000001146
 21
-2478.000000000899
 31
0.0
1001
ACDBBLOCKREPETAG
1070
     1
1071
       68
1005
12EF12
  0
ARC
  5
12EF13
  8
OBJECT
 10
983.90000000011605
 20
-2540.0000000008981
 30
0.0
 40
386.89999999999998
 50
170.77870136263201
 51
189.22129863736799
1001
ACDBBLOCKREPETAG
1070
     1
1071
       69
1005
12EF13
  0
LINE
  5
12EF14
  8
OBJECT
 10
602.0000000001146
 20
-2478.000000000899
 30
0.0
 11
596.00000000011437
 21
-2478.000000000899
 31
0.0
1001
ACDBBLOCKREPETAG
1070
     1
1071
       70
1005
12EF14
  0
LINE
  5
12EF15
  8
OBJECT
 10
659.0000000001146
 20
-2468.0000000008981
 30
0.0
 11
617.5000000001146
 21
-2468.0000000008981
 31
0.0
1001
ACDBBLOCKREPETAG
1070
     1
1071
       71
1005
12EF15
  0
INSERT
  5
12EF16
  8
OBJECT
  2
*U14
 10
0.0
 20
0.0
 30
0.0
  0
LINE
  5
12EF17
  8
HIDDEN
 10
614.0000000001146
 20
-2597.0000000008981
 30
0.0
 11
614.0000000001146
 21
-2483.0000000008981
 31
0.0
1001
ACDBBLOCKREPETAG
1070
     1
1071
      437
1005
12EF17
  0
INSERT
  5
12EF18
  8
OBJECT
  2
*U15
 10
0.0
 20
0.0
 30
0.0
  0
LINE
  5
12EF19
  8
OBJECT
 10
454.00000000011448
 20
-2407.0000000008981
 30
0.0
 11
454.00000000011448
 21
-2400.0000000008981
 31
0.0
1001
ACDBBLOCKREPETAG
1070
     1
1071
       39
1005
12EF19
  0
LINE
  5
12EF1A
  8
OBJECT
 10
454.00000000011448
 20
-2400.0000000008981
 30
0.0
 11
578.00000000011448
 21
-2400.0000000008981
 31
0.0
1001
ACDBBLOCKREPETAG
1070
     1
1071
       40
1005
12EF1A
  0
LINE
  5
12EF1B
  8
OBJECT
 10
578.00000000011448
 20
-2400.0000000008981
 30
0.0
 11
578.00000000011448
 21
-2407.0000000008981
 31
0.0
1001
ACDBBLOCKREPETAG
1070
     1
1071
       41
1005
12EF1B
  0
LINE
  5
12EF1C
  8
OBJECT
 10
578.00000000011448
 20
-2407.0000000008981
 30
0.0
 11
454.00000000011448
 21
-2407.0000000008981
 31
0.0
1001
ACDBBLOCKREPETAG
1070
     1
1071
       42
1005
12EF1C
  0
LINE
  5
12EF1D
  8
OBJECT
 10
457.0000000001146
 20
-2407.0000000008981
 30
0.0
 11
457.0000000001146
 21
-2443.0000000008981
 31
0.0
1001
ACDBBLOCKREPETAG
1070
     1
1071
       43
1005
12EF1D
  0
LINE
  5
12EF1E
  8
OBJECT
 10
457.0000000001146
 20
-2443.0000000008981
 30
0.0
 11
575.00000000011437
 21
-2443.0000000008981
 31
0.0
1001
ACDBBLOCKREPETAG
1070
     1
1071
       44
1005
12EF1E
  0
LINE
  5
12EF1F
  8
OBJECT
 10
575.00000000011437
 20
-2443.0000000008981
 30
0.0
 11
575.00000000011437
 21
-2407.0000000008981
 31
0.0
1001
ACDBBLOCKREPETAG
1070
     1
1071
       45
1005
12EF1F
  0
LINE
  5
12EF20
  8
OBJECT
 10
461.50000000011448
 20
-2447.0000000008981
 30
0.0
 11
461.50000000011448
 21
-2454.0000000008981
 31
0.0
1001
ACDBBLOCKREPETAG
1070
     1
1071
       46
1005
12EF20
  0
LINE
  5
12EF21
  8
OBJECT
 10
570.50000000011437
 20
-2454.0000000008981
 30
0.0
 11
570.50000000011437
 21
-2447.0000000008981
 31
0.0
1001
ACDBBLOCKREPETAG
1070
     1
1071
       47
1005
12EF21
  0
LINE
  5
12EF22
  8
OBJECT
 10
570.50000000011437
 20
-2447.0000000008981
 30
0.0
 11
461.50000000011448
 21
-2447.0000000008981
 31
0.0
1001
ACDBBLOCKREPETAG
1070
     1
1071
       48
1005
12EF22
  0
LINE
  5
12EF23
  8
OBJECT
 10
457.0000000001146
 20
-2443.0000000008981
 30
0.0
 11
461.50000000011448
 21
-2447.0000000008981
 31
0.0
1001
ACDBBLOCKREPETAG
1070
     1
1071
       49
1005
12EF23
  0
LINE
  5
12EF24
  8
OBJECT
 10
575.00000000011437
 20
-2443.0000000008981
 30
0.0
 11
570.50000000011437
 21
-2447.0000000008981
 31
0.0
1001
ACDBBLOCKREPETAG
1070
     1
1071
       50
1005
12EF24
  0
LINE
  5
12EF25
  8
OBJECT
 10
454.00000000011448
 20
-2457.0000000008981
 30
0.0
 11
454.00000000011448
 21
-2460.0000000008981
 31
0.0
1001
ACDBBLOCKREPETAG
1070
     1
1071
       51
1005
12EF25
  0
ARC
  5
12EF26
  8
OBJECT
 10
457.0000000001146
 20
-2457.0000000008981
 30
0.0
 40
3.0
 50
90.0
 51
180.0
1001
ACDBBLOCKREPETAG
1070
     1
1071
       52
1005
12EF26
  0
LINE
  5
12EF27
  8
OBJECT
 10
578.00000000011448
 20
-2460.0000000008981
 30
0.0
 11
578.00000000011448
 21
-2457.0000000008999
 31
0.0
1001
ACDBBLOCKREPETAG
1070
     1
1071
       53
1005
12EF27
  0
ARC
  5
12EF28
  8
OBJECT
 10
575.00000000011437
 20
-2457.0000000008999
 30
0.0
 40
3.0
 50
0.0
 51
90.0
1001
ACDBBLOCKREPETAG
1070
     1
1071
       54
1005
12EF28
  0
LINE
  5
12EF29
  8
OBJECT
 10
575.00000000011437
 20
-2454.000000000899
 30
0.0
 11
457.0000000001146
 21
-2454.0000000008981
 31
0.0
1001
ACDBBLOCKREPETAG
1070
     1
1071
       55
1005
12EF29
  0
LINE
  5
12EF2A
  8
HIDDEN
 10
471.5000000001146
 20
-2452.0000000008981
 30
0.0
 11
560.5000000001146
 21
-2452.0000000008981
 31
0.0
1001
ACDBBLOCKREPETAG
1070
     1
1071
      426
1005
12EF2A
  0
LINE
  5
12EF2B
  8
OBJECT
 10
454.00000000011448
 20
-2159.0000000008922
 30
0.0
 11
454.00000000011448
 21
-2156.0000000008922
 31
0.0
1001
ACDBBLOCKREPETAG
1070
     1
1071
      418
1005
12EF2B
  0
ARC
  5
12EF2C
  8
OBJECT
 10
457.0000000001146
 20
-2159.0000000008922
 30
0.0
 40
3.0
 50
180.0
 51
270.0
1001
ACDBBLOCKREPETAG
1070
     1
1071
      419
1005
12EF2C
  0
LINE
  5
12EF2D
  8
OBJECT
 10
578.00000000011448
 20
-2156.0000000008922
 30
0.0
 11
578.00000000011448
 21
-2159.0000000008922
 31
0.0
1001
ACDBBLOCKREPETAG
1070
     1
1071
      420
1005
12EF2D
  0
ARC
  5
12EF2E
  8
OBJECT
 10
575.00000000011437
 20
-2159.0000000008922
 30
0.0
 40
3.0
 50
270.0
 51
0.0
1001
ACDBBLOCKREPETAG
1070
     1
1071
      421
1005
12EF2E
  0
LINE
  5
12EF2F
  8
OBJECT
 10
575.00000000011437
 20
-2162.0000000008922
 30
0.0
 11
457.0000000001146
 21
-2162.0000000008922
 31
0.0
1001
ACDBBLOCKREPETAG
1070
     1
1071
      422
1005
12EF2F
  0
INSERT
  5
12EF30
  8
OBJECT
  2
*U16
 10
0.0
 20
0.0
 30
0.0
  0
LINE
  5
12EF31
  8
OBJECT
 10
649.00000000011448
 20
-2021.000000000892
 30
0.0
 11
656.0000000001146
 21
-2021.000000000892
 31
0.0
1001
ACDBBLOCKREPETAG
1070
     1
1071
       20
1005
12EF31
  0
LINE
  5
12EF32
  8
OBJECT
 10
656.0000000001146
 20
-2021.000000000892
 30
0.0
 11
656.0000000001146
 21
-2131.0000000008922
 31
0.0
1001
ACDBBLOCKREPETAG
1070
     1
1071
       21
1005
12EF32
  0
LINE
  5
12EF33
  8
OBJECT
 10
656.0000000001146
 20
-2131.0000000008922
 30
0.0
 11
649.00000000011448
 21
-2131.0000000008922
 31
0.0
1001
ACDBBLOCKREPETAG
1070
     1
1071
       22
1005
12EF33
  0
LINE
  5
12EF34
  8
OBJECT
 10
649.00000000011448
 20
-2131.0000000008922
 30
0.0
 11
649.00000000011448
 21
-2021.000000000892
 31
0.0
1001
ACDBBLOCKREPETAG
1070
     1
1071
       23
1005
12EF34
  0
LINE
  5
12EF35
  8
OBJECT
 10
649.00000000011448
 20
-2024.000000000892
 30
0.0
 11
613.0000000001146
 21
-2024.000000000892
 31
0.0
1001
ACDBBLOCKREPETAG
1070
     1
1071
       24
1005
12EF35
  0
LINE
  5
12EF36
  8
OBJECT
 10
613.0000000001146
 20
-2024.000000000892
 30
0.0
 11
613.0000000001146
 21
-2128.0000000008922
 31
0.0
1001
ACDBBLOCKREPETAG
1070
     1
1071
       25
1005
12EF36
  0
LINE
  5
12EF37
  8
OBJECT
 10
613.0000000001146
 20
-2128.0000000008922
 30
0.0
 11
649.00000000011448
 21
-2128.0000000008922
 31
0.0
1001
ACDBBLOCKREPETAG
1070
     1
1071
       26
1005
12EF37
  0
LINE
  5
12EF38
  8
OBJECT
 10
609.0000000001146
 20
-2028.500000000892
 30
0.0
 11
602.0000000001146
 21
-2028.500000000892
 31
0.0
1001
ACDBBLOCKREPETAG
1070
     1
1071
       27
1005
12EF38
  0
LINE
  5
12EF39
  8
OBJECT
 10
602.0000000001146
 20
-2123.5000000008931
 30
0.0
 11
609.0000000001146
 21
-2123.5000000008931
 31
0.0
1001
ACDBBLOCKREPETAG
1070
     1
1071
       28
1005
12EF39
  0
LINE
  5
12EF3A
  8
OBJECT
 10
609.0000000001146
 20
-2123.5000000008931
 30
0.0
 11
609.0000000001146
 21
-2028.500000000892
 31
0.0
1001
ACDBBLOCKREPETAG
1070
     1
1071
       29
1005
12EF3A
  0
LINE
  5
12EF3B
  8
OBJECT
 10
613.0000000001146
 20
-2024.000000000892
 30
0.0
 11
609.0000000001146
 21
-2028.500000000892
 31
0.0
1001
ACDBBLOCKREPETAG
1070
     1
1071
       30
1005
12EF3B
  0
LINE
  5
12EF3C
  8
OBJECT
 10
613.0000000001146
 20
-2128.0000000008922
 30
0.0
 11
609.0000000001146
 21
-2123.5000000008931
 31
0.0
1001
ACDBBLOCKREPETAG
1070
     1
1071
       31
1005
12EF3C
  0
LINE
  5
12EF3D
  8
OBJECT
 10
599.00000000011619
 20
-2014.000000000892
 30
0.0
 11
596.00000000011437
 21
-2014.000000000892
 31
0.0
1001
ACDBBLOCKREPETAG
1070
     1
1071
       32
1005
12EF3D
  0
ARC
  5
12EF3E
  8
OBJECT
 10
599.00000000011619
 20
-2017.000000000892
 30
0.0
 40
3.0
 50
0.0
 51
90.0
1001
ACDBBLOCKREPETAG
1070
     1
1071
       33
1005
12EF3E
  0
LINE
  5
12EF3F
  8
OBJECT
 10
596.00000000011437
 20
-2138.0000000008922
 30
0.0
 11
599.00000000011278
 21
-2138.0000000008922
 31
0.0
1001
ACDBBLOCKREPETAG
1070
     1
1071
       34
1005
12EF3F
  0
ARC
  5
12EF40
  8
OBJECT
 10
599.00000000011278
 20
-2135.0000000008922
 30
0.0
 40
3.0
 50
270.0
 51
0.0
1001
ACDBBLOCKREPETAG
1070
     1
1071
       35
1005
12EF40
  0
LINE
  5
12EF41
  8
OBJECT
 10
602.00000000011266
 20
-2135.0000000008922
 30
0.0
 11
602.0000000001163
 21
-2017.000000000892
 31
0.0
1001
ACDBBLOCKREPETAG
1070
     1
1071
       36
1005
12EF41
  0
LINE
  5
12EF42
  8
HIDDEN
 10
604.00000000011437
 20
-2038.0000000008911
 30
0.0
 11
604.00000000011437
 21
-2114.0000000008922
 31
0.0
1001
ACDBBLOCKREPETAG
1070
     1
1071
      427
1005
12EF42
  0
INSERT
  5
12EF43
  8
OBJECT
  2
*U17
 10
0.0
 20
0.0
 30
0.0
  0
LINE
  5
12EF44
  8
OBJECT
 10
454.00000000011448
 20
-1943.000000000892
 30
0.0
 11
454.00000000011448
 21
-1936.0000000008911
 31
0.0
1001
ACDBBLOCKREPETAG
1070
     1
1071
       39
1005
12EF44
  0
LINE
  5
12EF45
  8
OBJECT
 10
454.00000000011448
 20
-1936.0000000008911
 30
0.0
 11
578.00000000011448
 21
-1936.0000000008911
 31
0.0
1001
ACDBBLOCKREPETAG
1070
     1
1071
       40
1005
12EF45
  0
LINE
  5
12EF46
  8
OBJECT
 10
578.00000000011448
 20
-1936.0000000008911
 30
0.0
 11
578.00000000011448
 21
-1943.000000000892
 31
0.0
1001
ACDBBLOCKREPETAG
1070
     1
1071
       41
1005
12EF46
  0
LINE
  5
12EF47
  8
OBJECT
 10
578.00000000011448
 20
-1943.000000000892
 30
0.0
 11
454.00000000011448
 21
-1943.000000000892
 31
0.0
1001
ACDBBLOCKREPETAG
1070
     1
1071
       42
1005
12EF47
  0
LINE
  5
12EF48
  8
OBJECT
 10
457.0000000001146
 20
-1943.000000000892
 30
0.0
 11
457.0000000001146
 21
-1979.000000000892
 31
0.0
1001
ACDBBLOCKREPETAG
1070
     1
1071
       43
1005
12EF48
  0
LINE
  5
12EF49
  8
OBJECT
 10
457.0000000001146
 20
-1979.000000000892
 30
0.0
 11
575.00000000011437
 21
-1979.000000000892
 31
0.0
1001
ACDBBLOCKREPETAG
1070
     1
1071
       44
1005
12EF49
  0
LINE
  5
12EF4A
  8
OBJECT
 10
575.00000000011437
 20
-1979.000000000892
 30
0.0
 11
575.00000000011437
 21
-1943.000000000892
 31
0.0
1001
ACDBBLOCKREPETAG
1070
     1
1071
       45
1005
12EF4A
  0
LINE
  5
12EF4B
  8
OBJECT
 10
461.50000000011448
 20
-1983.000000000892
 30
0.0
 11
461.50000000011448
 21
-1990.000000000892
 31
0.0
1001
ACDBBLOCKREPETAG
1070
     1
1071
       46
1005
12EF4B
  0
LINE
  5
12EF4C
  8
OBJECT
 10
570.50000000011437
 20
-1990.000000000892
 30
0.0
 11
570.50000000011437
 21
-1983.000000000892
 31
0.0
1001
ACDBBLOCKREPETAG
1070
     1
1071
       47
1005
12EF4C
  0
LINE
  5
12EF4D
  8
OBJECT
 10
570.50000000011437
 20
-1983.000000000892
 30
0.0
 11
461.50000000011448
 21
-1983.000000000892
 31
0.0
1001
ACDBBLOCKREPETAG
1070
     1
1071
       48
1005
12EF4D
  0
LINE
  5
12EF4E
  8
OBJECT
 10
457.0000000001146
 20
-1979.000000000892
 30
0.0
 11
461.50000000011448
 21
-1983.000000000892
 31
0.0
1001
ACDBBLOCKREPETAG
1070
     1
1071
       49
1005
12EF4E
  0
LINE
  5
12EF4F
  8
OBJECT
 10
575.00000000011437
 20
-1979.000000000892
 30
0.0
 11
570.50000000011437
 21
-1983.000000000892
 31
0.0
1001
ACDBBLOCKREPETAG
1070
     1
1071
       50
1005
12EF4F
  0
LINE
  5
12EF50
  8
OBJECT
 10
454.00000000011448
 20
-1993.0000000008911
 30
0.0
 11
454.00000000011448
 21
-1996.000000000892
 31
0.0
1001
ACDBBLOCKREPETAG
1070
     1
1071
       51
1005
12EF50
  0
ARC
  5
12EF51
  8
OBJECT
 10
457.0000000001146
 20
-1993.0000000008911
 30
0.0
 40
3.0
 50
90.0
 51
180.0
1001
ACDBBLOCKREPETAG
1070
     1
1071
       52
1005
12EF51
  0
LINE
  5
12EF52
  8
OBJECT
 10
578.00000000011448
 20
-1996.000000000892
 30
0.0
 11
578.00000000011448
 21
-1993.0000000008929
 31
0.0
1001
ACDBBLOCKREPETAG
1070
     1
1071
       53
1005
12EF52
  0
ARC
  5
12EF53
  8
OBJECT
 10
575.00000000011437
 20
-1993.0000000008929
 30
0.0
 40
3.0
 50
0.0
 51
90.0
1001
ACDBBLOCKREPETAG
1070
     1
1071
       54
1005
12EF53
  0
LINE
  5
12EF54
  8
OBJECT
 10
575.00000000011437
 20
-1990.0000000008929
 30
0.0
 11
457.0000000001146
 21
-1990.0000000008911
 31
0.0
1001
ACDBBLOCKREPETAG
1070
     1
1071
       55
1005
12EF54
  0
LINE
  5
12EF55
  8
HIDDEN
 10
471.5000000001146
 20
-1988.0000000008911
 30
0.0
 11
560.5000000001146
 21
-1988.0000000008911
 31
0.0
1001
ACDBBLOCKREPETAG
1070
     1
1071
      426
1005
12EF55
  0
LINE
  5
12EF56
  8
OBJECT
 10
94.000000000034575
 20
-2159.0000000008922
 30
0.0
 11
94.000000000034575
 21
-2156.0000000008922
 31
0.0
1001
ACDBBLOCKREPETAG
1070
     1
1071
      418
1005
12EF56
  0
ARC
  5
12EF57
  8
OBJECT
 10
97.000000000034561
 20
-2159.0000000008922
 30
0.0
 40
3.0
 50
180.0
 51
270.0
1001
ACDBBLOCKREPETAG
1070
     1
1071
      419
1005
12EF57
  0
LINE
  5
12EF58
  8
OBJECT
 10
218.00000000003459
 20
-2156.0000000008922
 30
0.0
 11
218.00000000003459
 21
-2159.0000000008922
 31
0.0
1001
ACDBBLOCKREPETAG
1070
     1
1071
      420
1005
12EF58
  0
ARC
  5
12EF59
  8
OBJECT
 10
215.00000000003459
 20
-2159.0000000008922
 30
0.0
 40
3.0
 50
270.0
 51
0.0
1001
ACDBBLOCKREPETAG
1070
     1
1071
      421
1005
12EF59
  0
LINE
  5
12EF5A
  8
OBJECT
 10
215.00000000003459
 20
-2162.0000000008922
 30
0.0
 11
97.000000000034561
 21
-2162.0000000008922
 31
0.0
1001
ACDBBLOCKREPETAG
1070
     1
1071
      422
1005
12EF5A
  0
INSERT
  5
12EF5B
  8
OBJECT
  2
*U18
 10
0.0
 20
0.0
 30
0.0
  0
LINE
  5
12EF5C
  8
OBJECT
 10
289.00000000003462
 20
-2029.000000000892
 30
0.0
 11
296.0000000000345
 21
-2029.000000000892
 31
0.0
1001
ACDBBLOCKREPETAG
1070
     1
1071
        1
1005
12EF5C
  0
LINE
  5
12EF5D
  8
OBJECT
 10
296.0000000000345
 20
-2029.000000000892
 30
0.0
 11
296.0000000000345
 21
-2123.0000000008922
 31
0.0
1001
ACDBBLOCKREPETAG
1070
     1
1071
        2
1005
12EF5D
  0
LINE
  5
12EF5E
  8
OBJECT
 10
296.0000000000345
 20
-2123.0000000008922
 30
0.0
 11
289.00000000003462
 21
-2123.0000000008922
 31
0.0
1001
ACDBBLOCKREPETAG
1070
     1
1071
        3
1005
12EF5E
  0
LINE
  5
12EF5F
  8
OBJECT
 10
289.00000000003462
 20
-2123.0000000008922
 30
0.0
 11
289.00000000003462
 21
-2029.000000000892
 31
0.0
1001
ACDBBLOCKREPETAG
1070
     1
1071
        4
1005
12EF5F
  0
LINE
  5
12EF60
  8
OBJECT
 10
289.00000000003462
 20
-2032.000000000892
 30
0.0
 11
253.00000000003459
 21
-2032.000000000892
 31
0.0
1001
ACDBBLOCKREPETAG
1070
     1
1071
        5
1005
12EF60
  0
LINE
  5
12EF61
  8
OBJECT
 10
253.00000000003459
 20
-2032.000000000892
 30
0.0
 11
253.00000000003459
 21
-2120.0000000008922
 31
0.0
1001
ACDBBLOCKREPETAG
1070
     1
1071
        6
1005
12EF61
  0
LINE
  5
12EF62
  8
OBJECT
 10
253.00000000003459
 20
-2120.0000000008922
 30
0.0
 11
289.00000000003462
 21
-2120.0000000008922
 31
0.0
1001
ACDBBLOCKREPETAG
1070
     1
1071
        7
1005
12EF62
  0
LINE
  5
12EF63
  8
OBJECT
 10
249.00000000003459
 20
-2036.500000000892
 30
0.0
 11
242.00000000003459
 21
-2036.500000000892
 31
0.0
1001
ACDBBLOCKREPETAG
1070
     1
1071
        8
1005
12EF63
  0
LINE
  5
12EF64
  8
OBJECT
 10
242.00000000003459
 20
-2115.5000000008922
 30
0.0
 11
249.00000000003459
 21
-2115.5000000008922
 31
0.0
1001
ACDBBLOCKREPETAG
1070
     1
1071
        9
1005
12EF64
  0
LINE
  5
12EF65
  8
OBJECT
 10
249.00000000003459
 20
-2115.5000000008922
 30
0.0
 11
249.00000000003459
 21
-2036.500000000892
 31
0.0
1001
ACDBBLOCKREPETAG
1070
     1
1071
       10
1005
12EF65
  0
LINE
  5
12EF66
  8
OBJECT
 10
253.00000000003459
 20
-2032.000000000892
 30
0.0
 11
249.00000000003459
 21
-2036.500000000892
 31
0.0
1001
ACDBBLOCKREPETAG
1070
     1
1071
       11
1005
12EF66
  0
LINE
  5
12EF67
  8
OBJECT
 10
253.00000000003459
 20
-2120.0000000008922
 30
0.0
 11
249.00000000003459
 21
-2115.5000000008922
 31
0.0
1001
ACDBBLOCKREPETAG
1070
     1
1071
       12
1005
12EF67
  0
LINE
  5
12EF68
  8
OBJECT
 10
239.00000000003641
 20
-2014.000000000892
 30
0.0
 11
236.00000000003459
 21
-2014.000000000892
 31
0.0
1001
ACDBBLOCKREPETAG
1070
     1
1071
       13
1005
12EF68
  0
ARC
  5
12EF69
  8
OBJECT
 10
239.00000000003641
 20
-2017.000000000892
 30
0.0
 40
3.0
 50
0.0
 51
90.0
1001
ACDBBLOCKREPETAG
1070
     1
1071
       14
1005
12EF69
  0
LINE
  5
12EF6A
  8
OBJECT
 10
236.00000000003459
 20
-2138.0000000008922
 30
0.0
 11
239.00000000003271
 21
-2138.0000000008922
 31
0.0
1001
ACDBBLOCKREPETAG
1070
     1
1071
       15
1005
12EF6A
  0
ARC
  5
12EF6B
  8
OBJECT
 10
239.00000000003271
 20
-2135.0000000008922
 30
0.0
 40
3.0
 50
270.0
 51
0.0
1001
ACDBBLOCKREPETAG
1070
     1
1071
       16
1005
12EF6B
  0
LINE
  5
12EF6C
  8
OBJECT
 10
242.0000000000328
 20
-2135.0000000008922
 30
0.0
 11
242.00000000003641
 21
-2017.000000000892
 31
0.0
1001
ACDBBLOCKREPETAG
1070
     1
1071
       17
1005
12EF6C
  0
LINE
  5
12EF6D
  8
HIDDEN
 10
244.0000000000345
 20
-2046.000000000892
 30
0.0
 11
244.0000000000345
 21
-2106.0000000008922
 31
0.0
1001
ACDBBLOCKREPETAG
1070
     1
1071
      424
1005
12EF6D
  0
INSERT
  5
12EF6E
  8
OBJECT
  2
*U19
 10
0.0
 20
0.0
 30
0.0
  0
LINE
  5
12EF6F
  8
OBJECT
 10
94.000000000034575
 20
-1943.000000000892
 30
0.0
 11
94.000000000034575
 21
-1936.0000000008911
 31
0.0
1001
ACDBBLOCKREPETAG
1070
     1
1071
       39
1005
12EF6F
  0
LINE
  5
12EF70
  8
OBJECT
 10
94.000000000034575
 20
-1936.0000000008911
 30
0.0
 11
218.00000000003459
 21
-1936.0000000008911
 31
0.0
1001
ACDBBLOCKREPETAG
1070
     1
1071
       40
1005
12EF70
  0
LINE
  5
12EF71
  8
OBJECT
 10
218.00000000003459
 20
-1936.0000000008911
 30
0.0
 11
218.00000000003459
 21
-1943.000000000892
 31
0.0
1001
ACDBBLOCKREPETAG
1070
     1
1071
       41
1005
12EF71
  0
LINE
  5
12EF72
  8
OBJECT
 10
218.00000000003459
 20
-1943.000000000892
 30
0.0
 11
94.000000000034575
 21
-1943.000000000892
 31
0.0
1001
ACDBBLOCKREPETAG
1070
     1
1071
       42
1005
12EF72
  0
LINE
  5
12EF73
  8
OBJECT
 10
97.000000000034561
 20
-1943.000000000892
 30
0.0
 11
97.000000000034561
 21
-1979.000000000892
 31
0.0
1001
ACDBBLOCKREPETAG
1070
     1
1071
       43
1005
12EF73
  0
LINE
  5
12EF74
  8
OBJECT
 10
97.000000000034561
 20
-1979.000000000892
 30
0.0
 11
215.00000000003459
 21
-1979.000000000892
 31
0.0
1001
ACDBBLOCKREPETAG
1070
     1
1071
       44
1005
12EF74
  0
LINE
  5
12EF75
  8
OBJECT
 10
215.00000000003459
 20
-1979.000000000892
 30
0.0
 11
215.00000000003459
 21
-1943.000000000892
 31
0.0
1001
ACDBBLOCKREPETAG
1070
     1
1071
       45
1005
12EF75
  0
LINE
  5
12EF76
  8
OBJECT
 10
101.5000000000345
 20
-1983.000000000892
 30
0.0
 11
101.5000000000345
 21
-1990.000000000892
 31
0.0
1001
ACDBBLOCKREPETAG
1070
     1
1071
       46
1005
12EF76
  0
LINE
  5
12EF77
  8
OBJECT
 10
210.5000000000345
 20
-1990.000000000892
 30
0.0
 11
210.5000000000345
 21
-1983.000000000892
 31
0.0
1001
ACDBBLOCKREPETAG
1070
     1
1071
       47
1005
12EF77
  0
LINE
  5
12EF78
  8
OBJECT
 10
210.5000000000345
 20
-1983.000000000892
 30
0.0
 11
101.5000000000345
 21
-1983.000000000892
 31
0.0
1001
ACDBBLOCKREPETAG
1070
     1
1071
       48
1005
12EF78
  0
LINE
  5
12EF79
  8
OBJECT
 10
97.000000000034561
 20
-1979.000000000892
 30
0.0
 11
101.5000000000345
 21
-1983.000000000892
 31
0.0
1001
ACDBBLOCKREPETAG
1070
     1
1071
       49
1005
12EF79
  0
LINE
  5
12EF7A
  8
OBJECT
 10
215.00000000003459
 20
-1979.000000000892
 30
0.0
 11
210.5000000000345
 21
-1983.000000000892
 31
0.0
1001
ACDBBLOCKREPETAG
1070
     1
1071
       50
1005
12EF7A
  0
LINE
  5
12EF7B
  8
OBJECT
 10
94.000000000034575
 20
-1993.0000000008911
 30
0.0
 11
94.000000000034575
 21
-1996.000000000892
 31
0.0
1001
ACDBBLOCKREPETAG
1070
     1
1071
       51
1005
12EF7B
  0
ARC
  5
12EF7C
  8
OBJECT
 10
97.000000000034561
 20
-1993.0000000008911
 30
0.0
 40
3.0
 50
90.0
 51
180.0
1001
ACDBBLOCKREPETAG
1070
     1
1071
       52
1005
12EF7C
  0
LINE
  5
12EF7D
  8
OBJECT
 10
218.00000000003459
 20
-1996.000000000892
 30
0.0
 11
218.00000000003459
 21
-1993.0000000008929
 31
0.0
1001
ACDBBLOCKREPETAG
1070
     1
1071
       53
1005
12EF7D
  0
ARC
  5
12EF7E
  8
OBJECT
 10
215.00000000003459
 20
-1993.0000000008929
 30
0.0
 40
3.0
 50
0.0
 51
90.0
1001
ACDBBLOCKREPETAG
1070
     1
1071
       54
1005
12EF7E
  0
LINE
  5
12EF7F
  8
OBJECT
 10
215.00000000003459
 20
-1990.0000000008929
 30
0.0
 11
97.000000000034561
 21
-1990.0000000008911
 31
0.0
1001
ACDBBLOCKREPETAG
1070
     1
1071
       55
1005
12EF7F
  0
LINE
  5
12EF80
  8
HIDDEN
 10
111.5000000000345
 20
-1988.0000000008911
 30
0.0
 11
200.50000000003459
 21
-1988.0000000008911
 31
0.0
1001
ACDBBLOCKREPETAG
1070
     1
1071
      426
1005
12EF80
  0
LINE
  5
12EF81
  8
OBJECT
 10
94.000000000034575
 20
-1695.0000000008849
 30
0.0
 11
94.000000000034575
 21
-1692.000000000884
 31
0.0
1001
ACDBBLOCKREPETAG
1070
     1
1071
      418
1005
12EF81
  0
ARC
  5
12EF82
  8
OBJECT
 10
97.000000000034561
 20
-1695.0000000008849
 30
0.0
 40
3.0
 50
180.0
 51
270.0
1001
ACDBBLOCKREPETAG
1070
     1
1071
      419
1005
12EF82
  0
LINE
  5
12EF83
  8
OBJECT
 10
218.00000000003459
 20
-1692.000000000884
 30
0.0
 11
218.00000000003459
 21
-1695.0000000008849
 31
0.0
1001
ACDBBLOCKREPETAG
1070
     1
1071
      420
1005
12EF83
  0
ARC
  5
12EF84
  8
OBJECT
 10
215.00000000003459
 20
-1695.0000000008849
 30
0.0
 40
3.0
 50
270.0
 51
0.0
1001
ACDBBLOCKREPETAG
1070
     1
1071
      421
1005
12EF84
  0
LINE
  5
12EF85
  8
OBJECT
 10
215.00000000003459
 20
-1698.0000000008849
 30
0.0
 11
97.000000000034561
 21
-1698.0000000008849
 31
0.0
1001
ACDBBLOCKREPETAG
1070
     1
1071
      422
1005
12EF85
  0
INSERT
  5
12EF86
  8
OBJECT
  2
*U20
 10
0.0
 20
0.0
 30
0.0
  0
LINE
  5
12EF87
  8
OBJECT
 10
289.00000000003462
 20
-1550.0000000008849
 30
0.0
 11
296.0000000000345
 21
-1550.0000000008849
 31
0.0
1001
ACDBBLOCKREPETAG
1070
     1
1071
       39
1005
12EF87
  0
LINE
  5
12EF88
  8
OBJECT
 10
296.0000000000345
 20
-1550.0000000008849
 30
0.0
 11
296.0000000000345
 21
-1674.0000000008849
 31
0.0
1001
ACDBBLOCKREPETAG
1070
     1
1071
       40
1005
12EF88
  0
LINE
  5
12EF89
  8
OBJECT
 10
296.0000000000345
 20
-1674.0000000008849
 30
0.0
 11
289.00000000003462
 21
-1674.0000000008849
 31
0.0
1001
ACDBBLOCKREPETAG
1070
     1
1071
       41
1005
12EF89
  0
LINE
  5
12EF8A
  8
OBJECT
 10
289.00000000003462
 20
-1674.0000000008849
 30
0.0
 11
289.00000000003462
 21
-1550.0000000008849
 31
0.0
1001
ACDBBLOCKREPETAG
1070
     1
1071
       42
1005
12EF8A
  0
LINE
  5
12EF8B
  8
OBJECT
 10
289.00000000003462
 20
-1553.0000000008849
 30
0.0
 11
253.00000000003459
 21
-1553.0000000008849
 31
0.0
1001
ACDBBLOCKREPETAG
1070
     1
1071
       43
1005
12EF8B
  0
LINE
  5
12EF8C
  8
OBJECT
 10
253.00000000003459
 20
-1553.0000000008849
 30
0.0
 11
253.00000000003459
 21
-1671.0000000008849
 31
0.0
1001
ACDBBLOCKREPETAG
1070
     1
1071
       44
1005
12EF8C
  0
LINE
  5
12EF8D
  8
OBJECT
 10
253.00000000003459
 20
-1671.0000000008849
 30
0.0
 11
289.00000000003462
 21
-1671.0000000008849
 31
0.0
1001
ACDBBLOCKREPETAG
1070
     1
1071
       45
1005
12EF8D
  0
LINE
  5
12EF8E
  8
OBJECT
 10
249.00000000003459
 20
-1557.500000000884
 30
0.0
 11
242.00000000003459
 21
-1557.500000000884
 31
0.0
1001
ACDBBLOCKREPETAG
1070
     1
1071
       46
1005
12EF8E
  0
LINE
  5
12EF8F
  8
OBJECT
 10
242.00000000003459
 20
-1666.5000000008849
 30
0.0
 11
249.00000000003459
 21
-1666.5000000008849
 31
0.0
1001
ACDBBLOCKREPETAG
1070
     1
1071
       47
1005
12EF8F
  0
LINE
  5
12EF90
  8
OBJECT
 10
249.00000000003459
 20
-1666.5000000008849
 30
0.0
 11
249.00000000003459
 21
-1557.500000000884
 31
0.0
1001
ACDBBLOCKREPETAG
1070
     1
1071
       48
1005
12EF90
  0
LINE
  5
12EF91
  8
OBJECT
 10
253.00000000003459
 20
-1553.0000000008849
 30
0.0
 11
249.00000000003459
 21
-1557.500000000884
 31
0.0
1001
ACDBBLOCKREPETAG
1070
     1
1071
       49
1005
12EF91
  0
LINE
  5
12EF92
  8
OBJECT
 10
253.00000000003459
 20
-1671.0000000008849
 30
0.0
 11
249.00000000003459
 21
-1666.5000000008849
 31
0.0
1001
ACDBBLOCKREPETAG
1070
     1
1071
       50
1005
12EF92
  0
LINE
  5
12EF93
  8
OBJECT
 10
239.00000000003641
 20
-1550.0000000008849
 30
0.0
 11
236.00000000003459
 21
-1550.0000000008849
 31
0.0
1001
ACDBBLOCKREPETAG
1070
     1
1071
       51
1005
12EF93
  0
ARC
  5
12EF94
  8
OBJECT
 10
239.00000000003641
 20
-1553.0000000008849
 30
0.0
 40
3.0
 50
0.0
 51
90.0
1001
ACDBBLOCKREPETAG
1070
     1
1071
       52
1005
12EF94
  0
LINE
  5
12EF95
  8
OBJECT
 10
236.00000000003459
 20
-1674.0000000008849
 30
0.0
 11
239.00000000003271
 21
-1674.0000000008849
 31
0.0
1001
ACDBBLOCKREPETAG
1070
     1
1071
       53
1005
12EF95
  0
ARC
  5
12EF96
  8
OBJECT
 10
239.00000000003271
 20
-1671.0000000008849
 30
0.0
 40
3.0
 50
270.0
 51
0.0
1001
ACDBBLOCKREPETAG
1070
     1
1071
       54
1005
12EF96
  0
LINE
  5
12EF97
  8
OBJECT
 10
242.0000000000328
 20
-1671.0000000008849
 30
0.0
 11
242.00000000003641
 21
-1553.0000000008849
 31
0.0
1001
ACDBBLOCKREPETAG
1070
     1
1071
       55
1005
12EF97
  0
LINE
  5
12EF98
  8
HIDDEN
 10
244.0000000000345
 20
-1567.500000000884
 30
0.0
 11
244.0000000000345
 21
-1656.5000000008849
 31
0.0
1001
ACDBBLOCKREPETAG
1070
     1
1071
      430
1005
12EF98
  0
INSERT
  5
12EF99
  8
OBJECT
  2
*U21
 10
0.0
 20
0.0
 30
0.0
  0
LINE
  5
12EF9A
  8
OBJECT
 10
101.0000000000345
 20
-1479.000000000884
 30
0.0
 11
101.0000000000345
 21
-1472.0000000008849
 31
0.0
1001
ACDBBLOCKREPETAG
1070
     1
1071
       20
1005
12EF9A
  0
LINE
  5
12EF9B
  8
OBJECT
 10
101.0000000000345
 20
-1472.0000000008849
 30
0.0
 11
211.00000000003459
 21
-1472.0000000008849
 31
0.0
1001
ACDBBLOCKREPETAG
1070
     1
1071
       21
1005
12EF9B
  0
LINE
  5
12EF9C
  8
OBJECT
 10
211.00000000003459
 20
-1472.0000000008849
 30
0.0
 11
211.00000000003459
 21
-1479.000000000884
 31
0.0
1001
ACDBBLOCKREPETAG
1070
     1
1071
       22
1005
12EF9C
  0
LINE
  5
12EF9D
  8
OBJECT
 10
211.00000000003459
 20
-1479.000000000884
 30
0.0
 11
101.0000000000345
 21
-1479.000000000884
 31
0.0
1001
ACDBBLOCKREPETAG
1070
     1
1071
       23
1005
12EF9D
  0
LINE
  5
12EF9E
  8
OBJECT
 10
104.0000000000345
 20
-1479.000000000884
 30
0.0
 11
104.0000000000345
 21
-1515.0000000008849
 31
0.0
1001
ACDBBLOCKREPETAG
1070
     1
1071
       24
1005
12EF9E
  0
LINE
  5
12EF9F
  8
OBJECT
 10
104.0000000000345
 20
-1515.0000000008849
 30
0.0
 11
208.00000000003459
 21
-1515.0000000008849
 31
0.0
1001
ACDBBLOCKREPETAG
1070
     1
1071
       25
1005
12EF9F
  0
LINE
  5
12EFA0
  8
OBJECT
 10
208.00000000003459
 20
-1515.0000000008849
 30
0.0
 11
208.00000000003459
 21
-1479.000000000884
 31
0.0
1001
ACDBBLOCKREPETAG
1070
     1
1071
       26
1005
12EFA0
  0
LINE
  5
12EFA1
  8
OBJECT
 10
108.5000000000345
 20
-1519.000000000884
 30
0.0
 11
108.5000000000345
 21
-1526.0000000008849
 31
0.0
1001
ACDBBLOCKREPETAG
1070
     1
1071
       27
1005
12EFA1
  0
LINE
  5
12EFA2
  8
OBJECT
 10
203.50000000003459
 20
-1526.0000000008849
 30
0.0
 11
203.50000000003459
 21
-1519.000000000884
 31
0.0
1001
ACDBBLOCKREPETAG
1070
     1
1071
       28
1005
12EFA2
  0
LINE
  5
12EFA3
  8
OBJECT
 10
203.50000000003459
 20
-1519.000000000884
 30
0.0
 11
108.5000000000345
 21
-1519.000000000884
 31
0.0
1001
ACDBBLOCKREPETAG
1070
     1
1071
       29
1005
12EFA3
  0
LINE
  5
12EFA4
  8
OBJECT
 10
104.0000000000345
 20
-1515.0000000008849
 30
0.0
 11
108.5000000000345
 21
-1519.000000000884
 31
0.0
1001
ACDBBLOCKREPETAG
1070
     1
1071
       30
1005
12EFA4
  0
LINE
  5
12EFA5
  8
OBJECT
 10
208.00000000003459
 20
-1515.0000000008849
 30
0.0
 11
203.50000000003459
 21
-1519.000000000884
 31
0.0
1001
ACDBBLOCKREPETAG
1070
     1
1071
       31
1005
12EFA5
  0
LINE
  5
12EFA6
  8
OBJECT
 10
94.000000000034575
 20
-1529.000000000884
 30
0.0
 11
94.000000000034575
 21
-1532.000000000884
 31
0.0
1001
ACDBBLOCKREPETAG
1070
     1
1071
       32
1005
12EFA6
  0
ARC
  5
12EFA7
  8
OBJECT
 10
97.000000000034561
 20
-1529.000000000884
 30
0.0
 40
3.0
 50
90.0
 51
180.0
1001
ACDBBLOCKREPETAG
1070
     1
1071
       33
1005
12EFA7
  0
LINE
  5
12EFA8
  8
OBJECT
 10
218.00000000003459
 20
-1532.000000000884
 30
0.0
 11
218.00000000003459
 21
-1529.0000000008861
 31
0.0
1001
ACDBBLOCKREPETAG
1070
     1
1071
       34
1005
12EFA8
  0
ARC
  5
12EFA9
  8
OBJECT
 10
215.00000000003459
 20
-1529.0000000008861
 30
0.0
 40
3.0
 50
0.0
 51
90.0
1001
ACDBBLOCKREPETAG
1070
     1
1071
       35
1005
12EFA9
  0
LINE
  5
12EFAA
  8
OBJECT
 10
215.00000000003459
 20
-1526.0000000008861
 30
0.0
 11
97.000000000034561
 21
-1526.000000000884
 31
0.0
1001
ACDBBLOCKREPETAG
1070
     1
1071
       36
1005
12EFAA
  0
LINE
  5
12EFAB
  8
HIDDEN
 10
118.0000000000345
 20
-1524.0000000008849
 30
0.0
 11
194.0000000000345
 21
-1524.0000000008849
 31
0.0
1001
ACDBBLOCKREPETAG
1070
     1
1071
      423
1005
12EFAB
  0
LINE
  5
12EFAC
  8
OBJECT
 10
454.00000000011448
 20
-1695.0000000008849
 30
0.0
 11
454.00000000011448
 21
-1692.000000000884
 31
0.0
1001
ACDBBLOCKREPETAG
1070
     1
1071
      418
1005
12EFAC
  0
ARC
  5
12EFAD
  8
OBJECT
 10
457.0000000001146
 20
-1695.0000000008849
 30
0.0
 40
3.0
 50
180.0
 51
270.0
1001
ACDBBLOCKREPETAG
1070
     1
1071
      419
1005
12EFAD
  0
LINE
  5
12EFAE
  8
OBJECT
 10
578.00000000011448
 20
-1692.000000000884
 30
0.0
 11
578.00000000011448
 21
-1695.0000000008849
 31
0.0
1001
ACDBBLOCKREPETAG
1070
     1
1071
      420
1005
12EFAE
  0
ARC
  5
12EFAF
  8
OBJECT
 10
575.00000000011437
 20
-1695.0000000008849
 30
0.0
 40
3.0
 50
270.0
 51
0.0
1001
ACDBBLOCKREPETAG
1070
     1
1071
      421
1005
12EFAF
  0
LINE
  5
12EFB0
  8
OBJECT
 10
575.00000000011437
 20
-1698.0000000008849
 30
0.0
 11
457.0000000001146
 21
-1698.0000000008849
 31
0.0
1001
ACDBBLOCKREPETAG
1070
     1
1071
      422
1005
12EFB0
  0
LINE
  5
12EFB1
  8
OBJECT
 10
666.00000000011448
 20
-1537.000000000884
 30
0.0
 11
659.0000000001146
 21
-1537.000000000884
 31
0.0
1001
ACDBBLOCKREPETAG
1070
     1
1071
       57
1005
12EFB1
  0
LINE
  5
12EFB2
  8
OBJECT
 10
659.0000000001146
 20
-1537.000000000884
 30
0.0
 11
659.0000000001146
 21
-1687.0000000008849
 31
0.0
1001
ACDBBLOCKREPETAG
1070
     1
1071
       58
1005
12EFB2
  0
LINE
  5
12EFB3
  8
OBJECT
 10
617.5000000001146
 20
-1540.000000000884
 30
0.0
 11
617.5000000001146
 21
-1684.000000000884
 31
0.0
1001
ACDBBLOCKREPETAG
1070
     1
1071
       59
1005
12EFB3
  0
LINE
  5
12EFB4
  8
OBJECT
 10
606.0000000001146
 20
-1546.5000000008849
 30
0.0
 11
606.0000000001146
 21
-1677.5000000008849
 31
0.0
1001
ACDBBLOCKREPETAG
1070
     1
1071
       60
1005
12EFB4
  0
LINE
  5
12EFB5
  8
OBJECT
 10
659.0000000001146
 20
-1687.0000000008849
 30
0.0
 11
666.00000000011448
 21
-1687.0000000008849
 31
0.0
1001
ACDBBLOCKREPETAG
1070
     1
1071
       61
1005
12EFB5
  0
LINE
  5
12EFB6
  8
OBJECT
 10
666.00000000011448
 20
-1687.0000000008849
 30
0.0
 11
666.00000000011448
 21
-1537.000000000884
 31
0.0
1001
ACDBBLOCKREPETAG
1070
     1
1071
       62
1005
12EFB6
  0
LINE
  5
12EFB7
  8
OBJECT
 10
602.0000000001146
 20
-1674.0000000008849
 30
0.0
 11
596.00000000011437
 21
-1674.0000000008849
 31
0.0
1001
ACDBBLOCKREPETAG
1070
     1
1071
       63
1005
12EFB7
  0
LINE
  5
12EFB8
  8
OBJECT
 10
659.0000000001146
 20
-1684.000000000884
 30
0.0
 11
617.5000000001146
 21
-1684.000000000884
 31
0.0
1001
ACDBBLOCKREPETAG
1070
     1
1071
       64
1005
12EFB8
  0
LINE
  5
12EFB9
  8
OBJECT
 10
617.5000000001146
 20
-1684.000000000884
 30
0.0
 11
606.0000000001146
 21
-1677.5000000008849
 31
0.0
1001
ACDBBLOCKREPETAG
1070
     1
1071
       65
1005
12EFB9
  0
LINE
  5
12EFBA
  8
OBJECT
 10
606.0000000001146
 20
-1677.5000000008849
 30
0.0
 11
602.0000000001146
 21
-1674.0000000008849
 31
0.0
1001
ACDBBLOCKREPETAG
1070
     1
1071
       66
1005
12EFBA
  0
LINE
  5
12EFBB
  8
OBJECT
 10
617.5000000001146
 20
-1540.000000000884
 30
0.0
 11
606.0000000001146
 21
-1546.5000000008849
 31
0.0
1001
ACDBBLOCKREPETAG
1070
     1
1071
       67
1005
12EFBB
  0
LINE
  5
12EFBC
  8
OBJECT
 10
606.0000000001146
 20
-1546.5000000008849
 30
0.0
 11
602.0000000001146
 21
-1550.0000000008849
 31
0.0
1001
ACDBBLOCKREPETAG
1070
     1
1071
       68
1005
12EFBC
  0
ARC
  5
12EFBD
  8
OBJECT
 10
983.90000000011605
 20
-1612.000000000884
 30
0.0
 40
386.89999999999998
 50
170.77870136263201
 51
189.22129863736799
1001
ACDBBLOCKREPETAG
1070
     1
1071
       69
1005
12EFBD
  0
LINE
  5
12EFBE
  8
OBJECT
 10
602.0000000001146
 20
-1550.0000000008849
 30
0.0
 11
596.00000000011437
 21
-1550.0000000008849
 31
0.0
1001
ACDBBLOCKREPETAG
1070
     1
1071
       70
1005
12EFBE
  0
LINE
  5
12EFBF
  8
OBJECT
 10
659.0000000001146
 20
-1540.000000000884
 30
0.0
 11
617.5000000001146
 21
-1540.000000000884
 31
0.0
1001
ACDBBLOCKREPETAG
1070
     1
1071
       71
1005
12EFBF
  0
INSERT
  5
12EFC0
  8
OBJECT
  2
*U22
 10
0.0
 20
0.0
 30
0.0
  0
LINE
  5
12EFC1
  8
HIDDEN
 10
614.0000000001146
 20
-1669.0000000008849
 30
0.0
 11
614.0000000001146
 21
-1555.0000000008849
 31
0.0
1001
ACDBBLOCKREPETAG
1070
     1
1071
      437
1005
12EFC1
  0
INSERT
  5
12EFC2
  8
OBJECT
  2
*U23
 10
0.0
 20
0.0
 30
0.0
  0
LINE
  5
12EFC3
  8
OBJECT
 10
461.0000000001146
 20
-1479.000000000884
 30
0.0
 11
461.0000000001146
 21
-1472.0000000008849
 31
0.0
1001
ACDBBLOCKREPETAG
1070
     1
1071
       20
1005
12EFC3
  0
LINE
  5
12EFC4
  8
OBJECT
 10
461.0000000001146
 20
-1472.0000000008849
 30
0.0
 11
571.00000000011437
 21
-1472.0000000008849
 31
0.0
1001
ACDBBLOCKREPETAG
1070
     1
1071
       21
1005
12EFC4
  0
LINE
  5
12EFC5
  8
OBJECT
 10
571.00000000011437
 20
-1472.0000000008849
 30
0.0
 11
571.00000000011437
 21
-1479.000000000884
 31
0.0
1001
ACDBBLOCKREPETAG
1070
     1
1071
       22
1005
12EFC5
  0
LINE
  5
12EFC6
  8
OBJECT
 10
571.00000000011437
 20
-1479.000000000884
 30
0.0
 11
461.0000000001146
 21
-1479.000000000884
 31
0.0
1001
ACDBBLOCKREPETAG
1070
     1
1071
       23
1005
12EFC6
  0
LINE
  5
12EFC7
  8
OBJECT
 10
464.0000000001146
 20
-1479.000000000884
 30
0.0
 11
464.0000000001146
 21
-1515.0000000008849
 31
0.0
1001
ACDBBLOCKREPETAG
1070
     1
1071
       24
1005
12EFC7
  0
LINE
  5
12EFC8
  8
OBJECT
 10
464.0000000001146
 20
-1515.0000000008849
 30
0.0
 11
568.0000000001146
 21
-1515.0000000008849
 31
0.0
1001
ACDBBLOCKREPETAG
1070
     1
1071
       25
1005
12EFC8
  0
LINE
  5
12EFC9
  8
OBJECT
 10
568.0000000001146
 20
-1515.0000000008849
 30
0.0
 11
568.0000000001146
 21
-1479.000000000884
 31
0.0
1001
ACDBBLOCKREPETAG
1070
     1
1071
       26
1005
12EFC9
  0
LINE
  5
12EFCA
  8
OBJECT
 10
468.5000000001146
 20
-1519.000000000884
 30
0.0
 11
468.5000000001146
 21
-1526.0000000008849
 31
0.0
1001
ACDBBLOCKREPETAG
1070
     1
1071
       27
1005
12EFCA
  0
LINE
  5
12EFCB
  8
OBJECT
 10
563.5000000001146
 20
-1526.0000000008849
 30
0.0
 11
563.5000000001146
 21
-1519.000000000884
 31
0.0
1001
ACDBBLOCKREPETAG
1070
     1
1071
       28
1005
12EFCB
  0
LINE
  5
12EFCC
  8
OBJECT
 10
563.5000000001146
 20
-1519.000000000884
 30
0.0
 11
468.5000000001146
 21
-1519.000000000884
 31
0.0
1001
ACDBBLOCKREPETAG
1070
     1
1071
       29
1005
12EFCC
  0
LINE
  5
12EFCD
  8
OBJECT
 10
464.0000000001146
 20
-1515.0000000008849
 30
0.0
 11
468.5000000001146
 21
-1519.000000000884
 31
0.0
1001
ACDBBLOCKREPETAG
1070
     1
1071
       30
1005
12EFCD
  0
LINE
  5
12EFCE
  8
OBJECT
 10
568.0000000001146
 20
-1515.0000000008849
 30
0.0
 11
563.5000000001146
 21
-1519.000000000884
 31
0.0
1001
ACDBBLOCKREPETAG
1070
     1
1071
       31
1005
12EFCE
  0
LINE
  5
12EFCF
  8
OBJECT
 10
454.00000000011448
 20
-1529.000000000884
 30
0.0
 11
454.00000000011448
 21
-1532.000000000884
 31
0.0
1001
ACDBBLOCKREPETAG
1070
     1
1071
       32
1005
12EFCF
  0
ARC
  5
12EFD0
  8
OBJECT
 10
457.0000000001146
 20
-1529.000000000884
 30
0.0
 40
3.0
 50
90.0
 51
180.0
1001
ACDBBLOCKREPETAG
1070
     1
1071
       33
1005
12EFD0
  0
LINE
  5
12EFD1
  8
OBJECT
 10
578.00000000011448
 20
-1532.000000000884
 30
0.0
 11
578.00000000011448
 21
-1529.0000000008861
 31
0.0
1001
ACDBBLOCKREPETAG
1070
     1
1071
       34
1005
12EFD1
  0
ARC
  5
12EFD2
  8
OBJECT
 10
575.00000000011437
 20
-1529.0000000008861
 30
0.0
 40
3.0
 50
0.0
 51
90.0
1001
ACDBBLOCKREPETAG
1070
     1
1071
       35
1005
12EFD2
  0
LINE
  5
12EFD3
  8
OBJECT
 10
575.00000000011437
 20
-1526.0000000008861
 30
0.0
 11
457.0000000001146
 21
-1526.000000000884
 31
0.0
1001
ACDBBLOCKREPETAG
1070
     1
1071
       36
1005
12EFD3
  0
LINE
  5
12EFD4
  8
HIDDEN
 10
478.00000000011448
 20
-1524.0000000008849
 30
0.0
 11
554.00000000011437
 21
-1524.0000000008849
 31
0.0
1001
ACDBBLOCKREPETAG
1070
     1
1071
      423
1005
12EFD4
  0
LINE
  5
12EFD5
  8
OBJECT
 10
454.00000000011448
 20
-1231.0000000008779
 30
0.0
 11
454.00000000011448
 21
-1228.0000000008779
 31
0.0
1001
ACDBBLOCKREPETAG
1070
     1
1071
      418
1005
12EFD5
  0
ARC
  5
12EFD6
  8
OBJECT
 10
457.0000000001146
 20
-1231.0000000008779
 30
0.0
 40
3.0
 50
180.0
 51
270.0
1001
ACDBBLOCKREPETAG
1070
     1
1071
      419
1005
12EFD6
  0
LINE
  5
12EFD7
  8
OBJECT
 10
578.00000000011448
 20
-1228.0000000008779
 30
0.0
 11
578.00000000011448
 21
-1231.0000000008779
 31
0.0
1001
ACDBBLOCKREPETAG
1070
     1
1071
      420
1005
12EFD7
  0
ARC
  5
12EFD8
  8
OBJECT
 10
575.00000000011437
 20
-1231.0000000008779
 30
0.0
 40
3.0
 50
270.0
 51
0.0
1001
ACDBBLOCKREPETAG
1070
     1
1071
      421
1005
12EFD8
  0
LINE
  5
12EFD9
  8
OBJECT
 10
575.00000000011437
 20
-1234.0000000008779
 30
0.0
 11
457.0000000001146
 21
-1234.0000000008779
 31
0.0
1001
ACDBBLOCKREPETAG
1070
     1
1071
      422
1005
12EFD9
  0
INSERT
  5
12EFDA
  8
OBJECT
  2
*U24
 10
0.0
 20
0.0
 30
0.0
  0
LINE
  5
12EFDB
  8
OBJECT
 10
649.00000000011448
 20
-1093.0000000008779
 30
0.0
 11
656.0000000001146
 21
-1093.0000000008779
 31
0.0
1001
ACDBBLOCKREPETAG
1070
     1
1071
       20
1005
12EFDB
  0
LINE
  5
12EFDC
  8
OBJECT
 10
656.0000000001146
 20
-1093.0000000008779
 30
0.0
 11
656.0000000001146
 21
-1203.0000000008779
 31
0.0
1001
ACDBBLOCKREPETAG
1070
     1
1071
       21
1005
12EFDC
  0
LINE
  5
12EFDD
  8
OBJECT
 10
656.0000000001146
 20
-1203.0000000008779
 30
0.0
 11
649.00000000011448
 21
-1203.0000000008779
 31
0.0
1001
ACDBBLOCKREPETAG
1070
     1
1071
       22
1005
12EFDD
  0
LINE
  5
12EFDE
  8
OBJECT
 10
649.00000000011448
 20
-1203.0000000008779
 30
0.0
 11
649.00000000011448
 21
-1093.0000000008779
 31
0.0
1001
ACDBBLOCKREPETAG
1070
     1
1071
       23
1005
12EFDE
  0
LINE
  5
12EFDF
  8
OBJECT
 10
649.00000000011448
 20
-1096.0000000008779
 30
0.0
 11
613.0000000001146
 21
-1096.0000000008779
 31
0.0
1001
ACDBBLOCKREPETAG
1070
     1
1071
       24
1005
12EFDF
  0
LINE
  5
12EFE0
  8
OBJECT
 10
613.0000000001146
 20
-1096.0000000008779
 30
0.0
 11
613.0000000001146
 21
-1200.0000000008779
 31
0.0
1001
ACDBBLOCKREPETAG
1070
     1
1071
       25
1005
12EFE0
  0
LINE
  5
12EFE1
  8
OBJECT
 10
613.0000000001146
 20
-1200.0000000008779
 30
0.0
 11
649.00000000011448
 21
-1200.0000000008779
 31
0.0
1001
ACDBBLOCKREPETAG
1070
     1
1071
       26
1005
12EFE1
  0
LINE
  5
12EFE2
  8
OBJECT
 10
609.0000000001146
 20
-1100.5000000008779
 30
0.0
 11
602.0000000001146
 21
-1100.5000000008779
 31
0.0
1001
ACDBBLOCKREPETAG
1070
     1
1071
       27
1005
12EFE2
  0
LINE
  5
12EFE3
  8
OBJECT
 10
602.0000000001146
 20
-1195.5000000008779
 30
0.0
 11
609.0000000001146
 21
-1195.5000000008779
 31
0.0
1001
ACDBBLOCKREPETAG
1070
     1
1071
       28
1005
12EFE3
  0
LINE
  5
12EFE4
  8
OBJECT
 10
609.0000000001146
 20
-1195.5000000008779
 30
0.0
 11
609.0000000001146
 21
-1100.5000000008779
 31
0.0
1001
ACDBBLOCKREPETAG
1070
     1
1071
       29
1005
12EFE4
  0
LINE
  5
12EFE5
  8
OBJECT
 10
613.0000000001146
 20
-1096.0000000008779
 30
0.0
 11
609.0000000001146
 21
-1100.5000000008779
 31
0.0
1001
ACDBBLOCKREPETAG
1070
     1
1071
       30
1005
12EFE5
  0
LINE
  5
12EFE6
  8
OBJECT
 10
613.0000000001146
 20
-1200.0000000008779
 30
0.0
 11
609.0000000001146
 21
-1195.5000000008779
 31
0.0
1001
ACDBBLOCKREPETAG
1070
     1
1071
       31
1005
12EFE6
  0
LINE
  5
12EFE7
  8
OBJECT
 10
599.00000000011619
 20
-1086.0000000008779
 30
0.0
 11
596.00000000011437
 21
-1086.0000000008779
 31
0.0
1001
ACDBBLOCKREPETAG
1070
     1
1071
       32
1005
12EFE7
  0
ARC
  5
12EFE8
  8
OBJECT
 10
599.00000000011619
 20
-1089.0000000008779
 30
0.0
 40
3.0
 50
0.0
 51
90.0
1001
ACDBBLOCKREPETAG
1070
     1
1071
       33
1005
12EFE8
  0
LINE
  5
12EFE9
  8
OBJECT
 10
596.00000000011437
 20
-1210.0000000008779
 30
0.0
 11
599.00000000011278
 21
-1210.0000000008779
 31
0.0
1001
ACDBBLOCKREPETAG
1070
     1
1071
       34
1005
12EFE9
  0
ARC
  5
12EFEA
  8
OBJECT
 10
599.00000000011278
 20
-1207.0000000008779
 30
0.0
 40
3.0
 50
270.0
 51
0.0
1001
ACDBBLOCKREPETAG
1070
     1
1071
       35
1005
12EFEA
  0
LINE
  5
12EFEB
  8
OBJECT
 10
602.00000000011266
 20
-1207.0000000008779
 30
0.0
 11
602.0000000001163
 21
-1089.0000000008779
 31
0.0
1001
ACDBBLOCKREPETAG
1070
     1
1071
       36
1005
12EFEB
  0
LINE
  5
12EFEC
  8
HIDDEN
 10
604.00000000011437
 20
-1110.0000000008779
 30
0.0
 11
604.00000000011437
 21
-1186.0000000008779
 31
0.0
1001
ACDBBLOCKREPETAG
1070
     1
1071
      427
1005
12EFEC
  0
INSERT
  5
12EFED
  8
OBJECT
  2
*U25
 10
0.0
 20
0.0
 30
0.0
  0
LINE
  5
12EFEE
  8
OBJECT
 10
461.0000000001146
 20
-1015.000000000878
 30
0.0
 11
461.0000000001146
 21
-1008.000000000878
 31
0.0
1001
ACDBBLOCKREPETAG
1070
     1
1071
       20
1005
12EFEE
  0
LINE
  5
12EFEF
  8
OBJECT
 10
461.0000000001146
 20
-1008.000000000878
 30
0.0
 11
571.00000000011437
 21
-1008.000000000878
 31
0.0
1001
ACDBBLOCKREPETAG
1070
     1
1071
       21
1005
12EFEF
  0
LINE
  5
12EFF0
  8
OBJECT
 10
571.00000000011437
 20
-1008.000000000878
 30
0.0
 11
571.00000000011437
 21
-1015.000000000878
 31
0.0
1001
ACDBBLOCKREPETAG
1070
     1
1071
       22
1005
12EFF0
  0
LINE
  5
12EFF1
  8
OBJECT
 10
571.00000000011437
 20
-1015.000000000878
 30
0.0
 11
461.0000000001146
 21
-1015.000000000878
 31
0.0
1001
ACDBBLOCKREPETAG
1070
     1
1071
       23
1005
12EFF1
  0
LINE
  5
12EFF2
  8
OBJECT
 10
464.0000000001146
 20
-1015.000000000878
 30
0.0
 11
464.0000000001146
 21
-1051.0000000008779
 31
0.0
1001
ACDBBLOCKREPETAG
1070
     1
1071
       24
1005
12EFF2
  0
LINE
  5
12EFF3
  8
OBJECT
 10
464.0000000001146
 20
-1051.0000000008779
 30
0.0
 11
568.0000000001146
 21
-1051.0000000008779
 31
0.0
1001
ACDBBLOCKREPETAG
1070
     1
1071
       25
1005
12EFF3
  0
LINE
  5
12EFF4
  8
OBJECT
 10
568.0000000001146
 20
-1051.0000000008779
 30
0.0
 11
568.0000000001146
 21
-1015.000000000878
 31
0.0
1001
ACDBBLOCKREPETAG
1070
     1
1071
       26
1005
12EFF4
  0
LINE
  5
12EFF5
  8
OBJECT
 10
468.5000000001146
 20
-1055.000000000879
 30
0.0
 11
468.5000000001146
 21
-1062.0000000008779
 31
0.0
1001
ACDBBLOCKREPETAG
1070
     1
1071
       27
1005
12EFF5
  0
LINE
  5
12EFF6
  8
OBJECT
 10
563.5000000001146
 20
-1062.0000000008779
 30
0.0
 11
563.5000000001146
 21
-1055.000000000879
 31
0.0
1001
ACDBBLOCKREPETAG
1070
     1
1071
       28
1005
12EFF6
  0
LINE
  5
12EFF7
  8
OBJECT
 10
563.5000000001146
 20
-1055.000000000879
 30
0.0
 11
468.5000000001146
 21
-1055.000000000879
 31
0.0
1001
ACDBBLOCKREPETAG
1070
     1
1071
       29
1005
12EFF7
  0
LINE
  5
12EFF8
  8
OBJECT
 10
464.0000000001146
 20
-1051.0000000008779
 30
0.0
 11
468.5000000001146
 21
-1055.000000000879
 31
0.0
1001
ACDBBLOCKREPETAG
1070
     1
1071
       30
1005
12EFF8
  0
LINE
  5
12EFF9
  8
OBJECT
 10
568.0000000001146
 20
-1051.0000000008779
 30
0.0
 11
563.5000000001146
 21
-1055.000000000879
 31
0.0
1001
ACDBBLOCKREPETAG
1070
     1
1071
       31
1005
12EFF9
  0
LINE
  5
12EFFA
  8
OBJECT
 10
454.00000000011448
 20
-1065.000000000877
 30
0.0
 11
454.00000000011448
 21
-1068.0000000008779
 31
0.0
1001
ACDBBLOCKREPETAG
1070
     1
1071
       32
1005
12EFFA
  0
ARC
  5
12EFFB
  8
OBJECT
 10
457.0000000001146
 20
-1065.000000000877
 30
0.0
 40
3.0
 50
90.0
 51
180.0
1001
ACDBBLOCKREPETAG
1070
     1
1071
       33
1005
12EFFB
  0
LINE
  5
12EFFC
  8
OBJECT
 10
578.00000000011448
 20
-1068.0000000008779
 30
0.0
 11
578.00000000011448
 21
-1065.000000000879
 31
0.0
1001
ACDBBLOCKREPETAG
1070
     1
1071
       34
1005
12EFFC
  0
ARC
  5
12EFFD
  8
OBJECT
 10
575.00000000011437
 20
-1065.000000000879
 30
0.0
 40
3.0
 50
0.0
 51
90.0
1001
ACDBBLOCKREPETAG
1070
     1
1071
       35
1005
12EFFD
  0
LINE
  5
12EFFE
  8
OBJECT
 10
575.00000000011437
 20
-1062.000000000879
 30
0.0
 11
457.0000000001146
 21
-1062.000000000877
 31
0.0
1001
ACDBBLOCKREPETAG
1070
     1
1071
       36
1005
12EFFE
  0
LINE
  5
12EFFF
  8
HIDDEN
 10
478.00000000011448
 20
-1060.0000000008779
 30
0.0
 11
554.00000000011437
 21
-1060.0000000008779
 31
0.0
1001
ACDBBLOCKREPETAG
1070
     1
1071
      423
1005
12EFFF
  0
LINE
  5
12F000
  8
OBJECT
 10
94.000000000034575
 20
-1231.0000000008779
 30
0.0
 11
94.000000000034575
 21
-1228.0000000008779
 31
0.0
1001
ACDBBLOCKREPETAG
1070
     1
1071
      418
1005
12F000
  0
ARC
  5
12F001
  8
OBJECT
 10
97.000000000034561
 20
-1231.0000000008779
 30
0.0
 40
3.0
 50
180.0
 51
270.0
1001
ACDBBLOCKREPETAG
1070
     1
1071
      419
1005
12F001
  0
LINE
  5
12F002
  8
OBJECT
 10
218.00000000003459
 20
-1228.0000000008779
 30
0.0
 11
218.00000000003459
 21
-1231.0000000008779
 31
0.0
1001
ACDBBLOCKREPETAG
1070
     1
1071
      420
1005
12F002
  0
ARC
  5
12F003
  8
OBJECT
 10
215.00000000003459
 20
-1231.0000000008779
 30
0.0
 40
3.0
 50
270.0
 51
0.0
1001
ACDBBLOCKREPETAG
1070
     1
1071
      421
1005
12F003
  0
LINE
  5
12F004
  8
OBJECT
 10
215.00000000003459
 20
-1234.0000000008779
 30
0.0
 11
97.000000000034561
 21
-1234.0000000008779
 31
0.0
1001
ACDBBLOCKREPETAG
1070
     1
1071
      422
1005
12F004
  0
INSERT
  5
12F005
  8
OBJECT
  2
*U26
 10
0.0
 20
0.0
 30
0.0
  0
LINE
  5
12F006
  8
OBJECT
 10
289.00000000003462
 20
-1101.0000000008779
 30
0.0
 11
296.0000000000345
 21
-1101.0000000008779
 31
0.0
1001
ACDBBLOCKREPETAG
1070
     1
1071
        1
1005
12F006
  0
LINE
  5
12F007
  8
OBJECT
 10
296.0000000000345
 20
-1101.0000000008779
 30
0.0
 11
296.0000000000345
 21
-1195.0000000008779
 31
0.0
1001
ACDBBLOCKREPETAG
1070
     1
1071
        2
1005
12F007
  0
LINE
  5
12F008
  8
OBJECT
 10
296.0000000000345
 20
-1195.0000000008779
 30
0.0
 11
289.00000000003462
 21
-1195.0000000008779
 31
0.0
1001
ACDBBLOCKREPETAG
1070
     1
1071
        3
1005
12F008
  0
LINE
  5
12F009
  8
OBJECT
 10
289.00000000003462
 20
-1195.0000000008779
 30
0.0
 11
289.00000000003462
 21
-1101.0000000008779
 31
0.0
1001
ACDBBLOCKREPETAG
1070
     1
1071
        4
1005
12F009
  0
LINE
  5
12F00A
  8
OBJECT
 10
289.00000000003462
 20
-1104.0000000008779
 30
0.0
 11
253.00000000003459
 21
-1104.0000000008779
 31
0.0
1001
ACDBBLOCKREPETAG
1070
     1
1071
        5
1005
12F00A
  0
LINE
  5
12F00B
  8
OBJECT
 10
253.00000000003459
 20
-1104.0000000008779
 30
0.0
 11
253.00000000003459
 21
-1192.0000000008779
 31
0.0
1001
ACDBBLOCKREPETAG
1070
     1
1071
        6
1005
12F00B
  0
LINE
  5
12F00C
  8
OBJECT
 10
253.00000000003459
 20
-1192.0000000008779
 30
0.0
 11
289.00000000003462
 21
-1192.0000000008779
 31
0.0
1001
ACDBBLOCKREPETAG
1070
     1
1071
        7
1005
12F00C
  0
LINE
  5
12F00D
  8
OBJECT
 10
249.00000000003459
 20
-1108.5000000008779
 30
0.0
 11
242.00000000003459
 21
-1108.5000000008779
 31
0.0
1001
ACDBBLOCKREPETAG
1070
     1
1071
        8
1005
12F00D
  0
LINE
  5
12F00E
  8
OBJECT
 10
242.00000000003459
 20
-1187.5000000008779
 30
0.0
 11
249.00000000003459
 21
-1187.5000000008779
 31
0.0
1001
ACDBBLOCKREPETAG
1070
     1
1071
        9
1005
12F00E
  0
LINE
  5
12F00F
  8
OBJECT
 10
249.00000000003459
 20
-1187.5000000008779
 30
0.0
 11
249.00000000003459
 21
-1108.5000000008779
 31
0.0
1001
ACDBBLOCKREPETAG
1070
     1
1071
       10
1005
12F00F
  0
LINE
  5
12F010
  8
OBJECT
 10
253.00000000003459
 20
-1104.0000000008779
 30
0.0
 11
249.00000000003459
 21
-1108.5000000008779
 31
0.0
1001
ACDBBLOCKREPETAG
1070
     1
1071
       11
1005
12F010
  0
LINE
  5
12F011
  8
OBJECT
 10
253.00000000003459
 20
-1192.0000000008779
 30
0.0
 11
249.00000000003459
 21
-1187.5000000008779
 31
0.0
1001
ACDBBLOCKREPETAG
1070
     1
1071
       12
1005
12F011
  0
LINE
  5
12F012
  8
OBJECT
 10
239.00000000003641
 20
-1086.0000000008779
 30
0.0
 11
236.00000000003459
 21
-1086.0000000008779
 31
0.0
1001
ACDBBLOCKREPETAG
1070
     1
1071
       13
1005
12F012
  0
ARC
  5
12F013
  8
OBJECT
 10
239.00000000003641
 20
-1089.0000000008779
 30
0.0
 40
3.0
 50
0.0
 51
90.0
1001
ACDBBLOCKREPETAG
1070
     1
1071
       14
1005
12F013
  0
LINE
  5
12F014
  8
OBJECT
 10
236.00000000003459
 20
-1210.0000000008779
 30
0.0
 11
239.00000000003271
 21
-1210.0000000008779
 31
0.0
1001
ACDBBLOCKREPETAG
1070
     1
1071
       15
1005
12F014
  0
ARC
  5
12F015
  8
OBJECT
 10
239.00000000003271
 20
-1207.0000000008779
 30
0.0
 40
3.0
 50
270.0
 51
0.0
1001
ACDBBLOCKREPETAG
1070
     1
1071
       16
1005
12F015
  0
LINE
  5
12F016
  8
OBJECT
 10
242.0000000000328
 20
-1207.0000000008779
 30
0.0
 11
242.00000000003641
 21
-1089.0000000008779
 31
0.0
1001
ACDBBLOCKREPETAG
1070
     1
1071
       17
1005
12F016
  0
LINE
  5
12F017
  8
HIDDEN
 10
244.0000000000345
 20
-1118.0000000008779
 30
0.0
 11
244.0000000000345
 21
-1178.0000000008779
 31
0.0
1001
ACDBBLOCKREPETAG
1070
     1
1071
      424
1005
12F017
  0
INSERT
  5
12F018
  8
OBJECT
  2
*U27
 10
0.0
 20
0.0
 30
0.0
  0
LINE
  5
12F019
  8
OBJECT
 10
101.0000000000345
 20
-1015.000000000878
 30
0.0
 11
101.0000000000345
 21
-1008.000000000878
 31
0.0
1001
ACDBBLOCKREPETAG
1070
     1
1071
       20
1005
12F019
  0
LINE
  5
12F01A
  8
OBJECT
 10
101.0000000000345
 20
-1008.000000000878
 30
0.0
 11
211.00000000003459
 21
-1008.000000000878
 31
0.0
1001
ACDBBLOCKREPETAG
1070
     1
1071
       21
1005
12F01A
  0
LINE
  5
12F01B
  8
OBJECT
 10
211.00000000003459
 20
-1008.000000000878
 30
0.0
 11
211.00000000003459
 21
-1015.000000000878
 31
0.0
1001
ACDBBLOCKREPETAG
1070
     1
1071
       22
1005
12F01B
  0
LINE
  5
12F01C
  8
OBJECT
 10
211.00000000003459
 20
-1015.000000000878
 30
0.0
 11
101.0000000000345
 21
-1015.000000000878
 31
0.0
1001
ACDBBLOCKREPETAG
1070
     1
1071
       23
1005
12F01C
  0
LINE
  5
12F01D
  8
OBJECT
 10
104.0000000000345
 20
-1015.000000000878
 30
0.0
 11
104.0000000000345
 21
-1051.0000000008779
 31
0.0
1001
ACDBBLOCKREPETAG
1070
     1
1071
       24
1005
12F01D
  0
LINE
  5
12F01E
  8
OBJECT
 10
104.0000000000345
 20
-1051.0000000008779
 30
0.0
 11
208.00000000003459
 21
-1051.0000000008779
 31
0.0
1001
ACDBBLOCKREPETAG
1070
     1
1071
       25
1005
12F01E
  0
LINE
  5
12F01F
  8
OBJECT
 10
208.00000000003459
 20
-1051.0000000008779
 30
0.0
 11
208.00000000003459
 21
-1015.000000000878
 31
0.0
1001
ACDBBLOCKREPETAG
1070
     1
1071
       26
1005
12F01F
  0
LINE
  5
12F020
  8
OBJECT
 10
108.5000000000345
 20
-1055.000000000879
 30
0.0
 11
108.5000000000345
 21
-1062.0000000008779
 31
0.0
1001
ACDBBLOCKREPETAG
1070
     1
1071
       27
1005
12F020
  0
LINE
  5
12F021
  8
OBJECT
 10
203.50000000003459
 20
-1062.0000000008779
 30
0.0
 11
203.50000000003459
 21
-1055.000000000879
 31
0.0
1001
ACDBBLOCKREPETAG
1070
     1
1071
       28
1005
12F021
  0
LINE
  5
12F022
  8
OBJECT
 10
203.50000000003459
 20
-1055.000000000879
 30
0.0
 11
108.5000000000345
 21
-1055.000000000879
 31
0.0
1001
ACDBBLOCKREPETAG
1070
     1
1071
       29
1005
12F022
  0
LINE
  5
12F023
  8
OBJECT
 10
104.0000000000345
 20
-1051.0000000008779
 30
0.0
 11
108.5000000000345
 21
-1055.000000000879
 31
0.0
1001
ACDBBLOCKREPETAG
1070
     1
1071
       30
1005
12F023
  0
LINE
  5
12F024
  8
OBJECT
 10
208.00000000003459
 20
-1051.0000000008779
 30
0.0
 11
203.50000000003459
 21
-1055.000000000879
 31
0.0
1001
ACDBBLOCKREPETAG
1070
     1
1071
       31
1005
12F024
  0
LINE
  5
12F025
  8
OBJECT
 10
94.000000000034575
 20
-1065.000000000877
 30
0.0
 11
94.000000000034575
 21
-1068.0000000008779
 31
0.0
1001
ACDBBLOCKREPETAG
1070
     1
1071
       32
1005
12F025
  0
ARC
  5
12F026
  8
OBJECT
 10
97.000000000034561
 20
-1065.000000000877
 30
0.0
 40
3.0
 50
90.0
 51
180.0
1001
ACDBBLOCKREPETAG
1070
     1
1071
       33
1005
12F026
  0
LINE
  5
12F027
  8
OBJECT
 10
218.00000000003459
 20
-1068.0000000008779
 30
0.0
 11
218.00000000003459
 21
-1065.000000000879
 31
0.0
1001
ACDBBLOCKREPETAG
1070
     1
1071
       34
1005
12F027
  0
ARC
  5
12F028
  8
OBJECT
 10
215.00000000003459
 20
-1065.000000000879
 30
0.0
 40
3.0
 50
0.0
 51
90.0
1001
ACDBBLOCKREPETAG
1070
     1
1071
       35
1005
12F028
  0
LINE
  5
12F029
  8
OBJECT
 10
215.00000000003459
 20
-1062.000000000879
 30
0.0
 11
97.000000000034561
 21
-1062.000000000877
 31
0.0
1001
ACDBBLOCKREPETAG
1070
     1
1071
       36
1005
12F029
  0
LINE
  5
12F02A
  8
HIDDEN
 10
118.0000000000345
 20
-1060.0000000008779
 30
0.0
 11
194.0000000000345
 21
-1060.0000000008779
 31
0.0
1001
ACDBBLOCKREPETAG
1070
     1
1071
      423
1005
12F02A
  0
LINE
  5
12F02B
  8
OBJECT
 10
94.000000000034575
 20
-767.00000000087164
 30
0.0
 11
94.000000000034575
 21
-764.00000000087164
 31
0.0
1001
ACDBBLOCKREPETAG
1070
     1
1071
      418
1005
12F02B
  0
ARC
  5
12F02C
  8
OBJECT
 10
97.000000000034561
 20
-767.00000000087164
 30
0.0
 40
3.0
 50
180.0
 51
270.0
1001
ACDBBLOCKREPETAG
1070
     1
1071
      419
1005
12F02C
  0
LINE
  5
12F02D
  8
OBJECT
 10
218.00000000003459
 20
-764.00000000087164
 30
0.0
 11
218.00000000003459
 21
-767.00000000087164
 31
0.0
1001
ACDBBLOCKREPETAG
1070
     1
1071
      420
1005
12F02D
  0
ARC
  5
12F02E
  8
OBJECT
 10
215.00000000003459
 20
-767.00000000087164
 30
0.0
 40
3.0
 50
270.0
 51
0.0
1001
ACDBBLOCKREPETAG
1070
     1
1071
      421
1005
12F02E
  0
LINE
  5
12F02F
  8
OBJECT
 10
215.00000000003459
 20
-770.00000000087164
 30
0.0
 11
97.000000000034561
 21
-770.00000000087164
 31
0.0
1001
ACDBBLOCKREPETAG
1070
     1
1071
      422
1005
12F02F
  0
INSERT
  5
12F030
  8
OBJECT
  2
*U28
 10
0.0
 20
0.0
 30
0.0
  0
LINE
  5
12F031
  8
OBJECT
 10
289.00000000003462
 20
-622.00000000087175
 30
0.0
 11
296.0000000000345
 21
-622.00000000087175
 31
0.0
1001
ACDBBLOCKREPETAG
1070
     1
1071
       39
1005
12F031
  0
LINE
  5
12F032
  8
OBJECT
 10
296.0000000000345
 20
-622.00000000087175
 30
0.0
 11
296.0000000000345
 21
-746.00000000087164
 31
0.0
1001
ACDBBLOCKREPETAG
1070
     1
1071
       40
1005
12F032
  0
LINE
  5
12F033
  8
OBJECT
 10
296.0000000000345
 20
-746.00000000087164
 30
0.0
 11
289.00000000003462
 21
-746.00000000087164
 31
0.0
1001
ACDBBLOCKREPETAG
1070
     1
1071
       41
1005
12F033
  0
LINE
  5
12F034
  8
OBJECT
 10
289.00000000003462
 20
-746.00000000087164
 30
0.0
 11
289.00000000003462
 21
-622.00000000087175
 31
0.0
1001
ACDBBLOCKREPETAG
1070
     1
1071
       42
1005
12F034
  0
LINE
  5
12F035
  8
OBJECT
 10
289.00000000003462
 20
-625.00000000087175
 30
0.0
 11
253.00000000003459
 21
-625.00000000087175
 31
0.0
1001
ACDBBLOCKREPETAG
1070
     1
1071
       43
1005
12F035
  0
LINE
  5
12F036
  8
OBJECT
 10
253.00000000003459
 20
-625.00000000087175
 30
0.0
 11
253.00000000003459
 21
-743.00000000087164
 31
0.0
1001
ACDBBLOCKREPETAG
1070
     1
1071
       44
1005
12F036
  0
LINE
  5
12F037
  8
OBJECT
 10
253.00000000003459
 20
-743.00000000087164
 30
0.0
 11
289.00000000003462
 21
-743.00000000087164
 31
0.0
1001
ACDBBLOCKREPETAG
1070
     1
1071
       45
1005
12F037
  0
LINE
  5
12F038
  8
OBJECT
 10
249.00000000003459
 20
-629.50000000087175
 30
0.0
 11
242.00000000003459
 21
-629.50000000087175
 31
0.0
1001
ACDBBLOCKREPETAG
1070
     1
1071
       46
1005
12F038
  0
LINE
  5
12F039
  8
OBJECT
 10
242.00000000003459
 20
-738.50000000087164
 30
0.0
 11
249.00000000003459
 21
-738.50000000087164
 31
0.0
1001
ACDBBLOCKREPETAG
1070
     1
1071
       47
1005
12F039
  0
LINE
  5
12F03A
  8
OBJECT
 10
249.00000000003459
 20
-738.50000000087164
 30
0.0
 11
249.00000000003459
 21
-629.50000000087175
 31
0.0
1001
ACDBBLOCKREPETAG
1070
     1
1071
       48
1005
12F03A
  0
LINE
  5
12F03B
  8
OBJECT
 10
253.00000000003459
 20
-625.00000000087175
 30
0.0
 11
249.00000000003459
 21
-629.50000000087175
 31
0.0
1001
ACDBBLOCKREPETAG
1070
     1
1071
       49
1005
12F03B
  0
LINE
  5
12F03C
  8
OBJECT
 10
253.00000000003459
 20
-743.00000000087164
 30
0.0
 11
249.00000000003459
 21
-738.50000000087164
 31
0.0
1001
ACDBBLOCKREPETAG
1070
     1
1071
       50
1005
12F03C
  0
LINE
  5
12F03D
  8
OBJECT
 10
239.00000000003641
 20
-622.00000000087175
 30
0.0
 11
236.00000000003459
 21
-622.00000000087175
 31
0.0
1001
ACDBBLOCKREPETAG
1070
     1
1071
       51
1005
12F03D
  0
ARC
  5
12F03E
  8
OBJECT
 10
239.00000000003641
 20
-625.00000000087175
 30
0.0
 40
3.0
 50
0.0
 51
90.0
1001
ACDBBLOCKREPETAG
1070
     1
1071
       52
1005
12F03E
  0
LINE
  5
12F03F
  8
OBJECT
 10
236.00000000003459
 20
-746.00000000087164
 30
0.0
 11
239.00000000003271
 21
-746.00000000087164
 31
0.0
1001
ACDBBLOCKREPETAG
1070
     1
1071
       53
1005
12F03F
  0
ARC
  5
12F040
  8
OBJECT
 10
239.00000000003271
 20
-743.00000000087164
 30
0.0
 40
3.0
 50
270.0
 51
0.0
1001
ACDBBLOCKREPETAG
1070
     1
1071
       54
1005
12F040
  0
LINE
  5
12F041
  8
OBJECT
 10
242.0000000000328
 20
-743.00000000087164
 30
0.0
 11
242.00000000003641
 21
-625.00000000087175
 31
0.0
1001
ACDBBLOCKREPETAG
1070
     1
1071
       55
1005
12F041
  0
LINE
  5
12F042
  8
HIDDEN
 10
244.0000000000345
 20
-639.50000000087175
 30
0.0
 11
244.0000000000345
 21
-728.50000000087164
 31
0.0
1001
ACDBBLOCKREPETAG
1070
     1
1071
      430
1005
12F042
  0
INSERT
  5
12F043
  8
OBJECT
  2
*U29
 10
0.0
 20
0.0
 30
0.0
  0
LINE
  5
12F044
  8
OBJECT
 10
109.0000000000345
 20
-551.00000000087175
 30
0.0
 11
109.0000000000345
 21
-544.00000000087175
 31
0.0
1001
ACDBBLOCKREPETAG
1070
     1
1071
        1
1005
12F044
  0
LINE
  5
12F045
  8
OBJECT
 10
109.0000000000345
 20
-544.00000000087175
 30
0.0
 11
203.00000000003459
 21
-544.00000000087175
 31
0.0
1001
ACDBBLOCKREPETAG
1070
     1
1071
        2
1005
12F045
  0
LINE
  5
12F046
  8
OBJECT
 10
203.00000000003459
 20
-544.00000000087175
 30
0.0
 11
203.00000000003459
 21
-551.00000000087175
 31
0.0
1001
ACDBBLOCKREPETAG
1070
     1
1071
        3
1005
12F046
  0
LINE
  5
12F047
  8
OBJECT
 10
203.00000000003459
 20
-551.00000000087175
 30
0.0
 11
109.0000000000345
 21
-551.00000000087175
 31
0.0
1001
ACDBBLOCKREPETAG
1070
     1
1071
        4
1005
12F047
  0
LINE
  5
12F048
  8
OBJECT
 10
112.0000000000345
 20
-551.00000000087175
 30
0.0
 11
112.0000000000345
 21
-587.00000000087175
 31
0.0
1001
ACDBBLOCKREPETAG
1070
     1
1071
        5
1005
12F048
  0
LINE
  5
12F049
  8
OBJECT
 10
112.0000000000345
 20
-587.00000000087175
 30
0.0
 11
200.0000000000345
 21
-587.00000000087175
 31
0.0
1001
ACDBBLOCKREPETAG
1070
     1
1071
        6
1005
12F049
  0
LINE
  5
12F04A
  8
OBJECT
 10
200.0000000000345
 20
-587.00000000087175
 30
0.0
 11
200.0000000000345
 21
-551.00000000087175
 31
0.0
1001
ACDBBLOCKREPETAG
1070
     1
1071
        7
1005
12F04A
  0
LINE
  5
12F04B
  8
OBJECT
 10
116.5000000000345
 20
-591.00000000087175
 30
0.0
 11
116.5000000000345
 21
-598.00000000087175
 31
0.0
1001
ACDBBLOCKREPETAG
1070
     1
1071
        8
1005
12F04B
  0
LINE
  5
12F04C
  8
OBJECT
 10
195.5000000000345
 20
-598.00000000087175
 30
0.0
 11
195.5000000000345
 21
-591.00000000087175
 31
0.0
1001
ACDBBLOCKREPETAG
1070
     1
1071
        9
1005
12F04C
  0
LINE
  5
12F04D
  8
OBJECT
 10
195.5000000000345
 20
-591.00000000087175
 30
0.0
 11
116.5000000000345
 21
-591.00000000087175
 31
0.0
1001
ACDBBLOCKREPETAG
1070
     1
1071
       10
1005
12F04D
  0
LINE
  5
12F04E
  8
OBJECT
 10
112.0000000000345
 20
-587.00000000087175
 30
0.0
 11
116.5000000000345
 21
-591.00000000087175
 31
0.0
1001
ACDBBLOCKREPETAG
1070
     1
1071
       11
1005
12F04E
  0
LINE
  5
12F04F
  8
OBJECT
 10
200.0000000000345
 20
-587.00000000087175
 30
0.0
 11
195.5000000000345
 21
-591.00000000087175
 31
0.0
1001
ACDBBLOCKREPETAG
1070
     1
1071
       12
1005
12F04F
  0
LINE
  5
12F050
  8
OBJECT
 10
94.000000000034575
 20
-601.00000000087084
 30
0.0
 11
94.000000000034575
 21
-604.00000000087175
 31
0.0
1001
ACDBBLOCKREPETAG
1070
     1
1071
       13
1005
12F050
  0
ARC
  5
12F051
  8
OBJECT
 10
97.000000000034561
 20
-601.00000000087084
 30
0.0
 40
3.0
 50
90.0
 51
180.0
1001
ACDBBLOCKREPETAG
1070
     1
1071
       14
1005
12F051
  0
LINE
  5
12F052
  8
OBJECT
 10
218.00000000003459
 20
-604.00000000087175
 30
0.0
 11
218.00000000003459
 21
-601.00000000087266
 31
0.0
1001
ACDBBLOCKREPETAG
1070
     1
1071
       15
1005
12F052
  0
ARC
  5
12F053
  8
OBJECT
 10
215.00000000003459
 20
-601.00000000087266
 30
0.0
 40
3.0
 50
0.0
 51
90.0
1001
ACDBBLOCKREPETAG
1070
     1
1071
       16
1005
12F053
  0
LINE
  5
12F054
  8
OBJECT
 10
215.00000000003459
 20
-598.00000000087255
 30
0.0
 11
97.000000000034561
 21
-598.00000000087084
 31
0.0
1001
ACDBBLOCKREPETAG
1070
     1
1071
       17
1005
12F054
  0
LINE
  5
12F055
  8
HIDDEN
 10
126.0000000000345
 20
-596.00000000087175
 30
0.0
 11
186.00000000003439
 21
-596.00000000087175
 31
0.0
1001
ACDBBLOCKREPETAG
1070
     1
1071
      420
1005
12F055
  0
LINE
  5
12F056
  8
OBJECT
 10
454.00000000011448
 20
-767.00000000087164
 30
0.0
 11
454.00000000011448
 21
-764.00000000087164
 31
0.0
1001
ACDBBLOCKREPETAG
1070
     1
1071
      418
1005
12F056
  0
ARC
  5
12F057
  8
OBJECT
 10
457.0000000001146
 20
-767.00000000087164
 30
0.0
 40
3.0
 50
180.0
 51
270.0
1001
ACDBBLOCKREPETAG
1070
     1
1071
      419
1005
12F057
  0
LINE
  5
12F058
  8
OBJECT
 10
578.00000000011448
 20
-764.00000000087164
 30
0.0
 11
578.00000000011448
 21
-767.00000000087164
 31
0.0
1001
ACDBBLOCKREPETAG
1070
     1
1071
      420
1005
12F058
  0
ARC
  5
12F059
  8
OBJECT
 10
575.00000000011437
 20
-767.00000000087164
 30
0.0
 40
3.0
 50
270.0
 51
0.0
1001
ACDBBLOCKREPETAG
1070
     1
1071
      421
1005
12F059
  0
LINE
  5
12F05A
  8
OBJECT
 10
575.00000000011437
 20
-770.00000000087164
 30
0.0
 11
457.0000000001146
 21
-770.00000000087164
 31
0.0
1001
ACDBBLOCKREPETAG
1070
     1
1071
      422
1005
12F05A
  0
LINE
  5
12F05B
  8
OBJECT
 10
666.00000000011448
 20
-609.00000000087175
 30
0.0
 11
659.0000000001146
 21
-609.00000000087175
 31
0.0
1001
ACDBBLOCKREPETAG
1070
     1
1071
       57
1005
12F05B
  0
LINE
  5
12F05C
  8
OBJECT
 10
659.0000000001146
 20
-609.00000000087175
 30
0.0
 11
659.0000000001146
 21
-759.00000000087164
 31
0.0
1001
ACDBBLOCKREPETAG
1070
     1
1071
       58
1005
12F05C
  0
LINE
  5
12F05D
  8
OBJECT
 10
617.5000000001146
 20
-612.00000000087175
 30
0.0
 11
617.5000000001146
 21
-756.00000000087164
 31
0.0
1001
ACDBBLOCKREPETAG
1070
     1
1071
       59
1005
12F05D
  0
LINE
  5
12F05E
  8
OBJECT
 10
606.0000000001146
 20
-618.50000000087175
 30
0.0
 11
606.0000000001146
 21
-749.50000000087164
 31
0.0
1001
ACDBBLOCKREPETAG
1070
     1
1071
       60
1005
12F05E
  0
LINE
  5
12F05F
  8
OBJECT
 10
659.0000000001146
 20
-759.00000000087164
 30
0.0
 11
666.00000000011448
 21
-759.00000000087164
 31
0.0
1001
ACDBBLOCKREPETAG
1070
     1
1071
       61
1005
12F05F
  0
LINE
  5
12F060
  8
OBJECT
 10
666.00000000011448
 20
-759.00000000087164
 30
0.0
 11
666.00000000011448
 21
-609.00000000087175
 31
0.0
1001
ACDBBLOCKREPETAG
1070
     1
1071
       62
1005
12F060
  0
LINE
  5
12F061
  8
OBJECT
 10
602.0000000001146
 20
-746.00000000087164
 30
0.0
 11
596.00000000011437
 21
-746.00000000087164
 31
0.0
1001
ACDBBLOCKREPETAG
1070
     1
1071
       63
1005
12F061
  0
LINE
  5
12F062
  8
OBJECT
 10
659.0000000001146
 20
-756.00000000087164
 30
0.0
 11
617.5000000001146
 21
-756.00000000087164
 31
0.0
1001
ACDBBLOCKREPETAG
1070
     1
1071
       64
1005
12F062
  0
LINE
  5
12F063
  8
OBJECT
 10
617.5000000001146
 20
-756.00000000087164
 30
0.0
 11
606.0000000001146
 21
-749.50000000087164
 31
0.0
1001
ACDBBLOCKREPETAG
1070
     1
1071
       65
1005
12F063
  0
LINE
  5
12F064
  8
OBJECT
 10
606.0000000001146
 20
-749.50000000087164
 30
0.0
 11
602.0000000001146
 21
-746.00000000087164
 31
0.0
1001
ACDBBLOCKREPETAG
1070
     1
1071
       66
1005
12F064
  0
LINE
  5
12F065
  8
OBJECT
 10
617.5000000001146
 20
-612.00000000087175
 30
0.0
 11
606.0000000001146
 21
-618.50000000087175
 31
0.0
1001
ACDBBLOCKREPETAG
1070
     1
1071
       67
1005
12F065
  0
LINE
  5
12F066
  8
OBJECT
 10
606.0000000001146
 20
-618.50000000087175
 30
0.0
 11
602.0000000001146
 21
-622.00000000087175
 31
0.0
1001
ACDBBLOCKREPETAG
1070
     1
1071
       68
1005
12F066
  0
ARC
  5
12F067
  8
OBJECT
 10
983.90000000011605
 20
-684.00000000087175
 30
0.0
 40
386.89999999999998
 50
170.7787013626384
 51
189.22129863736151
1001
ACDBBLOCKREPETAG
1070
     1
1071
       69
1005
12F067
  0
LINE
  5
12F068
  8
OBJECT
 10
602.0000000001146
 20
-622.00000000087175
 30
0.0
 11
596.00000000011437
 21
-622.00000000087175
 31
0.0
1001
ACDBBLOCKREPETAG
1070
     1
1071
       70
1005
12F068
  0
LINE
  5
12F069
  8
OBJECT
 10
659.0000000001146
 20
-612.00000000087175
 30
0.0
 11
617.5000000001146
 21
-612.00000000087175
 31
0.0
1001
ACDBBLOCKREPETAG
1070
     1
1071
       71
1005
12F069
  0
INSERT
  5
12F06A
  8
OBJECT
  2
*U30
 10
0.0
 20
0.0
 30
0.0
  0
LINE
  5
12F06B
  8
HIDDEN
 10
614.0000000001146
 20
-741.00000000087164
 30
0.0
 11
614.0000000001146
 21
-627.00000000087175
 31
0.0
1001
ACDBBLOCKREPETAG
1070
     1
1071
      437
1005
12F06B
  0
INSERT
  5
12F06C
  8
OBJECT
  2
*U31
 10
0.0
 20
0.0
 30
0.0
  0
LINE
  5
12F06D
  8
OBJECT
 10
469.0000000001146
 20
-551.00000000087175
 30
0.0
 11
469.0000000001146
 21
-544.00000000087175
 31
0.0
1001
ACDBBLOCKREPETAG
1070
     1
1071
        1
1005
12F06D
  0
LINE
  5
12F06E
  8
OBJECT
 10
469.0000000001146
 20
-544.00000000087175
 30
0.0
 11
563.00000000011437
 21
-544.00000000087175
 31
0.0
1001
ACDBBLOCKREPETAG
1070
     1
1071
        2
1005
12F06E
  0
LINE
  5
12F06F
  8
OBJECT
 10
563.00000000011437
 20
-544.00000000087175
 30
0.0
 11
563.00000000011437
 21
-551.00000000087175
 31
0.0
1001
ACDBBLOCKREPETAG
1070
     1
1071
        3
1005
12F06F
  0
LINE
  5
12F070
  8
OBJECT
 10
563.00000000011437
 20
-551.00000000087175
 30
0.0
 11
469.0000000001146
 21
-551.00000000087175
 31
0.0
1001
ACDBBLOCKREPETAG
1070
     1
1071
        4
1005
12F070
  0
LINE
  5
12F071
  8
OBJECT
 10
472.0000000001146
 20
-551.00000000087175
 30
0.0
 11
472.0000000001146
 21
-587.00000000087175
 31
0.0
1001
ACDBBLOCKREPETAG
1070
     1
1071
        5
1005
12F071
  0
LINE
  5
12F072
  8
OBJECT
 10
472.0000000001146
 20
-587.00000000087175
 30
0.0
 11
560.0000000001146
 21
-587.00000000087175
 31
0.0
1001
ACDBBLOCKREPETAG
1070
     1
1071
        6
1005
12F072
  0
LINE
  5
12F073
  8
OBJECT
 10
560.0000000001146
 20
-587.00000000087175
 30
0.0
 11
560.0000000001146
 21
-551.00000000087175
 31
0.0
1001
ACDBBLOCKREPETAG
1070
     1
1071
        7
1005
12F073
  0
LINE
  5
12F074
  8
OBJECT
 10
476.5000000001146
 20
-591.00000000087175
 30
0.0
 11
476.5000000001146
 21
-598.00000000087175
 31
0.0
1001
ACDBBLOCKREPETAG
1070
     1
1071
        8
1005
12F074
  0
LINE
  5
12F075
  8
OBJECT
 10
555.5000000001146
 20
-598.00000000087175
 30
0.0
 11
555.5000000001146
 21
-591.00000000087175
 31
0.0
1001
ACDBBLOCKREPETAG
1070
     1
1071
        9
1005
12F075
  0
LINE
  5
12F076
  8
OBJECT
 10
555.5000000001146
 20
-591.00000000087175
 30
0.0
 11
476.5000000001146
 21
-591.00000000087175
 31
0.0
1001
ACDBBLOCKREPETAG
1070
     1
1071
       10
1005
12F076
  0
LINE
  5
12F077
  8
OBJECT
 10
472.0000000001146
 20
-587.00000000087175
 30
0.0
 11
476.5000000001146
 21
-591.00000000087175
 31
0.0
1001
ACDBBLOCKREPETAG
1070
     1
1071
       11
1005
12F077
  0
LINE
  5
12F078
  8
OBJECT
 10
560.0000000001146
 20
-587.00000000087175
 30
0.0
 11
555.5000000001146
 21
-591.00000000087175
 31
0.0
1001
ACDBBLOCKREPETAG
1070
     1
1071
       12
1005
12F078
  0
LINE
  5
12F079
  8
OBJECT
 10
454.00000000011448
 20
-601.00000000087084
 30
0.0
 11
454.00000000011448
 21
-604.00000000087175
 31
0.0
1001
ACDBBLOCKREPETAG
1070
     1
1071
       13
1005
12F079
  0
ARC
  5
12F07A
  8
OBJECT
 10
457.0000000001146
 20
-601.00000000087084
 30
0.0
 40
3.0
 50
90.0
 51
180.0
1001
ACDBBLOCKREPETAG
1070
     1
1071
       14
1005
12F07A
  0
LINE
  5
12F07B
  8
OBJECT
 10
578.00000000011448
 20
-604.00000000087175
 30
0.0
 11
578.00000000011448
 21
-601.00000000087266
 31
0.0
1001
ACDBBLOCKREPETAG
1070
     1
1071
       15
1005
12F07B
  0
ARC
  5
12F07C
  8
OBJECT
 10
575.00000000011437
 20
-601.00000000087266
 30
0.0
 40
3.0
 50
0.0
 51
90.0
1001
ACDBBLOCKREPETAG
1070
     1
1071
       16
1005
12F07C
  0
LINE
  5
12F07D
  8
OBJECT
 10
575.00000000011437
 20
-598.00000000087255
 30
0.0
 11
457.0000000001146
 21
-598.00000000087084
 31
0.0
1001
ACDBBLOCKREPETAG
1070
     1
1071
       17
1005
12F07D
  0
LINE
  5
12F07E
  8
HIDDEN
 10
486.0000000001146
 20
-596.00000000087175
 30
0.0
 11
546.00000000011437
 21
-596.00000000087175
 31
0.0
1001
ACDBBLOCKREPETAG
1070
     1
1071
      420
1005
12F07E
  0
LINE
  5
12F07F
  8
OBJECT
 10
454.00000000011448
 20
-303.00000000086533
 30
0.0
 11
454.00000000011448
 21
-300.00000000086533
 31
0.0
1001
ACDBBLOCKREPETAG
1070
     1
1071
      418
1005
12F07F
  0
ARC
  5
12F080
  8
OBJECT
 10
457.0000000001146
 20
-303.00000000086533
 30
0.0
 40
3.0
 50
180.0
 51
270.0
1001
ACDBBLOCKREPETAG
1070
     1
1071
      419
1005
12F080
  0
LINE
  5
12F081
  8
OBJECT
 10
578.00000000011448
 20
-300.00000000086533
 30
0.0
 11
578.00000000011448
 21
-303.00000000086533
 31
0.0
1001
ACDBBLOCKREPETAG
1070
     1
1071
      420
1005
12F081
  0
ARC
  5
12F082
  8
OBJECT
 10
575.00000000011437
 20
-303.00000000086533
 30
0.0
 40
3.0
 50
270.0
 51
0.0
1001
ACDBBLOCKREPETAG
1070
     1
1071
      421
1005
12F082
  0
LINE
  5
12F083
  8
OBJECT
 10
575.00000000011437
 20
-306.00000000086533
 30
0.0
 11
457.0000000001146
 21
-306.00000000086533
 31
0.0
1001
ACDBBLOCKREPETAG
1070
     1
1071
      422
1005
12F083
  0
INSERT
  5
12F084
  8
OBJECT
  2
*U32
 10
0.0
 20
0.0
 30
0.0
  0
LINE
  5
12F085
  8
OBJECT
 10
649.00000000011448
 20
-165.0000000008653
 30
0.0
 11
656.0000000001146
 21
-165.0000000008653
 31
0.0
1001
ACDBBLOCKREPETAG
1070
     1
1071
       20
1005
12F085
  0
LINE
  5
12F086
  8
OBJECT
 10
656.0000000001146
 20
-165.0000000008653
 30
0.0
 11
656.0000000001146
 21
-275.00000000086533
 31
0.0
1001
ACDBBLOCKREPETAG
1070
     1
1071
       21
1005
12F086
  0
LINE
  5
12F087
  8
OBJECT
 10
656.0000000001146
 20
-275.00000000086533
 30
0.0
 11
649.00000000011448
 21
-275.00000000086533
 31
0.0
1001
ACDBBLOCKREPETAG
1070
     1
1071
       22
1005
12F087
  0
LINE
  5
12F088
  8
OBJECT
 10
649.00000000011448
 20
-275.00000000086533
 30
0.0
 11
649.00000000011448
 21
-165.0000000008653
 31
0.0
1001
ACDBBLOCKREPETAG
1070
     1
1071
       23
1005
12F088
  0
LINE
  5
12F089
  8
OBJECT
 10
649.00000000011448
 20
-168.0000000008653
 30
0.0
 11
613.0000000001146
 21
-168.0000000008653
 31
0.0
1001
ACDBBLOCKREPETAG
1070
     1
1071
       24
1005
12F089
  0
LINE
  5
12F08A
  8
OBJECT
 10
613.0000000001146
 20
-168.0000000008653
 30
0.0
 11
613.0000000001146
 21
-272.00000000086533
 31
0.0
1001
ACDBBLOCKREPETAG
1070
     1
1071
       25
1005
12F08A
  0
LINE
  5
12F08B
  8
OBJECT
 10
613.0000000001146
 20
-272.00000000086533
 30
0.0
 11
649.00000000011448
 21
-272.00000000086533
 31
0.0
1001
ACDBBLOCKREPETAG
1070
     1
1071
       26
1005
12F08B
  0
LINE
  5
12F08C
  8
OBJECT
 10
609.0000000001146
 20
-172.5000000008653
 30
0.0
 11
602.0000000001146
 21
-172.5000000008653
 31
0.0
1001
ACDBBLOCKREPETAG
1070
     1
1071
       27
1005
12F08C
  0
LINE
  5
12F08D
  8
OBJECT
 10
602.0000000001146
 20
-267.50000000086533
 30
0.0
 11
609.0000000001146
 21
-267.50000000086533
 31
0.0
1001
ACDBBLOCKREPETAG
1070
     1
1071
       28
1005
12F08D
  0
LINE
  5
12F08E
  8
OBJECT
 10
609.0000000001146
 20
-267.50000000086533
 30
0.0
 11
609.0000000001146
 21
-172.5000000008653
 31
0.0
1001
ACDBBLOCKREPETAG
1070
     1
1071
       29
1005
12F08E
  0
LINE
  5
12F08F
  8
OBJECT
 10
613.0000000001146
 20
-168.0000000008653
 30
0.0
 11
609.0000000001146
 21
-172.5000000008653
 31
0.0
1001
ACDBBLOCKREPETAG
1070
     1
1071
       30
1005
12F08F
  0
LINE
  5
12F090
  8
OBJECT
 10
613.0000000001146
 20
-272.00000000086533
 30
0.0
 11
609.0000000001146
 21
-267.50000000086533
 31
0.0
1001
ACDBBLOCKREPETAG
1070
     1
1071
       31
1005
12F090
  0
LINE
  5
12F091
  8
OBJECT
 10
599.00000000011619
 20
-158.0000000008653
 30
0.0
 11
596.00000000011437
 21
-158.0000000008653
 31
0.0
1001
ACDBBLOCKREPETAG
1070
     1
1071
       32
1005
12F091
  0
ARC
  5
12F092
  8
OBJECT
 10
599.00000000011619
 20
-161.0000000008653
 30
0.0
 40
3.0
 50
0.0
 51
90.0
1001
ACDBBLOCKREPETAG
1070
     1
1071
       33
1005
12F092
  0
LINE
  5
12F093
  8
OBJECT
 10
596.00000000011437
 20
-282.00000000086533
 30
0.0
 11
599.00000000011278
 21
-282.00000000086533
 31
0.0
1001
ACDBBLOCKREPETAG
1070
     1
1071
       34
1005
12F093
  0
ARC
  5
12F094
  8
OBJECT
 10
599.00000000011278
 20
-279.00000000086533
 30
0.0
 40
3.0
 50
270.0
 51
0.0
1001
ACDBBLOCKREPETAG
1070
     1
1071
       35
1005
12F094
  0
LINE
  5
12F095
  8
OBJECT
 10
602.00000000011266
 20
-279.00000000086533
 30
0.0
 11
602.0000000001163
 21
-161.0000000008653
 31
0.0
1001
ACDBBLOCKREPETAG
1070
     1
1071
       36
1005
12F095
  0
LINE
  5
12F096
  8
HIDDEN
 10
604.00000000011437
 20
-182.0000000008653
 30
0.0
 11
604.00000000011437
 21
-258.00000000086533
 31
0.0
1001
ACDBBLOCKREPETAG
1070
     1
1071
      427
1005
12F096
  0
INSERT
  5
12F097
  8
OBJECT
  2
*U33
 10
0.0
 20
0.0
 30
0.0
  0
LINE
  5
12F098
  8
OBJECT
 10
469.0000000001146
 20
-87.000000000865299
 30
0.0
 11
469.0000000001146
 21
-80.000000000865313
 31
0.0
1001
ACDBBLOCKREPETAG
1070
     1
1071
        1
1005
12F098
  0
LINE
  5
12F099
  8
OBJECT
 10
469.0000000001146
 20
-80.000000000865313
 30
0.0
 11
563.00000000011437
 21
-80.000000000865313
 31
0.0
1001
ACDBBLOCKREPETAG
1070
     1
1071
        2
1005
12F099
  0
LINE
  5
12F09A
  8
OBJECT
 10
563.00000000011437
 20
-80.000000000865313
 30
0.0
 11
563.00000000011437
 21
-87.000000000865299
 31
0.0
1001
ACDBBLOCKREPETAG
1070
     1
1071
        3
1005
12F09A
  0
LINE
  5
12F09B
  8
OBJECT
 10
563.00000000011437
 20
-87.000000000865299
 30
0.0
 11
469.0000000001146
 21
-87.000000000865299
 31
0.0
1001
ACDBBLOCKREPETAG
1070
     1
1071
        4
1005
12F09B
  0
LINE
  5
12F09C
  8
OBJECT
 10
472.0000000001146
 20
-87.000000000865299
 30
0.0
 11
472.0000000001146
 21
-123.0000000008653
 31
0.0
1001
ACDBBLOCKREPETAG
1070
     1
1071
        5
1005
12F09C
  0
LINE
  5
12F09D
  8
OBJECT
 10
472.0000000001146
 20
-123.0000000008653
 30
0.0
 11
560.0000000001146
 21
-123.0000000008653
 31
0.0
1001
ACDBBLOCKREPETAG
1070
     1
1071
        6
1005
12F09D
  0
LINE
  5
12F09E
  8
OBJECT
 10
560.0000000001146
 20
-123.0000000008653
 30
0.0
 11
560.0000000001146
 21
-87.000000000865299
 31
0.0
1001
ACDBBLOCKREPETAG
1070
     1
1071
        7
1005
12F09E
  0
LINE
  5
12F09F
  8
OBJECT
 10
476.5000000001146
 20
-127.0000000008653
 30
0.0
 11
476.5000000001146
 21
-134.0000000008653
 31
0.0
1001
ACDBBLOCKREPETAG
1070
     1
1071
        8
1005
12F09F
  0
LINE
  5
12F0A0
  8
OBJECT
 10
555.5000000001146
 20
-134.0000000008653
 30
0.0
 11
555.5000000001146
 21
-127.0000000008653
 31
0.0
1001
ACDBBLOCKREPETAG
1070
     1
1071
        9
1005
12F0A0
  0
LINE
  5
12F0A1
  8
OBJECT
 10
555.5000000001146
 20
-127.0000000008653
 30
0.0
 11
476.5000000001146
 21
-127.0000000008653
 31
0.0
1001
ACDBBLOCKREPETAG
1070
     1
1071
       10
1005
12F0A1
  0
LINE
  5
12F0A2
  8
OBJECT
 10
472.0000000001146
 20
-123.0000000008653
 30
0.0
 11
476.5000000001146
 21
-127.0000000008653
 31
0.0
1001
ACDBBLOCKREPETAG
1070
     1
1071
       11
1005
12F0A2
  0
LINE
  5
12F0A3
  8
OBJECT
 10
560.0000000001146
 20
-123.0000000008653
 30
0.0
 11
555.5000000001146
 21
-127.0000000008653
 31
0.0
1001
ACDBBLOCKREPETAG
1070
     1
1071
       12
1005
12F0A3
  0
LINE
  5
12F0A4
  8
OBJECT
 10
454.00000000011448
 20
-137.00000000086439
 30
0.0
 11
454.00000000011448
 21
-140.0000000008653
 31
0.0
1001
ACDBBLOCKREPETAG
1070
     1
1071
       13
1005
12F0A4
  0
ARC
  5
12F0A5
  8
OBJECT
 10
457.0000000001146
 20
-137.00000000086439
 30
0.0
 40
3.0
 50
90.0
 51
180.0
1001
ACDBBLOCKREPETAG
1070
     1
1071
       14
1005
12F0A5
  0
LINE
  5
12F0A6
  8
OBJECT
 10
578.00000000011448
 20
-140.0000000008653
 30
0.0
 11
578.00000000011448
 21
-137.00000000086621
 31
0.0
1001
ACDBBLOCKREPETAG
1070
     1
1071
       15
1005
12F0A6
  0
ARC
  5
12F0A7
  8
OBJECT
 10
575.00000000011437
 20
-137.00000000086621
 30
0.0
 40
3.0
 50
0.0
 51
90.0
1001
ACDBBLOCKREPETAG
1070
     1
1071
       16
1005
12F0A7
  0
LINE
  5
12F0A8
  8
OBJECT
 10
575.00000000011437
 20
-134.00000000086621
 30
0.0
 11
457.0000000001146
 21
-134.00000000086439
 31
0.0
1001
ACDBBLOCKREPETAG
1070
     1
1071
       17
1005
12F0A8
  0
LINE
  5
12F0A9
  8
HIDDEN
 10
486.0000000001146
 20
-132.0000000008653
 30
0.0
 11
546.00000000011437
 21
-132.0000000008653
 31
0.0
1001
ACDBBLOCKREPETAG
1070
     1
1071
      420
1005
12F0A9
  0
LINE
  5
12F0AA
  8
OBJECT
 10
94.000000000034575
 20
-303.00000000086533
 30
0.0
 11
94.000000000034575
 21
-300.00000000086533
 31
0.0
1001
ACDBBLOCKREPETAG
1070
     1
1071
      418
1005
12F0AA
  0
ARC
  5
12F0AB
  8
OBJECT
 10
97.000000000034561
 20
-303.00000000086533
 30
0.0
 40
3.0
 50
180.0
 51
270.0
1001
ACDBBLOCKREPETAG
1070
     1
1071
      419
1005
12F0AB
  0
LINE
  5
12F0AC
  8
OBJECT
 10
218.00000000003459
 20
-300.00000000086533
 30
0.0
 11
218.00000000003459
 21
-303.00000000086533
 31
0.0
1001
ACDBBLOCKREPETAG
1070
     1
1071
      420
1005
12F0AC
  0
ARC
  5
12F0AD
  8
OBJECT
 10
215.00000000003459
 20
-303.00000000086533
 30
0.0
 40
3.0
 50
270.0
 51
0.0
1001
ACDBBLOCKREPETAG
1070
     1
1071
      421
1005
12F0AD
  0
LINE
  5
12F0AE
  8
OBJECT
 10
215.00000000003459
 20
-306.00000000086533
 30
0.0
 11
97.000000000034561
 21
-306.00000000086533
 31
0.0
1001
ACDBBLOCKREPETAG
1070
     1
1071
      422
1005
12F0AE
  0
INSERT
  5
12F0AF
  8
OBJECT
  2
*U34
 10
0.0
 20
0.0
 30
0.0
  0
LINE
  5
12F0B0
  8
OBJECT
 10
289.00000000003462
 20
-173.0000000008653
 30
0.0
 11
296.0000000000345
 21
-173.0000000008653
 31
0.0
1001
ACDBBLOCKREPETAG
1070
     1
1071
        1
1005
12F0B0
  0
LINE
  5
12F0B1
  8
OBJECT
 10
296.0000000000345
 20
-173.0000000008653
 30
0.0
 11
296.0000000000345
 21
-267.00000000086533
 31
0.0
1001
ACDBBLOCKREPETAG
1070
     1
1071
        2
1005
12F0B1
  0
LINE
  5
12F0B2
  8
OBJECT
 10
296.0000000000345
 20
-267.00000000086533
 30
0.0
 11
289.00000000003462
 21
-267.00000000086533
 31
0.0
1001
ACDBBLOCKREPETAG
1070
     1
1071
        3
1005
12F0B2
  0
LINE
  5
12F0B3
  8
OBJECT
 10
289.00000000003462
 20
-267.00000000086533
 30
0.0
 11
289.00000000003462
 21
-173.0000000008653
 31
0.0
1001
ACDBBLOCKREPETAG
1070
     1
1071
        4
1005
12F0B3
  0
LINE
  5
12F0B4
  8
OBJECT
 10
289.00000000003462
 20
-176.0000000008653
 30
0.0
 11
253.00000000003459
 21
-176.0000000008653
 31
0.0
1001
ACDBBLOCKREPETAG
1070
     1
1071
        5
1005
12F0B4
  0
LINE
  5
12F0B5
  8
OBJECT
 10
253.00000000003459
 20
-176.0000000008653
 30
0.0
 11
253.00000000003459
 21
-264.00000000086533
 31
0.0
1001
ACDBBLOCKREPETAG
1070
     1
1071
        6
1005
12F0B5
  0
LINE
  5
12F0B6
  8
OBJECT
 10
253.00000000003459
 20
-264.00000000086533
 30
0.0
 11
289.00000000003462
 21
-264.00000000086533
 31
0.0
1001
ACDBBLOCKREPETAG
1070
     1
1071
        7
1005
12F0B6
  0
LINE
  5
12F0B7
  8
OBJECT
 10
249.00000000003459
 20
-180.5000000008653
 30
0.0
 11
242.00000000003459
 21
-180.5000000008653
 31
0.0
1001
ACDBBLOCKREPETAG
1070
     1
1071
        8
1005
12F0B7
  0
LINE
  5
12F0B8
  8
OBJECT
 10
242.00000000003459
 20
-259.50000000086533
 30
0.0
 11
249.00000000003459
 21
-259.50000000086533
 31
0.0
1001
ACDBBLOCKREPETAG
1070
     1
1071
        9
1005
12F0B8
  0
LINE
  5
12F0B9
  8
OBJECT
 10
249.00000000003459
 20
-259.50000000086533
 30
0.0
 11
249.00000000003459
 21
-180.5000000008653
 31
0.0
1001
ACDBBLOCKREPETAG
1070
     1
1071
       10
1005
12F0B9
  0
LINE
  5
12F0BA
  8
OBJECT
 10
253.00000000003459
 20
-176.0000000008653
 30
0.0
 11
249.00000000003459
 21
-180.5000000008653
 31
0.0
1001
ACDBBLOCKREPETAG
1070
     1
1071
       11
1005
12F0BA
  0
LINE
  5
12F0BB
  8
OBJECT
 10
253.00000000003459
 20
-264.00000000086533
 30
0.0
 11
249.00000000003459
 21
-259.50000000086533
 31
0.0
1001
ACDBBLOCKREPETAG
1070
     1
1071
       12
1005
12F0BB
  0
LINE
  5
12F0BC
  8
OBJECT
 10
239.00000000003641
 20
-158.0000000008653
 30
0.0
 11
236.00000000003459
 21
-158.0000000008653
 31
0.0
1001
ACDBBLOCKREPETAG
1070
     1
1071
       13
1005
12F0BC
  0
ARC
  5
12F0BD
  8
OBJECT
 10
239.00000000003641
 20
-161.0000000008653
 30
0.0
 40
3.0
 50
0.0
 51
90.0
1001
ACDBBLOCKREPETAG
1070
     1
1071
       14
1005
12F0BD
  0
LINE
  5
12F0BE
  8
OBJECT
 10
236.00000000003459
 20
-282.00000000086533
 30
0.0
 11
239.00000000003271
 21
-282.00000000086533
 31
0.0
1001
ACDBBLOCKREPETAG
1070
     1
1071
       15
1005
12F0BE
  0
ARC
  5
12F0BF
  8
OBJECT
 10
239.00000000003271
 20
-279.00000000086533
 30
0.0
 40
3.0
 50
270.0
 51
0.0
1001
ACDBBLOCKREPETAG
1070
     1
1071
       16
1005
12F0BF
  0
LINE
  5
12F0C0
  8
OBJECT
 10
242.0000000000328
 20
-279.00000000086533
 30
0.0
 11
242.00000000003641
 21
-161.0000000008653
 31
0.0
1001
ACDBBLOCKREPETAG
1070
     1
1071
       17
1005
12F0C0
  0
LINE
  5
12F0C1
  8
HIDDEN
 10
244.0000000000345
 20
-190.0000000008653
 30
0.0
 11
244.0000000000345
 21
-250.0000000008653
 31
0.0
1001
ACDBBLOCKREPETAG
1070
     1
1071
      424
1005
12F0C1
  0
INSERT
  5
12F0C2
  8
OBJECT
  2
*U35
 10
0.0
 20
0.0
 30
0.0
  0
LINE
  5
12F0C3
  8
OBJECT
 10
109.0000000000345
 20
-87.000000000865299
 30
0.0
 11
109.0000000000345
 21
-80.000000000865313
 31
0.0
1001
ACDBBLOCKREPETAG
1070
     1
1071
        1
1005
12F0C3
  0
LINE
  5
12F0C4
  8
OBJECT
 10
109.0000000000345
 20
-80.000000000865313
 30
0.0
 11
203.00000000003459
 21
-80.000000000865313
 31
0.0
1001
ACDBBLOCKREPETAG
1070
     1
1071
        2
1005
12F0C4
  0
LINE
  5
12F0C5
  8
OBJECT
 10
203.00000000003459
 20
-80.000000000865313
 30
0.0
 11
203.00000000003459
 21
-87.000000000865299
 31
0.0
1001
ACDBBLOCKREPETAG
1070
     1
1071
        3
1005
12F0C5
  0
LINE
  5
12F0C6
  8
OBJECT
 10
203.00000000003459
 20
-87.000000000865299
 30
0.0
 11
109.0000000000345
 21
-87.000000000865299
 31
0.0
1001
ACDBBLOCKREPETAG
1070
     1
1071
        4
1005
12F0C6
  0
LINE
  5
12F0C7
  8
OBJECT
 10
112.0000000000345
 20
-87.000000000865299
 30
0.0
 11
112.0000000000345
 21
-123.0000000008653
 31
0.0
1001
ACDBBLOCKREPETAG
1070
     1
1071
        5
1005
12F0C7
  0
LINE
  5
12F0C8
  8
OBJECT
 10
112.0000000000345
 20
-123.0000000008653
 30
0.0
 11
200.0000000000345
 21
-123.0000000008653
 31
0.0
1001
ACDBBLOCKREPETAG
1070
     1
1071
        6
1005
12F0C8
  0
LINE
  5
12F0C9
  8
OBJECT
 10
200.0000000000345
 20
-123.0000000008653
 30
0.0
 11
200.0000000000345
 21
-87.000000000865299
 31
0.0
1001
ACDBBLOCKREPETAG
1070
     1
1071
        7
1005
12F0C9
  0
LINE
  5
12F0CA
  8
OBJECT
 10
116.5000000000345
 20
-127.0000000008653
 30
0.0
 11
116.5000000000345
 21
-134.0000000008653
 31
0.0
1001
ACDBBLOCKREPETAG
1070
     1
1071
        8
1005
12F0CA
  0
LINE
  5
12F0CB
  8
OBJECT
 10
195.5000000000345
 20
-134.0000000008653
 30
0.0
 11
195.5000000000345
 21
-127.0000000008653
 31
0.0
1001
ACDBBLOCKREPETAG
1070
     1
1071
        9
1005
12F0CB
  0
LINE
  5
12F0CC
  8
OBJECT
 10
195.5000000000345
 20
-127.0000000008653
 30
0.0
 11
116.5000000000345
 21
-127.0000000008653
 31
0.0
1001
ACDBBLOCKREPETAG
1070
     1
1071
       10
1005
12F0CC
  0
LINE
  5
12F0CD
  8
OBJECT
 10
112.0000000000345
 20
-123.0000000008653
 30
0.0
 11
116.5000000000345
 21
-127.0000000008653
 31
0.0
1001
ACDBBLOCKREPETAG
1070
     1
1071
       11
1005
12F0CD
  0
LINE
  5
12F0CE
  8
OBJECT
 10
200.0000000000345
 20
-123.0000000008653
 30
0.0
 11
195.5000000000345
 21
-127.0000000008653
 31
0.0
1001
ACDBBLOCKREPETAG
1070
     1
1071
       12
1005
12F0CE
  0
LINE
  5
12F0CF
  8
OBJECT
 10
94.000000000034575
 20
-137.00000000086439
 30
0.0
 11
94.000000000034575
 21
-140.0000000008653
 31
0.0
1001
ACDBBLOCKREPETAG
1070
     1
1071
       13
1005
12F0CF
  0
ARC
  5
12F0D0
  8
OBJECT
 10
97.000000000034561
 20
-137.00000000086439
 30
0.0
 40
3.0
 50
90.0
 51
180.0
1001
ACDBBLOCKREPETAG
1070
     1
1071
       14
1005
12F0D0
  0
LINE
  5
12F0D1
  8
OBJECT
 10
218.00000000003459
 20
-140.0000000008653
 30
0.0
 11
218.00000000003459
 21
-137.00000000086621
 31
0.0
1001
ACDBBLOCKREPETAG
1070
     1
1071
       15
1005
12F0D1
  0
ARC
  5
12F0D2
  8
OBJECT
 10
215.00000000003459
 20
-137.00000000086621
 30
0.0
 40
3.0
 50
0.0
 51
90.0
1001
ACDBBLOCKREPETAG
1070
     1
1071
       16
1005
12F0D2
  0
LINE
  5
12F0D3
  8
OBJECT
 10
215.00000000003459
 20
-134.00000000086621
 30
0.0
 11
97.000000000034561
 21
-134.00000000086439
 31
0.0
1001
ACDBBLOCKREPETAG
1070
     1
1071
       17
1005
12F0D3
  0
LINE
  5
12F0D4
  8
HIDDEN
 10
126.0000000000345
 20
-132.0000000008653
 30
0.0
 11
186.00000000003439
 21
-132.0000000008653
 31
0.0
1001
ACDBBLOCKREPETAG
1070
     1
1071
      420
1005
12F0D4
  0
POLYLINE
  5
12F0D5
  8
HIDDEN
 66
     1
 10
0.0
 20
0.0
 30
0.0
 70
     1
1001
ACDBBLOCKREPETAG
1070
     1
1071
      105
1005
0
  0
VERTEX
  5
12F632
  8
HIDDEN
 10
359.99999999987818
 20
-0.0000000000008527
 30
0.0
  0
VERTEX
  5
12F633
  8
HIDDEN
 10
719.99999999975626
 20
-0.0000000000008527
 30
0.0
  0
VERTEX
  5
12F634
  8
HIDDEN
 10
719.99999999975626
 20
-463.99999999984249
 30
0.0
  0
VERTEX
  5
12F635
  8
HIDDEN
 10
359.99999999987818
 20
-463.99999999984249
 30
0.0
  0
SEQEND
  5
12F636
  8
HIDDEN
  0
POLYLINE
  5
12F0D6
  8
HIDDEN
 66
     1
 10
0.0
 20
0.0
 30
0.0
 70
     1
1001
ACDBBLOCKREPETAG
1070
     1
1071
      110
1005
0
  0
VERTEX
  5
12F637
  8
HIDDEN
 10
0.0
 20
-0.0000000000008527
 30
0.0
  0
VERTEX
  5
12F638
  8
HIDDEN
 10
359.99999999987818
 20
-0.0000000000008527
 30
0.0
  0
VERTEX
  5
12F639
  8
HIDDEN
 10
359.99999999987818
 20
-463.99999999984249
 30
0.0
  0
VERTEX
  5
12F63A
  8
HIDDEN
 10
0.0
 20
-463.99999999984249
 30
0.0
  0
SEQEND
  5
12F63B
  8
HIDDEN
  0
POLYLINE
  5
12F0D7
  8
HIDDEN
 66
     1
 10
0.0
 20
0.0
 30
0.0
 70
     1
1001
ACDBBLOCKREPETAG
1070
     1
1071
      120
1005
0
  0
VERTEX
  5
12F63C
  8
HIDDEN
 10
359.99999999987818
 20
-463.99999999984249
 30
0.0
  0
VERTEX
  5
12F63D
  8
HIDDEN
 10
719.99999999975626
 20
-463.99999999984249
 30
0.0
  0
VERTEX
  5
12F63E
  8
HIDDEN
 10
719.99999999975626
 20
-927.99999999968441
 30
0.0
  0
VERTEX
  5
12F63F
  8
HIDDEN
 10
359.99999999987818
 20
-927.99999999968441
 30
0.0
  0
SEQEND
  5
12F640
  8
HIDDEN
  0
POLYLINE
  5
12F0D8
  8
HIDDEN
 66
     1
 10
0.0
 20
0.0
 30
0.0
 70
     1
1001
ACDBBLOCKREPETAG
1070
     1
1071
      125
1005
0
  0
VERTEX
  5
12F641
  8
HIDDEN
 10
0.0
 20
-463.99999999984249
 30
0.0
  0
VERTEX
  5
12F642
  8
HIDDEN
 10
359.99999999987818
 20
-463.99999999984249
 30
0.0
  0
VERTEX
  5
12F643
  8
HIDDEN
 10
359.99999999987818
 20
-927.99999999968441
 30
0.0
  0
VERTEX
  5
12F644
  8
HIDDEN
 10
0.0
 20
-927.99999999968441
 30
0.0
  0
SEQEND
  5
12F645
  8
HIDDEN
  0
POLYLINE
  5
12F0D9
  8
HIDDEN
 66
     1
 10
0.0
 20
0.0
 30
0.0
 70
     1
1001
ACDBBLOCKREPETAG
1070
     1
1071
      130
1005
0
  0
VERTEX
  5
12F646
  8
HIDDEN
 10
359.99999999987818
 20
-927.99999999968441
 30
0.0
  0
VERTEX
  5
12F647
  8
HIDDEN
 10
719.99999999975626
 20
-927.99999999968441
 30
0.0
  0
VERTEX
  5
12F648
  8
HIDDEN
 10
719.99999999975626
 20
-1391.9999999995259
 30
0.0
  0
VERTEX
  5
12F649
  8
HIDDEN
 10
359.99999999987818
 20
-1391.9999999995259
 30
0.0
  0
SEQEND
  5
12F64A
  8
HIDDEN
  0
POLYLINE
  5
12F0DA
  8
HIDDEN
 66
     1
 10
0.0
 20
0.0
 30
0.0
 70
     1
1001
ACDBBLOCKREPETAG
1070
     1
1071
      135
1005
0
  0
VERTEX
  5
12F64B
  8
HIDDEN
 10
0.0
 20
-927.99999999968441
 30
0.0
  0
VERTEX
  5
12F64C
  8
HIDDEN
 10
359.99999999987818
 20
-927.99999999968441
 30
0.0
  0
VERTEX
  5
12F64D
  8
HIDDEN
 10
359.99999999987818
 20
-1391.9999999995259
 30
0.0
  0
VERTEX
  5
12F64E
  8
HIDDEN
 10
0.0
 20
-1391.9999999995259
 30
0.0
  0
SEQEND
  5
12F64F
  8
HIDDEN
  0
POLYLINE
  5
12F0DB
  8
HIDDEN
 66
     1
 10
0.0
 20
0.0
 30
0.0
 70
     1
1001
ACDBBLOCKREPETAG
1070
     1
1071
      140
1005
0
  0
VERTEX
  5
12F650
  8
HIDDEN
 10
359.99999999987818
 20
-2783.9999999990532
 30
0.0
  0
VERTEX
  5
12F651
  8
HIDDEN
 10
719.99999999975626
 20
-2783.9999999990532
 30
0.0
  0
VERTEX
  5
12F652
  8
HIDDEN
 10
719.99999999975626
 20
-3247.9999999988931
 30
0.0
  0
VERTEX
  5
12F653
  8
HIDDEN
 10
359.99999999987818
 20
-3247.9999999988931
 30
0.0
  0
SEQEND
  5
12F654
  8
HIDDEN
  0
POLYLINE
  5
12F0DC
  8
HIDDEN
 66
     1
 10
0.0
 20
0.0
 30
0.0
 70
     1
1001
ACDBBLOCKREPETAG
1070
     1
1071
      145
1005
0
  0
VERTEX
  5
12F655
  8
HIDDEN
 10
0.0
 20
-2783.9999999990532
 30
0.0
  0
VERTEX
  5
12F656
  8
HIDDEN
 10
359.99999999987818
 20
-2783.9999999990532
 30
0.0
  0
VERTEX
  5
12F657
  8
HIDDEN
 10
359.99999999987818
 20
-3247.9999999988931
 30
0.0
  0
VERTEX
  5
12F658
  8
HIDDEN
 10
0.0
 20
-3247.9999999988931
 30
0.0
  0
SEQEND
  5
12F659
  8
HIDDEN
  0
POLYLINE
  5
12F0DD
  8
HIDDEN
 66
     1
 10
0.0
 20
0.0
 30
0.0
 70
     1
1001
ACDBBLOCKREPETAG
1070
     1
1071
      150
1005
0
  0
VERTEX
  5
12F65A
  8
HIDDEN
 10
359.99999999987818
 20
-3247.9999999988931
 30
0.0
  0
VERTEX
  5
12F65B
  8
HIDDEN
 10
719.99999999975626
 20
-3247.9999999988931
 30
0.0
  0
VERTEX
  5
12F65C
  8
HIDDEN
 10
719.99999999975626
 20
-3711.9999999987349
 30
0.0
  0
VERTEX
  5
12F65D
  8
HIDDEN
 10
359.99999999987818
 20
-3711.9999999987349
 30
0.0
  0
SEQEND
  5
12F65E
  8
HIDDEN
  0
POLYLINE
  5
12F0DE
  8
HIDDEN
 66
     1
 10
0.0
 20
0.0
 30
0.0
 70
     1
1001
ACDBBLOCKREPETAG
1070
     1
1071
      155
1005
0
  0
VERTEX
  5
12F65F
  8
HIDDEN
 10
0.0
 20
-3247.9999999988931
 30
0.0
  0
VERTEX
  5
12F660
  8
HIDDEN
 10
359.99999999987818
 20
-3247.9999999988931
 30
0.0
  0
VERTEX
  5
12F661
  8
HIDDEN
 10
359.99999999987818
 20
-3711.9999999987349
 30
0.0
  0
VERTEX
  5
12F662
  8
HIDDEN
 10
0.0
 20
-3711.9999999987349
 30
0.0
  0
SEQEND
  5
12F663
  8
HIDDEN
  0
POLYLINE
  5
12F0DF
  8
HIDDEN
 66
     1
 10
0.0
 20
0.0
 30
0.0
 70
     1
1001
ACDBBLOCKREPETAG
1070
     1
1071
      160
1005
0
  0
VERTEX
  5
12F664
  8
HIDDEN
 10
359.99999999987818
 20
-1391.9999999995259
 30
0.0
  0
VERTEX
  5
12F665
  8
HIDDEN
 10
719.99999999975626
 20
-1391.9999999995259
 30
0.0
  0
VERTEX
  5
12F666
  8
HIDDEN
 10
719.99999999975626
 20
-1855.9999999993679
 30
0.0
  0
VERTEX
  5
12F667
  8
HIDDEN
 10
359.99999999987818
 20
-1855.9999999993679
 30
0.0
  0
SEQEND
  5
12F668
  8
HIDDEN
  0
POLYLINE
  5
12F0E0
  8
HIDDEN
 66
     1
 10
0.0
 20
0.0
 30
0.0
 70
     1
1001
ACDBBLOCKREPETAG
1070
     1
1071
      165
1005
0
  0
VERTEX
  5
12F669
  8
HIDDEN
 10
0.0
 20
-1391.9999999995259
 30
0.0
  0
VERTEX
  5
12F66A
  8
HIDDEN
 10
359.99999999987818
 20
-1391.9999999995259
 30
0.0
  0
VERTEX
  5
12F66B
  8
HIDDEN
 10
359.99999999987818
 20
-1855.9999999993679
 30
0.0
  0
VERTEX
  5
12F66C
  8
HIDDEN
 10
0.0
 20
-1855.9999999993679
 30
0.0
  0
SEQEND
  5
12F66D
  8
HIDDEN
  0
POLYLINE
  5
12F0E1
  8
HIDDEN
 66
     1
 10
0.0
 20
0.0
 30
0.0
 70
     1
1001
ACDBBLOCKREPETAG
1070
     1
1071
      170
1005
0
  0
VERTEX
  5
12F66E
  8
HIDDEN
 10
359.99999999987818
 20
-1855.9999999993679
 30
0.0
  0
VERTEX
  5
12F66F
  8
HIDDEN
 10
719.99999999975626
 20
-1855.9999999993679
 30
0.0
  0
VERTEX
  5
12F670
  8
HIDDEN
 10
719.99999999975626
 20
-2319.9999999992101
 30
0.0
  0
VERTEX
  5
12F671
  8
HIDDEN
 10
359.99999999987818
 20
-2319.9999999992101
 30
0.0
  0
SEQEND
  5
12F672
  8
HIDDEN
  0
POLYLINE
  5
12F0E2
  8
HIDDEN
 66
     1
 10
0.0
 20
0.0
 30
0.0
 70
     1
1001
ACDBBLOCKREPETAG
1070
     1
1071
      175
1005
0
  0
VERTEX
  5
12F673
  8
HIDDEN
 10
0.0
 20
-1855.9999999993679
 30
0.0
  0
VERTEX
  5
12F674
  8
HIDDEN
 10
359.99999999987818
 20
-1855.9999999993679
 30
0.0
  0
VERTEX
  5
12F675
  8
HIDDEN
 10
359.99999999987818
 20
-2319.9999999992101
 30
0.0
  0
VERTEX
  5
12F676
  8
HIDDEN
 10
0.0
 20
-2319.9999999992101
 30
0.0
  0
SEQEND
  5
12F677
  8
HIDDEN
  0
POLYLINE
  5
12F0E3
  8
HIDDEN
 66
     1
 10
0.0
 20
0.0
 30
0.0
 70
     1
1001
ACDBBLOCKREPETAG
1070
     1
1071
      180
1005
0
  0
VERTEX
  5
12F678
  8
HIDDEN
 10
359.99999999987818
 20
-2319.9999999992101
 30
0.0
  0
VERTEX
  5
12F679
  8
HIDDEN
 10
719.99999999975626
 20
-2319.9999999992101
 30
0.0
  0
VERTEX
  5
12F67A
  8
HIDDEN
 10
719.99999999975626
 20
-2783.9999999990532
 30
0.0
  0
VERTEX
  5
12F67B
  8
HIDDEN
 10
359.99999999987818
 20
-2783.9999999990532
 30
0.0
  0
SEQEND
  5
12F67C
  8
HIDDEN
  0
POLYLINE
  5
12F0E4
  8
HIDDEN
 66
     1
 10
0.0
 20
0.0
 30
0.0
 70
     1
1001
ACDBBLOCKREPETAG
1070
     1
1071
      185
1005
0
  0
VERTEX
  5
12F67D
  8
HIDDEN
 10
0.0
 20
-2319.9999999992101
 30
0.0
  0
VERTEX
  5
12F67E
  8
HIDDEN
 10
359.99999999987818
 20
-2319.9999999992101
 30
0.0
  0
VERTEX
  5
12F67F
  8
HIDDEN
 10
359.99999999987818
 20
-2783.9999999990532
 30
0.0
  0
VERTEX
  5
12F680
  8
HIDDEN
 10
0.0
 20
-2783.9999999990532
 30
0.0
  0
SEQEND
  5
12F681
  8
HIDDEN
  0
TEXT
  5
12F0E5
  8
SLIM
 10
491.99999999981759
 20
-3691.9999999987422
 30
0.0
 40
48.0
  1
C44
 41
0.75
1001
ACDBBLOCKREPETAG
1070
     1
1071
      119
1005
0
  0
TEXT
  5
12F0E6
  8
SLIM
 10
132.85714285708241
 20
-3691.9999999987422
 30
0.0
 40
48.0
  1
C43
 41
0.75
1001
ACDBBLOCKREPETAG
1070
     1
1071
      119
1005
0
  0
TEXT
  5
12F0E7
  8
SLIM
 10
492.85714285696048
 20
-3227.9999999989
 30
0.0
 40
48.0
  1
C42
 41
0.75
1001
ACDBBLOCKREPETAG
1070
     1
1071
      119
1005
0
  0
TEXT
  5
12F0E8
  8
SLIM
 10
140.5714285713681
 20
-3227.9999999989018
 30
0.0
 40
48.0
  1
C41
 41
0.75
1001
ACDBBLOCKREPETAG
1070
     1
1071
      119
1005
0
  0
TEXT
  5
12F0E9
  8
SLIM
 10
491.99999999981759
 20
-2763.9999999990591
 30
0.0
 40
48.0
  1
C34
 41
0.75
1001
ACDBBLOCKREPETAG
1070
     1
1071
      119
1005
0
  0
TEXT
  5
12F0EA
  8
SLIM
 10
132.85714285708241
 20
-2763.9999999990591
 30
0.0
 40
48.0
  1
C33
 41
0.75
1001
ACDBBLOCKREPETAG
1070
     1
1071
      119
1005
0
  0
TEXT
  5
12F0EB
  8
SLIM
 10
492.85714285696048
 20
-2299.9999999992169
 30
0.0
 40
48.0
  1
C32
 41
0.75
1001
ACDBBLOCKREPETAG
1070
     1
1071
      119
1005
0
  0
TEXT
  5
12F0EC
  8
SLIM
 10
140.5714285713681
 20
-2299.9999999992169
 30
0.0
 40
48.0
  1
C31
 41
0.75
1001
ACDBBLOCKREPETAG
1070
     1
1071
      119
1005
0
  0
TEXT
  5
12F0ED
  8
SLIM
 10
491.99999999981759
 20
-1835.9999999993749
 30
0.0
 40
48.0
  1
C24
 41
0.75
1001
ACDBBLOCKREPETAG
1070
     1
1071
      119
1005
0
  0
TEXT
  5
12F0EE
  8
SLIM
 10
132.85714285708241
 20
-1835.9999999993749
 30
0.0
 40
48.0
  1
C23
 41
0.75
1001
ACDBBLOCKREPETAG
1070
     1
1071
      119
1005
0
  0
TEXT
  5
12F0EF
  8
SLIM
 10
492.85714285696048
 20
-1371.999999999533
 30
0.0
 40
48.0
  1
C22
 41
0.75
1001
ACDBBLOCKREPETAG
1070
     1
1071
      119
1005
0
  0
TEXT
  5
12F0F0
  8
SLIM
 10
140.57142857136759
 20
-1371.999999999533
 30
0.0
 40
48.0
  1
C21
 41
0.75
1001
ACDBBLOCKREPETAG
1070
     1
1071
      119
1005
0
  0
TEXT
  5
12F0F1
  8
SLIM
 10
495.42857142838898
 20
-907.99999999969145
 30
0.0
 40
48.0
  1
C14
 41
0.75
1001
ACDBBLOCKREPETAG
1070
     1
1071
      119
1005
0
  0
TEXT
  5
12F0F2
  8
SLIM
 10
136.2857142856538
 20
-907.99999999969145
 30
0.0
 40
48.0
  1
C13
 41
0.75
1001
ACDBBLOCKREPETAG
1070
     1
1071
      119
1005
0
  0
TEXT
  5
12F0F3
  8
SLIM
 10
496.28571428553192
 20
-443.99999999984971
 30
0.0
 40
48.0
  1
C12
 41
0.75
1001
ACDBBLOCKREPETAG
1070
     1
1071
      119
1005
0
  0
TEXT
  5
12F0F4
  8
SLIM
 10
143.9999999999394
 20
-443.99999999984971
 30
0.0
 40
48.0
  1
C11
 41
0.75
1001
ACDBBLOCKREPETAG
1070
     1
1071
      119
1005
0
  0
LINE
  5
12F0F5
  8
CENTER
 10
1899.0
 20
-199.99999999999909
 30
0.0
 11
1920.0
 21
-199.99999999999909
 31
0.0
1001
ACDBBLOCKREPETAG
1070
     1
1071
        0
1005
12F0F5
  0
LINE
  5
12F0F6
  8
OBJECT
 10
1917.0
 20
-261.99999999999909
 30
0.0
 11
1920.0
 21
-261.99999999999909
 31
0.0
1001
ACDBBLOCKREPETAG
1070
     1
1071
        1
1005
12F0F6
  0
ARC
  5
12F0F7
  8
OBJECT
 10
1917.0
 20
-258.99999999999909
 30
0.0
 40
3.0
 50
180.0
 51
270.0
1001
ACDBBLOCKREPETAG
1070
     1
1071
        2
1005
12F0F7
  0
LINE
  5
12F0F8
  8
OBJECT
 10
1920.0
 20
-137.99999999999909
 30
0.0
 11
1917.0
 21
-137.99999999999909
 31
0.0
1001
ACDBBLOCKREPETAG
1070
     1
1071
        3
1005
12F0F8
  0
ARC
  5
12F0F9
  8
OBJECT
 10
1917.0
 20
-140.99999999999909
 30
0.0
 40
3.0
 50
90.0
 51
180.0
1001
ACDBBLOCKREPETAG
1070
     1
1071
        4
1005
12F0F9
  0
LINE
  5
12F0FA
  8
OBJECT
 10
1914.0
 20
-140.99999999999909
 30
0.0
 11
1914.0
 21
-258.99999999999909
 31
0.0
1001
ACDBBLOCKREPETAG
1070
     1
1071
        5
1005
12F0FA
  0
LINE
  5
12F0FB
  8
OBJECT
 10
2062.0
 20
-332.99999999999898
 30
0.0
 11
2062.0
 21
-339.99999999999909
 31
0.0
1001
ACDBBLOCKREPETAG
1070
     1
1071
       47
1005
12F0FB
  0
LINE
  5
12F0FC
  8
OBJECT
 10
2062.0
 20
-339.99999999999909
 30
0.0
 11
1938.0
 21
-339.99999999999909
 31
0.0
1001
ACDBBLOCKREPETAG
1070
     1
1071
       48
1005
12F0FC
  0
LINE
  5
12F0FD
  8
OBJECT
 10
1938.0
 20
-339.99999999999909
 30
0.0
 11
1938.0
 21
-332.99999999999898
 31
0.0
1001
ACDBBLOCKREPETAG
1070
     1
1071
       49
1005
12F0FD
  0
LINE
  5
12F0FE
  8
OBJECT
 10
1938.0
 20
-332.99999999999898
 30
0.0
 11
2062.0
 21
-332.99999999999898
 31
0.0
1001
ACDBBLOCKREPETAG
1070
     1
1071
       50
1005
12F0FE
  0
LINE
  5
12F0FF
  8
CENTER
 10
2000.0
 20
-354.99999999999909
 30
0.0
 11
2000.0
 21
-279.99999999999909
 31
0.0
1001
ACDBBLOCKREPETAG
1070
     1
1071
       51
1005
12F0FF
  0
LINE
  5
12F100
  8
OBJECT
 10
2059.0
 20
-332.99999999999898
 30
0.0
 11
2059.0
 21
-296.99999999999898
 31
0.0
1001
ACDBBLOCKREPETAG
1070
     1
1071
       52
1005
12F100
  0
LINE
  5
12F101
  8
OBJECT
 10
2059.0
 20
-296.99999999999898
 30
0.0
 11
1941.0
 21
-296.99999999999898
 31
0.0
1001
ACDBBLOCKREPETAG
1070
     1
1071
       53
1005
12F101
  0
LINE
  5
12F102
  8
OBJECT
 10
1941.0
 20
-296.99999999999898
 30
0.0
 11
1941.0
 21
-332.99999999999898
 31
0.0
1001
ACDBBLOCKREPETAG
1070
     1
1071
       54
1005
12F102
  0
LINE
  5
12F103
  8
OBJECT
 10
2054.5
 20
-292.99999999999898
 30
0.0
 11
2054.5
 21
-285.99999999999898
 31
0.0
1001
ACDBBLOCKREPETAG
1070
     1
1071
       55
1005
12F103
  0
LINE
  5
12F104
  8
OBJECT
 10
1945.5
 20
-285.99999999999898
 30
0.0
 11
1945.5
 21
-292.99999999999898
 31
0.0
1001
ACDBBLOCKREPETAG
1070
     1
1071
       56
1005
12F104
  0
LINE
  5
12F105
  8
OBJECT
 10
1945.5
 20
-292.99999999999898
 30
0.0
 11
2054.5
 21
-292.99999999999898
 31
0.0
1001
ACDBBLOCKREPETAG
1070
     1
1071
       57
1005
12F105
  0
LINE
  5
12F106
  8
OBJECT
 10
2059.0
 20
-296.99999999999898
 30
0.0
 11
2054.5
 21
-292.99999999999898
 31
0.0
1001
ACDBBLOCKREPETAG
1070
     1
1071
       58
1005
12F106
  0
LINE
  5
12F107
  8
OBJECT
 10
1941.0
 20
-296.99999999999898
 30
0.0
 11
1945.5
 21
-292.99999999999898
 31
0.0
1001
ACDBBLOCKREPETAG
1070
     1
1071
       59
1005
12F107
  0
LINE
  5
12F108
  8
OBJECT
 10
2062.0
 20
-283.0
 30
0.0
 11
2062.0
 21
-279.99999999999909
 31
0.0
1001
ACDBBLOCKREPETAG
1070
     1
1071
       60
1005
12F108
  0
ARC
  5
12F109
  8
OBJECT
 10
2059.0
 20
-283.0
 30
0.0
 40
3.0
 50
270.0
 51
0.0
1001
ACDBBLOCKREPETAG
1070
     1
1071
       61
1005
12F109
  0
LINE
  5
12F10A
  8
OBJECT
 10
1938.0
 20
-279.99999999999909
 30
0.0
 11
1938.0
 21
-282.99999999999818
 31
0.0
1001
ACDBBLOCKREPETAG
1070
     1
1071
       62
1005
12F10A
  0
ARC
  5
12F10B
  8
OBJECT
 10
1941.0
 20
-282.99999999999818
 30
0.0
 40
3.0
 50
180.0
 51
270.0
1001
ACDBBLOCKREPETAG
1070
     1
1071
       63
1005
12F10B
  0
LINE
  5
12F10C
  8
OBJECT
 10
1941.0
 20
-285.99999999999818
 30
0.0
 11
2059.0
 21
-286.0
 31
0.0
1001
ACDBBLOCKREPETAG
1070
     1
1071
       64
1005
12F10C
  0
LINE
  5
12F10D
  8
HIDDEN
 10
2044.5
 20
-287.99999999999909
 30
0.0
 11
1955.5
 21
-287.99999999999909
 31
0.0
1001
ACDBBLOCKREPETAG
1070
     1
1071
       65
1005
12F10D
  0
LINE
  5
12F10E
  8
OBJECT
 10
2133.0
 20
-137.99999999999909
 30
0.0
 11
2140.0
 21
-137.99999999999909
 31
0.0
1001
ACDBBLOCKREPETAG
1070
     1
1071
       47
1005
12F10E
  0
LINE
  5
12F10F
  8
OBJECT
 10
2140.0
 20
-137.99999999999909
 30
0.0
 11
2140.0
 21
-261.99999999999909
 31
0.0
1001
ACDBBLOCKREPETAG
1070
     1
1071
       48
1005
12F10F
  0
LINE
  5
12F110
  8
OBJECT
 10
2140.0
 20
-261.99999999999909
 30
0.0
 11
2133.0
 21
-261.99999999999909
 31
0.0
1001
ACDBBLOCKREPETAG
1070
     1
1071
       49
1005
12F110
  0
LINE
  5
12F111
  8
OBJECT
 10
2133.0
 20
-261.99999999999909
 30
0.0
 11
2133.0
 21
-137.99999999999909
 31
0.0
1001
ACDBBLOCKREPETAG
1070
     1
1071
       50
1005
12F111
  0
LINE
  5
12F112
  8
CENTER
 10
2155.0
 20
-199.99999999999909
 30
0.0
 11
2080.0
 21
-199.99999999999909
 31
0.0
1001
ACDBBLOCKREPETAG
1070
     1
1071
       51
1005
12F112
  0
LINE
  5
12F113
  8
OBJECT
 10
2133.0
 20
-140.99999999999909
 30
0.0
 11
2097.0
 21
-140.99999999999909
 31
0.0
1001
ACDBBLOCKREPETAG
1070
     1
1071
       52
1005
12F113
  0
LINE
  5
12F114
  8
OBJECT
 10
2097.0
 20
-140.99999999999909
 30
0.0
 11
2097.0
 21
-258.99999999999909
 31
0.0
1001
ACDBBLOCKREPETAG
1070
     1
1071
       53
1005
12F114
  0
LINE
  5
12F115
  8
OBJECT
 10
2097.0
 20
-258.99999999999909
 30
0.0
 11
2133.0
 21
-258.99999999999909
 31
0.0
1001
ACDBBLOCKREPETAG
1070
     1
1071
       54
1005
12F115
  0
LINE
  5
12F116
  8
OBJECT
 10
2093.0
 20
-145.49999999999909
 30
0.0
 11
2086.0
 21
-145.49999999999909
 31
0.0
1001
ACDBBLOCKREPETAG
1070
     1
1071
       55
1005
12F116
  0
LINE
  5
12F117
  8
OBJECT
 10
2086.0
 20
-254.49999999999909
 30
0.0
 11
2093.0
 21
-254.49999999999909
 31
0.0
1001
ACDBBLOCKREPETAG
1070
     1
1071
       56
1005
12F117
  0
LINE
  5
12F118
  8
OBJECT
 10
2093.0
 20
-254.49999999999909
 30
0.0
 11
2093.0
 21
-145.49999999999909
 31
0.0
1001
ACDBBLOCKREPETAG
1070
     1
1071
       57
1005
12F118
  0
LINE
  5
12F119
  8
OBJECT
 10
2097.0
 20
-140.99999999999909
 30
0.0
 11
2093.0
 21
-145.49999999999909
 31
0.0
1001
ACDBBLOCKREPETAG
1070
     1
1071
       58
1005
12F119
  0
LINE
  5
12F11A
  8
OBJECT
 10
2097.0
 20
-258.99999999999909
 30
0.0
 11
2093.0
 21
-254.49999999999909
 31
0.0
1001
ACDBBLOCKREPETAG
1070
     1
1071
       59
1005
12F11A
  0
LINE
  5
12F11B
  8
OBJECT
 10
2083.0
 20
-137.99999999999909
 30
0.0
 11
2080.0
 21
-137.99999999999909
 31
0.0
1001
ACDBBLOCKREPETAG
1070
     1
1071
       60
1005
12F11B
  0
ARC
  5
12F11C
  8
OBJECT
 10
2083.0
 20
-140.99999999999909
 30
0.0
 40
3.0
 50
0.0
 51
90.0
1001
ACDBBLOCKREPETAG
1070
     1
1071
       61
1005
12F11C
  0
LINE
  5
12F11D
  8
OBJECT
 10
2080.0
 20
-261.99999999999909
 30
0.0
 11
2083.0
 21
-261.99999999999909
 31
0.0
1001
ACDBBLOCKREPETAG
1070
     1
1071
       62
1005
12F11D
  0
ARC
  5
12F11E
  8
OBJECT
 10
2083.0
 20
-258.99999999999909
 30
0.0
 40
3.0
 50
270.0
 51
0.0
1001
ACDBBLOCKREPETAG
1070
     1
1071
       63
1005
12F11E
  0
LINE
  5
12F11F
  8
OBJECT
 10
2086.0
 20
-258.99999999999909
 30
0.0
 11
2086.0
 21
-140.99999999999909
 31
0.0
1001
ACDBBLOCKREPETAG
1070
     1
1071
       64
1005
12F11F
  0
LINE
  5
12F120
  8
HIDDEN
 10
2088.0
 20
-155.49999999999909
 30
0.0
 11
2088.0
 21
-244.49999999999909
 31
0.0
1001
ACDBBLOCKREPETAG
1070
     1
1071
       65
1005
12F120
  0
LINE
  5
12F121
  8
OBJECT
 10
1917.0
 20
-634.0
 30
0.0
 11
1920.0
 21
-634.0
 31
0.0
1001
ACDBBLOCKREPETAG
1070
     1
1071
        1
1005
12F121
  0
ARC
  5
12F122
  8
OBJECT
 10
1917.0
 20
-637.0
 30
0.0
 40
3.0
 50
90.0
 51
180.0
1001
ACDBBLOCKREPETAG
1070
     1
1071
        2
1005
12F122
  0
LINE
  5
12F123
  8
OBJECT
 10
1920.0
 20
-758.0
 30
0.0
 11
1917.0
 21
-758.0
 31
0.0
1001
ACDBBLOCKREPETAG
1070
     1
1071
        3
1005
12F123
  0
ARC
  5
12F124
  8
OBJECT
 10
1917.0
 20
-755.0
 30
0.0
 40
3.0
 50
180.0
 51
270.0
1001
ACDBBLOCKREPETAG
1070
     1
1071
        4
1005
12F124
  0
LINE
  5
12F125
  8
OBJECT
 10
1914.0
 20
-755.0
 30
0.0
 11
1914.0
 21
-637.0
 31
0.0
1001
ACDBBLOCKREPETAG
1070
     1
1071
        5
1005
12F125
  0
LINE
  5
12F126
  8
CENTER
 10
2077.0
 20
-696.0
 30
0.0
 11
1923.0
 21
-696.0
 31
0.0
1001
ACDBBLOCKREPETAG
1070
     1
1071
       17
1005
12F126
  0
CIRCLE
  5
12F127
  8
OBJECT
 10
2000.0
 20
-696.0
 30
0.0
 40
41.5
1001
ACDBBLOCKREPETAG
1070
     1
1071
       19
1005
12F127
  0
CIRCLE
  5
12F128
  8
OBJECT
 10
2000.0
 20
-696.0
 30
0.0
 40
54.0
1001
ACDBBLOCKREPETAG
1070
     1
1071
       20
1005
12F128
  0
ARC
  5
12F129
  8
OBJECT
 10
2000.0
 20
-696.0
 30
0.0
 40
62.0
 50
287.89655112920718
 51
252.10344887079279
1001
ACDBBLOCKREPETAG
1070
     1
1071
       21
1005
12F129
  0
LINE
  5
12F12A
  8
OBJECT
 10
1980.947441116743
 20
-755.0
 30
0.0
 11
2019.052558883257
 21
-755.0
 31
0.0
1001
ACDBBLOCKREPETAG
1070
     1
1071
       22
1005
12F12A
  0
LINE
  5
12F12B
  8
OBJECT
 10
2133.0
 20
-634.0
 30
0.0
 11
2140.0
 21
-634.0
 31
0.0
1001
ACDBBLOCKREPETAG
1070
     1
1071
       45
1005
12F12B
  0
LINE
  5
12F12C
  8
OBJECT
 10
2140.0
 20
-634.0
 30
0.0
 11
2140.0
 21
-755.0
 31
0.0
1001
ACDBBLOCKREPETAG
1070
     1
1071
       46
1005
12F12C
  0
LINE
  5
12F12D
  8
OBJECT
 10
2133.0
 20
-755.0
 30
0.0
 11
2133.0
 21
-634.0
 31
0.0
1001
ACDBBLOCKREPETAG
1070
     1
1071
       47
1005
12F12D
  0
LINE
  5
12F12E
  8
CENTER
 10
2155.0
 20
-696.0
 30
0.0
 11
2071.0
 21
-696.0
 31
0.0
1001
ACDBBLOCKREPETAG
1070
     1
1071
       48
1005
12F12E
  0
LINE
  5
12F12F
  8
OBJECT
 10
2133.0
 20
-637.0
 30
0.0
 11
2097.0
 21
-637.0
 31
0.0
1001
ACDBBLOCKREPETAG
1070
     1
1071
       49
1005
12F12F
  0
LINE
  5
12F130
  8
OBJECT
 10
2097.0
 20
-637.0
 30
0.0
 11
2097.0
 21
-755.0
 31
0.0
1001
ACDBBLOCKREPETAG
1070
     1
1071
       50
1005
12F130
  0
LINE
  5
12F131
  8
OBJECT
 10
2097.0
 20
-755.0
 30
0.0
 11
2140.0
 21
-755.0
 31
0.0
1001
ACDBBLOCKREPETAG
1070
     1
1071
       51
1005
12F131
  0
LINE
  5
12F132
  8
OBJECT
 10
2093.0
 20
-641.5
 30
0.0
 11
2086.0
 21
-641.5
 31
0.0
1001
ACDBBLOCKREPETAG
1070
     1
1071
       52
1005
12F132
  0
LINE
  5
12F133
  8
OBJECT
 10
2086.0
 20
-750.49999999999989
 30
0.0
 11
2093.0
 21
-750.49999999999989
 31
0.0
1001
ACDBBLOCKREPETAG
1070
     1
1071
       53
1005
12F133
  0
LINE
  5
12F134
  8
OBJECT
 10
2093.0
 20
-750.49999999999989
 30
0.0
 11
2093.0
 21
-641.5
 31
0.0
1001
ACDBBLOCKREPETAG
1070
     1
1071
       54
1005
12F134
  0
LINE
  5
12F135
  8
OBJECT
 10
2097.0
 20
-637.0
 30
0.0
 11
2093.0
 21
-641.5
 31
0.0
1001
ACDBBLOCKREPETAG
1070
     1
1071
       55
1005
12F135
  0
LINE
  5
12F136
  8
OBJECT
 10
2097.0
 20
-755.0
 30
0.0
 11
2093.0
 21
-750.49999999999989
 31
0.0
1001
ACDBBLOCKREPETAG
1070
     1
1071
       56
1005
12F136
  0
LINE
  5
12F137
  8
OBJECT
 10
2083.0
 20
-634.0
 30
0.0
 11
2080.0
 21
-634.0
 31
0.0
1001
ACDBBLOCKREPETAG
1070
     1
1071
       57
1005
12F137
  0
ARC
  5
12F138
  8
OBJECT
 10
2083.0
 20
-637.0
 30
0.0
 40
3.0
 50
0.0
 51
90.0
1001
ACDBBLOCKREPETAG
1070
     1
1071
       58
1005
12F138
  0
LINE
  5
12F139
  8
OBJECT
 10
2080.0
 20
-758.0
 30
0.0
 11
2083.0
 21
-758.0
 31
0.0
1001
ACDBBLOCKREPETAG
1070
     1
1071
       59
1005
12F139
  0
ARC
  5
12F13A
  8
OBJECT
 10
2083.0
 20
-755.0
 30
0.0
 40
3.0
 50
270.0
 51
0.0
1001
ACDBBLOCKREPETAG
1070
     1
1071
       60
1005
12F13A
  0
LINE
  5
12F13B
  8
OBJECT
 10
2086.0
 20
-755.0
 30
0.0
 11
2086.0
 21
-637.0
 31
0.0
1001
ACDBBLOCKREPETAG
1070
     1
1071
       61
1005
12F13B
  0
LINE
  5
12F13C
  8
HIDDEN
 10
2088.0
 20
-651.5
 30
0.0
 11
2088.0
 21
-740.5
 31
0.0
1001
ACDBBLOCKREPETAG
1070
     1
1071
       63
1005
12F13C
  0
TEXT
  5
12F13D
  8
SLIM
 10
0.0000035665234464
 20
24.000004585317601
 30
0.0
 40
79.999999999972701
  1
枝管バリエーション
 41
0.75
1001
ACDBBLOCKREPETAG
1070
     1
1071
      119
1005
12CC4A
  0
TEXT
  5
12F13E
  8
SLIM
 10
1837.75
 20
282.50000000000011
 30
0.0
 40
35.0
  1
（枝管サイズ毎に寸法が異なります。管底の位置は50～100で同じです）
 41
0.75
  0
TEXT
  5
12F13F
  8
SLIM
 10
1850.0
 20
369.99999999999989
 30
0.0
 40
100.0
  1
4SRT2-C33-0
 41
0.75
  0
TEXT
  5
12F140
  8
SLIM
 10
0.0
 20
369.99999999999989
 30
0.0
 40
100.0
  1
4SRT2-CXX-0-S
 41
0.75
  0
LINE
  5
12F141
  8
OBJECT
 10
4923.0
 20
-3515.9999999999968
 30
0.0
 11
4923.0
 21
-3494.9999999999968
 31
0.0
1001
ACDBBLOCKREPETAG
1070
     1
1071
        0
1005
12F141
  0
LINE
  5
12F142
  8
OBJECT
 10
4923.0
 20
-3494.9999999999968
 30
0.0
 11
5077.0
 21
-3494.9999999999968
 31
0.0
1001
ACDBBLOCKREPETAG
1070
     1
1071
        1
1005
12F142
  0
LINE
  5
12F143
  8
HIDDEN
 10
4943.0
 20
-3564.9999999999968
 30
0.0
 11
5057.0
 21
-3564.9999999999968
 31
0.0
1001
ACDBBLOCKREPETAG
1070
     1
1071
        2
1005
12F143
  0
LINE
  5
12F144
  8
OBJECT
 10
5077.0
 20
-3494.9999999999968
 30
0.0
 11
5077.0
 21
-3515.9999999999968
 31
0.0
1001
ACDBBLOCKREPETAG
1070
     1
1071
        3
1005
12F144
  0
LINE
  5
12F145
  8
OBJECT
 10
5077.0
 20
-3515.9999999999968
 30
0.0
 11
4923.0
 21
-3515.9999999999968
 31
0.0
1001
ACDBBLOCKREPETAG
1070
     1
1071
        4
1005
12F145
  0
LINE
  5
12F146
  8
CENTER
 10
5000.0
 20
-3479.9999999999968
 30
0.0
 11
5000.0
 21
-3714.9999999999968
 31
0.0
1001
ACDBBLOCKREPETAG
1070
     1
1071
        5
1005
12F146
  0
LINE
  5
12F147
  8
OBJECT
 10
4925.0
 20
-3578.9999999999968
 30
0.0
 11
4925.0
 21
-3702.9999999999968
 31
0.0
1001
ACDBBLOCKREPETAG
1070
     1
1071
        6
1005
12F147
  0
LINE
  5
12F148
  8
OBJECT
 10
4928.0
 20
-3515.9999999999968
 30
0.0
 11
4928.0
 21
-3578.9999999999968
 31
0.0
1001
ACDBBLOCKREPETAG
1070
     1
1071
        7
1005
12F148
  0
LINE
  5
12F149
  8
OBJECT
 10
5072.0
 20
-3578.9999999999968
 30
0.0
 11
5072.0
 21
-3515.9999999999968
 31
0.0
1001
ACDBBLOCKREPETAG
1070
     1
1071
        8
1005
12F149
  0
LINE
  5
12F14A
  8
OBJECT
 10
5074.9999999997999
 20
-3702.9999999997758
 30
0.0
 11
5080.0
 21
-3702.9999999999968
 31
0.0
1001
ACDBBLOCKREPETAG
1070
     1
1071
        9
1005
12F14A
  0
LINE
  5
12F14B
  8
OBJECT
 10
5080.0
 20
-3578.9999999999968
 30
0.0
 11
4925.0
 21
-3578.9999999999968
 31
0.0
1001
ACDBBLOCKREPETAG
1070
     1
1071
       10
1005
12F14B
  0
ARC
  5
12F14C
  8
OBJECT
 10
5200.6872746716726
 20
-3694.408099410105
 30
0.0
 40
170.6350503965856
 50
137.44134459184301
 51
149.9194958133665
1001
ACDBBLOCKREPETAG
1070
     1
1071
       15
1005
12F14C
  0
ARC
  5
12F14D
  8
OBJECT
 10
5118.8455987040506
 20
-3650.8827266953622
 30
0.0
 40
78.072222021763665
 50
147.4551531037684
 51
164.66365997719291
1001
ACDBBLOCKREPETAG
1070
     1
1071
       16
1005
12F14D
  0
ARC
  5
12F14E
  8
OBJECT
 10
5085.7554349608727
 20
-3640.9999999999968
 30
0.0
 40
43.55353926885617
 50
165.6884523008477
 51
194.3115476991523
1001
ACDBBLOCKREPETAG
1070
     1
1071
       17
1005
12F14E
  0
ARC
  5
12F14F
  8
OBJECT
 10
5200.6872746716726
 20
-3587.5919005898891
 30
0.0
 40
170.6350503965856
 50
210.0805041866335
 51
222.55865540815699
1001
ACDBBLOCKREPETAG
1070
     1
1071
       18
1005
12F14F
  0
ARC
  5
12F150
  8
OBJECT
 10
5118.8455987040506
 20
-3631.1172733046319
 30
0.0
 40
78.072222021763665
 50
195.33634002280701
 51
212.5448468962316
1001
ACDBBLOCKREPETAG
1070
     1
1071
       19
1005
12F150
  0
POINT
  5
12F151
  8
DOTS
 10
5000.0
 20
-3699.9999999999968
 30
0.0
1001
ACDBBLOCKREPETAG
1070
     1
1071
      186
1005
12F151
  0
LINE
  5
12F152
  8
OBJECT
 10
4323.0
 20
-3515.9999999999968
 30
0.0
 11
4323.0
 21
-3494.9999999999968
 31
0.0
1001
ACDBBLOCKREPETAG
1070
     1
1071
       20
1005
12F152
  0
LINE
  5
12F153
  8
OBJECT
 10
4323.0
 20
-3494.9999999999968
 30
0.0
 11
4477.0
 21
-3494.9999999999968
 31
0.0
1001
ACDBBLOCKREPETAG
1070
     1
1071
       21
1005
12F153
  0
LINE
  5
12F154
  8
HIDDEN
 10
4343.0
 20
-3564.9999999999968
 30
0.0
 11
4457.0
 21
-3564.9999999999968
 31
0.0
1001
ACDBBLOCKREPETAG
1070
     1
1071
       22
1005
12F154
  0
LINE
  5
12F155
  8
OBJECT
 10
4477.0
 20
-3494.9999999999968
 30
0.0
 11
4477.0
 21
-3515.9999999999968
 31
0.0
1001
ACDBBLOCKREPETAG
1070
     1
1071
       23
1005
12F155
  0
LINE
  5
12F156
  8
OBJECT
 10
4477.0
 20
-3515.9999999999968
 30
0.0
 11
4323.0
 21
-3515.9999999999968
 31
0.0
1001
ACDBBLOCKREPETAG
1070
     1
1071
       24
1005
12F156
  0
LINE
  5
12F157
  8
CENTER
 10
4400.0
 20
-3479.9999999999968
 30
0.0
 11
4400.0
 21
-3714.9999999999968
 31
0.0
1001
ACDBBLOCKREPETAG
1070
     1
1071
       25
1005
12F157
  0
LINE
  5
12F158
  8
OBJECT
 10
4325.0
 20
-3578.9999999999968
 30
0.0
 11
4325.0
 21
-3702.9999999999968
 31
0.0
1001
ACDBBLOCKREPETAG
1070
     1
1071
       26
1005
12F158
  0
LINE
  5
12F159
  8
OBJECT
 10
4328.0
 20
-3515.9999999999968
 30
0.0
 11
4328.0
 21
-3578.9999999999968
 31
0.0
1001
ACDBBLOCKREPETAG
1070
     1
1071
       27
1005
12F159
  0
LINE
  5
12F15A
  8
OBJECT
 10
4472.0
 20
-3578.9999999999968
 30
0.0
 11
4472.0
 21
-3515.9999999999968
 31
0.0
1001
ACDBBLOCKREPETAG
1070
     1
1071
       28
1005
12F15A
  0
LINE
  5
12F15B
  8
OBJECT
 10
4475.0
 20
-3578.9999999999968
 30
0.0
 11
4325.0
 21
-3578.9999999999968
 31
0.0
1001
ACDBBLOCKREPETAG
1070
     1
1071
       30
1005
12F15B
  0
LINE
  5
12F15C
  8
OBJECT
 10
4475.0
 20
-3578.9999999999968
 30
0.0
 11
4475.0
 21
-3702.9999999999968
 31
0.0
1001
ACDBBLOCKREPETAG
1070
     1
1071
       34
1005
12F15C
  0
POINT
  5
12F15D
  8
DOTS
 10
4400.0
 20
-3699.9999999999968
 30
0.0
1001
ACDBBLOCKREPETAG
1070
     1
1071
      187
1005
12F15D
  0
LINE
  5
12F15E
  8
OBJECT
 10
3923.0
 20
-3515.9999999999968
 30
0.0
 11
3923.0
 21
-3494.9999999999968
 31
0.0
1001
ACDBBLOCKREPETAG
1070
     1
1071
        0
1005
12F15E
  0
LINE
  5
12F15F
  8
OBJECT
 10
3923.0
 20
-3494.9999999999968
 30
0.0
 11
4077.0
 21
-3494.9999999999968
 31
0.0
1001
ACDBBLOCKREPETAG
1070
     1
1071
        1
1005
12F15F
  0
LINE
  5
12F160
  8
HIDDEN
 10
3943.0
 20
-3564.9999999999968
 30
0.0
 11
4057.0
 21
-3564.9999999999968
 31
0.0
1001
ACDBBLOCKREPETAG
1070
     1
1071
        2
1005
12F160
  0
LINE
  5
12F161
  8
OBJECT
 10
4077.0
 20
-3494.9999999999968
 30
0.0
 11
4077.0
 21
-3515.9999999999968
 31
0.0
1001
ACDBBLOCKREPETAG
1070
     1
1071
        3
1005
12F161
  0
LINE
  5
12F162
  8
OBJECT
 10
4077.0
 20
-3515.9999999999968
 30
0.0
 11
3923.0
 21
-3515.9999999999968
 31
0.0
1001
ACDBBLOCKREPETAG
1070
     1
1071
        4
1005
12F162
  0
LINE
  5
12F163
  8
CENTER
 10
4000.0
 20
-3479.9999999999968
 30
0.0
 11
4000.0
 21
-3714.9999999999968
 31
0.0
1001
ACDBBLOCKREPETAG
1070
     1
1071
        5
1005
12F163
  0
LINE
  5
12F164
  8
OBJECT
 10
3925.0
 20
-3578.9999999999968
 30
0.0
 11
3925.0
 21
-3702.9999999999968
 31
0.0
1001
ACDBBLOCKREPETAG
1070
     1
1071
        6
1005
12F164
  0
LINE
  5
12F165
  8
OBJECT
 10
3928.0
 20
-3515.9999999999968
 30
0.0
 11
3928.0
 21
-3578.9999999999968
 31
0.0
1001
ACDBBLOCKREPETAG
1070
     1
1071
        7
1005
12F165
  0
LINE
  5
12F166
  8
OBJECT
 10
4072.0
 20
-3578.9999999999968
 30
0.0
 11
4072.0
 21
-3515.9999999999968
 31
0.0
1001
ACDBBLOCKREPETAG
1070
     1
1071
        8
1005
12F166
  0
LINE
  5
12F167
  8
OBJECT
 10
4074.999999999799
 20
-3702.9999999997758
 30
0.0
 11
4080.0
 21
-3702.9999999999968
 31
0.0
1001
ACDBBLOCKREPETAG
1070
     1
1071
        9
1005
12F167
  0
LINE
  5
12F168
  8
OBJECT
 10
4080.0
 20
-3578.9999999999968
 30
0.0
 11
3925.0
 21
-3578.9999999999968
 31
0.0
1001
ACDBBLOCKREPETAG
1070
     1
1071
       10
1005
12F168
  0
ARC
  5
12F169
  8
OBJECT
 10
4200.6872746716726
 20
-3694.408099410105
 30
0.0
 40
170.6350503965856
 50
137.44134459184301
 51
149.9194958133665
1001
ACDBBLOCKREPETAG
1070
     1
1071
       15
1005
12F169
  0
ARC
  5
12F16A
  8
OBJECT
 10
4118.8455987040506
 20
-3650.8827266953622
 30
0.0
 40
78.072222021763665
 50
147.4551531037684
 51
164.663659977186
1001
ACDBBLOCKREPETAG
1070
     1
1071
       16
1005
12F16A
  0
ARC
  5
12F16B
  8
OBJECT
 10
4085.7554349608722
 20
-3640.9999999999968
 30
0.0
 40
43.55353926885617
 50
165.6884523008477
 51
194.3115476991523
1001
ACDBBLOCKREPETAG
1070
     1
1071
       17
1005
12F16B
  0
ARC
  5
12F16C
  8
OBJECT
 10
4200.6872746716726
 20
-3587.5919005898891
 30
0.0
 40
170.6350503965856
 50
210.0805041866335
 51
222.55865540815699
1001
ACDBBLOCKREPETAG
1070
     1
1071
       18
1005
12F16C
  0
ARC
  5
12F16D
  8
OBJECT
 10
4118.8455987040506
 20
-3631.1172733046319
 30
0.0
 40
78.072222021763665
 50
195.33634002281391
 51
212.5448468962316
1001
ACDBBLOCKREPETAG
1070
     1
1071
       19
1005
12F16D
  0
POINT
  5
12F16E
  8
DOTS
 10
4000.0
 20
-3699.9999999999968
 30
0.0
1001
ACDBBLOCKREPETAG
1070
     1
1071
      186
1005
12F16E
  0
LINE
  5
12F16F
  8
OBJECT
 10
3323.0
 20
-3515.9999999999968
 30
0.0
 11
3323.0
 21
-3494.9999999999968
 31
0.0
1001
ACDBBLOCKREPETAG
1070
     1
1071
       20
1005
12F16F
  0
LINE
  5
12F170
  8
OBJECT
 10
3323.0
 20
-3494.9999999999968
 30
0.0
 11
3477.0
 21
-3494.9999999999968
 31
0.0
1001
ACDBBLOCKREPETAG
1070
     1
1071
       21
1005
12F170
  0
LINE
  5
12F171
  8
HIDDEN
 10
3343.0
 20
-3564.9999999999968
 30
0.0
 11
3457.0
 21
-3564.9999999999968
 31
0.0
1001
ACDBBLOCKREPETAG
1070
     1
1071
       22
1005
12F171
  0
LINE
  5
12F172
  8
OBJECT
 10
3477.0
 20
-3494.9999999999968
 30
0.0
 11
3477.0
 21
-3515.9999999999968
 31
0.0
1001
ACDBBLOCKREPETAG
1070
     1
1071
       23
1005
12F172
  0
LINE
  5
12F173
  8
OBJECT
 10
3477.0
 20
-3515.9999999999968
 30
0.0
 11
3323.0
 21
-3515.9999999999968
 31
0.0
1001
ACDBBLOCKREPETAG
1070
     1
1071
       24
1005
12F173
  0
LINE
  5
12F174
  8
CENTER
 10
3400.0
 20
-3479.9999999999968
 30
0.0
 11
3400.0
 21
-3714.9999999999968
 31
0.0
1001
ACDBBLOCKREPETAG
1070
     1
1071
       25
1005
12F174
  0
LINE
  5
12F175
  8
OBJECT
 10
3325.0
 20
-3578.9999999999968
 30
0.0
 11
3325.0
 21
-3702.9999999999968
 31
0.0
1001
ACDBBLOCKREPETAG
1070
     1
1071
       26
1005
12F175
  0
LINE
  5
12F176
  8
OBJECT
 10
3328.0
 20
-3515.9999999999968
 30
0.0
 11
3328.0
 21
-3578.9999999999968
 31
0.0
1001
ACDBBLOCKREPETAG
1070
     1
1071
       27
1005
12F176
  0
LINE
  5
12F177
  8
OBJECT
 10
3472.0
 20
-3578.9999999999968
 30
0.0
 11
3472.0
 21
-3515.9999999999968
 31
0.0
1001
ACDBBLOCKREPETAG
1070
     1
1071
       28
1005
12F177
  0
LINE
  5
12F178
  8
OBJECT
 10
3475.0
 20
-3578.9999999999968
 30
0.0
 11
3325.0
 21
-3578.9999999999968
 31
0.0
1001
ACDBBLOCKREPETAG
1070
     1
1071
       30
1005
12F178
  0
LINE
  5
12F179
  8
OBJECT
 10
3475.0
 20
-3578.9999999999968
 30
0.0
 11
3475.0
 21
-3702.9999999999968
 31
0.0
1001
ACDBBLOCKREPETAG
1070
     1
1071
       34
1005
12F179
  0
POINT
  5
12F17A
  8
DOTS
 10
3400.0
 20
-3699.9999999999968
 30
0.0
1001
ACDBBLOCKREPETAG
1070
     1
1071
      187
1005
12F17A
  0
LINE
  5
12F17B
  8
OBJECT
 10
2923.0
 20
-3515.9999999999968
 30
0.0
 11
2923.0
 21
-3494.9999999999968
 31
0.0
1001
ACDBBLOCKREPETAG
1070
     1
1071
        0
1005
12F17B
  0
LINE
  5
12F17C
  8
OBJECT
 10
2923.0
 20
-3494.9999999999968
 30
0.0
 11
3077.0
 21
-3494.9999999999968
 31
0.0
1001
ACDBBLOCKREPETAG
1070
     1
1071
        1
1005
12F17C
  0
LINE
  5
12F17D
  8
HIDDEN
 10
2943.0
 20
-3564.9999999999968
 30
0.0
 11
3057.0
 21
-3564.9999999999968
 31
0.0
1001
ACDBBLOCKREPETAG
1070
     1
1071
        2
1005
12F17D
  0
LINE
  5
12F17E
  8
OBJECT
 10
3077.0
 20
-3494.9999999999968
 30
0.0
 11
3077.0
 21
-3515.9999999999968
 31
0.0
1001
ACDBBLOCKREPETAG
1070
     1
1071
        3
1005
12F17E
  0
LINE
  5
12F17F
  8
OBJECT
 10
3077.0
 20
-3515.9999999999968
 30
0.0
 11
2923.0
 21
-3515.9999999999968
 31
0.0
1001
ACDBBLOCKREPETAG
1070
     1
1071
        4
1005
12F17F
  0
LINE
  5
12F180
  8
CENTER
 10
3000.0
 20
-3479.9999999999968
 30
0.0
 11
3000.0
 21
-3714.9999999999968
 31
0.0
1001
ACDBBLOCKREPETAG
1070
     1
1071
        5
1005
12F180
  0
LINE
  5
12F181
  8
OBJECT
 10
2925.0
 20
-3578.9999999999968
 30
0.0
 11
2925.0
 21
-3702.9999999999968
 31
0.0
1001
ACDBBLOCKREPETAG
1070
     1
1071
        6
1005
12F181
  0
LINE
  5
12F182
  8
OBJECT
 10
2928.0
 20
-3515.9999999999968
 30
0.0
 11
2928.0
 21
-3578.9999999999968
 31
0.0
1001
ACDBBLOCKREPETAG
1070
     1
1071
        7
1005
12F182
  0
LINE
  5
12F183
  8
OBJECT
 10
3072.0
 20
-3578.9999999999968
 30
0.0
 11
3072.0
 21
-3515.9999999999968
 31
0.0
1001
ACDBBLOCKREPETAG
1070
     1
1071
        8
1005
12F183
  0
LINE
  5
12F184
  8
OBJECT
 10
3074.9999999997999
 20
-3702.9999999997758
 30
0.0
 11
3080.0
 21
-3702.9999999999968
 31
0.0
1001
ACDBBLOCKREPETAG
1070
     1
1071
        9
1005
12F184
  0
LINE
  5
12F185
  8
OBJECT
 10
3080.0
 20
-3578.9999999999968
 30
0.0
 11
2925.0
 21
-3578.9999999999968
 31
0.0
1001
ACDBBLOCKREPETAG
1070
     1
1071
       10
1005
12F185
  0
ARC
  5
12F186
  8
OBJECT
 10
3200.6872746716722
 20
-3694.408099410105
 30
0.0
 40
170.6350503965856
 50
137.44134459184301
 51
149.9194958133665
1001
ACDBBLOCKREPETAG
1070
     1
1071
       15
1005
12F186
  0
ARC
  5
12F187
  8
OBJECT
 10
3118.8455987040511
 20
-3650.8827266953622
 30
0.0
 40
78.072222021763665
 50
147.4551531037684
 51
164.663659977186
1001
ACDBBLOCKREPETAG
1070
     1
1071
       16
1005
12F187
  0
ARC
  5
12F188
  8
OBJECT
 10
3085.7554349608731
 20
-3640.9999999999968
 30
0.0
 40
43.55353926885617
 50
165.6884523008477
 51
194.3115476991523
1001
ACDBBLOCKREPETAG
1070
     1
1071
       17
1005
12F188
  0
ARC
  5
12F189
  8
OBJECT
 10
3200.6872746716722
 20
-3587.5919005898891
 30
0.0
 40
170.6350503965856
 50
210.0805041866335
 51
222.55865540815699
1001
ACDBBLOCKREPETAG
1070
     1
1071
       18
1005
12F189
  0
ARC
  5
12F18A
  8
OBJECT
 10
3118.8455987040511
 20
-3631.1172733046319
 30
0.0
 40
78.072222021763665
 50
195.33634002281391
 51
212.5448468962316
1001
ACDBBLOCKREPETAG
1070
     1
1071
       19
1005
12F18A
  0
POINT
  5
12F18B
  8
DOTS
 10
3000.0
 20
-3699.9999999999968
 30
0.0
1001
ACDBBLOCKREPETAG
1070
     1
1071
      186
1005
12F18B
  0
LINE
  5
12F18C
  8
OBJECT
 10
2323.0
 20
-3515.9999999999968
 30
0.0
 11
2323.0
 21
-3494.9999999999968
 31
0.0
1001
ACDBBLOCKREPETAG
1070
     1
1071
       20
1005
12F18C
  0
LINE
  5
12F18D
  8
OBJECT
 10
2323.0
 20
-3494.9999999999968
 30
0.0
 11
2477.0
 21
-3494.9999999999968
 31
0.0
1001
ACDBBLOCKREPETAG
1070
     1
1071
       21
1005
12F18D
  0
LINE
  5
12F18E
  8
HIDDEN
 10
2343.0
 20
-3564.9999999999968
 30
0.0
 11
2457.0
 21
-3564.9999999999968
 31
0.0
1001
ACDBBLOCKREPETAG
1070
     1
1071
       22
1005
12F18E
  0
LINE
  5
12F18F
  8
OBJECT
 10
2477.0
 20
-3494.9999999999968
 30
0.0
 11
2477.0
 21
-3515.9999999999968
 31
0.0
1001
ACDBBLOCKREPETAG
1070
     1
1071
       23
1005
12F18F
  0
LINE
  5
12F190
  8
OBJECT
 10
2477.0
 20
-3515.9999999999968
 30
0.0
 11
2323.0
 21
-3515.9999999999968
 31
0.0
1001
ACDBBLOCKREPETAG
1070
     1
1071
       24
1005
12F190
  0
LINE
  5
12F191
  8
CENTER
 10
2400.0
 20
-3479.9999999999968
 30
0.0
 11
2400.0
 21
-3714.9999999999968
 31
0.0
1001
ACDBBLOCKREPETAG
1070
     1
1071
       25
1005
12F191
  0
LINE
  5
12F192
  8
OBJECT
 10
2325.0
 20
-3578.9999999999968
 30
0.0
 11
2325.0
 21
-3702.9999999999968
 31
0.0
1001
ACDBBLOCKREPETAG
1070
     1
1071
       26
1005
12F192
  0
LINE
  5
12F193
  8
OBJECT
 10
2328.0
 20
-3515.9999999999968
 30
0.0
 11
2328.0
 21
-3578.9999999999968
 31
0.0
1001
ACDBBLOCKREPETAG
1070
     1
1071
       27
1005
12F193
  0
LINE
  5
12F194
  8
OBJECT
 10
2472.0
 20
-3578.9999999999968
 30
0.0
 11
2472.0
 21
-3515.9999999999968
 31
0.0
1001
ACDBBLOCKREPETAG
1070
     1
1071
       28
1005
12F194
  0
LINE
  5
12F195
  8
OBJECT
 10
2475.0
 20
-3578.9999999999968
 30
0.0
 11
2325.0
 21
-3578.9999999999968
 31
0.0
1001
ACDBBLOCKREPETAG
1070
     1
1071
       30
1005
12F195
  0
LINE
  5
12F196
  8
OBJECT
 10
2475.0
 20
-3578.9999999999968
 30
0.0
 11
2475.0
 21
-3702.9999999999968
 31
0.0
1001
ACDBBLOCKREPETAG
1070
     1
1071
       34
1005
12F196
  0
POINT
  5
12F197
  8
DOTS
 10
2400.0
 20
-3699.9999999999968
 30
0.0
1001
ACDBBLOCKREPETAG
1070
     1
1071
      187
1005
12F197
  0
LINE
  5
12F198
  8
OBJECT
 10
1923.0
 20
-3515.9999999999968
 30
0.0
 11
1923.0
 21
-3494.9999999999968
 31
0.0
1001
ACDBBLOCKREPETAG
1070
     1
1071
        0
1005
12F198
  0
LINE
  5
12F199
  8
OBJECT
 10
1923.0
 20
-3494.9999999999968
 30
0.0
 11
2077.0
 21
-3494.9999999999968
 31
0.0
1001
ACDBBLOCKREPETAG
1070
     1
1071
        1
1005
12F199
  0
LINE
  5
12F19A
  8
HIDDEN
 10
1943.0
 20
-3564.9999999999968
 30
0.0
 11
2057.0
 21
-3564.9999999999968
 31
0.0
1001
ACDBBLOCKREPETAG
1070
     1
1071
        2
1005
12F19A
  0
LINE
  5
12F19B
  8
OBJECT
 10
2077.0
 20
-3494.9999999999968
 30
0.0
 11
2077.0
 21
-3515.9999999999968
 31
0.0
1001
ACDBBLOCKREPETAG
1070
     1
1071
        3
1005
12F19B
  0
LINE
  5
12F19C
  8
OBJECT
 10
2077.0
 20
-3515.9999999999968
 30
0.0
 11
1923.0
 21
-3515.9999999999968
 31
0.0
1001
ACDBBLOCKREPETAG
1070
     1
1071
        4
1005
12F19C
  0
LINE
  5
12F19D
  8
CENTER
 10
2000.0
 20
-3479.9999999999968
 30
0.0
 11
2000.0
 21
-3714.9999999999968
 31
0.0
1001
ACDBBLOCKREPETAG
1070
     1
1071
        5
1005
12F19D
  0
LINE
  5
12F19E
  8
OBJECT
 10
1925.0
 20
-3578.9999999999968
 30
0.0
 11
1925.0
 21
-3702.9999999999968
 31
0.0
1001
ACDBBLOCKREPETAG
1070
     1
1071
        6
1005
12F19E
  0
LINE
  5
12F19F
  8
OBJECT
 10
1928.0
 20
-3515.9999999999968
 30
0.0
 11
1928.0
 21
-3578.9999999999968
 31
0.0
1001
ACDBBLOCKREPETAG
1070
     1
1071
        7
1005
12F19F
  0
LINE
  5
12F1A0
  8
OBJECT
 10
2072.0
 20
-3578.9999999999968
 30
0.0
 11
2072.0
 21
-3515.9999999999968
 31
0.0
1001
ACDBBLOCKREPETAG
1070
     1
1071
        8
1005
12F1A0
  0
LINE
  5
12F1A1
  8
OBJECT
 10
2074.999999999799
 20
-3702.9999999997758
 30
0.0
 11
2080.0
 21
-3702.9999999999968
 31
0.0
1001
ACDBBLOCKREPETAG
1070
     1
1071
        9
1005
12F1A1
  0
LINE
  5
12F1A2
  8
OBJECT
 10
2080.0
 20
-3578.9999999999968
 30
0.0
 11
1925.0
 21
-3578.9999999999968
 31
0.0
1001
ACDBBLOCKREPETAG
1070
     1
1071
       10
1005
12F1A2
  0
ARC
  5
12F1A3
  8
OBJECT
 10
2200.6872746716731
 20
-3694.408099410105
 30
0.0
 40
170.6350503965856
 50
137.44134459184301
 51
149.91949581335999
1001
ACDBBLOCKREPETAG
1070
     1
1071
       15
1005
12F1A3
  0
ARC
  5
12F1A4
  8
OBJECT
 10
2118.8455987040511
 20
-3650.8827266953622
 30
0.0
 40
78.072222021763665
 50
147.45515310377539
 51
164.663659977186
1001
ACDBBLOCKREPETAG
1070
     1
1071
       16
1005
12F1A4
  0
ARC
  5
12F1A5
  8
OBJECT
 10
2085.7554349608731
 20
-3640.9999999999968
 30
0.0
 40
43.55353926885617
 50
165.6884523008477
 51
194.3115476991523
1001
ACDBBLOCKREPETAG
1070
     1
1071
       17
1005
12F1A5
  0
ARC
  5
12F1A6
  8
OBJECT
 10
2200.6872746716731
 20
-3587.5919005898891
 30
0.0
 40
170.6350503965856
 50
210.08050418664001
 51
222.55865540815699
1001
ACDBBLOCKREPETAG
1070
     1
1071
       18
1005
12F1A6
  0
ARC
  5
12F1A7
  8
OBJECT
 10
2118.8455987040511
 20
-3631.1172733046319
 30
0.0
 40
78.072222021763665
 50
195.33634002281391
 51
212.54484689622461
1001
ACDBBLOCKREPETAG
1070
     1
1071
       19
1005
12F1A7
  0
POINT
  5
12F1A8
  8
DOTS
 10
2000.0
 20
-3699.9999999999968
 30
0.0
1001
ACDBBLOCKREPETAG
1070
     1
1071
      186
1005
12F1A8
  0
LINE
  5
12F1A9
  8
DIM
 10
2150.0
 20
-3341.9999999999959
 30
0.0
 11
2228.479620594459
 21
-3341.9999999999959
 31
0.0
  0
LINE
  5
12F1AA
  8
DIM
 10
2150.0
 20
-3247.9999999999959
 30
0.0
 11
2228.479620594459
 21
-3247.9999999999959
 31
0.0
  0
LINE
  5
12F1AB
  8
DIM
 10
2218.479620594459
 20
-3321.9999999999959
 30
0.0
 11
2218.479620594459
 21
-3267.9999999999959
 31
0.0
  0
INSERT
  5
12F1AC
  8
DIM
  2
_OPEN30
 10
2218.479620594459
 20
-3341.9999999999959
 30
0.0
 41
20.0
 42
20.0
 43
20.0
 50
270.0
  0
INSERT
  5
12F1AD
  8
DIM
  2
_OPEN30
 10
2218.479620594459
 20
-3247.9999999999959
 30
0.0
 41
20.0
 42
20.0
 43
20.0
 50
90.0
  0
INSERT
  5
12F1AE
  8
OBJECT
  2
*U36
 10
0.0
 20
0.0
 30
0.0
  0
LINE
  5
12F1AF
  8
DIM
 10
2150.0
 20
-3699.9999999999968
 30
0.0
 11
2226.8409284037339
 21
-3699.9999999999968
 31
0.0
  0
LINE
  5
12F1B0
  8
DIM
 10
2165.0
 20
-3655.9999999999968
 30
0.0
 11
2226.8409284037339
 21
-3655.9999999999968
 31
0.0
  0
LINE
  5
12F1B1
  8
DIM
 10
2216.840928403733
 20
-3719.9999999999968
 30
0.0
 11
2216.840928403733
 21
-3739.9999999999968
 31
0.0
  0
LINE
  5
12F1B2
  8
DIM
 10
2216.840928403733
 20
-3635.9999999999968
 30
0.0
 11
2216.840928403733
 21
-3615.9999999999968
 31
0.0
  0
LINE
  5
12F1B3
  8
DIM
 10
2216.840928403733
 20
-3699.9999999999968
 30
0.0
 11
2216.840928403733
 21
-3655.9999999999968
 31
0.0
  0
INSERT
  5
12F1B4
  8
DIM
  2
_OPEN30
 10
2216.840928403733
 20
-3699.9999999999968
 30
0.0
 41
20.0
 42
20.0
 43
20.0
 50
90.0
  0
INSERT
  5
12F1B5
  8
DIM
  2
_OPEN30
 10
2216.840928403733
 20
-3655.9999999999968
 30
0.0
 41
20.0
 42
20.0
 43
20.0
 50
270.0
  0
INSERT
  5
12F1B6
  8
OBJECT
  2
*U37
 10
0.0
 20
0.0
 30
0.0
  0
LINE
  5
12F1B7
  8
DIM
 10
2000.0
 20
-3189.9999999999959
 30
0.0
 11
2000.0
 21
-3157.2081219844449
 31
0.0
  0
LINE
  5
12F1B8
  8
DIM
 10
2140.0
 20
-3237.9999999999959
 30
0.0
 11
2140.0
 21
-3157.2081219844449
 31
0.0
  0
LINE
  5
12F1B9
  8
DIM
 10
2020.0
 20
-3167.208121984444
 30
0.0
 11
2120.0
 21
-3167.208121984444
 31
0.0
  0
INSERT
  5
12F1BA
  8
DIM
  2
_OPEN30
 10
2000.0
 20
-3167.208121984444
 30
0.0
 41
20.0
 42
20.0
 43
20.0
 50
180.0
  0
INSERT
  5
12F1BB
  8
DIM
  2
_OPEN30
 10
2140.0
 20
-3167.208121984444
 30
0.0
 41
20.0
 42
20.0
 43
20.0
  0
INSERT
  5
12F1BC
  8
OBJECT
  2
*U38
 10
0.0
 20
0.0
 30
0.0
  0
TEXT
  5
12F1BD
  8
SLIM
 10
2631.0
 20
-3072.50001604727
 30
0.0
 40
40.0
  1
C寸法
 41
0.75
  0
TEXT
  5
12F1BE
  8
SLIM
 10
2631.0
 20
-3002.50001604727
 30
0.0
 40
40.0
  1
B寸法
 41
0.75
  0
TEXT
  5
12F1BF
  8
SLIM
 10
2630.2857142857142
 20
-2932.50001604727
 30
0.0
 40
40.0
  1
A寸法
 41
0.75
  0
TEXT
  5
12F1C0
  8
SLIM
 10
3159.2857142857151
 20
-3072.50001604727
 30
0.0
 40
40.0
  1
150
 41
0.75
  0
TEXT
  5
12F1C1
  8
SLIM
 10
3029.2857142857151
 20
-3072.50001604727
 30
0.0
 40
40.0
  1
140
 41
0.75
  0
TEXT
  5
12F1C2
  8
SLIM
 10
2769.2857142857151
 20
-3072.50001604727
 30
0.0
 40
40.0
  1
140
 41
0.75
  0
TEXT
  5
12F1C3
  8
SLIM
 10
2899.2857142857151
 20
-3072.50001604727
 30
0.0
 40
40.0
  1
140
 41
0.75
  0
TEXT
  5
12F1C4
  8
SLIM
 10
3170.7142857142858
 20
-3002.50001604727
 30
0.0
 40
40.0
  1
72
 41
0.75
  0
TEXT
  5
12F1C5
  8
SLIM
 10
3041.4285714285711
 20
-3002.50001604727
 30
0.0
 40
40.0
  1
59
 41
0.75
  0
TEXT
  5
12F1C6
  8
SLIM
 10
2780.0
 20
-3002.50001604727
 30
0.0
 40
40.0
  1
44
 41
0.75
  0
TEXT
  5
12F1C7
  8
SLIM
 10
2910.7142857142858
 20
-3002.50001604727
 30
0.0
 40
40.0
  1
52
 41
0.75
  0
TEXT
  5
12F1C8
  8
SLIM
 10
2891.0
 20
-2807.50001604727
 30
0.0
 40
40.0
  1
横枝管サイズ
 41
0.75
  0
TEXT
  5
12F1C9
  8
SLIM
 10
3136.2857142857151
 20
-2862.50001604727
 30
0.0
 40
30.0
  1
100（4）
 41
0.75
  0
TEXT
  5
12F1CA
  8
SLIM
 10
3014.857142857144
 20
-2862.50001604727
 30
0.0
 40
30.0
  1
75（3）
 41
0.75
  0
TEXT
  5
12F1CB
  8
SLIM
 10
2884.8571428571431
 20
-2862.50001604727
 30
0.0
 40
30.0
  1
65（2）
 41
0.75
  0
TEXT
  5
12F1CC
  8
SLIM
 10
2757.0
 20
-2862.50001604727
 30
0.0
 40
30.0
  1
50（1）
 41
0.75
  0
TEXT
  5
12F1CD
  8
SLIM
 10
3159.2857142857151
 20
-2932.50001604727
 30
0.0
 40
40.0
  1
150
 41
0.75
  0
TEXT
  5
12F1CE
  8
SLIM
 10
3028.571428571428
 20
-2932.50001604727
 30
0.0
 40
40.0
  1
124
 41
0.75
  0
TEXT
  5
12F1CF
  8
SLIM
 10
2780.0
 20
-2932.50001604727
 30
0.0
 40
40.0
  1
94
 41
0.75
  0
TEXT
  5
12F1D0
  8
SLIM
 10
2902.1428571428569
 20
-2932.50001604727
 30
0.0
 40
40.0
  1
110
 41
0.75
  0
TEXT
  5
12F1D1
  8
SLIM
 10
1849.9999999999991
 20
-2832.5
 30
0.0
 40
75.0
  1
枝管サイズ毎の形状
 41
0.75
  0
LINE
  5
12F1D2
  8
OBJECT
 10
5150.0
 20
-3552.9999999999968
 30
0.0
 11
5143.0
 21
-3552.9999999999968
 31
0.0
1001
ACDBBLOCKREPETAG
1070
     1
1071
       64
1005
12F1D2
  0
LINE
  5
12F1D3
  8
OBJECT
 10
5143.0
 20
-3552.9999999999968
 30
0.0
 11
5143.0
 21
-3699.9999999999968
 31
0.0
1001
ACDBBLOCKREPETAG
1070
     1
1071
       65
1005
12F1D3
  0
LINE
  5
12F1D4
  8
OBJECT
 10
5101.5
 20
-3555.9999999999968
 30
0.0
 11
5101.5
 21
-3699.9999999999968
 31
0.0
1001
ACDBBLOCKREPETAG
1070
     1
1071
       66
1005
12F1D4
  0
LINE
  5
12F1D5
  8
OBJECT
 10
5090.0
 20
-3562.4999999999968
 30
0.0
 11
5090.0
 21
-3693.4999999999968
 31
0.0
1001
ACDBBLOCKREPETAG
1070
     1
1071
       67
1005
12F1D5
  0
LINE
  5
12F1D6
  8
OBJECT
 10
5086.0
 20
-3634.5000000000041
 30
0.0
 11
5086.0
 21
-3699.9999999999968
 31
0.0
1001
ACDBBLOCKREPETAG
1070
     1
1071
       68
1005
12F1D6
  0
LINE
  5
12F1D7
  8
OBJECT
 10
5150.0
 20
-3699.9999999999968
 30
0.0
 11
5150.0
 21
-3552.9999999999968
 31
0.0
1001
ACDBBLOCKREPETAG
1070
     1
1071
       69
1005
12F1D7
  0
LINE
  5
12F1D8
  8
CENTER
 10
5165.0
 20
-3627.9999999999968
 30
0.0
 11
5070.4144144144157
 21
-3627.9999999999968
 31
0.0
1001
ACDBBLOCKREPETAG
1070
     1
1071
       70
1005
12F1D8
  0
LINE
  5
12F1D9
  8
OBJECT
 10
5083.0000000000045
 20
-3702.9999999999968
 30
0.0
 11
5080.0
 21
-3702.9999999999968
 31
0.0
1001
ACDBBLOCKREPETAG
1070
     1
1071
       71
1005
12F1D9
  0
ARC
  5
12F1DA
  8
OBJECT
 10
5091.8815171830656
 20
-3701.4555591801432
 30
0.0
 40
6.0
 50
60.52411099686767
 51
170.6927439126847
1001
ACDBBLOCKREPETAG
1070
     1
1071
       72
1005
12F1DA
  0
ARC
  5
12F1DB
  8
OBJECT
 10
5083.0
 20
-3699.9999999999968
 30
0.0
 40
3.0
 50
270.0
 51
350.69274391268482
1001
ACDBBLOCKREPETAG
1070
     1
1071
       73
1005
12F1DB
  0
LINE
  5
12F1DC
  8
OBJECT
 10
5081.0
 20
-3578.9999999999968
 30
0.0
 11
5080.0
 21
-3578.9999999999968
 31
0.0
1001
ACDBBLOCKREPETAG
1070
     1
1071
       74
1005
12F1DC
  0
LINE
  5
12F1DD
  8
OBJECT
 10
5150.0
 20
-3699.9999999999968
 30
0.0
 11
5101.5
 21
-3699.9999999999968
 31
0.0
1001
ACDBBLOCKREPETAG
1070
     1
1071
       75
1005
12F1DD
  0
LINE
  5
12F1DE
  8
OBJECT
 10
5101.5
 20
-3555.9999999999968
 30
0.0
 11
5090.0
 21
-3562.4999999999968
 31
0.0
1001
ACDBBLOCKREPETAG
1070
     1
1071
       76
1005
12F1DE
  0
LINE
  5
12F1DF
  8
OBJECT
 10
5143.0
 20
-3555.9999999999968
 30
0.0
 11
5101.5
 21
-3555.9999999999968
 31
0.0
1001
ACDBBLOCKREPETAG
1070
     1
1071
       77
1005
12F1DF
  0
LINE
  5
12F1E0
  8
OBJECT
 10
5086.0
 20
-3634.5000000000041
 30
0.0
 11
5081.0
 21
-3578.9999999999968
 31
0.0
1001
ACDBBLOCKREPETAG
1070
     1
1071
       78
1005
12F1E0
  0
LINE
  5
12F1E1
  8
OBJECT
 10
5090.0
 20
-3562.4999999999968
 30
0.0
 11
5081.0
 21
-3578.9999999999968
 31
0.0
1001
ACDBBLOCKREPETAG
1070
     1
1071
       79
1005
12F1E1
  0
LINE
  5
12F1E2
  8
OBJECT
 10
5101.5
 20
-3699.9999999999968
 30
0.0
 11
5094.8338607230708
 21
-3696.232182147819
 31
0.0
1001
ACDBBLOCKREPETAG
1070
     1
1071
       80
1005
12F1E2
  0
LINE
  5
12F1E3
  8
HIDDEN
 10
5098.0
 20
-3684.9999999999968
 30
0.0
 11
5098.0
 21
-3570.9999999999968
 31
0.0
1001
ACDBBLOCKREPETAG
1070
     1
1071
       81
1005
12F1E3
  0
LINE
  5
12F1E4
  8
OBJECT
 10
5150.0
 20
-3219.9999999999959
 30
0.0
 11
5143.0
 21
-3219.9999999999959
 31
0.0
1001
ACDBBLOCKREPETAG
1070
     1
1071
       67
1005
12F1E4
  0
LINE
  5
12F1E5
  8
OBJECT
 10
5143.0
 20
-3219.9999999999959
 30
0.0
 11
5143.0
 21
-3369.9999999999959
 31
0.0
1001
ACDBBLOCKREPETAG
1070
     1
1071
       68
1005
12F1E5
  0
LINE
  5
12F1E6
  8
OBJECT
 10
5101.5
 20
-3222.9999999999959
 30
0.0
 11
5101.5
 21
-3366.9999999999959
 31
0.0
1001
ACDBBLOCKREPETAG
1070
     1
1071
       69
1005
12F1E6
  0
LINE
  5
12F1E7
  8
OBJECT
 10
5090.0
 20
-3229.4999999999959
 30
0.0
 11
5090.0
 21
-3360.4999999999959
 31
0.0
1001
ACDBBLOCKREPETAG
1070
     1
1071
       70
1005
12F1E7
  0
LINE
  5
12F1E8
  8
OBJECT
 10
5143.0
 20
-3369.9999999999959
 30
0.0
 11
5150.0
 21
-3369.9999999999959
 31
0.0
1001
ACDBBLOCKREPETAG
1070
     1
1071
       71
1005
12F1E8
  0
LINE
  5
12F1E9
  8
OBJECT
 10
5150.0
 20
-3369.9999999999959
 30
0.0
 11
5150.0
 21
-3219.9999999999959
 31
0.0
1001
ACDBBLOCKREPETAG
1070
     1
1071
       72
1005
12F1E9
  0
LINE
  5
12F1EA
  8
HIDDEN
 10
5098.0
 20
-3351.9999999999959
 30
0.0
 11
5098.0
 21
-3237.9999999999959
 31
0.0
1001
ACDBBLOCKREPETAG
1070
     1
1071
       73
1005
12F1EA
  0
LINE
  5
12F1EB
  8
CENTER
 10
5165.0
 20
-3294.9999999999959
 30
0.0
 11
5080.0
 21
-3294.9999999999959
 31
0.0
1001
ACDBBLOCKREPETAG
1070
     1
1071
       74
1005
12F1EB
  0
LINE
  5
12F1EC
  8
OBJECT
 10
5086.0
 20
-3356.9999999999959
 30
0.0
 11
5080.0
 21
-3356.9999999999959
 31
0.0
1001
ACDBBLOCKREPETAG
1070
     1
1071
       75
1005
12F1EC
  0
LINE
  5
12F1ED
  8
OBJECT
 10
5143.0
 20
-3366.9999999999959
 30
0.0
 11
5101.5
 21
-3366.9999999999959
 31
0.0
1001
ACDBBLOCKREPETAG
1070
     1
1071
       76
1005
12F1ED
  0
LINE
  5
12F1EE
  8
OBJECT
 10
5101.5
 20
-3366.9999999999959
 30
0.0
 11
5090.0
 21
-3360.4999999999959
 31
0.0
1001
ACDBBLOCKREPETAG
1070
     1
1071
       77
1005
12F1EE
  0
LINE
  5
12F1EF
  8
OBJECT
 10
5090.0
 20
-3360.4999999999959
 30
0.0
 11
5086.0
 21
-3356.9999999999959
 31
0.0
1001
ACDBBLOCKREPETAG
1070
     1
1071
       78
1005
12F1EF
  0
LINE
  5
12F1F0
  8
OBJECT
 10
5101.5
 20
-3222.9999999999959
 30
0.0
 11
5090.0
 21
-3229.4999999999959
 31
0.0
1001
ACDBBLOCKREPETAG
1070
     1
1071
       79
1005
12F1F0
  0
LINE
  5
12F1F1
  8
OBJECT
 10
5090.0
 20
-3229.4999999999959
 30
0.0
 11
5086.0
 21
-3232.9999999999959
 31
0.0
1001
ACDBBLOCKREPETAG
1070
     1
1071
       80
1005
12F1F1
  0
ARC
  5
12F1F2
  8
OBJECT
 10
5467.9000000000005
 20
-3294.9999999999959
 30
0.0
 40
386.89999999999998
 50
170.77870136260421
 51
189.22129863739571
1001
ACDBBLOCKREPETAG
1070
     1
1071
       81
1005
12F1F2
  0
LINE
  5
12F1F3
  8
OBJECT
 10
5086.0
 20
-3232.9999999999959
 30
0.0
 11
5080.0
 21
-3232.9999999999959
 31
0.0
1001
ACDBBLOCKREPETAG
1070
     1
1071
       82
1005
12F1F3
  0
LINE
  5
12F1F4
  8
OBJECT
 10
5143.0
 20
-3222.9999999999959
 30
0.0
 11
5101.5
 21
-3222.9999999999959
 31
0.0
1001
ACDBBLOCKREPETAG
1070
     1
1071
       83
1005
12F1F4
  0
TEXT
  5
12F1F5
  8
SLIM
 10
4884.25
 20
-3817.4999999999959
 30
0.0
 40
35.0
  1
通常枝100（4）
 41
0.75
  0
LINE
  5
12F1F6
  8
CENTER
 10
4477.0
 20
-3640.9999999999968
 30
0.0
 11
4323.0
 21
-3640.9999999999968
 31
0.0
1001
ACDBBLOCKREPETAG
1070
     1
1071
       17
1005
12F1F6
  0
CIRCLE
  5
12F1F7
  8
OBJECT
 10
4400.0
 20
-3640.9999999999968
 30
0.0
 40
41.5
1001
ACDBBLOCKREPETAG
1070
     1
1071
       19
1005
12F1F7
  0
CIRCLE
  5
12F1F8
  8
OBJECT
 10
4400.0
 20
-3640.9999999999968
 30
0.0
 40
54.0
1001
ACDBBLOCKREPETAG
1070
     1
1071
       20
1005
12F1F8
  0
ARC
  5
12F1F9
  8
OBJECT
 10
4400.0
 20
-3640.9999999999968
 30
0.0
 40
62.0
 50
287.89655112921122
 51
252.1034488707887
1001
ACDBBLOCKREPETAG
1070
     1
1071
       21
1005
12F1F9
  0
LINE
  5
12F1FA
  8
OBJECT
 10
4380.947441116743
 20
-3699.9999999999968
 30
0.0
 11
4419.052558883257
 21
-3699.9999999999968
 31
0.0
1001
ACDBBLOCKREPETAG
1070
     1
1071
       22
1005
12F1FA
  0
LINE
  5
12F1FB
  8
OBJECT
 10
4133.0
 20
-3578.9999999999968
 30
0.0
 11
4140.0
 21
-3578.9999999999968
 31
0.0
1001
ACDBBLOCKREPETAG
1070
     1
1071
       45
1005
12F1FB
  0
LINE
  5
12F1FC
  8
OBJECT
 10
4140.0
 20
-3578.9999999999968
 30
0.0
 11
4140.0
 21
-3699.9999999999968
 31
0.0
1001
ACDBBLOCKREPETAG
1070
     1
1071
       46
1005
12F1FC
  0
LINE
  5
12F1FD
  8
OBJECT
 10
4133.0
 20
-3699.9999999999968
 30
0.0
 11
4133.0
 21
-3578.9999999999968
 31
0.0
1001
ACDBBLOCKREPETAG
1070
     1
1071
       47
1005
12F1FD
  0
LINE
  5
12F1FE
  8
CENTER
 10
4155.0
 20
-3640.9999999999968
 30
0.0
 11
4071.0
 21
-3640.9999999999968
 31
0.0
1001
ACDBBLOCKREPETAG
1070
     1
1071
       48
1005
12F1FE
  0
LINE
  5
12F1FF
  8
OBJECT
 10
4133.0
 20
-3581.9999999999968
 30
0.0
 11
4097.0
 21
-3581.9999999999968
 31
0.0
1001
ACDBBLOCKREPETAG
1070
     1
1071
       49
1005
12F1FF
  0
LINE
  5
12F200
  8
OBJECT
 10
4097.0
 20
-3581.9999999999968
 30
0.0
 11
4097.0
 21
-3699.9999999999968
 31
0.0
1001
ACDBBLOCKREPETAG
1070
     1
1071
       50
1005
12F200
  0
LINE
  5
12F201
  8
OBJECT
 10
4097.0
 20
-3699.9999999999968
 30
0.0
 11
4140.0
 21
-3699.9999999999968
 31
0.0
1001
ACDBBLOCKREPETAG
1070
     1
1071
       51
1005
12F201
  0
LINE
  5
12F202
  8
OBJECT
 10
4093.0
 20
-3586.4999999999968
 30
0.0
 11
4086.0
 21
-3586.4999999999968
 31
0.0
1001
ACDBBLOCKREPETAG
1070
     1
1071
       52
1005
12F202
  0
LINE
  5
12F203
  8
OBJECT
 10
4086.0
 20
-3695.4999999999968
 30
0.0
 11
4093.0
 21
-3695.4999999999968
 31
0.0
1001
ACDBBLOCKREPETAG
1070
     1
1071
       53
1005
12F203
  0
LINE
  5
12F204
  8
OBJECT
 10
4093.0
 20
-3695.4999999999968
 30
0.0
 11
4093.0
 21
-3586.4999999999968
 31
0.0
1001
ACDBBLOCKREPETAG
1070
     1
1071
       54
1005
12F204
  0
LINE
  5
12F205
  8
OBJECT
 10
4097.0
 20
-3581.9999999999968
 30
0.0
 11
4093.0
 21
-3586.4999999999968
 31
0.0
1001
ACDBBLOCKREPETAG
1070
     1
1071
       55
1005
12F205
  0
LINE
  5
12F206
  8
OBJECT
 10
4097.0
 20
-3699.9999999999968
 30
0.0
 11
4093.0
 21
-3695.4999999999968
 31
0.0
1001
ACDBBLOCKREPETAG
1070
     1
1071
       56
1005
12F206
  0
LINE
  5
12F207
  8
OBJECT
 10
4083.0
 20
-3578.9999999999968
 30
0.0
 11
4080.0
 21
-3578.9999999999968
 31
0.0
1001
ACDBBLOCKREPETAG
1070
     1
1071
       57
1005
12F207
  0
ARC
  5
12F208
  8
OBJECT
 10
4083.0
 20
-3581.9999999999968
 30
0.0
 40
3.0
 50
0.0
 51
90.0
1001
ACDBBLOCKREPETAG
1070
     1
1071
       58
1005
12F208
  0
LINE
  5
12F209
  8
OBJECT
 10
4080.0
 20
-3702.9999999999968
 30
0.0
 11
4083.0
 21
-3702.9999999999968
 31
0.0
1001
ACDBBLOCKREPETAG
1070
     1
1071
       59
1005
12F209
  0
ARC
  5
12F20A
  8
OBJECT
 10
4083.0
 20
-3699.9999999999968
 30
0.0
 40
3.0
 50
270.0
 51
0.0
1001
ACDBBLOCKREPETAG
1070
     1
1071
       60
1005
12F20A
  0
LINE
  5
12F20B
  8
OBJECT
 10
4086.0
 20
-3699.9999999999968
 30
0.0
 11
4086.0
 21
-3581.9999999999968
 31
0.0
1001
ACDBBLOCKREPETAG
1070
     1
1071
       61
1005
12F20B
  0
LINE
  5
12F20C
  8
HIDDEN
 10
4088.0
 20
-3596.4999999999968
 30
0.0
 11
4088.0
 21
-3685.4999999999968
 31
0.0
1001
ACDBBLOCKREPETAG
1070
     1
1071
       63
1005
12F20C
  0
LINE
  5
12F20D
  8
OBJECT
 10
4133.0
 20
-3232.9999999999959
 30
0.0
 11
4140.0
 21
-3232.9999999999959
 31
0.0
1001
ACDBBLOCKREPETAG
1070
     1
1071
       47
1005
12F20D
  0
LINE
  5
12F20E
  8
OBJECT
 10
4140.0
 20
-3232.9999999999959
 30
0.0
 11
4140.0
 21
-3356.9999999999959
 31
0.0
1001
ACDBBLOCKREPETAG
1070
     1
1071
       48
1005
12F20E
  0
LINE
  5
12F20F
  8
OBJECT
 10
4140.0
 20
-3356.9999999999959
 30
0.0
 11
4133.0
 21
-3356.9999999999959
 31
0.0
1001
ACDBBLOCKREPETAG
1070
     1
1071
       49
1005
12F20F
  0
LINE
  5
12F210
  8
OBJECT
 10
4133.0
 20
-3356.9999999999959
 30
0.0
 11
4133.0
 21
-3232.9999999999959
 31
0.0
1001
ACDBBLOCKREPETAG
1070
     1
1071
       50
1005
12F210
  0
LINE
  5
12F211
  8
CENTER
 10
4155.0
 20
-3294.9999999999959
 30
0.0
 11
4080.0
 21
-3294.9999999999959
 31
0.0
1001
ACDBBLOCKREPETAG
1070
     1
1071
       51
1005
12F211
  0
LINE
  5
12F212
  8
OBJECT
 10
4133.0
 20
-3235.9999999999959
 30
0.0
 11
4097.0
 21
-3235.9999999999959
 31
0.0
1001
ACDBBLOCKREPETAG
1070
     1
1071
       52
1005
12F212
  0
LINE
  5
12F213
  8
OBJECT
 10
4097.0
 20
-3235.9999999999959
 30
0.0
 11
4097.0
 21
-3353.9999999999959
 31
0.0
1001
ACDBBLOCKREPETAG
1070
     1
1071
       53
1005
12F213
  0
LINE
  5
12F214
  8
OBJECT
 10
4097.0
 20
-3353.9999999999959
 30
0.0
 11
4133.0
 21
-3353.9999999999959
 31
0.0
1001
ACDBBLOCKREPETAG
1070
     1
1071
       54
1005
12F214
  0
LINE
  5
12F215
  8
OBJECT
 10
4093.0
 20
-3240.4999999999959
 30
0.0
 11
4086.0
 21
-3240.4999999999959
 31
0.0
1001
ACDBBLOCKREPETAG
1070
     1
1071
       55
1005
12F215
  0
LINE
  5
12F216
  8
OBJECT
 10
4086.0
 20
-3349.4999999999959
 30
0.0
 11
4093.0
 21
-3349.4999999999959
 31
0.0
1001
ACDBBLOCKREPETAG
1070
     1
1071
       56
1005
12F216
  0
LINE
  5
12F217
  8
OBJECT
 10
4093.0
 20
-3349.4999999999959
 30
0.0
 11
4093.0
 21
-3240.4999999999959
 31
0.0
1001
ACDBBLOCKREPETAG
1070
     1
1071
       57
1005
12F217
  0
LINE
  5
12F218
  8
OBJECT
 10
4097.0
 20
-3235.9999999999959
 30
0.0
 11
4093.0
 21
-3240.4999999999959
 31
0.0
1001
ACDBBLOCKREPETAG
1070
     1
1071
       58
1005
12F218
  0
LINE
  5
12F219
  8
OBJECT
 10
4097.0
 20
-3353.9999999999959
 30
0.0
 11
4093.0
 21
-3349.4999999999959
 31
0.0
1001
ACDBBLOCKREPETAG
1070
     1
1071
       59
1005
12F219
  0
LINE
  5
12F21A
  8
OBJECT
 10
4083.0
 20
-3232.9999999999959
 30
0.0
 11
4080.0
 21
-3232.9999999999959
 31
0.0
1001
ACDBBLOCKREPETAG
1070
     1
1071
       60
1005
12F21A
  0
ARC
  5
12F21B
  8
OBJECT
 10
4083.0
 20
-3235.9999999999959
 30
0.0
 40
3.0
 50
0.0
 51
90.0
1001
ACDBBLOCKREPETAG
1070
     1
1071
       61
1005
12F21B
  0
LINE
  5
12F21C
  8
OBJECT
 10
4080.0
 20
-3356.9999999999959
 30
0.0
 11
4083.0
 21
-3356.9999999999959
 31
0.0
1001
ACDBBLOCKREPETAG
1070
     1
1071
       62
1005
12F21C
  0
ARC
  5
12F21D
  8
OBJECT
 10
4083.0
 20
-3353.9999999999959
 30
0.0
 40
3.0
 50
270.0
 51
0.0
1001
ACDBBLOCKREPETAG
1070
     1
1071
       63
1005
12F21D
  0
LINE
  5
12F21E
  8
OBJECT
 10
4086.0
 20
-3353.9999999999959
 30
0.0
 11
4086.0
 21
-3235.9999999999959
 31
0.0
1001
ACDBBLOCKREPETAG
1070
     1
1071
       64
1005
12F21E
  0
LINE
  5
12F21F
  8
HIDDEN
 10
4088.0
 20
-3250.4999999999959
 30
0.0
 11
4088.0
 21
-3339.4999999999959
 31
0.0
1001
ACDBBLOCKREPETAG
1070
     1
1071
       65
1005
12F21F
  0
TEXT
  5
12F220
  8
SLIM
 10
3894.25
 20
-3817.4999999999959
 30
0.0
 40
35.0
  1
通常枝75（3）
 41
0.75
  0
CIRCLE
  5
12F221
  8
OBJECT
 10
3400.0
 20
-3647.9999999999968
 30
0.0
 40
35.5
1001
ACDBBLOCKREPETAG
1070
     1
1071
       10
1005
12F221
  0
CIRCLE
  5
12F222
  8
OBJECT
 10
3400.0
 20
-3640.9999999999968
 30
0.0
 40
62.0
1001
ACDBBLOCKREPETAG
1070
     1
1071
       11
1005
12F222
  0
LINE
  5
12F223
  8
CENTER
 10
3330.0
 20
-3647.9999999999968
 30
0.0
 11
3470.0
 21
-3647.9999999999968
 31
0.0
1001
ACDBBLOCKREPETAG
1070
     1
1071
       12
1005
12F223
  0
CIRCLE
  5
12F224
  8
OBJECT
 10
3400.0
 20
-3647.9999999999968
 30
0.0
 40
47.0
1001
ACDBBLOCKREPETAG
1070
     1
1071
       14
1005
12F224
  0
ARC
  5
12F225
  8
OBJECT
 10
3400.0
 20
-3647.9999999999968
 30
0.0
 40
55.0
 50
289.01126526011359
 51
250.98873473988641
1001
ACDBBLOCKREPETAG
1070
     1
1071
       15
1005
12F225
  0
LINE
  5
12F226
  8
OBJECT
 10
3382.0835271328328
 20
-3699.9999999999968
 30
0.0
 11
3417.9164728671681
 21
-3699.9999999999968
 31
0.0
1001
ACDBBLOCKREPETAG
1070
     1
1071
       16
1005
12F226
  0
LINE
  5
12F227
  8
OBJECT
 10
3133.0
 20
-3592.9999999999968
 30
0.0
 11
3140.0
 21
-3592.9999999999968
 31
0.0
1001
ACDBBLOCKREPETAG
1070
     1
1071
       26
1005
12F227
  0
LINE
  5
12F228
  8
OBJECT
 10
3140.0
 20
-3592.9999999999968
 30
0.0
 11
3140.0
 21
-3699.9999999999968
 31
0.0
1001
ACDBBLOCKREPETAG
1070
     1
1071
       27
1005
12F228
  0
LINE
  5
12F229
  8
OBJECT
 10
3133.0
 20
-3699.9999999999968
 30
0.0
 11
3133.0
 21
-3592.9999999999968
 31
0.0
1001
ACDBBLOCKREPETAG
1070
     1
1071
       28
1005
12F229
  0
LINE
  5
12F22A
  8
CENTER
 10
3155.0
 20
-3647.9999999999968
 30
0.0
 11
3071.0
 21
-3647.9999999999968
 31
0.0
1001
ACDBBLOCKREPETAG
1070
     1
1071
       29
1005
12F22A
  0
LINE
  5
12F22B
  8
OBJECT
 10
3133.0
 20
-3595.9999999999968
 30
0.0
 11
3097.0
 21
-3595.9999999999968
 31
0.0
1001
ACDBBLOCKREPETAG
1070
     1
1071
       30
1005
12F22B
  0
LINE
  5
12F22C
  8
OBJECT
 10
3097.0
 20
-3595.9999999999968
 30
0.0
 11
3097.0
 21
-3699.9999999999968
 31
0.0
1001
ACDBBLOCKREPETAG
1070
     1
1071
       31
1005
12F22C
  0
LINE
  5
12F22D
  8
OBJECT
 10
3097.0
 20
-3699.9999999999968
 30
0.0
 11
3140.0
 21
-3699.9999999999968
 31
0.0
1001
ACDBBLOCKREPETAG
1070
     1
1071
       32
1005
12F22D
  0
LINE
  5
12F22E
  8
OBJECT
 10
3093.0
 20
-3600.4999999999968
 30
0.0
 11
3086.0
 21
-3600.4999999999968
 31
0.0
1001
ACDBBLOCKREPETAG
1070
     1
1071
       33
1005
12F22E
  0
LINE
  5
12F22F
  8
OBJECT
 10
3086.0
 20
-3695.4999999999968
 30
0.0
 11
3093.0
 21
-3695.4999999999968
 31
0.0
1001
ACDBBLOCKREPETAG
1070
     1
1071
       34
1005
12F22F
  0
LINE
  5
12F230
  8
OBJECT
 10
3093.0
 20
-3695.4999999999968
 30
0.0
 11
3093.0
 21
-3600.4999999999968
 31
0.0
1001
ACDBBLOCKREPETAG
1070
     1
1071
       35
1005
12F230
  0
LINE
  5
12F231
  8
OBJECT
 10
3097.0
 20
-3595.9999999999968
 30
0.0
 11
3093.0
 21
-3600.4999999999968
 31
0.0
1001
ACDBBLOCKREPETAG
1070
     1
1071
       36
1005
12F231
  0
LINE
  5
12F232
  8
OBJECT
 10
3097.0
 20
-3699.9999999999968
 30
0.0
 11
3093.0
 21
-3695.4999999999968
 31
0.0
1001
ACDBBLOCKREPETAG
1070
     1
1071
       37
1005
12F232
  0
LINE
  5
12F233
  8
OBJECT
 10
3083.0
 20
-3578.9999999999968
 30
0.0
 11
3080.0
 21
-3578.9999999999968
 31
0.0
1001
ACDBBLOCKREPETAG
1070
     1
1071
       38
1005
12F233
  0
ARC
  5
12F234
  8
OBJECT
 10
3083.0
 20
-3581.9999999999968
 30
0.0
 40
3.0
 50
0.0
 51
90.0
1001
ACDBBLOCKREPETAG
1070
     1
1071
       39
1005
12F234
  0
LINE
  5
12F235
  8
OBJECT
 10
3080.0
 20
-3702.9999999999968
 30
0.0
 11
3083.0
 21
-3702.9999999999968
 31
0.0
1001
ACDBBLOCKREPETAG
1070
     1
1071
       40
1005
12F235
  0
ARC
  5
12F236
  8
OBJECT
 10
3083.0
 20
-3699.9999999999968
 30
0.0
 40
3.0
 50
270.0
 51
0.0
1001
ACDBBLOCKREPETAG
1070
     1
1071
       41
1005
12F236
  0
LINE
  5
12F237
  8
OBJECT
 10
3086.0
 20
-3699.9999999999968
 30
0.0
 11
3086.0
 21
-3581.9999999999968
 31
0.0
1001
ACDBBLOCKREPETAG
1070
     1
1071
       42
1005
12F237
  0
LINE
  5
12F238
  8
HIDDEN
 10
3088.0
 20
-3609.9999999999968
 30
0.0
 11
3088.0
 21
-3685.9999999999968
 31
0.0
1001
ACDBBLOCKREPETAG
1070
     1
1071
       43
1005
12F238
  0
LINE
  5
12F239
  8
OBJECT
 10
3133.0
 20
-3239.9999999999968
 30
0.0
 11
3140.0
 21
-3239.9999999999968
 31
0.0
1001
ACDBBLOCKREPETAG
1070
     1
1071
       27
1005
12F239
  0
LINE
  5
12F23A
  8
OBJECT
 10
3140.0
 20
-3239.9999999999968
 30
0.0
 11
3140.0
 21
-3349.9999999999959
 31
0.0
1001
ACDBBLOCKREPETAG
1070
     1
1071
       28
1005
12F23A
  0
LINE
  5
12F23B
  8
OBJECT
 10
3140.0
 20
-3349.9999999999959
 30
0.0
 11
3133.0
 21
-3349.9999999999959
 31
0.0
1001
ACDBBLOCKREPETAG
1070
     1
1071
       29
1005
12F23B
  0
LINE
  5
12F23C
  8
OBJECT
 10
3133.0
 20
-3349.9999999999959
 30
0.0
 11
3133.0
 21
-3239.9999999999968
 31
0.0
1001
ACDBBLOCKREPETAG
1070
     1
1071
       30
1005
12F23C
  0
LINE
  5
12F23D
  8
CENTER
 10
3155.0
 20
-3294.9999999999959
 30
0.0
 11
3080.0
 21
-3294.9999999999959
 31
0.0
1001
ACDBBLOCKREPETAG
1070
     1
1071
       31
1005
12F23D
  0
LINE
  5
12F23E
  8
OBJECT
 10
3133.0
 20
-3242.9999999999959
 30
0.0
 11
3097.0
 21
-3242.9999999999959
 31
0.0
1001
ACDBBLOCKREPETAG
1070
     1
1071
       32
1005
12F23E
  0
LINE
  5
12F23F
  8
OBJECT
 10
3097.0
 20
-3242.9999999999959
 30
0.0
 11
3097.0
 21
-3346.9999999999959
 31
0.0
1001
ACDBBLOCKREPETAG
1070
     1
1071
       33
1005
12F23F
  0
LINE
  5
12F240
  8
OBJECT
 10
3097.0
 20
-3346.9999999999959
 30
0.0
 11
3133.0
 21
-3346.9999999999959
 31
0.0
1001
ACDBBLOCKREPETAG
1070
     1
1071
       34
1005
12F240
  0
LINE
  5
12F241
  8
OBJECT
 10
3093.0
 20
-3247.4999999999959
 30
0.0
 11
3086.0
 21
-3247.4999999999959
 31
0.0
1001
ACDBBLOCKREPETAG
1070
     1
1071
       35
1005
12F241
  0
LINE
  5
12F242
  8
OBJECT
 10
3086.0
 20
-3342.4999999999959
 30
0.0
 11
3093.0
 21
-3342.4999999999959
 31
0.0
1001
ACDBBLOCKREPETAG
1070
     1
1071
       36
1005
12F242
  0
LINE
  5
12F243
  8
OBJECT
 10
3093.0
 20
-3342.4999999999959
 30
0.0
 11
3093.0
 21
-3247.4999999999959
 31
0.0
1001
ACDBBLOCKREPETAG
1070
     1
1071
       37
1005
12F243
  0
LINE
  5
12F244
  8
OBJECT
 10
3097.0
 20
-3242.9999999999959
 30
0.0
 11
3093.0
 21
-3247.4999999999959
 31
0.0
1001
ACDBBLOCKREPETAG
1070
     1
1071
       38
1005
12F244
  0
LINE
  5
12F245
  8
OBJECT
 10
3097.0
 20
-3346.9999999999959
 30
0.0
 11
3093.0
 21
-3342.4999999999959
 31
0.0
1001
ACDBBLOCKREPETAG
1070
     1
1071
       39
1005
12F245
  0
LINE
  5
12F246
  8
OBJECT
 10
3083.0
 20
-3232.9999999999959
 30
0.0
 11
3080.0
 21
-3232.9999999999959
 31
0.0
1001
ACDBBLOCKREPETAG
1070
     1
1071
       40
1005
12F246
  0
ARC
  5
12F247
  8
OBJECT
 10
3083.0
 20
-3235.9999999999959
 30
0.0
 40
3.0
 50
0.0
 51
90.0
1001
ACDBBLOCKREPETAG
1070
     1
1071
       41
1005
12F247
  0
LINE
  5
12F248
  8
OBJECT
 10
3080.0
 20
-3356.9999999999959
 30
0.0
 11
3083.0
 21
-3356.9999999999959
 31
0.0
1001
ACDBBLOCKREPETAG
1070
     1
1071
       42
1005
12F248
  0
ARC
  5
12F249
  8
OBJECT
 10
3083.0
 20
-3353.9999999999959
 30
0.0
 40
3.0
 50
270.0
 51
0.0
1001
ACDBBLOCKREPETAG
1070
     1
1071
       43
1005
12F249
  0
LINE
  5
12F24A
  8
OBJECT
 10
3086.0
 20
-3353.9999999999959
 30
0.0
 11
3086.0
 21
-3235.9999999999959
 31
0.0
1001
ACDBBLOCKREPETAG
1070
     1
1071
       44
1005
12F24A
  0
LINE
  5
12F24B
  8
HIDDEN
 10
3088.0
 20
-3256.9999999999959
 30
0.0
 11
3088.0
 21
-3332.9999999999968
 31
0.0
1001
ACDBBLOCKREPETAG
1070
     1
1071
       45
1005
12F24B
  0
TEXT
  5
12F24C
  8
SLIM
 10
2894.25
 20
-3817.4999999999959
 30
0.0
 40
35.0
  1
通常枝65（2）
 41
0.75
  0
CIRCLE
  5
12F24D
  8
OBJECT
 10
2400.0
 20
-3640.9999999999968
 30
0.0
 40
62.0
1001
ACDBBLOCKREPETAG
1070
     1
1071
        3
1005
12F24D
  0
LINE
  5
12F24E
  8
CENTER
 10
2338.0
 20
-3655.9999999999968
 30
0.0
 11
2462.0
 21
-3655.9999999999968
 31
0.0
1001
ACDBBLOCKREPETAG
1070
     1
1071
        4
1005
12F24E
  0
CIRCLE
  5
12F24F
  8
OBJECT
 10
2400.0
 20
-3655.9999999999968
 30
0.0
 40
28.0
1001
ACDBBLOCKREPETAG
1070
     1
1071
        6
1005
12F24F
  0
CIRCLE
  5
12F250
  8
OBJECT
 10
2400.0
 20
-3655.9999999999968
 30
0.0
 40
39.0
1001
ACDBBLOCKREPETAG
1070
     1
1071
        7
1005
12F250
  0
ARC
  5
12F251
  8
OBJECT
 10
2400.0
 20
-3655.9999999999968
 30
0.0
 40
47.0
 50
290.58196921144412
 51
249.41803078855591
1001
ACDBBLOCKREPETAG
1070
     1
1071
        8
1005
12F251
  0
LINE
  5
12F252
  8
OBJECT
 10
2383.4772883581431
 20
-3699.9999999999968
 30
0.0
 11
2416.5227116418569
 21
-3699.9999999999968
 31
0.0
1001
ACDBBLOCKREPETAG
1070
     1
1071
        9
1005
12F252
  0
LINE
  5
12F253
  8
OBJECT
 10
2133.0
 20
-3608.9999999999968
 30
0.0
 11
2140.0
 21
-3608.9999999999968
 31
0.0
1001
ACDBBLOCKREPETAG
1070
     1
1071
        7
1005
12F253
  0
LINE
  5
12F254
  8
OBJECT
 10
2140.0
 20
-3608.9999999999968
 30
0.0
 11
2140.0
 21
-3699.9999999999968
 31
0.0
1001
ACDBBLOCKREPETAG
1070
     1
1071
        8
1005
12F254
  0
LINE
  5
12F255
  8
OBJECT
 10
2133.0
 20
-3699.9999999999968
 30
0.0
 11
2133.0
 21
-3608.9999999999968
 31
0.0
1001
ACDBBLOCKREPETAG
1070
     1
1071
        9
1005
12F255
  0
LINE
  5
12F256
  8
CENTER
 10
2155.0
 20
-3655.9999999999968
 30
0.0
 11
2071.0
 21
-3655.9999999999968
 31
0.0
1001
ACDBBLOCKREPETAG
1070
     1
1071
       10
1005
12F256
  0
LINE
  5
12F257
  8
OBJECT
 10
2133.0
 20
-3611.9999999999968
 30
0.0
 11
2097.0
 21
-3611.9999999999968
 31
0.0
1001
ACDBBLOCKREPETAG
1070
     1
1071
       11
1005
12F257
  0
LINE
  5
12F258
  8
OBJECT
 10
2097.0
 20
-3611.9999999999968
 30
0.0
 11
2097.0
 21
-3699.9999999999968
 31
0.0
1001
ACDBBLOCKREPETAG
1070
     1
1071
       12
1005
12F258
  0
LINE
  5
12F259
  8
OBJECT
 10
2097.0
 20
-3699.9999999999968
 30
0.0
 11
2140.0
 21
-3699.9999999999968
 31
0.0
1001
ACDBBLOCKREPETAG
1070
     1
1071
       13
1005
12F259
  0
LINE
  5
12F25A
  8
OBJECT
 10
2093.0
 20
-3616.4999999999968
 30
0.0
 11
2086.0
 21
-3616.4999999999968
 31
0.0
1001
ACDBBLOCKREPETAG
1070
     1
1071
       14
1005
12F25A
  0
LINE
  5
12F25B
  8
OBJECT
 10
2086.0
 20
-3695.4999999999968
 30
0.0
 11
2093.0
 21
-3695.4999999999968
 31
0.0
1001
ACDBBLOCKREPETAG
1070
     1
1071
       15
1005
12F25B
  0
LINE
  5
12F25C
  8
OBJECT
 10
2093.0
 20
-3695.4999999999968
 30
0.0
 11
2093.0
 21
-3616.4999999999968
 31
0.0
1001
ACDBBLOCKREPETAG
1070
     1
1071
       16
1005
12F25C
  0
LINE
  5
12F25D
  8
OBJECT
 10
2097.0
 20
-3611.9999999999968
 30
0.0
 11
2093.0
 21
-3616.4999999999968
 31
0.0
1001
ACDBBLOCKREPETAG
1070
     1
1071
       17
1005
12F25D
  0
LINE
  5
12F25E
  8
OBJECT
 10
2097.0
 20
-3699.9999999999968
 30
0.0
 11
2093.0
 21
-3695.4999999999968
 31
0.0
1001
ACDBBLOCKREPETAG
1070
     1
1071
       18
1005
12F25E
  0
LINE
  5
12F25F
  8
OBJECT
 10
2083.0
 20
-3578.9999999999968
 30
0.0
 11
2080.0
 21
-3578.9999999999968
 31
0.0
1001
ACDBBLOCKREPETAG
1070
     1
1071
       19
1005
12F25F
  0
ARC
  5
12F260
  8
OBJECT
 10
2083.0
 20
-3581.9999999999968
 30
0.0
 40
3.0
 50
0.0
 51
90.0
1001
ACDBBLOCKREPETAG
1070
     1
1071
       20
1005
12F260
  0
LINE
  5
12F261
  8
OBJECT
 10
2080.0
 20
-3702.9999999999968
 30
0.0
 11
2083.0
 21
-3702.9999999999968
 31
0.0
1001
ACDBBLOCKREPETAG
1070
     1
1071
       21
1005
12F261
  0
ARC
  5
12F262
  8
OBJECT
 10
2083.0
 20
-3699.9999999999968
 30
0.0
 40
3.0
 50
270.0
 51
0.0
1001
ACDBBLOCKREPETAG
1070
     1
1071
       22
1005
12F262
  0
LINE
  5
12F263
  8
OBJECT
 10
2086.0
 20
-3699.9999999999968
 30
0.0
 11
2086.0
 21
-3581.9999999999968
 31
0.0
1001
ACDBBLOCKREPETAG
1070
     1
1071
       23
1005
12F263
  0
LINE
  5
12F264
  8
HIDDEN
 10
2088.0
 20
-3625.9999999999968
 30
0.0
 11
2088.0
 21
-3685.9999999999968
 31
0.0
1001
ACDBBLOCKREPETAG
1070
     1
1071
       24
1005
12F264
  0
LINE
  5
12F265
  8
OBJECT
 10
2133.0
 20
-3247.9999999999959
 30
0.0
 11
2140.0
 21
-3247.9999999999959
 31
0.0
1001
ACDBBLOCKREPETAG
1070
     1
1071
        7
1005
12F265
  0
LINE
  5
12F266
  8
OBJECT
 10
2140.0
 20
-3247.9999999999959
 30
0.0
 11
2140.0
 21
-3341.9999999999959
 31
0.0
1001
ACDBBLOCKREPETAG
1070
     1
1071
        8
1005
12F266
  0
LINE
  5
12F267
  8
OBJECT
 10
2140.0
 20
-3341.9999999999959
 30
0.0
 11
2133.0
 21
-3341.9999999999959
 31
0.0
1001
ACDBBLOCKREPETAG
1070
     1
1071
        9
1005
12F267
  0
LINE
  5
12F268
  8
OBJECT
 10
2133.0
 20
-3341.9999999999959
 30
0.0
 11
2133.0
 21
-3247.9999999999959
 31
0.0
1001
ACDBBLOCKREPETAG
1070
     1
1071
       10
1005
12F268
  0
LINE
  5
12F269
  8
CENTER
 10
2155.0
 20
-3294.9999999999959
 30
0.0
 11
2080.0
 21
-3294.9999999999959
 31
0.0
1001
ACDBBLOCKREPETAG
1070
     1
1071
       11
1005
12F269
  0
LINE
  5
12F26A
  8
OBJECT
 10
2133.0
 20
-3250.9999999999959
 30
0.0
 11
2097.0
 21
-3250.9999999999959
 31
0.0
1001
ACDBBLOCKREPETAG
1070
     1
1071
       12
1005
12F26A
  0
LINE
  5
12F26B
  8
OBJECT
 10
2097.0
 20
-3250.9999999999959
 30
0.0
 11
2097.0
 21
-3338.9999999999959
 31
0.0
1001
ACDBBLOCKREPETAG
1070
     1
1071
       13
1005
12F26B
  0
LINE
  5
12F26C
  8
OBJECT
 10
2097.0
 20
-3338.9999999999959
 30
0.0
 11
2133.0
 21
-3338.9999999999959
 31
0.0
1001
ACDBBLOCKREPETAG
1070
     1
1071
       14
1005
12F26C
  0
LINE
  5
12F26D
  8
OBJECT
 10
2093.0
 20
-3255.4999999999959
 30
0.0
 11
2086.0
 21
-3255.4999999999959
 31
0.0
1001
ACDBBLOCKREPETAG
1070
     1
1071
       15
1005
12F26D
  0
LINE
  5
12F26E
  8
OBJECT
 10
2086.0
 20
-3334.4999999999959
 30
0.0
 11
2093.0
 21
-3334.4999999999959
 31
0.0
1001
ACDBBLOCKREPETAG
1070
     1
1071
       16
1005
12F26E
  0
LINE
  5
12F26F
  8
OBJECT
 10
2093.0
 20
-3334.4999999999959
 30
0.0
 11
2093.0
 21
-3255.4999999999959
 31
0.0
1001
ACDBBLOCKREPETAG
1070
     1
1071
       17
1005
12F26F
  0
LINE
  5
12F270
  8
OBJECT
 10
2097.0
 20
-3250.9999999999959
 30
0.0
 11
2093.0
 21
-3255.4999999999959
 31
0.0
1001
ACDBBLOCKREPETAG
1070
     1
1071
       18
1005
12F270
  0
LINE
  5
12F271
  8
OBJECT
 10
2097.0
 20
-3338.9999999999959
 30
0.0
 11
2093.0
 21
-3334.4999999999959
 31
0.0
1001
ACDBBLOCKREPETAG
1070
     1
1071
       19
1005
12F271
  0
LINE
  5
12F272
  8
OBJECT
 10
2083.0
 20
-3232.9999999999959
 30
0.0
 11
2080.0
 21
-3232.9999999999959
 31
0.0
1001
ACDBBLOCKREPETAG
1070
     1
1071
       20
1005
12F272
  0
ARC
  5
12F273
  8
OBJECT
 10
2083.0
 20
-3235.9999999999959
 30
0.0
 40
3.0
 50
0.0
 51
90.0
1001
ACDBBLOCKREPETAG
1070
     1
1071
       21
1005
12F273
  0
LINE
  5
12F274
  8
OBJECT
 10
2080.0
 20
-3356.9999999999959
 30
0.0
 11
2083.0
 21
-3356.9999999999959
 31
0.0
1001
ACDBBLOCKREPETAG
1070
     1
1071
       22
1005
12F274
  0
ARC
  5
12F275
  8
OBJECT
 10
2083.0
 20
-3353.9999999999959
 30
0.0
 40
3.0
 50
270.0
 51
0.0
1001
ACDBBLOCKREPETAG
1070
     1
1071
       23
1005
12F275
  0
LINE
  5
12F276
  8
OBJECT
 10
2086.0
 20
-3353.9999999999959
 30
0.0
 11
2086.0
 21
-3235.9999999999959
 31
0.0
1001
ACDBBLOCKREPETAG
1070
     1
1071
       24
1005
12F276
  0
LINE
  5
12F277
  8
HIDDEN
 10
2088.0
 20
-3264.9999999999968
 30
0.0
 11
2088.0
 21
-3324.9999999999959
 31
0.0
1001
ACDBBLOCKREPETAG
1070
     1
1071
       25
1005
12F277
  0
TEXT
  5
12F278
  8
SLIM
 10
1896.75
 20
-3817.4999999999959
 30
0.0
 40
35.0
  1
通常枝50（1）
 41
0.75
  0
LINE
  5
12F279
  8
OBJECT
 10
3923.0
 20
-570.99999999999955
 30
0.0
 11
3923.0
 21
-549.99999999999955
 31
0.0
1001
ACDBBLOCKREPETAG
1070
     1
1071
       38
1005
12F279
  0
LINE
  5
12F27A
  8
OBJECT
 10
3923.0
 20
-549.99999999999955
 30
0.0
 11
4077.0
 21
-549.99999999999955
 31
0.0
1001
ACDBBLOCKREPETAG
1070
     1
1071
       39
1005
12F27A
  0
LINE
  5
12F27B
  8
HIDDEN
 10
3943.0
 20
-619.99999999999955
 30
0.0
 11
4057.0
 21
-619.99999999999955
 31
0.0
1001
ACDBBLOCKREPETAG
1070
     1
1071
       40
1005
12F27B
  0
LINE
  5
12F27C
  8
OBJECT
 10
4077.0
 20
-549.99999999999955
 30
0.0
 11
4077.0
 21
-570.99999999999955
 31
0.0
1001
ACDBBLOCKREPETAG
1070
     1
1071
       41
1005
12F27C
  0
LINE
  5
12F27D
  8
OBJECT
 10
4077.0
 20
-570.99999999999955
 30
0.0
 11
3923.0
 21
-570.99999999999955
 31
0.0
1001
ACDBBLOCKREPETAG
1070
     1
1071
       42
1005
12F27D
  0
LINE
  5
12F27E
  8
CENTER
 10
4000.0
 20
-534.99999999999955
 30
0.0
 11
4000.0
 21
-889.99999999999955
 31
0.0
1001
ACDBBLOCKREPETAG
1070
     1
1071
       43
1005
12F27E
  0
LINE
  5
12F27F
  8
OBJECT
 10
3928.0
 20
-570.99999999999955
 30
0.0
 11
3928.0
 21
-633.99999999999955
 31
0.0
1001
ACDBBLOCKREPETAG
1070
     1
1071
       44
1005
12F27F
  0
LINE
  5
12F280
  8
OBJECT
 10
4072.0
 20
-633.99999999999955
 30
0.0
 11
4072.0
 21
-570.99999999999955
 31
0.0
1001
ACDBBLOCKREPETAG
1070
     1
1071
       45
1005
12F280
  0
LINE
  5
12F281
  8
OBJECT
 10
3920.0
 20
-877.99999999999955
 30
0.0
 11
4080.0
 21
-877.99999999999955
 31
0.0
1001
ACDBBLOCKREPETAG
1070
     1
1071
       46
1005
12F281
  0
LINE
  5
12F282
  8
OBJECT
 10
4080.0
 20
-633.99999999999955
 30
0.0
 11
3920.0
 21
-633.99999999999955
 31
0.0
1001
ACDBBLOCKREPETAG
1070
     1
1071
       47
1005
12F282
  0
LINE
  5
12F283
  8
OBJECT
 10
3920.0
 20
-877.99999999999955
 30
0.0
 11
3920.0
 21
-889.99999999999955
 31
0.0
1001
ACDBBLOCKREPETAG
1070
     1
1071
       48
1005
12F283
  0
LINE
  5
12F284
  8
OBJECT
 10
3920.0
 20
-889.99999999999955
 30
0.0
 11
4080.0
 21
-889.99999999999955
 31
0.0
1001
ACDBBLOCKREPETAG
1070
     1
1071
       49
1005
12F284
  0
LINE
  5
12F285
  8
OBJECT
 10
4080.0
 20
-889.99999999999955
 30
0.0
 11
4080.0
 21
-877.99999999999955
 31
0.0
1001
ACDBBLOCKREPETAG
1070
     1
1071
       50
1005
12F285
  0
LINE
  5
12F286
  8
OBJECT
 10
4074.9999999998631
 20
-757.99999999985016
 30
0.0
 11
4075.0
 21
-877.99999999999955
 31
0.0
1001
ACDBBLOCKREPETAG
1070
     1
1071
       54
1005
12F286
  0
LINE
  5
12F287
  8
OBJECT
 10
4074.9999908029849
 20
-757.99998602702112
 30
0.0
 11
4080.0
 21
-757.99998602702112
 31
0.0
1001
ACDBBLOCKREPETAG
1070
     1
1071
       55
1005
12F287
  0
LINE
  5
12F288
  8
OBJECT
 10
3925.0000000001392
 20
-757.99999999985016
 30
0.0
 11
3925.0
 21
-877.99999999999955
 31
0.0
1001
ACDBBLOCKREPETAG
1070
     1
1071
       56
1005
12F288
  0
LINE
  5
12F289
  8
OBJECT
 10
3925.0000091970151
 20
-757.99998602702112
 30
0.0
 11
3920.0
 21
-757.99998602702112
 31
0.0
1001
ACDBBLOCKREPETAG
1070
     1
1071
       57
1005
12F289
  0
ARC
  5
12F28A
  8
OBJECT
 10
4200.6872746716726
 20
-749.40809941010718
 30
0.0
 40
170.6350503965856
 50
137.44134459184301
 51
149.91949581337221
1001
ACDBBLOCKREPETAG
1070
     1
1071
       58
1005
12F28A
  0
ARC
  5
12F28B
  8
OBJECT
 10
4200.6872746716726
 20
-642.59190058989179
 30
0.0
 40
170.6350503965856
 50
210.08050418662771
 51
222.55865540815699
1001
ACDBBLOCKREPETAG
1070
     1
1071
       59
1005
12F28B
  0
ARC
  5
12F28C
  8
OBJECT
 10
3799.3127253283278
 20
-749.40809941010718
 30
0.0
 40
170.6350503965856
 50
30.080504186774089
 51
42.558655408382641
1001
ACDBBLOCKREPETAG
1070
     1
1071
       60
1005
12F28C
  0
ARC
  5
12F28D
  8
OBJECT
 10
3799.3127253283278
 20
-642.59190058989179
 30
0.0
 40
170.6350503965856
 50
317.44134459161722
 51
329.91949581322592
1001
ACDBBLOCKREPETAG
1070
     1
1071
       61
1005
12F28D
  0
POINT
  5
12F28E
  8
DOTS
 10
4000.0
 20
-754.99999999999955
 30
0.0
1001
ACDBBLOCKREPETAG
1070
     1
1071
      185
1005
12F28E
  0
LINE
  5
12F28F
  8
OBJECT
 10
1923.0
 20
-570.99999999999955
 30
0.0
 11
1923.0
 21
-549.99999999999955
 31
0.0
1001
ACDBBLOCKREPETAG
1070
     1
1071
       38
1005
12F28F
  0
LINE
  5
12F290
  8
OBJECT
 10
1923.0
 20
-549.99999999999955
 30
0.0
 11
2077.0
 21
-549.99999999999955
 31
0.0
1001
ACDBBLOCKREPETAG
1070
     1
1071
       39
1005
12F290
  0
LINE
  5
12F291
  8
HIDDEN
 10
1943.0
 20
-619.99999999999955
 30
0.0
 11
2057.0
 21
-619.99999999999955
 31
0.0
1001
ACDBBLOCKREPETAG
1070
     1
1071
       40
1005
12F291
  0
LINE
  5
12F292
  8
OBJECT
 10
2077.0
 20
-549.99999999999955
 30
0.0
 11
2077.0
 21
-570.99999999999955
 31
0.0
1001
ACDBBLOCKREPETAG
1070
     1
1071
       41
1005
12F292
  0
LINE
  5
12F293
  8
OBJECT
 10
2077.0
 20
-570.99999999999955
 30
0.0
 11
1923.0
 21
-570.99999999999955
 31
0.0
1001
ACDBBLOCKREPETAG
1070
     1
1071
       42
1005
12F293
  0
LINE
  5
12F294
  8
CENTER
 10
2000.0
 20
-534.99999999999955
 30
0.0
 11
2000.0
 21
-889.99999999999955
 31
0.0
1001
ACDBBLOCKREPETAG
1070
     1
1071
       43
1005
12F294
  0
LINE
  5
12F295
  8
OBJECT
 10
1928.0
 20
-570.99999999999955
 30
0.0
 11
1928.0
 21
-633.99999999999955
 31
0.0
1001
ACDBBLOCKREPETAG
1070
     1
1071
       44
1005
12F295
  0
LINE
  5
12F296
  8
OBJECT
 10
2072.0
 20
-633.99999999999955
 30
0.0
 11
2072.0
 21
-570.99999999999955
 31
0.0
1001
ACDBBLOCKREPETAG
1070
     1
1071
       45
1005
12F296
  0
LINE
  5
12F297
  8
OBJECT
 10
1920.0
 20
-877.99999999999955
 30
0.0
 11
2080.0
 21
-877.99999999999955
 31
0.0
1001
ACDBBLOCKREPETAG
1070
     1
1071
       46
1005
12F297
  0
LINE
  5
12F298
  8
OBJECT
 10
2080.0
 20
-633.99999999999955
 30
0.0
 11
1920.0
 21
-633.99999999999955
 31
0.0
1001
ACDBBLOCKREPETAG
1070
     1
1071
       47
1005
12F298
  0
LINE
  5
12F299
  8
OBJECT
 10
1920.0
 20
-877.99999999999955
 30
0.0
 11
1920.0
 21
-889.99999999999955
 31
0.0
1001
ACDBBLOCKREPETAG
1070
     1
1071
       48
1005
12F299
  0
LINE
  5
12F29A
  8
OBJECT
 10
1920.0
 20
-889.99999999999955
 30
0.0
 11
2080.0
 21
-889.99999999999955
 31
0.0
1001
ACDBBLOCKREPETAG
1070
     1
1071
       49
1005
12F29A
  0
LINE
  5
12F29B
  8
OBJECT
 10
2080.0
 20
-889.99999999999955
 30
0.0
 11
2080.0
 21
-877.99999999999955
 31
0.0
1001
ACDBBLOCKREPETAG
1070
     1
1071
       50
1005
12F29B
  0
LINE
  5
12F29C
  8
OBJECT
 10
2074.9999999998622
 20
-757.99999999985016
 30
0.0
 11
2075.0
 21
-877.99999999999955
 31
0.0
1001
ACDBBLOCKREPETAG
1070
     1
1071
       54
1005
12F29C
  0
LINE
  5
12F29D
  8
OBJECT
 10
2074.9999908029849
 20
-757.99998602702112
 30
0.0
 11
2080.0
 21
-757.99998602702112
 31
0.0
1001
ACDBBLOCKREPETAG
1070
     1
1071
       55
1005
12F29D
  0
LINE
  5
12F29E
  8
OBJECT
 10
1925.000000000138
 20
-757.99999999985016
 30
0.0
 11
1925.0
 21
-877.99999999999955
 31
0.0
1001
ACDBBLOCKREPETAG
1070
     1
1071
       56
1005
12F29E
  0
LINE
  5
12F29F
  8
OBJECT
 10
1925.000009197013
 20
-757.99998602702112
 30
0.0
 11
1920.0
 21
-757.99998602702112
 31
0.0
1001
ACDBBLOCKREPETAG
1070
     1
1071
       57
1005
12F29F
  0
ARC
  5
12F2A0
  8
OBJECT
 10
2200.6872746716731
 20
-749.40809941010718
 30
0.0
 40
170.6350503965856
 50
137.44134459184301
 51
149.91949581336559
1001
ACDBBLOCKREPETAG
1070
     1
1071
       58
1005
12F2A0
  0
ARC
  5
12F2A1
  8
OBJECT
 10
2200.6872746716731
 20
-642.59190058989179
 30
0.0
 40
170.6350503965856
 50
210.0805041866343
 51
222.55865540815699
1001
ACDBBLOCKREPETAG
1070
     1
1071
       59
1005
12F2A1
  0
ARC
  5
12F2A2
  8
OBJECT
 10
1799.312725328326
 20
-749.40809941010718
 30
0.0
 40
170.6350503965856
 50
30.080504186774089
 51
42.558655408382641
1001
ACDBBLOCKREPETAG
1070
     1
1071
       60
1005
12F2A2
  0
ARC
  5
12F2A3
  8
OBJECT
 10
1799.312725328326
 20
-642.59190058989179
 30
0.0
 40
170.6350503965856
 50
317.44134459161722
 51
329.91949581322592
1001
ACDBBLOCKREPETAG
1070
     1
1071
       61
1005
12F2A3
  0
POINT
  5
12F2A4
  8
DOTS
 10
2000.0
 20
-754.99999999999955
 30
0.0
1001
ACDBBLOCKREPETAG
1070
     1
1071
      185
1005
12F2A4
  0
LINE
  5
12F2A5
  8
OBJECT
 10
3930.0
 20
-1484.999999999997
 30
0.0
 11
4070.0
 21
-1484.999999999997
 31
0.0
1001
ACDBBLOCKREPETAG
1070
     1
1071
        0
1005
12F2A5
  0
LINE
  5
12F2A6
  8
OBJECT
 10
3930.0
 20
-1484.999999999997
 30
0.0
 11
3930.0
 21
-1244.999999999997
 31
0.0
1001
ACDBBLOCKREPETAG
1070
     1
1071
        1
1005
12F2A6
  0
LINE
  5
12F2A7
  8
OBJECT
 10
4070.0
 20
-1484.999999999997
 30
0.0
 11
4070.0
 21
-1244.999999999997
 31
0.0
1001
ACDBBLOCKREPETAG
1070
     1
1071
        2
1005
12F2A7
  0
LINE
  5
12F2A8
  8
OBJECT
 10
3930.0
 20
-1244.999999999997
 30
0.0
 11
4070.0
 21
-1244.999999999997
 31
0.0
1001
ACDBBLOCKREPETAG
1070
     1
1071
        3
1005
12F2A8
  0
LINE
  5
12F2A9
  8
HIDDEN
 10
3937.5
 20
-1244.999999999997
 30
0.0
 11
3937.5
 21
-1484.999999999997
 31
0.0
1001
ACDBBLOCKREPETAG
1070
     1
1071
        4
1005
12F2A9
  0
LINE
  5
12F2AA
  8
HIDDEN
 10
4062.5
 20
-1244.999999999997
 30
0.0
 11
4062.5
 21
-1484.999999999997
 31
0.0
1001
ACDBBLOCKREPETAG
1070
     1
1071
        5
1005
12F2AA
  0
LINE
  5
12F2AB
  8
CENTER
 10
4000.0
 20
-1174.9999999999991
 30
0.0
 11
4000.0
 21
-1499.999999999997
 31
0.0
1001
ACDBBLOCKREPETAG
1070
     1
1071
        6
1005
12F2AB
  0
LINE
  5
12F2AC
  8
OBJECT
 10
3925.0
 20
-1174.9999999999991
 30
0.0
 11
3925.0
 21
-1204.999999999997
 31
0.0
1001
ACDBBLOCKREPETAG
1070
     1
1071
        7
1005
12F2AC
  0
LINE
  5
12F2AD
  8
OBJECT
 10
4075.0000000000032
 20
-1174.9999999999991
 30
0.0
 11
4075.0
 21
-1204.999999999997
 31
0.0
1001
ACDBBLOCKREPETAG
1070
     1
1071
        8
1005
12F2AD
  0
LINE
  5
12F2AE
  8
OBJECT
 10
3925.0
 20
-1204.999999999997
 30
0.0
 11
4075.0
 21
-1204.999999999997
 31
0.0
1001
ACDBBLOCKREPETAG
1070
     1
1071
        9
1005
12F2AE
  0
LINE
  5
12F2AF
  8
OBJECT
 10
3925.0
 20
-1204.999999999997
 30
0.0
 11
3930.0
 21
-1244.999999999997
 31
0.0
1001
ACDBBLOCKREPETAG
1070
     1
1071
       10
1005
12F2AF
  0
LINE
  5
12F2B0
  8
OBJECT
 10
4070.0
 20
-1244.999999999997
 30
0.0
 11
4075.0
 21
-1204.999999999997
 31
0.0
1001
ACDBBLOCKREPETAG
1070
     1
1071
       11
1005
12F2B0
  0
LINE
  5
12F2B1
  8
OBJECT
 10
1930.0
 20
-1484.999999999998
 30
0.0
 11
2070.0
 21
-1484.999999999998
 31
0.0
1001
ACDBBLOCKREPETAG
1070
     1
1071
        0
1005
12F2B1
  0
LINE
  5
12F2B2
  8
OBJECT
 10
1930.0
 20
-1484.999999999998
 30
0.0
 11
1930.0
 21
-1244.999999999998
 31
0.0
1001
ACDBBLOCKREPETAG
1070
     1
1071
        1
1005
12F2B2
  0
LINE
  5
12F2B3
  8
OBJECT
 10
2070.0
 20
-1484.999999999998
 30
0.0
 11
2070.0
 21
-1244.999999999998
 31
0.0
1001
ACDBBLOCKREPETAG
1070
     1
1071
        2
1005
12F2B3
  0
LINE
  5
12F2B4
  8
OBJECT
 10
1930.0
 20
-1244.999999999998
 30
0.0
 11
2070.0
 21
-1244.999999999998
 31
0.0
1001
ACDBBLOCKREPETAG
1070
     1
1071
        3
1005
12F2B4
  0
LINE
  5
12F2B5
  8
HIDDEN
 10
1937.5
 20
-1244.999999999998
 30
0.0
 11
1937.5
 21
-1484.999999999998
 31
0.0
1001
ACDBBLOCKREPETAG
1070
     1
1071
        4
1005
12F2B5
  0
LINE
  5
12F2B6
  8
HIDDEN
 10
2062.5
 20
-1244.999999999998
 30
0.0
 11
2062.5
 21
-1484.999999999998
 31
0.0
1001
ACDBBLOCKREPETAG
1070
     1
1071
        5
1005
12F2B6
  0
LINE
  5
12F2B7
  8
CENTER
 10
2000.0
 20
-1174.9999999999991
 30
0.0
 11
2000.0
 21
-1499.999999999998
 31
0.0
1001
ACDBBLOCKREPETAG
1070
     1
1071
        6
1005
12F2B7
  0
LINE
  5
12F2B8
  8
OBJECT
 10
1925.0
 20
-1174.9999999999991
 30
0.0
 11
1925.0
 21
-1204.999999999998
 31
0.0
1001
ACDBBLOCKREPETAG
1070
     1
1071
        7
1005
12F2B8
  0
LINE
  5
12F2B9
  8
OBJECT
 10
2075.0000000000041
 20
-1174.9999999999991
 30
0.0
 11
2075.0
 21
-1204.999999999998
 31
0.0
1001
ACDBBLOCKREPETAG
1070
     1
1071
        8
1005
12F2B9
  0
LINE
  5
12F2BA
  8
OBJECT
 10
1925.0
 20
-1204.999999999998
 30
0.0
 11
2075.0
 21
-1204.999999999998
 31
0.0
1001
ACDBBLOCKREPETAG
1070
     1
1071
        9
1005
12F2BA
  0
LINE
  5
12F2BB
  8
OBJECT
 10
1925.0
 20
-1204.999999999998
 30
0.0
 11
1930.0
 21
-1244.999999999998
 31
0.0
1001
ACDBBLOCKREPETAG
1070
     1
1071
       10
1005
12F2BB
  0
LINE
  5
12F2BC
  8
OBJECT
 10
2070.0
 20
-1244.999999999998
 30
0.0
 11
2075.0
 21
-1204.999999999998
 31
0.0
1001
ACDBBLOCKREPETAG
1070
     1
1071
       11
1005
12F2BC
  0
TEXT
  5
12F2BD
  8
SLIM
 10
3741.6250000000009
 20
-1752.499999999997
 30
0.0
 40
35.0
  1
片受けスタイル（S）＋シンドカット
 41
0.75
  0
TEXT
  5
12F2BE
  8
SLIM
 10
1856.25
 20
-1752.499999999997
 30
0.0
 40
35.0
  1
片受けスタイル（S）
 41
0.75
  0
VIEWPORT
  5
F6BA7
 67
     1
  8
0
 10
145.33033752441401
 20
101.8328354358673
 30
0.0
 40
334.0025019414623
 41
222.19657968139651
 68
     1
 69
     1
1001
ACAD
1000
MVIEW
1002
{
1070
    16
1010
0.0
1020
0.0
1030
0.0
1010
0.0
1020
0.0
1030
1.0
1040
0.0
1040
222.19657968139651
1040
145.33033752441401
1040
101.8328354358673
1040
50.0
1040
0.0
1040
0.0
1070
     0
1070
     0
1070
     1
1070
     1
1070
     0
1070
     0
1070
     0
1070
     0
1040
0.0
1040
0.0
1040
0.0
1040
10.0
1040
10.0
1040
10.0
1040
10.0
1070
     0
1002
{
1002
}
1002
}
  0
VIEWPORT
  5
F6BA9
 67
     1
  8
OBJECT
 10
145.3303314447403
 20
101.8328338861465
 30
0.0
 40
232.5285303115844
 41
162.93253421783439
 68
     2
 69
     2
1001
ACAD
1000
MVIEW
1002
{
1070
    16
1010
0.0
1020
0.0
1030
0.0
1010
0.0
1020
0.0
1030
1.0
1040
0.0
1040
25942.55904403147
1040
2377.604457077377
1040
-7591.5176687056619
1040
50.0
1040
0.0
1040
0.0
1070
     0
1070
   600
1070
     1
1070
     1
1070
     0
1070
     0
1070
     0
1070
     0
1040
0.0
1040
0.0
1040
0.0
1040
1.0
1040
1.0
1040
0.0
1040
0.0
1070
     0
1002
{
1002
}
1002
}
  0
ENDSEC
  0
EOF
