  0
SECTION
  2
HEADER
  9
$ACADVER
  1
AC1009
  9
$INSBASE
 10
0.0
 20
0.0
 30
0.0
  9
$EXTMIN
 10
-0.0000000000002274
 20
-3982.499999999998181
 30
0.0
  9
$EXTMAX
 10
5107.5428571428556097
 20
607.5
 30
0.0
  9
$LIMMIN
 10
0.0
 20
0.0
  9
$LIMMAX
 10
210.0
 20
297.0
  9
$ORTHOMODE
 70
     0
  9
$REGENMODE
 70
     1
  9
$FILLMODE
 70
     1
  9
$QTEXTMODE
 70
     0
  9
$MIRRTEXT
 70
     0
  9
$DRAGMODE
 70
     2
  9
$LTSCALE
 40
1.0
  9
$OSMODE
 70
    39
  9
$ATTMODE
 70
     1
  9
$TEXTSIZE
 40
4.0
  9
$TRACEWID
 40
0.05
  9
$TEXTSTYLE
  7
STANDARD
  9
$CLAYER
  8
SLIM
  9
$CELTYPE
  6
BYLAYER
  9
$CECOLOR
 62
   256
  9
$DIMSCALE
 40
10.0
  9
$DIMASZ
 40
2.0
  9
$DIMEXO
 40
1.0
  9
$DIMDLI
 40
10.0
  9
$DIMRND
 40
0.0
  9
$DIMDLE
 40
0.0
  9
$DIMEXE
 40
1.0
  9
$DIMTP
 40
0.0
  9
$DIMTM
 40
0.0
  9
$DIMTXT
 40
3.2000000000000002
  9
$DIMCEN
 40
0.0
  9
$DIMTSZ
 40
0.0
  9
$DIMTOL
 70
     0
  9
$DIMLIM
 70
     0
  9
$DIMTIH
 70
     0
  9
$DIMTOH
 70
     0
  9
$DIMSE1
 70
     0
  9
$DIMSE2
 70
     0
  9
$DIMTAD
 70
     1
  9
$DIMZIN
 70
     8
  9
$DIMBLK
  1
OPEN30
  9
$DIMASO
 70
     1
  9
$DIMSHO
 70
     1
  9
$DIMPOST
  1

  9
$DIMAPOST
  1

  9
$DIMALT
 70
     0
  9
$DIMALTD
 70
     2
  9
$DIMALTF
 40
25.3999999999999986
  9
$DIMLFAC
 40
1.0
  9
$DIMTOFL
 70
     1
  9
$DIMTVP
 40
0.0
  9
$DIMTIX
 70
     0
  9
$DIMSOXD
 70
     0
  9
$DIMSAH
 70
     0
  9
$DIMBLK1
  1

  9
$DIMBLK2
  1

  9
$DIMSTYLE
  2
S10
  9
$DIMCLRD
 70
   256
  9
$DIMCLRE
 70
   256
  9
$DIMCLRT
 70
   256
  9
$DIMTFAC
 40
1.0
  9
$DIMGAP
 40
0.9
  9
$LUNITS
 70
     2
  9
$LUPREC
 70
     2
  9
$SKETCHINC
 40
0.1
  9
$FILLETRAD
 40
0.0
  9
$AUNITS
 70
     0
  9
$AUPREC
 70
     2
  9
$MENU
  1
ACAD
  9
$ELEVATION
 40
0.0
  9
$PELEVATION
 40
0.0
  9
$THICKNESS
 40
0.0
  9
$LIMCHECK
 70
     0
  9
$BLIPMODE
 70
     0
  9
$CHAMFERA
 40
2.0
  9
$CHAMFERB
 40
2.0
  9
$SKPOLY
 70
     0
  9
$TDCREATE
 40
2453095.4929398149251938
  9
$TDUPDATE
 40
2459906.6280555562116206
  9
$TDINDWG
 40
21.5745237269000008
  9
$TDUSRTIMER
 40
21.5745231828999984
  9
$USRTIMER
 70
     1
  9
$ANGBASE
 50
0.0
  9
$ANGDIR
 70
     0
  9
$PDMODE
 70
    35
  9
$PDSIZE
 40
2.0
  9
$PLINEWID
 40
0.0
  9
$COORDS
 70
     1
  9
$SPLFRAME
 70
     0
  9
$SPLINETYPE
 70
     6
  9
$SPLINESEGS
 70
     8
  9
$ATTDIA
 70
     1
  9
$ATTREQ
 70
     1
  9
$HANDLING
 70
     1
  9
$HANDSEED
  5
1282A5
  9
$SURFTAB1
 70
     6
  9
$SURFTAB2
 70
     6
  9
$SURFTYPE
 70
     6
  9
$SURFU
 70
     6
  9
$SURFV
 70
     6
  9
$UCSNAME
  2

  9
$UCSORG
 10
0.0
 20
0.0
 30
0.0
  9
$UCSXDIR
 10
1.0
 20
0.0
 30
0.0
  9
$UCSYDIR
 10
0.0
 20
1.0
 30
0.0
  9
$PUCSNAME
  2

  9
$PUCSORG
 10
0.0
 20
0.0
 30
0.0
  9
$PUCSXDIR
 10
1.0
 20
0.0
 30
0.0
  9
$PUCSYDIR
 10
0.0
 20
1.0
 30
0.0
  9
$USERI1
 70
     0
  9
$USERI2
 70
     0
  9
$USERI3
 70
     0
  9
$USERI4
 70
     0
  9
$USERI5
 70
     0
  9
$USERR1
 40
0.0
  9
$USERR2
 40
0.0
  9
$USERR3
 40
0.0
  9
$USERR4
 40
0.0
  9
$USERR5
 40
0.0
  9
$WORLDVIEW
 70
     1
  9
$SHADEDGE
 70
     3
  9
$SHADEDIF
 70
    70
  9
$TILEMODE
 70
     1
  9
$MAXACTVP
 70
    64
  9
$PLIMCHECK
 70
     0
  9
$PEXTMIN
 10
29.0660662889480506
 20
20.3665667772293091
 30
0.0
  9
$PEXTMAX
 10
261.5945966005324976
 20
183.2991009950638102
 30
0.0
  9
$PLIMMIN
 10
-3.17498779296875
 20
-3.1749999523162842
  9
$PLIMMAX
 10
293.835662841796875
 20
206.8406708240509033
  9
$UNITMODE
 70
     0
  9
$VISRETAIN
 70
     1
  9
$PLINEGEN
 70
     0
  9
$PSLTSCALE
 70
     1
  0
ENDSEC
  0
SECTION
  2
TABLES
  0
TABLE
  2
VPORT
 70
     1
  0
VPORT
  2
*ACTIVE
 70
     0
 10
0.0
 20
0.0
 11
1.0
 21
1.0
 12
267.016135291507112
 22
-365.8689479619642952
 13
0.0
 23
0.0
 14
1.0
 24
1.0
 15
0.0
 25
0.0
 16
0.0
 26
0.0
 36
1.0
 17
0.0
 27
0.0
 37
0.0
 40
656.577678569843556
 41
2.1078167115902962
 42
50.0
 43
0.0
 44
0.0
 50
0.0
 51
0.0
 71
     0
 72
   600
 73
     1
 74
     1
 75
     0
 76
     0
 77
     0
 78
     0
  0
ENDTAB
  0
TABLE
  2
LTYPE
 70
     3
  0
LTYPE
  2
CONTINUOUS
 70
     0
  3
Solid line
 72
    65
 73
     0
 40
0.0
  0
LTYPE
  2
ACAD_ISO08W100
 70
     0
  3
ISO long-dash short-dash ____ __ ____ __ ____ _
 72
    65
 73
     4
 40
36.0
 49
24.0
 49
-3.0
 49
6.0
 49
-3.0
  0
LTYPE
  2
ACAD_ISO02W100
 70
     0
  3
ISO dash __ __ __ __ __ __ __ __ __ __ __ __ __
 72
    65
 73
     2
 40
15.0
 49
12.0
 49
-3.0
  0
ENDTAB
  0
TABLE
  2
LAYER
 70
     8
  0
LAYER
  2
0
 70
     0
 62
     7
  6
CONTINUOUS
  0
LAYER
  2
SLIM
 70
     0
 62
     2
  6
CONTINUOUS
  0
LAYER
  2
DEFPOINTS
 70
     0
 62
     7
  6
CONTINUOUS
  0
LAYER
  2
DIM
 70
     0
 62
     7
  6
CONTINUOUS
  0
LAYER
  2
OBJECT
 70
     0
 62
     4
  6
CONTINUOUS
  0
LAYER
  2
HIDDEN
 70
     0
 62
     2
  6
ACAD_ISO02W100
  0
LAYER
  2
CENTER
 70
     0
 62
     2
  6
ACAD_ISO08W100
  0
LAYER
  2
DOTS
 70
     0
 62
     1
  6
CONTINUOUS
  0
ENDTAB
  0
TABLE
  2
STYLE
 70
     2
  0
STYLE
  2
STANDARD
 70
     0
 40
0.0
 41
0.75
 50
0.0
 71
     0
 42
4.0
  3
simplex.shx
  4
bigfont.shx
  0
ENDTAB
  0
TABLE
  2
VIEW
 70
     0
  0
ENDTAB
  0
TABLE
  2
UCS
 70
     0
  0
ENDTAB
  0
TABLE
  2
APPID
 70
    20
  0
APPID
  2
ACAD
 70
     0
  0
APPID
  2
ACADANNOTATIVE
 70
     0
  0
APPID
  2
ACAD_PSEXT
 70
     0
  0
APPID
  2
ACAD_EXEMPT_FROM_CAD_STANDARDS
 70
     0
  0
APPID
  2
ACAECLAYERSTANDARD
 70
     0
  0
APPID
  2
ACAUTHENVIRON
 70
     0
  0
APPID
  2
ACDBDYNAMICBLOCKTRUENAME
 70
     0
  0
APPID
  2
ACDBDYNAMICBLOCKGUID
 70
     0
  0
APPID
  2
ACDBBLOCKREPETAG
 70
     0
  0
APPID
  2
ACDBBLOCKREPBTAG
 70
     0
  0
APPID
  2
ACAD_NAV_VCDISPLAY
 70
     0
  0
APPID
  2
ACAD_DSTYLE_DIMRADIAL_EXTENSION
 70
     0
  0
APPID
  2
ACAD_DSTYLE_DIMJAG
 70
     0
  0
APPID
  2
ACAD_DSTYLE_DIMTALN
 70
     0
  0
APPID
  2
ACADANNOPO
 70
     0
  0
APPID
  2
GRADIENTCOLOR1ACI
 70
     0
  0
APPID
  2
GRADIENTCOLOR2ACI
 70
     0
  0
APPID
  2
ACADANNOMONITORALERTICONDI
 70
     0
  0
APPID
  2
CONTENTBLOCKICON
 70
     0
  0
APPID
  2
ACAD_MLEADERVER
 70
     0
  0
ENDTAB
  0
TABLE
  2
DIMSTYLE
 70
     3
  0
DIMSTYLE
  2
STANDARD
 70
     0
  3

  4

  5

  6

  7

 40
1.0
 41
0.18
 42
0.0625
 43
0.38
 44
0.18
 45
0.0
 46
0.0
 47
0.0
 48
0.0
140
0.18
141
0.09
142
0.0
143
25.3999999999999986
144
1.0
145
0.0
146
1.0
147
0.09
 71
     0
 72
     0
 73
     1
 74
     1
 75
     0
 76
     0
 77
     0
 78
     0
170
     0
171
     2
172
     0
173
     0
174
     0
175
     0
176
     0
177
     0
178
     0
  0
DIMSTYLE
  2
S10
 70
     0
  3

  4

  5

  6

  7

 40
10.0
 41
2.0
 42
1.0
 43
10.0
 44
1.0
 45
0.0
 46
0.0
 47
0.0
 48
0.0
140
3.2000000000000002
141
0.0
142
0.0
143
25.3999999999999986
144
1.0
145
0.0
146
1.0
147
0.9
 71
     0
 72
     0
 73
     0
 74
     0
 75
     0
 76
     0
 77
     1
 78
     8
170
     0
171
     2
172
     1
173
     0
174
     0
175
     0
176
   256
177
   256
178
   256
  0
ENDTAB
  0
ENDSEC
  0
SECTION
  2
BLOCKS
  0
BLOCK
  8
0
  2
$MODEL_SPACE
 70
     0
 10
0.0
 20
0.0
 30
0.0
  3
$MODEL_SPACE
  1

  0
ENDBLK
  5
1281EF
  8
0
  0
BLOCK
 67
     1
  8
0
  2
$PAPER_SPACE
 70
     0
 10
0.0
 20
0.0
 30
0.0
  3
$PAPER_SPACE
  1

  0
ENDBLK
  5
1281EB
 67
     1
  8
0
  0
BLOCK
  8
0
  2
_OPEN30
 70
     0
 10
0.0
 20
0.0
 30
0.0
  3
_OPEN30
  1

  0
LINE
  5
202
  8
0
  6
BYBLOCK
 62
     0
 10
-1.0
 20
0.26794919
 30
0.0
 11
0.0
 21
0.0
 31
0.0
  0
LINE
  5
203
  8
0
  6
BYBLOCK
 62
     0
 10
0.0
 20
0.0
 30
0.0
 11
-1.0
 21
-0.26794919
 31
0.0
  0
LINE
  5
204
  8
0
  6
BYBLOCK
 62
     0
 10
0.0
 20
0.0
 30
0.0
 11
-1.0
 21
0.0
 31
0.0
  0
ENDBLK
  5
206
  8
0
  0
BLOCK
  8
0
  2
*U3
 70
     1
 10
0.0
 20
0.0
 30
0.0
  3
*U3
  1

  0
TEXT
  5
128140
  8
DIM
 10
2561.4285714285711038
 20
-3323.2081219844449151
 30
0.0
 40
32.0
  1
C
 41
0.75
  0
ENDBLK
  5
128142
  8
0
  0
BLOCK
  8
0
  2
*U4
 70
     1
 10
0.0
 20
0.0
 30
0.0
  3
*U4
  1

  0
TEXT
  5
128144
  8
DIM
 10
2707.8409284037338693
 20
-3850.9999999999968168
 30
0.0
 40
32.0
  1
B
 50
90.0
 41
0.75
  0
ENDBLK
  5
128146
  8
0
  0
BLOCK
  8
0
  2
*U5
 70
     1
 10
0.0
 20
0.0
 30
0.0
  3
*U5
  1

  0
TEXT
  5
128148
  8
DIM
 10
2709.4796205944589929
 20
-3469.1428571428527903
 30
0.0
 40
32.0
  1
A
 50
90.0
 41
0.75
  0
ENDBLK
  5
12814A
  8
0
  0
BLOCK
  8
0
  2
*U6
 70
     1
 10
0.0
 20
0.0
 30
0.0
  3
*U6
  1

  0
TEXT
  5
12814C
  8
DIM
 10
2700.4245816727570855
 20
-929.0000000000009095
 30
0.0
 40
32.0
  1
P
 50
90.0
 41
0.75
  0
ENDBLK
  5
12814E
  8
0
  0
BLOCK
  8
0
  2
*U7
 70
     1
 10
0.0
 20
0.0
 30
0.0
  3
*U7
  1

  0
TEXT
  5
128150
  8
DIM
 10
4700.4245816727570855
 20
-929.0000000000014779
 30
0.0
 40
32.0
  1
P
 50
90.0
 41
0.75
  0
ENDBLK
  5
128152
  8
0
  0
BLOCK
  8
0
  2
*U8
 70
     1
 10
0.0
 20
0.0
 30
0.0
  3
*U8
  1

  0
TEXT
  5
128154
  8
DIM
 10
4334.1164560757752042
 20
-1373.7428571428579289
 30
0.0
 40
32.0
  1
m（シンドカット）
 50
90.0
 41
0.75
  0
ENDBLK
  5
128156
  8
0
  0
BLOCK
  8
0
  2
*U9
 70
     1
 10
0.0
 20
0.0
 30
0.0
  3
*U9
  1

  0
TEXT
  5
128158
  8
SLIM
 10
158.9523809524228
 20
-130.0000000001718092
 30
0.0
 40
26.0
  1
50
  0
ENDBLK
  5
12815A
  8
0
  0
BLOCK
  8
0
  2
*U10
 70
     1
 10
0.0
 20
0.0
 30
0.0
  3
*U10
  1

  0
TEXT
  5
128170
  8
SLIM
 10
158.9523809523878128
 20
-1087.9999999999990905
 30
0.0
 40
26.0
  1
50
  0
ENDBLK
  5
128172
  8
0
  0
BLOCK
  8
0
  2
*U11
 70
     1
 10
0.0
 20
0.0
 30
0.0
  3
*U11
  1

  0
TEXT
  5
128174
  8
SLIM
 10
518.952380952387557
 20
-1087.9999999999990905
 30
0.0
 40
26.0
  1
65
  0
ENDBLK
  5
128176
  8
0
  0
BLOCK
  8
0
  2
*U12
 70
     1
 10
0.0
 20
0.0
 30
0.0
  3
*U12
  1

  0
TEXT
  5
128178
  8
SLIM
 10
158.9523809523878128
 20
-1551.9999999999990905
 30
0.0
 40
26.0
  1
75
  0
ENDBLK
  5
12817A
  8
0
  0
ENDSEC
  0
SECTION
  2
ENTITIES
  0
LINE
  5
11273E
  8
OBJECT
 10
2325.0
 20
-3864.9999999999968168
 30
0.0
 11
5075.0
 21
-3864.9999999999968168
 31
0.0
  0
LINE
  5
11412B
  8
SLIM
 10
3256.0
 20
-2922.5000160472709467
 30
0.0
 11
3256.0
 21
-3252.5000160472709467
 31
0.0
  0
LINE
  5
11412C
  8
SLIM
 10
3380.0
 20
-2922.5000160472709467
 30
0.0
 11
3380.0
 21
-3252.5000160472709467
 31
0.0
  0
LINE
  5
11412D
  8
SLIM
 10
3510.0
 20
-2982.5000160472700372
 30
0.0
 11
3510.0
 21
-3252.5000160472709467
 31
0.0
  0
LINE
  5
11412E
  8
SLIM
 10
3640.0
 20
-2982.5000160472700372
 30
0.0
 11
3640.0
 21
-3252.5000160472709467
 31
0.0
  0
LINE
  5
11412F
  8
SLIM
 10
3770.0
 20
-3252.5000160472709467
 30
0.0
 11
3770.0
 21
-2922.5000160472709467
 31
0.0
  0
LINE
  5
114131
  8
SLIM
 10
3770.0
 20
-2922.5000160472709467
 30
0.0
 11
3256.0
 21
-2922.5000160472709467
 31
0.0
  0
LINE
  5
114132
  8
SLIM
 10
3769.9999999999990905
 20
-2982.5000160472700372
 30
0.0
 11
3380.0
 21
-2982.5000160472700372
 31
0.0
  0
LINE
  5
114133
  8
SLIM
 10
3770.0
 20
-3042.5000160472709467
 30
0.0
 11
3256.0
 21
-3042.5000160472709467
 31
0.0
  0
LINE
  5
114134
  8
SLIM
 10
3770.0
 20
-3112.5000160472709467
 30
0.0
 11
3256.0
 21
-3112.5000160472709467
 31
0.0
  0
LINE
  5
114135
  8
SLIM
 10
3770.0
 20
-3182.5000160472709467
 30
0.0
 11
3256.0
 21
-3182.5000160472709467
 31
0.0
  0
LINE
  5
114136
  8
SLIM
 10
3770.0
 20
-3252.5000160472709467
 30
0.0
 11
3256.0
 21
-3252.5000160472709467
 31
0.0
  0
LINE
  5
11414B
  8
SLIM
 10
3380.0
 20
-3042.5000160472709467
 30
0.0
 11
3255.9999722746579209
 21
-2922.5000000000009095
 31
0.0
  0
LINE
  5
1238B4
  8
CENTER
 10
2580.0
 20
-3459.9999999999968168
 30
0.0
 11
2410.0
 21
-3459.9999999999968168
 31
0.0
1001
ACDBBLOCKREPETAG
1070
     1
1071
       14
1005
122545
  0
LINE
  5
1238B5
  8
CENTER
 10
2500.0
 20
-3549.9999999999968168
 30
0.0
 11
2500.0
 21
-3369.9999999999968168
 31
0.0
1001
ACDBBLOCKREPETAG
1070
     1
1071
       15
1005
122546
  0
CIRCLE
  5
1238B6
  8
OBJECT
 10
2500.0
 20
-3459.9999999999968168
 30
0.0
 40
70.0
1001
ACDBBLOCKREPETAG
1070
     1
1071
       16
1005
122547
  0
CIRCLE
  5
1238B7
  8
OBJECT
 10
2500.0
 20
-3459.9999999999968168
 30
0.0
 40
75.0
1001
ACDBBLOCKREPETAG
1070
     1
1071
       17
1005
122548
  0
LINE
  5
123927
  8
CENTER
 10
2500.0
 20
-3644.9999999999990905
 30
0.0
 11
2500.0
 21
-3891.9999999999990905
 31
0.0
1001
ACDBBLOCKREPETAG
1070
     1
1071
       25
1005
123927
  0
LINE
  5
123928
  8
OBJECT
 10
2425.0
 20
-3659.9999999999968168
 30
0.0
 11
2425.0
 21
-3879.9999999999990905
 31
0.0
1001
ACDBBLOCKREPETAG
1070
     1
1071
       26
1005
123928
  0
LINE
  5
12392C
  8
OBJECT
 10
2575.0
 20
-3659.9999999999968168
 30
0.0
 11
2575.0
 21
-3756.5000000000618456
 31
0.0
1001
ACDBBLOCKREPETAG
1070
     1
1071
       34
1005
12392C
  0
LINE
  5
123A5C
  8
OBJECT
 10
2575.0
 20
-3862.4999999999990905
 30
0.0
 11
2575.0
 21
-3879.9999999999990905
 31
0.0
1001
ACDBBLOCKREPETAG
1070
     1
1071
       34
1005
12392C
  0
LINE
  5
123A5E
  8
CENTER
 10
2900.0
 20
-3644.9999999999990905
 30
0.0
 11
2900.0
 21
-3891.9999999999990905
 31
0.0
1001
ACDBBLOCKREPETAG
1070
     1
1071
       25
1005
123927
  0
LINE
  5
123A5F
  8
OBJECT
 10
2825.0
 20
-3659.9999999999968168
 30
0.0
 11
2825.0
 21
-3879.9999999999990905
 31
0.0
1001
ACDBBLOCKREPETAG
1070
     1
1071
       26
1005
123928
  0
LINE
  5
123A60
  8
OBJECT
 10
2975.0
 20
-3659.9999999999968168
 30
0.0
 11
2975.0
 21
-3879.9999999999990905
 31
0.0
1001
ACDBBLOCKREPETAG
1070
     1
1071
       34
1005
12392C
  0
LINE
  5
123AD2
  8
CENTER
 10
3580.0
 20
-3459.9999999999968168
 30
0.0
 11
3410.0
 21
-3459.9999999999968168
 31
0.0
1001
ACDBBLOCKREPETAG
1070
     1
1071
       14
1005
122545
  0
LINE
  5
123AD3
  8
CENTER
 10
3500.0
 20
-3549.9999999999968168
 30
0.0
 11
3500.0
 21
-3369.9999999999968168
 31
0.0
1001
ACDBBLOCKREPETAG
1070
     1
1071
       15
1005
122546
  0
CIRCLE
  5
123AD4
  8
OBJECT
 10
3500.0
 20
-3459.9999999999968168
 30
0.0
 40
70.0
1001
ACDBBLOCKREPETAG
1070
     1
1071
       16
1005
122547
  0
CIRCLE
  5
123AD5
  8
OBJECT
 10
3500.0
 20
-3459.9999999999968168
 30
0.0
 40
75.0
1001
ACDBBLOCKREPETAG
1070
     1
1071
       17
1005
122548
  0
LINE
  5
123ADD
  8
CENTER
 10
3500.0
 20
-3644.9999999999990905
 30
0.0
 11
3500.0
 21
-3891.9999999999990905
 31
0.0
1001
ACDBBLOCKREPETAG
1070
     1
1071
       25
1005
123927
  0
LINE
  5
123ADE
  8
OBJECT
 10
3424.9999999999990905
 20
-3659.9999999999968168
 30
0.0
 11
3424.9999999999990905
 21
-3879.9999999999990905
 31
0.0
1001
ACDBBLOCKREPETAG
1070
     1
1071
       26
1005
123928
  0
LINE
  5
123ADF
  8
OBJECT
 10
3574.9999999999990905
 20
-3659.9999999999968168
 30
0.0
 11
3574.9999999999990905
 21
-3756.5000000000618456
 31
0.0
1001
ACDBBLOCKREPETAG
1070
     1
1071
       34
1005
12392C
  0
LINE
  5
123AE0
  8
OBJECT
 10
3574.9999999999990905
 20
-3862.4999999999990905
 30
0.0
 11
3574.9999999999990905
 21
-3879.9999999999990905
 31
0.0
1001
ACDBBLOCKREPETAG
1070
     1
1071
       34
1005
12392C
  0
LINE
  5
123AE8
  8
CENTER
 10
3900.0
 20
-3644.9999999999990905
 30
0.0
 11
3900.0
 21
-3891.9999999999990905
 31
0.0
1001
ACDBBLOCKREPETAG
1070
     1
1071
       25
1005
123927
  0
LINE
  5
123AE9
  8
OBJECT
 10
3824.9999999999990905
 20
-3659.9999999999968168
 30
0.0
 11
3824.9999999999990905
 21
-3879.9999999999990905
 31
0.0
1001
ACDBBLOCKREPETAG
1070
     1
1071
       26
1005
123928
  0
LINE
  5
123AEA
  8
OBJECT
 10
3975.0
 20
-3659.9999999999968168
 30
0.0
 11
3975.0
 21
-3879.9999999999990905
 31
0.0
1001
ACDBBLOCKREPETAG
1070
     1
1071
       34
1005
12392C
  0
LINE
  5
123B38
  8
CENTER
 10
4579.9999999999990905
 20
-3459.9999999999968168
 30
0.0
 11
4409.9999999999990905
 21
-3459.9999999999968168
 31
0.0
1001
ACDBBLOCKREPETAG
1070
     1
1071
       14
1005
122545
  0
LINE
  5
123B39
  8
CENTER
 10
4499.9999999999990905
 20
-3549.9999999999968168
 30
0.0
 11
4499.9999999999990905
 21
-3369.9999999999968168
 31
0.0
1001
ACDBBLOCKREPETAG
1070
     1
1071
       15
1005
122546
  0
CIRCLE
  5
123B3A
  8
OBJECT
 10
4499.9999999999990905
 20
-3459.9999999999968168
 30
0.0
 40
70.0
1001
ACDBBLOCKREPETAG
1070
     1
1071
       16
1005
122547
  0
CIRCLE
  5
123B3B
  8
OBJECT
 10
4499.9999999999990905
 20
-3459.9999999999968168
 30
0.0
 40
75.0
1001
ACDBBLOCKREPETAG
1070
     1
1071
       17
1005
122548
  0
LINE
  5
123B43
  8
CENTER
 10
4500.0
 20
-3644.9999999999990905
 30
0.0
 11
4500.0
 21
-3891.9999999999990905
 31
0.0
1001
ACDBBLOCKREPETAG
1070
     1
1071
       25
1005
123927
  0
LINE
  5
123B44
  8
OBJECT
 10
4425.0
 20
-3659.9999999999968168
 30
0.0
 11
4425.0
 21
-3879.9999999999990905
 31
0.0
1001
ACDBBLOCKREPETAG
1070
     1
1071
       26
1005
123928
  0
LINE
  5
123B45
  8
OBJECT
 10
4575.0
 20
-3659.9999999999968168
 30
0.0
 11
4575.0
 21
-3756.5000000000618456
 31
0.0
1001
ACDBBLOCKREPETAG
1070
     1
1071
       34
1005
12392C
  0
LINE
  5
123B46
  8
OBJECT
 10
4575.0
 20
-3862.4999999999990905
 30
0.0
 11
4575.0
 21
-3879.9999999999990905
 31
0.0
1001
ACDBBLOCKREPETAG
1070
     1
1071
       34
1005
12392C
  0
LINE
  5
123B4E
  8
CENTER
 10
4900.0
 20
-3644.9999999999990905
 30
0.0
 11
4900.0
 21
-3891.9999999999990905
 31
0.0
1001
ACDBBLOCKREPETAG
1070
     1
1071
       25
1005
123927
  0
LINE
  5
123B4F
  8
OBJECT
 10
4825.0
 20
-3659.9999999999968168
 30
0.0
 11
4825.0
 21
-3879.9999999999990905
 31
0.0
1001
ACDBBLOCKREPETAG
1070
     1
1071
       26
1005
123928
  0
LINE
  5
123B50
  8
OBJECT
 10
4975.0
 20
-3659.9999999999968168
 30
0.0
 11
4974.9999999999990905
 21
-3879.9999999999990905
 31
0.0
1001
ACDBBLOCKREPETAG
1070
     1
1071
       34
1005
12392C
  0
POINT
  5
124C02
  8
DOTS
 10
2500.0
 20
-3459.9999999999968168
 30
0.0
  0
POINT
  5
124C03
  8
DOTS
 10
2500.0
 20
-3864.9999999999968168
 30
0.0
  0
POINT
  5
124C05
  8
DOTS
 10
3500.0
 20
-3864.9999999999968168
 30
0.0
  0
POINT
  5
124C07
  8
DOTS
 10
3500.0
 20
-3459.9999999999968168
 30
0.0
  0
POINT
  5
124C08
  8
DOTS
 10
4499.9999999999990905
 20
-3459.9999999999968168
 30
0.0
  0
POINT
  5
124C09
  8
DOTS
 10
4499.9999999999990905
 20
-3864.9999999999968168
 30
0.0
  0
LINE
  5
1270E3
  8
CENTER
 10
4580.0
 20
-199.9999999999990905
 30
0.0
 11
4400.0
 21
-199.9999999999990905
 31
0.0
1001
ACDBBLOCKREPETAG
1070
     1
1071
       14
1005
0
  0
CIRCLE
  5
1270E4
  8
OBJECT
 10
4500.0
 20
-199.9999999999990905
 30
0.0
 40
53.5
1001
ACDBBLOCKREPETAG
1070
     1
1071
      344
1005
0
  0
LINE
  5
1270E5
  8
CENTER
 10
4500.0
 20
-299.9999999999990905
 30
0.0
 11
4500.0
 21
-99.9999999999990763
 31
0.0
1001
ACDBBLOCKREPETAG
1070
     1
1071
       15
1005
0
  0
POINT
  5
1270E7
  8
DOTS
 10
4500.0
 20
-199.9999999999990905
 30
0.0
 50
270.0
1001
ACDBBLOCKREPETAG
1070
     1
1071
      362
1005
0
  0
CIRCLE
  5
1270E8
  8
OBJECT
 10
4500.0
 20
-199.9999999999990905
 30
0.0
 40
70.0
1001
ACDBBLOCKREPETAG
1070
     1
1071
       16
1005
0
  0
ARC
  5
1270E9
  8
OBJECT
 10
4500.0
 20
-199.9999999999990905
 30
0.0
 40
80.0
 50
50.805032573890557
 51
309.1949674259710719
1001
ACDBBLOCKREPETAG
1070
     1
1071
       18
1005
0
  0
CIRCLE
  5
1270EB
  8
OBJECT
 10
4500.0
 20
-199.9999999999990905
 30
0.0
 40
77.0
1001
ACDBBLOCKREPETAG
1070
     1
1071
       17
1005
0
  0
LINE
  5
1270EC
  8
OBJECT
 10
4545.6618002273244201
 20
-261.9999999999990905
 30
0.0
 11
4580.0
 21
-261.9999999999990905
 31
0.0
1001
ACDBBLOCKREPETAG
1070
     1
1071
       20
1005
0
  0
LINE
  5
1270ED
  8
OBJECT
 10
4545.6618002273244201
 20
-137.9999999999990905
 30
0.0
 11
4580.0
 21
-137.9999999999990905
 31
0.0
1001
ACDBBLOCKREPETAG
1070
     1
1071
       19
1005
0
  0
ARC
  5
1270FA
  8
OBJECT
 10
4500.0
 20
-199.9999999999990905
 30
0.0
 40
85.0
 50
46.8371028597270112
 51
144.3837932714754118
1001
ACDBBLOCKREPETAG
1070
     1
1071
       18
1005
0
  0
ARC
  5
1270FF
  8
OBJECT
 10
4500.0
 20
-199.9999999999990905
 30
0.0
 40
85.0
 50
215.616206728524503
 51
313.1628971402731167
1001
ACDBBLOCKREPETAG
1070
     1
1071
       18
1005
0
  0
LINE
  5
127101
  8
OBJECT
 10
4454.3220385552485823
 20
-176.1757960752501901
 30
0.0
 11
4453.0174047416521717
 21
-174.4092645125165006
 31
0.0
1001
ACDBBLOCKREPETAG
1070
     1
1071
      434
1005
127101
  0
ARC
  5
127102
  8
OBJECT
 10
4450.3000008248000086
 20
-179.1461853586345114
 30
0.0
 40
5.0
 50
0.0
 51
36.4469224761369333
1001
ACDBBLOCKREPETAG
1070
     1
1071
      435
1005
127102
  0
LINE
  5
127103
  8
OBJECT
 10
4454.3220385553759115
 20
-223.8242039246950128
 30
0.0
 11
4453.0174047417367547
 21
-225.5907354876406998
 31
0.0
1001
ACDBBLOCKREPETAG
1070
     1
1071
      436
1005
127103
  0
ARC
  5
127104
  8
OBJECT
 10
4450.3000008248000086
 20
-220.8538146414828134
 30
0.0
 40
5.0
 50
323.5530775263175087
 51
0.0
1001
ACDBBLOCKREPETAG
1070
     1
1071
      437
1005
127104
  0
LINE
  5
127105
  8
OBJECT
 10
4455.3000008248000086
 20
-220.8538146414828134
 30
0.0
 11
4455.3000008248000086
 21
-179.1461853586345114
 31
0.0
1001
ACDBBLOCKREPETAG
1070
     1
1071
      438
1005
127105
  0
LINE
  5
127116
  8
CENTER
 10
2580.0
 20
-199.9999999999980105
 30
0.0
 11
2400.0
 21
-199.9999999999980105
 31
0.0
1001
ACDBBLOCKREPETAG
1070
     1
1071
       14
1005
0
  0
CIRCLE
  5
127117
  8
OBJECT
 10
2500.0
 20
-199.9999999999980105
 30
0.0
 40
53.5
1001
ACDBBLOCKREPETAG
1070
     1
1071
      344
1005
0
  0
LINE
  5
127118
  8
CENTER
 10
2500.0
 20
-294.9999999999980105
 30
0.0
 11
2500.0
 21
-104.9999999999979963
 31
0.0
1001
ACDBBLOCKREPETAG
1070
     1
1071
       15
1005
0
  0
POINT
  5
12711A
  8
DOTS
 10
2500.0
 20
-199.9999999999980105
 30
0.0
 50
270.0
1001
ACDBBLOCKREPETAG
1070
     1
1071
      362
1005
0
  0
CIRCLE
  5
12711B
  8
OBJECT
 10
2500.0
 20
-199.9999999999980105
 30
0.0
 40
70.0
1001
ACDBBLOCKREPETAG
1070
     1
1071
       16
1005
0
  0
ARC
  5
12711C
  8
OBJECT
 10
2500.0
 20
-199.9999999999980105
 30
0.0
 40
80.0
 50
50.8050325738946924
 51
309.1949674259710719
1001
ACDBBLOCKREPETAG
1070
     1
1071
       18
1005
0
  0
CIRCLE
  5
12711D
  8
OBJECT
 10
2500.0
 20
-199.9999999999980105
 30
0.0
 40
77.0
1001
ACDBBLOCKREPETAG
1070
     1
1071
       17
1005
0
  0
LINE
  5
12711E
  8
OBJECT
 10
2545.6618002273230559
 20
-261.9999999999980105
 30
0.0
 11
2580.0
 21
-261.9999999999980105
 31
0.0
1001
ACDBBLOCKREPETAG
1070
     1
1071
       20
1005
0
  0
LINE
  5
12711F
  8
OBJECT
 10
2545.6618002273230559
 20
-137.9999999999980105
 30
0.0
 11
2580.0
 21
-137.9999999999980105
 31
0.0
1001
ACDBBLOCKREPETAG
1070
     1
1071
       19
1005
0
  0
LINE
  5
127131
  8
OBJECT
 10
2454.3220385552481275
 20
-176.1757960752491101
 30
0.0
 11
2453.0174047416530811
 21
-174.4092645125153922
 31
0.0
1001
ACDBBLOCKREPETAG
1070
     1
1071
      434
1005
127101
  0
ARC
  5
127132
  8
OBJECT
 10
2450.3000008247990991
 20
-179.146185358633403
 30
0.0
 40
5.0
 50
0.0
 51
36.4469224761369333
1001
ACDBBLOCKREPETAG
1070
     1
1071
      435
1005
127102
  0
LINE
  5
127133
  8
OBJECT
 10
2454.3220385553759115
 20
-223.8242039246939044
 30
0.0
 11
2453.0174047417381189
 21
-225.5907354876395914
 31
0.0
1001
ACDBBLOCKREPETAG
1070
     1
1071
      436
1005
127103
  0
ARC
  5
127134
  8
OBJECT
 10
2450.3000008247990991
 20
-220.8538146414817049
 30
0.0
 40
5.0
 50
323.5530775263175087
 51
0.0
1001
ACDBBLOCKREPETAG
1070
     1
1071
      437
1005
127104
  0
LINE
  5
127135
  8
OBJECT
 10
2455.3000008247990991
 20
-220.8538146414817049
 30
0.0
 11
2455.3000008247990991
 21
-179.146185358633403
 31
0.0
1001
ACDBBLOCKREPETAG
1070
     1
1071
      438
1005
127105
  0
LINE
  5
1271C5
  8
SLIM
 10
4954.0
 20
-800.999999999996362
 30
0.0
 11
4954.0
 21
-1472.9999999999970441
 31
0.0
  0
LINE
  5
1271C6
  8
SLIM
 10
5102.0
 20
-800.999999999996362
 30
0.0
 11
5102.0
 21
-1472.9999999999970441
 31
0.0
  0
LINE
  5
1271C7
  8
SLIM
 10
4850.0
 20
-1472.9999999999970441
 30
0.0
 11
4850.0
 21
-800.999999999996362
 31
0.0
  0
LINE
  5
1271C8
  8
SLIM
 10
5102.0
 20
-800.999999999996362
 30
0.0
 11
4850.0
 21
-800.999999999996362
 31
0.0
  0
LINE
  5
1271C9
  8
SLIM
 10
5102.0
 20
-848.9999999999961346
 30
0.0
 11
4850.0
 21
-848.9999999999961346
 31
0.0
  0
LINE
  5
1271CD
  8
SLIM
 10
5102.0
 20
-944.9999999999971578
 30
0.0
 11
4850.0
 21
-944.9999999999971578
 31
0.0
  0
LINE
  5
1271CE
  8
SLIM
 10
5102.0
 20
-992.9999999999970441
 30
0.0
 11
4850.0
 21
-992.9999999999970441
 31
0.0
  0
LINE
  5
1271CF
  8
SLIM
 10
5102.0
 20
-1040.9999999999970441
 30
0.0
 11
4850.0
 21
-1040.9999999999970441
 31
0.0
  0
LINE
  5
1271D5
  8
SLIM
 10
5102.0
 20
-1088.9999999999970441
 30
0.0
 11
4850.0
 21
-1088.9999999999970441
 31
0.0
  0
LINE
  5
1271D8
  8
SLIM
 10
5102.0
 20
-1136.9999999999970441
 30
0.0
 11
4850.0
 21
-1136.9999999999970441
 31
0.0
  0
LINE
  5
1271DB
  8
SLIM
 10
5102.0
 20
-1184.9999999999959073
 30
0.0
 11
4850.0
 21
-1184.9999999999959073
 31
0.0
  0
LINE
  5
1271DE
  8
SLIM
 10
5102.0
 20
-1232.9999999999970441
 30
0.0
 11
4850.0
 21
-1232.9999999999970441
 31
0.0
  0
LINE
  5
1271E1
  8
SLIM
 10
5102.0
 20
-1280.9999999999970441
 30
0.0
 11
4850.0
 21
-1280.9999999999970441
 31
0.0
  0
LINE
  5
1271E3
  8
SLIM
 10
5102.0
 20
-1328.9999999999970441
 30
0.0
 11
4850.0
 21
-1328.9999999999970441
 31
0.0
  0
LINE
  5
1271E5
  8
SLIM
 10
5102.0
 20
-1376.9999999999970441
 30
0.0
 11
4850.0
 21
-1376.9999999999970441
 31
0.0
  0
LINE
  5
1271E7
  8
SLIM
 10
5102.0
 20
-1424.9999999999970441
 30
0.0
 11
4850.0
 21
-1424.9999999999970441
 31
0.0
  0
LINE
  5
1271E9
  8
SLIM
 10
5102.0
 20
-1472.9999999999970441
 30
0.0
 11
4850.0
 21
-1472.9999999999970441
 31
0.0
  0
LINE
  5
127D03
  8
SLIM
 10
5102.0
 20
-896.9999999999971578
 30
0.0
 11
4850.0
 21
-896.9999999999971578
 31
0.0
  0
LINE
  5
127DE6
  8
OBJECT
 10
2366.9999999999990905
 20
-261.9999999999980105
 30
0.0
 11
2359.999999999998181
 21
-261.9999999999980105
 31
0.0
1001
ACDBBLOCKREPETAG
1070
     1
1071
       38
1005
127DD1
  0
LINE
  5
127DE7
  8
OBJECT
 10
2359.999999999998181
 20
-261.9999999999980105
 30
0.0
 11
2360.0
 21
-137.9999999999980105
 31
0.0
1001
ACDBBLOCKREPETAG
1070
     1
1071
       39
1005
127DD2
  0
LINE
  5
127DE8
  8
OBJECT
 10
2360.0
 20
-137.9999999999980105
 30
0.0
 11
2367.0
 21
-137.9999999999980105
 31
0.0
1001
ACDBBLOCKREPETAG
1070
     1
1071
       40
1005
127DD3
  0
LINE
  5
127DE9
  8
OBJECT
 10
2367.0
 20
-137.9999999999980105
 30
0.0
 11
2366.9999999999990905
 21
-261.9999999999980105
 31
0.0
1001
ACDBBLOCKREPETAG
1070
     1
1071
       41
1005
127DD4
  0
LINE
  5
127DEA
  8
CENTER
 10
2345.0
 20
-199.9999999999980105
 30
0.0
 11
2420.0
 21
-199.9999999999980105
 31
0.0
1001
ACDBBLOCKREPETAG
1070
     1
1071
       42
1005
127DD5
  0
LINE
  5
127DEB
  8
OBJECT
 10
2366.9999999999990905
 20
-258.9999999999980105
 30
0.0
 11
2403.0
 21
-258.9999999999980105
 31
0.0
1001
ACDBBLOCKREPETAG
1070
     1
1071
       43
1005
127DD6
  0
LINE
  5
127DEC
  8
OBJECT
 10
2403.0
 20
-258.9999999999980105
 30
0.0
 11
2403.0
 21
-140.9999999999980105
 31
0.0
1001
ACDBBLOCKREPETAG
1070
     1
1071
       44
1005
127DD7
  0
LINE
  5
127DED
  8
OBJECT
 10
2403.0
 20
-140.9999999999980105
 30
0.0
 11
2367.0
 21
-140.9999999999980105
 31
0.0
1001
ACDBBLOCKREPETAG
1070
     1
1071
       45
1005
127DD8
  0
LINE
  5
127DEE
  8
OBJECT
 10
2406.999999999998181
 20
-254.4999999999980105
 30
0.0
 11
2417.5
 21
-254.4999999999980105
 31
0.0
1001
ACDBBLOCKREPETAG
1070
     1
1071
       46
1005
127DD9
  0
LINE
  5
127DEF
  8
OBJECT
 10
2417.5
 20
-145.4999999999980105
 30
0.0
 11
2407.0
 21
-145.4999999999980105
 31
0.0
1001
ACDBBLOCKREPETAG
1070
     1
1071
       47
1005
127DDA
  0
LINE
  5
127DF0
  8
OBJECT
 10
2407.0
 20
-145.4999999999980105
 30
0.0
 11
2406.999999999998181
 21
-254.4999999999980105
 31
0.0
1001
ACDBBLOCKREPETAG
1070
     1
1071
       48
1005
127DDB
  0
LINE
  5
127DF1
  8
OBJECT
 10
2403.0
 20
-258.9999999999980105
 30
0.0
 11
2406.999999999998181
 21
-254.4999999999980105
 31
0.0
1001
ACDBBLOCKREPETAG
1070
     1
1071
       49
1005
127DDC
  0
LINE
  5
127DF2
  8
OBJECT
 10
2403.0
 20
-140.9999999999980105
 30
0.0
 11
2407.0
 21
-145.4999999999980105
 31
0.0
1001
ACDBBLOCKREPETAG
1070
     1
1071
       50
1005
127DDD
  0
LINE
  5
127DF3
  8
HIDDEN
 10
2412.0
 20
-244.4999999999980105
 30
0.0
 11
2412.0
 21
-155.4999999999980105
 31
0.0
1001
ACDBBLOCKREPETAG
1070
     1
1071
       51
1005
127DDE
  0
LINE
  5
127DF4
  8
OBJECT
 10
2422.499999999998181
 20
-249.4999999999980105
 30
0.0
 11
2437.1529634747980708
 21
-249.4999999999980105
 31
0.0
1001
ACDBBLOCKREPETAG
1070
     1
1071
       52
1005
127DDF
  0
LINE
  5
127DF5
  8
OBJECT
 10
2422.5
 20
-150.4999999999980105
 30
0.0
 11
2437.1529634747980708
 21
-150.4999999999980105
 31
0.0
1001
ACDBBLOCKREPETAG
1070
     1
1071
       53
1005
127DE0
  0
LINE
  5
127DF6
  8
OBJECT
 10
2417.5
 20
-254.4999999999980105
 30
0.0
 11
2417.5
 21
-145.4999999999980105
 31
0.0
1001
ACDBBLOCKREPETAG
1070
     1
1071
       54
1005
127DE1
  0
LINE
  5
127DF7
  8
OBJECT
 10
2422.499999999998181
 20
-249.4999999999980105
 30
0.0
 11
2422.4999999999990905
 21
-219.843134832981093
 31
0.0
1001
ACDBBLOCKREPETAG
1070
     1
1071
       55
1005
127DE2
  0
LINE
  5
127DF8
  8
OBJECT
 10
2422.4999999999990905
 20
-180.1568651670121142
 30
0.0
 11
2422.5
 21
-150.4999999999980105
 31
0.0
1001
ACDBBLOCKREPETAG
1070
     1
1071
       55
1005
127DE2
  0
LINE
  5
127DF9
  8
OBJECT
 10
2417.5
 20
-254.4999999999980105
 30
0.0
 11
2422.499999999998181
 21
-249.4999999999980105
 31
0.0
1001
ACDBBLOCKREPETAG
1070
     1
1071
       56
1005
127DE4
  0
LINE
  5
127DFA
  8
OBJECT
 10
2422.5
 20
-150.4999999999980105
 30
0.0
 11
2417.5
 21
-145.5000000000015916
 31
0.0
1001
ACDBBLOCKREPETAG
1070
     1
1071
       57
1005
127DE5
  0
LINE
  5
127DFB
  8
OBJECT
 10
4366.9999999999990905
 20
-261.9999999999980105
 30
0.0
 11
4359.9999999999990905
 21
-261.9999999999980105
 31
0.0
1001
ACDBBLOCKREPETAG
1070
     1
1071
       38
1005
127DD1
  0
LINE
  5
127DFC
  8
OBJECT
 10
4359.9999999999990905
 20
-261.9999999999980105
 30
0.0
 11
4360.0000000000009095
 21
-137.9999999999980105
 31
0.0
1001
ACDBBLOCKREPETAG
1070
     1
1071
       39
1005
127DD2
  0
LINE
  5
127DFD
  8
OBJECT
 10
4360.0000000000009095
 20
-137.9999999999980105
 30
0.0
 11
4367.0
 21
-137.9999999999980105
 31
0.0
1001
ACDBBLOCKREPETAG
1070
     1
1071
       40
1005
127DD3
  0
LINE
  5
127DFE
  8
OBJECT
 10
4367.0
 20
-137.9999999999980105
 30
0.0
 11
4366.9999999999990905
 21
-261.9999999999980105
 31
0.0
1001
ACDBBLOCKREPETAG
1070
     1
1071
       41
1005
127DD4
  0
LINE
  5
127DFF
  8
CENTER
 10
4345.0000000000009095
 20
-199.9999999999980105
 30
0.0
 11
4420.0
 21
-199.9999999999980105
 31
0.0
1001
ACDBBLOCKREPETAG
1070
     1
1071
       42
1005
127DD5
  0
LINE
  5
127E00
  8
OBJECT
 10
4366.9999999999990905
 20
-258.9999999999980105
 30
0.0
 11
4402.9999999999990905
 21
-258.9999999999980105
 31
0.0
1001
ACDBBLOCKREPETAG
1070
     1
1071
       43
1005
127DD6
  0
LINE
  5
127E01
  8
OBJECT
 10
4402.9999999999990905
 20
-258.9999999999980105
 30
0.0
 11
4403.0000000000009095
 21
-140.9999999999980105
 31
0.0
1001
ACDBBLOCKREPETAG
1070
     1
1071
       44
1005
127DD7
  0
LINE
  5
127E02
  8
OBJECT
 10
4403.0000000000009095
 20
-140.9999999999980105
 30
0.0
 11
4367.0
 21
-140.9999999999980105
 31
0.0
1001
ACDBBLOCKREPETAG
1070
     1
1071
       45
1005
127DD8
  0
LINE
  5
127E03
  8
OBJECT
 10
4406.9999999999990905
 20
-254.4999999999980105
 30
0.0
 11
4417.4999999999990905
 21
-254.4999999999980105
 31
0.0
1001
ACDBBLOCKREPETAG
1070
     1
1071
       46
1005
127DD9
  0
LINE
  5
127E04
  8
OBJECT
 10
4417.5000000000009095
 20
-145.4999999999980105
 30
0.0
 11
4407.0
 21
-145.4999999999980105
 31
0.0
1001
ACDBBLOCKREPETAG
1070
     1
1071
       47
1005
127DDA
  0
LINE
  5
127E05
  8
OBJECT
 10
4407.0
 20
-145.4999999999980105
 30
0.0
 11
4406.9999999999990905
 21
-254.4999999999980105
 31
0.0
1001
ACDBBLOCKREPETAG
1070
     1
1071
       48
1005
127DDB
  0
LINE
  5
127E06
  8
OBJECT
 10
4402.9999999999990905
 20
-258.9999999999980105
 30
0.0
 11
4406.9999999999990905
 21
-254.4999999999980105
 31
0.0
1001
ACDBBLOCKREPETAG
1070
     1
1071
       49
1005
127DDC
  0
LINE
  5
127E07
  8
OBJECT
 10
4403.0000000000009095
 20
-140.9999999999980105
 30
0.0
 11
4407.0
 21
-145.4999999999980105
 31
0.0
1001
ACDBBLOCKREPETAG
1070
     1
1071
       50
1005
127DDD
  0
LINE
  5
127E08
  8
HIDDEN
 10
4411.9999999999990905
 20
-244.4999999999980105
 30
0.0
 11
4412.0000000000009095
 21
-155.4999999999980105
 31
0.0
1001
ACDBBLOCKREPETAG
1070
     1
1071
       51
1005
127DDE
  0
LINE
  5
127E09
  8
OBJECT
 10
4422.4999999999990905
 20
-249.4999999999980105
 30
0.0
 11
4437.1529634747967066
 21
-249.4999999999980105
 31
0.0
1001
ACDBBLOCKREPETAG
1070
     1
1071
       52
1005
127DDF
  0
LINE
  5
127E0A
  8
OBJECT
 10
4422.5000000000009095
 20
-150.4999999999980105
 30
0.0
 11
4437.1529634747967066
 21
-150.4999999999980105
 31
0.0
1001
ACDBBLOCKREPETAG
1070
     1
1071
       53
1005
127DE0
  0
LINE
  5
127E0B
  8
OBJECT
 10
4417.4999999999990905
 20
-254.4999999999980105
 30
0.0
 11
4417.5000000000009095
 21
-145.4999999999980105
 31
0.0
1001
ACDBBLOCKREPETAG
1070
     1
1071
       54
1005
127DE1
  0
LINE
  5
127E0C
  8
OBJECT
 10
4422.4999999999990905
 20
-249.4999999999980105
 30
0.0
 11
4422.5
 21
-219.843134832981093
 31
0.0
1001
ACDBBLOCKREPETAG
1070
     1
1071
       55
1005
127DE2
  0
LINE
  5
127E0D
  8
OBJECT
 10
4422.5
 20
-180.1568651670121142
 30
0.0
 11
4422.5000000000009095
 21
-150.4999999999980105
 31
0.0
1001
ACDBBLOCKREPETAG
1070
     1
1071
       55
1005
127DE2
  0
LINE
  5
127E0E
  8
OBJECT
 10
4417.4999999999990905
 20
-254.4999999999980105
 30
0.0
 11
4422.4999999999990905
 21
-249.4999999999980105
 31
0.0
1001
ACDBBLOCKREPETAG
1070
     1
1071
       56
1005
127DE4
  0
LINE
  5
127E0F
  8
OBJECT
 10
4422.5000000000009095
 20
-150.4999999999980105
 30
0.0
 11
4417.5000000000009095
 21
-145.5000000000015916
 31
0.0
1001
ACDBBLOCKREPETAG
1070
     1
1071
       57
1005
127DE5
  0
TEXT
  5
127E1E
  8
SLIM
 10
0.0
 20
370.0
 30
0.0
 40
100.0
  1
4SRT2-A1-A00X0-PXXX-S
 41
0.75
  0
TEXT
  5
127E1F
  8
SLIM
 10
2356.25
 20
-1752.4999999999979536
 30
0.0
 40
35.0
  1
片受けスタイル（S）
 41
0.75
  0
TEXT
  5
127E20
  8
SLIM
 10
4241.6249999999990905
 20
-1752.4999999999979536
 30
0.0
 40
35.0
  1
片受けスタイル（S）＋シンドカット
 41
0.75
  0
TEXT
  5
127E21
  8
SLIM
 10
2350.0
 20
369.9999999999998863
 30
0.0
 40
100.0
  1
4SRT2-A1-A0030-P420
 41
0.75
  0
TEXT
  5
127E22
  8
SLIM
 10
2350.0
 20
532.5
 30
0.0
 40
75.0
  1
側面図の代表機種
 41
0.75
  0
TEXT
  5
127E23
  8
SLIM
 10
2337.75
 20
282.5000000000001137
 30
0.0
 40
35.0
  1
（枝管サイズ毎に寸法が異なります。管底の位置は全サイズで同じです）
 41
0.75
  0
TEXT
  5
127E24
  8
SLIM
 10
2396.75
 20
-3982.4999999999968168
 30
0.0
 40
35.0
  1
通常枝50（1）
 41
0.75
  0
TEXT
  5
127E25
  8
SLIM
 10
3394.2499999999990905
 20
-3982.4999999999968168
 30
0.0
 40
35.0
  1
通常枝65（2）
 41
0.75
  0
TEXT
  5
127E26
  8
SLIM
 10
4394.25
 20
-3982.4999999999968168
 30
0.0
 40
35.0
  1
通常枝75（3）
 41
0.75
  0
TEXT
  5
127E27
  8
SLIM
 10
2350.0
 20
-2997.5
 30
0.0
 40
75.0
  1
下部枝管サイズ毎の形状
 41
0.75
  0
TEXT
  5
127E28
  8
SLIM
 10
3542.1428571428559735
 20
-3097.5000160472709467
 30
0.0
 40
40.0
  1
110
 41
0.75
  0
TEXT
  5
127E29
  8
SLIM
 10
3420.0
 20
-3097.5000160472709467
 30
0.0
 40
40.0
  1
94
 41
0.75
  0
TEXT
  5
127E2A
  8
SLIM
 10
3668.5714285714288962
 20
-3097.5000160472709467
 30
0.0
 40
40.0
  1
124
 41
0.75
  0
TEXT
  5
127E2B
  8
SLIM
 10
3397.0
 20
-3027.5000160472700372
 30
0.0
 40
30.0
  1
50（1）
 41
0.75
  0
TEXT
  5
127E2C
  8
SLIM
 10
3524.8571428571422075
 20
-3027.5000160472700372
 30
0.0
 40
30.0
  1
65（2）
 41
0.75
  0
TEXT
  5
127E2D
  8
SLIM
 10
3654.8571428571422075
 20
-3027.5000160472700372
 30
0.0
 40
30.0
  1
75（3）
 41
0.75
  0
TEXT
  5
127E2E
  8
SLIM
 10
3471.0
 20
-2972.5000160472709467
 30
0.0
 40
40.0
  1
横枝管サイズ
 41
0.75
  0
TEXT
  5
127E2F
  8
SLIM
 10
3550.7142857142848698
 20
-3167.5000160472709467
 30
0.0
 40
40.0
  1
52
 41
0.75
  0
TEXT
  5
127E30
  8
SLIM
 10
3420.0
 20
-3167.5000160472709467
 30
0.0
 40
40.0
  1
44
 41
0.75
  0
TEXT
  5
127E31
  8
SLIM
 10
3681.4285714285711038
 20
-3167.5000160472709467
 30
0.0
 40
40.0
  1
59
 41
0.75
  0
TEXT
  5
127E32
  8
SLIM
 10
3539.2857142857151302
 20
-3237.5000160472709467
 30
0.0
 40
40.0
  1
140
 41
0.75
  0
TEXT
  5
127E33
  8
SLIM
 10
3409.2857142857151302
 20
-3237.5000160472709467
 30
0.0
 40
40.0
  1
140
 41
0.75
  0
TEXT
  5
127E34
  8
SLIM
 10
3669.2857142857142208
 20
-3237.5000160472709467
 30
0.0
 40
40.0
  1
140
 41
0.75
  0
TEXT
  5
127E35
  8
SLIM
 10
3270.2857142857151302
 20
-3097.5000160472709467
 30
0.0
 40
40.0
  1
A寸法
 41
0.75
  0
TEXT
  5
127E36
  8
SLIM
 10
3270.9999999999990905
 20
-3167.5000160472709467
 30
0.0
 40
40.0
  1
B寸法
 41
0.75
  0
TEXT
  5
127E37
  8
SLIM
 10
3270.9999999999990905
 20
-3237.5000160472709467
 30
0.0
 40
40.0
  1
C寸法
 41
0.75
  0
LINE
  5
127E38
  8
DIM
 10
2500.0
 20
-3359.9999999999968168
 30
0.0
 11
2500.0
 21
-3322.2081219844449151
 31
0.0
  0
LINE
  5
127E39
  8
DIM
 10
2640.0
 20
-3402.9999999999968168
 30
0.0
 11
2640.0
 21
-3322.2081219844449151
 31
0.0
  0
LINE
  5
127E3A
  8
DIM
 10
2520.0
 20
-3332.2081219844440056
 30
0.0
 11
2620.0
 21
-3332.2081219844440056
 31
0.0
  0
INSERT
  5
127E3B
  8
DIM
  2
_OPEN30
 10
2500.0
 20
-3332.2081219844440056
 30
0.0
 41
20.0
 42
20.0
 43
20.0
 50
180.0
  0
INSERT
  5
127E3C
  8
DIM
  2
_OPEN30
 10
2640.0
 20
-3332.2081219844440056
 30
0.0
 41
20.0
 42
20.0
 43
20.0
  0
INSERT
  5
127E3D
  8
SLIM
  2
*U3
 10
0.0
 20
0.0
 30
0.0
  0
LINE
  5
127E3E
  8
DIM
 10
2650.0
 20
-3864.9999999999968168
 30
0.0
 11
2726.8409284037338693
 21
-3864.9999999999968168
 31
0.0
  0
LINE
  5
127E3F
  8
DIM
 10
2665.0
 20
-3820.9999999999968168
 30
0.0
 11
2726.8409284037338693
 21
-3820.9999999999968168
 31
0.0
  0
LINE
  5
127E40
  8
DIM
 10
2716.8409284037338693
 20
-3884.9999999999990905
 30
0.0
 11
2716.8409284037338693
 21
-3904.9999999999968168
 31
0.0
  0
LINE
  5
127E41
  8
DIM
 10
2716.8409284037338693
 20
-3800.999999999998181
 30
0.0
 11
2716.8409284037338693
 21
-3780.9999999999968168
 31
0.0
  0
LINE
  5
127E42
  8
DIM
 10
2716.8409284037338693
 20
-3864.9999999999968168
 30
0.0
 11
2716.8409284037338693
 21
-3820.9999999999968168
 31
0.0
  0
INSERT
  5
127E43
  8
DIM
  2
_OPEN30
 10
2716.8409284037338693
 20
-3864.9999999999968168
 30
0.0
 41
20.0
 42
20.0
 43
20.0
 50
90.0
  0
INSERT
  5
127E44
  8
DIM
  2
_OPEN30
 10
2716.8409284037338693
 20
-3820.9999999999968168
 30
0.0
 41
20.0
 42
20.0
 43
20.0
 50
270.0
  0
INSERT
  5
127E45
  8
SLIM
  2
*U4
 10
0.0
 20
0.0
 30
0.0
  0
LINE
  5
127E46
  8
DIM
 10
2650.0
 20
-3506.9999999999968168
 30
0.0
 11
2728.4796205944589929
 21
-3506.9999999999968168
 31
0.0
  0
LINE
  5
127E47
  8
DIM
 10
2650.0
 20
-3412.9999999999968168
 30
0.0
 11
2728.4796205944589929
 21
-3412.9999999999968168
 31
0.0
  0
LINE
  5
127E48
  8
DIM
 10
2718.4796205944589929
 20
-3486.9999999999959073
 30
0.0
 11
2718.4796205944589929
 21
-3432.9999999999959073
 31
0.0
  0
INSERT
  5
127E49
  8
DIM
  2
_OPEN30
 10
2718.4796205944589929
 20
-3506.9999999999968168
 30
0.0
 41
20.0
 42
20.0
 43
20.0
 50
270.0
  0
INSERT
  5
127E4A
  8
DIM
  2
_OPEN30
 10
2718.4796205944589929
 20
-3412.9999999999968168
 30
0.0
 41
20.0
 42
20.0
 43
20.0
 50
90.0
  0
INSERT
  5
127E4B
  8
SLIM
  2
*U5
 10
0.0
 20
0.0
 30
0.0
  0
TEXT
  5
127E4C
  8
SLIM
 10
0.0000035665234464
 20
24.0000045853176012
 30
0.0
 40
79.9999999999727152
  1
上部枝管
 41
0.75
1001
ACDBBLOCKREPETAG
1070
     1
1071
      119
1005
120BCB
  0
LINE
  5
127E4D
  8
OBJECT
 10
2633.0
 20
-664.0
 30
0.0
 11
2640.0
 21
-664.0
 31
0.0
1001
ACDBBLOCKREPETAG
1070
     1
1071
        7
1005
127E4D
  0
LINE
  5
127E4E
  8
OBJECT
 10
2640.0
 20
-664.0
 30
0.0
 11
2640.0
 21
-755.0
 31
0.0
1001
ACDBBLOCKREPETAG
1070
     1
1071
        8
1005
127E4E
  0
LINE
  5
127E4F
  8
OBJECT
 10
2633.0
 20
-755.0
 30
0.0
 11
2633.0
 21
-664.0
 31
0.0
1001
ACDBBLOCKREPETAG
1070
     1
1071
        9
1005
127E4F
  0
LINE
  5
127E50
  8
CENTER
 10
2655.0
 20
-711.0
 30
0.0
 11
2571.0
 21
-711.0
 31
0.0
1001
ACDBBLOCKREPETAG
1070
     1
1071
       10
1005
127E50
  0
LINE
  5
127E51
  8
OBJECT
 10
2633.0
 20
-667.0
 30
0.0
 11
2597.0
 21
-667.0
 31
0.0
1001
ACDBBLOCKREPETAG
1070
     1
1071
       11
1005
127E51
  0
LINE
  5
127E52
  8
OBJECT
 10
2597.0
 20
-667.0
 30
0.0
 11
2597.0
 21
-755.0
 31
0.0
1001
ACDBBLOCKREPETAG
1070
     1
1071
       12
1005
127E52
  0
LINE
  5
127E53
  8
OBJECT
 10
2597.0
 20
-755.0
 30
0.0
 11
2640.0
 21
-755.0
 31
0.0
1001
ACDBBLOCKREPETAG
1070
     1
1071
       13
1005
127E53
  0
LINE
  5
127E54
  8
OBJECT
 10
2593.0
 20
-671.4999999999997726
 30
0.0
 11
2586.0
 21
-671.4999999999997726
 31
0.0
1001
ACDBBLOCKREPETAG
1070
     1
1071
       14
1005
127E54
  0
LINE
  5
127E55
  8
OBJECT
 10
2586.0
 20
-750.4999999999998863
 30
0.0
 11
2593.0
 21
-750.4999999999998863
 31
0.0
1001
ACDBBLOCKREPETAG
1070
     1
1071
       15
1005
127E55
  0
LINE
  5
127E56
  8
OBJECT
 10
2593.0
 20
-750.4999999999998863
 30
0.0
 11
2593.0
 21
-671.4999999999997726
 31
0.0
1001
ACDBBLOCKREPETAG
1070
     1
1071
       16
1005
127E56
  0
LINE
  5
127E57
  8
OBJECT
 10
2597.0
 20
-667.0
 30
0.0
 11
2593.0
 21
-671.4999999999997726
 31
0.0
1001
ACDBBLOCKREPETAG
1070
     1
1071
       17
1005
127E57
  0
LINE
  5
127E58
  8
OBJECT
 10
2597.0
 20
-755.0
 30
0.0
 11
2593.0
 21
-750.4999999999998863
 31
0.0
1001
ACDBBLOCKREPETAG
1070
     1
1071
       18
1005
127E58
  0
LINE
  5
127E59
  8
OBJECT
 10
2583.0
 20
-634.0
 30
0.0
 11
2580.0
 21
-634.0
 31
0.0
1001
ACDBBLOCKREPETAG
1070
     1
1071
       19
1005
127E59
  0
ARC
  5
127E5A
  8
OBJECT
 10
2583.0
 20
-637.0
 30
0.0
 40
3.0
 50
0.0
 51
90.0
1001
ACDBBLOCKREPETAG
1070
     1
1071
       20
1005
127E5A
  0
LINE
  5
127E5B
  8
OBJECT
 10
2580.0
 20
-758.0
 30
0.0
 11
2583.0
 21
-758.0
 31
0.0
1001
ACDBBLOCKREPETAG
1070
     1
1071
       21
1005
127E5B
  0
ARC
  5
127E5C
  8
OBJECT
 10
2583.0
 20
-755.0
 30
0.0
 40
3.0
 50
270.0
 51
0.0
1001
ACDBBLOCKREPETAG
1070
     1
1071
       22
1005
127E5C
  0
LINE
  5
127E5D
  8
OBJECT
 10
2586.0
 20
-755.0
 30
0.0
 11
2586.0
 21
-637.0
 31
0.0
1001
ACDBBLOCKREPETAG
1070
     1
1071
       23
1005
127E5D
  0
LINE
  5
127E5E
  8
HIDDEN
 10
2588.0
 20
-681.0
 30
0.0
 11
2588.0
 21
-741.0
 31
0.0
1001
ACDBBLOCKREPETAG
1070
     1
1071
       24
1005
127E5E
  0
TEXT
  5
127E5F
  8
SLIM
 10
156.8571428570824082
 20
-443.999999999849706
 30
0.0
 40
48.0
  1
A1
 41
0.75
1001
ACDBBLOCKREPETAG
1070
     1
1071
      119
1005
0
  0
LINE
  5
127E60
  8
OBJECT
 10
4633.0
 20
-664.0
 30
0.0
 11
4640.0
 21
-664.0
 31
0.0
1001
ACDBBLOCKREPETAG
1070
     1
1071
        7
1005
127E60
  0
LINE
  5
127E61
  8
OBJECT
 10
4640.0
 20
-664.0
 30
0.0
 11
4640.0
 21
-755.0
 31
0.0
1001
ACDBBLOCKREPETAG
1070
     1
1071
        8
1005
127E61
  0
LINE
  5
127E62
  8
OBJECT
 10
4633.0
 20
-755.0
 30
0.0
 11
4633.0
 21
-664.0
 31
0.0
1001
ACDBBLOCKREPETAG
1070
     1
1071
        9
1005
127E62
  0
LINE
  5
127E63
  8
CENTER
 10
4655.0
 20
-711.0
 30
0.0
 11
4571.0
 21
-711.0
 31
0.0
1001
ACDBBLOCKREPETAG
1070
     1
1071
       10
1005
127E63
  0
LINE
  5
127E64
  8
OBJECT
 10
4633.0
 20
-667.0
 30
0.0
 11
4597.0
 21
-667.0
 31
0.0
1001
ACDBBLOCKREPETAG
1070
     1
1071
       11
1005
127E64
  0
LINE
  5
127E65
  8
OBJECT
 10
4597.0
 20
-667.0
 30
0.0
 11
4597.0
 21
-755.0
 31
0.0
1001
ACDBBLOCKREPETAG
1070
     1
1071
       12
1005
127E65
  0
LINE
  5
127E66
  8
OBJECT
 10
4597.0
 20
-755.0
 30
0.0
 11
4640.0
 21
-755.0
 31
0.0
1001
ACDBBLOCKREPETAG
1070
     1
1071
       13
1005
127E66
  0
LINE
  5
127E67
  8
OBJECT
 10
4593.0
 20
-671.4999999999997726
 30
0.0
 11
4586.0
 21
-671.4999999999997726
 31
0.0
1001
ACDBBLOCKREPETAG
1070
     1
1071
       14
1005
127E67
  0
LINE
  5
127E68
  8
OBJECT
 10
4586.0
 20
-750.4999999999998863
 30
0.0
 11
4593.0
 21
-750.4999999999998863
 31
0.0
1001
ACDBBLOCKREPETAG
1070
     1
1071
       15
1005
127E68
  0
LINE
  5
127E69
  8
OBJECT
 10
4593.0
 20
-750.4999999999998863
 30
0.0
 11
4593.0
 21
-671.4999999999997726
 31
0.0
1001
ACDBBLOCKREPETAG
1070
     1
1071
       16
1005
127E69
  0
LINE
  5
127E6A
  8
OBJECT
 10
4597.0
 20
-667.0
 30
0.0
 11
4593.0
 21
-671.4999999999997726
 31
0.0
1001
ACDBBLOCKREPETAG
1070
     1
1071
       17
1005
127E6A
  0
LINE
  5
127E6B
  8
OBJECT
 10
4597.0
 20
-755.0
 30
0.0
 11
4593.0
 21
-750.4999999999998863
 31
0.0
1001
ACDBBLOCKREPETAG
1070
     1
1071
       18
1005
127E6B
  0
LINE
  5
127E6C
  8
OBJECT
 10
4583.0
 20
-634.0
 30
0.0
 11
4580.0
 21
-634.0
 31
0.0
1001
ACDBBLOCKREPETAG
1070
     1
1071
       19
1005
127E6C
  0
ARC
  5
127E6D
  8
OBJECT
 10
4583.0
 20
-637.0
 30
0.0
 40
3.0
 50
0.0
 51
90.0
1001
ACDBBLOCKREPETAG
1070
     1
1071
       20
1005
127E6D
  0
LINE
  5
127E6E
  8
OBJECT
 10
4580.0
 20
-758.0
 30
0.0
 11
4583.0
 21
-758.0
 31
0.0
1001
ACDBBLOCKREPETAG
1070
     1
1071
       21
1005
127E6E
  0
ARC
  5
127E6F
  8
OBJECT
 10
4583.0
 20
-755.0
 30
0.0
 40
3.0
 50
270.0
 51
0.0
1001
ACDBBLOCKREPETAG
1070
     1
1071
       22
1005
127E6F
  0
LINE
  5
127E70
  8
OBJECT
 10
4586.0
 20
-755.0
 30
0.0
 11
4586.0
 21
-637.0
 31
0.0
1001
ACDBBLOCKREPETAG
1070
     1
1071
       23
1005
127E70
  0
LINE
  5
127E71
  8
HIDDEN
 10
4588.0
 20
-681.0
 30
0.0
 11
4588.0
 21
-741.0
 31
0.0
1001
ACDBBLOCKREPETAG
1070
     1
1071
       24
1005
127E71
  0
LINE
  5
127E72
  8
OBJECT
 10
2633.0
 20
-3412.9999999999968168
 30
0.0
 11
2640.0
 21
-3412.9999999999968168
 31
0.0
1001
ACDBBLOCKREPETAG
1070
     1
1071
        0
1005
127E72
  0
LINE
  5
127E73
  8
OBJECT
 10
2640.0
 20
-3412.9999999999968168
 30
0.0
 11
2640.0
 21
-3506.9999999999968168
 31
0.0
1001
ACDBBLOCKREPETAG
1070
     1
1071
        1
1005
127E73
  0
LINE
  5
127E74
  8
OBJECT
 10
2640.0
 20
-3506.9999999999968168
 30
0.0
 11
2633.0
 21
-3506.9999999999968168
 31
0.0
1001
ACDBBLOCKREPETAG
1070
     1
1071
        2
1005
127E74
  0
LINE
  5
127E75
  8
OBJECT
 10
2633.0
 20
-3506.9999999999968168
 30
0.0
 11
2633.0
 21
-3412.9999999999968168
 31
0.0
1001
ACDBBLOCKREPETAG
1070
     1
1071
        3
1005
127E75
  0
LINE
  5
127E76
  8
CENTER
 10
2655.0
 20
-3459.9999999999968168
 30
0.0
 11
2580.0
 21
-3459.9999999999968168
 31
0.0
1001
ACDBBLOCKREPETAG
1070
     1
1071
        4
1005
127E76
  0
LINE
  5
127E77
  8
OBJECT
 10
2633.0
 20
-3415.9999999999959073
 30
0.0
 11
2596.9999999999990905
 21
-3415.9999999999959073
 31
0.0
1001
ACDBBLOCKREPETAG
1070
     1
1071
        5
1005
127E77
  0
LINE
  5
127E78
  8
OBJECT
 10
2596.9999999999990905
 20
-3415.9999999999959073
 30
0.0
 11
2596.9999999999990905
 21
-3503.9999999999959073
 31
0.0
1001
ACDBBLOCKREPETAG
1070
     1
1071
        6
1005
127E78
  0
LINE
  5
127E79
  8
OBJECT
 10
2596.9999999999990905
 20
-3503.9999999999959073
 30
0.0
 11
2633.0
 21
-3503.9999999999959073
 31
0.0
1001
ACDBBLOCKREPETAG
1070
     1
1071
        7
1005
127E79
  0
LINE
  5
127E7A
  8
OBJECT
 10
2593.0
 20
-3420.4999999999959073
 30
0.0
 11
2584.5
 21
-3420.4999999999959073
 31
0.0
1001
ACDBBLOCKREPETAG
1070
     1
1071
        8
1005
127E7A
  0
LINE
  5
127E7B
  8
OBJECT
 10
2584.5
 20
-3499.4999999999959073
 30
0.0
 11
2593.0
 21
-3499.4999999999959073
 31
0.0
1001
ACDBBLOCKREPETAG
1070
     1
1071
        9
1005
127E7B
  0
LINE
  5
127E7C
  8
OBJECT
 10
2593.0
 20
-3499.4999999999959073
 30
0.0
 11
2593.0
 21
-3420.4999999999959073
 31
0.0
1001
ACDBBLOCKREPETAG
1070
     1
1071
       10
1005
127E7C
  0
LINE
  5
127E7D
  8
OBJECT
 10
2596.9999999999990905
 20
-3415.9999999999959073
 30
0.0
 11
2593.0
 21
-3420.4999999999959073
 31
0.0
1001
ACDBBLOCKREPETAG
1070
     1
1071
       11
1005
127E7D
  0
LINE
  5
127E7E
  8
OBJECT
 10
2596.9999999999990905
 20
-3503.9999999999959073
 30
0.0
 11
2593.0
 21
-3499.4999999999959073
 31
0.0
1001
ACDBBLOCKREPETAG
1070
     1
1071
       12
1005
127E7E
  0
LINE
  5
127E7F
  8
OBJECT
 10
2584.499999999998181
 20
-3506.4999999999959073
 30
0.0
 11
2584.5
 21
-3413.4999999999959073
 31
0.0
1001
ACDBBLOCKREPETAG
1070
     1
1071
       13
1005
127E7F
  0
ARC
  5
127E80
  8
OBJECT
 10
2581.5
 20
-3413.4999999999959073
 30
0.0
 40
3.0
 50
0.0
 51
90.0
1001
ACDBBLOCKREPETAG
1070
     1
1071
       14
1005
127E80
  0
LINE
  5
127E81
  8
HIDDEN
 10
2588.0
 20
-3429.9999999999959073
 30
0.0
 11
2588.0
 21
-3489.9999999999968168
 31
0.0
1001
ACDBBLOCKREPETAG
1070
     1
1071
       15
1005
127E81
  0
LINE
  5
127E82
  8
OBJECT
 10
2581.5
 20
-3410.4999999999959073
 30
0.0
 11
2556.3449199129800036
 21
-3410.4999999999959073
 31
0.0
1001
ACDBBLOCKREPETAG
1070
     1
1071
       17
1005
127E82
  0
LINE
  5
127E83
  8
OBJECT
 10
2581.499999999998181
 20
-3509.4999999999959073
 30
0.0
 11
2556.3449199129800036
 21
-3509.4999999999959073
 31
0.0
1001
ACDBBLOCKREPETAG
1070
     1
1071
       18
1005
127E83
  0
ARC
  5
127E84
  8
OBJECT
 10
2581.499999999998181
 20
-3506.4999999999959073
 30
0.0
 40
3.0
 50
270.0
 51
0.0
1001
ACDBBLOCKREPETAG
1070
     1
1071
       19
1005
127E84
  0
LINE
  5
127E85
  8
OBJECT
 10
2633.0
 20
-3773.9999999999968168
 30
0.0
 11
2640.0
 21
-3773.9999999999968168
 31
0.0
1001
ACDBBLOCKREPETAG
1070
     1
1071
        0
1005
127E85
  0
LINE
  5
127E86
  8
OBJECT
 10
2640.0
 20
-3773.9999999999968168
 30
0.0
 11
2640.0
 21
-3864.9999999999968168
 31
0.0
1001
ACDBBLOCKREPETAG
1070
     1
1071
        1
1005
127E86
  0
LINE
  5
127E87
  8
OBJECT
 10
2584.5
 20
-3759.5000000000618456
 30
0.0
 11
2584.5
 21
-3862.4999999999968168
 31
0.0
1001
ACDBBLOCKREPETAG
1070
     1
1071
        2
1005
127E87
  0
ARC
  5
127E88
  8
OBJECT
 10
2581.5
 20
-3759.5000000000618456
 30
0.0
 40
3.0
 50
0.0
 51
90.0
1001
ACDBBLOCKREPETAG
1070
     1
1071
        3
1005
127E88
  0
LINE
  5
127E89
  8
OBJECT
 10
2633.0
 20
-3864.9999999999968168
 30
0.0
 11
2633.0
 21
-3773.9999999999968168
 31
0.0
1001
ACDBBLOCKREPETAG
1070
     1
1071
        4
1005
127E89
  0
LINE
  5
127E8A
  8
CENTER
 10
2655.0
 20
-3820.9999999999968168
 30
0.0
 11
2541.9118237135839991
 21
-3820.9999999999968168
 31
0.0
1001
ACDBBLOCKREPETAG
1070
     1
1071
        5
1005
127E8A
  0
LINE
  5
127E8B
  8
OBJECT
 10
2633.0
 20
-3776.9999999999968168
 30
0.0
 11
2596.9999999999990905
 21
-3776.9999999999968168
 31
0.0
1001
ACDBBLOCKREPETAG
1070
     1
1071
        6
1005
127E8B
  0
LINE
  5
127E8C
  8
OBJECT
 10
2596.9999999999990905
 20
-3776.9999999999968168
 30
0.0
 11
2596.9999999999990905
 21
-3864.9999999999968168
 31
0.0
1001
ACDBBLOCKREPETAG
1070
     1
1071
        7
1005
127E8C
  0
LINE
  5
127E8D
  8
OBJECT
 10
2596.9999999999990905
 20
-3864.9999999999968168
 30
0.0
 11
2640.0
 21
-3864.9999999999968168
 31
0.0
1001
ACDBBLOCKREPETAG
1070
     1
1071
        8
1005
127E8D
  0
LINE
  5
127E8E
  8
OBJECT
 10
2593.0
 20
-3781.4999999999959073
 30
0.0
 11
2584.5
 21
-3781.4999999999959073
 31
0.0
1001
ACDBBLOCKREPETAG
1070
     1
1071
        9
1005
127E8E
  0
LINE
  5
127E8F
  8
OBJECT
 10
2584.5
 20
-3860.4999999999959073
 30
0.0
 11
2593.0
 21
-3860.4999999999959073
 31
0.0
1001
ACDBBLOCKREPETAG
1070
     1
1071
       10
1005
127E8F
  0
LINE
  5
127E90
  8
OBJECT
 10
2593.0
 20
-3860.4999999999959073
 30
0.0
 11
2593.0
 21
-3781.4999999999959073
 31
0.0
1001
ACDBBLOCKREPETAG
1070
     1
1071
       11
1005
127E90
  0
LINE
  5
127E91
  8
OBJECT
 10
2596.9999999999990905
 20
-3776.9999999999968168
 30
0.0
 11
2593.0
 21
-3781.4999999999959073
 31
0.0
1001
ACDBBLOCKREPETAG
1070
     1
1071
       12
1005
127E91
  0
LINE
  5
127E92
  8
OBJECT
 10
2596.9999999999990905
 20
-3864.9999999999968168
 30
0.0
 11
2593.0
 21
-3860.4999999999959073
 31
0.0
1001
ACDBBLOCKREPETAG
1070
     1
1071
       13
1005
127E92
  0
LINE
  5
127E93
  8
HIDDEN
 10
2588.0
 20
-3790.9999999999959073
 30
0.0
 11
2588.0
 21
-3850.9999999999959073
 31
0.0
1001
ACDBBLOCKREPETAG
1070
     1
1071
       14
1005
127E93
  0
ARC
  5
127E94
  8
OBJECT
 10
2664.8782728787741689
 20
-3821.4095072612249169
 30
0.0
 40
110.866352283089995
 50
144.1634274191434031
 51
163.0403538043316871
1001
ACDBBLOCKREPETAG
1070
     1
1071
       15
1005
127E94
  0
ARC
  5
127E95
  8
OBJECT
 10
2617.1359887769071975
 20
-3806.2877497184449567
 30
0.0
 40
60.7917498803589567
 50
163.5472046522266965
 51
179.7287969828267933
1001
ACDBBLOCKREPETAG
1070
     1
1071
       16
1005
127E95
  0
ARC
  5
127E96
  8
OBJECT
 10
2617.1359956562478146
 20
-3812.7122497598970767
 30
0.0
 40
60.7917567620948702
 50
180.2712034781451962
 51
196.4527794605338045
1001
ACDBBLOCKREPETAG
1070
     1
1071
       17
1005
127E96
  0
ARC
  5
127E97
  8
OBJECT
 10
2664.8782728787741689
 20
-3797.590492738832836
 30
0.0
 40
110.8663522830916008
 50
196.9596461956681139
 51
215.8365725808565969
1001
ACDBBLOCKREPETAG
1070
     1
1071
       18
1005
127E97
  0
LINE
  5
127E98
  8
OBJECT
 10
2556.3449199130041052
 20
-3806.0000000000331966
 30
0.0
 11
2556.3449199130041052
 21
-3813.0000000000291038
 31
0.0
1001
ACDBBLOCKREPETAG
1070
     1
1071
       19
1005
127E98
  0
LINE
  5
127E99
  8
OBJECT
 10
2575.0
 20
-3756.5000000000618456
 30
0.0
 11
2581.5
 21
-3756.5000000000618456
 31
0.0
1001
ACDBBLOCKREPETAG
1070
     1
1071
       20
1005
127E99
  0
LINE
  5
127E9A
  8
OBJECT
 10
2575.0
 20
-3862.4999999999968168
 30
0.0
 11
2584.5
 21
-3862.4999999999968168
 31
0.0
1001
ACDBBLOCKREPETAG
1070
     1
1071
       21
1005
127E9A
  0
LINE
  5
127E9B
  8
CENTER
 10
2838.0
 20
-3820.9999999999968168
 30
0.0
 11
2962.0
 21
-3820.9999999999968168
 31
0.0
1001
ACDBBLOCKREPETAG
1070
     1
1071
        0
1005
127E9B
  0
CIRCLE
  5
127E9C
  8
OBJECT
 10
2900.0
 20
-3820.9999999999968168
 30
0.0
 40
28.0
1001
ACDBBLOCKREPETAG
1070
     1
1071
        2
1005
127E9C
  0
CIRCLE
  5
127E9D
  8
OBJECT
 10
2900.0
 20
-3820.9999999999968168
 30
0.0
 40
39.0
1001
ACDBBLOCKREPETAG
1070
     1
1071
        3
1005
127E9D
  0
ARC
  5
127E9E
  8
OBJECT
 10
2900.0
 20
-3820.9999999999968168
 30
0.0
 40
47.0
 50
290.5819692114441182
 51
249.4180307885559102
1001
ACDBBLOCKREPETAG
1070
     1
1071
        4
1005
127E9E
  0
LINE
  5
127E9F
  8
OBJECT
 10
2883.4772883581417773
 20
-3864.9999999999968168
 30
0.0
 11
2916.5227116418568585
 21
-3864.9999999999968168
 31
0.0
1001
ACDBBLOCKREPETAG
1070
     1
1071
        5
1005
127E9F
  0
ARC
  5
127EA0
  8
OBJECT
 10
2900.0
 20
-3805.9999999999931788
 30
0.0
 40
49.5
 50
0.0
 51
180.0
1001
ACDBBLOCKREPETAG
1070
     1
1071
        6
1005
127EA0
  0
LINE
  5
127EA1
  8
OBJECT
 10
2850.5000000000031832
 20
-3805.9999999999931788
 30
0.0
 11
2850.5000000000031832
 21
-3812.9999999999968168
 31
0.0
1001
ACDBBLOCKREPETAG
1070
     1
1071
        7
1005
127EA1
  0
LINE
  5
127EA2
  8
OBJECT
 10
2949.5000000000068212
 20
-3805.9999999999931788
 30
0.0
 11
2949.5000000000068212
 21
-3812.9999999999968168
 31
0.0
1001
ACDBBLOCKREPETAG
1070
     1
1071
        8
1005
127EA2
  0
ARC
  5
127EA3
  8
OBJECT
 10
2900.0
 20
-3812.9999999999968168
 30
0.0
 40
49.5
 50
180.0
 51
202.6695638510487925
1001
ACDBBLOCKREPETAG
1070
     1
1071
        9
1005
127EA3
  0
ARC
  5
127EA4
  8
OBJECT
 10
2900.0
 20
-3812.9999999999968168
 30
0.0
 40
49.5
 50
337.3304361489512075
 51
0.0
1001
ACDBBLOCKREPETAG
1070
     1
1071
       10
1005
127EA4
  0
POINT
  5
127EA5
  8
DOTS
 10
2900.0
 20
-3864.9999999999968168
 30
0.0
1001
ACDBBLOCKREPETAG
1070
     1
1071
       25
1005
127EA5
  0
LINE
  5
127EA6
  8
OBJECT
 10
3633.0
 20
-3404.9999999999959073
 30
0.0
 11
3640.0
 21
-3404.9999999999959073
 31
0.0
1001
ACDBBLOCKREPETAG
1070
     1
1071
       20
1005
127EA6
  0
LINE
  5
127EA7
  8
OBJECT
 10
3640.0
 20
-3404.9999999999959073
 30
0.0
 11
3640.0
 21
-3514.9999999999968168
 31
0.0
1001
ACDBBLOCKREPETAG
1070
     1
1071
       21
1005
127EA7
  0
LINE
  5
127EA8
  8
OBJECT
 10
3640.0
 20
-3514.9999999999968168
 30
0.0
 11
3633.0
 21
-3514.9999999999968168
 31
0.0
1001
ACDBBLOCKREPETAG
1070
     1
1071
       22
1005
127EA8
  0
LINE
  5
127EA9
  8
OBJECT
 10
3633.0
 20
-3514.9999999999968168
 30
0.0
 11
3633.0
 21
-3404.9999999999959073
 31
0.0
1001
ACDBBLOCKREPETAG
1070
     1
1071
       23
1005
127EA9
  0
LINE
  5
127EAA
  8
CENTER
 10
3655.0
 20
-3459.9999999999968168
 30
0.0
 11
3580.0
 21
-3459.9999999999968168
 31
0.0
1001
ACDBBLOCKREPETAG
1070
     1
1071
       24
1005
127EAA
  0
LINE
  5
127EAB
  8
OBJECT
 10
3633.0
 20
-3407.9999999999959073
 30
0.0
 11
3597.0
 21
-3407.9999999999959073
 31
0.0
1001
ACDBBLOCKREPETAG
1070
     1
1071
       25
1005
127EAB
  0
LINE
  5
127EAC
  8
OBJECT
 10
3597.0
 20
-3407.9999999999959073
 30
0.0
 11
3597.0
 21
-3511.9999999999959073
 31
0.0
1001
ACDBBLOCKREPETAG
1070
     1
1071
       26
1005
127EAC
  0
LINE
  5
127EAD
  8
OBJECT
 10
3597.0
 20
-3511.9999999999959073
 30
0.0
 11
3633.0
 21
-3511.9999999999959073
 31
0.0
1001
ACDBBLOCKREPETAG
1070
     1
1071
       27
1005
127EAD
  0
LINE
  5
127EAE
  8
OBJECT
 10
3593.0
 20
-3412.4999999999959073
 30
0.0
 11
3584.5
 21
-3412.4999999999959073
 31
0.0
1001
ACDBBLOCKREPETAG
1070
     1
1071
       28
1005
127EAE
  0
LINE
  5
127EAF
  8
OBJECT
 10
3584.5
 20
-3507.4999999999968168
 30
0.0
 11
3593.0
 21
-3507.4999999999968168
 31
0.0
1001
ACDBBLOCKREPETAG
1070
     1
1071
       29
1005
127EAF
  0
LINE
  5
127EB0
  8
OBJECT
 10
3593.0
 20
-3507.4999999999968168
 30
0.0
 11
3593.0
 21
-3412.4999999999959073
 31
0.0
1001
ACDBBLOCKREPETAG
1070
     1
1071
       30
1005
127EB0
  0
LINE
  5
127EB1
  8
OBJECT
 10
3597.0
 20
-3407.9999999999959073
 30
0.0
 11
3593.0
 21
-3412.4999999999959073
 31
0.0
1001
ACDBBLOCKREPETAG
1070
     1
1071
       31
1005
127EB1
  0
LINE
  5
127EB2
  8
OBJECT
 10
3597.0
 20
-3511.9999999999959073
 30
0.0
 11
3593.0
 21
-3507.4999999999968168
 31
0.0
1001
ACDBBLOCKREPETAG
1070
     1
1071
       32
1005
127EB2
  0
LINE
  5
127EB3
  8
OBJECT
 10
3584.499999999998181
 20
-3509.4999999999959073
 30
0.0
 11
3584.5
 21
-3410.4999999999959073
 31
0.0
1001
ACDBBLOCKREPETAG
1070
     1
1071
       33
1005
127EB3
  0
LINE
  5
127EB4
  8
HIDDEN
 10
3588.0
 20
-3421.9999999999968168
 30
0.0
 11
3588.0
 21
-3497.9999999999959073
 31
0.0
1001
ACDBBLOCKREPETAG
1070
     1
1071
       34
1005
127EB4
  0
LINE
  5
127EB5
  8
OBJECT
 10
3584.5
 20
-3410.4999999999959073
 30
0.0
 11
3556.3449199129800036
 21
-3410.4999999999959073
 31
0.0
1001
ACDBBLOCKREPETAG
1070
     1
1071
       35
1005
127EB5
  0
LINE
  5
127EB6
  8
OBJECT
 10
3584.499999999998181
 20
-3509.4999999999959073
 30
0.0
 11
3556.3449199129800036
 21
-3509.4999999999959073
 31
0.0
1001
ACDBBLOCKREPETAG
1070
     1
1071
       36
1005
127EB6
  0
LINE
  5
127EB7
  8
OBJECT
 10
3633.0
 20
-3757.9999999999959073
 30
0.0
 11
3640.0
 21
-3757.9999999999959073
 31
0.0
1001
ACDBBLOCKREPETAG
1070
     1
1071
       23
1005
127EB7
  0
LINE
  5
127EB8
  8
OBJECT
 10
3640.0
 20
-3757.9999999999959073
 30
0.0
 11
3640.0
 21
-3864.9999999999968168
 31
0.0
1001
ACDBBLOCKREPETAG
1070
     1
1071
       24
1005
127EB8
  0
LINE
  5
127EB9
  8
OBJECT
 10
3584.5
 20
-3759.5000000000618456
 30
0.0
 11
3584.5
 21
-3862.4999999999968168
 31
0.0
1001
ACDBBLOCKREPETAG
1070
     1
1071
       25
1005
127EB9
  0
ARC
  5
127EBA
  8
OBJECT
 10
3581.5
 20
-3759.5000000000618456
 30
0.0
 40
3.0
 50
0.0
 51
90.0
1001
ACDBBLOCKREPETAG
1070
     1
1071
       26
1005
127EBA
  0
LINE
  5
127EBB
  8
OBJECT
 10
3633.0
 20
-3864.9999999999968168
 30
0.0
 11
3633.0
 21
-3757.9999999999959073
 31
0.0
1001
ACDBBLOCKREPETAG
1070
     1
1071
       27
1005
127EBB
  0
LINE
  5
127EBC
  8
CENTER
 10
3655.0
 20
-3812.9999999999968168
 30
0.0
 11
3541.3449199130041052
 21
-3813.0000000000609361
 31
0.0
1001
ACDBBLOCKREPETAG
1070
     1
1071
       28
1005
127EBC
  0
LINE
  5
127EBD
  8
OBJECT
 10
3633.0
 20
-3760.9999999999968168
 30
0.0
 11
3597.0
 21
-3760.9999999999968168
 31
0.0
1001
ACDBBLOCKREPETAG
1070
     1
1071
       29
1005
127EBD
  0
LINE
  5
127EBE
  8
OBJECT
 10
3597.0
 20
-3760.9999999999968168
 30
0.0
 11
3597.0
 21
-3864.9999999999968168
 31
0.0
1001
ACDBBLOCKREPETAG
1070
     1
1071
       30
1005
127EBE
  0
LINE
  5
127EBF
  8
OBJECT
 10
3597.0
 20
-3864.9999999999968168
 30
0.0
 11
3640.0
 21
-3864.9999999999968168
 31
0.0
1001
ACDBBLOCKREPETAG
1070
     1
1071
       31
1005
127EBF
  0
LINE
  5
127EC0
  8
OBJECT
 10
3593.0
 20
-3765.4999999999968168
 30
0.0
 11
3584.5
 21
-3765.4999999999968168
 31
0.0
1001
ACDBBLOCKREPETAG
1070
     1
1071
       32
1005
127EC0
  0
LINE
  5
127EC1
  8
OBJECT
 10
3584.5
 20
-3860.4999999999959073
 30
0.0
 11
3593.0
 21
-3860.4999999999959073
 31
0.0
1001
ACDBBLOCKREPETAG
1070
     1
1071
       33
1005
127EC1
  0
LINE
  5
127EC2
  8
OBJECT
 10
3593.0
 20
-3860.4999999999959073
 30
0.0
 11
3593.0
 21
-3765.4999999999968168
 31
0.0
1001
ACDBBLOCKREPETAG
1070
     1
1071
       34
1005
127EC2
  0
LINE
  5
127EC3
  8
OBJECT
 10
3597.0
 20
-3760.9999999999968168
 30
0.0
 11
3593.0
 21
-3765.4999999999968168
 31
0.0
1001
ACDBBLOCKREPETAG
1070
     1
1071
       35
1005
127EC3
  0
LINE
  5
127EC4
  8
OBJECT
 10
3597.0
 20
-3864.9999999999968168
 30
0.0
 11
3593.0
 21
-3860.4999999999959073
 31
0.0
1001
ACDBBLOCKREPETAG
1070
     1
1071
       36
1005
127EC4
  0
LINE
  5
127EC5
  8
HIDDEN
 10
3588.0
 20
-3774.9999999999968168
 30
0.0
 11
3588.0
 21
-3850.9999999999959073
 31
0.0
1001
ACDBBLOCKREPETAG
1070
     1
1071
       37
1005
127EC5
  0
ARC
  5
127EC6
  8
OBJECT
 10
3664.8782728787741689
 20
-3821.4095072612249169
 30
0.0
 40
110.866352283089995
 50
144.1634274192888938
 51
163.0403538043316871
1001
ACDBBLOCKREPETAG
1070
     1
1071
       38
1005
127EC6
  0
ARC
  5
127EC7
  8
OBJECT
 10
3617.135988776908107
 20
-3806.2877497184449567
 30
0.0
 40
60.7917498803589567
 50
163.5472046522266965
 51
179.7287969828267933
1001
ACDBBLOCKREPETAG
1070
     1
1071
       39
1005
127EC7
  0
ARC
  5
127EC8
  8
OBJECT
 10
3617.1359956562491789
 20
-3812.7122497598970767
 30
0.0
 40
60.7917567620948702
 50
180.2712034781451962
 51
196.4527794605338045
1001
ACDBBLOCKREPETAG
1070
     1
1071
       40
1005
127EC8
  0
ARC
  5
127EC9
  8
OBJECT
 10
3664.8782728787741689
 20
-3797.590492738832836
 30
0.0
 40
110.8663522830916008
 50
196.9596461956681139
 51
215.8365725807111062
1001
ACDBBLOCKREPETAG
1070
     1
1071
       41
1005
127EC9
  0
LINE
  5
127ECA
  8
OBJECT
 10
3556.3449199130041052
 20
-3806.0000000000331966
 30
0.0
 11
3556.3449199130041052
 21
-3813.0000000000291038
 31
0.0
1001
ACDBBLOCKREPETAG
1070
     1
1071
       42
1005
127ECA
  0
LINE
  5
127ECB
  8
OBJECT
 10
3574.9999999999990905
 20
-3756.5000000000618456
 30
0.0
 11
3581.5
 21
-3756.5000000000618456
 31
0.0
1001
ACDBBLOCKREPETAG
1070
     1
1071
       43
1005
127ECB
  0
LINE
  5
127ECC
  8
OBJECT
 10
3574.9999999999990905
 20
-3862.4999999999968168
 30
0.0
 11
3584.5
 21
-3862.4999999999968168
 31
0.0
1001
ACDBBLOCKREPETAG
1070
     1
1071
       44
1005
127ECC
  0
CIRCLE
  5
127ECD
  8
OBJECT
 10
3900.0
 20
-3812.9999999999968168
 30
0.0
 40
35.5
1001
ACDBBLOCKREPETAG
1070
     1
1071
       11
1005
127ECD
  0
LINE
  5
127ECE
  8
CENTER
 10
3830.0
 20
-3812.9999999999968168
 30
0.0
 11
3970.0
 21
-3812.9999999999968168
 31
0.0
1001
ACDBBLOCKREPETAG
1070
     1
1071
       12
1005
127ECE
  0
CIRCLE
  5
127ECF
  8
OBJECT
 10
3900.0
 20
-3812.9999999999968168
 30
0.0
 40
47.0
1001
ACDBBLOCKREPETAG
1070
     1
1071
       14
1005
127ECF
  0
ARC
  5
127ED0
  8
OBJECT
 10
3900.0
 20
-3812.9999999999968168
 30
0.0
 40
55.0
 50
289.0112652600889191
 51
250.9887347399111093
1001
ACDBBLOCKREPETAG
1070
     1
1071
       15
1005
127ED0
  0
LINE
  5
127ED1
  8
OBJECT
 10
3882.0835271328319322
 20
-3864.9999999999968168
 30
0.0
 11
3917.9164728671680678
 21
-3864.9999999999968168
 31
0.0
1001
ACDBBLOCKREPETAG
1070
     1
1071
       16
1005
127ED1
  0
POINT
  5
127ED2
  8
DOTS
 10
3900.0
 20
-3864.9999999999968168
 30
0.0
1001
ACDBBLOCKREPETAG
1070
     1
1071
       24
1005
127ED2
  0
LINE
  5
127ED3
  8
OBJECT
 10
4633.0000000000009095
 20
-3397.9999999999959073
 30
0.0
 11
4640.0000000000009095
 21
-3397.9999999999959073
 31
0.0
1001
ACDBBLOCKREPETAG
1070
     1
1071
       38
1005
127ED3
  0
LINE
  5
127ED4
  8
OBJECT
 10
4640.0000000000009095
 20
-3397.9999999999959073
 30
0.0
 11
4640.0
 21
-3521.9999999999968168
 31
0.0
1001
ACDBBLOCKREPETAG
1070
     1
1071
       39
1005
127ED4
  0
LINE
  5
127ED5
  8
OBJECT
 10
4640.0
 20
-3521.9999999999968168
 30
0.0
 11
4633.0
 21
-3521.9999999999968168
 31
0.0
1001
ACDBBLOCKREPETAG
1070
     1
1071
       40
1005
127ED5
  0
LINE
  5
127ED6
  8
OBJECT
 10
4633.0
 20
-3521.9999999999968168
 30
0.0
 11
4633.0000000000009095
 21
-3397.9999999999959073
 31
0.0
1001
ACDBBLOCKREPETAG
1070
     1
1071
       41
1005
127ED6
  0
LINE
  5
127ED7
  8
CENTER
 10
4655.0
 20
-3459.9999999999968168
 30
0.0
 11
4580.0
 21
-3459.9999999999968168
 31
0.0
1001
ACDBBLOCKREPETAG
1070
     1
1071
       42
1005
127ED7
  0
LINE
  5
127ED8
  8
OBJECT
 10
4633.0000000000009095
 20
-3400.9999999999959073
 30
0.0
 11
4597.0000000000009095
 21
-3400.9999999999959073
 31
0.0
1001
ACDBBLOCKREPETAG
1070
     1
1071
       43
1005
127ED8
  0
LINE
  5
127ED9
  8
OBJECT
 10
4597.0000000000009095
 20
-3400.9999999999959073
 30
0.0
 11
4597.0
 21
-3518.9999999999968168
 31
0.0
1001
ACDBBLOCKREPETAG
1070
     1
1071
       44
1005
127ED9
  0
LINE
  5
127EDA
  8
OBJECT
 10
4597.0
 20
-3518.9999999999968168
 30
0.0
 11
4633.0
 21
-3518.9999999999968168
 31
0.0
1001
ACDBBLOCKREPETAG
1070
     1
1071
       45
1005
127EDA
  0
LINE
  5
127EDB
  8
OBJECT
 10
4593.0
 20
-3405.4999999999959073
 30
0.0
 11
4582.5000000000009095
 21
-3405.4999999999959073
 31
0.0
1001
ACDBBLOCKREPETAG
1070
     1
1071
       46
1005
127EDB
  0
LINE
  5
127EDC
  8
OBJECT
 10
4582.5
 20
-3514.4999999999968168
 30
0.0
 11
4593.0
 21
-3514.4999999999968168
 31
0.0
1001
ACDBBLOCKREPETAG
1070
     1
1071
       47
1005
127EDC
  0
LINE
  5
127EDD
  8
OBJECT
 10
4593.0
 20
-3514.4999999999968168
 30
0.0
 11
4593.0
 21
-3405.4999999999959073
 31
0.0
1001
ACDBBLOCKREPETAG
1070
     1
1071
       48
1005
127EDD
  0
LINE
  5
127EDE
  8
OBJECT
 10
4597.0000000000009095
 20
-3400.9999999999959073
 30
0.0
 11
4593.0
 21
-3405.4999999999959073
 31
0.0
1001
ACDBBLOCKREPETAG
1070
     1
1071
       49
1005
127EDE
  0
LINE
  5
127EDF
  8
OBJECT
 10
4597.0
 20
-3518.9999999999968168
 30
0.0
 11
4593.0
 21
-3514.4999999999968168
 31
0.0
1001
ACDBBLOCKREPETAG
1070
     1
1071
       50
1005
127EDF
  0
LINE
  5
127EE0
  8
HIDDEN
 10
4588.0
 20
-3415.4999999999968168
 30
0.0
 11
4588.0
 21
-3504.4999999999968168
 31
0.0
1001
ACDBBLOCKREPETAG
1070
     1
1071
       51
1005
127EE0
  0
LINE
  5
127EE1
  8
OBJECT
 10
4577.5000000000009095
 20
-3410.4999999999959073
 30
0.0
 11
4556.3449199129790941
 21
-3410.4999999999959073
 31
0.0
1001
ACDBBLOCKREPETAG
1070
     1
1071
       52
1005
127EE1
  0
LINE
  5
127EE2
  8
OBJECT
 10
4577.4999999999990905
 20
-3509.4999999999959073
 30
0.0
 11
4556.3449199129790941
 21
-3509.4999999999959073
 31
0.0
1001
ACDBBLOCKREPETAG
1070
     1
1071
       53
1005
127EE2
  0
LINE
  5
127EE3
  8
OBJECT
 10
4582.5000000000009095
 20
-3405.4999999999959073
 30
0.0
 11
4582.5
 21
-3514.4999999999968168
 31
0.0
1001
ACDBBLOCKREPETAG
1070
     1
1071
       54
1005
127EE3
  0
LINE
  5
127EE4
  8
OBJECT
 10
4577.5000000000009095
 20
-3410.4999999999959073
 30
0.0
 11
4577.4999999999990905
 21
-3509.4999999999959073
 31
0.0
1001
ACDBBLOCKREPETAG
1070
     1
1071
       55
1005
127EE4
  0
LINE
  5
127EE5
  8
OBJECT
 10
4582.5000000000009095
 20
-3405.4999999999959073
 30
0.0
 11
4577.5000000000009095
 21
-3410.4999999999959073
 31
0.0
1001
ACDBBLOCKREPETAG
1070
     1
1071
       56
1005
127EE5
  0
LINE
  5
127EE6
  8
OBJECT
 10
4577.4999999999990905
 20
-3509.4999999999959073
 30
0.0
 11
4582.5
 21
-3514.4999999999931788
 31
0.0
1001
ACDBBLOCKREPETAG
1070
     1
1071
       57
1005
127EE6
  0
LINE
  5
127EE7
  8
OBJECT
 10
4633.0
 20
-3743.9999999999959073
 30
0.0
 11
4640.0
 21
-3743.9999999999959073
 31
0.0
1001
ACDBBLOCKREPETAG
1070
     1
1071
       46
1005
127EE7
  0
LINE
  5
127EE8
  8
OBJECT
 10
4640.0
 20
-3743.9999999999959073
 30
0.0
 11
4640.0
 21
-3864.9999999999968168
 31
0.0
1001
ACDBBLOCKREPETAG
1070
     1
1071
       47
1005
127EE8
  0
LINE
  5
127EE9
  8
OBJECT
 10
4633.0
 20
-3864.9999999999968168
 30
0.0
 11
4633.0
 21
-3743.9999999999959073
 31
0.0
1001
ACDBBLOCKREPETAG
1070
     1
1071
       48
1005
127EE9
  0
LINE
  5
127EEA
  8
CENTER
 10
4655.0
 20
-3805.9999999999968168
 30
0.0
 11
4541.3449199130036504
 21
-3806.0000000000609361
 31
0.0
1001
ACDBBLOCKREPETAG
1070
     1
1071
       49
1005
127EEA
  0
LINE
  5
127EEB
  8
OBJECT
 10
4633.0
 20
-3746.9999999999959073
 30
0.0
 11
4597.0
 21
-3746.9999999999959073
 31
0.0
1001
ACDBBLOCKREPETAG
1070
     1
1071
       50
1005
127EEB
  0
LINE
  5
127EEC
  8
OBJECT
 10
4597.0
 20
-3746.9999999999959073
 30
0.0
 11
4597.0
 21
-3864.9999999999968168
 31
0.0
1001
ACDBBLOCKREPETAG
1070
     1
1071
       51
1005
127EEC
  0
LINE
  5
127EED
  8
OBJECT
 10
4597.0
 20
-3864.9999999999968168
 30
0.0
 11
4640.0
 21
-3864.9999999999968168
 31
0.0
1001
ACDBBLOCKREPETAG
1070
     1
1071
       52
1005
127EED
  0
LINE
  5
127EEE
  8
OBJECT
 10
4593.0
 20
-3751.4999999999959073
 30
0.0
 11
4582.5
 21
-3751.4999999999959073
 31
0.0
1001
ACDBBLOCKREPETAG
1070
     1
1071
       53
1005
127EEE
  0
LINE
  5
127EEF
  8
OBJECT
 10
4582.5
 20
-3860.4999999999959073
 30
0.0
 11
4593.0
 21
-3860.4999999999959073
 31
0.0
1001
ACDBBLOCKREPETAG
1070
     1
1071
       54
1005
127EEF
  0
LINE
  5
127EF0
  8
OBJECT
 10
4593.0
 20
-3860.4999999999959073
 30
0.0
 11
4593.0
 21
-3751.4999999999959073
 31
0.0
1001
ACDBBLOCKREPETAG
1070
     1
1071
       55
1005
127EF0
  0
LINE
  5
127EF1
  8
OBJECT
 10
4597.0
 20
-3746.9999999999959073
 30
0.0
 11
4593.0
 21
-3751.4999999999959073
 31
0.0
1001
ACDBBLOCKREPETAG
1070
     1
1071
       56
1005
127EF1
  0
LINE
  5
127EF2
  8
OBJECT
 10
4597.0
 20
-3864.9999999999968168
 30
0.0
 11
4593.0
 21
-3860.4999999999959073
 31
0.0
1001
ACDBBLOCKREPETAG
1070
     1
1071
       57
1005
127EF2
  0
LINE
  5
127EF3
  8
HIDDEN
 10
4588.0
 20
-3761.4999999999968168
 30
0.0
 11
4588.0
 21
-3850.4999999999968168
 31
0.0
1001
ACDBBLOCKREPETAG
1070
     1
1071
       58
1005
127EF3
  0
ARC
  5
127EF4
  8
OBJECT
 10
4664.8782728787718952
 20
-3821.4095072612249169
 30
0.0
 40
110.866352283089995
 50
144.1634274192888938
 51
163.0403538043393894
1001
ACDBBLOCKREPETAG
1070
     1
1071
       59
1005
127EF4
  0
ARC
  5
127EF5
  8
OBJECT
 10
4617.1359887769067427
 20
-3806.2877497184449567
 30
0.0
 40
60.7917498803589567
 50
163.5472046522193068
 51
179.7287969828265943
1001
ACDBBLOCKREPETAG
1070
     1
1071
       60
1005
127EF5
  0
ARC
  5
127EF6
  8
OBJECT
 10
4617.1359956562482694
 20
-3812.7122497598970767
 30
0.0
 40
60.7917567620948702
 50
180.2712034781451962
 51
196.4527794605265001
1001
ACDBBLOCKREPETAG
1070
     1
1071
       61
1005
127EF6
  0
ARC
  5
127EF7
  8
OBJECT
 10
4664.8782728787718952
 20
-3797.590492738832836
 30
0.0
 40
110.8663522830916008
 50
196.9596461956604969
 51
215.8365725807111062
1001
ACDBBLOCKREPETAG
1070
     1
1071
       62
1005
127EF7
  0
LINE
  5
127EF8
  8
OBJECT
 10
4556.3449199130036504
 20
-3806.0000000000331966
 30
0.0
 11
4556.3449199130036504
 21
-3813.0000000000291038
 31
0.0
1001
ACDBBLOCKREPETAG
1070
     1
1071
       63
1005
127EF8
  0
LINE
  5
127EF9
  8
OBJECT
 10
4574.9999999998335625
 20
-3756.5000000002919478
 30
0.0
 11
4577.499999999836291
 21
-3756.5000000002919478
 31
0.0
1001
ACDBBLOCKREPETAG
1070
     1
1071
       65
1005
127EF9
  0
LINE
  5
127EFA
  8
OBJECT
 10
4574.999999999832653
 20
-3862.4999999997671694
 30
0.0
 11
4579.499999999830834
 21
-3862.4999999997671694
 31
0.0
1001
ACDBBLOCKREPETAG
1070
     1
1071
       66
1005
127EFA
  0
LINE
  5
127EFB
  8
OBJECT
 10
4579.499999999830834
 20
-3862.4999999997671694
 30
0.0
 11
4577.499999999836291
 21
-3756.5000000002919478
 31
0.0
1001
ACDBBLOCKREPETAG
1070
     1
1071
       67
1005
127EFB
  0
LINE
  5
127EFC
  8
OBJECT
 10
4579.499999999830834
 20
-3862.4999999997671694
 30
0.0
 11
4582.5
 21
-3860.4999999999959073
 31
0.0
1001
ACDBBLOCKREPETAG
1070
     1
1071
       68
1005
127EFC
  0
LINE
  5
127EFD
  8
OBJECT
 10
4582.5
 20
-3860.4999999999959073
 30
0.0
 11
4582.5
 21
-3751.4999999999959073
 31
0.0
1001
ACDBBLOCKREPETAG
1070
     1
1071
       69
1005
127EFD
  0
LINE
  5
127EFE
  8
OBJECT
 10
4582.5
 20
-3751.4999999999959073
 30
0.0
 11
4577.499999999836291
 21
-3756.5000000002919478
 31
0.0
1001
ACDBBLOCKREPETAG
1070
     1
1071
       70
1005
127EFE
  0
LINE
  5
127EFF
  8
CENTER
 10
4977.0
 20
-3805.9999999999968168
 30
0.0
 11
4823.0
 21
-3805.9999999999968168
 31
0.0
1001
ACDBBLOCKREPETAG
1070
     1
1071
       17
1005
127EFF
  0
CIRCLE
  5
127F00
  8
OBJECT
 10
4900.0
 20
-3805.9999999999968168
 30
0.0
 40
41.5
1001
ACDBBLOCKREPETAG
1070
     1
1071
       18
1005
127F00
  0
CIRCLE
  5
127F01
  8
OBJECT
 10
4900.0
 20
-3805.9999999999968168
 30
0.0
 40
54.0
1001
ACDBBLOCKREPETAG
1070
     1
1071
       19
1005
127F01
  0
ARC
  5
127F02
  8
OBJECT
 10
4900.0
 20
-3805.9999999999968168
 30
0.0
 40
62.0
 50
287.8965511292112751
 51
252.1034488707886965
1001
ACDBBLOCKREPETAG
1070
     1
1071
       20
1005
127F02
  0
LINE
  5
127F03
  8
OBJECT
 10
4880.947441116742084
 20
-3864.9999999999968168
 30
0.0
 11
4919.052558883257916
 21
-3864.9999999999968168
 31
0.0
1001
ACDBBLOCKREPETAG
1070
     1
1071
       21
1005
127F03
  0
POINT
  5
127F04
  8
DOTS
 10
4900.0
 20
-3864.9999999999968168
 30
0.0
1001
ACDBBLOCKREPETAG
1070
     1
1071
       23
1005
127F04
  0
LINE
  5
127F05
  8
DIM
 10
2665.0000000000009095
 20
-711.0000000000001137
 30
0.0
 11
2719.424581672757995
 21
-711.0000000000001137
 31
0.0
  0
LINE
  5
127F06
  8
DIM
 10
2413.0000000000009095
 20
-1131.0
 30
0.0
 11
2719.424581672757995
 21
-1131.0
 31
0.0
  0
LINE
  5
127F07
  8
DIM
 10
2709.424581672757995
 20
-731.0000000000001137
 30
0.0
 11
2709.424581672757995
 21
-1111.0
 31
0.0
  0
INSERT
  5
127F08
  8
DIM
  2
_OPEN30
 10
2709.424581672757995
 20
-711.0000000000001137
 30
0.0
 41
20.0
 42
20.0
 43
20.0
 50
90.0
  0
INSERT
  5
127F09
  8
DIM
  2
_OPEN30
 10
2709.424581672757995
 20
-1131.0
 30
0.0
 41
20.0
 42
20.0
 43
20.0
 50
270.0
  0
INSERT
  5
127F0A
  8
SLIM
  2
*U6
 10
0.0
 20
0.0
 30
0.0
  0
LINE
  5
127F0B
  8
OBJECT
 10
2425.0
 20
-890.0
 30
0.0
 11
2425.0
 21
-1022.5000000003090008
 31
0.0
1001
ACDBBLOCKREPETAG
1070
     1
1071
        1
1005
127F0B
  0
LINE
  5
127F0C
  8
OBJECT
 10
2575.0
 20
-889.9999999999943157
 30
0.0
 11
2575.0
 21
-1163.0
 31
0.0
1001
ACDBBLOCKREPETAG
1070
     1
1071
        3
1005
127F0C
  0
LINE
  5
127F0D
  8
CENTER
 10
2500.0
 20
-890.0
 30
0.0
 11
2500.0
 21
-1175.0
 31
0.0
1001
ACDBBLOCKREPETAG
1070
     1
1071
        6
1005
127F0D
  0
LINE
  5
127F0E
  8
OBJECT
 10
2420.0
 20
-1175.0
 30
0.0
 11
2580.0
 21
-1175.0
 31
0.0
1001
ACDBBLOCKREPETAG
1070
     1
1071
        7
1005
127F0E
  0
LINE
  5
127F0F
  8
OBJECT
 10
2420.0
 20
-1163.0
 30
0.0
 11
2580.0
 21
-1163.0
 31
0.0
1001
ACDBBLOCKREPETAG
1070
     1
1071
        8
1005
127F0F
  0
LINE
  5
127F10
  8
OBJECT
 10
2420.0
 20
-1163.0
 30
0.0
 11
2420.0
 21
-1175.0
 31
0.0
1001
ACDBBLOCKREPETAG
1070
     1
1071
        9
1005
127F10
  0
LINE
  5
127F11
  8
OBJECT
 10
2580.0
 20
-1163.0
 30
0.0
 11
2580.0
 21
-1175.0
 31
0.0
1001
ACDBBLOCKREPETAG
1070
     1
1071
       10
1005
127F11
  0
LINE
  5
127F12
  8
OBJECT
 10
2425.0
 20
-1128.4999999997598934
 30
0.0
 11
2425.0
 21
-1163.0
 31
0.0
1001
ACDBBLOCKREPETAG
1070
     1
1071
        1
1005
127F0B
  0
POINT
  5
127F13
  8
DOTS
 10
2500.0
 20
-1136.0
 30
0.0
  0
LINE
  5
127F14
  8
OBJECT
 10
2366.9999999998249223
 20
-1010.0
 30
0.0
 11
2359.9999999998249223
 21
-1010.0
 31
0.0
1001
ACDBBLOCKREPETAG
1070
     1
1071
       46
1005
127F14
  0
LINE
  5
127F15
  8
OBJECT
 10
2359.9999999998249223
 20
-1010.0
 30
0.0
 11
2359.9999999998249223
 21
-1131.0
 31
0.0
1001
ACDBBLOCKREPETAG
1070
     1
1071
       47
1005
127F15
  0
LINE
  5
127F16
  8
OBJECT
 10
2366.9999999998249223
 20
-1131.0
 30
0.0
 11
2366.9999999998249223
 21
-1010.0
 31
0.0
1001
ACDBBLOCKREPETAG
1070
     1
1071
       48
1005
127F16
  0
LINE
  5
127F17
  8
CENTER
 10
2344.9999999998240128
 20
-1072.0
 30
0.0
 11
2458.6550800868199076
 21
-1072.0000000000650289
 31
0.0
1001
ACDBBLOCKREPETAG
1070
     1
1071
       49
1005
127F17
  0
LINE
  5
127F18
  8
OBJECT
 10
2366.9999999998249223
 20
-1013.0
 30
0.0
 11
2402.9999999998249223
 21
-1013.0
 31
0.0
1001
ACDBBLOCKREPETAG
1070
     1
1071
       50
1005
127F18
  0
LINE
  5
127F19
  8
OBJECT
 10
2402.9999999998249223
 20
-1013.0
 30
0.0
 11
2402.9999999998249223
 21
-1131.0
 31
0.0
1001
ACDBBLOCKREPETAG
1070
     1
1071
       51
1005
127F19
  0
LINE
  5
127F1A
  8
OBJECT
 10
2402.9999999998249223
 20
-1131.0
 30
0.0
 11
2359.9999999998249223
 21
-1131.0
 31
0.0
1001
ACDBBLOCKREPETAG
1070
     1
1071
       52
1005
127F1A
  0
LINE
  5
127F1B
  8
OBJECT
 10
2406.9999999998249223
 20
-1017.5
 30
0.0
 11
2417.4999999998249223
 21
-1017.5
 31
0.0
1001
ACDBBLOCKREPETAG
1070
     1
1071
       53
1005
127F1B
  0
LINE
  5
127F1C
  8
OBJECT
 10
2417.4999999998249223
 20
-1126.5
 30
0.0
 11
2406.9999999998249223
 21
-1126.5
 31
0.0
1001
ACDBBLOCKREPETAG
1070
     1
1071
       54
1005
127F1C
  0
LINE
  5
127F1D
  8
OBJECT
 10
2406.9999999998249223
 20
-1126.5
 30
0.0
 11
2406.9999999998249223
 21
-1017.5
 31
0.0
1001
ACDBBLOCKREPETAG
1070
     1
1071
       55
1005
127F1D
  0
LINE
  5
127F1E
  8
OBJECT
 10
2402.9999999998249223
 20
-1013.0
 30
0.0
 11
2406.9999999998249223
 21
-1017.5
 31
0.0
1001
ACDBBLOCKREPETAG
1070
     1
1071
       56
1005
127F1E
  0
LINE
  5
127F1F
  8
OBJECT
 10
2402.9999999998249223
 20
-1131.0
 30
0.0
 11
2406.9999999998249223
 21
-1126.5
 31
0.0
1001
ACDBBLOCKREPETAG
1070
     1
1071
       57
1005
127F1F
  0
LINE
  5
127F20
  8
HIDDEN
 10
2411.9999999998249223
 20
-1027.5
 30
0.0
 11
2411.9999999998249223
 21
-1116.5
 31
0.0
1001
ACDBBLOCKREPETAG
1070
     1
1071
       58
1005
127F20
  0
ARC
  5
127F21
  8
OBJECT
 10
2335.1217271210512081
 20
-1087.4095072612290096
 30
0.0
 40
110.866352283089995
 50
16.9596461956682205
 51
35.836572580700512
1001
ACDBBLOCKREPETAG
1070
     1
1071
       59
1005
127F21
  0
ARC
  5
127F22
  8
OBJECT
 10
2382.8640112229181796
 20
-1072.2877497184490494
 30
0.0
 40
60.7917498803589567
 50
0.2712030171732199
 51
16.4527953477732609
1001
ACDBBLOCKREPETAG
1070
     1
1071
       60
1005
127F22
  0
ARC
  5
127F23
  8
OBJECT
 10
2382.8640043435771076
 20
-1078.7122497599009421
 30
0.0
 40
60.7917567620948702
 50
343.5472205394661955
 51
359.7287965218546901
1001
ACDBBLOCKREPETAG
1070
     1
1071
       61
1005
127F23
  0
ARC
  5
127F24
  8
OBJECT
 10
2335.1217271210512081
 20
-1063.5904927388360193
 30
0.0
 40
110.8663522830916008
 50
324.1634274192995235
 51
343.0403538043318008
1001
ACDBBLOCKREPETAG
1070
     1
1071
       62
1005
127F24
  0
LINE
  5
127F25
  8
OBJECT
 10
2443.6550800868189981
 20
-1072.000000000035925
 30
0.0
 11
2443.6550800868189981
 21
-1079.0000000000329692
 31
0.0
1001
ACDBBLOCKREPETAG
1070
     1
1071
       63
1005
127F25
  0
LINE
  5
127F26
  8
OBJECT
 10
2424.9999999999890861
 20
-1022.5000000002939942
 30
0.0
 11
2422.4999999999890861
 21
-1022.5000000002939942
 31
0.0
1001
ACDBBLOCKREPETAG
1070
     1
1071
       65
1005
127F26
  0
LINE
  5
127F27
  8
OBJECT
 10
2424.9999999999918145
 20
-1128.4999999997710347
 30
0.0
 11
2420.4999999999918145
 21
-1128.4999999997710347
 31
0.0
1001
ACDBBLOCKREPETAG
1070
     1
1071
       66
1005
127F27
  0
LINE
  5
127F28
  8
OBJECT
 10
2420.4999999999918145
 20
-1128.4999999997710347
 30
0.0
 11
2422.4999999999890861
 21
-1022.5000000002939942
 31
0.0
1001
ACDBBLOCKREPETAG
1070
     1
1071
       67
1005
127F28
  0
LINE
  5
127F29
  8
OBJECT
 10
2420.4999999999918145
 20
-1128.4999999997710347
 30
0.0
 11
2417.4999999998249223
 21
-1126.5
 31
0.0
1001
ACDBBLOCKREPETAG
1070
     1
1071
       68
1005
127F29
  0
LINE
  5
127F2A
  8
OBJECT
 10
2417.4999999998249223
 20
-1126.5
 30
0.0
 11
2417.4999999998249223
 21
-1017.5
 31
0.0
1001
ACDBBLOCKREPETAG
1070
     1
1071
       69
1005
127F2A
  0
LINE
  5
127F2B
  8
OBJECT
 10
2417.4999999998249223
 20
-1017.5
 30
0.0
 11
2422.4999999999890861
 21
-1022.5000000002939942
 31
0.0
1001
ACDBBLOCKREPETAG
1070
     1
1071
       70
1005
127F2B
  0
LINE
  5
127F2C
  8
OBJECT
 10
4425.0
 20
-890.0
 30
0.0
 11
4425.0
 21
-1022.5000000003090008
 31
0.0
1001
ACDBBLOCKREPETAG
1070
     1
1071
        1
1005
127F2C
  0
LINE
  5
127F2D
  8
OBJECT
 10
4575.0
 20
-889.9999999999943157
 30
0.0
 11
4575.0
 21
-1163.0
 31
0.0
1001
ACDBBLOCKREPETAG
1070
     1
1071
        3
1005
127F2D
  0
LINE
  5
127F2E
  8
CENTER
 10
4500.0
 20
-890.0
 30
0.0
 11
4500.0
 21
-1175.0
 31
0.0
1001
ACDBBLOCKREPETAG
1070
     1
1071
        6
1005
127F2E
  0
LINE
  5
127F2F
  8
OBJECT
 10
4420.0
 20
-1175.0
 30
0.0
 11
4580.0
 21
-1175.0
 31
0.0
1001
ACDBBLOCKREPETAG
1070
     1
1071
        7
1005
127F2F
  0
LINE
  5
127F30
  8
OBJECT
 10
4420.0
 20
-1163.0
 30
0.0
 11
4580.0
 21
-1163.0
 31
0.0
1001
ACDBBLOCKREPETAG
1070
     1
1071
        8
1005
127F30
  0
LINE
  5
127F31
  8
OBJECT
 10
4420.0
 20
-1163.0
 30
0.0
 11
4420.0
 21
-1175.0
 31
0.0
1001
ACDBBLOCKREPETAG
1070
     1
1071
        9
1005
127F31
  0
LINE
  5
127F32
  8
OBJECT
 10
4580.0
 20
-1163.0
 30
0.0
 11
4580.0
 21
-1175.0
 31
0.0
1001
ACDBBLOCKREPETAG
1070
     1
1071
       10
1005
127F32
  0
LINE
  5
127F33
  8
OBJECT
 10
4425.0
 20
-1128.4999999997598934
 30
0.0
 11
4425.0
 21
-1163.0
 31
0.0
1001
ACDBBLOCKREPETAG
1070
     1
1071
        1
1005
127F2C
  0
POINT
  5
127F34
  8
DOTS
 10
4500.0
 20
-1136.0
 30
0.0
  0
LINE
  5
127F35
  8
OBJECT
 10
4366.999999999825377
 20
-1010.0
 30
0.0
 11
4359.999999999823558
 21
-1010.0
 31
0.0
1001
ACDBBLOCKREPETAG
1070
     1
1071
       46
1005
127F35
  0
LINE
  5
127F36
  8
OBJECT
 10
4359.999999999823558
 20
-1010.0
 30
0.0
 11
4359.999999999823558
 21
-1131.0
 31
0.0
1001
ACDBBLOCKREPETAG
1070
     1
1071
       47
1005
127F36
  0
LINE
  5
127F37
  8
OBJECT
 10
4366.999999999825377
 20
-1131.0
 30
0.0
 11
4366.999999999825377
 21
-1010.0
 31
0.0
1001
ACDBBLOCKREPETAG
1070
     1
1071
       48
1005
127F37
  0
LINE
  5
127F38
  8
CENTER
 10
4344.999999999823558
 20
-1072.0
 30
0.0
 11
4458.6550800868199076
 21
-1072.0000000000650289
 31
0.0
1001
ACDBBLOCKREPETAG
1070
     1
1071
       49
1005
127F38
  0
LINE
  5
127F39
  8
OBJECT
 10
4366.999999999825377
 20
-1013.0
 30
0.0
 11
4402.999999999823558
 21
-1013.0
 31
0.0
1001
ACDBBLOCKREPETAG
1070
     1
1071
       50
1005
127F39
  0
LINE
  5
127F3A
  8
OBJECT
 10
4402.999999999823558
 20
-1013.0
 30
0.0
 11
4402.999999999823558
 21
-1131.0
 31
0.0
1001
ACDBBLOCKREPETAG
1070
     1
1071
       51
1005
127F3A
  0
LINE
  5
127F3B
  8
OBJECT
 10
4402.999999999823558
 20
-1131.0
 30
0.0
 11
4359.999999999823558
 21
-1131.0
 31
0.0
1001
ACDBBLOCKREPETAG
1070
     1
1071
       52
1005
127F3B
  0
LINE
  5
127F3C
  8
OBJECT
 10
4406.999999999825377
 20
-1017.5
 30
0.0
 11
4417.499999999823558
 21
-1017.5
 31
0.0
1001
ACDBBLOCKREPETAG
1070
     1
1071
       53
1005
127F3C
  0
LINE
  5
127F3D
  8
OBJECT
 10
4417.499999999823558
 20
-1126.5
 30
0.0
 11
4406.999999999825377
 21
-1126.5
 31
0.0
1001
ACDBBLOCKREPETAG
1070
     1
1071
       54
1005
127F3D
  0
LINE
  5
127F3E
  8
OBJECT
 10
4406.999999999825377
 20
-1126.5
 30
0.0
 11
4406.999999999825377
 21
-1017.5
 31
0.0
1001
ACDBBLOCKREPETAG
1070
     1
1071
       55
1005
127F3E
  0
LINE
  5
127F3F
  8
OBJECT
 10
4402.999999999823558
 20
-1013.0
 30
0.0
 11
4406.999999999825377
 21
-1017.5
 31
0.0
1001
ACDBBLOCKREPETAG
1070
     1
1071
       56
1005
127F3F
  0
LINE
  5
127F40
  8
OBJECT
 10
4402.999999999823558
 20
-1131.0
 30
0.0
 11
4406.999999999825377
 21
-1126.5
 31
0.0
1001
ACDBBLOCKREPETAG
1070
     1
1071
       57
1005
127F40
  0
LINE
  5
127F41
  8
HIDDEN
 10
4411.999999999823558
 20
-1027.5
 30
0.0
 11
4411.999999999823558
 21
-1116.5
 31
0.0
1001
ACDBBLOCKREPETAG
1070
     1
1071
       58
1005
127F41
  0
ARC
  5
127F42
  8
OBJECT
 10
4335.1217271210498438
 20
-1087.4095072612290096
 30
0.0
 40
110.866352283089995
 50
16.9596461956606213
 51
35.836572580700512
1001
ACDBBLOCKREPETAG
1070
     1
1071
       59
1005
127F42
  0
ARC
  5
127F43
  8
OBJECT
 10
4382.8640112229186343
 20
-1072.2877497184490494
 30
0.0
 40
60.7917498803589567
 50
0.2712030171733432
 51
16.4527953477658713
1001
ACDBBLOCKREPETAG
1070
     1
1071
       60
1005
127F43
  0
ARC
  5
127F44
  8
OBJECT
 10
4382.8640043435761982
 20
-1078.7122497599009421
 30
0.0
 40
60.7917567620948702
 50
343.5472205394735283
 51
359.7287965218546901
1001
ACDBBLOCKREPETAG
1070
     1
1071
       61
1005
127F44
  0
ARC
  5
127F45
  8
OBJECT
 10
4335.1217271210498438
 20
-1063.5904927388360193
 30
0.0
 40
110.8663522830916008
 50
324.1634274192995235
 51
343.0403538043393041
1001
ACDBBLOCKREPETAG
1070
     1
1071
       62
1005
127F45
  0
LINE
  5
127F46
  8
OBJECT
 10
4443.6550800868217266
 20
-1072.000000000035925
 30
0.0
 11
4443.6550800868217266
 21
-1079.0000000000329692
 31
0.0
1001
ACDBBLOCKREPETAG
1070
     1
1071
       63
1005
127F46
  0
LINE
  5
127F47
  8
OBJECT
 10
4424.9999999999881766
 20
-1022.5000000002939942
 30
0.0
 11
4422.4999999999872671
 21
-1022.5000000002939942
 31
0.0
1001
ACDBBLOCKREPETAG
1070
     1
1071
       65
1005
127F47
  0
LINE
  5
127F48
  8
OBJECT
 10
4424.9999999999918145
 20
-1128.4999999997710347
 30
0.0
 11
4420.4999999999918145
 21
-1128.4999999997710347
 31
0.0
1001
ACDBBLOCKREPETAG
1070
     1
1071
       66
1005
127F48
  0
LINE
  5
127F49
  8
OBJECT
 10
4420.4999999999918145
 20
-1128.4999999997710347
 30
0.0
 11
4422.4999999999872671
 21
-1022.5000000002939942
 31
0.0
1001
ACDBBLOCKREPETAG
1070
     1
1071
       67
1005
127F49
  0
LINE
  5
127F4A
  8
OBJECT
 10
4420.4999999999918145
 20
-1128.4999999997710347
 30
0.0
 11
4417.499999999823558
 21
-1126.5
 31
0.0
1001
ACDBBLOCKREPETAG
1070
     1
1071
       68
1005
127F4A
  0
LINE
  5
127F4B
  8
OBJECT
 10
4417.499999999823558
 20
-1126.5
 30
0.0
 11
4417.499999999823558
 21
-1017.5
 31
0.0
1001
ACDBBLOCKREPETAG
1070
     1
1071
       69
1005
127F4B
  0
LINE
  5
127F4C
  8
OBJECT
 10
4417.499999999823558
 20
-1017.5
 30
0.0
 11
4422.4999999999872671
 21
-1022.5000000002939942
 31
0.0
1001
ACDBBLOCKREPETAG
1070
     1
1071
       70
1005
127F4C
  0
LINE
  5
127F4D
  8
DIM
 10
4665.0000000000009095
 20
-711.0000000000001137
 30
0.0
 11
4719.424581672759814
 21
-711.0000000000001137
 31
0.0
  0
LINE
  5
127F4E
  8
DIM
 10
4412.999999999827196
 20
-1131.0
 30
0.0
 11
4719.424581672759814
 21
-1131.0
 31
0.0
  0
LINE
  5
127F4F
  8
DIM
 10
4709.424581672759814
 20
-731.0000000000001137
 30
0.0
 11
4709.424581672759814
 21
-1111.0
 31
0.0
  0
INSERT
  5
127F50
  8
DIM
  2
_OPEN30
 10
4709.424581672759814
 20
-711.0000000000001137
 30
0.0
 41
20.0
 42
20.0
 43
20.0
 50
90.0
  0
INSERT
  5
127F51
  8
DIM
  2
_OPEN30
 10
4709.424581672759814
 20
-1131.0
 30
0.0
 41
20.0
 42
20.0
 43
20.0
 50
270.0
  0
INSERT
  5
127F52
  8
SLIM
  2
*U7
 10
0.0
 20
0.0
 30
0.0
  0
LINE
  5
127F53
  8
DIM
 10
4404.9999999999936335
 20
-1131.0
 30
0.0
 11
4333.1164560757761137
 21
-1131.0
 31
0.0
  0
LINE
  5
127F54
  8
DIM
 10
4410.0000000000009095
 20
-1371.0
 30
0.0
 11
4333.1164560757761137
 21
-1371.0
 31
0.0
  0
LINE
  5
127F55
  8
DIM
 10
4343.1164560757761137
 20
-1151.0
 30
0.0
 11
4343.1164560757761137
 21
-1351.0
 31
0.0
  0
INSERT
  5
127F56
  8
DIM
  2
_OPEN30
 10
4343.1164560757761137
 20
-1131.0
 30
0.0
 41
20.0
 42
20.0
 43
20.0
 50
90.0
  0
INSERT
  5
127F57
  8
DIM
  2
_OPEN30
 10
4343.1164560757761137
 20
-1371.0
 30
0.0
 41
20.0
 42
20.0
 43
20.0
 50
270.0
  0
INSERT
  5
127F58
  8
SLIM
  2
*U8
 10
0.0
 20
0.0
 30
0.0
  0
TEXT
  5
127F59
  8
SLIM
 10
0.000003566523219
 20
-775.9999954146824166
 30
0.0
 40
79.9999999999727152
  1
下部枝管バリエーション
 41
0.75
1001
ACDBBLOCKREPETAG
1070
     1
1071
      119
1005
120BCB
  0
INSERT
  5
127F5A
  8
SLIM
  2
*U9
 10
0.0
 20
0.0
 30
0.0
  0
LINE
  5
127F5B
  8
OBJECT
 10
133.0000000000416946
 20
-99.0000000001718803
 30
0.0
 11
133.0000000000416946
 21
-92.0000000001718945
 31
0.0
1001
ACDBBLOCKREPETAG
1070
     1
1071
        1
1005
127F5B
  0
LINE
  5
127F5C
  8
OBJECT
 10
133.0000000000416946
 20
-92.0000000001718945
 30
0.0
 11
227.0000000000418083
 21
-92.0000000001718945
 31
0.0
1001
ACDBBLOCKREPETAG
1070
     1
1071
        2
1005
127F5C
  0
LINE
  5
127F5D
  8
OBJECT
 10
227.0000000000418083
 20
-92.0000000001718945
 30
0.0
 11
227.0000000000418083
 21
-99.0000000001718803
 31
0.0
1001
ACDBBLOCKREPETAG
1070
     1
1071
        3
1005
127F5D
  0
LINE
  5
127F5E
  8
OBJECT
 10
227.0000000000418083
 20
-99.0000000001718803
 30
0.0
 11
133.0000000000416946
 21
-99.0000000001718803
 31
0.0
1001
ACDBBLOCKREPETAG
1070
     1
1071
        4
1005
127F5E
  0
LINE
  5
127F5F
  8
OBJECT
 10
136.0000000000416946
 20
-99.0000000001718803
 30
0.0
 11
136.0000000000416946
 21
-135.0000000001718092
 31
0.0
1001
ACDBBLOCKREPETAG
1070
     1
1071
        5
1005
127F5F
  0
LINE
  5
127F60
  8
OBJECT
 10
136.0000000000416946
 20
-135.0000000001718092
 30
0.0
 11
224.0000000000418083
 21
-135.0000000001718092
 31
0.0
1001
ACDBBLOCKREPETAG
1070
     1
1071
        6
1005
127F60
  0
LINE
  5
127F61
  8
OBJECT
 10
224.0000000000418083
 20
-135.0000000001718092
 30
0.0
 11
224.0000000000418083
 21
-99.0000000001718803
 31
0.0
1001
ACDBBLOCKREPETAG
1070
     1
1071
        7
1005
127F61
  0
LINE
  5
127F62
  8
OBJECT
 10
140.5000000000418083
 20
-139.0000000001718092
 30
0.0
 11
140.5000000000418083
 21
-146.0000000001718092
 31
0.0
1001
ACDBBLOCKREPETAG
1070
     1
1071
        8
1005
127F62
  0
LINE
  5
127F63
  8
OBJECT
 10
219.5000000000418936
 20
-146.0000000001718092
 30
0.0
 11
219.5000000000418936
 21
-139.0000000001718092
 31
0.0
1001
ACDBBLOCKREPETAG
1070
     1
1071
        9
1005
127F63
  0
LINE
  5
127F64
  8
OBJECT
 10
219.5000000000418936
 20
-139.0000000001718092
 30
0.0
 11
140.5000000000418083
 21
-139.0000000001718092
 31
0.0
1001
ACDBBLOCKREPETAG
1070
     1
1071
       10
1005
127F64
  0
LINE
  5
127F65
  8
OBJECT
 10
136.0000000000416946
 20
-135.0000000001718092
 30
0.0
 11
140.5000000000418083
 21
-139.0000000001718092
 31
0.0
1001
ACDBBLOCKREPETAG
1070
     1
1071
       11
1005
127F65
  0
LINE
  5
127F66
  8
OBJECT
 10
224.0000000000418083
 20
-135.0000000001718092
 30
0.0
 11
219.5000000000418936
 21
-139.0000000001718092
 31
0.0
1001
ACDBBLOCKREPETAG
1070
     1
1071
       12
1005
127F66
  0
LINE
  5
127F67
  8
OBJECT
 10
118.0000000000417941
 20
-149.0000000001710134
 30
0.0
 11
118.0000000000417941
 21
-152.0000000001718092
 31
0.0
1001
ACDBBLOCKREPETAG
1070
     1
1071
       13
1005
127F67
  0
ARC
  5
127F68
  8
OBJECT
 10
121.0000000000417941
 20
-149.0000000001710134
 30
0.0
 40
3.0
 50
90.0
 51
180.0
1001
ACDBBLOCKREPETAG
1070
     1
1071
       14
1005
127F68
  0
LINE
  5
127F69
  8
OBJECT
 10
242.0000000000418083
 20
-152.0000000001718092
 30
0.0
 11
242.0000000000418083
 21
-149.000000000172804
 31
0.0
1001
ACDBBLOCKREPETAG
1070
     1
1071
       15
1005
127F69
  0
ARC
  5
127F6A
  8
OBJECT
 10
239.0000000000418083
 20
-149.000000000172804
 30
0.0
 40
3.0
 50
0.0
 51
90.0
1001
ACDBBLOCKREPETAG
1070
     1
1071
       16
1005
127F6A
  0
LINE
  5
127F6B
  8
OBJECT
 10
239.0000000000418083
 20
-146.000000000172804
 30
0.0
 11
121.0000000000417941
 21
-146.0000000001710134
 31
0.0
1001
ACDBBLOCKREPETAG
1070
     1
1071
       17
1005
127F6B
  0
LINE
  5
127F6C
  8
HIDDEN
 10
150.0000000000418083
 20
-144.0000000001718945
 30
0.0
 11
210.0000000000418083
 21
-144.0000000001718945
 31
0.0
1001
ACDBBLOCKREPETAG
1070
     1
1071
      420
1005
127F6C
  0
CIRCLE
  5
127F6D
  8
OBJECT
 10
180.0000000000418083
 20
-232.0000000001718945
 30
0.0
 40
70.0
1001
ACDBBLOCKREPETAG
1070
     1
1071
       50
1005
127F6D
  0
CIRCLE
  5
127F6E
  8
OBJECT
 10
180.0000000000418083
 20
-232.0000000001718945
 30
0.0
 40
77.0
1001
ACDBBLOCKREPETAG
1070
     1
1071
       51
1005
127F6E
  0
ARC
  5
127F6F
  8
OBJECT
 10
180.0000000000418083
 20
-232.0000000001718945
 30
0.0
 40
80.0
 50
140.8050325737796982
 51
39.1949674262202521
1001
ACDBBLOCKREPETAG
1070
     1
1071
       52
1005
127F6F
  0
LINE
  5
127F70
  8
OBJECT
 10
118.0000000000417941
 20
-186.3381997728473038
 30
0.0
 11
118.0000000000417941
 21
-152.0000000001718092
 31
0.0
1001
ACDBBLOCKREPETAG
1070
     1
1071
       53
1005
127F70
  0
LINE
  5
127F71
  8
OBJECT
 10
242.0000000000418083
 20
-186.3381997728473038
 30
0.0
 11
242.0000000000418083
 21
-152.0000000001718092
 31
0.0
1001
ACDBBLOCKREPETAG
1070
     1
1071
       54
1005
127F71
  0
POINT
  5
127F72
  8
DOTS
 10
180.0000000000418083
 20
-232.0000000001718945
 30
0.0
1001
ACDBBLOCKREPETAG
1070
     1
1071
       63
1005
127F72
  0
CIRCLE
  5
127F73
  8
OBJECT
 10
180.0000000000418083
 20
-232.0000000001718945
 30
0.0
 40
53.5
1001
ACDBBLOCKREPETAG
1070
     1
1071
      157
1005
127F73
  0
LINE
  5
127F74
  8
OBJECT
 10
156.175796075292908
 20
-277.6779614449233122
 30
0.0
 11
154.4092645125591901
 21
-278.9825952585188134
 31
0.0
1001
ACDBBLOCKREPETAG
1070
     1
1071
      162
1005
127F74
  0
ARC
  5
127F75
  8
OBJECT
 10
159.1461853586772008
 20
-281.6999991753718859
 30
0.0
 40
5.0
 50
90.0
 51
126.4469224761369048
1001
ACDBBLOCKREPETAG
1070
     1
1071
      163
1005
127F75
  0
LINE
  5
127F76
  8
OBJECT
 10
203.8242039247377022
 20
-277.677961444795983
 30
0.0
 11
205.5907354876833892
 21
-278.9825952584333209
 31
0.0
1001
ACDBBLOCKREPETAG
1070
     1
1071
      164
1005
127F76
  0
ARC
  5
127F77
  8
OBJECT
 10
200.8538146415255881
 20
-281.6999991753718859
 30
0.0
 40
5.0
 50
53.5530775263175229
 51
90.0
1001
ACDBBLOCKREPETAG
1070
     1
1071
      165
1005
127F77
  0
LINE
  5
127F78
  8
OBJECT
 10
200.8538146415255881
 20
-276.6999991753718859
 30
0.0
 11
159.1461853586772008
 21
-276.6999991753718859
 31
0.0
1001
ACDBBLOCKREPETAG
1070
     1
1071
      166
1005
127F78
  0
LINE
  5
127F79
  8
OBJECT
 10
2430.0
 20
-1484.9999999999979536
 30
0.0
 11
2570.0
 21
-1484.9999999999979536
 31
0.0
1001
ACDBBLOCKREPETAG
1070
     1
1071
        0
1005
127F79
  0
LINE
  5
127F7A
  8
OBJECT
 10
2430.0
 20
-1484.9999999999979536
 30
0.0
 11
2430.0
 21
-1244.9999999999979536
 31
0.0
1001
ACDBBLOCKREPETAG
1070
     1
1071
        1
1005
127F7A
  0
LINE
  5
127F7B
  8
OBJECT
 10
2570.0
 20
-1484.9999999999979536
 30
0.0
 11
2570.0
 21
-1244.9999999999979536
 31
0.0
1001
ACDBBLOCKREPETAG
1070
     1
1071
        2
1005
127F7B
  0
LINE
  5
127F7C
  8
OBJECT
 10
2430.0
 20
-1244.9999999999979536
 30
0.0
 11
2570.0
 21
-1244.9999999999979536
 31
0.0
1001
ACDBBLOCKREPETAG
1070
     1
1071
        3
1005
127F7C
  0
LINE
  5
127F7D
  8
HIDDEN
 10
2437.5
 20
-1244.9999999999979536
 30
0.0
 11
2437.5
 21
-1484.9999999999979536
 31
0.0
1001
ACDBBLOCKREPETAG
1070
     1
1071
        4
1005
127F7D
  0
LINE
  5
127F7E
  8
HIDDEN
 10
2562.5
 20
-1244.9999999999979536
 30
0.0
 11
2562.5
 21
-1484.9999999999979536
 31
0.0
1001
ACDBBLOCKREPETAG
1070
     1
1071
        5
1005
127F7E
  0
LINE
  5
127F7F
  8
CENTER
 10
2500.0
 20
-1175.0
 30
0.0
 11
2500.0
 21
-1499.9999999999979536
 31
0.0
1001
ACDBBLOCKREPETAG
1070
     1
1071
        6
1005
127F7F
  0
LINE
  5
127F80
  8
OBJECT
 10
2425.0
 20
-1175.0
 30
0.0
 11
2425.0
 21
-1204.9999999999979536
 31
0.0
1001
ACDBBLOCKREPETAG
1070
     1
1071
        7
1005
127F80
  0
LINE
  5
127F81
  8
OBJECT
 10
2575.0000000000050022
 20
-1175.0
 30
0.0
 11
2575.0
 21
-1204.9999999999979536
 31
0.0
1001
ACDBBLOCKREPETAG
1070
     1
1071
        8
1005
127F81
  0
LINE
  5
127F82
  8
OBJECT
 10
2425.0
 20
-1204.9999999999979536
 30
0.0
 11
2575.0
 21
-1204.9999999999979536
 31
0.0
1001
ACDBBLOCKREPETAG
1070
     1
1071
        9
1005
127F82
  0
LINE
  5
127F83
  8
OBJECT
 10
2425.0
 20
-1204.9999999999979536
 30
0.0
 11
2430.0
 21
-1244.9999999999979536
 31
0.0
1001
ACDBBLOCKREPETAG
1070
     1
1071
       10
1005
127F83
  0
LINE
  5
127F84
  8
OBJECT
 10
2570.0
 20
-1244.9999999999979536
 30
0.0
 11
2575.0
 21
-1204.9999999999979536
 31
0.0
1001
ACDBBLOCKREPETAG
1070
     1
1071
       11
1005
127F84
  0
LINE
  5
127F85
  8
OBJECT
 10
4430.0
 20
-1484.9999999999979536
 30
0.0
 11
4570.0
 21
-1484.9999999999979536
 31
0.0
1001
ACDBBLOCKREPETAG
1070
     1
1071
        0
1005
127F85
  0
LINE
  5
127F86
  8
OBJECT
 10
4430.0
 20
-1484.9999999999979536
 30
0.0
 11
4430.0
 21
-1244.9999999999979536
 31
0.0
1001
ACDBBLOCKREPETAG
1070
     1
1071
        1
1005
127F86
  0
LINE
  5
127F87
  8
OBJECT
 10
4570.0
 20
-1484.9999999999979536
 30
0.0
 11
4570.0
 21
-1244.9999999999979536
 31
0.0
1001
ACDBBLOCKREPETAG
1070
     1
1071
        2
1005
127F87
  0
LINE
  5
127F88
  8
OBJECT
 10
4430.0
 20
-1244.9999999999979536
 30
0.0
 11
4570.0
 21
-1244.9999999999979536
 31
0.0
1001
ACDBBLOCKREPETAG
1070
     1
1071
        3
1005
127F88
  0
LINE
  5
127F89
  8
HIDDEN
 10
4437.5
 20
-1244.9999999999979536
 30
0.0
 11
4437.5
 21
-1484.9999999999979536
 31
0.0
1001
ACDBBLOCKREPETAG
1070
     1
1071
        4
1005
127F89
  0
LINE
  5
127F8A
  8
HIDDEN
 10
4562.5
 20
-1244.9999999999979536
 30
0.0
 11
4562.5
 21
-1484.9999999999979536
 31
0.0
1001
ACDBBLOCKREPETAG
1070
     1
1071
        5
1005
127F8A
  0
LINE
  5
127F8B
  8
CENTER
 10
4500.0
 20
-1175.0
 30
0.0
 11
4500.0
 21
-1499.9999999999979536
 31
0.0
1001
ACDBBLOCKREPETAG
1070
     1
1071
        6
1005
127F8B
  0
LINE
  5
127F8C
  8
OBJECT
 10
4425.0
 20
-1175.0
 30
0.0
 11
4425.0
 21
-1204.9999999999979536
 31
0.0
1001
ACDBBLOCKREPETAG
1070
     1
1071
        7
1005
127F8C
  0
LINE
  5
127F8D
  8
OBJECT
 10
4575.000000000001819
 20
-1175.0
 30
0.0
 11
4575.0
 21
-1204.9999999999979536
 31
0.0
1001
ACDBBLOCKREPETAG
1070
     1
1071
        8
1005
127F8D
  0
LINE
  5
127F8E
  8
OBJECT
 10
4425.0
 20
-1204.9999999999979536
 30
0.0
 11
4575.0
 21
-1204.9999999999979536
 31
0.0
1001
ACDBBLOCKREPETAG
1070
     1
1071
        9
1005
127F8E
  0
LINE
  5
127F8F
  8
OBJECT
 10
4425.0
 20
-1204.9999999999979536
 30
0.0
 11
4430.0
 21
-1244.9999999999979536
 31
0.0
1001
ACDBBLOCKREPETAG
1070
     1
1071
       10
1005
127F8F
  0
LINE
  5
127F90
  8
OBJECT
 10
4570.0
 20
-1244.9999999999979536
 30
0.0
 11
4575.0
 21
-1204.9999999999979536
 31
0.0
1001
ACDBBLOCKREPETAG
1070
     1
1071
       11
1005
127F90
  0
LINE
  5
127F91
  8
SLIM
 10
4414.999999999992724
 20
-1152.2369265471770632
 30
0.0
 11
4436.2369265471688777
 21
-1131.0
 31
0.0
1001
GRADIENTCOLOR1ACI
1070
     5
1001
GRADIENTCOLOR2ACI
1070
     2
1001
ACAD
1010
0.0
1020
0.0
1030
0.0
  0
LINE
  5
127F92
  8
SLIM
 10
4414.999999999992724
 20
-1170.1974387893139919
 30
0.0
 11
4454.1974387893096718
 21
-1131.0
 31
0.0
1001
GRADIENTCOLOR1ACI
1070
     5
1001
GRADIENTCOLOR2ACI
1070
     2
1001
ACAD
1010
0.0
1020
0.0
1030
0.0
  0
LINE
  5
127F93
  8
SLIM
 10
4414.9999999999954525
 20
-1188.1579510314509207
 30
0.0
 11
4472.157951031446828
 21
-1131.0
 31
0.0
1001
GRADIENTCOLOR1ACI
1070
     5
1001
GRADIENTCOLOR2ACI
1070
     2
1001
ACAD
1010
0.0
1020
0.0
1030
0.0
  0
LINE
  5
127F94
  8
SLIM
 10
4415.1454972543142503
 20
-1205.9729660192690517
 30
0.0
 11
4490.1184632735839841
 21
-1131.0
 31
0.0
1001
GRADIENTCOLOR1ACI
1070
     5
1001
GRADIENTCOLOR2ACI
1070
     2
1001
ACAD
1010
0.0
1020
0.0
1030
0.0
  0
LINE
  5
127F95
  8
SLIM
 10
4417.1046274952450403
 20
-1221.9743480204799653
 30
0.0
 11
4508.0789755157229592
 21
-1131.0
 31
0.0
1001
GRADIENTCOLOR1ACI
1070
     5
1001
GRADIENTCOLOR2ACI
1070
     2
1001
ACAD
1010
0.0
1020
0.0
1030
0.0
  0
LINE
  5
127F96
  8
SLIM
 10
4419.0637577361712829
 20
-1237.9757300216899694
 30
0.0
 11
4526.0394877578619344
 21
-1131.0
 31
0.0
1001
GRADIENTCOLOR1ACI
1070
     5
1001
GRADIENTCOLOR2ACI
1070
     2
1001
ACAD
1010
0.0
1020
0.0
1030
0.0
  0
LINE
  5
127F97
  8
SLIM
 10
4420.0
 20
-1255.0
 30
0.0
 11
4544.0
 21
-1131.0
 31
0.0
1001
GRADIENTCOLOR1ACI
1070
     5
1001
GRADIENTCOLOR2ACI
1070
     2
1001
ACAD
1010
0.0
1020
0.0
1030
0.0
  0
LINE
  5
127F98
  8
SLIM
 10
4420.0
 20
-1272.9605122421380656
 30
0.0
 11
4561.9605122421362466
 21
-1131.0
 31
0.0
1001
GRADIENTCOLOR1ACI
1070
     5
1001
GRADIENTCOLOR2ACI
1070
     2
1001
ACAD
1010
0.0
1020
0.0
1030
0.0
  0
LINE
  5
127F99
  8
SLIM
 10
4420.0
 20
-1290.9210244842770408
 30
0.0
 11
4579.9210244842770408
 21
-1131.0
 31
0.0
1001
GRADIENTCOLOR1ACI
1070
     5
1001
GRADIENTCOLOR2ACI
1070
     2
1001
ACAD
1010
0.0
1020
0.0
1030
0.0
  0
LINE
  5
127F9A
  8
SLIM
 10
4420.0
 20
-1308.8815367264151064
 30
0.0
 11
4585.000000000007276
 21
-1143.8815367264080578
 31
0.0
1001
GRADIENTCOLOR1ACI
1070
     5
1001
GRADIENTCOLOR2ACI
1070
     2
1001
ACAD
1010
0.0
1020
0.0
1030
0.0
  0
LINE
  5
127F9B
  8
SLIM
 10
4420.0
 20
-1326.8420489685529446
 30
0.0
 11
4585.000000000007276
 21
-1161.8420489685470329
 31
0.0
1001
GRADIENTCOLOR1ACI
1070
     5
1001
GRADIENTCOLOR2ACI
1070
     2
1001
ACAD
1010
0.0
1020
0.0
1030
0.0
  0
LINE
  5
127F9C
  8
SLIM
 10
4420.0
 20
-1344.8025612106910103
 30
0.0
 11
4585.000000000003638
 21
-1179.8025612106869175
 31
0.0
1001
GRADIENTCOLOR1ACI
1070
     5
1001
GRADIENTCOLOR2ACI
1070
     2
1001
ACAD
1010
0.0
1020
0.0
1030
0.0
  0
LINE
  5
127F9D
  8
SLIM
 10
4420.0
 20
-1362.7630734528290759
 30
0.0
 11
4585.0000000000027285
 21
-1197.7630734528258927
 31
0.0
1001
GRADIENTCOLOR1ACI
1070
     5
1001
GRADIENTCOLOR2ACI
1070
     2
1001
ACAD
1010
0.0
1020
0.0
1030
0.0
  0
LINE
  5
127F9E
  8
SLIM
 10
4429.7235856949682784
 20
-1371.0
 30
0.0
 11
4583.4738280308083631
 21
-1217.2497576641590058
 31
0.0
1001
GRADIENTCOLOR1ACI
1070
     5
1001
GRADIENTCOLOR2ACI
1070
     2
1001
ACAD
1010
0.0
1020
0.0
1030
0.0
  0
LINE
  5
127F9F
  8
SLIM
 10
4430.0
 20
-1388.6840979371058893
 30
0.0
 11
4442.684097937106344
 21
-1376.0
 31
0.0
1001
GRADIENTCOLOR1ACI
1070
     5
1001
GRADIENTCOLOR2ACI
1070
     2
1001
ACAD
1010
0.0
1020
0.0
1030
0.0
  0
LINE
  5
127FA0
  8
SLIM
 10
4442.684097937106344
 20
-1376.0
 30
0.0
 11
4580.9680345671367832
 21
-1237.7160633699691061
 31
0.0
1001
GRADIENTCOLOR1ACI
1070
     5
1001
GRADIENTCOLOR2ACI
1070
     2
1001
ACAD
1010
0.0
1020
0.0
1030
0.0
  0
LINE
  5
127FA1
  8
SLIM
 10
4446.6446101792444097
 20
-1390.0
 30
0.0
 11
4460.6446101792444097
 21
-1376.0
 31
0.0
1001
GRADIENTCOLOR1ACI
1070
     5
1001
GRADIENTCOLOR2ACI
1070
     2
1001
ACAD
1010
0.0
1020
0.0
1030
0.0
  0
LINE
  5
127FA2
  8
SLIM
 10
4460.6446101792444097
 20
-1376.0
 30
0.0
 11
4580.0
 21
-1256.6446101792450918
 31
0.0
1001
GRADIENTCOLOR1ACI
1070
     5
1001
GRADIENTCOLOR2ACI
1070
     2
1001
ACAD
1010
0.0
1020
0.0
1030
0.0
  0
LINE
  5
127FA3
  8
SLIM
 10
4464.6051224213833848
 20
-1390.0
 30
0.0
 11
4478.6051224213842943
 21
-1376.0
 31
0.0
1001
GRADIENTCOLOR1ACI
1070
     5
1001
GRADIENTCOLOR2ACI
1070
     2
1001
ACAD
1010
0.0
1020
0.0
1030
0.0
  0
LINE
  5
127FA4
  8
SLIM
 10
4478.6051224213842943
 20
-1376.0
 30
0.0
 11
4580.0
 21
-1274.60512242138293
 31
0.0
1001
GRADIENTCOLOR1ACI
1070
     5
1001
GRADIENTCOLOR2ACI
1070
     2
1001
ACAD
1010
0.0
1020
0.0
1030
0.0
  0
LINE
  5
127FA5
  8
SLIM
 10
4482.5656346635214504
 20
-1390.0
 30
0.0
 11
4496.5656346635214504
 21
-1376.0
 31
0.0
1001
GRADIENTCOLOR1ACI
1070
     5
1001
GRADIENTCOLOR2ACI
1070
     2
1001
ACAD
1010
0.0
1020
0.0
1030
0.0
  0
LINE
  5
127FA6
  8
SLIM
 10
4496.5656346635214504
 20
-1376.0
 30
0.0
 11
4579.9999999999990905
 21
-1292.5656346635219052
 31
0.0
1001
GRADIENTCOLOR1ACI
1070
     5
1001
GRADIENTCOLOR2ACI
1070
     2
1001
ACAD
1010
0.0
1020
0.0
1030
0.0
  0
LINE
  5
127FA7
  8
SLIM
 10
4500.5261469056576971
 20
-1390.0
 30
0.0
 11
4514.526146905661335
 21
-1376.0
 31
0.0
1001
GRADIENTCOLOR1ACI
1070
     5
1001
GRADIENTCOLOR2ACI
1070
     2
1001
ACAD
1010
0.0
1020
0.0
1030
0.0
  0
LINE
  5
127FA8
  8
SLIM
 10
4514.526146905661335
 20
-1376.0
 30
0.0
 11
4579.9999999999990905
 21
-1310.5261469056611077
 31
0.0
1001
GRADIENTCOLOR1ACI
1070
     5
1001
GRADIENTCOLOR2ACI
1070
     2
1001
ACAD
1010
0.0
1020
0.0
1030
0.0
  0
LINE
  5
127FA9
  8
SLIM
 10
4518.4866591477966722
 20
-1390.0
 30
0.0
 11
4532.4866591478003102
 21
-1376.0
 31
0.0
1001
GRADIENTCOLOR1ACI
1070
     5
1001
GRADIENTCOLOR2ACI
1070
     2
1001
ACAD
1010
0.0
1020
0.0
1030
0.0
  0
LINE
  5
127FAA
  8
SLIM
 10
4532.4866591478003102
 20
-1376.0
 30
0.0
 11
4579.9999999999990905
 21
-1328.4866591477989459
 31
0.0
1001
GRADIENTCOLOR1ACI
1070
     5
1001
GRADIENTCOLOR2ACI
1070
     2
1001
ACAD
1010
0.0
1020
0.0
1030
0.0
  0
LINE
  5
127FAB
  8
SLIM
 10
4536.4471713899356473
 20
-1390.0
 30
0.0
 11
4550.4471713899356473
 21
-1376.0
 31
0.0
1001
GRADIENTCOLOR1ACI
1070
     5
1001
GRADIENTCOLOR2ACI
1070
     2
1001
ACAD
1010
0.0
1020
0.0
1030
0.0
  0
LINE
  5
127FAC
  8
SLIM
 10
4550.4471713899356473
 20
-1376.0
 30
0.0
 11
4579.9999999999990905
 21
-1346.4471713899370116
 31
0.0
1001
GRADIENTCOLOR1ACI
1070
     5
1001
GRADIENTCOLOR2ACI
1070
     2
1001
ACAD
1010
0.0
1020
0.0
1030
0.0
  0
LINE
  5
127FAD
  8
SLIM
 10
4554.4076836320728034
 20
-1390.0
 30
0.0
 11
4570.0
 21
-1374.4076836320739403
 31
0.0
1001
GRADIENTCOLOR1ACI
1070
     5
1001
GRADIENTCOLOR2ACI
1070
     2
1001
ACAD
1010
0.0
1020
0.0
1030
0.0
  0
LINE
  5
127FAE
  8
SLIM
 10
4573.4076836320737129
 20
-1370.9999999999990905
 30
0.0
 11
4579.9999999999990905
 21
-1364.4076836320759867
 31
0.0
1001
GRADIENTCOLOR1ACI
1070
     5
1001
GRADIENTCOLOR2ACI
1070
     2
1001
ACAD
1010
0.0
1020
0.0
1030
0.0
  0
LINE
  5
127FAF
  8
OBJECT
 10
4414.9999999999918145
 20
-1131.0
 30
0.0
 11
4414.9999999999954525
 21
-1204.7846033990349497
 31
0.0
1001
ACDBBLOCKREPETAG
1070
     1
1071
        1
1005
127FAF
  0
LINE
  5
127FB0
  8
OBJECT
 10
4585.000000000007276
 20
-1131.0
 30
0.0
 11
4585.0000000000027285
 21
-1204.7846033990419983
 31
0.0
1001
ACDBBLOCKREPETAG
1070
     1
1071
        2
1005
127FB0
  0
LINE
  5
127FB1
  8
OBJECT
 10
4585.000000000007276
 20
-1131.0
 30
0.0
 11
4414.9999999999918145
 21
-1131.0
 31
0.0
1001
ACDBBLOCKREPETAG
1070
     1
1071
        3
1005
127FB1
  0
LINE
  5
127FB2
  8
OBJECT
 10
4579.9999999999990905
 20
-1370.9999999999990905
 30
0.0
 11
4420.0
 21
-1371.0
 31
0.0
1001
ACDBBLOCKREPETAG
1070
     1
1071
        4
1005
127FB2
  0
LINE
  5
127FB3
  8
OBJECT
 10
4414.9999999999954525
 20
-1204.7846033990349497
 30
0.0
 11
4420.0
 21
-1245.6225774829858892
 31
0.0
1001
ACDBBLOCKREPETAG
1070
     1
1071
        6
1005
127FB3
  0
LINE
  5
127FB4
  8
OBJECT
 10
4420.0
 20
-1245.6225774829858892
 30
0.0
 11
4420.0
 21
-1371.0
 31
0.0
1001
ACDBBLOCKREPETAG
1070
     1
1071
        7
1005
127FB4
  0
LINE
  5
127FB5
  8
OBJECT
 10
4585.0000000000027285
 20
-1204.7846033990419983
 30
0.0
 11
4580.0
 21
-1245.6225774829858892
 31
0.0
1001
ACDBBLOCKREPETAG
1070
     1
1071
        8
1005
127FB5
  0
LINE
  5
127FB6
  8
OBJECT
 10
4580.0
 20
-1245.6225774829858892
 30
0.0
 11
4579.9999999999990905
 21
-1370.9999999999990905
 31
0.0
1001
ACDBBLOCKREPETAG
1070
     1
1071
        9
1005
127FB6
  0
LINE
  5
127FB7
  8
OBJECT
 10
4430.0
 20
-1371.0
 30
0.0
 11
4430.0
 21
-1390.0
 31
0.0
1001
ACDBBLOCKREPETAG
1070
     1
1071
       10
1005
127FB7
  0
LINE
  5
127FB8
  8
OBJECT
 10
4430.0
 20
-1390.0
 30
0.0
 11
4570.0
 21
-1390.0
 31
0.0
1001
ACDBBLOCKREPETAG
1070
     1
1071
       11
1005
127FB8
  0
LINE
  5
127FB9
  8
OBJECT
 10
4570.0
 20
-1390.0
 30
0.0
 11
4570.0
 21
-1370.9999999999990905
 31
0.0
1001
ACDBBLOCKREPETAG
1070
     1
1071
       12
1005
127FB9
  0
POLYLINE
  5
127FBA
  8
HIDDEN
 66
     1
 10
0.0
 20
0.0
 30
0.0
 70
     1
1001
ACDBBLOCKREPETAG
1070
     1
1071
      105
1005
0
  0
VERTEX
  5
128251
  8
HIDDEN
 10
359.9999999998779003
 20
-799.9999999999992042
 30
0.0
  0
VERTEX
  5
128252
  8
HIDDEN
 10
719.999999999756028
 20
-799.9999999999992042
 30
0.0
  0
VERTEX
  5
128253
  8
HIDDEN
 10
719.999999999756028
 20
-1263.9999999998410658
 30
0.0
  0
VERTEX
  5
128254
  8
HIDDEN
 10
359.9999999998779003
 20
-1263.9999999998410658
 30
0.0
  0
SEQEND
  5
128255
  8
HIDDEN
  0
POLYLINE
  5
127FBB
  8
HIDDEN
 66
     1
 10
0.0
 20
0.0
 30
0.0
 70
     1
1001
ACDBBLOCKREPETAG
1070
     1
1071
      110
1005
0
  0
VERTEX
  5
128256
  8
HIDDEN
 10
-0.0000000000002274
 20
-799.9999999999992042
 30
0.0
  0
VERTEX
  5
128257
  8
HIDDEN
 10
359.9999999998779003
 20
-799.9999999999992042
 30
0.0
  0
VERTEX
  5
128258
  8
HIDDEN
 10
359.9999999998779003
 20
-1263.9999999998410658
 30
0.0
  0
VERTEX
  5
128259
  8
HIDDEN
 10
-0.0000000000002274
 20
-1263.9999999998410658
 30
0.0
  0
SEQEND
  5
12825A
  8
HIDDEN
  0
POLYLINE
  5
127FBC
  8
HIDDEN
 66
     1
 10
0.0
 20
0.0
 30
0.0
 70
     1
1001
ACDBBLOCKREPETAG
1070
     1
1071
      125
1005
0
  0
VERTEX
  5
12825B
  8
HIDDEN
 10
-0.0000000000002274
 20
-1263.9999999998410658
 30
0.0
  0
VERTEX
  5
12825C
  8
HIDDEN
 10
359.9999999998779003
 20
-1263.9999999998410658
 30
0.0
  0
VERTEX
  5
12825D
  8
HIDDEN
 10
359.9999999998779003
 20
-1727.9999999996819042
 30
0.0
  0
VERTEX
  5
12825E
  8
HIDDEN
 10
-0.0000000000002274
 20
-1727.9999999996819042
 30
0.0
  0
SEQEND
  5
12825F
  8
HIDDEN
  0
POLYLINE
  5
127FBD
  8
HIDDEN
 66
     1
 10
0.0
 20
0.0
 30
0.0
 70
     1
1001
ACDBBLOCKREPETAG
1070
     1
1071
      110
1005
0
  0
VERTEX
  5
128260
  8
HIDDEN
 10
-0.0000000000002274
 20
0.0
 30
0.0
  0
VERTEX
  5
128261
  8
HIDDEN
 10
359.9999999998779003
 20
0.0
 30
0.0
  0
VERTEX
  5
128262
  8
HIDDEN
 10
359.9999999998779003
 20
-463.9999999998415774
 30
0.0
  0
VERTEX
  5
128263
  8
HIDDEN
 10
-0.0000000000002274
 20
-463.9999999998415774
 30
0.0
  0
SEQEND
  5
128264
  8
HIDDEN
  0
TEXT
  5
127FBE
  8
SLIM
 10
101.1428571427964016
 20
-1243.9999999998510702
 30
0.0
 40
48.0
  1
A0010
 41
0.75
1001
ACDBBLOCKREPETAG
1070
     1
1071
      119
1005
0
  0
TEXT
  5
127FBF
  8
SLIM
 10
457.7142857141030845
 20
-1243.9999999998510702
 30
0.0
 40
48.0
  1
A0020
 41
0.75
1001
ACDBBLOCKREPETAG
1070
     1
1071
      119
1005
0
  0
TEXT
  5
127FC0
  8
SLIM
 10
97.7142857142249994
 20
-1707.9999999996919087
 30
0.0
 40
48.0
  1
A0030
 41
0.75
1001
ACDBBLOCKREPETAG
1070
     1
1071
      119
1005
0
  0
CIRCLE
  5
127FC1
  8
OBJECT
 10
180.0000000000067928
 20
-959.9999999999987494
 30
0.0
 40
70.0
1001
ACDBBLOCKREPETAG
1070
     1
1071
       50
1005
127FC1
  0
CIRCLE
  5
127FC2
  8
OBJECT
 10
180.0000000000067928
 20
-959.9999999999987494
 30
0.0
 40
75.0
1001
ACDBBLOCKREPETAG
1070
     1
1071
       51
1005
127FC2
  0
POINT
  5
127FC3
  8
DOTS
 10
180.0000000000067928
 20
-959.9999999999987494
 30
0.0
1001
ACDBBLOCKREPETAG
1070
     1
1071
       63
1005
127FC3
  0
ARC
  5
127FC4
  8
OBJECT
 10
180.0000000000067928
 20
-959.9999999999987494
 30
0.0
 40
55.0
 50
299.3022457642870222
 51
240.6977542359811935
1001
ACDBBLOCKREPETAG
1070
     1
1071
       50
1005
127FC1
  0
LINE
  5
127FC5
  8
OBJECT
 10
156.1757960752578924
 20
-1005.6779614447540325
 30
0.0
 11
148.1876176730052066
 21
-1011.577458443547016
 31
0.0
  0
ARC
  5
127FC6
  8
OBJECT
 10
159.1461853586419011
 20
-1009.6999991752020378
 30
0.0
 40
5.0
 50
90.0
 51
126.4469224760729986
  0
LINE
  5
127FC7
  8
OBJECT
 10
203.824203924702914
 20
-1005.6779614446270443
 30
0.0
 11
211.8124539801005994
 21
-1011.5775113607769526
 31
0.0
  0
ARC
  5
127FC8
  8
OBJECT
 10
200.8538146414898904
 20
-1009.6999991752020378
 30
0.0
 40
5.0
 50
53.5530775262745422
 51
90.0
  0
LINE
  5
127FC9
  8
OBJECT
 10
200.8538146414898904
 20
-1004.6999991752029473
 30
0.0
 11
159.1461853586419011
 21
-1004.6999991752029473
 31
0.0
  0
ARC
  5
127FCA
  8
OBJECT
 10
207.059831126960006
 20
-1018.0127717296990113
 30
0.0
 40
8.0
 50
16.4762162479585612
 51
53.5530775262745422
  0
ARC
  5
127FCB
  8
OBJECT
 10
152.940168873051789
 20
-1018.0127717296990113
 30
0.0
 40
8.0
 50
126.4469224737253938
 51
163.5237837520413962
  0
LINE
  5
127FCC
  8
OBJECT
 10
145.2686684859814079
 20
-1015.7438332529750369
 30
0.0
 11
144.0000000000067928
 21
-1020.0333240792159586
 31
0.0
  0
LINE
  5
127FCD
  8
OBJECT
 10
214.7313315140322914
 20
-1015.7438332529750369
 30
0.0
 11
216.0000000000067928
 21
-1020.0333240792159586
 31
0.0
  0
LINE
  5
127FCE
  8
OBJECT
 10
227.0000000000067928
 20
-1092.9999999999990905
 30
0.0
 11
227.0000000000067928
 21
-1099.9999999999990905
 31
0.0
1001
ACDBBLOCKREPETAG
1070
     1
1071
        0
1005
127FCE
  0
LINE
  5
127FCF
  8
OBJECT
 10
227.0000000000067928
 20
-1099.9999999999990905
 30
0.0
 11
133.0000000000067928
 21
-1099.9999999999990905
 31
0.0
1001
ACDBBLOCKREPETAG
1070
     1
1071
        1
1005
127FCF
  0
LINE
  5
127FD0
  8
OBJECT
 10
133.0000000000067928
 20
-1099.9999999999990905
 30
0.0
 11
133.0000000000067928
 21
-1092.9999999999990905
 31
0.0
1001
ACDBBLOCKREPETAG
1070
     1
1071
        2
1005
127FD0
  0
LINE
  5
127FD1
  8
OBJECT
 10
133.0000000000067928
 20
-1092.9999999999990905
 30
0.0
 11
227.0000000000067928
 21
-1092.9999999999990905
 31
0.0
1001
ACDBBLOCKREPETAG
1070
     1
1071
        3
1005
127FD1
  0
LINE
  5
127FD2
  8
OBJECT
 10
224.0000000000067928
 20
-1092.9999999999990905
 30
0.0
 11
224.0000000000067928
 21
-1056.9999999999990905
 31
0.0
1001
ACDBBLOCKREPETAG
1070
     1
1071
        4
1005
127FD2
  0
LINE
  5
127FD3
  8
OBJECT
 10
224.0000000000067928
 20
-1056.9999999999990905
 30
0.0
 11
136.0000000000067928
 21
-1056.9999999999990905
 31
0.0
1001
ACDBBLOCKREPETAG
1070
     1
1071
        5
1005
127FD3
  0
LINE
  5
127FD4
  8
OBJECT
 10
136.0000000000067928
 20
-1056.9999999999990905
 30
0.0
 11
136.0000000000067928
 21
-1092.9999999999990905
 31
0.0
1001
ACDBBLOCKREPETAG
1070
     1
1071
        6
1005
127FD4
  0
LINE
  5
127FD5
  8
OBJECT
 10
219.5000000000067928
 20
-1052.9999999999990905
 30
0.0
 11
219.5000000000067928
 21
-1044.4999999999990905
 31
0.0
1001
ACDBBLOCKREPETAG
1070
     1
1071
        7
1005
127FD5
  0
LINE
  5
127FD6
  8
OBJECT
 10
140.5000000000067928
 20
-1044.4999999999979536
 30
0.0
 11
140.5000000000067928
 21
-1052.9999999999990905
 31
0.0
1001
ACDBBLOCKREPETAG
1070
     1
1071
        8
1005
127FD6
  0
LINE
  5
127FD7
  8
OBJECT
 10
140.5000000000067928
 20
-1052.9999999999990905
 30
0.0
 11
219.5000000000067928
 21
-1052.9999999999990905
 31
0.0
1001
ACDBBLOCKREPETAG
1070
     1
1071
        9
1005
127FD7
  0
LINE
  5
127FD8
  8
OBJECT
 10
224.0000000000067928
 20
-1056.9999999999990905
 30
0.0
 11
219.5000000000067928
 21
-1052.9999999999990905
 31
0.0
1001
ACDBBLOCKREPETAG
1070
     1
1071
       10
1005
127FD8
  0
LINE
  5
127FD9
  8
OBJECT
 10
136.0000000000067928
 20
-1056.9999999999990905
 30
0.0
 11
140.5000000000067928
 21
-1052.9999999999990905
 31
0.0
1001
ACDBBLOCKREPETAG
1070
     1
1071
       11
1005
127FD9
  0
LINE
  5
127FDA
  8
OBJECT
 10
133.5000000000067928
 20
-1044.4999999999979536
 30
0.0
 11
226.5000000000067928
 21
-1044.4999999999990905
 31
0.0
1001
ACDBBLOCKREPETAG
1070
     1
1071
       12
1005
127FDA
  0
ARC
  5
127FDB
  8
OBJECT
 10
226.5000000000067928
 20
-1041.4999999999990905
 30
0.0
 40
3.0
 50
270.0
 51
0.0
1001
ACDBBLOCKREPETAG
1070
     1
1071
       13
1005
127FDB
  0
LINE
  5
127FDC
  8
OBJECT
 10
229.5000000000067928
 20
-1041.4999999999990905
 30
0.0
 11
229.5000000000077023
 21
-1016.3449199129770477
 31
0.0
1001
ACDBBLOCKREPETAG
1070
     1
1071
       15
1005
127FDC
  0
LINE
  5
127FDD
  8
OBJECT
 10
130.5000000000067928
 20
-1041.4999999999979536
 30
0.0
 11
130.5000000000077023
 21
-1016.3449199129779572
 31
0.0
1001
ACDBBLOCKREPETAG
1070
     1
1071
       16
1005
127FDD
  0
ARC
  5
127FDE
  8
OBJECT
 10
133.5000000000067928
 20
-1041.4999999999979536
 30
0.0
 40
3.0
 50
180.0
 51
270.0
1001
ACDBBLOCKREPETAG
1070
     1
1071
       17
1005
127FDE
  0
INSERT
  5
127FDF
  8
SLIM
  2
*U10
 10
0.0
 20
0.0
 30
0.0
  0
LINE
  5
127FE0
  8
HIDDEN
 10
210.0000000000067928
 20
-1047.9999999999990905
 30
0.0
 11
150.0000000000067928
 21
-1047.9999999999990905
 31
0.0
1001
ACDBBLOCKREPETAG
1070
     1
1071
       56
1005
127FE0
  0
CIRCLE
  5
127FE1
  8
OBJECT
 10
540.0000000000065938
 20
-959.9999999999987494
 30
0.0
 40
70.0
1001
ACDBBLOCKREPETAG
1070
     1
1071
       50
1005
127FE1
  0
CIRCLE
  5
127FE2
  8
OBJECT
 10
540.0000000000065938
 20
-959.9999999999987494
 30
0.0
 40
75.0
1001
ACDBBLOCKREPETAG
1070
     1
1071
       51
1005
127FE2
  0
POINT
  5
127FE3
  8
DOTS
 10
540.0000000000065938
 20
-959.9999999999987494
 30
0.0
1001
ACDBBLOCKREPETAG
1070
     1
1071
       63
1005
127FE3
  0
ARC
  5
127FE4
  8
OBJECT
 10
540.0000000000065938
 20
-959.9999999999987494
 30
0.0
 40
55.0
 50
299.3022457642854874
 51
240.6977542359825009
1001
ACDBBLOCKREPETAG
1070
     1
1071
       50
1005
127FE1
  0
LINE
  5
127FE5
  8
OBJECT
 10
516.1757960752579493
 20
-1005.6779614447540325
 30
0.0
 11
508.1876176730050929
 21
-1011.577458443547016
 31
0.0
  0
ARC
  5
127FE6
  8
OBJECT
 10
519.1461853586420148
 20
-1009.6999991752020378
 30
0.0
 40
5.0
 50
90.0
 51
126.4469224760718049
  0
LINE
  5
127FE7
  8
OBJECT
 10
563.8242039247028288
 20
-1005.6779614446270443
 30
0.0
 11
571.8124539801004858
 21
-1011.5775113607769526
 31
0.0
  0
ARC
  5
127FE8
  8
OBJECT
 10
560.8538146414897483
 20
-1009.6999991752020378
 30
0.0
 40
5.0
 50
53.5530775262758425
 51
90.0
  0
LINE
  5
127FE9
  8
OBJECT
 10
560.8538146414897483
 20
-1004.6999991752029473
 30
0.0
 11
519.1461853586420148
 21
-1004.6999991752029473
 31
0.0
  0
ARC
  5
127FEA
  8
OBJECT
 10
567.0598311269600345
 20
-1018.0127717296990113
 30
0.0
 40
8.0
 50
16.4762162479585612
 51
53.5530775262758425
  0
ARC
  5
127FEB
  8
OBJECT
 10
512.9401688730515616
 20
-1018.0127717296990113
 30
0.0
 40
8.0
 50
126.4469224737241007
 51
163.5237837520413962
  0
LINE
  5
127FEC
  8
OBJECT
 10
505.268668485981209
 20
-1015.7438332529750369
 30
0.0
 11
504.0000000000067075
 21
-1020.0333240792159586
 31
0.0
  0
LINE
  5
127FED
  8
OBJECT
 10
574.7313315140321492
 20
-1015.7438332529750369
 30
0.0
 11
576.0000000000067075
 21
-1020.0333240792159586
 31
0.0
  0
LINE
  5
127FEE
  8
OBJECT
 10
595.0000000000065938
 20
-1092.9999999999990905
 30
0.0
 11
595.0000000000065938
 21
-1099.9999999999990905
 31
0.0
1001
ACDBBLOCKREPETAG
1070
     1
1071
       18
1005
127FEE
  0
LINE
  5
127FEF
  8
OBJECT
 10
595.0000000000065938
 20
-1099.9999999999990905
 30
0.0
 11
485.0000000000068212
 21
-1099.9999999999990905
 31
0.0
1001
ACDBBLOCKREPETAG
1070
     1
1071
       19
1005
127FEF
  0
LINE
  5
127FF0
  8
OBJECT
 10
485.0000000000068212
 20
-1099.9999999999990905
 30
0.0
 11
485.0000000000068212
 21
-1092.9999999999990905
 31
0.0
1001
ACDBBLOCKREPETAG
1070
     1
1071
       20
1005
127FF0
  0
LINE
  5
127FF1
  8
OBJECT
 10
485.0000000000068212
 20
-1092.9999999999990905
 30
0.0
 11
595.0000000000065938
 21
-1092.9999999999990905
 31
0.0
1001
ACDBBLOCKREPETAG
1070
     1
1071
       21
1005
127FF1
  0
LINE
  5
127FF2
  8
OBJECT
 10
592.0000000000067075
 20
-1092.9999999999990905
 30
0.0
 11
592.0000000000067075
 21
-1056.9999999999990905
 31
0.0
1001
ACDBBLOCKREPETAG
1070
     1
1071
       22
1005
127FF2
  0
LINE
  5
127FF3
  8
OBJECT
 10
592.0000000000067075
 20
-1056.9999999999990905
 30
0.0
 11
488.0000000000067075
 21
-1056.9999999999990905
 31
0.0
1001
ACDBBLOCKREPETAG
1070
     1
1071
       23
1005
127FF3
  0
LINE
  5
127FF4
  8
OBJECT
 10
488.0000000000067075
 20
-1056.9999999999990905
 30
0.0
 11
488.0000000000067075
 21
-1092.9999999999990905
 31
0.0
1001
ACDBBLOCKREPETAG
1070
     1
1071
       24
1005
127FF4
  0
LINE
  5
127FF5
  8
OBJECT
 10
587.5000000000067075
 20
-1052.9999999999990905
 30
0.0
 11
587.5000000000067075
 21
-1044.4999999999990905
 31
0.0
1001
ACDBBLOCKREPETAG
1070
     1
1071
       25
1005
127FF5
  0
LINE
  5
127FF6
  8
OBJECT
 10
492.5000000000067075
 20
-1044.4999999999979536
 30
0.0
 11
492.5000000000067075
 21
-1052.9999999999990905
 31
0.0
1001
ACDBBLOCKREPETAG
1070
     1
1071
       26
1005
127FF6
  0
LINE
  5
127FF7
  8
OBJECT
 10
492.5000000000067075
 20
-1052.9999999999990905
 30
0.0
 11
587.5000000000067075
 21
-1052.9999999999990905
 31
0.0
1001
ACDBBLOCKREPETAG
1070
     1
1071
       27
1005
127FF7
  0
LINE
  5
127FF8
  8
OBJECT
 10
592.0000000000067075
 20
-1056.9999999999990905
 30
0.0
 11
587.5000000000067075
 21
-1052.9999999999990905
 31
0.0
1001
ACDBBLOCKREPETAG
1070
     1
1071
       28
1005
127FF8
  0
LINE
  5
127FF9
  8
OBJECT
 10
488.0000000000067075
 20
-1056.9999999999990905
 30
0.0
 11
492.5000000000067075
 21
-1052.9999999999990905
 31
0.0
1001
ACDBBLOCKREPETAG
1070
     1
1071
       29
1005
127FF9
  0
LINE
  5
127FFA
  8
OBJECT
 10
490.5000000000067075
 20
-1044.4999999999970441
 30
0.0
 11
589.5000000000067075
 21
-1044.4999999999990905
 31
0.0
1001
ACDBBLOCKREPETAG
1070
     1
1071
       30
1005
127FFA
  0
LINE
  5
127FFB
  8
OBJECT
 10
589.5000000000067075
 20
-1044.4999999999990905
 30
0.0
 11
589.5000000000059117
 21
-1016.3449199129779572
 31
0.0
1001
ACDBBLOCKREPETAG
1070
     1
1071
       31
1005
127FFB
  0
LINE
  5
127FFC
  8
OBJECT
 10
490.5000000000067075
 20
-1044.4999999999970441
 30
0.0
 11
490.5000000000056843
 21
-1016.3449199129770477
 31
0.0
1001
ACDBBLOCKREPETAG
1070
     1
1071
       32
1005
127FFC
  0
INSERT
  5
127FFD
  8
SLIM
  2
*U11
 10
0.0
 20
0.0
 30
0.0
  0
LINE
  5
127FFE
  8
HIDDEN
 10
578.0000000000065938
 20
-1047.9999999999990905
 30
0.0
 11
502.0000000000067075
 21
-1047.9999999999990905
 31
0.0
1001
ACDBBLOCKREPETAG
1070
     1
1071
       57
1005
127FFE
  0
CIRCLE
  5
127FFF
  8
OBJECT
 10
180.0000000000067928
 20
-1423.9999999999990905
 30
0.0
 40
70.0
1001
ACDBBLOCKREPETAG
1070
     1
1071
       50
1005
127FFF
  0
CIRCLE
  5
128000
  8
OBJECT
 10
180.0000000000067928
 20
-1423.9999999999990905
 30
0.0
 40
75.0
1001
ACDBBLOCKREPETAG
1070
     1
1071
       51
1005
128000
  0
POINT
  5
128001
  8
DOTS
 10
180.0000000000067928
 20
-1423.9999999999990905
 30
0.0
1001
ACDBBLOCKREPETAG
1070
     1
1071
       63
1005
128001
  0
ARC
  5
128002
  8
OBJECT
 10
180.0000000000067928
 20
-1423.9999999999990905
 30
0.0
 40
55.0
 50
299.3022457642870222
 51
240.6977542359811935
1001
ACDBBLOCKREPETAG
1070
     1
1071
       50
1005
127FFF
  0
LINE
  5
128003
  8
OBJECT
 10
156.1757960752578924
 20
-1469.6779614447539188
 30
0.0
 11
148.1876176730052066
 21
-1475.5774584435469023
 31
0.0
  0
ARC
  5
128004
  8
OBJECT
 10
159.1461853586419011
 20
-1473.6999991752029473
 30
0.0
 40
5.0
 50
90.0
 51
126.4469224760729986
  0
LINE
  5
128005
  8
OBJECT
 10
203.824203924702914
 20
-1469.6779614446270443
 30
0.0
 11
211.8124539801005994
 21
-1475.5775113607769526
 31
0.0
  0
ARC
  5
128006
  8
OBJECT
 10
200.8538146414898904
 20
-1473.6999991752029473
 30
0.0
 40
5.0
 50
53.5530775262745422
 51
90.0
  0
LINE
  5
128007
  8
OBJECT
 10
200.8538146414898904
 20
-1468.6999991752029473
 30
0.0
 11
159.1461853586419011
 21
-1468.6999991752029473
 31
0.0
  0
ARC
  5
128008
  8
OBJECT
 10
207.059831126960006
 20
-1482.0127717296988976
 30
0.0
 40
8.0
 50
16.4762162479585612
 51
53.5530775262745422
  0
ARC
  5
128009
  8
OBJECT
 10
152.940168873051789
 20
-1482.0127717296988976
 30
0.0
 40
8.0
 50
126.4469224737253938
 51
163.5237837520413962
  0
LINE
  5
12800A
  8
OBJECT
 10
145.2686684859814079
 20
-1479.7438332529759464
 30
0.0
 11
144.0000000000067928
 21
-1484.0333240792160723
 31
0.0
  0
LINE
  5
12800B
  8
OBJECT
 10
214.7313315140322914
 20
-1479.7438332529759464
 30
0.0
 11
216.0000000000067928
 21
-1484.0333240792160723
 31
0.0
  0
LINE
  5
12800C
  8
OBJECT
 10
242.0000000000067928
 20
-1556.9999999999990905
 30
0.0
 11
242.0000000000067928
 21
-1563.9999999999990905
 31
0.0
1001
ACDBBLOCKREPETAG
1070
     1
1071
       34
1005
12800C
  0
LINE
  5
12800D
  8
OBJECT
 10
242.0000000000067928
 20
-1563.9999999999990905
 30
0.0
 11
118.000000000006807
 21
-1563.9999999999990905
 31
0.0
1001
ACDBBLOCKREPETAG
1070
     1
1071
       35
1005
12800D
  0
LINE
  5
12800E
  8
OBJECT
 10
118.000000000006807
 20
-1563.9999999999990905
 30
0.0
 11
118.000000000006807
 21
-1556.9999999999990905
 31
0.0
1001
ACDBBLOCKREPETAG
1070
     1
1071
       36
1005
12800E
  0
LINE
  5
12800F
  8
OBJECT
 10
118.000000000006807
 20
-1556.9999999999990905
 30
0.0
 11
242.0000000000067928
 21
-1556.9999999999990905
 31
0.0
1001
ACDBBLOCKREPETAG
1070
     1
1071
       37
1005
12800F
  0
LINE
  5
128010
  8
OBJECT
 10
239.0000000000067928
 20
-1556.9999999999990905
 30
0.0
 11
239.0000000000067928
 21
-1520.9999999999990905
 31
0.0
1001
ACDBBLOCKREPETAG
1070
     1
1071
       38
1005
128010
  0
LINE
  5
128011
  8
OBJECT
 10
239.0000000000067928
 20
-1520.9999999999990905
 30
0.0
 11
121.000000000006807
 21
-1520.9999999999990905
 31
0.0
1001
ACDBBLOCKREPETAG
1070
     1
1071
       39
1005
128011
  0
LINE
  5
128012
  8
OBJECT
 10
121.000000000006807
 20
-1520.9999999999990905
 30
0.0
 11
121.000000000006807
 21
-1556.9999999999990905
 31
0.0
1001
ACDBBLOCKREPETAG
1070
     1
1071
       40
1005
128012
  0
LINE
  5
128013
  8
OBJECT
 10
234.5000000000067928
 20
-1516.9999999999990905
 30
0.0
 11
234.5000000000067928
 21
-1506.4999999999990905
 31
0.0
1001
ACDBBLOCKREPETAG
1070
     1
1071
       41
1005
128013
  0
LINE
  5
128014
  8
OBJECT
 10
125.500000000006807
 20
-1506.4999999999990905
 30
0.0
 11
125.500000000006807
 21
-1516.9999999999990905
 31
0.0
1001
ACDBBLOCKREPETAG
1070
     1
1071
       42
1005
128014
  0
LINE
  5
128015
  8
OBJECT
 10
125.500000000006807
 20
-1516.9999999999990905
 30
0.0
 11
234.5000000000067928
 21
-1516.9999999999990905
 31
0.0
1001
ACDBBLOCKREPETAG
1070
     1
1071
       43
1005
128015
  0
LINE
  5
128016
  8
OBJECT
 10
239.0000000000067928
 20
-1520.9999999999990905
 30
0.0
 11
234.5000000000067928
 21
-1516.9999999999990905
 31
0.0
1001
ACDBBLOCKREPETAG
1070
     1
1071
       44
1005
128016
  0
LINE
  5
128017
  8
OBJECT
 10
121.000000000006807
 20
-1520.9999999999990905
 30
0.0
 11
125.500000000006807
 21
-1516.9999999999990905
 31
0.0
1001
ACDBBLOCKREPETAG
1070
     1
1071
       45
1005
128017
  0
LINE
  5
128018
  8
OBJECT
 10
229.5000000000067928
 20
-1501.4999999999990905
 30
0.0
 11
229.5000000000059117
 21
-1480.3449199129779572
 31
0.0
1001
ACDBBLOCKREPETAG
1070
     1
1071
       46
1005
128018
  0
LINE
  5
128019
  8
OBJECT
 10
130.5000000000067928
 20
-1501.4999999999990905
 30
0.0
 11
130.5000000000067928
 21
-1480.3449199129770477
 31
0.0
1001
ACDBBLOCKREPETAG
1070
     1
1071
       47
1005
128019
  0
LINE
  5
12801A
  8
OBJECT
 10
234.5000000000067928
 20
-1506.4999999999990905
 30
0.0
 11
125.500000000006807
 21
-1506.4999999999990905
 31
0.0
1001
ACDBBLOCKREPETAG
1070
     1
1071
       48
1005
12801A
  0
LINE
  5
12801B
  8
OBJECT
 10
229.5000000000067928
 20
-1501.4999999999990905
 30
0.0
 11
130.5000000000067928
 21
-1501.4999999999990905
 31
0.0
1001
ACDBBLOCKREPETAG
1070
     1
1071
       49
1005
12801B
  0
LINE
  5
12801C
  8
OBJECT
 10
234.5000000000067928
 20
-1506.4999999999990905
 30
0.0
 11
229.5000000000067928
 21
-1501.4999999999990905
 31
0.0
1001
ACDBBLOCKREPETAG
1070
     1
1071
       50
1005
12801C
  0
LINE
  5
12801D
  8
OBJECT
 10
130.5000000000067928
 20
-1501.4999999999990905
 30
0.0
 11
125.5000000000104023
 21
-1506.4999999999990905
 31
0.0
1001
ACDBBLOCKREPETAG
1070
     1
1071
       51
1005
12801D
  0
INSERT
  5
12801E
  8
SLIM
  2
*U12
 10
0.0
 20
0.0
 30
0.0
  0
LINE
  5
12801F
  8
HIDDEN
 10
224.5000000000067928
 20
-1511.9999999999990905
 30
0.0
 11
135.5000000000067928
 21
-1511.9999999999990905
 31
0.0
1001
ACDBBLOCKREPETAG
1070
     1
1071
       65
1005
12801F
  0
LINE
  5
128020
  8
OBJECT
 10
4633.0
 20
-152.9999999999990905
 30
0.0
 11
4640.0
 21
-152.9999999999990905
 31
0.0
1001
ACDBBLOCKREPETAG
1070
     1
1071
        7
1005
128020
  0
LINE
  5
128021
  8
OBJECT
 10
4640.0
 20
-152.9999999999990905
 30
0.0
 11
4640.0
 21
-246.9999999999990905
 31
0.0
1001
ACDBBLOCKREPETAG
1070
     1
1071
        8
1005
128021
  0
LINE
  5
128022
  8
OBJECT
 10
4640.0
 20
-246.9999999999990905
 30
0.0
 11
4633.0
 21
-246.9999999999990905
 31
0.0
1001
ACDBBLOCKREPETAG
1070
     1
1071
        9
1005
128022
  0
LINE
  5
128023
  8
OBJECT
 10
4633.0
 20
-246.9999999999990905
 30
0.0
 11
4633.0
 21
-152.9999999999990905
 31
0.0
1001
ACDBBLOCKREPETAG
1070
     1
1071
       10
1005
128023
  0
LINE
  5
128024
  8
CENTER
 10
4655.0
 20
-199.9999999999990905
 30
0.0
 11
4580.0
 21
-199.9999999999990905
 31
0.0
1001
ACDBBLOCKREPETAG
1070
     1
1071
       11
1005
128024
  0
LINE
  5
128025
  8
OBJECT
 10
4633.0
 20
-155.9999999999990905
 30
0.0
 11
4597.0
 21
-155.9999999999990905
 31
0.0
1001
ACDBBLOCKREPETAG
1070
     1
1071
       12
1005
128025
  0
LINE
  5
128026
  8
OBJECT
 10
4597.0
 20
-155.9999999999990905
 30
0.0
 11
4597.0
 21
-243.9999999999990905
 31
0.0
1001
ACDBBLOCKREPETAG
1070
     1
1071
       13
1005
128026
  0
LINE
  5
128027
  8
OBJECT
 10
4597.0
 20
-243.9999999999990905
 30
0.0
 11
4633.0
 21
-243.9999999999990905
 31
0.0
1001
ACDBBLOCKREPETAG
1070
     1
1071
       14
1005
128027
  0
LINE
  5
128028
  8
OBJECT
 10
4593.0
 20
-160.4999999999990905
 30
0.0
 11
4586.0
 21
-160.4999999999990905
 31
0.0
1001
ACDBBLOCKREPETAG
1070
     1
1071
       15
1005
128028
  0
LINE
  5
128029
  8
OBJECT
 10
4586.0
 20
-239.4999999999990905
 30
0.0
 11
4593.0
 21
-239.4999999999990905
 31
0.0
1001
ACDBBLOCKREPETAG
1070
     1
1071
       16
1005
128029
  0
LINE
  5
12802A
  8
OBJECT
 10
4593.0
 20
-239.4999999999990905
 30
0.0
 11
4593.0
 21
-160.4999999999990905
 31
0.0
1001
ACDBBLOCKREPETAG
1070
     1
1071
       17
1005
12802A
  0
LINE
  5
12802B
  8
OBJECT
 10
4597.0
 20
-155.9999999999990905
 30
0.0
 11
4593.0
 21
-160.4999999999990905
 31
0.0
1001
ACDBBLOCKREPETAG
1070
     1
1071
       18
1005
12802B
  0
LINE
  5
12802C
  8
OBJECT
 10
4597.0
 20
-243.9999999999990905
 30
0.0
 11
4593.0
 21
-239.4999999999990905
 31
0.0
1001
ACDBBLOCKREPETAG
1070
     1
1071
       19
1005
12802C
  0
LINE
  5
12802D
  8
OBJECT
 10
4583.0
 20
-137.9999999999990905
 30
0.0
 11
4580.0
 21
-137.9999999999990905
 31
0.0
1001
ACDBBLOCKREPETAG
1070
     1
1071
       20
1005
12802D
  0
ARC
  5
12802E
  8
OBJECT
 10
4583.0
 20
-140.9999999999990905
 30
0.0
 40
3.0
 50
0.0
 51
90.0
1001
ACDBBLOCKREPETAG
1070
     1
1071
       21
1005
12802E
  0
LINE
  5
12802F
  8
OBJECT
 10
4580.0
 20
-261.9999999999990905
 30
0.0
 11
4583.0
 21
-261.9999999999990905
 31
0.0
1001
ACDBBLOCKREPETAG
1070
     1
1071
       22
1005
12802F
  0
ARC
  5
128030
  8
OBJECT
 10
4583.0
 20
-258.9999999999990905
 30
0.0
 40
3.0
 50
270.0
 51
0.0
1001
ACDBBLOCKREPETAG
1070
     1
1071
       23
1005
128030
  0
LINE
  5
128031
  8
OBJECT
 10
4586.0
 20
-258.9999999999990905
 30
0.0
 11
4586.0
 21
-140.9999999999990905
 31
0.0
1001
ACDBBLOCKREPETAG
1070
     1
1071
       24
1005
128031
  0
LINE
  5
128032
  8
HIDDEN
 10
4588.0
 20
-169.9999999999990905
 30
0.0
 11
4588.0
 21
-229.9999999999990905
 31
0.0
1001
ACDBBLOCKREPETAG
1070
     1
1071
       25
1005
128032
  0
LINE
  5
128033
  8
SLIM
  6
CONTINUOUS
 10
4434.6248517421099677
 20
-150.4999999999990905
 30
0.0
 11
4460.2662412276949908
 21
-124.8586105144150054
 31
0.0
1001
GRADIENTCOLOR1ACI
1070
     5
1001
GRADIENTCOLOR2ACI
1070
     2
1001
ACAD
1010
0.0
1020
0.0
1030
0.0
  0
LINE
  5
128034
  8
SLIM
  6
CONTINUOUS
 10
4466.9665679627396457
 20
-127.1385399004411028
 30
0.0
 11
4475.4966737955073768
 21
-118.6084340676741959
 31
0.0
1001
GRADIENTCOLOR1ACI
1070
     5
1001
GRADIENTCOLOR2ACI
1070
     2
1001
ACAD
1010
0.0
1020
0.0
1030
0.0
  0
LINE
  5
128035
  8
SLIM
  6
CONTINUOUS
 10
4480.7298081179296787
 20
-122.3555558663202021
 30
0.0
 11
4487.1009205801610733
 21
-115.9844434040886938
 31
0.0
1001
GRADIENTCOLOR1ACI
1070
     5
1001
GRADIENTCOLOR2ACI
1070
     2
1001
ACAD
1010
0.0
1020
0.0
1030
0.0
  0
LINE
  5
128036
  8
SLIM
  6
CONTINUOUS
 10
4491.6261550504887055
 20
-120.4394650548301939
 30
0.0
 11
4497.013124938400324
 21
-115.0524951669185043
 31
0.0
1001
GRADIENTCOLOR1ACI
1070
     5
1001
GRADIENTCOLOR2ACI
1070
     2
1001
ACAD
1010
0.0
1020
0.0
1030
0.0
  0
LINE
  5
128037
  8
SLIM
  6
CONTINUOUS
 10
4501.0391272822816973
 20
-120.0067489441062065
 30
0.0
 11
4505.8446943102489968
 21
-115.201181916138907
 31
0.0
1001
GRADIENTCOLOR1ACI
1070
     5
1001
GRADIENTCOLOR2ACI
1070
     2
1001
ACAD
1010
0.0
1020
0.0
1030
0.0
  0
LINE
  5
128038
  8
SLIM
  6
CONTINUOUS
 10
4509.4643255646178659
 20
-120.5618067828390991
 30
0.0
 11
4513.8844735755637885
 21
-116.1416587718931055
 31
0.0
1001
GRADIENTCOLOR1ACI
1070
     5
1001
GRADIENTCOLOR2ACI
1070
     2
1001
ACAD
1010
0.0
1020
0.0
1030
0.0
  0
LINE
  5
128039
  8
SLIM
  6
CONTINUOUS
 10
4517.1471323385685537
 20
-121.8592561299565062
 30
0.0
 11
4521.2955183575040792
 21
-117.7108701110200997
 31
0.0
1001
GRADIENTCOLOR1ACI
1070
     5
1001
GRADIENTCOLOR2ACI
1070
     2
1001
ACAD
1010
0.0
1020
0.0
1030
0.0
  0
LINE
  5
12803A
  8
SLIM
  6
CONTINUOUS
 10
4524.229292622219873
 20
-123.7573519673731965
 30
0.0
 11
4528.1796002140081328
 21
-119.8070443755877932
 31
0.0
1001
GRADIENTCOLOR1ACI
1070
     5
1001
GRADIENTCOLOR2ACI
1070
     2
1001
ACAD
1010
0.0
1020
0.0
1030
0.0
  0
LINE
  5
12803B
  8
SLIM
  6
CONTINUOUS
 10
4530.8001598408181962
 20
-126.1667408698467057
 30
0.0
 11
4534.6041959971053075
 21
-122.3627047135578039
 31
0.0
1001
GRADIENTCOLOR1ACI
1070
     5
1001
GRADIENTCOLOR2ACI
1070
     2
1001
ACAD
1010
0.0
1020
0.0
1030
0.0
  0
LINE
  5
12803C
  8
SLIM
  6
CONTINUOUS
 10
4536.9189300973530408
 20
-129.0282267343781939
 30
0.0
 11
4540.6155853902901072
 21
-125.3315714414430033
 31
0.0
1001
GRADIENTCOLOR1ACI
1070
     5
1001
GRADIENTCOLOR2ACI
1070
     2
1001
ACAD
1010
0.0
1020
0.0
1030
0.0
  0
LINE
  5
12803D
  8
SLIM
  6
CONTINUOUS
 10
4542.6256620680069318
 20
-132.3017508847952115
 30
0.0
 11
4546.245858059091006
 21
-128.6815548937111089
 31
0.0
1001
GRADIENTCOLOR1ACI
1070
     5
1001
GRADIENTCOLOR2ACI
1070
     2
1001
ACAD
1010
0.0
1020
0.0
1030
0.0
  0
LINE
  5
12803E
  8
SLIM
  6
CONTINUOUS
 10
4432.3907652629231961
 20
-251.5169038109480084
 30
0.0
 11
4434.4076690738720572
 21
-249.4999999999996021
 31
0.0
1001
GRADIENTCOLOR1ACI
1070
     5
1001
GRADIENTCOLOR2ACI
1070
     2
1001
ACAD
1010
0.0
1020
0.0
1030
0.0
  0
LINE
  5
12803F
  8
SLIM
  6
CONTINUOUS
 10
4547.9472200511290794
 20
-135.960449022741102
 30
0.0
 11
4551.5169038109488611
 21
-132.3907652629204108
 31
0.0
1001
GRADIENTCOLOR1ACI
1070
     5
1001
GRADIENTCOLOR2ACI
1070
     2
1001
ACAD
1010
0.0
1020
0.0
1030
0.0
  0
LINE
  5
128040
  8
SLIM
  6
CONTINUOUS
 10
4436.445174293106902
 20
-256.4427509018315163
 30
0.0
 11
4439.9873013608048495
 21
-252.9006238341358141
 31
0.0
1001
GRADIENTCOLOR1ACI
1070
     5
1001
GRADIENTCOLOR2ACI
1070
     2
1001
ACAD
1010
0.0
1020
0.0
1030
0.0
  0
LINE
  5
128041
  8
SLIM
  6
CONTINUOUS
 10
4554.88792519494109
 20
-137.9999999999990905
 30
0.0
 11
4556.442750901836007
 21
-136.4451742931049978
 31
0.0
1001
GRADIENTCOLOR1ACI
1070
     5
1001
GRADIENTCOLOR2ACI
1070
     2
1001
ACAD
1010
0.0
1020
0.0
1030
0.0
  0
LINE
  5
128042
  8
SLIM
  6
CONTINUOUS
 10
4440.8372731495674088
 20
-261.0309081664418045
 30
0.0
 11
4444.3732607963193004
 21
-257.4949205196899129
 31
0.0
1001
GRADIENTCOLOR1ACI
1070
     5
1001
GRADIENTCOLOR2ACI
1070
     2
1001
ACAD
1010
0.0
1020
0.0
1030
0.0
  0
LINE
  5
128043
  8
SLIM
  6
CONTINUOUS
 10
4445.5654027321443209
 20
-265.2830347049348916
 30
0.0
 11
4449.1163342680174537
 21
-261.7321031690607924
 31
0.0
1001
GRADIENTCOLOR1ACI
1070
     5
1001
GRADIENTCOLOR2ACI
1070
     2
1001
ACAD
1010
0.0
1020
0.0
1030
0.0
  0
LINE
  5
128044
  8
SLIM
  6
CONTINUOUS
 10
4450.6336102119221323
 20
-269.1950833462256014
 30
0.0
 11
4454.2213873681739642
 21
-265.6073061899733148
 31
0.0
1001
GRADIENTCOLOR1ACI
1070
     5
1001
GRADIENTCOLOR2ACI
1070
     2
1001
ACAD
1010
0.0
1020
0.0
1030
0.0
  0
LINE
  5
128045
  8
SLIM
  6
CONTINUOUS
 10
4456.0520018449296913
 20
-272.7569478342888942
 30
0.0
 11
4459.7006257556995479
 21
-269.1083239235172186
 31
0.0
1001
GRADIENTCOLOR1ACI
1070
     5
1001
GRADIENTCOLOR2ACI
1070
     2
1001
ACAD
1010
0.0
1020
0.0
1030
0.0
  0
LINE
  5
128046
  8
SLIM
  6
CONTINUOUS
 10
4461.8376665887199124
 20
-275.9515392115658869
 30
0.0
 11
4465.5748693932528113
 21
-272.214336407033386
 31
0.0
1001
GRADIENTCOLOR1ACI
1070
     5
1001
GRADIENTCOLOR2ACI
1070
     2
1001
ACAD
1010
0.0
1020
0.0
1030
0.0
  0
LINE
  5
128047
  8
SLIM
  6
CONTINUOUS
 10
4468.0163793697502115
 20
-278.7530825516054733
 30
0.0
 11
4471.8759515352576273
 21
-274.893510386098626
 31
0.0
1001
GRADIENTCOLOR1ACI
1070
     5
1001
GRADIENTCOLOR2ACI
1070
     2
1001
ACAD
1010
0.0
1020
0.0
1030
0.0
  0
LINE
  5
128048
  8
SLIM
  6
CONTINUOUS
 10
4474.6255187948081584
 20
-281.1241992476171276
 30
0.0
 11
4478.6509600030767615
 21
-277.0987580393465919
 31
0.0
1001
GRADIENTCOLOR1ACI
1070
     5
1001
GRADIENTCOLOR2ACI
1070
     2
1001
ACAD
1010
0.0
1020
0.0
1030
0.0
  0
LINE
  5
128049
  8
SLIM
  6
CONTINUOUS
 10
4481.7190828919883643
 20
-283.0108912715048746
 30
0.0
 11
4485.9698622171854367
 21
-278.7601119463088253
 31
0.0
1001
GRADIENTCOLOR1ACI
1070
     5
1001
GRADIENTCOLOR2ACI
1070
     2
1001
ACAD
1010
0.0
1020
0.0
1030
0.0
  0
LINE
  5
12804A
  8
SLIM
  6
CONTINUOUS
 10
4489.376693855881058
 20
-284.33353642868218
 30
0.0
 11
4493.9400771270447876
 21
-279.7701531575175977
 31
0.0
1001
GRADIENTCOLOR1ACI
1070
     5
1001
GRADIENTCOLOR2ACI
1070
     2
1001
ACAD
1010
0.0
1020
0.0
1030
0.0
  0
LINE
  5
12804B
  8
SLIM
  6
CONTINUOUS
 10
4497.7210427574209461
 20
-284.9694436482096194
 30
0.0
 11
4500.0
 21
-282.690486405630395
 31
0.0
1001
GRADIENTCOLOR1ACI
1070
     5
1001
GRADIENTCOLOR2ACI
1070
     2
1001
ACAD
1010
0.0
1020
0.0
1030
0.0
  0
LINE
  5
12804C
  8
SLIM
  6
CONTINUOUS
 10
4500.0
 20
-282.690486405630395
 30
0.0
 11
4502.73733126109164
 21
-279.9531551445406876
 31
0.0
1001
GRADIENTCOLOR1ACI
1070
     5
1001
GRADIENTCOLOR2ACI
1070
     2
1001
ACAD
1010
0.0
1020
0.0
1030
0.0
  0
LINE
  5
12804D
  8
SLIM
  6
CONTINUOUS
 10
4506.9558298417923652
 20
-284.7149126849088816
 30
0.0
 11
4512.6824114987848588
 21
-278.9883310279146826
 31
0.0
1001
GRADIENTCOLOR1ACI
1070
     5
1001
GRADIENTCOLOR2ACI
1070
     2
1001
ACAD
1010
0.0
1020
0.0
1030
0.0
  0
LINE
  5
12804E
  8
SLIM
  6
CONTINUOUS
 10
4517.4645176312833428
 20
-283.1864810164871074
 30
0.0
 11
4524.4924948954112551
 21
-276.1585037523599908
 31
0.0
1001
GRADIENTCOLOR1ACI
1070
     5
1001
GRADIENTCOLOR2ACI
1070
     2
1001
ACAD
1010
0.0
1020
0.0
1030
0.0
  0
LINE
  5
12804F
  8
SLIM
  6
CONTINUOUS
 10
4530.1631022713127095
 20
-279.4681524975267166
 30
0.0
 11
4540.8425463192979805
 21
-268.7887084495415024
 31
0.0
1001
GRADIENTCOLOR1ACI
1070
     5
1001
GRADIENTCOLOR2ACI
1070
     2
1001
ACAD
1010
0.0
1020
0.0
1030
0.0
  0
LINE
  5
128050
  8
SLIM
  6
CONTINUOUS
 10
4549.5421817599126371
 20
-269.0693291299958219
 30
0.0
 11
4556.6115108899066399
 21
-262.0
 31
0.0
1001
GRADIENTCOLOR1ACI
1070
     5
1001
GRADIENTCOLOR2ACI
1070
     2
1001
ACAD
1010
0.0
1020
0.0
1030
0.0
  0
LINE
  5
128051
  8
OBJECT
 10
2633.0
 20
-152.9999999999980105
 30
0.0
 11
2640.0
 21
-152.9999999999980105
 31
0.0
1001
ACDBBLOCKREPETAG
1070
     1
1071
        7
1005
128051
  0
LINE
  5
128052
  8
OBJECT
 10
2640.0
 20
-152.9999999999980105
 30
0.0
 11
2640.0
 21
-246.9999999999980105
 31
0.0
1001
ACDBBLOCKREPETAG
1070
     1
1071
        8
1005
128052
  0
LINE
  5
128053
  8
OBJECT
 10
2640.0
 20
-246.9999999999980105
 30
0.0
 11
2633.0
 21
-246.9999999999980105
 31
0.0
1001
ACDBBLOCKREPETAG
1070
     1
1071
        9
1005
128053
  0
LINE
  5
128054
  8
OBJECT
 10
2633.0
 20
-246.9999999999980105
 30
0.0
 11
2633.0
 21
-152.9999999999980105
 31
0.0
1001
ACDBBLOCKREPETAG
1070
     1
1071
       10
1005
128054
  0
LINE
  5
128055
  8
CENTER
 10
2655.0
 20
-199.9999999999980105
 30
0.0
 11
2580.0
 21
-199.9999999999980105
 31
0.0
1001
ACDBBLOCKREPETAG
1070
     1
1071
       11
1005
128055
  0
LINE
  5
128056
  8
OBJECT
 10
2633.0
 20
-155.9999999999980105
 30
0.0
 11
2596.9999999999990905
 21
-155.9999999999980105
 31
0.0
1001
ACDBBLOCKREPETAG
1070
     1
1071
       12
1005
128056
  0
LINE
  5
128057
  8
OBJECT
 10
2596.9999999999990905
 20
-155.9999999999980105
 30
0.0
 11
2596.9999999999990905
 21
-243.9999999999980105
 31
0.0
1001
ACDBBLOCKREPETAG
1070
     1
1071
       13
1005
128057
  0
LINE
  5
128058
  8
OBJECT
 10
2596.9999999999990905
 20
-243.9999999999980105
 30
0.0
 11
2633.0
 21
-243.9999999999980105
 31
0.0
1001
ACDBBLOCKREPETAG
1070
     1
1071
       14
1005
128058
  0
LINE
  5
128059
  8
OBJECT
 10
2593.0
 20
-160.4999999999980105
 30
0.0
 11
2586.0
 21
-160.4999999999980105
 31
0.0
1001
ACDBBLOCKREPETAG
1070
     1
1071
       15
1005
128059
  0
LINE
  5
12805A
  8
OBJECT
 10
2586.0
 20
-239.4999999999980105
 30
0.0
 11
2593.0
 21
-239.4999999999980105
 31
0.0
1001
ACDBBLOCKREPETAG
1070
     1
1071
       16
1005
12805A
  0
LINE
  5
12805B
  8
OBJECT
 10
2593.0
 20
-239.4999999999980105
 30
0.0
 11
2593.0
 21
-160.4999999999980105
 31
0.0
1001
ACDBBLOCKREPETAG
1070
     1
1071
       17
1005
12805B
  0
LINE
  5
12805C
  8
OBJECT
 10
2596.9999999999990905
 20
-155.9999999999980105
 30
0.0
 11
2593.0
 21
-160.4999999999980105
 31
0.0
1001
ACDBBLOCKREPETAG
1070
     1
1071
       18
1005
12805C
  0
LINE
  5
12805D
  8
OBJECT
 10
2596.9999999999990905
 20
-243.9999999999980105
 30
0.0
 11
2593.0
 21
-239.4999999999980105
 31
0.0
1001
ACDBBLOCKREPETAG
1070
     1
1071
       19
1005
12805D
  0
LINE
  5
12805E
  8
OBJECT
 10
2583.0
 20
-137.9999999999980105
 30
0.0
 11
2580.0
 21
-137.9999999999980105
 31
0.0
1001
ACDBBLOCKREPETAG
1070
     1
1071
       20
1005
12805E
  0
ARC
  5
12805F
  8
OBJECT
 10
2583.0
 20
-140.9999999999980105
 30
0.0
 40
3.0
 50
0.0
 51
90.0
1001
ACDBBLOCKREPETAG
1070
     1
1071
       21
1005
12805F
  0
LINE
  5
128060
  8
OBJECT
 10
2580.0
 20
-261.9999999999980105
 30
0.0
 11
2583.0
 21
-261.9999999999980105
 31
0.0
1001
ACDBBLOCKREPETAG
1070
     1
1071
       22
1005
128060
  0
ARC
  5
128061
  8
OBJECT
 10
2583.0
 20
-258.9999999999980105
 30
0.0
 40
3.0
 50
270.0
 51
0.0
1001
ACDBBLOCKREPETAG
1070
     1
1071
       23
1005
128061
  0
LINE
  5
128062
  8
OBJECT
 10
2586.0
 20
-258.9999999999980105
 30
0.0
 11
2586.0
 21
-140.9999999999980105
 31
0.0
1001
ACDBBLOCKREPETAG
1070
     1
1071
       24
1005
128062
  0
LINE
  5
128063
  8
HIDDEN
 10
2588.0
 20
-169.9999999999980105
 30
0.0
 11
2588.0
 21
-229.9999999999980105
 31
0.0
1001
ACDBBLOCKREPETAG
1070
     1
1071
       25
1005
128063
  0
TEXT
  5
128064
  8
SLIM
 10
4974.3428571428567011
 20
-836.9999999999961346
 30
0.0
 40
24.0
  1
対応m寸法
 41
0.75
  0
TEXT
  5
128065
  8
SLIM
 10
4968.3428571428567011
 20
-932.9999999999968168
 30
0.0
 40
24.0
  1
220～350
 41
0.75
  0
TEXT
  5
128066
  8
SLIM
 10
4880.571428571429351
 20
-932.9999999999968168
 30
0.0
 40
24.0
  1
310
 41
0.75
  0
TEXT
  5
128067
  8
SLIM
 10
4873.8000000000001819
 20
-836.9999999999961346
 30
0.0
 40
24.0
  1
P寸法
 41
0.75
  0
TEXT
  5
128068
  8
SLIM
 10
4878.857142857143117
 20
-980.9999999999971578
 30
0.0
 40
24.0
  1
320
 41
0.75
  0
TEXT
  5
128069
  8
SLIM
 10
4878.857142857143117
 20
-1028.9999999999970441
 30
0.0
 40
24.0
  1
330
 41
0.75
  0
TEXT
  5
12806A
  8
SLIM
 10
4970.0571428571429351
 20
-980.9999999999971578
 30
0.0
 40
24.0
  1
210～340
 41
0.75
  0
TEXT
  5
12806B
  8
SLIM
 10
4878.857142857143117
 20
-1076.9999999999970441
 30
0.0
 40
24.0
  1
340
 41
0.75
  0
TEXT
  5
12806C
  8
SLIM
 10
4968.3428571428567011
 20
-1028.9999999999970441
 30
0.0
 40
24.0
  1
200～330
 41
0.75
  0
TEXT
  5
12806D
  8
SLIM
 10
4878.857142857143117
 20
-1124.9999999999970441
 30
0.0
 40
24.0
  1
350
 41
0.75
  0
TEXT
  5
12806E
  8
SLIM
 10
4970.0571428571429351
 20
-1076.9999999999970441
 30
0.0
 40
24.0
  1
190～320
 41
0.75
  0
TEXT
  5
12806F
  8
SLIM
 10
4878.857142857143117
 20
-1172.9999999999970441
 30
0.0
 40
24.0
  1
360
 41
0.75
  0
TEXT
  5
128070
  8
SLIM
 10
4971.7714285714291691
 20
-1124.9999999999970441
 30
0.0
 40
24.0
  1
190～310
 41
0.75
  0
TEXT
  5
128071
  8
SLIM
 10
4878.857142857143117
 20
-1220.9999999999970441
 30
0.0
 40
24.0
  1
370
 41
0.75
  0
TEXT
  5
128072
  8
SLIM
 10
4878.857142857143117
 20
-1268.9999999999970441
 30
0.0
 40
24.0
  1
380
 41
0.75
  0
TEXT
  5
128073
  8
SLIM
 10
4878.857142857143117
 20
-1316.9999999999970441
 30
0.0
 40
24.0
  1
390
 41
0.75
  0
TEXT
  5
128074
  8
SLIM
 10
4878.857142857143117
 20
-1364.9999999999970441
 30
0.0
 40
24.0
  1
400
 41
0.75
  0
TEXT
  5
128075
  8
SLIM
 10
4880.571428571429351
 20
-1412.9999999999970441
 30
0.0
 40
24.0
  1
410
 41
0.75
  0
TEXT
  5
128076
  8
SLIM
 10
4878.857142857143117
 20
-1460.9999999999970441
 30
0.0
 40
24.0
  1
420
 41
0.75
  0
TEXT
  5
128077
  8
SLIM
 10
4948.4571428571443903
 20
-1518.9999999999959073
 30
0.0
 40
24.0
  1
標準：m=240
 41
0.75
  0
TEXT
  5
128078
  8
SLIM
 10
4970.0571428571429351
 20
-1172.9999999999970441
 30
0.0
 40
24.0
  1
190～300
 41
0.75
  0
TEXT
  5
128079
  8
SLIM
 10
4970.0571428571429351
 20
-1220.9999999999970441
 30
0.0
 40
24.0
  1
190～290
 41
0.75
  0
TEXT
  5
12807A
  8
SLIM
 10
4970.0571428571429351
 20
-1268.9999999999970441
 30
0.0
 40
24.0
  1
190～280
 41
0.75
  0
TEXT
  5
12807B
  8
SLIM
 10
4970.0571428571429351
 20
-1316.9999999999970441
 30
0.0
 40
24.0
  1
190～270
 41
0.75
  0
TEXT
  5
12807C
  8
SLIM
 10
4970.0571428571429351
 20
-1364.9999999999970441
 30
0.0
 40
24.0
  1
190～260
 41
0.75
  0
TEXT
  5
12807D
  8
SLIM
 10
4970.0571428571429351
 20
-1412.9999999999970441
 30
0.0
 40
24.0
  1
190～250
 41
0.75
  0
TEXT
  5
12807E
  8
SLIM
 10
4970.0571428571429351
 20
-1460.9999999999970441
 30
0.0
 40
24.0
  1
190～240
 41
0.75
  0
TEXT
  5
12807F
  8
SLIM
 10
4135.5640492866314162
 20
-1818.0000266666650077
 30
0.0
 40
28.0
  1
※ 対応P寸法　　300～420（10mm単位。）
 41
0.75
  0
TEXT
  5
128080
  8
SLIM
 10
4135.5640492866314162
 20
-1864.6666933333310681
 30
0.0
 40
28.0
  1
※ 最大対応スラブ厚　350
 41
0.75
  0
TEXT
  5
128081
  8
SLIM
 10
4135.5640492866314162
 20
-1911.3333599999980379
 30
0.0
 40
28.0
  1
※ 足切り可能寸法（最大）　660-P-m（コンパクトＬベンド使用なら+20）
 41
0.75
  0
TEXT
  5
128082
  8
SLIM
 10
4224.0011595033638514
 20
-1983.3333066666650666
 30
0.0
 40
28.0
  1
国土交通大臣認定・（一財）日本消防設備安全センター性能評定取得品
 41
0.75
  0
TEXT
  5
128083
  8
SLIM
 10
4256.2011595033636695
 20
-2029.9999733333320364
 30
0.0
 40
28.0
  1
注）ご採用にあたり、認定書及び評定書の内容をご確認ください。
 41
0.75
  0
TEXT
  5
128084
  8
SLIM
 10
2219.0999999999999091
 20
-1828.9999999999970441
 30
0.0
 40
28.0
  1
※ 対応P寸法　　300～450（10mm単位。）
 41
0.75
  0
LINE
  5
128085
  8
OBJECT
 10
2423.0
 20
-571.0
 30
0.0
 11
2423.0
 21
-550.0
 31
0.0
1001
ACDBBLOCKREPETAG
1070
     1
1071
        0
1005
128085
  0
LINE
  5
128086
  8
OBJECT
 10
2423.0
 20
-550.0
 30
0.0
 11
2577.0
 21
-550.0
 31
0.0
1001
ACDBBLOCKREPETAG
1070
     1
1071
        1
1005
128086
  0
LINE
  5
128087
  8
HIDDEN
 10
2443.0
 20
-620.0
 30
0.0
 11
2557.0
 21
-620.0
 31
0.0
1001
ACDBBLOCKREPETAG
1070
     1
1071
        2
1005
128087
  0
LINE
  5
128088
  8
OBJECT
 10
2577.0
 20
-550.0
 30
0.0
 11
2577.0
 21
-571.0
 31
0.0
1001
ACDBBLOCKREPETAG
1070
     1
1071
        3
1005
128088
  0
LINE
  5
128089
  8
OBJECT
 10
2577.0
 20
-571.0
 30
0.0
 11
2423.0
 21
-571.0
 31
0.0
1001
ACDBBLOCKREPETAG
1070
     1
1071
        4
1005
128089
  0
LINE
  5
12808A
  8
CENTER
 10
2500.0
 20
-535.0
 30
0.0
 11
2500.0
 21
-890.0
 31
0.0
1001
ACDBBLOCKREPETAG
1070
     1
1071
        5
1005
12808A
  0
LINE
  5
12808B
  8
OBJECT
 10
2425.0
 20
-634.0
 30
0.0
 11
2425.0
 21
-878.0
 31
0.0
1001
ACDBBLOCKREPETAG
1070
     1
1071
        6
1005
12808B
  0
LINE
  5
12808C
  8
OBJECT
 10
2428.0
 20
-571.0
 30
0.0
 11
2428.0
 21
-634.0
 31
0.0
1001
ACDBBLOCKREPETAG
1070
     1
1071
        7
1005
12808C
  0
LINE
  5
12808D
  8
OBJECT
 10
2572.0
 20
-634.0
 30
0.0
 11
2572.0
 21
-571.0
 31
0.0
1001
ACDBBLOCKREPETAG
1070
     1
1071
        8
1005
12808D
  0
LINE
  5
12808E
  8
OBJECT
 10
2420.0
 20
-878.0
 30
0.0
 11
2580.0
 21
-878.0
 31
0.0
1001
ACDBBLOCKREPETAG
1070
     1
1071
        9
1005
12808E
  0
LINE
  5
12808F
  8
OBJECT
 10
2580.0
 20
-634.0
 30
0.0
 11
2425.0
 21
-634.0
 31
0.0
1001
ACDBBLOCKREPETAG
1070
     1
1071
       10
1005
12808F
  0
LINE
  5
128090
  8
OBJECT
 10
2420.0
 20
-878.0
 30
0.0
 11
2420.0
 21
-890.0
 31
0.0
1001
ACDBBLOCKREPETAG
1070
     1
1071
       11
1005
128090
  0
LINE
  5
128091
  8
OBJECT
 10
2420.0
 20
-890.0
 30
0.0
 11
2580.0
 21
-890.0
 31
0.0
1001
ACDBBLOCKREPETAG
1070
     1
1071
       12
1005
128091
  0
LINE
  5
128092
  8
OBJECT
 10
2580.0
 20
-890.0
 30
0.0
 11
2580.0
 21
-878.0
 31
0.0
1001
ACDBBLOCKREPETAG
1070
     1
1071
       13
1005
128092
  0
LINE
  5
128093
  8
OBJECT
 10
2574.9999999998622116
 20
-757.9999999998509566
 30
0.0
 11
2575.0
 21
-878.0
 31
0.0
1001
ACDBBLOCKREPETAG
1070
     1
1071
       15
1005
128093
  0
LINE
  5
128094
  8
OBJECT
 10
2574.9999908029849394
 20
-757.9999860270218051
 30
0.0
 11
2580.0
 21
-757.9999860270218051
 31
0.0
1001
ACDBBLOCKREPETAG
1070
     1
1071
       16
1005
128094
  0
ARC
  5
128095
  8
OBJECT
 10
2700.6872746716730944
 20
-749.4080994101076385
 30
0.0
 40
170.6350503965855978
 50
137.4413445918430057
 51
149.9194958133722082
1001
ACDBBLOCKREPETAG
1070
     1
1071
       17
1005
128095
  0
ARC
  5
128096
  8
OBJECT
 10
2618.845598704051099
 20
-705.882726695364795
 30
0.0
 40
78.0722220217636647
 50
147.4551531038623011
 51
164.6636599771798046
1001
ACDBBLOCKREPETAG
1070
     1
1071
       18
1005
128096
  0
ARC
  5
128097
  8
OBJECT
 10
2585.7554349608731172
 20
-696.0
 30
0.0
 40
43.5535392688561771
 50
165.6884523007466044
 51
194.3115476992531967
1001
ACDBBLOCKREPETAG
1070
     1
1071
       19
1005
128097
  0
ARC
  5
128098
  8
OBJECT
 10
2700.6872746716730944
 20
-642.5919005898921341
 30
0.0
 40
170.6350503965855978
 50
210.0805041866277918
 51
222.5586554081569943
1001
ACDBBLOCKREPETAG
1070
     1
1071
       20
1005
128098
  0
ARC
  5
128099
  8
OBJECT
 10
2618.845598704051099
 20
-686.117273304635205
 30
0.0
 40
78.0722220217636647
 50
195.3363400228201101
 51
212.5448468961376989
1001
ACDBBLOCKREPETAG
1070
     1
1071
       21
1005
128099
  0
LINE
  5
12809A
  8
OBJECT
 10
4423.0
 20
-571.0
 30
0.0
 11
4423.0
 21
-550.0
 31
0.0
1001
ACDBBLOCKREPETAG
1070
     1
1071
        0
1005
12809A
  0
LINE
  5
12809B
  8
OBJECT
 10
4423.0
 20
-550.0
 30
0.0
 11
4577.0
 21
-550.0
 31
0.0
1001
ACDBBLOCKREPETAG
1070
     1
1071
        1
1005
12809B
  0
LINE
  5
12809C
  8
HIDDEN
 10
4443.0
 20
-620.0
 30
0.0
 11
4557.0
 21
-620.0
 31
0.0
1001
ACDBBLOCKREPETAG
1070
     1
1071
        2
1005
12809C
  0
LINE
  5
12809D
  8
OBJECT
 10
4577.0
 20
-550.0
 30
0.0
 11
4577.0
 21
-571.0
 31
0.0
1001
ACDBBLOCKREPETAG
1070
     1
1071
        3
1005
12809D
  0
LINE
  5
12809E
  8
OBJECT
 10
4577.0
 20
-571.0
 30
0.0
 11
4423.0
 21
-571.0
 31
0.0
1001
ACDBBLOCKREPETAG
1070
     1
1071
        4
1005
12809E
  0
LINE
  5
12809F
  8
CENTER
 10
4500.0
 20
-535.0
 30
0.0
 11
4500.0
 21
-890.0
 31
0.0
1001
ACDBBLOCKREPETAG
1070
     1
1071
        5
1005
12809F
  0
LINE
  5
1280A0
  8
OBJECT
 10
4425.0
 20
-634.0
 30
0.0
 11
4425.0
 21
-878.0
 31
0.0
1001
ACDBBLOCKREPETAG
1070
     1
1071
        6
1005
1280A0
  0
LINE
  5
1280A1
  8
OBJECT
 10
4428.0
 20
-571.0
 30
0.0
 11
4428.0
 21
-634.0
 31
0.0
1001
ACDBBLOCKREPETAG
1070
     1
1071
        7
1005
1280A1
  0
LINE
  5
1280A2
  8
OBJECT
 10
4572.0
 20
-634.0
 30
0.0
 11
4572.0
 21
-571.0
 31
0.0
1001
ACDBBLOCKREPETAG
1070
     1
1071
        8
1005
1280A2
  0
LINE
  5
1280A3
  8
OBJECT
 10
4420.0
 20
-878.0
 30
0.0
 11
4580.0
 21
-878.0
 31
0.0
1001
ACDBBLOCKREPETAG
1070
     1
1071
        9
1005
1280A3
  0
LINE
  5
1280A4
  8
OBJECT
 10
4580.0
 20
-634.0
 30
0.0
 11
4425.0
 21
-634.0
 31
0.0
1001
ACDBBLOCKREPETAG
1070
     1
1071
       10
1005
1280A4
  0
LINE
  5
1280A5
  8
OBJECT
 10
4420.0
 20
-878.0
 30
0.0
 11
4420.0
 21
-890.0
 31
0.0
1001
ACDBBLOCKREPETAG
1070
     1
1071
       11
1005
1280A5
  0
LINE
  5
1280A6
  8
OBJECT
 10
4420.0
 20
-890.0
 30
0.0
 11
4580.0
 21
-890.0
 31
0.0
1001
ACDBBLOCKREPETAG
1070
     1
1071
       12
1005
1280A6
  0
LINE
  5
1280A7
  8
OBJECT
 10
4580.0
 20
-890.0
 30
0.0
 11
4580.0
 21
-878.0
 31
0.0
1001
ACDBBLOCKREPETAG
1070
     1
1071
       13
1005
1280A7
  0
LINE
  5
1280A8
  8
OBJECT
 10
4574.9999999998617568
 20
-757.9999999998509566
 30
0.0
 11
4575.0
 21
-878.0
 31
0.0
1001
ACDBBLOCKREPETAG
1070
     1
1071
       15
1005
1280A8
  0
LINE
  5
1280A9
  8
OBJECT
 10
4574.9999908029849394
 20
-757.9999860270218051
 30
0.0
 11
4580.0
 21
-757.9999860270218051
 31
0.0
1001
ACDBBLOCKREPETAG
1070
     1
1071
       16
1005
1280A9
  0
ARC
  5
1280AA
  8
OBJECT
 10
4700.6872746716735492
 20
-749.4080994101076385
 30
0.0
 40
170.6350503965855978
 50
137.4413445918430057
 51
149.9194958133722082
1001
ACDBBLOCKREPETAG
1070
     1
1071
       17
1005
1280AA
  0
ARC
  5
1280AB
  8
OBJECT
 10
4618.8455987040497348
 20
-705.882726695364795
 30
0.0
 40
78.0722220217636647
 50
147.4551531038623011
 51
164.6636599771867111
1001
ACDBBLOCKREPETAG
1070
     1
1071
       18
1005
1280AB
  0
ARC
  5
1280AC
  8
OBJECT
 10
4585.755434960871753
 20
-696.0
 30
0.0
 40
43.5535392688561771
 50
165.6884523007529992
 51
194.3115476992468871
1001
ACDBBLOCKREPETAG
1070
     1
1071
       19
1005
1280AC
  0
ARC
  5
1280AD
  8
OBJECT
 10
4700.6872746716735492
 20
-642.5919005898921341
 30
0.0
 40
170.6350503965855978
 50
210.0805041866277918
 51
222.5586554081569943
1001
ACDBBLOCKREPETAG
1070
     1
1071
       20
1005
1280AD
  0
ARC
  5
1280AE
  8
OBJECT
 10
4618.8455987040497348
 20
-686.117273304635205
 30
0.0
 40
78.0722220217636647
 50
195.3363400228132889
 51
212.5448468961376989
1001
ACDBBLOCKREPETAG
1070
     1
1071
       21
1005
1280AE
  0
TEXT
  5
1280AF
  8
SLIM
 10
4968.3428571428567011
 20
-884.9999999999967031
 30
0.0
 40
24.0
  1
230～360
 41
0.75
  0
TEXT
  5
1280B0
  8
SLIM
 10
4878.857142857143117
 20
-884.9999999999967031
 30
0.0
 40
24.0
  1
300
 41
0.75
  0
VIEWPORT
  5
F6BA7
 67
     1
  8
0
 10
195.9179030619629032
 20
101.8328354358671959
 30
0.0
 40
435.1776330165599802
 41
222.1965796813965142
 68
     1
 69
     1
1001
ACAD
1000
MVIEW
1002
{
1070
    16
1010
0.0
1020
0.0
1030
0.0
1010
0.0
1020
0.0
1030
1.0
1040
0.0
1040
222.1965796813965142
1040
195.9179030619629032
1040
101.8328354358671959
1040
50.0
1040
0.0
1040
0.0
1070
     0
1070
     0
1070
     1
1070
     1
1070
     0
1070
     0
1070
     0
1070
     0
1040
0.0
1040
0.0
1040
0.0
1040
10.0
1040
10.0
1040
10.0
1040
10.0
1070
     0
1002
{
1002
}
1002
}
  0
VIEWPORT
  5
F6BA9
 67
     1
  8
OBJECT
 10
145.3303314447402954
 20
101.8328338861465028
 30
0.0
 40
232.5285303115844044
 41
162.9325342178343021
 68
     2
 69
     2
1001
ACAD
1000
MVIEW
1002
{
1070
    16
1010
0.0
1020
0.0
1030
0.0
1010
0.0
1020
0.0
1030
1.0
1040
0.0
1040
25942.5590440314699663
1040
2377.6044570773769919
1040
-7591.5176687056618903
1040
50.0
1040
0.0
1040
0.0
1070
     0
1070
   600
1070
     1
1070
     1
1070
     0
1070
     0
1070
     0
1070
     0
1040
0.0
1040
0.0
1040
0.0
1040
1.0
1040
1.0
1040
0.0
1040
0.0
1070
     0
1002
{
1002
}
1002
}
  0
ENDSEC
  0
EOF
